  0
SECTION
  2
HEADER
  9
$ACADVER
  1
AC1009
  9
$INSBASE
 10
0.0
 20
0.0
 30
0.0
  9
$EXTMIN
 10
541.9573230933828
 20
-1329.313203355877
 30
0.0
  9
$EXTMAX
 10
900.56178320143385
 20
-1157.9885558412029
 30
0.0
  9
$LIMMIN
 10
0.0
 20
0.0
  9
$LIMMAX
 10
420.0
 20
297.0
  9
$ORTHOMODE
 70
     0
  9
$REGENMODE
 70
     1
  9
$FILLMODE
 70
     1
  9
$QTEXTMODE
 70
     0
  9
$MIRRTEXT
 70
     0
  9
$DRAGMODE
 70
     2
  9
$LTSCALE
 40
0.5
  9
$OSMODE
 70
  2175
  9
$ATTMODE
 70
     1
  9
$TEXTSIZE
 40
4.0
  9
$TRACEWID
 40
1.0
  9
$TEXTSTYLE
  7
STANDARD
  9
$CLAYER
  8
1TEXT
  9
$CELTYPE
  6
BYLAYER
  9
$CECOLOR
 62
   256
  9
$DIMSCALE
 40
1.0
  9
$DIMASZ
 40
2.0
  9
$DIMEXO
 40
0.0
  9
$DIMDLI
 40
7.0
  9
$DIMRND
 40
0.0
  9
$DIMDLE
 40
0.0
  9
$DIMEXE
 40
1.0
  9
$DIMTP
 40
0.0
  9
$DIMTM
 40
0.0
  9
$DIMTXT
 40
3.5
  9
$DIMCEN
 40
0.0
  9
$DIMTSZ
 40
0.0
  9
$DIMTOL
 70
     0
  9
$DIMLIM
 70
     0
  9
$DIMTIH
 70
     0
  9
$DIMTOH
 70
     0
  9
$DIMSE1
 70
     0
  9
$DIMSE2
 70
     0
  9
$DIMTAD
 70
     1
  9
$DIMZIN
 70
     8
  9
$DIMBLK
  1

  9
$DIMASO
 70
     1
  9
$DIMSHO
 70
     1
  9
$DIMPOST
  1
 
  9
$DIMAPOST
  1

  9
$DIMALT
 70
     0
  9
$DIMALTD
 70
     2
  9
$DIMALTF
 40
25.399999999999999
  9
$DIMLFAC
 40
1.0
  9
$DIMTOFL
 70
     1
  9
$DIMTVP
 40
0.0
  9
$DIMTIX
 70
     0
  9
$DIMSOXD
 70
     0
  9
$DIMSAH
 70
     1
  9
$DIMBLK1
  1
OPEN30
  9
$DIMBLK2
  1
OPEN30
  9
$DIMSTYLE
  2
NEWX10
  9
$DIMCLRD
 70
   256
  9
$DIMCLRE
 70
   256
  9
$DIMCLRT
 70
   201
  9
$DIMTFAC
 40
0.7
  9
$DIMGAP
 40
0.7
  9
$LUNITS
 70
     2
  9
$LUPREC
 70
     4
  9
$SKETCHINC
 40
1.0
  9
$FILLETRAD
 40
0.0
  9
$AUNITS
 70
     0
  9
$AUPREC
 70
     2
  9
$MENU
  1
acad
  9
$ELEVATION
 40
0.0
  9
$PELEVATION
 40
0.0
  9
$THICKNESS
 40
0.0
  9
$LIMCHECK
 70
     0
  9
$BLIPMODE
 70
     0
  9
$CHAMFERA
 40
1.0
  9
$CHAMFERB
 40
1.0
  9
$SKPOLY
 70
     0
  9
$TDCREATE
 40
2453033.7326634838
  9
$TDUPDATE
 40
2456099.6446849648
  9
$TDINDWG
 40
1.7886649653
  9
$TDUSRTIMER
 40
1.7886649653
  9
$USRTIMER
 70
     1
  9
$ANGBASE
 50
0.0
  9
$ANGDIR
 70
     0
  9
$PDMODE
 70
     0
  9
$PDSIZE
 40
0.0
  9
$PLINEWID
 40
0.0
  9
$COORDS
 70
     2
  9
$SPLFRAME
 70
     0
  9
$SPLINETYPE
 70
     6
  9
$SPLINESEGS
 70
     8
  9
$ATTDIA
 70
     0
  9
$ATTREQ
 70
     1
  9
$HANDLING
 70
     1
  9
$HANDSEED
  5
1A0C2
  9
$SURFTAB1
 70
     6
  9
$SURFTAB2
 70
     6
  9
$SURFTYPE
 70
     6
  9
$SURFU
 70
     6
  9
$SURFV
 70
     6
  9
$UCSNAME
  2

  9
$UCSORG
 10
0.0
 20
0.0
 30
0.0
  9
$UCSXDIR
 10
1.0
 20
0.0
 30
0.0
  9
$UCSYDIR
 10
0.0
 20
1.0
 30
0.0
  9
$PUCSNAME
  2

  9
$PUCSORG
 10
0.0
 20
0.0
 30
0.0
  9
$PUCSXDIR
 10
1.0
 20
0.0
 30
0.0
  9
$PUCSYDIR
 10
0.0
 20
1.0
 30
0.0
  9
$USERI1
 70
     0
  9
$USERI2
 70
     0
  9
$USERI3
 70
     0
  9
$USERI4
 70
     0
  9
$USERI5
 70
     0
  9
$USERR1
 40
0.0
  9
$USERR2
 40
0.0
  9
$USERR3
 40
0.0
  9
$USERR4
 40
0.0
  9
$USERR5
 40
0.0
  9
$WORLDVIEW
 70
     1
  9
$SHADEDGE
 70
     3
  9
$SHADEDIF
 70
    70
  9
$TILEMODE
 70
     1
  9
$MAXACTVP
 70
    48
  9
$PLIMCHECK
 70
     0
  9
$PEXTMIN
 10
1.0000000000000000E+020
 20
1.0000000000000000E+020
 30
1.0000000000000000E+020
  9
$PEXTMAX
 10
-1.0000000000000000E+020
 20
-1.0000000000000000E+020
 30
-1.0000000000000000E+020
  9
$PLIMMIN
 10
0.0
 20
0.0
  9
$PLIMMAX
 10
420.0
 20
297.0
  9
$UNITMODE
 70
     0
  9
$VISRETAIN
 70
     1
  9
$PLINEGEN
 70
     0
  9
$PSLTSCALE
 70
     1
  0
ENDSEC
  0
SECTION
  2
TABLES
  0
TABLE
  2
VPORT
 70
     1
  0
VPORT
  2
*ACTIVE
 70
     0
 10
0.0
 20
0.0
 11
1.0
 21
1.0
 12
721.25767274263865
 22
-1243.6250367933451
 13
0.0
 23
0.0
 14
10.0
 24
10.0
 15
10.0
 25
10.0
 16
0.0
 26
0.0
 36
1.0
 17
0.0
 27
0.0
 37
0.0
 40
255.61396972238941
 41
1.4848883048620229
 42
50.0
 43
0.0
 44
0.0
 50
0.0
 51
0.0
 71
     0
 72
   100
 73
     1
 74
     1
 75
     0
 76
     0
 77
     0
 78
     0
  0
ENDTAB
  0
TABLE
  2
LTYPE
 70
    18
  0
LTYPE
  2
CONTINUOUS
 70
     0
  3
Solid line
 72
    65
 73
     0
 40
0.0
  0
LTYPE
  2
CENTER2
 70
     0
  3
Center (.5x) ___ _ ___ _ ___ _ ___ _ ___ _ ___
 72
    65
 73
     4
 40
28.574999999999999
 49
19.050000000000001
 49
-3.1749999999999989
 49
3.1749999999999989
 49
-3.1749999999999989
  0
LTYPE
  2
HIDDEN
 70
     0
  3
Hidden __ __ __ __ __ __ __ __ __ __ __ __ __ _
 72
    65
 73
     2
 40
9.5249999999999986
 49
6.3499999999999988
 49
-3.1749999999999989
  0
LTYPE
  2
PHANTOM2
 70
     0
  3
Phantom (.5x) ___ _ _ ___ _ _ ___ _ _ ___ _ _
 72
    65
 73
     6
 40
31.75
 49
15.875
 49
-3.1749999999999989
 49
3.1749999999999989
 49
-3.1749999999999989
 49
3.1749999999999989
 49
-3.1749999999999989
  0
ENDTAB
  0
TABLE
  2
LAYER
 70
    44
  0
LAYER
  2
0
 70
     0
 62
     7
  6
CONTINUOUS
  0
LAYER
  2
1CENTER
 70
     0
 62
     7
  6
CENTER2
  0
LAYER
  2
1TEXT
 70
     0
 62
     7
  6
CONTINUOUS
  0
LAYER
  2
1DIM
 70
     0
 62
     7
  6
CONTINUOUS
  0
LAYER
  2
1HIDDEN
 70
     0
 62
     7
  6
HIDDEN
  0
LAYER
  2
1PHANTOM
 70
     0
 62
     7
  6
PHANTOM2
  0
LAYER
  2
01
 70
     0
 62
     1
  6
CONTINUOUS
  0
LAYER
  2
1HATCH
 70
     0
 62
     7
  6
CONTINUOUS
  0
ENDTAB
  0
TABLE
  2
STYLE
 70
    22
  0
STYLE
  2
STANDARD
 70
     0
 40
0.0
 41
1.0
 50
0.0
 71
     0
 42
4.0
  3
txt.shx
  4
extfont.shx
  0
ENDTAB
  0
TABLE
  2
VIEW
 70
     5
  0
ENDTAB
  0
TABLE
  2
UCS
 70
     0
  0
ENDTAB
  0
TABLE
  2
APPID
 70
    11
  0
APPID
  2
ACAD
 70
     0
  0
APPID
  2
DRAWINGVARIABLESXDATA
 70
     0
  0
APPID
  2
CONTENTTABDATA
 70
     0
  0
APPID
  2
CONTENTCURRENTTAB
 70
     0
  0
APPID
  2
CONTENTBLOCKDESCRIPTION
 70
     0
  0
APPID
  2
CONTENTBLOCKICON
 70
     0
  0
APPID
  2
CONTENTLONGBLOCKNAME
 70
     0
  0
APPID
  2
ACAD_PSEXT
 70
     0
  0
APPID
  2
ACAD_DSTYLE_DIMTEXT_FILL
 70
     0
  0
APPID
  2
ACAD_MLEADERVER
 70
     0
  0
APPID
  2
ACAD_EXEMPT_FROM_CAD_STANDARDS
 70
     0
  0
ENDTAB
  0
TABLE
  2
DIMSTYLE
 70
     9
  0
DIMSTYLE
  2
NEWX10
 70
     0
  3
 
  4

  5

  6
OPEN30
  7
OPEN30
 40
1.0
 41
2.0
 42
0.0
 43
7.0
 44
1.0
 45
0.0
 46
0.0
 47
0.0
 48
0.0
140
3.5
141
0.0
142
0.0
143
25.399999999999999
144
1.0
145
0.0
146
0.7
147
0.7
 71
     0
 72
     0
 73
     0
 74
     0
 75
     0
 76
     0
 77
     1
 78
     8
170
     0
171
     2
172
     1
173
     1
174
     0
175
     0
176
   256
177
   256
178
   201
  0
ENDTAB
  0
ENDSEC
  0
SECTION
  2
BLOCKS
  0
BLOCK
  8
0
  2
$MODEL_SPACE
 70
     0
 10
0.0
 20
0.0
 30
0.0
  3
$MODEL_SPACE
  1

  0
ENDBLK
  5
1A
  8
0
  0
BLOCK
 67
     1
  8
0
  2
$PAPER_SPACE
 70
     0
 10
0.0
 20
0.0
 30
0.0
  3
$PAPER_SPACE
  1

  0
ENDBLK
  5
17
 67
     1
  8
0
  0
BLOCK
  8
0
  2
_OPEN30
 70
     0
 10
0.0
 20
0.0
 30
0.0
  3
_OPEN30
  1

  0
LINE
  5
44
  8
0
  6
BYBLOCK
 62
     0
 10
-1.0
 20
0.26794919
 30
0.0
 11
0.0
 21
0.0
 31
0.0
  0
LINE
  5
45
  8
0
  6
BYBLOCK
 62
     0
 10
0.0
 20
0.0
 30
0.0
 11
-1.0
 21
-0.26794919
 31
0.0
  0
LINE
  5
46
  8
0
  6
BYBLOCK
 62
     0
 10
0.0
 20
0.0
 30
0.0
 11
-1.0
 21
0.0
 31
0.0
  0
ENDBLK
  5
47
  8
0
  0
ENDSEC
  0
SECTION
  2
ENTITIES
  0
LINE
  5
193BD
  8
01
 10
873.37267079783726
 20
-1249.3132033558779
 30
0.0
 11
873.37267079783726
 21
-1329.313203355877
 31
0.0
  0
LINE
  5
193BE
  8
01
 10
882.37267079783726
 20
-1249.3132033558779
 30
0.0
 11
882.37267079783726
 21
-1329.313203355877
 31
0.0
  0
LINE
  5
193BF
  8
01
 10
864.37267079783715
 20
-1249.3132033558779
 30
0.0
 11
864.37267079783715
 21
-1329.313203355877
 31
0.0
  0
TEXT
  5
193C6
  8
1TEXT
 10
816.8416732858343
 20
-1180.0694077804681
 30
0.0
 40
4.0
  1
表面処理：
 72
     1
 11
827.48929233345348
 21
-1180.0694077804681
 31
0.0
  0
TEXT
  5
193C7
  8
1TEXT
 10
818.15595900012011
 20
-1186.904696439992
 30
0.0
 40
4.0
  1
クローム
 72
     1
 11
827.48929233345348
 21
-1186.904696439992
 31
0.0
  0
LINE
  5
193C8
  8
1DIM
 10
810.08929233345339
 20
-1174.5694077804681
 30
0.0
 11
880.08929233345327
 21
-1174.5694077804681
 31
0.0
  0
LINE
  5
193C9
  8
1DIM
 10
810.08929233345339
 20
-1188.5694077804681
 30
0.0
 11
880.08929233345327
 21
-1188.5694077804681
 31
0.0
  0
LINE
  5
193CA
  8
1DIM
 10
810.08929233345339
 20
-1181.5694077804681
 30
0.0
 11
880.08929233345327
 21
-1181.5694077804681
 31
0.0
  0
LINE
  5
193CB
  8
1DIM
 10
845.08929233345327
 20
-1174.5694077804681
 30
0.0
 11
845.08929233345316
 21
-1195.5694077804681
 31
0.0
  0
TEXT
  5
193CC
  8
1TEXT
 10
848.08929233345395
 20
-1187.283764764117
 30
0.0
 40
4.0
  1
SC-311-XC
 41
0.9
 72
     1
 11
862.48929233345405
 21
-1187.283764764117
 31
0.0
  0
TEXT
  5
193CD
  8
1TEXT
 10
855.68929233345352
 20
-1180.0694077804681
 30
0.0
 40
4.0
  1
コード
 72
     1
 11
862.48929233345348
 21
-1180.0694077804681
 31
0.0
  0
LINE
  5
193CE
  8
1DIM
 10
810.08929233345316
 20
-1195.5694077804681
 30
0.0
 11
810.08929233345339
 21
-1174.5694077804681
 31
0.0
  0
LINE
  5
193CF
  8
1DIM
 10
880.08929233345305
 20
-1195.5694077804681
 30
0.0
 11
880.08929233345327
 21
-1174.5694077804681
 31
0.0
  0
TEXT
  5
193D0
  8
1TEXT
 10
810.08929233345339
 20
-1169.5694077804681
 30
0.0
 40
8.0
  1
SC-311-X
  0
LINE
  5
1969B
  8
01
 10
542.4573230933828
 20
-1276.336229336421
 30
0.0
 11
761.45732309338257
 21
-1276.336229336421
 31
0.0
  0
ARC
  5
1969C
  8
01
 10
761.45732309338257
 20
-1276.836229336421
 30
0.0
 40
0.5
 50
0.0
 51
90.0
  0
LINE
  5
1969D
  8
01
 10
542.4573230933828
 20
-1283.336229336421
 30
0.0
 11
761.45732309338257
 21
-1283.336229336421
 31
0.0
  0
ARC
  5
1969E
  8
01
 10
542.4573230933828
 20
-1282.836229336421
 30
0.0
 40
0.5
 50
180.0
 51
270.0
  0
LINE
  5
1969F
  8
01
 10
761.95732309338257
 20
-1276.836229336421
 30
0.0
 11
761.95732309338257
 21
-1282.836229336421
 31
0.0
  0
ARC
  5
196A0
  8
01
 10
761.45732309338257
 20
-1282.836229336421
 30
0.0
 40
0.5
 50
270.0
 51
0.0
  0
LINE
  5
196A1
  8
01
 10
541.9573230933828
 20
-1276.836229336421
 30
0.0
 11
541.9573230933828
 21
-1282.836229336421
 31
0.0
  0
ARC
  5
196A2
  8
01
 10
542.4573230933828
 20
-1276.836229336421
 30
0.0
 40
0.5
 50
90.0
 51
180.0
  0
ARC
  5
196A3
  8
01
 10
743.45732309338268
 20
-1284.336229336421
 30
0.0
 40
1.0
 50
0.0
 51
90.0
  0
LINE
  5
196A4
  8
01
 10
745.45732309338257
 20
-1297.586229336421
 30
0.0
 11
755.7073230933828
 21
-1297.586229336421
 31
0.0
  0
ARC
  5
196A5
  8
01
 10
755.7073230933828
 20
-1296.586229336421
 30
0.0
 40
1.0
 50
270.0
 51
0.0
  0
LINE
  5
196A6
  8
01
 10
756.7073230933828
 20
-1284.336229336421
 30
0.0
 11
756.7073230933828
 21
-1296.586229336421
 31
0.0
  0
ARC
  5
196A7
  8
01
 10
757.7073230933828
 20
-1284.336229336421
 30
0.0
 40
1.0
 50
90.0
 51
180.0
  0
LINE
  5
196A8
  8
01
 10
744.45732309338268
 20
-1284.336229336421
 30
0.0
 11
744.45732309338246
 21
-1296.586229336421
 31
0.0
  0
ARC
  5
196A9
  8
01
 10
745.45732309338257
 20
-1296.586229336421
 30
0.0
 40
1.0
 50
180.0
 51
270.0
  0
CIRCLE
  5
196AA
  8
01
 10
750.4573230933828
 20
-1287.586229336421
 30
0.0
 40
2.25
  0
LINE
  5
196AB
  8
1CENTER
 10
755.99248621933691
 20
-1287.586229336421
 30
0.0
 11
744.92215996742857
 21
-1287.586229336421
 31
0.0
  0
LINE
  5
196AC
  8
1CENTER
 10
750.4573230933828
 20
-1282.0510662104671
 30
0.0
 11
750.4573230933828
 21
-1293.1213924623751
 31
0.0
  0
ARC
  5
196AD
  8
01
 10
560.45732309338268
 20
-1284.336229336421
 30
0.0
 40
1.0
 50
90.0
 51
180.0
  0
LINE
  5
196AE
  8
01
 10
558.45732309338291
 20
-1297.586229336421
 30
0.0
 11
548.2073230933828
 21
-1297.586229336421
 31
0.0
  0
ARC
  5
196AF
  8
01
 10
548.2073230933828
 20
-1296.586229336421
 30
0.0
 40
1.0
 50
180.0
 51
270.0
  0
LINE
  5
196B0
  8
01
 10
547.2073230933828
 20
-1284.336229336421
 30
0.0
 11
547.2073230933828
 21
-1296.586229336421
 31
0.0
  0
ARC
  5
196B1
  8
01
 10
546.20732309338268
 20
-1284.336229336421
 30
0.0
 40
1.0
 50
0.0
 51
90.0
  0
LINE
  5
196B2
  8
01
 10
559.4573230933828
 20
-1284.336229336421
 30
0.0
 11
559.4573230933828
 21
-1296.586229336421
 31
0.0
  0
ARC
  5
196B3
  8
01
 10
558.45732309338291
 20
-1296.586229336421
 30
0.0
 40
1.0
 50
270.0
 51
0.0
  0
CIRCLE
  5
196B4
  8
01
 10
553.4573230933828
 20
-1287.586229336421
 30
0.0
 40
2.25
  0
LINE
  5
196B5
  8
1CENTER
 10
547.92215996742868
 20
-1287.586229336421
 30
0.0
 11
558.99248621933691
 21
-1287.586229336421
 31
0.0
  0
LINE
  5
196B6
  8
1CENTER
 10
553.4573230933828
 20
-1282.0510662104671
 30
0.0
 11
553.4573230933828
 21
-1293.1213924623751
 31
0.0
  0
CIRCLE
  5
196B7
  8
01
 10
553.4573230933828
 20
-1287.586229336421
 30
0.0
 40
4.0
  0
CIRCLE
  5
196B8
  8
01
 10
750.4573230933828
 20
-1287.586229336421
 30
0.0
 40
4.0
  0
LINE
  5
196CA
  8
01
 10
817.87267079783715
 20
-1276.336229336421
 30
0.0
 11
864.37267079783715
 21
-1276.336229336421
 31
0.0
  0
ARC
  5
196CD
  8
01
 10
817.87267079783726
 20
-1282.836229336421
 30
0.0
 40
0.5
 50
180.0
 51
270.0
  0
LINE
  5
196CE
  8
01
 10
863.87267079783715
 20
-1297.586229336421
 30
0.0
 11
864.37267079783726
 21
-1297.586229336421
 31
0.0
  0
LINE
  5
196D2
  8
01
 10
817.37267079783726
 20
-1282.836229336421
 30
0.0
 11
817.37267079783726
 21
-1276.836229336421
 31
0.0
  0
ARC
  5
196D3
  8
01
 10
817.87267079783715
 20
-1276.836229336421
 30
0.0
 40
0.5
 50
90.0
 51
180.0
  0
LINE
  5
196D5
  8
1PHANTOM
 10
861.37267079783715
 20
-1285.336229336421
 30
0.0
 11
864.37267079783715
 21
-1285.336229336421
 31
0.0
  0
LINE
  5
196D7
  8
1PHANTOM
 10
861.37267079783715
 20
-1289.836229336421
 30
0.0
 11
864.37267079783715
 21
-1289.836229336421
 31
0.0
  0
LINE
  5
196E8
  8
01
 10
817.87267079783726
 20
-1283.336229336421
 30
0.0
 11
864.37267079783715
 21
-1283.336229336421
 31
0.0
  0
LINE
  5
19891
  8
01
 10
541.9573230933828
 20
-1186.949470432349
 30
0.0
 11
564.4573230933828
 21
-1186.949470432349
 31
0.0
  0
LINE
  5
19892
  8
01
 10
739.45732309338268
 20
-1186.949470432349
 30
0.0
 11
761.9573230933828
 21
-1186.949470432349
 31
0.0
  0
LINE
  5
19893
  8
01
 10
542.9573230933828
 20
-1233.9494704323499
 30
0.0
 11
760.95732309338268
 21
-1233.949470432349
 31
0.0
  0
ARC
  5
19894
  8
01
 10
760.95732309338268
 20
-1232.949470432349
 30
0.0
 40
1.0
 50
270.0
 51
0.0
  0
LINE
  5
19895
  8
01
 10
566.4573230933828
 20
-1221.949470432349
 30
0.0
 11
737.45732309338234
 21
-1221.949470432349
 31
0.0
  0
LINE
  5
19896
  8
01
 10
761.9573230933828
 20
-1186.949470432349
 30
0.0
 11
761.9573230933828
 21
-1232.949470432349
 31
0.0
  0
LINE
  5
19897
  8
01
 10
541.9573230933828
 20
-1186.949470432349
 30
0.0
 11
541.95732309338291
 21
-1232.9494704323499
 31
0.0
  0
ARC
  5
19898
  8
01
 10
542.9573230933828
 20
-1232.9494704323499
 30
0.0
 40
1.0
 50
180.0
 51
270.0
  0
LINE
  5
19899
  8
01
 10
739.45732309338268
 20
-1186.949470432349
 30
0.0
 11
739.45732309338234
 21
-1219.949470432349
 31
0.0
  0
ARC
  5
1989A
  8
01
 10
737.45732309338234
 20
-1219.949470432349
 30
0.0
 40
2.0
 50
270.0
 51
0.0
  0
LINE
  5
1989B
  8
01
 10
564.45732309338268
 20
-1186.949470432349
 30
0.0
 11
564.45732309338268
 21
-1219.949470432349
 31
0.0
  0
ARC
  5
1989C
  8
01
 10
566.4573230933828
 20
-1219.949470432349
 30
0.0
 40
2.0
 50
180.0
 51
270.0
  0
LINE
  5
198EC
  8
1PHANTOM
 10
753.95732309338291
 20
-1190.949478576131
 30
0.0
 11
753.95732309338291
 21
-1189.949470432349
 31
0.0
  0
LINE
  5
198ED
  8
1PHANTOM
 10
750.45736962928095
 20
-1190.949470432457
 30
0.0
 11
749.88001936002877
 21
-1189.949470432349
 31
0.0
  0
LINE
  5
198EE
  8
1PHANTOM
 10
746.9573230933828
 20
-1190.949462288567
 30
0.0
 11
746.9573230933828
 21
-1189.949470432349
 31
0.0
  0
LINE
  5
19A1D
  8
1PHANTOM
 10
860.37266265405503
 20
-1291.086229336421
 30
0.0
 11
861.37267079783737
 21
-1291.086229336421
 31
0.0
  0
LINE
  5
19A1E
  8
1PHANTOM
 10
860.37267079772892
 20
-1287.586275872319
 30
0.0
 11
861.37267079783715
 21
-1287.0089256030669
 31
0.0
  0
LINE
  5
19A1F
  8
1PHANTOM
 10
860.37267894161926
 20
-1284.086229336421
 30
0.0
 11
861.37267079783703
 21
-1284.086229336421
 31
0.0
  0
LINE
  5
19D58
  8
1PHANTOM
 10
746.95732309338302
 20
-1189.949470432349
 30
0.0
 11
753.95732309338291
 21
-1189.949470432349
 31
0.0
  0
LINE
  5
19D5E
  8
01
 10
864.37267079783715
 20
-1297.586229336421
 30
0.0
 11
864.37267079783715
 21
-1276.336229336421
 31
0.0
  0
LINE
  5
19D5F
  8
01
 10
829.37267079783737
 20
-1283.336229336421
 30
0.0
 11
863.87267079783715
 21
-1297.586229336421
 31
0.0
  0
LINE
  5
19D60
  8
1PHANTOM
 10
861.37267079783703
 20
-1283.586229336421
 30
0.0
 11
829.97793395573206
 21
-1283.586229336421
 31
0.0
  0
LINE
  5
19D61
  8
1PHANTOM
 10
861.37267079783737
 20
-1291.586229336421
 30
0.0
 11
849.34635500836316
 21
-1291.586229336421
 31
0.0
  0
LINE
  5
19D62
  8
1PHANTOM
 10
861.37267079783737
 20
-1291.586229336421
 30
0.0
 11
861.37267079783703
 21
-1283.586229336421
 31
0.0
  0
LINE
  5
19D77
  8
1HIDDEN
 10
752.70732309338291
 20
-1189.949470432349
 30
0.0
 11
752.7073230933828
 21
-1186.949470432349
 31
0.0
  0
LINE
  5
19D78
  8
1HIDDEN
 10
748.2073230933828
 20
-1189.949470432349
 30
0.0
 11
748.2073230933828
 21
-1186.949470432349
 31
0.0
  0
LINE
  5
19DBA
  8
1PHANTOM
 10
556.95732309338189
 20
-1189.949470432349
 30
0.0
 11
549.95732309338212
 21
-1189.949470432349
 31
0.0
  0
LINE
  5
19DBC
  8
1PHANTOM
 10
549.95732309338212
 20
-1190.949478576131
 30
0.0
 11
549.95732309338212
 21
-1189.949470432349
 31
0.0
  0
LINE
  5
19DBD
  8
1PHANTOM
 10
553.45727655748397
 20
-1190.949470432457
 30
0.0
 11
554.03462682673614
 21
-1189.949470432349
 31
0.0
  0
LINE
  5
19DBE
  8
1PHANTOM
 10
556.95732309338212
 20
-1190.949462288567
 30
0.0
 11
556.95732309338212
 21
-1189.949470432349
 31
0.0
  0
LINE
  5
19DBF
  8
1HIDDEN
 10
551.20732309338212
 20
-1189.949470432349
 30
0.0
 11
551.20732309338223
 21
-1186.949470432349
 31
0.0
  0
LINE
  5
19DC0
  8
1HIDDEN
 10
555.70732309338223
 20
-1189.949470432349
 30
0.0
 11
555.70732309338223
 21
-1186.949470432349
 31
0.0
  0
TEXT
  5
19E30
  8
1TEXT
 10
811.22262566678671
 20
-1193.904696439992
 30
0.0
 40
4.0
  1
サテンニッケル
 72
     1
 11
827.48929233345325
 21
-1193.904696439992
 31
0.0
  0
LINE
  5
19E31
  8
1DIM
 10
810.08929233345316
 20
-1195.5694077804681
 30
0.0
 11
880.08929233345327
 21
-1195.5694077804681
 31
0.0
  0
TEXT
  5
19E32
  8
1TEXT
 10
848.08929233345384
 20
-1194.2837647641179
 30
0.0
 40
4.0
  1
SC-311-XN
 41
0.9
 72
     1
 11
862.48929233345382
 21
-1194.2837647641179
 31
0.0
  0
LINE
  5
19F2C
  8
1CENTER
 10
553.45732309338212
 20
-1157.9885558412029
 30
0.0
 11
553.45732309338212
 21
-1194.6197468416581
 31
0.0
  0
LINE
  5
19F2D
  8
0
 10
554.55164690737706
 20
-1163.0494678861889
 30
0.0
 11
552.58931181850176
 21
-1162.249472452138
 31
0.0
  0
LINE
  5
19F2E
  8
0
 10
552.58931181850176
 20
-1162.249472452138
 30
0.0
 11
553.17758839354406
 21
-1161.9377025958861
 31
0.0
  0
LINE
  5
19F2F
  8
0
 10
555.45727655748419
 20
-1185.4494657789789
 30
0.0
 11
551.45727655748408
 21
-1184.6494750861609
 31
0.0
  0
LINE
  5
19F30
  8
0
 10
555.45727655748419
 20
-1174.249465778975
 30
0.0
 11
551.45727655748408
 21
-1173.449475086152
 31
0.0
  0
LINE
  5
19F31
  8
0
 10
555.45727655748419
 20
-1171.049465778975
 30
0.0
 11
551.45727655748408
 21
-1170.249475086152
 31
0.0
  0
LINE
  5
19F32
  8
0
 10
551.45727655748408
 20
-1170.249475086152
 30
0.0
 11
551.95727655748408
 21
-1170.1494739227551
 31
0.0
  0
LINE
  5
19F33
  8
0
 10
554.95727655748419
 20
-1169.549466942372
 30
0.0
 11
555.45727655748419
 21
-1169.4494657789751
 31
0.0
  0
LINE
  5
19F34
  8
0
 10
551.45727655748408
 20
-1173.449475086152
 30
0.0
 11
551.95727655748408
 21
-1173.3494739227549
 31
0.0
  0
LINE
  5
19F35
  8
0
 10
551.45727655748408
 20
-1171.8494750861521
 30
0.0
 11
551.95727655748408
 21
-1171.749473922755
 31
0.0
  0
LINE
  5
19F36
  8
0
 10
554.95727655748419
 20
-1171.1494669423721
 30
0.0
 11
555.45727655748419
 21
-1171.049465778975
 31
0.0
  0
LINE
  5
19F37
  8
0
 10
554.95727655748419
 20
-1172.749466942372
 30
0.0
 11
555.45727655748419
 21
-1172.6494657789749
 31
0.0
  0
LINE
  5
19F38
  8
0
 10
555.45727655748419
 20
-1172.6494657789749
 30
0.0
 11
551.45727655748408
 21
-1171.8494750861521
 31
0.0
  0
LINE
  5
19F39
  8
0
 10
552.13649771409484
 20
-1163.8494735057441
 30
0.0
 11
552.68824717789823
 21
-1163.6667093631161
 31
0.0
  0
LINE
  5
19F3A
  8
0
 10
551.45727655748408
 20
-1167.0494750861519
 30
0.0
 11
551.95727655748408
 21
-1166.949473922755
 31
0.0
  0
LINE
  5
19F3B
  8
0
 10
551.45727655748408
 20
-1168.6494750861521
 30
0.0
 11
551.95727655748408
 21
-1168.5494739227549
 31
0.0
  0
LINE
  5
19F3C
  8
0
 10
551.68368360968816
 20
-1165.449474559349
 30
0.0
 11
552.2202773449593
 21
-1165.3202038617201
 31
0.0
  0
LINE
  5
19F3D
  8
0
 10
554.53636196027537
 20
-1164.762236344935
 30
0.0
 11
555.00446041542546
 21
-1164.6494668325849
 31
0.0
  0
LINE
  5
19F3E
  8
0
 10
554.95727655748419
 20
-1167.9494669423721
 30
0.0
 11
555.45727655748419
 21
-1167.8494657789749
 31
0.0
  0
LINE
  5
19F3F
  8
0
 10
554.95727655748419
 20
-1166.3494669423719
 30
0.0
 11
555.45727655748419
 21
-1166.249465778975
 31
0.0
  0
LINE
  5
19F40
  8
0
 10
554.0944750667461
 20
-1163.20090368263
 30
0.0
 11
554.55164690737706
 21
-1163.0494678861889
 31
0.0
  0
LINE
  5
19F41
  8
0
 10
555.00446041542546
 20
-1164.6494668325849
 30
0.0
 11
552.13649771409484
 21
-1163.8494735057441
 31
0.0
  0
LINE
  5
19F42
  8
0
 10
555.45727655748419
 20
-1167.8494657789749
 30
0.0
 11
551.45727655748408
 21
-1167.0494750861519
 31
0.0
  0
LINE
  5
19F43
  8
0
 10
555.45727655748419
 20
-1166.249465778975
 30
0.0
 11
551.68368360968816
 21
-1165.449474559349
 31
0.0
  0
LINE
  5
19F44
  8
0
 10
555.45727655748419
 20
-1169.4494657789751
 30
0.0
 11
551.45727655748408
 21
-1168.6494750861521
 31
0.0
  0
LINE
  5
19F45
  8
0
 10
555.45727655748419
 20
-1182.2494657789789
 30
0.0
 11
551.45727655748408
 21
-1181.4494750861611
 31
0.0
  0
LINE
  5
19F46
  8
0
 10
551.45727655748408
 20
-1181.4494750861611
 30
0.0
 11
551.95727655748408
 21
-1181.3494739227631
 31
0.0
  0
LINE
  5
19F47
  8
0
 10
554.95727655748419
 20
-1180.7494669423729
 30
0.0
 11
555.45727655748419
 21
-1180.6494657789749
 31
0.0
  0
LINE
  5
19F48
  8
0
 10
551.45727655748408
 20
-1183.049475086161
 30
0.0
 11
551.95727655748408
 21
-1182.949473922763
 31
0.0
  0
LINE
  5
19F49
  8
0
 10
551.45727655748408
 20
-1184.6494750861609
 30
0.0
 11
551.95727655748408
 21
-1184.5494739227629
 31
0.0
  0
LINE
  5
19F4A
  8
0
 10
554.95727655748419
 20
-1182.3494669423769
 30
0.0
 11
555.45727655748419
 21
-1182.2494657789789
 31
0.0
  0
LINE
  5
19F4B
  8
0
 10
554.95727655748419
 20
-1183.9494669423771
 30
0.0
 11
555.45727655748419
 21
-1183.849465778979
 31
0.0
  0
LINE
  5
19F4C
  8
0
 10
555.45727655748419
 20
-1183.849465778979
 30
0.0
 11
551.45727655748408
 21
-1183.049475086161
 31
0.0
  0
LINE
  5
19F4D
  8
0
 10
551.45727655748408
 20
-1176.6494750861571
 30
0.0
 11
551.95727655748408
 21
-1176.549473922759
 31
0.0
  0
LINE
  5
19F4E
  8
0
 10
551.45727655748408
 20
-1175.0494750861519
 30
0.0
 11
551.95727655748408
 21
-1174.949473922755
 31
0.0
  0
LINE
  5
19F4F
  8
0
 10
551.45727655748408
 20
-1179.8494750861571
 30
0.0
 11
551.95727655748408
 21
-1179.7494739227591
 31
0.0
  0
LINE
  5
19F50
  8
0
 10
551.45727655748408
 20
-1178.249475086157
 30
0.0
 11
551.95727655748408
 21
-1178.1494739227589
 31
0.0
  0
LINE
  5
19F51
  8
0
 10
554.95727655748419
 20
-1174.3494669423719
 30
0.0
 11
555.45727655748419
 21
-1174.249465778975
 31
0.0
  0
LINE
  5
19F52
  8
0
 10
554.95727655748419
 20
-1175.9494669423721
 30
0.0
 11
555.45727655748419
 21
-1175.8494657789749
 31
0.0
  0
LINE
  5
19F53
  8
0
 10
554.95727655748419
 20
-1179.1494669423721
 30
0.0
 11
555.45727655748419
 21
-1179.049465778975
 31
0.0
  0
LINE
  5
19F54
  8
0
 10
554.95727655748419
 20
-1177.549466942372
 30
0.0
 11
555.45727655748419
 21
-1177.4494657789751
 31
0.0
  0
LINE
  5
19F55
  8
0
 10
555.45727655748419
 20
-1177.4494657789751
 30
0.0
 11
551.45727655748408
 21
-1176.6494750861571
 31
0.0
  0
LINE
  5
19F56
  8
0
 10
555.45727655748419
 20
-1175.8494657789749
 30
0.0
 11
551.45727655748408
 21
-1175.0494750861519
 31
0.0
  0
LINE
  5
19F57
  8
0
 10
555.45727655748419
 20
-1179.049465778975
 30
0.0
 11
551.45727655748408
 21
-1178.249475086157
 31
0.0
  0
LINE
  5
19F58
  8
0
 10
555.45727655748419
 20
-1180.6494657789749
 30
0.0
 11
551.45727655748408
 21
-1179.8494750861571
 31
0.0
  0
LINE
  5
19F59
  8
0
 10
551.95727655748408
 20
-1190.94947392265
 30
0.0
 11
554.95727655748385
 21
-1190.949466942265
 31
0.0
  0
LINE
  5
19F5A
  8
0
 10
554.95727655748419
 20
-1190.349466942381
 30
0.0
 11
555.45727655748419
 21
-1190.249465778983
 31
0.0
  0
LINE
  5
19F5B
  8
0
 10
555.45727655748419
 20
-1190.249465778983
 30
0.0
 11
551.45727655748408
 21
-1189.449475086165
 31
0.0
  0
LINE
  5
19F5C
  8
0
 10
551.45727655748408
 20
-1189.449475086165
 30
0.0
 11
551.95727655748408
 21
-1189.3494739227669
 31
0.0
  0
LINE
  5
19F5D
  8
0
 10
554.95727655748419
 20
-1188.7494669423811
 30
0.0
 11
555.45727655748419
 21
-1188.649465778984
 31
0.0
  0
LINE
  5
19F5E
  8
0
 10
554.95727655748419
 20
-1187.149466942381
 30
0.0
 11
555.45727655748419
 21
-1187.0494657789841
 31
0.0
  0
LINE
  5
19F5F
  8
0
 10
555.45727655748419
 20
-1187.0494657789841
 30
0.0
 11
551.45727655748408
 21
-1186.2494750861649
 31
0.0
  0
LINE
  5
19F60
  8
0
 10
551.45727655748408
 20
-1187.8494750861651
 30
0.0
 11
551.95727655748408
 21
-1187.749473922767
 31
0.0
  0
LINE
  5
19F61
  8
0
 10
551.45727655748408
 20
-1186.2494750861649
 30
0.0
 11
551.95727655748408
 21
-1186.149473922768
 31
0.0
  0
LINE
  5
19F62
  8
0
 10
555.45727655748419
 20
-1188.649465778984
 30
0.0
 11
551.45727655748408
 21
-1187.8494750861651
 31
0.0
  0
LINE
  5
19F63
  8
0
 10
554.95727655748419
 20
-1185.549466942377
 30
0.0
 11
555.45727655748419
 21
-1185.4494657789789
 31
0.0
  0
LINE
  5
19F64
  8
1DIM
 10
760.95732309338268
 20
-1233.949470432349
 30
0.0
 11
792.9573230933828
 21
-1233.949470432349
 31
0.0
  0
LINE
  5
19F65
  8
1DIM
 10
761.9573230933828
 20
-1186.949470432349
 30
0.0
 11
792.9573230933828
 21
-1186.949470432349
 31
0.0
  0
LINE
  5
19F66
  8
1DIM
 10
791.9573230933828
 20
-1231.949470432349
 30
0.0
 11
791.9573230933828
 21
-1188.949470432349
 31
0.0
  0
LINE
  5
19F6A
  8
1DIM
 10
737.45732309338234
 20
-1221.949470432349
 30
0.0
 11
782.9573230933828
 21
-1221.949470432349
 31
0.0
  0
LINE
  5
19F6B
  8
1DIM
 10
760.95732309338268
 20
-1233.949470432349
 30
0.0
 11
782.9573230933828
 21
-1233.949470432349
 31
0.0
  0
LINE
  5
19F6C
  8
1DIM
 10
781.95732309338268
 20
-1223.949470432349
 30
0.0
 11
781.95732309338268
 21
-1231.949470432349
 31
0.0
  0
LINE
  5
19F70
  8
1DIM
 10
761.9573230933828
 20
-1186.949470432349
 30
0.0
 11
782.9573230933828
 21
-1186.949470432349
 31
0.0
  0
LINE
  5
19F71
  8
1DIM
 10
737.45732309338234
 20
-1221.949470432349
 30
0.0
 11
782.9573230933828
 21
-1221.949470432349
 31
0.0
  0
LINE
  5
19F72
  8
1DIM
 10
781.95732309338268
 20
-1188.949470432349
 30
0.0
 11
781.95732309338268
 21
-1219.949470432349
 31
0.0
  0
LINE
  5
19F77
  8
1CENTER
 10
893.33358538898335
 20
-1287.586229336421
 30
0.0
 11
856.70239438852832
 21
-1287.586229336421
 31
0.0
  0
LINE
  5
19F78
  8
0
 10
888.27267334399687
 20
-1286.4919055224259
 30
0.0
 11
889.07266877804796
 21
-1288.454240611301
 31
0.0
  0
LINE
  5
19F79
  8
0
 10
889.07266877804796
 20
-1288.454240611301
 30
0.0
 11
889.38443863430007
 21
-1287.8659640362589
 31
0.0
  0
LINE
  5
19F7A
  8
0
 10
865.87267545120699
 20
-1285.586275872319
 30
0.0
 11
866.67266614402524
 21
-1289.586275872319
 31
0.0
  0
LINE
  5
19F7B
  8
0
 10
877.07267545121135
 20
-1285.586275872319
 30
0.0
 11
877.87266614403393
 21
-1289.586275872319
 31
0.0
  0
LINE
  5
19F7C
  8
0
 10
880.2726754512114
 20
-1285.586275872319
 30
0.0
 11
881.07266614403386
 21
-1289.586275872319
 31
0.0
  0
LINE
  5
19F7D
  8
0
 10
881.07266614403386
 20
-1289.586275872319
 30
0.0
 11
881.1726673074312
 21
-1289.086275872319
 31
0.0
  0
LINE
  5
19F7E
  8
0
 10
881.77267428781408
 20
-1286.086275872319
 30
0.0
 11
881.87267545121142
 21
-1285.586275872319
 31
0.0
  0
LINE
  5
19F7F
  8
0
 10
877.87266614403393
 20
-1289.586275872319
 30
0.0
 11
877.97266730743115
 21
-1289.086275872319
 31
0.0
  0
LINE
  5
19F80
  8
0
 10
879.47266614403406
 20
-1289.586275872319
 30
0.0
 11
879.57266730743106
 21
-1289.086275872319
 31
0.0
  0
LINE
  5
19F81
  8
0
 10
880.17267428781429
 20
-1286.086275872319
 30
0.0
 11
880.2726754512114
 21
-1285.586275872319
 31
0.0
  0
LINE
  5
19F82
  8
0
 10
878.57267428781427
 20
-1286.086275872319
 30
0.0
 11
878.67267545121138
 21
-1285.586275872319
 31
0.0
  0
LINE
  5
19F83
  8
0
 10
878.67267545121138
 20
-1285.586275872319
 30
0.0
 11
879.47266614403406
 21
-1289.586275872319
 31
0.0
  0
LINE
  5
19F84
  8
0
 10
887.47266772444232
 20
-1288.907054715708
 30
0.0
 11
887.65543186707021
 21
-1288.3553052519051
 31
0.0
  0
LINE
  5
19F85
  8
0
 10
884.27266614403391
 20
-1289.586275872319
 30
0.0
 11
884.37266730743113
 21
-1289.086275872319
 31
0.0
  0
LINE
  5
19F86
  8
0
 10
882.67266614403388
 20
-1289.586275872319
 30
0.0
 11
882.77266730743088
 21
-1289.086275872319
 31
0.0
  0
LINE
  5
19F87
  8
0
 10
885.87266667083668
 20
-1289.359868820115
 30
0.0
 11
886.00193736846643
 21
-1288.823275084844
 31
0.0
  0
LINE
  5
19F88
  8
0
 10
886.55990488525117
 20
-1286.507190469528
 30
0.0
 11
886.67267439760133
 21
-1286.039092014378
 31
0.0
  0
LINE
  5
19F89
  8
0
 10
883.37267428781433
 20
-1286.086275872319
 30
0.0
 11
883.47267545121144
 21
-1285.586275872319
 31
0.0
  0
LINE
  5
19F8A
  8
0
 10
884.97267428781436
 20
-1286.086275872319
 30
0.0
 11
885.07267545121135
 21
-1285.586275872319
 31
0.0
  0
LINE
  5
19F8B
  8
0
 10
888.12123754755658
 20
-1286.9490773630571
 30
0.0
 11
888.27267334399687
 21
-1286.4919055224259
 31
0.0
  0
LINE
  5
19F8C
  8
0
 10
886.67267439760133
 20
-1286.039092014378
 30
0.0
 11
887.47266772444232
 21
-1288.907054715708
 31
0.0
  0
LINE
  5
19F8D
  8
0
 10
883.47267545121144
 20
-1285.586275872319
 30
0.0
 11
884.27266614403391
 21
-1289.586275872319
 31
0.0
  0
LINE
  5
19F8E
  8
0
 10
885.07267545121135
 20
-1285.586275872319
 30
0.0
 11
885.87266667083668
 21
-1289.359868820115
 31
0.0
  0
LINE
  5
19F8F
  8
0
 10
881.87267545121142
 20
-1285.586275872319
 30
0.0
 11
882.67266614403388
 21
-1289.586275872319
 31
0.0
  0
LINE
  5
19F90
  8
0
 10
869.07267545120703
 20
-1285.586275872319
 30
0.0
 11
869.87266614402517
 21
-1289.586275872319
 31
0.0
  0
LINE
  5
19F91
  8
0
 10
869.87266614402517
 20
-1289.586275872319
 30
0.0
 11
869.97266730742285
 21
-1289.086275872319
 31
0.0
  0
LINE
  5
19F92
  8
0
 10
870.5726742878137
 20
-1286.086275872319
 30
0.0
 11
870.67267545121138
 21
-1285.586275872319
 31
0.0
  0
LINE
  5
19F93
  8
0
 10
868.27266614402515
 20
-1289.586275872319
 30
0.0
 11
868.37266730742294
 21
-1289.086275872319
 31
0.0
  0
LINE
  5
19F94
  8
0
 10
866.67266614402524
 20
-1289.586275872319
 30
0.0
 11
866.77266730742292
 21
-1289.086275872319
 31
0.0
  0
LINE
  5
19F95
  8
0
 10
868.97267428780935
 20
-1286.086275872319
 30
0.0
 11
869.07267545120703
 21
-1285.586275872319
 31
0.0
  0
LINE
  5
19F96
  8
0
 10
867.3726742878091
 20
-1286.086275872319
 30
0.0
 11
867.47267545120678
 21
-1285.586275872319
 31
0.0
  0
LINE
  5
19F97
  8
0
 10
867.47267545120678
 20
-1285.586275872319
 30
0.0
 11
868.27266614402515
 21
-1289.586275872319
 31
0.0
  0
LINE
  5
19F98
  8
0
 10
874.67266614402956
 20
-1289.586275872319
 30
0.0
 11
874.77266730742735
 21
-1289.086275872319
 31
0.0
  0
LINE
  5
19F99
  8
0
 10
876.27266614403391
 20
-1289.586275872319
 30
0.0
 11
876.37266730743113
 21
-1289.086275872319
 31
0.0
  0
LINE
  5
19F9A
  8
0
 10
871.47266614402963
 20
-1289.586275872319
 30
0.0
 11
871.57266730742731
 21
-1289.086275872319
 31
0.0
  0
LINE
  5
19F9B
  8
0
 10
873.07266614402954
 20
-1289.586275872319
 30
0.0
 11
873.1726673074271
 21
-1289.086275872319
 31
0.0
  0
LINE
  5
19F9C
  8
0
 10
876.97267428781436
 20
-1286.086275872319
 30
0.0
 11
877.07267545121135
 21
-1285.586275872319
 31
0.0
  0
LINE
  5
19F9D
  8
0
 10
875.37267428781365
 20
-1286.086275872319
 30
0.0
 11
875.47267545121144
 21
-1285.586275872319
 31
0.0
  0
LINE
  5
19F9E
  8
0
 10
872.17267428781361
 20
-1286.086275872319
 30
0.0
 11
872.27267545121117
 21
-1285.586275872319
 31
0.0
  0
LINE
  5
19F9F
  8
0
 10
873.77267428781374
 20
-1286.086275872319
 30
0.0
 11
873.87267545121142
 21
-1285.586275872319
 31
0.0
  0
LINE
  5
19FA0
  8
0
 10
873.87267545121142
 20
-1285.586275872319
 30
0.0
 11
874.67266614402956
 21
-1289.586275872319
 31
0.0
  0
LINE
  5
19FA1
  8
0
 10
875.47267545121144
 20
-1285.586275872319
 30
0.0
 11
876.27266614403391
 21
-1289.586275872319
 31
0.0
  0
LINE
  5
19FA2
  8
0
 10
872.27267545121117
 20
-1285.586275872319
 30
0.0
 11
873.07266614402954
 21
-1289.586275872319
 31
0.0
  0
LINE
  5
19FA3
  8
0
 10
870.67267545121138
 20
-1285.586275872319
 30
0.0
 11
871.47266614402963
 21
-1289.586275872319
 31
0.0
  0
LINE
  5
19FA4
  8
0
 10
860.37266730753663
 20
-1289.086275872319
 30
0.0
 11
860.3726742879212
 21
-1286.086275872319
 31
0.0
  0
LINE
  5
19FA5
  8
0
 10
860.97267428780503
 20
-1286.086275872319
 30
0.0
 11
861.07267545120271
 21
-1285.586275872319
 31
0.0
  0
LINE
  5
19FA6
  8
0
 10
861.07267545120271
 20
-1285.586275872319
 30
0.0
 11
861.87266614402108
 21
-1289.586275872319
 31
0.0
  0
LINE
  5
19FA7
  8
0
 10
861.87266614402108
 20
-1289.586275872319
 30
0.0
 11
861.97266730741876
 21
-1289.086275872319
 31
0.0
  0
LINE
  5
19FA8
  8
0
 10
862.57267428780494
 20
-1286.086275872319
 30
0.0
 11
862.67267545120274
 21
-1285.586275872319
 31
0.0
  0
LINE
  5
19FA9
  8
0
 10
864.17267428780485
 20
-1286.086275872319
 30
0.0
 11
864.27267545120253
 21
-1285.586275872319
 31
0.0
  0
LINE
  5
19FAA
  8
0
 10
864.27267545120253
 20
-1285.586275872319
 30
0.0
 11
865.0726661440209
 21
-1289.586275872319
 31
0.0
  0
LINE
  5
19FAB
  8
0
 10
863.47266614402088
 20
-1289.586275872319
 30
0.0
 11
863.57266730741856
 21
-1289.086275872319
 31
0.0
  0
LINE
  5
19FAC
  8
0
 10
865.0726661440209
 20
-1289.586275872319
 30
0.0
 11
865.17266730741858
 21
-1289.086275872319
 31
0.0
  0
LINE
  5
19FAD
  8
0
 10
862.67267545120274
 20
-1285.586275872319
 30
0.0
 11
863.47266614402088
 21
-1289.586275872319
 31
0.0
  0
LINE
  5
19FAE
  8
0
 10
865.77267428780931
 20
-1286.086275872319
 30
0.0
 11
865.87267545120699
 21
-1285.586275872319
 31
0.0
  0
LINE
  5
19FAF
  8
1DIM
 10
755.7073230933828
 20
-1297.586229336421
 30
0.0
 11
782.95732309338246
 21
-1297.586229336421
 31
0.0
  0
LINE
  5
19FB0
  8
1DIM
 10
761.40124343254411
 20
-1276.336229336421
 30
0.0
 11
782.95732309338246
 21
-1276.336229336421
 31
0.0
  0
LINE
  5
19FB1
  8
1DIM
 10
781.95732309338246
 20
-1295.586229336421
 30
0.0
 11
781.95732309338246
 21
-1278.336229336421
 31
0.0
  0
LINE
  5
19FB5
  8
1DIM
 10
541.9573230933828
 20
-1282.836229336421
 30
0.0
 11
541.9573230933828
 21
-1316.0218177256329
 31
0.0
  0
LINE
  5
19FB6
  8
1DIM
 10
761.95732309338257
 20
-1282.836229336421
 30
0.0
 11
761.95732309338257
 21
-1316.0218177256329
 31
0.0
  0
LINE
  5
19FB7
  8
1DIM
 10
543.95732309338268
 20
-1315.0218177256329
 30
0.0
 11
759.95732309338268
 21
-1315.0218177256329
 31
0.0
  0
LINE
  5
19FBB
  8
1DIM
 10
564.4573230933828
 20
-1186.949470432349
 30
0.0
 11
564.4573230933828
 21
-1165.949470432349
 31
0.0
  0
LINE
  5
19FBC
  8
1DIM
 10
739.45732309338268
 20
-1186.9494704323511
 30
0.0
 11
739.45732309338268
 21
-1165.949470432349
 31
0.0
  0
LINE
  5
19FBD
  8
1DIM
 10
566.45732309338291
 20
-1166.949470432349
 30
0.0
 11
737.4573230933828
 21
-1166.949470432349
 31
0.0
  0
LINE
  5
19FC1
  8
1DIM
 10
553.4573230933828
 20
-1293.1213924623751
 30
0.0
 11
553.4573230933828
 21
-1306.0218177256329
 31
0.0
  0
LINE
  5
19FC2
  8
1DIM
 10
750.4573230933828
 20
-1293.1213924623751
 30
0.0
 11
750.4573230933828
 21
-1306.0218177256329
 31
0.0
  0
LINE
  5
19FC3
  8
1DIM
 10
555.4573230933828
 20
-1305.0218177256329
 30
0.0
 11
748.45732309338268
 21
-1305.0218177256329
 31
0.0
  0
LINE
  5
19FC7
  8
1DIM
 10
893.33358538898335
 20
-1287.586229336421
 30
0.0
 11
897.31962037649294
 21
-1287.586229336421
 31
0.0
  0
LINE
  5
19FC8
  8
1DIM
 10
864.37267079783908
 20
-1276.336229336421
 30
0.0
 11
897.31962037649305
 21
-1276.336229336421
 31
0.0
  0
LINE
  5
19FC9
  8
1DIM
 10
896.31962037649305
 20
-1285.586229336421
 30
0.0
 11
896.31962037649305
 21
-1278.336229336421
 31
0.0
  0
LINE
  5
19FCE
  8
1CENTER
 10
750.45732309338291
 20
-1157.9885558412029
 30
0.0
 11
750.45732309338291
 21
-1194.6197468416581
 31
0.0
  0
LINE
  5
19FCF
  8
0
 10
749.36299927938785
 20
-1163.0494678861889
 30
0.0
 11
751.32533436826327
 21
-1162.249472452138
 31
0.0
  0
LINE
  5
19FD0
  8
0
 10
751.32533436826327
 20
-1162.249472452138
 30
0.0
 11
750.73705779322086
 21
-1161.9377025958861
 31
0.0
  0
LINE
  5
19FD1
  8
0
 10
748.45736962928083
 20
-1185.4494657789789
 30
0.0
 11
752.45736962928083
 21
-1184.6494750861609
 31
0.0
  0
LINE
  5
19FD2
  8
0
 10
748.45736962928083
 20
-1174.249465778975
 30
0.0
 11
752.45736962928083
 21
-1173.449475086152
 31
0.0
  0
LINE
  5
19FD3
  8
0
 10
748.45736962928083
 20
-1171.049465778975
 30
0.0
 11
752.45736962928083
 21
-1170.249475086152
 31
0.0
  0
LINE
  5
19FD4
  8
0
 10
752.45736962928083
 20
-1170.249475086152
 30
0.0
 11
751.95736962928083
 21
-1170.1494739227551
 31
0.0
  0
LINE
  5
19FD5
  8
0
 10
748.95736962928083
 20
-1169.549466942372
 30
0.0
 11
748.45736962928083
 21
-1169.4494657789751
 31
0.0
  0
LINE
  5
19FD6
  8
0
 10
752.45736962928083
 20
-1173.449475086152
 30
0.0
 11
751.95736962928083
 21
-1173.3494739227549
 31
0.0
  0
LINE
  5
19FD7
  8
0
 10
752.45736962928083
 20
-1171.8494750861521
 30
0.0
 11
751.95736962928083
 21
-1171.749473922755
 31
0.0
  0
LINE
  5
19FD8
  8
0
 10
748.95736962928083
 20
-1171.1494669423721
 30
0.0
 11
748.45736962928083
 21
-1171.049465778975
 31
0.0
  0
LINE
  5
19FD9
  8
0
 10
748.95736962928083
 20
-1172.749466942372
 30
0.0
 11
748.45736962928083
 21
-1172.6494657789749
 31
0.0
  0
LINE
  5
19FDA
  8
0
 10
748.45736962928083
 20
-1172.6494657789749
 30
0.0
 11
752.45736962928083
 21
-1171.8494750861521
 31
0.0
  0
LINE
  5
19FDB
  8
0
 10
751.77814847266995
 20
-1163.8494735057441
 30
0.0
 11
751.22639900886668
 21
-1163.6667093631161
 31
0.0
  0
LINE
  5
19FDC
  8
0
 10
752.45736962928083
 20
-1167.0494750861519
 30
0.0
 11
751.95736962928083
 21
-1166.949473922755
 31
0.0
  0
LINE
  5
19FDD
  8
0
 10
752.45736962928083
 20
-1168.6494750861521
 30
0.0
 11
751.95736962928083
 21
-1168.5494739227549
 31
0.0
  0
LINE
  5
19FDE
  8
0
 10
752.23096257707675
 20
-1165.449474559349
 30
0.0
 11
751.69436884180573
 21
-1165.3202038617201
 31
0.0
  0
LINE
  5
19FDF
  8
0
 10
749.37828422648954
 20
-1164.762236344935
 30
0.0
 11
748.91018577133957
 21
-1164.6494668325849
 31
0.0
  0
LINE
  5
19FE0
  8
0
 10
748.95736962928083
 20
-1167.9494669423721
 30
0.0
 11
748.45736962928083
 21
-1167.8494657789749
 31
0.0
  0
LINE
  5
19FE1
  8
0
 10
748.95736962928083
 20
-1166.3494669423719
 30
0.0
 11
748.45736962928083
 21
-1166.249465778975
 31
0.0
  0
LINE
  5
19FE2
  8
0
 10
749.82017112001893
 20
-1163.20090368263
 30
0.0
 11
749.36299927938785
 21
-1163.0494678861889
 31
0.0
  0
LINE
  5
19FE3
  8
0
 10
748.91018577133957
 20
-1164.6494668325849
 30
0.0
 11
751.77814847266995
 21
-1163.8494735057441
 31
0.0
  0
LINE
  5
19FE4
  8
0
 10
748.45736962928083
 20
-1167.8494657789749
 30
0.0
 11
752.45736962928083
 21
-1167.0494750861519
 31
0.0
  0
LINE
  5
19FE5
  8
0
 10
748.45736962928083
 20
-1166.249465778975
 30
0.0
 11
752.23096257707675
 21
-1165.449474559349
 31
0.0
  0
LINE
  5
19FE6
  8
0
 10
748.45736962928083
 20
-1169.4494657789751
 30
0.0
 11
752.45736962928083
 21
-1168.6494750861521
 31
0.0
  0
LINE
  5
19FE7
  8
0
 10
748.45736962928083
 20
-1182.2494657789789
 30
0.0
 11
752.45736962928083
 21
-1181.4494750861611
 31
0.0
  0
LINE
  5
19FE8
  8
0
 10
752.45736962928083
 20
-1181.4494750861611
 30
0.0
 11
751.95736962928083
 21
-1181.3494739227631
 31
0.0
  0
LINE
  5
19FE9
  8
0
 10
748.95736962928083
 20
-1180.7494669423729
 30
0.0
 11
748.45736962928083
 21
-1180.6494657789749
 31
0.0
  0
LINE
  5
19FEA
  8
0
 10
752.45736962928083
 20
-1183.049475086161
 30
0.0
 11
751.95736962928083
 21
-1182.949473922763
 31
0.0
  0
LINE
  5
19FEB
  8
0
 10
752.45736962928083
 20
-1184.6494750861609
 30
0.0
 11
751.95736962928083
 21
-1184.5494739227629
 31
0.0
  0
LINE
  5
19FEC
  8
0
 10
748.95736962928083
 20
-1182.3494669423769
 30
0.0
 11
748.45736962928083
 21
-1182.2494657789789
 31
0.0
  0
LINE
  5
19FED
  8
0
 10
748.95736962928083
 20
-1183.9494669423771
 30
0.0
 11
748.45736962928083
 21
-1183.849465778979
 31
0.0
  0
LINE
  5
19FEE
  8
0
 10
748.45736962928083
 20
-1183.849465778979
 30
0.0
 11
752.45736962928083
 21
-1183.049475086161
 31
0.0
  0
LINE
  5
19FEF
  8
0
 10
752.45736962928083
 20
-1176.6494750861571
 30
0.0
 11
751.95736962928083
 21
-1176.549473922759
 31
0.0
  0
LINE
  5
19FF0
  8
0
 10
752.45736962928083
 20
-1175.0494750861519
 30
0.0
 11
751.95736962928083
 21
-1174.949473922755
 31
0.0
  0
LINE
  5
19FF1
  8
0
 10
752.45736962928083
 20
-1179.8494750861571
 30
0.0
 11
751.95736962928083
 21
-1179.7494739227591
 31
0.0
  0
LINE
  5
19FF2
  8
0
 10
752.45736962928083
 20
-1178.249475086157
 30
0.0
 11
751.95736962928083
 21
-1178.1494739227589
 31
0.0
  0
LINE
  5
19FF3
  8
0
 10
748.95736962928083
 20
-1174.3494669423719
 30
0.0
 11
748.45736962928083
 21
-1174.249465778975
 31
0.0
  0
LINE
  5
19FF4
  8
0
 10
748.95736962928083
 20
-1175.9494669423721
 30
0.0
 11
748.45736962928083
 21
-1175.8494657789749
 31
0.0
  0
LINE
  5
19FF5
  8
0
 10
748.95736962928083
 20
-1179.1494669423721
 30
0.0
 11
748.45736962928083
 21
-1179.049465778975
 31
0.0
  0
LINE
  5
19FF6
  8
0
 10
748.95736962928083
 20
-1177.549466942372
 30
0.0
 11
748.45736962928083
 21
-1177.4494657789751
 31
0.0
  0
LINE
  5
19FF7
  8
0
 10
748.45736962928083
 20
-1177.4494657789751
 30
0.0
 11
752.45736962928083
 21
-1176.6494750861571
 31
0.0
  0
LINE
  5
19FF8
  8
0
 10
748.45736962928083
 20
-1175.8494657789749
 30
0.0
 11
752.45736962928083
 21
-1175.0494750861519
 31
0.0
  0
LINE
  5
19FF9
  8
0
 10
748.45736962928083
 20
-1179.049465778975
 30
0.0
 11
752.45736962928083
 21
-1178.249475086157
 31
0.0
  0
LINE
  5
19FFA
  8
0
 10
748.45736962928083
 20
-1180.6494657789749
 30
0.0
 11
752.45736962928083
 21
-1179.8494750861571
 31
0.0
  0
LINE
  5
19FFB
  8
0
 10
751.95736962928083
 20
-1190.94947392265
 30
0.0
 11
748.95736962928106
 21
-1190.949466942265
 31
0.0
  0
LINE
  5
19FFC
  8
0
 10
748.95736962928083
 20
-1190.349466942381
 30
0.0
 11
748.45736962928083
 21
-1190.249465778983
 31
0.0
  0
LINE
  5
19FFD
  8
0
 10
748.45736962928083
 20
-1190.249465778983
 30
0.0
 11
752.45736962928083
 21
-1189.449475086165
 31
0.0
  0
LINE
  5
19FFE
  8
0
 10
752.45736962928083
 20
-1189.449475086165
 30
0.0
 11
751.95736962928083
 21
-1189.3494739227669
 31
0.0
  0
LINE
  5
19FFF
  8
0
 10
748.95736962928083
 20
-1188.7494669423811
 30
0.0
 11
748.45736962928083
 21
-1188.649465778984
 31
0.0
  0
LINE
  5
1A000
  8
0
 10
748.95736962928083
 20
-1187.149466942381
 30
0.0
 11
748.45736962928083
 21
-1187.0494657789841
 31
0.0
  0
LINE
  5
1A001
  8
0
 10
748.45736962928083
 20
-1187.0494657789841
 30
0.0
 11
752.45736962928083
 21
-1186.2494750861649
 31
0.0
  0
LINE
  5
1A002
  8
0
 10
752.45736962928083
 20
-1187.8494750861651
 30
0.0
 11
751.95736962928083
 21
-1187.749473922767
 31
0.0
  0
LINE
  5
1A003
  8
0
 10
752.45736962928083
 20
-1186.2494750861649
 30
0.0
 11
751.95736962928083
 21
-1186.149473922768
 31
0.0
  0
LINE
  5
1A004
  8
0
 10
748.45736962928083
 20
-1188.649465778984
 30
0.0
 11
752.45736962928083
 21
-1187.8494750861651
 31
0.0
  0
LINE
  5
1A005
  8
0
 10
748.95736962928083
 20
-1185.549466942377
 30
0.0
 11
748.45736962928083
 21
-1185.4494657789789
 31
0.0
  0
TEXT
  5
1A006
  8
1DIM
 10
638.95573450707275
 20
-1195.4587441376441
 30
0.0
 40
3.5
  1
材質：亜鉛ダイキャスト
  0
TEXT
  5
1A007
  8
1DIM
 10
638.95573450707275
 20
-1201.2920774709769
 30
0.0
 40
3.5
  1
仕上げ：クローム
  0
SOLID
  5
1A008
  8
1DIM
 10
620.53287060826665
 20
-1220.202727351902
 30
0.0
 11
618.95573450707275
 21
-1221.4769929558561
 31
0.0
 12
620.03434467718967
 22
-1219.7601029733501
 32
0.0
 13
620.03434467718967
 23
-1219.7601029733501
 33
0.0
  0
TEXT
  5
1A00A
  8
1HATCH
 10
868.02777204022823
 20
-1229.0213605492129
 30
0.0
 40
3.5
  1
PB
  0
SOLID
  5
1A00B
  8
1HATCH
 10
868.93230215187123
 20
-1248.174121552903
 30
0.0
 11
868.95263941991516
 21
-1250.201607066203
 31
0.0
 12
868.27583859447896
 22
-1248.2903112351501
 32
0.0
 13
868.27583859447896
 23
-1248.2903112351501
 33
0.0
  0
SOLID
  5
1A00D
  8
1DIM
 10
876.99582296440178
 20
-1248.178508083002
 30
0.0
 11
877.45062163385649
 21
-1250.1544304704901
 31
0.0
 12
876.37956698302514
 22
-1248.4328169697169
 32
0.0
 13
876.37956698302514
 23
-1248.4328169697169
 33
0.0
  0
TEXT
  5
1A00F
  8
1DIM
 10
874.19511653476684
 20
-1235.0227065663371
 30
0.0
 40
3.5
  1
合板9mm以上
  0
LINE
  5
1A010
  8
1DIM
 10
876.68769497371352
 20
-1248.30566252636
 30
0.0
 11
871.49511653476691
 21
-1235.722706566338
 31
0.0
  0
LINE
  5
1A011
  8
1DIM
 10
871.49511653476691
 20
-1235.722706566338
 30
0.0
 11
900.56178320143351
 21
-1235.722706566338
 31
0.0
  0
LINE
  5
1A012
  8
1HATCH
 10
868.60407037317498
 20
-1248.2322163940271
 30
0.0
 11
865.32777204022818
 21
-1229.7213605492129
 31
0.0
  0
LINE
  5
1A013
  8
1HATCH
 10
865.32777204022818
 20
-1229.7213605492129
 30
0.0
 11
868.02777204022823
 21
-1229.7213605492129
 31
0.0
  0
LINE
  5
1A014
  8
1DIM
 10
620.28360764272816
 20
-1219.981415162626
 30
0.0
 11
636.2557345070727
 21
-1201.9920774709769
 31
0.0
  0
LINE
  5
1A015
  8
1DIM
 10
636.2557345070727
 20
-1201.9920774709769
 30
0.0
 11
638.95573450707275
 21
-1201.9920774709769
 31
0.0
  0
LINE
  5
1A016
  8
0
 10
750.45736962928083
 20
-1160.9494704325109
 30
0.0
 11
748.95736962928083
 21
-1166.2494669423729
 31
0.0
  0
LINE
  5
1A017
  8
0
 10
748.95736962928083
 20
-1166.2494669423729
 30
0.0
 11
748.95736962928106
 21
-1190.949466942265
 31
0.0
  0
LINE
  5
1A018
  8
0
 10
750.45736962928083
 20
-1160.9494704325109
 30
0.0
 11
751.95736962928095
 21
-1166.249473922757
 31
0.0
  0
LINE
  5
1A019
  8
0
 10
746.95732309338302
 20
-1190.949462288567
 30
0.0
 11
748.95736962928106
 21
-1190.949466942265
 31
0.0
  0
LINE
  5
1A01A
  8
0
 10
751.95736962928095
 20
-1166.249473922757
 30
0.0
 11
751.95736962928083
 21
-1190.94947392265
 31
0.0
  0
LINE
  5
1A01B
  8
0
 10
746.95732309338302
 20
-1190.949462288567
 30
0.0
 11
746.9573230933828
 21
-1192.0494657787619
 31
0.0
  0
LINE
  5
1A01C
  8
0
 10
751.95736962928083
 20
-1190.94947392265
 30
0.0
 11
753.95732309338291
 21
-1190.949478576131
 31
0.0
  0
ARC
  5
1A01D
  8
0
 10
748.45732309338291
 20
-1192.0494657787619
 30
0.0
 40
1.5
 50
180.0
 51
269.99986668447059
  0
LINE
  5
1A01E
  8
0
 10
753.95732309338291
 20
-1190.949478576131
 30
0.0
 11
753.95732309338291
 21
-1192.049475085942
 31
0.0
  0
LINE
  5
1A01F
  8
0
 10
748.45731960319051
 20
-1193.5494657787581
 30
0.0
 11
752.45731960319051
 21
-1193.549475085938
 31
0.0
  0
ARC
  5
1A020
  8
0
 10
752.45732309338291
 20
-1192.049475085942
 30
0.0
 40
1.5
 50
269.99986668447059
 51
0.0
  0
TEXT
  5
1A021
  8
1DIM
 10
895.61962037649323
 20
-1283.711229336421
 30
0.0
 40
3.5
  1
11
 50
90.0
  0
LINE
  5
1A022
  8
0
  6
BYBLOCK
 10
895.78372199649311
 20
-1278.336229336421
 30
0.0
 11
896.31962037649305
 21
-1276.336229336421
 31
0.0
  0
LINE
  5
1A023
  8
0
  6
BYBLOCK
 10
896.31962037649305
 20
-1276.336229336421
 30
0.0
 11
896.85551875649321
 21
-1278.336229336421
 31
0.0
  0
LINE
  5
1A024
  8
0
  6
BYBLOCK
 10
896.31962037649305
 20
-1276.336229336421
 30
0.0
 11
896.31962037649305
 21
-1278.336229336421
 31
0.0
  0
LINE
  5
1A025
  8
0
  6
BYBLOCK
 10
896.85551875649298
 20
-1285.586229336421
 30
0.0
 11
896.31962037649305
 21
-1287.586229336421
 31
0.0
  0
LINE
  5
1A026
  8
0
  6
BYBLOCK
 10
896.31962037649305
 20
-1287.586229336421
 30
0.0
 11
895.78372199649289
 21
-1285.586229336421
 31
0.0
  0
LINE
  5
1A027
  8
0
  6
BYBLOCK
 10
896.31962037649305
 20
-1287.586229336421
 30
0.0
 11
896.31962037649305
 21
-1285.586229336421
 31
0.0
  0
TEXT
  5
1A028
  8
1DIM
 10
646.12398976004943
 20
-1304.3218177256331
 30
0.0
 40
3.5
  1
P197
  0
LINE
  5
1A029
  8
0
  6
BYBLOCK
 10
748.45732309338268
 20
-1304.485919345633
 30
0.0
 11
750.4573230933828
 21
-1305.0218177256329
 31
0.0
  0
LINE
  5
1A02A
  8
0
  6
BYBLOCK
 10
750.4573230933828
 20
-1305.0218177256329
 30
0.0
 11
748.45732309338268
 21
-1305.5577161056331
 31
0.0
  0
LINE
  5
1A02B
  8
0
  6
BYBLOCK
 10
750.4573230933828
 20
-1305.0218177256329
 30
0.0
 11
748.45732309338268
 21
-1305.0218177256329
 31
0.0
  0
LINE
  5
1A02C
  8
0
  6
BYBLOCK
 10
555.4573230933828
 20
-1305.5577161056331
 30
0.0
 11
553.4573230933828
 21
-1305.0218177256329
 31
0.0
  0
LINE
  5
1A02D
  8
0
  6
BYBLOCK
 10
553.4573230933828
 20
-1305.0218177256329
 30
0.0
 11
555.4573230933828
 21
-1304.485919345633
 31
0.0
  0
LINE
  5
1A02E
  8
0
  6
BYBLOCK
 10
553.4573230933828
 20
-1305.0218177256329
 30
0.0
 11
555.4573230933828
 21
-1305.0218177256329
 31
0.0
  0
TEXT
  5
1A02F
  8
1DIM
 10
647.87398976004954
 20
-1166.249470432349
 30
0.0
 40
3.5
  1
175
  0
LINE
  5
1A030
  8
0
  6
BYBLOCK
 10
737.4573230933828
 20
-1166.4135720523491
 30
0.0
 11
739.45732309338268
 21
-1166.949470432349
 31
0.0
  0
LINE
  5
1A031
  8
0
  6
BYBLOCK
 10
739.45732309338268
 20
-1166.949470432349
 30
0.0
 11
737.4573230933828
 21
-1167.485368812349
 31
0.0
  0
LINE
  5
1A032
  8
0
  6
BYBLOCK
 10
739.45732309338268
 20
-1166.949470432349
 30
0.0
 11
737.4573230933828
 21
-1166.949470432349
 31
0.0
  0
LINE
  5
1A033
  8
0
  6
BYBLOCK
 10
566.45732309338291
 20
-1167.485368812349
 30
0.0
 11
564.4573230933828
 21
-1166.949470432349
 31
0.0
  0
LINE
  5
1A034
  8
0
  6
BYBLOCK
 10
564.4573230933828
 20
-1166.949470432349
 30
0.0
 11
566.45732309338291
 21
-1166.4135720523491
 31
0.0
  0
LINE
  5
1A035
  8
0
  6
BYBLOCK
 10
564.4573230933828
 20
-1166.949470432349
 30
0.0
 11
566.45732309338291
 21
-1166.949470432349
 31
0.0
  0
TEXT
  5
1A036
  8
1DIM
 10
647.58232309338257
 20
-1314.3218177256331
 30
0.0
 40
3.5
  1
220
  0
LINE
  5
1A037
  8
0
  6
BYBLOCK
 10
759.95732309338268
 20
-1314.485919345633
 30
0.0
 11
761.95732309338257
 21
-1315.0218177256329
 31
0.0
  0
LINE
  5
1A038
  8
0
  6
BYBLOCK
 10
761.95732309338257
 20
-1315.0218177256329
 30
0.0
 11
759.95732309338268
 21
-1315.5577161056331
 31
0.0
  0
LINE
  5
1A039
  8
0
  6
BYBLOCK
 10
761.95732309338257
 20
-1315.0218177256329
 30
0.0
 11
759.95732309338268
 21
-1315.0218177256329
 31
0.0
  0
LINE
  5
1A03A
  8
0
  6
BYBLOCK
 10
543.95732309338268
 20
-1315.5577161056331
 30
0.0
 11
541.9573230933828
 21
-1315.0218177256329
 31
0.0
  0
LINE
  5
1A03B
  8
0
  6
BYBLOCK
 10
541.9573230933828
 20
-1315.0218177256329
 30
0.0
 11
543.95732309338268
 21
-1314.485919345633
 31
0.0
  0
LINE
  5
1A03C
  8
0
  6
BYBLOCK
 10
541.9573230933828
 20
-1315.0218177256329
 30
0.0
 11
543.95732309338268
 21
-1315.0218177256329
 31
0.0
  0
TEXT
  5
1A03D
  8
1DIM
 10
781.25732309338264
 20
-1289.294562669754
 30
0.0
 40
3.5
  1
21
 50
90.0
  0
LINE
  5
1A03E
  8
0
  6
BYBLOCK
 10
781.42142471338252
 20
-1278.336229336421
 30
0.0
 11
781.95732309338246
 21
-1276.336229336421
 31
0.0
  0
LINE
  5
1A03F
  8
0
  6
BYBLOCK
 10
781.95732309338246
 20
-1276.336229336421
 30
0.0
 11
782.49322147338262
 21
-1278.336229336421
 31
0.0
  0
LINE
  5
1A040
  8
0
  6
BYBLOCK
 10
781.95732309338246
 20
-1276.336229336421
 30
0.0
 11
781.95732309338246
 21
-1278.336229336421
 31
0.0
  0
LINE
  5
1A041
  8
0
  6
BYBLOCK
 10
782.49322147338239
 20
-1295.586229336421
 30
0.0
 11
781.95732309338246
 21
-1297.586229336421
 31
0.0
  0
LINE
  5
1A042
  8
0
  6
BYBLOCK
 10
781.95732309338246
 20
-1297.586229336421
 30
0.0
 11
781.42142471338241
 21
-1295.586229336421
 31
0.0
  0
LINE
  5
1A043
  8
0
  6
BYBLOCK
 10
781.95732309338246
 20
-1297.586229336421
 30
0.0
 11
781.95732309338246
 21
-1295.586229336421
 31
0.0
  0
LINE
  5
1A044
  8
0
 10
890.3726707976748
 20
-1287.586275872319
 30
0.0
 11
885.07267428781324
 21
-1286.086275872319
 31
0.0
  0
LINE
  5
1A045
  8
0
 10
885.07267428781324
 20
-1286.086275872319
 30
0.0
 11
860.3726742879212
 21
-1286.086275872319
 31
0.0
  0
LINE
  5
1A046
  8
0
 10
890.3726707976748
 20
-1287.586275872319
 30
0.0
 11
885.07266730742936
 21
-1289.086275872319
 31
0.0
  0
LINE
  5
1A047
  8
0
 10
860.37267894161926
 20
-1284.086229336421
 30
0.0
 11
860.3726742879212
 21
-1286.086275872319
 31
0.0
  0
LINE
  5
1A048
  8
0
 10
885.07266730742936
 20
-1289.086275872319
 30
0.0
 11
860.37266730753663
 21
-1289.086275872319
 31
0.0
  0
LINE
  5
1A049
  8
0
 10
860.37267894161926
 20
-1284.086229336421
 30
0.0
 11
859.27267545142399
 21
-1284.086229336421
 31
0.0
  0
LINE
  5
1A04A
  8
0
 10
860.37266730753663
 20
-1289.086275872319
 30
0.0
 11
860.37266265405503
 21
-1291.086229336421
 31
0.0
  0
ARC
  5
1A04B
  8
0
 10
859.27267545142399
 20
-1285.586229336421
 30
0.0
 40
1.5
 50
90.0
 51
179.9998666844663
  0
LINE
  5
1A04C
  8
0
 10
860.37266265405503
 20
-1291.086229336421
 30
0.0
 11
859.27266614424423
 21
-1291.086229336421
 31
0.0
  0
LINE
  5
1A04D
  8
0
 10
857.77267545142797
 20
-1285.586225846228
 30
0.0
 11
857.77266614424843
 21
-1289.586225846228
 31
0.0
  0
ARC
  5
1A04E
  8
0
 10
859.27266614424423
 20
-1289.586229336421
 30
0.0
 40
1.5
 50
179.9998666844663
 51
270.0
  0
TEXT
  5
1A04F
  8
1DIM
 10
781.25732309338275
 20
-1207.366137099016
 30
0.0
 40
3.5
  1
35
 50
90.0
  0
LINE
  5
1A050
  8
0
  6
BYBLOCK
 10
782.49322147338285
 20
-1219.949470432349
 30
0.0
 11
781.95732309338268
 21
-1221.949470432349
 31
0.0
  0
LINE
  5
1A051
  8
0
  6
BYBLOCK
 10
781.95732309338268
 20
-1221.949470432349
 30
0.0
 11
781.42142471338275
 21
-1219.949470432349
 31
0.0
  0
LINE
  5
1A052
  8
0
  6
BYBLOCK
 10
781.95732309338268
 20
-1221.949470432349
 30
0.0
 11
781.95732309338268
 21
-1219.949470432349
 31
0.0
  0
LINE
  5
1A053
  8
0
  6
BYBLOCK
 10
781.42142471338275
 20
-1188.949470432349
 30
0.0
 11
781.95732309338268
 21
-1186.949470432349
 31
0.0
  0
LINE
  5
1A054
  8
0
  6
BYBLOCK
 10
781.95732309338268
 20
-1186.949470432349
 30
0.0
 11
782.49322147338285
 21
-1188.949470432349
 31
0.0
  0
LINE
  5
1A055
  8
0
  6
BYBLOCK
 10
781.95732309338268
 20
-1186.949470432349
 30
0.0
 11
781.95732309338268
 21
-1188.949470432349
 31
0.0
  0
TEXT
  5
1A056
  8
1DIM
 10
781.25732309338275
 20
-1230.282803765682
 30
0.0
 40
3.5
  1
12
 50
90.0
  0
LINE
  5
1A057
  8
0
  6
BYBLOCK
 10
782.49322147338285
 20
-1231.949470432349
 30
0.0
 11
781.95732309338268
 21
-1233.949470432349
 31
0.0
  0
LINE
  5
1A058
  8
0
  6
BYBLOCK
 10
781.95732309338268
 20
-1233.949470432349
 30
0.0
 11
781.42142471338275
 21
-1231.949470432349
 31
0.0
  0
LINE
  5
1A059
  8
0
  6
BYBLOCK
 10
781.95732309338268
 20
-1233.949470432349
 30
0.0
 11
781.95732309338268
 21
-1231.949470432349
 31
0.0
  0
LINE
  5
1A05A
  8
0
  6
BYBLOCK
 10
781.42142471338275
 20
-1223.949470432349
 30
0.0
 11
781.95732309338268
 21
-1221.949470432349
 31
0.0
  0
LINE
  5
1A05B
  8
0
  6
BYBLOCK
 10
781.95732309338268
 20
-1221.949470432349
 30
0.0
 11
782.49322147338285
 21
-1223.949470432349
 31
0.0
  0
LINE
  5
1A05C
  8
0
  6
BYBLOCK
 10
781.95732309338268
 20
-1221.949470432349
 30
0.0
 11
781.95732309338268
 21
-1223.949470432349
 31
0.0
  0
TEXT
  5
1A05D
  8
1DIM
 10
791.25732309338275
 20
-1213.366137099016
 30
0.0
 40
3.5
  1
47
 50
90.0
  0
LINE
  5
1A05E
  8
0
  6
BYBLOCK
 10
791.42142471338275
 20
-1188.949470432349
 30
0.0
 11
791.9573230933828
 21
-1186.949470432349
 31
0.0
  0
LINE
  5
1A05F
  8
0
  6
BYBLOCK
 10
791.9573230933828
 20
-1186.949470432349
 30
0.0
 11
792.49322147338285
 21
-1188.949470432349
 31
0.0
  0
LINE
  5
1A060
  8
0
  6
BYBLOCK
 10
791.9573230933828
 20
-1186.949470432349
 30
0.0
 11
791.9573230933828
 21
-1188.949470432349
 31
0.0
  0
LINE
  5
1A061
  8
0
  6
BYBLOCK
 10
792.49322147338285
 20
-1231.949470432349
 30
0.0
 11
791.9573230933828
 21
-1233.949470432349
 31
0.0
  0
LINE
  5
1A062
  8
0
  6
BYBLOCK
 10
791.9573230933828
 20
-1233.949470432349
 30
0.0
 11
791.42142471338275
 21
-1231.949470432349
 31
0.0
  0
LINE
  5
1A063
  8
0
  6
BYBLOCK
 10
791.9573230933828
 20
-1233.949470432349
 30
0.0
 11
791.9573230933828
 21
-1231.949470432349
 31
0.0
  0
LINE
  5
1A064
  8
0
 10
553.45727655748419
 20
-1160.9494704325109
 30
0.0
 11
554.95727655748419
 21
-1166.2494669423729
 31
0.0
  0
LINE
  5
1A065
  8
0
 10
553.45727655748419
 20
-1160.9494704325109
 30
0.0
 11
551.95727655748408
 21
-1166.249473922757
 31
0.0
  0
LINE
  5
1A066
  8
0
 10
554.95727655748419
 20
-1166.2494669423729
 30
0.0
 11
554.95727655748385
 21
-1190.949466942265
 31
0.0
  0
LINE
  5
1A067
  8
0
 10
551.95727655748408
 20
-1166.249473922757
 30
0.0
 11
551.95727655748408
 21
-1190.94947392265
 31
0.0
  0
LINE
  5
1A068
  8
0
 10
556.95732309338189
 20
-1190.949462288567
 30
0.0
 11
554.95727655748385
 21
-1190.949466942265
 31
0.0
  0
LINE
  5
1A069
  8
0
 10
551.95727655748408
 20
-1190.94947392265
 30
0.0
 11
549.95732309338212
 21
-1190.949478576131
 31
0.0
  0
LINE
  5
1A06A
  8
0
 10
556.95732309338189
 20
-1190.949462288567
 30
0.0
 11
556.95732309338212
 21
-1192.0494657787619
 31
0.0
  0
LINE
  5
1A06B
  8
0
 10
549.95732309338212
 20
-1190.949478576131
 30
0.0
 11
549.95732309338212
 21
-1192.049475085942
 31
0.0
  0
ARC
  5
1A06C
  8
0
 10
555.457323093382
 20
-1192.0494657787619
 30
0.0
 40
1.5
 50
270.00013331552941
 51
0.0
  0
ARC
  5
1A06D
  8
0
 10
551.457323093382
 20
-1192.049475085942
 30
0.0
 40
1.5
 50
180.0
 51
270.00013331552941
  0
LINE
  5
1A06E
  8
0
 10
555.4573265835744
 20
-1193.5494657787581
 30
0.0
 11
551.4573265835744
 21
-1193.549475085938
 31
0.0
  0
VIEWPORT
  5
57
 67
     1
  8
0
 10
-2.3112407783481781
 20
10.09248672500371
 30
0.0
 40
426.11731890043347
 41
286.96927405595568
 68
     1
 69
     1
1001
ACAD
1000
MVIEW
1002
{
1070
    16
1010
0.0
1020
0.0
1030
0.0
1010
0.0
1020
0.0
1030
1.0
1040
0.0
1040
286.96927405595568
1040
-2.3112407783481781
1040
10.09248672500371
1040
50.0
1040
0.0
1040
0.0
1070
     0
1070
   100
1070
     1
1070
     1
1070
     0
1070
     0
1070
     0
1070
     0
1040
0.0
1040
0.0
1040
0.0
1040
10.0
1040
10.0
1040
10.0
1040
10.0
1070
     0
1002
{
1002
}
1002
}
  0
ENDSEC
  0
EOF
