  0
SECTION
  2
HEADER
  9
$ACADVER
  1
AC1009
  9
$INSBASE
 10
0.0
 20
0.0
 30
0.0
  9
$EXTMIN
 10
310.16690660664108
 20
-122.2969164960881
 30
0.0
  9
$EXTMAX
 10
661.10300589465351
 20
168.3815871002445
 30
0.0
  9
$LIMMIN
 10
0.0
 20
0.0
  9
$LIMMAX
 10
420.0
 20
297.0
  9
$ORTHOMODE
 70
     0
  9
$REGENMODE
 70
     1
  9
$FILLMODE
 70
     1
  9
$QTEXTMODE
 70
     0
  9
$MIRRTEXT
 70
     1
  9
$DRAGMODE
 70
     2
  9
$LTSCALE
 40
0.5
  9
$OSMODE
 70
  2175
  9
$ATTMODE
 70
     1
  9
$TEXTSIZE
 40
4.0
  9
$TRACEWID
 40
1.0
  9
$TEXTSTYLE
  7
STANDARD
  9
$CLAYER
  8
1TEXT
  9
$CELTYPE
  6
BYLAYER
  9
$CECOLOR
 62
   256
  9
$DIMSCALE
 40
1.0
  9
$DIMASZ
 40
2.0
  9
$DIMEXO
 40
0.0
  9
$DIMDLI
 40
7.0
  9
$DIMRND
 40
0.0
  9
$DIMDLE
 40
0.0
  9
$DIMEXE
 40
1.0
  9
$DIMTP
 40
0.0
  9
$DIMTM
 40
0.0
  9
$DIMTXT
 40
3.5
  9
$DIMCEN
 40
0.0
  9
$DIMTSZ
 40
0.0
  9
$DIMTOL
 70
     0
  9
$DIMLIM
 70
     0
  9
$DIMTIH
 70
     0
  9
$DIMTOH
 70
     0
  9
$DIMSE1
 70
     0
  9
$DIMSE2
 70
     0
  9
$DIMTAD
 70
     1
  9
$DIMZIN
 70
     8
  9
$DIMBLK
  1

  9
$DIMASO
 70
     1
  9
$DIMSHO
 70
     1
  9
$DIMPOST
  1
 
  9
$DIMAPOST
  1

  9
$DIMALT
 70
     0
  9
$DIMALTD
 70
     2
  9
$DIMALTF
 40
25.399999999999999
  9
$DIMLFAC
 40
1.0
  9
$DIMTOFL
 70
     1
  9
$DIMTVP
 40
0.0
  9
$DIMTIX
 70
     0
  9
$DIMSOXD
 70
     0
  9
$DIMSAH
 70
     1
  9
$DIMBLK1
  1
OPEN30
  9
$DIMBLK2
  1
OPEN30
  9
$DIMSTYLE
  2
NEWX10
  9
$DIMCLRD
 70
   256
  9
$DIMCLRE
 70
   256
  9
$DIMCLRT
 70
   201
  9
$DIMTFAC
 40
0.7
  9
$DIMGAP
 40
0.7
  9
$LUNITS
 70
     2
  9
$LUPREC
 70
     4
  9
$SKETCHINC
 40
1.0
  9
$FILLETRAD
 40
0.0
  9
$AUNITS
 70
     0
  9
$AUPREC
 70
     2
  9
$MENU
  1
acad
  9
$ELEVATION
 40
0.0
  9
$PELEVATION
 40
0.0
  9
$THICKNESS
 40
0.0
  9
$LIMCHECK
 70
     0
  9
$BLIPMODE
 70
     0
  9
$CHAMFERA
 40
1.0
  9
$CHAMFERB
 40
1.0
  9
$SKPOLY
 70
     0
  9
$TDCREATE
 40
2453733.5494981478
  9
$TDUPDATE
 40
2454526.7381025688
  9
$TDINDWG
 40
0.2980991435
  9
$TDUSRTIMER
 40
0.2980971528
  9
$USRTIMER
 70
     1
  9
$ANGBASE
 50
0.0
  9
$ANGDIR
 70
     0
  9
$PDMODE
 70
     0
  9
$PDSIZE
 40
0.0
  9
$PLINEWID
 40
0.0
  9
$COORDS
 70
     2
  9
$SPLFRAME
 70
     0
  9
$SPLINETYPE
 70
     6
  9
$SPLINESEGS
 70
     8
  9
$ATTDIA
 70
     0
  9
$ATTREQ
 70
     1
  9
$HANDLING
 70
     1
  9
$HANDSEED
  5
57C7
  9
$SURFTAB1
 70
     6
  9
$SURFTAB2
 70
     6
  9
$SURFTYPE
 70
     6
  9
$SURFU
 70
     6
  9
$SURFV
 70
     6
  9
$UCSNAME
  2

  9
$UCSORG
 10
0.0
 20
0.0
 30
0.0
  9
$UCSXDIR
 10
1.0
 20
0.0
 30
0.0
  9
$UCSYDIR
 10
0.0
 20
1.0
 30
0.0
  9
$PUCSNAME
  2

  9
$PUCSORG
 10
0.0
 20
0.0
 30
0.0
  9
$PUCSXDIR
 10
1.0
 20
0.0
 30
0.0
  9
$PUCSYDIR
 10
0.0
 20
1.0
 30
0.0
  9
$USERI1
 70
     0
  9
$USERI2
 70
     0
  9
$USERI3
 70
     0
  9
$USERI4
 70
     0
  9
$USERI5
 70
     0
  9
$USERR1
 40
0.0
  9
$USERR2
 40
0.0
  9
$USERR3
 40
0.0
  9
$USERR4
 40
0.0
  9
$USERR5
 40
30.0
  9
$WORLDVIEW
 70
     1
  9
$SHADEDGE
 70
     3
  9
$SHADEDIF
 70
    70
  9
$TILEMODE
 70
     1
  9
$MAXACTVP
 70
    48
  9
$PLIMCHECK
 70
     0
  9
$PEXTMIN
 10
1.0000000000000000E+020
 20
1.0000000000000000E+020
 30
1.0000000000000000E+020
  9
$PEXTMAX
 10
-1.0000000000000000E+020
 20
-1.0000000000000000E+020
 30
-1.0000000000000000E+020
  9
$PLIMMIN
 10
0.0
 20
0.0
  9
$PLIMMAX
 10
420.0
 20
297.0
  9
$UNITMODE
 70
     0
  9
$VISRETAIN
 70
     1
  9
$PLINEGEN
 70
     0
  9
$PSLTSCALE
 70
     1
  0
ENDSEC
  0
SECTION
  2
TABLES
  0
TABLE
  2
VPORT
 70
     5
  0
VPORT
  2
*ACTIVE
 70
     0
 10
0.0
 20
0.0
 11
1.0
 21
1.0
 12
485.62361706510831
 22
23.036017551452741
 13
0.0
 23
0.0
 14
10.0
 24
10.0
 15
10.0
 25
10.0
 16
0.0
 26
0.0
 36
1.0
 17
0.0
 27
0.0
 37
0.0
 40
308.46199906293231
 41
1.508086253369272
 42
50.0
 43
0.0
 44
0.0
 50
0.0
 51
0.0
 71
     0
 72
  1000
 73
     1
 74
     1
 75
     0
 76
     0
 77
     0
 78
     0
  0
ENDTAB
  0
TABLE
  2
LTYPE
 70
    14
  0
LTYPE
  2
CONTINUOUS
 70
     0
  3
Solid line
 72
    65
 73
     0
 40
0.0
  0
LTYPE
  2
CENTER2
 70
     0
  3
Center (.5x) ___ _ ___ _ ___ _ ___ _ ___ _ ___
 72
    65
 73
     4
 40
28.574999999999999
 49
19.050000000000001
 49
-3.1749999999999989
 49
3.1749999999999989
 49
-3.1749999999999989
  0
LTYPE
  2
XREF1|CENTER2
 70
    48
  3
Center (.5x) ___ _ ___ _ ___ _ ___ _ ___ _ ___
 72
    65
 73
     4
 40
28.574999999999999
 49
19.050000000000001
 49
-3.1749999999999989
 49
3.1749999999999989
 49
-3.1749999999999989
  0
LTYPE
  2
HIDDEN
 70
     0
  3
Hidden __ __ __ __ __ __ __ __ __ __ __ __ __ _
 72
    65
 73
     2
 40
9.5249999999999986
 49
6.3499999999999988
 49
-3.1749999999999989
  0
LTYPE
  2
PHANTOM2
 70
     0
  3
Phantom (.5x) ___ _ _ ___ _ _ ___ _ _ ___ _ _
 72
    65
 73
     6
 40
31.75
 49
15.875
 49
-3.1749999999999989
 49
3.1749999999999989
 49
-3.1749999999999989
 49
3.1749999999999989
 49
-3.1749999999999989
  0
LTYPE
  2
A3WAKUDAKE|CENTER2
 70
    48
  3
Center (.5x) ___ _ ___ _ ___ _ ___ _ ___ _ ___
 72
    65
 73
     4
 40
28.574999999999999
 49
19.050000000000001
 49
-3.1749999999999989
 49
3.1749999999999989
 49
-3.1749999999999989
  0
ENDTAB
  0
TABLE
  2
LAYER
 70
    43
  0
LAYER
  2
0
 70
     0
 62
     7
  6
CONTINUOUS
  0
LAYER
  2
1CENTER
 70
     0
 62
     7
  6
CENTER2
  0
LAYER
  2
1TEXT
 70
     0
 62
     7
  6
CONTINUOUS
  0
LAYER
  2
1DIM
 70
     0
 62
     7
  6
CONTINUOUS
  0
LAYER
  2
1HIDDEN
 70
     0
 62
     7
  6
HIDDEN
  0
LAYER
  2
1PHANTOM
 70
     0
 62
     7
  6
PHANTOM2
  0
LAYER
  2
01
 70
     0
 62
     1
  6
CONTINUOUS
  0
LAYER
  2
1HATCH
 70
     0
 62
     7
  6
CONTINUOUS
  0
LAYER
  2
XREF1|1CENTER
 70
    48
 62
     7
  6
XREF1|CENTER2
  0
LAYER
  2
A3WAKUDAKE|THICK
 70
    48
 62
     7
  6
CONTINUOUS
  0
LAYER
  2
A3WAKUDAKE|POINT
 70
    48
 62
     7
  6
CONTINUOUS
  0
LAYER
  2
A3WAKUDAKE|1CENTER
 70
    48
 62
     7
  6
A3WAKUDAKE|CENTER2
  0
LAYER
  2
A3WAKUDAKE|0-6
 70
    48
 62
     7
  6
CONTINUOUS
  0
LAYER
  2
A3WAKUDAKE|1DIM
 70
    48
 62
     7
  6
CONTINUOUS
  0
ENDTAB
  0
TABLE
  2
STYLE
 70
    21
  0
STYLE
  2
STANDARD
 70
     0
 40
0.0
 41
1.0
 50
0.0
 71
     0
 42
4.0
  3
txt.shx
  4
extfont.shx
  0
ENDTAB
  0
TABLE
  2
VIEW
 70
     0
  0
ENDTAB
  0
TABLE
  2
UCS
 70
     0
  0
ENDTAB
  0
TABLE
  2
APPID
 70
     8
  0
APPID
  2
ACAD
 70
     0
  0
APPID
  2
DRAWINGVARIABLESXDATA
 70
     0
  0
APPID
  2
CONTENTTABDATA
 70
     0
  0
APPID
  2
CONTENTCURRENTTAB
 70
     0
  0
APPID
  2
CONTENTBLOCKDESCRIPTION
 70
     0
  0
APPID
  2
CONTENTBLOCKICON
 70
     0
  0
APPID
  2
CONTENTLONGBLOCKNAME
 70
     0
  0
APPID
  2
ACAD_PSEXT
 70
     0
  0
ENDTAB
  0
TABLE
  2
DIMSTYLE
 70
     8
  0
DIMSTYLE
  2
NEWX10
 70
     0
  3
 
  4

  5

  6
OPEN30
  7
OPEN30
 40
1.0
 41
2.0
 42
0.0
 43
7.0
 44
1.0
 45
0.0
 46
0.0
 47
0.0
 48
0.0
140
3.5
141
0.0
142
0.0
143
25.399999999999999
144
1.0
145
0.0
146
0.7
147
0.7
 71
     0
 72
     0
 73
     0
 74
     0
 75
     0
 76
     0
 77
     1
 78
     8
170
     0
171
     2
172
     1
173
     1
174
     0
175
     0
176
   256
177
   256
178
   201
  0
ENDTAB
  0
ENDSEC
  0
SECTION
  2
BLOCKS
  0
BLOCK
  8
0
  2
$MODEL_SPACE
 70
     0
 10
0.0
 20
0.0
 30
0.0
  3
$MODEL_SPACE
  1

  0
ENDBLK
  5
1A
  8
0
  0
BLOCK
 67
     1
  8
0
  2
$PAPER_SPACE
 70
     0
 10
0.0
 20
0.0
 30
0.0
  3
$PAPER_SPACE
  1

  0
ENDBLK
  5
17
 67
     1
  8
0
  0
BLOCK
  8
0
  2
_OPEN30
 70
     0
 10
0.0
 20
0.0
 30
0.0
  3
_OPEN30
  1

  0
LINE
  5
44
  8
0
  6
BYBLOCK
 62
     0
 10
-1.0
 20
0.26794919
 30
0.0
 11
0.0
 21
0.0
 31
0.0
  0
LINE
  5
45
  8
0
  6
BYBLOCK
 62
     0
 10
0.0
 20
0.0
 30
0.0
 11
-1.0
 21
-0.26794919
 31
0.0
  0
LINE
  5
46
  8
0
  6
BYBLOCK
 62
     0
 10
0.0
 20
0.0
 30
0.0
 11
-1.0
 21
0.0
 31
0.0
  0
ENDBLK
  5
47
  8
0
  0
BLOCK
  8
0
  2
XREF1
 70
    36
 10
0.0
 20
0.0
 30
0.0
  3
XREF1
  1
D:\ACLT\FORMAT\KAWAJUN(9)図面用.dwg
  0
ENDBLK
  5
5D
  8
0
  0
BLOCK
  8
0
  2
A3WAKUDAKE
 70
    36
 10
0.0
 20
0.0
 30
0.0
  3
A3WAKUDAKE
  1
D:\ACLT\FORMAT\A3WAKUdake.dwg
  0
ENDBLK
  5
41CA
  8
0
  0
BLOCK
  8
0
  2
*U38
 70
     1
 10
0.0
 20
0.0
 30
0.0
  3
*U38
  1

  0
TEXT
  5
56A0
  8
1TEXT
 10
2.92314629345401
 20
-53.74544447106647
 30
0.0
 40
2.8576800000000002
  1
9)指示無き角Ｒは最小（R0.3以下）の事。
  0
ENDBLK
  5
56A2
  8
0
  0
BLOCK
  8
0
  2
*U39
 70
     1
 10
0.0
 20
0.0
 30
0.0
  3
*U39
  1

  0
TEXT
  5
56A4
  8
1TEXT
 10
2.92314629345401
 20
-58.245444471066477
 30
0.0
 40
2.8576800000000002
  1
10)＊印寸法は嵌合部につき要調整寸法とする。トライ後調整有り。
  0
ENDBLK
  5
56A6
  8
0
  0
BLOCK
  8
0
  2
*U40
 70
     1
 10
0.0
 20
0.0
 30
0.0
  3
*U40
  1

  0
TEXT
  5
56A8
  8
1TEXT
 10
5.543543039778922
 20
-27.327257861047141
 30
0.0
 40
2.8576800000000002
  1
の処理はバフ研磨のみでは行なわない事（ﾊﾞﾘ処理方法は打合せ後、ﾄﾗｲ時に試し、決定）
  0
ENDBLK
  5
56AA
  8
0
  0
BLOCK
  8
0
  2
*U41
 70
     1
 10
0.0
 20
0.0
 30
0.0
  3
*U41
  1

  0
TEXT
  5
56AC
  8
1TEXT
 10
2.92314629345401
 20
-31.245444471066481
 30
0.0
 40
2.8576800000000002
  1
5)型割りの都合や、指定なき箇所等での抜きテーパーは0.5°以下とする。
  0
ENDBLK
  5
56AE
  8
0
  0
BLOCK
  8
0
  2
*U42
 70
     1
 10
0.0
 20
0.0
 30
0.0
  3
*U42
  1

  0
TEXT
  5
56B0
  8
1TEXT
 10
2.92314629345401
 20
-44.74544447106647
 30
0.0
 40
2.8576800000000002
  1
7)角Ｒの研磨指示のある場所は刃とならず、またダレ過ぎない事（寸法参照）
  0
ENDBLK
  5
56B2
  8
0
  0
BLOCK
  8
0
  2
*U43
 70
     1
 10
0.0
 20
0.0
 30
0.0
  3
*U43
  1

  0
TEXT
  5
56B4
  8
1TEXT
 10
2.92314629345401
 20
-40.245444471066477
 30
0.0
 40
2.8576800000000002
  1
6)外観有効面はバフ研磨時、直線とR 及びRとRが滑らかに繋がる様に処理する事。
  0
ENDBLK
  5
56B6
  8
0
  0
BLOCK
  8
0
  2
*U44
 70
     1
 10
0.0
 20
0.0
 30
0.0
  3
*U44
  1

  0
TEXT
  5
56B8
  8
1TEXT
 10
3.003430943392686
 20
-17.745444471066481
 30
0.0
 40
2.8576800000000002
  1
3)ゲート・P.L・突出しピン・フロー等は、外観有効面を考慮し配置の事。（打合せにより決定）
  0
ENDBLK
  5
56BA
  8
0
  0
BLOCK
  8
0
  2
*U45
 70
     1
 10
0.0
 20
0.0
 30
0.0
  3
*U45
  1

  0
TEXT
  5
56BC
  8
1TEXT
 10
3.003430943392686
 20
-22.245444471066481
 30
0.0
 40
2.8576800000000002
  1
4)壁面・他部品との接地部分については、真直度・平面度が出るように処理する事。 ｹﾞｰﾄやﾊﾞﾘ等
  0
ENDBLK
  5
56BE
  8
0
  0
BLOCK
  8
0
  2
*U46
 70
     1
 10
0.0
 20
0.0
 30
0.0
  3
*U46
  1

  0
TEXT
  5
56C0
  8
1TEXT
 10
2.92314629345401
 20
-49.24544447106647
 30
0.0
 40
2.8576800000000002
  1
8)表記寸法は全てクロームめっき後の寸法とする。
  0
ENDBLK
  5
56C2
  8
0
  0
BLOCK
  8
0
  2
*U47
 70
     1
 10
0.0
 20
0.0
 30
0.0
  3
*U47
  1

  0
TEXT
  5
56C4
  8
1TEXT
 10
6.12293279377809
 20
-36.393522569806279
 30
0.0
 40
2.8576800000000002
  1
0.5°以上必要の場合は、打合せにより決定。特にコネクターとの嵌合時、接触する部分は要注意。
  0
ENDBLK
  5
56C6
  8
0
  0
BLOCK
  8
0
  2
*U48
 70
     1
 10
0.0
 20
0.0
 30
0.0
  3
*U48
  1

  0
TEXT
  5
56C8
  8
1TEXT
 10
3.0815391307314708
 20
-13.135202732034919
 30
0.0
 40
2.8576800000000002
  1
2)表面処理 :表参照（外観面はバフ研磨後、当社指定メッキ工程に移る）
  0
ENDBLK
  5
56CA
  8
0
  0
BLOCK
  8
0
  2
*U49
 70
     1
 10
0.0
 20
0.0
 30
0.0
  3
*U49
  1

  0
TEXT
  5
56CC
  8
1TEXT
 10
2.92314629345401
 20
-62.745444471066477
 30
0.0
 40
2.8576800000000002
  1
11)バリ、傷、鋳巣の無い事。タップ部は、メッキ工程後再確認の事。
  0
ENDBLK
  5
56CE
  8
0
  0
BLOCK
  8
0
  2
*U50
 70
     1
 10
0.0
 20
0.0
 30
0.0
  3
*U50
  1

  0
TEXT
  5
56D0
  8
1TEXT
 10
2.92314629345401
 20
-67.245444471066477
 30
0.0
 40
2.8576800000000002
  1
12)限度見本設定管理の事。
  0
ENDBLK
  5
56D2
  8
0
  0
BLOCK
  8
0
  2
*U51
 70
     1
 10
0.0
 20
0.0
 30
0.0
  3
*U51
  1

  0
TEXT
  5
56D4
  8
1TEXT
 10
3.0056454802902399
 20
-71.745444471066463
 30
0.0
 40
2.8576800000000002
  1
13)許可無き仕様変更は不可とする。
  0
ENDBLK
  5
56D6
  8
0
  0
BLOCK
  8
0
  2
*U52
 70
     1
 10
0.0
 20
0.0
 30
0.0
  3
*U52
  1

  0
TEXT
  5
56D8
  8
1TEXT
 10
2.9892403061171531
 20
-76.245444471066463
 30
0.0
 40
2.8576800000000002
  1
14)特記無き寸法公差は表参照の事。
  0
ENDBLK
  5
56DA
  8
0
  0
BLOCK
  8
0
  2
*U53
 70
     1
 10
0.0
 20
0.0
 30
0.0
  3
*U53
  1

  0
TEXT
  5
56DC
  8
1TEXT
 10
2.9728351319431559
 20
-80.745444471066477
 30
0.0
 40
2.8576800000000002
  1
15)機械加工を行う場合、寸法が変化しないように注意の事。
  0
ENDBLK
  5
56DE
  8
0
  0
BLOCK
  8
0
  2
*U54
 70
     1
 10
0.0
 20
0.0
 30
0.0
  3
*U54
  1

  0
TEXT
  5
56E0
  8
1TEXT
 10
2.9728351319431559
 20
-85.245444471066463
 30
0.0
 40
2.8576800000000002
  1
16)外観形状は、3Dデータに基き製作の事。
  0
ENDBLK
  5
56E2
  8
0
  0
BLOCK
  8
0
  2
*U55
 70
     1
 10
0.0
 20
0.0
 30
0.0
  3
*U55
  1

  0
TEXT
  5
56E4
  8
1TEXT
 10
3.5388586074950581
 20
-8.6247452577785424
 30
0.0
 40
2.8576800000000002
  1
1)材質 :亜鉛合金ダイカスト(JIS:ZDC2相当)
  0
ENDBLK
  5
56E6
  8
0
  0
BLOCK
  8
0
  2
*U56
 70
     1
 10
0.0
 20
0.0
 30
0.0
  3
*U56
  1

  0
TEXT
  5
56E8
  8
1TEXT
 10
0.0000000000000012
 20
-4.0823999999999989
 30
0.0
 40
4.0823999999999989
  1
注記
  0
ENDBLK
  5
56EA
  8
0
  0
BLOCK
  8
0
  2
*U57
 70
     1
 10
0.0
 20
0.0
 30
0.0
  3
*U57
  1

  0
TEXT
  5
56EC
  8
1TEXT
 10
19.133333333333329
 20
29.18712996968091
 30
0.0
 40
3.2000000000000002
  1
10
  0
ENDBLK
  5
56EE
  8
0
  0
BLOCK
  8
0
  2
*U58
 70
     1
 10
0.0
 20
0.0
 30
0.0
  3
*U58
  1

  0
TEXT
  5
56F0
  8
1TEXT
 10
17.586666666666659
 20
34.787129969680869
 30
0.0
 40
3.2000000000000002
  1
以下
  0
ENDBLK
  5
56F2
  8
0
  0
BLOCK
  8
0
  2
*U59
 70
     1
 10
0.0
 20
0.0
 30
0.0
  3
*U59
  1

  0
TEXT
  5
56F4
  8
1TEXT
 10
18.333333333333329
 20
17.987129969680911
 30
0.0
 40
3.2000000000000002
  1
25
  0
ENDBLK
  5
56F6
  8
0
  0
BLOCK
  8
0
  2
*U60
 70
     1
 10
0.0
 20
0.0
 30
0.0
  3
*U60
  1

  0
TEXT
  5
56F8
  8
1TEXT
 10
18.86666666666666
 20
23.58712996968088
 30
0.0
 40
3.2000000000000002
  1
16
  0
ENDBLK
  5
56FA
  8
0
  0
BLOCK
  8
0
  2
*U61
 70
     1
 10
0.0
 20
0.0
 30
0.0
  3
*U61
  1

  0
TEXT
  5
56FC
  8
1TEXT
 10
13.049454580367019
 20
40.673253733800912
 30
0.0
 40
3.2000000000000002
  1
特記なき寸法公差
  0
ENDBLK
  5
56FE
  8
0
  0
BLOCK
  8
0
  2
*U62
 70
     1
 10
0.0
 20
0.0
 30
0.0
  3
*U62
  1

  0
TEXT
  5
5700
  8
1TEXT
 10
17.800000000000001
 20
1.1871299696809039
 30
0.0
 40
3.2000000000000002
  1
100
  0
ENDBLK
  5
5702
  8
0
  0
BLOCK
  8
0
  2
*U63
 70
     1
 10
0.0
 20
0.0
 30
0.0
  3
*U63
  1

  0
TEXT
  5
5704
  8
1TEXT
 10
18.333333333333329
 20
6.78712996968087
 30
0.0
 40
3.2000000000000002
  1
63
  0
ENDBLK
  5
5706
  8
0
  0
BLOCK
  8
0
  2
*U64
 70
     1
 10
0.0
 20
0.0
 30
0.0
  3
*U64
  1

  0
TEXT
  5
5708
  8
1TEXT
 10
18.600000000000001
 20
12.38712996968089
 30
0.0
 40
3.2000000000000002
  1
40
  0
ENDBLK
  5
570A
  8
0
  0
BLOCK
  8
0
  2
*U65
 70
     1
 10
0.0
 20
0.0
 30
0.0
  3
*U65
  1

  0
TEXT
  5
570C
  8
1TEXT
 10
4.333333333333333
 20
1.1871299696809039
 30
0.0
 40
3.2000000000000002
  1
63
  0
ENDBLK
  5
570E
  8
0
  0
BLOCK
  8
0
  2
*U66
 70
     1
 10
0.0
 20
0.0
 30
0.0
  3
*U66
  1

  0
TEXT
  5
5710
  8
1TEXT
 10
4.8666666666666663
 20
17.987129969680911
 30
0.0
 40
3.2000000000000002
  1
16
  0
ENDBLK
  5
5712
  8
0
  0
BLOCK
  8
0
  2
*U67
 70
     1
 10
0.0
 20
0.0
 30
0.0
  3
*U67
  1

  0
TEXT
  5
5714
  8
1TEXT
 10
5.133333333333332
 20
23.58712996968088
 30
0.0
 40
3.2000000000000002
  1
10
  0
ENDBLK
  5
5716
  8
0
  0
BLOCK
  8
0
  2
*U68
 70
     1
 10
0.0
 20
0.0
 30
0.0
  3
*U68
  1

  0
TEXT
  5
5718
  8
1TEXT
 10
4.5999999999999988
 20
6.78712996968087
 30
0.0
 40
3.2000000000000002
  1
40
  0
ENDBLK
  5
571A
  8
0
  0
BLOCK
  8
0
  2
*U69
 70
     1
 10
0.0
 20
0.0
 30
0.0
  3
*U69
  1

  0
TEXT
  5
571C
  8
1TEXT
 10
4.333333333333333
 20
12.38712996968089
 30
0.0
 40
3.2000000000000002
  1
25
  0
ENDBLK
  5
571E
  8
0
  0
BLOCK
  8
0
  2
*U70
 70
     1
 10
0.0
 20
0.0
 30
0.0
  3
*U70
  1

  0
TEXT
  5
5720
  8
1TEXT
 10
5.9333333333333327
 20
29.18712996968091
 30
0.0
 40
3.2000000000000002
  1
-
  0
ENDBLK
  5
5722
  8
0
  0
BLOCK
  8
0
  2
*U71
 70
     1
 10
0.0
 20
0.0
 30
0.0
  3
*U71
  1

  0
TEXT
  5
5724
  8
1TEXT
 10
1.666666666666665
 20
34.787129969680869
 30
0.0
 40
3.2000000000000002
  1
を超え
  0
ENDBLK
  5
5726
  8
0
  0
BLOCK
  8
0
  2
*U72
 70
     1
 10
0.0
 20
0.0
 30
0.0
  3
*U72
  1

  0
TEXT
  5
5728
  8
1TEXT
 10
36.826666666666668
 20
1.4127485067762899
 30
0.0
 40
3.2000000000000002
  1
±0.2
  0
ENDBLK
  5
572A
  8
0
  0
BLOCK
  8
0
  2
*U73
 70
     1
 10
0.0
 20
0.0
 30
0.0
  3
*U73
  1

  0
TEXT
  5
572C
  8
1TEXT
 10
35.759999999999998
 20
29.412748506776289
 30
0.0
 40
3.2000000000000002
  1
±0.13
  0
ENDBLK
  5
572E
  8
0
  0
BLOCK
  8
0
  2
*U74
 70
     1
 10
0.0
 20
0.0
 30
0.0
  3
*U74
  1

  0
TEXT
  5
5730
  8
1TEXT
 10
34.440076937850471
 20
34.800000000000033
 30
0.0
 40
3.2000000000000002
  1
寸法公差
  0
ENDBLK
  5
5732
  8
0
  0
BLOCK
  8
0
  2
*U75
 70
     1
 10
0.0
 20
0.0
 30
0.0
  3
*U75
  1

  0
TEXT
  5
5734
  8
1TEXT
 10
35.759999999999998
 20
18.2127485067763
 30
0.0
 40
3.2000000000000002
  1
±0.15
  0
ENDBLK
  5
5736
  8
0
  0
BLOCK
  8
0
  2
*U76
 70
     1
 10
0.0
 20
0.0
 30
0.0
  3
*U76
  1

  0
TEXT
  5
5738
  8
1TEXT
 10
35.759999999999998
 20
23.81274850677627
 30
0.0
 40
3.2000000000000002
  1
±0.14
  0
ENDBLK
  5
573A
  8
0
  0
BLOCK
  8
0
  2
*U77
 70
     1
 10
0.0
 20
0.0
 30
0.0
  3
*U77
  1

  0
TEXT
  5
573C
  8
1TEXT
 10
35.759999999999998
 20
7.0127485067763127
 30
0.0
 40
3.2000000000000002
  1
±0.18
  0
ENDBLK
  5
573E
  8
0
  0
BLOCK
  8
0
  2
*U78
 70
     1
 10
0.0
 20
0.0
 30
0.0
  3
*U78
  1

  0
TEXT
  5
5740
  8
1TEXT
 10
35.759999999999998
 20
12.612748506776279
 30
0.0
 40
3.2000000000000002
  1
±0.16
  0
ENDBLK
  5
5742
  8
0
  0
BLOCK
  8
0
  2
*U79
 70
     1
 10
0.0
 20
0.0
 30
0.0
  3
*U79
  1

  0
LINE
  5
5744
  8
0
 10
-29.999999999837598
 20
0.0000465358979227
 30
0.0
 11
-24.700003489975941
 21
-1.4999534641020771
 31
0.0
  0
LINE
  5
5745
  8
0
 10
-24.700003489975941
 20
-1.4999534641020771
 30
0.0
 11
-0.0000034900840618
 21
-1.499953464101849
 31
0.0
  0
LINE
  5
5746
  8
0
 10
-29.999999999837598
 20
0.0000465358979227
 30
0.0
 11
-24.6999965095923
 21
1.5000465358980359
 31
0.0
  0
LINE
  5
5747
  8
0
 10
-0.0000081437821464
 20
-3.4999999999998859
 30
0.0
 11
-0.0000034900840618
 21
-1.499953464101849
 31
0.0
  0
LINE
  5
5748
  8
0
 10
-24.6999965095923
 20
1.5000465358980359
 30
0.0
 11
0.0000034903006139
 21
1.500046535897922
 31
0.0
  0
LINE
  5
5749
  8
0
 10
-0.0000081437821464
 20
-3.4999999999998859
 30
0.0
 11
1.0999953464131731
 21
-3.5
 31
0.0
  0
LINE
  5
574A
  8
0
 10
0.0000034903006139
 20
1.500046535897922
 30
0.0
 11
0.0000081437821322
 21
3.5
 31
0.0
  0
ARC
  5
574B
  8
0
 10
1.0999953464131731
 20
-2.0
 30
0.0
 40
1.5
 50
270.0
 51
359.99986668447059
  0
LINE
  5
574C
  8
0
 10
0.0000081437821322
 20
3.5
 30
0.0
 11
1.100004653592769
 21
3.5
 31
0.0
  0
LINE
  5
574D
  8
0
 10
2.5999953464091159
 20
-2.0000034901923982
 30
0.0
 11
2.6000046535887051
 21
1.9999965098076009
 31
0.0
  0
ARC
  5
574E
  8
0
 10
1.100004653592769
 20
2.0
 30
0.0
 40
1.5
 50
359.99986668447059
 51
90.0
  0
ENDBLK
  5
5750
  8
0
  0
BLOCK
  8
0
  2
*U80
 70
     1
 10
0.0
 20
0.0
 30
0.0
  3
*U80
  1

  0
TEXT
  5
5752
  8
0
 62
   201
 10
402.49352849429459
 20
672.70964048834276
 30
0.0
 40
3.5
  1
R0.5 
 50
28.973484893571872
  0
ENDBLK
  5
5754
  8
0
  0
BLOCK
  8
0
  2
*U81
 70
     1
 10
0.0
 20
0.0
 30
0.0
  3
*U81
  1

  0
TEXT
  5
5756
  8
0
 62
   201
 10
387.22437513958067
 20
673.43640134522695
 30
0.0
 40
3.5
  1
4 
  0
ENDBLK
  5
5758
  8
0
  0
BLOCK
  8
0
  2
*U82
 70
     1
 10
0.0
 20
0.0
 30
0.0
  3
*U82
  1

  0
TEXT
  5
575A
  8
0
 62
   201
 10
390.5564185695041
 20
667.23002619554825
 30
0.0
 40
3.5
  1
3 
 50
90.0
  0
ENDBLK
  5
575C
  8
0
  0
BLOCK
  8
0
  2
*U83
 70
     1
 10
0.0
 20
0.0
 30
0.0
  3
*U83
  1

  0
TEXT
  5
5763
  8
1DIM
 62
   201
 10
18.305173519538581
 20
-15.61666130507365
 30
0.0
 40
2.5
  1
二文字
  0
TEXT
  5
5764
  8
1DIM
 62
   201
 10
16.805173519538581
 20
-19.783327971740309
 30
0.0
 40
2.5
  1
（別途指定）
  0
TEXT
  5
5765
  8
1DIM
 62
   201
 10
18.305173519538581
 20
-23.949994638406991
 30
0.0
 40
2.5
  1
天地 約1.8
  0
TEXT
  5
5766
  8
1DIM
 62
   201
 10
18.305173519538581
 20
-28.116661305073649
 30
0.0
 40
2.5
  1
凸0.2
  0
ENDBLK
  5
5768
  8
0
  0
BLOCK
  8
0
  2
*U84
 70
     1
 10
0.0
 20
0.0
 30
0.0
  3
*U84
  1

  0
INSERT
  5
576A
  8
1DIM
  2
_OPEN30
 10
14.4103255879545
 20
-14.624089158227431
 30
0.0
 41
1.399999999999999
 42
1.399999999999999
 43
1.399999999999999
 50
98.159565912905407
  0
POLYLINE
  5
576B
  8
1DIM
 66
     1
 10
0.0
 20
0.0
 30
0.0
  0
VERTEX
  5
576C
  8
1DIM
 10
14.60902815536398
 20
-16.009916452555579
 30
0.0
  0
VERTEX
  5
576D
  8
1DIM
 10
16.415173519538591
 20
-28.606661305073651
 30
0.0
  0
VERTEX
  5
576E
  8
1DIM
 10
34.400411614776679
 20
-28.606661305073651
 30
0.0
  0
SEQEND
  5
576F
  8
1DIM
  0
ENDBLK
  5
5771
  8
0
  0
BLOCK
  8
0
  2
*U85
 70
     1
 10
0.0
 20
0.0
 30
0.0
  3
*U85
  1

  0
INSERT
  5
5773
  8
1DIM
  2
_OPEN30
 10
12.45758654450947
 20
-14.64446772310475
 30
0.0
 41
1.399999999999999
 42
1.399999999999999
 43
1.399999999999999
 50
85.293022683124491
  0
POLYLINE
  5
5774
  8
1DIM
 66
     1
 10
0.0
 20
0.0
 30
0.0
  0
VERTEX
  5
5775
  8
1DIM
 10
12.34270271855025
 20
-16.039746084770609
 30
0.0
  0
VERTEX
  5
5776
  8
1DIM
 10
11.59889611262542
 20
-25.07336986815206
 30
0.0
  0
VERTEX
  5
5777
  8
1DIM
 10
1.2803246840539939
 20
-25.07336986815206
 30
0.0
  0
SEQEND
  5
5778
  8
1DIM
  0
ENDBLK
  5
577A
  8
0
  0
BLOCK
  8
0
  2
*U86
 70
     1
 10
0.0
 20
0.0
 30
0.0
  3
*U86
  1

  0
TEXT
  5
577C
  8
1DIM
 62
   201
 10
1.2803246840539939
 20
-20.41670320148539
 30
0.0
 40
2.5
  1
枠
  0
TEXT
  5
577D
  8
1DIM
 62
   201
 10
1.1136580173873269
 20
-24.583369868152051
 30
0.0
 40
2.5
  1
凹0.3
  0
ENDBLK
  5
577F
  8
0
  0
BLOCK
  8
0
  2
*U87
 70
     1
 10
0.0
 20
0.0
 30
0.0
  3
*U87
  1

  0
LINE
  5
5781
  8
0
 10
-23.468911086754559
 20
-1.75
 30
0.0
 11
0.0000000000000284
 21
-1.75
 31
0.0
  0
LINE
  5
5782
  8
0
 10
0.0000000000000284
 20
-1.75
 30
0.0
 11
0.0000000000000284
 21
-4.5
 31
0.0
  0
LINE
  5
5783
  8
0
 10
-29.999999999999972
 20
0.0
 30
0.0
 11
-23.468911086754559
 21
-1.75
 31
0.0
  0
LINE
  5
5784
  8
0
 10
0.0000000000000284
 20
-4.5
 30
0.0
 11
0.7999999999998125
 21
-4.5
 31
0.0
  0
LINE
  5
5785
  8
0
 10
-29.999999999999972
 20
0.0
 30
0.0
 11
-23.468911086754499
 21
1.75
 31
0.0
  0
ARC
  5
5786
  8
0
 10
0.8000000000000113
 20
-2.0
 30
0.0
 40
2.5
 50
269.9999999999954
 51
0.0
  0
LINE
  5
5787
  8
0
 10
-23.468911086754499
 20
1.75
 30
0.0
 11
0.0000000000000284
 21
1.75
 31
0.0
  0
LINE
  5
5788
  8
0
 10
3.3000000000000389
 20
2.0
 30
0.0
 11
3.3000000000000109
 21
-2.0
 31
0.0
  0
LINE
  5
5789
  8
0
 10
0.0000000000000284
 20
4.5
 30
0.0
 11
0.0000000000000284
 21
1.75
 31
0.0
  0
ARC
  5
578A
  8
0
 10
0.8000000000000397
 20
2.0
 30
0.0
 40
2.5
 50
0.0
 51
90.0
  0
LINE
  5
578B
  8
0
 10
0.0000000000000284
 20
4.5
 30
0.0
 11
0.8000000000000397
 21
4.5
 31
0.0
  0
ENDBLK
  5
578D
  8
0
  0
BLOCK
  8
0
  2
*U88
 70
     1
 10
0.0
 20
0.0
 30
0.0
  3
*U88
  1

  0
LINE
  5
578F
  8
0
 10
0.0000279214028041
 20
3.999980519329938
 30
0.0
 11
-0.0000279216747714
 21
-4.000019480496916
 31
0.0
  0
LINE
  5
5790
  8
0
 10
-0.2999720785850997
 20
3.9999833114837879
 30
0.0
 11
0.0000279214028041
 21
3.999980519329938
 31
0.0
  0
LINE
  5
5791
  8
0
 10
-0.3000279216625614
 20
-4.0000166883430657
 30
0.0
 11
-0.0000279216747714
 21
-4.000019480496916
 31
0.0
  0
LINE
  5
5792
  8
0
 10
-0.2999720785850997
 20
3.9999833114837879
 30
0.0
 11
-2.2999767321368831
 21
2.0000019257995509
 31
0.0
  0
LINE
  5
5793
  8
0
 10
-0.3000279216625614
 20
-4.0000166883430657
 30
0.0
 11
-2.300032575301131
 21
-1.99999807385393
 31
0.0
  0
LINE
  5
5794
  8
0
 10
-9.6499860384565732
 20
2.0002105293485779
 30
0.0
 11
-2.2999767321368831
 21
2.0000019257995509
 31
0.0
  0
LINE
  5
5795
  8
0
 10
-9.6500139599953059
 20
-1.999789470564223
 30
0.0
 11
-2.300032575301131
 21
-1.99999807385393
 31
0.0
  0
LINE
  5
5796
  8
0
 10
-9.9999884815810276
 20
1.6502131988713691
 30
0.0
 11
-9.6499860384565732
 21
2.0002105293485779
 31
0.0
  0
LINE
  5
5797
  8
0
 10
-10.00001151685049
 20
-1.649786801059008
 30
0.0
 11
-9.6500139599953059
 21
-1.999789470564223
 31
0.0
  0
LINE
  5
5798
  8
0
 10
-9.9999884815810276
 20
1.6502131988713691
 30
0.0
 11
-10.00001151685049
 21
-1.649786801059008
 31
0.0
  0
ENDBLK
  5
579A
  8
0
  0
BLOCK
  8
0
  2
*U89
 70
     1
 10
0.0
 20
0.0
 30
0.0
  3
*U89
  1

  0
TEXT
  5
579C
  8
1DIM
 62
   201
 10
649.40300589465335
 20
-26.168734247833779
 30
0.0
 40
3.5
  1
20 
 50
90.0
  0
ENDBLK
  5
579E
  8
0
  0
BLOCK
  8
0
  2
*U90
 70
     1
 10
0.0
 20
0.0
 30
0.0
  3
*U90
  1

  0
TEXT
  5
57A0
  8
1DIM
 62
   201
 10
639.40300589465335
 20
-20.585400914499068
 30
0.0
 40
3.5
  1
10 
 50
90.0
  0
ENDBLK
  5
57A2
  8
0
  0
BLOCK
  8
0
  2
*U91
 70
     1
 10
0.0
 20
0.0
 30
0.0
  3
*U91
  1

  0
TEXT
  5
57A4
  8
1DIM
 62
   201
 10
659.40300589465335
 20
-18.00367889843227
 30
0.0
 40
3.5
  1
37 
 50
90.0
  0
ENDBLK
  5
57A6
  8
0
  0
BLOCK
  8
0
  2
*U92
 70
     1
 10
0.0
 20
0.0
 30
0.0
  3
*U92
  1

  0
TEXT
  5
57A8
  8
1DIM
 62
   201
 10
587.57729697932734
 20
24.069709784302471
 30
0.0
 40
3.5
  1
23 
  0
ENDBLK
  5
57AA
  8
0
  0
BLOCK
  8
0
  2
*U93
 70
     1
 10
0.0
 20
0.0
 30
0.0
  3
*U93
  1

  0
TEXT
  5
57AC
  8
1DIM
 62
   201
 10
375.08357327331242
 20
34.069709784302482
 30
0.0
 40
3.5
  1
138 
  0
ENDBLK
  5
57AE
  8
0
  0
BLOCK
  8
0
  2
*U94
 70
     1
 10
0.0
 20
0.0
 30
0.0
  3
*U94
  1

  0
TEXT
  5
57B0
  8
1DIM
 62
   201
 10
561.16085786558574
 20
-80.773022077744542
 30
0.0
 40
3.5
  1
76 
  0
ENDBLK
  5
57B2
  8
0
  0
BLOCK
  8
0
  2
*U95
 70
     1
 10
0.0
 20
0.0
 30
0.0
  3
*U95
  1

  0
TEXT
  5
57B4
  8
1DIM
 62
   201
 10
469.1122027915543
 20
-31.968322813387591
 30
0.0
 40
3.5
  1
65 
 50
90.0
  0
ENDBLK
  5
57B6
  8
0
  0
BLOCK
  8
0
  2
*U96
 70
     1
 10
0.0
 20
0.0
 30
0.0
  3
*U96
  1

  0
TEXT
  5
57B8
  8
1DIM
 62
   201
 10
382.7919066066483
 20
-80.773022077744542
 30
0.0
 40
3.5
  1
P80 
  0
ENDBLK
  5
57BA
  8
0
  0
BLOCK
  8
0
  2
*U97
 70
     1
 10
0.0
 20
0.0
 30
0.0
  3
*U97
  1

  0
TEXT
  5
57BC
  8
1DIM
 62
   201
 10
376.7502399399844
 20
150.24828496504219
 30
0.0
 40
3.5
  1
接地面122 
  0
ENDBLK
  5
57BE
  8
0
  0
BLOCK
  8
0
  2
*U98
 70
     1
 10
0.0
 20
0.0
 30
0.0
  3
*U98
  1

  0
TEXT
  5
57C0
  8
1DIM
 62
   201
 10
469.90061270383279
 20
76.311857813367226
 30
0.0
 40
3.5
  1
76（ペーパー無し最小値）
 50
90.0
  0
ENDBLK
  5
57C2
  8
0
  0
BLOCK
  8
0
  2
*U99
 70
     1
 10
0.0
 20
0.0
 30
0.0
  3
*U99
  1

  0
TEXT
  5
57C4
  8
1DIM
 62
   201
 10
529.81919372510595
 20
34.069709784302482
 30
0.0
 40
3.5
  1
92 （ペーパー付き最大値）
  0
ENDBLK
  5
57C6
  8
0
  0
ENDSEC
  0
SECTION
  2
ENTITIES
  0
TEXT
  5
4448
  8
1TEXT
 10
592.78300589465346
 20
133.13948343313189
 30
0.0
 40
4.0
  1
表面処理：カバー
 41
0.8
 72
     1
 11
607.5030058946536
 21
133.13948343313189
 31
0.0
  0
TEXT
  5
4449
  8
1TEXT
 10
603.23633922798695
 20
126.1615884131476
 30
0.0
 40
4.0
  1
鏡面
 72
     1
 11
607.5030058946536
 21
126.1615884131476
 31
0.0
  0
LINE
  5
444A
  8
1DIM
 10
555.10300589465362
 20
138.63948343313189
 30
0.0
 11
660.10300589465351
 21
138.63948343313189
 31
0.0
  0
LINE
  5
444B
  8
1DIM
 10
555.10300589465385
 20
124.639483433132
 30
0.0
 11
660.10300589465351
 21
124.639483433132
 31
0.0
  0
LINE
  5
444C
  8
1DIM
 10
555.10300589465373
 20
131.63948343313189
 30
0.0
 11
660.10300589465351
 21
131.63948343313189
 31
0.0
  0
LINE
  5
444D
  8
1DIM
 10
625.10300589465339
 20
138.63948343313189
 30
0.0
 11
625.10300589465385
 21
117.639483433132
 31
0.0
  0
TEXT
  5
444E
  8
1TEXT
 10
629.83633922798742
 20
125.92512644948251
 30
0.0
 40
4.0
  1
SC313XC
 72
     1
 11
642.50300589465405
 21
125.92512644948251
 31
0.0
  0
TEXT
  5
444F
  8
1TEXT
 10
635.70300589465364
 20
133.13948343313189
 30
0.0
 40
4.0
  1
コード
 72
     1
 11
642.5030058946536
 21
133.13948343313189
 31
0.0
  0
LINE
  5
4450
  8
1DIM
 10
590.10300589465385
 20
117.639483433132
 30
0.0
 11
590.10300589465351
 21
138.63948343313189
 31
0.0
  0
LINE
  5
4451
  8
1DIM
 10
660.10300589465385
 20
117.639483433132
 30
0.0
 11
660.10300589465351
 21
138.63948343313189
 31
0.0
  0
LINE
  5
4723
  8
01
 10
326.66690660664659
 20
-16.948696674857612
 30
0.0
 11
326.66690660665017
 21
-33.04373424783978
 31
0.0
  0
ARC
  5
4724
  8
01
 10
327.16690660665017
 20
-33.04373424783978
 30
0.0
 40
0.5
 50
180.0
 51
270.0
  0
LINE
  5
4725
  8
01
 10
447.66690660664659
 20
-16.94869667485716
 30
0.0
 11
447.66690660664841
 21
-33.04373424783978
 31
0.0
  0
ARC
  5
4726
  8
01
 10
447.16690660664841
 20
-33.04373424783978
 30
0.0
 40
0.5
 50
270.0
 51
0.0
  0
LINE
  5
4727
  8
01
 10
448.16690660665199
 20
-16.948696674857612
 30
0.0
 11
326.16690660665017
 21
-16.94869667485807
 31
0.0
  0
LINE
  5
4728
  8
01
 10
447.16690660664841
 20
-33.54373424783978
 30
0.0
 11
327.16690660665017
 21
-33.54373424783978
 31
0.0
  0
LINE
  5
4729
  8
1CENTER
 10
387.16690660664841
 20
-10.52082057799714
 30
0.0
 11
387.16690660664841
 21
-36.394599904044178
 31
0.0
  0
CIRCLE
  5
472A
  8
01
 10
427.1669066066483
 20
-23.543734247840231
 30
0.0
 40
4.499999999997498
  0
CIRCLE
  5
472B
  8
01
 10
427.1669066066483
 20
-23.543734247840231
 30
0.0
 40
2.25
  0
CIRCLE
  5
472C
  8
01
 10
347.16690660664841
 20
-23.543734247840231
 30
0.0
 40
4.499999999997498
  0
CIRCLE
  5
472D
  8
01
 10
347.16690660664841
 20
-23.543734247840231
 30
0.0
 40
2.25
  0
LINE
  5
4732
  8
01
 10
326.16690660665211
 20
3.574125810706505
 30
0.0
 11
310.16690660664108
 21
3.5741258107060498
 31
0.0
  0
LINE
  5
4733
  8
1DIM
 10
326.16690660665211
 20
-53.63397145139686
 30
0.0
 11
310.1669066066429
 21
-53.63397145139686
 31
0.0
  0
LINE
  5
4734
  8
01
 10
326.16690660665392
 20
-61.677438104144471
 30
0.0
 11
310.16690660664108
 21
-61.677438104144471
 31
0.0
  0
LINE
  5
4735
  8
01
 10
443.16690660664472
 20
-46.296916496088102
 30
0.0
 11
326.16690660665017
 21
-46.296916496088102
 31
0.0
  0
LINE
  5
4736
  8
01
 10
326.16690660665211
 20
3.574125810706505
 30
0.0
 11
326.16690660665392
 21
-61.677438104144471
 31
0.0
  0
LINE
  5
4737
  8
01
 10
310.16690660664108
 20
3.5741258107060498
 30
0.0
 11
310.16690660664108
 21
-61.677438104144471
 31
0.0
  0
LINE
  5
4738
  8
01
 10
447.41690660664477
 20
0.9456668262047288
 30
0.0
 11
447.41690660664477
 21
-7.304333173792088
 31
0.0
  0
LINE
  5
4739
  8
01
 10
326.91690660664841
 20
0.9456668262047288
 30
0.0
 11
326.91690660664841
 21
-7.3043331737916333
 31
0.0
  0
ARC
  5
473A
  8
01
 10
328.91690660664841
 20
-7.3043331737916333
 30
0.0
 40
2.0
 50
180.0
 51
270.0
  0
LINE
  5
473B
  8
01
 10
445.41690660664472
 20
-9.304333173792088
 30
0.0
 11
328.91690660664841
 21
-9.3043331737916333
 31
0.0
  0
ARC
  5
473C
  8
01
 10
445.41690660664472
 20
-7.304333173792088
 30
0.0
 40
2.0
 50
270.0
 51
0.0
  0
LINE
  5
473D
  8
01
 10
447.41690660664477
 20
0.9456668262047288
 30
0.0
 11
326.91690660664841
 21
0.9456668262047288
 31
0.0
  0
LINE
  5
473E
  8
01
 10
448.16690660665017
 20
-1.1257269786304951
 30
0.0
 11
448.16690660665199
 21
-16.948696674857612
 31
0.0
  0
LINE
  5
473F
  8
01
 10
448.16690660665017
 20
-1.1257269786304951
 30
0.0
 11
447.41690660664477
 21
-1.1257269786304951
 31
0.0
  0
LINE
  5
4740
  8
01
 10
422.16690660664659
 20
-9.658022743955712
 30
0.0
 11
352.16690660665017
 21
-9.658022743955712
 31
0.0
  0
LINE
  5
4741
  8
01
 10
448.16690660665199
 20
-11.58638557301617
 30
0.0
 11
326.16690660665569
 21
-11.58638557301663
 31
0.0
  0
LINE
  5
4742
  8
01
 10
352.16690660665017
 20
-9.3043331737916333
 30
0.0
 11
352.16690660664841
 21
-9.658022743955712
 31
0.0
  0
LINE
  5
4743
  8
01
 10
422.16690660664472
 20
-9.304333173792088
 30
0.0
 11
422.16690660664472
 21
-9.658022743955712
 31
0.0
  0
LINE
  5
4744
  8
01
 10
326.91690660664659
 20
-1.125726978630041
 30
0.0
 11
326.16690660665211
 21
-1.1257269786304951
 31
0.0
  0
LINE
  5
4745
  8
01
 10
448.16690660664659
 20
-38.904858984691032
 30
0.0
 11
448.1669066066483
 21
-59.051285109316147
 31
0.0
  0
LINE
  5
4746
  8
01
 10
448.1669066066483
 20
-59.051285109316147
 30
0.0
 11
326.16690660665392
 21
-59.051285109316147
 31
0.0
  0
LINE
  5
4747
  8
1DIM
 10
448.16690660664659
 20
-53.688974007481079
 30
0.0
 11
326.16690660665392
 21
-53.688974007481079
 31
0.0
  0
LINE
  5
4748
  8
01
 10
443.16690660664659
 20
-38.904858984691032
 30
0.0
 11
443.16690660664472
 21
-46.296916496088102
 31
0.0
  0
LINE
  5
4749
  8
01
 10
448.16690660664659
 20
-38.904858984691032
 30
0.0
 11
443.16690660664659
 21
-38.904858984691032
 31
0.0
  0
LINE
  5
4A3B
  8
1PHANTOM
 10
442.4789772325131
 20
-7.2969164960881008
 30
0.0
 11
328.4789772325131
 21
-7.2969164960881008
 31
0.0
  0
LINE
  5
4A3C
  8
1PHANTOM
 10
442.4789772325131
 20
-122.2969164960881
 30
0.0
 11
328.4789772325131
 21
-122.2969164960881
 31
0.0
  0
LINE
  5
4A3D
  8
1PHANTOM
 10
328.4789772325131
 20
-7.2969164960881008
 30
0.0
 11
328.4789772325131
 21
-122.2969164960881
 31
0.0
  0
LINE
  5
4A3E
  8
1PHANTOM
 10
442.4789772325131
 20
-7.2969164960881008
 30
0.0
 11
442.4789772325131
 21
-122.2969164960881
 31
0.0
  0
LINE
  5
4BBB
  8
01
 10
602.10300589465339
 20
36.490221882344713
 30
0.0
 11
602.10300589465339
 21
-68.509778117654832
 31
0.0
  0
LINE
  5
4BBE
  8
01
 10
611.10300589465339
 20
36.490221882344713
 30
0.0
 11
611.10300589465339
 21
-68.509778117654832
 31
0.0
  0
LINE
  5
4BBF
  8
01
 10
620.10300589465351
 20
36.490221882344713
 30
0.0
 11
620.10300589465328
 21
-68.509778117654832
 31
0.0
  0
TEXT
  5
4BDC
  8
1TEXT
 10
577.40321709112732
 20
140.59922516855789
 30
0.0
 40
8.0
  1
SC-313-X
  0
CIRCLE
  5
4D2A
  8
1PHANTOM
 10
537.31220279155434
 20
-64.796916496088102
 30
0.0
 40
18.5
  0
CIRCLE
  5
4D2B
  8
1PHANTOM
 10
537.31220279155434
 20
-64.796916496088102
 30
0.0
 40
57.5
  0
LINE
  5
4D2C
  8
01
 10
594.6687826345717
 20
-7.306882529560311
 30
0.0
 11
583.56113820933729
 21
-16.627302870002151
 31
0.0
  0
ARC
  5
4D2D
  8
01
 10
583.23974440449661
 20
-16.244280648444938
 30
0.0
 40
0.5
 50
220.0000000000112
 51
309.99999999995788
  0
LINE
  5
4D2E
  8
01
 10
600.38992761023314
 20
-4.7907346468899732
 30
0.0
 11
598.80204822222572
 21
-6.1231236557190414
 31
0.0
  0
LINE
  5
4D2F
  8
01
 10
584.3029943047261
 20
-18.289274450311829
 30
0.0
 11
532.9780166157617
 21
-61.356044299304699
 31
0.0
  0
ARC
  5
4D30
  8
01
 10
532.65662281091886
 20
-60.973022077744531
 30
0.0
 40
0.5
 50
220.0000000000112
 51
309.99999999997362
  0
LINE
  5
4D31
  8
01
 10
550.23820493366861
 20
-44.58856389137042
 30
0.0
 11
533.38522718504851
 21
-58.729891304473199
 31
0.0
  0
ARC
  5
4D32
  8
01
 10
549.91681112882384
 20
-44.205541669810259
 30
0.0
 40
0.5
 50
309.99999999997362
 51
40.000000000011141
  0
LINE
  5
4D33
  8
01
 10
590.16926936676305
 20
-1.944571427719779
 30
0.0
 11
579.06162494153625
 21
-11.264991768172759
 31
0.0
  0
ARC
  5
4D34
  8
01
 10
579.38301874638114
 20
-11.64801398973202
 30
0.0
 40
0.5
 50
129.9999999999736
 51
220.0000000000112
  0
LINE
  5
4D35
  8
01
 10
545.73869166585985
 20
-39.226252789535351
 30
0.0
 11
528.88571391724531
 21
-53.36758020264358
 31
0.0
  0
ARC
  5
4D36
  8
01
 10
529.20710772208815
 20
-53.750602424202839
 30
0.0
 40
0.5
 50
129.9999999999736
 51
220.0000000000112
  0
LINE
  5
4D37
  8
01
 10
526.16711829733708
 20
-54.016993672958847
 30
0.0
 11
532.27360058935858
 21
-61.294415882587487
 31
0.0
  0
ARC
  5
4D38
  8
01
 10
526.55014051889725
 20
-53.695599868114073
 30
0.0
 40
0.5
 50
129.9999999999736
 51
220.0000000000112
  0
LINE
  5
4D39
  8
01
 10
578.99999652481915
 20
-11.969407794575879
 30
0.0
 11
582.85672218293826
 21
-16.565674453286992
 31
0.0
  0
LINE
  5
4D3A
  8
01
 10
528.82408550052992
 20
-54.071996229044892
 30
0.0
 11
532.68081115864527
 21
-58.668262887755979
 31
0.0
  0
ARC
  5
4D3B
  8
01
 10
533.06383338020373
 20
-58.34686908291394
 30
0.0
 40
0.5
 50
220.0000000000112
 51
309.99999999997362
  0
LINE
  5
4D3C
  8
01
 10
546.44310769226308
 20
-39.287881206252557
 30
0.0
 11
550.29983335038401
 21
-43.884147864967296
 31
0.0
  0
ARC
  5
4D3D
  8
01
 10
546.06008547070292
 20
-39.609275011095519
 30
0.0
 40
0.5
 50
40.000000000011141
 51
129.9999999999736
  0
LINE
  5
4D3E
  8
01
 10
593.64065770852199
 20
3.2527320058626401
 30
0.0
 11
590.89120449232189
 21
0.9456668262101857
 31
0.0
  0
LINE
  5
4D3F
  8
01
 10
584.30204822222561
 20
-4.5832917697943003
 30
0.0
 11
526.22874671405248
 21
-53.312577646553898
 31
0.0
  0
ARC
  5
4D40
  8
01
 10
593.96205151336665
 20
2.8697097843024721
 30
0.0
 40
0.5
 50
40.000000000011141
 51
129.9999999999736
  0
ARC
  5
4D41
  8
01
 10
592.41902600066192
 20
-4.6257269786327688
 30
0.0
 40
3.5
 50
309.99999999995788
 51
129.9999999999736
  0
LINE
  5
4D42
  8
01
 10
594.34507373492511
 20
3.1911035891454271
 30
0.0
 11
596.22921889453949
 21
0.9456668262097309
 31
0.0
  0
LINE
  5
4D43
  8
01
 10
598.80204822222572
 20
-2.120511768197388
 30
0.0
 11
600.45155602694854
 21
-4.0863186204868489
 31
0.0
  0
ARC
  5
4D44
  8
01
 10
600.06853380539019
 20
-4.4077124253298052
 30
0.0
 40
0.5
 50
309.99999999997362
 51
40.000000000011141
  0
LINE
  5
4D45
  8
01
 10
602.10300589464737
 20
-13.543734247831139
 30
0.0
 11
602.10300589465635
 21
-33.543734247831139
 31
0.0
  0
LINE
  5
4D46
  8
1PHANTOM
 10
599.10300589465101
 20
-19.043734247831139
 30
0.0
 11
599.10300589465271
 21
-28.043734247831139
 31
0.0
  0
LINE
  5
4D47
  8
01
 10
590.45553819741713
 20
-10.842214382831459
 30
0.0
 11
590.45553819742247
 21
-10.84221438283009
 31
0.0
  0
ARC
  5
4D48
  8
01
 10
583.88253201418968
 20
-17.0103250915671
 30
0.0
 40
0.5
 50
129.9999999999736
 51
220.0000000000307
  0
LINE
  5
4D49
  8
01
 10
593.60823999350418
 20
-13.54373424783387
 30
0.0
 11
602.10300589464737
 21
-13.54373424783387
 31
0.0
  0
ARC
  5
4D4A
  8
01
 10
593.60823999350418
 20
-13.04373424783387
 30
0.0
 40
0.5
 50
220.00000000007179
 51
270.0
  0
LINE
  5
4D4B
  8
01
 10
597.3361597237365
 20
-33.543734247833868
 30
0.0
 11
602.10300589465828
 21
-33.543734247833868
 31
0.0
  0
LINE
  5
4D4D
  8
1PHANTOM
 10
592.48795792318026
 20
-28.043734247833871
 30
0.0
 11
599.10300589465271
 21
-28.043734247833871
 31
0.0
  0
LINE
  5
4D4E
  8
1PHANTOM
 10
584.93606124258099
 20
-19.043734247832958
 30
0.0
 11
599.10300589465101
 21
-19.043734247833861
 31
0.0
  0
LINE
  5
4D4F
  8
1PHANTOM
 10
599.10300589465271
 20
-25.793734247831139
 30
0.0
 11
602.10300589465101
 21
-25.793734247831601
 31
0.0
  0
LINE
  5
4D50
  8
1PHANTOM
 10
599.10300589465271
 20
-21.293734247831139
 30
0.0
 11
602.10300589465101
 21
-21.293734247831591
 31
0.0
  0
LINE
  5
4D51
  8
01
 10
596.95313750217633
 20
-33.365128052677278
 30
0.0
 11
583.49950979262962
 21
-17.331718896410511
 31
0.0
  0
ARC
  5
4D52
  8
01
 10
597.3361597237365
 20
-33.043734247833868
 30
0.0
 40
0.5
 50
220.0000000000307
 51
270.0
  0
LINE
  5
4D53
  8
01
 10
593.22521777194584
 20
-13.365128052677729
 30
0.0
 11
591.15995422381843
 21
-10.90384279954821
 31
0.0
  0
ARC
  5
4D54
  8
01
 10
590.77693200226008
 20
-11.22523660439162
 30
0.0
 40
0.5
 50
40.000000000046377
 51
129.99999999994
  0
LINE
  5
4D55
  8
01
 10
511.30204822222942
 20
-9.3043331737934523
 30
0.0
 11
509.80204822222942
 21
-9.3043331737934523
 31
0.0
  0
LINE
  5
4D56
  8
01
 10
597.30204822222936
 20
-12.554333173789811
 30
0.0
 11
592.5448800881079
 21
-12.554333173789811
 31
0.0
  0
LINE
  5
4D57
  8
01
 10
509.80204822222572
 20
-0.5543331737952713
 30
0.0
 11
509.80204822222942
 21
-9.3043331737934523
 31
0.0
  0
LINE
  5
4D58
  8
01
 10
511.3020482222276
 20
-0.5543331737934523
 30
0.0
 11
511.30204822222942
 21
-9.3043331737934523
 31
0.0
  0
LINE
  5
4D59
  8
01
 10
598.80204822222754
 20
-0.5543331737898143
 30
0.0
 11
598.80204822222754
 21
-11.05433317379163
 31
0.0
  0
ARC
  5
4D5A
  8
01
 10
597.30204822222754
 20
-0.5543331737889048
 30
0.0
 40
1.5
 50
0.0
 51
90.0
  0
LINE
  5
4D5B
  8
01
 10
597.30204822222572
 20
-0.5543331737898143
 30
0.0
 11
597.30204822222754
 21
-11.054333173789811
 31
0.0
  0
LINE
  5
4D5C
  8
01
 10
597.30204822222208
 20
-0.5543331737879953
 30
0.0
 11
511.3020482222276
 21
-0.5543331737934523
 31
0.0
  0
LINE
  5
4D5D
  8
01
 10
597.30204822222572
 20
0.9456668262101857
 30
0.0
 11
511.30204822222578
 21
0.9456668262065477
 31
0.0
  0
ARC
  5
4D5E
  8
01
 10
511.3020482222276
 20
-0.5543331737961807
 30
0.0
 40
1.5
 50
90.0
 51
180.0
  0
LINE
  5
4D5F
  8
01
 10
597.30204822222754
 20
-11.054333173789811
 30
0.0
 11
591.28623064134285
 21
-11.05433317379209
 31
0.0
  0
LINE
  5
4D60
  8
01
 10
597.80204822222754
 20
-12.55433317379163
 30
0.0
 11
592.54488008810972
 21
-12.55433317379118
 31
0.0
  0
LINE
  5
4D61
  8
01
 10
596.30204822222572
 20
-11.054333173786169
 30
0.0
 11
591.28623064133922
 21
-11.054333173789811
 31
0.0
  0
LINE
  5
4D62
  8
01
 10
584.30204822222925
 20
-1.5543331737898141
 30
0.0
 11
584.30204822222754
 21
-6.8677545261342621
 31
0.0
  0
ARC
  5
4D63
  8
01
 10
592.80204822222572
 20
-4.3043331737898143
 30
0.0
 40
3.149999999999999
 50
351.26356590541548
 51
44.415308597151373
  0
LINE
  5
4D64
  8
01
 10
590.5520482222239
 20
-1.5543331737898141
 30
0.0
 11
590.5520482222239
 21
-1.665255061045513
 31
0.0
  0
LINE
  5
4D65
  8
01
 10
595.0520482222239
 20
-1.5543331737898141
 30
0.0
 11
595.0520482222239
 21
-2.0997924052879848
 31
0.0
  0
LINE
  5
4D66
  8
01
 10
598.80204822222572
 20
-5.0543331737861763
 30
0.0
 11
598.8020482222239
 21
-11.55433317379163
 31
0.0
  0
ARC
  5
4D67
  8
01
 10
597.80204822222379
 20
-11.554333173789811
 30
0.0
 40
1.0
 50
270.0
 51
0.0
  0
LINE
  5
4D68
  8
01
 10
597.30204822222208
 20
-1.5543331737879951
 30
0.0
 11
597.30204822222572
 21
-10.05433317378799
 31
0.0
  0
LINE
  5
4D69
  8
01
 10
596.3020482222239
 20
-0.5543331737861763
 30
0.0
 11
596.05204822222379
 21
-0.5543331737879953
 31
0.0
  0
ARC
  5
4D6A
  8
01
 10
596.30204822222197
 20
-1.5543331737861761
 30
0.0
 40
1.0
 50
0.0000000000260551
 51
90.0
  0
LINE
  5
4D6B
  8
01
 10
595.0520482222239
 20
-1.5543331737898141
 30
0.0
 11
596.05204822222379
 21
-0.5543331737879953
 31
0.0
  0
LINE
  5
4D6C
  8
01
 10
589.55204822222197
 20
-0.5543331737916333
 30
0.0
 11
585.30204822223106
 21
-0.5543331737916333
 31
0.0
  0
ARC
  5
4D6D
  8
01
 10
585.30204822222925
 20
-1.5543331737898141
 30
0.0
 40
1.0
 50
90.0
 51
179.99999999997391
  0
LINE
  5
4D6E
  8
01
 10
590.5520482222239
 20
-1.5543331737898141
 30
0.0
 11
589.55204822222197
 21
-0.5543331737916333
 31
0.0
  0
ARC
  5
4D6F
  8
01
 10
596.30204822222572
 20
-10.05433317378799
 30
0.0
 40
1.0
 50
270.0
 51
0.0000000000260551
  0
LINE
  5
4D70
  8
01
 10
595.95204822222354
 20
-4.3043331737898143
 30
0.0
 11
595.95204822222354
 21
-0.6543331737901781
 31
0.0
  0
LINE
  5
4D71
  8
01
 10
589.65204822222063
 20
-2.3785714993408642
 30
0.0
 11
589.65204822222415
 21
-0.6543331737919971
 31
0.0
  0
LINE
  5
4D72
  8
01
 10
598.80204822222572
 20
-3.5543331737898138
 30
0.0
 11
597.30204822222572
 21
-3.5543331737916328
 31
0.0
  0
LINE
  5
4D73
  8
01
 10
448.16690660665012
 20
139.42067250909841
 30
0.0
 11
326.16690660665199
 21
139.42067250909841
 31
0.0
  0
LINE
  5
4D74
  8
01
 10
310.16690660664108
 20
63.369709784302472
 30
0.0
 11
310.16690660664108
 21
137.88429776888719
 31
0.0
  0
LINE
  5
4D75
  8
01
 10
326.16690660665211
 20
63.369709784302472
 30
0.0
 11
326.16690660665199
 21
139.42067250909841
 31
0.0
  0
LINE
  5
4D77
  8
1DIM
 10
447.41690660664477
 20
131.32329599919171
 30
0.0
 11
326.91690660664841
 21
131.32329599919171
 31
0.0
  0
LINE
  5
4D78
  8
01
 10
448.16690660665017
 20
63.369709784302479
 30
0.0
 11
326.91690660664841
 21
63.369709784302501
 31
0.0
  0
LINE
  5
4D79
  8
01
 10
447.41690660664477
 20
63.369709784302479
 30
0.0
 11
447.41690660664477
 21
139.42067250909841
 31
0.0
  0
LINE
  5
4D7A
  8
01
 10
448.16690660665017
 20
63.369709784302479
 30
0.0
 11
448.16690660665017
 21
87.732575092320786
 31
0.0
  0
LINE
  5
4D7B
  8
01
 10
448.16690660665017
 20
83.377752085154015
 30
0.0
 11
447.41690660664477
 21
83.377752085154015
 31
0.0
  0
LINE
  5
4D7C
  8
01
 10
448.16690660665017
 20
87.732575092320786
 30
0.0
 11
447.41690660664477
 21
87.732575092320786
 31
0.0
  0
LINE
  5
4D7D
  8
01
 10
448.16690660665017
 20
116.2006853608262
 30
0.0
 11
448.16690660665012
 21
139.42067250909841
 31
0.0
  0
LINE
  5
4D7E
  8
01
 10
326.91690660664841
 20
63.369709784302472
 30
0.0
 11
326.91690660664841
 21
139.3139490897648
 31
0.0
  0
LINE
  5
4D7F
  8
01
 10
326.91690660664841
 20
64.369709784302486
 30
0.0
 11
326.16690660665211
 21
64.369709784302486
 31
0.0
  0
LINE
  5
4D80
  8
01
 10
326.16690660665211
 20
63.369709784302501
 30
0.0
 11
310.16690660664108
 21
63.369709784302479
 31
0.0
  0
ARC
  5
4D9D
  8
1PHANTOM
 10
597.40299658737786
 20
-23.129269467889461
 30
0.0
 40
0.3
 50
116.79725755520209
 51
180.0
  0
LINE
  5
4D9E
  8
1PHANTOM
 10
597.26774614233
 20
-22.861487248326629
 30
0.0
 11
598.66775546738745
 21
-22.15437575826979
 31
0.0
  0
ARC
  5
4D9F
  8
1PHANTOM
 10
598.26718783092065
 20
-21.415857307162131
 30
0.0
 40
0.8401570883203655
 50
298.47511817232743
 51
354.1744014381494
  0
LINE
  5
4DA1
  8
1PHANTOM
 10
598.10300589465191
 20
-24.043734097831361
 30
0.0
 11
599.10300589465191
 21
-23.043734397831368
 31
0.0
  0
LINE
  5
4DA2
  8
1PHANTOM
 10
598.10301473647235
 20
-19.743734247831409
 30
0.0
 11
598.10299705283114
 21
-27.343734247831321
 31
0.0
  0
LINE
  5
4DA3
  8
1PHANTOM
 10
599.10300589465191
 20
-19.743734247831409
 30
0.0
 11
599.10300589465191
 21
-27.343734247831321
 31
0.0
  0
LINE
  5
4DA4
  8
1PHANTOM
 10
598.10299705283114
 20
-27.343734247831321
 30
0.0
 11
599.10300589465191
 21
-27.343734247831321
 31
0.0
  0
LINE
  5
4DA5
  8
1PHANTOM
 10
598.10301473647235
 20
-19.743734247831409
 30
0.0
 11
599.10300589465191
 21
-19.743734247831409
 31
0.0
  0
ARC
  5
4DA9
  8
1PHANTOM
 10
425.03902966597929
 20
135.5848544453672
 30
0.0
 40
0.8401570883203655
 50
28.47511817232742
 51
84.174401438149417
  0
LINE
  5
4DAB
  8
1PHANTOM
 10
427.66690645664858
 20
135.42067250909841
 30
0.0
 11
426.66690675664859
 21
136.42067250909841
 31
0.0
  0
LINE
  5
4DAC
  8
1PHANTOM
 10
423.36690660664868
 20
135.42068135091901
 30
0.0
 11
430.96690660664859
 21
135.42066366727761
 31
0.0
  0
LINE
  5
4DAD
  8
1PHANTOM
 10
423.36690660664868
 20
136.42067250909841
 30
0.0
 11
430.96690660664859
 21
136.42067250909841
 31
0.0
  0
LINE
  5
4DAE
  8
1PHANTOM
 10
430.96690660664859
 20
135.42066366727761
 30
0.0
 11
430.96690660664859
 21
136.42067250909841
 31
0.0
  0
LINE
  5
4DAF
  8
1PHANTOM
 10
423.36690660664868
 20
135.42068135091901
 30
0.0
 11
423.36690660664868
 21
136.42067250909841
 31
0.0
  0
LINE
  5
4DB1
  8
1PHANTOM
 10
343.36690660664868
 20
135.4206813509189
 30
0.0
 11
350.96690660664859
 21
135.42066366727761
 31
0.0
  0
LINE
  5
4DB2
  8
1PHANTOM
 10
343.36690660664868
 20
136.42067250909841
 30
0.0
 11
350.96690660664859
 21
136.42067250909841
 31
0.0
  0
LINE
  5
4DB3
  8
1PHANTOM
 10
350.96690660664859
 20
135.42066366727761
 30
0.0
 11
350.96690660664859
 21
136.42067250909841
 31
0.0
  0
LINE
  5
4DB4
  8
1PHANTOM
 10
343.36690660664868
 20
135.4206813509189
 30
0.0
 11
343.36690660664868
 21
136.42067250909841
 31
0.0
  0
LINE
  5
4E41
  8
1CENTER
 10
350.16690660664841
 20
-23.543734247840231
 30
0.0
 11
344.16690660664841
 21
-23.543734247840231
 31
0.0
  0
LINE
  5
4E42
  8
1CENTER
 10
347.16690660664841
 20
-26.543734247840241
 30
0.0
 11
347.16690660664841
 21
-20.543734247840231
 31
0.0
  0
LINE
  5
4E43
  8
1CENTER
 10
430.16690660664841
 20
-23.543734247840231
 30
0.0
 11
424.1669066066483
 21
-23.543734247840231
 31
0.0
  0
LINE
  5
4E44
  8
1CENTER
 10
427.1669066066483
 20
-26.543734247840241
 30
0.0
 11
427.1669066066483
 21
-20.543734247840231
 31
0.0
  0
LINE
  5
5249
  8
1DIM
 10
326.16690660665211
 20
131.32329599919171
 30
0.0
 11
310.16690660664108
 21
131.32329599919171
 31
0.0
  0
LINE
  5
536D
  8
01
 10
326.91690660664841
 20
139.3139490897648
 30
0.0
 11
447.41690660664477
 21
139.3139490897648
 31
0.0
  0
LINE
  5
536E
  8
01
 10
326.16690660665199
 20
137.88429776888719
 30
0.0
 11
310.16690660664108
 21
137.88429776888719
 31
0.0
  0
LINE
  5
5379
  8
01
 10
326.16690660665211
 20
133.23669261510699
 30
0.0
 11
326.91690660664841
 21
133.23669261510699
 31
0.0
  0
LINE
  5
537B
  8
01
 10
326.16690660665211
 20
116.2006853608262
 30
0.0
 11
326.91690660664841
 21
116.2006853608262
 31
0.0
  0
LINE
  5
537D
  8
1HIDDEN
 10
344.91690660664841
 20
139.42067250909841
 30
0.0
 11
344.91690660664841
 21
136.42067250909841
 31
0.0
  0
LINE
  5
537F
  8
1HIDDEN
 10
349.41690660664841
 20
139.42067250909841
 30
0.0
 11
349.41690660664841
 21
136.42067250909841
 31
0.0
  0
LINE
  5
5380
  8
1HIDDEN
 10
424.91690660664841
 20
139.42067250909841
 30
0.0
 11
424.91690660664841
 21
136.42067250909841
 31
0.0
  0
LINE
  5
5381
  8
1HIDDEN
 10
429.4169066066483
 20
139.42067250909841
 30
0.0
 11
429.4169066066483
 21
136.42067250909841
 31
0.0
  0
LINE
  5
5446
  8
1CENTER
 10
592.80204822222572
 20
-0.6129793845219638
 30
0.0
 11
592.80204822222572
 21
-7.9956869630576639
 31
0.0
  0
LINE
  5
5449
  8
1CENTER
 10
596.49340201149346
 20
-4.3043331737898143
 30
0.0
 11
589.11069443295776
 21
-4.3043331737898143
 31
0.0
  0
LINE
  5
544A
  8
01
 10
447.41690660664477
 20
116.2006853608262
 30
0.0
 11
448.16690660665017
 21
116.2006853608262
 31
0.0
  0
LINE
  5
545E
  8
01
 10
447.41690660664477
 20
133.2366926151075
 30
0.0
 11
448.16690660665017
 21
133.23669261510759
 31
0.0
  0
TEXT
  5
54CD
  8
1TEXT
 10
559.48967256132016
 20
133.13948343313189
 30
0.0
 40
4.0
  1
表面処理：本体
 41
0.8
 72
     1
 11
572.50300589465348
 21
133.13948343313189
 31
0.0
  0
TEXT
  5
54CE
  8
1TEXT
 10
556.10300589465362
 20
126.1615884131476
 30
0.0
 40
4.0
  1
クロームメッキ
 72
     1
 11
572.50300589465348
 21
126.1615884131476
 31
0.0
  0
LINE
  5
54CF
  8
1DIM
 10
555.10300589465385
 20
117.639483433132
 30
0.0
 11
555.10300589465351
 21
138.63948343313189
 31
0.0
  0
TEXT
  5
54D0
  8
1TEXT
 10
596.03633922798713
 20
119.1615884131476
 30
0.0
 40
4.0
  1
ヘアライン
 72
     1
 11
607.50300589465382
 21
119.1615884131476
 31
0.0
  0
LINE
  5
54D1
  8
1DIM
 10
555.10300589465396
 20
117.6394834331319
 30
0.0
 11
660.10300589465373
 21
117.6394834331319
 31
0.0
  0
TEXT
  5
54D2
  8
1TEXT
 10
629.83633922798765
 20
118.9251264494826
 30
0.0
 40
4.0
  1
SC313CT
 72
     1
 11
642.50300589465428
 21
118.9251264494826
 31
0.0
  0
TEXT
  5
54D3
  8
1TEXT
 10
556.10300589465385
 20
119.1615884131476
 30
0.0
 40
4.0
  1
クロームメッキ
 72
     1
 11
572.50300589465382
 21
119.1615884131476
 31
0.0
  0
TEXT
  5
5500
  8
1DIM
 10
414.69802748386383
 20
57.337792039026979
 30
0.0
 40
3.5
  1
材質：ステンレス
  0
TEXT
  5
5501
  8
1DIM
 10
414.69802748386383
 20
51.504458705693636
 30
0.0
 40
3.5
  1
仕上：各種仕上
  0
TEXT
  5
5502
  8
1DIM
 10
413.99802748386372
 20
45.671125372360301
 30
0.0
 40
3.5
  1
※ヘアライン方向：横目
  0
LINE
  5
5505
  8
1DIM
 10
526.05204316985134
 20
-53.652021996740167
 30
0.0
 11
526.05204316985134
 21
-82.473022077744545
 31
0.0
  0
LINE
  5
5506
  8
1DIM
 10
602.10300589465339
 20
-68.509778117654832
 30
0.0
 11
602.10300589465339
 21
-82.473022077744545
 31
0.0
  0
LINE
  5
5507
  8
1DIM
 10
528.05204316985134
 20
-81.473022077744545
 30
0.0
 11
600.10300589465328
 21
-81.473022077744545
 31
0.0
  0
LINE
  5
550B
  8
1DIM
 10
532.65662281091886
 20
-61.473022077744531
 30
0.0
 11
468.81220279155428
 21
-61.47302207774451
 31
0.0
  0
LINE
  5
550C
  8
1DIM
 10
593.96205151336665
 20
3.3697097843024721
 30
0.0
 11
468.81220279155428
 21
3.3697097843025068
 31
0.0
  0
LINE
  5
550D
  8
1DIM
 10
469.81220279155428
 20
-59.47302207774451
 30
0.0
 11
469.81220279155428
 21
1.369709784302507
 31
0.0
  0
LINE
  5
5511
  8
1DIM
 10
448.16690660665012
 20
139.42067250909841
 30
0.0
 11
471.60061270383289
 21
139.42067250909841
 31
0.0
  0
LINE
  5
5512
  8
1DIM
 10
448.16690660665017
 20
63.369709784302479
 30
0.0
 11
471.60061270383289
 21
63.369709784302472
 31
0.0
  0
LINE
  5
5513
  8
1DIM
 10
470.60061270383289
 20
137.42067250909841
 30
0.0
 11
470.60061270383278
 21
65.369709784302486
 31
0.0
  0
LINE
  5
5517
  8
1DIM
 10
326.16690660665199
 20
139.42067250909841
 30
0.0
 11
326.16690660665199
 21
150.5482849650422
 31
0.0
  0
LINE
  5
5518
  8
1DIM
 10
448.16690660665012
 20
139.42067250909841
 30
0.0
 11
448.16690660665012
 21
150.5482849650422
 31
0.0
  0
LINE
  5
5519
  8
1DIM
 10
328.16690660665199
 20
149.5482849650422
 30
0.0
 11
446.16690660665017
 21
149.5482849650422
 31
0.0
  0
LINE
  5
551D
  8
1DIM
 10
448.16690660665017
 20
-1.1257269786304951
 30
0.0
 11
448.16690660665017
 21
34.369709784302479
 31
0.0
  0
LINE
  5
551E
  8
1DIM
 10
310.16690660664108
 20
3.5741258107060498
 30
0.0
 11
310.16690660664108
 21
34.369709784302479
 31
0.0
  0
LINE
  5
551F
  8
1DIM
 10
446.16690660665017
 20
33.369709784302479
 30
0.0
 11
312.16690660664108
 21
33.369709784302479
 31
0.0
  0
LINE
  5
5523
  8
1DIM
 10
347.16690660664841
 20
-26.543734247840241
 30
0.0
 11
347.16690660664841
 21
-82.473022077744545
 31
0.0
  0
LINE
  5
5524
  8
1DIM
 10
427.1669066066483
 20
-26.543734247840241
 30
0.0
 11
427.1669066066483
 21
-82.473022077744545
 31
0.0
  0
LINE
  5
5525
  8
1DIM
 10
349.16690660664841
 20
-81.473022077744545
 30
0.0
 11
425.1669066066483
 21
-81.473022077744545
 31
0.0
  0
LINE
  5
5529
  8
1DIM
 10
602.10300589465828
 20
-33.543734247833868
 30
0.0
 11
661.10300589465351
 21
-33.543734247833889
 31
0.0
  0
LINE
  5
552A
  8
1DIM
 10
593.96205151336665
 20
3.3697097843024721
 30
0.0
 11
661.10300589465351
 21
3.369709784302453
 31
0.0
  0
LINE
  5
552B
  8
1DIM
 10
660.10300589465351
 20
-31.543734247833878
 30
0.0
 11
660.10300589465351
 21
1.369709784302453
 31
0.0
  0
LINE
  5
552F
  8
1DIM
 10
602.10300589465339
 20
-13.54373424783387
 30
0.0
 11
651.10300589465328
 21
-13.54373424783388
 31
0.0
  0
LINE
  5
5530
  8
1DIM
 10
602.10300589465828
 20
-33.543734247833868
 30
0.0
 11
651.10300589465328
 21
-33.543734247833882
 31
0.0
  0
LINE
  5
5531
  8
1DIM
 10
650.10300589465328
 20
-15.54373424783388
 30
0.0
 11
650.10300589465328
 21
-31.543734247833878
 31
0.0
  0
LINE
  5
5535
  8
1DIM
 10
631.06392048579801
 20
-23.543734247831139
 30
0.0
 11
641.10300589465339
 21
-23.54373424783115
 31
0.0
  0
LINE
  5
5536
  8
1DIM
 10
602.10300589465339
 20
-13.54373424783387
 30
0.0
 11
641.10300589465339
 21
-13.54373424783388
 31
0.0
  0
LINE
  5
5537
  8
1DIM
 10
640.10300589465339
 20
-21.543734247831139
 30
0.0
 11
640.10300589465339
 21
-15.54373424783388
 31
0.0
  0
LINE
  5
553C
  8
1CENTER
 10
347.16690660664841
 20
168.38158710024439
 30
0.0
 11
347.16690660664841
 21
131.75039609978961
 31
0.0
  0
LINE
  5
553D
  8
0
 10
346.07258279265341
 20
163.32067505525819
 30
0.0
 11
348.03491788152883
 21
164.12067048930919
 31
0.0
  0
LINE
  5
553E
  8
0
 10
348.03491788152883
 20
164.12067048930919
 30
0.0
 11
347.44664130648641
 21
164.4324403455613
 31
0.0
  0
LINE
  5
553F
  8
0
 10
345.16695314254628
 20
140.92067716246819
 30
0.0
 11
349.16695314254628
 21
141.72066785528639
 31
0.0
  0
LINE
  5
5540
  8
0
 10
345.16695314254628
 20
152.12067716247259
 30
0.0
 11
349.16695314254628
 21
152.92066785529511
 31
0.0
  0
LINE
  5
5541
  8
0
 10
345.16695314254628
 20
155.32067716247261
 30
0.0
 11
349.16695314254628
 21
156.12066785529521
 31
0.0
  0
LINE
  5
5542
  8
0
 10
349.16695314254628
 20
156.12066785529521
 30
0.0
 11
348.66695314254628
 21
156.2206690186924
 31
0.0
  0
LINE
  5
5543
  8
0
 10
345.66695314254628
 20
156.82067599907541
 30
0.0
 11
345.16695314254628
 21
156.9206771624726
 31
0.0
  0
LINE
  5
5544
  8
0
 10
349.16695314254628
 20
152.92066785529511
 30
0.0
 11
348.66695314254628
 21
153.02066901869239
 31
0.0
  0
LINE
  5
5545
  8
0
 10
349.16695314254628
 20
154.5206678552953
 30
0.0
 11
348.66695314254628
 21
154.62066901869241
 31
0.0
  0
LINE
  5
5546
  8
0
 10
345.66695314254628
 20
155.2206759990755
 30
0.0
 11
345.16695314254628
 21
155.32067716247261
 31
0.0
  0
LINE
  5
5547
  8
0
 10
345.66695314254628
 20
153.62067599907559
 30
0.0
 11
345.16695314254628
 21
153.7206771624727
 31
0.0
  0
LINE
  5
5548
  8
0
 10
345.16695314254628
 20
153.7206771624727
 30
0.0
 11
349.16695314254628
 21
154.5206678552953
 31
0.0
  0
LINE
  5
5549
  8
0
 10
348.48773198593562
 20
162.5206694357035
 30
0.0
 11
347.93598252213229
 21
162.7034335783315
 31
0.0
  0
LINE
  5
554A
  8
0
 10
349.16695314254628
 20
159.3206678552952
 30
0.0
 11
348.66695314254628
 21
159.42066901869231
 31
0.0
  0
LINE
  5
554B
  8
0
 10
349.16695314254628
 20
157.7206678552952
 30
0.0
 11
348.66695314254628
 21
157.8206690186922
 31
0.0
  0
LINE
  5
554C
  8
0
 10
348.94054609034231
 20
160.92066838209789
 30
0.0
 11
348.40395235507123
 21
161.04993907972769
 31
0.0
  0
LINE
  5
554D
  8
0
 10
346.0878677397551
 20
161.60790659651241
 30
0.0
 11
345.61976928460513
 21
161.72067610886239
 31
0.0
  0
LINE
  5
554E
  8
0
 10
345.66695314254628
 20
158.42067599907551
 30
0.0
 11
345.16695314254628
 21
158.52067716247271
 31
0.0
  0
LINE
  5
554F
  8
0
 10
345.66695314254628
 20
160.02067599907539
 30
0.0
 11
345.16695314254628
 21
160.12067716247259
 31
0.0
  0
LINE
  5
5550
  8
0
 10
346.52975463328443
 20
163.16923925881781
 30
0.0
 11
346.07258279265341
 21
163.32067505525819
 31
0.0
  0
LINE
  5
5551
  8
0
 10
345.61976928460513
 20
161.72067610886239
 30
0.0
 11
348.48773198593562
 21
162.5206694357035
 31
0.0
  0
LINE
  5
5552
  8
0
 10
345.16695314254628
 20
158.52067716247271
 30
0.0
 11
349.16695314254628
 21
159.3206678552952
 31
0.0
  0
LINE
  5
5553
  8
0
 10
345.16695314254628
 20
160.12067716247259
 30
0.0
 11
348.94054609034231
 21
160.92066838209789
 31
0.0
  0
LINE
  5
5554
  8
0
 10
345.16695314254628
 20
156.9206771624726
 30
0.0
 11
349.16695314254628
 21
157.7206678552952
 31
0.0
  0
LINE
  5
5555
  8
0
 10
345.16695314254628
 20
144.1206771624683
 30
0.0
 11
349.16695314254628
 21
144.9206678552865
 31
0.0
  0
LINE
  5
5556
  8
0
 10
349.16695314254628
 20
144.9206678552865
 30
0.0
 11
348.66695314254628
 21
145.0206690186842
 31
0.0
  0
LINE
  5
5557
  8
0
 10
345.66695314254628
 20
145.6206759990749
 30
0.0
 11
345.16695314254628
 21
145.72067716247261
 31
0.0
  0
LINE
  5
5558
  8
0
 10
349.16695314254628
 20
143.32066785528639
 30
0.0
 11
348.66695314254628
 21
143.42066901868401
 31
0.0
  0
LINE
  5
5559
  8
0
 10
349.16695314254628
 20
141.72066785528639
 30
0.0
 11
348.66695314254628
 21
141.8206690186841
 31
0.0
  0
LINE
  5
555A
  8
0
 10
345.66695314254628
 20
144.02067599907059
 30
0.0
 11
345.16695314254628
 21
144.1206771624683
 31
0.0
  0
LINE
  5
555B
  8
0
 10
345.66695314254628
 20
142.4206759990704
 30
0.0
 11
345.16695314254628
 21
142.5206771624681
 31
0.0
  0
LINE
  5
555C
  8
0
 10
345.16695314254628
 20
142.5206771624681
 30
0.0
 11
349.16695314254628
 21
143.32066785528639
 31
0.0
  0
LINE
  5
555D
  8
0
 10
349.16695314254628
 20
149.72066785529091
 30
0.0
 11
348.66695314254628
 21
149.82066901868859
 31
0.0
  0
LINE
  5
555E
  8
0
 10
349.16695314254628
 20
151.3206678552952
 30
0.0
 11
348.66695314254628
 21
151.42066901869239
 31
0.0
  0
LINE
  5
555F
  8
0
 10
349.16695314254628
 20
146.5206678552909
 30
0.0
 11
348.66695314254628
 21
146.62066901868849
 31
0.0
  0
LINE
  5
5560
  8
0
 10
349.16695314254628
 20
148.1206678552908
 30
0.0
 11
348.66695314254628
 21
148.2206690186884
 31
0.0
  0
LINE
  5
5561
  8
0
 10
345.66695314254628
 20
152.02067599907539
 30
0.0
 11
345.16695314254628
 21
152.12067716247259
 31
0.0
  0
LINE
  5
5562
  8
0
 10
345.66695314254628
 20
150.42067599907489
 30
0.0
 11
345.16695314254628
 21
150.52067716247271
 31
0.0
  0
LINE
  5
5563
  8
0
 10
345.66695314254628
 20
147.22067599907481
 30
0.0
 11
345.16695314254628
 21
147.32067716247249
 31
0.0
  0
LINE
  5
5564
  8
0
 10
345.66695314254628
 20
148.82067599907501
 30
0.0
 11
345.16695314254628
 21
148.9206771624726
 31
0.0
  0
LINE
  5
5565
  8
0
 10
345.16695314254628
 20
148.9206771624726
 30
0.0
 11
349.16695314254628
 21
149.72066785529091
 31
0.0
  0
LINE
  5
5566
  8
0
 10
345.16695314254628
 20
150.52067716247271
 30
0.0
 11
349.16695314254628
 21
151.3206678552952
 31
0.0
  0
LINE
  5
5567
  8
0
 10
345.16695314254628
 20
147.32067716247249
 30
0.0
 11
349.16695314254628
 21
148.1206678552908
 31
0.0
  0
LINE
  5
5568
  8
0
 10
345.16695314254628
 20
145.72067716247261
 30
0.0
 11
349.16695314254628
 21
146.5206678552909
 31
0.0
  0
LINE
  5
5569
  8
0
 10
348.66695314254628
 20
135.42066901879781
 30
0.0
 11
345.66695314254662
 21
135.42067599918249
 31
0.0
  0
LINE
  5
556A
  8
0
 10
345.66695314254628
 20
136.0206759990663
 30
0.0
 11
345.16695314254628
 21
136.12067716246401
 31
0.0
  0
LINE
  5
556B
  8
0
 10
345.16695314254628
 20
136.12067716246401
 30
0.0
 11
349.16695314254628
 21
136.92066785528229
 31
0.0
  0
LINE
  5
556C
  8
0
 10
349.16695314254628
 20
136.92066785528229
 30
0.0
 11
348.66695314254628
 21
137.02066901868
 31
0.0
  0
LINE
  5
556D
  8
0
 10
345.66695314254628
 20
137.62067599906629
 30
0.0
 11
345.16695314254628
 21
137.72067716246389
 31
0.0
  0
LINE
  5
556E
  8
0
 10
345.66695314254628
 20
139.2206759990662
 30
0.0
 11
345.16695314254628
 21
139.32067716246391
 31
0.0
  0
LINE
  5
556F
  8
0
 10
345.16695314254628
 20
139.32067716246391
 30
0.0
 11
349.16695314254628
 21
140.12066785528211
 31
0.0
  0
LINE
  5
5570
  8
0
 10
349.16695314254628
 20
138.5206678552822
 30
0.0
 11
348.66695314254628
 21
138.62066901867991
 31
0.0
  0
LINE
  5
5571
  8
0
 10
349.16695314254628
 20
140.12066785528211
 30
0.0
 11
348.66695314254628
 21
140.22066901867981
 31
0.0
  0
LINE
  5
5572
  8
0
 10
345.16695314254628
 20
137.72067716246389
 30
0.0
 11
349.16695314254628
 21
138.5206678552822
 31
0.0
  0
LINE
  5
5573
  8
0
 10
345.66695314254628
 20
140.82067599907049
 30
0.0
 11
345.16695314254628
 21
140.92067716246819
 31
0.0
  0
LINE
  5
5575
  8
1CENTER
 10
427.1669066066483
 20
168.3815871002445
 30
0.0
 11
427.1669066066483
 21
131.75039609978961
 31
0.0
  0
LINE
  5
5576
  8
0
 10
426.07258279265329
 20
163.32067505525819
 30
0.0
 11
428.03491788152883
 21
164.12067048930919
 31
0.0
  0
LINE
  5
5577
  8
0
 10
428.03491788152883
 20
164.12067048930919
 30
0.0
 11
427.4466413064863
 21
164.4324403455613
 31
0.0
  0
LINE
  5
5578
  8
0
 10
425.16695314254628
 20
140.92067716246819
 30
0.0
 11
429.16695314254628
 21
141.72066785528651
 31
0.0
  0
LINE
  5
5579
  8
0
 10
425.16695314254628
 20
152.12067716247259
 30
0.0
 11
429.16695314254628
 21
152.92066785529519
 31
0.0
  0
LINE
  5
557A
  8
0
 10
425.16695314254628
 20
155.32067716247261
 30
0.0
 11
429.16695314254628
 21
156.12066785529521
 31
0.0
  0
LINE
  5
557B
  8
0
 10
429.16695314254628
 20
156.12066785529521
 30
0.0
 11
428.66695314254628
 21
156.2206690186924
 31
0.0
  0
LINE
  5
557C
  8
0
 10
425.66695314254628
 20
156.82067599907541
 30
0.0
 11
425.16695314254628
 21
156.92067716247271
 31
0.0
  0
LINE
  5
557D
  8
0
 10
429.16695314254628
 20
152.92066785529519
 30
0.0
 11
428.66695314254628
 21
153.02066901869239
 31
0.0
  0
LINE
  5
557E
  8
0
 10
429.16695314254628
 20
154.5206678552953
 30
0.0
 11
428.66695314254628
 21
154.62066901869241
 31
0.0
  0
LINE
  5
557F
  8
0
 10
425.66695314254628
 20
155.2206759990755
 30
0.0
 11
425.16695314254628
 21
155.32067716247261
 31
0.0
  0
LINE
  5
5580
  8
0
 10
425.66695314254628
 20
153.62067599907559
 30
0.0
 11
425.16695314254628
 21
153.7206771624727
 31
0.0
  0
LINE
  5
5581
  8
0
 10
425.16695314254628
 20
153.7206771624727
 30
0.0
 11
429.16695314254628
 21
154.5206678552953
 31
0.0
  0
LINE
  5
5582
  8
0
 10
428.48773198593551
 20
162.52066943570361
 30
0.0
 11
427.93598252213218
 21
162.70343357833161
 31
0.0
  0
LINE
  5
5583
  8
0
 10
429.16695314254628
 20
159.32066785529531
 30
0.0
 11
428.66695314254628
 21
159.42066901869239
 31
0.0
  0
LINE
  5
5584
  8
0
 10
429.16695314254628
 20
157.7206678552952
 30
0.0
 11
428.66695314254628
 21
157.8206690186922
 31
0.0
  0
LINE
  5
5585
  8
0
 10
428.94054609034231
 20
160.92066838209789
 30
0.0
 11
428.40395235507123
 21
161.04993907972781
 31
0.0
  0
LINE
  5
5586
  8
0
 10
426.08786773975498
 20
161.60790659651241
 30
0.0
 11
425.61976928460501
 21
161.72067610886239
 31
0.0
  0
LINE
  5
5587
  8
0
 10
425.66695314254628
 20
158.4206759990756
 30
0.0
 11
425.16695314254628
 21
158.52067716247271
 31
0.0
  0
LINE
  5
5588
  8
0
 10
425.66695314254628
 20
160.02067599907551
 30
0.0
 11
425.16695314254628
 21
160.12067716247259
 31
0.0
  0
LINE
  5
5589
  8
0
 10
426.52975463328443
 20
163.16923925881781
 30
0.0
 11
426.07258279265329
 21
163.32067505525819
 31
0.0
  0
LINE
  5
558A
  8
0
 10
425.61976928460501
 20
161.72067610886239
 30
0.0
 11
428.48773198593551
 21
162.52066943570361
 31
0.0
  0
LINE
  5
558B
  8
0
 10
425.16695314254628
 20
158.52067716247271
 30
0.0
 11
429.16695314254628
 21
159.32066785529531
 31
0.0
  0
LINE
  5
558C
  8
0
 10
425.16695314254628
 20
160.12067716247259
 30
0.0
 11
428.94054609034231
 21
160.92066838209789
 31
0.0
  0
LINE
  5
558D
  8
0
 10
425.16695314254628
 20
156.92067716247271
 30
0.0
 11
429.16695314254628
 21
157.7206678552952
 31
0.0
  0
LINE
  5
558E
  8
0
 10
425.16695314254628
 20
144.1206771624683
 30
0.0
 11
429.16695314254628
 21
144.9206678552865
 31
0.0
  0
LINE
  5
558F
  8
0
 10
429.16695314254628
 20
144.9206678552865
 30
0.0
 11
428.66695314254628
 21
145.0206690186842
 31
0.0
  0
LINE
  5
5590
  8
0
 10
425.66695314254628
 20
145.6206759990749
 30
0.0
 11
425.16695314254628
 21
145.72067716247261
 31
0.0
  0
LINE
  5
5591
  8
0
 10
429.16695314254628
 20
143.32066785528639
 30
0.0
 11
428.66695314254628
 21
143.42066901868409
 31
0.0
  0
LINE
  5
5592
  8
0
 10
429.16695314254628
 20
141.72066785528651
 30
0.0
 11
428.66695314254628
 21
141.82066901868421
 31
0.0
  0
LINE
  5
5593
  8
0
 10
425.66695314254628
 20
144.02067599907059
 30
0.0
 11
425.16695314254628
 21
144.1206771624683
 31
0.0
  0
LINE
  5
5594
  8
0
 10
425.66695314254628
 20
142.42067599907051
 30
0.0
 11
425.16695314254628
 21
142.5206771624681
 31
0.0
  0
LINE
  5
5595
  8
0
 10
425.16695314254628
 20
142.5206771624681
 30
0.0
 11
429.16695314254628
 21
143.32066785528639
 31
0.0
  0
LINE
  5
5596
  8
0
 10
429.16695314254628
 20
149.72066785529091
 30
0.0
 11
428.66695314254628
 21
149.82066901868859
 31
0.0
  0
LINE
  5
5597
  8
0
 10
429.16695314254628
 20
151.3206678552952
 30
0.0
 11
428.66695314254628
 21
151.42066901869239
 31
0.0
  0
LINE
  5
5598
  8
0
 10
429.16695314254628
 20
146.5206678552909
 30
0.0
 11
428.66695314254628
 21
146.62066901868849
 31
0.0
  0
LINE
  5
5599
  8
0
 10
429.16695314254628
 20
148.1206678552908
 30
0.0
 11
428.66695314254628
 21
148.22066901868851
 31
0.0
  0
LINE
  5
559A
  8
0
 10
425.66695314254628
 20
152.02067599907551
 30
0.0
 11
425.16695314254628
 21
152.12067716247259
 31
0.0
  0
LINE
  5
559B
  8
0
 10
425.66695314254628
 20
150.42067599907489
 30
0.0
 11
425.16695314254628
 21
150.52067716247271
 31
0.0
  0
LINE
  5
559C
  8
0
 10
425.66695314254628
 20
147.22067599907481
 30
0.0
 11
425.16695314254628
 21
147.32067716247249
 31
0.0
  0
LINE
  5
559D
  8
0
 10
425.66695314254628
 20
148.82067599907501
 30
0.0
 11
425.16695314254628
 21
148.92067716247271
 31
0.0
  0
LINE
  5
559E
  8
0
 10
425.16695314254628
 20
148.92067716247271
 30
0.0
 11
429.16695314254628
 21
149.72066785529091
 31
0.0
  0
LINE
  5
559F
  8
0
 10
425.16695314254628
 20
150.52067716247271
 30
0.0
 11
429.16695314254628
 21
151.3206678552952
 31
0.0
  0
LINE
  5
55A0
  8
0
 10
425.16695314254628
 20
147.32067716247249
 30
0.0
 11
429.16695314254628
 21
148.1206678552908
 31
0.0
  0
LINE
  5
55A1
  8
0
 10
425.16695314254628
 20
145.72067716247261
 30
0.0
 11
429.16695314254628
 21
146.5206678552909
 31
0.0
  0
LINE
  5
55A2
  8
0
 10
428.66695314254628
 20
135.42066901879781
 30
0.0
 11
425.6669531425465
 21
135.42067599918249
 31
0.0
  0
LINE
  5
55A3
  8
0
 10
425.66695314254628
 20
136.02067599906641
 30
0.0
 11
425.16695314254628
 21
136.12067716246409
 31
0.0
  0
LINE
  5
55A4
  8
0
 10
425.16695314254628
 20
136.12067716246409
 30
0.0
 11
429.16695314254628
 21
136.92066785528229
 31
0.0
  0
LINE
  5
55A5
  8
0
 10
429.16695314254628
 20
136.92066785528229
 30
0.0
 11
428.66695314254628
 21
137.02066901868
 31
0.0
  0
LINE
  5
55A6
  8
0
 10
425.66695314254628
 20
137.62067599906629
 30
0.0
 11
425.16695314254628
 21
137.720677162464
 31
0.0
  0
LINE
  5
55A7
  8
0
 10
425.66695314254628
 20
139.2206759990662
 30
0.0
 11
425.16695314254628
 21
139.32067716246391
 31
0.0
  0
LINE
  5
55A8
  8
0
 10
425.16695314254628
 20
139.32067716246391
 30
0.0
 11
429.16695314254628
 21
140.12066785528211
 31
0.0
  0
LINE
  5
55A9
  8
0
 10
429.16695314254628
 20
138.5206678552822
 30
0.0
 11
428.66695314254628
 21
138.62066901867991
 31
0.0
  0
LINE
  5
55AA
  8
0
 10
429.16695314254628
 20
140.12066785528211
 30
0.0
 11
428.66695314254628
 21
140.22066901867981
 31
0.0
  0
LINE
  5
55AB
  8
0
 10
425.16695314254628
 20
137.720677162464
 30
0.0
 11
429.16695314254628
 21
138.5206678552822
 31
0.0
  0
LINE
  5
55AC
  8
0
 10
425.66695314254628
 20
140.82067599907049
 30
0.0
 11
425.16695314254628
 21
140.92067716246819
 31
0.0
  0
LINE
  5
55AE
  8
1CENTER
 10
631.06392048579801
 20
-23.543734247831139
 30
0.0
 11
594.43272948534297
 21
-23.543734247831139
 31
0.0
  0
LINE
  5
55AF
  8
0
 10
626.00300844081175
 20
-22.449410433836078
 30
0.0
 11
626.80300387486261
 21
-24.411745522711499
 31
0.0
  0
LINE
  5
55B0
  8
0
 10
626.80300387486261
 20
-24.411745522711499
 30
0.0
 11
627.11477373111484
 21
-23.823468947669092
 31
0.0
  0
LINE
  5
55B1
  8
0
 10
603.60301054802164
 20
-21.543780783729058
 30
0.0
 11
604.4030012408399
 21
-25.543780783729058
 31
0.0
  0
LINE
  5
55B2
  8
0
 10
614.80301054802612
 20
-21.543780783729069
 30
0.0
 11
615.6030012408487
 21
-25.543780783729069
 31
0.0
  0
LINE
  5
55B3
  8
0
 10
618.00301054802617
 20
-21.543780783729069
 30
0.0
 11
618.80300124084874
 21
-25.543780783729069
 31
0.0
  0
LINE
  5
55B4
  8
0
 10
618.80300124084874
 20
-25.543780783729069
 30
0.0
 11
618.90300240424585
 21
-25.043780783729069
 31
0.0
  0
LINE
  5
55B5
  8
0
 10
619.50300938462885
 20
-22.043780783729069
 30
0.0
 11
619.60301054802619
 21
-21.543780783729069
 31
0.0
  0
LINE
  5
55B6
  8
0
 10
615.6030012408487
 20
-25.543780783729069
 30
0.0
 11
615.70300240424592
 21
-25.043780783729069
 31
0.0
  0
LINE
  5
55B7
  8
0
 10
617.20300124084883
 20
-25.543780783729069
 30
0.0
 11
617.30300240424594
 21
-25.043780783729069
 31
0.0
  0
LINE
  5
55B8
  8
0
 10
617.90300938462894
 20
-22.043780783729069
 30
0.0
 11
618.00301054802617
 21
-21.543780783729069
 31
0.0
  0
LINE
  5
55B9
  8
0
 10
616.30300938462915
 20
-22.043780783729069
 30
0.0
 11
616.40301054802626
 21
-21.543780783729069
 31
0.0
  0
LINE
  5
55BA
  8
0
 10
616.40301054802626
 20
-21.543780783729069
 30
0.0
 11
617.20300124084883
 21
-25.543780783729069
 31
0.0
  0
LINE
  5
55BB
  8
0
 10
625.20300282125709
 20
-24.8645596271183
 30
0.0
 11
625.38576696388509
 21
-24.312810163315032
 31
0.0
  0
LINE
  5
55BC
  8
0
 10
622.00300124084868
 20
-25.543780783729069
 30
0.0
 11
622.1030024042459
 21
-25.043780783729069
 31
0.0
  0
LINE
  5
55BD
  8
0
 10
620.40300124084865
 20
-25.543780783729069
 30
0.0
 11
620.50300240424565
 21
-25.043780783729069
 31
0.0
  0
LINE
  5
55BE
  8
0
 10
623.60300176765145
 20
-25.317373731525102
 30
0.0
 11
623.73227246528131
 21
-24.780779996253958
 31
0.0
  0
LINE
  5
55BF
  8
0
 10
624.29023998206594
 20
-22.464695380937769
 30
0.0
 11
624.40300949441587
 21
-21.996596925787799
 31
0.0
  0
LINE
  5
55C0
  8
0
 10
621.10300938462899
 20
-22.043780783729069
 30
0.0
 11
621.20301054802621
 21
-21.543780783729069
 31
0.0
  0
LINE
  5
55C1
  8
0
 10
622.7030093846289
 20
-22.043780783729069
 30
0.0
 11
622.80301054802612
 21
-21.543780783729069
 31
0.0
  0
LINE
  5
55C2
  8
0
 10
625.85157264437134
 20
-22.906582274467159
 30
0.0
 11
626.00300844081175
 21
-22.449410433836078
 31
0.0
  0
LINE
  5
55C3
  8
0
 10
624.40300949441587
 20
-21.996596925787799
 30
0.0
 11
625.20300282125709
 21
-24.8645596271183
 31
0.0
  0
LINE
  5
55C4
  8
0
 10
621.20301054802621
 20
-21.543780783729069
 30
0.0
 11
622.00300124084868
 21
-25.543780783729069
 31
0.0
  0
LINE
  5
55C5
  8
0
 10
622.80301054802612
 20
-21.543780783729069
 30
0.0
 11
623.60300176765145
 21
-25.317373731525102
 31
0.0
  0
LINE
  5
55C6
  8
0
 10
619.60301054802619
 20
-21.543780783729069
 30
0.0
 11
620.40300124084865
 21
-25.543780783729069
 31
0.0
  0
LINE
  5
55C7
  8
0
 10
606.8030105480218
 20
-21.543780783729058
 30
0.0
 11
607.60300124083994
 21
-25.543780783729058
 31
0.0
  0
LINE
  5
55C8
  8
0
 10
607.60300124083994
 20
-25.543780783729058
 30
0.0
 11
607.70300240423774
 21
-25.043780783729058
 31
0.0
  0
LINE
  5
55C9
  8
0
 10
608.30300938462835
 20
-22.043780783729058
 30
0.0
 11
608.40301054802615
 21
-21.543780783729058
 31
0.0
  0
LINE
  5
55CA
  8
0
 10
606.00300124083992
 20
-25.543780783729058
 30
0.0
 11
606.10300240423749
 21
-25.043780783729058
 31
0.0
  0
LINE
  5
55CB
  8
0
 10
604.4030012408399
 20
-25.543780783729058
 30
0.0
 11
604.50300240423758
 21
-25.043780783729058
 31
0.0
  0
LINE
  5
55CC
  8
0
 10
606.70300938462412
 20
-22.043780783729058
 30
0.0
 11
606.8030105480218
 21
-21.543780783729058
 31
0.0
  0
LINE
  5
55CD
  8
0
 10
605.10300938462399
 20
-22.043780783729058
 30
0.0
 11
605.20301054802155
 21
-21.543780783729058
 31
0.0
  0
LINE
  5
55CE
  8
0
 10
605.20301054802155
 20
-21.543780783729058
 30
0.0
 11
606.00300124083992
 21
-25.543780783729058
 31
0.0
  0
LINE
  5
55CF
  8
0
 10
612.40300124084445
 20
-25.543780783729058
 30
0.0
 11
612.50300240424212
 21
-25.043780783729058
 31
0.0
  0
LINE
  5
55D0
  8
0
 10
614.00300124084868
 20
-25.543780783729058
 30
0.0
 11
614.1030024042459
 21
-25.043780783729069
 31
0.0
  0
LINE
  5
55D1
  8
0
 10
609.2030012408444
 20
-25.543780783729058
 30
0.0
 11
609.30300240424208
 21
-25.043780783729058
 31
0.0
  0
LINE
  5
55D2
  8
0
 10
610.80300124084431
 20
-25.543780783729058
 30
0.0
 11
610.90300240424199
 21
-25.043780783729058
 31
0.0
  0
LINE
  5
55D3
  8
0
 10
614.7030093846289
 20
-22.043780783729069
 30
0.0
 11
614.80301054802612
 21
-21.543780783729069
 31
0.0
  0
LINE
  5
55D4
  8
0
 10
613.10300938462842
 20
-22.043780783729058
 30
0.0
 11
613.20301054802621
 21
-21.543780783729058
 31
0.0
  0
LINE
  5
55D5
  8
0
 10
609.90300938462826
 20
-22.043780783729058
 30
0.0
 11
610.00301054802605
 21
-21.543780783729058
 31
0.0
  0
LINE
  5
55D6
  8
0
 10
611.50300938462851
 20
-22.043780783729058
 30
0.0
 11
611.60301054802619
 21
-21.543780783729058
 31
0.0
  0
LINE
  5
55D7
  8
0
 10
611.60301054802619
 20
-21.543780783729058
 30
0.0
 11
612.40300124084445
 21
-25.543780783729058
 31
0.0
  0
LINE
  5
55D8
  8
0
 10
613.20301054802621
 20
-21.543780783729058
 30
0.0
 11
614.00300124084868
 21
-25.543780783729058
 31
0.0
  0
LINE
  5
55D9
  8
0
 10
610.00301054802605
 20
-21.543780783729058
 30
0.0
 11
610.80300124084431
 21
-25.543780783729058
 31
0.0
  0
LINE
  5
55DA
  8
0
 10
608.40301054802615
 20
-21.543780783729058
 30
0.0
 11
609.2030012408444
 21
-25.543780783729058
 31
0.0
  0
LINE
  5
55DB
  8
0
 10
598.10300240435117
 20
-25.043780783729058
 30
0.0
 11
598.10300938473586
 21
-22.043780783729289
 31
0.0
  0
LINE
  5
55DC
  8
0
 10
598.70300938461992
 20
-22.043780783729058
 30
0.0
 11
598.80301054801748
 21
-21.543780783729058
 31
0.0
  0
LINE
  5
55DD
  8
0
 10
598.80301054801748
 20
-21.543780783729058
 30
0.0
 11
599.60300124083585
 21
-25.543780783729058
 31
0.0
  0
LINE
  5
55DE
  8
0
 10
599.60300124083585
 20
-25.543780783729058
 30
0.0
 11
599.70300240423353
 21
-25.043780783729058
 31
0.0
  0
LINE
  5
55DF
  8
0
 10
600.30300938461983
 20
-22.043780783729058
 30
0.0
 11
600.40301054801751
 21
-21.543780783729058
 31
0.0
  0
LINE
  5
55E0
  8
0
 10
601.90300938461974
 20
-22.043780783729058
 30
0.0
 11
602.00301054801741
 21
-21.543780783729058
 31
0.0
  0
LINE
  5
55E1
  8
0
 10
602.00301054801741
 20
-21.543780783729058
 30
0.0
 11
602.80300124083567
 21
-25.543780783729058
 31
0.0
  0
LINE
  5
55E2
  8
0
 10
601.20300124083576
 20
-25.543780783729058
 30
0.0
 11
601.30300240423344
 21
-25.043780783729058
 31
0.0
  0
LINE
  5
55E3
  8
0
 10
602.80300124083567
 20
-25.543780783729058
 30
0.0
 11
602.90300240423335
 21
-25.043780783729058
 31
0.0
  0
LINE
  5
55E4
  8
0
 10
600.40301054801751
 20
-21.543780783729058
 30
0.0
 11
601.20300124083576
 21
-25.543780783729058
 31
0.0
  0
LINE
  5
55E5
  8
0
 10
603.50300938462397
 20
-22.043780783729058
 30
0.0
 11
603.60301054802164
 21
-21.543780783729058
 31
0.0
  0
TEXT
  5
55E6
  8
1DIM
 10
471.41137523590618
 20
18.771604125629619
 30
0.0
 40
3.5
  1
材質：ステンレス
  0
TEXT
  5
55E7
  8
1DIM
 10
466.74470856923949
 20
12.93827079229629
 30
0.0
 40
3.5
  1
仕上げ：各種仕上げ
  0
TEXT
  5
55EA
  8
1DIM
 10
521.76222482861431
 20
19.51223591589709
 30
0.0
 40
3.4999999999999978
  1
材質：亜鉛ダイキャスト
  0
TEXT
  5
55EB
  8
1DIM
 10
533.89555816194763
 20
13.67890258256376
 30
0.0
 40
3.4999999999999978
  1
仕上げ：クローム
  0
TEXT
  5
55EE
  8
1DIM
 10
327.48626101558273
 20
19.915761944291031
 30
0.0
 40
3.5
  1
材質：亜鉛ダイキャスト
  0
TEXT
  5
55EF
  8
1DIM
 10
327.48626101558273
 20
14.082428610957701
 30
0.0
 40
3.5
  1
仕上げ：クローム
  0
TEXT
  5
55F2
  8
1HATCH
 10
605.75810713704436
 20
56.782064689008848
 30
0.0
 40
3.5
  1
PB
  0
TEXT
  5
55F3
  8
1DIM
 10
611.92545163158297
 20
50.78071867188487
 30
0.0
 40
3.5
  1
合板9mm以上
  0
LINE
  5
55F8
  8
1DIM
 10
509.80204822222572
 20
-0.5543331737968061
 30
0.0
 11
509.80204822222572
 21
34.369709784302479
 31
0.0
  0
LINE
  5
55F9
  8
1DIM
 10
602.10300589465294
 20
14.665739659301829
 30
0.0
 11
602.10300589465294
 21
34.369709784302479
 31
0.0
  0
LINE
  5
55FA
  8
1DIM
 10
511.80204822222578
 20
33.369709784302479
 30
0.0
 11
600.10300589465294
 21
33.369709784302479
 31
0.0
  0
LINE
  5
55FE
  8
1DIM
 10
578.88492139733523
 20
-11.60443611835813
 30
0.0
 11
578.88492139733523
 21
24.369709784302469
 31
0.0
  0
LINE
  5
55FF
  8
1DIM
 10
602.10300589465294
 20
14.665739659301609
 30
0.0
 11
602.10300589465294
 21
24.369709784302479
 31
0.0
  0
LINE
  5
5600
  8
1DIM
 10
580.88492139733523
 20
23.369709784302469
 30
0.0
 11
600.10300589465294
 21
23.369709784302469
 31
0.0
  0
TEXT
  5
5604
  8
1DIM
 10
587.57729697932734
 20
24.069709784302471
 30
0.0
 40
3.5
  1
23 
  0
LINE
  5
5605
  8
0
  6
BYBLOCK
 10
600.10300589465294
 20
23.905608164302471
 30
0.0
 11
602.10300589465294
 21
23.369709784302469
 31
0.0
  0
LINE
  5
5606
  8
0
  6
BYBLOCK
 10
602.10300589465294
 20
23.369709784302469
 30
0.0
 11
600.10300589465294
 21
22.83381140430247
 31
0.0
  0
LINE
  5
5607
  8
0
  6
BYBLOCK
 10
602.10300589465294
 20
23.369709784302469
 30
0.0
 11
600.10300589465294
 21
23.369709784302469
 31
0.0
  0
LINE
  5
5608
  8
0
  6
BYBLOCK
 10
580.88492139733523
 20
22.83381140430247
 30
0.0
 11
578.88492139733523
 21
23.369709784302469
 31
0.0
  0
LINE
  5
5609
  8
0
  6
BYBLOCK
 10
578.88492139733523
 20
23.369709784302469
 30
0.0
 11
580.88492139733523
 21
23.905608164302471
 31
0.0
  0
LINE
  5
560A
  8
0
  6
BYBLOCK
 10
578.88492139733523
 20
23.369709784302469
 30
0.0
 11
580.88492139733523
 21
23.369709784302469
 31
0.0
  0
TEXT
  5
560B
  8
1DIM
 10
529.81919372510595
 20
34.069709784302482
 30
0.0
 40
3.5
  1
92 （ペーパー付き最大値）
  0
LINE
  5
560C
  8
0
  6
BYBLOCK
 10
600.10300589465294
 20
33.905608164302478
 30
0.0
 11
602.10300589465294
 21
33.369709784302479
 31
0.0
  0
LINE
  5
560D
  8
0
  6
BYBLOCK
 10
602.10300589465294
 20
33.369709784302479
 30
0.0
 11
600.10300589465294
 21
32.83381140430248
 31
0.0
  0
LINE
  5
560E
  8
0
  6
BYBLOCK
 10
602.10300589465294
 20
33.369709784302479
 30
0.0
 11
600.10300589465294
 21
33.369709784302479
 31
0.0
  0
LINE
  5
560F
  8
0
  6
BYBLOCK
 10
511.80204822222578
 20
32.83381140430248
 30
0.0
 11
509.80204822222572
 21
33.369709784302479
 31
0.0
  0
LINE
  5
5610
  8
0
  6
BYBLOCK
 10
509.80204822222572
 20
33.369709784302479
 30
0.0
 11
511.80204822222578
 21
33.905608164302478
 31
0.0
  0
LINE
  5
5611
  8
0
  6
BYBLOCK
 10
509.80204822222572
 20
33.369709784302479
 30
0.0
 11
511.80204822222578
 21
33.369709784302479
 31
0.0
  0
LINE
  5
5612
  8
1DIM
 10
614.41803007052965
 20
37.497762711862691
 30
0.0
 11
609.22545163158304
 21
50.080718671884817
 31
0.0
  0
LINE
  5
5613
  8
1DIM
 10
609.22545163158304
 20
50.080718671884817
 30
0.0
 11
641.12545163158302
 21
50.080718671884817
 31
0.0
  0
LINE
  5
5614
  8
0
  6
BYBLOCK
 10
614.91340594365727
 20
37.702188292477402
 30
0.0
 11
615.18095673067262
 21
35.648994767732582
 31
0.0
  0
LINE
  5
5615
  8
0
  6
BYBLOCK
 10
615.18095673067262
 20
35.648994767732582
 30
0.0
 11
613.92265419740204
 21
37.293337131247981
 31
0.0
  0
LINE
  5
5616
  8
0
  6
BYBLOCK
 10
615.18095673067262
 20
35.648994767732582
 30
0.0
 11
614.41803007052965
 21
37.497762711862691
 31
0.0
  0
LINE
  5
5617
  8
1HATCH
 10
606.33440546999122
 20
37.571208844195617
 30
0.0
 11
603.05810713704443
 21
56.082064689008803
 31
0.0
  0
LINE
  5
5618
  8
1HATCH
 10
603.05810713704443
 20
56.082064689008803
 30
0.0
 11
611.59144047037773
 21
56.082064689008803
 31
0.0
  0
LINE
  5
5619
  8
0
  6
BYBLOCK
 10
606.86210210539434
 20
37.664607637928732
 30
0.0
 11
606.68297451673129
 21
35.601818172019421
 31
0.0
  0
LINE
  5
561A
  8
0
  6
BYBLOCK
 10
606.68297451673129
 20
35.601818172019421
 30
0.0
 11
605.80670883458799
 21
37.477810050462523
 31
0.0
  0
LINE
  5
561B
  8
0
  6
BYBLOCK
 10
606.68297451673129
 20
35.601818172019421
 30
0.0
 11
606.33440546999122
 21
37.571208844195617
 31
0.0
  0
LINE
  5
561C
  8
1DIM
 10
319.3192801781874
 20
4.6925604260287024
 30
0.0
 11
324.7862610155828
 21
13.3824286109577
 31
0.0
  0
LINE
  5
561D
  8
1DIM
 10
324.7862610155828
 20
13.3824286109577
 30
0.0
 11
372.05292768224939
 21
13.3824286109577
 31
0.0
  0
LINE
  5
561E
  8
0
  6
BYBLOCK
 10
319.7728789278504
 20
4.407191808288883
 30
0.0
 11
318.25426998823377
 21
2.99970683067707
 31
0.0
  0
LINE
  5
561F
  8
0
  6
BYBLOCK
 10
318.25426998823377
 20
2.99970683067707
 30
0.0
 11
318.8656814285244
 21
4.9779290437685209
 31
0.0
  0
LINE
  5
5620
  8
0
  6
BYBLOCK
 10
318.25426998823377
 20
2.99970683067707
 30
0.0
 11
319.3192801781874
 21
4.6925604260287024
 31
0.0
  0
LINE
  5
5621
  8
1DIM
 10
589.11350775780124
 20
-11.86950110001316
 30
0.0
 11
569.02889149528085
 21
12.978902582563761
 31
0.0
  0
LINE
  5
5622
  8
1DIM
 10
569.02889149528085
 20
12.978902582563761
 30
0.0
 11
521.76222482861431
 21
12.978902582563761
 31
0.0
  0
LINE
  5
5623
  8
0
  6
BYBLOCK
 10
589.53028420418298
 20
-11.532626542606341
 30
0.0
 11
590.37074073322765
 21
-13.424931987420329
 31
0.0
  0
LINE
  5
5624
  8
0
  6
BYBLOCK
 10
590.37074073322765
 20
-13.424931987420329
 30
0.0
 11
588.69673131141951
 21
-12.206375657419979
 31
0.0
  0
LINE
  5
5625
  8
0
  6
BYBLOCK
 10
590.37074073322765
 20
-13.424931987420329
 30
0.0
 11
589.11350775780124
 21
-11.86950110001316
 31
0.0
  0
LINE
  5
5626
  8
1DIM
 10
518.87881414811488
 20
2.1467040618128221
 30
0.0
 11
506.3113752359065
 21
12.238270792296021
 31
0.0
  0
LINE
  5
5627
  8
1DIM
 10
506.3113752359065
 20
12.238270792296021
 30
0.0
 11
470.94470856923982
 21
12.238270792296021
 31
0.0
  0
LINE
  5
5628
  8
0
  6
BYBLOCK
 10
519.21434926801601
 20
2.5645596074259118
 30
0.0
 11
520.43827228871646
 21
0.8944699352567795
 31
0.0
  0
LINE
  5
5629
  8
0
  6
BYBLOCK
 10
520.43827228871646
 20
0.8944699352567795
 30
0.0
 11
518.54327902821376
 21
1.728848516199732
 31
0.0
  0
LINE
  5
562A
  8
0
  6
BYBLOCK
 10
520.43827228871646
 20
0.8944699352567795
 30
0.0
 11
518.87881414811488
 21
2.1467040618128221
 31
0.0
  0
LINE
  5
562B
  8
0
 10
628.10300589448946
 20
-23.543780783729058
 30
0.0
 11
622.80300938462779
 21
-22.043780783729069
 31
0.0
  0
LINE
  5
562C
  8
0
 10
622.80300938462779
 20
-22.043780783729069
 30
0.0
 11
598.10300938473586
 21
-22.043780783729289
 31
0.0
  0
LINE
  5
562D
  8
0
 10
628.10300589448946
 20
-23.543780783729058
 30
0.0
 11
622.80300240424424
 21
-25.043780783729179
 31
0.0
  0
LINE
  5
562E
  8
0
 10
598.10301403843403
 20
-20.043734247831249
 30
0.0
 11
598.10300938473586
 21
-22.043780783729289
 31
0.0
  0
LINE
  5
562F
  8
0
 10
622.80300240424424
 20
-25.043780783729179
 30
0.0
 11
598.10300240435117
 21
-25.043780783729058
 31
0.0
  0
LINE
  5
5630
  8
0
 10
598.10301403843403
 20
-20.043734247831249
 30
0.0
 11
597.00301054823865
 21
-20.043734247831139
 31
0.0
  0
LINE
  5
5631
  8
0
 10
598.10300240435117
 20
-25.043780783729058
 30
0.0
 11
598.1029977508698
 21
-27.043734247831139
 31
0.0
  0
ARC
  5
5632
  8
0
 10
597.00301054823865
 20
-21.543734247831139
 30
0.0
 40
1.5
 50
90.0
 51
179.99986668447059
  0
LINE
  5
5633
  8
0
 10
598.1029977508698
 20
-27.043734247831139
 30
0.0
 11
597.00300124105911
 21
-27.043734247831139
 31
0.0
  0
LINE
  5
5634
  8
0
 10
595.50301054824286
 20
-21.543730757638741
 30
0.0
 11
595.5030012410632
 21
-25.543730757638741
 31
0.0
  0
ARC
  5
5635
  8
0
 10
597.00300124105911
 20
-25.543734247831139
 30
0.0
 40
1.5
 50
179.99986668447059
 51
270.0
  0
LINE
  5
5636
  8
0
 10
427.16695314254628
 20
165.42067250893601
 30
0.0
 11
425.66695314254628
 21
160.12067599907439
 31
0.0
  0
LINE
  5
5637
  8
0
 10
425.66695314254628
 20
160.12067599907439
 30
0.0
 11
425.6669531425465
 21
135.42067599918249
 31
0.0
  0
LINE
  5
5638
  8
0
 10
427.16695314254628
 20
165.42067250893601
 30
0.0
 11
428.66695314254639
 21
160.12066901869071
 31
0.0
  0
LINE
  5
5639
  8
0
 10
423.66690660664852
 20
135.42068065288061
 30
0.0
 11
425.6669531425465
 21
135.42067599918249
 31
0.0
  0
LINE
  5
563A
  8
0
 10
428.66695314254639
 20
160.12066901869071
 30
0.0
 11
428.66695314254628
 21
135.42066901879781
 31
0.0
  0
LINE
  5
563B
  8
0
 10
423.66690660664852
 20
135.42068065288061
 30
0.0
 11
423.6669066066483
 21
134.32067716268531
 31
0.0
  0
LINE
  5
563C
  8
0
 10
428.66695314254628
 20
135.42066901879781
 30
0.0
 11
430.66690660664841
 21
135.4206643653163
 31
0.0
  0
ARC
  5
563D
  8
0
 10
425.16690660664841
 20
134.32067716268531
 30
0.0
 40
1.5
 50
180.0
 51
269.99986668447059
  0
LINE
  5
563E
  8
0
 10
430.66690660664841
 20
135.4206643653163
 30
0.0
 11
430.66690660664841
 21
134.32066785550569
 31
0.0
  0
LINE
  5
563F
  8
0
 10
425.16690311645601
 20
132.82067716268929
 30
0.0
 11
429.16690311645601
 21
132.8206678555097
 31
0.0
  0
ARC
  5
5640
  8
0
 10
429.16690660664841
 20
134.32066785550569
 30
0.0
 40
1.5
 50
269.99986668447059
 51
0.0
  0
LINE
  5
5641
  8
0
 10
347.16695314254628
 20
165.42067250893601
 30
0.0
 11
345.66695314254628
 21
160.12067599907431
 31
0.0
  0
LINE
  5
5642
  8
0
 10
345.66695314254628
 20
160.12067599907431
 30
0.0
 11
345.66695314254662
 21
135.42067599918249
 31
0.0
  0
LINE
  5
5643
  8
0
 10
347.16695314254628
 20
165.42067250893601
 30
0.0
 11
348.66695314254639
 21
160.12066901869071
 31
0.0
  0
LINE
  5
5644
  8
0
 10
343.66690660664852
 20
135.42068065288049
 30
0.0
 11
345.66695314254662
 21
135.42067599918249
 31
0.0
  0
LINE
  5
5645
  8
0
 10
348.66695314254639
 20
160.12066901869071
 30
0.0
 11
348.66695314254628
 21
135.42066901879781
 31
0.0
  0
LINE
  5
5646
  8
0
 10
343.66690660664852
 20
135.42068065288049
 30
0.0
 11
343.66690660664841
 21
134.3206771626852
 31
0.0
  0
LINE
  5
5647
  8
0
 10
348.66695314254628
 20
135.42066901879781
 30
0.0
 11
350.66690660664841
 21
135.4206643653163
 31
0.0
  0
ARC
  5
5648
  8
0
 10
345.16690660664841
 20
134.3206771626852
 30
0.0
 40
1.5
 50
180.0
 51
269.99986668447059
  0
LINE
  5
5649
  8
0
 10
350.66690660664841
 20
135.4206643653163
 30
0.0
 11
350.66690660664841
 21
134.3206678555056
 31
0.0
  0
LINE
  5
564A
  8
0
 10
345.16690311645601
 20
132.82067716268929
 30
0.0
 11
349.16690311645601
 21
132.8206678555097
 31
0.0
  0
ARC
  5
564B
  8
0
 10
349.16690660664841
 20
134.3206678555056
 30
0.0
 40
1.5
 50
269.99986668447059
 51
0.0
  0
TEXT
  5
564C
  8
1DIM
 10
639.40300589465335
 20
-20.585400914499068
 30
0.0
 40
3.5
  1
10 
 50
90.0
  0
LINE
  5
564D
  8
0
  6
BYBLOCK
 10
639.56710751465334
 20
-15.54373424783388
 30
0.0
 11
640.10300589465339
 21
-13.54373424783388
 31
0.0
  0
LINE
  5
564E
  8
0
  6
BYBLOCK
 10
640.10300589465339
 20
-13.54373424783388
 30
0.0
 11
640.63890427465344
 21
-15.54373424783388
 31
0.0
  0
LINE
  5
564F
  8
0
  6
BYBLOCK
 10
640.10300589465339
 20
-13.54373424783388
 30
0.0
 11
640.10300589465339
 21
-15.54373424783388
 31
0.0
  0
LINE
  5
5650
  8
0
  6
BYBLOCK
 10
640.63890427465344
 20
-21.543734247831139
 30
0.0
 11
640.10300589465339
 21
-23.54373424783115
 31
0.0
  0
LINE
  5
5651
  8
0
  6
BYBLOCK
 10
640.10300589465339
 20
-23.54373424783115
 30
0.0
 11
639.56710751465334
 21
-21.543734247831139
 31
0.0
  0
LINE
  5
5652
  8
0
  6
BYBLOCK
 10
640.10300589465339
 20
-23.54373424783115
 30
0.0
 11
640.10300589465339
 21
-21.543734247831139
 31
0.0
  0
TEXT
  5
5653
  8
1DIM
 10
649.40300589465335
 20
-26.168734247833779
 30
0.0
 40
3.5
  1
20 
 50
90.0
  0
LINE
  5
5654
  8
0
  6
BYBLOCK
 10
650.63890427465344
 20
-31.543734247833878
 30
0.0
 11
650.10300589465328
 21
-33.543734247833882
 31
0.0
  0
LINE
  5
5655
  8
0
  6
BYBLOCK
 10
650.10300589465328
 20
-33.543734247833882
 30
0.0
 11
649.56710751465334
 21
-31.543734247833878
 31
0.0
  0
LINE
  5
5656
  8
0
  6
BYBLOCK
 10
650.10300589465328
 20
-33.543734247833882
 30
0.0
 11
650.10300589465328
 21
-31.543734247833878
 31
0.0
  0
LINE
  5
5657
  8
0
  6
BYBLOCK
 10
649.56710751465334
 20
-15.54373424783388
 30
0.0
 11
650.10300589465328
 21
-13.54373424783388
 31
0.0
  0
LINE
  5
5658
  8
0
  6
BYBLOCK
 10
650.10300589465328
 20
-13.54373424783388
 30
0.0
 11
650.63890427465344
 21
-15.54373424783388
 31
0.0
  0
LINE
  5
5659
  8
0
  6
BYBLOCK
 10
650.10300589465328
 20
-13.54373424783388
 30
0.0
 11
650.10300589465328
 21
-15.54373424783388
 31
0.0
  0
TEXT
  5
565A
  8
1DIM
 10
659.40300589465335
 20
-18.00367889843227
 30
0.0
 40
3.5
  1
37 
 50
90.0
  0
LINE
  5
565B
  8
0
  6
BYBLOCK
 10
659.56710751465334
 20
1.369709784302453
 30
0.0
 11
660.10300589465351
 21
3.369709784302453
 31
0.0
  0
LINE
  5
565C
  8
0
  6
BYBLOCK
 10
660.10300589465351
 20
3.369709784302453
 30
0.0
 11
660.63890427465356
 21
1.369709784302453
 31
0.0
  0
LINE
  5
565D
  8
0
  6
BYBLOCK
 10
660.10300589465351
 20
3.369709784302453
 30
0.0
 11
660.10300589465351
 21
1.369709784302453
 31
0.0
  0
LINE
  5
565E
  8
0
  6
BYBLOCK
 10
660.63890427465356
 20
-31.543734247833889
 30
0.0
 11
660.10300589465351
 21
-33.543734247833882
 31
0.0
  0
LINE
  5
565F
  8
0
  6
BYBLOCK
 10
660.10300589465351
 20
-33.543734247833882
 30
0.0
 11
659.56710751465334
 21
-31.543734247833889
 31
0.0
  0
LINE
  5
5660
  8
0
  6
BYBLOCK
 10
660.10300589465351
 20
-33.543734247833882
 30
0.0
 11
660.10300589465351
 21
-31.543734247833889
 31
0.0
  0
TEXT
  5
5661
  8
1DIM
 10
382.7919066066483
 20
-80.773022077744542
 30
0.0
 40
3.5
  1
P80 
  0
LINE
  5
5662
  8
0
  6
BYBLOCK
 10
425.1669066066483
 20
-80.937123697744539
 30
0.0
 11
427.1669066066483
 21
-81.473022077744545
 31
0.0
  0
LINE
  5
5663
  8
0
  6
BYBLOCK
 10
427.1669066066483
 20
-81.473022077744545
 30
0.0
 11
425.1669066066483
 21
-82.008920457744551
 31
0.0
  0
LINE
  5
5664
  8
0
  6
BYBLOCK
 10
427.1669066066483
 20
-81.473022077744545
 30
0.0
 11
425.1669066066483
 21
-81.473022077744545
 31
0.0
  0
LINE
  5
5665
  8
0
  6
BYBLOCK
 10
349.16690660664841
 20
-82.008920457744551
 30
0.0
 11
347.16690660664841
 21
-81.473022077744545
 31
0.0
  0
LINE
  5
5666
  8
0
  6
BYBLOCK
 10
347.16690660664841
 20
-81.473022077744545
 30
0.0
 11
349.16690660664841
 21
-80.937123697744539
 31
0.0
  0
LINE
  5
5667
  8
0
  6
BYBLOCK
 10
347.16690660664841
 20
-81.473022077744545
 30
0.0
 11
349.16690660664841
 21
-81.473022077744545
 31
0.0
  0
TEXT
  5
5668
  8
1DIM
 10
375.08357327331242
 20
34.069709784302482
 30
0.0
 40
3.5
  1
138 
  0
LINE
  5
5669
  8
0
  6
BYBLOCK
 10
312.16690660664108
 20
32.83381140430248
 30
0.0
 11
310.16690660664108
 21
33.369709784302479
 31
0.0
  0
LINE
  5
566A
  8
0
  6
BYBLOCK
 10
310.16690660664108
 20
33.369709784302479
 30
0.0
 11
312.16690660664108
 21
33.905608164302478
 31
0.0
  0
LINE
  5
566B
  8
0
  6
BYBLOCK
 10
310.16690660664108
 20
33.369709784302479
 30
0.0
 11
312.16690660664108
 21
33.369709784302479
 31
0.0
  0
LINE
  5
566C
  8
0
  6
BYBLOCK
 10
446.16690660665017
 20
33.905608164302478
 30
0.0
 11
448.16690660665017
 21
33.369709784302479
 31
0.0
  0
LINE
  5
566D
  8
0
  6
BYBLOCK
 10
448.16690660665017
 20
33.369709784302479
 30
0.0
 11
446.16690660665017
 21
32.83381140430248
 31
0.0
  0
LINE
  5
566E
  8
0
  6
BYBLOCK
 10
448.16690660665017
 20
33.369709784302479
 30
0.0
 11
446.16690660665017
 21
33.369709784302479
 31
0.0
  0
TEXT
  5
566F
  8
1DIM
 10
376.7502399399844
 20
150.24828496504219
 30
0.0
 40
3.5
  1
接地面122 
  0
LINE
  5
5670
  8
0
  6
BYBLOCK
 10
446.16690660665017
 20
150.08418334504219
 30
0.0
 11
448.16690660665012
 21
149.5482849650422
 31
0.0
  0
LINE
  5
5671
  8
0
  6
BYBLOCK
 10
448.16690660665012
 20
149.5482849650422
 30
0.0
 11
446.16690660665017
 21
149.01238658504221
 31
0.0
  0
LINE
  5
5672
  8
0
  6
BYBLOCK
 10
448.16690660665012
 20
149.5482849650422
 30
0.0
 11
446.16690660665017
 21
149.5482849650422
 31
0.0
  0
LINE
  5
5673
  8
0
  6
BYBLOCK
 10
328.16690660665199
 20
149.01238658504221
 30
0.0
 11
326.16690660665199
 21
149.5482849650422
 31
0.0
  0
LINE
  5
5674
  8
0
  6
BYBLOCK
 10
326.16690660665199
 20
149.5482849650422
 30
0.0
 11
328.16690660665199
 21
150.08418334504219
 31
0.0
  0
LINE
  5
5675
  8
0
  6
BYBLOCK
 10
326.16690660665199
 20
149.5482849650422
 30
0.0
 11
328.16690660665199
 21
149.5482849650422
 31
0.0
  0
TEXT
  5
5676
  8
1DIM
 10
469.90061270383279
 20
76.311857813367226
 30
0.0
 40
3.5
  1
76（ペーパー無し最小値）
 50
90.0
  0
LINE
  5
5677
  8
0
  6
BYBLOCK
 10
471.13651108383277
 20
65.369709784302472
 30
0.0
 11
470.60061270383278
 21
63.369709784302472
 31
0.0
  0
LINE
  5
5678
  8
0
  6
BYBLOCK
 10
470.60061270383278
 20
63.369709784302472
 30
0.0
 11
470.06471432383279
 21
65.369709784302472
 31
0.0
  0
LINE
  5
5679
  8
0
  6
BYBLOCK
 10
470.60061270383278
 20
63.369709784302472
 30
0.0
 11
470.60061270383278
 21
65.369709784302472
 31
0.0
  0
LINE
  5
567A
  8
0
  6
BYBLOCK
 10
470.0647143238329
 20
137.42067250909841
 30
0.0
 11
470.60061270383289
 21
139.42067250909841
 31
0.0
  0
LINE
  5
567B
  8
0
  6
BYBLOCK
 10
470.60061270383289
 20
139.42067250909841
 30
0.0
 11
471.13651108383289
 21
137.42067250909841
 31
0.0
  0
LINE
  5
567C
  8
0
  6
BYBLOCK
 10
470.60061270383289
 20
139.42067250909841
 30
0.0
 11
470.60061270383289
 21
137.42067250909841
 31
0.0
  0
TEXT
  5
567D
  8
1DIM
 10
469.1122027915543
 20
-31.968322813387591
 30
0.0
 40
3.5
  1
65 
 50
90.0
  0
LINE
  5
567E
  8
0
  6
BYBLOCK
 10
469.27630441155429
 20
1.369709784302507
 30
0.0
 11
469.81220279155428
 21
3.3697097843025068
 31
0.0
  0
LINE
  5
567F
  8
0
  6
BYBLOCK
 10
469.81220279155428
 20
3.3697097843025068
 30
0.0
 11
470.34810117155428
 21
1.369709784302507
 31
0.0
  0
LINE
  5
5680
  8
0
  6
BYBLOCK
 10
469.81220279155428
 20
3.3697097843025068
 30
0.0
 11
469.81220279155428
 21
1.369709784302507
 31
0.0
  0
LINE
  5
5681
  8
0
  6
BYBLOCK
 10
470.34810117155428
 20
-59.47302207774451
 30
0.0
 11
469.81220279155428
 21
-61.47302207774451
 31
0.0
  0
LINE
  5
5682
  8
0
  6
BYBLOCK
 10
469.81220279155428
 20
-61.47302207774451
 30
0.0
 11
469.27630441155429
 21
-59.47302207774451
 31
0.0
  0
LINE
  5
5683
  8
0
  6
BYBLOCK
 10
469.81220279155428
 20
-61.47302207774451
 30
0.0
 11
469.81220279155428
 21
-59.47302207774451
 31
0.0
  0
TEXT
  5
5684
  8
1DIM
 10
561.16085786558574
 20
-80.773022077744542
 30
0.0
 40
3.5
  1
76 
  0
LINE
  5
5685
  8
0
  6
BYBLOCK
 10
600.10300589465328
 20
-80.937123697744539
 30
0.0
 11
602.10300589465339
 21
-81.473022077744545
 31
0.0
  0
LINE
  5
5686
  8
0
  6
BYBLOCK
 10
602.10300589465339
 20
-81.473022077744545
 30
0.0
 11
600.10300589465328
 21
-82.008920457744551
 31
0.0
  0
LINE
  5
5687
  8
0
  6
BYBLOCK
 10
602.10300589465339
 20
-81.473022077744545
 30
0.0
 11
600.10300589465328
 21
-81.473022077744545
 31
0.0
  0
LINE
  5
5688
  8
0
  6
BYBLOCK
 10
528.05204316985134
 20
-82.008920457744551
 30
0.0
 11
526.05204316985134
 21
-81.473022077744545
 31
0.0
  0
LINE
  5
5689
  8
0
  6
BYBLOCK
 10
526.05204316985134
 20
-81.473022077744545
 30
0.0
 11
528.05204316985134
 21
-80.937123697744539
 31
0.0
  0
LINE
  5
568A
  8
0
  6
BYBLOCK
 10
526.05204316985134
 20
-81.473022077744545
 30
0.0
 11
528.05204316985134
 21
-81.473022077744545
 31
0.0
  0
LINE
  5
568B
  8
1DIM
 10
402.12820799918921
 20
65.248064516402337
 30
0.0
 11
411.99802748386378
 21
44.971125372360298
 31
0.0
  0
LINE
  5
568C
  8
1DIM
 10
411.99802748386378
 20
44.971125372360298
 30
0.0
 11
458.79802748386368
 21
44.971125372360298
 31
0.0
  0
LINE
  5
568D
  8
0
  6
BYBLOCK
 10
401.64635951329842
 20
65.01352430592371
 30
0.0
 11
401.25289200932332
 21
67.046347563612926
 31
0.0
  0
LINE
  5
568E
  8
0
  6
BYBLOCK
 10
401.25289200932332
 20
67.046347563612926
 30
0.0
 11
402.61005648508001
 21
65.482604726880979
 31
0.0
  0
LINE
  5
568F
  8
0
  6
BYBLOCK
 10
401.25289200932332
 20
67.046347563612926
 30
0.0
 11
402.12820799918921
 21
65.248064516402337
 31
0.0
  0
VIEWPORT
  5
57
 67
     1
  8
0
 10
-12.71820606546882
 20
10.09248672500371
 30
0.0
 40
426.48431561502389
 41
282.79835762855021
 68
     1
 69
     1
1001
ACAD
1000
MVIEW
1002
{
1070
    16
1010
0.0
1020
0.0
1030
0.0
1010
0.0
1020
0.0
1030
1.0
1040
0.0
1040
282.79835762855021
1040
-12.71820606546882
1040
10.09248672500371
1040
50.0
1040
0.0
1040
0.0
1070
     0
1070
  1000
1070
     1
1070
     1
1070
     0
1070
     0
1070
     0
1070
     0
1040
0.0
1040
0.0
1040
0.0
1040
10.0
1040
10.0
1040
10.0
1040
10.0
1070
     0
1002
{
1002
}
1002
}
  0
ENDSEC
  0
EOF
