  0
SECTION
  2
HEADER
  9
$ACADVER
  1
AC1012
  9
$DWGCODEPAGE
  3
ansi_932
  9
$INSBASE
 10
0.0
 20
0.0
 30
0.0
  9
$EXTMIN
 10
769.6487762636256
 20
-127.157588524149
 30
0.0
  9
$EXTMAX
 10
1121.870888427656
 20
130.0795361561008
 30
0.0
  9
$LIMMIN
 10
0.0
 20
0.0
  9
$LIMMAX
 10
420.0
 20
297.0
  9
$ORTHOMODE
 70
     0
  9
$REGENMODE
 70
     1
  9
$FILLMODE
 70
     1
  9
$QTEXTMODE
 70
     0
  9
$MIRRTEXT
 70
     1
  9
$DRAGMODE
 70
     2
  9
$LTSCALE
 40
0.5
  9
$OSMODE
 70
 16383
  9
$ATTMODE
 70
     1
  9
$TEXTSIZE
 40
4.0
  9
$TRACEWID
 40
1.0
  9
$TEXTSTYLE
  7
STANDARD
  9
$CLAYER
  8
1TEXT
  9
$CELTYPE
  6
BYLAYER
  9
$CECOLOR
 62
   256
  9
$CELTSCALE
 40
1.0
  9
$DELOBJ
 70
     1
  9
$DISPSILH
 70
     0
  9
$DIMSCALE
 40
1.0
  9
$DIMASZ
 40
2.0
  9
$DIMEXO
 40
0.0
  9
$DIMDLI
 40
7.0
  9
$DIMRND
 40
0.0
  9
$DIMDLE
 40
0.0
  9
$DIMEXE
 40
1.0
  9
$DIMTP
 40
0.0
  9
$DIMTM
 40
0.0
  9
$DIMTXT
 40
3.5
  9
$DIMCEN
 40
0.0
  9
$DIMTSZ
 40
0.0
  9
$DIMTOL
 70
     0
  9
$DIMLIM
 70
     0
  9
$DIMTIH
 70
     0
  9
$DIMTOH
 70
     0
  9
$DIMSE1
 70
     0
  9
$DIMSE2
 70
     0
  9
$DIMTAD
 70
     1
  9
$DIMZIN
 70
     8
  9
$DIMBLK
  1

  9
$DIMASO
 70
     1
  9
$DIMSHO
 70
     1
  9
$DIMPOST
  1
 
  9
$DIMAPOST
  1

  9
$DIMALT
 70
     0
  9
$DIMALTD
 70
     2
  9
$DIMALTF
 40
25.4
  9
$DIMLFAC
 40
1.0
  9
$DIMTOFL
 70
     1
  9
$DIMTVP
 40
0.0
  9
$DIMTIX
 70
     0
  9
$DIMSOXD
 70
     0
  9
$DIMSAH
 70
     1
  9
$DIMBLK1
  1
OPEN30
  9
$DIMBLK2
  1
OPEN30
  9
$DIMSTYLE
  2
NEWX10
  9
$DIMCLRD
 70
   256
  9
$DIMCLRE
 70
   256
  9
$DIMCLRT
 70
   201
  9
$DIMTFAC
 40
0.7
  9
$DIMGAP
 40
0.7
  9
$DIMJUST
 70
     0
  9
$DIMSD1
 70
     0
  9
$DIMSD2
 70
     0
  9
$DIMTOLJ
 70
     1
  9
$DIMTZIN
 70
     8
  9
$DIMALTZ
 70
     0
  9
$DIMALTTZ
 70
     0
  9
$DIMFIT
 70
     2
  9
$DIMUPT
 70
     0
  9
$DIMUNIT
 70
     2
  9
$DIMDEC
 70
     6
  9
$DIMTDEC
 70
     4
  9
$DIMALTU
 70
     2
  9
$DIMALTTD
 70
     2
  9
$DIMTXSTY
  7
STANDARD
  9
$DIMAUNIT
 70
     0
  9
$LUNITS
 70
     2
  9
$LUPREC
 70
     4
  9
$SKETCHINC
 40
1.0
  9
$FILLETRAD
 40
0.0
  9
$AUNITS
 70
     0
  9
$AUPREC
 70
     2
  9
$MENU
  1
acad
  9
$ELEVATION
 40
0.0
  9
$PELEVATION
 40
0.0
  9
$THICKNESS
 40
0.0
  9
$LIMCHECK
 70
     0
  9
$CHAMFERA
 40
1.0
  9
$CHAMFERB
 40
1.0
  9
$CHAMFERC
 40
20.0
  9
$CHAMFERD
 40
0.0
  9
$SKPOLY
 70
     0
  9
$TDCREATE
 40
2453733.549498148
  9
$TDUPDATE
 40
2458892.647665683
  9
$TDINDWG
 40
0.4248367708
  9
$TDUSRTIMER
 40
0.4248347801
  9
$USRTIMER
 70
     1
  9
$ANGBASE
 50
0.0
  9
$ANGDIR
 70
     0
  9
$PDMODE
 70
     0
  9
$PDSIZE
 40
0.0
  9
$PLINEWID
 40
0.0
  9
$COORDS
 70
     2
  9
$SPLFRAME
 70
     0
  9
$SPLINETYPE
 70
     6
  9
$SPLINESEGS
 70
     8
  9
$ATTDIA
 70
     0
  9
$ATTREQ
 70
     1
  9
$HANDLING
 70
     1
  9
$HANDSEED
  5
8D6D
  9
$SURFTAB1
 70
     6
  9
$SURFTAB2
 70
     6
  9
$SURFTYPE
 70
     6
  9
$SURFU
 70
     6
  9
$SURFV
 70
     6
  9
$UCSNAME
  2

  9
$UCSORG
 10
0.0
 20
0.0
 30
0.0
  9
$UCSXDIR
 10
1.0
 20
0.0
 30
0.0
  9
$UCSYDIR
 10
0.0
 20
1.0
 30
0.0
  9
$PUCSNAME
  2

  9
$PUCSORG
 10
0.0
 20
0.0
 30
0.0
  9
$PUCSXDIR
 10
1.0
 20
0.0
 30
0.0
  9
$PUCSYDIR
 10
0.0
 20
1.0
 30
0.0
  9
$USERI1
 70
     0
  9
$USERI2
 70
     0
  9
$USERI3
 70
     0
  9
$USERI4
 70
     0
  9
$USERI5
 70
     0
  9
$USERR1
 40
0.0
  9
$USERR2
 40
0.0
  9
$USERR3
 40
0.0
  9
$USERR4
 40
0.0
  9
$USERR5
 40
30.0
  9
$WORLDVIEW
 70
     1
  9
$SHADEDGE
 70
     3
  9
$SHADEDIF
 70
    70
  9
$TILEMODE
 70
     1
  9
$MAXACTVP
 70
    48
  9
$PINSBASE
 10
0.0
 20
0.0
 30
0.0
  9
$PLIMCHECK
 70
     0
  9
$PEXTMIN
 10
1.000000000000000E+20
 20
1.000000000000000E+20
 30
1.000000000000000E+20
  9
$PEXTMAX
 10
-1.000000000000000E+20
 20
-1.000000000000000E+20
 30
-1.000000000000000E+20
  9
$PLIMMIN
 10
0.0
 20
0.0
  9
$PLIMMAX
 10
420.0
 20
297.0
  9
$UNITMODE
 70
     0
  9
$VISRETAIN
 70
     1
  9
$PLINEGEN
 70
     0
  9
$PSLTSCALE
 70
     1
  9
$TREEDEPTH
 70
  3020
  9
$PICKSTYLE
 70
     1
  9
$CMLSTYLE
  2
STANDARD
  9
$CMLJUST
 70
     0
  9
$CMLSCALE
 40
20.0
  9
$SAVEIMAGES
 70
     1
  0
ENDSEC
  0
SECTION
  2
CLASSES
  0
CLASS
  1
DICTIONARYVAR
  2
AcDbDictionaryVar
  3
ObjectDBX Classes
 90
        0
280
     0
281
     0
  0
CLASS
  1
IDBUFFER
  2
AcDbIdBuffer
  3
ObjectDBX Classes
 90
    32768
280
     0
281
     0
  0
CLASS
  1
LWPOLYLINE
  2
AcDbPolyline
  3
ObjectDBX Classes
 90
    32768
280
     0
281
     1
  0
CLASS
  1
ACDBDICTIONARYWDFLT
  2
AcDbDictionaryWithDefault
  3
ObjectDBX Classes
 90
    32768
280
     0
281
     0
  0
CLASS
  1
ACDBPLACEHOLDER
  2
AcDbPlaceHolder
  3
ObjectDBX Classes
 90
        0
280
     0
281
     0
  0
CLASS
  1
LAYOUT
  2
AcDbLayout
  3
ObjectDBX Classes
 90
        0
280
     0
281
     0
  0
CLASS
  1
TABLESTYLE
  2
AcDbTableStyle
  3
ObjectDBX Classes
 90
     4095
280
     0
281
     0
  0
CLASS
  1
SORTENTSTABLE
  2
AcDbSortentsTable
  3
ObjectDBX Classes
 90
    32768
280
     0
281
     0
  0
CLASS
  1
DIMASSOC
  2
AcDbDimAssoc
  3
"AcDbDimAssoc|Product Desc:     AcDim ARX App For Dimension|Company:          Autodesk, Inc.|WEB Address:      www.autodesk.com"
 90
        0
280
     0
281
     0
  0
CLASS
  1
MATERIAL
  2
AcDbMaterial
  3
ObjectDBX Classes
 90
     1153
280
     0
281
     0
  0
CLASS
  1
VISUALSTYLE
  2
AcDbVisualStyle
  3
ObjectDBX Classes
 90
     4095
280
     0
281
     0
  0
CLASS
  1
SCALE
  2
AcDbScale
  3
ObjectDBX Classes
 90
     1153
280
     0
281
     0
  0
CLASS
  1
MLEADERSTYLE
  2
AcDbMLeaderStyle
  3
ACDB_MLEADERSTYLE_CLASS
 90
     4095
280
     0
281
     0
  0
CLASS
  1
CELLSTYLEMAP
  2
AcDbCellStyleMap
  3
ObjectDBX Classes
 90
     1152
280
     0
281
     0
  0
CLASS
  1
SUN
  2
AcDbSun
  3
SCENEOE
 90
     1153
280
     0
281
     0
  0
CLASS
  1
XRECORD
  2
AcDbXrecord
  3
ObjectDBX Classes
 90
    32768
280
     0
281
     0
  0
CLASS
  1
HATCH
  2
AcDbHatch
  3
ObjectDBX Classes
 90
    32768
280
     0
281
     1
  0
ENDSEC
  0
SECTION
  2
TABLES
  0
TABLE
  2
VPORT
  5
8
330
0
100
AcDbSymbolTable
 70
     1
  0
VPORT
  5
6533
330
8
100
AcDbSymbolTableRecord
100
AcDbViewportTableRecord
  2
*ACTIVE
 70
     0
 10
0.0
 20
0.0
 11
1.0
 21
1.0
 12
945.7598323456407
 22
1.460973815975947
 13
0.0
 23
0.0
 14
10.0
 24
10.0
 15
10.0
 25
10.0
 16
0.0
 26
0.0
 36
1.0
 17
0.0
 27
0.0
 37
0.0
 40
276.1914391303735
 41
1.803066037735849
 42
50.0
 43
0.0
 44
0.0
 50
0.0
 51
0.0
 71
    16
 72
  1000
 73
     1
 74
     1
 75
     0
 76
     0
 77
     0
 78
     1
1001
ACAD_NAV_VCDISPLAY
1070
     3
  0
ENDTAB
  0
TABLE
  2
LTYPE
  5
5
330
0
100
AcDbSymbolTable
 70
     3
  0
LTYPE
  5
12
330
5
100
AcDbSymbolTableRecord
100
AcDbLinetypeTableRecord
  2
BYBLOCK
 70
     0
  3

 72
    65
 73
     0
 40
0.0
  0
LTYPE
  5
13
330
5
100
AcDbSymbolTableRecord
100
AcDbLinetypeTableRecord
  2
BYLAYER
 70
     0
  3

 72
    65
 73
     0
 40
0.0
  0
LTYPE
  5
14
330
5
100
AcDbSymbolTableRecord
100
AcDbLinetypeTableRecord
  2
CONTINUOUS
 70
     0
  3
Solid line
 72
    65
 73
     0
 40
0.0
  0
LTYPE
  5
26
330
5
100
AcDbSymbolTableRecord
100
AcDbLinetypeTableRecord
  2
CENTER2
 70
     0
  3
Center (.5x) ___ _ ___ _ ___ _ ___ _ ___ _ ___
 72
    65
 73
     4
 40
28.575
 49
19.05
 74
     0
 49
-3.175
 74
     0
 49
3.175
 74
     0
 49
-3.175
 74
     0
  0
LTYPE
  5
100
330
5
100
AcDbSymbolTableRecord
100
AcDbLinetypeTableRecord
  2
PHANTOM2
 70
     0
  3
Phantom (0.5x) ___ _ _ ___ _ _ ___ _ _ ___ _ _
 72
    65
 73
     6
 40
31.75
 49
15.875
 74
     0
 49
-3.175
 74
     0
 49
3.175
 74
     0
 49
-3.175
 74
     0
 49
3.175
 74
     0
 49
-3.175
 74
     0
  0
ENDTAB
  0
TABLE
  2
LAYER
  5
2
102
{ACAD_XDICTIONARY
360
4591
102
}
330
0
100
AcDbSymbolTable
 70
     9
  0
LAYER
  5
E
102
{ACAD_XDICTIONARY
360
65DD
102
}
330
2
100
AcDbSymbolTableRecord
100
AcDbLayerTableRecord
  2
0
 70
     0
 62
     7
  6
CONTINUOUS
  0
LAYER
  5
29
102
{ACAD_XDICTIONARY
360
65DF
102
}
330
2
100
AcDbSymbolTableRecord
100
AcDbLayerTableRecord
  2
1CENTER
 70
     0
 62
     7
  6
CENTER2
  0
LAYER
  5
31
102
{ACAD_XDICTIONARY
360
65E1
102
}
330
2
100
AcDbSymbolTableRecord
100
AcDbLayerTableRecord
  2
1TEXT
 70
     0
 62
     7
  6
CONTINUOUS
  0
LAYER
  5
60
330
2
100
AcDbSymbolTableRecord
100
AcDbLayerTableRecord
  2
DEFPOINTS
 70
     0
 62
     7
  6
CONTINUOUS
  0
LAYER
  5
101
102
{ACAD_XDICTIONARY
360
65EB
102
}
330
2
100
AcDbSymbolTableRecord
100
AcDbLayerTableRecord
  2
1DIM
 70
     0
 62
     7
  6
CONTINUOUS
  0
LAYER
  5
103
102
{ACAD_XDICTIONARY
360
65EF
102
}
330
2
100
AcDbSymbolTableRecord
100
AcDbLayerTableRecord
  2
1PHANTOM
 70
     0
 62
     7
  6
PHANTOM2
  0
LAYER
  5
25F
102
{ACAD_XDICTIONARY
360
65F3
102
}
330
2
100
AcDbSymbolTableRecord
100
AcDbLayerTableRecord
  2
01
 70
     0
 62
     1
  6
CONTINUOUS
  0
LAYER
  5
26D
102
{ACAD_XDICTIONARY
360
660F
102
}
330
2
100
AcDbSymbolTableRecord
100
AcDbLayerTableRecord
  2
1HATCH
 70
     0
 62
     7
  6
CONTINUOUS
  0
LAYER
  5
276
102
{ACAD_XDICTIONARY
360
661F
102
}
330
2
100
AcDbSymbolTableRecord
100
AcDbLayerTableRecord
  2
THICK
 70
     0
 62
     7
  6
CONTINUOUS
  0
ENDTAB
  0
TABLE
  2
STYLE
  5
3
330
0
100
AcDbSymbolTable
 70
     1
  0
STYLE
  5
F
330
3
100
AcDbSymbolTableRecord
100
AcDbTextStyleTableRecord
  2
STANDARD
 70
     0
 40
0.0
 41
1.0
 50
0.0
 71
     0
 42
4.0
  3
txt.shx
  4
extfont.shx
  0
ENDTAB
  0
TABLE
  2
VIEW
  5
6
330
0
100
AcDbSymbolTable
 70
     0
  0
ENDTAB
  0
TABLE
  2
UCS
  5
7
330
0
100
AcDbSymbolTable
 70
     0
  0
ENDTAB
  0
TABLE
  2
APPID
  5
9
330
0
100
AcDbSymbolTable
 70
    18
  0
APPID
  5
10
330
9
100
AcDbSymbolTableRecord
100
AcDbRegAppTableRecord
  2
ACAD
 70
     0
  0
APPID
  5
21
330
9
100
AcDbSymbolTableRecord
100
AcDbRegAppTableRecord
  2
DRAWINGVARIABLESXDATA
 70
     0
  0
APPID
  5
64
330
9
100
AcDbSymbolTableRecord
100
AcDbRegAppTableRecord
  2
CONTENTTABDATA
 70
     0
  0
APPID
  5
65
330
9
100
AcDbSymbolTableRecord
100
AcDbRegAppTableRecord
  2
CONTENTCURRENTTAB
 70
     0
  0
APPID
  5
66
330
9
100
AcDbSymbolTableRecord
100
AcDbRegAppTableRecord
  2
CONTENTBLOCKDESCRIPTION
 70
     0
  0
APPID
  5
67
330
9
100
AcDbSymbolTableRecord
100
AcDbRegAppTableRecord
  2
CONTENTBLOCKICON
 70
     0
  0
APPID
  5
68
330
9
100
AcDbSymbolTableRecord
100
AcDbRegAppTableRecord
  2
CONTENTLONGBLOCKNAME
 70
     0
  0
APPID
  5
156D
330
9
100
AcDbSymbolTableRecord
100
AcDbRegAppTableRecord
  2
ACAD_PSEXT
 70
     0
  0
APPID
  5
658B
330
9
100
AcDbSymbolTableRecord
100
AcDbRegAppTableRecord
  2
ACAD_MLEADERVER
 70
     0
  0
APPID
  5
65B1
330
9
100
AcDbSymbolTableRecord
100
AcDbRegAppTableRecord
  2
ACAD_DSTYLE_DIMJAG
 70
     0
  0
APPID
  5
65B2
330
9
100
AcDbSymbolTableRecord
100
AcDbRegAppTableRecord
  2
ACAD_DSTYLE_DIMTALN
 70
     0
  0
APPID
  5
7061
330
9
100
AcDbSymbolTableRecord
100
AcDbRegAppTableRecord
  2
ACAD_DSTYLE_DIMRADIAL_EXTE
 70
     0
  0
APPID
  5
7DBD
330
9
100
AcDbSymbolTableRecord
100
AcDbRegAppTableRecord
  2
ACAD_EXEMPT_FROM_CAD_STAND
 70
     0
  0
APPID
  5
7ECA
330
9
100
AcDbSymbolTableRecord
100
AcDbRegAppTableRecord
  2
ACADANNOTATIVE
 70
     0
  0
APPID
  5
81D7
330
9
100
AcDbSymbolTableRecord
100
AcDbRegAppTableRecord
  2
ACAD_NAV_VCDISPLAY
 70
     0
  0
APPID
  5
8922
330
9
100
AcDbSymbolTableRecord
100
AcDbRegAppTableRecord
  2
ACDBBLOCKREPETAG
 70
     0
  0
APPID
  5
8923
330
9
100
AcDbSymbolTableRecord
100
AcDbRegAppTableRecord
  2
ACLAYERTOOLS
 70
     0
  0
APPID
  5
8924
330
9
100
AcDbSymbolTableRecord
100
AcDbRegAppTableRecord
  2
ACAD_DSTYLE_DIMJOGGED_JOGA
 70
     0
  0
ENDTAB
  0
TABLE
  2
DIMSTYLE
  5
A
330
0
100
AcDbSymbolTable
 70
     1
  0
DIMSTYLE
105
48
330
A
100
AcDbSymbolTableRecord
100
AcDbDimStyleTableRecord
  2
NEWX10
 70
     0
  3
 
  4

  5

  6
OPEN30
  7
OPEN30
 40
1.0
 41
2.0
 42
0.0
 43
7.0
 44
1.0
 45
0.0
 46
0.0
 47
0.0
 48
0.0
140
3.5
141
0.0
142
0.0
143
25.4
144
1.0
145
0.0
146
0.7
147
0.7
 71
     0
 72
     0
 73
     0
 74
     0
 75
     0
 76
     0
 77
     1
 78
     8
170
     0
171
     2
172
     1
173
     1
174
     0
175
     0
176
   256
177
   256
178
   201
179
     3
270
     2
271
     6
272
     4
273
     2
274
     2
340
F
275
     0
280
     0
281
     0
282
     0
283
     1
284
     8
285
     0
286
     0
287
     2
288
     0
  0
ENDTAB
  0
TABLE
  2
BLOCK_RECORD
  5
1
330
0
100
AcDbSymbolTable
 70
    10
  0
BLOCK_RECORD
  5
18
102
{ACAD_XDICTIONARY
360
510
102
}
330
1
100
AcDbSymbolTableRecord
100
AcDbBlockTableRecord
  2
*MODEL_SPACE
  0
BLOCK_RECORD
  5
15
102
{ACAD_XDICTIONARY
360
2CDB
102
}
330
1
100
AcDbSymbolTableRecord
100
AcDbBlockTableRecord
  2
*PAPER_SPACE
  0
BLOCK_RECORD
  5
42
330
1
100
AcDbSymbolTableRecord
100
AcDbBlockTableRecord
  2
_OPEN30
  0
BLOCK_RECORD
  5
2C75
330
1
100
AcDbSymbolTableRecord
100
AcDbBlockTableRecord
  2
部品表枠
  0
BLOCK_RECORD
  5
3D92
330
1
100
AcDbSymbolTableRecord
100
AcDbBlockTableRecord
  2
*D15
  0
BLOCK_RECORD
  5
84D0
330
1
100
AcDbSymbolTableRecord
100
AcDbBlockTableRecord
  2
A3WAKUKAWAJUN2017_HYOUDAI_
  0
BLOCK_RECORD
  5
8BCD
330
1
100
AcDbSymbolTableRecord
100
AcDbBlockTableRecord
  2
*X48
  0
BLOCK_RECORD
  5
8C1B
330
1
100
AcDbSymbolTableRecord
100
AcDbBlockTableRecord
  2
*X49
  0
BLOCK_RECORD
  5
8C6D
330
1
100
AcDbSymbolTableRecord
100
AcDbBlockTableRecord
  2
*X50
  0
BLOCK_RECORD
  5
8CBE
330
1
100
AcDbSymbolTableRecord
100
AcDbBlockTableRecord
  2
*X51
  0
BLOCK_RECORD
  5
8CFB
330
1
100
AcDbSymbolTableRecord
100
AcDbBlockTableRecord
  2
*X52
  0
BLOCK_RECORD
  5
8D3B
330
1
100
AcDbSymbolTableRecord
100
AcDbBlockTableRecord
  2
*X53
  0
ENDTAB
  0
ENDSEC
  0
SECTION
  2
BLOCKS
  0
BLOCK
  5
19
330
18
100
AcDbEntity
  8
0
100
AcDbBlockBegin
  2
*MODEL_SPACE
 70
     0
 10
0.0
 20
0.0
 30
0.0
  3
*MODEL_SPACE
  1

  0
ENDBLK
  5
1A
330
18
100
AcDbEntity
  8
0
100
AcDbBlockEnd
  0
BLOCK
  5
16
330
15
100
AcDbEntity
 67
     1
  8
0
100
AcDbBlockBegin
  2
*PAPER_SPACE
 70
     0
 10
0.0
 20
0.0
 30
0.0
  3
*PAPER_SPACE
  1

  0
ENDBLK
  5
17
330
15
100
AcDbEntity
 67
     1
  8
0
100
AcDbBlockEnd
  0
BLOCK
  5
43
330
42
100
AcDbEntity
  8
0
100
AcDbBlockBegin
  2
_OPEN30
 70
     0
 10
0.0
 20
0.0
 30
0.0
  3
_OPEN30
  1

  0
LINE
  5
44
330
42
100
AcDbEntity
  8
0
  6
BYBLOCK
 62
     0
100
AcDbLine
 10
-1.0
 20
0.26794919
 30
0.0
 11
0.0
 21
0.0
 31
0.0
  0
LINE
  5
45
330
42
100
AcDbEntity
  8
0
  6
BYBLOCK
 62
     0
100
AcDbLine
 10
0.0
 20
0.0
 30
0.0
 11
-1.0
 21
-0.26794919
 31
0.0
  0
LINE
  5
46
330
42
100
AcDbEntity
  8
0
  6
BYBLOCK
 62
     0
100
AcDbLine
 10
0.0
 20
0.0
 30
0.0
 11
-1.0
 21
0.0
 31
0.0
  0
ENDBLK
  5
47
330
42
100
AcDbEntity
  8
0
100
AcDbBlockEnd
  0
BLOCK
  5
2C76
330
2C75
100
AcDbEntity
  8
0
100
AcDbBlockBegin
  2
部品表枠
 70
     0
 10
0.0
 20
0.0
 30
0.0
  3
部品表枠
  1

  0
LINE
  5
2C77
330
2C75
100
AcDbEntity
  8
THICK
100
AcDbLine
 10
0.0000276283344682
 20
0.0000042971153675
 30
0.0
 11
0.0000276283344682
 21
7.000004297115368
 31
0.0
  0
LINE
  5
2C78
330
2C75
100
AcDbEntity
  8
0
100
AcDbLine
 10
0.0000276283344682
 20
7.000004297115368
 30
0.0
 11
170.0000276283345
 21
7.000004297115368
 31
0.0
  0
LINE
  5
2C79
330
2C75
100
AcDbEntity
  8
0
100
AcDbLine
 10
8.000027628334468
 20
7.000004297115368
 30
0.0
 11
8.000027628334468
 21
0.0000042971153675
 31
0.0
  0
LINE
  5
2C7A
330
2C75
100
AcDbEntity
  8
0
100
AcDbLine
 10
38.00002762833446
 20
7.000004297115368
 30
0.0
 11
38.00002762833446
 21
0.0000042971153675
 31
0.0
  0
LINE
  5
2C7B
330
2C75
100
AcDbEntity
  8
0
100
AcDbLine
 10
88.00002762833446
 20
7.000004297115368
 30
0.0
 11
88.00002762833446
 21
0.0000042971153675
 31
0.0
  0
LINE
  5
2C7C
330
2C75
100
AcDbEntity
  8
0
100
AcDbLine
 10
96.00002762833446
 20
7.000004297115368
 30
0.0
 11
96.00002762833446
 21
0.0000042971153675
 31
0.0
  0
LINE
  5
2C7D
330
2C75
100
AcDbEntity
  8
0
100
AcDbLine
 10
131.0000276283345
 20
7.000004297115368
 30
0.0
 11
131.0000276283345
 21
0.0000042971153675
 31
0.0
  0
ENDBLK
  5
2C7E
330
2C75
100
AcDbEntity
  8
0
100
AcDbBlockEnd
  0
BLOCK
  5
3D93
330
3D92
100
AcDbEntity
  8
0
100
AcDbBlockBegin
  2
*D15
 70
     1
 10
0.0
 20
0.0
 30
0.0
  3
*D15
  1

  0
LINE
  5
3D94
330
3D92
100
AcDbEntity
  8
0
  6
BYBLOCK
100
AcDbLine
 10
400.1424666521431
 20
670.6077049007524
 30
0.0
 11
412.448605187235
 21
677.4216659709555
 31
0.0
  0
LINE
  5
3D95
330
3D92
100
AcDbEntity
  8
0
  6
BYBLOCK
100
AcDbLine
 10
397.955356722917
 20
669.3966928622073
 30
0.0
 11
398.392778708765
 21
669.6388952699181
 31
0.0
  0
INSERT
  5
3D96
330
3D92
100
AcDbEntity
  8
0
  6
BYBLOCK
100
AcDbBlockReference
  2
_OPEN30
 10
398.392778708765
 20
669.6388952699181
 30
0.0
 41
2.0
 42
2.0
 43
2.0
 50
208.9734848935719
  0
MTEXT
  5
3D97
330
3D92
100
AcDbEntity
  8
0
  6
BYBLOCK
 62
   201
100
AcDbMText
 10
405.9835880936057
 20
676.6424579819093
 30
0.0
 40
3.5
 41
0.0
 71
     5
 72
     1
  1
\A1;R0.5 
 11
0.874843971688987
 21
0.4844048154172696
 31
0.0
  0
POINT
  5
3D98
330
3D92
100
AcDbEntity
  8
DEFPOINTS
  6
BYBLOCK
 62
     0
100
AcDbPoint
 10
398.392778708765
 20
669.6388952699181
 30
0.0
  0
POINT
  5
3D99
330
3D92
100
AcDbEntity
  8
DEFPOINTS
  6
BYBLOCK
 62
     0
100
AcDbPoint
 10
397.955356722917
 20
669.3966928622073
 30
0.0
  0
ENDBLK
  5
3D9A
330
3D92
100
AcDbEntity
  8
0
100
AcDbBlockEnd
  0
BLOCK
  5
84D1
330
84D0
100
AcDbEntity
  8
0
100
AcDbBlockBegin
  2
A3WAKUKAWAJUN2017_HYOUDAI_
 70
     0
 10
0.0
 20
0.0
 30
0.0
  3
A3WAKUKAWAJUN2017_HYOUDAI_
  1

  0
LINE
  5
84D2
330
84D0
100
AcDbEntity
  8
0
100
AcDbLine
 10
13.26299999998673
 20
-0.0001000000000317
 30
0.0
 11
9.236999999990758
 21
8.999899999990987
 31
0.0
1001
ACAD
1000
ASC_BOUNDS
1002
{
1070
    19
1005
8513
1002
}
  0
LINE
  5
84D3
330
84D0
100
AcDbEntity
  8
0
100
AcDbLine
 10
5.657999999994331
 20
0.9999999999989768
 30
0.0
 11
9.236999999990758
 21
8.999999999991019
 31
0.0
1001
ACAD
1000
ASC_BOUNDS
1002
{
1070
    19
1005
8513
1002
}
  0
LINE
  5
84D4
330
84D0
100
AcDbEntity
  8
0
100
AcDbLine
 10
18.59199999998134
 20
-0.2368999999997641
 30
0.0
 11
16.46099999998353
 21
5.432899999994561
 31
0.0
1001
ACAD
1000
ASC_BOUNDS
1002
{
1070
    19
1005
8514
1002
}
  0
LINE
  5
84D5
330
84D0
100
AcDbEntity
  8
0
100
AcDbLine
 10
18.59199999998134
 20
-0.2368999999997641
 30
0.0
 11
22.38199999997767
 21
8.763099999991255
 31
0.0
1001
ACAD
1000
ASC_BOUNDS
1002
{
1070
    19
1005
8514
1002
}
  0
LINE
  5
84D6
330
84D0
100
AcDbEntity
  8
0
100
AcDbLine
 10
14.32899999998563
 20
-0.2368999999997641
 30
0.0
 11
16.46099999998353
 21
5.432899999994561
 31
0.0
1001
ACAD
1000
ASC_BOUNDS
1002
{
1070
    19
1005
8514
1002
}
  0
LINE
  5
84D7
330
84D0
100
AcDbEntity
  8
0
100
AcDbLine
 10
14.32899999998563
 20
-0.2368999999997641
 30
0.0
 11
10.53899999998941
 21
8.763099999991255
 31
0.0
1001
ACAD
1000
ASC_BOUNDS
1002
{
1070
    19
1005
8514
1002
}
  0
LINE
  5
84D8
330
84D0
100
AcDbEntity
  8
0
100
AcDbLine
 10
19.53899999998043
 20
-0.0001000000000317
 30
0.0
 11
23.56599999997638
 21
8.999899999990987
 31
0.0
1001
ACAD
1000
ASC_BOUNDS
1002
{
1070
    19
1005
8515
1002
}
  0
LINE
  5
84D9
330
84D0
100
AcDbEntity
  8
0
100
AcDbLine
 10
26.97358892824991
 20
1.383099999991202
 30
0.0
 11
23.56599999997638
 21
8.999899999990987
 31
0.0
1001
ACAD
1000
ASC_BOUNDS
1002
{
1070
    19
1005
8515
1002
}
  0
LINE
  5
84DA
330
84D0
100
AcDbEntity
  8
0
100
AcDbLine
 10
5.657999999994331
 20
0.9999999999989768
 30
0.0
 11
3.181999999996833
 21
4.668599999995308
 31
0.0
1001
ACAD
1000
ASC_BOUNDS
1002
{
1070
    19
1005
8513
1002
}
  0
LINE
  5
84DB
330
84D0
100
AcDbEntity
  8
0
100
AcDbLine
 10
4.617999999995391
 20
-0.0001000000000317
 30
0.0
 11
1.420999999998571
 21
4.736799999995242
 31
0.0
1001
ACAD
1000
ASC_BOUNDS
1002
{
1070
    19
1005
8513
1002
}
  0
LINE
  5
84DC
330
84D0
100
AcDbEntity
  8
0
100
AcDbLine
 10
1.420999999998571
 20
8.763099999991255
 30
0.0
 11
1.420999999998571
 21
0.0
 31
0.0
1001
ACAD
1000
ASC_BOUNDS
1002
{
1070
    19
1005
8518
1002
}
  0
LINE
  5
84DD
330
84D0
100
AcDbEntity
  8
0
100
AcDbLine
 10
0.0
 20
8.763099999991255
 30
0.0
 11
0.0
 21
0.0
 31
0.0
1001
ACAD
1000
ASC_BOUNDS
1002
{
1070
    19
1005
8518
1002
}
  0
LINE
  5
84DE
330
84D0
100
AcDbEntity
  8
0
100
AcDbLine
 10
6.766999999993232
 20
-0.0001000000000317
 30
0.0
 11
7.826999999992154
 21
2.368399999997621
 31
0.0
1001
ACAD
1000
ASC_BOUNDS
1002
{
1070
    19
1005
8513
1002
}
  0
LINE
  5
84DF
330
84D0
100
AcDbEntity
  8
0
100
AcDbLine
 10
0.0
 20
0.0
 30
0.0
 11
1.420999999998571
 21
0.0
 31
0.0
1001
ACAD
1000
ASC_BOUNDS
1002
{
1070
    19
1005
8518
1002
}
  0
LINE
  5
84E0
330
84D0
100
AcDbEntity
  8
0
100
AcDbLine
 10
4.617999999995391
 20
0.0
 30
0.0
 11
6.766999999993232
 21
0.0
 31
0.0
1001
ACAD
1000
ASC_BOUNDS
1002
{
1070
    19
1005
8513
1002
}
  0
LINE
  5
84E1
330
84D0
100
AcDbEntity
  8
0
100
AcDbLine
 10
11.70599999998831
 20
-0.0001000000000317
 30
0.0
 11
10.64699999998936
 21
2.368399999997621
 31
0.0
1001
ACAD
1000
ASC_BOUNDS
1002
{
1070
    19
1005
8513
1002
}
  0
LINE
  5
84E2
330
84D0
100
AcDbEntity
  8
0
100
AcDbLine
 10
7.826999999992154
 20
2.368399999997621
 30
0.0
 11
10.64699999998936
 21
2.368399999997621
 31
0.0
1001
ACAD
1000
ASC_BOUNDS
1002
{
1070
    19
1005
8513
1002
}
  0
LINE
  5
84E3
330
84D0
100
AcDbEntity
  8
0
100
AcDbLine
 10
11.70599999998831
 20
0.0
 30
0.0
 11
13.26299999998673
 21
0.0
 31
0.0
1001
ACAD
1000
ASC_BOUNDS
1002
{
1070
    19
1005
8513
1002
}
  0
LINE
  5
84E4
330
84D0
100
AcDbEntity
  8
0
100
AcDbLine
 10
22.15599999997789
 20
2.368399999997621
 30
0.0
 11
24.97599999997499
 21
2.368399999997621
 31
0.0
1001
ACAD
1000
ASC_BOUNDS
1002
{
1070
    19
1005
8515
1002
}
  0
LINE
  5
84E5
330
84D0
100
AcDbEntity
  8
0
100
AcDbLine
 10
19.53899999998043
 20
0.0
 30
0.0
 11
21.09599999997886
 21
0.0
 31
0.0
1001
ACAD
1000
ASC_BOUNDS
1002
{
1070
    19
1005
8515
1002
}
  0
LINE
  5
84E6
330
84D0
100
AcDbEntity
  8
0
100
AcDbLine
 10
21.09599999997886
 20
-0.0001000000000317
 30
0.0
 11
22.15599999997789
 21
2.368399999997621
 31
0.0
1001
ACAD
1000
ASC_BOUNDS
1002
{
1070
    19
1005
8515
1002
}
  0
LINE
  5
84E7
330
84D0
100
AcDbEntity
  8
0
100
AcDbLine
 10
26.02015566812236
 20
0.0330999999912365
 30
0.0
 11
24.97599999997499
 21
2.368399999997621
 31
0.0
1001
ACAD
1000
ASC_BOUNDS
1002
{
1070
    19
1005
8515
1002
}
  0
LINE
  5
84E8
330
84D0
100
AcDbEntity
  8
0
100
AcDbLine
 10
14.32399999998563
 20
3.315799999996671
 30
0.0
 11
16.46099999998353
 21
8.999899999990987
 31
0.0
1001
ACAD
1000
ASC_BOUNDS
1002
{
1070
    19
1005
8514
1002
}
  0
LINE
  5
84E9
330
84D0
100
AcDbEntity
  8
0
100
AcDbLine
 10
6.432999999993513
 20
8.763099999991255
 30
0.0
 11
3.181999999996833
 21
4.668599999995308
 31
0.0
1001
ACAD
1000
ASC_BOUNDS
1002
{
1070
    19
1005
8513
1002
}
  0
LINE
  5
84EA
330
84D0
100
AcDbEntity
  8
0
100
AcDbLine
 10
4.617999999995391
 20
8.763099999991255
 30
0.0
 11
1.420999999998571
 21
4.736799999995242
 31
0.0
1001
ACAD
1000
ASC_BOUNDS
1002
{
1070
    19
1005
8513
1002
}
  0
LINE
  5
84EB
330
84D0
100
AcDbEntity
  8
0
100
AcDbLine
 10
0.0
 20
8.763099999991255
 30
0.0
 11
1.420999999998571
 21
8.763099999991255
 31
0.0
1001
ACAD
1000
ASC_BOUNDS
1002
{
1070
    19
1005
8518
1002
}
  0
LINE
  5
84EC
330
84D0
100
AcDbEntity
  8
0
100
AcDbLine
 10
4.617999999995391
 20
8.763099999991255
 30
0.0
 11
6.432999999993513
 21
8.763099999991255
 31
0.0
1001
ACAD
1000
ASC_BOUNDS
1002
{
1070
    19
1005
8513
1002
}
  0
LINE
  5
84ED
330
84D0
100
AcDbEntity
  8
0
100
AcDbLine
 10
14.32399999998563
 20
3.315799999996671
 30
0.0
 11
12.02999999998792
 21
8.763099999991255
 31
0.0
1001
ACAD
1000
ASC_BOUNDS
1002
{
1070
    19
1005
8514
1002
}
  0
LINE
  5
84EE
330
84D0
100
AcDbEntity
  8
0
100
AcDbLine
 10
10.06399999998996
 20
3.670999999996297
 30
0.0
 11
9.236999999990758
 21
5.5200999999945
 31
0.0
1001
ACAD
1000
ASC_BOUNDS
1002
{
1070
    19
1005
8513
1002
}
  0
LINE
  5
84EF
330
84D0
100
AcDbEntity
  8
0
100
AcDbLine
 10
8.409999999991555
 20
3.670999999996297
 30
0.0
 11
9.236999999990758
 21
5.5200999999945
 31
0.0
1001
ACAD
1000
ASC_BOUNDS
1002
{
1070
    19
1005
8513
1002
}
  0
LINE
  5
84F0
330
84D0
100
AcDbEntity
  8
0
100
AcDbLine
 10
8.409999999991555
 20
3.670999999996297
 30
0.0
 11
10.06399999998996
 21
3.670999999996297
 31
0.0
1001
ACAD
1000
ASC_BOUNDS
1002
{
1070
    19
1005
8513
1002
}
  0
LINE
  5
84F1
330
84D0
100
AcDbEntity
  8
0
100
AcDbLine
 10
10.53899999998941
 20
8.763099999991255
 30
0.0
 11
12.02999999998792
 21
8.763099999991255
 31
0.0
1001
ACAD
1000
ASC_BOUNDS
1002
{
1070
    19
1005
8514
1002
}
  0
LINE
  5
84F2
330
84D0
100
AcDbEntity
  8
0
100
AcDbLine
 10
22.7389999999773
 20
3.670999999996297
 30
0.0
 11
23.56599999997638
 21
5.5200999999945
 31
0.0
1001
ACAD
1000
ASC_BOUNDS
1002
{
1070
    19
1005
8515
1002
}
  0
LINE
  5
84F3
330
84D0
100
AcDbEntity
  8
0
100
AcDbLine
 10
22.7389999999773
 20
3.670999999996297
 30
0.0
 11
24.39299999997559
 21
3.670999999996297
 31
0.0
1001
ACAD
1000
ASC_BOUNDS
1002
{
1070
    19
1005
8515
1002
}
  0
LINE
  5
84F4
330
84D0
100
AcDbEntity
  8
0
100
AcDbLine
 10
18.59799999998143
 20
3.315799999996671
 30
0.0
 11
20.89099999997916
 21
8.763099999991255
 31
0.0
1001
ACAD
1000
ASC_BOUNDS
1002
{
1070
    19
1005
8514
1002
}
  0
LINE
  5
84F5
330
84D0
100
AcDbEntity
  8
0
100
AcDbLine
 10
18.59799999998143
 20
3.315799999996671
 30
0.0
 11
16.46099999998353
 21
8.999899999990987
 31
0.0
1001
ACAD
1000
ASC_BOUNDS
1002
{
1070
    19
1005
8514
1002
}
  0
LINE
  5
84F6
330
84D0
100
AcDbEntity
  8
0
100
AcDbLine
 10
20.89099999997916
 20
8.763099999991255
 30
0.0
 11
22.38199999997767
 21
8.763099999991255
 31
0.0
1001
ACAD
1000
ASC_BOUNDS
1002
{
1070
    19
1005
8514
1002
}
  0
LINE
  5
84F7
330
84D0
100
AcDbEntity
  8
0
100
AcDbLine
 10
24.39299999997559
 20
3.670999999996297
 30
0.0
 11
23.56599999997638
 21
5.5200999999945
 31
0.0
1001
ACAD
1000
ASC_BOUNDS
1002
{
1070
    19
1005
8515
1002
}
  0
LINE
  5
84F8
330
84D0
100
AcDbEntity
  8
0
100
AcDbLine
 10
44.99999999995498
 20
-0.2368999999997641
 30
0.0
 11
40.02599999995994
 21
5.341799999994635
 31
0.0
1001
ACAD
1000
ASC_BOUNDS
1002
{
1070
    19
1005
8517
1002
}
  0
LINE
  5
84F9
330
84D0
100
AcDbEntity
  8
0
100
AcDbLine
 10
40.02599999995994
 20
5.341799999994635
 30
0.0
 11
40.02599999995994
 21
0.0
 31
0.0
1001
ACAD
1000
ASC_BOUNDS
1002
{
1070
    19
1005
8517
1002
}
  0
LINE
  5
84FA
330
84D0
100
AcDbEntity
  8
0
100
AcDbLine
 10
38.60499999996136
 20
8.999999999991019
 30
0.0
 11
38.60499999996136
 21
0.0
 31
0.0
1001
ACAD
1000
ASC_BOUNDS
1002
{
1070
    19
1005
8517
1002
}
  0
LINE
  5
84FB
330
84D0
100
AcDbEntity
  8
0
100
AcDbLine
 10
44.99999999995498
 20
8.763099999991255
 30
0.0
 11
44.99999999995498
 21
-0.2368999999997641
 31
0.0
1001
ACAD
1000
ASC_BOUNDS
1002
{
1070
    19
1005
8517
1002
}
  0
LINE
  5
84FC
330
84D0
100
AcDbEntity
  8
0
100
AcDbLine
 10
38.60499999996136
 20
0.0
 30
0.0
 11
40.02599999995994
 21
0.0
 31
0.0
1001
ACAD
1000
ASC_BOUNDS
1002
{
1070
    19
1005
8517
1002
}
  0
LINE
  5
84FD
330
84D0
100
AcDbEntity
  8
0
100
AcDbLine
 10
43.57899999995641
 20
3.421199999996588
 30
0.0
 11
38.60499999996136
 21
8.999899999990987
 31
0.0
1001
ACAD
1000
ASC_BOUNDS
1002
{
1070
    19
1005
8517
1002
}
  0
LINE
  5
84FE
330
84D0
100
AcDbEntity
  8
0
100
AcDbLine
 10
43.57899999995641
 20
8.763099999991255
 30
0.0
 11
43.57899999995641
 21
3.421199999996588
 31
0.0
1001
ACAD
1000
ASC_BOUNDS
1002
{
1070
    19
1005
8517
1002
}
  0
LINE
  5
84FF
330
84D0
100
AcDbEntity
  8
0
100
AcDbLine
 10
43.57899999995641
 20
8.763099999991255
 30
0.0
 11
44.99999999995498
 21
8.763099999991255
 31
0.0
1001
ACAD
1000
ASC_BOUNDS
1002
{
1070
    19
1005
8517
1002
}
  0
LINE
  5
8500
330
84D0
100
AcDbEntity
  8
0
100
AcDbLine
 10
37.67199999996831
 20
8.763099999991255
 30
0.0
 11
36.23199999996837
 21
8.763099999991255
 31
0.0
  0
LINE
  5
8501
330
84D0
100
AcDbEntity
  8
0
100
AcDbLine
 10
31.64199999996833
 20
8.763099999991255
 30
0.0
 11
31.64199999996833
 21
2.481619422925121
 31
0.0
  0
LINE
  5
8502
330
84D0
100
AcDbEntity
  8
0
100
AcDbLine
 10
37.67199999996831
 20
8.763099999991255
 30
0.0
 11
37.67199999996831
 21
2.481619422925121
 31
0.0
  0
LINE
  5
8503
330
84D0
100
AcDbEntity
  8
0
100
AcDbLine
 10
36.23199999996837
 20
8.763099999991255
 30
0.0
 11
36.23199999996837
 21
2.481619422925064
 31
0.0
  0
LINE
  5
8504
330
84D0
100
AcDbEntity
  8
0
100
AcDbLine
 10
33.08199999996839
 20
8.763099999991255
 30
0.0
 11
33.08199999996839
 21
2.481619422925121
 31
0.0
  0
ARC
  5
8505
330
84D0
100
AcDbEntity
  8
0
100
AcDbCircle
 10
34.65699999996832
 20
3.183099999991214
 30
0.0
 40
3.420000000000007
100
AcDbArc
 50
240.0000000000255
 51
299.9999999999766
  0
ARC
  5
8506
330
84D0
100
AcDbEntity
  8
0
100
AcDbCircle
 10
34.65699999996832
 20
3.183099999991214
 30
0.0
 40
1.97999999999999
100
AcDbArc
 50
240.000000000026
 51
299.9999999999703
  0
LINE
  5
8507
330
84D0
100
AcDbEntity
  8
0
100
AcDbLine
 10
33.08199999996828
 20
8.763099999991255
 30
0.0
 11
31.64199999996833
 21
8.763099999991255
 31
0.0
  0
ARC
  5
8508
330
84D0
100
AcDbEntity
  8
0
100
AcDbCircle
 10
35.06199999996829
 20
2.481619422925064
 30
0.0
 40
1.17
100
AcDbArc
 50
299.9999999999699
 51
0.0
  0
ARC
  5
8509
330
84D0
100
AcDbEntity
  8
0
100
AcDbCircle
 10
34.25199999996835
 20
2.481619422925121
 30
0.0
 40
1.17
100
AcDbArc
 50
180.0
 51
240.0000000000238
  0
ARC
  5
850A
330
84D0
100
AcDbEntity
  8
0
100
AcDbCircle
 10
35.06199999996841
 20
2.481619422925121
 30
0.0
 40
2.61
100
AcDbArc
 50
299.9999999999756
 51
0.0
  0
ARC
  5
850B
330
84D0
100
AcDbEntity
  8
0
100
AcDbCircle
 10
34.25199999996835
 20
2.481619422925121
 30
0.0
 40
2.61
100
AcDbArc
 50
180.0
 51
240.0000000000244
  0
LINE
  5
850C
330
84D0
100
AcDbEntity
  8
0
100
AcDbLine
 10
29.30199999996933
 20
8.763099999991255
 30
0.0
 11
30.74199999996927
 21
8.763099999991255
 31
0.0
1001
ACAD
1000
ASC_BOUNDS
1002
{
1070
    19
1005
8515
1002
}
  0
LINE
  5
850D
330
84D0
100
AcDbEntity
  8
0
100
AcDbLine
 10
30.74199999996927
 20
8.763099999991255
 30
0.0
 11
30.74199999996927
 21
2.373099999991211
 31
0.0
1001
ACAD
1000
ASC_BOUNDS
1002
{
1070
    19
1005
8515
1002
}
  0
LINE
  5
850E
330
84D0
100
AcDbEntity
  8
0
100
AcDbLine
 10
26.02015566812236
 20
0.0330999999912365
 30
0.0
 11
28.40199999996923
 21
0.0330999999912365
 31
0.0
1001
ACAD
1000
ASC_BOUNDS
1002
{
1070
    19
1005
8515
1002
}
  0
LINE
  5
850F
330
84D0
100
AcDbEntity
  8
0
100
AcDbLine
 10
29.30199999996933
 20
8.763099999991255
 30
0.0
 11
29.30199999996933
 21
2.283099999991236
 31
0.0
1001
ACAD
1000
ASC_BOUNDS
1002
{
1070
    19
1005
8515
1002
}
  0
LINE
  5
8510
330
84D0
100
AcDbEntity
  8
0
100
AcDbLine
 10
26.97358892824991
 20
1.383099999991202
 30
0.0
 11
28.40199999996923
 21
1.383099999991202
 31
0.0
1001
ACAD
1000
ASC_BOUNDS
1002
{
1070
    19
1005
8515
1002
}
  0
ARC
  5
8511
330
84D0
100
AcDbEntity
  8
0
100
AcDbCircle
 10
28.40199999996923
 20
2.283099999991236
 30
0.0
 40
0.9
100
AcDbArc
 50
270.0
 51
0.0
1001
ACAD
1000
ASC_BOUNDS
1002
{
1070
    19
1005
8515
1002
}
  0
ARC
  5
8512
330
84D0
100
AcDbEntity
  8
0
100
AcDbCircle
 10
28.40199999996923
 20
2.373099999991211
 30
0.0
 40
2.34
100
AcDbArc
 50
270.0
 51
0.0
1001
ACAD
1000
ASC_BOUNDS
1002
{
1070
    19
1005
8515
1002
}
  0
INSERT
  5
8513
330
84D0
100
AcDbEntity
  8
0
100
AcDbBlockReference
  2
*X48
 10
0.0
 20
0.0
 30
0.0
1001
ACAD
1000
HATCH
1002
{
1070
    19
1000
ANSI37
1040
0.15
1040
0.0
1000
ASC_BOUNDS
1070
     2
1070
     2
1070
    12
1005
84D2
1005
84D3
1005
84DA
1005
84E9
1005
84EC
1005
84EA
1005
84DB
1005
84E0
1005
84DE
1005
84E2
1005
84E1
1005
84E3
1070
     2
1070
     3
1005
84EE
1005
84F0
1005
84EF
1000
ASC_SEEDPOINT
1011
3.614004224891801
1021
2.996669441146025
1031
0.0
1000
R14_HATCH_DATA
1000
8513
1011
1.0
1021
0.0
1031
0.0
1011
0.0
1021
1.0
1031
0.0
1011
0.0
1021
0.0
1031
1.0
1040
0.0
1010
0.0
1020
0.0
1030
1.0
1000
ANSI37
1070
     0
1070
     1
1071
        2
1071
        7
1070
     0
1070
     1
1071
       17
1040
13.26299999998673
1040
-0.0001000000000317
1040
9.236999999990758
1040
8.999899999990987
1040
9.236999999990758
1040
8.999999999991019
1040
5.657999999994331
1040
0.9999999999989768
1040
3.181999999996833
1040
4.668599999995308
1040
6.432999999993513
1040
8.763099999991255
1040
4.617999999995391
1040
8.763099999991255
1040
1.420999999998571
1040
4.736799999995242
1040
4.617999999995391
1040
-0.0001000000000317
1040
4.617999999995391
1040
0.0
1040
6.766999999993232
1040
0.0
1040
6.766999999993232
1040
-0.0001000000000317
1040
7.826999999992154
1040
2.368399999997621
1040
10.64699999998936
1040
2.368399999997621
1040
11.70599999998831
1040
-0.0001000000000317
1040
11.70599999998831
1040
0.0
1040
13.26299999998673
1040
0.0
1071
       12
1005
84D2
1005
84D3
1005
84DA
1005
84E9
1005
84EC
1005
84EA
1005
84DB
1005
84E0
1005
84DE
1005
84E2
1005
84E1
1005
84E3
1071
       22
1070
     0
1070
     1
1071
        3
1040
9.236999999990758
1040
5.5200999999945
1040
10.06399999998996
1040
3.670999999996297
1040
8.409999999991555
1040
3.670999999996297
1071
        3
1005
84EE
1005
84F0
1005
84EF
1070
     0
1070
     1
1040
0.0
1040
0.15
1070
     0
1070
     2
1040
0.7853981633974483
1040
49.29960901727088
1040
-10.17736998311392
1040
-0.3367596045400932
1040
0.3367596045400932
1070
     0
1040
2.356194490192345
1040
49.29960901727088
1040
-10.17736998311392
1040
-0.3367596045400932
1040
-0.3367596045400932
1070
     0
1040
0.0110235143455945
1071
        2
1040
3.614004224891801
1040
2.996669441146025
1040
0.0
1040
3.614004224891801
1040
2.996669441146025
1040
0.0
1002
}
  0
INSERT
  5
8514
330
84D0
100
AcDbEntity
  8
0
100
AcDbBlockReference
  2
*X49
 10
0.0
 20
0.0
 30
0.0
1001
ACAD
1000
HATCH
1002
{
1070
    19
1000
ANSI37
1040
0.15
1040
0.0
1000
ASC_BOUNDS
1070
     1
1070
     2
1070
    10
1005
84D4
1005
84D5
1005
84F6
1005
84F4
1005
84F5
1005
84E8
1005
84ED
1005
84F1
1005
84D7
1005
84D6
1000
ASC_SEEDPOINT
1011
14.73245321214324
1021
2.798246178283421
1031
0.0
1000
R14_HATCH_DATA
1000
8514
1011
1.0
1021
0.0
1031
0.0
1011
0.0
1021
1.0
1031
0.0
1011
0.0
1021
0.0
1031
1.0
1040
0.0
1010
0.0
1020
0.0
1030
1.0
1000
ANSI37
1070
     0
1070
     1
1071
        1
1071
        7
1070
     0
1070
     1
1071
       10
1040
16.46099999998353
1040
5.432899999994561
1040
18.59199999998134
1040
-0.2368999999997641
1040
22.38199999997767
1040
8.763099999991255
1040
20.89099999997916
1040
8.763099999991255
1040
18.59799999998143
1040
3.315799999996671
1040
16.46099999998353
1040
8.999899999990987
1040
14.32399999998563
1040
3.315799999996671
1040
12.02999999998792
1040
8.763099999991255
1040
10.53899999998941
1040
8.763099999991255
1040
14.32899999998563
1040
-0.2368999999997641
1071
       10
1005
84D4
1005
84D5
1005
84F6
1005
84F4
1005
84F5
1005
84E8
1005
84ED
1005
84F1
1005
84D7
1005
84D6
1070
     0
1070
     1
1040
0.0
1040
0.15
1070
     0
1070
     2
1040
0.7853981633974483
1040
49.29960901727088
1040
-10.17736998311392
1040
-0.3367596045400932
1040
0.3367596045400932
1070
     0
1040
2.356194490192345
1040
49.29960901727088
1040
-10.17736998311392
1040
-0.3367596045400932
1040
-0.3367596045400932
1070
     0
1040
0.0110235143455945
1071
        1
1040
14.73245321214324
1040
2.798246178283421
1040
0.0
1002
}
  0
INSERT
  5
8515
330
84D0
100
AcDbEntity
  8
0
100
AcDbBlockReference
  2
*X50
 10
0.0
 20
0.0
 30
0.0
1001
ACAD
1000
HATCH
1002
{
1070
    19
1000
ANSI37
1040
0.15
1040
0.0
1000
ASC_BOUNDS
1070
     2
1070
     2
1070
    13
1005
84D8
1005
84E5
1005
84E6
1005
84E4
1005
84E7
1005
850E
1005
8512
1005
850D
1005
850C
1005
850F
1005
8511
1005
8510
1005
84D9
1070
     2
1070
     3
1005
84F2
1005
84F7
1005
84F3
1000
ASC_SEEDPOINT
1011
21.97929957367762
1021
3.294304244259308
1031
0.0
1000
R14_HATCH_DATA
1000
8515
1011
1.0
1021
0.0
1031
0.0
1011
0.0
1021
1.0
1031
0.0
1011
0.0
1021
0.0
1031
1.0
1040
0.0
1010
0.0
1020
0.0
1030
1.0
1000
ANSI37
1070
     0
1070
     1
1071
        2
1071
        7
1070
     1
1070
     1
1071
       15
1040
23.56599999997638
1040
8.999899999990987
1040
0.0
1040
19.53899999998043
1040
-0.0001000000000317
1040
0.0
1040
19.53899999998043
1040
0.0
1040
0.0
1040
21.09599999997886
1040
0.0
1040
0.0
1040
21.09599999997886
1040
-0.0001000000000317
1040
0.0
1040
22.15599999997789
1040
2.368399999997621
1040
0.0
1040
24.97599999997499
1040
2.368399999997621
1040
0.0
1040
26.02015566812236
1040
0.0330999999912365
1040
0.0
1040
28.40199999996923
1040
0.0330999999912365
1040
0.414213562373095
1040
30.74199999996923
1040
2.373099999991211
1040
0.0
1040
30.74199999996927
1040
8.763099999991255
1040
0.0
1040
29.30199999996933
1040
8.763099999991255
1040
0.0
1040
29.30199999996933
1040
2.283099999991236
1040
-0.414213562373095
1040
28.40199999996923
1040
1.383099999991237
1040
0.0
1040
26.97358892824991
1040
1.383099999991202
1040
0.0
1071
       13
1005
84D8
1005
84E5
1005
84E6
1005
84E4
1005
84E7
1005
850E
1005
8512
1005
850D
1005
850C
1005
850F
1005
8511
1005
8510
1005
84D9
1071
       22
1070
     0
1070
     1
1071
        3
1040
22.7389999999773
1040
3.670999999996297
1040
23.56599999997638
1040
5.5200999999945
1040
24.39299999997559
1040
3.670999999996297
1071
        3
1005
84F2
1005
84F7
1005
84F3
1070
     0
1070
     1
1040
0.0
1040
0.15
1070
     0
1070
     2
1040
0.7853981633974483
1040
49.29960901727088
1040
-10.17736998311392
1040
-0.3367596045400932
1040
0.3367596045400932
1070
     0
1040
2.356194490192345
1040
49.29960901727088
1040
-10.17736998311392
1040
-0.3367596045400932
1040
-0.3367596045400932
1070
     0
1040
0.0110235143455945
1071
        2
1040
21.97929957367762
1040
3.294304244259308
1040
0.0
1040
21.97929957367762
1040
3.294304244259308
1040
0.0
1002
}
  0
INSERT
  5
8516
330
84D0
100
AcDbEntity
  8
0
100
AcDbBlockReference
  2
*X51
 10
0.0
 20
0.0
 30
0.0
1001
ACAD
1000
HATCH
1002
{
1070
    19
1000
ANSI37
1040
0.15
1040
0.0
1000
R14_HATCH_DATA
1000
8516
1011
1.0
1021
0.0
1031
0.0
1011
0.0
1021
1.0
1031
0.0
1011
0.0
1021
0.0
1031
1.0
1040
0.0
1010
0.0
1020
0.0
1030
1.0
1000
ANSI37
1070
     0
1070
     1
1071
        1
1071
        7
1070
     1
1070
     1
1071
       12
1040
31.64199999996833
1040
2.481619422925121
1040
0.2679491924310942
1040
32.94699999997067
1040
0.2212931190493919
1040
0.2679491924301353
1040
36.36699999995983
1040
0.2212931190459813
1040
0.2679491924321411
1040
37.67199999996831
1040
2.481619422928361
1040
0.0
1040
37.67199999996831
1040
8.763099999991255
1040
0.0
1040
36.23199999996837
1040
8.763099999991255
1040
0.0
1040
36.23199999996837
1040
2.481619422925064
1040
-0.2679491924310291
1040
35.64699999996708
1040
1.468369700498386
1040
-0.267949192430519
1040
33.66699999997093
1040
1.468369700497703
1040
-0.267949192431809
1040
33.08199999996839
1040
2.481619422926997
1040
0.0
1040
33.08199999996839
1040
8.763099999991255
1040
0.0
1040
31.64199999996833
1040
8.763099999991255
1040
0.0
1071
        0
1070
     0
1070
     1
1040
0.0
1040
0.15
1070
     0
1070
     2
1040
0.7853981633974483
1040
49.29960901727088
1040
-10.17736998311392
1040
-0.3367596045400932
1040
0.3367596045400932
1070
     0
1040
2.356194490192345
1040
49.29960901727088
1040
-10.17736998311392
1040
-0.3367596045400932
1040
-0.3367596045400932
1070
     0
1040
0.0110235143455945
1071
        1
1040
32.30357378967278
1040
3.988785755459219
1040
0.0
1002
}
  0
INSERT
  5
8517
330
84D0
100
AcDbEntity
  8
0
100
AcDbBlockReference
  2
*X52
 10
0.0
 20
0.0
 30
0.0
1001
ACAD
1000
HATCH
1002
{
1070
    19
1000
ANSI37
1040
0.15
1040
0.0
1000
ASC_BOUNDS
1070
     1
1070
     2
1070
     8
1005
84F8
1005
84FB
1005
84FF
1005
84FE
1005
84FD
1005
84FA
1005
84FC
1005
84F9
1000
ASC_SEEDPOINT
1011
39.74896370716704
1021
4.484843821435049
1031
0.0
1000
R14_HATCH_DATA
1000
8517
1011
1.0
1021
0.0
1031
0.0
1011
0.0
1021
1.0
1031
0.0
1011
0.0
1021
0.0
1031
1.0
1040
0.0
1010
0.0
1020
0.0
1030
1.0
1000
ANSI37
1070
     0
1070
     1
1071
        1
1071
        7
1070
     0
1070
     1
1071
        9
1040
40.02599999995994
1040
5.341799999994635
1040
44.99999999995498
1040
-0.2368999999997641
1040
44.99999999995498
1040
8.763099999991255
1040
43.57899999995641
1040
8.763099999991255
1040
43.57899999995641
1040
3.421199999996588
1040
38.60499999996136
1040
8.999899999990987
1040
38.60499999996136
1040
8.999999999991019
1040
38.60499999996136
1040
0.0
1040
40.02599999995994
1040
0.0
1071
        8
1005
84F8
1005
84FB
1005
84FF
1005
84FE
1005
84FD
1005
84FA
1005
84FC
1005
84F9
1070
     0
1070
     1
1040
0.0
1040
0.15
1070
     0
1070
     2
1040
0.7853981633974483
1040
49.29960901727088
1040
-10.17736998311392
1040
-0.3367596045400932
1040
0.3367596045400932
1070
     0
1040
2.356194490192345
1040
49.29960901727088
1040
-10.17736998311392
1040
-0.3367596045400932
1040
-0.3367596045400932
1070
     0
1040
0.0110235143455945
1071
        1
1040
39.74896370716704
1040
4.484843821435049
1040
0.0
1002
}
  0
INSERT
  5
8518
330
84D0
100
AcDbEntity
  8
0
100
AcDbBlockReference
  2
*X53
 10
0.0
 20
0.0
 30
0.0
1001
ACAD
1000
HATCH
1002
{
1070
    19
1000
ANSI37
1040
0.15
1040
0.0
1000
ASC_BOUNDS
1070
     1
1070
     2
1070
     4
1005
84DC
1005
84EB
1005
84DD
1005
84DF
1000
ASC_SEEDPOINT
1011
1.079051535452663
1021
4.148538732891836
1031
0.0
1000
R14_HATCH_DATA
1000
8518
1011
1.0
1021
0.0
1031
0.0
1011
0.0
1021
1.0
1031
0.0
1011
0.0
1021
0.0
1031
1.0
1040
0.0
1010
0.0
1020
0.0
1030
1.0
1000
ANSI37
1070
     0
1070
     1
1071
        1
1071
        7
1070
     0
1070
     1
1071
        4
1040
1.420999999998571
1040
0.0
1040
1.420999999998571
1040
8.763099999991255
1040
0.0
1040
8.763099999991255
1040
0.0
1040
0.0
1071
        4
1005
84DC
1005
84EB
1005
84DD
1005
84DF
1070
     0
1070
     1
1040
0.0
1040
0.15
1070
     0
1070
     2
1040
0.7853981633974483
1040
49.29960901727088
1040
-10.17736998311392
1040
-0.3367596045400932
1040
0.3367596045400932
1070
     0
1040
2.356194490192345
1040
49.29960901727088
1040
-10.17736998311392
1040
-0.3367596045400932
1040
-0.3367596045400932
1070
     0
1040
0.0053004257112761
1071
        1
1040
1.079051535452663
1040
4.148538732891836
1040
0.0
1002
}
  0
ENDBLK
  5
8519
330
84D0
100
AcDbEntity
  8
0
100
AcDbBlockEnd
  0
BLOCK
  5
8D5B
330
8BCD
100
AcDbEntity
  8
0
100
AcDbBlockBegin
  2
*X48
 70
     1
 10
0.0
 20
0.0
 30
0.0
  3
*X48
  1

  0
LINE
  5
8BCE
330
8BCD
100
AcDbEntity
  8
0
  6
CONTINUOUS
100
AcDbLine
 10
3.418023043697893
 20
7.251849696850613
 30
0.0
 11
4.929273346838536
 21
8.763099999991255
 31
0.0
  0
LINE
  5
8BCF
330
8BCD
100
AcDbEntity
  8
0
  6
CONTINUOUS
100
AcDbLine
 10
1.483656411257782
 20
4.643963855330318
 30
0.0
 11
5.60279255591872
 21
8.763099999991255
 31
0.0
  0
LINE
  5
8BD0
330
8BCD
100
AcDbEntity
  8
0
  6
CONTINUOUS
100
AcDbLine
 10
1.755053947328235
 20
4.241842182320584
 30
0.0
 11
6.276311764998907
 21
8.763099999991255
 31
0.0
  0
LINE
  5
8BD1
330
8BCD
100
AcDbEntity
  8
0
  6
CONTINUOUS
100
AcDbLine
 10
2.026451483398688
 20
3.839720509310849
 30
0.0
 11
4.441040904851878
 21
6.254309930764039
 31
0.0
  0
LINE
  5
8BD2
330
8BCD
100
AcDbEntity
  8
0
  6
CONTINUOUS
100
AcDbLine
 10
2.297849019469139
 20
3.437598836301114
 30
0.0
 11
3.321765168359338
 21
4.461514985191313
 31
0.0
  0
LINE
  5
8BD3
330
8BCD
100
AcDbEntity
  8
0
  6
CONTINUOUS
100
AcDbLine
 10
2.569246555539591
 20
3.03547716329138
 30
0.0
 11
3.593163397972743
 21
4.059394005724531
 31
0.0
  0
LINE
  5
8BD4
330
8BCD
100
AcDbEntity
  8
0
  6
CONTINUOUS
100
AcDbLine
 10
2.840644091610043
 20
2.633355490281646
 30
0.0
 11
3.864561627586149
 21
3.657273026257751
 31
0.0
  0
LINE
  5
8BD5
330
8BCD
100
AcDbEntity
  8
0
  6
CONTINUOUS
100
AcDbLine
 10
3.112041627680496
 20
2.231233817271911
 30
0.0
 11
4.135959857199554
 21
3.25515204679097
 31
0.0
  0
LINE
  5
8BD6
330
8BCD
100
AcDbEntity
  8
0
  6
CONTINUOUS
100
AcDbLine
 10
3.383439163750948
 20
1.829112144262177
 30
0.0
 11
4.40735808681296
 21
2.853031067324189
 31
0.0
  0
LINE
  5
8BD7
330
8BCD
100
AcDbEntity
  8
0
  6
CONTINUOUS
100
AcDbLine
 10
3.654836699821399
 20
1.426990471252442
 30
0.0
 11
4.678756316426365
 21
2.450910087857407
 31
0.0
  0
LINE
  5
8BD8
330
8BCD
100
AcDbEntity
  8
0
  6
CONTINUOUS
100
AcDbLine
 10
3.926234235891853
 20
1.024868798242709
 30
0.0
 11
4.95015454603977
 21
2.048789108390626
 31
0.0
  0
LINE
  5
8BD9
330
8BCD
100
AcDbEntity
  8
0
  6
CONTINUOUS
100
AcDbLine
 10
4.197631771962304
 20
0.6227471252329737
 30
0.0
 11
5.221552775653176
 21
1.646668128923846
 31
0.0
  0
LINE
  5
8BDA
330
8BCD
100
AcDbEntity
  8
0
  6
CONTINUOUS
100
AcDbLine
 10
8.715877546767851
 20
7.835069736359266
 30
0.0
 11
9.435953450375058
 21
8.555145639966472
 31
0.0
  0
LINE
  5
8BDB
330
8BCD
100
AcDbEntity
  8
0
  6
CONTINUOUS
100
AcDbLine
 10
8.170620868422267
 20
6.616293848933497
 30
0.0
 11
9.644120833743461
 21
8.08979381425469
 31
0.0
  0
LINE
  5
8BDC
330
8BCD
100
AcDbEntity
  8
0
  6
CONTINUOUS
100
AcDbLine
 10
7.625364190076684
 20
5.397517961507727
 30
0.0
 11
9.852288217111864
 21
7.624441988542907
 31
0.0
  0
LINE
  5
8BDD
330
8BCD
100
AcDbEntity
  8
0
  6
CONTINUOUS
100
AcDbLine
 10
7.080107511731101
 20
4.178742074081957
 30
0.0
 11
10.06045560048027
 21
7.159090162831124
 31
0.0
  0
LINE
  5
8BDE
330
8BCD
100
AcDbEntity
  8
0
  6
CONTINUOUS
100
AcDbLine
 10
6.534850833385518
 20
2.959966186656187
 30
0.0
 11
10.26862298384867
 21
6.693738337119342
 31
0.0
  0
LINE
  5
8BDF
330
8BCD
100
AcDbEntity
  8
0
  6
CONTINUOUS
100
AcDbLine
 10
4.469029308032756
 20
0.2206254522232385
 30
0.0
 11
5.492951005266582
 21
1.244547149457064
 31
0.0
  0
LINE
  5
8BE0
330
8BCD
100
AcDbEntity
  8
0
  6
CONTINUOUS
100
AcDbLine
 10
5.989594155039935
 20
1.741190299230417
 30
0.0
 11
8.806950407233131
 21
4.558546551423613
 31
0.0
  0
LINE
  5
8BE1
330
8BCD
100
AcDbEntity
  8
0
  6
CONTINUOUS
100
AcDbLine
 10
9.401251593263643
 20
5.152847737454126
 30
0.0
 11
10.47679036721708
 21
6.228386511407559
 31
0.0
  0
LINE
  5
8BE2
330
8BCD
100
AcDbEntity
  8
0
  6
CONTINUOUS
100
AcDbLine
 10
4.921837203428691
 20
-0.0000858614610131
 30
0.0
 11
8.592923064886001
 21
3.670999999996297
 31
0.0
  0
LINE
  5
8BE3
330
8BCD
100
AcDbEntity
  8
0
  6
CONTINUOUS
100
AcDbLine
 10
9.609390446785305
 20
4.6874673818956
 30
0.0
 11
10.68495775058548
 21
5.763034685695775
 31
0.0
  0
LINE
  5
8BE4
330
8BCD
100
AcDbEntity
  8
0
  6
CONTINUOUS
100
AcDbLine
 10
5.595387755019432
 20
-0.0000545189504582
 30
0.0
 11
7.716137258923768
 21
2.120694984953879
 31
0.0
  0
LINE
  5
8BE5
330
8BCD
100
AcDbEntity
  8
0
  6
CONTINUOUS
100
AcDbLine
 10
6.268938306610172
 20
-0.000023176439905
 30
0.0
 11
7.170485805526503
 21
0.9015243224764267
 31
0.0
  0
LINE
  5
8BE6
330
8BCD
100
AcDbEntity
  8
0
  6
CONTINUOUS
100
AcDbLine
 10
7.963842273967511
 20
2.368399999997621
 30
0.0
 11
9.266442273966188
 21
3.670999999996297
 31
0.0
  0
LINE
  5
8BE7
330
8BCD
100
AcDbEntity
  8
0
  6
CONTINUOUS
100
AcDbLine
 10
8.637361483047696
 20
2.368399999997621
 30
0.0
 11
9.939961483046375
 21
3.670999999996297
 31
0.0
  0
LINE
  5
8BE8
330
8BCD
100
AcDbEntity
  8
0
  6
CONTINUOUS
100
AcDbLine
 10
9.817529300306965
 20
4.222087026337075
 30
0.0
 11
10.89312513395388
 21
5.297682859983993
 31
0.0
  0
LINE
  5
8BE9
330
8BCD
100
AcDbEntity
  8
0
  6
CONTINUOUS
100
AcDbLine
 10
10.02566815382863
 20
3.756706670778549
 30
0.0
 11
11.10129251732229
 21
4.832331034272211
 31
0.0
  0
LINE
  5
8BEA
330
8BCD
100
AcDbEntity
  8
0
  6
CONTINUOUS
100
AcDbLine
 10
9.310880692127883
 20
2.368399999997621
 30
0.0
 11
11.30945990069069
 21
4.366979208560428
 31
0.0
  0
LINE
  5
8BEB
330
8BCD
100
AcDbEntity
  8
0
  6
CONTINUOUS
100
AcDbLine
 10
9.98439990120807
 20
2.36839999999762
 30
0.0
 11
11.5176272840591
 21
3.901627382848645
 31
0.0
  0
LINE
  5
8BEC
330
8BCD
100
AcDbEntity
  8
0
  6
CONTINUOUS
100
AcDbLine
 10
10.65037369446246
 20
2.36085458417182
 30
0.0
 11
11.7257946674275
 21
3.436275557136862
 31
0.0
  0
LINE
  5
8BED
330
8BCD
100
AcDbEntity
  8
0
  6
CONTINUOUS
100
AcDbLine
 10
10.85847197087848
 20
1.895433651507656
 30
0.0
 11
11.9339620507959
 21
2.97092373142508
 31
0.0
  0
LINE
  5
8BEE
330
8BCD
100
AcDbEntity
  8
0
  6
CONTINUOUS
100
AcDbLine
 10
11.0665702472945
 20
1.430012718843491
 30
0.0
 11
12.14212943416431
 21
2.505571905713296
 31
0.0
  0
LINE
  5
8BEF
330
8BCD
100
AcDbEntity
  8
0
  6
CONTINUOUS
100
AcDbLine
 10
11.27466852371052
 20
0.9645917861793256
 30
0.0
 11
12.35029681753271
 21
2.040220080001513
 31
0.0
  0
LINE
  5
8BF0
330
8BCD
100
AcDbEntity
  8
0
  6
CONTINUOUS
100
AcDbLine
 10
11.48276680012654
 20
0.4991708535151611
 30
0.0
 11
12.55846420090111
 21
1.57486825428973
 31
0.0
  0
LINE
  5
8BF1
330
8BCD
100
AcDbEntity
  8
0
  6
CONTINUOUS
100
AcDbLine
 10
11.69086507654257
 20
0.0337499208509957
 30
0.0
 11
12.76663158426952
 21
1.109516428577947
 31
0.0
  0
LINE
  5
8BF2
330
8BCD
100
AcDbEntity
  8
0
  6
CONTINUOUS
100
AcDbLine
 10
12.33057447873954
 20
-0.0000598860322123
 30
0.0
 11
12.97479896763792
 21
0.6441646028661663
 31
0.0
  0
LINE
  5
8BF3
330
8BCD
100
AcDbEntity
  8
0
  6
CONTINUOUS
100
AcDbLine
 10
13.00413694809395
 20
-0.0000166257579952
 30
0.0
 11
13.18296635100632
 21
0.1788127771543824
 31
0.0
  0
LINE
  5
8BF4
330
8BCD
100
AcDbEntity
  8
0
  6
CONTINUOUS
100
AcDbLine
 10
4.772852165289667
 20
-0.000092794222212
 30
0.0
 11
4.296495091028902
 21
0.4762642800385528
 31
0.0
  0
LINE
  5
8BF5
330
8BCD
100
AcDbEntity
  8
0
  6
CONTINUOUS
100
AcDbLine
 10
5.446340034776103
 20
-0.0000614546284616
 30
0.0
 11
2.898195908335625
 21
2.548082671812017
 31
0.0
  0
LINE
  5
8BF6
330
8BCD
100
AcDbEntity
  8
0
  6
CONTINUOUS
100
AcDbLine
 10
6.119827904262539
 20
-0.0000301150347113
 30
0.0
 11
1.499896725642348
 21
4.61990106358548
 31
0.0
  0
LINE
  5
8BF7
330
8BCD
100
AcDbEntity
  8
0
  6
CONTINUOUS
100
AcDbLine
 10
6.775136745476159
 20
0.0181802528318542
 30
0.0
 11
5.699826040202669
 21
1.093490958105344
 31
0.0
  0
LINE
  5
8BF8
330
8BCD
100
AcDbEntity
  8
0
  6
CONTINUOUS
100
AcDbLine
 10
6.983376846288489
 20
0.4834593610997118
 30
0.0
 11
5.908008617934405
 21
1.558827589453796
 31
0.0
  0
LINE
  5
8BF9
330
8BCD
100
AcDbEntity
  8
0
  6
CONTINUOUS
100
AcDbLine
 10
5.377063484962296
 20
1.416253513345719
 30
0.0
 11
1.702276957014131
 21
5.091040041293883
 31
0.0
  0
LINE
  5
8BFA
330
8BCD
100
AcDbEntity
  8
0
  6
CONTINUOUS
100
AcDbLine
 10
3.978745891735324
 20
3.488090315652877
 30
0.0
 11
2.000373521109399
 21
5.466462686278803
 31
0.0
  0
LINE
  5
8BFB
330
8BCD
100
AcDbEntity
  8
0
  6
CONTINUOUS
100
AcDbLine
 10
7.191616947100819
 20
0.948738469367568
 30
0.0
 11
6.11619119566614
 21
2.024164220802247
 31
0.0
  0
LINE
  5
8BFC
330
8BCD
100
AcDbEntity
  8
0
  6
CONTINUOUS
100
AcDbLine
 10
7.399857047913149
 20
1.414017577635424
 30
0.0
 11
6.324373773397875
 21
2.489500852150698
 31
0.0
  0
LINE
  5
8BFD
330
8BCD
100
AcDbEntity
  8
0
  6
CONTINUOUS
100
AcDbLine
 10
7.608097148725479
 20
1.879296685903281
 30
0.0
 11
6.53255635112961
 21
2.95483748349915
 31
0.0
  0
LINE
  5
8BFE
330
8BCD
100
AcDbEntity
  8
0
  6
CONTINUOUS
100
AcDbLine
 10
7.816337249537808
 20
2.344575794171138
 30
0.0
 11
6.740738928861345
 21
3.420174114847601
 31
0.0
  0
LINE
  5
8BFF
330
8BCD
100
AcDbEntity
  8
0
  6
CONTINUOUS
100
AcDbLine
 10
3.310241080789734
 20
4.830114335678653
 30
0.0
 11
2.298470085204666
 21
5.84188533126372
 31
0.0
  0
LINE
  5
8C00
330
8BCD
100
AcDbEntity
  8
0
  6
CONTINUOUS
100
AcDbLine
 10
3.60832983563551
 20
5.205544789913063
 30
0.0
 11
2.596566649299935
 21
6.217307976248638
 31
0.0
  0
LINE
  5
8C01
330
8BCD
100
AcDbEntity
  8
0
  6
CONTINUOUS
100
AcDbLine
 10
3.906418590481286
 20
5.580975244147473
 30
0.0
 11
2.894663213395203
 21
6.592730621233557
 31
0.0
  0
LINE
  5
8C02
330
8BCD
100
AcDbEntity
  8
0
  6
CONTINUOUS
100
AcDbLine
 10
4.204507345327062
 20
5.956405698381884
 30
0.0
 11
3.192759777490472
 21
6.968153266218474
 31
0.0
  0
LINE
  5
8C03
330
8BCD
100
AcDbEntity
  8
0
  6
CONTINUOUS
100
AcDbLine
 10
8.466032252791512
 20
2.368399999997621
 30
0.0
 11
6.948921506593081
 21
3.885510746196053
 31
0.0
  0
LINE
  5
8C04
330
8BCD
100
AcDbEntity
  8
0
  6
CONTINUOUS
100
AcDbLine
 10
9.139551461871699
 20
2.36839999999762
 30
0.0
 11
7.157104084324816
 21
4.350847377544504
 31
0.0
  0
LINE
  5
8C05
330
8BCD
100
AcDbEntity
  8
0
  6
CONTINUOUS
100
AcDbLine
 10
4.502596100172839
 20
6.331836152616295
 30
0.0
 11
3.49085634158574
 21
7.343575911203393
 31
0.0
  0
LINE
  5
8C06
330
8BCD
100
AcDbEntity
  8
0
  6
CONTINUOUS
100
AcDbLine
 10
4.800684855018615
 20
6.707266606850705
 30
0.0
 11
3.788952905681008
 21
7.718998556188312
 31
0.0
  0
LINE
  5
8C07
330
8BCD
100
AcDbEntity
  8
0
  6
CONTINUOUS
100
AcDbLine
 10
12.18154012887317
 20
-0.0000694579236642
 30
0.0
 11
11.32140332908496
 21
0.8600673418645499
 31
0.0
  0
LINE
  5
8C08
330
8BCD
100
AcDbEntity
  8
0
  6
CONTINUOUS
100
AcDbLine
 10
12.85501608323566
 20
-0.0000262032059659
 30
0.0
 11
10.77672456435345
 21
2.078265315676246
 31
0.0
  0
LINE
  5
8C09
330
8BCD
100
AcDbEntity
  8
0
  6
CONTINUOUS
100
AcDbLine
 10
9.813070670951886
 20
2.36839999999762
 30
0.0
 11
8.51047067095321
 21
3.670999999996297
 31
0.0
  0
LINE
  5
8C0A
330
8BCD
100
AcDbEntity
  8
0
  6
CONTINUOUS
100
AcDbLine
 10
10.48658988003207
 20
2.36839999999762
 30
0.0
 11
9.183989880033396
 21
3.670999999996297
 31
0.0
  0
LINE
  5
8C0B
330
8BCD
100
AcDbEntity
  8
0
  6
CONTINUOUS
100
AcDbLine
 10
8.441048632286794
 20
3.740422038662712
 30
0.0
 11
7.365286662056551
 21
4.816184008892956
 31
0.0
  0
LINE
  5
8C0C
330
8BCD
100
AcDbEntity
  8
0
  6
CONTINUOUS
100
AcDbLine
 10
8.649187485808454
 20
4.205802394221237
 30
0.0
 11
7.573469239788285
 21
5.281520640241407
 31
0.0
  0
LINE
  5
8C0D
330
8BCD
100
AcDbEntity
  8
0
  6
CONTINUOUS
100
AcDbLine
 10
5.098773609864391
 20
7.082697061085115
 30
0.0
 11
4.087049469776277
 21
8.09442120117323
 31
0.0
  0
LINE
  5
8C0E
330
8BCD
100
AcDbEntity
  8
0
  6
CONTINUOUS
100
AcDbLine
 10
5.396862364710167
 20
7.458127515319526
 30
0.0
 11
4.385146033871544
 21
8.469843846158149
 31
0.0
  0
LINE
  5
8C0F
330
8BCD
100
AcDbEntity
  8
0
  6
CONTINUOUS
100
AcDbLine
 10
13.04801363231285
 20
0.4804954567970334
 30
0.0
 11
9.85750908911358
 21
3.670999999996297
 31
0.0
  0
LINE
  5
8C10
330
8BCD
100
AcDbEntity
  8
0
  6
CONTINUOUS
100
AcDbLine
 10
8.857326339330116
 20
4.671182749779763
 30
0.0
 11
7.781651817520021
 21
5.746857271589858
 31
0.0
  0
LINE
  5
8C11
330
8BCD
100
AcDbEntity
  8
0
  6
CONTINUOUS
100
AcDbLine
 10
5.694951119555943
 20
7.833557969553937
 30
0.0
 11
4.765409089118624
 21
8.763099999991255
 31
0.0
  0
LINE
  5
8C12
330
8BCD
100
AcDbEntity
  8
0
  6
CONTINUOUS
100
AcDbLine
 10
12.50286117236978
 20
1.699167125820288
 30
0.0
 11
9.68611877250287
 21
4.515909525687196
 31
0.0
  0
LINE
  5
8C13
330
8BCD
100
AcDbEntity
  8
0
  6
CONTINUOUS
100
AcDbLine
 10
9.065465192851777
 20
5.136563105338288
 30
0.0
 11
7.989834395251757
 21
6.21219390293831
 31
0.0
  0
LINE
  5
8C14
330
8BCD
100
AcDbEntity
  8
0
  6
CONTINUOUS
100
AcDbLine
 10
5.993039874401719
 20
8.208988423788346
 30
0.0
 11
5.43892829819881
 21
8.763099999991255
 31
0.0
  0
LINE
  5
8C15
330
8BCD
100
AcDbEntity
  8
0
  6
CONTINUOUS
100
AcDbLine
 10
11.95770871242671
 20
2.917838794843543
 30
0.0
 11
8.19801697298349
 21
6.677530534286761
 31
0.0
  0
LINE
  5
8C16
330
8BCD
100
AcDbEntity
  8
0
  6
CONTINUOUS
100
AcDbLine
 10
6.291128629247495
 20
8.584418878022756
 30
0.0
 11
6.112447507278997
 21
8.763099999991255
 31
0.0
  0
LINE
  5
8C17
330
8BCD
100
AcDbEntity
  8
0
  6
CONTINUOUS
100
AcDbLine
 10
11.41255625248364
 20
4.136510463866797
 30
0.0
 11
8.406199550715227
 21
7.142867165635211
 31
0.0
  0
LINE
  5
8C18
330
8BCD
100
AcDbEntity
  8
0
  6
CONTINUOUS
100
AcDbLine
 10
10.86740379254057
 20
5.355182132890051
 30
0.0
 11
8.614382128446962
 21
7.608203796983664
 31
0.0
  0
LINE
  5
8C19
330
8BCD
100
AcDbEntity
  8
0
  6
CONTINUOUS
100
AcDbLine
 10
10.3222513325975
 20
6.573853801913305
 30
0.0
 11
8.822564706178696
 21
8.073540428332114
 31
0.0
  0
LINE
  5
8C1A
330
8BCD
100
AcDbEntity
  8
0
  6
CONTINUOUS
100
AcDbLine
 10
9.777098872654436
 20
7.792525470936562
 30
0.0
 11
9.030747283910433
 21
8.538877059680566
 31
0.0
  0
ENDBLK
  5
8D5C
330
8BCD
100
AcDbEntity
  8
0
100
AcDbBlockEnd
  0
BLOCK
  5
8D5D
330
8C1B
100
AcDbEntity
  8
0
100
AcDbBlockBegin
  2
*X49
 70
     1
 10
0.0
 20
0.0
 30
0.0
  3
*X49
  1

  0
LINE
  5
8C1C
330
8C1B
100
AcDbEntity
  8
0
  6
CONTINUOUS
100
AcDbLine
 10
10.67292308101235
 20
8.445076852443387
 30
0.0
 11
10.99094622856022
 21
8.763099999991255
 31
0.0
  0
LINE
  5
8C1D
330
8C1B
100
AcDbEntity
  8
0
  6
CONTINUOUS
100
AcDbLine
 10
10.87250383178748
 20
7.971138394138331
 30
0.0
 11
11.6644654376404
 21
8.763099999991255
 31
0.0
  0
LINE
  5
8C1E
330
8C1B
100
AcDbEntity
  8
0
  6
CONTINUOUS
100
AcDbLine
 10
11.07208458256261
 20
7.497199935833273
 30
0.0
 11
12.12126590876355
 21
8.546381262034211
 31
0.0
  0
LINE
  5
8C1F
330
8C1B
100
AcDbEntity
  8
0
  6
CONTINUOUS
100
AcDbLine
 10
11.27166533333774
 20
7.023261477528216
 30
0.0
 11
12.32085164573666
 21
8.072447789927136
 31
0.0
  0
LINE
  5
8C20
330
8C1B
100
AcDbEntity
  8
0
  6
CONTINUOUS
100
AcDbLine
 10
11.47124608411287
 20
6.549323019223158
 30
0.0
 11
12.52043738270977
 21
7.59851431782006
 31
0.0
  0
LINE
  5
8C21
330
8C1B
100
AcDbEntity
  8
0
  6
CONTINUOUS
100
AcDbLine
 10
11.670826834888
 20
6.075384560918101
 30
0.0
 11
12.72002311968288
 21
7.124580845712984
 31
0.0
  0
LINE
  5
8C22
330
8C1B
100
AcDbEntity
  8
0
  6
CONTINUOUS
100
AcDbLine
 10
11.87040758566313
 20
5.601446102613043
 30
0.0
 11
12.91960885665599
 21
6.650647373605907
 31
0.0
  0
LINE
  5
8C23
330
8C1B
100
AcDbEntity
  8
0
  6
CONTINUOUS
100
AcDbLine
 10
12.06998833643825
 20
5.127507644307986
 30
0.0
 11
13.1191945936291
 21
6.176713901498832
 31
0.0
  0
LINE
  5
8C24
330
8C1B
100
AcDbEntity
  8
0
  6
CONTINUOUS
100
AcDbLine
 10
12.26956908721338
 20
4.65356918600293
 30
0.0
 11
13.31878033060221
 21
5.702780429391757
 31
0.0
  0
LINE
  5
8C25
330
8C1B
100
AcDbEntity
  8
0
  6
CONTINUOUS
100
AcDbLine
 10
12.46914983798851
 20
4.179630727697873
 30
0.0
 11
13.51836606757532
 21
5.228846957284683
 31
0.0
  0
LINE
  5
8C26
330
8C1B
100
AcDbEntity
  8
0
  6
CONTINUOUS
100
AcDbLine
 10
12.66873058876364
 20
3.705692269392816
 30
0.0
 11
13.71795180454843
 21
4.754913485177607
 31
0.0
  0
LINE
  5
8C27
330
8C1B
100
AcDbEntity
  8
0
  6
CONTINUOUS
100
AcDbLine
 10
12.86831133953877
 20
3.231753811087759
 30
0.0
 11
13.91753754152154
 21
4.280980013070531
 31
0.0
  0
LINE
  5
8C28
330
8C1B
100
AcDbEntity
  8
0
  6
CONTINUOUS
100
AcDbLine
 10
13.0678920903139
 20
2.757815352782702
 30
0.0
 11
14.11712327849465
 21
3.807046540963456
 31
0.0
  0
LINE
  5
8C29
330
8C1B
100
AcDbEntity
  8
0
  6
CONTINUOUS
100
AcDbLine
 10
13.26747284108903
 20
2.283876894477644
 30
0.0
 11
14.31670901546777
 21
3.333113068856379
 31
0.0
  0
LINE
  5
8C2A
330
8C1B
100
AcDbEntity
  8
0
  6
CONTINUOUS
100
AcDbLine
 10
16.36767838827179
 20
8.751678487061342
 30
0.0
 11
16.50332410898388
 21
8.887324207773432
 31
0.0
  0
LINE
  5
8C2B
330
8C1B
100
AcDbEntity
  8
0
  6
CONTINUOUS
100
AcDbLine
 10
15.96190732182191
 20
7.67238821153127
 30
0.0
 11
16.68735328004734
 21
8.397834169756699
 31
0.0
  0
LINE
  5
8C2C
330
8C1B
100
AcDbEntity
  8
0
  6
CONTINUOUS
100
AcDbLine
 10
15.55613625537202
 20
6.593097936001196
 30
0.0
 11
16.87138245111079
 21
7.908344131739965
 31
0.0
  0
LINE
  5
8C2D
330
8C1B
100
AcDbEntity
  8
0
  6
CONTINUOUS
100
AcDbLine
 10
15.15036518892213
 20
5.513807660471122
 30
0.0
 11
17.05541162217424
 21
7.418854093723231
 31
0.0
  0
LINE
  5
8C2E
330
8C1B
100
AcDbEntity
  8
0
  6
CONTINUOUS
100
AcDbLine
 10
14.74459412247225
 20
4.434517384941048
 30
0.0
 11
17.2394407932377
 21
6.929364055706499
 31
0.0
  0
LINE
  5
8C2F
330
8C1B
100
AcDbEntity
  8
0
  6
CONTINUOUS
100
AcDbLine
 10
14.33882305602236
 20
3.355227109410975
 30
0.0
 11
17.42346996430115
 21
6.439874017689766
 31
0.0
  0
LINE
  5
8C30
330
8C1B
100
AcDbEntity
  8
0
  6
CONTINUOUS
100
AcDbLine
 10
13.46705359186416
 20
1.809938436172586
 30
0.0
 11
16.0819338255367
 21
4.424818669845129
 31
0.0
  0
LINE
  5
8C31
330
8C1B
100
AcDbEntity
  8
0
  6
CONTINUOUS
100
AcDbLine
 10
16.63283254238972
 20
4.975717386698149
 30
0.0
 11
17.60749913536461
 21
5.950383979673033
 31
0.0
  0
LINE
  5
8C32
330
8C1B
100
AcDbEntity
  8
0
  6
CONTINUOUS
100
AcDbLine
 10
13.66663434263929
 20
1.335999977867529
 30
0.0
 11
15.67604797733754
 21
3.345413612565779
 31
0.0
  0
LINE
  5
8C33
330
8C1B
100
AcDbEntity
  8
0
  6
CONTINUOUS
100
AcDbLine
 10
13.86621509341442
 20
0.8620615195624723
 30
0.0
 11
15.27016212913838
 21
2.26600855528643
 31
0.0
  0
LINE
  5
8C34
330
8C1B
100
AcDbEntity
  8
0
  6
CONTINUOUS
100
AcDbLine
 10
16.81682257348267
 20
4.486188208710908
 30
0.0
 11
17.79152830642806
 21
5.460893941656299
 31
0.0
  0
LINE
  5
8C35
330
8C1B
100
AcDbEntity
  8
0
  6
CONTINUOUS
100
AcDbLine
 10
17.00081260457561
 20
3.996659030723667
 30
0.0
 11
17.97555747749151
 21
4.971403903639565
 31
0.0
  0
LINE
  5
8C36
330
8C1B
100
AcDbEntity
  8
0
  6
CONTINUOUS
100
AcDbLine
 10
20.74362343514722
 20
8.412989070375462
 30
0.0
 11
21.09373436476302
 21
8.763099999991256
 31
0.0
  0
LINE
  5
8C37
330
8C1B
100
AcDbEntity
  8
0
  6
CONTINUOUS
100
AcDbLine
 10
20.25401257174777
 20
7.249858997895826
 30
0.0
 11
21.7672535738432
 21
8.763099999991255
 31
0.0
  0
LINE
  5
8C38
330
8C1B
100
AcDbEntity
  8
0
  6
CONTINUOUS
100
AcDbLine
 10
14.06579584418955
 20
0.3881230612574149
 30
0.0
 11
14.86427628093921
 21
1.186603498007082
 31
0.0
  0
LINE
  5
8C39
330
8C1B
100
AcDbEntity
  8
0
  6
CONTINUOUS
100
AcDbLine
 10
14.26537659496467
 20
-0.0858153970476412
 30
0.0
 11
14.45839043274005
 21
0.1071984407277329
 31
0.0
  0
LINE
  5
8C3A
330
8C1B
100
AcDbEntity
  8
0
  6
CONTINUOUS
100
AcDbLine
 10
17.18480263566856
 20
3.507129852736426
 30
0.0
 11
18.15958664855496
 21
4.481913865622833
 31
0.0
  0
LINE
  5
8C3B
330
8C1B
100
AcDbEntity
  8
0
  6
CONTINUOUS
100
AcDbLine
 10
17.3687926667615
 20
3.017600674749186
 30
0.0
 11
18.34361581961842
 21
3.9924238276061
 31
0.0
  0
LINE
  5
8C3C
330
8C1B
100
AcDbEntity
  8
0
  6
CONTINUOUS
100
AcDbLine
 10
19.76440170834832
 20
6.086728925416191
 30
0.0
 11
22.33924590259489
 21
8.661573119662755
 31
0.0
  0
LINE
  5
8C3D
330
8C1B
100
AcDbEntity
  8
0
  6
CONTINUOUS
100
AcDbLine
 10
19.27479084494887
 20
4.923598852936555
 30
0.0
 11
21.84929622842713
 21
7.498104236414807
 31
0.0
  0
LINE
  5
8C3E
330
8C1B
100
AcDbEntity
  8
0
  6
CONTINUOUS
100
AcDbLine
 10
17.55278269785445
 20
2.528071496761945
 30
0.0
 11
18.52764499068187
 21
3.502933789589366
 31
0.0
  0
LINE
  5
8C3F
330
8C1B
100
AcDbEntity
  8
0
  6
CONTINUOUS
100
AcDbLine
 10
18.78517998154942
 20
3.760468780456919
 30
0.0
 11
21.35934655425936
 21
6.33463535316686
 31
0.0
  0
LINE
  5
8C40
330
8C1B
100
AcDbEntity
  8
0
  6
CONTINUOUS
100
AcDbLine
 10
17.73677272894739
 20
2.038542318774704
 30
0.0
 11
20.8693968800916
 21
5.171166469918914
 31
0.0
  0
LINE
  5
8C41
330
8C1B
100
AcDbEntity
  8
0
  6
CONTINUOUS
100
AcDbLine
 10
17.92076276004034
 20
1.549013140787464
 30
0.0
 11
20.37944720592384
 21
4.007697586670968
 31
0.0
  0
LINE
  5
8C42
330
8C1B
100
AcDbEntity
  8
0
  6
CONTINUOUS
100
AcDbLine
 10
18.10475279113329
 20
1.059483962800223
 30
0.0
 11
19.88949753175608
 21
2.84422870342302
 31
0.0
  0
LINE
  5
8C43
330
8C1B
100
AcDbEntity
  8
0
  6
CONTINUOUS
100
AcDbLine
 10
18.28874282222623
 20
0.5699547848129822
 30
0.0
 11
19.39954785758832
 21
1.680759820175074
 31
0.0
  0
LINE
  5
8C44
330
8C1B
100
AcDbEntity
  8
0
  6
CONTINUOUS
100
AcDbLine
 10
18.47273285331918
 20
0.0804256068257416
 30
0.0
 11
18.90959818342056
 21
0.517290936927127
 31
0.0
  0
LINE
  5
8C45
330
8C1B
100
AcDbEntity
  8
0
  6
CONTINUOUS
100
AcDbLine
 10
14.3590401358224
 20
-0.1570118376323384
 30
0.0
 11
14.24903296539946
 21
-0.0470046672093929
 31
0.0
  0
LINE
  5
8C46
330
8C1B
100
AcDbEntity
  8
0
  6
CONTINUOUS
100
AcDbLine
 10
14.54309291258661
 20
0.332454594683643
 30
0.0
 11
13.75908329123172
 21
1.116464216038529
 31
0.0
  0
LINE
  5
8C47
330
8C1B
100
AcDbEntity
  8
0
  6
CONTINUOUS
100
AcDbLine
 10
14.72714568935081
 20
0.8219210269996244
 30
0.0
 11
13.26913361706399
 21
2.27993309928645
 31
0.0
  0
LINE
  5
8C48
330
8C1B
100
AcDbEntity
  8
0
  6
CONTINUOUS
100
AcDbLine
 10
14.91119846611502
 20
1.311387459315606
 30
0.0
 11
12.77918394289625
 21
3.443401982534371
 31
0.0
  0
LINE
  5
8C49
330
8C1B
100
AcDbEntity
  8
0
  6
CONTINUOUS
100
AcDbLine
 10
15.09525124287922
 20
1.800853891631587
 30
0.0
 11
12.28923426872852
 21
4.606870865782293
 31
0.0
  0
LINE
  5
8C4A
330
8C1B
100
AcDbEntity
  8
0
  6
CONTINUOUS
100
AcDbLine
 10
15.27930401964343
 20
2.290320323947569
 30
0.0
 11
11.79928459456078
 21
5.770339749030213
 31
0.0
  0
LINE
  5
8C4B
330
8C1B
100
AcDbEntity
  8
0
  6
CONTINUOUS
100
AcDbLine
 10
15.46335679640763
 20
2.77978675626355
 30
0.0
 11
14.48885470994921
 21
3.754288842721972
 31
0.0
  0
LINE
  5
8C4C
330
8C1B
100
AcDbEntity
  8
0
  6
CONTINUOUS
100
AcDbLine
 10
13.88507249233704
 20
4.358071060334137
 30
0.0
 11
11.30933492039305
 21
6.933808632278135
 31
0.0
  0
LINE
  5
8C4D
330
8C1B
100
AcDbEntity
  8
0
  6
CONTINUOUS
100
AcDbLine
 10
18.75840522805855
 20
0.1582575336928151
 30
0.0
 11
18.25383727664818
 21
0.6628254851031863
 31
0.0
  0
LINE
  5
8C4E
330
8C1B
100
AcDbEntity
  8
0
  6
CONTINUOUS
100
AcDbLine
 10
15.64740957317184
 20
3.269253188579531
 30
0.0
 11
14.67288388101266
 21
4.243778880738705
 31
0.0
  0
LINE
  5
8C4F
330
8C1B
100
AcDbEntity
  8
0
  6
CONTINUOUS
100
AcDbLine
 10
13.39509276772158
 20
5.521569994029786
 30
0.0
 11
10.81938524622531
 21
8.097277515526056
 31
0.0
  0
LINE
  5
8C50
330
8C1B
100
AcDbEntity
  8
0
  6
CONTINUOUS
100
AcDbLine
 10
18.95798597883369
 20
0.6321959919978686
 30
0.0
 11
17.84825644852853
 21
1.741925522303024
 31
0.0
  0
LINE
  5
8C51
330
8C1B
100
AcDbEntity
  8
0
  6
CONTINUOUS
100
AcDbLine
 10
19.15756672960882
 20
1.106134450302922
 30
0.0
 11
17.44267562040888
 21
2.821025559502861
 31
0.0
  0
LINE
  5
8C52
330
8C1B
100
AcDbEntity
  8
0
  6
CONTINUOUS
100
AcDbLine
 10
15.83146234993604
 20
3.758719620895513
 30
0.0
 11
14.85691305207612
 21
4.733268918755439
 31
0.0
  0
LINE
  5
8C53
330
8C1B
100
AcDbEntity
  8
0
  6
CONTINUOUS
100
AcDbLine
 10
16.01551512670025
 20
4.248186053211494
 30
0.0
 11
15.04094222313957
 21
5.222758956772172
 31
0.0
  0
LINE
  5
8C54
330
8C1B
100
AcDbEntity
  8
0
  6
CONTINUOUS
100
AcDbLine
 10
12.90511304310612
 20
6.685068927725435
 30
0.0
 11
10.8270819708403
 21
8.763099999991255
 31
0.0
  0
LINE
  5
8C55
330
8C1B
100
AcDbEntity
  8
0
  6
CONTINUOUS
100
AcDbLine
 10
12.41513331849066
 20
7.848567861421083
 30
0.0
 11
11.50060117992049
 21
8.763099999991255
 31
0.0
  0
LINE
  5
8C56
330
8C1B
100
AcDbEntity
  8
0
  6
CONTINUOUS
100
AcDbLine
 10
19.35714748038395
 20
1.580072908607975
 30
0.0
 11
17.03709479228923
 21
3.900125596702697
 31
0.0
  0
LINE
  5
8C57
330
8C1B
100
AcDbEntity
  8
0
  6
CONTINUOUS
100
AcDbLine
 10
19.55672823115909
 20
2.054011366913028
 30
0.0
 11
16.63151396416958
 21
4.979225633902534
 31
0.0
  0
LINE
  5
8C58
330
8C1B
100
AcDbEntity
  8
0
  6
CONTINUOUS
100
AcDbLine
 10
16.19956790346445
 20
4.737652485527476
 30
0.0
 11
15.22497139420302
 21
5.712248994788904
 31
0.0
  0
LINE
  5
8C59
330
8C1B
100
AcDbEntity
  8
0
  6
CONTINUOUS
100
AcDbLine
 10
16.38362068022866
 20
5.227118917843457
 30
0.0
 11
15.40900056526648
 21
6.201739032805637
 31
0.0
  0
LINE
  5
8C5A
330
8C1B
100
AcDbEntity
  8
0
  6
CONTINUOUS
100
AcDbLine
 10
19.75630898193422
 20
2.527949825218081
 30
0.0
 11
18.70774536448286
 21
3.576513442669441
 31
0.0
  0
LINE
  5
8C5B
330
8C1B
100
AcDbEntity
  8
0
  6
CONTINUOUS
100
AcDbLine
 10
19.95588973270936
 20
3.001888283523134
 30
0.0
 11
18.90726987211446
 21
4.050508144118028
 31
0.0
  0
LINE
  5
8C5C
330
8C1B
100
AcDbEntity
  8
0
  6
CONTINUOUS
100
AcDbLine
 10
20.15547048348449
 20
3.475826741828186
 30
0.0
 11
19.10679437974606
 21
4.524502845566614
 31
0.0
  0
LINE
  5
8C5D
330
8C1B
100
AcDbEntity
  8
0
  6
CONTINUOUS
100
AcDbLine
 10
20.35505123425962
 20
3.94976520013324
 30
0.0
 11
19.30631888737766
 21
4.998497547015201
 31
0.0
  0
LINE
  5
8C5E
330
8C1B
100
AcDbEntity
  8
0
  6
CONTINUOUS
100
AcDbLine
 10
20.55463198503475
 20
4.423703658438292
 30
0.0
 11
19.50584339500926
 21
5.472492248463787
 31
0.0
  0
LINE
  5
8C5F
330
8C1B
100
AcDbEntity
  8
0
  6
CONTINUOUS
100
AcDbLine
 10
18.37481191085755
 20
3.909446896294752
 30
0.0
 11
15.59302973632993
 21
6.691229070822371
 31
0.0
  0
LINE
  5
8C60
330
8C1B
100
AcDbEntity
  8
0
  6
CONTINUOUS
100
AcDbLine
 10
17.96904084440766
 20
4.988737171824825
 30
0.0
 11
15.77705890739338
 21
7.180719108839104
 31
0.0
  0
LINE
  5
8C61
330
8C1B
100
AcDbEntity
  8
0
  6
CONTINUOUS
100
AcDbLine
 10
17.56326977795777
 20
6.068027447354899
 30
0.0
 11
15.96108807845684
 21
7.670209146855838
 31
0.0
  0
LINE
  5
8C62
330
8C1B
100
AcDbEntity
  8
0
  6
CONTINUOUS
100
AcDbLine
 10
17.15749871150789
 20
7.147317722884972
 30
0.0
 11
16.14511724952029
 21
8.15969918487257
 31
0.0
  0
LINE
  5
8C63
330
8C1B
100
AcDbEntity
  8
0
  6
CONTINUOUS
100
AcDbLine
 10
16.751727645058
 20
8.226607998415046
 30
0.0
 11
16.32914642058374
 21
8.649189222889303
 31
0.0
  0
LINE
  5
8C64
330
8C1B
100
AcDbEntity
  8
0
  6
CONTINUOUS
100
AcDbLine
 10
20.75421273580989
 20
4.897642116743345
 30
0.0
 11
19.70536790264086
 21
5.946486949912374
 31
0.0
  0
LINE
  5
8C65
330
8C1B
100
AcDbEntity
  8
0
  6
CONTINUOUS
100
AcDbLine
 10
20.95379348658502
 20
5.371580575048398
 30
0.0
 11
19.90489241027246
 21
6.42048165136096
 31
0.0
  0
LINE
  5
8C66
330
8C1B
100
AcDbEntity
  8
0
  6
CONTINUOUS
100
AcDbLine
 10
21.15337423736015
 20
5.845519033353452
 30
0.0
 11
20.10441691790406
 21
6.894476352809547
 31
0.0
  0
LINE
  5
8C67
330
8C1B
100
AcDbEntity
  8
0
  6
CONTINUOUS
100
AcDbLine
 10
21.35295498813529
 20
6.319457491658505
 30
0.0
 11
20.30394142553566
 21
7.368471054258134
 31
0.0
  0
LINE
  5
8C68
330
8C1B
100
AcDbEntity
  8
0
  6
CONTINUOUS
100
AcDbLine
 10
21.55253573891042
 20
6.793395949963558
 30
0.0
 11
20.50346593316726
 21
7.842465755706721
 31
0.0
  0
LINE
  5
8C69
330
8C1B
100
AcDbEntity
  8
0
  6
CONTINUOUS
100
AcDbLine
 10
21.75211648968556
 20
7.267334408268612
 30
0.0
 11
20.70299044079886
 21
8.316460457155308
 31
0.0
  0
LINE
  5
8C6A
330
8C1B
100
AcDbEntity
  8
0
  6
CONTINUOUS
100
AcDbLine
 10
21.95169724046069
 20
7.741272866573663
 30
0.0
 11
20.9298701070431
 21
8.763099999991256
 31
0.0
  0
LINE
  5
8C6B
330
8C1B
100
AcDbEntity
  8
0
  6
CONTINUOUS
100
AcDbLine
 10
22.15127799123582
 20
8.215211324878716
 30
0.0
 11
21.60338931612328
 21
8.763099999991256
 31
0.0
  0
LINE
  5
8C6C
330
8C1B
100
AcDbEntity
  8
0
  6
CONTINUOUS
100
AcDbLine
 10
22.35085874201096
 20
8.689149783183769
 30
0.0
 11
22.27690852520347
 21
8.763099999991255
 31
0.0
  0
ENDBLK
  5
8D5E
330
8C1B
100
AcDbEntity
  8
0
100
AcDbBlockEnd
  0
BLOCK
  5
8D5F
330
8C6D
100
AcDbEntity
  8
0
100
AcDbBlockBegin
  2
*X50
 70
     1
 10
0.0
 20
0.0
 30
0.0
  3
*X50
  1

  0
LINE
  5
8C6E
330
8C6D
100
AcDbEntity
  8
0
  6
CONTINUOUS
100
AcDbLine
 10
23.19462913593892
 20
8.169917934846424
 30
0.0
 11
23.70775465517246
 21
8.683043454079957
 31
0.0
  0
LINE
  5
8C6F
330
8C6D
100
AcDbEntity
  8
0
  6
CONTINUOUS
100
AcDbLine
 10
22.64923161835078
 20
6.951001208178088
 30
0.0
 11
23.9159364069932
 21
8.217705996820516
 31
0.0
  0
LINE
  5
8C70
330
8C6D
100
AcDbEntity
  8
0
  6
CONTINUOUS
100
AcDbLine
 10
22.10383410076263
 20
5.732084481509751
 30
0.0
 11
24.12411815881395
 21
7.752368539561078
 31
0.0
  0
LINE
  5
8C71
330
8C6D
100
AcDbEntity
  8
0
  6
CONTINUOUS
100
AcDbLine
 10
21.55843658317447
 20
4.513167754841414
 30
0.0
 11
24.3322999106347
 21
7.287031082301639
 31
0.0
  0
LINE
  5
8C72
330
8C6D
100
AcDbEntity
  8
0
  6
CONTINUOUS
100
AcDbLine
 10
21.01303906558632
 20
3.294251028173077
 30
0.0
 11
24.54048166245544
 21
6.821693625042199
 31
0.0
  0
LINE
  5
8C73
330
8C6D
100
AcDbEntity
  8
0
  6
CONTINUOUS
100
AcDbLine
 10
20.46764154799817
 20
2.075334301504738
 30
0.0
 11
23.28571549467848
 21
4.89340824818505
 31
0.0
  0
LINE
  5
8C74
330
8C6D
100
AcDbEntity
  8
0
  6
CONTINUOUS
100
AcDbLine
 10
19.92224403041002
 20
0.8564175748364002
 30
0.0
 11
22.74075865492779
 21
3.674932199354171
 31
0.0
  0
LINE
  5
8C75
330
8C6D
100
AcDbEntity
  8
0
  6
CONTINUOUS
100
AcDbLine
 10
23.67305085490148
 20
5.280743608408048
 30
0.0
 11
24.74866341427619
 21
6.356356167782759
 31
0.0
  0
LINE
  5
8C76
330
8C6D
100
AcDbEntity
  8
0
  6
CONTINUOUS
100
AcDbLine
 10
23.88118970842314
 20
4.815363252849522
 30
0.0
 11
24.95684516609694
 21
5.89101871052332
 31
0.0
  0
LINE
  5
8C77
330
8C6D
100
AcDbEntity
  8
0
  6
CONTINUOUS
100
AcDbLine
 10
19.73925852647308
 20
-0.0000871381807288
 30
0.0
 11
23.4103456646501
 21
3.670999999996297
 31
0.0
  0
LINE
  5
8C78
330
8C6D
100
AcDbEntity
  8
0
  6
CONTINUOUS
100
AcDbLine
 10
24.0893285619448
 20
4.349982897290997
 30
0.0
 11
25.16502691791769
 21
5.42568125326388
 31
0.0
  0
LINE
  5
8C79
330
8C6D
100
AcDbEntity
  8
0
  6
CONTINUOUS
100
AcDbLine
 10
20.41282099582748
 20
-0.0000438779065108
 30
0.0
 11
21.64944178675636
 21
1.236576913022366
 31
0.0
  0
LINE
  5
8C7A
330
8C6D
100
AcDbEntity
  8
0
  6
CONTINUOUS
100
AcDbLine
 10
22.78126487373161
 20
2.36839999999762
 30
0.0
 11
24.08386487373029
 21
3.670999999996297
 31
0.0
  0
LINE
  5
8C7B
330
8C6D
100
AcDbEntity
  8
0
  6
CONTINUOUS
100
AcDbLine
 10
24.29746741546646
 20
3.884602541732471
 30
0.0
 11
25.37320866973843
 21
4.960343796004441
 31
0.0
  0
LINE
  5
8C7C
330
8C6D
100
AcDbEntity
  8
0
  6
CONTINUOUS
100
AcDbLine
 10
21.08638346518189
 20
-0.0000006176322938
 30
0.0
 11
21.10379033335899
 21
0.0174062505448083
 31
0.0
  0
LINE
  5
8C7D
330
8C6D
100
AcDbEntity
  8
0
  6
CONTINUOUS
100
AcDbLine
 10
23.4547840828118
 20
2.36839999999762
 30
0.0
 11
25.58139042155918
 21
4.495006338745002
 31
0.0
  0
LINE
  5
8C7E
330
8C6D
100
AcDbEntity
  8
0
  6
CONTINUOUS
100
AcDbLine
 10
29.30199999996933
 20
8.215615917155148
 30
0.0
 11
29.84948408280543
 21
8.763099999991255
 31
0.0
  0
LINE
  5
8C7F
330
8C6D
100
AcDbEntity
  8
0
  6
CONTINUOUS
100
AcDbLine
 10
24.12830329189199
 20
2.36839999999762
 30
0.0
 11
25.78957217337993
 21
4.029668881485562
 31
0.0
  0
LINE
  5
8C80
330
8C6D
100
AcDbEntity
  8
0
  6
CONTINUOUS
100
AcDbLine
 10
29.30199999996933
 20
7.54209670807496
 30
0.0
 11
30.52300329188562
 21
8.763099999991255
 31
0.0
  0
LINE
  5
8C81
330
8C6D
100
AcDbEntity
  8
0
  6
CONTINUOUS
100
AcDbLine
 10
24.80182250097217
 20
2.36839999999762
 30
0.0
 11
25.99775392520067
 21
3.564331424226122
 31
0.0
  0
LINE
  5
8C82
330
8C6D
100
AcDbEntity
  8
0
  6
CONTINUOUS
100
AcDbLine
 10
29.30199999996933
 20
6.868577498994774
 30
0.0
 11
30.74199999996926
 21
8.308577498994712
 31
0.0
  0
LINE
  5
8C83
330
8C6D
100
AcDbEntity
  8
0
  6
CONTINUOUS
100
AcDbLine
 10
25.13028238392013
 20
2.023340673865392
 30
0.0
 11
26.20593567702142
 21
3.098993966966683
 31
0.0
  0
LINE
  5
8C84
330
8C6D
100
AcDbEntity
  8
0
  6
CONTINUOUS
100
AcDbLine
 10
25.33838066033617
 20
1.557919741201244
 30
0.0
 11
26.41411742884217
 21
2.633656509707244
 31
0.0
  0
LINE
  5
8C85
330
8C6D
100
AcDbEntity
  8
0
  6
CONTINUOUS
100
AcDbLine
 10
25.54647893675221
 20
1.092498808537098
 30
0.0
 11
26.62229918066291
 21
2.168319052447804
 31
0.0
  0
LINE
  5
8C86
330
8C6D
100
AcDbEntity
  8
0
  6
CONTINUOUS
100
AcDbLine
 10
25.75457721316825
 20
0.62707787587295
 30
0.0
 11
26.83048093248366
 21
1.702981595188365
 31
0.0
  0
LINE
  5
8C87
330
8C6D
100
AcDbEntity
  8
0
  6
CONTINUOUS
100
AcDbLine
 10
29.30199999996933
 20
6.195058289914587
 30
0.0
 11
30.74199999996926
 21
7.635058289914522
 31
0.0
  0
LINE
  5
8C88
330
8C6D
100
AcDbEntity
  8
0
  6
CONTINUOUS
100
AcDbLine
 10
29.30199999996933
 20
5.521539080834401
 30
0.0
 11
30.74199999996926
 21
6.961539080834331
 31
0.0
  0
LINE
  5
8C89
330
8C6D
100
AcDbEntity
  8
0
  6
CONTINUOUS
100
AcDbLine
 10
29.30199999996933
 20
4.848019871754214
 30
0.0
 11
30.74199999996925
 21
6.288019871754143
 31
0.0
  0
LINE
  5
8C8A
330
8C6D
100
AcDbEntity
  8
0
  6
CONTINUOUS
100
AcDbLine
 10
29.30199999996933
 20
4.174500662674028
 30
0.0
 11
30.74199999996925
 21
5.614500662673953
 31
0.0
  0
LINE
  5
8C8B
330
8C6D
100
AcDbEntity
  8
0
  6
CONTINUOUS
100
AcDbLine
 10
25.96267548958429
 20
0.1616569432088024
 30
0.0
 11
27.18411854636669
 21
1.383099999991207
 31
0.0
  0
LINE
  5
8C8C
330
8C6D
100
AcDbEntity
  8
0
  6
CONTINUOUS
100
AcDbLine
 10
29.30199999996933
 20
3.500981453593841
 30
0.0
 11
30.74199999996925
 21
4.940981453593762
 31
0.0
  0
LINE
  5
8C8D
330
8C6D
100
AcDbEntity
  8
0
  6
CONTINUOUS
100
AcDbLine
 10
26.50763775544691
 20
0.0330999999912356
 30
0.0
 11
27.85763775544689
 21
1.383099999991223
 31
0.0
  0
LINE
  5
8C8E
330
8C6D
100
AcDbEntity
  8
0
  6
CONTINUOUS
100
AcDbLine
 10
29.30199999996933
 20
2.827462244513656
 30
0.0
 11
30.74199999996925
 21
4.267462244513574
 31
0.0
  0
LINE
  5
8C8F
330
8C6D
100
AcDbEntity
  8
0
  6
CONTINUOUS
100
AcDbLine
 10
27.18115696452709
 20
0.0330999999912356
 30
0.0
 11
28.55073879889363
 21
1.402681834357775
 31
0.0
  0
LINE
  5
8C90
330
8C6D
100
AcDbEntity
  8
0
  6
CONTINUOUS
100
AcDbLine
 10
29.28241816560272
 20
2.134361201066866
 30
0.0
 11
30.74199999996924
 21
3.593943035433383
 31
0.0
  0
LINE
  5
8C91
330
8C6D
100
AcDbEntity
  8
0
  6
CONTINUOUS
100
AcDbLine
 10
27.85467617360728
 20
0.0330999999912356
 30
0.0
 11
30.74199999996924
 21
2.920423826353195
 31
0.0
  0
LINE
  5
8C92
330
8C6D
100
AcDbEntity
  8
0
  6
CONTINUOUS
100
AcDbLine
 10
28.53897559587887
 20
0.0438802131826428
 30
0.0
 11
30.73121978677781
 21
2.236124404081585
 31
0.0
  0
LINE
  5
8C93
330
8C6D
100
AcDbEntity
  8
0
  6
CONTINUOUS
100
AcDbLine
 10
29.45140055588722
 20
0.2827859641107988
 30
0.0
 11
30.49231403584965
 21
1.323699444073236
 31
0.0
  0
LINE
  5
8C94
330
8C6D
100
AcDbEntity
  8
0
  6
CONTINUOUS
100
AcDbLine
 10
19.59027867740337
 20
-0.0000967065718083
 30
0.0
 11
19.55485265190471
 21
0.035329318926844
 31
0.0
  0
LINE
  5
8C95
330
8C6D
100
AcDbEntity
  8
0
  6
CONTINUOUS
100
AcDbLine
 10
20.26375463176586
 20
-0.0000534518541091
 30
0.0
 11
19.76305575737534
 21
0.5006454225364014
 31
0.0
  0
LINE
  5
8C96
330
8C6D
100
AcDbEntity
  8
0
  6
CONTINUOUS
100
AcDbLine
 10
20.93723058612834
 20
-0.0000101971364099
 30
0.0
 11
19.97125886284597
 21
0.965961526145958
 31
0.0
  0
LINE
  5
8C97
330
8C6D
100
AcDbEntity
  8
0
  6
CONTINUOUS
100
AcDbLine
 10
21.25514828313686
 20
0.355591314935257
 30
0.0
 11
20.1794619683166
 21
1.431277629755512
 31
0.0
  0
LINE
  5
8C98
330
8C6D
100
AcDbEntity
  8
0
  6
CONTINUOUS
100
AcDbLine
 10
21.46338838394921
 20
0.8208704232030986
 30
0.0
 11
20.38766507378723
 21
1.896593733365069
 31
0.0
  0
LINE
  5
8C99
330
8C6D
100
AcDbEntity
  8
0
  6
CONTINUOUS
100
AcDbLine
 10
21.67162848476155
 20
1.28614953147094
 30
0.0
 11
20.59586817925786
 21
2.361909836974626
 31
0.0
  0
LINE
  5
8C9A
330
8C6D
100
AcDbEntity
  8
0
  6
CONTINUOUS
100
AcDbLine
 10
21.8798685855739
 20
1.751428639738782
 30
0.0
 11
20.80407128472849
 21
2.827225940584183
 31
0.0
  0
LINE
  5
8C9B
330
8C6D
100
AcDbEntity
  8
0
  6
CONTINUOUS
100
AcDbLine
 10
22.08810868638624
 20
2.216707748006623
 30
0.0
 11
21.01227439019912
 21
3.292542044193739
 31
0.0
  0
LINE
  5
8C9C
330
8C6D
100
AcDbEntity
  8
0
  6
CONTINUOUS
100
AcDbLine
 10
22.60993564347543
 20
2.36839999999762
 30
0.0
 11
21.22047749566975
 21
3.757858147803296
 31
0.0
  0
LINE
  5
8C9D
330
8C6D
100
AcDbEntity
  8
0
  6
CONTINUOUS
100
AcDbLine
 10
23.28345485255561
 20
2.36839999999762
 30
0.0
 11
21.42868060114038
 21
4.223174251412853
 31
0.0
  0
LINE
  5
8C9E
330
8C6D
100
AcDbEntity
  8
0
  6
CONTINUOUS
100
AcDbLine
 10
26.29227406164219
 20
0.0330999999912356
 30
0.0
 11
25.80009199592872
 21
0.5252820657046957
 31
0.0
  0
LINE
  5
8C9F
330
8C6D
100
AcDbEntity
  8
0
  6
CONTINUOUS
100
AcDbLine
 10
23.9569740616358
 20
2.36839999999762
 30
0.0
 11
21.63688370661101
 21
4.688490355022409
 31
0.0
  0
LINE
  5
8CA0
330
8C6D
100
AcDbEntity
  8
0
  6
CONTINUOUS
100
AcDbLine
 10
26.96579327072237
 20
0.0330999999912356
 30
0.0
 11
25.2554132311971
 21
1.743480039516508
 31
0.0
  0
LINE
  5
8CA1
330
8C6D
100
AcDbEntity
  8
0
  6
CONTINUOUS
100
AcDbLine
 10
24.63049327071599
 20
2.36839999999762
 30
0.0
 11
23.32789327071731
 21
3.670999999996297
 31
0.0
  0
LINE
  5
8CA2
330
8C6D
100
AcDbEntity
  8
0
  6
CONTINUOUS
100
AcDbLine
 10
22.92098674744635
 20
4.077906523267254
 30
0.0
 11
21.84508681208164
 21
5.153806458631966
 31
0.0
  0
LINE
  5
8CA3
330
8C6D
100
AcDbEntity
  8
0
  6
CONTINUOUS
100
AcDbLine
 10
27.63931247980256
 20
0.0330999999912356
 30
0.0
 11
24.0014124797975
 21
3.670999999996297
 31
0.0
  0
LINE
  5
8CA4
330
8C6D
100
AcDbEntity
  8
0
  6
CONTINUOUS
100
AcDbLine
 10
23.129125600968
 20
4.5432868788258
 30
0.0
 11
22.05328991755227
 21
5.619122562241522
 31
0.0
  0
LINE
  5
8CA5
330
8C6D
100
AcDbEntity
  8
0
  6
CONTINUOUS
100
AcDbLine
 10
28.31283168888275
 20
0.0330999999912356
 30
0.0
 11
24.16488385994816
 21
4.181047828925828
 31
0.0
  0
LINE
  5
8CA6
330
8C6D
100
AcDbEntity
  8
0
  6
CONTINUOUS
100
AcDbLine
 10
23.33726445448964
 20
5.008667234384345
 30
0.0
 11
22.2614930230229
 21
6.084438665851079
 31
0.0
  0
LINE
  5
8CA7
330
8C6D
100
AcDbEntity
  8
0
  6
CONTINUOUS
100
AcDbLine
 10
28.92085740005492
 20
0.0985934978992438
 30
0.0
 11
27.63635089796295
 21
1.383099999991217
 31
0.0
  0
LINE
  5
8CA8
330
8C6D
100
AcDbEntity
  8
0
  6
CONTINUOUS
100
AcDbLine
 10
26.43704649509776
 20
2.582404402856405
 30
0.0
 11
23.61992702019732
 21
5.399523877756844
 31
0.0
  0
LINE
  5
8CA9
330
8C6D
100
AcDbEntity
  8
0
  6
CONTINUOUS
100
AcDbLine
 10
23.54540330801128
 20
5.47404758994289
 30
0.0
 11
22.46969612849353
 21
6.549754769460635
 31
0.0
  0
LINE
  5
8CAA
330
8C6D
100
AcDbEntity
  8
0
  6
CONTINUOUS
100
AcDbLine
 10
29.42225615078443
 20
0.2707139562499279
 30
0.0
 11
28.30987010704312
 21
1.383099999991234
 31
0.0
  0
LINE
  5
8CAB
330
8C6D
100
AcDbEntity
  8
0
  6
CONTINUOUS
100
AcDbLine
 10
25.89179548232307
 20
3.801174624711282
 30
0.0
 11
22.67789923396416
 21
7.015070873070191
 31
0.0
  0
LINE
  5
8CAC
330
8C6D
100
AcDbEntity
  8
0
  6
CONTINUOUS
100
AcDbLine
 10
29.83624534690007
 20
0.5302439692144705
 30
0.0
 11
28.85811781497101
 21
1.508371501143527
 31
0.0
  0
LINE
  5
8CAD
330
8C6D
100
AcDbEntity
  8
0
  6
CONTINUOUS
100
AcDbLine
 10
25.34654446954838
 20
5.01994484656616
 30
0.0
 11
22.88610233943479
 21
7.480386976679748
 31
0.0
  0
LINE
  5
8CAE
330
8C6D
100
AcDbEntity
  8
0
  6
CONTINUOUS
100
AcDbLine
 10
30.17865975401872
 20
0.8613487711760022
 30
0.0
 11
29.18888744090175
 21
1.851121084292977
 31
0.0
  0
LINE
  5
8CAF
330
8C6D
100
AcDbEntity
  8
0
  6
CONTINUOUS
100
AcDbLine
 10
24.80129345677369
 20
6.238715068421037
 30
0.0
 11
23.09430544490542
 21
7.945703080289305
 31
0.0
  0
LINE
  5
8CB0
330
8C6D
100
AcDbEntity
  8
0
  6
CONTINUOUS
100
AcDbLine
 10
30.45496647202376
 20
1.258561262251155
 30
0.0
 11
29.30199999996933
 21
2.411527734305588
 31
0.0
  0
LINE
  5
8CB1
330
8C6D
100
AcDbEntity
  8
0
  6
CONTINUOUS
100
AcDbLine
 10
24.256042443999
 20
7.457485290275915
 30
0.0
 11
23.30250855037605
 21
8.411019183898862
 31
0.0
  0
LINE
  5
8CB2
330
8C6D
100
AcDbEntity
  8
0
  6
CONTINUOUS
100
AcDbLine
 10
30.64868582078271
 20
1.738361122572387
 30
0.0
 11
29.30199999996933
 21
3.085046943385775
 31
0.0
  0
LINE
  5
8CB3
330
8C6D
100
AcDbEntity
  8
0
  6
CONTINUOUS
100
AcDbLine
 10
23.71079143122431
 20
8.676255512130794
 30
0.0
 11
23.51071165584668
 21
8.876335287508416
 31
0.0
  0
LINE
  5
8CB4
330
8C6D
100
AcDbEntity
  8
0
  6
CONTINUOUS
100
AcDbLine
 10
30.73802122914428
 20
2.322544923291007
 30
0.0
 11
29.30199999996933
 21
3.758566152465961
 31
0.0
  0
LINE
  5
8CB5
330
8C6D
100
AcDbEntity
  8
0
  6
CONTINUOUS
100
AcDbLine
 10
30.74199999996924
 20
2.992085361546236
 30
0.0
 11
29.30199999996933
 21
4.432085361546148
 31
0.0
  0
LINE
  5
8CB6
330
8C6D
100
AcDbEntity
  8
0
  6
CONTINUOUS
100
AcDbLine
 10
30.74199999996924
 20
3.665604570626419
 30
0.0
 11
29.30199999996933
 21
5.105604570626333
 31
0.0
  0
LINE
  5
8CB7
330
8C6D
100
AcDbEntity
  8
0
  6
CONTINUOUS
100
AcDbLine
 10
30.74199999996925
 20
4.339123779706602
 30
0.0
 11
29.30199999996933
 21
5.77912377970652
 31
0.0
  0
LINE
  5
8CB8
330
8C6D
100
AcDbEntity
  8
0
  6
CONTINUOUS
100
AcDbLine
 10
30.74199999996925
 20
5.012642988786785
 30
0.0
 11
29.30199999996933
 21
6.452642988786707
 31
0.0
  0
LINE
  5
8CB9
330
8C6D
100
AcDbEntity
  8
0
  6
CONTINUOUS
100
AcDbLine
 10
30.74199999996925
 20
5.68616219786697
 30
0.0
 11
29.30199999996933
 21
7.126162197866894
 31
0.0
  0
LINE
  5
8CBA
330
8C6D
100
AcDbEntity
  8
0
  6
CONTINUOUS
100
AcDbLine
 10
30.74199999996925
 20
6.359681406947153
 30
0.0
 11
29.30199999996933
 21
7.799681406947081
 31
0.0
  0
LINE
  5
8CBB
330
8C6D
100
AcDbEntity
  8
0
  6
CONTINUOUS
100
AcDbLine
 10
30.74199999996926
 20
7.033200616027337
 30
0.0
 11
29.30199999996933
 21
8.473200616027269
 31
0.0
  0
LINE
  5
8CBC
330
8C6D
100
AcDbEntity
  8
0
  6
CONTINUOUS
100
AcDbLine
 10
30.74199999996926
 20
7.706719825107518
 30
0.0
 11
29.68561982508552
 21
8.763099999991255
 31
0.0
  0
LINE
  5
8CBD
330
8C6D
100
AcDbEntity
  8
0
  6
CONTINUOUS
100
AcDbLine
 10
30.74199999996926
 20
8.380239034187703
 30
0.0
 11
30.35913903416571
 21
8.763099999991255
 31
0.0
  0
ENDBLK
  5
8D60
330
8C6D
100
AcDbEntity
  8
0
100
AcDbBlockEnd
  0
BLOCK
  5
8D61
330
8CBE
100
AcDbEntity
  8
0
100
AcDbBlockBegin
  2
*X51
 70
     1
 10
0.0
 20
0.0
 30
0.0
  3
*X51
  1

  0
LINE
  5
8CBF
330
8CBE
100
AcDbEntity
  8
0
  6
CONTINUOUS
100
AcDbLine
 10
31.64199999996833
 20
8.535058289913598
 30
0.0
 11
31.87004171004599
 21
8.763099999991255
 31
0.0
  0
LINE
  5
8CC0
330
8CBE
100
AcDbEntity
  8
0
  6
CONTINUOUS
100
AcDbLine
 10
31.64199999996833
 20
7.861539080833412
 30
0.0
 11
32.54356091912618
 21
8.763099999991255
 31
0.0
  0
LINE
  5
8CC1
330
8CBE
100
AcDbEntity
  8
0
  6
CONTINUOUS
100
AcDbLine
 10
31.64199999996833
 20
7.188019871753226
 30
0.0
 11
33.08199999996839
 21
8.628019871753281
 31
0.0
  0
LINE
  5
8CC2
330
8CBE
100
AcDbEntity
  8
0
  6
CONTINUOUS
100
AcDbLine
 10
31.64199999996833
 20
6.51450066267304
 30
0.0
 11
33.08199999996839
 21
7.954500662673095
 31
0.0
  0
LINE
  5
8CC3
330
8CBE
100
AcDbEntity
  8
0
  6
CONTINUOUS
100
AcDbLine
 10
31.64199999996833
 20
5.840981453592853
 30
0.0
 11
33.08199999996839
 21
7.280981453592908
 31
0.0
  0
LINE
  5
8CC4
330
8CBE
100
AcDbEntity
  8
0
  6
CONTINUOUS
100
AcDbLine
 10
31.64199999996833
 20
5.167462244512667
 30
0.0
 11
33.08199999996839
 21
6.607462244512721
 31
0.0
  0
LINE
  5
8CC5
330
8CBE
100
AcDbEntity
  8
0
  6
CONTINUOUS
100
AcDbLine
 10
31.64199999996833
 20
4.493943035432481
 30
0.0
 11
33.08199999996839
 21
5.933943035432535
 31
0.0
  0
LINE
  5
8CC6
330
8CBE
100
AcDbEntity
  8
0
  6
CONTINUOUS
100
AcDbLine
 10
31.64199999996833
 20
3.820423826352293
 30
0.0
 11
33.08199999996839
 21
5.260423826352348
 31
0.0
  0
LINE
  5
8CC7
330
8CBE
100
AcDbEntity
  8
0
  6
CONTINUOUS
100
AcDbLine
 10
31.64199999996833
 20
3.146904617272106
 30
0.0
 11
33.08199999996839
 21
4.586904617272161
 31
0.0
  0
LINE
  5
8CC8
330
8CBE
100
AcDbEntity
  8
0
  6
CONTINUOUS
100
AcDbLine
 10
36.23199999996837
 20
8.410423826352325
 30
0.0
 11
36.5846761736073
 21
8.763099999991255
 31
0.0
  0
LINE
  5
8CC9
330
8CBE
100
AcDbEntity
  8
0
  6
CONTINUOUS
100
AcDbLine
 10
36.23199999996837
 20
7.73690461727214
 30
0.0
 11
37.25819538268748
 21
8.763099999991255
 31
0.0
  0
LINE
  5
8CCA
330
8CBE
100
AcDbEntity
  8
0
  6
CONTINUOUS
100
AcDbLine
 10
31.64257403601376
 20
2.473959444237348
 30
0.0
 11
33.08199999996839
 21
3.913385408191974
 31
0.0
  0
LINE
  5
8CCB
330
8CBE
100
AcDbEntity
  8
0
  6
CONTINUOUS
100
AcDbLine
 10
36.23199999996837
 20
7.063385408191953
 30
0.0
 11
37.67199999996831
 21
8.503385408191894
 31
0.0
  0
LINE
  5
8CCC
330
8CBE
100
AcDbEntity
  8
0
  6
CONTINUOUS
100
AcDbLine
 10
31.72013636841932
 20
1.87800256756272
 30
0.0
 11
33.08199999996839
 21
3.239866199111788
 31
0.0
  0
LINE
  5
8CCD
330
8CBE
100
AcDbEntity
  8
0
  6
CONTINUOUS
100
AcDbLine
 10
36.23199999996837
 20
6.389866199111767
 30
0.0
 11
37.67199999996831
 21
7.829866199111708
 31
0.0
  0
LINE
  5
8CCE
330
8CBE
100
AcDbEntity
  8
0
  6
CONTINUOUS
100
AcDbLine
 10
31.89042734314753
 20
1.374774333210744
 30
0.0
 11
33.08199999996839
 21
2.566346990031601
 31
0.0
  0
LINE
  5
8CCF
330
8CBE
100
AcDbEntity
  8
0
  6
CONTINUOUS
100
AcDbLine
 10
36.23199999996837
 20
5.71634699003158
 30
0.0
 11
37.67199999996831
 21
7.156346990031521
 31
0.0
  0
LINE
  5
8CD0
330
8CBE
100
AcDbEntity
  8
0
  6
CONTINUOUS
100
AcDbLine
 10
32.14210568064475
 20
0.952933461627778
 30
0.0
 11
33.18745552475986
 21
1.998283305742888
 31
0.0
  0
LINE
  5
8CD1
330
8CBE
100
AcDbEntity
  8
0
  6
CONTINUOUS
100
AcDbLine
 10
36.23199999996837
 20
5.042827780951393
 30
0.0
 11
37.67199999996831
 21
6.482827780951334
 31
0.0
  0
LINE
  5
8CD2
330
8CBE
100
AcDbEntity
  8
0
  6
CONTINUOUS
100
AcDbLine
 10
32.45820639400955
 20
0.5955149659123915
 30
0.0
 11
33.47242681921943
 21
1.60973539112227
 31
0.0
  0
LINE
  5
8CD3
330
8CBE
100
AcDbEntity
  8
0
  6
CONTINUOUS
100
AcDbLine
 10
36.23199999996837
 20
4.369308571871207
 30
0.0
 11
37.67199999996831
 21
5.809308571871147
 31
0.0
  0
LINE
  5
8CD4
330
8CBE
100
AcDbEntity
  8
0
  6
CONTINUOUS
100
AcDbLine
 10
32.83432456621412
 20
0.2981139290367771
 30
0.0
 11
33.89722476612215
 21
1.361014128944803
 31
0.0
  0
LINE
  5
8CD5
330
8CBE
100
AcDbEntity
  8
0
  6
CONTINUOUS
100
AcDbLine
 10
36.23199999996837
 20
3.69578936279102
 30
0.0
 11
37.67199999996831
 21
5.135789362790962
 31
0.0
  0
LINE
  5
8CD6
330
8CBE
100
AcDbEntity
  8
0
  6
CONTINUOUS
100
AcDbLine
 10
33.2711633111245
 20
0.0614334648669672
 30
0.0
 11
34.43247338014423
 21
1.222743533886696
 31
0.0
  0
LINE
  5
8CD7
330
8CBE
100
AcDbEntity
  8
0
  6
CONTINUOUS
100
AcDbLine
 10
36.23199999996837
 20
3.022270153710834
 30
0.0
 11
37.67199999996831
 21
4.462270153710775
 31
0.0
  0
LINE
  5
8CD8
330
8CBE
100
AcDbEntity
  8
0
  6
CONTINUOUS
100
AcDbLine
 10
33.76515245874577
 20
-0.1180965965919523
 30
0.0
 11
35.1587445516215
 21
1.27549549628378
 31
0.0
  0
LINE
  5
8CD9
330
8CBE
100
AcDbEntity
  8
0
  6
CONTINUOUS
100
AcDbLine
 10
36.21639478609585
 20
2.333145730758136
 30
0.0
 11
37.67199999996831
 21
3.788750944630588
 31
0.0
  0
LINE
  5
8CDA
330
8CBE
100
AcDbEntity
  8
0
  6
CONTINUOUS
100
AcDbLine
 10
34.34060583368432
 20
-0.2161624307335863
 30
0.0
 11
37.67199999996831
 21
3.115231735550401
 31
0.0
  0
LINE
  5
8CDB
330
8CBE
100
AcDbEntity
  8
0
  6
CONTINUOUS
100
AcDbLine
 10
35.01698193613905
 20
-0.2133055373590427
 30
0.0
 11
37.66876712070525
 21
2.438479647207154
 31
0.0
  0
LINE
  5
8CDC
330
8CBE
100
AcDbEntity
  8
0
  6
CONTINUOUS
100
AcDbLine
 10
35.90743367693304
 20
0.0036269943547609
 30
0.0
 11
37.51723902192366
 21
1.613432339345381
 31
0.0
  0
LINE
  5
8CDD
330
8CBE
100
AcDbEntity
  8
0
  6
CONTINUOUS
100
AcDbLine
 10
32.55309425579761
 20
0.5074718966376706
 30
0.0
 11
32.27784730925847
 21
0.7827188431768102
 31
0.0
  0
LINE
  5
8CDE
330
8CBE
100
AcDbEntity
  8
0
  6
CONTINUOUS
100
AcDbLine
 10
33.87496468909684
 20
-0.1408793275813673
 30
0.0
 11
31.67993083278052
 21
2.054154528734943
 31
0.0
  0
LINE
  5
8CDF
330
8CBE
100
AcDbEntity
  8
0
  6
CONTINUOUS
100
AcDbLine
 10
34.64362813207632
 20
-0.2360235614806649
 30
0.0
 11
31.64199999996833
 21
2.765604570627322
 31
0.0
  0
LINE
  5
8CE0
330
8CBE
100
AcDbEntity
  8
0
  6
CONTINUOUS
100
AcDbLine
 10
35.25801106796118
 20
-0.1768872882853429
 30
0.0
 11
31.64199999996833
 21
3.439123779707508
 31
0.0
  0
LINE
  5
8CE1
330
8CBE
100
AcDbEntity
  8
0
  6
CONTINUOUS
100
AcDbLine
 10
35.79065650332146
 20
-0.0360135145654361
 30
0.0
 11
34.54143210838231
 21
1.213210880373721
 31
0.0
  0
LINE
  5
8CE2
330
8CBE
100
AcDbEntity
  8
0
  6
CONTINUOUS
100
AcDbLine
 10
33.08199999996839
 20
2.67264298878764
 30
0.0
 11
31.64199999996833
 21
4.112642988787695
 31
0.0
  0
LINE
  5
8CE3
330
8CBE
100
AcDbEntity
  8
0
  6
CONTINUOUS
100
AcDbLine
 10
36.25975597779143
 20
0.1684062200447833
 30
0.0
 11
35.15395110240023
 21
1.274211095435983
 31
0.0
  0
LINE
  5
8CE4
330
8CBE
100
AcDbEntity
  8
0
  6
CONTINUOUS
100
AcDbLine
 10
33.08199999996839
 20
3.346162197867826
 30
0.0
 11
31.64199999996833
 21
4.786162197867881
 31
0.0
  0
LINE
  5
8CE5
330
8CBE
100
AcDbEntity
  8
0
  6
CONTINUOUS
100
AcDbLine
 10
36.67226329638774
 20
0.4294181105286579
 30
0.0
 11
35.63766478748767
 21
1.464016619428737
 31
0.0
  0
LINE
  5
8CE6
330
8CBE
100
AcDbEntity
  8
0
  6
CONTINUOUS
100
AcDbLine
 10
33.08199999996839
 20
4.019681406948012
 30
0.0
 11
31.64199999996833
 21
5.459681406948068
 31
0.0
  0
LINE
  5
8CE7
330
8CBE
100
AcDbEntity
  8
0
  6
CONTINUOUS
100
AcDbLine
 10
37.01677749710036
 20
0.7584231188962329
 30
0.0
 11
35.99563422741351
 21
1.779566388583076
 31
0.0
  0
LINE
  5
8CE8
330
8CBE
100
AcDbEntity
  8
0
  6
CONTINUOUS
100
AcDbLine
 10
33.08199999996839
 20
4.693200616028199
 30
0.0
 11
31.64199999996833
 21
6.133200616028255
 31
0.0
  0
LINE
  5
8CE9
330
8CBE
100
AcDbEntity
  8
0
  6
CONTINUOUS
100
AcDbLine
 10
37.29859977568887
 20
1.1501200493879
 30
0.0
 11
36.20680593341555
 21
2.241913891661226
 31
0.0
  0
LINE
  5
8CEA
330
8CBE
100
AcDbEntity
  8
0
  6
CONTINUOUS
100
AcDbLine
 10
33.08199999996839
 20
5.366719825108386
 30
0.0
 11
31.64199999996833
 21
6.80671982510844
 31
0.0
  0
LINE
  5
8CEB
330
8CBE
100
AcDbEntity
  8
0
  6
CONTINUOUS
100
AcDbLine
 10
37.5148623517228
 20
1.607376682434161
 30
0.0
 11
36.23199999996837
 21
2.890239034188594
 31
0.0
  0
LINE
  5
8CEC
330
8CBE
100
AcDbEntity
  8
0
  6
CONTINUOUS
100
AcDbLine
 10
33.08199999996839
 20
6.040239034188573
 30
0.0
 11
31.64199999996833
 21
7.480239034188627
 31
0.0
  0
LINE
  5
8CED
330
8CBE
100
AcDbEntity
  8
0
  6
CONTINUOUS
100
AcDbLine
 10
37.64705163358367
 20
2.148706609653477
 30
0.0
 11
36.23199999996837
 21
3.56375824326878
 31
0.0
  0
LINE
  5
8CEE
330
8CBE
100
AcDbEntity
  8
0
  6
CONTINUOUS
100
AcDbLine
 10
33.08199999996839
 20
6.713758243268758
 30
0.0
 11
31.64199999996833
 21
8.153758243268815
 31
0.0
  0
LINE
  5
8CEF
330
8CBE
100
AcDbEntity
  8
0
  6
CONTINUOUS
100
AcDbLine
 10
37.67199999996831
 20
2.797277452349026
 30
0.0
 11
36.23199999996837
 21
4.237277452348967
 31
0.0
  0
LINE
  5
8CF0
330
8CBE
100
AcDbEntity
  8
0
  6
CONTINUOUS
100
AcDbLine
 10
37.67199999996831
 20
3.470796661429213
 30
0.0
 11
36.23199999996837
 21
4.910796661429154
 31
0.0
  0
LINE
  5
8CF1
330
8CBE
100
AcDbEntity
  8
0
  6
CONTINUOUS
100
AcDbLine
 10
37.67199999996831
 20
4.144315870509399
 30
0.0
 11
36.23199999996837
 21
5.58431587050934
 31
0.0
  0
LINE
  5
8CF2
330
8CBE
100
AcDbEntity
  8
0
  6
CONTINUOUS
100
AcDbLine
 10
33.08199999996839
 20
7.387277452348945
 30
0.0
 11
31.70617745232608
 21
8.763099999991255
 31
0.0
  0
LINE
  5
8CF3
330
8CBE
100
AcDbEntity
  8
0
  6
CONTINUOUS
100
AcDbLine
 10
33.08199999996839
 20
8.060796661429132
 30
0.0
 11
32.37969666140626
 21
8.763099999991255
 31
0.0
  0
LINE
  5
8CF4
330
8CBE
100
AcDbEntity
  8
0
  6
CONTINUOUS
100
AcDbLine
 10
33.08199999996839
 20
8.734315870509318
 30
0.0
 11
33.05321587048645
 21
8.763099999991255
 31
0.0
  0
LINE
  5
8CF5
330
8CBE
100
AcDbEntity
  8
0
  6
CONTINUOUS
100
AcDbLine
 10
37.67199999996831
 20
4.817835079589585
 30
0.0
 11
36.23199999996837
 21
6.257835079589526
 31
0.0
  0
LINE
  5
8CF6
330
8CBE
100
AcDbEntity
  8
0
  6
CONTINUOUS
100
AcDbLine
 10
37.67199999996831
 20
5.491354288669771
 30
0.0
 11
36.23199999996837
 21
6.931354288669713
 31
0.0
  0
LINE
  5
8CF7
330
8CBE
100
AcDbEntity
  8
0
  6
CONTINUOUS
100
AcDbLine
 10
37.67199999996831
 20
6.164873497749958
 30
0.0
 11
36.23199999996837
 21
7.6048734977499
 31
0.0
  0
LINE
  5
8CF8
330
8CBE
100
AcDbEntity
  8
0
  6
CONTINUOUS
100
AcDbLine
 10
37.67199999996831
 20
6.838392706830144
 30
0.0
 11
36.23199999996837
 21
8.278392706830086
 31
0.0
  0
LINE
  5
8CF9
330
8CBE
100
AcDbEntity
  8
0
  6
CONTINUOUS
100
AcDbLine
 10
37.67199999996831
 20
7.511911915910332
 30
0.0
 11
36.42081191588738
 21
8.763099999991255
 31
0.0
  0
LINE
  5
8CFA
330
8CBE
100
AcDbEntity
  8
0
  6
CONTINUOUS
100
AcDbLine
 10
37.67199999996831
 20
8.185431124990519
 30
0.0
 11
37.09433112496757
 21
8.763099999991255
 31
0.0
  0
ENDBLK
  5
8D62
330
8CBE
100
AcDbEntity
  8
0
100
AcDbBlockEnd
  0
BLOCK
  5
8D63
330
8CFB
100
AcDbEntity
  8
0
100
AcDbBlockBegin
  2
*X52
 70
     1
 10
0.0
 20
0.0
 30
0.0
  3
*X52
  1

  0
LINE
  5
8CFC
330
8CFB
100
AcDbEntity
  8
0
  6
CONTINUOUS
100
AcDbLine
 10
38.60499999996136
 20
8.762866199104765
 30
0.0
 11
38.71672554182345
 21
8.874591740966855
 31
0.0
  0
LINE
  5
8CFD
330
8CFB
100
AcDbEntity
  8
0
  6
CONTINUOUS
100
AcDbLine
 10
38.60499999996136
 20
8.089346990024577
 30
0.0
 11
39.03418785440363
 21
8.518534844466847
 31
0.0
  0
LINE
  5
8CFE
330
8CFB
100
AcDbEntity
  8
0
  6
CONTINUOUS
100
AcDbLine
 10
38.60499999996136
 20
7.41582778094439
 30
0.0
 11
39.35165016698382
 21
8.16247794796684
 31
0.0
  0
LINE
  5
8CFF
330
8CFB
100
AcDbEntity
  8
0
  6
CONTINUOUS
100
AcDbLine
 10
38.60499999996136
 20
6.742308571864204
 30
0.0
 11
39.66911247956399
 21
7.806421051466834
 31
0.0
  0
LINE
  5
8D00
330
8CFB
100
AcDbEntity
  8
0
  6
CONTINUOUS
100
AcDbLine
 10
38.60499999996136
 20
6.068789362784018
 30
0.0
 11
39.98657479214418
 21
7.450364154966827
 31
0.0
  0
LINE
  5
8D01
330
8CFB
100
AcDbEntity
  8
0
  6
CONTINUOUS
100
AcDbLine
 10
38.60499999996136
 20
5.395270153703832
 30
0.0
 11
40.30403710472435
 21
7.09430725846682
 31
0.0
  0
LINE
  5
8D02
330
8CFB
100
AcDbEntity
  8
0
  6
CONTINUOUS
100
AcDbLine
 10
38.60499999996136
 20
4.721750944623645
 30
0.0
 11
40.62149941730453
 21
6.738250361966813
 31
0.0
  0
LINE
  5
8D03
330
8CFB
100
AcDbEntity
  8
0
  6
CONTINUOUS
100
AcDbLine
 10
38.60499999996136
 20
4.048231735543458
 30
0.0
 11
40.93896172988471
 21
6.382193465466806
 31
0.0
  0
LINE
  5
8D04
330
8CFB
100
AcDbEntity
  8
0
  6
CONTINUOUS
100
AcDbLine
 10
38.60499999996136
 20
3.374712526463272
 30
0.0
 11
40.02599999995994
 21
4.795712526461843
 31
0.0
  0
LINE
  5
8D05
330
8CFB
100
AcDbEntity
  8
0
  6
CONTINUOUS
100
AcDbLine
 10
38.60499999996136
 20
2.701193317383085
 30
0.0
 11
40.02599999995994
 21
4.122193317381657
 31
0.0
  0
LINE
  5
8D06
330
8CFB
100
AcDbEntity
  8
0
  6
CONTINUOUS
100
AcDbLine
 10
40.28339754687704
 20
5.053110073378947
 30
0.0
 11
41.25642404246489
 21
6.026136568966799
 31
0.0
  0
LINE
  5
8D07
330
8CFB
100
AcDbEntity
  8
0
  6
CONTINUOUS
100
AcDbLine
 10
40.60085985945722
 20
4.697053176878939
 30
0.0
 11
41.57388635504507
 21
5.670079672466793
 31
0.0
  0
LINE
  5
8D08
330
8CFB
100
AcDbEntity
  8
0
  6
CONTINUOUS
100
AcDbLine
 10
43.57899999995641
 20
8.348712526458318
 30
0.0
 11
43.99338747348935
 21
8.763099999991255
 31
0.0
  0
LINE
  5
8D09
330
8CFB
100
AcDbEntity
  8
0
  6
CONTINUOUS
100
AcDbLine
 10
43.57899999995641
 20
7.675193317378131
 30
0.0
 11
44.66690668256953
 21
8.763099999991255
 31
0.0
  0
LINE
  5
8D0A
330
8CFB
100
AcDbEntity
  8
0
  6
CONTINUOUS
100
AcDbLine
 10
38.60499999996136
 20
2.027674108302898
 30
0.0
 11
40.02599999995994
 21
3.44867410830147
 31
0.0
  0
LINE
  5
8D0B
330
8CFB
100
AcDbEntity
  8
0
  6
CONTINUOUS
100
AcDbLine
 10
38.60499999996136
 20
1.354154899222712
 30
0.0
 11
40.02599999995994
 21
2.775154899221284
 31
0.0
  0
LINE
  5
8D0C
330
8CFB
100
AcDbEntity
  8
0
  6
CONTINUOUS
100
AcDbLine
 10
38.60499999996136
 20
0.6806356901425255
 30
0.0
 11
40.02599999995994
 21
2.101635690141098
 31
0.0
  0
LINE
  5
8D0D
330
8CFB
100
AcDbEntity
  8
0
  6
CONTINUOUS
100
AcDbLine
 10
38.60499999996136
 20
0.0071164810623383
 30
0.0
 11
40.02599999995994
 21
1.428116481060911
 31
0.0
  0
LINE
  5
8D0E
330
8CFB
100
AcDbEntity
  8
0
  6
CONTINUOUS
100
AcDbLine
 10
40.9183221720374
 20
4.340996280378933
 30
0.0
 11
41.89134866762525
 21
5.314022775966786
 31
0.0
  0
LINE
  5
8D0F
330
8CFB
100
AcDbEntity
  8
0
  6
CONTINUOUS
100
AcDbLine
 10
41.23578448461758
 20
3.984939383878926
 30
0.0
 11
42.20881098020543
 21
4.957965879466778
 31
0.0
  0
LINE
  5
8D10
330
8CFB
100
AcDbEntity
  8
0
  6
CONTINUOUS
100
AcDbLine
 10
41.55324679719776
 20
3.628882487378919
 30
0.0
 11
42.52627329278561
 21
4.601908982966772
 31
0.0
  0
LINE
  5
8D11
330
8CFB
100
AcDbEntity
  8
0
  6
CONTINUOUS
100
AcDbLine
 10
41.87070910977793
 20
3.272825590878912
 30
0.0
 11
42.84373560536579
 21
4.245852086466765
 31
0.0
  0
LINE
  5
8D12
330
8CFB
100
AcDbEntity
  8
0
  6
CONTINUOUS
100
AcDbLine
 10
43.57899999995641
 20
7.001674108297943
 30
0.0
 11
44.99999999995498
 21
8.422674108296516
 31
0.0
  0
LINE
  5
8D13
330
8CFB
100
AcDbEntity
  8
0
  6
CONTINUOUS
100
AcDbLine
 10
43.57899999995641
 20
6.328154899217758
 30
0.0
 11
44.99999999995498
 21
7.749154899216329
 31
0.0
  0
LINE
  5
8D14
330
8CFB
100
AcDbEntity
  8
0
  6
CONTINUOUS
100
AcDbLine
 10
43.57899999995641
 20
5.654635690137571
 30
0.0
 11
44.99999999995498
 21
7.075635690136142
 31
0.0
  0
LINE
  5
8D15
330
8CFB
100
AcDbEntity
  8
0
  6
CONTINUOUS
100
AcDbLine
 10
43.57899999995641
 20
4.981116481057384
 30
0.0
 11
44.99999999995498
 21
6.402116481055955
 31
0.0
  0
LINE
  5
8D16
330
8CFB
100
AcDbEntity
  8
0
  6
CONTINUOUS
100
AcDbLine
 10
39.27140272797921
 20
-0.0000000000000009
 30
0.0
 11
40.02599999995994
 21
0.7545972719807246
 31
0.0
  0
LINE
  5
8D17
330
8CFB
100
AcDbEntity
  8
0
  6
CONTINUOUS
100
AcDbLine
 10
39.9449219370594
 20
-0.0000000000000009
 30
0.0
 11
40.02599999995994
 21
0.0810780629005379
 31
0.0
  0
LINE
  5
8D18
330
8CFB
100
AcDbEntity
  8
0
  6
CONTINUOUS
100
AcDbLine
 10
42.18817142235812
 20
2.916768694378905
 30
0.0
 11
43.16119791794597
 21
3.889795189966758
 31
0.0
  0
LINE
  5
8D19
330
8CFB
100
AcDbEntity
  8
0
  6
CONTINUOUS
100
AcDbLine
 10
42.50563373493829
 20
2.560711797878898
 30
0.0
 11
43.47866023052615
 21
3.533738293466751
 31
0.0
  0
LINE
  5
8D1A
330
8CFB
100
AcDbEntity
  8
0
  6
CONTINUOUS
100
AcDbLine
 10
43.57899999995641
 20
4.307597271977198
 30
0.0
 11
44.99999999995498
 21
5.728597271975769
 31
0.0
  0
LINE
  5
8D1B
330
8CFB
100
AcDbEntity
  8
0
  6
CONTINUOUS
100
AcDbLine
 10
43.57899999995641
 20
3.634078062897011
 30
0.0
 11
44.99999999995498
 21
5.055078062895582
 31
0.0
  0
LINE
  5
8D1C
330
8CFB
100
AcDbEntity
  8
0
  6
CONTINUOUS
100
AcDbLine
 10
42.82309604751848
 20
2.204654901378891
 30
0.0
 11
44.99999999995498
 21
4.381558853815395
 31
0.0
  0
LINE
  5
8D1D
330
8CFB
100
AcDbEntity
  8
0
  6
CONTINUOUS
100
AcDbLine
 10
43.14055836009865
 20
1.848598004878885
 30
0.0
 11
44.99999999995498
 21
3.70803964473521
 31
0.0
  0
LINE
  5
8D1E
330
8CFB
100
AcDbEntity
  8
0
  6
CONTINUOUS
100
AcDbLine
 10
43.45802067267883
 20
1.492541108378878
 30
0.0
 11
44.99999999995498
 21
3.034520435655023
 31
0.0
  0
LINE
  5
8D1F
330
8CFB
100
AcDbEntity
  8
0
  6
CONTINUOUS
100
AcDbLine
 10
43.77548298525902
 20
1.136484211878871
 30
0.0
 11
44.99999999995498
 21
2.361001226574837
 31
0.0
  0
LINE
  5
8D20
330
8CFB
100
AcDbEntity
  8
0
  6
CONTINUOUS
100
AcDbLine
 10
44.09294529783919
 20
0.7804273153788639
 30
0.0
 11
44.99999999995498
 21
1.687482017494649
 31
0.0
  0
LINE
  5
8D21
330
8CFB
100
AcDbEntity
  8
0
  6
CONTINUOUS
100
AcDbLine
 10
44.41040761041938
 20
0.4243704188788566
 30
0.0
 11
44.99999999995498
 21
1.013962808414463
 31
0.0
  0
LINE
  5
8D22
330
8CFB
100
AcDbEntity
  8
0
  6
CONTINUOUS
100
AcDbLine
 10
44.72786992299955
 20
0.0683135223788494
 30
0.0
 11
44.99999999995498
 21
0.340443599334276
 31
0.0
  0
LINE
  5
8D23
330
8CFB
100
AcDbEntity
  8
0
  6
CONTINUOUS
100
AcDbLine
 10
39.12223903415696
 20
-0.0000000000000009
 30
0.0
 11
38.60499999996136
 21
0.5172390341955961
 31
0.0
  0
LINE
  5
8D24
330
8CFB
100
AcDbEntity
  8
0
  6
CONTINUOUS
100
AcDbLine
 10
39.79575824323715
 20
-0.0000000000000009
 30
0.0
 11
38.60499999996136
 21
1.190758243275783
 31
0.0
  0
LINE
  5
8D25
330
8CFB
100
AcDbEntity
  8
0
  6
CONTINUOUS
100
AcDbLine
 10
40.02599999995994
 20
0.443277452357397
 30
0.0
 11
38.60499999996136
 21
1.864277452355969
 31
0.0
  0
LINE
  5
8D26
330
8CFB
100
AcDbEntity
  8
0
  6
CONTINUOUS
100
AcDbLine
 10
40.02599999995994
 20
1.116796661437583
 30
0.0
 11
38.60499999996136
 21
2.537796661436155
 31
0.0
  0
LINE
  5
8D27
330
8CFB
100
AcDbEntity
  8
0
  6
CONTINUOUS
100
AcDbLine
 10
40.02599999995994
 20
1.79031587051777
 30
0.0
 11
38.60499999996136
 21
3.211315870516341
 31
0.0
  0
LINE
  5
8D28
330
8CFB
100
AcDbEntity
  8
0
  6
CONTINUOUS
100
AcDbLine
 10
40.02599999995994
 20
2.463835079597956
 30
0.0
 11
38.60499999996136
 21
3.884835079596527
 31
0.0
  0
LINE
  5
8D29
330
8CFB
100
AcDbEntity
  8
0
  6
CONTINUOUS
100
AcDbLine
 10
40.02599999995994
 20
3.137354288678143
 30
0.0
 11
38.60499999996136
 21
4.558354288676714
 31
0.0
  0
LINE
  5
8D2A
330
8CFB
100
AcDbEntity
  8
0
  6
CONTINUOUS
100
AcDbLine
 10
40.02599999995994
 20
3.810873497758329
 30
0.0
 11
38.60499999996136
 21
5.2318734977569
 31
0.0
  0
LINE
  5
8D2B
330
8CFB
100
AcDbEntity
  8
0
  6
CONTINUOUS
100
AcDbLine
 10
40.02599999995994
 20
4.484392706838515
 30
0.0
 11
38.60499999996136
 21
5.905392706837086
 31
0.0
  0
LINE
  5
8D2C
330
8CFB
100
AcDbEntity
  8
0
  6
CONTINUOUS
100
AcDbLine
 10
44.99999999995498
 20
0.183911915923658
 30
0.0
 11
41.53858364506288
 21
3.64532827081576
 31
0.0
  0
LINE
  5
8D2D
330
8CFB
100
AcDbEntity
  8
0
  6
CONTINUOUS
100
AcDbLine
 10
40.02599999995994
 20
5.157911915918703
 30
0.0
 11
38.60499999996136
 21
6.578911915917274
 31
0.0
  0
LINE
  5
8D2E
330
8CFB
100
AcDbEntity
  8
0
  6
CONTINUOUS
100
AcDbLine
 10
44.99999999995498
 20
0.8574311250038447
 30
0.0
 11
38.60499999996136
 21
7.25243112499746
 31
0.0
  0
LINE
  5
8D2F
330
8CFB
100
AcDbEntity
  8
0
  6
CONTINUOUS
100
AcDbLine
 10
44.99999999995498
 20
1.530950334084031
 30
0.0
 11
38.60499999996136
 21
7.925950334077647
 31
0.0
  0
LINE
  5
8D30
330
8CFB
100
AcDbEntity
  8
0
  6
CONTINUOUS
100
AcDbLine
 10
44.99999999995498
 20
2.204469543164218
 30
0.0
 11
43.57899999995641
 21
3.625469543162789
 31
0.0
  0
LINE
  5
8D31
330
8CFB
100
AcDbEntity
  8
0
  6
CONTINUOUS
100
AcDbLine
 10
41.89876730984767
 20
5.305702233271528
 30
0.0
 11
38.60499999996136
 21
8.599469543157834
 31
0.0
  0
LINE
  5
8D32
330
8CFB
100
AcDbEntity
  8
0
  6
CONTINUOUS
100
AcDbLine
 10
44.99999999995498
 20
2.877988752244405
 30
0.0
 11
43.57899999995641
 21
4.298988752242975
 31
0.0
  0
LINE
  5
8D33
330
8CFB
100
AcDbEntity
  8
0
  6
CONTINUOUS
100
AcDbLine
 10
44.99999999995498
 20
3.551507961324591
 30
0.0
 11
43.57899999995641
 21
4.972507961323163
 31
0.0
  0
LINE
  5
8D34
330
8CFB
100
AcDbEntity
  8
0
  6
CONTINUOUS
100
AcDbLine
 10
44.99999999995498
 20
4.225027170404777
 30
0.0
 11
43.57899999995641
 21
5.646027170403348
 31
0.0
  0
LINE
  5
8D35
330
8CFB
100
AcDbEntity
  8
0
  6
CONTINUOUS
100
AcDbLine
 10
44.99999999995498
 20
4.898546379484964
 30
0.0
 11
43.57899999995641
 21
6.319546379483535
 31
0.0
  0
LINE
  5
8D36
330
8CFB
100
AcDbEntity
  8
0
  6
CONTINUOUS
100
AcDbLine
 10
44.99999999995498
 20
5.572065588565151
 30
0.0
 11
43.57899999995641
 21
6.993065588563722
 31
0.0
  0
LINE
  5
8D37
330
8CFB
100
AcDbEntity
  8
0
  6
CONTINUOUS
100
AcDbLine
 10
44.99999999995498
 20
6.245584797645336
 30
0.0
 11
43.57899999995641
 21
7.666584797643908
 31
0.0
  0
LINE
  5
8D38
330
8CFB
100
AcDbEntity
  8
0
  6
CONTINUOUS
100
AcDbLine
 10
44.99999999995498
 20
6.919104006725522
 30
0.0
 11
43.57899999995641
 21
8.340104006724093
 31
0.0
  0
LINE
  5
8D39
330
8CFB
100
AcDbEntity
  8
0
  6
CONTINUOUS
100
AcDbLine
 10
44.99999999995498
 20
7.592623215805709
 30
0.0
 11
43.82952321576943
 21
8.763099999991255
 31
0.0
  0
LINE
  5
8D3A
330
8CFB
100
AcDbEntity
  8
0
  6
CONTINUOUS
100
AcDbLine
 10
44.99999999995498
 20
8.266142424885896
 30
0.0
 11
44.50304242484962
 21
8.763099999991255
 31
0.0
  0
ENDBLK
  5
8D64
330
8CFB
100
AcDbEntity
  8
0
100
AcDbBlockEnd
  0
BLOCK
  5
8D65
330
8D3B
100
AcDbEntity
  8
0
100
AcDbBlockBegin
  2
*X53
 70
     1
 10
0.0
 20
0.0
 30
0.0
  3
*X53
  1

  0
LINE
  5
8D3C
330
8D3B
100
AcDbEntity
  8
0
  6
CONTINUOUS
100
AcDbLine
 10
0.0
 20
8.548461116714023
 30
0.0
 11
0.2146388832772324
 21
8.763099999991255
 31
0.0
  0
LINE
  5
8D3D
330
8D3B
100
AcDbEntity
  8
0
  6
CONTINUOUS
100
AcDbLine
 10
-0.0000000000000002
 20
7.874941907633837
 30
0.0
 11
0.8881580923574184
 21
8.763099999991255
 31
0.0
  0
LINE
  5
8D3E
330
8D3B
100
AcDbEntity
  8
0
  6
CONTINUOUS
100
AcDbLine
 10
0.0
 20
7.20142269855365
 30
0.0
 11
1.420999999998572
 21
8.622422698552223
 31
0.0
  0
LINE
  5
8D3F
330
8D3B
100
AcDbEntity
  8
0
  6
CONTINUOUS
100
AcDbLine
 10
-0.0000000000000001
 20
6.527903489473465
 30
0.0
 11
1.420999999998571
 21
7.948903489472036
 31
0.0
  0
LINE
  5
8D40
330
8D3B
100
AcDbEntity
  8
0
  6
CONTINUOUS
100
AcDbLine
 10
-0.0000000000000002
 20
5.854384280393278
 30
0.0
 11
1.420999999998571
 21
7.275384280391849
 31
0.0
  0
LINE
  5
8D41
330
8D3B
100
AcDbEntity
  8
0
  6
CONTINUOUS
100
AcDbLine
 10
-0.0000000000000002
 20
5.180865071313091
 30
0.0
 11
1.420999999998571
 21
6.601865071311663
 31
0.0
  0
LINE
  5
8D42
330
8D3B
100
AcDbEntity
  8
0
  6
CONTINUOUS
100
AcDbLine
 10
0.0
 20
4.507345862232905
 30
0.0
 11
1.420999999998571
 21
5.928345862231477
 31
0.0
  0
LINE
  5
8D43
330
8D3B
100
AcDbEntity
  8
0
  6
CONTINUOUS
100
AcDbLine
 10
-0.0000000000000003
 20
3.833826653152718
 30
0.0
 11
1.420999999998571
 21
5.25482665315129
 31
0.0
  0
LINE
  5
8D44
330
8D3B
100
AcDbEntity
  8
0
  6
CONTINUOUS
100
AcDbLine
 10
-0.0000000000000002
 20
3.160307444072532
 30
0.0
 11
1.420999999998571
 21
4.581307444071103
 31
0.0
  0
LINE
  5
8D45
330
8D3B
100
AcDbEntity
  8
0
  6
CONTINUOUS
100
AcDbLine
 10
-0.0000000000000001
 20
2.486788234992345
 30
0.0
 11
1.420999999998571
 21
3.907788234990917
 31
0.0
  0
LINE
  5
8D46
330
8D3B
100
AcDbEntity
  8
0
  6
CONTINUOUS
100
AcDbLine
 10
-0.0000000000000006
 20
1.813269025912159
 30
0.0
 11
1.420999999998571
 21
3.234269025910731
 31
0.0
  0
LINE
  5
8D47
330
8D3B
100
AcDbEntity
  8
0
  6
CONTINUOUS
100
AcDbLine
 10
0.0
 20
1.139749816831973
 30
0.0
 11
1.420999999998571
 21
2.560749816830544
 31
0.0
  0
LINE
  5
8D48
330
8D3B
100
AcDbEntity
  8
0
  6
CONTINUOUS
100
AcDbLine
 10
0.0000000000000002
 20
0.466230607751787
 30
0.0
 11
1.420999999998571
 21
1.887230607750358
 31
0.0
  0
LINE
  5
8D49
330
8D3B
100
AcDbEntity
  8
0
  6
CONTINUOUS
100
AcDbLine
 10
0.2072886013284003
 20
-0.0000000000000009
 30
0.0
 11
1.420999999998571
 21
1.213711398670171
 31
0.0
  0
LINE
  5
8D4A
330
8D3B
100
AcDbEntity
  8
0
  6
CONTINUOUS
100
AcDbLine
 10
0.8808078104085864
 20
-0.0000000000000009
 30
0.0
 11
1.420999999998571
 21
0.5401921895899839
 31
0.0
  0
LINE
  5
8D4B
330
8D3B
100
AcDbEntity
  8
0
  6
CONTINUOUS
100
AcDbLine
 10
0.0581249075061505
 20
-0.0000000000000009
 30
0.0
 11
-0.0000000000000002
 21
0.0581249075061496
 31
0.0
  0
LINE
  5
8D4C
330
8D3B
100
AcDbEntity
  8
0
  6
CONTINUOUS
100
AcDbLine
 10
0.7316441165863372
 20
-0.0000000000000009
 30
0.0
 11
-0.0000000000000002
 21
0.7316441165863363
 31
0.0
  0
LINE
  5
8D4D
330
8D3B
100
AcDbEntity
  8
0
  6
CONTINUOUS
100
AcDbLine
 10
1.405163325666523
 20
-0.0000000000000009
 30
0.0
 11
-0.0000000000000002
 21
1.405163325666523
 31
0.0
  0
LINE
  5
8D4E
330
8D3B
100
AcDbEntity
  8
0
  6
CONTINUOUS
100
AcDbLine
 10
1.420999999998572
 20
0.6576825347481381
 30
0.0
 11
-0.0000000000000001
 21
2.07868253474671
 31
0.0
  0
LINE
  5
8D4F
330
8D3B
100
AcDbEntity
  8
0
  6
CONTINUOUS
100
AcDbLine
 10
1.420999999998571
 20
1.331201743828324
 30
0.0
 11
-0.0000000000000001
 21
2.752201743826896
 31
0.0
  0
LINE
  5
8D50
330
8D3B
100
AcDbEntity
  8
0
  6
CONTINUOUS
100
AcDbLine
 10
1.420999999998571
 20
2.004720952908511
 30
0.0
 11
-0.0000000000000002
 21
3.425720952907082
 31
0.0
  0
LINE
  5
8D51
330
8D3B
100
AcDbEntity
  8
0
  6
CONTINUOUS
100
AcDbLine
 10
1.420999999998571
 20
2.678240161988697
 30
0.0
 11
-0.0000000000000001
 21
4.099240161987269
 31
0.0
  0
LINE
  5
8D52
330
8D3B
100
AcDbEntity
  8
0
  6
CONTINUOUS
100
AcDbLine
 10
1.420999999998572
 20
3.351759371068884
 30
0.0
 11
0.0
 21
4.772759371067455
 31
0.0
  0
LINE
  5
8D53
330
8D3B
100
AcDbEntity
  8
0
  6
CONTINUOUS
100
AcDbLine
 10
1.420999999998571
 20
4.02527858014907
 30
0.0
 11
-0.0000000000000003
 21
5.446278580147642
 31
0.0
  0
LINE
  5
8D54
330
8D3B
100
AcDbEntity
  8
0
  6
CONTINUOUS
100
AcDbLine
 10
1.420999999998571
 20
4.698797789229257
 30
0.0
 11
0.0
 21
6.119797789227828
 31
0.0
  0
LINE
  5
8D55
330
8D3B
100
AcDbEntity
  8
0
  6
CONTINUOUS
100
AcDbLine
 10
1.420999999998571
 20
5.372316998309444
 30
0.0
 11
-0.0000000000000001
 21
6.793316998308015
 31
0.0
  0
LINE
  5
8D56
330
8D3B
100
AcDbEntity
  8
0
  6
CONTINUOUS
100
AcDbLine
 10
1.420999999998572
 20
6.045836207389629
 30
0.0
 11
-0.0000000000000004
 21
7.466836207388202
 31
0.0
  0
LINE
  5
8D57
330
8D3B
100
AcDbEntity
  8
0
  6
CONTINUOUS
100
AcDbLine
 10
1.420999999998571
 20
6.719355416469816
 30
0.0
 11
0.0
 21
8.140355416468388
 31
0.0
  0
LINE
  5
8D58
330
8D3B
100
AcDbEntity
  8
0
  6
CONTINUOUS
100
AcDbLine
 10
1.420999999998571
 20
7.392874625550003
 30
0.0
 11
0.0507746255573185
 21
8.763099999991255
 31
0.0
  0
LINE
  5
8D59
330
8D3B
100
AcDbEntity
  8
0
  6
CONTINUOUS
100
AcDbLine
 10
1.420999999998571
 20
8.06639383463019
 30
0.0
 11
0.7242938346375052
 21
8.763099999991255
 31
0.0
  0
LINE
  5
8D5A
330
8D3B
100
AcDbEntity
  8
0
  6
CONTINUOUS
100
AcDbLine
 10
1.420999999998571
 20
8.739913043710375
 30
0.0
 11
1.397813043717691
 21
8.763099999991255
 31
0.0
  0
ENDBLK
  5
8D66
330
8D3B
100
AcDbEntity
  8
0
100
AcDbBlockEnd
  0
ENDSEC
  0
SECTION
  2
ENTITIES
  0
TEXT
  5
4BDC
330
18
100
AcDbEntity
  8
1TEXT
100
AcDbText
 10
1003.045305120078
 20
108.0947176420174
 30
0.0
 40
8.0
  1
SC-31M-X
100
AcDbText
  0
LINE
  5
5674
330
18
100
AcDbEntity
  8
01
100
AcDbLine
 10
905.6487762636256
 20
24.84241147585084
 30
0.0
 11
770.1487762636256
 21
24.84241147585084
 31
0.0
  0
ARC
  5
5675
330
18
100
AcDbEntity
  8
01
100
AcDbCircle
 10
770.1487762636256
 20
24.34241147585084
 30
0.0
 40
0.5
100
AcDbArc
 50
90.0
 51
180.0
  0
LINE
  5
5676
330
18
100
AcDbEntity
  8
01
100
AcDbLine
 10
905.6487762636253
 20
16.84241147585095
 30
0.0
 11
770.1487762636256
 21
16.84241147585076
 31
0.0
  0
ARC
  5
5678
330
18
100
AcDbEntity
  8
01
100
AcDbCircle
 10
798.6487762636253
 20
16.34241147585084
 30
0.0
 40
0.5
100
AcDbArc
 50
90.0
 51
180.0
  0
ARC
  5
5679
330
18
100
AcDbEntity
  8
01
100
AcDbCircle
 10
789.6487762636256
 20
16.34241147585089
 30
0.0
 40
0.5
100
AcDbArc
 50
0.0
 51
90.0
  0
ARC
  5
567A
330
18
100
AcDbEntity
  8
01
100
AcDbCircle
 10
877.1487762636257
 20
16.34241147585089
 30
0.0
 40
0.5
100
AcDbArc
 50
0.0
 51
90.0
  0
ARC
  5
567B
330
18
100
AcDbEntity
  8
01
100
AcDbCircle
 10
905.6487762636253
 20
17.34241147585095
 30
0.0
 40
0.5
100
AcDbArc
 50
270.0
 51
0.0
  0
LINE
  5
567C
330
18
100
AcDbEntity
  8
01
100
AcDbLine
 10
906.1487762636256
 20
24.34241147585084
 30
0.0
 11
906.1487762636253
 21
17.34241147585095
 31
0.0
  0
ARC
  5
567D
330
18
100
AcDbEntity
  8
01
100
AcDbCircle
 10
905.6487762636256
 20
24.34241147585084
 30
0.0
 40
0.5
100
AcDbArc
 50
0.0
 51
90.0
  0
LINE
  5
567E
330
18
100
AcDbEntity
  8
01
100
AcDbLine
 10
769.6487762636256
 20
24.34241147585084
 30
0.0
 11
769.6487762636256
 21
17.34241147585078
 31
0.0
  0
ARC
  5
567F
330
18
100
AcDbEntity
  8
01
100
AcDbCircle
 10
770.1487762636256
 20
17.34241147585078
 30
0.0
 40
0.5
100
AcDbArc
 50
180.0
 51
270.0
  0
LINE
  5
5680
330
18
100
AcDbEntity
  8
01
100
AcDbLine
 10
790.1487762636257
 20
15.71077335959163
 30
0.0
 11
790.1487762636256
 21
16.34241147585089
 31
0.0
  0
LINE
  5
5681
330
18
100
AcDbEntity
  8
01
100
AcDbLine
 10
885.6487762636257
 20
15.71077335959161
 30
0.0
 11
885.6487762636256
 21
16.34241147585095
 31
0.0
  0
ARC
  5
5682
330
18
100
AcDbEntity
  8
01
100
AcDbCircle
 10
886.1487762636256
 20
16.34241147585095
 30
0.0
 40
0.5
100
AcDbArc
 50
90.0
 51
180.0
  0
LINE
  5
5683
330
18
100
AcDbEntity
  8
01
100
AcDbLine
 10
1038.870934963554
 20
7.842411475850838
 30
0.0
 11
1038.870934963554
 21
16.34241147585089
 31
0.0
  0
ARC
  5
5684
330
18
100
AcDbEntity
  8
01
100
AcDbCircle
 10
1038.370934963554
 20
7.842411475850838
 30
0.0
 40
0.5
100
AcDbArc
 50
270.0
 51
0.0
  0
LINE
  5
5685
330
18
100
AcDbEntity
  8
01
100
AcDbLine
 10
1023.870934963554
 20
17.34241147585089
 30
0.0
 11
1023.870934963554
 21
24.34241147585089
 31
0.0
  0
ARC
  5
5686
330
18
100
AcDbEntity
  8
01
100
AcDbCircle
 10
1024.370934963554
 20
17.34241147585084
 30
0.0
 40
0.5
100
AcDbArc
 50
180.0
 51
270.0
  0
LINE
  5
5687
330
18
100
AcDbEntity
  8
01
100
AcDbLine
 10
1043.870934963554
 20
7.342411475850838
 30
0.0
 11
1043.870934963554
 21
16.34241147585089
 31
0.0
  0
ARC
  5
5688
330
18
100
AcDbEntity
  8
01
100
AcDbCircle
 10
1038.870934963554
 20
7.342411475850838
 30
0.0
 40
5.0
100
AcDbArc
 50
270.0
 51
0.0
  0
LINE
  5
5689
330
18
100
AcDbEntity
  8
01
100
AcDbLine
 10
1068.870934963554
 20
17.34241147585067
 30
0.0
 11
1068.870934963554
 21
24.34241147585089
 31
0.0
  0
ARC
  5
568A
330
18
100
AcDbEntity
  8
01
100
AcDbCircle
 10
1068.370934963554
 20
24.34241147585084
 30
0.0
 40
0.5
100
AcDbArc
 50
0.0
 51
90.0
  0
LINE
  5
568B
330
18
100
AcDbEntity
  8
01
100
AcDbLine
 10
1024.370934963554
 20
24.84241147585089
 30
0.0
 11
1068.370934963554
 21
24.84241147585089
 31
0.0
  0
ARC
  5
568C
330
18
100
AcDbEntity
  8
01
100
AcDbCircle
 10
1024.370934963554
 20
24.34241147585084
 30
0.0
 40
0.5
100
AcDbArc
 50
90.0
 51
180.0
  0
LINE
  5
568E
330
18
100
AcDbEntity
  8
01
100
AcDbLine
 10
1032.665163597613
 20
2.342411475850887
 30
0.0
 11
1038.870934963554
 21
2.342411475850838
 31
0.0
  0
LINE
  5
5690
330
18
100
AcDbEntity
  8
01
100
AcDbLine
 10
1024.370934963554
 20
16.84241147585089
 30
0.0
 11
1068.370934963554
 21
16.84241147585089
 31
0.0
  0
ARC
  5
5691
330
18
100
AcDbEntity
  8
01
100
AcDbCircle
 10
1038.370934963554
 20
16.34241147585084
 30
0.0
 40
0.5
100
AcDbArc
 50
0.0
 51
90.0
  0
ARC
  5
5692
330
18
100
AcDbEntity
  8
01
100
AcDbCircle
 10
1044.370934963554
 20
16.34241147585084
 30
0.0
 40
0.5
100
AcDbArc
 50
90.0
 51
180.0
  0
ARC
  5
5693
330
18
100
AcDbEntity
  8
01
100
AcDbCircle
 10
1068.370934963554
 20
17.34241147585061
 30
0.0
 40
0.5
100
AcDbArc
 50
270.0
 51
0.0
  0
LINE
  5
5695
330
18
100
AcDbEntity
  8
01
100
AcDbLine
 10
877.6487762636258
 20
15.71077335959162
 30
0.0
 11
877.6487762636257
 21
16.34241147585089
 31
0.0
  0
LINE
  5
5696
330
18
100
AcDbEntity
  8
01
100
AcDbLine
 10
798.1487762636253
 20
15.71077335959163
 30
0.0
 11
798.1487762636252
 21
16.34241147585084
 31
0.0
  0
LINE
  5
5697
330
18
100
AcDbEntity
  8
01
100
AcDbLine
 10
1029.888796769867
 20
15.42467589557532
 30
0.0
 11
978.6662898130176
 21
-34.81790844336547
 31
0.0
  0
LINE
  5
5698
330
18
100
AcDbEntity
  8
01
100
AcDbLine
 10
1035.870934963554
 20
16.54241147585088
 30
0.0
 11
1035.870934963554
 21
10.75393456467825
 31
0.0
  0
LINE
  5
5699
330
18
100
AcDbEntity
  8
01
100
AcDbLine
 10
1035.870934963554
 20
5.342411475850867
 30
0.0
 11
1035.870934963554
 21
-57.15758852414922
 31
0.0
  0
ARC
  5
569A
330
18
100
AcDbEntity
  8
01
100
AcDbCircle
 10
1035.570934963554
 20
16.54241147585088
 30
0.0
 40
0.3
100
AcDbArc
 50
0.0
 51
90.0
  0
ARC
  5
569B
330
18
100
AcDbEntity
  8
01
100
AcDbCircle
 10
1029.870934963554
 20
-56.15758852414922
 30
0.0
 40
5.0
100
AcDbArc
 50
180.0
 51
0.0
  0
ARC
  5
569C
330
18
100
AcDbEntity
  8
01
100
AcDbCircle
 10
1029.870934963554
 20
-57.15758852414922
 30
0.0
 40
6.0
100
AcDbArc
 50
180.0
 51
0.0
  0
ARC
  5
569D
330
18
100
AcDbEntity
  8
01
100
AcDbCircle
 10
1029.870934963554
 20
-46.15758852414916
 30
0.0
 40
5.0
100
AcDbArc
 50
0.0
 51
180.0
  0
LINE
  5
569E
330
18
100
AcDbEntity
  8
01
100
AcDbLine
 10
1024.870934963554
 20
-56.15758852414922
 30
0.0
 11
1024.870934963554
 21
-46.15758852414916
 31
0.0
  0
LINE
  5
569F
330
18
100
AcDbEntity
  8
01
100
AcDbLine
 10
1034.870934963554
 20
-46.15758852414916
 30
0.0
 11
1034.870934963554
 21
-56.15758852414922
 31
0.0
  0
LINE
  5
56A0
330
18
100
AcDbEntity
  8
01
100
AcDbLine
 10
1024.170934963553
 20
16.84241147585089
 30
0.0
 11
1035.570934963554
 21
16.84241147585089
 31
0.0
  0
ARC
  5
56A1
330
18
100
AcDbEntity
  8
01
100
AcDbCircle
 10
1024.170934963553
 20
16.54241147585088
 30
0.0
 40
0.3
100
AcDbArc
 50
90.0
 51
180.0
  0
LINE
  5
56A3
330
18
100
AcDbEntity
  8
01
100
AcDbLine
 10
1030.589041847761
 20
14.71077335959137
 30
0.0
 11
979.3665348909124
 21
-35.53181097934936
 31
0.0
  0
ARC
  5
56A6
330
18
100
AcDbEntity
  8
01
100
AcDbCircle
 10
1030.589041847761
 20
14.7107733595916
 30
0.0
 40
1.0
100
AcDbArc
 50
44.44666994291821
 51
134.4466699429182
  0
ARC
  5
56A7
330
18
100
AcDbEntity
  8
01
100
AcDbCircle
 10
982.8677602803859
 20
-39.10132365926904
 30
0.0
 40
5.0
100
AcDbArc
 50
134.4466699429182
 51
224.4466699429182
  0
ARC
  5
56A8
330
18
100
AcDbEntity
  8
01
100
AcDbCircle
 10
982.8677602803859
 20
-39.10132365926904
 30
0.0
 40
6.0
100
AcDbArc
 50
134.4466699429182
 51
224.4466699429182
  0
LINE
  5
56A9
330
18
100
AcDbEntity
  8
01
100
AcDbLine
 10
978.584345064482
 20
-43.30279412663702
 30
0.0
 11
979.2982476004659
 21
-42.60254904874245
 31
0.0
  0
LINE
  5
56AB
330
18
100
AcDbEntity
  8
01
100
AcDbLine
 10
1031.302944383745
 20
15.41101843748618
 30
0.0
 11
1036.554782467955
 21
10.05674941760626
 31
0.0
  0
LINE
  5
56AF
330
18
100
AcDbEntity
  8
01
100
AcDbLine
 10
1036.541125009865
 20
8.642601803727667
 30
0.0
 11
1035.215575996192
 21
7.342411475850839
 31
0.0
  0
LINE
  5
56B4
330
18
100
AcDbEntity
  8
01
100
AcDbLine
 10
1030.589041847761
 20
14.7107733595916
 30
0.0
 11
1031.98953200355
 21
13.2829682876237
 31
0.0
  0
ARC
  5
56B7
330
18
100
AcDbEntity
  8
01
100
AcDbCircle
 10
1030.575384389672
 20
13.29662574571296
 30
0.0
 40
1.0
100
AcDbArc
 50
44.44666994291821
 51
134.4466699429182
  0
LINE
  5
56BA
330
18
100
AcDbEntity
  8
01
100
AcDbLine
 10
1030.316515488716
 20
1.136322012165692
 30
0.0
 11
1029.781088586728
 21
0.611138203744872
 31
0.0
  0
ARC
  5
56BB
330
18
100
AcDbEntity
  8
01
100
AcDbCircle
 10
1029.571015063359
 20
0.8253089645400564
 30
0.0
 40
0.3
100
AcDbArc
 50
224.4466699429182
 51
314.4466699429182
  0
ARC
  5
56BF
330
18
100
AcDbEntity
  8
01
100
AcDbCircle
 10
1030.106441965348
 20
1.350492772960934
 30
0.0
 40
0.3
100
AcDbArc
 50
314.4466699429051
 51
44.44666994291821
  0
LINE
  5
56C1
330
18
100
AcDbEntity
  8
01
100
AcDbLine
 10
1025.009676100615
 20
8.1175436609102
 30
0.0
 11
1025.221593652102
 21
7.901492906393287
 31
0.0
  0
LINE
  5
56C2
330
18
100
AcDbEntity
  8
01
100
AcDbLine
 10
1022.914589585934
 20
7.18313877222397
 30
0.0
 11
1029.356844302564
 21
0.6152354411715333
 31
0.0
  0
LINE
  5
56C7
330
18
100
AcDbEntity
  8
01
100
AcDbLine
 10
1023.878358009512
 20
8.128469627381719
 30
0.0
 11
1025.009676100615
 21
8.1175436609102
 31
0.0
  0
LINE
  5
56C8
330
18
100
AcDbEntity
  8
01
100
AcDbLine
 10
1027.651115483756
 20
10.70845044912051
 30
0.0
 11
1027.863033035242
 21
10.49239969460399
 31
0.0
  0
LINE
  5
56C9
330
18
100
AcDbEntity
  8
01
100
AcDbLine
 10
1027.662041450227
 20
11.8397685402233
 30
0.0
 11
1027.651115483756
 21
10.70845044912051
 31
0.0
  0
LINE
  5
56CA
330
18
100
AcDbEntity
  8
01
100
AcDbLine
 10
1029.76277668391
 20
9.698060932270558
 30
0.0
 11
1027.662041450227
 21
11.8397685402233
 31
0.0
  0
LINE
  5
56D2
330
18
100
AcDbEntity
  8
1CENTER
100
AcDbLine
 10
1024.482765983555
 20
7.842411475850838
 30
0.0
 11
1031.259103943552
 21
7.842411475850838
 31
0.0
  0
LINE
  5
56D4
330
18
100
AcDbEntity
  8
1CENTER
100
AcDbLine
 10
1027.870934963554
 20
11.23058045584935
 30
0.0
 11
1027.870934963554
 21
4.454242495852327
 31
0.0
  0
ARC
  5
56D5
330
18
100
AcDbEntity
  8
01
100
AcDbCircle
 10
1027.870934963554
 20
7.842411475850838
 30
0.0
 40
2.5
100
AcDbArc
 50
0.0
 51
239.9999999999996
  0
LINE
  5
56D6
330
18
100
AcDbEntity
  8
01
100
AcDbLine
 10
1030.870934963554
 20
7.342411475850838
 30
0.0
 11
1038.370934963554
 21
7.342411475850838
 31
0.0
  0
LINE
  5
56D7
330
18
100
AcDbEntity
  8
01
100
AcDbLine
 10
785.1487762636256
 20
15.71077335959163
 30
0.0
 11
785.1487762636256
 21
-43.30279412663699
 31
0.0
  0
LINE
  5
56D8
330
18
100
AcDbEntity
  8
01
100
AcDbLine
 10
906.1487762636252
 20
15.71077335959161
 30
0.0
 11
906.148776263625
 21
-60.65758852414916
 31
0.0
  0
ARC
  5
56DB
330
18
100
AcDbEntity
  8
01
100
AcDbCircle
 10
769.9487762636255
 20
16.54241147585094
 30
0.0
 40
0.3
100
AcDbArc
 50
90.0
 51
180.0
  0
LINE
  5
56DE
330
18
100
AcDbEntity
  8
01
100
AcDbLine
 10
785.1487762636256
 20
-51.1575885241491
 30
0.0
 11
901.1487762636256
 21
-51.15758852414899
 31
0.0
  0
LINE
  5
56DF
330
18
100
AcDbEntity
  8
01
100
AcDbLine
 10
785.1487762636258
 20
-61.15758852414906
 30
0.0
 11
905.6487762636253
 21
-61.15758852414916
 31
0.0
  0
ARC
  5
56E3
330
18
100
AcDbEntity
  8
01
100
AcDbCircle
 10
905.6487762636253
 20
-60.65758852414916
 30
0.0
 40
0.5
100
AcDbArc
 50
270.0
 51
0.0
  0
LINE
  5
56E4
330
18
100
AcDbEntity
  8
01
100
AcDbLine
 10
901.1487762636257
 20
-43.30279412663702
 30
0.0
 11
901.1487762636256
 21
-56.15758852414911
 31
0.0
  0
LINE
  5
56E6
330
18
100
AcDbEntity
  8
01
100
AcDbLine
 10
784.6487762636256
 20
16.54241147585088
 30
0.0
 11
784.6487762636251
 21
-62.65758852414899
 31
0.0
  0
ARC
  5
56E7
330
18
100
AcDbEntity
  8
01
100
AcDbCircle
 10
784.3487762636256
 20
16.54241147585088
 30
0.0
 40
0.3
100
AcDbArc
 50
0.0
 51
90.0
  0
ARC
  5
56E8
330
18
100
AcDbEntity
  8
01
100
AcDbCircle
 10
784.1487762636251
 20
-62.65758852414899
 30
0.0
 40
0.5
100
AcDbArc
 50
270.0
 51
0.0
  0
ARC
  5
56E9
330
18
100
AcDbEntity
  8
01
100
AcDbCircle
 10
785.1487762636256
 20
-61.65758852414911
 30
0.0
 40
0.5
100
AcDbArc
 50
90.0
 51
180.0
  0
ARC
  5
56EA
330
18
100
AcDbEntity
  8
01
100
AcDbCircle
 10
785.1487762636256
 20
-50.65758852414899
 30
0.0
 40
0.5
100
AcDbArc
 50
180.0
 51
270.0
  0
LINE
  5
56EB
330
18
100
AcDbEntity
  8
01
100
AcDbLine
 10
769.6487762636256
 20
16.54241147585094
 30
0.0
 11
769.6487762636256
 21
-62.65758852414905
 31
0.0
  0
LINE
  5
56EC
330
18
100
AcDbEntity
  8
01
100
AcDbLine
 10
784.1487762636251
 20
-63.15758852414899
 30
0.0
 11
770.1487762636256
 21
-63.15758852414905
 31
0.0
  0
ARC
  5
56ED
330
18
100
AcDbEntity
  8
01
100
AcDbCircle
 10
770.1487762636256
 20
-62.65758852414905
 30
0.0
 40
0.5
100
AcDbArc
 50
180.0
 51
270.0
  0
LINE
  5
5774
330
18
100
AcDbEntity
  8
01
100
AcDbLine
 10
905.6487762636258
 20
127.6590500449896
 30
0.0
 11
770.1487762636258
 21
127.6590500449896
 31
0.0
  0
LINE
  5
5775
330
18
100
AcDbEntity
  8
01
100
AcDbLine
 10
903.1487762636258
 20
125.6590500449895
 30
0.0
 11
894.8987762636257
 21
125.6590500449895
 31
0.0
  0
ARC
  5
5776
330
18
100
AcDbEntity
  8
01
100
AcDbCircle
 10
903.1487762636258
 20
124.6590500449895
 30
0.0
 40
1.0
100
AcDbArc
 50
0.0
 51
90.0
  0
LINE
  5
5777
330
18
100
AcDbEntity
  8
01
100
AcDbLine
 10
890.8987762636253
 20
125.6590500449895
 30
0.0
 11
784.8987762636262
 21
125.6590500449894
 31
0.0
  0
ARC
  5
5778
330
18
100
AcDbEntity
  8
01
100
AcDbCircle
 10
890.8987762636253
 20
124.6590500449895
 30
0.0
 40
1.0
100
AcDbArc
 50
0.0
 51
90.0
  0
ARC
  5
5779
330
18
100
AcDbEntity
  8
01
100
AcDbCircle
 10
905.6487762636258
 20
127.1590500449896
 30
0.0
 40
0.5
100
AcDbArc
 50
0.0
 51
90.0
  0
LINE
  5
577A
330
18
100
AcDbEntity
  8
01
100
AcDbLine
 10
905.648776263626
 20
82.65905004498961
 30
0.0
 11
770.1487762636256
 21
82.6590500449895
 31
0.0
  0
LINE
  5
577B
330
18
100
AcDbEntity
  8
01
100
AcDbLine
 10
890.1487762636256
 20
84.65905004498967
 30
0.0
 11
785.648776263626
 21
84.65905004498973
 31
0.0
  0
ARC
  5
577C
330
18
100
AcDbEntity
  8
01
100
AcDbCircle
 10
770.1487762636256
 20
83.1590500449895
 30
0.0
 40
0.5
100
AcDbArc
 50
180.0
 51
270.0
  0
LINE
  5
577D
330
18
100
AcDbEntity
  8
01
100
AcDbLine
 10
769.6487762636256
 20
83.1590500449895
 30
0.0
 11
769.6487762636258
 21
127.1590500449896
 31
0.0
  0
ARC
  5
577E
330
18
100
AcDbEntity
  8
01
100
AcDbCircle
 10
770.1487762636258
 20
127.1590500449896
 30
0.0
 40
0.5
100
AcDbArc
 50
90.0
 51
180.0
  0
LINE
  5
577F
330
18
100
AcDbEntity
  8
01
100
AcDbLine
 10
906.148776263626
 20
83.15905004498961
 30
0.0
 11
906.1487762636258
 21
127.1590500449896
 31
0.0
  0
LINE
  5
5780
330
18
100
AcDbEntity
  8
01
100
AcDbLine
 10
904.148776263626
 20
96.6590500449895
 30
0.0
 11
904.1487762636259
 21
108.6590500449896
 31
0.0
  0
ARC
  5
5781
330
18
100
AcDbEntity
  8
01
100
AcDbCircle
 10
903.1487762636261
 20
96.6590500449895
 30
0.0
 40
1.0
100
AcDbArc
 50
270.0
 51
0.0
  0
LINE
  5
5782
330
18
100
AcDbEntity
  8
01
100
AcDbLine
 10
904.148776263626
 20
112.6590500449895
 30
0.0
 11
904.1487762636258
 21
124.6590500449895
 31
0.0
  0
ARC
  5
5783
330
18
100
AcDbEntity
  8
01
100
AcDbCircle
 10
903.148776263626
 20
112.6590500449895
 30
0.0
 40
1.0
100
AcDbArc
 50
270.0
 51
0.0
  0
ARC
  5
5784
330
18
100
AcDbEntity
  8
01
100
AcDbCircle
 10
905.648776263626
 20
83.15905004498961
 30
0.0
 40
0.5
100
AcDbArc
 50
270.0
 51
0.0
  0
LINE
  5
5785
330
18
100
AcDbEntity
  8
01
100
AcDbLine
 10
891.1487762636256
 20
101.7218534501977
 30
0.0
 11
891.1487762636256
 21
85.65905004498967
 31
0.0
  0
ARC
  5
5786
330
18
100
AcDbEntity
  8
01
100
AcDbCircle
 10
890.1487762636256
 20
85.65905004498967
 30
0.0
 40
1.0
100
AcDbArc
 50
270.0
 51
0.0
  0
LINE
  5
5787
330
18
100
AcDbEntity
  8
01
100
AcDbLine
 10
894.8987762636256
 20
95.6590500449895
 30
0.0
 11
903.1487762636261
 21
95.6590500449895
 31
0.0
  0
CIRCLE
  5
5788
330
18
100
AcDbEntity
  8
01
100
AcDbCircle
 10
898.6487762636256
 20
88.65905004498961
 30
0.0
 40
4.25
  0
CIRCLE
  5
5789
330
18
100
AcDbEntity
  8
01
100
AcDbCircle
 10
898.6487762636245
 20
88.65905004498961
 30
0.0
 40
2.249999999998977
  0
CIRCLE
  5
578A
330
18
100
AcDbEntity
  8
01
100
AcDbCircle
 10
777.1487762636262
 20
88.65905004498961
 30
0.0
 40
4.25
  0
ARC
  5
578C
330
18
100
AcDbEntity
  8
01
100
AcDbCircle
 10
892.8987762636256
 20
113.1590500449896
 30
0.0
 40
6.0
100
AcDbArc
 50
0.0
 51
73.3984504009768
  0
ARC
  5
578D
330
18
100
AcDbEntity
  8
01
100
AcDbCircle
 10
894.8987762636256
 20
119.8672539774889
 30
0.0
 40
1.0
100
AcDbArc
 50
180.0
 51
253.3984504009768
  0
ARC
  5
578E
330
18
100
AcDbEntity
  8
01
100
AcDbCircle
 10
892.8987762636256
 20
113.1590500449896
 30
0.0
 40
6.0
100
AcDbArc
 50
106.6015495990232
 51
180.0
  0
ARC
  5
578F
330
18
100
AcDbEntity
  8
01
100
AcDbCircle
 10
890.8987762636256
 20
119.8672539774889
 30
0.0
 40
1.0
100
AcDbArc
 50
286.6015495990232
 51
0.0
  0
ARC
  5
5791
330
18
100
AcDbEntity
  8
01
100
AcDbCircle
 10
892.8987762636256
 20
108.1590500449896
 30
0.0
 40
6.0
100
AcDbArc
 50
180.0
 51
246.8676036007042
  0
ARC
  5
5792
330
18
100
AcDbEntity
  8
01
100
AcDbCircle
 10
890.1487762636256
 20
101.7218534501977
 30
0.0
 40
1.0
100
AcDbArc
 50
0.0
 51
66.86760360070423
  0
ARC
  5
5793
330
18
100
AcDbEntity
  8
01
100
AcDbCircle
 10
892.8987762636256
 20
108.1590500449896
 30
0.0
 40
6.0
100
AcDbArc
 50
286.6015495990232
 51
0.0
  0
ARC
  5
5794
330
18
100
AcDbEntity
  8
01
100
AcDbCircle
 10
894.8987762636256
 20
101.4508461124902
 30
0.0
 40
1.0
100
AcDbArc
 50
106.6015495990232
 51
180.0
  0
LINE
  5
5795
330
18
100
AcDbEntity
  8
01
100
AcDbLine
 10
886.8987762636256
 20
108.1590500449896
 30
0.0
 11
886.8987762636257
 21
108.6590500449895
 31
0.0
  0
LINE
  5
5796
330
18
100
AcDbEntity
  8
01
100
AcDbLine
 10
886.8987762636256
 20
112.6590500449896
 30
0.0
 11
886.8987762636256
 21
113.1590500449896
 31
0.0
  0
ARC
  5
5797
330
18
100
AcDbEntity
  8
01
100
AcDbCircle
 10
885.8987762636256
 20
112.6590500449896
 30
0.0
 40
1.0
100
AcDbArc
 50
270.0
 51
0.0
  0
LINE
  5
579A
330
18
100
AcDbEntity
  8
01
100
AcDbLine
 10
898.8987762636256
 20
108.1590500449896
 30
0.0
 11
898.8987762636257
 21
108.6590500449896
 31
0.0
  0
ARC
  5
579B
330
18
100
AcDbEntity
  8
01
100
AcDbCircle
 10
899.8987762636257
 20
108.6590500449896
 30
0.0
 40
1.0
100
AcDbArc
 50
90.0
 51
180.0
  0
LINE
  5
579C
330
18
100
AcDbEntity
  8
01
100
AcDbLine
 10
898.8987762636256
 20
112.6590500449896
 30
0.0
 11
898.8987762636256
 21
113.1590500449896
 31
0.0
  0
LINE
  5
579D
330
18
100
AcDbEntity
  8
01
100
AcDbLine
 10
893.8987762636256
 20
119.8672539774889
 30
0.0
 11
893.8987762636257
 21
124.6590500449895
 31
0.0
  0
ARC
  5
579E
330
18
100
AcDbEntity
  8
01
100
AcDbCircle
 10
894.8987762636257
 20
124.6590500449895
 30
0.0
 40
1.0
100
AcDbArc
 50
90.0
 51
180.0
  0
LINE
  5
579F
330
18
100
AcDbEntity
  8
01
100
AcDbLine
 10
891.8987762636256
 20
119.8672539774889
 30
0.0
 11
891.8987762636253
 21
124.6590500449895
 31
0.0
  0
LINE
  5
57A0
330
18
100
AcDbEntity
  8
01
100
AcDbLine
 10
893.8987762636256
 20
101.4508461124902
 30
0.0
 11
893.8987762636256
 21
96.6590500449895
 31
0.0
  0
ARC
  5
57A1
330
18
100
AcDbEntity
  8
01
100
AcDbCircle
 10
894.8987762636256
 20
96.6590500449895
 30
0.0
 40
1.0
100
AcDbArc
 50
180.0
 51
270.0
  0
LINE
  5
57A2
330
18
100
AcDbEntity
  8
01
100
AcDbLine
 10
899.8987762636257
 20
109.6590500449896
 30
0.0
 11
903.1487762636259
 21
109.6590500449896
 31
0.0
  0
ARC
  5
57A3
330
18
100
AcDbEntity
  8
01
100
AcDbCircle
 10
903.1487762636259
 20
108.6590500449896
 30
0.0
 40
1.0
100
AcDbArc
 50
0.0
 51
90.0
  0
LINE
  5
57A4
330
18
100
AcDbEntity
  8
01
100
AcDbLine
 10
899.8987762636256
 20
111.6590500449896
 30
0.0
 11
903.148776263626
 21
111.6590500449895
 31
0.0
  0
ARC
  5
57A5
330
18
100
AcDbEntity
  8
01
100
AcDbCircle
 10
899.8987762636256
 20
112.6590500449896
 30
0.0
 40
1.0
100
AcDbArc
 50
180.0
 51
270.0
  0
LINE
  5
57A6
330
18
100
AcDbEntity
  8
01
100
AcDbLine
 10
885.8987762636257
 20
109.6590500449894
 30
0.0
 11
863.6069801961254
 21
109.6590500449895
 31
0.0
  0
ARC
  5
57A7
330
18
100
AcDbEntity
  8
01
100
AcDbCircle
 10
885.8987762636257
 20
108.6590500449895
 30
0.0
 40
1.0
100
AcDbArc
 50
0.0
 51
90.0
  0
LINE
  5
57A8
330
18
100
AcDbEntity
  8
01
100
AcDbLine
 10
885.8987762636256
 20
111.6590500449896
 30
0.0
 11
863.6069801961254
 21
111.6590500449896
 31
0.0
  0
LINE
  5
57AA
330
18
100
AcDbEntity
  8
01
100
AcDbLine
 10
772.6487762636258
 20
125.6590500449895
 30
0.0
 11
780.8987762636259
 21
125.6590500449895
 31
0.0
  0
ARC
  5
57AB
330
18
100
AcDbEntity
  8
01
100
AcDbCircle
 10
772.6487762636258
 20
124.6590500449895
 30
0.0
 40
1.0
100
AcDbArc
 50
90.0
 51
180.0
  0
ARC
  5
57AC
330
18
100
AcDbEntity
  8
01
100
AcDbCircle
 10
784.8987762636262
 20
124.6590500449895
 30
0.0
 40
1.0
100
AcDbArc
 50
90.0
 51
180.0
  0
LINE
  5
57AD
330
18
100
AcDbEntity
  8
01
100
AcDbLine
 10
771.6487762636256
 20
96.6590500449895
 30
0.0
 11
771.6487762636257
 21
108.6590500449896
 31
0.0
  0
ARC
  5
57AE
330
18
100
AcDbEntity
  8
01
100
AcDbCircle
 10
772.6487762636255
 20
96.6590500449895
 30
0.0
 40
1.0
100
AcDbArc
 50
180.0
 51
270.0
  0
LINE
  5
57AF
330
18
100
AcDbEntity
  8
01
100
AcDbLine
 10
771.6487762636256
 20
112.6590500449895
 30
0.0
 11
771.6487762636258
 21
124.6590500449895
 31
0.0
  0
ARC
  5
57B0
330
18
100
AcDbEntity
  8
01
100
AcDbCircle
 10
772.6487762636256
 20
112.6590500449895
 30
0.0
 40
1.0
100
AcDbArc
 50
180.0
 51
270.0
  0
LINE
  5
57B1
330
18
100
AcDbEntity
  8
01
100
AcDbLine
 10
784.648776263626
 20
101.7218534501977
 30
0.0
 11
784.648776263626
 21
85.65905004498967
 31
0.0
  0
ARC
  5
57B2
330
18
100
AcDbEntity
  8
01
100
AcDbCircle
 10
785.648776263626
 20
85.65905004498967
 30
0.0
 40
1.0
100
AcDbArc
 50
180.0
 51
270.0
  0
LINE
  5
57B3
330
18
100
AcDbEntity
  8
01
100
AcDbLine
 10
780.898776263626
 20
95.6590500449895
 30
0.0
 11
772.6487762636255
 21
95.6590500449895
 31
0.0
  0
ARC
  5
57B5
330
18
100
AcDbEntity
  8
01
100
AcDbCircle
 10
782.898776263626
 20
113.1590500449896
 30
0.0
 40
6.0
100
AcDbArc
 50
106.6015495990232
 51
180.0
  0
ARC
  5
57B6
330
18
100
AcDbEntity
  8
01
100
AcDbCircle
 10
780.898776263626
 20
119.8672539774889
 30
0.0
 40
1.0
100
AcDbArc
 50
286.6015495990232
 51
0.0
  0
ARC
  5
57B7
330
18
100
AcDbEntity
  8
01
100
AcDbCircle
 10
782.898776263626
 20
113.1590500449896
 30
0.0
 40
6.0
100
AcDbArc
 50
0.0
 51
73.3984504009768
  0
ARC
  5
57B8
330
18
100
AcDbEntity
  8
01
100
AcDbCircle
 10
784.898776263626
 20
119.8672539774889
 30
0.0
 40
1.0
100
AcDbArc
 50
180.0
 51
253.3984504009768
  0
ARC
  5
57BA
330
18
100
AcDbEntity
  8
01
100
AcDbCircle
 10
782.898776263626
 20
108.1590500449896
 30
0.0
 40
6.0
100
AcDbArc
 50
293.1323963992958
 51
0.0
  0
ARC
  5
57BB
330
18
100
AcDbEntity
  8
01
100
AcDbCircle
 10
785.648776263626
 20
101.7218534501977
 30
0.0
 40
1.0
100
AcDbArc
 50
113.1323963992958
 51
180.0
  0
ARC
  5
57BC
330
18
100
AcDbEntity
  8
01
100
AcDbCircle
 10
782.898776263626
 20
108.1590500449896
 30
0.0
 40
6.0
100
AcDbArc
 50
180.0
 51
253.3984504009768
  0
ARC
  5
57BD
330
18
100
AcDbEntity
  8
01
100
AcDbCircle
 10
780.898776263626
 20
101.4508461124902
 30
0.0
 40
1.0
100
AcDbArc
 50
0.0
 51
73.3984504009768
  0
LINE
  5
57BE
330
18
100
AcDbEntity
  8
01
100
AcDbLine
 10
788.898776263626
 20
108.1590500449896
 30
0.0
 11
788.8987762636259
 21
108.6590500449895
 31
0.0
  0
LINE
  5
57BF
330
18
100
AcDbEntity
  8
01
100
AcDbLine
 10
788.898776263626
 20
112.6590500449896
 30
0.0
 11
788.898776263626
 21
113.1590500449896
 31
0.0
  0
ARC
  5
57C0
330
18
100
AcDbEntity
  8
01
100
AcDbCircle
 10
789.898776263626
 20
112.6590500449896
 30
0.0
 40
1.0
100
AcDbArc
 50
180.0
 51
270.0
  0
LINE
  5
57C3
330
18
100
AcDbEntity
  8
01
100
AcDbLine
 10
776.898776263626
 20
108.1590500449896
 30
0.0
 11
776.8987762636259
 21
108.6590500449896
 31
0.0
  0
ARC
  5
57C4
330
18
100
AcDbEntity
  8
01
100
AcDbCircle
 10
775.8987762636259
 20
108.6590500449896
 30
0.0
 40
1.0
100
AcDbArc
 50
0.0
 51
90.0
  0
LINE
  5
57C5
330
18
100
AcDbEntity
  8
01
100
AcDbLine
 10
776.898776263626
 20
112.6590500449896
 30
0.0
 11
776.898776263626
 21
113.1590500449896
 31
0.0
  0
LINE
  5
57C6
330
18
100
AcDbEntity
  8
01
100
AcDbLine
 10
781.898776263626
 20
119.8672539774889
 30
0.0
 11
781.8987762636259
 21
124.6590500449895
 31
0.0
  0
ARC
  5
57C7
330
18
100
AcDbEntity
  8
01
100
AcDbCircle
 10
780.8987762636259
 20
124.6590500449895
 30
0.0
 40
1.0
100
AcDbArc
 50
0.0
 51
90.0
  0
LINE
  5
57C8
330
18
100
AcDbEntity
  8
01
100
AcDbLine
 10
783.898776263626
 20
119.8672539774889
 30
0.0
 11
783.8987762636262
 21
124.6590500449895
 31
0.0
  0
LINE
  5
57C9
330
18
100
AcDbEntity
  8
01
100
AcDbLine
 10
781.898776263626
 20
101.4508461124902
 30
0.0
 11
781.898776263626
 21
96.6590500449895
 31
0.0
  0
ARC
  5
57CA
330
18
100
AcDbEntity
  8
01
100
AcDbCircle
 10
780.898776263626
 20
96.6590500449895
 30
0.0
 40
1.0
100
AcDbArc
 50
270.0
 51
0.0
  0
LINE
  5
57CB
330
18
100
AcDbEntity
  8
01
100
AcDbLine
 10
775.8987762636259
 20
109.6590500449896
 30
0.0
 11
772.6487762636257
 21
109.6590500449896
 31
0.0
  0
ARC
  5
57CC
330
18
100
AcDbEntity
  8
01
100
AcDbCircle
 10
772.6487762636257
 20
108.6590500449896
 30
0.0
 40
1.0
100
AcDbArc
 50
90.0
 51
180.0
  0
LINE
  5
57CD
330
18
100
AcDbEntity
  8
01
100
AcDbLine
 10
775.898776263626
 20
111.6590500449896
 30
0.0
 11
772.6487762636256
 21
111.6590500449895
 31
0.0
  0
ARC
  5
57CE
330
18
100
AcDbEntity
  8
01
100
AcDbCircle
 10
775.898776263626
 20
112.6590500449896
 30
0.0
 40
1.0
100
AcDbArc
 50
270.0
 51
0.0
  0
ARC
  5
57CF
330
18
100
AcDbEntity
  8
01
100
AcDbCircle
 10
789.8987762636259
 20
108.6590500449895
 30
0.0
 40
1.0
100
AcDbArc
 50
90.0
 51
180.0
  0
LINE
  5
5815
330
18
100
AcDbEntity
  8
01
100
AcDbLine
 10
1032.703434539534
 20
13.9832133655184
 30
0.0
 11
1031.98953200355
 21
13.28296828762359
 31
0.0
  0
LINE
  5
5819
330
18
100
AcDbEntity
  8
01
100
AcDbLine
 10
1023.870934963554
 20
-57.15758852414922
 30
0.0
 11
1023.870934963554
 21
6.208141000854823
 31
0.0
  0
LINE
  5
581A
330
18
100
AcDbEntity
  8
01
100
AcDbLine
 10
1023.870934963554
 20
9.521940022094896
 30
0.0
 11
1023.870934963554
 21
16.54241147585088
 31
0.0
  0
LINE
  5
5CD4
330
18
100
AcDbEntity
  8
1PHANTOM
100
AcDbLine
 10
1056.870934963554
 20
21.84241147585067
 30
0.0
 11
1056.870934963554
 21
24.84241147585067
 31
0.0
  0
LINE
  5
5CD5
330
18
100
AcDbEntity
  8
1PHANTOM
100
AcDbLine
 10
1046.870934963554
 20
21.84241147585067
 30
0.0
 11
1046.870934963554
 21
24.84241147585067
 31
0.0
  0
LINE
  5
5CD6
330
18
100
AcDbEntity
  8
1PHANTOM
100
AcDbLine
 10
1058.370934963554
 20
16.84241147585067
 30
0.0
 11
1058.370934963554
 21
21.84241147585067
 31
0.0
  0
LINE
  5
5CD7
330
18
100
AcDbEntity
  8
1PHANTOM
100
AcDbLine
 10
1045.370934963554
 20
16.84241147585067
 30
0.0
 11
1045.370934963554
 21
21.84241147585067
 31
0.0
  0
LINE
  5
5CDE
330
18
100
AcDbEntity
  8
1PHANTOM
100
AcDbLine
 10
1045.370934963554
 20
21.84241147585078
 30
0.0
 11
1058.370934963554
 21
21.84241147585067
 31
0.0
  0
ARC
  5
5D34
330
18
100
AcDbEntity
  8
01
100
AcDbCircle
 10
782.898776263626
 20
113.4090500449896
 30
0.0
 40
2.25
100
AcDbArc
 50
0.0
 51
180.0
  0
ARC
  5
5D35
330
18
100
AcDbEntity
  8
01
100
AcDbCircle
 10
782.898776263626
 20
107.9090500449896
 30
0.0
 40
2.25
100
AcDbArc
 50
180.0
 51
0.0
  0
LINE
  5
5D36
330
18
100
AcDbEntity
  8
01
100
AcDbLine
 10
780.648776263626
 20
107.9090500449896
 30
0.0
 11
780.648776263626
 21
113.4090500449896
 31
0.0
  0
LINE
  5
5D37
330
18
100
AcDbEntity
  8
01
100
AcDbLine
 10
785.148776263626
 20
113.4090500449896
 30
0.0
 11
785.148776263626
 21
107.9090500449896
 31
0.0
  0
ARC
  5
5D38
330
18
100
AcDbEntity
  8
01
100
AcDbCircle
 10
892.8987762636257
 20
113.4090500449896
 30
0.0
 40
2.25
100
AcDbArc
 50
0.000000000000007
 51
180.0
  0
ARC
  5
5D39
330
18
100
AcDbEntity
  8
01
100
AcDbCircle
 10
892.8987762636257
 20
107.9090500449896
 30
0.0
 40
2.25
100
AcDbArc
 50
180.0
 51
0.000000000000007
  0
LINE
  5
5D3A
330
18
100
AcDbEntity
  8
01
100
AcDbLine
 10
895.1487762636257
 20
107.9090500449896
 30
0.0
 11
895.1487762636257
 21
113.4090500449896
 31
0.0
  0
LINE
  5
5D3B
330
18
100
AcDbEntity
  8
01
100
AcDbLine
 10
890.6487762636257
 20
113.4090500449896
 30
0.0
 11
890.6487762636257
 21
107.9090500449896
 31
0.0
  0
LINE
  5
5D41
330
18
100
AcDbEntity
  8
1PHANTOM
100
AcDbLine
 10
888.8987762636258
 20
21.84241147585084
 30
0.0
 11
888.8987762636259
 21
16.84241147585093
 31
0.0
  0
LINE
  5
5D42
330
18
100
AcDbEntity
  8
1PHANTOM
100
AcDbLine
 10
895.1487762636257
 20
24.84241147585084
 30
0.0
 11
895.1487762636257
 21
21.84241147585084
 31
0.0
  0
LINE
  5
5D43
330
18
100
AcDbEntity
  8
1PHANTOM
100
AcDbLine
 10
890.6487762636257
 20
24.84241147585084
 30
0.0
 11
890.6487762636257
 21
21.84241147585085
 31
0.0
  0
LINE
  5
5D44
330
18
100
AcDbEntity
  8
1PHANTOM
100
AcDbLine
 10
896.8987762636257
 20
21.84241147585084
 30
0.0
 11
888.8987762636258
 21
21.84241147585084
 31
0.0
  0
LINE
  5
5D48
330
18
100
AcDbEntity
  8
1PHANTOM
100
AcDbLine
 10
896.8987762636257
 20
21.84241147585084
 30
0.0
 11
896.8987762636257
 21
16.84241147585094
 31
0.0
  0
LINE
  5
5EDF
330
18
100
AcDbEntity
  8
1PHANTOM
100
AcDbLine
 10
1048.370888427656
 20
20.84241961974115
 30
0.0
 11
1048.370888427656
 21
21.84241147585075
 31
0.0
  0
LINE
  5
5EE0
330
18
100
AcDbEntity
  8
1PHANTOM
100
AcDbLine
 10
1055.370888427656
 20
20.84240333217687
 30
0.0
 11
1055.370888427656
 21
21.8424114758507
 31
0.0
  0
LINE
  5
5EE1
330
18
100
AcDbEntity
  8
1PHANTOM
100
AcDbLine
 10
1051.870934963554
 20
20.84241147585072
 30
0.0
 11
1051.293584694364
 21
21.84241147585072
 31
0.0
  0
LINE
  5
5EE3
330
18
100
AcDbEntity
  8
1PHANTOM
100
AcDbLine
 10
889.3987297277276
 20
20.84241961974116
 30
0.0
 11
889.3987297277276
 21
21.84241147585077
 31
0.0
  0
LINE
  5
5EE4
330
18
100
AcDbEntity
  8
1PHANTOM
100
AcDbLine
 10
896.3987297277276
 20
20.84240333217688
 30
0.0
 11
896.3987297277276
 21
21.84241147585071
 31
0.0
  0
LINE
  5
5EE5
330
18
100
AcDbEntity
  8
1PHANTOM
100
AcDbLine
 10
892.8987762636257
 20
20.84241147585074
 30
0.0
 11
892.3214259944359
 21
21.84241147585074
 31
0.0
  0
LINE
  5
5EE7
330
18
100
AcDbEntity
  8
1PHANTOM
100
AcDbLine
 10
786.898822799524
 20
21.84241147585084
 30
0.0
 11
778.8988227995242
 21
21.84241147585084
 31
0.0
  0
LINE
  5
5EE8
330
18
100
AcDbEntity
  8
1PHANTOM
100
AcDbLine
 10
780.648822799524
 20
24.84241147585084
 30
0.0
 11
780.648822799524
 21
21.84241147585085
 31
0.0
  0
LINE
  5
5EE9
330
18
100
AcDbEntity
  8
1PHANTOM
100
AcDbLine
 10
785.148822799524
 20
24.84241147585084
 30
0.0
 11
785.148822799524
 21
21.84241147585084
 31
0.0
  0
LINE
  5
5EEA
330
18
100
AcDbEntity
  8
1PHANTOM
100
AcDbLine
 10
778.8988227995242
 20
21.84241147585084
 30
0.0
 11
778.8988227995243
 21
16.84241147585093
 31
0.0
  0
LINE
  5
5EEB
330
18
100
AcDbEntity
  8
1PHANTOM
100
AcDbLine
 10
786.898822799524
 20
21.84241147585084
 30
0.0
 11
786.898822799524
 21
16.84241147585094
 31
0.0
  0
LINE
  5
5EED
330
18
100
AcDbEntity
  8
1PHANTOM
100
AcDbLine
 10
779.398776263626
 20
20.84241961974116
 30
0.0
 11
779.398776263626
 21
21.84241147585077
 31
0.0
  0
LINE
  5
5EEE
330
18
100
AcDbEntity
  8
1PHANTOM
100
AcDbLine
 10
786.398776263626
 20
20.84240333217688
 30
0.0
 11
786.398776263626
 21
21.84241147585071
 31
0.0
  0
LINE
  5
5EEF
330
18
100
AcDbEntity
  8
1PHANTOM
100
AcDbLine
 10
782.898822799524
 20
20.84241147585074
 30
0.0
 11
782.3214725303343
 21
21.84241147585074
 31
0.0
  0
CIRCLE
  5
6063
330
18
100
AcDbEntity
  8
1PHANTOM
100
AcDbCircle
 10
1029.870934963554
 20
-69.65758852414899
 30
0.0
 40
18.5
  0
CIRCLE
  5
6064
330
18
100
AcDbEntity
  8
1PHANTOM
100
AcDbCircle
 10
1029.870934963554
 20
-69.65758852414899
 30
0.0
 40
57.5
  0
ARC
  5
6157
330
18
100
AcDbEntity
  8
01
100
AcDbCircle
 10
1027.870934963554
 20
7.842411475851122
 30
0.0
 40
2.65
100
AcDbArc
 50
178.7224916546222
 51
259.3700382455104
  0
LINE
  5
6158
330
18
100
AcDbEntity
  8
01
100
AcDbLine
 10
906.1487762636251
 20
-43.30279412663701
 30
0.0
 11
785.1487762636256
 21
-43.30279412663699
 31
0.0
  0
LINE
  5
615A
330
18
100
AcDbEntity
  8
1PHANTOM
100
AcDbLine
 10
900.1487762636256
 20
-12.15758852414896
 30
0.0
 11
786.1487762636256
 21
-12.15758852414896
 31
0.0
  0
LINE
  5
615B
330
18
100
AcDbEntity
  8
1PHANTOM
100
AcDbLine
 10
900.1487762636256
 20
-127.157588524149
 30
0.0
 11
786.1487762636256
 21
-127.157588524149
 31
0.0
  0
LINE
  5
615C
330
18
100
AcDbEntity
  8
1PHANTOM
100
AcDbLine
 10
786.1487762636256
 20
-12.15758852414896
 30
0.0
 11
786.1487762636256
 21
-127.157588524149
 31
0.0
  0
LINE
  5
615D
330
18
100
AcDbEntity
  8
1PHANTOM
100
AcDbLine
 10
900.1487762636256
 20
-12.15758852414896
 30
0.0
 11
900.1487762636256
 21
-127.157588524149
 31
0.0
  0
LINE
  5
616C
330
18
100
AcDbEntity
  8
01
100
AcDbLine
 10
1023.870934963554
 20
24.84241147585089
 30
0.0
 11
1023.870935938778
 21
42.84241147585066
 31
0.0
  0
LINE
  5
616D
330
18
100
AcDbEntity
  8
01
100
AcDbLine
 10
1111.870888427656
 20
24.8424114758509
 30
0.0
 11
1023.870934963554
 21
24.84241147585089
 31
0.0
  0
LINE
  5
616E
330
18
100
AcDbEntity
  8
01
100
AcDbLine
 10
1111.870888427656
 20
42.84241147585083
 30
0.0
 11
1023.870935938778
 21
42.84241147585066
 31
0.0
  0
ARC
  5
6378
330
18
100
AcDbEntity
  8
01
100
AcDbCircle
 10
1030.870934963554
 20
7.842411475850838
 30
0.0
 40
0.5
100
AcDbArc
 50
180.0
 51
270.0
  0
LINE
  5
6379
330
18
100
AcDbEntity
  8
01
100
AcDbLine
 10
1026.620934963554
 20
5.677347966389809
 30
0.0
 11
1032.165163597613
 21
2.47638607206647
 31
0.0
  0
ARC
  5
637B
330
18
100
AcDbEntity
  8
01
100
AcDbCircle
 10
1035.840879931971
 20
9.356504339711627
 30
0.0
 40
1.0
100
AcDbArc
 50
314.446669942918
 51
44.44666994291723
  0
LINE
  5
637E
330
18
100
AcDbEntity
  8
01
100
AcDbLine
 10
1030.96252849812
 20
3.170727770495455
 30
0.0
 11
1029.830441171616
 21
2.060298071518218
 31
0.0
  0
LINE
  5
637F
330
18
100
AcDbEntity
  8
01
100
AcDbLine
 10
1023.878358009512
 20
8.128469627381406
 30
0.0
 11
1030.320612726143
 21
1.560566296329284
 31
0.0
  0
LINE
  5
6381
330
18
100
AcDbEntity
  8
01
100
AcDbLine
 10
906.1487762636252
 20
15.71077335959161
 30
0.0
 11
785.1487762636256
 21
15.71077335959163
 31
0.0
  0
LINE
  5
6382
330
18
100
AcDbEntity
  8
01
100
AcDbLine
 10
885.6487762636257
 20
97.65905004498958
 30
0.0
 11
877.6487762636257
 21
97.65905004498957
 31
0.0
  0
LINE
  5
6383
330
18
100
AcDbEntity
  8
01
100
AcDbLine
 10
885.6487762636257
 20
86.65905004498958
 30
0.0
 11
877.6487762636257
 21
86.65905004498957
 31
0.0
  0
LINE
  5
6384
330
18
100
AcDbEntity
  8
01
100
AcDbLine
 10
885.6487762636257
 20
86.65905004498958
 30
0.0
 11
885.6487762636257
 21
97.65905004498958
 31
0.0
  0
LINE
  5
6385
330
18
100
AcDbEntity
  8
01
100
AcDbLine
 10
877.6487762636257
 20
86.65905004498957
 30
0.0
 11
877.6487762636257
 21
97.65905004498957
 31
0.0
  0
LINE
  5
6386
330
18
100
AcDbEntity
  8
01
100
AcDbLine
 10
790.1487762636259
 20
86.65905004498958
 30
0.0
 11
798.1487762636259
 21
86.65905004498957
 31
0.0
  0
LINE
  5
6387
330
18
100
AcDbEntity
  8
01
100
AcDbLine
 10
790.1487762636259
 20
97.65905004498958
 30
0.0
 11
798.1487762636259
 21
97.65905004498957
 31
0.0
  0
LINE
  5
6388
330
18
100
AcDbEntity
  8
01
100
AcDbLine
 10
790.1487762636259
 20
86.65905004498958
 30
0.0
 11
790.1487762636259
 21
97.65905004498958
 31
0.0
  0
LINE
  5
6389
330
18
100
AcDbEntity
  8
01
100
AcDbLine
 10
798.1487762636259
 20
86.65905004498957
 30
0.0
 11
798.1487762636259
 21
97.65905004498957
 31
0.0
  0
ARC
  5
63A9
330
18
100
AcDbEntity
  8
01
100
AcDbCircle
 10
1027.870934963554
 20
7.842411475851122
 30
0.0
 40
2.65
100
AcDbArc
 50
352.7391945436478
 51
90.17084823138565
  0
ARC
  5
63AA
330
18
100
AcDbEntity
  8
01
100
AcDbCircle
 10
1032.665163597613
 20
3.342411475850887
 30
0.0
 40
1.0
100
AcDbArc
 50
239.9999999999975
 51
269.9999999999995
  0
LINE
  5
65BD
330
18
100
AcDbEntity
  8
01
100
AcDbLine
 10
1111.870888427656
 20
-14.44881059068693
 30
0.0
 11
1111.870888427656
 21
71.02213365514486
 31
0.0
  0
LINE
  5
7D9D
330
18
100
AcDbEntity
  8
1CENTER
100
AcDbLine
 10
813.8987762636256
 20
110.6590500449896
 30
0.0
 11
823.8987762636256
 21
110.6590500449896
 31
0.0
  0
LINE
  5
7D9E
330
18
100
AcDbEntity
  8
1CENTER
100
AcDbLine
 10
818.8987762636256
 20
103.9022972102157
 30
0.0
 11
818.8987762636256
 21
118.1590500449896
 31
0.0
  0
LINE
  5
7D9F
330
18
100
AcDbEntity
  8
1CENTER
100
AcDbLine
 10
861.898776263626
 20
110.6590500449896
 30
0.0
 11
851.898776263626
 21
110.6590500449896
 31
0.0
  0
LINE
  5
7DA0
330
18
100
AcDbEntity
  8
1CENTER
100
AcDbLine
 10
856.898776263626
 20
103.9022972102157
 30
0.0
 11
856.898776263626
 21
118.1590500449896
 31
0.0
  0
ARC
  5
7DA3
330
18
100
AcDbEntity
  8
01
100
AcDbCircle
 10
818.8987762636256
 20
110.6590500449896
 30
0.0
 40
6.0
100
AcDbArc
 50
16.60154959901941
 51
163.3984504009806
  0
ARC
  5
7DA4
330
18
100
AcDbEntity
  8
01
100
AcDbCircle
 10
812.1905723311262
 20
112.6590500449896
 30
0.0
 40
1.0
100
AcDbArc
 50
270.0
 51
343.3984504009806
  0
ARC
  5
7DA5
330
18
100
AcDbEntity
  8
01
100
AcDbCircle
 10
825.6069801961249
 20
112.6590500449895
 30
0.0
 40
1.0
100
AcDbArc
 50
196.6015495990194
 51
270.0
  0
ARC
  5
7DA6
330
18
100
AcDbEntity
  8
01
100
AcDbCircle
 10
818.8987762636256
 20
110.6590500449896
 30
0.0
 40
6.0
100
AcDbArc
 50
196.6015495990194
 51
343.3984504009806
  0
ARC
  5
7DA7
330
18
100
AcDbEntity
  8
01
100
AcDbCircle
 10
825.6069801961249
 20
108.6590500449896
 30
0.0
 40
1.0
100
AcDbArc
 50
90.0
 51
163.3984504009806
  0
ARC
  5
7DA8
330
18
100
AcDbEntity
  8
01
100
AcDbCircle
 10
812.1905723311262
 20
108.6590500449896
 30
0.0
 40
1.0
100
AcDbArc
 50
16.60154959901941
 51
90.0
  0
CIRCLE
  5
7DA9
330
18
100
AcDbEntity
  8
01
100
AcDbCircle
 10
818.8987762636256
 20
110.6590500449896
 30
0.0
 40
2.25
  0
ARC
  5
7DAA
330
18
100
AcDbEntity
  8
01
100
AcDbCircle
 10
856.898776263626
 20
110.6590500449896
 30
0.0
 40
6.0
100
AcDbArc
 50
16.60154959901941
 51
163.3984504009806
  0
ARC
  5
7DAB
330
18
100
AcDbEntity
  8
01
100
AcDbCircle
 10
850.1905723311266
 20
112.6590500449896
 30
0.0
 40
1.0
100
AcDbArc
 50
270.0
 51
343.3984504009806
  0
ARC
  5
7DAC
330
18
100
AcDbEntity
  8
01
100
AcDbCircle
 10
863.6069801961254
 20
112.6590500449895
 30
0.0
 40
1.0
100
AcDbArc
 50
196.6015495990194
 51
270.0
  0
ARC
  5
7DAD
330
18
100
AcDbEntity
  8
01
100
AcDbCircle
 10
856.898776263626
 20
110.6590500449896
 30
0.0
 40
6.0
100
AcDbArc
 50
196.6015495990194
 51
343.3984504009806
  0
ARC
  5
7DAE
330
18
100
AcDbEntity
  8
01
100
AcDbCircle
 10
863.6069801961254
 20
108.6590500449896
 30
0.0
 40
1.0
100
AcDbArc
 50
90.0
 51
163.3984504009806
  0
ARC
  5
7DAF
330
18
100
AcDbEntity
  8
01
100
AcDbCircle
 10
850.1905723311266
 20
108.6590500449896
 30
0.0
 40
1.0
100
AcDbArc
 50
16.60154959901941
 51
90.0
  0
CIRCLE
  5
7DB0
330
18
100
AcDbEntity
  8
01
100
AcDbCircle
 10
856.898776263626
 20
110.6590500449896
 30
0.0
 40
2.25
  0
LINE
  5
7DB4
330
18
100
AcDbEntity
  8
01
100
AcDbLine
 10
850.1905723311266
 20
111.6590500449896
 30
0.0
 11
825.6069801961249
 21
111.6590500449896
 31
0.0
  0
LINE
  5
7DB5
330
18
100
AcDbEntity
  8
01
100
AcDbLine
 10
850.1905723311266
 20
109.6590500449895
 30
0.0
 11
825.6069801961249
 21
109.6590500449895
 31
0.0
  0
LINE
  5
7DB6
330
18
100
AcDbEntity
  8
01
100
AcDbLine
 10
812.1905723311262
 20
109.6590500449895
 30
0.0
 11
789.8987762636259
 21
109.6590500449896
 31
0.0
  0
LINE
  5
7DB7
330
18
100
AcDbEntity
  8
01
100
AcDbLine
 10
812.1905723311262
 20
111.6590500449896
 30
0.0
 11
789.898776263626
 21
111.6590500449896
 31
0.0
  0
LINE
  5
7ED9
102
{ACAD_REACTORS
330
7F3A
102
}
330
18
100
AcDbEntity
  8
1PHANTOM
100
AcDbLine
 10
892.8987297277278
 20
41.26406425236601
 30
0.0
 11
892.8987297277278
 21
16.98218293678258
 31
0.0
  0
LINE
  5
7EDA
102
{ACAD_REACTORS
330
7F3A
102
}
330
18
100
AcDbEntity
  8
1PHANTOM
100
AcDbLine
 10
891.8044059137327
 20
36.74241402211879
 30
0.0
 11
893.7667410026081
 21
37.54240945616976
 31
0.0
  0
LINE
  5
7EDB
102
{ACAD_REACTORS
330
7F3A
102
}
330
18
100
AcDbEntity
  8
1PHANTOM
100
AcDbLine
 10
893.7667410026081
 20
37.54240945616976
 30
0.0
 11
893.1784644275657
 21
37.85417931242188
 31
0.0
  0
LINE
  5
7EDC
102
{ACAD_REACTORS
330
7F3A
102
}
330
18
100
AcDbEntity
  8
1PHANTOM
100
AcDbLine
 10
890.8987762636257
 20
25.54241612933316
 30
0.0
 11
894.8987762636257
 21
26.34240682215574
 31
0.0
  0
LINE
  5
7EDD
102
{ACAD_REACTORS
330
7F3A
102
}
330
18
100
AcDbEntity
  8
1PHANTOM
100
AcDbLine
 10
890.8987762636257
 20
27.1424161293333
 30
0.0
 11
894.8987762636257
 21
27.94240682215587
 31
0.0
  0
LINE
  5
7EDE
102
{ACAD_REACTORS
330
7F3A
102
}
330
18
100
AcDbEntity
  8
1PHANTOM
100
AcDbLine
 10
891.3987762636257
 20
27.04241496593619
 30
0.0
 11
890.8987762636257
 21
27.1424161293333
 31
0.0
  0
LINE
  5
7EDF
102
{ACAD_REACTORS
330
7F3A
102
}
330
18
100
AcDbEntity
  8
1PHANTOM
100
AcDbLine
 10
891.3987762636257
 20
28.6424149659361
 30
0.0
 11
890.8987762636257
 21
28.74241612933321
 31
0.0
  0
LINE
  5
7EE0
102
{ACAD_REACTORS
330
7F3A
102
}
330
18
100
AcDbEntity
  8
1PHANTOM
100
AcDbLine
 10
894.8987762636257
 20
27.94240682215587
 30
0.0
 11
894.3987762636257
 21
28.04240798555298
 31
0.0
  0
LINE
  5
7EE1
102
{ACAD_REACTORS
330
7F3A
102
}
330
18
100
AcDbEntity
  8
1PHANTOM
100
AcDbLine
 10
894.8987762636257
 20
26.34240682215574
 30
0.0
 11
894.3987762636257
 21
26.44240798555296
 31
0.0
  0
LINE
  5
7EE2
102
{ACAD_REACTORS
330
7F3A
102
}
330
18
100
AcDbEntity
  8
1PHANTOM
100
AcDbLine
 10
891.3987762636257
 20
30.24241496593601
 30
0.0
 11
890.8987762636257
 21
30.34241612933323
 31
0.0
  0
LINE
  5
7EE3
102
{ACAD_REACTORS
330
7F3A
102
}
330
18
100
AcDbEntity
  8
1PHANTOM
100
AcDbLine
 10
894.8987762636257
 20
29.54240682215578
 30
0.0
 11
894.3987762636257
 21
29.64240798555301
 31
0.0
  0
LINE
  5
7EE4
102
{ACAD_REACTORS
330
7F3A
102
}
330
18
100
AcDbEntity
  8
1PHANTOM
100
AcDbLine
 10
890.8987762636257
 20
28.74241612933321
 30
0.0
 11
894.8987762636257
 21
29.54240682215578
 31
0.0
  0
LINE
  5
7EE5
102
{ACAD_REACTORS
330
7F3A
102
}
330
18
100
AcDbEntity
  8
1PHANTOM
100
AcDbLine
 10
890.8987762636257
 20
33.54241612933316
 30
0.0
 11
894.6723692114217
 21
34.34240734895849
 31
0.0
  0
LINE
  5
7EE6
102
{ACAD_REACTORS
330
7F3A
102
}
330
18
100
AcDbEntity
  8
1PHANTOM
100
AcDbLine
 10
890.8987762636257
 20
31.94241612933325
 30
0.0
 11
894.8987762636257
 21
32.74240682215583
 31
0.0
  0
LINE
  5
7EE7
102
{ACAD_REACTORS
330
7F3A
102
}
330
18
100
AcDbEntity
  8
1PHANTOM
100
AcDbLine
 10
891.3515924056844
 20
35.14241507572302
 30
0.0
 11
894.2195551070149
 21
35.94240840256413
 31
0.0
  0
LINE
  5
7EE8
102
{ACAD_REACTORS
330
7F3A
102
}
330
18
100
AcDbEntity
  8
1PHANTOM
100
AcDbLine
 10
892.2615777543638
 20
36.59097822567838
 30
0.0
 11
891.8044059137327
 21
36.74241402211879
 31
0.0
  0
LINE
  5
7EE9
102
{ACAD_REACTORS
330
7F3A
102
}
330
18
100
AcDbEntity
  8
1PHANTOM
100
AcDbLine
 10
891.3987762636257
 20
33.44241496593605
 30
0.0
 11
890.8987762636257
 21
33.54241612933316
 31
0.0
  0
LINE
  5
7EEA
102
{ACAD_REACTORS
330
7F3A
102
}
330
18
100
AcDbEntity
  8
1PHANTOM
100
AcDbLine
 10
891.3987762636257
 20
31.84241496593614
 30
0.0
 11
890.8987762636257
 21
31.94241612933325
 31
0.0
  0
LINE
  5
7EEB
102
{ACAD_REACTORS
330
7F3A
102
}
330
18
100
AcDbEntity
  8
1PHANTOM
100
AcDbLine
 10
891.8196908608344
 20
35.02964556337298
 30
0.0
 11
891.3515924056844
 21
35.14241507572302
 31
0.0
  0
LINE
  5
7EEC
102
{ACAD_REACTORS
330
7F3A
102
}
330
18
100
AcDbEntity
  8
1PHANTOM
100
AcDbLine
 10
894.6723692114217
 20
34.34240734895849
 30
0.0
 11
894.1357754761506
 21
34.47167804658835
 31
0.0
  0
LINE
  5
7EED
102
{ACAD_REACTORS
330
7F3A
102
}
330
18
100
AcDbEntity
  8
1PHANTOM
100
AcDbLine
 10
894.8987762636257
 20
31.14240682215581
 30
0.0
 11
894.3987762636257
 21
31.2424079855528
 31
0.0
  0
LINE
  5
7EEE
102
{ACAD_REACTORS
330
7F3A
102
}
330
18
100
AcDbEntity
  8
1PHANTOM
100
AcDbLine
 10
894.8987762636257
 20
32.74240682215583
 30
0.0
 11
894.3987762636257
 21
32.84240798555294
 31
0.0
  0
LINE
  5
7EEF
102
{ACAD_REACTORS
330
7F3A
102
}
330
18
100
AcDbEntity
  8
1PHANTOM
100
AcDbLine
 10
894.2195551070149
 20
35.94240840256413
 30
0.0
 11
893.6678056432116
 21
36.12517254519213
 31
0.0
  0
LINE
  5
7EF0
102
{ACAD_REACTORS
330
7F3A
102
}
330
18
100
AcDbEntity
  8
1PHANTOM
100
AcDbLine
 10
890.8987762636257
 20
30.34241612933323
 30
0.0
 11
894.8987762636257
 21
31.14240682215581
 31
0.0
  0
LINE
  5
7EF1
102
{ACAD_REACTORS
330
7F3A
102
}
330
18
100
AcDbEntity
  8
1PHANTOM
100
AcDbLine
 10
894.3987762636256
 20
20.84240798565838
 30
0.0
 11
891.3987762636259
 21
20.84241496604309
 31
0.0
  0
LINE
  5
7EF4
102
{ACAD_REACTORS
330
7F3A
102
}
330
18
100
AcDbEntity
  8
1PHANTOM
100
AcDbLine
 10
890.8987762636257
 20
23.94241612933325
 30
0.0
 11
894.8987762636257
 21
24.74240682215583
 31
0.0
  0
LINE
  5
7EF5
102
{ACAD_REACTORS
330
7F3A
102
}
330
18
100
AcDbEntity
  8
1PHANTOM
100
AcDbLine
 10
890.8987762636257
 20
22.34241612933323
 30
0.0
 11
894.8987762636257
 21
23.14240682215149
 31
0.0
  0
LINE
  5
7EF6
102
{ACAD_REACTORS
330
7F3A
102
}
330
18
100
AcDbEntity
  8
1PHANTOM
100
AcDbLine
 10
891.3987762636257
 20
22.24241496593555
 30
0.0
 11
890.8987762636257
 21
22.34241612933323
 31
0.0
  0
LINE
  5
7EF8
102
{ACAD_REACTORS
330
7F3A
102
}
330
18
100
AcDbEntity
  8
1PHANTOM
100
AcDbLine
 10
891.3987762636257
 20
23.84241496593546
 30
0.0
 11
890.8987762636257
 21
23.94241612933325
 31
0.0
  0
LINE
  5
7EF9
102
{ACAD_REACTORS
330
7F3A
102
}
330
18
100
AcDbEntity
  8
1PHANTOM
100
AcDbLine
 10
891.3987762636257
 20
25.44241496593605
 30
0.0
 11
890.8987762636257
 21
25.54241612933316
 31
0.0
  0
LINE
  5
7EFA
102
{ACAD_REACTORS
330
7F3A
102
}
330
18
100
AcDbEntity
  8
1PHANTOM
100
AcDbLine
 10
894.8987762636257
 20
21.54240682215135
 30
0.0
 11
894.3987762636257
 21
21.64240798554903
 31
0.0
  0
LINE
  5
7EFC
102
{ACAD_REACTORS
330
7F3A
102
}
330
18
100
AcDbEntity
  8
1PHANTOM
100
AcDbLine
 10
894.8987762636257
 20
24.74240682215583
 30
0.0
 11
894.3987762636257
 21
24.84240798555294
 31
0.0
  0
LINE
  5
7EFD
102
{ACAD_REACTORS
330
7F3A
102
}
330
18
100
AcDbEntity
  8
1PHANTOM
100
AcDbLine
 10
894.8987762636257
 20
23.14240682215149
 30
0.0
 11
894.3987762636257
 21
23.24240798554916
 31
0.0
  0
LINE
  5
7F20
102
{ACAD_REACTORS
330
7F3A
102
}
330
18
100
AcDbEntity
  8
1PHANTOM
100
AcDbLine
 10
889.3987297277279
 20
20.84241961974115
 30
0.0
 11
891.3987762636259
 21
20.84241496604309
 31
0.0
  0
LINE
  5
7F21
102
{ACAD_REACTORS
330
7F3A
102
}
330
18
100
AcDbEntity
  8
1PHANTOM
100
AcDbLine
 10
889.3987297277279
 20
20.84241961974115
 30
0.0
 11
889.3987297277278
 21
19.74241612954583
 31
0.0
  0
LINE
  5
7F22
102
{ACAD_REACTORS
330
7F3A
102
}
330
18
100
AcDbEntity
  8
1PHANTOM
100
AcDbLine
 10
891.3987762636257
 20
33.54241496593573
 30
0.0
 11
891.3987762636258
 21
20.84241496604307
 31
0.0
  0
ARC
  5
7F23
102
{ACAD_REACTORS
330
7F3A
102
}
330
18
100
AcDbEntity
  8
1PHANTOM
100
AcDbCircle
 10
890.8987297277278
 20
19.74241612954583
 30
0.0
 40
1.5
100
AcDbArc
 50
180.0
 51
269.9998666844705
  0
LINE
  5
7F24
102
{ACAD_REACTORS
330
7F3A
102
}
330
18
100
AcDbEntity
  8
1PHANTOM
100
AcDbLine
 10
892.8987762636257
 20
38.84241147579661
 30
0.0
 11
891.3987762636257
 21
33.54241496593573
 31
0.0
  0
LINE
  5
7F25
102
{ACAD_REACTORS
330
7F3A
102
}
330
18
100
AcDbEntity
  8
1PHANTOM
100
AcDbLine
 10
890.8987262375354
 20
18.24241612954989
 30
0.0
 11
894.8987262375354
 21
18.2424068223703
 31
0.0
  0
LINE
  5
7F26
102
{ACAD_REACTORS
330
7F3A
102
}
330
18
100
AcDbEntity
  8
1PHANTOM
100
AcDbLine
 10
892.8987762636257
 20
38.84241147579661
 30
0.0
 11
894.3987762636257
 21
33.54240798555105
 31
0.0
  0
ARC
  5
7F27
102
{ACAD_REACTORS
330
7F3A
102
}
330
18
100
AcDbEntity
  8
1PHANTOM
100
AcDbCircle
 10
894.8987297277278
 20
19.74240682236623
 30
0.0
 40
1.5
100
AcDbArc
 50
269.9998666844705
 51
0.0
  0
LINE
  5
7F28
102
{ACAD_REACTORS
330
7F3A
102
}
330
18
100
AcDbEntity
  8
1PHANTOM
100
AcDbLine
 10
894.3987762636257
 20
33.54240798555105
 30
0.0
 11
894.3987762636256
 21
20.84240798565838
 31
0.0
  0
LINE
  5
7F29
102
{ACAD_REACTORS
330
7F3A
102
}
330
18
100
AcDbEntity
  8
1PHANTOM
100
AcDbLine
 10
896.3987297277278
 20
20.84240333217687
 30
0.0
 11
896.3987297277278
 21
19.74240682236623
 31
0.0
  0
LINE
  5
7F2A
102
{ACAD_REACTORS
330
7F3A
102
}
330
18
100
AcDbEntity
  8
1PHANTOM
100
AcDbLine
 10
894.3987762636256
 20
20.84240798565838
 30
0.0
 11
896.3987297277278
 21
20.84240333217687
 31
0.0
  0
LINE
  5
7F39
102
{ACAD_REACTORS
330
7F3A
102
}
330
18
100
AcDbEntity
  8
1PHANTOM
100
AcDbLine
 10
892.8987297277278
 20
21.14240216867091
 30
0.0
 11
894.8987762636257
 21
21.54240682215135
 31
0.0
  0
LINE
  5
7F63
102
{ACAD_REACTORS
330
7F90
102
}
330
18
100
AcDbEntity
  8
1PHANTOM
100
AcDbLine
 10
779.3988227995242
 20
20.84241961974116
 30
0.0
 11
781.3988693354222
 21
20.84241496604311
 31
0.0
  0
LINE
  5
7F64
102
{ACAD_REACTORS
330
7F90
102
}
330
18
100
AcDbEntity
  8
1PHANTOM
100
AcDbLine
 10
779.3988227995242
 20
20.84241961974116
 30
0.0
 11
779.398822799524
 21
19.74241612954584
 31
0.0
  0
LINE
  5
7F65
102
{ACAD_REACTORS
330
7F90
102
}
330
18
100
AcDbEntity
  8
1PHANTOM
100
AcDbLine
 10
781.398869335422
 20
33.54241496593575
 30
0.0
 11
781.3988693354221
 21
20.84241496604308
 31
0.0
  0
ARC
  5
7F66
102
{ACAD_REACTORS
330
7F90
102
}
330
18
100
AcDbEntity
  8
1PHANTOM
100
AcDbCircle
 10
780.898822799524
 20
19.74241612954584
 30
0.0
 40
1.5
100
AcDbArc
 50
180.0
 51
269.9998666844701
  0
LINE
  5
7F67
102
{ACAD_REACTORS
330
7F90
102
}
330
18
100
AcDbEntity
  8
1PHANTOM
100
AcDbLine
 10
782.898869335422
 20
38.84241147579662
 30
0.0
 11
781.398869335422
 21
33.54241496593575
 31
0.0
  0
LINE
  5
7F68
102
{ACAD_REACTORS
330
7F90
102
}
330
18
100
AcDbEntity
  8
1PHANTOM
100
AcDbLine
 10
780.8988193093317
 20
18.24241612954991
 30
0.0
 11
784.8988193093317
 21
18.24240682237031
 31
0.0
  0
LINE
  5
7F69
102
{ACAD_REACTORS
330
7F90
102
}
330
18
100
AcDbEntity
  8
1PHANTOM
100
AcDbLine
 10
782.898869335422
 20
38.84241147579662
 30
0.0
 11
784.398869335422
 21
33.54240798555107
 31
0.0
  0
ARC
  5
7F6A
102
{ACAD_REACTORS
330
7F90
102
}
330
18
100
AcDbEntity
  8
1PHANTOM
100
AcDbCircle
 10
784.898822799524
 20
19.74240682236625
 30
0.0
 40
1.5
100
AcDbArc
 50
269.9998666844701
 51
0.0
  0
LINE
  5
7F6B
102
{ACAD_REACTORS
330
7F90
102
}
330
18
100
AcDbEntity
  8
1PHANTOM
100
AcDbLine
 10
784.398869335422
 20
33.54240798555107
 30
0.0
 11
784.3988693354219
 21
20.8424079856584
 31
0.0
  0
LINE
  5
7F6C
102
{ACAD_REACTORS
330
7F90
102
}
330
18
100
AcDbEntity
  8
1PHANTOM
100
AcDbLine
 10
786.398822799524
 20
20.84240333217689
 30
0.0
 11
786.398822799524
 21
19.74240682236625
 31
0.0
  0
LINE
  5
7F6D
102
{ACAD_REACTORS
330
7F90
102
}
330
18
100
AcDbEntity
  8
1PHANTOM
100
AcDbLine
 10
784.3988693354219
 20
20.8424079856584
 30
0.0
 11
786.398822799524
 21
20.84240333217689
 31
0.0
  0
LINE
  5
7F6E
102
{ACAD_REACTORS
330
7F90
102
}
330
18
100
AcDbEntity
  8
1PHANTOM
100
AcDbLine
 10
782.898822799524
 20
41.26406425236603
 30
0.0
 11
782.898822799524
 21
16.98218293678259
 31
0.0
  0
LINE
  5
7F6F
102
{ACAD_REACTORS
330
7F90
102
}
330
18
100
AcDbEntity
  8
1PHANTOM
100
AcDbLine
 10
781.804498985529
 20
36.74241402211881
 30
0.0
 11
783.7668340744044
 21
37.54240945616978
 31
0.0
  0
LINE
  5
7F70
102
{ACAD_REACTORS
330
7F90
102
}
330
18
100
AcDbEntity
  8
1PHANTOM
100
AcDbLine
 10
783.7668340744044
 20
37.54240945616978
 30
0.0
 11
783.178557499362
 21
37.85417931242189
 31
0.0
  0
LINE
  5
7F71
102
{ACAD_REACTORS
330
7F90
102
}
330
18
100
AcDbEntity
  8
1PHANTOM
100
AcDbLine
 10
780.898869335422
 20
25.54241612933318
 30
0.0
 11
784.898869335422
 21
26.34240682215575
 31
0.0
  0
LINE
  5
7F72
102
{ACAD_REACTORS
330
7F90
102
}
330
18
100
AcDbEntity
  8
1PHANTOM
100
AcDbLine
 10
780.898869335422
 20
27.14241612933331
 30
0.0
 11
784.898869335422
 21
27.94240682215589
 31
0.0
  0
LINE
  5
7F73
102
{ACAD_REACTORS
330
7F90
102
}
330
18
100
AcDbEntity
  8
1PHANTOM
100
AcDbLine
 10
781.398869335422
 20
27.0424149659362
 30
0.0
 11
780.898869335422
 21
27.14241612933331
 31
0.0
  0
LINE
  5
7F74
102
{ACAD_REACTORS
330
7F90
102
}
330
18
100
AcDbEntity
  8
1PHANTOM
100
AcDbLine
 10
781.398869335422
 20
28.64241496593611
 30
0.0
 11
780.898869335422
 21
28.74241612933322
 31
0.0
  0
LINE
  5
7F75
102
{ACAD_REACTORS
330
7F90
102
}
330
18
100
AcDbEntity
  8
1PHANTOM
100
AcDbLine
 10
784.898869335422
 20
27.94240682215589
 30
0.0
 11
784.398869335422
 21
28.042407985553
 31
0.0
  0
LINE
  5
7F76
102
{ACAD_REACTORS
330
7F90
102
}
330
18
100
AcDbEntity
  8
1PHANTOM
100
AcDbLine
 10
784.898869335422
 20
26.34240682215575
 30
0.0
 11
784.398869335422
 21
26.44240798555298
 31
0.0
  0
LINE
  5
7F77
102
{ACAD_REACTORS
330
7F90
102
}
330
18
100
AcDbEntity
  8
1PHANTOM
100
AcDbLine
 10
781.398869335422
 20
30.24241496593602
 30
0.0
 11
780.898869335422
 21
30.34241612933324
 31
0.0
  0
LINE
  5
7F78
102
{ACAD_REACTORS
330
7F90
102
}
330
18
100
AcDbEntity
  8
1PHANTOM
100
AcDbLine
 10
784.898869335422
 20
29.5424068221558
 30
0.0
 11
784.398869335422
 21
29.64240798555302
 31
0.0
  0
LINE
  5
7F79
102
{ACAD_REACTORS
330
7F90
102
}
330
18
100
AcDbEntity
  8
1PHANTOM
100
AcDbLine
 10
780.898869335422
 20
28.74241612933322
 30
0.0
 11
784.898869335422
 21
29.5424068221558
 31
0.0
  0
LINE
  5
7F7A
102
{ACAD_REACTORS
330
7F90
102
}
330
18
100
AcDbEntity
  8
1PHANTOM
100
AcDbLine
 10
780.898869335422
 20
33.54241612933318
 30
0.0
 11
784.672462283218
 21
34.3424073489585
 31
0.0
  0
LINE
  5
7F7B
102
{ACAD_REACTORS
330
7F90
102
}
330
18
100
AcDbEntity
  8
1PHANTOM
100
AcDbLine
 10
780.898869335422
 20
31.94241612933327
 30
0.0
 11
784.898869335422
 21
32.74240682215584
 31
0.0
  0
LINE
  5
7F7C
102
{ACAD_REACTORS
330
7F90
102
}
330
18
100
AcDbEntity
  8
1PHANTOM
100
AcDbLine
 10
781.3516854774807
 20
35.14241507572304
 30
0.0
 11
784.2196481788112
 21
35.94240840256414
 31
0.0
  0
LINE
  5
7F7D
102
{ACAD_REACTORS
330
7F90
102
}
330
18
100
AcDbEntity
  8
1PHANTOM
100
AcDbLine
 10
782.2616708261601
 20
36.5909782256784
 30
0.0
 11
781.804498985529
 21
36.74241402211881
 31
0.0
  0
LINE
  5
7F7E
102
{ACAD_REACTORS
330
7F90
102
}
330
18
100
AcDbEntity
  8
1PHANTOM
100
AcDbLine
 10
781.398869335422
 20
33.44241496593607
 30
0.0
 11
780.898869335422
 21
33.54241612933318
 31
0.0
  0
LINE
  5
7F7F
102
{ACAD_REACTORS
330
7F90
102
}
330
18
100
AcDbEntity
  8
1PHANTOM
100
AcDbLine
 10
781.398869335422
 20
31.84241496593616
 30
0.0
 11
780.898869335422
 21
31.94241612933327
 31
0.0
  0
LINE
  5
7F80
102
{ACAD_REACTORS
330
7F90
102
}
330
18
100
AcDbEntity
  8
1PHANTOM
100
AcDbLine
 10
781.8197839326307
 20
35.02964556337299
 30
0.0
 11
781.3516854774807
 21
35.14241507572304
 31
0.0
  0
LINE
  5
7F81
102
{ACAD_REACTORS
330
7F90
102
}
330
18
100
AcDbEntity
  8
1PHANTOM
100
AcDbLine
 10
784.672462283218
 20
34.3424073489585
 30
0.0
 11
784.1358685479469
 21
34.47167804658837
 31
0.0
  0
LINE
  5
7F82
102
{ACAD_REACTORS
330
7F90
102
}
330
18
100
AcDbEntity
  8
1PHANTOM
100
AcDbLine
 10
784.898869335422
 20
31.14240682215582
 30
0.0
 11
784.398869335422
 21
31.24240798555282
 31
0.0
  0
LINE
  5
7F83
102
{ACAD_REACTORS
330
7F90
102
}
330
18
100
AcDbEntity
  8
1PHANTOM
100
AcDbLine
 10
784.898869335422
 20
32.74240682215584
 30
0.0
 11
784.398869335422
 21
32.84240798555295
 31
0.0
  0
LINE
  5
7F84
102
{ACAD_REACTORS
330
7F90
102
}
330
18
100
AcDbEntity
  8
1PHANTOM
100
AcDbLine
 10
784.2196481788112
 20
35.94240840256414
 30
0.0
 11
783.6678987150079
 21
36.12517254519214
 31
0.0
  0
LINE
  5
7F85
102
{ACAD_REACTORS
330
7F90
102
}
330
18
100
AcDbEntity
  8
1PHANTOM
100
AcDbLine
 10
780.898869335422
 20
30.34241612933324
 30
0.0
 11
784.898869335422
 21
31.14240682215582
 31
0.0
  0
LINE
  5
7F86
102
{ACAD_REACTORS
330
7F90
102
}
330
18
100
AcDbEntity
  8
1PHANTOM
100
AcDbLine
 10
784.3988693354219
 20
20.8424079856584
 30
0.0
 11
781.3988693354222
 21
20.84241496604311
 31
0.0
  0
LINE
  5
7F87
102
{ACAD_REACTORS
330
7F90
102
}
330
18
100
AcDbEntity
  8
1PHANTOM
100
AcDbLine
 10
782.898822799524
 20
21.14240216867093
 30
0.0
 11
784.898869335422
 21
21.54240682215136
 31
0.0
  0
LINE
  5
7F88
102
{ACAD_REACTORS
330
7F90
102
}
330
18
100
AcDbEntity
  8
1PHANTOM
100
AcDbLine
 10
780.898869335422
 20
23.94241612933327
 30
0.0
 11
784.898869335422
 21
24.74240682215584
 31
0.0
  0
LINE
  5
7F89
102
{ACAD_REACTORS
330
7F90
102
}
330
18
100
AcDbEntity
  8
1PHANTOM
100
AcDbLine
 10
780.898869335422
 20
22.34241612933324
 30
0.0
 11
784.898869335422
 21
23.1424068221515
 31
0.0
  0
LINE
  5
7F8A
102
{ACAD_REACTORS
330
7F90
102
}
330
18
100
AcDbEntity
  8
1PHANTOM
100
AcDbLine
 10
781.398869335422
 20
22.24241496593557
 30
0.0
 11
780.898869335422
 21
22.34241612933324
 31
0.0
  0
LINE
  5
7F8B
102
{ACAD_REACTORS
330
7F90
102
}
330
18
100
AcDbEntity
  8
1PHANTOM
100
AcDbLine
 10
781.398869335422
 20
23.84241496593548
 30
0.0
 11
780.898869335422
 21
23.94241612933327
 31
0.0
  0
LINE
  5
7F8C
102
{ACAD_REACTORS
330
7F90
102
}
330
18
100
AcDbEntity
  8
1PHANTOM
100
AcDbLine
 10
781.398869335422
 20
25.44241496593607
 30
0.0
 11
780.898869335422
 21
25.54241612933318
 31
0.0
  0
LINE
  5
7F8D
102
{ACAD_REACTORS
330
7F90
102
}
330
18
100
AcDbEntity
  8
1PHANTOM
100
AcDbLine
 10
784.898869335422
 20
21.54240682215136
 30
0.0
 11
784.398869335422
 21
21.64240798554904
 31
0.0
  0
LINE
  5
7F8E
102
{ACAD_REACTORS
330
7F90
102
}
330
18
100
AcDbEntity
  8
1PHANTOM
100
AcDbLine
 10
784.898869335422
 20
24.74240682215584
 30
0.0
 11
784.398869335422
 21
24.84240798555295
 31
0.0
  0
LINE
  5
7F8F
102
{ACAD_REACTORS
330
7F90
102
}
330
18
100
AcDbEntity
  8
1PHANTOM
100
AcDbLine
 10
784.898869335422
 20
23.1424068221515
 30
0.0
 11
784.398869335422
 21
23.24240798554918
 31
0.0
  0
LINE
  5
7FFE
102
{ACAD_REACTORS
330
802B
102
}
330
18
100
AcDbEntity
  8
1PHANTOM
100
AcDbLine
 10
1048.370934963491
 20
20.84241961974115
 30
0.0
 11
1050.370981499389
 21
20.84241496604309
 31
0.0
  0
LINE
  5
7FFF
102
{ACAD_REACTORS
330
802B
102
}
330
18
100
AcDbEntity
  8
1PHANTOM
100
AcDbLine
 10
1048.370934963491
 20
20.84241961974115
 30
0.0
 11
1048.370934963491
 21
19.74241612954583
 31
0.0
  0
LINE
  5
8000
102
{ACAD_REACTORS
330
802B
102
}
330
18
100
AcDbEntity
  8
1PHANTOM
100
AcDbLine
 10
1050.370981499389
 20
33.54241496593573
 30
0.0
 11
1050.370981499389
 21
20.84241496604307
 31
0.0
  0
ARC
  5
8001
102
{ACAD_REACTORS
330
802B
102
}
330
18
100
AcDbEntity
  8
1PHANTOM
100
AcDbCircle
 10
1049.870934963491
 20
19.74241612954583
 30
0.0
 40
1.5
100
AcDbArc
 50
180.0
 51
269.9998666844701
  0
LINE
  5
8002
102
{ACAD_REACTORS
330
802B
102
}
330
18
100
AcDbEntity
  8
1PHANTOM
100
AcDbLine
 10
1051.870981499389
 20
38.84241147579661
 30
0.0
 11
1050.370981499389
 21
33.54241496593573
 31
0.0
  0
LINE
  5
8003
102
{ACAD_REACTORS
330
802B
102
}
330
18
100
AcDbEntity
  8
1PHANTOM
100
AcDbLine
 10
1049.870931473299
 20
18.24241612954989
 30
0.0
 11
1053.870931473299
 21
18.2424068223703
 31
0.0
  0
LINE
  5
8004
102
{ACAD_REACTORS
330
802B
102
}
330
18
100
AcDbEntity
  8
1PHANTOM
100
AcDbLine
 10
1051.870981499389
 20
38.84241147579661
 30
0.0
 11
1053.370981499389
 21
33.54240798555105
 31
0.0
  0
ARC
  5
8005
102
{ACAD_REACTORS
330
802B
102
}
330
18
100
AcDbEntity
  8
1PHANTOM
100
AcDbCircle
 10
1053.870934963491
 20
19.74240682236623
 30
0.0
 40
1.5
100
AcDbArc
 50
269.9998666844701
 51
0.0
  0
LINE
  5
8006
102
{ACAD_REACTORS
330
802B
102
}
330
18
100
AcDbEntity
  8
1PHANTOM
100
AcDbLine
 10
1053.370981499389
 20
33.54240798555105
 30
0.0
 11
1053.370981499389
 21
20.84240798565838
 31
0.0
  0
LINE
  5
8007
102
{ACAD_REACTORS
330
802B
102
}
330
18
100
AcDbEntity
  8
1PHANTOM
100
AcDbLine
 10
1055.370934963491
 20
20.84240333217687
 30
0.0
 11
1055.370934963491
 21
19.74240682236623
 31
0.0
  0
LINE
  5
8008
102
{ACAD_REACTORS
330
802B
102
}
330
18
100
AcDbEntity
  8
1PHANTOM
100
AcDbLine
 10
1053.370981499389
 20
20.84240798565838
 30
0.0
 11
1055.370934963491
 21
20.84240333217687
 31
0.0
  0
LINE
  5
8009
102
{ACAD_REACTORS
330
802B
102
}
330
18
100
AcDbEntity
  8
1PHANTOM
100
AcDbLine
 10
1051.870934963491
 20
41.26406425236601
 30
0.0
 11
1051.870934963491
 21
16.98218293678258
 31
0.0
  0
LINE
  5
800A
102
{ACAD_REACTORS
330
802B
102
}
330
18
100
AcDbEntity
  8
1PHANTOM
100
AcDbLine
 10
1050.776611149496
 20
36.74241402211879
 30
0.0
 11
1052.738946238372
 21
37.54240945616976
 31
0.0
  0
LINE
  5
800B
102
{ACAD_REACTORS
330
802B
102
}
330
18
100
AcDbEntity
  8
1PHANTOM
100
AcDbLine
 10
1052.738946238372
 20
37.54240945616976
 30
0.0
 11
1052.150669663329
 21
37.85417931242188
 31
0.0
  0
LINE
  5
800C
102
{ACAD_REACTORS
330
802B
102
}
330
18
100
AcDbEntity
  8
1PHANTOM
100
AcDbLine
 10
1049.870981499389
 20
25.54241612933316
 30
0.0
 11
1053.870981499389
 21
26.34240682215574
 31
0.0
  0
LINE
  5
800D
102
{ACAD_REACTORS
330
802B
102
}
330
18
100
AcDbEntity
  8
1PHANTOM
100
AcDbLine
 10
1049.870981499389
 20
27.1424161293333
 30
0.0
 11
1053.870981499389
 21
27.94240682215587
 31
0.0
  0
LINE
  5
800E
102
{ACAD_REACTORS
330
802B
102
}
330
18
100
AcDbEntity
  8
1PHANTOM
100
AcDbLine
 10
1050.370981499389
 20
27.04241496593619
 30
0.0
 11
1049.870981499389
 21
27.1424161293333
 31
0.0
  0
LINE
  5
800F
102
{ACAD_REACTORS
330
802B
102
}
330
18
100
AcDbEntity
  8
1PHANTOM
100
AcDbLine
 10
1050.370981499389
 20
28.6424149659361
 30
0.0
 11
1049.870981499389
 21
28.74241612933321
 31
0.0
  0
LINE
  5
8010
102
{ACAD_REACTORS
330
802B
102
}
330
18
100
AcDbEntity
  8
1PHANTOM
100
AcDbLine
 10
1053.870981499389
 20
27.94240682215587
 30
0.0
 11
1053.370981499389
 21
28.04240798555298
 31
0.0
  0
LINE
  5
8011
102
{ACAD_REACTORS
330
802B
102
}
330
18
100
AcDbEntity
  8
1PHANTOM
100
AcDbLine
 10
1053.870981499389
 20
26.34240682215574
 30
0.0
 11
1053.370981499389
 21
26.44240798555296
 31
0.0
  0
LINE
  5
8012
102
{ACAD_REACTORS
330
802B
102
}
330
18
100
AcDbEntity
  8
1PHANTOM
100
AcDbLine
 10
1050.370981499389
 20
30.24241496593601
 30
0.0
 11
1049.870981499389
 21
30.34241612933323
 31
0.0
  0
LINE
  5
8013
102
{ACAD_REACTORS
330
802B
102
}
330
18
100
AcDbEntity
  8
1PHANTOM
100
AcDbLine
 10
1053.870981499389
 20
29.54240682215578
 30
0.0
 11
1053.370981499389
 21
29.64240798555301
 31
0.0
  0
LINE
  5
8014
102
{ACAD_REACTORS
330
802B
102
}
330
18
100
AcDbEntity
  8
1PHANTOM
100
AcDbLine
 10
1049.870981499389
 20
28.74241612933321
 30
0.0
 11
1053.870981499389
 21
29.54240682215578
 31
0.0
  0
LINE
  5
8015
102
{ACAD_REACTORS
330
802B
102
}
330
18
100
AcDbEntity
  8
1PHANTOM
100
AcDbLine
 10
1049.870981499389
 20
33.54241612933316
 30
0.0
 11
1053.644574447185
 21
34.34240734895849
 31
0.0
  0
LINE
  5
8016
102
{ACAD_REACTORS
330
802B
102
}
330
18
100
AcDbEntity
  8
1PHANTOM
100
AcDbLine
 10
1049.870981499389
 20
31.94241612933325
 30
0.0
 11
1053.870981499389
 21
32.74240682215583
 31
0.0
  0
LINE
  5
8017
102
{ACAD_REACTORS
330
802B
102
}
330
18
100
AcDbEntity
  8
1PHANTOM
100
AcDbLine
 10
1050.323797641448
 20
35.14241507572302
 30
0.0
 11
1053.191760342778
 21
35.94240840256413
 31
0.0
  0
LINE
  5
8018
102
{ACAD_REACTORS
330
802B
102
}
330
18
100
AcDbEntity
  8
1PHANTOM
100
AcDbLine
 10
1051.233782990127
 20
36.59097822567838
 30
0.0
 11
1050.776611149496
 21
36.74241402211879
 31
0.0
  0
LINE
  5
8019
102
{ACAD_REACTORS
330
802B
102
}
330
18
100
AcDbEntity
  8
1PHANTOM
100
AcDbLine
 10
1050.370981499389
 20
33.44241496593605
 30
0.0
 11
1049.870981499389
 21
33.54241612933316
 31
0.0
  0
LINE
  5
801A
102
{ACAD_REACTORS
330
802B
102
}
330
18
100
AcDbEntity
  8
1PHANTOM
100
AcDbLine
 10
1050.370981499389
 20
31.84241496593614
 30
0.0
 11
1049.870981499389
 21
31.94241612933325
 31
0.0
  0
LINE
  5
801B
102
{ACAD_REACTORS
330
802B
102
}
330
18
100
AcDbEntity
  8
1PHANTOM
100
AcDbLine
 10
1050.791896096598
 20
35.02964556337298
 30
0.0
 11
1050.323797641448
 21
35.14241507572302
 31
0.0
  0
LINE
  5
801C
102
{ACAD_REACTORS
330
802B
102
}
330
18
100
AcDbEntity
  8
1PHANTOM
100
AcDbLine
 10
1053.644574447185
 20
34.34240734895849
 30
0.0
 11
1053.107980711914
 21
34.47167804658835
 31
0.0
  0
LINE
  5
801D
102
{ACAD_REACTORS
330
802B
102
}
330
18
100
AcDbEntity
  8
1PHANTOM
100
AcDbLine
 10
1053.870981499389
 20
31.14240682215581
 30
0.0
 11
1053.370981499389
 21
31.2424079855528
 31
0.0
  0
LINE
  5
801E
102
{ACAD_REACTORS
330
802B
102
}
330
18
100
AcDbEntity
  8
1PHANTOM
100
AcDbLine
 10
1053.870981499389
 20
32.74240682215583
 30
0.0
 11
1053.370981499389
 21
32.84240798555294
 31
0.0
  0
LINE
  5
801F
102
{ACAD_REACTORS
330
802B
102
}
330
18
100
AcDbEntity
  8
1PHANTOM
100
AcDbLine
 10
1053.191760342778
 20
35.94240840256413
 30
0.0
 11
1052.640010878975
 21
36.12517254519213
 31
0.0
  0
LINE
  5
8020
102
{ACAD_REACTORS
330
802B
102
}
330
18
100
AcDbEntity
  8
1PHANTOM
100
AcDbLine
 10
1049.870981499389
 20
30.34241612933323
 30
0.0
 11
1053.870981499389
 21
31.14240682215581
 31
0.0
  0
LINE
  5
8021
102
{ACAD_REACTORS
330
802B
102
}
330
18
100
AcDbEntity
  8
1PHANTOM
100
AcDbLine
 10
1053.370981499389
 20
20.84240798565838
 30
0.0
 11
1050.370981499389
 21
20.84241496604309
 31
0.0
  0
LINE
  5
8022
102
{ACAD_REACTORS
330
802B
102
}
330
18
100
AcDbEntity
  8
1PHANTOM
100
AcDbLine
 10
1051.870934963491
 20
21.14240216867091
 30
0.0
 11
1053.870981499389
 21
21.54240682215135
 31
0.0
  0
LINE
  5
8023
102
{ACAD_REACTORS
330
802B
102
}
330
18
100
AcDbEntity
  8
1PHANTOM
100
AcDbLine
 10
1049.870981499389
 20
23.94241612933325
 30
0.0
 11
1053.870981499389
 21
24.74240682215583
 31
0.0
  0
LINE
  5
8024
102
{ACAD_REACTORS
330
802B
102
}
330
18
100
AcDbEntity
  8
1PHANTOM
100
AcDbLine
 10
1049.870981499389
 20
22.34241612933323
 30
0.0
 11
1053.870981499389
 21
23.14240682215149
 31
0.0
  0
LINE
  5
8025
102
{ACAD_REACTORS
330
802B
102
}
330
18
100
AcDbEntity
  8
1PHANTOM
100
AcDbLine
 10
1050.370981499389
 20
22.24241496593555
 30
0.0
 11
1049.870981499389
 21
22.34241612933323
 31
0.0
  0
LINE
  5
8026
102
{ACAD_REACTORS
330
802B
102
}
330
18
100
AcDbEntity
  8
1PHANTOM
100
AcDbLine
 10
1050.370981499389
 20
23.84241496593546
 30
0.0
 11
1049.870981499389
 21
23.94241612933325
 31
0.0
  0
LINE
  5
8027
102
{ACAD_REACTORS
330
802B
102
}
330
18
100
AcDbEntity
  8
1PHANTOM
100
AcDbLine
 10
1050.370981499389
 20
25.44241496593605
 30
0.0
 11
1049.870981499389
 21
25.54241612933316
 31
0.0
  0
LINE
  5
8028
102
{ACAD_REACTORS
330
802B
102
}
330
18
100
AcDbEntity
  8
1PHANTOM
100
AcDbLine
 10
1053.870981499389
 20
21.54240682215135
 30
0.0
 11
1053.370981499389
 21
21.64240798554903
 31
0.0
  0
LINE
  5
8029
102
{ACAD_REACTORS
330
802B
102
}
330
18
100
AcDbEntity
  8
1PHANTOM
100
AcDbLine
 10
1053.870981499389
 20
24.74240682215583
 30
0.0
 11
1053.370981499389
 21
24.84240798555294
 31
0.0
  0
LINE
  5
802A
102
{ACAD_REACTORS
330
802B
102
}
330
18
100
AcDbEntity
  8
1PHANTOM
100
AcDbLine
 10
1053.870981499389
 20
23.14240682215149
 30
0.0
 11
1053.370981499389
 21
23.24240798554916
 31
0.0
  0
LINE
  5
8081
330
18
100
AcDbEntity
  8
1PHANTOM
100
AcDbLine
 10
818.8988380181718
 20
38.86655995133631
 30
0.0
 11
818.8987963681634
 21
20.9663968753406
 31
0.0
  0
LINE
  5
8083
330
18
100
AcDbEntity
  8
1PHANTOM
100
AcDbLine
 10
817.3516419756171
 20
33.62991053199725
 30
0.0
 11
820.2196065383603
 21
34.42989718567517
 31
0.0
  0
LINE
  5
8084
330
18
100
AcDbEntity
  8
1PHANTOM
100
AcDbLine
 10
817.8044592065335
 20
35.22990842478453
 30
0.0
 11
819.7667961568291
 21
36.02989929288203
 31
0.0
  0
LINE
  5
8085
330
18
100
AcDbEntity
  8
1PHANTOM
100
AcDbLine
 10
820.2196065383603
 20
34.42989718567517
 30
0.0
 11
819.6678574998131
 21
34.61266261211052
 31
0.0
  0
LINE
  5
8086
330
18
100
AcDbEntity
  8
1PHANTOM
100
AcDbLine
 10
818.2616306948034
 20
35.07847156459941
 30
0.0
 11
817.8044592065335
 21
35.22990842478453
 31
0.0
  0
LINE
  5
8087
330
18
100
AcDbEntity
  8
1PHANTOM
100
AcDbLine
 10
819.7667961568291
 20
36.02989929288203
 30
0.0
 11
819.1785203072126
 21
36.34167051793224
 31
0.0
  0
LINE
  5
8088
330
18
100
AcDbEntity
  8
1PHANTOM
100
AcDbLine
 10
817.3988107093911
 20
27.12991031244076
 30
0.0
 11
816.8988109420746
 21
27.22991263923506
 31
0.0
  0
LINE
  5
8089
330
18
100
AcDbEntity
  8
1PHANTOM
100
AcDbLine
 10
817.3988218780066
 20
31.92991031242772
 30
0.0
 11
816.8988221106903
 21
32.02991263922202
 31
0.0
  0
LINE
  5
808A
330
18
100
AcDbEntity
  8
1PHANTOM
100
AcDbLine
 10
817.8197401683742
 20
33.51713993047841
 30
0.0
 11
817.3516419756171
 21
33.62991053199725
 31
0.0
  0
LINE
  5
808B
330
18
100
AcDbEntity
  8
1PHANTOM
100
AcDbLine
 10
816.8988221106903
 20
32.02991263922202
 30
0.0
 11
820.6724169198916
 21
32.8298950784683
 31
0.0
  0
LINE
  5
808C
330
18
100
AcDbEntity
  8
1PHANTOM
100
AcDbLine
 10
820.6724169198916
 20
32.8298950784683
 30
0.0
 11
820.1358234854082
 21
32.95916702464139
 31
0.0
  0
LINE
  5
808D
330
18
100
AcDbEntity
  8
1PHANTOM
100
AcDbLine
 10
820.8988128034781
 20
28.02989402487582
 30
0.0
 11
820.3988130361616
 21
28.12989635167023
 31
0.0
  0
LINE
  5
808E
330
18
100
AcDbEntity
  8
1PHANTOM
100
AcDbLine
 10
820.89881652635
 20
29.62989402487151
 30
0.0
 11
820.3988167590335
 21
29.72989635166569
 31
0.0
  0
LINE
  5
808F
330
18
100
AcDbEntity
  8
1PHANTOM
100
AcDbLine
 10
820.8988202492218
 20
31.2298940248672
 30
0.0
 11
820.3988204819053
 21
31.3298963516615
 31
0.0
  0
LINE
  5
8090
330
18
100
AcDbEntity
  8
1PHANTOM
100
AcDbLine
 10
817.398814432263
 20
28.72991031243634
 30
0.0
 11
816.8988146649465
 21
28.82991263923075
 31
0.0
  0
LINE
  5
8091
330
18
100
AcDbEntity
  8
1PHANTOM
100
AcDbLine
 10
817.3988181551348
 20
30.32991031243215
 30
0.0
 11
816.8988183878183
 21
30.42991263922644
 31
0.0
  0
LINE
  5
8092
330
18
100
AcDbEntity
  8
1PHANTOM
100
AcDbLine
 10
816.8988146649465
 20
28.82991263923075
 30
0.0
 11
820.89881652635
 21
29.62989402487151
 31
0.0
  0
LINE
  5
8093
330
18
100
AcDbEntity
  8
1PHANTOM
100
AcDbLine
 10
816.8988183878183
 20
30.42991263922644
 30
0.0
 11
820.8988202492218
 21
31.2298940248672
 31
0.0
  0
LINE
  5
8094
330
18
100
AcDbEntity
  8
1PHANTOM
100
AcDbLine
 10
816.8988109420746
 20
27.22991263923506
 30
0.0
 11
820.8988128034781
 21
28.02989402487582
 31
0.0
  0
LINE
  5
8095
330
18
100
AcDbEntity
  8
1PHANTOM
100
AcDbLine
 10
814.8988235067833
 20
22.62992194631886
 30
0.0
 11
822.8988235067183
 21
22.62988471760047
 31
0.0
  0
LINE
  5
8096
330
18
100
AcDbEntity
  8
1PHANTOM
100
AcDbLine
 10
820.8988090806063
 20
26.42989402488024
 30
0.0
 11
820.3988093132898
 21
26.52989635167453
 31
0.0
  0
LINE
  5
8097
330
18
100
AcDbEntity
  8
1PHANTOM
100
AcDbLine
 10
817.3988069865193
 20
25.52991031244519
 30
0.0
 11
816.8988072192028
 21
25.62991263923948
 31
0.0
  0
LINE
  5
8098
330
18
100
AcDbEntity
  8
1PHANTOM
100
AcDbLine
 10
816.8988072192028
 20
25.62991263923948
 30
0.0
 11
820.8988090806063
 21
26.42989402488024
 31
0.0
  0
LINE
  5
8099
330
18
100
AcDbEntity
  8
1PHANTOM
100
AcDbLine
 10
856.8988351004899
 20
38.86655995133631
 30
0.0
 11
856.8987934504815
 21
20.9663968753406
 31
0.0
  0
LINE
  5
809B
330
18
100
AcDbEntity
  8
1PHANTOM
100
AcDbLine
 10
855.3516390579352
 20
33.62991053199725
 30
0.0
 11
858.2196036206784
 21
34.42989718567516
 31
0.0
  0
LINE
  5
809C
330
18
100
AcDbEntity
  8
1PHANTOM
100
AcDbLine
 10
855.8044562888516
 20
35.22990842478453
 30
0.0
 11
857.7667932391472
 21
36.02989929288202
 31
0.0
  0
LINE
  5
809D
330
18
100
AcDbEntity
  8
1PHANTOM
100
AcDbLine
 10
858.2196036206784
 20
34.42989718567516
 30
0.0
 11
857.6678545821312
 21
34.61266261211052
 31
0.0
  0
LINE
  5
809E
330
18
100
AcDbEntity
  8
1PHANTOM
100
AcDbLine
 10
856.2616277771216
 20
35.07847156459941
 30
0.0
 11
855.8044562888516
 21
35.22990842478453
 31
0.0
  0
LINE
  5
809F
330
18
100
AcDbEntity
  8
1PHANTOM
100
AcDbLine
 10
857.7667932391472
 20
36.02989929288202
 30
0.0
 11
857.1785173895307
 21
36.34167051793224
 31
0.0
  0
LINE
  5
80A0
330
18
100
AcDbEntity
  8
1PHANTOM
100
AcDbLine
 10
855.3988077917093
 20
27.12991031244076
 30
0.0
 11
854.8988080243928
 21
27.22991263923505
 31
0.0
  0
LINE
  5
80A1
330
18
100
AcDbEntity
  8
1PHANTOM
100
AcDbLine
 10
855.3988189603248
 20
31.92991031242772
 30
0.0
 11
854.8988191930084
 21
32.02991263922202
 31
0.0
  0
LINE
  5
80A2
330
18
100
AcDbEntity
  8
1PHANTOM
100
AcDbLine
 10
855.8197372506924
 20
33.51713993047841
 30
0.0
 11
855.3516390579352
 21
33.62991053199725
 31
0.0
  0
LINE
  5
80A3
330
18
100
AcDbEntity
  8
1PHANTOM
100
AcDbLine
 10
854.8988191930084
 20
32.02991263922202
 30
0.0
 11
858.6724140022097
 21
32.8298950784683
 31
0.0
  0
LINE
  5
80A4
330
18
100
AcDbEntity
  8
1PHANTOM
100
AcDbLine
 10
858.6724140022097
 20
32.8298950784683
 30
0.0
 11
858.1358205677263
 21
32.95916702464139
 31
0.0
  0
LINE
  5
80A5
330
18
100
AcDbEntity
  8
1PHANTOM
100
AcDbLine
 10
858.8988098857963
 20
28.02989402487581
 30
0.0
 11
858.3988101184798
 21
28.12989635167022
 31
0.0
  0
LINE
  5
80A6
330
18
100
AcDbEntity
  8
1PHANTOM
100
AcDbLine
 10
858.8988136086681
 20
29.6298940248715
 30
0.0
 11
858.3988138413516
 21
29.72989635166569
 31
0.0
  0
LINE
  5
80A7
330
18
100
AcDbEntity
  8
1PHANTOM
100
AcDbLine
 10
858.8988173315399
 20
31.2298940248672
 30
0.0
 11
858.3988175642235
 21
31.32989635166149
 31
0.0
  0
LINE
  5
80A8
330
18
100
AcDbEntity
  8
1PHANTOM
100
AcDbLine
 10
855.3988115145811
 20
28.72991031243634
 30
0.0
 11
854.8988117472646
 21
28.82991263923075
 31
0.0
  0
LINE
  5
80A9
330
18
100
AcDbEntity
  8
1PHANTOM
100
AcDbLine
 10
855.3988152374529
 20
30.32991031243214
 30
0.0
 11
854.8988154701365
 21
30.42991263922644
 31
0.0
  0
LINE
  5
80AA
330
18
100
AcDbEntity
  8
1PHANTOM
100
AcDbLine
 10
854.8988117472646
 20
28.82991263923075
 30
0.0
 11
858.8988136086681
 21
29.6298940248715
 31
0.0
  0
LINE
  5
80AB
330
18
100
AcDbEntity
  8
1PHANTOM
100
AcDbLine
 10
854.8988154701365
 20
30.42991263922644
 30
0.0
 11
858.8988173315399
 21
31.2298940248672
 31
0.0
  0
LINE
  5
80AC
330
18
100
AcDbEntity
  8
1PHANTOM
100
AcDbLine
 10
854.8988080243928
 20
27.22991263923505
 30
0.0
 11
858.8988098857963
 21
28.02989402487581
 31
0.0
  0
LINE
  5
80AD
330
18
100
AcDbEntity
  8
1PHANTOM
100
AcDbLine
 10
852.8988205891014
 20
22.62992194631886
 30
0.0
 11
860.8988205890364
 21
22.62988471760047
 31
0.0
  0
LINE
  5
80AE
330
18
100
AcDbEntity
  8
1PHANTOM
100
AcDbLine
 10
858.8988061629244
 20
26.42989402488023
 30
0.0
 11
858.398806395608
 21
26.52989635167453
 31
0.0
  0
LINE
  5
80AF
330
18
100
AcDbEntity
  8
1PHANTOM
100
AcDbLine
 10
855.3988040688374
 20
25.52991031244518
 30
0.0
 11
854.898804301521
 21
25.62991263923948
 31
0.0
  0
LINE
  5
80B0
330
18
100
AcDbEntity
  8
1PHANTOM
100
AcDbLine
 10
854.898804301521
 20
25.62991263923948
 30
0.0
 11
858.8988061629244
 21
26.42989402488023
 31
0.0
  0
TEXT
  5
81F0
330
18
100
AcDbEntity
  8
1TEXT
100
AcDbText
 10
1041.557082759596
 20
99.58365157831167
 30
0.0
 40
4.0
  1
表面処理：カバー
 41
0.8
 72
     1
 11
1056.437082759596
 21
99.58365157831167
 31
0.0
100
AcDbText
  0
TEXT
  5
81F1
330
18
100
AcDbEntity
  8
1TEXT
100
AcDbText
 10
1052.103749426263
 20
92.60575655832736
 30
0.0
 40
4.0
  1
鏡面
 72
     1
 11
1056.437082759596
 21
92.60575655832736
 31
0.0
100
AcDbText
  0
LINE
  5
81F2
330
18
100
AcDbEntity
  8
1DIM
100
AcDbLine
 10
1004.037082759596
 20
105.0836515783117
 30
0.0
 11
1112.749982518003
 21
105.0836515783117
 31
0.0
  0
LINE
  5
81F3
330
18
100
AcDbEntity
  8
1DIM
100
AcDbLine
 10
1004.037082759596
 20
91.08365157831167
 30
0.0
 11
1112.749982518003
 21
91.08365157831166
 31
0.0
  0
LINE
  5
81F4
330
18
100
AcDbEntity
  8
1DIM
100
AcDbLine
 10
1004.037082759596
 20
98.08365157831167
 30
0.0
 11
1112.749982518003
 21
98.08365157831166
 31
0.0
  0
LINE
  5
81F5
330
18
100
AcDbEntity
  8
1DIM
100
AcDbLine
 10
1074.037082759596
 20
105.0836515783117
 30
0.0
 11
1074.037082759596
 21
84.08365157831167
 31
0.0
  0
TEXT
  5
81F6
330
18
100
AcDbEntity
  8
1TEXT
100
AcDbText
 10
1076.430119257391
 20
92.36929459466228
 30
0.0
 40
4.0
  1
SC-31M-XC
 72
     1
 11
1093.096785924057
 21
92.36929459466228
 31
0.0
100
AcDbText
  0
TEXT
  5
81F7
330
18
100
AcDbEntity
  8
1TEXT
100
AcDbText
 10
1086.23011925739
 20
99.58365157831167
 30
0.0
 40
4.0
  1
コード
 72
     1
 11
1093.096785924057
 21
99.58365157831167
 31
0.0
100
AcDbText
  0
LINE
  5
81F8
330
18
100
AcDbEntity
  8
1DIM
100
AcDbLine
 10
1039.037082759596
 20
84.08365157831167
 30
0.0
 11
1039.037082759596
 21
105.0836515783117
 31
0.0
  0
LINE
  5
81F9
330
18
100
AcDbEntity
  8
1DIM
100
AcDbLine
 10
1112.749982518003
 20
84.08365157831167
 30
0.0
 11
1112.749982518003
 21
105.0836515783117
 31
0.0
  0
TEXT
  5
81FA
330
18
100
AcDbEntity
  8
1TEXT
100
AcDbText
 10
1008.263749426263
 20
99.58365157831167
 30
0.0
 40
4.0
  1
表面処理：本体
 41
0.8
 72
     1
 11
1021.437082759596
 21
99.58365157831167
 31
0.0
100
AcDbText
  0
TEXT
  5
81FB
330
18
100
AcDbEntity
  8
1TEXT
100
AcDbText
 10
1011.970416092929
 20
92.60575655832736
 30
0.0
 40
4.0
  1
クローム
 72
     1
 11
1021.437082759596
 21
92.60575655832736
 31
0.0
100
AcDbText
  0
LINE
  5
81FC
330
18
100
AcDbEntity
  8
1DIM
100
AcDbLine
 10
1004.037082759596
 20
84.08365157831167
 30
0.0
 11
1004.037082759596
 21
105.0836515783117
 31
0.0
  0
TEXT
  5
81FD
330
18
100
AcDbEntity
  8
1TEXT
100
AcDbText
 10
1044.903749426262
 20
85.60575655832736
 30
0.0
 40
4.0
  1
ヘアライン
 72
     1
 11
1056.437082759596
 21
85.60575655832736
 31
0.0
100
AcDbText
  0
LINE
  5
81FE
330
18
100
AcDbEntity
  8
1DIM
100
AcDbLine
 10
1004.037082759596
 20
84.08365157831167
 30
0.0
 11
1112.749982518003
 21
84.08365157831166
 31
0.0
  0
TEXT
  5
81FF
330
18
100
AcDbEntity
  8
1TEXT
100
AcDbText
 10
1076.430119257391
 20
85.36929459466228
 30
0.0
 40
4.0
  1
SC-31M-CT
 72
     1
 11
1093.096785924057
 21
85.36929459466228
 31
0.0
100
AcDbText
  0
TEXT
  5
8200
330
18
100
AcDbEntity
  8
1TEXT
100
AcDbText
 10
1011.970416092929
 20
85.60575655832736
 30
0.0
 40
4.0
  1
クローム
 72
     1
 11
1021.437082759596
 21
85.60575655832736
 31
0.0
100
AcDbText
  0
LINE
  5
8AD9
330
18
100
AcDbEntity
  8
01
100
AcDbLine
 10
779.2749761321547
 20
89.28616787812427
 30
0.0
 11
777.7759397598277
 21
89.28617834197473
 31
0.0
  0
LINE
  5
8ADA
330
18
100
AcDbEntity
  8
01
100
AcDbLine
 10
777.7759292960382
 20
90.78520595922498
 30
0.0
 11
776.521689400332
 21
90.78521471430179
 31
0.0
  0
LINE
  5
8ADB
330
18
100
AcDbEntity
  8
01
100
AcDbLine
 10
777.7759292960382
 20
90.78520595922498
 30
0.0
 11
777.7759397598277
 21
89.28617834197473
 31
0.0
  0
LINE
  5
8ADC
330
18
100
AcDbEntity
  8
01
100
AcDbLine
 10
779.2749673770778
 20
88.03192798241787
 30
0.0
 11
779.2749761321547
 21
89.28616787812427
 31
0.0
  0
LINE
  5
8ADD
330
18
100
AcDbEntity
  8
01
100
AcDbLine
 10
779.2749673770778
 20
88.03192798241787
 30
0.0
 11
777.7759485150507
 21
88.03191751868974
 31
0.0
  0
LINE
  5
8ADE
330
18
100
AcDbEntity
  8
01
100
AcDbLine
 10
777.7759485150507
 20
88.03191751868974
 30
0.0
 11
777.7759589789013
 21
86.53288114609416
 31
0.0
  0
LINE
  5
8ADF
330
18
100
AcDbEntity
  8
01
100
AcDbLine
 10
776.5216701811972
 20
88.0319087633444
 30
0.0
 11
775.0226425639471
 21
88.03189829955488
 31
0.0
  0
LINE
  5
8AE0
330
18
100
AcDbEntity
  8
01
100
AcDbLine
 10
776.5216701811972
 20
88.0319087633444
 30
0.0
 11
776.5216597174689
 21
86.53288990158546
 31
0.0
  0
LINE
  5
8AE1
330
18
100
AcDbEntity
  8
01
100
AcDbLine
 10
776.5216597174689
 20
86.53288990158546
 30
0.0
 11
777.7759589789013
 21
86.53288114609416
 31
0.0
  0
LINE
  5
8AE2
330
18
100
AcDbEntity
  8
01
100
AcDbLine
 10
776.5216789365425
 20
89.28618709719774
 30
0.0
 11
775.0226513194384
 21
89.28619756098726
 31
0.0
  0
LINE
  5
8AE3
330
18
100
AcDbEntity
  8
01
100
AcDbLine
 10
775.0226513194384
 20
89.28619756098726
 30
0.0
 11
775.0226425639471
 21
88.03189829955488
 31
0.0
  0
LINE
  5
8AE4
330
18
100
AcDbEntity
  8
01
100
AcDbLine
 10
776.521689400332
 20
90.78521471430179
 30
0.0
 11
776.5216789365425
 21
89.28618709719774
 31
0.0
  0
TEXT
  5
8AE5
330
18
100
AcDbEntity
  8
01
  6
CONTINUOUS
100
AcDbText
 10
919.855178912868
 20
12.97102656398014
 30
0.0
 40
3.5
  1
材質：ステンレス
100
AcDbText
  0
TEXT
  5
8AE6
330
18
100
AcDbEntity
  8
01
  6
CONTINUOUS
100
AcDbText
 10
919.5051789128681
 20
7.137693230646802
 30
0.0
 40
3.5
  1
仕上げ：鏡面研磨
100
AcDbText
  0
TEXT
  5
8AE7
330
18
100
AcDbEntity
  8
01
  6
CONTINUOUS
100
AcDbText
 10
1076.466815375011
 20
66.57628565289072
 30
0.0
 40
3.5
  1
カウンター天板
100
AcDbText
  0
TEXT
  5
8AE8
330
18
100
AcDbEntity
  8
01
  6
CONTINUOUS
100
AcDbText
 10
1076.933482041678
 20
60.74295231955738
 30
0.0
 40
3.5
  1
18mm以上
100
AcDbText
  0
CIRCLE
  5
8AE9
330
18
100
AcDbEntity
  8
01
100
AcDbCircle
 10
777.1487762636262
 20
88.65905004498961
 30
0.0
 40
4.0
  0
LINE
  5
8AEB
330
18
100
AcDbEntity
  8
1DIM
100
AcDbLine
 10
903.5708249059153
 20
26.54286285472978
 30
0.0
 11
909.0378057433106
 21
35.23273103965877
 31
0.0
  0
LINE
  5
8AEC
330
18
100
AcDbEntity
  8
1DIM
100
AcDbLine
 10
909.0378057433106
 20
35.23273103965877
 30
0.0
 11
956.3044724099773
 21
35.23273103965877
 31
0.0
  0
TEXT
  5
8AED
330
18
100
AcDbEntity
  8
1DIM
  6
CONTINUOUS
100
AcDbText
 10
911.5044724099773
 20
41.64939770632544
 30
0.0
 40
3.5
  1
材質：亜鉛ダイキャスト
100
AcDbText
  0
TEXT
  5
8AEE
330
18
100
AcDbEntity
  8
1DIM
  6
CONTINUOUS
100
AcDbText
 10
911.621139076644
 20
35.8160643729921
 30
0.0
 40
3.5
  1
仕上げ：クローム
100
AcDbText
  0
LINE
  5
8AEF
330
18
100
AcDbEntity
  8
1DIM
100
AcDbLine
 10
976.8680400761518
 20
-39.04337997189669
 30
0.0
 11
976.8680400761518
 21
68.48830960902603
 31
0.0
1001
ACAD
1000
DSTYLE
1002
{
1070
   271
1070
     0
1002
}
  0
LINE
  5
8AF0
330
18
100
AcDbEntity
  8
1DIM
100
AcDbLine
 10
1068.870934963554
 20
24.34241147585084
 30
0.0
 11
1068.870934963554
 21
68.48830960902603
 31
0.0
1001
ACAD
1000
DSTYLE
1002
{
1070
   271
1070
     0
1002
}
  0
LINE
  5
8AF1
330
18
100
AcDbEntity
  8
1DIM
100
AcDbLine
 10
978.8680400761518
 20
67.48830960902603
 30
0.0
 11
1066.870934963554
 21
67.48830960902603
 31
0.0
1001
ACAD
1000
DSTYLE
1002
{
1070
   271
1070
     0
1002
}
  0
LINE
  5
8AF5
330
18
100
AcDbEntity
  8
1DIM
100
AcDbLine
 10
1068.870934963554
 20
24.34241147585084
 30
0.0
 11
1068.870934963554
 21
60.12484699235711
 31
0.0
1001
ACAD
1000
DSTYLE
1002
{
1070
   271
1070
     0
1002
}
  0
LINE
  5
8AF6
330
18
100
AcDbEntity
  8
1DIM
100
AcDbLine
 10
1023.870936047136
 20
42.84241147585066
 30
0.0
 11
1023.870936047136
 21
60.12484699235711
 31
0.0
1001
ACAD
1000
DSTYLE
1002
{
1070
   271
1070
     0
1002
}
  0
LINE
  5
8AF7
330
18
100
AcDbEntity
  8
1DIM
100
AcDbLine
 10
1066.870934963554
 20
59.12484699235711
 30
0.0
 11
1025.870936047136
 21
59.12484699235711
 31
0.0
1001
ACAD
1000
DSTYLE
1002
{
1070
   271
1070
     0
1002
}
  0
LINE
  5
8AFB
330
18
100
AcDbEntity
  8
1DIM
100
AcDbLine
 10
1023.870936047136
 20
42.84241147585066
 30
0.0
 11
1023.870936047136
 21
50.86529886166159
 31
0.0
1001
ACAD
1000
DSTYLE
1002
{
1070
   271
1070
     0
1002
}
  0
LINE
  5
8AFC
330
18
100
AcDbEntity
  8
1DIM
100
AcDbLine
 10
1051.870888427925
 20
38.80332606710503
 30
0.0
 11
1051.870888427925
 21
50.86529886166159
 31
0.0
1001
ACAD
1000
DSTYLE
1002
{
1070
   271
1070
     0
1002
}
  0
LINE
  5
8AFD
330
18
100
AcDbEntity
  8
1DIM
100
AcDbLine
 10
1025.870936047136
 20
49.86529886166159
 30
0.0
 11
1049.870888427925
 21
49.86529886166159
 31
0.0
1001
ACAD
1000
DSTYLE
1002
{
1070
   271
1070
     0
1002
}
  0
LINE
  5
8B01
330
18
100
AcDbEntity
  8
1DIM
100
AcDbLine
 10
1086.319539692529
 20
24.84241147585089
 30
0.0
 11
1089.870934963554
 21
24.84241147585089
 31
0.0
  0
LINE
  5
8B02
330
18
100
AcDbEntity
  8
1DIM
100
AcDbLine
 10
1068.370934963554
 20
16.84241147585061
 30
0.0
 11
1089.870934963554
 21
16.84241147585061
 31
0.0
  0
LINE
  5
8B03
330
18
100
AcDbEntity
  8
1DIM
100
AcDbLine
 10
1088.870934963554
 20
22.84241147585089
 30
0.0
 11
1088.870934963554
 21
18.84241147585061
 31
0.0
  0
LINE
  5
8B07
330
18
100
AcDbEntity
  8
1DIM
100
AcDbLine
 10
1029.870934963554
 20
-63.15758852414922
 30
0.0
 11
955.8677602803859
 21
-63.1575885241492
 31
0.0
  0
LINE
  5
8B08
330
18
100
AcDbEntity
  8
1DIM
100
AcDbLine
 10
1023.870934963554
 20
24.84241104153836
 30
0.0
 11
955.8677602803859
 21
24.84241104153837
 31
0.0
  0
LINE
  5
8B09
330
18
100
AcDbEntity
  8
1DIM
100
AcDbLine
 10
956.8677602803859
 20
-61.1575885241492
 30
0.0
 11
956.8677602803859
 21
22.84241104153837
 31
0.0
  0
LINE
  5
8B0D
330
18
100
AcDbEntity
  8
1DIM
100
AcDbLine
 10
769.6487762636256
 20
24.34241147585084
 30
0.0
 11
769.6487762636256
 21
61.60639675186388
 31
0.0
1001
ACAD
1000
DSTYLE
1002
{
1070
   271
1070
     0
1002
}
  0
LINE
  5
8B0E
330
18
100
AcDbEntity
  8
1DIM
100
AcDbLine
 10
906.1487762636256
 20
24.34241147585082
 30
0.0
 11
906.1487762636256
 21
61.60639675186388
 31
0.0
1001
ACAD
1000
DSTYLE
1002
{
1070
   271
1070
     0
1002
}
  0
LINE
  5
8B0F
330
18
100
AcDbEntity
  8
1DIM
100
AcDbLine
 10
771.6487762636256
 20
60.60639675186388
 30
0.0
 11
904.1487762636256
 21
60.60639675186388
 31
0.0
1001
ACAD
1000
DSTYLE
1002
{
1070
   271
1070
     0
1002
}
  0
LINE
  5
8B13
330
18
100
AcDbEntity
  8
1DIM
100
AcDbLine
 10
782.898822799524
 20
41.26406425236603
 30
0.0
 11
782.898822799524
 21
49.86765793719655
 31
0.0
1001
ACAD
1000
DSTYLE
1002
{
1070
   271
1070
     0
1002
}
  0
LINE
  5
8B14
330
18
100
AcDbEntity
  8
1DIM
100
AcDbLine
 10
892.8987297277278
 20
41.26406425236601
 30
0.0
 11
892.8987297277278
 21
49.86765793719655
 31
0.0
1001
ACAD
1000
DSTYLE
1002
{
1070
   271
1070
     0
1002
}
  0
LINE
  5
8B15
330
18
100
AcDbEntity
  8
1DIM
100
AcDbLine
 10
784.898822799524
 20
48.86765793719655
 30
0.0
 11
890.8987297277278
 21
48.86765793719655
 31
0.0
1001
ACAD
1000
DSTYLE
1002
{
1070
   271
1070
     0
1002
}
  0
LINE
  5
8B19
330
18
100
AcDbEntity
  8
1DIM
100
AcDbLine
 10
905.6487762636258
 20
127.6590500449896
 30
0.0
 11
927.1487762636258
 21
127.6590500449896
 31
0.0
  0
LINE
  5
8B1A
330
18
100
AcDbEntity
  8
1DIM
100
AcDbLine
 10
905.6487762636259
 20
82.65905004498961
 30
0.0
 11
927.1487762636258
 21
82.65905004498961
 31
0.0
  0
LINE
  5
8B1B
330
18
100
AcDbEntity
  8
1DIM
100
AcDbLine
 10
926.1487762636258
 20
125.6590500449896
 30
0.0
 11
926.1487762636258
 21
84.65905004498961
 31
0.0
  0
LINE
  5
8B20
330
18
100
AcDbEntity
  8
1DIM
100
AcDbLine
 10
1037.144619147266
 20
-42.75250685443864
 30
0.0
 11
1057.442960128843
 21
-18.83422177731494
 31
0.0
  0
LINE
  5
8B21
330
18
100
AcDbEntity
  8
1DIM
100
AcDbLine
 10
1057.442960128843
 20
-18.83422177731494
 30
0.0
 11
1104.70962679551
 21
-18.83422177731494
 31
0.0
  0
TEXT
  5
8B22
330
18
100
AcDbEntity
  8
1DIM
  6
CONTINUOUS
100
AcDbText
 10
1059.90962679551
 20
-12.41755511064828
 30
0.0
 40
3.5
  1
材質：亜鉛ダイキャスト
100
AcDbText
  0
TEXT
  5
8B23
330
18
100
AcDbEntity
  8
1DIM
  6
CONTINUOUS
100
AcDbText
 10
1060.026293462177
 20
-18.25088844398161
 30
0.0
 40
3.5
  1
仕上げ：クローム
100
AcDbText
  0
LINE
  5
8B24
330
18
100
AcDbEntity
  8
1DIM
100
AcDbLine
 10
1051.870888427656
 20
16.15216721493046
 30
0.0
 11
1051.870888427656
 21
5.871771959555531
 31
0.0
  0
LINE
  5
8B25
330
18
100
AcDbEntity
  8
1DIM
100
AcDbLine
 10
1111.870888427656
 20
16.15216721493046
 30
0.0
 11
1111.870888427656
 21
5.871771959555531
 31
0.0
  0
LINE
  5
8B26
330
18
100
AcDbEntity
  8
1DIM
100
AcDbLine
 10
1053.870888427656
 20
6.871771959555531
 30
0.0
 11
1109.870888427656
 21
6.871771959555531
 31
0.0
  0
LINE
  5
8B2A
330
18
100
AcDbEntity
  8
1HATCH
  6
CONTINUOUS
100
AcDbLine
 10
1111.870888427656
 20
70.77402118128387
 30
0.0
 11
1112.119000901517
 21
71.02213365514487
 31
0.0
1001
ACAD
1010
0.0
1020
0.0
1030
0.0
  0
LINE
  5
8B2B
330
18
100
AcDbEntity
  8
1HATCH
  6
CONTINUOUS
100
AcDbLine
 10
1111.870888427656
 20
68.52895715101658
 30
0.0
 11
1114.364064931784
 21
71.02213365514487
 31
0.0
1001
ACAD
1010
0.0
1020
0.0
1030
0.0
  0
LINE
  5
8B2C
330
18
100
AcDbEntity
  8
1HATCH
  6
CONTINUOUS
100
AcDbLine
 10
1111.870888427656
 20
66.2838931207493
 30
0.0
 11
1116.609128962051
 21
71.02213365514487
 31
0.0
1001
ACAD
1010
0.0
1020
0.0
1030
0.0
  0
LINE
  5
8B2D
330
18
100
AcDbEntity
  8
1HATCH
  6
CONTINUOUS
100
AcDbLine
 10
1111.870888427656
 20
64.038829090482
 30
0.0
 11
1118.854192992319
 21
71.02213365514487
 31
0.0
1001
ACAD
1010
0.0
1020
0.0
1030
0.0
  0
LINE
  5
8B2E
330
18
100
AcDbEntity
  8
1HATCH
  6
CONTINUOUS
100
AcDbLine
 10
1111.870888427656
 20
61.7937650602147
 30
0.0
 11
1121.099257022586
 21
71.02213365514487
 31
0.0
1001
ACAD
1010
0.0
1020
0.0
1030
0.0
  0
LINE
  5
8B2F
330
18
100
AcDbEntity
  8
1HATCH
  6
CONTINUOUS
100
AcDbLine
 10
1111.870888427656
 20
59.5487010299474
 30
0.0
 11
1121.870888427656
 21
69.54870102994744
 31
0.0
1001
ACAD
1010
0.0
1020
0.0
1030
0.0
  0
LINE
  5
8B30
330
18
100
AcDbEntity
  8
1HATCH
  6
CONTINUOUS
100
AcDbLine
 10
1111.870888427656
 20
57.30363699968011
 30
0.0
 11
1121.870888427656
 21
67.30363699968015
 31
0.0
1001
ACAD
1010
0.0
1020
0.0
1030
0.0
  0
LINE
  5
8B31
330
18
100
AcDbEntity
  8
1HATCH
  6
CONTINUOUS
100
AcDbLine
 10
1111.870888427656
 20
55.05857296941281
 30
0.0
 11
1121.870888427656
 21
65.05857296941286
 31
0.0
1001
ACAD
1010
0.0
1020
0.0
1030
0.0
  0
LINE
  5
8B32
330
18
100
AcDbEntity
  8
1HATCH
  6
CONTINUOUS
100
AcDbLine
 10
1111.870888427656
 20
52.81350893914552
 30
0.0
 11
1121.870888427656
 21
62.81350893914557
 31
0.0
1001
ACAD
1010
0.0
1020
0.0
1030
0.0
  0
LINE
  5
8B33
330
18
100
AcDbEntity
  8
1HATCH
  6
CONTINUOUS
100
AcDbLine
 10
1111.870888427656
 20
50.56844490887823
 30
0.0
 11
1121.870888427656
 21
60.56844490887828
 31
0.0
1001
ACAD
1010
0.0
1020
0.0
1030
0.0
  0
LINE
  5
8B34
330
18
100
AcDbEntity
  8
1HATCH
  6
CONTINUOUS
100
AcDbLine
 10
1111.870888427656
 20
48.32338087861094
 30
0.0
 11
1121.870888427656
 21
58.323380878611
 31
0.0
1001
ACAD
1010
0.0
1020
0.0
1030
0.0
  0
LINE
  5
8B35
330
18
100
AcDbEntity
  8
1HATCH
  6
CONTINUOUS
100
AcDbLine
 10
1111.870888427656
 20
46.07831684834365
 30
0.0
 11
1121.870888427656
 21
56.07831684834371
 31
0.0
1001
ACAD
1010
0.0
1020
0.0
1030
0.0
  0
LINE
  5
8B36
330
18
100
AcDbEntity
  8
1HATCH
  6
CONTINUOUS
100
AcDbLine
 10
1111.870888427656
 20
43.83325281807635
 30
0.0
 11
1121.870888427656
 21
53.83325281807643
 31
0.0
1001
ACAD
1010
0.0
1020
0.0
1030
0.0
  0
LINE
  5
8B37
330
18
100
AcDbEntity
  8
1HATCH
  6
CONTINUOUS
100
AcDbLine
 10
1111.870888427656
 20
41.58818878780906
 30
0.0
 11
1121.870888427656
 21
51.58818878780914
 31
0.0
1001
ACAD
1010
0.0
1020
0.0
1030
0.0
  0
LINE
  5
8B38
330
18
100
AcDbEntity
  8
1HATCH
  6
CONTINUOUS
100
AcDbLine
 10
1111.870888427656
 20
39.34312475754176
 30
0.0
 11
1121.870888427656
 21
49.34312475754184
 31
0.0
1001
ACAD
1010
0.0
1020
0.0
1030
0.0
  0
LINE
  5
8B39
330
18
100
AcDbEntity
  8
1HATCH
  6
CONTINUOUS
100
AcDbLine
 10
1111.870888427656
 20
37.09806072727446
 30
0.0
 11
1121.870888427656
 21
47.09806072727456
 31
0.0
1001
ACAD
1010
0.0
1020
0.0
1030
0.0
  0
LINE
  5
8B3A
330
18
100
AcDbEntity
  8
1HATCH
  6
CONTINUOUS
100
AcDbLine
 10
1111.870888427656
 20
34.85299669700717
 30
0.0
 11
1121.870888427656
 21
44.85299669700727
 31
0.0
1001
ACAD
1010
0.0
1020
0.0
1030
0.0
  0
LINE
  5
8B3B
330
18
100
AcDbEntity
  8
1HATCH
  6
CONTINUOUS
100
AcDbLine
 10
1111.870888427656
 20
32.60793266673987
 30
0.0
 11
1114.288902789598
 21
35.02594702868211
 31
0.0
1001
ACAD
1010
0.0
1020
0.0
1030
0.0
  0
LINE
  5
8B3C
330
18
100
AcDbEntity
  8
1HATCH
  6
CONTINUOUS
100
AcDbLine
 10
1111.870888427656
 20
30.36286863647258
 30
0.0
 11
1114.288902789598
 21
32.78088299841482
 31
0.0
1001
ACAD
1010
0.0
1020
0.0
1030
0.0
  0
LINE
  5
8B3D
330
18
100
AcDbEntity
  8
1HATCH
  6
CONTINUOUS
100
AcDbLine
 10
1111.870888427656
 20
28.11780460620528
 30
0.0
 11
1114.288902789598
 21
30.53581896814754
 31
0.0
1001
ACAD
1010
0.0
1020
0.0
1030
0.0
  0
LINE
  5
8B3E
330
18
100
AcDbEntity
  8
1HATCH
  6
CONTINUOUS
100
AcDbLine
 10
1114.304840637271
 20
35.0418848763547
 30
0.0
 11
1121.870888427656
 21
42.60793266673997
 31
0.0
1001
ACAD
1010
0.0
1020
0.0
1030
0.0
  0
LINE
  5
8B3F
330
18
100
AcDbEntity
  8
1HATCH
  6
CONTINUOUS
100
AcDbLine
 10
1116.549904667538
 20
35.0418848763547
 30
0.0
 11
1121.870888427656
 21
40.36286863647268
 31
0.0
1001
ACAD
1010
0.0
1020
0.0
1030
0.0
  0
LINE
  5
8B40
330
18
100
AcDbEntity
  8
1HATCH
  6
CONTINUOUS
100
AcDbLine
 10
1118.794968697805
 20
35.0418848763547
 30
0.0
 11
1121.870888427656
 21
38.1178046062054
 31
0.0
1001
ACAD
1010
0.0
1020
0.0
1030
0.0
  0
LINE
  5
8B41
330
18
100
AcDbEntity
  8
1HATCH
  6
CONTINUOUS
100
AcDbLine
 10
1111.870888427656
 20
25.87274057593799
 30
0.0
 11
1115.790032728072
 21
29.7918848763547
 31
0.0
1001
ACAD
1010
0.0
1020
0.0
1030
0.0
  0
LINE
  5
8B42
330
18
100
AcDbEntity
  8
1HATCH
  6
CONTINUOUS
100
AcDbLine
 10
1111.870888427656
 20
23.62767654567069
 30
0.0
 11
1118.03509675834
 21
29.7918848763547
 31
0.0
1001
ACAD
1010
0.0
1020
0.0
1030
0.0
  0
LINE
  5
8B43
330
18
100
AcDbEntity
  8
1HATCH
  6
CONTINUOUS
100
AcDbLine
 10
1119.305569456265
 20
33.3074216045469
 30
0.0
 11
1121.870888427656
 21
35.87274057593811
 31
0.0
1001
ACAD
1010
0.0
1020
0.0
1030
0.0
  0
LINE
  5
8B44
330
18
100
AcDbEntity
  8
1HATCH
  6
CONTINUOUS
100
AcDbLine
 10
1119.305569456265
 20
31.06235757427961
 30
0.0
 11
1121.870888427656
 21
33.62767654567082
 31
0.0
1001
ACAD
1010
0.0
1020
0.0
1030
0.0
  0
LINE
  5
8B45
330
18
100
AcDbEntity
  8
1HATCH
  6
CONTINUOUS
100
AcDbLine
 10
1111.870888427656
 20
21.3826125154034
 30
0.0
 11
1121.870888427656
 21
31.38261251540353
 31
0.0
1001
ACAD
1010
0.0
1020
0.0
1030
0.0
  0
LINE
  5
8B46
330
18
100
AcDbEntity
  8
1HATCH
  6
CONTINUOUS
100
AcDbLine
 10
1111.870888427656
 20
19.1375484851361
 30
0.0
 11
1121.870888427656
 21
29.13754848513624
 31
0.0
1001
ACAD
1010
0.0
1020
0.0
1030
0.0
  0
LINE
  5
8B47
330
18
100
AcDbEntity
  8
1HATCH
  6
CONTINUOUS
100
AcDbLine
 10
1111.870888427656
 20
16.8924844548688
 30
0.0
 11
1121.870888427656
 21
26.89248445486895
 31
0.0
1001
ACAD
1010
0.0
1020
0.0
1030
0.0
  0
LINE
  5
8B48
330
18
100
AcDbEntity
  8
1HATCH
  6
CONTINUOUS
100
AcDbLine
 10
1111.870888427656
 20
14.64742042460151
 30
0.0
 11
1121.870888427656
 21
24.64742042460166
 31
0.0
1001
ACAD
1010
0.0
1020
0.0
1030
0.0
  0
LINE
  5
8B49
330
18
100
AcDbEntity
  8
1HATCH
  6
CONTINUOUS
100
AcDbLine
 10
1111.870888427656
 20
12.40235639433422
 30
0.0
 11
1121.870888427656
 21
22.40235639433438
 31
0.0
1001
ACAD
1010
0.0
1020
0.0
1030
0.0
  0
LINE
  5
8B4A
330
18
100
AcDbEntity
  8
1HATCH
  6
CONTINUOUS
100
AcDbLine
 10
1111.870888427656
 20
10.15729236406693
 30
0.0
 11
1121.870888427656
 21
20.15729236406709
 31
0.0
1001
ACAD
1010
0.0
1020
0.0
1030
0.0
  0
LINE
  5
8B4B
330
18
100
AcDbEntity
  8
1HATCH
  6
CONTINUOUS
100
AcDbLine
 10
1111.870888427656
 20
7.912228333799632
 30
0.0
 11
1121.870888427656
 21
17.9122283337998
 31
0.0
1001
ACAD
1010
0.0
1020
0.0
1030
0.0
  0
LINE
  5
8B4C
330
18
100
AcDbEntity
  8
1HATCH
  6
CONTINUOUS
100
AcDbLine
 10
1111.870888427656
 20
5.667164303532331
 30
0.0
 11
1121.870888427656
 21
15.66716430353251
 31
0.0
1001
ACAD
1010
0.0
1020
0.0
1030
0.0
  0
LINE
  5
8B4D
330
18
100
AcDbEntity
  8
1HATCH
  6
CONTINUOUS
100
AcDbLine
 10
1111.870888427656
 20
3.422100273265038
 30
0.0
 11
1121.870888427656
 21
13.42210027326522
 31
0.0
1001
ACAD
1010
0.0
1020
0.0
1030
0.0
  0
LINE
  5
8B4E
330
18
100
AcDbEntity
  8
1HATCH
  6
CONTINUOUS
100
AcDbLine
 10
1111.870888427656
 20
1.177036242997744
 30
0.0
 11
1121.870888427656
 21
11.17703624299793
 31
0.0
1001
ACAD
1010
0.0
1020
0.0
1030
0.0
  0
LINE
  5
8B4F
330
18
100
AcDbEntity
  8
1HATCH
  6
CONTINUOUS
100
AcDbLine
 10
1111.870888427656
 20
-1.068027787269553
 30
0.0
 11
1121.870888427656
 21
8.931972212730646
 31
0.0
1001
ACAD
1010
0.0
1020
0.0
1030
0.0
  0
LINE
  5
8B50
330
18
100
AcDbEntity
  8
1HATCH
  6
CONTINUOUS
100
AcDbLine
 10
1111.870888427656
 20
-3.31309181753684
 30
0.0
 11
1121.870888427656
 21
6.686908182463355
 31
0.0
1001
ACAD
1010
0.0
1020
0.0
1030
0.0
  0
LINE
  5
8B51
330
18
100
AcDbEntity
  8
1HATCH
  6
CONTINUOUS
100
AcDbLine
 10
1111.870888427656
 20
-5.558155847804137
 30
0.0
 11
1121.870888427656
 21
4.441844152196069
 31
0.0
1001
ACAD
1010
0.0
1020
0.0
1030
0.0
  0
LINE
  5
8B52
330
18
100
AcDbEntity
  8
1HATCH
  6
CONTINUOUS
100
AcDbLine
 10
1111.870888427656
 20
-7.803219878071424
 30
0.0
 11
1121.870888427656
 21
2.196780121928782
 31
0.0
1001
ACAD
1010
0.0
1020
0.0
1030
0.0
  0
LINE
  5
8B53
330
18
100
AcDbEntity
  8
1HATCH
  6
CONTINUOUS
100
AcDbLine
 10
1111.870888427656
 20
-10.04828390833872
 30
0.0
 11
1121.870888427656
 21
-0.0482839083385045
 31
0.0
1001
ACAD
1010
0.0
1020
0.0
1030
0.0
  0
LINE
  5
8B54
330
18
100
AcDbEntity
  8
1HATCH
  6
CONTINUOUS
100
AcDbLine
 10
1111.870888427656
 20
-12.29334793860601
 30
0.0
 11
1121.870888427656
 21
-2.293347938605791
 31
0.0
1001
ACAD
1010
0.0
1020
0.0
1030
0.0
  0
LINE
  5
8B55
330
18
100
AcDbEntity
  8
1HATCH
  6
CONTINUOUS
100
AcDbLine
 10
1111.960489805842
 20
-14.44881059068693
 30
0.0
 11
1121.870888427656
 21
-4.538411968873078
 31
0.0
1001
ACAD
1010
0.0
1020
0.0
1030
0.0
  0
LINE
  5
8B56
330
18
100
AcDbEntity
  8
1HATCH
  6
CONTINUOUS
100
AcDbLine
 10
1114.205553836109
 20
-14.44881059068693
 30
0.0
 11
1121.870888427656
 21
-6.783475999140364
 31
0.0
1001
ACAD
1010
0.0
1020
0.0
1030
0.0
  0
LINE
  5
8B57
330
18
100
AcDbEntity
  8
1HATCH
  6
CONTINUOUS
100
AcDbLine
 10
1116.450617866377
 20
-14.44881059068693
 30
0.0
 11
1121.870888427656
 21
-9.028540029407658
 31
0.0
1001
ACAD
1010
0.0
1020
0.0
1030
0.0
  0
LINE
  5
8B58
330
18
100
AcDbEntity
  8
1HATCH
  6
CONTINUOUS
100
AcDbLine
 10
1118.695681896644
 20
-14.44881059068694
 30
0.0
 11
1121.870888427656
 21
-11.27360405967494
 31
0.0
1001
ACAD
1010
0.0
1020
0.0
1030
0.0
  0
LINE
  5
8B59
330
18
100
AcDbEntity
  8
1HATCH
  6
CONTINUOUS
100
AcDbLine
 10
1120.940745926911
 20
-14.44881059068694
 30
0.0
 11
1121.870888427656
 21
-13.51866808994223
 31
0.0
1001
ACAD
1010
0.0
1020
0.0
1030
0.0
  0
TEXT
  5
8B5A
330
18
100
AcDbEntity
  8
1HATCH
  6
CONTINUOUS
100
AcDbText
 10
1115.163902789598
 20
30.6668848763547
 30
0.0
 40
3.5
  1
壁
100
AcDbText
  0
LINE
  5
8B5C
330
18
100
AcDbEntity
  8
1DIM
100
AcDbLine
 10
989.6951666301923
 20
-20.74002442906312
 30
0.0
 11
953.1051789128682
 21
6.4376932306468
 31
0.0
  0
LINE
  5
8B5D
330
18
100
AcDbEntity
  8
1DIM
100
AcDbLine
 10
818.8988380181718
 20
38.86655995133631
 30
0.0
 11
818.8988380181718
 21
43.36684974738955
 31
0.0
1001
ACAD
1000
DSTYLE
1002
{
1070
   271
1070
     0
1002
}
  0
LINE
  5
8B5E
330
18
100
AcDbEntity
  8
1DIM
100
AcDbLine
 10
856.8988351004899
 20
38.86655995133631
 30
0.0
 11
856.8988351004899
 21
43.36684974738955
 31
0.0
1001
ACAD
1000
DSTYLE
1002
{
1070
   271
1070
     0
1002
}
  0
LINE
  5
8B5F
330
18
100
AcDbEntity
  8
1DIM
100
AcDbLine
 10
820.8988380181718
 20
42.36684974738955
 30
0.0
 11
854.8988351004899
 21
42.36684974738955
 31
0.0
1001
ACAD
1000
DSTYLE
1002
{
1070
   271
1070
     0
1002
}
  0
LINE
  5
8B64
330
18
100
AcDbEntity
  8
1DIM
100
AcDbLine
 10
1071.530028186083
 20
44.39354341623152
 30
0.0
 11
1076.233482041678
 21
60.04295231955738
 31
0.0
  0
LINE
  5
8B65
330
18
100
AcDbEntity
  8
1PHANTOM
100
AcDbLine
 10
820.3988221106619
 20
32.02989635165771
 30
0.0
 11
820.3988060558848
 21
25.12994288796013
 31
0.0
  0
LINE
  5
8B66
330
18
100
AcDbEntity
  8
1PHANTOM
100
AcDbLine
 10
818.8988344426871
 20
37.32990333208129
 30
0.0
 11
820.3988221106619
 21
32.02989635165771
 31
0.0
  0
LINE
  5
8B67
330
18
100
AcDbEntity
  8
1PHANTOM
100
AcDbLine
 10
818.8988344426871
 20
37.32990333208129
 30
0.0
 11
817.3988221106865
 21
32.02991031242715
 31
0.0
  0
LINE
  5
8B68
330
18
100
AcDbEntity
  8
1PHANTOM
100
AcDbLine
 10
817.3988221106862
 20
32.02991031242713
 30
0.0
 11
817.3988060557197
 21
25.12987541069145
 31
0.0
  0
LINE
  5
8B69
330
18
100
AcDbEntity
  8
1PHANTOM
100
AcDbLine
 10
814.8988235067833
 20
22.62992194631886
 30
0.0
 11
817.3988060557202
 21
25.12987541069144
 31
0.0
  0
LINE
  5
8B6A
330
18
100
AcDbEntity
  8
1PHANTOM
100
AcDbLine
 10
814.8988235067833
 20
22.62992194631886
 30
0.0
 11
814.8988228087447
 21
22.32992194631869
 31
0.0
  0
LINE
  5
8B6B
330
18
100
AcDbEntity
  8
1PHANTOM
100
AcDbLine
 10
814.8988228087449
 20
22.32992194631869
 30
0.0
 11
822.89882280868
 21
22.32988471760019
 31
0.0
  0
LINE
  5
8B6C
330
18
100
AcDbEntity
  8
1PHANTOM
100
AcDbLine
 10
822.8988235067183
 20
22.62988471760047
 30
0.0
 11
822.8988228086799
 21
22.32988471760019
 31
0.0
  0
LINE
  5
8B6D
330
18
100
AcDbEntity
  8
1PHANTOM
100
AcDbLine
 10
822.8988235067183
 20
22.62988471760047
 30
0.0
 11
820.3988060558851
 21
25.12994288796015
 31
0.0
  0
LINE
  5
8B6E
330
18
100
AcDbEntity
  8
1PHANTOM
100
AcDbLine
 10
858.39881919298
 20
32.02989635165771
 30
0.0
 11
858.398803138203
 21
25.12994288796013
 31
0.0
  0
LINE
  5
8B6F
330
18
100
AcDbEntity
  8
1PHANTOM
100
AcDbLine
 10
856.8988315250052
 20
37.32990333208129
 30
0.0
 11
858.39881919298
 21
32.02989635165771
 31
0.0
  0
LINE
  5
8B70
330
18
100
AcDbEntity
  8
1PHANTOM
100
AcDbLine
 10
856.8988315250052
 20
37.32990333208129
 30
0.0
 11
855.3988191930047
 21
32.02991031242714
 31
0.0
  0
LINE
  5
8B71
330
18
100
AcDbEntity
  8
1PHANTOM
100
AcDbLine
 10
855.3988191930043
 20
32.02991031242713
 30
0.0
 11
855.3988031380378
 21
25.12987541069145
 31
0.0
  0
LINE
  5
8B72
330
18
100
AcDbEntity
  8
1PHANTOM
100
AcDbLine
 10
852.8988205891014
 20
22.62992194631886
 30
0.0
 11
855.3988031380384
 21
25.12987541069144
 31
0.0
  0
LINE
  5
8B73
330
18
100
AcDbEntity
  8
1PHANTOM
100
AcDbLine
 10
852.8988205891014
 20
22.62992194631886
 30
0.0
 11
852.8988198910629
 21
22.32992194631869
 31
0.0
  0
LINE
  5
8B74
330
18
100
AcDbEntity
  8
1PHANTOM
100
AcDbLine
 10
852.898819891063
 20
22.32992194631869
 30
0.0
 11
860.8988198909982
 21
22.32988471760019
 31
0.0
  0
LINE
  5
8B75
330
18
100
AcDbEntity
  8
1PHANTOM
100
AcDbLine
 10
860.8988205890364
 20
22.62988471760047
 30
0.0
 11
860.8988198909981
 21
22.32988471760019
 31
0.0
  0
LINE
  5
8B76
330
18
100
AcDbEntity
  8
1PHANTOM
100
AcDbLine
 10
860.8988205890364
 20
22.62988471760047
 30
0.0
 11
858.3988031382032
 21
25.12994288796015
 31
0.0
  0
LINE
  5
8B77
330
18
100
AcDbEntity
  8
0
  6
BYBLOCK
100
AcDbLine
 10
904.0244236555784
 20
26.25749423698996
 30
0.0
 11
902.5058147159617
 21
24.85000925937814
 31
0.0
  0
LINE
  5
8B78
330
18
100
AcDbEntity
  8
0
  6
BYBLOCK
100
AcDbLine
 10
902.5058147159617
 20
24.85000925937814
 30
0.0
 11
903.1172261562523
 21
26.82823147246959
 31
0.0
  0
LINE
  5
8B79
330
18
100
AcDbEntity
  8
0
  6
BYBLOCK
100
AcDbLine
 10
902.5058147159617
 20
24.85000925937814
 30
0.0
 11
903.5708249059153
 21
26.54286285472978
 31
0.0
  0
LINE
  5
8B7A
330
18
100
AcDbEntity
  8
0
  6
BYBLOCK
100
AcDbLine
 10
978.8680400761518
 20
66.95241122902603
 30
0.0
 11
976.8680400761518
 21
67.48830960902603
 31
0.0
  0
LINE
  5
8B7B
330
18
100
AcDbEntity
  8
0
  6
BYBLOCK
100
AcDbLine
 10
976.8680400761518
 20
67.48830960902603
 30
0.0
 11
978.8680400761518
 21
68.02420798902604
 31
0.0
  0
LINE
  5
8B7C
330
18
100
AcDbEntity
  8
0
  6
BYBLOCK
100
AcDbLine
 10
976.8680400761518
 20
67.48830960902603
 30
0.0
 11
978.8680400761518
 21
67.48830960902603
 31
0.0
  0
LINE
  5
8B7D
330
18
100
AcDbEntity
  8
0
  6
BYBLOCK
100
AcDbLine
 10
1066.870934963554
 20
68.02420798902604
 30
0.0
 11
1068.870934963554
 21
67.48830960902603
 31
0.0
  0
LINE
  5
8B7E
330
18
100
AcDbEntity
  8
0
  6
BYBLOCK
100
AcDbLine
 10
1068.870934963554
 20
67.48830960902603
 30
0.0
 11
1066.870934963554
 21
66.95241122902603
 31
0.0
  0
LINE
  5
8B7F
330
18
100
AcDbEntity
  8
0
  6
BYBLOCK
100
AcDbLine
 10
1068.870934963554
 20
67.48830960902603
 30
0.0
 11
1066.870934963554
 21
67.48830960902603
 31
0.0
  0
TEXT
  5
8B80
330
18
100
AcDbEntity
  8
1DIM
  6
CONTINUOUS
100
AcDbText
 10
996.909533816149
 20
68.18830960902604
 30
0.0
 40
3.5
  1
92 （ペーパー付き最大値）
100
AcDbText
1001
ACAD
1000
DSTYLE
1002
{
1070
   271
1070
     0
1002
}
  0
LINE
  5
8B81
330
18
100
AcDbEntity
  8
0
  6
BYBLOCK
100
AcDbLine
 10
1066.870934963554
 20
59.66074537235711
 30
0.0
 11
1068.870934963554
 21
59.12484699235711
 31
0.0
  0
LINE
  5
8B82
330
18
100
AcDbEntity
  8
0
  6
BYBLOCK
100
AcDbLine
 10
1068.870934963554
 20
59.12484699235711
 30
0.0
 11
1066.870934963554
 21
58.58894861235711
 31
0.0
  0
LINE
  5
8B83
330
18
100
AcDbEntity
  8
0
  6
BYBLOCK
100
AcDbLine
 10
1068.870934963554
 20
59.12484699235711
 30
0.0
 11
1066.870934963554
 21
59.12484699235711
 31
0.0
  0
LINE
  5
8B84
330
18
100
AcDbEntity
  8
0
  6
BYBLOCK
100
AcDbLine
 10
1025.870936047136
 20
58.58894861235711
 30
0.0
 11
1023.870936047136
 21
59.12484699235711
 31
0.0
  0
LINE
  5
8B85
330
18
100
AcDbEntity
  8
0
  6
BYBLOCK
100
AcDbLine
 10
1023.870936047136
 20
59.12484699235711
 30
0.0
 11
1025.870936047136
 21
59.66074537235711
 31
0.0
  0
LINE
  5
8B86
330
18
100
AcDbEntity
  8
0
  6
BYBLOCK
100
AcDbLine
 10
1023.870936047136
 20
59.12484699235711
 30
0.0
 11
1025.870936047136
 21
59.12484699235711
 31
0.0
  0
TEXT
  5
8B87
330
18
100
AcDbEntity
  8
1DIM
  6
CONTINUOUS
100
AcDbText
 10
1043.454268838678
 20
59.82484699235711
 30
0.0
 40
3.5
  1
45
100
AcDbText
1001
ACAD
1000
DSTYLE
1002
{
1070
   271
1070
     0
1002
}
  0
LINE
  5
8B88
330
18
100
AcDbEntity
  8
0
  6
BYBLOCK
100
AcDbLine
 10
1025.870936047136
 20
49.32940048166159
 30
0.0
 11
1023.870936047136
 21
49.86529886166159
 31
0.0
  0
LINE
  5
8B89
330
18
100
AcDbEntity
  8
0
  6
BYBLOCK
100
AcDbLine
 10
1023.870936047136
 20
49.86529886166159
 30
0.0
 11
1025.870936047136
 21
50.40119724166158
 31
0.0
  0
LINE
  5
8B8A
330
18
100
AcDbEntity
  8
0
  6
BYBLOCK
100
AcDbLine
 10
1023.870936047136
 20
49.86529886166159
 30
0.0
 11
1025.870936047136
 21
49.86529886166159
 31
0.0
  0
LINE
  5
8B8B
330
18
100
AcDbEntity
  8
0
  6
BYBLOCK
100
AcDbLine
 10
1049.870888427925
 20
50.40119724166158
 30
0.0
 11
1051.870888427925
 21
49.86529886166159
 31
0.0
  0
LINE
  5
8B8C
330
18
100
AcDbEntity
  8
0
  6
BYBLOCK
100
AcDbLine
 10
1051.870888427925
 20
49.86529886166159
 30
0.0
 11
1049.870888427925
 21
49.32940048166159
 31
0.0
  0
LINE
  5
8B8D
330
18
100
AcDbEntity
  8
0
  6
BYBLOCK
100
AcDbLine
 10
1051.870888427925
 20
49.86529886166159
 30
0.0
 11
1049.870888427925
 21
49.86529886166159
 31
0.0
  0
TEXT
  5
8B8E
330
18
100
AcDbEntity
  8
1DIM
  6
CONTINUOUS
100
AcDbText
 10
1036.213707246638
 20
50.56529886166159
 30
0.0
 40
3.5
  1
28
100
AcDbText
1001
ACAD
1000
DSTYLE
1002
{
1070
   271
1070
     0
1002
}
  0
LINE
  5
8B8F
330
18
100
AcDbEntity
  8
0
  6
BYBLOCK
100
AcDbLine
 10
1088.335036583554
 20
22.84241147585089
 30
0.0
 11
1088.870934963554
 21
24.84241147585089
 31
0.0
  0
LINE
  5
8B90
330
18
100
AcDbEntity
  8
0
  6
BYBLOCK
100
AcDbLine
 10
1088.870934963554
 20
24.84241147585089
 30
0.0
 11
1089.406833343553
 21
22.84241147585089
 31
0.0
  0
LINE
  5
8B91
330
18
100
AcDbEntity
  8
0
  6
BYBLOCK
100
AcDbLine
 10
1088.870934963554
 20
24.84241147585089
 30
0.0
 11
1088.870934963554
 21
22.84241147585089
 31
0.0
  0
LINE
  5
8B92
330
18
100
AcDbEntity
  8
0
  6
BYBLOCK
100
AcDbLine
 10
1089.406833343553
 20
18.84241147585061
 30
0.0
 11
1088.870934963554
 21
16.84241147585061
 31
0.0
  0
LINE
  5
8B93
330
18
100
AcDbEntity
  8
0
  6
BYBLOCK
100
AcDbLine
 10
1088.870934963554
 20
16.84241147585061
 30
0.0
 11
1088.335036583554
 21
18.84241147585061
 31
0.0
  0
LINE
  5
8B94
330
18
100
AcDbEntity
  8
0
  6
BYBLOCK
100
AcDbLine
 10
1088.870934963554
 20
16.84241147585061
 30
0.0
 11
1088.870934963554
 21
18.84241147585061
 31
0.0
  0
TEXT
  5
8B95
330
18
100
AcDbEntity
  8
1DIM
  6
CONTINUOUS
100
AcDbText
 10
1088.170934963553
 20
19.67574480918415
 30
0.0
 40
3.5
  1
8
 50
90.0
100
AcDbText
  0
LINE
  5
8B96
330
18
100
AcDbEntity
  8
0
  6
BYBLOCK
100
AcDbLine
 10
957.403658660386
 20
-61.1575885241492
 30
0.0
 11
956.8677602803859
 21
-63.1575885241492
 31
0.0
  0
LINE
  5
8B97
330
18
100
AcDbEntity
  8
0
  6
BYBLOCK
100
AcDbLine
 10
956.8677602803859
 20
-63.1575885241492
 30
0.0
 11
956.3318619003859
 21
-61.1575885241492
 31
0.0
  0
LINE
  5
8B98
330
18
100
AcDbEntity
  8
0
  6
BYBLOCK
100
AcDbLine
 10
956.8677602803859
 20
-63.1575885241492
 30
0.0
 11
956.8677602803859
 21
-61.1575885241492
 31
0.0
  0
LINE
  5
8B99
330
18
100
AcDbEntity
  8
0
  6
BYBLOCK
100
AcDbLine
 10
956.3318619003859
 20
22.84241104153837
 30
0.0
 11
956.8677602803859
 21
24.84241104153837
 31
0.0
  0
LINE
  5
8B9A
330
18
100
AcDbEntity
  8
0
  6
BYBLOCK
100
AcDbLine
 10
956.8677602803859
 20
24.84241104153837
 30
0.0
 11
957.403658660386
 21
22.84241104153837
 31
0.0
  0
LINE
  5
8B9B
330
18
100
AcDbEntity
  8
0
  6
BYBLOCK
100
AcDbLine
 10
956.8677602803859
 20
24.84241104153837
 30
0.0
 11
956.8677602803859
 21
22.84241104153837
 31
0.0
  0
TEXT
  5
8B9C
330
18
100
AcDbEntity
  8
1DIM
  6
CONTINUOUS
100
AcDbText
 10
956.1677602803859
 20
-22.07425540797192
 30
0.0
 40
3.5
  1
88
 50
90.0
100
AcDbText
  0
LINE
  5
8B9D
330
18
100
AcDbEntity
  8
0
  6
BYBLOCK
100
AcDbLine
 10
771.6487762636256
 20
60.07049837186388
 30
0.0
 11
769.6487762636256
 21
60.60639675186388
 31
0.0
  0
LINE
  5
8B9E
330
18
100
AcDbEntity
  8
0
  6
BYBLOCK
100
AcDbLine
 10
769.6487762636256
 20
60.60639675186388
 30
0.0
 11
771.6487762636256
 21
61.14229513186388
 31
0.0
  0
LINE
  5
8B9F
330
18
100
AcDbEntity
  8
0
  6
BYBLOCK
100
AcDbLine
 10
769.6487762636256
 20
60.60639675186388
 30
0.0
 11
771.6487762636256
 21
60.60639675186388
 31
0.0
  0
LINE
  5
8BA0
330
18
100
AcDbEntity
  8
0
  6
BYBLOCK
100
AcDbLine
 10
904.1487762636256
 20
61.14229513186388
 30
0.0
 11
906.1487762636256
 21
60.60639675186388
 31
0.0
  0
LINE
  5
8BA1
330
18
100
AcDbEntity
  8
0
  6
BYBLOCK
100
AcDbLine
 10
906.1487762636256
 20
60.60639675186388
 30
0.0
 11
904.1487762636256
 21
60.07049837186388
 31
0.0
  0
LINE
  5
8BA2
330
18
100
AcDbEntity
  8
0
  6
BYBLOCK
100
AcDbLine
 10
906.1487762636256
 20
60.60639675186388
 30
0.0
 11
904.1487762636256
 21
60.60639675186388
 31
0.0
  0
TEXT
  5
8BA3
330
18
100
AcDbEntity
  8
1DIM
  6
CONTINUOUS
100
AcDbText
 10
833.8154429302922
 20
61.30639675186389
 30
0.0
 40
3.5
  1
137
100
AcDbText
1001
ACAD
1000
DSTYLE
1002
{
1070
   271
1070
     0
1002
}
  0
LINE
  5
8BA4
330
18
100
AcDbEntity
  8
0
  6
BYBLOCK
100
AcDbLine
 10
784.898822799524
 20
48.33175955719656
 30
0.0
 11
782.898822799524
 21
48.86765793719655
 31
0.0
  0
LINE
  5
8BA5
330
18
100
AcDbEntity
  8
0
  6
BYBLOCK
100
AcDbLine
 10
782.898822799524
 20
48.86765793719655
 30
0.0
 11
784.898822799524
 21
49.40355631719655
 31
0.0
  0
LINE
  5
8BA6
330
18
100
AcDbEntity
  8
0
  6
BYBLOCK
100
AcDbLine
 10
782.898822799524
 20
48.86765793719655
 30
0.0
 11
784.898822799524
 21
48.86765793719655
 31
0.0
  0
LINE
  5
8BA7
330
18
100
AcDbEntity
  8
0
  6
BYBLOCK
100
AcDbLine
 10
890.8987297277278
 20
49.40355631719655
 30
0.0
 11
892.8987297277278
 21
48.86765793719655
 31
0.0
  0
LINE
  5
8BA8
330
18
100
AcDbEntity
  8
0
  6
BYBLOCK
100
AcDbLine
 10
892.8987297277278
 20
48.86765793719655
 30
0.0
 11
890.8987297277278
 21
48.33175955719656
 31
0.0
  0
LINE
  5
8BA9
330
18
100
AcDbEntity
  8
0
  6
BYBLOCK
100
AcDbLine
 10
892.8987297277278
 20
48.86765793719655
 30
0.0
 11
890.8987297277278
 21
48.86765793719655
 31
0.0
  0
TEXT
  5
8BAA
330
18
100
AcDbEntity
  8
1DIM
  6
CONTINUOUS
100
AcDbText
 10
831.1175262636259
 20
49.56765793719656
 30
0.0
 40
3.5
  1
P=110
100
AcDbText
1001
ACAD
1000
DSTYLE
1002
{
1070
   271
1070
     0
1002
}
  0
LINE
  5
8BAB
330
18
100
AcDbEntity
  8
0
  6
BYBLOCK
100
AcDbLine
 10
925.6128778836257
 20
125.6590500449896
 30
0.0
 11
926.1487762636258
 21
127.6590500449896
 31
0.0
  0
LINE
  5
8BAC
330
18
100
AcDbEntity
  8
0
  6
BYBLOCK
100
AcDbLine
 10
926.1487762636258
 20
127.6590500449896
 30
0.0
 11
926.6846746436258
 21
125.6590500449896
 31
0.0
  0
LINE
  5
8BAD
330
18
100
AcDbEntity
  8
0
  6
BYBLOCK
100
AcDbLine
 10
926.1487762636258
 20
127.6590500449896
 30
0.0
 11
926.1487762636258
 21
125.6590500449896
 31
0.0
  0
LINE
  5
8BAE
330
18
100
AcDbEntity
  8
0
  6
BYBLOCK
100
AcDbLine
 10
926.6846746436258
 20
84.65905004498961
 30
0.0
 11
926.1487762636258
 21
82.65905004498961
 31
0.0
  0
LINE
  5
8BAF
330
18
100
AcDbEntity
  8
0
  6
BYBLOCK
100
AcDbLine
 10
926.1487762636258
 20
82.65905004498961
 30
0.0
 11
925.6128778836257
 21
84.65905004498961
 31
0.0
  0
LINE
  5
8BB0
330
18
100
AcDbEntity
  8
0
  6
BYBLOCK
100
AcDbLine
 10
926.1487762636258
 20
82.65905004498961
 30
0.0
 11
926.1487762636258
 21
84.65905004498961
 31
0.0
  0
TEXT
  5
8BB1
330
18
100
AcDbEntity
  8
1DIM
  6
CONTINUOUS
100
AcDbText
 10
925.4487762636256
 20
80.2385639338786
 30
0.0
 40
3.5
  1
45（ペーパー無し最小値）
 50
90.0
100
AcDbText
  0
LINE
  5
8BB2
330
18
100
AcDbEntity
  8
0
  6
BYBLOCK
100
AcDbLine
 10
1037.553212521546
 20
-43.09926113080924
 30
0.0
 11
1035.850514558368
 21
-44.27739810072217
 31
0.0
  0
LINE
  5
8BB3
330
18
100
AcDbEntity
  8
0
  6
BYBLOCK
100
AcDbLine
 10
1035.850514558368
 20
-44.27739810072217
 30
0.0
 11
1036.736025772986
 21
-42.40575257806803
 31
0.0
  0
LINE
  5
8BB4
330
18
100
AcDbEntity
  8
0
  6
BYBLOCK
100
AcDbLine
 10
1035.850514558368
 20
-44.27739810072217
 30
0.0
 11
1037.144619147266
 21
-42.75250685443864
 31
0.0
  0
LINE
  5
8BB5
330
18
100
AcDbEntity
  8
0
  6
BYBLOCK
100
AcDbLine
 10
1053.870888427656
 20
6.335873579555531
 30
0.0
 11
1051.870888427656
 21
6.871771959555531
 31
0.0
  0
LINE
  5
8BB6
330
18
100
AcDbEntity
  8
0
  6
BYBLOCK
100
AcDbLine
 10
1051.870888427656
 20
6.871771959555531
 30
0.0
 11
1053.870888427656
 21
7.407670339555531
 31
0.0
  0
LINE
  5
8BB7
330
18
100
AcDbEntity
  8
0
  6
BYBLOCK
100
AcDbLine
 10
1051.870888427656
 20
6.871771959555531
 30
0.0
 11
1053.870888427656
 21
6.871771959555531
 31
0.0
  0
LINE
  5
8BB8
330
18
100
AcDbEntity
  8
0
  6
BYBLOCK
100
AcDbLine
 10
1109.870888427656
 20
7.407670339555531
 30
0.0
 11
1111.870888427656
 21
6.871771959555531
 31
0.0
  0
LINE
  5
8BB9
330
18
100
AcDbEntity
  8
0
  6
BYBLOCK
100
AcDbLine
 10
1111.870888427656
 20
6.871771959555531
 30
0.0
 11
1109.870888427656
 21
6.335873579555531
 31
0.0
  0
LINE
  5
8BBA
330
18
100
AcDbEntity
  8
0
  6
BYBLOCK
100
AcDbLine
 10
1111.870888427656
 20
6.871771959555531
 30
0.0
 11
1109.870888427656
 21
6.871771959555531
 31
0.0
  0
TEXT
  5
8BBB
330
18
100
AcDbEntity
  8
1DIM
  6
CONTINUOUS
100
AcDbText
 10
1068.500402316545
 20
7.571771959555532
 30
0.0
 40
3.5
  1
壁から60以上
100
AcDbText
  0
LINE
  5
8BBC
330
18
100
AcDbEntity
  8
0
  6
BYBLOCK
100
AcDbLine
 10
990.0147098138932
 20
-20.30981607554481
 30
0.0
 11
991.3007260779306
 21
-21.93257583666718
 31
0.0
  0
LINE
  5
8BBD
330
18
100
AcDbEntity
  8
0
  6
BYBLOCK
100
AcDbLine
 10
991.3007260779306
 20
-21.93257583666718
 30
0.0
 11
989.3756234464914
 21
-21.17023278258144
 31
0.0
  0
LINE
  5
8BBE
330
18
100
AcDbEntity
  8
0
  6
BYBLOCK
100
AcDbLine
 10
991.3007260779306
 20
-21.93257583666718
 30
0.0
 11
989.6951666301923
 21
-20.74002442906312
 31
0.0
  0
LINE
  5
8BBF
330
18
100
AcDbEntity
  8
0
  6
BYBLOCK
100
AcDbLine
 10
820.8988380181718
 20
41.83095136738955
 30
0.0
 11
818.8988380181718
 21
42.36684974738955
 31
0.0
  0
LINE
  5
8BC0
330
18
100
AcDbEntity
  8
0
  6
BYBLOCK
100
AcDbLine
 10
818.8988380181718
 20
42.36684974738955
 30
0.0
 11
820.8988380181718
 21
42.90274812738955
 31
0.0
  0
LINE
  5
8BC1
330
18
100
AcDbEntity
  8
0
  6
BYBLOCK
100
AcDbLine
 10
818.8988380181718
 20
42.36684974738955
 30
0.0
 11
820.8988380181718
 21
42.36684974738955
 31
0.0
  0
LINE
  5
8BC2
330
18
100
AcDbEntity
  8
0
  6
BYBLOCK
100
AcDbLine
 10
854.8988351004899
 20
42.90274812738955
 30
0.0
 11
856.8988351004899
 21
42.36684974738955
 31
0.0
  0
LINE
  5
8BC3
330
18
100
AcDbEntity
  8
0
  6
BYBLOCK
100
AcDbLine
 10
856.8988351004899
 20
42.36684974738955
 30
0.0
 11
854.8988351004899
 21
41.83095136738955
 31
0.0
  0
LINE
  5
8BC4
330
18
100
AcDbEntity
  8
0
  6
BYBLOCK
100
AcDbLine
 10
856.8988351004899
 20
42.36684974738955
 30
0.0
 11
854.8988351004899
 21
42.36684974738955
 31
0.0
  0
TEXT
  5
8BC5
330
18
100
AcDbEntity
  8
1DIM
  6
CONTINUOUS
100
AcDbText
 10
831.4821698926643
 20
43.06684974738955
 30
0.0
 40
3.5
  1
P=38
100
AcDbText
1001
ACAD
1000
DSTYLE
1002
{
1070
   271
1070
     0
1002
}
  0
LINE
  5
8BC6
330
18
100
AcDbEntity
  8
0
  6
BYBLOCK
100
AcDbLine
 10
1072.043247769047
 20
44.23929448317765
 30
0.0
 11
1070.954363325689
 21
42.47818183979007
 31
0.0
  0
LINE
  5
8BC7
330
18
100
AcDbEntity
  8
0
  6
BYBLOCK
100
AcDbLine
 10
1070.954363325689
 20
42.47818183979007
 30
0.0
 11
1071.016808603118
 21
44.54779234928539
 31
0.0
  0
LINE
  5
8BC8
330
18
100
AcDbEntity
  8
0
  6
BYBLOCK
100
AcDbLine
 10
1070.954363325689
 20
42.47818183979007
 30
0.0
 11
1071.530028186083
 21
44.39354341623152
 31
0.0
  0
VIEWPORT
  5
57
330
15
100
AcDbEntity
 67
     1
  8
0
100
AcDbViewport
 68
     1
 10
0.0
 20
0.0
 30
0.0
 40
535.5106132075472
 41
297.0
 68
     1
 69
     1
1001
ACAD
1000
MVIEW
1002
{
1070
    16
1010
0.0
1020
0.0
1030
0.0
1010
0.0
1020
0.0
1030
1.0
1040
0.0
1040
297.0
1040
-4.171999999999855
1040
12.83899999999988
1040
50.0
1040
0.0
1040
0.0
1070
    16
1070
  1000
1070
     0
1070
     1
1070
     0
1070
     0
1070
     0
1070
     0
1040
0.0
1040
0.0
1040
0.0
1040
10.0
1040
10.0
1040
10.0
1040
10.0
1070
     0
1002
{
1002
}
1002
}
  0
ENDSEC
  0
SECTION
  2
OBJECTS
  0
DICTIONARY
  5
C
330
0
100
AcDbDictionary
  3
ACAD_CIP_PREVIOUS_PRODUCT_INFO
350
81CF
  3
ACAD_COLOR
350
2D0
  3
ACAD_GROUP
350
D
  3
ACAD_LAYOUT
350
2D1
  3
ACAD_MATERIAL
350
2CF
  3
ACAD_MLEADERSTYLE
350
6589
  3
ACAD_MLINESTYLE
350
1B
  3
ACAD_PLOTSETTINGS
350
2D2
  3
ACAD_SCALELIST
350
6567
  3
ACAD_VISUALSTYLE
350
6556
  3
ACDBHEADERROUNDTRIPXREC
350
8BC9
  3
ACDBVARIABLEDICTIONARY
350
37
  3
AEC_PROPERTY_SET_DEFS
350
81EE
  3
CONTENTDICTIONARY
350
D8
  3
DRAWINGVARIABLESDICT
350
20
  3
DWGPROPS
350
8BCC
1001
ACAD
1000
TREAT_AS_HARD
1070
     0
  0
DICTIONARY
  5
4591
330
2
100
AcDbDictionary
  3
ACAD_LAYERSTATES
360
4592
1001
ACAD
1000
TREAT_AS_HARD
1070
     1
  0
DICTIONARY
  5
65DD
330
E
100
AcDbDictionary
  3
ADSK_XREC_LAYER_RECONCILED
360
65DE
1001
ACAD
1000
TREAT_AS_HARD
1070
     1
  0
DICTIONARY
  5
65DF
330
29
100
AcDbDictionary
  3
ADSK_XREC_LAYER_RECONCILED
360
65E0
1001
ACAD
1000
TREAT_AS_HARD
1070
     1
  0
DICTIONARY
  5
65E1
330
31
100
AcDbDictionary
  3
ADSK_XREC_LAYER_RECONCILED
360
65E2
1001
ACAD
1000
TREAT_AS_HARD
1070
     1
  0
DICTIONARY
  5
65EB
330
101
100
AcDbDictionary
  3
ADSK_XREC_LAYER_RECONCILED
360
65EC
1001
ACAD
1000
TREAT_AS_HARD
1070
     1
  0
DICTIONARY
  5
65EF
330
103
100
AcDbDictionary
  3
ADSK_XREC_LAYER_RECONCILED
360
65F0
1001
ACAD
1000
TREAT_AS_HARD
1070
     1
  0
DICTIONARY
  5
65F3
330
25F
100
AcDbDictionary
  3
ADSK_XREC_LAYER_RECONCILED
360
65F4
1001
ACAD
1000
TREAT_AS_HARD
1070
     1
  0
DICTIONARY
  5
660F
330
26D
100
AcDbDictionary
  3
ADSK_XREC_LAYER_RECONCILED
360
6610
1001
ACAD
1000
TREAT_AS_HARD
1070
     1
  0
DICTIONARY
  5
661F
330
276
100
AcDbDictionary
  3
ADSK_XREC_LAYER_RECONCILED
360
6620
1001
ACAD
1000
TREAT_AS_HARD
1070
     1
  0
DICTIONARY
  5
510
330
18
100
AcDbDictionary
  3
ACAD_SORTENTS
360
511
1001
ACAD
1000
TREAT_AS_HARD
1070
     1
  0
DICTIONARY
  5
2CDB
330
15
100
AcDbDictionary
  3
ACAD_SORTENTS
360
2CDC
1001
ACAD
1000
TREAT_AS_HARD
1070
     1
  0
XRECORD
  5
81CF
102
{ACAD_REACTORS
330
C
102
}
330
C
100
AcDbXrecord
300
ACDLT
300
2012
300
ACDLT_F_S
  0
DICTIONARY
  5
2D0
102
{ACAD_REACTORS
330
C
102
}
330
C
100
AcDbDictionary
1001
ACAD
1000
TREAT_AS_HARD
1070
     0
  0
DICTIONARY
  5
D
102
{ACAD_REACTORS
330
C
102
}
330
C
100
AcDbDictionary
  3
*A1
350
7F3A
  3
*A2
350
7F90
  3
*A3
350
802B
1001
ACAD
1000
TREAT_AS_HARD
1070
     0
  0
DICTIONARY
  5
2D1
102
{ACAD_REACTORS
330
C
102
}
330
C
100
AcDbDictionary
1001
ACAD
1000
TREAT_AS_HARD
1070
     0
  0
DICTIONARY
  5
2CF
102
{ACAD_REACTORS
330
C
102
}
330
C
100
AcDbDictionary
  3
BYBLOCK
350
6546
  3
BYLAYER
350
653E
  3
GLOBAL
350
654E
1001
ACAD
1000
TREAT_AS_HARD
1070
     0
  0
DICTIONARY
  5
6589
102
{ACAD_REACTORS
330
C
102
}
330
C
100
AcDbDictionary
  3
STANDARD
350
658A
1001
ACAD
1000
TREAT_AS_HARD
1070
     0
  0
DICTIONARY
  5
1B
102
{ACAD_REACTORS
330
C
102
}
330
C
100
AcDbDictionary
  3
STANDARD
350
1C
1001
ACAD
1000
TREAT_AS_HARD
1070
     0
  0
DICTIONARY
  5
2D2
102
{ACAD_REACTORS
330
C
102
}
330
C
100
AcDbDictionary
1001
ACAD
1000
TREAT_AS_HARD
1070
     0
  0
DICTIONARY
  5
6567
102
{ACAD_REACTORS
330
C
102
}
330
C
100
AcDbDictionary
  3
A0
350
6568
  3
A1
350
6569
  3
A2
350
656A
  3
A3
350
656B
  3
A4
350
656C
  3
A5
350
656D
  3
A6
350
656E
  3
A7
350
656F
  3
A8
350
6570
  3
A9
350
6571
  3
B0
350
6572
  3
B1
350
6573
  3
B2
350
6574
  3
B3
350
6575
  3
B4
350
6576
  3
B5
350
6577
  3
B6
350
6578
  3
B7
350
6579
  3
B8
350
657A
  3
B9
350
657B
  3
C0
350
657C
  3
C1
350
657D
  3
C2
350
657E
  3
C3
350
657F
  3
C4
350
6580
  3
C5
350
6581
  3
C6
350
6582
  3
C7
350
6583
  3
C8
350
6584
  3
C9
350
6585
  3
D0
350
6586
  3
D1
350
6587
  3
D2
350
6588
1001
ACAD
1000
TREAT_AS_HARD
1070
     0
  0
DICTIONARY
  5
6556
102
{ACAD_REACTORS
330
C
102
}
330
C
100
AcDbDictionary
  3
2DWIREFRAME
350
655C
  3
3D_HIDDEN
350
655E
  3
3DWIREFRAME
350
655D
  3
BASIC
350
655B
  3
BRIGHTEN
350
6562
  3
COLORCHANGE
350
6566
  3
CONCEPTUAL
350
655F
  3
DIM
350
6561
  3
EDGECOLOROFF
350
6676
  3
FACEPATTERN
350
6565
  3
FLAT
350
6557
  3
FLATWITHEDGES
350
6558
  3
GOURAUD
350
6559
  3
GOURAUDWITHEDGES
350
655A
  3
HIDDEN
350
81BA
  3
JITTEROFF
350
6674
  3
LINEPATTERN
350
6564
  3
MODELING
350
8A6C
  3
OVERHANGOFF
350
6675
  3
REALISTIC
350
6560
  3
SHADED
350
81BF
  3
SHADED_WITH_EDGES
350
81BE
  3
SHADES_OF_GRAY
350
81BB
  3
SKETCHY
350
81BC
  3
THICKEN
350
6563
  3
WIREFRAME
350
81B9
  3
X-RAY
350
81BD
1001
ACAD
1000
TREAT_AS_HARD
1070
     0
  0
DICTIONARY
  5
8BC9
102
{ACAD_REACTORS
330
C
102
}
330
C
100
AcDbDictionary
  3
COLORDICT
350
8BCA
  3
MATERIALDICT
350
8BCB
1001
ACAD
1000
TREAT_AS_HARD
1070
     0
  0
DICTIONARY
  5
37
102
{ACAD_REACTORS
330
C
102
}
330
C
100
AcDbDictionary
  3
CANNOSCALE
350
6670
  3
CMLEADERSTYLE
350
666F
  3
CTABLESTYLE
350
4FB
  3
DIMADEC
350
38
  3
DIMASSOC
350
408
  3
HIDETEXT
350
56F
  3
INDEXCTL
350
6672
  3
INTERSECTIONCOLOR
350
573
  3
INTERSECTIONDISPLAY
350
572
  3
MSLTSCALE
350
8AD4
  3
OBSCOLOR
350
570
  3
OBSLTYPE
350
571
  3
PROJECTNAME
350
409
  3
SORTENTS
350
6671
  3
XCLIPFRAME
350
8A6B
1001
ACAD
1000
TREAT_AS_HARD
1070
     0
  0
DICTIONARY
  5
81EE
102
{ACAD_REACTORS
330
C
102
}
330
C
100
AcDbDictionary
1001
ACAD
1000
TREAT_AS_HARD
1070
     0
  0
DICTIONARY
  5
D8
102
{ACAD_REACTORS
330
C
102
}
330
C
100
AcDbDictionary
1001
CONTENTTABDATA
1070
    11
1000
Child
1000
D:\ACLT\TABset\CHILDREN.dwg
1070
     0
1070
     0
1070
     1
1000
PK
1000
D:\ACLT\TABset\PK.dwg
1070
     0
1070
     0
1070
     1
1000
Lev1
1000
D:\ACLT\TABset\Lever01.dwg
1070
     0
1070
     0
1070
     1
1000
Lev2
1000
D:\ACLT\TABset\Lever02.dwg
1070
     0
1070
     0
1070
     1
1000
L3
1000
D:\Aclt\TABset\Lever03.dwg
1070
     0
1070
     0
1070
     1
1000
Form
1000
D:\ACLT\FORMAT
1070
     1
1070
     0
1070
     1
1000
Jnt
1000
D:\ACLT\TABset\JOINTPARTS.dwg
1070
     0
1070
     0
1070
     1
1000
ISO
1000
D:\ACLT\TABset\Isome01.dwg
1070
     0
1070
     0
1070
     1
1000
R
1000
D:\ACLT\TABset\REGION.dwg
1070
     0
1070
     0
1070
     1
1000
std
1000
D:\ACLT\TABset\std_sym_all.dwg
1070
     0
1070
     0
1070
     1
1000
丸
1000
D:\Aclt\TABset\MARU.dwg
1070
     0
1070
     0
1070
     1
1001
CONTENTCURRENTTAB
1070
     0
1001
ACAD
1000
TREAT_AS_HARD
1070
     0
  0
DICTIONARY
  5
20
102
{ACAD_REACTORS
330
C
102
}
330
C
100
AcDbDictionary
1001
DRAWINGVARIABLESXDATA
1000
POLARANG
1000
0.261799387799149410000000
1000
POLARMODE
1000
1
1000
POLARSTYLE
1000
1
1001
ACAD
1000
TREAT_AS_HARD
1070
     0
  0
XRECORD
  5
8BCC
102
{ACAD_REACTORS
330
C
102
}
330
C
100
AcDbXrecord
  1
DWGPROPS COOKIE
  2

  3

  4

  6

  7

  8
3684
  9

300
=
301
=
302
=
303
=
304
=
305
=
306
=
307
=
308
=
309
=
 40
0.0
 41
2453733.174498148
 42
2458892.272665683
  1

 90
        0
  0
DICTIONARY
  5
4592
102
{ACAD_REACTORS
330
4591
102
}
330
4591
100
AcDbDictionary
1001
ACAD
1000
TREAT_AS_HARD
1070
     0
  0
ACAD_PROXY_OBJECT
  5
65DE
102
{ACAD_REACTORS
330
65DD
102
}
330
65DD
100
AcDbZombieObject
 90
      499
 91
      515
 93
       34
310
40C8804040
  0
ACAD_PROXY_OBJECT
  5
65E0
102
{ACAD_REACTORS
330
65DF
102
}
330
65DF
100
AcDbZombieObject
 90
      499
 91
      515
 93
       34
310
40C8804040
  0
ACAD_PROXY_OBJECT
  5
65E2
102
{ACAD_REACTORS
330
65E1
102
}
330
65E1
100
AcDbZombieObject
 90
      499
 91
      515
 93
       34
310
40C8804040
  0
ACAD_PROXY_OBJECT
  5
65EC
102
{ACAD_REACTORS
330
65EB
102
}
330
65EB
100
AcDbZombieObject
 90
      499
 91
      515
 93
       34
310
40C8804040
  0
ACAD_PROXY_OBJECT
  5
65F0
102
{ACAD_REACTORS
330
65EF
102
}
330
65EF
100
AcDbZombieObject
 90
      499
 91
      515
 93
       34
310
40C8804040
  0
ACAD_PROXY_OBJECT
  5
65F4
102
{ACAD_REACTORS
330
65F3
102
}
330
65F3
100
AcDbZombieObject
 90
      499
 91
      515
 93
       34
310
40C8804040
  0
ACAD_PROXY_OBJECT
  5
6610
102
{ACAD_REACTORS
330
660F
102
}
330
660F
100
AcDbZombieObject
 90
      499
 91
      515
 93
       34
310
40C8804040
  0
ACAD_PROXY_OBJECT
  5
6620
102
{ACAD_REACTORS
330
661F
102
}
330
661F
100
AcDbZombieObject
 90
      499
 91
      515
 93
       34
310
40C8804040
  0
SORTENTSTABLE
  5
511
102
{ACAD_REACTORS
330
510
102
}
330
510
100
AcDbSortentsTable
330
18
331
4BDC
  5
4BE0
331
0
  5
4BE1
331
0
  5
4BE2
331
5674
  5
567F
331
5675
  5
5681
331
5676
  5
5682
331
5678
  5
5683
331
5679
  5
5684
331
567A
  5
5685
331
567B
  5
5686
331
567C
  5
5687
331
567D
  5
5688
331
567E
  5
5689
331
567F
  5
568A
331
5680
  5
568B
331
5681
  5
568C
331
5682
  5
568E
331
5683
  5
5690
331
5684
  5
5691
331
5685
  5
5692
331
5686
  5
5693
331
5687
  5
5695
331
5688
  5
5696
331
5689
  5
5697
331
568A
  5
5698
331
568B
  5
5699
331
568C
  5
569A
331
568E
  5
569B
331
5690
  5
569C
331
5691
  5
569D
331
5692
  5
569E
331
5693
  5
569F
331
5695
  5
56A0
331
5696
  5
56A1
331
5697
  5
56A3
331
5698
  5
56A6
331
5699
  5
56AA
331
569A
  5
56AB
331
569B
  5
56AC
331
569C
  5
56AF
331
569D
  5
56B4
331
569E
  5
56B6
331
569F
  5
56BC
331
56A0
  5
56BE
331
56A1
  5
56BF
331
56A3
  5
56C0
331
56A6
  5
56C4
331
56A7
  5
56C6
331
56A8
  5
56C8
331
56A9
  5
56C9
331
56AB
  5
56CF
331
56AF
  5
56D0
331
56B4
  5
56DC
331
56B7
  5
56DD
331
56BA
  5
56E0
331
56BB
  5
56E3
331
56BF
  5
56E5
331
56C1
  5
56E6
331
56C2
  5
56EA
331
56C7
  5
56EB
331
56C8
  5
56ED
331
56C9
  5
56EE
331
56CA
  5
56EF
331
56D2
  5
56F0
331
56D4
  5
56F1
331
56D5
  5
56F2
331
56D6
  5
577A
331
56D7
  5
577B
331
56D8
  5
577C
331
56DB
  5
577D
331
56DE
  5
577E
331
56DF
  5
577F
331
56E3
  5
5780
331
56E4
  5
5781
331
56E6
  5
5782
331
56E7
  5
5783
331
56E8
  5
5784
331
56E9
  5
5785
331
56EA
  5
5786
331
56EB
  5
5787
331
56EC
  5
5788
331
56ED
  5
578A
331
5774
  5
578B
331
5775
  5
578C
331
5776
  5
578D
331
5777
  5
578E
331
5778
  5
578F
331
5779
  5
5790
331
577A
  5
5792
331
577B
  5
5795
331
577C
  5
5797
331
577D
  5
5798
331
577E
  5
5799
331
577F
  5
579A
331
5780
  5
579B
331
5781
  5
579C
331
5782
  5
579D
331
5783
  5
57A0
331
5784
  5
57A1
331
5785
  5
57A2
331
5786
  5
57A3
331
5787
  5
57A4
331
5788
  5
57A5
331
5789
  5
57A6
331
578A
  5
57A7
331
578C
  5
57A8
331
578D
  5
57A9
331
578E
  5
57AA
331
578F
  5
57AB
331
5791
  5
57AC
331
5792
  5
57AD
331
5793
  5
57AE
331
5794
  5
57AF
331
5795
  5
57B0
331
5796
  5
57B1
331
5797
  5
57B2
331
579A
  5
57B3
331
579B
  5
57B4
331
579C
  5
57B5
331
579D
  5
57B6
331
579E
  5
57B7
331
579F
  5
57B9
331
57A0
  5
57BC
331
57A1
  5
57BD
331
57A2
  5
57BE
331
57A3
  5
57C1
331
57A4
  5
57C3
331
57A5
  5
57C6
331
57A6
  5
57C9
331
57A7
  5
57CC
331
57A8
  5
57CD
331
0
  5
57C4
331
57AA
  5
5CDF
331
57AB
  5
5D35
331
57AC
  5
5D36
331
57AD
  5
5D37
331
57AE
  5
5D38
331
57AF
  5
5D39
331
57B0
  5
5D3A
331
57B1
  5
5D3B
331
57B2
  5
5D3C
331
57B3
  5
5D3D
331
57B5
  5
5D41
331
57B6
  5
5D43
331
57B7
  5
5D45
331
57B8
  5
5D48
331
57BA
  5
5EDE
331
57BB
  5
5EDF
331
57BC
  5
5EE0
331
57BD
  5
5EE2
331
57BE
  5
5EE3
331
57BF
  5
5EE4
331
57C0
  5
5EE5
331
57C3
  5
5EE7
331
57C4
  5
5EE8
331
57C5
  5
5EE9
331
57C6
  5
5EEA
331
57C7
  5
5EEB
331
57C8
  5
5EEC
331
57C9
  5
5EED
331
57CA
  5
5EEE
331
57CB
  5
5EEF
331
57CC
  5
5FFB
331
57CD
  5
5FFD
331
57CE
  5
6018
331
57CF
  5
6019
331
5815
  5
56C2
331
5819
  5
6067
331
581A
  5
615B
331
5CD4
  5
615C
331
5CD5
  5
615D
331
5CD6
  5
615F
331
5CD7
  5
616C
331
5CDE
  5
616D
331
5D34
  5
61ED
331
5D35
  5
6207
331
5D36
  5
6226
331
5D37
  5
6288
331
5D38
  5
628B
331
5D39
  5
62CD
331
5D3A
  5
62CE
331
5D3B
  5
62E1
331
5D41
  5
6378
331
5D42
  5
632F
331
5D43
  5
632E
331
5D44
  5
5680
331
5D48
  5
6379
331
5EDF
  5
637A
331
5EE0
  5
637B
331
5EE1
  5
637E
331
5EE3
  5
637F
331
5EE4
  5
6380
331
5EE5
  5
6381
331
5EE7
  5
6382
331
5EE8
  5
6383
331
5EE9
  5
6385
331
5EEA
  5
6386
331
5EEB
  5
6387
331
5EED
  5
6388
331
5EEE
  5
6389
331
5EEF
  5
63A9
331
6063
  5
63AA
331
6064
  5
65A2
331
6157
  5
65BC
331
6158
  5
7DA8
331
615A
  5
7DA9
331
615B
  5
7DAA
331
615C
  5
7DAB
331
615D
  5
7DAC
331
616C
  5
7DAD
331
616D
  5
7DAE
331
616E
  5
7DAF
331
0
  5
65BE
331
0
  5
6955
331
0
  5
6956
331
0
  5
6957
331
0
  5
6958
331
0
  5
6959
331
0
  5
695A
331
0
  5
695B
331
0
  5
695C
331
0
  5
7DA7
331
6378
  5
5718
331
6379
  5
8011
331
637B
  5
56DA
331
637E
  5
56D7
331
637F
  5
56E4
331
6381
  5
8013
331
6382
  5
5794
331
6383
  5
5793
331
6384
  5
8014
331
6385
  5
8015
331
6386
  5
8016
331
6387
  5
8017
331
6388
  5
8018
331
6389
  5
8019
331
63A9
  5
65BD
331
63AA
  5
8012
331
0
  5
7DB2
331
0
  5
7DB3
331
65BD
  5
81F0
331
0
  5
7DB5
331
7D9D
  5
81F2
331
7D9E
  5
81F3
331
7D9F
  5
81F4
331
7DA0
  5
81F5
331
7DA3
  5
81F6
331
7DA4
  5
81F7
331
7DA5
  5
81F8
331
7DA6
  5
81F9
331
7DA7
  5
81FA
331
7DA8
  5
81FB
331
7DA9
  5
81FC
331
7DAA
  5
81FD
331
7DAB
  5
81FE
331
7DAC
  5
81FF
331
7DAD
  5
8200
331
7DAE
  5
8AD8
331
7DAF
  5
8AD9
331
7DB0
  5
8ADA
331
7DB4
  5
57CE
331
7DB5
  5
57CA
331
7DB6
  5
57CB
331
7DB7
  5
57CF
331
0
  5
7F0E
331
0
  5
7F11
331
0
  5
7F12
331
7ED9
  5
8AFC
331
7EDA
  5
8AFD
331
7EDB
  5
8AFE
331
7EDC
  5
8AFF
331
7EDD
  5
8B00
331
7EDE
  5
8B01
331
7EDF
  5
8B02
331
7EE0
  5
8B03
331
7EE1
  5
8B04
331
7EE2
  5
8B05
331
7EE3
  5
8B06
331
7EE4
  5
8B07
331
7EE5
  5
8B08
331
7EE6
  5
8B09
331
7EE7
  5
8B0A
331
7EE8
  5
8B0B
331
7EE9
  5
8B0C
331
7EEA
  5
8B0D
331
7EEB
  5
8B0E
331
7EEC
  5
8B0F
331
7EED
  5
8B10
331
7EEE
  5
8B11
331
7EEF
  5
8B12
331
7EF0
  5
8B13
331
7EF1
  5
8B14
331
7EF4
  5
8B16
331
7EF5
  5
8B17
331
7EF6
  5
8B18
331
7EF8
  5
8B19
331
7EF9
  5
8B1A
331
7EFA
  5
8B1B
331
7EFC
  5
8B1C
331
7EFD
  5
8B1D
331
7F20
  5
8AF1
331
7F21
  5
8AF2
331
7F22
  5
8AF3
331
7F23
  5
8AF4
331
7F24
  5
8AF5
331
7F25
  5
8AF6
331
7F26
  5
8AF7
331
7F27
  5
8AF8
331
7F28
  5
8AF9
331
7F29
  5
8AFA
331
7F2A
  5
8AFB
331
7F39
  5
8B15
331
7F63
  5
8B1E
331
7F64
  5
8B1F
331
7F65
  5
8B20
331
7F66
  5
8B21
331
7F67
  5
8B22
331
7F68
  5
8B23
331
7F69
  5
8B24
331
7F6A
  5
8B25
331
7F6B
  5
8B26
331
7F6C
  5
8B27
331
7F6D
  5
8B28
331
7F6E
  5
8B29
331
7F6F
  5
8B2A
331
7F70
  5
8B2B
331
7F71
  5
8B2C
331
7F72
  5
8B2D
331
7F73
  5
8B2E
331
7F74
  5
8B2F
331
7F75
  5
8B30
331
7F76
  5
8B31
331
7F77
  5
8B32
331
7F78
  5
8B33
331
7F79
  5
8B34
331
7F7A
  5
8B35
331
7F7B
  5
8B36
331
7F7C
  5
8B37
331
7F7D
  5
8B38
331
7F7E
  5
8B39
331
7F7F
  5
8B3A
331
7F80
  5
8B3B
331
7F81
  5
8B3C
331
7F82
  5
8B3D
331
7F83
  5
8B3E
331
7F84
  5
8B3F
331
7F85
  5
8B40
331
7F86
  5
8B41
331
7F87
  5
8B42
331
7F88
  5
8B43
331
7F89
  5
8B44
331
7F8A
  5
8B45
331
7F8B
  5
8B46
331
7F8C
  5
8B47
331
7F8D
  5
8B48
331
7F8E
  5
8B49
331
7F8F
  5
8B4A
331
7FFE
  5
8B4B
331
7FFF
  5
8B4C
331
8000
  5
8B4D
331
8001
  5
8B4E
331
8002
  5
8B4F
331
8003
  5
8B50
331
8004
  5
8B51
331
8005
  5
8B52
331
8006
  5
8B53
331
8007
  5
8B54
331
8008
  5
8B55
331
8009
  5
8B56
331
800A
  5
8B57
331
800B
  5
8B58
331
800C
  5
8B59
331
800D
  5
8B5A
331
800E
  5
8B5B
331
800F
  5
8B5C
331
8010
  5
8B5D
331
8011
  5
8B5E
331
8012
  5
8B5F
331
8013
  5
8B60
331
8014
  5
8B61
331
8015
  5
8B62
331
8016
  5
8B63
331
8017
  5
8B64
331
8018
  5
8B65
331
8019
  5
8B66
331
801A
  5
8B67
331
801B
  5
8B68
331
801C
  5
8B69
331
801D
  5
8B6A
331
801E
  5
8B6B
331
801F
  5
8B6C
331
8020
  5
8B6D
331
8021
  5
8B6E
331
8022
  5
8B6F
331
8023
  5
8B70
331
8024
  5
8B71
331
8025
  5
8B72
331
8026
  5
8B73
331
8027
  5
8B74
331
8028
  5
8B75
331
8029
  5
8B76
331
802A
  5
8B77
331
8081
  5
8B98
331
0
  5
80AC
331
8083
  5
8BA2
331
8084
  5
8BA3
331
8085
  5
8BA4
331
8086
  5
8BA5
331
8087
  5
8BA6
331
8088
  5
8BA7
331
8089
  5
8BA8
331
808A
  5
8BA9
331
808B
  5
8BAA
331
808C
  5
8BAB
331
808D
  5
8BAC
331
808E
  5
8BAD
331
808F
  5
8BAE
331
8090
  5
8BAF
331
8091
  5
8BB0
331
8092
  5
8BB1
331
8093
  5
8BB2
331
8094
  5
8BB3
331
8095
  5
8BB4
331
8096
  5
8BB5
331
8097
  5
8BB6
331
8098
  5
8BB7
331
8099
  5
8B78
331
0
  5
8094
331
809B
  5
8B82
331
809C
  5
8B83
331
809D
  5
8B84
331
809E
  5
8B85
331
809F
  5
8B86
331
80A0
  5
8B87
331
80A1
  5
8B88
331
80A2
  5
8B89
331
80A3
  5
8B8A
331
80A4
  5
8B8B
331
80A5
  5
8B8C
331
80A6
  5
8B8D
331
80A7
  5
8B8E
331
80A8
  5
8B8F
331
80A9
  5
8B90
331
80AA
  5
8B91
331
80AB
  5
8B92
331
80AC
  5
8B93
331
80AD
  5
8B94
331
80AE
  5
8B95
331
80AF
  5
8B96
331
80B0
  5
8B97
331
81F0
  5
8BB8
331
81F1
  5
8BB9
331
81F2
  5
8BBA
331
81F3
  5
8BBB
331
81F4
  5
8BBC
331
81F5
  5
8BBD
331
81F6
  5
8BBE
331
81F7
  5
8BBF
331
81F8
  5
8BC0
331
81F9
  5
8BC1
331
81FA
  5
8BC2
331
81FB
  5
8BC3
331
81FC
  5
8BC4
331
81FD
  5
8BC5
331
81FE
  5
8BC6
331
81FF
  5
8BC7
331
8200
  5
8BC8
331
0
  5
57C5
331
8AD9
  5
57D3
331
8ADA
  5
5814
331
8ADB
  5
5815
331
8ADC
  5
5816
331
8ADD
  5
5817
331
8ADE
  5
581A
331
8ADF
  5
581B
331
8AE0
  5
5A04
331
8AE1
  5
5CD5
331
8AE2
  5
5CD6
331
8AE3
  5
5CD7
331
8AE4
  5
5CD8
331
8AE5
  5
8ADF
331
8AE6
  5
8AE0
331
8AE7
  5
8AEF
331
8AE8
  5
8AF0
331
8AE9
  5
57D2
331
0
  5
5674
331
8AEB
  5
567B
331
8AEC
  5
567C
331
8AED
  5
567D
331
8AEE
  5
567E
331
8AEF
  5
7DB7
331
8AF0
  5
7DB8
331
8AF1
  5
7DB9
331
0
  5
7DB0
331
0
  5
7DB4
331
0
  5
7DB6
331
8AF5
  5
7F13
331
8AF6
  5
7F14
331
8AF7
  5
7F18
331
0
  5
7DBF
331
0
  5
7E5D
331
0
  5
7EA1
331
8AFB
  5
7F26
331
8AFC
  5
7F2E
331
8AFD
  5
7F2F
331
0
  5
7F06
331
0
  5
7F07
331
0
  5
7F08
331
8B01
  5
7F67
331
8B02
  5
7F68
331
8B03
  5
7F69
331
0
  5
7F0C
331
0
  5
7F0D
331
0
  5
7F0F
331
8B07
  5
7F74
331
8B08
  5
7F75
331
8B09
  5
7F76
331
0
  5
7F15
331
0
  5
7F16
331
0
  5
7F17
331
8B0D
  5
7F7E
331
8B0E
  5
7F7F
331
8B0F
  5
7F80
331
0
  5
7F1B
331
0
  5
7F1C
331
0
  5
7F1D
331
8B13
  5
7F88
331
8B14
  5
7F89
331
8B15
  5
7F8A
331
0
  5
7F21
331
0
  5
7F22
331
0
  5
7F23
331
8B19
  5
8000
331
8B1A
  5
8001
331
8B1B
  5
8002
331
0
  5
7F29
331
0
  5
7F2A
331
0
  5
7F2B
331
0
  5
7F2D
331
8B20
  5
800D
331
8B21
  5
800E
331
8B22
  5
800F
331
8B23
  5
8010
331
8B24
  5
801A
331
8B25
  5
801B
331
8B26
  5
801C
331
0
  5
7F6E
331
0
  5
7F6F
331
0
  5
7F70
331
8B2A
  5
8025
331
8B2B
  5
8026
331
8B2C
  5
8027
331
8B2D
  5
8028
331
8B2E
  5
8029
331
8B2F
  5
8084
331
8B30
  5
8085
331
8B31
  5
8086
331
8B32
  5
8087
331
8B33
  5
8088
331
8B34
  5
8089
331
8B35
  5
808A
331
8B36
  5
808B
331
8B37
  5
808C
331
8B38
  5
808D
331
8B39
  5
808E
331
8B3A
  5
808F
331
8B3B
  5
8090
331
8B3C
  5
8091
331
8B3D
  5
8092
331
8B3E
  5
8093
331
8B3F
  5
8095
331
8B40
  5
8096
331
8B41
  5
8097
331
8B42
  5
8098
331
8B43
  5
8099
331
8B44
  5
809A
331
8B45
  5
809B
331
8B46
  5
809C
331
8B47
  5
809D
331
8B48
  5
809E
331
8B49
  5
809F
331
8B4A
  5
80A0
331
8B4B
  5
80A1
331
8B4C
  5
80A2
331
8B4D
  5
80A3
331
8B4E
  5
80A4
331
8B4F
  5
80A5
331
8B50
  5
80A6
331
8B51
  5
80A7
331
8B52
  5
80A8
331
8B53
  5
80A9
331
8B54
  5
80AA
331
8B55
  5
80AB
331
8B56
  5
80AD
331
8B57
  5
80AE
331
8B58
  5
80AF
331
8B59
  5
80B0
331
8B5A
  5
81F1
331
0
  5
8023
331
8B5C
  5
8ADE
331
8B5D
  5
8AE1
331
8B5E
  5
8AE2
331
8B5F
  5
8AE3
331
0
  5
802A
331
0
  5
8081
331
0
  5
8082
331
0
  5
8083
331
8B64
  5
8AEE
331
8B65
  5
8B99
331
8B66
  5
8B9A
331
8B67
  5
8B9B
331
8B68
  5
8B9C
331
8B69
  5
8B9D
331
8B6A
  5
8B9E
331
8B6B
  5
8B9F
331
8B6C
  5
8BA0
331
8B6D
  5
8BA1
331
8B6E
  5
8B79
331
8B6F
  5
8B7A
331
8B70
  5
8B7B
331
8B71
  5
8B7C
331
8B72
  5
8B7D
331
8B73
  5
8B7E
331
8B74
  5
8B7F
331
8B75
  5
8B80
331
8B76
  5
8B81
331
8B77
  5
5678
331
8B78
  5
5679
331
8B79
  5
567A
331
8B7A
  5
7F03
331
8B7B
  5
7F04
331
8B7C
  5
7F05
331
8B7D
  5
7F09
331
8B7E
  5
7F0A
331
8B7F
  5
7F0B
331
8B80
  5
7F10
331
8B81
  5
7F19
331
8B82
  5
7F1A
331
8B83
  5
7F1E
331
8B84
  5
7F1F
331
8B85
  5
7F20
331
8B86
  5
7F24
331
8B87
  5
7F25
331
8B88
  5
7F31
331
8B89
  5
7F32
331
8B8A
  5
7F39
331
8B8B
  5
7F63
331
8B8C
  5
7F64
331
8B8D
  5
7F65
331
8B8E
  5
7F66
331
8B8F
  5
7F6A
331
8B90
  5
7F6B
331
8B91
  5
7F6C
331
8B92
  5
7F6D
331
8B93
  5
7F71
331
8B94
  5
7F72
331
8B95
  5
7F73
331
8B96
  5
7F77
331
8B97
  5
7F78
331
8B98
  5
7F79
331
8B99
  5
7F7A
331
8B9A
  5
7F7B
331
8B9B
  5
7F7C
331
8B9C
  5
7F7D
331
8B9D
  5
7F81
331
8B9E
  5
7F82
331
8B9F
  5
7F83
331
8BA0
  5
7F84
331
8BA1
  5
7F85
331
8BA2
  5
7F86
331
8BA3
  5
7F87
331
8BA4
  5
7F8B
331
8BA5
  5
7F8C
331
8BA6
  5
7F8D
331
8BA7
  5
7F8E
331
8BA8
  5
7F8F
331
8BA9
  5
7FFE
331
8BAA
  5
7FFF
331
8BAB
  5
8003
331
8BAC
  5
8004
331
8BAD
  5
8005
331
8BAE
  5
8006
331
8BAF
  5
8007
331
8BB0
  5
8008
331
8BB1
  5
8009
331
8BB2
  5
800A
331
8BB3
  5
800B
331
8BB4
  5
800C
331
8BB5
  5
801D
331
8BB6
  5
801E
331
8BB7
  5
801F
331
8BB8
  5
8020
331
8BB9
  5
8021
331
8BBA
  5
8022
331
8BBB
  5
8024
331
8BBC
  5
8ADB
331
8BBD
  5
8ADC
331
8BBE
  5
8ADD
331
8BBF
  5
8AE4
331
8BC0
  5
8AE5
331
8BC1
  5
8AE6
331
8BC2
  5
8AE7
331
8BC3
  5
8AE8
331
8BC4
  5
8AE9
331
8BC5
  5
8AEA
331
8BC6
  5
8AEB
331
8BC7
  5
8AEC
331
8BC8
  5
8AED
  0
SORTENTSTABLE
  5
2CDC
102
{ACAD_REACTORS
330
2CDB
102
}
330
2CDB
100
AcDbSortentsTable
330
15
331
57
  5
57
  0
GROUP
  5
7F3A
102
{ACAD_REACTORS
330
D
102
}
330
D
100
AcDbGroup
300

 70
     1
 71
     1
340
7EFD
340
7EFC
340
7EFA
340
7EF9
340
7EF8
340
7EF6
340
7EF5
340
7EF4
340
7F39
340
7EF1
340
7EF0
340
7EEF
340
7EEE
340
7EED
340
7EEC
340
7EEB
340
7EEA
340
7EE9
340
7EE8
340
7EE7
340
7EE6
340
7EE5
340
7EE4
340
7EE3
340
7EE2
340
7EE1
340
7EE0
340
7EDF
340
7EDE
340
7EDD
340
7EDC
340
7EDB
340
7EDA
340
7ED9
340
7F2A
340
7F29
340
7F28
340
7F27
340
7F26
340
7F25
340
7F24
340
7F23
340
7F22
340
7F21
340
7F20
  0
GROUP
  5
7F90
102
{ACAD_REACTORS
330
D
102
}
330
D
100
AcDbGroup
300

 70
     1
 71
     1
340
7F8F
340
7F8E
340
7F8D
340
7F8C
340
7F8B
340
7F8A
340
7F89
340
7F88
340
7F87
340
7F86
340
7F85
340
7F84
340
7F83
340
7F82
340
7F81
340
7F80
340
7F7F
340
7F7E
340
7F7D
340
7F7C
340
7F7B
340
7F7A
340
7F79
340
7F78
340
7F77
340
7F76
340
7F75
340
7F74
340
7F73
340
7F72
340
7F71
340
7F70
340
7F6F
340
7F6E
340
7F6D
340
7F6C
340
7F6B
340
7F6A
340
7F69
340
7F68
340
7F67
340
7F66
340
7F65
340
7F64
340
7F63
  0
GROUP
  5
802B
102
{ACAD_REACTORS
330
D
102
}
330
D
100
AcDbGroup
300

 70
     1
 71
     1
340
802A
340
8029
340
8028
340
8027
340
8026
340
8025
340
8024
340
8023
340
8022
340
8021
340
8020
340
801F
340
801E
340
801D
340
801C
340
801B
340
801A
340
8019
340
8018
340
8017
340
8016
340
8015
340
8014
340
8013
340
8012
340
8011
340
8010
340
800F
340
800E
340
800D
340
800C
340
800B
340
800A
340
8009
340
8008
340
8007
340
8006
340
8005
340
8004
340
8003
340
8002
340
8001
340
8000
340
7FFF
340
7FFE
  0
MATERIAL
  5
6546
102
{ACAD_REACTORS
330
2CF
102
}
102
{ACAD_XDICTIONARY
360
8D67
102
}
330
2CF
100
AcDbMaterial
  1
BYBLOCK
 72
     0
 73
     2
 43
0.0208333333333333
 43
0.0
 43
0.0
 43
0.0
 43
0.0
 43
0.0208333333333333
 43
0.0
 43
0.0
 43
0.0
 43
0.0
 43
1.0
 43
0.0
 43
0.0
 43
0.0
 43
0.0
 43
1.0
 77
     0
 78
     2
 47
0.0208333333333333
 47
0.0
 47
0.0
 47
0.0
 47
0.0
 47
0.0208333333333333
 47
0.0
 47
0.0
 47
0.0
 47
0.0
 47
1.0
 47
0.0
 47
0.0
 47
0.0
 47
0.0
 47
1.0
171
     0
172
     2
 49
0.0208333333333333
 49
0.0
 49
0.0
 49
0.0
 49
0.0
 49
0.0208333333333333
 49
0.0
 49
0.0
 49
0.0
 49
0.0
 49
1.0
 49
0.0
 49
0.0
 49
0.0
 49
0.0
 49
1.0
175
     0
176
     2
142
0.0208333333333333
142
0.0
142
0.0
142
0.0
142
0.0
142
0.0208333333333333
142
0.0
142
0.0
142
0.0
142
0.0
142
1.0
142
0.0
142
0.0
142
0.0
142
0.0
142
1.0
179
     0
270
     2
144
0.0208333333333333
144
0.0
144
0.0
144
0.0
144
0.0
144
0.0208333333333333
144
0.0
144
0.0
144
0.0
144
0.0
144
1.0
144
0.0
144
0.0
144
0.0
144
0.0
144
1.0
274
     2
147
0.0208333333333333
147
0.0
147
0.0
147
0.0
147
0.0
147
0.0208333333333333
147
0.0
147
0.0
147
0.0
147
0.0
147
1.0
147
0.0
147
0.0
147
0.0
147
0.0
147
1.0
  0
MATERIAL
  5
653E
102
{ACAD_REACTORS
330
2CF
102
}
102
{ACAD_XDICTIONARY
360
8D69
102
}
330
2CF
100
AcDbMaterial
  1
BYLAYER
 72
     0
 73
     2
 43
0.0208333333333333
 43
0.0
 43
0.0
 43
0.0
 43
0.0
 43
0.0208333333333333
 43
0.0
 43
0.0
 43
0.0
 43
0.0
 43
1.0
 43
0.0
 43
0.0
 43
0.0
 43
0.0
 43
1.0
 77
     0
 78
     2
 47
0.0208333333333333
 47
0.0
 47
0.0
 47
0.0
 47
0.0
 47
0.0208333333333333
 47
0.0
 47
0.0
 47
0.0
 47
0.0
 47
1.0
 47
0.0
 47
0.0
 47
0.0
 47
0.0
 47
1.0
171
     0
172
     2
 49
0.0208333333333333
 49
0.0
 49
0.0
 49
0.0
 49
0.0
 49
0.0208333333333333
 49
0.0
 49
0.0
 49
0.0
 49
0.0
 49
1.0
 49
0.0
 49
0.0
 49
0.0
 49
0.0
 49
1.0
175
     0
176
     2
142
0.0208333333333333
142
0.0
142
0.0
142
0.0
142
0.0
142
0.0208333333333333
142
0.0
142
0.0
142
0.0
142
0.0
142
1.0
142
0.0
142
0.0
142
0.0
142
0.0
142
1.0
179
     0
270
     2
144
0.0208333333333333
144
0.0
144
0.0
144
0.0
144
0.0
144
0.0208333333333333
144
0.0
144
0.0
144
0.0
144
0.0
144
1.0
144
0.0
144
0.0
144
0.0
144
0.0
144
1.0
274
     2
147
0.0208333333333333
147
0.0
147
0.0
147
0.0
147
0.0
147
0.0208333333333333
147
0.0
147
0.0
147
0.0
147
0.0
147
1.0
147
0.0
147
0.0
147
0.0
147
0.0
147
1.0
  0
MATERIAL
  5
654E
102
{ACAD_REACTORS
330
2CF
102
}
102
{ACAD_XDICTIONARY
360
8D6B
102
}
330
2CF
100
AcDbMaterial
  1
GLOBAL
 72
     0
 73
     2
 43
0.0208333333333333
 43
0.0
 43
0.0
 43
0.0
 43
0.0
 43
0.0208333333333333
 43
0.0
 43
0.0
 43
0.0
 43
0.0
 43
1.0
 43
0.0
 43
0.0
 43
0.0
 43
0.0
 43
1.0
 77
     0
 78
     2
 47
0.0208333333333333
 47
0.0
 47
0.0
 47
0.0
 47
0.0
 47
0.0208333333333333
 47
0.0
 47
0.0
 47
0.0
 47
0.0
 47
1.0
 47
0.0
 47
0.0
 47
0.0
 47
0.0
 47
1.0
171
     0
172
     2
 49
0.0208333333333333
 49
0.0
 49
0.0
 49
0.0
 49
0.0
 49
0.0208333333333333
 49
0.0
 49
0.0
 49
0.0
 49
0.0
 49
1.0
 49
0.0
 49
0.0
 49
0.0
 49
0.0
 49
1.0
175
     0
176
     2
142
0.0208333333333333
142
0.0
142
0.0
142
0.0
142
0.0
142
0.0208333333333333
142
0.0
142
0.0
142
0.0
142
0.0
142
1.0
142
0.0
142
0.0
142
0.0
142
0.0
142
1.0
179
     0
270
     2
144
0.0208333333333333
144
0.0
144
0.0
144
0.0
144
0.0
144
0.0208333333333333
144
0.0
144
0.0
144
0.0
144
0.0
144
1.0
144
0.0
144
0.0
144
0.0
144
0.0
144
1.0
274
     2
147
0.0208333333333333
147
0.0
147
0.0
147
0.0
147
0.0
147
0.0208333333333333
147
0.0
147
0.0
147
0.0
147
0.0
147
1.0
147
0.0
147
0.0
147
0.0
147
0.0
147
1.0
  0
ACAD_PROXY_OBJECT
  5
658A
102
{ACAD_REACTORS
330
6589
102
}
330
6589
100
AcDbZombieObject
 90
      499
 91
      512
 93
      610
310
40901902A4063FBFFFFFE000000000000002040AD7A3703D0AD73F4214DD185B99185C990000000000000104090141901A00000000000004100000000000000041025764000000000000300FC0
340
12
340
0
340
F
340
0
 94
        0
1001
ACAD_MLEADERVER
1070
     2
  0
MLINESTYLE
  5
1C
102
{ACAD_REACTORS
330
1B
102
}
330
1B
100
AcDbMlineStyle
  2
STANDARD
 70
     0
  3

 62
   256
 51
90.0
 52
90.0
 71
     2
 49
0.5
 62
   256
  6
BYLAYER
 49
-0.5
 62
   256
  6
BYLAYER
  0
ACAD_PROXY_OBJECT
  5
6568
102
{ACAD_REACTORS
330
6567
102
}
330
6567
100
AcDbZombieObject
 90
      499
 91
      511
 93
       41
310
903313A31580
  0
ACAD_PROXY_OBJECT
  5
6569
102
{ACAD_REACTORS
330
6567
102
}
330
6567
100
AcDbZombieObject
 90
      499
 91
      511
 93
      105
310
903313A324000000000000004000
  0
ACAD_PROXY_OBJECT
  5
656A
102
{ACAD_REACTORS
330
6567
102
}
330
6567
100
AcDbZombieObject
 90
      499
 91
      511
 93
      105
310
903313A344000000000000104000
  0
ACAD_PROXY_OBJECT
  5
656B
102
{ACAD_REACTORS
330
6567
102
}
330
6567
100
AcDbZombieObject
 90
      499
 91
      511
 93
      105
310
903313A354000000000000144000
  0
ACAD_PROXY_OBJECT
  5
656C
102
{ACAD_REACTORS
330
6567
102
}
330
6567
100
AcDbZombieObject
 90
      499
 91
      511
 93
      105
310
903313A384000000000000204000
  0
ACAD_PROXY_OBJECT
  5
656D
102
{ACAD_REACTORS
330
6567
102
}
330
6567
100
AcDbZombieObject
 90
      499
 91
      511
 93
      113
310
904313A31304000000000000244000
  0
ACAD_PROXY_OBJECT
  5
656E
102
{ACAD_REACTORS
330
6567
102
}
330
6567
100
AcDbZombieObject
 90
      499
 91
      511
 93
      113
310
904313A31364000000000000304000
  0
ACAD_PROXY_OBJECT
  5
656F
102
{ACAD_REACTORS
330
6567
102
}
330
6567
100
AcDbZombieObject
 90
      499
 91
      511
 93
      113
310
904313A32304000000000000344000
  0
ACAD_PROXY_OBJECT
  5
6570
102
{ACAD_REACTORS
330
6567
102
}
330
6567
100
AcDbZombieObject
 90
      499
 91
      511
 93
      113
310
904313A333040000000000003E4000
  0
ACAD_PROXY_OBJECT
  5
6571
102
{ACAD_REACTORS
330
6567
102
}
330
6567
100
AcDbZombieObject
 90
      499
 91
      511
 93
      113
310
904313A34304000000000000444000
  0
ACAD_PROXY_OBJECT
  5
6572
102
{ACAD_REACTORS
330
6567
102
}
330
6567
100
AcDbZombieObject
 90
      499
 91
      511
 93
      113
310
904313A35304000000000000494000
  0
ACAD_PROXY_OBJECT
  5
6573
102
{ACAD_REACTORS
330
6567
102
}
330
6567
100
AcDbZombieObject
 90
      499
 91
      511
 93
      121
310
905313A3130304000000000000594000
  0
ACAD_PROXY_OBJECT
  5
6574
102
{ACAD_REACTORS
330
6567
102
}
330
6567
100
AcDbZombieObject
 90
      499
 91
      511
 93
      105
310
903323A310000000000000010100
  0
ACAD_PROXY_OBJECT
  5
6575
102
{ACAD_REACTORS
330
6567
102
}
330
6567
100
AcDbZombieObject
 90
      499
 91
      511
 93
      105
310
903343A310000000000000410100
  0
ACAD_PROXY_OBJECT
  5
6576
102
{ACAD_REACTORS
330
6567
102
}
330
6567
100
AcDbZombieObject
 90
      499
 91
      511
 93
      105
310
903383A310000000000000810100
  0
ACAD_PROXY_OBJECT
  5
6577
102
{ACAD_REACTORS
330
6567
102
}
330
6567
100
AcDbZombieObject
 90
      499
 91
      511
 93
      113
310
90431303A310000000000000910100
  0
ACAD_PROXY_OBJECT
  5
6578
102
{ACAD_REACTORS
330
6567
102
}
330
6567
100
AcDbZombieObject
 90
      499
 91
      511
 93
      121
310
9053130303A310000000000001650100
  0
ACAD_PROXY_OBJECT
  5
6579
102
{ACAD_REACTORS
330
6567
102
}
330
6567
100
AcDbZombieObject
 90
      499
 91
      511
 93
      257
310
90E312F31323822203D2031272D3022000000000000200FC000000000000284000
  0
ACAD_PROXY_OBJECT
  5
657A
102
{ACAD_REACTORS
330
6567
102
}
330
6567
100
AcDbZombieObject
 90
      499
 91
      511
 93
      249
310
90D312F363422203D2031272D3022000000000000240FC000000000000284000
  0
ACAD_PROXY_OBJECT
  5
657B
102
{ACAD_REACTORS
330
6567
102
}
330
6567
100
AcDbZombieObject
 90
      499
 91
      511
 93
      249
310
90D312F333222203D2031272D3022000000000000280FC000000000000284000
  0
ACAD_PROXY_OBJECT
  5
657C
102
{ACAD_REACTORS
330
6567
102
}
330
6567
100
AcDbZombieObject
 90
      499
 91
      511
 93
      249
310
90D312F313622203D2031272D30220000000000002C0FC000000000000284000
  0
ACAD_PROXY_OBJECT
  5
657D
102
{ACAD_REACTORS
330
6567
102
}
330
6567
100
AcDbZombieObject
 90
      499
 91
      511
 93
      249
310
90D332F333222203D2031272D30220000000000002E0FC000000000000284000
  0
ACAD_PROXY_OBJECT
  5
657E
102
{ACAD_REACTORS
330
6567
102
}
330
6567
100
AcDbZombieObject
 90
      499
 91
      511
 93
      241
310
90C312F3822203D2031272D3022000000000000300FC000000000000284000
  0
ACAD_PROXY_OBJECT
  5
657F
102
{ACAD_REACTORS
330
6567
102
}
330
6567
100
AcDbZombieObject
 90
      499
 91
      511
 93
      249
310
90D332F313622203D2031272D3022000000000000320FC000000000000284000
  0
ACAD_PROXY_OBJECT
  5
6580
102
{ACAD_REACTORS
330
6567
102
}
330
6567
100
AcDbZombieObject
 90
      499
 91
      511
 93
      241
310
90C312F3422203D2031272D3022000000000000340FC000000000000284000
  0
ACAD_PROXY_OBJECT
  5
6581
102
{ACAD_REACTORS
330
6567
102
}
330
6567
100
AcDbZombieObject
 90
      499
 91
      511
 93
      241
310
90C332F3822203D2031272D3022000000000000360FC000000000000284000
  0
ACAD_PROXY_OBJECT
  5
6582
102
{ACAD_REACTORS
330
6567
102
}
330
6567
100
AcDbZombieObject
 90
      499
 91
      511
 93
      241
310
90C312F3222203D2031272D3022000000000000380FC000000000000284000
  0
ACAD_PROXY_OBJECT
  5
6583
102
{ACAD_REACTORS
330
6567
102
}
330
6567
100
AcDbZombieObject
 90
      499
 91
      511
 93
      241
310
90C332F3422203D2031272D30220000000000003A0FC000000000000284000
  0
ACAD_PROXY_OBJECT
  5
6584
102
{ACAD_REACTORS
330
6567
102
}
330
6567
100
AcDbZombieObject
 90
      499
 91
      511
 93
      161
310
90A3122203D2031272D30224000000000000284000
  0
ACAD_PROXY_OBJECT
  5
6585
102
{ACAD_REACTORS
330
6567
102
}
330
6567
100
AcDbZombieObject
 90
      499
 91
      511
 93
      257
310
90E312D312F3222203D2031272D30220000000000003E0FC000000000000284000
  0
ACAD_PROXY_OBJECT
  5
6586
102
{ACAD_REACTORS
330
6567
102
}
330
6567
100
AcDbZombieObject
 90
      499
 91
      511
 93
      225
310
90A3322203D2031272D302200000000000002100000000000000284000
  0
ACAD_PROXY_OBJECT
  5
6587
102
{ACAD_REACTORS
330
6567
102
}
330
6567
100
AcDbZombieObject
 90
      499
 91
      511
 93
      225
310
90A3622203D2031272D302200000000000006100000000000000284000
  0
ACAD_PROXY_OBJECT
  5
6588
102
{ACAD_REACTORS
330
6567
102
}
330
6567
100
AcDbZombieObject
 90
      499
 91
      511
 93
      249
310
90D31272D3022203D2031272D30220000000000000A100000000000000284000
  0
ACAD_PROXY_OBJECT
  5
655C
102
{ACAD_REACTORS
330
6556
102
}
330
6556
100
AcDbZombieObject
 90
      499
 91
      510
 93
      436
310
42CC9915DA5C99599C985B595049028333333333333E3BF0000000000000FB0107901411070040501600405405064090741402480A0340
1001
ACAD
1000
AcDbSavedByObjectVersion
1070
     0
  0
ACAD_PROXY_OBJECT
  5
655E
102
{ACAD_REACTORS
330
6556
102
}
330
6556
100
AcDbZombieObject
 90
      499
 91
      510
 93
      500
310
424CD108121A5919195B90640502408333333333333E3BF0000000000000FB01079024090700405020000000000001110200405405064090740C02480A0340
1001
ACAD
1000
AcDbSavedByObjectVersion
1070
     0
  0
ACAD_PROXY_OBJECT
  5
655D
102
{ACAD_REACTORS
330
6556
102
}
330
6556
100
AcDbZombieObject
 90
      499
 91
      510
 93
      436
310
42CCD915DA5C99599C985B595059028333333333333E3BF0000000000000FB0107901411070040501600405405064090741402480A0340
1001
ACAD
1000
AcDbSavedByObjectVersion
1070
     0
  0
ACAD_PROXY_OBJECT
  5
655B
102
{ACAD_REACTORS
330
6556
102
}
330
6556
100
AcDbZombieObject
 90
      499
 91
      510
 93
      388
310
4150985CDA58D07406404333333333333E3BF0000000000000FB0107A41107004050150841D405064090741402480A0350
1001
ACAD
1000
AcDbSavedByObjectVersion
1070
     0
  0
ACAD_PROXY_OBJECT
  5
6562
102
{ACAD_REACTORS
330
6556
102
}
330
6556
100
AcDbZombieObject
 90
      499
 91
      510
 93
      428
310
42109C9A59DA1D195B90C409028333333333333E3BF0000000000000FB010790141107004050150841D405064090741402480A029950
1001
ACAD
1000
AcDbSavedByObjectVersion
1070
     0
  0
ACAD_PROXY_OBJECT
  5
6566
102
{ACAD_REACTORS
330
6556
102
}
330
6556
100
AcDbZombieObject
 90
      499
 91
      510
 93
      452
310
42D0DBDB1BDC90DA185B99D95104090240C333333333333E3BF0000000000000FB0108901411070040501508421405064090741402480A0350
1001
ACAD
1000
AcDbSavedByObjectVersion
1070
     0
  0
ACAD_PROXY_OBJECT
  5
655F
102
{ACAD_REACTORS
330
6556
102
}
330
6556
100
AcDbZombieObject
 90
      499
 91
      510
 93
      500
310
4290DBDB98D95C1D1D585B10940D028333333333333E3BF0000000000000FB0107902409070040501000000000000111010841D405064090740C02480A0340
1001
ACAD
1000
AcDbSavedByObjectVersion
1070
     0
  0
ACAD_PROXY_OBJECT
  5
6561
102
{ACAD_REACTORS
330
6556
102
}
330
6556
100
AcDbZombieObject
 90
      499
 91
      510
 93
      412
310
40D11A5B50B409028333333333333E3BF0000000000000FB010790141107004050150841D405064090741402480A02677FFFFFD0
1001
ACAD
1000
AcDbSavedByObjectVersion
1070
     0
  0
ACAD_PROXY_OBJECT
  5
6676
102
{ACAD_REACTORS
330
6556
102
}
330
6556
100
AcDbZombieObject
 90
      499
 91
      510
 93
      452
310
43115919D950DBDB1BDC93D999916409028333333333333E3BF0000000000000FB010790141107004050150841D405064090741402480A0350
1001
ACAD
1000
AcDbSavedByObjectVersion
1070
     0
  0
ACAD_PROXY_OBJECT
  5
6565
102
{ACAD_REACTORS
330
6556
102
}
330
6556
100
AcDbZombieObject
 90
      499
 91
      510
 93
      444
310
42D19858D95C185D1D195C9B90F409028333333333333E3BF0000000000000FB010790141107004050150841D405064090741402480A0350
1001
ACAD
1000
AcDbSavedByObjectVersion
1070
     0
  0
ACAD_PROXY_OBJECT
  5
6557
102
{ACAD_REACTORS
330
6556
102
}
330
6556
100
AcDbZombieObject
 90
      499
 91
      510
 93
      388
310
41119B185D240901404333333333333E3BF0000000000000F9010740A41107004050150841D405064090741402480A1B50
1001
ACAD
1000
AcDbSavedByObjectVersion
1070
     0
  0
ACAD_PROXY_OBJECT
  5
6558
102
{ACAD_REACTORS
330
6556
102
}
330
6556
100
AcDbZombieObject
 90
      499
 91
      510
 93
      476
310
43519B185D15DA5D1A115919D95CD0140901404333333333333E3BF0000000000000F9010740901411070040501600405405064090741402480A1B50
1001
ACAD
1000
AcDbSavedByObjectVersion
1070
     0
  0
ACAD_PROXY_OBJECT
  5
6559
102
{ACAD_REACTORS
330
6556
102
}
330
6556
100
AcDbZombieObject
 90
      499
 91
      510
 93
      412
310
41D1DBDD5C985D5910240902404333333333333E3BF0000000000000F9010740A411070040501641D405064090741402480A1B50
1001
ACAD
1000
AcDbSavedByObjectVersion
1070
     0
  0
ACAD_PROXY_OBJECT
  5
655A
102
{ACAD_REACTORS
330
6556
102
}
330
6556
100
AcDbZombieObject
 90
      499
 91
      510
 93
      500
310
4411DBDD5C985D5915DA5D1A115919D95CD0340902404333333333333E3BF0000000000000F9010740901411070040501600405405064090741402480A1B50
1001
ACAD
1000
AcDbSavedByObjectVersion
1070
     0
  0
ACAD_PROXY_OBJECT
  5
81BA
102
{ACAD_REACTORS
330
6556
102
}
330
6556
100
AcDbZombieObject
 90
      499
 91
      510
 93
      476
310
41921A5919195B90640502408333333333333E3BF0000000000000FB01079024090700405020000000000001110200405405064090740C02480A0340
1001
ACAD
1000
AcDbSavedByObjectVersion
1070
     0
  0
ACAD_PROXY_OBJECT
  5
6674
102
{ACAD_REACTORS
330
6556
102
}
330
6556
100
AcDbZombieObject
 90
      499
 91
      510
 93
      428
310
42529A5D1D195C93D999914409028333333333333E3BF0000000000000FB010790141107004050150A41D405064090741402480A0350
1001
ACAD
1000
AcDbSavedByObjectVersion
1070
     0
  0
ACAD_PROXY_OBJECT
  5
6564
102
{ACAD_REACTORS
330
6556
102
}
330
6556
100
AcDbZombieObject
 90
      499
 91
      510
 93
      444
310
42D31A5B995C185D1D195C9B90E409028333333333333E3BF0000000000000FB010790141107004050750841D405064090741402483A0350
1001
ACAD
1000
AcDbSavedByObjectVersion
1070
     0
  0
ACAD_PROXY_OBJECT
  5
8A6C
102
{ACAD_REACTORS
330
6556
102
}
330
6556
100
AcDbZombieObject
 90
      499
 91
      510
 93
      484
310
42135BD9195B1A5B99D0A409038333333333333E33F0000000000000F901074090290700405010000000000201990108421405064090741402480A1B40
1001
ACAD
1000
AcDbSavedByObjectVersion
1070
     0
  0
ACAD_PROXY_OBJECT
  5
6675
102
{ACAD_REACTORS
330
6556
102
}
330
6556
100
AcDbZombieObject
 90
      499
 91
      510
 93
      444
310
42D3DD995C9A185B99D3D999915409028333333333333E3BF0000000000000FB010790141107004050150941D405064090741402480A0350
1001
ACAD
1000
AcDbSavedByObjectVersion
1070
     0
  0
ACAD_PROXY_OBJECT
  5
6560
102
{ACAD_REACTORS
330
6556
102
}
330
6556
100
AcDbZombieObject
 90
      499
 91
      510
 93
      420
310
425499585B1A5CDD1A58D08409028333333333333E3BF0000000000000FB01079019070040501508421405064090741402480A1B40
1001
ACAD
1000
AcDbSavedByObjectVersion
1070
     0
  0
ACAD_PROXY_OBJECT
  5
81BF
102
{ACAD_REACTORS
330
6556
102
}
330
6556
100
AcDbZombieObject
 90
      499
 91
      510
 93
      420
310
4194DA1859195911B40902404333333333333E3BF0000000000000F9010740A41107004050150800405405064090840C02480A0B40
1001
ACAD
1000
AcDbSavedByObjectVersion
1070
     0
  0
ACAD_PROXY_OBJECT
  5
81BE
102
{ACAD_REACTORS
330
6556
102
}
330
6556
100
AcDbZombieObject
 90
      499
 91
      510
 93
      516
310
4454DA18591959081DDA5D1A08195919D95CD1A40902404333333333333E3BF0000000000000F901074090142907004050250800405405064090740C02480A0B40
1001
ACAD
1000
AcDbSavedByObjectVersion
1070
     0
  0
ACAD_PROXY_OBJECT
  5
81BB
102
{ACAD_REACTORS
330
6556
102
}
330
6556
100
AcDbZombieObject
 90
      499
 91
      510
 93
      532
310
4394DA1859195CC81BD98811DC985E5174090240C333333333333E3BF0000000000000FB01079024090741D01000000000000111010841D405064090740C02480A0340
1001
ACAD
1000
AcDbSavedByObjectVersion
1070
     0
  0
ACAD_PROXY_OBJECT
  5
81BC
102
{ACAD_REACTORS
330
6556
102
}
330
6556
100
AcDbZombieObject
 90
      499
 91
      510
 93
      476
310
41D4DAD95D18DA1E51840502408333333333333E3BF0000000000000FB01079024090741D01000000000000111010B41D405064090741802480A0340
1001
ACAD
1000
AcDbSavedByObjectVersion
1070
     0
  0
ACAD_PROXY_OBJECT
  5
6563
102
{ACAD_REACTORS
330
6556
102
}
330
6556
100
AcDbZombieObject
 90
      499
 91
      510
 93
      412
310
41D51A1A58DAD95B90D409028333333333333E3BF0000000000000FB010790141107004050150C41D405064090741402480A0350
1001
ACAD
1000
AcDbSavedByObjectVersion
1070
     0
  0
ACAD_PROXY_OBJECT
  5
81B9
102
{ACAD_REACTORS
330
6556
102
}
330
6556
100
AcDbZombieObject
 90
      499
 91
      510
 93
      420
310
4255DA5C99599C985B595059028333333333333E3BF0000000000000FB0107901411070040501600405405064090740C02480A0340
1001
ACAD
1000
AcDbSavedByObjectVersion
1070
     0
  0
ACAD_PROXY_OBJECT
  5
81BD
102
{ACAD_REACTORS
330
6556
102
}
330
6556
100
AcDbZombieObject
 90
      499
 91
      510
 93
      404
310
41560B54985E51940902404000000000000E03F0000000000000FB010740501907004050150841D405064090740C02480A1B40
1001
ACAD
1000
AcDbSavedByObjectVersion
1070
     0
  0
XRECORD
  5
8BCA
102
{ACAD_REACTORS
330
8BC9
102
}
330
8BC9
100
AcDbXrecord
340
2D0
  0
XRECORD
  5
8BCB
102
{ACAD_REACTORS
330
8BC9
102
}
330
8BC9
100
AcDbXrecord
340
2CF
  0
DICTIONARYVAR
  5
6670
102
{ACAD_REACTORS
330
37
102
}
330
37
100
DictionaryVariables
280
     0
  1
1:1
  0
DICTIONARYVAR
  5
666F
102
{ACAD_REACTORS
330
37
102
}
330
37
100
DictionaryVariables
280
     0
  1
Standard
  0
DICTIONARYVAR
  5
4FB
102
{ACAD_REACTORS
330
37
102
}
330
37
100
DictionaryVariables
280
     0
  1
Standard
  0
DICTIONARYVAR
  5
38
102
{ACAD_REACTORS
330
37
102
}
330
37
100
DictionaryVariables
280
     0
  1
-1
  0
DICTIONARYVAR
  5
408
102
{ACAD_REACTORS
330
37
102
}
330
37
100
DictionaryVariables
280
     0
  1
2
  0
DICTIONARYVAR
  5
56F
102
{ACAD_REACTORS
330
37
102
}
330
37
100
DictionaryVariables
280
     0
  1
1
  0
DICTIONARYVAR
  5
6672
102
{ACAD_REACTORS
330
37
102
}
330
37
100
DictionaryVariables
280
     0
  1
0
  0
DICTIONARYVAR
  5
573
102
{ACAD_REACTORS
330
37
102
}
330
37
100
DictionaryVariables
280
     0
  1
8
  0
DICTIONARYVAR
  5
572
102
{ACAD_REACTORS
330
37
102
}
330
37
100
DictionaryVariables
280
     0
  1
1
  0
DICTIONARYVAR
  5
8AD4
102
{ACAD_REACTORS
330
37
102
}
330
37
100
DictionaryVariables
280
     0
  1
0
  0
DICTIONARYVAR
  5
570
102
{ACAD_REACTORS
330
37
102
}
330
37
100
DictionaryVariables
280
     0
  1
8
  0
DICTIONARYVAR
  5
571
102
{ACAD_REACTORS
330
37
102
}
330
37
100
DictionaryVariables
280
     0
  1
2
  0
DICTIONARYVAR
  5
409
102
{ACAD_REACTORS
330
37
102
}
330
37
100
DictionaryVariables
280
     0
  1

  0
DICTIONARYVAR
  5
6671
102
{ACAD_REACTORS
330
37
102
}
330
37
100
DictionaryVariables
280
     0
  1
127
  0
DICTIONARYVAR
  5
8A6B
102
{ACAD_REACTORS
330
37
102
}
330
37
100
DictionaryVariables
280
     0
  1
2
  0
DICTIONARY
  5
8D67
330
6546
100
AcDbDictionary
  3
ACAD_XREC_ROUNDTRIP
360
8D68
1001
ACAD
1000
TREAT_AS_HARD
1070
     1
  0
DICTIONARY
  5
8D69
330
653E
100
AcDbDictionary
  3
ACAD_XREC_ROUNDTRIP
360
8D6A
1001
ACAD
1000
TREAT_AS_HARD
1070
     1
  0
DICTIONARY
  5
8D6B
330
654E
100
AcDbDictionary
  3
ACAD_XREC_ROUNDTRIP
360
8D6C
1001
ACAD
1000
TREAT_AS_HARD
1070
     1
  0
XRECORD
  5
8D68
102
{ACAD_REACTORS
330
8D67
102
}
330
8D67
100
AcDbXrecord
102
MATERIAL
148
0.0
149
0.0
149
0.0
 93
        0
 94
      127
282
     0
 72
     0
 77
     0
171
     0
175
     0
179
     0
273
     0
  0
XRECORD
  5
8D6A
102
{ACAD_REACTORS
330
8D69
102
}
330
8D69
100
AcDbXrecord
102
MATERIAL
148
0.0
149
0.0
149
0.0
 93
        0
 94
      127
282
     0
 72
     0
 77
     0
171
     0
175
     0
179
     0
273
     0
  0
XRECORD
  5
8D6C
102
{ACAD_REACTORS
330
8D6B
102
}
330
8D6B
100
AcDbXrecord
102
MATERIAL
148
0.0
149
0.0
149
0.0
 93
        0
 94
      127
282
     0
 72
     0
 77
     0
171
     0
175
     0
179
     0
273
     0
  0
ENDSEC
  0
EOF
