  0
SECTION
  2
HEADER
  9
$ACADVER
  1
AC1009
  9
$INSBASE
 10
0.0
 20
0.0
 30
0.0
  9
$EXTMIN
 10
-397.80773221840832
 20
-221.60882834460361
 30
0.0
  9
$EXTMAX
 10
103.4441501265521
 20
77.808115808479457
 30
0.0
  9
$LIMMIN
 10
0.0
 20
0.0
  9
$LIMMAX
 10
420.0
 20
297.0
  9
$ORTHOMODE
 70
     0
  9
$REGENMODE
 70
     1
  9
$FILLMODE
 70
     1
  9
$QTEXTMODE
 70
     0
  9
$MIRRTEXT
 70
     0
  9
$DRAGMODE
 70
     2
  9
$LTSCALE
 40
0.5
  9
$OSMODE
 70
    63
  9
$ATTMODE
 70
     1
  9
$TEXTSIZE
 40
4.0
  9
$TRACEWID
 40
1.0
  9
$TEXTSTYLE
  7
STANDARD
  9
$CLAYER
  8
1TEXT
  9
$CELTYPE
  6
BYLAYER
  9
$CECOLOR
 62
   256
  9
$DIMSCALE
 40
1.0
  9
$DIMASZ
 40
2.0
  9
$DIMEXO
 40
0.0
  9
$DIMDLI
 40
7.0
  9
$DIMRND
 40
0.0
  9
$DIMDLE
 40
0.0
  9
$DIMEXE
 40
1.0
  9
$DIMTP
 40
0.0
  9
$DIMTM
 40
0.0
  9
$DIMTXT
 40
3.5
  9
$DIMCEN
 40
0.0
  9
$DIMTSZ
 40
0.0
  9
$DIMTOL
 70
     0
  9
$DIMLIM
 70
     0
  9
$DIMTIH
 70
     0
  9
$DIMTOH
 70
     0
  9
$DIMSE1
 70
     0
  9
$DIMSE2
 70
     0
  9
$DIMTAD
 70
     1
  9
$DIMZIN
 70
     8
  9
$DIMBLK
  1

  9
$DIMASO
 70
     1
  9
$DIMSHO
 70
     1
  9
$DIMPOST
  1
 
  9
$DIMAPOST
  1

  9
$DIMALT
 70
     0
  9
$DIMALTD
 70
     2
  9
$DIMALTF
 40
25.399999999999999
  9
$DIMLFAC
 40
1.0
  9
$DIMTOFL
 70
     1
  9
$DIMTVP
 40
0.0
  9
$DIMTIX
 70
     0
  9
$DIMSOXD
 70
     0
  9
$DIMSAH
 70
     1
  9
$DIMBLK1
  1
OPEN30
  9
$DIMBLK2
  1
OPEN30
  9
$DIMSTYLE
  2
NEWX10
  9
$DIMCLRD
 70
   256
  9
$DIMCLRE
 70
   256
  9
$DIMCLRT
 70
   201
  9
$DIMTFAC
 40
0.7
  9
$DIMGAP
 40
0.7
  9
$LUNITS
 70
     2
  9
$LUPREC
 70
     4
  9
$SKETCHINC
 40
1.0
  9
$FILLETRAD
 40
0.0
  9
$AUNITS
 70
     0
  9
$AUPREC
 70
     2
  9
$MENU
  1
acad
  9
$ELEVATION
 40
0.0
  9
$PELEVATION
 40
0.0
  9
$THICKNESS
 40
0.0
  9
$LIMCHECK
 70
     0
  9
$BLIPMODE
 70
     0
  9
$CHAMFERA
 40
10.0
  9
$CHAMFERB
 40
10.0
  9
$SKPOLY
 70
     0
  9
$TDCREATE
 40
2451318.621352917
  9
$TDUPDATE
 40
2457028.4679680211
  9
$TDINDWG
 40
1.1359865856
  9
$TDUSRTIMER
 40
1.1359865856
  9
$USRTIMER
 70
     1
  9
$ANGBASE
 50
0.0
  9
$ANGDIR
 70
     0
  9
$PDMODE
 70
     0
  9
$PDSIZE
 40
0.0
  9
$PLINEWID
 40
0.0
  9
$COORDS
 70
     0
  9
$SPLFRAME
 70
     0
  9
$SPLINETYPE
 70
     6
  9
$SPLINESEGS
 70
     8
  9
$ATTDIA
 70
     0
  9
$ATTREQ
 70
     1
  9
$HANDLING
 70
     1
  9
$HANDSEED
  5
138EB
  9
$SURFTAB1
 70
     6
  9
$SURFTAB2
 70
     6
  9
$SURFTYPE
 70
     6
  9
$SURFU
 70
     6
  9
$SURFV
 70
     6
  9
$UCSNAME
  2

  9
$UCSORG
 10
0.0
 20
0.0
 30
0.0
  9
$UCSXDIR
 10
1.0
 20
0.0
 30
0.0
  9
$UCSYDIR
 10
0.0
 20
1.0
 30
0.0
  9
$PUCSNAME
  2

  9
$PUCSORG
 10
0.0
 20
0.0
 30
0.0
  9
$PUCSXDIR
 10
1.0
 20
0.0
 30
0.0
  9
$PUCSYDIR
 10
0.0
 20
1.0
 30
0.0
  9
$USERI1
 70
     0
  9
$USERI2
 70
     0
  9
$USERI3
 70
     0
  9
$USERI4
 70
     0
  9
$USERI5
 70
     0
  9
$USERR1
 40
0.0
  9
$USERR2
 40
0.0
  9
$USERR3
 40
0.0
  9
$USERR4
 40
0.0
  9
$USERR5
 40
0.0
  9
$WORLDVIEW
 70
     1
  9
$SHADEDGE
 70
     3
  9
$SHADEDIF
 70
    70
  9
$TILEMODE
 70
     1
  9
$MAXACTVP
 70
    48
  9
$PLIMCHECK
 70
     0
  9
$PEXTMIN
 10
1.0000000000000000E+020
 20
1.0000000000000000E+020
 30
1.0000000000000000E+020
  9
$PEXTMAX
 10
-1.0000000000000000E+020
 20
-1.0000000000000000E+020
 30
-1.0000000000000000E+020
  9
$PLIMMIN
 10
0.0
 20
0.0
  9
$PLIMMAX
 10
420.0
 20
297.0
  9
$UNITMODE
 70
     0
  9
$VISRETAIN
 70
     1
  9
$PLINEGEN
 70
     0
  9
$PSLTSCALE
 70
     1
  0
ENDSEC
  0
SECTION
  2
TABLES
  0
TABLE
  2
VPORT
 70
     1
  0
VPORT
  2
*ACTIVE
 70
     0
 10
0.0
 20
0.0
 11
1.0
 21
1.0
 12
-147.1656832958929
 22
-71.904209732011623
 13
0.0
 23
0.0
 14
10.0
 24
10.0
 15
10.0
 25
10.0
 16
0.0
 26
0.0
 36
1.0
 17
0.0
 27
0.0
 37
0.0
 40
317.54443630243202
 41
2.1749379652605461
 42
50.0
 43
0.0
 44
0.0
 50
0.0
 51
0.0
 71
     0
 72
   100
 73
     1
 74
     1
 75
     0
 76
     0
 77
     0
 78
     0
  0
ENDTAB
  0
TABLE
  2
LTYPE
 70
    13
  0
LTYPE
  2
CONTINUOUS
 70
     0
  3
Solid line
 72
    65
 73
     0
 40
0.0
  0
LTYPE
  2
XREF1|CENTER2
 70
    48
  3
Center (.5x) ___ _ ___ _ ___ _ ___ _ ___ _ ___
 72
    65
 73
     4
 40
28.574999999999999
 49
19.050000000000001
 49
-3.1749999999999989
 49
3.1749999999999989
 49
-3.1749999999999989
  0
LTYPE
  2
A3WAKUDAKE|CENTER2
 70
    48
  3
Center (.5x) ___ _ ___ _ ___ _ ___ _ ___ _ ___
 72
    65
 73
     4
 40
28.574999999999999
 49
19.050000000000001
 49
-3.1749999999999989
 49
3.1749999999999989
 49
-3.1749999999999989
  0
ENDTAB
  0
TABLE
  2
LAYER
 70
    43
  0
LAYER
  2
0
 70
     0
 62
     7
  6
CONTINUOUS
  0
LAYER
  2
1TEXT
 70
     0
 62
     7
  6
CONTINUOUS
  0
LAYER
  2
01
 70
     0
 62
     1
  6
CONTINUOUS
  0
LAYER
  2
A3WAKUDAKE|THICK
 70
    48
 62
     7
  6
CONTINUOUS
  0
LAYER
  2
A3WAKUDAKE|POINT
 70
    48
 62
     7
  6
CONTINUOUS
  0
LAYER
  2
A3WAKUDAKE|1CENTER
 70
    48
 62
     7
  6
A3WAKUDAKE|CENTER2
  0
LAYER
  2
A3WAKUDAKE|0-6
 70
    48
 62
     7
  6
CONTINUOUS
  0
LAYER
  2
A3WAKUDAKE|1DIM
 70
    48
 62
     7
  6
CONTINUOUS
  0
LAYER
  2
XREF1|1CENTER
 70
    48
 62
     7
  6
XREF1|CENTER2
  0
ENDTAB
  0
TABLE
  2
STYLE
 70
     5
  0
STYLE
  2
STANDARD
 70
     0
 40
0.0
 41
1.0
 50
0.0
 71
     0
 42
4.0
  3
romans.shx
  4
extfont2.shx
  0
ENDTAB
  0
TABLE
  2
VIEW
 70
     5
  0
ENDTAB
  0
TABLE
  2
UCS
 70
     0
  0
ENDTAB
  0
TABLE
  2
APPID
 70
    13
  0
APPID
  2
ACAD
 70
     0
  0
APPID
  2
DRAWINGVARIABLESXDATA
 70
     0
  0
APPID
  2
CONTENTTABDATA
 70
     0
  0
APPID
  2
CONTENTCURRENTTAB
 70
     0
  0
APPID
  2
CONTENTBLOCKDESCRIPTION
 70
     0
  0
APPID
  2
CONTENTBLOCKICON
 70
     0
  0
APPID
  2
CONTENTLONGBLOCKNAME
 70
     0
  0
APPID
  2
ACAD_PSEXT
 70
     0
  0
APPID
  2
ACAD_MLEADERVER
 70
     0
  0
APPID
  2
ACAD_EXEMPT_FROM_CAD_STANDARDS
 70
     0
  0
APPID
  2
ACAECLAYERSTANDARD
 70
     0
  0
APPID
  2
ACADANNOTATIVE
 70
     0
  0
APPID
  2
ACAD_DSTYLE_DIMRADIAL_EXTENSION
 70
     0
  0
ENDTAB
  0
TABLE
  2
DIMSTYLE
 70
     9
  0
DIMSTYLE
  2
NEWX10
 70
     0
  3
 
  4

  5

  6
OPEN30
  7
OPEN30
 40
1.0
 41
2.0
 42
0.0
 43
7.0
 44
1.0
 45
0.0
 46
0.0
 47
0.0
 48
0.0
140
3.5
141
0.0
142
0.0
143
25.399999999999999
144
1.0
145
0.0
146
0.7
147
0.7
 71
     0
 72
     0
 73
     0
 74
     0
 75
     0
 76
     0
 77
     1
 78
     8
170
     0
171
     2
172
     1
173
     1
174
     0
175
     0
176
   256
177
   256
178
   201
  0
ENDTAB
  0
ENDSEC
  0
SECTION
  2
BLOCKS
  0
BLOCK
  8
0
  2
$MODEL_SPACE
 70
     0
 10
0.0
 20
0.0
 30
0.0
  3
$MODEL_SPACE
  1

  0
ENDBLK
  5
1A
  8
0
  0
BLOCK
 67
     1
  8
0
  2
$PAPER_SPACE
 70
     0
 10
0.0
 20
0.0
 30
0.0
  3
$PAPER_SPACE
  1

  0
ENDBLK
  5
17
 67
     1
  8
0
  0
BLOCK
  8
0
  2
_OPEN30
 70
     0
 10
0.0
 20
0.0
 30
0.0
  3
_OPEN30
  1

  0
LINE
  5
44
  8
0
  6
BYBLOCK
 62
     0
 10
-1.0
 20
0.26794919
 30
0.0
 11
0.0
 21
0.0
 31
0.0
  0
LINE
  5
45
  8
0
  6
BYBLOCK
 62
     0
 10
0.0
 20
0.0
 30
0.0
 11
-1.0
 21
-0.26794919
 31
0.0
  0
LINE
  5
46
  8
0
  6
BYBLOCK
 62
     0
 10
0.0
 20
0.0
 30
0.0
 11
-1.0
 21
0.0
 31
0.0
  0
ENDBLK
  5
47
  8
0
  0
BLOCK
  8
0
  2
XREF1
 70
    36
 10
0.0
 20
0.0
 30
0.0
  3
XREF1
  1
D:\ACLT\FORMAT\KAWAJUN(9)図面用.dwg
  0
ENDBLK
  5
5D
  8
0
  0
BLOCK
  8
0
  2
A3WAKUDAKE
 70
    36
 10
0.0
 20
0.0
 30
0.0
  3
A3WAKUDAKE
  1
D:\ACLT\FORMAT\A3WAKUdake.dwg
  0
ENDBLK
  5
6A0
  8
0
  0
ENDSEC
  0
SECTION
  2
ENTITIES
  0
LINE
  5
FF2E
  8
01
 10
43.54266883228194
 20
-108.68042643683491
 30
0.0
 11
43.54266883228194
 21
-130.8304264368364
 31
0.0
  0
LINE
  5
FF2F
  8
01
 10
43.54266883228194
 20
-111.1804264368356
 30
0.0
 11
43.54266883228194
 21
-128.83042643683501
 31
0.0
  0
TEXT
  5
FF31
  8
01
 10
-240.45311572054891
 20
59.308115808479378
 30
0.0
 40
4.0
  1
表面処理：本体
 72
     1
 11
-224.1864490538822
 21
59.308115808479378
 31
0.0
  0
LINE
  5
FF32
  8
01
 10
-241.58644905388229
 20
64.808115808479386
 30
0.0
 11
-136.58644905388229
 21
64.808115808479386
 31
0.0
  0
LINE
  5
FF33
  8
01
 10
-241.58644905388229
 20
50.808115808479393
 30
0.0
 11
-136.58644905388249
 21
50.808115808479393
 31
0.0
  0
LINE
  5
FF34
  8
01
 10
-241.58644905388229
 20
57.808115808479378
 30
0.0
 11
-136.5864490538824
 21
57.808115808479378
 31
0.0
  0
LINE
  5
FF35
  8
01
 10
-206.58644905388229
 20
64.808115808479386
 30
0.0
 11
-206.586449053883
 21
43.808115808479393
 31
0.0
  0
LINE
  5
FF37
  8
01
 10
-241.58644905388229
 20
43.808115808479393
 30
0.0
 11
-241.58644905388229
 21
64.808115808479386
 31
0.0
  0
LINE
  5
FF38
  8
01
 10
-171.5864490538826
 20
43.808115808479393
 30
0.0
 11
-171.58644905388229
 21
64.808115808479386
 31
0.0
  0
TEXT
  5
FF39
  8
01
 10
-241.58644905388229
 20
69.808115808479386
 30
0.0
 40
8.0
  1
SC-31W-X
  0
TEXT
  5
FF3A
  8
01
 10
-233.25311572054881
 20
52.472827148955112
 30
0.0
 40
4.0
  1
クローム
 72
     1
 11
-224.1864490538822
 21
52.472827148955112
 31
0.0
  0
LINE
  5
FF3C
  8
01
 10
-241.58644905388229
 20
43.808115808479393
 30
0.0
 11
-136.5864490538826
 21
43.808115808479393
 31
0.0
  0
LINE
  5
FF3E
  8
01
 10
56.042668832281947
 20
-76.602252851553658
 30
0.0
 11
56.042668832281947
 21
-151.05860002211739
 31
0.0
  0
LINE
  5
FF3F
  8
01
 10
65.042668832281933
 20
-76.602252851553658
 30
0.0
 11
65.042668832281933
 21
-151.05860002211739
 31
0.0
  0
LINE
  5
FF40
  8
01
 10
43.54266883228194
 20
-76.602252851553658
 30
0.0
 11
43.54266883228194
 21
-151.05860002211739
 31
0.0
  0
LINE
  5
FF4C
  8
01
 10
-151.80773236530749
 20
6.1961983306459913
 30
0.0
 11
-152.8077320653075
 21
7.1961983306459913
 31
0.0
  0
LINE
  5
FF4D
  8
01
 10
-148.50773221530761
 20
6.1961983306459913
 30
0.0
 11
-148.50773221530761
 21
7.1961983306459913
 31
0.0
  0
LINE
  5
FF4E
  8
01
 10
-148.50773221530761
 20
7.1961983306459913
 30
0.0
 11
-156.10773221530749
 21
7.1961983306459913
 31
0.0
  0
LINE
  5
FF4F
  8
01
 10
-148.50773221530761
 20
6.1961983306459913
 30
0.0
 11
-156.10773221530749
 21
6.1961983306459913
 31
0.0
  0
LINE
  5
FF50
  8
01
 10
-156.10773221530749
 20
6.1961983306459913
 30
0.0
 11
-156.10773221530749
 21
7.1961983306459913
 31
0.0
  0
LINE
  5
FF5E
  8
01
 10
39.542668832281947
 20
-123.33042628994011
 30
0.0
 11
40.54266883228194
 21
-122.3304265899401
 31
0.0
  0
LINE
  5
FF5F
  8
01
 10
39.542668832281947
 20
-126.63042643994
 30
0.0
 11
40.54266883228194
 21
-126.63042643994
 31
0.0
  0
LINE
  5
FF60
  8
01
 10
40.54266883228194
 20
-126.63042643994
 30
0.0
 11
40.54266883228194
 21
-119.0304264399401
 31
0.0
  0
LINE
  5
FF61
  8
01
 10
39.542668832281947
 20
-126.63042643994
 30
0.0
 11
39.542668832281947
 21
-119.0304264399401
 31
0.0
  0
LINE
  5
FF62
  8
01
 10
39.542668832281947
 20
-119.0304264399401
 30
0.0
 11
40.54266883228194
 21
-119.0304264399401
 31
0.0
  0
CIRCLE
  5
10261
  8
01
 10
-20.6911634255693
 20
-164.10882834460361
 30
0.0
 40
18.5
  0
CIRCLE
  5
10262
  8
01
 10
-20.6911634255693
 20
-164.10882834460361
 30
0.0
 40
57.5
  0
LINE
  5
10263
  8
01
 10
-139.457331167718
 20
-106.60882834460349
 30
0.0
 11
-139.45733116771851
 21
-221.60882834460361
 31
0.0
  0
LINE
  5
10264
  8
01
 10
-253.457331167718
 20
-106.60882834460349
 30
0.0
 11
-253.4573311677176
 21
-221.60882834460361
 31
0.0
  0
LINE
  5
10265
  8
01
 10
-139.457331167718
 20
-106.60882834460349
 30
0.0
 11
-253.457331167718
 21
-106.60882834460349
 31
0.0
  0
LINE
  5
10266
  8
01
 10
-139.45733116771851
 20
-221.60882834460361
 30
0.0
 11
-253.4573311677176
 21
-221.60882834460361
 31
0.0
  0
LINE
  5
1056F
  8
01
 10
-132.8077322184082
 20
-116.2353888638538
 30
0.0
 11
-143.30773221840749
 21
-116.2353888638538
 31
0.0
  0
LINE
  5
10570
  8
01
 10
-144.30773221840721
 20
-132.83042643683601
 30
0.0
 11
-254.8077322184071
 21
-132.83042643683601
 31
0.0
  0
CIRCLE
  5
10572
  8
01
 10
-152.3077322184119
 20
-122.8304264368364
 30
0.0
 40
4.499999999997498
  0
CIRCLE
  5
10573
  8
01
 10
-152.3077322184119
 20
-122.8304264368364
 30
0.0
 40
2.25
  0
CIRCLE
  5
10574
  8
01
 10
-235.3077322184119
 20
-122.8304264368364
 30
0.0
 40
4.499999999997498
  0
CIRCLE
  5
10575
  8
01
 10
-235.3077322184119
 20
-122.8304264368364
 30
0.0
 40
2.25
  0
LINE
  5
10576
  8
01
 10
-228.33107577614209
 20
-122.8304264368364
 30
0.0
 11
-242.28438866068171
 21
-122.8304264368364
 31
0.0
  0
LINE
  5
10577
  8
01
 10
-235.3077322184119
 20
-115.8537699945666
 30
0.0
 11
-235.3077322184119
 21
-129.80708287910619
 31
0.0
  0
LINE
  5
10578
  8
01
 10
-145.33107577614209
 20
-122.8304264368364
 30
0.0
 11
-159.28438866068171
 21
-122.8304264368364
 31
0.0
  0
LINE
  5
10579
  8
01
 10
-152.3077322184119
 20
-115.8537699945666
 30
0.0
 11
-152.3077322184119
 21
-129.80708287910619
 31
0.0
  0
LINE
  5
1057A
  8
01
 10
-254.80773221840829
 20
-95.712566378289679
 30
0.0
 11
-275.8077322184082
 21
-95.712566378290248
 31
0.0
  0
LINE
  5
1057B
  8
01
 10
-254.80773221840829
 20
-152.920663640393
 30
0.0
 11
-275.80773221840673
 21
-152.920663640393
 31
0.0
  0
LINE
  5
1057C
  8
01
 10
-254.80773221840639
 20
-160.96413029314061
 30
0.0
 11
-275.80773221840639
 21
-160.96413029314061
 31
0.0
  0
LINE
  5
1057D
  8
01
 10
-137.9573311677207
 20
-145.5836086850843
 30
0.0
 11
-254.9573311677153
 21
-145.5836086850843
 31
0.0
  0
LINE
  5
1057E
  8
01
 10
-254.80773221840829
 20
-95.712566378289679
 30
0.0
 11
-254.80773221840639
 21
-160.96413029314061
 31
0.0
  0
LINE
  5
1057F
  8
01
 10
-143.30773221840749
 20
-116.2353888638538
 30
0.0
 11
-143.30773221840721
 21
-131.83042643683589
 31
0.0
  0
ARC
  5
10580
  8
01
 10
-144.30773221840721
 20
-131.83042643683601
 30
0.0
 40
1.0
 50
270.0
 51
0.0
  0
LINE
  5
10581
  8
01
 10
-275.80773221840832
 20
-95.712566378290248
 30
0.0
 11
-275.80773221840639
 21
-160.96413029314121
 31
0.0
  0
LINE
  5
10582
  8
01
 10
-133.55773221841551
 20
-97.900471348783938
 30
0.0
 11
-133.55773221841551
 21
-111.0961364966422
 31
0.0
  0
LINE
  5
10583
  8
01
 10
-254.0577322184119
 20
-97.900471348783938
 30
0.0
 11
-254.0577322184119
 21
-111.0961364966418
 31
0.0
  0
ARC
  5
10584
  8
01
 10
-252.0577322184119
 20
-111.0961364966418
 30
0.0
 40
2.0
 50
180.0
 51
270.0
  0
LINE
  5
10585
  8
01
 10
-135.55773221841551
 20
-113.0961364966422
 30
0.0
 11
-252.0577322184119
 21
-113.0961364966418
 31
0.0
  0
ARC
  5
10586
  8
01
 10
-135.55773221841551
 20
-111.0961364966422
 30
0.0
 40
2.0
 50
270.0
 51
0.0
  0
LINE
  5
10587
  8
01
 10
-133.55773221841551
 20
-97.900471348783938
 30
0.0
 11
-254.0577322184119
 21
-97.900471348783938
 31
0.0
  0
LINE
  5
10588
  8
01
 10
-132.80773221841011
 20
-100.41241916762669
 30
0.0
 11
-132.8077322184082
 21
-116.2353888638538
 31
0.0
  0
LINE
  5
10589
  8
01
 10
-132.80773221841011
 20
-100.41241916762669
 30
0.0
 11
-133.55773221841551
 21
-100.41241916762669
 31
0.0
  0
LINE
  5
1058E
  8
01
 10
-254.05773221841369
 20
-100.4124191676262
 30
0.0
 11
-254.80773221840829
 21
-100.41241916762669
 31
0.0
  0
LINE
  5
1058F
  8
01
 10
-132.80773221841369
 20
-138.1915511736872
 30
0.0
 11
-132.8077322184119
 21
-158.3379772983123
 31
0.0
  0
LINE
  5
10590
  8
01
 10
-132.8077322184119
 20
-158.3379772983123
 30
0.0
 11
-254.80773221840639
 21
-158.3379772983123
 31
0.0
  0
LINE
  5
10591
  8
01
 10
-132.80773221841369
 20
-152.97566619647731
 30
0.0
 11
-254.80773221840639
 21
-152.97566619647731
 31
0.0
  0
LINE
  5
10592
  8
01
 10
-137.80773221841369
 20
-138.1915511736872
 30
0.0
 11
-137.80773221841559
 21
-146.48616168290761
 31
0.0
  0
LINE
  5
10593
  8
01
 10
-132.80773221841369
 20
-138.1915511736872
 30
0.0
 11
-137.80773221841369
 21
-138.1915511736872
 31
0.0
  0
LINE
  5
105F2
  8
01
 10
-397.80773221840832
 20
-116.2353888638538
 30
0.0
 11
-387.30773221840889
 21
-116.2353888638538
 31
0.0
  0
LINE
  5
105F3
  8
01
 10
-386.30773221840928
 20
-132.83042643683601
 30
0.0
 11
-275.8077322184094
 21
-132.83042643683601
 31
0.0
  0
CIRCLE
  5
105F5
  8
01
 10
-378.30773221840462
 20
-122.8304264368364
 30
0.0
 40
4.499999999997498
  0
CIRCLE
  5
105F6
  8
01
 10
-378.30773221840462
 20
-122.8304264368364
 30
0.0
 40
2.25
  0
CIRCLE
  5
105F7
  8
01
 10
-295.30773221840462
 20
-122.8304264368364
 30
0.0
 40
4.499999999997498
  0
CIRCLE
  5
105F8
  8
01
 10
-295.30773221840462
 20
-122.8304264368364
 30
0.0
 40
2.25
  0
LINE
  5
105F9
  8
01
 10
-302.28438866067438
 20
-122.8304264368364
 30
0.0
 11
-288.33107577613481
 21
-122.8304264368364
 31
0.0
  0
LINE
  5
105FA
  8
01
 10
-295.30773221840462
 20
-115.8537699945666
 30
0.0
 11
-295.30773221840462
 21
-129.80708287910619
 31
0.0
  0
LINE
  5
105FB
  8
01
 10
-385.28438866067449
 20
-122.8304264368364
 30
0.0
 11
-371.33107577613481
 21
-122.8304264368364
 31
0.0
  0
LINE
  5
105FC
  8
01
 10
-378.30773221840462
 20
-115.8537699945666
 30
0.0
 11
-378.30773221840462
 21
-129.80708287910619
 31
0.0
  0
LINE
  5
105FD
  8
01
 10
-392.80773221840099
 20
-145.5836086850843
 30
0.0
 11
-275.80773221840639
 21
-145.5836086850843
 31
0.0
  0
LINE
  5
105FE
  8
01
 10
-387.30773221840889
 20
-116.2353888638538
 30
0.0
 11
-387.30773221840928
 21
-131.83042643683589
 31
0.0
  0
ARC
  5
105FF
  8
01
 10
-386.30773221840928
 20
-131.83042643683601
 30
0.0
 40
1.0
 50
180.0
 51
270.0
  0
LINE
  5
10606
  8
01
 10
-397.8077322184065
 20
-100.41241916762669
 30
0.0
 11
-397.80773221840832
 21
-116.2353888638538
 31
0.0
  0
LINE
  5
10607
  8
01
 10
-397.8077322184065
 20
-100.41241916762669
 30
0.0
 11
-397.05773221840099
 21
-100.41241916762669
 31
0.0
  0
LINE
  5
10609
  8
01
 10
-397.80773221840832
 20
-110.8730777620123
 30
0.0
 11
-397.05773221840082
 21
-110.8730777620123
 31
0.0
  0
LINE
  5
1060C
  8
01
 10
-276.5577322184028
 20
-100.4124191676262
 30
0.0
 11
-275.80773221840832
 21
-100.41241916762669
 31
0.0
  0
LINE
  5
1060D
  8
01
 10
-397.8077322184028
 20
-138.1915511736872
 30
0.0
 11
-397.80773221840462
 21
-158.3379772983123
 31
0.0
  0
LINE
  5
1060E
  8
01
 10
-397.80773221840462
 20
-158.3379772983123
 30
0.0
 11
-275.80773221841008
 21
-158.3379772983123
 31
0.0
  0
LINE
  5
1060F
  8
01
 10
-397.8077322184028
 20
-152.97566619647731
 30
0.0
 11
-275.80773221841008
 21
-152.97566619647731
 31
0.0
  0
LINE
  5
10610
  8
01
 10
-392.8077322184028
 20
-138.1915511736872
 30
0.0
 11
-392.80773221840087
 21
-146.48616168290761
 31
0.0
  0
LINE
  5
10611
  8
01
 10
-397.8077322184028
 20
-138.1915511736872
 30
0.0
 11
-392.8077322184028
 21
-138.1915511736872
 31
0.0
  0
LINE
  5
10689
  8
01
 10
-275.8077322184082
 20
-65.885444856079999
 30
0.0
 11
-275.8077322184082
 21
7.9285324040102552
 31
0.0
  0
LINE
  5
1068A
  8
01
 10
-254.8077322184082
 20
-65.885444856079999
 30
0.0
 11
-254.8077322184082
 21
7.9285324040102694
 31
0.0
  0
LINE
  5
1068B
  8
01
 10
-254.8077322184082
 20
7.9285324040102623
 30
0.0
 11
-275.8077322184082
 21
7.9285324040102623
 31
0.0
  0
LINE
  5
1068C
  8
01
 10
-254.8077322184082
 20
-65.885444856079999
 30
0.0
 11
-275.8077322184082
 21
-65.885444856079999
 31
0.0
  0
LINE
  5
1068D
  8
01
 10
-133.5577322184154
 20
9.6961983306459611
 30
0.0
 11
-254.05773221841179
 21
9.6961983306459771
 31
0.0
  0
LINE
  5
1068E
  8
01
 10
-133.5577322184154
 20
-65.637309705690711
 30
0.0
 11
-133.5577322184154
 21
9.6961983306459611
 31
0.0
  0
LINE
  5
1068F
  8
01
 10
-254.05773221841179
 20
-65.637309705690683
 30
0.0
 11
-254.05773221841179
 21
9.6961983306459771
 31
0.0
  0
LINE
  5
10690
  8
01
 10
-133.5577322184154
 20
-65.637309705690697
 30
0.0
 11
-254.05773221841179
 21
-65.637309705690683
 31
0.0
  0
LINE
  5
10691
  8
01
 10
-133.5577322184154
 20
1.9273976526859249
 30
0.0
 11
-254.05773221841179
 21
1.9273976526859471
 31
0.0
  0
LINE
  5
10692
  8
01
 10
-132.80773221841
 20
-12.37396043344491
 30
0.0
 11
-132.80773221841
 21
2.8812326124859231
 31
0.0
  0
ARC
  5
10695
  8
01
 10
-133.80773221841
 20
-12.37396043344491
 30
0.0
 40
1.0
 50
284.47751218561029
 51
0.0
  0
ARC
  5
10696
  8
01
 10
-133.80773221841
 20
2.8812326124859231
 30
0.0
 40
1.0
 50
0.0
 51
75.522487814389706
  0
LINE
  5
10697
  8
01
 10
-254.05773221841179
 20
-13.37396043344487
 30
0.0
 11
-254.8077322184082
 21
-13.37396043344487
 31
0.0
  0
LINE
  5
10698
  8
01
 10
-254.05773221841179
 20
3.8812326124859449
 30
0.0
 11
-254.8077322184082
 21
3.8812326124859382
 31
0.0
  0
LINE
  5
10699
  8
01
 10
-132.80773221841361
 20
-61.937035903240186
 30
0.0
 11
-132.80773221841361
 21
-42.518774246154102
 31
0.0
  0
ARC
  5
106A0
  8
01
 10
-133.80773221841361
 20
-61.937035903240186
 30
0.0
 40
1.0
 50
284.47751218582232
 51
0.0
  0
ARC
  5
106A2
  8
01
 10
-133.80773221841361
 20
-42.518774246154102
 30
0.0
 40
1.0
 50
0.0
 51
75.522487814177822
  0
LINE
  5
106A3
  8
01
 10
-132.80773221841369
 20
-46.135265292402103
 30
0.0
 11
-133.5577322184154
 21
-46.135265292402103
 31
0.0
  0
LINE
  5
106A6
  8
01
 10
-254.05773221841159
 20
-50.316411738180477
 30
0.0
 11
-254.8077322184082
 21
-50.316411738180477
 31
0.0
  0
LINE
  5
106A7
  8
01
 10
-254.05773221841179
 20
-62.937035903240172
 30
0.0
 11
-254.8077322184082
 21
-62.937035903240172
 31
0.0
  0
LINE
  5
106A9
  8
01
 10
-254.8077322184082
 20
1.7050723335452309
 30
0.0
 11
-275.8077322184082
 21
1.7050723335452309
 31
0.0
  0
LINE
  5
106AA
  8
01
 10
-397.05773221840087
 20
9.6961983306459611
 30
0.0
 11
-276.55773221840462
 21
9.6961983306459771
 31
0.0
  0
LINE
  5
106AB
  8
01
 10
-397.05773221840087
 20
-65.637309705690711
 30
0.0
 11
-397.05773221840087
 21
9.6961983306459611
 31
0.0
  0
LINE
  5
106AC
  8
01
 10
-276.55773221840462
 20
-65.637309705690683
 30
0.0
 11
-276.55773221840462
 21
9.6961983306459771
 31
0.0
  0
LINE
  5
106AD
  8
01
 10
-397.05773221840087
 20
-65.637309705690697
 30
0.0
 11
-276.55773221840462
 21
-65.637309705690683
 31
0.0
  0
LINE
  5
106AE
  8
01
 10
-397.05773221840087
 20
1.9273976526859249
 30
0.0
 11
-276.55773221840462
 21
1.9273976526859471
 31
0.0
  0
LINE
  5
106AF
  8
01
 10
-397.80773221840639
 20
-12.37396043344491
 30
0.0
 11
-397.80773221840639
 21
2.8812326124859231
 31
0.0
  0
ARC
  5
106B0
  8
01
 10
-396.80773221840639
 20
-12.37396043344491
 30
0.0
 40
1.0
 50
180.0
 51
255.52248781439289
  0
ARC
  5
106B1
  8
01
 10
-396.80773221840639
 20
2.8812326124859231
 30
0.0
 40
1.0
 50
104.4775121856069
 51
180.0
  0
LINE
  5
106B2
  8
01
 10
-276.55773221840462
 20
-13.37396043344487
 30
0.0
 11
-275.8077322184082
 21
-13.37396043344487
 31
0.0
  0
LINE
  5
106B3
  8
01
 10
-276.55773221840462
 20
3.8812326124859449
 30
0.0
 11
-275.8077322184082
 21
3.8812326124859382
 31
0.0
  0
LINE
  5
106B4
  8
01
 10
-397.8077322184028
 20
-61.937035903240186
 30
0.0
 11
-397.8077322184028
 21
-42.518774246154102
 31
0.0
  0
ARC
  5
106B5
  8
01
 10
-396.80773221840269
 20
-61.937035903240186
 30
0.0
 40
1.0
 50
180.0
 51
255.52248781417771
  0
ARC
  5
106B6
  8
01
 10
-396.80773221840269
 20
-42.518774246154102
 30
0.0
 40
1.0
 50
104.47751218582211
 51
180.0
  0
LINE
  5
106B7
  8
01
 10
-397.80773221840252
 20
-46.135265292402103
 30
0.0
 11
-397.05773221840087
 21
-46.135265292402103
 31
0.0
  0
LINE
  5
106B8
  8
01
 10
-276.55773221840462
 20
-50.316411738180477
 30
0.0
 11
-275.8077322184082
 21
-50.316411738180477
 31
0.0
  0
LINE
  5
106B9
  8
01
 10
-276.55773221840462
 20
-62.937035903240172
 30
0.0
 11
-275.8077322184082
 21
-62.937035903240172
 31
0.0
  0
LINE
  5
106C3
  8
01
 10
41.125174521465453
 20
-104.0157984191784
 30
0.0
 11
40.081014257440813
 21
-104.8919529116112
 31
0.0
  0
LINE
  5
106C4
  8
01
 10
25.421263437524601
 20
-117.1929444177516
 30
0.0
 11
-25.903714251449351
 21
-160.25971426674471
 31
0.0
  0
ARC
  5
106C5
  8
01
 10
-26.22510805629264
 20
-159.87669204518531
 30
0.0
 40
0.5
 50
220.0000000000002
 51
309.99999999999591
  0
LINE
  5
106C6
  8
01
 10
35.916934461426372
 20
-106.7542716209912
 30
0.0
 11
25.000801146976588
 21
-115.9139950590091
 31
0.0
  0
LINE
  5
106C7
  8
01
 10
-8.3221321286987973
 20
-143.87525608037359
 30
0.0
 11
-24.56227432282077
 21
-157.502353405728
 31
0.0
  0
LINE
  5
106C8
  8
01
 10
31.096027388772828
 20
-101.0089382975862
 30
0.0
 11
20.179894074323951
 21
-110.1686617356176
 31
0.0
  0
LINE
  5
106C9
  8
01
 10
-13.14303920134892
 20
-138.12992275697999
 30
0.0
 11
-29.38318139547124
 21
-151.75702008233461
 31
0.0
  0
ARC
  5
106CA
  8
01
 10
-12.821645396505859
 20
-138.51294497853939
 30
0.0
 40
0.5
 50
40.000000000000249
 51
130.00000000000389
  0
ARC
  5
106CB
  8
01
 10
-29.061787590628171
 20
-152.14004230389401
 30
0.0
 40
0.5
 50
130.00000000000389
 51
220.0000000000002
  0
LINE
  5
106CC
  8
01
 10
-32.39321876502737
 20
-153.30368586196201
 30
0.0
 11
-26.60813027785213
 21
-160.1980858500286
 31
0.0
  0
ARC
  5
106CD
  8
01
 10
-32.010196543467998
 20
-152.98229205711871
 30
0.0
 40
0.5
 50
130.00000000000389
 51
220.0000000000002
  0
LINE
  5
106CE
  8
01
 10
-29.44480981218766
 20
-152.4614361087373
 30
0.0
 11
-25.266690349223548
 21
-157.4407249890117
 31
0.0
  0
ARC
  5
106CF
  8
01
 10
-24.88366812766396
 20
-157.1193311841686
 30
0.0
 40
0.5
 50
220.0000000000002
 51
309.99999999999591
  0
LINE
  5
106D0
  8
01
 10
34.697298424597818
 20
-96.355353987985936
 30
0.0
 11
32.559101484249993
 21
-98.149514252016274
 31
0.0
  0
LINE
  5
106D1
  8
01
 10
25.581014257443311
 20
-104.0048246703526
 30
0.0
 11
-32.331590348311181
 21
-152.59926983555911
 31
0.0
  0
ARC
  5
106D2
  8
01
 10
35.018692229441122
 20
-96.738376209545564
 30
0.0
 40
0.5
 50
40.000000000000249
 51
130.00000000000389
  0
LINE
  5
106D3
  8
01
 10
35.401714451000601
 20
-96.416982404702253
 30
0.0
 11
36.855481285084863
 21
-98.149514252016061
 31
0.0
  0
LINE
  5
106D4
  8
01
 10
40.081014257442739
 20
-101.9935547598548
 30
0.0
 11
41.186802938181977
 21
-103.3113823927758
 31
0.0
  0
ARC
  5
106D5
  8
01
 10
40.803780716622263
 20
-103.63277619761899
 30
0.0
 40
0.5
 50
309.99999999999511
 51
40.000000000000249
  0
ARC
  5
106D7
  8
01
 10
33.5064809250959
 20
-103.8816049592823
 30
0.0
 40
3.750000000002045
 50
309.99999999994441
 51
129.9999999999871
  0
LINE
  5
106D8
  8
01
 10
43.542668832277457
 20
-112.83042643683321
 30
0.0
 11
43.542668832286431
 21
-132.83042643683319
 31
0.0
  0
LINE
  5
106D9
  8
01
 10
40.542668832281208
 20
-118.33042643683321
 30
0.0
 11
40.542668832282459
 21
-127.33042643683299
 31
0.0
  0
ARC
  5
106DA
  8
01
 10
24.679407342132951
 20
-115.5309728374512
 30
0.0
 40
0.5
 50
220.00000000002089
 51
310.00000000005531
  0
LINE
  5
106DB
  8
01
 10
37.081014257436948
 20
-112.83042643683569
 30
0.0
 11
43.54266883227757
 21
-112.83042643683579
 31
0.0
  0
ARC
  5
106DC
  8
01
 10
37.081014257437062
 20
-109.83042643683569
 30
0.0
 40
2.9999999999999991
 50
217.32695778025641
 51
270.0
  0
LINE
  5
106DD
  8
01
 10
38.775822661365908
 20
-132.83042643683601
 30
0.0
 11
43.542668832288477
 21
-132.83042643683601
 31
0.0
  0
ARC
  5
106DE
  8
01
 10
38.775822661365908
 20
-132.33042643683609
 30
0.0
 40
0.5
 50
220.00000000002089
 51
270.0
  0
LINE
  5
106DF
  8
01
 10
28.247150155405109
 20
-122.8304264368354
 30
0.0
 11
49.469429623137728
 21
-122.83042643683579
 31
0.0
  0
LINE
  5
106E0
  8
01
 10
33.92762086081035
 20
-127.33042643683579
 30
0.0
 11
40.542668832282793
 21
-127.33042643683579
 31
0.0
  0
LINE
  5
106E1
  8
01
 10
26.37572418021108
 20
-118.3304264368348
 30
0.0
 11
40.542668832281088
 21
-118.33042643683579
 31
0.0
  0
LINE
  5
106E2
  8
01
 10
40.542668832282907
 20
-125.08042643683321
 30
0.0
 11
43.542668832280981
 21
-125.0804264368337
 31
0.0
  0
LINE
  5
106E3
  8
01
 10
40.542668832282907
 20
-120.58042643683321
 30
0.0
 11
43.542668832280633
 21
-120.58042643683351
 31
0.0
  0
LINE
  5
106E4
  8
01
 10
38.392800439806543
 20
-132.65182024167939
 30
0.0
 11
20.118265657607541
 21
-110.8730777620206
 31
0.0
  0
ARC
  5
106E5
  8
01
 10
20.50128787916714
 20
-110.5516839571771
 30
0.0
 40
0.5
 50
129.9999999999871
 51
220.00000000002089
  0
LINE
  5
106E6
  8
01
 10
-12.438623174946139
 20
-138.1915511736961
 30
0.0
 11
-8.2605037119826061
 21
-143.17084005397089
 31
0.0
  0
ARC
  5
106E7
  8
01
 10
-8.6435259335420938
 20
-143.4922338588143
 30
0.0
 40
0.5
 50
309.99999999999591
 51
40.000000000000249
  0
CIRCLE
  5
106E8
  8
01
 10
34.081014257438198
 20
-103.3995142520178
 30
0.0
 40
3.0
  0
LINE
  5
106E9
  8
01
 10
-47.004540430639182
 20
-113.0111125023504
 30
0.0
 11
-48.502128798781321
 21
-113.0961364966422
 31
0.0
  0
LINE
  5
106EA
  8
01
 10
-48.998102098820652
 20
-104.3602043491484
 30
0.0
 11
-48.502128798781321
 21
-113.0961364966422
 31
0.0
  0
LINE
  5
106EB
  8
01
 10
-47.500513730676779
 20
-104.2751803548546
 30
0.0
 11
-47.004540430639182
 21
-113.0111125023504
 31
0.0
  0
LINE
  5
106EC
  8
01
 10
39.858807744281592
 20
-99.315447354493031
 30
0.0
 11
40.453975704324648
 21
-109.7985659314899
 31
0.0
  0
ARC
  5
106ED
  8
01
 10
38.361219376139402
 20
-99.400471348783981
 30
0.0
 40
1.5
 50
3.2494189629663852
 51
93.249418962966374
  0
LINE
  5
106EE
  8
01
 10
38.361219376137633
 20
-99.400471348784976
 30
0.0
 11
38.956387336182402
 21
-109.8835899257799
 31
0.0
  0
LINE
  5
106EF
  8
01
 10
38.361219376133889
 20
-99.40047134878337
 30
0.0
 11
-47.500513730676779
 21
-104.2751803548546
 31
0.0
  0
LINE
  5
106F0
  8
01
 10
38.276195381845781
 20
-97.902882980642815
 30
0.0
 11
-47.58553772497045
 21
-102.77759198671259
 31
0.0
  0
ARC
  5
106F1
  8
01
 10
-47.50051373067663
 20
-104.2751803548573
 30
0.0
 40
1.5
 50
93.249418962966374
 51
183.2494189629663
  0
LINE
  5
106F2
  8
01
 10
38.956387336182402
 20
-109.8835899257799
 30
0.0
 11
31.696339295593742
 21
-110.2957714679826
 31
0.0
  0
LINE
  5
106F3
  8
01
 10
31.69633929559388
 20
-110.2957714679825
 30
0.0
 11
26.975680391044691
 21
-110.56378188011929
 31
0.0
  0
LINE
  5
106F4
  8
01
 10
39.5406074531884
 20
-111.3528369624932
 30
0.0
 11
30.557071245135202
 21
-111.862867720959
 31
0.0
  0
LINE
  5
106F5
  8
01
 10
30.557071245134971
 20
-111.862867720959
 30
0.0
 11
27.060704385336319
 21
-112.0613702482576
 31
0.0
  0
LINE
  5
106F6
  8
01
 10
37.957995090752291
 20
-109.9402725886376
 30
0.0
 11
32.950241713513478
 21
-110.22458248555201
 31
0.0
  0
LINE
  5
106F7
  8
01
 10
25.43880284843722
 20
-101.13573821140891
 30
0.0
 11
25.689180653029311
 21
-105.5458213993784
 31
0.0
  0
LINE
  5
106F8
  8
01
 10
25.689180653029549
 20
-105.5458213993782
 30
0.0
 11
25.920605482755001
 21
-109.62207229755209
 31
0.0
  0
ARC
  5
106F9
  8
01
 10
26.918997728183118
 20
-109.5653896346912
 30
0.0
 40
1.0
 50
183.24941896294681
 51
273.24941896298589
  0
ARC
  5
106FA
  8
01
 10
34.08101425744082
 20
-103.3995142520159
 30
0.0
 40
3.149999999999999
 50
138.83411036590891
 51
359.21296180621158
  0
ARC
  5
106FB
  8
01
 10
34.08101425744082
 20
-103.3995142520159
 30
0.0
 40
3.149999999999999
 50
359.21296180621158
 51
47.664727560117051
  0
LINE
  5
106FC
  8
01
 10
36.171519486783829
 20
-100.52639958565091
 30
0.0
 11
36.202437568507392
 21
-101.0709818525759
 31
0.0
  0
LINE
  5
106FD
  8
01
 10
40.113879727155108
 20
-103.8082124589159
 30
0.0
 11
40.482317035751628
 21
-110.2977620542041
 31
0.0
  0
ARC
  5
106FE
  8
01
 10
39.483924790323442
 20
-110.3544447170635
 30
0.0
 40
1.0
 50
273.24941896296627
 51
3.2494189629663852
  0
LINE
  5
106FF
  8
01
 10
38.417902038995123
 20
-100.39886359421151
 30
0.0
 11
38.899704673319242
 21
-108.8851976803501
 31
0.0
  0
LINE
  5
10700
  8
01
 10
37.362827130707508
 20
-99.457154011642714
 30
0.0
 11
37.113229069350581
 21
-99.471324677359803
 31
0.0
  0
ARC
  5
10701
  8
01
 10
37.419509793566931
 20
-100.45554625707091
 30
0.0
 40
1.0
 50
3.2494189629924559
 51
93.249418962966374
  0
LINE
  5
10702
  8
01
 10
36.171519486783829
 20
-100.52639958565091
 30
0.0
 11
37.113229069350581
 21
-99.471324677359803
 31
0.0
  0
LINE
  5
10703
  8
01
 10
30.623679474066339
 20
-99.839761985961573
 30
0.0
 11
26.380512431006
 21
-100.0806633031213
 31
0.0
  0
ARC
  5
10704
  8
01
 10
26.437195093865309
 20
-101.0790555485477
 30
0.0
 40
1.0
 50
93.249418962966374
 51
183.2494189629403
  0
LINE
  5
10705
  8
01
 10
31.560576593178912
 20
-100.675991705778
 30
0.0
 11
30.623679474066339
 21
-99.839761985961573
 31
0.0
  0
ARC
  5
10706
  8
01
 10
37.901312427891149
 20
-108.9418803432113
 30
0.0
 40
1.0
 50
273.24941896296627
 51
3.2494189629924559
  0
LINE
  5
10707
  8
01
 10
37.225949830537147
 20
-103.2209638640031
 30
0.0
 11
37.019058111093663
 21
-99.576832168190947
 31
0.0
  0
LINE
  5
10708
  8
01
 10
30.804125183082611
 20
-101.25387333072059
 30
0.0
 11
30.729186964897469
 21
-99.933932944218483
 31
0.0
  0
LINE
  5
10709
  8
01
 10
26.975680391044691
 20
-110.56378188011929
 30
0.0
 11
27.060704385336319
 21
-112.0613702482576
 31
0.0
  0
LINE
  5
1070A
  8
01
 10
31.678754382355571
 20
-100.7814715685266
 30
0.0
 11
31.70967246407913
 21
-101.3260538354515
 31
0.0
  0
LINE
  5
1070B
  8
01
 10
31.678754382355571
 20
-100.7814715685266
 30
0.0
 11
31.560576593179391
 21
-100.6759917057777
 31
0.0
  0
LINE
  5
1070E
  8
01
 10
29.380024960248409
 20
-108.8080240921162
 30
0.0
 11
29.6508343340926
 21
-113.5779831093093
 31
0.0
  0
LINE
  5
1070F
  8
01
 10
29.201387102197099
 20
-105.6615478467485
 30
0.0
 11
29.742828977717419
 21
-115.198350505313
 31
0.0
  0
ARC
  5
10710
  8
01
 10
30.70538347329288
 20
-112.3051721058263
 30
0.0
 40
1.5
 50
273.24941896296627
 51
3.249418962972908
  0
LINE
  5
10711
  8
01
 10
32.177464643147459
 20
-111.7708716010917
 30
0.0
 11
32.202971841435023
 21
-112.2201481115344
 31
0.0
  0
LINE
  5
10712
  8
01
 10
28.544024915371509
 20
-113.9302964654063
 30
0.0
 11
30.790407467584728
 21
-113.8027604739685
 31
0.0
  0
LINE
  5
10713
  8
01
 10
31.05427336704085
 20
-111.8346395968106
 30
0.0
 11
32.177464643147459
 21
-111.7708716010917
 31
0.0
  0
ARC
  5
10714
  8
01
 10
28.45900092107966
 20
-112.4327080972641
 30
0.0
 40
1.5
 50
183.2494189629729
 51
273.24941896296627
  0
LINE
  5
10715
  8
01
 10
30.72834805558875
 20
-106.09388418559899
 30
0.0
 11
31.05427336704085
 21
-111.8346395968106
 31
0.0
  0
LINE
  5
10716
  8
01
 10
26.93590535464995
 20
-112.0684555811132
 30
0.0
 11
26.961412552937521
 21
-112.5177320915561
 31
0.0
  0
LINE
  5
10717
  8
01
 10
30.72834805558875
 20
-106.09388418559899
 30
0.0
 11
30.464579328516422
 21
-105.8584567899573
 31
0.0
  0
LINE
  5
10718
  8
01
 10
26.93590535464995
 20
-112.0684555811132
 30
0.0
 11
28.05909663075656
 21
-112.00468758539429
 31
0.0
  0
LINE
  5
10719
  8
01
 10
27.968598714946179
 20
-106.0001634471104
 30
0.0
 11
30.464579328516422
 21
-105.8584567899573
 31
0.0
  0
LINE
  5
1071A
  8
01
 10
27.733171319304461
 20
-106.2639321741827
 30
0.0
 11
28.05909663075656
 21
-112.00468758539429
 31
0.0
  0
LINE
  5
1071B
  8
01
 10
27.968598714946179
 20
-106.0001634471104
 30
0.0
 11
27.733171319304461
 21
-106.2639321741827
 31
0.0
  0
LINE
  5
1071C
  8
01
 10
30.72834805558875
 20
-106.09388418559899
 30
0.0
 11
27.733171319304461
 21
-106.2639321741827
 31
0.0
  0
LINE
  5
1071D
  8
01
 10
27.968598714946179
 20
-106.0001634471104
 30
0.0
 11
28.30869469211359
 21
-111.9905169196791
 31
0.0
  0
LINE
  5
1071E
  8
01
 10
30.464579328516411
 20
-105.8584567899571
 30
0.0
 11
30.80467530568383
 21
-111.8488102625259
 31
0.0
  0
LINE
  5
1071F
  8
01
 10
31.054273367040739
 20
-111.8346395968106
 30
0.0
 11
28.05909663075656
 21
-112.00468758539429
 31
0.0
  0
ARC
  5
10720
  8
01
 10
-20.6911634255693
 20
-149.3588283446044
 30
0.0
 40
3.7500000000008171
 50
310.00000000000392
 51
129.99999999999579
  0
LINE
  5
13266
  8
01
 10
-387.30773221840889
 20
10.196198330645981
 30
0.0
 11
-143.30773221840749
 21
10.196198330645981
 31
0.0
  0
LINE
  5
13289
  8
01
 10
-234.8077323653076
 20
6.1961983306459771
 30
0.0
 11
-235.80773206530759
 21
7.1961983306459771
 31
0.0
  0
LINE
  5
1328A
  8
01
 10
-231.50773221530761
 20
6.1961983306459771
 30
0.0
 11
-231.50773221530761
 21
7.1961983306459771
 31
0.0
  0
LINE
  5
1328B
  8
01
 10
-231.50773221530761
 20
7.1961983306459771
 30
0.0
 11
-239.10773221530749
 21
7.1961983306459771
 31
0.0
  0
LINE
  5
1328C
  8
01
 10
-231.50773221530761
 20
6.1961983306459771
 30
0.0
 11
-239.10773221530749
 21
6.1961983306459771
 31
0.0
  0
LINE
  5
1328D
  8
01
 10
-239.10773221530749
 20
6.1961983306459771
 30
0.0
 11
-239.10773221530749
 21
7.1961983306459771
 31
0.0
  0
LINE
  5
1328F
  8
01
 10
-294.8077323653003
 20
6.1961983306460047
 30
0.0
 11
-295.80773206530029
 21
7.1961983306460047
 31
0.0
  0
LINE
  5
13290
  8
01
 10
-291.50773221530028
 20
6.1961983306460047
 30
0.0
 11
-291.50773221530028
 21
7.1961983306460047
 31
0.0
  0
LINE
  5
13291
  8
01
 10
-291.50773221530028
 20
7.1961983306460047
 30
0.0
 11
-299.1077322153003
 21
7.1961983306460047
 31
0.0
  0
LINE
  5
13292
  8
01
 10
-291.50773221530028
 20
6.1961983306460047
 30
0.0
 11
-299.1077322153003
 21
6.1961983306460047
 31
0.0
  0
LINE
  5
13293
  8
01
 10
-299.1077322153003
 20
6.1961983306460047
 30
0.0
 11
-299.1077322153003
 21
7.1961983306460047
 31
0.0
  0
LINE
  5
13295
  8
01
 10
-377.8077323653003
 20
6.1961983306459771
 30
0.0
 11
-378.80773206530029
 21
7.1961983306459771
 31
0.0
  0
LINE
  5
13296
  8
01
 10
-374.50773221530039
 20
6.1961983306459771
 30
0.0
 11
-374.50773221530039
 21
7.1961983306459771
 31
0.0
  0
LINE
  5
13297
  8
01
 10
-374.50773221530039
 20
7.1961983306459771
 30
0.0
 11
-382.10773221530019
 21
7.1961983306459771
 31
0.0
  0
LINE
  5
13298
  8
01
 10
-374.50773221530039
 20
6.1961983306459771
 30
0.0
 11
-382.10773221530019
 21
6.1961983306459771
 31
0.0
  0
LINE
  5
13299
  8
01
 10
-382.10773221530019
 20
6.1961983306459771
 30
0.0
 11
-382.10773221530019
 21
7.1961983306459771
 31
0.0
  0
LINE
  5
13309
  8
01
 10
-387.307732218409
 20
9.6961983306459611
 30
0.0
 11
-387.30773221840889
 21
10.19619833064597
 31
0.0
  0
LINE
  5
1330A
  8
01
 10
-143.30773221840749
 20
9.69619833064597
 30
0.0
 11
-143.30773221840749
 21
10.196198330646
 31
0.0
  0
LINE
  5
1330B
  8
01
 10
-391.15813326909841
 20
-106.60882834460349
 30
0.0
 11
-391.1581332690979
 21
-221.60882834460361
 31
0.0
  0
LINE
  5
1330C
  8
01
 10
-277.1581332690983
 20
-106.60882834460349
 30
0.0
 11
-277.15813326909881
 21
-221.60882834460361
 31
0.0
  0
LINE
  5
1330D
  8
01
 10
-391.15813326909841
 20
-106.60882834460349
 30
0.0
 11
-277.1581332690983
 21
-106.60882834460349
 31
0.0
  0
LINE
  5
1330E
  8
01
 10
-391.1581332690979
 20
-221.60882834460361
 30
0.0
 11
-277.15813326909881
 21
-221.60882834460361
 31
0.0
  0
TEXT
  5
133DA
  8
01
 10
-160.8531157205488
 20
59.308115808479378
 30
0.0
 40
4.0
  1
コード
 72
     1
 11
-154.1864490538822
 21
59.308115808479378
 31
0.0
  0
LINE
  5
133DB
  8
01
 10
-136.5864490538826
 20
43.808115808479393
 30
0.0
 11
-136.58644905388229
 21
64.808115808479386
 31
0.0
  0
TEXT
  5
133DC
  8
01
 10
-170.21502048245341
 20
52.093758824830097
 30
0.0
 40
4.0
  1
SC-31W-XC
 41
0.85
 72
     1
 11
-154.18644905388189
 21
52.093758824830097
 31
0.0
  0
TEXT
  5
133DD
  8
01
 10
-170.05311572054859
 20
45.093758824830097
 30
0.0
 40
4.0
  1
SC-31W-CT
 41
0.85
 72
     1
 11
-154.18644905388189
 21
45.093758824830097
 31
0.0
  0
TEXT
  5
133DE
  8
01
 10
-233.25311572054881
 20
45.472827148955098
 30
0.0
 40
4.0
  1
クローム
 72
     1
 11
-224.1864490538822
 21
45.472827148955098
 31
0.0
  0
TEXT
  5
133DF
  8
01
 10
-205.98644905388289
 20
59.308115808479378
 30
0.0
 40
4.0
  1
表面処理：カバー
 41
0.9
 72
     1
 11
-189.18644905388291
 21
59.308115808479378
 31
0.0
  0
TEXT
  5
133E0
  8
01
 10
-193.45311572054959
 20
52.472827148955112
 30
0.0
 40
4.0
  1
鏡面
 72
     1
 11
-189.18644905388291
 21
52.472827148955112
 31
0.0
  0
TEXT
  5
133E1
  8
01
 10
-200.65311572054961
 20
45.472827148955098
 30
0.0
 40
4.0
  1
ヘアライン
 72
     1
 11
-189.18644905388291
 21
45.472827148955098
 31
0.0
  0
LINE
  5
135A6
  8
01
 10
-133.55773221841551
 20
-102.77759198671519
 30
0.0
 11
-254.0577322184119
 21
-102.77759198671519
 31
0.0
  0
LINE
  5
135A7
  8
01
 10
-133.55773221841551
 20
-104.3602043491499
 30
0.0
 11
-254.0577322184119
 21
-104.3602043491499
 31
0.0
  0
LINE
  5
135A8
  8
01
 10
-397.05773221840087
 20
-97.900471348783938
 30
0.0
 11
-397.05773221840087
 21
-111.0961364966422
 31
0.0
  0
LINE
  5
135A9
  8
01
 10
-276.55773221840451
 20
-97.900471348783938
 30
0.0
 11
-276.55773221840451
 21
-111.0961364966418
 31
0.0
  0
ARC
  5
135AA
  8
01
 10
-278.55773221840451
 20
-111.0961364966418
 30
0.0
 40
2.0
 50
270.0
 51
0.000000000000007
  0
LINE
  5
135AB
  8
01
 10
-395.05773221840087
 20
-113.0961364966422
 30
0.0
 11
-278.55773221840451
 21
-113.0961364966418
 31
0.0
  0
ARC
  5
135AC
  8
01
 10
-395.05773221840087
 20
-111.0961364966422
 30
0.0
 40
2.0
 50
180.0
 51
270.0
  0
LINE
  5
135AD
  8
01
 10
-397.05773221840087
 20
-97.900471348783938
 30
0.0
 11
-276.55773221840451
 21
-97.900471348783938
 31
0.0
  0
LINE
  5
135AE
  8
01
 10
-397.05773221840087
 20
-102.77759198671519
 30
0.0
 11
-276.55773221840451
 21
-102.77759198671519
 31
0.0
  0
LINE
  5
135AF
  8
01
 10
-397.05773221840087
 20
-104.3602043491499
 30
0.0
 11
-276.55773221840451
 21
-104.3602043491499
 31
0.0
  0
LINE
  5
135B0
  8
01
 10
-276.55773221840451
 20
-110.8730777620128
 30
0.0
 11
-275.8077322184119
 21
-110.8730777620128
 31
0.0
  0
LINE
  5
135B1
  8
01
 10
-132.80773221840809
 20
-110.8730777620123
 30
0.0
 11
-133.55773221841559
 21
-110.8730777620123
 31
0.0
  0
LINE
  5
135B2
  8
01
 10
-254.0577322184119
 20
-110.8730777620128
 30
0.0
 11
-254.80773221840451
 21
-110.8730777620128
 31
0.0
  0
LINE
  5
1367F
  8
01
 10
-26.268685927666489
 20
-160.37478939423119
 30
0.0
 11
103.4441501265521
 21
-160.37478939423119
 31
0.0
  0
LINE
  5
13682
  8
01
 10
35.018692229441122
 20
-96.23837620954555
 30
0.0
 11
103.4441501265521
 21
-96.238376209545564
 31
0.0
  0
LINE
  5
13683
  8
01
 10
102.4441501265521
 20
-158.37478939423119
 30
0.0
 11
102.4441501265521
 21
-98.238376209545564
 31
0.0
  0
LINE
  5
13687
  8
01
 10
-295.30773221840462
 20
-129.80708287910619
 30
0.0
 11
-295.30773221840462
 21
-179.28659997021259
 31
0.0
  0
LINE
  5
13688
  8
01
 10
-235.3077322184119
 20
-129.80708287910619
 30
0.0
 11
-235.3077322184119
 21
-179.28659997021259
 31
0.0
  0
LINE
  5
13689
  8
01
 10
-291.30773221840462
 20
-177.28659997021259
 30
0.0
 11
-239.3077322184119
 21
-177.28659997021259
 31
0.0
  0
LINE
  5
1368D
  8
01
 10
-378.30773221840462
 20
-129.80708287910619
 30
0.0
 11
-378.30773221840462
 21
-179.28659997021259
 31
0.0
  0
LINE
  5
1368E
  8
01
 10
-295.30773221840462
 20
-129.80708287910619
 30
0.0
 11
-295.30773221840462
 21
-179.28659997021259
 31
0.0
  0
LINE
  5
1368F
  8
01
 10
-374.30773221840462
 20
-177.28659997021259
 30
0.0
 11
-299.30773221840462
 21
-177.28659997021259
 31
0.0
  0
LINE
  5
13693
  8
01
 10
-378.3076856825067
 20
41.196198330483597
 30
0.0
 11
-379.8076856825067
 21
35.896201820621933
 31
0.0
  0
LINE
  5
13694
  8
01
 10
-379.8076856825067
 20
35.896201820621933
 30
0.0
 11
-379.80768568250647
 21
6.1962018207300602
 31
0.0
  0
LINE
  5
13695
  8
01
 10
-378.3076856825067
 20
41.196198330483597
 30
0.0
 11
-376.80768568250659
 21
35.896194840238302
 31
0.0
  0
LINE
  5
13696
  8
01
 10
-381.80773221840451
 20
6.1962064744281449
 30
0.0
 11
-374.80773221840462
 21
6.1961901868638076
 31
0.0
  0
LINE
  5
13697
  8
01
 10
-376.80768568250659
 20
35.896194840238302
 30
0.0
 11
-376.80768568250647
 21
6.1961948403453491
 31
0.0
  0
LINE
  5
13698
  8
01
 10
-381.80773221840451
 20
6.1962064744281449
 30
0.0
 11
-381.80773221840462
 21
5.0962029842328249
 31
0.0
  0
ARC
  5
13699
  8
01
 10
-380.30773221840462
 20
5.096202984232824
 30
0.0
 40
1.5
 50
180.0
 51
269.99986668446837
  0
LINE
  5
1369A
  8
01
 10
-374.80773221840462
 20
6.1961901868638076
 30
0.0
 11
-374.80773221840462
 21
5.0961936770532281
 31
0.0
  0
LINE
  5
1369B
  8
01
 10
-380.30773570859702
 20
3.5962029842368892
 30
0.0
 11
-376.30773570859702
 21
3.596193677057292
 31
0.0
  0
ARC
  5
1369C
  8
01
 10
-376.30773221840462
 20
5.096193677053229
 30
0.0
 40
1.5
 50
269.99986668446837
 51
0.0
  0
LINE
  5
1369D
  8
01
 10
-378.30773221840462
 20
42.626993247949052
 30
0.0
 11
-378.30773221840462
 21
2.52592192133715
 31
0.0
  0
LINE
  5
1369E
  8
01
 10
-379.40205603239968
 20
39.096200876805788
 30
0.0
 11
-377.43972094352432
 21
39.896196310856759
 31
0.0
  0
LINE
  5
1369F
  8
01
 10
-377.43972094352432
 20
39.896196310856759
 30
0.0
 11
-378.02799751856668
 21
40.207966167108872
 31
0.0
  0
LINE
  5
136A0
  8
01
 10
-380.3076856825067
 20
16.696202984015791
 30
0.0
 11
-376.3076856825067
 21
17.496193676834039
 31
0.0
  0
LINE
  5
136A1
  8
01
 10
-380.3076856825067
 20
27.89620298402016
 30
0.0
 11
-376.3076856825067
 21
28.696193676842729
 31
0.0
  0
LINE
  5
136A2
  8
01
 10
-380.3076856825067
 20
31.096202984020199
 30
0.0
 11
-376.3076856825067
 21
31.896193676842781
 31
0.0
  0
LINE
  5
136A3
  8
01
 10
-376.3076856825067
 20
31.896193676842781
 30
0.0
 11
-376.8076856825067
 21
31.996194840240001
 31
0.0
  0
LINE
  5
136A4
  8
01
 10
-379.8076856825067
 20
32.596201820623001
 30
0.0
 11
-380.3076856825067
 21
32.696202984020232
 31
0.0
  0
LINE
  5
136A5
  8
01
 10
-376.3076856825067
 20
28.696193676842729
 30
0.0
 11
-376.8076856825067
 21
28.796194840239959
 31
0.0
  0
LINE
  5
136A6
  8
01
 10
-376.3076856825067
 20
30.296193676842869
 30
0.0
 11
-376.8076856825067
 21
30.396194840239978
 31
0.0
  0
LINE
  5
136A7
  8
01
 10
-379.8076856825067
 20
30.996201820623089
 30
0.0
 11
-380.3076856825067
 21
31.096202984020199
 31
0.0
  0
LINE
  5
136A8
  8
01
 10
-379.8076856825067
 20
29.39620182062319
 30
0.0
 11
-380.3076856825067
 21
29.4962029840203
 31
0.0
  0
LINE
  5
136A9
  8
01
 10
-380.3076856825067
 20
29.4962029840203
 30
0.0
 11
-376.3076856825067
 21
30.296193676842869
 31
0.0
  0
LINE
  5
136AA
  8
01
 10
-376.98690683911752
 20
38.296195257251121
 30
0.0
 11
-377.53865630292069
 21
38.47895939987913
 31
0.0
  0
LINE
  5
136AB
  8
01
 10
-376.3076856825067
 20
35.096193676842823
 30
0.0
 11
-376.8076856825067
 21
35.196194840239933
 31
0.0
  0
LINE
  5
136AC
  8
01
 10
-376.3076856825067
 20
33.4961936768428
 30
0.0
 11
-376.8076856825067
 21
33.596194840239797
 31
0.0
  0
LINE
  5
136AD
  8
01
 10
-376.53409273471073
 20
36.696194203645483
 30
0.0
 11
-377.07068646998181
 21
36.825464901275353
 31
0.0
  0
LINE
  5
136AE
  8
01
 10
-379.38677108529799
 20
37.383432418059982
 30
0.0
 11
-379.85486954044802
 21
37.496201930410017
 31
0.0
  0
LINE
  5
136AF
  8
01
 10
-379.8076856825067
 20
34.196201820623138
 30
0.0
 11
-380.3076856825067
 21
34.296202984020248
 31
0.0
  0
LINE
  5
136B0
  8
01
 10
-379.8076856825067
 20
35.796201820623047
 30
0.0
 11
-380.3076856825067
 21
35.896202984020157
 31
0.0
  0
LINE
  5
136B1
  8
01
 10
-378.94488419176861
 20
38.944765080365379
 30
0.0
 11
-379.40205603239968
 21
39.096200876805788
 31
0.0
  0
LINE
  5
136B2
  8
01
 10
-379.85486954044802
 20
37.496201930410017
 30
0.0
 11
-376.98690683911752
 21
38.296195257251121
 31
0.0
  0
LINE
  5
136B3
  8
01
 10
-380.3076856825067
 20
34.296202984020248
 30
0.0
 11
-376.3076856825067
 21
35.096193676842823
 31
0.0
  0
LINE
  5
136B4
  8
01
 10
-380.3076856825067
 20
35.896202984020157
 30
0.0
 11
-376.53409273471073
 21
36.696194203645483
 31
0.0
  0
LINE
  5
136B5
  8
01
 10
-380.3076856825067
 20
32.696202984020232
 30
0.0
 11
-376.3076856825067
 21
33.4961936768428
 31
0.0
  0
LINE
  5
136B6
  8
01
 10
-380.3076856825067
 20
19.89620298401584
 30
0.0
 11
-376.3076856825067
 21
20.696193676834088
 31
0.0
  0
LINE
  5
136B7
  8
01
 10
-376.3076856825067
 20
20.696193676834088
 30
0.0
 11
-376.8076856825067
 21
20.79619484023177
 31
0.0
  0
LINE
  5
136B8
  8
01
 10
-379.8076856825067
 20
21.396201820622501
 30
0.0
 11
-380.3076856825067
 21
21.496202984020179
 31
0.0
  0
LINE
  5
136B9
  8
01
 10
-376.3076856825067
 20
19.096193676833948
 30
0.0
 11
-376.8076856825067
 21
19.19619484023163
 31
0.0
  0
LINE
  5
136BA
  8
01
 10
-376.3076856825067
 20
17.496193676834039
 30
0.0
 11
-376.8076856825067
 21
17.596194840231721
 31
0.0
  0
LINE
  5
136BB
  8
01
 10
-379.8076856825067
 20
19.796201820618158
 30
0.0
 11
-380.3076856825067
 21
19.89620298401584
 31
0.0
  0
LINE
  5
136BC
  8
01
 10
-379.8076856825067
 20
18.196201820618018
 30
0.0
 11
-380.3076856825067
 21
18.2962029840157
 31
0.0
  0
LINE
  5
136BD
  8
01
 10
-380.3076856825067
 20
18.2962029840157
 30
0.0
 11
-376.3076856825067
 21
19.096193676833948
 31
0.0
  0
LINE
  5
136BE
  8
01
 10
-376.3076856825067
 20
25.49619367683848
 30
0.0
 11
-376.8076856825067
 21
25.596194840236159
 31
0.0
  0
LINE
  5
136BF
  8
01
 10
-376.3076856825067
 20
27.09619367684283
 30
0.0
 11
-376.8076856825067
 21
27.19619484023994
 31
0.0
  0
LINE
  5
136C0
  8
01
 10
-376.3076856825067
 20
22.296193676838431
 30
0.0
 11
-376.8076856825067
 21
22.39619484023611
 31
0.0
  0
LINE
  5
136C1
  8
01
 10
-376.3076856825067
 20
23.896193676838351
 30
0.0
 11
-376.8076856825067
 21
23.996194840236019
 31
0.0
  0
LINE
  5
136C2
  8
01
 10
-379.8076856825067
 20
27.79620182062305
 30
0.0
 11
-380.3076856825067
 21
27.89620298402016
 31
0.0
  0
LINE
  5
136C3
  8
01
 10
-379.8076856825067
 20
26.196201820622459
 30
0.0
 11
-380.3076856825067
 21
26.296202984020251
 31
0.0
  0
LINE
  5
136C4
  8
01
 10
-379.8076856825067
 20
22.99620182062241
 30
0.0
 11
-380.3076856825067
 21
23.096202984020088
 31
0.0
  0
LINE
  5
136C5
  8
01
 10
-379.8076856825067
 20
24.59620182062255
 30
0.0
 11
-380.3076856825067
 21
24.696202984020228
 31
0.0
  0
LINE
  5
136C6
  8
01
 10
-380.3076856825067
 20
24.696202984020228
 30
0.0
 11
-376.3076856825067
 21
25.49619367683848
 31
0.0
  0
LINE
  5
136C7
  8
01
 10
-380.3076856825067
 20
26.296202984020251
 30
0.0
 11
-376.3076856825067
 21
27.09619367684283
 31
0.0
  0
LINE
  5
136C8
  8
01
 10
-380.3076856825067
 20
23.096202984020088
 30
0.0
 11
-376.3076856825067
 21
23.896193676838351
 31
0.0
  0
LINE
  5
136C9
  8
01
 10
-380.3076856825067
 20
21.496202984020179
 30
0.0
 11
-376.3076856825067
 21
22.296193676838431
 31
0.0
  0
LINE
  5
136CA
  8
01
 10
-379.8076856825067
 20
11.79620182061395
 30
0.0
 11
-380.3076856825067
 21
11.89620298401163
 31
0.0
  0
LINE
  5
136CB
  8
01
 10
-380.3076856825067
 20
11.89620298401163
 30
0.0
 11
-376.3076856825067
 21
12.69619367682988
 31
0.0
  0
LINE
  5
136CC
  8
01
 10
-376.3076856825067
 20
12.69619367682988
 30
0.0
 11
-376.8076856825067
 21
12.79619484022756
 31
0.0
  0
LINE
  5
136CD
  8
01
 10
-379.8076856825067
 20
13.396201820613859
 30
0.0
 11
-380.3076856825067
 21
13.496202984011539
 31
0.0
  0
LINE
  5
136CE
  8
01
 10
-379.8076856825067
 20
14.99620182061377
 30
0.0
 11
-380.3076856825067
 21
15.09620298401145
 31
0.0
  0
LINE
  5
136CF
  8
01
 10
-380.3076856825067
 20
15.09620298401145
 30
0.0
 11
-376.3076856825067
 21
15.8961936768297
 31
0.0
  0
LINE
  5
136D0
  8
01
 10
-376.3076856825067
 20
14.296193676829789
 30
0.0
 11
-376.8076856825067
 21
14.396194840227469
 31
0.0
  0
LINE
  5
136D1
  8
01
 10
-376.3076856825067
 20
15.8961936768297
 30
0.0
 11
-376.8076856825067
 21
15.99619484022738
 31
0.0
  0
LINE
  5
136D2
  8
01
 10
-380.3076856825067
 20
13.496202984011539
 30
0.0
 11
-376.3076856825067
 21
14.296193676829789
 31
0.0
  0
LINE
  5
136D3
  8
01
 10
-379.8076856825067
 20
16.596201820618109
 30
0.0
 11
-380.3076856825067
 21
16.696202984015791
 31
0.0
  0
LINE
  5
136D4
  8
01
 10
-379.8076856825067
 20
10.196201820614039
 30
0.0
 11
-380.3076856825067
 21
10.296202984011719
 31
0.0
  0
LINE
  5
136D5
  8
01
 10
-380.3076856825067
 20
10.296202984011719
 30
0.0
 11
-376.3076856825067
 21
11.096193676829969
 31
0.0
  0
LINE
  5
136D6
  8
01
 10
-376.3076856825067
 20
11.096193676829969
 30
0.0
 11
-376.8076856825067
 21
11.196194840227649
 31
0.0
  0
LINE
  5
136D7
  8
01
 10
-379.8076856825067
 20
8.5962018206141337
 30
0.0
 11
-380.3076856825067
 21
8.696202984011812
 31
0.0
  0
LINE
  5
136D8
  8
01
 10
-380.3076856825067
 20
8.696202984011812
 30
0.0
 11
-376.3076856825067
 21
9.4961936768300674
 31
0.0
  0
LINE
  5
136D9
  8
01
 10
-376.3076856825067
 20
9.4961936768300674
 30
0.0
 11
-376.8076856825067
 21
9.5961948402277457
 31
0.0
  0
LINE
  5
136DA
  8
01
 10
-379.8076856825067
 20
6.9962018206142238
 30
0.0
 11
-380.3076856825067
 21
7.0962029840119021
 31
0.0
  0
LINE
  5
136DB
  8
01
 10
-380.3076856825067
 20
7.0962029840119021
 30
0.0
 11
-376.3076856825067
 21
7.8961936768301584
 31
0.0
  0
LINE
  5
136DC
  8
01
 10
-376.3076856825067
 20
7.8961936768301584
 30
0.0
 11
-376.8076856825067
 21
7.9961948402278358
 31
0.0
  0
LINE
  5
136DD
  8
01
 10
-295.3076856825067
 20
41.196198330483632
 30
0.0
 11
-296.8076856825067
 21
35.896201820621961
 31
0.0
  0
LINE
  5
136DE
  8
01
 10
-296.8076856825067
 20
35.896201820621961
 30
0.0
 11
-296.80768568250647
 21
6.1962018207300877
 31
0.0
  0
LINE
  5
136DF
  8
01
 10
-295.3076856825067
 20
41.196198330483632
 30
0.0
 11
-293.80768568250659
 21
35.89619484023833
 31
0.0
  0
LINE
  5
136E0
  8
01
 10
-298.80773221840451
 20
6.1962064744281742
 30
0.0
 11
-291.80773221840462
 21
6.196190186863836
 31
0.0
  0
LINE
  5
136E1
  8
01
 10
-293.80768568250659
 20
35.89619484023833
 30
0.0
 11
-293.80768568250647
 21
6.1961948403453766
 31
0.0
  0
LINE
  5
136E2
  8
01
 10
-298.80773221840451
 20
6.1962064744281742
 30
0.0
 11
-298.80773221840462
 21
5.0962029842328542
 31
0.0
  0
ARC
  5
136E3
  8
01
 10
-297.30773221840462
 20
5.0962029842328533
 30
0.0
 40
1.5
 50
180.0
 51
269.99986668446837
  0
LINE
  5
136E4
  8
01
 10
-291.80773221840462
 20
6.196190186863836
 30
0.0
 11
-291.80773221840462
 21
5.0961936770532557
 31
0.0
  0
LINE
  5
136E5
  8
01
 10
-297.30773570859702
 20
3.5962029842369181
 30
0.0
 11
-293.30773570859702
 21
3.5961936770573208
 31
0.0
  0
ARC
  5
136E6
  8
01
 10
-293.30773221840468
 20
5.0961936770532574
 30
0.0
 40
1.5
 50
269.99986668446837
 51
0.0
  0
LINE
  5
136E7
  8
01
 10
-295.30773221840462
 20
42.626993247949073
 30
0.0
 11
-295.30773221840462
 21
2.5259219213371789
 31
0.0
  0
LINE
  5
136E8
  8
01
 10
-296.40205603239968
 20
39.096200876805817
 30
0.0
 11
-294.43972094352432
 21
39.896196310856787
 31
0.0
  0
LINE
  5
136E9
  8
01
 10
-294.43972094352432
 20
39.896196310856787
 30
0.0
 11
-295.02799751856668
 21
40.2079661671089
 31
0.0
  0
LINE
  5
136EA
  8
01
 10
-297.3076856825067
 20
16.696202984015819
 30
0.0
 11
-293.3076856825067
 21
17.496193676834071
 31
0.0
  0
LINE
  5
136EB
  8
01
 10
-297.3076856825067
 20
27.896202984020189
 30
0.0
 11
-293.3076856825067
 21
28.696193676842761
 31
0.0
  0
LINE
  5
136EC
  8
01
 10
-297.3076856825067
 20
31.096202984020231
 30
0.0
 11
-293.3076856825067
 21
31.89619367684281
 31
0.0
  0
LINE
  5
136ED
  8
01
 10
-293.3076856825067
 20
31.89619367684281
 30
0.0
 11
-293.8076856825067
 21
31.99619484024003
 31
0.0
  0
LINE
  5
136EE
  8
01
 10
-296.8076856825067
 20
32.59620182062303
 30
0.0
 11
-297.3076856825067
 21
32.696202984020253
 31
0.0
  0
LINE
  5
136EF
  8
01
 10
-293.3076856825067
 20
28.696193676842761
 30
0.0
 11
-293.8076856825067
 21
28.796194840239991
 31
0.0
  0
LINE
  5
136F0
  8
01
 10
-293.3076856825067
 20
30.296193676842901
 30
0.0
 11
-293.8076856825067
 21
30.39619484024001
 31
0.0
  0
LINE
  5
136F1
  8
01
 10
-296.8076856825067
 20
30.996201820623121
 30
0.0
 11
-297.3076856825067
 21
31.096202984020231
 31
0.0
  0
LINE
  5
136F2
  8
01
 10
-296.8076856825067
 20
29.396201820623212
 30
0.0
 11
-297.3076856825067
 21
29.496202984020321
 31
0.0
  0
LINE
  5
136F3
  8
01
 10
-297.3076856825067
 20
29.496202984020321
 30
0.0
 11
-293.3076856825067
 21
30.296193676842901
 31
0.0
  0
LINE
  5
136F4
  8
01
 10
-293.98690683911752
 20
38.296195257251149
 30
0.0
 11
-294.53865630292069
 21
38.478959399879152
 31
0.0
  0
LINE
  5
136F5
  8
01
 10
-293.3076856825067
 20
35.096193676842852
 30
0.0
 11
-293.8076856825067
 21
35.196194840239961
 31
0.0
  0
LINE
  5
136F6
  8
01
 10
-293.3076856825067
 20
33.496193676842829
 30
0.0
 11
-293.8076856825067
 21
33.596194840239832
 31
0.0
  0
LINE
  5
136F7
  8
01
 10
-293.53409273471073
 20
36.696194203645511
 30
0.0
 11
-294.07068646998181
 21
36.825464901275367
 31
0.0
  0
LINE
  5
136F8
  8
01
 10
-296.38677108529799
 20
37.383432418060003
 30
0.0
 11
-296.85486954044791
 21
37.496201930410052
 31
0.0
  0
LINE
  5
136F9
  8
01
 10
-296.8076856825067
 20
34.196201820623173
 30
0.0
 11
-297.3076856825067
 21
34.296202984020283
 31
0.0
  0
LINE
  5
136FA
  8
01
 10
-296.8076856825067
 20
35.796201820623082
 30
0.0
 11
-297.3076856825067
 21
35.896202984020192
 31
0.0
  0
LINE
  5
136FB
  8
01
 10
-295.94488419176861
 20
38.944765080365407
 30
0.0
 11
-296.40205603239968
 21
39.096200876805817
 31
0.0
  0
LINE
  5
136FC
  8
01
 10
-296.85486954044791
 20
37.496201930410052
 30
0.0
 11
-293.98690683911752
 21
38.296195257251149
 31
0.0
  0
LINE
  5
136FD
  8
01
 10
-297.3076856825067
 20
34.296202984020283
 30
0.0
 11
-293.3076856825067
 21
35.096193676842852
 31
0.0
  0
LINE
  5
136FE
  8
01
 10
-297.3076856825067
 20
35.896202984020192
 30
0.0
 11
-293.53409273471073
 21
36.696194203645511
 31
0.0
  0
LINE
  5
136FF
  8
01
 10
-297.3076856825067
 20
32.696202984020253
 30
0.0
 11
-293.3076856825067
 21
33.496193676842829
 31
0.0
  0
LINE
  5
13700
  8
01
 10
-297.3076856825067
 20
19.896202984015861
 30
0.0
 11
-293.3076856825067
 21
20.69619367683412
 31
0.0
  0
LINE
  5
13701
  8
01
 10
-293.3076856825067
 20
20.69619367683412
 30
0.0
 11
-293.8076856825067
 21
20.796194840231799
 31
0.0
  0
LINE
  5
13702
  8
01
 10
-296.8076856825067
 20
21.39620182062253
 30
0.0
 11
-297.3076856825067
 21
21.496202984020211
 31
0.0
  0
LINE
  5
13703
  8
01
 10
-293.3076856825067
 20
19.09619367683398
 30
0.0
 11
-293.8076856825067
 21
19.196194840231659
 31
0.0
  0
LINE
  5
13704
  8
01
 10
-293.3076856825067
 20
17.496193676834071
 30
0.0
 11
-293.8076856825067
 21
17.59619484023175
 31
0.0
  0
LINE
  5
13705
  8
01
 10
-296.8076856825067
 20
19.79620182061818
 30
0.0
 11
-297.3076856825067
 21
19.896202984015861
 31
0.0
  0
LINE
  5
13706
  8
01
 10
-296.8076856825067
 20
18.19620182061805
 30
0.0
 11
-297.3076856825067
 21
18.296202984015729
 31
0.0
  0
LINE
  5
13707
  8
01
 10
-297.3076856825067
 20
18.296202984015729
 30
0.0
 11
-293.3076856825067
 21
19.09619367683398
 31
0.0
  0
LINE
  5
13708
  8
01
 10
-293.3076856825067
 20
25.496193676838509
 30
0.0
 11
-293.8076856825067
 21
25.596194840236191
 31
0.0
  0
LINE
  5
13709
  8
01
 10
-293.3076856825067
 20
27.096193676842852
 30
0.0
 11
-293.8076856825067
 21
27.196194840239961
 31
0.0
  0
LINE
  5
1370A
  8
01
 10
-293.3076856825067
 20
22.29619367683846
 30
0.0
 11
-293.8076856825067
 21
22.396194840236141
 31
0.0
  0
LINE
  5
1370B
  8
01
 10
-293.3076856825067
 20
23.896193676838369
 30
0.0
 11
-293.8076856825067
 21
23.996194840236051
 31
0.0
  0
LINE
  5
1370C
  8
01
 10
-296.8076856825067
 20
27.796201820623079
 30
0.0
 11
-297.3076856825067
 21
27.896202984020189
 31
0.0
  0
LINE
  5
1370D
  8
01
 10
-296.8076856825067
 20
26.196201820622491
 30
0.0
 11
-297.3076856825067
 21
26.29620298402028
 31
0.0
  0
LINE
  5
1370E
  8
01
 10
-296.8076856825067
 20
22.996201820622439
 30
0.0
 11
-297.3076856825067
 21
23.09620298402012
 31
0.0
  0
LINE
  5
1370F
  8
01
 10
-296.8076856825067
 20
24.596201820622579
 30
0.0
 11
-297.3076856825067
 21
24.69620298402026
 31
0.0
  0
LINE
  5
13710
  8
01
 10
-297.3076856825067
 20
24.69620298402026
 30
0.0
 11
-293.3076856825067
 21
25.496193676838509
 31
0.0
  0
LINE
  5
13711
  8
01
 10
-297.3076856825067
 20
26.29620298402028
 30
0.0
 11
-293.3076856825067
 21
27.096193676842852
 31
0.0
  0
LINE
  5
13712
  8
01
 10
-297.3076856825067
 20
23.09620298402012
 30
0.0
 11
-293.3076856825067
 21
23.896193676838369
 31
0.0
  0
LINE
  5
13713
  8
01
 10
-297.3076856825067
 20
21.496202984020211
 30
0.0
 11
-293.3076856825067
 21
22.29619367683846
 31
0.0
  0
LINE
  5
13714
  8
01
 10
-296.8076856825067
 20
11.79620182061398
 30
0.0
 11
-297.3076856825067
 21
11.89620298401166
 31
0.0
  0
LINE
  5
13715
  8
01
 10
-297.3076856825067
 20
11.89620298401166
 30
0.0
 11
-293.3076856825067
 21
12.69619367682991
 31
0.0
  0
LINE
  5
13716
  8
01
 10
-293.3076856825067
 20
12.69619367682991
 30
0.0
 11
-293.8076856825067
 21
12.79619484022759
 31
0.0
  0
LINE
  5
13717
  8
01
 10
-296.8076856825067
 20
13.396201820613889
 30
0.0
 11
-297.3076856825067
 21
13.496202984011569
 31
0.0
  0
LINE
  5
13718
  8
01
 10
-296.8076856825067
 20
14.9962018206138
 30
0.0
 11
-297.3076856825067
 21
15.09620298401148
 31
0.0
  0
LINE
  5
13719
  8
01
 10
-297.3076856825067
 20
15.09620298401148
 30
0.0
 11
-293.3076856825067
 21
15.89619367682973
 31
0.0
  0
LINE
  5
1371A
  8
01
 10
-293.3076856825067
 20
14.296193676829819
 30
0.0
 11
-293.8076856825067
 21
14.3961948402275
 31
0.0
  0
LINE
  5
1371B
  8
01
 10
-293.3076856825067
 20
15.89619367682973
 30
0.0
 11
-293.8076856825067
 21
15.99619484022741
 31
0.0
  0
LINE
  5
1371C
  8
01
 10
-297.3076856825067
 20
13.496202984011569
 30
0.0
 11
-293.3076856825067
 21
14.296193676829819
 31
0.0
  0
LINE
  5
1371D
  8
01
 10
-296.8076856825067
 20
16.596201820618141
 30
0.0
 11
-297.3076856825067
 21
16.696202984015819
 31
0.0
  0
LINE
  5
1371E
  8
01
 10
-296.8076856825067
 20
10.196201820614069
 30
0.0
 11
-297.3076856825067
 21
10.296202984011749
 31
0.0
  0
LINE
  5
1371F
  8
01
 10
-297.3076856825067
 20
10.296202984011749
 30
0.0
 11
-293.3076856825067
 21
11.09619367683
 31
0.0
  0
LINE
  5
13720
  8
01
 10
-293.3076856825067
 20
11.09619367683
 30
0.0
 11
-293.8076856825067
 21
11.19619484022768
 31
0.0
  0
LINE
  5
13721
  8
01
 10
-296.8076856825067
 20
8.5962018206141622
 30
0.0
 11
-297.3076856825067
 21
8.6962029840118404
 31
0.0
  0
LINE
  5
13722
  8
01
 10
-297.3076856825067
 20
8.6962029840118404
 30
0.0
 11
-293.3076856825067
 21
9.4961936768300959
 31
0.0
  0
LINE
  5
13723
  8
01
 10
-293.3076856825067
 20
9.4961936768300959
 30
0.0
 11
-293.8076856825067
 21
9.5961948402277741
 31
0.0
  0
LINE
  5
13724
  8
01
 10
-296.8076856825067
 20
6.9962018206142531
 30
0.0
 11
-297.3076856825067
 21
7.0962029840119314
 31
0.0
  0
LINE
  5
13725
  8
01
 10
-297.3076856825067
 20
7.0962029840119314
 30
0.0
 11
-293.3076856825067
 21
7.8961936768301859
 31
0.0
  0
LINE
  5
13726
  8
01
 10
-293.3076856825067
 20
7.8961936768301859
 30
0.0
 11
-293.8076856825067
 21
7.9961948402278651
 31
0.0
  0
LINE
  5
13727
  8
01
 10
-235.30768568251401
 20
41.196198330483597
 30
0.0
 11
-236.80768568251401
 21
35.896201820621933
 31
0.0
  0
LINE
  5
13728
  8
01
 10
-236.80768568251401
 20
35.896201820621933
 30
0.0
 11
-236.80768568251369
 21
6.1962018207300602
 31
0.0
  0
LINE
  5
13729
  8
01
 10
-235.30768568251401
 20
41.196198330483597
 30
0.0
 11
-233.80768568251389
 21
35.896194840238302
 31
0.0
  0
LINE
  5
1372A
  8
01
 10
-238.80773221841179
 20
6.1962064744281449
 30
0.0
 11
-231.8077322184119
 21
6.1961901868638076
 31
0.0
  0
LINE
  5
1372B
  8
01
 10
-233.80768568251389
 20
35.896194840238302
 30
0.0
 11
-233.80768568251369
 21
6.1961948403453491
 31
0.0
  0
LINE
  5
1372C
  8
01
 10
-238.80773221841179
 20
6.1962064744281449
 30
0.0
 11
-238.8077322184119
 21
5.0962029842328249
 31
0.0
  0
ARC
  5
1372D
  8
01
 10
-237.3077322184119
 20
5.096202984232824
 30
0.0
 40
1.5
 50
180.0
 51
269.99986668446837
  0
LINE
  5
1372E
  8
01
 10
-231.8077322184119
 20
6.1961901868638076
 30
0.0
 11
-231.8077322184119
 21
5.0961936770532281
 31
0.0
  0
LINE
  5
1372F
  8
01
 10
-237.3077357086043
 20
3.5962029842368892
 30
0.0
 11
-233.3077357086043
 21
3.596193677057292
 31
0.0
  0
ARC
  5
13730
  8
01
 10
-233.3077322184119
 20
5.096193677053229
 30
0.0
 40
1.5
 50
269.99986668446837
 51
0.0
  0
LINE
  5
13731
  8
01
 10
-235.3077322184119
 20
42.626993247949052
 30
0.0
 11
-235.3077322184119
 21
2.52592192133715
 31
0.0
  0
LINE
  5
13732
  8
01
 10
-236.40205603240699
 20
39.096200876805788
 30
0.0
 11
-234.4397209435316
 21
39.896196310856759
 31
0.0
  0
LINE
  5
13733
  8
01
 10
-234.4397209435316
 20
39.896196310856759
 30
0.0
 11
-235.02799751857401
 21
40.207966167108872
 31
0.0
  0
LINE
  5
13734
  8
01
 10
-237.30768568251401
 20
16.696202984015791
 30
0.0
 11
-233.30768568251401
 21
17.496193676834039
 31
0.0
  0
LINE
  5
13735
  8
01
 10
-237.30768568251401
 20
27.89620298402016
 30
0.0
 11
-233.30768568251401
 21
28.696193676842729
 31
0.0
  0
LINE
  5
13736
  8
01
 10
-237.30768568251401
 20
31.096202984020199
 30
0.0
 11
-233.30768568251401
 21
31.896193676842781
 31
0.0
  0
LINE
  5
13737
  8
01
 10
-233.30768568251401
 20
31.896193676842781
 30
0.0
 11
-233.80768568251401
 21
31.996194840240001
 31
0.0
  0
LINE
  5
13738
  8
01
 10
-236.80768568251401
 20
32.596201820623001
 30
0.0
 11
-237.30768568251401
 21
32.696202984020232
 31
0.0
  0
LINE
  5
13739
  8
01
 10
-233.30768568251401
 20
28.696193676842729
 30
0.0
 11
-233.80768568251401
 21
28.796194840239959
 31
0.0
  0
LINE
  5
1373A
  8
01
 10
-233.30768568251401
 20
30.296193676842869
 30
0.0
 11
-233.80768568251401
 21
30.396194840239978
 31
0.0
  0
LINE
  5
1373B
  8
01
 10
-236.80768568251401
 20
30.996201820623089
 30
0.0
 11
-237.30768568251401
 21
31.096202984020199
 31
0.0
  0
LINE
  5
1373C
  8
01
 10
-236.80768568251401
 20
29.39620182062319
 30
0.0
 11
-237.30768568251401
 21
29.4962029840203
 31
0.0
  0
LINE
  5
1373D
  8
01
 10
-237.30768568251401
 20
29.4962029840203
 30
0.0
 11
-233.30768568251401
 21
30.296193676842869
 31
0.0
  0
LINE
  5
1373E
  8
01
 10
-233.98690683912471
 20
38.296195257251121
 30
0.0
 11
-234.53865630292799
 21
38.47895939987913
 31
0.0
  0
LINE
  5
1373F
  8
01
 10
-233.30768568251401
 20
35.096193676842823
 30
0.0
 11
-233.80768568251401
 21
35.196194840239933
 31
0.0
  0
LINE
  5
13740
  8
01
 10
-233.30768568251401
 20
33.4961936768428
 30
0.0
 11
-233.80768568251401
 21
33.596194840239797
 31
0.0
  0
LINE
  5
13741
  8
01
 10
-233.53409273471789
 20
36.696194203645483
 30
0.0
 11
-234.07068646998911
 21
36.825464901275353
 31
0.0
  0
LINE
  5
13742
  8
01
 10
-236.3867710853053
 20
37.383432418059982
 30
0.0
 11
-236.85486954045521
 21
37.496201930410017
 31
0.0
  0
LINE
  5
13743
  8
01
 10
-236.80768568251401
 20
34.196201820623138
 30
0.0
 11
-237.30768568251401
 21
34.296202984020248
 31
0.0
  0
LINE
  5
13744
  8
01
 10
-236.80768568251401
 20
35.796201820623047
 30
0.0
 11
-237.30768568251401
 21
35.896202984020157
 31
0.0
  0
LINE
  5
13745
  8
01
 10
-235.94488419177591
 20
38.944765080365379
 30
0.0
 11
-236.40205603240699
 21
39.096200876805788
 31
0.0
  0
LINE
  5
13746
  8
01
 10
-236.85486954045521
 20
37.496201930410017
 30
0.0
 11
-233.98690683912471
 21
38.296195257251121
 31
0.0
  0
LINE
  5
13747
  8
01
 10
-237.30768568251401
 20
34.296202984020248
 30
0.0
 11
-233.30768568251401
 21
35.096193676842823
 31
0.0
  0
LINE
  5
13748
  8
01
 10
-237.30768568251401
 20
35.896202984020157
 30
0.0
 11
-233.53409273471789
 21
36.696194203645483
 31
0.0
  0
LINE
  5
13749
  8
01
 10
-237.30768568251401
 20
32.696202984020232
 30
0.0
 11
-233.30768568251401
 21
33.4961936768428
 31
0.0
  0
LINE
  5
1374A
  8
01
 10
-237.30768568251401
 20
19.89620298401584
 30
0.0
 11
-233.30768568251401
 21
20.696193676834088
 31
0.0
  0
LINE
  5
1374B
  8
01
 10
-233.30768568251401
 20
20.696193676834088
 30
0.0
 11
-233.80768568251401
 21
20.79619484023177
 31
0.0
  0
LINE
  5
1374C
  8
01
 10
-236.80768568251401
 20
21.396201820622501
 30
0.0
 11
-237.30768568251401
 21
21.496202984020179
 31
0.0
  0
LINE
  5
1374D
  8
01
 10
-233.30768568251401
 20
19.096193676833948
 30
0.0
 11
-233.80768568251401
 21
19.19619484023163
 31
0.0
  0
LINE
  5
1374E
  8
01
 10
-233.30768568251401
 20
17.496193676834039
 30
0.0
 11
-233.80768568251401
 21
17.596194840231721
 31
0.0
  0
LINE
  5
1374F
  8
01
 10
-236.80768568251401
 20
19.796201820618158
 30
0.0
 11
-237.30768568251401
 21
19.89620298401584
 31
0.0
  0
LINE
  5
13750
  8
01
 10
-236.80768568251401
 20
18.196201820618018
 30
0.0
 11
-237.30768568251401
 21
18.2962029840157
 31
0.0
  0
LINE
  5
13751
  8
01
 10
-237.30768568251401
 20
18.2962029840157
 30
0.0
 11
-233.30768568251401
 21
19.096193676833948
 31
0.0
  0
LINE
  5
13752
  8
01
 10
-233.30768568251401
 20
25.49619367683848
 30
0.0
 11
-233.80768568251401
 21
25.596194840236159
 31
0.0
  0
LINE
  5
13753
  8
01
 10
-233.30768568251401
 20
27.09619367684283
 30
0.0
 11
-233.80768568251401
 21
27.19619484023994
 31
0.0
  0
LINE
  5
13754
  8
01
 10
-233.30768568251401
 20
22.296193676838431
 30
0.0
 11
-233.80768568251401
 21
22.39619484023611
 31
0.0
  0
LINE
  5
13755
  8
01
 10
-233.30768568251401
 20
23.896193676838351
 30
0.0
 11
-233.80768568251401
 21
23.996194840236019
 31
0.0
  0
LINE
  5
13756
  8
01
 10
-236.80768568251401
 20
27.79620182062305
 30
0.0
 11
-237.30768568251401
 21
27.89620298402016
 31
0.0
  0
LINE
  5
13757
  8
01
 10
-236.80768568251401
 20
26.196201820622459
 30
0.0
 11
-237.30768568251401
 21
26.296202984020251
 31
0.0
  0
LINE
  5
13758
  8
01
 10
-236.80768568251401
 20
22.99620182062241
 30
0.0
 11
-237.30768568251401
 21
23.096202984020088
 31
0.0
  0
LINE
  5
13759
  8
01
 10
-236.80768568251401
 20
24.59620182062255
 30
0.0
 11
-237.30768568251401
 21
24.696202984020228
 31
0.0
  0
LINE
  5
1375A
  8
01
 10
-237.30768568251401
 20
24.696202984020228
 30
0.0
 11
-233.30768568251401
 21
25.49619367683848
 31
0.0
  0
LINE
  5
1375B
  8
01
 10
-237.30768568251401
 20
26.296202984020251
 30
0.0
 11
-233.30768568251401
 21
27.09619367684283
 31
0.0
  0
LINE
  5
1375C
  8
01
 10
-237.30768568251401
 20
23.096202984020088
 30
0.0
 11
-233.30768568251401
 21
23.896193676838351
 31
0.0
  0
LINE
  5
1375D
  8
01
 10
-237.30768568251401
 20
21.496202984020179
 30
0.0
 11
-233.30768568251401
 21
22.296193676838431
 31
0.0
  0
LINE
  5
1375E
  8
01
 10
-236.80768568251401
 20
11.79620182061395
 30
0.0
 11
-237.30768568251401
 21
11.89620298401163
 31
0.0
  0
LINE
  5
1375F
  8
01
 10
-237.30768568251401
 20
11.89620298401163
 30
0.0
 11
-233.30768568251401
 21
12.69619367682988
 31
0.0
  0
LINE
  5
13760
  8
01
 10
-233.30768568251401
 20
12.69619367682988
 30
0.0
 11
-233.80768568251401
 21
12.79619484022756
 31
0.0
  0
LINE
  5
13761
  8
01
 10
-236.80768568251401
 20
13.396201820613859
 30
0.0
 11
-237.30768568251401
 21
13.496202984011539
 31
0.0
  0
LINE
  5
13762
  8
01
 10
-236.80768568251401
 20
14.99620182061377
 30
0.0
 11
-237.30768568251401
 21
15.09620298401145
 31
0.0
  0
LINE
  5
13763
  8
01
 10
-237.30768568251401
 20
15.09620298401145
 30
0.0
 11
-233.30768568251401
 21
15.8961936768297
 31
0.0
  0
LINE
  5
13764
  8
01
 10
-233.30768568251401
 20
14.296193676829789
 30
0.0
 11
-233.80768568251401
 21
14.396194840227469
 31
0.0
  0
LINE
  5
13765
  8
01
 10
-233.30768568251401
 20
15.8961936768297
 30
0.0
 11
-233.80768568251401
 21
15.99619484022738
 31
0.0
  0
LINE
  5
13766
  8
01
 10
-237.30768568251401
 20
13.496202984011539
 30
0.0
 11
-233.30768568251401
 21
14.296193676829789
 31
0.0
  0
LINE
  5
13767
  8
01
 10
-236.80768568251401
 20
16.596201820618109
 30
0.0
 11
-237.30768568251401
 21
16.696202984015791
 31
0.0
  0
LINE
  5
13768
  8
01
 10
-236.80768568251401
 20
10.196201820614039
 30
0.0
 11
-237.30768568251401
 21
10.296202984011719
 31
0.0
  0
LINE
  5
13769
  8
01
 10
-237.30768568251401
 20
10.296202984011719
 30
0.0
 11
-233.30768568251401
 21
11.096193676829969
 31
0.0
  0
LINE
  5
1376A
  8
01
 10
-233.30768568251401
 20
11.096193676829969
 30
0.0
 11
-233.80768568251401
 21
11.196194840227649
 31
0.0
  0
LINE
  5
1376B
  8
01
 10
-236.80768568251401
 20
8.5962018206141337
 30
0.0
 11
-237.30768568251401
 21
8.696202984011812
 31
0.0
  0
LINE
  5
1376C
  8
01
 10
-237.30768568251401
 20
8.696202984011812
 30
0.0
 11
-233.30768568251401
 21
9.4961936768300674
 31
0.0
  0
LINE
  5
1376D
  8
01
 10
-233.30768568251401
 20
9.4961936768300674
 30
0.0
 11
-233.80768568251401
 21
9.5961948402277457
 31
0.0
  0
LINE
  5
1376E
  8
01
 10
-236.80768568251401
 20
6.9962018206142238
 30
0.0
 11
-237.30768568251401
 21
7.0962029840119021
 31
0.0
  0
LINE
  5
1376F
  8
01
 10
-237.30768568251401
 20
7.0962029840119021
 30
0.0
 11
-233.30768568251401
 21
7.8961936768301584
 31
0.0
  0
LINE
  5
13770
  8
01
 10
-233.30768568251401
 20
7.8961936768301584
 30
0.0
 11
-233.80768568251401
 21
7.9961948402278358
 31
0.0
  0
LINE
  5
13771
  8
01
 10
-49.00051373067663
 20
-104.2751803548573
 30
0.0
 11
-49.00051373067663
 21
-63.67757510656827
 31
0.0
  0
LINE
  5
13772
  8
01
 10
43.54266883228194
 20
-76.602252851553658
 30
0.0
 11
43.54266883228194
 21
-63.67757510656827
 31
0.0
  0
LINE
  5
13773
  8
01
 10
-47.00051373067663
 20
-64.67757510656827
 30
0.0
 11
41.542668832281947
 21
-64.67757510656827
 31
0.0
  0
LINE
  5
13777
  8
01
 10
-32.510196543467998
 20
-152.98229205711871
 30
0.0
 11
-32.510196543467991
 21
-72.83042643683541
 31
0.0
  0
LINE
  5
13778
  8
01
 10
43.54266883228194
 20
-76.602252851553658
 30
0.0
 11
43.54266883228194
 21
-72.83042643683541
 31
0.0
  0
LINE
  5
13779
  8
01
 10
-30.510196543467991
 20
-73.83042643683541
 30
0.0
 11
41.542668832281947
 21
-73.83042643683541
 31
0.0
  0
LINE
  5
1377D
  8
01
 10
-397.8077322184065
 20
-100.41241916762669
 30
0.0
 11
-397.8077322184065
 21
-82.154476300870897
 31
0.0
  0
LINE
  5
1377E
  8
01
 10
-132.80773221841011
 20
-100.41241916762669
 30
0.0
 11
-132.80773221841011
 21
-82.154476300870897
 31
0.0
  0
LINE
  5
1377F
  8
01
 10
-393.8077322184065
 20
-84.154476300870883
 30
0.0
 11
-136.80773221841011
 21
-84.154476300870883
 31
0.0
  0
LINE
  5
13783
  8
01
 10
-235.3077322184119
 20
-129.80708287910619
 30
0.0
 11
-235.3077322184119
 21
-179.28659997021259
 31
0.0
  0
LINE
  5
13784
  8
01
 10
-152.3077322184119
 20
-129.80708287910619
 30
0.0
 11
-152.3077322184119
 21
-179.28659997021259
 31
0.0
  0
LINE
  5
13785
  8
01
 10
-231.3077322184119
 20
-177.28659997021259
 30
0.0
 11
-156.3077322184119
 21
-177.28659997021259
 31
0.0
  0
LINE
  5
13789
  8
01
 10
74.542668832119574
 20
-122.8304729727337
 30
0.0
 11
69.242672322257903
 21
-121.3304729727336
 31
0.0
  0
LINE
  5
1378A
  8
01
 10
69.242672322257903
 20
-121.3304729727336
 30
0.0
 11
39.54267232236603
 21
-121.3304729727339
 31
0.0
  0
LINE
  5
1378B
  8
01
 10
74.542668832119574
 20
-122.8304729727337
 30
0.0
 11
69.242665341874272
 21
-124.3304729727338
 31
0.0
  0
LINE
  5
1378C
  8
01
 10
39.542676976064108
 20
-119.33042643683579
 30
0.0
 11
39.54266068849978
 21
-126.33042643683569
 31
0.0
  0
LINE
  5
1378D
  8
01
 10
69.242665341874272
 20
-124.3304729727338
 30
0.0
 11
39.542665341981319
 21
-124.3304729727339
 31
0.0
  0
LINE
  5
1378E
  8
01
 10
39.542676976064108
 20
-119.33042643683579
 30
0.0
 11
38.442673485868802
 21
-119.33042643683569
 31
0.0
  0
ARC
  5
1378F
  8
01
 10
38.442673485868802
 20
-120.83042643683569
 30
0.0
 40
1.5
 50
90.0
 51
179.9998666844684
  0
LINE
  5
13790
  8
01
 10
39.54266068849978
 20
-126.33042643683569
 30
0.0
 11
38.442664178689199
 21
-126.33042643683569
 31
0.0
  0
LINE
  5
13791
  8
01
 10
36.942673485872859
 20
-120.8304229466433
 30
0.0
 11
36.942664178693263
 21
-124.8304229466433
 31
0.0
  0
ARC
  5
13792
  8
01
 10
38.442664178689199
 20
-124.83042643683569
 30
0.0
 40
1.5
 50
179.9998666844684
 51
270.0
  0
LINE
  5
13793
  8
01
 10
75.973463749585022
 20
-122.83042643683569
 30
0.0
 11
35.872392422973121
 21
-122.83042643683569
 31
0.0
  0
LINE
  5
13794
  8
01
 10
72.442671378441744
 20
-121.7361026228407
 30
0.0
 11
73.242666812492729
 21
-123.6984377117161
 31
0.0
  0
LINE
  5
13795
  8
01
 10
73.242666812492729
 20
-123.6984377117161
 30
0.0
 11
73.554436668744842
 21
-123.1101611366737
 31
0.0
  0
LINE
  5
13796
  8
01
 10
50.042673485651761
 20
-120.8304729727337
 30
0.0
 11
50.84266417847001
 21
-124.8304729727337
 31
0.0
  0
LINE
  5
13797
  8
01
 10
61.242673485656127
 20
-120.8304729727337
 30
0.0
 11
62.042664178478702
 21
-124.8304729727337
 31
0.0
  0
LINE
  5
13798
  8
01
 10
64.442673485656172
 20
-120.8304729727337
 30
0.0
 11
65.242664178478748
 21
-124.8304729727337
 31
0.0
  0
LINE
  5
13799
  8
01
 10
65.242664178478748
 20
-124.8304729727337
 30
0.0
 11
65.342665341875971
 21
-124.3304729727336
 31
0.0
  0
LINE
  5
1379A
  8
01
 10
65.942672322258971
 20
-121.3304729727336
 30
0.0
 11
66.042673485656195
 21
-120.8304729727337
 31
0.0
  0
LINE
  5
1379B
  8
01
 10
62.042664178478702
 20
-124.8304729727337
 30
0.0
 11
62.142665341875933
 21
-124.3304729727336
 31
0.0
  0
LINE
  5
1379C
  8
01
 10
63.642664178478839
 20
-124.8304729727337
 30
0.0
 11
63.742665341875949
 21
-124.3304729727336
 31
0.0
  0
LINE
  5
1379D
  8
01
 10
64.342672322259062
 20
-121.3304729727336
 30
0.0
 11
64.442673485656172
 21
-120.8304729727337
 31
0.0
  0
LINE
  5
1379E
  8
01
 10
62.742672322259153
 20
-121.3304729727336
 30
0.0
 11
62.842673485656263
 21
-120.8304729727337
 31
0.0
  0
LINE
  5
1379F
  8
01
 10
62.842673485656263
 20
-120.8304729727337
 30
0.0
 11
63.642664178478839
 21
-124.8304729727337
 31
0.0
  0
LINE
  5
137A0
  8
01
 10
71.642665758887091
 20
-124.15125181612289
 30
0.0
 11
71.825429901515093
 21
-123.5995023523196
 31
0.0
  0
LINE
  5
137A1
  8
01
 10
68.442664178478793
 20
-124.8304729727337
 30
0.0
 11
68.542665341875903
 21
-124.3304729727336
 31
0.0
  0
LINE
  5
137A2
  8
01
 10
66.842664178478771
 20
-124.8304729727337
 30
0.0
 11
66.942665341875767
 21
-124.3304729727336
 31
0.0
  0
LINE
  5
137A3
  8
01
 10
70.042664705281453
 20
-124.60406592052971
 30
0.0
 11
70.171935402911316
 21
-124.0674721852585
 31
0.0
  0
LINE
  5
137A4
  8
01
 10
70.729902919695945
 20
-121.75138756994239
 30
0.0
 11
70.842672432045987
 21
-121.2832891147924
 31
0.0
  0
LINE
  5
137A5
  8
01
 10
67.542672322259094
 20
-121.3304729727336
 30
0.0
 11
67.642673485656204
 21
-120.8304729727337
 31
0.0
  0
LINE
  5
137A6
  8
01
 10
69.142672322259017
 20
-121.3304729727336
 30
0.0
 11
69.242673485656127
 21
-120.8304729727337
 31
0.0
  0
LINE
  5
137A7
  8
01
 10
72.291235582001349
 20
-122.1932744634717
 30
0.0
 11
72.442671378441744
 21
-121.7361026228407
 31
0.0
  0
LINE
  5
137A8
  8
01
 10
70.842672432045987
 20
-121.2832891147924
 30
0.0
 11
71.642665758887091
 21
-124.15125181612289
 31
0.0
  0
LINE
  5
137A9
  8
01
 10
67.642673485656204
 20
-120.8304729727337
 30
0.0
 11
68.442664178478793
 21
-124.8304729727337
 31
0.0
  0
LINE
  5
137AA
  8
01
 10
69.242673485656127
 20
-120.8304729727337
 30
0.0
 11
70.042664705281453
 21
-124.60406592052971
 31
0.0
  0
LINE
  5
137AB
  8
01
 10
66.042673485656195
 20
-120.8304729727337
 30
0.0
 11
66.842664178478771
 21
-124.8304729727337
 31
0.0
  0
LINE
  5
137AC
  8
01
 10
53.242673485651807
 20
-120.8304729727337
 30
0.0
 11
54.042664178470062
 21
-124.8304729727337
 31
0.0
  0
LINE
  5
137AD
  8
01
 10
54.042664178470062
 20
-124.8304729727337
 30
0.0
 11
54.14266534186774
 21
-124.3304729727336
 31
0.0
  0
LINE
  5
137AE
  8
01
 10
54.742672322258471
 20
-121.3304729727336
 30
0.0
 11
54.84267348565615
 21
-120.8304729727337
 31
0.0
  0
LINE
  5
137AF
  8
01
 10
52.442664178469933
 20
-124.8304729727337
 30
0.0
 11
52.542665341867597
 21
-124.3304729727336
 31
0.0
  0
LINE
  5
137B0
  8
01
 10
50.84266417847001
 20
-124.8304729727337
 30
0.0
 11
50.942665341867688
 21
-124.3304729727336
 31
0.0
  0
LINE
  5
137B1
  8
01
 10
53.142672322254128
 20
-121.3304729727336
 30
0.0
 11
53.242673485651807
 21
-120.8304729727337
 31
0.0
  0
LINE
  5
137B2
  8
01
 10
51.542672322253992
 20
-121.3304729727336
 30
0.0
 11
51.64267348565167
 21
-120.8304729727337
 31
0.0
  0
LINE
  5
137B3
  8
01
 10
51.64267348565167
 20
-120.8304729727337
 30
0.0
 11
52.442664178469933
 21
-124.8304729727337
 31
0.0
  0
LINE
  5
137B4
  8
01
 10
58.84266417847445
 20
-124.8304729727337
 30
0.0
 11
58.942665341872129
 21
-124.3304729727336
 31
0.0
  0
LINE
  5
137B5
  8
01
 10
60.442664178478793
 20
-124.8304729727337
 30
0.0
 11
60.542665341875903
 21
-124.3304729727336
 31
0.0
  0
LINE
  5
137B6
  8
01
 10
55.642664178474412
 20
-124.8304729727337
 30
0.0
 11
55.742665341872083
 21
-124.3304729727336
 31
0.0
  0
LINE
  5
137B7
  8
01
 10
57.242664178474307
 20
-124.8304729727337
 30
0.0
 11
57.342665341871992
 21
-124.3304729727336
 31
0.0
  0
LINE
  5
137B8
  8
01
 10
61.142672322259017
 20
-121.3304729727336
 30
0.0
 11
61.242673485656127
 21
-120.8304729727337
 31
0.0
  0
LINE
  5
137B9
  8
01
 10
59.542672322258419
 20
-121.3304729727336
 30
0.0
 11
59.642673485656218
 21
-120.8304729727337
 31
0.0
  0
LINE
  5
137BA
  8
01
 10
56.34267232225838
 20
-121.3304729727336
 30
0.0
 11
56.442673485656051
 21
-120.8304729727337
 31
0.0
  0
LINE
  5
137BB
  8
01
 10
57.942672322258517
 20
-121.3304729727336
 30
0.0
 11
58.042673485656202
 21
-120.8304729727337
 31
0.0
  0
LINE
  5
137BC
  8
01
 10
58.042673485656202
 20
-120.8304729727337
 30
0.0
 11
58.84266417847445
 21
-124.8304729727337
 31
0.0
  0
LINE
  5
137BD
  8
01
 10
59.642673485656218
 20
-120.8304729727337
 30
0.0
 11
60.442664178478793
 21
-124.8304729727337
 31
0.0
  0
LINE
  5
137BE
  8
01
 10
56.442673485656051
 20
-120.8304729727337
 30
0.0
 11
57.242664178474307
 21
-124.8304729727337
 31
0.0
  0
LINE
  5
137BF
  8
01
 10
54.84267348565615
 20
-120.8304729727337
 30
0.0
 11
55.642664178474412
 21
-124.8304729727337
 31
0.0
  0
LINE
  5
137C0
  8
01
 10
45.142672322249922
 20
-121.3304729727336
 30
0.0
 11
45.2426734856476
 21
-120.8304729727337
 31
0.0
  0
LINE
  5
137C1
  8
01
 10
45.2426734856476
 20
-120.8304729727337
 30
0.0
 11
46.042664178465849
 21
-124.8304729727337
 31
0.0
  0
LINE
  5
137C2
  8
01
 10
46.042664178465849
 20
-124.8304729727337
 30
0.0
 11
46.142665341863527
 21
-124.3304729727336
 31
0.0
  0
LINE
  5
137C3
  8
01
 10
46.742672322249831
 20
-121.3304729727336
 30
0.0
 11
46.842673485647509
 21
-120.8304729727337
 31
0.0
  0
LINE
  5
137C4
  8
01
 10
48.34267232224974
 20
-121.3304729727336
 30
0.0
 11
48.442673485647411
 21
-120.8304729727337
 31
0.0
  0
LINE
  5
137C5
  8
01
 10
48.442673485647411
 20
-120.8304729727337
 30
0.0
 11
49.242664178465667
 21
-124.8304729727337
 31
0.0
  0
LINE
  5
137C6
  8
01
 10
47.642664178465772
 20
-124.8304729727337
 30
0.0
 11
47.742665341863443
 21
-124.3304729727336
 31
0.0
  0
LINE
  5
137C7
  8
01
 10
49.242664178465667
 20
-124.8304729727337
 30
0.0
 11
49.342665341863352
 21
-124.3304729727336
 31
0.0
  0
LINE
  5
137C8
  8
01
 10
46.842673485647509
 20
-120.8304729727337
 30
0.0
 11
47.642664178465772
 21
-124.8304729727337
 31
0.0
  0
LINE
  5
137C9
  8
01
 10
49.942672322254083
 20
-121.3304729727336
 30
0.0
 11
50.042673485651761
 21
-120.8304729727337
 31
0.0
  0
LINE
  5
137CA
  8
01
 10
43.542672322250013
 20
-121.3304729727336
 30
0.0
 11
43.642673485647677
 21
-120.8304729727337
 31
0.0
  0
LINE
  5
137CB
  8
01
 10
43.642673485647677
 20
-120.8304729727337
 30
0.0
 11
44.44266417846594
 21
-124.8304729727337
 31
0.0
  0
LINE
  5
137CC
  8
01
 10
44.44266417846594
 20
-124.8304729727337
 30
0.0
 11
44.542665341863618
 21
-124.3304729727336
 31
0.0
  0
LINE
  5
137CD
  8
01
 10
41.942672322250097
 20
-121.3304729727336
 30
0.0
 11
42.042673485647782
 21
-120.8304729727337
 31
0.0
  0
LINE
  5
137CE
  8
01
 10
42.042673485647782
 20
-120.8304729727337
 30
0.0
 11
42.842664178466038
 21
-124.8304729727337
 31
0.0
  0
LINE
  5
137CF
  8
01
 10
42.842664178466038
 20
-124.8304729727337
 30
0.0
 11
42.942665341863709
 21
-124.3304729727336
 31
0.0
  0
LINE
  5
137D0
  8
01
 10
40.342672322250188
 20
-121.3304729727336
 30
0.0
 11
40.442673485647873
 21
-120.8304729727337
 31
0.0
  0
LINE
  5
137D1
  8
01
 10
40.442673485647873
 20
-120.8304729727337
 30
0.0
 11
41.242664178466121
 21
-124.8304729727337
 31
0.0
  0
LINE
  5
137D2
  8
01
 10
41.242664178466121
 20
-124.8304729727337
 30
0.0
 11
41.3426653418638
 21
-124.3304729727336
 31
0.0
  0
LINE
  5
137D3
  8
01
 10
-152.30768568251401
 20
41.196198330483611
 30
0.0
 11
-153.80768568251389
 21
35.896201820621947
 31
0.0
  0
LINE
  5
137D4
  8
01
 10
-153.80768568251389
 20
35.896201820621947
 30
0.0
 11
-153.80768568251369
 21
6.1962018207300744
 31
0.0
  0
LINE
  5
137D5
  8
01
 10
-152.30768568251401
 20
41.196198330483611
 30
0.0
 11
-150.80768568251381
 21
35.896194840238323
 31
0.0
  0
LINE
  5
137D6
  8
01
 10
-155.80773221841179
 20
6.1962064744281591
 30
0.0
 11
-148.8077322184119
 21
6.1961901868638218
 31
0.0
  0
LINE
  5
137D7
  8
01
 10
-150.80768568251381
 20
35.896194840238323
 30
0.0
 11
-150.80768568251369
 21
6.1961948403453633
 31
0.0
  0
LINE
  5
137D8
  8
01
 10
-155.80773221841179
 20
6.1962064744281591
 30
0.0
 11
-155.8077322184119
 21
5.09620298423284
 31
0.0
  0
ARC
  5
137D9
  8
01
 10
-154.3077322184119
 20
5.0962029842328391
 30
0.0
 40
1.5
 50
180.0
 51
269.99986668446837
  0
LINE
  5
137DA
  8
01
 10
-148.8077322184119
 20
6.1961901868638218
 30
0.0
 11
-148.8077322184119
 21
5.0961936770532423
 31
0.0
  0
LINE
  5
137DB
  8
01
 10
-154.3077357086043
 20
3.596202984236903
 30
0.0
 11
-150.3077357086043
 21
3.5961936770573071
 31
0.0
  0
ARC
  5
137DC
  8
01
 10
-150.3077322184119
 20
5.0961936770532432
 30
0.0
 40
1.5
 50
269.99986668446837
 51
0.0
  0
LINE
  5
137DD
  8
01
 10
-152.3077322184119
 20
42.626993247949059
 30
0.0
 11
-152.3077322184119
 21
2.5259219213371651
 31
0.0
  0
LINE
  5
137DE
  8
01
 10
-153.4020560324069
 20
39.096200876805803
 30
0.0
 11
-151.43972094353151
 21
39.896196310856773
 31
0.0
  0
LINE
  5
137DF
  8
01
 10
-151.43972094353151
 20
39.896196310856773
 30
0.0
 11
-152.0279975185739
 21
40.207966167108879
 31
0.0
  0
LINE
  5
137E0
  8
01
 10
-154.30768568251401
 20
16.696202984015802
 30
0.0
 11
-150.30768568251389
 21
17.496193676834061
 31
0.0
  0
LINE
  5
137E1
  8
01
 10
-154.30768568251401
 20
27.896202984020171
 30
0.0
 11
-150.30768568251389
 21
28.69619367684275
 31
0.0
  0
LINE
  5
137E2
  8
01
 10
-154.30768568251401
 20
31.09620298402022
 30
0.0
 11
-150.30768568251389
 21
31.896193676842788
 31
0.0
  0
LINE
  5
137E3
  8
01
 10
-150.30768568251389
 20
31.896193676842788
 30
0.0
 11
-150.80768568251389
 21
31.996194840240008
 31
0.0
  0
LINE
  5
137E4
  8
01
 10
-153.80768568251389
 20
32.596201820623023
 30
0.0
 11
-154.30768568251401
 21
32.696202984020239
 31
0.0
  0
LINE
  5
137E5
  8
01
 10
-150.30768568251389
 20
28.69619367684275
 30
0.0
 11
-150.80768568251389
 21
28.79619484023997
 31
0.0
  0
LINE
  5
137E6
  8
01
 10
-150.30768568251389
 20
30.29619367684289
 30
0.0
 11
-150.80768568251389
 21
30.39619484024
 31
0.0
  0
LINE
  5
137E7
  8
01
 10
-153.80768568251389
 20
30.99620182062311
 30
0.0
 11
-154.30768568251401
 21
31.09620298402022
 31
0.0
  0
LINE
  5
137E8
  8
01
 10
-153.80768568251389
 20
29.396201820623201
 30
0.0
 11
-154.30768568251401
 21
29.496202984020311
 31
0.0
  0
LINE
  5
137E9
  8
01
 10
-154.30768568251401
 20
29.496202984020311
 30
0.0
 11
-150.30768568251389
 21
30.29619367684289
 31
0.0
  0
LINE
  5
137EA
  8
01
 10
-150.98690683912471
 20
38.296195257251142
 30
0.0
 11
-151.53865630292799
 21
38.478959399879137
 31
0.0
  0
LINE
  5
137EB
  8
01
 10
-150.30768568251389
 20
35.096193676842837
 30
0.0
 11
-150.80768568251389
 21
35.196194840239947
 31
0.0
  0
LINE
  5
137EC
  8
01
 10
-150.30768568251389
 20
33.496193676842822
 30
0.0
 11
-150.80768568251389
 21
33.596194840239811
 31
0.0
  0
LINE
  5
137ED
  8
01
 10
-150.53409273471789
 20
36.696194203645497
 30
0.0
 11
-151.07068646998911
 21
36.82546490127536
 31
0.0
  0
LINE
  5
137EE
  8
01
 10
-153.38677108530521
 20
37.383432418059989
 30
0.0
 11
-153.85486954045521
 21
37.496201930410031
 31
0.0
  0
LINE
  5
137EF
  8
01
 10
-153.80768568251389
 20
34.196201820623152
 30
0.0
 11
-154.30768568251401
 21
34.296202984020262
 31
0.0
  0
LINE
  5
137F0
  8
01
 10
-153.80768568251389
 20
35.796201820623061
 30
0.0
 11
-154.30768568251401
 21
35.896202984020171
 31
0.0
  0
LINE
  5
137F1
  8
01
 10
-152.94488419177591
 20
38.944765080365393
 30
0.0
 11
-153.4020560324069
 21
39.096200876805803
 31
0.0
  0
LINE
  5
137F2
  8
01
 10
-153.85486954045521
 20
37.496201930410031
 30
0.0
 11
-150.98690683912471
 21
38.296195257251142
 31
0.0
  0
LINE
  5
137F3
  8
01
 10
-154.30768568251401
 20
34.296202984020262
 30
0.0
 11
-150.30768568251389
 21
35.096193676842837
 31
0.0
  0
LINE
  5
137F4
  8
01
 10
-154.30768568251401
 20
35.896202984020171
 30
0.0
 11
-150.53409273471789
 21
36.696194203645497
 31
0.0
  0
LINE
  5
137F5
  8
01
 10
-154.30768568251401
 20
32.696202984020239
 30
0.0
 11
-150.30768568251389
 21
33.496193676842822
 31
0.0
  0
LINE
  5
137F6
  8
01
 10
-154.30768568251401
 20
19.896202984015851
 30
0.0
 11
-150.30768568251389
 21
20.69619367683411
 31
0.0
  0
LINE
  5
137F7
  8
01
 10
-150.30768568251389
 20
20.69619367683411
 30
0.0
 11
-150.80768568251389
 21
20.796194840231781
 31
0.0
  0
LINE
  5
137F8
  8
01
 10
-153.80768568251389
 20
21.396201820622519
 30
0.0
 11
-154.30768568251401
 21
21.496202984020201
 31
0.0
  0
LINE
  5
137F9
  8
01
 10
-150.30768568251389
 20
19.09619367683397
 30
0.0
 11
-150.80768568251389
 21
19.196194840231652
 31
0.0
  0
LINE
  5
137FA
  8
01
 10
-150.30768568251389
 20
17.496193676834061
 30
0.0
 11
-150.80768568251389
 21
17.596194840231739
 31
0.0
  0
LINE
  5
137FB
  8
01
 10
-153.80768568251389
 20
19.796201820618169
 30
0.0
 11
-154.30768568251401
 21
19.896202984015851
 31
0.0
  0
LINE
  5
137FC
  8
01
 10
-153.80768568251389
 20
18.196201820618029
 30
0.0
 11
-154.30768568251401
 21
18.296202984015711
 31
0.0
  0
LINE
  5
137FD
  8
01
 10
-154.30768568251401
 20
18.296202984015711
 30
0.0
 11
-150.30768568251389
 21
19.09619367683397
 31
0.0
  0
LINE
  5
137FE
  8
01
 10
-150.30768568251389
 20
25.496193676838491
 30
0.0
 11
-150.80768568251389
 21
25.596194840236169
 31
0.0
  0
LINE
  5
137FF
  8
01
 10
-150.30768568251389
 20
27.096193676842841
 30
0.0
 11
-150.80768568251389
 21
27.196194840239951
 31
0.0
  0
LINE
  5
13800
  8
01
 10
-150.30768568251389
 20
22.296193676838449
 30
0.0
 11
-150.80768568251389
 21
22.396194840236131
 31
0.0
  0
LINE
  5
13801
  8
01
 10
-150.30768568251389
 20
23.896193676838362
 30
0.0
 11
-150.80768568251389
 21
23.99619484023604
 31
0.0
  0
LINE
  5
13802
  8
01
 10
-153.80768568251389
 20
27.796201820623061
 30
0.0
 11
-154.30768568251401
 21
27.896202984020171
 31
0.0
  0
LINE
  5
13803
  8
01
 10
-153.80768568251389
 20
26.19620182062247
 30
0.0
 11
-154.30768568251401
 21
26.296202984020258
 31
0.0
  0
LINE
  5
13804
  8
01
 10
-153.80768568251389
 20
22.996201820622431
 30
0.0
 11
-154.30768568251401
 21
23.096202984020099
 31
0.0
  0
LINE
  5
13805
  8
01
 10
-153.80768568251389
 20
24.596201820622561
 30
0.0
 11
-154.30768568251401
 21
24.696202984020239
 31
0.0
  0
LINE
  5
13806
  8
01
 10
-154.30768568251401
 20
24.696202984020239
 30
0.0
 11
-150.30768568251389
 21
25.496193676838491
 31
0.0
  0
LINE
  5
13807
  8
01
 10
-154.30768568251401
 20
26.296202984020258
 30
0.0
 11
-150.30768568251389
 21
27.096193676842841
 31
0.0
  0
LINE
  5
13808
  8
01
 10
-154.30768568251401
 20
23.096202984020099
 30
0.0
 11
-150.30768568251389
 21
23.896193676838362
 31
0.0
  0
LINE
  5
13809
  8
01
 10
-154.30768568251401
 20
21.496202984020201
 30
0.0
 11
-150.30768568251389
 21
22.296193676838449
 31
0.0
  0
LINE
  5
1380A
  8
01
 10
-153.80768568251389
 20
11.796201820613961
 30
0.0
 11
-154.30768568251401
 21
11.896202984011641
 31
0.0
  0
LINE
  5
1380B
  8
01
 10
-154.30768568251401
 20
11.896202984011641
 30
0.0
 11
-150.30768568251389
 21
12.6961936768299
 31
0.0
  0
LINE
  5
1380C
  8
01
 10
-150.30768568251389
 20
12.6961936768299
 30
0.0
 11
-150.80768568251389
 21
12.79619484022758
 31
0.0
  0
LINE
  5
1380D
  8
01
 10
-153.80768568251389
 20
13.39620182061387
 30
0.0
 11
-154.30768568251401
 21
13.49620298401155
 31
0.0
  0
LINE
  5
1380E
  8
01
 10
-153.80768568251389
 20
14.996201820613781
 30
0.0
 11
-154.30768568251401
 21
15.096202984011461
 31
0.0
  0
LINE
  5
1380F
  8
01
 10
-154.30768568251401
 20
15.096202984011461
 30
0.0
 11
-150.30768568251389
 21
15.89619367682972
 31
0.0
  0
LINE
  5
13810
  8
01
 10
-150.30768568251389
 20
14.296193676829811
 30
0.0
 11
-150.80768568251389
 21
14.39619484022748
 31
0.0
  0
LINE
  5
13811
  8
01
 10
-150.30768568251389
 20
15.89619367682972
 30
0.0
 11
-150.80768568251389
 21
15.996194840227391
 31
0.0
  0
LINE
  5
13812
  8
01
 10
-154.30768568251401
 20
13.49620298401155
 30
0.0
 11
-150.30768568251389
 21
14.296193676829811
 31
0.0
  0
LINE
  5
13813
  8
01
 10
-153.80768568251389
 20
16.596201820618131
 30
0.0
 11
-154.30768568251401
 21
16.696202984015802
 31
0.0
  0
LINE
  5
13814
  8
01
 10
-153.80768568251389
 20
10.19620182061405
 30
0.0
 11
-154.30768568251401
 21
10.29620298401173
 31
0.0
  0
LINE
  5
13815
  8
01
 10
-154.30768568251401
 20
10.29620298401173
 30
0.0
 11
-150.30768568251389
 21
11.096193676829991
 31
0.0
  0
LINE
  5
13816
  8
01
 10
-150.30768568251389
 20
11.096193676829991
 30
0.0
 11
-150.80768568251389
 21
11.196194840227671
 31
0.0
  0
LINE
  5
13817
  8
01
 10
-153.80768568251389
 20
8.5962018206141462
 30
0.0
 11
-154.30768568251401
 21
8.6962029840118262
 31
0.0
  0
LINE
  5
13818
  8
01
 10
-154.30768568251401
 20
8.6962029840118262
 30
0.0
 11
-150.30768568251389
 21
9.4961936768300816
 31
0.0
  0
LINE
  5
13819
  8
01
 10
-150.30768568251389
 20
9.4961936768300816
 30
0.0
 11
-150.80768568251389
 21
9.5961948402277581
 31
0.0
  0
LINE
  5
1381A
  8
01
 10
-153.80768568251389
 20
6.996201820614238
 30
0.0
 11
-154.30768568251401
 21
7.0962029840119172
 31
0.0
  0
LINE
  5
1381B
  8
01
 10
-154.30768568251401
 20
7.0962029840119172
 30
0.0
 11
-150.30768568251389
 21
7.8961936768301717
 31
0.0
  0
LINE
  5
1381C
  8
01
 10
-150.30768568251389
 20
7.8961936768301717
 30
0.0
 11
-150.80768568251389
 21
7.99619484022785
 31
0.0
  0
TEXT
  5
1381D
  8
01
 10
63.415602488269649
 20
-69.399357389716329
 30
0.0
 40
3.5
  1
合板9mm以上
  0
SOLID
  5
1381E
  8
01
 10
60.076250616845392
 20
-82.863032963384896
 30
0.0
 11
59.59175855515457
 21
-84.831885053631822
 31
0.0
 12
59.41151523289011
 22
-82.81232484014717
 32
0.0
 13
59.41151523289011
 23
-82.81232484014717
 33
0.0
1001
ACAD
1000
DSTYLE
1002
{
1070
    45
1040
0.5
1002
}
  0
TEXT
  5
13820
  8
01
 10
49.613517676437787
 20
-69.399357389716329
 30
0.0
 40
3.5
  1
PB
  0
SOLID
  5
13821
  8
01
 10
46.940832471680181
 20
-82.863032963384896
 30
0.0
 11
46.456340409989359
 21
-84.831885053631822
 31
0.0
 12
46.276097087724906
 22
-82.81232484014717
 32
0.0
 13
46.276097087724906
 23
-82.81232484014717
 33
0.0
1001
ACAD
1000
DSTYLE
1002
{
1070
    45
1040
0.5
1002
}
  0
LINE
  5
13823
  8
01
 10
-143.30773221840749
 20
10.19619833064597
 30
0.0
 11
-143.30773221840749
 21
27.196198330645981
 31
0.0
  0
LINE
  5
13824
  8
01
 10
-387.30773221840889
 20
10.196198330646
 30
0.0
 11
-387.30773221840889
 21
27.196198330645981
 31
0.0
  0
LINE
  5
13825
  8
01
 10
-147.30773221840749
 20
25.196198330645991
 30
0.0
 11
-383.307732218409
 21
25.196198330645991
 31
0.0
  0
LINE
  5
13829
  8
01
 10
43.54266883228194
 20
-132.83042643683601
 30
0.0
 11
96.042668832281933
 21
-132.83042643683601
 31
0.0
  0
LINE
  5
1382A
  8
01
 10
43.542668832277457
 20
-112.83042643683321
 30
0.0
 11
96.042668832281933
 21
-112.83042643683321
 31
0.0
  0
LINE
  5
1382B
  8
01
 10
95.042668832281933
 20
-130.83042643683601
 30
0.0
 11
95.042668832281933
 21
-114.83042643683321
 31
0.0
  0
LINE
  5
1382F
  8
01
 10
75.973463749585022
 20
-122.83042643683569
 30
0.0
 11
86.042668832281933
 21
-122.83042643683569
 31
0.0
  0
LINE
  5
13830
  8
01
 10
43.542668832277457
 20
-112.83042643683321
 30
0.0
 11
86.042668832281933
 21
-112.83042643683321
 31
0.0
  0
LINE
  5
13831
  8
01
 10
85.042668832281933
 20
-120.83042643683569
 30
0.0
 11
85.042668832281933
 21
-114.83042643683321
 31
0.0
  0
TEXT
  5
13835
  8
01
 10
-100.71887116106581
 20
-61.994243749126049
 30
0.0
 40
3.5
  1
材質：亜鉛ダイキャスト
  0
TEXT
  5
13836
  8
01
 10
-88.118871161065869
 20
-67.827577082459385
 30
0.0
 40
3.5
  1
仕上げ：クローム
  0
SOLID
  5
13837
  8
01
 10
21.041681712298729
 20
-106.8641861211555
 30
0.0
 11
22.657907115017011
 21
-108.08849268354879
 31
0.0
 12
20.731972848966759
 22
-107.4545460659502
 32
0.0
 13
20.731972848966759
 23
-107.4545460659502
 33
0.0
1001
ACAD
1000
DSTYLE
1002
{
1070
    45
1040
0.5
1002
}
  0
TEXT
  5
13839
  8
01
 10
-84.171794343691218
 20
-85.114008650935247
 30
0.0
 40
3.5
  1
材質：ステンレス
  0
TEXT
  5
1383A
  8
01
 10
-88.371794343691235
 20
-90.94734198426859
 30
0.0
 40
3.5
  1
仕上げ：各種仕上げ
  0
SOLID
  5
1383B
  8
01
 10
-34.746707276411129
 20
-100.906449419276
 30
0.0
 11
-33.287359784979351
 21
-102.3140772146689
 31
0.0
 12
-35.12435156186659
 22
-101.45583929732911
 32
0.0
 13
-35.12435156186659
 23
-101.45583929732911
 33
0.0
1001
ACAD
1000
DSTYLE
1002
{
1070
    45
1040
0.5
1002
}
  0
LINE
  5
1383D
  8
01
 10
-196.4573311677178
 20
10.196198330645981
 30
0.0
 11
-104.457331167718
 21
10.196198330645959
 31
0.0
  0
LINE
  5
1383E
  8
01
 10
-133.5577322184154
 20
-65.637309705690697
 30
0.0
 11
-104.457331167718
 21
-65.637309705690697
 31
0.0
  0
LINE
  5
1383F
  8
01
 10
-106.457331167718
 20
6.1961983306459576
 30
0.0
 11
-106.457331167718
 21
-61.637309705690697
 31
0.0
  0
LINE
  5
13840
  8
01
 10
-106.457331167718
 20
-65.637309705690697
 30
0.0
 11
-106.457331167718
 21
-183.23730970569071
 31
0.0
  0
TEXT
  5
13844
  8
01
 10
-107.857331167718
 20
-182.8373097056907
 30
0.0
 40
7.0
  1
76 （ペーパー無し最小値）
 50
90.0
  0
LINE
  5
13845
  8
01
  6
BYBLOCK
 10
-105.385534407718
 20
-61.63730970569069
 30
0.0
 11
-106.457331167718
 21
-65.637309705690697
 31
0.0
  0
LINE
  5
13846
  8
01
  6
BYBLOCK
 10
-106.457331167718
 20
-65.637309705690697
 30
0.0
 11
-107.52912792771799
 21
-61.63730970569069
 31
0.0
  0
LINE
  5
13847
  8
01
  6
BYBLOCK
 10
-106.457331167718
 20
-65.637309705690697
 30
0.0
 11
-106.457331167718
 21
-61.63730970569069
 31
0.0
  0
LINE
  5
13848
  8
01
  6
BYBLOCK
 10
-107.52912792771799
 20
6.1961983306459567
 30
0.0
 11
-106.457331167718
 21
10.196198330645959
 31
0.0
  0
LINE
  5
13849
  8
01
  6
BYBLOCK
 10
-106.457331167718
 20
10.196198330645959
 30
0.0
 11
-105.385534407718
 21
6.1961983306459567
 31
0.0
  0
LINE
  5
1384A
  8
01
  6
BYBLOCK
 10
-106.457331167718
 20
10.196198330645959
 30
0.0
 11
-106.457331167718
 21
6.1961983306459567
 31
0.0
  0
LINE
  5
1384B
  8
01
 10
-34.935529419138859
 20
-101.1811443583025
 30
0.0
 11
-48.805127677024572
 21
-91.647341984268607
 31
0.0
1001
ACAD
1000
DSTYLE
1002
{
1070
    45
1040
0.5
1002
}
  0
LINE
  5
1384C
  8
01
 10
-48.805127677024572
 20
-91.647341984268607
 30
0.0
 11
-51.505127677024582
 21
-91.647341984268607
 31
0.0
1001
ACAD
1000
DSTYLE
1002
{
1070
    45
1040
0.5
1002
}
  0
LINE
  5
1384D
  8
01
 10
20.88682728063274
 20
-107.1593660935529
 30
0.0
 11
-52.752204494399201
 21
-68.527577082459374
 31
0.0
1001
ACAD
1000
DSTYLE
1002
{
1070
    45
1040
0.5
1002
}
  0
LINE
  5
1384E
  8
01
 10
-52.752204494399201
 20
-68.527577082459374
 30
0.0
 11
-55.452204494399197
 21
-68.527577082459374
 31
0.0
1001
ACAD
1000
DSTYLE
1002
{
1070
    45
1040
0.5
1002
}
  0
TEXT
  5
1384F
  8
01
 10
84.342668832281944
 20
-121.4137597701678
 30
0.0
 40
3.5
  1
10
 50
90.0
  0
LINE
  5
13850
  8
01
  6
BYBLOCK
 10
84.506770452281927
 20
-114.83042643683321
 30
0.0
 11
85.042668832281933
 21
-112.83042643683321
 31
0.0
  0
LINE
  5
13851
  8
01
  6
BYBLOCK
 10
85.042668832281933
 20
-112.83042643683321
 30
0.0
 11
85.578567212281939
 21
-114.83042643683321
 31
0.0
  0
LINE
  5
13852
  8
01
  6
BYBLOCK
 10
85.042668832281933
 20
-112.83042643683321
 30
0.0
 11
85.042668832281933
 21
-114.83042643683321
 31
0.0
  0
LINE
  5
13853
  8
01
  6
BYBLOCK
 10
85.578567212281939
 20
-120.83042643683569
 30
0.0
 11
85.042668832281933
 21
-122.83042643683569
 31
0.0
  0
LINE
  5
13854
  8
01
  6
BYBLOCK
 10
85.042668832281933
 20
-122.83042643683569
 30
0.0
 11
84.506770452281927
 21
-120.83042643683569
 31
0.0
  0
LINE
  5
13855
  8
01
  6
BYBLOCK
 10
85.042668832281933
 20
-122.83042643683569
 30
0.0
 11
85.042668832281933
 21
-120.83042643683569
 31
0.0
  0
TEXT
  5
13856
  8
01
 10
94.342668832281944
 20
-126.1637597701679
 30
0.0
 40
3.5
  1
20
 50
90.0
  0
LINE
  5
13857
  8
01
  6
BYBLOCK
 10
94.506770452281927
 20
-114.83042643683321
 30
0.0
 11
95.042668832281933
 21
-112.83042643683321
 31
0.0
  0
LINE
  5
13858
  8
01
  6
BYBLOCK
 10
95.042668832281933
 20
-112.83042643683321
 30
0.0
 11
95.578567212281939
 21
-114.83042643683321
 31
0.0
  0
LINE
  5
13859
  8
01
  6
BYBLOCK
 10
95.042668832281933
 20
-112.83042643683321
 30
0.0
 11
95.042668832281933
 21
-114.83042643683321
 31
0.0
  0
LINE
  5
1385A
  8
01
  6
BYBLOCK
 10
95.578567212281939
 20
-130.83042643683601
 30
0.0
 11
95.042668832281933
 21
-132.83042643683601
 31
0.0
  0
LINE
  5
1385B
  8
01
  6
BYBLOCK
 10
95.042668832281933
 20
-132.83042643683601
 30
0.0
 11
94.506770452281927
 21
-130.83042643683601
 31
0.0
  0
LINE
  5
1385C
  8
01
  6
BYBLOCK
 10
95.042668832281933
 20
-132.83042643683601
 30
0.0
 11
95.042668832281933
 21
-130.83042643683601
 31
0.0
  0
TEXT
  5
1385D
  8
01
 10
-275.474398885075
 20
26.596198330645979
 30
0.0
 40
7.0
  1
244
  0
LINE
  5
1385E
  8
01
  6
BYBLOCK
 10
-383.307732218409
 20
24.124401570645979
 30
0.0
 11
-387.30773221840889
 21
25.196198330645991
 31
0.0
  0
LINE
  5
1385F
  8
01
  6
BYBLOCK
 10
-387.30773221840889
 20
25.196198330645991
 30
0.0
 11
-383.307732218409
 21
26.267995090645989
 31
0.0
  0
LINE
  5
13860
  8
01
  6
BYBLOCK
 10
-387.30773221840889
 20
25.196198330645991
 30
0.0
 11
-383.307732218409
 21
25.196198330645991
 31
0.0
  0
LINE
  5
13861
  8
01
  6
BYBLOCK
 10
-147.30773221840749
 20
26.267995090645989
 30
0.0
 11
-143.30773221840749
 21
25.196198330645991
 31
0.0
  0
LINE
  5
13862
  8
01
  6
BYBLOCK
 10
-143.30773221840749
 20
25.196198330645991
 30
0.0
 11
-147.30773221840749
 21
24.124401570645979
 31
0.0
  0
LINE
  5
13863
  8
01
  6
BYBLOCK
 10
-143.30773221840749
 20
25.196198330645991
 30
0.0
 11
-147.30773221840749
 21
25.196198330645991
 31
0.0
  0
LINE
  5
13864
  8
01
 10
46.608464779702537
 20
-82.837678901766026
 30
0.0
 11
47.580184343104449
 21
-70.099357389716332
 31
0.0
1001
ACAD
1000
DSTYLE
1002
{
1070
    45
1040
0.5
1002
}
  0
LINE
  5
13865
  8
01
 10
47.580184343104449
 20
-70.099357389716332
 30
0.0
 11
50.280184343104452
 21
-70.099357389716332
 31
0.0
1001
ACAD
1000
DSTYLE
1002
{
1070
    45
1040
0.5
1002
}
  0
LINE
  5
13866
  8
01
 10
59.743882924867748
 20
-82.837678901766026
 30
0.0
 11
60.715602488269653
 21
-70.099357389716332
 31
0.0
1001
ACAD
1000
DSTYLE
1002
{
1070
    45
1040
0.5
1002
}
  0
LINE
  5
13867
  8
01
 10
60.715602488269653
 20
-70.099357389716332
 30
0.0
 11
63.415602488269649
 21
-70.099357389716332
 31
0.0
1001
ACAD
1000
DSTYLE
1002
{
1070
    45
1040
0.5
1002
}
  0
TEXT
  5
13868
  8
01
 10
-204.14106555174521
 20
-175.88659997021259
 30
0.0
 40
7.0
  1
P83
  0
LINE
  5
13869
  8
01
  6
BYBLOCK
 10
-156.3077322184119
 20
-176.21480321021261
 30
0.0
 11
-152.3077322184119
 21
-177.28659997021259
 31
0.0
  0
LINE
  5
1386A
  8
01
  6
BYBLOCK
 10
-152.3077322184119
 20
-177.28659997021259
 30
0.0
 11
-156.3077322184119
 21
-178.3583967302126
 31
0.0
  0
LINE
  5
1386B
  8
01
  6
BYBLOCK
 10
-152.3077322184119
 20
-177.28659997021259
 30
0.0
 11
-156.3077322184119
 21
-177.28659997021259
 31
0.0
  0
LINE
  5
1386C
  8
01
  6
BYBLOCK
 10
-231.3077322184119
 20
-178.3583967302126
 30
0.0
 11
-235.3077322184119
 21
-177.28659997021259
 31
0.0
  0
LINE
  5
1386D
  8
01
  6
BYBLOCK
 10
-235.3077322184119
 20
-177.28659997021259
 30
0.0
 11
-231.3077322184119
 21
-176.21480321021261
 31
0.0
  0
LINE
  5
1386E
  8
01
  6
BYBLOCK
 10
-235.3077322184119
 20
-177.28659997021259
 30
0.0
 11
-231.3077322184119
 21
-177.28659997021259
 31
0.0
  0
TEXT
  5
1386F
  8
01
 10
-275.30773221840832
 20
-82.754476300870877
 30
0.0
 40
7.0
  1
265
  0
LINE
  5
13870
  8
01
  6
BYBLOCK
 10
-136.80773221841011
 20
-83.082679540870885
 30
0.0
 11
-132.80773221841011
 21
-84.154476300870883
 31
0.0
  0
LINE
  5
13871
  8
01
  6
BYBLOCK
 10
-132.80773221841011
 20
-84.154476300870883
 30
0.0
 11
-136.80773221841011
 21
-85.226273060870881
 31
0.0
  0
LINE
  5
13872
  8
01
  6
BYBLOCK
 10
-132.80773221841011
 20
-84.154476300870883
 30
0.0
 11
-136.80773221841011
 21
-84.154476300870883
 31
0.0
  0
LINE
  5
13873
  8
01
  6
BYBLOCK
 10
-393.8077322184065
 20
-85.226273060870881
 30
0.0
 11
-397.8077322184065
 21
-84.154476300870883
 31
0.0
  0
LINE
  5
13874
  8
01
  6
BYBLOCK
 10
-397.8077322184065
 20
-84.154476300870883
 30
0.0
 11
-393.8077322184065
 21
-83.082679540870885
 31
0.0
  0
LINE
  5
13875
  8
01
  6
BYBLOCK
 10
-397.8077322184065
 20
-84.154476300870883
 30
0.0
 11
-393.8077322184065
 21
-84.154476300870883
 31
0.0
  0
TEXT
  5
13876
  8
01
 10
2.1829028110736428
 20
-73.130426436835407
 30
0.0
 40
3.5
  1
76
  0
LINE
  5
13877
  8
01
  6
BYBLOCK
 10
41.542668832281947
 20
-73.294528056835404
 30
0.0
 11
43.54266883228194
 21
-73.83042643683541
 31
0.0
  0
LINE
  5
13878
  8
01
  6
BYBLOCK
 10
43.54266883228194
 20
-73.83042643683541
 30
0.0
 11
41.542668832281947
 21
-74.366324816835416
 31
0.0
  0
LINE
  5
13879
  8
01
  6
BYBLOCK
 10
43.54266883228194
 20
-73.83042643683541
 30
0.0
 11
41.542668832281947
 21
-73.83042643683541
 31
0.0
  0
LINE
  5
1387A
  8
01
  6
BYBLOCK
 10
-30.510196543467991
 20
-74.366324816835416
 30
0.0
 11
-32.510196543467991
 21
-73.83042643683541
 31
0.0
  0
LINE
  5
1387B
  8
01
  6
BYBLOCK
 10
-32.510196543467991
 20
-73.83042643683541
 30
0.0
 11
-30.510196543467991
 21
-73.294528056835404
 31
0.0
  0
LINE
  5
1387C
  8
01
  6
BYBLOCK
 10
-32.510196543467991
 20
-73.83042643683541
 30
0.0
 11
-30.510196543467991
 21
-73.83042643683541
 31
0.0
  0
TEXT
  5
1387D
  8
01
 10
-30.928922449197341
 20
-63.977575106568267
 30
0.0
 40
3.5
  1
93 （ペーパー付き最大値）
  0
LINE
  5
1387E
  8
01
  6
BYBLOCK
 10
41.542668832281947
 20
-64.141676726568264
 30
0.0
 11
43.54266883228194
 21
-64.67757510656827
 31
0.0
  0
LINE
  5
1387F
  8
01
  6
BYBLOCK
 10
43.54266883228194
 20
-64.67757510656827
 30
0.0
 11
41.542668832281947
 21
-65.213473486568276
 31
0.0
  0
LINE
  5
13880
  8
01
  6
BYBLOCK
 10
43.54266883228194
 20
-64.67757510656827
 30
0.0
 11
41.542668832281947
 21
-64.67757510656827
 31
0.0
  0
LINE
  5
13881
  8
01
  6
BYBLOCK
 10
-47.00051373067663
 20
-65.213473486568276
 30
0.0
 11
-49.00051373067663
 21
-64.67757510656827
 31
0.0
  0
LINE
  5
13882
  8
01
  6
BYBLOCK
 10
-49.00051373067663
 20
-64.67757510656827
 30
0.0
 11
-47.00051373067663
 21
-64.141676726568264
 31
0.0
  0
LINE
  5
13883
  8
01
  6
BYBLOCK
 10
-49.00051373067663
 20
-64.67757510656827
 30
0.0
 11
-47.00051373067663
 21
-64.67757510656827
 31
0.0
  0
TEXT
  5
13884
  8
01
 10
-347.141065551738
 20
-175.88659997021259
 30
0.0
 40
7.0
  1
P83
  0
LINE
  5
13885
  8
01
  6
BYBLOCK
 10
-299.30773221840462
 20
-176.21480321021261
 30
0.0
 11
-295.30773221840462
 21
-177.28659997021259
 31
0.0
  0
LINE
  5
13886
  8
01
  6
BYBLOCK
 10
-295.30773221840462
 20
-177.28659997021259
 30
0.0
 11
-299.30773221840462
 21
-178.3583967302126
 31
0.0
  0
LINE
  5
13887
  8
01
  6
BYBLOCK
 10
-295.30773221840462
 20
-177.28659997021259
 30
0.0
 11
-299.30773221840462
 21
-177.28659997021259
 31
0.0
  0
LINE
  5
13888
  8
01
  6
BYBLOCK
 10
-374.30773221840462
 20
-178.3583967302126
 30
0.0
 11
-378.30773221840462
 21
-177.28659997021259
 31
0.0
  0
LINE
  5
13889
  8
01
  6
BYBLOCK
 10
-378.30773221840462
 20
-177.28659997021259
 30
0.0
 11
-374.30773221840462
 21
-176.21480321021261
 31
0.0
  0
LINE
  5
1388A
  8
01
  6
BYBLOCK
 10
-378.30773221840462
 20
-177.28659997021259
 30
0.0
 11
-374.30773221840462
 21
-177.28659997021259
 31
0.0
  0
TEXT
  5
1388B
  8
01
 10
-275.64106555174158
 20
-175.88659997021259
 30
0.0
 40
7.0
  1
P60
  0
LINE
  5
1388C
  8
01
  6
BYBLOCK
 10
-239.3077322184119
 20
-176.21480321021261
 30
0.0
 11
-235.3077322184119
 21
-177.28659997021259
 31
0.0
  0
LINE
  5
1388D
  8
01
  6
BYBLOCK
 10
-235.3077322184119
 20
-177.28659997021259
 30
0.0
 11
-239.3077322184119
 21
-178.3583967302126
 31
0.0
  0
LINE
  5
1388E
  8
01
  6
BYBLOCK
 10
-235.3077322184119
 20
-177.28659997021259
 30
0.0
 11
-239.3077322184119
 21
-177.28659997021259
 31
0.0
  0
LINE
  5
1388F
  8
01
  6
BYBLOCK
 10
-291.30773221840462
 20
-178.3583967302126
 30
0.0
 11
-295.30773221840462
 21
-177.28659997021259
 31
0.0
  0
LINE
  5
13890
  8
01
  6
BYBLOCK
 10
-295.30773221840462
 20
-177.28659997021259
 30
0.0
 11
-291.30773221840462
 21
-176.21480321021261
 31
0.0
  0
LINE
  5
13891
  8
01
  6
BYBLOCK
 10
-295.30773221840462
 20
-177.28659997021259
 30
0.0
 11
-291.30773221840462
 21
-177.28659997021259
 31
0.0
  0
TEXT
  5
13892
  8
01
 10
101.7441501265521
 20
-131.80658280188831
 30
0.0
 40
3.5
  1
64
 50
90.0
  0
LINE
  5
13893
  8
01
  6
BYBLOCK
 10
101.9082517465521
 20
-98.238376209545564
 30
0.0
 11
102.4441501265521
 21
-96.238376209545564
 31
0.0
  0
LINE
  5
13894
  8
01
  6
BYBLOCK
 10
102.4441501265521
 20
-96.238376209545564
 30
0.0
 11
102.98004850655209
 21
-98.238376209545564
 31
0.0
  0
LINE
  5
13895
  8
01
  6
BYBLOCK
 10
102.4441501265521
 20
-96.238376209545564
 30
0.0
 11
102.4441501265521
 21
-98.238376209545564
 31
0.0
  0
LINE
  5
13896
  8
01
  6
BYBLOCK
 10
102.98004850655209
 20
-158.37478939423119
 30
0.0
 11
102.4441501265521
 21
-160.37478939423119
 31
0.0
  0
LINE
  5
13897
  8
01
  6
BYBLOCK
 10
102.4441501265521
 20
-160.37478939423119
 30
0.0
 11
101.9082517465521
 21
-158.37478939423119
 31
0.0
  0
LINE
  5
13898
  8
01
  6
BYBLOCK
 10
102.4441501265521
 20
-160.37478939423119
 30
0.0
 11
102.4441501265521
 21
-158.37478939423119
 31
0.0
  0
VIEWPORT
  5
57
 67
     1
  8
0
 10
52.126653652317508
 20
10.09248672500371
 30
0.0
 40
614.82076811233196
 41
282.68427786568151
 68
     1
 69
     1
1001
ACAD
1000
MVIEW
1002
{
1070
    16
1010
0.0
1020
0.0
1030
0.0
1010
0.0
1020
0.0
1030
1.0
1040
0.0
1040
282.68427786568151
1040
52.126653652317508
1040
10.09248672500371
1040
50.0
1040
0.0
1040
0.0
1070
     0
1070
   100
1070
     1
1070
     1
1070
     0
1070
     0
1070
     0
1070
     0
1040
0.0
1040
0.0
1040
0.0
1040
10.0
1040
10.0
1040
10.0
1040
10.0
1070
     0
1002
{
1002
}
1002
}
  0
ENDSEC
  0
EOF
