  0
SECTION
  2
HEADER
  9
$ACADVER
  1
AC1009
  9
$INSBASE
 10
0.0
 20
0.0
 30
0.0
  9
$EXTMIN
 10
80.888680173515155
 20
-586.09541700288855
 30
0.0
  9
$EXTMAX
 10
450.4242140794467
 20
-370.8954170029084
 30
0.0
  9
$LIMMIN
 10
0.0
 20
0.0
  9
$LIMMAX
 10
420.0
 20
297.0
  9
$ORTHOMODE
 70
     0
  9
$REGENMODE
 70
     1
  9
$FILLMODE
 70
     1
  9
$QTEXTMODE
 70
     0
  9
$MIRRTEXT
 70
     0
  9
$DRAGMODE
 70
     2
  9
$LTSCALE
 40
0.5
  9
$OSMODE
 70
  2175
  9
$ATTMODE
 70
     1
  9
$TEXTSIZE
 40
4.0
  9
$TRACEWID
 40
1.0
  9
$TEXTSTYLE
  7
STANDARD
  9
$CLAYER
  8
1TEXT
  9
$CELTYPE
  6
BYLAYER
  9
$CECOLOR
 62
   256
  9
$DIMSCALE
 40
1.0
  9
$DIMASZ
 40
2.0
  9
$DIMEXO
 40
0.0
  9
$DIMDLI
 40
7.0
  9
$DIMRND
 40
0.0
  9
$DIMDLE
 40
0.0
  9
$DIMEXE
 40
1.0
  9
$DIMTP
 40
0.0
  9
$DIMTM
 40
0.0
  9
$DIMTXT
 40
3.5
  9
$DIMCEN
 40
0.0
  9
$DIMTSZ
 40
0.0
  9
$DIMTOL
 70
     0
  9
$DIMLIM
 70
     0
  9
$DIMTIH
 70
     0
  9
$DIMTOH
 70
     0
  9
$DIMSE1
 70
     0
  9
$DIMSE2
 70
     0
  9
$DIMTAD
 70
     1
  9
$DIMZIN
 70
     8
  9
$DIMBLK
  1

  9
$DIMASO
 70
     1
  9
$DIMSHO
 70
     1
  9
$DIMPOST
  1
 
  9
$DIMAPOST
  1

  9
$DIMALT
 70
     0
  9
$DIMALTD
 70
     2
  9
$DIMALTF
 40
25.399999999999999
  9
$DIMLFAC
 40
1.0
  9
$DIMTOFL
 70
     1
  9
$DIMTVP
 40
0.0
  9
$DIMTIX
 70
     0
  9
$DIMSOXD
 70
     0
  9
$DIMSAH
 70
     1
  9
$DIMBLK1
  1
OPEN30
  9
$DIMBLK2
  1
OPEN30
  9
$DIMSTYLE
  2
NEWX10
  9
$DIMCLRD
 70
   256
  9
$DIMCLRE
 70
   256
  9
$DIMCLRT
 70
   201
  9
$DIMTFAC
 40
0.7
  9
$DIMGAP
 40
0.7
  9
$LUNITS
 70
     2
  9
$LUPREC
 70
     4
  9
$SKETCHINC
 40
1.0
  9
$FILLETRAD
 40
0.0
  9
$AUNITS
 70
     0
  9
$AUPREC
 70
     2
  9
$MENU
  1
acad
  9
$ELEVATION
 40
0.0
  9
$PELEVATION
 40
0.0
  9
$THICKNESS
 40
0.0
  9
$LIMCHECK
 70
     0
  9
$BLIPMODE
 70
     0
  9
$CHAMFERA
 40
10.0
  9
$CHAMFERB
 40
10.0
  9
$SKPOLY
 70
     0
  9
$TDCREATE
 40
2453033.7326634838
  9
$TDUPDATE
 40
2454082.4615917951
  9
$TDINDWG
 40
1.8764838078999999
  9
$TDUSRTIMER
 40
1.8764838078999999
  9
$USRTIMER
 70
     1
  9
$ANGBASE
 50
0.0
  9
$ANGDIR
 70
     0
  9
$PDMODE
 70
     0
  9
$PDSIZE
 40
0.0
  9
$PLINEWID
 40
0.0
  9
$COORDS
 70
     2
  9
$SPLFRAME
 70
     0
  9
$SPLINETYPE
 70
     6
  9
$SPLINESEGS
 70
     8
  9
$ATTDIA
 70
     0
  9
$ATTREQ
 70
     1
  9
$HANDLING
 70
     1
  9
$HANDSEED
  5
1B7CB
  9
$SURFTAB1
 70
     6
  9
$SURFTAB2
 70
     6
  9
$SURFTYPE
 70
     6
  9
$SURFU
 70
     6
  9
$SURFV
 70
     6
  9
$UCSNAME
  2

  9
$UCSORG
 10
0.0
 20
0.0
 30
0.0
  9
$UCSXDIR
 10
1.0
 20
0.0
 30
0.0
  9
$UCSYDIR
 10
0.0
 20
1.0
 30
0.0
  9
$PUCSNAME
  2

  9
$PUCSORG
 10
0.0
 20
0.0
 30
0.0
  9
$PUCSXDIR
 10
1.0
 20
0.0
 30
0.0
  9
$PUCSYDIR
 10
0.0
 20
1.0
 30
0.0
  9
$USERI1
 70
     0
  9
$USERI2
 70
     0
  9
$USERI3
 70
     0
  9
$USERI4
 70
     0
  9
$USERI5
 70
     0
  9
$USERR1
 40
0.0
  9
$USERR2
 40
0.0
  9
$USERR3
 40
0.0
  9
$USERR4
 40
0.0
  9
$USERR5
 40
0.0
  9
$WORLDVIEW
 70
     1
  9
$SHADEDGE
 70
     3
  9
$SHADEDIF
 70
    70
  9
$TILEMODE
 70
     1
  9
$MAXACTVP
 70
    48
  9
$PLIMCHECK
 70
     0
  9
$PEXTMIN
 10
1.0000000000000000E+020
 20
1.0000000000000000E+020
 30
1.0000000000000000E+020
  9
$PEXTMAX
 10
-1.0000000000000000E+020
 20
-1.0000000000000000E+020
 30
-1.0000000000000000E+020
  9
$PLIMMIN
 10
0.0
 20
0.0
  9
$PLIMMAX
 10
420.0
 20
297.0
  9
$UNITMODE
 70
     0
  9
$VISRETAIN
 70
     1
  9
$PLINEGEN
 70
     0
  9
$PSLTSCALE
 70
     1
  0
ENDSEC
  0
SECTION
  2
TABLES
  0
TABLE
  2
VPORT
 70
     4
  0
VPORT
  2
*ACTIVE
 70
     0
 10
0.0
 20
0.0
 11
1.0
 21
1.0
 12
265.65928983502221
 22
-478.49106883167889
 13
0.0
 23
0.0
 14
10.0
 24
10.0
 15
10.0
 25
10.0
 16
0.0
 26
0.0
 36
1.0
 17
0.0
 27
0.0
 37
0.0
 40
259.32916825941157
 41
1.508086253369272
 42
50.0
 43
0.0
 44
0.0
 50
0.0
 51
0.0
 71
     0
 72
   100
 73
     1
 74
     1
 75
     0
 76
     0
 77
     0
 78
     0
  0
ENDTAB
  0
TABLE
  2
LTYPE
 70
    14
  0
LTYPE
  2
CONTINUOUS
 70
     0
  3
Solid line
 72
    65
 73
     0
 40
0.0
  0
LTYPE
  2
CENTER2
 70
     0
  3
Center (.5x) ___ _ ___ _ ___ _ ___ _ ___ _ ___
 72
    65
 73
     4
 40
28.574999999999999
 49
19.050000000000001
 49
-3.1749999999999989
 49
3.1749999999999989
 49
-3.1749999999999989
  0
LTYPE
  2
XREF1|CENTER2
 70
    48
  3
Center (.5x) ___ _ ___ _ ___ _ ___ _ ___ _ ___
 72
    65
 73
     4
 40
28.574999999999999
 49
19.050000000000001
 49
-3.1749999999999989
 49
3.1749999999999989
 49
-3.1749999999999989
  0
LTYPE
  2
HIDDEN
 70
     0
  3
Hidden __ __ __ __ __ __ __ __ __ __ __ __ __ _
 72
    65
 73
     2
 40
9.5249999999999986
 49
6.3499999999999988
 49
-3.1749999999999989
  0
LTYPE
  2
PHANTOM2
 70
     0
  3
Phantom (.5x) ___ _ _ ___ _ _ ___ _ _ ___ _ _
 72
    65
 73
     6
 40
31.75
 49
15.875
 49
-3.1749999999999989
 49
3.1749999999999989
 49
-3.1749999999999989
 49
3.1749999999999989
 49
-3.1749999999999989
  0
LTYPE
  2
A3WAKUDAKE|CENTER2
 70
    48
  3
Center (.5x) ___ _ ___ _ ___ _ ___ _ ___ _ ___
 72
    65
 73
     4
 40
28.574999999999999
 49
19.050000000000001
 49
-3.1749999999999989
 49
3.1749999999999989
 49
-3.1749999999999989
  0
ENDTAB
  0
TABLE
  2
LAYER
 70
    41
  0
LAYER
  2
0
 70
     0
 62
     7
  6
CONTINUOUS
  0
LAYER
  2
1CENTER
 70
     0
 62
     7
  6
CENTER2
  0
LAYER
  2
1TEXT
 70
     0
 62
     7
  6
CONTINUOUS
  0
LAYER
  2
1DIM
 70
     0
 62
     7
  6
CONTINUOUS
  0
LAYER
  2
1HIDDEN
 70
     0
 62
     7
  6
HIDDEN
  0
LAYER
  2
1PHANTOM
 70
     0
 62
     7
  6
PHANTOM2
  0
LAYER
  2
01
 70
     0
 62
     1
  6
CONTINUOUS
  0
LAYER
  2
1HATCH
 70
     0
 62
     7
  6
CONTINUOUS
  0
LAYER
  2
XREF1|1CENTER
 70
    48
 62
     7
  6
XREF1|CENTER2
  0
LAYER
  2
A3WAKUDAKE|THICK
 70
    48
 62
     7
  6
CONTINUOUS
  0
LAYER
  2
A3WAKUDAKE|POINT
 70
    48
 62
     7
  6
CONTINUOUS
  0
LAYER
  2
A3WAKUDAKE|1CENTER
 70
    48
 62
     7
  6
A3WAKUDAKE|CENTER2
  0
LAYER
  2
A3WAKUDAKE|0-6
 70
    48
 62
     7
  6
CONTINUOUS
  0
LAYER
  2
A3WAKUDAKE|1DIM
 70
    48
 62
     7
  6
CONTINUOUS
  0
ENDTAB
  0
TABLE
  2
STYLE
 70
    20
  0
STYLE
  2
STANDARD
 70
     0
 40
0.0
 41
1.0
 50
0.0
 71
     0
 42
4.0
  3
txt.shx
  4
extfont.shx
  0
ENDTAB
  0
TABLE
  2
VIEW
 70
     0
  0
ENDTAB
  0
TABLE
  2
UCS
 70
     0
  0
ENDTAB
  0
TABLE
  2
APPID
 70
     9
  0
APPID
  2
ACAD
 70
     0
  0
APPID
  2
DRAWINGVARIABLESXDATA
 70
     0
  0
APPID
  2
CONTENTTABDATA
 70
     0
  0
APPID
  2
CONTENTCURRENTTAB
 70
     0
  0
APPID
  2
CONTENTBLOCKDESCRIPTION
 70
     0
  0
APPID
  2
CONTENTBLOCKICON
 70
     0
  0
APPID
  2
CONTENTLONGBLOCKNAME
 70
     0
  0
APPID
  2
ACAD_PSEXT
 70
     0
  0
APPID
  2
ACAD_DSTYLE_DIMTEXT_FILL
 70
     0
  0
ENDTAB
  0
TABLE
  2
DIMSTYLE
 70
     5
  0
DIMSTYLE
  2
NEWX10
 70
     0
  3
 
  4

  5

  6
OPEN30
  7
OPEN30
 40
1.0
 41
2.0
 42
0.0
 43
7.0
 44
1.0
 45
0.0
 46
0.0
 47
0.0
 48
0.0
140
3.5
141
0.0
142
0.0
143
25.399999999999999
144
1.0
145
0.0
146
0.7
147
0.7
 71
     0
 72
     0
 73
     0
 74
     0
 75
     0
 76
     0
 77
     1
 78
     8
170
     0
171
     2
172
     1
173
     1
174
     0
175
     0
176
   256
177
   256
178
   201
  0
ENDTAB
  0
ENDSEC
  0
SECTION
  2
BLOCKS
  0
BLOCK
  8
0
  2
$MODEL_SPACE
 70
     0
 10
0.0
 20
0.0
 30
0.0
  3
$MODEL_SPACE
  1

  0
ENDBLK
  5
1A
  8
0
  0
BLOCK
 67
     1
  8
0
  2
$PAPER_SPACE
 70
     0
 10
0.0
 20
0.0
 30
0.0
  3
$PAPER_SPACE
  1

  0
ENDBLK
  5
17
 67
     1
  8
0
  0
BLOCK
  8
0
  2
_OPEN30
 70
     0
 10
0.0
 20
0.0
 30
0.0
  3
_OPEN30
  1

  0
LINE
  5
44
  8
0
  6
BYBLOCK
 62
     0
 10
-1.0
 20
0.26794919
 30
0.0
 11
0.0
 21
0.0
 31
0.0
  0
LINE
  5
45
  8
0
  6
BYBLOCK
 62
     0
 10
0.0
 20
0.0
 30
0.0
 11
-1.0
 21
-0.26794919
 31
0.0
  0
LINE
  5
46
  8
0
  6
BYBLOCK
 62
     0
 10
0.0
 20
0.0
 30
0.0
 11
-1.0
 21
0.0
 31
0.0
  0
ENDBLK
  5
47
  8
0
  0
BLOCK
  8
0
  2
XREF1
 70
    36
 10
0.0
 20
0.0
 30
0.0
  3
XREF1
  1
D:\ACLT\FORMAT\KAWAJUN(9)図面用.dwg
  0
ENDBLK
  5
5D
  8
0
  0
BLOCK
  8
0
  2
A3WAKUDAKE
 70
    36
 10
0.0
 20
0.0
 30
0.0
  3
A3WAKUDAKE
  1
D:\ACLT\FORMAT\A3WAKUdake.dwg
  0
ENDBLK
  5
6DC
  8
0
  0
BLOCK
  8
0
  2
*U19
 70
     1
 10
0.0
 20
0.0
 30
0.0
  3
*U19
  1

  0
TEXT
  5
1B798
  8
1DIM
 62
   201
 10
448.72421407944682
 20
-537.38710693750045
 30
0.0
 40
3.5
  1
9 
 50
90.0
  0
ENDBLK
  5
1B79A
  8
0
  0
BLOCK
  8
0
  2
*U20
 70
     1
 10
0.0
 20
0.0
 30
0.0
  3
*U20
  1

  0
TEXT
  5
1B79C
  8
1DIM
 62
   201
 10
179.29546415838581
 20
-374.39541700290852
 30
0.0
 40
3.5
  1
60 
  0
ENDBLK
  5
1B79E
  8
0
  0
BLOCK
  8
0
  2
*U21
 70
     1
 10
0.0
 20
0.0
 30
0.0
  3
*U21
  1

  0
TEXT
  5
1B7A0
  8
1DIM
 62
   201
 10
291.22421407944802
 20
-382.31208366957549
 30
0.0
 40
3.5
  1
6.5 
 50
90.0
  0
ENDBLK
  5
1B7A2
  8
0
  0
BLOCK
  8
0
  2
*U22
 70
     1
 10
0.0
 20
0.0
 30
0.0
  3
*U22
  1

  0
TEXT
  5
1B7A4
  8
1DIM
 62
   201
 10
301.22421407944802
 20
-449.1787503362421
 30
0.0
 40
3.5
  1
116.5 
 50
90.0
  0
ENDBLK
  5
1B7A6
  8
0
  0
BLOCK
  8
0
  2
*U23
 70
     1
 10
0.0
 20
0.0
 30
0.0
  3
*U23
  1

  0
TEXT
  5
1B7A8
  8
1DIM
 62
   201
 10
291.22421407944802
 20
-449.80375033624142
 30
0.0
 40
3.5
  1
110 
 50
90.0
  0
ENDBLK
  5
1B7AA
  8
0
  0
BLOCK
  8
0
  2
*U24
 70
     1
 10
0.0
 20
0.0
 30
0.0
  3
*U24
  1

  0
TEXT
  5
1B7AC
  8
1DIM
 62
   201
 10
293.2242140794159
 20
-546.26208366955495
 30
0.0
 40
3.5
  1
24 
 50
90.0
  0
ENDBLK
  5
1B7AE
  8
0
  0
BLOCK
  8
0
  2
*U25
 70
     1
 10
0.0
 20
0.0
 30
0.0
  3
*U25
  1

  0
TEXT
  5
1B7B0
  8
1DIM
 62
   201
 10
313.2242140794159
 20
-541.76208366955495
 30
0.0
 40
3.5
  1
8 
 50
90.0
  0
ENDBLK
  5
1B7B2
  8
0
  0
BLOCK
  8
0
  2
*U26
 70
     1
 10
0.0
 20
0.0
 30
0.0
  3
*U26
  1

  0
TEXT
  5
1B7B4
  8
1DIM
 62
   201
 10
313.2242140794159
 20
-526.39541700288839
 30
0.0
 40
3.5
  1
5 
 50
90.0
  0
ENDBLK
  5
1B7B6
  8
0
  0
BLOCK
  8
0
  2
*U27
 70
     1
 10
0.0
 20
0.0
 30
0.0
  3
*U27
  1

  0
TEXT
  5
1B7B8
  8
1DIM
 62
   201
 10
448.72420161019062
 20
-570.96208366955511
 30
0.0
 40
3.5
  1
14.25 
 50
90.0
  0
ENDBLK
  5
1B7BA
  8
0
  0
BLOCK
  8
0
  2
*U28
 70
     1
 10
0.0
 20
0.0
 30
0.0
  3
*U28
  1

  0
TEXT
  5
1B7BC
  8
1DIM
 62
   201
 10
356.84088074609798
 20
-584.39541700288851
 30
0.0
 40
3.5
  1
117.5 
  0
ENDBLK
  5
1B7BE
  8
0
  0
BLOCK
  8
0
  2
*U29
 70
     1
 10
0.0
 20
0.0
 30
0.0
  3
*U29
  1

  0
TEXT
  5
1B7C0
  8
1DIM
 62
   201
 10
401.42421407943169
 20
-574.39541700288839
 30
0.0
 40
3.5
  1
29.5 
  0
ENDBLK
  5
1B7C2
  8
0
  0
BLOCK
  8
0
  2
*U30
 70
     1
 10
0.0
 20
0.0
 30
0.0
  3
*U30
  1

  0
TEXT
  5
1B7C4
  8
1DIM
 62
   201
 10
406.00754741276501
 20
-564.39541700288851
 30
0.0
 40
3.5
  1
21.5 
  0
ENDBLK
  5
1B7C6
  8
0
  0
BLOCK
  8
0
  2
*U31
 70
     1
 10
0.0
 20
0.0
 30
0.0
  3
*U31
  1

  0
TEXT
  5
1B7C8
  8
1DIM
 62
   201
 10
177.84088074611449
 20
-563.89541700288851
 30
0.0
 40
3.5
  1
200 
  0
ENDBLK
  5
1B7CA
  8
0
  0
ENDSEC
  0
SECTION
  2
ENTITIES
  0
TEXT
  5
186EE
  8
1TEXT
 10
348.17659503182728
 20
-495.54541700911449
 30
0.0
 40
4.0
  1
表面処理：
 72
     1
 11
358.82421407944639
 21
-495.54541700911449
 31
0.0
  0
TEXT
  5
186EF
  8
1TEXT
 10
349.49088074611308
 20
-502.38070566863888
 30
0.0
 40
4.0
  1
クローム
 72
     1
 11
358.82421407944639
 21
-502.38070566863888
 31
0.0
  0
LINE
  5
186F0
  8
1DIM
 10
341.4242140794467
 20
-490.04541700911449
 30
0.0
 11
411.4242140794467
 21
-490.04541700911449
 31
0.0
  0
LINE
  5
186F1
  8
1DIM
 10
341.4242140794467
 20
-497.04541700911449
 30
0.0
 11
411.4242140794467
 21
-497.04541700911449
 31
0.0
  0
LINE
  5
186F2
  8
1DIM
 10
341.4242140794467
 20
-504.04541700911449
 30
0.0
 11
411.4242140794467
 21
-504.04541700911449
 31
0.0
  0
LINE
  5
186F3
  8
1DIM
 10
341.4242140794467
 20
-504.04541700911449
 30
0.0
 11
411.4242140794467
 21
-504.04541700911449
 31
0.0
  0
LINE
  5
186F4
  8
1DIM
 10
376.4242140794467
 20
-490.04541700911449
 30
0.0
 11
376.4242140794467
 21
-504.04541700911471
 31
0.0
  0
TEXT
  5
186F5
  8
1TEXT
 10
378.49088074611399
 20
-502.75977399276388
 30
0.0
 40
4.0
  1
SC344XSS
 72
     1
 11
393.8242140794473
 21
-502.75977399276388
 31
0.0
  0
TEXT
  5
186F7
  8
1TEXT
 10
387.02421407944638
 20
-495.54541700911449
 30
0.0
 40
4.0
  1
コード
 72
     1
 11
393.82421407944639
 21
-495.54541700911449
 31
0.0
  0
LINE
  5
186FB
  8
1DIM
 10
341.4242140794467
 20
-504.04541700911471
 30
0.0
 11
341.4242140794467
 21
-490.04541700911449
 31
0.0
  0
LINE
  5
186FC
  8
1DIM
 10
411.4242140794467
 20
-504.04541700911471
 30
0.0
 11
411.4242140794467
 21
-490.04541700911449
 31
0.0
  0
TEXT
  5
186FD
  8
1TEXT
 10
341.4242140794467
 20
-485.04541700911449
 30
0.0
 40
8.0
  1
SC344XSS
  0
LINE
  5
1AB7A
  8
01
 10
412.92421407941669
 20
-536.59541700288855
 30
0.0
 11
304.92421407941669
 21
-536.59541700288855
 31
0.0
  0
LINE
  5
1AB7C
  8
01
 10
412.92421407941669
 20
-544.59541700288855
 30
0.0
 11
304.92421407941589
 21
-544.59541700288855
 31
0.0
  0
LINE
  5
1AB7D
  8
01
 10
304.92421407941589
 20
-536.59541700288855
 30
0.0
 11
303.92421407941578
 21
-537.59541700288855
 31
0.0
  0
LINE
  5
1AB7E
  8
01
 10
303.92421407941578
 20
-543.59541700288855
 30
0.0
 11
304.92421407941589
 21
-544.59541700288855
 31
0.0
  0
LINE
  5
1AB7F
  8
01
 10
303.92421407941578
 20
-537.59541700288855
 30
0.0
 11
303.92421407941578
 21
-543.59541700288935
 31
0.0
  0
LINE
  5
1AB93
  8
1HATCH
 10
403.92421407941669
 20
-545.09541700288855
 30
0.0
 11
403.92421407941669
 21
-554.84541700288855
 31
0.0
  0
LINE
  5
1AB94
  8
1PHANTOM
 10
403.29421407941658
 20
-546.39560427160222
 30
0.0
 11
403.29421407941658
 21
-554.39560427160222
 31
0.0
  0
LINE
  5
1AB95
  8
1CENTER
 10
399.9242140794168
 20
-543.63105361472708
 30
0.0
 11
399.9242140794168
 21
-555.18354935032812
 31
0.0
  0
LINE
  5
1AB96
  8
1HATCH
 10
403.92421407941669
 20
-545.09541700288855
 30
0.0
 11
403.92421407940941
 21
-555.09541700288855
 31
0.0
  0
LINE
  5
1AB97
  8
01
 10
403.42421407941669
 20
-545.09541700288855
 30
0.0
 11
403.42421407940941
 21
-555.09541700288855
 31
0.0
  0
LINE
  5
1AB98
  8
1PHANTOM
 10
403.92421407941669
 20
-547.02560427160233
 30
0.0
 11
403.29421407941658
 21
-546.39560427160222
 31
0.0
  0
LINE
  5
1AB99
  8
1HATCH
 10
395.9242140794168
 20
-545.09541700288855
 30
0.0
 11
395.9242140794168
 21
-554.84541700288855
 31
0.0
  0
LINE
  5
1AB9A
  8
1PHANTOM
 10
396.55421407941679
 20
-546.39560427160222
 30
0.0
 11
396.55421407941679
 21
-554.39560427160222
 31
0.0
  0
LINE
  5
1AB9B
  8
01
 10
391.92421407941669
 20
-545.59541700288855
 30
0.0
 11
391.92421407941669
 21
-554.09541700288855
 31
0.0
  0
LINE
  5
1AB9C
  8
1HATCH
 10
395.9242140794168
 20
-545.09541700288855
 30
0.0
 11
395.92421407940952
 21
-555.09541700288855
 31
0.0
  0
LINE
  5
1AB9D
  8
01
 10
396.42421407941669
 20
-545.09541700288855
 30
0.0
 11
396.42421407940952
 21
-555.09541700288855
 31
0.0
  0
LINE
  5
1AB9E
  8
1PHANTOM
 10
396.55421407941679
 20
-546.39560427160222
 30
0.0
 11
395.9242140794168
 21
-547.02560427160233
 31
0.0
  0
LINE
  5
1ABA0
  8
01
 10
421.4242140794185
 20
-532.09541700288116
 30
0.0
 11
421.42421407940401
 21
-554.59541700288855
 31
0.0
  0
LINE
  5
1ABA2
  8
1PHANTOM
 10
403.92421407941669
 20
-547.02560427160233
 30
0.0
 11
403.92421407941669
 21
-553.76560427160211
 31
0.0
  0
LINE
  5
1ABA3
  8
1PHANTOM
 10
403.92421407941669
 20
-547.02560427160233
 30
0.0
 11
403.92421407941669
 21
-553.7656042716003
 31
0.0
  0
ARC
  5
1ABA4
  8
01
 10
420.92421407940401
 20
-554.59541700288855
 30
0.0
 40
0.5
 50
270.0
 51
359.99999999996089
  0
LINE
  5
1ABA5
  8
1PHANTOM
 10
403.29421407941658
 20
-554.39560427160222
 30
0.0
 11
403.92421407941669
 21
-553.76560427160211
 31
0.0
  0
LINE
  5
1ABA6
  8
1PHANTOM
 10
395.9242140794168
 20
-547.02560427160233
 30
0.0
 11
395.9242140794168
 21
-553.76560427160211
 31
0.0
  0
LINE
  5
1ABA7
  8
1PHANTOM
 10
395.9242140794168
 20
-547.02560427160233
 30
0.0
 11
395.9242140794168
 21
-553.7656042716003
 31
0.0
  0
LINE
  5
1ABA8
  8
1PHANTOM
 10
396.55421407941679
 20
-554.39560427160222
 30
0.0
 11
395.9242140794168
 21
-553.76560427160211
 31
0.0
  0
ARC
  5
1ABA9
  8
01
 10
392.92421407941669
 20
-554.09541700288855
 30
0.0
 40
1.0
 50
180.0
 51
270.0
  0
LINE
  5
1ABAA
  8
1PHANTOM
 10
395.9242140794168
 20
-553.76560427160211
 30
0.0
 11
403.92421407941669
 21
-553.76560427160211
 31
0.0
  0
LINE
  5
1ABAB
  8
1PHANTOM
 10
396.55421407941679
 20
-554.39560427160222
 30
0.0
 11
403.29421407941658
 21
-554.39560427160222
 31
0.0
  0
LINE
  5
1ABAC
  8
01
 10
420.92421407940401
 20
-555.09541700288855
 30
0.0
 11
392.92421407941669
 21
-555.09541700288855
 31
0.0
  0
LINE
  5
1ABAD
  8
1PHANTOM
 10
395.9242140794168
 20
-547.02560427160233
 30
0.0
 11
403.92421407941669
 21
-547.02560427160233
 31
0.0
  0
LINE
  5
1ABAE
  8
1PHANTOM
 10
443.1242175693996
 20
-539.34546353878659
 30
0.0
 11
418.42421756950802
 21
-539.34546353878659
 31
0.0
  0
LINE
  5
1ABAF
  8
1PHANTOM
 10
443.12421058901589
 20
-542.34546353878659
 30
0.0
 11
418.42421058912339
 21
-542.34546353878659
 31
0.0
  0
ARC
  5
1ABB1
  8
01
 10
420.9242140794185
 20
-532.09541700288116
 30
0.0
 40
0.5
 50
359.99999999996089
 51
90.0
  0
ARC
  5
1ABB2
  8
01
 10
392.92421407941669
 20
-532.59541700288855
 30
0.0
 40
1.0
 50
90.0
 51
180.0
  0
LINE
  5
1ABB3
  8
01
 10
413.92421407941669
 20
-537.59541700288855
 30
0.0
 11
412.92421407941669
 21
-536.59541700288855
 31
0.0
  0
ARC
  5
1ABB4
  8
01
 10
413.92421407941669
 20
-537.59541700288855
 30
0.0
 40
1.0
 50
0.0
 51
90.0
  0
LINE
  5
1ABB6
  8
1PHANTOM
 10
418.42422222320602
 20
-537.34541700288855
 30
0.0
 11
417.32421873301058
 21
-537.34541700288855
 31
0.0
  0
LINE
  5
1ABB7
  8
1PHANTOM
 10
419.42421407942402
 20
-537.04541700288826
 30
0.0
 11
418.42421407942402
 21
-537.04541700288826
 31
0.0
  0
ARC
  5
1ABB8
  8
01
 10
392.42421407941669
 20
-536.09541700288855
 30
0.0
 40
0.5
 50
180.0
 51
270.0
  0
LINE
  5
1ABB9
  8
01
 10
391.92421407941669
 20
-532.59541700288855
 30
0.0
 11
391.92421407941669
 21
-536.09541700288855
 31
0.0
  0
LINE
  5
1ABBA
  8
01
 10
413.92421407941669
 20
-536.59541700288855
 30
0.0
 11
392.42421407941669
 21
-536.59541700288855
 31
0.0
  0
LINE
  5
1ABBB
  8
1PHANTOM
 10
422.32421873278957
 20
-538.84546353878659
 30
0.0
 11
423.1242094256076
 21
-542.84546353878659
 31
0.0
  0
LINE
  5
1ABBC
  8
1PHANTOM
 10
415.82421873301422
 20
-538.84541351269615
 30
0.0
 11
415.82420942583479
 21
-542.84541351269615
 31
0.0
  0
LINE
  5
1ABBD
  8
1PHANTOM
 10
419.1242187327897
 20
-538.84546353878659
 30
0.0
 11
419.92420942560778
 21
-542.84546353878659
 31
0.0
  0
LINE
  5
1ABBE
  8
1PHANTOM
 10
418.42421058912339
 20
-542.34546353878659
 30
0.0
 11
418.42421756950802
 21
-539.34546353878659
 31
0.0
  0
LINE
  5
1ABC0
  8
1PHANTOM
 10
420.72421873278921
 20
-538.84546353878659
 30
0.0
 11
421.5242094256073
 21
-542.84546353878659
 31
0.0
  0
LINE
  5
1ABC1
  8
01
 10
413.92421407941669
 20
-543.59541700288855
 30
0.0
 11
412.92421407941669
 21
-544.59541700288855
 31
0.0
  0
ARC
  5
1ABC5
  8
01
 10
413.92421407941669
 20
-544.09541700288855
 30
0.0
 40
1.0
 50
270.0
 51
0.0
  0
ARC
  5
1ABC7
  8
1PHANTOM
 10
417.32420942583121
 20
-542.84541700288855
 30
0.0
 40
1.5
 50
179.99986668447491
 51
270.0
  0
LINE
  5
1ABC8
  8
1PHANTOM
 10
418.42420593564202
 20
-544.34541700288855
 30
0.0
 11
417.32420942583121
 21
-544.34541700288855
 31
0.0
  0
LINE
  5
1ABC9
  8
1PHANTOM
 10
418.42421058912339
 20
-542.34546353878659
 30
0.0
 11
418.42420593564202
 21
-544.34541700288855
 31
0.0
  0
LINE
  5
1ABCA
  8
1PHANTOM
 10
419.92420942560778
 20
-542.84546353878659
 30
0.0
 11
420.02421058900558
 21
-542.34546353878659
 31
0.0
  0
LINE
  5
1ABCB
  8
1PHANTOM
 10
419.42421407942402
 20
-544.64541700288873
 30
0.0
 11
418.42421407942402
 21
-544.64541700288873
 31
0.0
  0
LINE
  5
1ABCC
  8
1PHANTOM
 10
419.42421407942402
 20
-542.89541700288873
 30
0.0
 11
418.424214079423
 21
-542.89541700288873
 31
0.0
  0
LINE
  5
1ABCD
  8
1PHANTOM
 10
421.5242094256073
 20
-542.84546353878659
 30
0.0
 11
421.62421058900497
 21
-542.34546353878659
 31
0.0
  0
LINE
  5
1ABCF
  8
1PHANTOM
 10
419.02421756939202
 20
-539.34546353878659
 30
0.0
 11
419.1242187327897
 21
-538.84546353878659
 31
0.0
  0
LINE
  5
1ABD0
  8
1CENTER
 10
448.42421407926122
 20
-540.84541700288855
 30
0.0
 11
415.27982970740368
 21
-540.84541700288855
 31
0.0
  0
LINE
  5
1ABD1
  8
1PHANTOM
 10
419.42421407942402
 20
-538.79541700288826
 30
0.0
 11
418.42421407942402
 21
-538.79541700288826
 31
0.0
  0
LINE
  5
1ABD2
  8
1PHANTOM
 10
422.22421756939178
 20
-539.34546353878659
 30
0.0
 11
422.32421873278957
 21
-538.84546353878659
 31
0.0
  0
LINE
  5
1ABD3
  8
1PHANTOM
 10
420.62421756939148
 20
-539.34546353878659
 30
0.0
 11
420.72421873278921
 21
-538.84546353878659
 31
0.0
  0
LINE
  5
1ABD4
  8
1PHANTOM
 10
403.1242140794165
 20
-544.39560427160222
 30
0.0
 11
403.1242140794165
 21
-546.39560427160222
 31
0.0
  0
LINE
  5
1ABD5
  8
1PHANTOM
 10
423.1242094256076
 20
-542.84546353878659
 30
0.0
 11
423.22421058900539
 21
-542.34546353878659
 31
0.0
  0
LINE
  5
1ABD6
  8
1PHANTOM
 10
396.72421407941692
 20
-544.39560427160222
 30
0.0
 11
396.72421407941692
 21
-546.39560427160222
 31
0.0
  0
ARC
  5
1ABD7
  8
01
 10
392.42421407941669
 20
-545.59541700288855
 30
0.0
 40
0.5
 50
90.0
 51
180.0
  0
LINE
  5
1ABD8
  8
1PHANTOM
 10
396.55421407941679
 20
-546.39560427160222
 30
0.0
 11
403.29421407941658
 21
-546.39560427160222
 31
0.0
  0
LINE
  5
1ABD9
  8
1PHANTOM
 10
396.72421407941692
 20
-544.39560427160222
 30
0.0
 11
403.1242140794165
 21
-544.3956042716012
 31
0.0
  0
LINE
  5
1ABDA
  8
01
 10
413.92421407941669
 20
-545.09541700288855
 30
0.0
 11
392.42421407941669
 21
-545.09541700288855
 31
0.0
  0
LINE
  5
1ABDC
  8
1PHANTOM
 10
418.42421407942402
 20
-544.64541700288873
 30
0.0
 11
418.42421407942402
 21
-537.04541700288826
 31
0.0
  0
ARC
  5
1ABE0
  8
1PHANTOM
 10
417.32421873301058
 20
-538.84541700288855
 30
0.0
 40
1.5
 50
90.0
 51
179.99986668447491
  0
LINE
  5
1ABE1
  8
1PHANTOM
 10
418.42422222320602
 20
-537.34541700288855
 30
0.0
 11
418.42421756950802
 21
-539.34546353878659
 31
0.0
  0
LINE
  5
1ABE3
  8
01
 10
414.92421407941669
 20
-537.59541700288855
 30
0.0
 11
414.92421407941669
 21
-543.59541700288855
 31
0.0
  0
LINE
  5
1ABE4
  8
01
 10
414.92421407941669
 20
-537.59541700288855
 30
0.0
 11
414.92421407941669
 21
-544.09541700288855
 31
0.0
  0
LINE
  5
1ABE5
  8
01
 10
392.92421407941669
 20
-531.59541700288855
 30
0.0
 11
420.9242140794185
 21
-531.59541700288116
 31
0.0
  0
LINE
  5
1ABE6
  8
1PHANTOM
 10
446.32421662558312
 20
-539.75109318889315
 30
0.0
 11
447.12421205963432
 21
-541.71342827776834
 31
0.0
  0
LINE
  5
1ABE7
  8
1PHANTOM
 10
446.17278082914339
 20
-540.20826502952468
 30
0.0
 11
446.32421662558312
 21
-539.75109318889315
 31
0.0
  0
LINE
  5
1ABE8
  8
1PHANTOM
 10
445.52421100602891
 20
-542.16624238217582
 30
0.0
 11
445.70697514865691
 21
-541.61449291837243
 31
0.0
  0
LINE
  5
1ABE9
  8
1PHANTOM
 10
447.12421205963432
 20
-541.71342827776834
 30
0.0
 11
447.4359819158862
 21
-541.12515170272616
 31
0.0
  0
LINE
  5
1ABEA
  8
1PHANTOM
 10
439.92421873279812
 20
-538.84546353878659
 30
0.0
 11
440.7242094256207
 21
-542.84546353878659
 31
0.0
  0
LINE
  5
1ABEB
  8
1PHANTOM
 10
443.12421873279789
 20
-538.84546353878659
 30
0.0
 11
443.9242099524235
 21
-542.61905648658239
 31
0.0
  0
LINE
  5
1ABEC
  8
1PHANTOM
 10
441.52421873279758
 20
-538.84546353878659
 30
0.0
 11
442.32420942562021
 21
-542.84546353878659
 31
0.0
  0
LINE
  5
1ABED
  8
1PHANTOM
 10
443.02421756940112
 20
-539.34546353878659
 30
0.0
 11
443.12421873279789
 21
-538.84546353878659
 31
0.0
  0
LINE
  5
1ABEE
  8
1PHANTOM
 10
441.4242175694007
 20
-539.34546353878659
 30
0.0
 11
441.52421873279758
 21
-538.84546353878659
 31
0.0
  0
LINE
  5
1ABEF
  8
1PHANTOM
 10
444.61144816683731
 20
-539.76637813599473
 30
0.0
 11
444.72421767918792
 21
-539.2982796808451
 31
0.0
  0
LINE
  5
1ABF0
  8
1PHANTOM
 10
443.9242099524235
 20
-542.61905648658239
 30
0.0
 11
444.05348065005268
 21
-542.08246275131148
 31
0.0
  0
LINE
  5
1ABF1
  8
1PHANTOM
 10
440.7242094256207
 20
-542.84546353878659
 30
0.0
 11
440.82421058901758
 21
-542.34546353878659
 31
0.0
  0
LINE
  5
1ABF2
  8
1PHANTOM
 10
442.32420942562021
 20
-542.84546353878659
 30
0.0
 11
442.42421058901789
 21
-542.34546353878659
 31
0.0
  0
LINE
  5
1ABF3
  8
1PHANTOM
 10
439.82421756940028
 20
-539.34546353878659
 30
0.0
 11
439.92421873279812
 21
-538.84546353878659
 31
0.0
  0
LINE
  5
1ABF4
  8
1PHANTOM
 10
439.12420942562028
 20
-542.84546353878659
 30
0.0
 11
439.22421058901818
 21
-542.34546353878659
 31
0.0
  0
LINE
  5
1ABF5
  8
1PHANTOM
 10
436.72421873279831
 20
-538.84546353878659
 30
0.0
 11
437.52420942562088
 21
-542.84546353878659
 31
0.0
  0
LINE
  5
1ABF6
  8
1PHANTOM
 10
438.32421873279782
 20
-538.84546353878659
 30
0.0
 11
439.12420942562028
 21
-542.84546353878659
 31
0.0
  0
LINE
  5
1ABF7
  8
1PHANTOM
 10
435.12421873279789
 20
-538.84546353878659
 30
0.0
 11
435.92420942562052
 21
-542.84546353878659
 31
0.0
  0
LINE
  5
1ABF8
  8
1PHANTOM
 10
433.52421873279758
 20
-538.84546353878659
 30
0.0
 11
434.32420942562021
 21
-542.84546353878659
 31
0.0
  0
LINE
  5
1ABF9
  8
1PHANTOM
 10
437.52420942562088
 20
-542.84546353878659
 30
0.0
 11
437.62421058901771
 21
-542.34546353878659
 31
0.0
  0
LINE
  5
1ABFA
  8
1PHANTOM
 10
435.92420942562052
 20
-542.84546353878659
 30
0.0
 11
436.0242105890174
 21
-542.34546353878659
 31
0.0
  0
LINE
  5
1ABFB
  8
1PHANTOM
 10
434.32420942562021
 20
-542.84546353878659
 30
0.0
 11
434.424210589018
 21
-542.34546353878659
 31
0.0
  0
LINE
  5
1ABFC
  8
1PHANTOM
 10
432.72420942561621
 20
-542.84546353878659
 30
0.0
 11
432.82421058901389
 21
-542.34546353878659
 31
0.0
  0
LINE
  5
1ABFD
  8
1PHANTOM
 10
435.02421756940112
 20
-539.34546353878659
 30
0.0
 11
435.12421873279789
 21
-538.84546353878659
 31
0.0
  0
LINE
  5
1ABFE
  8
1PHANTOM
 10
436.62421756940051
 20
-539.34546353878659
 30
0.0
 11
436.72421873279831
 21
-538.84546353878659
 31
0.0
  0
LINE
  5
1ABFF
  8
1PHANTOM
 10
438.22421756940088
 20
-539.34546353878659
 30
0.0
 11
438.32421873279782
 21
-538.84546353878659
 31
0.0
  0
LINE
  5
1AC00
  8
1PHANTOM
 10
433.42421756939979
 20
-539.34546353878659
 30
0.0
 11
433.52421873279758
 21
-538.84546353878659
 31
0.0
  0
LINE
  5
1AC01
  8
1PHANTOM
 10
427.12421873279339
 20
-538.84546353878659
 30
0.0
 11
427.92420942561142
 21
-542.84546353878659
 31
0.0
  0
LINE
  5
1AC02
  8
1PHANTOM
 10
425.52421873279297
 20
-538.84546353878659
 30
0.0
 11
426.32420942561203
 21
-542.84546353878659
 31
0.0
  0
LINE
  5
1AC03
  8
1PHANTOM
 10
423.92421873279358
 20
-538.84546353878659
 30
0.0
 11
424.7242094256116
 21
-542.84546353878659
 31
0.0
  0
LINE
  5
1AC04
  8
1PHANTOM
 10
424.7242094256116
 20
-542.84546353878659
 30
0.0
 11
424.8242105890094
 21
-542.34546353878659
 31
0.0
  0
LINE
  5
1AC05
  8
1PHANTOM
 10
426.32420942561203
 20
-542.84546353878659
 30
0.0
 11
426.4242105890097
 21
-542.34546353878659
 31
0.0
  0
LINE
  5
1AC06
  8
1PHANTOM
 10
425.42421756939621
 20
-539.34546353878659
 30
0.0
 11
425.52421873279297
 21
-538.84546353878659
 31
0.0
  0
LINE
  5
1AC07
  8
1PHANTOM
 10
427.0242175693956
 20
-539.34546353878659
 30
0.0
 11
427.12421873279339
 21
-538.84546353878659
 31
0.0
  0
LINE
  5
1AC08
  8
1PHANTOM
 10
428.72421873279831
 20
-538.84546353878659
 30
0.0
 11
429.52420942561628
 21
-542.84546353878659
 31
0.0
  0
LINE
  5
1AC09
  8
1PHANTOM
 10
430.32421873279782
 20
-538.84546353878659
 30
0.0
 11
431.12420942561579
 21
-542.84546353878659
 31
0.0
  0
LINE
  5
1AC0A
  8
1PHANTOM
 10
431.12420942561579
 20
-542.84546353878659
 30
0.0
 11
431.22421058901358
 21
-542.34546353878659
 31
0.0
  0
LINE
  5
1AC0B
  8
1PHANTOM
 10
429.52420942561628
 20
-542.84546353878659
 30
0.0
 11
429.62421058901418
 21
-542.34546353878659
 31
0.0
  0
LINE
  5
1AC0C
  8
1PHANTOM
 10
427.92420942561142
 20
-542.84546353878659
 30
0.0
 11
428.02421058900921
 21
-542.34546353878659
 31
0.0
  0
LINE
  5
1AC0D
  8
1PHANTOM
 10
431.82421756940028
 20
-539.34546353878659
 30
0.0
 11
431.92421873279812
 21
-538.84546353878659
 31
0.0
  0
LINE
  5
1AC0E
  8
1PHANTOM
 10
430.22421756940003
 20
-539.34546353878659
 30
0.0
 11
430.32421873279782
 21
-538.84546353878659
 31
0.0
  0
LINE
  5
1AC0F
  8
1PHANTOM
 10
428.62421756940051
 20
-539.34546353878659
 30
0.0
 11
428.72421873279831
 21
-538.84546353878659
 31
0.0
  0
LINE
  5
1AC10
  8
1PHANTOM
 10
431.92421873279812
 20
-538.84546353878659
 30
0.0
 11
432.72420942561621
 21
-542.84546353878659
 31
0.0
  0
LINE
  5
1AC11
  8
1PHANTOM
 10
448.42421407926122
 20
-540.84546353878648
 30
0.0
 11
443.12421058901589
 21
-542.34546353878659
 31
0.0
  0
LINE
  5
1AC12
  8
1PHANTOM
 10
448.42421407926122
 20
-540.84546353878648
 30
0.0
 11
443.1242175693996
 21
-539.34546353878659
 31
0.0
  0
LINE
  5
1AC13
  8
1PHANTOM
 10
444.72421767918792
 20
-539.2982796808451
 30
0.0
 11
445.52421100602891
 21
-542.16624238217582
 31
0.0
  0
LINE
  5
1AC17
  8
1HATCH
 10
413.92421407941669
 20
-536.59541700288855
 30
0.0
 11
413.92421407941669
 21
-545.09541700288855
 31
0.0
  0
LINE
  5
1B181
  8
01
 10
152.42421407944971
 20
-555.0954170028906
 30
0.0
 11
211.42421407945059
 21
-555.0954170028906
 31
0.0
  0
ARC
  5
1B182
  8
01
 10
152.42421407944971
 20
-554.59541700289049
 30
0.0
 40
0.5
 50
180.0
 51
270.0
  0
LINE
  5
1B183
  8
01
 10
151.92421407945059
 20
-545.09541700288969
 30
0.0
 11
211.92421407945059
 21
-545.09541700288969
 31
0.0
  0
LINE
  5
1B184
  8
01
 10
151.92421407945059
 20
-536.59541700289037
 30
0.0
 11
211.92421407945059
 21
-536.59541700289037
 31
0.0
  0
LINE
  5
1B185
  8
01
 10
152.42421407945059
 20
-531.5954170028906
 30
0.0
 11
211.42421407945059
 21
-531.59541700289026
 31
0.0
  0
ARC
  5
1B186
  8
01
 10
152.42421407945059
 20
-532.0954170028906
 30
0.0
 40
0.5
 50
90.0
 51
180.0
  0
CIRCLE
  5
1B187
  8
01
 10
159.42421407944971
 20
-540.84541700288867
 30
0.0
 40
2.5
  0
CIRCLE
  5
1B188
  8
01
 10
159.42421407944971
 20
-540.84541700288867
 30
0.0
 40
4.0
  0
LINE
  5
1B189
  8
01
 10
151.92421407945059
 20
-532.0954170028906
 30
0.0
 11
151.92421407944971
 21
-554.59541700289049
 31
0.0
  0
LINE
  5
1B18A
  8
01
 10
211.92421407945059
 20
-532.09541700289037
 30
0.0
 11
211.92421407945059
 21
-554.59541700289049
 31
0.0
  0
ARC
  5
1B18B
  8
01
 10
211.42421407945059
 20
-554.59541700289049
 30
0.0
 40
0.5
 50
270.0
 51
0.0
  0
ARC
  5
1B18C
  8
01
 10
211.42421407945059
 20
-532.09541700289037
 30
0.0
 40
0.5
 50
0.0
 51
90.0
  0
LINE
  5
1B18D
  8
1CENTER
 10
159.4242140794488
 20
-530.42131768864715
 30
0.0
 11
159.4242140794488
 21
-547.47297540070065
 31
0.0
  0
LINE
  5
1B18E
  8
1CENTER
 10
204.42421407944971
 20
-530.42131768864715
 30
0.0
 11
204.42421407944971
 21
-547.47297540070065
 31
0.0
  0
CIRCLE
  5
1B18F
  8
01
 10
204.42421407944971
 20
-540.84541700288833
 30
0.0
 40
2.5
  0
CIRCLE
  5
1B190
  8
01
 10
204.42421407944971
 20
-540.84541700288833
 30
0.0
 40
4.0
  0
ARC
  5
1B193
  8
01
 10
152.42421407945059
 20
-545.59541700288958
 30
0.0
 40
0.5
 50
90.0
 51
180.0
  0
LINE
  5
1B195
  8
01
 10
181.92421407944789
 20
-536.59541700288855
 30
0.0
 11
82.924214079448802
 21
-536.59541700288855
 31
0.0
  0
LINE
  5
1B196
  8
01
 10
82.924214079448802
 20
-536.59541700288855
 30
0.0
 11
81.924214079448802
 21
-537.59541700288855
 31
0.0
  0
LINE
  5
1B197
  8
01
 10
81.924214079448802
 20
-543.59541700288855
 30
0.0
 11
82.924214079448802
 21
-544.59541700288855
 31
0.0
  0
LINE
  5
1B198
  8
01
 10
81.924214079448802
 20
-537.59541700288855
 30
0.0
 11
81.924214079448802
 21
-543.59541700288855
 31
0.0
  0
LINE
  5
1B23E
  8
01
 10
82.924214079447893
 20
-391.59541700290941
 30
0.0
 11
151.92421407944809
 21
-391.59541700290941
 31
0.0
  0
LINE
  5
1B23F
  8
01
 10
276.92421407944789
 20
-501.59541700290907
 30
0.0
 11
86.924214079447907
 21
-501.59541700290907
 31
0.0
  0
LINE
  5
1B243
  8
01
 10
81.924214079447907
 20
-496.59541700290907
 30
0.0
 11
81.924214079447907
 21
-392.59541700290868
 31
0.0
  0
ARC
  5
1B245
  8
01
 10
86.924214079447907
 20
-496.59541700290907
 30
0.0
 40
5.0
 50
180.0
 51
270.0
  0
LINE
  5
1B246
  8
01
 10
81.924214079447907
 20
-392.59541700290941
 30
0.0
 11
82.924214079447893
 21
-391.59541700290941
 31
0.0
  0
LINE
  5
1B24A
  8
01
 10
281.92421407944789
 20
-392.59541700290941
 30
0.0
 11
281.92421407944789
 21
-496.59541700290907
 31
0.0
  0
ARC
  5
1B250
  8
01
 10
276.92421407944789
 20
-496.59541700290907
 30
0.0
 40
5.0
 50
270.0
 51
0.0
  0
LINE
  5
1B261
  8
01
 10
280.92421407944789
 20
-391.59541700290941
 30
0.0
 11
281.92421407944789
 21
-392.59541700290941
 31
0.0
  0
LINE
  5
1B264
  8
01
 10
211.92421407944789
 20
-391.59541700290981
 30
0.0
 11
280.92421407944789
 21
-391.59541700290941
 31
0.0
  0
LINE
  5
1B267
  8
01
 10
181.92421407944789
 20
-544.59541700288855
 30
0.0
 11
82.924214079448802
 21
-544.59541700288855
 31
0.0
  0
LINE
  5
1B268
  8
01
 10
181.92421407944789
 20
-536.59541700288855
 30
0.0
 11
280.92421407944698
 21
-536.59541700288855
 31
0.0
  0
LINE
  5
1B26B
  8
01
 10
181.92421407944789
 20
-544.59541700288855
 30
0.0
 11
280.92421407944698
 21
-544.59541700288855
 31
0.0
  0
LINE
  5
1B26C
  8
01
 10
280.92421407944698
 20
-536.59541700288855
 30
0.0
 11
281.92421407944698
 21
-537.59541700288855
 31
0.0
  0
LINE
  5
1B26D
  8
01
 10
281.92421407944698
 20
-543.59541700288855
 30
0.0
 11
280.92421407944698
 21
-544.59541700288855
 31
0.0
  0
LINE
  5
1B26E
  8
01
 10
281.92421407944698
 20
-537.59541700288855
 30
0.0
 11
281.92421407944698
 21
-543.59541700288855
 31
0.0
  0
LINE
  5
1B283
  8
01
 10
211.42421407944789
 20
-413.59541700290941
 30
0.0
 11
152.4242140794488
 21
-413.59541700290902
 31
0.0
  0
ARC
  5
1B284
  8
01
 10
152.4242140794488
 20
-413.09541700290902
 30
0.0
 40
0.5
 50
180.0
 51
270.0
  0
LINE
  5
1B285
  8
1HIDDEN
 10
211.92421407944789
 20
-390.59541700290879
 30
0.0
 11
151.92421407944701
 21
-390.59541700290828
 31
0.0
  0
LINE
  5
1B286
  8
01
 10
211.9242140794488
 20
-384.0954170029093
 30
0.0
 11
151.92421407944701
 21
-384.09541700290862
 31
0.0
  0
LINE
  5
1B287
  8
1CENTER
 10
159.42421407944599
 20
-385.28990118497268
 30
0.0
 11
159.42421407944599
 21
-387.91900771092293
 31
0.0
  0
LINE
  5
1B288
  8
1HIDDEN
 10
163.42421407944599
 20
-386.09541700291402
 30
0.0
 11
163.42421407945329
 21
-390.59541700292129
 31
0.0
  0
LINE
  5
1B289
  8
1HIDDEN
 10
163.42421407944599
 20
-386.09541700291402
 30
0.0
 11
159.42421407944599
 21
-386.09541700291402
 31
0.0
  0
LINE
  5
1B28A
  8
1HIDDEN
 10
161.9242140794461
 20
-384.09541700292129
 30
0.0
 11
161.9242140794461
 21
-386.09541700291402
 31
0.0
  0
LINE
  5
1B28B
  8
1HIDDEN
 10
155.4242140794461
 20
-386.09541700291402
 30
0.0
 11
155.4242140794461
 21
-390.59541700292129
 31
0.0
  0
LINE
  5
1B28C
  8
1HIDDEN
 10
156.9242140794461
 20
-384.09541700292129
 30
0.0
 11
156.9242140794461
 21
-386.09541700291402
 31
0.0
  0
LINE
  5
1B28D
  8
1HIDDEN
 10
156.9242140794461
 20
-386.09541700291402
 30
0.0
 11
155.4242140794461
 21
-386.09541700291402
 31
0.0
  0
LINE
  5
1B28E
  8
1HIDDEN
 10
163.22421407944901
 20
-386.09541700291402
 30
0.0
 11
155.62421407945041
 21
-386.09541700291402
 31
0.0
  0
LINE
  5
1B28F
  8
01
 10
151.92421407944789
 20
-384.09541700290828
 30
0.0
 11
151.9242140794488
 21
-413.09541700290902
 31
0.0
  0
LINE
  5
1B290
  8
01
 10
211.92421407944789
 20
-384.0954170029093
 30
0.0
 11
211.92421407944789
 21
-413.09541700290941
 31
0.0
  0
ARC
  5
1B291
  8
01
 10
211.42421407944789
 20
-413.09541700290941
 30
0.0
 40
0.5
 50
270.0
 51
0.0
  0
LINE
  5
1B292
  8
1CENTER
 10
159.42421407944599
 20
-393.94163395494752
 30
0.0
 11
159.42421407944599
 21
-381.09541700290862
 31
0.0
  0
LINE
  5
1B293
  8
1CENTER
 10
204.42421407944701
 20
-385.28990118497268
 30
0.0
 11
204.42421407944701
 21
-387.91900771092293
 31
0.0
  0
LINE
  5
1B294
  8
1HIDDEN
 10
200.42421407944701
 20
-386.09541700291402
 30
0.0
 11
200.42421407943971
 21
-390.59541700292129
 31
0.0
  0
LINE
  5
1B295
  8
1HIDDEN
 10
200.42421407944701
 20
-386.09541700291402
 30
0.0
 11
204.42421407944701
 21
-386.09541700291402
 31
0.0
  0
LINE
  5
1B296
  8
1HIDDEN
 10
201.92421407944701
 20
-384.09541700292129
 30
0.0
 11
201.92421407944701
 21
-386.09541700291402
 31
0.0
  0
LINE
  5
1B297
  8
1HIDDEN
 10
208.42421407944701
 20
-386.09541700291402
 30
0.0
 11
208.42421407944701
 21
-390.59541700292129
 31
0.0
  0
LINE
  5
1B298
  8
1HIDDEN
 10
206.92421407944701
 20
-384.09541700292129
 30
0.0
 11
206.92421407944701
 21
-386.09541700291402
 31
0.0
  0
LINE
  5
1B299
  8
1HIDDEN
 10
206.92421407944701
 20
-386.09541700291402
 30
0.0
 11
208.42421407944701
 21
-386.09541700291402
 31
0.0
  0
LINE
  5
1B29A
  8
1HIDDEN
 10
200.6242140794441
 20
-386.09541700291402
 30
0.0
 11
208.22421407944259
 21
-386.09541700291402
 31
0.0
  0
LINE
  5
1B29B
  8
1CENTER
 10
204.42421407944701
 20
-393.94163395494752
 30
0.0
 11
204.42421407944701
 21
-381.09541700290862
 31
0.0
  0
LINE
  5
1B29C
  8
1HATCH
 10
211.42421407944789
 20
-413.59541700290941
 30
0.0
 11
211.42421407944789
 21
-384.09541700290953
 31
0.0
  0
LINE
  5
1B29D
  8
1HATCH
 10
152.4242140794488
 20
-413.59541700290902
 30
0.0
 11
152.42421407944971
 21
-384.09541700290879
 31
0.0
  0
CIRCLE
  5
1B29F
  8
1HIDDEN
 10
204.42421407944701
 20
-405.5954170028831
 30
0.0
 40
4.0
  0
CIRCLE
  5
1B2A0
  8
1HIDDEN
 10
204.42421407944701
 20
-405.5954170028831
 30
0.0
 40
3.5
  0
CIRCLE
  5
1B2A1
  8
1HIDDEN
 10
159.42421407945059
 20
-405.5954170028831
 30
0.0
 40
4.0
  0
CIRCLE
  5
1B2A2
  8
1HIDDEN
 10
159.42421407945059
 20
-405.5954170028831
 30
0.0
 40
3.5
  0
LINE
  5
1B2A3
  8
1HIDDEN
 10
200.42421407944789
 20
-545.09541700288969
 30
0.0
 11
200.42421407944789
 21
-555.0954170028906
 31
0.0
  0
LINE
  5
1B2A4
  8
1HIDDEN
 10
200.92421407944789
 20
-545.09541700288969
 30
0.0
 11
200.92421407944789
 21
-555.0954170028906
 31
0.0
  0
LINE
  5
1B2A5
  8
1HIDDEN
 10
208.42421407944789
 20
-545.09541700288969
 30
0.0
 11
208.42421407944789
 21
-555.0954170028906
 31
0.0
  0
LINE
  5
1B2A6
  8
1HIDDEN
 10
207.92421407944789
 20
-545.09541700288969
 30
0.0
 11
207.92421407944789
 21
-555.0954170028906
 31
0.0
  0
LINE
  5
1B2A7
  8
1HIDDEN
 10
155.4242140794515
 20
-545.09541700288969
 30
0.0
 11
155.4242140794515
 21
-555.0954170028906
 31
0.0
  0
LINE
  5
1B2A8
  8
1HIDDEN
 10
155.9242140794515
 20
-545.09541700288969
 30
0.0
 11
155.9242140794515
 21
-555.0954170028906
 31
0.0
  0
LINE
  5
1B2A9
  8
1HIDDEN
 10
163.4242140794515
 20
-545.09541700288969
 30
0.0
 11
163.4242140794515
 21
-555.0954170028906
 31
0.0
  0
LINE
  5
1B2AA
  8
1HIDDEN
 10
162.9242140794515
 20
-545.09541700288969
 30
0.0
 11
162.9242140794515
 21
-555.0954170028906
 31
0.0
  0
TEXT
  5
1B5A0
  8
1DIM
 10
410.45094919192218
 20
-462.21727506605839
 30
0.0
 40
3.5
  1
PB
  0
SOLID
  5
1B5A1
  8
1DIM
 10
424.57434592837791
 20
-499.71654459317642
 30
0.0
 11
425.05374031233362
 21
-501.68664411750069
 31
0.0
 12
423.96130794124338
 22
-499.97851571901731
 32
0.0
 13
423.96130794124338
 23
-499.97851571901731
 33
0.0
  0
SOLID
  5
1B5A3
  8
1DIM
 10
433.86841708916421
 20
-499.76064442804869
 30
0.0
 11
434.50216491546593
 21
-501.68664411750058
 31
0.0
 12
433.27802518049339
 22
-500.0702923549278
 32
0.0
 13
433.27802518049339
 23
-500.0702923549278
 33
0.0
  0
TEXT
  5
1B5A5
  8
1DIM
 10
420.81517704273728
 20
-469.15872675606943
 30
0.0
 40
3.5
  1
合板9mm以上
  0
LINE
  5
1B658
  8
1CENTER
 10
153.02900911290249
 20
-540.84541700288878
 30
0.0
 11
165.54363709685359
 21
-540.84541700288867
 31
0.0
  0
LINE
  5
1B659
  8
1CENTER
 10
197.7526106904711
 20
-540.84541700288833
 30
0.0
 11
210.97216957070799
 21
-540.84541700288821
 31
0.0
  0
LINE
  5
1B65A
  8
1PHANTOM
 10
419.42421407942402
 20
-537.04541700288826
 30
0.0
 11
419.42421407942402
 21
-544.64541700288873
 31
0.0
  0
LINE
  5
1B65B
  8
01
 10
439.4242140794467
 20
-500.8454170028885
 30
0.0
 11
439.4242140794467
 21
-580.84541700288798
 31
0.0
  0
LINE
  5
1B65C
  8
01
 10
430.4242140794467
 20
-500.8454170028885
 30
0.0
 11
430.4242140794467
 21
-580.84541700288798
 31
0.0
  0
LINE
  5
1B65D
  8
01
 10
421.4242140794467
 20
-500.8454170028885
 30
0.0
 11
421.4242140794467
 21
-580.84541700288798
 31
0.0
  0
LINE
  5
1B6CD
  8
1DIM
 10
434.50216491546593
 20
-501.68664411750069
 30
0.0
 11
418.11517704273729
 21
-469.85872675606942
 31
0.0
  0
LINE
  5
1B6CE
  8
1DIM
 10
418.11517704273729
 20
-469.85872675606942
 30
0.0
 11
450.01517704273732
 21
-469.85872675606942
 31
0.0
  0
LINE
  5
1B6CF
  8
1DIM
 10
425.05374031233362
 20
-501.68664411750069
 30
0.0
 11
408.41761585858887
 21
-462.91727506605838
 31
0.0
  0
LINE
  5
1B6D0
  8
1DIM
 10
408.41761585858887
 20
-462.91727506605838
 30
0.0
 11
416.95094919192229
 21
-462.91727506605838
 31
0.0
  0
LINE
  5
1B6D1
  8
1DIM
 10
81.924214079448802
 20
-543.59541700288855
 30
0.0
 11
81.924214079448802
 21
-565.59541700288855
 31
0.0
  0
LINE
  5
1B6D2
  8
1DIM
 10
281.92421407944698
 20
-543.59541700288855
 30
0.0
 11
281.92421407944698
 21
-565.59541700288855
 31
0.0
  0
LINE
  5
1B6D3
  8
1DIM
 10
83.924214079448802
 20
-564.59541700288855
 30
0.0
 11
279.92421407944698
 21
-564.59541700288855
 31
0.0
  0
LINE
  5
1B6D7
  8
1DIM
 10
151.92421407944761
 20
-385.09541700290941
 30
0.0
 11
151.92421407944761
 21
-374.09541700290839
 31
0.0
  0
LINE
  5
1B6D8
  8
1DIM
 10
211.92421407944769
 20
-385.09541700290822
 30
0.0
 11
211.92421407944769
 21
-374.09541700290839
 31
0.0
  0
LINE
  5
1B6D9
  8
1DIM
 10
153.92421407944769
 20
-375.0954170029085
 30
0.0
 11
209.92421407944769
 21
-375.0954170029085
 31
0.0
  0
LINE
  5
1B6DD
  8
1DIM
 10
280.9242140794467
 20
-391.59541700290822
 30
0.0
 11
292.92421407944789
 21
-391.59541700290822
 31
0.0
  0
LINE
  5
1B6DE
  8
1DIM
 10
211.92421407944769
 20
-385.0954170029089
 30
0.0
 11
292.92421407944789
 21
-385.0954170029089
 31
0.0
  0
LINE
  5
1B6DF
  8
1DIM
 10
291.92421407944789
 20
-389.59541700290822
 30
0.0
 11
291.92421407944789
 21
-387.0954170029089
 31
0.0
  0
LINE
  5
1B6E0
  8
1DIM
 10
291.92421407944789
 20
-385.0954170029089
 30
0.0
 11
291.92421407944801
 21
-374.5287503362423
 31
0.0
  0
LINE
  5
1B6E4
  8
1DIM
 10
276.92421407944772
 20
-501.5954170029089
 30
0.0
 11
302.92421407944789
 21
-501.5954170029089
 31
0.0
  0
LINE
  5
1B6E5
  8
1DIM
 10
211.92421407944769
 20
-385.0954170029089
 30
0.0
 11
302.92421407944789
 21
-385.0954170029089
 31
0.0
  0
LINE
  5
1B6E6
  8
1DIM
 10
301.92421407944789
 20
-499.59541700290879
 30
0.0
 11
301.92421407944789
 21
-387.0954170029089
 31
0.0
  0
LINE
  5
1B6EA
  8
1DIM
 10
276.92421407944772
 20
-501.5954170029089
 30
0.0
 11
292.92421407944789
 21
-501.5954170029089
 31
0.0
  0
LINE
  5
1B6EB
  8
1DIM
 10
280.9242140794467
 20
-391.59541700290748
 30
0.0
 11
292.92421407944789
 21
-391.59541700290748
 31
0.0
  0
LINE
  5
1B6EC
  8
1DIM
 10
291.92421407944789
 20
-499.59541700290879
 30
0.0
 11
291.92421407944789
 21
-393.59541700290748
 31
0.0
  0
LINE
  5
1B6F0
  8
1HATCH
 10
425.4585375183209
 20
-537.94904289813519
 30
0.0
 11
425.4585375183209
 21
-537.94904289813519
 31
0.0
  0
LINE
  5
1B6F1
  8
1HATCH
 10
421.81514095356079
 20
-550.13983723644014
 30
0.0
 11
421.81514095356079
 21
-550.13983723644014
 31
0.0
  0
LINE
  5
1B6F2
  8
1DIM
 10
420.92421407941839
 20
-531.59541700288116
 30
0.0
 11
450.4242140794467
 21
-531.59541700288116
 31
0.0
  0
LINE
  5
1B6F3
  8
1DIM
 10
448.42421407926122
 20
-540.84546353878648
 30
0.0
 11
450.4242140794467
 21
-540.84546353878648
 31
0.0
  0
LINE
  5
1B6F4
  8
1DIM
 10
449.4242140794467
 20
-533.59541700288116
 30
0.0
 11
449.4242140794467
 21
-538.84546353878659
 31
0.0
  0
TEXT
  5
1B6F8
  8
1DIM
 10
355.42738349909121
 20
-571.52545236538333
 30
0.0
 40
3.5
  1
材質：アルミ
  0
TEXT
  5
1B6F9
  8
1DIM
 10
325.79405016575788
 20
-577.3587856987167
 30
0.0
 40
3.5
  1
仕上げ：ブラストアルマイト
  0
SOLID
  5
1B6FA
  8
1DIM
 10
393.21618846435302
 20
-556.79889206647238
 30
0.0
 11
394.4973683966914
 21
-555.2273676180198
 31
0.0
 12
393.79512503857211
 22
-557.12946261488196
 32
0.0
 13
393.79512503857211
 23
-557.12946261488196
 33
0.0
  0
TEXT
  5
1B6FC
  8
1DIM
 10
314.98233384861368
 20
-565.21813905035719
 30
0.0
 40
3.5
  1
材質：ガラス
  0
SOLID
  5
1B6FD
  8
1DIM
 10
355.34784109243759
 20
-545.79817636791961
 30
0.0
 11
356.77695804866681
 21
-544.35986630519676
 31
0.0
 12
355.89156959690058
 22
-546.18392726925219
 32
0.0
 13
355.89156959690058
 23
-546.18392726925219
 33
0.0
  0
LINE
  5
1B6FF
  8
1DIM
 10
448.42421407926122
 20
-540.84546353878648
 30
0.0
 11
450.42420161019049
 21
-540.84546353878648
 31
0.0
  0
LINE
  5
1B700
  8
1DIM
 10
420.92421407940401
 20
-555.09541700288855
 30
0.0
 11
450.42420161019049
 21
-555.09541700288855
 31
0.0
  0
LINE
  5
1B701
  8
1DIM
 10
449.42420161019049
 20
-542.84546353878659
 30
0.0
 11
449.42420161019049
 21
-553.09541700288855
 31
0.0
  0
LINE
  5
1B702
  8
1DIM
 10
449.42420161019049
 20
-555.09541700288855
 30
0.0
 11
449.42420161019049
 21
-571.99541700288853
 31
0.0
  0
LINE
  5
1B706
  8
1DIM
 10
303.92421407941578
 20
-543.59541700288855
 30
0.0
 11
303.92421407941578
 21
-586.09541700288855
 31
0.0
  0
LINE
  5
1B707
  8
1DIM
 10
421.4242140794467
 20
-555.09541700288855
 30
0.0
 11
421.4242140794467
 21
-586.09541700288855
 31
0.0
  0
LINE
  5
1B708
  8
1DIM
 10
305.92421407941578
 20
-585.09541700288855
 30
0.0
 11
419.4242140794467
 21
-585.09541700288855
 31
0.0
  0
LINE
  5
1B70C
  8
1DIM
 10
391.92421407941669
 20
-554.09541700288855
 30
0.0
 11
391.92421407941669
 21
-576.09541700288855
 31
0.0
  0
LINE
  5
1B70D
  8
1DIM
 10
421.4242140794467
 20
-555.09541700288855
 30
0.0
 11
421.4242140794467
 21
-576.09541700288855
 31
0.0
  0
LINE
  5
1B70E
  8
1DIM
 10
393.92421407941669
 20
-575.09541700288855
 30
0.0
 11
419.4242140794467
 21
-575.09541700288855
 31
0.0
  0
LINE
  5
1B712
  8
1DIM
 10
399.9242140794168
 20
-555.18354935032812
 30
0.0
 11
399.9242140794168
 21
-566.09541700288855
 31
0.0
  0
LINE
  5
1B713
  8
1DIM
 10
421.4242140794467
 20
-555.09541700288855
 30
0.0
 11
421.4242140794467
 21
-566.09541700288855
 31
0.0
  0
LINE
  5
1B714
  8
1DIM
 10
401.92421407941669
 20
-565.09541700288855
 30
0.0
 11
419.4242140794467
 21
-565.09541700288855
 31
0.0
  0
LINE
  5
1B718
  8
1DIM
 10
392.92421407941652
 20
-531.59541700288855
 30
0.0
 11
292.92421407941578
 21
-531.59541700288855
 31
0.0
  0
LINE
  5
1B719
  8
1DIM
 10
392.92421407941669
 20
-555.09541700288855
 30
0.0
 11
292.92421407941578
 21
-555.09541700288855
 31
0.0
  0
LINE
  5
1B71A
  8
1DIM
 10
293.92421407941578
 20
-533.59541700288855
 30
0.0
 11
293.92421407941578
 21
-553.09541700288855
 31
0.0
  0
LINE
  5
1B71E
  8
1DIM
 10
304.92421407941589
 20
-536.59541700288855
 30
0.0
 11
314.92421407941578
 21
-536.59541700288855
 31
0.0
  0
LINE
  5
1B71F
  8
1DIM
 10
304.92421407941589
 20
-544.59541700288855
 30
0.0
 11
314.92421407941578
 21
-544.59541700288855
 31
0.0
  0
LINE
  5
1B720
  8
1DIM
 10
313.92421407941578
 20
-538.59541700288855
 30
0.0
 11
313.92421407941578
 21
-542.59541700288855
 31
0.0
  0
LINE
  5
1B724
  8
1DIM
 10
392.92421407941652
 20
-531.59541700288855
 30
0.0
 11
312.92421407941578
 21
-531.59541700288855
 31
0.0
  0
LINE
  5
1B725
  8
1DIM
 10
304.92421407941589
 20
-536.59541700288855
 30
0.0
 11
314.92421407941578
 21
-536.59541700288855
 31
0.0
  0
LINE
  5
1B726
  8
1DIM
 10
313.92421407941578
 20
-538.59541700288855
 30
0.0
 11
313.92421407941578
 21
-540.59541700288855
 31
0.0
  0
LINE
  5
1B727
  8
1DIM
 10
313.92421407941578
 20
-529.59541700288855
 30
0.0
 11
313.92421407941578
 21
-523.3620836695552
 31
0.0
  0
LINE
  5
1B728
  8
1DIM
 10
313.92421407941578
 20
-536.59541700288855
 30
0.0
 11
313.92421407941578
 21
-531.59541700288855
 31
0.0
  0
TEXT
  5
1B72C
  8
1DIM
 10
313.2242140794159
 20
-526.39541700288839
 30
0.0
 40
3.5
  1
5 
 50
90.0
  0
LINE
  5
1B72D
  8
0
  6
BYBLOCK
 10
314.46011245941583
 20
-529.59541700288855
 30
0.0
 11
313.92421407941578
 21
-531.59541700288855
 31
0.0
  0
LINE
  5
1B72E
  8
0
  6
BYBLOCK
 10
313.92421407941578
 20
-531.59541700288855
 30
0.0
 11
313.38831569941578
 21
-529.59541700288855
 31
0.0
  0
LINE
  5
1B72F
  8
0
  6
BYBLOCK
 10
313.92421407941578
 20
-531.59541700288855
 30
0.0
 11
313.92421407941578
 21
-529.59541700288855
 31
0.0
  0
LINE
  5
1B730
  8
0
  6
BYBLOCK
 10
313.38831569941578
 20
-538.59541700288855
 30
0.0
 11
313.92421407941578
 21
-536.59541700288855
 31
0.0
  0
LINE
  5
1B731
  8
0
  6
BYBLOCK
 10
313.92421407941578
 20
-536.59541700288855
 30
0.0
 11
314.46011245941583
 21
-538.59541700288855
 31
0.0
  0
LINE
  5
1B732
  8
0
  6
BYBLOCK
 10
313.92421407941578
 20
-536.59541700288855
 30
0.0
 11
313.92421407941578
 21
-538.59541700288855
 31
0.0
  0
TEXT
  5
1B733
  8
1DIM
 10
313.2242140794159
 20
-541.76208366955495
 30
0.0
 40
3.5
  1
8 
 50
90.0
  0
LINE
  5
1B734
  8
0
  6
BYBLOCK
 10
314.46011245941583
 20
-542.59541700288855
 30
0.0
 11
313.92421407941578
 21
-544.59541700288855
 31
0.0
  0
LINE
  5
1B735
  8
0
  6
BYBLOCK
 10
313.92421407941578
 20
-544.59541700288855
 30
0.0
 11
313.38831569941578
 21
-542.59541700288855
 31
0.0
  0
LINE
  5
1B736
  8
0
  6
BYBLOCK
 10
313.92421407941578
 20
-544.59541700288855
 30
0.0
 11
313.92421407941578
 21
-542.59541700288855
 31
0.0
  0
LINE
  5
1B737
  8
0
  6
BYBLOCK
 10
313.38831569941578
 20
-538.59541700288855
 30
0.0
 11
313.92421407941578
 21
-536.59541700288855
 31
0.0
  0
LINE
  5
1B738
  8
0
  6
BYBLOCK
 10
313.92421407941578
 20
-536.59541700288855
 30
0.0
 11
314.46011245941583
 21
-538.59541700288855
 31
0.0
  0
LINE
  5
1B739
  8
0
  6
BYBLOCK
 10
313.92421407941578
 20
-536.59541700288855
 30
0.0
 11
313.92421407941578
 21
-538.59541700288855
 31
0.0
  0
TEXT
  5
1B73A
  8
1DIM
 10
293.2242140794159
 20
-546.26208366955495
 30
0.0
 40
3.5
  1
24 
 50
90.0
  0
LINE
  5
1B73B
  8
0
  6
BYBLOCK
 10
294.46011245941583
 20
-553.09541700288855
 30
0.0
 11
293.92421407941578
 21
-555.09541700288855
 31
0.0
  0
LINE
  5
1B73C
  8
0
  6
BYBLOCK
 10
293.92421407941578
 20
-555.09541700288855
 30
0.0
 11
293.38831569941578
 21
-553.09541700288855
 31
0.0
  0
LINE
  5
1B73D
  8
0
  6
BYBLOCK
 10
293.92421407941578
 20
-555.09541700288855
 30
0.0
 11
293.92421407941578
 21
-553.09541700288855
 31
0.0
  0
LINE
  5
1B73E
  8
0
  6
BYBLOCK
 10
293.38831569941578
 20
-533.59541700288855
 30
0.0
 11
293.92421407941578
 21
-531.59541700288855
 31
0.0
  0
LINE
  5
1B73F
  8
0
  6
BYBLOCK
 10
293.92421407941578
 20
-531.59541700288855
 30
0.0
 11
294.46011245941583
 21
-533.59541700288855
 31
0.0
  0
LINE
  5
1B740
  8
0
  6
BYBLOCK
 10
293.92421407941578
 20
-531.59541700288855
 30
0.0
 11
293.92421407941578
 21
-533.59541700288855
 31
0.0
  0
TEXT
  5
1B741
  8
1DIM
 10
406.00754741276501
 20
-564.39541700288851
 30
0.0
 40
3.5
  1
21.5 
  0
LINE
  5
1B742
  8
0
  6
BYBLOCK
 10
419.4242140794467
 20
-564.55951862288839
 30
0.0
 11
421.4242140794467
 21
-565.09541700288855
 31
0.0
  0
LINE
  5
1B743
  8
0
  6
BYBLOCK
 10
421.4242140794467
 20
-565.09541700288855
 30
0.0
 11
419.4242140794467
 21
-565.6313153828886
 31
0.0
  0
LINE
  5
1B744
  8
0
  6
BYBLOCK
 10
421.4242140794467
 20
-565.09541700288855
 30
0.0
 11
419.4242140794467
 21
-565.09541700288855
 31
0.0
  0
LINE
  5
1B745
  8
0
  6
BYBLOCK
 10
401.92421407941669
 20
-565.6313153828886
 30
0.0
 11
399.9242140794168
 21
-565.09541700288855
 31
0.0
  0
LINE
  5
1B746
  8
0
  6
BYBLOCK
 10
399.9242140794168
 20
-565.09541700288855
 30
0.0
 11
401.92421407941669
 21
-564.55951862288839
 31
0.0
  0
LINE
  5
1B747
  8
0
  6
BYBLOCK
 10
399.9242140794168
 20
-565.09541700288855
 30
0.0
 11
401.92421407941669
 21
-565.09541700288855
 31
0.0
  0
TEXT
  5
1B748
  8
1DIM
 10
401.42421407943169
 20
-574.39541700288839
 30
0.0
 40
3.5
  1
29.5 
  0
LINE
  5
1B749
  8
0
  6
BYBLOCK
 10
419.4242140794467
 20
-574.5595186228885
 30
0.0
 11
421.4242140794467
 21
-575.09541700288855
 31
0.0
  0
LINE
  5
1B74A
  8
0
  6
BYBLOCK
 10
421.4242140794467
 20
-575.09541700288855
 30
0.0
 11
419.4242140794467
 21
-575.6313153828886
 31
0.0
  0
LINE
  5
1B74B
  8
0
  6
BYBLOCK
 10
421.4242140794467
 20
-575.09541700288855
 30
0.0
 11
419.4242140794467
 21
-575.09541700288855
 31
0.0
  0
LINE
  5
1B74C
  8
0
  6
BYBLOCK
 10
393.92421407941669
 20
-575.6313153828886
 30
0.0
 11
391.92421407941669
 21
-575.09541700288855
 31
0.0
  0
LINE
  5
1B74D
  8
0
  6
BYBLOCK
 10
391.92421407941669
 20
-575.09541700288855
 30
0.0
 11
393.92421407941669
 21
-574.5595186228885
 31
0.0
  0
LINE
  5
1B74E
  8
0
  6
BYBLOCK
 10
391.92421407941669
 20
-575.09541700288855
 30
0.0
 11
393.92421407941669
 21
-575.09541700288855
 31
0.0
  0
TEXT
  5
1B74F
  8
1DIM
 10
356.84088074609798
 20
-584.39541700288851
 30
0.0
 40
3.5
  1
117.5 
  0
LINE
  5
1B750
  8
0
  6
BYBLOCK
 10
419.4242140794467
 20
-584.5595186228885
 30
0.0
 11
421.4242140794467
 21
-585.09541700288855
 31
0.0
  0
LINE
  5
1B751
  8
0
  6
BYBLOCK
 10
421.4242140794467
 20
-585.09541700288855
 30
0.0
 11
419.4242140794467
 21
-585.63131538288849
 31
0.0
  0
LINE
  5
1B752
  8
0
  6
BYBLOCK
 10
421.4242140794467
 20
-585.09541700288855
 30
0.0
 11
419.4242140794467
 21
-585.09541700288855
 31
0.0
  0
LINE
  5
1B753
  8
0
  6
BYBLOCK
 10
305.92421407941578
 20
-585.63131538288849
 30
0.0
 11
303.92421407941578
 21
-585.09541700288855
 31
0.0
  0
LINE
  5
1B754
  8
0
  6
BYBLOCK
 10
303.92421407941578
 20
-585.09541700288855
 30
0.0
 11
305.92421407941578
 21
-584.5595186228885
 31
0.0
  0
LINE
  5
1B755
  8
0
  6
BYBLOCK
 10
303.92421407941578
 20
-585.09541700288855
 30
0.0
 11
305.92421407941578
 21
-585.09541700288855
 31
0.0
  0
TEXT
  5
1B756
  8
1DIM
 10
448.72420161019062
 20
-570.96208366955511
 30
0.0
 40
3.5
  1
14.25 
 50
90.0
  0
LINE
  5
1B757
  8
0
  6
BYBLOCK
 10
449.96009999019049
 20
-553.09541700288855
 30
0.0
 11
449.42420161019049
 21
-555.09541700288855
 31
0.0
  0
LINE
  5
1B758
  8
0
  6
BYBLOCK
 10
449.42420161019049
 20
-555.09541700288855
 30
0.0
 11
448.8883032301905
 21
-553.09541700288855
 31
0.0
  0
LINE
  5
1B759
  8
0
  6
BYBLOCK
 10
449.42420161019049
 20
-555.09541700288855
 30
0.0
 11
449.42420161019049
 21
-553.09541700288855
 31
0.0
  0
LINE
  5
1B75A
  8
0
  6
BYBLOCK
 10
448.8883032301905
 20
-542.84546353878659
 30
0.0
 11
449.42420161019049
 21
-540.84546353878648
 31
0.0
  0
LINE
  5
1B75B
  8
0
  6
BYBLOCK
 10
449.42420161019049
 20
-540.84546353878648
 30
0.0
 11
449.96009999019049
 21
-542.84546353878659
 31
0.0
  0
LINE
  5
1B75C
  8
0
  6
BYBLOCK
 10
449.42420161019049
 20
-540.84546353878648
 30
0.0
 11
449.42420161019049
 21
-542.84546353878659
 31
0.0
  0
LINE
  5
1B75D
  8
1DIM
 10
355.61970534466911
 20
-545.9910518185859
 30
0.0
 11
341.48233384861368
 21
-565.91813905035724
 31
0.0
  0
LINE
  5
1B75E
  8
1DIM
 10
341.48233384861368
 20
-565.91813905035724
 30
0.0
 11
314.98233384861368
 21
-565.91813905035724
 31
0.0
  0
LINE
  5
1B75F
  8
1DIM
 10
393.50565675146248
 20
-556.96417734067722
 30
0.0
 11
381.46071683242462
 21
-578.05878569871675
 31
0.0
  0
LINE
  5
1B760
  8
1DIM
 10
381.46071683242462
 20
-578.05878569871675
 30
0.0
 11
325.79405016575788
 21
-578.05878569871675
 31
0.0
  0
TEXT
  5
1B761
  8
1DIM
 10
448.72421407944682
 20
-537.38710693750045
 30
0.0
 40
3.5
  1
9 
 50
90.0
  0
LINE
  5
1B762
  8
0
  6
BYBLOCK
 10
449.96011245944669
 20
-538.84546353878659
 30
0.0
 11
449.4242140794467
 21
-540.84546353878648
 31
0.0
  0
LINE
  5
1B763
  8
0
  6
BYBLOCK
 10
449.4242140794467
 20
-540.84546353878648
 30
0.0
 11
448.88831569944671
 21
-538.84546353878659
 31
0.0
  0
LINE
  5
1B764
  8
0
  6
BYBLOCK
 10
449.4242140794467
 20
-540.84546353878648
 30
0.0
 11
449.4242140794467
 21
-538.84546353878659
 31
0.0
  0
LINE
  5
1B765
  8
0
  6
BYBLOCK
 10
448.88831569944671
 20
-533.59541700288116
 30
0.0
 11
449.4242140794467
 21
-531.59541700288116
 31
0.0
  0
LINE
  5
1B766
  8
0
  6
BYBLOCK
 10
449.4242140794467
 20
-531.59541700288116
 30
0.0
 11
449.96011245944669
 21
-533.59541700288116
 31
0.0
  0
LINE
  5
1B767
  8
0
  6
BYBLOCK
 10
449.4242140794467
 20
-531.59541700288116
 30
0.0
 11
449.4242140794467
 21
-533.59541700288116
 31
0.0
  0
TEXT
  5
1B768
  8
1DIM
 10
291.22421407944802
 20
-449.80375033624142
 30
0.0
 40
3.5
  1
110 
 50
90.0
  0
LINE
  5
1B769
  8
0
  6
BYBLOCK
 10
291.3883156994479
 20
-393.59541700290748
 30
0.0
 11
291.92421407944789
 21
-391.59541700290748
 31
0.0
  0
LINE
  5
1B76A
  8
0
  6
BYBLOCK
 10
291.92421407944789
 20
-391.59541700290748
 30
0.0
 11
292.46011245944788
 21
-393.59541700290748
 31
0.0
  0
LINE
  5
1B76B
  8
0
  6
BYBLOCK
 10
291.92421407944789
 20
-391.59541700290748
 30
0.0
 11
291.92421407944789
 21
-393.59541700290748
 31
0.0
  0
LINE
  5
1B76C
  8
0
  6
BYBLOCK
 10
292.46011245944788
 20
-499.59541700290879
 30
0.0
 11
291.92421407944789
 21
-501.5954170029089
 31
0.0
  0
LINE
  5
1B76D
  8
0
  6
BYBLOCK
 10
291.92421407944789
 20
-501.5954170029089
 30
0.0
 11
291.3883156994479
 21
-499.59541700290879
 31
0.0
  0
LINE
  5
1B76E
  8
0
  6
BYBLOCK
 10
291.92421407944789
 20
-501.5954170029089
 30
0.0
 11
291.92421407944789
 21
-499.59541700290879
 31
0.0
  0
TEXT
  5
1B76F
  8
1DIM
 10
301.22421407944802
 20
-449.1787503362421
 30
0.0
 40
3.5
  1
116.5 
 50
90.0
  0
LINE
  5
1B770
  8
0
  6
BYBLOCK
 10
301.3883156994479
 20
-387.0954170029089
 30
0.0
 11
301.92421407944789
 21
-385.0954170029089
 31
0.0
  0
LINE
  5
1B771
  8
0
  6
BYBLOCK
 10
301.92421407944789
 20
-385.0954170029089
 30
0.0
 11
302.46011245944788
 21
-387.0954170029089
 31
0.0
  0
LINE
  5
1B772
  8
0
  6
BYBLOCK
 10
301.92421407944789
 20
-385.0954170029089
 30
0.0
 11
301.92421407944789
 21
-387.0954170029089
 31
0.0
  0
LINE
  5
1B773
  8
0
  6
BYBLOCK
 10
302.46011245944788
 20
-499.59541700290879
 30
0.0
 11
301.92421407944789
 21
-501.5954170029089
 31
0.0
  0
LINE
  5
1B774
  8
0
  6
BYBLOCK
 10
301.92421407944789
 20
-501.5954170029089
 30
0.0
 11
301.3883156994479
 21
-499.59541700290879
 31
0.0
  0
LINE
  5
1B775
  8
0
  6
BYBLOCK
 10
301.92421407944789
 20
-501.5954170029089
 30
0.0
 11
301.92421407944789
 21
-499.59541700290879
 31
0.0
  0
TEXT
  5
1B776
  8
1DIM
 10
291.22421407944802
 20
-382.31208366957549
 30
0.0
 40
3.5
  1
6.5 
 50
90.0
  0
LINE
  5
1B777
  8
0
  6
BYBLOCK
 10
291.3883156994479
 20
-387.0954170029089
 30
0.0
 11
291.92421407944789
 21
-385.0954170029089
 31
0.0
  0
LINE
  5
1B778
  8
0
  6
BYBLOCK
 10
291.92421407944789
 20
-385.0954170029089
 30
0.0
 11
292.46011245944788
 21
-387.0954170029089
 31
0.0
  0
LINE
  5
1B779
  8
0
  6
BYBLOCK
 10
291.92421407944789
 20
-385.0954170029089
 30
0.0
 11
291.92421407944789
 21
-387.0954170029089
 31
0.0
  0
LINE
  5
1B77A
  8
0
  6
BYBLOCK
 10
292.46011245944788
 20
-389.59541700290822
 30
0.0
 11
291.92421407944789
 21
-391.59541700290822
 31
0.0
  0
LINE
  5
1B77B
  8
0
  6
BYBLOCK
 10
291.92421407944789
 20
-391.59541700290822
 30
0.0
 11
291.3883156994479
 21
-389.59541700290822
 31
0.0
  0
LINE
  5
1B77C
  8
0
  6
BYBLOCK
 10
291.92421407944789
 20
-391.59541700290822
 30
0.0
 11
291.92421407944789
 21
-389.59541700290822
 31
0.0
  0
TEXT
  5
1B77D
  8
1DIM
 10
179.29546415838581
 20
-374.39541700290852
 30
0.0
 40
3.5
  1
60 
  0
LINE
  5
1B77E
  8
0
  6
BYBLOCK
 10
209.92421407944769
 20
-374.55951862290851
 30
0.0
 11
211.92421407944769
 21
-375.0954170029085
 31
0.0
  0
LINE
  5
1B77F
  8
0
  6
BYBLOCK
 10
211.92421407944769
 20
-375.0954170029085
 30
0.0
 11
209.92421407944769
 21
-375.6313153829085
 31
0.0
  0
LINE
  5
1B780
  8
0
  6
BYBLOCK
 10
211.92421407944769
 20
-375.0954170029085
 30
0.0
 11
209.92421407944769
 21
-375.0954170029085
 31
0.0
  0
LINE
  5
1B781
  8
0
  6
BYBLOCK
 10
153.92421407944769
 20
-375.6313153829085
 30
0.0
 11
151.92421407944761
 21
-375.0954170029085
 31
0.0
  0
LINE
  5
1B782
  8
0
  6
BYBLOCK
 10
151.92421407944761
 20
-375.0954170029085
 30
0.0
 11
153.92421407944769
 21
-374.55951862290851
 31
0.0
  0
LINE
  5
1B783
  8
0
  6
BYBLOCK
 10
151.92421407944761
 20
-375.0954170029085
 30
0.0
 11
153.92421407944769
 21
-375.0954170029085
 31
0.0
  0
TEXT
  5
1B784
  8
1DIM
 10
177.84088074611449
 20
-563.89541700288851
 30
0.0
 40
3.5
  1
200 
  0
LINE
  5
1B785
  8
0
  6
BYBLOCK
 10
279.92421407944698
 20
-564.0595186228885
 30
0.0
 11
281.92421407944698
 21
-564.59541700288855
 31
0.0
  0
LINE
  5
1B786
  8
0
  6
BYBLOCK
 10
281.92421407944698
 20
-564.59541700288855
 30
0.0
 11
279.92421407944698
 21
-565.1313153828886
 31
0.0
  0
LINE
  5
1B787
  8
0
  6
BYBLOCK
 10
281.92421407944698
 20
-564.59541700288855
 30
0.0
 11
279.92421407944698
 21
-564.59541700288855
 31
0.0
  0
LINE
  5
1B788
  8
0
  6
BYBLOCK
 10
83.924214079448802
 20
-565.1313153828886
 30
0.0
 11
81.924214079448802
 21
-564.59541700288855
 31
0.0
  0
LINE
  5
1B789
  8
0
  6
BYBLOCK
 10
81.924214079448802
 20
-564.59541700288855
 30
0.0
 11
83.924214079448802
 21
-564.0595186228885
 31
0.0
  0
LINE
  5
1B78A
  8
0
  6
BYBLOCK
 10
81.924214079448802
 20
-564.59541700288855
 30
0.0
 11
83.924214079448802
 21
-564.59541700288855
 31
0.0
  0
VIEWPORT
  5
57
 67
     1
  8
0
 10
-12.73141056964354
 20
10.083731670551
 30
0.0
 40
426.49732989047362
 41
282.80698729109162
 68
     1
 69
     1
1001
ACAD
1000
MVIEW
1002
{
1070
    16
1010
0.0
1020
0.0
1030
0.0
1010
0.0
1020
0.0
1030
1.0
1040
0.0
1040
282.80698729109162
1040
-12.73141056964354
1040
10.083731670551
1040
50.0
1040
0.0
1040
0.0
1070
     0
1070
   100
1070
     1
1070
     1
1070
     0
1070
     0
1070
     0
1070
     0
1040
0.0
1040
0.0
1040
0.0
1040
10.0
1040
10.0
1040
10.0
1040
10.0
1070
     0
1002
{
1002
}
1002
}
  0
ENDSEC
  0
EOF
