  0
SECTION
  2
HEADER
  9
$ACADVER
  1
AC1009
  9
$INSBASE
 10
0.0
 20
0.0
 30
0.0
  9
$EXTMIN
 10
-214.07521579265119
 20
-2162.8744184549701
 30
0.0
  9
$EXTMAX
 10
112.1533275795868
 20
-1970.568474682173
 30
0.0
  9
$LIMMIN
 10
0.0
 20
0.0
  9
$LIMMAX
 10
420.0
 20
297.0
  9
$ORTHOMODE
 70
     0
  9
$REGENMODE
 70
     1
  9
$FILLMODE
 70
     1
  9
$QTEXTMODE
 70
     0
  9
$MIRRTEXT
 70
     0
  9
$DRAGMODE
 70
     2
  9
$LTSCALE
 40
0.5
  9
$OSMODE
 70
  2175
  9
$ATTMODE
 70
     1
  9
$TEXTSIZE
 40
4.0
  9
$TRACEWID
 40
1.0
  9
$TEXTSTYLE
  7
STANDARD
  9
$CLAYER
  8
1TEXT
  9
$CELTYPE
  6
BYLAYER
  9
$CECOLOR
 62
   256
  9
$DIMSCALE
 40
1.0
  9
$DIMASZ
 40
2.0
  9
$DIMEXO
 40
0.0
  9
$DIMDLI
 40
7.0
  9
$DIMRND
 40
0.0
  9
$DIMDLE
 40
0.0
  9
$DIMEXE
 40
1.0
  9
$DIMTP
 40
0.0
  9
$DIMTM
 40
0.0
  9
$DIMTXT
 40
3.5
  9
$DIMCEN
 40
0.0
  9
$DIMTSZ
 40
0.0
  9
$DIMTOL
 70
     0
  9
$DIMLIM
 70
     0
  9
$DIMTIH
 70
     0
  9
$DIMTOH
 70
     0
  9
$DIMSE1
 70
     0
  9
$DIMSE2
 70
     0
  9
$DIMTAD
 70
     1
  9
$DIMZIN
 70
     8
  9
$DIMBLK
  1

  9
$DIMASO
 70
     1
  9
$DIMSHO
 70
     1
  9
$DIMPOST
  1
 
  9
$DIMAPOST
  1

  9
$DIMALT
 70
     0
  9
$DIMALTD
 70
     2
  9
$DIMALTF
 40
25.399999999999999
  9
$DIMLFAC
 40
1.0
  9
$DIMTOFL
 70
     1
  9
$DIMTVP
 40
0.0
  9
$DIMTIX
 70
     0
  9
$DIMSOXD
 70
     0
  9
$DIMSAH
 70
     1
  9
$DIMBLK1
  1
OPEN30
  9
$DIMBLK2
  1
OPEN30
  9
$DIMSTYLE
  2
NEWX10
  9
$DIMCLRD
 70
   256
  9
$DIMCLRE
 70
   256
  9
$DIMCLRT
 70
   201
  9
$DIMTFAC
 40
0.7
  9
$DIMGAP
 40
0.7
  9
$LUNITS
 70
     2
  9
$LUPREC
 70
     4
  9
$SKETCHINC
 40
1.0
  9
$FILLETRAD
 40
0.0
  9
$AUNITS
 70
     0
  9
$AUPREC
 70
     2
  9
$MENU
  1
acad
  9
$ELEVATION
 40
0.0
  9
$PELEVATION
 40
0.0
  9
$THICKNESS
 40
0.0
  9
$LIMCHECK
 70
     0
  9
$BLIPMODE
 70
     0
  9
$CHAMFERA
 40
10.0
  9
$CHAMFERB
 40
10.0
  9
$SKPOLY
 70
     0
  9
$TDCREATE
 40
2453033.7326634838
  9
$TDUPDATE
 40
2454161.8339827429
  9
$TDINDWG
 40
1.6047909375
  9
$TDUSRTIMER
 40
1.6047909375
  9
$USRTIMER
 70
     1
  9
$ANGBASE
 50
0.0
  9
$ANGDIR
 70
     0
  9
$PDMODE
 70
     0
  9
$PDSIZE
 40
0.0
  9
$PLINEWID
 40
0.0
  9
$COORDS
 70
     2
  9
$SPLFRAME
 70
     0
  9
$SPLINETYPE
 70
     6
  9
$SPLINESEGS
 70
     8
  9
$ATTDIA
 70
     0
  9
$ATTREQ
 70
     1
  9
$HANDLING
 70
     1
  9
$HANDSEED
  5
166CA
  9
$SURFTAB1
 70
     6
  9
$SURFTAB2
 70
     6
  9
$SURFTYPE
 70
     6
  9
$SURFU
 70
     6
  9
$SURFV
 70
     6
  9
$UCSNAME
  2

  9
$UCSORG
 10
0.0
 20
0.0
 30
0.0
  9
$UCSXDIR
 10
1.0
 20
0.0
 30
0.0
  9
$UCSYDIR
 10
0.0
 20
1.0
 30
0.0
  9
$PUCSNAME
  2

  9
$PUCSORG
 10
0.0
 20
0.0
 30
0.0
  9
$PUCSXDIR
 10
1.0
 20
0.0
 30
0.0
  9
$PUCSYDIR
 10
0.0
 20
1.0
 30
0.0
  9
$USERI1
 70
     0
  9
$USERI2
 70
     0
  9
$USERI3
 70
     0
  9
$USERI4
 70
     0
  9
$USERI5
 70
     0
  9
$USERR1
 40
0.0
  9
$USERR2
 40
0.0
  9
$USERR3
 40
0.0
  9
$USERR4
 40
0.0
  9
$USERR5
 40
0.0
  9
$WORLDVIEW
 70
     1
  9
$SHADEDGE
 70
     3
  9
$SHADEDIF
 70
    70
  9
$TILEMODE
 70
     1
  9
$MAXACTVP
 70
    48
  9
$PLIMCHECK
 70
     0
  9
$PEXTMIN
 10
1.0000000000000000E+020
 20
1.0000000000000000E+020
 30
1.0000000000000000E+020
  9
$PEXTMAX
 10
-1.0000000000000000E+020
 20
-1.0000000000000000E+020
 30
-1.0000000000000000E+020
  9
$PLIMMIN
 10
0.0
 20
0.0
  9
$PLIMMAX
 10
420.0
 20
297.0
  9
$UNITMODE
 70
     0
  9
$VISRETAIN
 70
     1
  9
$PLINEGEN
 70
     0
  9
$PSLTSCALE
 70
     1
  0
ENDSEC
  0
SECTION
  2
TABLES
  0
TABLE
  2
VPORT
 70
     4
  0
VPORT
  2
*ACTIVE
 70
     0
 10
0.0
 20
0.0
 11
1.0
 21
1.0
 12
-50.970356282754672
 22
-2066.672965461958
 13
0.0
 23
0.0
 14
10.0
 24
10.0
 15
10.0
 25
10.0
 16
0.0
 26
0.0
 36
1.0
 17
0.0
 27
0.0
 37
0.0
 40
228.9380318804958
 41
1.508086253369272
 42
50.0
 43
0.0
 44
0.0
 50
0.0
 51
0.0
 71
     0
 72
   100
 73
     1
 74
     1
 75
     0
 76
     0
 77
     0
 78
     0
  0
ENDTAB
  0
TABLE
  2
LTYPE
 70
    15
  0
LTYPE
  2
CONTINUOUS
 70
     0
  3
Solid line
 72
    65
 73
     0
 40
0.0
  0
LTYPE
  2
CENTER2
 70
     0
  3
Center (.5x) ___ _ ___ _ ___ _ ___ _ ___ _ ___
 72
    65
 73
     4
 40
28.574999999999999
 49
19.050000000000001
 49
-3.1749999999999989
 49
3.1749999999999989
 49
-3.1749999999999989
  0
LTYPE
  2
XREF1|CENTER2
 70
    48
  3
Center (.5x) ___ _ ___ _ ___ _ ___ _ ___ _ ___
 72
    65
 73
     4
 40
28.574999999999999
 49
19.050000000000001
 49
-3.1749999999999989
 49
3.1749999999999989
 49
-3.1749999999999989
  0
LTYPE
  2
PHANTOM2
 70
     0
  3
Phantom (.5x) ___ _ _ ___ _ _ ___ _ _ ___ _ _
 72
    65
 73
     6
 40
31.75
 49
15.875
 49
-3.1749999999999989
 49
3.1749999999999989
 49
-3.1749999999999989
 49
3.1749999999999989
 49
-3.1749999999999989
  0
LTYPE
  2
A3WAKUDAKE|CENTER2
 70
    48
  3
Center (.5x) ___ _ ___ _ ___ _ ___ _ ___ _ ___
 72
    65
 73
     4
 40
28.574999999999999
 49
19.050000000000001
 49
-3.1749999999999989
 49
3.1749999999999989
 49
-3.1749999999999989
  0
ENDTAB
  0
TABLE
  2
LAYER
 70
    46
  0
LAYER
  2
0
 70
     0
 62
     7
  6
CONTINUOUS
  0
LAYER
  2
1CENTER
 70
     0
 62
     7
  6
CENTER2
  0
LAYER
  2
1TEXT
 70
     0
 62
     7
  6
CONTINUOUS
  0
LAYER
  2
1DIM
 70
     0
 62
     7
  6
CONTINUOUS
  0
LAYER
  2
1PHANTOM
 70
     0
 62
     7
  6
PHANTOM2
  0
LAYER
  2
01
 70
     0
 62
     1
  6
CONTINUOUS
  0
LAYER
  2
1HATCH
 70
     0
 62
     7
  6
CONTINUOUS
  0
LAYER
  2
XREF1|1CENTER
 70
    48
 62
     7
  6
XREF1|CENTER2
  0
LAYER
  2
A3WAKUDAKE|THICK
 70
    48
 62
     7
  6
CONTINUOUS
  0
LAYER
  2
A3WAKUDAKE|POINT
 70
    48
 62
     7
  6
CONTINUOUS
  0
LAYER
  2
A3WAKUDAKE|1CENTER
 70
    48
 62
     7
  6
A3WAKUDAKE|CENTER2
  0
LAYER
  2
A3WAKUDAKE|0-6
 70
    48
 62
     7
  6
CONTINUOUS
  0
LAYER
  2
A3WAKUDAKE|1DIM
 70
    48
 62
     7
  6
CONTINUOUS
  0
ENDTAB
  0
TABLE
  2
STYLE
 70
    22
  0
STYLE
  2
STANDARD
 70
     0
 40
0.0
 41
1.0
 50
0.0
 71
     0
 42
4.0
  3
txt.shx
  4
extfont.shx
  0
ENDTAB
  0
TABLE
  2
VIEW
 70
     0
  0
ENDTAB
  0
TABLE
  2
UCS
 70
     0
  0
ENDTAB
  0
TABLE
  2
APPID
 70
     9
  0
APPID
  2
ACAD
 70
     0
  0
APPID
  2
DRAWINGVARIABLESXDATA
 70
     0
  0
APPID
  2
CONTENTTABDATA
 70
     0
  0
APPID
  2
CONTENTCURRENTTAB
 70
     0
  0
APPID
  2
CONTENTBLOCKDESCRIPTION
 70
     0
  0
APPID
  2
CONTENTBLOCKICON
 70
     0
  0
APPID
  2
CONTENTLONGBLOCKNAME
 70
     0
  0
APPID
  2
ACAD_PSEXT
 70
     0
  0
APPID
  2
ACAD_DSTYLE_DIMTEXT_FILL
 70
     0
  0
ENDTAB
  0
TABLE
  2
DIMSTYLE
 70
     9
  0
DIMSTYLE
  2
NEWX10
 70
     0
  3
 
  4

  5

  6
OPEN30
  7
OPEN30
 40
1.0
 41
2.0
 42
0.0
 43
7.0
 44
1.0
 45
0.0
 46
0.0
 47
0.0
 48
0.0
140
3.5
141
0.0
142
0.0
143
25.399999999999999
144
1.0
145
0.0
146
0.7
147
0.7
 71
     0
 72
     0
 73
     0
 74
     0
 75
     0
 76
     0
 77
     1
 78
     8
170
     0
171
     2
172
     1
173
     1
174
     0
175
     0
176
   256
177
   256
178
   201
  0
ENDTAB
  0
ENDSEC
  0
SECTION
  2
BLOCKS
  0
BLOCK
  8
0
  2
$MODEL_SPACE
 70
     0
 10
0.0
 20
0.0
 30
0.0
  3
$MODEL_SPACE
  1

  0
ENDBLK
  5
1A
  8
0
  0
BLOCK
 67
     1
  8
0
  2
$PAPER_SPACE
 70
     0
 10
0.0
 20
0.0
 30
0.0
  3
$PAPER_SPACE
  1

  0
ENDBLK
  5
17
 67
     1
  8
0
  0
BLOCK
  8
0
  2
_OPEN30
 70
     0
 10
0.0
 20
0.0
 30
0.0
  3
_OPEN30
  1

  0
LINE
  5
44
  8
0
  6
BYBLOCK
 62
     0
 10
-1.0
 20
0.26794919
 30
0.0
 11
0.0
 21
0.0
 31
0.0
  0
LINE
  5
45
  8
0
  6
BYBLOCK
 62
     0
 10
0.0
 20
0.0
 30
0.0
 11
-1.0
 21
-0.26794919
 31
0.0
  0
LINE
  5
46
  8
0
  6
BYBLOCK
 62
     0
 10
0.0
 20
0.0
 30
0.0
 11
-1.0
 21
0.0
 31
0.0
  0
ENDBLK
  5
47
  8
0
  0
BLOCK
  8
0
  2
XREF1
 70
    36
 10
0.0
 20
0.0
 30
0.0
  3
XREF1
  1
D:\ACLT\FORMAT\KAWAJUN(9)図面用.dwg
  0
ENDBLK
  5
5D
  8
0
  0
BLOCK
  8
0
  2
A3WAKUDAKE
 70
    36
 10
0.0
 20
0.0
 30
0.0
  3
A3WAKUDAKE
  1
D:\ACLT\FORMAT\A3WAKUdake.dwg
  0
ENDBLK
  5
6DC
  8
0
  0
BLOCK
  8
0
  2
*U143
 70
     1
 10
0.0
 20
0.0
 30
0.0
  3
*U143
  1

  0
TEXT
  5
1615D
  8
0
 62
   201
 10
-63.717024855154058
 20
-3.810911908990481
 30
0.0
 40
3.5
  1
φ5
 50
48.83031736650419
  0
ENDBLK
  5
1615F
  8
0
  0
BLOCK
  8
0
  2
*U144
 70
     1
 10
0.0
 20
0.0
 30
0.0
  3
*U144
  1

  0
TEXT
  5
16161
  8
1TEXT
 62
   201
 10
21.614708555164611
 20
22.401236958861659
 30
0.0
 40
2.0
  1
二文字
  0
TEXT
  5
16162
  8
1TEXT
 62
   201
 10
21.614708555164611
 20
19.067903625528331
 30
0.0
 40
2.0
  1
(別途指定)
  0
TEXT
  5
16163
  8
1TEXT
 62
   201
 10
21.614708555164611
 20
15.73457029219499
 30
0.0
 40
2.0
  1
天地 約1.8
  0
TEXT
  5
16164
  8
1TEXT
 62
   201
 10
21.614708555164611
 20
12.401236958861659
 30
0.0
 40
2.0
  1
凸0.2
  0
ENDBLK
  5
16166
  8
0
  0
BLOCK
  8
0
  2
*U145
 70
     1
 10
0.0
 20
0.0
 30
0.0
  3
*U145
  1

  0
SOLID
  5
16168
  8
1DIM
 10
17.769912945885331
 20
22.805130681268722
 30
0.0
 11
17.678379796037799
 21
23.814783819854821
 31
0.0
 12
18.0924202800296
 22
22.889392953575271
 32
0.0
 13
18.0924202800296
 23
22.889392953575271
 33
0.0
  0
POLYLINE
  5
16169
  8
1DIM
 66
     1
 10
0.0
 20
0.0
 30
0.0
  0
VERTEX
  5
1616A
  8
1DIM
 10
17.931166612957469
 20
22.847261817422002
 30
0.0
  0
VERTEX
  5
1616B
  8
1DIM
 10
20.91703607932029
 20
11.41907722970881
 30
0.0
  0
VERTEX
  5
1616C
  8
1DIM
 10
35.143226555510758
 20
11.41907722970881
 30
0.0
  0
SEQEND
  5
1616D
  8
1DIM
  0
ENDBLK
  5
1616F
  8
0
  0
BLOCK
  8
0
  2
*U146
 70
     1
 10
0.0
 20
0.0
 30
0.0
  3
*U146
  1

  0
TEXT
  5
16171
  8
1DIM
 62
   201
 10
8.9421530727463576
 20
19.285028579396069
 30
0.0
 40
2.0
  1
枠
  0
TEXT
  5
16172
  8
1DIM
 62
   201
 10
7.0754864060796914
 20
15.951695246062741
 30
0.0
 40
2.0
  1
φ5
  0
TEXT
  5
16173
  8
1DIM
 62
   201
 10
4.7421530727463583
 20
12.61836191272941
 30
0.0
 40
2.0
  1
凹0.3
  0
ENDBLK
  5
16175
  8
0
  0
BLOCK
  8
0
  2
*U147
 70
     1
 10
0.0
 20
0.0
 30
0.0
  3
*U147
  1

  0
SOLID
  5
16177
  8
1DIM
 10
14.77538895849114
 20
20.894651819020488
 30
0.0
 11
15.75963814806016
 21
22.667323431007279
 31
0.0
 12
15.403512140193291
 22
20.67125595278117
 32
0.0
 13
15.403512140193291
 23
20.67125595278117
 33
0.0
  0
POLYLINE
  5
16178
  8
1DIM
 66
     1
 10
0.0
 20
0.0
 30
0.0
  0
VERTEX
  5
16179
  8
1DIM
 10
15.089450549342221
 20
20.782953885900831
 30
0.0
  0
VERTEX
  5
1617A
  8
1DIM
 10
11.821762131327951
 20
11.59517937383526
 30
0.0
  0
VERTEX
  5
1617B
  8
1DIM
 10
2.3789049884708091
 20
11.59517937383526
 30
0.0
  0
SEQEND
  5
1617C
  8
1DIM
  0
ENDBLK
  5
1617E
  8
0
  0
BLOCK
  8
0
  2
*U148
 70
     1
 10
0.0
 20
0.0
 30
0.0
  3
*U148
  1

  0
TEXT
  5
16181
  8
1TEXT
 10
14.9745471932972
 20
24.09947430071913
 30
0.0
 40
1.8
  1
XY
  0
ENDBLK
  5
16183
  8
0
  0
BLOCK
  8
0
  2
*U149
 70
     1
 10
0.0
 20
0.0
 30
0.0
  3
*U149
  1

  0
LINE
  5
16185
  8
0
 10
-4.1999999999999877
 20
-1.9999999999999849
 30
0.0
 11
-0.3500000000000227
 21
-2.0
 31
0.0
  0
LINE
  5
16186
  8
0
 10
0.0
 20
-1.6499999999998629
 30
0.0
 11
-0.3500000000000227
 21
-2.0
 31
0.0
  0
LINE
  5
16187
  8
0
 10
-6.0
 20
-0.200000000000017
 30
0.0
 11
-4.1999999999999877
 21
-1.9999999999999849
 31
0.0
  0
LINE
  5
16188
  8
0
 10
0.0
 20
1.649999999999977
 30
0.0
 11
0.0
 21
-1.6499999999998629
 31
0.0
  0
LINE
  5
16189
  8
0
 10
-6.0
 20
0.2000000000000028
 30
0.0
 11
-6.0
 21
-0.200000000000017
 31
0.0
  0
LINE
  5
1618A
  8
0
 10
-0.3500000000000227
 20
2.0
 30
0.0
 11
0.0
 21
1.649999999999977
 31
0.0
  0
LINE
  5
1618B
  8
0
 10
-6.0
 20
0.2000000000000028
 30
0.0
 11
-4.2000000000000446
 21
2.0
 31
0.0
  0
LINE
  5
1618C
  8
0
 10
-4.2000000000000446
 20
2.0
 30
0.0
 11
-0.3500000000000227
 21
2.0
 31
0.0
  0
ENDBLK
  5
1618E
  8
0
  0
BLOCK
  8
0
  2
*U150
 70
     1
 10
0.0
 20
0.0
 30
0.0
  3
*U150
  1

  0
LINE
  5
16190
  8
0
 10
-5.6499999999999773
 20
2.0000000000000142
 30
0.0
 11
-0.3500000000000227
 21
2.0
 31
0.0
  0
LINE
  5
16191
  8
0
 10
-5.6499999999999773
 20
2.0000000000000142
 30
0.0
 11
-6.0
 21
1.6499999999999631
 31
0.0
  0
LINE
  5
16192
  8
0
 10
-0.3500000000000227
 20
2.0
 30
0.0
 11
0.0
 21
1.649999999999977
 31
0.0
  0
LINE
  5
16193
  8
0
 10
-6.0
 20
1.6499999999999631
 30
0.0
 11
-6.0
 21
-1.6499999999998629
 31
0.0
  0
LINE
  5
16194
  8
0
 10
0.0
 20
1.649999999999977
 30
0.0
 11
0.0
 21
-1.6499999999998629
 31
0.0
  0
LINE
  5
16195
  8
0
 10
-6.0
 20
-1.6499999999998629
 30
0.0
 11
-5.6499999999999773
 21
-1.9999999999999849
 31
0.0
  0
LINE
  5
16196
  8
0
 10
0.0
 20
-1.6499999999998629
 30
0.0
 11
-0.3500000000000227
 21
-2.0
 31
0.0
  0
LINE
  5
16197
  8
0
 10
-5.6499999999999773
 20
-1.9999999999999849
 30
0.0
 11
-0.3500000000000227
 21
-2.0
 31
0.0
  0
ENDBLK
  5
16199
  8
0
  0
BLOCK
  8
0
  2
*X151
 70
     1
 10
0.0
 20
0.0
 30
0.0
  3
*X151
  1

  0
LINE
  5
1619B
  8
0
 62
     0
 10
10.35561001165331
 20
1.7353216665921991
 30
0.0
 11
1.735321666592085
 21
10.35561001165342
 31
0.0
  0
LINE
  5
1619C
  8
0
 62
     0
 10
0.0000000000001137
 20
8.4988292298177157
 30
0.0
 11
-1.838891835213303
 21
10.337721065031021
 31
0.0
  0
LINE
  5
1619D
  8
0
 62
     0
 10
8.4988292298179431
 20
-0.0000000000001137
 30
0.0
 11
0.0000000000001137
 21
8.4988292298177157
 31
0.0
  0
LINE
  5
1619E
  8
0
 62
     0
 10
10.337721065031131
 20
-1.838891835213303
 30
0.0
 11
8.4988292298179431
 21
-0.0000000000001137
 31
0.0
  0
LINE
  5
1619F
  8
0
 62
     0
 10
-0.2377810848388435
 20
5.1445078662289907
 30
0.0
 11
-4.5542045235814612
 21
9.4609313049716093
 31
0.0
  0
LINE
  5
161A0
  8
0
 62
     0
 10
9.4609313049714956
 20
-4.5542045235813466
 30
0.0
 11
5.1445078662289907
 21
-0.2377810848388435
 31
0.0
  0
LINE
  5
161A1
  8
0
 62
     0
 10
-2.9244738727450108
 20
4.2390982057073643
 30
0.0
 11
-6.7381554127728123
 21
8.0527797457351653
 31
0.0
  0
LINE
  5
161A2
  8
0
 62
     0
 10
8.0527797457350516
 20
-6.7381554127726977
 30
0.0
 11
4.2390982057073643
 21
-2.9244738727450108
 31
0.0
  0
LINE
  5
161A3
  8
0
 62
     0
 10
-4.5977163449367699
 20
2.3202382294715558
 30
0.0
 11
-8.4755144637537114
 21
6.1980363482883831
 31
0.0
  0
LINE
  5
161A4
  8
0
 62
     0
 10
6.1980363482882694
 20
-8.4755144637535977
 30
0.0
 11
2.3202382294715558
 21
-4.5977163449367699
 31
0.0
  0
LINE
  5
161A5
  8
0
 62
     0
 10
-5.0907718486563454
 20
-0.7788087152364369
 30
0.0
 11
-5.8695805638927823
 21
0.0
 31
0.0
  0
LINE
  5
161A6
  8
0
 62
     0
 10
-5.8695805638928951
 20
0.0
 30
0.0
 11
-9.9540062277598054
 21
4.0844256638669094
 31
0.0
  0
LINE
  5
161A7
  8
0
 62
     0
 10
3.8851808324346839
 20
-9.7547613963275808
 30
0.0
 11
2.0
 21
-7.8695805638928951
 31
0.0
  0
LINE
  5
161A8
  8
0
 62
     0
 10
-9.4616830123206892
 20
0.0
 30
0.0
 11
-18.103896804350711
 21
8.6422137920301338
 31
0.0
  0
LINE
  5
161A9
  8
0
 62
     0
 10
-2.0000000000001128
 20
-7.4616830123204627
 30
0.0
 11
-9.4616830123204636
 21
-0.0000000000001137
 31
0.0
  0
LINE
  5
161AA
  8
0
 62
     0
 10
-13.05378546074826
 20
0.0000000000001137
 30
0.0
 11
-15.175214195387071
 21
2.1214287346389251
 31
0.0
  0
LINE
  5
161AB
  8
0
 62
     0
 10
-16.603785460748661
 20
3.5500000000005221
 30
0.0
 11
-23.851266556543241
 21
10.79748109579509
 31
0.0
  0
LINE
  5
161AC
  8
0
 62
     0
 10
-2.9878714975766338
 20
-10.065913963171511
 30
0.0
 11
-13.053785460748029
 21
-0.0000000000001137
 31
0.0
  0
LINE
  5
161AD
  8
0
 62
     0
 10
-20.195887909176118
 20
3.5500000000002951
 30
0.0
 11
-28.659515684223379
 21
12.013627775047439
 31
0.0
  0
LINE
  5
161AE
  8
0
 62
     0
 10
-29.100013291500659
 20
12.454125382324831
 30
0.0
 11
-29.745874817675372
 21
13.09998690849943
 31
0.0
  0
LINE
  5
161AF
  8
0
 62
     0
 10
-12.628969351714661
 20
-4.0169185574611674
 30
0.0
 11
-14.93702132611565
 21
-1.7088665830602841
 31
0.0
  0
LINE
  5
161B0
  8
0
 62
     0
 10
-23.78799035760369
 20
3.550000000000181
 30
0.0
 11
-27.799999599999751
 21
7.5620092423962433
 31
0.0
  0
LINE
  5
161B1
  8
0
 62
     0
 10
-31.237990357603621
 20
11.00000000000011
 30
0.0
 11
-33.000000200000052
 21
12.762009842396539
 31
0.0
  0
LINE
  5
161B2
  8
0
 62
     0
 10
-13.78316865624026
 20
-6.454821701363243
 30
0.0
 11
-16.687990357603208
 21
-3.5500000000002951
 31
0.0
  0
LINE
  5
161B3
  8
0
 62
     0
 10
-16.124704244214509
 20
-7.7053885618167888
 30
0.0
 11
-20.280092806031231
 21
-3.5500000000000682
 31
0.0
  0
LINE
  5
161B4
  8
0
 62
     0
 10
-18.57318348346837
 20
-8.849011770990387
 30
0.0
 11
-20.133604742031139
 21
-7.2885905124276169
 31
0.0
  0
LINE
  5
161B5
  8
0
 62
     0
 10
-24.295840827822978
 20
-6.7184568750635663
 30
0.0
 11
-27.132148651443231
 21
-3.8821490514432071
 31
0.0
  0
LINE
  5
161B6
  8
0
 62
     0
 10
-23.818861225215301
 20
-10.787538926098931
 30
0.0
 11
-27.799999599999872
 21
-6.8064005513143684
 31
0.0
  0
LINE
  5
161B7
  8
0
 62
     0
 10
-26.63513577162314
 20
-11.56336682811866
 30
0.0
 11
-28.117386294735979
 21
-10.081116305005819
 31
0.0
  0
LINE
  5
161B8
  8
0
 62
     0
 10
-29.133782390785999
 20
-12.656822657383479
 30
0.0
 11
-30.790605048169478
 21
-11.00000000000011
 31
0.0
  0
LINE
  5
161B9
  8
0
 62
     0
 10
-31.632707496597501
 20
-13.749999999999661
 30
0.0
 11
-33.000000200000159
 21
-12.38270729659712
 31
0.0
  0
ENDBLK
  5
161BB
  8
0
  0
BLOCK
  8
0
  2
*X152
 70
     1
 10
0.0
 20
0.0
 30
0.0
  3
*X152
  1

  0
LINE
  5
161BD
  8
0
 62
     0
 10
-0.0000000000000284
 20
-9.5063084520140251
 30
0.0
 11
1.2436915465089271
 21
-10.749999998522981
 31
0.0
  0
LINE
  5
161BE
  8
0
 62
     0
 10
1.3407299661463119
 20
-9.5
 30
0.0
 11
1.8000087437750381
 21
-9.9592787776287253
 31
0.0
  0
LINE
  5
161BF
  8
0
 62
     0
 10
-0.0000000000000568
 20
-4.118154779372559
 30
0.0
 11
0.8818452206275254
 21
-5.0000000000001128
 31
0.0
  0
LINE
  5
161C0
  8
0
 62
     0
 10
0.0
 20
-2.7711163612121932
 30
0.0
 11
1.8000087437751511
 21
-4.5711251049873454
 31
0.0
  0
LINE
  5
161C1
  8
0
 62
     0
 10
0.0
 20
-1.4240779430518271
 30
0.0
 11
2.125922055471249
 21
-3.5499999985230768
 31
0.0
  0
LINE
  5
161C2
  8
0
 62
     0
 10
-0.0000000000000284
 20
-0.0770395248914611
 30
0.0
 11
3.222960475108493
 21
-3.2999999999999821
 31
0.0
  0
LINE
  5
161C3
  8
0
 62
     0
 10
1.269998893268933
 20
0.0
 30
0.0
 11
4.5699988932688882
 21
-3.2999999999999541
 31
0.0
  0
LINE
  5
161C4
  8
0
 62
     0
 10
-0.0000000000000284
 20
1.2699988932689621
 30
0.0
 11
1.269998893268905
 21
0.0000000000000284
 31
0.0
  0
LINE
  5
161C5
  8
0
 62
     0
 10
2.6170373114292711
 20
0.0
 30
0.0
 11
5.9170373114292261
 21
-3.2999999999999541
 31
0.0
  0
LINE
  5
161C6
  8
0
 62
     0
 10
-0.0000000000000568
 20
2.6170373114293279
 30
0.0
 11
2.6170373114292711
 21
0.0
 31
0.0
  0
LINE
  5
161C7
  8
0
 62
     0
 10
3.9640757295896658
 20
0.0
 30
0.0
 11
7.2640757295896199
 21
-3.2999999999999541
 31
0.0
  0
LINE
  5
161C8
  8
0
 62
     0
 10
-0.0000000000000284
 20
3.9640757295896938
 30
0.0
 11
3.9640757295896369
 21
0.0
 31
0.0
  0
LINE
  5
161C9
  8
0
 62
     0
 10
5.3111141477500894
 20
-0.0000000000000568
 30
0.0
 11
8.6111141477499871
 21
-3.2999999999999821
 31
0.0
  0
LINE
  5
161CA
  8
0
 62
     0
 10
0.3111141477501178
 20
4.9999999999998863
 30
0.0
 11
5.3111141477500317
 21
0.0
 31
0.0
  0
LINE
  5
161CB
  8
0
 62
     0
 10
3.3581525659104439
 20
3.2999999999999541
 30
0.0
 11
6.6581525659103704
 21
0.0
 31
0.0
  0
LINE
  5
161CC
  8
0
 62
     0
 10
6.6581525659104548
 20
-0.0000000000000568
 30
0.0
 11
9.5072519243349518
 21
-2.8490993584245521
 31
0.0
  0
LINE
  5
161CD
  8
0
 62
     0
 10
1.65815256591037
 20
5.0
 30
0.0
 11
1.8000087437750381
 21
4.8581438221353599
 31
0.0
  0
LINE
  5
161CE
  8
0
 62
     0
 10
8.0051909840708202
 20
-0.0000000000000853
 30
0.0
 11
11.167075174998409
 21
-3.1618841909276512
 31
0.0
  0
LINE
  5
161CF
  8
0
 62
     0
 10
4.7051909840708097
 20
3.2999999999999541
 30
0.0
 11
8.0051909840707651
 21
0.0
 31
0.0
  0
LINE
  5
161D0
  8
0
 62
     0
 10
9.3522294022312167
 20
-0.0000000000000853
 30
0.0
 11
12.652229402231111
 21
-3.2999999999999541
 31
0.0
  0
LINE
  5
161D1
  8
0
 62
     0
 10
6.0522294022312053
 20
3.2999999999999261
 30
0.0
 11
9.3522294022311598
 21
0.0
 31
0.0
  0
LINE
  5
161D2
  8
0
 62
     0
 10
7.3992678203915707
 20
3.2999999999999261
 30
0.0
 11
10.699267820391499
 21
0.0
 31
0.0
  0
LINE
  5
161D3
  8
0
 62
     0
 10
10.699267820391579
 20
-0.0000000000000853
 30
0.0
 11
12.90000019999991
 21
-2.2007323796084099
 31
0.0
  0
LINE
  5
161D4
  8
0
 62
     0
 10
-0.0000000000000284
 20
10.699267820391521
 30
0.0
 11
1.1992678203915259
 21
9.5
 31
0.0
  0
LINE
  5
161D5
  8
0
 62
     0
 10
9.2443367211198222
 20
2.8019695174320409
 30
0.0
 11
12.046306238551891
 21
0.0
 31
0.0
  0
LINE
  5
161D6
  8
0
 62
     0
 10
12.046306238551979
 20
-0.0000000000000853
 30
0.0
 11
14.046306238551949
 21
-2.000000000000056
 31
0.0
  0
LINE
  5
161D7
  8
0
 62
     0
 10
1.2963062400290251
 20
10.74999999852287
 30
0.0
 11
1.8000087437750381
 21
10.246297494776851
 31
0.0
  0
LINE
  5
161D8
  8
0
 62
     0
 10
13.393344656712371
 20
-0.0000000000001137
 30
0.0
 11
15.393344656712291
 21
-2.000000000000056
 31
0.0
  0
LINE
  5
161D9
  8
0
 62
     0
 10
15.90000020000002
 20
-2.5066555432877911
 30
0.0
 11
16.143344656712259
 21
-2.750000000000028
 31
0.0
  0
LINE
  5
161DA
  8
0
 62
     0
 10
10.379815373485821
 20
3.0135292832264038
 30
0.0
 11
13.39334465671226
 21
0.0
 31
0.0
  0
LINE
  5
161DB
  8
0
 62
     0
 10
14.74038307487274
 20
-0.0000000000000853
 30
0.0
 11
16.995191537436309
 21
-2.2548084625636871
 31
0.0
  0
LINE
  5
161DC
  8
0
 62
     0
 10
11.513261852327391
 20
3.227121222545235
 30
0.0
 11
14.74038307487262
 21
0.0
 31
0.0
  0
LINE
  5
161DD
  8
0
 62
     0
 10
14.0874214930331
 20
1.9999999999998861
 30
0.0
 11
16.087421493032991
 21
0.0
 31
0.0
  0
LINE
  5
161DE
  8
0
 62
     0
 10
16.087421493033101
 20
-0.0000000000001137
 30
0.0
 11
17.00000000000005
 21
-0.9125785069670656
 31
0.0
  0
LINE
  5
161DF
  8
0
 62
     0
 10
12.78742149303284
 20
3.300000000000181
 30
0.0
 11
12.90000019999988
 21
3.1874212930331391
 31
0.0
  0
LINE
  5
161E0
  8
0
 62
     0
 10
15.43445991119358
 20
1.999999999999801
 30
0.0
 11
17.000000000000082
 21
0.4344599111932724
 31
0.0
  0
LINE
  5
161E1
  8
0
 62
     0
 10
16.031498329353749
 20
2.75
 30
0.0
 11
17.000000000000082
 21
1.7814983293536379
 31
0.0
  0
ENDBLK
  5
161E3
  8
0
  0
BLOCK
  8
0
  2
*X153
 70
     1
 10
0.0
 20
0.0
 30
0.0
  3
*X153
  1

  0
LINE
  5
161E5
  8
0
 62
     0
 10
13.41339771754258
 20
-3.163142703204584
 30
0.0
 11
14.23685749679546
 21
-3.986602482457442
 31
0.0
  0
LINE
  5
161E6
  8
0
 62
     0
 10
13.43543246913447
 20
-2.7361646487429989
 30
0.0
 11
14.66383555125705
 21
-3.9645677308655531
 31
0.0
  0
LINE
  5
161E7
  8
0
 62
     0
 10
13.57832483846698
 20
-2.4300442120220671
 30
0.0
 11
14.969955987978009
 21
-3.821675361533067
 31
0.0
  0
LINE
  5
161E8
  8
0
 62
     0
 10
13.79845481036614
 20
-2.2011613778677481
 30
0.0
 11
15.198838822132331
 21
-3.601545389633912
 31
0.0
  0
LINE
  5
161E9
  8
0
 62
     0
 10
14.09420797036085
 20
-2.04790173180902
 30
0.0
 11
15.352098468191031
 21
-3.3057922296391662
 31
0.0
  0
LINE
  5
161EA
  8
0
 62
     0
 10
14.50036871342669
 20
-2.005049668821413
 30
0.0
 11
15.39495053117866
 21
-2.8996314865733832
 31
0.0
  0
LINE
  5
161EB
  8
0
 62
     0
 10
13.48049176570316
 20
2.6069297273297991
 30
0.0
 11
14.00692992732988
 21
2.0804915657031131
 31
0.0
  0
LINE
  5
161EC
  8
0
 62
     0
 10
13.408249854336271
 20
3.1281844447501612
 30
0.0
 11
14.52818464475018
 21
2.0082496543362529
 31
0.0
  0
LINE
  5
161ED
  8
0
 62
     0
 10
13.51667895516789
 20
3.468768149971992
 30
0.0
 11
14.86876834997204
 21
2.1166787551678108
 31
0.0
  0
LINE
  5
161EE
  8
0
 62
     0
 10
13.71033322290037
 20
3.7241266882929831
 30
0.0
 11
15.124126888293031
 21
2.3103330229002941
 31
0.0
  0
LINE
  5
161EF
  8
0
 62
     0
 10
13.977233952031639
 20
3.9062387652151642
 30
0.0
 11
15.306238965215179
 21
2.5772337520315882
 31
0.0
  0
LINE
  5
161F0
  8
0
 62
     0
 10
14.334624784025429
 20
3.9978607392748131
 30
0.0
 11
15.39786093927486
 21
2.9346245840254142
 31
0.0
  0
LINE
  5
161F1
  8
0
 62
     0
 10
14.93953507999831
 20
3.8419632493554161
 30
0.0
 11
15.24196344935546
 21
3.5395348799982278
 31
0.0
  0
ENDBLK
  5
161F3
  8
0
  0
BLOCK
  8
0
  2
*X154
 70
     1
 10
0.0
 20
0.0
 30
0.0
  3
*X154
  1

  0
LINE
  5
161F5
  8
0
 62
     0
 10
6.8579485945102761
 20
5.150000099999942
 30
0.0
 11
1.636218397399261
 21
10.37173029711095
 31
0.0
  0
LINE
  5
161F6
  8
0
 62
     0
 10
0.0000000000001137
 20
8.4158462460825376
 30
0.0
 11
-1.909133603078998
 21
10.32497984916165
 31
0.0
  0
LINE
  5
161F7
  8
0
 62
     0
 10
3.2658461460825938
 20
5.150000099999942
 30
0.0
 11
0.0000000000001137
 21
8.4158462460825376
 31
0.0
  0
LINE
  5
161F8
  8
0
 62
     0
 10
-0.3262563023448592
 20
5.150000099999942
 30
0.0
 11
-4.6100846621066012
 21
9.4338284597616848
 31
0.0
  0
LINE
  5
161F9
  8
0
 62
     0
 10
-3.9183587507726538
 20
5.150000099999942
 30
0.0
 11
-6.7832174315673219
 21
8.0148587807946114
 31
0.0
  0
LINE
  5
161FA
  8
0
 62
     0
 10
8.0148587807946114
 20
-6.7832174315674356
 30
0.0
 11
6.3816414492273452
 21
-5.1500001000001703
 31
0.0
  0
LINE
  5
161FB
  8
0
 62
     0
 10
-7.5104611992003347
 20
5.150000099999942
 30
0.0
 11
-8.5000000000001137
 21
6.1395389007996073
 31
0.0
  0
LINE
  5
161FC
  8
0
 62
     0
 10
6.1499847166651298
 20
-8.5104458158656371
 30
0.0
 11
2.789539000799663
 21
-5.1500001000000557
 31
0.0
  0
LINE
  5
161FD
  8
0
 62
     0
 10
0.0
 20
-5.9525635476279604
 30
0.0
 11
-0.8025634476280174
 21
-5.1500001000000557
 31
0.0
  0
LINE
  5
161FE
  8
0
 62
     0
 10
4.0606450332290933
 20
-10.01320858085716
 30
0.0
 11
0.0000000000002274
 21
-5.9525635476283014
 31
0.0
  0
LINE
  5
161FF
  8
0
 62
     0
 10
0.0
 20
-9.5446659960557554
 30
0.0
 11
-4.3946658960555851
 21
-5.1500001000000557
 31
0.0
  0
LINE
  5
16200
  8
0
 62
     0
 10
8.7087069959245582
 20
-18.2533729919802
 30
0.0
 11
0.0000000000003411
 21
-9.5446659960559828
 31
0.0
  0
LINE
  5
16201
  8
0
 62
     0
 10
1.925088887040374
 20
-15.061857331523809
 30
0.0
 11
0.0
 21
-13.13676844448343
 31
0.0
  0
LINE
  5
16202
  8
0
 62
     0
 10
0.0
 20
-13.13676844448343
 30
0.0
 11
-7.9867683444833801
 21
-5.1500001000000557
 31
0.0
  0
LINE
  5
16203
  8
0
 62
     0
 10
10.833910220719069
 20
-23.97067866520263
 30
0.0
 11
3.54999999999984
 21
-16.686768444483391
 31
0.0
  0
LINE
  5
16204
  8
0
 62
     0
 10
12.03432820925218
 20
-28.763199102163071
 30
0.0
 11
3.5499999999999541
 21
-20.278870892910842
 31
0.0
  0
LINE
  5
16205
  8
0
 62
     0
 10
-1.761475686666472
 20
-14.96739520624442
 30
0.0
 11
-4.0379039399838339
 21
-12.69096695292717
 31
0.0
  0
LINE
  5
16206
  8
0
 62
     0
 10
13.099999999999911
 20
-29.8288708929108
 30
0.0
 11
12.37112930708906
 21
-29.100000199999961
 31
0.0
  0
LINE
  5
16207
  8
0
 62
     0
 10
7.4790262586612917
 20
-27.799999599999872
 30
0.0
 11
3.54999999999984
 21
-23.870973341338409
 31
0.0
  0
LINE
  5
16208
  8
0
 62
     0
 10
-3.5500000000000682
 20
-16.7709733413385
 30
0.0
 11
-6.4848783247022084
 21
-13.83609501663636
 31
0.0
  0
LINE
  5
16209
  8
0
 62
     0
 10
12.67902685866159
 20
-33.000000200000159
 30
0.0
 11
11.00000000000011
 21
-31.320973341338689
 31
0.0
  0
LINE
  5
1620A
  8
0
 62
     0
 10
-3.5499999999999541
 20
-20.363075789766409
 30
0.0
 11
-7.7330368020898268
 21
-16.180038987676539
 31
0.0
  0
LINE
  5
1620B
  8
0
 62
     0
 10
-3.5499999999999541
 20
-23.95517823819409
 30
0.0
 11
-8.8741186659308369
 21
-18.631059572263212
 31
0.0
  0
LINE
  5
1620C
  8
0
 62
     0
 10
-3.9236405433106252
 20
-27.173640143311101
 30
0.0
 11
-9.901571718252967
 21
-21.195708968368759
 31
0.0
  0
LINE
  5
1620D
  8
0
 62
     0
 10
-6.8893835350494319
 20
-27.799999599999872
 30
0.0
 11
-10.8070040231338
 21
-23.882379111915501
 31
0.0
  0
LINE
  5
1620E
  8
0
 62
     0
 10
-10.130989661818029
 20
-28.150495921658951
 30
0.0
 11
-11.57961971301688
 21
-26.7018658704601
 31
0.0
  0
LINE
  5
1620F
  8
0
 62
     0
 10
-10.999999999999771
 20
-30.873588031904781
 30
0.0
 11
-12.716460966271249
 21
-29.15712706563329
 31
0.0
  0
LINE
  5
16210
  8
0
 62
     0
 10
-12.465690280332071
 20
-33.000000200000159
 30
0.0
 11
-13.76550531945383
 21
-31.700185160878501
 31
0.0
  0
ENDBLK
  5
16212
  8
0
  0
BLOCK
  8
0
  2
*X155
 70
     1
 10
0.0
 20
0.0
 30
0.0
  3
*X155
  1

  0
LINE
  5
16214
  8
0
 62
     0
 10
17.749270850893371
 20
-61.46873075173783
 30
0.0
 11
18.00000000000006
 21
-61.218001602631091
 31
0.0
  0
LINE
  5
16215
  8
0
 62
     0
 10
15.504206820626109
 20
-61.46873075173783
 30
0.0
 11
18.00000000000011
 21
-58.972937572363769
 31
0.0
  0
LINE
  5
16216
  8
0
 62
     0
 10
13.259142790358849
 20
-61.46873075173783
 30
0.0
 11
18.00000000000011
 21
-56.727873542096518
 31
0.0
  0
LINE
  5
16217
  8
0
 62
     0
 10
11.014078760091589
 20
-61.46873075173778
 30
0.0
 11
18.00000000000011
 21
-54.482809511829259
 31
0.0
  0
LINE
  5
16218
  8
0
 62
     0
 10
9.0000000000000568
 20
-61.237745481561952
 30
0.0
 11
18.00000000000006
 21
-52.237745481561937
 31
0.0
  0
LINE
  5
16219
  8
0
 62
     0
 10
9.0000000000000568
 20
-58.992681451294679
 30
0.0
 11
18.00000000000011
 21
-49.992681451294622
 31
0.0
  0
LINE
  5
1621A
  8
0
 62
     0
 10
9.0000000000001137
 20
-56.747617421027421
 30
0.0
 11
18.00000000000011
 21
-47.747617421027371
 31
0.0
  0
LINE
  5
1621B
  8
0
 62
     0
 10
9.0000000000001137
 20
-54.50255339076012
 30
0.0
 11
18.000000000000171
 21
-45.502553390759999
 31
0.0
  0
LINE
  5
1621C
  8
0
 62
     0
 10
9.0
 20
-52.257489360492848
 30
0.0
 11
18.00000000000011
 21
-43.257489360492741
 31
0.0
  0
LINE
  5
1621D
  8
0
 62
     0
 10
9.0000000000000568
 20
-50.01242533022554
 30
0.0
 11
18.00000000000011
 21
-41.012425330225483
 31
0.0
  0
LINE
  5
1621E
  8
0
 62
     0
 10
9.0000000000000568
 20
-47.767361299958267
 30
0.0
 11
18.00000000000011
 21
-38.767361299958232
 31
0.0
  0
LINE
  5
1621F
  8
0
 62
     0
 10
9.0000000000000568
 20
-45.522297269690966
 30
0.0
 11
18.00000000000011
 21
-36.52229726969091
 31
0.0
  0
LINE
  5
16220
  8
0
 62
     0
 10
9.0000000000000568
 20
-43.277233239423651
 30
0.0
 11
18.000000000000171
 21
-34.277233239423538
 31
0.0
  0
LINE
  5
16221
  8
0
 62
     0
 10
9.0000000000000568
 20
-41.032169209156393
 30
0.0
 11
18.000000000000171
 21
-32.03216920915628
 31
0.0
  0
LINE
  5
16222
  8
0
 62
     0
 10
9.0000000000000568
 20
-38.787105178889142
 30
0.0
 11
18.000000000000231
 21
-29.787105178889021
 31
0.0
  0
LINE
  5
16223
  8
0
 62
     0
 10
9.0000000000000568
 20
-36.54204114862182
 30
0.0
 11
18.000000000000171
 21
-27.54204114862171
 31
0.0
  0
LINE
  5
16224
  8
0
 62
     0
 10
8.9999999999999432
 20
-34.296977118354619
 30
0.0
 11
18.000000000000171
 21
-25.296977118354391
 31
0.0
  0
LINE
  5
16225
  8
0
 62
     0
 10
9.0
 20
-32.051913088087311
 30
0.0
 11
18.000000000000171
 21
-23.051913088087129
 31
0.0
  0
LINE
  5
16226
  8
0
 62
     0
 10
9.0
 20
-29.806849057820049
 30
0.0
 11
18.000000000000231
 21
-20.806849057819822
 31
0.0
  0
LINE
  5
16227
  8
0
 62
     0
 10
9.0
 20
-27.56178502755273
 30
0.0
 11
18.000000000000231
 21
-18.561785027552499
 31
0.0
  0
LINE
  5
16228
  8
0
 62
     0
 10
8.9999999999999432
 20
-25.316720997285479
 30
0.0
 11
18.000000000000231
 21
-16.316720997285241
 31
0.0
  0
LINE
  5
16229
  8
0
 62
     0
 10
8.9999999999999432
 20
-23.07165696701821
 30
0.0
 11
18.000000000000231
 21
-14.071656967017979
 31
0.0
  0
LINE
  5
1622A
  8
0
 62
     0
 10
8.9999999999999432
 20
-20.826592936750899
 30
0.0
 11
18.000000000000231
 21
-11.826592936750609
 31
0.0
  0
LINE
  5
1622B
  8
0
 62
     0
 10
8.9999999999999432
 20
-18.58152890648358
 30
0.0
 11
18.000000000000171
 21
-9.5815289064833564
 31
0.0
  0
LINE
  5
1622C
  8
0
 62
     0
 10
16.353366242229299
 20
-8.9830986339870265
 30
0.0
 11
16.58651145322483
 21
-8.7499534229914389
 31
0.0
  0
LINE
  5
1622D
  8
0
 62
     0
 10
8.9999999999999432
 20
-16.336464876216318
 30
0.0
 11
16.264414818379521
 21
-9.0720500578367478
 31
0.0
  0
LINE
  5
1622E
  8
0
 62
     0
 10
17.341447422598829
 20
-5.7499534233501768
 30
0.0
 11
18.00000000000011
 21
-5.091400845948896
 31
0.0
  0
LINE
  5
1622F
  8
0
 62
     0
 10
8.9999999999999432
 20
-14.091400845949069
 30
0.0
 11
14.34144742402435
 21
-8.7499534219246584
 31
0.0
  0
LINE
  5
16230
  8
0
 62
     0
 10
15.09638339339835
 20
-5.7499534222833404
 30
0.0
 11
15.475887752038769
 21
-5.3704490636429218
 31
0.0
  0
LINE
  5
16231
  8
0
 62
     0
 10
15.516052887897841
 20
-5.3302839277838521
 30
0.0
 11
18.00000000000011
 21
-2.8463368156815809
 31
0.0
  0
LINE
  5
16232
  8
0
 62
     0
 10
9.0
 20
-11.84633681568169
 30
0.0
 11
12.096383394823871
 21
-8.7499534208578211
 31
0.0
  0
LINE
  5
16233
  8
0
 62
     0
 10
12.85131936419776
 20
-5.7499534212166159
 30
0.0
 11
18.00000000000006
 21
-0.6012727854143236
 31
0.0
  0
LINE
  5
16234
  8
0
 62
     0
 10
8.9999999999999432
 20
-9.6012727854144373
 30
0.0
 11
9.8085489289221073
 21
-8.7927238564922732
 31
0.0
  0
LINE
  5
16235
  8
0
 62
     0
 10
10.76769871211496
 20
-5.5885100430321577
 30
0.0
 11
18.00000000000006
 21
1.6437912448529339
 31
0.0
  0
LINE
  5
16236
  8
0
 62
     0
 10
8.9999999999999432
 20
-5.11114472487992
 30
0.0
 11
18.00000000000006
 21
3.8888552751201919
 31
0.0
  0
LINE
  5
16237
  8
0
 62
     0
 10
8.9999999999999432
 20
-2.866080694612605
 30
0.0
 11
17.61612726817793
 21
5.7500465735653838
 31
0.0
  0
LINE
  5
16238
  8
0
 62
     0
 10
8.9999999999999432
 20
-0.6210166643452908
 30
0.0
 11
15.37106323897728
 21
5.7500465746320506
 31
0.0
  0
LINE
  5
16239
  8
0
 62
     0
 10
16.125999208351288
 20
8.7500465742733127
 30
0.0
 11
18.00000000000011
 21
10.62404736592214
 31
0.0
  0
LINE
  5
1623A
  8
0
 62
     0
 10
8.9999999999999432
 20
1.624047365921967
 30
0.0
 11
13.02099569600597
 21
5.645043061927935
 31
0.0
  0
LINE
  5
1623B
  8
0
 62
     0
 10
13.98014547919882
 20
8.8492568753880505
 30
0.0
 11
18.00000000000011
 21
12.869111396189391
 31
0.0
  0
LINE
  5
1623C
  8
0
 62
     0
 10
9.0
 20
3.869111396189282
 30
0.0
 11
10.88093518057638
 21
5.7500465767656124
 31
0.0
  0
LINE
  5
1623D
  8
0
 62
     0
 10
11.635871149950271
 20
8.7500465764068736
 30
0.0
 11
18.00000000000011
 21
15.114175426456709
 31
0.0
  0
LINE
  5
1623E
  8
0
 62
     0
 10
9.3908071207497414
 20
8.7500465774735972
 30
0.0
 11
18.00000000000006
 21
17.359239456723969
 31
0.0
  0
LINE
  5
1623F
  8
0
 62
     0
 10
9.0000000000001137
 20
10.604303486991229
 30
0.0
 11
18.00000000000006
 21
19.604303486991231
 31
0.0
  0
LINE
  5
16240
  8
0
 62
     0
 10
9.0000000000001137
 20
12.849367517258541
 30
0.0
 11
18.00000000000011
 21
21.849367517258599
 31
0.0
  0
LINE
  5
16241
  8
0
 62
     0
 10
9.0000000000001137
 20
15.094431547525859
 30
0.0
 11
18.00000000000011
 21
24.094431547525861
 31
0.0
  0
LINE
  5
16242
  8
0
 62
     0
 10
9.0000000000000568
 20
17.339495577793109
 30
0.0
 11
18.00000000000011
 21
26.339495577793169
 31
0.0
  0
LINE
  5
16243
  8
0
 62
     0
 10
9.0000000000000568
 20
19.584559608060371
 30
0.0
 11
18.00000000000011
 21
28.584559608060431
 31
0.0
  0
LINE
  5
16244
  8
0
 62
     0
 10
9.0000000000001137
 20
21.82962363832775
 30
0.0
 11
18.00000000000011
 21
30.82962363832775
 31
0.0
  0
LINE
  5
16245
  8
0
 62
     0
 10
9.0000000000000568
 20
24.074687668595001
 30
0.0
 11
18.00000000000006
 21
33.074687668594997
 31
0.0
  0
LINE
  5
16246
  8
0
 62
     0
 10
9.0000000000000568
 20
26.31975169886227
 30
0.0
 11
18.00000000000006
 21
35.319751698862262
 31
0.0
  0
LINE
  5
16247
  8
0
 62
     0
 10
9.0000000000001137
 20
28.564815729129521
 30
0.0
 11
18.00000000000011
 21
37.564815729129577
 31
0.0
  0
LINE
  5
16248
  8
0
 62
     0
 10
9.0000000000001137
 20
30.809879759396839
 30
0.0
 11
18.00000000000011
 21
39.809879759396892
 31
0.0
  0
LINE
  5
16249
  8
0
 62
     0
 10
9.0000000000000568
 20
33.054943789664151
 30
0.0
 11
18.00000000000011
 21
42.0549437896642
 31
0.0
  0
LINE
  5
1624A
  8
0
 62
     0
 10
9.0000000000000568
 20
35.300007819931409
 30
0.0
 11
18.00000000000011
 21
44.300007819931459
 31
0.0
  0
LINE
  5
1624B
  8
0
 62
     0
 10
9.0000000000000568
 20
37.545071850198667
 30
0.0
 11
16.07742504976892
 21
44.622496899967523
 31
0.0
  0
LINE
  5
1624C
  8
0
 62
     0
 10
9.0000000000001137
 20
39.790135880466039
 30
0.0
 11
13.83236101950166
 21
44.622496899967587
 31
0.0
  0
LINE
  5
1624D
  8
0
 62
     0
 10
9.0000000000000568
 20
42.035199910733297
 30
0.0
 11
11.587296989234339
 21
44.622496899967587
 31
0.0
  0
LINE
  5
1624E
  8
0
 62
     0
 10
9.0000000000001137
 20
44.280263941000548
 30
0.0
 11
9.3422329589670881
 21
44.622496899967587
 31
0.0
  0
ENDBLK
  5
16250
  8
0
  0
BLOCK
  8
0
  2
*X156
 70
     1
 10
0.0
 20
0.0
 30
0.0
  3
*X156
  1

  0
LINE
  5
16252
  8
0
 62
     0
 10
4.01579819129564
 20
-61.431188349899848
 30
0.0
 11
4.01579819129564
 21
-61.431188349899848
 31
0.0
  0
LINE
  5
16253
  8
0
 62
     0
 10
3.5476270824212111
 20
-61.002188568063907
 30
0.0
 11
3.5476270824212111
 21
-61.002188568063907
 31
0.0
  0
LINE
  5
16254
  8
0
 62
     0
 10
1.0195030944992971
 20
-58.685589746149809
 30
0.0
 11
1.0195030944992971
 21
-58.685589746149809
 31
0.0
  0
LINE
  5
16255
  8
0
 62
     0
 10
8.6550676192222316
 20
-56.456296513577612
 30
0.0
 11
8.6550676192222316
 21
-56.456296513577612
 31
0.0
  0
LINE
  5
16256
  8
0
 62
     0
 10
6.4452999853349269
 20
-54.431417543311952
 30
0.0
 11
6.4452999853349269
 21
-54.431417543311952
 31
0.0
  0
LINE
  5
16257
  8
0
 62
     0
 10
5.9771288764604993
 20
-54.002417761476011
 30
0.0
 11
5.9771288764604993
 21
-54.002417761476011
 31
0.0
  0
LINE
  5
16258
  8
0
 62
     0
 10
3.449004888538584
 20
-51.685818939561912
 30
0.0
 11
3.449004888538584
 21
-51.685818939561912
 31
0.0
  0
LINE
  5
16259
  8
0
 62
     0
 10
1.23923725465128
 20
-49.660939969296251
 30
0.0
 11
1.23923725465128
 21
-49.660939969296251
 31
0.0
  0
LINE
  5
1625A
  8
0
 62
     0
 10
0.7710661457768521
 20
-49.23194018746031
 30
0.0
 11
0.7710661457768521
 21
-49.23194018746031
 31
0.0
  0
LINE
  5
1625B
  8
0
 62
     0
 10
8.8748017793742875
 20
-47.431646736724133
 30
0.0
 11
8.8748017793742875
 21
-47.431646736724133
 31
0.0
  0
LINE
  5
1625C
  8
0
 62
     0
 10
8.4066306704998581
 20
-47.002646954888192
 30
0.0
 11
8.4066306704998581
 21
-47.002646954888192
 31
0.0
  0
LINE
  5
1625D
  8
0
 62
     0
 10
5.8785066825779433
 20
-44.686048132974094
 30
0.0
 11
5.8785066825779433
 21
-44.686048132974094
 31
0.0
  0
LINE
  5
1625E
  8
0
 62
     0
 10
3.668739048690639
 20
-42.661169162708433
 30
0.0
 11
3.668739048690639
 21
-42.661169162708433
 31
0.0
  0
LINE
  5
1625F
  8
0
 62
     0
 10
3.200567939816211
 20
-42.232169380872492
 30
0.0
 11
3.200567939816211
 21
-42.232169380872492
 31
0.0
  0
LINE
  5
16260
  8
0
 62
     0
 10
0.6724439518942967
 20
-39.915570558958393
 30
0.0
 11
0.6724439518942967
 21
-39.915570558958393
 31
0.0
  0
LINE
  5
16261
  8
0
 62
     0
 10
8.3080084766172941
 20
-37.68627732638619
 30
0.0
 11
8.3080084766172941
 21
-37.68627732638619
 31
0.0
  0
LINE
  5
16262
  8
0
 62
     0
 10
6.0982408427299903
 20
-35.661398356120543
 30
0.0
 11
6.0982408427299903
 21
-35.661398356120543
 31
0.0
  0
LINE
  5
16263
  8
0
 62
     0
 10
5.630069733855561
 20
-35.232398574284602
 30
0.0
 11
5.630069733855561
 21
-35.232398574284602
 31
0.0
  0
LINE
  5
16264
  8
0
 62
     0
 10
3.1019457459336461
 20
-32.915799752370503
 30
0.0
 11
3.1019457459336461
 21
-32.915799752370503
 31
0.0
  0
LINE
  5
16265
  8
0
 62
     0
 10
0.8921781120463432
 20
-30.890920782104839
 30
0.0
 11
0.8921781120463432
 21
-30.890920782104839
 31
0.0
  0
LINE
  5
16266
  8
0
 62
     0
 10
0.4240070031719147
 20
-30.461921000268891
 30
0.0
 11
0.4240070031719147
 21
-30.461921000268891
 31
0.0
  0
LINE
  5
16267
  8
0
 62
     0
 10
8.5277426367693003
 20
-28.661627549532721
 30
0.0
 11
8.5277426367693003
 21
-28.661627549532721
 31
0.0
  0
LINE
  5
16268
  8
0
 62
     0
 10
8.0595715278948692
 20
-28.232627767696769
 30
0.0
 11
8.0595715278948692
 21
-28.232627767696769
 31
0.0
  0
LINE
  5
16269
  8
0
 62
     0
 10
5.5314475399729552
 20
-25.916028945782671
 30
0.0
 11
5.5314475399729552
 21
-25.916028945782671
 31
0.0
  0
LINE
  5
1626A
  8
0
 62
     0
 10
3.321679906085651
 20
-23.89114997551701
 30
0.0
 11
3.321679906085651
 21
-23.89114997551701
 31
0.0
  0
LINE
  5
1626B
  8
0
 62
     0
 10
2.853508797211223
 20
-23.462150193681069
 30
0.0
 11
2.853508797211223
 21
-23.462150193681069
 31
0.0
  0
LINE
  5
1626C
  8
0
 62
     0
 10
0.3253848092893086
 20
-21.14555137176697
 30
0.0
 11
0.3253848092893086
 21
-21.14555137176697
 31
0.0
  0
LINE
  5
1626D
  8
0
 62
     0
 10
7.960949334012235
 20
-18.916258139194781
 30
0.0
 11
7.960949334012235
 21
-18.916258139194781
 31
0.0
  0
LINE
  5
1626E
  8
0
 62
     0
 10
5.751181700124933
 20
-16.89137916892912
 30
0.0
 11
5.751181700124933
 21
-16.89137916892912
 31
0.0
  0
LINE
  5
1626F
  8
0
 62
     0
 10
5.2830105912505037
 20
-16.462379387093169
 30
0.0
 11
5.2830105912505037
 21
-16.462379387093169
 31
0.0
  0
LINE
  5
16270
  8
0
 62
     0
 10
2.7548866033285888
 20
-14.14578056517907
 30
0.0
 11
2.7548866033285888
 21
-14.14578056517907
 31
0.0
  0
LINE
  5
16271
  8
0
 62
     0
 10
0.5451189694412864
 20
-12.12090159491342
 30
0.0
 11
0.5451189694412864
 21
-12.12090159491342
 31
0.0
  0
LINE
  5
16272
  8
0
 62
     0
 10
0.0769478605668576
 20
-11.69190181307747
 30
0.0
 11
0.0769478605668576
 21
-11.69190181307747
 31
0.0
  0
LINE
  5
16273
  8
0
 62
     0
 10
8.1806834941643185
 20
-9.8916083623412607
 30
0.0
 11
8.1806834941643185
 21
-9.8916083623412607
 31
0.0
  0
LINE
  5
16274
  8
0
 62
     0
 10
7.71251238528989
 20
-9.4626085805053162
 30
0.0
 11
7.71251238528989
 21
-9.4626085805053162
 31
0.0
  0
LINE
  5
16275
  8
0
 62
     0
 10
2.9746207634806661
 20
-5.1211307883256101
 30
0.0
 11
2.9746207634806661
 21
-5.1211307883256101
 31
0.0
  0
LINE
  5
16276
  8
0
 62
     0
 10
2.506449654606238
 20
-4.6921310064896664
 30
0.0
 11
2.506449654606238
 21
-4.6921310064896664
 31
0.0
  0
LINE
  5
16277
  8
0
 62
     0
 10
7.6138901914073207
 20
-0.1462389520033798
 30
0.0
 11
7.6138901914073207
 21
-0.1462389520033798
 31
0.0
  0
LINE
  5
16278
  8
0
 62
     0
 10
5.4041225575200169
 20
1.8786400182622769
 30
0.0
 11
5.4041225575200169
 21
1.8786400182622769
 31
0.0
  0
LINE
  5
16279
  8
0
 62
     0
 10
4.9359514486455893
 20
2.307639800098221
 30
0.0
 11
4.9359514486455893
 21
2.307639800098221
 31
0.0
  0
LINE
  5
1627A
  8
0
 62
     0
 10
2.407827460723674
 20
4.6242386220123208
 30
0.0
 11
2.407827460723674
 21
4.6242386220123208
 31
0.0
  0
LINE
  5
1627B
  8
0
 62
     0
 10
7.8336243515593544
 20
8.8784108248501266
 30
0.0
 11
7.8336243515593544
 21
8.8784108248501266
 31
0.0
  0
LINE
  5
1627C
  8
0
 62
     0
 10
7.3654532426849251
 20
9.3074106066860711
 30
0.0
 11
7.3654532426849251
 21
9.3074106066860711
 31
0.0
  0
LINE
  5
1627D
  8
0
 62
     0
 10
4.8373292547630111
 20
11.62400942860017
 30
0.0
 11
4.8373292547630111
 21
11.62400942860017
 31
0.0
  0
LINE
  5
1627E
  8
0
 62
     0
 10
2.6275616208757082
 20
13.64888839886583
 30
0.0
 11
2.6275616208757082
 21
13.64888839886583
 31
0.0
  0
LINE
  5
1627F
  8
0
 62
     0
 10
2.1593905120012789
 20
14.07788818070177
 30
0.0
 11
2.1593905120012789
 21
14.07788818070177
 31
0.0
  0
LINE
  5
16280
  8
0
 62
     0
 10
7.2668310488023229
 20
18.623780235188089
 30
0.0
 11
7.2668310488023229
 21
18.623780235188089
 31
0.0
  0
LINE
  5
16281
  8
0
 62
     0
 10
5.0570634149150191
 20
20.648659205453761
 30
0.0
 11
5.0570634149150191
 21
20.648659205453761
 31
0.0
  0
LINE
  5
16282
  8
0
 62
     0
 10
4.5888923060405906
 20
21.077658987289698
 30
0.0
 11
4.5888923060405906
 21
21.077658987289698
 31
0.0
  0
LINE
  5
16283
  8
0
 62
     0
 10
2.0607683181186771
 20
23.3942578092038
 30
0.0
 11
2.0607683181186771
 21
23.3942578092038
 31
0.0
  0
LINE
  5
16284
  8
0
 62
     0
 10
7.4865652089542847
 20
27.648430012041619
 30
0.0
 11
7.4865652089542847
 21
27.648430012041619
 31
0.0
  0
LINE
  5
16285
  8
0
 62
     0
 10
7.0183941000798571
 20
28.07742979387756
 30
0.0
 11
7.0183941000798571
 21
28.07742979387756
 31
0.0
  0
LINE
  5
16286
  8
0
 62
     0
 10
4.4902701121579423
 20
30.394028615791662
 30
0.0
 11
4.4902701121579423
 21
30.394028615791662
 31
0.0
  0
LINE
  5
16287
  8
0
 62
     0
 10
2.2805024782706389
 20
32.418907586057323
 30
0.0
 11
2.2805024782706389
 21
32.418907586057323
 31
0.0
  0
LINE
  5
16288
  8
0
 62
     0
 10
1.81233136939621
 20
32.847907367893256
 30
0.0
 11
1.81233136939621
 21
32.847907367893256
 31
0.0
  0
LINE
  5
16289
  8
0
 62
     0
 10
6.9197719061972807
 20
37.393799422379502
 30
0.0
 11
6.9197719061972807
 21
37.393799422379502
 31
0.0
  0
LINE
  5
1628A
  8
0
 62
     0
 10
4.7100042723099769
 20
39.418678392645162
 30
0.0
 11
4.7100042723099769
 21
39.418678392645162
 31
0.0
  0
LINE
  5
1628B
  8
0
 62
     0
 10
4.2418331634355493
 20
39.847678174481111
 30
0.0
 11
4.2418331634355493
 21
39.847678174481111
 31
0.0
  0
LINE
  5
1628C
  8
0
 62
     0
 10
1.713709175513634
 20
42.164276996395202
 30
0.0
 11
1.713709175513634
 21
42.164276996395202
 31
0.0
  0
LINE
  5
1628D
  8
0
 62
     0
 10
7.6039294291079393
 20
-61.37093519581228
 30
0.0
 11
7.6039294291079393
 21
-61.37093519581228
 31
0.0
  0
LINE
  5
1628E
  8
0
 62
     0
 10
2.569725889050825
 20
-58.163793833590091
 30
0.0
 11
2.569725889050825
 21
-58.163793833590091
 31
0.0
  0
LINE
  5
1628F
  8
0
 62
     0
 10
6.62366390120894
 20
-55.692888177442953
 30
0.0
 11
6.62366390120894
 21
-55.692888177442953
 31
0.0
  0
LINE
  5
16290
  8
0
 62
     0
 10
5.5525567650265764
 20
-55.010517674842482
 30
0.0
 11
5.5525567650265764
 21
-55.010517674842482
 31
0.0
  0
LINE
  5
16291
  8
0
 62
     0
 10
0.5183532249694629
 20
-51.803376312620287
 30
0.0
 11
0.5183532249694629
 21
-51.803376312620287
 31
0.0
  0
LINE
  5
16292
  8
0
 62
     0
 10
8.4282769273839921
 20
-51.789004465834807
 30
0.0
 11
8.4282769273839921
 21
-51.789004465834807
 31
0.0
  0
LINE
  5
16293
  8
0
 62
     0
 10
4.5722912371274811
 20
-49.332470656473127
 30
0.0
 11
4.5722912371274811
 21
-49.332470656473127
 31
0.0
  0
LINE
  5
16294
  8
0
 62
     0
 10
3.501184100945117
 20
-48.650100153872657
 30
0.0
 11
3.501184100945117
 21
-48.650100153872657
 31
0.0
  0
LINE
  5
16295
  8
0
 62
     0
 10
6.3769042633026087
 20
-45.428586944865053
 30
0.0
 11
6.3769042633026087
 21
-45.428586944865053
 31
0.0
  0
LINE
  5
16296
  8
0
 62
     0
 10
2.5209185730460968
 20
-42.972053135503373
 30
0.0
 11
2.5209185730460968
 21
-42.972053135503373
 31
0.0
  0
LINE
  5
16297
  8
0
 62
     0
 10
1.4498114368637329
 20
-42.289682632902903
 30
0.0
 11
1.4498114368637329
 21
-42.289682632902903
 31
0.0
  0
LINE
  5
16298
  8
0
 62
     0
 10
4.3255315992211782
 20
-39.068169423895192
 30
0.0
 11
4.3255315992211782
 21
-39.068169423895192
 31
0.0
  0
LINE
  5
16299
  8
0
 62
     0
 10
0.4695459089646658
 20
-36.611635614533512
 30
0.0
 11
0.4695459089646658
 21
-36.611635614533512
 31
0.0
  0
LINE
  5
1629A
  8
0
 62
     0
 10
8.3794696113792817
 20
-36.597263767748082
 30
0.0
 11
8.3794696113792817
 21
-36.597263767748082
 31
0.0
  0
LINE
  5
1629B
  8
0
 62
     0
 10
7.3083624751969172
 20
-35.914893265147612
 30
0.0
 11
7.3083624751969172
 21
-35.914893265147612
 31
0.0
  0
LINE
  5
1629C
  8
0
 62
     0
 10
2.2741589351398028
 20
-32.707751902925423
 30
0.0
 11
2.2741589351398028
 21
-32.707751902925423
 31
0.0
  0
LINE
  5
1629D
  8
0
 62
     0
 10
6.328096947297821
 20
-30.236846246778288
 30
0.0
 11
6.328096947297821
 21
-30.236846246778288
 31
0.0
  0
LINE
  5
1629E
  8
0
 62
     0
 10
5.2569898111154574
 20
-29.554475744177829
 30
0.0
 11
5.2569898111154574
 21
-29.554475744177829
 31
0.0
  0
LINE
  5
1629F
  8
0
 62
     0
 10
0.2227862710583442
 20
-26.34733438195563
 30
0.0
 11
0.2227862710583442
 21
-26.34733438195563
 31
0.0
  0
LINE
  5
162A0
  8
0
 62
     0
 10
8.1327099734729629
 20
-26.332962535170171
 30
0.0
 11
8.1327099734729629
 21
-26.332962535170171
 31
0.0
  0
LINE
  5
162A1
  8
0
 62
     0
 10
4.27672428321645
 20
-23.876428725808481
 30
0.0
 11
4.27672428321645
 21
-23.876428725808481
 31
0.0
  0
LINE
  5
162A2
  8
0
 62
     0
 10
3.2056171470340851
 20
-23.194058223208021
 30
0.0
 11
3.2056171470340851
 21
-23.194058223208021
 31
0.0
  0
LINE
  5
162A3
  8
0
 62
     0
 10
6.08133730939148
 20
-19.97254501420036
 30
0.0
 11
6.08133730939148
 21
-19.97254501420036
 31
0.0
  0
LINE
  5
162A4
  8
0
 62
     0
 10
2.225351619134968
 20
-17.51601120483868
 30
0.0
 11
2.225351619134968
 21
-17.51601120483868
 31
0.0
  0
LINE
  5
162A5
  8
0
 62
     0
 10
1.1542444829526031
 20
-16.83364070223821
 30
0.0
 11
1.1542444829526031
 21
-16.83364070223821
 31
0.0
  0
LINE
  5
162A6
  8
0
 62
     0
 10
4.0299646453101081
 20
-13.61212749323059
 30
0.0
 11
4.0299646453101081
 21
-13.61212749323059
 31
0.0
  0
LINE
  5
162A7
  8
0
 62
     0
 10
0.1739789550535956
 20
-11.15559368386891
 30
0.0
 11
0.1739789550535956
 21
-11.15559368386891
 31
0.0
  0
LINE
  5
162A8
  8
0
 62
     0
 10
8.0839026574682151
 20
-11.14122183708349
 30
0.0
 11
8.0839026574682151
 21
-11.14122183708349
 31
0.0
  0
LINE
  5
162A9
  8
0
 62
     0
 10
7.0127955212858497
 20
-10.45885133448302
 30
0.0
 11
7.0127955212858497
 21
-10.45885133448302
 31
0.0
  0
LINE
  5
162AA
  8
0
 62
     0
 10
6.0325299933867882
 20
-4.7808043161136462
 30
0.0
 11
6.0325299933867882
 21
-4.7808043161136462
 31
0.0
  0
LINE
  5
162AB
  8
0
 62
     0
 10
4.9614228572044228
 20
-4.0984338135131786
 30
0.0
 11
4.9614228572044228
 21
-4.0984338135131786
 31
0.0
  0
LINE
  5
162AC
  8
0
 62
     0
 10
7.8371430195619052
 20
-0.8769206045055604
 30
0.0
 11
7.8371430195619052
 21
-0.8769206045055604
 31
0.0
  0
LINE
  5
162AD
  8
0
 62
     0
 10
3.9811573293053919
 20
1.5796132048561189
 30
0.0
 11
3.9811573293053919
 21
1.5796132048561189
 31
0.0
  0
LINE
  5
162AE
  8
0
 62
     0
 10
2.9100501931230269
 20
2.2619837074565861
 30
0.0
 11
2.9100501931230269
 21
2.2619837074565861
 31
0.0
  0
LINE
  5
162AF
  8
0
 62
     0
 10
5.7857703554804303
 20
5.4834969164642349
 30
0.0
 11
5.7857703554804303
 21
5.4834969164642349
 31
0.0
  0
LINE
  5
162B0
  8
0
 62
     0
 10
3.734397691399074
 20
11.84391443743405
 30
0.0
 11
3.734397691399074
 21
11.84391443743405
 31
0.0
  0
LINE
  5
162B1
  8
0
 62
     0
 10
7.7883357035571521
 20
14.31482009358125
 30
0.0
 11
7.7883357035571521
 21
14.31482009358125
 31
0.0
  0
LINE
  5
162B2
  8
0
 62
     0
 10
6.7172285673747876
 20
14.997190596181721
 30
0.0
 11
6.7172285673747876
 21
14.997190596181721
 31
0.0
  0
LINE
  5
162B3
  8
0
 62
     0
 10
1.6830250273176739
 20
18.204331958403909
 30
0.0
 11
1.6830250273176739
 21
18.204331958403909
 31
0.0
  0
LINE
  5
162B4
  8
0
 62
     0
 10
5.7369630394757527
 20
20.675237614551001
 30
0.0
 11
5.7369630394757527
 21
20.675237614551001
 31
0.0
  0
LINE
  5
162B5
  8
0
 62
     0
 10
4.6658559032933891
 20
21.357608117151461
 30
0.0
 11
4.6658559032933891
 21
21.357608117151461
 31
0.0
  0
LINE
  5
162B6
  8
0
 62
     0
 10
7.5415760656507649
 20
24.57912132615909
 30
0.0
 11
7.5415760656507649
 21
24.57912132615909
 31
0.0
  0
LINE
  5
162B7
  8
0
 62
     0
 10
3.685590375394252
 20
27.03565513552077
 30
0.0
 11
3.685590375394252
 21
27.03565513552077
 31
0.0
  0
LINE
  5
162B8
  8
0
 62
     0
 10
2.614483239211888
 20
27.71802563812124
 30
0.0
 11
2.614483239211888
 21
27.71802563812124
 31
0.0
  0
LINE
  5
162B9
  8
0
 62
     0
 10
5.4902034015693664
 20
30.939538847128901
 30
0.0
 11
5.4902034015693664
 21
30.939538847128901
 31
0.0
  0
LINE
  5
162BA
  8
0
 62
     0
 10
1.6342177113128531
 20
33.396072656490567
 30
0.0
 11
1.6342177113128531
 21
33.396072656490567
 31
0.0
  0
LINE
  5
162BB
  8
0
 62
     0
 10
0.5631105751304892
 20
34.078443159091037
 30
0.0
 11
0.5631105751304892
 21
34.078443159091037
 31
0.0
  0
LINE
  5
162BC
  8
0
 62
     0
 10
8.4730342775450875
 20
34.092815005876503
 30
0.0
 11
8.4730342775450875
 21
34.092815005876503
 31
0.0
  0
LINE
  5
162BD
  8
0
 62
     0
 10
3.4388307374879732
 20
37.299956368098691
 30
0.0
 11
3.4388307374879732
 21
37.299956368098691
 31
0.0
  0
LINE
  5
162BE
  8
0
 62
     0
 10
7.492768749646034
 20
39.77086202424583
 30
0.0
 11
7.492768749646034
 21
39.77086202424583
 31
0.0
  0
LINE
  5
162BF
  8
0
 62
     0
 10
6.4216616134636686
 20
40.4532325268463
 30
0.0
 11
6.4216616134636686
 21
40.4532325268463
 31
0.0
  0
LINE
  5
162C0
  8
0
 62
     0
 10
1.387458073406556
 20
43.660373889068488
 30
0.0
 11
1.387458073406556
 21
43.660373889068488
 31
0.0
  0
LINE
  5
162C1
  8
0
 62
     0
 10
8.2994528038308442
 20
-55.941633358613942
 30
0.0
 11
8.2994528038308442
 21
-55.941633358613942
 31
0.0
  0
LINE
  5
162C2
  8
0
 62
     0
 10
6.2344714465614741
 20
-56.213493311769859
 30
0.0
 11
6.2344714465614741
 21
-56.213493311769859
 31
0.0
  0
LINE
  5
162C3
  8
0
 62
     0
 10
4.9123797239194982
 20
-56.387549989095298
 30
0.0
 11
4.9123797239194982
 21
-56.387549989095298
 31
0.0
  0
LINE
  5
162C4
  8
0
 62
     0
 10
1.462349895310912
 20
-56.84175503278265
 30
0.0
 11
1.462349895310912
 21
-56.84175503278265
 31
0.0
  0
LINE
  5
162C5
  8
0
 62
     0
 10
5.957582726691057
 20
-49.673504027099071
 30
0.0
 11
5.957582726691057
 21
-49.673504027099071
 31
0.0
  0
LINE
  5
162C6
  8
0
 62
     0
 10
3.8926013694216861
 20
-49.945363980255003
 30
0.0
 11
3.8926013694216861
 21
-49.945363980255003
 31
0.0
  0
LINE
  5
162C7
  8
0
 62
     0
 10
2.5705096467797102
 20
-50.119420657580442
 30
0.0
 11
2.5705096467797102
 21
-50.119420657580442
 31
0.0
  0
LINE
  5
162C8
  8
0
 62
     0
 10
8.3878342008016062
 20
-42.777112974571473
 30
0.0
 11
8.3878342008016062
 21
-42.777112974571473
 31
0.0
  0
LINE
  5
162C9
  8
0
 62
     0
 10
7.0657424781596294
 20
-42.951169651896898
 30
0.0
 11
7.0657424781596294
 21
-42.951169651896898
 31
0.0
  0
LINE
  5
162CA
  8
0
 62
     0
 10
3.615712649551043
 20
-43.40537469558425
 30
0.0
 11
3.615712649551043
 21
-43.40537469558425
 31
0.0
  0
LINE
  5
162CB
  8
0
 62
     0
 10
1.5507312922816709
 20
-43.677234648740168
 30
0.0
 11
1.5507312922816709
 21
-43.677234648740168
 31
0.0
  0
LINE
  5
162CC
  8
0
 62
     0
 10
0.2286395696396954
 20
-43.851291326065613
 30
0.0
 11
0.2286395696396954
 21
-43.851291326065613
 31
0.0
  0
LINE
  5
162CD
  8
0
 62
     0
 10
8.1109454809310098
 20
-36.23712368990072
 30
0.0
 11
8.1109454809310098
 21
-36.23712368990072
 31
0.0
  0
LINE
  5
162CE
  8
0
 62
     0
 10
6.045964123661637
 20
-36.508983643056638
 30
0.0
 11
6.045964123661637
 21
-36.508983643056638
 31
0.0
  0
LINE
  5
162CF
  8
0
 62
     0
 10
4.7238724010196611
 20
-36.683040320382077
 30
0.0
 11
4.7238724010196611
 21
-36.683040320382077
 31
0.0
  0
LINE
  5
162D0
  8
0
 62
     0
 10
1.2738425724110749
 20
-37.137245364069422
 30
0.0
 11
1.2738425724110749
 21
-37.137245364069422
 31
0.0
  0
LINE
  5
162D1
  8
0
 62
     0
 10
5.7690754037913328
 20
-29.96899435838586
 30
0.0
 11
5.7690754037913328
 21
-29.96899435838586
 31
0.0
  0
LINE
  5
162D2
  8
0
 62
     0
 10
3.7040940465219601
 20
-30.240854311541781
 30
0.0
 11
3.7040940465219601
 21
-30.240854311541781
 31
0.0
  0
LINE
  5
162D3
  8
0
 62
     0
 10
2.382002323879985
 20
-30.41491098886722
 30
0.0
 11
2.382002323879985
 21
-30.41491098886722
 31
0.0
  0
LINE
  5
162D4
  8
0
 62
     0
 10
8.1993268779017701
 20
-23.07260330585823
 30
0.0
 11
8.1993268779017701
 21
-23.07260330585823
 31
0.0
  0
LINE
  5
162D5
  8
0
 62
     0
 10
6.8772351552597932
 20
-23.246659983183669
 30
0.0
 11
6.8772351552597932
 21
-23.246659983183669
 31
0.0
  0
LINE
  5
162D6
  8
0
 62
     0
 10
3.4272053266512059
 20
-23.700865026871011
 30
0.0
 11
3.4272053266512059
 21
-23.700865026871011
 31
0.0
  0
LINE
  5
162D7
  8
0
 62
     0
 10
1.3622239693818341
 20
-23.972724980026928
 30
0.0
 11
1.3622239693818341
 21
-23.972724980026928
 31
0.0
  0
LINE
  5
162D8
  8
0
 62
     0
 10
0.0401322467398583
 20
-24.146781657352371
 30
0.0
 11
0.0401322467398583
 21
-24.146781657352371
 31
0.0
  0
LINE
  5
162D9
  8
0
 62
     0
 10
7.9224381580313974
 20
-16.532614021187449
 30
0.0
 11
7.9224381580313974
 21
-16.532614021187449
 31
0.0
  0
LINE
  5
162DA
  8
0
 62
     0
 10
5.8574568007620247
 20
-16.804473974343381
 30
0.0
 11
5.8574568007620247
 21
-16.804473974343381
 31
0.0
  0
LINE
  5
162DB
  8
0
 62
     0
 10
4.5353650781200487
 20
-16.978530651668819
 30
0.0
 11
4.5353650781200487
 21
-16.978530651668819
 31
0.0
  0
LINE
  5
162DC
  8
0
 62
     0
 10
1.0853352495114641
 20
-17.432735695356151
 30
0.0
 11
1.0853352495114641
 21
-17.432735695356151
 31
0.0
  0
LINE
  5
162DD
  8
0
 62
     0
 10
5.5805680808913829
 20
-10.26448468967264
 30
0.0
 11
5.5805680808913829
 21
-10.26448468967264
 31
0.0
  0
LINE
  5
162DE
  8
0
 62
     0
 10
3.5155867236220111
 20
-10.53634464282856
 30
0.0
 11
3.5155867236220111
 21
-10.53634464282856
 31
0.0
  0
LINE
  5
162DF
  8
0
 62
     0
 10
2.193495000980036
 20
-10.710401320154
 30
0.0
 11
2.193495000980036
 21
-10.710401320154
 31
0.0
  0
LINE
  5
162E0
  8
0
 62
     0
 10
8.0108195550021595
 20
-3.3680936371449901
 30
0.0
 11
8.0108195550021595
 21
-3.3680936371449901
 31
0.0
  0
LINE
  5
162E1
  8
0
 62
     0
 10
6.6887278323601818
 20
-3.5421503144704292
 30
0.0
 11
6.6887278323601818
 21
-3.5421503144704292
 31
0.0
  0
LINE
  5
162E2
  8
0
 62
     0
 10
3.2386980037515962
 20
-3.9963553581577642
 30
0.0
 11
3.2386980037515962
 21
-3.9963553581577642
 31
0.0
  0
LINE
  5
162E3
  8
0
 62
     0
 10
1.1737166464822231
 20
-4.2682153113136883
 30
0.0
 11
1.1737166464822231
 21
-4.2682153113136883
 31
0.0
  0
LINE
  5
162E4
  8
0
 62
     0
 10
7.7339308351315621
 20
3.1718956475257549
 30
0.0
 11
7.7339308351315621
 21
3.1718956475257549
 31
0.0
  0
LINE
  5
162E5
  8
0
 62
     0
 10
5.6689494778621903
 20
2.9000356943698322
 30
0.0
 11
5.6689494778621903
 21
2.9000356943698322
 31
0.0
  0
LINE
  5
162E6
  8
0
 62
     0
 10
4.3468577552202143
 20
2.7259790170443932
 30
0.0
 11
4.3468577552202143
 21
2.7259790170443932
 31
0.0
  0
LINE
  5
162E7
  8
0
 62
     0
 10
0.896827926611628
 20
2.2717739733570581
 30
0.0
 11
0.896827926611628
 21
2.2717739733570581
 31
0.0
  0
LINE
  5
162E8
  8
0
 62
     0
 10
2.0049876780801821
 20
8.9941083485592426
 30
0.0
 11
2.0049876780801821
 21
8.9941083485592426
 31
0.0
  0
LINE
  5
162E9
  8
0
 62
     0
 10
8.8420905866000723
 20
9.8942300227279318
 30
0.0
 11
8.8420905866000723
 21
9.8942300227279318
 31
0.0
  0
LINE
  5
162EA
  8
0
 62
     0
 10
5.3920607579914854
 20
9.4400249790405972
 30
0.0
 11
5.3920607579914854
 21
9.4400249790405972
 31
0.0
  0
LINE
  5
162EB
  8
0
 62
     0
 10
3.3270794007221132
 20
9.1681650258846741
 30
0.0
 11
3.3270794007221132
 21
9.1681650258846741
 31
0.0
  0
LINE
  5
162EC
  8
0
 62
     0
 10
7.8223122321023224
 20
16.336416031568241
 30
0.0
 11
7.8223122321023224
 21
16.336416031568241
 31
0.0
  0
LINE
  5
162ED
  8
0
 62
     0
 10
6.5002205094603456
 20
16.162359354242799
 30
0.0
 11
6.5002205094603456
 21
16.162359354242799
 31
0.0
  0
LINE
  5
162EE
  8
0
 62
     0
 10
3.05019068085176
 20
15.708154310555461
 30
0.0
 11
3.05019068085176
 21
15.708154310555461
 31
0.0
  0
LINE
  5
162EF
  8
0
 62
     0
 10
0.9852093235823877
 20
15.436294357399539
 30
0.0
 11
0.9852093235823877
 21
15.436294357399539
 31
0.0
  0
LINE
  5
162F0
  8
0
 62
     0
 10
7.5454235122316131
 20
22.87640531623898
 30
0.0
 11
7.5454235122316131
 21
22.87640531623898
 31
0.0
  0
LINE
  5
162F1
  8
0
 62
     0
 10
5.4804421549622413
 20
22.604545363083059
 30
0.0
 11
5.4804421549622413
 21
22.604545363083059
 31
0.0
  0
LINE
  5
162F2
  8
0
 62
     0
 10
4.1583504323202654
 20
22.43048868575762
 30
0.0
 11
4.1583504323202654
 21
22.43048868575762
 31
0.0
  0
LINE
  5
162F3
  8
0
 62
     0
 10
0.7083206037116793
 20
21.976283642070278
 30
0.0
 11
0.7083206037116793
 21
21.976283642070278
 31
0.0
  0
LINE
  5
162F4
  8
0
 62
     0
 10
8.6535832637005257
 20
29.598739691441182
 30
0.0
 11
8.6535832637005257
 21
29.598739691441182
 31
0.0
  0
LINE
  5
162F5
  8
0
 62
     0
 10
5.2035534350919379
 20
29.14453464775384
 30
0.0
 11
5.2035534350919379
 21
29.14453464775384
 31
0.0
  0
LINE
  5
162F6
  8
0
 62
     0
 10
3.1385720778225661
 20
28.872674694597919
 30
0.0
 11
3.1385720778225661
 21
28.872674694597919
 31
0.0
  0
LINE
  5
162F7
  8
0
 62
     0
 10
1.8164803551805899
 20
28.69861801727248
 30
0.0
 11
1.8164803551805899
 21
28.69861801727248
 31
0.0
  0
LINE
  5
162F8
  8
0
 62
     0
 10
7.6338049092024871
 20
36.040925700281463
 30
0.0
 11
7.6338049092024871
 21
36.040925700281463
 31
0.0
  0
LINE
  5
162F9
  8
0
 62
     0
 10
6.3117131865605112
 20
35.866869022956017
 30
0.0
 11
6.3117131865605112
 21
35.866869022956017
 31
0.0
  0
LINE
  5
162FA
  8
0
 62
     0
 10
2.8616833579519252
 20
35.412663979268679
 30
0.0
 11
2.8616833579519252
 21
35.412663979268679
 31
0.0
  0
LINE
  5
162FB
  8
0
 62
     0
 10
0.7967020006825532
 20
35.140804026112761
 30
0.0
 11
0.7967020006825532
 21
35.140804026112761
 31
0.0
  0
LINE
  5
162FC
  8
0
 62
     0
 10
7.3569161893318897
 20
42.580914984952237
 30
0.0
 11
7.3569161893318897
 21
42.580914984952237
 31
0.0
  0
LINE
  5
162FD
  8
0
 62
     0
 10
5.2919348320625179
 20
42.309055031796319
 30
0.0
 11
5.2919348320625179
 21
42.309055031796319
 31
0.0
  0
LINE
  5
162FE
  8
0
 62
     0
 10
3.969843109420542
 20
42.134998354470881
 30
0.0
 11
3.969843109420542
 21
42.134998354470881
 31
0.0
  0
LINE
  5
162FF
  8
0
 62
     0
 10
0.5198132808119568
 20
41.680793310783542
 30
0.0
 11
0.5198132808119568
 21
41.680793310783542
 31
0.0
  0
LINE
  5
16300
  8
0
 62
     0
 10
6.4354054388360371
 20
-59.471602609558943
 30
0.0
 11
6.4354054388360371
 21
-59.471602609558943
 31
0.0
  0
LINE
  5
16301
  8
0
 62
     0
 10
6.275402309237827
 20
-54.577470236265448
 30
0.0
 11
6.275402309237827
 21
-54.577470236265448
 31
0.0
  0
LINE
  5
16302
  8
0
 62
     0
 10
3.0008363971857528
 20
-57.09013303449894
 30
0.0
 11
3.0008363971857528
 21
-57.09013303449894
 31
0.0
  0
LINE
  5
16303
  8
0
 62
     0
 10
6.1153991796394154
 20
-49.683337862972039
 30
0.0
 11
6.1153991796394154
 21
-49.683337862972039
 31
0.0
  0
LINE
  5
16304
  8
0
 62
     0
 10
2.840833267587342
 20
-52.196000661205531
 30
0.0
 11
2.840833267587342
 21
-52.196000661205531
 31
0.0
  0
LINE
  5
16305
  8
0
 62
     0
 10
5.9553960500409788
 20
-44.789205489678679
 30
0.0
 11
5.9553960500409788
 21
-44.789205489678679
 31
0.0
  0
LINE
  5
16306
  8
0
 62
     0
 10
2.6808301379889059
 20
-47.301868287912171
 30
0.0
 11
2.6808301379889059
 21
-47.301868287912171
 31
0.0
  0
LINE
  5
16307
  8
0
 62
     0
 10
8.8583714966390943
 20
-37.544766991268268
 30
0.0
 11
8.8583714966390943
 21
-37.544766991268268
 31
0.0
  0
LINE
  5
16308
  8
0
 62
     0
 10
5.7953929204426924
 20
-39.895073116385142
 30
0.0
 11
5.7953929204426924
 21
-39.895073116385142
 31
0.0
  0
LINE
  5
16309
  8
0
 62
     0
 10
2.520827008390619
 20
-42.40773591461862
 30
0.0
 11
2.520827008390619
 21
-42.40773591461862
 31
0.0
  0
LINE
  5
1630A
  8
0
 62
     0
 10
8.6983683670406258
 20
-32.650634617974859
 30
0.0
 11
8.6983683670406258
 21
-32.650634617974859
 31
0.0
  0
LINE
  5
1630B
  8
0
 62
     0
 10
5.635389790844223
 20
-35.000940743091732
 30
0.0
 11
5.635389790844223
 21
-35.000940743091732
 31
0.0
  0
LINE
  5
1630C
  8
0
 62
     0
 10
2.3608238787921501
 20
-37.513603541325217
 30
0.0
 11
2.3608238787921501
 21
-37.513603541325217
 31
0.0
  0
LINE
  5
1630D
  8
0
 62
     0
 10
8.5383652374421573
 20
-27.756502244681499
 30
0.0
 11
8.5383652374421573
 21
-27.756502244681499
 31
0.0
  0
LINE
  5
1630E
  8
0
 62
     0
 10
5.4753866612457553
 20
-30.106808369798369
 30
0.0
 11
5.4753866612457553
 21
-30.106808369798369
 31
0.0
  0
LINE
  5
1630F
  8
0
 62
     0
 10
2.2008207491936811
 20
-32.619471168031872
 30
0.0
 11
2.2008207491936811
 21
-32.619471168031872
 31
0.0
  0
LINE
  5
16310
  8
0
 62
     0
 10
8.3783621078436887
 20
-22.862369871388101
 30
0.0
 11
8.3783621078436887
 21
-22.862369871388101
 31
0.0
  0
LINE
  5
16311
  8
0
 62
     0
 10
5.3153835316472859
 20
-25.21267599650497
 30
0.0
 11
5.3153835316472859
 21
-25.21267599650497
 31
0.0
  0
LINE
  5
16312
  8
0
 62
     0
 10
2.040817619595213
 20
-27.725338794738459
 30
0.0
 11
2.040817619595213
 21
-27.725338794738459
 31
0.0
  0
LINE
  5
16313
  8
0
 62
     0
 10
8.2183589782453996
 20
-17.968237498094609
 30
0.0
 11
8.2183589782453996
 21
-17.968237498094609
 31
0.0
  0
LINE
  5
16314
  8
0
 62
     0
 10
5.1553804020489977
 20
-20.318543623211479
 30
0.0
 11
5.1553804020489977
 21
-20.318543623211479
 31
0.0
  0
LINE
  5
16315
  8
0
 62
     0
 10
1.880814489996925
 20
-22.831206421444971
 30
0.0
 11
1.880814489996925
 21
-22.831206421444971
 31
0.0
  0
LINE
  5
16316
  8
0
 62
     0
 10
8.0583558486470217
 20
-13.074105124801131
 30
0.0
 11
8.0583558486470217
 21
-13.074105124801131
 31
0.0
  0
LINE
  5
16317
  8
0
 62
     0
 10
4.9953772724506189
 20
-15.424411249918
 30
0.0
 11
4.9953772724506189
 21
-15.424411249918
 31
0.0
  0
LINE
  5
16318
  8
0
 62
     0
 10
1.720811360398546
 20
-17.937074048151491
 30
0.0
 11
1.720811360398546
 21
-17.937074048151491
 31
0.0
  0
LINE
  5
16319
  8
0
 62
     0
 10
4.835374142852241
 20
-10.53027887662458
 30
0.0
 11
4.835374142852241
 21
-10.53027887662458
 31
0.0
  0
LINE
  5
1631A
  8
0
 62
     0
 10
1.5608082308001681
 20
-13.04294167485808
 30
0.0
 11
1.5608082308001681
 21
-13.04294167485808
 31
0.0
  0
LINE
  5
1631B
  8
0
 62
     0
 10
4.6753710132538711
 20
-5.6361465033311111
 30
0.0
 11
4.6753710132538711
 21
-5.6361465033311111
 31
0.0
  0
LINE
  5
1631C
  8
0
 62
     0
 10
7.7383495894502312
 20
-3.2858403782142722
 30
0.0
 11
7.7383495894502312
 21
-3.2858403782142722
 31
0.0
  0
LINE
  5
1631D
  8
0
 62
     0
 10
7.5783464598517973
 20
1.608291995079111
 30
0.0
 11
7.5783464598517973
 21
1.608291995079111
 31
0.0
  0
LINE
  5
1631E
  8
0
 62
     0
 10
4.5153678836553954
 20
-0.7420141300377581
 30
0.0
 11
4.5153678836553954
 21
-0.7420141300377581
 31
0.0
  0
LINE
  5
1631F
  8
0
 62
     0
 10
1.240801971603321
 20
-3.2546769282712522
 30
0.0
 11
1.240801971603321
 21
-3.2546769282712522
 31
0.0
  0
LINE
  5
16320
  8
0
 62
     0
 10
4.3553647540568701
 20
4.1521182432556483
 30
0.0
 11
4.3553647540568701
 21
4.1521182432556483
 31
0.0
  0
LINE
  5
16321
  8
0
 62
     0
 10
1.080798842004796
 20
1.6394554450221539
 30
0.0
 11
1.080798842004796
 21
1.6394554450221539
 31
0.0
  0
LINE
  5
16322
  8
0
 62
     0
 10
7.2583402006548212
 20
11.39655674166589
 30
0.0
 11
7.2583402006548212
 21
11.39655674166589
 31
0.0
  0
LINE
  5
16323
  8
0
 62
     0
 10
4.1953616244584193
 20
9.0462506165490275
 30
0.0
 11
4.1953616244584193
 21
9.0462506165490275
 31
0.0
  0
LINE
  5
16324
  8
0
 62
     0
 10
7.0983370710565712
 20
16.290689114959349
 30
0.0
 11
7.0983370710565712
 21
16.290689114959349
 31
0.0
  0
LINE
  5
16325
  8
0
 62
     0
 10
4.0353584948601702
 20
13.94038298984249
 30
0.0
 11
4.0353584948601702
 21
13.94038298984249
 31
0.0
  0
LINE
  5
16326
  8
0
 62
     0
 10
0.7607925828080968
 20
11.427720191608991
 30
0.0
 11
0.7607925828080968
 21
11.427720191608991
 31
0.0
  0
LINE
  5
16327
  8
0
 62
     0
 10
6.9383339414581933
 20
21.18482148825278
 30
0.0
 11
6.9383339414581933
 21
21.18482148825278
 31
0.0
  0
LINE
  5
16328
  8
0
 62
     0
 10
3.8753553652617909
 20
18.83451536313591
 30
0.0
 11
3.8753553652617909
 21
18.83451536313591
 31
0.0
  0
LINE
  5
16329
  8
0
 62
     0
 10
0.6007894532097184
 20
16.321852564902411
 30
0.0
 11
0.6007894532097184
 21
16.321852564902411
 31
0.0
  0
LINE
  5
1632A
  8
0
 62
     0
 10
6.7783308118597239
 20
26.078953861546189
 30
0.0
 11
6.7783308118597239
 21
26.078953861546189
 31
0.0
  0
LINE
  5
1632B
  8
0
 62
     0
 10
3.7153522356633228
 20
23.728647736429309
 30
0.0
 11
3.7153522356633228
 21
23.728647736429309
 31
0.0
  0
LINE
  5
1632C
  8
0
 62
     0
 10
0.4407863236112499
 20
21.21598493819582
 30
0.0
 11
0.4407863236112499
 21
21.21598493819582
 31
0.0
  0
LINE
  5
1632D
  8
0
 62
     0
 10
6.6183276822614934
 20
30.97308623483967
 30
0.0
 11
6.6183276822614934
 21
30.97308623483967
 31
0.0
  0
LINE
  5
1632E
  8
0
 62
     0
 10
3.555349106065091
 20
28.6227801097228
 30
0.0
 11
3.555349106065091
 21
28.6227801097228
 31
0.0
  0
LINE
  5
1632F
  8
0
 62
     0
 10
0.2807831940130185
 20
26.110117311489311
 30
0.0
 11
0.2807831940130185
 21
26.110117311489311
 31
0.0
  0
LINE
  5
16330
  8
0
 62
     0
 10
6.458324552662968
 20
35.867218608133022
 30
0.0
 11
6.458324552662968
 21
35.867218608133022
 31
0.0
  0
LINE
  5
16331
  8
0
 62
     0
 10
3.3953459764665661
 20
33.516912483016149
 30
0.0
 11
3.3953459764665661
 21
33.516912483016149
 31
0.0
  0
LINE
  5
16332
  8
0
 62
     0
 10
0.1207800644144936
 20
31.004249684782661
 30
0.0
 11
0.1207800644144936
 21
31.004249684782661
 31
0.0
  0
LINE
  5
16333
  8
0
 62
     0
 10
6.2983214230645901
 20
40.761350981426489
 30
0.0
 11
6.2983214230645901
 21
40.761350981426489
 31
0.0
  0
LINE
  5
16334
  8
0
 62
     0
 10
3.2353428468681882
 20
38.41104485630963
 30
0.0
 11
3.2353428468681882
 21
38.41104485630963
 31
0.0
  0
LINE
  5
16335
  8
0
 62
     0
 10
3.0753397172696291
 20
43.305177229602961
 30
0.0
 11
3.0753397172696291
 21
43.305177229602961
 31
0.0
  0
ENDBLK
  5
16337
  8
0
  0
BLOCK
  8
0
  2
*U157
 70
     1
 10
0.0
 20
0.0
 30
0.0
  3
*U157
  1

  0
SOLID
  5
16339
  8
1DIM
 10
12.044443127533439
 20
38.649918419518762
 30
0.0
 11
13.168864624287609
 21
36.962675873603018
 31
0.0
 12
11.55800886922316
 22
38.194038877548998
 32
0.0
 13
11.55800886922316
 23
38.194038877548998
 33
0.0
  0
POLYLINE
  5
1633A
  8
1DIM
 66
     1
 10
0.0
 20
0.0
 30
0.0
  0
VERTEX
  5
1633B
  8
1DIM
 10
11.8012259983783
 20
38.42197864853388
 30
0.0
  0
VERTEX
  5
1633C
  8
1DIM
 10
-2.0871988093631928
 20
53.241256546509689
 30
0.0
  0
VERTEX
  5
1633D
  8
1DIM
 10
-33.987198809363193
 20
53.241256546509689
 30
0.0
  0
SEQEND
  5
1633E
  8
1DIM
  0
ENDBLK
  5
16340
  8
0
  0
BLOCK
  8
0
  2
*U158
 70
     1
 10
0.0
 20
0.0
 30
0.0
  3
*U158
  1

  0
TEXT
  5
16342
  8
1DIM
 62
   201
 10
-31.153865476029861
 20
53.941256546509692
 30
0.0
 40
3.5
  1
裏板9mm以上
  0
ENDBLK
  5
16344
  8
0
  0
BLOCK
  8
0
  2
*U159
 70
     1
 10
0.0
 20
0.0
 30
0.0
  3
*U159
  1

  0
LINE
  5
16346
  8
0
 10
-29.999999999837598
 20
0.0000465358979227
 30
0.0
 11
-24.700003489975941
 21
-1.4999534641020771
 31
0.0
  0
LINE
  5
16347
  8
0
 10
-24.700003489975941
 20
-1.4999534641020771
 30
0.0
 11
-0.0000034900840618
 21
-1.499953464101849
 31
0.0
  0
LINE
  5
16348
  8
0
 10
-29.999999999837598
 20
0.0000465358979227
 30
0.0
 11
-24.6999965095923
 21
1.5000465358980359
 31
0.0
  0
LINE
  5
16349
  8
0
 10
-0.0000081437821464
 20
-3.4999999999998859
 30
0.0
 11
-0.0000034900840618
 21
-1.499953464101849
 31
0.0
  0
LINE
  5
1634A
  8
0
 10
-24.6999965095923
 20
1.5000465358980359
 30
0.0
 11
0.0000034903006139
 21
1.500046535897922
 31
0.0
  0
LINE
  5
1634B
  8
0
 10
-0.0000081437821464
 20
-3.4999999999998859
 30
0.0
 11
1.0999953464131731
 21
-3.5
 31
0.0
  0
LINE
  5
1634C
  8
0
 10
0.0000034903006139
 20
1.500046535897922
 30
0.0
 11
0.0000081437821322
 21
3.5
 31
0.0
  0
ARC
  5
1634D
  8
0
 10
1.0999953464131731
 20
-2.0
 30
0.0
 40
1.5
 50
270.0
 51
359.99986668447059
  0
LINE
  5
1634E
  8
0
 10
0.0000081437821322
 20
3.5
 30
0.0
 11
1.100004653592769
 21
3.5
 31
0.0
  0
LINE
  5
1634F
  8
0
 10
2.5999953464091159
 20
-2.0000034901923982
 30
0.0
 11
2.6000046535887051
 21
1.9999965098076009
 31
0.0
  0
ARC
  5
16350
  8
0
 10
1.100004653592769
 20
2.0
 30
0.0
 40
1.5
 50
359.99986668447059
 51
90.0
  0
ENDBLK
  5
16352
  8
0
  0
BLOCK
  8
0
  2
*U160
 70
     1
 10
0.0
 20
0.0
 30
0.0
  3
*U160
  1

  0
LINE
  5
16354
  8
0
 10
-9.6499999999999773
 20
2.0
 30
0.0
 11
-0.0000000000000284
 21
2.0
 31
0.0
  0
LINE
  5
16355
  8
0
 10
-9.6499999999999773
 20
2.0
 30
0.0
 11
-10.0
 21
1.649999999999977
 31
0.0
  0
LINE
  5
16356
  8
0
 10
0.0
 20
3.4999999999999432
 30
0.0
 11
-0.0000000000000284
 21
2.0
 31
0.0
  0
LINE
  5
16357
  8
0
 10
-10.0
 20
1.649999999999977
 30
0.0
 11
-10.0
 21
-1.6499999999998629
 31
0.0
  0
LINE
  5
16358
  8
0
 10
0.0
 20
3.4999999999999432
 30
0.0
 11
0.5999999999999375
 21
3.4999999999999432
 31
0.0
  0
LINE
  5
16359
  8
0
 10
-10.0
 20
-1.6499999999998629
 30
0.0
 11
-9.6499999999999773
 21
-2.0
 31
0.0
  0
ARC
  5
1635A
  8
0
 10
0.5999999999999944
 20
1.4999999999999429
 30
0.0
 40
2.0
 50
0.0
 51
90.000000000001606
  0
LINE
  5
1635B
  8
0
 10
-9.6499999999999773
 20
-2.0
 30
0.0
 11
0.0000000000000568
 21
-2.0
 31
0.0
  0
LINE
  5
1635C
  8
0
 10
2.5999999999999939
 20
1.4999999999999429
 30
0.0
 11
2.5999999999999939
 21
-1.5
 31
0.0
  0
LINE
  5
1635D
  8
0
 10
0.0000000000000568
 20
-2.0
 30
0.0
 11
0.0
 21
-3.5
 31
0.0
  0
ARC
  5
1635E
  8
0
 10
0.5999999999999944
 20
-1.5
 30
0.0
 40
2.0
 50
270.0
 51
0.0
  0
LINE
  5
1635F
  8
0
 10
0.0
 20
-3.5
 30
0.0
 11
0.5999999999999944
 21
-3.5
 31
0.0
  0
ENDBLK
  5
16361
  8
0
  0
BLOCK
  8
0
  2
*U161
 70
     1
 10
0.0
 20
0.0
 30
0.0
  3
*U161
  1

  0
LINE
  5
16387
  8
0
 10
-24.650013959859319
 20
-1.9997699899806769
 30
0.0
 11
-2.3000325751651469
 21
-1.999978593270384
 31
0.0
  0
LINE
  5
16388
  8
0
 10
-0.3000279215265778
 20
-3.9999972077595198
 30
0.0
 11
-2.3000325751651469
 21
-1.999978593270384
 31
0.0
  0
LINE
  5
16389
  8
0
 10
-25.000011516714508
 20
-1.649767320475461
 30
0.0
 11
-24.650013959859319
 21
-1.9997699899806769
 31
0.0
  0
LINE
  5
1638A
  8
0
 10
-0.3000279215265778
 20
-3.9999972077595198
 30
0.0
 11
-0.0000279215387877
 21
-3.9999999999133702
 31
0.0
  0
LINE
  5
1638B
  8
0
 10
-24.999988481445051
 20
1.650232679454916
 30
0.0
 11
-25.000011516714508
 21
-1.649767320475461
 31
0.0
  0
LINE
  5
1638C
  8
0
 10
0.0000279215387877
 20
3.9999999999134839
 30
0.0
 11
-0.0000279215387877
 21
-3.9999999999133702
 31
0.0
  0
LINE
  5
1638D
  8
0
 10
-24.999988481445051
 20
1.650232679454916
 30
0.0
 11
-24.649986038320591
 21
2.0002300099321242
 31
0.0
  0
LINE
  5
1638E
  8
0
 10
-0.299972078449116
 20
4.0000027920673338
 30
0.0
 11
0.0000279215387877
 21
3.9999999999134839
 31
0.0
  0
LINE
  5
1638F
  8
0
 10
-24.649986038320591
 20
2.0002300099321242
 30
0.0
 11
-2.299976732000899
 21
2.0000214063830981
 31
0.0
  0
LINE
  5
16390
  8
0
 10
-0.299972078449116
 20
4.0000027920673338
 30
0.0
 11
-2.299976732000899
 21
2.0000214063830981
 31
0.0
  0
ENDBLK
  5
16392
  8
0
  0
BLOCK
  8
0
  2
*X162
 70
     1
 10
0.0
 20
0.0
 30
0.0
  3
*X162
  1

  0
LINE
  5
16394
  8
0
 62
     0
 10
16.671990294007681
 20
-61.391691274362131
 30
0.0
 11
18.0
 21
-60.063681568369759
 31
0.0
  0
LINE
  5
16395
  8
0
 62
     0
 10
14.42692626374037
 20
-61.391691274362131
 30
0.0
 11
17.99999999999994
 21
-57.818617538102501
 31
0.0
  0
LINE
  5
16396
  8
0
 62
     0
 10
12.18186223347311
 20
-61.391691274362131
 30
0.0
 11
18.0
 21
-55.573553507835179
 31
0.0
  0
LINE
  5
16397
  8
0
 62
     0
 10
9.9367982032057398
 20
-61.391691274362181
 30
0.0
 11
18.0
 21
-53.328489477567928
 31
0.0
  0
LINE
  5
16398
  8
0
 62
     0
 10
9.0000000000001137
 20
-60.083425447300549
 30
0.0
 11
18.0
 21
-51.083425447300669
 31
0.0
  0
LINE
  5
16399
  8
0
 62
     0
 10
9.0000000000000568
 20
-57.83836141703329
 30
0.0
 11
17.99999999999994
 21
-48.838361417033411
 31
0.0
  0
LINE
  5
1639A
  8
0
 62
     0
 10
9.0000000000000568
 20
-55.593297386765919
 30
0.0
 11
17.99999999999994
 21
-46.593297386766032
 31
0.0
  0
LINE
  5
1639B
  8
0
 62
     0
 10
9.0000000000000568
 20
-53.348233356498667
 30
0.0
 11
17.99999999999994
 21
-44.348233356498781
 31
0.0
  0
LINE
  5
1639C
  8
0
 62
     0
 10
9.0000000000000568
 20
-51.103169326231409
 30
0.0
 11
18.00000000000006
 21
-42.103169326231459
 31
0.0
  0
LINE
  5
1639D
  8
0
 62
     0
 10
9.0000000000000568
 20
-48.858105295964087
 30
0.0
 11
18.0
 21
-39.858105295964208
 31
0.0
  0
LINE
  5
1639E
  8
0
 62
     0
 10
9.0000000000000568
 20
-46.613041265696722
 30
0.0
 11
18.0
 21
-37.613041265696843
 31
0.0
  0
LINE
  5
1639F
  8
0
 62
     0
 10
9.0000000000000568
 20
-44.367977235429457
 30
0.0
 11
18.0
 21
-35.367977235429578
 31
0.0
  0
LINE
  5
163A0
  8
0
 62
     0
 10
9.0000000000000568
 20
-42.122913205162213
 30
0.0
 11
18.0
 21
-33.12291320516232
 31
0.0
  0
LINE
  5
163A1
  8
0
 62
     0
 10
9.0
 20
-39.877849174894948
 30
0.0
 11
17.99999999999994
 21
-30.877849174895061
 31
0.0
  0
LINE
  5
163A2
  8
0
 62
     0
 10
9.0
 20
-37.63278514462769
 30
0.0
 11
18.0
 21
-28.63278514462769
 31
0.0
  0
LINE
  5
163A3
  8
0
 62
     0
 10
9.0
 20
-35.387721114360431
 30
0.0
 11
18.0
 21
-26.387721114360431
 31
0.0
  0
LINE
  5
163A4
  8
0
 62
     0
 10
8.9999999999999432
 20
-33.14265708409318
 30
0.0
 11
17.99999999999994
 21
-24.14265708409317
 31
0.0
  0
LINE
  5
163A5
  8
0
 62
     0
 10
8.9999999999999432
 20
-30.897593053825918
 30
0.0
 11
17.99999999999994
 21
-21.897593053825918
 31
0.0
  0
LINE
  5
163A6
  8
0
 62
     0
 10
8.9999999999999432
 20
-28.65252902355866
 30
0.0
 11
17.99999999999994
 21
-19.65252902355866
 31
0.0
  0
LINE
  5
163A7
  8
0
 62
     0
 10
8.9999999999999432
 20
-26.407464993291399
 30
0.0
 11
18.0
 21
-17.407464993291342
 31
0.0
  0
LINE
  5
163A8
  8
0
 62
     0
 10
9.0
 20
-24.16240096302403
 30
0.0
 11
17.99999999999994
 21
-15.16240096302403
 31
0.0
  0
LINE
  5
163A9
  8
0
 62
     0
 10
8.9999999999999432
 20
-21.917336932756712
 30
0.0
 11
17.99999999999994
 21
-12.91733693275671
 31
0.0
  0
LINE
  5
163AA
  8
0
 62
     0
 10
8.9999999999999432
 20
-19.67227290248945
 30
0.0
 11
17.99999999999994
 21
-10.67227290248945
 31
0.0
  0
LINE
  5
163AB
  8
0
 62
     0
 10
8.9999999999999432
 20
-17.427208872222192
 30
0.0
 11
15.821190608570189
 21
-10.606018263652
 31
0.0
  0
LINE
  5
163AC
  8
0
 62
     0
 10
16.78433035397688
 20
-7.3978144879779393
 30
0.0
 11
18.0
 21
-6.1821448419548801
 31
0.0
  0
LINE
  5
163AD
  8
0
 62
     0
 10
8.9999999999998863
 20
-15.182144841954941
 30
0.0
 11
13.682098306056441
 21
-10.500046535898431
 31
0.0
  0
LINE
  5
163AE
  8
0
 62
     0
 10
11.14073620626419
 20
-10.796344605423309
 30
0.0
 11
11.437034275789189
 21
-10.50004653589837
 31
0.0
  0
LINE
  5
163AF
  8
0
 62
     0
 10
14.437034275789189
 20
-7.5000465358983197
 30
0.0
 11
18.00000000000006
 21
-3.9370808116874509
 31
0.0
  0
LINE
  5
163B0
  8
0
 62
     0
 10
8.9999999999998863
 20
-12.93708081168762
 30
0.0
 11
11.072835431113271
 21
-10.86424538057423
 31
0.0
  0
LINE
  5
163B1
  8
0
 62
     0
 10
12.191970245521761
 20
-7.5000465358984911
 30
0.0
 11
18.00000000000006
 21
-1.692016781420193
 31
0.0
  0
LINE
  5
163B2
  8
0
 62
     0
 10
9.0
 20
-10.69201678142031
 30
0.0
 11
9.1919702455219294
 21
-10.50004653589837
 31
0.0
  0
LINE
  5
163B3
  8
0
 62
     0
 10
10.32448800965261
 20
-7.1224647415003801
 30
0.0
 11
18.00000000000006
 21
0.5530472488470651
 31
0.0
  0
LINE
  5
163B4
  8
0
 62
     0
 10
9.9469062152545007
 20
-7.5000465358984911
 30
0.0
 11
10.26327872882478
 21
-7.1836740223282041
 31
0.0
  0
LINE
  5
163B5
  8
0
 62
     0
 10
8.9999999999999432
 20
-6.2018887208857896
 30
0.0
 11
18.0
 21
2.7981112791143228
 31
0.0
  0
LINE
  5
163B6
  8
0
 62
     0
 10
8.9999999999999432
 20
-3.956824690618475
 30
0.0
 11
18.00000000000006
 21
5.0431753093816951
 31
0.0
  0
LINE
  5
163B7
  8
0
 62
     0
 10
8.9999999999999432
 20
-1.711760660351217
 30
0.0
 11
18.00000000000006
 21
7.2882393396489533
 31
0.0
  0
LINE
  5
163B8
  8
0
 62
     0
 10
8.9999999999999432
 20
0.533303369916041
 30
0.0
 11
15.827771837741579
 21
7.3610752076577342
 31
0.0
  0
LINE
  5
163B9
  8
0
 62
     0
 10
16.79123737884305
 20
10.56960477902652
 30
0.0
 11
18.0
 21
11.778367400183519
 31
0.0
  0
LINE
  5
163BA
  8
0
 62
     0
 10
8.9999999999999432
 20
2.7783674001834688
 30
0.0
 11
13.721586063918149
 21
7.4999534641016794
 31
0.0
  0
LINE
  5
163BB
  8
0
 62
     0
 10
11.13086412323616
 20
7.154295553686949
 30
0.0
 11
11.47652203365084
 21
7.4999534641015648
 31
0.0
  0
LINE
  5
163BC
  8
0
 62
     0
 10
14.47652203365084
 20
10.499953464101621
 30
0.0
 11
18.00000000000011
 21
14.02343143045084
 31
0.0
  0
LINE
  5
163BD
  8
0
 62
     0
 10
8.9999999999999432
 20
5.023431430450727
 30
0.0
 11
11.079416660284719
 21
7.102848090735506
 31
0.0
  0
LINE
  5
163BE
  8
0
 62
     0
 10
12.231458003383411
 20
10.49995346410145
 30
0.0
 11
18.00000000000006
 21
16.26849546071816
 31
0.0
  0
LINE
  5
163BF
  8
0
 62
     0
 10
8.9999999999999432
 20
7.2684954607179861
 30
0.0
 11
9.2314580033835796
 21
7.4999534641015648
 31
0.0
  0
LINE
  5
163C0
  8
0
 62
     0
 10
10.33106923882394
 20
10.844628729809241
 30
0.0
 11
18.00000000000006
 21
18.513559490985411
 31
0.0
  0
LINE
  5
163C1
  8
0
 62
     0
 10
9.9863939731161508
 20
10.49995346410145
 30
0.0
 11
10.25340664579676
 21
10.766966136782059
 31
0.0
  0
LINE
  5
163C2
  8
0
 62
     0
 10
9.0000000000000568
 20
11.75862352125273
 30
0.0
 11
18.0
 21
20.75862352125273
 31
0.0
  0
LINE
  5
163C3
  8
0
 62
     0
 10
9.0000000000001137
 20
14.00368755152004
 30
0.0
 11
18.0
 21
23.003687551519992
 31
0.0
  0
LINE
  5
163C4
  8
0
 62
     0
 10
9.0000000000001137
 20
16.2487515817873
 30
0.0
 11
18.00000000000011
 21
25.24875158178725
 31
0.0
  0
LINE
  5
163C5
  8
0
 62
     0
 10
9.0000000000000568
 20
18.493815612054561
 30
0.0
 11
18.00000000000006
 21
27.493815612054512
 31
0.0
  0
LINE
  5
163C6
  8
0
 62
     0
 10
9.0000000000000568
 20
20.73887964232188
 30
0.0
 11
18.00000000000006
 21
29.73887964232182
 31
0.0
  0
LINE
  5
163C7
  8
0
 62
     0
 10
9.0000000000000568
 20
22.983943672589131
 30
0.0
 11
18.00000000000006
 21
31.983943672589081
 31
0.0
  0
LINE
  5
163C8
  8
0
 62
     0
 10
9.0000000000001705
 20
25.22900770285645
 30
0.0
 11
18.00000000000006
 21
34.229007702856343
 31
0.0
  0
LINE
  5
163C9
  8
0
 62
     0
 10
9.0000000000001137
 20
27.474071733123711
 30
0.0
 11
18.00000000000011
 21
36.474071733123708
 31
0.0
  0
LINE
  5
163CA
  8
0
 62
     0
 10
9.0000000000001137
 20
29.71913576339103
 30
0.0
 11
18.00000000000011
 21
38.719135763391023
 31
0.0
  0
LINE
  5
163CB
  8
0
 62
     0
 10
9.0000000000001137
 20
31.964199793658281
 30
0.0
 11
18.00000000000011
 21
40.964199793658281
 31
0.0
  0
LINE
  5
163CC
  8
0
 62
     0
 10
9.0000000000001137
 20
34.209263823925539
 30
0.0
 11
18.00000000000011
 21
43.209263823925539
 31
0.0
  0
LINE
  5
163CD
  8
0
 62
     0
 10
9.0000000000000568
 20
36.454327854192968
 30
0.0
 11
17.245208523150438
 21
44.699536377343229
 31
0.0
  0
LINE
  5
163CE
  8
0
 62
     0
 10
9.0000000000000568
 20
38.699391884460113
 30
0.0
 11
15.00014449288318
 21
44.699536377343229
 31
0.0
  0
LINE
  5
163CF
  8
0
 62
     0
 10
9.0000000000000568
 20
40.944455914727477
 30
0.0
 11
12.75508046261592
 21
44.699536377343229
 31
0.0
  0
LINE
  5
163D0
  8
0
 62
     0
 10
9.0000000000001137
 20
43.189519944994743
 30
0.0
 11
10.510016432348721
 21
44.699536377343229
 31
0.0
  0
ENDBLK
  5
163D2
  8
0
  0
BLOCK
  8
0
  2
*X163
 70
     1
 10
0.0
 20
0.0
 30
0.0
  3
*X163
  1

  0
LINE
  5
163D4
  8
0
 62
     0
 10
4.719668856187476
 20
-60.905108537765202
 30
0.0
 11
4.719668856187476
 21
-60.905108537765202
 31
0.0
  0
LINE
  5
163D5
  8
0
 62
     0
 10
2.5099012223001722
 20
-58.880229567499541
 30
0.0
 11
2.5099012223001722
 21
-58.880229567499541
 31
0.0
  0
LINE
  5
163D6
  8
0
 62
     0
 10
2.0417301134257442
 20
-58.4512297856636
 30
0.0
 11
2.0417301134257442
 21
-58.4512297856636
 31
0.0
  0
LINE
  5
163D7
  8
0
 62
     0
 10
7.1491706502268144
 20
-53.905337731177347
 30
0.0
 11
7.1491706502268144
 21
-53.905337731177347
 31
0.0
  0
LINE
  5
163D8
  8
0
 62
     0
 10
4.9394030163395106
 20
-51.880458760911701
 30
0.0
 11
4.9394030163395106
 21
-51.880458760911701
 31
0.0
  0
LINE
  5
163D9
  8
0
 62
     0
 10
4.471231907465083
 20
-51.451458979075753
 30
0.0
 11
4.471231907465083
 21
-51.451458979075753
 31
0.0
  0
LINE
  5
163DA
  8
0
 62
     0
 10
1.943107919543168
 20
-49.134860157161647
 30
0.0
 11
1.943107919543168
 21
-49.134860157161647
 31
0.0
  0
LINE
  5
163DB
  8
0
 62
     0
 10
7.3689048103787469
 20
-44.880687954323847
 30
0.0
 11
7.3689048103787469
 21
-44.880687954323847
 31
0.0
  0
LINE
  5
163DC
  8
0
 62
     0
 10
6.9007337015043193
 20
-44.451688172487913
 30
0.0
 11
6.9007337015043193
 21
-44.451688172487913
 31
0.0
  0
LINE
  5
163DD
  8
0
 62
     0
 10
4.3726097135824036
 20
-42.135089350573821
 30
0.0
 11
4.3726097135824036
 21
-42.135089350573821
 31
0.0
  0
LINE
  5
163DE
  8
0
 62
     0
 10
2.1628420796950998
 20
-40.11021038030816
 30
0.0
 11
2.1628420796950998
 21
-40.11021038030816
 31
0.0
  0
LINE
  5
163DF
  8
0
 62
     0
 10
1.694670970820672
 20
-39.681210598472219
 30
0.0
 11
1.694670970820672
 21
-39.681210598472219
 31
0.0
  0
LINE
  5
163E0
  8
0
 62
     0
 10
6.8021115076217677
 20
-35.135318543985953
 30
0.0
 11
6.8021115076217677
 21
-35.135318543985953
 31
0.0
  0
LINE
  5
163E1
  8
0
 62
     0
 10
4.592343873734464
 20
-33.110439573720278
 30
0.0
 11
4.592343873734464
 21
-33.110439573720278
 31
0.0
  0
LINE
  5
163E2
  8
0
 62
     0
 10
4.1241727648600364
 20
-32.681439791884351
 30
0.0
 11
4.1241727648600364
 21
-32.681439791884351
 31
0.0
  0
LINE
  5
163E3
  8
0
 62
     0
 10
1.5960487769381211
 20
-30.364840969970238
 30
0.0
 11
1.5960487769381211
 21
-30.364840969970238
 31
0.0
  0
LINE
  5
163E4
  8
0
 62
     0
 10
7.0218456677738237
 20
-26.110668767132399
 30
0.0
 11
7.0218456677738237
 21
-26.110668767132399
 31
0.0
  0
LINE
  5
163E5
  8
0
 62
     0
 10
6.5536745588993961
 20
-25.681668985296461
 30
0.0
 11
6.5536745588993961
 21
-25.681668985296461
 31
0.0
  0
LINE
  5
163E6
  8
0
 62
     0
 10
4.0255505709774813
 20
-23.365070163382359
 30
0.0
 11
4.0255505709774813
 21
-23.365070163382359
 31
0.0
  0
LINE
  5
163E7
  8
0
 62
     0
 10
1.8157829370901779
 20
-21.340191193116699
 30
0.0
 11
1.8157829370901779
 21
-21.340191193116699
 31
0.0
  0
LINE
  5
163E8
  8
0
 62
     0
 10
1.347611828215749
 20
-20.911191411280761
 30
0.0
 11
1.347611828215749
 21
-20.911191411280761
 31
0.0
  0
LINE
  5
163E9
  8
0
 62
     0
 10
8.9831763529386919
 20
-18.681898178708529
 30
0.0
 11
8.9831763529386919
 21
-18.681898178708529
 31
0.0
  0
LINE
  5
163EA
  8
0
 62
     0
 10
6.4550523650167762
 20
-16.365299356794441
 30
0.0
 11
6.4550523650167762
 21
-16.365299356794441
 31
0.0
  0
LINE
  5
163EB
  8
0
 62
     0
 10
4.2452847311294732
 20
-14.34042038652878
 30
0.0
 11
4.2452847311294732
 21
-14.34042038652878
 31
0.0
  0
LINE
  5
163EC
  8
0
 62
     0
 10
3.7771136222550439
 20
-13.911420604692839
 30
0.0
 11
3.7771136222550439
 21
-13.911420604692839
 31
0.0
  0
LINE
  5
163ED
  8
0
 62
     0
 10
1.248989634333129
 20
-11.59482178277873
 30
0.0
 11
1.248989634333129
 21
-11.59482178277873
 31
0.0
  0
LINE
  5
163EE
  8
0
 62
     0
 10
6.6747865251688028
 20
-7.340649579940961
 30
0.0
 11
6.6747865251688028
 21
-7.340649579940961
 31
0.0
  0
LINE
  5
163EF
  8
0
 62
     0
 10
6.2066154162943752
 20
-6.9116497981050173
 30
0.0
 11
6.2066154162943752
 21
-6.9116497981050173
 31
0.0
  0
LINE
  5
163F0
  8
0
 62
     0
 10
3.6784914283724599
 20
-4.5950509761909171
 30
0.0
 11
3.6784914283724599
 21
-4.5950509761909171
 31
0.0
  0
LINE
  5
163F1
  8
0
 62
     0
 10
1.468723794485157
 20
-2.5701720059252589
 30
0.0
 11
1.468723794485157
 21
-2.5701720059252589
 31
0.0
  0
LINE
  5
163F2
  8
0
 62
     0
 10
1.0005526856107281
 20
-2.1411722240893152
 30
0.0
 11
1.0005526856107281
 21
-2.1411722240893152
 31
0.0
  0
LINE
  5
163F3
  8
0
 62
     0
 10
8.6361172103337154
 20
0.0881210084828284
 30
0.0
 11
8.6361172103337154
 21
0.0881210084828284
 31
0.0
  0
LINE
  5
163F4
  8
0
 62
     0
 10
6.1079932224118014
 20
2.4047198303969282
 30
0.0
 11
6.1079932224118014
 21
2.4047198303969282
 31
0.0
  0
LINE
  5
163F5
  8
0
 62
     0
 10
3.8982255885244972
 20
4.4295988006625846
 30
0.0
 11
3.8982255885244972
 21
4.4295988006625846
 31
0.0
  0
LINE
  5
163F6
  8
0
 62
     0
 10
3.4300544796500692
 20
4.85859858249853
 30
0.0
 11
3.4300544796500692
 21
4.85859858249853
 31
0.0
  0
LINE
  5
163F7
  8
0
 62
     0
 10
0.9019304917281541
 20
7.1751974044126294
 30
0.0
 11
0.9019304917281541
 21
7.1751974044126294
 31
0.0
  0
LINE
  5
163F8
  8
0
 62
     0
 10
6.3277273825637756
 20
11.42936960725048
 30
0.0
 11
6.3277273825637756
 21
11.42936960725048
 31
0.0
  0
LINE
  5
163F9
  8
0
 62
     0
 10
5.8595562736893481
 20
11.85836938908642
 30
0.0
 11
5.8595562736893481
 21
11.85836938908642
 31
0.0
  0
LINE
  5
163FA
  8
0
 62
     0
 10
3.3314322857674332
 20
14.17496821100052
 30
0.0
 11
3.3314322857674332
 21
14.17496821100052
 31
0.0
  0
LINE
  5
163FB
  8
0
 62
     0
 10
1.121664651880129
 20
16.199847181266179
 30
0.0
 11
1.121664651880129
 21
16.199847181266179
 31
0.0
  0
LINE
  5
163FC
  8
0
 62
     0
 10
0.6534935430057013
 20
16.628846963102131
 30
0.0
 11
0.6534935430057013
 21
16.628846963102131
 31
0.0
  0
LINE
  5
163FD
  8
0
 62
     0
 10
8.757229176603154
 20
18.429140413838351
 30
0.0
 11
8.757229176603154
 21
18.429140413838351
 31
0.0
  0
LINE
  5
163FE
  8
0
 62
     0
 10
8.2890580677287247
 20
18.858140195674299
 30
0.0
 11
8.2890580677287247
 21
18.858140195674299
 31
0.0
  0
LINE
  5
163FF
  8
0
 62
     0
 10
5.7609340798068081
 20
21.174739017588401
 30
0.0
 11
5.7609340798068081
 21
21.174739017588401
 31
0.0
  0
LINE
  5
16400
  8
0
 62
     0
 10
3.5511664459195051
 20
23.199617987854051
 30
0.0
 11
3.5511664459195051
 21
23.199617987854051
 31
0.0
  0
LINE
  5
16401
  8
0
 62
     0
 10
3.0829953370450758
 20
23.628617769689999
 30
0.0
 11
3.0829953370450758
 21
23.628617769689999
 31
0.0
  0
LINE
  5
16402
  8
0
 62
     0
 10
0.5548713491231618
 20
25.945216591604101
 30
0.0
 11
0.5548713491231618
 21
25.945216591604101
 31
0.0
  0
LINE
  5
16403
  8
0
 62
     0
 10
8.1904358738460896
 20
28.17450982417618
 30
0.0
 11
8.1904358738460896
 21
28.17450982417618
 31
0.0
  0
LINE
  5
16404
  8
0
 62
     0
 10
5.9806682399587858
 20
30.199388794441841
 30
0.0
 11
5.9806682399587858
 21
30.199388794441841
 31
0.0
  0
LINE
  5
16405
  8
0
 62
     0
 10
5.5124971310843582
 20
30.628388576277789
 30
0.0
 11
5.5124971310843582
 21
30.628388576277789
 31
0.0
  0
LINE
  5
16406
  8
0
 62
     0
 10
2.984373143162443
 20
32.944987398191877
 30
0.0
 11
2.984373143162443
 21
32.944987398191877
 31
0.0
  0
LINE
  5
16407
  8
0
 62
     0
 10
0.7746055092751402
 20
34.969866368457538
 30
0.0
 11
0.7746055092751402
 21
34.969866368457538
 31
0.0
  0
LINE
  5
16408
  8
0
 62
     0
 10
0.3064344004007115
 20
35.398866150293493
 30
0.0
 11
0.3064344004007115
 21
35.398866150293493
 31
0.0
  0
LINE
  5
16409
  8
0
 62
     0
 10
8.41017003399811
 20
37.199159601029763
 30
0.0
 11
8.41017003399811
 21
37.199159601029763
 31
0.0
  0
LINE
  5
1640A
  8
0
 62
     0
 10
7.9419989251236807
 20
37.628159382865697
 30
0.0
 11
7.9419989251236807
 21
37.628159382865697
 31
0.0
  0
LINE
  5
1640B
  8
0
 62
     0
 10
5.4138749372017658
 20
39.944758204779802
 30
0.0
 11
5.4138749372017658
 21
39.944758204779802
 31
0.0
  0
LINE
  5
1640C
  8
0
 62
     0
 10
3.204107303314462
 20
41.969637175045463
 30
0.0
 11
3.204107303314462
 21
41.969637175045463
 31
0.0
  0
LINE
  5
1640D
  8
0
 62
     0
 10
2.735936194440034
 20
42.398636956881397
 30
0.0
 11
2.735936194440034
 21
42.398636956881397
 31
0.0
  0
LINE
  5
1640E
  8
0
 62
     0
 10
3.8802392881250851
 20
-61.296643484138428
 30
0.0
 11
3.8802392881250851
 21
-61.296643484138428
 31
0.0
  0
LINE
  5
1640F
  8
0
 62
     0
 10
6.7559594504826217
 20
-58.075130275130718
 30
0.0
 11
6.7559594504826217
 21
-58.075130275130718
 31
0.0
  0
LINE
  5
16410
  8
0
 62
     0
 10
2.8999737602261102
 20
-55.618596465769052
 30
0.0
 11
2.8999737602261102
 21
-55.618596465769052
 31
0.0
  0
LINE
  5
16411
  8
0
 62
     0
 10
1.8288666240437459
 20
-54.936225963168582
 30
0.0
 11
1.8288666240437459
 21
-54.936225963168582
 31
0.0
  0
LINE
  5
16412
  8
0
 62
     0
 10
4.7045867864011877
 20
-51.714712754160921
 30
0.0
 11
4.7045867864011877
 21
-51.714712754160921
 31
0.0
  0
LINE
  5
16413
  8
0
 62
     0
 10
0.8486010961446758
 20
-49.258178944799241
 30
0.0
 11
0.8486010961446758
 21
-49.258178944799241
 31
0.0
  0
LINE
  5
16414
  8
0
 62
     0
 10
8.7585247985592201
 20
-49.243807098013797
 30
0.0
 11
8.7585247985592201
 21
-49.243807098013797
 31
0.0
  0
LINE
  5
16415
  8
0
 62
     0
 10
7.6874176623768546
 20
-48.561436595413333
 30
0.0
 11
7.6874176623768546
 21
-48.561436595413333
 31
0.0
  0
LINE
  5
16416
  8
0
 62
     0
 10
2.6532141223197412
 20
-45.354295233191131
 30
0.0
 11
2.6532141223197412
 21
-45.354295233191131
 31
0.0
  0
LINE
  5
16417
  8
0
 62
     0
 10
6.7071521344778677
 20
-42.883389577044078
 30
0.0
 11
6.7071521344778677
 21
-42.883389577044078
 31
0.0
  0
LINE
  5
16418
  8
0
 62
     0
 10
5.6360449982955041
 20
-42.201019074443607
 30
0.0
 11
5.6360449982955041
 21
-42.201019074443607
 31
0.0
  0
LINE
  5
16419
  8
0
 62
     0
 10
0.6018414582383905
 20
-38.993877712221433
 30
0.0
 11
0.6018414582383905
 21
-38.993877712221433
 31
0.0
  0
LINE
  5
1641A
  8
0
 62
     0
 10
8.5117651606529581
 20
-38.97950586543589
 30
0.0
 11
8.5117651606529581
 21
-38.97950586543589
 31
0.0
  0
LINE
  5
1641B
  8
0
 62
     0
 10
4.6557794703964452
 20
-36.522972056074209
 30
0.0
 11
4.6557794703964452
 21
-36.522972056074209
 31
0.0
  0
LINE
  5
1641C
  8
0
 62
     0
 10
3.5846723342140798
 20
-35.840601553473739
 30
0.0
 11
3.5846723342140798
 21
-35.840601553473739
 31
0.0
  0
LINE
  5
1641D
  8
0
 62
     0
 10
6.4603924965714628
 20
-32.619088344466078
 30
0.0
 11
6.4603924965714628
 21
-32.619088344466078
 31
0.0
  0
LINE
  5
1641E
  8
0
 62
     0
 10
2.6044068063149499
 20
-30.162554535104402
 30
0.0
 11
2.6044068063149499
 21
-30.162554535104402
 31
0.0
  0
LINE
  5
1641F
  8
0
 62
     0
 10
1.5332996701325861
 20
-29.480184032503931
 30
0.0
 11
1.5332996701325861
 21
-29.480184032503931
 31
0.0
  0
LINE
  5
16420
  8
0
 62
     0
 10
4.4090198324901886
 20
-26.258670823496349
 30
0.0
 11
4.4090198324901886
 21
-26.258670823496349
 31
0.0
  0
LINE
  5
16421
  8
0
 62
     0
 10
0.5530341422336775
 20
-23.802137014134669
 30
0.0
 11
0.5530341422336775
 21
-23.802137014134669
 31
0.0
  0
LINE
  5
16422
  8
0
 62
     0
 10
8.4629578446482672
 20
-23.78776516734921
 30
0.0
 11
8.4629578446482672
 21
-23.78776516734921
 31
0.0
  0
LINE
  5
16423
  8
0
 62
     0
 10
7.3918507084659044
 20
-23.105394664748751
 30
0.0
 11
7.3918507084659044
 21
-23.105394664748751
 31
0.0
  0
LINE
  5
16424
  8
0
 62
     0
 10
2.3576471684087901
 20
-19.898253302526548
 30
0.0
 11
2.3576471684087901
 21
-19.898253302526548
 31
0.0
  0
LINE
  5
16425
  8
0
 62
     0
 10
6.4115851805667248
 20
-17.427347646379371
 30
0.0
 11
6.4115851805667248
 21
-17.427347646379371
 31
0.0
  0
LINE
  5
16426
  8
0
 62
     0
 10
5.3404780443843611
 20
-16.7449771437789
 30
0.0
 11
5.3404780443843611
 21
-16.7449771437789
 31
0.0
  0
LINE
  5
16427
  8
0
 62
     0
 10
0.3062745043272478
 20
-13.53783578155671
 30
0.0
 11
0.3062745043272478
 21
-13.53783578155671
 31
0.0
  0
LINE
  5
16428
  8
0
 62
     0
 10
8.2161982067418311
 20
-13.52346393477128
 30
0.0
 11
8.2161982067418311
 21
-13.52346393477128
 31
0.0
  0
LINE
  5
16429
  8
0
 62
     0
 10
4.3602125164853183
 20
-11.0669301254096
 30
0.0
 11
4.3602125164853183
 21
-11.0669301254096
 31
0.0
  0
LINE
  5
1642A
  8
0
 62
     0
 10
6.1648255426604877
 20
-7.1630464138015846
 30
0.0
 11
6.1648255426604877
 21
-7.1630464138015846
 31
0.0
  0
LINE
  5
1642B
  8
0
 62
     0
 10
2.3088398524039762
 20
-4.7065126044399053
 30
0.0
 11
2.3088398524039762
 21
-4.7065126044399053
 31
0.0
  0
LINE
  5
1642C
  8
0
 62
     0
 10
1.237732716221611
 20
-4.0241421018394377
 30
0.0
 11
1.237732716221611
 21
-4.0241421018394377
 31
0.0
  0
LINE
  5
1642D
  8
0
 62
     0
 10
4.1134528785791007
 20
-0.802628892831747
 30
0.0
 11
4.1134528785791007
 21
-0.802628892831747
 31
0.0
  0
LINE
  5
1642E
  8
0
 62
     0
 10
0.2574671883225893
 20
1.6539049165299331
 30
0.0
 11
0.2574671883225893
 21
1.6539049165299331
 31
0.0
  0
LINE
  5
1642F
  8
0
 62
     0
 10
8.1673908907370851
 20
1.6682767633154569
 30
0.0
 11
8.1673908907370851
 21
1.6682767633154569
 31
0.0
  0
LINE
  5
16430
  8
0
 62
     0
 10
7.0962837545547197
 20
2.350647265915923
 30
0.0
 11
7.0962837545547197
 21
2.350647265915923
 31
0.0
  0
LINE
  5
16431
  8
0
 62
     0
 10
2.0620802144976071
 20
5.557788628138117
 30
0.0
 11
2.0620802144976071
 21
5.557788628138117
 31
0.0
  0
LINE
  5
16432
  8
0
 62
     0
 10
0.0107075504163213
 20
11.91820614910781
 30
0.0
 11
0.0107075504163213
 21
11.91820614910781
 31
0.0
  0
LINE
  5
16433
  8
0
 62
     0
 10
7.9206312528308631
 20
11.932577995893361
 30
0.0
 11
7.9206312528308631
 21
11.932577995893361
 31
0.0
  0
LINE
  5
16434
  8
0
 62
     0
 10
4.0646455625743521
 20
14.389111805255039
 30
0.0
 11
4.0646455625743521
 21
14.389111805255039
 31
0.0
  0
LINE
  5
16435
  8
0
 62
     0
 10
2.9935384263919871
 20
15.07148230785551
 30
0.0
 11
2.9935384263919871
 21
15.07148230785551
 31
0.0
  0
LINE
  5
16436
  8
0
 62
     0
 10
5.8692585887494468
 20
18.292995516863161
 30
0.0
 11
5.8692585887494468
 21
18.292995516863161
 31
0.0
  0
LINE
  5
16437
  8
0
 62
     0
 10
2.0132728984929349
 20
20.749529326224842
 30
0.0
 11
2.0132728984929349
 21
20.749529326224842
 31
0.0
  0
LINE
  5
16438
  8
0
 62
     0
 10
0.9421657623105714
 20
21.431899828825308
 30
0.0
 11
0.9421657623105714
 21
21.431899828825308
 31
0.0
  0
LINE
  5
16439
  8
0
 62
     0
 10
8.8520894647250579
 20
21.44627167561082
 30
0.0
 11
8.8520894647250579
 21
21.44627167561082
 31
0.0
  0
LINE
  5
1643A
  8
0
 62
     0
 10
3.817885924667944
 20
24.653413037833008
 30
0.0
 11
3.817885924667944
 21
24.653413037833008
 31
0.0
  0
LINE
  5
1643B
  8
0
 62
     0
 10
7.8718239368261278
 20
27.124318693980069
 30
0.0
 11
7.8718239368261278
 21
27.124318693980069
 31
0.0
  0
LINE
  5
1643C
  8
0
 62
     0
 10
6.8007168006437642
 20
27.806689196580539
 30
0.0
 11
6.8007168006437642
 21
27.806689196580539
 31
0.0
  0
LINE
  5
1643D
  8
0
 62
     0
 10
1.76651326058665
 20
31.013830558802731
 30
0.0
 11
1.76651326058665
 21
31.013830558802731
 31
0.0
  0
LINE
  5
1643E
  8
0
 62
     0
 10
5.8204512727446627
 20
33.484736214949912
 30
0.0
 11
5.8204512727446627
 21
33.484736214949912
 31
0.0
  0
LINE
  5
1643F
  8
0
 62
     0
 10
4.749344136562299
 20
34.167106717550368
 30
0.0
 11
4.749344136562299
 21
34.167106717550368
 31
0.0
  0
LINE
  5
16440
  8
0
 62
     0
 10
7.6250642989196979
 20
37.388619926558029
 30
0.0
 11
7.6250642989196979
 21
37.388619926558029
 31
0.0
  0
LINE
  5
16441
  8
0
 62
     0
 10
3.769078608663186
 20
39.845153735919709
 30
0.0
 11
3.769078608663186
 21
39.845153735919709
 31
0.0
  0
LINE
  5
16442
  8
0
 62
     0
 10
2.697971472480821
 20
40.527524238520179
 30
0.0
 11
2.697971472480821
 21
40.527524238520179
 31
0.0
  0
LINE
  5
16443
  8
0
 62
     0
 10
5.5736916348382826
 20
43.749037447527833
 30
0.0
 11
5.5736916348382826
 21
43.749037447527833
 31
0.0
  0
LINE
  5
16444
  8
0
 62
     0
 10
8.5586983347236547
 20
-60.733363906378372
 30
0.0
 11
8.5586983347236547
 21
-60.733363906378372
 31
0.0
  0
LINE
  5
16445
  8
0
 62
     0
 10
6.493716977454282
 20
-61.00522385953429
 30
0.0
 11
6.493716977454282
 21
-61.00522385953429
 31
0.0
  0
LINE
  5
16446
  8
0
 62
     0
 10
5.1716252548123061
 20
-61.179280536859729
 30
0.0
 11
5.1716252548123061
 21
-61.179280536859729
 31
0.0
  0
LINE
  5
16447
  8
0
 62
     0
 10
6.2168282575837468
 20
-54.465234574863508
 30
0.0
 11
6.2168282575837468
 21
-54.465234574863508
 31
0.0
  0
LINE
  5
16448
  8
0
 62
     0
 10
4.151846900314375
 20
-54.737094528019441
 30
0.0
 11
4.151846900314375
 21
-54.737094528019441
 31
0.0
  0
LINE
  5
16449
  8
0
 62
     0
 10
2.829755177672399
 20
-54.911151205344872
 30
0.0
 11
2.829755177672399
 21
-54.911151205344872
 31
0.0
  0
LINE
  5
1644A
  8
0
 62
     0
 10
8.6470797316944097
 20
-47.568843522335911
 30
0.0
 11
8.6470797316944097
 21
-47.568843522335911
 31
0.0
  0
LINE
  5
1644B
  8
0
 62
     0
 10
7.324988009052432
 20
-47.742900199661349
 30
0.0
 11
7.324988009052432
 21
-47.742900199661349
 31
0.0
  0
LINE
  5
1644C
  8
0
 62
     0
 10
3.8749581804438469
 20
-48.197105243348688
 30
0.0
 11
3.8749581804438469
 21
-48.197105243348688
 31
0.0
  0
LINE
  5
1644D
  8
0
 62
     0
 10
1.8099768231744751
 20
-48.468965196504612
 30
0.0
 11
1.8099768231744751
 21
-48.468965196504612
 31
0.0
  0
LINE
  5
1644E
  8
0
 62
     0
 10
0.4878851005324989
 20
-48.643021873830051
 30
0.0
 11
0.4878851005324989
 21
-48.643021873830051
 31
0.0
  0
LINE
  5
1644F
  8
0
 62
     0
 10
8.3701910118238132
 20
-41.028854237665151
 30
0.0
 11
8.3701910118238132
 21
-41.028854237665151
 31
0.0
  0
LINE
  5
16450
  8
0
 62
     0
 10
6.3052096545544423
 20
-41.300714190821083
 30
0.0
 11
6.3052096545544423
 21
-41.300714190821083
 31
0.0
  0
LINE
  5
16451
  8
0
 62
     0
 10
4.9831179319124663
 20
-41.474770868146521
 30
0.0
 11
4.9831179319124663
 21
-41.474770868146521
 31
0.0
  0
LINE
  5
16452
  8
0
 62
     0
 10
1.5330881033038799
 20
-41.928975911833859
 30
0.0
 11
1.5330881033038799
 21
-41.928975911833859
 31
0.0
  0
LINE
  5
16453
  8
0
 62
     0
 10
6.0283209346837987
 20
-34.76072490615033
 30
0.0
 11
6.0283209346837987
 21
-34.76072490615033
 31
0.0
  0
LINE
  5
16454
  8
0
 62
     0
 10
3.9633395774144269
 20
-35.032584859306262
 30
0.0
 11
3.9633395774144269
 21
-35.032584859306262
 31
0.0
  0
LINE
  5
16455
  8
0
 62
     0
 10
2.6412478547724509
 20
-35.206641536631693
 30
0.0
 11
2.6412478547724509
 21
-35.206641536631693
 31
0.0
  0
LINE
  5
16456
  8
0
 62
     0
 10
8.4585724087945735
 20
-27.8643338536227
 30
0.0
 11
8.4585724087945735
 21
-27.8643338536227
 31
0.0
  0
LINE
  5
16457
  8
0
 62
     0
 10
7.1364806861525958
 20
-28.038390530948138
 30
0.0
 11
7.1364806861525958
 21
-28.038390530948138
 31
0.0
  0
LINE
  5
16458
  8
0
 62
     0
 10
3.6864508575440111
 20
-28.49259557463547
 30
0.0
 11
3.6864508575440111
 21
-28.49259557463547
 31
0.0
  0
LINE
  5
16459
  8
0
 62
     0
 10
1.621469500274638
 20
-28.764455527791402
 30
0.0
 11
1.621469500274638
 21
-28.764455527791402
 31
0.0
  0
LINE
  5
1645A
  8
0
 62
     0
 10
0.2993777776326627
 20
-28.93851220511683
 30
0.0
 11
0.2993777776326627
 21
-28.93851220511683
 31
0.0
  0
LINE
  5
1645B
  8
0
 62
     0
 10
8.1816836889240907
 20
-21.324344568951911
 30
0.0
 11
8.1816836889240907
 21
-21.324344568951911
 31
0.0
  0
LINE
  5
1645C
  8
0
 62
     0
 10
6.116702331654718
 20
-21.596204522107829
 30
0.0
 11
6.116702331654718
 21
-21.596204522107829
 31
0.0
  0
LINE
  5
1645D
  8
0
 62
     0
 10
4.7946106090127421
 20
-21.770261199433271
 30
0.0
 11
4.7946106090127421
 21
-21.770261199433271
 31
0.0
  0
LINE
  5
1645E
  8
0
 62
     0
 10
1.3445807804041561
 20
-22.224466243120609
 30
0.0
 11
1.3445807804041561
 21
-22.224466243120609
 31
0.0
  0
LINE
  5
1645F
  8
0
 62
     0
 10
5.8398136117840771
 20
-15.05621523743708
 30
0.0
 11
5.8398136117840771
 21
-15.05621523743708
 31
0.0
  0
LINE
  5
16460
  8
0
 62
     0
 10
3.7748322545147039
 20
-15.328075190592999
 30
0.0
 11
3.7748322545147039
 21
-15.328075190592999
 31
0.0
  0
LINE
  5
16461
  8
0
 62
     0
 10
2.452740531872728
 20
-15.50213186791844
 30
0.0
 11
2.452740531872728
 21
-15.50213186791844
 31
0.0
  0
LINE
  5
16462
  8
0
 62
     0
 10
7.9931763660241417
 20
-1.61983490023871
 30
0.0
 11
7.9931763660241417
 21
-1.61983490023871
 31
0.0
  0
LINE
  5
16463
  8
0
 62
     0
 10
5.9281950087547699
 20
-1.8916948533946341
 30
0.0
 11
5.9281950087547699
 21
-1.8916948533946341
 31
0.0
  0
LINE
  5
16464
  8
0
 62
     0
 10
4.606103286112794
 20
-2.065751530720072
 30
0.0
 11
4.606103286112794
 21
-2.065751530720072
 31
0.0
  0
LINE
  5
16465
  8
0
 62
     0
 10
1.1560734575042091
 20
-2.5199565744074079
 30
0.0
 11
1.1560734575042091
 21
-2.5199565744074079
 31
0.0
  0
LINE
  5
16466
  8
0
 62
     0
 10
5.6513062888843519
 20
4.648294431276164
 30
0.0
 11
5.6513062888843519
 21
4.648294431276164
 31
0.0
  0
LINE
  5
16467
  8
0
 62
     0
 10
3.586324931614981
 20
4.3764344781202409
 30
0.0
 11
3.586324931614981
 21
4.3764344781202409
 31
0.0
  0
LINE
  5
16468
  8
0
 62
     0
 10
2.2642332089730042
 20
4.2023778007948032
 30
0.0
 11
2.2642332089730042
 21
4.2023778007948032
 31
0.0
  0
LINE
  5
16469
  8
0
 62
     0
 10
3.3094362117444769
 20
10.916423762791
 30
0.0
 11
3.3094362117444769
 21
10.916423762791
 31
0.0
  0
LINE
  5
1646A
  8
0
 62
     0
 10
1.2444548544750369
 20
10.644563809635081
 30
0.0
 11
1.2444548544750369
 21
10.644563809635081
 31
0.0
  0
LINE
  5
1646B
  8
0
 62
     0
 10
8.081557762995029
 20
11.54468548380378
 30
0.0
 11
8.081557762995029
 21
11.54468548380378
 31
0.0
  0
LINE
  5
1646C
  8
0
 62
     0
 10
6.7594660403530522
 20
11.37062880647834
 30
0.0
 11
6.7594660403530522
 21
11.37062880647834
 31
0.0
  0
LINE
  5
1646D
  8
0
 62
     0
 10
7.8046690431244183
 20
18.084674768474539
 30
0.0
 11
7.8046690431244183
 21
18.084674768474539
 31
0.0
  0
LINE
  5
1646E
  8
0
 62
     0
 10
5.7396876858550456
 20
17.812814815318621
 30
0.0
 11
5.7396876858550456
 21
17.812814815318621
 31
0.0
  0
LINE
  5
1646F
  8
0
 62
     0
 10
4.4175959632130697
 20
17.638758137993179
 30
0.0
 11
4.4175959632130697
 21
17.638758137993179
 31
0.0
  0
LINE
  5
16470
  8
0
 62
     0
 10
0.9675661346044847
 20
17.184553094305841
 30
0.0
 11
0.9675661346044847
 21
17.184553094305841
 31
0.0
  0
LINE
  5
16471
  8
0
 62
     0
 10
8.9128287945932172
 20
24.807009143676751
 30
0.0
 11
8.9128287945932172
 21
24.807009143676751
 31
0.0
  0
LINE
  5
16472
  8
0
 62
     0
 10
5.4627989659846303
 20
24.35280409998941
 30
0.0
 11
5.4627989659846303
 21
24.35280409998941
 31
0.0
  0
LINE
  5
16473
  8
0
 62
     0
 10
3.3978176087152572
 20
24.080944146833492
 30
0.0
 11
3.3978176087152572
 21
24.080944146833492
 31
0.0
  0
LINE
  5
16474
  8
0
 62
     0
 10
2.0757258860732808
 20
23.90688746950805
 30
0.0
 11
2.0757258860732808
 21
23.90688746950805
 31
0.0
  0
LINE
  5
16475
  8
0
 62
     0
 10
7.8930504400952897
 20
31.249195152517011
 30
0.0
 11
7.8930504400952897
 21
31.249195152517011
 31
0.0
  0
LINE
  5
16476
  8
0
 62
     0
 10
6.5709587174533137
 20
31.075138475191579
 30
0.0
 11
6.5709587174533137
 21
31.075138475191579
 31
0.0
  0
LINE
  5
16477
  8
0
 62
     0
 10
3.1209288888447282
 20
30.620933431504241
 30
0.0
 11
3.1209288888447282
 21
30.620933431504241
 31
0.0
  0
LINE
  5
16478
  8
0
 62
     0
 10
1.0559475315753559
 20
30.34907347834832
 30
0.0
 11
1.0559475315753559
 21
30.34907347834832
 31
0.0
  0
LINE
  5
16479
  8
0
 62
     0
 10
7.6161617202245822
 20
37.789184437187778
 30
0.0
 11
7.6161617202245822
 21
37.789184437187778
 31
0.0
  0
LINE
  5
1647A
  8
0
 62
     0
 10
5.5511803629552086
 20
37.517324484031853
 30
0.0
 11
5.5511803629552086
 21
37.517324484031853
 31
0.0
  0
LINE
  5
1647B
  8
0
 62
     0
 10
4.2290886403132326
 20
37.343267806706422
 30
0.0
 11
4.2290886403132326
 21
37.343267806706422
 31
0.0
  0
LINE
  5
1647C
  8
0
 62
     0
 10
0.7790588117046476
 20
36.889062763019083
 30
0.0
 11
0.7790588117046476
 21
36.889062763019083
 31
0.0
  0
LINE
  5
1647D
  8
0
 62
     0
 10
8.7243214716932656
 20
44.511518812389951
 30
0.0
 11
8.7243214716932656
 21
44.511518812389951
 31
0.0
  0
LINE
  5
1647E
  8
0
 62
     0
 10
5.2742916430846796
 20
44.05731376870262
 30
0.0
 11
5.2742916430846796
 21
44.05731376870262
 31
0.0
  0
LINE
  5
1647F
  8
0
 62
     0
 10
3.2093102858153082
 20
43.785453815546688
 30
0.0
 11
3.2093102858153082
 21
43.785453815546688
 31
0.0
  0
LINE
  5
16480
  8
0
 62
     0
 10
1.887218563173332
 20
43.61139713822125
 30
0.0
 11
1.887218563173332
 21
43.61139713822125
 31
0.0
  0
LINE
  5
16481
  8
0
 62
     0
 10
8.2992554627512423
 20
-60.099467008910388
 30
0.0
 11
8.2992554627512423
 21
-60.099467008910388
 31
0.0
  0
LINE
  5
16482
  8
0
 62
     0
 10
8.1392523331528608
 20
-55.205334635616929
 30
0.0
 11
8.1392523331528608
 21
-55.205334635616929
 31
0.0
  0
LINE
  5
16483
  8
0
 62
     0
 10
5.076273756956458
 20
-57.555640760733802
 30
0.0
 11
5.076273756956458
 21
-57.555640760733802
 31
0.0
  0
LINE
  5
16484
  8
0
 62
     0
 10
1.8017078449043851
 20
-60.06830355896728
 30
0.0
 11
1.8017078449043851
 21
-60.06830355896728
 31
0.0
  0
LINE
  5
16485
  8
0
 62
     0
 10
7.9792492035542066
 20
-50.311202262323569
 30
0.0
 11
7.9792492035542066
 21
-50.311202262323569
 31
0.0
  0
LINE
  5
16486
  8
0
 62
     0
 10
4.9162706273578047
 20
-52.661508387440442
 30
0.0
 11
4.9162706273578047
 21
-52.661508387440442
 31
0.0
  0
LINE
  5
16487
  8
0
 62
     0
 10
1.6417047153057309
 20
-55.174171185673941
 30
0.0
 11
1.6417047153057309
 21
-55.174171185673941
 31
0.0
  0
LINE
  5
16488
  8
0
 62
     0
 10
7.8192460739558518
 20
-45.41706988903023
 30
0.0
 11
7.8192460739558518
 21
-45.41706988903023
 31
0.0
  0
LINE
  5
16489
  8
0
 62
     0
 10
4.7562674977594499
 20
-47.767376014147089
 30
0.0
 11
4.7562674977594499
 21
-47.767376014147089
 31
0.0
  0
LINE
  5
1648A
  8
0
 62
     0
 10
1.4817015857073761
 20
-50.280038812380589
 30
0.0
 11
1.4817015857073761
 21
-50.280038812380589
 31
0.0
  0
LINE
  5
1648B
  8
0
 62
     0
 10
7.6592429443577439
 20
-40.522937515736587
 30
0.0
 11
7.6592429443577439
 21
-40.522937515736587
 31
0.0
  0
LINE
  5
1648C
  8
0
 62
     0
 10
4.596264368161342
 20
-42.87324364085346
 30
0.0
 11
4.596264368161342
 21
-42.87324364085346
 31
0.0
  0
LINE
  5
1648D
  8
0
 62
     0
 10
1.3216984561092691
 20
-45.385906439086959
 30
0.0
 11
1.3216984561092691
 21
-45.385906439086959
 31
0.0
  0
LINE
  5
1648E
  8
0
 62
     0
 10
7.4992398147591617
 20
-35.628805142443262
 30
0.0
 11
7.4992398147591617
 21
-35.628805142443262
 31
0.0
  0
LINE
  5
1648F
  8
0
 62
     0
 10
4.4362612385627598
 20
-37.979111267560121
 30
0.0
 11
4.4362612385627598
 21
-37.979111267560121
 31
0.0
  0
LINE
  5
16490
  8
0
 62
     0
 10
1.1616953265106871
 20
-40.491774065793606
 30
0.0
 11
1.1616953265106871
 21
-40.491774065793606
 31
0.0
  0
LINE
  5
16491
  8
0
 62
     0
 10
7.3392366851608069
 20
-30.734672769149899
 30
0.0
 11
7.3392366851608069
 21
-30.734672769149899
 31
0.0
  0
LINE
  5
16492
  8
0
 62
     0
 10
4.2762581089644049
 20
-33.084978894266769
 30
0.0
 11
4.2762581089644049
 21
-33.084978894266769
 31
0.0
  0
LINE
  5
16493
  8
0
 62
     0
 10
1.001692196912332
 20
-35.597641692500261
 30
0.0
 11
1.001692196912332
 21
-35.597641692500261
 31
0.0
  0
LINE
  5
16494
  8
0
 62
     0
 10
7.1792335555623392
 20
-25.84054039585649
 30
0.0
 11
7.1792335555623392
 21
-25.84054039585649
 31
0.0
  0
LINE
  5
16495
  8
0
 62
     0
 10
4.1162549793659373
 20
-28.190846520973359
 30
0.0
 11
4.1162549793659373
 21
-28.190846520973359
 31
0.0
  0
LINE
  5
16496
  8
0
 62
     0
 10
0.8416890673138636
 20
-30.703509319206859
 30
0.0
 11
0.8416890673138636
 21
-30.703509319206859
 31
0.0
  0
LINE
  5
16497
  8
0
 62
     0
 10
7.0192304259640501
 20
-20.946408022562949
 30
0.0
 11
7.0192304259640501
 21
-20.946408022562949
 31
0.0
  0
LINE
  5
16498
  8
0
 62
     0
 10
3.9562518497676491
 20
-23.296714147679818
 30
0.0
 11
3.9562518497676491
 21
-23.296714147679818
 31
0.0
  0
LINE
  5
16499
  8
0
 62
     0
 10
0.6816859377155757
 20
-25.809376945913311
 30
0.0
 11
0.6816859377155757
 21
-25.809376945913311
 31
0.0
  0
LINE
  5
1649A
  8
0
 62
     0
 10
6.8592272963655807
 20
-16.052275649269589
 30
0.0
 11
6.8592272963655807
 21
-16.052275649269589
 31
0.0
  0
LINE
  5
1649B
  8
0
 62
     0
 10
3.7962487201691801
 20
-18.402581774386459
 30
0.0
 11
3.7962487201691801
 21
-18.402581774386459
 31
0.0
  0
LINE
  5
1649C
  8
0
 62
     0
 10
0.5216828081171072
 20
-20.915244572619962
 30
0.0
 11
0.5216828081171072
 21
-20.915244572619962
 31
0.0
  0
LINE
  5
1649D
  8
0
 62
     0
 10
6.6992241667671131
 20
-11.15814327597619
 30
0.0
 11
6.6992241667671131
 21
-11.15814327597619
 31
0.0
  0
LINE
  5
1649E
  8
0
 62
     0
 10
3.6362455905707121
 20
-13.50844940109306
 30
0.0
 11
3.6362455905707121
 21
-13.50844940109306
 31
0.0
  0
LINE
  5
1649F
  8
0
 62
     0
 10
0.3616796785186386
 20
-16.021112199326549
 30
0.0
 11
0.3616796785186386
 21
-16.021112199326549
 31
0.0
  0
LINE
  5
164A0
  8
0
 62
     0
 10
6.5392210371686241
 20
-6.2640109026828332
 30
0.0
 11
6.5392210371686241
 21
-6.2640109026828332
 31
0.0
  0
LINE
  5
164A1
  8
0
 62
     0
 10
0.2016765489201704
 20
-11.126979826033139
 30
0.0
 11
0.2016765489201704
 21
-11.126979826033139
 31
0.0
  0
LINE
  5
164A2
  8
0
 62
     0
 10
6.37921790757047
 20
-1.3698785293892941
 30
0.0
 11
6.37921790757047
 21
-1.3698785293892941
 31
0.0
  0
LINE
  5
164A3
  8
0
 62
     0
 10
3.316239331374069
 20
-3.7201846545061632
 30
0.0
 11
3.316239331374069
 21
-3.7201846545061632
 31
0.0
  0
LINE
  5
164A4
  8
0
 62
     0
 10
0.041673419321996
 20
-6.2328474527396569
 30
0.0
 11
0.041673419321996
 21
-6.2328474527396569
 31
0.0
  0
LINE
  5
164A5
  8
0
 62
     0
 10
6.2192147779718221
 20
3.5242538439039741
 30
0.0
 11
6.2192147779718221
 21
3.5242538439039741
 31
0.0
  0
LINE
  5
164A6
  8
0
 62
     0
 10
3.1562362017754202
 20
1.173947718787105
 30
0.0
 11
3.1562362017754202
 21
1.173947718787105
 31
0.0
  0
LINE
  5
164A7
  8
0
 62
     0
 10
2.9962330721770178
 20
6.0680800920805931
 30
0.0
 11
2.9962330721770178
 21
6.0680800920805931
 31
0.0
  0
LINE
  5
164A8
  8
0
 62
     0
 10
5.8992085187751311
 20
13.31251859049098
 30
0.0
 11
5.8992085187751311
 21
13.31251859049098
 31
0.0
  0
LINE
  5
164A9
  8
0
 62
     0
 10
2.8362299425787301
 20
10.96221246537411
 30
0.0
 11
2.8362299425787301
 21
10.96221246537411
 31
0.0
  0
LINE
  5
164AA
  8
0
 62
     0
 10
5.7392053891766626
 20
18.206650963784352
 30
0.0
 11
5.7392053891766626
 21
18.206650963784352
 31
0.0
  0
LINE
  5
164AB
  8
0
 62
     0
 10
2.6762268129802611
 20
15.856344838667489
 30
0.0
 11
2.6762268129802611
 21
15.856344838667489
 31
0.0
  0
LINE
  5
164AC
  8
0
 62
     0
 10
5.5792022595783752
 20
23.10078333707779
 30
0.0
 11
5.5792022595783752
 21
23.10078333707779
 31
0.0
  0
LINE
  5
164AD
  8
0
 62
     0
 10
2.5162236833819742
 20
20.75047721196092
 30
0.0
 11
2.5162236833819742
 21
20.75047721196092
 31
0.0
  0
LINE
  5
164AE
  8
0
 62
     0
 10
8.8448988533574582
 20
30.623547560830851
 30
0.0
 11
8.8448988533574582
 21
30.623547560830851
 31
0.0
  0
LINE
  5
164AF
  8
0
 62
     0
 10
5.4191991299799058
 20
27.994915710371188
 30
0.0
 11
5.4191991299799058
 21
27.994915710371188
 31
0.0
  0
LINE
  5
164B0
  8
0
 62
     0
 10
2.3562205537835048
 20
25.644609585254329
 30
0.0
 11
2.3562205537835048
 21
25.644609585254329
 31
0.0
  0
LINE
  5
164B1
  8
0
 62
     0
 10
8.6848957237588778
 20
35.517679934124253
 30
0.0
 11
8.6848957237588778
 21
35.517679934124253
 31
0.0
  0
LINE
  5
164B2
  8
0
 62
     0
 10
5.2591960003813236
 20
32.889048083664598
 30
0.0
 11
5.2591960003813236
 21
32.889048083664598
 31
0.0
  0
LINE
  5
164B3
  8
0
 62
     0
 10
2.1962174241849231
 20
30.538741958547732
 30
0.0
 11
2.1962174241849231
 21
30.538741958547732
 31
0.0
  0
LINE
  5
164B4
  8
0
 62
     0
 10
8.5248925941605211
 20
40.411812307417598
 30
0.0
 11
8.5248925941605211
 21
40.411812307417598
 31
0.0
  0
LINE
  5
164B5
  8
0
 62
     0
 10
5.0991928707829688
 20
37.78318045695795
 30
0.0
 11
5.0991928707829688
 21
37.78318045695795
 31
0.0
  0
LINE
  5
164B6
  8
0
 62
     0
 10
2.0362142945865682
 20
35.432874331841077
 30
0.0
 11
2.0362142945865682
 21
35.432874331841077
 31
0.0
  0
LINE
  5
164B7
  8
0
 62
     0
 10
4.9391897411846823
 20
42.677312830251488
 30
0.0
 11
4.9391897411846823
 21
42.677312830251488
 31
0.0
  0
LINE
  5
164B8
  8
0
 62
     0
 10
1.87621116498828
 20
40.327006705134622
 30
0.0
 11
1.87621116498828
 21
40.327006705134622
 31
0.0
  0
ENDBLK
  5
164BA
  8
0
  0
BLOCK
  8
0
  2
*U164
 70
     1
 10
0.0
 20
0.0
 30
0.0
  3
*U164
  1

  0
TEXT
  5
164BC
  8
1DIM
 62
   201
 10
-31.153865476029861
 20
54.018296023885341
 30
0.0
 40
3.5
  1
裏板9mm以上
  0
ENDBLK
  5
164BE
  8
0
  0
BLOCK
  8
0
  2
*U165
 70
     1
 10
0.0
 20
0.0
 30
0.0
  3
*U165
  1

  0
SOLID
  5
164C0
  8
1DIM
 10
12.044443127533439
 20
38.726957896894412
 30
0.0
 11
13.168864624287609
 21
37.039715350978668
 31
0.0
 12
11.55800886922316
 22
38.271078354924647
 32
0.0
 13
11.55800886922316
 23
38.271078354924647
 33
0.0
  0
POLYLINE
  5
164C1
  8
1DIM
 66
     1
 10
0.0
 20
0.0
 30
0.0
  0
VERTEX
  5
164C2
  8
1DIM
 10
11.8012259983783
 20
38.499018125909529
 30
0.0
  0
VERTEX
  5
164C3
  8
1DIM
 10
-2.0871988093631928
 20
53.318296023885338
 30
0.0
  0
VERTEX
  5
164C4
  8
1DIM
 10
-33.987198809363193
 20
53.318296023885338
 30
0.0
  0
SEQEND
  5
164C5
  8
1DIM
  0
ENDBLK
  5
164C7
  8
0
  0
BLOCK
  8
0
  2
*U166
 70
     1
 10
0.0
 20
0.0
 30
0.0
  3
*U166
  1

  0
LINE
  5
164C9
  8
0
 10
-0.3500000000000227
 20
2.0
 30
0.0
 11
0.0
 21
1.649999999999977
 31
0.0
  0
LINE
  5
164CA
  8
0
 10
-10.20000000000004
 20
2.0
 30
0.0
 11
-0.3500000000000227
 21
2.0
 31
0.0
  0
LINE
  5
164CB
  8
0
 10
0.0
 20
1.649999999999977
 30
0.0
 11
0.0
 21
-1.6499999999998629
 31
0.0
  0
LINE
  5
164CC
  8
0
 10
-12.0
 20
0.2000000000000028
 30
0.0
 11
-10.20000000000004
 21
2.0
 31
0.0
  0
LINE
  5
164CD
  8
0
 10
0.0
 20
-1.6499999999998629
 30
0.0
 11
-0.3500000000000227
 21
-2.0
 31
0.0
  0
LINE
  5
164CE
  8
0
 10
-12.0
 20
0.2000000000000028
 30
0.0
 11
-12.0
 21
-0.200000000000017
 31
0.0
  0
LINE
  5
164CF
  8
0
 10
-10.19999999999999
 20
-1.9999999999999849
 30
0.0
 11
-0.3500000000000227
 21
-2.0
 31
0.0
  0
LINE
  5
164D0
  8
0
 10
-12.0
 20
-0.200000000000017
 30
0.0
 11
-10.19999999999999
 21
-1.9999999999999849
 31
0.0
  0
ENDBLK
  5
164D2
  8
0
  0
BLOCK
  8
0
  2
*U167
 70
     1
 10
0.0
 20
0.0
 30
0.0
  3
*U167
  1

  0
LINE
  5
164D4
  8
0
 10
-7.9999999999999991
 20
2.5
 30
0.0
 11
-7.9999978000002088
 21
2.4999999999999432
 31
0.0
  0
LINE
  5
164D5
  8
0
 10
-7.9999999999999991
 20
-2.4999999999999432
 30
0.0
 11
-7.9999999999999991
 21
2.5
 31
0.0
  0
LINE
  5
164D6
  8
0
 10
-7.9999978000002088
 20
2.4999999999999432
 30
0.0
 11
-7.4999979000001629
 21
3.0
 31
0.0
  0
LINE
  5
164D7
  8
0
 10
-8.0000021000010921
 20
-2.4999999999999432
 30
0.0
 11
-7.9999999999999991
 21
-2.4999999999999432
 31
0.0
  0
LINE
  5
164D8
  8
0
 10
-7.4999979000001629
 20
3.0
 30
0.0
 11
-1.999998199999983
 21
3.0
 31
0.0
  0
LINE
  5
164D9
  8
0
 10
-7.5000018999986429
 20
-3.000000000000056
 30
0.0
 11
-8.0000021000010921
 21
-2.4999999999999432
 31
0.0
  0
LINE
  5
164DA
  8
0
 10
-1.999998199999983
 20
3.0
 30
0.0
 11
-1.49999999999998
 21
2.0
 31
0.0
  0
LINE
  5
164DB
  8
0
 10
-1.999998199999959
 20
-2.9999999999999432
 30
0.0
 11
-7.5000018999986429
 21
-3.000000000000056
 31
0.0
  0
LINE
  5
164DC
  8
0
 10
-1.49999999999998
 20
2.0
 30
0.0
 11
-0.5000000000000004
 21
2.0
 31
0.0
  0
LINE
  5
164DD
  8
0
 10
-1.50000000000001
 20
-2.0
 30
0.0
 11
-1.999998199999959
 21
-2.9999999999999432
 31
0.0
  0
ARC
  5
164DE
  8
0
 10
-0.5000000000000006
 20
1.5
 30
0.0
 40
0.5000000000000004
 50
0.0
 51
90.0
  0
LINE
  5
164DF
  8
0
 10
-0.5
 20
-2.0
 30
0.0
 11
-1.50000000000001
 21
-2.0
 31
0.0
  0
LINE
  5
164E0
  8
0
 10
-0.0000000000000001
 20
1.5
 30
0.0
 11
-0.0000000000000001
 21
-1.5
 31
0.0
  0
ARC
  5
164E1
  8
0
 10
-0.5
 20
-1.5
 30
0.0
 40
0.5
 50
270.0
 51
0.0
  0
ENDBLK
  5
164E3
  8
0
  0
BLOCK
  8
0
  2
*U168
 70
     1
 10
0.0
 20
0.0
 30
0.0
  3
*U168
  1

  0
LINE
  5
164E5
  8
1HATCH
 10
-1.5
 20
2.000000000000056
 30
0.0
 11
-1.7499990999999879
 21
2.5
 31
0.0
  0
LINE
  5
164E6
  8
1HATCH
 10
-1.7499990999999879
 20
2.5
 30
0.0
 11
-7.999997800000223
 21
2.5
 31
0.0
  0
LINE
  5
164E7
  8
1HATCH
 10
-1.5
 20
-2.000000000000056
 30
0.0
 11
-1.5
 21
2.000000000000056
 31
0.0
  0
LINE
  5
164E8
  8
1HATCH
 10
-7.999997800000223
 20
2.5
 30
0.0
 11
-7.9999999999999991
 21
2.4999977999997318
 31
0.0
  0
LINE
  5
164E9
  8
1HATCH
 10
-1.749999099999981
 20
-2.5
 30
0.0
 11
-1.5
 21
-2.000000000000056
 31
0.0
  0
LINE
  5
164EA
  8
1HATCH
 10
-7.9999999999999991
 20
2.4999977999997318
 30
0.0
 11
-7.9999999999999991
 21
-2.5
 31
0.0
  0
LINE
  5
164EB
  8
1HATCH
 10
-7.9999999999999991
 20
-2.5
 30
0.0
 11
-1.749999099999981
 21
-2.5
 31
0.0
  0
ENDBLK
  5
164ED
  8
0
  0
BLOCK
  8
0
  2
*U169
 70
     1
 10
0.0
 20
0.0
 30
0.0
  3
*U169
  1

  0
LINE
  5
164EF
  8
1HATCH
 10
-1.9999981999999989
 20
3.000000000000056
 30
0.0
 11
-7.4999979000001362
 21
3.0
 31
0.0
  0
LINE
  5
164F0
  8
1HATCH
 10
-7.4999979000001362
 20
3.0
 30
0.0
 11
-7.999997800000143
 21
2.5
 31
0.0
  0
LINE
  5
164F1
  8
1HATCH
 10
-1.749999099999983
 20
2.5
 30
0.0
 11
-1.9999981999999989
 21
3.000000000000056
 31
0.0
  0
LINE
  5
164F2
  8
1HATCH
 10
-7.999997800000143
 20
2.5
 30
0.0
 11
-1.749999099999983
 21
2.5
 31
0.0
  0
ENDBLK
  5
164F4
  8
0
  0
BLOCK
  8
0
  2
*U170
 70
     1
 10
0.0
 20
0.0
 30
0.0
  3
*U170
  1

  0
ARC
  5
164F6
  8
1HATCH
 10
-0.5000000000000002
 20
1.5
 30
0.0
 40
0.5000000000000002
 50
0.0
 51
90.000000000000028
  0
LINE
  5
164F7
  8
1HATCH
 10
-0.5000000000000004
 20
2.0
 30
0.0
 11
-1.5
 21
2.0
 31
0.0
  0
LINE
  5
164F8
  8
1HATCH
 10
0.0
 20
-1.5
 30
0.0
 11
0.0
 21
1.5
 31
0.0
  0
LINE
  5
164F9
  8
1HATCH
 10
-1.5
 20
2.0
 30
0.0
 11
-1.5
 21
-2.0
 31
0.0
  0
ARC
  5
164FA
  8
1HATCH
 10
-0.5
 20
-1.5
 30
0.0
 40
0.5
 50
270.0
 51
0.0
  0
LINE
  5
164FB
  8
1HATCH
 10
-1.5
 20
-2.0
 30
0.0
 11
-0.5
 21
-2.0
 31
0.0
  0
ENDBLK
  5
164FD
  8
0
  0
BLOCK
  8
0
  2
*U171
 70
     1
 10
0.0
 20
0.0
 30
0.0
  3
*U171
  1

  0
LINE
  5
164FF
  8
0
 10
-14.649999999999981
 20
2.0
 30
0.0
 11
-0.0000000000000284
 21
2.0
 31
0.0
  0
LINE
  5
16500
  8
0
 10
-14.649999999999981
 20
2.0
 30
0.0
 11
-15.0
 21
1.649999999999977
 31
0.0
  0
LINE
  5
16501
  8
0
 10
0.0
 20
3.4999999999999432
 30
0.0
 11
-0.0000000000000284
 21
2.0
 31
0.0
  0
LINE
  5
16502
  8
0
 10
-15.0
 20
1.649999999999977
 30
0.0
 11
-15.0
 21
-1.6499999999998629
 31
0.0
  0
LINE
  5
16503
  8
0
 10
0.0
 20
3.4999999999999432
 30
0.0
 11
0.5999999999999375
 21
3.4999999999999432
 31
0.0
  0
LINE
  5
16504
  8
0
 10
-15.0
 20
-1.6499999999998629
 30
0.0
 11
-14.649999999999981
 21
-2.0
 31
0.0
  0
ARC
  5
16505
  8
0
 10
0.5999999999999944
 20
1.4999999999999429
 30
0.0
 40
2.0
 50
0.0
 51
90.000000000001606
  0
LINE
  5
16506
  8
0
 10
-14.649999999999981
 20
-2.0
 30
0.0
 11
0.0000000000000568
 21
-2.0
 31
0.0
  0
LINE
  5
16507
  8
0
 10
2.5999999999999939
 20
1.4999999999999429
 30
0.0
 11
2.5999999999999939
 21
-1.5
 31
0.0
  0
LINE
  5
16508
  8
0
 10
0.0000000000000568
 20
-2.0
 30
0.0
 11
0.0
 21
-3.5
 31
0.0
  0
ARC
  5
16509
  8
0
 10
0.5999999999999944
 20
-1.5
 30
0.0
 40
2.0
 50
270.0
 51
0.0
  0
LINE
  5
1650A
  8
0
 10
0.0
 20
-3.5
 30
0.0
 11
0.5999999999999944
 21
-3.5
 31
0.0
  0
ENDBLK
  5
1650C
  8
0
  0
BLOCK
  8
0
  2
*U172
 70
     1
 10
0.0
 20
0.0
 30
0.0
  3
*U172
  1

  0
TEXT
  5
1650E
  8
1DIM
 62
   201
 10
-783.8130383149462
 20
-2766.8604544138939
 30
0.0
 40
3.5
  1
105 
 50
90.0
  0
ENDBLK
  5
16510
  8
0
  0
BLOCK
  8
0
  2
*U173
 70
     1
 10
0.0
 20
0.0
 30
0.0
  3
*U173
  1

  0
TEXT
  5
16512
  8
1DIM
 62
   201
 10
-783.8130383149462
 20
-2658.0271210805608
 30
0.0
 40
3.5
  1
φ10
 50
90.0
  0
ENDBLK
  5
16514
  8
0
  0
BLOCK
  8
0
  2
*U174
 70
     1
 10
0.0
 20
0.0
 30
0.0
  3
*U174
  1

  0
TEXT
  5
16516
  8
1DIM
 62
   201
 10
-902.77970498161335
 20
-2752.368787747228
 30
0.0
 40
3.5
  1
21.6 
  0
ENDBLK
  5
16518
  8
0
  0
BLOCK
  8
0
  2
*U175
 70
     1
 10
0.0
 20
0.0
 30
0.0
  3
*U175
  1

  0
TEXT
  5
1651A
  8
1DIM
 62
   201
 10
-783.8130383149462
 20
-2193.8064676947988
 30
0.0
 40
3.5
  1
146 
 50
90.0
  0
ENDBLK
  5
1651C
  8
0
  0
BLOCK
  8
0
  2
*U176
 70
     1
 10
0.0
 20
0.0
 30
0.0
  3
*U176
  1

  0
TEXT
  5
1651E
  8
1DIM
 62
   201
 10
-783.8130383149462
 20
-2044.6814676947979
 30
0.0
 40
3.5
  1
φ10
 50
90.0
  0
ENDBLK
  5
16520
  8
0
  0
BLOCK
  8
0
  2
*U177
 70
     1
 10
0.0
 20
0.0
 30
0.0
  3
*U177
  1

  0
TEXT
  5
16522
  8
1DIM
 62
   201
 10
-903.47970498161055
 20
-2151.0231343614651
 30
0.0
 40
3.5
  1
φ22
  0
ENDBLK
  5
16524
  8
0
  0
BLOCK
  8
0
  2
*U178
 70
     1
 10
0.0
 20
0.0
 30
0.0
  3
*U178
  1

  0
TEXT
  5
16526
  8
1DIM
 62
   201
 10
-901.02970498161005
 20
-2161.0231343614651
 30
0.0
 40
3.5
  1
36 
  0
ENDBLK
  5
16528
  8
0
  0
BLOCK
  8
0
  2
*U179
 70
     1
 10
0.0
 20
0.0
 30
0.0
  3
*U179
  1

  0
TEXT
  5
1652A
  8
1DIM
 62
   201
 10
-773.81303831494631
 20
-2177.3064676947988
 30
0.0
 40
3.5
  1
179 
 50
90.0
  0
ENDBLK
  5
1652C
  8
0
  0
BLOCK
  8
0
  2
*U180
 70
     1
 10
0.0
 20
0.0
 30
0.0
  3
*U180
  1

  0
TEXT
  5
1652E
  8
1DIM
 62
   201
 10
-773.81303831494631
 20
-2762.6521210805608
 30
0.0
 40
3.5
  1
117.5 
 50
90.0
  0
ENDBLK
  5
16530
  8
0
  0
BLOCK
  8
0
  2
*U181
 70
     1
 10
0.0
 20
0.0
 30
0.0
  3
*U181
  1

  0
TEXT
  5
16532
  8
1DIM
 62
   201
 10
-901.90470498161335
 20
-2687.368787747228
 30
0.0
 40
3.5
  1
210 
  0
ENDBLK
  5
16534
  8
0
  0
BLOCK
  8
0
  2
*U182
 70
     1
 10
0.0
 20
0.0
 30
0.0
  3
*U182
  1

  0
TEXT
  5
16536
  8
1DIM
 62
   201
 10
-901.9047049816096
 20
-2073.0231343614651
 30
0.0
 40
3.5
  1
210 
  0
ENDBLK
  5
16538
  8
0
  0
BLOCK
  8
0
  2
*U183
 70
     1
 10
0.0
 20
0.0
 30
0.0
  3
*U183
  1

  0
TEXT
  5
1653A
  8
1DIM
 62
   201
 10
-648.81303831494631
 20
-2695.202121080561
 30
0.0
 40
3.5
  1
8.5 
 50
90.0
  0
ENDBLK
  5
1653C
  8
0
  0
BLOCK
  8
0
  2
*U184
 70
     1
 10
0.0
 20
0.0
 30
0.0
  3
*U184
  1

  0
TEXT
  5
1653E
  8
1DIM
 62
   201
 10
-648.81303831494631
 20
-2717.9021210805608
 30
0.0
 40
3.5
  1
18 
 50
90.0
  0
ENDBLK
  5
16540
  8
0
  0
BLOCK
  8
0
  2
*U185
 70
     1
 10
0.0
 20
0.0
 30
0.0
  3
*U185
  1

  0
TEXT
  5
16542
  8
1DIM
 62
   201
 10
-763.81303831494631
 20
-2718.4854544138939
 30
0.0
 40
3.5
  1
35 
 50
90.0
  0
ENDBLK
  5
16544
  8
0
  0
BLOCK
  8
0
  2
*U186
 70
     1
 10
0.0
 20
0.0
 30
0.0
  3
*U186
  1

  0
TEXT
  5
16546
  8
1DIM
 62
   201
 10
-753.81303831494631
 20
-2709.2771210805608
 30
0.0
 40
3.5
  1
18 
 50
90.0
  0
ENDBLK
  5
16548
  8
0
  0
BLOCK
  8
0
  2
*U187
 70
     1
 10
0.0
 20
0.0
 30
0.0
  3
*U187
  1

  0
TEXT
  5
1654A
  8
1DIM
 62
   201
 10
-718.52970498161335
 20
-2677.368787747228
 30
0.0
 40
3.5
  1
55 
  0
ENDBLK
  5
1654C
  8
0
  0
BLOCK
  8
0
  2
*U188
 70
     1
 10
0.0
 20
0.0
 30
0.0
  3
*U188
  1

  0
TEXT
  5
1654E
  8
1DIM
 62
   201
 10
-712.52970498161335
 20
-2687.368787747228
 30
0.0
 40
3.5
  1
43 
  0
ENDBLK
  5
16550
  8
0
  0
BLOCK
  8
0
  2
*U189
 70
     1
 10
0.0
 20
0.0
 30
0.0
  3
*U189
  1

  0
TEXT
  5
16552
  8
1DIM
 62
   201
 10
-699.44638207116361
 20
-2746.9687251553
 30
0.0
 40
3.5
  1
18 
  0
ENDBLK
  5
16554
  8
0
  0
BLOCK
  8
0
  2
*U190
 70
     1
 10
0.0
 20
0.0
 30
0.0
  3
*U190
  1

  0
TEXT
  5
16556
  8
1DIM
 62
   201
 10
-1424.5159559299491
 20
-2718.4854544138939
 30
0.0
 40
3.5
  1
35 
 50
90.0
  0
ENDBLK
  5
16558
  8
0
  0
BLOCK
  8
0
  2
*U191
 70
     1
 10
0.0
 20
0.0
 30
0.0
  3
*U191
  1

  0
TEXT
  5
1655A
  8
1DIM
 62
   201
 10
-1585.452809191818
 20
-2641.4091199665022
 30
0.0
 40
3.5
  1
55 
 50
90.0
  0
ENDBLK
  5
1655C
  8
0
  0
BLOCK
  8
0
  2
*U192
 70
     1
 10
0.0
 20
0.0
 30
0.0
  3
*U192
  1

  0
TEXT
  5
1655E
  8
1DIM
 62
   201
 10
-1576.310232694035
 20
-2635.4091199665022
 30
0.0
 40
3.5
  1
43 
 50
90.0
  0
ENDBLK
  5
16560
  8
0
  0
BLOCK
  8
0
  2
*U193
 70
     1
 10
0.0
 20
0.0
 30
0.0
  3
*U193
  1

  0
TEXT
  5
16562
  8
1DIM
 62
   201
 10
-1551.95665364825
 20
-2689.4303728124519
 30
0.0
 40
3.5
  1
21.6 
  0
ENDBLK
  5
16564
  8
0
  0
BLOCK
  8
0
  2
*U194
 70
     1
 10
0.0
 20
0.0
 30
0.0
  3
*U194
  1

  0
TEXT
  5
16566
  8
1DIM
 62
   201
 10
-1550.9056373537469
 20
-2681.2576705132301
 30
0.0
 40
3.5
  1
210 
  0
ENDBLK
  5
16568
  8
0
  0
BLOCK
  8
0
  2
*U195
 70
     1
 10
0.0
 20
0.0
 30
0.0
  3
*U195
  1

  0
TEXT
  5
1656A
  8
1DIM
 62
   201
 10
-1433.2378195625381
 20
-2762.6521210805622
 30
0.0
 40
3.5
  1
117.5 
 50
90.0
  0
ENDBLK
  5
1656C
  8
0
  0
BLOCK
  8
0
  2
*U196
 70
     1
 10
0.0
 20
0.0
 30
0.0
  3
*U196
  1

  0
TEXT
  5
1656E
  8
1HATCH
 62
   201
 10
-1658.2888034354021
 20
-2193.8064676947988
 30
0.0
 40
3.5
  1
136 
 50
90.0
  0
ENDBLK
  5
16570
  8
0
  0
BLOCK
  8
0
  2
*U197
 70
     1
 10
0.0
 20
0.0
 30
0.0
  3
*U197
  1

  0
TEXT
  5
16572
  8
1HATCH
 62
   201
 10
-1347.2288223601199
 20
-2119.6866352267211
 30
0.0
 40
3.5
  1
φ58
 50
90.0
  0
ENDBLK
  5
16574
  8
0
  0
BLOCK
  8
0
  2
*U198
 70
     1
 10
0.0
 20
0.0
 30
0.0
  3
*U198
  1

  0
TEXT
  5
16576
  8
1DIM
 62
   201
 10
-1474.0405563031291
 20
-2106.5564676947988
 30
0.0
 40
3.5
  1
17 
 50
90.0
  0
ENDBLK
  5
16578
  8
0
  0
BLOCK
  8
0
  2
*U199
 70
     1
 10
0.0
 20
0.0
 30
0.0
  3
*U199
  1

  0
TEXT
  5
1657A
  8
1DIM
 62
   201
 10
-1481.6576994009979
 20
-2104.0545816948352
 30
0.0
 40
3.5
  1
12 
 50
90.0
  0
ENDBLK
  5
1657C
  8
0
  0
BLOCK
  8
0
  2
*U200
 70
     1
 10
0.0
 20
0.0
 30
0.0
  3
*U200
  1

  0
TEXT
  5
1657E
  8
1HATCH
 62
   201
 10
-1551.1670035594259
 20
-2189.3816513378829
 30
0.0
 40
3.5
  1
200 
  0
ENDBLK
  5
16580
  8
0
  0
BLOCK
  8
0
  2
*U201
 70
     1
 10
0.0
 20
0.0
 30
0.0
  3
*U201
  1

  0
TEXT
  5
16582
  8
1HATCH
 62
   201
 10
-1605.59232115238
 20
-2057.927629448076
 30
0.0
 40
3.5
  1
φ10
 50
90.0
  0
ENDBLK
  5
16584
  8
0
  0
BLOCK
  8
0
  2
*U202
 70
     1
 10
0.0
 20
0.0
 30
0.0
  3
*U202
  1

  0
TEXT
  5
16586
  8
1DIM
 62
   201
 10
-1558.4461316880099
 20
-2081.9985588645468
 30
0.0
 40
3.5
  1
18 
  0
ENDBLK
  5
16588
  8
0
  0
BLOCK
  8
0
  2
*U203
 70
     1
 10
0.0
 20
0.0
 30
0.0
  3
*U203
  1

  0
TEXT
  5
1658A
  8
1DIM
 62
   201
 10
-1540.448476352818
 20
-2081.9985588645468
 30
0.0
 40
3.5
  1
18 
  0
ENDBLK
  5
1658C
  8
0
  0
BLOCK
  8
0
  2
*U204
 70
     1
 10
0.0
 20
0.0
 30
0.0
  3
*U204
  1

  0
TEXT
  5
1658E
  8
1DIM
 62
   201
 10
-1474.0405563031291
 20
-2118.3898010281309
 30
0.0
 40
3.5
  1
9 
 50
90.0
  0
ENDBLK
  5
16590
  8
0
  0
BLOCK
  8
0
  2
*U205
 70
     1
 10
0.0
 20
0.0
 30
0.0
  3
*U205
  1

  0
TEXT
  5
16592
  8
1HATCH
 62
   201
 10
-1411.39069159366
 20
-2068.8695051889331
 30
0.0
 40
3.5
  1
56 
  0
ENDBLK
  5
16594
  8
0
  0
BLOCK
  8
0
  2
*U206
 70
     1
 10
0.0
 20
0.0
 30
0.0
  3
*U206
  1

  0
TEXT
  5
16596
  8
1HATCH
 62
   201
 10
-1407.3174843737961
 20
-2075.9353197703722
 30
0.0
 40
3.5
  1
45 
  0
ENDBLK
  5
16598
  8
0
  0
BLOCK
  8
0
  2
*U207
 70
     1
 10
0.0
 20
0.0
 30
0.0
  3
*U207
  1

  0
TEXT
  5
1659A
  8
1HATCH
 62
   201
 10
-1445.8126159424951
 20
-2127.0898010281321
 30
0.0
 40
3.5
  1
φ22
 50
90.0
  0
ENDBLK
  5
1659C
  8
0
  0
BLOCK
  8
0
  2
*U208
 70
     1
 10
0.0
 20
0.0
 30
0.0
  3
*U208
  1

  0
TEXT
  5
1659E
  8
1DIM
 62
   201
 10
-647.81303831494745
 20
-2092.0564676947988
 30
0.0
 40
3.5
  1
12 
 50
90.0
  0
ENDBLK
  5
165A0
  8
0
  0
BLOCK
  8
0
  2
*U209
 70
     1
 10
0.0
 20
0.0
 30
0.0
  3
*U209
  1

  0
TEXT
  5
165A2
  8
1DIM
 62
   201
 10
-753.81303831494643
 20
-2105.6398010281318
 30
0.0
 40
3.5
  1
38 
 50
90.0
  0
ENDBLK
  5
165A4
  8
0
  0
BLOCK
  8
0
  2
*U210
 70
     1
 10
0.0
 20
0.0
 30
0.0
  3
*U210
  1

  0
TEXT
  5
165A6
  8
1DIM
 62
   201
 10
-763.81303831494643
 20
-2118.0898010281321
 30
0.0
 40
3.5
  1
φ58
 50
90.0
  0
ENDBLK
  5
165A8
  8
0
  0
BLOCK
  8
0
  2
*U211
 70
     1
 10
0.0
 20
0.0
 30
0.0
  3
*U211
  1

  0
TEXT
  5
165AA
  8
1DIM
 62
   201
 10
-712.52970498161415
 20
-2073.023134361466
 30
0.0
 40
3.5
  1
45 
  0
ENDBLK
  5
165AC
  8
0
  0
BLOCK
  8
0
  2
*U212
 70
     1
 10
0.0
 20
0.0
 30
0.0
  3
*U212
  1

  0
TEXT
  5
165AE
  8
1DIM
 62
   201
 10
-647.81303831494745
 20
-2104.0545816948352
 30
0.0
 40
3.5
  1
12 
 50
90.0
  0
ENDBLK
  5
165B0
  8
0
  0
BLOCK
  8
0
  2
*U213
 70
     1
 10
0.0
 20
0.0
 30
0.0
  3
*U213
  1

  0
TEXT
  5
165B2
  8
1DIM
 62
   201
 10
-718.02970498161392
 20
-2063.023134361466
 30
0.0
 40
3.5
  1
56 
  0
ENDBLK
  5
165B4
  8
0
  0
BLOCK
  8
0
  2
*U214
 70
     1
 10
0.0
 20
0.0
 30
0.0
  3
*U214
  1

  0
LINE
  5
165B6
  8
0
 10
-9.6499999999999773
 20
2.0
 30
0.0
 11
-10.0
 21
1.649999999999977
 31
0.0
  0
LINE
  5
165B7
  8
0
 10
-10.0
 20
1.649999999999977
 30
0.0
 11
-10.0
 21
-1.649999999999977
 31
0.0
  0
LINE
  5
165B8
  8
0
 10
-9.6499999999999773
 20
2.0
 30
0.0
 11
-0.3500000000000227
 21
2.0
 31
0.0
  0
LINE
  5
165B9
  8
0
 10
-10.0
 20
-1.649999999999977
 30
0.0
 11
-9.6499999999999773
 21
-2.0
 31
0.0
  0
LINE
  5
165BA
  8
0
 10
-0.3500000000000227
 20
2.0
 30
0.0
 11
0.0
 21
1.649999999999977
 31
0.0
  0
LINE
  5
165BB
  8
0
 10
-9.6499999999999773
 20
-2.0
 30
0.0
 11
-0.3500000000000227
 21
-2.0
 31
0.0
  0
LINE
  5
165BC
  8
0
 10
0.0
 20
1.649999999999977
 30
0.0
 11
0.0
 21
-1.6499999999998629
 31
0.0
  0
LINE
  5
165BD
  8
0
 10
0.0
 20
-1.6499999999998629
 30
0.0
 11
-0.3500000000000227
 21
-2.0
 31
0.0
  0
ENDBLK
  5
165BF
  8
0
  0
BLOCK
  8
0
  2
*U215
 70
     1
 10
0.0
 20
0.0
 30
0.0
  3
*U215
  1

  0
LINE
  5
165C1
  8
0
 10
-9.4999999999350315
 20
2.500013960769365
 30
0.0
 11
-9.4999977999352812
 21
2.5000139607693082
 31
0.0
  0
LINE
  5
165C2
  8
0
 10
-9.4999999999350315
 20
-2.4999860392305768
 30
0.0
 11
-9.4999999999350315
 21
2.500013960769365
 31
0.0
  0
LINE
  5
165C3
  8
0
 10
-9.4999977999352812
 20
2.5000139607693082
 30
0.0
 11
-8.9999978999351651
 21
3.000013960769365
 31
0.0
  0
LINE
  5
165C4
  8
0
 10
-9.5000020999360544
 20
-2.4999860392306341
 30
0.0
 11
-9.4999999999350315
 21
-2.4999860392305768
 31
0.0
  0
LINE
  5
165C5
  8
0
 10
-8.9999978999351651
 20
3.000013960769365
 30
0.0
 11
-3.499998199935054
 21
3.0000139607694218
 31
0.0
  0
LINE
  5
165C6
  8
0
 10
-9.0000018999336504
 20
-2.999986039230691
 30
0.0
 11
-9.5000020999360544
 21
-2.4999860392306341
 31
0.0
  0
LINE
  5
165C7
  8
0
 10
-3.499998199935054
 20
3.0000139607694218
 30
0.0
 11
-2.9999999999350431
 21
2.0000139607694218
 31
0.0
  0
LINE
  5
165C8
  8
0
 10
-3.499998199935022
 20
-2.9999860392306341
 30
0.0
 11
-9.0000018999336504
 21
-2.999986039230691
 31
0.0
  0
LINE
  5
165C9
  8
0
 10
-2.9999999999350431
 20
2.0000139607694218
 30
0.0
 11
-0.4999972078460867
 21
1.9999999999842539
 31
0.0
  0
LINE
  5
165CA
  8
0
 10
-2.9999999999350262
 20
-1.9999860392306339
 30
0.0
 11
-3.499998199935022
 21
-2.9999860392306341
 31
0.0
  0
ARC
  5
165CB
  8
0
 10
-0.5000000000000002
 20
1.4999999999920981
 30
0.0
 40
0.5000000000000001
 50
359.99999999999352
 51
89.999680042729963
  0
LINE
  5
165CC
  8
0
 10
-0.5000027921538731
 20
-1.999999999984424
 30
0.0
 11
-2.9999999999350262
 21
-1.9999860392306339
 31
0.0
  0
LINE
  5
165CD
  8
0
 10
0.0
 20
1.499999999992041
 30
0.0
 11
0.0
 21
-1.5
 31
0.0
  0
ARC
  5
165CE
  8
0
 10
-0.5000000000000001
 20
-1.499999999992212
 30
0.0
 40
0.5000000000000001
 50
269.99968004273472
 51
359.99999999910762
  0
ENDBLK
  5
165D0
  8
0
  0
BLOCK
  8
0
  2
*U216
 70
     1
 10
0.0
 20
0.0
 30
0.0
  3
*U216
  1

  0
LINE
  5
165D2
  8
1HATCH
 10
-2.9999999999350311
 20
2.0000139607693082
 30
0.0
 11
-3.2499990999350699
 21
2.5000139607694218
 31
0.0
  0
LINE
  5
165D3
  8
1HATCH
 10
-3.2499990999350699
 20
2.5000139607694218
 30
0.0
 11
-9.4999977999353256
 21
2.500013960769365
 31
0.0
  0
LINE
  5
165D4
  8
1HATCH
 10
-2.9999999999350311
 20
-1.9999860392306339
 30
0.0
 11
-2.9999999999350311
 21
2.0000139607693082
 31
0.0
  0
LINE
  5
165D5
  8
1HATCH
 10
-9.4999977999353256
 20
2.500013960769365
 30
0.0
 11
-9.4999999999350315
 21
2.5000117607691541
 31
0.0
  0
LINE
  5
165D6
  8
1HATCH
 10
-3.2499990999350059
 20
-2.4999860392306341
 30
0.0
 11
-2.9999999999350311
 21
-1.9999860392306339
 31
0.0
  0
LINE
  5
165D7
  8
1HATCH
 10
-9.4999999999350315
 20
2.5000117607691541
 30
0.0
 11
-9.4999999999350297
 21
-2.499986039230691
 31
0.0
  0
LINE
  5
165D8
  8
1HATCH
 10
-9.4999999999350297
 20
-2.499986039230691
 30
0.0
 11
-3.2499990999350059
 21
-2.4999860392306341
 31
0.0
  0
ENDBLK
  5
165DA
  8
0
  0
BLOCK
  8
0
  2
*U217
 70
     1
 10
0.0
 20
0.0
 30
0.0
  3
*U217
  1

  0
LINE
  5
165DC
  8
1HATCH
 10
-3.4999981999350278
 20
3.000013960769365
 30
0.0
 11
-8.9999978999352148
 21
3.0000139607693082
 31
0.0
  0
LINE
  5
165DD
  8
1HATCH
 10
-8.9999978999352148
 20
3.0000139607693082
 30
0.0
 11
-9.4999977999352954
 21
2.500013960769365
 31
0.0
  0
LINE
  5
165DE
  8
1HATCH
 10
-3.2499990999350499
 20
2.500013960769365
 30
0.0
 11
-3.4999981999350278
 21
3.000013960769365
 31
0.0
  0
LINE
  5
165DF
  8
1HATCH
 10
-9.4999977999352954
 20
2.500013960769365
 30
0.0
 11
-3.2499990999350499
 21
2.500013960769365
 31
0.0
  0
ENDBLK
  5
165E1
  8
0
  0
BLOCK
  8
0
  2
*U218
 70
     1
 10
0.0
 20
0.0
 30
0.0
  3
*U218
  1

  0
LINE
  5
165E3
  8
0
 10
-4.6499999999999773
 20
2.0000000000000142
 30
0.0
 11
-0.3500000000000227
 21
2.0
 31
0.0
  0
LINE
  5
165E4
  8
0
 10
-4.6499999999999773
 20
2.0000000000000142
 30
0.0
 11
-5.0
 21
1.6499999999999631
 31
0.0
  0
LINE
  5
165E5
  8
0
 10
-0.3500000000000227
 20
2.0
 30
0.0
 11
0.0
 21
1.649999999999977
 31
0.0
  0
LINE
  5
165E6
  8
0
 10
-5.0
 20
1.6499999999999631
 30
0.0
 11
-5.0
 21
-1.6499999999998629
 31
0.0
  0
LINE
  5
165E7
  8
0
 10
0.0
 20
1.649999999999977
 30
0.0
 11
0.0
 21
-1.6499999999998629
 31
0.0
  0
LINE
  5
165E8
  8
0
 10
-5.0
 20
-1.6499999999998629
 30
0.0
 11
-4.6499999999999773
 21
-1.9999999999999849
 31
0.0
  0
LINE
  5
165E9
  8
0
 10
0.0
 20
-1.6499999999998629
 30
0.0
 11
-0.3500000000000227
 21
-2.0
 31
0.0
  0
LINE
  5
165EA
  8
0
 10
-4.6499999999999773
 20
-1.9999999999999849
 30
0.0
 11
-0.3500000000000227
 21
-2.0
 31
0.0
  0
ENDBLK
  5
165EC
  8
0
  0
BLOCK
  8
0
  2
*U219
 70
     1
 10
0.0
 20
0.0
 30
0.0
  3
*U219
  1

  0
TEXT
  5
165EE
  8
1DIM
 62
   201
 10
-82.194542258034929
 20
-2818.8001787794342
 30
0.0
 40
3.5
  1
128 
 50
90.0
  0
ENDBLK
  5
165F0
  8
0
  0
BLOCK
  8
0
  2
*U220
 70
     1
 10
0.0
 20
0.0
 30
0.0
  3
*U220
  1

  0
TEXT
  5
165F2
  8
1DIM
 62
   201
 10
-92.194542258034446
 20
-2830.0625883712801
 30
0.0
 40
3.5
  1
105 
 50
90.0
  0
ENDBLK
  5
165F4
  8
0
  0
BLOCK
  8
0
  2
*U221
 70
     1
 10
0.0
 20
0.0
 30
0.0
  3
*U221
  1

  0
TEXT
  5
165F6
  8
1DIM
 62
   201
 10
-6.6195008203803791
 20
-2739.9622915502309
 30
0.0
 40
3.5
  1
40 
  0
ENDBLK
  5
165F8
  8
0
  0
BLOCK
  8
0
  2
*U222
 70
     1
 10
0.0
 20
0.0
 30
0.0
  3
*U222
  1

  0
TEXT
  5
165FA
  8
1DIM
 62
   201
 10
-22.994542258034929
 20
-2729.9622915502309
 30
0.0
 40
3.5
  1
67.5 
  0
ENDBLK
  5
165FC
  8
0
  0
BLOCK
  8
0
  2
*U223
 70
     1
 10
0.0
 20
0.0
 30
0.0
  3
*U223
  1

  0
TEXT
  5
165FE
  8
1DIM
 62
   201
 10
55.305457741965057
 20
-2781.1048220827788
 30
0.0
 40
3.5
  1
18 
 50
90.0
  0
ENDBLK
  5
16600
  8
0
  0
BLOCK
  8
0
  2
*U224
 70
     1
 10
0.0
 20
0.0
 30
0.0
  3
*U224
  1

  0
TEXT
  5
16602
  8
1DIM
 62
   201
 10
55.305457741965057
 20
-2767.7083348959331
 30
0.0
 40
3.5
  1
13.5 
 50
90.0
  0
ENDBLK
  5
16604
  8
0
  0
BLOCK
  8
0
  2
*U225
 70
     1
 10
0.0
 20
0.0
 30
0.0
  3
*U225
  1

  0
TEXT
  5
16606
  8
1DIM
 62
   201
 10
4.6721236084634601
 20
-2810.566348169727
 30
0.0
 40
3.5
  1
18 
  0
ENDBLK
  5
16608
  8
0
  0
BLOCK
  8
0
  2
*U226
 70
     1
 10
0.0
 20
0.0
 30
0.0
  3
*U226
  1

  0
TEXT
  5
1660A
  8
1DIM
 62
   201
 10
-62.194542258034481
 20
-2781.3965120173939
 30
0.0
 40
3.5
  1
30 
 50
90.0
  0
ENDBLK
  5
1660C
  8
0
  0
BLOCK
  8
0
  2
*U227
 70
     1
 10
0.0
 20
0.0
 30
0.0
  3
*U227
  1

  0
TEXT
  5
1660E
  8
1DIM
 62
   201
 10
-72.194542258034474
 20
-2781.7057635100132
 30
0.0
 40
3.5
  1
45 
 50
90.0
  0
ENDBLK
  5
16610
  8
0
  0
BLOCK
  8
0
  2
*U228
 70
     1
 10
0.0
 20
0.0
 30
0.0
  3
*U228
  1

  0
TEXT
  5
16612
  8
1DIM
 62
   201
 10
-185.28622565854371
 20
-2739.9622915502309
 30
0.0
 40
3.5
  1
160 
  0
ENDBLK
  5
16614
  8
0
  0
BLOCK
  8
0
  2
*U229
 70
     1
 10
0.0
 20
0.0
 30
0.0
  3
*U229
  1

  0
TEXT
  5
16616
  8
1DIM
 62
   201
 10
-92.194542258034488
 20
-2720.1872915502322
 30
0.0
 40
3.5
  1
φ10
 50
90.0
  0
ENDBLK
  5
16618
  8
0
  0
BLOCK
  8
0
  2
*U230
 70
     1
 10
0.0
 20
0.0
 30
0.0
  3
*U230
  1

  0
TEXT
  5
1661A
  8
1DIM
 62
   201
 10
-184.1195422580349
 20
-2810.566348169727
 30
0.0
 40
3.5
  1
30 
  0
ENDBLK
  5
1661C
  8
0
  0
BLOCK
  8
0
  2
*U231
 70
     1
 10
0.0
 20
0.0
 30
0.0
  3
*U231
  1

  0
LINE
  5
1661E
  8
0
 10
-11.650013959962349
 20
-1.9997847496487109
 30
0.0
 11
-2.3000325752681761
 21
-1.9999933529384171
 31
0.0
  0
LINE
  5
1661F
  8
0
 10
-0.3000279216296064
 20
-4.0000119674275529
 30
0.0
 11
-2.3000325752681761
 21
-1.9999933529384171
 31
0.0
  0
LINE
  5
16620
  8
0
 10
-12.00001151681753
 20
-1.649782080143495
 30
0.0
 11
-11.650013959962349
 21
-1.9997847496487109
 31
0.0
  0
LINE
  5
16621
  8
0
 10
-0.3000279216296064
 20
-4.0000119674275529
 30
0.0
 11
-0.0000279216418164
 21
-4.0000147595814042
 31
0.0
  0
LINE
  5
16622
  8
0
 10
-11.999988481548071
 20
1.650217919786882
 30
0.0
 11
-12.00001151681753
 21
-1.649782080143495
 31
0.0
  0
LINE
  5
16623
  8
0
 10
0.000027921435759
 20
3.9999852402454499
 30
0.0
 11
-0.0000279216418164
 21
-4.0000147595814042
 31
0.0
  0
LINE
  5
16624
  8
0
 10
-11.999988481548071
 20
1.650217919786882
 30
0.0
 11
-11.64998603842362
 21
2.0002152502640911
 31
0.0
  0
LINE
  5
16625
  8
0
 10
-0.2999720785521447
 20
3.9999880323993011
 30
0.0
 11
0.000027921435759
 21
3.9999852402454499
 31
0.0
  0
LINE
  5
16626
  8
0
 10
-11.64998603842362
 20
2.0002152502640911
 30
0.0
 11
-2.2999767321039282
 21
2.0000066467150641
 31
0.0
  0
LINE
  5
16627
  8
0
 10
-0.2999720785521447
 20
3.9999880323993011
 30
0.0
 11
-2.2999767321039282
 21
2.0000066467150641
 31
0.0
  0
ENDBLK
  5
16629
  8
0
  0
BLOCK
  8
0
  2
*U232
 70
     1
 10
0.0
 20
0.0
 30
0.0
  3
*U232
  1

  0
CIRCLE
  5
1662B
  8
0
 10
0.0
 20
0.0
 30
0.0
 40
4.0
  0
ENDBLK
  5
1662D
  8
0
  0
BLOCK
  8
0
  2
*U233
 70
     1
 10
0.0
 20
0.0
 30
0.0
  3
*U233
  1

  0
TEXT
  5
1662F
  8
1DIM
 62
   201
 10
-654.54585769274672
 20
-1569.4310669818949
 30
0.0
 40
3.5
  1
47 
 50
90.0
  0
ENDBLK
  5
16631
  8
0
  0
BLOCK
  8
0
  2
*U234
 70
     1
 10
0.0
 20
0.0
 30
0.0
  3
*U234
  1

  0
TEXT
  5
16633
  8
1DIM
 62
   201
 10
-538.85600270035218
 20
-1601.386989712141
 30
0.0
 40
3.5
  1
210 
  0
ENDBLK
  5
16635
  8
0
  0
BLOCK
  8
0
  2
*U235
 70
     1
 10
0.0
 20
0.0
 30
0.0
  3
*U235
  1

  0
TEXT
  5
16637
  8
1DIM
 62
   201
 10
-465.4673202212615
 20
-1564.433489224497
 30
0.0
 40
3.5
  1
37.5 
 50
90.0
  0
ENDBLK
  5
16639
  8
0
  0
BLOCK
  8
0
  2
*U236
 70
     1
 10
0.0
 20
0.0
 30
0.0
  3
*U236
  1

  0
TEXT
  5
1663B
  8
1DIM
 62
   201
 10
-471.10689375284039
 20
-1569.2395044511261
 30
0.0
 40
3.5
  1
29 
 50
90.0
  0
ENDBLK
  5
1663D
  8
0
  0
BLOCK
  8
0
  2
*U237
 70
     1
 10
0.0
 20
0.0
 30
0.0
  3
*U237
  1

  0
TEXT
  5
1663F
  8
1DIM
 62
   201
 10
-417.17976504690557
 20
-1586.2388654582369
 30
0.0
 40
3.5
  1
17.5 
 50
90.0
  0
ENDBLK
  5
16641
  8
0
  0
BLOCK
  8
0
  2
*U238
 70
     1
 10
0.0
 20
0.0
 30
0.0
  3
*U238
  1

  0
TEXT
  5
16643
  8
1DIM
 62
   201
 10
-471.12966874375968
 20
-1539.3945034308331
 30
0.0
 40
3.5
  1
8.5 
 50
90.0
  0
ENDBLK
  5
16645
  8
0
  0
BLOCK
  8
0
  2
*U239
 70
     1
 10
0.0
 20
0.0
 30
0.0
  3
*U239
  1

  0
TEXT
  5
16647
  8
1DIM
 62
   201
 10
-651.46287623670617
 20
-1680.4693102978781
 30
0.0
 40
3.5
  1
18 
 50
90.0
  0
ENDBLK
  5
16649
  8
0
  0
BLOCK
  8
0
  2
*U240
 70
     1
 10
0.0
 20
0.0
 30
0.0
  3
*U240
  1

  0
TEXT
  5
1664B
  8
1DIM
 62
   201
 10
-650.47315130017648
 20
-1623.2862977964
 30
0.0
 40
3.5
  1
21 
 50
90.0
  0
ENDBLK
  5
1664D
  8
0
  0
BLOCK
  8
0
  2
*U241
 70
     1
 10
0.0
 20
0.0
 30
0.0
  3
*U241
  1

  0
TEXT
  5
1664F
  8
1DIM
 62
   201
 10
-225.73541833758901
 20
-2128.73520287774
 30
0.0
 40
3.5
  1
18 
 50
90.0
  0
ENDBLK
  5
16651
  8
0
  0
BLOCK
  8
0
  2
*U242
 70
     1
 10
0.0
 20
0.0
 30
0.0
  3
*U242
  1

  0
TEXT
  5
16653
  8
1DIM
 62
   201
 10
-224.74569340105941
 20
-2144.7076541050501
 30
0.0
 40
3.5
  1
21 
 50
90.0
  0
ENDBLK
  5
16655
  8
0
  0
BLOCK
  8
0
  2
*U243
 70
     1
 10
0.0
 20
0.0
 30
0.0
  3
*U243
  1

  0
TEXT
  5
16657
  8
1DIM
 62
   201
 10
-228.8183997936296
 20
-2090.9830912787861
 30
0.0
 40
3.5
  1
47 
 50
90.0
  0
ENDBLK
  5
16659
  8
0
  0
BLOCK
  8
0
  2
*U244
 70
     1
 10
0.0
 20
0.0
 30
0.0
  3
*U244
  1

  0
TEXT
  5
1665B
  8
1DIM
 62
   201
 10
-39.739862322144482
 20
-2085.9855135213879
 30
0.0
 40
3.5
  1
37.5 
 50
90.0
  0
ENDBLK
  5
1665D
  8
0
  0
BLOCK
  8
0
  2
*U245
 70
     1
 10
0.0
 20
0.0
 30
0.0
  3
*U245
  1

  0
TEXT
  5
1665F
  8
1DIM
 62
   201
 10
-45.402210844642653
 20
-2060.9465277277241
 30
0.0
 40
3.5
  1
8.5 
 50
90.0
  0
ENDBLK
  5
16661
  8
0
  0
BLOCK
  8
0
  2
*U246
 70
     1
 10
0.0
 20
0.0
 30
0.0
  3
*U246
  1

  0
TEXT
  5
16663
  8
1DIM
 62
   201
 10
5.432159828432801
 20
-2107.7908897551279
 30
0.0
 40
3.5
  1
17.5 
 50
90.0
  0
ENDBLK
  5
16665
  8
0
  0
BLOCK
  8
0
  2
*U247
 70
     1
 10
0.0
 20
0.0
 30
0.0
  3
*U247
  1

  0
TEXT
  5
16667
  8
1DIM
 62
   201
 10
-113.12854480123509
 20
-2072.1744184549711
 30
0.0
 40
3.5
  1
210 
  0
ENDBLK
  5
16669
  8
0
  0
BLOCK
  8
0
  2
*U248
 70
     1
 10
0.0
 20
0.0
 30
0.0
  3
*U248
  1

  0
TEXT
  5
1666B
  8
1DIM
 62
   201
 10
5.4321598284324617
 20
-2040.7915287480171
 30
0.0
 40
3.5
  1
29 
 50
90.0
  0
ENDBLK
  5
1666D
  8
0
  0
BLOCK
  8
0
  2
*U249
 70
     1
 10
0.0
 20
0.0
 30
0.0
  3
*U249
  1

  0
TEXT
  5
1666F
  8
1DIM
 62
   201
 10
-654.54585769274672
 20
-1569.4310669818949
 30
0.0
 40
3.5
  1
47 
 50
90.0
  0
ENDBLK
  5
16671
  8
0
  0
BLOCK
  8
0
  2
*U250
 70
     1
 10
0.0
 20
0.0
 30
0.0
  3
*U250
  1

  0
TEXT
  5
16673
  8
1DIM
 62
   201
 10
-538.85600270035218
 20
-1601.386989712141
 30
0.0
 40
3.5
  1
210 
  0
ENDBLK
  5
16675
  8
0
  0
BLOCK
  8
0
  2
*U251
 70
     1
 10
0.0
 20
0.0
 30
0.0
  3
*U251
  1

  0
TEXT
  5
16677
  8
1DIM
 62
   201
 10
-465.4673202212615
 20
-1564.433489224497
 30
0.0
 40
3.5
  1
37.5 
 50
90.0
  0
ENDBLK
  5
16679
  8
0
  0
BLOCK
  8
0
  2
*U252
 70
     1
 10
0.0
 20
0.0
 30
0.0
  3
*U252
  1

  0
TEXT
  5
1667B
  8
1DIM
 62
   201
 10
-471.10689375284039
 20
-1569.2395044511261
 30
0.0
 40
3.5
  1
29 
 50
90.0
  0
ENDBLK
  5
1667D
  8
0
  0
BLOCK
  8
0
  2
*U253
 70
     1
 10
0.0
 20
0.0
 30
0.0
  3
*U253
  1

  0
TEXT
  5
1667F
  8
1DIM
 62
   201
 10
-417.17976504690557
 20
-1586.2388654582369
 30
0.0
 40
3.5
  1
17.5 
 50
90.0
  0
ENDBLK
  5
16681
  8
0
  0
BLOCK
  8
0
  2
*U254
 70
     1
 10
0.0
 20
0.0
 30
0.0
  3
*U254
  1

  0
TEXT
  5
16683
  8
1DIM
 62
   201
 10
-471.12966874375968
 20
-1539.3945034308331
 30
0.0
 40
3.5
  1
8.5 
 50
90.0
  0
ENDBLK
  5
16685
  8
0
  0
BLOCK
  8
0
  2
*U255
 70
     1
 10
0.0
 20
0.0
 30
0.0
  3
*U255
  1

  0
TEXT
  5
16687
  8
1DIM
 62
   201
 10
-651.46287623670617
 20
-1680.4693102978781
 30
0.0
 40
3.5
  1
18 
 50
90.0
  0
ENDBLK
  5
16689
  8
0
  0
BLOCK
  8
0
  2
*U256
 70
     1
 10
0.0
 20
0.0
 30
0.0
  3
*U256
  1

  0
TEXT
  5
1668B
  8
1DIM
 62
   201
 10
-650.47315130017648
 20
-1623.2862977964
 30
0.0
 40
3.5
  1
21 
 50
90.0
  0
ENDBLK
  5
1668D
  8
0
  0
BLOCK
  8
0
  2
*U257
 70
     1
 10
0.0
 20
0.0
 30
0.0
  3
*U257
  1

  0
TEXT
  5
1668F
  8
1DIM
 62
   201
 10
-178.9929288726361
 20
-2142.1744184549711
 30
0.0
 40
3.5
  1
60 
  0
ENDBLK
  5
16691
  8
0
  0
BLOCK
  8
0
  2
*U258
 70
     1
 10
0.0
 20
0.0
 30
0.0
  3
*U258
  1

  0
TEXT
  5
16693
  8
1DIM
 62
   201
 10
-118.99300651748111
 20
-2142.1744184549711
 30
0.0
 40
3.5
  1
60 
  0
ENDBLK
  5
16695
  8
0
  0
BLOCK
  8
0
  2
*U259
 70
     1
 10
0.0
 20
0.0
 30
0.0
  3
*U259
  1

  0
TEXT
  5
16697
  8
1DIM
 62
   201
 10
-293.52499079014359
 20
-1668.638938036602
 30
0.0
 40
3.5
  1
47 
 50
90.0
  0
ENDBLK
  5
16699
  8
0
  0
BLOCK
  8
0
  2
*U260
 70
     1
 10
0.0
 20
0.0
 30
0.0
  3
*U260
  1

  0
TEXT
  5
1669B
  8
1DIM
 62
   201
 10
-177.8351357977491
 20
-1700.5948607668479
 30
0.0
 40
3.5
  1
210 
  0
ENDBLK
  5
1669D
  8
0
  0
BLOCK
  8
0
  2
*U261
 70
     1
 10
0.0
 20
0.0
 30
0.0
  3
*U261
  1

  0
TEXT
  5
1669F
  8
1DIM
 62
   201
 10
-104.4464533186585
 20
-1663.641360279204
 30
0.0
 40
3.5
  1
37.5 
 50
90.0
  0
ENDBLK
  5
166A1
  8
0
  0
BLOCK
  8
0
  2
*U262
 70
     1
 10
0.0
 20
0.0
 30
0.0
  3
*U262
  1

  0
TEXT
  5
166A3
  8
1DIM
 62
   201
 10
-110.0860268502373
 20
-1668.447375505833
 30
0.0
 40
3.5
  1
29 
 50
90.0
  0
ENDBLK
  5
166A5
  8
0
  0
BLOCK
  8
0
  2
*U263
 70
     1
 10
0.0
 20
0.0
 30
0.0
  3
*U263
  1

  0
TEXT
  5
166A7
  8
1DIM
 62
   201
 10
-56.158898144302569
 20
-1685.446736512944
 30
0.0
 40
3.5
  1
17.5 
 50
90.0
  0
ENDBLK
  5
166A9
  8
0
  0
BLOCK
  8
0
  2
*U264
 70
     1
 10
0.0
 20
0.0
 30
0.0
  3
*U264
  1

  0
TEXT
  5
166AB
  8
1DIM
 62
   201
 10
-110.1088018411567
 20
-1638.6023744855399
 30
0.0
 40
3.5
  1
8.5 
 50
90.0
  0
ENDBLK
  5
166AD
  8
0
  0
BLOCK
  8
0
  2
*U265
 70
     1
 10
0.0
 20
0.0
 30
0.0
  3
*U265
  1

  0
TEXT
  5
166AF
  8
1DIM
 62
   201
 10
-290.44200933410309
 20
-1779.677181352585
 30
0.0
 40
3.5
  1
18 
 50
90.0
  0
ENDBLK
  5
166B1
  8
0
  0
BLOCK
  8
0
  2
*U266
 70
     1
 10
0.0
 20
0.0
 30
0.0
  3
*U266
  1

  0
TEXT
  5
166B3
  8
1DIM
 62
   201
 10
-289.45228439757352
 20
-1722.4941688511069
 30
0.0
 40
3.5
  1
21 
 50
90.0
  0
ENDBLK
  5
166B5
  8
0
  0
BLOCK
  8
0
  2
*U267
 70
     1
 10
0.0
 20
0.0
 30
0.0
  3
*U267
  1

  0
TEXT
  5
166B7
  8
1DIM
 62
   201
 10
46.714854168878183
 20
-2091.174223088462
 30
0.0
 40
3.5
  1
47 
  0
ENDBLK
  5
166B9
  8
0
  0
BLOCK
  8
0
  2
*U268
 70
     1
 10
0.0
 20
0.0
 30
0.0
  3
*U268
  1

  0
TEXT
  5
166BB
  8
1DIM
 62
   201
 10
65.380881842657232
 20
-2101.174223088462
 30
0.0
 40
3.5
  1
8.5 
  0
ENDBLK
  5
166BD
  8
0
  0
BLOCK
  8
0
  2
*U269
 70
     1
 10
0.0
 20
0.0
 30
0.0
  3
*U269
  1

  0
TEXT
  5
166BF
  8
1DIM
 62
   201
 10
30.215493161765909
 20
-2101.174223088462
 30
0.0
 40
3.5
  1
17.5 
  0
ENDBLK
  5
166C1
  8
0
  0
BLOCK
  8
0
  2
*U270
 70
     1
 10
0.0
 20
0.0
 30
0.0
  3
*U270
  1

  0
TEXT
  5
166C3
  8
1DIM
 62
   201
 10
61.797532102683171
 20
-2142.1744184549711
 30
0.0
 40
3.5
  1
18 
  0
ENDBLK
  5
166C5
  8
0
  0
BLOCK
  8
0
  2
*U271
 70
     1
 10
0.0
 20
0.0
 30
0.0
  3
*U271
  1

  0
TEXT
  5
166C7
  8
1DIM
 62
   201
 10
5.4321598284324537
 20
-2124.7076541050501
 30
0.0
 40
3.5
  1
21 
 50
90.0
  0
ENDBLK
  5
166C9
  8
0
  0
ENDSEC
  0
SECTION
  2
ENTITIES
  0
LINE
  5
156D5
  8
01
 10
-3.8678401715674222
 20
-2060.87422308846
 30
0.0
 11
-3.8678401715674222
 21
-2045.3742230884629
 31
0.0
  0
ARC
  5
156D6
  8
01
 10
-4.8678401715674218
 20
-2045.3742230884629
 30
0.0
 40
1.0
 50
0.0
 51
90.0
  0
LINE
  5
156D7
  8
01
 10
-10.36784017156697
 20
-2048.3742230884641
 30
0.0
 11
-10.367840171567421
 21
-2045.3742230884629
 31
0.0
  0
LINE
  5
156D8
  8
01
 10
-63.867900307564923
 20
-2014.8755093652171
 30
0.0
 11
-213.8678401715552
 21
-2014.875501074237
 31
0.0
  0
LINE
  5
156D9
  8
01
 10
-64.867931204430079
 20
-2023.375501074237
 30
0.0
 11
-186.36775124637461
 21
-2023.375501074237
 31
0.0
  0
LINE
  5
156DA
  8
01
 10
-186.36760011940979
 20
-2052.3742230884641
 30
0.0
 11
-14.367840171566961
 21
-2052.3742230884641
 31
0.0
  0
ARC
  5
156DB
  8
01
 10
-14.367840171566961
 20
-2048.3742230884641
 30
0.0
 40
4.0
 50
270.0
 51
0.0
  0
LINE
  5
156DC
  8
01
 10
-9.3678401715674227
 20
-2044.3742230884641
 30
0.0
 11
-4.8678401715674218
 21
-2044.3742230884641
 31
0.0
  0
ARC
  5
156DD
  8
01
 10
-9.3678401715674227
 20
-2045.3742230884629
 30
0.0
 40
1.0
 50
90.0
 51
180.0
  0
ARC
  5
156DE
  8
01
 10
-186.36760011940979
 20
-2048.3742230884641
 30
0.0
 40
4.0
 50
180.0004123554487
 51
270.0
  0
LINE
  5
156DF
  8
01
 10
-212.86808980446719
 20
-2061.8742230884641
 30
0.0
 11
-4.8678401715674218
 21
-2061.87422308846
 31
0.0
  0
ARC
  5
156E0
  8
01
 10
-4.8678401715674218
 20
-2060.87422308846
 30
0.0
 40
1.0
 50
270.0
 51
0.0
  0
ARC
  5
156E1
  8
01
 10
-212.86808980446719
 20
-2060.8742230884641
 30
0.0
 40
1.0
 50
179.99976396511971
 51
270.0
  0
LINE
  5
156E2
  8
01
 10
-63.867931204438719
 20
-2022.3755051938231
 30
0.0
 11
-63.867900307564923
 21
-2014.8755093652171
 31
0.0
  0
ARC
  5
156E3
  8
01
 10
-64.867931204430079
 20
-2022.375501074237
 30
0.0
 40
1.0
 50
270.0
 51
359.9997639651458
  0
LINE
  5
156E7
  8
01
 10
-190.36760011930619
 20
-2048.3742518763038
 30
0.0
 11
-190.3677512462709
 21
-2027.3755298620781
 31
0.0
  0
ARC
  5
156E8
  8
01
 10
-186.36775124637461
 20
-2027.375501074237
 30
0.0
 40
4.0
 50
90.0
 51
180.0004123554487
  0
LINE
  5
156EB
  8
01
 10
-212.86810901146461
 20
-2111.8742230884609
 30
0.0
 11
-4.8678401715674218
 21
-2111.8742230884632
 31
0.0
  0
ARC
  5
156EC
  8
01
 10
-212.86810901146461
 20
-2112.8742230884609
 30
0.0
 40
1.0
 50
90.0
 51
180.0
  0
LINE
  5
156ED
  8
01
 10
-212.86810901146421
 20
-2132.8744184549719
 30
0.0
 11
-4.8678401715674218
 21
-2132.874418454971
 31
0.0
  0
ARC
  5
156EE
  8
01
 10
-4.8678401715674218
 20
-2131.8744184549701
 30
0.0
 40
1.0
 50
270.0
 51
0.0
  0
LINE
  5
156EF
  8
01
 10
-3.8678401715674222
 20
-2131.8744184549701
 30
0.0
 11
-3.8678401715674222
 21
-2112.8742230884618
 31
0.0
  0
ARC
  5
156F0
  8
01
 10
-4.8678401715674218
 20
-2112.8742230884618
 30
0.0
 40
1.0
 50
0.0
 51
90.0
  0
LINE
  5
156F1
  8
01
 10
-213.86810901146421
 20
-2131.874418454971
 30
0.0
 11
-213.86810901146461
 21
-2112.8742230884609
 31
0.0
  0
ARC
  5
156F2
  8
01
 10
-212.86810901146421
 20
-2131.874418454971
 30
0.0
 40
1.0
 50
180.0
 51
270.0
  0
LINE
  5
156F3
  8
01
 10
73.130881842657004
 20
-2132.8744069527852
 30
0.0
 11
27.13215982843224
 21
-2132.8744069527852
 31
0.0
  0
ARC
  5
156F4
  8
01
 10
65.630881842657004
 20
-2131.8744069527852
 30
0.0
 40
1.0
 50
180.0
 51
270.0
  0
ARC
  5
156F5
  8
01
 10
42.632159828431782
 20
-2131.8744069527852
 30
0.0
 40
1.0
 50
270.0
 51
0.0
  0
ARC
  5
156F6
  8
01
 10
27.13215982843224
 20
-2131.8744069527852
 30
0.0
 40
1.0
 50
180.0
 51
270.0
  0
LINE
  5
156F7
  8
01
 10
27.132159828432691
 20
-2111.8744069527888
 30
0.0
 11
73.130881842657459
 21
-2111.8744069527888
 31
0.0
  0
ARC
  5
156F8
  8
01
 10
65.630881842657004
 20
-2112.8744069527879
 30
0.0
 40
1.0
 50
90.0
 51
180.0
  0
ARC
  5
156F9
  8
01
 10
42.632159828432691
 20
-2112.8744069527879
 30
0.0
 40
1.0
 50
0.0
 51
90.0
  0
LINE
  5
156FA
  8
01
 10
73.130881842657459
 20
-2111.8744069527888
 30
0.0
 11
73.130881842657004
 21
-2132.8744069527852
 31
0.0
  0
LINE
  5
156FB
  8
01
 10
64.630881842657459
 20
-2112.8744069527879
 30
0.0
 11
64.630881842657004
 21
-2131.8744069527852
 31
0.0
  0
LINE
  5
156FC
  8
01
 10
26.132159828432691
 20
-2112.8744069527879
 30
0.0
 11
26.13215982843224
 21
-2131.8744069527852
 31
0.0
  0
LINE
  5
156FD
  8
01
 10
43.632159828432691
 20
-2112.8744069527888
 30
0.0
 11
43.632159828432229
 21
-2131.8744069527852
 31
0.0
  0
ARC
  5
156FE
  8
01
 10
27.132159828432691
 20
-2112.8744069527879
 30
0.0
 40
1.0
 50
90.0
 51
180.0
  0
LINE
  5
157D7
  8
01
  6
BYBLOCK
 10
-149.86795743694299
 20
-2016.6754904590689
 30
0.0
 11
-142.86795743694299
 21
-2016.6754904590639
 31
0.0
  0
LINE
  5
157DD
  8
01
  6
BYBLOCK
 10
-82.86805559776576
 20
-2016.675485691763
 30
0.0
 11
-89.868055597765746
 21
-2016.6754856917671
 31
0.0
  0
LINE
  5
157DF
  8
01
  6
BYBLOCK
 10
-202.86790030807509
 20
-2017.8755093652139
 30
0.0
 11
-209.86790030807509
 21
-2017.875509365216
 31
0.0
  0
LINE
  5
157EE
  8
1CENTER
 10
-146.36795743707029
 20
-2012.9478951454821
 30
0.0
 11
-146.36795743707029
 21
-2021.7118479793021
 31
0.0
  0
LINE
  5
157EF
  8
1CENTER
 10
-86.368055597893076
 20
-2012.9478951454821
 30
0.0
 11
-86.368055597893076
 21
-2021.7118479793021
 31
0.0
  0
LINE
  5
157F0
  8
1CENTER
 10
-206.36790030820251
 20
-2022.993832316698
 30
0.0
 11
-206.36790030820251
 21
-2012.6133000354021
 31
0.0
  0
LINE
  5
1580F
  8
01
 10
-202.86790030807509
 20
-2018.8754952864581
 30
0.0
 11
-202.86790030807509
 21
-2017.875487142674
 31
0.0
  0
LINE
  5
15810
  8
01
 10
-209.86790030807509
 20
-2018.8754789988971
 30
0.0
 11
-209.86790030807509
 21
-2017.875487142679
 31
0.0
  0
LINE
  5
15812
  8
01
 10
-142.86795743694299
 20
-2017.6754986028479
 30
0.0
 11
-142.86795743694299
 21
-2016.6754904590639
 31
0.0
  0
LINE
  5
15813
  8
01
 10
-149.86795743694299
 20
-2017.6754823152869
 30
0.0
 11
-149.86795743694299
 21
-2016.6754904590689
 31
0.0
  0
LINE
  5
15815
  8
01
 10
-82.86805559776576
 20
-2017.6754938355459
 30
0.0
 11
-82.86805559776576
 21
-2016.675485691763
 31
0.0
  0
LINE
  5
15816
  8
01
 10
-89.868055597765746
 20
-2017.6754775479851
 30
0.0
 11
-89.868055597765746
 21
-2016.6754856917671
 31
0.0
  0
LINE
  5
1582C
  8
01
 10
-213.8682834197017
 20
-2060.8742189688778
 30
0.0
 11
-213.86809392406121
 21
-2014.875504611723
 31
0.0
  0
TEXT
  5
159F4
  8
1TEXT
 10
32.884540780813523
 20
-2028.875501074237
 30
0.0
 40
4.0
  1
表面処理：
 72
     1
 11
43.532159828432562
 21
-2028.875501074237
 31
0.0
  0
TEXT
  5
159F5
  8
1TEXT
 10
34.198826495099233
 20
-2035.8533960942209
 30
0.0
 40
4.0
  1
クローム
 72
     1
 11
43.532159828432562
 21
-2035.8533960942209
 31
0.0
  0
LINE
  5
159F6
  8
1DIM
 10
26.132159828432471
 20
-2023.375501074237
 30
0.0
 11
96.132159828432464
 21
-2023.375501074237
 31
0.0
  0
LINE
  5
159F7
  8
1DIM
 10
26.132159828432471
 20
-2030.375501074237
 30
0.0
 11
96.132159828432464
 21
-2030.375501074237
 31
0.0
  0
LINE
  5
159F8
  8
1DIM
 10
61.132159828432471
 20
-2023.375501074237
 30
0.0
 11
61.132159828432471
 21
-2037.375501074237
 31
0.0
  0
TEXT
  5
159F9
  8
1TEXT
 10
65.865493161766324
 20
-2036.0898580578871
 30
0.0
 40
4.0
  1
SC351XC
 72
     1
 11
78.532159828433009
 21
-2036.0898580578871
 31
0.0
  0
TEXT
  5
159FA
  8
1TEXT
 10
71.732159828432557
 20
-2028.875501074237
 30
0.0
 40
4.0
  1
コード
 72
     1
 11
78.532159828432555
 21
-2028.875501074237
 31
0.0
  0
LINE
  5
159FB
  8
1DIM
 10
26.132159828432471
 20
-2037.375501074237
 30
0.0
 11
26.132159828432471
 21
-2023.375501074237
 31
0.0
  0
LINE
  5
159FC
  8
1DIM
 10
96.132159828432464
 20
-2037.375501074237
 30
0.0
 11
96.132159828432464
 21
-2023.375501074237
 31
0.0
  0
LINE
  5
159FD
  8
01
 10
82.130881842657232
 20
-2082.874418454971
 30
0.0
 11
82.130881842657232
 21
-2162.8744184549701
 31
0.0
  0
LINE
  5
159FE
  8
01
 10
91.130881842657345
 20
-2082.874418454971
 30
0.0
 11
91.130881842657232
 21
-2162.8744184549701
 31
0.0
  0
LINE
  5
159FF
  8
01
 10
73.130881842657232
 20
-2082.874418454971
 30
0.0
 11
73.130881842657232
 21
-2162.8744184549701
 31
0.0
  0
LINE
  5
15A04
  8
1CENTER
 10
73.130881842657232
 20
-2122.874418454971
 30
0.0
 11
91.130881842657232
 21
-2122.874418454971
 31
0.0
  0
LINE
  5
15A08
  8
1PHANTOM
 10
72.130881842657203
 20
-2123.3744183049712
 30
0.0
 11
73.130881842657217
 21
-2122.3744186049698
 31
0.0
  0
LINE
  5
15A09
  8
1PHANTOM
 10
72.130890684477762
 20
-2119.0744184549708
 30
0.0
 11
72.130873000836445
 21
-2126.6744184549711
 31
0.0
  0
LINE
  5
15A0A
  8
1PHANTOM
 10
73.130881842657217
 20
-2119.0744184549708
 30
0.0
 11
73.130881842657217
 21
-2126.6744184549711
 31
0.0
  0
LINE
  5
15A0B
  8
1PHANTOM
 10
72.130873000836445
 20
-2126.6744184549711
 30
0.0
 11
73.130881842657217
 21
-2126.6744184549711
 31
0.0
  0
LINE
  5
15A0C
  8
1PHANTOM
 10
72.130890684477762
 20
-2119.0744184549708
 30
0.0
 11
73.130881842657217
 21
-2119.0744184549708
 31
0.0
  0
LINE
  5
15A7A
  8
1CENTER
 10
-206.36790030820251
 20
-2125.3743207717162
 30
0.0
 11
-206.36790030820251
 21
-2119.3743207717162
 31
0.0
  0
LINE
  5
15A7B
  8
1CENTER
 10
-209.36790030820251
 20
-2122.3743207717162
 30
0.0
 11
-203.36790030820251
 21
-2122.3743207717162
 31
0.0
  0
LINE
  5
15A7C
  8
1CENTER
 10
-146.3679574370698
 20
-2125.3743207717162
 30
0.0
 11
-146.3679574370698
 21
-2119.3743207717162
 31
0.0
  0
LINE
  5
15A7D
  8
1CENTER
 10
-149.3679574370698
 20
-2122.3743207717162
 30
0.0
 11
-143.3679574370698
 21
-2122.3743207717162
 31
0.0
  0
LINE
  5
15A7E
  8
1CENTER
 10
-86.36805559789255
 20
-2125.3743207717162
 30
0.0
 11
-86.36805559789255
 21
-2119.3743207717162
 31
0.0
  0
LINE
  5
15A7F
  8
1CENTER
 10
-89.368055597892536
 20
-2122.3743207717162
 30
0.0
 11
-83.368055597892536
 21
-2122.3743207717162
 31
0.0
  0
LINE
  5
15E94
  8
01
  6
BYBLOCK
 10
-201.86815406070991
 20
-2051.8732233682481
 30
0.0
 11
-210.8681540607094
 21
-2014.875512902702
 31
0.0
  0
LINE
  5
15E95
  8
01
  6
BYBLOCK
 10
-194.05538097182881
 20
-2051.873229591466
 30
0.0
 11
-201.86815406070991
 21
-2051.8732233682481
 31
0.0
  0
LINE
  5
15E96
  8
01
  6
BYBLOCK
 10
-76.368154059442986
 20
-2017.875512902702
 30
0.0
 11
-184.86815310991139
 21
-2017.875500007505
 31
0.0
  0
LINE
  5
15E97
  8
01
  6
BYBLOCK
 10
-66.368156588056991
 20
-2019.875510374088
 30
0.0
 11
-67.368154059443441
 21
-2018.875512902702
 31
0.0
  0
LINE
  5
15E98
  8
01
  6
BYBLOCK
 10
-66.368156588057445
 20
-2020.8770622386651
 30
0.0
 11
-66.368156588056991
 21
-2019.875510374088
 31
0.0
  0
LINE
  5
15E99
  8
01
  6
BYBLOCK
 10
-68.868156541037024
 20
-2021.0163821245951
 30
0.0
 11
-66.368156588057445
 21
-2020.8770622386651
 31
0.0
  0
LINE
  5
15E9B
  8
01
  6
BYBLOCK
 10
-67.368154059443441
 20
-2018.875512902702
 30
0.0
 11
-67.368154060070083
 21
-2014.875512902702
 31
0.0
  0
LINE
  5
15E9C
  8
01
  6
BYBLOCK
 10
-193.13777051034251
 20
-2025.596304001263
 30
0.0
 11
-194.05538097182881
 21
-2051.873229591466
 31
0.0
  0
ARC
  5
15E9D
  8
01
  6
BYBLOCK
 10
-185.14264389418969
 20
-2025.8754999748819
 30
0.0
 40
8.0
 50
89.999993190407395
 51
177.99999999999631
  0
LINE
  5
15EA1
  8
01
  6
BYBLOCK
 10
73.130881842657061
 20
-2130.3744141195411
 30
0.0
 11
36.130881842657232
 21
-2130.3744165775438
 31
0.0
  0
LINE
  5
15EA2
  8
01
  6
BYBLOCK
 10
73.130881842657232
 20
-2114.7744542572082
 30
0.0
 11
36.130881842657232
 21
-2114.7744542572082
 31
0.0
  0
LINE
  5
15EA3
  8
01
  6
BYBLOCK
 10
36.130881842657232
 20
-2114.7744542572082
 30
0.0
 11
36.130881842657232
 21
-2130.3744165775438
 31
0.0
  0
LINE
  5
15EA6
  8
1DIM
 10
26.132159828432471
 20
-2037.375501074237
 30
0.0
 11
96.132159828432464
 21
-2037.375501074237
 31
0.0
  0
TEXT
  5
15EC0
  8
1TEXT
 10
-213.8678401715552
 20
-1977.5684746821739
 30
0.0
 40
7.0
  1
SC351
  0
LINE
  5
15FA3
  8
01
  6
BYBLOCK
 10
-68.868156541037024
 20
-2021.0163821245951
 30
0.0
 11
-75.31251243749648
 21
-2021.375512902702
 31
0.0
  0
ARC
  5
15FA4
  8
01
  6
BYBLOCK
 10
-75.368154059444393
 20
-2020.3770620977521
 30
0.0
 40
0.9999999999986201
 50
179.99999999990879
 51
273.18967741721599
  0
LINE
  5
15FA5
  8
01
  6
BYBLOCK
 10
-76.368154059442986
 20
-2020.37706209775
 30
0.0
 11
-76.368154059442986
 21
-2017.875512902702
 31
0.0
  0
LINE
  5
15FA7
  8
1CENTER
 10
-86.368055597780724
 20
-1984.714571100619
 30
0.0
 11
-86.368055597764098
 21
-2021.3457621010739
 31
0.0
  0
LINE
  5
15FA8
  8
01
 10
-87.462379411773497
 20
-1989.7754831456059
 30
0.0
 11
-85.500044322898447
 21
-1988.975487711554
 31
0.0
  0
LINE
  5
15FA9
  8
01
 10
-85.500044322898447
 20
-1988.975487711554
 30
0.0
 11
-86.088320897941003
 21
-1988.663717855303
 31
0.0
  0
LINE
  5
15FAA
  8
01
 10
-88.368009061870339
 20
-2012.175481038397
 30
0.0
 11
-84.368009061870708
 21
-2011.375490345577
 31
0.0
  0
LINE
  5
15FAB
  8
01
 10
-88.368009061875426
 20
-2000.975481038392
 30
0.0
 11
-84.368009061875796
 21
-2000.1754903455681
 31
0.0
  0
LINE
  5
15FAC
  8
01
 10
-88.368009061876876
 20
-1997.7754810383919
 30
0.0
 11
-84.368009061877245
 21
-1996.9754903455671
 31
0.0
  0
LINE
  5
15FAD
  8
01
 10
-84.368009061877245
 20
-1996.9754903455671
 30
0.0
 11
-84.868009061877288
 21
-1996.8754891821709
 31
0.0
  0
LINE
  5
15FAE
  8
01
 10
-87.868009061877572
 20
-1996.2754822017889
 30
0.0
 11
-88.368009061877615
 21
-1996.175481038392
 31
0.0
  0
LINE
  5
15FAF
  8
01
 10
-84.368009061875796
 20
-2000.1754903455681
 30
0.0
 11
-84.868009061875838
 21
-2000.0754891821709
 31
0.0
  0
LINE
  5
15FB0
  8
01
 10
-84.368009061876521
 20
-1998.5754903455679
 30
0.0
 11
-84.868009061876563
 21
-1998.475489182171
 31
0.0
  0
LINE
  5
15FB1
  8
01
 10
-87.868009061876833
 20
-1997.8754822017891
 30
0.0
 11
-88.368009061876876
 21
-1997.7754810383919
 31
0.0
  0
LINE
  5
15FB2
  8
01
 10
-87.868009061876108
 20
-1999.475482201789
 30
0.0
 11
-88.368009061876151
 21
-1999.3754810383921
 31
0.0
  0
LINE
  5
15FB3
  8
01
 10
-88.368009061876151
 20
-1999.3754810383921
 30
0.0
 11
-84.368009061876521
 21
-1998.5754903455679
 31
0.0
  0
LINE
  5
15FB4
  8
01
 10
-85.047230218490924
 20
-1990.5754887651599
 30
0.0
 11
-85.598979682294285
 21
-1990.3927246225319
 31
0.0
  0
LINE
  5
15FB5
  8
01
 10
-84.368009061878695
 20
-1993.775490345568
 30
0.0
 11
-84.868009061878752
 21
-1993.6754891821711
 31
0.0
  0
LINE
  5
15FB6
  8
01
 10
-84.368009061877956
 20
-1995.3754903455681
 30
0.0
 11
-84.868009061878027
 21
-1995.275489182171
 31
0.0
  0
LINE
  5
15FB7
  8
01
 10
-84.594416114083401
 20
-1992.1754898187651
 30
0.0
 11
-85.131009849354598
 21
-1992.046219121135
 31
0.0
  0
LINE
  5
15FB8
  8
01
 10
-87.447094464671025
 20
-1991.4882516043519
 30
0.0
 11
-87.915192919821052
 21
-1991.3754820920019
 31
0.0
  0
LINE
  5
15FB9
  8
01
 10
-87.868009061878297
 20
-1994.675482201789
 30
0.0
 11
-88.36800906187834
 21
-1994.5754810383919
 31
0.0
  0
LINE
  5
15FBA
  8
01
 10
-87.868009061879022
 20
-1993.0754822017891
 30
0.0
 11
-88.368009061879064
 21
-1992.975481038392
 31
0.0
  0
LINE
  5
15FBB
  8
01
 10
-87.005207571142364
 20
-1989.9269189420461
 30
0.0
 11
-87.462379411773497
 21
-1989.7754831456059
 31
0.0
  0
LINE
  5
15FBC
  8
01
 10
-87.915192919821052
 20
-1991.3754820920019
 30
0.0
 11
-85.047230218490924
 21
-1990.5754887651599
 31
0.0
  0
LINE
  5
15FBD
  8
01
 10
-88.36800906187834
 20
-1994.5754810383919
 30
0.0
 11
-84.368009061878695
 21
-1993.775490345568
 31
0.0
  0
LINE
  5
15FBE
  8
01
 10
-88.368009061879064
 20
-1992.975481038392
 30
0.0
 11
-84.594416114083401
 21
-1992.1754898187651
 31
0.0
  0
LINE
  5
15FBF
  8
01
 10
-88.368009061877615
 20
-1996.175481038392
 30
0.0
 11
-84.368009061877956
 21
-1995.3754903455681
 31
0.0
  0
LINE
  5
15FC0
  8
01
 10
-88.368009061871774
 20
-2008.975481038397
 30
0.0
 11
-84.368009061872144
 21
-2008.1754903455769
 31
0.0
  0
LINE
  5
15FC1
  8
01
 10
-84.368009061872144
 20
-2008.1754903455769
 30
0.0
 11
-84.868009061872201
 21
-2008.0754891821789
 31
0.0
  0
LINE
  5
15FC2
  8
01
 10
-87.868009061872471
 20
-2007.4754822017901
 30
0.0
 11
-88.368009061872513
 21
-2007.3754810383921
 31
0.0
  0
LINE
  5
15FC3
  8
01
 10
-84.368009061871419
 20
-2009.7754903455759
 30
0.0
 11
-84.868009061871476
 21
-2009.675489182179
 31
0.0
  0
LINE
  5
15FC4
  8
01
 10
-84.368009061870708
 20
-2011.375490345577
 30
0.0
 11
-84.868009061870765
 21
-2011.2754891821789
 31
0.0
  0
LINE
  5
15FC5
  8
01
 10
-87.868009061871746
 20
-2009.0754822017941
 30
0.0
 11
-88.368009061871774
 21
-2008.975481038397
 31
0.0
  0
LINE
  5
15FC6
  8
01
 10
-87.868009061871007
 20
-2010.675482201794
 30
0.0
 11
-88.368009061871064
 21
-2010.5754810383969
 31
0.0
  0
LINE
  5
15FC7
  8
01
 10
-88.368009061871064
 20
-2010.5754810383969
 30
0.0
 11
-84.368009061871419
 21
-2009.7754903455759
 31
0.0
  0
LINE
  5
15FC8
  8
01
 10
-84.368009061874346
 20
-2003.375490345572
 30
0.0
 11
-84.868009061874375
 21
-2003.2754891821751
 31
0.0
  0
LINE
  5
15FC9
  8
01
 10
-84.368009061875071
 20
-2001.775490345568
 30
0.0
 11
-84.868009061875114
 21
-2001.6754891821711
 31
0.0
  0
LINE
  5
15FCA
  8
01
 10
-84.368009061872883
 20
-2006.575490345572
 30
0.0
 11
-84.868009061872925
 21
-2006.4754891821749
 31
0.0
  0
LINE
  5
15FCB
  8
01
 10
-84.368009061873607
 20
-2004.9754903455721
 30
0.0
 11
-84.86800906187365
 21
-2004.875489182175
 31
0.0
  0
LINE
  5
15FCC
  8
01
 10
-87.868009061875384
 20
-2001.0754822017891
 30
0.0
 11
-88.368009061875426
 21
-2000.975481038392
 31
0.0
  0
LINE
  5
15FCD
  8
01
 10
-87.868009061874645
 20
-2002.6754822017899
 30
0.0
 11
-88.368009061874702
 21
-2002.5754810383919
 31
0.0
  0
LINE
  5
15FCE
  8
01
 10
-87.868009061873195
 20
-2005.87548220179
 30
0.0
 11
-88.368009061873266
 21
-2005.7754810383919
 31
0.0
  0
LINE
  5
15FCF
  8
01
 10
-87.868009061873934
 20
-2004.2754822017901
 30
0.0
 11
-88.368009061873977
 21
-2004.1754810383929
 31
0.0
  0
LINE
  5
15FD0
  8
01
 10
-88.368009061873977
 20
-2004.1754810383929
 30
0.0
 11
-84.368009061874346
 21
-2003.375490345572
 31
0.0
  0
LINE
  5
15FD1
  8
01
 10
-88.368009061874702
 20
-2002.5754810383919
 30
0.0
 11
-84.368009061875071
 21
-2001.775490345568
 31
0.0
  0
LINE
  5
15FD2
  8
01
 10
-88.368009061873266
 20
-2005.7754810383919
 30
0.0
 11
-84.368009061873607
 21
-2004.9754903455721
 31
0.0
  0
LINE
  5
15FD3
  8
01
 10
-88.368009061872513
 20
-2007.3754810383921
 30
0.0
 11
-84.368009061872883
 21
-2006.575490345572
 31
0.0
  0
LINE
  5
15FD4
  8
01
 10
-84.868009061867838
 20
-2017.675489182066
 30
0.0
 11
-87.868009061867596
 21
-2017.6754822016819
 31
0.0
  0
LINE
  5
15FD5
  8
01
 10
-87.868009061868094
 20
-2017.075482201798
 30
0.0
 11
-88.368009061868136
 21
-2016.9754810384011
 31
0.0
  0
LINE
  5
15FD6
  8
01
 10
-88.368009061868136
 20
-2016.9754810384011
 30
0.0
 11
-84.368009061868506
 21
-2016.175490345581
 31
0.0
  0
LINE
  5
15FD7
  8
01
 10
-84.368009061868506
 20
-2016.175490345581
 30
0.0
 11
-84.868009061868548
 21
-2016.075489182183
 31
0.0
  0
LINE
  5
15FD8
  8
01
 10
-87.868009061868833
 20
-2015.4754822017981
 30
0.0
 11
-88.368009061868889
 21
-2015.3754810384009
 31
0.0
  0
LINE
  5
15FD9
  8
01
 10
-87.868009061869571
 20
-2013.8754822017991
 30
0.0
 11
-88.368009061869614
 21
-2013.775481038401
 31
0.0
  0
LINE
  5
15FDA
  8
01
 10
-88.368009061869614
 20
-2013.775481038401
 30
0.0
 11
-84.368009061869969
 21
-2012.975490345581
 31
0.0
  0
LINE
  5
15FDB
  8
01
 10
-84.368009061869245
 20
-2014.5754903455811
 30
0.0
 11
-84.868009061869273
 21
-2014.4754891821831
 31
0.0
  0
LINE
  5
15FDC
  8
01
 10
-84.368009061869969
 20
-2012.975490345581
 30
0.0
 11
-84.868009061870026
 21
-2012.8754891821829
 31
0.0
  0
LINE
  5
15FDD
  8
01
 10
-88.368009061868889
 20
-2015.3754810384009
 30
0.0
 11
-84.368009061869245
 21
-2014.5754903455811
 31
0.0
  0
LINE
  5
15FDE
  8
01
 10
-87.868009061870296
 20
-2012.2754822017939
 30
0.0
 11
-88.368009061870339
 21
-2012.175481038397
 31
0.0
  0
LINE
  5
15FE0
  8
1CENTER
 10
-146.36795743695799
 20
-1984.714575867921
 30
0.0
 11
-146.36795743694131
 21
-2021.3457668683759
 31
0.0
  0
LINE
  5
15FE1
  8
01
 10
-147.4622812509507
 20
-1989.7754879129079
 30
0.0
 11
-145.4999461620757
 21
-1988.975492478856
 31
0.0
  0
LINE
  5
15FE2
  8
01
 10
-145.4999461620757
 20
-1988.975492478856
 30
0.0
 11
-146.0882227371182
 21
-1988.6637226226039
 31
0.0
  0
LINE
  5
15FE3
  8
01
 10
-148.36791090104759
 20
-2012.1754858056979
 30
0.0
 11
-144.36791090104791
 21
-2011.3754951128781
 31
0.0
  0
LINE
  5
15FE4
  8
01
 10
-148.36791090105271
 20
-2000.975485805694
 30
0.0
 11
-144.36791090105299
 21
-2000.1754951128701
 31
0.0
  0
LINE
  5
15FE5
  8
01
 10
-148.3679109010541
 20
-1997.775485805694
 30
0.0
 11
-144.3679109010545
 21
-1996.9754951128691
 31
0.0
  0
LINE
  5
15FE6
  8
01
 10
-144.3679109010545
 20
-1996.9754951128691
 30
0.0
 11
-144.8679109010545
 21
-1996.875493949472
 31
0.0
  0
LINE
  5
15FE7
  8
01
 10
-147.86791090105481
 20
-1996.2754869690909
 30
0.0
 11
-148.3679109010549
 21
-1996.1754858056941
 31
0.0
  0
LINE
  5
15FE8
  8
01
 10
-144.36791090105299
 20
-2000.1754951128701
 30
0.0
 11
-144.86791090105311
 21
-2000.075493949473
 31
0.0
  0
LINE
  5
15FE9
  8
01
 10
-144.3679109010537
 20
-1998.575495112869
 30
0.0
 11
-144.86791090105379
 21
-1998.4754939494719
 31
0.0
  0
LINE
  5
15FEA
  8
01
 10
-147.8679109010541
 20
-1997.8754869690899
 30
0.0
 11
-148.3679109010541
 21
-1997.775485805694
 31
0.0
  0
LINE
  5
15FEB
  8
01
 10
-147.86791090105331
 20
-1999.4754869690901
 30
0.0
 11
-148.36791090105339
 21
-1999.3754858056941
 31
0.0
  0
LINE
  5
15FEC
  8
01
 10
-148.36791090105339
 20
-1999.3754858056941
 30
0.0
 11
-144.3679109010537
 21
-1998.575495112869
 31
0.0
  0
LINE
  5
15FED
  8
01
 10
-145.04713205766811
 20
-1990.575493532461
 30
0.0
 11
-145.5988815214715
 21
-1990.392729389833
 31
0.0
  0
LINE
  5
15FEE
  8
01
 10
-144.36791090105589
 20
-1993.7754951128691
 30
0.0
 11
-144.86791090105601
 21
-1993.675493949472
 31
0.0
  0
LINE
  5
15FEF
  8
01
 10
-144.36791090105521
 20
-1995.375495112869
 30
0.0
 11
-144.86791090105521
 21
-1995.2754939494721
 31
0.0
  0
LINE
  5
15FF0
  8
01
 10
-144.5943179532606
 20
-1992.1754945860671
 30
0.0
 11
-145.1309116885318
 21
-1992.046223888437
 31
0.0
  0
LINE
  5
15FF1
  8
01
 10
-147.44699630384829
 20
-1991.4882563716531
 30
0.0
 11
-147.91509475899829
 21
-1991.3754868593039
 31
0.0
  0
LINE
  5
15FF2
  8
01
 10
-147.8679109010555
 20
-1994.6754869690899
 30
0.0
 11
-148.36791090105561
 21
-1994.575485805693
 31
0.0
  0
LINE
  5
15FF3
  8
01
 10
-147.86791090105621
 20
-1993.0754869690909
 30
0.0
 11
-148.36791090105629
 21
-1992.975485805694
 31
0.0
  0
LINE
  5
15FF4
  8
01
 10
-147.00510941031959
 20
-1989.9269237093481
 30
0.0
 11
-147.4622812509507
 21
-1989.7754879129079
 31
0.0
  0
LINE
  5
15FF5
  8
01
 10
-147.91509475899829
 20
-1991.3754868593039
 30
0.0
 11
-145.04713205766811
 21
-1990.575493532461
 31
0.0
  0
LINE
  5
15FF6
  8
01
 10
-148.36791090105561
 20
-1994.575485805693
 30
0.0
 11
-144.36791090105589
 21
-1993.7754951128691
 31
0.0
  0
LINE
  5
15FF7
  8
01
 10
-148.36791090105629
 20
-1992.975485805694
 30
0.0
 11
-144.5943179532606
 21
-1992.1754945860671
 31
0.0
  0
LINE
  5
15FF8
  8
01
 10
-148.3679109010549
 20
-1996.1754858056941
 30
0.0
 11
-144.36791090105521
 21
-1995.375495112869
 31
0.0
  0
LINE
  5
15FF9
  8
01
 10
-148.36791090104899
 20
-2008.9754858056981
 30
0.0
 11
-144.36791090104941
 21
-2008.175495112878
 31
0.0
  0
LINE
  5
15FFA
  8
01
 10
-144.36791090104941
 20
-2008.175495112878
 30
0.0
 11
-144.86791090104941
 21
-2008.0754939494809
 31
0.0
  0
LINE
  5
15FFB
  8
01
 10
-147.8679109010497
 20
-2007.4754869690919
 30
0.0
 11
-148.36791090104981
 21
-2007.3754858056941
 31
0.0
  0
LINE
  5
15FFC
  8
01
 10
-144.3679109010487
 20
-2009.7754951128779
 30
0.0
 11
-144.8679109010487
 21
-2009.6754939494811
 31
0.0
  0
LINE
  5
15FFD
  8
01
 10
-144.36791090104791
 20
-2011.3754951128781
 30
0.0
 11
-144.86791090104799
 21
-2011.275493949481
 31
0.0
  0
LINE
  5
15FFE
  8
01
 10
-147.86791090104899
 20
-2009.0754869690959
 30
0.0
 11
-148.36791090104899
 21
-2008.9754858056981
 31
0.0
  0
LINE
  5
15FFF
  8
01
 10
-147.86791090104819
 20
-2010.675486969096
 30
0.0
 11
-148.3679109010483
 21
-2010.5754858056989
 31
0.0
  0
LINE
  5
16000
  8
01
 10
-148.3679109010483
 20
-2010.5754858056989
 30
0.0
 11
-144.3679109010487
 21
-2009.7754951128779
 31
0.0
  0
LINE
  5
16001
  8
01
 10
-144.3679109010516
 20
-2003.375495112874
 30
0.0
 11
-144.8679109010516
 21
-2003.275493949476
 31
0.0
  0
LINE
  5
16002
  8
01
 10
-144.36791090105231
 20
-2001.77549511287
 30
0.0
 11
-144.86791090105231
 21
-2001.675493949472
 31
0.0
  0
LINE
  5
16003
  8
01
 10
-144.3679109010501
 20
-2006.575495112874
 30
0.0
 11
-144.86791090105021
 21
-2006.475493949476
 31
0.0
  0
LINE
  5
16004
  8
01
 10
-144.36791090105081
 20
-2004.9754951128739
 30
0.0
 11
-144.86791090105089
 21
-2004.875493949477
 31
0.0
  0
LINE
  5
16005
  8
01
 10
-147.8679109010526
 20
-2001.07548696909
 30
0.0
 11
-148.36791090105271
 21
-2000.975485805694
 31
0.0
  0
LINE
  5
16006
  8
01
 10
-147.86791090105191
 20
-2002.675486969091
 30
0.0
 11
-148.36791090105191
 21
-2002.5754858056939
 31
0.0
  0
LINE
  5
16007
  8
01
 10
-147.86791090105041
 20
-2005.8754869690911
 30
0.0
 11
-148.36791090105049
 21
-2005.775485805694
 31
0.0
  0
LINE
  5
16008
  8
01
 10
-147.8679109010512
 20
-2004.2754869690909
 30
0.0
 11
-148.3679109010512
 21
-2004.1754858056941
 31
0.0
  0
LINE
  5
16009
  8
01
 10
-148.3679109010512
 20
-2004.1754858056941
 30
0.0
 11
-144.3679109010516
 21
-2003.375495112874
 31
0.0
  0
LINE
  5
1600A
  8
01
 10
-148.36791090105191
 20
-2002.5754858056939
 30
0.0
 11
-144.36791090105231
 21
-2001.77549511287
 31
0.0
  0
LINE
  5
1600B
  8
01
 10
-148.36791090105049
 20
-2005.775485805694
 30
0.0
 11
-144.36791090105081
 21
-2004.9754951128739
 31
0.0
  0
LINE
  5
1600C
  8
01
 10
-148.36791090104981
 20
-2007.3754858056941
 30
0.0
 11
-144.3679109010501
 21
-2006.575495112874
 31
0.0
  0
LINE
  5
1600D
  8
01
 10
-144.86791090104509
 20
-2017.6754939493669
 30
0.0
 11
-147.86791090104489
 21
-2017.6754869689839
 31
0.0
  0
LINE
  5
1600E
  8
01
 10
-147.86791090104541
 20
-2017.0754869691
 30
0.0
 11
-148.36791090104541
 21
-2016.9754858057031
 31
0.0
  0
LINE
  5
1600F
  8
01
 10
-148.36791090104541
 20
-2016.9754858057031
 30
0.0
 11
-144.36791090104569
 21
-2016.1754951128819
 31
0.0
  0
LINE
  5
16010
  8
01
 10
-144.36791090104569
 20
-2016.1754951128819
 30
0.0
 11
-144.8679109010458
 21
-2016.075493949485
 31
0.0
  0
LINE
  5
16011
  8
01
 10
-147.86791090104609
 20
-2015.4754869691001
 30
0.0
 11
-148.36791090104609
 21
-2015.3754858057021
 31
0.0
  0
LINE
  5
16012
  8
01
 10
-147.8679109010468
 20
-2013.8754869690999
 30
0.0
 11
-148.3679109010468
 21
-2013.7754858057031
 31
0.0
  0
LINE
  5
16013
  8
01
 10
-148.3679109010468
 20
-2013.7754858057031
 30
0.0
 11
-144.3679109010472
 21
-2012.975495112883
 31
0.0
  0
LINE
  5
16014
  8
01
 10
-144.36791090104651
 20
-2014.575495112882
 30
0.0
 11
-144.86791090104651
 21
-2014.4754939494851
 31
0.0
  0
LINE
  5
16015
  8
01
 10
-144.3679109010472
 20
-2012.975495112883
 30
0.0
 11
-144.86791090104731
 21
-2012.875493949485
 31
0.0
  0
LINE
  5
16016
  8
01
 10
-148.36791090104609
 20
-2015.3754858057021
 30
0.0
 11
-144.36791090104651
 21
-2014.575495112882
 31
0.0
  0
LINE
  5
16017
  8
01
 10
-147.86791090104751
 20
-2012.2754869690959
 30
0.0
 11
-148.36791090104759
 21
-2012.1754858056979
 31
0.0
  0
LINE
  5
16019
  8
1CENTER
 10
-206.3679003080901
 20
-1985.9145725515309
 30
0.0
 11
-206.3679003080735
 21
-2022.5457635519861
 31
0.0
  0
LINE
  5
1601A
  8
01
 10
-207.46222412208289
 20
-1990.9754845965181
 30
0.0
 11
-205.49988903320789
 21
-1990.175489162466
 31
0.0
  0
LINE
  5
1601B
  8
01
 10
-205.49988903320789
 20
-1990.175489162466
 30
0.0
 11
-206.08816560825039
 21
-1989.8637193062141
 31
0.0
  0
LINE
  5
1601C
  8
01
 10
-208.3678537721797
 20
-2013.3754824893081
 30
0.0
 11
-204.3678537721801
 21
-2012.575491796488
 31
0.0
  0
LINE
  5
1601D
  8
01
 10
-208.36785377218479
 20
-2002.1754824893039
 30
0.0
 11
-204.36785377218521
 21
-2001.37549179648
 31
0.0
  0
LINE
  5
1601E
  8
01
 10
-208.36785377218621
 20
-1998.9754824893041
 30
0.0
 11
-204.36785377218661
 21
-1998.175491796479
 31
0.0
  0
LINE
  5
1601F
  8
01
 10
-204.36785377218661
 20
-1998.175491796479
 30
0.0
 11
-204.86785377218669
 21
-1998.0754906330819
 31
0.0
  0
LINE
  5
16020
  8
01
 10
-207.867853772187
 20
-1997.4754836527011
 30
0.0
 11
-208.367853772187
 21
-1997.375482489304
 31
0.0
  0
LINE
  5
16021
  8
01
 10
-204.36785377218521
 20
-2001.37549179648
 30
0.0
 11
-204.86785377218521
 21
-2001.2754906330831
 31
0.0
  0
LINE
  5
16022
  8
01
 10
-204.3678537721859
 20
-1999.7754917964789
 30
0.0
 11
-204.86785377218601
 21
-1999.6754906330821
 31
0.0
  0
LINE
  5
16023
  8
01
 10
-207.86785377218629
 20
-1999.075483652701
 30
0.0
 11
-208.36785377218621
 21
-1998.9754824893041
 31
0.0
  0
LINE
  5
16024
  8
01
 10
-207.8678537721855
 20
-2000.6754836527009
 30
0.0
 11
-208.3678537721855
 21
-2000.575482489304
 31
0.0
  0
LINE
  5
16025
  8
01
 10
-208.3678537721855
 20
-2000.575482489304
 30
0.0
 11
-204.3678537721859
 21
-1999.7754917964789
 31
0.0
  0
LINE
  5
16026
  8
01
 10
-205.0470749288003
 20
-1991.7754902160709
 30
0.0
 11
-205.59882439260369
 21
-1991.5927260734441
 31
0.0
  0
LINE
  5
16027
  8
01
 10
-204.36785377218811
 20
-1994.975491796479
 30
0.0
 11
-204.86785377218811
 21
-1994.875490633083
 31
0.0
  0
LINE
  5
16028
  8
01
 10
-204.3678537721874
 20
-1996.57549179648
 30
0.0
 11
-204.8678537721874
 21
-1996.4754906330829
 31
0.0
  0
LINE
  5
16029
  8
01
 10
-204.59426082439279
 20
-1993.375491269677
 30
0.0
 11
-205.13085455966399
 21
-1993.2462205720469
 31
0.0
  0
LINE
  5
1602A
  8
01
 10
-207.4469391749804
 20
-1992.688253055263
 30
0.0
 11
-207.91503763013051
 21
-1992.5754835429141
 31
0.0
  0
LINE
  5
1602B
  8
01
 10
-207.86785377218769
 20
-1995.875483652701
 30
0.0
 11
-208.36785377218769
 21
-1995.7754824893041
 31
0.0
  0
LINE
  5
1602C
  8
01
 10
-207.8678537721884
 20
-1994.275483652701
 30
0.0
 11
-208.36785377218851
 21
-1994.1754824893039
 31
0.0
  0
LINE
  5
1602D
  8
01
 10
-207.00505228145181
 20
-1991.126920392958
 30
0.0
 11
-207.46222412208289
 21
-1990.9754845965181
 31
0.0
  0
LINE
  5
1602E
  8
01
 10
-207.91503763013051
 20
-1992.5754835429141
 30
0.0
 11
-205.0470749288003
 21
-1991.7754902160709
 31
0.0
  0
LINE
  5
1602F
  8
01
 10
-208.36785377218769
 20
-1995.7754824893041
 30
0.0
 11
-204.36785377218811
 21
-1994.975491796479
 31
0.0
  0
LINE
  5
16030
  8
01
 10
-208.36785377218851
 20
-1994.1754824893039
 30
0.0
 11
-204.59426082439279
 21
-1993.375491269677
 31
0.0
  0
LINE
  5
16031
  8
01
 10
-208.367853772187
 20
-1997.375482489304
 30
0.0
 11
-204.3678537721874
 21
-1996.57549179648
 31
0.0
  0
LINE
  5
16032
  8
01
 10
-208.36785377218121
 20
-2010.175482489308
 30
0.0
 11
-204.36785377218149
 21
-2009.3754917964879
 31
0.0
  0
LINE
  5
16033
  8
01
 10
-204.36785377218149
 20
-2009.3754917964879
 30
0.0
 11
-204.8678537721816
 21
-2009.2754906330911
 31
0.0
  0
LINE
  5
16034
  8
01
 10
-207.86785377218189
 20
-2008.675483652702
 30
0.0
 11
-208.36785377218189
 21
-2008.575482489304
 31
0.0
  0
LINE
  5
16035
  8
01
 10
-204.36785377218081
 20
-2010.975491796489
 30
0.0
 11
-204.86785377218089
 21
-2010.875490633091
 31
0.0
  0
LINE
  5
16036
  8
01
 10
-204.3678537721801
 20
-2012.575491796488
 30
0.0
 11
-204.8678537721801
 21
-2012.4754906330911
 31
0.0
  0
LINE
  5
16037
  8
01
 10
-207.86785377218109
 20
-2010.275483652706
 30
0.0
 11
-208.36785377218121
 21
-2010.175482489308
 31
0.0
  0
LINE
  5
16038
  8
01
 10
-207.86785377218041
 20
-2011.875483652706
 30
0.0
 11
-208.3678537721805
 21
-2011.7754824893091
 31
0.0
  0
LINE
  5
16039
  8
01
 10
-208.3678537721805
 20
-2011.7754824893091
 30
0.0
 11
-204.36785377218081
 21
-2010.975491796489
 31
0.0
  0
LINE
  5
1603A
  8
01
 10
-204.36785377218379
 20
-2004.5754917964839
 30
0.0
 11
-204.86785377218371
 21
-2004.4754906330861
 31
0.0
  0
LINE
  5
1603B
  8
01
 10
-204.3678537721845
 20
-2002.9754917964799
 30
0.0
 11
-204.8678537721845
 21
-2002.875490633083
 31
0.0
  0
LINE
  5
1603C
  8
01
 10
-204.36785377218229
 20
-2007.7754917964839
 30
0.0
 11
-204.86785377218229
 21
-2007.6754906330859
 31
0.0
  0
LINE
  5
1603D
  8
01
 10
-204.367853772183
 20
-2006.175491796484
 30
0.0
 11
-204.867853772183
 21
-2006.0754906330869
 31
0.0
  0
LINE
  5
1603E
  8
01
 10
-207.8678537721847
 20
-2002.275483652701
 30
0.0
 11
-208.36785377218479
 21
-2002.1754824893039
 31
0.0
  0
LINE
  5
1603F
  8
01
 10
-207.86785377218399
 20
-2003.8754836527021
 30
0.0
 11
-208.36785377218411
 21
-2003.7754824893041
 31
0.0
  0
LINE
  5
16040
  8
01
 10
-207.8678537721826
 20
-2007.0754836527019
 30
0.0
 11
-208.3678537721826
 21
-2006.9754824893041
 31
0.0
  0
LINE
  5
16041
  8
01
 10
-207.86785377218331
 20
-2005.475483652702
 30
0.0
 11
-208.36785377218339
 21
-2005.375482489304
 31
0.0
  0
LINE
  5
16042
  8
01
 10
-208.36785377218339
 20
-2005.375482489304
 30
0.0
 11
-204.36785377218379
 21
-2004.5754917964839
 31
0.0
  0
LINE
  5
16043
  8
01
 10
-208.36785377218411
 20
-2003.7754824893041
 30
0.0
 11
-204.3678537721845
 21
-2002.9754917964799
 31
0.0
  0
LINE
  5
16044
  8
01
 10
-208.3678537721826
 20
-2006.9754824893041
 30
0.0
 11
-204.367853772183
 21
-2006.175491796484
 31
0.0
  0
LINE
  5
16045
  8
01
 10
-208.36785377218189
 20
-2008.575482489304
 30
0.0
 11
-204.36785377218229
 21
-2007.7754917964839
 31
0.0
  0
LINE
  5
16046
  8
01
 10
-204.8678537721772
 20
-2018.8754906329771
 30
0.0
 11
-207.867853772177
 21
-2018.8754836525941
 31
0.0
  0
LINE
  5
16047
  8
01
 10
-207.86785377217751
 20
-2018.2754836527099
 30
0.0
 11
-208.36785377217751
 21
-2018.175482489313
 31
0.0
  0
LINE
  5
16048
  8
01
 10
-208.36785377217751
 20
-2018.175482489313
 30
0.0
 11
-204.36785377217791
 21
-2017.375491796492
 31
0.0
  0
LINE
  5
16049
  8
01
 10
-204.36785377217791
 20
-2017.375491796492
 30
0.0
 11
-204.86785377217799
 21
-2017.2754906330949
 31
0.0
  0
LINE
  5
1604A
  8
01
 10
-207.86785377217819
 20
-2016.67548365271
 30
0.0
 11
-208.36785377217831
 21
-2016.5754824893129
 31
0.0
  0
LINE
  5
1604B
  8
01
 10
-207.86785377217899
 20
-2015.0754836527101
 30
0.0
 11
-208.36785377217899
 21
-2014.975482489313
 31
0.0
  0
LINE
  5
1604C
  8
01
 10
-208.36785377217899
 20
-2014.975482489313
 30
0.0
 11
-204.36785377217939
 21
-2014.1754917964929
 31
0.0
  0
LINE
  5
1604D
  8
01
 10
-204.36785377217859
 20
-2015.7754917964919
 30
0.0
 11
-204.86785377217871
 21
-2015.675490633095
 31
0.0
  0
LINE
  5
1604E
  8
01
 10
-204.36785377217939
 20
-2014.1754917964929
 30
0.0
 11
-204.86785377217939
 21
-2014.0754906330949
 31
0.0
  0
LINE
  5
1604F
  8
01
 10
-208.36785377217831
 20
-2016.5754824893129
 30
0.0
 11
-204.36785377217859
 21
-2015.7754917964919
 31
0.0
  0
LINE
  5
16050
  8
01
 10
-207.8678537721797
 20
-2013.4754836527061
 30
0.0
 11
-208.3678537721797
 21
-2013.3754824893081
 31
0.0
  0
LINE
  5
16051
  8
01
 10
-206.3678537721909
 20
-1988.87548714284
 30
0.0
 11
-207.8678537721884
 21
-1994.175483652702
 31
0.0
  0
LINE
  5
16052
  8
01
 10
-207.8678537721884
 20
-1994.175483652702
 30
0.0
 11
-207.867853772177
 21
-2018.8754836525941
 31
0.0
  0
LINE
  5
16053
  8
01
 10
-206.3678537721909
 20
-1988.87548714284
 30
0.0
 11
-204.86785377218831
 21
-1994.1754906330841
 31
0.0
  0
LINE
  5
16054
  8
01
 10
-209.86790030807501
 20
-2018.8754789988959
 30
0.0
 11
-207.867853772177
 21
-2018.8754836525941
 31
0.0
  0
LINE
  5
16055
  8
01
 10
-204.86785377218831
 20
-1994.1754906330841
 30
0.0
 11
-204.8678537721772
 21
-2018.8754906329771
 31
0.0
  0
LINE
  5
16056
  8
01
 10
-209.86790030807501
 20
-2018.8754789988959
 30
0.0
 11
-209.86790030807461
 21
-2019.975482489092
 31
0.0
  0
LINE
  5
16057
  8
01
 10
-204.8678537721772
 20
-2018.8754906329771
 30
0.0
 11
-202.86790030807509
 21
-2018.8754952864581
 31
0.0
  0
ARC
  5
16058
  8
01
 10
-208.36790030807461
 20
-2019.9754824890911
 30
0.0
 40
1.5
 50
180.00000000002601
 51
269.99986668449662
  0
LINE
  5
16059
  8
01
 10
-202.86790030807509
 20
-2018.8754952864581
 30
0.0
 11
-202.86790030807461
 21
-2019.9754917962689
 31
0.0
  0
LINE
  5
1605A
  8
01
 10
-208.36790379826641
 20
-2021.475482489087
 30
0.0
 11
-204.36790379826641
 21
-2021.475491796265
 31
0.0
  0
ARC
  5
1605B
  8
01
 10
-204.36790030807461
 20
-2019.97549179627
 30
0.0
 40
1.5
 50
269.99986668449668
 51
0.0000000000260592
  0
LINE
  5
1605C
  8
01
 10
-146.36791090105871
 20
-1987.675490459229
 30
0.0
 11
-147.86791090105629
 21
-1992.9754869690919
 31
0.0
  0
LINE
  5
1605D
  8
01
 10
-147.86791090105629
 20
-1992.9754869690919
 30
0.0
 11
-147.86791090104489
 21
-2017.6754869689839
 31
0.0
  0
LINE
  5
1605E
  8
01
 10
-146.36791090105871
 20
-1987.675490459229
 30
0.0
 11
-144.86791090105621
 21
-1992.975493949474
 31
0.0
  0
LINE
  5
1605F
  8
01
 10
-149.8679574369429
 20
-2017.675482315286
 30
0.0
 11
-147.86791090104489
 21
-2017.6754869689839
 31
0.0
  0
LINE
  5
16060
  8
01
 10
-144.86791090105621
 20
-1992.975493949474
 30
0.0
 11
-144.86791090104509
 21
-2017.6754939493669
 31
0.0
  0
LINE
  5
16061
  8
01
 10
-149.8679574369429
 20
-2017.675482315286
 30
0.0
 11
-149.8679574369425
 21
-2018.775485805482
 31
0.0
  0
LINE
  5
16062
  8
01
 10
-144.86791090104509
 20
-2017.6754939493669
 30
0.0
 11
-142.86795743694299
 21
-2017.6754986028479
 31
0.0
  0
ARC
  5
16063
  8
01
 10
-148.3679574369425
 20
-2018.7754858054809
 30
0.0
 40
1.5
 50
180.00000000002601
 51
269.99986668449662
  0
LINE
  5
16064
  8
01
 10
-142.86795743694299
 20
-2017.6754986028479
 30
0.0
 11
-142.8679574369425
 21
-2018.7754951126581
 31
0.0
  0
LINE
  5
16065
  8
01
 10
-148.36796092713419
 20
-2020.275485805477
 30
0.0
 11
-144.36796092713419
 21
-2020.2754951126551
 31
0.0
  0
ARC
  5
16066
  8
01
 10
-144.3679574369425
 20
-2018.775495112659
 30
0.0
 40
1.5
 50
269.99986668449668
 51
0.0000000000260592
  0
LINE
  5
16067
  8
01
 10
-86.368009061881466
 20
-1987.6754856919281
 30
0.0
 11
-87.868009061879064
 21
-1992.9754822017901
 31
0.0
  0
LINE
  5
16068
  8
01
 10
-87.868009061879064
 20
-1992.9754822017901
 30
0.0
 11
-87.868009061867596
 21
-2017.6754822016819
 31
0.0
  0
LINE
  5
16069
  8
01
 10
-86.368009061881466
 20
-1987.6754856919281
 30
0.0
 11
-84.868009061878951
 21
-1992.9754891821731
 31
0.0
  0
LINE
  5
1606A
  8
01
 10
-89.868055597765647
 20
-2017.6754775479851
 30
0.0
 11
-87.868009061867596
 21
-2017.6754822016819
 31
0.0
  0
LINE
  5
1606B
  8
01
 10
-84.868009061878951
 20
-1992.9754891821731
 30
0.0
 11
-84.868009061867838
 21
-2017.675489182066
 31
0.0
  0
LINE
  5
1606C
  8
01
 10
-89.868055597765647
 20
-2017.6754775479851
 30
0.0
 11
-89.868055597765249
 21
-2018.7754810381809
 31
0.0
  0
LINE
  5
1606D
  8
01
 10
-84.868009061867838
 20
-2017.675489182066
 30
0.0
 11
-82.86805559776576
 21
-2017.6754938355459
 31
0.0
  0
ARC
  5
1606E
  8
01
 10
-88.368055597765263
 20
-2018.77548103818
 30
0.0
 40
1.5
 50
180.00000000002601
 51
269.99986668449662
  0
LINE
  5
1606F
  8
01
 10
-82.86805559776576
 20
-2017.6754938355459
 30
0.0
 11
-82.868055597765263
 21
-2018.775490345356
 31
0.0
  0
LINE
  5
16070
  8
01
 10
-88.368059087956979
 20
-2020.2754810381759
 30
0.0
 11
-84.368059087956965
 21
-2020.2754903453531
 31
0.0
  0
ARC
  5
16071
  8
01
 10
-84.368055597765263
 20
-2018.775490345357
 30
0.0
 40
1.5
 50
269.99986668449668
 51
0.0000000000260592
  0
LINE
  5
16072
  8
1DIM
 10
-4.8678401715674218
 20
-2111.8742230884632
 30
0.0
 11
7.1321598284321146
 21
-2111.8742230884632
 31
0.0
  0
LINE
  5
16073
  8
1DIM
 10
-4.8678401715674262
 20
-2132.874418454971
 30
0.0
 11
7.132159828432111
 21
-2132.874418454971
 31
0.0
  0
LINE
  5
16074
  8
1DIM
 10
6.1321598284321164
 20
-2113.8742230884632
 30
0.0
 11
6.132159828432111
 21
-2130.874418454971
 31
0.0
  0
LINE
  5
16078
  8
1DIM
 10
73.130881842657004
 20
-2132.8744069527852
 30
0.0
 11
73.130881842657004
 21
-2143.874418454971
 31
0.0
  0
LINE
  5
16079
  8
1DIM
 10
55.130849029376009
 20
-2134.3601445381769
 30
0.0
 11
55.130849029376009
 21
-2143.874418454971
 31
0.0
  0
LINE
  5
1607A
  8
1DIM
 10
71.130881842657004
 20
-2142.874418454971
 30
0.0
 11
57.130849029376009
 21
-2142.874418454971
 31
0.0
  0
TEXT
  5
1607E
  8
1DIM
 10
-49.401173504900768
 20
-2095.3409816872918
 30
0.0
 40
3.5
  1
材質：亜鉛ダイキャスト
  0
TEXT
  5
1607F
  8
1DIM
 10
-49.401173504900768
 20
-2101.1743150206248
 30
0.0
 40
3.5
  1
仕上げ：クローム
  0
SOLID
  5
16080
  8
1DIM
 10
-67.824037403706825
 20
-2120.0849649015499
 30
0.0
 11
-69.401173504900754
 21
-2121.359230505504
 31
0.0
 12
-68.32256333478368
 22
-2119.642340522998
 32
0.0
 13
-68.32256333478368
 23
-2119.642340522998
 33
0.0
  0
LINE
  5
16083
  8
1CENTER
 10
55.131118018373513
 20
-2118.4589081362979
 30
0.0
 11
55.130849029376009
 21
-2134.3601445381769
 31
0.0
  0
LINE
  5
16084
  8
1HATCH
 10
53.481099762507029
 20
-2120.4203825924042
 30
0.0
 11
53.480891747254297
 21
-2129.7703599051879
 31
0.0
  0
LINE
  5
16085
  8
1HATCH
 10
56.781099762450708
 20
-2120.4204039989172
 30
0.0
 11
56.780891746877607
 21
-2129.7704157483672
 31
0.0
  0
LINE
  5
16086
  8
1HATCH
 10
57.131097092921323
 20
-2120.7704072564188
 30
0.0
 11
53.13109709300852
 21
-2120.770379334881
 31
0.0
  0
LINE
  5
16087
  8
0
 10
59.130869875056533
 20
-2132.1204212162911
 30
0.0
 11
51.130869875229678
 21
-2132.1203653732141
 31
0.0
  0
LINE
  5
16088
  8
1HATCH
 10
56.780891746877607
 20
-2129.7704157483672
 30
0.0
 11
57.130888489372289
 21
-2130.1204165627391
 31
0.0
  0
LINE
  5
16089
  8
1HATCH
 10
53.480891747254297
 20
-2129.7703599051879
 30
0.0
 11
53.130888489718807
 21
-2130.1203607195748
 31
0.0
  0
LINE
  5
1608A
  8
1DIM
 10
-146.3679574370698
 20
-2125.3743207717162
 30
0.0
 11
-146.3679574370698
 21
-2143.874418454971
 31
0.0
  0
LINE
  5
1608B
  8
1DIM
 10
-86.36805559789255
 20
-2125.3743207717162
 30
0.0
 11
-86.36805559789255
 21
-2143.874418454971
 31
0.0
  0
LINE
  5
1608C
  8
1DIM
 10
-144.3679574370698
 20
-2142.874418454971
 30
0.0
 11
-88.368055597892536
 21
-2142.874418454971
 31
0.0
  0
LINE
  5
16090
  8
1DIM
 10
-206.36790030820251
 20
-2125.3743207717162
 30
0.0
 11
-206.36790030820251
 21
-2143.874418454971
 31
0.0
  0
LINE
  5
16091
  8
1DIM
 10
-146.3679574370698
 20
-2125.3743207717162
 30
0.0
 11
-146.3679574370698
 21
-2143.874418454971
 31
0.0
  0
LINE
  5
16092
  8
1DIM
 10
-204.36790030820251
 20
-2142.874418454971
 30
0.0
 11
-148.3679574370698
 21
-2142.874418454971
 31
0.0
  0
LINE
  5
16096
  8
1DIM
 10
26.132159828432471
 20
-2112.8744069527879
 30
0.0
 11
26.132159828432471
 21
-2100.8742230884618
 31
0.0
  0
LINE
  5
16097
  8
1DIM
 10
43.632159828432691
 20
-2112.8744069527879
 30
0.0
 11
43.632159828432691
 21
-2100.8742230884618
 31
0.0
  0
LINE
  5
16098
  8
1DIM
 10
28.13215982843246
 20
-2101.8742230884618
 30
0.0
 11
41.632159828432691
 21
-2101.8742230884618
 31
0.0
  0
LINE
  5
1609C
  8
1DIM
 10
73.130881842657459
 20
-2111.8744069527888
 30
0.0
 11
73.130881842657459
 21
-2100.8742230884618
 31
0.0
  0
LINE
  5
1609D
  8
1DIM
 10
64.630881842657004
 20
-2112.8744069527879
 30
0.0
 11
64.630881842657004
 21
-2100.8742230884618
 31
0.0
  0
LINE
  5
1609E
  8
1DIM
 10
71.130881842657459
 20
-2101.8742230884618
 30
0.0
 11
66.630881842657004
 21
-2101.8742230884618
 31
0.0
  0
LINE
  5
160A2
  8
1DIM
 10
73.130881842657232
 20
-2111.8742230884618
 30
0.0
 11
73.130881842657232
 21
-2090.8742230884618
 31
0.0
  0
LINE
  5
160A3
  8
1DIM
 10
26.132159828432471
 20
-2112.8744069527879
 30
0.0
 11
26.132159828432471
 21
-2090.8742230884618
 31
0.0
  0
LINE
  5
160A4
  8
1DIM
 10
71.130881842657232
 20
-2091.8742230884618
 30
0.0
 11
28.13215982843246
 21
-2091.8742230884618
 31
0.0
  0
LINE
  5
160A9
  8
1CENTER
 10
105.0917964338031
 20
-2122.874418454971
 30
0.0
 11
68.460605433348235
 21
-2122.874418454971
 31
0.0
  0
LINE
  5
160AA
  8
0
 10
100.0308843888169
 20
-2121.7800946409761
 30
0.0
 11
100.8308798228678
 21
-2123.7424297298512
 31
0.0
  0
LINE
  5
160AB
  8
0
 10
100.8308798228678
 20
-2123.7424297298512
 30
0.0
 11
101.14264967912
 21
-2123.1541531548091
 31
0.0
  0
LINE
  5
160AC
  8
0
 10
77.630886496026903
 20
-2120.874464990869
 30
0.0
 11
78.430877188845159
 21
-2124.874464990869
 31
0.0
  0
LINE
  5
160AD
  8
0
 10
88.830886496031269
 20
-2120.874464990869
 30
0.0
 11
89.630877188853844
 21
-2124.874464990869
 31
0.0
  0
LINE
  5
160AE
  8
0
 10
92.030886496031314
 20
-2120.874464990869
 30
0.0
 11
92.830877188853876
 21
-2124.874464990869
 31
0.0
  0
LINE
  5
160AF
  8
0
 10
92.830877188853876
 20
-2124.874464990869
 30
0.0
 11
92.930878352251113
 21
-2124.3744649908681
 31
0.0
  0
LINE
  5
160B0
  8
0
 10
93.530885332634114
 20
-2121.374464990869
 30
0.0
 11
93.630886496031323
 21
-2120.874464990869
 31
0.0
  0
LINE
  5
160B1
  8
0
 10
89.630877188853844
 20
-2124.874464990869
 30
0.0
 11
89.730878352251054
 21
-2124.3744649908681
 31
0.0
  0
LINE
  5
160B2
  8
0
 10
91.230877188853995
 20
-2124.874464990869
 30
0.0
 11
91.330878352251105
 21
-2124.3744649908681
 31
0.0
  0
LINE
  5
160B3
  8
0
 10
91.930885332634205
 20
-2121.374464990869
 30
0.0
 11
92.030886496031314
 21
-2120.874464990869
 31
0.0
  0
LINE
  5
160B4
  8
0
 10
90.330885332634296
 20
-2121.374464990869
 30
0.0
 11
90.430886496031405
 21
-2120.874464990869
 31
0.0
  0
LINE
  5
160B5
  8
0
 10
90.430886496031405
 20
-2120.874464990869
 30
0.0
 11
91.230877188853995
 21
-2124.874464990869
 31
0.0
  0
LINE
  5
160B6
  8
0
 10
99.230878769262233
 20
-2124.1952438342578
 30
0.0
 11
99.413642911890236
 21
-2123.6434943704548
 31
0.0
  0
LINE
  5
160B7
  8
0
 10
96.030877188853935
 20
-2124.874464990869
 30
0.0
 11
96.130878352251045
 21
-2124.3744649908681
 31
0.0
  0
LINE
  5
160B8
  8
0
 10
94.430877188853927
 20
-2124.874464990869
 30
0.0
 11
94.530878352250895
 21
-2124.3744649908681
 31
0.0
  0
LINE
  5
160B9
  8
0
 10
97.630877715656595
 20
-2124.6480579386648
 30
0.0
 11
97.760148413286444
 21
-2124.111464203394
 31
0.0
  0
LINE
  5
160BA
  8
0
 10
98.318115930071102
 20
-2121.7953795880771
 30
0.0
 11
98.430885442421143
 21
-2121.3272811329271
 31
0.0
  0
LINE
  5
160BB
  8
0
 10
95.130885332634264
 20
-2121.374464990869
 30
0.0
 11
95.230886496031374
 21
-2120.874464990869
 31
0.0
  0
LINE
  5
160BC
  8
0
 10
96.730885332634173
 20
-2121.374464990869
 30
0.0
 11
96.830886496031283
 21
-2120.874464990869
 31
0.0
  0
LINE
  5
160BD
  8
0
 10
99.879448592376505
 20
-2122.2372664816071
 30
0.0
 11
100.0308843888169
 21
-2121.7800946409761
 31
0.0
  0
LINE
  5
160BE
  8
0
 10
98.430885442421143
 20
-2121.3272811329271
 30
0.0
 11
99.230878769262233
 21
-2124.1952438342578
 31
0.0
  0
LINE
  5
160BF
  8
0
 10
95.230886496031374
 20
-2120.874464990869
 30
0.0
 11
96.030877188853935
 21
-2124.874464990869
 31
0.0
  0
LINE
  5
160C0
  8
0
 10
96.830886496031283
 20
-2120.874464990869
 30
0.0
 11
97.630877715656595
 21
-2124.6480579386648
 31
0.0
  0
LINE
  5
160C1
  8
0
 10
93.630886496031323
 20
-2120.874464990869
 30
0.0
 11
94.430877188853927
 21
-2124.874464990869
 31
0.0
  0
LINE
  5
160C2
  8
0
 10
80.830886496026949
 20
-2120.874464990869
 30
0.0
 11
81.630877188845204
 21
-2124.874464990869
 31
0.0
  0
LINE
  5
160C3
  8
0
 10
81.630877188845204
 20
-2124.874464990869
 30
0.0
 11
81.730878352242883
 21
-2124.3744649908681
 31
0.0
  0
LINE
  5
160C4
  8
0
 10
82.330885332633599
 20
-2121.374464990869
 30
0.0
 11
82.430886496031277
 21
-2120.874464990869
 31
0.0
  0
LINE
  5
160C5
  8
0
 10
80.030877188845054
 20
-2124.874464990869
 30
0.0
 11
80.130878352242746
 21
-2124.3744649908681
 31
0.0
  0
LINE
  5
160C6
  8
0
 10
78.430877188845159
 20
-2124.874464990869
 30
0.0
 11
78.530878352242837
 21
-2124.3744649908681
 31
0.0
  0
LINE
  5
160C7
  8
0
 10
80.730885332629271
 20
-2121.374464990869
 30
0.0
 11
80.830886496026949
 21
-2120.874464990869
 31
0.0
  0
LINE
  5
160C8
  8
0
 10
79.130885332629134
 20
-2121.374464990869
 30
0.0
 11
79.230886496026812
 21
-2120.874464990869
 31
0.0
  0
LINE
  5
160C9
  8
0
 10
79.230886496026812
 20
-2120.874464990869
 30
0.0
 11
80.030877188845054
 21
-2124.874464990869
 31
0.0
  0
LINE
  5
160CA
  8
0
 10
86.430877188849593
 20
-2124.874464990869
 30
0.0
 11
86.530878352247271
 21
-2124.3744649908681
 31
0.0
  0
LINE
  5
160CB
  8
0
 10
88.030877188853935
 20
-2124.874464990869
 30
0.0
 11
88.130878352251045
 21
-2124.3744649908681
 31
0.0
  0
LINE
  5
160CC
  8
0
 10
83.230877188849533
 20
-2124.874464990869
 30
0.0
 11
83.330878352247225
 21
-2124.3744649908681
 31
0.0
  0
LINE
  5
160CD
  8
0
 10
84.830877188849456
 20
-2124.874464990869
 30
0.0
 11
84.930878352247134
 21
-2124.3744649908681
 31
0.0
  0
LINE
  5
160CE
  8
0
 10
88.730885332634159
 20
-2121.374464990869
 30
0.0
 11
88.830886496031269
 21
-2120.874464990869
 31
0.0
  0
LINE
  5
160CF
  8
0
 10
87.130885332633568
 20
-2121.374464990869
 30
0.0
 11
87.23088649603136
 21
-2120.874464990869
 31
0.0
  0
LINE
  5
160D0
  8
0
 10
83.930885332633522
 20
-2121.374464990869
 30
0.0
 11
84.030886496031201
 21
-2120.874464990869
 31
0.0
  0
LINE
  5
160D1
  8
0
 10
85.530885332633659
 20
-2121.374464990869
 30
0.0
 11
85.630886496031337
 21
-2120.874464990869
 31
0.0
  0
LINE
  5
160D2
  8
0
 10
85.630886496031337
 20
-2120.874464990869
 30
0.0
 11
86.430877188849593
 21
-2124.874464990869
 31
0.0
  0
LINE
  5
160D3
  8
0
 10
87.23088649603136
 20
-2120.874464990869
 30
0.0
 11
88.030877188853935
 21
-2124.874464990869
 31
0.0
  0
LINE
  5
160D4
  8
0
 10
84.030886496031201
 20
-2120.874464990869
 30
0.0
 11
84.830877188849456
 21
-2124.874464990869
 31
0.0
  0
LINE
  5
160D5
  8
0
 10
82.430886496031277
 20
-2120.874464990869
 30
0.0
 11
83.230877188849533
 21
-2124.874464990869
 31
0.0
  0
LINE
  5
160D6
  8
0
 10
72.13087835235649
 20
-2124.3744649908681
 30
0.0
 11
72.130885332741173
 21
-2121.374464990869
 31
0.0
  0
LINE
  5
160D7
  8
0
 10
72.730885332625064
 20
-2121.374464990869
 30
0.0
 11
72.830886496022742
 21
-2120.874464990869
 31
0.0
  0
LINE
  5
160D8
  8
0
 10
72.830886496022742
 20
-2120.874464990869
 30
0.0
 11
73.630877188840984
 21
-2124.874464990869
 31
0.0
  0
LINE
  5
160D9
  8
0
 10
73.630877188840984
 20
-2124.874464990869
 30
0.0
 11
73.730878352238662
 21
-2124.3744649908681
 31
0.0
  0
LINE
  5
160DA
  8
0
 10
74.330885332624973
 20
-2121.374464990869
 30
0.0
 11
74.430886496022651
 21
-2120.874464990869
 31
0.0
  0
LINE
  5
160DB
  8
0
 10
75.930885332624882
 20
-2121.374464990869
 30
0.0
 11
76.030886496022561
 21
-2120.874464990869
 31
0.0
  0
LINE
  5
160DC
  8
0
 10
76.030886496022561
 20
-2120.874464990869
 30
0.0
 11
76.830877188840816
 21
-2124.874464990869
 31
0.0
  0
LINE
  5
160DD
  8
0
 10
75.230877188840893
 20
-2124.874464990869
 30
0.0
 11
75.330878352238585
 21
-2124.3744649908681
 31
0.0
  0
LINE
  5
160DE
  8
0
 10
76.830877188840816
 20
-2124.874464990869
 30
0.0
 11
76.930878352238494
 21
-2124.3744649908681
 31
0.0
  0
LINE
  5
160DF
  8
0
 10
74.430886496022651
 20
-2120.874464990869
 30
0.0
 11
75.230877188840893
 21
-2124.874464990869
 31
0.0
  0
LINE
  5
160E0
  8
0
 10
77.530885332629225
 20
-2121.374464990869
 30
0.0
 11
77.630886496026903
 21
-2120.874464990869
 31
0.0
  0
TEXT
  5
160E1
  8
1HATCH
 10
76.785983085048201
 20
-2062.5825756483059
 30
0.0
 40
3.5
  1
PB
  0
SOLID
  5
160E2
  8
1HATCH
 10
77.690513196691072
 20
-2081.735336651996
 30
0.0
 11
77.710850464735245
 21
-2083.7628221652958
 31
0.0
 12
77.034049639299013
 22
-2081.8515263342429
 32
0.0
 13
77.034049639299013
 23
-2081.8515263342429
 33
0.0
  0
SOLID
  5
160E4
  8
1DIM
 10
85.754034009221854
 20
-2081.739723182096
 30
0.0
 11
86.208832678676444
 21
-2083.7156455695831
 31
0.0
 12
85.137778027845144
 22
-2081.9940320688102
 32
0.0
 13
85.137778027845144
 23
-2081.9940320688102
 33
0.0
  0
TEXT
  5
160E6
  8
1DIM
 10
82.953327579586798
 20
-2068.5839216654299
 30
0.0
 40
3.5
  1
合板9mm以上
  0
LINE
  5
160E7
  8
1DIM
 10
-63.867840170307311
 20
-2023.375501074237
 30
0.0
 11
7.132159828432135
 21
-2023.375501074237
 31
0.0
  0
LINE
  5
160E8
  8
1DIM
 10
-14.367840171566961
 20
-2052.3742230884641
 30
0.0
 11
7.1321598284321297
 21
-2052.3742230884641
 31
0.0
  0
LINE
  5
160E9
  8
1DIM
 10
6.1321598284321377
 20
-2025.375501074237
 30
0.0
 11
6.1321598284321324
 21
-2050.3742230884641
 31
0.0
  0
LINE
  5
160ED
  8
1DIM
 10
-213.86809392406121
 20
-2061.8742230884632
 30
0.0
 11
-213.86809392406121
 21
-2073.874418454971
 31
0.0
  0
LINE
  5
160EE
  8
1DIM
 10
-3.8678401715674222
 20
-2061.87422308846
 30
0.0
 11
-3.8678401715674231
 21
-2073.874418454971
 31
0.0
  0
LINE
  5
160EF
  8
1DIM
 10
-211.86809392406121
 20
-2072.8744184549701
 30
0.0
 11
-5.8678401715674227
 21
-2072.8744184549701
 31
0.0
  0
TEXT
  5
160F3
  8
1DIM
 10
-113.12854480123509
 20
-2072.1744184549711
 30
0.0
 40
3.5
  1
210 
  0
LINE
  5
160F4
  8
0
  6
BYBLOCK
 10
-5.8678401715674227
 20
-2072.3385200749699
 30
0.0
 11
-3.8678401715674231
 21
-2072.8744184549701
 31
0.0
  0
LINE
  5
160F5
  8
0
  6
BYBLOCK
 10
-3.8678401715674231
 20
-2072.8744184549701
 30
0.0
 11
-5.8678401715674227
 21
-2073.4103168349711
 31
0.0
  0
LINE
  5
160F6
  8
0
  6
BYBLOCK
 10
-3.8678401715674231
 20
-2072.8744184549701
 30
0.0
 11
-5.8678401715674227
 21
-2072.8744184549701
 31
0.0
  0
LINE
  5
160F7
  8
0
  6
BYBLOCK
 10
-211.86809392406121
 20
-2073.4103168349711
 30
0.0
 11
-213.86809392406121
 21
-2072.8744184549701
 31
0.0
  0
LINE
  5
160F8
  8
0
  6
BYBLOCK
 10
-213.86809392406121
 20
-2072.8744184549701
 30
0.0
 11
-211.86809392406121
 21
-2072.3385200749699
 31
0.0
  0
LINE
  5
160F9
  8
0
  6
BYBLOCK
 10
-213.86809392406121
 20
-2072.8744184549701
 30
0.0
 11
-211.86809392406121
 21
-2072.8744184549701
 31
0.0
  0
TEXT
  5
160FA
  8
1DIM
 10
5.4321598284324617
 20
-2040.7915287480171
 30
0.0
 40
3.5
  1
29 
 50
90.0
  0
LINE
  5
160FB
  8
0
  6
BYBLOCK
 10
6.6680582084321323
 20
-2050.3742230884641
 30
0.0
 11
6.1321598284321324
 21
-2052.3742230884641
 31
0.0
  0
LINE
  5
160FC
  8
0
  6
BYBLOCK
 10
6.1321598284321324
 20
-2052.3742230884641
 30
0.0
 11
5.5962614484321316
 21
-2050.3742230884641
 31
0.0
  0
LINE
  5
160FD
  8
0
  6
BYBLOCK
 10
6.1321598284321324
 20
-2052.3742230884641
 30
0.0
 11
6.1321598284321324
 21
-2050.3742230884641
 31
0.0
  0
LINE
  5
160FE
  8
0
  6
BYBLOCK
 10
5.5962614484321378
 20
-2025.375501074237
 30
0.0
 11
6.1321598284321377
 21
-2023.375501074237
 31
0.0
  0
LINE
  5
160FF
  8
0
  6
BYBLOCK
 10
6.1321598284321377
 20
-2023.375501074237
 30
0.0
 11
6.6680582084321376
 21
-2025.375501074237
 31
0.0
  0
LINE
  5
16100
  8
0
  6
BYBLOCK
 10
6.1321598284321377
 20
-2023.375501074237
 30
0.0
 11
6.1321598284321377
 21
-2025.375501074237
 31
0.0
  0
LINE
  5
16101
  8
1DIM
 10
85.445906018533478
 20
-2081.8668776254522
 30
0.0
 11
80.253327579586809
 21
-2069.2839216654302
 31
0.0
  0
LINE
  5
16102
  8
1DIM
 10
80.253327579586809
 20
-2069.2839216654302
 30
0.0
 11
112.1533275795868
 21
-2069.2839216654302
 31
0.0
  0
LINE
  5
16103
  8
1HATCH
 10
77.362281417995035
 20
-2081.793431493119
 30
0.0
 11
74.085983085048198
 21
-2063.2825756483062
 31
0.0
  0
LINE
  5
16104
  8
1HATCH
 10
74.085983085048198
 20
-2063.2825756483062
 30
0.0
 11
82.619316418381516
 21
-2063.2825756483062
 31
0.0
  0
LINE
  5
16105
  8
0
 10
102.1308818424947
 20
-2122.874464990869
 30
0.0
 11
96.830885332633045
 21
-2121.374464990869
 31
0.0
  0
LINE
  5
16106
  8
0
 10
96.830885332633045
 20
-2121.374464990869
 30
0.0
 11
72.130885332741173
 21
-2121.374464990869
 31
0.0
  0
LINE
  5
16107
  8
0
 10
102.1308818424947
 20
-2122.874464990869
 30
0.0
 11
96.8308783522494
 21
-2124.3744649908681
 31
0.0
  0
LINE
  5
16108
  8
0
 10
72.130889986439243
 20
-2119.3744184549701
 30
0.0
 11
72.130885332741173
 21
-2121.374464990869
 31
0.0
  0
LINE
  5
16109
  8
0
 10
96.8308783522494
 20
-2124.3744649908681
 30
0.0
 11
72.13087835235649
 21
-2124.3744649908681
 31
0.0
  0
LINE
  5
1610A
  8
0
 10
72.130889986439243
 20
-2119.3744184549701
 30
0.0
 11
71.030886496243923
 21
-2119.3744184549701
 31
0.0
  0
LINE
  5
1610B
  8
0
 10
72.13087835235649
 20
-2124.3744649908681
 30
0.0
 11
72.130873698874964
 21
-2126.3744184549701
 31
0.0
  0
ARC
  5
1610C
  8
0
 10
71.030886496243923
 20
-2120.8744184549701
 30
0.0
 40
1.5
 50
90.0
 51
179.99986668447491
  0
LINE
  5
1610D
  8
0
 10
72.130873698874964
 20
-2126.3744184549701
 30
0.0
 11
71.030877189064327
 21
-2126.3744184549701
 31
0.0
  0
LINE
  5
1610E
  8
0
 10
69.530886496247987
 20
-2120.8744149647782
 30
0.0
 11
69.530877189068391
 21
-2124.8744149647791
 31
0.0
  0
ARC
  5
1610F
  8
0
 10
71.030877189064327
 20
-2124.8744184549701
 30
0.0
 40
1.5
 50
179.99986668447491
 51
270.0
  0
TEXT
  5
16110
  8
1DIM
 10
46.714854168878183
 20
-2091.174223088462
 30
0.0
 40
3.5
  1
47 
  0
LINE
  5
16111
  8
0
  6
BYBLOCK
 10
28.13215982843246
 20
-2092.410121468462
 30
0.0
 11
26.132159828432471
 21
-2091.8742230884618
 31
0.0
  0
LINE
  5
16112
  8
0
  6
BYBLOCK
 10
26.132159828432471
 20
-2091.8742230884618
 30
0.0
 11
28.13215982843246
 21
-2091.3383247084621
 31
0.0
  0
LINE
  5
16113
  8
0
  6
BYBLOCK
 10
26.132159828432471
 20
-2091.8742230884618
 30
0.0
 11
28.13215982843246
 21
-2091.8742230884618
 31
0.0
  0
LINE
  5
16114
  8
0
  6
BYBLOCK
 10
71.130881842657232
 20
-2091.3383247084621
 30
0.0
 11
73.130881842657232
 21
-2091.8742230884618
 31
0.0
  0
LINE
  5
16115
  8
0
  6
BYBLOCK
 10
73.130881842657232
 20
-2091.8742230884618
 30
0.0
 11
71.130881842657232
 21
-2092.410121468462
 31
0.0
  0
LINE
  5
16116
  8
0
  6
BYBLOCK
 10
73.130881842657232
 20
-2091.8742230884618
 30
0.0
 11
71.130881842657232
 21
-2091.8742230884618
 31
0.0
  0
TEXT
  5
16117
  8
1DIM
 10
65.380881842657232
 20
-2101.174223088462
 30
0.0
 40
3.5
  1
8.5 
  0
LINE
  5
16118
  8
0
  6
BYBLOCK
 10
66.630881842657004
 20
-2102.410121468462
 30
0.0
 11
64.630881842657004
 21
-2101.8742230884618
 31
0.0
  0
LINE
  5
16119
  8
0
  6
BYBLOCK
 10
64.630881842657004
 20
-2101.8742230884618
 30
0.0
 11
66.630881842657004
 21
-2101.3383247084621
 31
0.0
  0
LINE
  5
1611A
  8
0
  6
BYBLOCK
 10
64.630881842657004
 20
-2101.8742230884618
 30
0.0
 11
66.630881842657004
 21
-2101.8742230884618
 31
0.0
  0
LINE
  5
1611B
  8
0
  6
BYBLOCK
 10
71.130881842657459
 20
-2101.3383247084621
 30
0.0
 11
73.130881842657459
 21
-2101.8742230884618
 31
0.0
  0
LINE
  5
1611C
  8
0
  6
BYBLOCK
 10
73.130881842657459
 20
-2101.8742230884618
 30
0.0
 11
71.130881842657459
 21
-2102.410121468462
 31
0.0
  0
LINE
  5
1611D
  8
0
  6
BYBLOCK
 10
73.130881842657459
 20
-2101.8742230884618
 30
0.0
 11
71.130881842657459
 21
-2101.8742230884618
 31
0.0
  0
TEXT
  5
1611E
  8
1DIM
 10
30.215493161765909
 20
-2101.174223088462
 30
0.0
 40
3.5
  1
17.5 
  0
LINE
  5
1611F
  8
0
  6
BYBLOCK
 10
41.632159828432691
 20
-2101.3383247084621
 30
0.0
 11
43.632159828432691
 21
-2101.8742230884618
 31
0.0
  0
LINE
  5
16120
  8
0
  6
BYBLOCK
 10
43.632159828432691
 20
-2101.8742230884618
 30
0.0
 11
41.632159828432691
 21
-2102.410121468462
 31
0.0
  0
LINE
  5
16121
  8
0
  6
BYBLOCK
 10
43.632159828432691
 20
-2101.8742230884618
 30
0.0
 11
41.632159828432691
 21
-2101.8742230884618
 31
0.0
  0
LINE
  5
16122
  8
0
  6
BYBLOCK
 10
28.13215982843246
 20
-2102.410121468462
 30
0.0
 11
26.132159828432471
 21
-2101.8742230884618
 31
0.0
  0
LINE
  5
16123
  8
0
  6
BYBLOCK
 10
26.132159828432471
 20
-2101.8742230884618
 30
0.0
 11
28.13215982843246
 21
-2101.3383247084621
 31
0.0
  0
LINE
  5
16124
  8
0
  6
BYBLOCK
 10
26.132159828432471
 20
-2101.8742230884618
 30
0.0
 11
28.13215982843246
 21
-2101.8742230884618
 31
0.0
  0
TEXT
  5
16125
  8
1DIM
 10
-178.9929288726361
 20
-2142.1744184549711
 30
0.0
 40
3.5
  1
60 
  0
LINE
  5
16126
  8
0
  6
BYBLOCK
 10
-148.3679574370698
 20
-2142.3385200749708
 30
0.0
 11
-146.3679574370698
 21
-2142.874418454971
 31
0.0
  0
LINE
  5
16127
  8
0
  6
BYBLOCK
 10
-146.3679574370698
 20
-2142.874418454971
 30
0.0
 11
-148.3679574370698
 21
-2143.4103168349711
 31
0.0
  0
LINE
  5
16128
  8
0
  6
BYBLOCK
 10
-146.3679574370698
 20
-2142.874418454971
 30
0.0
 11
-148.3679574370698
 21
-2142.874418454971
 31
0.0
  0
LINE
  5
16129
  8
0
  6
BYBLOCK
 10
-204.36790030820251
 20
-2143.4103168349711
 30
0.0
 11
-206.36790030820251
 21
-2142.874418454971
 31
0.0
  0
LINE
  5
1612A
  8
0
  6
BYBLOCK
 10
-206.36790030820251
 20
-2142.874418454971
 30
0.0
 11
-204.36790030820251
 21
-2142.3385200749708
 31
0.0
  0
LINE
  5
1612B
  8
0
  6
BYBLOCK
 10
-206.36790030820251
 20
-2142.874418454971
 30
0.0
 11
-204.36790030820251
 21
-2142.874418454971
 31
0.0
  0
TEXT
  5
1612C
  8
1DIM
 10
-118.99300651748111
 20
-2142.1744184549711
 30
0.0
 40
3.5
  1
60 
  0
LINE
  5
1612D
  8
0
  6
BYBLOCK
 10
-88.368055597892536
 20
-2142.3385200749708
 30
0.0
 11
-86.36805559789255
 21
-2142.874418454971
 31
0.0
  0
LINE
  5
1612E
  8
0
  6
BYBLOCK
 10
-86.36805559789255
 20
-2142.874418454971
 30
0.0
 11
-88.368055597892536
 21
-2143.4103168349711
 31
0.0
  0
LINE
  5
1612F
  8
0
  6
BYBLOCK
 10
-86.36805559789255
 20
-2142.874418454971
 30
0.0
 11
-88.368055597892536
 21
-2142.874418454971
 31
0.0
  0
LINE
  5
16130
  8
0
  6
BYBLOCK
 10
-144.3679574370698
 20
-2143.4103168349711
 30
0.0
 11
-146.3679574370698
 21
-2142.874418454971
 31
0.0
  0
LINE
  5
16131
  8
0
  6
BYBLOCK
 10
-146.3679574370698
 20
-2142.874418454971
 30
0.0
 11
-144.3679574370698
 21
-2142.3385200749708
 31
0.0
  0
LINE
  5
16132
  8
0
  6
BYBLOCK
 10
-146.3679574370698
 20
-2142.874418454971
 30
0.0
 11
-144.3679574370698
 21
-2142.874418454971
 31
0.0
  0
LINE
  5
16133
  8
0
 10
53.13109709300852
 20
-2120.770379334881
 30
0.0
 11
53.130888489718807
 21
-2130.1203607195748
 31
0.0
  0
LINE
  5
16134
  8
0
 10
51.130869875229678
 20
-2132.1203653732141
 30
0.0
 11
53.130888489718807
 21
-2130.1203607195748
 31
0.0
  0
LINE
  5
16135
  8
0
 10
53.481099762513729
 20
-2120.4203817780249
 30
0.0
 11
53.13109709300852
 21
-2120.770379334881
 31
0.0
  0
LINE
  5
16136
  8
0
 10
51.130869875229678
 20
-2132.1203653732141
 30
0.0
 11
51.130867083075827
 21
-2132.4203653732011
 31
0.0
  0
LINE
  5
16137
  8
0
 10
56.781099762444107
 20
-2120.4204048132951
 30
0.0
 11
53.481099762513729
 21
-2120.4203817780249
 31
0.0
  0
LINE
  5
16138
  8
0
 10
59.130867082902682
 20
-2132.420421216279
 30
0.0
 11
51.130867083075827
 21
-2132.4203653732011
 31
0.0
  0
LINE
  5
16139
  8
0
 10
56.781099762444107
 20
-2120.4204048132951
 30
0.0
 11
57.131097092921323
 21
-2120.7704072564188
 31
0.0
  0
LINE
  5
1613A
  8
0
 10
59.130869875056533
 20
-2132.1204212162911
 30
0.0
 11
59.130867082902682
 21
-2132.420421216279
 31
0.0
  0
LINE
  5
1613B
  8
0
 10
57.131097092921323
 20
-2120.7704072564188
 30
0.0
 11
57.130888489372289
 21
-2130.1204165627391
 31
0.0
  0
LINE
  5
1613C
  8
0
 10
59.130869875056533
 20
-2132.1204212162911
 30
0.0
 11
57.130888489372289
 21
-2130.1204165627391
 31
0.0
  0
LINE
  5
1613D
  8
1DIM
 10
-68.073300369245246
 20
-2119.863652712274
 30
0.0
 11
-52.101173504900778
 21
-2101.8743150206251
 31
0.0
  0
LINE
  5
1613E
  8
1DIM
 10
-52.101173504900778
 20
-2101.8743150206251
 30
0.0
 11
-4.1345068382340946
 21
-2101.8743150206251
 31
0.0
  0
TEXT
  5
1613F
  8
1DIM
 10
61.797532102683171
 20
-2142.1744184549711
 30
0.0
 40
3.5
  1
18 
  0
LINE
  5
16140
  8
0
  6
BYBLOCK
 10
57.130849029376009
 20
-2143.4103168349711
 30
0.0
 11
55.130849029376009
 21
-2142.874418454971
 31
0.0
  0
LINE
  5
16141
  8
0
  6
BYBLOCK
 10
55.130849029376009
 20
-2142.874418454971
 30
0.0
 11
57.130849029376009
 21
-2142.3385200749708
 31
0.0
  0
LINE
  5
16142
  8
0
  6
BYBLOCK
 10
55.130849029376009
 20
-2142.874418454971
 30
0.0
 11
57.130849029376009
 21
-2142.874418454971
 31
0.0
  0
LINE
  5
16143
  8
0
  6
BYBLOCK
 10
71.130881842657004
 20
-2142.3385200749708
 30
0.0
 11
73.130881842657004
 21
-2142.874418454971
 31
0.0
  0
LINE
  5
16144
  8
0
  6
BYBLOCK
 10
73.130881842657004
 20
-2142.874418454971
 30
0.0
 11
71.130881842657004
 21
-2143.4103168349711
 31
0.0
  0
LINE
  5
16145
  8
0
  6
BYBLOCK
 10
73.130881842657004
 20
-2142.874418454971
 30
0.0
 11
71.130881842657004
 21
-2142.874418454971
 31
0.0
  0
TEXT
  5
16146
  8
1DIM
 10
5.4321598284324537
 20
-2124.7076541050501
 30
0.0
 40
3.5
  1
21 
 50
90.0
  0
LINE
  5
16147
  8
0
  6
BYBLOCK
 10
6.6680582084321118
 20
-2130.874418454971
 30
0.0
 11
6.132159828432111
 21
-2132.874418454971
 31
0.0
  0
LINE
  5
16148
  8
0
  6
BYBLOCK
 10
6.132159828432111
 20
-2132.874418454971
 30
0.0
 11
5.596261448432112
 21
-2130.874418454971
 31
0.0
  0
LINE
  5
16149
  8
0
  6
BYBLOCK
 10
6.132159828432111
 20
-2132.874418454971
 30
0.0
 11
6.132159828432111
 21
-2130.874418454971
 31
0.0
  0
LINE
  5
1614A
  8
0
  6
BYBLOCK
 10
5.5962614484321156
 20
-2113.8742230884632
 30
0.0
 11
6.1321598284321164
 21
-2111.8742230884632
 31
0.0
  0
LINE
  5
1614B
  8
0
  6
BYBLOCK
 10
6.1321598284321164
 20
-2111.8742230884632
 30
0.0
 11
6.6680582084321163
 21
-2113.8742230884632
 31
0.0
  0
LINE
  5
1614C
  8
0
  6
BYBLOCK
 10
6.1321598284321164
 20
-2111.8742230884632
 30
0.0
 11
6.1321598284321164
 21
-2113.8742230884632
 31
0.0
  0
VIEWPORT
  5
57
 67
     1
  8
0
 10
-7.6686908569042478
 20
10.09248672500371
 30
0.0
 40
426.40350650101209
 41
282.74477374776671
 68
     1
 69
     1
1001
ACAD
1000
MVIEW
1002
{
1070
    16
1010
0.0
1020
0.0
1030
0.0
1010
0.0
1020
0.0
1030
1.0
1040
0.0
1040
282.74477374776671
1040
-7.6686908569042478
1040
10.09248672500371
1040
50.0
1040
0.0
1040
0.0
1070
     0
1070
   100
1070
     1
1070
     1
1070
     0
1070
     0
1070
     0
1070
     0
1040
0.0
1040
0.0
1040
0.0
1040
10.0
1040
10.0
1040
10.0
1040
10.0
1070
     0
1002
{
1002
}
1002
}
  0
ENDSEC
  0
EOF
