  0
SECTION
  2
HEADER
  9
$ACADVER
  1
AC1009
  9
$INSBASE
 10
0.0
 20
0.0
 30
0.0
  9
$EXTMIN
 10
-684.8421392666412
 20
-1756.052965620562
 30
0.0
  9
$EXTMAX
 10
-528.29501532895029
 20
-1589.3070933000829
 30
0.0
  9
$LIMMIN
 10
0.0
 20
0.0
  9
$LIMMAX
 10
420.0
 20
297.0
  9
$ORTHOMODE
 70
     0
  9
$REGENMODE
 70
     1
  9
$FILLMODE
 70
     1
  9
$QTEXTMODE
 70
     0
  9
$MIRRTEXT
 70
     0
  9
$DRAGMODE
 70
     2
  9
$LTSCALE
 40
0.5
  9
$OSMODE
 70
  2175
  9
$ATTMODE
 70
     1
  9
$TEXTSIZE
 40
4.0
  9
$TRACEWID
 40
1.0
  9
$TEXTSTYLE
  7
STANDARD
  9
$CLAYER
  8
1TEXT
  9
$CELTYPE
  6
BYLAYER
  9
$CECOLOR
 62
   256
  9
$DIMSCALE
 40
1.0
  9
$DIMASZ
 40
2.0
  9
$DIMEXO
 40
0.0
  9
$DIMDLI
 40
7.0
  9
$DIMRND
 40
0.0
  9
$DIMDLE
 40
0.0
  9
$DIMEXE
 40
1.0
  9
$DIMTP
 40
0.0
  9
$DIMTM
 40
0.0
  9
$DIMTXT
 40
3.5
  9
$DIMCEN
 40
0.0
  9
$DIMTSZ
 40
0.0
  9
$DIMTOL
 70
     0
  9
$DIMLIM
 70
     0
  9
$DIMTIH
 70
     0
  9
$DIMTOH
 70
     0
  9
$DIMSE1
 70
     0
  9
$DIMSE2
 70
     0
  9
$DIMTAD
 70
     1
  9
$DIMZIN
 70
     8
  9
$DIMBLK
  1

  9
$DIMASO
 70
     1
  9
$DIMSHO
 70
     1
  9
$DIMPOST
  1
 
  9
$DIMAPOST
  1

  9
$DIMALT
 70
     0
  9
$DIMALTD
 70
     2
  9
$DIMALTF
 40
25.399999999999999
  9
$DIMLFAC
 40
1.0
  9
$DIMTOFL
 70
     1
  9
$DIMTVP
 40
0.0
  9
$DIMTIX
 70
     0
  9
$DIMSOXD
 70
     0
  9
$DIMSAH
 70
     1
  9
$DIMBLK1
  1
OPEN30
  9
$DIMBLK2
  1
OPEN30
  9
$DIMSTYLE
  2
NEWX10
  9
$DIMCLRD
 70
   256
  9
$DIMCLRE
 70
   256
  9
$DIMCLRT
 70
   201
  9
$DIMTFAC
 40
0.7
  9
$DIMGAP
 40
0.7
  9
$LUNITS
 70
     2
  9
$LUPREC
 70
     4
  9
$SKETCHINC
 40
1.0
  9
$FILLETRAD
 40
0.0
  9
$AUNITS
 70
     0
  9
$AUPREC
 70
     2
  9
$MENU
  1
acad
  9
$ELEVATION
 40
0.0
  9
$PELEVATION
 40
0.0
  9
$THICKNESS
 40
0.0
  9
$LIMCHECK
 70
     0
  9
$BLIPMODE
 70
     0
  9
$CHAMFERA
 40
10.0
  9
$CHAMFERB
 40
10.0
  9
$SKPOLY
 70
     0
  9
$TDCREATE
 40
2453033.7326634838
  9
$TDUPDATE
 40
2454396.8367862031
  9
$TDINDWG
 40
1.6605027430999999
  9
$TDUSRTIMER
 40
1.6605027430999999
  9
$USRTIMER
 70
     1
  9
$ANGBASE
 50
0.0
  9
$ANGDIR
 70
     0
  9
$PDMODE
 70
     0
  9
$PDSIZE
 40
0.0
  9
$PLINEWID
 40
0.0
  9
$COORDS
 70
     2
  9
$SPLFRAME
 70
     0
  9
$SPLINETYPE
 70
     6
  9
$SPLINESEGS
 70
     8
  9
$ATTDIA
 70
     0
  9
$ATTREQ
 70
     1
  9
$HANDLING
 70
     1
  9
$HANDSEED
  5
16985
  9
$SURFTAB1
 70
     6
  9
$SURFTAB2
 70
     6
  9
$SURFTYPE
 70
     6
  9
$SURFU
 70
     6
  9
$SURFV
 70
     6
  9
$UCSNAME
  2

  9
$UCSORG
 10
0.0
 20
0.0
 30
0.0
  9
$UCSXDIR
 10
1.0
 20
0.0
 30
0.0
  9
$UCSYDIR
 10
0.0
 20
1.0
 30
0.0
  9
$PUCSNAME
  2

  9
$PUCSORG
 10
0.0
 20
0.0
 30
0.0
  9
$PUCSXDIR
 10
1.0
 20
0.0
 30
0.0
  9
$PUCSYDIR
 10
0.0
 20
1.0
 30
0.0
  9
$USERI1
 70
     0
  9
$USERI2
 70
     0
  9
$USERI3
 70
     0
  9
$USERI4
 70
     0
  9
$USERI5
 70
     0
  9
$USERR1
 40
0.0
  9
$USERR2
 40
0.0
  9
$USERR3
 40
0.0
  9
$USERR4
 40
0.0
  9
$USERR5
 40
0.0
  9
$WORLDVIEW
 70
     1
  9
$SHADEDGE
 70
     3
  9
$SHADEDIF
 70
    70
  9
$TILEMODE
 70
     1
  9
$MAXACTVP
 70
    48
  9
$PLIMCHECK
 70
     0
  9
$PEXTMIN
 10
1.0000000000000000E+020
 20
1.0000000000000000E+020
 30
1.0000000000000000E+020
  9
$PEXTMAX
 10
-1.0000000000000000E+020
 20
-1.0000000000000000E+020
 30
-1.0000000000000000E+020
  9
$PLIMMIN
 10
0.0
 20
0.0
  9
$PLIMMAX
 10
420.0
 20
297.0
  9
$UNITMODE
 70
     0
  9
$VISRETAIN
 70
     1
  9
$PLINEGEN
 70
     0
  9
$PSLTSCALE
 70
     1
  0
ENDSEC
  0
SECTION
  2
TABLES
  0
TABLE
  2
VPORT
 70
     4
  0
VPORT
  2
*ACTIVE
 70
     0
 10
0.0
 20
0.0
 11
1.0
 21
1.0
 12
-606.56787496875847
 22
-1672.707206704157
 13
0.0
 23
0.0
 14
10.0
 24
10.0
 15
10.0
 25
10.0
 16
0.0
 26
0.0
 36
1.0
 17
0.0
 27
0.0
 37
0.0
 40
177.014657071958
 41
1.508086253369272
 42
50.0
 43
0.0
 44
0.0
 50
0.0
 51
0.0
 71
     0
 72
   100
 73
     1
 74
     1
 75
     0
 76
     0
 77
     0
 78
     0
  0
ENDTAB
  0
TABLE
  2
LTYPE
 70
    15
  0
LTYPE
  2
CONTINUOUS
 70
     0
  3
Solid line
 72
    65
 73
     0
 40
0.0
  0
LTYPE
  2
CENTER2
 70
     0
  3
Center (.5x) ___ _ ___ _ ___ _ ___ _ ___ _ ___
 72
    65
 73
     4
 40
28.574999999999999
 49
19.050000000000001
 49
-3.1749999999999989
 49
3.1749999999999989
 49
-3.1749999999999989
  0
LTYPE
  2
XREF1|CENTER2
 70
    48
  3
Center (.5x) ___ _ ___ _ ___ _ ___ _ ___ _ ___
 72
    65
 73
     4
 40
28.574999999999999
 49
19.050000000000001
 49
-3.1749999999999989
 49
3.1749999999999989
 49
-3.1749999999999989
  0
LTYPE
  2
PHANTOM2
 70
     0
  3
Phantom (.5x) ___ _ _ ___ _ _ ___ _ _ ___ _ _
 72
    65
 73
     6
 40
31.75
 49
15.875
 49
-3.1749999999999989
 49
3.1749999999999989
 49
-3.1749999999999989
 49
3.1749999999999989
 49
-3.1749999999999989
  0
LTYPE
  2
A3WAKUDAKE|CENTER2
 70
    48
  3
Center (.5x) ___ _ ___ _ ___ _ ___ _ ___ _ ___
 72
    65
 73
     4
 40
28.574999999999999
 49
19.050000000000001
 49
-3.1749999999999989
 49
3.1749999999999989
 49
-3.1749999999999989
  0
ENDTAB
  0
TABLE
  2
LAYER
 70
    44
  0
LAYER
  2
0
 70
     0
 62
     7
  6
CONTINUOUS
  0
LAYER
  2
1CENTER
 70
     0
 62
     7
  6
CENTER2
  0
LAYER
  2
1TEXT
 70
     0
 62
     7
  6
CONTINUOUS
  0
LAYER
  2
1DIM
 70
     0
 62
     7
  6
CONTINUOUS
  0
LAYER
  2
1PHANTOM
 70
     0
 62
     7
  6
PHANTOM2
  0
LAYER
  2
01
 70
     0
 62
     1
  6
CONTINUOUS
  0
LAYER
  2
1HATCH
 70
     0
 62
     7
  6
CONTINUOUS
  0
LAYER
  2
XREF1|1CENTER
 70
    48
 62
     7
  6
XREF1|CENTER2
  0
LAYER
  2
A3WAKUDAKE|THICK
 70
    48
 62
     7
  6
CONTINUOUS
  0
LAYER
  2
A3WAKUDAKE|POINT
 70
    48
 62
     7
  6
CONTINUOUS
  0
LAYER
  2
A3WAKUDAKE|1CENTER
 70
    48
 62
     7
  6
A3WAKUDAKE|CENTER2
  0
LAYER
  2
A3WAKUDAKE|0-6
 70
    48
 62
     7
  6
CONTINUOUS
  0
LAYER
  2
A3WAKUDAKE|1DIM
 70
    48
 62
     7
  6
CONTINUOUS
  0
ENDTAB
  0
TABLE
  2
STYLE
 70
    22
  0
STYLE
  2
STANDARD
 70
     0
 40
0.0
 41
1.0
 50
0.0
 71
     0
 42
4.0
  3
txt.shx
  4
extfont.shx
  0
ENDTAB
  0
TABLE
  2
VIEW
 70
     0
  0
ENDTAB
  0
TABLE
  2
UCS
 70
     0
  0
ENDTAB
  0
TABLE
  2
APPID
 70
     9
  0
APPID
  2
ACAD
 70
     0
  0
APPID
  2
DRAWINGVARIABLESXDATA
 70
     0
  0
APPID
  2
CONTENTTABDATA
 70
     0
  0
APPID
  2
CONTENTCURRENTTAB
 70
     0
  0
APPID
  2
CONTENTBLOCKDESCRIPTION
 70
     0
  0
APPID
  2
CONTENTBLOCKICON
 70
     0
  0
APPID
  2
CONTENTLONGBLOCKNAME
 70
     0
  0
APPID
  2
ACAD_PSEXT
 70
     0
  0
APPID
  2
ACAD_DSTYLE_DIMTEXT_FILL
 70
     0
  0
ENDTAB
  0
TABLE
  2
DIMSTYLE
 70
     9
  0
DIMSTYLE
  2
NEWX10
 70
     0
  3
 
  4

  5

  6
OPEN30
  7
OPEN30
 40
1.0
 41
2.0
 42
0.0
 43
7.0
 44
1.0
 45
0.0
 46
0.0
 47
0.0
 48
0.0
140
3.5
141
0.0
142
0.0
143
25.399999999999999
144
1.0
145
0.0
146
0.7
147
0.7
 71
     0
 72
     0
 73
     0
 74
     0
 75
     0
 76
     0
 77
     1
 78
     8
170
     0
171
     2
172
     1
173
     1
174
     0
175
     0
176
   256
177
   256
178
   201
  0
ENDTAB
  0
ENDSEC
  0
SECTION
  2
BLOCKS
  0
BLOCK
  8
0
  2
$MODEL_SPACE
 70
     0
 10
0.0
 20
0.0
 30
0.0
  3
$MODEL_SPACE
  1

  0
ENDBLK
  5
1A
  8
0
  0
BLOCK
 67
     1
  8
0
  2
$PAPER_SPACE
 70
     0
 10
0.0
 20
0.0
 30
0.0
  3
$PAPER_SPACE
  1

  0
ENDBLK
  5
17
 67
     1
  8
0
  0
BLOCK
  8
0
  2
_OPEN30
 70
     0
 10
0.0
 20
0.0
 30
0.0
  3
_OPEN30
  1

  0
LINE
  5
44
  8
0
  6
BYBLOCK
 62
     0
 10
-1.0
 20
0.26794919
 30
0.0
 11
0.0
 21
0.0
 31
0.0
  0
LINE
  5
45
  8
0
  6
BYBLOCK
 62
     0
 10
0.0
 20
0.0
 30
0.0
 11
-1.0
 21
-0.26794919
 31
0.0
  0
LINE
  5
46
  8
0
  6
BYBLOCK
 62
     0
 10
0.0
 20
0.0
 30
0.0
 11
-1.0
 21
0.0
 31
0.0
  0
ENDBLK
  5
47
  8
0
  0
BLOCK
  8
0
  2
XREF1
 70
    36
 10
0.0
 20
0.0
 30
0.0
  3
XREF1
  1
D:\ACLT\FORMAT\KAWAJUN(9)図面用.dwg
  0
ENDBLK
  5
5D
  8
0
  0
BLOCK
  8
0
  2
A3WAKUDAKE
 70
    36
 10
0.0
 20
0.0
 30
0.0
  3
A3WAKUDAKE
  1
D:\ACLT\FORMAT\A3WAKUdake.dwg
  0
ENDBLK
  5
6DC
  8
0
  0
BLOCK
  8
0
  2
*U18
 70
     1
 10
0.0
 20
0.0
 30
0.0
  3
*U18
  1

  0
LINE
  5
1694D
  8
0
 10
-34.700003489976531
 20
-1.4999534641020771
 30
0.0
 11
-2.8000383918526941
 21
-1.4999534641020771
 31
0.0
  0
LINE
  5
1694E
  8
0
 10
-0.3000093071805736
 20
-4.0
 30
0.0
 11
-2.8000383918526941
 21
-1.4999534641020771
 31
0.0
  0
LINE
  5
1694F
  8
0
 10
-39.99999999983757
 20
0.0000465358979227
 30
0.0
 11
-34.700003489976531
 21
-1.4999534641020771
 31
0.0
  0
LINE
  5
16950
  8
0
 10
-0.3000093071805736
 20
-4.0
 30
0.0
 11
-0.0000093071795959
 21
-4.0
 31
0.0
  0
LINE
  5
16951
  8
0
 10
-39.99999999983757
 20
0.0000465358979227
 30
0.0
 11
-34.699996509592239
 21
1.500046535897922
 31
0.0
  0
LINE
  5
16952
  8
0
 10
-0.0000093071795959
 20
-4.0
 30
0.0
 11
0.0000093071795959
 21
4.0
 31
0.0
  0
LINE
  5
16953
  8
0
 10
-34.699996509592239
 20
1.500046535897922
 30
0.0
 11
-2.7999732414874918
 21
1.500046535897922
 31
0.0
  0
LINE
  5
16954
  8
0
 10
-0.2999906928214955
 20
4.0
 30
0.0
 11
0.0000093071795959
 21
4.0
 31
0.0
  0
LINE
  5
16955
  8
0
 10
-0.2999906928214955
 20
4.0
 30
0.0
 11
-2.7999732414874918
 21
1.500046535897922
 31
0.0
  0
ENDBLK
  5
16957
  8
0
  0
BLOCK
  8
0
  2
*U19
 70
     1
 10
0.0
 20
0.0
 30
0.0
  3
*U19
  1

  0
LINE
  5
16959
  8
0
 10
-4.7499941827476269
 20
1.500051962965244
 30
0.0
 11
-1.6999825490125879
 21
1.5000142687798641
 31
0.0
  0
LINE
  5
1695A
  8
0
 10
-4.9999912742822508
 20
1.250054871430506
 30
0.0
 11
-4.7499941827476269
 21
1.500051962965244
 31
0.0
  0
LINE
  5
1695B
  8
0
 10
-0.1999790588486121
 20
3.0000003080426718
 30
0.0
 11
-1.6999825490125879
 21
1.5000142687798641
 31
0.0
  0
LINE
  5
1695C
  8
0
 10
-4.9999912742822508
 20
1.250054871430506
 30
0.0
 11
-5.0000087252440153
 21
-1.249945128534363
 31
0.0
  0
LINE
  5
1695D
  8
0
 10
-0.1999790588486121
 20
3.0000003080426718
 30
0.0
 11
0.0000209411432479
 21
2.9999984466066958
 31
0.0
  0
LINE
  5
1695E
  8
0
 10
-5.0000087252440153
 20
-1.249945128534363
 30
0.0
 11
-4.7500058167220232
 21
-1.4999480370562419
 31
0.0
  0
LINE
  5
1695F
  8
0
 10
0.0000209411432479
 20
2.9999984466066958
 30
0.0
 11
-0.0000209411649621
 21
-3.000001553263246
 31
0.0
  0
LINE
  5
16960
  8
0
 10
-4.7500058167220232
 20
-1.4999480370562419
 30
0.0
 11
-1.7000244313859409
 21
-1.4999857309602469
 31
0.0
  0
LINE
  5
16961
  8
0
 10
-0.2000209411568221
 20
-2.9999996918273828
 30
0.0
 11
-0.0000209411649621
 21
-3.000001553263246
 31
0.0
  0
LINE
  5
16962
  8
0
 10
-0.2000209411568221
 20
-2.9999996918273828
 30
0.0
 11
-1.7000244313859409
 21
-1.4999857309602469
 31
0.0
  0
ENDBLK
  5
16964
  8
0
  0
BLOCK
  8
0
  2
*U20
 70
     1
 10
0.0
 20
0.0
 30
0.0
  3
*U20
  1

  0
TEXT
  5
16966
  8
1DIM
 62
   201
 10
-649.43858587604745
 20
-1706.544911771661
 30
0.0
 40
3.5
  1
51 
 50
90.0
  0
ENDBLK
  5
16968
  8
0
  0
BLOCK
  8
0
  2
*U21
 70
     1
 10
0.0
 20
0.0
 30
0.0
  3
*U21
  1

  0
TEXT
  5
1696A
  8
1DIM
 62
   201
 10
-529.99501532895033
 20
-1689.020655008736
 30
0.0
 40
3.5
  1
16 
 50
90.0
  0
ENDBLK
  5
1696C
  8
0
  0
BLOCK
  8
0
  2
*U22
 70
     1
 10
0.0
 20
0.0
 30
0.0
  3
*U22
  1

  0
TEXT
  5
1696E
  8
1DIM
 62
   201
 10
-529.9950153289501
 20
-1707.2880649124791
 30
0.0
 40
3.5
  1
20 
 50
90.0
  0
ENDBLK
  5
16970
  8
0
  0
BLOCK
  8
0
  2
*U23
 70
     1
 10
0.0
 20
0.0
 30
0.0
  3
*U23
  1

  0
TEXT
  5
16972
  8
1DIM
 62
   201
 10
-596.77682430757307
 20
-1658.011578438327
 30
0.0
 40
3.5
  1
30 
  0
ENDBLK
  5
16974
  8
0
  0
BLOCK
  8
0
  2
*U24
 70
     1
 10
0.0
 20
0.0
 30
0.0
  3
*U24
  1

  0
TEXT
  5
16976
  8
1DIM
 62
   201
 10
-590.07191920937953
 20
-1668.011578438327
 30
0.0
 40
3.5
  1
18 
  0
ENDBLK
  5
16978
  8
0
  0
BLOCK
  8
0
  2
*U25
 70
     1
 10
0.0
 20
0.0
 30
0.0
  3
*U25
  1

  0
TEXT
  5
1697A
  8
1DIM
 62
   201
 10
-679.07191920938101
 20
-1668.011578438327
 30
0.0
 40
3.5
  1
16 
  0
ENDBLK
  5
1697C
  8
0
  0
BLOCK
  8
0
  2
*U26
 70
     1
 10
0.0
 20
0.0
 30
0.0
  3
*U26
  1

  0
TEXT
  5
1697E
  8
1DIM
 62
   201
 10
-619.4385858760478
 20
-1716.4620304325731
 30
0.0
 40
3.5
  1
11 
 50
90.0
  0
ENDBLK
  5
16980
  8
0
  0
BLOCK
  8
0
  2
*U27
 70
     1
 10
0.0
 20
0.0
 30
0.0
  3
*U27
  1

  0
TEXT
  5
16982
  8
1DIM
 62
   201
 10
-629.43858587604768
 20
-1723.421398363078
 30
0.0
 40
3.5
  1
20.5 
 50
90.0
  0
ENDBLK
  5
16984
  8
0
  0
ENDSEC
  0
SECTION
  2
ENTITIES
  0
TEXT
  5
15436
  8
1TEXT
 10
-608.74046584869313
 20
-1610.6759619572781
 30
0.0
 40
8.0
  1
SC355XC
  0
TEXT
  5
15499
  8
1TEXT
 10
-601.98620492366672
 20
-1620.211578438327
 30
0.0
 40
4.0
  1
表面処理：
 72
     1
 11
-591.33858587604755
 21
-1620.211578438327
 31
0.0
  0
TEXT
  5
1549A
  8
1TEXT
 10
-600.67191920938103
 20
-1627.0468670978521
 30
0.0
 40
4.0
  1
クローム
 72
     1
 11
-591.33858587604755
 21
-1627.0468670978521
 31
0.0
  0
LINE
  5
1549B
  8
1DIM
 10
-608.73858587604775
 20
-1614.711578438327
 30
0.0
 11
-538.73858587604775
 21
-1614.711578438327
 31
0.0
  0
LINE
  5
1549C
  8
1DIM
 10
-608.73858587604775
 20
-1628.711578438327
 30
0.0
 11
-538.73858587604775
 21
-1628.711578438327
 31
0.0
  0
LINE
  5
1549D
  8
1DIM
 10
-608.73858587604775
 20
-1621.711578438327
 30
0.0
 11
-538.73858587604775
 21
-1621.711578438327
 31
0.0
  0
LINE
  5
1549E
  8
1DIM
 10
-573.73858587604775
 20
-1614.711578438327
 30
0.0
 11
-573.73858587604775
 21
-1628.711578438327
 31
0.0
  0
TEXT
  5
1549F
  8
1TEXT
 10
-569.67191920938046
 20
-1627.425935421976
 30
0.0
 40
4.0
  1
SC355XC
 72
     1
 11
-556.33858587604709
 21
-1627.425935421976
 31
0.0
  0
TEXT
  5
154A0
  8
1TEXT
 10
-563.1385858760475
 20
-1620.211578438327
 30
0.0
 40
4.0
  1
コード
 72
     1
 11
-556.33858587604755
 21
-1620.211578438327
 31
0.0
  0
LINE
  5
154A1
  8
1DIM
 10
-608.73858587604775
 20
-1628.711578438327
 30
0.0
 11
-608.73858587604775
 21
-1614.711578438327
 31
0.0
  0
LINE
  5
154A2
  8
1DIM
 10
-538.73858587604775
 20
-1628.711578438327
 30
0.0
 11
-538.73858587604775
 21
-1614.711578438327
 31
0.0
  0
LINE
  5
15EB5
  8
01
 10
-578.73858587604605
 20
-1680.461578438327
 30
0.0
 11
-578.73858587604605
 21
-1706.461578438327
 31
0.0
  0
LINE
  5
15EC6
  8
01
 10
-578.73858587604605
 20
-1678.711578438327
 30
0.0
 11
-578.73858587604639
 21
-1708.211578438327
 31
0.0
  0
LINE
  5
15F49
  8
01
 10
-569.73858587604605
 20
-1664.211578438327
 30
0.0
 11
-569.73858587604605
 21
-1744.211578438327
 31
0.0
  0
LINE
  5
15F4A
  8
01
 10
-560.73858587604605
 20
-1664.211578438327
 30
0.0
 11
-560.73858587604605
 21
-1744.211578438327
 31
0.0
  0
LINE
  5
160A4
  8
01
 10
-578.73858587604605
 20
-1664.211578438327
 30
0.0
 11
-578.73858587604605
 21
-1744.211578438327
 31
0.0
  0
LINE
  5
1629C
  8
01
 10
-684.73858587604775
 20
-1628.7115784383259
 30
0.0
 11
-668.73858587604775
 21
-1628.7115784383259
 31
0.0
  0
LINE
  5
1629D
  8
01
 10
-684.73858587604775
 20
-1628.7115784383259
 30
0.0
 11
-684.73858587604775
 21
-1658.211578438327
 31
0.0
  0
ARC
  5
1629E
  8
01
 10
-684.23858587604786
 20
-1654.2115784383279
 30
0.0
 40
0.5
 50
90.0
 51
180.0
  0
ARC
  5
1629F
  8
01
 10
-669.23858587604821
 20
-1709.7130650297449
 30
0.0
 40
0.5
 50
0.0
 51
90.0
  0
ARC
  5
162A0
  8
01
 10
-684.23858587604775
 20
-1634.211578438327
 30
0.0
 40
0.5
 50
180.0
 51
270.0
  0
ARC
  5
162A1
  8
01
 10
-669.23858587604775
 20
-1729.211578438327
 30
0.0
 40
0.5
 50
270.0
 51
0.0
  0
ARC
  5
162A2
  8
01
 10
-669.23858587604775
 20
-1679.211578438327
 30
0.0
 40
0.5
 50
0.0
 51
90.0
  0
LINE
  5
162A3
  8
01
 10
-684.23858587604775
 20
-1658.711578438327
 30
0.0
 11
-669.23858587604741
 21
-1658.711578438327
 31
0.0
  0
ARC
  5
162A5
  8
01
 10
-684.23858587604775
 20
-1658.211578438327
 30
0.0
 40
0.5
 50
180.0
 51
270.0
  0
LINE
  5
162A6
  8
01
 10
-684.23858587604786
 20
-1653.7115784383279
 30
0.0
 11
-669.23858587604775
 21
-1653.711578438327
 31
0.0
  0
LINE
  5
162A7
  8
01
 10
-684.23858587604775
 20
-1634.711578438327
 30
0.0
 11
-669.23858587604775
 21
-1634.7115784383259
 31
0.0
  0
LINE
  5
162A8
  8
01
 10
-668.73858587604775
 20
-1628.7115784383259
 30
0.0
 11
-668.73858587604752
 21
-1658.211578438327
 31
0.0
  0
ARC
  5
162A9
  8
01
 10
-669.23858587604741
 20
-1658.211578438327
 30
0.0
 40
0.5
 50
270.0
 51
0.0
  0
ARC
  5
162AA
  8
01
 10
-669.23858587604775
 20
-1654.211578438327
 30
0.0
 40
0.5
 50
0.0
 51
90.0
  0
ARC
  5
162AB
  8
01
 10
-669.23858587604775
 20
-1634.211578438327
 30
0.0
 40
0.5
 50
270.0
 51
0.0
  0
LINE
  5
162AC
  8
1CENTER
 10
-596.73858587604616
 20
-1718.410311485814
 30
0.0
 11
-596.73858587604616
 21
-1725.1618635125969
 31
0.0
  0
LINE
  5
162AE
  8
01
 10
-669.23858587604775
 20
-1678.711578438327
 30
0.0
 11
-684.23858587604786
 21
-1678.711578438327
 31
0.0
  0
LINE
  5
162AF
  8
01
 10
-669.23858587604775
 20
-1729.711578438327
 30
0.0
 11
-684.23858587604786
 21
-1729.7115784383279
 31
0.0
  0
ARC
  5
162B0
  8
01
 10
-684.23858587604786
 20
-1729.2115784383279
 30
0.0
 40
0.5
 50
180.0
 51
270.0
  0
LINE
  5
162B1
  8
01
 10
-684.73858587604786
 20
-1679.211578438327
 30
0.0
 11
-684.73858587604786
 21
-1729.2115784383279
 31
0.0
  0
ARC
  5
162B2
  8
01
 10
-684.23858587604786
 20
-1709.713065029744
 30
0.0
 40
0.5
 50
90.0
 51
180.0
  0
ARC
  5
162B3
  8
01
 10
-684.23858587604786
 20
-1679.211578438327
 30
0.0
 40
0.5
 50
90.0
 51
180.0
  0
LINE
  5
162B4
  8
01
 10
-668.73858587604775
 20
-1679.211578438327
 30
0.0
 11
-668.73858587604775
 21
-1729.211578438327
 31
0.0
  0
LINE
  5
162B9
  8
01
 10
-684.23858587604786
 20
-1709.213065029744
 30
0.0
 11
-669.23858587604821
 21
-1709.2130650297449
 31
0.0
  0
LINE
  5
162BC
  8
1CENTER
 10
-683.03858587605146
 20
-1646.71157843833
 30
0.0
 11
-670.43858587605143
 21
-1646.71157843833
 31
0.0
  0
LINE
  5
162BD
  8
1CENTER
 10
-676.73858587605139
 20
-1653.0115784383299
 30
0.0
 11
-676.73858587605139
 21
-1640.4115784383289
 31
0.0
  0
LINE
  5
162C1
  8
1CENTER
 10
-576.73011940233505
 20
-1694.6630650297441
 30
0.0
 11
-583.12061531637426
 21
-1694.6630650297441
 31
0.0
  0
CIRCLE
  5
162C6
  8
01
  6
BYBLOCK
 10
-676.73858587605139
 20
-1646.71157843833
 30
0.0
 40
3.000001092808815
  0
ARC
  5
162C7
  8
01
  6
BYBLOCK
 10
-675.83858589605154
 20
-1647.6115784183289
 30
0.0
 40
0.5
 50
90.00000299999769
 51
180.000010000001
  0
ARC
  5
162C8
  8
01
  6
BYBLOCK
 10
-675.83858589605154
 20
-1645.8115784583299
 30
0.0
 40
0.5
 50
179.999989999999
 51
270.0
  0
LINE
  5
162C9
  8
01
  6
BYBLOCK
 10
-677.63858585605124
 20
-1647.11157844833
 30
0.0
 11
-678.73858587605127
 21
-1647.11157844833
 31
0.0
  0
LINE
  5
162CA
  8
01
  6
BYBLOCK
 10
-677.63858585605124
 20
-1646.3115784283291
 30
0.0
 11
-678.73858587605127
 21
-1646.3115784283291
 31
0.0
  0
LINE
  5
162CB
  8
01
  6
BYBLOCK
 10
-678.73858587605127
 20
-1647.11157844833
 30
0.0
 11
-678.73858587605127
 21
-1646.3115784283291
 31
0.0
  0
LINE
  5
162CC
  8
01
  6
BYBLOCK
 10
-677.13858588605126
 20
-1648.71157843833
 30
0.0
 11
-677.13858588605126
 21
-1647.6115784183289
 31
0.0
  0
LINE
  5
162CD
  8
01
  6
BYBLOCK
 10
-676.33858586605129
 20
-1648.71157843833
 30
0.0
 11
-676.33858586605129
 21
-1647.6115784183289
 31
0.0
  0
LINE
  5
162CE
  8
01
  6
BYBLOCK
 10
-676.33858586605129
 20
-1648.71157843833
 30
0.0
 11
-677.13858588605126
 21
-1648.71157843833
 31
0.0
  0
LINE
  5
162CF
  8
01
  6
BYBLOCK
 10
-676.33858586605129
 20
-1644.7115784383291
 30
0.0
 11
-676.33858586605129
 21
-1645.8115784583299
 31
0.0
  0
LINE
  5
162D0
  8
01
  6
BYBLOCK
 10
-677.13858588605126
 20
-1644.7115784383291
 30
0.0
 11
-677.13858588605126
 21
-1645.8115784583299
 31
0.0
  0
LINE
  5
162D1
  8
01
  6
BYBLOCK
 10
-677.13858588605126
 20
-1644.7115784383291
 30
0.0
 11
-676.33858586605129
 21
-1644.7115784383291
 31
0.0
  0
ARC
  5
162D2
  8
01
  6
BYBLOCK
 10
-677.63858585605124
 20
-1645.8115784583299
 30
0.0
 40
0.5
 50
270.0
 51
0.0
  0
ARC
  5
162D3
  8
01
  6
BYBLOCK
 10
-677.63858585605124
 20
-1647.6115784183289
 30
0.0
 40
0.5
 50
0.0
 51
90.00000299999769
  0
POINT
  5
162D4
  8
01
  6
BYBLOCK
 10
-676.73858587605139
 20
-1646.71157843833
 30
0.0
  0
LINE
  5
162D5
  8
01
  6
BYBLOCK
 10
-675.83858589605154
 20
-1646.3115784283291
 30
0.0
 11
-674.73858587605127
 21
-1646.3115784283291
 31
0.0
  0
LINE
  5
162D6
  8
01
  6
BYBLOCK
 10
-675.83858589605154
 20
-1647.11157844833
 30
0.0
 11
-674.73858587605127
 21
-1647.11157844833
 31
0.0
  0
LINE
  5
162D7
  8
01
  6
BYBLOCK
 10
-674.73858587605127
 20
-1646.3115784283291
 30
0.0
 11
-674.73858587605127
 21
-1647.11157844833
 31
0.0
  0
LINE
  5
162EC
  8
1CENTER
 10
-596.73858587604616
 20
-1718.4088248943981
 30
0.0
 11
-596.73858587604616
 21
-1725.1603769211811
 31
0.0
  0
LINE
  5
162EF
  8
1CENTER
 10
-596.73858900124685
 20
-1726.6271817267509
 30
0.0
 11
-596.73858900124685
 21
-1721.796078141801
 31
0.0
  0
LINE
  5
162F0
  8
1CENTER
 10
-596.73858900124685
 20
-1718.408876390346
 30
0.0
 11
-596.73858900124685
 21
-1725.160428417129
 31
0.0
  0
LINE
  5
162F2
  8
1CENTER
 10
-596.73858900124685
 20
-1718.408876390346
 30
0.0
 11
-596.73858900124685
 21
-1725.160428417129
 31
0.0
  0
LINE
  5
162F4
  8
1PHANTOM
 10
-600.72844118211663
 20
-1722.6630647952129
 30
0.0
 11
-584.74113141513317
 21
-1722.6630647952129
 31
0.0
  0
ARC
  5
162F5
  8
1PHANTOM
 10
-584.74113141513317
 20
-1719.663064795212
 30
0.0
 40
3.0
 50
270.0
 51
0.0
  0
LINE
  5
162F6
  8
1PHANTOM
 10
-600.72772144055955
 20
-1725.6630647952129
 30
0.0
 11
-578.73858587604605
 21
-1725.6630647952129
 31
0.0
  0
LINE
  5
162F7
  8
1PHANTOM
 10
-580.74113141513374
 20
-1687.6630647952129
 30
0.0
 11
-580.74113141513374
 21
-1688.6630649124779
 31
0.0
  0
LINE
  5
162F9
  8
1PHANTOM
 10
-580.74113141513374
 20
-1700.6630649124779
 30
0.0
 11
-580.74113141513374
 21
-1708.6630649124779
 31
0.0
  0
LINE
  5
162FB
  8
1PHANTOM
 10
-580.41697491714285
 20
-1681.1454267050069
 30
0.0
 11
-582.34882656972115
 21
-1681.663064795212
 31
0.0
  0
LINE
  5
162FC
  8
1PHANTOM
 10
-578.74113141513408
 20
-1687.3997598000369
 30
0.0
 11
-580.41697491714285
 21
-1681.1454267050069
 31
0.0
  0
LINE
  5
162FD
  8
1PHANTOM
 10
-580.74113141513419
 20
-1687.663064795212
 30
0.0
 11
-582.34882656972025
 21
-1681.6630647952129
 31
0.0
  0
LINE
  5
16303
  8
1CENTER
 10
-576.73266494142274
 20
-1694.6630649124779
 30
0.0
 11
-583.12316085546183
 21
-1694.6630649124779
 31
0.0
  0
LINE
  5
16307
  8
1PHANTOM
 10
-600.72844118211663
 20
-1722.6630647952129
 30
0.0
 11
-600.72772144055955
 21
-1725.6630647952129
 31
0.0
  0
LINE
  5
1630D
  8
1CENTER
 10
-576.73266494142274
 20
-1714.663064795212
 30
0.0
 11
-583.12316085546183
 21
-1714.663064795212
 31
0.0
  0
LINE
  5
1630E
  8
1PHANTOM
 10
-581.74113141513328
 20
-1688.6630649124779
 30
0.0
 11
-581.74113141513328
 21
-1700.6630649124779
 31
0.0
  0
LINE
  5
16311
  8
1PHANTOM
 10
-581.74113141513328
 20
-1688.6630649124779
 30
0.0
 11
-580.74113141513374
 21
-1688.6630649124779
 31
0.0
  0
LINE
  5
16312
  8
1PHANTOM
 10
-581.74113141513328
 20
-1700.6630649124779
 30
0.0
 11
-580.74113141513374
 21
-1700.6630649124779
 31
0.0
  0
LINE
  5
16313
  8
1PHANTOM
 10
-581.74113141513328
 20
-1708.6630649124779
 30
0.0
 11
-581.74113141513328
 21
-1719.663064795212
 31
0.0
  0
LINE
  5
16314
  8
1PHANTOM
 10
-581.74113141513328
 20
-1708.6630649124779
 30
0.0
 11
-580.74113141513374
 21
-1708.6630649124779
 31
0.0
  0
LINE
  5
16317
  8
01
 10
-607.73858587604775
 20
-1709.2115784383279
 30
0.0
 11
-605.26403601487493
 21
-1709.2115784383291
 31
0.0
  0
ARC
  5
16318
  8
01
 10
-605.26403601487493
 20
-1710.2115784383279
 30
0.0
 40
1.0
 50
3.0000000000056
 51
90.0
  0
LINE
  5
1631A
  8
01
 10
-608.73858587604593
 20
-1728.711578438327
 30
0.0
 11
-608.73858587604775
 21
-1710.2115784383279
 31
0.0
  0
ARC
  5
1631B
  8
01
 10
-607.73858587604775
 20
-1710.2115784383279
 30
0.0
 40
1.0
 50
90.0
 51
180.0
  0
LINE
  5
1631C
  8
01
 10
-603.83791581212506
 20
-1718.316250350814
 30
0.0
 11
-604.26540648011996
 21
-1710.159242482086
 31
0.0
  0
LINE
  5
1631D
  8
01
 10
-601.84065674261603
 20
-1720.2115784383279
 30
0.0
 11
-588.63651500947583
 21
-1720.2115784383279
 31
0.0
  0
ARC
  5
1631E
  8
01
 10
-601.84065674261603
 20
-1718.2115784383279
 30
0.0
 40
2.0
 50
183.0000000000056
 51
270.0
  0
ARC
  5
1631F
  8
01
 10
-588.63651500947583
 20
-1718.2115784383279
 30
0.0
 40
2.0
 50
270.0
 51
356.99999999999437
  0
LINE
  5
16320
  8
01
 10
-584.61332800383798
 20
-1679.6592424820849
 30
0.0
 11
-586.63925593996646
 21
-1718.316250350814
 31
0.0
  0
ARC
  5
16321
  8
01
 10
-583.61469846908335
 20
-1679.7115784383279
 30
0.0
 40
1.0
 50
90.000000000013031
 51
176.9999999999944
  0
LINE
  5
16323
  8
01
 10
-578.73858587604605
 20
-1729.711578438327
 30
0.0
 11
-607.73858587604593
 21
-1729.711578438327
 31
0.0
  0
ARC
  5
16324
  8
01
 10
-607.73858587604775
 20
-1728.711578438327
 30
0.0
 40
1.0
 50
180.0
 51
270.0
  0
LINE
  5
16330
  8
01
 10
-578.73858587604605
 20
-1678.711578438327
 30
0.0
 11
-583.61469846908358
 21
-1678.7115784383279
 31
0.0
  0
LINE
  5
1640C
  8
1PHANTOM
 10
-682.73858587605127
 20
-1650.7115784383259
 30
0.0
 11
-682.73858587605127
 21
-1628.7115784383259
 31
0.0
  0
LINE
  5
1640D
  8
1PHANTOM
 10
-670.73858587605127
 20
-1650.711578438327
 30
0.0
 11
-670.73858587605127
 21
-1628.7115784383259
 31
0.0
  0
LINE
  5
1640E
  8
1PHANTOM
 10
-682.73858587605127
 20
-1650.7115784383259
 30
0.0
 11
-670.73858587605127
 21
-1650.711578438327
 31
0.0
  0
LINE
  5
16410
  8
01
 10
-578.73858587604605
 20
-1678.711578438327
 30
0.0
 11
-578.73858587604605
 21
-1729.711578438327
 31
0.0
  0
LINE
  5
167C3
  8
1CENTER
 10
-596.73852217334331
 20
-1726.524429810499
 30
0.0
 11
-596.73859921255769
 21
-1719.2470334559839
 31
0.0
  0
LINE
  5
167C5
  8
01
 10
-593.73858604700195
 20
-1720.6615786092841
 30
0.0
 11
-599.73858604687211
 21
-1720.661620491592
 31
0.0
  0
LINE
  5
167C6
  8
1HATCH
 10
-595.23853439207937
 20
-1725.211593733183
 30
0.0
 11
-598.23853439210086
 21
-1725.2116053671571
 31
0.0
  0
LINE
  5
167C7
  8
1HATCH
 10
-595.48853206531714
 20
-1725.4615914064209
 30
0.0
 11
-595.48856975947558
 21
-1722.4115826811419
 31
0.0
  0
LINE
  5
167C8
  8
1HATCH
 10
-597.98853206527372
 20
-1725.4616076939849
 30
0.0
 11
-597.98856975919398
 21
-1722.4116245635259
 31
0.0
  0
LINE
  5
167C9
  8
1HATCH
 10
-595.48856975947558
 20
-1722.4115826811419
 30
0.0
 11
-595.23857208626487
 21
-1722.161582099448
 31
0.0
  0
LINE
  5
167CA
  8
1HATCH
 10
-598.23857208600487
 20
-1722.1616239818211
 30
0.0
 11
-597.98856975919398
 21
-1722.4116245635259
 31
0.0
  0
LINE
  5
167CB
  8
01
 10
-595.23853439207937
 20
-1725.211593733183
 30
0.0
 11
-595.23857208626487
 21
-1722.161582099448
 31
0.0
  0
LINE
  5
167CC
  8
01
 10
-593.73858604700195
 20
-1720.6615786092841
 30
0.0
 11
-595.23857208626487
 21
-1722.161582099448
 31
0.0
  0
LINE
  5
167CD
  8
01
 10
-595.48853148361422
 20
-1725.4615908247181
 30
0.0
 11
-595.23853439207937
 21
-1725.211593733183
 31
0.0
  0
LINE
  5
167CE
  8
01
 10
-593.73858604700195
 20
-1720.6615786092841
 30
0.0
 11
-593.73858790843803
 21
-1720.461578609292
 31
0.0
  0
LINE
  5
167CF
  8
01
 10
-595.48853148361422
 20
-1725.4615908247181
 30
0.0
 11
-597.98853148357898
 21
-1725.4616082756791
 31
0.0
  0
LINE
  5
167D0
  8
01
 10
-593.73858790843803
 20
-1720.461578609292
 30
0.0
 11
-599.73858790830786
 21
-1720.4616204915999
 31
0.0
  0
LINE
  5
167D1
  8
01
 10
-597.98853148357898
 20
-1725.4616082756791
 30
0.0
 11
-598.23853439210086
 21
-1725.2116053671571
 31
0.0
  0
LINE
  5
167D2
  8
01
 10
-599.73858604687211
 20
-1720.661620491592
 30
0.0
 11
-599.73858790830786
 21
-1720.4616204915999
 31
0.0
  0
LINE
  5
167D3
  8
01
 10
-598.23853439210086
 20
-1725.2116053671571
 30
0.0
 11
-598.23857208600487
 21
-1722.1616239818211
 31
0.0
  0
LINE
  5
167D4
  8
01
 10
-599.73858604687211
 20
-1720.661620491592
 30
0.0
 11
-598.23857208600487
 21
-1722.1616239818211
 31
0.0
  0
LINE
  5
167D5
  8
1DIM
 10
-608.23858587604775
 20
-1709.2130650297449
 30
0.0
 11
-619.73858587604798
 21
-1709.2130650297449
 31
0.0
  0
LINE
  5
167D6
  8
1DIM
 10
-601.88892756487337
 20
-1720.210995835401
 30
0.0
 11
-619.73858587604798
 21
-1720.210995835401
 31
0.0
  0
LINE
  5
167D7
  8
1DIM
 10
-618.73858587604786
 20
-1711.2130650297449
 30
0.0
 11
-618.73858587604786
 21
-1718.210995835401
 31
0.0
  0
LINE
  5
167DC
  8
1CENTER
 10
-539.33410073780374
 20
-1694.6630649124779
 30
0.0
 11
-582.1672337851785
 21
-1694.6630649124779
 31
0.0
  0
LINE
  5
167DD
  8
0
 10
-555.88859227506748
 20
-1696.6630183765801
 30
0.0
 11
-555.08860158224502
 21
-1692.6630183765801
 31
0.0
  0
LINE
  5
167DE
  8
0
 10
-555.08860158224502
 20
-1692.6630183765801
 30
0.0
 11
-554.98860041884757
 21
-1693.1630183765801
 31
0.0
  0
LINE
  5
167DF
  8
0
 10
-544.60136284102782
 20
-1695.742103779372
 30
0.0
 11
-544.48859332867767
 21
-1696.2102022345221
 31
0.0
  0
LINE
  5
167E0
  8
0
 10
-542.08859894823104
 20
-1693.7950536375979
 30
0.0
 11
-541.77682909197893
 21
-1694.38333021264
 31
0.0
  0
LINE
  5
167E1
  8
0
 10
-543.04003017872242
 20
-1695.300216885842
 30
0.0
 11
-542.88859438228201
 21
-1695.757388726473
 31
0.0
  0
LINE
  5
167E2
  8
0
 10
-543.68860000183656
 20
-1693.3422395331911
 30
0.0
 11
-543.50583585920856
 21
-1693.893988996994
 31
0.0
  0
LINE
  5
167E3
  8
0
 10
-542.88859438228201
 20
-1695.757388726473
 30
0.0
 11
-542.08859894823104
 21
-1693.7950536375979
 31
0.0
  0
LINE
  5
167E4
  8
0
 10
-544.48859332867767
 20
-1696.2102022345221
 30
0.0
 11
-543.68860000183656
 21
-1693.3422395331911
 31
0.0
  0
LINE
  5
167E5
  8
0
 10
-554.28859227506746
 20
-1696.6630183765801
 30
0.0
 11
-553.48860158224488
 21
-1692.6630183765801
 31
0.0
  0
LINE
  5
167E6
  8
0
 10
-552.68859227506755
 20
-1696.6630183765801
 30
0.0
 11
-551.88860158224497
 21
-1692.6630183765801
 31
0.0
  0
LINE
  5
167E7
  8
0
 10
-552.78859343846455
 20
-1696.1630183765801
 30
0.0
 11
-552.68859227506755
 21
-1696.6630183765801
 31
0.0
  0
LINE
  5
167E8
  8
0
 10
-551.88860158224497
 20
-1692.6630183765801
 30
0.0
 11
-551.78860041884775
 21
-1693.1630183765801
 31
0.0
  0
LINE
  5
167E9
  8
0
 10
-553.48860158224488
 20
-1692.6630183765801
 30
0.0
 11
-553.388600418848
 21
-1693.1630183765801
 31
0.0
  0
LINE
  5
167EA
  8
0
 10
-545.28860105544231
 20
-1692.8894254287841
 30
0.0
 11
-545.15933035781245
 21
-1693.4260191640551
 31
0.0
  0
LINE
  5
167EB
  8
0
 10
-546.08859227506764
 20
-1696.6630183765801
 30
0.0
 11
-545.28860105544231
 21
-1692.8894254287841
 31
0.0
  0
LINE
  5
167EC
  8
0
 10
-546.18859343846475
 20
-1696.1630183765801
 30
0.0
 11
-546.08859227506764
 21
-1696.6630183765801
 31
0.0
  0
LINE
  5
167ED
  8
0
 10
-554.3885934384648
 20
-1696.1630183765801
 30
0.0
 11
-554.28859227506746
 21
-1696.6630183765801
 31
0.0
  0
LINE
  5
167EE
  8
0
 10
-559.08859227506764
 20
-1696.6630183765801
 30
0.0
 11
-558.28860158224506
 21
-1692.6630183765801
 31
0.0
  0
LINE
  5
167EF
  8
0
 10
-557.4885922750675
 20
-1696.6630183765801
 30
0.0
 11
-556.68860158224493
 21
-1692.6630183765801
 31
0.0
  0
LINE
  5
167F0
  8
0
 10
-555.9885934384647
 20
-1696.1630183765801
 30
0.0
 11
-555.88859227506748
 21
-1696.6630183765801
 31
0.0
  0
LINE
  5
167F1
  8
0
 10
-557.58859343846461
 20
-1696.1630183765801
 30
0.0
 11
-557.4885922750675
 21
-1696.6630183765801
 31
0.0
  0
LINE
  5
167F2
  8
0
 10
-556.68860158224493
 20
-1692.6630183765801
 30
0.0
 11
-556.5886004188477
 21
-1693.1630183765801
 31
0.0
  0
LINE
  5
167F3
  8
0
 10
-558.28860158224506
 20
-1692.6630183765801
 30
0.0
 11
-558.18860041884773
 21
-1693.1630183765801
 31
0.0
  0
LINE
  5
167F4
  8
0
 10
-559.18859343846475
 20
-1696.1630183765801
 30
0.0
 11
-559.08859227506764
 21
-1696.6630183765801
 31
0.0
  0
LINE
  5
167F5
  8
0
 10
-550.28860158224484
 20
-1692.6630183765801
 30
0.0
 11
-550.18860041884761
 21
-1693.1630183765801
 31
0.0
  0
LINE
  5
167F6
  8
0
 10
-551.08859227506741
 20
-1696.6630183765801
 30
0.0
 11
-550.28860158224484
 21
-1692.6630183765801
 31
0.0
  0
LINE
  5
167F7
  8
0
 10
-551.18859343846452
 20
-1696.1630183765801
 30
0.0
 11
-551.08859227506741
 21
-1696.6630183765801
 31
0.0
  0
LINE
  5
167F8
  8
0
 10
-549.4885922750675
 20
-1696.6630183765801
 30
0.0
 11
-548.68860158224493
 21
-1692.6630183765801
 31
0.0
  0
LINE
  5
167F9
  8
0
 10
-548.68860158224493
 20
-1692.6630183765801
 30
0.0
 11
-548.58860041884782
 21
-1693.1630183765801
 31
0.0
  0
LINE
  5
167FA
  8
0
 10
-549.58859343846461
 20
-1696.1630183765801
 30
0.0
 11
-549.4885922750675
 21
-1696.6630183765801
 31
0.0
  0
LINE
  5
167FB
  8
0
 10
-547.08860158224479
 20
-1692.6630183765801
 30
0.0
 11
-546.98860041884757
 21
-1693.1630183765801
 31
0.0
  0
LINE
  5
167FC
  8
0
 10
-547.88859227506737
 20
-1696.6630183765801
 30
0.0
 11
-547.08860158224479
 21
-1692.6630183765801
 31
0.0
  0
LINE
  5
167FD
  8
0
 10
-547.98859343846436
 20
-1696.1630183765801
 30
0.0
 11
-547.88859227506737
 21
-1696.6630183765801
 31
0.0
  0
LINE
  5
167FE
  8
0
 10
-577.88860623573851
 20
-1694.6630649124779
 30
0.0
 11
-577.48860158225796
 21
-1692.6630183765801
 31
0.0
  0
LINE
  5
167FF
  8
0
 10
-568.68859227507619
 20
-1696.6630183765801
 30
0.0
 11
-567.88860158225361
 21
-1692.6630183765801
 31
0.0
  0
LINE
  5
16800
  8
0
 10
-565.4885922750675
 20
-1696.6630183765801
 30
0.0
 11
-564.68860158224925
 21
-1692.6630183765801
 31
0.0
  0
LINE
  5
16801
  8
0
 10
-575.88860158225361
 20
-1692.6630183765801
 30
0.0
 11
-575.7886004188565
 21
-1693.1630183765801
 31
0.0
  0
LINE
  5
16802
  8
0
 10
-577.48860158225796
 20
-1692.6630183765801
 30
0.0
 11
-577.38860041886028
 21
-1693.1630183765801
 31
0.0
  0
LINE
  5
16803
  8
0
 10
-576.78859343847387
 20
-1696.1630183765801
 30
0.0
 11
-576.68859227507619
 21
-1696.6630183765801
 31
0.0
  0
LINE
  5
16804
  8
0
 10
-576.68859227507619
 20
-1696.6630183765801
 30
0.0
 11
-575.88860158225361
 21
-1692.6630183765801
 31
0.0
  0
LINE
  5
16805
  8
0
 10
-575.18859343847328
 20
-1696.1630183765801
 30
0.0
 11
-575.08859227507628
 21
-1696.6630183765801
 31
0.0
  0
LINE
  5
16806
  8
0
 10
-574.2886015822537
 20
-1692.6630183765801
 30
0.0
 11
-574.18860041885648
 21
-1693.1630183765801
 31
0.0
  0
LINE
  5
16807
  8
0
 10
-572.68860158225345
 20
-1692.6630183765801
 30
0.0
 11
-572.58860041885646
 21
-1693.1630183765801
 31
0.0
  0
LINE
  5
16808
  8
0
 10
-573.58859343847325
 20
-1696.1630183765801
 30
0.0
 11
-573.48859227507614
 21
-1696.6630183765801
 31
0.0
  0
LINE
  5
16809
  8
0
 10
-571.98859343847334
 20
-1696.1630183765801
 30
0.0
 11
-571.88859227507623
 21
-1696.6630183765801
 31
0.0
  0
LINE
  5
1680A
  8
0
 10
-573.48859227507614
 20
-1696.6630183765801
 30
0.0
 11
-572.68860158225345
 21
-1692.6630183765801
 31
0.0
  0
LINE
  5
1680B
  8
0
 10
-575.08859227507628
 20
-1696.6630183765801
 30
0.0
 11
-574.2886015822537
 21
-1692.6630183765801
 31
0.0
  0
LINE
  5
1680C
  8
0
 10
-570.38859343847344
 20
-1696.1630183765801
 30
0.0
 11
-570.28859227507633
 21
-1696.6630183765801
 31
0.0
  0
LINE
  5
1680D
  8
0
 10
-569.48860158225375
 20
-1692.6630183765801
 30
0.0
 11
-569.38860041885664
 21
-1693.1630183765801
 31
0.0
  0
LINE
  5
1680E
  8
0
 10
-567.88860158225361
 20
-1692.6630183765801
 30
0.0
 11
-567.7886004188565
 21
-1693.1630183765801
 31
0.0
  0
LINE
  5
1680F
  8
0
 10
-568.78859343847319
 20
-1696.1630183765801
 30
0.0
 11
-568.68859227507619
 21
-1696.6630183765801
 31
0.0
  0
LINE
  5
16810
  8
0
 10
-570.28859227507633
 20
-1696.6630183765801
 30
0.0
 11
-569.48860158225375
 21
-1692.6630183765801
 31
0.0
  0
LINE
  5
16811
  8
0
 10
-571.08860158225355
 20
-1692.6630183765801
 30
0.0
 11
-570.98860041885655
 21
-1693.1630183765801
 31
0.0
  0
LINE
  5
16812
  8
0
 10
-571.88859227507623
 20
-1696.6630183765801
 30
0.0
 11
-571.08860158225355
 21
-1692.6630183765801
 31
0.0
  0
LINE
  5
16813
  8
0
 10
-567.08859227507185
 20
-1696.6630183765801
 30
0.0
 11
-566.2886015822537
 21
-1692.6630183765801
 31
0.0
  0
LINE
  5
16814
  8
0
 10
-562.28859227506746
 20
-1696.6630183765801
 30
0.0
 11
-561.4886015822492
 21
-1692.6630183765801
 31
0.0
  0
LINE
  5
16815
  8
0
 10
-560.68859227506755
 20
-1696.6630183765801
 30
0.0
 11
-559.88860158224497
 21
-1692.6630183765801
 31
0.0
  0
LINE
  5
16816
  8
0
 10
-560.78859343846534
 20
-1696.1630183765801
 30
0.0
 11
-560.68859227506755
 21
-1696.6630183765801
 31
0.0
  0
LINE
  5
16817
  8
0
 10
-561.4886015822492
 20
-1692.6630183765801
 30
0.0
 11
-561.38860041885164
 21
-1693.1630183765801
 31
0.0
  0
LINE
  5
16818
  8
0
 10
-559.88860158224497
 20
-1692.6630183765801
 30
0.0
 11
-559.78860041884775
 21
-1693.1630183765801
 31
0.0
  0
LINE
  5
16819
  8
0
 10
-564.68860158224925
 20
-1692.6630183765801
 30
0.0
 11
-564.58860041885168
 21
-1693.1630183765801
 31
0.0
  0
LINE
  5
1681A
  8
0
 10
-563.98859343846527
 20
-1696.1630183765801
 30
0.0
 11
-563.88859227506759
 21
-1696.6630183765801
 31
0.0
  0
LINE
  5
1681B
  8
0
 10
-563.08860158224934
 20
-1692.6630183765801
 30
0.0
 11
-562.98860041885166
 21
-1693.1630183765801
 31
0.0
  0
LINE
  5
1681C
  8
0
 10
-563.88859227506759
 20
-1696.6630183765801
 30
0.0
 11
-563.08860158224934
 21
-1692.6630183765801
 31
0.0
  0
LINE
  5
1681D
  8
0
 10
-562.38859343846525
 20
-1696.1630183765801
 30
0.0
 11
-562.28859227506746
 21
-1696.6630183765801
 31
0.0
  0
LINE
  5
1681E
  8
0
 10
-566.2886015822537
 20
-1692.6630183765801
 30
0.0
 11
-566.1886004188558
 21
-1693.1630183765801
 31
0.0
  0
LINE
  5
1681F
  8
0
 10
-565.58859343846518
 20
-1696.1630183765801
 30
0.0
 11
-565.4885922750675
 21
-1696.6630183765801
 31
0.0
  0
LINE
  5
16820
  8
0
 10
-567.18859343846952
 20
-1696.1630183765801
 30
0.0
 11
-567.08859227507185
 21
-1696.6630183765801
 31
0.0
  0
LINE
  5
16821
  8
0
 10
-580.4885876212611
 20
-1698.6630649124779
 30
0.0
 11
-580.48860623562007
 21
-1690.6630649124779
 31
0.0
  0
LINE
  5
16823
  8
1CENTER
 10
-539.33408134771798
 20
-1714.6630649124779
 30
0.0
 11
-582.16721439509274
 21
-1714.6630649124779
 31
0.0
  0
LINE
  5
16824
  8
0
 10
-555.88857288498184
 20
-1716.6630183765801
 30
0.0
 11
-555.08858219215927
 21
-1712.6630183765801
 31
0.0
  0
LINE
  5
16825
  8
0
 10
-555.08858219215927
 20
-1712.6630183765801
 30
0.0
 11
-554.98858102876181
 21
-1713.163018376581
 31
0.0
  0
LINE
  5
16826
  8
0
 10
-544.60134345094207
 20
-1715.742103779372
 30
0.0
 11
-544.48857393859203
 21
-1716.2102022345209
 31
0.0
  0
LINE
  5
16827
  8
0
 10
-542.08857955814528
 20
-1713.7950536375979
 30
0.0
 11
-541.77680970189317
 21
-1714.38333021264
 31
0.0
  0
LINE
  5
16828
  8
0
 10
-543.04001078863666
 20
-1715.300216885842
 30
0.0
 11
-542.88857499219625
 21
-1715.757388726473
 31
0.0
  0
LINE
  5
16829
  8
0
 10
-543.68858061175081
 20
-1713.3422395331911
 30
0.0
 11
-543.50581646912292
 21
-1713.893988996994
 31
0.0
  0
LINE
  5
1682A
  8
0
 10
-542.88857499219625
 20
-1715.757388726473
 30
0.0
 11
-542.08857955814528
 21
-1713.7950536375979
 31
0.0
  0
LINE
  5
1682B
  8
0
 10
-544.48857393859203
 20
-1716.2102022345209
 30
0.0
 11
-543.68858061175081
 21
-1713.3422395331911
 31
0.0
  0
LINE
  5
1682C
  8
0
 10
-554.2885728849817
 20
-1716.6630183765801
 30
0.0
 11
-553.48858219215913
 21
-1712.6630183765801
 31
0.0
  0
LINE
  5
1682D
  8
0
 10
-552.68857288498168
 20
-1716.6630183765801
 30
0.0
 11
-551.88858219215922
 21
-1712.6630183765801
 31
0.0
  0
LINE
  5
1682E
  8
0
 10
-552.7885740483789
 20
-1716.1630183765801
 30
0.0
 11
-552.68857288498168
 21
-1716.6630183765801
 31
0.0
  0
LINE
  5
1682F
  8
0
 10
-551.88858219215922
 20
-1712.6630183765801
 30
0.0
 11
-551.78858102876211
 21
-1713.163018376581
 31
0.0
  0
LINE
  5
16830
  8
0
 10
-553.48858219215913
 20
-1712.6630183765801
 30
0.0
 11
-553.38858102876225
 21
-1713.163018376581
 31
0.0
  0
LINE
  5
16831
  8
0
 10
-545.28858166535645
 20
-1712.8894254287841
 30
0.0
 11
-545.1593109677267
 21
-1713.426019164056
 31
0.0
  0
LINE
  5
16832
  8
0
 10
-546.08857288498177
 20
-1716.6630183765801
 30
0.0
 11
-545.28858166535645
 21
-1712.8894254287841
 31
0.0
  0
LINE
  5
16833
  8
0
 10
-546.188574048379
 20
-1716.1630183765801
 30
0.0
 11
-546.08857288498177
 21
-1716.6630183765801
 31
0.0
  0
LINE
  5
16834
  8
0
 10
-554.38857404837904
 20
-1716.1630183765801
 30
0.0
 11
-554.2885728849817
 21
-1716.6630183765801
 31
0.0
  0
LINE
  5
16835
  8
0
 10
-559.08857288498177
 20
-1716.6630183765801
 30
0.0
 11
-558.28858219215931
 21
-1712.6630183765801
 31
0.0
  0
LINE
  5
16836
  8
0
 10
-557.48857288498175
 20
-1716.6630183765801
 30
0.0
 11
-556.68858219215917
 21
-1712.6630183765801
 31
0.0
  0
LINE
  5
16837
  8
0
 10
-555.98857404837895
 20
-1716.1630183765801
 30
0.0
 11
-555.88857288498184
 21
-1716.6630183765801
 31
0.0
  0
LINE
  5
16838
  8
0
 10
-557.58857404837875
 20
-1716.1630183765801
 30
0.0
 11
-557.48857288498175
 21
-1716.6630183765801
 31
0.0
  0
LINE
  5
16839
  8
0
 10
-556.68858219215917
 20
-1712.6630183765801
 30
0.0
 11
-556.58858102876195
 21
-1713.163018376581
 31
0.0
  0
LINE
  5
1683A
  8
0
 10
-558.28858219215931
 20
-1712.6630183765801
 30
0.0
 11
-558.18858102876186
 21
-1713.163018376581
 31
0.0
  0
LINE
  5
1683B
  8
0
 10
-559.188574048379
 20
-1716.1630183765801
 30
0.0
 11
-559.08857288498177
 21
-1716.6630183765801
 31
0.0
  0
LINE
  5
1683C
  8
0
 10
-550.28858219215908
 20
-1712.6630183765801
 30
0.0
 11
-550.18858102876186
 21
-1713.163018376581
 31
0.0
  0
LINE
  5
1683D
  8
0
 10
-551.08857288498155
 20
-1716.6630183765801
 30
0.0
 11
-550.28858219215908
 21
-1712.6630183765801
 31
0.0
  0
LINE
  5
1683E
  8
0
 10
-551.18857404837865
 20
-1716.1630183765801
 30
0.0
 11
-551.08857288498155
 21
-1716.6630183765801
 31
0.0
  0
LINE
  5
1683F
  8
0
 10
-549.48857288498175
 20
-1716.6630183765801
 30
0.0
 11
-548.68858219215917
 21
-1712.6630183765801
 31
0.0
  0
LINE
  5
16840
  8
0
 10
-548.68858219215917
 20
-1712.6630183765801
 30
0.0
 11
-548.58858102876195
 21
-1713.163018376581
 31
0.0
  0
LINE
  5
16841
  8
0
 10
-549.58857404837875
 20
-1716.1630183765801
 30
0.0
 11
-549.48857288498175
 21
-1716.6630183765801
 31
0.0
  0
LINE
  5
16842
  8
0
 10
-547.08858219215904
 20
-1712.6630183765801
 30
0.0
 11
-546.98858102876193
 21
-1713.163018376581
 31
0.0
  0
LINE
  5
16843
  8
0
 10
-547.88857288498161
 20
-1716.6630183765801
 30
0.0
 11
-547.08858219215904
 21
-1712.6630183765801
 31
0.0
  0
LINE
  5
16844
  8
0
 10
-547.98857404837872
 20
-1716.1630183765801
 30
0.0
 11
-547.88857288498161
 21
-1716.6630183765801
 31
0.0
  0
LINE
  5
16845
  8
0
 10
-577.88858684565275
 20
-1714.6630649124779
 30
0.0
 11
-577.4885821921722
 21
-1712.6630183765801
 31
0.0
  0
LINE
  5
16846
  8
0
 10
-568.68857288499044
 20
-1716.6630183765801
 30
0.0
 11
-567.88858219216775
 21
-1712.6630183765801
 31
0.0
  0
LINE
  5
16847
  8
0
 10
-565.48857288498175
 20
-1716.6630183765801
 30
0.0
 11
-564.68858219216338
 21
-1712.6630183765801
 31
0.0
  0
LINE
  5
16848
  8
0
 10
-575.88858219216775
 20
-1712.6630183765801
 30
0.0
 11
-575.78858102877075
 21
-1713.163018376581
 31
0.0
  0
LINE
  5
16849
  8
0
 10
-577.4885821921722
 20
-1712.6630183765801
 30
0.0
 11
-577.38858102877452
 21
-1713.163018376581
 31
0.0
  0
LINE
  5
1684A
  8
0
 10
-576.78857404838823
 20
-1716.1630183765801
 30
0.0
 11
-576.68857288499044
 21
-1716.6630183765801
 31
0.0
  0
LINE
  5
1684B
  8
0
 10
-576.68857288499044
 20
-1716.6630183765801
 30
0.0
 11
-575.88858219216775
 21
-1712.6630183765801
 31
0.0
  0
LINE
  5
1684C
  8
0
 10
-575.18857404838764
 20
-1716.1630183765801
 30
0.0
 11
-575.08857288499053
 21
-1716.6630183765801
 31
0.0
  0
LINE
  5
1684D
  8
0
 10
-574.28858219216795
 20
-1712.6630183765801
 30
0.0
 11
-574.18858102877084
 21
-1713.163018376581
 31
0.0
  0
LINE
  5
1684E
  8
0
 10
-572.68858219216781
 20
-1712.6630183765801
 30
0.0
 11
-572.5885810287707
 21
-1713.163018376581
 31
0.0
  0
LINE
  5
1684F
  8
0
 10
-573.58857404838739
 20
-1716.1630183765801
 30
0.0
 11
-573.48857288499039
 21
-1716.6630183765801
 31
0.0
  0
LINE
  5
16850
  8
0
 10
-571.98857404838748
 20
-1716.1630183765801
 30
0.0
 11
-571.88857288499048
 21
-1716.6630183765801
 31
0.0
  0
LINE
  5
16851
  8
0
 10
-573.48857288499039
 20
-1716.6630183765801
 30
0.0
 11
-572.68858219216781
 21
-1712.6630183765801
 31
0.0
  0
LINE
  5
16852
  8
0
 10
-575.08857288499053
 20
-1716.6630183765801
 30
0.0
 11
-574.28858219216795
 21
-1712.6630183765801
 31
0.0
  0
LINE
  5
16853
  8
0
 10
-570.38857404838757
 20
-1716.1630183765801
 30
0.0
 11
-570.28857288499046
 21
-1716.6630183765801
 31
0.0
  0
LINE
  5
16854
  8
0
 10
-569.488582192168
 20
-1712.6630183765801
 30
0.0
 11
-569.38858102877077
 21
-1713.163018376581
 31
0.0
  0
LINE
  5
16855
  8
0
 10
-567.88858219216775
 20
-1712.6630183765801
 30
0.0
 11
-567.78858102877075
 21
-1713.163018376581
 31
0.0
  0
LINE
  5
16856
  8
0
 10
-568.78857404838755
 20
-1716.1630183765801
 30
0.0
 11
-568.68857288499044
 21
-1716.6630183765801
 31
0.0
  0
LINE
  5
16857
  8
0
 10
-570.28857288499046
 20
-1716.6630183765801
 30
0.0
 11
-569.488582192168
 21
-1712.6630183765801
 31
0.0
  0
LINE
  5
16858
  8
0
 10
-571.08858219216791
 20
-1712.6630183765801
 30
0.0
 11
-570.98858102877068
 21
-1713.163018376581
 31
0.0
  0
LINE
  5
16859
  8
0
 10
-571.88857288499048
 20
-1716.6630183765801
 30
0.0
 11
-571.08858219216791
 21
-1712.6630183765801
 31
0.0
  0
LINE
  5
1685A
  8
0
 10
-567.08857288498621
 20
-1716.6630183765801
 30
0.0
 11
-566.28858219216795
 21
-1712.6630183765801
 31
0.0
  0
LINE
  5
1685B
  8
0
 10
-562.2885728849817
 20
-1716.6630183765801
 30
0.0
 11
-561.48858219216345
 21
-1712.6630183765801
 31
0.0
  0
LINE
  5
1685C
  8
0
 10
-560.68857288498168
 20
-1716.6630183765801
 30
0.0
 11
-559.88858219215922
 21
-1712.6630183765801
 31
0.0
  0
LINE
  5
1685D
  8
0
 10
-560.78857404837947
 20
-1716.1630183765801
 30
0.0
 11
-560.68857288498168
 21
-1716.6630183765801
 31
0.0
  0
LINE
  5
1685E
  8
0
 10
-561.48858219216345
 20
-1712.6630183765801
 30
0.0
 11
-561.38858102876577
 21
-1713.163018376581
 31
0.0
  0
LINE
  5
1685F
  8
0
 10
-559.88858219215922
 20
-1712.6630183765801
 30
0.0
 11
-559.788581028762
 21
-1713.163018376581
 31
0.0
  0
LINE
  5
16860
  8
0
 10
-564.68858219216338
 20
-1712.6630183765801
 30
0.0
 11
-564.58858102876593
 21
-1713.163018376581
 31
0.0
  0
LINE
  5
16861
  8
0
 10
-563.98857404837963
 20
-1716.1630183765801
 30
0.0
 11
-563.88857288498184
 21
-1716.6630183765801
 31
0.0
  0
LINE
  5
16862
  8
0
 10
-563.08858219216347
 20
-1712.6630183765801
 30
0.0
 11
-562.98858102876591
 21
-1713.163018376581
 31
0.0
  0
LINE
  5
16863
  8
0
 10
-563.88857288498184
 20
-1716.6630183765801
 30
0.0
 11
-563.08858219216347
 21
-1712.6630183765801
 31
0.0
  0
LINE
  5
16864
  8
0
 10
-562.38857404837938
 20
-1716.1630183765801
 30
0.0
 11
-562.2885728849817
 21
-1716.6630183765801
 31
0.0
  0
LINE
  5
16865
  8
0
 10
-566.28858219216795
 20
-1712.6630183765801
 30
0.0
 11
-566.18858102877005
 21
-1713.163018376581
 31
0.0
  0
LINE
  5
16866
  8
0
 10
-565.58857404837954
 20
-1716.1630183765801
 30
0.0
 11
-565.48857288498175
 21
-1716.6630183765801
 31
0.0
  0
LINE
  5
16867
  8
0
 10
-567.18857404838366
 20
-1716.1630183765801
 30
0.0
 11
-567.08857288498621
 21
-1716.6630183765801
 31
0.0
  0
LINE
  5
16868
  8
0
 10
-580.48856823117535
 20
-1718.6630649124779
 30
0.0
 11
-580.48858684553443
 21
-1710.6630649124779
 31
0.0
  0
LINE
  5
1686A
  8
1CENTER
 10
-676.73858587604775
 20
-1589.3070933000829
 30
0.0
 11
-676.73858587604775
 21
-1632.1402263474581
 31
0.0
  0
LINE
  5
1686B
  8
0
 10
-674.73863241194567
 20
-1605.861584837347
 30
0.0
 11
-678.73863241194567
 21
-1605.061594144524
 31
0.0
  0
LINE
  5
1686C
  8
0
 10
-678.73863241194567
 20
-1605.061594144524
 30
0.0
 11
-678.23863241194567
 21
-1604.961592981128
 31
0.0
  0
LINE
  5
1686D
  8
0
 10
-675.65954700915438
 20
-1594.5743554033079
 30
0.0
 11
-675.1914485540043
 21
-1594.4615858909581
 31
0.0
  0
LINE
  5
1686E
  8
0
 10
-677.60659715092811
 20
-1592.0615915105111
 30
0.0
 11
-677.0183205758857
 21
-1591.749821654259
 31
0.0
  0
LINE
  5
1686F
  8
0
 10
-676.10143390268377
 20
-1593.013022741002
 30
0.0
 11
-675.64426206205269
 21
-1592.8615869445621
 31
0.0
  0
LINE
  5
16870
  8
0
 10
-678.05941125533491
 20
-1593.6615925641161
 30
0.0
 11
-677.50766179153163
 21
-1593.4788284214881
 31
0.0
  0
LINE
  5
16871
  8
0
 10
-675.64426206205269
 20
-1592.8615869445621
 30
0.0
 11
-677.60659715092811
 21
-1592.0615915105111
 31
0.0
  0
LINE
  5
16872
  8
0
 10
-675.1914485540043
 20
-1594.4615858909581
 30
0.0
 11
-678.05941125533491
 21
-1593.6615925641161
 31
0.0
  0
LINE
  5
16873
  8
0
 10
-674.73863241194567
 20
-1604.2615848373471
 30
0.0
 11
-678.73863241194567
 21
-1603.461594144525
 31
0.0
  0
LINE
  5
16874
  8
0
 10
-674.73863241194567
 20
-1602.6615848373469
 30
0.0
 11
-678.73863241194567
 21
-1601.861594144525
 31
0.0
  0
LINE
  5
16875
  8
0
 10
-675.23863241194567
 20
-1602.761586000744
 30
0.0
 11
-674.73863241194567
 21
-1602.6615848373469
 31
0.0
  0
LINE
  5
16876
  8
0
 10
-678.73863241194567
 20
-1601.861594144525
 30
0.0
 11
-678.23863241194567
 21
-1601.7615929811279
 31
0.0
  0
LINE
  5
16877
  8
0
 10
-678.73863241194567
 20
-1603.461594144525
 30
0.0
 11
-678.23863241194567
 21
-1603.3615929811281
 31
0.0
  0
LINE
  5
16878
  8
0
 10
-678.51222535974171
 20
-1595.2615936177219
 30
0.0
 11
-677.97563162447045
 21
-1595.1323229200921
 31
0.0
  0
LINE
  5
16879
  8
0
 10
-674.73863241194567
 20
-1596.061584837347
 30
0.0
 11
-678.51222535974171
 21
-1595.2615936177219
 31
0.0
  0
LINE
  5
1687A
  8
0
 10
-675.23863241194567
 20
-1596.161586000745
 30
0.0
 11
-674.73863241194567
 21
-1596.061584837347
 31
0.0
  0
LINE
  5
1687B
  8
0
 10
-675.23863241194567
 20
-1604.361586000744
 30
0.0
 11
-674.73863241194567
 21
-1604.2615848373471
 31
0.0
  0
LINE
  5
1687C
  8
0
 10
-674.73863241194567
 20
-1609.061584837347
 30
0.0
 11
-678.73863241194567
 21
-1608.2615941445249
 31
0.0
  0
LINE
  5
1687D
  8
0
 10
-674.73863241194567
 20
-1607.4615848373469
 30
0.0
 11
-678.73863241194567
 21
-1606.661594144525
 31
0.0
  0
LINE
  5
1687E
  8
0
 10
-675.23863241194567
 20
-1605.961586000745
 30
0.0
 11
-674.73863241194567
 21
-1605.861584837347
 31
0.0
  0
LINE
  5
1687F
  8
0
 10
-675.23863241194567
 20
-1607.561586000744
 30
0.0
 11
-674.73863241194567
 21
-1607.4615848373469
 31
0.0
  0
LINE
  5
16880
  8
0
 10
-678.73863241194567
 20
-1606.661594144525
 30
0.0
 11
-678.23863241194567
 21
-1606.561592981127
 31
0.0
  0
LINE
  5
16881
  8
0
 10
-678.73863241194567
 20
-1608.2615941445249
 30
0.0
 11
-678.23863241194567
 21
-1608.161592981128
 31
0.0
  0
LINE
  5
16882
  8
0
 10
-675.23863241194567
 20
-1609.161586000745
 30
0.0
 11
-674.73863241194567
 21
-1609.061584837347
 31
0.0
  0
LINE
  5
16883
  8
0
 10
-678.73863241194567
 20
-1600.2615941445249
 30
0.0
 11
-678.23863241194567
 21
-1600.161592981128
 31
0.0
  0
LINE
  5
16884
  8
0
 10
-674.73863241194567
 20
-1601.061584837347
 30
0.0
 11
-678.73863241194567
 21
-1600.2615941445249
 31
0.0
  0
LINE
  5
16885
  8
0
 10
-675.23863241194567
 20
-1601.1615860007439
 30
0.0
 11
-674.73863241194567
 21
-1601.061584837347
 31
0.0
  0
LINE
  5
16886
  8
0
 10
-674.73863241194567
 20
-1599.4615848373469
 30
0.0
 11
-678.73863241194567
 21
-1598.661594144525
 31
0.0
  0
LINE
  5
16887
  8
0
 10
-678.73863241194567
 20
-1598.661594144525
 30
0.0
 11
-678.23863241194567
 21
-1598.561592981127
 31
0.0
  0
LINE
  5
16888
  8
0
 10
-675.23863241194567
 20
-1599.561586000744
 30
0.0
 11
-674.73863241194567
 21
-1599.4615848373469
 31
0.0
  0
LINE
  5
16889
  8
0
 10
-678.73863241194567
 20
-1597.0615941445251
 30
0.0
 11
-678.23863241194567
 21
-1596.961592981128
 31
0.0
  0
LINE
  5
1688A
  8
0
 10
-674.73863241194567
 20
-1597.861584837347
 30
0.0
 11
-678.73863241194567
 21
-1597.0615941445251
 31
0.0
  0
LINE
  5
1688B
  8
0
 10
-675.23863241194567
 20
-1597.9615860007441
 30
0.0
 11
-674.73863241194567
 21
-1597.861584837347
 31
0.0
  0
LINE
  5
1688C
  8
0
 10
-676.73858587604775
 20
-1627.8615987980179
 30
0.0
 11
-678.73863241194567
 21
-1627.4615941445379
 31
0.0
  0
LINE
  5
1688D
  8
0
 10
-674.73863241194567
 20
-1618.661584837356
 30
0.0
 11
-678.73863241194567
 21
-1617.8615941445339
 31
0.0
  0
LINE
  5
1688E
  8
0
 10
-674.73863241194567
 20
-1615.4615848373469
 30
0.0
 11
-678.73863241194567
 21
-1614.6615941445291
 31
0.0
  0
LINE
  5
1688F
  8
0
 10
-678.73863241194567
 20
-1625.8615941445339
 30
0.0
 11
-678.23863241194567
 21
-1625.7615929811359
 31
0.0
  0
LINE
  5
16890
  8
0
 10
-678.73863241194567
 20
-1627.4615941445379
 30
0.0
 11
-678.23863241194567
 21
-1627.3615929811399
 31
0.0
  0
LINE
  5
16891
  8
0
 10
-675.23863241194567
 20
-1626.7615860007541
 30
0.0
 11
-674.73863241194567
 21
-1626.661584837356
 31
0.0
  0
LINE
  5
16892
  8
0
 10
-674.73863241194567
 20
-1626.661584837356
 30
0.0
 11
-678.73863241194567
 21
-1625.8615941445339
 31
0.0
  0
LINE
  5
16893
  8
0
 10
-675.23863241194567
 20
-1625.161586000753
 30
0.0
 11
-674.73863241194567
 21
-1625.0615848373559
 31
0.0
  0
LINE
  5
16894
  8
0
 10
-678.73863241194567
 20
-1624.261594144534
 30
0.0
 11
-678.23863241194567
 21
-1624.161592981136
 31
0.0
  0
LINE
  5
16895
  8
0
 10
-678.73863241194567
 20
-1622.6615941445341
 30
0.0
 11
-678.23863241194567
 21
-1622.5615929811361
 31
0.0
  0
LINE
  5
16896
  8
0
 10
-675.23863241194567
 20
-1623.5615860007531
 30
0.0
 11
-674.73863241194567
 21
-1623.461584837356
 31
0.0
  0
LINE
  5
16897
  8
0
 10
-675.23863241194567
 20
-1621.961586000753
 30
0.0
 11
-674.73863241194567
 21
-1621.8615848373561
 31
0.0
  0
LINE
  5
16898
  8
0
 10
-674.73863241194567
 20
-1623.461584837356
 30
0.0
 11
-678.73863241194567
 21
-1622.6615941445341
 31
0.0
  0
LINE
  5
16899
  8
0
 10
-674.73863241194567
 20
-1625.0615848373559
 30
0.0
 11
-678.73863241194567
 21
-1624.261594144534
 31
0.0
  0
LINE
  5
1689A
  8
0
 10
-675.23863241194567
 20
-1620.3615860007531
 30
0.0
 11
-674.73863241194567
 21
-1620.2615848373559
 31
0.0
  0
LINE
  5
1689B
  8
0
 10
-678.73863241194567
 20
-1619.4615941445329
 30
0.0
 11
-678.23863241194567
 21
-1619.3615929811369
 31
0.0
  0
LINE
  5
1689C
  8
0
 10
-678.73863241194567
 20
-1617.8615941445339
 30
0.0
 11
-678.23863241194567
 21
-1617.761592981137
 31
0.0
  0
LINE
  5
1689D
  8
0
 10
-675.23863241194567
 20
-1618.7615860007529
 30
0.0
 11
-674.73863241194567
 21
-1618.661584837356
 31
0.0
  0
LINE
  5
1689E
  8
0
 10
-674.73863241194567
 20
-1620.2615848373559
 30
0.0
 11
-678.73863241194567
 21
-1619.4615941445329
 31
0.0
  0
LINE
  5
1689F
  8
0
 10
-678.73863241194567
 20
-1621.061594144533
 30
0.0
 11
-678.23863241194567
 21
-1620.9615929811359
 31
0.0
  0
LINE
  5
168A0
  8
0
 10
-674.73863241194567
 20
-1621.8615848373561
 30
0.0
 11
-678.73863241194567
 21
-1621.061594144533
 31
0.0
  0
LINE
  5
168A1
  8
0
 10
-674.73863241194567
 20
-1617.061584837352
 30
0.0
 11
-678.73863241194567
 21
-1616.2615941445331
 31
0.0
  0
LINE
  5
168A2
  8
0
 10
-674.73863241194567
 20
-1612.2615848373471
 30
0.0
 11
-678.73863241194567
 21
-1611.461594144529
 31
0.0
  0
LINE
  5
168A3
  8
0
 10
-674.73863241194567
 20
-1610.6615848373469
 30
0.0
 11
-678.73863241194567
 21
-1609.861594144525
 31
0.0
  0
LINE
  5
168A4
  8
0
 10
-675.23863241194567
 20
-1610.761586000745
 30
0.0
 11
-674.73863241194567
 21
-1610.6615848373469
 31
0.0
  0
LINE
  5
168A5
  8
0
 10
-678.73863241194567
 20
-1611.461594144529
 30
0.0
 11
-678.23863241194567
 21
-1611.361592981131
 31
0.0
  0
LINE
  5
168A6
  8
0
 10
-678.73863241194567
 20
-1609.861594144525
 30
0.0
 11
-678.23863241194567
 21
-1609.761592981127
 31
0.0
  0
LINE
  5
168A7
  8
0
 10
-678.73863241194567
 20
-1614.6615941445291
 30
0.0
 11
-678.23863241194567
 21
-1614.561592981132
 31
0.0
  0
LINE
  5
168A8
  8
0
 10
-675.23863241194567
 20
-1613.961586000745
 30
0.0
 11
-674.73863241194567
 21
-1613.861584837347
 31
0.0
  0
LINE
  5
168A9
  8
0
 10
-678.73863241194567
 20
-1613.061594144529
 30
0.0
 11
-678.23863241194567
 21
-1612.9615929811309
 31
0.0
  0
LINE
  5
168AA
  8
0
 10
-674.73863241194567
 20
-1613.861584837347
 30
0.0
 11
-678.73863241194567
 21
-1613.061594144529
 31
0.0
  0
LINE
  5
168AB
  8
0
 10
-675.23863241194567
 20
-1612.3615860007451
 30
0.0
 11
-674.73863241194567
 21
-1612.2615848373471
 31
0.0
  0
LINE
  5
168AC
  8
0
 10
-678.73863241194567
 20
-1616.2615941445331
 30
0.0
 11
-678.23863241194567
 21
-1616.161592981136
 31
0.0
  0
LINE
  5
168AD
  8
0
 10
-675.23863241194567
 20
-1615.5615860007449
 30
0.0
 11
-674.73863241194567
 21
-1615.4615848373469
 31
0.0
  0
LINE
  5
168AE
  8
0
 10
-675.23863241194567
 20
-1617.1615860007489
 30
0.0
 11
-674.73863241194567
 21
-1617.061584837352
 31
0.0
  0
LINE
  5
168AF
  8
0
 10
-672.73858587604775
 20
-1630.4615801835409
 30
0.0
 11
-680.73858587604775
 21
-1630.4615987979
 31
0.0
  0
LINE
  5
168B0
  8
1DIM
 10
-608.23858587604605
 20
-1729.7115784383279
 30
0.0
 11
-629.73858587604786
 21
-1729.7115784383279
 31
0.0
  0
LINE
  5
168B1
  8
1DIM
 10
-608.23858587604775
 20
-1709.2130650297449
 30
0.0
 11
-629.73858587604786
 21
-1709.2130650297449
 31
0.0
  0
LINE
  5
168B2
  8
1DIM
 10
-628.73858587604798
 20
-1727.7115784383279
 30
0.0
 11
-628.73858587604798
 21
-1711.2130650297449
 31
0.0
  0
LINE
  5
168B6
  8
1DIM
 10
-578.73858587604605
 20
-1678.711578438327
 30
0.0
 11
-578.73858587604605
 21
-1657.711578438327
 31
0.0
  0
LINE
  5
168B7
  8
1DIM
 10
-608.73858587604775
 20
-1709.7130650297449
 30
0.0
 11
-608.73858587604775
 21
-1657.711578438327
 31
0.0
  0
LINE
  5
168B8
  8
1DIM
 10
-580.73858587604605
 20
-1658.711578438327
 30
0.0
 11
-606.73858587604775
 21
-1658.711578438327
 31
0.0
  0
LINE
  5
168BC
  8
1DIM
 10
-684.73858587604786
 20
-1678.711578438327
 30
0.0
 11
-684.73858587604786
 21
-1667.711578438327
 31
0.0
  0
LINE
  5
168BD
  8
1DIM
 10
-668.73858587604786
 20
-1678.711578438327
 30
0.0
 11
-668.73858587604786
 21
-1667.711578438327
 31
0.0
  0
LINE
  5
168BE
  8
1DIM
 10
-682.73858587604798
 20
-1668.711578438327
 30
0.0
 11
-670.73858587604786
 21
-1668.711578438327
 31
0.0
  0
LINE
  5
168C2
  8
1DIM
 10
-669.23858587604775
 20
-1678.711578438327
 30
0.0
 11
-647.73858587604775
 21
-1678.711578438327
 31
0.0
  0
LINE
  5
168C3
  8
1DIM
 10
-669.23858587604775
 20
-1729.711578438327
 30
0.0
 11
-647.73858587604775
 21
-1729.711578438327
 31
0.0
  0
LINE
  5
168C4
  8
1DIM
 10
-648.73858587604775
 20
-1680.711578438327
 30
0.0
 11
-648.73858587604775
 21
-1727.711578438327
 31
0.0
  0
LINE
  5
168C8
  8
1DIM
 10
-596.73858587604616
 20
-1718.4088248943981
 30
0.0
 11
-596.73858587604616
 21
-1667.711578438327
 31
0.0
  0
LINE
  5
168C9
  8
1DIM
 10
-578.73858587604605
 20
-1678.711578438327
 30
0.0
 11
-578.73858587604605
 21
-1667.711578438327
 31
0.0
  0
LINE
  5
168CA
  8
1DIM
 10
-594.73858587604605
 20
-1668.711578438327
 30
0.0
 11
-580.73858587604605
 21
-1668.711578438327
 31
0.0
  0
LINE
  5
168CE
  8
1DIM
 10
-539.33410073780374
 20
-1694.6630649124779
 30
0.0
 11
-528.29501532895029
 21
-1694.6630649124779
 31
0.0
  0
LINE
  5
168CF
  8
1DIM
 10
-539.33410073780374
 20
-1714.6630649124779
 30
0.0
 11
-528.29501532895029
 21
-1714.6630649124779
 31
0.0
  0
LINE
  5
168D0
  8
1DIM
 10
-529.29501532895029
 20
-1696.6630649124779
 30
0.0
 11
-529.29501532895029
 21
-1712.6630649124779
 31
0.0
  0
LINE
  5
168D4
  8
1DIM
 10
-578.49650180310107
 20
-1678.711578438327
 30
0.0
 11
-528.29501532895051
 21
-1678.711578438327
 31
0.0
  0
LINE
  5
168D5
  8
1DIM
 10
-539.33410073780374
 20
-1694.6630649124779
 30
0.0
 11
-528.29501532895051
 21
-1694.6630649124779
 31
0.0
  0
LINE
  5
168D6
  8
1DIM
 10
-529.2950153289504
 20
-1680.711578438327
 30
0.0
 11
-529.2950153289504
 21
-1692.6630649124779
 31
0.0
  0
TEXT
  5
168DA
  8
1HATCH
 10
-574.03383425752099
 20
-1645.1697356316629
 30
0.0
 40
3.5
  1
PB
  0
SOLID
  5
168DB
  8
1HATCH
 10
-573.15187436730025
 20
-1663.0728486901801
 30
0.0
 11
-573.10896687783406
 21
-1665.099982148653
 31
0.0
 12
-573.80700373277955
 22
-1663.196339414249
 32
0.0
 13
-573.80700373277955
 23
-1663.196339414249
 33
0.0
  0
SOLID
  5
168DD
  8
1DIM
 10
-565.06578333334744
 20
-1663.076883165452
 30
0.0
 11
-564.61098466389285
 21
-1665.0528055529389
 31
0.0
 12
-565.68203931472408
 22
-1663.331192052166
 32
0.0
 13
-565.68203931472408
 23
-1663.331192052166
 33
0.0
  0
TEXT
  5
168DF
  8
1DIM
 10
-567.86648976298238
 20
-1649.9210816487871
 30
0.0
 40
3.5
  1
合板9mm以上
  0
TEXT
  5
168E0
  8
1DIM
 10
-668.39735581397269
 20
-1749.5196322872289
 30
0.0
 40
3.5
  1
材質：亜鉛ダイキャスト
  0
TEXT
  5
168E1
  8
1DIM
 10
-656.26402248063926
 20
-1755.3529656205619
 30
0.0
 40
3.5
  1
仕上げ：クローム
  0
SOLID
  5
168E2
  8
1DIM
 10
-605.11365142841532
 20
-1727.4047865130201
 30
0.0
 11
-603.83068914730609
 21
-1725.8347168023499
 31
0.0
 12
-604.53509031786791
 22
-1727.7360137549649
 32
0.0
 13
-604.53509031786791
 23
-1727.7360137549649
 33
0.0
  0
LINE
  5
168E4
  8
1DIM
 10
-604.82437087314156
 20
-1727.5704001339921
 30
0.0
 11
-621.13068914730604
 21
-1756.052965620562
 31
0.0
  0
LINE
  5
168E5
  8
1DIM
 10
-621.13068914730604
 20
-1756.052965620562
 30
0.0
 11
-669.09735581397274
 21
-1756.052965620562
 31
0.0
  0
LINE
  5
168E6
  8
1DIM
 10
-565.37391132403582
 20
-1663.2040376088089
 30
0.0
 11
-570.56648976298243
 21
-1650.6210816487869
 31
0.0
  0
LINE
  5
168E7
  8
1DIM
 10
-570.56648976298243
 20
-1650.6210816487869
 30
0.0
 11
-538.66648976298245
 21
-1650.6210816487869
 31
0.0
  0
LINE
  5
168E8
  8
1HATCH
 10
-573.4794390500399
 20
-1663.134594052214
 30
0.0
 11
-576.73383425752104
 21
-1645.8697356316641
 31
0.0
  0
LINE
  5
168E9
  8
1HATCH
 10
-576.73383425752104
 20
-1645.8697356316641
 30
0.0
 11
-568.20050092418774
 21
-1645.8697356316641
 31
0.0
  0
TEXT
  5
168EA
  8
1DIM
 10
-529.99501532895033
 20
-1689.020655008736
 30
0.0
 40
3.5
  1
16 
 50
90.0
  0
LINE
  5
168EB
  8
0
  6
BYBLOCK
 10
-528.75911694895046
 20
-1692.6630649124779
 30
0.0
 11
-529.2950153289504
 21
-1694.6630649124779
 31
0.0
  0
LINE
  5
168EC
  8
0
  6
BYBLOCK
 10
-529.2950153289504
 20
-1694.6630649124779
 30
0.0
 11
-529.83091370895045
 21
-1692.6630649124779
 31
0.0
  0
LINE
  5
168ED
  8
0
  6
BYBLOCK
 10
-529.2950153289504
 20
-1694.6630649124779
 30
0.0
 11
-529.2950153289504
 21
-1692.6630649124779
 31
0.0
  0
LINE
  5
168EE
  8
0
  6
BYBLOCK
 10
-529.83091370895045
 20
-1680.711578438327
 30
0.0
 11
-529.2950153289504
 21
-1678.711578438327
 31
0.0
  0
LINE
  5
168EF
  8
0
  6
BYBLOCK
 10
-529.2950153289504
 20
-1678.711578438327
 30
0.0
 11
-528.75911694895046
 21
-1680.711578438327
 31
0.0
  0
LINE
  5
168F0
  8
0
  6
BYBLOCK
 10
-529.2950153289504
 20
-1678.711578438327
 30
0.0
 11
-529.2950153289504
 21
-1680.711578438327
 31
0.0
  0
TEXT
  5
168F1
  8
1DIM
 10
-529.9950153289501
 20
-1707.2880649124791
 30
0.0
 40
3.5
  1
20 
 50
90.0
  0
LINE
  5
168F2
  8
0
  6
BYBLOCK
 10
-528.75911694895024
 20
-1712.6630649124779
 30
0.0
 11
-529.29501532895029
 21
-1714.6630649124779
 31
0.0
  0
LINE
  5
168F3
  8
0
  6
BYBLOCK
 10
-529.29501532895029
 20
-1714.6630649124779
 30
0.0
 11
-529.83091370895033
 21
-1712.6630649124779
 31
0.0
  0
LINE
  5
168F4
  8
0
  6
BYBLOCK
 10
-529.29501532895029
 20
-1714.6630649124779
 30
0.0
 11
-529.29501532895029
 21
-1712.6630649124779
 31
0.0
  0
LINE
  5
168F5
  8
0
  6
BYBLOCK
 10
-529.83091370895033
 20
-1696.6630649124779
 30
0.0
 11
-529.29501532895029
 21
-1694.6630649124779
 31
0.0
  0
LINE
  5
168F6
  8
0
  6
BYBLOCK
 10
-529.29501532895029
 20
-1694.6630649124779
 30
0.0
 11
-528.75911694895024
 21
-1696.6630649124779
 31
0.0
  0
LINE
  5
168F7
  8
0
  6
BYBLOCK
 10
-529.29501532895029
 20
-1694.6630649124779
 30
0.0
 11
-529.29501532895029
 21
-1696.6630649124779
 31
0.0
  0
TEXT
  5
168F8
  8
1DIM
 10
-590.07191920937953
 20
-1668.011578438327
 30
0.0
 40
3.5
  1
18 
  0
LINE
  5
168F9
  8
0
  6
BYBLOCK
 10
-580.73858587604605
 20
-1668.1756800583271
 30
0.0
 11
-578.73858587604605
 21
-1668.711578438327
 31
0.0
  0
LINE
  5
168FA
  8
0
  6
BYBLOCK
 10
-578.73858587604605
 20
-1668.711578438327
 30
0.0
 11
-580.73858587604605
 21
-1669.247476818327
 31
0.0
  0
LINE
  5
168FB
  8
0
  6
BYBLOCK
 10
-578.73858587604605
 20
-1668.711578438327
 30
0.0
 11
-580.73858587604605
 21
-1668.711578438327
 31
0.0
  0
LINE
  5
168FC
  8
0
  6
BYBLOCK
 10
-594.73858587604605
 20
-1669.247476818327
 30
0.0
 11
-596.73858587604616
 21
-1668.711578438327
 31
0.0
  0
LINE
  5
168FD
  8
0
  6
BYBLOCK
 10
-596.73858587604616
 20
-1668.711578438327
 30
0.0
 11
-594.73858587604605
 21
-1668.1756800583271
 31
0.0
  0
LINE
  5
168FE
  8
0
  6
BYBLOCK
 10
-596.73858587604616
 20
-1668.711578438327
 30
0.0
 11
-594.73858587604605
 21
-1668.711578438327
 31
0.0
  0
TEXT
  5
168FF
  8
1DIM
 10
-649.43858587604745
 20
-1706.544911771661
 30
0.0
 40
3.5
  1
51 
 50
90.0
  0
LINE
  5
16900
  8
0
  6
BYBLOCK
 10
-648.20268749604759
 20
-1727.711578438327
 30
0.0
 11
-648.73858587604775
 21
-1729.711578438327
 31
0.0
  0
LINE
  5
16901
  8
0
  6
BYBLOCK
 10
-648.73858587604775
 20
-1729.711578438327
 30
0.0
 11
-649.2744842560478
 21
-1727.711578438327
 31
0.0
  0
LINE
  5
16902
  8
0
  6
BYBLOCK
 10
-648.73858587604775
 20
-1729.711578438327
 30
0.0
 11
-648.73858587604775
 21
-1727.711578438327
 31
0.0
  0
LINE
  5
16903
  8
0
  6
BYBLOCK
 10
-649.2744842560478
 20
-1680.711578438327
 30
0.0
 11
-648.73858587604775
 21
-1678.711578438327
 31
0.0
  0
LINE
  5
16904
  8
0
  6
BYBLOCK
 10
-648.73858587604775
 20
-1678.711578438327
 30
0.0
 11
-648.20268749604759
 21
-1680.711578438327
 31
0.0
  0
LINE
  5
16905
  8
0
  6
BYBLOCK
 10
-648.73858587604775
 20
-1678.711578438327
 30
0.0
 11
-648.73858587604775
 21
-1680.711578438327
 31
0.0
  0
TEXT
  5
16906
  8
1DIM
 10
-679.07191920938101
 20
-1668.011578438327
 30
0.0
 40
3.5
  1
16 
  0
LINE
  5
16907
  8
0
  6
BYBLOCK
 10
-670.73858587604786
 20
-1668.1756800583271
 30
0.0
 11
-668.73858587604786
 21
-1668.711578438327
 31
0.0
  0
LINE
  5
16908
  8
0
  6
BYBLOCK
 10
-668.73858587604786
 20
-1668.711578438327
 30
0.0
 11
-670.73858587604786
 21
-1669.247476818327
 31
0.0
  0
LINE
  5
16909
  8
0
  6
BYBLOCK
 10
-668.73858587604786
 20
-1668.711578438327
 30
0.0
 11
-670.73858587604786
 21
-1668.711578438327
 31
0.0
  0
LINE
  5
1690A
  8
0
  6
BYBLOCK
 10
-682.73858587604798
 20
-1669.247476818327
 30
0.0
 11
-684.73858587604786
 21
-1668.711578438327
 31
0.0
  0
LINE
  5
1690B
  8
0
  6
BYBLOCK
 10
-684.73858587604786
 20
-1668.711578438327
 30
0.0
 11
-682.73858587604798
 21
-1668.1756800583271
 31
0.0
  0
LINE
  5
1690C
  8
0
  6
BYBLOCK
 10
-684.73858587604786
 20
-1668.711578438327
 30
0.0
 11
-682.73858587604798
 21
-1668.711578438327
 31
0.0
  0
TEXT
  5
1690D
  8
1DIM
 10
-596.77682430757307
 20
-1658.011578438327
 30
0.0
 40
3.5
  1
30 
  0
LINE
  5
1690E
  8
0
  6
BYBLOCK
 10
-606.73858587604775
 20
-1659.247476818327
 30
0.0
 11
-608.73858587604775
 21
-1658.711578438327
 31
0.0
  0
LINE
  5
1690F
  8
0
  6
BYBLOCK
 10
-608.73858587604775
 20
-1658.711578438327
 30
0.0
 11
-606.73858587604775
 21
-1658.1756800583271
 31
0.0
  0
LINE
  5
16910
  8
0
  6
BYBLOCK
 10
-608.73858587604775
 20
-1658.711578438327
 30
0.0
 11
-606.73858587604775
 21
-1658.711578438327
 31
0.0
  0
LINE
  5
16911
  8
0
  6
BYBLOCK
 10
-580.73858587604605
 20
-1658.1756800583271
 30
0.0
 11
-578.73858587604605
 21
-1658.711578438327
 31
0.0
  0
LINE
  5
16912
  8
0
  6
BYBLOCK
 10
-578.73858587604605
 20
-1658.711578438327
 30
0.0
 11
-580.73858587604605
 21
-1659.247476818327
 31
0.0
  0
LINE
  5
16913
  8
0
  6
BYBLOCK
 10
-578.73858587604605
 20
-1658.711578438327
 30
0.0
 11
-580.73858587604605
 21
-1658.711578438327
 31
0.0
  0
TEXT
  5
16914
  8
1DIM
 10
-629.43858587604768
 20
-1723.421398363078
 30
0.0
 40
3.5
  1
20.5 
 50
90.0
  0
LINE
  5
16915
  8
0
  6
BYBLOCK
 10
-629.27448425604803
 20
-1711.2130650297449
 30
0.0
 11
-628.73858587604798
 21
-1709.2130650297449
 31
0.0
  0
LINE
  5
16916
  8
0
  6
BYBLOCK
 10
-628.73858587604798
 20
-1709.2130650297449
 30
0.0
 11
-628.20268749604793
 21
-1711.2130650297449
 31
0.0
  0
LINE
  5
16917
  8
0
  6
BYBLOCK
 10
-628.73858587604798
 20
-1709.2130650297449
 30
0.0
 11
-628.73858587604798
 21
-1711.2130650297449
 31
0.0
  0
LINE
  5
16918
  8
0
  6
BYBLOCK
 10
-628.20268749604793
 20
-1727.7115784383279
 30
0.0
 11
-628.73858587604798
 21
-1729.7115784383279
 31
0.0
  0
LINE
  5
16919
  8
0
  6
BYBLOCK
 10
-628.73858587604798
 20
-1729.7115784383279
 30
0.0
 11
-629.27448425604803
 21
-1727.7115784383279
 31
0.0
  0
LINE
  5
1691A
  8
0
  6
BYBLOCK
 10
-628.73858587604798
 20
-1729.7115784383279
 30
0.0
 11
-628.73858587604798
 21
-1727.7115784383279
 31
0.0
  0
LINE
  5
1691B
  8
0
 10
-675.23863241194567
 20
-1596.0615860007449
 30
0.0
 11
-675.23863241194567
 21
-1627.961551098869
 31
0.0
  0
LINE
  5
1691C
  8
0
 10
-676.73863241194556
 20
-1590.761589490884
 30
0.0
 11
-675.23863241194567
 21
-1596.0615860007449
 31
0.0
  0
LINE
  5
1691D
  8
0
 10
-672.73858587604775
 20
-1630.4615801835409
 30
0.0
 11
-675.23863241194567
 21
-1627.961551098869
 31
0.0
  0
LINE
  5
1691E
  8
0
 10
-676.73863241194556
 20
-1590.761589490884
 30
0.0
 11
-678.23863241194567
 21
-1596.061592981129
 31
0.0
  0
LINE
  5
1691F
  8
0
 10
-672.73858587604775
 20
-1630.4615801835409
 30
0.0
 11
-672.73858587604775
 21
-1630.761580183542
 31
0.0
  0
LINE
  5
16920
  8
0
 10
-678.23863241194567
 20
-1596.061592981129
 30
0.0
 11
-678.23863241194567
 21
-1627.9616162492341
 31
0.0
  0
LINE
  5
16921
  8
0
 10
-672.73858587604775
 20
-1630.761580183542
 30
0.0
 11
-680.73858587604775
 21
-1630.7615987979009
 31
0.0
  0
LINE
  5
16922
  8
0
 10
-680.73858587604775
 20
-1630.4615987979
 30
0.0
 11
-678.23863241194567
 21
-1627.9616162492341
 31
0.0
  0
LINE
  5
16923
  8
0
 10
-680.73858587604775
 20
-1630.4615987979
 30
0.0
 11
-680.73858587604775
 21
-1630.7615987979009
 31
0.0
  0
LINE
  5
16924
  8
0
 10
-546.08857404837943
 20
-1716.1630183765801
 30
0.0
 11
-577.98853914650317
 21
-1716.1630183765801
 31
0.0
  0
LINE
  5
16925
  8
0
 10
-540.78857753851844
 20
-1714.6630183765801
 30
0.0
 11
-546.08857404837943
 21
-1716.1630183765801
 31
0.0
  0
LINE
  5
16926
  8
0
 10
-580.48856823117535
 20
-1718.6630649124779
 30
0.0
 11
-577.98853914650317
 21
-1716.1630183765801
 31
0.0
  0
LINE
  5
16927
  8
0
 10
-540.78857753851844
 20
-1714.6630183765801
 30
0.0
 11
-546.08858102876377
 21
-1713.163018376581
 31
0.0
  0
LINE
  5
16928
  8
0
 10
-580.48856823117535
 20
-1718.6630649124779
 30
0.0
 11
-580.78856823117644
 21
-1718.6630649124779
 31
0.0
  0
LINE
  5
16929
  8
0
 10
-546.08858102876377
 20
-1713.163018376581
 30
0.0
 11
-577.9886042968684
 21
-1713.163018376581
 31
0.0
  0
LINE
  5
1692A
  8
0
 10
-580.78856823117644
 20
-1718.6630649124779
 30
0.0
 11
-580.78858684553552
 21
-1710.6630649124779
 31
0.0
  0
LINE
  5
1692B
  8
0
 10
-580.48858684553443
 20
-1710.6630649124779
 30
0.0
 11
-577.9886042968684
 21
-1713.163018376581
 31
0.0
  0
LINE
  5
1692C
  8
0
 10
-580.48858684553443
 20
-1710.6630649124779
 30
0.0
 11
-580.78858684553552
 21
-1710.6630649124779
 31
0.0
  0
LINE
  5
1692D
  8
0
 10
-546.08859343846507
 20
-1696.1630183765801
 30
0.0
 11
-577.98855853658904
 21
-1696.1630183765801
 31
0.0
  0
LINE
  5
1692E
  8
0
 10
-540.78859692860408
 20
-1694.6630183765801
 30
0.0
 11
-546.08859343846507
 21
-1696.1630183765801
 31
0.0
  0
LINE
  5
1692F
  8
0
 10
-580.4885876212611
 20
-1698.6630649124779
 30
0.0
 11
-577.98855853658904
 21
-1696.1630183765801
 31
0.0
  0
LINE
  5
16930
  8
0
 10
-540.78859692860408
 20
-1694.6630183765801
 30
0.0
 11
-546.08860041884952
 21
-1693.1630183765801
 31
0.0
  0
LINE
  5
16931
  8
0
 10
-580.4885876212611
 20
-1698.6630649124779
 30
0.0
 11
-580.7885876212622
 21
-1698.6630649124779
 31
0.0
  0
LINE
  5
16932
  8
0
 10
-546.08860041884952
 20
-1693.1630183765801
 30
0.0
 11
-577.98862368695416
 21
-1693.1630183765801
 31
0.0
  0
LINE
  5
16933
  8
0
 10
-580.7885876212622
 20
-1698.6630649124779
 30
0.0
 11
-580.78860623562116
 21
-1690.6630649124779
 31
0.0
  0
LINE
  5
16934
  8
0
 10
-580.48860623562007
 20
-1690.6630649124779
 30
0.0
 11
-577.98862368695416
 21
-1693.1630183765801
 31
0.0
  0
LINE
  5
16935
  8
0
 10
-580.48860623562007
 20
-1690.6630649124779
 30
0.0
 11
-580.78860623562116
 21
-1690.6630649124779
 31
0.0
  0
TEXT
  5
16936
  8
1DIM
 10
-619.4385858760478
 20
-1716.4620304325731
 30
0.0
 40
3.5
  1
11 
 50
90.0
  0
LINE
  5
16937
  8
0
  6
BYBLOCK
 10
-618.20268749604793
 20
-1718.210995835401
 30
0.0
 11
-618.73858587604786
 21
-1720.210995835401
 31
0.0
  0
LINE
  5
16938
  8
0
  6
BYBLOCK
 10
-618.73858587604786
 20
-1720.210995835401
 30
0.0
 11
-619.27448425604803
 21
-1718.210995835401
 31
0.0
  0
LINE
  5
16939
  8
0
  6
BYBLOCK
 10
-618.73858587604786
 20
-1720.210995835401
 30
0.0
 11
-618.73858587604786
 21
-1718.210995835401
 31
0.0
  0
LINE
  5
1693A
  8
0
  6
BYBLOCK
 10
-619.27448425604803
 20
-1711.2130650297449
 30
0.0
 11
-618.73858587604786
 21
-1709.2130650297449
 31
0.0
  0
LINE
  5
1693B
  8
0
  6
BYBLOCK
 10
-618.73858587604786
 20
-1709.2130650297449
 30
0.0
 11
-618.20268749604793
 21
-1711.2130650297449
 31
0.0
  0
LINE
  5
1693C
  8
0
  6
BYBLOCK
 10
-618.73858587604786
 20
-1709.2130650297449
 30
0.0
 11
-618.73858587604786
 21
-1711.2130650297449
 31
0.0
  0
VIEWPORT
  5
57
 67
     1
  8
0
 10
-8.7698622509002462
 20
10.09248672500371
 30
0.0
 40
426.42113197340632
 41
282.75646105832658
 68
     1
 69
     1
1001
ACAD
1000
MVIEW
1002
{
1070
    16
1010
0.0
1020
0.0
1030
0.0
1010
0.0
1020
0.0
1030
1.0
1040
0.0
1040
282.75646105832658
1040
-8.7698622509002462
1040
10.09248672500371
1040
50.0
1040
0.0
1040
0.0
1070
     0
1070
   100
1070
     1
1070
     1
1070
     0
1070
     0
1070
     0
1070
     0
1040
0.0
1040
0.0
1040
0.0
1040
10.0
1040
10.0
1040
10.0
1040
10.0
1070
     0
1002
{
1002
}
1002
}
  0
ENDSEC
  0
EOF
