  0
SECTION
  2
HEADER
  9
$ACADVER
  1
AC1009
  9
$INSBASE
 10
0.0
 20
0.0
 30
0.0
  9
$EXTMIN
 10
-320.3003760681558
 20
-654.45301523165074
 30
0.0
  9
$EXTMAX
 10
41.580979279639273
 20
-390.07190581314637
 30
0.0
  9
$LIMMIN
 10
0.0
 20
0.0
  9
$LIMMAX
 10
420.0
 20
297.0
  9
$ORTHOMODE
 70
     0
  9
$REGENMODE
 70
     1
  9
$FILLMODE
 70
     1
  9
$QTEXTMODE
 70
     0
  9
$MIRRTEXT
 70
     0
  9
$DRAGMODE
 70
     2
  9
$LTSCALE
 40
0.5
  9
$OSMODE
 70
  2175
  9
$ATTMODE
 70
     1
  9
$TEXTSIZE
 40
4.0
  9
$TRACEWID
 40
1.0
  9
$TEXTSTYLE
  7
STANDARD
  9
$CLAYER
  8
1TEXT
  9
$CELTYPE
  6
BYLAYER
  9
$CECOLOR
 62
   256
  9
$DIMSCALE
 40
1.0
  9
$DIMASZ
 40
2.0
  9
$DIMEXO
 40
0.0
  9
$DIMDLI
 40
7.0
  9
$DIMRND
 40
0.0
  9
$DIMDLE
 40
0.0
  9
$DIMEXE
 40
1.0
  9
$DIMTP
 40
0.0
  9
$DIMTM
 40
0.0
  9
$DIMTXT
 40
3.5
  9
$DIMCEN
 40
0.0
  9
$DIMTSZ
 40
0.0
  9
$DIMTOL
 70
     0
  9
$DIMLIM
 70
     0
  9
$DIMTIH
 70
     0
  9
$DIMTOH
 70
     0
  9
$DIMSE1
 70
     0
  9
$DIMSE2
 70
     0
  9
$DIMTAD
 70
     1
  9
$DIMZIN
 70
     8
  9
$DIMBLK
  1

  9
$DIMASO
 70
     1
  9
$DIMSHO
 70
     1
  9
$DIMPOST
  1
 
  9
$DIMAPOST
  1

  9
$DIMALT
 70
     0
  9
$DIMALTD
 70
     2
  9
$DIMALTF
 40
25.399999999999999
  9
$DIMLFAC
 40
1.0
  9
$DIMTOFL
 70
     1
  9
$DIMTVP
 40
0.0
  9
$DIMTIX
 70
     0
  9
$DIMSOXD
 70
     0
  9
$DIMSAH
 70
     1
  9
$DIMBLK1
  1
OPEN30
  9
$DIMBLK2
  1
OPEN30
  9
$DIMSTYLE
  2
NEWX10
  9
$DIMCLRD
 70
   256
  9
$DIMCLRE
 70
   256
  9
$DIMCLRT
 70
   201
  9
$DIMTFAC
 40
0.7
  9
$DIMGAP
 40
0.7
  9
$LUNITS
 70
     2
  9
$LUPREC
 70
     4
  9
$SKETCHINC
 40
1.0
  9
$FILLETRAD
 40
6.0
  9
$AUNITS
 70
     0
  9
$AUPREC
 70
     2
  9
$MENU
  1
acad
  9
$ELEVATION
 40
0.0
  9
$PELEVATION
 40
0.0
  9
$THICKNESS
 40
0.0
  9
$LIMCHECK
 70
     0
  9
$BLIPMODE
 70
     0
  9
$CHAMFERA
 40
10.0
  9
$CHAMFERB
 40
10.0
  9
$SKPOLY
 70
     0
  9
$TDCREATE
 40
2453033.7326634838
  9
$TDUPDATE
 40
2456311.5457577319
  9
$TDINDWG
 40
1.8842572685000001
  9
$TDUSRTIMER
 40
1.8842572685000001
  9
$USRTIMER
 70
     1
  9
$ANGBASE
 50
0.0
  9
$ANGDIR
 70
     0
  9
$PDMODE
 70
     0
  9
$PDSIZE
 40
0.0
  9
$PLINEWID
 40
0.0
  9
$COORDS
 70
     0
  9
$SPLFRAME
 70
     0
  9
$SPLINETYPE
 70
     6
  9
$SPLINESEGS
 70
     8
  9
$ATTDIA
 70
     0
  9
$ATTREQ
 70
     1
  9
$HANDLING
 70
     1
  9
$HANDSEED
  5
190D5
  9
$SURFTAB1
 70
     6
  9
$SURFTAB2
 70
     6
  9
$SURFTYPE
 70
     6
  9
$SURFU
 70
     6
  9
$SURFV
 70
     6
  9
$UCSNAME
  2

  9
$UCSORG
 10
0.0
 20
0.0
 30
0.0
  9
$UCSXDIR
 10
1.0
 20
0.0
 30
0.0
  9
$UCSYDIR
 10
0.0
 20
1.0
 30
0.0
  9
$PUCSNAME
  2

  9
$PUCSORG
 10
0.0
 20
0.0
 30
0.0
  9
$PUCSXDIR
 10
1.0
 20
0.0
 30
0.0
  9
$PUCSYDIR
 10
0.0
 20
1.0
 30
0.0
  9
$USERI1
 70
     0
  9
$USERI2
 70
     0
  9
$USERI3
 70
     0
  9
$USERI4
 70
     0
  9
$USERI5
 70
     0
  9
$USERR1
 40
0.0
  9
$USERR2
 40
0.0
  9
$USERR3
 40
0.0
  9
$USERR4
 40
0.0
  9
$USERR5
 40
0.0
  9
$WORLDVIEW
 70
     1
  9
$SHADEDGE
 70
     3
  9
$SHADEDIF
 70
    70
  9
$TILEMODE
 70
     1
  9
$MAXACTVP
 70
    48
  9
$PLIMCHECK
 70
     0
  9
$PEXTMIN
 10
1.0000000000000000E+020
 20
1.0000000000000000E+020
 30
1.0000000000000000E+020
  9
$PEXTMAX
 10
-1.0000000000000000E+020
 20
-1.0000000000000000E+020
 30
-1.0000000000000000E+020
  9
$PLIMMIN
 10
0.0
 20
0.0
  9
$PLIMMAX
 10
420.0
 20
297.0
  9
$UNITMODE
 70
     0
  9
$VISRETAIN
 70
     1
  9
$PLINEGEN
 70
     0
  9
$PSLTSCALE
 70
     1
  0
ENDSEC
  0
SECTION
  2
TABLES
  0
TABLE
  2
VPORT
 70
     1
  0
VPORT
  2
*ACTIVE
 70
     0
 10
0.0
 20
0.0
 11
1.0
 21
1.0
 12
-139.35964849270039
 22
-522.25917445463449
 13
0.0
 23
0.0
 14
10.0
 24
10.0
 15
10.0
 25
10.0
 16
0.0
 26
0.0
 36
1.0
 17
0.0
 27
0.0
 37
0.0
 40
280.56735508144533
 41
1.492734478203434
 42
50.0
 43
0.0
 44
0.0
 50
0.0
 51
0.0
 71
     0
 72
   100
 73
     1
 74
     1
 75
     0
 76
     0
 77
     0
 78
     0
  0
ENDTAB
  0
TABLE
  2
LTYPE
 70
    14
  0
LTYPE
  2
CONTINUOUS
 70
     0
  3
Solid line
 72
    65
 73
     0
 40
0.0
  0
LTYPE
  2
XREF1|CENTER2
 70
    48
  3
Center (.5x) ___ _ ___ _ ___ _ ___ _ ___ _ ___
 72
    65
 73
     4
 40
28.574999999999999
 49
19.050000000000001
 49
-3.1749999999999989
 49
3.1749999999999989
 49
-3.1749999999999989
  0
LTYPE
  2
PHANTOM2
 70
     0
  3
Phantom (.5x) ___ _ _ ___ _ _ ___ _ _ ___ _ _
 72
    65
 73
     6
 40
31.75
 49
15.875
 49
-3.1749999999999989
 49
3.1749999999999989
 49
-3.1749999999999989
 49
3.1749999999999989
 49
-3.1749999999999989
  0
LTYPE
  2
A3WAKUDAKE|CENTER2
 70
    48
  3
Center (.5x) ___ _ ___ _ ___ _ ___ _ ___ _ ___
 72
    65
 73
     4
 40
28.574999999999999
 49
19.050000000000001
 49
-3.1749999999999989
 49
3.1749999999999989
 49
-3.1749999999999989
  0
LTYPE
  2
CENTER2
 70
     0
  3
Center (.5x) ___ _ ___ _ ___ _ ___ _ ___ _ ___
 72
    65
 73
     4
 40
28.574999999999999
 49
19.050000000000001
 49
-3.1749999999999989
 49
3.1749999999999989
 49
-3.1749999999999989
  0
ENDTAB
  0
TABLE
  2
LAYER
 70
    44
  0
LAYER
  2
0
 70
     0
 62
     7
  6
CONTINUOUS
  0
LAYER
  2
1CENTER
 70
     0
 62
     7
  6
CENTER2
  0
LAYER
  2
1TEXT
 70
     0
 62
     7
  6
CONTINUOUS
  0
LAYER
  2
1DIM
 70
     0
 62
     7
  6
CONTINUOUS
  0
LAYER
  2
1PHANTOM
 70
     0
 62
     7
  6
PHANTOM2
  0
LAYER
  2
01
 70
     0
 62
     1
  6
CONTINUOUS
  0
LAYER
  2
1HATCH
 70
     0
 62
     7
  6
CONTINUOUS
  0
LAYER
  2
XREF1|1CENTER
 70
    48
 62
     7
  6
XREF1|CENTER2
  0
LAYER
  2
A3WAKUDAKE|THICK
 70
    48
 62
     7
  6
CONTINUOUS
  0
LAYER
  2
A3WAKUDAKE|POINT
 70
    48
 62
     7
  6
CONTINUOUS
  0
LAYER
  2
A3WAKUDAKE|1CENTER
 70
    48
 62
     7
  6
A3WAKUDAKE|CENTER2
  0
LAYER
  2
A3WAKUDAKE|0-6
 70
    48
 62
     7
  6
CONTINUOUS
  0
LAYER
  2
A3WAKUDAKE|1DIM
 70
    48
 62
     7
  6
CONTINUOUS
  0
ENDTAB
  0
TABLE
  2
STYLE
 70
    21
  0
STYLE
  2
STANDARD
 70
     0
 40
0.0
 41
1.0
 50
0.0
 71
     0
 42
4.0
  3
txt.shx
  4
extfont.shx
  0
ENDTAB
  0
TABLE
  2
VIEW
 70
     5
  0
ENDTAB
  0
TABLE
  2
UCS
 70
     0
  0
ENDTAB
  0
TABLE
  2
APPID
 70
    10
  0
APPID
  2
ACAD
 70
     0
  0
APPID
  2
DRAWINGVARIABLESXDATA
 70
     0
  0
APPID
  2
CONTENTTABDATA
 70
     0
  0
APPID
  2
CONTENTCURRENTTAB
 70
     0
  0
APPID
  2
CONTENTBLOCKDESCRIPTION
 70
     0
  0
APPID
  2
CONTENTBLOCKICON
 70
     0
  0
APPID
  2
CONTENTLONGBLOCKNAME
 70
     0
  0
APPID
  2
ACAD_PSEXT
 70
     0
  0
APPID
  2
ACAD_DSTYLE_DIMTEXT_FILL
 70
     0
  0
APPID
  2
ACAD_MLEADERVER
 70
     0
  0
ENDTAB
  0
TABLE
  2
DIMSTYLE
 70
     7
  0
DIMSTYLE
  2
NEWX10
 70
     0
  3
 
  4

  5

  6
OPEN30
  7
OPEN30
 40
1.0
 41
2.0
 42
0.0
 43
7.0
 44
1.0
 45
0.0
 46
0.0
 47
0.0
 48
0.0
140
3.5
141
0.0
142
0.0
143
25.399999999999999
144
1.0
145
0.0
146
0.7
147
0.7
 71
     0
 72
     0
 73
     0
 74
     0
 75
     0
 76
     0
 77
     1
 78
     8
170
     0
171
     2
172
     1
173
     1
174
     0
175
     0
176
   256
177
   256
178
   201
  0
ENDTAB
  0
ENDSEC
  0
SECTION
  2
BLOCKS
  0
BLOCK
  8
0
  2
$MODEL_SPACE
 70
     0
 10
0.0
 20
0.0
 30
0.0
  3
$MODEL_SPACE
  1

  0
ENDBLK
  5
1A
  8
0
  0
BLOCK
 67
     1
  8
0
  2
$PAPER_SPACE
 70
     0
 10
0.0
 20
0.0
 30
0.0
  3
$PAPER_SPACE
  1

  0
ENDBLK
  5
17
 67
     1
  8
0
  0
BLOCK
  8
0
  2
_OPEN30
 70
     0
 10
0.0
 20
0.0
 30
0.0
  3
_OPEN30
  1

  0
LINE
  5
44
  8
0
  6
BYBLOCK
 62
     0
 10
-1.0
 20
0.26794919
 30
0.0
 11
0.0
 21
0.0
 31
0.0
  0
LINE
  5
45
  8
0
  6
BYBLOCK
 62
     0
 10
0.0
 20
0.0
 30
0.0
 11
-1.0
 21
-0.26794919
 31
0.0
  0
LINE
  5
46
  8
0
  6
BYBLOCK
 62
     0
 10
0.0
 20
0.0
 30
0.0
 11
-1.0
 21
0.0
 31
0.0
  0
ENDBLK
  5
47
  8
0
  0
BLOCK
  8
0
  2
XREF1
 70
    36
 10
0.0
 20
0.0
 30
0.0
  3
XREF1
  1
D:\ACLT\FORMAT\KAWAJUN(9)図面用.dwg
  0
ENDBLK
  5
5D
  8
0
  0
BLOCK
  8
0
  2
A3WAKUDAKE
 70
    36
 10
0.0
 20
0.0
 30
0.0
  3
A3WAKUDAKE
  1
D:\ACLT\FORMAT\A3WAKUdake.dwg
  0
ENDBLK
  5
6DC
  8
0
  0
ENDSEC
  0
SECTION
  2
ENTITIES
  0
ARC
  5
17FBA
  8
01
 10
-140.78940415316319
 20
-633.95276908985909
 30
0.0
 40
1.000292096782589
 50
269.0440396208366
 51
1.237900519364201
  0
ARC
  5
17FBB
  8
01
 10
-318.78938841139518
 20
-633.95306167134095
 30
0.0
 40
0.9999667622819716
 50
180.00004620476651
 51
270.00366645359469
  0
ARC
  5
17FBC
  8
01
 10
-318.78932359318571
 20
-503.95334560294719
 30
0.0
 40
0.9999667622779428
 50
90.000046204453824
 51
180.0036664534384
  0
ARC
  5
17FBD
  8
01
 10
-140.7893283254231
 20
-503.95339756079562
 30
0.0
 40
0.9999827424816933
 50
359.03969298470298
 51
91.256082960654183
  0
LINE
  5
17FBE
  8
01
 10
-318.78932440392111
 20
-634.95306248208317
 30
0.0
 11
-140.8060929085101
 21
-634.95306248208317
 31
0.0
  0
LINE
  5
17FBF
  8
01
 10
-139.7891120563805
 20
-633.95276908985909
 30
0.0
 11
-139.78923560964489
 21
-565.16149970137428
 31
0.0
  0
LINE
  5
17FC0
  8
01
 10
-319.7893244039239
 20
-503.95340961041848
 30
0.0
 11
-319.78935517367762
 21
-633.95306167134095
 31
0.0
  0
LINE
  5
17FC1
  8
01
 10
-140.81124897445949
 20
-502.95340961041848
 30
0.0
 11
-318.78932440392111
 21
-502.95340961041848
 31
0.0
  0
LINE
  5
17FC2
  8
1PHANTOM
 10
-290.7904620660143
 20
-511.95204817027849
 30
0.0
 11
-289.21060671886119
 21
-516.29728975540547
 31
0.0
  0
LINE
  5
17FC3
  8
01
 10
-161.98933492783871
 20
-552.25325943070675
 30
0.0
 11
-161.98933537441971
 21
-571.65305850288087
 31
0.0
  0
LINE
  5
17FC4
  8
01
 10
-142.08933491633121
 20
-551.75325944221561
 30
0.0
 11
-161.48933492783871
 21
-551.75325944221697
 31
0.0
  0
ARC
  5
17FC5
  8
01
 10
-161.48933492783871
 20
-552.25325944221697
 30
0.0
 40
0.5
 50
90.0
 51
179.99999868103851
  0
LINE
  5
17FC6
  8
01
 10
-141.589334916334
 20
-571.65305851439155
 30
0.0
 11
-141.58933491633121
 21
-552.25325944221549
 31
0.0
  0
ARC
  5
17FC7
  8
01
 10
-142.089334916334
 20
-571.65305851439155
 30
0.0
 40
0.5
 50
270.0
 51
0.0
  0
ARC
  5
17FC8
  8
01
 10
-142.08933491633121
 20
-552.25325944221549
 30
0.0
 40
0.5
 50
0.0
 51
90.0
  0
LINE
  5
17FC9
  8
01
 10
-298.08933306170059
 20
-551.7532594422164
 30
0.0
 11
-317.48933500057831
 21
-551.75325944221561
 31
0.0
  0
ARC
  5
17FCA
  8
01
 10
-317.48933500057831
 20
-552.25325944221549
 30
0.0
 40
0.5
 50
90.0
 51
180.0
  0
ARC
  5
17FCB
  8
01
 10
-298.08933306170059
 20
-552.25325944221652
 30
0.0
 40
0.5
 50
0.0002221793231466
 51
90.0
  0
ARC
  5
17FCC
  8
01
 10
-318.8002737311744
 20
-430.19343069931648
 30
0.0
 40
1.0000011474352739
 50
179.99991908962659
 51
269.99986226745739
  0
ARC
  5
17FCD
  8
01
 10
-140.8001861579595
 20
-430.1934440181351
 30
0.0
 40
0.9998931278629563
 50
269.99363409359268
 51
0.0008441556652099
  0
LINE
  5
17FCE
  8
01
 10
-318.80027613466052
 20
-431.19342928696398
 30
0.0
 11
-140.80029724372059
 21
-431.1934292869621
 31
0.0
  0
LINE
  5
17FCF
  8
01
 10
-319.80033671360968
 20
-428.19339604083717
 30
0.0
 11
-319.80027613468872
 21
-430.19342837251708
 31
0.0
  0
LINE
  5
17FD0
  8
01
 10
-139.8002972437188
 20
-428.19342317999082
 30
0.0
 11
-139.8002972437188
 21
-430.19342928696301
 31
0.0
  0
LINE
  5
17FD1
  8
01
 10
-319.80033671360968
 20
-428.19339604083717
 30
0.0
 11
-139.8002972437188
 21
-428.19342317999082
 31
0.0
  0
LINE
  5
17FD2
  8
01
 10
-319.80033671360968
 20
-428.19339604083717
 30
0.0
 11
-318.80027613465512
 21
-428.1934267347882
 31
0.0
  0
LINE
  5
17FD3
  8
01
 10
-166.8296294581213
 20
-401.69102868584542
 30
0.0
 11
-165.90414452118611
 21
-428.19344974930601
 31
0.0
  0
LINE
  5
17FD4
  8
01
 10
-292.77094392025981
 20
-401.69102868584542
 30
0.0
 11
-166.8296294581213
 21
-401.69102868584542
 31
0.0
  0
LINE
  5
17FD5
  8
01
 10
-293.6965174204575
 20
-428.19598586902862
 30
0.0
 11
-292.77094392025981
 21
-401.69102868584542
 31
0.0
  0
LINE
  5
17FD6
  8
01
 10
-10.76921291583105
 20
-509.51086028499151
 30
0.0
 11
-10.76991866992077
 21
-509.4875482580934
 31
0.0
  0
LINE
  5
17FD7
  8
01
 10
-10.769418405604229
 20
-509.47891741384598
 30
0.0
 11
-10.76921291583105
 21
-509.51086028499151
 31
0.0
  0
LINE
  5
17FD8
  8
01
 10
-10.76921291583014
 20
-509.51086028499151
 30
0.0
 11
-10.76991866915316
 21
-509.48754828497709
 31
0.0
  0
LINE
  5
17FD9
  8
01
 10
-10.769418405604229
 20
-509.47891741385098
 30
0.0
 11
-10.76921291583014
 21
-509.51086028499151
 31
0.0
  0
LINE
  5
17FDA
  8
01
 10
-10.75669266692214
 20
-509.66750858767227
 30
0.0
 11
-10.753874994609509
 21
-509.6874268509369
 31
0.0
  0
LINE
  5
17FDB
  8
01
 10
-10.769773731127071
 20
-503.95310439596011
 30
0.0
 11
-10.76977373107977
 21
-510.4875820762191
 31
0.0
  0
ARC
  5
17FDC
  8
01
 10
-9.7698429290701156
 20
-633.95320620971154
 30
0.0
 40
1.0
 50
180.00793145250961
 51
270.00309286830202
  0
ARC
  5
17FDD
  8
01
 10
-9.7697737311216102
 20
-503.95310439596011
 30
0.0
 40
1.0
 50
89.996907136387904
 51
180.0
  0
LINE
  5
17FDE
  8
01
 10
-2.7697737311225188
 20
-630.67586549507325
 30
0.0
 11
-0.7709840819586376
 21
-628.60484713387507
 31
0.0
  0
LINE
  5
17FDF
  8
01
 10
-2.7697737311225188
 20
-628.67464640647586
 30
0.0
 11
-2.7697737311225188
 21
-630.67586549507325
 31
0.0
  0
LINE
  5
17FE0
  8
01
 10
-7.7697737311325241
 20
-628.84925025393477
 30
0.0
 11
18.719760199661561
 21
-627.92421534559435
 31
0.0
  0
LINE
  5
17FE1
  8
01
 10
7.2302262688774803
 20
-630.62684066344593
 30
0.0
 11
9.2290159180413571
 21
-628.2556394389577
 31
0.0
  0
LINE
  5
17FE2
  8
01
 10
7.2302262688774803
 20
-630.62684066344593
 30
0.0
 11
7.2302262688783889
 21
-628.3254387115586
 31
0.0
  0
LINE
  5
17FE3
  8
01
 10
-7.7697737311334327
 20
-634.95309824596154
 30
0.0
 11
-7.7697737311316137
 21
-502.95321235580877
 31
0.0
  0
LINE
  5
17FE4
  8
01
 10
18.719760199661561
 20
-627.92421534559435
 30
0.0
 11
18.7197601996643
 21
-509.98209525617688
 31
0.0
  0
LINE
  5
17FE5
  8
01
 10
-7.7697737311325241
 20
-634.95309824596154
 30
0.0
 11
-9.7697889483349414
 21
-634.95320620825453
 31
0.0
  0
LINE
  5
17FE6
  8
01
 10
-9.7842927900335113
 20
-634.9531018050202
 30
0.0
 11
-7.7697737311334327
 21
-634.95309824596154
 31
0.0
  0
LINE
  5
17FE7
  8
01
 10
-7.7697737311325241
 20
-502.95321235580877
 30
0.0
 11
-9.7697197504682904
 21
-502.95310439741718
 31
0.0
  0
LINE
  5
17FE8
  8
01
 10
-9.7813464530561092
 20
-502.95317136214868
 30
0.0
 11
-7.7697737311334327
 21
-502.95321235580877
 31
0.0
  0
LINE
  5
17FE9
  8
01
 10
-2.7697737311225188
 20
-507.23044510669718
 30
0.0
 11
-0.7709840819586376
 21
-509.30146346789581
 31
0.0
  0
LINE
  5
17FEA
  8
01
 10
-2.7697737311225188
 20
-509.2316641952948
 30
0.0
 11
-2.7697737311225188
 21
-507.23044510669718
 31
0.0
  0
LINE
  5
17FEB
  8
01
 10
-7.7672113428832068
 20
-509.05714959305362
 30
0.0
 11
18.719760199665199
 21
-509.98209525617688
 31
0.0
  0
LINE
  5
17FEC
  8
01
 10
7.2302262688774803
 20
-507.27946993832501
 30
0.0
 11
9.2290159180413571
 21
-509.65067116281318
 31
0.0
  0
LINE
  5
17FED
  8
01
 10
7.2302262688774803
 20
-507.27946993832501
 30
0.0
 11
7.2302262688783889
 21
-509.58087189021222
 31
0.0
  0
LINE
  5
17FEE
  8
1CENTER
 10
-13.46698298650583
 20
-561.95310690763802
 30
0.0
 11
-5.0714721301344312
 21
-561.95310690763802
 31
0.0
  0
ARC
  5
17FEF
  8
1PHANTOM
 10
-287.25492816008187
 20
-515.48758207621131
 30
0.0
 40
5.0
 50
90.0
 51
180.0
  0
LINE
  5
17FF0
  8
1PHANTOM
 10
-172.34494733580109
 20
-627.4184154319388
 30
0.0
 11
-287.25492816008187
 21
-627.41841543193925
 31
0.0
  0
ARC
  5
17FF1
  8
1PHANTOM
 10
-287.25492816008187
 20
-622.41841543193925
 30
0.0
 40
5.0
 50
180.0
 51
270.0
  0
LINE
  5
17FF2
  8
1PHANTOM
 10
-292.25492816008187
 20
-515.48758207621131
 30
0.0
 11
-292.25492816008187
 21
-557.45310690763802
 31
0.0
  0
LINE
  5
17FF3
  8
1PHANTOM
 10
-292.25492816008187
 20
-566.4531069076379
 30
0.0
 11
-292.25492816008187
 21
-622.41841543193925
 31
0.0
  0
LINE
  5
17FF4
  8
1PHANTOM
 10
-287.2556260434564
 20
-510.48758207621142
 30
0.0
 11
-172.34564521829961
 21
-510.48758207621142
 31
0.0
  0
ARC
  5
17FF5
  8
1PHANTOM
 10
-172.34564521829961
 20
-515.48758207621131
 30
0.0
 40
5.0
 50
0.0
 51
90.0
  0
LINE
  5
17FF6
  8
01
 10
-167.34564521829961
 20
-515.48758207621131
 30
0.0
 11
-167.34564521829981
 21
-557.45310690763756
 31
0.0
  0
LINE
  5
17FF7
  8
1PHANTOM
 10
-167.34564521829981
 20
-566.45310690763802
 30
0.0
 11
-167.34564521829961
 21
-622.41841543193925
 31
0.0
  0
ARC
  5
17FF8
  8
1PHANTOM
 10
-172.34564521829961
 20
-622.41841543193925
 30
0.0
 40
5.0
 50
270.0
 51
0.0
  0
LINE
  5
17FF9
  8
01
 10
-172.3152348938271
 20
-515.77801204282162
 30
0.0
 11
-287.26343502306611
 21
-515.77801204282162
 31
0.0
  0
LINE
  5
17FFA
  8
01
 10
-291.24161748832341
 20
-519.81510355036164
 30
0.0
 11
-291.24161748832319
 21
-557.45310690763802
 31
0.0
  0
LINE
  5
17FFB
  8
01
 10
-291.24161748832267
 20
-566.4531069076379
 30
0.0
 11
-291.2416174883225
 21
-618.15966843084846
 31
0.0
  0
LINE
  5
17FFC
  8
01
 10
-168.33705242856979
 20
-519.81510362651625
 30
0.0
 11
-168.3370524285709
 21
-557.45310690763756
 31
0.0
  0
LINE
  5
17FFD
  8
01
 10
-168.3370524285709
 20
-566.45310690763768
 30
0.0
 11
-168.33705242857249
 21
-618.15966843079389
 31
0.0
  0
LINE
  5
17FFE
  8
01
 10
-172.31523489382531
 20
-622.12846004968117
 30
0.0
 11
-287.26343502306793
 21
-622.12846004968117
 31
0.0
  0
ARC
  5
17FFF
  8
01
 10
-172.3399244859944
 20
-519.78095363026705
 30
0.0
 40
4.0030177277226731
 50
359.51120016869658
 51
40.594252769394828
  0
ARC
  5
18000
  8
01
 10
-172.3399244859944
 20
-519.78095363026705
 30
0.0
 40
4.0030177277226731
 50
60.317162166376541
 51
89.646612007638126
  0
ARC
  5
18001
  8
01
 10
-172.33992448599159
 20
-618.12551846224062
 30
0.0
 40
4.0030177277174968
 50
270.35338799230982
 51
0.4887994351992404
  0
ARC
  5
18002
  8
01
 10
-287.23874543091239
 20
-618.12551846224972
 30
0.0
 40
4.0030177277086274
 50
179.5112005646443
 51
269.6466120078465
  0
ARC
  5
18003
  8
01
 10
-287.23874543212207
 20
-519.78095362906345
 30
0.0
 40
4.0030177265118638
 50
90.35338797495676
 51
119.6828378380029
  0
ARC
  5
18004
  8
01
 10
-287.23874543212207
 20
-519.78095362906345
 30
0.0
 40
4.0030177265118638
 50
139.88994221080389
 51
180.48879875867991
  0
LINE
  5
18005
  8
1PHANTOM
 10
-168.81011131236721
 20
-511.95204817027849
 30
0.0
 11
-170.3899666595203
 21
-516.29728975540547
 31
0.0
  0
LINE
  5
18006
  8
1PHANTOM
 10
-290.7904620660143
 20
-625.95394933787156
 30
0.0
 11
-289.21060671886119
 21
-621.60870775274464
 31
0.0
  0
LINE
  5
18007
  8
1PHANTOM
 10
-168.81011131236721
 20
-625.95394933787156
 30
0.0
 11
-170.3899666595203
 21
-621.60870775274464
 31
0.0
  0
LINE
  5
18008
  8
01
 10
-161.48933537441971
 20
-572.15305851439098
 30
0.0
 11
-142.089334916334
 21
-572.15305851439155
 31
0.0
  0
ARC
  5
18009
  8
01
 10
-161.48933537441971
 20
-571.65305851439098
 30
0.0
 40
0.5
 50
179.99999868103851
 51
270.0
  0
LINE
  5
1800A
  8
1PHANTOM
 10
-168.33705242857249
 20
-576.95320450022621
 30
0.0
 11
-291.24161748832432
 21
-576.95320450022621
 31
0.0
  0
LINE
  5
1800B
  8
01
 10
-297.60608238459253
 20
-552.25325943070675
 30
0.0
 11
-297.60608193801153
 21
-571.65305850288087
 31
0.0
  0
LINE
  5
1800C
  8
01
 10
-318.00608239609721
 20
-571.65305851439155
 30
0.0
 11
-318.00608239609988
 21
-552.25325944221549
 31
0.0
  0
ARC
  5
1800D
  8
01
 10
-317.50608239609721
 20
-571.65305851439155
 30
0.0
 40
0.5
 50
180.0
 51
270.0
  0
LINE
  5
1800E
  8
01
 10
-298.10608193801153
 20
-572.15305851439098
 30
0.0
 11
-317.50608239609721
 21
-572.15305851439155
 31
0.0
  0
ARC
  5
1800F
  8
01
 10
-298.10608193801153
 20
-571.65305851439098
 30
0.0
 40
0.5
 50
270.0
 51
0.000001318909362
  0
LINE
  5
18010
  8
1PHANTOM
 10
-168.33705242857249
 20
-531.78533489361928
 30
0.0
 11
-291.24161748832518
 21
-531.78533489362019
 31
0.0
  0
CIRCLE
  5
18011
  8
1PHANTOM
 10
-42.268654901017491
 20
-575.70311236713178
 30
0.0
 40
18.5
  0
CIRCLE
  5
18012
  8
1PHANTOM
 10
-42.268654901017491
 20
-575.70311236713178
 30
0.0
 40
57.5
  0
LINE
  5
18013
  8
1CENTER
 10
-13.468075332106061
 20
-561.95311223536555
 30
0.0
 11
-5.0725644757346577
 21
-561.95311223536555
 31
0.0
  0
LINE
  5
18014
  8
01
 10
-51.269773731122541
 20
-552.45311223536555
 30
0.0
 11
-51.269773731122541
 21
-571.45311223536567
 31
0.0
  0
LINE
  5
18015
  8
01
 10
-50.769773731122527
 20
-571.95311223536555
 30
0.0
 11
-10.76980817546448
 21
-571.95311223536567
 31
0.0
  0
ARC
  5
18016
  8
01
 10
-50.769773731122527
 20
-571.45311223536567
 30
0.0
 40
0.5
 50
180.0
 51
270.0
  0
LINE
  5
18017
  8
01
 10
-50.769773731122527
 20
-551.95311223536555
 30
0.0
 11
-10.76979696775672
 21
-551.95311223536555
 31
0.0
  0
ARC
  5
18018
  8
01
 10
-50.769773731122527
 20
-552.45311223536555
 30
0.0
 40
0.5
 50
90.0
 51
180.0
  0
LINE
  5
18019
  8
1CENTER
 10
-14.76977373112252
 20
-561.95311223536555
 30
0.0
 11
-7.7697737311225188
 21
-561.95311223536555
 31
0.0
  0
CIRCLE
  5
1801A
  8
01
 10
-42.269773731123443
 20
-561.95311223536555
 30
0.0
 40
4.5
  0
LINE
  5
1801C
  8
1CENTER
 10
-13.468075332106061
 20
-561.95310690763802
 30
0.0
 11
-5.0725644757346577
 21
-561.95310690763802
 31
0.0
  0
LINE
  5
1801D
  8
1PHANTOM
 10
-12.61549549559161
 20
-558.45316409899135
 30
0.0
 11
-11.61657969753262
 21
-558.45316409899135
 31
0.0
  0
LINE
  5
1801E
  8
1PHANTOM
 10
-12.61549549559161
 20
-565.45304971628468
 30
0.0
 11
-11.61657969753262
 21
-565.45304971628468
 31
0.0
  0
LINE
  5
1801F
  8
1PHANTOM
 10
-11.61657969753262
 20
-565.45304971628468
 30
0.0
 11
-11.61657969753262
 21
-558.45316409899135
 31
0.0
  0
LINE
  5
18020
  8
01
 10
-290.30028668918987
 20
-526.8032123558088
 30
0.0
 11
-290.30028668918987
 21
-516.3032123558088
 31
0.0
  0
LINE
  5
18021
  8
01
 10
-290.30028668918987
 20
-526.80321235580834
 30
0.0
 11
-169.3002866891899
 21
-526.80321235580925
 31
0.0
  0
LINE
  5
18022
  8
01
 10
-290.30028668918987
 20
-516.3032123558088
 30
0.0
 11
-169.3002866891899
 21
-516.3032123558088
 31
0.0
  0
LINE
  5
18023
  8
01
 10
-169.3002866891899
 20
-526.8032123558088
 30
0.0
 11
-169.3002866891899
 21
-516.3032123558088
 31
0.0
  0
LINE
  5
18024
  8
01
 10
-161.98933504753839
 20
-557.45310690763756
 30
0.0
 11
-297.60608226489251
 21
-557.45310690763802
 31
0.0
  0
LINE
  5
18025
  8
01
 10
-161.9893352547173
 20
-566.4531069076379
 30
0.0
 11
-297.60608205771371
 21
-566.4531069076379
 31
0.0
  0
LINE
  5
18026
  8
01
 10
-295.30037606815569
 20
-428.19598586902868
 30
0.0
 11
-320.3003760681558
 21
-428.19598586902862
 31
0.0
  0
LINE
  5
18027
  8
01
 10
-295.30037606815569
 20
-419.19598586902868
 30
0.0
 11
-320.3003760681558
 21
-419.19598586902868
 31
0.0
  0
LINE
  5
18028
  8
01
 10
-295.30037606815569
 20
-410.19598586902868
 30
0.0
 11
-320.3003760681558
 21
-410.19598586902868
 31
0.0
  0
LINE
  5
18029
  8
01
 10
-295.30037606815569
 20
-428.19598586902868
 30
0.0
 11
-295.30037606815569
 21
-410.19598586902868
 31
0.0
  0
LINE
  5
1802A
  8
01
 10
-164.3002866891901
 20
-428.19342639075768
 30
0.0
 11
-139.3002866891901
 21
-428.19342639075779
 31
0.0
  0
LINE
  5
1802B
  8
01
 10
-164.3002866891901
 20
-419.19342639075768
 30
0.0
 11
-139.3002866891901
 21
-419.19342639075779
 31
0.0
  0
LINE
  5
1802C
  8
01
 10
-164.3002866891901
 20
-410.19342639075779
 30
0.0
 11
-139.3002866891901
 21
-410.19342639075779
 31
0.0
  0
LINE
  5
1802D
  8
01
 10
-164.3002866891901
 20
-428.19342639075768
 30
0.0
 11
-164.3002866891901
 21
-410.19342639075779
 31
0.0
  0
LINE
  5
1802E
  8
01
 10
-141.80039256721
 20
-431.19342928696398
 30
0.0
 11
-141.80039256721091
 21
-471.19354609948442
 31
0.0
  0
ARC
  5
1802F
  8
01
 10
-142.30039256721091
 20
-471.19354609948442
 30
0.0
 40
0.5
 50
270.0
 51
0.0
  0
LINE
  5
18030
  8
01
 10
-161.81709117167691
 20
-431.19342928696358
 30
0.0
 11
-161.81709117167691
 21
-471.19354609948442
 31
0.0
  0
ARC
  5
18031
  8
01
 10
-161.31709117167691
 20
-471.19354609948442
 30
0.0
 40
0.5
 50
180.0
 51
270.0
  0
LINE
  5
18032
  8
01
 10
-142.30039256721091
 20
-471.69354609948448
 30
0.0
 11
-161.31709117167691
 21
-471.69354609948448
 31
0.0
  0
LINE
  5
18033
  8
01
 10
-317.80018081117021
 20
-431.19342928696398
 30
0.0
 11
-317.8001808111693
 21
-471.19354609948442
 31
0.0
  0
ARC
  5
18034
  8
01
 10
-317.3001808111693
 20
-471.19354609948442
 30
0.0
 40
0.5
 50
180.0
 51
270.0
  0
LINE
  5
18035
  8
01
 10
-297.8001808111693
 20
-431.19342928696358
 30
0.0
 11
-297.8001808111693
 21
-471.19354609948442
 31
0.0
  0
ARC
  5
18036
  8
01
 10
-298.3001808111693
 20
-471.19354609948442
 30
0.0
 40
0.5
 50
270.0
 51
0.0
  0
LINE
  5
18037
  8
01
 10
-317.3001808111693
 20
-471.69354609948448
 30
0.0
 11
-298.3001808111693
 21
-471.69354609948448
 31
0.0
  0
LINE
  5
18038
  8
01
 10
-161.81709117167671
 20
-458.19333650997743
 30
0.0
 11
-169.311264943362
 21
-458.19333650997743
 31
0.0
  0
LINE
  5
18039
  8
01
 10
-290.28930843501843
 20
-458.19333650997783
 30
0.0
 11
-297.8001808111693
 21
-458.19333650997788
 31
0.0
  0
LINE
  5
1803A
  8
01
 10
-161.81709117167691
 20
-467.19333650997788
 30
0.0
 11
-169.311264943362
 21
-467.19333650997788
 31
0.0
  0
LINE
  5
1803B
  8
01
 10
-290.2893084350186
 20
-467.19333650997783
 30
0.0
 11
-297.8001808111693
 21
-467.19333650997783
 31
0.0
  0
LINE
  5
1803C
  8
01
 10
-7.7676748505016127
 20
-508.45301523165068
 30
0.0
 11
-7.7676748505016127
 21
-483.45301523165062
 31
0.0
  0
LINE
  5
1803D
  8
01
 10
1.232325149498386
 20
-508.45301523165068
 30
0.0
 11
1.232325149498386
 21
-483.45301523165062
 31
0.0
  0
LINE
  5
1803E
  8
01
 10
10.232325149498269
 20
-508.45301523165068
 30
0.0
 11
10.23232514949836
 21
-483.45301523165062
 31
0.0
  0
LINE
  5
1803F
  8
01
 10
-7.7676748505016127
 20
-508.45301523165068
 30
0.0
 11
10.232325149498269
 21
-508.45301523165068
 31
0.0
  0
LINE
  5
18040
  8
01
 10
-7.7676748504997937
 20
-629.45301523165074
 30
0.0
 11
-7.767674850499894
 21
-654.45301523165074
 31
0.0
  0
LINE
  5
18041
  8
01
 10
1.232325149500205
 20
-629.45301523165074
 30
0.0
 11
1.2323251495001979
 21
-654.45301523165074
 31
0.0
  0
LINE
  5
18042
  8
01
 10
10.2323251495002
 20
-629.45301523165074
 30
0.0
 11
10.2323251495002
 21
-654.45301523165074
 31
0.0
  0
LINE
  5
18043
  8
01
 10
-7.7676748504997937
 20
-629.45301523165074
 30
0.0
 11
10.2323251495002
 21
-629.45301523165074
 31
0.0
  0
LINE
  5
18045
  8
01
 10
-166.4279567781258
 20
-413.19342928696221
 30
0.0
 11
-165.82874908321071
 21
-413.19342928696221
 31
0.0
  0
LINE
  5
18046
  8
01
 10
-166.07874908320639
 20
-423.19342928696273
 30
0.0
 11
-165.82874908320611
 21
-423.19342928696273
 31
0.0
  0
ARC
  5
18047
  8
01
 10
-182.1204157498849
 20
-418.19342928696989
 30
0.0
 40
17.041666666676122
 50
342.93846878015808
 51
17.06153121989739
  0
LINE
  5
18048
  8
01
 10
-169.311264943362
 20
-472.95341873053241
 30
0.0
 11
-169.31126494336161
 21
-431.1934292869625
 31
0.0
  0
LINE
  5
1804A
  8
01
 10
-293.17261660025991
 20
-413.19342928696221
 30
0.0
 11
-293.77182429517859
 21
-413.19342928696221
 31
0.0
  0
LINE
  5
1804B
  8
01
 10
-293.52182429518308
 20
-423.19342928696273
 30
0.0
 11
-293.77182429518308
 21
-423.19342928696273
 31
0.0
  0
ARC
  5
1804C
  8
01
 10
-277.48015762850429
 20
-418.19342928696989
 30
0.0
 40
17.041666666676129
 50
162.9384687801026
 51
197.06153121984181
  0
LINE
  5
1804D
  8
01
 10
-290.2893084350186
 20
-472.9534004903046
 30
0.0
 11
-290.289308435019
 21
-431.19342928696369
 31
0.0
  0
LINE
  5
1804E
  8
01
 10
-10.76977373107977
 20
-510.4875820762191
 30
0.0
 11
-10.769842919488591
 21
-633.95334463967185
 31
0.0
  0
LINE
  5
1804F
  8
01
 10
-177.80028668919169
 20
-512.25085170907334
 30
0.0
 11
-181.80028668918979
 21
-512.25085170907334
 31
0.0
  0
LINE
  5
18050
  8
01
 10
-178.80028668918891
 20
-515.45358922267098
 30
0.0
 11
-180.8002866891926
 21
-515.45358922267098
 31
0.0
  0
LINE
  5
18051
  8
01
 10
-178.80028668919169
 20
-513.25085170907334
 30
0.0
 11
-178.80028668919081
 21
-516.3032123558088
 31
0.0
  0
LINE
  5
18052
  8
01
 10
-180.80028668919081
 20
-513.25085170907334
 30
0.0
 11
-180.80028668919169
 21
-516.30321235580834
 31
0.0
  0
ARC
  5
18053
  8
01
 10
-181.80028668918979
 20
-513.25085170907334
 30
0.0
 40
1.0
 50
359.99999999994787
 51
90.0
  0
ARC
  5
18054
  8
01
 10
-177.80028668919169
 20
-513.25085170907334
 30
0.0
 40
0.9999999999999998
 50
90.0
 51
180.0
  0
LINE
  5
18055
  8
01
 10
-281.81377012308678
 20
-512.20415396045939
 30
0.0
 11
-277.81377173559912
 21
-512.20774562859015
 31
0.0
  0
LINE
  5
18056
  8
01
 10
-280.81664631878141
 20
-515.40778809997812
 30
0.0
 11
-278.816647125033
 21
-515.40958393404298
 31
0.0
  0
LINE
  5
18057
  8
01
 10
-280.81466844324638
 20
-513.20505147436472
 30
0.0
 11
-280.81745033579563
 21
-516.3032123558088
 31
0.0
  0
LINE
  5
18058
  8
01
 10
-278.81466924950257
 20
-513.2068473084297
 30
0.0
 11
-278.81744952953761
 21
-516.3032123558088
 31
0.0
  0
ARC
  5
18059
  8
01
 10
-277.81466965263161
 20
-513.20774522546265
 30
0.0
 40
1.0
 50
89.948553136772247
 51
179.9485531367722
  0
ARC
  5
1805A
  8
01
 10
-281.81466804011927
 20
-513.20415355733178
 30
0.0
 40
0.9999999999999998
 50
359.94855313672008
 51
89.948553136772247
  0
LINE
  5
1805B
  8
1CENTER
 10
-307.7892025569987
 20
-564.95316409899135
 30
0.0
 11
-307.7892025569987
 21
-558.95316409899135
 31
0.0
  0
LINE
  5
1805C
  8
1CENTER
 10
-310.7892025569987
 20
-561.95316409899135
 30
0.0
 11
-304.7892025569987
 21
-561.95316409899135
 31
0.0
  0
LINE
  5
1805D
  8
1CENTER
 10
-151.7892025569987
 20
-564.95316409899135
 30
0.0
 11
-151.7892025569987
 21
-558.95316409899135
 31
0.0
  0
LINE
  5
1805E
  8
1CENTER
 10
-154.7892025569987
 20
-561.95316409899135
 30
0.0
 11
-148.7892025569987
 21
-561.95316409899135
 31
0.0
  0
LINE
  5
18062
  8
01
 10
-66.619773731127452
 20
-521.30321235580971
 30
0.0
 11
-65.419773731128544
 21
-521.30321235580971
 31
0.0
  0
LINE
  5
18063
  8
01
 10
-10.769776990073961
 20
-516.3032123558088
 30
0.0
 11
-66.619773731127452
 21
-516.3032123558088
 31
0.0
  0
LINE
  5
18064
  8
01
 10
-66.619773731127452
 20
-516.3032123558088
 30
0.0
 11
-66.619773731125633
 21
-521.30321235580971
 31
0.0
  0
LINE
  5
18065
  8
01
 10
-65.419773731128544
 20
-521.30321235580971
 30
0.0
 11
-65.419773731127634
 21
-517.5032123558077
 31
0.0
  0
LINE
  5
18066
  8
01
 10
-10.76977766253615
 20
-517.50321235580827
 30
0.0
 11
-65.419773731127634
 21
-517.5032123558077
 31
0.0
  0
LINE
  5
18067
  8
01
 10
-290.2893084350186
 20
-472.9534004903046
 30
0.0
 11
-169.311264943362
 21
-472.95341873053241
 31
0.0
  0
TEXT
  5
1808C
  8
1TEXT
 10
-125.4783793662773
 20
-630.64433910138087
 30
0.0
 40
8.0
  1
SC35R
  0
LINE
  5
18330
  8
01
 10
-26.770879314056781
 20
-566.3031694267188
 30
0.0
 11
-26.770879314056781
 21
-571.953169426719
 31
0.0
  0
LINE
  5
18331
  8
01
 10
-26.770879314056781
 20
-566.3031694267188
 30
0.0
 11
-27.120879314057142
 21
-565.95316942671889
 31
0.0
  0
LINE
  5
18332
  8
01
 10
-24.020879314056781
 20
-571.953169426719
 30
0.0
 11
-33.520879314056792
 21
-571.953169426719
 31
0.0
  0
LINE
  5
18333
  8
01
 10
-27.120879314057142
 20
-565.95316942671889
 30
0.0
 11
-30.42087931405641
 21
-565.95316942671889
 31
0.0
  0
LINE
  5
18334
  8
01
 10
-24.020879314056781
 20
-571.953169426719
 30
0.0
 11
-24.020879314056781
 21
-572.953169426719
 31
0.0
  0
LINE
  5
18335
  8
01
 10
-30.42087931405641
 20
-565.95316942671889
 30
0.0
 11
-30.770879314056781
 21
-566.3031694267188
 31
0.0
  0
ARC
  5
18336
  8
01
 10
-28.770879314056781
 20
-566.18233609338552
 30
0.0
 40
8.2708333333334387
 50
234.94886325253091
 51
305.05113674746912
  0
LINE
  5
18337
  8
01
 10
-30.770879314057691
 20
-566.3031694267188
 30
0.0
 11
-30.770879314056781
 21
-571.953169426719
 31
0.0
  0
LINE
  5
18338
  8
01
 10
-33.520879314056792
 20
-571.953169426719
 30
0.0
 11
-33.520879314056792
 21
-572.953169426719
 31
0.0
  0
LINE
  5
1833A
  8
1HATCH
 10
-30.42087931405824
 20
-565.95316942671889
 30
0.0
 11
-30.42087931405641
 21
-571.953169426719
 31
0.0
  0
LINE
  5
1833B
  8
1HATCH
 10
-27.120879314056229
 20
-565.95316942671946
 30
0.0
 11
-27.120879314057142
 21
-571.953169426719
 31
0.0
  0
LINE
  5
1833D
  8
1HATCH
 10
-26.770879314056781
 20
-566.3031694267188
 30
0.0
 11
-30.770879314056781
 21
-566.3031694267188
 31
0.0
  0
LINE
  5
1833F
  8
01
 10
-24.237816134390791
 20
-572.953169426719
 30
0.0
 11
-33.276247098863159
 21
-572.953169426719
 31
0.0
  0
ARC
  5
18346
  8
1PHANTOM
 10
-12.74501884083057
 20
-569.11366768534492
 30
0.0
 40
1.0
 50
272.00000000000369
 51
357.99999999994412
  0
LINE
  5
18381
  8
1PHANTOM
 10
-9.7708660767245661
 20
-564.20321235581798
 30
0.0
 11
-11.57293441516479
 21
-564.20321235581844
 31
0.0
  0
LINE
  5
18382
  8
1PHANTOM
 10
-11.415790952448081
 20
-559.70321235580843
 30
0.0
 11
-9.7708660767245661
 21
-559.70321235580877
 31
0.0
  0
LINE
  5
18383
  8
1PHANTOM
 10
-26.270874843346729
 20
-570.58655333792865
 30
0.0
 11
-26.270874843346729
 21
-571.95746941624304
 31
0.0
  0
LINE
  5
18384
  8
1PHANTOM
 10
-31.270883785032972
 20
-571.95544717099312
 30
0.0
 11
-31.270883785031891
 21
-570.76115749763812
 31
0.0
  0
LINE
  5
18385
  8
1PHANTOM
 10
-9.7708660767263851
 20
-564.20321235581798
 30
0.0
 11
-9.7708660767245661
 21
-555.55310690764384
 31
0.0
  0
LINE
  5
18386
  8
1PHANTOM
 10
-36.770762501676238
 20
-570.9532174945349
 30
0.0
 11
-12.710119344261081
 21
-570.11300132101053
 31
0.0
  0
LINE
  5
18387
  8
1PHANTOM
 10
-34.770762501678057
 20
-566.95321749453535
 30
0.0
 11
-13.60034426032937
 21
-566.95321749453444
 31
0.0
  0
LINE
  5
18388
  8
1PHANTOM
 10
-36.770762501677147
 20
-571.95311223536555
 30
0.0
 11
-36.770762501678057
 21
-568.95321749453535
 31
0.0
  0
ARC
  5
18389
  8
1PHANTOM
 10
-34.770762501678057
 20
-568.95321749453535
 30
0.0
 40
2.0
 50
90.0
 51
180.0
  0
LINE
  5
1838A
  8
1PHANTOM
 10
-9.7708660767254756
 20
-564.20321235581798
 30
0.0
 11
-9.7708660767254756
 21
-571.95311223536555
 31
0.0
  0
LINE
  5
1838B
  8
1PHANTOM
 10
-11.27086607672274
 20
-555.55310690764384
 30
0.0
 11
-9.7708660767245661
 21
-555.55310690764384
 31
0.0
  0
LINE
  5
1838C
  8
1PHANTOM
 10
-11.745628013945611
 20
-569.14850999069415
 30
0.0
 11
-11.27086607672274
 21
-555.55310690764384
 31
0.0
  0
ARC
  5
1838D
  8
1PHANTOM
 10
-13.60034426032937
 20
-564.95321749453444
 30
0.0
 40
2.0
 50
270.0
 51
357.99999999994412
  0
LINE
  5
1838E
  8
1PHANTOM
 10
-9.7708660767254756
 20
-571.95311223536555
 30
0.0
 11
-36.770762501677147
 21
-571.95311223536555
 31
0.0
  0
LINE
  5
183BB
  8
1CENTER
 10
-28.770879314056781
 20
-575.46042879145443
 30
0.0
 11
-28.770879314056781
 21
-565.39428700798362
 31
0.0
  0
LINE
  5
18C61
  8
1PHANTOM
 10
-33.919020720359747
 20
-404.27190581314659
 30
0.0
 11
27.58097927963934
 21
-404.27190581314642
 31
0.0
  0
ARC
  5
18C62
  8
1PHANTOM
 10
27.58097927963934
 20
-407.27190581314642
 30
0.0
 40
3.0
 50
0.0
 51
90.0
  0
LINE
  5
18C63
  8
1PHANTOM
 10
30.58097927963934
 20
-407.27190581314642
 30
0.0
 11
30.58097927963934
 21
-461.77190581314659
 31
0.0
  0
ARC
  5
18C64
  8
1PHANTOM
 10
27.580979279639791
 20
-461.77190581314659
 30
0.0
 40
3.0
 50
270.0
 51
0.0
  0
LINE
  5
18C65
  8
1PHANTOM
 10
27.580979279639791
 20
-464.77190581314659
 30
0.0
 11
-33.919020720360201
 21
-464.77190581314659
 31
0.0
  0
ARC
  5
18C66
  8
1PHANTOM
 10
-33.919020720360201
 20
-461.77190581314659
 30
0.0
 40
3.0
 50
180.0
 51
270.0
  0
LINE
  5
18C67
  8
1PHANTOM
 10
-36.919020720360201
 20
-461.77190581314659
 30
0.0
 11
-36.91902072035974
 21
-407.27190581314659
 31
0.0
  0
ARC
  5
18C68
  8
1PHANTOM
 10
-33.91902072035974
 20
-407.27190581314659
 30
0.0
 40
3.0
 50
90.0
 51
180.0
  0
TEXT
  5
18C6C
  8
1TEXT
 10
-21.356243549558709
 20
-435.3636165335692
 30
0.0
 40
4.0
  1
切欠図(S=1:2)
  0
TEXT
  5
18DB1
  8
1TEXT
 10
-87.798379366277231
 20
-641.14433910138098
 30
0.0
 40
4.0
  1
表面処理：カバー
 41
0.8
 72
     1
 11
-73.078379366277233
 21
-641.14433910138098
 31
0.0
  0
LINE
  5
18DB3
  8
1DIM
 10
-125.4783793662772
 20
-635.64433910138098
 30
0.0
 11
-20.478379366277331
 21
-635.64433910138098
 31
0.0
  0
LINE
  5
18DB4
  8
1DIM
 10
-125.478379366277
 20
-649.64433910138087
 30
0.0
 11
-20.478379366277331
 21
-649.64433910138087
 31
0.0
  0
LINE
  5
18DB5
  8
1DIM
 10
-125.4783793662771
 20
-642.64433910138087
 30
0.0
 11
-20.478379366277331
 21
-642.64433910138087
 31
0.0
  0
LINE
  5
18DB6
  8
1DIM
 10
-55.478379366277331
 20
-635.64433910138098
 30
0.0
 11
-55.478379366277089
 21
-649.64433910138087
 31
0.0
  0
TEXT
  5
18DB8
  8
1TEXT
 10
-44.878379366277223
 20
-641.14433910138098
 30
0.0
 40
4.0
  1
コード
 72
     1
 11
-38.078379366277233
 21
-641.14433910138098
 31
0.0
  0
LINE
  5
18DB9
  8
1DIM
 10
-90.478379366277039
 20
-649.64433910138087
 30
0.0
 11
-90.478379366277323
 21
-635.64433910138098
 31
0.0
  0
LINE
  5
18DBA
  8
1DIM
 10
-20.478379366277011
 20
-649.64433910138087
 30
0.0
 11
-20.478379366277331
 21
-635.64433910138098
 31
0.0
  0
TEXT
  5
18DBC
  8
1TEXT
 10
-121.0917126996105
 20
-641.14433910138098
 30
0.0
 40
4.0
  1
表面処理：本体
 41
0.8
 72
     1
 11
-108.0783793662772
 21
-641.14433910138098
 31
0.0
  0
TEXT
  5
18DBD
  8
1TEXT
 10
-124.4783793662772
 20
-648.12223412136518
 30
0.0
 40
4.0
  1
クロームメッキ
 72
     1
 11
-108.0783793662772
 21
-648.12223412136518
 31
0.0
  0
LINE
  5
18DBE
  8
1DIM
 10
-125.478379366277
 20
-649.64433910138087
 30
0.0
 11
-125.4783793662773
 21
-635.64433910138098
 31
0.0
  0
TEXT
  5
18DBF
  8
1TEXT
 10
-84.545046032943773
 20
-648.12223412136518
 30
0.0
 40
4.0
  1
ヘアライン
 72
     1
 11
-73.078379366277119
 21
-648.12223412136518
 31
0.0
  0
TEXT
  5
18DC3
  8
1TEXT
 10
-51.411712699609879
 20
-648.35869608503037
 30
0.0
 40
4.0
  1
SC35RCT
 72
     1
 11
-38.07837936627655
 21
-648.35869608503037
 31
0.0
  0
ARC
  5
18E4E
  8
01
 10
-42.269773731123429
 20
-561.95311223536555
 30
0.0
 40
7.5
 50
0.0
 51
180.0
  0
LINE
  5
18E4F
  8
01
 10
-49.769773731123443
 20
-561.95311223536555
 30
0.0
 11
-49.769773731123443
 21
-571.95311223536555
 31
0.0
  0
LINE
  5
18E50
  8
01
 10
-34.769773731123443
 20
-561.95311223536748
 30
0.0
 11
-34.769773731123443
 21
-571.95403250331765
 31
0.0
  0
LINE
  5
18ED5
  8
01
 10
-141.08090000726281
 20
-557.4531640989909
 30
0.0
 11
-141.58933491633309
 21
-557.4531640989909
 31
0.0
  0
LINE
  5
18ED6
  8
01
 10
-141.0809000072619
 20
-566.45316409899135
 30
0.0
 11
-141.58933491633221
 21
-566.4531640989909
 31
0.0
  0
LINE
  5
18ED7
  8
01
 10
-139.5809000072619
 20
-558.95316409899135
 30
0.0
 11
-139.5809000072619
 21
-564.95316409899135
 31
0.0
  0
LINE
  5
18ED8
  8
01
 10
-141.08090000726281
 20
-557.4531640989909
 30
0.0
 11
-139.5809000072619
 21
-558.95316409899135
 31
0.0
  0
LINE
  5
18ED9
  8
01
 10
-139.5809000072619
 20
-564.95316409899135
 30
0.0
 11
-141.0809000072619
 21
-566.45316409899135
 31
0.0
  0
LINE
  5
18EDA
  8
01
 10
-141.08090000726281
 20
-557.4531640989909
 30
0.0
 11
-141.0809000072619
 21
-566.45316409899135
 31
0.0
  0
LINE
  5
18EDB
  8
01
 10
-139.78924713439369
 20
-558.74481697185956
 30
0.0
 11
-139.789345512983
 21
-503.97015700610888
 31
0.0
  0
LINE
  5
18EDE
  8
01
 10
-141.29195765814089
 20
-458.19333650997709
 30
0.0
 11
-141.80039256721111
 21
-458.19333650997709
 31
0.0
  0
LINE
  5
18EDF
  8
01
 10
-141.29195765813989
 20
-467.19333650997748
 30
0.0
 11
-141.8003925672102
 21
-467.19333650997697
 31
0.0
  0
LINE
  5
18EE0
  8
01
 10
-139.79195765814001
 20
-459.69333650997748
 30
0.0
 11
-139.79195765814001
 21
-465.69333650997748
 31
0.0
  0
LINE
  5
18EE1
  8
01
 10
-141.29195765814089
 20
-458.19333650997709
 30
0.0
 11
-139.79195765814001
 21
-459.69333650997748
 31
0.0
  0
LINE
  5
18EE2
  8
01
 10
-139.79195765814001
 20
-465.69333650997748
 30
0.0
 11
-141.29195765813989
 21
-467.19333650997748
 31
0.0
  0
LINE
  5
18EE3
  8
01
 10
-141.29195765814089
 20
-458.19333650997709
 30
0.0
 11
-141.29195765813989
 21
-467.19333650997748
 31
0.0
  0
LINE
  5
18F78
  8
1DIM
 10
-27.966084262349799
 20
-412.71558642813932
 30
0.0
 11
-34.656988049861923
 21
-406.59706937327161
 31
0.0
  0
LINE
  5
18F7B
  8
1DIM
 10
27.58097927963934
 20
-404.27190581314642
 30
0.0
 11
41.580979279639273
 21
-404.27190581314642
 31
0.0
  0
LINE
  5
18F7C
  8
1DIM
 10
27.580979279639791
 20
-464.77190581314659
 30
0.0
 11
41.580979279639251
 21
-464.77190581314659
 31
0.0
  0
LINE
  5
18F7D
  8
1DIM
 10
40.580979279639273
 20
-406.27190581314642
 30
0.0
 11
40.580979279639273
 21
-462.77190581314659
 31
0.0
  0
LINE
  5
18F81
  8
1DIM
 10
-36.91902072035974
 20
-407.27190581314659
 30
0.0
 11
-36.91902072035974
 21
-393.27190581314659
 31
0.0
  0
LINE
  5
18F82
  8
1DIM
 10
30.58097927963934
 20
-407.27190581314659
 30
0.0
 11
30.58097927963934
 21
-393.27190581314659
 31
0.0
  0
LINE
  5
18F83
  8
1DIM
 10
-34.91902072035974
 20
-394.27190581314647
 30
0.0
 11
28.58097927963934
 21
-394.27190581314647
 31
0.0
  0
LINE
  5
18F87
  8
1DIM
 10
-166.8296294581213
 20
-401.69102868584542
 30
0.0
 11
-118.7892287846817
 21
-401.69102868584548
 31
0.0
  0
LINE
  5
18F88
  8
1DIM
 10
-139.3002866891901
 20
-428.19342639075779
 30
0.0
 11
-118.7892287846817
 21
-428.19342639075791
 31
0.0
  0
LINE
  5
18F89
  8
1DIM
 10
-119.7892287846817
 20
-403.69102868584548
 30
0.0
 11
-119.7892287846817
 21
-426.19342639075779
 31
0.0
  0
TEXT
  5
18F8D
  8
1DIM
 10
-304.85152783000058
 20
-481.6819970531368
 30
0.0
 40
3.5
  1
材質：亜鉛ダイキャスト
  0
TEXT
  5
18F8E
  8
1DIM
 10
-292.71819449666731
 20
-487.51533038647011
 30
0.0
 40
3.5
  1
仕上げ：クローム
  0
SOLID
  5
18F8F
  8
1DIM
 10
-227.45795135290001
 20
-555.48924254256394
 30
0.0
 11
-226.95362222752249
 21
-557.45310690763768
 31
0.0
 12
-228.067619302363
 22
-555.75896357593354
 32
0.0
 13
-228.067619302363
 23
-555.75896357593354
 33
0.0
  0
TEXT
  5
18F91
  8
1DIM
 10
-173.94357244855621
 20
-481.26539247642143
 30
0.0
 40
3.5
  1
材質：ABS樹脂
  0
TEXT
  5
18F92
  8
1DIM
 10
-173.94357244855621
 20
-487.0987258097548
 30
0.0
 40
3.5
  1
仕上げ：クローム
  0
SOLID
  5
18F93
  8
1DIM
 10
-188.5217695231693
 20
-501.6791440064639
 30
0.0
 11
-190.0989056243632
 21
-502.95340961041848
 31
0.0
 12
-189.02029545424611
 22
-501.236519627912
 32
0.0
 13
-189.02029545424611
 23
-501.236519627912
 33
0.0
  0
TEXT
  5
18F95
  8
1DIM
 10
-94.162974817606766
 20
-498.5240569622801
 30
0.0
 40
3.5
  1
材質：ステンレス
  0
TEXT
  5
18F96
  8
1DIM
 10
-98.362974817606741
 20
-504.35739029561341
 30
0.0
 40
3.5
  1
仕上げ：ヘアライン
  0
SOLID
  5
18F97
  8
1DIM
 10
-46.608847202405947
 20
-514.79106853915255
 30
0.0
 11
-45.258094749563753
 21
-516.3032123558088
 31
0.0
 12
-47.026258577924636
 22
-515.31088791935304
 32
0.0
 13
-47.026258577924636
 23
-515.31088791935304
 33
0.0
  0
LINE
  5
18F99
  8
1DIM
 10
10.232325149498269
 20
-508.45301523165068
 30
0.0
 11
41.580979279639273
 21
-508.45301523165068
 31
0.0
  0
LINE
  5
18F9A
  8
1DIM
 10
20.345427239336431
 20
-561.95316409899135
 30
0.0
 11
41.580979279639251
 21
-561.95316409899135
 31
0.0
  0
LINE
  5
18F9B
  8
1DIM
 10
40.580979279639273
 20
-510.45301523165068
 30
0.0
 11
40.580979279639273
 21
-559.95316409899135
 31
0.0
  0
TEXT
  5
18F9F
  8
1DIM
 10
-110.3732082067217
 20
-432.63012886943091
 30
0.0
 40
3.5
  1
材質：亜鉛ダイキャスト
  0
TEXT
  5
18FA0
  8
1DIM
 10
-110.3732082067217
 20
-438.46346220276422
 30
0.0
 40
3.5
  1
仕上げ：クローム
  0
SOLID
  5
18FA1
  8
1DIM
 10
-139.90014015891961
 20
-454.95910744670681
 30
0.0
 11
-141.80039256721051
 21
-455.66632162635511
 31
0.0
 12
-140.2322232662807
 22
-454.38103716183667
 32
0.0
 13
-140.2322232662807
 23
-454.38103716183667
 33
0.0
  0
LINE
  5
18FA3
  8
1DIM
 10
-140.81124897445861
 20
-502.95365510875757
 30
0.0
 11
-128.78922878468171
 21
-502.95365510875757
 31
0.0
  0
LINE
  5
18FA4
  8
1DIM
 10
-140.81124897445861
 20
-634.95306248208328
 30
0.0
 11
-128.78922878468171
 21
-634.95306248208328
 31
0.0
  0
LINE
  5
18FA5
  8
1DIM
 10
-129.78922878468171
 20
-504.95365510875757
 30
0.0
 11
-129.78922878468171
 21
-632.9530624820834
 31
0.0
  0
LINE
  5
18FA9
  8
1DIM
 10
-307.7892025569987
 20
-564.95316409899135
 30
0.0
 11
-307.7892025569987
 21
-645.95306248208328
 31
0.0
  0
LINE
  5
18FAA
  8
1DIM
 10
-151.7892025569987
 20
-564.95316409899135
 30
0.0
 11
-151.7892025569987
 21
-645.95306248208328
 31
0.0
  0
LINE
  5
18FAB
  8
1DIM
 10
-305.7892025569987
 20
-644.95306248208317
 30
0.0
 11
-153.7892025569987
 21
-644.95306248208317
 31
0.0
  0
LINE
  5
18FAF
  8
1DIM
 10
-319.7893244039239
 20
-503.95340961041848
 30
0.0
 11
-319.7893244039239
 21
-491.95340961041848
 31
0.0
  0
LINE
  5
18FB0
  8
1DIM
 10
-139.78948603473219
 20
-503.97015700610859
 30
0.0
 11
-139.78948603473219
 21
-491.95340961041848
 31
0.0
  0
LINE
  5
18FB1
  8
1DIM
 10
-317.7893244039239
 20
-492.95340961041859
 30
0.0
 11
-141.78948603473219
 21
-492.95340961041859
 31
0.0
  0
LINE
  5
18FB5
  8
1DIM
 10
-10.76980817546494
 20
-577.93129506588855
 30
0.0
 11
-10.76980817546494
 21
-582.95311223536589
 31
0.0
  0
LINE
  5
18FB6
  8
1DIM
 10
-28.770879314056781
 20
-575.46042879145443
 30
0.0
 11
-28.770879314056781
 21
-582.95311223536589
 31
0.0
  0
LINE
  5
18FB7
  8
1DIM
 10
-12.76980817546494
 20
-581.95311223536601
 30
0.0
 11
-26.770879314056781
 21
-581.95311223536601
 31
0.0
  0
LINE
  5
18FBB
  8
1DIM
 10
-99.769773731123436
 20
-575.70311223536555
 30
0.0
 11
-99.769773731123436
 21
-471.95340961041859
 31
0.0
  0
LINE
  5
18FBC
  8
1DIM
 10
-7.7676748505016171
 20
-483.45301523165062
 30
0.0
 11
-7.7676748505016162
 21
-471.95340961041859
 31
0.0
  0
LINE
  5
18FBD
  8
1DIM
 10
-97.76977373112345
 20
-472.95340961041859
 30
0.0
 11
-9.7676748505016171
 21
-472.95340961041859
 31
0.0
  0
LINE
  5
18FC1
  8
1DIM
 10
-66.619773731127438
 20
-516.3032123558088
 30
0.0
 11
-66.619773731127438
 21
-481.95340961041848
 31
0.0
  0
LINE
  5
18FC2
  8
1DIM
 10
-7.7676748505016171
 20
-483.45301523165062
 30
0.0
 11
-7.7676748505016171
 21
-481.95340961041848
 31
0.0
  0
LINE
  5
18FC3
  8
1DIM
 10
-64.619773731127438
 20
-482.95340961041848
 30
0.0
 11
-9.7676748505016171
 21
-482.95340961041848
 31
0.0
  0
LINE
  5
18FC7
  8
1DIM
 10
-42.269773731123429
 20
-561.95311223536555
 30
0.0
 11
-42.269773731123429
 21
-491.95340961041848
 31
0.0
  0
LINE
  5
18FC8
  8
1DIM
 10
-7.7676748505016171
 20
-483.45301523165062
 30
0.0
 11
-7.7676748505016171
 21
-493.95340961041859
 31
0.0
  0
LINE
  5
18FC9
  8
1DIM
 10
-40.269773731123429
 20
-492.95340961041859
 30
0.0
 11
-9.7676748505016171
 21
-492.95340961041859
 31
0.0
  0
LINE
  5
18FCE
  8
1CENTER
 10
20.345427239336431
 20
-561.95316409899135
 30
0.0
 11
-16.285763761118471
 21
-561.95316409899135
 31
0.0
  0
LINE
  5
18FCF
  8
0
 10
15.284515194350179
 20
-563.04748791298641
 30
0.0
 11
16.084510628401151
 21
-561.08515282411088
 31
0.0
  0
LINE
  5
18FD0
  8
0
 10
16.084510628401151
 20
-561.08515282411088
 30
0.0
 11
16.396280484653261
 21
-561.67342939915341
 31
0.0
  0
LINE
  5
18FD1
  8
0
 10
-7.115482698439819
 20
-563.95311756309343
 30
0.0
 11
-6.3154920056215644
 21
-559.95311756309343
 31
0.0
  0
LINE
  5
18FD2
  8
0
 10
4.0845173015645448
 20
-563.95311756309343
 30
0.0
 11
4.8845079943871212
 21
-559.95311756309343
 31
0.0
  0
LINE
  5
18FD3
  8
0
 10
7.2845173015645912
 20
-563.95311756309343
 30
0.0
 11
8.0845079943871667
 21
-559.95311756309343
 31
0.0
  0
LINE
  5
18FD4
  8
0
 10
8.0845079943871667
 20
-559.95311756309343
 30
0.0
 11
8.1845091577843903
 21
-560.45311756309343
 31
0.0
  0
LINE
  5
18FD5
  8
0
 10
8.7845161381673904
 20
-563.45311756309343
 30
0.0
 11
8.8845173015646122
 21
-563.95311756309343
 31
0.0
  0
LINE
  5
18FD6
  8
0
 10
4.8845079943871212
 20
-559.95311756309343
 30
0.0
 11
4.9845091577843439
 21
-560.45311756309343
 31
0.0
  0
LINE
  5
18FD7
  8
0
 10
6.4845079943872568
 20
-559.95311756309343
 30
0.0
 11
6.5845091577843666
 21
-560.45311756309343
 31
0.0
  0
LINE
  5
18FD8
  8
0
 10
7.1845161381674814
 20
-563.45311756309343
 30
0.0
 11
7.2845173015645912
 21
-563.95311756309343
 31
0.0
  0
LINE
  5
18FD9
  8
0
 10
5.5845161381675723
 20
-563.45311756309343
 30
0.0
 11
5.6845173015646822
 21
-563.95311756309343
 31
0.0
  0
LINE
  5
18FDA
  8
0
 10
5.6845173015646822
 20
-563.95311756309343
 30
0.0
 11
6.4845079943872568
 21
-559.95311756309343
 31
0.0
  0
LINE
  5
18FDB
  8
0
 10
14.48450957479551
 20
-560.63233871970419
 30
0.0
 11
14.667273717423511
 21
-561.18408818350747
 31
0.0
  0
LINE
  5
18FDC
  8
0
 10
11.28450799438721
 20
-559.95311756309343
 30
0.0
 11
11.38450915778432
 21
-560.45311756309343
 31
0.0
  0
LINE
  5
18FDD
  8
0
 10
9.6845079943871895
 20
-559.95311756309343
 30
0.0
 11
9.7845091577841856
 21
-560.45311756309343
 31
0.0
  0
LINE
  5
18FDE
  8
0
 10
12.88450852118987
 20
-560.17952461529728
 30
0.0
 11
13.01377921881973
 21
-560.71611835056854
 31
0.0
  0
LINE
  5
18FDF
  8
0
 10
13.571746735604361
 20
-563.03220296588472
 30
0.0
 11
13.6845162479544
 21
-563.50030142103458
 31
0.0
  0
LINE
  5
18FE0
  8
0
 10
10.38451613816752
 20
-563.45311756309343
 30
0.0
 11
10.48451730156463
 21
-563.95311756309343
 31
0.0
  0
LINE
  5
18FE1
  8
0
 10
11.984516138167431
 20
-563.45311756309343
 30
0.0
 11
12.08451730156454
 21
-563.95311756309343
 31
0.0
  0
LINE
  5
18FE2
  8
0
 10
15.133079397909761
 20
-562.59031607235534
 30
0.0
 11
15.284515194350179
 21
-563.04748791298641
 31
0.0
  0
LINE
  5
18FE3
  8
0
 10
13.6845162479544
 20
-563.50030142103458
 30
0.0
 11
14.48450957479551
 21
-560.63233871970419
 31
0.0
  0
LINE
  5
18FE4
  8
0
 10
10.48451730156463
 20
-563.95311756309343
 30
0.0
 11
11.28450799438721
 21
-559.95311756309343
 31
0.0
  0
LINE
  5
18FE5
  8
0
 10
12.08451730156454
 20
-563.95311756309343
 30
0.0
 11
12.88450852118987
 21
-560.17952461529728
 31
0.0
  0
LINE
  5
18FE6
  8
0
 10
8.8845173015646122
 20
-563.95311756309343
 30
0.0
 11
9.6845079943871895
 21
-559.95311756309343
 31
0.0
  0
LINE
  5
18FE7
  8
0
 10
-3.9154826984397739
 20
-563.95311756309343
 30
0.0
 11
-3.1154920056215181
 21
-559.95311756309343
 31
0.0
  0
LINE
  5
18FE8
  8
0
 10
-3.1154920056215181
 20
-559.95311756309343
 30
0.0
 11
-3.0154908422238398
 21
-560.45311756309343
 31
0.0
  0
LINE
  5
18FE9
  8
0
 10
-2.4154838618331089
 20
-563.45311756309343
 30
0.0
 11
-2.3154826984354311
 21
-563.95311756309343
 31
0.0
  0
LINE
  5
18FEA
  8
0
 10
-4.7154920056216554
 20
-559.95311756309343
 30
0.0
 11
-4.6154908422239771
 21
-560.45311756309343
 31
0.0
  0
LINE
  5
18FEB
  8
0
 10
-6.3154920056215644
 20
-559.95311756309343
 30
0.0
 11
-6.2154908422238861
 21
-560.45311756309343
 31
0.0
  0
LINE
  5
18FEC
  8
0
 10
-4.0154838618374518
 20
-563.45311756309343
 30
0.0
 11
-3.9154826984397739
 21
-563.95311756309343
 31
0.0
  0
LINE
  5
18FED
  8
0
 10
-5.6154838618375891
 20
-563.45311756309343
 30
0.0
 11
-5.5154826984399099
 21
-563.95311756309343
 31
0.0
  0
LINE
  5
18FEE
  8
0
 10
-5.5154826984399099
 20
-563.95311756309343
 30
0.0
 11
-4.7154920056216554
 21
-559.95311756309343
 31
0.0
  0
LINE
  5
18FEF
  8
0
 10
1.6845079943828689
 20
-559.95311756309343
 30
0.0
 11
1.784509157780547
 21
-560.45311756309343
 31
0.0
  0
LINE
  5
18FF0
  8
0
 10
3.2845079943872122
 20
-559.95311756309343
 30
0.0
 11
3.384509157784322
 21
-560.45311756309343
 31
0.0
  0
LINE
  5
18FF1
  8
0
 10
-1.5154920056171759
 20
-559.95311756309343
 30
0.0
 11
-1.4154908422194969
 21
-560.45311756309343
 31
0.0
  0
LINE
  5
18FF2
  8
0
 10
0.084507994382733
 20
-559.95311756309343
 30
0.0
 11
0.1845091577804112
 21
-560.45311756309343
 31
0.0
  0
LINE
  5
18FF3
  8
0
 10
3.984516138167435
 20
-563.45311756309343
 30
0.0
 11
4.0845173015645448
 21
-563.95311756309343
 31
0.0
  0
LINE
  5
18FF4
  8
0
 10
2.3845161381668438
 20
-563.45311756309343
 30
0.0
 11
2.4845173015646358
 21
-563.95311756309343
 31
0.0
  0
LINE
  5
18FF5
  8
0
 10
-0.8154838618332007
 20
-563.45311756309343
 30
0.0
 11
-0.7154826984355225
 21
-563.95311756309343
 31
0.0
  0
LINE
  5
18FF6
  8
0
 10
0.7845161381669357
 20
-563.45311756309343
 30
0.0
 11
0.8845173015646139
 21
-563.95311756309343
 31
0.0
  0
LINE
  5
18FF7
  8
0
 10
0.8845173015646139
 20
-563.95311756309343
 30
0.0
 11
1.6845079943828689
 21
-559.95311756309343
 31
0.0
  0
LINE
  5
18FF8
  8
0
 10
2.4845173015646358
 20
-563.95311756309343
 30
0.0
 11
3.2845079943872122
 21
-559.95311756309343
 31
0.0
  0
LINE
  5
18FF9
  8
0
 10
-0.7154826984355225
 20
-563.95311756309343
 30
0.0
 11
0.084507994382733
 21
-559.95311756309343
 31
0.0
  0
LINE
  5
18FFA
  8
0
 10
-2.3154826984354311
 20
-563.95311756309343
 30
0.0
 11
-1.5154920056171759
 21
-559.95311756309343
 31
0.0
  0
LINE
  5
18FFB
  8
0
 10
-12.615490842110219
 20
-560.45311756309343
 30
0.0
 11
-12.615483861725551
 21
-563.45311756309309
 31
0.0
  0
LINE
  5
18FFC
  8
0
 10
-12.015483861841661
 20
-563.45311756309343
 30
0.0
 11
-11.915482698443981
 21
-563.95311756309343
 31
0.0
  0
LINE
  5
18FFD
  8
0
 10
-11.915482698443981
 20
-563.95311756309343
 30
0.0
 11
-11.11549200562572
 21
-559.95311756309343
 31
0.0
  0
LINE
  5
18FFE
  8
0
 10
-11.11549200562572
 20
-559.95311756309343
 30
0.0
 11
-11.015490842228051
 21
-560.45311756309343
 31
0.0
  0
LINE
  5
18FFF
  8
0
 10
-10.41548386184175
 20
-563.45311756309343
 30
0.0
 11
-10.31548269844407
 21
-563.95311756309343
 31
0.0
  0
LINE
  5
19000
  8
0
 10
-8.8154838618418392
 20
-563.45311756309343
 30
0.0
 11
-8.7154826984441627
 21
-563.95311756309343
 31
0.0
  0
LINE
  5
19001
  8
0
 10
-8.7154826984441627
 20
-563.95311756309343
 30
0.0
 11
-7.9154920056259073
 21
-559.95311756309343
 31
0.0
  0
LINE
  5
19002
  8
0
 10
-9.5154920056258163
 20
-559.95311756309343
 30
0.0
 11
-9.415490842228138
 21
-560.45311756309343
 31
0.0
  0
LINE
  5
19003
  8
0
 10
-7.9154920056259073
 20
-559.95311756309343
 30
0.0
 11
-7.8154908422282281
 21
-560.45311756309343
 31
0.0
  0
LINE
  5
19004
  8
0
 10
-10.31548269844407
 20
-563.95311756309343
 30
0.0
 11
-9.5154920056258163
 21
-559.95311756309343
 31
0.0
  0
LINE
  5
19005
  8
0
 10
-7.2154838618374981
 20
-563.45311756309343
 30
0.0
 11
-7.115482698439819
 21
-563.95311756309343
 31
0.0
  0
LINE
  5
19006
  8
1DIM
 10
-139.8002972437188
 20
-428.19342317999082
 30
0.0
 11
-118.7892287846817
 21
-428.19342317999087
 31
0.0
  0
LINE
  5
19007
  8
1DIM
 10
-169.311264943362
 20
-472.95341873053241
 30
0.0
 11
-118.7892287846817
 21
-472.95341873053252
 31
0.0
  0
LINE
  5
19008
  8
1DIM
 10
-119.7892287846817
 20
-430.19342317999087
 30
0.0
 11
-119.7892287846817
 21
-470.95341873053241
 31
0.0
  0
LINE
  5
19009
  8
1DIM
 10
-119.7892287846817
 20
-472.95341873053252
 30
0.0
 11
-119.7892287846818
 21
-537.18675206386581
 31
0.0
  0
TEXT
  5
1900D
  8
1HATCH
 10
-1.6305622900766641
 20
-471.86606045642259
 30
0.0
 40
3.5
  1
PB
  0
SOLID
  5
1900E
  8
1HATCH
 10
-0.7260321784337944
 20
-491.01882146011252
 30
0.0
 11
-0.705694910389621
 21
-493.04630697341202
 31
0.0
 12
-1.3824957358258601
 22
-491.13501114235908
 32
0.0
 13
-1.3824957358258601
 23
-491.13501114235908
 33
0.0
  0
SOLID
  5
19010
  8
1DIM
 10
7.3374886340969754
 20
-491.02320799021152
 30
0.0
 11
7.7922873035515918
 21
-492.9991303776988
 31
0.0
 12
6.7212326527202704
 22
-491.2775168769258
 32
0.0
 13
6.7212326527202704
 23
-491.2775168769258
 33
0.0
  0
TEXT
  5
19012
  8
1DIM
 10
4.5367822044619457
 20
-477.86740647354651
 30
0.0
 40
3.5
  1
合板9mm以上
  0
LINE
  5
19013
  8
1DIM
 10
7.029360643408622
 20
-491.15036243356872
 30
0.0
 11
1.836782204461946
 21
-478.56740647354661
 31
0.0
  0
LINE
  5
19014
  8
1DIM
 10
1.836782204461946
 20
-478.56740647354661
 30
0.0
 11
30.90344887112861
 21
-478.56740647354661
 31
0.0
  0
LINE
  5
19015
  8
1HATCH
 10
-1.0542639571298269
 20
-491.07691630123583
 30
0.0
 11
-4.3305622900766636
 21
-472.56606045642252
 31
0.0
  0
LINE
  5
19016
  8
1HATCH
 10
-4.3305622900766636
 20
-472.56606045642252
 30
0.0
 11
-1.6305622900766641
 21
-472.56606045642252
 31
0.0
  0
TEXT
  5
19017
  8
1DIM
 10
-120.4892287846817
 20
-534.53675206386583
 30
0.0
 40
3.5
  1
44.8 （ペーパー無し最小値）
 50
90.0
  0
LINE
  5
19018
  8
0
  6
BYBLOCK
 10
-119.25333040468171
 20
-470.95341873053241
 30
0.0
 11
-119.7892287846817
 21
-472.95341873053252
 31
0.0
  0
LINE
  5
19019
  8
0
  6
BYBLOCK
 10
-119.7892287846817
 20
-472.95341873053252
 30
0.0
 11
-120.3251271646817
 21
-470.95341873053241
 31
0.0
  0
LINE
  5
1901A
  8
0
  6
BYBLOCK
 10
-119.7892287846817
 20
-472.95341873053252
 30
0.0
 11
-119.7892287846817
 21
-470.95341873053241
 31
0.0
  0
LINE
  5
1901B
  8
0
  6
BYBLOCK
 10
-120.3251271646817
 20
-430.19342317999087
 30
0.0
 11
-119.7892287846817
 21
-428.19342317999087
 31
0.0
  0
LINE
  5
1901C
  8
0
  6
BYBLOCK
 10
-119.7892287846817
 20
-428.19342317999087
 30
0.0
 11
-119.25333040468171
 21
-430.19342317999087
 31
0.0
  0
LINE
  5
1901D
  8
0
  6
BYBLOCK
 10
-119.7892287846817
 20
-428.19342317999087
 30
0.0
 11
-119.7892287846817
 21
-430.19342317999087
 31
0.0
  0
LINE
  5
1901E
  8
0
 10
17.384512648027989
 20
-561.95311756309343
 30
0.0
 11
12.084516138166331
 21
-563.45311756309343
 31
0.0
  0
LINE
  5
1901F
  8
0
 10
17.384512648027989
 20
-561.95311756309343
 30
0.0
 11
12.08450915778268
 21
-560.45311756309331
 31
0.0
  0
LINE
  5
19020
  8
0
 10
12.084516138166331
 20
-563.45311756309343
 30
0.0
 11
-12.615483861725551
 21
-563.45311756309309
 31
0.0
  0
LINE
  5
19021
  8
0
 10
12.08450915778268
 20
-560.45311756309331
 30
0.0
 11
-12.615490842110219
 21
-560.45311756309343
 31
0.0
  0
LINE
  5
19022
  8
0
 10
-12.615479208027461
 20
-565.45316409899124
 30
0.0
 11
-12.615483861725551
 21
-563.45311756309309
 31
0.0
  0
LINE
  5
19023
  8
0
 10
-12.615490842110219
 20
-560.45311756309343
 30
0.0
 11
-12.615495495591739
 21
-558.45316409899135
 31
0.0
  0
LINE
  5
19024
  8
0
 10
-12.615479208027461
 20
-565.45316409899124
 30
0.0
 11
-13.715482698222781
 21
-565.45316409899135
 31
0.0
  0
LINE
  5
19025
  8
0
 10
-12.615495495591739
 20
-558.45316409899135
 30
0.0
 11
-13.71549200540238
 21
-558.45316409899135
 31
0.0
  0
ARC
  5
19026
  8
0
 10
-13.715482698222781
 20
-563.95316409899135
 30
0.0
 40
1.5
 50
180.0001333155293
 51
270.0
  0
ARC
  5
19027
  8
0
 10
-13.71549200540238
 20
-559.95316409899135
 30
0.0
 40
1.5
 50
90.0
 51
180.0001333155293
  0
LINE
  5
19028
  8
0
 10
-15.215482698218731
 20
-563.95316758918375
 30
0.0
 11
-15.215492005398319
 21
-559.95316758918375
 31
0.0
  0
TEXT
  5
19029
  8
1DIM
 10
-30.268724290812521
 20
-492.25340961041849
 30
0.0
 40
3.5
  1
34.5
  0
LINE
  5
1902A
  8
0
  6
BYBLOCK
 10
-9.7676748505016171
 20
-492.4175112304186
 30
0.0
 11
-7.7676748505016171
 21
-492.95340961041859
 31
0.0
  0
LINE
  5
1902B
  8
0
  6
BYBLOCK
 10
-7.7676748505016171
 20
-492.95340961041859
 30
0.0
 11
-9.7676748505016171
 21
-493.48930799041858
 31
0.0
  0
LINE
  5
1902C
  8
0
  6
BYBLOCK
 10
-7.7676748505016171
 20
-492.95340961041859
 30
0.0
 11
-9.7676748505016171
 21
-492.95340961041859
 31
0.0
  0
LINE
  5
1902D
  8
0
  6
BYBLOCK
 10
-40.269773731123429
 20
-493.48930799041858
 30
0.0
 11
-42.269773731123429
 21
-492.95340961041859
 31
0.0
  0
LINE
  5
1902E
  8
0
  6
BYBLOCK
 10
-42.269773731123429
 20
-492.95340961041859
 30
0.0
 11
-40.269773731123429
 21
-492.4175112304186
 31
0.0
  0
LINE
  5
1902F
  8
0
  6
BYBLOCK
 10
-42.269773731123429
 20
-492.95340961041859
 30
0.0
 11
-40.269773731123429
 21
-492.95340961041859
 31
0.0
  0
TEXT
  5
19030
  8
1DIM
 10
-40.110390957481187
 20
-482.2534096104186
 30
0.0
 40
3.5
  1
59
  0
LINE
  5
19031
  8
0
  6
BYBLOCK
 10
-9.7676748505016171
 20
-482.41751123041848
 30
0.0
 11
-7.7676748505016171
 21
-482.95340961041848
 31
0.0
  0
LINE
  5
19032
  8
0
  6
BYBLOCK
 10
-7.7676748505016171
 20
-482.95340961041848
 30
0.0
 11
-9.7676748505016171
 21
-483.48930799041852
 31
0.0
  0
LINE
  5
19033
  8
0
  6
BYBLOCK
 10
-7.7676748505016171
 20
-482.95340961041848
 30
0.0
 11
-9.7676748505016171
 21
-482.95340961041848
 31
0.0
  0
LINE
  5
19034
  8
0
  6
BYBLOCK
 10
-64.619773731127438
 20
-483.48930799041852
 30
0.0
 11
-66.619773731127438
 21
-482.95340961041848
 31
0.0
  0
LINE
  5
19035
  8
0
  6
BYBLOCK
 10
-66.619773731127438
 20
-482.95340961041848
 30
0.0
 11
-64.619773731127438
 21
-482.41751123041848
 31
0.0
  0
LINE
  5
19036
  8
0
  6
BYBLOCK
 10
-66.619773731127438
 20
-482.95340961041848
 30
0.0
 11
-64.619773731127438
 21
-482.95340961041848
 31
0.0
  0
TEXT
  5
19037
  8
1DIM
 10
-79.90205762414584
 20
-472.2534096104186
 30
0.0
 40
3.5
  1
92 （ペーパー付き最大値）
  0
LINE
  5
19038
  8
0
  6
BYBLOCK
 10
-9.7676748505016171
 20
-472.4175112304186
 30
0.0
 11
-7.7676748505016162
 21
-472.95340961041859
 31
0.0
  0
LINE
  5
19039
  8
0
  6
BYBLOCK
 10
-7.7676748505016162
 20
-472.95340961041859
 30
0.0
 11
-9.7676748505016171
 21
-473.48930799041852
 31
0.0
  0
LINE
  5
1903A
  8
0
  6
BYBLOCK
 10
-7.7676748505016162
 20
-472.95340961041859
 30
0.0
 11
-9.7676748505016171
 21
-472.95340961041859
 31
0.0
  0
LINE
  5
1903B
  8
0
  6
BYBLOCK
 10
-97.76977373112345
 20
-473.48930799041852
 30
0.0
 11
-99.769773731123436
 21
-472.95340961041859
 31
0.0
  0
LINE
  5
1903C
  8
0
  6
BYBLOCK
 10
-99.769773731123436
 20
-472.95340961041859
 30
0.0
 11
-97.76977373112345
 21
-472.4175112304186
 31
0.0
  0
LINE
  5
1903D
  8
0
  6
BYBLOCK
 10
-99.769773731123436
 20
-472.95340961041859
 30
0.0
 11
-97.76977373112345
 21
-472.95340961041859
 31
0.0
  0
TEXT
  5
1903E
  8
1DIM
 10
-22.10367707809419
 20
-581.25311223536585
 30
0.0
 40
3.5
  1
18
  0
LINE
  5
1903F
  8
0
  6
BYBLOCK
 10
-26.770879314056781
 20
-582.48901061536606
 30
0.0
 11
-28.770879314056781
 21
-581.95311223536601
 31
0.0
  0
LINE
  5
19040
  8
0
  6
BYBLOCK
 10
-28.770879314056781
 20
-581.95311223536601
 30
0.0
 11
-26.770879314056781
 21
-581.41721385536584
 31
0.0
  0
LINE
  5
19041
  8
0
  6
BYBLOCK
 10
-28.770879314056781
 20
-581.95311223536601
 30
0.0
 11
-26.770879314056781
 21
-581.95311223536601
 31
0.0
  0
LINE
  5
19042
  8
0
  6
BYBLOCK
 10
-12.76980817546494
 20
-581.41721385536584
 30
0.0
 11
-10.76980817546494
 21
-581.95311223536601
 31
0.0
  0
LINE
  5
19043
  8
0
  6
BYBLOCK
 10
-10.76980817546494
 20
-581.95311223536601
 30
0.0
 11
-12.76980817546494
 21
-582.48901061536606
 31
0.0
  0
LINE
  5
19044
  8
0
  6
BYBLOCK
 10
-10.76980817546494
 20
-581.95311223536601
 30
0.0
 11
-12.76980817546494
 21
-581.95311223536601
 31
0.0
  0
TEXT
  5
19045
  8
1DIM
 10
-233.5810718859947
 20
-492.25340961041849
 30
0.0
 40
3.5
  1
180
  0
LINE
  5
19046
  8
0
  6
BYBLOCK
 10
-141.78948603473219
 20
-492.4175112304186
 30
0.0
 11
-139.78948603473219
 21
-492.95340961041859
 31
0.0
  0
LINE
  5
19047
  8
0
  6
BYBLOCK
 10
-139.78948603473219
 20
-492.95340961041859
 30
0.0
 11
-141.78948603473219
 21
-493.48930799041858
 31
0.0
  0
LINE
  5
19048
  8
0
  6
BYBLOCK
 10
-139.78948603473219
 20
-492.95340961041859
 30
0.0
 11
-141.78948603473219
 21
-492.95340961041859
 31
0.0
  0
LINE
  5
19049
  8
0
  6
BYBLOCK
 10
-317.7893244039239
 20
-493.48930799041858
 30
0.0
 11
-319.7893244039239
 21
-492.95340961041859
 31
0.0
  0
LINE
  5
1904A
  8
0
  6
BYBLOCK
 10
-319.7893244039239
 20
-492.95340961041859
 30
0.0
 11
-317.7893244039239
 21
-492.4175112304186
 31
0.0
  0
LINE
  5
1904B
  8
0
  6
BYBLOCK
 10
-319.7893244039239
 20
-492.95340961041859
 30
0.0
 11
-317.7893244039239
 21
-492.95340961041859
 31
0.0
  0
TEXT
  5
1904C
  8
1DIM
 10
-237.3725358903321
 20
-644.25306248208324
 30
0.0
 40
3.5
  1
P=156
  0
LINE
  5
1904D
  8
0
  6
BYBLOCK
 10
-153.7892025569987
 20
-644.41716410208323
 30
0.0
 11
-151.7892025569987
 21
-644.95306248208317
 31
0.0
  0
LINE
  5
1904E
  8
0
  6
BYBLOCK
 10
-151.7892025569987
 20
-644.95306248208317
 30
0.0
 11
-153.7892025569987
 21
-645.48896086208333
 31
0.0
  0
LINE
  5
1904F
  8
0
  6
BYBLOCK
 10
-151.7892025569987
 20
-644.95306248208317
 30
0.0
 11
-153.7892025569987
 21
-644.95306248208317
 31
0.0
  0
LINE
  5
19050
  8
0
  6
BYBLOCK
 10
-305.7892025569987
 20
-645.48896086208333
 30
0.0
 11
-307.7892025569987
 21
-644.95306248208317
 31
0.0
  0
LINE
  5
19051
  8
0
  6
BYBLOCK
 10
-307.7892025569987
 20
-644.95306248208317
 30
0.0
 11
-305.7892025569987
 21
-644.41716410208323
 31
0.0
  0
LINE
  5
19052
  8
0
  6
BYBLOCK
 10
-307.7892025569987
 20
-644.95306248208317
 30
0.0
 11
-305.7892025569987
 21
-644.95306248208317
 31
0.0
  0
TEXT
  5
19053
  8
1DIM
 10
-130.48922878468159
 20
-573.03669212875377
 30
0.0
 40
3.5
  1
132
 50
90.0
  0
LINE
  5
19054
  8
0
  6
BYBLOCK
 10
-129.2533304046818
 20
-632.9530624820834
 30
0.0
 11
-129.78922878468171
 21
-634.95306248208328
 31
0.0
  0
LINE
  5
19055
  8
0
  6
BYBLOCK
 10
-129.78922878468171
 20
-634.95306248208328
 30
0.0
 11
-130.3251271646817
 21
-632.9530624820834
 31
0.0
  0
LINE
  5
19056
  8
0
  6
BYBLOCK
 10
-129.78922878468171
 20
-634.95306248208328
 30
0.0
 11
-129.78922878468171
 21
-632.9530624820834
 31
0.0
  0
LINE
  5
19057
  8
0
  6
BYBLOCK
 10
-130.3251271646817
 20
-504.95365510875757
 30
0.0
 11
-129.78922878468171
 21
-502.95365510875757
 31
0.0
  0
LINE
  5
19058
  8
0
  6
BYBLOCK
 10
-129.78922878468171
 20
-502.95365510875757
 30
0.0
 11
-129.25333040468169
 21
-504.95365510875757
 31
0.0
  0
LINE
  5
19059
  8
0
  6
BYBLOCK
 10
-129.78922878468171
 20
-502.95365510875757
 30
0.0
 11
-129.78922878468171
 21
-504.95365510875757
 31
0.0
  0
LINE
  5
1905A
  8
1DIM
 10
-140.06618171260021
 20
-454.67007230427168
 30
0.0
 11
-113.0732082067218
 21
-439.16346220276398
 31
0.0
  0
LINE
  5
1905B
  8
1DIM
 10
-113.0732082067218
 20
-439.16346220276398
 30
0.0
 11
-110.3732082067218
 21
-439.16346220276398
 31
0.0
  0
TEXT
  5
1905C
  8
1DIM
 10
39.880979279639348
 20
-540.45308966532104
 30
0.0
 40
3.5
  1
53.5
 50
90.0
  0
LINE
  5
1905D
  8
0
  6
BYBLOCK
 10
41.11687765963925
 20
-559.95316409899135
 30
0.0
 11
40.580979279639259
 21
-561.95316409899135
 31
0.0
  0
LINE
  5
1905E
  8
0
  6
BYBLOCK
 10
40.580979279639259
 20
-561.95316409899135
 30
0.0
 11
40.04508089963926
 21
-559.95316409899135
 31
0.0
  0
LINE
  5
1905F
  8
0
  6
BYBLOCK
 10
40.580979279639259
 20
-561.95316409899135
 30
0.0
 11
40.580979279639259
 21
-559.95316409899135
 31
0.0
  0
LINE
  5
19060
  8
0
  6
BYBLOCK
 10
40.045080899639267
 20
-510.45301523165068
 30
0.0
 11
40.580979279639273
 21
-508.45301523165068
 31
0.0
  0
LINE
  5
19061
  8
0
  6
BYBLOCK
 10
40.580979279639273
 20
-508.45301523165068
 30
0.0
 11
41.116877659639272
 21
-510.45301523165068
 31
0.0
  0
LINE
  5
19062
  8
0
  6
BYBLOCK
 10
40.580979279639273
 20
-508.45301523165068
 30
0.0
 11
40.580979279639273
 21
-510.45301523165068
 31
0.0
  0
LINE
  5
19063
  8
1DIM
 10
-46.817552890165288
 20
-515.05097822925279
 30
0.0
 11
-59.262974817606491
 21
-505.05739029561369
 31
0.0
  0
LINE
  5
19064
  8
1DIM
 10
-59.262974817606491
 20
-505.05739029561369
 30
0.0
 11
-61.962974817606487
 21
-505.05739029561369
 31
0.0
  0
LINE
  5
19065
  8
1DIM
 10
-188.7710324887077
 20
-501.45783181718798
 30
0.0
 11
-176.6435724485562
 21
-487.79872580975461
 31
0.0
  0
LINE
  5
19066
  8
1DIM
 10
-176.6435724485562
 20
-487.79872580975461
 30
0.0
 11
-173.94357244855621
 21
-487.79872580975461
 31
0.0
  0
LINE
  5
19067
  8
1DIM
 10
-227.76278532763149
 20
-555.62410305924857
 30
0.0
 11
-257.58486116333393
 21
-488.21533038646999
 31
0.0
  0
LINE
  5
19068
  8
1DIM
 10
-257.58486116333393
 20
-488.21533038646999
 30
0.0
 11
-260.28486116333391
 21
-488.21533038646999
 31
0.0
  0
TEXT
  5
19069
  8
1DIM
 10
-120.4892287846817
 20
-417.85889420496841
 30
0.0
 40
3.5
  1
27
 50
90.0
  0
LINE
  5
1906A
  8
0
  6
BYBLOCK
 10
-119.25333040468171
 20
-426.19342639075779
 30
0.0
 11
-119.7892287846817
 21
-428.19342639075791
 31
0.0
  0
LINE
  5
1906B
  8
0
  6
BYBLOCK
 10
-119.7892287846817
 20
-428.19342639075791
 30
0.0
 11
-120.3251271646817
 21
-426.19342639075779
 31
0.0
  0
LINE
  5
1906C
  8
0
  6
BYBLOCK
 10
-119.7892287846817
 20
-428.19342639075791
 30
0.0
 11
-119.7892287846817
 21
-426.19342639075779
 31
0.0
  0
LINE
  5
1906D
  8
0
  6
BYBLOCK
 10
-120.3251271646817
 20
-403.69102868584548
 30
0.0
 11
-119.7892287846817
 21
-401.69102868584548
 31
0.0
  0
LINE
  5
1906E
  8
0
  6
BYBLOCK
 10
-119.7892287846817
 20
-401.69102868584548
 30
0.0
 11
-119.25333040468171
 21
-403.69102868584548
 31
0.0
  0
LINE
  5
1906F
  8
0
  6
BYBLOCK
 10
-119.7892287846817
 20
-401.69102868584548
 30
0.0
 11
-119.7892287846817
 21
-403.69102868584548
 31
0.0
  0
TEXT
  5
19070
  8
1DIM
 10
-6.2523540536935984
 20
-393.5719058131466
 30
0.0
 40
3.5
  1
135
  0
LINE
  5
19071
  8
0
  6
BYBLOCK
 10
28.58097927963934
 20
-393.73600743314648
 30
0.0
 11
30.58097927963934
 21
-394.27190581314647
 31
0.0
  0
LINE
  5
19072
  8
0
  6
BYBLOCK
 10
30.58097927963934
 20
-394.27190581314647
 30
0.0
 11
28.58097927963934
 21
-394.80780419314652
 31
0.0
  0
LINE
  5
19073
  8
0
  6
BYBLOCK
 10
30.58097927963934
 20
-394.27190581314647
 30
0.0
 11
28.58097927963934
 21
-394.27190581314647
 31
0.0
  0
LINE
  5
19074
  8
0
  6
BYBLOCK
 10
-34.91902072035974
 20
-394.80780419314652
 30
0.0
 11
-36.91902072035974
 21
-394.27190581314647
 31
0.0
  0
LINE
  5
19075
  8
0
  6
BYBLOCK
 10
-36.91902072035974
 20
-394.27190581314647
 30
0.0
 11
-34.91902072035974
 21
-393.73600743314648
 31
0.0
  0
LINE
  5
19076
  8
0
  6
BYBLOCK
 10
-36.91902072035974
 20
-394.27190581314647
 30
0.0
 11
-34.91902072035974
 21
-394.27190581314647
 31
0.0
  0
TEXT
  5
19077
  8
1DIM
 10
39.880979279639327
 20
-438.02190581314647
 30
0.0
 40
3.5
  1
121
 50
90.0
  0
LINE
  5
19078
  8
0
  6
BYBLOCK
 10
41.11687765963925
 20
-462.77190581314659
 30
0.0
 11
40.580979279639259
 21
-464.77190581314659
 31
0.0
  0
LINE
  5
19079
  8
0
  6
BYBLOCK
 10
40.580979279639259
 20
-464.77190581314659
 30
0.0
 11
40.04508089963926
 21
-462.77190581314659
 31
0.0
  0
LINE
  5
1907A
  8
0
  6
BYBLOCK
 10
40.580979279639259
 20
-464.77190581314659
 30
0.0
 11
40.580979279639259
 21
-462.77190581314659
 31
0.0
  0
LINE
  5
1907B
  8
0
  6
BYBLOCK
 10
40.045080899639267
 20
-406.27190581314642
 30
0.0
 11
40.580979279639273
 21
-404.27190581314642
 31
0.0
  0
LINE
  5
1907C
  8
0
  6
BYBLOCK
 10
40.580979279639273
 20
-404.27190581314642
 30
0.0
 11
41.116877659639272
 21
-406.27190581314642
 31
0.0
  0
LINE
  5
1907D
  8
0
  6
BYBLOCK
 10
40.580979279639273
 20
-404.27190581314642
 30
0.0
 11
40.580979279639273
 21
-406.27190581314642
 31
0.0
  0
LINE
  5
1907E
  8
0
  6
BYBLOCK
 10
-35.018631804755941
 20
-406.99254486964622
 30
0.0
 11
-36.132922708871888
 21
-405.24739649352148
 31
0.0
  0
LINE
  5
1907F
  8
0
  6
BYBLOCK
 10
-36.132922708871888
 20
-405.24739649352148
 30
0.0
 11
-34.29534429496789
 21
-406.20159387689688
 31
0.0
  0
LINE
  5
19080
  8
0
  6
BYBLOCK
 10
-36.132922708871888
 20
-405.24739649352148
 30
0.0
 11
-34.656988049861923
 21
-406.59706937327161
 31
0.0
  0
TEXT
  5
19081
  8
1DIM
 10
-32.253588029744463
 20
-407.84631426029148
 30
0.0
 40
3.5
  1
R6
 50
317.55854989005678
  0
VIEWPORT
  5
57
 67
     1
  8
0
 10
-7.7295765619315944
 20
39.017803137499527
 30
0.0
 40
487.33867661534629
 41
326.47378601576742
 68
     1
 69
     1
1001
ACAD
1000
MVIEW
1002
{
1070
    16
1010
0.0
1020
0.0
1030
0.0
1010
0.0
1020
0.0
1030
1.0
1040
0.0
1040
326.47378601576742
1040
-7.7295765619315944
1040
39.017803137499527
1040
50.0
1040
0.0
1040
0.0
1070
     0
1070
   100
1070
     1
1070
     1
1070
     0
1070
     0
1070
     0
1070
     0
1040
0.0
1040
0.0
1040
0.0
1040
10.0
1040
10.0
1040
10.0
1040
10.0
1070
     0
1002
{
1002
}
1002
}
  0
ENDSEC
  0
EOF
