  0
SECTION
  2
HEADER
  9
$ACADVER
  1
AC1012
  9
$DWGCODEPAGE
  3
ansi_932
  9
$INSBASE
 10
0.0
 20
0.0
 30
0.0
  9
$EXTMIN
 10
708.2320056759827
 20
-2154.074672264533
 30
0.0
  9
$EXTMAX
 10
1022.609311651513
 20
-1977.072985455285
 30
0.0
  9
$LIMMIN
 10
0.0
 20
0.0
  9
$LIMMAX
 10
420.0
 20
297.0
  9
$ORTHOMODE
 70
     0
  9
$REGENMODE
 70
     1
  9
$FILLMODE
 70
     1
  9
$QTEXTMODE
 70
     0
  9
$MIRRTEXT
 70
     0
  9
$DRAGMODE
 70
     2
  9
$LTSCALE
 40
0.5
  9
$OSMODE
 70
 14463
  9
$ATTMODE
 70
     1
  9
$TEXTSIZE
 40
4.0
  9
$TRACEWID
 40
1.0
  9
$TEXTSTYLE
  7
STANDARD
  9
$CLAYER
  8
1TEXT
  9
$CELTYPE
  6
BYLAYER
  9
$CECOLOR
 62
   256
  9
$CELTSCALE
 40
1.0
  9
$DELOBJ
 70
     1
  9
$DISPSILH
 70
     0
  9
$DIMSCALE
 40
1.0
  9
$DIMASZ
 40
2.0
  9
$DIMEXO
 40
0.0
  9
$DIMDLI
 40
7.0
  9
$DIMRND
 40
0.0
  9
$DIMDLE
 40
0.0
  9
$DIMEXE
 40
1.0
  9
$DIMTP
 40
0.0
  9
$DIMTM
 40
0.0
  9
$DIMTXT
 40
3.5
  9
$DIMCEN
 40
0.0
  9
$DIMTSZ
 40
0.0
  9
$DIMTOL
 70
     0
  9
$DIMLIM
 70
     0
  9
$DIMTIH
 70
     0
  9
$DIMTOH
 70
     0
  9
$DIMSE1
 70
     0
  9
$DIMSE2
 70
     0
  9
$DIMTAD
 70
     1
  9
$DIMZIN
 70
     8
  9
$DIMBLK
  1

  9
$DIMASO
 70
     1
  9
$DIMSHO
 70
     1
  9
$DIMPOST
  1
 
  9
$DIMAPOST
  1

  9
$DIMALT
 70
     0
  9
$DIMALTD
 70
     2
  9
$DIMALTF
 40
25.4
  9
$DIMLFAC
 40
1.0
  9
$DIMTOFL
 70
     1
  9
$DIMTVP
 40
0.0
  9
$DIMTIX
 70
     0
  9
$DIMSOXD
 70
     0
  9
$DIMSAH
 70
     1
  9
$DIMBLK1
  1
OPEN30
  9
$DIMBLK2
  1
OPEN30
  9
$DIMSTYLE
  2
NEWX10
  9
$DIMCLRD
 70
   256
  9
$DIMCLRE
 70
   256
  9
$DIMCLRT
 70
   201
  9
$DIMTFAC
 40
0.7
  9
$DIMGAP
 40
0.7
  9
$DIMJUST
 70
     0
  9
$DIMSD1
 70
     0
  9
$DIMSD2
 70
     0
  9
$DIMTOLJ
 70
     1
  9
$DIMTZIN
 70
     8
  9
$DIMALTZ
 70
     0
  9
$DIMALTTZ
 70
     0
  9
$DIMFIT
 70
     2
  9
$DIMUPT
 70
     0
  9
$DIMUNIT
 70
     2
  9
$DIMDEC
 70
     2
  9
$DIMTDEC
 70
     4
  9
$DIMALTU
 70
     2
  9
$DIMALTTD
 70
     2
  9
$DIMTXSTY
  7
STANDARD
  9
$DIMAUNIT
 70
     0
  9
$LUNITS
 70
     2
  9
$LUPREC
 70
     4
  9
$SKETCHINC
 40
1.0
  9
$FILLETRAD
 40
0.0
  9
$AUNITS
 70
     0
  9
$AUPREC
 70
     2
  9
$MENU
  1
acad
  9
$ELEVATION
 40
0.0
  9
$PELEVATION
 40
0.0
  9
$THICKNESS
 40
0.0
  9
$LIMCHECK
 70
     0
  9
$CHAMFERA
 40
10.0
  9
$CHAMFERB
 40
10.0
  9
$CHAMFERC
 40
20.0
  9
$CHAMFERD
 40
0.0
  9
$SKPOLY
 70
     0
  9
$TDCREATE
 40
2453033.732663484
  9
$TDUPDATE
 40
2459565.607734618
  9
$TDINDWG
 40
1.7734943519
  9
$TDUSRTIMER
 40
1.7734943519
  9
$USRTIMER
 70
     1
  9
$ANGBASE
 50
0.0
  9
$ANGDIR
 70
     0
  9
$PDMODE
 70
     0
  9
$PDSIZE
 40
0.0
  9
$PLINEWID
 40
0.0
  9
$COORDS
 70
     2
  9
$SPLFRAME
 70
     0
  9
$SPLINETYPE
 70
     6
  9
$SPLINESEGS
 70
     8
  9
$ATTDIA
 70
     0
  9
$ATTREQ
 70
     1
  9
$HANDLING
 70
     1
  9
$HANDSEED
  5
1B529
  9
$SURFTAB1
 70
     6
  9
$SURFTAB2
 70
     6
  9
$SURFTYPE
 70
     6
  9
$SURFU
 70
     6
  9
$SURFV
 70
     6
  9
$UCSNAME
  2

  9
$UCSORG
 10
0.0
 20
0.0
 30
0.0
  9
$UCSXDIR
 10
1.0
 20
0.0
 30
0.0
  9
$UCSYDIR
 10
0.0
 20
1.0
 30
0.0
  9
$PUCSNAME
  2

  9
$PUCSORG
 10
0.0
 20
0.0
 30
0.0
  9
$PUCSXDIR
 10
1.0
 20
0.0
 30
0.0
  9
$PUCSYDIR
 10
0.0
 20
1.0
 30
0.0
  9
$USERI1
 70
     0
  9
$USERI2
 70
     0
  9
$USERI3
 70
     0
  9
$USERI4
 70
     0
  9
$USERI5
 70
     0
  9
$USERR1
 40
0.0
  9
$USERR2
 40
0.0
  9
$USERR3
 40
0.0
  9
$USERR4
 40
0.0
  9
$USERR5
 40
0.0
  9
$WORLDVIEW
 70
     1
  9
$SHADEDGE
 70
     3
  9
$SHADEDIF
 70
    70
  9
$TILEMODE
 70
     1
  9
$MAXACTVP
 70
    48
  9
$PINSBASE
 10
0.0
 20
0.0
 30
0.0
  9
$PLIMCHECK
 70
     0
  9
$PEXTMIN
 10
1.000000000000000E+20
 20
1.000000000000000E+20
 30
1.000000000000000E+20
  9
$PEXTMAX
 10
-1.000000000000000E+20
 20
-1.000000000000000E+20
 30
-1.000000000000000E+20
  9
$PLIMMIN
 10
0.0
 20
0.0
  9
$PLIMMAX
 10
420.0
 20
297.0
  9
$UNITMODE
 70
     0
  9
$VISRETAIN
 70
     1
  9
$PLINEGEN
 70
     0
  9
$PSLTSCALE
 70
     1
  9
$TREEDEPTH
 70
  3020
  9
$PICKSTYLE
 70
     0
  9
$CMLSTYLE
  2
STANDARD
  9
$CMLJUST
 70
     0
  9
$CMLSCALE
 40
20.0
  9
$SAVEIMAGES
 70
     1
  0
ENDSEC
  0
SECTION
  2
CLASSES
  0
CLASS
  1
DICTIONARYVAR
  2
AcDbDictionaryVar
  3
ObjectDBX Classes
 90
        0
280
     0
281
     0
  0
CLASS
  1
IDBUFFER
  2
AcDbIdBuffer
  3
ObjectDBX Classes
 90
    32768
280
     0
281
     0
  0
CLASS
  1
LWPOLYLINE
  2
AcDbPolyline
  3
ObjectDBX Classes
 90
    32768
280
     0
281
     1
  0
CLASS
  1
ACDBDICTIONARYWDFLT
  2
AcDbDictionaryWithDefault
  3
ObjectDBX Classes
 90
    32768
280
     0
281
     0
  0
CLASS
  1
ACDBPLACEHOLDER
  2
AcDbPlaceHolder
  3
ObjectDBX Classes
 90
        0
280
     0
281
     0
  0
CLASS
  1
LAYOUT
  2
AcDbLayout
  3
ObjectDBX Classes
 90
        0
280
     0
281
     0
  0
CLASS
  1
TABLESTYLE
  2
AcDbTableStyle
  3
ObjectDBX Classes
 90
     4095
280
     0
281
     0
  0
CLASS
  1
SORTENTSTABLE
  2
AcDbSortentsTable
  3
ObjectDBX Classes
 90
    32768
280
     0
281
     0
  0
CLASS
  1
DIMASSOC
  2
AcDbDimAssoc
  3
"AcDbDimAssoc|Product Desc:     AcDim ARX App For Dimension|Company:          Autodesk, Inc.|WEB Address:      www.autodesk.com"
 90
        0
280
     0
281
     0
  0
CLASS
  1
MATERIAL
  2
AcDbMaterial
  3
ObjectDBX Classes
 90
     1153
280
     0
281
     0
  0
CLASS
  1
VISUALSTYLE
  2
AcDbVisualStyle
  3
ObjectDBX Classes
 90
     4095
280
     0
281
     0
  0
CLASS
  1
SCALE
  2
AcDbScale
  3
ObjectDBX Classes
 90
     1153
280
     0
281
     0
  0
CLASS
  1
MLEADERSTYLE
  2
AcDbMLeaderStyle
  3
ACDB_MLEADERSTYLE_CLASS
 90
     4095
280
     0
281
     0
  0
CLASS
  1
CELLSTYLEMAP
  2
AcDbCellStyleMap
  3
ObjectDBX Classes
 90
     1152
280
     0
281
     0
  0
CLASS
  1
SUN
  2
AcDbSun
  3
SCENEOE
 90
     1153
280
     0
281
     0
  0
CLASS
  1

  2
CaLongTransaction
  3

 90
        0
280
     0
281
     0
  0
CLASS
  1
XRECORD
  2
AcDbXrecord
  3
ObjectDBX Classes
 90
    32768
280
     0
281
     0
  0
CLASS
  1
HATCH
  2
AcDbHatch
  3
ObjectDBX Classes
 90
    32768
280
     0
281
     1
  0
ENDSEC
  0
SECTION
  2
TABLES
  0
TABLE
  2
VPORT
  5
8
330
0
100
AcDbSymbolTable
 70
     1
  0
VPORT
  5
18393
330
8
100
AcDbSymbolTableRecord
100
AcDbViewportTableRecord
  2
*ACTIVE
 70
     0
 10
0.0
 20
0.0
 11
1.0
 21
1.0
 12
865.4206586637476
 22
-2065.573828859909
 13
0.0
 23
0.0
 14
10.0
 24
10.0
 15
10.0
 25
10.0
 16
0.0
 26
0.0
 36
1.0
 17
0.0
 27
0.0
 37
0.0
 40
216.0064215880279
 41
1.562647754137116
 42
50.0
 43
0.0
 44
0.0
 50
0.0
 51
0.0
 71
    16
 72
   100
 73
     1
 74
     1
 75
     0
 76
     0
 77
     0
 78
     0
  0
ENDTAB
  0
TABLE
  2
LTYPE
  5
5
330
0
100
AcDbSymbolTable
 70
     3
  0
LTYPE
  5
12
330
5
100
AcDbSymbolTableRecord
100
AcDbLinetypeTableRecord
  2
BYBLOCK
 70
     0
  3

 72
    65
 73
     0
 40
0.0
  0
LTYPE
  5
13
330
5
100
AcDbSymbolTableRecord
100
AcDbLinetypeTableRecord
  2
BYLAYER
 70
     0
  3

 72
    65
 73
     0
 40
0.0
  0
LTYPE
  5
14
330
5
100
AcDbSymbolTableRecord
100
AcDbLinetypeTableRecord
  2
CONTINUOUS
 70
     0
  3
Solid line
 72
    65
 73
     0
 40
0.0
  0
LTYPE
  5
26
330
5
100
AcDbSymbolTableRecord
100
AcDbLinetypeTableRecord
  2
CENTER2
 70
     0
  3
Center (.5x) ___ _ ___ _ ___ _ ___ _ ___ _ ___
 72
    65
 73
     4
 40
28.575
 49
19.05
 74
     0
 49
-3.175
 74
     0
 49
3.175
 74
     0
 49
-3.175
 74
     0
  0
LTYPE
  5
100
330
5
100
AcDbSymbolTableRecord
100
AcDbLinetypeTableRecord
  2
PHANTOM2
 70
     0
  3
Phantom (0.5x) ___ _ _ ___ _ _ ___ _ _ ___ _ _
 72
    65
 73
     6
 40
31.75
 49
15.875
 74
     0
 49
-3.175
 74
     0
 49
3.175
 74
     0
 49
-3.175
 74
     0
 49
3.175
 74
     0
 49
-3.175
 74
     0
  0
ENDTAB
  0
TABLE
  2
LAYER
  5
2
102
{ACAD_XDICTIONARY
360
17A19
102
}
330
0
100
AcDbSymbolTable
 70
     7
  0
LAYER
  5
E
102
{ACAD_XDICTIONARY
360
18467
102
}
330
2
100
AcDbSymbolTableRecord
100
AcDbLayerTableRecord
  2
0
 70
     0
 62
     7
  6
CONTINUOUS
  0
LAYER
  5
29
102
{ACAD_XDICTIONARY
360
18469
102
}
330
2
100
AcDbSymbolTableRecord
100
AcDbLayerTableRecord
  2
1CENTER
 70
     0
 62
     7
  6
CENTER2
  0
LAYER
  5
31
102
{ACAD_XDICTIONARY
360
1846B
102
}
330
2
100
AcDbSymbolTableRecord
100
AcDbLayerTableRecord
  2
1TEXT
 70
     0
 62
     7
  6
CONTINUOUS
  0
LAYER
  5
101
102
{ACAD_XDICTIONARY
360
18475
102
}
330
2
100
AcDbSymbolTableRecord
100
AcDbLayerTableRecord
  2
1DIM
 70
     0
 62
     7
  6
CONTINUOUS
  0
LAYER
  5
103
102
{ACAD_XDICTIONARY
360
18479
102
}
330
2
100
AcDbSymbolTableRecord
100
AcDbLayerTableRecord
  2
1PHANTOM
 70
     0
 62
     7
  6
PHANTOM2
  0
LAYER
  5
25F
102
{ACAD_XDICTIONARY
360
1847D
102
}
330
2
100
AcDbSymbolTableRecord
100
AcDbLayerTableRecord
  2
01
 70
     0
 62
     1
  6
CONTINUOUS
  0
LAYER
  5
26D
102
{ACAD_XDICTIONARY
360
18499
102
}
330
2
100
AcDbSymbolTableRecord
100
AcDbLayerTableRecord
  2
1HATCH
 70
     0
 62
     7
  6
CONTINUOUS
  0
ENDTAB
  0
TABLE
  2
STYLE
  5
3
330
0
100
AcDbSymbolTable
 70
     1
  0
STYLE
  5
F
330
3
100
AcDbSymbolTableRecord
100
AcDbTextStyleTableRecord
  2
STANDARD
 70
     0
 40
0.0
 41
1.0
 50
0.0
 71
     0
 42
4.0
  3
txt.shx
  4
extfont.shx
  0
ENDTAB
  0
TABLE
  2
VIEW
  5
6
330
0
100
AcDbSymbolTable
 70
     0
  0
ENDTAB
  0
TABLE
  2
UCS
  5
7
330
0
100
AcDbSymbolTable
 70
     0
  0
ENDTAB
  0
TABLE
  2
APPID
  5
9
330
0
100
AcDbSymbolTable
 70
    16
  0
APPID
  5
10
330
9
100
AcDbSymbolTableRecord
100
AcDbRegAppTableRecord
  2
ACAD
 70
     0
  0
APPID
  5
21
330
9
100
AcDbSymbolTableRecord
100
AcDbRegAppTableRecord
  2
DRAWINGVARIABLESXDATA
 70
     0
  0
APPID
  5
64
330
9
100
AcDbSymbolTableRecord
100
AcDbRegAppTableRecord
  2
CONTENTTABDATA
 70
     0
  0
APPID
  5
65
330
9
100
AcDbSymbolTableRecord
100
AcDbRegAppTableRecord
  2
CONTENTCURRENTTAB
 70
     0
  0
APPID
  5
66
330
9
100
AcDbSymbolTableRecord
100
AcDbRegAppTableRecord
  2
CONTENTBLOCKDESCRIPTION
 70
     0
  0
APPID
  5
67
330
9
100
AcDbSymbolTableRecord
100
AcDbRegAppTableRecord
  2
CONTENTBLOCKICON
 70
     0
  0
APPID
  5
68
330
9
100
AcDbSymbolTableRecord
100
AcDbRegAppTableRecord
  2
CONTENTLONGBLOCKNAME
 70
     0
  0
APPID
  5
5A9
330
9
100
AcDbSymbolTableRecord
100
AcDbRegAppTableRecord
  2
ACAD_PSEXT
 70
     0
  0
APPID
  5
18AC
330
9
100
AcDbSymbolTableRecord
100
AcDbRegAppTableRecord
  2
ACAD_DSTYLE_DIMTEXT_FILL
 70
     0
  0
APPID
  5
18451
330
9
100
AcDbSymbolTableRecord
100
AcDbRegAppTableRecord
  2
ACAD_MLEADERVER
 70
     0
  0
APPID
  5
1895F
330
9
100
AcDbSymbolTableRecord
100
AcDbRegAppTableRecord
  2
ACAD_DSTYLE_DIMRADIAL_EXTE
 70
     0
  0
APPID
  5
19591
330
9
100
AcDbSymbolTableRecord
100
AcDbRegAppTableRecord
  2
ACAD_EXEMPT_FROM_CAD_STAND
 70
     0
  0
APPID
  5
19593
330
9
100
AcDbSymbolTableRecord
100
AcDbRegAppTableRecord
  2
ACAD_DSTYLE_DIMJAG
 70
     0
  0
APPID
  5
19594
330
9
100
AcDbSymbolTableRecord
100
AcDbRegAppTableRecord
  2
ACAD_DSTYLE_DIMTALN
 70
     0
  0
APPID
  5
19682
330
9
100
AcDbSymbolTableRecord
100
AcDbRegAppTableRecord
  2
ACADANNOTATIVE
 70
     0
  0
APPID
  5
19683
330
9
100
AcDbSymbolTableRecord
100
AcDbRegAppTableRecord
  2
ACDBBLOCKREPETAG
 70
     0
  0
ENDTAB
  0
TABLE
  2
DIMSTYLE
  5
A
330
0
100
AcDbSymbolTable
 70
     1
  0
DIMSTYLE
105
48
330
A
100
AcDbSymbolTableRecord
100
AcDbDimStyleTableRecord
  2
NEWX10
 70
     0
  3
 
  4

  5

  6
OPEN30
  7
OPEN30
 40
1.0
 41
2.0
 42
0.0
 43
7.0
 44
1.0
 45
0.0
 46
0.0
 47
0.0
 48
0.0
140
3.5
141
0.0
142
0.0
143
25.4
144
1.0
145
0.0
146
0.7
147
0.7
 71
     0
 72
     0
 73
     0
 74
     0
 75
     0
 76
     0
 77
     1
 78
     8
170
     0
171
     2
172
     1
173
     1
174
     0
175
     0
176
   256
177
   256
178
   201
179
     2
270
     2
271
     2
272
     4
273
     2
274
     2
340
F
275
     0
280
     0
281
     0
282
     0
283
     1
284
     8
285
     0
286
     0
287
     2
288
     0
  0
ENDTAB
  0
TABLE
  2
BLOCK_RECORD
  5
1
330
0
100
AcDbSymbolTable
 70
     8
  0
BLOCK_RECORD
  5
18
102
{ACAD_XDICTIONARY
360
6E9
102
}
330
1
100
AcDbSymbolTableRecord
100
AcDbBlockTableRecord
  2
*MODEL_SPACE
  0
BLOCK_RECORD
  5
15
102
{ACAD_XDICTIONARY
360
59B
102
}
330
1
100
AcDbSymbolTableRecord
100
AcDbBlockTableRecord
  2
*PAPER_SPACE
  0
BLOCK_RECORD
  5
42
330
1
100
AcDbSymbolTableRecord
100
AcDbBlockTableRecord
  2
_OPEN30
  0
BLOCK_RECORD
  5
196D3
330
1
100
AcDbSymbolTableRecord
100
AcDbBlockTableRecord
  2
A3WAKUKAWAJUN2017_HYOUDAI_
  0
BLOCK_RECORD
  5
1B389
330
1
100
AcDbSymbolTableRecord
100
AcDbBlockTableRecord
  2
*X27
  0
BLOCK_RECORD
  5
1B3D7
330
1
100
AcDbSymbolTableRecord
100
AcDbBlockTableRecord
  2
*X28
  0
BLOCK_RECORD
  5
1B429
330
1
100
AcDbSymbolTableRecord
100
AcDbBlockTableRecord
  2
*X29
  0
BLOCK_RECORD
  5
1B47A
330
1
100
AcDbSymbolTableRecord
100
AcDbBlockTableRecord
  2
*X30
  0
BLOCK_RECORD
  5
1B4B7
330
1
100
AcDbSymbolTableRecord
100
AcDbBlockTableRecord
  2
*X31
  0
BLOCK_RECORD
  5
1B4F7
330
1
100
AcDbSymbolTableRecord
100
AcDbBlockTableRecord
  2
*X32
  0
ENDTAB
  0
ENDSEC
  0
SECTION
  2
BLOCKS
  0
BLOCK
  5
19
330
18
100
AcDbEntity
  8
0
100
AcDbBlockBegin
  2
*MODEL_SPACE
 70
     0
 10
0.0
 20
0.0
 30
0.0
  3
*MODEL_SPACE
  1

  0
ENDBLK
  5
1A
330
18
100
AcDbEntity
  8
0
100
AcDbBlockEnd
  0
BLOCK
  5
16
330
15
100
AcDbEntity
 67
     1
  8
0
100
AcDbBlockBegin
  2
*PAPER_SPACE
 70
     0
 10
0.0
 20
0.0
 30
0.0
  3
*PAPER_SPACE
  1

  0
ENDBLK
  5
17
330
15
100
AcDbEntity
 67
     1
  8
0
100
AcDbBlockEnd
  0
BLOCK
  5
43
330
42
100
AcDbEntity
  8
0
100
AcDbBlockBegin
  2
_OPEN30
 70
     0
 10
0.0
 20
0.0
 30
0.0
  3
_OPEN30
  1

  0
LINE
  5
44
330
42
100
AcDbEntity
  8
0
  6
BYBLOCK
 62
     0
100
AcDbLine
 10
-1.0
 20
0.26794919
 30
0.0
 11
0.0
 21
0.0
 31
0.0
  0
LINE
  5
45
330
42
100
AcDbEntity
  8
0
  6
BYBLOCK
 62
     0
100
AcDbLine
 10
0.0
 20
0.0
 30
0.0
 11
-1.0
 21
-0.26794919
 31
0.0
  0
LINE
  5
46
330
42
100
AcDbEntity
  8
0
  6
BYBLOCK
 62
     0
100
AcDbLine
 10
0.0
 20
0.0
 30
0.0
 11
-1.0
 21
0.0
 31
0.0
  0
ENDBLK
  5
47
330
42
100
AcDbEntity
  8
0
100
AcDbBlockEnd
  0
BLOCK
  5
19DD2
330
196D3
100
AcDbEntity
  8
0
100
AcDbBlockBegin
  2
A3WAKUKAWAJUN2017_HYOUDAI_
 70
     0
 10
0.0
 20
0.0
 30
0.0
  3
A3WAKUKAWAJUN2017_HYOUDAI_
  1

  0
LINE
  5
196D5
330
196D3
100
AcDbEntity
  8
0
100
AcDbLine
 10
13.26299999998673
 20
-0.0001000000000317
 30
0.0
 11
9.236999999990758
 21
8.999899999990987
 31
0.0
1001
ACAD
1000
ASC_BOUNDS
1002
{
1070
    19
1005
19716
1002
}
  0
LINE
  5
196D6
330
196D3
100
AcDbEntity
  8
0
100
AcDbLine
 10
5.657999999994331
 20
0.9999999999989768
 30
0.0
 11
9.236999999990758
 21
8.999999999991019
 31
0.0
1001
ACAD
1000
ASC_BOUNDS
1002
{
1070
    19
1005
19716
1002
}
  0
LINE
  5
196D7
330
196D3
100
AcDbEntity
  8
0
100
AcDbLine
 10
18.59199999998134
 20
-0.2368999999997641
 30
0.0
 11
16.46099999998353
 21
5.432899999994561
 31
0.0
1001
ACAD
1000
ASC_BOUNDS
1002
{
1070
    19
1005
19717
1002
}
  0
LINE
  5
196D8
330
196D3
100
AcDbEntity
  8
0
100
AcDbLine
 10
18.59199999998134
 20
-0.2368999999997641
 30
0.0
 11
22.38199999997767
 21
8.763099999991255
 31
0.0
1001
ACAD
1000
ASC_BOUNDS
1002
{
1070
    19
1005
19717
1002
}
  0
LINE
  5
196D9
330
196D3
100
AcDbEntity
  8
0
100
AcDbLine
 10
14.32899999998563
 20
-0.2368999999997641
 30
0.0
 11
16.46099999998353
 21
5.432899999994561
 31
0.0
1001
ACAD
1000
ASC_BOUNDS
1002
{
1070
    19
1005
19717
1002
}
  0
LINE
  5
196DA
330
196D3
100
AcDbEntity
  8
0
100
AcDbLine
 10
14.32899999998563
 20
-0.2368999999997641
 30
0.0
 11
10.53899999998941
 21
8.763099999991255
 31
0.0
1001
ACAD
1000
ASC_BOUNDS
1002
{
1070
    19
1005
19717
1002
}
  0
LINE
  5
196DB
330
196D3
100
AcDbEntity
  8
0
100
AcDbLine
 10
19.53899999998043
 20
-0.0001000000000317
 30
0.0
 11
23.56599999997638
 21
8.999899999990987
 31
0.0
1001
ACAD
1000
ASC_BOUNDS
1002
{
1070
    19
1005
19718
1002
}
  0
LINE
  5
196DC
330
196D3
100
AcDbEntity
  8
0
100
AcDbLine
 10
26.97358892824991
 20
1.383099999991202
 30
0.0
 11
23.56599999997638
 21
8.999899999990987
 31
0.0
1001
ACAD
1000
ASC_BOUNDS
1002
{
1070
    19
1005
19718
1002
}
  0
LINE
  5
196DD
330
196D3
100
AcDbEntity
  8
0
100
AcDbLine
 10
5.657999999994331
 20
0.9999999999989768
 30
0.0
 11
3.181999999996833
 21
4.668599999995308
 31
0.0
1001
ACAD
1000
ASC_BOUNDS
1002
{
1070
    19
1005
19716
1002
}
  0
LINE
  5
196DE
330
196D3
100
AcDbEntity
  8
0
100
AcDbLine
 10
4.617999999995391
 20
-0.0001000000000317
 30
0.0
 11
1.420999999998571
 21
4.736799999995242
 31
0.0
1001
ACAD
1000
ASC_BOUNDS
1002
{
1070
    19
1005
19716
1002
}
  0
LINE
  5
196DF
330
196D3
100
AcDbEntity
  8
0
100
AcDbLine
 10
1.420999999998571
 20
8.763099999991255
 30
0.0
 11
1.420999999998571
 21
0.0
 31
0.0
1001
ACAD
1000
ASC_BOUNDS
1002
{
1070
    19
1005
1971B
1002
}
  0
LINE
  5
196E0
330
196D3
100
AcDbEntity
  8
0
100
AcDbLine
 10
0.0
 20
8.763099999991255
 30
0.0
 11
0.0
 21
0.0
 31
0.0
1001
ACAD
1000
ASC_BOUNDS
1002
{
1070
    19
1005
1971B
1002
}
  0
LINE
  5
196E1
330
196D3
100
AcDbEntity
  8
0
100
AcDbLine
 10
6.766999999993232
 20
-0.0001000000000317
 30
0.0
 11
7.826999999992154
 21
2.368399999997621
 31
0.0
1001
ACAD
1000
ASC_BOUNDS
1002
{
1070
    19
1005
19716
1002
}
  0
LINE
  5
196E2
330
196D3
100
AcDbEntity
  8
0
100
AcDbLine
 10
0.0
 20
0.0
 30
0.0
 11
1.420999999998571
 21
0.0
 31
0.0
1001
ACAD
1000
ASC_BOUNDS
1002
{
1070
    19
1005
1971B
1002
}
  0
LINE
  5
196E3
330
196D3
100
AcDbEntity
  8
0
100
AcDbLine
 10
4.617999999995391
 20
0.0
 30
0.0
 11
6.766999999993232
 21
0.0
 31
0.0
1001
ACAD
1000
ASC_BOUNDS
1002
{
1070
    19
1005
19716
1002
}
  0
LINE
  5
196E4
330
196D3
100
AcDbEntity
  8
0
100
AcDbLine
 10
11.70599999998831
 20
-0.0001000000000317
 30
0.0
 11
10.64699999998936
 21
2.368399999997621
 31
0.0
1001
ACAD
1000
ASC_BOUNDS
1002
{
1070
    19
1005
19716
1002
}
  0
LINE
  5
196E5
330
196D3
100
AcDbEntity
  8
0
100
AcDbLine
 10
7.826999999992154
 20
2.368399999997621
 30
0.0
 11
10.64699999998936
 21
2.368399999997621
 31
0.0
1001
ACAD
1000
ASC_BOUNDS
1002
{
1070
    19
1005
19716
1002
}
  0
LINE
  5
196E6
330
196D3
100
AcDbEntity
  8
0
100
AcDbLine
 10
11.70599999998831
 20
0.0
 30
0.0
 11
13.26299999998673
 21
0.0
 31
0.0
1001
ACAD
1000
ASC_BOUNDS
1002
{
1070
    19
1005
19716
1002
}
  0
LINE
  5
196E7
330
196D3
100
AcDbEntity
  8
0
100
AcDbLine
 10
22.15599999997789
 20
2.368399999997621
 30
0.0
 11
24.97599999997499
 21
2.368399999997621
 31
0.0
1001
ACAD
1000
ASC_BOUNDS
1002
{
1070
    19
1005
19718
1002
}
  0
LINE
  5
196E8
330
196D3
100
AcDbEntity
  8
0
100
AcDbLine
 10
19.53899999998043
 20
0.0
 30
0.0
 11
21.09599999997886
 21
0.0
 31
0.0
1001
ACAD
1000
ASC_BOUNDS
1002
{
1070
    19
1005
19718
1002
}
  0
LINE
  5
196E9
330
196D3
100
AcDbEntity
  8
0
100
AcDbLine
 10
21.09599999997886
 20
-0.0001000000000317
 30
0.0
 11
22.15599999997789
 21
2.368399999997621
 31
0.0
1001
ACAD
1000
ASC_BOUNDS
1002
{
1070
    19
1005
19718
1002
}
  0
LINE
  5
196EA
330
196D3
100
AcDbEntity
  8
0
100
AcDbLine
 10
26.02015566812236
 20
0.0330999999912365
 30
0.0
 11
24.97599999997499
 21
2.368399999997621
 31
0.0
1001
ACAD
1000
ASC_BOUNDS
1002
{
1070
    19
1005
19718
1002
}
  0
LINE
  5
196EB
330
196D3
100
AcDbEntity
  8
0
100
AcDbLine
 10
14.32399999998563
 20
3.315799999996671
 30
0.0
 11
16.46099999998353
 21
8.999899999990987
 31
0.0
1001
ACAD
1000
ASC_BOUNDS
1002
{
1070
    19
1005
19717
1002
}
  0
LINE
  5
196EC
330
196D3
100
AcDbEntity
  8
0
100
AcDbLine
 10
6.432999999993513
 20
8.763099999991255
 30
0.0
 11
3.181999999996833
 21
4.668599999995308
 31
0.0
1001
ACAD
1000
ASC_BOUNDS
1002
{
1070
    19
1005
19716
1002
}
  0
LINE
  5
196ED
330
196D3
100
AcDbEntity
  8
0
100
AcDbLine
 10
4.617999999995391
 20
8.763099999991255
 30
0.0
 11
1.420999999998571
 21
4.736799999995242
 31
0.0
1001
ACAD
1000
ASC_BOUNDS
1002
{
1070
    19
1005
19716
1002
}
  0
LINE
  5
196EE
330
196D3
100
AcDbEntity
  8
0
100
AcDbLine
 10
0.0
 20
8.763099999991255
 30
0.0
 11
1.420999999998571
 21
8.763099999991255
 31
0.0
1001
ACAD
1000
ASC_BOUNDS
1002
{
1070
    19
1005
1971B
1002
}
  0
LINE
  5
196EF
330
196D3
100
AcDbEntity
  8
0
100
AcDbLine
 10
4.617999999995391
 20
8.763099999991255
 30
0.0
 11
6.432999999993513
 21
8.763099999991255
 31
0.0
1001
ACAD
1000
ASC_BOUNDS
1002
{
1070
    19
1005
19716
1002
}
  0
LINE
  5
196F0
330
196D3
100
AcDbEntity
  8
0
100
AcDbLine
 10
14.32399999998563
 20
3.315799999996671
 30
0.0
 11
12.02999999998792
 21
8.763099999991255
 31
0.0
1001
ACAD
1000
ASC_BOUNDS
1002
{
1070
    19
1005
19717
1002
}
  0
LINE
  5
196F1
330
196D3
100
AcDbEntity
  8
0
100
AcDbLine
 10
10.06399999998996
 20
3.670999999996297
 30
0.0
 11
9.236999999990758
 21
5.5200999999945
 31
0.0
1001
ACAD
1000
ASC_BOUNDS
1002
{
1070
    19
1005
19716
1002
}
  0
LINE
  5
196F2
330
196D3
100
AcDbEntity
  8
0
100
AcDbLine
 10
8.409999999991555
 20
3.670999999996297
 30
0.0
 11
9.236999999990758
 21
5.5200999999945
 31
0.0
1001
ACAD
1000
ASC_BOUNDS
1002
{
1070
    19
1005
19716
1002
}
  0
LINE
  5
196F3
330
196D3
100
AcDbEntity
  8
0
100
AcDbLine
 10
8.409999999991555
 20
3.670999999996297
 30
0.0
 11
10.06399999998996
 21
3.670999999996297
 31
0.0
1001
ACAD
1000
ASC_BOUNDS
1002
{
1070
    19
1005
19716
1002
}
  0
LINE
  5
196F4
330
196D3
100
AcDbEntity
  8
0
100
AcDbLine
 10
10.53899999998941
 20
8.763099999991255
 30
0.0
 11
12.02999999998792
 21
8.763099999991255
 31
0.0
1001
ACAD
1000
ASC_BOUNDS
1002
{
1070
    19
1005
19717
1002
}
  0
LINE
  5
196F5
330
196D3
100
AcDbEntity
  8
0
100
AcDbLine
 10
22.7389999999773
 20
3.670999999996297
 30
0.0
 11
23.56599999997638
 21
5.5200999999945
 31
0.0
1001
ACAD
1000
ASC_BOUNDS
1002
{
1070
    19
1005
19718
1002
}
  0
LINE
  5
196F6
330
196D3
100
AcDbEntity
  8
0
100
AcDbLine
 10
22.7389999999773
 20
3.670999999996297
 30
0.0
 11
24.39299999997559
 21
3.670999999996297
 31
0.0
1001
ACAD
1000
ASC_BOUNDS
1002
{
1070
    19
1005
19718
1002
}
  0
LINE
  5
196F7
330
196D3
100
AcDbEntity
  8
0
100
AcDbLine
 10
18.59799999998143
 20
3.315799999996671
 30
0.0
 11
20.89099999997916
 21
8.763099999991255
 31
0.0
1001
ACAD
1000
ASC_BOUNDS
1002
{
1070
    19
1005
19717
1002
}
  0
LINE
  5
196F8
330
196D3
100
AcDbEntity
  8
0
100
AcDbLine
 10
18.59799999998143
 20
3.315799999996671
 30
0.0
 11
16.46099999998353
 21
8.999899999990987
 31
0.0
1001
ACAD
1000
ASC_BOUNDS
1002
{
1070
    19
1005
19717
1002
}
  0
LINE
  5
196F9
330
196D3
100
AcDbEntity
  8
0
100
AcDbLine
 10
20.89099999997916
 20
8.763099999991255
 30
0.0
 11
22.38199999997767
 21
8.763099999991255
 31
0.0
1001
ACAD
1000
ASC_BOUNDS
1002
{
1070
    19
1005
19717
1002
}
  0
LINE
  5
196FA
330
196D3
100
AcDbEntity
  8
0
100
AcDbLine
 10
24.39299999997559
 20
3.670999999996297
 30
0.0
 11
23.56599999997638
 21
5.5200999999945
 31
0.0
1001
ACAD
1000
ASC_BOUNDS
1002
{
1070
    19
1005
19718
1002
}
  0
LINE
  5
196FB
330
196D3
100
AcDbEntity
  8
0
100
AcDbLine
 10
44.99999999995498
 20
-0.2368999999997641
 30
0.0
 11
40.02599999995994
 21
5.341799999994635
 31
0.0
1001
ACAD
1000
ASC_BOUNDS
1002
{
1070
    19
1005
1971A
1002
}
  0
LINE
  5
196FC
330
196D3
100
AcDbEntity
  8
0
100
AcDbLine
 10
40.02599999995994
 20
5.341799999994635
 30
0.0
 11
40.02599999995994
 21
0.0
 31
0.0
1001
ACAD
1000
ASC_BOUNDS
1002
{
1070
    19
1005
1971A
1002
}
  0
LINE
  5
196FD
330
196D3
100
AcDbEntity
  8
0
100
AcDbLine
 10
38.60499999996136
 20
8.999999999991019
 30
0.0
 11
38.60499999996136
 21
0.0
 31
0.0
1001
ACAD
1000
ASC_BOUNDS
1002
{
1070
    19
1005
1971A
1002
}
  0
LINE
  5
196FE
330
196D3
100
AcDbEntity
  8
0
100
AcDbLine
 10
44.99999999995498
 20
8.763099999991255
 30
0.0
 11
44.99999999995498
 21
-0.2368999999997641
 31
0.0
1001
ACAD
1000
ASC_BOUNDS
1002
{
1070
    19
1005
1971A
1002
}
  0
LINE
  5
196FF
330
196D3
100
AcDbEntity
  8
0
100
AcDbLine
 10
38.60499999996136
 20
0.0
 30
0.0
 11
40.02599999995994
 21
0.0
 31
0.0
1001
ACAD
1000
ASC_BOUNDS
1002
{
1070
    19
1005
1971A
1002
}
  0
LINE
  5
19700
330
196D3
100
AcDbEntity
  8
0
100
AcDbLine
 10
43.57899999995641
 20
3.421199999996588
 30
0.0
 11
38.60499999996136
 21
8.999899999990987
 31
0.0
1001
ACAD
1000
ASC_BOUNDS
1002
{
1070
    19
1005
1971A
1002
}
  0
LINE
  5
19701
330
196D3
100
AcDbEntity
  8
0
100
AcDbLine
 10
43.57899999995641
 20
8.763099999991255
 30
0.0
 11
43.57899999995641
 21
3.421199999996588
 31
0.0
1001
ACAD
1000
ASC_BOUNDS
1002
{
1070
    19
1005
1971A
1002
}
  0
LINE
  5
19702
330
196D3
100
AcDbEntity
  8
0
100
AcDbLine
 10
43.57899999995641
 20
8.763099999991255
 30
0.0
 11
44.99999999995498
 21
8.763099999991255
 31
0.0
1001
ACAD
1000
ASC_BOUNDS
1002
{
1070
    19
1005
1971A
1002
}
  0
LINE
  5
19703
330
196D3
100
AcDbEntity
  8
0
100
AcDbLine
 10
37.67199999996831
 20
8.763099999991255
 30
0.0
 11
36.23199999996837
 21
8.763099999991255
 31
0.0
  0
LINE
  5
19704
330
196D3
100
AcDbEntity
  8
0
100
AcDbLine
 10
31.64199999996833
 20
8.763099999991255
 30
0.0
 11
31.64199999996833
 21
2.481619422925121
 31
0.0
  0
LINE
  5
19705
330
196D3
100
AcDbEntity
  8
0
100
AcDbLine
 10
37.67199999996831
 20
8.763099999991255
 30
0.0
 11
37.67199999996831
 21
2.481619422925121
 31
0.0
  0
LINE
  5
19706
330
196D3
100
AcDbEntity
  8
0
100
AcDbLine
 10
36.23199999996837
 20
8.763099999991255
 30
0.0
 11
36.23199999996837
 21
2.481619422925064
 31
0.0
  0
LINE
  5
19707
330
196D3
100
AcDbEntity
  8
0
100
AcDbLine
 10
33.08199999996839
 20
8.763099999991255
 30
0.0
 11
33.08199999996839
 21
2.481619422925121
 31
0.0
  0
ARC
  5
19708
330
196D3
100
AcDbEntity
  8
0
100
AcDbCircle
 10
34.65699999996832
 20
3.183099999991214
 30
0.0
 40
3.420000000000007
100
AcDbArc
 50
240.0000000000255
 51
299.9999999999766
  0
ARC
  5
19709
330
196D3
100
AcDbEntity
  8
0
100
AcDbCircle
 10
34.65699999996832
 20
3.183099999991214
 30
0.0
 40
1.97999999999999
100
AcDbArc
 50
240.000000000026
 51
299.9999999999703
  0
LINE
  5
1970A
330
196D3
100
AcDbEntity
  8
0
100
AcDbLine
 10
33.08199999996828
 20
8.763099999991255
 30
0.0
 11
31.64199999996833
 21
8.763099999991255
 31
0.0
  0
ARC
  5
1970B
330
196D3
100
AcDbEntity
  8
0
100
AcDbCircle
 10
35.06199999996829
 20
2.481619422925064
 30
0.0
 40
1.17
100
AcDbArc
 50
299.9999999999699
 51
0.0
  0
ARC
  5
1970C
330
196D3
100
AcDbEntity
  8
0
100
AcDbCircle
 10
34.25199999996835
 20
2.481619422925121
 30
0.0
 40
1.17
100
AcDbArc
 50
180.0
 51
240.0000000000238
  0
ARC
  5
1970D
330
196D3
100
AcDbEntity
  8
0
100
AcDbCircle
 10
35.06199999996841
 20
2.481619422925121
 30
0.0
 40
2.61
100
AcDbArc
 50
299.9999999999756
 51
0.0
  0
ARC
  5
1970E
330
196D3
100
AcDbEntity
  8
0
100
AcDbCircle
 10
34.25199999996835
 20
2.481619422925121
 30
0.0
 40
2.61
100
AcDbArc
 50
180.0
 51
240.0000000000244
  0
LINE
  5
1970F
330
196D3
100
AcDbEntity
  8
0
100
AcDbLine
 10
29.30199999996933
 20
8.763099999991255
 30
0.0
 11
30.74199999996927
 21
8.763099999991255
 31
0.0
1001
ACAD
1000
ASC_BOUNDS
1002
{
1070
    19
1005
19718
1002
}
  0
LINE
  5
19710
330
196D3
100
AcDbEntity
  8
0
100
AcDbLine
 10
30.74199999996927
 20
8.763099999991255
 30
0.0
 11
30.74199999996927
 21
2.373099999991211
 31
0.0
1001
ACAD
1000
ASC_BOUNDS
1002
{
1070
    19
1005
19718
1002
}
  0
LINE
  5
19711
330
196D3
100
AcDbEntity
  8
0
100
AcDbLine
 10
26.02015566812236
 20
0.0330999999912365
 30
0.0
 11
28.40199999996923
 21
0.0330999999912365
 31
0.0
1001
ACAD
1000
ASC_BOUNDS
1002
{
1070
    19
1005
19718
1002
}
  0
LINE
  5
19712
330
196D3
100
AcDbEntity
  8
0
100
AcDbLine
 10
29.30199999996933
 20
8.763099999991255
 30
0.0
 11
29.30199999996933
 21
2.283099999991236
 31
0.0
1001
ACAD
1000
ASC_BOUNDS
1002
{
1070
    19
1005
19718
1002
}
  0
LINE
  5
19713
330
196D3
100
AcDbEntity
  8
0
100
AcDbLine
 10
26.97358892824991
 20
1.383099999991202
 30
0.0
 11
28.40199999996923
 21
1.383099999991202
 31
0.0
1001
ACAD
1000
ASC_BOUNDS
1002
{
1070
    19
1005
19718
1002
}
  0
ARC
  5
19714
330
196D3
100
AcDbEntity
  8
0
100
AcDbCircle
 10
28.40199999996923
 20
2.283099999991236
 30
0.0
 40
0.9
100
AcDbArc
 50
270.0
 51
0.0
1001
ACAD
1000
ASC_BOUNDS
1002
{
1070
    19
1005
19718
1002
}
  0
ARC
  5
19715
330
196D3
100
AcDbEntity
  8
0
100
AcDbCircle
 10
28.40199999996923
 20
2.373099999991211
 30
0.0
 40
2.34
100
AcDbArc
 50
270.0
 51
0.0
1001
ACAD
1000
ASC_BOUNDS
1002
{
1070
    19
1005
19718
1002
}
  0
INSERT
  5
19716
330
196D3
100
AcDbEntity
  8
0
100
AcDbBlockReference
  2
*X27
 10
0.0
 20
0.0
 30
0.0
1001
ACAD
1000
HATCH
1002
{
1070
    19
1000
ANSI37
1040
0.15
1040
0.0
1000
ASC_BOUNDS
1070
     2
1070
     2
1070
    12
1005
196D5
1005
196D6
1005
196DD
1005
196EC
1005
196EF
1005
196ED
1005
196DE
1005
196E3
1005
196E1
1005
196E5
1005
196E4
1005
196E6
1070
     2
1070
     3
1005
196F1
1005
196F3
1005
196F2
1000
ASC_SEEDPOINT
1011
3.614004224891801
1021
2.996669441146025
1031
0.0
1000
R14_HATCH_DATA
1000
19716
1011
1.0
1021
0.0
1031
0.0
1011
0.0
1021
1.0
1031
0.0
1011
0.0
1021
0.0
1031
1.0
1040
0.0
1010
0.0
1020
0.0
1030
1.0
1000
ANSI37
1070
     0
1070
     1
1071
        2
1071
        7
1070
     0
1070
     1
1071
       17
1040
13.26299999998673
1040
-0.0001000000000317
1040
9.236999999990758
1040
8.999899999990987
1040
9.236999999990758
1040
8.999999999991019
1040
5.657999999994331
1040
0.9999999999989768
1040
3.181999999996833
1040
4.668599999995308
1040
6.432999999993513
1040
8.763099999991255
1040
4.617999999995391
1040
8.763099999991255
1040
1.420999999998571
1040
4.736799999995242
1040
4.617999999995391
1040
-0.0001000000000317
1040
4.617999999995391
1040
0.0
1040
6.766999999993232
1040
0.0
1040
6.766999999993232
1040
-0.0001000000000317
1040
7.826999999992154
1040
2.368399999997621
1040
10.64699999998936
1040
2.368399999997621
1040
11.70599999998831
1040
-0.0001000000000317
1040
11.70599999998831
1040
0.0
1040
13.26299999998673
1040
0.0
1071
       12
1005
196D5
1005
196D6
1005
196DD
1005
196EC
1005
196EF
1005
196ED
1005
196DE
1005
196E3
1005
196E1
1005
196E5
1005
196E4
1005
196E6
1071
       22
1070
     0
1070
     1
1071
        3
1040
9.236999999990758
1040
5.5200999999945
1040
10.06399999998996
1040
3.670999999996297
1040
8.409999999991555
1040
3.670999999996297
1071
        3
1005
196F1
1005
196F3
1005
196F2
1070
     0
1070
     1
1040
0.0
1040
0.15
1070
     0
1070
     2
1040
0.7853981633974483
1040
49.29960901727088
1040
-10.17736998311392
1040
-0.3367596045400932
1040
0.3367596045400932
1070
     0
1040
2.356194490192345
1040
49.29960901727088
1040
-10.17736998311392
1040
-0.3367596045400932
1040
-0.3367596045400932
1070
     0
1040
0.0110235143455945
1071
        2
1040
3.614004224891801
1040
2.996669441146025
1040
0.0
1040
3.614004224891801
1040
2.996669441146025
1040
0.0
1002
}
  0
INSERT
  5
19717
330
196D3
100
AcDbEntity
  8
0
100
AcDbBlockReference
  2
*X28
 10
0.0
 20
0.0
 30
0.0
1001
ACAD
1000
HATCH
1002
{
1070
    19
1000
ANSI37
1040
0.15
1040
0.0
1000
ASC_BOUNDS
1070
     1
1070
     2
1070
    10
1005
196D7
1005
196D8
1005
196F9
1005
196F7
1005
196F8
1005
196EB
1005
196F0
1005
196F4
1005
196DA
1005
196D9
1000
ASC_SEEDPOINT
1011
14.73245321214324
1021
2.798246178283421
1031
0.0
1000
R14_HATCH_DATA
1000
19717
1011
1.0
1021
0.0
1031
0.0
1011
0.0
1021
1.0
1031
0.0
1011
0.0
1021
0.0
1031
1.0
1040
0.0
1010
0.0
1020
0.0
1030
1.0
1000
ANSI37
1070
     0
1070
     1
1071
        1
1071
        7
1070
     0
1070
     1
1071
       10
1040
16.46099999998353
1040
5.432899999994561
1040
18.59199999998134
1040
-0.2368999999997641
1040
22.38199999997767
1040
8.763099999991255
1040
20.89099999997916
1040
8.763099999991255
1040
18.59799999998143
1040
3.315799999996671
1040
16.46099999998353
1040
8.999899999990987
1040
14.32399999998563
1040
3.315799999996671
1040
12.02999999998792
1040
8.763099999991255
1040
10.53899999998941
1040
8.763099999991255
1040
14.32899999998563
1040
-0.2368999999997641
1071
       10
1005
196D7
1005
196D8
1005
196F9
1005
196F7
1005
196F8
1005
196EB
1005
196F0
1005
196F4
1005
196DA
1005
196D9
1070
     0
1070
     1
1040
0.0
1040
0.15
1070
     0
1070
     2
1040
0.7853981633974483
1040
49.29960901727088
1040
-10.17736998311392
1040
-0.3367596045400932
1040
0.3367596045400932
1070
     0
1040
2.356194490192345
1040
49.29960901727088
1040
-10.17736998311392
1040
-0.3367596045400932
1040
-0.3367596045400932
1070
     0
1040
0.0110235143455945
1071
        1
1040
14.73245321214324
1040
2.798246178283421
1040
0.0
1002
}
  0
INSERT
  5
19718
330
196D3
100
AcDbEntity
  8
0
100
AcDbBlockReference
  2
*X29
 10
0.0
 20
0.0
 30
0.0
1001
ACAD
1000
HATCH
1002
{
1070
    19
1000
ANSI37
1040
0.15
1040
0.0
1000
ASC_BOUNDS
1070
     2
1070
     2
1070
    13
1005
196DB
1005
196E8
1005
196E9
1005
196E7
1005
196EA
1005
19711
1005
19715
1005
19710
1005
1970F
1005
19712
1005
19714
1005
19713
1005
196DC
1070
     2
1070
     3
1005
196F5
1005
196FA
1005
196F6
1000
ASC_SEEDPOINT
1011
21.97929957367762
1021
3.294304244259308
1031
0.0
1000
R14_HATCH_DATA
1000
19718
1011
1.0
1021
0.0
1031
0.0
1011
0.0
1021
1.0
1031
0.0
1011
0.0
1021
0.0
1031
1.0
1040
0.0
1010
0.0
1020
0.0
1030
1.0
1000
ANSI37
1070
     0
1070
     1
1071
        2
1071
        7
1070
     1
1070
     1
1071
       15
1040
23.56599999997638
1040
8.999899999990987
1040
0.0
1040
19.53899999998043
1040
-0.0001000000000317
1040
0.0
1040
19.53899999998043
1040
0.0
1040
0.0
1040
21.09599999997886
1040
0.0
1040
0.0
1040
21.09599999997886
1040
-0.0001000000000317
1040
0.0
1040
22.15599999997789
1040
2.368399999997621
1040
0.0
1040
24.97599999997499
1040
2.368399999997621
1040
0.0
1040
26.02015566812236
1040
0.0330999999912365
1040
0.0
1040
28.40199999996923
1040
0.0330999999912365
1040
0.414213562373095
1040
30.74199999996923
1040
2.373099999991211
1040
0.0
1040
30.74199999996927
1040
8.763099999991255
1040
0.0
1040
29.30199999996933
1040
8.763099999991255
1040
0.0
1040
29.30199999996933
1040
2.283099999991236
1040
-0.414213562373095
1040
28.40199999996923
1040
1.383099999991237
1040
0.0
1040
26.97358892824991
1040
1.383099999991202
1040
0.0
1071
       13
1005
196DB
1005
196E8
1005
196E9
1005
196E7
1005
196EA
1005
19711
1005
19715
1005
19710
1005
1970F
1005
19712
1005
19714
1005
19713
1005
196DC
1071
       22
1070
     0
1070
     1
1071
        3
1040
22.7389999999773
1040
3.670999999996297
1040
23.56599999997638
1040
5.5200999999945
1040
24.39299999997559
1040
3.670999999996297
1071
        3
1005
196F5
1005
196FA
1005
196F6
1070
     0
1070
     1
1040
0.0
1040
0.15
1070
     0
1070
     2
1040
0.7853981633974483
1040
49.29960901727088
1040
-10.17736998311392
1040
-0.3367596045400932
1040
0.3367596045400932
1070
     0
1040
2.356194490192345
1040
49.29960901727088
1040
-10.17736998311392
1040
-0.3367596045400932
1040
-0.3367596045400932
1070
     0
1040
0.0110235143455945
1071
        2
1040
21.97929957367762
1040
3.294304244259308
1040
0.0
1040
21.97929957367762
1040
3.294304244259308
1040
0.0
1002
}
  0
INSERT
  5
19719
330
196D3
100
AcDbEntity
  8
0
100
AcDbBlockReference
  2
*X30
 10
0.0
 20
0.0
 30
0.0
1001
ACAD
1000
HATCH
1002
{
1070
    19
1000
ANSI37
1040
0.15
1040
0.0
1000
R14_HATCH_DATA
1000
19719
1011
1.0
1021
0.0
1031
0.0
1011
0.0
1021
1.0
1031
0.0
1011
0.0
1021
0.0
1031
1.0
1040
0.0
1010
0.0
1020
0.0
1030
1.0
1000
ANSI37
1070
     0
1070
     1
1071
        1
1071
        7
1070
     1
1070
     1
1071
       12
1040
31.64199999996833
1040
2.481619422925121
1040
0.2679491924310942
1040
32.94699999997067
1040
0.2212931190493919
1040
0.2679491924301353
1040
36.36699999995983
1040
0.2212931190459813
1040
0.2679491924321411
1040
37.67199999996831
1040
2.481619422928361
1040
0.0
1040
37.67199999996831
1040
8.763099999991255
1040
0.0
1040
36.23199999996837
1040
8.763099999991255
1040
0.0
1040
36.23199999996837
1040
2.481619422925064
1040
-0.2679491924310291
1040
35.64699999996708
1040
1.468369700498386
1040
-0.267949192430519
1040
33.66699999997093
1040
1.468369700497703
1040
-0.267949192431809
1040
33.08199999996839
1040
2.481619422926997
1040
0.0
1040
33.08199999996839
1040
8.763099999991255
1040
0.0
1040
31.64199999996833
1040
8.763099999991255
1040
0.0
1071
        0
1070
     0
1070
     1
1040
0.0
1040
0.15
1070
     0
1070
     2
1040
0.7853981633974483
1040
49.29960901727088
1040
-10.17736998311392
1040
-0.3367596045400932
1040
0.3367596045400932
1070
     0
1040
2.356194490192345
1040
49.29960901727088
1040
-10.17736998311392
1040
-0.3367596045400932
1040
-0.3367596045400932
1070
     0
1040
0.0110235143455945
1071
        1
1040
32.30357378967278
1040
3.988785755459219
1040
0.0
1002
}
  0
INSERT
  5
1971A
330
196D3
100
AcDbEntity
  8
0
100
AcDbBlockReference
  2
*X31
 10
0.0
 20
0.0
 30
0.0
1001
ACAD
1000
HATCH
1002
{
1070
    19
1000
ANSI37
1040
0.15
1040
0.0
1000
ASC_BOUNDS
1070
     1
1070
     2
1070
     8
1005
196FB
1005
196FE
1005
19702
1005
19701
1005
19700
1005
196FD
1005
196FF
1005
196FC
1000
ASC_SEEDPOINT
1011
39.74896370716704
1021
4.484843821435049
1031
0.0
1000
R14_HATCH_DATA
1000
1971A
1011
1.0
1021
0.0
1031
0.0
1011
0.0
1021
1.0
1031
0.0
1011
0.0
1021
0.0
1031
1.0
1040
0.0
1010
0.0
1020
0.0
1030
1.0
1000
ANSI37
1070
     0
1070
     1
1071
        1
1071
        7
1070
     0
1070
     1
1071
        9
1040
40.02599999995994
1040
5.341799999994635
1040
44.99999999995498
1040
-0.2368999999997641
1040
44.99999999995498
1040
8.763099999991255
1040
43.57899999995641
1040
8.763099999991255
1040
43.57899999995641
1040
3.421199999996588
1040
38.60499999996136
1040
8.999899999990987
1040
38.60499999996136
1040
8.999999999991019
1040
38.60499999996136
1040
0.0
1040
40.02599999995994
1040
0.0
1071
        8
1005
196FB
1005
196FE
1005
19702
1005
19701
1005
19700
1005
196FD
1005
196FF
1005
196FC
1070
     0
1070
     1
1040
0.0
1040
0.15
1070
     0
1070
     2
1040
0.7853981633974483
1040
49.29960901727088
1040
-10.17736998311392
1040
-0.3367596045400932
1040
0.3367596045400932
1070
     0
1040
2.356194490192345
1040
49.29960901727088
1040
-10.17736998311392
1040
-0.3367596045400932
1040
-0.3367596045400932
1070
     0
1040
0.0110235143455945
1071
        1
1040
39.74896370716704
1040
4.484843821435049
1040
0.0
1002
}
  0
INSERT
  5
1971B
330
196D3
100
AcDbEntity
  8
0
100
AcDbBlockReference
  2
*X32
 10
0.0
 20
0.0
 30
0.0
1001
ACAD
1000
HATCH
1002
{
1070
    19
1000
ANSI37
1040
0.15
1040
0.0
1000
ASC_BOUNDS
1070
     1
1070
     2
1070
     4
1005
196DF
1005
196EE
1005
196E0
1005
196E2
1000
ASC_SEEDPOINT
1011
1.079051535452663
1021
4.148538732891836
1031
0.0
1000
R14_HATCH_DATA
1000
1971B
1011
1.0
1021
0.0
1031
0.0
1011
0.0
1021
1.0
1031
0.0
1011
0.0
1021
0.0
1031
1.0
1040
0.0
1010
0.0
1020
0.0
1030
1.0
1000
ANSI37
1070
     0
1070
     1
1071
        1
1071
        7
1070
     0
1070
     1
1071
        4
1040
1.420999999998571
1040
0.0
1040
1.420999999998571
1040
8.763099999991255
1040
0.0
1040
8.763099999991255
1040
0.0
1040
0.0
1071
        4
1005
196DF
1005
196EE
1005
196E0
1005
196E2
1070
     0
1070
     1
1040
0.0
1040
0.15
1070
     0
1070
     2
1040
0.7853981633974483
1040
49.29960901727088
1040
-10.17736998311392
1040
-0.3367596045400932
1040
0.3367596045400932
1070
     0
1040
2.356194490192345
1040
49.29960901727088
1040
-10.17736998311392
1040
-0.3367596045400932
1040
-0.3367596045400932
1070
     0
1040
0.0053004257112761
1071
        1
1040
1.079051535452663
1040
4.148538732891836
1040
0.0
1002
}
  0
ENDBLK
  5
19DD3
330
196D3
100
AcDbEntity
  8
0
100
AcDbBlockEnd
  0
BLOCK
  5
1B517
330
1B389
100
AcDbEntity
  8
0
100
AcDbBlockBegin
  2
*X27
 70
     1
 10
0.0
 20
0.0
 30
0.0
  3
*X27
  1

  0
LINE
  5
1B38A
330
1B389
100
AcDbEntity
  8
0
  6
CONTINUOUS
100
AcDbLine
 10
3.418023043697893
 20
7.251849696850613
 30
0.0
 11
4.929273346838536
 21
8.763099999991255
 31
0.0
  0
LINE
  5
1B38B
330
1B389
100
AcDbEntity
  8
0
  6
CONTINUOUS
100
AcDbLine
 10
1.483656411257782
 20
4.643963855330318
 30
0.0
 11
5.60279255591872
 21
8.763099999991255
 31
0.0
  0
LINE
  5
1B38C
330
1B389
100
AcDbEntity
  8
0
  6
CONTINUOUS
100
AcDbLine
 10
1.755053947328235
 20
4.241842182320584
 30
0.0
 11
6.276311764998907
 21
8.763099999991255
 31
0.0
  0
LINE
  5
1B38D
330
1B389
100
AcDbEntity
  8
0
  6
CONTINUOUS
100
AcDbLine
 10
2.026451483398688
 20
3.839720509310849
 30
0.0
 11
4.441040904851878
 21
6.254309930764039
 31
0.0
  0
LINE
  5
1B38E
330
1B389
100
AcDbEntity
  8
0
  6
CONTINUOUS
100
AcDbLine
 10
2.297849019469139
 20
3.437598836301114
 30
0.0
 11
3.321765168359338
 21
4.461514985191313
 31
0.0
  0
LINE
  5
1B38F
330
1B389
100
AcDbEntity
  8
0
  6
CONTINUOUS
100
AcDbLine
 10
2.569246555539591
 20
3.03547716329138
 30
0.0
 11
3.593163397972743
 21
4.059394005724531
 31
0.0
  0
LINE
  5
1B390
330
1B389
100
AcDbEntity
  8
0
  6
CONTINUOUS
100
AcDbLine
 10
2.840644091610043
 20
2.633355490281646
 30
0.0
 11
3.864561627586149
 21
3.657273026257751
 31
0.0
  0
LINE
  5
1B391
330
1B389
100
AcDbEntity
  8
0
  6
CONTINUOUS
100
AcDbLine
 10
3.112041627680496
 20
2.231233817271911
 30
0.0
 11
4.135959857199554
 21
3.25515204679097
 31
0.0
  0
LINE
  5
1B392
330
1B389
100
AcDbEntity
  8
0
  6
CONTINUOUS
100
AcDbLine
 10
3.383439163750948
 20
1.829112144262177
 30
0.0
 11
4.40735808681296
 21
2.853031067324189
 31
0.0
  0
LINE
  5
1B393
330
1B389
100
AcDbEntity
  8
0
  6
CONTINUOUS
100
AcDbLine
 10
3.654836699821399
 20
1.426990471252442
 30
0.0
 11
4.678756316426365
 21
2.450910087857407
 31
0.0
  0
LINE
  5
1B394
330
1B389
100
AcDbEntity
  8
0
  6
CONTINUOUS
100
AcDbLine
 10
3.926234235891853
 20
1.024868798242709
 30
0.0
 11
4.95015454603977
 21
2.048789108390626
 31
0.0
  0
LINE
  5
1B395
330
1B389
100
AcDbEntity
  8
0
  6
CONTINUOUS
100
AcDbLine
 10
4.197631771962304
 20
0.6227471252329737
 30
0.0
 11
5.221552775653176
 21
1.646668128923846
 31
0.0
  0
LINE
  5
1B396
330
1B389
100
AcDbEntity
  8
0
  6
CONTINUOUS
100
AcDbLine
 10
8.715877546767851
 20
7.835069736359266
 30
0.0
 11
9.435953450375058
 21
8.555145639966472
 31
0.0
  0
LINE
  5
1B397
330
1B389
100
AcDbEntity
  8
0
  6
CONTINUOUS
100
AcDbLine
 10
8.170620868422267
 20
6.616293848933497
 30
0.0
 11
9.644120833743461
 21
8.08979381425469
 31
0.0
  0
LINE
  5
1B398
330
1B389
100
AcDbEntity
  8
0
  6
CONTINUOUS
100
AcDbLine
 10
7.625364190076684
 20
5.397517961507727
 30
0.0
 11
9.852288217111864
 21
7.624441988542907
 31
0.0
  0
LINE
  5
1B399
330
1B389
100
AcDbEntity
  8
0
  6
CONTINUOUS
100
AcDbLine
 10
7.080107511731101
 20
4.178742074081957
 30
0.0
 11
10.06045560048027
 21
7.159090162831124
 31
0.0
  0
LINE
  5
1B39A
330
1B389
100
AcDbEntity
  8
0
  6
CONTINUOUS
100
AcDbLine
 10
6.534850833385518
 20
2.959966186656187
 30
0.0
 11
10.26862298384867
 21
6.693738337119342
 31
0.0
  0
LINE
  5
1B39B
330
1B389
100
AcDbEntity
  8
0
  6
CONTINUOUS
100
AcDbLine
 10
4.469029308032756
 20
0.2206254522232385
 30
0.0
 11
5.492951005266582
 21
1.244547149457064
 31
0.0
  0
LINE
  5
1B39C
330
1B389
100
AcDbEntity
  8
0
  6
CONTINUOUS
100
AcDbLine
 10
5.989594155039935
 20
1.741190299230417
 30
0.0
 11
8.806950407233131
 21
4.558546551423613
 31
0.0
  0
LINE
  5
1B39D
330
1B389
100
AcDbEntity
  8
0
  6
CONTINUOUS
100
AcDbLine
 10
9.401251593263643
 20
5.152847737454126
 30
0.0
 11
10.47679036721708
 21
6.228386511407559
 31
0.0
  0
LINE
  5
1B39E
330
1B389
100
AcDbEntity
  8
0
  6
CONTINUOUS
100
AcDbLine
 10
4.921837203428691
 20
-0.0000858614610131
 30
0.0
 11
8.592923064886001
 21
3.670999999996297
 31
0.0
  0
LINE
  5
1B39F
330
1B389
100
AcDbEntity
  8
0
  6
CONTINUOUS
100
AcDbLine
 10
9.609390446785305
 20
4.6874673818956
 30
0.0
 11
10.68495775058548
 21
5.763034685695775
 31
0.0
  0
LINE
  5
1B3A0
330
1B389
100
AcDbEntity
  8
0
  6
CONTINUOUS
100
AcDbLine
 10
5.595387755019432
 20
-0.0000545189504582
 30
0.0
 11
7.716137258923768
 21
2.120694984953879
 31
0.0
  0
LINE
  5
1B3A1
330
1B389
100
AcDbEntity
  8
0
  6
CONTINUOUS
100
AcDbLine
 10
6.268938306610172
 20
-0.000023176439905
 30
0.0
 11
7.170485805526503
 21
0.9015243224764267
 31
0.0
  0
LINE
  5
1B3A2
330
1B389
100
AcDbEntity
  8
0
  6
CONTINUOUS
100
AcDbLine
 10
7.963842273967511
 20
2.368399999997621
 30
0.0
 11
9.266442273966188
 21
3.670999999996297
 31
0.0
  0
LINE
  5
1B3A3
330
1B389
100
AcDbEntity
  8
0
  6
CONTINUOUS
100
AcDbLine
 10
8.637361483047696
 20
2.368399999997621
 30
0.0
 11
9.939961483046375
 21
3.670999999996297
 31
0.0
  0
LINE
  5
1B3A4
330
1B389
100
AcDbEntity
  8
0
  6
CONTINUOUS
100
AcDbLine
 10
9.817529300306965
 20
4.222087026337075
 30
0.0
 11
10.89312513395388
 21
5.297682859983993
 31
0.0
  0
LINE
  5
1B3A5
330
1B389
100
AcDbEntity
  8
0
  6
CONTINUOUS
100
AcDbLine
 10
10.02566815382863
 20
3.756706670778549
 30
0.0
 11
11.10129251732229
 21
4.832331034272211
 31
0.0
  0
LINE
  5
1B3A6
330
1B389
100
AcDbEntity
  8
0
  6
CONTINUOUS
100
AcDbLine
 10
9.310880692127883
 20
2.368399999997621
 30
0.0
 11
11.30945990069069
 21
4.366979208560428
 31
0.0
  0
LINE
  5
1B3A7
330
1B389
100
AcDbEntity
  8
0
  6
CONTINUOUS
100
AcDbLine
 10
9.98439990120807
 20
2.36839999999762
 30
0.0
 11
11.5176272840591
 21
3.901627382848645
 31
0.0
  0
LINE
  5
1B3A8
330
1B389
100
AcDbEntity
  8
0
  6
CONTINUOUS
100
AcDbLine
 10
10.65037369446246
 20
2.36085458417182
 30
0.0
 11
11.7257946674275
 21
3.436275557136862
 31
0.0
  0
LINE
  5
1B3A9
330
1B389
100
AcDbEntity
  8
0
  6
CONTINUOUS
100
AcDbLine
 10
10.85847197087848
 20
1.895433651507656
 30
0.0
 11
11.9339620507959
 21
2.97092373142508
 31
0.0
  0
LINE
  5
1B3AA
330
1B389
100
AcDbEntity
  8
0
  6
CONTINUOUS
100
AcDbLine
 10
11.0665702472945
 20
1.430012718843491
 30
0.0
 11
12.14212943416431
 21
2.505571905713296
 31
0.0
  0
LINE
  5
1B3AB
330
1B389
100
AcDbEntity
  8
0
  6
CONTINUOUS
100
AcDbLine
 10
11.27466852371052
 20
0.9645917861793256
 30
0.0
 11
12.35029681753271
 21
2.040220080001513
 31
0.0
  0
LINE
  5
1B3AC
330
1B389
100
AcDbEntity
  8
0
  6
CONTINUOUS
100
AcDbLine
 10
11.48276680012654
 20
0.4991708535151611
 30
0.0
 11
12.55846420090111
 21
1.57486825428973
 31
0.0
  0
LINE
  5
1B3AD
330
1B389
100
AcDbEntity
  8
0
  6
CONTINUOUS
100
AcDbLine
 10
11.69086507654257
 20
0.0337499208509957
 30
0.0
 11
12.76663158426952
 21
1.109516428577947
 31
0.0
  0
LINE
  5
1B3AE
330
1B389
100
AcDbEntity
  8
0
  6
CONTINUOUS
100
AcDbLine
 10
12.33057447873954
 20
-0.0000598860322123
 30
0.0
 11
12.97479896763792
 21
0.6441646028661663
 31
0.0
  0
LINE
  5
1B3AF
330
1B389
100
AcDbEntity
  8
0
  6
CONTINUOUS
100
AcDbLine
 10
13.00413694809395
 20
-0.0000166257579952
 30
0.0
 11
13.18296635100632
 21
0.1788127771543824
 31
0.0
  0
LINE
  5
1B3B0
330
1B389
100
AcDbEntity
  8
0
  6
CONTINUOUS
100
AcDbLine
 10
4.772852165289667
 20
-0.000092794222212
 30
0.0
 11
4.296495091028902
 21
0.4762642800385528
 31
0.0
  0
LINE
  5
1B3B1
330
1B389
100
AcDbEntity
  8
0
  6
CONTINUOUS
100
AcDbLine
 10
5.446340034776103
 20
-0.0000614546284616
 30
0.0
 11
2.898195908335625
 21
2.548082671812017
 31
0.0
  0
LINE
  5
1B3B2
330
1B389
100
AcDbEntity
  8
0
  6
CONTINUOUS
100
AcDbLine
 10
6.119827904262539
 20
-0.0000301150347113
 30
0.0
 11
1.499896725642348
 21
4.61990106358548
 31
0.0
  0
LINE
  5
1B3B3
330
1B389
100
AcDbEntity
  8
0
  6
CONTINUOUS
100
AcDbLine
 10
6.775136745476159
 20
0.0181802528318542
 30
0.0
 11
5.699826040202669
 21
1.093490958105344
 31
0.0
  0
LINE
  5
1B3B4
330
1B389
100
AcDbEntity
  8
0
  6
CONTINUOUS
100
AcDbLine
 10
6.983376846288489
 20
0.4834593610997118
 30
0.0
 11
5.908008617934405
 21
1.558827589453796
 31
0.0
  0
LINE
  5
1B3B5
330
1B389
100
AcDbEntity
  8
0
  6
CONTINUOUS
100
AcDbLine
 10
5.377063484962296
 20
1.416253513345719
 30
0.0
 11
1.702276957014131
 21
5.091040041293883
 31
0.0
  0
LINE
  5
1B3B6
330
1B389
100
AcDbEntity
  8
0
  6
CONTINUOUS
100
AcDbLine
 10
3.978745891735324
 20
3.488090315652877
 30
0.0
 11
2.000373521109399
 21
5.466462686278803
 31
0.0
  0
LINE
  5
1B3B7
330
1B389
100
AcDbEntity
  8
0
  6
CONTINUOUS
100
AcDbLine
 10
7.191616947100819
 20
0.948738469367568
 30
0.0
 11
6.11619119566614
 21
2.024164220802247
 31
0.0
  0
LINE
  5
1B3B8
330
1B389
100
AcDbEntity
  8
0
  6
CONTINUOUS
100
AcDbLine
 10
7.399857047913149
 20
1.414017577635424
 30
0.0
 11
6.324373773397875
 21
2.489500852150698
 31
0.0
  0
LINE
  5
1B3B9
330
1B389
100
AcDbEntity
  8
0
  6
CONTINUOUS
100
AcDbLine
 10
7.608097148725479
 20
1.879296685903281
 30
0.0
 11
6.53255635112961
 21
2.95483748349915
 31
0.0
  0
LINE
  5
1B3BA
330
1B389
100
AcDbEntity
  8
0
  6
CONTINUOUS
100
AcDbLine
 10
7.816337249537808
 20
2.344575794171138
 30
0.0
 11
6.740738928861345
 21
3.420174114847601
 31
0.0
  0
LINE
  5
1B3BB
330
1B389
100
AcDbEntity
  8
0
  6
CONTINUOUS
100
AcDbLine
 10
3.310241080789734
 20
4.830114335678653
 30
0.0
 11
2.298470085204666
 21
5.84188533126372
 31
0.0
  0
LINE
  5
1B3BC
330
1B389
100
AcDbEntity
  8
0
  6
CONTINUOUS
100
AcDbLine
 10
3.60832983563551
 20
5.205544789913063
 30
0.0
 11
2.596566649299935
 21
6.217307976248638
 31
0.0
  0
LINE
  5
1B3BD
330
1B389
100
AcDbEntity
  8
0
  6
CONTINUOUS
100
AcDbLine
 10
3.906418590481286
 20
5.580975244147473
 30
0.0
 11
2.894663213395203
 21
6.592730621233557
 31
0.0
  0
LINE
  5
1B3BE
330
1B389
100
AcDbEntity
  8
0
  6
CONTINUOUS
100
AcDbLine
 10
4.204507345327062
 20
5.956405698381884
 30
0.0
 11
3.192759777490472
 21
6.968153266218474
 31
0.0
  0
LINE
  5
1B3BF
330
1B389
100
AcDbEntity
  8
0
  6
CONTINUOUS
100
AcDbLine
 10
8.466032252791512
 20
2.368399999997621
 30
0.0
 11
6.948921506593081
 21
3.885510746196053
 31
0.0
  0
LINE
  5
1B3C0
330
1B389
100
AcDbEntity
  8
0
  6
CONTINUOUS
100
AcDbLine
 10
9.139551461871699
 20
2.36839999999762
 30
0.0
 11
7.157104084324816
 21
4.350847377544504
 31
0.0
  0
LINE
  5
1B3C1
330
1B389
100
AcDbEntity
  8
0
  6
CONTINUOUS
100
AcDbLine
 10
4.502596100172839
 20
6.331836152616295
 30
0.0
 11
3.49085634158574
 21
7.343575911203393
 31
0.0
  0
LINE
  5
1B3C2
330
1B389
100
AcDbEntity
  8
0
  6
CONTINUOUS
100
AcDbLine
 10
4.800684855018615
 20
6.707266606850705
 30
0.0
 11
3.788952905681008
 21
7.718998556188312
 31
0.0
  0
LINE
  5
1B3C3
330
1B389
100
AcDbEntity
  8
0
  6
CONTINUOUS
100
AcDbLine
 10
12.18154012887317
 20
-0.0000694579236642
 30
0.0
 11
11.32140332908496
 21
0.8600673418645499
 31
0.0
  0
LINE
  5
1B3C4
330
1B389
100
AcDbEntity
  8
0
  6
CONTINUOUS
100
AcDbLine
 10
12.85501608323566
 20
-0.0000262032059659
 30
0.0
 11
10.77672456435345
 21
2.078265315676246
 31
0.0
  0
LINE
  5
1B3C5
330
1B389
100
AcDbEntity
  8
0
  6
CONTINUOUS
100
AcDbLine
 10
9.813070670951886
 20
2.36839999999762
 30
0.0
 11
8.51047067095321
 21
3.670999999996297
 31
0.0
  0
LINE
  5
1B3C6
330
1B389
100
AcDbEntity
  8
0
  6
CONTINUOUS
100
AcDbLine
 10
10.48658988003207
 20
2.36839999999762
 30
0.0
 11
9.183989880033396
 21
3.670999999996297
 31
0.0
  0
LINE
  5
1B3C7
330
1B389
100
AcDbEntity
  8
0
  6
CONTINUOUS
100
AcDbLine
 10
8.441048632286794
 20
3.740422038662712
 30
0.0
 11
7.365286662056551
 21
4.816184008892956
 31
0.0
  0
LINE
  5
1B3C8
330
1B389
100
AcDbEntity
  8
0
  6
CONTINUOUS
100
AcDbLine
 10
8.649187485808454
 20
4.205802394221237
 30
0.0
 11
7.573469239788285
 21
5.281520640241407
 31
0.0
  0
LINE
  5
1B3C9
330
1B389
100
AcDbEntity
  8
0
  6
CONTINUOUS
100
AcDbLine
 10
5.098773609864391
 20
7.082697061085115
 30
0.0
 11
4.087049469776277
 21
8.09442120117323
 31
0.0
  0
LINE
  5
1B3CA
330
1B389
100
AcDbEntity
  8
0
  6
CONTINUOUS
100
AcDbLine
 10
5.396862364710167
 20
7.458127515319526
 30
0.0
 11
4.385146033871544
 21
8.469843846158149
 31
0.0
  0
LINE
  5
1B3CB
330
1B389
100
AcDbEntity
  8
0
  6
CONTINUOUS
100
AcDbLine
 10
13.04801363231285
 20
0.4804954567970334
 30
0.0
 11
9.85750908911358
 21
3.670999999996297
 31
0.0
  0
LINE
  5
1B3CC
330
1B389
100
AcDbEntity
  8
0
  6
CONTINUOUS
100
AcDbLine
 10
8.857326339330116
 20
4.671182749779763
 30
0.0
 11
7.781651817520021
 21
5.746857271589858
 31
0.0
  0
LINE
  5
1B3CD
330
1B389
100
AcDbEntity
  8
0
  6
CONTINUOUS
100
AcDbLine
 10
5.694951119555943
 20
7.833557969553937
 30
0.0
 11
4.765409089118624
 21
8.763099999991255
 31
0.0
  0
LINE
  5
1B3CE
330
1B389
100
AcDbEntity
  8
0
  6
CONTINUOUS
100
AcDbLine
 10
12.50286117236978
 20
1.699167125820288
 30
0.0
 11
9.68611877250287
 21
4.515909525687196
 31
0.0
  0
LINE
  5
1B3CF
330
1B389
100
AcDbEntity
  8
0
  6
CONTINUOUS
100
AcDbLine
 10
9.065465192851777
 20
5.136563105338288
 30
0.0
 11
7.989834395251757
 21
6.21219390293831
 31
0.0
  0
LINE
  5
1B3D0
330
1B389
100
AcDbEntity
  8
0
  6
CONTINUOUS
100
AcDbLine
 10
5.993039874401719
 20
8.208988423788346
 30
0.0
 11
5.43892829819881
 21
8.763099999991255
 31
0.0
  0
LINE
  5
1B3D1
330
1B389
100
AcDbEntity
  8
0
  6
CONTINUOUS
100
AcDbLine
 10
11.95770871242671
 20
2.917838794843543
 30
0.0
 11
8.19801697298349
 21
6.677530534286761
 31
0.0
  0
LINE
  5
1B3D2
330
1B389
100
AcDbEntity
  8
0
  6
CONTINUOUS
100
AcDbLine
 10
6.291128629247495
 20
8.584418878022756
 30
0.0
 11
6.112447507278997
 21
8.763099999991255
 31
0.0
  0
LINE
  5
1B3D3
330
1B389
100
AcDbEntity
  8
0
  6
CONTINUOUS
100
AcDbLine
 10
11.41255625248364
 20
4.136510463866797
 30
0.0
 11
8.406199550715227
 21
7.142867165635211
 31
0.0
  0
LINE
  5
1B3D4
330
1B389
100
AcDbEntity
  8
0
  6
CONTINUOUS
100
AcDbLine
 10
10.86740379254057
 20
5.355182132890051
 30
0.0
 11
8.614382128446962
 21
7.608203796983664
 31
0.0
  0
LINE
  5
1B3D5
330
1B389
100
AcDbEntity
  8
0
  6
CONTINUOUS
100
AcDbLine
 10
10.3222513325975
 20
6.573853801913305
 30
0.0
 11
8.822564706178696
 21
8.073540428332114
 31
0.0
  0
LINE
  5
1B3D6
330
1B389
100
AcDbEntity
  8
0
  6
CONTINUOUS
100
AcDbLine
 10
9.777098872654436
 20
7.792525470936562
 30
0.0
 11
9.030747283910433
 21
8.538877059680566
 31
0.0
  0
ENDBLK
  5
1B518
330
1B389
100
AcDbEntity
  8
0
100
AcDbBlockEnd
  0
BLOCK
  5
1B519
330
1B3D7
100
AcDbEntity
  8
0
100
AcDbBlockBegin
  2
*X28
 70
     1
 10
0.0
 20
0.0
 30
0.0
  3
*X28
  1

  0
LINE
  5
1B3D8
330
1B3D7
100
AcDbEntity
  8
0
  6
CONTINUOUS
100
AcDbLine
 10
10.67292308101235
 20
8.445076852443387
 30
0.0
 11
10.99094622856022
 21
8.763099999991255
 31
0.0
  0
LINE
  5
1B3D9
330
1B3D7
100
AcDbEntity
  8
0
  6
CONTINUOUS
100
AcDbLine
 10
10.87250383178748
 20
7.971138394138331
 30
0.0
 11
11.6644654376404
 21
8.763099999991255
 31
0.0
  0
LINE
  5
1B3DA
330
1B3D7
100
AcDbEntity
  8
0
  6
CONTINUOUS
100
AcDbLine
 10
11.07208458256261
 20
7.497199935833273
 30
0.0
 11
12.12126590876355
 21
8.546381262034211
 31
0.0
  0
LINE
  5
1B3DB
330
1B3D7
100
AcDbEntity
  8
0
  6
CONTINUOUS
100
AcDbLine
 10
11.27166533333774
 20
7.023261477528216
 30
0.0
 11
12.32085164573666
 21
8.072447789927136
 31
0.0
  0
LINE
  5
1B3DC
330
1B3D7
100
AcDbEntity
  8
0
  6
CONTINUOUS
100
AcDbLine
 10
11.47124608411287
 20
6.549323019223158
 30
0.0
 11
12.52043738270977
 21
7.59851431782006
 31
0.0
  0
LINE
  5
1B3DD
330
1B3D7
100
AcDbEntity
  8
0
  6
CONTINUOUS
100
AcDbLine
 10
11.670826834888
 20
6.075384560918101
 30
0.0
 11
12.72002311968288
 21
7.124580845712984
 31
0.0
  0
LINE
  5
1B3DE
330
1B3D7
100
AcDbEntity
  8
0
  6
CONTINUOUS
100
AcDbLine
 10
11.87040758566313
 20
5.601446102613043
 30
0.0
 11
12.91960885665599
 21
6.650647373605907
 31
0.0
  0
LINE
  5
1B3DF
330
1B3D7
100
AcDbEntity
  8
0
  6
CONTINUOUS
100
AcDbLine
 10
12.06998833643825
 20
5.127507644307986
 30
0.0
 11
13.1191945936291
 21
6.176713901498832
 31
0.0
  0
LINE
  5
1B3E0
330
1B3D7
100
AcDbEntity
  8
0
  6
CONTINUOUS
100
AcDbLine
 10
12.26956908721338
 20
4.65356918600293
 30
0.0
 11
13.31878033060221
 21
5.702780429391757
 31
0.0
  0
LINE
  5
1B3E1
330
1B3D7
100
AcDbEntity
  8
0
  6
CONTINUOUS
100
AcDbLine
 10
12.46914983798851
 20
4.179630727697873
 30
0.0
 11
13.51836606757532
 21
5.228846957284683
 31
0.0
  0
LINE
  5
1B3E2
330
1B3D7
100
AcDbEntity
  8
0
  6
CONTINUOUS
100
AcDbLine
 10
12.66873058876364
 20
3.705692269392816
 30
0.0
 11
13.71795180454843
 21
4.754913485177607
 31
0.0
  0
LINE
  5
1B3E3
330
1B3D7
100
AcDbEntity
  8
0
  6
CONTINUOUS
100
AcDbLine
 10
12.86831133953877
 20
3.231753811087759
 30
0.0
 11
13.91753754152154
 21
4.280980013070531
 31
0.0
  0
LINE
  5
1B3E4
330
1B3D7
100
AcDbEntity
  8
0
  6
CONTINUOUS
100
AcDbLine
 10
13.0678920903139
 20
2.757815352782702
 30
0.0
 11
14.11712327849465
 21
3.807046540963456
 31
0.0
  0
LINE
  5
1B3E5
330
1B3D7
100
AcDbEntity
  8
0
  6
CONTINUOUS
100
AcDbLine
 10
13.26747284108903
 20
2.283876894477644
 30
0.0
 11
14.31670901546777
 21
3.333113068856379
 31
0.0
  0
LINE
  5
1B3E6
330
1B3D7
100
AcDbEntity
  8
0
  6
CONTINUOUS
100
AcDbLine
 10
16.36767838827179
 20
8.751678487061342
 30
0.0
 11
16.50332410898388
 21
8.887324207773432
 31
0.0
  0
LINE
  5
1B3E7
330
1B3D7
100
AcDbEntity
  8
0
  6
CONTINUOUS
100
AcDbLine
 10
15.96190732182191
 20
7.67238821153127
 30
0.0
 11
16.68735328004734
 21
8.397834169756699
 31
0.0
  0
LINE
  5
1B3E8
330
1B3D7
100
AcDbEntity
  8
0
  6
CONTINUOUS
100
AcDbLine
 10
15.55613625537202
 20
6.593097936001196
 30
0.0
 11
16.87138245111079
 21
7.908344131739965
 31
0.0
  0
LINE
  5
1B3E9
330
1B3D7
100
AcDbEntity
  8
0
  6
CONTINUOUS
100
AcDbLine
 10
15.15036518892213
 20
5.513807660471122
 30
0.0
 11
17.05541162217424
 21
7.418854093723231
 31
0.0
  0
LINE
  5
1B3EA
330
1B3D7
100
AcDbEntity
  8
0
  6
CONTINUOUS
100
AcDbLine
 10
14.74459412247225
 20
4.434517384941048
 30
0.0
 11
17.2394407932377
 21
6.929364055706499
 31
0.0
  0
LINE
  5
1B3EB
330
1B3D7
100
AcDbEntity
  8
0
  6
CONTINUOUS
100
AcDbLine
 10
14.33882305602236
 20
3.355227109410975
 30
0.0
 11
17.42346996430115
 21
6.439874017689766
 31
0.0
  0
LINE
  5
1B3EC
330
1B3D7
100
AcDbEntity
  8
0
  6
CONTINUOUS
100
AcDbLine
 10
13.46705359186416
 20
1.809938436172586
 30
0.0
 11
16.0819338255367
 21
4.424818669845129
 31
0.0
  0
LINE
  5
1B3ED
330
1B3D7
100
AcDbEntity
  8
0
  6
CONTINUOUS
100
AcDbLine
 10
16.63283254238972
 20
4.975717386698149
 30
0.0
 11
17.60749913536461
 21
5.950383979673033
 31
0.0
  0
LINE
  5
1B3EE
330
1B3D7
100
AcDbEntity
  8
0
  6
CONTINUOUS
100
AcDbLine
 10
13.66663434263929
 20
1.335999977867529
 30
0.0
 11
15.67604797733754
 21
3.345413612565779
 31
0.0
  0
LINE
  5
1B3EF
330
1B3D7
100
AcDbEntity
  8
0
  6
CONTINUOUS
100
AcDbLine
 10
13.86621509341442
 20
0.8620615195624723
 30
0.0
 11
15.27016212913838
 21
2.26600855528643
 31
0.0
  0
LINE
  5
1B3F0
330
1B3D7
100
AcDbEntity
  8
0
  6
CONTINUOUS
100
AcDbLine
 10
16.81682257348267
 20
4.486188208710908
 30
0.0
 11
17.79152830642806
 21
5.460893941656299
 31
0.0
  0
LINE
  5
1B3F1
330
1B3D7
100
AcDbEntity
  8
0
  6
CONTINUOUS
100
AcDbLine
 10
17.00081260457561
 20
3.996659030723667
 30
0.0
 11
17.97555747749151
 21
4.971403903639565
 31
0.0
  0
LINE
  5
1B3F2
330
1B3D7
100
AcDbEntity
  8
0
  6
CONTINUOUS
100
AcDbLine
 10
20.74362343514722
 20
8.412989070375462
 30
0.0
 11
21.09373436476302
 21
8.763099999991256
 31
0.0
  0
LINE
  5
1B3F3
330
1B3D7
100
AcDbEntity
  8
0
  6
CONTINUOUS
100
AcDbLine
 10
20.25401257174777
 20
7.249858997895826
 30
0.0
 11
21.7672535738432
 21
8.763099999991255
 31
0.0
  0
LINE
  5
1B3F4
330
1B3D7
100
AcDbEntity
  8
0
  6
CONTINUOUS
100
AcDbLine
 10
14.06579584418955
 20
0.3881230612574149
 30
0.0
 11
14.86427628093921
 21
1.186603498007082
 31
0.0
  0
LINE
  5
1B3F5
330
1B3D7
100
AcDbEntity
  8
0
  6
CONTINUOUS
100
AcDbLine
 10
14.26537659496467
 20
-0.0858153970476412
 30
0.0
 11
14.45839043274005
 21
0.1071984407277329
 31
0.0
  0
LINE
  5
1B3F6
330
1B3D7
100
AcDbEntity
  8
0
  6
CONTINUOUS
100
AcDbLine
 10
17.18480263566856
 20
3.507129852736426
 30
0.0
 11
18.15958664855496
 21
4.481913865622833
 31
0.0
  0
LINE
  5
1B3F7
330
1B3D7
100
AcDbEntity
  8
0
  6
CONTINUOUS
100
AcDbLine
 10
17.3687926667615
 20
3.017600674749186
 30
0.0
 11
18.34361581961842
 21
3.9924238276061
 31
0.0
  0
LINE
  5
1B3F8
330
1B3D7
100
AcDbEntity
  8
0
  6
CONTINUOUS
100
AcDbLine
 10
19.76440170834832
 20
6.086728925416191
 30
0.0
 11
22.33924590259489
 21
8.661573119662755
 31
0.0
  0
LINE
  5
1B3F9
330
1B3D7
100
AcDbEntity
  8
0
  6
CONTINUOUS
100
AcDbLine
 10
19.27479084494887
 20
4.923598852936555
 30
0.0
 11
21.84929622842713
 21
7.498104236414807
 31
0.0
  0
LINE
  5
1B3FA
330
1B3D7
100
AcDbEntity
  8
0
  6
CONTINUOUS
100
AcDbLine
 10
17.55278269785445
 20
2.528071496761945
 30
0.0
 11
18.52764499068187
 21
3.502933789589366
 31
0.0
  0
LINE
  5
1B3FB
330
1B3D7
100
AcDbEntity
  8
0
  6
CONTINUOUS
100
AcDbLine
 10
18.78517998154942
 20
3.760468780456919
 30
0.0
 11
21.35934655425936
 21
6.33463535316686
 31
0.0
  0
LINE
  5
1B3FC
330
1B3D7
100
AcDbEntity
  8
0
  6
CONTINUOUS
100
AcDbLine
 10
17.73677272894739
 20
2.038542318774704
 30
0.0
 11
20.8693968800916
 21
5.171166469918914
 31
0.0
  0
LINE
  5
1B3FD
330
1B3D7
100
AcDbEntity
  8
0
  6
CONTINUOUS
100
AcDbLine
 10
17.92076276004034
 20
1.549013140787464
 30
0.0
 11
20.37944720592384
 21
4.007697586670968
 31
0.0
  0
LINE
  5
1B3FE
330
1B3D7
100
AcDbEntity
  8
0
  6
CONTINUOUS
100
AcDbLine
 10
18.10475279113329
 20
1.059483962800223
 30
0.0
 11
19.88949753175608
 21
2.84422870342302
 31
0.0
  0
LINE
  5
1B3FF
330
1B3D7
100
AcDbEntity
  8
0
  6
CONTINUOUS
100
AcDbLine
 10
18.28874282222623
 20
0.5699547848129822
 30
0.0
 11
19.39954785758832
 21
1.680759820175074
 31
0.0
  0
LINE
  5
1B400
330
1B3D7
100
AcDbEntity
  8
0
  6
CONTINUOUS
100
AcDbLine
 10
18.47273285331918
 20
0.0804256068257416
 30
0.0
 11
18.90959818342056
 21
0.517290936927127
 31
0.0
  0
LINE
  5
1B401
330
1B3D7
100
AcDbEntity
  8
0
  6
CONTINUOUS
100
AcDbLine
 10
14.3590401358224
 20
-0.1570118376323384
 30
0.0
 11
14.24903296539946
 21
-0.0470046672093929
 31
0.0
  0
LINE
  5
1B402
330
1B3D7
100
AcDbEntity
  8
0
  6
CONTINUOUS
100
AcDbLine
 10
14.54309291258661
 20
0.332454594683643
 30
0.0
 11
13.75908329123172
 21
1.116464216038529
 31
0.0
  0
LINE
  5
1B403
330
1B3D7
100
AcDbEntity
  8
0
  6
CONTINUOUS
100
AcDbLine
 10
14.72714568935081
 20
0.8219210269996244
 30
0.0
 11
13.26913361706399
 21
2.27993309928645
 31
0.0
  0
LINE
  5
1B404
330
1B3D7
100
AcDbEntity
  8
0
  6
CONTINUOUS
100
AcDbLine
 10
14.91119846611502
 20
1.311387459315606
 30
0.0
 11
12.77918394289625
 21
3.443401982534371
 31
0.0
  0
LINE
  5
1B405
330
1B3D7
100
AcDbEntity
  8
0
  6
CONTINUOUS
100
AcDbLine
 10
15.09525124287922
 20
1.800853891631587
 30
0.0
 11
12.28923426872852
 21
4.606870865782293
 31
0.0
  0
LINE
  5
1B406
330
1B3D7
100
AcDbEntity
  8
0
  6
CONTINUOUS
100
AcDbLine
 10
15.27930401964343
 20
2.290320323947569
 30
0.0
 11
11.79928459456078
 21
5.770339749030213
 31
0.0
  0
LINE
  5
1B407
330
1B3D7
100
AcDbEntity
  8
0
  6
CONTINUOUS
100
AcDbLine
 10
15.46335679640763
 20
2.77978675626355
 30
0.0
 11
14.48885470994921
 21
3.754288842721972
 31
0.0
  0
LINE
  5
1B408
330
1B3D7
100
AcDbEntity
  8
0
  6
CONTINUOUS
100
AcDbLine
 10
13.88507249233704
 20
4.358071060334137
 30
0.0
 11
11.30933492039305
 21
6.933808632278135
 31
0.0
  0
LINE
  5
1B409
330
1B3D7
100
AcDbEntity
  8
0
  6
CONTINUOUS
100
AcDbLine
 10
18.75840522805855
 20
0.1582575336928151
 30
0.0
 11
18.25383727664818
 21
0.6628254851031863
 31
0.0
  0
LINE
  5
1B40A
330
1B3D7
100
AcDbEntity
  8
0
  6
CONTINUOUS
100
AcDbLine
 10
15.64740957317184
 20
3.269253188579531
 30
0.0
 11
14.67288388101266
 21
4.243778880738705
 31
0.0
  0
LINE
  5
1B40B
330
1B3D7
100
AcDbEntity
  8
0
  6
CONTINUOUS
100
AcDbLine
 10
13.39509276772158
 20
5.521569994029786
 30
0.0
 11
10.81938524622531
 21
8.097277515526056
 31
0.0
  0
LINE
  5
1B40C
330
1B3D7
100
AcDbEntity
  8
0
  6
CONTINUOUS
100
AcDbLine
 10
18.95798597883369
 20
0.6321959919978686
 30
0.0
 11
17.84825644852853
 21
1.741925522303024
 31
0.0
  0
LINE
  5
1B40D
330
1B3D7
100
AcDbEntity
  8
0
  6
CONTINUOUS
100
AcDbLine
 10
19.15756672960882
 20
1.106134450302922
 30
0.0
 11
17.44267562040888
 21
2.821025559502861
 31
0.0
  0
LINE
  5
1B40E
330
1B3D7
100
AcDbEntity
  8
0
  6
CONTINUOUS
100
AcDbLine
 10
15.83146234993604
 20
3.758719620895513
 30
0.0
 11
14.85691305207612
 21
4.733268918755439
 31
0.0
  0
LINE
  5
1B40F
330
1B3D7
100
AcDbEntity
  8
0
  6
CONTINUOUS
100
AcDbLine
 10
16.01551512670025
 20
4.248186053211494
 30
0.0
 11
15.04094222313957
 21
5.222758956772172
 31
0.0
  0
LINE
  5
1B410
330
1B3D7
100
AcDbEntity
  8
0
  6
CONTINUOUS
100
AcDbLine
 10
12.90511304310612
 20
6.685068927725435
 30
0.0
 11
10.8270819708403
 21
8.763099999991255
 31
0.0
  0
LINE
  5
1B411
330
1B3D7
100
AcDbEntity
  8
0
  6
CONTINUOUS
100
AcDbLine
 10
12.41513331849066
 20
7.848567861421083
 30
0.0
 11
11.50060117992049
 21
8.763099999991255
 31
0.0
  0
LINE
  5
1B412
330
1B3D7
100
AcDbEntity
  8
0
  6
CONTINUOUS
100
AcDbLine
 10
19.35714748038395
 20
1.580072908607975
 30
0.0
 11
17.03709479228923
 21
3.900125596702697
 31
0.0
  0
LINE
  5
1B413
330
1B3D7
100
AcDbEntity
  8
0
  6
CONTINUOUS
100
AcDbLine
 10
19.55672823115909
 20
2.054011366913028
 30
0.0
 11
16.63151396416958
 21
4.979225633902534
 31
0.0
  0
LINE
  5
1B414
330
1B3D7
100
AcDbEntity
  8
0
  6
CONTINUOUS
100
AcDbLine
 10
16.19956790346445
 20
4.737652485527476
 30
0.0
 11
15.22497139420302
 21
5.712248994788904
 31
0.0
  0
LINE
  5
1B415
330
1B3D7
100
AcDbEntity
  8
0
  6
CONTINUOUS
100
AcDbLine
 10
16.38362068022866
 20
5.227118917843457
 30
0.0
 11
15.40900056526648
 21
6.201739032805637
 31
0.0
  0
LINE
  5
1B416
330
1B3D7
100
AcDbEntity
  8
0
  6
CONTINUOUS
100
AcDbLine
 10
19.75630898193422
 20
2.527949825218081
 30
0.0
 11
18.70774536448286
 21
3.576513442669441
 31
0.0
  0
LINE
  5
1B417
330
1B3D7
100
AcDbEntity
  8
0
  6
CONTINUOUS
100
AcDbLine
 10
19.95588973270936
 20
3.001888283523134
 30
0.0
 11
18.90726987211446
 21
4.050508144118028
 31
0.0
  0
LINE
  5
1B418
330
1B3D7
100
AcDbEntity
  8
0
  6
CONTINUOUS
100
AcDbLine
 10
20.15547048348449
 20
3.475826741828186
 30
0.0
 11
19.10679437974606
 21
4.524502845566614
 31
0.0
  0
LINE
  5
1B419
330
1B3D7
100
AcDbEntity
  8
0
  6
CONTINUOUS
100
AcDbLine
 10
20.35505123425962
 20
3.94976520013324
 30
0.0
 11
19.30631888737766
 21
4.998497547015201
 31
0.0
  0
LINE
  5
1B41A
330
1B3D7
100
AcDbEntity
  8
0
  6
CONTINUOUS
100
AcDbLine
 10
20.55463198503475
 20
4.423703658438292
 30
0.0
 11
19.50584339500926
 21
5.472492248463787
 31
0.0
  0
LINE
  5
1B41B
330
1B3D7
100
AcDbEntity
  8
0
  6
CONTINUOUS
100
AcDbLine
 10
18.37481191085755
 20
3.909446896294752
 30
0.0
 11
15.59302973632993
 21
6.691229070822371
 31
0.0
  0
LINE
  5
1B41C
330
1B3D7
100
AcDbEntity
  8
0
  6
CONTINUOUS
100
AcDbLine
 10
17.96904084440766
 20
4.988737171824825
 30
0.0
 11
15.77705890739338
 21
7.180719108839104
 31
0.0
  0
LINE
  5
1B41D
330
1B3D7
100
AcDbEntity
  8
0
  6
CONTINUOUS
100
AcDbLine
 10
17.56326977795777
 20
6.068027447354899
 30
0.0
 11
15.96108807845684
 21
7.670209146855838
 31
0.0
  0
LINE
  5
1B41E
330
1B3D7
100
AcDbEntity
  8
0
  6
CONTINUOUS
100
AcDbLine
 10
17.15749871150789
 20
7.147317722884972
 30
0.0
 11
16.14511724952029
 21
8.15969918487257
 31
0.0
  0
LINE
  5
1B41F
330
1B3D7
100
AcDbEntity
  8
0
  6
CONTINUOUS
100
AcDbLine
 10
16.751727645058
 20
8.226607998415046
 30
0.0
 11
16.32914642058374
 21
8.649189222889303
 31
0.0
  0
LINE
  5
1B420
330
1B3D7
100
AcDbEntity
  8
0
  6
CONTINUOUS
100
AcDbLine
 10
20.75421273580989
 20
4.897642116743345
 30
0.0
 11
19.70536790264086
 21
5.946486949912374
 31
0.0
  0
LINE
  5
1B421
330
1B3D7
100
AcDbEntity
  8
0
  6
CONTINUOUS
100
AcDbLine
 10
20.95379348658502
 20
5.371580575048398
 30
0.0
 11
19.90489241027246
 21
6.42048165136096
 31
0.0
  0
LINE
  5
1B422
330
1B3D7
100
AcDbEntity
  8
0
  6
CONTINUOUS
100
AcDbLine
 10
21.15337423736015
 20
5.845519033353452
 30
0.0
 11
20.10441691790406
 21
6.894476352809547
 31
0.0
  0
LINE
  5
1B423
330
1B3D7
100
AcDbEntity
  8
0
  6
CONTINUOUS
100
AcDbLine
 10
21.35295498813529
 20
6.319457491658505
 30
0.0
 11
20.30394142553566
 21
7.368471054258134
 31
0.0
  0
LINE
  5
1B424
330
1B3D7
100
AcDbEntity
  8
0
  6
CONTINUOUS
100
AcDbLine
 10
21.55253573891042
 20
6.793395949963558
 30
0.0
 11
20.50346593316726
 21
7.842465755706721
 31
0.0
  0
LINE
  5
1B425
330
1B3D7
100
AcDbEntity
  8
0
  6
CONTINUOUS
100
AcDbLine
 10
21.75211648968556
 20
7.267334408268612
 30
0.0
 11
20.70299044079886
 21
8.316460457155308
 31
0.0
  0
LINE
  5
1B426
330
1B3D7
100
AcDbEntity
  8
0
  6
CONTINUOUS
100
AcDbLine
 10
21.95169724046069
 20
7.741272866573663
 30
0.0
 11
20.9298701070431
 21
8.763099999991256
 31
0.0
  0
LINE
  5
1B427
330
1B3D7
100
AcDbEntity
  8
0
  6
CONTINUOUS
100
AcDbLine
 10
22.15127799123582
 20
8.215211324878716
 30
0.0
 11
21.60338931612328
 21
8.763099999991256
 31
0.0
  0
LINE
  5
1B428
330
1B3D7
100
AcDbEntity
  8
0
  6
CONTINUOUS
100
AcDbLine
 10
22.35085874201096
 20
8.689149783183769
 30
0.0
 11
22.27690852520347
 21
8.763099999991255
 31
0.0
  0
ENDBLK
  5
1B51A
330
1B3D7
100
AcDbEntity
  8
0
100
AcDbBlockEnd
  0
BLOCK
  5
1B51B
330
1B429
100
AcDbEntity
  8
0
100
AcDbBlockBegin
  2
*X29
 70
     1
 10
0.0
 20
0.0
 30
0.0
  3
*X29
  1

  0
LINE
  5
1B42A
330
1B429
100
AcDbEntity
  8
0
  6
CONTINUOUS
100
AcDbLine
 10
23.19462913593892
 20
8.169917934846424
 30
0.0
 11
23.70775465517246
 21
8.683043454079957
 31
0.0
  0
LINE
  5
1B42B
330
1B429
100
AcDbEntity
  8
0
  6
CONTINUOUS
100
AcDbLine
 10
22.64923161835078
 20
6.951001208178088
 30
0.0
 11
23.9159364069932
 21
8.217705996820516
 31
0.0
  0
LINE
  5
1B42C
330
1B429
100
AcDbEntity
  8
0
  6
CONTINUOUS
100
AcDbLine
 10
22.10383410076263
 20
5.732084481509751
 30
0.0
 11
24.12411815881395
 21
7.752368539561078
 31
0.0
  0
LINE
  5
1B42D
330
1B429
100
AcDbEntity
  8
0
  6
CONTINUOUS
100
AcDbLine
 10
21.55843658317447
 20
4.513167754841414
 30
0.0
 11
24.3322999106347
 21
7.287031082301639
 31
0.0
  0
LINE
  5
1B42E
330
1B429
100
AcDbEntity
  8
0
  6
CONTINUOUS
100
AcDbLine
 10
21.01303906558632
 20
3.294251028173077
 30
0.0
 11
24.54048166245544
 21
6.821693625042199
 31
0.0
  0
LINE
  5
1B42F
330
1B429
100
AcDbEntity
  8
0
  6
CONTINUOUS
100
AcDbLine
 10
20.46764154799817
 20
2.075334301504738
 30
0.0
 11
23.28571549467848
 21
4.89340824818505
 31
0.0
  0
LINE
  5
1B430
330
1B429
100
AcDbEntity
  8
0
  6
CONTINUOUS
100
AcDbLine
 10
19.92224403041002
 20
0.8564175748364002
 30
0.0
 11
22.74075865492779
 21
3.674932199354171
 31
0.0
  0
LINE
  5
1B431
330
1B429
100
AcDbEntity
  8
0
  6
CONTINUOUS
100
AcDbLine
 10
23.67305085490148
 20
5.280743608408048
 30
0.0
 11
24.74866341427619
 21
6.356356167782759
 31
0.0
  0
LINE
  5
1B432
330
1B429
100
AcDbEntity
  8
0
  6
CONTINUOUS
100
AcDbLine
 10
23.88118970842314
 20
4.815363252849522
 30
0.0
 11
24.95684516609694
 21
5.89101871052332
 31
0.0
  0
LINE
  5
1B433
330
1B429
100
AcDbEntity
  8
0
  6
CONTINUOUS
100
AcDbLine
 10
19.73925852647308
 20
-0.0000871381807288
 30
0.0
 11
23.4103456646501
 21
3.670999999996297
 31
0.0
  0
LINE
  5
1B434
330
1B429
100
AcDbEntity
  8
0
  6
CONTINUOUS
100
AcDbLine
 10
24.0893285619448
 20
4.349982897290997
 30
0.0
 11
25.16502691791769
 21
5.42568125326388
 31
0.0
  0
LINE
  5
1B435
330
1B429
100
AcDbEntity
  8
0
  6
CONTINUOUS
100
AcDbLine
 10
20.41282099582748
 20
-0.0000438779065108
 30
0.0
 11
21.64944178675636
 21
1.236576913022366
 31
0.0
  0
LINE
  5
1B436
330
1B429
100
AcDbEntity
  8
0
  6
CONTINUOUS
100
AcDbLine
 10
22.78126487373161
 20
2.36839999999762
 30
0.0
 11
24.08386487373029
 21
3.670999999996297
 31
0.0
  0
LINE
  5
1B437
330
1B429
100
AcDbEntity
  8
0
  6
CONTINUOUS
100
AcDbLine
 10
24.29746741546646
 20
3.884602541732471
 30
0.0
 11
25.37320866973843
 21
4.960343796004441
 31
0.0
  0
LINE
  5
1B438
330
1B429
100
AcDbEntity
  8
0
  6
CONTINUOUS
100
AcDbLine
 10
21.08638346518189
 20
-0.0000006176322938
 30
0.0
 11
21.10379033335899
 21
0.0174062505448083
 31
0.0
  0
LINE
  5
1B439
330
1B429
100
AcDbEntity
  8
0
  6
CONTINUOUS
100
AcDbLine
 10
23.4547840828118
 20
2.36839999999762
 30
0.0
 11
25.58139042155918
 21
4.495006338745002
 31
0.0
  0
LINE
  5
1B43A
330
1B429
100
AcDbEntity
  8
0
  6
CONTINUOUS
100
AcDbLine
 10
29.30199999996933
 20
8.215615917155148
 30
0.0
 11
29.84948408280543
 21
8.763099999991255
 31
0.0
  0
LINE
  5
1B43B
330
1B429
100
AcDbEntity
  8
0
  6
CONTINUOUS
100
AcDbLine
 10
24.12830329189199
 20
2.36839999999762
 30
0.0
 11
25.78957217337993
 21
4.029668881485562
 31
0.0
  0
LINE
  5
1B43C
330
1B429
100
AcDbEntity
  8
0
  6
CONTINUOUS
100
AcDbLine
 10
29.30199999996933
 20
7.54209670807496
 30
0.0
 11
30.52300329188562
 21
8.763099999991255
 31
0.0
  0
LINE
  5
1B43D
330
1B429
100
AcDbEntity
  8
0
  6
CONTINUOUS
100
AcDbLine
 10
24.80182250097217
 20
2.36839999999762
 30
0.0
 11
25.99775392520067
 21
3.564331424226122
 31
0.0
  0
LINE
  5
1B43E
330
1B429
100
AcDbEntity
  8
0
  6
CONTINUOUS
100
AcDbLine
 10
29.30199999996933
 20
6.868577498994774
 30
0.0
 11
30.74199999996926
 21
8.308577498994712
 31
0.0
  0
LINE
  5
1B43F
330
1B429
100
AcDbEntity
  8
0
  6
CONTINUOUS
100
AcDbLine
 10
25.13028238392013
 20
2.023340673865392
 30
0.0
 11
26.20593567702142
 21
3.098993966966683
 31
0.0
  0
LINE
  5
1B440
330
1B429
100
AcDbEntity
  8
0
  6
CONTINUOUS
100
AcDbLine
 10
25.33838066033617
 20
1.557919741201244
 30
0.0
 11
26.41411742884217
 21
2.633656509707244
 31
0.0
  0
LINE
  5
1B441
330
1B429
100
AcDbEntity
  8
0
  6
CONTINUOUS
100
AcDbLine
 10
25.54647893675221
 20
1.092498808537098
 30
0.0
 11
26.62229918066291
 21
2.168319052447804
 31
0.0
  0
LINE
  5
1B442
330
1B429
100
AcDbEntity
  8
0
  6
CONTINUOUS
100
AcDbLine
 10
25.75457721316825
 20
0.62707787587295
 30
0.0
 11
26.83048093248366
 21
1.702981595188365
 31
0.0
  0
LINE
  5
1B443
330
1B429
100
AcDbEntity
  8
0
  6
CONTINUOUS
100
AcDbLine
 10
29.30199999996933
 20
6.195058289914587
 30
0.0
 11
30.74199999996926
 21
7.635058289914522
 31
0.0
  0
LINE
  5
1B444
330
1B429
100
AcDbEntity
  8
0
  6
CONTINUOUS
100
AcDbLine
 10
29.30199999996933
 20
5.521539080834401
 30
0.0
 11
30.74199999996926
 21
6.961539080834331
 31
0.0
  0
LINE
  5
1B445
330
1B429
100
AcDbEntity
  8
0
  6
CONTINUOUS
100
AcDbLine
 10
29.30199999996933
 20
4.848019871754214
 30
0.0
 11
30.74199999996925
 21
6.288019871754143
 31
0.0
  0
LINE
  5
1B446
330
1B429
100
AcDbEntity
  8
0
  6
CONTINUOUS
100
AcDbLine
 10
29.30199999996933
 20
4.174500662674028
 30
0.0
 11
30.74199999996925
 21
5.614500662673953
 31
0.0
  0
LINE
  5
1B447
330
1B429
100
AcDbEntity
  8
0
  6
CONTINUOUS
100
AcDbLine
 10
25.96267548958429
 20
0.1616569432088024
 30
0.0
 11
27.18411854636669
 21
1.383099999991207
 31
0.0
  0
LINE
  5
1B448
330
1B429
100
AcDbEntity
  8
0
  6
CONTINUOUS
100
AcDbLine
 10
29.30199999996933
 20
3.500981453593841
 30
0.0
 11
30.74199999996925
 21
4.940981453593762
 31
0.0
  0
LINE
  5
1B449
330
1B429
100
AcDbEntity
  8
0
  6
CONTINUOUS
100
AcDbLine
 10
26.50763775544691
 20
0.0330999999912356
 30
0.0
 11
27.85763775544689
 21
1.383099999991223
 31
0.0
  0
LINE
  5
1B44A
330
1B429
100
AcDbEntity
  8
0
  6
CONTINUOUS
100
AcDbLine
 10
29.30199999996933
 20
2.827462244513656
 30
0.0
 11
30.74199999996925
 21
4.267462244513574
 31
0.0
  0
LINE
  5
1B44B
330
1B429
100
AcDbEntity
  8
0
  6
CONTINUOUS
100
AcDbLine
 10
27.18115696452709
 20
0.0330999999912356
 30
0.0
 11
28.6224847300034
 21
1.474427765467545
 31
0.0
  0
LINE
  5
1B44C
330
1B429
100
AcDbEntity
  8
0
  6
CONTINUOUS
100
AcDbLine
 10
29.21067223449293
 20
2.062615269957069
 30
0.0
 11
30.74199999996924
 21
3.593943035433383
 31
0.0
  0
LINE
  5
1B44D
330
1B429
100
AcDbEntity
  8
0
  6
CONTINUOUS
100
AcDbLine
 10
27.85467617360728
 20
0.0330999999912356
 30
0.0
 11
30.74199999996924
 21
2.920423826353195
 31
0.0
  0
LINE
  5
1B44E
330
1B429
100
AcDbEntity
  8
0
  6
CONTINUOUS
100
AcDbLine
 10
28.57438609860264
 20
0.0792907159064073
 30
0.0
 11
30.69580928405405
 21
2.200713901357819
 31
0.0
  0
LINE
  5
1B44F
330
1B429
100
AcDbEntity
  8
0
  6
CONTINUOUS
100
AcDbLine
 10
29.49443044814297
 20
0.3258158563665496
 30
0.0
 11
30.44928414359389
 21
1.280669551817477
 31
0.0
  0
LINE
  5
1B450
330
1B429
100
AcDbEntity
  8
0
  6
CONTINUOUS
100
AcDbLine
 10
19.59027867740337
 20
-0.0000967065718083
 30
0.0
 11
19.55485265190471
 21
0.035329318926844
 31
0.0
  0
LINE
  5
1B451
330
1B429
100
AcDbEntity
  8
0
  6
CONTINUOUS
100
AcDbLine
 10
20.26375463176586
 20
-0.0000534518541091
 30
0.0
 11
19.76305575737534
 21
0.5006454225364014
 31
0.0
  0
LINE
  5
1B452
330
1B429
100
AcDbEntity
  8
0
  6
CONTINUOUS
100
AcDbLine
 10
20.93723058612834
 20
-0.0000101971364099
 30
0.0
 11
19.97125886284597
 21
0.965961526145958
 31
0.0
  0
LINE
  5
1B453
330
1B429
100
AcDbEntity
  8
0
  6
CONTINUOUS
100
AcDbLine
 10
21.25514828313686
 20
0.355591314935257
 30
0.0
 11
20.1794619683166
 21
1.431277629755512
 31
0.0
  0
LINE
  5
1B454
330
1B429
100
AcDbEntity
  8
0
  6
CONTINUOUS
100
AcDbLine
 10
21.46338838394921
 20
0.8208704232030986
 30
0.0
 11
20.38766507378723
 21
1.896593733365069
 31
0.0
  0
LINE
  5
1B455
330
1B429
100
AcDbEntity
  8
0
  6
CONTINUOUS
100
AcDbLine
 10
21.67162848476155
 20
1.28614953147094
 30
0.0
 11
20.59586817925786
 21
2.361909836974626
 31
0.0
  0
LINE
  5
1B456
330
1B429
100
AcDbEntity
  8
0
  6
CONTINUOUS
100
AcDbLine
 10
21.8798685855739
 20
1.751428639738782
 30
0.0
 11
20.80407128472849
 21
2.827225940584183
 31
0.0
  0
LINE
  5
1B457
330
1B429
100
AcDbEntity
  8
0
  6
CONTINUOUS
100
AcDbLine
 10
22.08810868638624
 20
2.216707748006623
 30
0.0
 11
21.01227439019912
 21
3.292542044193739
 31
0.0
  0
LINE
  5
1B458
330
1B429
100
AcDbEntity
  8
0
  6
CONTINUOUS
100
AcDbLine
 10
22.60993564347543
 20
2.36839999999762
 30
0.0
 11
21.22047749566975
 21
3.757858147803296
 31
0.0
  0
LINE
  5
1B459
330
1B429
100
AcDbEntity
  8
0
  6
CONTINUOUS
100
AcDbLine
 10
23.28345485255561
 20
2.36839999999762
 30
0.0
 11
21.42868060114038
 21
4.223174251412853
 31
0.0
  0
LINE
  5
1B45A
330
1B429
100
AcDbEntity
  8
0
  6
CONTINUOUS
100
AcDbLine
 10
26.29227406164219
 20
0.0330999999912356
 30
0.0
 11
25.80009199592872
 21
0.5252820657046957
 31
0.0
  0
LINE
  5
1B45B
330
1B429
100
AcDbEntity
  8
0
  6
CONTINUOUS
100
AcDbLine
 10
23.9569740616358
 20
2.36839999999762
 30
0.0
 11
21.63688370661101
 21
4.688490355022409
 31
0.0
  0
LINE
  5
1B45C
330
1B429
100
AcDbEntity
  8
0
  6
CONTINUOUS
100
AcDbLine
 10
26.96579327072237
 20
0.0330999999912356
 30
0.0
 11
25.2554132311971
 21
1.743480039516508
 31
0.0
  0
LINE
  5
1B45D
330
1B429
100
AcDbEntity
  8
0
  6
CONTINUOUS
100
AcDbLine
 10
24.63049327071599
 20
2.36839999999762
 30
0.0
 11
23.32789327071731
 21
3.670999999996297
 31
0.0
  0
LINE
  5
1B45E
330
1B429
100
AcDbEntity
  8
0
  6
CONTINUOUS
100
AcDbLine
 10
22.92098674744635
 20
4.077906523267254
 30
0.0
 11
21.84508681208164
 21
5.153806458631966
 31
0.0
  0
LINE
  5
1B45F
330
1B429
100
AcDbEntity
  8
0
  6
CONTINUOUS
100
AcDbLine
 10
27.63931247980256
 20
0.0330999999912356
 30
0.0
 11
24.0014124797975
 21
3.670999999996297
 31
0.0
  0
LINE
  5
1B460
330
1B429
100
AcDbEntity
  8
0
  6
CONTINUOUS
100
AcDbLine
 10
23.129125600968
 20
4.5432868788258
 30
0.0
 11
22.05328991755227
 21
5.619122562241522
 31
0.0
  0
LINE
  5
1B461
330
1B429
100
AcDbEntity
  8
0
  6
CONTINUOUS
100
AcDbLine
 10
28.31283168888275
 20
0.0330999999912356
 30
0.0
 11
24.16488385994816
 21
4.181047828925828
 31
0.0
  0
LINE
  5
1B462
330
1B429
100
AcDbEntity
  8
0
  6
CONTINUOUS
100
AcDbLine
 10
23.33726445448964
 20
5.008667234384345
 30
0.0
 11
22.2614930230229
 21
6.084438665851079
 31
0.0
  0
LINE
  5
1B463
330
1B429
100
AcDbEntity
  8
0
  6
CONTINUOUS
100
AcDbLine
 10
28.86286302309502
 20
0.1565878748591523
 30
0.0
 11
27.63635089796295
 21
1.383099999991217
 31
0.0
  0
LINE
  5
1B464
330
1B429
100
AcDbEntity
  8
0
  6
CONTINUOUS
100
AcDbLine
 10
26.43704649509776
 20
2.582404402856405
 30
0.0
 11
23.61992702019732
 21
5.399523877756844
 31
0.0
  0
LINE
  5
1B465
330
1B429
100
AcDbEntity
  8
0
  6
CONTINUOUS
100
AcDbLine
 10
23.54540330801128
 20
5.47404758994289
 30
0.0
 11
22.46969612849353
 21
6.549754769460635
 31
0.0
  0
LINE
  5
1B466
330
1B429
100
AcDbEntity
  8
0
  6
CONTINUOUS
100
AcDbLine
 10
29.39405087596853
 20
0.2989192310658284
 30
0.0
 11
28.30987010704312
 21
1.383099999991234
 31
0.0
  0
LINE
  5
1B467
330
1B429
100
AcDbEntity
  8
0
  6
CONTINUOUS
100
AcDbLine
 10
25.89179548232307
 20
3.801174624711282
 30
0.0
 11
22.67789923396416
 21
7.015070873070191
 31
0.0
  0
LINE
  5
1B468
330
1B429
100
AcDbEntity
  8
0
  6
CONTINUOUS
100
AcDbLine
 10
29.79594438047407
 20
0.570544935640473
 30
0.0
 11
28.81310432793121
 21
1.553384988183336
 31
0.0
  0
LINE
  5
1B469
330
1B429
100
AcDbEntity
  8
0
  6
CONTINUOUS
100
AcDbLine
 10
25.34654446954838
 20
5.01994484656616
 30
0.0
 11
22.88610233943479
 21
7.480386976679748
 31
0.0
  0
LINE
  5
1B46A
330
1B429
100
AcDbEntity
  8
0
  6
CONTINUOUS
100
AcDbLine
 10
30.13270398501416
 20
0.9073045401805646
 30
0.0
 11
29.14234640337737
 21
1.897662121817355
 31
0.0
  0
LINE
  5
1B46B
330
1B429
100
AcDbEntity
  8
0
  6
CONTINUOUS
100
AcDbLine
 10
24.80129345677369
 20
6.238715068421037
 30
0.0
 11
23.09430544490542
 21
7.945703080289305
 31
0.0
  0
LINE
  5
1B46C
330
1B429
100
AcDbEntity
  8
0
  6
CONTINUOUS
100
AcDbLine
 10
30.44581292956759
 20
1.26771480470732
 30
0.0
 11
29.30199999996933
 21
2.411527734305588
 31
0.0
  0
LINE
  5
1B46D
330
1B429
100
AcDbEntity
  8
0
  6
CONTINUOUS
100
AcDbLine
 10
30.58814428577427
 20
1.798902657580827
 30
0.0
 11
29.30199999996933
 21
3.085046943385775
 31
0.0
  0
LINE
  5
1B46E
330
1B429
100
AcDbEntity
  8
0
  6
CONTINUOUS
100
AcDbLine
 10
24.256042443999
 20
7.457485290275915
 30
0.0
 11
23.30250855037605
 21
8.411019183898862
 31
0.0
  0
LINE
  5
1B46F
330
1B429
100
AcDbEntity
  8
0
  6
CONTINUOUS
100
AcDbLine
 10
23.71079143122431
 20
8.676255512130794
 30
0.0
 11
23.51071165584668
 21
8.876335287508418
 31
0.0
  0
LINE
  5
1B470
330
1B429
100
AcDbEntity
  8
0
  6
CONTINUOUS
100
AcDbLine
 10
30.73047564198095
 20
2.330090510454333
 30
0.0
 11
29.30199999996933
 21
3.758566152465961
 31
0.0
  0
LINE
  5
1B471
330
1B429
100
AcDbEntity
  8
0
  6
CONTINUOUS
100
AcDbLine
 10
30.74199999996924
 20
2.992085361546236
 30
0.0
 11
29.30199999996933
 21
4.432085361546148
 31
0.0
  0
LINE
  5
1B472
330
1B429
100
AcDbEntity
  8
0
  6
CONTINUOUS
100
AcDbLine
 10
30.74199999996924
 20
3.665604570626419
 30
0.0
 11
29.30199999996933
 21
5.105604570626333
 31
0.0
  0
LINE
  5
1B473
330
1B429
100
AcDbEntity
  8
0
  6
CONTINUOUS
100
AcDbLine
 10
30.74199999996925
 20
4.339123779706602
 30
0.0
 11
29.30199999996933
 21
5.77912377970652
 31
0.0
  0
LINE
  5
1B474
330
1B429
100
AcDbEntity
  8
0
  6
CONTINUOUS
100
AcDbLine
 10
30.74199999996925
 20
5.012642988786785
 30
0.0
 11
29.30199999996933
 21
6.452642988786707
 31
0.0
  0
LINE
  5
1B475
330
1B429
100
AcDbEntity
  8
0
  6
CONTINUOUS
100
AcDbLine
 10
30.74199999996925
 20
5.68616219786697
 30
0.0
 11
29.30199999996933
 21
7.126162197866894
 31
0.0
  0
LINE
  5
1B476
330
1B429
100
AcDbEntity
  8
0
  6
CONTINUOUS
100
AcDbLine
 10
30.74199999996925
 20
6.359681406947153
 30
0.0
 11
29.30199999996933
 21
7.799681406947081
 31
0.0
  0
LINE
  5
1B477
330
1B429
100
AcDbEntity
  8
0
  6
CONTINUOUS
100
AcDbLine
 10
30.74199999996926
 20
7.033200616027337
 30
0.0
 11
29.30199999996933
 21
8.473200616027269
 31
0.0
  0
LINE
  5
1B478
330
1B429
100
AcDbEntity
  8
0
  6
CONTINUOUS
100
AcDbLine
 10
30.74199999996926
 20
7.706719825107518
 30
0.0
 11
29.68561982508552
 21
8.763099999991255
 31
0.0
  0
LINE
  5
1B479
330
1B429
100
AcDbEntity
  8
0
  6
CONTINUOUS
100
AcDbLine
 10
30.74199999996926
 20
8.380239034187703
 30
0.0
 11
30.35913903416571
 21
8.763099999991255
 31
0.0
  0
ENDBLK
  5
1B51C
330
1B429
100
AcDbEntity
  8
0
100
AcDbBlockEnd
  0
BLOCK
  5
1B51D
330
1B47A
100
AcDbEntity
  8
0
100
AcDbBlockBegin
  2
*X30
 70
     1
 10
0.0
 20
0.0
 30
0.0
  3
*X30
  1

  0
LINE
  5
1B47B
330
1B47A
100
AcDbEntity
  8
0
  6
CONTINUOUS
100
AcDbLine
 10
31.64199999996833
 20
8.5350582899136
 30
0.0
 11
31.87004171004599
 21
8.763099999991255
 31
0.0
  0
LINE
  5
1B47C
330
1B47A
100
AcDbEntity
  8
0
  6
CONTINUOUS
100
AcDbLine
 10
31.64199999996833
 20
7.861539080833413
 30
0.0
 11
32.54356091912618
 21
8.763099999991255
 31
0.0
  0
LINE
  5
1B47D
330
1B47A
100
AcDbEntity
  8
0
  6
CONTINUOUS
100
AcDbLine
 10
31.64199999996833
 20
7.188019871753227
 30
0.0
 11
33.08199999996839
 21
8.628019871753281
 31
0.0
  0
LINE
  5
1B47E
330
1B47A
100
AcDbEntity
  8
0
  6
CONTINUOUS
100
AcDbLine
 10
31.64199999996833
 20
6.514500662673041
 30
0.0
 11
33.08199999996839
 21
7.954500662673095
 31
0.0
  0
LINE
  5
1B47F
330
1B47A
100
AcDbEntity
  8
0
  6
CONTINUOUS
100
AcDbLine
 10
31.64199999996833
 20
5.840981453592855
 30
0.0
 11
33.08199999996839
 21
7.28098145359291
 31
0.0
  0
LINE
  5
1B480
330
1B47A
100
AcDbEntity
  8
0
  6
CONTINUOUS
100
AcDbLine
 10
31.64199999996833
 20
5.167462244512668
 30
0.0
 11
33.08199999996839
 21
6.607462244512723
 31
0.0
  0
LINE
  5
1B481
330
1B47A
100
AcDbEntity
  8
0
  6
CONTINUOUS
100
AcDbLine
 10
31.64199999996833
 20
4.493943035432482
 30
0.0
 11
33.08199999996839
 21
5.933943035432536
 31
0.0
  0
LINE
  5
1B482
330
1B47A
100
AcDbEntity
  8
0
  6
CONTINUOUS
100
AcDbLine
 10
31.64199999996833
 20
3.820423826352294
 30
0.0
 11
33.08199999996839
 21
5.260423826352349
 31
0.0
  0
LINE
  5
1B483
330
1B47A
100
AcDbEntity
  8
0
  6
CONTINUOUS
100
AcDbLine
 10
31.64199999996833
 20
3.146904617272108
 30
0.0
 11
33.08199999996839
 21
4.586904617272163
 31
0.0
  0
LINE
  5
1B484
330
1B47A
100
AcDbEntity
  8
0
  6
CONTINUOUS
100
AcDbLine
 10
36.23199999996837
 20
8.410423826352327
 30
0.0
 11
36.58467617360729
 21
8.763099999991255
 31
0.0
  0
LINE
  5
1B485
330
1B47A
100
AcDbEntity
  8
0
  6
CONTINUOUS
100
AcDbLine
 10
36.23199999996837
 20
7.73690461727214
 30
0.0
 11
37.25819538268748
 21
8.763099999991255
 31
0.0
  0
LINE
  5
1B486
330
1B47A
100
AcDbEntity
  8
0
  6
CONTINUOUS
100
AcDbLine
 10
31.64323424774199
 20
2.474619655965573
 30
0.0
 11
33.08199999996839
 21
3.913385408191976
 31
0.0
  0
LINE
  5
1B487
330
1B47A
100
AcDbEntity
  8
0
  6
CONTINUOUS
100
AcDbLine
 10
31.74419223861915
 20
1.902058437762552
 30
0.0
 11
33.08199999996839
 21
3.239866199111789
 31
0.0
  0
LINE
  5
1B488
330
1B47A
100
AcDbEntity
  8
0
  6
CONTINUOUS
100
AcDbLine
 10
36.23199999996837
 20
7.063385408191953
 30
0.0
 11
37.67199999996831
 21
8.503385408191894
 31
0.0
  0
LINE
  5
1B489
330
1B47A
100
AcDbEntity
  8
0
  6
CONTINUOUS
100
AcDbLine
 10
36.23199999996837
 20
6.389866199111767
 30
0.0
 11
37.67199999996831
 21
7.829866199111708
 31
0.0
  0
LINE
  5
1B48A
330
1B47A
100
AcDbEntity
  8
0
  6
CONTINUOUS
100
AcDbLine
 10
31.91111233414976
 20
1.39545932421297
 30
0.0
 11
33.08199999996839
 21
2.566346990031603
 31
0.0
  0
LINE
  5
1B48B
330
1B47A
100
AcDbEntity
  8
0
  6
CONTINUOUS
100
AcDbLine
 10
36.23199999996837
 20
5.71634699003158
 30
0.0
 11
37.67199999996831
 21
7.156346990031522
 31
0.0
  0
LINE
  5
1B48C
330
1B47A
100
AcDbEntity
  8
0
  6
CONTINUOUS
100
AcDbLine
 10
32.1576374746103
 20
0.9684652555933289
 30
0.0
 11
33.20642631446081
 21
2.017254095443838
 31
0.0
  0
LINE
  5
1B48D
330
1B47A
100
AcDbEntity
  8
0
  6
CONTINUOUS
100
AcDbLine
 10
36.23199999996837
 20
5.042827780951393
 30
0.0
 11
37.67199999996831
 21
6.482827780951334
 31
0.0
  0
LINE
  5
1B48E
330
1B47A
100
AcDbEntity
  8
0
  6
CONTINUOUS
100
AcDbLine
 10
32.47774023927325
 20
0.6150488111760914
 30
0.0
 11
33.49903056428258
 21
1.636339136185419
 31
0.0
  0
LINE
  5
1B48F
330
1B47A
100
AcDbEntity
  8
0
  6
CONTINUOUS
100
AcDbLine
 10
36.23199999996837
 20
4.369308571871207
 30
0.0
 11
37.67199999996831
 21
5.809308571871148
 31
0.0
  0
LINE
  5
1B490
330
1B47A
100
AcDbEntity
  8
0
  6
CONTINUOUS
100
AcDbLine
 10
32.84396249154443
 20
0.3077518543670883
 30
0.0
 11
33.93324121824649
 21
1.397030581069146
 31
0.0
  0
LINE
  5
1B491
330
1B47A
100
AcDbEntity
  8
0
  6
CONTINUOUS
100
AcDbLine
 10
36.23199999996837
 20
3.695789362791021
 30
0.0
 11
37.67199999996831
 21
5.135789362790963
 31
0.0
  0
LINE
  5
1B492
330
1B47A
100
AcDbEntity
  8
0
  6
CONTINUOUS
100
AcDbLine
 10
33.30186329036846
 20
0.0921334441109263
 30
0.0
 11
34.46442907112041
 21
1.254699224862875
 31
0.0
  0
LINE
  5
1B493
330
1B47A
100
AcDbEntity
  8
0
  6
CONTINUOUS
100
AcDbLine
 10
36.23199999996837
 20
3.022270153710834
 30
0.0
 11
37.67199999996831
 21
4.462270153710776
 31
0.0
  0
LINE
  5
1B494
330
1B47A
100
AcDbEntity
  8
0
  6
CONTINUOUS
100
AcDbLine
 10
33.79565647746294
 20
-0.0875925778747773
 30
0.0
 11
35.24350171668284
 21
1.360252661345124
 31
0.0
  0
LINE
  5
1B495
330
1B47A
100
AcDbEntity
  8
0
  6
CONTINUOUS
100
AcDbLine
 10
36.18336676155003
 20
2.300117706212308
 30
0.0
 11
37.67199999996831
 21
3.788750944630589
 31
0.0
  0
LINE
  5
1B496
330
1B47A
100
AcDbEntity
  8
0
  6
CONTINUOUS
100
AcDbLine
 10
34.37182574910968
 20
-0.184942515308224
 30
0.0
 11
37.67199999996831
 21
3.115231735550402
 31
0.0
  0
LINE
  5
1B497
330
1B47A
100
AcDbEntity
  8
0
  6
CONTINUOUS
100
AcDbLine
 10
35.0453449581892
 20
-0.1849425153088955
 30
0.0
 11
37.66345697088136
 21
2.433169497383271
 31
0.0
  0
LINE
  5
1B498
330
1B47A
100
AcDbEntity
  8
0
  6
CONTINUOUS
100
AcDbLine
 10
35.98667157609191
 20
0.0828648935136398
 30
0.0
 11
37.51927401744566
 21
1.615467334867382
 31
0.0
  0
LINE
  5
1B499
330
1B47A
100
AcDbEntity
  8
0
  6
CONTINUOUS
100
AcDbLine
 10
32.27747408544484
 20
0.7830920669904482
 30
0.0
 11
32.24716210471949
 21
0.8134040477157893
 31
0.0
  0
LINE
  5
1B49A
330
1B47A
100
AcDbEntity
  8
0
  6
CONTINUOUS
100
AcDbLine
 10
33.83656881101902
 20
-0.1024834495035494
 30
0.0
 11
31.72538911593758
 21
2.008696245577891
 31
0.0
  0
LINE
  5
1B49B
330
1B47A
100
AcDbEntity
  8
0
  6
CONTINUOUS
100
AcDbLine
 10
34.5925470859041
 20
-0.1849425153084434
 30
0.0
 11
31.64199999996833
 21
2.765604570627322
 31
0.0
  0
LINE
  5
1B49C
330
1B47A
100
AcDbEntity
  8
0
  6
CONTINUOUS
100
AcDbLine
 10
35.26201302775981
 20
-0.1808892480839752
 30
0.0
 11
31.64199999996833
 21
3.439123779707508
 31
0.0
  0
LINE
  5
1B49D
330
1B47A
100
AcDbEntity
  8
0
  6
CONTINUOUS
100
AcDbLine
 10
35.75580621485512
 20
-0.0011632260990879
 30
0.0
 11
34.51294304365551
 21
1.241699945100514
 31
0.0
  0
LINE
  5
1B49E
330
1B47A
100
AcDbEntity
  8
0
  6
CONTINUOUS
100
AcDbLine
 10
33.08199999996839
 20
2.672642988787641
 30
0.0
 11
31.64199999996833
 21
4.112642988787695
 31
0.0
  0
LINE
  5
1B49F
330
1B47A
100
AcDbEntity
  8
0
  6
CONTINUOUS
100
AcDbLine
 10
36.24959940195042
 20
0.1785627958857976
 30
0.0
 11
35.10501653033629
 21
1.323145667499924
 31
0.0
  0
LINE
  5
1B4A0
330
1B47A
100
AcDbEntity
  8
0
  6
CONTINUOUS
100
AcDbLine
 10
33.08199999996839
 20
3.346162197867827
 30
0.0
 11
31.64199999996833
 21
4.786162197867881
 31
0.0
  0
LINE
  5
1B4A1
330
1B47A
100
AcDbEntity
  8
0
  6
CONTINUOUS
100
AcDbLine
 10
36.64615197150552
 20
0.4555294354108876
 30
0.0
 11
35.6362043832099
 21
1.465477023706505
 31
0.0
  0
LINE
  5
1B4A2
330
1B47A
100
AcDbEntity
  8
0
  6
CONTINUOUS
100
AcDbLine
 10
33.08199999996839
 20
4.019681406948013
 30
0.0
 11
31.64199999996833
 21
5.459681406948068
 31
0.0
  0
LINE
  5
1B4A3
330
1B47A
100
AcDbEntity
  8
0
  6
CONTINUOUS
100
AcDbLine
 10
37.0123742237774
 20
0.7628263922191891
 30
0.0
 11
35.97691545773309
 21
1.798285158263504
 31
0.0
  0
LINE
  5
1B4A4
330
1B47A
100
AcDbEntity
  8
0
  6
CONTINUOUS
100
AcDbLine
 10
33.08199999996839
 20
4.6932006160282
 30
0.0
 11
31.64199999996833
 21
6.133200616028255
 31
0.0
  0
LINE
  5
1B4A5
330
1B47A
100
AcDbEntity
  8
0
  6
CONTINUOUS
100
AcDbLine
 10
37.27491524157143
 20
1.173804583505349
 30
0.0
 11
36.17602012811361
 21
2.272699696963169
 31
0.0
  0
LINE
  5
1B4A6
330
1B47A
100
AcDbEntity
  8
0
  6
CONTINUOUS
100
AcDbLine
 10
33.08199999996839
 20
5.366719825108387
 30
0.0
 11
31.64199999996833
 21
6.806719825108441
 31
0.0
  0
LINE
  5
1B4A7
330
1B47A
100
AcDbEntity
  8
0
  6
CONTINUOUS
100
AcDbLine
 10
37.51739996707661
 20
1.604839067080355
 30
0.0
 11
36.23199999996837
 21
2.890239034188595
 31
0.0
  0
LINE
  5
1B4A8
330
1B47A
100
AcDbEntity
  8
0
  6
CONTINUOUS
100
AcDbLine
 10
37.6183579579535
 20
2.177400285283649
 30
0.0
 11
36.23199999996837
 21
3.563758243268782
 31
0.0
  0
LINE
  5
1B4A9
330
1B47A
100
AcDbEntity
  8
0
  6
CONTINUOUS
100
AcDbLine
 10
33.08199999996839
 20
6.040239034188573
 30
0.0
 11
31.64199999996833
 21
7.480239034188628
 31
0.0
  0
LINE
  5
1B4AA
330
1B47A
100
AcDbEntity
  8
0
  6
CONTINUOUS
100
AcDbLine
 10
33.08199999996839
 20
6.713758243268759
 30
0.0
 11
31.64199999996833
 21
8.153758243268815
 31
0.0
  0
LINE
  5
1B4AB
330
1B47A
100
AcDbEntity
  8
0
  6
CONTINUOUS
100
AcDbLine
 10
37.67199999996831
 20
2.797277452349027
 30
0.0
 11
36.23199999996837
 21
4.237277452348969
 31
0.0
  0
LINE
  5
1B4AC
330
1B47A
100
AcDbEntity
  8
0
  6
CONTINUOUS
100
AcDbLine
 10
37.67199999996831
 20
3.470796661429214
 30
0.0
 11
36.23199999996837
 21
4.910796661429155
 31
0.0
  0
LINE
  5
1B4AD
330
1B47A
100
AcDbEntity
  8
0
  6
CONTINUOUS
100
AcDbLine
 10
37.67199999996831
 20
4.1443158705094
 30
0.0
 11
36.23199999996837
 21
5.584315870509341
 31
0.0
  0
LINE
  5
1B4AE
330
1B47A
100
AcDbEntity
  8
0
  6
CONTINUOUS
100
AcDbLine
 10
33.08199999996839
 20
7.387277452348946
 30
0.0
 11
31.70617745232608
 21
8.763099999991255
 31
0.0
  0
LINE
  5
1B4AF
330
1B47A
100
AcDbEntity
  8
0
  6
CONTINUOUS
100
AcDbLine
 10
33.08199999996839
 20
8.060796661429134
 30
0.0
 11
32.37969666140626
 21
8.763099999991255
 31
0.0
  0
LINE
  5
1B4B0
330
1B47A
100
AcDbEntity
  8
0
  6
CONTINUOUS
100
AcDbLine
 10
33.08199999996839
 20
8.734315870509318
 30
0.0
 11
33.05321587048645
 21
8.763099999991255
 31
0.0
  0
LINE
  5
1B4B1
330
1B47A
100
AcDbEntity
  8
0
  6
CONTINUOUS
100
AcDbLine
 10
37.67199999996831
 20
4.817835079589586
 30
0.0
 11
36.23199999996837
 21
6.257835079589528
 31
0.0
  0
LINE
  5
1B4B2
330
1B47A
100
AcDbEntity
  8
0
  6
CONTINUOUS
100
AcDbLine
 10
37.67199999996831
 20
5.491354288669772
 30
0.0
 11
36.23199999996837
 21
6.931354288669715
 31
0.0
  0
LINE
  5
1B4B3
330
1B47A
100
AcDbEntity
  8
0
  6
CONTINUOUS
100
AcDbLine
 10
37.67199999996831
 20
6.164873497749959
 30
0.0
 11
36.23199999996837
 21
7.6048734977499
 31
0.0
  0
LINE
  5
1B4B4
330
1B47A
100
AcDbEntity
  8
0
  6
CONTINUOUS
100
AcDbLine
 10
37.67199999996831
 20
6.838392706830145
 30
0.0
 11
36.23199999996837
 21
8.278392706830086
 31
0.0
  0
LINE
  5
1B4B5
330
1B47A
100
AcDbEntity
  8
0
  6
CONTINUOUS
100
AcDbLine
 10
37.67199999996831
 20
7.511911915910333
 30
0.0
 11
36.42081191588738
 21
8.763099999991255
 31
0.0
  0
LINE
  5
1B4B6
330
1B47A
100
AcDbEntity
  8
0
  6
CONTINUOUS
100
AcDbLine
 10
37.67199999996831
 20
8.185431124990519
 30
0.0
 11
37.09433112496757
 21
8.763099999991255
 31
0.0
  0
ENDBLK
  5
1B51E
330
1B47A
100
AcDbEntity
  8
0
100
AcDbBlockEnd
  0
BLOCK
  5
1B51F
330
1B4B7
100
AcDbEntity
  8
0
100
AcDbBlockBegin
  2
*X31
 70
     1
 10
0.0
 20
0.0
 30
0.0
  3
*X31
  1

  0
LINE
  5
1B4B8
330
1B4B7
100
AcDbEntity
  8
0
  6
CONTINUOUS
100
AcDbLine
 10
38.60499999996136
 20
8.762866199104765
 30
0.0
 11
38.71672554182345
 21
8.874591740966855
 31
0.0
  0
LINE
  5
1B4B9
330
1B4B7
100
AcDbEntity
  8
0
  6
CONTINUOUS
100
AcDbLine
 10
38.60499999996136
 20
8.089346990024577
 30
0.0
 11
39.03418785440363
 21
8.518534844466847
 31
0.0
  0
LINE
  5
1B4BA
330
1B4B7
100
AcDbEntity
  8
0
  6
CONTINUOUS
100
AcDbLine
 10
38.60499999996136
 20
7.41582778094439
 30
0.0
 11
39.35165016698382
 21
8.16247794796684
 31
0.0
  0
LINE
  5
1B4BB
330
1B4B7
100
AcDbEntity
  8
0
  6
CONTINUOUS
100
AcDbLine
 10
38.60499999996136
 20
6.742308571864204
 30
0.0
 11
39.66911247956399
 21
7.806421051466834
 31
0.0
  0
LINE
  5
1B4BC
330
1B4B7
100
AcDbEntity
  8
0
  6
CONTINUOUS
100
AcDbLine
 10
38.60499999996136
 20
6.068789362784018
 30
0.0
 11
39.98657479214418
 21
7.450364154966827
 31
0.0
  0
LINE
  5
1B4BD
330
1B4B7
100
AcDbEntity
  8
0
  6
CONTINUOUS
100
AcDbLine
 10
38.60499999996136
 20
5.395270153703832
 30
0.0
 11
40.30403710472435
 21
7.09430725846682
 31
0.0
  0
LINE
  5
1B4BE
330
1B4B7
100
AcDbEntity
  8
0
  6
CONTINUOUS
100
AcDbLine
 10
38.60499999996136
 20
4.721750944623645
 30
0.0
 11
40.62149941730453
 21
6.738250361966813
 31
0.0
  0
LINE
  5
1B4BF
330
1B4B7
100
AcDbEntity
  8
0
  6
CONTINUOUS
100
AcDbLine
 10
38.60499999996136
 20
4.048231735543458
 30
0.0
 11
40.93896172988471
 21
6.382193465466806
 31
0.0
  0
LINE
  5
1B4C0
330
1B4B7
100
AcDbEntity
  8
0
  6
CONTINUOUS
100
AcDbLine
 10
38.60499999996136
 20
3.374712526463272
 30
0.0
 11
40.02599999995994
 21
4.795712526461843
 31
0.0
  0
LINE
  5
1B4C1
330
1B4B7
100
AcDbEntity
  8
0
  6
CONTINUOUS
100
AcDbLine
 10
38.60499999996136
 20
2.701193317383085
 30
0.0
 11
40.02599999995994
 21
4.122193317381657
 31
0.0
  0
LINE
  5
1B4C2
330
1B4B7
100
AcDbEntity
  8
0
  6
CONTINUOUS
100
AcDbLine
 10
40.28339754687704
 20
5.053110073378947
 30
0.0
 11
41.25642404246489
 21
6.026136568966799
 31
0.0
  0
LINE
  5
1B4C3
330
1B4B7
100
AcDbEntity
  8
0
  6
CONTINUOUS
100
AcDbLine
 10
40.60085985945722
 20
4.697053176878939
 30
0.0
 11
41.57388635504507
 21
5.670079672466793
 31
0.0
  0
LINE
  5
1B4C4
330
1B4B7
100
AcDbEntity
  8
0
  6
CONTINUOUS
100
AcDbLine
 10
43.57899999995641
 20
8.348712526458318
 30
0.0
 11
43.99338747348935
 21
8.763099999991255
 31
0.0
  0
LINE
  5
1B4C5
330
1B4B7
100
AcDbEntity
  8
0
  6
CONTINUOUS
100
AcDbLine
 10
43.57899999995641
 20
7.675193317378131
 30
0.0
 11
44.66690668256953
 21
8.763099999991255
 31
0.0
  0
LINE
  5
1B4C6
330
1B4B7
100
AcDbEntity
  8
0
  6
CONTINUOUS
100
AcDbLine
 10
38.60499999996136
 20
2.027674108302898
 30
0.0
 11
40.02599999995994
 21
3.44867410830147
 31
0.0
  0
LINE
  5
1B4C7
330
1B4B7
100
AcDbEntity
  8
0
  6
CONTINUOUS
100
AcDbLine
 10
38.60499999996136
 20
1.354154899222712
 30
0.0
 11
40.02599999995994
 21
2.775154899221284
 31
0.0
  0
LINE
  5
1B4C8
330
1B4B7
100
AcDbEntity
  8
0
  6
CONTINUOUS
100
AcDbLine
 10
38.60499999996136
 20
0.6806356901425255
 30
0.0
 11
40.02599999995994
 21
2.101635690141098
 31
0.0
  0
LINE
  5
1B4C9
330
1B4B7
100
AcDbEntity
  8
0
  6
CONTINUOUS
100
AcDbLine
 10
38.60499999996136
 20
0.0071164810623383
 30
0.0
 11
40.02599999995994
 21
1.428116481060911
 31
0.0
  0
LINE
  5
1B4CA
330
1B4B7
100
AcDbEntity
  8
0
  6
CONTINUOUS
100
AcDbLine
 10
40.9183221720374
 20
4.340996280378933
 30
0.0
 11
41.89134866762525
 21
5.314022775966786
 31
0.0
  0
LINE
  5
1B4CB
330
1B4B7
100
AcDbEntity
  8
0
  6
CONTINUOUS
100
AcDbLine
 10
41.23578448461758
 20
3.984939383878926
 30
0.0
 11
42.20881098020543
 21
4.957965879466778
 31
0.0
  0
LINE
  5
1B4CC
330
1B4B7
100
AcDbEntity
  8
0
  6
CONTINUOUS
100
AcDbLine
 10
41.55324679719776
 20
3.628882487378919
 30
0.0
 11
42.52627329278561
 21
4.601908982966772
 31
0.0
  0
LINE
  5
1B4CD
330
1B4B7
100
AcDbEntity
  8
0
  6
CONTINUOUS
100
AcDbLine
 10
41.87070910977793
 20
3.272825590878912
 30
0.0
 11
42.84373560536579
 21
4.245852086466765
 31
0.0
  0
LINE
  5
1B4CE
330
1B4B7
100
AcDbEntity
  8
0
  6
CONTINUOUS
100
AcDbLine
 10
43.57899999995641
 20
7.001674108297943
 30
0.0
 11
44.99999999995498
 21
8.422674108296516
 31
0.0
  0
LINE
  5
1B4CF
330
1B4B7
100
AcDbEntity
  8
0
  6
CONTINUOUS
100
AcDbLine
 10
43.57899999995641
 20
6.328154899217758
 30
0.0
 11
44.99999999995498
 21
7.749154899216329
 31
0.0
  0
LINE
  5
1B4D0
330
1B4B7
100
AcDbEntity
  8
0
  6
CONTINUOUS
100
AcDbLine
 10
43.57899999995641
 20
5.654635690137571
 30
0.0
 11
44.99999999995498
 21
7.075635690136142
 31
0.0
  0
LINE
  5
1B4D1
330
1B4B7
100
AcDbEntity
  8
0
  6
CONTINUOUS
100
AcDbLine
 10
43.57899999995641
 20
4.981116481057384
 30
0.0
 11
44.99999999995498
 21
6.402116481055955
 31
0.0
  0
LINE
  5
1B4D2
330
1B4B7
100
AcDbEntity
  8
0
  6
CONTINUOUS
100
AcDbLine
 10
39.27140272797921
 20
-0.0000000000000009
 30
0.0
 11
40.02599999995994
 21
0.7545972719807246
 31
0.0
  0
LINE
  5
1B4D3
330
1B4B7
100
AcDbEntity
  8
0
  6
CONTINUOUS
100
AcDbLine
 10
39.9449219370594
 20
-0.0000000000000009
 30
0.0
 11
40.02599999995994
 21
0.0810780629005379
 31
0.0
  0
LINE
  5
1B4D4
330
1B4B7
100
AcDbEntity
  8
0
  6
CONTINUOUS
100
AcDbLine
 10
42.18817142235812
 20
2.916768694378905
 30
0.0
 11
43.16119791794597
 21
3.889795189966758
 31
0.0
  0
LINE
  5
1B4D5
330
1B4B7
100
AcDbEntity
  8
0
  6
CONTINUOUS
100
AcDbLine
 10
42.50563373493829
 20
2.560711797878898
 30
0.0
 11
43.47866023052615
 21
3.533738293466751
 31
0.0
  0
LINE
  5
1B4D6
330
1B4B7
100
AcDbEntity
  8
0
  6
CONTINUOUS
100
AcDbLine
 10
43.57899999995641
 20
4.307597271977198
 30
0.0
 11
44.99999999995498
 21
5.728597271975769
 31
0.0
  0
LINE
  5
1B4D7
330
1B4B7
100
AcDbEntity
  8
0
  6
CONTINUOUS
100
AcDbLine
 10
43.57899999995641
 20
3.634078062897011
 30
0.0
 11
44.99999999995498
 21
5.055078062895582
 31
0.0
  0
LINE
  5
1B4D8
330
1B4B7
100
AcDbEntity
  8
0
  6
CONTINUOUS
100
AcDbLine
 10
42.82309604751848
 20
2.204654901378891
 30
0.0
 11
44.99999999995498
 21
4.381558853815395
 31
0.0
  0
LINE
  5
1B4D9
330
1B4B7
100
AcDbEntity
  8
0
  6
CONTINUOUS
100
AcDbLine
 10
43.14055836009865
 20
1.848598004878885
 30
0.0
 11
44.99999999995498
 21
3.70803964473521
 31
0.0
  0
LINE
  5
1B4DA
330
1B4B7
100
AcDbEntity
  8
0
  6
CONTINUOUS
100
AcDbLine
 10
43.45802067267883
 20
1.492541108378878
 30
0.0
 11
44.99999999995498
 21
3.034520435655023
 31
0.0
  0
LINE
  5
1B4DB
330
1B4B7
100
AcDbEntity
  8
0
  6
CONTINUOUS
100
AcDbLine
 10
43.77548298525902
 20
1.136484211878871
 30
0.0
 11
44.99999999995498
 21
2.361001226574837
 31
0.0
  0
LINE
  5
1B4DC
330
1B4B7
100
AcDbEntity
  8
0
  6
CONTINUOUS
100
AcDbLine
 10
44.09294529783919
 20
0.7804273153788639
 30
0.0
 11
44.99999999995498
 21
1.687482017494649
 31
0.0
  0
LINE
  5
1B4DD
330
1B4B7
100
AcDbEntity
  8
0
  6
CONTINUOUS
100
AcDbLine
 10
44.41040761041938
 20
0.4243704188788566
 30
0.0
 11
44.99999999995498
 21
1.013962808414463
 31
0.0
  0
LINE
  5
1B4DE
330
1B4B7
100
AcDbEntity
  8
0
  6
CONTINUOUS
100
AcDbLine
 10
44.72786992299955
 20
0.0683135223788494
 30
0.0
 11
44.99999999995498
 21
0.340443599334276
 31
0.0
  0
LINE
  5
1B4DF
330
1B4B7
100
AcDbEntity
  8
0
  6
CONTINUOUS
100
AcDbLine
 10
39.12223903415696
 20
-0.0000000000000009
 30
0.0
 11
38.60499999996136
 21
0.5172390341955961
 31
0.0
  0
LINE
  5
1B4E0
330
1B4B7
100
AcDbEntity
  8
0
  6
CONTINUOUS
100
AcDbLine
 10
39.79575824323715
 20
-0.0000000000000009
 30
0.0
 11
38.60499999996136
 21
1.190758243275783
 31
0.0
  0
LINE
  5
1B4E1
330
1B4B7
100
AcDbEntity
  8
0
  6
CONTINUOUS
100
AcDbLine
 10
40.02599999995994
 20
0.443277452357397
 30
0.0
 11
38.60499999996136
 21
1.864277452355969
 31
0.0
  0
LINE
  5
1B4E2
330
1B4B7
100
AcDbEntity
  8
0
  6
CONTINUOUS
100
AcDbLine
 10
40.02599999995994
 20
1.116796661437583
 30
0.0
 11
38.60499999996136
 21
2.537796661436155
 31
0.0
  0
LINE
  5
1B4E3
330
1B4B7
100
AcDbEntity
  8
0
  6
CONTINUOUS
100
AcDbLine
 10
40.02599999995994
 20
1.79031587051777
 30
0.0
 11
38.60499999996136
 21
3.211315870516341
 31
0.0
  0
LINE
  5
1B4E4
330
1B4B7
100
AcDbEntity
  8
0
  6
CONTINUOUS
100
AcDbLine
 10
40.02599999995994
 20
2.463835079597956
 30
0.0
 11
38.60499999996136
 21
3.884835079596527
 31
0.0
  0
LINE
  5
1B4E5
330
1B4B7
100
AcDbEntity
  8
0
  6
CONTINUOUS
100
AcDbLine
 10
40.02599999995994
 20
3.137354288678143
 30
0.0
 11
38.60499999996136
 21
4.558354288676714
 31
0.0
  0
LINE
  5
1B4E6
330
1B4B7
100
AcDbEntity
  8
0
  6
CONTINUOUS
100
AcDbLine
 10
40.02599999995994
 20
3.810873497758329
 30
0.0
 11
38.60499999996136
 21
5.2318734977569
 31
0.0
  0
LINE
  5
1B4E7
330
1B4B7
100
AcDbEntity
  8
0
  6
CONTINUOUS
100
AcDbLine
 10
40.02599999995994
 20
4.484392706838515
 30
0.0
 11
38.60499999996136
 21
5.905392706837086
 31
0.0
  0
LINE
  5
1B4E8
330
1B4B7
100
AcDbEntity
  8
0
  6
CONTINUOUS
100
AcDbLine
 10
44.99999999995498
 20
0.183911915923658
 30
0.0
 11
41.53858364506288
 21
3.64532827081576
 31
0.0
  0
LINE
  5
1B4E9
330
1B4B7
100
AcDbEntity
  8
0
  6
CONTINUOUS
100
AcDbLine
 10
40.02599999995994
 20
5.157911915918703
 30
0.0
 11
38.60499999996136
 21
6.578911915917274
 31
0.0
  0
LINE
  5
1B4EA
330
1B4B7
100
AcDbEntity
  8
0
  6
CONTINUOUS
100
AcDbLine
 10
44.99999999995498
 20
0.8574311250038447
 30
0.0
 11
38.60499999996136
 21
7.25243112499746
 31
0.0
  0
LINE
  5
1B4EB
330
1B4B7
100
AcDbEntity
  8
0
  6
CONTINUOUS
100
AcDbLine
 10
44.99999999995498
 20
1.530950334084031
 30
0.0
 11
38.60499999996136
 21
7.925950334077647
 31
0.0
  0
LINE
  5
1B4EC
330
1B4B7
100
AcDbEntity
  8
0
  6
CONTINUOUS
100
AcDbLine
 10
44.99999999995498
 20
2.204469543164218
 30
0.0
 11
43.57899999995641
 21
3.625469543162789
 31
0.0
  0
LINE
  5
1B4ED
330
1B4B7
100
AcDbEntity
  8
0
  6
CONTINUOUS
100
AcDbLine
 10
41.89876730984767
 20
5.305702233271528
 30
0.0
 11
38.60499999996136
 21
8.599469543157834
 31
0.0
  0
LINE
  5
1B4EE
330
1B4B7
100
AcDbEntity
  8
0
  6
CONTINUOUS
100
AcDbLine
 10
44.99999999995498
 20
2.877988752244405
 30
0.0
 11
43.57899999995641
 21
4.298988752242975
 31
0.0
  0
LINE
  5
1B4EF
330
1B4B7
100
AcDbEntity
  8
0
  6
CONTINUOUS
100
AcDbLine
 10
44.99999999995498
 20
3.551507961324591
 30
0.0
 11
43.57899999995641
 21
4.972507961323163
 31
0.0
  0
LINE
  5
1B4F0
330
1B4B7
100
AcDbEntity
  8
0
  6
CONTINUOUS
100
AcDbLine
 10
44.99999999995498
 20
4.225027170404777
 30
0.0
 11
43.57899999995641
 21
5.646027170403348
 31
0.0
  0
LINE
  5
1B4F1
330
1B4B7
100
AcDbEntity
  8
0
  6
CONTINUOUS
100
AcDbLine
 10
44.99999999995498
 20
4.898546379484964
 30
0.0
 11
43.57899999995641
 21
6.319546379483535
 31
0.0
  0
LINE
  5
1B4F2
330
1B4B7
100
AcDbEntity
  8
0
  6
CONTINUOUS
100
AcDbLine
 10
44.99999999995498
 20
5.572065588565151
 30
0.0
 11
43.57899999995641
 21
6.993065588563722
 31
0.0
  0
LINE
  5
1B4F3
330
1B4B7
100
AcDbEntity
  8
0
  6
CONTINUOUS
100
AcDbLine
 10
44.99999999995498
 20
6.245584797645336
 30
0.0
 11
43.57899999995641
 21
7.666584797643908
 31
0.0
  0
LINE
  5
1B4F4
330
1B4B7
100
AcDbEntity
  8
0
  6
CONTINUOUS
100
AcDbLine
 10
44.99999999995498
 20
6.919104006725522
 30
0.0
 11
43.57899999995641
 21
8.340104006724093
 31
0.0
  0
LINE
  5
1B4F5
330
1B4B7
100
AcDbEntity
  8
0
  6
CONTINUOUS
100
AcDbLine
 10
44.99999999995498
 20
7.592623215805709
 30
0.0
 11
43.82952321576943
 21
8.763099999991255
 31
0.0
  0
LINE
  5
1B4F6
330
1B4B7
100
AcDbEntity
  8
0
  6
CONTINUOUS
100
AcDbLine
 10
44.99999999995498
 20
8.266142424885896
 30
0.0
 11
44.50304242484962
 21
8.763099999991255
 31
0.0
  0
ENDBLK
  5
1B520
330
1B4B7
100
AcDbEntity
  8
0
100
AcDbBlockEnd
  0
BLOCK
  5
1B521
330
1B4F7
100
AcDbEntity
  8
0
100
AcDbBlockBegin
  2
*X32
 70
     1
 10
0.0
 20
0.0
 30
0.0
  3
*X32
  1

  0
LINE
  5
1B4F8
330
1B4F7
100
AcDbEntity
  8
0
  6
CONTINUOUS
100
AcDbLine
 10
0.0
 20
8.548461116714023
 30
0.0
 11
0.2146388832772324
 21
8.763099999991255
 31
0.0
  0
LINE
  5
1B4F9
330
1B4F7
100
AcDbEntity
  8
0
  6
CONTINUOUS
100
AcDbLine
 10
-0.0000000000000002
 20
7.874941907633837
 30
0.0
 11
0.8881580923574184
 21
8.763099999991255
 31
0.0
  0
LINE
  5
1B4FA
330
1B4F7
100
AcDbEntity
  8
0
  6
CONTINUOUS
100
AcDbLine
 10
0.0
 20
7.20142269855365
 30
0.0
 11
1.420999999998572
 21
8.622422698552223
 31
0.0
  0
LINE
  5
1B4FB
330
1B4F7
100
AcDbEntity
  8
0
  6
CONTINUOUS
100
AcDbLine
 10
-0.0000000000000001
 20
6.527903489473465
 30
0.0
 11
1.420999999998571
 21
7.948903489472036
 31
0.0
  0
LINE
  5
1B4FC
330
1B4F7
100
AcDbEntity
  8
0
  6
CONTINUOUS
100
AcDbLine
 10
-0.0000000000000002
 20
5.854384280393278
 30
0.0
 11
1.420999999998571
 21
7.275384280391849
 31
0.0
  0
LINE
  5
1B4FD
330
1B4F7
100
AcDbEntity
  8
0
  6
CONTINUOUS
100
AcDbLine
 10
-0.0000000000000002
 20
5.180865071313091
 30
0.0
 11
1.420999999998571
 21
6.601865071311663
 31
0.0
  0
LINE
  5
1B4FE
330
1B4F7
100
AcDbEntity
  8
0
  6
CONTINUOUS
100
AcDbLine
 10
0.0
 20
4.507345862232905
 30
0.0
 11
1.420999999998571
 21
5.928345862231477
 31
0.0
  0
LINE
  5
1B4FF
330
1B4F7
100
AcDbEntity
  8
0
  6
CONTINUOUS
100
AcDbLine
 10
-0.0000000000000003
 20
3.833826653152718
 30
0.0
 11
1.420999999998571
 21
5.25482665315129
 31
0.0
  0
LINE
  5
1B500
330
1B4F7
100
AcDbEntity
  8
0
  6
CONTINUOUS
100
AcDbLine
 10
-0.0000000000000002
 20
3.160307444072532
 30
0.0
 11
1.420999999998571
 21
4.581307444071103
 31
0.0
  0
LINE
  5
1B501
330
1B4F7
100
AcDbEntity
  8
0
  6
CONTINUOUS
100
AcDbLine
 10
-0.0000000000000001
 20
2.486788234992345
 30
0.0
 11
1.420999999998571
 21
3.907788234990917
 31
0.0
  0
LINE
  5
1B502
330
1B4F7
100
AcDbEntity
  8
0
  6
CONTINUOUS
100
AcDbLine
 10
-0.0000000000000006
 20
1.813269025912159
 30
0.0
 11
1.420999999998571
 21
3.234269025910731
 31
0.0
  0
LINE
  5
1B503
330
1B4F7
100
AcDbEntity
  8
0
  6
CONTINUOUS
100
AcDbLine
 10
0.0
 20
1.139749816831973
 30
0.0
 11
1.420999999998571
 21
2.560749816830544
 31
0.0
  0
LINE
  5
1B504
330
1B4F7
100
AcDbEntity
  8
0
  6
CONTINUOUS
100
AcDbLine
 10
0.0000000000000002
 20
0.466230607751787
 30
0.0
 11
1.420999999998571
 21
1.887230607750358
 31
0.0
  0
LINE
  5
1B505
330
1B4F7
100
AcDbEntity
  8
0
  6
CONTINUOUS
100
AcDbLine
 10
0.2072886013284003
 20
-0.0000000000000009
 30
0.0
 11
1.420999999998571
 21
1.213711398670171
 31
0.0
  0
LINE
  5
1B506
330
1B4F7
100
AcDbEntity
  8
0
  6
CONTINUOUS
100
AcDbLine
 10
0.8808078104085864
 20
-0.0000000000000009
 30
0.0
 11
1.420999999998571
 21
0.5401921895899839
 31
0.0
  0
LINE
  5
1B507
330
1B4F7
100
AcDbEntity
  8
0
  6
CONTINUOUS
100
AcDbLine
 10
0.0581249075061505
 20
-0.0000000000000009
 30
0.0
 11
-0.0000000000000002
 21
0.0581249075061496
 31
0.0
  0
LINE
  5
1B508
330
1B4F7
100
AcDbEntity
  8
0
  6
CONTINUOUS
100
AcDbLine
 10
0.7316441165863372
 20
-0.0000000000000009
 30
0.0
 11
-0.0000000000000002
 21
0.7316441165863363
 31
0.0
  0
LINE
  5
1B509
330
1B4F7
100
AcDbEntity
  8
0
  6
CONTINUOUS
100
AcDbLine
 10
1.405163325666523
 20
-0.0000000000000009
 30
0.0
 11
-0.0000000000000002
 21
1.405163325666523
 31
0.0
  0
LINE
  5
1B50A
330
1B4F7
100
AcDbEntity
  8
0
  6
CONTINUOUS
100
AcDbLine
 10
1.420999999998572
 20
0.6576825347481381
 30
0.0
 11
-0.0000000000000001
 21
2.07868253474671
 31
0.0
  0
LINE
  5
1B50B
330
1B4F7
100
AcDbEntity
  8
0
  6
CONTINUOUS
100
AcDbLine
 10
1.420999999998571
 20
1.331201743828324
 30
0.0
 11
-0.0000000000000001
 21
2.752201743826896
 31
0.0
  0
LINE
  5
1B50C
330
1B4F7
100
AcDbEntity
  8
0
  6
CONTINUOUS
100
AcDbLine
 10
1.420999999998571
 20
2.004720952908511
 30
0.0
 11
-0.0000000000000002
 21
3.425720952907082
 31
0.0
  0
LINE
  5
1B50D
330
1B4F7
100
AcDbEntity
  8
0
  6
CONTINUOUS
100
AcDbLine
 10
1.420999999998571
 20
2.678240161988697
 30
0.0
 11
-0.0000000000000001
 21
4.099240161987269
 31
0.0
  0
LINE
  5
1B50E
330
1B4F7
100
AcDbEntity
  8
0
  6
CONTINUOUS
100
AcDbLine
 10
1.420999999998572
 20
3.351759371068884
 30
0.0
 11
0.0
 21
4.772759371067455
 31
0.0
  0
LINE
  5
1B50F
330
1B4F7
100
AcDbEntity
  8
0
  6
CONTINUOUS
100
AcDbLine
 10
1.420999999998571
 20
4.02527858014907
 30
0.0
 11
-0.0000000000000003
 21
5.446278580147642
 31
0.0
  0
LINE
  5
1B510
330
1B4F7
100
AcDbEntity
  8
0
  6
CONTINUOUS
100
AcDbLine
 10
1.420999999998571
 20
4.698797789229257
 30
0.0
 11
0.0
 21
6.119797789227828
 31
0.0
  0
LINE
  5
1B511
330
1B4F7
100
AcDbEntity
  8
0
  6
CONTINUOUS
100
AcDbLine
 10
1.420999999998571
 20
5.372316998309444
 30
0.0
 11
-0.0000000000000001
 21
6.793316998308015
 31
0.0
  0
LINE
  5
1B512
330
1B4F7
100
AcDbEntity
  8
0
  6
CONTINUOUS
100
AcDbLine
 10
1.420999999998572
 20
6.045836207389629
 30
0.0
 11
-0.0000000000000004
 21
7.466836207388202
 31
0.0
  0
LINE
  5
1B513
330
1B4F7
100
AcDbEntity
  8
0
  6
CONTINUOUS
100
AcDbLine
 10
1.420999999998571
 20
6.719355416469816
 30
0.0
 11
0.0
 21
8.140355416468388
 31
0.0
  0
LINE
  5
1B514
330
1B4F7
100
AcDbEntity
  8
0
  6
CONTINUOUS
100
AcDbLine
 10
1.420999999998571
 20
7.392874625550003
 30
0.0
 11
0.0507746255573185
 21
8.763099999991255
 31
0.0
  0
LINE
  5
1B515
330
1B4F7
100
AcDbEntity
  8
0
  6
CONTINUOUS
100
AcDbLine
 10
1.420999999998571
 20
8.06639383463019
 30
0.0
 11
0.7242938346375052
 21
8.763099999991255
 31
0.0
  0
LINE
  5
1B516
330
1B4F7
100
AcDbEntity
  8
0
  6
CONTINUOUS
100
AcDbLine
 10
1.420999999998571
 20
8.739913043710375
 30
0.0
 11
1.397813043717691
 21
8.763099999991255
 31
0.0
  0
ENDBLK
  5
1B522
330
1B4F7
100
AcDbEntity
  8
0
100
AcDbBlockEnd
  0
ENDSEC
  0
SECTION
  2
ENTITIES
  0
LINE
  5
18716
330
18
100
AcDbEntity
  8
1PHANTOM
 48
0.3
100
AcDbLine
 10
969.1093098812012
 20
-2100.71265260551
 30
0.0
 11
969.1093098812012
 21
-2117.212651774998
 31
0.0
  0
LINE
  5
1871C
330
18
100
AcDbEntity
  8
01
100
AcDbLine
 10
975.2093144117675
 20
-2103.212651830708
 30
0.0
 11
975.2093144117684
 21
-2104.605867007444
 31
0.0
  0
LINE
  5
1871D
330
18
100
AcDbEntity
  8
01
100
AcDbLine
 10
975.2093144117684
 20
-2110.805867007444
 30
0.0
 11
975.2093144117675
 21
-2112.212651830708
 31
0.0
  0
ARC
  5
18724
330
18
100
AcDbEntity
  8
1PHANTOM
 48
0.3
100
AcDbCircle
 10
-970.1093098812012
 20
-2100.71265260551
 30
0.0
 40
1.0
210
0.0
220
0.0
230
-1.0
100
AcDbArc
 50
0.0000000002084408
 51
90.0
  0
LINE
  5
18725
330
18
100
AcDbEntity
  8
1PHANTOM
 48
0.3
100
AcDbLine
 10
970.1093098812012
 20
-2099.71265260551
 30
0.0
 11
978.40931145481
 21
-2099.71265260551
 31
0.0
  0
LINE
  5
1872F
330
18
100
AcDbEntity
  8
1PHANTOM
 48
0.3
100
AcDbLine
 10
978.40931145481
 20
-2117.712651774996
 30
0.0
 11
969.6093098812012
 21
-2117.712651774996
 31
0.0
  0
ARC
  5
18730
330
18
100
AcDbEntity
  8
1PHANTOM
 48
0.3
100
AcDbCircle
 10
969.6093098812012
 20
-2117.212651774996
 30
0.0
 40
0.5
100
AcDbArc
 50
180.0000000002084
 51
270.0
  0
LINE
  5
18731
330
18
100
AcDbEntity
  8
1PHANTOM
100
AcDbLine
 10
1003.409314411605
 20
-2107.719455433335
 30
0.0
 11
998.109317901743
 21
-2106.219455433335
 31
0.0
  0
LINE
  5
18732
330
18
100
AcDbEntity
  8
1PHANTOM
100
AcDbLine
 10
998.109317901743
 20
-2106.219455433335
 30
0.0
 11
975.2093144117675
 21
-2106.219455433335
 31
0.0
  0
LINE
  5
18733
330
18
100
AcDbEntity
  8
1PHANTOM
100
AcDbLine
 10
1003.409314411605
 20
-2107.719455433335
 30
0.0
 11
998.1093109213593
 21
-2109.219455433335
 31
0.0
  0
LINE
  5
18734
330
18
100
AcDbEntity
  8
1PHANTOM
100
AcDbLine
 10
973.4093225555494
 20
-2104.219408897437
 30
0.0
 11
973.4093179018514
 21
-2106.219455433335
 31
0.0
  0
LINE
  5
18735
330
18
100
AcDbEntity
  8
1PHANTOM
100
AcDbLine
 10
998.1093109213593
 20
-2109.219455433335
 30
0.0
 11
975.2093144117675
 21
-2109.219455433335
 31
0.0
  0
LINE
  5
18736
330
18
100
AcDbEntity
  8
1PHANTOM
100
AcDbLine
 10
973.4093225555494
 20
-2104.219408897437
 30
0.0
 11
972.309319065354
 21
-2104.219408897437
 31
0.0
  0
LINE
  5
18737
330
18
100
AcDbEntity
  8
1PHANTOM
100
AcDbLine
 10
973.4093109214668
 20
-2109.219455433335
 30
0.0
 11
973.4093062679854
 21
-2111.219408897437
 31
0.0
  0
ARC
  5
18738
330
18
100
AcDbEntity
  8
1PHANTOM
100
AcDbCircle
 10
972.309319065354
 20
-2105.719408897437
 30
0.0
 40
1.5
100
AcDbArc
 50
90.0
 51
179.9998666844749
  0
LINE
  5
18739
330
18
100
AcDbEntity
  8
1PHANTOM
100
AcDbLine
 10
973.4093062679854
 20
-2111.219408897437
 30
0.0
 11
972.3093097581745
 21
-2111.219408897437
 31
0.0
  0
LINE
  5
1873A
330
18
100
AcDbEntity
  8
1PHANTOM
100
AcDbLine
 10
970.8093190653585
 20
-2105.719405407245
 30
0.0
 11
970.8093097581791
 21
-2109.719405407245
 31
0.0
  0
ARC
  5
1873B
330
18
100
AcDbEntity
  8
1PHANTOM
100
AcDbCircle
 10
972.3093097581745
 20
-2109.719408897437
 30
0.0
 40
1.5
100
AcDbArc
 50
179.9998666844749
 51
270.0
  0
LINE
  5
1873C
330
18
100
AcDbEntity
  8
1CENTER
100
AcDbLine
 10
1004.170583615775
 20
-2107.719408897437
 30
0.0
 11
969.9254307105052
 21
-2107.719408897437
 31
0.0
  0
LINE
  5
1873D
330
18
100
AcDbEntity
  8
1PHANTOM
100
AcDbLine
 10
1001.309316957927
 20
-2106.625085083442
 30
0.0
 11
1002.109312391978
 21
-2108.587420172317
 31
0.0
  0
LINE
  5
1873E
330
18
100
AcDbEntity
  8
1PHANTOM
100
AcDbLine
 10
1002.109312391978
 20
-2108.587420172317
 30
0.0
 11
1002.421082248231
 21
-2107.999143597275
 31
0.0
  0
LINE
  5
1873F
330
18
100
AcDbEntity
  8
1PHANTOM
100
AcDbLine
 10
978.909319065137
 20
-2105.719455433335
 30
0.0
 11
979.709309757955
 21
-2109.719455433335
 31
0.0
  0
LINE
  5
18740
330
18
100
AcDbEntity
  8
1PHANTOM
100
AcDbLine
 10
990.1093190651413
 20
-2105.719455433335
 30
0.0
 11
990.9093097579639
 21
-2109.719455433335
 31
0.0
  0
LINE
  5
18741
330
18
100
AcDbEntity
  8
1PHANTOM
100
AcDbLine
 10
993.3093190651412
 20
-2105.719455433335
 30
0.0
 11
994.1093097579637
 21
-2109.719455433335
 31
0.0
  0
LINE
  5
18742
330
18
100
AcDbEntity
  8
1PHANTOM
100
AcDbLine
 10
994.1093097579637
 20
-2109.719455433335
 30
0.0
 11
994.2093109213615
 21
-2109.219455433335
 31
0.0
  0
LINE
  5
18743
330
18
100
AcDbEntity
  8
1PHANTOM
100
AcDbLine
 10
994.8093179017446
 20
-2106.219455433335
 30
0.0
 11
994.9093190651415
 21
-2105.719455433335
 31
0.0
  0
LINE
  5
18744
330
18
100
AcDbEntity
  8
1PHANTOM
100
AcDbLine
 10
990.9093097579639
 20
-2109.719455433335
 30
0.0
 11
991.0093109213617
 21
-2109.219455433335
 31
0.0
  0
LINE
  5
18745
330
18
100
AcDbEntity
  8
1PHANTOM
100
AcDbLine
 10
992.5093097579643
 20
-2109.719455433335
 30
0.0
 11
992.6093109213612
 21
-2109.219455433335
 31
0.0
  0
LINE
  5
18746
330
18
100
AcDbEntity
  8
1PHANTOM
100
AcDbLine
 10
993.2093179017443
 20
-2106.219455433335
 30
0.0
 11
993.3093190651412
 21
-2105.719455433335
 31
0.0
  0
LINE
  5
18747
330
18
100
AcDbEntity
  8
1PHANTOM
100
AcDbLine
 10
991.6093179017448
 20
-2106.219455433335
 30
0.0
 11
991.7093190651417
 21
-2105.719455433335
 31
0.0
  0
LINE
  5
18748
330
18
100
AcDbEntity
  8
1PHANTOM
100
AcDbLine
 10
991.7093190651417
 20
-2105.719455433335
 30
0.0
 11
992.5093097579643
 21
-2109.719455433335
 31
0.0
  0
LINE
  5
18749
330
18
100
AcDbEntity
  8
1PHANTOM
100
AcDbLine
 10
1000.509311338372
 20
-2109.040234276724
 30
0.0
 11
1000.692075481
 21
-2108.488484812921
 31
0.0
  0
LINE
  5
1874A
330
18
100
AcDbEntity
  8
1PHANTOM
100
AcDbLine
 10
997.3093097579645
 20
-2109.719455433335
 30
0.0
 11
997.4093109213613
 21
-2109.219455433335
 31
0.0
  0
LINE
  5
1874B
330
18
100
AcDbEntity
  8
1PHANTOM
100
AcDbLine
 10
995.7093097579641
 20
-2109.719455433335
 30
0.0
 11
995.809310921361
 21
-2109.219455433335
 31
0.0
  0
LINE
  5
1874C
330
18
100
AcDbEntity
  8
1PHANTOM
100
AcDbLine
 10
998.9093102847669
 20
-2109.493048381131
 30
0.0
 11
999.038580982397
 21
-2108.95645464586
 31
0.0
  0
LINE
  5
1874D
330
18
100
AcDbEntity
  8
1PHANTOM
100
AcDbLine
 10
999.5965484991816
 20
-2106.640370030544
 30
0.0
 11
999.7093180115312
 21
-2106.172271575394
 31
0.0
  0
LINE
  5
1874E
330
18
100
AcDbEntity
  8
1PHANTOM
100
AcDbLine
 10
996.4093179017441
 20
-2106.219455433335
 30
0.0
 11
996.5093190651419
 21
-2105.719455433335
 31
0.0
  0
LINE
  5
1874F
330
18
100
AcDbEntity
  8
1PHANTOM
100
AcDbLine
 10
998.0093179017445
 20
-2106.219455433335
 30
0.0
 11
998.1093190651413
 21
-2105.719455433335
 31
0.0
  0
LINE
  5
18750
330
18
100
AcDbEntity
  8
1PHANTOM
100
AcDbLine
 10
1001.157881161487
 20
-2107.082256924073
 30
0.0
 11
1001.309316957927
 21
-2106.625085083442
 31
0.0
  0
LINE
  5
18751
330
18
100
AcDbEntity
  8
1PHANTOM
100
AcDbLine
 10
999.7093180115312
 20
-2106.172271575394
 30
0.0
 11
1000.509311338372
 21
-2109.040234276724
 31
0.0
  0
LINE
  5
18752
330
18
100
AcDbEntity
  8
1PHANTOM
100
AcDbLine
 10
996.5093190651419
 20
-2105.719455433335
 30
0.0
 11
997.3093097579645
 21
-2109.719455433335
 31
0.0
  0
LINE
  5
18753
330
18
100
AcDbEntity
  8
1PHANTOM
100
AcDbLine
 10
998.1093190651413
 20
-2105.719455433335
 30
0.0
 11
998.9093102847669
 21
-2109.493048381131
 31
0.0
  0
LINE
  5
18754
330
18
100
AcDbEntity
  8
1PHANTOM
100
AcDbLine
 10
994.9093190651415
 20
-2105.719455433335
 30
0.0
 11
995.7093097579641
 21
-2109.719455433335
 31
0.0
  0
LINE
  5
18755
330
18
100
AcDbEntity
  8
1PHANTOM
100
AcDbLine
 10
982.1093190651368
 20
-2105.719455433335
 30
0.0
 11
982.9093097579557
 21
-2109.719455433335
 31
0.0
  0
LINE
  5
18756
330
18
100
AcDbEntity
  8
1PHANTOM
100
AcDbLine
 10
982.9093097579557
 20
-2109.719455433335
 30
0.0
 11
983.0093109213535
 21
-2109.219455433335
 31
0.0
  0
LINE
  5
18757
330
18
100
AcDbEntity
  8
1PHANTOM
100
AcDbLine
 10
983.6093179017439
 20
-2106.219455433335
 30
0.0
 11
983.7093190651417
 21
-2105.719455433335
 31
0.0
  0
LINE
  5
18758
330
18
100
AcDbEntity
  8
1PHANTOM
100
AcDbLine
 10
981.3093097579554
 20
-2109.719455433335
 30
0.0
 11
981.4093109213532
 21
-2109.219455433335
 31
0.0
  0
LINE
  5
18759
330
18
100
AcDbEntity
  8
1PHANTOM
100
AcDbLine
 10
979.709309757955
 20
-2109.719455433335
 30
0.0
 11
979.8093109213528
 21
-2109.219455433335
 31
0.0
  0
LINE
  5
1875A
330
18
100
AcDbEntity
  8
1PHANTOM
100
AcDbLine
 10
982.0093179017399
 20
-2106.219455433335
 30
0.0
 11
982.1093190651368
 21
-2105.719455433335
 31
0.0
  0
LINE
  5
1875B
330
18
100
AcDbEntity
  8
1PHANTOM
100
AcDbLine
 10
980.4093179017395
 20
-2106.219455433335
 30
0.0
 11
980.5093190651373
 21
-2105.719455433335
 31
0.0
  0
LINE
  5
1875C
330
18
100
AcDbEntity
  8
1PHANTOM
100
AcDbLine
 10
980.5093190651373
 20
-2105.719455433335
 30
0.0
 11
981.3093097579554
 21
-2109.719455433335
 31
0.0
  0
LINE
  5
1875D
330
18
100
AcDbEntity
  8
1PHANTOM
100
AcDbLine
 10
987.7093097579595
 20
-2109.719455433335
 30
0.0
 11
987.8093109213573
 21
-2109.219455433335
 31
0.0
  0
LINE
  5
1875E
330
18
100
AcDbEntity
  8
1PHANTOM
100
AcDbLine
 10
989.3093097579645
 20
-2109.719455433335
 30
0.0
 11
989.4093109213613
 21
-2109.219455433335
 31
0.0
  0
LINE
  5
1875F
330
18
100
AcDbEntity
  8
1PHANTOM
100
AcDbLine
 10
984.5093097579597
 20
-2109.719455433335
 30
0.0
 11
984.6093109213575
 21
-2109.219455433335
 31
0.0
  0
LINE
  5
18760
330
18
100
AcDbEntity
  8
1PHANTOM
100
AcDbLine
 10
986.1093097579601
 20
-2109.719455433335
 30
0.0
 11
986.209310921357
 21
-2109.219455433335
 31
0.0
  0
LINE
  5
18761
330
18
100
AcDbEntity
  8
1PHANTOM
100
AcDbLine
 10
990.0093179017445
 20
-2106.219455433335
 30
0.0
 11
990.1093190651413
 21
-2105.719455433335
 31
0.0
  0
LINE
  5
18762
330
18
100
AcDbEntity
  8
1PHANTOM
100
AcDbLine
 10
988.4093179017441
 20
-2106.219455433335
 30
0.0
 11
988.5093190651419
 21
-2105.719455433335
 31
0.0
  0
LINE
  5
18763
330
18
100
AcDbEntity
  8
1PHANTOM
100
AcDbLine
 10
985.2093179017434
 20
-2106.219455433335
 30
0.0
 11
985.3093190651412
 21
-2105.719455433335
 31
0.0
  0
LINE
  5
18764
330
18
100
AcDbEntity
  8
1PHANTOM
100
AcDbLine
 10
986.8093179017437
 20
-2106.219455433335
 30
0.0
 11
986.9093190651415
 21
-2105.719455433335
 31
0.0
  0
LINE
  5
18765
330
18
100
AcDbEntity
  8
1PHANTOM
100
AcDbLine
 10
986.9093190651415
 20
-2105.719455433335
 30
0.0
 11
987.7093097579595
 21
-2109.719455433335
 31
0.0
  0
LINE
  5
18766
330
18
100
AcDbEntity
  8
1PHANTOM
100
AcDbLine
 10
988.5093190651419
 20
-2105.719455433335
 30
0.0
 11
989.3093097579645
 21
-2109.719455433335
 31
0.0
  0
LINE
  5
18767
330
18
100
AcDbEntity
  8
1PHANTOM
100
AcDbLine
 10
985.3093190651412
 20
-2105.719455433335
 30
0.0
 11
986.1093097579601
 21
-2109.719455433335
 31
0.0
  0
LINE
  5
18768
330
18
100
AcDbEntity
  8
1PHANTOM
100
AcDbLine
 10
983.7093190651417
 20
-2105.719455433335
 30
0.0
 11
984.5093097579597
 21
-2109.719455433335
 31
0.0
  0
LINE
  5
18769
330
18
100
AcDbEntity
  8
1PHANTOM
100
AcDbLine
 10
973.4093109214668
 20
-2109.219455433335
 30
0.0
 11
973.4093179018514
 21
-2106.219455433335
 31
0.0
  0
LINE
  5
1876A
330
18
100
AcDbEntity
  8
1PHANTOM
100
AcDbLine
 10
975.6093179017348
 20
-2106.219455433335
 30
0.0
 11
975.7093190651326
 21
-2105.719455433335
 31
0.0
  0
LINE
  5
1876B
330
18
100
AcDbEntity
  8
1PHANTOM
100
AcDbLine
 10
977.2093179017352
 20
-2106.219455433335
 30
0.0
 11
977.309319065133
 21
-2105.719455433335
 31
0.0
  0
LINE
  5
1876C
330
18
100
AcDbEntity
  8
1PHANTOM
100
AcDbLine
 10
977.309319065133
 20
-2105.719455433335
 30
0.0
 11
978.109309757951
 21
-2109.719455433335
 31
0.0
  0
LINE
  5
1876D
330
18
100
AcDbEntity
  8
1PHANTOM
100
AcDbLine
 10
976.5093097579515
 20
-2109.719455433335
 30
0.0
 11
976.6093109213484
 21
-2109.219455433335
 31
0.0
  0
LINE
  5
1876E
330
18
100
AcDbEntity
  8
1PHANTOM
100
AcDbLine
 10
978.109309757951
 20
-2109.719455433335
 30
0.0
 11
978.2093109213488
 21
-2109.219455433335
 31
0.0
  0
LINE
  5
1876F
330
18
100
AcDbEntity
  8
1PHANTOM
100
AcDbLine
 10
975.7093190651326
 20
-2105.719455433335
 30
0.0
 11
976.5093097579515
 21
-2109.719455433335
 31
0.0
  0
LINE
  5
18770
330
18
100
AcDbEntity
  8
1PHANTOM
100
AcDbLine
 10
978.8093179017392
 20
-2106.219455433335
 30
0.0
 11
978.909319065137
 21
-2105.719455433335
 31
0.0
  0
LINE
  5
18771
330
18
100
AcDbEntity
  8
1PHANTOM
100
AcDbLine
 10
973.4093144117674
 20
-2111.319408897436
 30
0.0
 11
974.4093144117674
 21
-2111.319408897436
 31
0.0
  0
LINE
  5
18772
330
18
100
AcDbEntity
  8
1PHANTOM
100
AcDbLine
 10
974.4093144117674
 20
-2104.119408897437
 30
0.0
 11
973.4093144117674
 21
-2104.119408897437
 31
0.0
  0
LINE
  5
18773
330
18
100
AcDbEntity
  8
1PHANTOM
100
AcDbLine
 10
973.4093144117674
 20
-2111.319408897436
 30
0.0
 11
973.4093144117674
 21
-2104.119408897437
 31
0.0
  0
LINE
  5
18774
330
18
100
AcDbEntity
  8
1PHANTOM
100
AcDbLine
 10
975.2093144117675
 20
-2103.219408897437
 30
0.0
 11
975.2093144117675
 21
-2112.219408897437
 31
0.0
  0
LINE
  5
18775
330
18
100
AcDbEntity
  8
1PHANTOM
100
AcDbLine
 10
974.4093144117674
 20
-2103.219408897437
 30
0.0
 11
975.2093144117675
 21
-2103.219408897437
 31
0.0
  0
LINE
  5
18776
330
18
100
AcDbEntity
  8
1PHANTOM
100
AcDbLine
 10
975.2093144117675
 20
-2112.219408897437
 30
0.0
 11
974.4093144117674
 21
-2112.219408897437
 31
0.0
  0
LINE
  5
18777
330
18
100
AcDbEntity
  8
1PHANTOM
100
AcDbLine
 10
974.4093144117674
 20
-2103.219408897437
 30
0.0
 11
974.4093144117674
 21
-2112.219408897437
 31
0.0
  0
LINE
  5
18778
330
18
100
AcDbEntity
  8
1PHANTOM
100
AcDbLine
 10
974.4093144117664
 20
-2107.619854174532
 30
0.0
 11
973.4093144117674
 21
-2107.351904982102
 31
0.0
  0
LINE
  5
18779
330
18
100
AcDbEntity
  8
1PHANTOM
100
AcDbLine
 10
974.4093144117674
 20
-2108.070164824769
 30
0.0
 11
973.4093144117674
 21
-2107.802215632337
 31
0.0
  0
ARC
  5
187A3
330
18
100
AcDbEntity
  8
01
100
AcDbCircle
 10
-887.7320056759827
 20
-2103.712652177143
 30
0.0
 40
3.5
210
0.0
220
0.0
230
-1.0
100
AcDbArc
 50
90.0
 51
179.9999999997655
  0
ARC
  5
187A4
330
18
100
AcDbEntity
  8
01
100
AcDbCircle
 10
718.7320056759827
 20
-2103.712652177143
 30
0.0
 40
3.5
100
AcDbArc
 50
90.0
 51
179.9999999997655
  0
LINE
  5
187A5
330
18
100
AcDbEntity
  8
01
100
AcDbLine
 10
715.2320056759827
 20
-2100.410609809265
 30
0.0
 11
715.2320056759827
 21
-2124.712659800512
 31
0.0
  0
SPLINE
  5
187A7
330
18
100
AcDbEntity
  8
1DIM
100
AcDbSpline
210
0.0
220
0.0
230
1.0
 70
     8
 71
     3
 72
    13
 73
     9
 74
     0
 42
0.0000000001
 43
0.0000000001
 40
0.0
 40
0.0
 40
0.0
 40
0.0
 40
0.9992244277435391
 40
1.910486116395874
 40
2.831611234974189
 40
3.759250121438983
 40
4.421544463315807
 40
5.516547251475924
 40
5.516547251475924
 40
5.516547251475924
 40
5.516547251475924
 10
718.7320056759827
 20
-2098.843227613395
 30
0.0
 10
718.3995618762619
 20
-2098.843227613395
 30
0.0
 10
717.764070046187
 20
-2098.87235761847
 30
0.0
 10
716.8965313475146
 20
-2099.009951399102
 30
0.0
 10
716.1757357662427
 20
-2099.244197869104
 30
0.0
 10
715.6785245253704
 20
-2099.546042931086
 30
0.0
 10
715.3241325525232
 20
-2099.934812739952
 30
0.0
 10
715.2320056759827
 20
-2100.22512590993
 30
0.0
 10
715.2320056759827
 20
-2100.410606099737
 30
0.0
  0
LINE
  5
187AA
330
18
100
AcDbEntity
  8
1DIM
100
AcDbLine
 10
887.7320056759827
 20
-2098.843227613395
 30
0.0
 11
718.7320056759827
 21
-2098.843227613395
 31
0.0
  0
SPLINE
  5
187AB
330
18
100
AcDbEntity
  8
1DIM
100
AcDbSpline
210
0.0
220
0.0
230
1.0
 70
     8
 71
     3
 72
    13
 73
     9
 74
     0
 42
0.0000000001
 43
0.0000000001
 40
0.0
 40
0.0
 40
0.0
 40
0.0
 40
1.209123507612754
 40
1.932880921791795
 40
2.857054727338272
 40
3.784587059145476
 40
4.580283766833117
 40
5.516549843834111
 40
5.516549843834111
 40
5.516549843834111
 40
5.516549843834111
 10
891.2320056759827
 20
-2100.410606099737
 30
0.0
 10
891.2320056759827
 20
-2100.205795343352
 30
0.0
 10
891.1198909407303
 20
-2099.887388181233
 30
0.0
 10
890.7066318807047
 20
-2099.485023035985
 30
0.0
 10
890.1630781605381
 20
-2099.191599638106
 30
0.0
 10
889.4448818317942
 20
-2098.985544162041
 30
0.0
 10
888.6196250419107
 20
-2098.868053869316
 30
0.0
 10
888.043502966375
 20
-2098.843227613395
 30
0.0
 10
887.7320056759827
 20
-2098.843227613395
 30
0.0
  0
LINE
  5
187AD
330
18
100
AcDbEntity
  8
01
100
AcDbLine
 10
891.2320056759827
 20
-2100.410609809265
 30
0.0
 11
891.2320056759827
 21
-2124.712659800512
 31
0.0
  0
ARC
  5
187AF
330
18
100
AcDbEntity
  8
01
100
AcDbCircle
 10
887.7320104752689
 20
-2124.71265697643
 30
0.0
 40
3.49999520071654
100
AcDbArc
 50
269.9999214344817
 51
0.0000785652576973
  0
LINE
  5
187B1
330
18
100
AcDbEntity
  8
01
100
AcDbLine
 10
718.7320056759827
 20
-2128.212652177143
 30
0.0
 11
887.7320056759827
 21
-2128.212652177143
 31
0.0
  0
ARC
  5
187B3
330
18
100
AcDbEntity
  8
01
100
AcDbCircle
 10
-718.7320008766965
 20
-2124.71265697643
 30
0.0
 40
3.49999520071638
210
0.0
220
0.0
230
-1.0
100
AcDbArc
 50
269.9999214344817
 51
0.0000785652837524
  0
SPLINE
  5
187BF
330
18
100
AcDbEntity
  8
01
100
AcDbSpline
210
0.0
220
0.0
230
1.0
 70
    24
 71
     3
 72
    12
 73
     8
 74
     0
 42
0.0000000001
 43
0.0000000001
 40
113.7247716593198
 40
113.7247716593198
 40
113.7247716593198
 40
113.7247716593198
 40
113.8868474632998
 40
115.6124057581983
 40
117.181095117197
 40
118.7497844761956
 40
120.4753427710941
 40
120.4753427710941
 40
120.4753427710941
 40
120.4753427710941
 10
898.2320056759827
 20
-2132.95800614023
 30
0.0
 10
898.2320056759827
 20
-2132.958006140376
 30
0.0
 10
898.2320056759827
 20
-2132.955594190187
 30
0.0
 10
898.2320056759827
 20
-2132.900461926588
 30
0.0
 10
898.2320056759827
 20
-2132.72820315273
 30
0.0
 10
898.2320056759827
 20
-2132.498136870845
 30
0.0
 10
898.2320056759827
 20
-2132.31597566753
 30
0.0
 10
898.2320056759827
 20
-2132.210705248366
 30
0.0
  0
LINE
  5
187C0
330
18
100
AcDbEntity
  8
01
100
AcDbLine
 10
898.2320056759827
 20
-2132.210705248366
 30
0.0
 11
898.2320056759827
 21
-2095.46729614188
 31
0.0
  0
SPLINE
  5
187C3
330
18
100
AcDbEntity
  8
01
100
AcDbSpline
210
0.0
220
0.0
230
1.0
 70
    24
 71
     3
 72
    12
 73
     8
 74
     0
 42
0.0000000001
 43
0.0000000001
 40
113.7247716593199
 40
113.7247716593199
 40
113.7247716593199
 40
113.7247716593199
 40
113.8868474632999
 40
115.6124057581983
 40
117.181095117197
 40
118.7497844761956
 40
120.4753427710941
 40
120.4753427710941
 40
120.4753427710941
 40
120.4753427710941
 10
708.2320056759827
 20
-2132.95800614023
 30
0.0
 10
708.2320056759827
 20
-2132.958006140376
 30
0.0
 10
708.2320056759827
 20
-2132.955594190187
 30
0.0
 10
708.2320056759827
 20
-2132.900461926588
 30
0.0
 10
708.2320056759827
 20
-2132.72820315273
 30
0.0
 10
708.2320056759827
 20
-2132.498136870845
 30
0.0
 10
708.2320056759827
 20
-2132.31597566753
 30
0.0
 10
708.2320056759827
 20
-2132.210705248366
 30
0.0
  0
LINE
  5
187C4
330
18
100
AcDbEntity
  8
01
100
AcDbLine
 10
708.2320056759827
 20
-2132.210705248366
 30
0.0
 11
708.2320056759827
 21
-2095.46729614188
 31
0.0
  0
LINE
  5
187C7
330
18
100
AcDbEntity
  8
1DIM
100
AcDbLine
 10
759.7320056759827
 20
-2100.192636973722
 30
0.0
 11
846.7320056759827
 21
-2100.192636973722
 31
0.0
  0
SPLINE
  5
187CA
330
18
100
AcDbEntity
  8
1DIM
100
AcDbSpline
210
0.0
220
0.0
230
1.0
 70
     8
 71
     3
 72
     9
 73
     5
 74
     0
 42
0.0000000001
 43
0.0000000001
 40
0.0
 40
0.0
 40
0.0
 40
0.0
 40
0.5878733361074387
 40
1.263457458023001
 40
1.263457458023001
 40
1.263457458023001
 40
1.263457458023001
 10
759.7320052854793
 20
-2100.192636305494
 30
0.0
 10
759.5360475067773
 20
-2100.192636322444
 30
0.0
 10
759.1155215339977
 20
-2100.200490915345
 30
0.0
 10
758.7447206662182
 20
-2100.212652177143
 30
0.0
 10
758.5685271685716
 20
-2100.212652177143
 30
0.0
  0
SPLINE
  5
187CE
330
18
100
AcDbEntity
  8
1DIM
100
AcDbSpline
210
0.0
220
0.0
230
1.0
 70
     8
 71
     3
 72
     9
 73
     5
 74
     0
 42
0.0000000001
 43
0.0000000001
 40
0.0
 40
0.0
 40
0.0
 40
0.0
 40
0.6679546276421086
 40
1.263452114397522
 40
1.263452114397522
 40
1.263452114397522
 40
1.263452114397522
 10
847.8954841833938
 20
-2100.212652177143
 30
0.0
 10
847.7212804709379
 20
-2100.212652177143
 30
0.0
 10
847.3509823733693
 20
-2100.200615986806
 30
0.0
 10
846.9305052287382
 20
-2100.192636322664
 30
0.0
 10
846.7320060664861
 20
-2100.192636305494
 30
0.0
  0
LINE
  5
187D0
330
18
100
AcDbEntity
  8
01
100
AcDbLine
 10
718.7320056759827
 20
-2100.212652177143
 30
0.0
 11
758.5685271685716
 21
-2100.212652177143
 31
0.0
  0
ARC
  5
187D3
330
18
100
AcDbEntity
  8
01
100
AcDbCircle
 10
-757.7320055629625
 20
-2100.712652177143
 30
0.0
 40
0.5000000000000212
210
0.0
220
0.0
230
-1.0
100
AcDbArc
 50
90.00000000020843
 51
179.9995581185427
  0
LINE
  5
187D4
330
18
100
AcDbEntity
  8
01
100
AcDbLine
 10
887.7320056759827
 20
-2100.212652177143
 30
0.0
 11
847.8954841833938
 21
-2100.212652177143
 31
0.0
  0
ARC
  5
187D5
330
18
100
AcDbEntity
  8
01
100
AcDbCircle
 10
-848.7320057890029
 20
-2100.712652177143
 30
0.0
 40
0.4999999999999998
210
0.0
220
0.0
230
-1.0
100
AcDbArc
 50
0.0004418814572884
 51
89.99999999973944
  0
LINE
  5
187D8
330
18
100
AcDbEntity
  8
01
100
AcDbLine
 10
759.7320003533123
 20
-2118.212653069542
 30
0.0
 11
759.0320056878863
 21
-2118.212653008336
 31
0.0
  0
LINE
  5
187DA
330
18
100
AcDbEntity
  8
01
100
AcDbLine
 10
846.7320056759827
 20
-2118.212653069541
 30
0.0
 11
759.7320056759827
 21
-2118.212653069541
 31
0.0
  0
LINE
  5
187DC
330
18
100
AcDbEntity
  8
01
100
AcDbLine
 10
847.432005664079
 20
-2118.212653008336
 30
0.0
 11
846.7320109986531
 21
-2118.212653069542
 31
0.0
  0
LINE
  5
187DD
330
18
100
AcDbEntity
  8
01
100
AcDbLine
 10
758.2320056759827
 20
-2117.412652996415
 30
0.0
 11
758.2320056759827
 21
-2100.712648323467
 31
0.0
  0
ARC
  5
187DE
330
18
100
AcDbEntity
  8
01
100
AcDbCircle
 10
-759.0320056879036
 20
-2117.412652996415
 30
0.0
 40
0.800000011920929
210
0.0
220
0.0
230
-1.0
100
AcDbArc
 50
270.0000000002084
 51
0.0
  0
LINE
  5
187E3
330
18
100
AcDbEntity
  8
01
100
AcDbLine
 10
848.2320056759827
 20
-2117.412653096429
 30
0.0
 11
848.2320056759827
 21
-2100.712652177143
 31
0.0
  0
ARC
  5
187E4
330
18
100
AcDbEntity
  8
01
100
AcDbCircle
 10
847.4320056640618
 20
-2117.412652996415
 30
0.0
 40
0.800000011920929
100
AcDbArc
 50
270.0000000002084
 51
0.0
  0
LINE
  5
187E5
330
18
100
AcDbEntity
  8
01
100
AcDbLine
 10
897.2320056759827
 20
-2094.467298756419
 30
0.0
 11
709.2320056759827
 21
-2094.467298756419
 31
0.0
  0
LINE
  5
187E6
330
18
100
AcDbEntity
  8
01
100
AcDbLine
 10
897.2320056759827
 20
-2133.958005597866
 30
0.0
 11
709.2320056759827
 21
-2133.958005597866
 31
0.0
  0
ARC
  5
187E7
330
18
100
AcDbEntity
  8
01
100
AcDbCircle
 10
709.2320320285617
 20
-2132.957979241115
 30
0.0
 40
1.000026357080328
100
AcDbArc
 50
180.0105407842585
 51
269.9984901480493
  0
ARC
  5
187E8
330
18
100
AcDbEntity
  8
01
100
AcDbCircle
 10
-709.2320759356662
 20
-2095.467369027345
 30
0.0
 40
1.000070273375162
210
0.0
220
0.0
230
-1.0
100
AcDbArc
 50
0.0131750711655357
 51
89.99597469935864
  0
ARC
  5
187E9
330
18
100
AcDbEntity
  8
01
100
AcDbCircle
 10
-897.2319793234055
 20
-2132.957979241115
 30
0.0
 40
1.000026357079437
210
0.0
220
0.0
230
-1.0
100
AcDbArc
 50
180.0105407842064
 51
269.9984901481014
  0
ARC
  5
187EA
330
18
100
AcDbEntity
  8
01
100
AcDbCircle
 10
897.231935416301
 20
-2095.467369027344
 30
0.0
 40
1.000070273374085
100
AcDbArc
 50
0.0131750711134255
 51
89.99597469941075
  0
LINE
  5
187EB
330
18
100
AcDbEntity
  8
01
100
AcDbLine
 10
891.2320056758726
 20
-2124.712652178307
 30
0.0
 11
891.2320056759827
 21
-2121.625355931964
 31
0.0
  0
LINE
  5
187EC
330
18
100
AcDbEntity
  8
01
100
AcDbLine
 10
715.2320056760927
 20
-2124.712652178307
 30
0.0
 11
715.2320056759827
 21
-2121.625355931964
 31
0.0
  0
LINE
  5
187F0
330
18
100
AcDbEntity
  8
01
100
AcDbLine
 10
715.2320056759827
 20
-2025.205771926421
 30
0.0
 11
715.2320056759827
 21
-2049.121793160797
 31
0.0
  0
LINE
  5
187F5
330
18
100
AcDbEntity
  8
01
100
AcDbLine
 10
891.2320056759827
 20
-2025.205771926421
 30
0.0
 11
891.2320056759827
 21
-2049.121793160797
 31
0.0
  0
SPLINE
  5
187F7
330
18
100
AcDbEntity
  8
1DIM
100
AcDbSpline
210
0.0
220
0.0
230
1.0
 70
     8
 71
     3
 72
    13
 73
     9
 74
     0
 42
0.0000000001
 43
0.0000000001
 40
0.0
 40
0.0
 40
0.0
 40
0.0
 40
1.152738503685846
 40
2.004081993029309
 40
2.923691412434679
 40
3.864701308105299
 40
4.710016596435496
 40
5.994133968111126
 40
5.994133968111126
 40
5.994133968111126
 40
5.994133968111126
 10
887.7320056759827
 20
-2053.242069499429
 30
0.0
 10
888.1043225140857
 20
-2053.242069499429
 30
0.0
 10
888.7515909300764
 20
-2053.208871880468
 30
0.0
 10
889.6069525262992
 20
-2053.054903322745
 30
0.0
 10
890.2775667457663
 20
-2052.80473737892
 30
0.0
 10
890.7770228254012
 20
-2052.436461276273
 30
0.0
 10
891.1420922020061
 20
-2051.907448049134
 30
0.0
 10
891.2320056759827
 20
-2051.471849638433
 30
0.0
 10
891.2320056759827
 20
-2051.197396607098
 30
0.0
  0
LINE
  5
187F9
330
18
100
AcDbEntity
  8
1DIM
100
AcDbLine
 10
718.7320056759827
 20
-2053.242069499429
 30
0.0
 11
887.7320056759827
 21
-2053.242069499429
 31
0.0
  0
SPLINE
  5
187FB
330
18
100
AcDbEntity
  8
1DIM
100
AcDbSpline
210
0.0
220
0.0
230
1.0
 70
     8
 71
     3
 72
    13
 73
     9
 74
     0
 42
0.0000000001
 43
0.0000000001
 40
0.0
 40
0.0
 40
0.0
 40
0.0
 40
1.152738503685885
 40
2.004081993029364
 40
2.923691412434694
 40
3.864701308105303
 40
4.710016596435594
 40
5.994133968111122
 40
5.994133968111122
 40
5.994133968111122
 40
5.994133968111122
 10
718.7320056759827
 20
-2053.242069499429
 30
0.0
 10
718.3596888378797
 20
-2053.242069499429
 30
0.0
 10
717.712420421889
 20
-2053.208871880468
 30
0.0
 10
716.8570588256662
 20
-2053.054903322745
 30
0.0
 10
716.1864446061991
 20
-2052.80473737892
 30
0.0
 10
715.6869885265642
 20
-2052.436461276273
 30
0.0
 10
715.3219191499593
 20
-2051.907448049134
 30
0.0
 10
715.2320056759827
 20
-2051.471849638433
 30
0.0
 10
715.2320056759827
 20
-2051.197396607098
 30
0.0
  0
LINE
  5
18807
330
18
100
AcDbEntity
  8
01
100
AcDbLine
 10
846.7320056759827
 20
-2004.089996616566
 30
0.0
 11
759.7320056759827
 21
-2004.089996616566
 31
0.0
  0
LINE
  5
18808
330
18
100
AcDbEntity
  8
01
100
AcDbLine
 10
759.7320056759827
 20
-2004.089996550999
 30
0.0
 11
758.2320056759827
 21
-2004.089996550999
 31
0.0
  0
LINE
  5
18809
330
18
100
AcDbEntity
  8
01
100
AcDbLine
 10
846.7320056759827
 20
-2004.089996550999
 30
0.0
 11
848.2320056759827
 21
-2004.089996550999
 31
0.0
  0
LINE
  5
18811
330
18
100
AcDbEntity
  8
01
100
AcDbLine
 10
898.2320056759827
 20
-2053.467295925141
 30
0.0
 11
898.2320056759827
 21
-2009.71271138895
 31
0.0
  0
LINE
  5
18813
330
18
100
AcDbEntity
  8
01
100
AcDbLine
 10
708.2320056759827
 20
-2053.467295925141
 30
0.0
 11
708.2320056759827
 21
-2009.71271138895
 31
0.0
  0
LINE
  5
1881A
330
18
100
AcDbEntity
  8
01
100
AcDbLine
 10
758.2320056759827
 20
-2004.089996550999
 30
0.0
 11
758.2320056759827
 21
-2008.52370879442
 31
0.0
  0
ELLIPSE
  5
18820
330
18
100
AcDbEntity
  8
01
100
AcDbEllipse
 10
848.7283086350499
 20
-2008.486448667054
 30
0.0
 11
0.4828871786299191
 21
0.1299881024107571
 31
0.0
210
0.0
220
0.0
230
-1.0
 40
0.8859323286290223
 41
3.179417899437319
 42
3.353145830477851
  0
LINE
  5
18821
330
18
100
AcDbEntity
  8
01
100
AcDbLine
 10
848.2320056759827
 20
-2004.089996550999
 30
0.0
 11
848.2320056759827
 21
-2008.523708794421
 31
0.0
  0
SPLINE
  5
18822
330
18
100
AcDbEntity
  8
01
100
AcDbSpline
210
0.0
220
0.0
230
1.0
 70
     8
 71
     3
 72
     9
 73
     5
 74
     0
 42
0.0000000001
 43
0.0000000001
 40
2.728616042777606
 40
2.728616042777606
 40
2.728616042777606
 40
2.728616042777606
 40
2.741050414673237
 40
2.952797557900156
 40
2.952797557900156
 40
2.952797557900156
 40
2.952797557900156
 10
848.289158729719
 20
-2008.712693002001
 30
0.0
 10
848.28803793519
 20
-2008.710971147482
 30
0.0
 10
848.2679566680024
 20
-2008.67946330755
 30
0.0
 10
848.2506457024998
 20
-2008.639699013907
 30
0.0
 10
848.241411918835
 20
-2008.600165805743
 30
0.0
  0
SPLINE
  5
18823
330
18
100
AcDbEntity
  8
01
100
AcDbSpline
210
0.0
220
0.0
230
1.0
 70
     8
 71
     3
 72
     9
 73
     5
 74
     0
 42
0.0000000001
 43
0.0000000001
 40
2.728616042777303
 40
2.728616042777303
 40
2.728616042777303
 40
2.728616042777303
 40
2.741050414676427
 40
2.952823204813876
 40
2.952823204813876
 40
2.952823204813876
 40
2.952823204813876
 10
758.1748526222473
 20
-2008.712693002001
 30
0.0
 10
758.1759734167754
 20
-2008.710971147481
 30
0.0
 10
758.19605698131
 20
-2008.679459702975
 30
0.0
 10
758.2133696102628
 20
-2008.639689915534
 30
0.0
 10
758.2226027880179
 20
-2008.600151440814
 30
0.0
  0
LINE
  5
18824
330
18
100
AcDbEntity
  8
01
100
AcDbLine
 10
897.2320056759827
 20
-2054.467298756419
 30
0.0
 11
709.2320056759827
 21
-2054.467298756419
 31
0.0
  0
LINE
  5
18825
330
18
100
AcDbEntity
  8
01
100
AcDbLine
 10
897.2320056759827
 20
-2008.712693077948
 30
0.0
 11
709.2320056759827
 21
-2008.712693077948
 31
0.0
  0
SPLINE
  5
18826
330
18
100
AcDbEntity
  8
01
100
AcDbSpline
210
0.0
220
0.0
230
1.0
 70
     8
 71
     3
 72
    18
 73
    14
 74
     0
 42
0.0000000001
 43
0.0000000001
 40
0.0
 40
0.0
 40
0.0
 40
0.0
 40
0.0961145885925467
 40
0.1922291763408787
 40
0.28838446163382
 40
0.3845397468614449
 40
0.4806950314150703
 40
0.5768503159944154
 40
0.865316169838812
 40
0.9614714545077642
 40
1.057626739203281
 40
1.249937308695995
 40
1.57006422113299
 40
1.57006422113299
 40
1.57006422113299
 40
1.57006422113299
 10
708.2320056854187
 20
-2009.71255447218
 30
0.0
 10
708.2320088468023
 20
-2009.689746419817
 30
0.0
 10
708.2351037028038
 20
-2009.612113977691
 30
0.0
 10
708.2489537071251
 20
-2009.522278363044
 30
0.0
 10
708.2718927865699
 20
-2009.42730259517
 30
0.0
 10
708.3037111827816
 20
-2009.33679733677
 30
0.0
 10
708.3441151595598
 20
-2009.249276309992
 30
0.0
 10
708.4251207607449
 20
-2009.110748599643
 30
0.0
 10
708.5321157900289
 20
-2008.989105905704
 30
0.0
 10
708.6592263452858
 20
-2008.891102884171
 30
0.0
 10
708.7679793758143
 20
-2008.822814384602
 30
0.0
 10
708.9542942962762
 20
-2008.74031141368
 30
0.0
 10
709.125715058266
 20
-2008.71269307793
 30
0.0
 10
709.2320056759827
 20
-2008.71269307795
 30
0.0
  0
ARC
  5
18827
330
18
100
AcDbEntity
  8
01
100
AcDbCircle
 10
709.2319762720654
 20
-2053.467328164878
 30
0.0
 40
0.9999705919709261
100
AcDbArc
 50
180.0071749238523
 51
270.0016847697125
  0
SPLINE
  5
18828
330
18
100
AcDbEntity
  8
01
100
AcDbSpline
210
0.0
220
0.0
230
1.0
 70
     8
 71
     3
 72
    18
 73
    14
 74
     0
 42
0.0000000001
 43
0.0000000001
 40
0.0
 40
0.0
 40
0.0
 40
0.0
 40
0.0961145885925928
 40
0.1922291763409727
 40
0.2883844616339071
 40
0.3845397468615326
 40
0.4806950314151587
 40
0.5768503159944989
 40
0.8653161698388899
 40
0.961471454507849
 40
1.057626739203362
 40
1.24993730869607
 40
1.570064221132963
 40
1.570064221132963
 40
1.570064221132963
 40
1.570064221132963
 10
898.2320056665467
 20
-2009.71255447218
 30
0.0
 10
898.2320025051631
 20
-2009.68974641981
 30
0.0
 10
898.2289076491616
 20
-2009.612113977694
 30
0.0
 10
898.2150576448403
 20
-2009.522278363043
 30
0.0
 10
898.1921185653955
 20
-2009.42730259517
 30
0.0
 10
898.1603001691838
 20
-2009.33679733677
 30
0.0
 10
898.1198961924056
 20
-2009.249276309992
 30
0.0
 10
898.0388905912205
 20
-2009.110748599643
 30
0.0
 10
897.9318955619365
 20
-2008.989105905704
 30
0.0
 10
897.8047850066796
 20
-2008.891102884171
 30
0.0
 10
897.6960319761511
 20
-2008.822814384602
 30
0.0
 10
897.5097170556892
 20
-2008.74031141368
 30
0.0
 10
897.3382962936994
 20
-2008.71269307793
 30
0.0
 10
897.2320056759827
 20
-2008.71269307795
 30
0.0
  0
ARC
  5
18829
330
18
100
AcDbEntity
  8
01
100
AcDbCircle
 10
-897.2320350799018
 20
-2053.467328164879
 30
0.0
 40
0.9999705919700983
210
0.0
220
0.0
230
-1.0
100
AcDbArc
 50
180.0071749238001
 51
270.0016847697646
  0
SPLINE
  5
1882A
330
18
100
AcDbEntity
  8
01
100
AcDbSpline
210
0.0
220
0.0
230
1.0
 70
     8
 71
     3
 72
    15
 73
    11
 74
     0
 42
0.0000000001
 43
0.0000000001
 40
0.0
 40
0.0
 40
0.0
 40
0.0
 40
0.518628453404926
 40
1.207473868193663
 40
2.223659514462503
 40
3.045559313015664
 40
3.842507038830484
 40
4.612502677006554
 40
5.208848238188621
 40
5.642800155967785
 40
5.642800155967785
 40
5.642800155967785
 40
5.642800155967785
 10
718.7320056759827
 20
-2040.934280488858
 30
0.0
 10
718.559283329163
 20
-2040.934280488858
 30
0.0
 10
718.1564862687501
 20
-2040.907507067978
 30
0.0
 10
717.4360485433681
 20
-2040.746673554574
 30
0.0
 10
716.6914944657183
 20
-2040.398580746393
 30
0.0
 10
716.055346062115
 20
-2039.889060709646
 30
0.0
 10
715.6182764095192
 20
-2039.342867619867
 30
0.0
 10
715.3608780268896
 20
-2038.805264521878
 30
0.0
 10
715.2507263364168
 20
-2038.346295099608
 30
0.0
 10
715.232005675075
 20
-2038.083872093732
 30
0.0
 10
715.2320056759827
 20
-2037.974217506777
 30
0.0
  0
LINE
  5
1882B
330
18
100
AcDbEntity
  8
01
100
AcDbLine
 10
887.7320056759827
 20
-2040.934280488858
 30
0.0
 11
718.7320056759827
 21
-2040.934280488858
 31
0.0
  0
SPLINE
  5
1882C
330
18
100
AcDbEntity
  8
01
100
AcDbSpline
210
0.0
220
0.0
230
1.0
 70
     8
 71
     3
 72
    15
 73
    11
 74
     0
 42
0.0000000001
 43
0.0000000001
 40
0.0
 40
0.0
 40
0.0
 40
0.0
 40
0.4357046779680755
 40
1.023612685566061
 40
1.77293819161937
 40
2.709561240552471
 40
3.516369473276043
 40
4.514824191293785
 40
5.177860393818504
 40
5.642812704926629
 40
5.642812704926629
 40
5.642812704926629
 40
5.642812704926629
 10
891.2320056759827
 20
-2037.974217688873
 30
0.0
 10
891.2320056759827
 20
-2038.084285860572
 30
0.0
 10
891.2132948116187
 20
-2038.34502544466
 30
0.0
 10
891.1051225694646
 20
-2038.797060404369
 30
0.0
 10
890.8379714101084
 20
-2039.362605156193
 30
0.0
 10
890.3728396119541
 20
-2039.93055810016
 30
0.0
 10
889.6922516447848
 20
-2040.445013909219
 30
0.0
 10
888.95528484245
 20
-2040.769689614975
 30
0.0
 10
888.2630979877813
 20
-2040.911868129762
 30
0.0
 10
887.8868787991578
 20
-2040.934280488858
 30
0.0
 10
887.7320056759827
 20
-2040.934280488858
 30
0.0
  0
LINE
  5
1882D
330
18
100
AcDbEntity
  8
01
100
AcDbLine
 10
891.2320056758726
 20
-2051.197396608917
 30
0.0
 11
891.2320056759827
 21
-2049.121793160797
 31
0.0
  0
SPLINE
  5
1882E
330
18
100
AcDbEntity
  8
01
100
AcDbSpline
210
0.0
220
0.0
230
1.0
 70
     8
 71
     3
 72
    15
 73
    11
 74
     0
 42
0.0000000001
 43
0.0000000001
 40
0.0
 40
0.0
 40
0.0
 40
0.0
 40
0.4357046779681276
 40
1.023612685564814
 40
1.772938191616315
 40
2.709561240551871
 40
3.516369473275962
 40
4.514824191291167
 40
5.177860393817211
 40
5.642812704926627
 40
5.642812704926627
 40
5.642812704926627
 40
5.642812704926627
 10
891.2320056759827
 20
-2025.205774145494
 30
0.0
 10
891.2320056759827
 20
-2025.095705973795
 30
0.0
 10
891.2132948116187
 20
-2024.834966389707
 30
0.0
 10
891.1051225694646
 20
-2024.38293143
 30
0.0
 10
890.8379714101084
 20
-2023.817386678175
 30
0.0
 10
890.372839611955
 20
-2023.249433734208
 30
0.0
 10
889.6922516447867
 20
-2022.734977925148
 30
0.0
 10
888.9552848424519
 20
-2022.410302219392
 30
0.0
 10
888.2630979877831
 20
-2022.268123704605
 30
0.0
 10
887.8868787991578
 20
-2022.245711345509
 30
0.0
 10
887.7320056759827
 20
-2022.245711345509
 30
0.0
  0
LINE
  5
1882F
330
18
100
AcDbEntity
  8
01
100
AcDbLine
 10
887.7320056759827
 20
-2022.245711345509
 30
0.0
 11
718.7320056759827
 21
-2022.245711345509
 31
0.0
  0
SPLINE
  5
18830
330
18
100
AcDbEntity
  8
01
100
AcDbSpline
210
0.0
220
0.0
230
1.0
 70
     8
 71
     3
 72
    15
 73
    11
 74
     0
 42
0.0000000001
 43
0.0000000001
 40
0.0
 40
0.0
 40
0.0
 40
0.0
 40
0.4359354852432856
 40
1.023832675707201
 40
1.927807796074159
 40
2.70939496417686
 40
3.516433342392224
 40
4.514567225862216
 40
5.177703913398152
 40
5.642818492516611
 40
5.642818492516611
 40
5.642818492516611
 40
5.642818492516611
 10
715.2320056759827
 20
-2025.205774145494
 30
0.0
 10
715.2320056759827
 20
-2025.095616078401
 30
0.0
 10
715.2507016997552
 20
-2024.83481916245
 30
0.0
 10
715.3682538692592
 20
-2024.343378027482
 30
0.0
 10
715.6506516448471
 20
-2023.779508970743
 30
0.0
 10
716.129649768809
 20
-2023.220432116448
 30
0.0
 10
716.771585428165
 20
-2022.734953147881
 30
0.0
 10
717.5086289807623
 20
-2022.410388715982
 30
0.0
 10
718.2007713115427
 20
-2022.268156178914
 30
0.0
 10
718.5770786407575
 20
-2022.245711345509
 30
0.0
 10
718.7320056759827
 20
-2022.245711345509
 30
0.0
  0
LINE
  5
18831
330
18
100
AcDbEntity
  8
01
100
AcDbLine
 10
715.2320056760927
 20
-2051.197396608917
 30
0.0
 11
715.2320056759827
 21
-2049.121793160797
 31
0.0
  0
LINE
  5
18994
330
18
100
AcDbEntity
  8
01
100
AcDbLine
 10
974.4864212731693
 20
-2098.212655490466
 30
0.0
 11
978.6093116515125
 21
-2098.212655490466
 31
0.0
  0
LINE
  5
1899B
330
18
100
AcDbEntity
  8
01
100
AcDbLine
 10
978.6093116515125
 20
-2098.212655490466
 30
0.0
 11
978.6093116515126
 21
-2117.412655478545
 31
0.0
  0
ARC
  5
1899D
330
18
100
AcDbEntity
  8
01
100
AcDbCircle
 10
977.8093111564617
 20
-2117.412655065353
 30
0.0
 40
0.8000004950509143
100
AcDbArc
 50
270.0000371060636
 51
359.9999679026653
  0
ARC
  5
18ACB
330
18
100
AcDbEntity
  8
01
100
AcDbCircle
 10
974.4864212731695
 20
-2097.712655490466
 30
0.0
 40
0.5
100
AcDbArc
 50
179.5276898865217
 51
269.9999999999674
  0
LINE
  5
190F2
330
18
100
AcDbEntity
  8
1PHANTOM
100
AcDbLine
 10
769.7320522118807
 20
-1979.289993856474
 30
0.0
 11
768.2320522118807
 21
-1984.589990366335
 31
0.0
  0
LINE
  5
190F3
330
18
100
AcDbEntity
  8
1PHANTOM
100
AcDbLine
 10
768.2320522118807
 20
-1984.589990366335
 30
0.0
 11
768.2320522118812
 21
-2007.489993856311
 31
0.0
  0
LINE
  5
190F4
330
18
100
AcDbEntity
  8
1PHANTOM
100
AcDbLine
 10
769.7320522118807
 20
-1979.289993856474
 30
0.0
 11
771.2320522118807
 21
-1984.589997346719
 31
0.0
  0
LINE
  5
190F5
330
18
100
AcDbEntity
  8
1PHANTOM
100
AcDbLine
 10
766.2320056759827
 20
-2009.289985712529
 30
0.0
 11
768.2320522118807
 21
-2009.289990366227
 31
0.0
  0
LINE
  5
190F6
330
18
100
AcDbEntity
  8
1PHANTOM
100
AcDbLine
 10
771.2320522118807
 20
-1984.589997346719
 30
0.0
 11
771.2320522118807
 21
-2007.489993856311
 31
0.0
  0
LINE
  5
190F7
330
18
100
AcDbEntity
  8
1PHANTOM
100
AcDbLine
 10
766.2320056759827
 20
-2009.289985712529
 30
0.0
 11
766.2320056759827
 21
-2010.389989202725
 31
0.0
  0
LINE
  5
190F8
330
18
100
AcDbEntity
  8
1PHANTOM
100
AcDbLine
 10
771.2320522118807
 20
-2009.289997346612
 30
0.0
 11
773.2320056759827
 21
-2009.290002000093
 31
0.0
  0
ARC
  5
190F9
330
18
100
AcDbEntity
  8
1PHANTOM
100
AcDbCircle
 10
767.7320056759827
 20
-2010.389989202725
 30
0.0
 40
1.5
100
AcDbArc
 50
180.0
 51
269.999866684475
  0
LINE
  5
190FA
330
18
100
AcDbEntity
  8
1PHANTOM
100
AcDbLine
 10
773.2320056759827
 20
-2009.290002000093
 30
0.0
 11
773.2320056759827
 21
-2010.389998509904
 31
0.0
  0
LINE
  5
190FB
330
18
100
AcDbEntity
  8
1PHANTOM
100
AcDbLine
 10
767.7320021857904
 20
-2011.88998920272
 30
0.0
 11
771.7320021857904
 21
-2011.889998509899
 31
0.0
  0
ARC
  5
190FC
330
18
100
AcDbEntity
  8
1PHANTOM
100
AcDbCircle
 10
771.7320056759827
 20
-2010.389998509904
 30
0.0
 40
1.5
100
AcDbArc
 50
269.999866684475
 51
0.0
  0
LINE
  5
190FD
330
18
100
AcDbEntity
  8
1CENTER
100
AcDbLine
 10
769.7320056759827
 20
-1978.528724652303
 30
0.0
 11
769.7320056759827
 21
-2012.773877557573
 31
0.0
  0
LINE
  5
190FE
330
18
100
AcDbEntity
  8
1PHANTOM
100
AcDbLine
 10
768.6376818619874
 20
-1981.389991310151
 30
0.0
 11
770.6000169508629
 21
-1980.589995876101
 31
0.0
  0
LINE
  5
190FF
330
18
100
AcDbEntity
  8
1PHANTOM
100
AcDbLine
 10
770.6000169508629
 20
-1980.589995876101
 30
0.0
 11
770.0117403758204
 21
-1980.278226019848
 31
0.0
  0
LINE
  5
19100
330
18
100
AcDbEntity
  8
1PHANTOM
100
AcDbLine
 10
767.7320522118807
 20
-2003.789989202942
 30
0.0
 11
771.7320522118807
 21
-2002.989998510124
 31
0.0
  0
LINE
  5
19101
330
18
100
AcDbEntity
  8
1PHANTOM
100
AcDbLine
 10
767.7320522118807
 20
-1992.589989202937
 30
0.0
 11
771.7320522118807
 21
-1991.789998510114
 31
0.0
  0
LINE
  5
19102
330
18
100
AcDbEntity
  8
1PHANTOM
100
AcDbLine
 10
767.7320522118807
 20
-1989.389989202937
 30
0.0
 11
771.7320522118807
 21
-1988.589998510115
 31
0.0
  0
LINE
  5
19103
330
18
100
AcDbEntity
  8
1PHANTOM
100
AcDbLine
 10
771.7320522118807
 20
-1988.589998510115
 30
0.0
 11
771.2320522118807
 21
-1988.489997346717
 31
0.0
  0
LINE
  5
19104
330
18
100
AcDbEntity
  8
1PHANTOM
100
AcDbLine
 10
768.2320522118807
 20
-1987.889990366334
 30
0.0
 11
767.7320522118807
 21
-1987.789989202937
 31
0.0
  0
LINE
  5
19105
330
18
100
AcDbEntity
  8
1PHANTOM
100
AcDbLine
 10
771.7320522118807
 20
-1991.789998510114
 30
0.0
 11
771.2320522118807
 21
-1991.689997346717
 31
0.0
  0
LINE
  5
19106
330
18
100
AcDbEntity
  8
1PHANTOM
100
AcDbLine
 10
771.7320522118807
 20
-1990.189998510114
 30
0.0
 11
771.2320522118807
 21
-1990.089997346717
 31
0.0
  0
LINE
  5
19107
330
18
100
AcDbEntity
  8
1PHANTOM
100
AcDbLine
 10
768.2320522118807
 20
-1989.489990366334
 30
0.0
 11
767.7320522118807
 21
-1989.389989202937
 31
0.0
  0
LINE
  5
19108
330
18
100
AcDbEntity
  8
1PHANTOM
100
AcDbLine
 10
768.2320522118807
 20
-1991.089990366333
 30
0.0
 11
767.7320522118807
 21
-1990.989989202937
 31
0.0
  0
LINE
  5
19109
330
18
100
AcDbEntity
  8
1PHANTOM
100
AcDbLine
 10
767.7320522118807
 20
-1990.989989202937
 30
0.0
 11
771.7320522118807
 21
-1990.189998510114
 31
0.0
  0
LINE
  5
1910A
330
18
100
AcDbEntity
  8
1PHANTOM
100
AcDbLine
 10
771.05283105527
 20
-1982.189996929706
 30
0.0
 11
770.5010815914666
 21
-1982.007232787078
 31
0.0
  0
LINE
  5
1910B
330
18
100
AcDbEntity
  8
1PHANTOM
100
AcDbLine
 10
771.7320522118807
 20
-1985.389998510114
 30
0.0
 11
771.2320522118807
 21
-1985.289997346717
 31
0.0
  0
LINE
  5
1910C
330
18
100
AcDbEntity
  8
1PHANTOM
100
AcDbLine
 10
771.7320522118807
 20
-1986.989998510114
 30
0.0
 11
771.2320522118807
 21
-1986.889997346717
 31
0.0
  0
LINE
  5
1910D
330
18
100
AcDbEntity
  8
1PHANTOM
100
AcDbLine
 10
771.5056451596765
 20
-1983.789997983311
 30
0.0
 11
770.9690514244057
 21
-1983.660727285681
 31
0.0
  0
LINE
  5
1910E
330
18
100
AcDbEntity
  8
1PHANTOM
100
AcDbLine
 10
768.6529668090893
 20
-1983.102759768897
 30
0.0
 11
768.1848683539392
 21
-1982.989990256547
 31
0.0
  0
LINE
  5
1910F
330
18
100
AcDbEntity
  8
1PHANTOM
100
AcDbLine
 10
768.2320522118807
 20
-1986.289990366334
 30
0.0
 11
767.7320522118807
 21
-1986.189989202936
 31
0.0
  0
LINE
  5
19110
330
18
100
AcDbEntity
  8
1PHANTOM
100
AcDbLine
 10
768.2320522118807
 20
-1984.689990366334
 30
0.0
 11
767.7320522118807
 21
-1984.589989202937
 31
0.0
  0
LINE
  5
19111
330
18
100
AcDbEntity
  8
1PHANTOM
100
AcDbLine
 10
769.0948537026188
 20
-1981.541427106592
 30
0.0
 11
768.6376818619874
 21
-1981.389991310151
 31
0.0
  0
LINE
  5
19112
330
18
100
AcDbEntity
  8
1PHANTOM
100
AcDbLine
 10
768.1848683539392
 20
-1982.989990256547
 30
0.0
 11
771.05283105527
 21
-1982.189996929706
 31
0.0
  0
LINE
  5
19113
330
18
100
AcDbEntity
  8
1PHANTOM
100
AcDbLine
 10
767.7320522118807
 20
-1986.189989202936
 30
0.0
 11
771.7320522118807
 21
-1985.389998510114
 31
0.0
  0
LINE
  5
19114
330
18
100
AcDbEntity
  8
1PHANTOM
100
AcDbLine
 10
767.7320522118807
 20
-1984.589989202937
 30
0.0
 11
771.5056451596765
 21
-1983.789997983311
 31
0.0
  0
LINE
  5
19115
330
18
100
AcDbEntity
  8
1PHANTOM
100
AcDbLine
 10
767.7320522118807
 20
-1987.789989202937
 30
0.0
 11
771.7320522118807
 21
-1986.989998510114
 31
0.0
  0
LINE
  5
19116
330
18
100
AcDbEntity
  8
1PHANTOM
100
AcDbLine
 10
767.7320522118807
 20
-2000.589989202942
 30
0.0
 11
771.7320522118807
 21
-1999.789998510123
 31
0.0
  0
LINE
  5
19117
330
18
100
AcDbEntity
  8
1PHANTOM
100
AcDbLine
 10
771.7320522118807
 20
-1999.789998510123
 30
0.0
 11
771.2320522118807
 21
-1999.689997346725
 31
0.0
  0
LINE
  5
19118
330
18
100
AcDbEntity
  8
1PHANTOM
100
AcDbLine
 10
768.2320522118807
 20
-1999.089990366335
 30
0.0
 11
767.7320522118807
 21
-1998.989989202937
 31
0.0
  0
LINE
  5
19119
330
18
100
AcDbEntity
  8
1PHANTOM
100
AcDbLine
 10
771.7320522118807
 20
-2001.389998510123
 30
0.0
 11
771.2320522118807
 21
-2001.289997346725
 31
0.0
  0
LINE
  5
1911A
330
18
100
AcDbEntity
  8
1PHANTOM
100
AcDbLine
 10
771.7320522118807
 20
-2002.989998510124
 30
0.0
 11
771.2320522118807
 21
-2002.889997346726
 31
0.0
  0
LINE
  5
1911B
330
18
100
AcDbEntity
  8
1PHANTOM
100
AcDbLine
 10
768.2320522118807
 20
-2000.689990366339
 30
0.0
 11
767.7320522118807
 21
-2000.589989202942
 31
0.0
  0
LINE
  5
1911C
330
18
100
AcDbEntity
  8
1PHANTOM
100
AcDbLine
 10
768.2320522118807
 20
-2002.289990366339
 30
0.0
 11
767.7320522118807
 21
-2002.189989202941
 31
0.0
  0
LINE
  5
1911D
330
18
100
AcDbEntity
  8
1PHANTOM
100
AcDbLine
 10
767.7320522118807
 20
-2002.189989202941
 30
0.0
 11
771.7320522118807
 21
-2001.389998510123
 31
0.0
  0
LINE
  5
1911E
330
18
100
AcDbEntity
  8
1PHANTOM
100
AcDbLine
 10
771.7320522118807
 20
-1994.989998510119
 30
0.0
 11
771.2320522118807
 21
-1994.889997346721
 31
0.0
  0
LINE
  5
1911F
330
18
100
AcDbEntity
  8
1PHANTOM
100
AcDbLine
 10
771.7320522118807
 20
-1993.389998510114
 30
0.0
 11
771.2320522118807
 21
-1993.289997346717
 31
0.0
  0
LINE
  5
19120
330
18
100
AcDbEntity
  8
1PHANTOM
100
AcDbLine
 10
771.7320522118807
 20
-1998.189998510119
 30
0.0
 11
771.2320522118807
 21
-1998.089997346721
 31
0.0
  0
LINE
  5
19121
330
18
100
AcDbEntity
  8
1PHANTOM
100
AcDbLine
 10
771.7320522118807
 20
-1996.589998510118
 30
0.0
 11
771.2320522118807
 21
-1996.489997346721
 31
0.0
  0
LINE
  5
19122
330
18
100
AcDbEntity
  8
1PHANTOM
100
AcDbLine
 10
768.2320522118807
 20
-1992.689990366334
 30
0.0
 11
767.7320522118807
 21
-1992.589989202937
 31
0.0
  0
LINE
  5
19123
330
18
100
AcDbEntity
  8
1PHANTOM
100
AcDbLine
 10
768.2320522118807
 20
-1994.289990366334
 30
0.0
 11
767.7320522118807
 21
-1994.189989202936
 31
0.0
  0
LINE
  5
19124
330
18
100
AcDbEntity
  8
1PHANTOM
100
AcDbLine
 10
768.2320522118807
 20
-1997.489990366335
 30
0.0
 11
767.7320522118807
 21
-1997.389989202937
 31
0.0
  0
LINE
  5
19125
330
18
100
AcDbEntity
  8
1PHANTOM
100
AcDbLine
 10
768.2320522118807
 20
-1995.889990366335
 30
0.0
 11
767.7320522118807
 21
-1995.789989202937
 31
0.0
  0
LINE
  5
19126
330
18
100
AcDbEntity
  8
1PHANTOM
100
AcDbLine
 10
767.7320522118807
 20
-1995.789989202937
 30
0.0
 11
771.7320522118807
 21
-1994.989998510119
 31
0.0
  0
LINE
  5
19127
330
18
100
AcDbEntity
  8
1PHANTOM
100
AcDbLine
 10
767.7320522118807
 20
-1994.189989202936
 30
0.0
 11
771.7320522118807
 21
-1993.389998510114
 31
0.0
  0
LINE
  5
19128
330
18
100
AcDbEntity
  8
1PHANTOM
100
AcDbLine
 10
767.7320522118807
 20
-1997.389989202937
 30
0.0
 11
771.7320522118807
 21
-1996.589998510118
 31
0.0
  0
LINE
  5
19129
330
18
100
AcDbEntity
  8
1PHANTOM
100
AcDbLine
 10
767.7320522118807
 20
-1998.989989202937
 30
0.0
 11
771.7320522118807
 21
-1998.189998510119
 31
0.0
  0
LINE
  5
1912A
330
18
100
AcDbEntity
  8
1PHANTOM
100
AcDbLine
 10
771.2320522118807
 20
-2009.289997346612
 30
0.0
 11
768.2320522118807
 21
-2009.289990366227
 31
0.0
  0
LINE
  5
1912B
330
18
100
AcDbEntity
  8
1PHANTOM
100
AcDbLine
 10
768.2320522118807
 20
-2007.089990366344
 30
0.0
 11
767.7320522118807
 21
-2006.989989202946
 31
0.0
  0
LINE
  5
1912C
330
18
100
AcDbEntity
  8
1PHANTOM
100
AcDbLine
 10
768.2320522118807
 20
-2005.489990366343
 30
0.0
 11
767.7320522118807
 21
-2005.389989202946
 31
0.0
  0
LINE
  5
1912D
330
18
100
AcDbEntity
  8
1PHANTOM
100
AcDbLine
 10
767.7320522118807
 20
-2005.389989202946
 30
0.0
 11
771.7320522118807
 21
-2004.589998510128
 31
0.0
  0
LINE
  5
1912E
330
18
100
AcDbEntity
  8
1PHANTOM
100
AcDbLine
 10
771.7320522118807
 20
-2006.189998510127
 30
0.0
 11
771.2320522118807
 21
-2006.08999734673
 31
0.0
  0
LINE
  5
1912F
330
18
100
AcDbEntity
  8
1PHANTOM
100
AcDbLine
 10
771.7320522118807
 20
-2004.589998510128
 30
0.0
 11
771.2320522118807
 21
-2004.48999734673
 31
0.0
  0
LINE
  5
19130
330
18
100
AcDbEntity
  8
1PHANTOM
100
AcDbLine
 10
767.7320522118807
 20
-2006.989989202946
 30
0.0
 11
771.7320522118807
 21
-2006.189998510127
 31
0.0
  0
LINE
  5
19131
330
18
100
AcDbEntity
  8
1PHANTOM
100
AcDbLine
 10
768.2320522118807
 20
-2003.889990366339
 30
0.0
 11
767.7320522118807
 21
-2003.789989202942
 31
0.0
  0
LINE
  5
19132
330
18
100
AcDbEntity
  8
1PHANTOM
100
AcDbLine
 10
773.3320056759821
 20
-2009.289993856311
 30
0.0
 11
773.3320056759821
 21
-2008.289993856311
 31
0.0
  0
LINE
  5
19133
330
18
100
AcDbEntity
  8
1PHANTOM
100
AcDbLine
 10
766.1320056759823
 20
-2008.289993856311
 30
0.0
 11
766.1320056759823
 21
-2009.289993856311
 31
0.0
  0
LINE
  5
19134
330
18
100
AcDbEntity
  8
1PHANTOM
100
AcDbLine
 10
773.3320056759821
 20
-2009.289993856311
 30
0.0
 11
766.1320056759823
 21
-2009.289993856311
 31
0.0
  0
LINE
  5
19135
330
18
100
AcDbEntity
  8
1PHANTOM
100
AcDbLine
 10
765.2320056759827
 20
-2007.489993856311
 30
0.0
 11
774.2320056759827
 21
-2007.489993856311
 31
0.0
  0
LINE
  5
19136
330
18
100
AcDbEntity
  8
1PHANTOM
100
AcDbLine
 10
765.2320056759827
 20
-2008.289993856311
 30
0.0
 11
765.2320056759827
 21
-2007.489993856311
 31
0.0
  0
LINE
  5
19137
330
18
100
AcDbEntity
  8
1PHANTOM
100
AcDbLine
 10
774.2320056759827
 20
-2007.489993856311
 30
0.0
 11
774.2320056759827
 21
-2008.289993856311
 31
0.0
  0
LINE
  5
19138
330
18
100
AcDbEntity
  8
1PHANTOM
100
AcDbLine
 10
765.2320056759827
 20
-2008.289993856311
 30
0.0
 11
774.2320056759827
 21
-2008.289993856311
 31
0.0
  0
LINE
  5
19139
330
18
100
AcDbEntity
  8
1PHANTOM
100
AcDbLine
 10
769.6324509530778
 20
-2008.289993856312
 30
0.0
 11
769.3645017606473
 21
-2009.289993856311
 31
0.0
  0
LINE
  5
1913A
330
18
100
AcDbEntity
  8
1PHANTOM
100
AcDbLine
 10
770.0827616033143
 20
-2008.289993856311
 30
0.0
 11
769.814812410883
 21
-2009.289993856311
 31
0.0
  0
LINE
  5
1914A
330
18
100
AcDbEntity
  8
1PHANTOM
100
AcDbLine
 10
836.7320522118807
 20
-1979.289993856474
 30
0.0
 11
835.2320522118807
 21
-1984.589990366335
 31
0.0
  0
LINE
  5
1914B
330
18
100
AcDbEntity
  8
1PHANTOM
100
AcDbLine
 10
835.2320522118807
 20
-1984.589990366335
 30
0.0
 11
835.2320522118812
 21
-2007.489993856311
 31
0.0
  0
LINE
  5
1914C
330
18
100
AcDbEntity
  8
1PHANTOM
100
AcDbLine
 10
836.7320522118807
 20
-1979.289993856474
 30
0.0
 11
838.2320522118807
 21
-1984.589997346719
 31
0.0
  0
LINE
  5
1914D
330
18
100
AcDbEntity
  8
1PHANTOM
100
AcDbLine
 10
833.2320056759827
 20
-2009.289985712529
 30
0.0
 11
835.2320522118807
 21
-2009.289990366227
 31
0.0
  0
LINE
  5
1914E
330
18
100
AcDbEntity
  8
1PHANTOM
100
AcDbLine
 10
838.2320522118807
 20
-1984.589997346719
 30
0.0
 11
838.2320522118807
 21
-2007.489993856311
 31
0.0
  0
LINE
  5
1914F
330
18
100
AcDbEntity
  8
1PHANTOM
100
AcDbLine
 10
833.2320056759827
 20
-2009.289985712529
 30
0.0
 11
833.2320056759827
 21
-2010.389989202725
 31
0.0
  0
LINE
  5
19150
330
18
100
AcDbEntity
  8
1PHANTOM
100
AcDbLine
 10
838.2320522118807
 20
-2009.289997346612
 30
0.0
 11
840.2320056759827
 21
-2009.290002000093
 31
0.0
  0
ARC
  5
19151
330
18
100
AcDbEntity
  8
1PHANTOM
100
AcDbCircle
 10
834.7320056759827
 20
-2010.389989202725
 30
0.0
 40
1.5
100
AcDbArc
 50
180.0
 51
269.999866684475
  0
LINE
  5
19152
330
18
100
AcDbEntity
  8
1PHANTOM
100
AcDbLine
 10
840.2320056759827
 20
-2009.290002000093
 30
0.0
 11
840.2320056759827
 21
-2010.389998509904
 31
0.0
  0
LINE
  5
19153
330
18
100
AcDbEntity
  8
1PHANTOM
100
AcDbLine
 10
834.7320021857904
 20
-2011.88998920272
 30
0.0
 11
838.7320021857904
 21
-2011.889998509899
 31
0.0
  0
ARC
  5
19154
330
18
100
AcDbEntity
  8
1PHANTOM
100
AcDbCircle
 10
838.7320056759827
 20
-2010.389998509904
 30
0.0
 40
1.5
100
AcDbArc
 50
269.999866684475
 51
0.0
  0
LINE
  5
19155
330
18
100
AcDbEntity
  8
1CENTER
100
AcDbLine
 10
836.7320056759827
 20
-1978.528724652303
 30
0.0
 11
836.7320056759827
 21
-2012.773877557573
 31
0.0
  0
LINE
  5
19156
330
18
100
AcDbEntity
  8
1PHANTOM
100
AcDbLine
 10
835.6376818619874
 20
-1981.389991310151
 30
0.0
 11
837.6000169508629
 21
-1980.589995876101
 31
0.0
  0
LINE
  5
19157
330
18
100
AcDbEntity
  8
1PHANTOM
100
AcDbLine
 10
837.6000169508629
 20
-1980.589995876101
 30
0.0
 11
837.0117403758204
 21
-1980.278226019848
 31
0.0
  0
LINE
  5
19158
330
18
100
AcDbEntity
  8
1PHANTOM
100
AcDbLine
 10
834.7320522118807
 20
-2003.789989202942
 30
0.0
 11
838.7320522118807
 21
-2002.989998510124
 31
0.0
  0
LINE
  5
19159
330
18
100
AcDbEntity
  8
1PHANTOM
100
AcDbLine
 10
834.7320522118807
 20
-1992.589989202937
 30
0.0
 11
838.7320522118807
 21
-1991.789998510114
 31
0.0
  0
LINE
  5
1915A
330
18
100
AcDbEntity
  8
1PHANTOM
100
AcDbLine
 10
834.7320522118807
 20
-1989.389989202937
 30
0.0
 11
838.7320522118807
 21
-1988.589998510115
 31
0.0
  0
LINE
  5
1915B
330
18
100
AcDbEntity
  8
1PHANTOM
100
AcDbLine
 10
838.7320522118807
 20
-1988.589998510115
 30
0.0
 11
838.2320522118807
 21
-1988.489997346717
 31
0.0
  0
LINE
  5
1915C
330
18
100
AcDbEntity
  8
1PHANTOM
100
AcDbLine
 10
835.2320522118807
 20
-1987.889990366334
 30
0.0
 11
834.7320522118807
 21
-1987.789989202937
 31
0.0
  0
LINE
  5
1915D
330
18
100
AcDbEntity
  8
1PHANTOM
100
AcDbLine
 10
838.7320522118807
 20
-1991.789998510114
 30
0.0
 11
838.2320522118807
 21
-1991.689997346717
 31
0.0
  0
LINE
  5
1915E
330
18
100
AcDbEntity
  8
1PHANTOM
100
AcDbLine
 10
838.7320522118807
 20
-1990.189998510114
 30
0.0
 11
838.2320522118807
 21
-1990.089997346717
 31
0.0
  0
LINE
  5
1915F
330
18
100
AcDbEntity
  8
1PHANTOM
100
AcDbLine
 10
835.2320522118807
 20
-1989.489990366334
 30
0.0
 11
834.7320522118807
 21
-1989.389989202937
 31
0.0
  0
LINE
  5
19160
330
18
100
AcDbEntity
  8
1PHANTOM
100
AcDbLine
 10
835.2320522118807
 20
-1991.089990366333
 30
0.0
 11
834.7320522118807
 21
-1990.989989202937
 31
0.0
  0
LINE
  5
19161
330
18
100
AcDbEntity
  8
1PHANTOM
100
AcDbLine
 10
834.7320522118807
 20
-1990.989989202937
 30
0.0
 11
838.7320522118807
 21
-1990.189998510114
 31
0.0
  0
LINE
  5
19162
330
18
100
AcDbEntity
  8
1PHANTOM
100
AcDbLine
 10
838.05283105527
 20
-1982.189996929706
 30
0.0
 11
837.5010815914666
 21
-1982.007232787078
 31
0.0
  0
LINE
  5
19163
330
18
100
AcDbEntity
  8
1PHANTOM
100
AcDbLine
 10
838.7320522118807
 20
-1985.389998510114
 30
0.0
 11
838.2320522118807
 21
-1985.289997346717
 31
0.0
  0
LINE
  5
19164
330
18
100
AcDbEntity
  8
1PHANTOM
100
AcDbLine
 10
838.7320522118807
 20
-1986.989998510114
 30
0.0
 11
838.2320522118807
 21
-1986.889997346717
 31
0.0
  0
LINE
  5
19165
330
18
100
AcDbEntity
  8
1PHANTOM
100
AcDbLine
 10
838.5056451596765
 20
-1983.789997983311
 30
0.0
 11
837.9690514244057
 21
-1983.660727285681
 31
0.0
  0
LINE
  5
19166
330
18
100
AcDbEntity
  8
1PHANTOM
100
AcDbLine
 10
835.6529668090893
 20
-1983.102759768897
 30
0.0
 11
835.1848683539392
 21
-1982.989990256547
 31
0.0
  0
LINE
  5
19167
330
18
100
AcDbEntity
  8
1PHANTOM
100
AcDbLine
 10
835.2320522118807
 20
-1986.289990366334
 30
0.0
 11
834.7320522118807
 21
-1986.189989202936
 31
0.0
  0
LINE
  5
19168
330
18
100
AcDbEntity
  8
1PHANTOM
100
AcDbLine
 10
835.2320522118807
 20
-1984.689990366334
 30
0.0
 11
834.7320522118807
 21
-1984.589989202937
 31
0.0
  0
LINE
  5
19169
330
18
100
AcDbEntity
  8
1PHANTOM
100
AcDbLine
 10
836.0948537026188
 20
-1981.541427106592
 30
0.0
 11
835.6376818619874
 21
-1981.389991310151
 31
0.0
  0
LINE
  5
1916A
330
18
100
AcDbEntity
  8
1PHANTOM
100
AcDbLine
 10
835.1848683539392
 20
-1982.989990256547
 30
0.0
 11
838.05283105527
 21
-1982.189996929706
 31
0.0
  0
LINE
  5
1916B
330
18
100
AcDbEntity
  8
1PHANTOM
100
AcDbLine
 10
834.7320522118807
 20
-1986.189989202936
 30
0.0
 11
838.7320522118807
 21
-1985.389998510114
 31
0.0
  0
LINE
  5
1916C
330
18
100
AcDbEntity
  8
1PHANTOM
100
AcDbLine
 10
834.7320522118807
 20
-1984.589989202937
 30
0.0
 11
838.5056451596765
 21
-1983.789997983311
 31
0.0
  0
LINE
  5
1916D
330
18
100
AcDbEntity
  8
1PHANTOM
100
AcDbLine
 10
834.7320522118807
 20
-1987.789989202937
 30
0.0
 11
838.7320522118807
 21
-1986.989998510114
 31
0.0
  0
LINE
  5
1916E
330
18
100
AcDbEntity
  8
1PHANTOM
100
AcDbLine
 10
834.7320522118807
 20
-2000.589989202942
 30
0.0
 11
838.7320522118807
 21
-1999.789998510123
 31
0.0
  0
LINE
  5
1916F
330
18
100
AcDbEntity
  8
1PHANTOM
100
AcDbLine
 10
838.7320522118807
 20
-1999.789998510123
 30
0.0
 11
838.2320522118807
 21
-1999.689997346725
 31
0.0
  0
LINE
  5
19170
330
18
100
AcDbEntity
  8
1PHANTOM
100
AcDbLine
 10
835.2320522118807
 20
-1999.089990366335
 30
0.0
 11
834.7320522118807
 21
-1998.989989202937
 31
0.0
  0
LINE
  5
19171
330
18
100
AcDbEntity
  8
1PHANTOM
100
AcDbLine
 10
838.7320522118807
 20
-2001.389998510123
 30
0.0
 11
838.2320522118807
 21
-2001.289997346725
 31
0.0
  0
LINE
  5
19172
330
18
100
AcDbEntity
  8
1PHANTOM
100
AcDbLine
 10
838.7320522118807
 20
-2002.989998510124
 30
0.0
 11
838.2320522118807
 21
-2002.889997346726
 31
0.0
  0
LINE
  5
19173
330
18
100
AcDbEntity
  8
1PHANTOM
100
AcDbLine
 10
835.2320522118807
 20
-2000.689990366339
 30
0.0
 11
834.7320522118807
 21
-2000.589989202942
 31
0.0
  0
LINE
  5
19174
330
18
100
AcDbEntity
  8
1PHANTOM
100
AcDbLine
 10
835.2320522118807
 20
-2002.289990366339
 30
0.0
 11
834.7320522118807
 21
-2002.189989202941
 31
0.0
  0
LINE
  5
19175
330
18
100
AcDbEntity
  8
1PHANTOM
100
AcDbLine
 10
834.7320522118807
 20
-2002.189989202941
 30
0.0
 11
838.7320522118807
 21
-2001.389998510123
 31
0.0
  0
LINE
  5
19176
330
18
100
AcDbEntity
  8
1PHANTOM
100
AcDbLine
 10
838.7320522118807
 20
-1994.989998510119
 30
0.0
 11
838.2320522118807
 21
-1994.889997346721
 31
0.0
  0
LINE
  5
19177
330
18
100
AcDbEntity
  8
1PHANTOM
100
AcDbLine
 10
838.7320522118807
 20
-1993.389998510114
 30
0.0
 11
838.2320522118807
 21
-1993.289997346717
 31
0.0
  0
LINE
  5
19178
330
18
100
AcDbEntity
  8
1PHANTOM
100
AcDbLine
 10
838.7320522118807
 20
-1998.189998510119
 30
0.0
 11
838.2320522118807
 21
-1998.089997346721
 31
0.0
  0
LINE
  5
19179
330
18
100
AcDbEntity
  8
1PHANTOM
100
AcDbLine
 10
838.7320522118807
 20
-1996.589998510118
 30
0.0
 11
838.2320522118807
 21
-1996.489997346721
 31
0.0
  0
LINE
  5
1917A
330
18
100
AcDbEntity
  8
1PHANTOM
100
AcDbLine
 10
835.2320522118807
 20
-1992.689990366334
 30
0.0
 11
834.7320522118807
 21
-1992.589989202937
 31
0.0
  0
LINE
  5
1917B
330
18
100
AcDbEntity
  8
1PHANTOM
100
AcDbLine
 10
835.2320522118807
 20
-1994.289990366334
 30
0.0
 11
834.7320522118807
 21
-1994.189989202936
 31
0.0
  0
LINE
  5
1917C
330
18
100
AcDbEntity
  8
1PHANTOM
100
AcDbLine
 10
835.2320522118807
 20
-1997.489990366335
 30
0.0
 11
834.7320522118807
 21
-1997.389989202937
 31
0.0
  0
LINE
  5
1917D
330
18
100
AcDbEntity
  8
1PHANTOM
100
AcDbLine
 10
835.2320522118807
 20
-1995.889990366335
 30
0.0
 11
834.7320522118807
 21
-1995.789989202937
 31
0.0
  0
LINE
  5
1917E
330
18
100
AcDbEntity
  8
1PHANTOM
100
AcDbLine
 10
834.7320522118807
 20
-1995.789989202937
 30
0.0
 11
838.7320522118807
 21
-1994.989998510119
 31
0.0
  0
LINE
  5
1917F
330
18
100
AcDbEntity
  8
1PHANTOM
100
AcDbLine
 10
834.7320522118807
 20
-1994.189989202936
 30
0.0
 11
838.7320522118807
 21
-1993.389998510114
 31
0.0
  0
LINE
  5
19180
330
18
100
AcDbEntity
  8
1PHANTOM
100
AcDbLine
 10
834.7320522118807
 20
-1997.389989202937
 30
0.0
 11
838.7320522118807
 21
-1996.589998510118
 31
0.0
  0
LINE
  5
19181
330
18
100
AcDbEntity
  8
1PHANTOM
100
AcDbLine
 10
834.7320522118807
 20
-1998.989989202937
 30
0.0
 11
838.7320522118807
 21
-1998.189998510119
 31
0.0
  0
LINE
  5
19182
330
18
100
AcDbEntity
  8
1PHANTOM
100
AcDbLine
 10
838.2320522118807
 20
-2009.289997346612
 30
0.0
 11
835.2320522118807
 21
-2009.289990366227
 31
0.0
  0
LINE
  5
19183
330
18
100
AcDbEntity
  8
1PHANTOM
100
AcDbLine
 10
835.2320522118807
 20
-2007.089990366344
 30
0.0
 11
834.7320522118807
 21
-2006.989989202946
 31
0.0
  0
LINE
  5
19184
330
18
100
AcDbEntity
  8
1PHANTOM
100
AcDbLine
 10
835.2320522118807
 20
-2005.489990366343
 30
0.0
 11
834.7320522118807
 21
-2005.389989202946
 31
0.0
  0
LINE
  5
19185
330
18
100
AcDbEntity
  8
1PHANTOM
100
AcDbLine
 10
834.7320522118807
 20
-2005.389989202946
 30
0.0
 11
838.7320522118807
 21
-2004.589998510128
 31
0.0
  0
LINE
  5
19186
330
18
100
AcDbEntity
  8
1PHANTOM
100
AcDbLine
 10
838.7320522118807
 20
-2006.189998510127
 30
0.0
 11
838.2320522118807
 21
-2006.08999734673
 31
0.0
  0
LINE
  5
19187
330
18
100
AcDbEntity
  8
1PHANTOM
100
AcDbLine
 10
838.7320522118807
 20
-2004.589998510128
 30
0.0
 11
838.2320522118807
 21
-2004.48999734673
 31
0.0
  0
LINE
  5
19188
330
18
100
AcDbEntity
  8
1PHANTOM
100
AcDbLine
 10
834.7320522118807
 20
-2006.989989202946
 30
0.0
 11
838.7320522118807
 21
-2006.189998510127
 31
0.0
  0
LINE
  5
19189
330
18
100
AcDbEntity
  8
1PHANTOM
100
AcDbLine
 10
835.2320522118807
 20
-2003.889990366339
 30
0.0
 11
834.7320522118807
 21
-2003.789989202942
 31
0.0
  0
LINE
  5
1918A
330
18
100
AcDbEntity
  8
1PHANTOM
100
AcDbLine
 10
840.3320056759821
 20
-2009.289993856311
 30
0.0
 11
840.3320056759821
 21
-2008.289993856311
 31
0.0
  0
LINE
  5
1918B
330
18
100
AcDbEntity
  8
1PHANTOM
100
AcDbLine
 10
833.1320056759823
 20
-2008.289993856311
 30
0.0
 11
833.1320056759823
 21
-2009.289993856311
 31
0.0
  0
LINE
  5
1918C
330
18
100
AcDbEntity
  8
1PHANTOM
100
AcDbLine
 10
840.3320056759821
 20
-2009.289993856311
 30
0.0
 11
833.1320056759823
 21
-2009.289993856311
 31
0.0
  0
LINE
  5
1918D
330
18
100
AcDbEntity
  8
1PHANTOM
100
AcDbLine
 10
832.2320056759827
 20
-2007.489993856311
 30
0.0
 11
841.2320056759827
 21
-2007.489993856311
 31
0.0
  0
LINE
  5
1918E
330
18
100
AcDbEntity
  8
1PHANTOM
100
AcDbLine
 10
832.2320056759827
 20
-2008.289993856311
 30
0.0
 11
832.2320056759827
 21
-2007.489993856311
 31
0.0
  0
LINE
  5
1918F
330
18
100
AcDbEntity
  8
1PHANTOM
100
AcDbLine
 10
841.2320056759827
 20
-2007.489993856311
 30
0.0
 11
841.2320056759827
 21
-2008.289993856311
 31
0.0
  0
LINE
  5
19190
330
18
100
AcDbEntity
  8
1PHANTOM
100
AcDbLine
 10
832.2320056759827
 20
-2008.289993856311
 30
0.0
 11
841.2320056759827
 21
-2008.289993856311
 31
0.0
  0
LINE
  5
19191
330
18
100
AcDbEntity
  8
1PHANTOM
100
AcDbLine
 10
836.6324509530778
 20
-2008.289993856312
 30
0.0
 11
836.3645017606473
 21
-2009.289993856311
 31
0.0
  0
LINE
  5
19192
330
18
100
AcDbEntity
  8
1PHANTOM
100
AcDbLine
 10
837.0827616033143
 20
-2008.289993856311
 30
0.0
 11
836.814812410883
 21
-2009.289993856311
 31
0.0
  0
ELLIPSE
  5
19193
330
18
100
AcDbEntity
  8
01
100
AcDbEllipse
 10
757.7357027169155
 20
-2008.486448667054
 30
0.0
 11
-0.4828871786299191
 21
0.1299881024107571
 31
0.0
210
0.0
220
0.0
230
1.0
 40
0.8859323286290223
 41
3.179417899437319
 42
3.353145830477851
  0
LINE
  5
1924F
330
18
100
AcDbEntity
  8
01
100
AcDbLine
 10
987.6093116515125
 20
-2067.719362361537
 30
0.0
 11
987.6093116515125
 21
-2147.719362361537
 31
0.0
  0
LINE
  5
19251
330
18
100
AcDbEntity
  8
01
100
AcDbLine
 10
978.6093116515125
 20
-2067.719362361537
 30
0.0
 11
978.6093116515125
 21
-2147.719362361537
 31
0.0
  0
LINE
  5
192B6
330
18
100
AcDbEntity
  8
1CENTER
100
AcDbLine
 10
769.7320056759827
 20
-2110.719408897437
 30
0.0
 11
769.7320056759827
 21
-2104.719408897437
 31
0.0
  0
LINE
  5
192B7
330
18
100
AcDbEntity
  8
1CENTER
100
AcDbLine
 10
772.7320056759827
 20
-2107.719408897437
 30
0.0
 11
766.7320056759827
 21
-2107.719408897437
 31
0.0
  0
LINE
  5
192B8
330
18
100
AcDbEntity
  8
1CENTER
100
AcDbLine
 10
836.7320056759827
 20
-2110.719408897437
 30
0.0
 11
836.7320056759827
 21
-2104.719408897437
 31
0.0
  0
LINE
  5
192B9
330
18
100
AcDbEntity
  8
1CENTER
100
AcDbLine
 10
839.7320056759827
 20
-2107.719408897437
 30
0.0
 11
833.7320056759827
 21
-2107.719408897437
 31
0.0
  0
TEXT
  5
1932D
330
18
100
AcDbEntity
  8
1TEXT
100
AcDbText
 10
943.9102100873376
 20
-1985.072985455285
 30
0.0
 40
8.0
  1
SC-361-X
100
AcDbText
  0
LINE
  5
1932E
330
18
100
AcDbEntity
  8
1DIM
100
AcDbLine
 10
940.4553211406701
 20
-1997.072985455285
 30
0.0
 11
1010.455321140671
 21
-1997.072985455285
 31
0.0
  0
TEXT
  5
1932F
330
18
100
AcDbEntity
  8
1TEXT
100
AcDbText
 10
947.0553211406702
 20
-1995.572985455285
 30
0.0
 40
4.0
  1
表面処理：
 72
     1
 11
957.8553211406702
 21
-1995.572985455285
 31
0.0
100
AcDbText
  0
LINE
  5
19330
330
18
100
AcDbEntity
  8
1DIM
100
AcDbLine
 10
940.4553211406703
 20
-1990.072985455285
 30
0.0
 11
1010.455321140671
 21
-1990.072985455285
 31
0.0
  0
TEXT
  5
19331
330
18
100
AcDbEntity
  8
1TEXT
100
AcDbText
 10
985.9886544740037
 20
-1995.572985455285
 30
0.0
 40
4.0
  1
コード
 72
     1
 11
992.8553211406704
 21
-1995.572985455285
 31
0.0
100
AcDbText
  0
LINE
  5
19333
330
18
100
AcDbEntity
  8
1DIM
100
AcDbLine
 10
940.4553211406694
 20
-2004.072985455286
 30
0.0
 11
975.4553211406699
 21
-2004.072985455286
 31
0.0
  0
LINE
  5
19334
330
18
100
AcDbEntity
  8
1DIM
100
AcDbLine
 10
975.4553211406703
 20
-2004.072985455286
 30
0.0
 11
1010.455321140671
 21
-2004.072985455285
 31
0.0
  0
LINE
  5
19335
330
18
100
AcDbEntity
  8
1DIM
100
AcDbLine
 10
940.45532114067
 20
-2004.072985455286
 30
0.0
 11
1010.455321140671
 21
-2004.072985455286
 31
0.0
  0
TEXT
  5
19337
330
18
100
AcDbEntity
  8
1TEXT
100
AcDbText
 10
948.3886544740042
 20
-2002.787342438935
 30
0.0
 40
4.0
  1
クローム
 72
     1
 11
957.8553211406709
 21
-2002.787342438935
 31
0.0
100
AcDbText
  0
LINE
  5
19339
330
18
100
AcDbEntity
  8
1DIM
100
AcDbLine
 10
940.4553211406703
 20
-1990.072985455285
 30
0.0
 11
940.45532114067
 21
-2004.072985455286
 31
0.0
  0
LINE
  5
1933A
330
18
100
AcDbEntity
  8
1DIM
100
AcDbLine
 10
975.4553211406703
 20
-1990.072985455285
 30
0.0
 11
975.4553211406703
 21
-2004.072985455286
 31
0.0
  0
LINE
  5
1933B
330
18
100
AcDbEntity
  8
1DIM
100
AcDbLine
 10
1010.455321140671
 20
-1990.072985455285
 30
0.0
 11
1010.455321140671
 21
-2004.072985455285
 31
0.0
  0
TEXT
  5
1933E
330
18
100
AcDbEntity
  8
1TEXT
100
AcDbText
 10
977.8428211406713
 20
-2002.787342438935
 30
0.0
 40
4.0
  1
SC-361-XC
 41
0.9
 72
     1
 11
992.8553211406713
 21
-2002.787342438935
 31
0.0
100
AcDbText
  0
LINE
  5
1933F
330
18
100
AcDbEntity
  8
1DIM
100
AcDbLine
 10
940.4553211406698
 20
-2011.072985455285
 30
0.0
 11
1010.455321140671
 21
-2011.072985455285
 31
0.0
  0
TEXT
  5
19340
330
18
100
AcDbEntity
  8
1TEXT
100
AcDbText
 10
941.3219878073381
 20
-2009.787342438934
 30
0.0
 40
4.0
  1
サテンニッケル
 72
     1
 11
957.8553211406714
 21
-2009.787342438934
 31
0.0
100
AcDbText
  0
TEXT
  5
19341
330
18
100
AcDbEntity
  8
1TEXT
100
AcDbText
 10
977.8428211406718
 20
-2009.787342438934
 30
0.0
 40
4.0
  1
SC-361-XN
 41
0.9
 72
     1
 11
992.8553211406719
 21
-2009.787342438934
 31
0.0
100
AcDbText
  0
LINE
  5
195A1
330
18
100
AcDbEntity
  8
1DIM
100
AcDbLine
 10
940.4553211406701
 20
-1997.072985455285
 30
0.0
 11
940.4553211406699
 21
-2004.072985455286
 31
0.0
  0
LINE
  5
195A2
330
18
100
AcDbEntity
  8
1DIM
100
AcDbLine
 10
975.4553211406701
 20
-1997.072985455285
 30
0.0
 11
975.4553211406701
 21
-2004.072985455286
 31
0.0
  0
LINE
  5
195A3
330
18
100
AcDbEntity
  8
1DIM
100
AcDbLine
 10
1010.455321140671
 20
-1997.072985455285
 30
0.0
 11
1010.455321140671
 21
-2004.072985455285
 31
0.0
  0
LINE
  5
195A4
330
18
100
AcDbEntity
  8
1DIM
100
AcDbLine
 10
940.4553211406695
 20
-2018.072985455285
 30
0.0
 11
1010.455321140671
 21
-2018.072985455285
 31
0.0
  0
TEXT
  5
195A5
330
18
100
AcDbEntity
  8
1TEXT
100
AcDbText
 10
941.7219878073379
 20
-2016.787342438934
 30
0.0
 40
4.0
  1
パールブラック
 72
     1
 11
957.8553211406712
 21
-2016.787342438934
 31
0.0
100
AcDbText
  0
TEXT
  5
195A6
330
18
100
AcDbEntity
  8
1TEXT
100
AcDbText
 10
977.8253211406717
 20
-2016.787342438934
 30
0.0
 40
4.0
  1
SC-361-GQ
 41
0.9
 72
     1
 11
992.8553211406717
 21
-2016.787342438934
 31
0.0
100
AcDbText
  0
LINE
  5
19657
330
18
100
AcDbEntity
  8
1DIM
100
AcDbLine
 10
940.4553211406699
 20
-2004.072985455286
 30
0.0
 11
940.4553211406698
 21
-2011.072985455285
 31
0.0
  0
LINE
  5
19658
330
18
100
AcDbEntity
  8
1DIM
100
AcDbLine
 10
975.4553211406704
 20
-2004.072985455286
 30
0.0
 11
975.4553211406704
 21
-2011.072985455285
 31
0.0
  0
LINE
  5
19659
330
18
100
AcDbEntity
  8
1DIM
100
AcDbLine
 10
1010.455321140671
 20
-2004.072985455286
 30
0.0
 11
1010.455321140671
 21
-2011.072985455285
 31
0.0
  0
LINE
  5
1965A
330
18
100
AcDbEntity
  8
1DIM
100
AcDbLine
 10
940.4553211406699
 20
-2004.072985455286
 30
0.0
 11
940.4553211406695
 21
-2018.072985455285
 31
0.0
  0
LINE
  5
1965B
330
18
100
AcDbEntity
  8
1DIM
100
AcDbLine
 10
975.4553211406702
 20
-2004.072985455286
 30
0.0
 11
975.4553211406702
 21
-2018.072985455285
 31
0.0
  0
LINE
  5
1965C
330
18
100
AcDbEntity
  8
1DIM
100
AcDbLine
 10
1010.455321140671
 20
-2004.072985455286
 30
0.0
 11
1010.455321140671
 21
-2018.072985455285
 31
0.0
  0
ARC
  5
1A8E2
330
18
100
AcDbEntity
  8
1PHANTOM
 48
0.3
100
AcDbCircle
 10
769.7320056759826
 20
-2106.819408897437
 30
0.0
 40
2.099999999999994
100
AcDbArc
 50
0.0
 51
180.0
  0
LINE
  5
1A8E3
330
18
100
AcDbEntity
  8
1PHANTOM
 48
0.3
100
AcDbLine
 10
767.6320065462104
 20
-2108.619408624227
 30
0.0
 11
767.6320065462104
 21
-2106.819408887977
 31
0.0
  0
ARC
  5
1A8E4
330
18
100
AcDbEntity
  8
1PHANTOM
 48
0.3
100
AcDbCircle
 10
769.7320056759826
 20
-2108.619408897438
 30
0.0
 40
2.099999999999994
100
AcDbArc
 50
180.0
 51
0.0
  0
LINE
  5
1A8E5
330
18
100
AcDbEntity
  8
1PHANTOM
 48
0.3
100
AcDbLine
 10
771.832006862115
 20
-2106.819408887977
 30
0.0
 11
771.832006862115
 21
-2108.619408624227
 31
0.0
  0
LINE
  5
1A8E7
330
18
100
AcDbEntity
  8
1CENTER
100
AcDbLine
 10
769.7320056759826
 20
-2109.549408897307
 30
0.0
 11
769.7320056759826
 21
-2104.089408897567
 31
0.0
  0
ARC
  5
1A8E9
330
18
100
AcDbEntity
  8
1PHANTOM
 48
0.3
100
AcDbCircle
 10
836.7320056759828
 20
-2106.819408897437
 30
0.0
 40
2.099999999999994
100
AcDbArc
 50
0.0
 51
180.0
  0
LINE
  5
1A8EA
330
18
100
AcDbEntity
  8
1PHANTOM
 48
0.3
100
AcDbLine
 10
838.832004805755
 20
-2108.619408624227
 30
0.0
 11
838.832004805755
 21
-2106.819408887977
 31
0.0
  0
ARC
  5
1A8EB
330
18
100
AcDbEntity
  8
1PHANTOM
 48
0.3
100
AcDbCircle
 10
836.7320056759828
 20
-2108.619408897438
 30
0.0
 40
2.099999999999994
100
AcDbArc
 50
180.0
 51
0.0
  0
LINE
  5
1A8EC
330
18
100
AcDbEntity
  8
1PHANTOM
 48
0.3
100
AcDbLine
 10
834.6320044898504
 20
-2106.819408887977
 30
0.0
 11
834.6320044898504
 21
-2108.619408624227
 31
0.0
  0
LINE
  5
1A8ED
330
18
100
AcDbEntity
  8
1CENTER
100
AcDbLine
 10
836.7320056759826
 20
-2109.549408897307
 30
0.0
 11
836.7320056759826
 21
-2104.089408897567
 31
0.0
  0
LINE
  5
1AB75
330
18
100
AcDbEntity
  8
01
100
AcDbLine
 10
978.6093116515125
 20
-2101.712655490466
 30
0.0
 11
978.6093116515125
 21
-2098.212655490466
 31
0.0
  0
LINE
  5
1AB79
330
18
100
AcDbEntity
  8
01
100
AcDbLine
 10
969.1015786970969
 20
-2118.212656321658
 30
0.0
 11
968.4014562176038
 21
-2118.212656382865
 31
0.0
  0
ARC
  5
1AB7B
330
18
100
AcDbEntity
  8
01
100
AcDbCircle
 10
927.6024872130923
 20
-2118.213488601182
 30
0.0
 40
40.00682782822314
100
AcDbArc
 50
1.1245186915415
 51
10.95401264158484
  0
ARC
  5
1AB7C
330
18
100
AcDbEntity
  8
01
100
AcDbCircle
 10
968.4014680126623
 20
-2117.412656370943
 30
0.0
 40
0.8000000119209284
100
AcDbArc
 50
181.1235170794336
 51
270.0000050087028
  0
LINE
  5
1AB7E
330
18
100
AcDbEntity
  8
01
100
AcDbLine
 10
978.6093118045022
 20
-2101.712655490466
 30
0.0
 11
978.6093118045022
 21
-2117.412655478545
 31
0.0
  0
ARC
  5
1AB80
330
18
100
AcDbEntity
  8
01
100
AcDbCircle
 10
977.8093113094513
 20
-2117.412655065353
 30
0.0
 40
0.8000004950509143
100
AcDbArc
 50
270.0000371060928
 51
359.9999679026396
  0
LINE
  5
1AB81
330
18
100
AcDbEntity
  8
01
100
AcDbLine
 10
977.8093118275505
 20
-2118.212655560404
 30
0.0
 11
969.1015735236555
 21
-2118.212656321659
 31
0.0
  0
ELLIPSE
  5
1AB84
330
18
100
AcDbEntity
  8
01
100
AcDbEllipse
 10
951.1093093567009
 20
-2114.212655490435
 30
0.0
 11
-22.21528885045041
 21
-18.64084068090958
 31
0.0
210
0.0
220
0.0
230
1.0
 40
0.2931034482758693
 41
0.0
 42
6.283185307179586
  0
LINE
  5
1B0AC
330
18
100
AcDbEntity
  8
01
100
AcDbLine
 10
996.6093116515125
 20
-2067.719362361537
 30
0.0
 11
996.6093116515125
 21
-2147.719362361537
 31
0.0
  0
LINE
  5
1B267
330
18
100
AcDbEntity
  8
1PHANTOM
 48
0.3
100
AcDbLine
 10
845.8320038759223
 20
-2004.089996616566
 30
0.0
 11
760.2320038759224
 21
-2004.089996616566
 31
0.0
  0
ARC
  5
1B268
330
18
100
AcDbEntity
  8
1PHANTOM
 48
0.3
100
AcDbCircle
 10
844.8320038759223
 20
-2012.589998146464
 30
0.0
 40
1.0
100
AcDbArc
 50
270.0000000002345
 51
0.0
  0
ARC
  5
1B269
330
18
100
AcDbEntity
  8
1PHANTOM
 48
0.3
100
AcDbCircle
 10
-761.2320038759224
 20
-2012.589998146464
 30
0.0
 40
1.0
210
0.0
220
0.0
230
-1.0
100
AcDbArc
 50
270.0000000002345
 51
0.0
  0
LINE
  5
1B26A
330
18
100
AcDbEntity
  8
1PHANTOM
 48
0.3
100
AcDbLine
 10
761.2308587375466
 20
-2013.589997490792
 30
0.0
 11
844.8331490142427
 21
-2013.589997490792
 31
0.0
  0
LINE
  5
1B26B
330
18
100
AcDbEntity
  8
1PHANTOM
 48
0.3
100
AcDbLine
 10
760.2320038759224
 20
-2012.589998146464
 30
0.0
 11
760.2320038759224
 21
-2004.089996572855
 31
0.0
  0
LINE
  5
1B26C
330
18
100
AcDbEntity
  8
1PHANTOM
 48
0.3
100
AcDbLine
 10
845.8320038759223
 20
-2012.589998146464
 30
0.0
 11
845.8320038759223
 21
-2004.089996616566
 31
0.0
  0
LINE
  5
1B26D
330
18
100
AcDbEntity
  8
1PHANTOM
 48
0.3
100
AcDbLine
 10
759.8320153106868
 20
-2012.289998194546
 30
0.0
 11
759.8320153106868
 21
-2010.789998194546
 31
0.0
  0
LINE
  5
1B26E
330
18
100
AcDbEntity
  8
1PHANTOM
 48
0.3
100
AcDbLine
 10
846.2320076812923
 20
-2012.289998194546
 30
0.0
 11
846.2320076812923
 21
-2010.789998194546
 31
0.0
  0
LINE
  5
1B26F
330
18
100
AcDbEntity
  8
1PHANTOM
 48
0.3
100
AcDbLine
 10
760.232015322608
 20
-2010.78999821203
 30
0.0
 11
759.8320153106868
 21
-2010.789998194546
 31
0.0
  0
LINE
  5
1B270
330
18
100
AcDbEntity
  8
1PHANTOM
 48
0.3
100
AcDbLine
 10
760.232015322608
 20
-2012.28999821203
 30
0.0
 11
759.8320153106868
 21
-2012.289998194546
 31
0.0
  0
LINE
  5
1B271
330
18
100
AcDbEntity
  8
1PHANTOM
 48
0.3
100
AcDbLine
 10
845.8320076693719
 20
-2010.78999821203
 30
0.0
 11
846.2320076812923
 21
-2010.789998194546
 31
0.0
  0
LINE
  5
1B272
330
18
100
AcDbEntity
  8
1PHANTOM
 48
0.3
100
AcDbLine
 10
845.8320076693719
 20
-2012.28999821203
 30
0.0
 11
846.2320076812923
 21
-2012.289998194546
 31
0.0
  0
SOLID
  5
1B2F5
330
18
100
AcDbEntity
  8
1DIM
100
AcDbTrace
 10
840.2054125681299
 20
-2132.788462034891
 30
0.0
 11
839.5072906020546
 21
-2130.884850511603
 31
0.0
 12
840.7850637667057
 22
-2132.45914617977
 32
0.0
 13
840.7850637667057
 23
-2132.45914617977
 33
0.0
  0
LINE
  5
1B2F6
330
18
100
AcDbEntity
  8
1DIM
100
AcDbLine
 10
840.4952381674178
 20
-2132.62380410733
 30
0.0
 11
852.682068812529
 21
-2154.074672264533
 31
0.0
  0
LINE
  5
1B2F7
330
18
100
AcDbEntity
  8
1DIM
100
AcDbLine
 10
852.682068812529
 20
-2154.074672264533
 30
0.0
 11
899.9487354791956
 21
-2154.074672264533
 31
0.0
  0
TEXT
  5
1B2F8
330
18
100
AcDbEntity
  8
1DIM
  6
CONTINUOUS
100
AcDbText
 10
855.1487354791957
 20
-2147.5413389312
 30
0.0
 40
3.5
  1
材質：亜鉛ダイキャスト
100
AcDbText
1001
ACADANNOTATIVE
1000
AnnotativeData
1002
{
1070
     1
1070
     0
1002
}
  0
TEXT
  5
1B2F9
330
18
100
AcDbEntity
  8
1DIM
  6
CONTINUOUS
100
AcDbText
 10
855.2654021458624
 20
-2153.374672264533
 30
0.0
 40
3.5
  1
仕上げ：各種メッキ
100
AcDbText
1001
ACADANNOTATIVE
1000
AnnotativeData
1002
{
1070
     1
1070
     0
1002
}
  0
LINE
  5
1B2FA
330
18
100
AcDbEntity
  8
1DIM
100
AcDbLine
 10
769.7320056759827
 20
-2110.719408897437
 30
0.0
 11
769.7320056759827
 21
-2144.958005597866
 31
0.0
  0
LINE
  5
1B2FB
330
18
100
AcDbEntity
  8
1DIM
100
AcDbLine
 10
836.7320056759827
 20
-2110.719408897437
 30
0.0
 11
836.7320056759827
 21
-2144.958005597866
 31
0.0
  0
LINE
  5
1B2FC
330
18
100
AcDbEntity
  8
1DIM
100
AcDbLine
 10
771.7320056759827
 20
-2143.958005597866
 30
0.0
 11
834.7320056759827
 21
-2143.958005597866
 31
0.0
  0
LINE
  5
1B300
330
18
100
AcDbEntity
  8
1DIM
100
AcDbLine
 10
708.2320056887311
 20
-2095.467139062817
 30
0.0
 11
708.2320056887311
 21
-2073.467298756419
 31
0.0
  0
LINE
  5
1B301
330
18
100
AcDbEntity
  8
1DIM
100
AcDbLine
 10
898.2320056759827
 20
-2095.46729614188
 30
0.0
 11
898.2320056759827
 21
-2073.467298756419
 31
0.0
  0
LINE
  5
1B302
330
18
100
AcDbEntity
  8
1DIM
100
AcDbLine
 10
710.2320056887311
 20
-2074.467298756419
 30
0.0
 11
896.2320056759827
 21
-2074.467298756419
 31
0.0
  0
LINE
  5
1B306
330
18
100
AcDbEntity
  8
1DIM
100
AcDbLine
 10
891.2320056759827
 20
-2103.712652177128
 30
0.0
 11
891.2320056759827
 21
-2083.467298756419
 31
0.0
  0
LINE
  5
1B307
330
18
100
AcDbEntity
  8
1DIM
100
AcDbLine
 10
715.2320056759826
 20
-2100.410609809265
 30
0.0
 11
715.2320056759826
 21
-2083.467298756419
 31
0.0
  0
LINE
  5
1B308
330
18
100
AcDbEntity
  8
1DIM
100
AcDbLine
 10
889.2320056759827
 20
-2084.467298756419
 30
0.0
 11
717.2320056759826
 21
-2084.467298756419
 31
0.0
  0
LINE
  5
1B30C
330
18
100
AcDbEntity
  8
1DIM
100
AcDbLine
 10
861.2320056759827
 20
-2102.212652177143
 30
0.0
 11
861.2320056759827
 21
-2126.212652177143
 31
0.0
1001
ACAD
1000
DSTYLE
1002
{
1070
    75
1070
     1
1070
    76
1070
     1
1070
   281
1070
     0
1070
   282
1070
     0
1002
}
  0
SOLID
  5
1B310
330
18
100
AcDbEntity
  8
1DIM
100
AcDbTrace
 10
972.1505644436636
 20
-2118.297628188436
 30
0.0
 11
973.4633325507797
 21
-2116.752393252237
 31
0.0
 12
972.7226821584911
 22
-2118.639864605003
 32
0.0
 13
972.7226821584911
 23
-2118.639864605003
 33
0.0
1001
ACAD
1000
DSTYLE
1002
{
1070
   271
1070
     0
1002
}
  0
LINE
  5
1B311
330
18
100
AcDbEntity
  8
1DIM
100
AcDbLine
 10
972.4366233010774
 20
-2118.468746396719
 30
0.0
 11
951.8065890532744
 21
-2152.956040791182
 31
0.0
1001
ACAD
1000
DSTYLE
1002
{
1070
   271
1070
     0
1002
}
  0
LINE
  5
1B312
330
18
100
AcDbEntity
  8
1DIM
100
AcDbLine
 10
951.8065890532744
 20
-2152.956040791182
 30
0.0
 11
911.623255719941
 21
-2152.956040791182
 31
0.0
1001
ACAD
1000
DSTYLE
1002
{
1070
   271
1070
     0
1002
}
  0
TEXT
  5
1B313
330
18
100
AcDbEntity
  8
1DIM
  6
CONTINUOUS
100
AcDbText
 10
918.3065890532743
 20
-2143.708883427726
 30
0.0
 40
3.5
  1
材質：POM樹脂
100
AcDbText
1001
ACADANNOTATIVE
1000
AnnotativeData
1002
{
1070
     1
1070
     0
1002
}
  0
TEXT
  5
1B314
330
18
100
AcDbEntity
  8
1DIM
  6
CONTINUOUS
100
AcDbText
 10
912.298255719941
 20
-2149.542216761059
 30
0.0
 40
3.5
  1
仕上げ：黒(艶消し)
100
AcDbText
1001
ACADANNOTATIVE
1000
AnnotativeData
1002
{
1070
     1
1070
     0
1002
}
  0
LINE
  5
1B315
330
18
100
AcDbEntity
  8
1DIM
100
AcDbLine
 10
861.2320056759827
 20
-2038.934280488858
 30
0.0
 11
861.2320056759827
 21
-2024.245711345509
 31
0.0
1001
ACAD
1000
DSTYLE
1002
{
1070
    75
1070
     1
1070
    76
1070
     1
1070
   271
1070
     0
1070
   281
1070
     0
1070
   282
1070
     0
1002
}
  0
LINE
  5
1B319
330
18
100
AcDbEntity
  8
1DIM
100
AcDbLine
 10
928.2320056759827
 20
-2130.75839428232
 30
0.0
 11
928.2320056759827
 21
-2083.467298756419
 31
0.0
1001
ACAD
1000
DSTYLE
1002
{
1070
   271
1070
     1
1002
}
  0
LINE
  5
1B31A
330
18
100
AcDbEntity
  8
1DIM
100
AcDbLine
 10
978.6093116515125
 20
-2098.212655490466
 30
0.0
 11
978.6093116515125
 21
-2083.467298756419
 31
0.0
1001
ACAD
1000
DSTYLE
1002
{
1070
   271
1070
     1
1002
}
  0
LINE
  5
1B31B
330
18
100
AcDbEntity
  8
1DIM
100
AcDbLine
 10
930.2320056759827
 20
-2084.467298756419
 30
0.0
 11
976.6093116515125
 21
-2084.467298756419
 31
0.0
1001
ACAD
1000
DSTYLE
1002
{
1070
   271
1070
     1
1002
}
  0
LINE
  5
1B31F
330
18
100
AcDbEntity
  8
1DIM
100
AcDbLine
 10
897.2320054065729
 20
-2094.467298756419
 30
0.0
 11
909.2320056759827
 21
-2094.467298756419
 31
0.0
1001
ACAD
1000
DSTYLE
1002
{
1070
   271
1070
     1
1002
}
  0
LINE
  5
1B320
330
18
100
AcDbEntity
  8
1DIM
100
AcDbLine
 10
897.2320056759827
 20
-2133.958005597866
 30
0.0
 11
909.2320056759827
 21
-2133.958005597866
 31
0.0
1001
ACAD
1000
DSTYLE
1002
{
1070
   271
1070
     1
1002
}
  0
LINE
  5
1B321
330
18
100
AcDbEntity
  8
1DIM
100
AcDbLine
 10
908.2320056759827
 20
-2096.467298756419
 30
0.0
 11
908.2320056759827
 21
-2131.958005597866
 31
0.0
1001
ACAD
1000
DSTYLE
1002
{
1070
   271
1070
     1
1002
}
  0
LINE
  5
1B325
330
18
100
AcDbEntity
  8
1DIM
100
AcDbLine
 10
1004.170583615775
 20
-2107.719408897437
 30
0.0
 11
1011.609311651513
 21
-2107.719408897437
 31
0.0
1001
ACAD
1000
DSTYLE
1002
{
1070
   271
1070
     1
1002
}
  0
LINE
  5
1B326
330
18
100
AcDbEntity
  8
1DIM
100
AcDbLine
 10
970.4281933856316
 20
-2094.467298756419
 30
0.0
 11
1011.609311651513
 21
-2094.467298756419
 31
0.0
1001
ACAD
1000
DSTYLE
1002
{
1070
   271
1070
     1
1002
}
  0
LINE
  5
1B327
330
18
100
AcDbEntity
  8
1DIM
100
AcDbLine
 10
1010.609311651513
 20
-2105.719408897437
 30
0.0
 11
1010.609311651513
 21
-2096.467298756419
 31
0.0
1001
ACAD
1000
DSTYLE
1002
{
1070
   271
1070
     1
1002
}
  0
LINE
  5
1B32B
330
18
100
AcDbEntity
  8
1DIM
100
AcDbLine
 10
970.4281933856316
 20
-2094.467298756419
 30
0.0
 11
1022.609311651513
 21
-2094.467298756419
 31
0.0
1001
ACAD
1000
DSTYLE
1002
{
1070
   271
1070
     0
1002
}
  0
LINE
  5
1B32C
330
18
100
AcDbEntity
  8
1DIM
100
AcDbLine
 10
977.8093111564617
 20
-2118.212655560404
 30
0.0
 11
1022.609311651513
 21
-2118.212655560404
 31
0.0
1001
ACAD
1000
DSTYLE
1002
{
1070
   271
1070
     0
1002
}
  0
LINE
  5
1B32D
330
18
100
AcDbEntity
  8
1DIM
100
AcDbLine
 10
1021.609311651513
 20
-2096.467298756419
 30
0.0
 11
1021.609311651513
 21
-2116.212655560404
 31
0.0
1001
ACAD
1000
DSTYLE
1002
{
1070
   271
1070
     0
1002
}
  0
SOLID
  5
1B331
330
18
100
AcDbEntity
  8
1HATCH
100
AcDbTrace
 10
983.1689430055463
 20
-2066.580280558563
 30
0.0
 11
983.1892802735905
 21
-2068.607766071862
 31
0.0
 12
982.5124794481543
 22
-2066.69647024081
 32
0.0
 13
982.5124794481543
 23
-2066.69647024081
 33
0.0
  0
LINE
  5
1B332
330
18
100
AcDbEntity
  8
1HATCH
100
AcDbLine
 10
982.8407112268503
 20
-2066.638375399686
 30
0.0
 11
979.5644128939034
 21
-2048.127519554873
 31
0.0
  0
LINE
  5
1B333
330
18
100
AcDbEntity
  8
1HATCH
100
AcDbLine
 10
979.5644128939034
 20
-2048.127519554873
 30
0.0
 11
988.0977462272367
 21
-2048.127519554873
 31
0.0
  0
TEXT
  5
1B334
330
18
100
AcDbEntity
  8
1HATCH
  6
CONTINUOUS
100
AcDbText
 10
982.2644128939035
 20
-2047.427519554873
 30
0.0
 40
3.5
  1
PB
100
AcDbText
  0
SOLID
  5
1B335
330
18
100
AcDbEntity
  8
1DIM
100
AcDbTrace
 10
992.8057372390944
 20
-2066.610877524488
 30
0.0
 11
993.2735522580213
 21
-2068.583758721919
 31
0.0
 12
992.1911711760857
 22
-2066.869243541299
 32
0.0
 13
992.1911711760857
 23
-2066.869243541299
 33
0.0
  0
LINE
  5
1B336
330
18
100
AcDbEntity
  8
1DIM
100
AcDbLine
 10
992.49845420759
 20
-2066.740060532893
 30
0.0
 11
987.2173615656352
 21
-2054.178113132002
 31
0.0
  0
LINE
  5
1B337
330
18
100
AcDbEntity
  8
1DIM
100
AcDbLine
 10
987.2173615656352
 20
-2054.178113132002
 30
0.0
 11
1019.350694898969
 21
-2054.178113132002
 31
0.0
  0
TEXT
  5
1B338
330
18
100
AcDbEntity
  8
1TEXT
  6
CONTINUOUS
100
AcDbText
 10
989.9173615656352
 20
-2053.478113132002
 30
0.0
 40
3.5
  1
合板9mm以上
100
AcDbText
1001
ACADANNOTATIVE
1000
AnnotativeData
1002
{
1070
     1
1070
     0
1002
}
  0
LINE
  5
1B339
330
18
100
AcDbEntity
  8
1DIM
100
AcDbLine
 10
758.2320056759827
 20
-2004.089996550999
 30
0.0
 11
758.2320056759827
 21
-1993.089996616566
 31
0.0
  0
LINE
  5
1B33A
330
18
100
AcDbEntity
  8
1DIM
100
AcDbLine
 10
848.2320056759827
 20
-2004.089996550999
 30
0.0
 11
848.2320056759827
 21
-1993.089996616566
 31
0.0
  0
LINE
  5
1B33B
330
18
100
AcDbEntity
  8
1DIM
100
AcDbLine
 10
760.2320056759827
 20
-1994.089996616566
 30
0.0
 11
846.2320056759827
 21
-1994.089996616566
 31
0.0
  0
LINE
  5
1B33F
330
18
100
AcDbEntity
  8
0
  6
BYBLOCK
100
AcDbLine
 10
771.7320056759827
 20
-2144.493903977866
 30
0.0
 11
769.7320056759827
 21
-2143.958005597866
 31
0.0
  0
LINE
  5
1B340
330
18
100
AcDbEntity
  8
0
  6
BYBLOCK
100
AcDbLine
 10
769.7320056759827
 20
-2143.958005597866
 30
0.0
 11
771.7320056759827
 21
-2143.422107217866
 31
0.0
  0
LINE
  5
1B341
330
18
100
AcDbEntity
  8
0
  6
BYBLOCK
100
AcDbLine
 10
769.7320056759827
 20
-2143.958005597866
 30
0.0
 11
771.7320056759827
 21
-2143.958005597866
 31
0.0
  0
LINE
  5
1B342
330
18
100
AcDbEntity
  8
0
  6
BYBLOCK
100
AcDbLine
 10
834.7320056759827
 20
-2143.422107217866
 30
0.0
 11
836.7320056759827
 21
-2143.958005597866
 31
0.0
  0
LINE
  5
1B343
330
18
100
AcDbEntity
  8
0
  6
BYBLOCK
100
AcDbLine
 10
836.7320056759827
 20
-2143.958005597866
 30
0.0
 11
834.7320056759827
 21
-2144.493903977866
 31
0.0
  0
LINE
  5
1B344
330
18
100
AcDbEntity
  8
0
  6
BYBLOCK
100
AcDbLine
 10
836.7320056759827
 20
-2143.958005597866
 30
0.0
 11
834.7320056759827
 21
-2143.958005597866
 31
0.0
  0
TEXT
  5
1B345
330
18
100
AcDbEntity
  8
1DIM
  6
CONTINUOUS
100
AcDbText
 10
798.5531862315382
 20
-2143.258005597866
 30
0.0
 40
3.5
  1
P67
100
AcDbText
  0
LINE
  5
1B346
330
18
100
AcDbEntity
  8
0
  6
BYBLOCK
100
AcDbLine
 10
710.2320056887311
 20
-2075.00319713642
 30
0.0
 11
708.2320056887311
 21
-2074.467298756419
 31
0.0
  0
LINE
  5
1B347
330
18
100
AcDbEntity
  8
0
  6
BYBLOCK
100
AcDbLine
 10
708.2320056887311
 20
-2074.467298756419
 30
0.0
 11
710.2320056887311
 21
-2073.931400376419
 31
0.0
  0
LINE
  5
1B348
330
18
100
AcDbEntity
  8
0
  6
BYBLOCK
100
AcDbLine
 10
708.2320056887311
 20
-2074.467298756419
 30
0.0
 11
710.2320056887311
 21
-2074.467298756419
 31
0.0
  0
LINE
  5
1B349
330
18
100
AcDbEntity
  8
0
  6
BYBLOCK
100
AcDbLine
 10
896.2320056759827
 20
-2073.931400376419
 30
0.0
 11
898.2320056759827
 21
-2074.467298756419
 31
0.0
  0
LINE
  5
1B34A
330
18
100
AcDbEntity
  8
0
  6
BYBLOCK
100
AcDbLine
 10
898.2320056759827
 20
-2074.467298756419
 30
0.0
 11
896.2320056759827
 21
-2075.00319713642
 31
0.0
  0
LINE
  5
1B34B
330
18
100
AcDbEntity
  8
0
  6
BYBLOCK
100
AcDbLine
 10
898.2320056759827
 20
-2074.467298756419
 30
0.0
 11
896.2320056759827
 21
-2074.467298756419
 31
0.0
  0
TEXT
  5
1B34C
330
18
100
AcDbEntity
  8
1DIM
  6
CONTINUOUS
100
AcDbText
 10
799.3666121638383
 20
-2073.76729875642
 30
0.0
 40
3.5
  1
190
100
AcDbText
  0
LINE
  5
1B34D
330
18
100
AcDbEntity
  8
0
  6
BYBLOCK
100
AcDbLine
 10
889.2320056759827
 20
-2083.931400376419
 30
0.0
 11
891.2320056759827
 21
-2084.467298756419
 31
0.0
  0
LINE
  5
1B34E
330
18
100
AcDbEntity
  8
0
  6
BYBLOCK
100
AcDbLine
 10
891.2320056759827
 20
-2084.467298756419
 30
0.0
 11
889.2320056759827
 21
-2085.00319713642
 31
0.0
  0
LINE
  5
1B34F
330
18
100
AcDbEntity
  8
0
  6
BYBLOCK
100
AcDbLine
 10
891.2320056759827
 20
-2084.467298756419
 30
0.0
 11
889.2320056759827
 21
-2084.467298756419
 31
0.0
  0
LINE
  5
1B350
330
18
100
AcDbEntity
  8
0
  6
BYBLOCK
100
AcDbLine
 10
717.2320056759826
 20
-2085.00319713642
 30
0.0
 11
715.2320056759826
 21
-2084.467298756419
 31
0.0
  0
LINE
  5
1B351
330
18
100
AcDbEntity
  8
0
  6
BYBLOCK
100
AcDbLine
 10
715.2320056759826
 20
-2084.467298756419
 30
0.0
 11
717.2320056759826
 21
-2083.931400376419
 31
0.0
  0
LINE
  5
1B352
330
18
100
AcDbEntity
  8
0
  6
BYBLOCK
100
AcDbLine
 10
715.2320056759826
 20
-2084.467298756419
 30
0.0
 11
717.2320056759826
 21
-2084.467298756419
 31
0.0
  0
TEXT
  5
1B353
330
18
100
AcDbEntity
  8
1DIM
  6
CONTINUOUS
100
AcDbText
 10
799.1486723426493
 20
-2083.76729875642
 30
0.0
 40
3.5
  1
176
100
AcDbText
  0
LINE
  5
1B354
330
18
100
AcDbEntity
  8
0
  6
BYBLOCK
100
AcDbLine
 10
860.6961072959826
 20
-2102.212652177143
 30
0.0
 11
861.2320056759827
 21
-2100.212652177143
 31
0.0
  0
LINE
  5
1B355
330
18
100
AcDbEntity
  8
0
  6
BYBLOCK
100
AcDbLine
 10
861.2320056759827
 20
-2100.212652177143
 30
0.0
 11
861.7679040559827
 21
-2102.212652177143
 31
0.0
  0
LINE
  5
1B356
330
18
100
AcDbEntity
  8
0
  6
BYBLOCK
100
AcDbLine
 10
861.2320056759827
 20
-2100.212652177143
 30
0.0
 11
861.2320056759827
 21
-2102.212652177143
 31
0.0
  0
LINE
  5
1B357
330
18
100
AcDbEntity
  8
0
  6
BYBLOCK
100
AcDbLine
 10
861.7679040559827
 20
-2126.212652177143
 30
0.0
 11
861.2320056759827
 21
-2128.212652177143
 31
0.0
  0
LINE
  5
1B358
330
18
100
AcDbEntity
  8
0
  6
BYBLOCK
100
AcDbLine
 10
861.2320056759827
 20
-2128.212652177143
 30
0.0
 11
860.6961072959826
 21
-2126.212652177143
 31
0.0
  0
LINE
  5
1B359
330
18
100
AcDbEntity
  8
0
  6
BYBLOCK
100
AcDbLine
 10
861.2320056759827
 20
-2128.212652177143
 30
0.0
 11
861.2320056759827
 21
-2126.212652177143
 31
0.0
  0
TEXT
  5
1B35A
330
18
100
AcDbEntity
  8
1DIM
  6
CONTINUOUS
100
AcDbText
 10
860.5320056759829
 20
-2117.129318843809
 30
0.0
 40
3.5
  1
28
 50
90.0
100
AcDbText
1001
ACAD
1000
DSTYLE
1002
{
1070
    75
1070
     1
1070
    76
1070
     1
1070
   281
1070
     0
1070
   282
1070
     0
1002
}
  0
LINE
  5
1B35B
330
18
100
AcDbEntity
  8
0
  6
BYBLOCK
100
AcDbLine
 10
861.7679040559827
 20
-2038.934280488858
 30
0.0
 11
861.2320056759827
 21
-2040.934280488858
 31
0.0
  0
LINE
  5
1B35C
330
18
100
AcDbEntity
  8
0
  6
BYBLOCK
100
AcDbLine
 10
861.2320056759827
 20
-2040.934280488858
 30
0.0
 11
860.6961072959826
 21
-2038.934280488858
 31
0.0
  0
LINE
  5
1B35D
330
18
100
AcDbEntity
  8
0
  6
BYBLOCK
100
AcDbLine
 10
861.2320056759827
 20
-2040.934280488858
 30
0.0
 11
861.2320056759827
 21
-2038.934280488858
 31
0.0
  0
LINE
  5
1B35E
330
18
100
AcDbEntity
  8
0
  6
BYBLOCK
100
AcDbLine
 10
860.6961072959826
 20
-2024.245711345509
 30
0.0
 11
861.2320056759827
 21
-2022.245711345509
 31
0.0
  0
LINE
  5
1B35F
330
18
100
AcDbEntity
  8
0
  6
BYBLOCK
100
AcDbLine
 10
861.2320056759827
 20
-2022.245711345509
 30
0.0
 11
861.7679040559827
 21
-2024.245711345509
 31
0.0
  0
LINE
  5
1B360
330
18
100
AcDbEntity
  8
0
  6
BYBLOCK
100
AcDbLine
 10
861.2320056759827
 20
-2022.245711345509
 30
0.0
 11
861.2320056759827
 21
-2024.245711345509
 31
0.0
  0
TEXT
  5
1B361
330
18
100
AcDbEntity
  8
1DIM
  6
CONTINUOUS
100
AcDbText
 10
860.5320056759829
 20
-2033.924139435702
 30
0.0
 40
3.5
  1
19
 50
90.0
100
AcDbText
1001
ACAD
1000
DSTYLE
1002
{
1070
    75
1070
     1
1070
    76
1070
     1
1070
   271
1070
     0
1070
   281
1070
     0
1070
   282
1070
     0
1002
}
  0
LINE
  5
1B362
330
18
100
AcDbEntity
  8
0
  6
BYBLOCK
100
AcDbLine
 10
930.2320056759827
 20
-2085.00319713642
 30
0.0
 11
928.2320056759827
 21
-2084.467298756419
 31
0.0
  0
LINE
  5
1B363
330
18
100
AcDbEntity
  8
0
  6
BYBLOCK
100
AcDbLine
 10
928.2320056759827
 20
-2084.467298756419
 30
0.0
 11
930.2320056759827
 21
-2083.931400376419
 31
0.0
  0
LINE
  5
1B364
330
18
100
AcDbEntity
  8
0
  6
BYBLOCK
100
AcDbLine
 10
928.2320056759827
 20
-2084.467298756419
 30
0.0
 11
930.2320056759827
 21
-2084.467298756419
 31
0.0
  0
LINE
  5
1B365
330
18
100
AcDbEntity
  8
0
  6
BYBLOCK
100
AcDbLine
 10
976.6093116515125
 20
-2083.931400376419
 30
0.0
 11
978.6093116515125
 21
-2084.467298756419
 31
0.0
  0
LINE
  5
1B366
330
18
100
AcDbEntity
  8
0
  6
BYBLOCK
100
AcDbLine
 10
978.6093116515125
 20
-2084.467298756419
 30
0.0
 11
976.6093116515125
 21
-2085.00319713642
 31
0.0
  0
LINE
  5
1B367
330
18
100
AcDbEntity
  8
0
  6
BYBLOCK
100
AcDbLine
 10
978.6093116515125
 20
-2084.467298756419
 30
0.0
 11
976.6093116515125
 21
-2084.467298756419
 31
0.0
  0
TEXT
  5
1B368
330
18
100
AcDbEntity
  8
1DIM
  6
CONTINUOUS
100
AcDbText
 10
948.4501725526366
 20
-2083.76729875642
 30
0.0
 40
3.5
  1
50.5
100
AcDbText
1001
ACAD
1000
DSTYLE
1002
{
1070
   271
1070
     1
1002
}
  0
LINE
  5
1B369
330
18
100
AcDbEntity
  8
0
  6
BYBLOCK
100
AcDbLine
 10
907.6961072959826
 20
-2096.467298756419
 30
0.0
 11
908.2320056759827
 21
-2094.467298756419
 31
0.0
  0
LINE
  5
1B36A
330
18
100
AcDbEntity
  8
0
  6
BYBLOCK
100
AcDbLine
 10
908.2320056759827
 20
-2094.467298756419
 30
0.0
 11
908.7679040559827
 21
-2096.467298756419
 31
0.0
  0
LINE
  5
1B36B
330
18
100
AcDbEntity
  8
0
  6
BYBLOCK
100
AcDbLine
 10
908.2320056759827
 20
-2094.467298756419
 30
0.0
 11
908.2320056759827
 21
-2096.467298756419
 31
0.0
  0
LINE
  5
1B36C
330
18
100
AcDbEntity
  8
0
  6
BYBLOCK
100
AcDbLine
 10
908.7679040559827
 20
-2131.958005597866
 30
0.0
 11
908.2320056759827
 21
-2133.958005597866
 31
0.0
  0
LINE
  5
1B36D
330
18
100
AcDbEntity
  8
0
  6
BYBLOCK
100
AcDbLine
 10
908.2320056759827
 20
-2133.958005597866
 30
0.0
 11
907.6961072959826
 21
-2131.958005597866
 31
0.0
  0
LINE
  5
1B36E
330
18
100
AcDbEntity
  8
0
  6
BYBLOCK
100
AcDbLine
 10
908.2320056759827
 20
-2133.958005597866
 30
0.0
 11
908.2320056759827
 21
-2131.958005597866
 31
0.0
  0
TEXT
  5
1B36F
330
18
100
AcDbEntity
  8
1DIM
  6
CONTINUOUS
100
AcDbText
 10
907.5320056759824
 20
-2119.463462362328
 30
0.0
 40
3.5
  1
39.5
 50
90.0
100
AcDbText
1001
ACAD
1000
DSTYLE
1002
{
1070
   271
1070
     1
1002
}
  0
LINE
  5
1B370
330
18
100
AcDbEntity
  8
0
  6
BYBLOCK
100
AcDbLine
 10
1011.145210031513
 20
-2105.719408897437
 30
0.0
 11
1010.609311651513
 21
-2107.719408897437
 31
0.0
  0
LINE
  5
1B371
330
18
100
AcDbEntity
  8
0
  6
BYBLOCK
100
AcDbLine
 10
1010.609311651513
 20
-2107.719408897437
 30
0.0
 11
1010.073413271513
 21
-2105.719408897437
 31
0.0
  0
LINE
  5
1B372
330
18
100
AcDbEntity
  8
0
  6
BYBLOCK
100
AcDbLine
 10
1010.609311651513
 20
-2107.719408897437
 30
0.0
 11
1010.609311651513
 21
-2105.719408897437
 31
0.0
  0
LINE
  5
1B373
330
18
100
AcDbEntity
  8
0
  6
BYBLOCK
100
AcDbLine
 10
1010.073413271513
 20
-2096.467298756419
 30
0.0
 11
1010.609311651513
 21
-2094.467298756419
 31
0.0
  0
LINE
  5
1B374
330
18
100
AcDbEntity
  8
0
  6
BYBLOCK
100
AcDbLine
 10
1010.609311651513
 20
-2094.467298756419
 30
0.0
 11
1011.145210031513
 21
-2096.467298756419
 31
0.0
  0
LINE
  5
1B375
330
18
100
AcDbEntity
  8
0
  6
BYBLOCK
100
AcDbLine
 10
1010.609311651513
 20
-2094.467298756419
 30
0.0
 11
1010.609311651513
 21
-2096.467298756419
 31
0.0
  0
TEXT
  5
1B376
330
18
100
AcDbEntity
  8
1DIM
  6
CONTINUOUS
100
AcDbText
 10
1009.909311651512
 20
-2105.760020493595
 30
0.0
 40
3.5
  1
13.5
 50
90.0
100
AcDbText
1001
ACAD
1000
DSTYLE
1002
{
1070
   271
1070
     1
1002
}
  0
LINE
  5
1B377
330
18
100
AcDbEntity
  8
0
  6
BYBLOCK
100
AcDbLine
 10
1021.073413271513
 20
-2096.467298756419
 30
0.0
 11
1021.609311651513
 21
-2094.467298756419
 31
0.0
  0
LINE
  5
1B378
330
18
100
AcDbEntity
  8
0
  6
BYBLOCK
100
AcDbLine
 10
1021.609311651513
 20
-2094.467298756419
 30
0.0
 11
1022.145210031513
 21
-2096.467298756419
 31
0.0
  0
LINE
  5
1B379
330
18
100
AcDbEntity
  8
0
  6
BYBLOCK
100
AcDbLine
 10
1021.609311651513
 20
-2094.467298756419
 30
0.0
 11
1021.609311651513
 21
-2096.467298756419
 31
0.0
  0
LINE
  5
1B37A
330
18
100
AcDbEntity
  8
0
  6
BYBLOCK
100
AcDbLine
 10
1022.145210031513
 20
-2116.212655560404
 30
0.0
 11
1021.609311651513
 21
-2118.212655560404
 31
0.0
  0
LINE
  5
1B37B
330
18
100
AcDbEntity
  8
0
  6
BYBLOCK
100
AcDbLine
 10
1021.609311651513
 20
-2118.212655560404
 30
0.0
 11
1021.073413271513
 21
-2116.212655560404
 31
0.0
  0
LINE
  5
1B37C
330
18
100
AcDbEntity
  8
0
  6
BYBLOCK
100
AcDbLine
 10
1021.609311651513
 20
-2118.212655560404
 30
0.0
 11
1021.609311651513
 21
-2116.212655560404
 31
0.0
  0
TEXT
  5
1B37D
330
18
100
AcDbEntity
  8
1DIM
  6
CONTINUOUS
100
AcDbText
 10
1020.909311651513
 20
-2109.256643825078
 30
0.0
 40
3.5
  1
24
 50
90.0
100
AcDbText
1001
ACAD
1000
DSTYLE
1002
{
1070
   271
1070
     0
1002
}
  0
LINE
  5
1B37E
330
18
100
AcDbEntity
  8
0
  6
BYBLOCK
100
AcDbLine
 10
760.2320056759827
 20
-1994.625894996566
 30
0.0
 11
758.2320056759827
 21
-1994.089996616566
 31
0.0
  0
LINE
  5
1B37F
330
18
100
AcDbEntity
  8
0
  6
BYBLOCK
100
AcDbLine
 10
758.2320056759827
 20
-1994.089996616566
 30
0.0
 11
760.2320056759827
 21
-1993.554098236566
 31
0.0
  0
LINE
  5
1B380
330
18
100
AcDbEntity
  8
0
  6
BYBLOCK
100
AcDbLine
 10
758.2320056759827
 20
-1994.089996616566
 30
0.0
 11
760.2320056759827
 21
-1994.089996616566
 31
0.0
  0
LINE
  5
1B381
330
18
100
AcDbEntity
  8
0
  6
BYBLOCK
100
AcDbLine
 10
846.2320056759827
 20
-1993.554098236566
 30
0.0
 11
848.2320056759827
 21
-1994.089996616566
 31
0.0
  0
LINE
  5
1B382
330
18
100
AcDbEntity
  8
0
  6
BYBLOCK
100
AcDbLine
 10
848.2320056759827
 20
-1994.089996616566
 30
0.0
 11
846.2320056759827
 21
-1994.625894996566
 31
0.0
  0
LINE
  5
1B383
330
18
100
AcDbEntity
  8
0
  6
BYBLOCK
100
AcDbLine
 10
848.2320056759827
 20
-1994.089996616566
 30
0.0
 11
846.2320056759827
 21
-1994.089996616566
 31
0.0
  0
TEXT
  5
1B384
330
18
100
AcDbEntity
  8
1DIM
  6
CONTINUOUS
100
AcDbText
 10
800.5324686389457
 20
-1993.389996616566
 30
0.0
 40
3.5
  1
90
100
AcDbText
  0
VIEWPORT
  5
57
330
15
100
AcDbEntity
 67
     1
  8
0
100
AcDbViewport
 68
     1
 10
0.0
 20
0.0
 30
0.0
 40
464.1063829787233
 41
296.9999999999999
 68
     1
 69
     1
1001
ACAD
1000
MVIEW
1002
{
1070
    16
1010
0.0
1020
0.0
1030
0.0
1010
0.0
1020
0.0
1030
1.0
1040
0.0
1040
296.9999999999999
1040
-3.060947896008912
1040
25.339
1040
50.0
1040
0.0
1040
0.0
1070
    16
1070
   100
1070
     0
1070
     1
1070
     0
1070
     0
1070
     0
1070
     0
1040
0.0
1040
0.0
1040
0.0
1040
10.0
1040
10.0
1040
10.0
1040
10.0
1070
     0
1002
{
1002
}
1002
}
  0
ENDSEC
  0
SECTION
  2
OBJECTS
  0
DICTIONARY
  5
C
330
0
100
AcDbDictionary
  3
ACAD_COLOR
350
2D0
  3
ACAD_GROUP
350
D
  3
ACAD_LAYOUT
350
2D1
  3
ACAD_MATERIAL
350
2CF
  3
ACAD_MLEADERSTYLE
350
1844F
  3
ACAD_MLINESTYLE
350
1B
  3
ACAD_PLOTSETTINGS
350
2D2
  3
ACAD_SCALELIST
350
1842D
  3
ACAD_VISUALSTYLE
350
1841C
  3
ACDBHEADERROUNDTRIPXREC
350
1B385
  3
ACDBVARIABLEDICTIONARY
350
37
  3
CONTENTDICTIONARY
350
D8
  3
DRAWINGVARIABLESDICT
350
20
  3
DWGPROPS
350
1B388
1001
ACAD
1000
TREAT_AS_HARD
1070
     0
  0
DICTIONARY
  5
17A19
330
2
100
AcDbDictionary
  3
ACAD_LAYERSTATES
360
17A1A
1001
ACAD
1000
TREAT_AS_HARD
1070
     1
  0
DICTIONARY
  5
18467
330
E
100
AcDbDictionary
  3
ADSK_XREC_LAYER_RECONCILED
360
18468
1001
ACAD
1000
TREAT_AS_HARD
1070
     1
  0
DICTIONARY
  5
18469
330
29
100
AcDbDictionary
  3
ADSK_XREC_LAYER_RECONCILED
360
1846A
1001
ACAD
1000
TREAT_AS_HARD
1070
     1
  0
DICTIONARY
  5
1846B
330
31
100
AcDbDictionary
  3
ADSK_XREC_LAYER_RECONCILED
360
1846C
1001
ACAD
1000
TREAT_AS_HARD
1070
     1
  0
DICTIONARY
  5
18475
330
101
100
AcDbDictionary
  3
ADSK_XREC_LAYER_RECONCILED
360
18476
1001
ACAD
1000
TREAT_AS_HARD
1070
     1
  0
DICTIONARY
  5
18479
330
103
100
AcDbDictionary
  3
ADSK_XREC_LAYER_RECONCILED
360
1847A
1001
ACAD
1000
TREAT_AS_HARD
1070
     1
  0
DICTIONARY
  5
1847D
330
25F
100
AcDbDictionary
  3
ADSK_XREC_LAYER_RECONCILED
360
1847E
1001
ACAD
1000
TREAT_AS_HARD
1070
     1
  0
DICTIONARY
  5
18499
330
26D
100
AcDbDictionary
  3
ADSK_XREC_LAYER_RECONCILED
360
1849A
1001
ACAD
1000
TREAT_AS_HARD
1070
     1
  0
DICTIONARY
  5
6E9
330
18
100
AcDbDictionary
  3
ACAD_SORTENTS
360
6EA
1001
ACAD
1000
TREAT_AS_HARD
1070
     1
  0
DICTIONARY
  5
59B
330
15
100
AcDbDictionary
  3
ACAD_SORTENTS
360
59C
1001
ACAD
1000
TREAT_AS_HARD
1070
     1
  0
DICTIONARY
  5
2D0
102
{ACAD_REACTORS
330
C
102
}
330
C
100
AcDbDictionary
1001
ACAD
1000
TREAT_AS_HARD
1070
     0
  0
DICTIONARY
  5
D
102
{ACAD_REACTORS
330
C
102
}
330
C
100
AcDbDictionary
1001
ACAD
1000
TREAT_AS_HARD
1070
     0
  0
DICTIONARY
  5
2D1
102
{ACAD_REACTORS
330
C
102
}
330
C
100
AcDbDictionary
1001
ACAD
1000
TREAT_AS_HARD
1070
     0
  0
DICTIONARY
  5
2CF
102
{ACAD_REACTORS
330
C
102
}
330
C
100
AcDbDictionary
  3
BYBLOCK
350
1840C
  3
BYLAYER
350
18404
  3
GLOBAL
350
18414
1001
ACAD
1000
TREAT_AS_HARD
1070
     0
  0
DICTIONARY
  5
1844F
102
{ACAD_REACTORS
330
C
102
}
330
C
100
AcDbDictionary
  3
STANDARD
350
18450
1001
ACAD
1000
TREAT_AS_HARD
1070
     0
  0
DICTIONARY
  5
1B
102
{ACAD_REACTORS
330
C
102
}
330
C
100
AcDbDictionary
  3
STANDARD
350
1C
1001
ACAD
1000
TREAT_AS_HARD
1070
     0
  0
DICTIONARY
  5
2D2
102
{ACAD_REACTORS
330
C
102
}
330
C
100
AcDbDictionary
1001
ACAD
1000
TREAT_AS_HARD
1070
     0
  0
DICTIONARY
  5
1842D
102
{ACAD_REACTORS
330
C
102
}
330
C
100
AcDbDictionary
  3
A0
350
1842E
  3
A1
350
1842F
  3
A2
350
18430
  3
A3
350
18431
  3
A4
350
18432
  3
A5
350
18433
  3
A6
350
18434
  3
A7
350
18435
  3
A8
350
18436
  3
A9
350
18437
  3
B0
350
18438
  3
B1
350
18439
  3
B2
350
1843A
  3
B3
350
1843B
  3
B4
350
1843C
  3
B5
350
1843D
  3
B6
350
1843E
  3
B7
350
1843F
  3
B8
350
18440
  3
B9
350
18441
  3
C0
350
18442
  3
C1
350
18443
  3
C2
350
18444
  3
C3
350
18445
  3
C4
350
18446
  3
C5
350
18447
  3
C6
350
18448
  3
C7
350
18449
  3
C8
350
1844A
  3
C9
350
1844B
  3
D0
350
1844C
  3
D1
350
1844D
  3
D2
350
1844E
1001
ACAD
1000
TREAT_AS_HARD
1070
     0
  0
DICTIONARY
  5
1841C
102
{ACAD_REACTORS
330
C
102
}
330
C
100
AcDbDictionary
  3
2DWIREFRAME
350
18422
  3
3D_HIDDEN
350
18424
  3
3DWIREFRAME
350
18423
  3
BASIC
350
18421
  3
BRIGHTEN
350
18428
  3
COLORCHANGE
350
1842C
  3
CONCEPTUAL
350
18425
  3
DIM
350
18427
  3
EDGECOLOROFF
350
19573
  3
FACEPATTERN
350
1842B
  3
FLAT
350
1841D
  3
FLATWITHEDGES
350
1841E
  3
GOURAUD
350
1841F
  3
GOURAUDWITHEDGES
350
18420
  3
HIDDEN
350
195F8
  3
JITTEROFF
350
19571
  3
LINEPATTERN
350
1842A
  3
MODELING
350
195FE
  3
OVERHANGOFF
350
19572
  3
REALISTIC
350
18426
  3
SHADED
350
195FD
  3
SHADED_WITH_EDGES
350
195FC
  3
SHADES_OF_GRAY
350
195F9
  3
SKETCHY
350
195FA
  3
THICKEN
350
18429
  3
WIREFRAME
350
195F7
  3
X-RAY
350
195FB
1001
ACAD
1000
TREAT_AS_HARD
1070
     0
  0
DICTIONARY
  5
1B385
102
{ACAD_REACTORS
330
C
102
}
330
C
100
AcDbDictionary
  3
COLORDICT
350
1B386
  3
MATERIALDICT
350
1B387
1001
ACAD
1000
TREAT_AS_HARD
1070
     0
  0
DICTIONARY
  5
37
102
{ACAD_REACTORS
330
C
102
}
330
C
100
AcDbDictionary
  3
CANNOSCALE
350
184FD
  3
CMLEADERSTYLE
350
184FC
  3
CTABLESTYLE
350
4F1
  3
DIMADEC
350
38
  3
DIMASSOC
350
408
  3
HIDETEXT
350
1891
  3
INDEXCTL
350
184FF
  3
INTERSECTIONCOLOR
350
1895
  3
INTERSECTIONDISPLAY
350
1894
  3
MSLTSCALE
350
1A5DF
  3
OBSCOLOR
350
1892
  3
OBSLTYPE
350
1893
  3
PROJECTNAME
350
409
  3
SORTENTS
350
184FE
  3
XCLIPFRAME
350
195F6
1001
ACAD
1000
TREAT_AS_HARD
1070
     0
  0
DICTIONARY
  5
D8
102
{ACAD_REACTORS
330
C
102
}
330
C
100
AcDbDictionary
1001
CONTENTTABDATA
1070
    11
1000
Child
1000
D:\ACLT\TABset\CHILDREN.dwg
1070
     0
1070
     0
1070
     1
1000
PK
1000
D:\ACLT\TABset\PK.dwg
1070
     0
1070
     0
1070
     1
1000
Lev1
1000
D:\ACLT\TABset\Lever01.dwg
1070
     0
1070
     0
1070
     1
1000
Lev2
1000
D:\ACLT\TABset\Lever02.dwg
1070
     0
1070
     0
1070
     1
1000
L3
1000
D:\Aclt\TABset\Lever03.dwg
1070
     0
1070
     0
1070
     1
1000
Form
1000
D:\ACLT\FORMAT
1070
     1
1070
     0
1070
     1
1000
Jnt
1000
D:\ACLT\TABset\JOINTPARTS.dwg
1070
     0
1070
     0
1070
     1
1000
ISO
1000
D:\ACLT\TABset\Isome01.dwg
1070
     0
1070
     0
1070
     1
1000
R
1000
D:\ACLT\TABset\REGION.dwg
1070
     0
1070
     0
1070
     1
1000
std
1000
D:\ACLT\TABset\std_sym_all.dwg
1070
     0
1070
     0
1070
     1
1000
丸
1000
D:\Aclt\TABset\MARU.dwg
1070
     0
1070
     0
1070
     1
1001
CONTENTCURRENTTAB
1070
     0
1001
ACAD
1000
TREAT_AS_HARD
1070
     0
  0
DICTIONARY
  5
20
102
{ACAD_REACTORS
330
C
102
}
330
C
100
AcDbDictionary
1001
DRAWINGVARIABLESXDATA
1000
POLARANG
1000
0.261799387799149410000000
1000
POLARMODE
1000
1
1000
POLARSTYLE
1000
1
1001
ACAD
1000
TREAT_AS_HARD
1070
     0
  0
XRECORD
  5
1B388
102
{ACAD_REACTORS
330
C
102
}
330
C
100
AcDbXrecord
  1
DWGPROPS COOKIE
  2

  3

  4

  6

  7

  8
3684
  9

300
=
301
=
302
=
303
=
304
=
305
=
306
=
307
=
308
=
309
=
 40
0.0
 41
2453033.357663484
 42
2459565.232734618
  1

 90
        0
  0
DICTIONARY
  5
17A1A
102
{ACAD_REACTORS
330
17A19
102
}
330
17A19
100
AcDbDictionary
1001
ACAD
1000
TREAT_AS_HARD
1070
     0
  0
ACAD_PROXY_OBJECT
  5
18468
102
{ACAD_REACTORS
330
18467
102
}
330
18467
100
AcDbZombieObject
 90
      499
 91
      516
 93
       34
310
40C8804040
  0
ACAD_PROXY_OBJECT
  5
1846A
102
{ACAD_REACTORS
330
18469
102
}
330
18469
100
AcDbZombieObject
 90
      499
 91
      516
 93
       34
310
40C8804040
  0
ACAD_PROXY_OBJECT
  5
1846C
102
{ACAD_REACTORS
330
1846B
102
}
330
1846B
100
AcDbZombieObject
 90
      499
 91
      516
 93
       34
310
40C8804040
  0
ACAD_PROXY_OBJECT
  5
18476
102
{ACAD_REACTORS
330
18475
102
}
330
18475
100
AcDbZombieObject
 90
      499
 91
      516
 93
       34
310
40C8804040
  0
ACAD_PROXY_OBJECT
  5
1847A
102
{ACAD_REACTORS
330
18479
102
}
330
18479
100
AcDbZombieObject
 90
      499
 91
      516
 93
       34
310
40C8804040
  0
ACAD_PROXY_OBJECT
  5
1847E
102
{ACAD_REACTORS
330
1847D
102
}
330
1847D
100
AcDbZombieObject
 90
      499
 91
      516
 93
       34
310
40C8804040
  0
ACAD_PROXY_OBJECT
  5
1849A
102
{ACAD_REACTORS
330
18499
102
}
330
18499
100
AcDbZombieObject
 90
      499
 91
      516
 93
       34
310
40C8804040
  0
SORTENTSTABLE
  5
6EA
102
{ACAD_REACTORS
330
6E9
102
}
330
6E9
100
AcDbSortentsTable
330
18
331
0
  5
99AB
331
0
  5
AB53
331
0
  5
AB54
331
0
  5
ECB6
331
18716
  5
1872F
331
1871C
  5
18730
331
1871D
  5
18731
331
18724
  5
18732
331
18725
  5
18733
331
1872F
  5
18734
331
18730
  5
18735
331
18731
  5
18736
331
18732
  5
18737
331
18733
  5
18738
331
18734
  5
18739
331
18735
  5
1873A
331
18736
  5
1873B
331
18737
  5
1873C
331
18738
  5
1873D
331
18739
  5
1873E
331
1873A
  5
1873F
331
1873B
  5
18740
331
1873C
  5
18741
331
1873D
  5
18742
331
1873E
  5
18743
331
1873F
  5
18744
331
18740
  5
18745
331
18741
  5
18746
331
18742
  5
18747
331
18743
  5
18748
331
18744
  5
18749
331
18745
  5
1874A
331
18746
  5
1874B
331
18747
  5
1874C
331
18748
  5
1874D
331
18749
  5
1874E
331
1874A
  5
1874F
331
1874B
  5
18750
331
1874C
  5
18751
331
1874D
  5
18752
331
1874E
  5
18753
331
1874F
  5
18754
331
18750
  5
18755
331
18751
  5
18756
331
18752
  5
18757
331
18753
  5
18758
331
18754
  5
18759
331
18755
  5
1875A
331
18756
  5
1875B
331
18757
  5
1875C
331
18758
  5
1875D
331
18759
  5
1875E
331
1875A
  5
1875F
331
1875B
  5
18760
331
1875C
  5
18761
331
1875D
  5
18762
331
1875E
  5
18763
331
1875F
  5
18764
331
18760
  5
18765
331
18761
  5
18766
331
18762
  5
18767
331
18763
  5
18768
331
18764
  5
18769
331
18765
  5
1876A
331
18766
  5
1876B
331
18767
  5
1876C
331
18768
  5
1876D
331
18769
  5
1876E
331
1876A
  5
1876F
331
1876B
  5
18770
331
1876C
  5
18771
331
1876D
  5
18772
331
1876E
  5
18773
331
1876F
  5
18774
331
18770
  5
18775
331
18771
  5
18776
331
18772
  5
18777
331
18773
  5
18778
331
18774
  5
18779
331
18775
  5
187A3
331
18776
  5
187A4
331
18777
  5
187A5
331
18778
  5
187A7
331
18779
  5
187AA
331
187A3
  5
18828
331
187A4
  5
18829
331
187A5
  5
1882A
331
187A7
  5
1882B
331
187AA
  5
1882C
331
187AB
  5
1882D
331
187AD
  5
1882E
331
187AF
  5
1882F
331
187B1
  5
18830
331
187B3
  5
18831
331
187BF
  5
18994
331
187C0
  5
1899B
331
187C3
  5
1899D
331
187C4
  5
18ACB
331
187C7
  5
190F2
331
187CA
  5
190F3
331
187CE
  5
190F4
331
187D0
  5
190F5
331
187D3
  5
190F6
331
187D4
  5
190F7
331
187D5
  5
190F8
331
187D8
  5
190F9
331
187DA
  5
190FA
331
187DC
  5
190FB
331
187DD
  5
190FC
331
187DE
  5
190FD
331
187E3
  5
190FE
331
187E4
  5
190FF
331
187E5
  5
19100
331
187E6
  5
19101
331
187E7
  5
19102
331
187E8
  5
19103
331
187E9
  5
19104
331
187EA
  5
19105
331
187EB
  5
19106
331
187EC
  5
19107
331
187F0
  5
19108
331
187F5
  5
19109
331
187F7
  5
1910A
331
187F9
  5
1910B
331
187FB
  5
1910C
331
18807
  5
1910D
331
18808
  5
1910E
331
18809
  5
1910F
331
18811
  5
19110
331
18813
  5
19111
331
1881A
  5
19112
331
18820
  5
19113
331
18821
  5
19114
331
18822
  5
19115
331
18823
  5
19116
331
18824
  5
19117
331
18825
  5
19118
331
18826
  5
19119
331
18827
  5
1911A
331
18828
  5
1911B
331
18829
  5
1911C
331
1882A
  5
1911D
331
1882B
  5
1911E
331
1882C
  5
1911F
331
1882D
  5
19120
331
1882E
  5
19121
331
1882F
  5
19122
331
18830
  5
19123
331
18831
  5
19124
331
18994
  5
19125
331
1899B
  5
19126
331
1899D
  5
19127
331
18ACB
  5
19128
331
190F2
  5
1912E
331
190F3
  5
1912F
331
190F4
  5
19130
331
190F5
  5
19131
331
190F6
  5
19132
331
190F7
  5
19133
331
190F8
  5
19134
331
190F9
  5
19135
331
190FA
  5
19136
331
190FB
  5
19137
331
190FC
  5
19138
331
190FD
  5
19139
331
190FE
  5
1913A
331
190FF
  5
1914A
331
19100
  5
1914B
331
19101
  5
1914C
331
19102
  5
1914D
331
19103
  5
1914E
331
19104
  5
1914F
331
19105
  5
19150
331
19106
  5
19151
331
19107
  5
19152
331
19108
  5
19153
331
19109
  5
19154
331
1910A
  5
19155
331
1910B
  5
19156
331
1910C
  5
19157
331
1910D
  5
19158
331
1910E
  5
19159
331
1910F
  5
1915A
331
19110
  5
1915B
331
19111
  5
1915C
331
19112
  5
1915D
331
19113
  5
1915E
331
19114
  5
1915F
331
19115
  5
19160
331
19116
  5
19161
331
19117
  5
19162
331
19118
  5
19163
331
19119
  5
19164
331
1911A
  5
19165
331
1911B
  5
19166
331
1911C
  5
19167
331
1911D
  5
19168
331
1911E
  5
19169
331
1911F
  5
1916A
331
19120
  5
1916B
331
19121
  5
1916C
331
19122
  5
1916D
331
19123
  5
1916E
331
19124
  5
1916F
331
19125
  5
19170
331
19126
  5
19171
331
19127
  5
19172
331
19128
  5
19173
331
19129
  5
19174
331
1912A
  5
19175
331
1912B
  5
19176
331
1912C
  5
19177
331
1912D
  5
19178
331
1912E
  5
19179
331
1912F
  5
1917A
331
19130
  5
1917B
331
19131
  5
1917C
331
19132
  5
1917D
331
19133
  5
1917E
331
19134
  5
1917F
331
19135
  5
19180
331
19136
  5
19181
331
19137
  5
19182
331
19138
  5
19183
331
19139
  5
19184
331
1913A
  5
19185
331
1914A
  5
19186
331
1914B
  5
19187
331
1914C
  5
19188
331
1914D
  5
19189
331
1914E
  5
1918A
331
1914F
  5
1918B
331
19150
  5
1918C
331
19151
  5
1918D
331
19152
  5
1918E
331
19153
  5
1918F
331
19154
  5
19190
331
19155
  5
19191
331
19156
  5
19192
331
19157
  5
19193
331
19158
  5
1924F
331
19159
  5
19251
331
1915A
  5
192B6
331
1915B
  5
192B7
331
1915C
  5
192B8
331
1915D
  5
192B9
331
1915E
  5
1932D
331
1915F
  5
1932E
331
19160
  5
1932F
331
19161
  5
19330
331
19162
  5
19331
331
19163
  5
19333
331
19164
  5
19334
331
19165
  5
19335
331
19166
  5
19337
331
19167
  5
19339
331
19168
  5
1933A
331
19169
  5
1933B
331
1916A
  5
1933E
331
1916B
  5
1933F
331
1916C
  5
19340
331
1916D
  5
19341
331
1916E
  5
195A1
331
1916F
  5
195A2
331
19170
  5
195A3
331
19171
  5
195A4
331
19172
  5
195A5
331
19173
  5
195A6
331
19174
  5
19657
331
19175
  5
19658
331
19176
  5
19659
331
19177
  5
1965A
331
19178
  5
1965B
331
19179
  5
1A8E4
331
1917A
  5
1A8E5
331
1917B
  5
1A8E7
331
1917C
  5
1A8EC
331
1917D
  5
1A8ED
331
1917E
  5
1AB75
331
1917F
  5
1AB7E
331
19180
  5
1AB80
331
19181
  5
1AB81
331
19182
  5
1AB84
331
19183
  5
1B0AC
331
19184
  5
1B26A
331
19185
  5
1B26B
331
19186
  5
1B26C
331
19187
  5
1B270
331
19188
  5
1B271
331
19189
  5
1B272
331
1918A
  5
1B2F5
331
1918B
  5
1B2F6
331
1918C
  5
1B2F7
331
1918D
  5
1B2F8
331
1918E
  5
1B2F9
331
1918F
  5
1B2FA
331
19190
  5
1B2FB
331
19191
  5
1B2FC
331
19192
  5
1B2FD
331
19193
  5
1B2FE
331
1924F
  5
1B31E
331
19251
  5
1B31F
331
192B6
  5
1B33C
331
192B7
  5
1B33D
331
192B8
  5
1B33E
331
192B9
  5
1B33F
331
1932D
  5
1B34A
331
1932E
  5
1B34B
331
1932F
  5
1B34C
331
19330
  5
1B34D
331
19331
  5
1B34E
331
19333
  5
1B34F
331
19334
  5
1B350
331
19335
  5
1B351
331
19337
  5
1B352
331
19339
  5
1B353
331
1933A
  5
1B354
331
1933B
  5
1B355
331
1933E
  5
1B356
331
1933F
  5
1B357
331
19340
  5
1B358
331
19341
  5
1B359
331
195A1
  5
1B35A
331
195A2
  5
1B35B
331
195A3
  5
1B35C
331
195A4
  5
1B35D
331
195A5
  5
1B35E
331
195A6
  5
1B35F
331
19657
  5
1B360
331
19658
  5
1B361
331
19659
  5
1B362
331
1965A
  5
1B363
331
1965B
  5
1B364
331
1965C
  5
1B365
331
1A8E2
  5
1B366
331
1A8E3
  5
1B367
331
1A8E4
  5
1B368
331
1A8E5
  5
1B369
331
1A8E7
  5
1B36A
331
1A8E9
  5
1B36B
331
1A8EA
  5
1B36C
331
1A8EB
  5
1B36D
331
1A8EC
  5
1B36E
331
1A8ED
  5
1B36F
331
1AB75
  5
1B370
331
1AB79
  5
1B371
331
1AB7B
  5
1B372
331
1AB7C
  5
1B373
331
1AB7E
  5
1B374
331
1AB80
  5
1B375
331
1AB81
  5
1B376
331
1AB84
  5
1B377
331
1B0AC
  5
1B378
331
1B267
  5
1B379
331
1B268
  5
1B37A
331
1B269
  5
1B37B
331
1B26A
  5
1B37C
331
1B26B
  5
1B37D
331
1B26C
  5
1B37E
331
1B26D
  5
1B37F
331
1B26E
  5
1B380
331
1B26F
  5
1B381
331
1B270
  5
1B382
331
1B271
  5
1B383
331
1B272
  5
1B384
331
1B2F5
  5
18716
331
1B2F6
  5
1871C
331
1B2F7
  5
1871D
331
1B2F8
  5
18724
331
1B2F9
  5
18725
331
1B2FA
  5
187AB
331
1B2FB
  5
187AD
331
1B2FC
  5
187AF
331
0
  5
187B1
331
0
  5
187B3
331
0
  5
187BF
331
1B300
  5
187E4
331
1B301
  5
187E5
331
1B302
  5
187E6
331
0
  5
187C7
331
0
  5
187CA
331
0
  5
187CE
331
1B306
  5
187F5
331
1B307
  5
187F7
331
1B308
  5
187F9
331
0
  5
187D5
331
0
  5
187D8
331
0
  5
187DA
331
1B30C
  5
18820
331
0
  5
187DD
331
0
  5
187DE
331
0
  5
187E3
331
1B310
  5
19129
331
1B311
  5
1912A
331
1B312
  5
1912B
331
1B313
  5
1912C
331
1B314
  5
1912D
331
1B315
  5
1B2FF
331
0
  5
1965C
331
0
  5
1A8E2
331
0
  5
1A8E3
331
1B319
  5
1B30A
331
1B31A
  5
1B30B
331
1B31B
  5
1B30C
331
0
  5
1A8E9
331
0
  5
1A8EA
331
0
  5
1A8EB
331
1B31F
  5
1B314
331
1B320
  5
1B315
331
1B321
  5
1B316
331
0
  5
1AB79
331
0
  5
1AB7B
331
0
  5
1AB7C
331
1B325
  5
1B320
331
1B326
  5
1B321
331
1B327
  5
1B322
331
0
  5
1B267
331
0
  5
1B268
331
0
  5
1B269
331
1B32B
  5
1B32A
331
1B32C
  5
1B32B
331
1B32D
  5
1B32C
331
0
  5
1B26D
331
0
  5
1B26E
331
0
  5
1B26F
331
1B331
  5
1B334
331
1B332
  5
1B335
331
1B333
  5
1B336
331
1B334
  5
1B337
331
1B335
  5
1B338
331
1B336
  5
1B339
331
1B337
  5
1B33A
331
1B338
  5
1B33B
331
1B339
  5
1B340
331
1B33A
  5
1B341
331
1B33B
  5
1B342
331
0
  5
1B301
331
0
  5
1B302
331
0
  5
1B303
331
1B33F
  5
187C0
331
1B340
  5
187C3
331
1B341
  5
187C4
331
1B342
  5
187D0
331
1B343
  5
187D3
331
1B344
  5
187D4
331
1B345
  5
187DC
331
1B346
  5
187E7
331
1B347
  5
187E8
331
1B348
  5
187E9
331
1B349
  5
187EA
331
1B34A
  5
187EB
331
1B34B
  5
187EC
331
1B34C
  5
187F0
331
1B34D
  5
187FB
331
1B34E
  5
18807
331
1B34F
  5
18808
331
1B350
  5
18809
331
1B351
  5
18811
331
1B352
  5
18813
331
1B353
  5
1881A
331
1B354
  5
18821
331
1B355
  5
18822
331
1B356
  5
18823
331
1B357
  5
18824
331
1B358
  5
18825
331
1B359
  5
18826
331
1B35A
  5
18827
331
1B35B
  5
1B300
331
1B35C
  5
1B304
331
1B35D
  5
1B305
331
1B35E
  5
1B306
331
1B35F
  5
1B307
331
1B360
  5
1B308
331
1B361
  5
1B309
331
1B362
  5
1B30D
331
1B363
  5
1B30E
331
1B364
  5
1B30F
331
1B365
  5
1B310
331
1B366
  5
1B311
331
1B367
  5
1B312
331
1B368
  5
1B313
331
1B369
  5
1B317
331
1B36A
  5
1B318
331
1B36B
  5
1B319
331
1B36C
  5
1B31A
331
1B36D
  5
1B31B
331
1B36E
  5
1B31C
331
1B36F
  5
1B31D
331
1B370
  5
1B323
331
1B371
  5
1B324
331
1B372
  5
1B325
331
1B373
  5
1B326
331
1B374
  5
1B327
331
1B375
  5
1B328
331
1B376
  5
1B329
331
1B377
  5
1B32D
331
1B378
  5
1B32E
331
1B379
  5
1B32F
331
1B37A
  5
1B330
331
1B37B
  5
1B331
331
1B37C
  5
1B332
331
1B37D
  5
1B333
331
1B37E
  5
1B343
331
1B37F
  5
1B344
331
1B380
  5
1B345
331
1B381
  5
1B346
331
1B382
  5
1B347
331
1B383
  5
1B348
331
1B384
  5
1B349
  0
SORTENTSTABLE
  5
59C
102
{ACAD_REACTORS
330
59B
102
}
330
59B
100
AcDbSortentsTable
330
15
331
57
  5
57
331
0
  5
70
  0
MATERIAL
  5
1840C
102
{ACAD_REACTORS
330
2CF
102
}
102
{ACAD_XDICTIONARY
360
1B523
102
}
330
2CF
100
AcDbMaterial
  1
BYBLOCK
 72
     0
 73
     2
 43
0.0208333333333333
 43
0.0
 43
0.0
 43
0.0
 43
0.0
 43
0.0208333333333333
 43
0.0
 43
0.0
 43
0.0
 43
0.0
 43
1.0
 43
0.0
 43
0.0
 43
0.0
 43
0.0
 43
1.0
 77
     0
 78
     2
 47
0.0208333333333333
 47
0.0
 47
0.0
 47
0.0
 47
0.0
 47
0.0208333333333333
 47
0.0
 47
0.0
 47
0.0
 47
0.0
 47
1.0
 47
0.0
 47
0.0
 47
0.0
 47
0.0
 47
1.0
171
     0
172
     2
 49
0.0208333333333333
 49
0.0
 49
0.0
 49
0.0
 49
0.0
 49
0.0208333333333333
 49
0.0
 49
0.0
 49
0.0
 49
0.0
 49
1.0
 49
0.0
 49
0.0
 49
0.0
 49
0.0
 49
1.0
175
     0
176
     2
142
0.0208333333333333
142
0.0
142
0.0
142
0.0
142
0.0
142
0.0208333333333333
142
0.0
142
0.0
142
0.0
142
0.0
142
1.0
142
0.0
142
0.0
142
0.0
142
0.0
142
1.0
179
     0
270
     2
144
0.0208333333333333
144
0.0
144
0.0
144
0.0
144
0.0
144
0.0208333333333333
144
0.0
144
0.0
144
0.0
144
0.0
144
1.0
144
0.0
144
0.0
144
0.0
144
0.0
144
1.0
274
     2
147
0.0208333333333333
147
0.0
147
0.0
147
0.0
147
0.0
147
0.0208333333333333
147
0.0
147
0.0
147
0.0
147
0.0
147
1.0
147
0.0
147
0.0
147
0.0
147
0.0
147
1.0
  0
MATERIAL
  5
18404
102
{ACAD_REACTORS
330
2CF
102
}
102
{ACAD_XDICTIONARY
360
1B525
102
}
330
2CF
100
AcDbMaterial
  1
BYLAYER
 72
     0
 73
     2
 43
0.0208333333333333
 43
0.0
 43
0.0
 43
0.0
 43
0.0
 43
0.0208333333333333
 43
0.0
 43
0.0
 43
0.0
 43
0.0
 43
1.0
 43
0.0
 43
0.0
 43
0.0
 43
0.0
 43
1.0
 77
     0
 78
     2
 47
0.0208333333333333
 47
0.0
 47
0.0
 47
0.0
 47
0.0
 47
0.0208333333333333
 47
0.0
 47
0.0
 47
0.0
 47
0.0
 47
1.0
 47
0.0
 47
0.0
 47
0.0
 47
0.0
 47
1.0
171
     0
172
     2
 49
0.0208333333333333
 49
0.0
 49
0.0
 49
0.0
 49
0.0
 49
0.0208333333333333
 49
0.0
 49
0.0
 49
0.0
 49
0.0
 49
1.0
 49
0.0
 49
0.0
 49
0.0
 49
0.0
 49
1.0
175
     0
176
     2
142
0.0208333333333333
142
0.0
142
0.0
142
0.0
142
0.0
142
0.0208333333333333
142
0.0
142
0.0
142
0.0
142
0.0
142
1.0
142
0.0
142
0.0
142
0.0
142
0.0
142
1.0
179
     0
270
     2
144
0.0208333333333333
144
0.0
144
0.0
144
0.0
144
0.0
144
0.0208333333333333
144
0.0
144
0.0
144
0.0
144
0.0
144
1.0
144
0.0
144
0.0
144
0.0
144
0.0
144
1.0
274
     2
147
0.0208333333333333
147
0.0
147
0.0
147
0.0
147
0.0
147
0.0208333333333333
147
0.0
147
0.0
147
0.0
147
0.0
147
1.0
147
0.0
147
0.0
147
0.0
147
0.0
147
1.0
  0
MATERIAL
  5
18414
102
{ACAD_REACTORS
330
2CF
102
}
102
{ACAD_XDICTIONARY
360
1B527
102
}
330
2CF
100
AcDbMaterial
  1
GLOBAL
 72
     0
 73
     2
 43
0.0208333333333333
 43
0.0
 43
0.0
 43
0.0
 43
0.0
 43
0.0208333333333333
 43
0.0
 43
0.0
 43
0.0
 43
0.0
 43
1.0
 43
0.0
 43
0.0
 43
0.0
 43
0.0
 43
1.0
 77
     0
 78
     2
 47
0.0208333333333333
 47
0.0
 47
0.0
 47
0.0
 47
0.0
 47
0.0208333333333333
 47
0.0
 47
0.0
 47
0.0
 47
0.0
 47
1.0
 47
0.0
 47
0.0
 47
0.0
 47
0.0
 47
1.0
171
     0
172
     2
 49
0.0208333333333333
 49
0.0
 49
0.0
 49
0.0
 49
0.0
 49
0.0208333333333333
 49
0.0
 49
0.0
 49
0.0
 49
0.0
 49
1.0
 49
0.0
 49
0.0
 49
0.0
 49
0.0
 49
1.0
175
     0
176
     2
142
0.0208333333333333
142
0.0
142
0.0
142
0.0
142
0.0
142
0.0208333333333333
142
0.0
142
0.0
142
0.0
142
0.0
142
1.0
142
0.0
142
0.0
142
0.0
142
0.0
142
1.0
179
     0
270
     2
144
0.0208333333333333
144
0.0
144
0.0
144
0.0
144
0.0
144
0.0208333333333333
144
0.0
144
0.0
144
0.0
144
0.0
144
1.0
144
0.0
144
0.0
144
0.0
144
0.0
144
1.0
274
     2
147
0.0208333333333333
147
0.0
147
0.0
147
0.0
147
0.0
147
0.0208333333333333
147
0.0
147
0.0
147
0.0
147
0.0
147
1.0
147
0.0
147
0.0
147
0.0
147
0.0
147
1.0
  0
ACAD_PROXY_OBJECT
  5
18450
102
{ACAD_REACTORS
330
1844F
102
}
330
1844F
100
AcDbZombieObject
 90
      499
 91
      512
 93
      610
310
40901902A4063FBFFFFFE000000000000002040AD7A3703D0AD73F4214DD185B99185C990000000000000104090141901A00000000000004100000000000000041025764000000000000300FC0
340
12
340
0
340
F
340
0
 94
        0
1001
ACAD_MLEADERVER
1070
     2
  0
MLINESTYLE
  5
1C
102
{ACAD_REACTORS
330
1B
102
}
330
1B
100
AcDbMlineStyle
  2
STANDARD
 70
     0
  3

 62
   256
 51
90.0
 52
90.0
 71
     2
 49
0.5
 62
   256
  6
BYLAYER
 49
-0.5
 62
   256
  6
BYLAYER
  0
ACAD_PROXY_OBJECT
  5
1842E
102
{ACAD_REACTORS
330
1842D
102
}
330
1842D
100
AcDbZombieObject
 90
      499
 91
      511
 93
       41
310
903313A31580
  0
ACAD_PROXY_OBJECT
  5
1842F
102
{ACAD_REACTORS
330
1842D
102
}
330
1842D
100
AcDbZombieObject
 90
      499
 91
      511
 93
      105
310
903313A324000000000000004000
  0
ACAD_PROXY_OBJECT
  5
18430
102
{ACAD_REACTORS
330
1842D
102
}
330
1842D
100
AcDbZombieObject
 90
      499
 91
      511
 93
      105
310
903313A344000000000000104000
  0
ACAD_PROXY_OBJECT
  5
18431
102
{ACAD_REACTORS
330
1842D
102
}
330
1842D
100
AcDbZombieObject
 90
      499
 91
      511
 93
      105
310
903313A354000000000000144000
  0
ACAD_PROXY_OBJECT
  5
18432
102
{ACAD_REACTORS
330
1842D
102
}
330
1842D
100
AcDbZombieObject
 90
      499
 91
      511
 93
      105
310
903313A384000000000000204000
  0
ACAD_PROXY_OBJECT
  5
18433
102
{ACAD_REACTORS
330
1842D
102
}
330
1842D
100
AcDbZombieObject
 90
      499
 91
      511
 93
      113
310
904313A31304000000000000244000
  0
ACAD_PROXY_OBJECT
  5
18434
102
{ACAD_REACTORS
330
1842D
102
}
330
1842D
100
AcDbZombieObject
 90
      499
 91
      511
 93
      113
310
904313A31364000000000000304000
  0
ACAD_PROXY_OBJECT
  5
18435
102
{ACAD_REACTORS
330
1842D
102
}
330
1842D
100
AcDbZombieObject
 90
      499
 91
      511
 93
      113
310
904313A32304000000000000344000
  0
ACAD_PROXY_OBJECT
  5
18436
102
{ACAD_REACTORS
330
1842D
102
}
330
1842D
100
AcDbZombieObject
 90
      499
 91
      511
 93
      113
310
904313A333040000000000003E4000
  0
ACAD_PROXY_OBJECT
  5
18437
102
{ACAD_REACTORS
330
1842D
102
}
330
1842D
100
AcDbZombieObject
 90
      499
 91
      511
 93
      113
310
904313A34304000000000000444000
  0
ACAD_PROXY_OBJECT
  5
18438
102
{ACAD_REACTORS
330
1842D
102
}
330
1842D
100
AcDbZombieObject
 90
      499
 91
      511
 93
      113
310
904313A35304000000000000494000
  0
ACAD_PROXY_OBJECT
  5
18439
102
{ACAD_REACTORS
330
1842D
102
}
330
1842D
100
AcDbZombieObject
 90
      499
 91
      511
 93
      121
310
905313A3130304000000000000594000
  0
ACAD_PROXY_OBJECT
  5
1843A
102
{ACAD_REACTORS
330
1842D
102
}
330
1842D
100
AcDbZombieObject
 90
      499
 91
      511
 93
      105
310
903323A310000000000000010100
  0
ACAD_PROXY_OBJECT
  5
1843B
102
{ACAD_REACTORS
330
1842D
102
}
330
1842D
100
AcDbZombieObject
 90
      499
 91
      511
 93
      105
310
903343A310000000000000410100
  0
ACAD_PROXY_OBJECT
  5
1843C
102
{ACAD_REACTORS
330
1842D
102
}
330
1842D
100
AcDbZombieObject
 90
      499
 91
      511
 93
      105
310
903383A310000000000000810100
  0
ACAD_PROXY_OBJECT
  5
1843D
102
{ACAD_REACTORS
330
1842D
102
}
330
1842D
100
AcDbZombieObject
 90
      499
 91
      511
 93
      113
310
90431303A310000000000000910100
  0
ACAD_PROXY_OBJECT
  5
1843E
102
{ACAD_REACTORS
330
1842D
102
}
330
1842D
100
AcDbZombieObject
 90
      499
 91
      511
 93
      121
310
9053130303A310000000000001650100
  0
ACAD_PROXY_OBJECT
  5
1843F
102
{ACAD_REACTORS
330
1842D
102
}
330
1842D
100
AcDbZombieObject
 90
      499
 91
      511
 93
      257
310
90E312F31323822203D2031272D3022000000000000200FC000000000000284000
  0
ACAD_PROXY_OBJECT
  5
18440
102
{ACAD_REACTORS
330
1842D
102
}
330
1842D
100
AcDbZombieObject
 90
      499
 91
      511
 93
      249
310
90D312F363422203D2031272D3022000000000000240FC000000000000284000
  0
ACAD_PROXY_OBJECT
  5
18441
102
{ACAD_REACTORS
330
1842D
102
}
330
1842D
100
AcDbZombieObject
 90
      499
 91
      511
 93
      249
310
90D312F333222203D2031272D3022000000000000280FC000000000000284000
  0
ACAD_PROXY_OBJECT
  5
18442
102
{ACAD_REACTORS
330
1842D
102
}
330
1842D
100
AcDbZombieObject
 90
      499
 91
      511
 93
      249
310
90D312F313622203D2031272D30220000000000002C0FC000000000000284000
  0
ACAD_PROXY_OBJECT
  5
18443
102
{ACAD_REACTORS
330
1842D
102
}
330
1842D
100
AcDbZombieObject
 90
      499
 91
      511
 93
      249
310
90D332F333222203D2031272D30220000000000002E0FC000000000000284000
  0
ACAD_PROXY_OBJECT
  5
18444
102
{ACAD_REACTORS
330
1842D
102
}
330
1842D
100
AcDbZombieObject
 90
      499
 91
      511
 93
      241
310
90C312F3822203D2031272D3022000000000000300FC000000000000284000
  0
ACAD_PROXY_OBJECT
  5
18445
102
{ACAD_REACTORS
330
1842D
102
}
330
1842D
100
AcDbZombieObject
 90
      499
 91
      511
 93
      249
310
90D332F313622203D2031272D3022000000000000320FC000000000000284000
  0
ACAD_PROXY_OBJECT
  5
18446
102
{ACAD_REACTORS
330
1842D
102
}
330
1842D
100
AcDbZombieObject
 90
      499
 91
      511
 93
      241
310
90C312F3422203D2031272D3022000000000000340FC000000000000284000
  0
ACAD_PROXY_OBJECT
  5
18447
102
{ACAD_REACTORS
330
1842D
102
}
330
1842D
100
AcDbZombieObject
 90
      499
 91
      511
 93
      241
310
90C332F3822203D2031272D3022000000000000360FC000000000000284000
  0
ACAD_PROXY_OBJECT
  5
18448
102
{ACAD_REACTORS
330
1842D
102
}
330
1842D
100
AcDbZombieObject
 90
      499
 91
      511
 93
      241
310
90C312F3222203D2031272D3022000000000000380FC000000000000284000
  0
ACAD_PROXY_OBJECT
  5
18449
102
{ACAD_REACTORS
330
1842D
102
}
330
1842D
100
AcDbZombieObject
 90
      499
 91
      511
 93
      241
310
90C332F3422203D2031272D30220000000000003A0FC000000000000284000
  0
ACAD_PROXY_OBJECT
  5
1844A
102
{ACAD_REACTORS
330
1842D
102
}
330
1842D
100
AcDbZombieObject
 90
      499
 91
      511
 93
      161
310
90A3122203D2031272D30224000000000000284000
  0
ACAD_PROXY_OBJECT
  5
1844B
102
{ACAD_REACTORS
330
1842D
102
}
330
1842D
100
AcDbZombieObject
 90
      499
 91
      511
 93
      257
310
90E312D312F3222203D2031272D30220000000000003E0FC000000000000284000
  0
ACAD_PROXY_OBJECT
  5
1844C
102
{ACAD_REACTORS
330
1842D
102
}
330
1842D
100
AcDbZombieObject
 90
      499
 91
      511
 93
      225
310
90A3322203D2031272D302200000000000002100000000000000284000
  0
ACAD_PROXY_OBJECT
  5
1844D
102
{ACAD_REACTORS
330
1842D
102
}
330
1842D
100
AcDbZombieObject
 90
      499
 91
      511
 93
      225
310
90A3622203D2031272D302200000000000006100000000000000284000
  0
ACAD_PROXY_OBJECT
  5
1844E
102
{ACAD_REACTORS
330
1842D
102
}
330
1842D
100
AcDbZombieObject
 90
      499
 91
      511
 93
      249
310
90D31272D3022203D2031272D30220000000000000A100000000000000284000
  0
ACAD_PROXY_OBJECT
  5
18422
102
{ACAD_REACTORS
330
1841C
102
}
330
1841C
100
AcDbZombieObject
 90
      499
 91
      510
 93
      436
310
42CC9915DA5C99599C985B595049028333333333333E3BF0000000000000FB0107901411070040501600405405064090741402480A0340
1001
ACAD
1000
AcDbSavedByObjectVersion
1070
     0
  0
ACAD_PROXY_OBJECT
  5
18424
102
{ACAD_REACTORS
330
1841C
102
}
330
1841C
100
AcDbZombieObject
 90
      499
 91
      510
 93
      500
310
424CD108121A5919195B90640502408333333333333E3BF0000000000000FB01079024090700405020000000000001110200405405064090740C02480A0340
1001
ACAD
1000
AcDbSavedByObjectVersion
1070
     0
  0
ACAD_PROXY_OBJECT
  5
18423
102
{ACAD_REACTORS
330
1841C
102
}
330
1841C
100
AcDbZombieObject
 90
      499
 91
      510
 93
      436
310
42CCD915DA5C99599C985B595059028333333333333E3BF0000000000000FB0107901411070040501600405405064090741402480A0340
1001
ACAD
1000
AcDbSavedByObjectVersion
1070
     0
  0
ACAD_PROXY_OBJECT
  5
18421
102
{ACAD_REACTORS
330
1841C
102
}
330
1841C
100
AcDbZombieObject
 90
      499
 91
      510
 93
      388
310
4150985CDA58D07406404333333333333E3BF0000000000000FB0107A41107004050150841D405064090741402480A0350
1001
ACAD
1000
AcDbSavedByObjectVersion
1070
     0
  0
ACAD_PROXY_OBJECT
  5
18428
102
{ACAD_REACTORS
330
1841C
102
}
330
1841C
100
AcDbZombieObject
 90
      499
 91
      510
 93
      428
310
42109C9A59DA1D195B90C409028333333333333E3BF0000000000000FB010790141107004050150841D405064090741402480A029950
1001
ACAD
1000
AcDbSavedByObjectVersion
1070
     0
  0
ACAD_PROXY_OBJECT
  5
1842C
102
{ACAD_REACTORS
330
1841C
102
}
330
1841C
100
AcDbZombieObject
 90
      499
 91
      510
 93
      452
310
42D0DBDB1BDC90DA185B99D95104090240C333333333333E3BF0000000000000FB0108901411070040501508421405064090741402480A0350
1001
ACAD
1000
AcDbSavedByObjectVersion
1070
     0
  0
ACAD_PROXY_OBJECT
  5
18425
102
{ACAD_REACTORS
330
1841C
102
}
330
1841C
100
AcDbZombieObject
 90
      499
 91
      510
 93
      500
310
4290DBDB98D95C1D1D585B10940D028333333333333E3BF0000000000000FB0107902409070040501000000000000111010841D405064090740C02480A0340
1001
ACAD
1000
AcDbSavedByObjectVersion
1070
     0
  0
ACAD_PROXY_OBJECT
  5
18427
102
{ACAD_REACTORS
330
1841C
102
}
330
1841C
100
AcDbZombieObject
 90
      499
 91
      510
 93
      412
310
40D11A5B50B409028333333333333E3BF0000000000000FB010790141107004050150841D405064090741402480A02677FFFFFD0
1001
ACAD
1000
AcDbSavedByObjectVersion
1070
     0
  0
ACAD_PROXY_OBJECT
  5
19573
102
{ACAD_REACTORS
330
1841C
102
}
330
1841C
100
AcDbZombieObject
 90
      499
 91
      510
 93
      452
310
43115919D950DBDB1BDC93D999916409028333333333333E3BF0000000000000FB010790141107004050150841D405064090741402480A0350
1001
ACAD
1000
AcDbSavedByObjectVersion
1070
     0
  0
ACAD_PROXY_OBJECT
  5
1842B
102
{ACAD_REACTORS
330
1841C
102
}
330
1841C
100
AcDbZombieObject
 90
      499
 91
      510
 93
      444
310
42D19858D95C185D1D195C9B90F409028333333333333E3BF0000000000000FB010790141107004050150841D405064090741402480A0350
1001
ACAD
1000
AcDbSavedByObjectVersion
1070
     0
  0
ACAD_PROXY_OBJECT
  5
1841D
102
{ACAD_REACTORS
330
1841C
102
}
330
1841C
100
AcDbZombieObject
 90
      499
 91
      510
 93
      388
310
41119B185D240901404333333333333E3BF0000000000000F9010740A41107004050150841D405064090741402480A1B50
1001
ACAD
1000
AcDbSavedByObjectVersion
1070
     0
  0
ACAD_PROXY_OBJECT
  5
1841E
102
{ACAD_REACTORS
330
1841C
102
}
330
1841C
100
AcDbZombieObject
 90
      499
 91
      510
 93
      476
310
43519B185D15DA5D1A115919D95CD0140901404333333333333E3BF0000000000000F9010740901411070040501600405405064090741402480A1B50
1001
ACAD
1000
AcDbSavedByObjectVersion
1070
     0
  0
ACAD_PROXY_OBJECT
  5
1841F
102
{ACAD_REACTORS
330
1841C
102
}
330
1841C
100
AcDbZombieObject
 90
      499
 91
      510
 93
      412
310
41D1DBDD5C985D5910240902404333333333333E3BF0000000000000F9010740A411070040501641D405064090741402480A1B50
1001
ACAD
1000
AcDbSavedByObjectVersion
1070
     0
  0
ACAD_PROXY_OBJECT
  5
18420
102
{ACAD_REACTORS
330
1841C
102
}
330
1841C
100
AcDbZombieObject
 90
      499
 91
      510
 93
      500
310
4411DBDD5C985D5915DA5D1A115919D95CD0340902404333333333333E3BF0000000000000F9010740901411070040501600405405064090741402480A1B50
1001
ACAD
1000
AcDbSavedByObjectVersion
1070
     0
  0
ACAD_PROXY_OBJECT
  5
195F8
102
{ACAD_REACTORS
330
1841C
102
}
330
1841C
100
AcDbZombieObject
 90
      499
 91
      510
 93
      476
310
41921A5919195B90640502408333333333333E33F0000000000000F901079024090700405020000000000001110200405405064090740C02480A0340
1001
ACAD
1000
AcDbSavedByObjectVersion
1070
     0
  0
ACAD_PROXY_OBJECT
  5
19571
102
{ACAD_REACTORS
330
1841C
102
}
330
1841C
100
AcDbZombieObject
 90
      499
 91
      510
 93
      428
310
42529A5D1D195C93D999914409028333333333333E3BF0000000000000FB010790141107004050150A41D405064090741402480A0350
1001
ACAD
1000
AcDbSavedByObjectVersion
1070
     0
  0
ACAD_PROXY_OBJECT
  5
1842A
102
{ACAD_REACTORS
330
1841C
102
}
330
1841C
100
AcDbZombieObject
 90
      499
 91
      510
 93
      444
310
42D31A5B995C185D1D195C9B90E409028333333333333E3BF0000000000000FB010790141107004050750841D405064090741402483A0350
1001
ACAD
1000
AcDbSavedByObjectVersion
1070
     0
  0
ACAD_PROXY_OBJECT
  5
195FE
102
{ACAD_REACTORS
330
1841C
102
}
330
1841C
100
AcDbZombieObject
 90
      499
 91
      510
 93
      484
310
42135BD9195B1A5B99D0A409038333333333333E33F0000000000000F901074090290700405010000000000201990108421405064090741402480A1B40
1001
ACAD
1000
AcDbSavedByObjectVersion
1070
     0
  0
ACAD_PROXY_OBJECT
  5
19572
102
{ACAD_REACTORS
330
1841C
102
}
330
1841C
100
AcDbZombieObject
 90
      499
 91
      510
 93
      444
310
42D3DD995C9A185B99D3D999915409028333333333333E3BF0000000000000FB010790141107004050150941D405064090741402480A0350
1001
ACAD
1000
AcDbSavedByObjectVersion
1070
     0
  0
ACAD_PROXY_OBJECT
  5
18426
102
{ACAD_REACTORS
330
1841C
102
}
330
1841C
100
AcDbZombieObject
 90
      499
 91
      510
 93
      420
310
425499585B1A5CDD1A58D08409028333333333333E3BF0000000000000FB01079019070040501508421405064090741402480A1B40
1001
ACAD
1000
AcDbSavedByObjectVersion
1070
     0
  0
ACAD_PROXY_OBJECT
  5
195FD
102
{ACAD_REACTORS
330
1841C
102
}
330
1841C
100
AcDbZombieObject
 90
      499
 91
      510
 93
      420
310
4194DA1859195911B40902404333333333333E33F0000000000000F9010740A41107004050150800405405064090840C02480A0B40
1001
ACAD
1000
AcDbSavedByObjectVersion
1070
     0
  0
ACAD_PROXY_OBJECT
  5
195FC
102
{ACAD_REACTORS
330
1841C
102
}
330
1841C
100
AcDbZombieObject
 90
      499
 91
      510
 93
      516
310
4454DA18591959081DDA5D1A08195919D95CD1A40902404333333333333E33F0000000000000F901074090142907004050250800405405064090740C02480A0B40
1001
ACAD
1000
AcDbSavedByObjectVersion
1070
     0
  0
ACAD_PROXY_OBJECT
  5
195F9
102
{ACAD_REACTORS
330
1841C
102
}
330
1841C
100
AcDbZombieObject
 90
      499
 91
      510
 93
      532
310
4394DA1859195CC81BD98811DC985E5174090240C333333333333E33F0000000000000F901079024090741D01000000000000111010841D405064090740C02480A0340
1001
ACAD
1000
AcDbSavedByObjectVersion
1070
     0
  0
ACAD_PROXY_OBJECT
  5
195FA
102
{ACAD_REACTORS
330
1841C
102
}
330
1841C
100
AcDbZombieObject
 90
      499
 91
      510
 93
      476
310
41D4DAD95D18DA1E51840502408333333333333E33F0000000000000F901079024090741D01000000000000111010B41D405064090741802480A0340
1001
ACAD
1000
AcDbSavedByObjectVersion
1070
     0
  0
ACAD_PROXY_OBJECT
  5
18429
102
{ACAD_REACTORS
330
1841C
102
}
330
1841C
100
AcDbZombieObject
 90
      499
 91
      510
 93
      412
310
41D51A1A58DAD95B90D409028333333333333E3BF0000000000000FB010790141107004050150C41D405064090741402480A0350
1001
ACAD
1000
AcDbSavedByObjectVersion
1070
     0
  0
ACAD_PROXY_OBJECT
  5
195F7
102
{ACAD_REACTORS
330
1841C
102
}
330
1841C
100
AcDbZombieObject
 90
      499
 91
      510
 93
      420
310
4255DA5C99599C985B595059028333333333333E33F0000000000000F90107901411070040501600405405064090740C02480A0340
1001
ACAD
1000
AcDbSavedByObjectVersion
1070
     0
  0
ACAD_PROXY_OBJECT
  5
195FB
102
{ACAD_REACTORS
330
1841C
102
}
330
1841C
100
AcDbZombieObject
 90
      499
 91
      510
 93
      404
310
41560B54985E51940902404000000000000E03F0000000000000F9010740501907004050150841D405064090740C02480A1B40
1001
ACAD
1000
AcDbSavedByObjectVersion
1070
     0
  0
XRECORD
  5
1B386
102
{ACAD_REACTORS
330
1B385
102
}
330
1B385
100
AcDbXrecord
340
2D0
  0
XRECORD
  5
1B387
102
{ACAD_REACTORS
330
1B385
102
}
330
1B385
100
AcDbXrecord
340
2CF
  0
DICTIONARYVAR
  5
184FD
102
{ACAD_REACTORS
330
37
102
}
330
37
100
DictionaryVariables
280
     0
  1
1:1
  0
DICTIONARYVAR
  5
184FC
102
{ACAD_REACTORS
330
37
102
}
330
37
100
DictionaryVariables
280
     0
  1
Standard
  0
DICTIONARYVAR
  5
4F1
102
{ACAD_REACTORS
330
37
102
}
330
37
100
DictionaryVariables
280
     0
  1
Standard
  0
DICTIONARYVAR
  5
38
102
{ACAD_REACTORS
330
37
102
}
330
37
100
DictionaryVariables
280
     0
  1
-1
  0
DICTIONARYVAR
  5
408
102
{ACAD_REACTORS
330
37
102
}
330
37
100
DictionaryVariables
280
     0
  1
2
  0
DICTIONARYVAR
  5
1891
102
{ACAD_REACTORS
330
37
102
}
330
37
100
DictionaryVariables
280
     0
  1
1
  0
DICTIONARYVAR
  5
184FF
102
{ACAD_REACTORS
330
37
102
}
330
37
100
DictionaryVariables
280
     0
  1
0
  0
DICTIONARYVAR
  5
1895
102
{ACAD_REACTORS
330
37
102
}
330
37
100
DictionaryVariables
280
     0
  1
8
  0
DICTIONARYVAR
  5
1894
102
{ACAD_REACTORS
330
37
102
}
330
37
100
DictionaryVariables
280
     0
  1
1
  0
DICTIONARYVAR
  5
1A5DF
102
{ACAD_REACTORS
330
37
102
}
330
37
100
DictionaryVariables
280
     0
  1
0
  0
DICTIONARYVAR
  5
1892
102
{ACAD_REACTORS
330
37
102
}
330
37
100
DictionaryVariables
280
     0
  1
8
  0
DICTIONARYVAR
  5
1893
102
{ACAD_REACTORS
330
37
102
}
330
37
100
DictionaryVariables
280
     0
  1
2
  0
DICTIONARYVAR
  5
409
102
{ACAD_REACTORS
330
37
102
}
330
37
100
DictionaryVariables
280
     0
  1

  0
DICTIONARYVAR
  5
184FE
102
{ACAD_REACTORS
330
37
102
}
330
37
100
DictionaryVariables
280
     0
  1
127
  0
DICTIONARYVAR
  5
195F6
102
{ACAD_REACTORS
330
37
102
}
330
37
100
DictionaryVariables
280
     0
  1
2
  0
DICTIONARY
  5
1B523
330
1840C
100
AcDbDictionary
  3
ACAD_XREC_ROUNDTRIP
360
1B524
1001
ACAD
1000
TREAT_AS_HARD
1070
     1
  0
DICTIONARY
  5
1B525
330
18404
100
AcDbDictionary
  3
ACAD_XREC_ROUNDTRIP
360
1B526
1001
ACAD
1000
TREAT_AS_HARD
1070
     1
  0
DICTIONARY
  5
1B527
330
18414
100
AcDbDictionary
  3
ACAD_XREC_ROUNDTRIP
360
1B528
1001
ACAD
1000
TREAT_AS_HARD
1070
     1
  0
XRECORD
  5
1B524
102
{ACAD_REACTORS
330
1B523
102
}
330
1B523
100
AcDbXrecord
102
MATERIAL
148
0.0
149
0.0
149
0.0
 93
        0
 94
      127
282
     0
 72
     0
 77
     0
171
     0
175
     0
179
     0
273
     0
  0
XRECORD
  5
1B526
102
{ACAD_REACTORS
330
1B525
102
}
330
1B525
100
AcDbXrecord
102
MATERIAL
148
0.0
149
0.0
149
0.0
 93
        0
 94
      127
282
     0
 72
     0
 77
     0
171
     0
175
     0
179
     0
273
     0
  0
XRECORD
  5
1B528
102
{ACAD_REACTORS
330
1B527
102
}
330
1B527
100
AcDbXrecord
102
MATERIAL
148
0.0
149
0.0
149
0.0
 93
        0
 94
      127
282
     0
 72
     0
 77
     0
171
     0
175
     0
179
     0
273
     0
  0
ENDSEC
  0
EOF
