  0
SECTION
  2
HEADER
  9
$ACADVER
  1
AC1012
  9
$DWGCODEPAGE
  3
ansi_932
  9
$INSBASE
 10
0.0
 20
0.0
 30
0.0
  9
$EXTMIN
 10
124.6108828368281
 20
-58.6715409510841
 30
0.0
  9
$EXTMAX
 10
476.5407184358768
 20
220.5262242782147
 30
0.0
  9
$LIMMIN
 10
0.0
 20
0.0
  9
$LIMMAX
 10
420.0
 20
297.0
  9
$ORTHOMODE
 70
     0
  9
$REGENMODE
 70
     1
  9
$FILLMODE
 70
     1
  9
$QTEXTMODE
 70
     0
  9
$MIRRTEXT
 70
     0
  9
$DRAGMODE
 70
     2
  9
$LTSCALE
 40
0.5
  9
$OSMODE
 70
 14463
  9
$ATTMODE
 70
     1
  9
$TEXTSIZE
 40
4.0
  9
$TRACEWID
 40
1.0
  9
$TEXTSTYLE
  7
STANDARD
  9
$CLAYER
  8
1TEXT
  9
$CELTYPE
  6
BYLAYER
  9
$CECOLOR
 62
   256
  9
$CELTSCALE
 40
1.0
  9
$DELOBJ
 70
     1
  9
$DISPSILH
 70
     0
  9
$DIMSCALE
 40
1.0
  9
$DIMASZ
 40
2.0
  9
$DIMEXO
 40
0.0
  9
$DIMDLI
 40
7.0
  9
$DIMRND
 40
0.0
  9
$DIMDLE
 40
0.0
  9
$DIMEXE
 40
1.0
  9
$DIMTP
 40
0.0
  9
$DIMTM
 40
0.0
  9
$DIMTXT
 40
3.5
  9
$DIMCEN
 40
0.0
  9
$DIMTSZ
 40
0.0
  9
$DIMTOL
 70
     0
  9
$DIMLIM
 70
     0
  9
$DIMTIH
 70
     0
  9
$DIMTOH
 70
     0
  9
$DIMSE1
 70
     0
  9
$DIMSE2
 70
     0
  9
$DIMTAD
 70
     1
  9
$DIMZIN
 70
     8
  9
$DIMBLK
  1

  9
$DIMASO
 70
     1
  9
$DIMSHO
 70
     1
  9
$DIMPOST
  1
 
  9
$DIMAPOST
  1

  9
$DIMALT
 70
     0
  9
$DIMALTD
 70
     2
  9
$DIMALTF
 40
25.4
  9
$DIMLFAC
 40
1.0
  9
$DIMTOFL
 70
     1
  9
$DIMTVP
 40
0.0
  9
$DIMTIX
 70
     0
  9
$DIMSOXD
 70
     0
  9
$DIMSAH
 70
     1
  9
$DIMBLK1
  1
OPEN30
  9
$DIMBLK2
  1
OPEN30
  9
$DIMSTYLE
  2
NEWX10
  9
$DIMCLRD
 70
   256
  9
$DIMCLRE
 70
   256
  9
$DIMCLRT
 70
   201
  9
$DIMTFAC
 40
0.7
  9
$DIMGAP
 40
0.7
  9
$DIMJUST
 70
     0
  9
$DIMSD1
 70
     0
  9
$DIMSD2
 70
     0
  9
$DIMTOLJ
 70
     1
  9
$DIMTZIN
 70
     8
  9
$DIMALTZ
 70
     0
  9
$DIMALTTZ
 70
     0
  9
$DIMFIT
 70
     2
  9
$DIMUPT
 70
     0
  9
$DIMUNIT
 70
     2
  9
$DIMDEC
 70
     6
  9
$DIMTDEC
 70
     4
  9
$DIMALTU
 70
     2
  9
$DIMALTTD
 70
     2
  9
$DIMTXSTY
  7
STANDARD
  9
$DIMAUNIT
 70
     0
  9
$LUNITS
 70
     2
  9
$LUPREC
 70
     4
  9
$SKETCHINC
 40
1.0
  9
$FILLETRAD
 40
0.0
  9
$AUNITS
 70
     0
  9
$AUPREC
 70
     2
  9
$MENU
  1
acad
  9
$ELEVATION
 40
0.0
  9
$PELEVATION
 40
0.0
  9
$THICKNESS
 40
0.0
  9
$LIMCHECK
 70
     0
  9
$CHAMFERA
 40
10.0
  9
$CHAMFERB
 40
10.0
  9
$CHAMFERC
 40
20.0
  9
$CHAMFERD
 40
0.0
  9
$SKPOLY
 70
     0
  9
$TDCREATE
 40
2454396.769437928
  9
$TDUPDATE
 40
2458149.685900833
  9
$TDINDWG
 40
0.2406583102
  9
$TDUSRTIMER
 40
0.2406583102
  9
$USRTIMER
 70
     1
  9
$ANGBASE
 50
0.0
  9
$ANGDIR
 70
     0
  9
$PDMODE
 70
     0
  9
$PDSIZE
 40
0.0
  9
$PLINEWID
 40
0.0
  9
$COORDS
 70
     2
  9
$SPLFRAME
 70
     0
  9
$SPLINETYPE
 70
     6
  9
$SPLINESEGS
 70
     8
  9
$ATTDIA
 70
     0
  9
$ATTREQ
 70
     1
  9
$HANDLING
 70
     1
  9
$HANDSEED
  5
70A9
  9
$SURFTAB1
 70
     6
  9
$SURFTAB2
 70
     6
  9
$SURFTYPE
 70
     6
  9
$SURFU
 70
     6
  9
$SURFV
 70
     6
  9
$UCSNAME
  2

  9
$UCSORG
 10
0.0
 20
0.0
 30
0.0
  9
$UCSXDIR
 10
1.0
 20
0.0
 30
0.0
  9
$UCSYDIR
 10
0.0
 20
1.0
 30
0.0
  9
$PUCSNAME
  2

  9
$PUCSORG
 10
0.0
 20
0.0
 30
0.0
  9
$PUCSXDIR
 10
1.0
 20
0.0
 30
0.0
  9
$PUCSYDIR
 10
0.0
 20
1.0
 30
0.0
  9
$USERI1
 70
     0
  9
$USERI2
 70
     0
  9
$USERI3
 70
     0
  9
$USERI4
 70
     0
  9
$USERI5
 70
     0
  9
$USERR1
 40
0.0
  9
$USERR2
 40
0.0
  9
$USERR3
 40
0.0
  9
$USERR4
 40
0.0
  9
$USERR5
 40
0.0
  9
$WORLDVIEW
 70
     1
  9
$SHADEDGE
 70
     3
  9
$SHADEDIF
 70
    70
  9
$TILEMODE
 70
     1
  9
$MAXACTVP
 70
    48
  9
$PINSBASE
 10
0.0
 20
0.0
 30
0.0
  9
$PLIMCHECK
 70
     0
  9
$PEXTMIN
 10
1.000000000000000E+20
 20
1.000000000000000E+20
 30
1.000000000000000E+20
  9
$PEXTMAX
 10
-1.000000000000000E+20
 20
-1.000000000000000E+20
 30
-1.000000000000000E+20
  9
$PLIMMIN
 10
0.0
 20
0.0
  9
$PLIMMAX
 10
420.0
 20
297.0
  9
$UNITMODE
 70
     0
  9
$VISRETAIN
 70
     1
  9
$PLINEGEN
 70
     0
  9
$PSLTSCALE
 70
     1
  9
$TREEDEPTH
 70
  3020
  9
$PICKSTYLE
 70
     1
  9
$CMLSTYLE
  2
STANDARD
  9
$CMLJUST
 70
     0
  9
$CMLSCALE
 40
20.0
  9
$SAVEIMAGES
 70
     1
  0
ENDSEC
  0
SECTION
  2
CLASSES
  0
CLASS
  1
DICTIONARYVAR
  2
AcDbDictionaryVar
  3
ObjectDBX Classes
 90
        0
280
     0
281
     0
  0
CLASS
  1
IDBUFFER
  2
AcDbIdBuffer
  3
ObjectDBX Classes
 90
    32768
280
     0
281
     0
  0
CLASS
  1
LWPOLYLINE
  2
AcDbPolyline
  3
ObjectDBX Classes
 90
    32768
280
     0
281
     1
  0
CLASS
  1
ACDBDICTIONARYWDFLT
  2
AcDbDictionaryWithDefault
  3
ObjectDBX Classes
 90
    32768
280
     0
281
     0
  0
CLASS
  1
ACDBPLACEHOLDER
  2
AcDbPlaceHolder
  3
ObjectDBX Classes
 90
        0
280
     0
281
     0
  0
CLASS
  1
LAYOUT
  2
AcDbLayout
  3
ObjectDBX Classes
 90
        0
280
     0
281
     0
  0
CLASS
  1
TABLESTYLE
  2
AcDbTableStyle
  3
ObjectDBX Classes
 90
     4095
280
     0
281
     0
  0
CLASS
  1
SORTENTSTABLE
  2
AcDbSortentsTable
  3
ObjectDBX Classes
 90
    32768
280
     0
281
     0
  0
CLASS
  1
DIMASSOC
  2
AcDbDimAssoc
  3
"AcDbDimAssoc|Product Desc:     AcDim ARX App For Dimension|Company:          Autodesk, Inc.|WEB Address:      www.autodesk.com"
 90
        0
280
     0
281
     0
  0
CLASS
  1
MATERIAL
  2
AcDbMaterial
  3
ObjectDBX Classes
 90
     1153
280
     0
281
     0
  0
CLASS
  1
VISUALSTYLE
  2
AcDbVisualStyle
  3
ObjectDBX Classes
 90
     4095
280
     0
281
     0
  0
CLASS
  1
SCALE
  2
AcDbScale
  3
ObjectDBX Classes
 90
     1153
280
     0
281
     0
  0
CLASS
  1
MLEADERSTYLE
  2
AcDbMLeaderStyle
  3
ACDB_MLEADERSTYLE_CLASS
 90
     4095
280
     0
281
     0
  0
CLASS
  1
CELLSTYLEMAP
  2
AcDbCellStyleMap
  3
ObjectDBX Classes
 90
     1152
280
     0
281
     0
  0
CLASS
  1
SUN
  2
AcDbSun
  3
SCENEOE
 90
     1153
280
     0
281
     0
  0
CLASS
  1
XRECORD
  2
AcDbXrecord
  3
ObjectDBX Classes
 90
    32768
280
     0
281
     0
  0
CLASS
  1
HATCH
  2
AcDbHatch
  3
ObjectDBX Classes
 90
    32768
280
     0
281
     1
  0
ENDSEC
  0
SECTION
  2
TABLES
  0
TABLE
  2
VPORT
  5
8
330
0
100
AcDbSymbolTable
 70
     1
  0
VPORT
  5
5261
330
8
100
AcDbSymbolTableRecord
100
AcDbViewportTableRecord
  2
*ACTIVE
 70
     0
 10
0.0
 20
0.0
 11
1.0
 21
1.0
 12
300.5758006363525
 22
80.92734166356533
 13
0.0
 23
0.0
 14
10.0
 24
10.0
 15
10.0
 25
10.0
 16
0.0
 26
0.0
 36
1.0
 17
0.0
 27
0.0
 37
0.0
 40
299.7702321409314
 41
2.233782129742962
 42
50.0
 43
0.0
 44
0.0
 50
0.0
 51
0.0
 71
    16
 72
  1000
 73
     1
 74
     1
 75
     0
 76
     0
 77
     0
 78
     0
  0
ENDTAB
  0
TABLE
  2
LTYPE
  5
5
330
0
100
AcDbSymbolTable
 70
     5
  0
LTYPE
  5
12
330
5
100
AcDbSymbolTableRecord
100
AcDbLinetypeTableRecord
  2
BYBLOCK
 70
     0
  3

 72
    65
 73
     0
 40
0.0
  0
LTYPE
  5
13
330
5
100
AcDbSymbolTableRecord
100
AcDbLinetypeTableRecord
  2
BYLAYER
 70
     0
  3

 72
    65
 73
     0
 40
0.0
  0
LTYPE
  5
14
330
5
100
AcDbSymbolTableRecord
100
AcDbLinetypeTableRecord
  2
CONTINUOUS
 70
     0
  3
Solid line
 72
    65
 73
     0
 40
0.0
  0
LTYPE
  5
6A
330
5
100
AcDbSymbolTableRecord
100
AcDbLinetypeTableRecord
  2
XREF1|CENTER2
 70
    48
  3
Center (.5x) ___ _ ___ _ ___ _ ___ _ ___ _ ___
 72
    65
 73
     4
 40
28.575
 49
19.05
 74
     0
 49
-3.175
 74
     0
 49
3.175
 74
     0
 49
-3.175
 74
     0
  0
LTYPE
  5
100
330
5
100
AcDbSymbolTableRecord
100
AcDbLinetypeTableRecord
  2
PHANTOM2
 70
     0
  3
Phantom (0.5x) ___ _ _ ___ _ _ ___ _ _ ___ _ _
 72
    65
 73
     6
 40
31.75
 49
15.875
 74
     0
 49
-3.175
 74
     0
 49
3.175
 74
     0
 49
-3.175
 74
     0
 49
3.175
 74
     0
 49
-3.175
 74
     0
  0
LTYPE
  5
1BA7
330
5
100
AcDbSymbolTableRecord
100
AcDbLinetypeTableRecord
  2
A3WAKUDAKE|CENTER2
 70
    48
  3
Center (.5x) ___ _ ___ _ ___ _ ___ _ ___ _ ___
 72
    65
 73
     4
 40
28.575
 49
19.05
 74
     0
 49
-3.175
 74
     0
 49
3.175
 74
     0
 49
-3.175
 74
     0
  0
LTYPE
  5
54F9
330
5
100
AcDbSymbolTableRecord
100
AcDbLinetypeTableRecord
  2
CENTER2
 70
     0
  3
Center (.5x) ___ _ ___ _ ___ _ ___ _ ___ _ ___
 72
    65
 73
     4
 40
28.575
 49
19.05
 74
     0
 49
-3.175
 74
     0
 49
3.175
 74
     0
 49
-3.175
 74
     0
  0
ENDTAB
  0
TABLE
  2
LAYER
  5
2
102
{ACAD_XDICTIONARY
360
1D5D
102
}
330
0
100
AcDbSymbolTable
 70
    11
  0
LAYER
  5
E
102
{ACAD_XDICTIONARY
360
1C48
102
}
330
2
100
AcDbSymbolTableRecord
100
AcDbLayerTableRecord
  2
0
 70
     0
 62
     7
  6
CONTINUOUS
  0
LAYER
  5
29
102
{ACAD_XDICTIONARY
360
1C4A
102
}
330
2
100
AcDbSymbolTableRecord
100
AcDbLayerTableRecord
  2
1CENTER
 70
     0
 62
     7
  6
CENTER2
  0
LAYER
  5
31
102
{ACAD_XDICTIONARY
360
1C4C
102
}
330
2
100
AcDbSymbolTableRecord
100
AcDbLayerTableRecord
  2
1TEXT
 70
     0
 62
     7
  6
CONTINUOUS
  0
LAYER
  5
101
102
{ACAD_XDICTIONARY
360
1C56
102
}
330
2
100
AcDbSymbolTableRecord
100
AcDbLayerTableRecord
  2
1DIM
 70
     0
 62
     7
  6
CONTINUOUS
  0
LAYER
  5
103
102
{ACAD_XDICTIONARY
360
1C5A
102
}
330
2
100
AcDbSymbolTableRecord
100
AcDbLayerTableRecord
  2
1PHANTOM
 70
     0
 62
     7
  6
PHANTOM2
  0
LAYER
  5
25F
102
{ACAD_XDICTIONARY
360
1C5E
102
}
330
2
100
AcDbSymbolTableRecord
100
AcDbLayerTableRecord
  2
01
 70
     0
 62
     1
  6
CONTINUOUS
  0
LAYER
  5
26D
102
{ACAD_XDICTIONARY
360
1C7A
102
}
330
2
100
AcDbSymbolTableRecord
100
AcDbLayerTableRecord
  2
1HATCH
 70
     0
 62
     7
  6
CONTINUOUS
  0
LAYER
  5
1BA2
102
{ACAD_XDICTIONARY
360
1C92
102
}
330
2
100
AcDbSymbolTableRecord
100
AcDbLayerTableRecord
  2
A3WAKUDAKE|THICK
 70
    48
 62
     7
  6
CONTINUOUS
  0
LAYER
  5
1BA3
102
{ACAD_XDICTIONARY
360
1C94
102
}
330
2
100
AcDbSymbolTableRecord
100
AcDbLayerTableRecord
  2
A3WAKUDAKE|POINT
 70
    48
 62
     7
  6
CONTINUOUS
  0
LAYER
  5
1BA4
102
{ACAD_XDICTIONARY
360
1C96
102
}
330
2
100
AcDbSymbolTableRecord
100
AcDbLayerTableRecord
  2
A3WAKUDAKE|1CENTER
 70
    48
 62
     7
  6
A3WAKUDAKE|CENTER2
  0
LAYER
  5
1BA5
102
{ACAD_XDICTIONARY
360
1C98
102
}
330
2
100
AcDbSymbolTableRecord
100
AcDbLayerTableRecord
  2
A3WAKUDAKE|0-6
 70
    48
 62
     7
  6
CONTINUOUS
  0
ENDTAB
  0
TABLE
  2
STYLE
  5
3
330
0
100
AcDbSymbolTable
 70
     3
  0
STYLE
  5
F
330
3
100
AcDbSymbolTableRecord
100
AcDbTextStyleTableRecord
  2
STANDARD
 70
     0
 40
0.0
 41
1.0
 50
0.0
 71
     0
 42
4.0
  3
txt.shx
  4
extfont.shx
  0
STYLE
  5
6574
330
3
100
AcDbSymbolTableRecord
100
AcDbTextStyleTableRecord
  2
A3WAKUDAKE|STANDARD
 70
    48
 40
0.0
 41
1.0
 50
0.0
 71
     0
 42
4.0
  3
romans.shx
  4
extfont.shx
  0
STYLE
  5
659C
330
3
100
AcDbSymbolTableRecord
100
AcDbTextStyleTableRecord
  2
XREF1|STANDARD
 70
    48
 40
0.0
 41
1.0
 50
0.0
 71
     0
 42
4.0
  3
romans.shx
  4
extfont.shx
  0
ENDTAB
  0
TABLE
  2
VIEW
  5
6
330
0
100
AcDbSymbolTable
 70
     0
  0
ENDTAB
  0
TABLE
  2
UCS
  5
7
330
0
100
AcDbSymbolTable
 70
     0
  0
ENDTAB
  0
TABLE
  2
APPID
  5
9
330
0
100
AcDbSymbolTable
 70
    19
  0
APPID
  5
10
330
9
100
AcDbSymbolTableRecord
100
AcDbRegAppTableRecord
  2
ACAD
 70
     0
  0
APPID
  5
21
330
9
100
AcDbSymbolTableRecord
100
AcDbRegAppTableRecord
  2
DRAWINGVARIABLESXDATA
 70
     0
  0
APPID
  5
64
330
9
100
AcDbSymbolTableRecord
100
AcDbRegAppTableRecord
  2
CONTENTTABDATA
 70
     0
  0
APPID
  5
65
330
9
100
AcDbSymbolTableRecord
100
AcDbRegAppTableRecord
  2
CONTENTCURRENTTAB
 70
     0
  0
APPID
  5
66
330
9
100
AcDbSymbolTableRecord
100
AcDbRegAppTableRecord
  2
CONTENTBLOCKDESCRIPTION
 70
     0
  0
APPID
  5
67
330
9
100
AcDbSymbolTableRecord
100
AcDbRegAppTableRecord
  2
CONTENTBLOCKICON
 70
     0
  0
APPID
  5
68
330
9
100
AcDbSymbolTableRecord
100
AcDbRegAppTableRecord
  2
CONTENTLONGBLOCKNAME
 70
     0
  0
APPID
  5
156D
330
9
100
AcDbSymbolTableRecord
100
AcDbRegAppTableRecord
  2
ACAD_PSEXT
 70
     0
  0
APPID
  5
1C33
330
9
100
AcDbSymbolTableRecord
100
AcDbRegAppTableRecord
  2
ACAD_MLEADERVER
 70
     0
  0
APPID
  5
1D5C
330
9
100
AcDbSymbolTableRecord
100
AcDbRegAppTableRecord
  2
ACAD_DSTYLE_DIMJOGGED_JOGA
 70
     0
  0
APPID
  5
3D5C
330
9
100
AcDbSymbolTableRecord
100
AcDbRegAppTableRecord
  2
ACAD_DSTYLE_DIMJAG
 70
     0
  0
APPID
  5
3D5D
330
9
100
AcDbSymbolTableRecord
100
AcDbRegAppTableRecord
  2
ACAD_DSTYLE_DIMTALN
 70
     0
  0
APPID
  5
441F
330
9
100
AcDbSymbolTableRecord
100
AcDbRegAppTableRecord
  2
ACAD_DSTYLE_DIMRADIAL_EXTE
 70
     0
  0
APPID
  5
4D82
330
9
100
AcDbSymbolTableRecord
100
AcDbRegAppTableRecord
  2
ACADANNOTATIVE
 70
     0
  0
APPID
  5
5018
330
9
100
AcDbSymbolTableRecord
100
AcDbRegAppTableRecord
  2
ACAD_DIMASSOC_CALC_DIMLFAC
 70
     0
  0
APPID
  5
5019
330
9
100
AcDbSymbolTableRecord
100
AcDbRegAppTableRecord
  2
ACAD_DIMASSOC_DIMLFAC
 70
     0
  0
APPID
  5
501A
330
9
100
AcDbSymbolTableRecord
100
AcDbRegAppTableRecord
  2
ACAD_DIMASSOC_OVERRIDDEN_D
 70
     0
  0
APPID
  5
64BE
330
9
100
AcDbSymbolTableRecord
100
AcDbRegAppTableRecord
  2
ACAD_EXEMPT_FROM_CAD_STAND
 70
     0
  0
APPID
  5
65E4
330
9
100
AcDbSymbolTableRecord
100
AcDbRegAppTableRecord
  2
ACDBBLOCKREPETAG
 70
     0
  0
ENDTAB
  0
TABLE
  2
DIMSTYLE
  5
A
330
0
100
AcDbSymbolTable
 70
     1
  0
DIMSTYLE
105
48
102
{ACAD_REACTORS
102
}
330
A
100
AcDbSymbolTableRecord
100
AcDbDimStyleTableRecord
  2
NEWX10
 70
     0
  3
 
  4

  5

  6
OPEN30
  7
OPEN30
 40
1.0
 41
2.0
 42
0.0
 43
7.0
 44
1.0
 45
0.0
 46
0.0
 47
0.0
 48
0.0
140
3.5
141
0.0
142
0.0
143
25.4
144
1.0
145
0.0
146
0.7
147
0.7
 71
     0
 72
     0
 73
     0
 74
     0
 75
     0
 76
     0
 77
     1
 78
     8
170
     0
171
     2
172
     1
173
     1
174
     0
175
     0
176
   256
177
   256
178
   201
179
     3
270
     2
271
     6
272
     4
273
     2
274
     2
340
F
275
     0
280
     0
281
     0
282
     0
283
     1
284
     8
285
     0
286
     0
287
     2
288
     0
1001
ACAD_DSTYLE_DIMJAG
1070
   388
1040
1.5
1001
ACAD_DSTYLE_DIMTALN
1070
   392
1070
     0
  0
ENDTAB
  0
TABLE
  2
BLOCK_RECORD
  5
1
330
0
100
AcDbSymbolTable
 70
    10
  0
BLOCK_RECORD
  5
18
102
{ACAD_XDICTIONARY
360
510
102
}
330
1
100
AcDbSymbolTableRecord
100
AcDbBlockTableRecord
  2
*MODEL_SPACE
  0
BLOCK_RECORD
  5
15
330
1
100
AcDbSymbolTableRecord
100
AcDbBlockTableRecord
  2
*PAPER_SPACE
  0
BLOCK_RECORD
  5
42
330
1
100
AcDbSymbolTableRecord
100
AcDbBlockTableRecord
  2
_OPEN30
  0
BLOCK_RECORD
  5
5B
330
1
100
AcDbSymbolTableRecord
100
AcDbBlockTableRecord
  2
XREF1
  0
BLOCK_RECORD
  5
1B9F
330
1
100
AcDbSymbolTableRecord
100
AcDbBlockTableRecord
  2
A3WAKUDAKE
  0
BLOCK_RECORD
  5
6634
330
1
100
AcDbSymbolTableRecord
100
AcDbBlockTableRecord
  2
A3WAKUKAWAJUN2017_HYOUDAI_
  0
BLOCK_RECORD
  5
6F09
330
1
100
AcDbSymbolTableRecord
100
AcDbBlockTableRecord
  2
*X30
  0
BLOCK_RECORD
  5
6F57
330
1
100
AcDbSymbolTableRecord
100
AcDbBlockTableRecord
  2
*X31
  0
BLOCK_RECORD
  5
6FA9
330
1
100
AcDbSymbolTableRecord
100
AcDbBlockTableRecord
  2
*X32
  0
BLOCK_RECORD
  5
6FFA
330
1
100
AcDbSymbolTableRecord
100
AcDbBlockTableRecord
  2
*X33
  0
BLOCK_RECORD
  5
7037
330
1
100
AcDbSymbolTableRecord
100
AcDbBlockTableRecord
  2
*X34
  0
BLOCK_RECORD
  5
7077
330
1
100
AcDbSymbolTableRecord
100
AcDbBlockTableRecord
  2
*X35
  0
ENDTAB
  0
ENDSEC
  0
SECTION
  2
BLOCKS
  0
BLOCK
  5
19
330
18
100
AcDbEntity
  8
0
100
AcDbBlockBegin
  2
*MODEL_SPACE
 70
     0
 10
0.0
 20
0.0
 30
0.0
  3
*MODEL_SPACE
  1

  0
ENDBLK
  5
1A
330
18
100
AcDbEntity
  8
0
100
AcDbBlockEnd
  0
BLOCK
  5
16
330
15
100
AcDbEntity
 67
     1
  8
0
100
AcDbBlockBegin
  2
*PAPER_SPACE
 70
     0
 10
0.0
 20
0.0
 30
0.0
  3
*PAPER_SPACE
  1

  0
ENDBLK
  5
17
330
15
100
AcDbEntity
 67
     1
  8
0
100
AcDbBlockEnd
  0
BLOCK
  5
43
330
42
100
AcDbEntity
  8
0
100
AcDbBlockBegin
  2
_OPEN30
 70
     0
 10
0.0
 20
0.0
 30
0.0
  3
_OPEN30
  1

  0
LINE
  5
44
330
42
100
AcDbEntity
  8
0
  6
BYBLOCK
 62
     0
100
AcDbLine
 10
-1.0
 20
0.26794919
 30
0.0
 11
0.0
 21
0.0
 31
0.0
  0
LINE
  5
45
330
42
100
AcDbEntity
  8
0
  6
BYBLOCK
 62
     0
100
AcDbLine
 10
0.0
 20
0.0
 30
0.0
 11
-1.0
 21
-0.26794919
 31
0.0
  0
LINE
  5
46
330
42
100
AcDbEntity
  8
0
  6
BYBLOCK
 62
     0
100
AcDbLine
 10
0.0
 20
0.0
 30
0.0
 11
-1.0
 21
0.0
 31
0.0
  0
ENDBLK
  5
47
330
42
100
AcDbEntity
  8
0
100
AcDbBlockEnd
  0
BLOCK
  5
5C
330
5B
100
AcDbEntity
  8
0
100
AcDbBlockBegin
  2
XREF1
 70
    36
 10
0.0
 20
0.0
 30
0.0
  3
XREF1
  1
D:\ACLT\FORMAT\KAWAJUN(9)図面用.dwg
  0
ENDBLK
  5
5D
330
5B
100
AcDbEntity
  8
0
100
AcDbBlockEnd
  0
BLOCK
  5
1BA0
330
1B9F
100
AcDbEntity
  8
0
100
AcDbBlockBegin
  2
A3WAKUDAKE
 70
    36
 10
0.0
 20
0.0
 30
0.0
  3
A3WAKUDAKE
  1
D:\ACLT\FORMAT\A3WAKUdake.dwg
  0
ENDBLK
  5
1BA1
330
1B9F
100
AcDbEntity
  8
0
100
AcDbBlockEnd
  0
BLOCK
  5
6D33
330
6634
100
AcDbEntity
  8
0
100
AcDbBlockBegin
  2
A3WAKUKAWAJUN2017_HYOUDAI_
 70
     0
 10
0.0
 20
0.0
 30
0.0
  3
A3WAKUKAWAJUN2017_HYOUDAI_
  1

  0
LINE
  5
6636
330
6634
100
AcDbEntity
  8
0
100
AcDbLine
 10
13.26299999998673
 20
-0.0001000000000317
 30
0.0
 11
9.236999999990758
 21
8.999899999990987
 31
0.0
1001
ACAD
1000
ASC_BOUNDS
1002
{
1070
    19
1005
6677
1002
}
  0
LINE
  5
6637
330
6634
100
AcDbEntity
  8
0
100
AcDbLine
 10
5.657999999994331
 20
0.9999999999989768
 30
0.0
 11
9.236999999990758
 21
8.999999999991019
 31
0.0
1001
ACAD
1000
ASC_BOUNDS
1002
{
1070
    19
1005
6677
1002
}
  0
LINE
  5
6638
330
6634
100
AcDbEntity
  8
0
100
AcDbLine
 10
18.59199999998134
 20
-0.2368999999997641
 30
0.0
 11
16.46099999998353
 21
5.432899999994561
 31
0.0
1001
ACAD
1000
ASC_BOUNDS
1002
{
1070
    19
1005
6678
1002
}
  0
LINE
  5
6639
330
6634
100
AcDbEntity
  8
0
100
AcDbLine
 10
18.59199999998134
 20
-0.2368999999997641
 30
0.0
 11
22.38199999997767
 21
8.763099999991255
 31
0.0
1001
ACAD
1000
ASC_BOUNDS
1002
{
1070
    19
1005
6678
1002
}
  0
LINE
  5
663A
330
6634
100
AcDbEntity
  8
0
100
AcDbLine
 10
14.32899999998563
 20
-0.2368999999997641
 30
0.0
 11
16.46099999998353
 21
5.432899999994561
 31
0.0
1001
ACAD
1000
ASC_BOUNDS
1002
{
1070
    19
1005
6678
1002
}
  0
LINE
  5
663B
330
6634
100
AcDbEntity
  8
0
100
AcDbLine
 10
14.32899999998563
 20
-0.2368999999997641
 30
0.0
 11
10.53899999998941
 21
8.763099999991255
 31
0.0
1001
ACAD
1000
ASC_BOUNDS
1002
{
1070
    19
1005
6678
1002
}
  0
LINE
  5
663C
330
6634
100
AcDbEntity
  8
0
100
AcDbLine
 10
19.53899999998043
 20
-0.0001000000000317
 30
0.0
 11
23.56599999997638
 21
8.999899999990987
 31
0.0
1001
ACAD
1000
ASC_BOUNDS
1002
{
1070
    19
1005
6679
1002
}
  0
LINE
  5
663D
330
6634
100
AcDbEntity
  8
0
100
AcDbLine
 10
26.97358892824991
 20
1.383099999991202
 30
0.0
 11
23.56599999997638
 21
8.999899999990987
 31
0.0
1001
ACAD
1000
ASC_BOUNDS
1002
{
1070
    19
1005
6679
1002
}
  0
LINE
  5
663E
330
6634
100
AcDbEntity
  8
0
100
AcDbLine
 10
5.657999999994331
 20
0.9999999999989768
 30
0.0
 11
3.181999999996833
 21
4.668599999995308
 31
0.0
1001
ACAD
1000
ASC_BOUNDS
1002
{
1070
    19
1005
6677
1002
}
  0
LINE
  5
663F
330
6634
100
AcDbEntity
  8
0
100
AcDbLine
 10
4.617999999995391
 20
-0.0001000000000317
 30
0.0
 11
1.420999999998571
 21
4.736799999995242
 31
0.0
1001
ACAD
1000
ASC_BOUNDS
1002
{
1070
    19
1005
6677
1002
}
  0
LINE
  5
6640
330
6634
100
AcDbEntity
  8
0
100
AcDbLine
 10
1.420999999998571
 20
8.763099999991255
 30
0.0
 11
1.420999999998571
 21
0.0
 31
0.0
1001
ACAD
1000
ASC_BOUNDS
1002
{
1070
    19
1005
667C
1002
}
  0
LINE
  5
6641
330
6634
100
AcDbEntity
  8
0
100
AcDbLine
 10
0.0
 20
8.763099999991255
 30
0.0
 11
0.0
 21
0.0
 31
0.0
1001
ACAD
1000
ASC_BOUNDS
1002
{
1070
    19
1005
667C
1002
}
  0
LINE
  5
6642
330
6634
100
AcDbEntity
  8
0
100
AcDbLine
 10
6.766999999993232
 20
-0.0001000000000317
 30
0.0
 11
7.826999999992154
 21
2.368399999997621
 31
0.0
1001
ACAD
1000
ASC_BOUNDS
1002
{
1070
    19
1005
6677
1002
}
  0
LINE
  5
6643
330
6634
100
AcDbEntity
  8
0
100
AcDbLine
 10
0.0
 20
0.0
 30
0.0
 11
1.420999999998571
 21
0.0
 31
0.0
1001
ACAD
1000
ASC_BOUNDS
1002
{
1070
    19
1005
667C
1002
}
  0
LINE
  5
6644
330
6634
100
AcDbEntity
  8
0
100
AcDbLine
 10
4.617999999995391
 20
0.0
 30
0.0
 11
6.766999999993232
 21
0.0
 31
0.0
1001
ACAD
1000
ASC_BOUNDS
1002
{
1070
    19
1005
6677
1002
}
  0
LINE
  5
6645
330
6634
100
AcDbEntity
  8
0
100
AcDbLine
 10
11.70599999998831
 20
-0.0001000000000317
 30
0.0
 11
10.64699999998936
 21
2.368399999997621
 31
0.0
1001
ACAD
1000
ASC_BOUNDS
1002
{
1070
    19
1005
6677
1002
}
  0
LINE
  5
6646
330
6634
100
AcDbEntity
  8
0
100
AcDbLine
 10
7.826999999992154
 20
2.368399999997621
 30
0.0
 11
10.64699999998936
 21
2.368399999997621
 31
0.0
1001
ACAD
1000
ASC_BOUNDS
1002
{
1070
    19
1005
6677
1002
}
  0
LINE
  5
6647
330
6634
100
AcDbEntity
  8
0
100
AcDbLine
 10
11.70599999998831
 20
0.0
 30
0.0
 11
13.26299999998673
 21
0.0
 31
0.0
1001
ACAD
1000
ASC_BOUNDS
1002
{
1070
    19
1005
6677
1002
}
  0
LINE
  5
6648
330
6634
100
AcDbEntity
  8
0
100
AcDbLine
 10
22.15599999997789
 20
2.368399999997621
 30
0.0
 11
24.97599999997499
 21
2.368399999997621
 31
0.0
1001
ACAD
1000
ASC_BOUNDS
1002
{
1070
    19
1005
6679
1002
}
  0
LINE
  5
6649
330
6634
100
AcDbEntity
  8
0
100
AcDbLine
 10
19.53899999998043
 20
0.0
 30
0.0
 11
21.09599999997886
 21
0.0
 31
0.0
1001
ACAD
1000
ASC_BOUNDS
1002
{
1070
    19
1005
6679
1002
}
  0
LINE
  5
664A
330
6634
100
AcDbEntity
  8
0
100
AcDbLine
 10
21.09599999997886
 20
-0.0001000000000317
 30
0.0
 11
22.15599999997789
 21
2.368399999997621
 31
0.0
1001
ACAD
1000
ASC_BOUNDS
1002
{
1070
    19
1005
6679
1002
}
  0
LINE
  5
664B
330
6634
100
AcDbEntity
  8
0
100
AcDbLine
 10
26.02015566812236
 20
0.0330999999912365
 30
0.0
 11
24.97599999997499
 21
2.368399999997621
 31
0.0
1001
ACAD
1000
ASC_BOUNDS
1002
{
1070
    19
1005
6679
1002
}
  0
LINE
  5
664C
330
6634
100
AcDbEntity
  8
0
100
AcDbLine
 10
14.32399999998563
 20
3.315799999996671
 30
0.0
 11
16.46099999998353
 21
8.999899999990987
 31
0.0
1001
ACAD
1000
ASC_BOUNDS
1002
{
1070
    19
1005
6678
1002
}
  0
LINE
  5
664D
330
6634
100
AcDbEntity
  8
0
100
AcDbLine
 10
6.432999999993513
 20
8.763099999991255
 30
0.0
 11
3.181999999996833
 21
4.668599999995308
 31
0.0
1001
ACAD
1000
ASC_BOUNDS
1002
{
1070
    19
1005
6677
1002
}
  0
LINE
  5
664E
330
6634
100
AcDbEntity
  8
0
100
AcDbLine
 10
4.617999999995391
 20
8.763099999991255
 30
0.0
 11
1.420999999998571
 21
4.736799999995242
 31
0.0
1001
ACAD
1000
ASC_BOUNDS
1002
{
1070
    19
1005
6677
1002
}
  0
LINE
  5
664F
330
6634
100
AcDbEntity
  8
0
100
AcDbLine
 10
0.0
 20
8.763099999991255
 30
0.0
 11
1.420999999998571
 21
8.763099999991255
 31
0.0
1001
ACAD
1000
ASC_BOUNDS
1002
{
1070
    19
1005
667C
1002
}
  0
LINE
  5
6650
330
6634
100
AcDbEntity
  8
0
100
AcDbLine
 10
4.617999999995391
 20
8.763099999991255
 30
0.0
 11
6.432999999993513
 21
8.763099999991255
 31
0.0
1001
ACAD
1000
ASC_BOUNDS
1002
{
1070
    19
1005
6677
1002
}
  0
LINE
  5
6651
330
6634
100
AcDbEntity
  8
0
100
AcDbLine
 10
14.32399999998563
 20
3.315799999996671
 30
0.0
 11
12.02999999998792
 21
8.763099999991255
 31
0.0
1001
ACAD
1000
ASC_BOUNDS
1002
{
1070
    19
1005
6678
1002
}
  0
LINE
  5
6652
330
6634
100
AcDbEntity
  8
0
100
AcDbLine
 10
10.06399999998996
 20
3.670999999996297
 30
0.0
 11
9.236999999990758
 21
5.5200999999945
 31
0.0
1001
ACAD
1000
ASC_BOUNDS
1002
{
1070
    19
1005
6677
1002
}
  0
LINE
  5
6653
330
6634
100
AcDbEntity
  8
0
100
AcDbLine
 10
8.409999999991555
 20
3.670999999996297
 30
0.0
 11
9.236999999990758
 21
5.5200999999945
 31
0.0
1001
ACAD
1000
ASC_BOUNDS
1002
{
1070
    19
1005
6677
1002
}
  0
LINE
  5
6654
330
6634
100
AcDbEntity
  8
0
100
AcDbLine
 10
8.409999999991555
 20
3.670999999996297
 30
0.0
 11
10.06399999998996
 21
3.670999999996297
 31
0.0
1001
ACAD
1000
ASC_BOUNDS
1002
{
1070
    19
1005
6677
1002
}
  0
LINE
  5
6655
330
6634
100
AcDbEntity
  8
0
100
AcDbLine
 10
10.53899999998941
 20
8.763099999991255
 30
0.0
 11
12.02999999998792
 21
8.763099999991255
 31
0.0
1001
ACAD
1000
ASC_BOUNDS
1002
{
1070
    19
1005
6678
1002
}
  0
LINE
  5
6656
330
6634
100
AcDbEntity
  8
0
100
AcDbLine
 10
22.7389999999773
 20
3.670999999996297
 30
0.0
 11
23.56599999997638
 21
5.5200999999945
 31
0.0
1001
ACAD
1000
ASC_BOUNDS
1002
{
1070
    19
1005
6679
1002
}
  0
LINE
  5
6657
330
6634
100
AcDbEntity
  8
0
100
AcDbLine
 10
22.7389999999773
 20
3.670999999996297
 30
0.0
 11
24.39299999997559
 21
3.670999999996297
 31
0.0
1001
ACAD
1000
ASC_BOUNDS
1002
{
1070
    19
1005
6679
1002
}
  0
LINE
  5
6658
330
6634
100
AcDbEntity
  8
0
100
AcDbLine
 10
18.59799999998143
 20
3.315799999996671
 30
0.0
 11
20.89099999997916
 21
8.763099999991255
 31
0.0
1001
ACAD
1000
ASC_BOUNDS
1002
{
1070
    19
1005
6678
1002
}
  0
LINE
  5
6659
330
6634
100
AcDbEntity
  8
0
100
AcDbLine
 10
18.59799999998143
 20
3.315799999996671
 30
0.0
 11
16.46099999998353
 21
8.999899999990987
 31
0.0
1001
ACAD
1000
ASC_BOUNDS
1002
{
1070
    19
1005
6678
1002
}
  0
LINE
  5
665A
330
6634
100
AcDbEntity
  8
0
100
AcDbLine
 10
20.89099999997916
 20
8.763099999991255
 30
0.0
 11
22.38199999997767
 21
8.763099999991255
 31
0.0
1001
ACAD
1000
ASC_BOUNDS
1002
{
1070
    19
1005
6678
1002
}
  0
LINE
  5
665B
330
6634
100
AcDbEntity
  8
0
100
AcDbLine
 10
24.39299999997559
 20
3.670999999996297
 30
0.0
 11
23.56599999997638
 21
5.5200999999945
 31
0.0
1001
ACAD
1000
ASC_BOUNDS
1002
{
1070
    19
1005
6679
1002
}
  0
LINE
  5
665C
330
6634
100
AcDbEntity
  8
0
100
AcDbLine
 10
44.99999999995498
 20
-0.2368999999997641
 30
0.0
 11
40.02599999995994
 21
5.341799999994635
 31
0.0
1001
ACAD
1000
ASC_BOUNDS
1002
{
1070
    19
1005
667B
1002
}
  0
LINE
  5
665D
330
6634
100
AcDbEntity
  8
0
100
AcDbLine
 10
40.02599999995994
 20
5.341799999994635
 30
0.0
 11
40.02599999995994
 21
0.0
 31
0.0
1001
ACAD
1000
ASC_BOUNDS
1002
{
1070
    19
1005
667B
1002
}
  0
LINE
  5
665E
330
6634
100
AcDbEntity
  8
0
100
AcDbLine
 10
38.60499999996136
 20
8.999999999991019
 30
0.0
 11
38.60499999996136
 21
0.0
 31
0.0
1001
ACAD
1000
ASC_BOUNDS
1002
{
1070
    19
1005
667B
1002
}
  0
LINE
  5
665F
330
6634
100
AcDbEntity
  8
0
100
AcDbLine
 10
44.99999999995498
 20
8.763099999991255
 30
0.0
 11
44.99999999995498
 21
-0.2368999999997641
 31
0.0
1001
ACAD
1000
ASC_BOUNDS
1002
{
1070
    19
1005
667B
1002
}
  0
LINE
  5
6660
330
6634
100
AcDbEntity
  8
0
100
AcDbLine
 10
38.60499999996136
 20
0.0
 30
0.0
 11
40.02599999995994
 21
0.0
 31
0.0
1001
ACAD
1000
ASC_BOUNDS
1002
{
1070
    19
1005
667B
1002
}
  0
LINE
  5
6661
330
6634
100
AcDbEntity
  8
0
100
AcDbLine
 10
43.57899999995641
 20
3.421199999996588
 30
0.0
 11
38.60499999996136
 21
8.999899999990987
 31
0.0
1001
ACAD
1000
ASC_BOUNDS
1002
{
1070
    19
1005
667B
1002
}
  0
LINE
  5
6662
330
6634
100
AcDbEntity
  8
0
100
AcDbLine
 10
43.57899999995641
 20
8.763099999991255
 30
0.0
 11
43.57899999995641
 21
3.421199999996588
 31
0.0
1001
ACAD
1000
ASC_BOUNDS
1002
{
1070
    19
1005
667B
1002
}
  0
LINE
  5
6663
330
6634
100
AcDbEntity
  8
0
100
AcDbLine
 10
43.57899999995641
 20
8.763099999991255
 30
0.0
 11
44.99999999995498
 21
8.763099999991255
 31
0.0
1001
ACAD
1000
ASC_BOUNDS
1002
{
1070
    19
1005
667B
1002
}
  0
LINE
  5
6664
330
6634
100
AcDbEntity
  8
0
100
AcDbLine
 10
37.67199999996831
 20
8.763099999991255
 30
0.0
 11
36.23199999996837
 21
8.763099999991255
 31
0.0
  0
LINE
  5
6665
330
6634
100
AcDbEntity
  8
0
100
AcDbLine
 10
31.64199999996833
 20
8.763099999991255
 30
0.0
 11
31.64199999996833
 21
2.481619422925121
 31
0.0
  0
LINE
  5
6666
330
6634
100
AcDbEntity
  8
0
100
AcDbLine
 10
37.67199999996831
 20
8.763099999991255
 30
0.0
 11
37.67199999996831
 21
2.481619422925121
 31
0.0
  0
LINE
  5
6667
330
6634
100
AcDbEntity
  8
0
100
AcDbLine
 10
36.23199999996837
 20
8.763099999991255
 30
0.0
 11
36.23199999996837
 21
2.481619422925064
 31
0.0
  0
LINE
  5
6668
330
6634
100
AcDbEntity
  8
0
100
AcDbLine
 10
33.08199999996839
 20
8.763099999991255
 30
0.0
 11
33.08199999996839
 21
2.481619422925121
 31
0.0
  0
ARC
  5
6669
330
6634
100
AcDbEntity
  8
0
100
AcDbCircle
 10
34.65699999996832
 20
3.183099999991214
 30
0.0
 40
3.420000000000007
100
AcDbArc
 50
240.0000000000255
 51
299.9999999999766
  0
ARC
  5
666A
330
6634
100
AcDbEntity
  8
0
100
AcDbCircle
 10
34.65699999996832
 20
3.183099999991214
 30
0.0
 40
1.97999999999999
100
AcDbArc
 50
240.000000000026
 51
299.9999999999703
  0
LINE
  5
666B
330
6634
100
AcDbEntity
  8
0
100
AcDbLine
 10
33.08199999996828
 20
8.763099999991255
 30
0.0
 11
31.64199999996833
 21
8.763099999991255
 31
0.0
  0
ARC
  5
666C
330
6634
100
AcDbEntity
  8
0
100
AcDbCircle
 10
35.06199999996829
 20
2.481619422925064
 30
0.0
 40
1.17
100
AcDbArc
 50
299.9999999999699
 51
0.0
  0
ARC
  5
666D
330
6634
100
AcDbEntity
  8
0
100
AcDbCircle
 10
34.25199999996835
 20
2.481619422925121
 30
0.0
 40
1.17
100
AcDbArc
 50
180.0
 51
240.0000000000238
  0
ARC
  5
666E
330
6634
100
AcDbEntity
  8
0
100
AcDbCircle
 10
35.06199999996841
 20
2.481619422925121
 30
0.0
 40
2.61
100
AcDbArc
 50
299.9999999999756
 51
0.0
  0
ARC
  5
666F
330
6634
100
AcDbEntity
  8
0
100
AcDbCircle
 10
34.25199999996835
 20
2.481619422925121
 30
0.0
 40
2.61
100
AcDbArc
 50
180.0
 51
240.0000000000244
  0
LINE
  5
6670
330
6634
100
AcDbEntity
  8
0
100
AcDbLine
 10
29.30199999996933
 20
8.763099999991255
 30
0.0
 11
30.74199999996927
 21
8.763099999991255
 31
0.0
1001
ACAD
1000
ASC_BOUNDS
1002
{
1070
    19
1005
6679
1002
}
  0
LINE
  5
6671
330
6634
100
AcDbEntity
  8
0
100
AcDbLine
 10
30.74199999996927
 20
8.763099999991255
 30
0.0
 11
30.74199999996927
 21
2.373099999991211
 31
0.0
1001
ACAD
1000
ASC_BOUNDS
1002
{
1070
    19
1005
6679
1002
}
  0
LINE
  5
6672
330
6634
100
AcDbEntity
  8
0
100
AcDbLine
 10
26.02015566812236
 20
0.0330999999912365
 30
0.0
 11
28.40199999996923
 21
0.0330999999912365
 31
0.0
1001
ACAD
1000
ASC_BOUNDS
1002
{
1070
    19
1005
6679
1002
}
  0
LINE
  5
6673
330
6634
100
AcDbEntity
  8
0
100
AcDbLine
 10
29.30199999996933
 20
8.763099999991255
 30
0.0
 11
29.30199999996933
 21
2.283099999991236
 31
0.0
1001
ACAD
1000
ASC_BOUNDS
1002
{
1070
    19
1005
6679
1002
}
  0
LINE
  5
6674
330
6634
100
AcDbEntity
  8
0
100
AcDbLine
 10
26.97358892824991
 20
1.383099999991202
 30
0.0
 11
28.40199999996923
 21
1.383099999991202
 31
0.0
1001
ACAD
1000
ASC_BOUNDS
1002
{
1070
    19
1005
6679
1002
}
  0
ARC
  5
6675
330
6634
100
AcDbEntity
  8
0
100
AcDbCircle
 10
28.40199999996923
 20
2.283099999991236
 30
0.0
 40
0.9
100
AcDbArc
 50
270.0
 51
0.0
1001
ACAD
1000
ASC_BOUNDS
1002
{
1070
    19
1005
6679
1002
}
  0
ARC
  5
6676
330
6634
100
AcDbEntity
  8
0
100
AcDbCircle
 10
28.40199999996923
 20
2.373099999991211
 30
0.0
 40
2.34
100
AcDbArc
 50
270.0
 51
0.0
1001
ACAD
1000
ASC_BOUNDS
1002
{
1070
    19
1005
6679
1002
}
  0
INSERT
  5
6677
330
6634
100
AcDbEntity
  8
0
100
AcDbBlockReference
  2
*X30
 10
0.0
 20
0.0
 30
0.0
1001
ACAD
1000
HATCH
1002
{
1070
    19
1000
ANSI37
1040
0.15
1040
0.0
1000
ASC_BOUNDS
1070
     2
1070
     2
1070
    12
1005
6636
1005
6637
1005
663E
1005
664D
1005
6650
1005
664E
1005
663F
1005
6644
1005
6642
1005
6646
1005
6645
1005
6647
1070
     2
1070
     3
1005
6652
1005
6654
1005
6653
1000
ASC_SEEDPOINT
1011
3.614004224891801
1021
2.996669441146025
1031
0.0
1000
R14_HATCH_DATA
1000
6677
1011
1.0
1021
0.0
1031
0.0
1011
0.0
1021
1.0
1031
0.0
1011
0.0
1021
0.0
1031
1.0
1040
0.0
1010
0.0
1020
0.0
1030
1.0
1000
ANSI37
1070
     0
1070
     1
1071
        2
1071
        7
1070
     0
1070
     1
1071
       17
1040
13.26299999998673
1040
-0.0001000000000317
1040
9.236999999990758
1040
8.999899999990987
1040
9.236999999990758
1040
8.999999999991019
1040
5.657999999994331
1040
0.9999999999989768
1040
3.181999999996833
1040
4.668599999995308
1040
6.432999999993513
1040
8.763099999991255
1040
4.617999999995391
1040
8.763099999991255
1040
1.420999999998571
1040
4.736799999995242
1040
4.617999999995391
1040
-0.0001000000000317
1040
4.617999999995391
1040
0.0
1040
6.766999999993232
1040
0.0
1040
6.766999999993232
1040
-0.0001000000000317
1040
7.826999999992154
1040
2.368399999997621
1040
10.64699999998936
1040
2.368399999997621
1040
11.70599999998831
1040
-0.0001000000000317
1040
11.70599999998831
1040
0.0
1040
13.26299999998673
1040
0.0
1071
       12
1005
6636
1005
6637
1005
663E
1005
664D
1005
6650
1005
664E
1005
663F
1005
6644
1005
6642
1005
6646
1005
6645
1005
6647
1071
       22
1070
     0
1070
     1
1071
        3
1040
9.236999999990758
1040
5.5200999999945
1040
10.06399999998996
1040
3.670999999996297
1040
8.409999999991555
1040
3.670999999996297
1071
        3
1005
6652
1005
6654
1005
6653
1070
     0
1070
     1
1040
0.0
1040
0.15
1070
     0
1070
     2
1040
0.7853981633974483
1040
49.29960901727088
1040
-10.17736998311392
1040
-0.3367596045400932
1040
0.3367596045400932
1070
     0
1040
2.356194490192345
1040
49.29960901727088
1040
-10.17736998311392
1040
-0.3367596045400932
1040
-0.3367596045400932
1070
     0
1040
0.0110235143455945
1071
        2
1040
3.614004224891801
1040
2.996669441146025
1040
0.0
1040
3.614004224891801
1040
2.996669441146025
1040
0.0
1002
}
  0
INSERT
  5
6678
330
6634
100
AcDbEntity
  8
0
100
AcDbBlockReference
  2
*X31
 10
0.0
 20
0.0
 30
0.0
1001
ACAD
1000
HATCH
1002
{
1070
    19
1000
ANSI37
1040
0.15
1040
0.0
1000
ASC_BOUNDS
1070
     1
1070
     2
1070
    10
1005
6638
1005
6639
1005
665A
1005
6658
1005
6659
1005
664C
1005
6651
1005
6655
1005
663B
1005
663A
1000
ASC_SEEDPOINT
1011
14.73245321214324
1021
2.798246178283421
1031
0.0
1000
R14_HATCH_DATA
1000
6678
1011
1.0
1021
0.0
1031
0.0
1011
0.0
1021
1.0
1031
0.0
1011
0.0
1021
0.0
1031
1.0
1040
0.0
1010
0.0
1020
0.0
1030
1.0
1000
ANSI37
1070
     0
1070
     1
1071
        1
1071
        7
1070
     0
1070
     1
1071
       10
1040
16.46099999998353
1040
5.432899999994561
1040
18.59199999998134
1040
-0.2368999999997641
1040
22.38199999997767
1040
8.763099999991255
1040
20.89099999997916
1040
8.763099999991255
1040
18.59799999998143
1040
3.315799999996671
1040
16.46099999998353
1040
8.999899999990987
1040
14.32399999998563
1040
3.315799999996671
1040
12.02999999998792
1040
8.763099999991255
1040
10.53899999998941
1040
8.763099999991255
1040
14.32899999998563
1040
-0.2368999999997641
1071
       10
1005
6638
1005
6639
1005
665A
1005
6658
1005
6659
1005
664C
1005
6651
1005
6655
1005
663B
1005
663A
1070
     0
1070
     1
1040
0.0
1040
0.15
1070
     0
1070
     2
1040
0.7853981633974483
1040
49.29960901727088
1040
-10.17736998311392
1040
-0.3367596045400932
1040
0.3367596045400932
1070
     0
1040
2.356194490192345
1040
49.29960901727088
1040
-10.17736998311392
1040
-0.3367596045400932
1040
-0.3367596045400932
1070
     0
1040
0.0110235143455945
1071
        1
1040
14.73245321214324
1040
2.798246178283421
1040
0.0
1002
}
  0
INSERT
  5
6679
330
6634
100
AcDbEntity
  8
0
100
AcDbBlockReference
  2
*X32
 10
0.0
 20
0.0
 30
0.0
1001
ACAD
1000
HATCH
1002
{
1070
    19
1000
ANSI37
1040
0.15
1040
0.0
1000
ASC_BOUNDS
1070
     2
1070
     2
1070
    13
1005
663C
1005
6649
1005
664A
1005
6648
1005
664B
1005
6672
1005
6676
1005
6671
1005
6670
1005
6673
1005
6675
1005
6674
1005
663D
1070
     2
1070
     3
1005
6656
1005
665B
1005
6657
1000
ASC_SEEDPOINT
1011
21.97929957367762
1021
3.294304244259308
1031
0.0
1000
R14_HATCH_DATA
1000
6679
1011
1.0
1021
0.0
1031
0.0
1011
0.0
1021
1.0
1031
0.0
1011
0.0
1021
0.0
1031
1.0
1040
0.0
1010
0.0
1020
0.0
1030
1.0
1000
ANSI37
1070
     0
1070
     1
1071
        2
1071
        7
1070
     1
1070
     1
1071
       15
1040
23.56599999997638
1040
8.999899999990987
1040
0.0
1040
19.53899999998043
1040
-0.0001000000000317
1040
0.0
1040
19.53899999998043
1040
0.0
1040
0.0
1040
21.09599999997886
1040
0.0
1040
0.0
1040
21.09599999997886
1040
-0.0001000000000317
1040
0.0
1040
22.15599999997789
1040
2.368399999997621
1040
0.0
1040
24.97599999997499
1040
2.368399999997621
1040
0.0
1040
26.02015566812236
1040
0.0330999999912365
1040
0.0
1040
28.40199999996923
1040
0.0330999999912365
1040
0.414213562373095
1040
30.74199999996923
1040
2.373099999991211
1040
0.0
1040
30.74199999996927
1040
8.763099999991255
1040
0.0
1040
29.30199999996933
1040
8.763099999991255
1040
0.0
1040
29.30199999996933
1040
2.283099999991236
1040
-0.414213562373095
1040
28.40199999996923
1040
1.383099999991237
1040
0.0
1040
26.97358892824991
1040
1.383099999991202
1040
0.0
1071
       13
1005
663C
1005
6649
1005
664A
1005
6648
1005
664B
1005
6672
1005
6676
1005
6671
1005
6670
1005
6673
1005
6675
1005
6674
1005
663D
1071
       22
1070
     0
1070
     1
1071
        3
1040
22.7389999999773
1040
3.670999999996297
1040
23.56599999997638
1040
5.5200999999945
1040
24.39299999997559
1040
3.670999999996297
1071
        3
1005
6656
1005
665B
1005
6657
1070
     0
1070
     1
1040
0.0
1040
0.15
1070
     0
1070
     2
1040
0.7853981633974483
1040
49.29960901727088
1040
-10.17736998311392
1040
-0.3367596045400932
1040
0.3367596045400932
1070
     0
1040
2.356194490192345
1040
49.29960901727088
1040
-10.17736998311392
1040
-0.3367596045400932
1040
-0.3367596045400932
1070
     0
1040
0.0110235143455945
1071
        2
1040
21.97929957367762
1040
3.294304244259308
1040
0.0
1040
21.97929957367762
1040
3.294304244259308
1040
0.0
1002
}
  0
INSERT
  5
667A
330
6634
100
AcDbEntity
  8
0
100
AcDbBlockReference
  2
*X33
 10
0.0
 20
0.0
 30
0.0
1001
ACAD
1000
HATCH
1002
{
1070
    19
1000
ANSI37
1040
0.15
1040
0.0
1000
R14_HATCH_DATA
1000
667A
1011
1.0
1021
0.0
1031
0.0
1011
0.0
1021
1.0
1031
0.0
1011
0.0
1021
0.0
1031
1.0
1040
0.0
1010
0.0
1020
0.0
1030
1.0
1000
ANSI37
1070
     0
1070
     1
1071
        1
1071
        7
1070
     1
1070
     1
1071
       12
1040
31.64199999996833
1040
2.481619422925121
1040
0.2679491924310942
1040
32.94699999997067
1040
0.2212931190493919
1040
0.2679491924301353
1040
36.36699999995983
1040
0.2212931190459813
1040
0.2679491924321411
1040
37.67199999996831
1040
2.481619422928361
1040
0.0
1040
37.67199999996831
1040
8.763099999991255
1040
0.0
1040
36.23199999996837
1040
8.763099999991255
1040
0.0
1040
36.23199999996837
1040
2.481619422925064
1040
-0.2679491924310291
1040
35.64699999996708
1040
1.468369700498386
1040
-0.267949192430519
1040
33.66699999997093
1040
1.468369700497703
1040
-0.267949192431809
1040
33.08199999996839
1040
2.481619422926997
1040
0.0
1040
33.08199999996839
1040
8.763099999991255
1040
0.0
1040
31.64199999996833
1040
8.763099999991255
1040
0.0
1071
        0
1070
     0
1070
     1
1040
0.0
1040
0.15
1070
     0
1070
     2
1040
0.7853981633974483
1040
49.29960901727088
1040
-10.17736998311392
1040
-0.3367596045400932
1040
0.3367596045400932
1070
     0
1040
2.356194490192345
1040
49.29960901727088
1040
-10.17736998311392
1040
-0.3367596045400932
1040
-0.3367596045400932
1070
     0
1040
0.0110235143455945
1071
        1
1040
32.30357378967278
1040
3.988785755459219
1040
0.0
1002
}
  0
INSERT
  5
667B
330
6634
100
AcDbEntity
  8
0
100
AcDbBlockReference
  2
*X34
 10
0.0
 20
0.0
 30
0.0
1001
ACAD
1000
HATCH
1002
{
1070
    19
1000
ANSI37
1040
0.15
1040
0.0
1000
ASC_BOUNDS
1070
     1
1070
     2
1070
     8
1005
665C
1005
665F
1005
6663
1005
6662
1005
6661
1005
665E
1005
6660
1005
665D
1000
ASC_SEEDPOINT
1011
39.74896370716704
1021
4.484843821435049
1031
0.0
1000
R14_HATCH_DATA
1000
667B
1011
1.0
1021
0.0
1031
0.0
1011
0.0
1021
1.0
1031
0.0
1011
0.0
1021
0.0
1031
1.0
1040
0.0
1010
0.0
1020
0.0
1030
1.0
1000
ANSI37
1070
     0
1070
     1
1071
        1
1071
        7
1070
     0
1070
     1
1071
        9
1040
40.02599999995994
1040
5.341799999994635
1040
44.99999999995498
1040
-0.2368999999997641
1040
44.99999999995498
1040
8.763099999991255
1040
43.57899999995641
1040
8.763099999991255
1040
43.57899999995641
1040
3.421199999996588
1040
38.60499999996136
1040
8.999899999990987
1040
38.60499999996136
1040
8.999999999991019
1040
38.60499999996136
1040
0.0
1040
40.02599999995994
1040
0.0
1071
        8
1005
665C
1005
665F
1005
6663
1005
6662
1005
6661
1005
665E
1005
6660
1005
665D
1070
     0
1070
     1
1040
0.0
1040
0.15
1070
     0
1070
     2
1040
0.7853981633974483
1040
49.29960901727088
1040
-10.17736998311392
1040
-0.3367596045400932
1040
0.3367596045400932
1070
     0
1040
2.356194490192345
1040
49.29960901727088
1040
-10.17736998311392
1040
-0.3367596045400932
1040
-0.3367596045400932
1070
     0
1040
0.0110235143455945
1071
        1
1040
39.74896370716704
1040
4.484843821435049
1040
0.0
1002
}
  0
INSERT
  5
667C
330
6634
100
AcDbEntity
  8
0
100
AcDbBlockReference
  2
*X35
 10
0.0
 20
0.0
 30
0.0
1001
ACAD
1000
HATCH
1002
{
1070
    19
1000
ANSI37
1040
0.15
1040
0.0
1000
ASC_BOUNDS
1070
     1
1070
     2
1070
     4
1005
6640
1005
664F
1005
6641
1005
6643
1000
ASC_SEEDPOINT
1011
1.079051535452663
1021
4.148538732891836
1031
0.0
1000
R14_HATCH_DATA
1000
667C
1011
1.0
1021
0.0
1031
0.0
1011
0.0
1021
1.0
1031
0.0
1011
0.0
1021
0.0
1031
1.0
1040
0.0
1010
0.0
1020
0.0
1030
1.0
1000
ANSI37
1070
     0
1070
     1
1071
        1
1071
        7
1070
     0
1070
     1
1071
        4
1040
1.420999999998571
1040
0.0
1040
1.420999999998571
1040
8.763099999991255
1040
0.0
1040
8.763099999991255
1040
0.0
1040
0.0
1071
        4
1005
6640
1005
664F
1005
6641
1005
6643
1070
     0
1070
     1
1040
0.0
1040
0.15
1070
     0
1070
     2
1040
0.7853981633974483
1040
49.29960901727088
1040
-10.17736998311392
1040
-0.3367596045400932
1040
0.3367596045400932
1070
     0
1040
2.356194490192345
1040
49.29960901727088
1040
-10.17736998311392
1040
-0.3367596045400932
1040
-0.3367596045400932
1070
     0
1040
0.0053004257112761
1071
        1
1040
1.079051535452663
1040
4.148538732891836
1040
0.0
1002
}
  0
ENDBLK
  5
6D34
330
6634
100
AcDbEntity
  8
0
100
AcDbBlockEnd
  0
BLOCK
  5
7097
330
6F09
100
AcDbEntity
  8
0
100
AcDbBlockBegin
  2
*X30
 70
     1
 10
0.0
 20
0.0
 30
0.0
  3
*X30
  1

  0
LINE
  5
6F0A
330
6F09
100
AcDbEntity
  8
0
  6
CONTINUOUS
100
AcDbLine
 10
3.418023043697893
 20
7.251849696850613
 30
0.0
 11
4.929273346838536
 21
8.763099999991255
 31
0.0
  0
LINE
  5
6F0B
330
6F09
100
AcDbEntity
  8
0
  6
CONTINUOUS
100
AcDbLine
 10
1.483656411257782
 20
4.643963855330318
 30
0.0
 11
5.60279255591872
 21
8.763099999991255
 31
0.0
  0
LINE
  5
6F0C
330
6F09
100
AcDbEntity
  8
0
  6
CONTINUOUS
100
AcDbLine
 10
1.755053947328235
 20
4.241842182320584
 30
0.0
 11
6.276311764998907
 21
8.763099999991255
 31
0.0
  0
LINE
  5
6F0D
330
6F09
100
AcDbEntity
  8
0
  6
CONTINUOUS
100
AcDbLine
 10
2.026451483398688
 20
3.839720509310849
 30
0.0
 11
4.441040904851878
 21
6.254309930764039
 31
0.0
  0
LINE
  5
6F0E
330
6F09
100
AcDbEntity
  8
0
  6
CONTINUOUS
100
AcDbLine
 10
2.297849019469139
 20
3.437598836301114
 30
0.0
 11
3.321765168359338
 21
4.461514985191313
 31
0.0
  0
LINE
  5
6F0F
330
6F09
100
AcDbEntity
  8
0
  6
CONTINUOUS
100
AcDbLine
 10
2.569246555539591
 20
3.03547716329138
 30
0.0
 11
3.593163397972743
 21
4.059394005724531
 31
0.0
  0
LINE
  5
6F10
330
6F09
100
AcDbEntity
  8
0
  6
CONTINUOUS
100
AcDbLine
 10
2.840644091610043
 20
2.633355490281646
 30
0.0
 11
3.864561627586149
 21
3.657273026257751
 31
0.0
  0
LINE
  5
6F11
330
6F09
100
AcDbEntity
  8
0
  6
CONTINUOUS
100
AcDbLine
 10
3.112041627680496
 20
2.231233817271911
 30
0.0
 11
4.135959857199554
 21
3.25515204679097
 31
0.0
  0
LINE
  5
6F12
330
6F09
100
AcDbEntity
  8
0
  6
CONTINUOUS
100
AcDbLine
 10
3.383439163750948
 20
1.829112144262177
 30
0.0
 11
4.40735808681296
 21
2.853031067324189
 31
0.0
  0
LINE
  5
6F13
330
6F09
100
AcDbEntity
  8
0
  6
CONTINUOUS
100
AcDbLine
 10
3.654836699821399
 20
1.426990471252442
 30
0.0
 11
4.678756316426365
 21
2.450910087857407
 31
0.0
  0
LINE
  5
6F14
330
6F09
100
AcDbEntity
  8
0
  6
CONTINUOUS
100
AcDbLine
 10
3.926234235891853
 20
1.024868798242709
 30
0.0
 11
4.95015454603977
 21
2.048789108390626
 31
0.0
  0
LINE
  5
6F15
330
6F09
100
AcDbEntity
  8
0
  6
CONTINUOUS
100
AcDbLine
 10
4.197631771962304
 20
0.6227471252329737
 30
0.0
 11
5.221552775653176
 21
1.646668128923846
 31
0.0
  0
LINE
  5
6F16
330
6F09
100
AcDbEntity
  8
0
  6
CONTINUOUS
100
AcDbLine
 10
8.715877546767851
 20
7.835069736359266
 30
0.0
 11
9.435953450375058
 21
8.555145639966472
 31
0.0
  0
LINE
  5
6F17
330
6F09
100
AcDbEntity
  8
0
  6
CONTINUOUS
100
AcDbLine
 10
8.170620868422267
 20
6.616293848933497
 30
0.0
 11
9.644120833743461
 21
8.08979381425469
 31
0.0
  0
LINE
  5
6F18
330
6F09
100
AcDbEntity
  8
0
  6
CONTINUOUS
100
AcDbLine
 10
7.625364190076684
 20
5.397517961507727
 30
0.0
 11
9.852288217111864
 21
7.624441988542907
 31
0.0
  0
LINE
  5
6F19
330
6F09
100
AcDbEntity
  8
0
  6
CONTINUOUS
100
AcDbLine
 10
7.080107511731101
 20
4.178742074081957
 30
0.0
 11
10.06045560048027
 21
7.159090162831124
 31
0.0
  0
LINE
  5
6F1A
330
6F09
100
AcDbEntity
  8
0
  6
CONTINUOUS
100
AcDbLine
 10
6.534850833385518
 20
2.959966186656187
 30
0.0
 11
10.26862298384867
 21
6.693738337119342
 31
0.0
  0
LINE
  5
6F1B
330
6F09
100
AcDbEntity
  8
0
  6
CONTINUOUS
100
AcDbLine
 10
4.469029308032756
 20
0.2206254522232385
 30
0.0
 11
5.492951005266582
 21
1.244547149457064
 31
0.0
  0
LINE
  5
6F1C
330
6F09
100
AcDbEntity
  8
0
  6
CONTINUOUS
100
AcDbLine
 10
5.989594155039935
 20
1.741190299230417
 30
0.0
 11
8.806950407233131
 21
4.558546551423613
 31
0.0
  0
LINE
  5
6F1D
330
6F09
100
AcDbEntity
  8
0
  6
CONTINUOUS
100
AcDbLine
 10
9.401251593263643
 20
5.152847737454126
 30
0.0
 11
10.47679036721708
 21
6.228386511407559
 31
0.0
  0
LINE
  5
6F1E
330
6F09
100
AcDbEntity
  8
0
  6
CONTINUOUS
100
AcDbLine
 10
4.921837203428691
 20
-0.0000858614610131
 30
0.0
 11
8.592923064886001
 21
3.670999999996297
 31
0.0
  0
LINE
  5
6F1F
330
6F09
100
AcDbEntity
  8
0
  6
CONTINUOUS
100
AcDbLine
 10
9.609390446785305
 20
4.6874673818956
 30
0.0
 11
10.68495775058548
 21
5.763034685695775
 31
0.0
  0
LINE
  5
6F20
330
6F09
100
AcDbEntity
  8
0
  6
CONTINUOUS
100
AcDbLine
 10
5.595387755019432
 20
-0.0000545189504582
 30
0.0
 11
7.716137258923768
 21
2.120694984953879
 31
0.0
  0
LINE
  5
6F21
330
6F09
100
AcDbEntity
  8
0
  6
CONTINUOUS
100
AcDbLine
 10
6.268938306610172
 20
-0.000023176439905
 30
0.0
 11
7.170485805526503
 21
0.9015243224764267
 31
0.0
  0
LINE
  5
6F22
330
6F09
100
AcDbEntity
  8
0
  6
CONTINUOUS
100
AcDbLine
 10
7.963842273967511
 20
2.368399999997621
 30
0.0
 11
9.266442273966188
 21
3.670999999996297
 31
0.0
  0
LINE
  5
6F23
330
6F09
100
AcDbEntity
  8
0
  6
CONTINUOUS
100
AcDbLine
 10
8.637361483047696
 20
2.368399999997621
 30
0.0
 11
9.939961483046375
 21
3.670999999996297
 31
0.0
  0
LINE
  5
6F24
330
6F09
100
AcDbEntity
  8
0
  6
CONTINUOUS
100
AcDbLine
 10
9.817529300306965
 20
4.222087026337075
 30
0.0
 11
10.89312513395388
 21
5.297682859983993
 31
0.0
  0
LINE
  5
6F25
330
6F09
100
AcDbEntity
  8
0
  6
CONTINUOUS
100
AcDbLine
 10
10.02566815382863
 20
3.756706670778549
 30
0.0
 11
11.10129251732229
 21
4.832331034272211
 31
0.0
  0
LINE
  5
6F26
330
6F09
100
AcDbEntity
  8
0
  6
CONTINUOUS
100
AcDbLine
 10
9.310880692127883
 20
2.368399999997621
 30
0.0
 11
11.30945990069069
 21
4.366979208560428
 31
0.0
  0
LINE
  5
6F27
330
6F09
100
AcDbEntity
  8
0
  6
CONTINUOUS
100
AcDbLine
 10
9.98439990120807
 20
2.36839999999762
 30
0.0
 11
11.5176272840591
 21
3.901627382848645
 31
0.0
  0
LINE
  5
6F28
330
6F09
100
AcDbEntity
  8
0
  6
CONTINUOUS
100
AcDbLine
 10
10.65037369446246
 20
2.36085458417182
 30
0.0
 11
11.7257946674275
 21
3.436275557136862
 31
0.0
  0
LINE
  5
6F29
330
6F09
100
AcDbEntity
  8
0
  6
CONTINUOUS
100
AcDbLine
 10
10.85847197087848
 20
1.895433651507656
 30
0.0
 11
11.9339620507959
 21
2.97092373142508
 31
0.0
  0
LINE
  5
6F2A
330
6F09
100
AcDbEntity
  8
0
  6
CONTINUOUS
100
AcDbLine
 10
11.0665702472945
 20
1.430012718843491
 30
0.0
 11
12.14212943416431
 21
2.505571905713296
 31
0.0
  0
LINE
  5
6F2B
330
6F09
100
AcDbEntity
  8
0
  6
CONTINUOUS
100
AcDbLine
 10
11.27466852371052
 20
0.9645917861793256
 30
0.0
 11
12.35029681753271
 21
2.040220080001513
 31
0.0
  0
LINE
  5
6F2C
330
6F09
100
AcDbEntity
  8
0
  6
CONTINUOUS
100
AcDbLine
 10
11.48276680012654
 20
0.4991708535151611
 30
0.0
 11
12.55846420090111
 21
1.57486825428973
 31
0.0
  0
LINE
  5
6F2D
330
6F09
100
AcDbEntity
  8
0
  6
CONTINUOUS
100
AcDbLine
 10
11.69086507654257
 20
0.0337499208509957
 30
0.0
 11
12.76663158426952
 21
1.109516428577947
 31
0.0
  0
LINE
  5
6F2E
330
6F09
100
AcDbEntity
  8
0
  6
CONTINUOUS
100
AcDbLine
 10
12.33057447873954
 20
-0.0000598860322123
 30
0.0
 11
12.97479896763792
 21
0.6441646028661663
 31
0.0
  0
LINE
  5
6F2F
330
6F09
100
AcDbEntity
  8
0
  6
CONTINUOUS
100
AcDbLine
 10
13.00413694809395
 20
-0.0000166257579952
 30
0.0
 11
13.18296635100632
 21
0.1788127771543824
 31
0.0
  0
LINE
  5
6F30
330
6F09
100
AcDbEntity
  8
0
  6
CONTINUOUS
100
AcDbLine
 10
4.772852165289667
 20
-0.000092794222212
 30
0.0
 11
4.296495091028902
 21
0.4762642800385528
 31
0.0
  0
LINE
  5
6F31
330
6F09
100
AcDbEntity
  8
0
  6
CONTINUOUS
100
AcDbLine
 10
5.446340034776103
 20
-0.0000614546284616
 30
0.0
 11
2.898195908335625
 21
2.548082671812017
 31
0.0
  0
LINE
  5
6F32
330
6F09
100
AcDbEntity
  8
0
  6
CONTINUOUS
100
AcDbLine
 10
6.119827904262539
 20
-0.0000301150347113
 30
0.0
 11
1.499896725642348
 21
4.61990106358548
 31
0.0
  0
LINE
  5
6F33
330
6F09
100
AcDbEntity
  8
0
  6
CONTINUOUS
100
AcDbLine
 10
6.775136745476159
 20
0.0181802528318542
 30
0.0
 11
5.699826040202669
 21
1.093490958105344
 31
0.0
  0
LINE
  5
6F34
330
6F09
100
AcDbEntity
  8
0
  6
CONTINUOUS
100
AcDbLine
 10
6.983376846288489
 20
0.4834593610997118
 30
0.0
 11
5.908008617934405
 21
1.558827589453796
 31
0.0
  0
LINE
  5
6F35
330
6F09
100
AcDbEntity
  8
0
  6
CONTINUOUS
100
AcDbLine
 10
5.377063484962296
 20
1.416253513345719
 30
0.0
 11
1.702276957014131
 21
5.091040041293883
 31
0.0
  0
LINE
  5
6F36
330
6F09
100
AcDbEntity
  8
0
  6
CONTINUOUS
100
AcDbLine
 10
3.978745891735324
 20
3.488090315652877
 30
0.0
 11
2.000373521109399
 21
5.466462686278803
 31
0.0
  0
LINE
  5
6F37
330
6F09
100
AcDbEntity
  8
0
  6
CONTINUOUS
100
AcDbLine
 10
7.191616947100819
 20
0.948738469367568
 30
0.0
 11
6.11619119566614
 21
2.024164220802247
 31
0.0
  0
LINE
  5
6F38
330
6F09
100
AcDbEntity
  8
0
  6
CONTINUOUS
100
AcDbLine
 10
7.399857047913149
 20
1.414017577635424
 30
0.0
 11
6.324373773397875
 21
2.489500852150698
 31
0.0
  0
LINE
  5
6F39
330
6F09
100
AcDbEntity
  8
0
  6
CONTINUOUS
100
AcDbLine
 10
7.608097148725479
 20
1.879296685903281
 30
0.0
 11
6.53255635112961
 21
2.95483748349915
 31
0.0
  0
LINE
  5
6F3A
330
6F09
100
AcDbEntity
  8
0
  6
CONTINUOUS
100
AcDbLine
 10
7.816337249537808
 20
2.344575794171138
 30
0.0
 11
6.740738928861345
 21
3.420174114847601
 31
0.0
  0
LINE
  5
6F3B
330
6F09
100
AcDbEntity
  8
0
  6
CONTINUOUS
100
AcDbLine
 10
3.310241080789734
 20
4.830114335678653
 30
0.0
 11
2.298470085204666
 21
5.84188533126372
 31
0.0
  0
LINE
  5
6F3C
330
6F09
100
AcDbEntity
  8
0
  6
CONTINUOUS
100
AcDbLine
 10
3.60832983563551
 20
5.205544789913063
 30
0.0
 11
2.596566649299935
 21
6.217307976248638
 31
0.0
  0
LINE
  5
6F3D
330
6F09
100
AcDbEntity
  8
0
  6
CONTINUOUS
100
AcDbLine
 10
3.906418590481286
 20
5.580975244147473
 30
0.0
 11
2.894663213395203
 21
6.592730621233557
 31
0.0
  0
LINE
  5
6F3E
330
6F09
100
AcDbEntity
  8
0
  6
CONTINUOUS
100
AcDbLine
 10
4.204507345327062
 20
5.956405698381884
 30
0.0
 11
3.192759777490472
 21
6.968153266218474
 31
0.0
  0
LINE
  5
6F3F
330
6F09
100
AcDbEntity
  8
0
  6
CONTINUOUS
100
AcDbLine
 10
8.466032252791512
 20
2.368399999997621
 30
0.0
 11
6.948921506593081
 21
3.885510746196053
 31
0.0
  0
LINE
  5
6F40
330
6F09
100
AcDbEntity
  8
0
  6
CONTINUOUS
100
AcDbLine
 10
9.139551461871699
 20
2.36839999999762
 30
0.0
 11
7.157104084324816
 21
4.350847377544504
 31
0.0
  0
LINE
  5
6F41
330
6F09
100
AcDbEntity
  8
0
  6
CONTINUOUS
100
AcDbLine
 10
4.502596100172839
 20
6.331836152616295
 30
0.0
 11
3.49085634158574
 21
7.343575911203393
 31
0.0
  0
LINE
  5
6F42
330
6F09
100
AcDbEntity
  8
0
  6
CONTINUOUS
100
AcDbLine
 10
4.800684855018615
 20
6.707266606850705
 30
0.0
 11
3.788952905681008
 21
7.718998556188312
 31
0.0
  0
LINE
  5
6F43
330
6F09
100
AcDbEntity
  8
0
  6
CONTINUOUS
100
AcDbLine
 10
12.18154012887317
 20
-0.0000694579236642
 30
0.0
 11
11.32140332908496
 21
0.8600673418645499
 31
0.0
  0
LINE
  5
6F44
330
6F09
100
AcDbEntity
  8
0
  6
CONTINUOUS
100
AcDbLine
 10
12.85501608323566
 20
-0.0000262032059659
 30
0.0
 11
10.77672456435345
 21
2.078265315676246
 31
0.0
  0
LINE
  5
6F45
330
6F09
100
AcDbEntity
  8
0
  6
CONTINUOUS
100
AcDbLine
 10
9.813070670951886
 20
2.36839999999762
 30
0.0
 11
8.51047067095321
 21
3.670999999996297
 31
0.0
  0
LINE
  5
6F46
330
6F09
100
AcDbEntity
  8
0
  6
CONTINUOUS
100
AcDbLine
 10
10.48658988003207
 20
2.36839999999762
 30
0.0
 11
9.183989880033396
 21
3.670999999996297
 31
0.0
  0
LINE
  5
6F47
330
6F09
100
AcDbEntity
  8
0
  6
CONTINUOUS
100
AcDbLine
 10
8.441048632286794
 20
3.740422038662712
 30
0.0
 11
7.365286662056551
 21
4.816184008892956
 31
0.0
  0
LINE
  5
6F48
330
6F09
100
AcDbEntity
  8
0
  6
CONTINUOUS
100
AcDbLine
 10
8.649187485808454
 20
4.205802394221237
 30
0.0
 11
7.573469239788285
 21
5.281520640241407
 31
0.0
  0
LINE
  5
6F49
330
6F09
100
AcDbEntity
  8
0
  6
CONTINUOUS
100
AcDbLine
 10
5.098773609864391
 20
7.082697061085115
 30
0.0
 11
4.087049469776277
 21
8.09442120117323
 31
0.0
  0
LINE
  5
6F4A
330
6F09
100
AcDbEntity
  8
0
  6
CONTINUOUS
100
AcDbLine
 10
5.396862364710167
 20
7.458127515319526
 30
0.0
 11
4.385146033871544
 21
8.469843846158149
 31
0.0
  0
LINE
  5
6F4B
330
6F09
100
AcDbEntity
  8
0
  6
CONTINUOUS
100
AcDbLine
 10
13.04801363231285
 20
0.4804954567970334
 30
0.0
 11
9.85750908911358
 21
3.670999999996297
 31
0.0
  0
LINE
  5
6F4C
330
6F09
100
AcDbEntity
  8
0
  6
CONTINUOUS
100
AcDbLine
 10
8.857326339330116
 20
4.671182749779763
 30
0.0
 11
7.781651817520021
 21
5.746857271589858
 31
0.0
  0
LINE
  5
6F4D
330
6F09
100
AcDbEntity
  8
0
  6
CONTINUOUS
100
AcDbLine
 10
5.694951119555943
 20
7.833557969553937
 30
0.0
 11
4.765409089118624
 21
8.763099999991255
 31
0.0
  0
LINE
  5
6F4E
330
6F09
100
AcDbEntity
  8
0
  6
CONTINUOUS
100
AcDbLine
 10
12.50286117236978
 20
1.699167125820288
 30
0.0
 11
9.68611877250287
 21
4.515909525687196
 31
0.0
  0
LINE
  5
6F4F
330
6F09
100
AcDbEntity
  8
0
  6
CONTINUOUS
100
AcDbLine
 10
9.065465192851777
 20
5.136563105338288
 30
0.0
 11
7.989834395251757
 21
6.21219390293831
 31
0.0
  0
LINE
  5
6F50
330
6F09
100
AcDbEntity
  8
0
  6
CONTINUOUS
100
AcDbLine
 10
5.993039874401719
 20
8.208988423788346
 30
0.0
 11
5.43892829819881
 21
8.763099999991255
 31
0.0
  0
LINE
  5
6F51
330
6F09
100
AcDbEntity
  8
0
  6
CONTINUOUS
100
AcDbLine
 10
11.95770871242671
 20
2.917838794843543
 30
0.0
 11
8.19801697298349
 21
6.677530534286761
 31
0.0
  0
LINE
  5
6F52
330
6F09
100
AcDbEntity
  8
0
  6
CONTINUOUS
100
AcDbLine
 10
6.291128629247495
 20
8.584418878022756
 30
0.0
 11
6.112447507278997
 21
8.763099999991255
 31
0.0
  0
LINE
  5
6F53
330
6F09
100
AcDbEntity
  8
0
  6
CONTINUOUS
100
AcDbLine
 10
11.41255625248364
 20
4.136510463866797
 30
0.0
 11
8.406199550715227
 21
7.142867165635211
 31
0.0
  0
LINE
  5
6F54
330
6F09
100
AcDbEntity
  8
0
  6
CONTINUOUS
100
AcDbLine
 10
10.86740379254057
 20
5.355182132890051
 30
0.0
 11
8.614382128446962
 21
7.608203796983664
 31
0.0
  0
LINE
  5
6F55
330
6F09
100
AcDbEntity
  8
0
  6
CONTINUOUS
100
AcDbLine
 10
10.3222513325975
 20
6.573853801913305
 30
0.0
 11
8.822564706178696
 21
8.073540428332114
 31
0.0
  0
LINE
  5
6F56
330
6F09
100
AcDbEntity
  8
0
  6
CONTINUOUS
100
AcDbLine
 10
9.777098872654436
 20
7.792525470936562
 30
0.0
 11
9.030747283910433
 21
8.538877059680566
 31
0.0
  0
ENDBLK
  5
7098
330
6F09
100
AcDbEntity
  8
0
100
AcDbBlockEnd
  0
BLOCK
  5
7099
330
6F57
100
AcDbEntity
  8
0
100
AcDbBlockBegin
  2
*X31
 70
     1
 10
0.0
 20
0.0
 30
0.0
  3
*X31
  1

  0
LINE
  5
6F58
330
6F57
100
AcDbEntity
  8
0
  6
CONTINUOUS
100
AcDbLine
 10
10.67292308101235
 20
8.445076852443387
 30
0.0
 11
10.99094622856022
 21
8.763099999991255
 31
0.0
  0
LINE
  5
6F59
330
6F57
100
AcDbEntity
  8
0
  6
CONTINUOUS
100
AcDbLine
 10
10.87250383178748
 20
7.971138394138331
 30
0.0
 11
11.6644654376404
 21
8.763099999991255
 31
0.0
  0
LINE
  5
6F5A
330
6F57
100
AcDbEntity
  8
0
  6
CONTINUOUS
100
AcDbLine
 10
11.07208458256261
 20
7.497199935833273
 30
0.0
 11
12.12126590876355
 21
8.546381262034211
 31
0.0
  0
LINE
  5
6F5B
330
6F57
100
AcDbEntity
  8
0
  6
CONTINUOUS
100
AcDbLine
 10
11.27166533333774
 20
7.023261477528216
 30
0.0
 11
12.32085164573666
 21
8.072447789927136
 31
0.0
  0
LINE
  5
6F5C
330
6F57
100
AcDbEntity
  8
0
  6
CONTINUOUS
100
AcDbLine
 10
11.47124608411287
 20
6.549323019223158
 30
0.0
 11
12.52043738270977
 21
7.59851431782006
 31
0.0
  0
LINE
  5
6F5D
330
6F57
100
AcDbEntity
  8
0
  6
CONTINUOUS
100
AcDbLine
 10
11.670826834888
 20
6.075384560918101
 30
0.0
 11
12.72002311968288
 21
7.124580845712984
 31
0.0
  0
LINE
  5
6F5E
330
6F57
100
AcDbEntity
  8
0
  6
CONTINUOUS
100
AcDbLine
 10
11.87040758566313
 20
5.601446102613043
 30
0.0
 11
12.91960885665599
 21
6.650647373605907
 31
0.0
  0
LINE
  5
6F5F
330
6F57
100
AcDbEntity
  8
0
  6
CONTINUOUS
100
AcDbLine
 10
12.06998833643825
 20
5.127507644307986
 30
0.0
 11
13.1191945936291
 21
6.176713901498832
 31
0.0
  0
LINE
  5
6F60
330
6F57
100
AcDbEntity
  8
0
  6
CONTINUOUS
100
AcDbLine
 10
12.26956908721338
 20
4.65356918600293
 30
0.0
 11
13.31878033060221
 21
5.702780429391757
 31
0.0
  0
LINE
  5
6F61
330
6F57
100
AcDbEntity
  8
0
  6
CONTINUOUS
100
AcDbLine
 10
12.46914983798851
 20
4.179630727697873
 30
0.0
 11
13.51836606757532
 21
5.228846957284683
 31
0.0
  0
LINE
  5
6F62
330
6F57
100
AcDbEntity
  8
0
  6
CONTINUOUS
100
AcDbLine
 10
12.66873058876364
 20
3.705692269392816
 30
0.0
 11
13.71795180454843
 21
4.754913485177607
 31
0.0
  0
LINE
  5
6F63
330
6F57
100
AcDbEntity
  8
0
  6
CONTINUOUS
100
AcDbLine
 10
12.86831133953877
 20
3.231753811087759
 30
0.0
 11
13.91753754152154
 21
4.280980013070531
 31
0.0
  0
LINE
  5
6F64
330
6F57
100
AcDbEntity
  8
0
  6
CONTINUOUS
100
AcDbLine
 10
13.0678920903139
 20
2.757815352782702
 30
0.0
 11
14.11712327849465
 21
3.807046540963456
 31
0.0
  0
LINE
  5
6F65
330
6F57
100
AcDbEntity
  8
0
  6
CONTINUOUS
100
AcDbLine
 10
13.26747284108903
 20
2.283876894477644
 30
0.0
 11
14.31670901546777
 21
3.333113068856379
 31
0.0
  0
LINE
  5
6F66
330
6F57
100
AcDbEntity
  8
0
  6
CONTINUOUS
100
AcDbLine
 10
16.36767838827179
 20
8.751678487061342
 30
0.0
 11
16.50332410898388
 21
8.887324207773432
 31
0.0
  0
LINE
  5
6F67
330
6F57
100
AcDbEntity
  8
0
  6
CONTINUOUS
100
AcDbLine
 10
15.96190732182191
 20
7.67238821153127
 30
0.0
 11
16.68735328004734
 21
8.397834169756699
 31
0.0
  0
LINE
  5
6F68
330
6F57
100
AcDbEntity
  8
0
  6
CONTINUOUS
100
AcDbLine
 10
15.55613625537202
 20
6.593097936001196
 30
0.0
 11
16.87138245111079
 21
7.908344131739965
 31
0.0
  0
LINE
  5
6F69
330
6F57
100
AcDbEntity
  8
0
  6
CONTINUOUS
100
AcDbLine
 10
15.15036518892213
 20
5.513807660471122
 30
0.0
 11
17.05541162217424
 21
7.418854093723231
 31
0.0
  0
LINE
  5
6F6A
330
6F57
100
AcDbEntity
  8
0
  6
CONTINUOUS
100
AcDbLine
 10
14.74459412247225
 20
4.434517384941048
 30
0.0
 11
17.2394407932377
 21
6.929364055706499
 31
0.0
  0
LINE
  5
6F6B
330
6F57
100
AcDbEntity
  8
0
  6
CONTINUOUS
100
AcDbLine
 10
14.33882305602236
 20
3.355227109410975
 30
0.0
 11
17.42346996430115
 21
6.439874017689766
 31
0.0
  0
LINE
  5
6F6C
330
6F57
100
AcDbEntity
  8
0
  6
CONTINUOUS
100
AcDbLine
 10
13.46705359186416
 20
1.809938436172586
 30
0.0
 11
16.0819338255367
 21
4.424818669845129
 31
0.0
  0
LINE
  5
6F6D
330
6F57
100
AcDbEntity
  8
0
  6
CONTINUOUS
100
AcDbLine
 10
16.63283254238972
 20
4.975717386698149
 30
0.0
 11
17.60749913536461
 21
5.950383979673033
 31
0.0
  0
LINE
  5
6F6E
330
6F57
100
AcDbEntity
  8
0
  6
CONTINUOUS
100
AcDbLine
 10
13.66663434263929
 20
1.335999977867529
 30
0.0
 11
15.67604797733754
 21
3.345413612565779
 31
0.0
  0
LINE
  5
6F6F
330
6F57
100
AcDbEntity
  8
0
  6
CONTINUOUS
100
AcDbLine
 10
13.86621509341442
 20
0.8620615195624723
 30
0.0
 11
15.27016212913838
 21
2.26600855528643
 31
0.0
  0
LINE
  5
6F70
330
6F57
100
AcDbEntity
  8
0
  6
CONTINUOUS
100
AcDbLine
 10
16.81682257348267
 20
4.486188208710908
 30
0.0
 11
17.79152830642806
 21
5.460893941656299
 31
0.0
  0
LINE
  5
6F71
330
6F57
100
AcDbEntity
  8
0
  6
CONTINUOUS
100
AcDbLine
 10
17.00081260457561
 20
3.996659030723667
 30
0.0
 11
17.97555747749151
 21
4.971403903639565
 31
0.0
  0
LINE
  5
6F72
330
6F57
100
AcDbEntity
  8
0
  6
CONTINUOUS
100
AcDbLine
 10
20.74362343514722
 20
8.412989070375462
 30
0.0
 11
21.09373436476302
 21
8.763099999991256
 31
0.0
  0
LINE
  5
6F73
330
6F57
100
AcDbEntity
  8
0
  6
CONTINUOUS
100
AcDbLine
 10
20.25401257174777
 20
7.249858997895826
 30
0.0
 11
21.7672535738432
 21
8.763099999991255
 31
0.0
  0
LINE
  5
6F74
330
6F57
100
AcDbEntity
  8
0
  6
CONTINUOUS
100
AcDbLine
 10
14.06579584418955
 20
0.3881230612574149
 30
0.0
 11
14.86427628093921
 21
1.186603498007082
 31
0.0
  0
LINE
  5
6F75
330
6F57
100
AcDbEntity
  8
0
  6
CONTINUOUS
100
AcDbLine
 10
14.26537659496467
 20
-0.0858153970476412
 30
0.0
 11
14.45839043274005
 21
0.1071984407277329
 31
0.0
  0
LINE
  5
6F76
330
6F57
100
AcDbEntity
  8
0
  6
CONTINUOUS
100
AcDbLine
 10
17.18480263566856
 20
3.507129852736426
 30
0.0
 11
18.15958664855496
 21
4.481913865622833
 31
0.0
  0
LINE
  5
6F77
330
6F57
100
AcDbEntity
  8
0
  6
CONTINUOUS
100
AcDbLine
 10
17.3687926667615
 20
3.017600674749186
 30
0.0
 11
18.34361581961842
 21
3.9924238276061
 31
0.0
  0
LINE
  5
6F78
330
6F57
100
AcDbEntity
  8
0
  6
CONTINUOUS
100
AcDbLine
 10
19.76440170834832
 20
6.086728925416191
 30
0.0
 11
22.33924590259489
 21
8.661573119662755
 31
0.0
  0
LINE
  5
6F79
330
6F57
100
AcDbEntity
  8
0
  6
CONTINUOUS
100
AcDbLine
 10
19.27479084494887
 20
4.923598852936555
 30
0.0
 11
21.84929622842713
 21
7.498104236414807
 31
0.0
  0
LINE
  5
6F7A
330
6F57
100
AcDbEntity
  8
0
  6
CONTINUOUS
100
AcDbLine
 10
17.55278269785445
 20
2.528071496761945
 30
0.0
 11
18.52764499068187
 21
3.502933789589366
 31
0.0
  0
LINE
  5
6F7B
330
6F57
100
AcDbEntity
  8
0
  6
CONTINUOUS
100
AcDbLine
 10
18.78517998154942
 20
3.760468780456919
 30
0.0
 11
21.35934655425936
 21
6.33463535316686
 31
0.0
  0
LINE
  5
6F7C
330
6F57
100
AcDbEntity
  8
0
  6
CONTINUOUS
100
AcDbLine
 10
17.73677272894739
 20
2.038542318774704
 30
0.0
 11
20.8693968800916
 21
5.171166469918914
 31
0.0
  0
LINE
  5
6F7D
330
6F57
100
AcDbEntity
  8
0
  6
CONTINUOUS
100
AcDbLine
 10
17.92076276004034
 20
1.549013140787464
 30
0.0
 11
20.37944720592384
 21
4.007697586670968
 31
0.0
  0
LINE
  5
6F7E
330
6F57
100
AcDbEntity
  8
0
  6
CONTINUOUS
100
AcDbLine
 10
18.10475279113329
 20
1.059483962800223
 30
0.0
 11
19.88949753175608
 21
2.84422870342302
 31
0.0
  0
LINE
  5
6F7F
330
6F57
100
AcDbEntity
  8
0
  6
CONTINUOUS
100
AcDbLine
 10
18.28874282222623
 20
0.5699547848129822
 30
0.0
 11
19.39954785758832
 21
1.680759820175074
 31
0.0
  0
LINE
  5
6F80
330
6F57
100
AcDbEntity
  8
0
  6
CONTINUOUS
100
AcDbLine
 10
18.47273285331918
 20
0.0804256068257416
 30
0.0
 11
18.90959818342056
 21
0.517290936927127
 31
0.0
  0
LINE
  5
6F81
330
6F57
100
AcDbEntity
  8
0
  6
CONTINUOUS
100
AcDbLine
 10
14.3590401358224
 20
-0.1570118376323384
 30
0.0
 11
14.24903296539946
 21
-0.0470046672093929
 31
0.0
  0
LINE
  5
6F82
330
6F57
100
AcDbEntity
  8
0
  6
CONTINUOUS
100
AcDbLine
 10
14.54309291258661
 20
0.332454594683643
 30
0.0
 11
13.75908329123172
 21
1.116464216038529
 31
0.0
  0
LINE
  5
6F83
330
6F57
100
AcDbEntity
  8
0
  6
CONTINUOUS
100
AcDbLine
 10
14.72714568935081
 20
0.8219210269996244
 30
0.0
 11
13.26913361706399
 21
2.27993309928645
 31
0.0
  0
LINE
  5
6F84
330
6F57
100
AcDbEntity
  8
0
  6
CONTINUOUS
100
AcDbLine
 10
14.91119846611502
 20
1.311387459315606
 30
0.0
 11
12.77918394289625
 21
3.443401982534371
 31
0.0
  0
LINE
  5
6F85
330
6F57
100
AcDbEntity
  8
0
  6
CONTINUOUS
100
AcDbLine
 10
15.09525124287922
 20
1.800853891631587
 30
0.0
 11
12.28923426872852
 21
4.606870865782293
 31
0.0
  0
LINE
  5
6F86
330
6F57
100
AcDbEntity
  8
0
  6
CONTINUOUS
100
AcDbLine
 10
15.27930401964343
 20
2.290320323947569
 30
0.0
 11
11.79928459456078
 21
5.770339749030213
 31
0.0
  0
LINE
  5
6F87
330
6F57
100
AcDbEntity
  8
0
  6
CONTINUOUS
100
AcDbLine
 10
15.46335679640763
 20
2.77978675626355
 30
0.0
 11
14.48885470994921
 21
3.754288842721972
 31
0.0
  0
LINE
  5
6F88
330
6F57
100
AcDbEntity
  8
0
  6
CONTINUOUS
100
AcDbLine
 10
13.88507249233704
 20
4.358071060334137
 30
0.0
 11
11.30933492039305
 21
6.933808632278135
 31
0.0
  0
LINE
  5
6F89
330
6F57
100
AcDbEntity
  8
0
  6
CONTINUOUS
100
AcDbLine
 10
18.75840522805855
 20
0.1582575336928151
 30
0.0
 11
18.25383727664818
 21
0.6628254851031863
 31
0.0
  0
LINE
  5
6F8A
330
6F57
100
AcDbEntity
  8
0
  6
CONTINUOUS
100
AcDbLine
 10
15.64740957317184
 20
3.269253188579531
 30
0.0
 11
14.67288388101266
 21
4.243778880738705
 31
0.0
  0
LINE
  5
6F8B
330
6F57
100
AcDbEntity
  8
0
  6
CONTINUOUS
100
AcDbLine
 10
13.39509276772158
 20
5.521569994029786
 30
0.0
 11
10.81938524622531
 21
8.097277515526056
 31
0.0
  0
LINE
  5
6F8C
330
6F57
100
AcDbEntity
  8
0
  6
CONTINUOUS
100
AcDbLine
 10
18.95798597883369
 20
0.6321959919978686
 30
0.0
 11
17.84825644852853
 21
1.741925522303024
 31
0.0
  0
LINE
  5
6F8D
330
6F57
100
AcDbEntity
  8
0
  6
CONTINUOUS
100
AcDbLine
 10
19.15756672960882
 20
1.106134450302922
 30
0.0
 11
17.44267562040888
 21
2.821025559502861
 31
0.0
  0
LINE
  5
6F8E
330
6F57
100
AcDbEntity
  8
0
  6
CONTINUOUS
100
AcDbLine
 10
15.83146234993604
 20
3.758719620895513
 30
0.0
 11
14.85691305207612
 21
4.733268918755439
 31
0.0
  0
LINE
  5
6F8F
330
6F57
100
AcDbEntity
  8
0
  6
CONTINUOUS
100
AcDbLine
 10
16.01551512670025
 20
4.248186053211494
 30
0.0
 11
15.04094222313957
 21
5.222758956772172
 31
0.0
  0
LINE
  5
6F90
330
6F57
100
AcDbEntity
  8
0
  6
CONTINUOUS
100
AcDbLine
 10
12.90511304310612
 20
6.685068927725435
 30
0.0
 11
10.8270819708403
 21
8.763099999991255
 31
0.0
  0
LINE
  5
6F91
330
6F57
100
AcDbEntity
  8
0
  6
CONTINUOUS
100
AcDbLine
 10
12.41513331849066
 20
7.848567861421083
 30
0.0
 11
11.50060117992049
 21
8.763099999991255
 31
0.0
  0
LINE
  5
6F92
330
6F57
100
AcDbEntity
  8
0
  6
CONTINUOUS
100
AcDbLine
 10
19.35714748038395
 20
1.580072908607975
 30
0.0
 11
17.03709479228923
 21
3.900125596702697
 31
0.0
  0
LINE
  5
6F93
330
6F57
100
AcDbEntity
  8
0
  6
CONTINUOUS
100
AcDbLine
 10
19.55672823115909
 20
2.054011366913028
 30
0.0
 11
16.63151396416958
 21
4.979225633902534
 31
0.0
  0
LINE
  5
6F94
330
6F57
100
AcDbEntity
  8
0
  6
CONTINUOUS
100
AcDbLine
 10
16.19956790346445
 20
4.737652485527476
 30
0.0
 11
15.22497139420302
 21
5.712248994788904
 31
0.0
  0
LINE
  5
6F95
330
6F57
100
AcDbEntity
  8
0
  6
CONTINUOUS
100
AcDbLine
 10
16.38362068022866
 20
5.227118917843457
 30
0.0
 11
15.40900056526648
 21
6.201739032805637
 31
0.0
  0
LINE
  5
6F96
330
6F57
100
AcDbEntity
  8
0
  6
CONTINUOUS
100
AcDbLine
 10
19.75630898193422
 20
2.527949825218081
 30
0.0
 11
18.70774536448286
 21
3.576513442669441
 31
0.0
  0
LINE
  5
6F97
330
6F57
100
AcDbEntity
  8
0
  6
CONTINUOUS
100
AcDbLine
 10
19.95588973270936
 20
3.001888283523134
 30
0.0
 11
18.90726987211446
 21
4.050508144118028
 31
0.0
  0
LINE
  5
6F98
330
6F57
100
AcDbEntity
  8
0
  6
CONTINUOUS
100
AcDbLine
 10
20.15547048348449
 20
3.475826741828186
 30
0.0
 11
19.10679437974606
 21
4.524502845566614
 31
0.0
  0
LINE
  5
6F99
330
6F57
100
AcDbEntity
  8
0
  6
CONTINUOUS
100
AcDbLine
 10
20.35505123425962
 20
3.94976520013324
 30
0.0
 11
19.30631888737766
 21
4.998497547015201
 31
0.0
  0
LINE
  5
6F9A
330
6F57
100
AcDbEntity
  8
0
  6
CONTINUOUS
100
AcDbLine
 10
20.55463198503475
 20
4.423703658438292
 30
0.0
 11
19.50584339500926
 21
5.472492248463787
 31
0.0
  0
LINE
  5
6F9B
330
6F57
100
AcDbEntity
  8
0
  6
CONTINUOUS
100
AcDbLine
 10
18.37481191085755
 20
3.909446896294752
 30
0.0
 11
15.59302973632993
 21
6.691229070822371
 31
0.0
  0
LINE
  5
6F9C
330
6F57
100
AcDbEntity
  8
0
  6
CONTINUOUS
100
AcDbLine
 10
17.96904084440766
 20
4.988737171824825
 30
0.0
 11
15.77705890739338
 21
7.180719108839104
 31
0.0
  0
LINE
  5
6F9D
330
6F57
100
AcDbEntity
  8
0
  6
CONTINUOUS
100
AcDbLine
 10
17.56326977795777
 20
6.068027447354899
 30
0.0
 11
15.96108807845684
 21
7.670209146855838
 31
0.0
  0
LINE
  5
6F9E
330
6F57
100
AcDbEntity
  8
0
  6
CONTINUOUS
100
AcDbLine
 10
17.15749871150789
 20
7.147317722884972
 30
0.0
 11
16.14511724952029
 21
8.15969918487257
 31
0.0
  0
LINE
  5
6F9F
330
6F57
100
AcDbEntity
  8
0
  6
CONTINUOUS
100
AcDbLine
 10
16.751727645058
 20
8.226607998415046
 30
0.0
 11
16.32914642058374
 21
8.649189222889303
 31
0.0
  0
LINE
  5
6FA0
330
6F57
100
AcDbEntity
  8
0
  6
CONTINUOUS
100
AcDbLine
 10
20.75421273580989
 20
4.897642116743345
 30
0.0
 11
19.70536790264086
 21
5.946486949912374
 31
0.0
  0
LINE
  5
6FA1
330
6F57
100
AcDbEntity
  8
0
  6
CONTINUOUS
100
AcDbLine
 10
20.95379348658502
 20
5.371580575048398
 30
0.0
 11
19.90489241027246
 21
6.42048165136096
 31
0.0
  0
LINE
  5
6FA2
330
6F57
100
AcDbEntity
  8
0
  6
CONTINUOUS
100
AcDbLine
 10
21.15337423736015
 20
5.845519033353452
 30
0.0
 11
20.10441691790406
 21
6.894476352809547
 31
0.0
  0
LINE
  5
6FA3
330
6F57
100
AcDbEntity
  8
0
  6
CONTINUOUS
100
AcDbLine
 10
21.35295498813529
 20
6.319457491658505
 30
0.0
 11
20.30394142553566
 21
7.368471054258134
 31
0.0
  0
LINE
  5
6FA4
330
6F57
100
AcDbEntity
  8
0
  6
CONTINUOUS
100
AcDbLine
 10
21.55253573891042
 20
6.793395949963558
 30
0.0
 11
20.50346593316726
 21
7.842465755706721
 31
0.0
  0
LINE
  5
6FA5
330
6F57
100
AcDbEntity
  8
0
  6
CONTINUOUS
100
AcDbLine
 10
21.75211648968556
 20
7.267334408268612
 30
0.0
 11
20.70299044079886
 21
8.316460457155308
 31
0.0
  0
LINE
  5
6FA6
330
6F57
100
AcDbEntity
  8
0
  6
CONTINUOUS
100
AcDbLine
 10
21.95169724046069
 20
7.741272866573663
 30
0.0
 11
20.9298701070431
 21
8.763099999991256
 31
0.0
  0
LINE
  5
6FA7
330
6F57
100
AcDbEntity
  8
0
  6
CONTINUOUS
100
AcDbLine
 10
22.15127799123582
 20
8.215211324878716
 30
0.0
 11
21.60338931612328
 21
8.763099999991256
 31
0.0
  0
LINE
  5
6FA8
330
6F57
100
AcDbEntity
  8
0
  6
CONTINUOUS
100
AcDbLine
 10
22.35085874201096
 20
8.689149783183769
 30
0.0
 11
22.27690852520347
 21
8.763099999991255
 31
0.0
  0
ENDBLK
  5
709A
330
6F57
100
AcDbEntity
  8
0
100
AcDbBlockEnd
  0
BLOCK
  5
709B
330
6FA9
100
AcDbEntity
  8
0
100
AcDbBlockBegin
  2
*X32
 70
     1
 10
0.0
 20
0.0
 30
0.0
  3
*X32
  1

  0
LINE
  5
6FAA
330
6FA9
100
AcDbEntity
  8
0
  6
CONTINUOUS
100
AcDbLine
 10
23.19462913593892
 20
8.169917934846424
 30
0.0
 11
23.70775465517246
 21
8.683043454079957
 31
0.0
  0
LINE
  5
6FAB
330
6FA9
100
AcDbEntity
  8
0
  6
CONTINUOUS
100
AcDbLine
 10
22.64923161835078
 20
6.951001208178088
 30
0.0
 11
23.9159364069932
 21
8.217705996820516
 31
0.0
  0
LINE
  5
6FAC
330
6FA9
100
AcDbEntity
  8
0
  6
CONTINUOUS
100
AcDbLine
 10
22.10383410076263
 20
5.732084481509751
 30
0.0
 11
24.12411815881395
 21
7.752368539561078
 31
0.0
  0
LINE
  5
6FAD
330
6FA9
100
AcDbEntity
  8
0
  6
CONTINUOUS
100
AcDbLine
 10
21.55843658317447
 20
4.513167754841414
 30
0.0
 11
24.3322999106347
 21
7.287031082301639
 31
0.0
  0
LINE
  5
6FAE
330
6FA9
100
AcDbEntity
  8
0
  6
CONTINUOUS
100
AcDbLine
 10
21.01303906558632
 20
3.294251028173077
 30
0.0
 11
24.54048166245544
 21
6.821693625042199
 31
0.0
  0
LINE
  5
6FAF
330
6FA9
100
AcDbEntity
  8
0
  6
CONTINUOUS
100
AcDbLine
 10
20.46764154799817
 20
2.075334301504738
 30
0.0
 11
23.28571549467848
 21
4.89340824818505
 31
0.0
  0
LINE
  5
6FB0
330
6FA9
100
AcDbEntity
  8
0
  6
CONTINUOUS
100
AcDbLine
 10
19.92224403041002
 20
0.8564175748364002
 30
0.0
 11
22.74075865492779
 21
3.674932199354171
 31
0.0
  0
LINE
  5
6FB1
330
6FA9
100
AcDbEntity
  8
0
  6
CONTINUOUS
100
AcDbLine
 10
23.67305085490148
 20
5.280743608408048
 30
0.0
 11
24.74866341427619
 21
6.356356167782759
 31
0.0
  0
LINE
  5
6FB2
330
6FA9
100
AcDbEntity
  8
0
  6
CONTINUOUS
100
AcDbLine
 10
23.88118970842314
 20
4.815363252849522
 30
0.0
 11
24.95684516609694
 21
5.89101871052332
 31
0.0
  0
LINE
  5
6FB3
330
6FA9
100
AcDbEntity
  8
0
  6
CONTINUOUS
100
AcDbLine
 10
19.73925852647308
 20
-0.0000871381807288
 30
0.0
 11
23.4103456646501
 21
3.670999999996297
 31
0.0
  0
LINE
  5
6FB4
330
6FA9
100
AcDbEntity
  8
0
  6
CONTINUOUS
100
AcDbLine
 10
24.0893285619448
 20
4.349982897290997
 30
0.0
 11
25.16502691791769
 21
5.42568125326388
 31
0.0
  0
LINE
  5
6FB5
330
6FA9
100
AcDbEntity
  8
0
  6
CONTINUOUS
100
AcDbLine
 10
20.41282099582748
 20
-0.0000438779065108
 30
0.0
 11
21.64944178675636
 21
1.236576913022366
 31
0.0
  0
LINE
  5
6FB6
330
6FA9
100
AcDbEntity
  8
0
  6
CONTINUOUS
100
AcDbLine
 10
22.78126487373161
 20
2.36839999999762
 30
0.0
 11
24.08386487373029
 21
3.670999999996297
 31
0.0
  0
LINE
  5
6FB7
330
6FA9
100
AcDbEntity
  8
0
  6
CONTINUOUS
100
AcDbLine
 10
24.29746741546646
 20
3.884602541732471
 30
0.0
 11
25.37320866973843
 21
4.960343796004441
 31
0.0
  0
LINE
  5
6FB8
330
6FA9
100
AcDbEntity
  8
0
  6
CONTINUOUS
100
AcDbLine
 10
21.08638346518189
 20
-0.0000006176322938
 30
0.0
 11
21.10379033335899
 21
0.0174062505448083
 31
0.0
  0
LINE
  5
6FB9
330
6FA9
100
AcDbEntity
  8
0
  6
CONTINUOUS
100
AcDbLine
 10
23.4547840828118
 20
2.36839999999762
 30
0.0
 11
25.58139042155918
 21
4.495006338745002
 31
0.0
  0
LINE
  5
6FBA
330
6FA9
100
AcDbEntity
  8
0
  6
CONTINUOUS
100
AcDbLine
 10
29.30199999996933
 20
8.215615917155148
 30
0.0
 11
29.84948408280543
 21
8.763099999991255
 31
0.0
  0
LINE
  5
6FBB
330
6FA9
100
AcDbEntity
  8
0
  6
CONTINUOUS
100
AcDbLine
 10
24.12830329189199
 20
2.36839999999762
 30
0.0
 11
25.78957217337993
 21
4.029668881485562
 31
0.0
  0
LINE
  5
6FBC
330
6FA9
100
AcDbEntity
  8
0
  6
CONTINUOUS
100
AcDbLine
 10
29.30199999996933
 20
7.54209670807496
 30
0.0
 11
30.52300329188562
 21
8.763099999991255
 31
0.0
  0
LINE
  5
6FBD
330
6FA9
100
AcDbEntity
  8
0
  6
CONTINUOUS
100
AcDbLine
 10
24.80182250097217
 20
2.36839999999762
 30
0.0
 11
25.99775392520067
 21
3.564331424226122
 31
0.0
  0
LINE
  5
6FBE
330
6FA9
100
AcDbEntity
  8
0
  6
CONTINUOUS
100
AcDbLine
 10
29.30199999996933
 20
6.868577498994774
 30
0.0
 11
30.74199999996926
 21
8.308577498994712
 31
0.0
  0
LINE
  5
6FBF
330
6FA9
100
AcDbEntity
  8
0
  6
CONTINUOUS
100
AcDbLine
 10
25.13028238392013
 20
2.023340673865392
 30
0.0
 11
26.20593567702142
 21
3.098993966966683
 31
0.0
  0
LINE
  5
6FC0
330
6FA9
100
AcDbEntity
  8
0
  6
CONTINUOUS
100
AcDbLine
 10
25.33838066033617
 20
1.557919741201244
 30
0.0
 11
26.41411742884217
 21
2.633656509707244
 31
0.0
  0
LINE
  5
6FC1
330
6FA9
100
AcDbEntity
  8
0
  6
CONTINUOUS
100
AcDbLine
 10
25.54647893675221
 20
1.092498808537098
 30
0.0
 11
26.62229918066291
 21
2.168319052447804
 31
0.0
  0
LINE
  5
6FC2
330
6FA9
100
AcDbEntity
  8
0
  6
CONTINUOUS
100
AcDbLine
 10
25.75457721316825
 20
0.62707787587295
 30
0.0
 11
26.83048093248366
 21
1.702981595188365
 31
0.0
  0
LINE
  5
6FC3
330
6FA9
100
AcDbEntity
  8
0
  6
CONTINUOUS
100
AcDbLine
 10
29.30199999996933
 20
6.195058289914587
 30
0.0
 11
30.74199999996926
 21
7.635058289914522
 31
0.0
  0
LINE
  5
6FC4
330
6FA9
100
AcDbEntity
  8
0
  6
CONTINUOUS
100
AcDbLine
 10
29.30199999996933
 20
5.521539080834401
 30
0.0
 11
30.74199999996926
 21
6.961539080834331
 31
0.0
  0
LINE
  5
6FC5
330
6FA9
100
AcDbEntity
  8
0
  6
CONTINUOUS
100
AcDbLine
 10
29.30199999996933
 20
4.848019871754214
 30
0.0
 11
30.74199999996925
 21
6.288019871754143
 31
0.0
  0
LINE
  5
6FC6
330
6FA9
100
AcDbEntity
  8
0
  6
CONTINUOUS
100
AcDbLine
 10
29.30199999996933
 20
4.174500662674028
 30
0.0
 11
30.74199999996925
 21
5.614500662673953
 31
0.0
  0
LINE
  5
6FC7
330
6FA9
100
AcDbEntity
  8
0
  6
CONTINUOUS
100
AcDbLine
 10
25.96267548958429
 20
0.1616569432088024
 30
0.0
 11
27.18411854636669
 21
1.383099999991207
 31
0.0
  0
LINE
  5
6FC8
330
6FA9
100
AcDbEntity
  8
0
  6
CONTINUOUS
100
AcDbLine
 10
29.30199999996933
 20
3.500981453593841
 30
0.0
 11
30.74199999996925
 21
4.940981453593762
 31
0.0
  0
LINE
  5
6FC9
330
6FA9
100
AcDbEntity
  8
0
  6
CONTINUOUS
100
AcDbLine
 10
26.50763775544691
 20
0.0330999999912356
 30
0.0
 11
27.85763775544689
 21
1.383099999991223
 31
0.0
  0
LINE
  5
6FCA
330
6FA9
100
AcDbEntity
  8
0
  6
CONTINUOUS
100
AcDbLine
 10
29.30199999996933
 20
2.827462244513656
 30
0.0
 11
30.74199999996925
 21
4.267462244513574
 31
0.0
  0
LINE
  5
6FCB
330
6FA9
100
AcDbEntity
  8
0
  6
CONTINUOUS
100
AcDbLine
 10
27.18115696452709
 20
0.0330999999912356
 30
0.0
 11
28.55073879889363
 21
1.402681834357775
 31
0.0
  0
LINE
  5
6FCC
330
6FA9
100
AcDbEntity
  8
0
  6
CONTINUOUS
100
AcDbLine
 10
29.28241816560272
 20
2.134361201066866
 30
0.0
 11
30.74199999996924
 21
3.593943035433383
 31
0.0
  0
LINE
  5
6FCD
330
6FA9
100
AcDbEntity
  8
0
  6
CONTINUOUS
100
AcDbLine
 10
27.85467617360728
 20
0.0330999999912356
 30
0.0
 11
30.74199999996924
 21
2.920423826353195
 31
0.0
  0
LINE
  5
6FCE
330
6FA9
100
AcDbEntity
  8
0
  6
CONTINUOUS
100
AcDbLine
 10
28.53897559587887
 20
0.0438802131826428
 30
0.0
 11
30.73121978677781
 21
2.236124404081585
 31
0.0
  0
LINE
  5
6FCF
330
6FA9
100
AcDbEntity
  8
0
  6
CONTINUOUS
100
AcDbLine
 10
29.45140055588722
 20
0.2827859641107988
 30
0.0
 11
30.49231403584965
 21
1.323699444073236
 31
0.0
  0
LINE
  5
6FD0
330
6FA9
100
AcDbEntity
  8
0
  6
CONTINUOUS
100
AcDbLine
 10
19.59027867740337
 20
-0.0000967065718083
 30
0.0
 11
19.55485265190471
 21
0.035329318926844
 31
0.0
  0
LINE
  5
6FD1
330
6FA9
100
AcDbEntity
  8
0
  6
CONTINUOUS
100
AcDbLine
 10
20.26375463176586
 20
-0.0000534518541091
 30
0.0
 11
19.76305575737534
 21
0.5006454225364014
 31
0.0
  0
LINE
  5
6FD2
330
6FA9
100
AcDbEntity
  8
0
  6
CONTINUOUS
100
AcDbLine
 10
20.93723058612834
 20
-0.0000101971364099
 30
0.0
 11
19.97125886284597
 21
0.965961526145958
 31
0.0
  0
LINE
  5
6FD3
330
6FA9
100
AcDbEntity
  8
0
  6
CONTINUOUS
100
AcDbLine
 10
21.25514828313686
 20
0.355591314935257
 30
0.0
 11
20.1794619683166
 21
1.431277629755512
 31
0.0
  0
LINE
  5
6FD4
330
6FA9
100
AcDbEntity
  8
0
  6
CONTINUOUS
100
AcDbLine
 10
21.46338838394921
 20
0.8208704232030986
 30
0.0
 11
20.38766507378723
 21
1.896593733365069
 31
0.0
  0
LINE
  5
6FD5
330
6FA9
100
AcDbEntity
  8
0
  6
CONTINUOUS
100
AcDbLine
 10
21.67162848476155
 20
1.28614953147094
 30
0.0
 11
20.59586817925786
 21
2.361909836974626
 31
0.0
  0
LINE
  5
6FD6
330
6FA9
100
AcDbEntity
  8
0
  6
CONTINUOUS
100
AcDbLine
 10
21.8798685855739
 20
1.751428639738782
 30
0.0
 11
20.80407128472849
 21
2.827225940584183
 31
0.0
  0
LINE
  5
6FD7
330
6FA9
100
AcDbEntity
  8
0
  6
CONTINUOUS
100
AcDbLine
 10
22.08810868638624
 20
2.216707748006623
 30
0.0
 11
21.01227439019912
 21
3.292542044193739
 31
0.0
  0
LINE
  5
6FD8
330
6FA9
100
AcDbEntity
  8
0
  6
CONTINUOUS
100
AcDbLine
 10
22.60993564347543
 20
2.36839999999762
 30
0.0
 11
21.22047749566975
 21
3.757858147803296
 31
0.0
  0
LINE
  5
6FD9
330
6FA9
100
AcDbEntity
  8
0
  6
CONTINUOUS
100
AcDbLine
 10
23.28345485255561
 20
2.36839999999762
 30
0.0
 11
21.42868060114038
 21
4.223174251412853
 31
0.0
  0
LINE
  5
6FDA
330
6FA9
100
AcDbEntity
  8
0
  6
CONTINUOUS
100
AcDbLine
 10
26.29227406164219
 20
0.0330999999912356
 30
0.0
 11
25.80009199592872
 21
0.5252820657046957
 31
0.0
  0
LINE
  5
6FDB
330
6FA9
100
AcDbEntity
  8
0
  6
CONTINUOUS
100
AcDbLine
 10
23.9569740616358
 20
2.36839999999762
 30
0.0
 11
21.63688370661101
 21
4.688490355022409
 31
0.0
  0
LINE
  5
6FDC
330
6FA9
100
AcDbEntity
  8
0
  6
CONTINUOUS
100
AcDbLine
 10
26.96579327072237
 20
0.0330999999912356
 30
0.0
 11
25.2554132311971
 21
1.743480039516508
 31
0.0
  0
LINE
  5
6FDD
330
6FA9
100
AcDbEntity
  8
0
  6
CONTINUOUS
100
AcDbLine
 10
24.63049327071599
 20
2.36839999999762
 30
0.0
 11
23.32789327071731
 21
3.670999999996297
 31
0.0
  0
LINE
  5
6FDE
330
6FA9
100
AcDbEntity
  8
0
  6
CONTINUOUS
100
AcDbLine
 10
22.92098674744635
 20
4.077906523267254
 30
0.0
 11
21.84508681208164
 21
5.153806458631966
 31
0.0
  0
LINE
  5
6FDF
330
6FA9
100
AcDbEntity
  8
0
  6
CONTINUOUS
100
AcDbLine
 10
27.63931247980256
 20
0.0330999999912356
 30
0.0
 11
24.0014124797975
 21
3.670999999996297
 31
0.0
  0
LINE
  5
6FE0
330
6FA9
100
AcDbEntity
  8
0
  6
CONTINUOUS
100
AcDbLine
 10
23.129125600968
 20
4.5432868788258
 30
0.0
 11
22.05328991755227
 21
5.619122562241522
 31
0.0
  0
LINE
  5
6FE1
330
6FA9
100
AcDbEntity
  8
0
  6
CONTINUOUS
100
AcDbLine
 10
28.31283168888275
 20
0.0330999999912356
 30
0.0
 11
24.16488385994816
 21
4.181047828925828
 31
0.0
  0
LINE
  5
6FE2
330
6FA9
100
AcDbEntity
  8
0
  6
CONTINUOUS
100
AcDbLine
 10
23.33726445448964
 20
5.008667234384345
 30
0.0
 11
22.2614930230229
 21
6.084438665851079
 31
0.0
  0
LINE
  5
6FE3
330
6FA9
100
AcDbEntity
  8
0
  6
CONTINUOUS
100
AcDbLine
 10
28.92085740005492
 20
0.0985934978992438
 30
0.0
 11
27.63635089796295
 21
1.383099999991217
 31
0.0
  0
LINE
  5
6FE4
330
6FA9
100
AcDbEntity
  8
0
  6
CONTINUOUS
100
AcDbLine
 10
26.43704649509776
 20
2.582404402856405
 30
0.0
 11
23.61992702019732
 21
5.399523877756844
 31
0.0
  0
LINE
  5
6FE5
330
6FA9
100
AcDbEntity
  8
0
  6
CONTINUOUS
100
AcDbLine
 10
23.54540330801128
 20
5.47404758994289
 30
0.0
 11
22.46969612849353
 21
6.549754769460635
 31
0.0
  0
LINE
  5
6FE6
330
6FA9
100
AcDbEntity
  8
0
  6
CONTINUOUS
100
AcDbLine
 10
29.42225615078443
 20
0.2707139562499279
 30
0.0
 11
28.30987010704312
 21
1.383099999991234
 31
0.0
  0
LINE
  5
6FE7
330
6FA9
100
AcDbEntity
  8
0
  6
CONTINUOUS
100
AcDbLine
 10
25.89179548232307
 20
3.801174624711282
 30
0.0
 11
22.67789923396416
 21
7.015070873070191
 31
0.0
  0
LINE
  5
6FE8
330
6FA9
100
AcDbEntity
  8
0
  6
CONTINUOUS
100
AcDbLine
 10
29.83624534690007
 20
0.5302439692144705
 30
0.0
 11
28.85811781497101
 21
1.508371501143527
 31
0.0
  0
LINE
  5
6FE9
330
6FA9
100
AcDbEntity
  8
0
  6
CONTINUOUS
100
AcDbLine
 10
25.34654446954838
 20
5.01994484656616
 30
0.0
 11
22.88610233943479
 21
7.480386976679748
 31
0.0
  0
LINE
  5
6FEA
330
6FA9
100
AcDbEntity
  8
0
  6
CONTINUOUS
100
AcDbLine
 10
30.17865975401872
 20
0.8613487711760022
 30
0.0
 11
29.18888744090175
 21
1.851121084292977
 31
0.0
  0
LINE
  5
6FEB
330
6FA9
100
AcDbEntity
  8
0
  6
CONTINUOUS
100
AcDbLine
 10
24.80129345677369
 20
6.238715068421037
 30
0.0
 11
23.09430544490542
 21
7.945703080289305
 31
0.0
  0
LINE
  5
6FEC
330
6FA9
100
AcDbEntity
  8
0
  6
CONTINUOUS
100
AcDbLine
 10
30.45496647202376
 20
1.258561262251155
 30
0.0
 11
29.30199999996933
 21
2.411527734305588
 31
0.0
  0
LINE
  5
6FED
330
6FA9
100
AcDbEntity
  8
0
  6
CONTINUOUS
100
AcDbLine
 10
24.256042443999
 20
7.457485290275915
 30
0.0
 11
23.30250855037605
 21
8.411019183898862
 31
0.0
  0
LINE
  5
6FEE
330
6FA9
100
AcDbEntity
  8
0
  6
CONTINUOUS
100
AcDbLine
 10
30.64868582078271
 20
1.738361122572387
 30
0.0
 11
29.30199999996933
 21
3.085046943385775
 31
0.0
  0
LINE
  5
6FEF
330
6FA9
100
AcDbEntity
  8
0
  6
CONTINUOUS
100
AcDbLine
 10
23.71079143122431
 20
8.676255512130794
 30
0.0
 11
23.51071165584668
 21
8.876335287508416
 31
0.0
  0
LINE
  5
6FF0
330
6FA9
100
AcDbEntity
  8
0
  6
CONTINUOUS
100
AcDbLine
 10
30.73802122914428
 20
2.322544923291007
 30
0.0
 11
29.30199999996933
 21
3.758566152465961
 31
0.0
  0
LINE
  5
6FF1
330
6FA9
100
AcDbEntity
  8
0
  6
CONTINUOUS
100
AcDbLine
 10
30.74199999996924
 20
2.992085361546236
 30
0.0
 11
29.30199999996933
 21
4.432085361546148
 31
0.0
  0
LINE
  5
6FF2
330
6FA9
100
AcDbEntity
  8
0
  6
CONTINUOUS
100
AcDbLine
 10
30.74199999996924
 20
3.665604570626419
 30
0.0
 11
29.30199999996933
 21
5.105604570626333
 31
0.0
  0
LINE
  5
6FF3
330
6FA9
100
AcDbEntity
  8
0
  6
CONTINUOUS
100
AcDbLine
 10
30.74199999996925
 20
4.339123779706602
 30
0.0
 11
29.30199999996933
 21
5.77912377970652
 31
0.0
  0
LINE
  5
6FF4
330
6FA9
100
AcDbEntity
  8
0
  6
CONTINUOUS
100
AcDbLine
 10
30.74199999996925
 20
5.012642988786785
 30
0.0
 11
29.30199999996933
 21
6.452642988786707
 31
0.0
  0
LINE
  5
6FF5
330
6FA9
100
AcDbEntity
  8
0
  6
CONTINUOUS
100
AcDbLine
 10
30.74199999996925
 20
5.68616219786697
 30
0.0
 11
29.30199999996933
 21
7.126162197866894
 31
0.0
  0
LINE
  5
6FF6
330
6FA9
100
AcDbEntity
  8
0
  6
CONTINUOUS
100
AcDbLine
 10
30.74199999996925
 20
6.359681406947153
 30
0.0
 11
29.30199999996933
 21
7.799681406947081
 31
0.0
  0
LINE
  5
6FF7
330
6FA9
100
AcDbEntity
  8
0
  6
CONTINUOUS
100
AcDbLine
 10
30.74199999996926
 20
7.033200616027337
 30
0.0
 11
29.30199999996933
 21
8.473200616027269
 31
0.0
  0
LINE
  5
6FF8
330
6FA9
100
AcDbEntity
  8
0
  6
CONTINUOUS
100
AcDbLine
 10
30.74199999996926
 20
7.706719825107518
 30
0.0
 11
29.68561982508552
 21
8.763099999991255
 31
0.0
  0
LINE
  5
6FF9
330
6FA9
100
AcDbEntity
  8
0
  6
CONTINUOUS
100
AcDbLine
 10
30.74199999996926
 20
8.380239034187703
 30
0.0
 11
30.35913903416571
 21
8.763099999991255
 31
0.0
  0
ENDBLK
  5
709C
330
6FA9
100
AcDbEntity
  8
0
100
AcDbBlockEnd
  0
BLOCK
  5
709D
330
6FFA
100
AcDbEntity
  8
0
100
AcDbBlockBegin
  2
*X33
 70
     1
 10
0.0
 20
0.0
 30
0.0
  3
*X33
  1

  0
LINE
  5
6FFB
330
6FFA
100
AcDbEntity
  8
0
  6
CONTINUOUS
100
AcDbLine
 10
31.64199999996833
 20
8.535058289913598
 30
0.0
 11
31.87004171004599
 21
8.763099999991255
 31
0.0
  0
LINE
  5
6FFC
330
6FFA
100
AcDbEntity
  8
0
  6
CONTINUOUS
100
AcDbLine
 10
31.64199999996833
 20
7.861539080833412
 30
0.0
 11
32.54356091912618
 21
8.763099999991255
 31
0.0
  0
LINE
  5
6FFD
330
6FFA
100
AcDbEntity
  8
0
  6
CONTINUOUS
100
AcDbLine
 10
31.64199999996833
 20
7.188019871753226
 30
0.0
 11
33.08199999996839
 21
8.628019871753281
 31
0.0
  0
LINE
  5
6FFE
330
6FFA
100
AcDbEntity
  8
0
  6
CONTINUOUS
100
AcDbLine
 10
31.64199999996833
 20
6.51450066267304
 30
0.0
 11
33.08199999996839
 21
7.954500662673095
 31
0.0
  0
LINE
  5
6FFF
330
6FFA
100
AcDbEntity
  8
0
  6
CONTINUOUS
100
AcDbLine
 10
31.64199999996833
 20
5.840981453592853
 30
0.0
 11
33.08199999996839
 21
7.280981453592908
 31
0.0
  0
LINE
  5
7000
330
6FFA
100
AcDbEntity
  8
0
  6
CONTINUOUS
100
AcDbLine
 10
31.64199999996833
 20
5.167462244512667
 30
0.0
 11
33.08199999996839
 21
6.607462244512721
 31
0.0
  0
LINE
  5
7001
330
6FFA
100
AcDbEntity
  8
0
  6
CONTINUOUS
100
AcDbLine
 10
31.64199999996833
 20
4.493943035432481
 30
0.0
 11
33.08199999996839
 21
5.933943035432535
 31
0.0
  0
LINE
  5
7002
330
6FFA
100
AcDbEntity
  8
0
  6
CONTINUOUS
100
AcDbLine
 10
31.64199999996833
 20
3.820423826352293
 30
0.0
 11
33.08199999996839
 21
5.260423826352348
 31
0.0
  0
LINE
  5
7003
330
6FFA
100
AcDbEntity
  8
0
  6
CONTINUOUS
100
AcDbLine
 10
31.64199999996833
 20
3.146904617272106
 30
0.0
 11
33.08199999996839
 21
4.586904617272161
 31
0.0
  0
LINE
  5
7004
330
6FFA
100
AcDbEntity
  8
0
  6
CONTINUOUS
100
AcDbLine
 10
36.23199999996837
 20
8.410423826352325
 30
0.0
 11
36.5846761736073
 21
8.763099999991255
 31
0.0
  0
LINE
  5
7005
330
6FFA
100
AcDbEntity
  8
0
  6
CONTINUOUS
100
AcDbLine
 10
36.23199999996837
 20
7.73690461727214
 30
0.0
 11
37.25819538268748
 21
8.763099999991255
 31
0.0
  0
LINE
  5
7006
330
6FFA
100
AcDbEntity
  8
0
  6
CONTINUOUS
100
AcDbLine
 10
31.64257403601376
 20
2.473959444237348
 30
0.0
 11
33.08199999996839
 21
3.913385408191974
 31
0.0
  0
LINE
  5
7007
330
6FFA
100
AcDbEntity
  8
0
  6
CONTINUOUS
100
AcDbLine
 10
36.23199999996837
 20
7.063385408191953
 30
0.0
 11
37.67199999996831
 21
8.503385408191894
 31
0.0
  0
LINE
  5
7008
330
6FFA
100
AcDbEntity
  8
0
  6
CONTINUOUS
100
AcDbLine
 10
31.72013636841932
 20
1.87800256756272
 30
0.0
 11
33.08199999996839
 21
3.239866199111788
 31
0.0
  0
LINE
  5
7009
330
6FFA
100
AcDbEntity
  8
0
  6
CONTINUOUS
100
AcDbLine
 10
36.23199999996837
 20
6.389866199111767
 30
0.0
 11
37.67199999996831
 21
7.829866199111708
 31
0.0
  0
LINE
  5
700A
330
6FFA
100
AcDbEntity
  8
0
  6
CONTINUOUS
100
AcDbLine
 10
31.89042734314753
 20
1.374774333210744
 30
0.0
 11
33.08199999996839
 21
2.566346990031601
 31
0.0
  0
LINE
  5
700B
330
6FFA
100
AcDbEntity
  8
0
  6
CONTINUOUS
100
AcDbLine
 10
36.23199999996837
 20
5.71634699003158
 30
0.0
 11
37.67199999996831
 21
7.156346990031521
 31
0.0
  0
LINE
  5
700C
330
6FFA
100
AcDbEntity
  8
0
  6
CONTINUOUS
100
AcDbLine
 10
32.14210568064475
 20
0.952933461627778
 30
0.0
 11
33.18745552475986
 21
1.998283305742888
 31
0.0
  0
LINE
  5
700D
330
6FFA
100
AcDbEntity
  8
0
  6
CONTINUOUS
100
AcDbLine
 10
36.23199999996837
 20
5.042827780951393
 30
0.0
 11
37.67199999996831
 21
6.482827780951334
 31
0.0
  0
LINE
  5
700E
330
6FFA
100
AcDbEntity
  8
0
  6
CONTINUOUS
100
AcDbLine
 10
32.45820639400955
 20
0.5955149659123915
 30
0.0
 11
33.47242681921943
 21
1.60973539112227
 31
0.0
  0
LINE
  5
700F
330
6FFA
100
AcDbEntity
  8
0
  6
CONTINUOUS
100
AcDbLine
 10
36.23199999996837
 20
4.369308571871207
 30
0.0
 11
37.67199999996831
 21
5.809308571871147
 31
0.0
  0
LINE
  5
7010
330
6FFA
100
AcDbEntity
  8
0
  6
CONTINUOUS
100
AcDbLine
 10
32.83432456621412
 20
0.2981139290367771
 30
0.0
 11
33.89722476612215
 21
1.361014128944803
 31
0.0
  0
LINE
  5
7011
330
6FFA
100
AcDbEntity
  8
0
  6
CONTINUOUS
100
AcDbLine
 10
36.23199999996837
 20
3.69578936279102
 30
0.0
 11
37.67199999996831
 21
5.135789362790962
 31
0.0
  0
LINE
  5
7012
330
6FFA
100
AcDbEntity
  8
0
  6
CONTINUOUS
100
AcDbLine
 10
33.2711633111245
 20
0.0614334648669672
 30
0.0
 11
34.43247338014423
 21
1.222743533886696
 31
0.0
  0
LINE
  5
7013
330
6FFA
100
AcDbEntity
  8
0
  6
CONTINUOUS
100
AcDbLine
 10
36.23199999996837
 20
3.022270153710834
 30
0.0
 11
37.67199999996831
 21
4.462270153710775
 31
0.0
  0
LINE
  5
7014
330
6FFA
100
AcDbEntity
  8
0
  6
CONTINUOUS
100
AcDbLine
 10
33.76515245874577
 20
-0.1180965965919523
 30
0.0
 11
35.1587445516215
 21
1.27549549628378
 31
0.0
  0
LINE
  5
7015
330
6FFA
100
AcDbEntity
  8
0
  6
CONTINUOUS
100
AcDbLine
 10
36.21639478609585
 20
2.333145730758136
 30
0.0
 11
37.67199999996831
 21
3.788750944630588
 31
0.0
  0
LINE
  5
7016
330
6FFA
100
AcDbEntity
  8
0
  6
CONTINUOUS
100
AcDbLine
 10
34.34060583368432
 20
-0.2161624307335863
 30
0.0
 11
37.67199999996831
 21
3.115231735550401
 31
0.0
  0
LINE
  5
7017
330
6FFA
100
AcDbEntity
  8
0
  6
CONTINUOUS
100
AcDbLine
 10
35.01698193613905
 20
-0.2133055373590427
 30
0.0
 11
37.66876712070525
 21
2.438479647207154
 31
0.0
  0
LINE
  5
7018
330
6FFA
100
AcDbEntity
  8
0
  6
CONTINUOUS
100
AcDbLine
 10
35.90743367693304
 20
0.0036269943547609
 30
0.0
 11
37.51723902192366
 21
1.613432339345381
 31
0.0
  0
LINE
  5
7019
330
6FFA
100
AcDbEntity
  8
0
  6
CONTINUOUS
100
AcDbLine
 10
32.55309425579761
 20
0.5074718966376706
 30
0.0
 11
32.27784730925847
 21
0.7827188431768102
 31
0.0
  0
LINE
  5
701A
330
6FFA
100
AcDbEntity
  8
0
  6
CONTINUOUS
100
AcDbLine
 10
33.87496468909684
 20
-0.1408793275813673
 30
0.0
 11
31.67993083278052
 21
2.054154528734943
 31
0.0
  0
LINE
  5
701B
330
6FFA
100
AcDbEntity
  8
0
  6
CONTINUOUS
100
AcDbLine
 10
34.64362813207632
 20
-0.2360235614806649
 30
0.0
 11
31.64199999996833
 21
2.765604570627322
 31
0.0
  0
LINE
  5
701C
330
6FFA
100
AcDbEntity
  8
0
  6
CONTINUOUS
100
AcDbLine
 10
35.25801106796118
 20
-0.1768872882853429
 30
0.0
 11
31.64199999996833
 21
3.439123779707508
 31
0.0
  0
LINE
  5
701D
330
6FFA
100
AcDbEntity
  8
0
  6
CONTINUOUS
100
AcDbLine
 10
35.79065650332146
 20
-0.0360135145654361
 30
0.0
 11
34.54143210838231
 21
1.213210880373721
 31
0.0
  0
LINE
  5
701E
330
6FFA
100
AcDbEntity
  8
0
  6
CONTINUOUS
100
AcDbLine
 10
33.08199999996839
 20
2.67264298878764
 30
0.0
 11
31.64199999996833
 21
4.112642988787695
 31
0.0
  0
LINE
  5
701F
330
6FFA
100
AcDbEntity
  8
0
  6
CONTINUOUS
100
AcDbLine
 10
36.25975597779143
 20
0.1684062200447833
 30
0.0
 11
35.15395110240023
 21
1.274211095435983
 31
0.0
  0
LINE
  5
7020
330
6FFA
100
AcDbEntity
  8
0
  6
CONTINUOUS
100
AcDbLine
 10
33.08199999996839
 20
3.346162197867826
 30
0.0
 11
31.64199999996833
 21
4.786162197867881
 31
0.0
  0
LINE
  5
7021
330
6FFA
100
AcDbEntity
  8
0
  6
CONTINUOUS
100
AcDbLine
 10
36.67226329638774
 20
0.4294181105286579
 30
0.0
 11
35.63766478748767
 21
1.464016619428737
 31
0.0
  0
LINE
  5
7022
330
6FFA
100
AcDbEntity
  8
0
  6
CONTINUOUS
100
AcDbLine
 10
33.08199999996839
 20
4.019681406948012
 30
0.0
 11
31.64199999996833
 21
5.459681406948068
 31
0.0
  0
LINE
  5
7023
330
6FFA
100
AcDbEntity
  8
0
  6
CONTINUOUS
100
AcDbLine
 10
37.01677749710036
 20
0.7584231188962329
 30
0.0
 11
35.99563422741351
 21
1.779566388583076
 31
0.0
  0
LINE
  5
7024
330
6FFA
100
AcDbEntity
  8
0
  6
CONTINUOUS
100
AcDbLine
 10
33.08199999996839
 20
4.693200616028199
 30
0.0
 11
31.64199999996833
 21
6.133200616028255
 31
0.0
  0
LINE
  5
7025
330
6FFA
100
AcDbEntity
  8
0
  6
CONTINUOUS
100
AcDbLine
 10
37.29859977568887
 20
1.1501200493879
 30
0.0
 11
36.20680593341555
 21
2.241913891661226
 31
0.0
  0
LINE
  5
7026
330
6FFA
100
AcDbEntity
  8
0
  6
CONTINUOUS
100
AcDbLine
 10
33.08199999996839
 20
5.366719825108386
 30
0.0
 11
31.64199999996833
 21
6.80671982510844
 31
0.0
  0
LINE
  5
7027
330
6FFA
100
AcDbEntity
  8
0
  6
CONTINUOUS
100
AcDbLine
 10
37.5148623517228
 20
1.607376682434161
 30
0.0
 11
36.23199999996837
 21
2.890239034188594
 31
0.0
  0
LINE
  5
7028
330
6FFA
100
AcDbEntity
  8
0
  6
CONTINUOUS
100
AcDbLine
 10
33.08199999996839
 20
6.040239034188573
 30
0.0
 11
31.64199999996833
 21
7.480239034188627
 31
0.0
  0
LINE
  5
7029
330
6FFA
100
AcDbEntity
  8
0
  6
CONTINUOUS
100
AcDbLine
 10
37.64705163358367
 20
2.148706609653477
 30
0.0
 11
36.23199999996837
 21
3.56375824326878
 31
0.0
  0
LINE
  5
702A
330
6FFA
100
AcDbEntity
  8
0
  6
CONTINUOUS
100
AcDbLine
 10
33.08199999996839
 20
6.713758243268758
 30
0.0
 11
31.64199999996833
 21
8.153758243268815
 31
0.0
  0
LINE
  5
702B
330
6FFA
100
AcDbEntity
  8
0
  6
CONTINUOUS
100
AcDbLine
 10
37.67199999996831
 20
2.797277452349026
 30
0.0
 11
36.23199999996837
 21
4.237277452348967
 31
0.0
  0
LINE
  5
702C
330
6FFA
100
AcDbEntity
  8
0
  6
CONTINUOUS
100
AcDbLine
 10
37.67199999996831
 20
3.470796661429213
 30
0.0
 11
36.23199999996837
 21
4.910796661429154
 31
0.0
  0
LINE
  5
702D
330
6FFA
100
AcDbEntity
  8
0
  6
CONTINUOUS
100
AcDbLine
 10
37.67199999996831
 20
4.144315870509399
 30
0.0
 11
36.23199999996837
 21
5.58431587050934
 31
0.0
  0
LINE
  5
702E
330
6FFA
100
AcDbEntity
  8
0
  6
CONTINUOUS
100
AcDbLine
 10
33.08199999996839
 20
7.387277452348945
 30
0.0
 11
31.70617745232608
 21
8.763099999991255
 31
0.0
  0
LINE
  5
702F
330
6FFA
100
AcDbEntity
  8
0
  6
CONTINUOUS
100
AcDbLine
 10
33.08199999996839
 20
8.060796661429132
 30
0.0
 11
32.37969666140626
 21
8.763099999991255
 31
0.0
  0
LINE
  5
7030
330
6FFA
100
AcDbEntity
  8
0
  6
CONTINUOUS
100
AcDbLine
 10
33.08199999996839
 20
8.734315870509318
 30
0.0
 11
33.05321587048645
 21
8.763099999991255
 31
0.0
  0
LINE
  5
7031
330
6FFA
100
AcDbEntity
  8
0
  6
CONTINUOUS
100
AcDbLine
 10
37.67199999996831
 20
4.817835079589585
 30
0.0
 11
36.23199999996837
 21
6.257835079589526
 31
0.0
  0
LINE
  5
7032
330
6FFA
100
AcDbEntity
  8
0
  6
CONTINUOUS
100
AcDbLine
 10
37.67199999996831
 20
5.491354288669771
 30
0.0
 11
36.23199999996837
 21
6.931354288669713
 31
0.0
  0
LINE
  5
7033
330
6FFA
100
AcDbEntity
  8
0
  6
CONTINUOUS
100
AcDbLine
 10
37.67199999996831
 20
6.164873497749958
 30
0.0
 11
36.23199999996837
 21
7.6048734977499
 31
0.0
  0
LINE
  5
7034
330
6FFA
100
AcDbEntity
  8
0
  6
CONTINUOUS
100
AcDbLine
 10
37.67199999996831
 20
6.838392706830144
 30
0.0
 11
36.23199999996837
 21
8.278392706830086
 31
0.0
  0
LINE
  5
7035
330
6FFA
100
AcDbEntity
  8
0
  6
CONTINUOUS
100
AcDbLine
 10
37.67199999996831
 20
7.511911915910332
 30
0.0
 11
36.42081191588738
 21
8.763099999991255
 31
0.0
  0
LINE
  5
7036
330
6FFA
100
AcDbEntity
  8
0
  6
CONTINUOUS
100
AcDbLine
 10
37.67199999996831
 20
8.185431124990519
 30
0.0
 11
37.09433112496757
 21
8.763099999991255
 31
0.0
  0
ENDBLK
  5
709E
330
6FFA
100
AcDbEntity
  8
0
100
AcDbBlockEnd
  0
BLOCK
  5
709F
330
7037
100
AcDbEntity
  8
0
100
AcDbBlockBegin
  2
*X34
 70
     1
 10
0.0
 20
0.0
 30
0.0
  3
*X34
  1

  0
LINE
  5
7038
330
7037
100
AcDbEntity
  8
0
  6
CONTINUOUS
100
AcDbLine
 10
38.60499999996136
 20
8.762866199104765
 30
0.0
 11
38.71672554182345
 21
8.874591740966855
 31
0.0
  0
LINE
  5
7039
330
7037
100
AcDbEntity
  8
0
  6
CONTINUOUS
100
AcDbLine
 10
38.60499999996136
 20
8.089346990024577
 30
0.0
 11
39.03418785440363
 21
8.518534844466847
 31
0.0
  0
LINE
  5
703A
330
7037
100
AcDbEntity
  8
0
  6
CONTINUOUS
100
AcDbLine
 10
38.60499999996136
 20
7.41582778094439
 30
0.0
 11
39.35165016698382
 21
8.16247794796684
 31
0.0
  0
LINE
  5
703B
330
7037
100
AcDbEntity
  8
0
  6
CONTINUOUS
100
AcDbLine
 10
38.60499999996136
 20
6.742308571864204
 30
0.0
 11
39.66911247956399
 21
7.806421051466834
 31
0.0
  0
LINE
  5
703C
330
7037
100
AcDbEntity
  8
0
  6
CONTINUOUS
100
AcDbLine
 10
38.60499999996136
 20
6.068789362784018
 30
0.0
 11
39.98657479214418
 21
7.450364154966827
 31
0.0
  0
LINE
  5
703D
330
7037
100
AcDbEntity
  8
0
  6
CONTINUOUS
100
AcDbLine
 10
38.60499999996136
 20
5.395270153703832
 30
0.0
 11
40.30403710472435
 21
7.09430725846682
 31
0.0
  0
LINE
  5
703E
330
7037
100
AcDbEntity
  8
0
  6
CONTINUOUS
100
AcDbLine
 10
38.60499999996136
 20
4.721750944623645
 30
0.0
 11
40.62149941730453
 21
6.738250361966813
 31
0.0
  0
LINE
  5
703F
330
7037
100
AcDbEntity
  8
0
  6
CONTINUOUS
100
AcDbLine
 10
38.60499999996136
 20
4.048231735543458
 30
0.0
 11
40.93896172988471
 21
6.382193465466806
 31
0.0
  0
LINE
  5
7040
330
7037
100
AcDbEntity
  8
0
  6
CONTINUOUS
100
AcDbLine
 10
38.60499999996136
 20
3.374712526463272
 30
0.0
 11
40.02599999995994
 21
4.795712526461843
 31
0.0
  0
LINE
  5
7041
330
7037
100
AcDbEntity
  8
0
  6
CONTINUOUS
100
AcDbLine
 10
38.60499999996136
 20
2.701193317383085
 30
0.0
 11
40.02599999995994
 21
4.122193317381657
 31
0.0
  0
LINE
  5
7042
330
7037
100
AcDbEntity
  8
0
  6
CONTINUOUS
100
AcDbLine
 10
40.28339754687704
 20
5.053110073378947
 30
0.0
 11
41.25642404246489
 21
6.026136568966799
 31
0.0
  0
LINE
  5
7043
330
7037
100
AcDbEntity
  8
0
  6
CONTINUOUS
100
AcDbLine
 10
40.60085985945722
 20
4.697053176878939
 30
0.0
 11
41.57388635504507
 21
5.670079672466793
 31
0.0
  0
LINE
  5
7044
330
7037
100
AcDbEntity
  8
0
  6
CONTINUOUS
100
AcDbLine
 10
43.57899999995641
 20
8.348712526458318
 30
0.0
 11
43.99338747348935
 21
8.763099999991255
 31
0.0
  0
LINE
  5
7045
330
7037
100
AcDbEntity
  8
0
  6
CONTINUOUS
100
AcDbLine
 10
43.57899999995641
 20
7.675193317378131
 30
0.0
 11
44.66690668256953
 21
8.763099999991255
 31
0.0
  0
LINE
  5
7046
330
7037
100
AcDbEntity
  8
0
  6
CONTINUOUS
100
AcDbLine
 10
38.60499999996136
 20
2.027674108302898
 30
0.0
 11
40.02599999995994
 21
3.44867410830147
 31
0.0
  0
LINE
  5
7047
330
7037
100
AcDbEntity
  8
0
  6
CONTINUOUS
100
AcDbLine
 10
38.60499999996136
 20
1.354154899222712
 30
0.0
 11
40.02599999995994
 21
2.775154899221284
 31
0.0
  0
LINE
  5
7048
330
7037
100
AcDbEntity
  8
0
  6
CONTINUOUS
100
AcDbLine
 10
38.60499999996136
 20
0.6806356901425255
 30
0.0
 11
40.02599999995994
 21
2.101635690141098
 31
0.0
  0
LINE
  5
7049
330
7037
100
AcDbEntity
  8
0
  6
CONTINUOUS
100
AcDbLine
 10
38.60499999996136
 20
0.0071164810623383
 30
0.0
 11
40.02599999995994
 21
1.428116481060911
 31
0.0
  0
LINE
  5
704A
330
7037
100
AcDbEntity
  8
0
  6
CONTINUOUS
100
AcDbLine
 10
40.9183221720374
 20
4.340996280378933
 30
0.0
 11
41.89134866762525
 21
5.314022775966786
 31
0.0
  0
LINE
  5
704B
330
7037
100
AcDbEntity
  8
0
  6
CONTINUOUS
100
AcDbLine
 10
41.23578448461758
 20
3.984939383878926
 30
0.0
 11
42.20881098020543
 21
4.957965879466778
 31
0.0
  0
LINE
  5
704C
330
7037
100
AcDbEntity
  8
0
  6
CONTINUOUS
100
AcDbLine
 10
41.55324679719776
 20
3.628882487378919
 30
0.0
 11
42.52627329278561
 21
4.601908982966772
 31
0.0
  0
LINE
  5
704D
330
7037
100
AcDbEntity
  8
0
  6
CONTINUOUS
100
AcDbLine
 10
41.87070910977793
 20
3.272825590878912
 30
0.0
 11
42.84373560536579
 21
4.245852086466765
 31
0.0
  0
LINE
  5
704E
330
7037
100
AcDbEntity
  8
0
  6
CONTINUOUS
100
AcDbLine
 10
43.57899999995641
 20
7.001674108297943
 30
0.0
 11
44.99999999995498
 21
8.422674108296516
 31
0.0
  0
LINE
  5
704F
330
7037
100
AcDbEntity
  8
0
  6
CONTINUOUS
100
AcDbLine
 10
43.57899999995641
 20
6.328154899217758
 30
0.0
 11
44.99999999995498
 21
7.749154899216329
 31
0.0
  0
LINE
  5
7050
330
7037
100
AcDbEntity
  8
0
  6
CONTINUOUS
100
AcDbLine
 10
43.57899999995641
 20
5.654635690137571
 30
0.0
 11
44.99999999995498
 21
7.075635690136142
 31
0.0
  0
LINE
  5
7051
330
7037
100
AcDbEntity
  8
0
  6
CONTINUOUS
100
AcDbLine
 10
43.57899999995641
 20
4.981116481057384
 30
0.0
 11
44.99999999995498
 21
6.402116481055955
 31
0.0
  0
LINE
  5
7052
330
7037
100
AcDbEntity
  8
0
  6
CONTINUOUS
100
AcDbLine
 10
39.27140272797921
 20
-0.0000000000000009
 30
0.0
 11
40.02599999995994
 21
0.7545972719807246
 31
0.0
  0
LINE
  5
7053
330
7037
100
AcDbEntity
  8
0
  6
CONTINUOUS
100
AcDbLine
 10
39.9449219370594
 20
-0.0000000000000009
 30
0.0
 11
40.02599999995994
 21
0.0810780629005379
 31
0.0
  0
LINE
  5
7054
330
7037
100
AcDbEntity
  8
0
  6
CONTINUOUS
100
AcDbLine
 10
42.18817142235812
 20
2.916768694378905
 30
0.0
 11
43.16119791794597
 21
3.889795189966758
 31
0.0
  0
LINE
  5
7055
330
7037
100
AcDbEntity
  8
0
  6
CONTINUOUS
100
AcDbLine
 10
42.50563373493829
 20
2.560711797878898
 30
0.0
 11
43.47866023052615
 21
3.533738293466751
 31
0.0
  0
LINE
  5
7056
330
7037
100
AcDbEntity
  8
0
  6
CONTINUOUS
100
AcDbLine
 10
43.57899999995641
 20
4.307597271977198
 30
0.0
 11
44.99999999995498
 21
5.728597271975769
 31
0.0
  0
LINE
  5
7057
330
7037
100
AcDbEntity
  8
0
  6
CONTINUOUS
100
AcDbLine
 10
43.57899999995641
 20
3.634078062897011
 30
0.0
 11
44.99999999995498
 21
5.055078062895582
 31
0.0
  0
LINE
  5
7058
330
7037
100
AcDbEntity
  8
0
  6
CONTINUOUS
100
AcDbLine
 10
42.82309604751848
 20
2.204654901378891
 30
0.0
 11
44.99999999995498
 21
4.381558853815395
 31
0.0
  0
LINE
  5
7059
330
7037
100
AcDbEntity
  8
0
  6
CONTINUOUS
100
AcDbLine
 10
43.14055836009865
 20
1.848598004878885
 30
0.0
 11
44.99999999995498
 21
3.70803964473521
 31
0.0
  0
LINE
  5
705A
330
7037
100
AcDbEntity
  8
0
  6
CONTINUOUS
100
AcDbLine
 10
43.45802067267883
 20
1.492541108378878
 30
0.0
 11
44.99999999995498
 21
3.034520435655023
 31
0.0
  0
LINE
  5
705B
330
7037
100
AcDbEntity
  8
0
  6
CONTINUOUS
100
AcDbLine
 10
43.77548298525902
 20
1.136484211878871
 30
0.0
 11
44.99999999995498
 21
2.361001226574837
 31
0.0
  0
LINE
  5
705C
330
7037
100
AcDbEntity
  8
0
  6
CONTINUOUS
100
AcDbLine
 10
44.09294529783919
 20
0.7804273153788639
 30
0.0
 11
44.99999999995498
 21
1.687482017494649
 31
0.0
  0
LINE
  5
705D
330
7037
100
AcDbEntity
  8
0
  6
CONTINUOUS
100
AcDbLine
 10
44.41040761041938
 20
0.4243704188788566
 30
0.0
 11
44.99999999995498
 21
1.013962808414463
 31
0.0
  0
LINE
  5
705E
330
7037
100
AcDbEntity
  8
0
  6
CONTINUOUS
100
AcDbLine
 10
44.72786992299955
 20
0.0683135223788494
 30
0.0
 11
44.99999999995498
 21
0.340443599334276
 31
0.0
  0
LINE
  5
705F
330
7037
100
AcDbEntity
  8
0
  6
CONTINUOUS
100
AcDbLine
 10
39.12223903415696
 20
-0.0000000000000009
 30
0.0
 11
38.60499999996136
 21
0.5172390341955961
 31
0.0
  0
LINE
  5
7060
330
7037
100
AcDbEntity
  8
0
  6
CONTINUOUS
100
AcDbLine
 10
39.79575824323715
 20
-0.0000000000000009
 30
0.0
 11
38.60499999996136
 21
1.190758243275783
 31
0.0
  0
LINE
  5
7061
330
7037
100
AcDbEntity
  8
0
  6
CONTINUOUS
100
AcDbLine
 10
40.02599999995994
 20
0.443277452357397
 30
0.0
 11
38.60499999996136
 21
1.864277452355969
 31
0.0
  0
LINE
  5
7062
330
7037
100
AcDbEntity
  8
0
  6
CONTINUOUS
100
AcDbLine
 10
40.02599999995994
 20
1.116796661437583
 30
0.0
 11
38.60499999996136
 21
2.537796661436155
 31
0.0
  0
LINE
  5
7063
330
7037
100
AcDbEntity
  8
0
  6
CONTINUOUS
100
AcDbLine
 10
40.02599999995994
 20
1.79031587051777
 30
0.0
 11
38.60499999996136
 21
3.211315870516341
 31
0.0
  0
LINE
  5
7064
330
7037
100
AcDbEntity
  8
0
  6
CONTINUOUS
100
AcDbLine
 10
40.02599999995994
 20
2.463835079597956
 30
0.0
 11
38.60499999996136
 21
3.884835079596527
 31
0.0
  0
LINE
  5
7065
330
7037
100
AcDbEntity
  8
0
  6
CONTINUOUS
100
AcDbLine
 10
40.02599999995994
 20
3.137354288678143
 30
0.0
 11
38.60499999996136
 21
4.558354288676714
 31
0.0
  0
LINE
  5
7066
330
7037
100
AcDbEntity
  8
0
  6
CONTINUOUS
100
AcDbLine
 10
40.02599999995994
 20
3.810873497758329
 30
0.0
 11
38.60499999996136
 21
5.2318734977569
 31
0.0
  0
LINE
  5
7067
330
7037
100
AcDbEntity
  8
0
  6
CONTINUOUS
100
AcDbLine
 10
40.02599999995994
 20
4.484392706838515
 30
0.0
 11
38.60499999996136
 21
5.905392706837086
 31
0.0
  0
LINE
  5
7068
330
7037
100
AcDbEntity
  8
0
  6
CONTINUOUS
100
AcDbLine
 10
44.99999999995498
 20
0.183911915923658
 30
0.0
 11
41.53858364506288
 21
3.64532827081576
 31
0.0
  0
LINE
  5
7069
330
7037
100
AcDbEntity
  8
0
  6
CONTINUOUS
100
AcDbLine
 10
40.02599999995994
 20
5.157911915918703
 30
0.0
 11
38.60499999996136
 21
6.578911915917274
 31
0.0
  0
LINE
  5
706A
330
7037
100
AcDbEntity
  8
0
  6
CONTINUOUS
100
AcDbLine
 10
44.99999999995498
 20
0.8574311250038447
 30
0.0
 11
38.60499999996136
 21
7.25243112499746
 31
0.0
  0
LINE
  5
706B
330
7037
100
AcDbEntity
  8
0
  6
CONTINUOUS
100
AcDbLine
 10
44.99999999995498
 20
1.530950334084031
 30
0.0
 11
38.60499999996136
 21
7.925950334077647
 31
0.0
  0
LINE
  5
706C
330
7037
100
AcDbEntity
  8
0
  6
CONTINUOUS
100
AcDbLine
 10
44.99999999995498
 20
2.204469543164218
 30
0.0
 11
43.57899999995641
 21
3.625469543162789
 31
0.0
  0
LINE
  5
706D
330
7037
100
AcDbEntity
  8
0
  6
CONTINUOUS
100
AcDbLine
 10
41.89876730984767
 20
5.305702233271528
 30
0.0
 11
38.60499999996136
 21
8.599469543157834
 31
0.0
  0
LINE
  5
706E
330
7037
100
AcDbEntity
  8
0
  6
CONTINUOUS
100
AcDbLine
 10
44.99999999995498
 20
2.877988752244405
 30
0.0
 11
43.57899999995641
 21
4.298988752242975
 31
0.0
  0
LINE
  5
706F
330
7037
100
AcDbEntity
  8
0
  6
CONTINUOUS
100
AcDbLine
 10
44.99999999995498
 20
3.551507961324591
 30
0.0
 11
43.57899999995641
 21
4.972507961323163
 31
0.0
  0
LINE
  5
7070
330
7037
100
AcDbEntity
  8
0
  6
CONTINUOUS
100
AcDbLine
 10
44.99999999995498
 20
4.225027170404777
 30
0.0
 11
43.57899999995641
 21
5.646027170403348
 31
0.0
  0
LINE
  5
7071
330
7037
100
AcDbEntity
  8
0
  6
CONTINUOUS
100
AcDbLine
 10
44.99999999995498
 20
4.898546379484964
 30
0.0
 11
43.57899999995641
 21
6.319546379483535
 31
0.0
  0
LINE
  5
7072
330
7037
100
AcDbEntity
  8
0
  6
CONTINUOUS
100
AcDbLine
 10
44.99999999995498
 20
5.572065588565151
 30
0.0
 11
43.57899999995641
 21
6.993065588563722
 31
0.0
  0
LINE
  5
7073
330
7037
100
AcDbEntity
  8
0
  6
CONTINUOUS
100
AcDbLine
 10
44.99999999995498
 20
6.245584797645336
 30
0.0
 11
43.57899999995641
 21
7.666584797643908
 31
0.0
  0
LINE
  5
7074
330
7037
100
AcDbEntity
  8
0
  6
CONTINUOUS
100
AcDbLine
 10
44.99999999995498
 20
6.919104006725522
 30
0.0
 11
43.57899999995641
 21
8.340104006724093
 31
0.0
  0
LINE
  5
7075
330
7037
100
AcDbEntity
  8
0
  6
CONTINUOUS
100
AcDbLine
 10
44.99999999995498
 20
7.592623215805709
 30
0.0
 11
43.82952321576943
 21
8.763099999991255
 31
0.0
  0
LINE
  5
7076
330
7037
100
AcDbEntity
  8
0
  6
CONTINUOUS
100
AcDbLine
 10
44.99999999995498
 20
8.266142424885896
 30
0.0
 11
44.50304242484962
 21
8.763099999991255
 31
0.0
  0
ENDBLK
  5
70A0
330
7037
100
AcDbEntity
  8
0
100
AcDbBlockEnd
  0
BLOCK
  5
70A1
330
7077
100
AcDbEntity
  8
0
100
AcDbBlockBegin
  2
*X35
 70
     1
 10
0.0
 20
0.0
 30
0.0
  3
*X35
  1

  0
LINE
  5
7078
330
7077
100
AcDbEntity
  8
0
  6
CONTINUOUS
100
AcDbLine
 10
0.0
 20
8.548461116714023
 30
0.0
 11
0.2146388832772324
 21
8.763099999991255
 31
0.0
  0
LINE
  5
7079
330
7077
100
AcDbEntity
  8
0
  6
CONTINUOUS
100
AcDbLine
 10
-0.0000000000000002
 20
7.874941907633837
 30
0.0
 11
0.8881580923574184
 21
8.763099999991255
 31
0.0
  0
LINE
  5
707A
330
7077
100
AcDbEntity
  8
0
  6
CONTINUOUS
100
AcDbLine
 10
0.0
 20
7.20142269855365
 30
0.0
 11
1.420999999998572
 21
8.622422698552223
 31
0.0
  0
LINE
  5
707B
330
7077
100
AcDbEntity
  8
0
  6
CONTINUOUS
100
AcDbLine
 10
-0.0000000000000001
 20
6.527903489473465
 30
0.0
 11
1.420999999998571
 21
7.948903489472036
 31
0.0
  0
LINE
  5
707C
330
7077
100
AcDbEntity
  8
0
  6
CONTINUOUS
100
AcDbLine
 10
-0.0000000000000002
 20
5.854384280393278
 30
0.0
 11
1.420999999998571
 21
7.275384280391849
 31
0.0
  0
LINE
  5
707D
330
7077
100
AcDbEntity
  8
0
  6
CONTINUOUS
100
AcDbLine
 10
-0.0000000000000002
 20
5.180865071313091
 30
0.0
 11
1.420999999998571
 21
6.601865071311663
 31
0.0
  0
LINE
  5
707E
330
7077
100
AcDbEntity
  8
0
  6
CONTINUOUS
100
AcDbLine
 10
0.0
 20
4.507345862232905
 30
0.0
 11
1.420999999998571
 21
5.928345862231477
 31
0.0
  0
LINE
  5
707F
330
7077
100
AcDbEntity
  8
0
  6
CONTINUOUS
100
AcDbLine
 10
-0.0000000000000003
 20
3.833826653152718
 30
0.0
 11
1.420999999998571
 21
5.25482665315129
 31
0.0
  0
LINE
  5
7080
330
7077
100
AcDbEntity
  8
0
  6
CONTINUOUS
100
AcDbLine
 10
-0.0000000000000002
 20
3.160307444072532
 30
0.0
 11
1.420999999998571
 21
4.581307444071103
 31
0.0
  0
LINE
  5
7081
330
7077
100
AcDbEntity
  8
0
  6
CONTINUOUS
100
AcDbLine
 10
-0.0000000000000001
 20
2.486788234992345
 30
0.0
 11
1.420999999998571
 21
3.907788234990917
 31
0.0
  0
LINE
  5
7082
330
7077
100
AcDbEntity
  8
0
  6
CONTINUOUS
100
AcDbLine
 10
-0.0000000000000006
 20
1.813269025912159
 30
0.0
 11
1.420999999998571
 21
3.234269025910731
 31
0.0
  0
LINE
  5
7083
330
7077
100
AcDbEntity
  8
0
  6
CONTINUOUS
100
AcDbLine
 10
0.0
 20
1.139749816831973
 30
0.0
 11
1.420999999998571
 21
2.560749816830544
 31
0.0
  0
LINE
  5
7084
330
7077
100
AcDbEntity
  8
0
  6
CONTINUOUS
100
AcDbLine
 10
0.0000000000000002
 20
0.466230607751787
 30
0.0
 11
1.420999999998571
 21
1.887230607750358
 31
0.0
  0
LINE
  5
7085
330
7077
100
AcDbEntity
  8
0
  6
CONTINUOUS
100
AcDbLine
 10
0.2072886013284003
 20
-0.0000000000000009
 30
0.0
 11
1.420999999998571
 21
1.213711398670171
 31
0.0
  0
LINE
  5
7086
330
7077
100
AcDbEntity
  8
0
  6
CONTINUOUS
100
AcDbLine
 10
0.8808078104085864
 20
-0.0000000000000009
 30
0.0
 11
1.420999999998571
 21
0.5401921895899839
 31
0.0
  0
LINE
  5
7087
330
7077
100
AcDbEntity
  8
0
  6
CONTINUOUS
100
AcDbLine
 10
0.0581249075061505
 20
-0.0000000000000009
 30
0.0
 11
-0.0000000000000002
 21
0.0581249075061496
 31
0.0
  0
LINE
  5
7088
330
7077
100
AcDbEntity
  8
0
  6
CONTINUOUS
100
AcDbLine
 10
0.7316441165863372
 20
-0.0000000000000009
 30
0.0
 11
-0.0000000000000002
 21
0.7316441165863363
 31
0.0
  0
LINE
  5
7089
330
7077
100
AcDbEntity
  8
0
  6
CONTINUOUS
100
AcDbLine
 10
1.405163325666523
 20
-0.0000000000000009
 30
0.0
 11
-0.0000000000000002
 21
1.405163325666523
 31
0.0
  0
LINE
  5
708A
330
7077
100
AcDbEntity
  8
0
  6
CONTINUOUS
100
AcDbLine
 10
1.420999999998572
 20
0.6576825347481381
 30
0.0
 11
-0.0000000000000001
 21
2.07868253474671
 31
0.0
  0
LINE
  5
708B
330
7077
100
AcDbEntity
  8
0
  6
CONTINUOUS
100
AcDbLine
 10
1.420999999998571
 20
1.331201743828324
 30
0.0
 11
-0.0000000000000001
 21
2.752201743826896
 31
0.0
  0
LINE
  5
708C
330
7077
100
AcDbEntity
  8
0
  6
CONTINUOUS
100
AcDbLine
 10
1.420999999998571
 20
2.004720952908511
 30
0.0
 11
-0.0000000000000002
 21
3.425720952907082
 31
0.0
  0
LINE
  5
708D
330
7077
100
AcDbEntity
  8
0
  6
CONTINUOUS
100
AcDbLine
 10
1.420999999998571
 20
2.678240161988697
 30
0.0
 11
-0.0000000000000001
 21
4.099240161987269
 31
0.0
  0
LINE
  5
708E
330
7077
100
AcDbEntity
  8
0
  6
CONTINUOUS
100
AcDbLine
 10
1.420999999998572
 20
3.351759371068884
 30
0.0
 11
0.0
 21
4.772759371067455
 31
0.0
  0
LINE
  5
708F
330
7077
100
AcDbEntity
  8
0
  6
CONTINUOUS
100
AcDbLine
 10
1.420999999998571
 20
4.02527858014907
 30
0.0
 11
-0.0000000000000003
 21
5.446278580147642
 31
0.0
  0
LINE
  5
7090
330
7077
100
AcDbEntity
  8
0
  6
CONTINUOUS
100
AcDbLine
 10
1.420999999998571
 20
4.698797789229257
 30
0.0
 11
0.0
 21
6.119797789227828
 31
0.0
  0
LINE
  5
7091
330
7077
100
AcDbEntity
  8
0
  6
CONTINUOUS
100
AcDbLine
 10
1.420999999998571
 20
5.372316998309444
 30
0.0
 11
-0.0000000000000001
 21
6.793316998308015
 31
0.0
  0
LINE
  5
7092
330
7077
100
AcDbEntity
  8
0
  6
CONTINUOUS
100
AcDbLine
 10
1.420999999998572
 20
6.045836207389629
 30
0.0
 11
-0.0000000000000004
 21
7.466836207388202
 31
0.0
  0
LINE
  5
7093
330
7077
100
AcDbEntity
  8
0
  6
CONTINUOUS
100
AcDbLine
 10
1.420999999998571
 20
6.719355416469816
 30
0.0
 11
0.0
 21
8.140355416468388
 31
0.0
  0
LINE
  5
7094
330
7077
100
AcDbEntity
  8
0
  6
CONTINUOUS
100
AcDbLine
 10
1.420999999998571
 20
7.392874625550003
 30
0.0
 11
0.0507746255573185
 21
8.763099999991255
 31
0.0
  0
LINE
  5
7095
330
7077
100
AcDbEntity
  8
0
  6
CONTINUOUS
100
AcDbLine
 10
1.420999999998571
 20
8.06639383463019
 30
0.0
 11
0.7242938346375052
 21
8.763099999991255
 31
0.0
  0
LINE
  5
7096
330
7077
100
AcDbEntity
  8
0
  6
CONTINUOUS
100
AcDbLine
 10
1.420999999998571
 20
8.739913043710375
 30
0.0
 11
1.397813043717691
 21
8.763099999991255
 31
0.0
  0
ENDBLK
  5
70A2
330
7077
100
AcDbEntity
  8
0
100
AcDbBlockEnd
  0
ENDSEC
  0
SECTION
  2
ENTITIES
  0
TEXT
  5
4261
330
18
100
AcDbEntity
  8
1TEXT
100
AcDbText
 10
364.7108828368287
 20
166.7585476125177
 30
0.0
 40
4.0
  1
表面処理：
 72
     1
 11
375.5108828368287
 21
166.7585476125177
 31
0.0
100
AcDbText
  0
TEXT
  5
4262
330
18
100
AcDbEntity
  8
1TEXT
100
AcDbText
 10
366.0442161701621
 20
159.7806525925334
 30
0.0
 40
4.0
  1
クローム
 72
     1
 11
375.5108828368287
 21
159.7806525925334
 31
0.0
100
AcDbText
  0
LINE
  5
4263
330
18
100
AcDbEntity
  8
1DIM
100
AcDbLine
 10
358.1108828368286
 20
172.2585476125177
 30
0.0
 11
428.1108828368286
 21
172.2585476125177
 31
0.0
  0
LINE
  5
4264
330
18
100
AcDbEntity
  8
1DIM
100
AcDbLine
 10
358.1108828368286
 20
158.2585476125177
 30
0.0
 11
428.1108828368286
 21
158.2585476125177
 31
0.0
  0
LINE
  5
4265
330
18
100
AcDbEntity
  8
1DIM
100
AcDbLine
 10
358.1108828368286
 20
165.2585476125177
 30
0.0
 11
428.1108828368286
 21
165.2585476125177
 31
0.0
  0
LINE
  5
4266
330
18
100
AcDbEntity
  8
1DIM
100
AcDbLine
 10
393.1108828368286
 20
172.2585476125177
 30
0.0
 11
393.1108828368286
 21
158.2585476125177
 31
0.0
  0
TEXT
  5
4267
330
18
100
AcDbEntity
  8
1TEXT
100
AcDbText
 10
394.8983828368292
 20
159.5441906288683
 30
0.0
 40
4.0
  1
SC-36M-XC
 41
0.9
 72
     1
 11
410.5108828368292
 21
159.5441906288683
 31
0.0
100
AcDbText
  0
TEXT
  5
4268
330
18
100
AcDbEntity
  8
1TEXT
100
AcDbText
 10
403.6442161701621
 20
166.7585476125177
 30
0.0
 40
4.0
  1
コード
 72
     1
 11
410.5108828368287
 21
166.7585476125177
 31
0.0
100
AcDbText
  0
LINE
  5
4269
330
18
100
AcDbEntity
  8
1DIM
100
AcDbLine
 10
358.1108828368291
 20
151.2585476125177
 30
0.0
 11
358.1108828368291
 21
158.2585476125177
 31
0.0
  0
LINE
  5
426A
330
18
100
AcDbEntity
  8
1DIM
100
AcDbLine
 10
428.110882836829
 20
151.2585476125177
 30
0.0
 11
428.110882836829
 21
158.2585476125177
 31
0.0
  0
TEXT
  5
426B
330
18
100
AcDbEntity
  8
1TEXT
100
AcDbText
 10
358.1108828368286
 20
178.2940435217351
 30
0.0
 40
8.0
  1
SC-36M-X
100
AcDbText
  0
LINE
  5
42AC
330
18
100
AcDbEntity
  8
1DIM
100
AcDbLine
 10
358.110882836829
 20
158.2585476125177
 30
0.0
 11
428.110882836829
 21
158.2585476125177
 31
0.0
  0
TEXT
  5
42AE
330
18
100
AcDbEntity
  8
1TEXT
100
AcDbText
 10
358.9775495034958
 20
152.7806525925334
 30
0.0
 40
4.0
  1
サテンニッケル
 72
     1
 11
375.5108828368291
 21
152.7806525925334
 31
0.0
100
AcDbText
  0
LINE
  5
42AF
330
18
100
AcDbEntity
  8
1DIM
100
AcDbLine
 10
358.110882836829
 20
151.2585476125177
 30
0.0
 11
428.110882836829
 21
151.2585476125177
 31
0.0
  0
TEXT
  5
42B0
330
18
100
AcDbEntity
  8
1TEXT
100
AcDbText
 10
394.8983828368296
 20
152.5441906288683
 30
0.0
 40
4.0
  1
SC-36M-XN
 41
0.9
 72
     1
 11
410.5108828368296
 21
152.5441906288683
 31
0.0
100
AcDbText
  0
SPLINE
  5
494C
330
18
100
AcDbEntity
  8
01
100
AcDbSpline
210
0.0
220
0.0
230
1.0
 70
     8
 71
     3
 72
    39
 73
    35
 74
     0
 42
0.0000000001
 43
0.0000000001
 40
60.71148087064157
 40
60.71148087064157
 40
60.71148087064157
 40
60.71148087064157
 40
61.62030545476929
 40
64.08511767296007
 40
66.54992989115084
 40
69.01474210934161
 40
69.01474210934161
 40
69.01474210934161
 40
71.47955432753238
 40
73.94436654572316
 40
76.40917876391393
 40
78.8739909821047
 40
81.33880320029547
 40
82.57120930939085
 40
83.80361541848625
 40
85.03602152758162
 40
86.26842763667702
 40
87.5008337457724
 40
88.73323985486779
 40
89.96564596396317
 40
91.19805207305856
 40
93.66286429124932
 40
96.1276765094401
 40
98.59248872763087
 40
99.82489483672626
 40
101.0573009458217
 40
102.289707054917
 40
103.5221131640124
 40
104.7545192731078
 40
105.9869253822032
 40
107.2193314912986
 40
108.451737600394
 40
110.9165498185847
 40
112.2463562004027
 40
112.2463562004027
 40
112.2463562004027
 40
112.2463562004027
 10
314.061732635893
 20
9.01905322826849
 30
0.0
 10
314.0806728719613
 20
9.350696488499409
 30
0.0
 10
314.1955373464556
 20
10.60700116004259
 30
0.0
 10
314.6791128752382
 20
12.89799702315969
 30
0.0
 10
315.7272948229864
 20
15.76773677096102
 30
0.0
 10
316.6217576498173
 20
17.5224199856967
 30
0.0
 10
317.0931621706083
 20
18.33891656662439
 30
0.0
 10
317.5645666913994
 20
19.15541314755214
 30
0.0
 10
318.6369355175391
 20
20.80738228569621
 30
0.0
 10
320.5981120675108
 20
23.15000435413526
 30
0.0
 10
322.8047128619135
 20
25.13118434065427
 30
0.0
 10
325.0876038863219
 20
26.5478312899462
 30
0.0
 10
326.8930129473349
 20
27.15821584206023
 30
0.0
 10
328.1989868756125
 20
27.30391939038626
 30
0.0
 10
329.0951221233033
 20
27.25325916654268
 30
0.0
 10
329.9004108164517
 20
27.05538533614211
 30
0.0
 10
330.6002757732431
 20
26.73392357592547
 30
0.0
 10
331.2286022845258
 20
26.28855367779522
 30
0.0
 10
331.8026104109057
 20
25.69008990174319
 30
0.0
 10
332.2945510296283
 20
24.93934497279884
 30
0.0
 10
332.8213552432234
 20
23.73548237361723
 30
0.0
 10
333.1954495425615
 20
21.86679220425518
 30
0.0
 10
333.1100498540534
 20
19.18129380317882
 30
0.0
 10
332.5996515712915
 20
16.76373732180861
 30
0.0
 10
331.9735296955225
 20
14.84443368508695
 30
0.0
 10
331.4130737786987
 20
13.44063070115172
 30
0.0
 10
330.7771263471648
 20
12.0913366097306
 30
0.0
 10
330.0946064508383
 20
10.83252921157964
 30
0.0
 10
329.3457072137311
 20
9.61204594369724
 30
0.0
 10
328.4951579691511
 20
8.386652266806692
 30
0.0
 10
327.5596568815666
 20
7.199381713168435
 30
0.0
 10
326.2105521124745
 20
5.697492444526574
 30
0.0
 10
324.7107194065946
 20
4.350762203301315
 30
0.0
 10
323.5482225485115
 20
3.557079471422554
 30
0.0
 10
323.1421647718714
 20
3.309451639718077
 30
0.0
  0
LINE
  5
4B23
330
18
100
AcDbEntity
  8
01
100
AcDbLine
 10
382.5835441515687
 20
74.23197720311788
 30
0.0
 11
382.5835441515687
 21
88.7645443740476
 31
0.0
  0
ARC
  5
4B24
330
18
100
AcDbEntity
  8
01
100
AcDbCircle
 10
364.4835441515686
 20
74.23197720311788
 30
0.0
 40
18.1
100
AcDbArc
 50
239.9999999999999
 51
359.9999999997004
  0
LINE
  5
4B26
330
18
100
AcDbEntity
  8
01
100
AcDbLine
 10
358.5835441515687
 20
88.76454279115876
 30
0.0
 11
382.5835441515687
 21
88.76454279115876
 31
0.0
  0
LINE
  5
4B27
330
18
100
AcDbEntity
  8
01
100
AcDbLine
 10
358.5835441515687
 20
87.7645435320124
 30
0.0
 11
358.5835441515687
 21
88.76454283487016
 31
0.0
  0
ARC
  5
4B28
330
18
100
AcDbEntity
  8
01
100
AcDbCircle
 10
-360.5835441515687
 20
87.7645435320124
 30
0.0
 40
2.0
210
0.0
220
0.0
230
-1.0
100
AcDbArc
 50
270.0
 51
359.9999999997752
  0
LINE
  5
4B29
330
18
100
AcDbEntity
  8
01
100
AcDbLine
 10
360.5835441515687
 20
85.7645435320124
 30
0.0
 11
360.9854679402154
 21
85.7645435320124
 31
0.0
  0
LINE
  5
4B2A
330
18
100
AcDbEntity
  8
01
100
AcDbLine
 10
354.9184806421076
 20
58.85428945045663
 30
0.0
 11
355.4335441515686
 21
58.55691739461952
 31
0.0
  0
ARC
  5
4B2B
330
18
100
AcDbEntity
  8
01
100
AcDbCircle
 10
355.1684806421076
 20
59.2873021523489
 30
0.0
 40
0.4999999999999981
100
AcDbArc
 50
150.0000000000036
 51
239.9999999997752
  0
ARC
  5
4B2C
330
18
100
AcDbEntity
  8
01
100
AcDbCircle
 10
-360.9854679402154
 20
76.7645435320124
 30
0.0
 40
9.0
210
0.0
220
0.0
230
-1.0
100
AcDbArc
 50
89.99999999954403
 51
279.1659481771621
  0
ARC
  5
4B2D
330
18
100
AcDbEntity
  8
01
100
AcDbCircle
 10
-358.5883536231854
 20
75.21069516791408
 30
0.0
 40
4.5
210
0.0
220
0.0
230
-1.0
100
AcDbArc
 50
29.99999999999647
 51
210.0016396168175
  0
SPLINE
  5
4B35
330
18
100
AcDbEntity
  8
01
100
AcDbSpline
210
0.0
220
0.0
230
1.0
 70
     8
 71
     3
 72
    38
 73
    34
 74
     0
 42
0.0000000001
 43
0.0000000001
 40
86.44269594237271
 40
86.44269594237271
 40
86.44269594237271
 40
86.44269594237271
 40
87.36605953456734
 40
91.00631201517432
 40
94.6465644957813
 40
98.28681697638827
 40
101.9270694569952
 40
105.5673219376022
 40
109.2075744182092
 40
112.8478268988162
 40
116.4880793794231
 40
120.1283318600301
 40
123.7685843406371
 40
127.4088368212441
 40
131.049089301851
 40
134.689341782458
 40
138.329594263065
 40
141.9698467436719
 40
145.6100992242789
 40
149.2503517048858
 40
152.8906041854928
 40
156.5308566660998
 40
160.1711091467068
 40
163.8113616273138
 40
167.4516141079207
 40
171.0918665885277
 40
174.7321190691347
 40
178.3723715497417
 40
182.0126240303486
 40
185.6528765109556
 40
189.2931289915626
 40
196.5736339527765
 40
203.8541389139905
 40
203.8541389139905
 40
203.8541389139905
 40
203.8541389139905
 10
360.6604539456946
 20
55.53930813206495
 30
0.0
 10
360.5045359535795
 20
55.15598770623643
 30
0.0
 10
359.7212543984444
 20
53.25722740072348
 30
0.0
 10
358.2064224714084
 20
49.81778792375246
 30
0.0
 10
356.0203292372705
 20
45.28085882308784
 30
0.0
 10
353.711143199394
 20
40.85167188870201
 30
0.0
 10
351.3659269484017
 20
36.65679441972082
 30
0.0
 10
348.9056642590763
 20
32.5283390495859
 30
0.0
 10
346.2244685062908
 20
28.31393204592501
 30
0.0
 10
343.3884189031901
 20
24.15225546772342
 30
0.0
 10
340.4315854181682
 20
20.11667212307742
 30
0.0
 10
337.4093978828266
 20
16.30513235021158
 30
0.0
 10
334.3814863558575
 20
12.808761067538
 30
0.0
 10
331.4119769806405
 20
9.711982266533653
 30
0.0
 10
328.5641262662709
 20
7.084312373951605
 30
0.0
 10
325.8961277493488
 20
4.975745281241529
 30
0.0
 10
323.4572589206336
 20
3.413449416055755
 30
0.0
 10
321.2845536005786
 20
2.401419881434606
 30
0.0
 10
319.4032138445675
 20
1.921050421975849
 30
0.0
 10
317.8195671649316
 20
1.938730505496437
 30
0.0
 10
316.5483972253976
 20
2.395349457914165
 30
0.0
 10
315.5173687199547
 20
3.267905528816016
 30
0.0
 10
314.7102340981521
 20
4.630543826553833
 30
0.0
 10
314.1855765365497
 20
6.500016572183711
 30
0.0
 10
313.975667379759
 20
8.887649553485176
 30
0.0
 10
314.1092210953773
 20
11.78091911425031
 30
0.0
 10
314.6012949125695
 20
15.14575980623562
 30
0.0
 10
315.4529983415548
 20
18.92589568227612
 30
0.0
 10
316.6501347082306
 20
23.04599308058795
 30
0.0
 10
318.1641197726108
 20
27.41628676594661
 30
0.0
 10
320.5505450263859
 20
33.44773192510559
 30
0.0
 10
324.1000769737418
 20
41.11941045067334
 30
0.0
 10
327.24752017225
 20
46.92677015839632
 30
0.0
 10
328.8300926118657
 20
49.66786575376301
 30
0.0
  0
SPLINE
  5
4B37
330
18
100
AcDbEntity
  8
01
100
AcDbSpline
210
0.0
220
0.0
230
1.0
 70
     8
 71
     3
 72
    12
 73
     8
 74
     0
 42
0.0000000001
 43
0.0000000001
 40
0.0
 40
0.0
 40
0.0
 40
0.0
 40
7.280504961213945
 40
14.56100992242789
 40
18.20126240303486
 40
21.84151488364184
 40
25.31927042641654
 40
25.31927042641654
 40
25.31927042641654
 40
25.31927042641654
 10
328.8300926118657
 20
49.66786575376301
 30
0.0
 10
330.4126650514811
 20
52.40896134912964
 30
0.0
 10
333.868264980171
 20
58.03840666776966
 30
0.0
 10
338.7373681033785
 20
64.94823034283769
 30
0.0
 10
342.7675406501751
 20
70.03065746409032
 30
0.0
 10
345.7502813058323
 20
73.47492994186173
 30
0.0
 10
347.6866370939708
 20
75.49919501739147
 30
0.0
 10
348.6146305666946
 20
76.41733013297669
 30
0.0
  0
LINE
  5
4B38
330
18
100
AcDbEntity
  8
01
100
AcDbLine
 10
354.6912393629377
 20
77.46069513513049
 30
0.0
 11
346.9413034855629
 21
64.03741379515748
 31
0.0
  0
ARC
  5
4B39
330
18
100
AcDbEntity
  8
01
100
AcDbCircle
 10
354.3025192319574
 20
59.78741347339059
 30
0.0
 40
0.5000000000000037
100
AcDbArc
 50
239.9999974955186
 51
329.9999974953007
  0
LINE
  5
4B3A
330
18
100
AcDbEntity
  8
01
100
AcDbLine
 10
354.0525192130297
 20
59.35440078242618
 30
0.0
 11
347.1243161575999
 21
63.35440108526751
 31
0.0
  0
ARC
  5
4B3B
330
18
100
AcDbEntity
  8
01
100
AcDbCircle
 10
-347.3743161765276
 20
63.78741377623192
 30
0.0
 40
0.4999999999999977
210
0.0
220
0.0
230
-1.0
100
AcDbArc
 50
300.0000025044814
 51
30.00000250425518
  0
CIRCLE
  5
4B3D
330
18
100
AcDbEntity
  8
1PHANTOM
100
AcDbCircle
 10
328.7639613589074
 20
-0.3095090538768659
 30
0.0
 40
19.0
  0
LINE
  5
4B60
330
18
100
AcDbEntity
  8
01
100
AcDbLine
 10
132.6108828368285
 20
81.81188588208724
 30
0.0
 11
132.6108828368285
 21
39.43208585021645
 31
0.0
  0
LINE
  5
4B61
330
18
100
AcDbEntity
  8
01
100
AcDbLine
 10
254.6108828368285
 20
81.81188588208656
 30
0.0
 11
254.6108828368285
 21
39.43208585021645
 31
0.0
  0
LINE
  5
4B62
330
18
100
AcDbEntity
  8
01
100
AcDbLine
 10
133.1108893785467
 20
82.31189016789986
 30
0.0
 11
254.1108762951101
 21
82.31189016789986
 31
0.0
  0
ARC
  5
4B63
330
18
100
AcDbEntity
  8
01
100
AcDbCircle
 10
133.1108893785467
 20
81.81188588208724
 30
0.0
 40
0.5000065417179679
100
AcDbArc
 50
90.00074961586694
 51
180.0000140744037
  0
SPLINE
  5
4B64
330
18
100
AcDbEntity
  8
01
100
AcDbSpline
210
0.0
220
0.0
230
1.0
 70
     8
 71
     3
 72
    14
 73
    10
 74
     0
 42
0.0000000001
 43
0.0000000001
 40
0.0
 40
0.0
 40
0.0
 40
0.0
 40
0.3057403267231453
 40
0.7133928575184256
 40
1.120552745929948
 40
1.727836474681653
 40
2.127237253315628
 40
2.616536105984852
 40
3.253488930065058
 40
3.253488930065058
 40
3.253488930065058
 40
3.253488930065058
 10
134.6108828368285
 20
37.38799051467176
 30
0.0
 10
134.5090603098874
 20
37.38799051467176
 30
0.0
 10
134.2711052987841
 20
37.40672424900846
 30
0.0
 10
133.9079819020114
 20
37.50186584652518
 30
0.0
 10
133.4818238844814
 20
37.71416169518484
 30
0.0
 10
133.1243236341504
 20
38.02647180766714
 30
0.0
 10
132.8453330123853
 20
38.43244426242576
 30
0.0
 10
132.657039163086
 20
38.88829048278031
 30
0.0
 10
132.6108828368281
 20
39.23908759006277
 30
0.0
 10
132.6108828368285
 20
39.4320858502228
 30
0.0
  0
LINE
  5
4B65
330
18
100
AcDbEntity
  8
01
100
AcDbLine
 10
134.6108828368285
 20
37.3879905146717
 30
0.0
 11
252.6108828368285
 21
37.3879905146717
 31
0.0
  0
SPLINE
  5
4B66
330
18
100
AcDbEntity
  8
01
100
AcDbSpline
210
0.0
220
0.0
230
1.0
 70
     8
 71
     3
 72
    14
 73
    10
 74
     0
 42
0.0000000001
 43
0.0000000001
 40
0.0
 40
0.0
 40
0.0
 40
0.0
 40
0.3057403267231446
 40
0.7133928575184874
 40
1.120552745930115
 40
1.72783647468174
 40
2.127237253315652
 40
2.616536105985224
 40
3.253488930065073
 40
3.253488930065073
 40
3.253488930065073
 40
3.253488930065073
 10
252.6108828368285
 20
37.3879905146717
 30
0.0
 10
252.7127053637696
 20
37.3879905146717
 30
0.0
 10
252.9506603748732
 20
37.40672424900846
 30
0.0
 10
253.3137837716458
 20
37.50186584652518
 30
0.0
 10
253.7399417891759
 20
37.7141616951849
 30
0.0
 10
254.0974420395069
 20
38.02647180766719
 30
0.0
 10
254.376432661272
 20
38.43244426242582
 30
0.0
 10
254.5647265105713
 20
38.88829048278042
 30
0.0
 10
254.610882836829
 20
39.23908759006288
 30
0.0
 10
254.6108828368285
 20
39.4320858502228
 30
0.0
  0
ARC
  5
4B67
330
18
100
AcDbEntity
  8
01
100
AcDbCircle
 10
-254.1108762951101
 20
81.81188588208656
 30
0.0
 40
0.5000065417184673
210
0.0
220
0.0
230
-1.0
100
AcDbArc
 50
90.00074961590597
 51
180.0000140743288
  0
LINE
  5
4B6C
330
18
100
AcDbEntity
  8
01
100
AcDbLine
 10
132.6108828368285
 20
59.35428949416803
 30
0.0
 11
132.6108828368285
 21
59.28730219606024
 31
0.0
  0
ELLIPSE
  5
4B6F
330
18
100
AcDbEntity
  8
01
100
AcDbEllipse
 10
132.6108828368285
 20
58.48826409038361
 30
0.0
 11
-0.9999999999999972
 21
-1.776356839400252E-15
 31
0.0
210
0.0
220
0.0
230
1.0
 40
0.8660254037844399
 41
4.712388980384688
 42
6.283185307179584
  0
ELLIPSE
  5
4B70
330
18
100
AcDbEntity
  8
01
100
AcDbEllipse
 10
132.6108828368285
 20
62.48826409038355
 30
0.0
 11
0.9999999999999972
 21
1.776356839400252E-15
 31
0.0
210
0.0
220
0.0
230
-1.0
 40
0.8660254037844399
 41
3.141592653589795
 42
4.712388980384691
  0
SPLINE
  5
4B73
330
18
100
AcDbEntity
  8
01
100
AcDbSpline
210
0.0
220
0.0
230
1.0
 70
     8
 71
     3
 72
    19
 73
    15
 74
     0
 42
0.0000000001
 43
0.0000000001
 40
0.0
 40
0.0
 40
0.0
 40
0.0
 40
0.3526658295421801
 40
0.5449871555141741
 40
0.7373118585241608
 40
0.8334754737678007
 40
1.025805232988245
 40
1.121971376600128
 40
1.218138362400518
 40
1.314306191178788
 40
1.410474864914762
 40
1.506644381851003
 40
1.538515169750238
 40
1.570386051024365
 40
1.570386051024365
 40
1.570386051024365
 40
1.570386051024365
 10
254.6108828368285
 20
4.077870573430857
 30
0.0
 10
254.7278681573816
 20
4.077881231992649
 30
0.0
 10
254.9102945727445
 20
4.045467679052706
 30
0.0
 10
255.1326409013227
 20
3.938219939163844
 30
0.0
 10
255.2617369935961
 20
3.841855094261348
 30
0.0
 10
255.375206957458
 20
3.728316245917142
 30
0.0
 10
255.4522499815871
 20
3.625027561910258
 30
0.0
 10
255.5134185119446
 20
3.512095406130243
 30
0.0
 10
255.5509525266891
 20
3.423443958648818
 30
0.0
 10
255.5797915670332
 20
3.331361502717243
 30
0.0
 10
255.5996701008964
 20
3.237808481092259
 30
0.0
 10
255.6080116094377
 20
3.16142046590727
 30
0.0
 10
255.610550006445
 20
3.111220813043531
 30
0.0
 10
255.6108840744882
 20
3.084781529639201
 30
0.0
 10
255.6108828368285
 20
3.077746623761982
 30
0.0
  0
ARC
  5
4B74
330
18
100
AcDbEntity
  8
01
100
AcDbCircle
 10
254.610894222883
 20
18.82546243005447
 30
0.0
 40
0.9999886140549437
100
AcDbArc
 50
269.9993476197096
 51
0.0008467162696335
  0
LINE
  5
4B75
330
18
100
AcDbEntity
  8
01
100
AcDbLine
 10
254.6108828368285
 20
17.82547453634743
 30
0.0
 11
132.6108828368285
 21
17.82547453634743
 31
0.0
  0
LINE
  5
4B76
330
18
100
AcDbEntity
  8
01
100
AcDbLine
 10
254.6108828368285
 20
4.077747451479922
 30
0.0
 11
132.6108828368285
 21
4.077747451479922
 31
0.0
  0
ARC
  5
4B77
330
18
100
AcDbEntity
  8
01
100
AcDbCircle
 10
132.6108828368285
 20
80.71069595471903
 30
0.0
 40
1.0
100
AcDbArc
 50
180.0
 51
269.9999999997785
  0
ARC
  5
4B79
330
18
100
AcDbEntity
  8
01
100
AcDbCircle
 10
256.1108874889912
 20
2.39787714861626
 30
0.0
 40
0.5000046527944109
100
AcDbArc
 50
180.0088793230829
 51
269.9994669061636
  0
LINE
  5
4B7A
330
18
100
AcDbEntity
  8
01
100
AcDbLine
 10
255.610882830621
 20
26.66766738743064
 30
0.0
 11
255.6108828367528
 21
26.78000293769816
 31
0.0
  0
ARC
  5
4B7B
330
18
100
AcDbEntity
  8
01
100
AcDbCircle
 10
256.1108901843904
 20
26.77995546728306
 30
0.0
 40
0.5000073478352156
100
AcDbArc
 50
90.00084195619752
 51
179.998106231463
  0
ARC
  5
4B7C
330
18
100
AcDbEntity
  8
01
100
AcDbCircle
 10
-131.1110753025391
 20
83.88651656156213
 30
0.0
 40
0.4998075591301548
210
0.0
220
0.0
230
-1.0
100
AcDbArc
 50
89.97793656180394
 51
179.9819357963804
  0
ARC
  5
4B7D
330
18
100
AcDbEntity
  8
01
100
AcDbCircle
 10
131.111087438597
 20
2.448983314879854
 30
0.0
 40
0.4997954127129827
100
AcDbArc
 50
269.9765447664357
 51
359.9862070198041
  0
LINE
  5
4B7E
330
18
100
AcDbEntity
  8
01
100
AcDbLine
 10
131.1108828368285
 20
84.3866837057447
 30
0.0
 11
125.6108828368285
 21
84.3866837057447
 31
0.0
  0
LINE
  5
4B7F
330
18
100
AcDbEntity
  8
01
100
AcDbLine
 10
131.1108828368285
 20
1.948828323644932
 30
0.0
 11
125.6108828368285
 21
1.948828323644932
 31
0.0
  0
LINE
  5
4B80
330
18
100
AcDbEntity
  8
01
100
AcDbLine
 10
256.1108828368285
 20
27.27995783630541
 30
0.0
 11
259.1108828368285
 21
27.27995783630541
 31
0.0
  0
LINE
  5
4B81
330
18
100
AcDbEntity
  8
01
100
AcDbLine
 10
256.1108828368285
 20
1.897877543311324
 30
0.0
 11
259.1108828368285
 21
1.897877543311324
 31
0.0
  0
ARC
  5
4B82
330
18
100
AcDbEntity
  8
01
100
AcDbCircle
 10
259.1108547532085
 20
2.897900579374834
 30
0.0
 40
1.000028083928012
100
AcDbArc
 50
270.0016090277076
 51
359.9985770208108
  0
ARC
  5
4B83
330
18
100
AcDbEntity
  8
01
100
AcDbCircle
 10
-259.1108547549247
 20
26.27993473320504
 30
0.0
 40
1.000028082253994
210
0.0
220
0.0
230
-1.0
100
AcDbArc
 50
90.00160892938864
 51
179.998483454809
  0
ARC
  5
4B84
330
18
100
AcDbEntity
  8
01
100
AcDbCircle
 10
-125.6106786097935
 20
2.948983705416538
 30
0.0
 40
0.9997957822280922
210
0.0
220
0.0
230
-1.0
100
AcDbArc
 50
269.9882962626346
 51
359.9922007984215
  0
ARC
  5
4B85
330
18
100
AcDbEntity
  8
01
100
AcDbCircle
 10
125.6106498204006
 20
83.38655711797611
 30
0.0
 40
0.9997669928135466
100
AcDbArc
 50
89.98664603042135
 51
179.9922095574212
  0
SPLINE
  5
4B86
330
18
100
AcDbEntity
  8
01
100
AcDbSpline
210
0.0
220
0.0
230
1.0
 70
     8
 71
     3
 72
    19
 73
    15
 74
     0
 42
0.0000000001
 43
0.0000000001
 40
0.0
 40
0.0
 40
0.0
 40
0.0
 40
0.3526658295421941
 40
0.5449871555141886
 40
0.7373118585241807
 40
0.8334754737678105
 40
1.025805232988262
 40
1.121971376600145
 40
1.218138362400524
 40
1.314306191178792
 40
1.410474864914767
 40
1.506644381851007
 40
1.538515169750243
 40
1.570386051024355
 40
1.570386051024355
 40
1.570386051024355
 40
1.570386051024355
 10
132.6108828368285
 20
4.077870573430857
 30
0.0
 10
132.4938975162754
 20
4.077881231992649
 30
0.0
 10
132.3114711009125
 20
4.045467679052763
 30
0.0
 10
132.0891247723343
 20
3.93821993916373
 30
0.0
 10
131.960028680061
 20
3.841855094261348
 30
0.0
 10
131.8465587161991
 20
3.728316245917142
 30
0.0
 10
131.7695156920699
 20
3.625027561910258
 30
0.0
 10
131.7083471617125
 20
3.512095406130186
 30
0.0
 10
131.6708131469679
 20
3.423443958648875
 30
0.0
 10
131.6419741066238
 20
3.331361502717186
 30
0.0
 10
131.6220955727608
 20
3.2378084810926
 30
0.0
 10
131.6137540642194
 20
3.161420465906531
 30
0.0
 10
131.611215667212
 20
3.111220813044383
 30
0.0
 10
131.6108815991688
 20
3.084781529637382
 30
0.0
 10
131.6108828368285
 20
3.077746623761982
 30
0.0
  0
ARC
  5
4B87
330
18
100
AcDbEntity
  8
01
100
AcDbCircle
 10
-132.6108714507748
 20
18.82546243005578
 30
0.0
 40
0.9999886140559349
210
0.0
220
0.0
230
-1.0
100
AcDbArc
 50
269.9993476197487
 51
0.0008467161947251
  0
LINE
  5
4B8C
330
18
100
AcDbEntity
  8
01
100
AcDbLine
 10
150.6108828368281
 20
56.13197724682925
 30
0.0
 11
150.1108828368285
 21
56.13197724682925
 31
0.0
  0
LINE
  5
4B8F
330
18
100
AcDbEntity
  8
01
100
AcDbLine
 10
238.6108828368285
 20
88.76454283487016
 30
0.0
 11
148.6108828368285
 21
88.76454283487016
 31
0.0
  0
LINE
  5
4B94
330
18
100
AcDbEntity
  8
01
100
AcDbLine
 10
362.4854038175902
 20
72.96058349232192
 30
0.0
 11
354.7354679402154
 21
59.5373021523489
 31
0.0
  0
LINE
  5
4B96
330
18
100
AcDbEntity
  8
01
100
AcDbLine
 10
131.6108828368285
 20
83.88667414080174
 30
0.0
 11
131.6108828368278
 21
2.448862997672848
 31
0.0
  0
LINE
  5
4B97
330
18
100
AcDbEntity
  8
01
100
AcDbLine
 10
124.6108828368285
 20
83.38669305516714
 30
0.0
 11
124.6108828368281
 21
2.948847611468864
 31
0.0
  0
LINE
  5
4B98
330
18
100
AcDbEntity
  8
01
100
AcDbLine
 10
255.610882830621
 20
26.66766738743064
 30
0.0
 11
255.6108828422011
 21
2.39779966118391
 31
0.0
  0
LINE
  5
4B99
330
18
100
AcDbEntity
  8
01
100
AcDbLine
 10
260.1108828368285
 20
26.27996120265516
 30
0.0
 11
260.1108828368281
 21
2.897875743005329
 31
0.0
  0
LINE
  5
4B9A
330
18
100
AcDbEntity
  8
01
100
AcDbLine
 10
148.6108828368285
 20
88.76454283487016
 30
0.0
 11
148.6108828368286
 21
82.31189016789986
 31
0.0
  0
LINE
  5
4B9B
330
18
100
AcDbEntity
  8
01
100
AcDbLine
 10
238.6108828368285
 20
88.76454283487016
 30
0.0
 11
238.6108828368286
 21
82.31189016789988
 31
0.0
  0
LINE
  5
4CEB
330
18
100
AcDbEntity
  8
1PHANTOM
100
AcDbLine
 10
250.6108828368285
 20
56.3284590489159
 30
0.0
 11
250.6108828368285
 21
-58.6715409510841
 31
0.0
  0
LINE
  5
4CEC
330
18
100
AcDbEntity
  8
1PHANTOM
100
AcDbLine
 10
136.6108828368285
 20
56.3284590489159
 30
0.0
 11
136.6108828368285
 21
-58.6715409510841
 31
0.0
  0
LINE
  5
4CED
330
18
100
AcDbEntity
  8
1PHANTOM
100
AcDbLine
 10
250.6108828368285
 20
56.3284590489159
 30
0.0
 11
136.6108828368285
 21
56.3284590489159
 31
0.0
  0
LINE
  5
4CEE
330
18
100
AcDbEntity
  8
1PHANTOM
100
AcDbLine
 10
136.6108828368285
 20
-58.6715409510841
 30
0.0
 11
250.6108828368285
 21
-58.6715409510841
 31
0.0
  0
CIRCLE
  5
4CF0
330
18
100
AcDbEntity
  8
1PHANTOM
100
AcDbCircle
 10
328.7639613589073
 20
-0.3095090538768659
 30
0.0
 40
57.5
  0
LINE
  5
4CF6
330
18
100
AcDbEntity
  8
01
100
AcDbLine
 10
358.5835441515687
 20
88.76454283487016
 30
0.0
 11
309.0258446836035
 21
88.76454283487017
 31
0.0
  0
LINE
  5
4CFB
330
18
100
AcDbEntity
  8
01
100
AcDbLine
 10
309.0258446836035
 20
88.76454283487017
 30
0.0
 11
309.0258446836035
 21
106.7645428348702
 31
0.0
  0
LINE
  5
4CFF
330
18
100
AcDbEntity
  8
01
100
AcDbLine
 10
382.5835441515687
 20
88.76454279115876
 30
0.0
 11
412.0835452034891
 21
88.76454279115876
 31
0.0
  0
LINE
  5
4D8C
330
18
100
AcDbEntity
  8
1PHANTOM
100
AcDbLine
 10
375.8835452034892
 20
85.76454209312028
 30
0.0
 11
375.8835452034891
 21
86.76454279115876
 31
0.0
  0
LINE
  5
4D8D
330
18
100
AcDbEntity
  8
1PHANTOM
100
AcDbLine
 10
368.2835452034892
 20
85.7645597767615
 30
0.0
 11
368.2835452034892
 21
86.76454279115876
 31
0.0
  0
LINE
  5
4D90
330
18
100
AcDbEntity
  8
1PHANTOM
100
AcDbLine
 10
368.2835452034892
 20
86.76454279115876
 30
0.0
 11
375.8835452034891
 21
86.76454279115876
 31
0.0
  0
LINE
  5
4EDF
330
18
100
AcDbEntity
  8
01
100
AcDbLine
 10
412.0835452034891
 20
46.02213337570174
 30
0.0
 11
412.0835452034892
 21
131.4930776215335
 31
0.0
  0
ARC
  5
5327
330
18
100
AcDbEntity
  8
01
100
AcDbCircle
 10
237.1108828368289
 20
219.0262242782147
 30
0.0
 40
1.499999999999998
100
AcDbArc
 50
359.9999999993226
 51
89.99999999910762
  0
ARC
  5
5328
330
18
100
AcDbEntity
  8
01
100
AcDbCircle
 10
150.1108828368289
 20
219.0262242782147
 30
0.0
 40
1.5
100
AcDbArc
 50
89.99999999932908
 51
179.9999999991011
  0
LINE
  5
5329
330
18
100
AcDbEntity
  8
01
100
AcDbLine
 10
237.1108828368289
 20
220.5262242782147
 30
0.0
 11
150.1108828368289
 21
220.5262242782147
 31
0.0
  0
ARC
  5
532A
330
18
100
AcDbEntity
  8
01
100
AcDbCircle
 10
238.1108828368289
 20
197.0262242782147
 30
0.0
 40
0.5
100
AcDbArc
 50
270.0
 51
359.9999999997785
  0
ARC
  5
532B
330
18
100
AcDbEntity
  8
01
100
AcDbCircle
 10
-149.1108828368289
 20
197.0262242782147
 30
0.0
 40
0.5
210
0.0
220
0.0
230
-1.0
100
AcDbArc
 50
270.0
 51
359.9999999997785
  0
LINE
  5
532C
330
18
100
AcDbEntity
  8
01
100
AcDbLine
 10
238.6108828368289
 20
197.0262242782147
 30
0.0
 11
238.6108828368289
 21
219.0262242782147
 31
0.0
  0
LINE
  5
532D
330
18
100
AcDbEntity
  8
01
100
AcDbLine
 10
149.1108828368289
 20
196.5262242782147
 30
0.0
 11
238.1108828368289
 21
196.5262242782147
 31
0.0
  0
LINE
  5
532E
330
18
100
AcDbEntity
  8
01
100
AcDbLine
 10
148.6108828368289
 20
219.0262242782147
 30
0.0
 11
148.6108828368289
 21
197.0262242782147
 31
0.0
  0
ARC
  5
532F
330
18
100
AcDbEntity
  8
01
100
AcDbCircle
 10
-220.6108828368289
 20
211.5262242782147
 30
0.0
 40
2.25
210
0.0
220
0.0
230
-1.0
100
AcDbArc
 50
359.9999999996483
 51
179.9999999992053
  0
LINE
  5
5330
330
18
100
AcDbEntity
  8
01
100
AcDbLine
 10
222.8608828368289
 20
211.5262242782147
 30
0.0
 11
222.8608828368289
 21
208.5262242782147
 31
0.0
  0
ARC
  5
5331
330
18
100
AcDbEntity
  8
01
100
AcDbCircle
 10
-220.6108828368289
 20
208.5262242782147
 30
0.0
 40
2.25
210
0.0
220
0.0
230
-1.0
100
AcDbArc
 50
180.0
 51
359.9999999995571
  0
LINE
  5
5332
330
18
100
AcDbEntity
  8
01
100
AcDbLine
 10
218.3608828368289
 20
211.5262242782147
 30
0.0
 11
218.3608828368289
 21
208.5262242782147
 31
0.0
  0
LINE
  5
5333
330
18
100
AcDbEntity
  8
01
100
AcDbLine
 10
168.8608828368289
 20
211.5262242782147
 30
0.0
 11
168.8608828368289
 21
208.5262242782147
 31
0.0
  0
ARC
  5
5334
330
18
100
AcDbEntity
  8
01
100
AcDbCircle
 10
-166.6108828368289
 20
208.5262242782147
 30
0.0
 40
2.25
210
0.0
220
0.0
230
-1.0
100
AcDbArc
 50
180.0
 51
359.9999999995571
  0
LINE
  5
5335
330
18
100
AcDbEntity
  8
01
100
AcDbLine
 10
164.3608828368289
 20
208.5262242782147
 30
0.0
 11
164.3608828368289
 21
211.5262242782147
 31
0.0
  0
ARC
  5
5336
330
18
100
AcDbEntity
  8
01
100
AcDbCircle
 10
-166.6108828368289
 20
211.5262242782147
 30
0.0
 40
2.25
210
0.0
220
0.0
230
-1.0
100
AcDbArc
 50
359.9999999996483
 51
179.9999999992053
  0
LINE
  5
5337
330
18
100
AcDbEntity
  8
01
100
AcDbLine
 10
225.8608828368289
 20
211.5262242782147
 30
0.0
 11
225.8608828368289
 21
208.5262242782147
 31
0.0
  0
LINE
  5
5338
330
18
100
AcDbEntity
  8
01
100
AcDbLine
 10
215.3608828368289
 20
208.5262242782147
 30
0.0
 11
215.3608828368289
 21
211.5262242782147
 31
0.0
  0
LINE
  5
5339
330
18
100
AcDbEntity
  8
01
100
AcDbLine
 10
171.8608828368289
 20
211.5262242782147
 30
0.0
 11
171.8608828368289
 21
208.5262242782147
 31
0.0
  0
LINE
  5
533A
330
18
100
AcDbEntity
  8
01
100
AcDbLine
 10
161.3608828368289
 20
208.5262242782147
 30
0.0
 11
161.3608828368289
 21
211.5262242782147
 31
0.0
  0
ARC
  5
533B
330
18
100
AcDbEntity
  8
01
100
AcDbCircle
 10
236.1108828368289
 20
199.0262242782147
 30
0.0
 40
0.5
100
AcDbArc
 50
270.0
 51
359.9999999997785
  0
ARC
  5
533C
330
18
100
AcDbEntity
  8
01
100
AcDbCircle
 10
236.1108828368289
 20
218.0262242782147
 30
0.0
 40
0.5
100
AcDbArc
 50
0.0
 51
89.99999999977852
  0
ARC
  5
533D
330
18
100
AcDbEntity
  8
01
100
AcDbCircle
 10
221.8608828368289
 20
218.0262242782147
 30
0.0
 40
0.5
100
AcDbArc
 50
90.0
 51
179.9999999997785
  0
ARC
  5
533E
330
18
100
AcDbEntity
  8
01
100
AcDbCircle
 10
221.8608828368289
 20
217.1387103583755
 30
0.0
 40
0.5
100
AcDbArc
 50
180.0
 51
257.4441422012245
  0
ARC
  5
533F
330
18
100
AcDbEntity
  8
01
100
AcDbCircle
 10
221.8608828368289
 20
202.9137381980537
 30
0.0
 40
0.5
100
AcDbArc
 50
102.5558577985886
 51
179.9999999998046
  0
ARC
  5
5340
330
18
100
AcDbEntity
  8
01
100
AcDbCircle
 10
221.8608828368289
 20
199.0262242782147
 30
0.0
 40
0.5
100
AcDbArc
 50
180.0
 51
269.9999999997785
  0
LINE
  5
5341
330
18
100
AcDbEntity
  8
01
100
AcDbLine
 10
236.6108828368289
 20
199.0262242782147
 30
0.0
 11
236.6108828368289
 21
218.0262242782147
 31
0.0
  0
LINE
  5
5342
330
18
100
AcDbEntity
  8
01
100
AcDbLine
 10
221.8608828368289
 20
198.5262242782147
 30
0.0
 11
236.1108828368289
 21
198.5262242782147
 31
0.0
  0
LINE
  5
5343
330
18
100
AcDbEntity
  8
01
100
AcDbLine
 10
236.1108828368289
 20
218.5262242782147
 30
0.0
 11
221.8608828368289
 21
218.5262242782147
 31
0.0
  0
LINE
  5
5344
330
18
100
AcDbEntity
  8
01
100
AcDbLine
 10
221.3608828368289
 20
218.0262242782147
 30
0.0
 11
221.3608828368289
 21
217.1387103583755
 31
0.0
  0
ARC
  5
5345
330
18
100
AcDbEntity
  8
01
100
AcDbCircle
 10
-220.6108828368289
 20
211.5262242782147
 30
0.0
 40
5.25
210
0.0
220
0.0
230
-1.0
100
AcDbArc
 50
102.5558577985752
 51
179.9999999997916
  0
LINE
  5
5346
330
18
100
AcDbEntity
  8
01
100
AcDbLine
 10
221.3608828368289
 20
202.9137381980537
 30
0.0
 11
221.3608828368289
 21
199.0262242782147
 31
0.0
  0
ARC
  5
5347
330
18
100
AcDbEntity
  8
01
100
AcDbCircle
 10
-220.6108828368289
 20
208.5262242782147
 30
0.0
 40
5.25
210
0.0
220
0.0
230
-1.0
100
AcDbArc
 50
180.0
 51
257.4441422012245
  0
ARC
  5
5348
330
18
100
AcDbEntity
  8
01
100
AcDbCircle
 10
194.8608828368289
 20
199.0262242782147
 30
0.0
 40
0.5
100
AcDbArc
 50
180.0
 51
269.9999999997785
  0
ARC
  5
5349
330
18
100
AcDbEntity
  8
01
100
AcDbCircle
 10
194.8608828368289
 20
218.0262242782147
 30
0.0
 40
0.5
100
AcDbArc
 50
90.0
 51
179.9999999997785
  0
ARC
  5
534A
330
18
100
AcDbEntity
  8
01
100
AcDbCircle
 10
219.3608828368289
 20
199.0262242782147
 30
0.0
 40
0.5
100
AcDbArc
 50
270.0
 51
359.9999999997785
  0
ARC
  5
534B
330
18
100
AcDbEntity
  8
01
100
AcDbCircle
 10
219.3608828368289
 20
202.9137381980537
 30
0.0
 40
0.5
100
AcDbArc
 50
0.0
 51
77.44414220122448
  0
ARC
  5
534C
330
18
100
AcDbEntity
  8
01
100
AcDbCircle
 10
219.3608828368289
 20
217.1387103583755
 30
0.0
 40
0.500000000000001
100
AcDbArc
 50
282.5558577985885
 51
359.9999999998046
  0
ARC
  5
534D
330
18
100
AcDbEntity
  8
01
100
AcDbCircle
 10
219.3608828368289
 20
218.0262242782147
 30
0.0
 40
0.5
100
AcDbArc
 50
0.0
 51
89.99999999977852
  0
LINE
  5
534E
330
18
100
AcDbEntity
  8
01
100
AcDbLine
 10
194.8608828368289
 20
198.5262242782147
 30
0.0
 11
201.3608828368289
 21
198.5262242782147
 31
0.0
  0
LINE
  5
534F
330
18
100
AcDbEntity
  8
01
100
AcDbLine
 10
203.8608828368289
 20
198.5262242782147
 30
0.0
 11
219.3608828368289
 21
198.5262242782147
 31
0.0
  0
LINE
  5
5350
330
18
100
AcDbEntity
  8
01
100
AcDbLine
 10
194.3608828368289
 20
218.0262242782147
 30
0.0
 11
194.3608828368289
 21
199.0262242782147
 31
0.0
  0
LINE
  5
5351
330
18
100
AcDbEntity
  8
01
100
AcDbLine
 10
219.3608828368289
 20
218.5262242782147
 30
0.0
 11
203.8608828368289
 21
218.5262242782147
 31
0.0
  0
LINE
  5
5352
330
18
100
AcDbEntity
  8
01
100
AcDbLine
 10
201.3608828368289
 20
218.5262242782147
 30
0.0
 11
194.8608828368289
 21
218.5262242782147
 31
0.0
  0
LINE
  5
5353
330
18
100
AcDbEntity
  8
01
100
AcDbLine
 10
219.8608828368289
 20
199.0262242782147
 30
0.0
 11
219.8608828368289
 21
202.9137381980537
 31
0.0
  0
ARC
  5
5354
330
18
100
AcDbEntity
  8
01
100
AcDbCircle
 10
-220.6108828368289
 20
208.5262242782147
 30
0.0
 40
5.25
210
0.0
220
0.0
230
-1.0
100
AcDbArc
 50
282.5558577985752
 51
359.9999999997916
  0
LINE
  5
5355
330
18
100
AcDbEntity
  8
01
100
AcDbLine
 10
219.8608828368289
 20
217.1387103583755
 30
0.0
 11
219.8608828368289
 21
218.0262242782147
 31
0.0
  0
ARC
  5
5356
330
18
100
AcDbEntity
  8
01
100
AcDbCircle
 10
-220.6108828368289
 20
211.5262242782147
 30
0.0
 40
5.25
210
0.0
220
0.0
230
-1.0
100
AcDbArc
 50
0.0
 51
77.44414220122448
  0
ARC
  5
5357
330
18
100
AcDbEntity
  8
01
100
AcDbCircle
 10
167.8608828368289
 20
199.0262242782147
 30
0.0
 40
0.5
100
AcDbArc
 50
180.0
 51
269.9999999997785
  0
ARC
  5
5358
330
18
100
AcDbEntity
  8
01
100
AcDbCircle
 10
167.8608828368289
 20
202.9137381980538
 30
0.0
 40
0.5
100
AcDbArc
 50
102.5558577985886
 51
179.9999999998046
  0
ARC
  5
5359
330
18
100
AcDbEntity
  8
01
100
AcDbCircle
 10
167.8608828368289
 20
217.1387103583756
 30
0.0
 40
0.5
100
AcDbArc
 50
180.0
 51
257.4441422012245
  0
ARC
  5
535A
330
18
100
AcDbEntity
  8
01
100
AcDbCircle
 10
167.8608828368289
 20
218.0262242782147
 30
0.0
 40
0.5
100
AcDbArc
 50
90.0
 51
179.9999999997785
  0
ARC
  5
535B
330
18
100
AcDbEntity
  8
01
100
AcDbCircle
 10
192.3608828368289
 20
199.0262242782147
 30
0.0
 40
0.5
100
AcDbArc
 50
270.0
 51
359.9999999997785
  0
ARC
  5
535C
330
18
100
AcDbEntity
  8
01
100
AcDbCircle
 10
192.3608828368289
 20
218.0262242782147
 30
0.0
 40
0.5
100
AcDbArc
 50
0.0
 51
89.99999999977852
  0
LINE
  5
535D
330
18
100
AcDbEntity
  8
01
100
AcDbLine
 10
167.8608828368289
 20
198.5262242782147
 30
0.0
 11
183.3608828368289
 21
198.5262242782147
 31
0.0
  0
LINE
  5
535E
330
18
100
AcDbEntity
  8
01
100
AcDbLine
 10
185.8608828368289
 20
198.5262242782147
 30
0.0
 11
192.3608828368289
 21
198.5262242782147
 31
0.0
  0
LINE
  5
535F
330
18
100
AcDbEntity
  8
01
100
AcDbLine
 10
167.3608828368289
 20
202.9137381980538
 30
0.0
 11
167.3608828368289
 21
199.0262242782147
 31
0.0
  0
ARC
  5
5360
330
18
100
AcDbEntity
  8
01
100
AcDbCircle
 10
-166.6108828368289
 20
208.5262242782147
 30
0.0
 40
5.25
210
0.0
220
0.0
230
-1.0
100
AcDbArc
 50
180.0
 51
257.4441422012245
  0
ARC
  5
5361
330
18
100
AcDbEntity
  8
01
100
AcDbCircle
 10
-166.6108828368289
 20
211.5262242782147
 30
0.0
 40
5.25
210
0.0
220
0.0
230
-1.0
100
AcDbArc
 50
102.5558577985752
 51
179.9999999997916
  0
LINE
  5
5362
330
18
100
AcDbEntity
  8
01
100
AcDbLine
 10
167.3608828368289
 20
218.0262242782147
 30
0.0
 11
167.3608828368289
 21
217.1387103583756
 31
0.0
  0
LINE
  5
5363
330
18
100
AcDbEntity
  8
01
100
AcDbLine
 10
192.3608828368289
 20
218.5262242782147
 30
0.0
 11
185.8608828368289
 21
218.5262242782147
 31
0.0
  0
LINE
  5
5364
330
18
100
AcDbEntity
  8
01
100
AcDbLine
 10
183.3608828368289
 20
218.5262242782147
 30
0.0
 11
167.8608828368289
 21
218.5262242782147
 31
0.0
  0
LINE
  5
5365
330
18
100
AcDbEntity
  8
01
100
AcDbLine
 10
192.8608828368289
 20
199.0262242782147
 30
0.0
 11
192.8608828368289
 21
218.0262242782147
 31
0.0
  0
ARC
  5
5366
330
18
100
AcDbEntity
  8
01
100
AcDbCircle
 10
151.1108828368289
 20
218.0262242782147
 30
0.0
 40
0.5
100
AcDbArc
 50
90.0
 51
179.9999999997785
  0
ARC
  5
5367
330
18
100
AcDbEntity
  8
01
100
AcDbCircle
 10
-166.6108828368289
 20
208.5262242782147
 30
0.0
 40
5.25
210
0.0
220
0.0
230
-1.0
100
AcDbArc
 50
282.5558577985752
 51
359.9999999997916
  0
ARC
  5
5368
330
18
100
AcDbEntity
  8
01
100
AcDbCircle
 10
165.3608828368289
 20
202.9137381980538
 30
0.0
 40
0.5
100
AcDbArc
 50
0.0
 51
77.44414220121779
  0
LINE
  5
5369
330
18
100
AcDbEntity
  8
01
100
AcDbLine
 10
165.8608828368289
 20
199.0262242782147
 30
0.0
 11
165.8608828368289
 21
202.9137381980538
 31
0.0
  0
ARC
  5
536A
330
18
100
AcDbEntity
  8
01
100
AcDbCircle
 10
165.3608828368289
 20
199.0262242782147
 30
0.0
 40
0.5
100
AcDbArc
 50
270.0
 51
359.9999999997785
  0
LINE
  5
536B
330
18
100
AcDbEntity
  8
01
100
AcDbLine
 10
151.1108828368289
 20
198.5262242782147
 30
0.0
 11
165.3608828368289
 21
198.5262242782147
 31
0.0
  0
ARC
  5
536C
330
18
100
AcDbEntity
  8
01
100
AcDbCircle
 10
151.1108828368289
 20
199.0262242782147
 30
0.0
 40
0.5
100
AcDbArc
 50
180.0
 51
269.9999999997785
  0
LINE
  5
536D
330
18
100
AcDbEntity
  8
01
100
AcDbLine
 10
150.6108828368289
 20
218.0262242782147
 30
0.0
 11
150.6108828368289
 21
199.0262242782147
 31
0.0
  0
LINE
  5
536E
330
18
100
AcDbEntity
  8
01
100
AcDbLine
 10
165.3608828368289
 20
218.5262242782147
 30
0.0
 11
151.1108828368289
 21
218.5262242782147
 31
0.0
  0
ARC
  5
536F
330
18
100
AcDbEntity
  8
01
100
AcDbCircle
 10
165.3608828368289
 20
218.0262242782147
 30
0.0
 40
0.5
100
AcDbArc
 50
0.0
 51
89.99999999977852
  0
LINE
  5
5370
330
18
100
AcDbEntity
  8
01
100
AcDbLine
 10
165.8608828368289
 20
217.1387103583756
 30
0.0
 11
165.8608828368289
 21
218.0262242782147
 31
0.0
  0
ARC
  5
5371
330
18
100
AcDbEntity
  8
01
100
AcDbCircle
 10
165.3608828368289
 20
217.1387103583756
 30
0.0
 40
0.5
100
AcDbArc
 50
282.5558577985885
 51
359.9999999998046
  0
ARC
  5
5372
330
18
100
AcDbEntity
  8
01
100
AcDbCircle
 10
-166.6108828368289
 20
211.5262242782147
 30
0.0
 40
5.25
210
0.0
220
0.0
230
-1.0
100
AcDbArc
 50
0.0
 51
77.44414220122448
  0
ARC
  5
5373
330
18
100
AcDbEntity
  8
01
100
AcDbCircle
 10
-202.6108828368289
 20
211.5262242782147
 30
0.0
 40
2.25
210
0.0
220
0.0
230
-1.0
100
AcDbArc
 50
359.9999999996483
 51
179.9999999992053
  0
LINE
  5
5374
330
18
100
AcDbEntity
  8
01
100
AcDbLine
 10
204.8608828368289
 20
211.5262242782147
 30
0.0
 11
204.8608828368289
 21
208.5262242782147
 31
0.0
  0
ARC
  5
5375
330
18
100
AcDbEntity
  8
01
100
AcDbCircle
 10
-202.6108828368289
 20
208.5262242782147
 30
0.0
 40
2.25
210
0.0
220
0.0
230
-1.0
100
AcDbArc
 50
180.0
 51
359.9999999995571
  0
LINE
  5
5376
330
18
100
AcDbEntity
  8
01
100
AcDbLine
 10
200.3608828368289
 20
211.5262242782147
 30
0.0
 11
200.3608828368289
 21
208.5262242782147
 31
0.0
  0
LINE
  5
5377
330
18
100
AcDbEntity
  8
01
100
AcDbLine
 10
207.8608828368289
 20
211.5262242782147
 30
0.0
 11
207.8608828368289
 21
208.5262242782147
 31
0.0
  0
LINE
  5
5378
330
18
100
AcDbEntity
  8
01
100
AcDbLine
 10
197.3608828368289
 20
208.5262242782147
 30
0.0
 11
197.3608828368289
 21
211.5262242782147
 31
0.0
  0
ARC
  5
5379
330
18
100
AcDbEntity
  8
01
100
AcDbCircle
 10
203.8608828368289
 20
218.0262242782147
 30
0.0
 40
0.5
100
AcDbArc
 50
90.0
 51
179.9999999997785
  0
ARC
  5
537A
330
18
100
AcDbEntity
  8
01
100
AcDbCircle
 10
203.8608828368289
 20
217.1387103583755
 30
0.0
 40
0.5
100
AcDbArc
 50
180.0
 51
257.4441422012245
  0
ARC
  5
537B
330
18
100
AcDbEntity
  8
01
100
AcDbCircle
 10
203.8608828368289
 20
202.9137381980537
 30
0.0
 40
0.5
100
AcDbArc
 50
102.5558577985886
 51
179.9999999998046
  0
ARC
  5
537C
330
18
100
AcDbEntity
  8
01
100
AcDbCircle
 10
203.8608828368289
 20
199.0262242782147
 30
0.0
 40
0.5
100
AcDbArc
 50
180.0
 51
269.9999999997785
  0
LINE
  5
537D
330
18
100
AcDbEntity
  8
01
100
AcDbLine
 10
203.3608828368289
 20
218.0262242782147
 30
0.0
 11
203.3608828368289
 21
217.1387103583755
 31
0.0
  0
ARC
  5
537E
330
18
100
AcDbEntity
  8
01
100
AcDbCircle
 10
-202.6108828368289
 20
211.5262242782147
 30
0.0
 40
5.25
210
0.0
220
0.0
230
-1.0
100
AcDbArc
 50
102.5558577985752
 51
179.9999999997916
  0
LINE
  5
537F
330
18
100
AcDbEntity
  8
01
100
AcDbLine
 10
203.3608828368289
 20
202.9137381980537
 30
0.0
 11
203.3608828368289
 21
199.0262242782147
 31
0.0
  0
ARC
  5
5380
330
18
100
AcDbEntity
  8
01
100
AcDbCircle
 10
-202.6108828368289
 20
208.5262242782147
 30
0.0
 40
5.25
210
0.0
220
0.0
230
-1.0
100
AcDbArc
 50
180.0
 51
257.4441422012245
  0
ARC
  5
5381
330
18
100
AcDbEntity
  8
01
100
AcDbCircle
 10
201.3608828368289
 20
199.0262242782147
 30
0.0
 40
0.5
100
AcDbArc
 50
270.0
 51
359.9999999997785
  0
ARC
  5
5382
330
18
100
AcDbEntity
  8
01
100
AcDbCircle
 10
201.3608828368289
 20
202.9137381980537
 30
0.0
 40
0.5
100
AcDbArc
 50
0.0
 51
77.44414220122448
  0
ARC
  5
5383
330
18
100
AcDbEntity
  8
01
100
AcDbCircle
 10
201.3608828368289
 20
217.1387103583755
 30
0.0
 40
0.500000000000001
100
AcDbArc
 50
282.5558577985885
 51
359.9999999998046
  0
ARC
  5
5384
330
18
100
AcDbEntity
  8
01
100
AcDbCircle
 10
201.3608828368289
 20
218.0262242782147
 30
0.0
 40
0.5
100
AcDbArc
 50
0.0
 51
89.99999999977852
  0
LINE
  5
5385
330
18
100
AcDbEntity
  8
01
100
AcDbLine
 10
201.8608828368289
 20
199.0262242782147
 30
0.0
 11
201.8608828368289
 21
202.9137381980537
 31
0.0
  0
ARC
  5
5386
330
18
100
AcDbEntity
  8
01
100
AcDbCircle
 10
-202.6108828368289
 20
208.5262242782147
 30
0.0
 40
5.25
210
0.0
220
0.0
230
-1.0
100
AcDbArc
 50
282.5558577985752
 51
359.9999999997916
  0
LINE
  5
5387
330
18
100
AcDbEntity
  8
01
100
AcDbLine
 10
201.8608828368289
 20
217.1387103583755
 30
0.0
 11
201.8608828368289
 21
218.0262242782147
 31
0.0
  0
ARC
  5
5388
330
18
100
AcDbEntity
  8
01
100
AcDbCircle
 10
-202.6108828368289
 20
211.5262242782147
 30
0.0
 40
5.25
210
0.0
220
0.0
230
-1.0
100
AcDbArc
 50
0.0
 51
77.44414220122448
  0
ARC
  5
5389
330
18
100
AcDbEntity
  8
01
100
AcDbCircle
 10
-184.6108828368289
 20
211.5262242782147
 30
0.0
 40
2.25
210
0.0
220
0.0
230
-1.0
100
AcDbArc
 50
359.9999999996483
 51
179.9999999992053
  0
LINE
  5
538A
330
18
100
AcDbEntity
  8
01
100
AcDbLine
 10
186.8608828368289
 20
211.5262242782147
 30
0.0
 11
186.8608828368289
 21
208.5262242782147
 31
0.0
  0
ARC
  5
538B
330
18
100
AcDbEntity
  8
01
100
AcDbCircle
 10
-184.6108828368289
 20
208.5262242782147
 30
0.0
 40
2.25
210
0.0
220
0.0
230
-1.0
100
AcDbArc
 50
180.0
 51
359.9999999995571
  0
LINE
  5
538C
330
18
100
AcDbEntity
  8
01
100
AcDbLine
 10
182.3608828368289
 20
211.5262242782147
 30
0.0
 11
182.3608828368289
 21
208.5262242782147
 31
0.0
  0
LINE
  5
538D
330
18
100
AcDbEntity
  8
01
100
AcDbLine
 10
189.8608828368289
 20
211.5262242782147
 30
0.0
 11
189.8608828368289
 21
208.5262242782147
 31
0.0
  0
LINE
  5
538E
330
18
100
AcDbEntity
  8
01
100
AcDbLine
 10
179.3608828368289
 20
208.5262242782147
 30
0.0
 11
179.3608828368289
 21
211.5262242782147
 31
0.0
  0
ARC
  5
538F
330
18
100
AcDbEntity
  8
01
100
AcDbCircle
 10
185.8608828368289
 20
218.0262242782147
 30
0.0
 40
0.5
100
AcDbArc
 50
90.0
 51
179.9999999997785
  0
ARC
  5
5390
330
18
100
AcDbEntity
  8
01
100
AcDbCircle
 10
185.8608828368289
 20
217.1387103583755
 30
0.0
 40
0.5
100
AcDbArc
 50
180.0
 51
257.4441422012245
  0
ARC
  5
5391
330
18
100
AcDbEntity
  8
01
100
AcDbCircle
 10
185.8608828368289
 20
202.9137381980537
 30
0.0
 40
0.5
100
AcDbArc
 50
102.5558577985886
 51
179.9999999998046
  0
ARC
  5
5392
330
18
100
AcDbEntity
  8
01
100
AcDbCircle
 10
185.8608828368289
 20
199.0262242782147
 30
0.0
 40
0.5
100
AcDbArc
 50
180.0
 51
269.9999999997785
  0
LINE
  5
5393
330
18
100
AcDbEntity
  8
01
100
AcDbLine
 10
185.3608828368289
 20
218.0262242782147
 30
0.0
 11
185.3608828368289
 21
217.1387103583755
 31
0.0
  0
ARC
  5
5394
330
18
100
AcDbEntity
  8
01
100
AcDbCircle
 10
-184.6108828368289
 20
211.5262242782147
 30
0.0
 40
5.25
210
0.0
220
0.0
230
-1.0
100
AcDbArc
 50
102.5558577985752
 51
179.9999999997916
  0
LINE
  5
5395
330
18
100
AcDbEntity
  8
01
100
AcDbLine
 10
185.3608828368289
 20
202.9137381980537
 30
0.0
 11
185.3608828368289
 21
199.0262242782147
 31
0.0
  0
ARC
  5
5396
330
18
100
AcDbEntity
  8
01
100
AcDbCircle
 10
-184.6108828368289
 20
208.5262242782147
 30
0.0
 40
5.25
210
0.0
220
0.0
230
-1.0
100
AcDbArc
 50
180.0
 51
257.4441422012245
  0
ARC
  5
5397
330
18
100
AcDbEntity
  8
01
100
AcDbCircle
 10
183.3608828368289
 20
199.0262242782147
 30
0.0
 40
0.5
100
AcDbArc
 50
270.0
 51
359.9999999997785
  0
ARC
  5
5398
330
18
100
AcDbEntity
  8
01
100
AcDbCircle
 10
183.3608828368289
 20
202.9137381980537
 30
0.0
 40
0.5
100
AcDbArc
 50
0.0
 51
77.44414220122448
  0
ARC
  5
5399
330
18
100
AcDbEntity
  8
01
100
AcDbCircle
 10
183.3608828368289
 20
217.1387103583755
 30
0.0
 40
0.500000000000001
100
AcDbArc
 50
282.5558577985885
 51
359.9999999998046
  0
ARC
  5
539A
330
18
100
AcDbEntity
  8
01
100
AcDbCircle
 10
183.3608828368289
 20
218.0262242782147
 30
0.0
 40
0.5
100
AcDbArc
 50
0.0
 51
89.99999999977852
  0
LINE
  5
539B
330
18
100
AcDbEntity
  8
01
100
AcDbLine
 10
183.8608828368289
 20
199.0262242782147
 30
0.0
 11
183.8608828368289
 21
202.9137381980537
 31
0.0
  0
ARC
  5
539C
330
18
100
AcDbEntity
  8
01
100
AcDbCircle
 10
-184.6108828368289
 20
208.5262242782147
 30
0.0
 40
5.25
210
0.0
220
0.0
230
-1.0
100
AcDbArc
 50
282.5558577985752
 51
359.9999999997916
  0
LINE
  5
539D
330
18
100
AcDbEntity
  8
01
100
AcDbLine
 10
183.8608828368289
 20
217.1387103583755
 30
0.0
 11
183.8608828368289
 21
218.0262242782147
 31
0.0
  0
ARC
  5
539E
330
18
100
AcDbEntity
  8
01
100
AcDbCircle
 10
-184.6108828368289
 20
211.5262242782147
 30
0.0
 40
5.25
210
0.0
220
0.0
230
-1.0
100
AcDbArc
 50
0.0
 51
77.44414220122448
  0
LINE
  5
539F
330
18
100
AcDbEntity
  8
01
100
AcDbLine
 10
125.6108828368288
 20
151.9601111402598
 30
0.0
 11
125.6108828368288
 21
166.7594091884442
 31
0.0
  0
LINE
  5
53A0
330
18
100
AcDbEntity
  8
01
100
AcDbLine
 10
125.6108828368288
 20
166.7594091884442
 30
0.0
 11
125.6108828368288
 21
204.0753677335919
 31
0.0
  0
LINE
  5
53A1
330
18
100
AcDbEntity
  8
01
100
AcDbLine
 10
124.6108828368288
 20
152.9601136464199
 30
0.0
 11
124.6108828368288
 21
167.6254345922286
 31
0.0
  0
LINE
  5
53A2
330
18
100
AcDbEntity
  8
01
100
AcDbLine
 10
124.6108828368288
 20
167.6254345922286
 30
0.0
 11
124.6108828368288
 21
203.0753650258777
 31
0.0
  0
SPLINE
  5
53A3
330
18
100
AcDbEntity
  8
01
100
AcDbSpline
210
0.0
220
0.0
230
1.0
 70
    24
 71
     3
 72
    11
 73
     7
 74
     0
 42
0.0000000001
 43
0.0000000001
 40
59.9958715463476
 40
59.9958715463476
 40
59.9958715463476
 40
59.9958715463476
 40
61.62030545476929
 40
64.08511767296007
 40
66.54992989115084
 40
69.01474210934161
 40
69.01474210934161
 40
69.01474210934161
 40
69.01474210934161
 10
259.1108828368288
 20
151.9687341951641
 30
0.0
 10
259.1108828368288
 20
151.9687341949911
 30
0.0
 10
259.1108828368288
 20
152.0656530088008
 30
0.0
 10
259.1108828368288
 20
152.6084996138883
 30
0.0
 10
259.1108828368288
 20
153.6566815616366
 30
0.0
 10
259.1108828368288
 20
154.5511443884674
 30
0.0
 10
259.1108828368288
 20
155.0225489092585
 30
0.0
  0
LINE
  5
53A4
330
18
100
AcDbEntity
  8
01
100
AcDbLine
 10
259.1108828368288
 20
155.0225489092585
 30
0.0
 11
259.1108828368288
 21
171.0667457818923
 31
0.0
  0
SPLINE
  5
53A5
330
18
100
AcDbEntity
  8
01
100
AcDbSpline
210
0.0
220
0.0
230
1.0
 70
    24
 71
     3
 72
    12
 73
     8
 74
     0
 42
0.0000000001
 43
0.0000000001
 40
54.56607140566254
 40
54.56607140566254
 40
54.56607140566254
 40
54.56607140566254
 40
55.73849958802717
 40
57.69997171429204
 40
59.33453181951278
 40
60.96909192473354
 40
62.76710804047636
 40
62.76710804047636
 40
62.76710804047636
 40
62.76710804047636
 10
260.1108828368288
 20
152.9685463976313
 30
0.0
 10
260.1108828368288
 20
152.9685463975007
 30
0.0
 10
260.1108828368288
 20
153.0284857527257
 30
0.0
 10
260.1108828368288
 20
153.3695385796813
 30
0.0
 10
260.1108828368288
 20
154.02514495351
 30
0.0
 10
260.1108828368288
 20
154.8593911063989
 30
0.0
 10
260.1108828368288
 20
155.5249369343746
 30
0.0
 10
260.1108828368288
 20
155.8885743130428
 30
0.0
  0
LINE
  5
53A6
330
18
100
AcDbEntity
  8
01
100
AcDbLine
 10
260.1108828368288
 20
155.8885743130428
 30
0.0
 11
260.1108828368288
 21
170.066643485303
 31
0.0
  0
LINE
  5
53A7
330
18
100
AcDbEntity
  8
01
100
AcDbLine
 10
131.6108828368288
 20
152.4601107310866
 30
0.0
 11
131.6108828368288
 21
167.1924218903364
 31
0.0
  0
LINE
  5
53A8
330
18
100
AcDbEntity
  8
01
100
AcDbLine
 10
131.6108828368288
 20
203.4516411621147
 30
0.0
 11
131.6108828368288
 21
203.5753659497517
 31
0.0
  0
LINE
  5
53A9
330
18
100
AcDbEntity
  8
01
100
AcDbLine
 10
131.6108828368288
 20
167.1924218903364
 30
0.0
 11
131.6108828368288
 21
192.8846510820352
 31
0.0
  0
LINE
  5
53AA
330
18
100
AcDbEntity
  8
01
100
AcDbLine
 10
131.1108828368288
 20
151.9601111402598
 30
0.0
 11
131.1108828368288
 21
166.7594091884442
 31
0.0
  0
LINE
  5
53AB
330
18
100
AcDbEntity
  8
01
100
AcDbLine
 10
131.1108828368288
 20
166.7594091884441
 30
0.0
 11
131.1108828368288
 21
204.0753677335919
 31
0.0
  0
SPLINE
  5
53AC
330
18
100
AcDbEntity
  8
01
100
AcDbSpline
210
0.0
220
0.0
230
1.0
 70
    24
 71
     3
 72
    12
 73
     8
 74
     0
 42
0.0000000001
 43
0.0000000001
 40
57.29388587635275
 40
57.29388587635275
 40
57.29388587635275
 40
57.29388587635275
 40
58.52403949130657
 40
60.41191173296162
 40
62.29978397461667
 40
64.01603146703037
 40
65.90390370868543
 40
65.90390370868543
 40
65.90390370868543
 40
65.90390370868543
 10
255.6108828368288
 20
152.4685072467554
 30
0.0
 10
255.6108828368288
 20
152.4685072466338
 30
0.0
 10
255.6108828368288
 20
152.5279281736431
 30
0.0
 10
255.6108828368288
 20
152.8657030693713
 30
0.0
 10
255.6108828368288
 20
153.5264430616216
 30
0.0
 10
255.6108828368288
 20
154.4059134211635
 30
0.0
 10
255.6108828368288
 20
155.0846900671243
 30
0.0
 10
255.6108828368288
 20
155.4555616111506
 30
0.0
  0
LINE
  5
53AD
330
18
100
AcDbEntity
  8
01
100
AcDbLine
 10
255.6108828368288
 20
155.4555616111506
 30
0.0
 11
255.6108828368288
 21
170.5669580122086
 31
0.0
  0
SPLINE
  5
53AE
330
18
100
AcDbEntity
  8
01
100
AcDbSpline
210
0.0
220
0.0
230
1.0
 70
    24
 71
     3
 72
    11
 73
     7
 74
     0
 42
0.0000000001
 43
0.0000000001
 40
59.9958715463476
 40
59.9958715463476
 40
59.9958715463476
 40
59.9958715463476
 40
61.62030545476929
 40
64.08511767296007
 40
66.54992989115084
 40
69.01474210934161
 40
69.01474210934161
 40
69.01474210934161
 40
69.01474210934161
 10
256.1108828368288
 20
151.9687341951641
 30
0.0
 10
256.1108828368288
 20
151.9687341949911
 30
0.0
 10
256.1108828368288
 20
152.0656530088008
 30
0.0
 10
256.1108828368288
 20
152.6084996138883
 30
0.0
 10
256.1108828368288
 20
153.6566815616366
 30
0.0
 10
256.1108828368288
 20
154.5511443884674
 30
0.0
 10
256.1108828368288
 20
155.0225489092585
 30
0.0
  0
LINE
  5
53AF
330
18
100
AcDbEntity
  8
01
100
AcDbLine
 10
256.1108828368288
 20
155.0225489092585
 30
0.0
 11
256.1108828368288
 21
171.0667457818923
 31
0.0
  0
ELLIPSE
  5
53B0
330
18
100
AcDbEntity
  8
01
100
AcDbEllipse
 10
132.6108828368288
 20
184.0045997168273
 30
0.0
 11
1.0
 21
-7.095850360320015E-15
 31
0.0
210
0.0
220
0.0
230
-1.0
 40
0.8660254037844389
 41
3.141592653589781
 42
4.712388980384683
  0
ELLIPSE
  5
53B1
330
18
100
AcDbEntity
  8
01
100
AcDbEllipse
 10
132.6108828368288
 20
191.7545997168273
 30
0.0
 11
1.0
 21
-4.812210026823381E-15
 31
0.0
210
0.0
220
0.0
230
-1.0
 40
0.8660254037844469
 41
3.141592653589786
 42
4.712388980384686
  0
LINE
  5
53B2
330
18
100
AcDbEntity
  8
01
100
AcDbLine
 10
254.6108828368288
 20
154.0096141432156
 30
0.0
 11
254.6108828368288
 21
164.8258660495432
 31
0.0
  0
ARC
  5
53B3
330
18
100
AcDbEntity
  8
01
100
AcDbCircle
 10
254.6107572283361
 20
165.8259916547323
 30
0.0
 40
1.000125613076811
100
AcDbArc
 50
270.0071959326169
 51
0.0054857170366833
  0
ARC
  5
53B4
330
18
100
AcDbEntity
  8
01
100
AcDbCircle
 10
-254.6108665901387
 20
153.0095978862311
 30
0.0
 40
1.000016257116535
210
0.0
220
0.0
230
-1.0
100
AcDbArc
 50
90.00093085163952
 51
180.0082737508159
  0
ARC
  5
53B5
330
18
100
AcDbEntity
  8
01
100
AcDbCircle
 10
132.6108828368288
 20
202.0177394376418
 30
0.0
 40
0.9999999999999858
100
AcDbArc
 50
180.0
 51
269.9999999997785
  0
ARC
  5
53B6
330
18
100
AcDbEntity
  8
01
100
AcDbCircle
 10
132.6108828368288
 20
183.8036378225039
 30
0.0
 40
1.0
100
AcDbArc
 50
90.0
 51
179.9999999997785
  0
SPLINE
  5
53B7
330
18
100
AcDbEntity
  8
01
100
AcDbSpline
210
0.0
220
0.0
230
1.0
 70
     8
 71
     3
 72
    18
 73
    14
 74
     0
 42
0.0000000001
 43
0.0000000001
 40
0.0
 40
0.0
 40
0.0
 40
0.0
 40
0.0479842119362619
 40
0.0959279672152407
 40
0.1439897421773447
 40
0.192051699724553
 40
0.2401138405179631
 40
0.2881761638966683
 40
0.4323642297254713
 40
0.4804272836145091
 40
0.5284905203474172
 40
0.6246175422210962
 40
0.7848307520482627
 40
0.7848307520482627
 40
0.7848307520482627
 40
0.7848307520482627
 10
255.6108828804348
 20
152.4684287502401
 30
0.0
 10
255.6108844807411
 20
152.4659042338762
 30
0.0
 10
255.6124493801322
 20
152.4142520921181
 30
0.0
 10
255.6193680060481
 20
152.374585415004
 30
0.0
 10
255.6308280802973
 20
152.3257520389748
 30
0.0
 10
255.6467313270422
 20
152.2808875461691
 30
0.0
 10
255.6669249757986
 20
152.2370410885823
 30
0.0
 10
255.7074097188454
 20
152.1678351124046
 30
0.0
 10
255.7608816913003
 20
152.1070048708599
 30
0.0
 10
255.8244072475307
 20
152.0580077812405
 30
0.0
 10
255.87875935896
 20
152.0238602651384
 30
0.0
 10
255.9719373294718
 20
151.9825677904779
 30
0.0
 10
256.0576882479309
 20
151.9687362988335
 30
0.0
 10
256.1108828368288
 20
151.968734195168
 30
0.0
  0
SPLINE
  5
53B8
330
18
100
AcDbEntity
  8
01
100
AcDbSpline
210
0.0
220
0.0
230
1.0
 70
     8
 71
     3
 72
    18
 73
    14
 74
     0
 42
0.0000000001
 43
0.0000000001
 40
0.0
 40
0.0
 40
0.0
 40
0.0
 40
0.0479505223465058
 40
0.0958502450702408
 40
0.1439129462078337
 40
0.191975827218089
 40
0.2400388888619748
 40
0.2881021303631522
 40
0.4322929341799866
 40
0.4803568952731462
 40
0.5284210364773312
 40
0.6245498590871655
 40
0.7848560697368435
 40
0.7848560697368435
 40
0.7848560697368435
 40
0.7848560697368435
 10
255.6108828781026
 20
170.5670365027703
 30
0.0
 10
255.6108841782666
 20
170.56918840832
 30
0.0
 10
255.6124443573993
 20
170.6213266825461
 30
0.0
 10
255.6193518629309
 20
170.6607630301096
 30
0.0
 10
255.6307989138939
 20
170.7096422071066
 30
0.0
 10
255.6466932443936
 20
170.7544953184997
 30
0.0
 10
255.6668784666662
 20
170.7983508017356
 30
0.0
 10
255.7073501505011
 20
170.8675645658626
 30
0.0
 10
255.7608112432054
 20
170.9284073257826
 30
0.0
 10
255.8243285837647
 20
170.977417457112
 30
0.0
 10
255.8786752238872
 20
171.0115759787511
 30
0.0
 10
255.9718747031198
 20
171.052898957328
 30
0.0
 10
256.0576576432418
 20
171.0667437081505
 30
0.0
 10
256.1108828368288
 20
171.0667457818887
 30
0.0
  0
LINE
  5
53B9
330
18
100
AcDbEntity
  8
01
100
AcDbLine
 10
131.6108828368288
 20
203.4516411621147
 30
0.0
 11
131.6108828368288
 21
192.8846510820352
 31
0.0
  0
LINE
  5
53BA
330
18
100
AcDbEntity
  8
01
100
AcDbLine
 10
131.6108828368288
 20
185.7783652728591
 30
0.0
 11
131.6108828368288
 21
167.1924218833092
 31
0.0
  0
ARC
  5
53BB
330
18
100
AcDbEntity
  8
01
100
AcDbCircle
 10
-131.110872030171
 20
203.5753569269699
 30
0.0
 40
0.5000108067387002
210
0.0
220
0.0
230
-1.0
100
AcDbArc
 50
90.00123832500319
 51
179.9989698453113
  0
ARC
  5
53BC
330
18
100
AcDbEntity
  8
01
100
AcDbCircle
 10
131.1108720301056
 20
152.4601219469916
 30
0.0
 40
0.5000108068486075
100
AcDbArc
 50
270.001238332494
 51
359.9987167948067
  0
LINE
  5
53BD
330
18
100
AcDbEntity
  8
01
100
AcDbLine
 10
131.1108828368288
 20
204.0753678792327
 30
0.0
 11
125.6108828368288
 21
204.0753678792327
 31
0.0
  0
LINE
  5
53BE
330
18
100
AcDbEntity
  8
01
100
AcDbLine
 10
131.1108828368288
 20
151.9601109960512
 30
0.0
 11
125.6108828368288
 21
151.9601109960512
 31
0.0
  0
LINE
  5
53BF
330
18
100
AcDbEntity
  8
01
100
AcDbLine
 10
256.1108828368288
 20
171.0669540650339
 30
0.0
 11
259.1108828368288
 21
171.0669540650339
 31
0.0
  0
LINE
  5
53C0
330
18
100
AcDbEntity
  8
01
100
AcDbLine
 10
256.1108828368288
 20
151.9685248102495
 30
0.0
 11
259.1108828368288
 21
151.9685248102495
 31
0.0
  0
SPLINE
  5
53C1
330
18
100
AcDbEntity
  8
01
100
AcDbSpline
210
0.0
220
0.0
230
1.0
 70
     8
 71
     3
 72
    19
 73
    15
 74
     0
 42
0.0000000001
 43
0.0000000001
 40
0.0
 40
0.0
 40
0.0
 40
0.0
 40
0.3525943681719292
 40
0.5448806699279152
 40
0.7371655052702518
 40
0.8333073736340266
 40
1.025590012934189
 40
1.121730784010383
 40
1.217871190288553
 40
1.314011231024022
 40
1.410150910692556
 40
1.506290225159444
 40
1.538160643934185
 40
1.57003102265484
 40
1.57003102265484
 40
1.57003102265484
 40
1.57003102265484
 10
259.1108828368288
 20
151.9687341951641
 30
0.0
 10
259.2278448776048
 20
151.9687388260636
 30
0.0
 10
259.4102309987697
 20
152.0011563828226
 30
0.0
 10
259.6325366849487
 20
152.108373896915
 30
0.0
 10
259.7616161491433
 20
152.2047060625472
 30
0.0
 10
259.8750771321977
 20
152.3182021244008
 30
0.0
 10
259.9521212956925
 20
152.4214511182592
 30
0.0
 10
260.0133014379146
 20
152.5343366873828
 30
0.0
 10
260.0508493647837
 20
152.6229609125228
 30
0.0
 10
260.0797082361702
 20
152.7149790282557
 30
0.0
 10
260.0996123386865
 20
152.8086045916058
 30
0.0
 10
260.1079798048409
 20
152.8846571510508
 30
0.0
 10
260.1105371442575
 20
152.9353242583462
 30
0.0
 10
260.1108812400032
 20
152.9609487125546
 30
0.0
 10
260.1108828368288
 20
152.9685465951315
 30
0.0
  0
ARC
  5
53C2
330
18
100
AcDbEntity
  8
01
100
AcDbCircle
 10
-259.1108259148527
 20
170.0666888604904
 30
0.0
 40
1.000056923022028
210
0.0
220
0.0
230
-1.0
100
AcDbArc
 50
90.00326120334609
 51
180.0026207506646
  0
ARC
  5
53C3
330
18
100
AcDbEntity
  8
01
100
AcDbCircle
 10
-125.6109140309968
 20
152.960142334351
 30
0.0
 40
1.000031194577629
210
0.0
220
0.0
230
-1.0
100
AcDbArc
 50
270.0017872384176
 51
359.9983602729834
  0
ARC
  5
53C4
330
18
100
AcDbEntity
  8
01
100
AcDbCircle
 10
125.6109140310241
 20
203.0753365394791
 30
0.0
 40
1.000031194599319
100
AcDbArc
 50
90.00178723998089
 51
179.9983714872825
  0
ARC
  5
53C5
330
18
100
AcDbEntity
  8
01
100
AcDbCircle
 10
-132.6110084453231
 20
165.8259916547335
 30
0.0
 40
1.000125613078122
210
0.0
220
0.0
230
-1.0
100
AcDbArc
 50
270.007195932708
 51
0.0054857169715455
  0
ARC
  5
53C6
330
18
100
AcDbEntity
  8
01
100
AcDbCircle
 10
132.6108990835188
 20
153.009597886231
 30
0.0
 40
1.000016257116577
100
AcDbArc
 50
90.00093085163306
 51
180.0082737508159
  0
LINE
  5
53C7
330
18
100
AcDbEntity
  8
01
100
AcDbLine
 10
132.6108828368288
 20
153.1191850146633
 30
0.0
 11
132.6108828368288
 21
204.8379529190223
 31
0.0
  0
LINE
  5
53C8
330
18
100
AcDbEntity
  8
01
100
AcDbLine
 10
254.6108828368288
 20
153.1191850144505
 30
0.0
 11
254.6108828368288
 21
204.8379298341723
 31
0.0
  0
LINE
  5
53C9
330
18
100
AcDbEntity
  8
01
100
AcDbLine
 10
148.6108828368294
 20
205.9886213885738
 30
0.0
 11
134.6108828368288
 21
205.9886213885733
 31
0.0
  0
SPLINE
  5
53CA
330
18
100
AcDbEntity
  8
01
100
AcDbSpline
210
0.0
220
0.0
230
1.0
 70
     8
 71
     3
 72
    16
 73
    12
 74
     0
 42
0.0000000001
 43
0.0000000001
 40
0.0
 40
0.0
 40
0.0
 40
0.0
 40
0.5064831664048537
 40
0.8286039300025438
 40
1.174557594944738
 40
1.59149227472968
 40
1.731658454019977
 40
2.018510025154598
 40
2.244796614869824
 40
2.639688852890625
 40
3.066359670351563
 40
3.066359670351563
 40
3.066359670351563
 40
3.066359670351563
 10
254.6108828368288
 20
204.8379529190221
 30
0.0
 10
254.6108828368288
 20
204.9665019783
 30
0.0
 10
254.5767193002112
 20
205.1798118089608
 30
0.0
 10
254.430377296646
 20
205.4555839480007
 30
0.0
 10
254.2260630855444
 20
205.666360532217
 30
0.0
 10
254.0145306592767
 20
205.7851093144353
 30
0.0
 10
253.798283856544
 20
205.865986252268
 30
0.0
 10
253.6192994447966
 20
205.9122822552878
 30
0.0
 10
253.3550280176887
 20
205.9551235434855
 30
0.0
 10
253.0269543383693
 20
205.9829320553437
 30
0.0
 10
252.7527450112939
 20
205.9886213885783
 30
0.0
 10
252.6108828368288
 20
205.9886213885783
 30
0.0
  0
SPLINE
  5
53CB
330
18
100
AcDbEntity
  8
01
100
AcDbSpline
210
0.0
220
0.0
230
1.0
 70
     8
 71
     3
 72
    15
 73
    11
 74
     0
 42
0.0000000001
 43
0.0000000001
 40
0.0
 40
0.0
 40
0.0
 40
0.0
 40
0.3239134378506795
 40
0.816035500624767
 40
1.145659638249809
 40
1.38699928009278
 40
1.863001509905409
 40
2.202629645926603
 40
2.5229857847106
 40
3.066433340120346
 40
3.066433340120346
 40
3.066433340120346
 40
3.066433340120346
 10
252.6108828368288
 20
151.9685248102495
 30
0.0
 10
252.718696498815
 20
151.9685248102495
 30
0.0
 10
252.9909413544392
 20
151.9726703320318
 30
0.0
 10
253.354700465974
 20
151.9992420947409
 30
0.0
 10
253.6603135674141
 20
152.0529341559744
 30
0.0
 10
253.9405784471428
 20
152.1349436756217
 30
0.0
 10
254.1948172239218
 20
152.2657656834912
 30
0.0
 10
254.413307554747
 20
152.4795103499206
 30
0.0
 10
254.5728333871057
 20
152.7587243799623
 30
0.0
 10
254.6108828042907
 20
152.981730030111
 30
0.0
 10
254.6108828368288
 20
153.1191934833795
 30
0.0
  0
LINE
  5
53CC
330
18
100
AcDbEntity
  8
01
100
AcDbLine
 10
252.6108828368288
 20
151.9685248102495
 30
0.0
 11
134.6108828368288
 21
151.9685248102497
 31
0.0
  0
SPLINE
  5
53CD
330
18
100
AcDbEntity
  8
01
100
AcDbSpline
210
0.0
220
0.0
230
1.0
 70
     8
 71
     3
 72
    15
 73
    11
 74
     0
 42
0.0000000001
 43
0.0000000001
 40
0.0
 40
0.0
 40
0.0
 40
0.0
 40
0.3239134378506759
 40
0.8160355006251889
 40
1.145659638251578
 40
1.386999280094283
 40
1.863001509903507
 40
2.202629645924493
 40
2.522985784708371
 40
3.066433340120352
 40
3.066433340120352
 40
3.066433340120352
 40
3.066433340120352
 10
134.6108828368288
 20
151.9685248102497
 30
0.0
 10
134.5030691748416
 20
151.9685248102497
 30
0.0
 10
134.2308243192174
 20
151.9726703320319
 30
0.0
 10
133.8670652076826
 20
151.9992420947411
 30
0.0
 10
133.5614521062426
 20
152.0529341559748
 30
0.0
 10
133.2811872265147
 20
152.1349436756221
 30
0.0
 10
133.0269484497367
 20
152.2657656834911
 30
0.0
 10
132.8084581189114
 20
152.4795103499194
 30
0.0
 10
132.6489322865528
 20
152.7587243799615
 30
0.0
 10
132.6108828693669
 20
152.9817300301107
 30
0.0
 10
132.6108828368288
 20
153.1191934833797
 30
0.0
  0
SPLINE
  5
53CE
330
18
100
AcDbEntity
  8
01
100
AcDbSpline
210
0.0
220
0.0
230
1.0
 70
     8
 71
     3
 72
    16
 73
    12
 74
     0
 42
0.0000000001
 43
0.0000000001
 40
0.0
 40
0.0
 40
0.0
 40
0.0
 40
0.5064831664044979
 40
0.8286039300011718
 40
1.17455759494306
 40
1.591492274726014
 40
1.731658454015571
 40
2.018510025149136
 40
2.244796614863824
 40
2.639688852883729
 40
3.06635967035154
 40
3.06635967035154
 40
3.06635967035154
 40
3.06635967035154
 10
132.6108828368288
 20
204.8379529190223
 30
0.0
 10
132.6108828368288
 20
204.9665019783
 30
0.0
 10
132.6450463734464
 20
205.1798118089604
 30
0.0
 10
132.7913883770116
 20
205.4555839479998
 30
0.0
 10
132.9957025881113
 20
205.6663605322159
 30
0.0
 10
133.2072350143781
 20
205.7851093144342
 30
0.0
 10
133.4234818171099
 20
205.8659862522669
 30
0.0
 10
133.6024662288565
 20
205.9122822552869
 30
0.0
 10
133.8667376559634
 20
205.9551235434848
 30
0.0
 10
134.1948113352837
 20
205.9829320553434
 30
0.0
 10
134.4690206623618
 20
205.9886213885783
 30
0.0
 10
134.6108828368288
 20
205.9886213885783
 30
0.0
  0
LINE
  5
53CF
330
18
100
AcDbEntity
  8
01
100
AcDbLine
 10
252.6108828368288
 20
205.9886213885783
 30
0.0
 11
238.6108828368289
 21
205.9886213885783
 31
0.0
  0
SPLINE
  5
56BD
330
18
100
AcDbEntity
  8
01
100
AcDbSpline
210
0.0
220
0.0
230
1.0
 70
     8
 71
     3
 72
    13
 73
     9
 74
     0
 42
0.0000000001
 43
0.0000000001
 40
0.0
 40
0.0
 40
0.0
 40
0.0
 40
0.4642431194765811
 40
0.8298538153798214
 40
1.158108458988695
 40
1.528202472899773
 40
2.062847684215402
 40
2.816430291658919
 40
2.816430291658919
 40
2.816430291658919
 40
2.816430291658919
 10
364.0284756220633
 20
80.04524178102355
 30
0.0
 10
364.157887132504
 20
79.97922017918114
 30
0.0
 10
364.3824956608232
 20
79.8506020452964
 30
0.0
 10
364.6621419990282
 20
79.65114029171929
 30
0.0
 10
364.8818914911772
 20
79.46283473739663
 30
0.0
 10
365.0847237763011
 20
79.25466162012339
 30
0.0
 10
365.262007687512
 20
79.0267744616745
 30
0.0
 10
365.3073540625926
 20
78.95239992137368
 30
0.0
 10
365.3073540675964
 20
78.95239991159974
 30
0.0
  0
SPLINE
  5
56BE
330
18
100
AcDbEntity
  8
01
100
AcDbSpline
210
0.0
220
0.0
230
1.0
 70
     8
 71
     3
 72
    10
 73
     6
 74
     0
 42
0.0000000001
 43
0.0000000001
 40
50.20942136689239
 40
50.20942136689239
 40
50.20942136689239
 40
50.20942136689239
 40
53.03681379234478
 40
55.86420621779719
 40
58.69159864324958
 40
58.69159864324958
 40
58.69159864324958
 40
58.69159864324958
 10
355.6702826901038
 20
80.53001347939602
 30
0.0
 10
356.9900741225428
 20
80.71375091898426
 30
0.0
 10
359.3878751023771
 20
80.9136097998715
 30
0.0
 10
362.1836166586511
 20
80.72897038048063
 30
0.0
 10
363.5010266882286
 20
80.31432930950768
 30
0.0
 10
364.0284756220633
 20
80.04524178102355
 30
0.0
  0
SPLINE
  5
56C0
330
18
100
AcDbEntity
  8
01
100
AcDbSpline
210
0.0
220
0.0
230
1.0
 70
     8
 71
     3
 72
    27
 73
    23
 74
     0
 42
0.0000000001
 43
0.0000000001
 40
0.0743553608203347
 40
0.0743553608203347
 40
0.0743553608203347
 40
0.0743553608203347
 40
5.836420182183603
 40
11.59848500354687
 40
17.36054982491014
 40
23.12261464627341
 40
28.88467946763667
 40
34.64674428899994
 40
40.4088091103632
 40
46.17087393172648
 40
49.05190634240811
 40
51.93293875308974
 40
54.81397116377137
 40
57.695003574453
 40
60.57603598513465
 40
63.45706839581627
 40
66.3381008064979
 40
69.21913321717955
 40
72.10016562786117
 40
74.98119803854281
 40
77.86223044922444
 40
80.74326285990608
 40
80.74326285990608
 40
80.74326285990608
 40
80.74326285990608
 10
286.0489714344332
 20
41.362530750671
 30
0.0
 10
286.1242783196234
 20
41.54158469921077
 30
0.0
 10
286.4096870098973
 20
42.17242954508947
 30
0.0
 10
287.3710210947055
 20
43.43848872514928
 30
0.0
 10
288.9523959489214
 20
44.77686964957911
 30
0.0
 10
291.2073036638744
 20
46.13503973302733
 30
0.0
 10
294.1641877173319
 20
47.60202977667996
 30
0.0
 10
297.8348110539288
 20
49.35450625187559
 30
0.0
 10
302.2226778302675
 20
51.60242067754939
 30
0.0
 10
306.4797391683913
 20
54.04782356607086
 30
0.0
 10
310.2519425911871
 20
56.40325415041855
 30
0.0
 10
313.2675609672748
 20
58.37079254688473
 30
0.0
 10
316.4739031341871
 20
60.53290348662176
 30
0.0
 10
319.8768627332165
 20
62.87131645781938
 30
0.0
 10
323.4841486610522
 20
65.35483886625099
 30
0.0
 10
327.3055682843687
 20
67.93749997284607
 30
0.0
 10
331.3532828943455
 20
70.55691226384573
 30
0.0
 10
335.6420705828097
 20
73.13257466750582
 30
0.0
 10
340.1895871919552
 20
75.56419095204114
 30
0.0
 10
345.0166275481358
 20
77.72998555204236
 30
0.0
 10
350.1473874857843
 20
79.48501449977095
 30
0.0
 10
353.7889441130933
 20
80.26800383890486
 30
0.0
 10
355.6702826901038
 20
80.53001347939602
 30
0.0
  0
SPLINE
  5
56C2
330
18
100
AcDbEntity
  8
01
100
AcDbSpline
210
0.0
220
0.0
230
1.0
 70
     8
 71
     3
 72
     8
 73
     4
 74
     0
 42
0.0000000001
 43
0.0000000001
 40
2.589516692297097
 40
2.589516692297097
 40
2.589516692297097
 40
2.589516692297097
 40
4.117268841997912
 40
4.117268841997912
 40
4.117268841997912
 40
4.117268841997912
 10
285.6160305484264
 20
39.90134754105526
 30
0.0
 10
285.6847418598591
 20
40.34778838527416
 30
0.0
 10
285.8271581211466
 20
40.83509039236441
 30
0.0
 10
286.0489714344332
 20
41.362530750671
 30
0.0
  0
SPLINE
  5
56C5
330
18
100
AcDbEntity
  8
01
100
AcDbSpline
210
0.0
220
0.0
230
1.0
 70
     8
 71
     3
 72
    12
 73
     8
 74
     0
 42
0.0000000001
 43
0.0000000001
 40
0.0
 40
0.0
 40
0.0
 40
0.0
 40
0.8040556050214852
 40
1.366428797478325
 40
2.041728785883781
 40
2.426177467167557
 40
2.816444809692154
 40
2.816444809692154
 40
2.816444809692154
 40
2.816444809692154
 10
285.7549226125925
 20
38.2248802957663
 30
0.0
 10
285.7549226072538
 20
38.22488030619434
 30
0.0
 10
285.7163081322726
 20
38.31585191391082
 30
0.0
 10
285.6141677174255
 20
38.67769738830219
 30
0.0
 10
285.560967671444
 20
39.10556764883569
 30
0.0
 10
285.5703951573349
 20
39.54056269280267
 30
0.0
 10
285.5974524108469
 20
39.78063903976204
 30
0.0
 10
285.6160305484264
 20
39.90134754105526
 30
0.0
  0
ARC
  5
56CA
330
18
100
AcDbEntity
  8
01
100
AcDbCircle
 10
365.558666589006
 20
79.11623526717153
 30
0.0
 40
0.3000000119209324
100
AcDbArc
 50
213.1010853802908
 51
297.1105488612839
  0
ARC
  5
56CB
330
18
100
AcDbEntity
  8
01
100
AcDbCircle
 10
-285.4750742801388
 20
38.11678349666698
 30
0.0
 40
0.300000011920935
210
0.0
220
0.0
230
-1.0
100
AcDbArc
 50
158.8799876576689
 51
242.8894511387161
  0
ARC
  5
56CE
330
18
100
AcDbEntity
  8
01
100
AcDbCircle
 10
-363.7673577172629
 20
77.78768496005796
 30
0.0
 40
3.722552390219274
210
0.0
220
0.0
230
-1.0
100
AcDbArc
 50
132.823810042409
 51
142.0885152025379
  0
ARC
  5
56CF
330
18
100
AcDbEntity
  8
01
100
AcDbCircle
 10
-362.9008780200085
 20
76.70706371585715
 30
0.0
 40
5.110944267435379
210
0.0
220
0.0
230
-1.0
100
AcDbArc
 50
118.0787513184918
 51
126.3088518661488
  0
SPLINE
  5
56D1
330
18
100
AcDbEntity
  8
01
100
AcDbSpline
210
0.0
220
0.0
230
1.0
 70
     8
 71
     3
 72
    25
 73
    21
 74
     0
 42
0.0000000001
 43
0.0000000001
 40
6.861857550800667
 40
6.861857550800667
 40
6.861857550800667
 40
6.861857550800667
 40
13.69063442528922
 40
20.51941129977777
 40
27.34818817426633
 40
34.17696504875488
 40
41.00574192324343
 40
44.42013036048771
 40
47.83451879773199
 40
51.24890723497627
 40
54.66329567222055
 40
58.07768410946483
 40
61.4920725467091
 40
64.90646098395338
 40
68.32084942119765
 40
75.1496262956862
 40
81.97840317017476
 40
88.80718004466331
 40
95.63595691915187
 40
102.4647337936404
 40
102.4647337936404
 40
102.4647337936404
 40
102.4647337936404
 10
365.3065213084021
 20
81.21645743051965
 30
0.0
 10
364.4779799977262
 20
81.66121255670896
 30
0.0
 10
362.2964288886765
 20
82.30365336364741
 30
0.0
 10
357.4065073625479
 20
82.34292173861144
 30
0.0
 10
351.0588413347342
 20
81.36242144675475
 30
0.0
 10
343.6189609088118
 20
79.3925125661184
 30
0.0
 10
336.9305688728173
 20
77.05678913817155
 30
0.0
 10
331.5508620745457
 20
74.8929013448651
 30
0.0
 10
327.5642691888198
 20
73.15814989615632
 30
0.0
 10
323.6671583695813
 20
71.33884605507671
 30
0.0
 10
319.9498063569871
 20
69.49056917282132
 30
0.0
 10
316.27695459885
 20
67.55537063474708
 30
0.0
 10
312.522510464393
 20
65.45739817429052
 30
0.0
 10
308.7843454299213
 20
63.23739646249589
 30
0.0
 10
303.883534460989
 20
60.13808888431277
 30
0.0
 10
298.0781822444445
 20
56.07753749307579
 30
0.0
 10
292.1302433097836
 20
51.19344247152105
 30
0.0
 10
287.6235639014748
 20
46.61697161138017
 30
0.0
 10
284.7964849762214
 20
42.62692157568438
 30
0.0
 10
284.0422203646492
 20
40.4814658367921
 30
0.0
 10
283.918626810873
 20
39.54925745921071
 30
0.0
  0
SPLINE
  5
56D3
330
18
100
AcDbEntity
  8
01
100
AcDbSpline
210
0.0
220
0.0
230
1.0
 70
     8
 71
     3
 72
    10
 73
     6
 74
     0
 42
0.0000000001
 43
0.0000000001
 40
1.297381946953095
 40
1.297381946953095
 40
1.297381946953095
 40
1.297381946953095
 40
1.340456626603027
 40
1.929140949445721
 40
2.659594996572852
 40
2.659594996572852
 40
2.659594996572852
 40
2.659594996572852
 10
283.9189995101725
 20
38.23900340312701
 30
0.0
 10
283.9172902265594
 20
38.25025172859068
 30
0.0
 10
283.8926761465625
 20
38.41733737597008
 30
0.0
 10
283.8561990498949
 20
38.84256811522749
 30
0.0
 10
283.8858064656201
 20
39.30170894340932
 30
0.0
 10
283.918626810873
 20
39.54925745921071
 30
0.0
  0
ARC
  5
56D4
330
18
100
AcDbEntity
  8
01
100
AcDbCircle
 10
-287.5717829313578
 20
38.78193139587427
 30
0.0
 40
3.692234186532384
210
0.0
220
0.0
230
-1.0
100
AcDbArc
 50
343.8586520593385
 51
347.4617581680227
  0
LINE
  5
56D6
330
18
100
AcDbEntity
  8
01
100
AcDbLine
 10
365.6953792340466
 20
78.8491965811379
 30
0.0
 11
366.5606379051393
 21
79.29217285295215
 31
0.0
  0
LINE
  5
56DB
330
18
100
AcDbEntity
  8
01
100
AcDbLine
 10
284.7465282540867
 20
37.40676853881916
 30
0.0
 11
285.6117869251793
 21
37.84974481063335
 31
0.0
  0
ARC
  5
56DC
330
18
100
AcDbEntity
  8
01
100
AcDbCircle
 10
366.3327835057884
 20
79.73723731198652
 30
0.0
 40
0.5000000000000003
100
AcDbArc
 50
297.1105488615315
 51
35.44741541188232
  0
ARC
  5
56DD
330
18
100
AcDbEntity
  8
01
100
AcDbCircle
 10
-284.5186738547399
 20
37.8518329978566
 30
0.0
 40
0.4999999999999997
210
0.0
220
0.0
230
-1.0
100
AcDbArc
 50
242.8894511389623
 51
340.9570049056815
  0
SPLINE
  5
56DE
330
18
100
AcDbEntity
  8
01
100
AcDbSpline
210
0.0
220
0.0
230
1.0
 70
     8
 71
     3
 72
    16
 73
    12
 74
     0
 42
0.0000000001
 43
0.0000000001
 40
3.977910642418026
 40
3.977910642418026
 40
3.977910642418026
 40
3.977910642418026
 40
4.582828101425056
 40
5.731586837296704
 40
6.880345573168353
 40
8.029104309040003
 40
9.177863044911652
 40
10.3266217807833
 40
11.47538051665495
 40
12.6241392525266
 40
12.70690224066784
 40
12.70690224066784
 40
12.70690224066784
 40
12.70690224066784
 10
344.5067546340896
 20
77.43748731367032
 30
0.0
 10
344.694414636777
 20
77.44123323794145
 30
0.0
 10
345.2436289994626
 20
77.43249094933054
 30
0.0
 10
346.1743879905771
 20
77.31779822778594
 30
0.0
 10
347.2942699411994
 20
77.0172521494083
 30
0.0
 10
348.4038777733505
 20
76.55350348251665
 30
0.0
 10
349.476576636031
 20
75.93716358458227
 30
0.0
 10
350.4882972415877
 20
75.18813041289332
 30
0.0
 10
351.4217393764976
 20
74.33542408407175
 30
0.0
 10
352.0080157191433
 20
73.70110069718783
 30
0.0
 10
352.2968352394058
 20
73.36928633247794
 30
0.0
 10
352.3161812424762
 20
73.34697421483008
 30
0.0
  0
ARC
  5
56DF
330
18
100
AcDbEntity
  8
01
100
AcDbCircle
 10
358.5883536021514
 20
75.21069516588568
 30
0.0
 40
6.0
100
AcDbArc
 50
288.5903800520756
 51
292.0198016795729
  0
SPLINE
  5
56E1
330
18
100
AcDbEntity
  8
01
100
AcDbSpline
210
0.0
220
0.0
230
1.0
 70
     8
 71
     3
 72
    14
 73
    10
 74
     0
 42
0.0000000001
 43
0.0000000001
 40
-0.0097108808293669
 40
-0.0097108808293669
 40
-0.0097108808293669
 40
-0.0097108808293669
 40
1.125004048105128
 40
2.259718977039622
 40
3.394433905974117
 40
4.529148834908612
 40
5.663863763843106
 40
6.798578692777602
 40
7.933293621712096
 40
7.933293621712096
 40
7.933293621712096
 40
7.933293621712096
 10
360.8379156619006
 20
69.64836916507079
 30
0.0
 10
361.1810234672924
 20
69.78712941345754
 30
0.0
 10
361.8526178045106
 20
70.13029561488497
 30
0.0
 10
362.8450334135689
 20
70.73809796617508
 30
0.0
 10
363.8099044936662
 20
71.39950139058169
 30
0.0
 10
364.7111123756698
 20
72.11668240289737
 30
0.0
 10
365.5060213839439
 20
72.9117547814173
 30
0.0
 10
366.1628030297006
 20
73.80470755040727
 30
0.0
 10
366.50591370419
 20
74.46271168532678
 30
0.0
 10
366.6607428465911
 20
74.79898156895268
 30
0.0
  0
SPLINE
  5
56E3
330
18
100
AcDbEntity
  8
01
100
AcDbSpline
210
0.0
220
0.0
230
1.0
 70
     8
 71
     3
 72
    10
 73
     6
 74
     0
 42
0.0000000001
 43
0.0000000001
 40
0.0
 40
0.0
 40
0.0
 40
0.0
 40
1.640794657788122
 40
3.281589315576244
 40
4.922383973364366
 40
4.922383973364366
 40
4.922383973364366
 40
4.922383973364366
 10
366.6607428465911
 20
74.79898156895268
 30
0.0
 10
366.9683913915269
 20
75.46715815823694
 30
0.0
 10
367.3931868166777
 20
76.71237156664324
 30
0.0
 10
367.4952465081591
 20
78.2932517275741
 30
0.0
 10
367.2415010708948
 20
79.15528261045091
 30
0.0
 10
367.0445783238631
 20
79.53992875347507
 30
0.0
  0
ARC
  5
56E4
330
18
100
AcDbEntity
  8
01
100
AcDbCircle
 10
364.0190442586795
 20
77.98936649864146
 30
0.0
 40
3.399720530529199
100
AcDbArc
 50
27.13478036349876
 51
36.83011521295577
  0
SPLINE
  5
56ED
330
18
100
AcDbEntity
  8
01
100
AcDbSpline
210
0.0
220
0.0
230
1.0
 70
    24
 71
     3
 72
     8
 73
     4
 74
     0
 42
0.0000000001
 43
0.0000000001
 40
4.718382381486297
 40
4.718382381486297
 40
4.718382381486297
 40
4.718382381486297
 40
4.718405519453656
 40
4.718405519453656
 40
4.718405519453656
 40
4.718405519453656
 10
345.1322134671366
 20
77.7252566394609
 30
0.0
 10
345.1322209136614
 20
77.72525620253884
 30
0.0
 10
345.1322283601886
 20
77.72525576560582
 30
0.0
 10
345.1322358067182
 20
77.72525532866166
 30
0.0
  0
ARC
  5
56F7
330
18
100
AcDbEntity
  8
01
100
AcDbCircle
 10
287.6700021242518
 20
38.81006486445204
 30
0.0
 40
3.794223478320358
100
AcDbArc
 50
188.6563742812375
 51
192.630960753466
  0
LINE
  5
56F8
330
18
100
AcDbEntity
  8
01
100
AcDbLine
 10
284.0251011293392
 20
37.75546099521569
 30
0.0
 11
284.0460368541779
 21
37.6886942051072
 31
0.0
  0
LINE
  5
56F9
330
18
100
AcDbEntity
  8
01
100
AcDbLine
 10
366.7043061392026
 20
80.07498254996489
 30
0.0
 11
366.7401075705943
 21
80.0272150805053
 31
0.0
  0
ARC
  5
56FA
330
18
100
AcDbEntity
  8
01
100
AcDbCircle
 10
363.3664682825406
 20
77.36510703319743
 30
0.0
 40
4.304999493574607
100
AcDbArc
 50
47.08587935934599
 51
53.49866489627163
  0
ARC
  5
5825
330
18
100
AcDbEntity
  8
01
100
AcDbCircle
 10
-287.5717829313578
 20
38.78193139587427
 30
0.0
 40
3.692234186532384
210
0.0
220
0.0
230
-1.0
100
AcDbArc
 50
343.8586520593385
 51
347.4617581680227
  0
LINE
  5
5918
330
18
100
AcDbEntity
  8
1CENTER
100
AcDbLine
 10
372.0835452034892
 20
104.3103213756948
 30
0.0
 11
372.0835452034892
 21
81.07430667391235
 31
0.0
  0
LINE
  5
5919
330
18
100
AcDbEntity
  8
1PHANTOM
100
AcDbLine
 10
370.9891748535962
 20
101.6645534811007
 30
0.0
 11
372.9515099424716
 21
102.4645489151517
 31
0.0
  0
LINE
  5
591A
330
18
100
AcDbEntity
  8
1PHANTOM
100
AcDbLine
 10
372.9515099424716
 20
102.4645489151517
 30
0.0
 11
372.3632333674292
 21
102.7763187714038
 31
0.0
  0
LINE
  5
591B
330
18
100
AcDbEntity
  8
1PHANTOM
100
AcDbLine
 10
370.0835452034892
 20
90.46455558831505
 30
0.0
 11
374.0835452034892
 21
91.26454628113763
 31
0.0
  0
LINE
  5
591C
330
18
100
AcDbEntity
  8
1PHANTOM
100
AcDbLine
 10
370.0835452034892
 20
92.06455558831519
 30
0.0
 11
374.0835452034892
 21
92.86454628113776
 31
0.0
  0
LINE
  5
591D
330
18
100
AcDbEntity
  8
1PHANTOM
100
AcDbLine
 10
370.5835452034892
 20
91.96455442491808
 30
0.0
 11
370.0835452034892
 21
92.06455558831519
 31
0.0
  0
LINE
  5
591E
330
18
100
AcDbEntity
  8
1PHANTOM
100
AcDbLine
 10
370.5835452034892
 20
93.56455442491799
 30
0.0
 11
370.0835452034892
 21
93.6645555883151
 31
0.0
  0
LINE
  5
591F
330
18
100
AcDbEntity
  8
1PHANTOM
100
AcDbLine
 10
374.0835452034892
 20
92.86454628113776
 30
0.0
 11
373.5835452034892
 21
92.96454744453487
 31
0.0
  0
LINE
  5
5920
330
18
100
AcDbEntity
  8
1PHANTOM
100
AcDbLine
 10
374.0835452034892
 20
91.26454628113763
 30
0.0
 11
373.5835452034892
 21
91.36454744453485
 31
0.0
  0
LINE
  5
5921
330
18
100
AcDbEntity
  8
1PHANTOM
100
AcDbLine
 10
370.5835452034892
 20
95.1645544249179
 30
0.0
 11
370.0835452034892
 21
95.26455558831512
 31
0.0
  0
LINE
  5
5922
330
18
100
AcDbEntity
  8
1PHANTOM
100
AcDbLine
 10
374.0835452034892
 20
94.46454628113767
 30
0.0
 11
373.5835452034892
 21
94.5645474445349
 31
0.0
  0
LINE
  5
5923
330
18
100
AcDbEntity
  8
1PHANTOM
100
AcDbLine
 10
370.0835452034892
 20
93.6645555883151
 30
0.0
 11
374.0835452034892
 21
94.46454628113767
 31
0.0
  0
LINE
  5
5924
330
18
100
AcDbEntity
  8
1PHANTOM
100
AcDbLine
 10
370.0835452034892
 20
98.46455558831505
 30
0.0
 11
373.8571381512852
 21
99.26454680794038
 31
0.0
  0
LINE
  5
5925
330
18
100
AcDbEntity
  8
1PHANTOM
100
AcDbLine
 10
370.0835452034892
 20
96.86455558831514
 30
0.0
 11
374.0835452034892
 21
97.66454628113772
 31
0.0
  0
LINE
  5
5926
330
18
100
AcDbEntity
  8
1PHANTOM
100
AcDbLine
 10
370.5363613455479
 20
100.0645545347049
 30
0.0
 11
373.4043240468784
 21
100.864547861546
 31
0.0
  0
LINE
  5
5927
330
18
100
AcDbEntity
  8
1PHANTOM
100
AcDbLine
 10
371.4463466942273
 20
101.5131176846603
 30
0.0
 11
370.9891748535962
 21
101.6645534811007
 31
0.0
  0
LINE
  5
5928
330
18
100
AcDbEntity
  8
1PHANTOM
100
AcDbLine
 10
370.5835452034892
 20
98.36455442491794
 30
0.0
 11
370.0835452034892
 21
98.46455558831505
 31
0.0
  0
LINE
  5
5929
330
18
100
AcDbEntity
  8
1PHANTOM
100
AcDbLine
 10
370.5835452034892
 20
96.76455442491803
 30
0.0
 11
370.0835452034892
 21
96.86455558831514
 31
0.0
  0
LINE
  5
592A
330
18
100
AcDbEntity
  8
1PHANTOM
100
AcDbLine
 10
371.0044598006979
 20
99.95178502235487
 30
0.0
 11
370.5363613455479
 21
100.0645545347049
 31
0.0
  0
LINE
  5
592B
330
18
100
AcDbEntity
  8
1PHANTOM
100
AcDbLine
 10
373.8571381512852
 20
99.26454680794038
 30
0.0
 11
373.3205444160141
 21
99.39381750557024
 31
0.0
  0
LINE
  5
592C
330
18
100
AcDbEntity
  8
1PHANTOM
100
AcDbLine
 10
374.0835452034892
 20
96.0645462811377
 30
0.0
 11
373.5835452034892
 21
96.16454744453469
 31
0.0
  0
LINE
  5
592D
330
18
100
AcDbEntity
  8
1PHANTOM
100
AcDbLine
 10
374.0835452034892
 20
97.66454628113772
 30
0.0
 11
373.5835452034892
 21
97.76454744453483
 31
0.0
  0
LINE
  5
592E
330
18
100
AcDbEntity
  8
1PHANTOM
100
AcDbLine
 10
373.4043240468784
 20
100.864547861546
 30
0.0
 11
372.8525745830751
 21
101.047312004174
 31
0.0
  0
LINE
  5
592F
330
18
100
AcDbEntity
  8
1PHANTOM
100
AcDbLine
 10
370.0835452034892
 20
95.26455558831512
 30
0.0
 11
374.0835452034892
 21
96.0645462811377
 31
0.0
  0
LINE
  5
5932
330
18
100
AcDbEntity
  8
1PHANTOM
100
AcDbLine
 10
370.5835452045691
 20
85.76455442513324
 30
0.0
 11
374.0835452034892
 21
86.46454628113324
 31
0.0
  0
LINE
  5
5933
330
18
100
AcDbEntity
  8
1PHANTOM
100
AcDbLine
 10
370.0835452034892
 20
88.86455558831514
 30
0.0
 11
374.0835452034892
 21
89.66454628113772
 31
0.0
  0
LINE
  5
5934
330
18
100
AcDbEntity
  8
1PHANTOM
100
AcDbLine
 10
370.0835452034892
 20
87.26455558831512
 30
0.0
 11
374.0835452034892
 21
88.06454628113337
 31
0.0
  0
LINE
  5
5935
330
18
100
AcDbEntity
  8
1PHANTOM
100
AcDbLine
 10
370.5835452034892
 20
87.16455442491744
 30
0.0
 11
370.0835452034892
 21
87.26455558831512
 31
0.0
  0
LINE
  5
5937
330
18
100
AcDbEntity
  8
1PHANTOM
100
AcDbLine
 10
370.5835452034892
 20
88.76455442491735
 30
0.0
 11
370.0835452034892
 21
88.86455558831514
 31
0.0
  0
LINE
  5
5938
330
18
100
AcDbEntity
  8
1PHANTOM
100
AcDbLine
 10
370.5835452034892
 20
90.36455442491794
 30
0.0
 11
370.0835452034892
 21
90.46455558831505
 31
0.0
  0
LINE
  5
5939
330
18
100
AcDbEntity
  8
1PHANTOM
100
AcDbLine
 10
374.0835452034892
 20
86.46454628113324
 30
0.0
 11
373.5835452034892
 21
86.56454744453092
 31
0.0
  0
LINE
  5
593B
330
18
100
AcDbEntity
  8
1PHANTOM
100
AcDbLine
 10
374.0835452034892
 20
89.66454628113772
 30
0.0
 11
373.5835452034892
 21
89.76454744453483
 31
0.0
  0
LINE
  5
593C
330
18
100
AcDbEntity
  8
1PHANTOM
100
AcDbLine
 10
374.0835452034892
 20
88.06454628113337
 30
0.0
 11
373.5835452034892
 21
88.16454744453105
 31
0.0
  0
LINE
  5
5941
330
18
100
AcDbEntity
  8
1PHANTOM
100
AcDbLine
 10
368.5835452034893
 20
85.76455907872304
 30
0.0
 11
368.5835452034892
 21
84.66455558852772
 31
0.0
  0
LINE
  5
5942
330
18
100
AcDbEntity
  8
1PHANTOM
100
AcDbLine
 10
370.5835452034892
 20
98.46455442491762
 30
0.0
 11
370.5835452034893
 21
85.76455907872307
 31
0.0
  0
ARC
  5
5943
330
18
100
AcDbEntity
  8
1PHANTOM
100
AcDbCircle
 10
370.0835452034892
 20
84.66455558852772
 30
0.0
 40
1.5
100
AcDbArc
 50
180.0
 51
269.9998666844705
  0
LINE
  5
5944
330
18
100
AcDbEntity
  8
1PHANTOM
100
AcDbLine
 10
372.0835452034892
 20
103.7645509347785
 30
0.0
 11
370.5835452034892
 21
98.46455442491762
 31
0.0
  0
LINE
  5
5945
330
18
100
AcDbEntity
  8
1PHANTOM
100
AcDbLine
 10
370.0835417132968
 20
83.16455558853178
 30
0.0
 11
374.0835417132968
 21
83.16454628135219
 31
0.0
  0
LINE
  5
5946
330
18
100
AcDbEntity
  8
1PHANTOM
100
AcDbLine
 10
372.0835452034892
 20
103.7645509347785
 30
0.0
 11
373.5835452034892
 21
98.46454744453294
 31
0.0
  0
ARC
  5
5947
330
18
100
AcDbEntity
  8
1PHANTOM
100
AcDbCircle
 10
374.0835452034892
 20
84.66454628134812
 30
0.0
 40
1.5
100
AcDbArc
 50
269.9998666844706
 51
0.0
  0
LINE
  5
5948
330
18
100
AcDbEntity
  8
1PHANTOM
100
AcDbLine
 10
373.5835452034892
 20
98.46454744453294
 30
0.0
 11
373.5835452034891
 21
85.76454279115877
 31
0.0
  0
LINE
  5
5949
330
18
100
AcDbEntity
  8
1PHANTOM
100
AcDbLine
 10
375.5835452034892
 20
85.76454279115876
 30
0.0
 11
375.5835452034892
 21
84.66454628134812
 31
0.0
  0
LINE
  5
594A
330
18
100
AcDbEntity
  8
1PHANTOM
100
AcDbLine
 10
368.2835452034892
 20
85.7645597767615
 30
0.0
 11
375.8835452034892
 21
85.76454209312028
 31
0.0
  0
LINE
  5
594B
330
18
100
AcDbEntity
  8
01
100
AcDbLine
 10
412.0835452034891
 20
106.7645428348701
 30
0.0
 11
309.0258446836035
 21
106.7645428348702
 31
0.0
  0
LINE
  5
59A6
330
18
100
AcDbEntity
  8
1PHANTOM
100
AcDbLine
 10
217.1108828368286
 20
85.76456792054364
 30
0.0
 11
217.1108828368285
 21
84.66456443034832
 31
0.0
  0
LINE
  5
59A7
330
18
100
AcDbEntity
  8
1PHANTOM
100
AcDbLine
 10
219.1108828368285
 20
98.46456326673822
 30
0.0
 11
219.1108828368287
 21
85.76456792054367
 31
0.0
  0
ARC
  5
59A8
330
18
100
AcDbEntity
  8
1PHANTOM
100
AcDbCircle
 10
218.6108828368285
 20
84.66456443034832
 30
0.0
 40
1.5
100
AcDbArc
 50
180.0
 51
269.9998666844701
  0
LINE
  5
59A9
330
18
100
AcDbEntity
  8
1PHANTOM
100
AcDbLine
 10
220.6108828368285
 20
103.7645597765991
 30
0.0
 11
219.1108828368285
 21
98.46456326673822
 31
0.0
  0
LINE
  5
59AA
330
18
100
AcDbEntity
  8
1PHANTOM
100
AcDbLine
 10
218.6108793466361
 20
83.16456443035239
 30
0.0
 11
222.6108793466361
 21
83.16455512317279
 31
0.0
  0
LINE
  5
59AB
330
18
100
AcDbEntity
  8
1PHANTOM
100
AcDbLine
 10
220.6108828368285
 20
103.7645597765991
 30
0.0
 11
222.1108828368285
 21
98.46455628635354
 31
0.0
  0
ARC
  5
59AC
330
18
100
AcDbEntity
  8
1PHANTOM
100
AcDbCircle
 10
222.6108828368285
 20
84.66455512316873
 30
0.0
 40
1.5
100
AcDbArc
 50
269.9998666844701
 51
0.0
  0
LINE
  5
59AD
330
18
100
AcDbEntity
  8
1PHANTOM
100
AcDbLine
 10
222.1108828368285
 20
98.46455628635354
 30
0.0
 11
222.1108828368284
 21
85.76455163297938
 31
0.0
  0
LINE
  5
59AE
330
18
100
AcDbEntity
  8
1PHANTOM
100
AcDbLine
 10
224.1108828368285
 20
85.76455163297936
 30
0.0
 11
224.1108828368285
 21
84.66455512316873
 31
0.0
  0
LINE
  5
59AF
330
18
100
AcDbEntity
  8
1PHANTOM
100
AcDbLine
 10
216.8108828368285
 20
85.7645686185821
 30
0.0
 11
224.4108828368285
 21
85.76455093494089
 31
0.0
  0
LINE
  5
59B0
330
18
100
AcDbEntity
  8
1CENTER
100
AcDbLine
 10
220.6108828368285
 20
104.3103302175154
 30
0.0
 11
220.6108828368285
 21
81.07431551573295
 31
0.0
  0
LINE
  5
59B1
330
18
100
AcDbEntity
  8
1PHANTOM
100
AcDbLine
 10
219.5165124869355
 20
101.6645623229213
 30
0.0
 11
221.478847575811
 21
102.4645577569723
 31
0.0
  0
LINE
  5
59B2
330
18
100
AcDbEntity
  8
1PHANTOM
100
AcDbLine
 10
221.478847575811
 20
102.4645577569723
 30
0.0
 11
220.8905710007685
 21
102.7763276132244
 31
0.0
  0
LINE
  5
59B3
330
18
100
AcDbEntity
  8
1PHANTOM
100
AcDbLine
 10
218.6108828368285
 20
90.46456443013565
 30
0.0
 11
222.6108828368285
 21
91.26455512295823
 31
0.0
  0
LINE
  5
59B4
330
18
100
AcDbEntity
  8
1PHANTOM
100
AcDbLine
 10
218.6108828368285
 20
92.06456443013579
 30
0.0
 11
222.6108828368285
 21
92.86455512295836
 31
0.0
  0
LINE
  5
59B5
330
18
100
AcDbEntity
  8
1PHANTOM
100
AcDbLine
 10
219.1108828368285
 20
91.96456326673868
 30
0.0
 11
218.6108828368285
 21
92.06456443013579
 31
0.0
  0
LINE
  5
59B6
330
18
100
AcDbEntity
  8
1PHANTOM
100
AcDbLine
 10
219.1108828368285
 20
93.56456326673859
 30
0.0
 11
218.6108828368285
 21
93.6645644301357
 31
0.0
  0
LINE
  5
59B7
330
18
100
AcDbEntity
  8
1PHANTOM
100
AcDbLine
 10
222.6108828368285
 20
92.86455512295836
 30
0.0
 11
222.1108828368285
 21
92.96455628635547
 31
0.0
  0
LINE
  5
59B8
330
18
100
AcDbEntity
  8
1PHANTOM
100
AcDbLine
 10
222.6108828368285
 20
91.26455512295823
 30
0.0
 11
222.1108828368285
 21
91.36455628635545
 31
0.0
  0
LINE
  5
59B9
330
18
100
AcDbEntity
  8
1PHANTOM
100
AcDbLine
 10
219.1108828368285
 20
95.1645632667385
 30
0.0
 11
218.6108828368285
 21
95.26456443013572
 31
0.0
  0
LINE
  5
59BA
330
18
100
AcDbEntity
  8
1PHANTOM
100
AcDbLine
 10
222.6108828368285
 20
94.46455512295827
 30
0.0
 11
222.1108828368285
 21
94.5645562863555
 31
0.0
  0
LINE
  5
59BB
330
18
100
AcDbEntity
  8
1PHANTOM
100
AcDbLine
 10
218.6108828368285
 20
93.6645644301357
 30
0.0
 11
222.6108828368285
 21
94.46455512295827
 31
0.0
  0
LINE
  5
59BC
330
18
100
AcDbEntity
  8
1PHANTOM
100
AcDbLine
 10
218.6108828368285
 20
98.46456443013565
 30
0.0
 11
222.3844757846246
 21
99.26455564976098
 31
0.0
  0
LINE
  5
59BD
330
18
100
AcDbEntity
  8
1PHANTOM
100
AcDbLine
 10
218.6108828368285
 20
96.86456443013574
 30
0.0
 11
222.6108828368285
 21
97.66455512295832
 31
0.0
  0
LINE
  5
59BE
330
18
100
AcDbEntity
  8
1PHANTOM
100
AcDbLine
 10
219.0636989788873
 20
100.0645633765255
 30
0.0
 11
221.9316616802178
 21
100.8645567033666
 31
0.0
  0
LINE
  5
59BF
330
18
100
AcDbEntity
  8
1PHANTOM
100
AcDbLine
 10
219.9736843275666
 20
101.5131265264809
 30
0.0
 11
219.5165124869355
 21
101.6645623229213
 31
0.0
  0
LINE
  5
59C0
330
18
100
AcDbEntity
  8
1PHANTOM
100
AcDbLine
 10
219.1108828368285
 20
98.36456326673854
 30
0.0
 11
218.6108828368285
 21
98.46456443013565
 31
0.0
  0
LINE
  5
59C1
330
18
100
AcDbEntity
  8
1PHANTOM
100
AcDbLine
 10
219.1108828368285
 20
96.76456326673863
 30
0.0
 11
218.6108828368285
 21
96.86456443013574
 31
0.0
  0
LINE
  5
59C2
330
18
100
AcDbEntity
  8
1PHANTOM
100
AcDbLine
 10
219.5317974340372
 20
99.95179386417547
 30
0.0
 11
219.0636989788873
 21
100.0645633765255
 31
0.0
  0
LINE
  5
59C3
330
18
100
AcDbEntity
  8
1PHANTOM
100
AcDbLine
 10
222.3844757846246
 20
99.26455564976098
 30
0.0
 11
221.8478820493534
 21
99.39382634739084
 31
0.0
  0
LINE
  5
59C4
330
18
100
AcDbEntity
  8
1PHANTOM
100
AcDbLine
 10
222.6108828368285
 20
96.0645551229583
 30
0.0
 11
222.1108828368285
 21
96.16455628635529
 31
0.0
  0
LINE
  5
59C5
330
18
100
AcDbEntity
  8
1PHANTOM
100
AcDbLine
 10
222.6108828368285
 20
97.66455512295832
 30
0.0
 11
222.1108828368285
 21
97.76455628635543
 31
0.0
  0
LINE
  5
59C6
330
18
100
AcDbEntity
  8
1PHANTOM
100
AcDbLine
 10
221.9316616802178
 20
100.8645567033666
 30
0.0
 11
221.3799122164145
 21
101.0473208459946
 31
0.0
  0
LINE
  5
59C7
330
18
100
AcDbEntity
  8
1PHANTOM
100
AcDbLine
 10
218.6108828368285
 20
95.26456443013572
 30
0.0
 11
222.6108828368285
 21
96.0645551229583
 31
0.0
  0
LINE
  5
59C8
330
18
100
AcDbEntity
  8
1PHANTOM
100
AcDbLine
 10
219.1108828379084
 20
85.76456326695384
 30
0.0
 11
222.6108828368285
 21
86.46455512295384
 31
0.0
  0
LINE
  5
59C9
330
18
100
AcDbEntity
  8
1PHANTOM
100
AcDbLine
 10
218.6108828368285
 20
88.86456443013574
 30
0.0
 11
222.6108828368285
 21
89.66455512295832
 31
0.0
  0
LINE
  5
59CA
330
18
100
AcDbEntity
  8
1PHANTOM
100
AcDbLine
 10
218.6108828368285
 20
87.26456443013572
 30
0.0
 11
222.6108828368285
 21
88.06455512295398
 31
0.0
  0
LINE
  5
59CB
330
18
100
AcDbEntity
  8
1PHANTOM
100
AcDbLine
 10
219.1108828368285
 20
87.16456326673804
 30
0.0
 11
218.6108828368285
 21
87.26456443013572
 31
0.0
  0
LINE
  5
59CC
330
18
100
AcDbEntity
  8
1PHANTOM
100
AcDbLine
 10
219.1108828368285
 20
88.76456326673795
 30
0.0
 11
218.6108828368285
 21
88.86456443013574
 31
0.0
  0
LINE
  5
59CD
330
18
100
AcDbEntity
  8
1PHANTOM
100
AcDbLine
 10
219.1108828368285
 20
90.36456326673854
 30
0.0
 11
218.6108828368285
 21
90.46456443013565
 31
0.0
  0
LINE
  5
59CE
330
18
100
AcDbEntity
  8
1PHANTOM
100
AcDbLine
 10
222.6108828368285
 20
86.46455512295384
 30
0.0
 11
222.1108828368285
 21
86.56455628635152
 31
0.0
  0
LINE
  5
59CF
330
18
100
AcDbEntity
  8
1PHANTOM
100
AcDbLine
 10
222.6108828368285
 20
89.66455512295832
 30
0.0
 11
222.1108828368285
 21
89.76455628635543
 31
0.0
  0
LINE
  5
59D0
330
18
100
AcDbEntity
  8
1PHANTOM
100
AcDbLine
 10
222.6108828368285
 20
88.06455512295398
 30
0.0
 11
222.1108828368285
 21
88.16455628635165
 31
0.0
  0
LINE
  5
59D1
330
18
100
AcDbEntity
  8
1PHANTOM
100
AcDbLine
 10
216.8108828368285
 20
85.7645686185821
 30
0.0
 11
216.8108828368285
 21
86.76455163297936
 31
0.0
  0
LINE
  5
59D2
330
18
100
AcDbEntity
  8
1PHANTOM
100
AcDbLine
 10
224.4108828368285
 20
85.76455093494089
 30
0.0
 11
224.4108828368285
 21
86.76455163297936
 31
0.0
  0
LINE
  5
59D3
330
18
100
AcDbEntity
  8
1PHANTOM
100
AcDbLine
 10
216.8108828368285
 20
86.76455163297936
 30
0.0
 11
224.4108828368285
 21
86.76455163297936
 31
0.0
  0
LINE
  5
59D6
330
18
100
AcDbEntity
  8
1PHANTOM
100
AcDbLine
 10
199.110882836829
 20
85.76456792054364
 30
0.0
 11
199.1108828368289
 21
84.66456443034832
 31
0.0
  0
LINE
  5
59D7
330
18
100
AcDbEntity
  8
1PHANTOM
100
AcDbLine
 10
201.1108828368289
 20
98.46456326673822
 30
0.0
 11
201.1108828368291
 21
85.76456792054367
 31
0.0
  0
ARC
  5
59D8
330
18
100
AcDbEntity
  8
1PHANTOM
100
AcDbCircle
 10
200.6108828368289
 20
84.66456443034832
 30
0.0
 40
1.5
100
AcDbArc
 50
180.0
 51
269.9998666844701
  0
LINE
  5
59D9
330
18
100
AcDbEntity
  8
1PHANTOM
100
AcDbLine
 10
202.6108828368289
 20
103.7645597765991
 30
0.0
 11
201.1108828368289
 21
98.46456326673822
 31
0.0
  0
LINE
  5
59DA
330
18
100
AcDbEntity
  8
1PHANTOM
100
AcDbLine
 10
200.6108793466365
 20
83.16456443035239
 30
0.0
 11
204.6108793466365
 21
83.16455512317279
 31
0.0
  0
LINE
  5
59DB
330
18
100
AcDbEntity
  8
1PHANTOM
100
AcDbLine
 10
202.6108828368289
 20
103.7645597765991
 30
0.0
 11
204.1108828368289
 21
98.46455628635354
 31
0.0
  0
ARC
  5
59DC
330
18
100
AcDbEntity
  8
1PHANTOM
100
AcDbCircle
 10
204.6108828368289
 20
84.66455512316873
 30
0.0
 40
1.5
100
AcDbArc
 50
269.9998666844701
 51
0.0
  0
LINE
  5
59DD
330
18
100
AcDbEntity
  8
1PHANTOM
100
AcDbLine
 10
204.1108828368289
 20
98.46455628635354
 30
0.0
 11
204.1108828368288
 21
85.76455163297938
 31
0.0
  0
LINE
  5
59DE
330
18
100
AcDbEntity
  8
1PHANTOM
100
AcDbLine
 10
206.1108828368289
 20
85.76455163297936
 30
0.0
 11
206.1108828368289
 21
84.66455512316873
 31
0.0
  0
LINE
  5
59DF
330
18
100
AcDbEntity
  8
1PHANTOM
100
AcDbLine
 10
198.8108828368289
 20
85.7645686185821
 30
0.0
 11
206.4108828368289
 21
85.76455093494089
 31
0.0
  0
LINE
  5
59E0
330
18
100
AcDbEntity
  8
1CENTER
100
AcDbLine
 10
202.6108828368289
 20
104.3103302175154
 30
0.0
 11
202.6108828368289
 21
81.07431551573295
 31
0.0
  0
LINE
  5
59E1
330
18
100
AcDbEntity
  8
1PHANTOM
100
AcDbLine
 10
201.5165124869359
 20
101.6645623229213
 30
0.0
 11
203.4788475758113
 21
102.4645577569723
 31
0.0
  0
LINE
  5
59E2
330
18
100
AcDbEntity
  8
1PHANTOM
100
AcDbLine
 10
203.4788475758113
 20
102.4645577569723
 30
0.0
 11
202.8905710007689
 21
102.7763276132244
 31
0.0
  0
LINE
  5
59E3
330
18
100
AcDbEntity
  8
1PHANTOM
100
AcDbLine
 10
200.6108828368289
 20
90.46456443013565
 30
0.0
 11
204.6108828368289
 21
91.26455512295823
 31
0.0
  0
LINE
  5
59E4
330
18
100
AcDbEntity
  8
1PHANTOM
100
AcDbLine
 10
200.6108828368289
 20
92.06456443013579
 30
0.0
 11
204.6108828368289
 21
92.86455512295836
 31
0.0
  0
LINE
  5
59E5
330
18
100
AcDbEntity
  8
1PHANTOM
100
AcDbLine
 10
201.1108828368289
 20
91.96456326673868
 30
0.0
 11
200.6108828368289
 21
92.06456443013579
 31
0.0
  0
LINE
  5
59E6
330
18
100
AcDbEntity
  8
1PHANTOM
100
AcDbLine
 10
201.1108828368289
 20
93.56456326673859
 30
0.0
 11
200.6108828368289
 21
93.6645644301357
 31
0.0
  0
LINE
  5
59E7
330
18
100
AcDbEntity
  8
1PHANTOM
100
AcDbLine
 10
204.6108828368289
 20
92.86455512295836
 30
0.0
 11
204.1108828368289
 21
92.96455628635547
 31
0.0
  0
LINE
  5
59E8
330
18
100
AcDbEntity
  8
1PHANTOM
100
AcDbLine
 10
204.6108828368289
 20
91.26455512295823
 30
0.0
 11
204.1108828368289
 21
91.36455628635545
 31
0.0
  0
LINE
  5
59E9
330
18
100
AcDbEntity
  8
1PHANTOM
100
AcDbLine
 10
201.1108828368289
 20
95.1645632667385
 30
0.0
 11
200.6108828368289
 21
95.26456443013572
 31
0.0
  0
LINE
  5
59EA
330
18
100
AcDbEntity
  8
1PHANTOM
100
AcDbLine
 10
204.6108828368289
 20
94.46455512295827
 30
0.0
 11
204.1108828368289
 21
94.5645562863555
 31
0.0
  0
LINE
  5
59EB
330
18
100
AcDbEntity
  8
1PHANTOM
100
AcDbLine
 10
200.6108828368289
 20
93.6645644301357
 30
0.0
 11
204.6108828368289
 21
94.46455512295827
 31
0.0
  0
LINE
  5
59EC
330
18
100
AcDbEntity
  8
1PHANTOM
100
AcDbLine
 10
200.6108828368289
 20
98.46456443013565
 30
0.0
 11
204.3844757846249
 21
99.26455564976098
 31
0.0
  0
LINE
  5
59ED
330
18
100
AcDbEntity
  8
1PHANTOM
100
AcDbLine
 10
200.6108828368289
 20
96.86456443013574
 30
0.0
 11
204.6108828368289
 21
97.66455512295832
 31
0.0
  0
LINE
  5
59EE
330
18
100
AcDbEntity
  8
1PHANTOM
100
AcDbLine
 10
201.0636989788876
 20
100.0645633765255
 30
0.0
 11
203.9316616802181
 21
100.8645567033666
 31
0.0
  0
LINE
  5
59EF
330
18
100
AcDbEntity
  8
1PHANTOM
100
AcDbLine
 10
201.973684327567
 20
101.5131265264809
 30
0.0
 11
201.5165124869359
 21
101.6645623229213
 31
0.0
  0
LINE
  5
59F0
330
18
100
AcDbEntity
  8
1PHANTOM
100
AcDbLine
 10
201.1108828368289
 20
98.36456326673854
 30
0.0
 11
200.6108828368289
 21
98.46456443013565
 31
0.0
  0
LINE
  5
59F1
330
18
100
AcDbEntity
  8
1PHANTOM
100
AcDbLine
 10
201.1108828368289
 20
96.76456326673863
 30
0.0
 11
200.6108828368289
 21
96.86456443013574
 31
0.0
  0
LINE
  5
59F2
330
18
100
AcDbEntity
  8
1PHANTOM
100
AcDbLine
 10
201.5317974340376
 20
99.95179386417547
 30
0.0
 11
201.0636989788876
 21
100.0645633765255
 31
0.0
  0
LINE
  5
59F3
330
18
100
AcDbEntity
  8
1PHANTOM
100
AcDbLine
 10
204.3844757846249
 20
99.26455564976098
 30
0.0
 11
203.8478820493538
 21
99.39382634739084
 31
0.0
  0
LINE
  5
59F4
330
18
100
AcDbEntity
  8
1PHANTOM
100
AcDbLine
 10
204.6108828368289
 20
96.0645551229583
 30
0.0
 11
204.1108828368289
 21
96.16455628635529
 31
0.0
  0
LINE
  5
59F5
330
18
100
AcDbEntity
  8
1PHANTOM
100
AcDbLine
 10
204.6108828368289
 20
97.66455512295832
 30
0.0
 11
204.1108828368289
 21
97.76455628635543
 31
0.0
  0
LINE
  5
59F6
330
18
100
AcDbEntity
  8
1PHANTOM
100
AcDbLine
 10
203.9316616802181
 20
100.8645567033666
 30
0.0
 11
203.3799122164149
 21
101.0473208459946
 31
0.0
  0
LINE
  5
59F7
330
18
100
AcDbEntity
  8
1PHANTOM
100
AcDbLine
 10
200.6108828368289
 20
95.26456443013572
 30
0.0
 11
204.6108828368289
 21
96.0645551229583
 31
0.0
  0
LINE
  5
59F8
330
18
100
AcDbEntity
  8
1PHANTOM
100
AcDbLine
 10
201.1108828379088
 20
85.76456326695384
 30
0.0
 11
204.6108828368289
 21
86.46455512295384
 31
0.0
  0
LINE
  5
59F9
330
18
100
AcDbEntity
  8
1PHANTOM
100
AcDbLine
 10
200.6108828368289
 20
88.86456443013574
 30
0.0
 11
204.6108828368289
 21
89.66455512295832
 31
0.0
  0
LINE
  5
59FA
330
18
100
AcDbEntity
  8
1PHANTOM
100
AcDbLine
 10
200.6108828368289
 20
87.26456443013572
 30
0.0
 11
204.6108828368289
 21
88.06455512295398
 31
0.0
  0
LINE
  5
59FB
330
18
100
AcDbEntity
  8
1PHANTOM
100
AcDbLine
 10
201.1108828368289
 20
87.16456326673804
 30
0.0
 11
200.6108828368289
 21
87.26456443013572
 31
0.0
  0
LINE
  5
59FC
330
18
100
AcDbEntity
  8
1PHANTOM
100
AcDbLine
 10
201.1108828368289
 20
88.76456326673795
 30
0.0
 11
200.6108828368289
 21
88.86456443013574
 31
0.0
  0
LINE
  5
59FD
330
18
100
AcDbEntity
  8
1PHANTOM
100
AcDbLine
 10
201.1108828368289
 20
90.36456326673854
 30
0.0
 11
200.6108828368289
 21
90.46456443013565
 31
0.0
  0
LINE
  5
59FE
330
18
100
AcDbEntity
  8
1PHANTOM
100
AcDbLine
 10
204.6108828368289
 20
86.46455512295384
 30
0.0
 11
204.1108828368289
 21
86.56455628635152
 31
0.0
  0
LINE
  5
59FF
330
18
100
AcDbEntity
  8
1PHANTOM
100
AcDbLine
 10
204.6108828368289
 20
89.66455512295832
 30
0.0
 11
204.1108828368289
 21
89.76455628635543
 31
0.0
  0
LINE
  5
5A00
330
18
100
AcDbEntity
  8
1PHANTOM
100
AcDbLine
 10
204.6108828368289
 20
88.06455512295398
 30
0.0
 11
204.1108828368289
 21
88.16455628635165
 31
0.0
  0
LINE
  5
5A01
330
18
100
AcDbEntity
  8
1PHANTOM
100
AcDbLine
 10
198.8108828368289
 20
85.7645686185821
 30
0.0
 11
198.8108828368289
 21
86.76455163297936
 31
0.0
  0
LINE
  5
5A02
330
18
100
AcDbEntity
  8
1PHANTOM
100
AcDbLine
 10
206.4108828368289
 20
85.76455093494089
 30
0.0
 11
206.4108828368288
 21
86.76455163297936
 31
0.0
  0
LINE
  5
5A03
330
18
100
AcDbEntity
  8
1PHANTOM
100
AcDbLine
 10
198.8108828368289
 20
86.76455163297936
 30
0.0
 11
206.4108828368288
 21
86.76455163297936
 31
0.0
  0
LINE
  5
5A06
330
18
100
AcDbEntity
  8
1PHANTOM
100
AcDbLine
 10
181.110882836829
 20
85.76456792054364
 30
0.0
 11
181.1108828368289
 21
84.66456443034832
 31
0.0
  0
LINE
  5
5A07
330
18
100
AcDbEntity
  8
1PHANTOM
100
AcDbLine
 10
183.1108828368289
 20
98.46456326673822
 30
0.0
 11
183.1108828368291
 21
85.76456792054367
 31
0.0
  0
ARC
  5
5A08
330
18
100
AcDbEntity
  8
1PHANTOM
100
AcDbCircle
 10
182.6108828368289
 20
84.66456443034832
 30
0.0
 40
1.5
100
AcDbArc
 50
180.0
 51
269.9998666844701
  0
LINE
  5
5A09
330
18
100
AcDbEntity
  8
1PHANTOM
100
AcDbLine
 10
184.6108828368289
 20
103.7645597765991
 30
0.0
 11
183.1108828368289
 21
98.46456326673822
 31
0.0
  0
LINE
  5
5A0A
330
18
100
AcDbEntity
  8
1PHANTOM
100
AcDbLine
 10
182.6108793466365
 20
83.16456443035239
 30
0.0
 11
186.6108793466365
 21
83.16455512317279
 31
0.0
  0
LINE
  5
5A0B
330
18
100
AcDbEntity
  8
1PHANTOM
100
AcDbLine
 10
184.6108828368289
 20
103.7645597765991
 30
0.0
 11
186.1108828368289
 21
98.46455628635354
 31
0.0
  0
ARC
  5
5A0C
330
18
100
AcDbEntity
  8
1PHANTOM
100
AcDbCircle
 10
186.6108828368289
 20
84.66455512316873
 30
0.0
 40
1.5
100
AcDbArc
 50
269.9998666844701
 51
0.0
  0
LINE
  5
5A0D
330
18
100
AcDbEntity
  8
1PHANTOM
100
AcDbLine
 10
186.1108828368289
 20
98.46455628635354
 30
0.0
 11
186.1108828368288
 21
85.76455163297938
 31
0.0
  0
LINE
  5
5A0E
330
18
100
AcDbEntity
  8
1PHANTOM
100
AcDbLine
 10
188.1108828368289
 20
85.76455163297936
 30
0.0
 11
188.1108828368289
 21
84.66455512316873
 31
0.0
  0
LINE
  5
5A0F
330
18
100
AcDbEntity
  8
1PHANTOM
100
AcDbLine
 10
180.8108828368289
 20
85.7645686185821
 30
0.0
 11
188.4108828368289
 21
85.76455093494089
 31
0.0
  0
LINE
  5
5A10
330
18
100
AcDbEntity
  8
1CENTER
100
AcDbLine
 10
184.6108828368289
 20
104.3103302175154
 30
0.0
 11
184.6108828368289
 21
81.07431551573295
 31
0.0
  0
LINE
  5
5A11
330
18
100
AcDbEntity
  8
1PHANTOM
100
AcDbLine
 10
183.5165124869359
 20
101.6645623229213
 30
0.0
 11
185.4788475758113
 21
102.4645577569723
 31
0.0
  0
LINE
  5
5A12
330
18
100
AcDbEntity
  8
1PHANTOM
100
AcDbLine
 10
185.4788475758113
 20
102.4645577569723
 30
0.0
 11
184.8905710007689
 21
102.7763276132244
 31
0.0
  0
LINE
  5
5A13
330
18
100
AcDbEntity
  8
1PHANTOM
100
AcDbLine
 10
182.6108828368289
 20
90.46456443013565
 30
0.0
 11
186.6108828368289
 21
91.26455512295823
 31
0.0
  0
LINE
  5
5A14
330
18
100
AcDbEntity
  8
1PHANTOM
100
AcDbLine
 10
182.6108828368289
 20
92.06456443013579
 30
0.0
 11
186.6108828368289
 21
92.86455512295836
 31
0.0
  0
LINE
  5
5A15
330
18
100
AcDbEntity
  8
1PHANTOM
100
AcDbLine
 10
183.1108828368289
 20
91.96456326673868
 30
0.0
 11
182.6108828368289
 21
92.06456443013579
 31
0.0
  0
LINE
  5
5A16
330
18
100
AcDbEntity
  8
1PHANTOM
100
AcDbLine
 10
183.1108828368289
 20
93.56456326673859
 30
0.0
 11
182.6108828368289
 21
93.6645644301357
 31
0.0
  0
LINE
  5
5A17
330
18
100
AcDbEntity
  8
1PHANTOM
100
AcDbLine
 10
186.6108828368289
 20
92.86455512295836
 30
0.0
 11
186.1108828368289
 21
92.96455628635547
 31
0.0
  0
LINE
  5
5A18
330
18
100
AcDbEntity
  8
1PHANTOM
100
AcDbLine
 10
186.6108828368289
 20
91.26455512295823
 30
0.0
 11
186.1108828368289
 21
91.36455628635545
 31
0.0
  0
LINE
  5
5A19
330
18
100
AcDbEntity
  8
1PHANTOM
100
AcDbLine
 10
183.1108828368289
 20
95.1645632667385
 30
0.0
 11
182.6108828368289
 21
95.26456443013572
 31
0.0
  0
LINE
  5
5A1A
330
18
100
AcDbEntity
  8
1PHANTOM
100
AcDbLine
 10
186.6108828368289
 20
94.46455512295827
 30
0.0
 11
186.1108828368289
 21
94.5645562863555
 31
0.0
  0
LINE
  5
5A1B
330
18
100
AcDbEntity
  8
1PHANTOM
100
AcDbLine
 10
182.6108828368289
 20
93.6645644301357
 30
0.0
 11
186.6108828368289
 21
94.46455512295827
 31
0.0
  0
LINE
  5
5A1C
330
18
100
AcDbEntity
  8
1PHANTOM
100
AcDbLine
 10
182.6108828368289
 20
98.46456443013565
 30
0.0
 11
186.3844757846249
 21
99.26455564976098
 31
0.0
  0
LINE
  5
5A1D
330
18
100
AcDbEntity
  8
1PHANTOM
100
AcDbLine
 10
182.6108828368289
 20
96.86456443013574
 30
0.0
 11
186.6108828368289
 21
97.66455512295832
 31
0.0
  0
LINE
  5
5A1E
330
18
100
AcDbEntity
  8
1PHANTOM
100
AcDbLine
 10
183.0636989788876
 20
100.0645633765255
 30
0.0
 11
185.9316616802181
 21
100.8645567033666
 31
0.0
  0
LINE
  5
5A1F
330
18
100
AcDbEntity
  8
1PHANTOM
100
AcDbLine
 10
183.973684327567
 20
101.5131265264809
 30
0.0
 11
183.5165124869359
 21
101.6645623229213
 31
0.0
  0
LINE
  5
5A20
330
18
100
AcDbEntity
  8
1PHANTOM
100
AcDbLine
 10
183.1108828368289
 20
98.36456326673854
 30
0.0
 11
182.6108828368289
 21
98.46456443013565
 31
0.0
  0
LINE
  5
5A21
330
18
100
AcDbEntity
  8
1PHANTOM
100
AcDbLine
 10
183.1108828368289
 20
96.76456326673863
 30
0.0
 11
182.6108828368289
 21
96.86456443013574
 31
0.0
  0
LINE
  5
5A22
330
18
100
AcDbEntity
  8
1PHANTOM
100
AcDbLine
 10
183.5317974340376
 20
99.95179386417547
 30
0.0
 11
183.0636989788876
 21
100.0645633765255
 31
0.0
  0
LINE
  5
5A23
330
18
100
AcDbEntity
  8
1PHANTOM
100
AcDbLine
 10
186.3844757846249
 20
99.26455564976098
 30
0.0
 11
185.8478820493538
 21
99.39382634739084
 31
0.0
  0
LINE
  5
5A24
330
18
100
AcDbEntity
  8
1PHANTOM
100
AcDbLine
 10
186.6108828368289
 20
96.0645551229583
 30
0.0
 11
186.1108828368289
 21
96.16455628635529
 31
0.0
  0
LINE
  5
5A25
330
18
100
AcDbEntity
  8
1PHANTOM
100
AcDbLine
 10
186.6108828368289
 20
97.66455512295832
 30
0.0
 11
186.1108828368289
 21
97.76455628635543
 31
0.0
  0
LINE
  5
5A26
330
18
100
AcDbEntity
  8
1PHANTOM
100
AcDbLine
 10
185.9316616802181
 20
100.8645567033666
 30
0.0
 11
185.3799122164149
 21
101.0473208459946
 31
0.0
  0
LINE
  5
5A27
330
18
100
AcDbEntity
  8
1PHANTOM
100
AcDbLine
 10
182.6108828368289
 20
95.26456443013572
 30
0.0
 11
186.6108828368289
 21
96.0645551229583
 31
0.0
  0
LINE
  5
5A28
330
18
100
AcDbEntity
  8
1PHANTOM
100
AcDbLine
 10
183.1108828379088
 20
85.76456326695384
 30
0.0
 11
186.6108828368289
 21
86.46455512295384
 31
0.0
  0
LINE
  5
5A29
330
18
100
AcDbEntity
  8
1PHANTOM
100
AcDbLine
 10
182.6108828368289
 20
88.86456443013574
 30
0.0
 11
186.6108828368289
 21
89.66455512295832
 31
0.0
  0
LINE
  5
5A2A
330
18
100
AcDbEntity
  8
1PHANTOM
100
AcDbLine
 10
182.6108828368289
 20
87.26456443013572
 30
0.0
 11
186.6108828368289
 21
88.06455512295398
 31
0.0
  0
LINE
  5
5A2B
330
18
100
AcDbEntity
  8
1PHANTOM
100
AcDbLine
 10
183.1108828368289
 20
87.16456326673804
 30
0.0
 11
182.6108828368289
 21
87.26456443013572
 31
0.0
  0
LINE
  5
5A2C
330
18
100
AcDbEntity
  8
1PHANTOM
100
AcDbLine
 10
183.1108828368289
 20
88.76456326673795
 30
0.0
 11
182.6108828368289
 21
88.86456443013574
 31
0.0
  0
LINE
  5
5A2D
330
18
100
AcDbEntity
  8
1PHANTOM
100
AcDbLine
 10
183.1108828368289
 20
90.36456326673854
 30
0.0
 11
182.6108828368289
 21
90.46456443013565
 31
0.0
  0
LINE
  5
5A2E
330
18
100
AcDbEntity
  8
1PHANTOM
100
AcDbLine
 10
186.6108828368289
 20
86.46455512295384
 30
0.0
 11
186.1108828368289
 21
86.56455628635152
 31
0.0
  0
LINE
  5
5A2F
330
18
100
AcDbEntity
  8
1PHANTOM
100
AcDbLine
 10
186.6108828368289
 20
89.66455512295832
 30
0.0
 11
186.1108828368289
 21
89.76455628635543
 31
0.0
  0
LINE
  5
5A30
330
18
100
AcDbEntity
  8
1PHANTOM
100
AcDbLine
 10
186.6108828368289
 20
88.06455512295398
 30
0.0
 11
186.1108828368289
 21
88.16455628635165
 31
0.0
  0
LINE
  5
5A31
330
18
100
AcDbEntity
  8
1PHANTOM
100
AcDbLine
 10
180.8108828368289
 20
85.7645686185821
 30
0.0
 11
180.8108828368289
 21
86.76455163297936
 31
0.0
  0
LINE
  5
5A32
330
18
100
AcDbEntity
  8
1PHANTOM
100
AcDbLine
 10
188.4108828368289
 20
85.76455093494089
 30
0.0
 11
188.4108828368288
 21
86.76455163297936
 31
0.0
  0
LINE
  5
5A33
330
18
100
AcDbEntity
  8
1PHANTOM
100
AcDbLine
 10
180.8108828368289
 20
86.76455163297936
 30
0.0
 11
188.4108828368288
 21
86.76455163297936
 31
0.0
  0
LINE
  5
5A36
330
18
100
AcDbEntity
  8
1PHANTOM
100
AcDbLine
 10
163.1108828368286
 20
85.76456792054364
 30
0.0
 11
163.1108828368285
 21
84.66456443034832
 31
0.0
  0
LINE
  5
5A37
330
18
100
AcDbEntity
  8
1PHANTOM
100
AcDbLine
 10
165.1108828368285
 20
98.46456326673822
 30
0.0
 11
165.1108828368287
 21
85.76456792054367
 31
0.0
  0
ARC
  5
5A38
330
18
100
AcDbEntity
  8
1PHANTOM
100
AcDbCircle
 10
164.6108828368285
 20
84.66456443034832
 30
0.0
 40
1.5
100
AcDbArc
 50
180.0
 51
269.9998666844701
  0
LINE
  5
5A39
330
18
100
AcDbEntity
  8
1PHANTOM
100
AcDbLine
 10
166.6108828368285
 20
103.7645597765991
 30
0.0
 11
165.1108828368285
 21
98.46456326673822
 31
0.0
  0
LINE
  5
5A3A
330
18
100
AcDbEntity
  8
1PHANTOM
100
AcDbLine
 10
164.6108793466361
 20
83.16456443035239
 30
0.0
 11
168.6108793466361
 21
83.16455512317279
 31
0.0
  0
LINE
  5
5A3B
330
18
100
AcDbEntity
  8
1PHANTOM
100
AcDbLine
 10
166.6108828368285
 20
103.7645597765991
 30
0.0
 11
168.1108828368285
 21
98.46455628635354
 31
0.0
  0
ARC
  5
5A3C
330
18
100
AcDbEntity
  8
1PHANTOM
100
AcDbCircle
 10
168.6108828368285
 20
84.66455512316873
 30
0.0
 40
1.5
100
AcDbArc
 50
269.9998666844701
 51
0.0
  0
LINE
  5
5A3D
330
18
100
AcDbEntity
  8
1PHANTOM
100
AcDbLine
 10
168.1108828368285
 20
98.46455628635354
 30
0.0
 11
168.1108828368284
 21
85.76455163297938
 31
0.0
  0
LINE
  5
5A3E
330
18
100
AcDbEntity
  8
1PHANTOM
100
AcDbLine
 10
170.1108828368285
 20
85.76455163297936
 30
0.0
 11
170.1108828368285
 21
84.66455512316873
 31
0.0
  0
LINE
  5
5A3F
330
18
100
AcDbEntity
  8
1PHANTOM
100
AcDbLine
 10
162.8108828368285
 20
85.7645686185821
 30
0.0
 11
170.4108828368285
 21
85.76455093494089
 31
0.0
  0
LINE
  5
5A40
330
18
100
AcDbEntity
  8
1CENTER
100
AcDbLine
 10
166.6108828368285
 20
104.3103302175154
 30
0.0
 11
166.6108828368285
 21
81.07431551573295
 31
0.0
  0
LINE
  5
5A41
330
18
100
AcDbEntity
  8
1PHANTOM
100
AcDbLine
 10
165.5165124869355
 20
101.6645623229213
 30
0.0
 11
167.478847575811
 21
102.4645577569723
 31
0.0
  0
LINE
  5
5A42
330
18
100
AcDbEntity
  8
1PHANTOM
100
AcDbLine
 10
167.478847575811
 20
102.4645577569723
 30
0.0
 11
166.8905710007685
 21
102.7763276132244
 31
0.0
  0
LINE
  5
5A43
330
18
100
AcDbEntity
  8
1PHANTOM
100
AcDbLine
 10
164.6108828368285
 20
90.46456443013565
 30
0.0
 11
168.6108828368285
 21
91.26455512295823
 31
0.0
  0
LINE
  5
5A44
330
18
100
AcDbEntity
  8
1PHANTOM
100
AcDbLine
 10
164.6108828368285
 20
92.06456443013579
 30
0.0
 11
168.6108828368285
 21
92.86455512295836
 31
0.0
  0
LINE
  5
5A45
330
18
100
AcDbEntity
  8
1PHANTOM
100
AcDbLine
 10
165.1108828368285
 20
91.96456326673868
 30
0.0
 11
164.6108828368285
 21
92.06456443013579
 31
0.0
  0
LINE
  5
5A46
330
18
100
AcDbEntity
  8
1PHANTOM
100
AcDbLine
 10
165.1108828368285
 20
93.56456326673859
 30
0.0
 11
164.6108828368285
 21
93.6645644301357
 31
0.0
  0
LINE
  5
5A47
330
18
100
AcDbEntity
  8
1PHANTOM
100
AcDbLine
 10
168.6108828368285
 20
92.86455512295836
 30
0.0
 11
168.1108828368285
 21
92.96455628635547
 31
0.0
  0
LINE
  5
5A48
330
18
100
AcDbEntity
  8
1PHANTOM
100
AcDbLine
 10
168.6108828368285
 20
91.26455512295823
 30
0.0
 11
168.1108828368285
 21
91.36455628635545
 31
0.0
  0
LINE
  5
5A49
330
18
100
AcDbEntity
  8
1PHANTOM
100
AcDbLine
 10
165.1108828368285
 20
95.1645632667385
 30
0.0
 11
164.6108828368285
 21
95.26456443013572
 31
0.0
  0
LINE
  5
5A4A
330
18
100
AcDbEntity
  8
1PHANTOM
100
AcDbLine
 10
168.6108828368285
 20
94.46455512295827
 30
0.0
 11
168.1108828368285
 21
94.5645562863555
 31
0.0
  0
LINE
  5
5A4B
330
18
100
AcDbEntity
  8
1PHANTOM
100
AcDbLine
 10
164.6108828368285
 20
93.6645644301357
 30
0.0
 11
168.6108828368285
 21
94.46455512295827
 31
0.0
  0
LINE
  5
5A4C
330
18
100
AcDbEntity
  8
1PHANTOM
100
AcDbLine
 10
164.6108828368285
 20
98.46456443013565
 30
0.0
 11
168.3844757846246
 21
99.26455564976098
 31
0.0
  0
LINE
  5
5A4D
330
18
100
AcDbEntity
  8
1PHANTOM
100
AcDbLine
 10
164.6108828368285
 20
96.86456443013574
 30
0.0
 11
168.6108828368285
 21
97.66455512295832
 31
0.0
  0
LINE
  5
5A4E
330
18
100
AcDbEntity
  8
1PHANTOM
100
AcDbLine
 10
165.0636989788873
 20
100.0645633765255
 30
0.0
 11
167.9316616802178
 21
100.8645567033666
 31
0.0
  0
LINE
  5
5A4F
330
18
100
AcDbEntity
  8
1PHANTOM
100
AcDbLine
 10
165.9736843275666
 20
101.5131265264809
 30
0.0
 11
165.5165124869355
 21
101.6645623229213
 31
0.0
  0
LINE
  5
5A50
330
18
100
AcDbEntity
  8
1PHANTOM
100
AcDbLine
 10
165.1108828368285
 20
98.36456326673854
 30
0.0
 11
164.6108828368285
 21
98.46456443013565
 31
0.0
  0
LINE
  5
5A51
330
18
100
AcDbEntity
  8
1PHANTOM
100
AcDbLine
 10
165.1108828368285
 20
96.76456326673863
 30
0.0
 11
164.6108828368285
 21
96.86456443013574
 31
0.0
  0
LINE
  5
5A52
330
18
100
AcDbEntity
  8
1PHANTOM
100
AcDbLine
 10
165.5317974340372
 20
99.95179386417547
 30
0.0
 11
165.0636989788873
 21
100.0645633765255
 31
0.0
  0
LINE
  5
5A53
330
18
100
AcDbEntity
  8
1PHANTOM
100
AcDbLine
 10
168.3844757846246
 20
99.26455564976098
 30
0.0
 11
167.8478820493534
 21
99.39382634739084
 31
0.0
  0
LINE
  5
5A54
330
18
100
AcDbEntity
  8
1PHANTOM
100
AcDbLine
 10
168.6108828368285
 20
96.0645551229583
 30
0.0
 11
168.1108828368285
 21
96.16455628635529
 31
0.0
  0
LINE
  5
5A55
330
18
100
AcDbEntity
  8
1PHANTOM
100
AcDbLine
 10
168.6108828368285
 20
97.66455512295832
 30
0.0
 11
168.1108828368285
 21
97.76455628635543
 31
0.0
  0
LINE
  5
5A56
330
18
100
AcDbEntity
  8
1PHANTOM
100
AcDbLine
 10
167.9316616802178
 20
100.8645567033666
 30
0.0
 11
167.3799122164145
 21
101.0473208459946
 31
0.0
  0
LINE
  5
5A57
330
18
100
AcDbEntity
  8
1PHANTOM
100
AcDbLine
 10
164.6108828368285
 20
95.26456443013572
 30
0.0
 11
168.6108828368285
 21
96.0645551229583
 31
0.0
  0
LINE
  5
5A58
330
18
100
AcDbEntity
  8
1PHANTOM
100
AcDbLine
 10
165.1108828379084
 20
85.76456326695384
 30
0.0
 11
168.6108828368285
 21
86.46455512295384
 31
0.0
  0
LINE
  5
5A59
330
18
100
AcDbEntity
  8
1PHANTOM
100
AcDbLine
 10
164.6108828368285
 20
88.86456443013574
 30
0.0
 11
168.6108828368285
 21
89.66455512295832
 31
0.0
  0
LINE
  5
5A5A
330
18
100
AcDbEntity
  8
1PHANTOM
100
AcDbLine
 10
164.6108828368285
 20
87.26456443013572
 30
0.0
 11
168.6108828368285
 21
88.06455512295398
 31
0.0
  0
LINE
  5
5A5B
330
18
100
AcDbEntity
  8
1PHANTOM
100
AcDbLine
 10
165.1108828368285
 20
87.16456326673804
 30
0.0
 11
164.6108828368285
 21
87.26456443013572
 31
0.0
  0
LINE
  5
5A5C
330
18
100
AcDbEntity
  8
1PHANTOM
100
AcDbLine
 10
165.1108828368285
 20
88.76456326673795
 30
0.0
 11
164.6108828368285
 21
88.86456443013574
 31
0.0
  0
LINE
  5
5A5D
330
18
100
AcDbEntity
  8
1PHANTOM
100
AcDbLine
 10
165.1108828368285
 20
90.36456326673854
 30
0.0
 11
164.6108828368285
 21
90.46456443013565
 31
0.0
  0
LINE
  5
5A5E
330
18
100
AcDbEntity
  8
1PHANTOM
100
AcDbLine
 10
168.6108828368285
 20
86.46455512295384
 30
0.0
 11
168.1108828368285
 21
86.56455628635152
 31
0.0
  0
LINE
  5
5A5F
330
18
100
AcDbEntity
  8
1PHANTOM
100
AcDbLine
 10
168.6108828368285
 20
89.66455512295832
 30
0.0
 11
168.1108828368285
 21
89.76455628635543
 31
0.0
  0
LINE
  5
5A60
330
18
100
AcDbEntity
  8
1PHANTOM
100
AcDbLine
 10
168.6108828368285
 20
88.06455512295398
 30
0.0
 11
168.1108828368285
 21
88.16455628635165
 31
0.0
  0
LINE
  5
5A61
330
18
100
AcDbEntity
  8
1PHANTOM
100
AcDbLine
 10
162.8108828368285
 20
85.7645686185821
 30
0.0
 11
162.8108828368285
 21
86.76455163297936
 31
0.0
  0
LINE
  5
5A62
330
18
100
AcDbEntity
  8
1PHANTOM
100
AcDbLine
 10
170.4108828368285
 20
85.76455093494089
 30
0.0
 11
170.4108828368285
 21
86.76455163297936
 31
0.0
  0
LINE
  5
5A63
330
18
100
AcDbEntity
  8
1PHANTOM
100
AcDbLine
 10
162.8108828368285
 20
86.76455163297936
 30
0.0
 11
170.4108828368285
 21
86.76455163297936
 31
0.0
  0
LINE
  5
64B8
330
18
100
AcDbEntity
  8
1DIM
100
AcDbLine
 10
358.1108828368286
 20
165.2585476125177
 30
0.0
 11
358.1108828368285
 21
158.2585476125177
 31
0.0
  0
LINE
  5
64B9
330
18
100
AcDbEntity
  8
1DIM
100
AcDbLine
 10
393.1108828368286
 20
165.2585476125177
 30
0.0
 11
393.1108828368286
 21
158.2585476125177
 31
0.0
  0
LINE
  5
64BA
330
18
100
AcDbEntity
  8
1DIM
100
AcDbLine
 10
428.1108828368291
 20
165.2585476125177
 30
0.0
 11
428.1108828368291
 21
158.2585476125177
 31
0.0
  0
LINE
  5
64BB
330
18
100
AcDbEntity
  8
1DIM
100
AcDbLine
 10
358.1108828368284
 20
144.2585476125182
 30
0.0
 11
428.1108828368295
 21
144.2585476125182
 31
0.0
  0
TEXT
  5
64BC
330
18
100
AcDbEntity
  8
1TEXT
100
AcDbText
 10
359.3775495034967
 20
145.5441906288688
 30
0.0
 40
4.0
  1
パールブラック
 72
     1
 11
375.51088283683
 21
145.5441906288688
 31
0.0
100
AcDbText
  0
TEXT
  5
64BD
330
18
100
AcDbEntity
  8
1TEXT
100
AcDbText
 10
394.8808828368305
 20
145.5441906288692
 30
0.0
 40
4.0
  1
SC-36M-GQ
 41
0.9
 72
     1
 11
410.5108828368305
 21
145.5441906288692
 31
0.0
100
AcDbText
  0
LINE
  5
6D4A
330
18
100
AcDbEntity
  8
1DIM
100
AcDbLine
 10
358.1108828368287
 20
158.2585476125177
 30
0.0
 11
358.1108828368284
 21
144.2585476125182
 31
0.0
  0
LINE
  5
6D4B
330
18
100
AcDbEntity
  8
1DIM
100
AcDbLine
 10
393.110882836829
 20
158.2585476125177
 30
0.0
 11
393.110882836829
 21
144.2585476125182
 31
0.0
  0
LINE
  5
6D4C
330
18
100
AcDbEntity
  8
1DIM
100
AcDbLine
 10
428.1108828368295
 20
158.2585476125177
 30
0.0
 11
428.1108828368295
 21
144.2585476125182
 31
0.0
  0
LINE
  5
6D4D
330
18
100
AcDbEntity
  8
1DIM
100
AcDbLine
 10
393.110882836829
 20
158.2585476125177
 30
0.0
 11
393.110882836829
 21
151.2585476125177
 31
0.0
  0
LINE
  5
6D4E
330
18
100
AcDbEntity
  8
1DIM
100
AcDbLine
 10
358.1108828368287
 20
158.2585476125177
 30
0.0
 11
358.1108828368286
 21
172.2585476125177
 31
0.0
  0
LINE
  5
6D4F
330
18
100
AcDbEntity
  8
1DIM
100
AcDbLine
 10
428.1108828368286
 20
158.2585476125177
 30
0.0
 11
428.1108828368286
 21
172.2585476125177
 31
0.0
  0
LINE
  5
6DF3
330
18
100
AcDbEntity
  8
1DIM
100
AcDbLine
 10
384.7061509170508
 20
84.49459845915952
 30
0.0
 11
426.9407184358768
 21
71.6999374706483
 31
0.0
  0
LINE
  5
6DF4
330
18
100
AcDbEntity
  8
1DIM
100
AcDbLine
 10
426.9407184358768
 20
71.6999374706483
 30
0.0
 11
474.2073851025435
 21
71.6999374706483
 31
0.0
  0
TEXT
  5
6DF5
330
18
100
AcDbEntity
  8
1DIM
  6
CONTINUOUS
100
AcDbText
 10
429.4073851025435
 20
78.23327080398164
 30
0.0
 40
3.5
  1
材質：亜鉛ダイキャスト
100
AcDbText
  0
TEXT
  5
6DF6
330
18
100
AcDbEntity
  8
1DIM
  6
CONTINUOUS
100
AcDbText
 10
429.5240517692101
 20
72.39993747064831
 30
0.0
 40
3.5
  1
仕上：クロ-ム
100
AcDbText
  0
LINE
  5
6DF8
330
18
100
AcDbEntity
  8
1DIM
100
AcDbLine
 10
246.8380800430393
 20
84.29345372679057
 30
0.0
 11
248.3749123246498
 21
129.5490647056511
 31
0.0
  0
LINE
  5
6DF9
330
18
100
AcDbEntity
  8
1DIM
100
AcDbLine
 10
248.3749123246498
 20
129.5490647056511
 30
0.0
 11
201.1082456579831
 21
129.5490647056511
 31
0.0
  0
TEXT
  5
6DFA
330
18
100
AcDbEntity
  8
1DIM
  6
CONTINUOUS
100
AcDbText
 10
200.8749123246498
 20
135.9657313723178
 30
0.0
 40
3.5
  1
材質：亜鉛ダイキャスト
100
AcDbText
  0
TEXT
  5
6DFB
330
18
100
AcDbEntity
  8
1DIM
  6
CONTINUOUS
100
AcDbText
 10
208.5749123246497
 20
130.1323980389845
 30
0.0
 40
3.5
  1
仕上げ：各種仕上げ
100
AcDbText
  0
LINE
  5
6DFD
330
18
100
AcDbEntity
  8
1DIM
100
AcDbLine
 10
212.7476873826307
 20
19.5818510919322
 30
0.0
 11
208.4878962168527
 21
26.86667422949614
 31
0.0
  0
LINE
  5
6DFE
330
18
100
AcDbEntity
  8
1DIM
100
AcDbLine
 10
208.4878962168527
 20
26.86667422949614
 30
0.0
 11
161.221229550186
 21
26.86667422949614
 31
0.0
  0
TEXT
  5
6DFF
330
18
100
AcDbEntity
  8
1DIM
  6
CONTINUOUS
100
AcDbText
 10
160.9878962168527
 20
33.28334089616281
 30
0.0
 40
3.5
  1
材質：亜鉛ダイキャスト
100
AcDbText
  0
TEXT
  5
6E00
330
18
100
AcDbEntity
  8
1DIM
  6
CONTINUOUS
100
AcDbText
 10
168.6878962168527
 20
27.45000756282947
 30
0.0
 40
3.5
  1
仕上げ：各種仕上げ
100
AcDbText
  0
TEXT
  5
6E01
330
18
100
AcDbEntity
  8
1DIM
  6
CONTINUOUS
100
AcDbText
 10
276.2546800760181
 20
133.5540963471523
 30
0.0
 40
3.5
  1
カウンター棚板
100
AcDbText
  0
TEXT
  5
6E02
330
18
100
AcDbEntity
  8
1DIM
  6
CONTINUOUS
100
AcDbText
 10
284.4213467426848
 20
127.720763013819
 30
0.0
 40
3.5
  1
18mm以上
100
AcDbText
  0
LINE
  5
6E04
330
18
100
AcDbEntity
  8
1DIM
100
AcDbLine
 10
310.461331119316
 20
108.7413765466958
 30
0.0
 11
307.6546800760181
 21
127.020763013819
 31
0.0
1001
ACAD
1000
DSTYLE
1002
{
1070
   271
1070
     0
1002
}
  0
LINE
  5
6E05
330
18
100
AcDbEntity
  8
1DIM
100
AcDbLine
 10
307.6546800760181
 20
127.020763013819
 30
0.0
 11
276.7213467426848
 21
127.020763013819
 31
0.0
1001
ACAD
1000
DSTYLE
1002
{
1070
   271
1070
     0
1002
}
  0
TEXT
  5
6E06
330
18
100
AcDbEntity
  8
1HATCH
  6
CONTINUOUS
100
AcDbText
 10
415.3765595654313
 20
91.13782884274337
 30
0.0
 40
3.5
  1
壁
100
AcDbText
  0
LINE
  5
6E07
330
18
100
AcDbEntity
  8
1HATCH
  6
CONTINUOUS
100
AcDbLine
 10
412.0835452034892
 20
131.2449651476726
 30
0.0
 11
412.3316576773502
 21
131.4930776215335
 31
0.0
1001
ACAD
1010
0.0
1020
0.0
1030
0.0
  0
LINE
  5
6E08
330
18
100
AcDbEntity
  8
1HATCH
  6
CONTINUOUS
100
AcDbLine
 10
412.0835452034892
 20
128.9999011174053
 30
0.0
 11
414.5767217076174
 21
131.4930776215335
 31
0.0
1001
ACAD
1010
0.0
1020
0.0
1030
0.0
  0
LINE
  5
6E09
330
18
100
AcDbEntity
  8
1HATCH
  6
CONTINUOUS
100
AcDbLine
 10
412.0835452034892
 20
126.754837087138
 30
0.0
 11
416.8217857378847
 21
131.4930776215335
 31
0.0
1001
ACAD
1010
0.0
1020
0.0
1030
0.0
  0
LINE
  5
6E0A
330
18
100
AcDbEntity
  8
1HATCH
  6
CONTINUOUS
100
AcDbLine
 10
412.0835452034892
 20
124.5097730568707
 30
0.0
 11
419.066849768152
 21
131.4930776215335
 31
0.0
1001
ACAD
1010
0.0
1020
0.0
1030
0.0
  0
LINE
  5
6E0B
330
18
100
AcDbEntity
  8
1HATCH
  6
CONTINUOUS
100
AcDbLine
 10
412.0835452034892
 20
122.2647090266034
 30
0.0
 11
421.3119137984193
 21
131.4930776215335
 31
0.0
1001
ACAD
1010
0.0
1020
0.0
1030
0.0
  0
LINE
  5
6E0C
330
18
100
AcDbEntity
  8
1HATCH
  6
CONTINUOUS
100
AcDbLine
 10
412.0835452034892
 20
120.0196449963361
 30
0.0
 11
422.0835452034892
 21
130.0196449963361
 31
0.0
1001
ACAD
1010
0.0
1020
0.0
1030
0.0
  0
LINE
  5
6E0D
330
18
100
AcDbEntity
  8
1HATCH
  6
CONTINUOUS
100
AcDbLine
 10
412.0835452034892
 20
117.7745809660688
 30
0.0
 11
422.0835452034892
 21
127.7745809660688
 31
0.0
1001
ACAD
1010
0.0
1020
0.0
1030
0.0
  0
LINE
  5
6E0E
330
18
100
AcDbEntity
  8
1HATCH
  6
CONTINUOUS
100
AcDbLine
 10
412.0835452034892
 20
115.5295169358015
 30
0.0
 11
422.0835452034892
 21
125.5295169358015
 31
0.0
1001
ACAD
1010
0.0
1020
0.0
1030
0.0
  0
LINE
  5
6E0F
330
18
100
AcDbEntity
  8
1HATCH
  6
CONTINUOUS
100
AcDbLine
 10
412.0835452034892
 20
113.2844529055342
 30
0.0
 11
422.0835452034892
 21
123.2844529055343
 31
0.0
1001
ACAD
1010
0.0
1020
0.0
1030
0.0
  0
LINE
  5
6E10
330
18
100
AcDbEntity
  8
1HATCH
  6
CONTINUOUS
100
AcDbLine
 10
412.0835452034892
 20
111.0393888752669
 30
0.0
 11
422.0835452034892
 21
121.039388875267
 31
0.0
1001
ACAD
1010
0.0
1020
0.0
1030
0.0
  0
LINE
  5
6E11
330
18
100
AcDbEntity
  8
1HATCH
  6
CONTINUOUS
100
AcDbLine
 10
412.0835452034891
 20
108.7943248449996
 30
0.0
 11
422.0835452034892
 21
118.7943248449997
 31
0.0
1001
ACAD
1010
0.0
1020
0.0
1030
0.0
  0
LINE
  5
6E12
330
18
100
AcDbEntity
  8
1HATCH
  6
CONTINUOUS
100
AcDbLine
 10
412.0835452034891
 20
106.5492608147323
 30
0.0
 11
422.0835452034892
 21
116.5492608147324
 31
0.0
1001
ACAD
1010
0.0
1020
0.0
1030
0.0
  0
LINE
  5
6E13
330
18
100
AcDbEntity
  8
1HATCH
  6
CONTINUOUS
100
AcDbLine
 10
412.0835452034891
 20
104.3041967844651
 30
0.0
 11
422.0835452034892
 21
114.3041967844651
 31
0.0
1001
ACAD
1010
0.0
1020
0.0
1030
0.0
  0
LINE
  5
6E14
330
18
100
AcDbEntity
  8
1HATCH
  6
CONTINUOUS
100
AcDbLine
 10
412.0835452034891
 20
102.0591327541978
 30
0.0
 11
422.0835452034892
 21
112.0591327541978
 31
0.0
1001
ACAD
1010
0.0
1020
0.0
1030
0.0
  0
LINE
  5
6E15
330
18
100
AcDbEntity
  8
1HATCH
  6
CONTINUOUS
100
AcDbLine
 10
412.0835452034891
 20
99.81406872393048
 30
0.0
 11
422.0835452034892
 21
109.8140687239305
 31
0.0
1001
ACAD
1010
0.0
1020
0.0
1030
0.0
  0
LINE
  5
6E16
330
18
100
AcDbEntity
  8
1HATCH
  6
CONTINUOUS
100
AcDbLine
 10
412.0835452034891
 20
97.56900469366319
 30
0.0
 11
422.0835452034892
 21
107.5690046936632
 31
0.0
1001
ACAD
1010
0.0
1020
0.0
1030
0.0
  0
LINE
  5
6E17
330
18
100
AcDbEntity
  8
1HATCH
  6
CONTINUOUS
100
AcDbLine
 10
412.0835452034891
 20
95.32394066339589
 30
0.0
 11
422.0835452034892
 21
105.3239406633959
 31
0.0
1001
ACAD
1010
0.0
1020
0.0
1030
0.0
  0
LINE
  5
6E18
330
18
100
AcDbEntity
  8
1HATCH
  6
CONTINUOUS
100
AcDbLine
 10
412.0835452034891
 20
93.0788766331286
 30
0.0
 11
414.5015595654313
 21
95.49689099507079
 31
0.0
1001
ACAD
1010
0.0
1020
0.0
1030
0.0
  0
LINE
  5
6E19
330
18
100
AcDbEntity
  8
1HATCH
  6
CONTINUOUS
100
AcDbLine
 10
412.0835452034891
 20
90.8338126028613
 30
0.0
 11
414.5015595654313
 21
93.2518269648035
 31
0.0
1001
ACAD
1010
0.0
1020
0.0
1030
0.0
  0
LINE
  5
6E1A
330
18
100
AcDbEntity
  8
1HATCH
  6
CONTINUOUS
100
AcDbLine
 10
412.0835452034891
 20
88.58874857259401
 30
0.0
 11
414.5015595654313
 21
91.00676293453621
 31
0.0
1001
ACAD
1010
0.0
1020
0.0
1030
0.0
  0
LINE
  5
6E1B
330
18
100
AcDbEntity
  8
1HATCH
  6
CONTINUOUS
100
AcDbLine
 10
414.5174974131039
 20
95.51282884274337
 30
0.0
 11
422.0835452034892
 21
103.0788766331286
 31
0.0
1001
ACAD
1010
0.0
1020
0.0
1030
0.0
  0
LINE
  5
6E1C
330
18
100
AcDbEntity
  8
1HATCH
  6
CONTINUOUS
100
AcDbLine
 10
416.7625614433712
 20
95.51282884274337
 30
0.0
 11
422.0835452034892
 21
100.8338126028613
 31
0.0
1001
ACAD
1010
0.0
1020
0.0
1030
0.0
  0
LINE
  5
6E1D
330
18
100
AcDbEntity
  8
1HATCH
  6
CONTINUOUS
100
AcDbLine
 10
419.0076254736385
 20
95.51282884274337
 30
0.0
 11
422.0835452034892
 21
98.58874857259406
 31
0.0
1001
ACAD
1010
0.0
1020
0.0
1030
0.0
  0
LINE
  5
6E1E
330
18
100
AcDbEntity
  8
1HATCH
  6
CONTINUOUS
100
AcDbLine
 10
412.0835452034891
 20
86.34368454232671
 30
0.0
 11
416.0026895039057
 21
90.26282884274337
 31
0.0
1001
ACAD
1010
0.0
1020
0.0
1030
0.0
  0
LINE
  5
6E1F
330
18
100
AcDbEntity
  8
1HATCH
  6
CONTINUOUS
100
AcDbLine
 10
412.0835452034891
 20
84.09862051205943
 30
0.0
 11
418.2477535341731
 21
90.26282884274337
 31
0.0
1001
ACAD
1010
0.0
1020
0.0
1030
0.0
  0
LINE
  5
6E20
330
18
100
AcDbEntity
  8
1HATCH
  6
CONTINUOUS
100
AcDbLine
 10
419.518226232098
 20
93.77836557093558
 30
0.0
 11
422.0835452034892
 21
96.34368454232676
 31
0.0
1001
ACAD
1010
0.0
1020
0.0
1030
0.0
  0
LINE
  5
6E21
330
18
100
AcDbEntity
  8
1HATCH
  6
CONTINUOUS
100
AcDbLine
 10
419.518226232098
 20
91.53330154066829
 30
0.0
 11
422.0835452034892
 21
94.09862051205947
 31
0.0
1001
ACAD
1010
0.0
1020
0.0
1030
0.0
  0
LINE
  5
6E22
330
18
100
AcDbEntity
  8
1HATCH
  6
CONTINUOUS
100
AcDbLine
 10
412.0835452034891
 20
81.85355648179214
 30
0.0
 11
422.0835452034892
 21
91.85355648179218
 31
0.0
1001
ACAD
1010
0.0
1020
0.0
1030
0.0
  0
LINE
  5
6E23
330
18
100
AcDbEntity
  8
1HATCH
  6
CONTINUOUS
100
AcDbLine
 10
412.0835452034891
 20
79.60849245152485
 30
0.0
 11
422.0835452034892
 21
89.6084924515249
 31
0.0
1001
ACAD
1010
0.0
1020
0.0
1030
0.0
  0
LINE
  5
6E24
330
18
100
AcDbEntity
  8
1HATCH
  6
CONTINUOUS
100
AcDbLine
 10
412.0835452034891
 20
77.36342842125755
 30
0.0
 11
422.0835452034892
 21
87.3634284212576
 31
0.0
1001
ACAD
1010
0.0
1020
0.0
1030
0.0
  0
LINE
  5
6E25
330
18
100
AcDbEntity
  8
1HATCH
  6
CONTINUOUS
100
AcDbLine
 10
412.0835452034891
 20
75.11836439099027
 30
0.0
 11
422.0835452034892
 21
85.11836439099031
 31
0.0
1001
ACAD
1010
0.0
1020
0.0
1030
0.0
  0
LINE
  5
6E26
330
18
100
AcDbEntity
  8
1HATCH
  6
CONTINUOUS
100
AcDbLine
 10
412.0835452034891
 20
72.87330036072296
 30
0.0
 11
422.0835452034891
 21
82.87330036072302
 31
0.0
1001
ACAD
1010
0.0
1020
0.0
1030
0.0
  0
LINE
  5
6E27
330
18
100
AcDbEntity
  8
1HATCH
  6
CONTINUOUS
100
AcDbLine
 10
412.0835452034891
 20
70.62823633045568
 30
0.0
 11
422.0835452034891
 21
80.62823633045574
 31
0.0
1001
ACAD
1010
0.0
1020
0.0
1030
0.0
  0
LINE
  5
6E28
330
18
100
AcDbEntity
  8
1HATCH
  6
CONTINUOUS
100
AcDbLine
 10
412.0835452034891
 20
68.38317230018839
 30
0.0
 11
422.0835452034891
 21
78.38317230018843
 31
0.0
1001
ACAD
1010
0.0
1020
0.0
1030
0.0
  0
LINE
  5
6E29
330
18
100
AcDbEntity
  8
1HATCH
  6
CONTINUOUS
100
AcDbLine
 10
412.0835452034891
 20
66.1381082699211
 30
0.0
 11
422.0835452034891
 21
76.13810826992115
 31
0.0
1001
ACAD
1010
0.0
1020
0.0
1030
0.0
  0
LINE
  5
6E2A
330
18
100
AcDbEntity
  8
1HATCH
  6
CONTINUOUS
100
AcDbLine
 10
412.0835452034891
 20
63.8930442396538
 30
0.0
 11
422.0835452034891
 21
73.89304423965386
 31
0.0
1001
ACAD
1010
0.0
1020
0.0
1030
0.0
  0
LINE
  5
6E2B
330
18
100
AcDbEntity
  8
1HATCH
  6
CONTINUOUS
100
AcDbLine
 10
412.0835452034891
 20
61.64798020938651
 30
0.0
 11
422.0835452034891
 21
71.64798020938656
 31
0.0
1001
ACAD
1010
0.0
1020
0.0
1030
0.0
  0
LINE
  5
6E2C
330
18
100
AcDbEntity
  8
1HATCH
  6
CONTINUOUS
100
AcDbLine
 10
412.0835452034891
 20
59.40291617911922
 30
0.0
 11
422.0835452034891
 21
69.40291617911927
 31
0.0
1001
ACAD
1010
0.0
1020
0.0
1030
0.0
  0
LINE
  5
6E2D
330
18
100
AcDbEntity
  8
1HATCH
  6
CONTINUOUS
100
AcDbLine
 10
412.0835452034891
 20
57.15785214885193
 30
0.0
 11
422.0835452034891
 21
67.15785214885199
 31
0.0
1001
ACAD
1010
0.0
1020
0.0
1030
0.0
  0
LINE
  5
6E2E
330
18
100
AcDbEntity
  8
1HATCH
  6
CONTINUOUS
100
AcDbLine
 10
412.0835452034891
 20
54.91278811858464
 30
0.0
 11
422.0835452034891
 21
64.9127881185847
 31
0.0
1001
ACAD
1010
0.0
1020
0.0
1030
0.0
  0
LINE
  5
6E2F
330
18
100
AcDbEntity
  8
1HATCH
  6
CONTINUOUS
100
AcDbLine
 10
412.0835452034891
 20
52.66772408831736
 30
0.0
 11
422.0835452034891
 21
62.66772408831741
 31
0.0
1001
ACAD
1010
0.0
1020
0.0
1030
0.0
  0
LINE
  5
6E30
330
18
100
AcDbEntity
  8
1HATCH
  6
CONTINUOUS
100
AcDbLine
 10
412.0835452034891
 20
50.42266005805006
 30
0.0
 11
422.0835452034891
 21
60.42266005805013
 31
0.0
1001
ACAD
1010
0.0
1020
0.0
1030
0.0
  0
LINE
  5
6E31
330
18
100
AcDbEntity
  8
1HATCH
  6
CONTINUOUS
100
AcDbLine
 10
412.0835452034891
 20
48.17759602778278
 30
0.0
 11
422.0835452034891
 21
58.17759602778283
 31
0.0
1001
ACAD
1010
0.0
1020
0.0
1030
0.0
  0
LINE
  5
6E32
330
18
100
AcDbEntity
  8
1HATCH
  6
CONTINUOUS
100
AcDbLine
 10
412.1731465816753
 20
46.02213337570173
 30
0.0
 11
422.0835452034891
 21
55.93253199751554
 31
0.0
1001
ACAD
1010
0.0
1020
0.0
1030
0.0
  0
LINE
  5
6E33
330
18
100
AcDbEntity
  8
1HATCH
  6
CONTINUOUS
100
AcDbLine
 10
414.4182106119426
 20
46.02213337570173
 30
0.0
 11
422.0835452034891
 21
53.68746796724825
 31
0.0
1001
ACAD
1010
0.0
1020
0.0
1030
0.0
  0
LINE
  5
6E34
330
18
100
AcDbEntity
  8
1HATCH
  6
CONTINUOUS
100
AcDbLine
 10
416.6632746422099
 20
46.02213337570173
 30
0.0
 11
422.0835452034891
 21
51.44240393698097
 31
0.0
1001
ACAD
1010
0.0
1020
0.0
1030
0.0
  0
LINE
  5
6E35
330
18
100
AcDbEntity
  8
1HATCH
  6
CONTINUOUS
100
AcDbLine
 10
418.9083386724772
 20
46.02213337570172
 30
0.0
 11
422.0835452034891
 21
49.19733990671367
 31
0.0
1001
ACAD
1010
0.0
1020
0.0
1030
0.0
  0
LINE
  5
6E36
330
18
100
AcDbEntity
  8
1HATCH
  6
CONTINUOUS
100
AcDbLine
 10
421.1534027027444
 20
46.02213337570171
 30
0.0
 11
422.0835452034891
 21
46.95227587644639
 31
0.0
1001
ACAD
1010
0.0
1020
0.0
1030
0.0
  0
LINE
  5
6E37
330
18
100
AcDbEntity
  8
1HATCH
100
AcDbLine
 10
124.6108828368285
 20
83.38669305516714
 30
0.0
 11
124.6108828368285
 21
124.9687278454038
 31
0.0
  0
LINE
  5
6E38
330
18
100
AcDbEntity
  8
1HATCH
100
AcDbLine
 10
260.1108828368285
 20
26.27996120265516
 30
0.0
 11
260.1108828368285
 21
124.9687278454038
 31
0.0
  0
LINE
  5
6E39
330
18
100
AcDbEntity
  8
1HATCH
100
AcDbLine
 10
126.6108828368285
 20
123.9687278454038
 30
0.0
 11
258.1108828368285
 21
123.9687278454038
 31
0.0
  0
LINE
  5
6E3D
330
18
100
AcDbEntity
  8
1HATCH
100
AcDbLine
 10
314.0258446836035
 20
9.041618884432125
 30
0.0
 11
314.0258446836035
 21
118.6262710714768
 31
0.0
1001
ACAD
1000
DSTYLE
1002
{
1070
    45
1040
0.5
1002
}
  0
LINE
  5
6E3E
330
18
100
AcDbEntity
  8
1HATCH
100
AcDbLine
 10
382.5835441515687
 20
88.7645443740476
 30
0.0
 11
382.5835441515687
 21
118.6262710714768
 31
0.0
1001
ACAD
1000
DSTYLE
1002
{
1070
    45
1040
0.5
1002
}
  0
LINE
  5
6E3F
330
18
100
AcDbEntity
  8
1HATCH
100
AcDbLine
 10
316.0258446836035
 20
117.6262710714768
 30
0.0
 11
380.5835441515687
 21
117.6262710714768
 31
0.0
1001
ACAD
1000
DSTYLE
1002
{
1070
    45
1040
0.5
1002
}
  0
LINE
  5
6E43
330
18
100
AcDbEntity
  8
1DIM
100
AcDbLine
 10
372.0835452034892
 20
81.07430667391235
 30
0.0
 11
372.0835452034892
 21
49.7430672745021
 31
0.0
  0
LINE
  5
6E44
330
18
100
AcDbEntity
  8
1DIM
100
AcDbLine
 10
412.0835452034891
 20
88.76454279115876
 30
0.0
 11
412.0835452034891
 21
49.7430672745021
 31
0.0
  0
LINE
  5
6E45
330
18
100
AcDbEntity
  8
1DIM
100
AcDbLine
 10
374.0835452034892
 20
50.7430672745021
 30
0.0
 11
410.0835452034891
 21
50.7430672745021
 31
0.0
  0
LINE
  5
6E49
330
18
100
AcDbEntity
  8
1DIM
100
AcDbLine
 10
132.6108828368285
 20
81.81188588208724
 30
0.0
 11
132.6108828368285
 21
118.6262710714768
 31
0.0
  0
LINE
  5
6E4A
330
18
100
AcDbEntity
  8
1DIM
100
AcDbLine
 10
254.6108828368285
 20
81.81188588208656
 30
0.0
 11
254.6108828368285
 21
118.6262710714768
 31
0.0
  0
LINE
  5
6E4B
330
18
100
AcDbEntity
  8
1DIM
100
AcDbLine
 10
134.6108828368285
 20
117.6262710714768
 30
0.0
 11
252.6108828368285
 21
117.6262710714768
 31
0.0
  0
LINE
  5
6E4F
330
18
100
AcDbEntity
  8
1DIM
100
AcDbLine
 10
358.5835441515687
 20
88.76454279115876
 30
0.0
 11
358.5835441515687
 21
112.6184023913927
 31
0.0
  0
LINE
  5
6E50
330
18
100
AcDbEntity
  8
1DIM
100
AcDbLine
 10
382.5835441515687
 20
88.76454279115876
 30
0.0
 11
382.5835441515687
 21
112.6184023913927
 31
0.0
  0
LINE
  5
6E51
330
18
100
AcDbEntity
  8
1DIM
100
AcDbLine
 10
360.5835441515687
 20
111.6184023913927
 30
0.0
 11
380.5835441515687
 21
111.6184023913927
 31
0.0
  0
LINE
  5
6E55
330
18
100
AcDbEntity
  8
1DIM
100
AcDbLine
 10
382.5835441515687
 20
88.76454279115876
 30
0.0
 11
397.7504897460831
 21
88.76454279115876
 31
0.0
1001
ACAD
1000
DSTYLE
1002
{
1070
    45
1040
0.5
1070
   271
1070
     0
1002
}
  0
LINE
  5
6E56
330
18
100
AcDbEntity
  8
1DIM
100
AcDbLine
 10
364.4835441515686
 20
56.13197720311788
 30
0.0
 11
397.7504897460831
 21
56.13197720311787
 31
0.0
1001
ACAD
1000
DSTYLE
1002
{
1070
    45
1040
0.5
1070
   271
1070
     0
1002
}
  0
LINE
  5
6E57
330
18
100
AcDbEntity
  8
1DIM
100
AcDbLine
 10
396.7504897460831
 20
86.76454279115876
 30
0.0
 11
396.7504897460831
 21
58.13197720311787
 31
0.0
1001
ACAD
1000
DSTYLE
1002
{
1070
    45
1040
0.5
1070
   271
1070
     0
1002
}
  0
LINE
  5
6E5C
330
18
100
AcDbEntity
  8
1DIM
100
AcDbLine
 10
376.0724141289933
 20
96.6756990755804
 30
0.0
 11
428.9407184358768
 21
102.2887142197115
 31
0.0
  0
LINE
  5
6E5D
330
18
100
AcDbEntity
  8
1DIM
100
AcDbLine
 10
428.9407184358768
 20
102.2887142197115
 30
0.0
 11
476.5407184358768
 21
102.2887142197115
 31
0.0
  0
TEXT
  5
6E5E
330
18
100
AcDbEntity
  8
1DIM
  6
CONTINUOUS
100
AcDbText
 10
428.7073851025435
 20
126.4387142197115
 30
0.0
 40
3.5
  1
φ
100
AcDbText
  0
TEXT
  5
6E5F
330
18
100
AcDbEntity
  8
1DIM
  6
CONTINUOUS
100
AcDbText
 10
432.9073851025435
 20
126.4387142197115
 30
0.0
 40
3.5
  1
4×18十字穴付
100
AcDbText
  0
TEXT
  5
6E60
330
18
100
AcDbEntity
  8
1DIM
  6
CONTINUOUS
100
AcDbText
 10
429.5240517692101
 20
120.6053808863781
 30
0.0
 40
3.5
  1
ナベタッピンネジ（１種）
100
AcDbText
  0
TEXT
  5
6E61
330
18
100
AcDbEntity
  8
1DIM
  6
CONTINUOUS
100
AcDbText
 10
429.4073851025435
 20
114.7720475530448
 30
0.0
 40
3.5
  1
材質：SUS
100
AcDbText
  0
TEXT
  5
6E62
330
18
100
AcDbEntity
  8
1DIM
  6
CONTINUOUS
100
AcDbText
 10
429.6407184358768
 20
108.8220475530448
 30
0.0
 40
3.5
  1
M4用ばね座金
100
AcDbText
  0
TEXT
  5
6E63
330
18
100
AcDbEntity
  8
1DIM
  6
CONTINUOUS
100
AcDbText
 10
429.4073851025435
 20
102.9887142197115
 30
0.0
 40
3.5
  1
材質：SUS
100
AcDbText
  0
LINE
  5
6E64
330
18
100
AcDbEntity
  8
1DIM
100
AcDbLine
 10
166.6108828368285
 20
104.3103302175154
 30
0.0
 11
166.6108828368285
 21
112.6184023913927
 31
0.0
  0
LINE
  5
6E65
330
18
100
AcDbEntity
  8
1DIM
100
AcDbLine
 10
184.6108828368289
 20
104.3103302175154
 30
0.0
 11
184.6108828368289
 21
112.6184023913927
 31
0.0
  0
LINE
  5
6E66
330
18
100
AcDbEntity
  8
1DIM
100
AcDbLine
 10
168.6108828368285
 20
111.6184023913927
 30
0.0
 11
182.6108828368289
 21
111.6184023913927
 31
0.0
  0
LINE
  5
6E6A
330
18
100
AcDbEntity
  8
1DIM
100
AcDbLine
 10
184.6108828368289
 20
104.3103302175154
 30
0.0
 11
184.6108828368289
 21
112.6184023913927
 31
0.0
  0
LINE
  5
6E6B
330
18
100
AcDbEntity
  8
1DIM
100
AcDbLine
 10
202.6108828368289
 20
104.3103302175154
 30
0.0
 11
202.6108828368289
 21
112.6184023913927
 31
0.0
  0
LINE
  5
6E6C
330
18
100
AcDbEntity
  8
1DIM
100
AcDbLine
 10
186.6108828368289
 20
111.6184023913927
 30
0.0
 11
200.6108828368289
 21
111.6184023913927
 31
0.0
  0
LINE
  5
6E70
330
18
100
AcDbEntity
  8
1DIM
100
AcDbLine
 10
202.6108828368289
 20
104.3103302175154
 30
0.0
 11
202.6108828368289
 21
112.6184023913927
 31
0.0
  0
LINE
  5
6E71
330
18
100
AcDbEntity
  8
1DIM
100
AcDbLine
 10
220.6108828368285
 20
104.3103302175154
 30
0.0
 11
220.6108828368285
 21
112.6184023913927
 31
0.0
  0
LINE
  5
6E72
330
18
100
AcDbEntity
  8
1DIM
100
AcDbLine
 10
204.6108828368289
 20
111.6184023913927
 30
0.0
 11
218.6108828368285
 21
111.6184023913927
 31
0.0
  0
LINE
  5
6E76
330
18
100
AcDbEntity
  8
1DIM
100
AcDbLine
 10
132.6108828368285
 20
81.81188588208724
 30
0.0
 11
132.6108828368285
 21
112.6184023913927
 31
0.0
  0
LINE
  5
6E77
330
18
100
AcDbEntity
  8
1DIM
100
AcDbLine
 10
166.6108828368285
 20
104.3103302175154
 30
0.0
 11
166.6108828368285
 21
112.6184023913927
 31
0.0
  0
LINE
  5
6E78
330
18
100
AcDbEntity
  8
1DIM
100
AcDbLine
 10
134.6108828368285
 20
111.6184023913927
 30
0.0
 11
164.6108828368285
 21
111.6184023913927
 31
0.0
  0
LINE
  5
6E7C
330
18
100
AcDbEntity
  8
1DIM
100
AcDbLine
 10
124.6108828368285
 20
83.38669305516714
 30
0.0
 11
124.6108828368285
 21
118.6262710714768
 31
0.0
  0
LINE
  5
6E7D
330
18
100
AcDbEntity
  8
1DIM
100
AcDbLine
 10
132.6108828368285
 20
81.81188588208724
 30
0.0
 11
132.6108828368285
 21
118.6262710714768
 31
0.0
  0
LINE
  5
6E7E
330
18
100
AcDbEntity
  8
1DIM
100
AcDbLine
 10
126.6108828368285
 20
117.6262710714768
 30
0.0
 11
130.6108828368285
 21
117.6262710714768
 31
0.0
  0
LINE
  5
6E82
330
18
100
AcDbEntity
  8
1DIM
100
AcDbLine
 10
382.5835441515687
 20
88.7645443740476
 30
0.0
 11
382.5835441515687
 21
124.4467278506315
 31
0.0
1001
ACAD
1000
DSTYLE
1002
{
1070
    40
1040
1.0
1070
    45
1040
0.5
1070
   271
1070
     0
1002
}
  0
LINE
  5
6E83
330
18
100
AcDbEntity
  8
1DIM
100
AcDbLine
 10
283.918626810873
 20
39.54925745921071
 30
0.0
 11
283.918626810873
 21
124.4467278506315
 31
0.0
1001
ACAD
1000
DSTYLE
1002
{
1070
    40
1040
1.0
1070
    45
1040
0.5
1070
   271
1070
     0
1002
}
  0
LINE
  5
6E84
330
18
100
AcDbEntity
  8
1DIM
100
AcDbLine
 10
380.5835441515687
 20
123.4467278506315
 30
0.0
 11
285.918626810873
 21
123.4467278506315
 31
0.0
1001
ACAD
1000
DSTYLE
1002
{
1070
    40
1040
1.0
1070
    45
1040
0.5
1070
   271
1070
     0
1002
}
  0
LINE
  5
6E88
330
18
100
AcDbEntity
  8
1DIM
100
AcDbLine
 10
259.1108828368288
 20
151.9685248102495
 30
0.0
 11
276.9992730951001
 21
151.9685248102495
 31
0.0
1001
ACAD
1000
DSTYLE
1002
{
1070
    40
1040
1.0
1070
    45
1040
0.5
1002
}
  0
LINE
  5
6E89
330
18
100
AcDbEntity
  8
1DIM
100
AcDbLine
 10
237.1108828368289
 20
220.5262242782147
 30
0.0
 11
276.9992730951001
 21
220.5262242782147
 31
0.0
1001
ACAD
1000
DSTYLE
1002
{
1070
    40
1040
1.0
1070
    45
1040
0.5
1002
}
  0
LINE
  5
6E8A
330
18
100
AcDbEntity
  8
1DIM
100
AcDbLine
 10
275.9992730951001
 20
153.9685248102495
 30
0.0
 11
275.9992730951001
 21
218.5262242782147
 31
0.0
1001
ACAD
1000
DSTYLE
1002
{
1070
    40
1040
1.0
1070
    45
1040
0.5
1002
}
  0
LINE
  5
6E8E
330
18
100
AcDbEntity
  8
1DIM
100
AcDbLine
 10
238.6108828368285
 20
88.76454283487016
 30
0.0
 11
269.3868004757815
 21
88.76454283487016
 31
0.0
1001
ACAD
1000
DSTYLE
1002
{
1070
    45
1040
0.5
1070
   271
1070
     1
1002
}
  0
LINE
  5
6E8F
330
18
100
AcDbEntity
  8
1DIM
100
AcDbLine
 10
259.1108828368285
 20
1.897872495841156
 30
0.0
 11
269.3868004757815
 21
1.897872495841153
 31
0.0
1001
ACAD
1000
DSTYLE
1002
{
1070
    45
1040
0.5
1070
   271
1070
     1
1002
}
  0
LINE
  5
6E90
330
18
100
AcDbEntity
  8
1DIM
100
AcDbLine
 10
268.3868004757815
 20
86.76454283487016
 30
0.0
 11
268.3868004757815
 21
3.897872495841153
 31
0.0
1001
ACAD
1000
DSTYLE
1002
{
1070
    45
1040
0.5
1070
   271
1070
     1
1002
}
  0
LINE
  5
6E94
330
18
100
AcDbEntity
  8
0
  6
BYBLOCK
100
AcDbLine
 10
384.5507774966547
 20
83.98171818665818
 30
0.0
 11
382.7920556645093
 21
85.07445996348463
 31
0.0
  0
LINE
  5
6E95
330
18
100
AcDbEntity
  8
0
  6
BYBLOCK
100
AcDbLine
 10
382.7920556645093
 20
85.07445996348463
 30
0.0
 11
384.8615243374469
 21
85.00747873166085
 31
0.0
  0
LINE
  5
6E96
330
18
100
AcDbEntity
  8
0
  6
BYBLOCK
100
AcDbLine
 10
382.7920556645093
 20
85.07445996348463
 30
0.0
 11
384.7061509170508
 21
84.49459845915952
 31
0.0
  0
LINE
  5
6E97
330
18
100
AcDbEntity
  8
0
  6
BYBLOCK
100
AcDbLine
 10
247.3736696885796
 20
84.2752656736595
 30
0.0
 11
246.7702013040475
 21
82.29460593949088
 31
0.0
  0
LINE
  5
6E98
330
18
100
AcDbEntity
  8
0
  6
BYBLOCK
100
AcDbLine
 10
246.7702013040475
 20
82.29460593949088
 30
0.0
 11
246.3024903974991
 21
84.31164177992164
 31
0.0
  0
LINE
  5
6E99
330
18
100
AcDbEntity
  8
0
  6
BYBLOCK
100
AcDbLine
 10
246.7702013040475
 20
82.29460593949088
 30
0.0
 11
246.8380800430393
 21
84.29345372679057
 31
0.0
  0
LINE
  5
6E9A
330
18
100
AcDbEntity
  8
0
  6
BYBLOCK
100
AcDbLine
 10
213.2102998540326
 20
19.85236315264306
 30
0.0
 11
213.7572521464236
 21
17.85535782878065
 31
0.0
  0
LINE
  5
6E9B
330
18
100
AcDbEntity
  8
0
  6
BYBLOCK
100
AcDbLine
 10
213.7572521464236
 20
17.85535782878065
 30
0.0
 11
212.2850749112288
 21
19.31133903122134
 31
0.0
  0
LINE
  5
6E9C
330
18
100
AcDbEntity
  8
0
  6
BYBLOCK
100
AcDbLine
 10
213.7572521464236
 20
17.85535782878065
 30
0.0
 11
212.7476873826307
 21
19.5818510919322
 31
0.0
  0
LINE
  5
6E9D
330
18
100
AcDbEntity
  8
0
  6
BYBLOCK
100
AcDbLine
 10
310.9910221111643
 20
108.8227062881273
 30
0.0
 11
310.7648578492585
 21
106.7645428348702
 31
0.0
  0
LINE
  5
6E9E
330
18
100
AcDbEntity
  8
0
  6
BYBLOCK
100
AcDbLine
 10
310.7648578492585
 20
106.7645428348702
 30
0.0
 11
309.9316401274676
 21
108.6600468052644
 31
0.0
  0
LINE
  5
6E9F
330
18
100
AcDbEntity
  8
0
  6
BYBLOCK
100
AcDbLine
 10
310.7648578492585
 20
106.7645428348702
 30
0.0
 11
310.461331119316
 21
108.7413765466958
 31
0.0
  0
LINE
  5
6EA0
330
18
100
AcDbEntity
  8
0
  6
BYBLOCK
100
AcDbLine
 10
126.6108828368285
 20
123.4328294654038
 30
0.0
 11
124.6108828368285
 21
123.9687278454038
 31
0.0
  0
LINE
  5
6EA1
330
18
100
AcDbEntity
  8
0
  6
BYBLOCK
100
AcDbLine
 10
124.6108828368285
 20
123.9687278454038
 30
0.0
 11
126.6108828368285
 21
124.5046262254038
 31
0.0
  0
LINE
  5
6EA2
330
18
100
AcDbEntity
  8
0
  6
BYBLOCK
100
AcDbLine
 10
124.6108828368285
 20
123.9687278454038
 30
0.0
 11
126.6108828368285
 21
123.9687278454038
 31
0.0
  0
LINE
  5
6EA3
330
18
100
AcDbEntity
  8
0
  6
BYBLOCK
100
AcDbLine
 10
258.1108828368285
 20
124.5046262254038
 30
0.0
 11
260.1108828368285
 21
123.9687278454038
 31
0.0
  0
LINE
  5
6EA4
330
18
100
AcDbEntity
  8
0
  6
BYBLOCK
100
AcDbLine
 10
260.1108828368285
 20
123.9687278454038
 30
0.0
 11
258.1108828368285
 21
123.4328294654038
 31
0.0
  0
LINE
  5
6EA5
330
18
100
AcDbEntity
  8
0
  6
BYBLOCK
100
AcDbLine
 10
260.1108828368285
 20
123.9687278454038
 30
0.0
 11
258.1108828368285
 21
123.9687278454038
 31
0.0
  0
TEXT
  5
6EA6
330
18
100
AcDbEntity
  8
1HATCH
  6
CONTINUOUS
100
AcDbText
 10
185.9320633923841
 20
124.6687278454038
 30
0.0
 40
3.5
  1
135.5
100
AcDbText
  0
LINE
  5
6EA7
330
18
100
AcDbEntity
  8
0
  6
BYBLOCK
100
AcDbLine
 10
316.0258446836035
 20
117.0903726914768
 30
0.0
 11
314.0258446836035
 21
117.6262710714768
 31
0.0
  0
LINE
  5
6EA8
330
18
100
AcDbEntity
  8
0
  6
BYBLOCK
100
AcDbLine
 10
314.0258446836035
 20
117.6262710714768
 30
0.0
 11
316.0258446836035
 21
118.1621694514768
 31
0.0
  0
LINE
  5
6EA9
330
18
100
AcDbEntity
  8
0
  6
BYBLOCK
100
AcDbLine
 10
314.0258446836035
 20
117.6262710714768
 30
0.0
 11
316.0258446836035
 21
117.6262710714768
 31
0.0
  0
LINE
  5
6EAA
330
18
100
AcDbEntity
  8
0
  6
BYBLOCK
100
AcDbLine
 10
380.5835441515687
 20
118.1621694514768
 30
0.0
 11
382.5835441515687
 21
117.6262710714768
 31
0.0
  0
LINE
  5
6EAB
330
18
100
AcDbEntity
  8
0
  6
BYBLOCK
100
AcDbLine
 10
382.5835441515687
 20
117.6262710714768
 30
0.0
 11
380.5835441515687
 21
117.0903726914768
 31
0.0
  0
LINE
  5
6EAC
330
18
100
AcDbEntity
  8
0
  6
BYBLOCK
100
AcDbLine
 10
382.5835441515687
 20
117.6262710714768
 30
0.0
 11
380.5835441515687
 21
117.6262710714768
 31
0.0
  0
TEXT
  5
6EAD
330
18
100
AcDbEntity
  8
1HATCH
  6
CONTINUOUS
100
AcDbText
 10
343.0425416398083
 20
118.3262710714768
 30
0.0
 40
3.5
  1
68.5
100
AcDbText
1001
ACAD
1000
DSTYLE
1002
{
1070
    45
1040
0.5
1002
}
  0
LINE
  5
6EAE
330
18
100
AcDbEntity
  8
0
  6
BYBLOCK
100
AcDbLine
 10
374.0835452034892
 20
50.2071688945021
 30
0.0
 11
372.0835452034892
 21
50.7430672745021
 31
0.0
  0
LINE
  5
6EAF
330
18
100
AcDbEntity
  8
0
  6
BYBLOCK
100
AcDbLine
 10
372.0835452034892
 20
50.7430672745021
 30
0.0
 11
374.0835452034892
 21
51.27896565450209
 31
0.0
  0
LINE
  5
6EB0
330
18
100
AcDbEntity
  8
0
  6
BYBLOCK
100
AcDbLine
 10
372.0835452034892
 20
50.7430672745021
 30
0.0
 11
374.0835452034892
 21
50.7430672745021
 31
0.0
  0
LINE
  5
6EB1
330
18
100
AcDbEntity
  8
0
  6
BYBLOCK
100
AcDbLine
 10
410.0835452034891
 20
51.27896565450209
 30
0.0
 11
412.0835452034891
 21
50.7430672745021
 31
0.0
  0
LINE
  5
6EB2
330
18
100
AcDbEntity
  8
0
  6
BYBLOCK
100
AcDbLine
 10
412.0835452034891
 20
50.7430672745021
 30
0.0
 11
410.0835452034891
 21
50.2071688945021
 31
0.0
  0
LINE
  5
6EB3
330
18
100
AcDbEntity
  8
0
  6
BYBLOCK
100
AcDbLine
 10
412.0835452034891
 20
50.7430672745021
 30
0.0
 11
410.0835452034891
 21
50.7430672745021
 31
0.0
  0
TEXT
  5
6EB4
330
18
100
AcDbEntity
  8
1DIM
  6
CONTINUOUS
100
AcDbText
 10
377.6752118701558
 20
51.4430672745021
 30
0.0
 40
3.5
  1
壁から40 以上
100
AcDbText
  0
LINE
  5
6EB5
330
18
100
AcDbEntity
  8
0
  6
BYBLOCK
100
AcDbLine
 10
134.6108828368285
 20
117.0903726914768
 30
0.0
 11
132.6108828368285
 21
117.6262710714768
 31
0.0
  0
LINE
  5
6EB6
330
18
100
AcDbEntity
  8
0
  6
BYBLOCK
100
AcDbLine
 10
132.6108828368285
 20
117.6262710714768
 30
0.0
 11
134.6108828368285
 21
118.1621694514768
 31
0.0
  0
LINE
  5
6EB7
330
18
100
AcDbEntity
  8
0
  6
BYBLOCK
100
AcDbLine
 10
132.6108828368285
 20
117.6262710714768
 30
0.0
 11
134.6108828368285
 21
117.6262710714768
 31
0.0
  0
LINE
  5
6EB8
330
18
100
AcDbEntity
  8
0
  6
BYBLOCK
100
AcDbLine
 10
252.6108828368285
 20
118.1621694514768
 30
0.0
 11
254.6108828368285
 21
117.6262710714768
 31
0.0
  0
LINE
  5
6EB9
330
18
100
AcDbEntity
  8
0
  6
BYBLOCK
100
AcDbLine
 10
254.6108828368285
 20
117.6262710714768
 30
0.0
 11
252.6108828368285
 21
117.0903726914768
 31
0.0
  0
LINE
  5
6EBA
330
18
100
AcDbEntity
  8
0
  6
BYBLOCK
100
AcDbLine
 10
254.6108828368285
 20
117.6262710714768
 30
0.0
 11
252.6108828368285
 21
117.6262710714768
 31
0.0
  0
TEXT
  5
6EBB
330
18
100
AcDbEntity
  8
1DIM
  6
CONTINUOUS
100
AcDbText
 10
189.5275495034952
 20
118.3262710714768
 30
0.0
 40
3.5
  1
122
100
AcDbText
  0
LINE
  5
6EBC
330
18
100
AcDbEntity
  8
0
  6
BYBLOCK
100
AcDbLine
 10
360.5835441515687
 20
111.0825040113927
 30
0.0
 11
358.5835441515687
 21
111.6184023913927
 31
0.0
  0
LINE
  5
6EBD
330
18
100
AcDbEntity
  8
0
  6
BYBLOCK
100
AcDbLine
 10
358.5835441515687
 20
111.6184023913927
 30
0.0
 11
360.5835441515687
 21
112.1543007713927
 31
0.0
  0
LINE
  5
6EBE
330
18
100
AcDbEntity
  8
0
  6
BYBLOCK
100
AcDbLine
 10
358.5835441515687
 20
111.6184023913927
 30
0.0
 11
360.5835441515687
 21
111.6184023913927
 31
0.0
  0
LINE
  5
6EBF
330
18
100
AcDbEntity
  8
0
  6
BYBLOCK
100
AcDbLine
 10
380.5835441515687
 20
112.1543007713927
 30
0.0
 11
382.5835441515687
 21
111.6184023913927
 31
0.0
  0
LINE
  5
6EC0
330
18
100
AcDbEntity
  8
0
  6
BYBLOCK
100
AcDbLine
 10
382.5835441515687
 20
111.6184023913927
 30
0.0
 11
380.5835441515687
 21
111.0825040113927
 31
0.0
  0
LINE
  5
6EC1
330
18
100
AcDbEntity
  8
0
  6
BYBLOCK
100
AcDbLine
 10
382.5835441515687
 20
111.6184023913927
 30
0.0
 11
380.5835441515687
 21
111.6184023913927
 31
0.0
  0
TEXT
  5
6EC2
330
18
100
AcDbEntity
  8
1DIM
  6
CONTINUOUS
100
AcDbText
 10
367.666877484902
 20
112.3184023913927
 30
0.0
 40
3.5
  1
24
100
AcDbText
  0
LINE
  5
6EC3
330
18
100
AcDbEntity
  8
0
  6
BYBLOCK
100
AcDbLine
 10
396.2145913660831
 20
86.76454279115876
 30
0.0
 11
396.7504897460831
 21
88.76454279115876
 31
0.0
  0
LINE
  5
6EC4
330
18
100
AcDbEntity
  8
0
  6
BYBLOCK
100
AcDbLine
 10
396.7504897460831
 20
88.76454279115876
 30
0.0
 11
397.2863881260831
 21
86.76454279115876
 31
0.0
  0
LINE
  5
6EC5
330
18
100
AcDbEntity
  8
0
  6
BYBLOCK
100
AcDbLine
 10
396.7504897460831
 20
88.76454279115876
 30
0.0
 11
396.7504897460831
 21
86.76454279115876
 31
0.0
  0
LINE
  5
6EC6
330
18
100
AcDbEntity
  8
0
  6
BYBLOCK
100
AcDbLine
 10
397.2863881260831
 20
58.13197720311787
 30
0.0
 11
396.7504897460831
 21
56.13197720311787
 31
0.0
  0
LINE
  5
6EC7
330
18
100
AcDbEntity
  8
0
  6
BYBLOCK
100
AcDbLine
 10
396.7504897460831
 20
56.13197720311787
 30
0.0
 11
396.2145913660831
 21
58.13197720311787
 31
0.0
  0
LINE
  5
6EC8
330
18
100
AcDbEntity
  8
0
  6
BYBLOCK
100
AcDbLine
 10
396.7504897460831
 20
56.13197720311787
 30
0.0
 11
396.7504897460831
 21
58.13197720311787
 31
0.0
  0
TEXT
  5
6EC9
330
18
100
AcDbEntity
  8
1DIM
  6
CONTINUOUS
100
AcDbText
 10
396.0504897460831
 20
69.53159333047165
 30
0.0
 40
3.5
  1
33
 50
90.0
100
AcDbText
1001
ACAD
1000
DSTYLE
1002
{
1070
    45
1040
0.5
1070
   271
1070
     0
1002
}
  0
LINE
  5
6ECA
330
18
100
AcDbEntity
  8
0
  6
BYBLOCK
100
AcDbLine
 10
376.1289923492305
 20
96.14279572723154
 30
0.0
 11
374.0835917393871
 21
96.46454628113767
 31
0.0
  0
LINE
  5
6ECB
330
18
100
AcDbEntity
  8
0
  6
BYBLOCK
100
AcDbLine
 10
374.0835917393871
 20
96.46454628113767
 30
0.0
 11
376.0158359087562
 21
97.20860242392925
 31
0.0
  0
LINE
  5
6ECC
330
18
100
AcDbEntity
  8
0
  6
BYBLOCK
100
AcDbLine
 10
374.0835917393871
 20
96.46454628113767
 30
0.0
 11
376.0724141289933
 21
96.6756990755804
 31
0.0
  0
LINE
  5
6ECD
330
18
100
AcDbEntity
  8
0
  6
BYBLOCK
100
AcDbLine
 10
168.6108828368285
 20
111.0825040113927
 30
0.0
 11
166.6108828368285
 21
111.6184023913927
 31
0.0
  0
LINE
  5
6ECE
330
18
100
AcDbEntity
  8
0
  6
BYBLOCK
100
AcDbLine
 10
166.6108828368285
 20
111.6184023913927
 30
0.0
 11
168.6108828368285
 21
112.1543007713927
 31
0.0
  0
LINE
  5
6ECF
330
18
100
AcDbEntity
  8
0
  6
BYBLOCK
100
AcDbLine
 10
166.6108828368285
 20
111.6184023913927
 30
0.0
 11
168.6108828368285
 21
111.6184023913927
 31
0.0
  0
LINE
  5
6ED0
330
18
100
AcDbEntity
  8
0
  6
BYBLOCK
100
AcDbLine
 10
182.6108828368289
 20
112.1543007713927
 30
0.0
 11
184.6108828368289
 21
111.6184023913927
 31
0.0
  0
LINE
  5
6ED1
330
18
100
AcDbEntity
  8
0
  6
BYBLOCK
100
AcDbLine
 10
184.6108828368289
 20
111.6184023913927
 30
0.0
 11
182.6108828368289
 21
111.0825040113927
 31
0.0
  0
LINE
  5
6ED2
330
18
100
AcDbEntity
  8
0
  6
BYBLOCK
100
AcDbLine
 10
184.6108828368289
 20
111.6184023913927
 30
0.0
 11
182.6108828368289
 21
111.6184023913927
 31
0.0
  0
TEXT
  5
6ED3
330
18
100
AcDbEntity
  8
1DIM
  6
CONTINUOUS
100
AcDbText
 10
173.2775495034954
 20
112.3184023913927
 30
0.0
 40
3.5
  1
18
100
AcDbText
  0
LINE
  5
6ED4
330
18
100
AcDbEntity
  8
0
  6
BYBLOCK
100
AcDbLine
 10
186.6108828368289
 20
111.0825040113927
 30
0.0
 11
184.6108828368289
 21
111.6184023913927
 31
0.0
  0
LINE
  5
6ED5
330
18
100
AcDbEntity
  8
0
  6
BYBLOCK
100
AcDbLine
 10
184.6108828368289
 20
111.6184023913927
 30
0.0
 11
186.6108828368289
 21
112.1543007713927
 31
0.0
  0
LINE
  5
6ED6
330
18
100
AcDbEntity
  8
0
  6
BYBLOCK
100
AcDbLine
 10
184.6108828368289
 20
111.6184023913927
 30
0.0
 11
186.6108828368289
 21
111.6184023913927
 31
0.0
  0
LINE
  5
6ED7
330
18
100
AcDbEntity
  8
0
  6
BYBLOCK
100
AcDbLine
 10
200.6108828368289
 20
112.1543007713927
 30
0.0
 11
202.6108828368289
 21
111.6184023913927
 31
0.0
  0
LINE
  5
6ED8
330
18
100
AcDbEntity
  8
0
  6
BYBLOCK
100
AcDbLine
 10
202.6108828368289
 20
111.6184023913927
 30
0.0
 11
200.6108828368289
 21
111.0825040113927
 31
0.0
  0
LINE
  5
6ED9
330
18
100
AcDbEntity
  8
0
  6
BYBLOCK
100
AcDbLine
 10
202.6108828368289
 20
111.6184023913927
 30
0.0
 11
200.6108828368289
 21
111.6184023913927
 31
0.0
  0
TEXT
  5
6EDA
330
18
100
AcDbEntity
  8
1DIM
  6
CONTINUOUS
100
AcDbText
 10
191.2775495034955
 20
112.3184023913927
 30
0.0
 40
3.5
  1
18
100
AcDbText
  0
LINE
  5
6EDB
330
18
100
AcDbEntity
  8
0
  6
BYBLOCK
100
AcDbLine
 10
204.6108828368289
 20
111.0825040113927
 30
0.0
 11
202.6108828368289
 21
111.6184023913927
 31
0.0
  0
LINE
  5
6EDC
330
18
100
AcDbEntity
  8
0
  6
BYBLOCK
100
AcDbLine
 10
202.6108828368289
 20
111.6184023913927
 30
0.0
 11
204.6108828368289
 21
112.1543007713927
 31
0.0
  0
LINE
  5
6EDD
330
18
100
AcDbEntity
  8
0
  6
BYBLOCK
100
AcDbLine
 10
202.6108828368289
 20
111.6184023913927
 30
0.0
 11
204.6108828368289
 21
111.6184023913927
 31
0.0
  0
LINE
  5
6EDE
330
18
100
AcDbEntity
  8
0
  6
BYBLOCK
100
AcDbLine
 10
218.6108828368285
 20
112.1543007713927
 30
0.0
 11
220.6108828368285
 21
111.6184023913927
 31
0.0
  0
LINE
  5
6EDF
330
18
100
AcDbEntity
  8
0
  6
BYBLOCK
100
AcDbLine
 10
220.6108828368285
 20
111.6184023913927
 30
0.0
 11
218.6108828368285
 21
111.0825040113927
 31
0.0
  0
LINE
  5
6EE0
330
18
100
AcDbEntity
  8
0
  6
BYBLOCK
100
AcDbLine
 10
220.6108828368285
 20
111.6184023913927
 30
0.0
 11
218.6108828368285
 21
111.6184023913927
 31
0.0
  0
TEXT
  5
6EE1
330
18
100
AcDbEntity
  8
1DIM
  6
CONTINUOUS
100
AcDbText
 10
209.2775495034954
 20
112.3184023913927
 30
0.0
 40
3.5
  1
18
100
AcDbText
  0
LINE
  5
6EE2
330
18
100
AcDbEntity
  8
0
  6
BYBLOCK
100
AcDbLine
 10
134.6108828368285
 20
111.0825040113927
 30
0.0
 11
132.6108828368285
 21
111.6184023913927
 31
0.0
  0
LINE
  5
6EE3
330
18
100
AcDbEntity
  8
0
  6
BYBLOCK
100
AcDbLine
 10
132.6108828368285
 20
111.6184023913927
 30
0.0
 11
134.6108828368285
 21
112.1543007713927
 31
0.0
  0
LINE
  5
6EE4
330
18
100
AcDbEntity
  8
0
  6
BYBLOCK
100
AcDbLine
 10
132.6108828368285
 20
111.6184023913927
 30
0.0
 11
134.6108828368285
 21
111.6184023913927
 31
0.0
  0
LINE
  5
6EE5
330
18
100
AcDbEntity
  8
0
  6
BYBLOCK
100
AcDbLine
 10
164.6108828368285
 20
112.1543007713927
 30
0.0
 11
166.6108828368285
 21
111.6184023913927
 31
0.0
  0
LINE
  5
6EE6
330
18
100
AcDbEntity
  8
0
  6
BYBLOCK
100
AcDbLine
 10
166.6108828368285
 20
111.6184023913927
 30
0.0
 11
164.6108828368285
 21
111.0825040113927
 31
0.0
  0
LINE
  5
6EE7
330
18
100
AcDbEntity
  8
0
  6
BYBLOCK
100
AcDbLine
 10
166.6108828368285
 20
111.6184023913927
 30
0.0
 11
164.6108828368285
 21
111.6184023913927
 31
0.0
  0
TEXT
  5
6EE8
330
18
100
AcDbEntity
  8
1DIM
  6
CONTINUOUS
100
AcDbText
 10
146.6942161701619
 20
112.3184023913927
 30
0.0
 40
3.5
  1
34
100
AcDbText
  0
LINE
  5
6EE9
330
18
100
AcDbEntity
  8
0
  6
BYBLOCK
100
AcDbLine
 10
126.6108828368285
 20
117.0903726914768
 30
0.0
 11
124.6108828368285
 21
117.6262710714768
 31
0.0
  0
LINE
  5
6EEA
330
18
100
AcDbEntity
  8
0
  6
BYBLOCK
100
AcDbLine
 10
124.6108828368285
 20
117.6262710714768
 30
0.0
 11
126.6108828368285
 21
118.1621694514768
 31
0.0
  0
LINE
  5
6EEB
330
18
100
AcDbEntity
  8
0
  6
BYBLOCK
100
AcDbLine
 10
124.6108828368285
 20
117.6262710714768
 30
0.0
 11
126.6108828368285
 21
117.6262710714768
 31
0.0
  0
LINE
  5
6EEC
330
18
100
AcDbEntity
  8
0
  6
BYBLOCK
100
AcDbLine
 10
130.6108828368285
 20
118.1621694514768
 30
0.0
 11
132.6108828368285
 21
117.6262710714768
 31
0.0
  0
LINE
  5
6EED
330
18
100
AcDbEntity
  8
0
  6
BYBLOCK
100
AcDbLine
 10
132.6108828368285
 20
117.6262710714768
 30
0.0
 11
130.6108828368285
 21
117.0903726914768
 31
0.0
  0
LINE
  5
6EEE
330
18
100
AcDbEntity
  8
0
  6
BYBLOCK
100
AcDbLine
 10
132.6108828368285
 20
117.6262710714768
 30
0.0
 11
130.6108828368285
 21
117.6262710714768
 31
0.0
  0
TEXT
  5
6EEF
330
18
100
AcDbEntity
  8
1DIM
  6
CONTINUOUS
100
AcDbText
 10
127.4442161701619
 20
118.3262710714768
 30
0.0
 40
3.5
  1
8
100
AcDbText
  0
LINE
  5
6EF0
330
18
100
AcDbEntity
  8
0
  6
BYBLOCK
100
AcDbLine
 10
380.5835441515687
 20
123.9826262306315
 30
0.0
 11
382.5835441515687
 21
123.4467278506315
 31
0.0
  0
LINE
  5
6EF1
330
18
100
AcDbEntity
  8
0
  6
BYBLOCK
100
AcDbLine
 10
382.5835441515687
 20
123.4467278506315
 30
0.0
 11
380.5835441515687
 21
122.9108294706315
 31
0.0
  0
LINE
  5
6EF2
330
18
100
AcDbEntity
  8
0
  6
BYBLOCK
100
AcDbLine
 10
382.5835441515687
 20
123.4467278506315
 30
0.0
 11
380.5835441515687
 21
123.4467278506315
 31
0.0
  0
LINE
  5
6EF3
330
18
100
AcDbEntity
  8
0
  6
BYBLOCK
100
AcDbLine
 10
285.918626810873
 20
122.9108294706315
 30
0.0
 11
283.918626810873
 21
123.4467278506315
 31
0.0
  0
LINE
  5
6EF4
330
18
100
AcDbEntity
  8
0
  6
BYBLOCK
100
AcDbLine
 10
283.918626810873
 20
123.4467278506315
 30
0.0
 11
285.918626810873
 21
123.9826262306315
 31
0.0
  0
LINE
  5
6EF5
330
18
100
AcDbEntity
  8
0
  6
BYBLOCK
100
AcDbLine
 10
283.918626810873
 20
123.4467278506315
 30
0.0
 11
285.918626810873
 21
123.4467278506315
 31
0.0
  0
TEXT
  5
6EF6
330
18
100
AcDbEntity
  8
1DIM
  6
CONTINUOUS
100
AcDbText
 10
311.7193375365675
 20
124.1467278506315
 30
0.0
 40
3.5
  1
99 （ペーパー付き最大値）
100
AcDbText
1001
ACAD
1000
DSTYLE
1002
{
1070
    40
1040
1.0
1070
    45
1040
0.5
1070
   271
1070
     0
1002
}
  0
LINE
  5
6EF7
330
18
100
AcDbEntity
  8
0
  6
BYBLOCK
100
AcDbLine
 10
276.5351714751001
 20
153.9685248102495
 30
0.0
 11
275.9992730951001
 21
151.9685248102495
 31
0.0
  0
LINE
  5
6EF8
330
18
100
AcDbEntity
  8
0
  6
BYBLOCK
100
AcDbLine
 10
275.9992730951001
 20
151.9685248102495
 30
0.0
 11
275.4633747151001
 21
153.9685248102495
 31
0.0
  0
LINE
  5
6EF9
330
18
100
AcDbEntity
  8
0
  6
BYBLOCK
100
AcDbLine
 10
275.9992730951001
 20
151.9685248102495
 30
0.0
 11
275.9992730951001
 21
153.9685248102495
 31
0.0
  0
LINE
  5
6EFA
330
18
100
AcDbEntity
  8
0
  6
BYBLOCK
100
AcDbLine
 10
275.4633747151001
 20
218.5262242782147
 30
0.0
 11
275.9992730951001
 21
220.5262242782147
 31
0.0
  0
LINE
  5
6EFB
330
18
100
AcDbEntity
  8
0
  6
BYBLOCK
100
AcDbLine
 10
275.9992730951001
 20
220.5262242782147
 30
0.0
 11
276.5351714751001
 21
218.5262242782147
 31
0.0
  0
LINE
  5
6EFC
330
18
100
AcDbEntity
  8
0
  6
BYBLOCK
100
AcDbLine
 10
275.9992730951001
 20
220.5262242782147
 30
0.0
 11
275.9992730951001
 21
218.5262242782147
 31
0.0
  0
TEXT
  5
6EFD
330
18
100
AcDbEntity
  8
1DIM
  6
CONTINUOUS
100
AcDbText
 10
275.2992730951
 20
157.9314023220099
 30
0.0
 40
3.5
  1
68.5 （ペーパー無し最小値）
 50
90.0
100
AcDbText
1001
ACAD
1000
DSTYLE
1002
{
1070
    40
1040
1.0
1070
    45
1040
0.5
1002
}
  0
LINE
  5
6EFE
330
18
100
AcDbEntity
  8
0
  6
BYBLOCK
100
AcDbLine
 10
267.8509020957815
 20
86.76454283487016
 30
0.0
 11
268.3868004757815
 21
88.76454283487016
 31
0.0
  0
LINE
  5
6EFF
330
18
100
AcDbEntity
  8
0
  6
BYBLOCK
100
AcDbLine
 10
268.3868004757815
 20
88.76454283487016
 30
0.0
 11
268.9226988557814
 21
86.76454283487016
 31
0.0
  0
LINE
  5
6F00
330
18
100
AcDbEntity
  8
0
  6
BYBLOCK
100
AcDbLine
 10
268.3868004757815
 20
88.76454283487016
 30
0.0
 11
268.3868004757815
 21
86.76454283487016
 31
0.0
  0
LINE
  5
6F01
330
18
100
AcDbEntity
  8
0
  6
BYBLOCK
100
AcDbLine
 10
268.9226988557814
 20
3.897872495841153
 30
0.0
 11
268.3868004757815
 21
1.897872495841154
 31
0.0
  0
LINE
  5
6F02
330
18
100
AcDbEntity
  8
0
  6
BYBLOCK
100
AcDbLine
 10
268.3868004757815
 20
1.897872495841154
 30
0.0
 11
267.8509020957815
 21
3.897872495841153
 31
0.0
  0
LINE
  5
6F03
330
18
100
AcDbEntity
  8
0
  6
BYBLOCK
100
AcDbLine
 10
268.3868004757815
 20
1.897872495841154
 30
0.0
 11
268.3868004757815
 21
3.897872495841153
 31
0.0
  0
TEXT
  5
6F04
330
18
100
AcDbEntity
  8
1DIM
  6
CONTINUOUS
100
AcDbText
 10
267.6868004757815
 20
42.41454099868901
 30
0.0
 40
3.5
  1
87
 50
90.0
100
AcDbText
1001
ACAD
1000
DSTYLE
1002
{
1070
    45
1040
0.5
1070
   271
1070
     1
1002
}
  0
VIEWPORT
  5
57
330
15
100
AcDbEntity
 67
     1
  8
0
100
AcDbViewport
 68
     1
 10
0.0
 20
0.0
 30
0.0
 40
663.4332925336597
 41
297.0
 68
     1
 69
     1
1001
ACAD
1000
MVIEW
1002
{
1070
    16
1010
0.0
1020
0.0
1030
0.0
1010
0.0
1020
0.0
1030
1.0
1040
0.0
1040
297.0
1040
-7.043145940668182
1040
11.81306925659391
1040
50.0
1040
0.0
1040
0.0
1070
    16
1070
  1000
1070
     0
1070
     1
1070
     0
1070
     0
1070
     0
1070
     0
1040
0.0
1040
0.0
1040
0.0
1040
10.0
1040
10.0
1040
10.0
1040
10.0
1070
     0
1002
{
1002
}
1002
}
  0
ENDSEC
  0
SECTION
  2
OBJECTS
  0
DICTIONARY
  5
C
330
0
100
AcDbDictionary
  3
ACAD_COLOR
350
2D0
  3
ACAD_GROUP
350
D
  3
ACAD_LAYOUT
350
2D1
  3
ACAD_MATERIAL
350
2CF
  3
ACAD_MLEADERSTYLE
350
1C31
  3
ACAD_MLINESTYLE
350
1B
  3
ACAD_PLOTSETTINGS
350
2D2
  3
ACAD_SCALELIST
350
1C0F
  3
ACAD_VISUALSTYLE
350
1BFE
  3
ACDBHEADERROUNDTRIPXREC
350
6F05
  3
ACDBVARIABLEDICTIONARY
350
37
  3
CONTENTDICTIONARY
350
D8
  3
DRAWINGVARIABLESDICT
350
20
  3
DWGPROPS
350
6F08
1001
ACAD
1000
TREAT_AS_HARD
1070
     0
  0
DICTIONARY
  5
1D5D
330
2
100
AcDbDictionary
  3
ACAD_LAYERSTATES
360
1D5E
1001
ACAD
1000
TREAT_AS_HARD
1070
     1
  0
DICTIONARY
  5
1C48
330
E
100
AcDbDictionary
  3
ADSK_XREC_LAYER_RECONCILED
360
1C49
1001
ACAD
1000
TREAT_AS_HARD
1070
     1
  0
DICTIONARY
  5
1C4A
330
29
100
AcDbDictionary
  3
ADSK_XREC_LAYER_RECONCILED
360
1C4B
1001
ACAD
1000
TREAT_AS_HARD
1070
     1
  0
DICTIONARY
  5
1C4C
330
31
100
AcDbDictionary
  3
ADSK_XREC_LAYER_RECONCILED
360
1C4D
1001
ACAD
1000
TREAT_AS_HARD
1070
     1
  0
DICTIONARY
  5
1C56
330
101
100
AcDbDictionary
  3
ADSK_XREC_LAYER_RECONCILED
360
1C57
1001
ACAD
1000
TREAT_AS_HARD
1070
     1
  0
DICTIONARY
  5
1C5A
330
103
100
AcDbDictionary
  3
ADSK_XREC_LAYER_RECONCILED
360
1C5B
1001
ACAD
1000
TREAT_AS_HARD
1070
     1
  0
DICTIONARY
  5
1C5E
330
25F
100
AcDbDictionary
  3
ADSK_XREC_LAYER_RECONCILED
360
1C5F
1001
ACAD
1000
TREAT_AS_HARD
1070
     1
  0
DICTIONARY
  5
1C7A
330
26D
100
AcDbDictionary
  3
ADSK_XREC_LAYER_RECONCILED
360
1C7B
1001
ACAD
1000
TREAT_AS_HARD
1070
     1
  0
DICTIONARY
  5
1C92
330
1BA2
100
AcDbDictionary
  3
ADSK_XREC_LAYER_RECONCILED
360
1C93
1001
ACAD
1000
TREAT_AS_HARD
1070
     1
  0
DICTIONARY
  5
1C94
330
1BA3
100
AcDbDictionary
  3
ADSK_XREC_LAYER_RECONCILED
360
1C95
1001
ACAD
1000
TREAT_AS_HARD
1070
     1
  0
DICTIONARY
  5
1C96
330
1BA4
100
AcDbDictionary
  3
ADSK_XREC_LAYER_RECONCILED
360
1C97
1001
ACAD
1000
TREAT_AS_HARD
1070
     1
  0
DICTIONARY
  5
1C98
330
1BA5
100
AcDbDictionary
  3
ADSK_XREC_LAYER_RECONCILED
360
1C99
1001
ACAD
1000
TREAT_AS_HARD
1070
     1
  0
DICTIONARY
  5
510
330
18
100
AcDbDictionary
  3
ACAD_SORTENTS
360
511
1001
ACAD
1000
TREAT_AS_HARD
1070
     1
  0
DICTIONARY
  5
2D0
102
{ACAD_REACTORS
330
C
102
}
330
C
100
AcDbDictionary
1001
ACAD
1000
TREAT_AS_HARD
1070
     0
  0
DICTIONARY
  5
D
102
{ACAD_REACTORS
330
C
102
}
330
C
100
AcDbDictionary
1001
ACAD
1000
TREAT_AS_HARD
1070
     0
  0
DICTIONARY
  5
2D1
102
{ACAD_REACTORS
330
C
102
}
330
C
100
AcDbDictionary
1001
ACAD
1000
TREAT_AS_HARD
1070
     0
  0
DICTIONARY
  5
2CF
102
{ACAD_REACTORS
330
C
102
}
330
C
100
AcDbDictionary
  3
BYBLOCK
350
1BEE
  3
BYLAYER
350
1BE6
  3
GLOBAL
350
1BF6
1001
ACAD
1000
TREAT_AS_HARD
1070
     0
  0
DICTIONARY
  5
1C31
102
{ACAD_REACTORS
330
C
102
}
330
C
100
AcDbDictionary
  3
STANDARD
350
1C32
1001
ACAD
1000
TREAT_AS_HARD
1070
     0
  0
DICTIONARY
  5
1B
102
{ACAD_REACTORS
330
C
102
}
330
C
100
AcDbDictionary
  3
STANDARD
350
1C
1001
ACAD
1000
TREAT_AS_HARD
1070
     0
  0
DICTIONARY
  5
2D2
102
{ACAD_REACTORS
330
C
102
}
330
C
100
AcDbDictionary
1001
ACAD
1000
TREAT_AS_HARD
1070
     0
  0
DICTIONARY
  5
1C0F
102
{ACAD_REACTORS
330
C
102
}
330
C
100
AcDbDictionary
  3
A0
350
1C10
  3
A1
350
1C11
  3
A2
350
1C12
  3
A3
350
1C13
  3
A4
350
1C14
  3
A5
350
1C15
  3
A6
350
1C16
  3
A7
350
1C17
  3
A8
350
1C18
  3
A9
350
1C19
  3
B0
350
1C1A
  3
B1
350
1C1B
  3
B2
350
1C1C
  3
B3
350
1C1D
  3
B4
350
1C1E
  3
B5
350
1C1F
  3
B6
350
1C20
  3
B7
350
1C21
  3
B8
350
1C22
  3
B9
350
1C23
  3
C0
350
1C24
  3
C1
350
1C25
  3
C2
350
1C26
  3
C3
350
1C27
  3
C4
350
1C28
  3
C5
350
1C29
  3
C6
350
1C2A
  3
C7
350
1C2B
  3
C8
350
1C2C
  3
C9
350
1C2D
  3
D0
350
1C2E
  3
D1
350
1C2F
  3
D2
350
1C30
1001
ACAD
1000
TREAT_AS_HARD
1070
     0
  0
DICTIONARY
  5
1BFE
102
{ACAD_REACTORS
330
C
102
}
330
C
100
AcDbDictionary
  3
2DWIREFRAME
350
1C04
  3
3D_HIDDEN
350
1C06
  3
3DWIREFRAME
350
1C05
  3
BASIC
350
1C03
  3
BRIGHTEN
350
1C0A
  3
COLORCHANGE
350
1C0E
  3
CONCEPTUAL
350
1C07
  3
DIM
350
1C09
  3
EDGECOLOROFF
350
5D96
  3
FACEPATTERN
350
1C0D
  3
FLAT
350
1BFF
  3
FLATWITHEDGES
350
1C00
  3
GOURAUD
350
1C01
  3
GOURAUDWITHEDGES
350
1C02
  3
HIDDEN
350
6560
  3
JITTEROFF
350
5D94
  3
LINEPATTERN
350
1C0C
  3
MODELING
350
6566
  3
OVERHANGOFF
350
5D95
  3
REALISTIC
350
1C08
  3
SHADED
350
6565
  3
SHADED_WITH_EDGES
350
6564
  3
SHADES_OF_GRAY
350
6561
  3
SKETCHY
350
6562
  3
THICKEN
350
1C0B
  3
WIREFRAME
350
655F
  3
X-RAY
350
6563
1001
ACAD
1000
TREAT_AS_HARD
1070
     0
  0
DICTIONARY
  5
6F05
102
{ACAD_REACTORS
330
C
102
}
330
C
100
AcDbDictionary
  3
COLORDICT
350
6F06
  3
MATERIALDICT
350
6F07
1001
ACAD
1000
TREAT_AS_HARD
1070
     0
  0
DICTIONARY
  5
37
102
{ACAD_REACTORS
330
C
102
}
330
C
100
AcDbDictionary
  3
CANNOSCALE
350
1CDB
  3
CMLEADERSTYLE
350
1CDA
  3
CTABLESTYLE
350
4FB
  3
DIMADEC
350
38
  3
DIMASSOC
350
408
  3
HIDETEXT
350
56F
  3
INDEXCTL
350
1CDD
  3
INTERSECTIONCOLOR
350
573
  3
INTERSECTIONDISPLAY
350
572
  3
LAYERNOTIFY
350
55E0
  3
MSLTSCALE
350
6D50
  3
OBSCOLOR
350
570
  3
OBSLTYPE
350
571
  3
PROJECTNAME
350
409
  3
SORTENTS
350
1CDC
  3
XCLIPFRAME
350
655E
1001
ACAD
1000
TREAT_AS_HARD
1070
     0
  0
DICTIONARY
  5
D8
102
{ACAD_REACTORS
330
C
102
}
330
C
100
AcDbDictionary
1001
CONTENTTABDATA
1070
    11
1000
Child
1000
D:\ACLT\TABset\CHILDREN.dwg
1070
     0
1070
     0
1070
     1
1000
PK
1000
D:\ACLT\TABset\PK.dwg
1070
     0
1070
     0
1070
     1
1000
Lev1
1000
D:\ACLT\TABset\Lever01.dwg
1070
     0
1070
     0
1070
     1
1000
Lev2
1000
D:\ACLT\TABset\Lever02.dwg
1070
     0
1070
     0
1070
     1
1000
L3
1000
D:\Aclt\TABset\Lever03.dwg
1070
     0
1070
     0
1070
     1
1000
Form
1000
D:\ACLT\FORMAT
1070
     1
1070
     0
1070
     1
1000
Jnt
1000
D:\ACLT\TABset\JOINTPARTS.dwg
1070
     0
1070
     0
1070
     1
1000
ISO
1000
D:\ACLT\TABset\Isome01.dwg
1070
     0
1070
     0
1070
     1
1000
R
1000
D:\ACLT\TABset\REGION.dwg
1070
     0
1070
     0
1070
     1
1000
std
1000
D:\ACLT\TABset\std_sym_all.dwg
1070
     0
1070
     0
1070
     1
1000
丸
1000
D:\Aclt\TABset\MARU.dwg
1070
     0
1070
     0
1070
     1
1001
CONTENTCURRENTTAB
1070
     0
1001
ACAD
1000
TREAT_AS_HARD
1070
     0
  0
DICTIONARY
  5
20
102
{ACAD_REACTORS
330
C
102
}
330
C
100
AcDbDictionary
1001
DRAWINGVARIABLESXDATA
1000
POLARANG
1000
0.261799387799149410000000
1000
POLARMODE
1000
1
1000
POLARSTYLE
1000
1
1001
ACAD
1000
TREAT_AS_HARD
1070
     0
  0
XRECORD
  5
6F08
102
{ACAD_REACTORS
330
C
102
}
330
C
100
AcDbXrecord
  1
DWGPROPS COOKIE
  2

  3

  4

  6

  7

  8
3684
  9

300
=
301
=
302
=
303
=
304
=
305
=
306
=
307
=
308
=
309
=
 40
0.0
 41
2454396.394437928
 42
2458149.310900833
  1

 90
        0
  0
DICTIONARY
  5
1D5E
102
{ACAD_REACTORS
330
1D5D
102
}
330
1D5D
100
AcDbDictionary
1001
ACAD
1000
TREAT_AS_HARD
1070
     0
  0
ACAD_PROXY_OBJECT
  5
1C49
102
{ACAD_REACTORS
330
1C48
102
}
330
1C48
100
AcDbZombieObject
 90
      499
 91
      515
 93
       34
310
40C8804040
  0
ACAD_PROXY_OBJECT
  5
1C4B
102
{ACAD_REACTORS
330
1C4A
102
}
330
1C4A
100
AcDbZombieObject
 90
      499
 91
      515
 93
       34
310
40C8804040
  0
ACAD_PROXY_OBJECT
  5
1C4D
102
{ACAD_REACTORS
330
1C4C
102
}
330
1C4C
100
AcDbZombieObject
 90
      499
 91
      515
 93
       34
310
40C8804040
  0
ACAD_PROXY_OBJECT
  5
1C57
102
{ACAD_REACTORS
330
1C56
102
}
330
1C56
100
AcDbZombieObject
 90
      499
 91
      515
 93
       34
310
40C8804040
  0
ACAD_PROXY_OBJECT
  5
1C5B
102
{ACAD_REACTORS
330
1C5A
102
}
330
1C5A
100
AcDbZombieObject
 90
      499
 91
      515
 93
       34
310
40C8804040
  0
ACAD_PROXY_OBJECT
  5
1C5F
102
{ACAD_REACTORS
330
1C5E
102
}
330
1C5E
100
AcDbZombieObject
 90
      499
 91
      515
 93
       34
310
40C8804040
  0
ACAD_PROXY_OBJECT
  5
1C7B
102
{ACAD_REACTORS
330
1C7A
102
}
330
1C7A
100
AcDbZombieObject
 90
      499
 91
      515
 93
       34
310
40C8804040
  0
ACAD_PROXY_OBJECT
  5
1C93
102
{ACAD_REACTORS
330
1C92
102
}
330
1C92
100
AcDbZombieObject
 90
      499
 91
      515
 93
       34
310
40C8804040
  0
ACAD_PROXY_OBJECT
  5
1C95
102
{ACAD_REACTORS
330
1C94
102
}
330
1C94
100
AcDbZombieObject
 90
      499
 91
      515
 93
       34
310
40C8804040
  0
ACAD_PROXY_OBJECT
  5
1C97
102
{ACAD_REACTORS
330
1C96
102
}
330
1C96
100
AcDbZombieObject
 90
      499
 91
      515
 93
       34
310
40C8804040
  0
ACAD_PROXY_OBJECT
  5
1C99
102
{ACAD_REACTORS
330
1C98
102
}
330
1C98
100
AcDbZombieObject
 90
      499
 91
      515
 93
       34
310
40C8804040
  0
SORTENTSTABLE
  5
511
102
{ACAD_REACTORS
330
510
102
}
330
510
100
AcDbSortentsTable
330
18
331
4B23
  5
4B2D
331
4B24
  5
4B2E
331
4B26
  5
4B36
331
4B27
  5
4B38
331
4B28
  5
4B39
331
4B29
  5
4B3A
331
4B2A
  5
4B3B
331
4B2B
  5
4B3D
331
4B2C
  5
4B42
331
4B2D
  5
4B63
331
4B35
  5
4B64
331
4B37
  5
4B65
331
4B38
  5
4B66
331
4B39
  5
4B67
331
4B3A
  5
4B68
331
4B3B
  5
4B69
331
4B3D
  5
4B6A
331
4B60
  5
4B6F
331
4B61
  5
4B72
331
4B62
  5
4B73
331
4B63
  5
4B76
331
4B64
  5
4B77
331
4B65
  5
4B78
331
4B66
  5
4B79
331
4B67
  5
4B7A
331
4B6C
  5
4B7C
331
4B6F
  5
4B7D
331
4B70
  5
4B7E
331
4B73
  5
4B7F
331
4B74
  5
4B80
331
4B75
  5
4B81
331
4B76
  5
4B82
331
4B77
  5
4B83
331
4B79
  5
4B84
331
4B7A
  5
4B85
331
4B7B
  5
4B86
331
4B7C
  5
4B87
331
4B7D
  5
4B88
331
4B7E
  5
4B89
331
4B7F
  5
4B8A
331
4B80
  5
4B8F
331
4B81
  5
4B92
331
4B82
  5
4B97
331
4B83
  5
4B99
331
4B84
  5
4B9A
331
4B85
  5
4B9B
331
4B86
  5
4BDD
331
4B87
  5
4BDE
331
4B8C
  5
4BDF
331
4B8F
  5
4CEE
331
4B94
  5
4CF0
331
4B96
  5
4CF1
331
4B97
  5
4CF6
331
4B98
  5
4CF7
331
4B99
  5
4D8C
331
4B9A
  5
4D8D
331
4B9B
  5
4E5F
331
0
  5
4BE0
331
0
  5
4BE1
331
0
  5
4C11
331
0
  5
4C2F
331
4CEB
  5
51EB
331
4CEC
  5
51ED
331
4CED
  5
51EE
331
4CEE
  5
51EF
331
4CF0
  5
51F0
331
4CF6
  5
51F1
331
4CFB
  5
51F3
331
0
  5
4D8E
331
0
  5
4D8F
331
4CFF
  5
532D
331
4D8C
  5
5377
331
4D8D
  5
5376
331
4D90
  5
5378
331
4EDF
  5
53B2
331
0
  5
5345
331
0
  5
5343
331
0
  5
5346
331
0
  5
5347
331
0
  5
5348
331
0
  5
5349
331
0
  5
534A
331
0
  5
534B
331
0
  5
534C
331
0
  5
534D
331
5327
  5
592F
331
5328
  5
5930
331
5329
  5
5931
331
532A
  5
5932
331
532B
  5
5933
331
532C
  5
5934
331
532D
  5
5935
331
532E
  5
5936
331
532F
  5
5937
331
5330
  5
5938
331
5331
  5
5939
331
5332
  5
593A
331
5333
  5
593B
331
5334
  5
593C
331
5335
  5
593D
331
5336
  5
593F
331
5337
  5
5940
331
5338
  5
5941
331
5339
  5
5942
331
533A
  5
5943
331
533B
  5
5944
331
533C
  5
5945
331
533D
  5
5946
331
533E
  5
5947
331
533F
  5
594B
331
5340
  5
59A6
331
5341
  5
59A7
331
5342
  5
59A8
331
5343
  5
59A9
331
5344
  5
59AA
331
5345
  5
59AB
331
5346
  5
59AC
331
5347
  5
59AD
331
5348
  5
59AE
331
5349
  5
59AF
331
534A
  5
59B0
331
534B
  5
59B1
331
534C
  5
59B2
331
534D
  5
59B3
331
534E
  5
59B4
331
534F
  5
59B5
331
5350
  5
59B6
331
5351
  5
59B7
331
5352
  5
59B8
331
5353
  5
59B9
331
5354
  5
59BA
331
5355
  5
59BB
331
5356
  5
59BC
331
5357
  5
59BD
331
5358
  5
59BE
331
5359
  5
59BF
331
535A
  5
59C0
331
535B
  5
59C1
331
535C
  5
59C2
331
535D
  5
59C3
331
535E
  5
59C4
331
535F
  5
59C5
331
5360
  5
59C6
331
5361
  5
59C7
331
5362
  5
59C8
331
5363
  5
59C9
331
5364
  5
59CA
331
5365
  5
59CB
331
5366
  5
59CC
331
5367
  5
59CD
331
5368
  5
59CE
331
5369
  5
59CF
331
536A
  5
59D0
331
536B
  5
59D1
331
536C
  5
59D2
331
536D
  5
59D3
331
536E
  5
59D6
331
536F
  5
59D7
331
5370
  5
59D8
331
5371
  5
59D9
331
5372
  5
59DA
331
5373
  5
59DB
331
5374
  5
59DC
331
5375
  5
59DD
331
5376
  5
59DE
331
5377
  5
59DF
331
5378
  5
59E0
331
5379
  5
59E1
331
537A
  5
59E2
331
537B
  5
59E3
331
537C
  5
59E4
331
537D
  5
59E5
331
537E
  5
59E6
331
537F
  5
59E7
331
5380
  5
59E8
331
5381
  5
59E9
331
5382
  5
59EA
331
5383
  5
59EB
331
5384
  5
59EC
331
5385
  5
59ED
331
5386
  5
59EE
331
5387
  5
59EF
331
5388
  5
59F0
331
5389
  5
59F1
331
538A
  5
59F2
331
538B
  5
59F3
331
538C
  5
59F4
331
538D
  5
59F5
331
538E
  5
59F6
331
538F
  5
59F7
331
5390
  5
59F8
331
5391
  5
59F9
331
5392
  5
59FA
331
5393
  5
59FB
331
5394
  5
59FC
331
5395
  5
59FD
331
5396
  5
59FE
331
5397
  5
59FF
331
5398
  5
5A00
331
5399
  5
5A01
331
539A
  5
5A07
331
539B
  5
5A08
331
539C
  5
5A09
331
539D
  5
5A0D
331
539E
  5
5A0E
331
539F
  5
5A0F
331
53A0
  5
5A13
331
53A1
  5
5A14
331
53A2
  5
5A15
331
53A3
  5
5A19
331
53A4
  5
5A1A
331
53A5
  5
5A1B
331
53A6
  5
5A1F
331
53A7
  5
5A20
331
53A8
  5
5A21
331
53A9
  5
5A22
331
53AA
  5
5A23
331
53AB
  5
5A24
331
53AC
  5
5A25
331
53AD
  5
5A26
331
53AE
  5
5A27
331
53AF
  5
5A28
331
53B0
  5
5A29
331
53B1
  5
5A2A
331
53B2
  5
5A2B
331
53B3
  5
5A2C
331
53B4
  5
5A2D
331
53B5
  5
5A2E
331
53B6
  5
5A2F
331
53B7
  5
5A30
331
53B8
  5
5A31
331
53B9
  5
5A32
331
53BA
  5
5A33
331
53BB
  5
5A36
331
53BC
  5
5A37
331
53BD
  5
5A38
331
53BE
  5
5A39
331
53BF
  5
5A3A
331
53C0
  5
5A3B
331
53C1
  5
5A3C
331
53C2
  5
5A3D
331
53C3
  5
5A41
331
53C4
  5
5A42
331
53C5
  5
5A43
331
53C6
  5
5A47
331
53C7
  5
5A48
331
53C8
  5
5A49
331
53C9
  5
5A4A
331
53CA
  5
5A4B
331
53CB
  5
5A4C
331
53CC
  5
5A4D
331
53CD
  5
5A4E
331
53CE
  5
5A4F
331
53CF
  5
5A50
331
0
  5
5928
331
0
  5
5929
331
0
  5
592A
331
0
  5
592B
331
0
  5
592C
331
56BD
  5
6E05
331
56BE
  5
6E06
331
56C0
  5
6E07
331
56C2
  5
6E08
331
56C5
  5
6E09
331
56CA
  5
6E0A
331
56CB
  5
6E0B
331
56CE
  5
6E0C
331
56CF
  5
6E0D
331
56D1
  5
6E0E
331
56D3
  5
6E0F
331
56D4
  5
6E10
331
56D6
  5
6E11
331
56DB
  5
6E12
331
56DC
  5
6E13
331
56DD
  5
6E14
331
56DE
  5
6E15
331
56DF
  5
6E16
331
56E1
  5
6E17
331
56E3
  5
6E18
331
56E4
  5
6E19
331
56ED
  5
6E1A
331
56F7
  5
6E1B
331
56F8
  5
6E1C
331
56F9
  5
6E1D
331
56FA
  5
6E1E
331
0
  5
5948
331
0
  5
5949
331
5825
  5
6E33
331
5918
  5
533D
331
5919
  5
533E
331
591A
  5
5341
331
591B
  5
5342
331
591C
  5
5344
331
591D
  5
535A
331
591E
  5
535B
331
591F
  5
535C
331
5920
  5
535D
331
5921
  5
535E
331
5922
  5
535F
331
5923
  5
5360
331
5924
  5
5361
331
5925
  5
5362
331
5926
  5
5363
331
5927
  5
5364
331
5928
  5
5365
331
5929
  5
5366
331
592A
  5
5367
331
592B
  5
5368
331
592C
  5
5369
331
592D
  5
536A
331
592E
  5
536B
331
592F
  5
536C
331
5932
  5
536D
331
5933
  5
536E
331
5934
  5
536F
331
5935
  5
5370
331
5937
  5
5371
331
5938
  5
5372
331
5939
  5
5373
331
593B
  5
5374
331
593C
  5
5375
331
5941
  5
532E
331
5942
  5
5331
331
5943
  5
5332
331
5944
  5
5333
331
5945
  5
5334
331
5946
  5
5336
331
5947
  5
5337
331
5948
  5
5338
331
5949
  5
533A
331
594A
  5
533B
331
594B
  5
51F2
331
59A6
  5
6E34
331
59A7
  5
6E35
331
59A8
  5
6E36
331
59A9
  5
6E37
331
59AA
  5
6E38
331
59AB
  5
6E39
331
59AC
  5
6E3A
331
59AD
  5
6E3B
331
59AE
  5
6E3C
331
59AF
  5
6E3D
331
59B0
  5
6E3E
331
59B1
  5
6E3F
331
59B2
  5
6E40
331
59B3
  5
6E41
331
59B4
  5
6E42
331
59B5
  5
6E43
331
59B6
  5
6E44
331
59B7
  5
6E45
331
59B8
  5
6E46
331
59B9
  5
6E47
331
59BA
  5
6E48
331
59BB
  5
6E49
331
59BC
  5
6E4A
331
59BD
  5
6E4B
331
59BE
  5
6E4C
331
59BF
  5
6E4D
331
59C0
  5
6E4E
331
59C1
  5
6E4F
331
59C2
  5
6E50
331
59C3
  5
6E51
331
59C4
  5
6E52
331
59C5
  5
6E53
331
59C6
  5
6E54
331
59C7
  5
6E55
331
59C8
  5
6E56
331
59C9
  5
6E57
331
59CA
  5
6E58
331
59CB
  5
6E59
331
59CC
  5
6E5A
331
59CD
  5
6E5B
331
59CE
  5
6E5C
331
59CF
  5
6E5D
331
59D0
  5
6E5E
331
59D1
  5
6E5F
331
59D2
  5
6E60
331
59D3
  5
6E61
331
59D6
  5
6E62
331
59D7
  5
6E63
331
59D8
  5
6E64
331
59D9
  5
6E65
331
59DA
  5
6E66
331
59DB
  5
6E67
331
59DC
  5
6E68
331
59DD
  5
6E69
331
59DE
  5
6E6A
331
59DF
  5
6E6B
331
59E0
  5
6E6C
331
59E1
  5
6E6D
331
59E2
  5
6E6E
331
59E3
  5
6E6F
331
59E4
  5
6E70
331
59E5
  5
6E71
331
59E6
  5
6E72
331
59E7
  5
6E73
331
59E8
  5
6E74
331
59E9
  5
6E75
331
59EA
  5
6E76
331
59EB
  5
6E77
331
59EC
  5
6E78
331
59ED
  5
6E79
331
59EE
  5
6E7A
331
59EF
  5
6E7B
331
59F0
  5
6E7C
331
59F1
  5
6E7D
331
59F2
  5
6E7E
331
59F3
  5
6E7F
331
59F4
  5
6E80
331
59F5
  5
6E81
331
59F6
  5
6E82
331
59F7
  5
6E83
331
59F8
  5
6E84
331
59F9
  5
6E88
331
59FA
  5
6E89
331
59FB
  5
6E8A
331
59FC
  5
6E8B
331
59FD
  5
6E8C
331
59FE
  5
6E8D
331
59FF
  5
6E8E
331
5A00
  5
6E8F
331
5A01
  5
6E90
331
5A02
  5
6E91
331
5A03
  5
6E92
331
5A06
  5
6E93
331
5A07
  5
6E94
331
5A08
  5
6E95
331
5A09
  5
6E96
331
5A0A
  5
6E97
331
5A0B
  5
6E98
331
5A0C
  5
6E99
331
5A0D
  5
6E9A
331
5A0E
  5
6E9B
331
5A0F
  5
6E9C
331
5A10
  5
6E9D
331
5A11
  5
6E9E
331
5A12
  5
6E9F
331
5A13
  5
6EA0
331
5A14
  5
6EA1
331
5A15
  5
6EA2
331
5A16
  5
6EA3
331
5A17
  5
6EA4
331
5A18
  5
6EA5
331
5A19
  5
6EA6
331
5A1A
  5
6EA7
331
5A1B
  5
6EA8
331
5A1C
  5
6EA9
331
5A1D
  5
6EAA
331
5A1E
  5
6EAB
331
5A1F
  5
6EAC
331
5A20
  5
6EAD
331
5A21
  5
6EAE
331
5A22
  5
6EAF
331
5A23
  5
6EB0
331
5A24
  5
6EB1
331
5A25
  5
6EB2
331
5A26
  5
6EB3
331
5A27
  5
6EB4
331
5A28
  5
6EB5
331
5A29
  5
6EB6
331
5A2A
  5
6EB7
331
5A2B
  5
6EB8
331
5A2C
  5
6EB9
331
5A2D
  5
6EBA
331
5A2E
  5
6EBB
331
5A2F
  5
6EBC
331
5A30
  5
6EBD
331
5A31
  5
6EBE
331
5A32
  5
6EBF
331
5A33
  5
6EC0
331
5A36
  5
6EC1
331
5A37
  5
6EC2
331
5A38
  5
6EC3
331
5A39
  5
6EC4
331
5A3A
  5
6EC5
331
5A3B
  5
6EC6
331
5A3C
  5
6EC7
331
5A3D
  5
6EC8
331
5A3E
  5
6EC9
331
5A3F
  5
6ECA
331
5A40
  5
6ECB
331
5A41
  5
6ECC
331
5A42
  5
6ECD
331
5A43
  5
6ECE
331
5A44
  5
6ECF
331
5A45
  5
6ED0
331
5A46
  5
6ED1
331
5A47
  5
6ED2
331
5A48
  5
6ED3
331
5A49
  5
6ED4
331
5A4A
  5
6ED5
331
5A4B
  5
6ED6
331
5A4C
  5
6ED7
331
5A4D
  5
6ED8
331
5A4E
  5
6ED9
331
5A4F
  5
6EDA
331
5A50
  5
6EDB
331
5A51
  5
6EDC
331
5A52
  5
6EDD
331
5A53
  5
6EDE
331
5A54
  5
6EDF
331
5A55
  5
6EE0
331
5A56
  5
6EE1
331
5A57
  5
6EE2
331
5A58
  5
6EE3
331
5A59
  5
6EE4
331
5A5A
  5
6EE5
331
5A5B
  5
6EE6
331
5A5C
  5
6EE7
331
5A5D
  5
6EE8
331
5A5E
  5
6EE9
331
5A5F
  5
6EEA
331
5A60
  5
6EEB
331
5A61
  5
6EEC
331
5A62
  5
6EED
331
5A63
  5
6EEE
331
64B8
  5
6EF9
331
64B9
  5
6EFA
331
64BA
  5
6EFB
331
64BB
  5
6EFC
331
64BC
  5
6EFD
331
64BD
  5
6EFE
331
6D4A
  5
6EFF
331
6D4B
  5
6F00
331
6D4C
  5
6F01
331
6D4D
  5
6F02
331
6D4E
  5
6F03
331
6D4F
  5
6F04
331
0
  5
4B23
331
6DF3
  5
4B29
331
6DF4
  5
4B2A
331
6DF5
  5
4B2B
331
6DF6
  5
4B2C
331
0
  5
4CF9
331
6DF8
  5
5033
331
6DF9
  5
50A3
331
6DFA
  5
50DE
331
6DFB
  5
50EB
331
0
  5
4EA8
331
6DFD
  5
51DE
331
6DFE
  5
51DF
331
6DFF
  5
51E9
331
6E00
  5
51EA
331
6E01
  5
51F4
331
6E02
  5
5327
331
0
  5
51EC
331
6E04
  5
532B
331
6E05
  5
532C
331
6E06
  5
53B3
331
6E07
  5
5379
331
6E08
  5
537A
331
6E09
  5
537B
331
6E0A
  5
537C
331
6E0B
  5
537D
331
6E0C
  5
537E
331
6E0D
  5
537F
331
6E0E
  5
5380
331
6E0F
  5
5381
331
6E10
  5
5382
331
6E11
  5
5383
331
6E12
  5
5384
331
6E13
  5
5385
331
6E14
  5
5386
331
6E15
  5
5387
331
6E16
  5
5388
331
6E17
  5
5389
331
6E18
  5
538A
331
6E19
  5
538B
331
6E1A
  5
538C
331
6E1B
  5
538D
331
6E1C
  5
538E
331
6E1D
  5
538F
331
6E1E
  5
5390
331
6E1F
  5
5391
331
6E20
  5
5392
331
6E21
  5
5393
331
6E22
  5
5394
331
6E23
  5
5395
331
6E24
  5
5396
331
6E25
  5
5397
331
6E26
  5
5398
331
6E27
  5
5399
331
6E28
  5
539A
331
6E29
  5
539B
331
6E2A
  5
539C
331
6E2B
  5
539D
331
6E2C
  5
539E
331
6E2D
  5
539F
331
6E2E
  5
53A0
331
6E2F
  5
53A1
331
6E30
  5
53A5
331
6E31
  5
53A6
331
6E32
  5
53A7
331
6E33
  5
53AB
331
6E34
  5
53AC
331
6E35
  5
53AD
331
6E36
  5
53B1
331
6E37
  5
53B7
331
6E38
  5
53B8
331
6E39
  5
53B9
331
0
  5
53A2
331
0
  5
53A3
331
0
  5
53A4
331
6E3D
  5
53C8
331
6E3E
  5
53C9
331
6E3F
  5
53CA
331
0
  5
53A8
331
0
  5
53A9
331
0
  5
53AA
331
6E43
  5
53D5
331
6E44
  5
53D6
331
6E45
  5
53D7
331
0
  5
53AE
331
0
  5
53AF
331
0
  5
53B0
331
6E49
  5
542A
331
6E4A
  5
5437
331
6E4B
  5
5444
331
0
  5
53B4
331
0
  5
53B5
331
0
  5
53B6
331
6E4F
  5
56CA
331
6E50
  5
56CB
331
6E51
  5
56CE
331
0
  5
53BA
331
0
  5
53BB
331
0
  5
53BC
331
6E55
  5
56DD
331
6E56
  5
56DE
331
6E57
  5
56DF
331
0
  5
53C0
331
0
  5
53C1
331
0
  5
53C2
331
0
  5
53C3
331
6E5C
  5
5825
331
6E5D
  5
5917
331
6E5E
  5
5918
331
6E5F
  5
5919
331
6E60
  5
591A
331
6E61
  5
591B
331
6E62
  5
592D
331
6E63
  5
592E
331
6E64
  5
5A51
331
6E65
  5
5A52
331
6E66
  5
5A53
331
0
  5
5A02
331
0
  5
5A03
331
0
  5
5A06
331
6E6A
  5
5A5B
331
6E6B
  5
5A5C
331
6E6C
  5
5A5D
331
0
  5
5A0A
331
0
  5
5A0B
331
0
  5
5A0C
331
6E70
  5
64B9
331
6E71
  5
64BA
331
6E72
  5
64BB
331
0
  5
5A10
331
0
  5
5A11
331
0
  5
5A12
331
6E76
  5
6D4F
331
6E77
  5
6DF2
331
6E78
  5
6DF3
331
0
  5
5A16
331
0
  5
5A17
331
0
  5
5A18
331
6E7C
  5
6DFB
331
6E7D
  5
6DFC
331
6E7E
  5
6DFD
331
0
  5
5A1C
331
0
  5
5A1D
331
0
  5
5A1E
331
6E82
  5
6E1F
331
6E83
  5
6E20
331
6E84
  5
6E21
331
0
  5
5A3E
331
0
  5
5A3F
331
0
  5
5A40
331
6E88
  5
6E29
331
6E89
  5
6E2A
331
6E8A
  5
6E2B
331
0
  5
5A44
331
0
  5
5A45
331
0
  5
5A46
331
6E8E
  5
6EEF
331
6E8F
  5
6EF0
331
6E90
  5
6EF1
331
0
  5
6E85
331
0
  5
6E86
331
0
  5
6E87
331
6E94
  5
4B24
331
6E95
  5
4B26
331
6E96
  5
4B28
331
6E97
  5
4E60
331
6E98
  5
4FB1
331
6E99
  5
4FD9
331
6E9A
  5
50F8
331
6E9B
  5
50F9
331
6E9C
  5
5103
331
6E9D
  5
5328
331
6E9E
  5
5329
331
6E9F
  5
532A
331
6EA0
  5
53BD
331
6EA1
  5
53BE
331
6EA2
  5
53BF
331
6EA3
  5
53C4
331
6EA4
  5
53C5
331
6EA5
  5
53C6
331
6EA6
  5
53C7
331
6EA7
  5
53CB
331
6EA8
  5
53CC
331
6EA9
  5
53CD
331
6EAA
  5
53CE
331
6EAB
  5
53CF
331
6EAC
  5
53D3
331
6EAD
  5
53D4
331
6EAE
  5
53D8
331
6EAF
  5
53D9
331
6EB0
  5
53DA
331
6EB1
  5
53DB
331
6EB2
  5
53DC
331
6EB3
  5
53DD
331
6EB4
  5
53DE
331
6EB5
  5
549F
331
6EB6
  5
54AC
331
6EB7
  5
56BD
331
6EB8
  5
56BE
331
6EB9
  5
56C0
331
6EBA
  5
56C2
331
6EBB
  5
56C5
331
6EBC
  5
56CF
331
6EBD
  5
56D1
331
6EBE
  5
56D3
331
6EBF
  5
56D4
331
6EC0
  5
56D6
331
6EC1
  5
56DB
331
6EC2
  5
56DC
331
6EC3
  5
56E1
331
6EC4
  5
56E3
331
6EC5
  5
56E4
331
6EC6
  5
56ED
331
6EC7
  5
56F7
331
6EC8
  5
56F8
331
6EC9
  5
56F9
331
6ECA
  5
56FA
331
6ECB
  5
57D2
331
6ECC
  5
57D3
331
6ECD
  5
5A54
331
6ECE
  5
5A55
331
6ECF
  5
5A56
331
6ED0
  5
5A57
331
6ED1
  5
5A58
331
6ED2
  5
5A59
331
6ED3
  5
5A5A
331
6ED4
  5
5A5E
331
6ED5
  5
5A5F
331
6ED6
  5
5A60
331
6ED7
  5
5A61
331
6ED8
  5
5A62
331
6ED9
  5
5A63
331
6EDA
  5
64B8
331
6EDB
  5
64BC
331
6EDC
  5
64BD
331
6EDD
  5
6D4A
331
6EDE
  5
6D4B
331
6EDF
  5
6D4C
331
6EE0
  5
6D4D
331
6EE1
  5
6D4E
331
6EE2
  5
6DF4
331
6EE3
  5
6DF5
331
6EE4
  5
6DF6
331
6EE5
  5
6DF7
331
6EE6
  5
6DF8
331
6EE7
  5
6DF9
331
6EE8
  5
6DFA
331
6EE9
  5
6DFE
331
6EEA
  5
6DFF
331
6EEB
  5
6E00
331
6EEC
  5
6E01
331
6EED
  5
6E02
331
6EEE
  5
6E03
331
6EEF
  5
6E04
331
6EF0
  5
6E22
331
6EF1
  5
6E23
331
6EF2
  5
6E24
331
6EF3
  5
6E25
331
6EF4
  5
6E26
331
6EF5
  5
6E27
331
6EF6
  5
6E28
331
6EF7
  5
6E2C
331
6EF8
  5
6E2D
331
6EF9
  5
6E2E
331
6EFA
  5
6E2F
331
6EFB
  5
6E30
331
6EFC
  5
6E31
331
6EFD
  5
6E32
331
6EFE
  5
6EF2
331
6EFF
  5
6EF3
331
6F00
  5
6EF4
331
6F01
  5
6EF5
331
6F02
  5
6EF6
331
6F03
  5
6EF7
331
6F04
  5
6EF8
  0
MATERIAL
  5
1BEE
102
{ACAD_REACTORS
330
2CF
102
}
102
{ACAD_XDICTIONARY
360
70A3
102
}
330
2CF
100
AcDbMaterial
  1
BYBLOCK
 72
     0
 73
     2
 43
0.0208333333333333
 43
0.0
 43
0.0
 43
0.0
 43
0.0
 43
0.0208333333333333
 43
0.0
 43
0.0
 43
0.0
 43
0.0
 43
1.0
 43
0.0
 43
0.0
 43
0.0
 43
0.0
 43
1.0
 77
     0
 78
     2
 47
0.0208333333333333
 47
0.0
 47
0.0
 47
0.0
 47
0.0
 47
0.0208333333333333
 47
0.0
 47
0.0
 47
0.0
 47
0.0
 47
1.0
 47
0.0
 47
0.0
 47
0.0
 47
0.0
 47
1.0
171
     0
172
     2
 49
0.0208333333333333
 49
0.0
 49
0.0
 49
0.0
 49
0.0
 49
0.0208333333333333
 49
0.0
 49
0.0
 49
0.0
 49
0.0
 49
1.0
 49
0.0
 49
0.0
 49
0.0
 49
0.0
 49
1.0
175
     0
176
     2
142
0.0208333333333333
142
0.0
142
0.0
142
0.0
142
0.0
142
0.0208333333333333
142
0.0
142
0.0
142
0.0
142
0.0
142
1.0
142
0.0
142
0.0
142
0.0
142
0.0
142
1.0
179
     0
270
     2
144
0.0208333333333333
144
0.0
144
0.0
144
0.0
144
0.0
144
0.0208333333333333
144
0.0
144
0.0
144
0.0
144
0.0
144
1.0
144
0.0
144
0.0
144
0.0
144
0.0
144
1.0
274
     2
147
0.0208333333333333
147
0.0
147
0.0
147
0.0
147
0.0
147
0.0208333333333333
147
0.0
147
0.0
147
0.0
147
0.0
147
1.0
147
0.0
147
0.0
147
0.0
147
0.0
147
1.0
  0
MATERIAL
  5
1BE6
102
{ACAD_REACTORS
330
2CF
102
}
102
{ACAD_XDICTIONARY
360
70A5
102
}
330
2CF
100
AcDbMaterial
  1
BYLAYER
 72
     0
 73
     2
 43
0.0208333333333333
 43
0.0
 43
0.0
 43
0.0
 43
0.0
 43
0.0208333333333333
 43
0.0
 43
0.0
 43
0.0
 43
0.0
 43
1.0
 43
0.0
 43
0.0
 43
0.0
 43
0.0
 43
1.0
 77
     0
 78
     2
 47
0.0208333333333333
 47
0.0
 47
0.0
 47
0.0
 47
0.0
 47
0.0208333333333333
 47
0.0
 47
0.0
 47
0.0
 47
0.0
 47
1.0
 47
0.0
 47
0.0
 47
0.0
 47
0.0
 47
1.0
171
     0
172
     2
 49
0.0208333333333333
 49
0.0
 49
0.0
 49
0.0
 49
0.0
 49
0.0208333333333333
 49
0.0
 49
0.0
 49
0.0
 49
0.0
 49
1.0
 49
0.0
 49
0.0
 49
0.0
 49
0.0
 49
1.0
175
     0
176
     2
142
0.0208333333333333
142
0.0
142
0.0
142
0.0
142
0.0
142
0.0208333333333333
142
0.0
142
0.0
142
0.0
142
0.0
142
1.0
142
0.0
142
0.0
142
0.0
142
0.0
142
1.0
179
     0
270
     2
144
0.0208333333333333
144
0.0
144
0.0
144
0.0
144
0.0
144
0.0208333333333333
144
0.0
144
0.0
144
0.0
144
0.0
144
1.0
144
0.0
144
0.0
144
0.0
144
0.0
144
1.0
274
     2
147
0.0208333333333333
147
0.0
147
0.0
147
0.0
147
0.0
147
0.0208333333333333
147
0.0
147
0.0
147
0.0
147
0.0
147
1.0
147
0.0
147
0.0
147
0.0
147
0.0
147
1.0
  0
MATERIAL
  5
1BF6
102
{ACAD_REACTORS
330
2CF
102
}
102
{ACAD_XDICTIONARY
360
70A7
102
}
330
2CF
100
AcDbMaterial
  1
GLOBAL
 72
     0
 73
     2
 43
0.0208333333333333
 43
0.0
 43
0.0
 43
0.0
 43
0.0
 43
0.0208333333333333
 43
0.0
 43
0.0
 43
0.0
 43
0.0
 43
1.0
 43
0.0
 43
0.0
 43
0.0
 43
0.0
 43
1.0
 77
     0
 78
     2
 47
0.0208333333333333
 47
0.0
 47
0.0
 47
0.0
 47
0.0
 47
0.0208333333333333
 47
0.0
 47
0.0
 47
0.0
 47
0.0
 47
1.0
 47
0.0
 47
0.0
 47
0.0
 47
0.0
 47
1.0
171
     0
172
     2
 49
0.0208333333333333
 49
0.0
 49
0.0
 49
0.0
 49
0.0
 49
0.0208333333333333
 49
0.0
 49
0.0
 49
0.0
 49
0.0
 49
1.0
 49
0.0
 49
0.0
 49
0.0
 49
0.0
 49
1.0
175
     0
176
     2
142
0.0208333333333333
142
0.0
142
0.0
142
0.0
142
0.0
142
0.0208333333333333
142
0.0
142
0.0
142
0.0
142
0.0
142
1.0
142
0.0
142
0.0
142
0.0
142
0.0
142
1.0
179
     0
270
     2
144
0.0208333333333333
144
0.0
144
0.0
144
0.0
144
0.0
144
0.0208333333333333
144
0.0
144
0.0
144
0.0
144
0.0
144
1.0
144
0.0
144
0.0
144
0.0
144
0.0
144
1.0
274
     2
147
0.0208333333333333
147
0.0
147
0.0
147
0.0
147
0.0
147
0.0208333333333333
147
0.0
147
0.0
147
0.0
147
0.0
147
1.0
147
0.0
147
0.0
147
0.0
147
0.0
147
1.0
  0
ACAD_PROXY_OBJECT
  5
1C32
102
{ACAD_REACTORS
330
1C31
102
}
330
1C31
100
AcDbZombieObject
 90
      499
 91
      512
 93
      610
310
40901902A4063FBFFFFFE000000000000002040AD7A3703D0AD73F4214DD185B99185C990000000000000104090141901A00000000000004100000000000000041025764000000000000300FC0
340
12
340
0
340
F
340
0
 94
        0
1001
ACAD
1000
AcRTDxfName
1000
MLEADERSTYLE
1001
ACAD_MLEADERVER
1070
     2
  0
MLINESTYLE
  5
1C
102
{ACAD_REACTORS
330
1B
102
}
330
1B
100
AcDbMlineStyle
  2
STANDARD
 70
     0
  3

 62
   256
 51
90.0
 52
90.0
 71
     2
 49
0.5
 62
   256
  6
BYLAYER
 49
-0.5
 62
   256
  6
BYLAYER
  0
ACAD_PROXY_OBJECT
  5
1C10
102
{ACAD_REACTORS
330
1C0F
102
}
330
1C0F
100
AcDbZombieObject
 90
      499
 91
      511
 93
       41
310
903313A31580
1001
ACAD
1000
AcRTDxfName
1000
SCALE
  0
ACAD_PROXY_OBJECT
  5
1C11
102
{ACAD_REACTORS
330
1C0F
102
}
330
1C0F
100
AcDbZombieObject
 90
      499
 91
      511
 93
      105
310
903313A324000000000000004000
1001
ACAD
1000
AcRTDxfName
1000
SCALE
  0
ACAD_PROXY_OBJECT
  5
1C12
102
{ACAD_REACTORS
330
1C0F
102
}
330
1C0F
100
AcDbZombieObject
 90
      499
 91
      511
 93
      105
310
903313A344000000000000104000
1001
ACAD
1000
AcRTDxfName
1000
SCALE
  0
ACAD_PROXY_OBJECT
  5
1C13
102
{ACAD_REACTORS
330
1C0F
102
}
330
1C0F
100
AcDbZombieObject
 90
      499
 91
      511
 93
      105
310
903313A354000000000000144000
1001
ACAD
1000
AcRTDxfName
1000
SCALE
  0
ACAD_PROXY_OBJECT
  5
1C14
102
{ACAD_REACTORS
330
1C0F
102
}
330
1C0F
100
AcDbZombieObject
 90
      499
 91
      511
 93
      105
310
903313A384000000000000204000
1001
ACAD
1000
AcRTDxfName
1000
SCALE
  0
ACAD_PROXY_OBJECT
  5
1C15
102
{ACAD_REACTORS
330
1C0F
102
}
330
1C0F
100
AcDbZombieObject
 90
      499
 91
      511
 93
      113
310
904313A31304000000000000244000
1001
ACAD
1000
AcRTDxfName
1000
SCALE
  0
ACAD_PROXY_OBJECT
  5
1C16
102
{ACAD_REACTORS
330
1C0F
102
}
330
1C0F
100
AcDbZombieObject
 90
      499
 91
      511
 93
      113
310
904313A31364000000000000304000
1001
ACAD
1000
AcRTDxfName
1000
SCALE
  0
ACAD_PROXY_OBJECT
  5
1C17
102
{ACAD_REACTORS
330
1C0F
102
}
330
1C0F
100
AcDbZombieObject
 90
      499
 91
      511
 93
      113
310
904313A32304000000000000344000
1001
ACAD
1000
AcRTDxfName
1000
SCALE
  0
ACAD_PROXY_OBJECT
  5
1C18
102
{ACAD_REACTORS
330
1C0F
102
}
330
1C0F
100
AcDbZombieObject
 90
      499
 91
      511
 93
      113
310
904313A333040000000000003E4000
1001
ACAD
1000
AcRTDxfName
1000
SCALE
  0
ACAD_PROXY_OBJECT
  5
1C19
102
{ACAD_REACTORS
330
1C0F
102
}
330
1C0F
100
AcDbZombieObject
 90
      499
 91
      511
 93
      113
310
904313A34304000000000000444000
1001
ACAD
1000
AcRTDxfName
1000
SCALE
  0
ACAD_PROXY_OBJECT
  5
1C1A
102
{ACAD_REACTORS
330
1C0F
102
}
330
1C0F
100
AcDbZombieObject
 90
      499
 91
      511
 93
      113
310
904313A35304000000000000494000
1001
ACAD
1000
AcRTDxfName
1000
SCALE
  0
ACAD_PROXY_OBJECT
  5
1C1B
102
{ACAD_REACTORS
330
1C0F
102
}
330
1C0F
100
AcDbZombieObject
 90
      499
 91
      511
 93
      121
310
905313A3130304000000000000594000
1001
ACAD
1000
AcRTDxfName
1000
SCALE
  0
ACAD_PROXY_OBJECT
  5
1C1C
102
{ACAD_REACTORS
330
1C0F
102
}
330
1C0F
100
AcDbZombieObject
 90
      499
 91
      511
 93
      105
310
903323A310000000000000010100
1001
ACAD
1000
AcRTDxfName
1000
SCALE
  0
ACAD_PROXY_OBJECT
  5
1C1D
102
{ACAD_REACTORS
330
1C0F
102
}
330
1C0F
100
AcDbZombieObject
 90
      499
 91
      511
 93
      105
310
903343A310000000000000410100
1001
ACAD
1000
AcRTDxfName
1000
SCALE
  0
ACAD_PROXY_OBJECT
  5
1C1E
102
{ACAD_REACTORS
330
1C0F
102
}
330
1C0F
100
AcDbZombieObject
 90
      499
 91
      511
 93
      105
310
903383A310000000000000810100
1001
ACAD
1000
AcRTDxfName
1000
SCALE
  0
ACAD_PROXY_OBJECT
  5
1C1F
102
{ACAD_REACTORS
330
1C0F
102
}
330
1C0F
100
AcDbZombieObject
 90
      499
 91
      511
 93
      113
310
90431303A310000000000000910100
1001
ACAD
1000
AcRTDxfName
1000
SCALE
  0
ACAD_PROXY_OBJECT
  5
1C20
102
{ACAD_REACTORS
330
1C0F
102
}
330
1C0F
100
AcDbZombieObject
 90
      499
 91
      511
 93
      121
310
9053130303A310000000000001650100
1001
ACAD
1000
AcRTDxfName
1000
SCALE
  0
ACAD_PROXY_OBJECT
  5
1C21
102
{ACAD_REACTORS
330
1C0F
102
}
330
1C0F
100
AcDbZombieObject
 90
      499
 91
      511
 93
      257
310
90E312F31323822203D2031272D3022000000000000200FC000000000000284000
1001
ACAD
1000
AcRTDxfName
1000
SCALE
  0
ACAD_PROXY_OBJECT
  5
1C22
102
{ACAD_REACTORS
330
1C0F
102
}
330
1C0F
100
AcDbZombieObject
 90
      499
 91
      511
 93
      249
310
90D312F363422203D2031272D3022000000000000240FC000000000000284000
1001
ACAD
1000
AcRTDxfName
1000
SCALE
  0
ACAD_PROXY_OBJECT
  5
1C23
102
{ACAD_REACTORS
330
1C0F
102
}
330
1C0F
100
AcDbZombieObject
 90
      499
 91
      511
 93
      249
310
90D312F333222203D2031272D3022000000000000280FC000000000000284000
1001
ACAD
1000
AcRTDxfName
1000
SCALE
  0
ACAD_PROXY_OBJECT
  5
1C24
102
{ACAD_REACTORS
330
1C0F
102
}
330
1C0F
100
AcDbZombieObject
 90
      499
 91
      511
 93
      249
310
90D312F313622203D2031272D30220000000000002C0FC000000000000284000
1001
ACAD
1000
AcRTDxfName
1000
SCALE
  0
ACAD_PROXY_OBJECT
  5
1C25
102
{ACAD_REACTORS
330
1C0F
102
}
330
1C0F
100
AcDbZombieObject
 90
      499
 91
      511
 93
      249
310
90D332F333222203D2031272D30220000000000002E0FC000000000000284000
1001
ACAD
1000
AcRTDxfName
1000
SCALE
  0
ACAD_PROXY_OBJECT
  5
1C26
102
{ACAD_REACTORS
330
1C0F
102
}
330
1C0F
100
AcDbZombieObject
 90
      499
 91
      511
 93
      241
310
90C312F3822203D2031272D3022000000000000300FC000000000000284000
1001
ACAD
1000
AcRTDxfName
1000
SCALE
  0
ACAD_PROXY_OBJECT
  5
1C27
102
{ACAD_REACTORS
330
1C0F
102
}
330
1C0F
100
AcDbZombieObject
 90
      499
 91
      511
 93
      249
310
90D332F313622203D2031272D3022000000000000320FC000000000000284000
1001
ACAD
1000
AcRTDxfName
1000
SCALE
  0
ACAD_PROXY_OBJECT
  5
1C28
102
{ACAD_REACTORS
330
1C0F
102
}
330
1C0F
100
AcDbZombieObject
 90
      499
 91
      511
 93
      241
310
90C312F3422203D2031272D3022000000000000340FC000000000000284000
1001
ACAD
1000
AcRTDxfName
1000
SCALE
  0
ACAD_PROXY_OBJECT
  5
1C29
102
{ACAD_REACTORS
330
1C0F
102
}
330
1C0F
100
AcDbZombieObject
 90
      499
 91
      511
 93
      241
310
90C332F3822203D2031272D3022000000000000360FC000000000000284000
1001
ACAD
1000
AcRTDxfName
1000
SCALE
  0
ACAD_PROXY_OBJECT
  5
1C2A
102
{ACAD_REACTORS
330
1C0F
102
}
330
1C0F
100
AcDbZombieObject
 90
      499
 91
      511
 93
      241
310
90C312F3222203D2031272D3022000000000000380FC000000000000284000
1001
ACAD
1000
AcRTDxfName
1000
SCALE
  0
ACAD_PROXY_OBJECT
  5
1C2B
102
{ACAD_REACTORS
330
1C0F
102
}
330
1C0F
100
AcDbZombieObject
 90
      499
 91
      511
 93
      241
310
90C332F3422203D2031272D30220000000000003A0FC000000000000284000
1001
ACAD
1000
AcRTDxfName
1000
SCALE
  0
ACAD_PROXY_OBJECT
  5
1C2C
102
{ACAD_REACTORS
330
1C0F
102
}
330
1C0F
100
AcDbZombieObject
 90
      499
 91
      511
 93
      161
310
90A3122203D2031272D30224000000000000284000
1001
ACAD
1000
AcRTDxfName
1000
SCALE
  0
ACAD_PROXY_OBJECT
  5
1C2D
102
{ACAD_REACTORS
330
1C0F
102
}
330
1C0F
100
AcDbZombieObject
 90
      499
 91
      511
 93
      257
310
90E312D312F3222203D2031272D30220000000000003E0FC000000000000284000
1001
ACAD
1000
AcRTDxfName
1000
SCALE
  0
ACAD_PROXY_OBJECT
  5
1C2E
102
{ACAD_REACTORS
330
1C0F
102
}
330
1C0F
100
AcDbZombieObject
 90
      499
 91
      511
 93
      225
310
90A3322203D2031272D302200000000000002100000000000000284000
1001
ACAD
1000
AcRTDxfName
1000
SCALE
  0
ACAD_PROXY_OBJECT
  5
1C2F
102
{ACAD_REACTORS
330
1C0F
102
}
330
1C0F
100
AcDbZombieObject
 90
      499
 91
      511
 93
      225
310
90A3622203D2031272D302200000000000006100000000000000284000
1001
ACAD
1000
AcRTDxfName
1000
SCALE
  0
ACAD_PROXY_OBJECT
  5
1C30
102
{ACAD_REACTORS
330
1C0F
102
}
330
1C0F
100
AcDbZombieObject
 90
      499
 91
      511
 93
      249
310
90D31272D3022203D2031272D30220000000000000A100000000000000284000
1001
ACAD
1000
AcRTDxfName
1000
SCALE
  0
ACAD_PROXY_OBJECT
  5
1C04
102
{ACAD_REACTORS
330
1BFE
102
}
330
1BFE
100
AcDbZombieObject
 90
      499
 91
      510
 93
      436
310
42CC9915DA5C99599C985B595049028333333333333E3BF0000000000000FB0107901411070040501600405405064090741402480A0340
1001
ACAD
1000
AcRTDxfName
1000
VISUALSTYLE
1000
AcDbSavedByObjectVersion
1070
     0
  0
ACAD_PROXY_OBJECT
  5
1C06
102
{ACAD_REACTORS
330
1BFE
102
}
330
1BFE
100
AcDbZombieObject
 90
      499
 91
      510
 93
      500
310
424CD108121A5919195B90640502408333333333333E3BF0000000000000FB01079024090700405020000000000001110200405405064090740C02480A0340
1001
ACAD
1000
AcRTDxfName
1000
VISUALSTYLE
1000
AcDbSavedByObjectVersion
1070
     0
  0
ACAD_PROXY_OBJECT
  5
1C05
102
{ACAD_REACTORS
330
1BFE
102
}
330
1BFE
100
AcDbZombieObject
 90
      499
 91
      510
 93
      436
310
42CCD915DA5C99599C985B595059028333333333333E3BF0000000000000FB0107901411070040501600405405064090741402480A0340
1001
ACAD
1000
AcRTDxfName
1000
VISUALSTYLE
1000
AcDbSavedByObjectVersion
1070
     0
  0
ACAD_PROXY_OBJECT
  5
1C03
102
{ACAD_REACTORS
330
1BFE
102
}
330
1BFE
100
AcDbZombieObject
 90
      499
 91
      510
 93
      388
310
4150985CDA58D07406404333333333333E3BF0000000000000FB0107A41107004050150841D405064090741402480A0350
1001
ACAD
1000
AcRTDxfName
1000
VISUALSTYLE
1000
AcDbSavedByObjectVersion
1070
     0
  0
ACAD_PROXY_OBJECT
  5
1C0A
102
{ACAD_REACTORS
330
1BFE
102
}
330
1BFE
100
AcDbZombieObject
 90
      499
 91
      510
 93
      428
310
42109C9A59DA1D195B90C409028333333333333E3BF0000000000000FB010790141107004050150841D405064090741402480A029950
1001
ACAD
1000
AcRTDxfName
1000
VISUALSTYLE
1000
AcDbSavedByObjectVersion
1070
     0
  0
ACAD_PROXY_OBJECT
  5
1C0E
102
{ACAD_REACTORS
330
1BFE
102
}
330
1BFE
100
AcDbZombieObject
 90
      499
 91
      510
 93
      452
310
42D0DBDB1BDC90DA185B99D95104090240C333333333333E3BF0000000000000FB0108901411070040501508421405064090741402480A0350
1001
ACAD
1000
AcRTDxfName
1000
VISUALSTYLE
1000
AcDbSavedByObjectVersion
1070
     0
  0
ACAD_PROXY_OBJECT
  5
1C07
102
{ACAD_REACTORS
330
1BFE
102
}
330
1BFE
100
AcDbZombieObject
 90
      499
 91
      510
 93
      500
310
4290DBDB98D95C1D1D585B10940D028333333333333E3BF0000000000000FB0107902409070040501000000000000111010841D405064090740C02480A0340
1001
ACAD
1000
AcRTDxfName
1000
VISUALSTYLE
1000
AcDbSavedByObjectVersion
1070
     0
  0
ACAD_PROXY_OBJECT
  5
1C09
102
{ACAD_REACTORS
330
1BFE
102
}
330
1BFE
100
AcDbZombieObject
 90
      499
 91
      510
 93
      412
310
40D11A5B50B409028333333333333E3BF0000000000000FB010790141107004050150841D405064090741402480A02677FFFFFD0
1001
ACAD
1000
AcRTDxfName
1000
VISUALSTYLE
1000
AcDbSavedByObjectVersion
1070
     0
  0
ACAD_PROXY_OBJECT
  5
5D96
102
{ACAD_REACTORS
330
1BFE
102
}
330
1BFE
100
AcDbZombieObject
 90
      499
 91
      510
 93
      452
310
43115919D950DBDB1BDC93D999916409028333333333333E3BF0000000000000FB010790141107004050150841D405064090741402480A0350
1001
ACAD
1000
AcDbSavedByObjectVersion
1070
     0
  0
ACAD_PROXY_OBJECT
  5
1C0D
102
{ACAD_REACTORS
330
1BFE
102
}
330
1BFE
100
AcDbZombieObject
 90
      499
 91
      510
 93
      444
310
42D19858D95C185D1D195C9B90F409028333333333333E3BF0000000000000FB010790141107004050150841D405064090741402480A0350
1001
ACAD
1000
AcRTDxfName
1000
VISUALSTYLE
1000
AcDbSavedByObjectVersion
1070
     0
  0
ACAD_PROXY_OBJECT
  5
1BFF
102
{ACAD_REACTORS
330
1BFE
102
}
330
1BFE
100
AcDbZombieObject
 90
      499
 91
      510
 93
      388
310
41119B185D240901404333333333333E3BF0000000000000F9010740A41107004050150841D405064090741402480A1B50
1001
ACAD
1000
AcRTDxfName
1000
VISUALSTYLE
1000
AcDbSavedByObjectVersion
1070
     0
  0
ACAD_PROXY_OBJECT
  5
1C00
102
{ACAD_REACTORS
330
1BFE
102
}
330
1BFE
100
AcDbZombieObject
 90
      499
 91
      510
 93
      476
310
43519B185D15DA5D1A115919D95CD0140901404333333333333E3BF0000000000000F9010740901411070040501600405405064090741402480A1B50
1001
ACAD
1000
AcRTDxfName
1000
VISUALSTYLE
1000
AcDbSavedByObjectVersion
1070
     0
  0
ACAD_PROXY_OBJECT
  5
1C01
102
{ACAD_REACTORS
330
1BFE
102
}
330
1BFE
100
AcDbZombieObject
 90
      499
 91
      510
 93
      412
310
41D1DBDD5C985D5910240902404333333333333E3BF0000000000000F9010740A411070040501641D405064090741402480A1B50
1001
ACAD
1000
AcRTDxfName
1000
VISUALSTYLE
1000
AcDbSavedByObjectVersion
1070
     0
  0
ACAD_PROXY_OBJECT
  5
1C02
102
{ACAD_REACTORS
330
1BFE
102
}
330
1BFE
100
AcDbZombieObject
 90
      499
 91
      510
 93
      500
310
4411DBDD5C985D5915DA5D1A115919D95CD0340902404333333333333E3BF0000000000000F9010740901411070040501600405405064090741402480A1B50
1001
ACAD
1000
AcRTDxfName
1000
VISUALSTYLE
1000
AcDbSavedByObjectVersion
1070
     0
  0
ACAD_PROXY_OBJECT
  5
6560
102
{ACAD_REACTORS
330
1BFE
102
}
330
1BFE
100
AcDbZombieObject
 90
      499
 91
      510
 93
      476
310
41921A5919195B90640502408333333333333E33F0000000000000F901079024090700405020000000000001110200405405064090740C02480A0340
1001
ACAD
1000
AcDbSavedByObjectVersion
1070
     0
  0
ACAD_PROXY_OBJECT
  5
5D94
102
{ACAD_REACTORS
330
1BFE
102
}
330
1BFE
100
AcDbZombieObject
 90
      499
 91
      510
 93
      428
310
42529A5D1D195C93D999914409028333333333333E3BF0000000000000FB010790141107004050150A41D405064090741402480A0350
1001
ACAD
1000
AcDbSavedByObjectVersion
1070
     0
  0
ACAD_PROXY_OBJECT
  5
1C0C
102
{ACAD_REACTORS
330
1BFE
102
}
330
1BFE
100
AcDbZombieObject
 90
      499
 91
      510
 93
      444
310
42D31A5B995C185D1D195C9B90E409028333333333333E3BF0000000000000FB010790141107004050750841D405064090741402483A0350
1001
ACAD
1000
AcRTDxfName
1000
VISUALSTYLE
1000
AcDbSavedByObjectVersion
1070
     0
  0
ACAD_PROXY_OBJECT
  5
6566
102
{ACAD_REACTORS
330
1BFE
102
}
330
1BFE
100
AcDbZombieObject
 90
      499
 91
      510
 93
      484
310
42135BD9195B1A5B99D0A409038333333333333E33F0000000000000F901074090290700405010000000000201990108421405064090741402480A1B40
1001
ACAD
1000
AcDbSavedByObjectVersion
1070
     0
  0
ACAD_PROXY_OBJECT
  5
5D95
102
{ACAD_REACTORS
330
1BFE
102
}
330
1BFE
100
AcDbZombieObject
 90
      499
 91
      510
 93
      444
310
42D3DD995C9A185B99D3D999915409028333333333333E3BF0000000000000FB010790141107004050150941D405064090741402480A0350
1001
ACAD
1000
AcDbSavedByObjectVersion
1070
     0
  0
ACAD_PROXY_OBJECT
  5
1C08
102
{ACAD_REACTORS
330
1BFE
102
}
330
1BFE
100
AcDbZombieObject
 90
      499
 91
      510
 93
      420
310
425499585B1A5CDD1A58D08409028333333333333E3BF0000000000000FB01079019070040501508421405064090741402480A1B40
1001
ACAD
1000
AcRTDxfName
1000
VISUALSTYLE
1000
AcDbSavedByObjectVersion
1070
     0
  0
ACAD_PROXY_OBJECT
  5
6565
102
{ACAD_REACTORS
330
1BFE
102
}
330
1BFE
100
AcDbZombieObject
 90
      499
 91
      510
 93
      420
310
4194DA1859195911B40902404333333333333E33F0000000000000F9010740A41107004050150800405405064090840C02480A0B40
1001
ACAD
1000
AcDbSavedByObjectVersion
1070
     0
  0
ACAD_PROXY_OBJECT
  5
6564
102
{ACAD_REACTORS
330
1BFE
102
}
330
1BFE
100
AcDbZombieObject
 90
      499
 91
      510
 93
      516
310
4454DA18591959081DDA5D1A08195919D95CD1A40902404333333333333E33F0000000000000F901074090142907004050250800405405064090740C02480A0B40
1001
ACAD
1000
AcDbSavedByObjectVersion
1070
     0
  0
ACAD_PROXY_OBJECT
  5
6561
102
{ACAD_REACTORS
330
1BFE
102
}
330
1BFE
100
AcDbZombieObject
 90
      499
 91
      510
 93
      532
310
4394DA1859195CC81BD98811DC985E5174090240C333333333333E33F0000000000000F901079024090741D01000000000000111010841D405064090740C02480A0340
1001
ACAD
1000
AcDbSavedByObjectVersion
1070
     0
  0
ACAD_PROXY_OBJECT
  5
6562
102
{ACAD_REACTORS
330
1BFE
102
}
330
1BFE
100
AcDbZombieObject
 90
      499
 91
      510
 93
      476
310
41D4DAD95D18DA1E51840502408333333333333E33F0000000000000F901079024090741D01000000000000111010B41D405064090741802480A0340
1001
ACAD
1000
AcDbSavedByObjectVersion
1070
     0
  0
ACAD_PROXY_OBJECT
  5
1C0B
102
{ACAD_REACTORS
330
1BFE
102
}
330
1BFE
100
AcDbZombieObject
 90
      499
 91
      510
 93
      412
310
41D51A1A58DAD95B90D409028333333333333E3BF0000000000000FB010790141107004050150C41D405064090741402480A0350
1001
ACAD
1000
AcRTDxfName
1000
VISUALSTYLE
1000
AcDbSavedByObjectVersion
1070
     0
  0
ACAD_PROXY_OBJECT
  5
655F
102
{ACAD_REACTORS
330
1BFE
102
}
330
1BFE
100
AcDbZombieObject
 90
      499
 91
      510
 93
      420
310
4255DA5C99599C985B595059028333333333333E33F0000000000000F90107901411070040501600405405064090740C02480A0340
1001
ACAD
1000
AcDbSavedByObjectVersion
1070
     0
  0
ACAD_PROXY_OBJECT
  5
6563
102
{ACAD_REACTORS
330
1BFE
102
}
330
1BFE
100
AcDbZombieObject
 90
      499
 91
      510
 93
      404
310
41560B54985E51940902404000000000000E03F0000000000000F9010740501907004050150841D405064090740C02480A1B40
1001
ACAD
1000
AcDbSavedByObjectVersion
1070
     0
  0
XRECORD
  5
6F06
102
{ACAD_REACTORS
330
6F05
102
}
330
6F05
100
AcDbXrecord
340
2D0
  0
XRECORD
  5
6F07
102
{ACAD_REACTORS
330
6F05
102
}
330
6F05
100
AcDbXrecord
340
2CF
  0
DICTIONARYVAR
  5
1CDB
102
{ACAD_REACTORS
330
37
102
}
330
37
100
DictionaryVariables
280
     0
  1
1:1
  0
DICTIONARYVAR
  5
1CDA
102
{ACAD_REACTORS
330
37
102
}
330
37
100
DictionaryVariables
280
     0
  1
Standard
  0
DICTIONARYVAR
  5
4FB
102
{ACAD_REACTORS
330
37
102
}
330
37
100
DictionaryVariables
280
     0
  1
Standard
  0
DICTIONARYVAR
  5
38
102
{ACAD_REACTORS
330
37
102
}
330
37
100
DictionaryVariables
280
     0
  1
-1
  0
DICTIONARYVAR
  5
408
102
{ACAD_REACTORS
330
37
102
}
330
37
100
DictionaryVariables
280
     0
  1
2
  0
DICTIONARYVAR
  5
56F
102
{ACAD_REACTORS
330
37
102
}
330
37
100
DictionaryVariables
280
     0
  1
1
  0
DICTIONARYVAR
  5
1CDD
102
{ACAD_REACTORS
330
37
102
}
330
37
100
DictionaryVariables
280
     0
  1
0
  0
DICTIONARYVAR
  5
573
102
{ACAD_REACTORS
330
37
102
}
330
37
100
DictionaryVariables
280
     0
  1
8
  0
DICTIONARYVAR
  5
572
102
{ACAD_REACTORS
330
37
102
}
330
37
100
DictionaryVariables
280
     0
  1
1
  0
DICTIONARYVAR
  5
55E0
102
{ACAD_REACTORS
330
37
102
}
330
37
100
DictionaryVariables
280
     0
  1
0
  0
DICTIONARYVAR
  5
6D50
102
{ACAD_REACTORS
330
37
102
}
330
37
100
DictionaryVariables
280
     0
  1
0
  0
DICTIONARYVAR
  5
570
102
{ACAD_REACTORS
330
37
102
}
330
37
100
DictionaryVariables
280
     0
  1
8
  0
DICTIONARYVAR
  5
571
102
{ACAD_REACTORS
330
37
102
}
330
37
100
DictionaryVariables
280
     0
  1
2
  0
DICTIONARYVAR
  5
409
102
{ACAD_REACTORS
330
37
102
}
330
37
100
DictionaryVariables
280
     0
  1

  0
DICTIONARYVAR
  5
1CDC
102
{ACAD_REACTORS
330
37
102
}
330
37
100
DictionaryVariables
280
     0
  1
127
  0
DICTIONARYVAR
  5
655E
102
{ACAD_REACTORS
330
37
102
}
330
37
100
DictionaryVariables
280
     0
  1
2
  0
DICTIONARY
  5
70A3
330
1BEE
100
AcDbDictionary
  3
ACAD_XREC_ROUNDTRIP
360
70A4
1001
ACAD
1000
TREAT_AS_HARD
1070
     1
  0
DICTIONARY
  5
70A5
330
1BE6
100
AcDbDictionary
  3
ACAD_XREC_ROUNDTRIP
360
70A6
1001
ACAD
1000
TREAT_AS_HARD
1070
     1
  0
DICTIONARY
  5
70A7
330
1BF6
100
AcDbDictionary
  3
ACAD_XREC_ROUNDTRIP
360
70A8
1001
ACAD
1000
TREAT_AS_HARD
1070
     1
  0
XRECORD
  5
70A4
102
{ACAD_REACTORS
330
70A3
102
}
330
70A3
100
AcDbXrecord
102
MATERIAL
148
0.0
149
0.0
149
0.0
 93
        0
 94
      127
282
     0
 72
     0
 77
     0
171
     0
175
     0
179
     0
273
     0
  0
XRECORD
  5
70A6
102
{ACAD_REACTORS
330
70A5
102
}
330
70A5
100
AcDbXrecord
102
MATERIAL
148
0.0
149
0.0
149
0.0
 93
        0
 94
      127
282
     0
 72
     0
 77
     0
171
     0
175
     0
179
     0
273
     0
  0
XRECORD
  5
70A8
102
{ACAD_REACTORS
330
70A7
102
}
330
70A7
100
AcDbXrecord
102
MATERIAL
148
0.0
149
0.0
149
0.0
 93
        0
 94
      127
282
     0
 72
     0
 77
     0
171
     0
175
     0
179
     0
273
     0
  0
ENDSEC
  0
EOF
