  0
SECTION
  2
HEADER
  9
$ACADVER
  1
AC1009
  9
$INSBASE
 10
0.0
 20
0.0
 30
0.0
  9
$EXTMIN
 10
581.97101798432766
 20
-1355.8575151691241
 30
0.0
  9
$EXTMAX
 10
926.36891739976124
 20
-1101.561483792161
 30
0.0
  9
$LIMMIN
 10
0.0
 20
0.0
  9
$LIMMAX
 10
420.0
 20
297.0
  9
$ORTHOMODE
 70
     0
  9
$REGENMODE
 70
     1
  9
$FILLMODE
 70
     1
  9
$QTEXTMODE
 70
     0
  9
$MIRRTEXT
 70
     0
  9
$DRAGMODE
 70
     2
  9
$LTSCALE
 40
0.5
  9
$OSMODE
 70
  2175
  9
$ATTMODE
 70
     1
  9
$TEXTSIZE
 40
4.0
  9
$TRACEWID
 40
1.0
  9
$TEXTSTYLE
  7
STANDARD
  9
$CLAYER
  8
1TEXT
  9
$CELTYPE
  6
BYLAYER
  9
$CECOLOR
 62
   256
  9
$DIMSCALE
 40
1.0
  9
$DIMASZ
 40
2.0
  9
$DIMEXO
 40
0.0
  9
$DIMDLI
 40
7.0
  9
$DIMRND
 40
0.0
  9
$DIMDLE
 40
0.0
  9
$DIMEXE
 40
1.0
  9
$DIMTP
 40
0.0
  9
$DIMTM
 40
0.0
  9
$DIMTXT
 40
3.5
  9
$DIMCEN
 40
0.0
  9
$DIMTSZ
 40
0.0
  9
$DIMTOL
 70
     0
  9
$DIMLIM
 70
     0
  9
$DIMTIH
 70
     0
  9
$DIMTOH
 70
     0
  9
$DIMSE1
 70
     0
  9
$DIMSE2
 70
     0
  9
$DIMTAD
 70
     1
  9
$DIMZIN
 70
     8
  9
$DIMBLK
  1

  9
$DIMASO
 70
     1
  9
$DIMSHO
 70
     1
  9
$DIMPOST
  1
 
  9
$DIMAPOST
  1

  9
$DIMALT
 70
     0
  9
$DIMALTD
 70
     2
  9
$DIMALTF
 40
25.399999999999999
  9
$DIMLFAC
 40
1.0
  9
$DIMTOFL
 70
     1
  9
$DIMTVP
 40
0.0
  9
$DIMTIX
 70
     0
  9
$DIMSOXD
 70
     0
  9
$DIMSAH
 70
     1
  9
$DIMBLK1
  1
OPEN30
  9
$DIMBLK2
  1
OPEN30
  9
$DIMSTYLE
  2
NEWX10
  9
$DIMCLRD
 70
   256
  9
$DIMCLRE
 70
   256
  9
$DIMCLRT
 70
   201
  9
$DIMTFAC
 40
0.7
  9
$DIMGAP
 40
0.7
  9
$LUNITS
 70
     2
  9
$LUPREC
 70
     4
  9
$SKETCHINC
 40
1.0
  9
$FILLETRAD
 40
0.0
  9
$AUNITS
 70
     0
  9
$AUPREC
 70
     2
  9
$MENU
  1
acad
  9
$ELEVATION
 40
0.0
  9
$PELEVATION
 40
0.0
  9
$THICKNESS
 40
0.0
  9
$LIMCHECK
 70
     0
  9
$BLIPMODE
 70
     0
  9
$CHAMFERA
 40
1.0
  9
$CHAMFERB
 40
1.0
  9
$SKPOLY
 70
     0
  9
$TDCREATE
 40
2453033.7326634838
  9
$TDUPDATE
 40
2455048.4418558222
  9
$TDINDWG
 40
1.8431273264000001
  9
$TDUSRTIMER
 40
1.8431273264000001
  9
$USRTIMER
 70
     1
  9
$ANGBASE
 50
0.0
  9
$ANGDIR
 70
     0
  9
$PDMODE
 70
     0
  9
$PDSIZE
 40
0.0
  9
$PLINEWID
 40
0.0
  9
$COORDS
 70
     2
  9
$SPLFRAME
 70
     0
  9
$SPLINETYPE
 70
     6
  9
$SPLINESEGS
 70
     8
  9
$ATTDIA
 70
     0
  9
$ATTREQ
 70
     1
  9
$HANDLING
 70
     1
  9
$HANDSEED
  5
1C5B2
  9
$SURFTAB1
 70
     6
  9
$SURFTAB2
 70
     6
  9
$SURFTYPE
 70
     6
  9
$SURFU
 70
     6
  9
$SURFV
 70
     6
  9
$UCSNAME
  2

  9
$UCSORG
 10
0.0
 20
0.0
 30
0.0
  9
$UCSXDIR
 10
1.0
 20
0.0
 30
0.0
  9
$UCSYDIR
 10
0.0
 20
1.0
 30
0.0
  9
$PUCSNAME
  2

  9
$PUCSORG
 10
0.0
 20
0.0
 30
0.0
  9
$PUCSXDIR
 10
1.0
 20
0.0
 30
0.0
  9
$PUCSYDIR
 10
0.0
 20
1.0
 30
0.0
  9
$USERI1
 70
     0
  9
$USERI2
 70
     0
  9
$USERI3
 70
     0
  9
$USERI4
 70
     0
  9
$USERI5
 70
     0
  9
$USERR1
 40
0.0
  9
$USERR2
 40
0.0
  9
$USERR3
 40
0.0
  9
$USERR4
 40
0.0
  9
$USERR5
 40
0.0
  9
$WORLDVIEW
 70
     1
  9
$SHADEDGE
 70
     3
  9
$SHADEDIF
 70
    70
  9
$TILEMODE
 70
     1
  9
$MAXACTVP
 70
    48
  9
$PLIMCHECK
 70
     0
  9
$PEXTMIN
 10
1.0000000000000000E+020
 20
1.0000000000000000E+020
 30
1.0000000000000000E+020
  9
$PEXTMAX
 10
-1.0000000000000000E+020
 20
-1.0000000000000000E+020
 30
-1.0000000000000000E+020
  9
$PLIMMIN
 10
0.0
 20
0.0
  9
$PLIMMAX
 10
420.0
 20
297.0
  9
$UNITMODE
 70
     0
  9
$VISRETAIN
 70
     1
  9
$PLINEGEN
 70
     0
  9
$PSLTSCALE
 70
     1
  0
ENDSEC
  0
SECTION
  2
TABLES
  0
TABLE
  2
VPORT
 70
     1
  0
VPORT
  2
*ACTIVE
 70
     0
 10
0.0
 20
0.0
 11
1.0
 21
1.0
 12
754.15895101290437
 22
-1228.733056794134
 13
0.0
 23
0.0
 14
10.0
 24
10.0
 15
10.0
 25
10.0
 16
0.0
 26
0.0
 36
1.0
 17
0.0
 27
0.0
 37
0.0
 40
269.75982125952692
 41
1.4123581336696089
 42
50.0
 43
0.0
 44
0.0
 50
0.0
 51
0.0
 71
     0
 72
   100
 73
     1
 74
     1
 75
     0
 76
     0
 77
     0
 78
     0
  0
ENDTAB
  0
TABLE
  2
LTYPE
 70
    17
  0
LTYPE
  2
CONTINUOUS
 70
     0
  3
Solid line
 72
    65
 73
     0
 40
0.0
  0
LTYPE
  2
CENTER2
 70
     0
  3
Center (.5x) ___ _ ___ _ ___ _ ___ _ ___ _ ___
 72
    65
 73
     4
 40
28.574999999999999
 49
19.050000000000001
 49
-3.1749999999999989
 49
3.1749999999999989
 49
-3.1749999999999989
  0
LTYPE
  2
PHANTOM2
 70
     0
  3
Phantom (.5x) ___ _ _ ___ _ _ ___ _ _ ___ _ _
 72
    65
 73
     6
 40
31.75
 49
15.875
 49
-3.1749999999999989
 49
3.1749999999999989
 49
-3.1749999999999989
 49
3.1749999999999989
 49
-3.1749999999999989
  0
ENDTAB
  0
TABLE
  2
LAYER
 70
    44
  0
LAYER
  2
0
 70
     0
 62
     7
  6
CONTINUOUS
  0
LAYER
  2
1CENTER
 70
     0
 62
     7
  6
CENTER2
  0
LAYER
  2
1TEXT
 70
     0
 62
     7
  6
CONTINUOUS
  0
LAYER
  2
1DIM
 70
     0
 62
     7
  6
CONTINUOUS
  0
LAYER
  2
1PHANTOM
 70
     0
 62
     7
  6
PHANTOM2
  0
LAYER
  2
01
 70
     0
 62
     1
  6
CONTINUOUS
  0
LAYER
  2
1HATCH
 70
     0
 62
     7
  6
CONTINUOUS
  0
ENDTAB
  0
TABLE
  2
STYLE
 70
    22
  0
STYLE
  2
STANDARD
 70
     0
 40
0.0
 41
1.0
 50
0.0
 71
     0
 42
4.0
  3
txt.shx
  4
extfont.shx
  0
ENDTAB
  0
TABLE
  2
VIEW
 70
     0
  0
ENDTAB
  0
TABLE
  2
UCS
 70
     0
  0
ENDTAB
  0
TABLE
  2
APPID
 70
    11
  0
APPID
  2
ACAD
 70
     0
  0
APPID
  2
DRAWINGVARIABLESXDATA
 70
     0
  0
APPID
  2
CONTENTTABDATA
 70
     0
  0
APPID
  2
CONTENTCURRENTTAB
 70
     0
  0
APPID
  2
CONTENTBLOCKDESCRIPTION
 70
     0
  0
APPID
  2
CONTENTBLOCKICON
 70
     0
  0
APPID
  2
CONTENTLONGBLOCKNAME
 70
     0
  0
APPID
  2
ACAD_PSEXT
 70
     0
  0
APPID
  2
ACAD_DSTYLE_DIMTEXT_FILL
 70
     0
  0
APPID
  2
ACAD_MLEADERVER
 70
     0
  0
APPID
  2
ACAD_DSTYLE_DIMRADIAL_EXTENSION
 70
     0
  0
ENDTAB
  0
TABLE
  2
DIMSTYLE
 70
     9
  0
DIMSTYLE
  2
NEWX10
 70
     0
  3
 
  4

  5

  6
OPEN30
  7
OPEN30
 40
1.0
 41
2.0
 42
0.0
 43
7.0
 44
1.0
 45
0.0
 46
0.0
 47
0.0
 48
0.0
140
3.5
141
0.0
142
0.0
143
25.399999999999999
144
1.0
145
0.0
146
0.7
147
0.7
 71
     0
 72
     0
 73
     0
 74
     0
 75
     0
 76
     0
 77
     1
 78
     8
170
     0
171
     2
172
     1
173
     1
174
     0
175
     0
176
   256
177
   256
178
   201
  0
ENDTAB
  0
ENDSEC
  0
SECTION
  2
BLOCKS
  0
BLOCK
  8
0
  2
$MODEL_SPACE
 70
     0
 10
0.0
 20
0.0
 30
0.0
  3
$MODEL_SPACE
  1

  0
ENDBLK
  5
1A
  8
0
  0
BLOCK
 67
     1
  8
0
  2
$PAPER_SPACE
 70
     0
 10
0.0
 20
0.0
 30
0.0
  3
$PAPER_SPACE
  1

  0
ENDBLK
  5
17
 67
     1
  8
0
  0
BLOCK
  8
0
  2
_OPEN30
 70
     0
 10
0.0
 20
0.0
 30
0.0
  3
_OPEN30
  1

  0
LINE
  5
44
  8
0
  6
BYBLOCK
 62
     0
 10
-1.0
 20
0.26794919
 30
0.0
 11
0.0
 21
0.0
 31
0.0
  0
LINE
  5
45
  8
0
  6
BYBLOCK
 62
     0
 10
0.0
 20
0.0
 30
0.0
 11
-1.0
 21
-0.26794919
 31
0.0
  0
LINE
  5
46
  8
0
  6
BYBLOCK
 62
     0
 10
0.0
 20
0.0
 30
0.0
 11
-1.0
 21
0.0
 31
0.0
  0
ENDBLK
  5
47
  8
0
  0
BLOCK
  8
0
  2
*X38
 70
     1
 10
0.0
 20
0.0
 30
0.0
  3
*X38
  1

  0
LINE
  5
1C063
  8
0
 62
     0
 10
9.7770988726544452
 20
7.7925254709365239
 30
0.0
 11
9.0307181557708205
 21
8.5389061878201495
 31
0.0
  0
LINE
  5
1C064
  8
0
 62
     0
 10
10.322251332597521
 20
6.5738538019132688
 30
0.0
 11
8.8225373759713577
 21
8.0735677585394292
 31
0.0
  0
LINE
  5
1C065
  8
0
 62
     0
 10
10.867403792540591
 20
5.3551821328900138
 30
0.0
 11
8.6143565961718984
 21
7.6082293292587053
 31
0.0
  0
LINE
  5
1C066
  8
0
 62
     0
 10
11.412556252483659
 20
4.136510463866756
 30
0.0
 11
8.4061758163724356
 21
7.1428908999779814
 31
0.0
  0
LINE
  5
1C067
  8
0
 62
     0
 10
6.2911286292475204
 20
8.5844188780227135
 30
0.0
 11
6.1124475072789997
 21
8.7630999999912298
 31
0.0
  0
LINE
  5
1C068
  8
0
 62
     0
 10
11.957708712426729
 20
2.9178387948435001
 30
0.0
 11
8.1979950365729728
 21
6.6775524706972567
 31
0.0
  0
LINE
  5
1C069
  8
0
 62
     0
 10
9.0654651928517787
 20
5.1365631053382614
 30
0.0
 11
7.989814256773502
 21
6.2122140414165399
 31
0.0
  0
LINE
  5
1C06A
  8
0
 62
     0
 10
5.9930398744017381
 20
8.2089884237883055
 30
0.0
 11
5.438928298198813
 21
8.7630999999912262
 31
0.0
  0
LINE
  5
1C06B
  8
0
 62
     0
 10
12.5028611723698
 20
1.6991671258202381
 30
0.0
 11
9.6861187725028461
 21
4.5159095256871922
 31
0.0
  0
LINE
  5
1C06C
  8
0
 62
     0
 10
8.8573263393301218
 20
4.6711827497797351
 30
0.0
 11
7.7816334769740427
 21
5.7468756121358133
 31
0.0
  0
LINE
  5
1C06D
  8
0
 62
     0
 10
5.6949511195559586
 20
7.833557969553901
 30
0.0
 11
4.7654090891186227
 21
8.7630999999912333
 31
0.0
  0
LINE
  5
1C06E
  8
0
 62
     0
 10
13.04801363231287
 20
0.4804954567969837
 30
0.0
 11
9.8575090891135417
 21
3.6709999999963152
 31
0.0
  0
LINE
  5
1C06F
  8
0
 62
     0
 10
8.6491874858084685
 20
4.2058023942212079
 30
0.0
 11
7.5734526971745844
 21
5.2815371828550894
 31
0.0
  0
LINE
  5
1C070
  8
0
 62
     0
 10
10.486589880032041
 20
2.3683999999976271
 30
0.0
 11
9.1839898800333586
 21
3.6709999999963152
 31
0.0
  0
LINE
  5
1C071
  8
0
 62
     0
 10
5.3968623647101772
 20
7.4581275153194957
 30
0.0
 11
4.3851460338715276
 21
8.4698438461581453
 31
0.0
  0
LINE
  5
1C072
  8
0
 62
     0
 10
12.85498988002967
 20
0.0000000000000036
 30
0.0
 11
10.776724564353451
 21
2.0782653156762221
 31
0.0
  0
LINE
  5
1C073
  8
0
 62
     0
 10
8.4410486322868046
 20
3.740422038662675
 30
0.0
 11
7.3652719173751144
 21
4.8161987535743647
 31
0.0
  0
LINE
  5
1C074
  8
0
 62
     0
 10
9.813070670951852
 20
2.3683999999976271
 30
0.0
 11
8.5104706709531648
 21
3.6709999999963152
 31
0.0
  0
LINE
  5
1C075
  8
0
 62
     0
 10
5.0987736098643914
 20
7.0826970610850877
 30
0.0
 11
4.0870494697762574
 21
8.0944212011732262
 31
0.0
  0
LINE
  5
1C076
  8
0
 62
     0
 10
12.181470670949469
 20
0.0000000000000036
 30
0.0
 11
11.321403329084941
 21
0.8600673418645357
 31
0.0
  0
LINE
  5
1C077
  8
0
 62
     0
 10
4.8006848550186119
 20
6.7072666068506797
 30
0.0
 11
3.788952905680989
 21
7.7189985561883034
 31
0.0
  0
LINE
  5
1C078
  8
0
 62
     0
 10
9.1395514618716671
 20
2.368399999997624
 30
0.0
 11
7.1570911375756507
 21
4.3508603242936408
 31
0.0
  0
LINE
  5
1C079
  8
0
 62
     0
 10
4.5025961001728367
 20
6.3318361526162716
 30
0.0
 11
3.490856341585729
 21
7.3435759112033798
 31
0.0
  0
LINE
  5
1C07A
  8
0
 62
     0
 10
8.4660322527914822
 20
2.3683999999976271
 30
0.0
 11
6.9489103577761924
 21
3.8855218950129169
 31
0.0
  0
LINE
  5
1C07B
  8
0
 62
     0
 10
4.2045073453270581
 20
5.9564056983818681
 30
0.0
 11
3.1927597774904579
 21
6.9681532662184678
 31
0.0
  0
LINE
  5
1C07C
  8
0
 62
     0
 10
7.8163375605411778
 20
2.3445754831677479
 30
0.0
 11
6.7407295779767287
 21
3.420183465732197
 31
0.0
  0
LINE
  5
1C07D
  8
0
 62
     0
 10
3.9064185904812798
 20
5.58097524414746
 30
0.0
 11
2.8946632133951939
 21
6.5927306212335486
 31
0.0
  0
LINE
  5
1C07E
  8
0
 62
     0
 10
7.608103533524992
 20
1.879290301103747
 30
0.0
 11
6.5325487981772703
 21
2.95484503645147
 31
0.0
  0
LINE
  5
1C07F
  8
0
 62
     0
 10
3.608329835635494
 20
5.2055447899130591
 30
0.0
 11
2.596566649299926
 21
6.2173079762486259
 31
0.0
  0
LINE
  5
1C080
  8
0
 62
     0
 10
7.3998695065088071
 20
1.414005119039746
 30
0.0
 11
6.3243680183778066
 21
2.4895066071707461
 31
0.0
  0
LINE
  5
1C081
  8
0
 62
     0
 10
3.3102410807897189
 20
4.830114335678644
 30
0.0
 11
2.2984700852046478
 21
5.8418853312637138
 31
0.0
  0
LINE
  5
1C082
  8
0
 62
     0
 10
7.1916354794926098
 20
0.9487199369757526
 30
0.0
 11
6.1161872385783367
 21
2.0241681778900249
 31
0.0
  0
LINE
  5
1C083
  8
0
 62
     0
 10
3.9787458917354419
 20
3.488090315652737
 30
0.0
 11
2.0003735211093878
 21
5.4664626862787946
 31
0.0
  0
LINE
  5
1C084
  8
0
 62
     0
 10
6.9834014524764241
 20
0.4834347549117553
 30
0.0
 11
5.9080064587788739
 21
1.558829748609309
 31
0.0
  0
LINE
  5
1C085
  8
0
 62
     0
 10
5.377063484962445
 20
1.4162535133455481
 30
0.0
 11
1.702276957014117
 21
5.091040041293879
 31
0.0
  0
LINE
  5
1C086
  8
0
 62
     0
 10
6.7751674254602392
 20
0.0181495728477543
 30
0.0
 11
5.6998256789794146
 21
1.093491319328578
 31
0.0
  0
LINE
  5
1C087
  8
0
 62
     0
 10
6.1197977892278033
 20
0.0
 30
0.0
 11
1.4998967256424749
 21
4.6199010635853313
 31
0.0
  0
LINE
  5
1C088
  8
0
 62
     0
 10
5.446278580147613
 20
0.0000000000000036
 30
0.0
 11
2.8981959083357078
 21
2.5480826718119109
 31
0.0
  0
LINE
  5
1C089
  8
0
 62
     0
 10
4.7727593710674334
 20
0.0
 30
0.0
 11
4.2964950910289303
 21
0.4762642800385031
 31
0.0
  0
LINE
  5
1C08A
  8
0
 62
     0
 10
13.00415357385187
 20
-0.0000000000000018
 30
0.0
 11
13.182966351006311
 21
0.1788127771544303
 31
0.0
  0
LINE
  5
1C08B
  8
0
 62
     0
 10
12.330634364771679
 20
-0.0000000000000018
 30
0.0
 11
12.9747989676379
 21
0.6441646028662138
 31
0.0
  0
LINE
  5
1C08C
  8
0
 62
     0
 10
11.690865076542529
 20
0.0337499208510312
 30
0.0
 11
12.766631584269501
 21
1.109516428577997
 31
0.0
  0
LINE
  5
1C08D
  8
0
 62
     0
 10
11.482766800126511
 20
0.4991708535151976
 30
0.0
 11
12.55846420090109
 21
1.5748682542897781
 31
0.0
  0
LINE
  5
1C08E
  8
0
 62
     0
 10
11.27466852371049
 20
0.9645917861793603
 30
0.0
 11
12.350296817532691
 21
2.040220080001558
 31
0.0
  0
LINE
  5
1C08F
  8
0
 62
     0
 10
11.06657024729447
 20
1.430012718843531
 30
0.0
 11
12.142129434164289
 21
2.5055719057133472
 31
0.0
  0
LINE
  5
1C090
  8
0
 62
     0
 10
10.858471970878449
 20
1.8954336515076911
 30
0.0
 11
11.933962050795881
 21
2.9709237314251289
 31
0.0
  0
LINE
  5
1C091
  8
0
 62
     0
 10
10.650373694462431
 20
2.3608545841718618
 30
0.0
 11
11.725794667427479
 21
3.436275557136911
 31
0.0
  0
LINE
  5
1C092
  8
0
 62
     0
 10
9.9843999012080111
 20
2.3683999999976271
 30
0.0
 11
11.517627284059071
 21
3.9016273828486918
 31
0.0
  0
LINE
  5
1C093
  8
0
 62
     0
 10
9.3108806921278227
 20
2.368399999997624
 30
0.0
 11
11.309459900690671
 21
4.3669792085604717
 31
0.0
  0
LINE
  5
1C094
  8
0
 62
     0
 10
8.6373614830476342
 20
2.3683999999976222
 30
0.0
 11
9.9399614830463161
 21
3.6709999999963041
 31
0.0
  0
LINE
  5
1C095
  8
0
 62
     0
 10
10.02566815382859
 20
3.756706670778577
 30
0.0
 11
11.101292517322261
 21
4.8323310342722561
 31
0.0
  0
LINE
  5
1C096
  8
0
 62
     0
 10
6.2689614830500089
 20
-0.0000000000000036
 30
0.0
 11
7.1705359785639722
 21
0.9015744955139624
 31
0.0
  0
LINE
  5
1C097
  8
0
 62
     0
 10
7.9638422739674493
 20
2.368399999997624
 30
0.0
 11
9.2664422739661312
 21
3.670999999996309
 31
0.0
  0
LINE
  5
1C098
  8
0
 62
     0
 10
9.8175293003069317
 20
4.2220870263371078
 30
0.0
 11
10.893125133953861
 21
5.2976828599840413
 31
0.0
  0
LINE
  5
1C099
  8
0
 62
     0
 10
5.5954422739698186
 20
-0.0000000000000036
 30
0.0
 11
7.7161457314298563
 21
2.120703457460031
 31
0.0
  0
LINE
  5
1C09A
  8
0
 62
     0
 10
9.6093904467852731
 20
4.6874673818956341
 30
0.0
 11
10.68495775058545
 21
5.7630346856958168
 31
0.0
  0
LINE
  5
1C09B
  8
0
 62
     0
 10
4.9219230648896364
 20
-0.0000000000000036
 30
0.0
 11
8.5929230648859445
 21
3.6709999999963059
 31
0.0
  0
LINE
  5
1C09C
  8
0
 62
     0
 10
5.9895866546067298
 20
1.741182798797277
 30
0.0
 11
8.8069504072332272
 21
4.5585465514237731
 31
0.0
  0
LINE
  5
1C09D
  8
0
 62
     0
 10
9.4012515932636127
 20
5.1528477374541568
 30
0.0
 11
10.47679036721706
 21
6.228386511407602
 31
0.0
  0
LINE
  5
1C09E
  8
0
 62
     0
 10
4.4690293080327272
 20
0.220625452223274
 30
0.0
 11
5.4929510052665789
 21
1.2445471494571221
 31
0.0
  0
LINE
  5
1C09F
  8
0
 62
     0
 10
6.5348309996187073
 20
2.9599463528894439
 30
0.0
 11
10.268622983848649
 21
6.6937383371193881
 31
0.0
  0
LINE
  5
1C0A0
  8
0
 62
     0
 10
4.1976317719622713
 20
0.6227471252330084
 30
0.0
 11
5.2215527756531692
 21
1.646668128923906
 31
0.0
  0
LINE
  5
1C0A1
  8
0
 62
     0
 10
7.0800753446306919
 20
4.1787099069816112
 30
0.0
 11
10.06045560048025
 21
7.1590901628311663
 31
0.0
  0
LINE
  5
1C0A2
  8
0
 62
     0
 10
3.9262342358918261
 20
1.024868798242742
 30
0.0
 11
4.9501545460397622
 21
2.048789108390682
 31
0.0
  0
LINE
  5
1C0A3
  8
0
 62
     0
 10
7.6253196896426738
 20
5.3974734610737833
 30
0.0
 11
9.8522882171118429
 21
7.6244419885429506
 31
0.0
  0
LINE
  5
1C0A4
  8
0
 62
     0
 10
3.6548366998213728
 20
1.4269904712524799
 30
0.0
 11
4.6787563164263526
 21
2.4509100878574621
 31
0.0
  0
LINE
  5
1C0A5
  8
0
 62
     0
 10
8.1705640346546602
 20
6.6162370151659511
 30
0.0
 11
9.6441208337434432
 21
8.0897938142547368
 31
0.0
  0
LINE
  5
1C0A6
  8
0
 62
     0
 10
3.3834391637509209
 20
1.829112144262214
 30
0.0
 11
4.4073580868129509
 21
2.8530310673242449
 31
0.0
  0
LINE
  5
1C0A7
  8
0
 62
     0
 10
8.7158083796666457
 20
7.8350005692581242
 30
0.0
 11
9.4359534503750382
 21
8.5551456399665184
 31
0.0
  0
LINE
  5
1C0A8
  8
0
 62
     0
 10
3.1120416276804721
 20
2.2312338172719488
 30
0.0
 11
4.135959857199544
 21
3.2551520467910229
 31
0.0
  0
LINE
  5
1C0A9
  8
0
 62
     0
 10
2.8406440916100268
 20
2.6333554902816898
 30
0.0
 11
3.8645616275861392
 21
3.6572730262578061
 31
0.0
  0
LINE
  5
1C0AA
  8
0
 62
     0
 10
2.569246555539574
 20
3.0354771632914281
 30
0.0
 11
3.5931633979727291
 21
4.0593940057245801
 31
0.0
  0
LINE
  5
1C0AB
  8
0
 62
     0
 10
2.2978490194691221
 20
3.4375988363011589
 30
0.0
 11
3.3217651683593248
 21
4.4615149851913642
 31
0.0
  0
LINE
  5
1C0AC
  8
0
 62
     0
 10
2.0264514833986729
 20
3.8397205093108968
 30
0.0
 11
4.4410409048522244
 21
6.2543099307644487
 31
0.0
  0
LINE
  5
1C0AD
  8
0
 62
     0
 10
1.755053947328221
 20
4.2418421823206351
 30
0.0
 11
6.2763117649988143
 21
8.7630999999912262
 31
0.0
  0
LINE
  5
1C0AE
  8
0
 62
     0
 10
1.4836564112577759
 20
4.6439638553303757
 30
0.0
 11
5.6027925559186293
 21
8.763099999991228
 31
0.0
  0
LINE
  5
1C0AF
  8
0
 62
     0
 10
3.4180230436981311
 20
7.2518496968509156
 30
0.0
 11
4.92927334683844
 21
8.7630999999912262
 31
0.0
  0
ENDBLK
  5
1C0B1
  8
0
  0
BLOCK
  8
0
  2
*X39
 70
     1
 10
0.0
 20
0.0
 30
0.0
  3
*X39
  1

  0
LINE
  5
1C0B3
  8
0
 62
     0
 10
22.35085874201091
 20
8.6891497831837885
 30
0.0
 11
22.276908525203481
 21
8.7630999999912245
 31
0.0
  0
LINE
  5
1C0B4
  8
0
 62
     0
 10
22.151277991235791
 20
8.2152113248787302
 30
0.0
 11
21.603389316123291
 21
8.7630999999912298
 31
0.0
  0
LINE
  5
1C0B5
  8
0
 62
     0
 10
21.951697240460661
 20
7.7412728665736728
 30
0.0
 11
20.929870107043101
 21
8.7630999999912333
 31
0.0
  0
LINE
  5
1C0B6
  8
0
 62
     0
 10
21.75211648968552
 20
7.2673344082686171
 30
0.0
 11
20.702990440798828
 21
8.316460457155312
 31
0.0
  0
LINE
  5
1C0B7
  8
0
 62
     0
 10
21.5525357389104
 20
6.7933959499635597
 30
0.0
 11
20.503465933167231
 21
7.8424657557067263
 31
0.0
  0
LINE
  5
1C0B8
  8
0
 62
     0
 10
21.35295498813527
 20
6.3194574916584996
 30
0.0
 11
20.30394142553563
 21
7.3684710542581371
 31
0.0
  0
LINE
  5
1C0B9
  8
0
 62
     0
 10
21.15337423736014
 20
5.845519033353443
 30
0.0
 11
20.104416917904029
 21
6.8944763528095541
 31
0.0
  0
LINE
  5
1C0BA
  8
0
 62
     0
 10
20.95379348658501
 20
5.3715805750483874
 30
0.0
 11
19.904892410272438
 21
6.4204816513609622
 31
0.0
  0
LINE
  5
1C0BB
  8
0
 62
     0
 10
20.75421273580988
 20
4.8976421167433299
 30
0.0
 11
19.70536790264083
 21
5.9464869499123756
 31
0.0
  0
LINE
  5
1C0BC
  8
0
 62
     0
 10
16.751727645058011
 20
8.2266079984150124
 30
0.0
 11
16.329146420583751
 21
8.6491892228892837
 31
0.0
  0
LINE
  5
1C0BD
  8
0
 62
     0
 10
20.554631985034749
 20
4.4237036584382743
 30
0.0
 11
19.50584339500924
 21
5.4724922484637899
 31
0.0
  0
LINE
  5
1C0BE
  8
0
 62
     0
 10
17.157498711507898
 20
7.1473177228849449
 30
0.0
 11
16.1451172495203
 21
8.1596991848725438
 31
0.0
  0
LINE
  5
1C0BF
  8
0
 62
     0
 10
20.355051234259619
 20
3.9497652001332169
 30
0.0
 11
19.306318887377628
 21
4.9984975470152051
 31
0.0
  0
LINE
  5
1C0C0
  8
0
 62
     0
 10
17.563269777957782
 20
6.0680274473548748
 30
0.0
 11
15.96108807845685
 21
7.6702091468558073
 31
0.0
  0
LINE
  5
1C0C1
  8
0
 62
     0
 10
20.1554704834845
 20
3.4758267418281572
 30
0.0
 11
19.106794379746042
 21
4.524502845566615
 31
0.0
  0
LINE
  5
1C0C2
  8
0
 62
     0
 10
17.969040844407651
 20
4.9887371718248117
 30
0.0
 11
15.777058907393389
 21
7.1807191088390701
 31
0.0
  0
LINE
  5
1C0C3
  8
0
 62
     0
 10
19.955889732709359
 20
3.0018882835231011
 30
0.0
 11
18.90726987211443
 21
4.0505081441180302
 31
0.0
  0
LINE
  5
1C0C4
  8
0
 62
     0
 10
18.374811910857531
 20
3.9094468962947531
 30
0.0
 11
15.593029736329941
 21
6.6912290708223408
 31
0.0
  0
LINE
  5
1C0C5
  8
0
 62
     0
 10
19.756308981934229
 20
2.5279498252180441
 30
0.0
 11
18.707745364482829
 21
3.576513442669444
 31
0.0
  0
LINE
  5
1C0C6
  8
0
 62
     0
 10
16.383620680228649
 20
5.2271189178434412
 30
0.0
 11
15.40900056526649
 21
6.2017390328056008
 31
0.0
  0
LINE
  5
1C0C7
  8
0
 62
     0
 10
19.556728231159099
 20
2.054011366912988
 30
0.0
 11
16.631513964169631
 21
4.9792256339024661
 31
0.0
  0
LINE
  5
1C0C8
  8
0
 62
     0
 10
16.199567903464452
 20
4.7376524855274553
 30
0.0
 11
15.22497139420304
 21
5.7122489947888679
 31
0.0
  0
LINE
  5
1C0C9
  8
0
 62
     0
 10
19.357147480383979
 20
1.580072908607931
 30
0.0
 11
17.037094792289292
 21
3.900125596702618
 31
0.0
  0
LINE
  5
1C0CA
  8
0
 62
     0
 10
16.015515126700251
 20
4.248186053211473
 30
0.0
 11
15.04094222313959
 21
5.222758956772128
 31
0.0
  0
LINE
  5
1C0CB
  8
0
 62
     0
 10
12.41513331849073
 20
7.8485678614209879
 30
0.0
 11
11.500601179920491
 21
8.7630999999912298
 31
0.0
  0
LINE
  5
1C0CC
  8
0
 62
     0
 10
19.157566729608849
 20
1.1061344503028709
 30
0.0
 11
17.442675620408959
 21
2.8210255595027638
 31
0.0
  0
LINE
  5
1C0CD
  8
0
 62
     0
 10
15.83146234993605
 20
3.7587196208954872
 30
0.0
 11
14.856913052076131
 21
4.7332689187553987
 31
0.0
  0
LINE
  5
1C0CE
  8
0
 62
     0
 10
12.905113043106191
 20
6.685068927725343
 30
0.0
 11
10.8270819708403
 21
8.7630999999912298
 31
0.0
  0
LINE
  5
1C0CF
  8
0
 62
     0
 10
18.957985978833712
 20
0.6321959919978184
 30
0.0
 11
17.848256448528609
 21
1.7419255223029211
 31
0.0
  0
LINE
  5
1C0D0
  8
0
 62
     0
 10
15.64740957317184
 20
3.269253188579504
 30
0.0
 11
14.67288388101268
 21
4.2437788807386703
 31
0.0
  0
LINE
  5
1C0D1
  8
0
 62
     0
 10
13.39509276772166
 20
5.5215699940296901
 30
0.0
 11
10.81938524622541
 21
8.0972775155259402
 31
0.0
  0
LINE
  5
1C0D2
  8
0
 62
     0
 10
18.758405228058589
 20
0.1582575336927618
 30
0.0
 11
18.25383727664828
 21
0.6628254851030704
 31
0.0
  0
LINE
  5
1C0D3
  8
0
 62
     0
 10
13.88507249233713
 20
4.3580710603340327
 30
0.0
 11
11.309334920393139
 21
6.9338086322780192
 31
0.0
  0
LINE
  5
1C0D4
  8
0
 62
     0
 10
15.463356796407639
 20
2.7797867562635221
 30
0.0
 11
14.48885470994923
 21
3.7542888427219259
 31
0.0
  0
LINE
  5
1C0D5
  8
0
 62
     0
 10
15.27930401964343
 20
2.2903203239475398
 30
0.0
 11
11.799284594560859
 21
5.7703397490301027
 31
0.0
  0
LINE
  5
1C0D6
  8
0
 62
     0
 10
15.095251242879231
 20
1.8008538916315571
 30
0.0
 11
12.289234268728601
 21
4.6068708657821844
 31
0.0
  0
LINE
  5
1C0D7
  8
0
 62
     0
 10
14.91119846611503
 20
1.3113874593155721
 30
0.0
 11
12.77918394289633
 21
3.4434019825342679
 31
0.0
  0
LINE
  5
1C0D8
  8
0
 62
     0
 10
14.727145689350831
 20
0.8219210269995863
 30
0.0
 11
13.26913361706406
 21
2.2799330992863531
 31
0.0
  0
LINE
  5
1C0D9
  8
0
 62
     0
 10
14.543092912586619
 20
0.3324545946836075
 30
0.0
 11
13.759083291231789
 21
1.116464216038433
 31
0.0
  0
LINE
  5
1C0DA
  8
0
 62
     0
 10
14.35904013582242
 20
-0.1570118376323784
 30
0.0
 11
14.24903296539952
 21
-0.0470046672094817
 31
0.0
  0
LINE
  5
1C0DB
  8
0
 62
     0
 10
18.472732853319201
 20
0.0804256068258322
 30
0.0
 11
18.909598183420702
 21
0.5172909369273402
 31
0.0
  0
LINE
  5
1C0DC
  8
0
 62
     0
 10
18.288742822226251
 20
0.5699547848130706
 30
0.0
 11
19.399547857588441
 21
1.6807598201752609
 31
0.0
  0
LINE
  5
1C0DD
  8
0
 62
     0
 10
18.104752791133301
 20
1.0594839628003101
 30
0.0
 11
19.88949753175617
 21
2.8442287034231848
 31
0.0
  0
LINE
  5
1C0DE
  8
0
 62
     0
 10
17.920762760040351
 20
1.5490131407875469
 30
0.0
 11
20.37944720592391
 21
4.0076975866711049
 31
0.0
  0
LINE
  5
1C0DF
  8
0
 62
     0
 10
17.7367727289474
 20
2.03854231877478
 30
0.0
 11
20.869396880091649
 21
5.1711664699190258
 31
0.0
  0
LINE
  5
1C0E0
  8
0
 62
     0
 10
18.78517998154943
 20
3.7604687804569989
 30
0.0
 11
21.359346554259389
 21
6.3346353531669521
 31
0.0
  0
LINE
  5
1C0E1
  8
0
 62
     0
 10
17.552782697854461
 20
2.5280714967620241
 30
0.0
 11
18.527644990681829
 21
3.5029337895893979
 31
0.0
  0
LINE
  5
1C0E2
  8
0
 62
     0
 10
17.368792666761511
 20
3.0176006747492572
 30
0.0
 11
18.343615819618378
 21
3.992423827606133
 31
0.0
  0
LINE
  5
1C0E3
  8
0
 62
     0
 10
19.274790844948878
 20
4.923598852936629
 30
0.0
 11
21.849296228427121
 21
7.4981042364148713
 31
0.0
  0
LINE
  5
1C0E4
  8
0
 62
     0
 10
14.26537659496468
 20
-0.0858153970475737
 30
0.0
 11
14.458390432740149
 21
0.1071984407278972
 31
0.0
  0
LINE
  5
1C0E5
  8
0
 62
     0
 10
17.184802635668561
 20
3.5071298527365
 30
0.0
 11
18.159586648554932
 21
4.481913865622869
 31
0.0
  0
LINE
  5
1C0E6
  8
0
 62
     0
 10
19.76440170834832
 20
6.0867289254162618
 30
0.0
 11
22.339245902594861
 21
8.6615731196627976
 31
0.0
  0
LINE
  5
1C0E7
  8
0
 62
     0
 10
14.065795844189539
 20
0.3881230612574828
 30
0.0
 11
14.864276280939301
 21
1.1866034980072371
 31
0.0
  0
LINE
  5
1C0E8
  8
0
 62
     0
 10
17.000812604575611
 20
3.9966590307237371
 30
0.0
 11
17.975557477491481
 21
4.9714039036396018
 31
0.0
  0
LINE
  5
1C0E9
  8
0
 62
     0
 10
20.254012571747769
 20
7.2498589978958936
 30
0.0
 11
21.76725357384311
 21
8.7630999999912262
 31
0.0
  0
LINE
  5
1C0EA
  8
0
 62
     0
 10
13.86621509341442
 20
0.8620615195625411
 30
0.0
 11
15.27016212913845
 21
2.266008555286573
 31
0.0
  0
LINE
  5
1C0EB
  8
0
 62
     0
 10
16.816822573482661
 20
4.4861882087109741
 30
0.0
 11
17.791528306428031
 21
5.46089394165634
 31
0.0
  0
LINE
  5
1C0EC
  8
0
 62
     0
 10
20.743623435147221
 20
8.4129890703755272
 30
0.0
 11
21.09373436476292
 21
8.7630999999912262
 31
0.0
  0
LINE
  5
1C0ED
  8
0
 62
     0
 10
13.66663434263929
 20
1.3359999778676039
 30
0.0
 11
15.6760479773376
 21
3.3454136125659151
 31
0.0
  0
LINE
  5
1C0EE
  8
0
 62
     0
 10
16.632832542389721
 20
4.9757173866982116
 30
0.0
 11
17.607499135364581
 21
5.9503839796730746
 31
0.0
  0
LINE
  5
1C0EF
  8
0
 62
     0
 10
13.467053591864159
 20
1.8099384361726569
 30
0.0
 11
16.081933825536751
 21
4.4248186698452487
 31
0.0
  0
LINE
  5
1C0F0
  8
0
 62
     0
 10
14.338823056022481
 20
3.355227109411163
 30
0.0
 11
17.42346996430113
 21
6.439874017689811
 31
0.0
  0
LINE
  5
1C0F1
  8
0
 62
     0
 10
13.267472841089029
 20
2.283876894477717
 30
0.0
 11
14.316709015467771
 21
3.3331130688564552
 31
0.0
  0
LINE
  5
1C0F2
  8
0
 62
     0
 10
14.74459412247235
 20
4.4345173849412234
 30
0.0
 11
17.23944079323768
 21
6.9293640557065457
 31
0.0
  0
LINE
  5
1C0F3
  8
0
 62
     0
 10
13.067892090313901
 20
2.757815352782774
 30
0.0
 11
14.11712327849466
 21
3.807046540963531
 31
0.0
  0
LINE
  5
1C0F4
  8
0
 62
     0
 10
15.15036518892223
 20
5.5138076604712882
 30
0.0
 11
17.055411622174219
 21
7.4188540937232821
 31
0.0
  0
LINE
  5
1C0F5
  8
0
 62
     0
 10
12.86831133953878
 20
3.231753811087839
 30
0.0
 11
13.917537541521551
 21
4.2809800130706073
 31
0.0
  0
LINE
  5
1C0F6
  8
0
 62
     0
 10
15.55613625537211
 20
6.5930979360013513
 30
0.0
 11
16.871382451110769
 21
7.908344131740014
 31
0.0
  0
LINE
  5
1C0F7
  8
0
 62
     0
 10
12.668730588763649
 20
3.7056922693928889
 30
0.0
 11
13.71795180454844
 21
4.7549134851776813
 31
0.0
  0
LINE
  5
1C0F8
  8
0
 62
     0
 10
15.96190732182199
 20
7.6723882115314179
 30
0.0
 11
16.687353280047319
 21
8.3978341697567522
 31
0.0
  0
LINE
  5
1C0F9
  8
0
 62
     0
 10
12.469149837988519
 20
4.1796307276979494
 30
0.0
 11
13.518366067575331
 21
5.228846957284758
 31
0.0
  0
LINE
  5
1C0FA
  8
0
 62
     0
 10
16.367678388271859
 20
8.7516784870614792
 30
0.0
 11
16.503324108983868
 21
8.8873242077734886
 31
0.0
  0
LINE
  5
1C0FB
  8
0
 62
     0
 10
12.269569087213389
 20
4.6535691860030042
 30
0.0
 11
13.31878033060222
 21
5.7027804293918312
 31
0.0
  0
LINE
  5
1C0FC
  8
0
 62
     0
 10
12.069988336438261
 20
5.127507644308066
 30
0.0
 11
13.119194593629111
 21
6.1767139014989079
 31
0.0
  0
LINE
  5
1C0FD
  8
0
 62
     0
 10
11.870407585663131
 20
5.6014461026131244
 30
0.0
 11
12.919608856655991
 21
6.6506473736059819
 31
0.0
  0
LINE
  5
1C0FE
  8
0
 62
     0
 10
11.670826834888009
 20
6.0753845609181818
 30
0.0
 11
12.72002311968288
 21
7.1245808457130604
 31
0.0
  0
LINE
  5
1C0FF
  8
0
 62
     0
 10
11.47124608411287
 20
6.5493230192232348
 30
0.0
 11
12.520437382709771
 21
7.5985143178201344
 31
0.0
  0
LINE
  5
1C100
  8
0
 62
     0
 10
11.271665333337751
 20
7.0232614775282949
 30
0.0
 11
12.32085164573666
 21
8.0724477899272067
 31
0.0
  0
LINE
  5
1C101
  8
0
 62
     0
 10
11.072084582562621
 20
7.4971999358333523
 30
0.0
 11
12.121265908763551
 21
8.5463812620342843
 31
0.0
  0
LINE
  5
1C102
  8
0
 62
     0
 10
10.87250383178749
 20
7.9711383941384097
 30
0.0
 11
11.66446543764031
 21
8.7630999999912262
 31
0.0
  0
LINE
  5
1C103
  8
0
 62
     0
 10
10.67292308101236
 20
8.4450768524434672
 30
0.0
 11
10.99094622856011
 21
8.7630999999912245
 31
0.0
  0
ENDBLK
  5
1C105
  8
0
  0
BLOCK
  8
0
  2
*X40
 70
     1
 10
0.0
 20
0.0
 30
0.0
  3
*X40
  1

  0
LINE
  5
1C107
  8
0
 62
     0
 10
30.741999999969259
 20
8.3802390341876851
 30
0.0
 11
30.359139034165711
 21
8.7630999999912333
 31
0.0
  0
LINE
  5
1C108
  8
0
 62
     0
 10
30.741999999969259
 20
7.7067198251075002
 30
0.0
 11
29.685619825085521
 21
8.7630999999912316
 31
0.0
  0
LINE
  5
1C109
  8
0
 62
     0
 10
30.741999999969249
 20
7.0332006160273179
 30
0.0
 11
29.301999999969301
 21
8.4732006160272721
 31
0.0
  0
LINE
  5
1C10A
  8
0
 62
     0
 10
30.741999999969241
 20
6.3596814069471366
 30
0.0
 11
29.30199999996929
 21
7.7996814069470846
 31
0.0
  0
LINE
  5
1C10B
  8
0
 62
     0
 10
30.741999999969241
 20
5.6861621978669517
 30
0.0
 11
29.301999999969301
 21
7.1261621978668996
 31
0.0
  0
LINE
  5
1C10C
  8
0
 62
     0
 10
30.741999999969241
 20
5.0126429887867694
 30
0.0
 11
29.30199999996929
 21
6.45264298878672
 31
0.0
  0
LINE
  5
1C10D
  8
0
 62
     0
 10
30.741999999969241
 20
4.3391237797065862
 30
0.0
 11
29.301999999969301
 21
5.7791237797065298
 31
0.0
  0
LINE
  5
1C10E
  8
0
 62
     0
 10
30.741999999969231
 20
3.6656045706263991
 30
0.0
 11
29.30199999996929
 21
5.1056045706263431
 31
0.0
  0
LINE
  5
1C10F
  8
0
 62
     0
 10
30.741999999969231
 20
2.9920853615462182
 30
0.0
 11
29.30199999996929
 21
4.4320853615461591
 31
0.0
  0
LINE
  5
1C110
  8
0
 62
     0
 10
30.74137885356642
 20
2.3191872988688451
 30
0.0
 11
29.30199999996929
 21
3.7585661524659741
 31
0.0
  0
LINE
  5
1C111
  8
0
 62
     0
 10
23.710791431224379
 20
8.6762555121307035
 30
0.0
 11
23.510711655846691
 21
8.8763352875083879
 31
0.0
  0
LINE
  5
1C112
  8
0
 62
     0
 10
30.653036364041888
 20
1.7340105793131939
 30
0.0
 11
29.301999999969301
 21
3.0850469433857848
 31
0.0
  0
LINE
  5
1C113
  8
0
 62
     0
 10
24.25604244399905
 20
7.4574852902758373
 30
0.0
 11
23.302508550376061
 21
8.4110191838988264
 31
0.0
  0
LINE
  5
1C114
  8
0
 62
     0
 10
30.457920628587861
 20
1.2556071056870299
 30
0.0
 11
29.30199999996929
 21
2.4115277343055999
 31
0.0
  0
LINE
  5
1C115
  8
0
 62
     0
 10
24.801293456773731
 20
6.2387150684209711
 30
0.0
 11
23.094305444905441
 21
7.9457030802892676
 31
0.0
  0
LINE
  5
1C116
  8
0
 62
     0
 10
30.183774082486231
 20
0.8562344427084749
 30
0.0
 11
29.190608894965969
 21
1.8493996302287361
 31
0.0
  0
LINE
  5
1C117
  8
0
 62
     0
 10
25.346544469548409
 20
5.0199448465661041
 30
0.0
 11
22.8861023394348
 21
7.4803869766797142
 31
0.0
  0
LINE
  5
1C118
  8
0
 62
     0
 10
29.839662784186881
 20
0.526826531927636
 30
0.0
 11
28.85882922779124
 21
1.5076600883232769
 31
0.0
  0
LINE
  5
1C119
  8
0
 62
     0
 10
25.89179548232309
 20
3.8011746247112401
 30
0.0
 11
22.677899233964169
 21
7.0150708730701608
 31
0.0
  0
LINE
  5
1C11A
  8
0
 62
     0
 10
29.42460021066384
 20
0.2683698963704924
 30
0.0
 11
28.30987010704311
 21
1.383099999991223
 31
0.0
  0
LINE
  5
1C11B
  8
0
 62
     0
 10
26.437046495097771
 20
2.5824044028563722
 30
0.0
 11
23.619927020197391
 21
5.399523877756752
 31
0.0
  0
LINE
  5
1C11C
  8
0
 62
     0
 10
23.545403308011299
 20
5.4740475899428409
 30
0.0
 11
22.469696128493538
 21
6.5497547694606011
 31
0.0
  0
LINE
  5
1C11D
  8
0
 62
     0
 10
28.926753096604909
 20
0.0926978013492281
 30
0.0
 11
27.636350897962942
 21
1.3830999999912019
 31
0.0
  0
LINE
  5
1C11E
  8
0
 62
     0
 10
23.337264454489642
 20
5.008667234384319
 30
0.0
 11
22.261493023022911
 21
6.084438665851045
 31
0.0
  0
LINE
  5
1C11F
  8
0
 62
     0
 10
28.312831688882731
 20
0.0330999999912241
 30
0.0
 11
24.16488385994823
 21
4.1810478289257267
 31
0.0
  0
LINE
  5
1C120
  8
0
 62
     0
 10
23.129125600967981
 20
4.5432868788257892
 30
0.0
 11
22.053289917552281
 21
5.6191225622414862
 31
0.0
  0
LINE
  5
1C121
  8
0
 62
     0
 10
27.639312479802548
 20
0.0330999999912223
 30
0.0
 11
24.001412479797459
 21
3.6709999999963112
 31
0.0
  0
LINE
  5
1C122
  8
0
 62
     0
 10
24.630493270715959
 20
2.368399999997624
 30
0.0
 11
23.327893270717269
 21
3.6709999999963112
 31
0.0
  0
LINE
  5
1C123
  8
0
 62
     0
 10
22.920986747446321
 20
4.077906523267262
 30
0.0
 11
21.84508681208165
 21
5.1538064586319328
 31
0.0
  0
LINE
  5
1C124
  8
0
 62
     0
 10
26.965793270722362
 20
0.0330999999912223
 30
0.0
 11
25.25541323119716
 21
1.7434800395164269
 31
0.0
  0
LINE
  5
1C125
  8
0
 62
     0
 10
23.95697406163578
 20
2.368399999997624
 30
0.0
 11
21.63688370661102
 21
4.6884903550223767
 31
0.0
  0
LINE
  5
1C126
  8
0
 62
     0
 10
26.292274061642178
 20
0.0330999999912223
 30
0.0
 11
25.800091995928678
 21
0.5252820657047224
 31
0.0
  0
LINE
  5
1C127
  8
0
 62
     0
 10
23.283454852555579
 20
2.368399999997624
 30
0.0
 11
21.428680601140389
 21
4.2231742514128214
 31
0.0
  0
LINE
  5
1C128
  8
0
 62
     0
 10
22.609935643475399
 20
2.3683999999976271
 30
0.0
 11
21.220477495669758
 21
3.757858147803268
 31
0.0
  0
LINE
  5
1C129
  8
0
 62
     0
 10
22.088110666590779
 20
2.2167057678020612
 30
0.0
 11
21.012274390199131
 21
3.2925420441937092
 31
0.0
  0
LINE
  5
1C12A
  8
0
 62
     0
 10
21.87987663957459
 20
1.75142058573806
 30
0.0
 11
20.804071284728501
 21
2.8272259405841531
 31
0.0
  0
LINE
  5
1C12B
  8
0
 62
     0
 10
21.671642612558401
 20
1.286135403674066
 30
0.0
 11
20.59586817925787
 21
2.3619098369745961
 31
0.0
  0
LINE
  5
1C12C
  8
0
 62
     0
 10
21.463408585542211
 20
0.820850221610069
 30
0.0
 11
20.38766507378724
 21
1.89659373336504
 31
0.0
  0
LINE
  5
1C12D
  8
0
 62
     0
 10
21.255174558526019
 20
0.3555650395460681
 30
0.0
 11
20.179461968316609
 21
1.4312776297554839
 31
0.0
  0
LINE
  5
1C12E
  8
0
 62
     0
 10
20.937220388991911
 20
0.0
 30
0.0
 11
19.971258862845978
 21
0.9659615261459286
 31
0.0
  0
LINE
  5
1C12F
  8
0
 62
     0
 10
20.263701179911731
 20
-0.0000000000000036
 30
0.0
 11
19.763055757375351
 21
0.5006454225363691
 31
0.0
  0
LINE
  5
1C130
  8
0
 62
     0
 10
19.59018197083153
 20
0.0
 30
0.0
 11
19.55485265190471
 21
0.0353293189268129
 31
0.0
  0
LINE
  5
1C131
  8
0
 62
     0
 10
29.449030297223398
 20
0.2804157054470497
 30
0.0
 11
30.494684294513409
 21
1.326069702737052
 31
0.0
  0
LINE
  5
1C132
  8
0
 62
     0
 10
28.531798056793392
 20
0.0367026740972145
 30
0.0
 11
30.738397325863239
 21
2.2433019431670731
 31
0.0
  0
LINE
  5
1C133
  8
0
 62
     0
 10
27.854676173607199
 20
0.0330999999912205
 30
0.0
 11
30.741999999969231
 21
2.9204238263532529
 31
0.0
  0
LINE
  5
1C134
  8
0
 62
     0
 10
29.291023385505738
 20
2.1429664209699419
 30
0.0
 11
30.741999999969241
 21
3.5939430354334392
 31
0.0
  0
LINE
  5
1C135
  8
0
 62
     0
 10
27.181156964527009
 20
0.0330999999912178
 30
0.0
 11
28.542133578990569
 21
1.3940766144547789
 31
0.0
  0
LINE
  5
1C136
  8
0
 62
     0
 10
29.301999999969301
 20
2.8274622445136872
 30
0.0
 11
30.741999999969241
 21
4.2674622445136281
 31
0.0
  0
LINE
  5
1C137
  8
0
 62
     0
 10
26.507637755446829
 20
0.0330999999912196
 30
0.0
 11
27.85763775544682
 21
1.383099999991207
 31
0.0
  0
LINE
  5
1C138
  8
0
 62
     0
 10
29.30199999996929
 20
3.5009814535938699
 30
0.0
 11
30.741999999969241
 21
4.9409814535938184
 31
0.0
  0
LINE
  5
1C139
  8
0
 62
     0
 10
25.962675489584221
 20
0.1616569432088069
 30
0.0
 11
27.184118546366602
 21
1.3830999999911811
 31
0.0
  0
LINE
  5
1C13A
  8
0
 62
     0
 10
29.30199999996929
 20
4.1745006626740588
 30
0.0
 11
30.741999999969241
 21
5.6145006626740086
 31
0.0
  0
LINE
  5
1C13B
  8
0
 62
     0
 10
25.754577213168211
 20
0.6270778758729732
 30
0.0
 11
26.830480932483631
 21
1.7029815951884011
 31
0.0
  0
LINE
  5
1C13C
  8
0
 62
     0
 10
29.30199999996929
 20
4.8480198717542438
 30
0.0
 11
30.741999999969241
 21
6.2880198717541962
 31
0.0
  0
LINE
  5
1C13D
  8
0
 62
     0
 10
25.54647893675218
 20
1.0924988085371361
 30
0.0
 11
26.622299180662889
 21
2.1683190524478411
 31
0.0
  0
LINE
  5
1C13E
  8
0
 62
     0
 10
29.301999999969301
 20
5.5215390808344331
 30
0.0
 11
30.741999999969249
 21
6.9615390808343891
 31
0.0
  0
LINE
  5
1C13F
  8
0
 62
     0
 10
25.33838066033616
 20
1.5579197412012999
 30
0.0
 11
26.41411742884215
 21
2.6336565097072859
 31
0.0
  0
LINE
  5
1C140
  8
0
 62
     0
 10
29.301999999969301
 20
6.1950582899146172
 30
0.0
 11
30.741999999969259
 21
7.6350582899145767
 31
0.0
  0
LINE
  5
1C141
  8
0
 62
     0
 10
25.130282383920139
 20
2.02334067386546
 30
0.0
 11
26.205935677021401
 21
3.0989939669667259
 31
0.0
  0
LINE
  5
1C142
  8
0
 62
     0
 10
29.301999999969301
 20
6.8685774989948047
 30
0.0
 11
30.741999999969259
 21
8.3085774989947652
 31
0.0
  0
LINE
  5
1C143
  8
0
 62
     0
 10
24.801822500972111
 20
2.368399999997624
 30
0.0
 11
25.997753925200652
 21
3.5643314242261681
 31
0.0
  0
LINE
  5
1C144
  8
0
 62
     0
 10
29.301999999969301
 20
7.5420967080749897
 30
0.0
 11
30.52300329188553
 21
8.763099999991228
 31
0.0
  0
LINE
  5
1C145
  8
0
 62
     0
 10
24.128303291891928
 20
2.3683999999976222
 30
0.0
 11
25.789572173379909
 21
4.0296688814856072
 31
0.0
  0
LINE
  5
1C146
  8
0
 62
     0
 10
23.454784082811742
 20
2.368399999997624
 30
0.0
 11
25.58139042155916
 21
4.4950063387450481
 31
0.0
  0
LINE
  5
1C147
  8
0
 62
     0
 10
29.301999999969301
 20
8.2156159171551781
 30
0.0
 11
29.84948408280534
 21
8.763099999991228
 31
0.0
  0
LINE
  5
1C148
  8
0
 62
     0
 10
21.08638408281411
 20
-0.0000000000000018
 30
0.0
 11
21.103870746784189
 21
0.0174866639700735
 31
0.0
  0
LINE
  5
1C149
  8
0
 62
     0
 10
22.781264873731551
 20
2.3683999999976209
 30
0.0
 11
24.083864873730239
 21
3.6709999999963099
 31
0.0
  0
LINE
  5
1C14A
  8
0
 62
     0
 10
24.297467415466471
 20
3.8846025417325389
 30
0.0
 11
25.373208669738421
 21
4.960343796004488
 31
0.0
  0
LINE
  5
1C14B
  8
0
 62
     0
 10
20.41286487373392
 20
-0.0000000000000036
 30
0.0
 11
21.64948049965006
 21
1.2366156259161309
 31
0.0
  0
LINE
  5
1C14C
  8
0
 62
     0
 10
24.089328561944811
 20
4.3499828972910661
 30
0.0
 11
25.165026917917672
 21
5.4256812532639316
 31
0.0
  0
LINE
  5
1C14D
  8
0
 62
     0
 10
19.73934566465374
 20
0.0
 30
0.0
 11
23.410345664650048
 21
3.670999999996309
 31
0.0
  0
LINE
  5
1C14E
  8
0
 62
     0
 10
23.88118970842314
 20
4.8153632528495853
 30
0.0
 11
24.956845166096929
 21
5.8910187105233707
 31
0.0
  0
LINE
  5
1C14F
  8
0
 62
     0
 10
19.922244030410109
 20
0.8564175748365538
 30
0.0
 11
22.740758654927749
 21
3.6749321993541981
 31
0.0
  0
LINE
  5
1C150
  8
0
 62
     0
 10
23.673050854901479
 20
5.2807436084081099
 30
0.0
 11
24.74866341427618
 21
6.3563561677828151
 31
0.0
  0
LINE
  5
1C151
  8
0
 62
     0
 10
20.467641547998259
 20
2.0753343015048951
 30
0.0
 11
23.285715494678559
 21
4.8934082481851924
 31
0.0
  0
LINE
  5
1C152
  8
0
 62
     0
 10
21.013039065586419
 20
3.2942510281732309
 30
0.0
 11
24.540481662455441
 21
6.8216936250422533
 31
0.0
  0
LINE
  5
1C153
  8
0
 62
     0
 10
21.558436583174561
 20
4.513167754841569
 30
0.0
 11
24.332299910634688
 21
7.2870310823016951
 31
0.0
  0
LINE
  5
1C154
  8
0
 62
     0
 10
22.103834100762711
 20
5.7320844815099052
 30
0.0
 11
24.12411815881395
 21
7.752368539561135
 31
0.0
  0
LINE
  5
1C155
  8
0
 62
     0
 10
22.649231618350871
 20
6.9510012081782424
 30
0.0
 11
23.9159364069932
 21
8.2177059968205732
 31
0.0
  0
LINE
  5
1C156
  8
0
 62
     0
 10
23.194629135939021
 20
8.1699179348465805
 30
0.0
 11
23.707754655172462
 21
8.6830434540800177
 31
0.0
  0
ENDBLK
  5
1C158
  8
0
  0
BLOCK
  8
0
  2
*X41
 70
     1
 10
0.0
 20
0.0
 30
0.0
  3
*X41
  1

  0
LINE
  5
1C15A
  8
0
 62
     0
 10
37.671999999968321
 20
8.1854311249904796
 30
0.0
 11
37.094331124967553
 21
8.7630999999912564
 31
0.0
  0
LINE
  5
1C15B
  8
0
 62
     0
 10
37.671999999968328
 20
7.5119119159102867
 30
0.0
 11
36.420811915887363
 21
8.7630999999912547
 31
0.0
  0
LINE
  5
1C15C
  8
0
 62
     0
 10
37.671999999968328
 20
6.8383927068301
 30
0.0
 11
36.231999999968373
 21
8.2783927068300578
 31
0.0
  0
LINE
  5
1C15D
  8
0
 62
     0
 10
37.671999999968328
 20
6.164873497749908
 30
0.0
 11
36.231999999968373
 21
7.6048734977498764
 31
0.0
  0
LINE
  5
1C15E
  8
0
 62
     0
 10
37.671999999968328
 20
5.4913542886697231
 30
0.0
 11
36.231999999968359
 21
6.9313542886696951
 31
0.0
  0
LINE
  5
1C15F
  8
0
 62
     0
 10
37.671999999968328
 20
4.8178350795895302
 30
0.0
 11
36.231999999968359
 21
6.257835079589511
 31
0.0
  0
LINE
  5
1C160
  8
0
 62
     0
 10
33.081999999968353
 20
8.7343158705093451
 30
0.0
 11
33.053215870486461
 21
8.7630999999912262
 31
0.0
  0
LINE
  5
1C161
  8
0
 62
     0
 10
37.671999999968342
 20
4.1443158705093426
 30
0.0
 11
36.231999999968352
 21
5.5843158705093341
 31
0.0
  0
LINE
  5
1C162
  8
0
 62
     0
 10
33.081999999968353
 20
8.0607966614291566
 30
0.0
 11
32.379696661406257
 21
8.7630999999912458
 31
0.0
  0
LINE
  5
1C163
  8
0
 62
     0
 10
37.671999999968349
 20
3.4707966614291532
 30
0.0
 11
36.231999999968352
 21
4.9107966614291536
 31
0.0
  0
LINE
  5
1C164
  8
0
 62
     0
 10
33.081999999968339
 20
7.3872774523489682
 30
0.0
 11
31.706177452326049
 21
8.7630999999912582
 31
0.0
  0
LINE
  5
1C165
  8
0
 62
     0
 10
37.671999999968342
 20
2.7972774523489639
 30
0.0
 11
36.231999999968338
 21
4.2372774523489731
 31
0.0
  0
LINE
  5
1C166
  8
0
 62
     0
 10
33.081999999968353
 20
6.7137582432687832
 30
0.0
 11
31.641999999968348
 21
8.1537582432687792
 31
0.0
  0
LINE
  5
1C167
  8
0
 62
     0
 10
37.65026559515578
 20
2.1454926480813441
 30
0.0
 11
36.231999999968323
 21
3.5637582432687971
 31
0.0
  0
LINE
  5
1C168
  8
0
 62
     0
 10
33.081999999968353
 20
6.0402390341885939
 30
0.0
 11
31.641999999968348
 21
7.480239034188588
 31
0.0
  0
LINE
  5
1C169
  8
0
 62
     0
 10
37.519554401194739
 20
1.6026846329622011
 30
0.0
 11
36.23199999996833
 21
2.8902390341886099
 31
0.0
  0
LINE
  5
1C16A
  8
0
 62
     0
 10
33.081999999968353
 20
5.3667198251084089
 30
0.0
 11
31.641999999968348
 21
6.806719825108404
 31
0.0
  0
LINE
  5
1C16B
  8
0
 62
     0
 10
37.303753463824641
 20
1.144966361252125
 30
0.0
 11
36.207116671148931
 21
2.2416031539278261
 31
0.0
  0
LINE
  5
1C16C
  8
0
 62
     0
 10
33.081999999968353
 20
4.6932006160282231
 30
0.0
 11
31.641999999968348
 21
6.1332006160282191
 31
0.0
  0
LINE
  5
1C16D
  8
0
 62
     0
 10
37.019703335426037
 20
0.755497280570534
 30
0.0
 11
35.996962457455652
 21
1.7782381585409219
 31
0.0
  0
LINE
  5
1C16E
  8
0
 62
     0
 10
33.081999999968353
 20
4.0196814069480364
 30
0.0
 11
31.641999999968348
 21
5.4596814069480297
 31
0.0
  0
LINE
  5
1C16F
  8
0
 62
     0
 10
36.673303541984843
 20
0.4283778649315333
 30
0.0
 11
35.638303382158099
 21
1.463378024758281
 31
0.0
  0
LINE
  5
1C170
  8
0
 62
     0
 10
33.081999999968353
 20
3.3461621978678489
 30
0.0
 11
31.641999999968348
 21
4.7861621978678448
 31
0.0
  0
LINE
  5
1C171
  8
0
 62
     0
 10
36.263996276060482
 20
0.1641659217757083
 30
0.0
 11
35.160083583595231
 21
1.2680786142409679
 31
0.0
  0
LINE
  5
1C172
  8
0
 62
     0
 10
33.081999999968353
 20
2.6726429887876622
 30
0.0
 11
31.641999999968348
 21
4.1126429887876599
 31
0.0
  0
LINE
  5
1C173
  8
0
 62
     0
 10
35.796224120707834
 20
-0.0415811319518231
 30
0.0
 11
34.548571908367997
 21
1.2060710803880119
 31
0.0
  0
LINE
  5
1C174
  8
0
 62
     0
 10
33.38374578259382
 20
1.697377997082012
 30
0.0
 11
31.641999999968348
 21
3.4391237797074719
 31
0.0
  0
LINE
  5
1C175
  8
0
 62
     0
 10
35.2637678033404
 20
-0.1826440236645763
 30
0.0
 11
33.467758574123401
 21
1.613365205552423
 31
0.0
  0
LINE
  5
1C176
  8
0
 62
     0
 10
34.644481659876348
 20
-0.2368770892807164
 30
0.0
 11
31.641999999968348
 21
2.7656045706272852
 31
0.0
  0
LINE
  5
1C177
  8
0
 62
     0
 10
33.882022784935067
 20
-0.1479374234196293
 30
0.0
 11
31.6767103736743
 21
2.05737498784115
 31
0.0
  0
LINE
  5
1C178
  8
0
 62
     0
 10
32.597736685481571
 20
0.4628294669536924
 30
0.0
 11
32.233210043993921
 21
0.8273561084413412
 31
0.0
  0
LINE
  5
1C179
  8
0
 62
     0
 10
35.901292898140767
 20
-0.0025137844374483
 30
0.0
 11
37.526682373606427
 21
1.6228756910282169
 31
0.0
  0
LINE
  5
1C17A
  8
0
 62
     0
 10
35.011846013067
 20
-0.2184414604310323
 30
0.0
 11
37.671690137183113
 21
2.4414026636850732
 31
0.0
  0
LINE
  5
1C17B
  8
0
 62
     0
 10
34.335055261422497
 20
-0.2217130029953505
 30
0.0
 11
37.671999999968357
 21
3.1152317355505081
 31
0.0
  0
LINE
  5
1C17C
  8
0
 62
     0
 10
36.22341799578475
 20
2.34016894044708
 30
0.0
 11
37.671999999968349
 21
3.7887509446306882
 31
0.0
  0
LINE
  5
1C17D
  8
0
 62
     0
 10
33.764781759205142
 20
-0.1184672961325277
 30
0.0
 11
35.14826070499295
 21
1.2650116496552899
 31
0.0
  0
LINE
  5
1C17E
  8
0
 62
     0
 10
36.23199999996833
 20
3.0222701537108612
 30
0.0
 11
37.671999999968342
 21
4.4622701537108727
 31
0.0
  0
LINE
  5
1C17F
  8
0
 62
     0
 10
33.267721159564204
 20
0.0579913133067343
 30
0.0
 11
34.426314137477831
 21
1.2165842912203599
 31
0.0
  0
LINE
  5
1C180
  8
0
 62
     0
 10
36.231999999968338
 20
3.6957893627910541
 30
0.0
 11
37.671999999968328
 21
5.135789362791054
 31
0.0
  0
LINE
  5
1C181
  8
0
 62
     0
 10
32.829526961020242
 20
0.2933163238429541
 30
0.0
 11
33.892750351957297
 21
1.356539714780016
 31
0.0
  0
LINE
  5
1C182
  8
0
 62
     0
 10
36.231999999968352
 20
4.3693085718712412
 30
0.0
 11
37.671999999968342
 21
5.8093085718712381
 31
0.0
  0
LINE
  5
1C183
  8
0
 62
     0
 10
32.453183968618852
 20
0.5904925405217468
 30
0.0
 11
33.472128987242357
 21
1.6094375591452561
 31
0.0
  0
LINE
  5
1C184
  8
0
 62
     0
 10
36.231999999968352
 20
5.0428277809514341
 30
0.0
 11
37.671999999968328
 21
6.4828277809514168
 31
0.0
  0
LINE
  5
1C185
  8
0
 62
     0
 10
32.138870317392751
 20
0.949698098375844
 30
0.0
 11
33.186799660921331
 21
1.9976274419044211
 31
0.0
  0
LINE
  5
1C186
  8
0
 62
     0
 10
36.231999999968352
 20
5.7163469900316271
 30
0.0
 11
37.671999999968328
 21
7.1563469900316017
 31
0.0
  0
LINE
  5
1C187
  8
0
 62
     0
 10
31.888990894616189
 20
1.373337884679465
 30
0.0
 11
33.081999999968353
 21
2.5663469900316218
 31
0.0
  0
LINE
  5
1C188
  8
0
 62
     0
 10
36.231999999968359
 20
6.3898661991118217
 30
0.0
 11
37.671999999968328
 21
7.8298661991117866
 31
0.0
  0
LINE
  5
1C189
  8
0
 62
     0
 10
31.714181567551108
 20
1.8720477666945701
 30
0.0
 11
33.081999999968353
 21
3.2398661991118081
 31
0.0
  0
LINE
  5
1C18A
  8
0
 62
     0
 10
36.231999999968373
 20
7.0633854081920138
 30
0.0
 11
37.671999999968321
 21
8.5033854081919689
 31
0.0
  0
LINE
  5
1C18B
  8
0
 62
     0
 10
31.642012947499701
 20
2.4733983557233419
 30
0.0
 11
33.081999999968353
 21
3.9133854081919939
 31
0.0
  0
LINE
  5
1C18C
  8
0
 62
     0
 10
36.23199999996838
 20
7.7369046172722067
 30
0.0
 11
37.258195382687433
 21
8.7630999999912547
 31
0.0
  0
LINE
  5
1C18D
  8
0
 62
     0
 10
31.641999999968348
 20
3.1469046172721851
 30
0.0
 11
33.08199999996836
 21
4.5869046172721806
 31
0.0
  0
LINE
  5
1C18E
  8
0
 62
     0
 10
36.23199999996838
 20
8.4104238263524014
 30
0.0
 11
36.584676173607242
 21
8.7630999999912564
 31
0.0
  0
LINE
  5
1C18F
  8
0
 62
     0
 10
31.641999999968348
 20
3.82042382635237
 30
0.0
 11
33.081999999968353
 21
5.2604238263523682
 31
0.0
  0
LINE
  5
1C190
  8
0
 62
     0
 10
31.641999999968348
 20
4.4939430354325562
 30
0.0
 11
33.081999999968353
 21
5.9339430354325531
 31
0.0
  0
LINE
  5
1C191
  8
0
 62
     0
 10
31.641999999968348
 20
5.1674622445127421
 30
0.0
 11
33.081999999968353
 21
6.6074622445127398
 31
0.0
  0
LINE
  5
1C192
  8
0
 62
     0
 10
31.641999999968348
 20
5.840981453592927
 30
0.0
 11
33.081999999968339
 21
7.2809814535929247
 31
0.0
  0
LINE
  5
1C193
  8
0
 62
     0
 10
31.641999999968348
 20
6.5145006626731163
 30
0.0
 11
33.081999999968353
 21
7.9545006626731141
 31
0.0
  0
LINE
  5
1C194
  8
0
 62
     0
 10
31.641999999968348
 20
7.1880198717533013
 30
0.0
 11
33.081999999968353
 21
8.6280198717532972
 31
0.0
  0
LINE
  5
1C195
  8
0
 62
     0
 10
31.641999999968348
 20
7.861539080833488
 30
0.0
 11
32.543560919126101
 21
8.7630999999912405
 31
0.0
  0
LINE
  5
1C196
  8
0
 62
     0
 10
31.641999999968348
 20
8.5350582899136729
 30
0.0
 11
31.870041710045928
 21
8.7630999999912493
 31
0.0
  0
ENDBLK
  5
1C198
  8
0
  0
BLOCK
  8
0
  2
*X42
 70
     1
 10
0.0
 20
0.0
 30
0.0
  3
*X42
  1

  0
LINE
  5
1C19A
  8
0
 62
     0
 10
44.999999999955008
 20
8.2661424248858424
 30
0.0
 11
44.503042424849617
 21
8.763099999991228
 31
0.0
  0
LINE
  5
1C19B
  8
0
 62
     0
 10
44.999999999955008
 20
7.5926232158056557
 30
0.0
 11
43.829523215769441
 21
8.7630999999912316
 31
0.0
  0
LINE
  5
1C19C
  8
0
 62
     0
 10
44.999999999955008
 20
6.919104006725469
 30
0.0
 11
43.578999999956388
 21
8.3401040067240864
 31
0.0
  0
LINE
  5
1C19D
  8
0
 62
     0
 10
44.999999999955008
 20
6.245584797645285
 30
0.0
 11
43.578999999956388
 21
7.6665847976438997
 31
0.0
  0
LINE
  5
1C19E
  8
0
 62
     0
 10
44.999999999955008
 20
5.5720655885650991
 30
0.0
 11
43.578999999956388
 21
6.993065588563713
 31
0.0
  0
LINE
  5
1C19F
  8
0
 62
     0
 10
44.999999999955008
 20
4.8985463794849098
 30
0.0
 11
43.578999999956388
 21
6.3195463794835272
 31
0.0
  0
LINE
  5
1C1A0
  8
0
 62
     0
 10
44.999999999955008
 20
4.2250271704047249
 30
0.0
 11
43.578999999956388
 21
5.6460271704033396
 31
0.0
  0
LINE
  5
1C1A1
  8
0
 62
     0
 10
44.999999999955008
 20
3.5515079613245391
 30
0.0
 11
43.578999999956388
 21
4.9725079613231529
 31
0.0
  0
LINE
  5
1C1A2
  8
0
 62
     0
 10
44.999999999955008
 20
2.8779887522443528
 30
0.0
 11
43.578999999956388
 21
4.2989887522429671
 31
0.0
  0
LINE
  5
1C1A3
  8
0
 62
     0
 10
41.898767309847742
 20
5.3057022332714263
 30
0.0
 11
38.604999999961379
 21
8.5994695431577952
 31
0.0
  0
LINE
  5
1C1A4
  8
0
 62
     0
 10
44.999999999955008
 20
2.2044695431641661
 30
0.0
 11
43.578999999956388
 21
3.625469543162783
 31
0.0
  0
LINE
  5
1C1A5
  8
0
 62
     0
 10
44.999999999955008
 20
1.530950334083981
 30
0.0
 11
38.604999999961393
 21
7.9259503340776041
 31
0.0
  0
LINE
  5
1C1A6
  8
0
 62
     0
 10
44.999999999955008
 20
0.857431125003794
 30
0.0
 11
38.604999999961379
 21
7.2524311249974209
 31
0.0
  0
LINE
  5
1C1A7
  8
0
 62
     0
 10
40.025999999959957
 20
5.1579119159186542
 30
0.0
 11
38.604999999961393
 21
6.5789119159172307
 31
0.0
  0
LINE
  5
1C1A8
  8
0
 62
     0
 10
44.999999999955008
 20
0.1839119159236073
 30
0.0
 11
41.538583645063312
 21
3.645328270815305
 31
0.0
  0
LINE
  5
1C1A9
  8
0
 62
     0
 10
40.025999999959957
 20
4.4843927068384648
 30
0.0
 11
38.604999999961393
 21
5.9053927068370484
 31
0.0
  0
LINE
  5
1C1AA
  8
0
 62
     0
 10
40.025999999959957
 20
3.8108734977582781
 30
0.0
 11
38.604999999961393
 21
5.2318734977568608
 31
0.0
  0
LINE
  5
1C1AB
  8
0
 62
     0
 10
40.025999999959957
 20
3.1373542886780941
 30
0.0
 11
38.604999999961379
 21
4.558354288676675
 31
0.0
  0
LINE
  5
1C1AC
  8
0
 62
     0
 10
40.025999999959957
 20
2.4638350795979052
 30
0.0
 11
38.604999999961379
 21
3.884835079596491
 31
0.0
  0
LINE
  5
1C1AD
  8
0
 62
     0
 10
40.025999999959957
 20
1.79031587051772
 30
0.0
 11
38.604999999961379
 21
3.2113158705163061
 31
0.0
  0
LINE
  5
1C1AE
  8
0
 62
     0
 10
40.025999999959957
 20
1.1167966614375331
 30
0.0
 11
38.604999999961379
 21
2.5377966614361198
 31
0.0
  0
LINE
  5
1C1AF
  8
0
 62
     0
 10
40.025999999959957
 20
0.4432774523573473
 30
0.0
 11
38.604999999961379
 21
1.8642774523559329
 31
0.0
  0
LINE
  5
1C1B0
  8
0
 62
     0
 10
39.795758243237117
 20
-0.0000000000000009
 30
0.0
 11
38.604999999961379
 21
1.190758243275746
 31
0.0
  0
LINE
  5
1C1B1
  8
0
 62
     0
 10
39.122239034156941
 20
-0.0000000000000027
 30
0.0
 11
38.604999999961379
 21
0.5172390341955602
 31
0.0
  0
LINE
  5
1C1B2
  8
0
 62
     0
 10
44.727869922999538
 20
0.0683135223788982
 30
0.0
 11
44.999999999955008
 21
0.3404435993343693
 31
0.0
  0
LINE
  5
1C1B3
  8
0
 62
     0
 10
44.410407610419362
 20
0.4243704188789037
 30
0.0
 11
44.999999999955008
 21
1.0139628084145551
 31
0.0
  0
LINE
  5
1C1B4
  8
0
 62
     0
 10
44.092945297839179
 20
0.7804273153789119
 30
0.0
 11
44.999999999955008
 21
1.6874820174947409
 31
0.0
  0
LINE
  5
1C1B5
  8
0
 62
     0
 10
43.775482985258989
 20
1.136484211878916
 30
0.0
 11
44.999999999955008
 21
2.3610012265749258
 31
0.0
  0
LINE
  5
1C1B6
  8
0
 62
     0
 10
43.458020672678813
 20
1.4925411083789251
 30
0.0
 11
44.999999999955008
 21
3.034520435655113
 31
0.0
  0
LINE
  5
1C1B7
  8
0
 62
     0
 10
43.14055836009863
 20
1.8485980048789299
 30
0.0
 11
44.999999999955008
 21
3.7080396447352988
 31
0.0
  0
LINE
  5
1C1B8
  8
0
 62
     0
 10
42.823096047518469
 20
2.20465490137894
 30
0.0
 11
44.999999999955008
 21
4.381558853815485
 31
0.0
  0
LINE
  5
1C1B9
  8
0
 62
     0
 10
42.505633734938279
 20
2.5607117978789451
 30
0.0
 11
43.478660230526117
 21
3.533738293466774
 31
0.0
  0
LINE
  5
1C1BA
  8
0
 62
     0
 10
43.578999999956402
 20
3.6340780628970579
 30
0.0
 11
44.999999999955008
 21
5.0550780628956717
 31
0.0
  0
LINE
  5
1C1BB
  8
0
 62
     0
 10
39.944921937059341
 20
-0.0000000000000018
 30
0.0
 11
40.025999999959971
 21
0.0810780629006303
 31
0.0
  0
LINE
  5
1C1BC
  8
0
 62
     0
 10
42.188171422358103
 20
2.9167686943789528
 30
0.0
 11
43.161197917945927
 21
3.8897951899667791
 31
0.0
  0
LINE
  5
1C1BD
  8
0
 62
     0
 10
43.578999999956388
 20
4.3075972719772446
 30
0.0
 11
44.999999999955008
 21
5.7285972719758584
 31
0.0
  0
LINE
  5
1C1BE
  8
0
 62
     0
 10
39.271402727979151
 20
-0.0000000000000031
 30
0.0
 11
40.025999999959957
 21
0.7545972719808161
 31
0.0
  0
LINE
  5
1C1BF
  8
0
 62
     0
 10
41.87070910977792
 20
3.2728255908789592
 30
0.0
 11
42.843735605365737
 21
4.2458520864667886
 31
0.0
  0
LINE
  5
1C1C0
  8
0
 62
     0
 10
43.578999999956388
 20
4.9811164810574331
 30
0.0
 11
44.999999999955008
 21
6.4021164810560451
 31
0.0
  0
LINE
  5
1C1C1
  8
0
 62
     0
 10
38.604999999961379
 20
0.0071164810624182
 30
0.0
 11
40.025999999959957
 21
1.428116481061001
 31
0.0
  0
LINE
  5
1C1C2
  8
0
 62
     0
 10
41.553246797197737
 20
3.6288824873789678
 30
0.0
 11
42.526273292785568
 21
4.6019089829667976
 31
0.0
  0
LINE
  5
1C1C3
  8
0
 62
     0
 10
43.578999999956388
 20
5.654635690137618
 30
0.0
 11
44.999999999955008
 21
7.0756356901362301
 31
0.0
  0
LINE
  5
1C1C4
  8
0
 62
     0
 10
38.604999999961393
 20
0.6806356901426051
 30
0.0
 11
40.025999999959957
 21
2.1016356901411881
 31
0.0
  0
LINE
  5
1C1C5
  8
0
 62
     0
 10
41.235784484617547
 20
3.9849393838789742
 30
0.0
 11
42.208810980205392
 21
4.9579658794668049
 31
0.0
  0
LINE
  5
1C1C6
  8
0
 62
     0
 10
43.57899999995638
 20
6.3281548992178029
 30
0.0
 11
44.999999999955001
 21
7.7491548992164168
 31
0.0
  0
LINE
  5
1C1C7
  8
0
 62
     0
 10
38.604999999961379
 20
1.354154899222791
 30
0.0
 11
40.025999999959957
 21
2.7751548992213748
 31
0.0
  0
LINE
  5
1C1C8
  8
0
 62
     0
 10
40.918322172037378
 20
4.3409962803789819
 30
0.0
 11
41.891348667625209
 21
5.3140227759668131
 31
0.0
  0
LINE
  5
1C1C9
  8
0
 62
     0
 10
43.578999999956388
 20
7.0016741082979914
 30
0.0
 11
44.999999999955008
 21
8.4226741082966026
 31
0.0
  0
LINE
  5
1C1CA
  8
0
 62
     0
 10
38.604999999961379
 20
2.0276741083029779
 30
0.0
 11
40.025999999959957
 21
3.4486741083015611
 31
0.0
  0
LINE
  5
1C1CB
  8
0
 62
     0
 10
40.600859859457202
 20
4.6970531768789874
 30
0.0
 11
41.57388635504504
 21
5.670079672466823
 31
0.0
  0
LINE
  5
1C1CC
  8
0
 62
     0
 10
43.578999999956388
 20
7.6751933173781781
 30
0.0
 11
44.66690668256944
 21
8.7630999999912298
 31
0.0
  0
LINE
  5
1C1CD
  8
0
 62
     0
 10
38.604999999961379
 20
2.701193317383165
 30
0.0
 11
40.025999999959957
 21
4.1221933173817469
 31
0.0
  0
LINE
  5
1C1CE
  8
0
 62
     0
 10
40.283397546877019
 20
5.0531100733789964
 30
0.0
 11
41.256424042464857
 21
6.0261365689668294
 31
0.0
  0
LINE
  5
1C1CF
  8
0
 62
     0
 10
43.578999999956388
 20
8.3487125264583621
 30
0.0
 11
43.993387473489257
 21
8.7630999999912316
 31
0.0
  0
LINE
  5
1C1D0
  8
0
 62
     0
 10
38.604999999961393
 20
3.3747125264633522
 30
0.0
 11
40.025999999959957
 21
4.7957125264619354
 31
0.0
  0
LINE
  5
1C1D1
  8
0
 62
     0
 10
38.604999999961393
 20
4.0482317355435384
 30
0.0
 11
40.938961729884682
 21
6.3821934654668402
 31
0.0
  0
LINE
  5
1C1D2
  8
0
 62
     0
 10
38.6049999999614
 20
4.7217509446237287
 30
0.0
 11
40.621499417304513
 21
6.7382503619668492
 31
0.0
  0
LINE
  5
1C1D3
  8
0
 62
     0
 10
38.604999999961393
 20
5.3952701537039163
 30
0.0
 11
40.30403710472433
 21
7.0943072584668556
 31
0.0
  0
LINE
  5
1C1D4
  8
0
 62
     0
 10
38.604999999961393
 20
6.0687893627841021
 30
0.0
 11
39.986574792144147
 21
7.4503641549668638
 31
0.0
  0
LINE
  5
1C1D5
  8
0
 62
     0
 10
38.604999999961393
 20
6.742308571864287
 30
0.0
 11
39.669112479563971
 21
7.8064210514668684
 31
0.0
  0
LINE
  5
1C1D6
  8
0
 62
     0
 10
38.604999999961393
 20
7.4158277809444746
 30
0.0
 11
39.351650166983788
 21
8.1624779479668774
 31
0.0
  0
LINE
  5
1C1D7
  8
0
 62
     0
 10
38.604999999961393
 20
8.0893469900246604
 30
0.0
 11
39.034187854403612
 21
8.5185348444668882
 31
0.0
  0
LINE
  5
1C1D8
  8
0
 62
     0
 10
38.6049999999614
 20
8.7628661991048489
 30
0.0
 11
38.716725541823443
 21
8.8745917409668955
 31
0.0
  0
ENDBLK
  5
1C1DA
  8
0
  0
BLOCK
  8
0
  2
*X43
 70
     1
 10
0.0
 20
0.0
 30
0.0
  3
*X43
  1

  0
LINE
  5
1C1DC
  8
0
 62
     0
 10
1.4209999999985781
 20
8.7399130437103523
 30
0.0
 11
1.397813043717697
 21
8.7630999999912333
 31
0.0
  0
LINE
  5
1C1DD
  8
0
 62
     0
 10
1.4209999999985781
 20
8.0663938346301585
 30
0.0
 11
0.7242938346375141
 21
8.7630999999912298
 31
0.0
  0
LINE
  5
1C1DE
  8
0
 62
     0
 10
1.420999999998585
 20
7.3928746255499709
 30
0.0
 11
0.0507746255573238
 21
8.7630999999912262
 31
0.0
  0
LINE
  5
1C1DF
  8
0
 62
     0
 10
1.4209999999985781
 20
6.7193554164697877
 30
0.0
 11
0.0
 21
8.1403554164683598
 31
0.0
  0
LINE
  5
1C1E0
  8
0
 62
     0
 10
1.4209999999985781
 20
6.0458362073895984
 30
0.0
 11
0.0000000000000071
 21
7.4668362073881758
 31
0.0
  0
LINE
  5
1C1E1
  8
0
 62
     0
 10
1.420999999998581
 20
5.3723169983094108
 30
0.0
 11
0.0000000000000071
 21
6.7933169983079891
 31
0.0
  0
LINE
  5
1C1E2
  8
0
 62
     0
 10
1.4209999999985781
 20
4.6987977892292276
 30
0.0
 11
0.0
 21
6.1197977892278059
 31
0.0
  0
LINE
  5
1C1E3
  8
0
 62
     0
 10
1.4209999999985781
 20
4.0252785801490383
 30
0.0
 11
0.0
 21
5.446278580147613
 31
0.0
  0
LINE
  5
1C1E4
  8
0
 62
     0
 10
1.420999999998581
 20
3.3517593710688551
 30
0.0
 11
0.0000000000000071
 21
4.772759371067429
 31
0.0
  0
LINE
  5
1C1E5
  8
0
 62
     0
 10
1.420999999998581
 20
2.678240161988664
 30
0.0
 11
0.0000000000000071
 21
4.0992401619872387
 31
0.0
  0
LINE
  5
1C1E6
  8
0
 62
     0
 10
1.420999999998581
 20
2.0047209529084808
 30
0.0
 11
0.0000000000000071
 21
3.425720952907056
 31
0.0
  0
LINE
  5
1C1E7
  8
0
 62
     0
 10
1.420999999998581
 20
1.331201743828295
 30
0.0
 11
0.0000000000000071
 21
2.7522017438268689
 31
0.0
  0
LINE
  5
1C1E8
  8
0
 62
     0
 10
1.420999999998581
 20
0.6576825347481085
 30
0.0
 11
0.0000000000000071
 21
2.0786825347466831
 31
0.0
  0
LINE
  5
1C1E9
  8
0
 62
     0
 10
1.405163325666503
 20
0.0000000000000036
 30
0.0
 11
0.0000000000000036
 21
1.405163325666503
 31
0.0
  0
LINE
  5
1C1EA
  8
0
 62
     0
 10
0.7316441165863097
 20
0.0000000000000071
 30
0.0
 11
0.0000000000000071
 21
0.7316441165863097
 31
0.0
  0
LINE
  5
1C1EB
  8
0
 62
     0
 10
0.0581249075061265
 20
0.0000000000000036
 30
0.0
 11
0.0000000000000036
 21
0.0581249075061301
 31
0.0
  0
LINE
  5
1C1EC
  8
0
 62
     0
 10
0.8808078104085197
 20
0.0
 30
0.0
 11
1.420999999998581
 21
0.5401921895900621
 31
0.0
  0
LINE
  5
1C1ED
  8
0
 62
     0
 10
0.207288601328333
 20
-0.0000000000000036
 30
0.0
 11
1.4209999999985781
 21
1.213711398670245
 31
0.0
  0
LINE
  5
1C1EE
  8
0
 62
     0
 10
0.0000000000000071
 20
0.4662306077518572
 30
0.0
 11
1.420999999998581
 21
1.8872306077504351
 31
0.0
  0
LINE
  5
1C1EF
  8
0
 62
     0
 10
0.0000000000000036
 20
1.139749816832043
 30
0.0
 11
1.4209999999985781
 21
2.5607498168306182
 31
0.0
  0
LINE
  5
1C1F0
  8
0
 62
     0
 10
0.0000000000000071
 20
1.8132690259122339
 30
0.0
 11
1.420999999998581
 21
3.234269025910808
 31
0.0
  0
LINE
  5
1C1F1
  8
0
 62
     0
 10
0.0000000000000036
 20
2.4867882349924129
 30
0.0
 11
1.4209999999985781
 21
3.907788234990992
 31
0.0
  0
LINE
  5
1C1F2
  8
0
 62
     0
 10
0.0000000000000036
 20
3.1603074440726031
 30
0.0
 11
1.420999999998581
 21
4.5813074440711823
 31
0.0
  0
LINE
  5
1C1F3
  8
0
 62
     0
 10
0.0000000000000036
 20
3.8338266531527871
 30
0.0
 11
1.4209999999985781
 21
5.2548266531513654
 31
0.0
  0
LINE
  5
1C1F4
  8
0
 62
     0
 10
0.0
 20
4.507345862232973
 30
0.0
 11
1.420999999998581
 21
5.928345862231553
 31
0.0
  0
LINE
  5
1C1F5
  8
0
 62
     0
 10
0.0
 20
5.1808650713131561
 30
0.0
 11
1.4209999999985801
 21
6.6018650713117353
 31
0.0
  0
LINE
  5
1C1F6
  8
0
 62
     0
 10
0.0000000000000036
 20
5.8543842803933472
 30
0.0
 11
1.4209999999985801
 21
7.2753842803919246
 31
0.0
  0
LINE
  5
1C1F7
  8
0
 62
     0
 10
0.0000000000000036
 20
6.527903489473533
 30
0.0
 11
1.420999999998581
 21
7.9489034894721096
 31
0.0
  0
LINE
  5
1C1F8
  8
0
 62
     0
 10
0.0000000000000053
 20
7.201422698553718
 30
0.0
 11
1.420999999998583
 21
8.6224226985522954
 31
0.0
  0
LINE
  5
1C1F9
  8
0
 62
     0
 10
0.0
 20
7.8749419076339029
 30
0.0
 11
0.8881580923573242
 21
8.7630999999912262
 31
0.0
  0
LINE
  5
1C1FA
  8
0
 62
     0
 10
0.0000000000000018
 20
8.5484611167140958
 30
0.0
 11
0.2146388832771393
 21
8.7630999999912316
 31
0.0
  0
ENDBLK
  5
1C1FC
  8
0
  0
BLOCK
  8
0
  2
*U44
 70
     1
 10
0.0
 20
0.0
 30
0.0
  3
*U44
  1

  0
LINE
  5
1C1FE
  8
0
 10
-23.468911086754559
 20
-1.75
 30
0.0
 11
0.0000000000000284
 21
-1.75
 31
0.0
  0
LINE
  5
1C1FF
  8
0
 10
0.0000000000000284
 20
-1.75
 30
0.0
 11
0.0000000000000284
 21
-4.5
 31
0.0
  0
LINE
  5
1C200
  8
0
 10
-29.999999999999972
 20
0.0
 30
0.0
 11
-23.468911086754559
 21
-1.75
 31
0.0
  0
LINE
  5
1C201
  8
0
 10
0.0000000000000284
 20
-4.5
 30
0.0
 11
0.7999999999998125
 21
-4.5
 31
0.0
  0
LINE
  5
1C202
  8
0
 10
-29.999999999999972
 20
0.0
 30
0.0
 11
-23.468911086754499
 21
1.75
 31
0.0
  0
ARC
  5
1C203
  8
0
 10
0.8000000000000113
 20
-2.0
 30
0.0
 40
2.5
 50
269.9999999999954
 51
0.0
  0
LINE
  5
1C204
  8
0
 10
-23.468911086754499
 20
1.75
 30
0.0
 11
0.0000000000000284
 21
1.75
 31
0.0
  0
LINE
  5
1C205
  8
0
 10
3.3000000000000389
 20
2.0
 30
0.0
 11
3.3000000000000109
 21
-2.0
 31
0.0
  0
LINE
  5
1C206
  8
0
 10
0.0000000000000284
 20
4.5
 30
0.0
 11
0.0000000000000284
 21
1.75
 31
0.0
  0
ARC
  5
1C207
  8
0
 10
0.8000000000000397
 20
2.0
 30
0.0
 40
2.5
 50
0.0
 51
90.0
  0
LINE
  5
1C208
  8
0
 10
0.0000000000000284
 20
4.5
 30
0.0
 11
0.8000000000000397
 21
4.5
 31
0.0
  0
ENDBLK
  5
1C20A
  8
0
  0
BLOCK
  8
0
  2
*X45
 70
     1
 10
0.0
 20
0.0
 30
0.0
  3
*X45
  1

  0
LINE
  5
1C20C
  8
0
 62
     0
 10
4.999963781330016
 20
0.6648318481563891
 30
0.0
 11
4.6648058190850739
 21
0.9999898104013169
 31
0.0
  0
LINE
  5
1C20D
  8
0
 62
     0
 10
4.9999616918183198
 20
0.2158211316146108
 30
0.0
 11
4.215790923500478
 21
0.9999918999324464
 31
0.0
  0
LINE
  5
1C20E
  8
0
 62
     0
 10
2.4999712361998969
 20
2.266798781179574
 30
0.0
 11
2.383370684454845
 21
2.383399332924625
 31
0.0
  0
LINE
  5
1C20F
  8
0
 62
     0
 10
4.9999596023066308
 20
-0.2331895849271461
 30
0.0
 11
3.7667760279159088
 21
0.9999939894635758
 31
0.0
  0
LINE
  5
1C210
  8
0
 62
     0
 10
2.4999691466882008
 20
1.8177880646378091
 30
0.0
 11
2.1588632366674139
 21
2.1588939746586102
 31
0.0
  0
LINE
  5
1C211
  8
0
 62
     0
 10
4.9999575127949347
 20
-0.6822003014689173
 30
0.0
 11
3.3177611323312979
 21
0.9999960789947266
 31
0.0
  0
LINE
  5
1C212
  8
0
 62
     0
 10
2.4999670571765189
 20
1.368777348096045
 30
0.0
 11
1.9343557888799829
 21
1.934388616392581
 31
0.0
  0
LINE
  5
1C213
  8
0
 62
     0
 10
4.8687555439913117
 20
-1.0000111387187469
 30
0.0
 11
2.86874623674673
 21
0.9999981685258205
 31
0.0
  0
LINE
  5
1C214
  8
0
 62
     0
 10
4.4197406484067079
 20
-1.000009049187589
 30
0.0
 11
1.709848341092552
 21
1.7098832581265659
 31
0.0
  0
LINE
  5
1C215
  8
0
 62
     0
 10
3.970725752822104
 20
-1.000006959656452
 30
0.0
 11
1.4853408933051071
 21
1.4853778998605369
 31
0.0
  0
LINE
  5
1C216
  8
0
 62
     0
 10
3.521710857237522
 20
-1.0000048701253299
 30
0.0
 11
1.2608334455176899
 21
1.2608725415945079
 31
0.0
  0
LINE
  5
1C217
  8
0
 62
     0
 10
3.072695961652939
 20
-1.000002780594186
 30
0.0
 11
1.036325997730259
 21
1.0363671833284931
 31
0.0
  0
LINE
  5
1C218
  8
0
 62
     0
 10
2.6236810660683281
 20
-1.0000006910630499
 30
0.0
 11
0.8118185499428136
 21
0.8118618250624649
 31
0.0
  0
LINE
  5
1C219
  8
0
 62
     0
 10
2.4999545201063849
 20
-1.3252869511545811
 30
0.0
 11
0.5873111021553683
 21
0.5873564667964361
 31
0.0
  0
LINE
  5
1C21A
  8
0
 62
     0
 10
2.4999524305947101
 20
-1.7742976676963591
 30
0.0
 11
0.3628036543679514
 21
0.3628511085304069
 31
0.0
  0
LINE
  5
1C21B
  8
0
 62
     0
 10
2.4999503410830348
 20
-2.2233083842381229
 30
0.0
 11
0.1382962065805202
 21
0.1383457502643921
 31
0.0
  0
LINE
  5
1C21C
  8
0
 62
     0
 10
4.6010502818750387
 20
-1.000009892928265
 30
0.0
 11
4.9999578901918467
 21
-0.6011022846114571
 31
0.0
  0
LINE
  5
1C21D
  8
0
 62
     0
 10
4.152039565333272
 20
-1.0000078034165789
 30
0.0
 11
4.9999599797229841
 21
-0.1520873890268675
 31
0.0
  0
LINE
  5
1C21E
  8
0
 62
     0
 10
3.703028848791504
 20
-1.000005713904887
 30
0.0
 11
4.9999620692541198
 21
0.2969275065577292
 31
0.0
  0
LINE
  5
1C21F
  8
0
 62
     0
 10
2.3514924413035621
 20
-2.351542121392824
 30
0.0
 11
2.499950435198417
 21
-2.2030841274979731
 31
0.0
  0
LINE
  5
1C220
  8
0
 62
     0
 10
3.254018132249743
 20
-1.0000036243931869
 30
0.0
 11
4.9999641587852457
 21
0.7459424021423189
 31
0.0
  0
LINE
  5
1C221
  8
0
 62
     0
 10
2.1269870830375481
 20
-2.1270346736053831
 30
0.0
 11
2.4999525247295402
 21
-1.754069231913391
 31
0.0
  0
LINE
  5
1C222
  8
0
 62
     0
 10
2.805007415707979
 20
-1.0000015348814979
 30
0.0
 11
4.8049981085933799
 21
0.9999891580039027
 31
0.0
  0
LINE
  5
1C223
  8
0
 62
     0
 10
1.9024817247715189
 20
-1.9025272258179591
 30
0.0
 11
2.4999546142606759
 21
-1.305054336328801
 31
0.0
  0
LINE
  5
1C224
  8
0
 62
     0
 10
1.6779763665055001
 20
-1.6780197780305171
 30
0.0
 11
4.3559873920516132
 21
0.9999912475155952
 31
0.0
  0
LINE
  5
1C225
  8
0
 62
     0
 10
1.453471008239468
 20
-1.453512330243089
 30
0.0
 11
3.906976675509831
 21
0.9999933370272736
 31
0.0
  0
LINE
  5
1C226
  8
0
 62
     0
 10
1.228965649973442
 20
-1.2290048824556541
 30
0.0
 11
3.4579659589680598
 21
0.9999954265389625
 31
0.0
  0
LINE
  5
1C227
  8
0
 62
     0
 10
1.0044602917074099
 20
-1.0044974346682269
 30
0.0
 11
3.008955242426274
 21
0.9999975160506373
 31
0.0
  0
LINE
  5
1C228
  8
0
 62
     0
 10
0.7799549334414025
 20
-0.7799899868807892
 30
0.0
 11
2.5599445258845068
 21
0.9999996055623157
 31
0.0
  0
LINE
  5
1C229
  8
0
 62
     0
 10
0.555449575175377
 20
-0.5554825390933509
 30
0.0
 11
2.499967151447489
 21
1.389035037178757
 31
0.0
  0
LINE
  5
1C22A
  8
0
 62
     0
 10
0.3309442169093444
 20
-0.3309750913059233
 30
0.0
 11
2.4999692409786181
 21
1.838049932763347
 31
0.0
  0
LINE
  5
1C22B
  8
0
 62
     0
 10
0.106438858643326
 20
-0.1064676435184815
 30
0.0
 11
2.4999713305097719
 21
2.2870648283479609
 31
0.0
  0
ENDBLK
  5
1C22D
  8
0
  0
BLOCK
  8
0
  2
*U46
 70
     1
 10
0.0
 20
0.0
 30
0.0
  3
*U46
  1

  0
LINE
  5
1C22F
  8
0
 10
-29.999999999837598
 20
0.0000465358979227
 30
0.0
 11
-24.700003489975941
 21
-1.4999534641020771
 31
0.0
  0
LINE
  5
1C230
  8
0
 10
-24.700003489975941
 20
-1.4999534641020771
 30
0.0
 11
-0.0000034900840618
 21
-1.499953464101849
 31
0.0
  0
LINE
  5
1C231
  8
0
 10
-29.999999999837598
 20
0.0000465358979227
 30
0.0
 11
-24.6999965095923
 21
1.5000465358980359
 31
0.0
  0
LINE
  5
1C232
  8
0
 10
-0.0000081437821464
 20
-3.4999999999998859
 30
0.0
 11
-0.0000034900840618
 21
-1.499953464101849
 31
0.0
  0
LINE
  5
1C233
  8
0
 10
-24.6999965095923
 20
1.5000465358980359
 30
0.0
 11
0.0000034903006139
 21
1.500046535897922
 31
0.0
  0
LINE
  5
1C234
  8
0
 10
-0.0000081437821464
 20
-3.4999999999998859
 30
0.0
 11
1.0999953464131731
 21
-3.5
 31
0.0
  0
LINE
  5
1C235
  8
0
 10
0.0000034903006139
 20
1.500046535897922
 30
0.0
 11
0.0000081437821322
 21
3.5
 31
0.0
  0
ARC
  5
1C236
  8
0
 10
1.0999953464131731
 20
-2.0
 30
0.0
 40
1.5
 50
270.0
 51
359.99986668447059
  0
LINE
  5
1C237
  8
0
 10
0.0000081437821322
 20
3.5
 30
0.0
 11
1.100004653592769
 21
3.5
 31
0.0
  0
LINE
  5
1C238
  8
0
 10
2.5999953464091159
 20
-2.0000034901923982
 30
0.0
 11
2.6000046535887051
 21
1.9999965098076009
 31
0.0
  0
ARC
  5
1C239
  8
0
 10
1.100004653592769
 20
2.0
 30
0.0
 40
1.5
 50
359.99986668447059
 51
90.0
  0
ENDBLK
  5
1C23B
  8
0
  0
BLOCK
  8
0
  2
*U47
 70
     1
 10
0.0
 20
0.0
 30
0.0
  3
*U47
  1

  0
TEXT
  5
1C240
  8
1DIM
 62
   201
 10
618.75815092825781
 20
-1117.91242203312
 30
0.0
 40
3.5
  1
接地面90
  0
ENDBLK
  5
1C242
  8
0
  0
BLOCK
  8
0
  2
*U48
 70
     1
 10
0.0
 20
0.0
 30
0.0
  3
*U48
  1

  0
TEXT
  5
1C244
  8
1DIM
 62
   201
 10
743.28433552402612
 20
-1284.1798795661739
 30
0.0
 40
3.5
  1
46
 50
90.0
  0
ENDBLK
  5
1C246
  8
0
  0
BLOCK
  8
0
  2
*U49
 70
     1
 10
0.0
 20
0.0
 30
0.0
  3
*U49
  1

  0
TEXT
  5
1C248
  8
1DIM
 62
   201
 10
818.03097845747516
 20
-1311.673771319211
 30
0.0
 40
3.5
  1
87
  0
ENDBLK
  5
1C24A
  8
0
  0
BLOCK
  8
0
  2
*U50
 70
     1
 10
0.0
 20
0.0
 30
0.0
  3
*U50
  1

  0
TEXT
  5
1C24C
  8
1DIM
 62
   201
 10
644.71648426159163
 20
-1234.2293556841771
 30
0.0
 40
3.5
  1
131
  0
ENDBLK
  5
1C24E
  8
0
  0
BLOCK
  8
0
  2
*U51
 70
     1
 10
0.0
 20
0.0
 30
0.0
  3
*U51
  1

  0
TEXT
  5
1C250
  8
1DIM
 62
   201
 10
729.01648426159181
 20
-1205.4761985246921
 30
0.0
 40
3.5
  1
82.5（ペーパー無し最小値）
 50
90.0
  0
ENDBLK
  5
1C252
  8
0
  0
BLOCK
  8
0
  2
*U52
 70
     1
 10
0.0
 20
0.0
 30
0.0
  3
*U52
  1

  0
TEXT
  5
1C254
  8
1DIM
 62
   201
 10
729.0164842615917
 20
-1293.396541143155
 30
0.0
 40
3.5
  1
P18
 50
90.0
  0
ENDBLK
  5
1C256
  8
0
  0
BLOCK
  8
0
  2
*U53
 70
     1
 10
0.0
 20
0.0
 30
0.0
  3
*U53
  1

  0
TEXT
  5
1C258
  8
1DIM
 62
   201
 10
729.01648426159181
 20
-1278.479874476488
 30
0.0
 40
3.5
  1
6
 50
90.0
  0
ENDBLK
  5
1C25A
  8
0
  0
BLOCK
  8
0
  2
*U54
 70
     1
 10
0.0
 20
0.0
 30
0.0
  3
*U54
  1

  0
TEXT
  5
1C25C
  8
1DIM
 62
   201
 10
625.04982394003662
 20
-1313.6132078098219
 30
0.0
 40
3.5
  1
P42
  0
ENDBLK
  5
1C25E
  8
0
  0
BLOCK
  8
0
  2
*U55
 70
     1
 10
0.0
 20
0.0
 30
0.0
  3
*U55
  1

  0
TEXT
  5
1C260
  8
1DIM
 62
   201
 10
592.799817594925
 20
-1313.6132078098219
 30
0.0
 40
3.5
  1
26
  0
ENDBLK
  5
1C262
  8
0
  0
BLOCK
  8
0
  2
*U56
 70
     1
 10
0.0
 20
0.0
 30
0.0
  3
*U56
  1

  0
TEXT
  5
1C264
  8
1DIM
 62
   201
 10
644.71648426159186
 20
-1323.6132078098219
 30
0.0
 40
3.5
  1
131
  0
ENDBLK
  5
1C266
  8
0
  0
BLOCK
  8
0
  2
*U57
 70
     1
 10
0.0
 20
0.0
 30
0.0
  3
*U57
  1

  0
TEXT
  5
1C268
  8
1DIM
 62
   201
 10
647.21648426159152
 20
-1237.5132126615661
 30
0.0
 40
3.5
  1
118
  0
ENDBLK
  5
1C26A
  8
0
  0
BLOCK
  8
0
  2
*U58
 70
     1
 10
0.0
 20
0.0
 30
0.0
  3
*U58
  1

  0
TEXT
  5
1C26C
  8
1DIM
 62
   201
 10
976.92451333043357
 20
1466.715237298954
 30
0.0
 40
3.5
  1
131
  0
ENDBLK
  5
1C26E
  8
0
  0
BLOCK
  8
0
  2
*U59
 70
     1
 10
0.0
 20
0.0
 30
0.0
  3
*U59
  1

  0
TEXT
  5
1C270
  8
1DIM
 62
   201
 10
1178.55948498219
 20
1429.662459271432
 30
0.0
 40
3.5
  1
49.1
 50
90.0
  0
ENDBLK
  5
1C272
  8
0
  0
BLOCK
  8
0
  2
*U60
 70
     1
 10
0.0
 20
0.0
 30
0.0
  3
*U60
  1

  0
TEXT
  5
1C274
  8
1DIM
 62
   201
 10
1117.654183931593
 20
1401.474088785958
 30
0.0
 40
3.5
  1
87.15
  0
ENDBLK
  5
1C276
  8
0
  0
BLOCK
  8
0
  2
*U61
 70
     1
 10
0.0
 20
0.0
 30
0.0
  3
*U61
  1

  0
TEXT
  5
1C278
  8
1DIM
 62
   201
 10
1110.820876271931
 20
1393.07898297722
 30
0.0
 40
3.5
  1
99.65
  0
ENDBLK
  5
1C27A
  8
0
  0
BLOCK
  8
0
  2
*U62
 70
     1
 10
0.0
 20
0.0
 30
0.0
  3
*U62
  1

  0
TEXT
  5
1C27C
  8
1DIM
 62
   201
 10
687.41589188580281
 20
-1396.052383477491
 30
0.0
 40
3.5
  1
131
  0
ENDBLK
  5
1C27E
  8
0
  0
BLOCK
  8
0
  2
*U63
 70
     1
 10
0.0
 20
0.0
 30
0.0
  3
*U63
  1

  0
TEXT
  5
1C280
  8
1DIM
 62
   201
 10
889.05086353756008
 20
-1433.105161505013
 30
0.0
 40
3.5
  1
49.1
 50
90.0
  0
ENDBLK
  5
1C282
  8
0
  0
BLOCK
  8
0
  2
*U64
 70
     1
 10
0.0
 20
0.0
 30
0.0
  3
*U64
  1

  0
TEXT
  5
1C284
  8
1DIM
 62
   201
 10
828.14556248696226
 20
-1461.2935319904871
 30
0.0
 40
3.5
  1
87.15
  0
ENDBLK
  5
1C286
  8
0
  0
BLOCK
  8
0
  2
*U65
 70
     1
 10
0.0
 20
0.0
 30
0.0
  3
*U65
  1

  0
TEXT
  5
1C288
  8
1DIM
 62
   201
 10
821.31225482730065
 20
-1469.688637799225
 30
0.0
 40
3.5
  1
99.65
  0
ENDBLK
  5
1C28A
  8
0
  0
BLOCK
  8
0
  2
*U66
 70
     1
 10
0.0
 20
0.0
 30
0.0
  3
*U66
  1

  0
TEXT
  5
1C28C
  8
1DIM
 62
   201
 10
927.62792239175315
 20
-1282.6798726864631
 30
0.0
 40
3.5
  1
49
 50
90.0
  0
ENDBLK
  5
1C28E
  8
0
  0
BLOCK
  8
0
  2
*U67
 70
     1
 10
0.0
 20
0.0
 30
0.0
  3
*U67
  1

  0
TEXT
  5
1C290
  8
1DIM
 62
   201
 10
881.7548549519131
 20
-1245.669421117334
 30
0.0
 40
3.5
  1
9
  0
ENDBLK
  5
1C292
  8
0
  0
BLOCK
  8
0
  2
*U68
 70
     1
 10
0.0
 20
0.0
 30
0.0
  3
*U68
  1

  0
TEXT
  5
1C294
  8
1DIM
 62
   201
 10
811.73885740734318
 20
-1233.2190074545961
 30
0.0
 40
3.5
  1
99 （ペーパー付き最大値）
  0
ENDBLK
  5
1C296
  8
0
  0
BLOCK
  8
0
  2
*U69
 70
     1
 10
0.0
 20
0.0
 30
0.0
  3
*U69
  1

  0
SOLID
  5
1C298
  8
1DIM
 10
0.5756018230855501
 20
20.131053278443559
 30
0.0
 11
-0.0000003255786396
 21
22.075222323965139
 31
0.0
 12
1.175029505489078
 22
20.422825275065541
 32
0.0
 13
1.175029505489078
 23
20.422825275065541
 33
0.0
  0
POLYLINE
  5
1C299
  8
1DIM
 66
     1
 10
0.0
 20
0.0
 30
0.0
  0
VERTEX
  5
1C29A
  8
1DIM
 10
0.8753156642873141
 20
20.27693927675455
 30
0.0
  0
VERTEX
  5
1C29B
  8
1DIM
 10
10.745135148961809
 20
0.0000001327125176
 30
0.0
  0
VERTEX
  5
1C29C
  8
1DIM
 10
58.24513514896185
 20
0.0000001327125176
 30
0.0
  0
SEQEND
  5
1C29D
  8
1DIM
  0
ENDBLK
  5
1C29F
  8
0
  0
BLOCK
  8
0
  2
*U70
 70
     1
 10
0.0
 20
0.0
 30
0.0
  3
*U70
  1

  0
TEXT
  5
1C2A1
  8
1DIM
 62
   201
 10
13.445135148961811
 20
12.366666799379191
 30
0.0
 40
3.5
  1
材質：ステンレス
  0
TEXT
  5
1C2A2
  8
1DIM
 62
   201
 10
13.445135148961811
 20
6.5333334660458533
 30
0.0
 40
3.5
  1
仕上：各種仕上
  0
TEXT
  5
1C2A3
  8
1DIM
 62
   201
 10
12.745135148961809
 20
0.7000001327125194
 30
0.0
 40
3.5
  1
※ヘアライン方向：横目
  0
ENDBLK
  5
1C2A5
  8
0
  0
ENDSEC
  0
SECTION
  2
ENTITIES
  0
LINE
  5
193BD
  8
01
 10
896.34647166283173
 20
-1249.3132033558779
 30
0.0
 11
896.34647166283173
 21
-1329.313203355877
 31
0.0
  0
LINE
  5
193BE
  8
01
 10
905.34647166283185
 20
-1249.3132033558779
 30
0.0
 11
905.34647166283173
 21
-1329.313203355877
 31
0.0
  0
LINE
  5
193BF
  8
01
 10
887.34647166283173
 20
-1249.3132033558779
 30
0.0
 11
887.34647166283173
 21
-1329.313203355877
 31
0.0
  0
TEXT
  5
193D0
  8
1TEXT
 10
810.08929233345339
 20
-1169.5694077804681
 30
0.0
 40
8.0
  1
SC453-X
  0
LINE
  5
1A43E
  8
01
 10
671.71648426159106
 20
-1274.313207809822
 30
0.0
 11
670.71648426159265
 21
-1274.313207809822
 31
0.0
  0
LINE
  5
1A43F
  8
01
 10
668.7164842615914
 20
-1274.313207809822
 30
0.0
 11
632.7164842615914
 21
-1274.313207809822
 31
0.0
  0
LINE
  5
1A440
  8
01
 10
630.71648426159163
 20
-1274.313207809822
 30
0.0
 11
583.71648426159106
 21
-1274.313207809822
 31
0.0
  0
ARC
  5
1A441
  8
01
 10
583.71648426159106
 20
-1275.313207809822
 30
0.0
 40
1.0
 50
90.0
 51
180.0
  0
LINE
  5
1A442
  8
01
 10
671.71648426159209
 20
-1304.313207809822
 30
0.0
 11
583.71648426159163
 21
-1304.313207809822
 31
0.0
  0
LINE
  5
1A443
  8
01
 10
708.71648426159197
 20
-1284.3695643559131
 30
0.0
 11
708.71648426159197
 21
-1282.7219779199379
 31
0.0
  0
LINE
  5
1A444
  8
01
 10
713.71648426159209
 20
-1295.904437699706
 30
0.0
 11
713.71648426159209
 21
-1282.7219779199379
 31
0.0
  0
ARC
  5
1A445
  8
01
 10
712.71648426159197
 20
-1288.313207809822
 30
0.0
 40
1.0
 50
0.0
 51
90.0
  0
ARC
  5
1A446
  8
01
 10
712.71648426159197
 20
-1282.7219779199379
 30
0.0
 40
1.0
 50
0.0
 51
90.0
  0
LINE
  5
1A447
  8
01
 10
592.71648426159163
 20
-1283.3695643559131
 30
0.0
 11
592.71648426159163
 21
-1276.206894239466
 31
0.0
  0
ARC
  5
1A448
  8
01
 10
593.71648426159163
 20
-1276.206894239466
 30
0.0
 40
1.0
 50
90.0
 51
180.0
  0
LINE
  5
1A449
  8
01
 10
582.71648426159163
 20
-1303.313207809822
 30
0.0
 11
582.71648426159106
 21
-1275.313207809822
 31
0.0
  0
ARC
  5
1A44A
  8
01
 10
583.71648426159163
 20
-1303.313207809822
 30
0.0
 40
1.0
 50
180.0
 51
270.0
  0
LINE
  5
1A44C
  8
01
 10
672.71648426159118
 20
-1275.313207809822
 30
0.0
 11
672.71648426159118
 21
-1284.3591096802261
 31
0.0
  0
ARC
  5
1A44D
  8
01
 10
671.71648426159106
 20
-1275.313207809822
 30
0.0
 40
1.0
 50
0.0
 51
90.0
  0
LINE
  5
1A44E
  8
01
 10
672.71648426159163
 20
-1294.2673059394181
 30
0.0
 11
672.71648426159209
 21
-1303.313207809822
 31
0.0
  0
ARC
  5
1A44F
  8
01
 10
671.71648426159209
 20
-1303.313207809822
 30
0.0
 40
1.0
 50
270.0
 51
0.0
  0
LINE
  5
1A450
  8
01
 10
708.71648426159197
 20
-1294.2568512637311
 30
0.0
 11
708.71648426159163
 21
-1295.904437699706
 31
0.0
  0
ARC
  5
1A451
  8
01
 10
709.71648426159163
 20
-1295.904437699706
 30
0.0
 40
1.0
 50
179.99999999998701
 51
270.0
  0
LINE
  5
1A452
  8
01
 10
592.71648426159106
 20
-1295.2568512637311
 30
0.0
 11
592.71648426159106
 21
-1302.419521380177
 31
0.0
  0
ARC
  5
1A453
  8
01
 10
593.71648426159118
 20
-1295.2568512637311
 30
0.0
 40
1.0
 50
90.0
 51
180.0
  0
ARC
  5
1A454
  8
01
 10
593.71648426159118
 20
-1302.419521380177
 30
0.0
 40
1.0
 50
180.0
 51
270.0
  0
CIRCLE
  5
1A479
  8
01
 10
650.71648426159163
 20
-1280.313207809822
 30
0.0
 40
4.0000000000201288
  0
CIRCLE
  5
1A47A
  8
01
 10
650.71649695181475
 20
-1280.313207809822
 30
0.0
 40
2.2500000000068492
  0
CIRCLE
  5
1A47B
  8
01
 10
608.71648426159163
 20
-1298.313207809822
 30
0.0
 40
4.0000000000201288
  0
CIRCLE
  5
1A47C
  8
01
 10
608.71649695181475
 20
-1298.313207809822
 30
0.0
 40
2.2500000000068492
  0
LINE
  5
1A47D
  8
1CENTER
 10
719.46195053885549
 20
-1289.313207809822
 30
0.0
 11
581.97101798432766
 21
-1289.313207809822
 31
0.0
  0
LINE
  5
1A484
  8
01
 10
712.71648426159197
 20
-1287.313207809822
 30
0.0
 11
583.71648426159106
 21
-1287.313207809822
 31
0.0
  0
LINE
  5
1A485
  8
01
 10
708.71648426159197
 20
-1284.3695643559131
 30
0.0
 11
593.71648426159163
 21
-1284.3695643559131
 31
0.0
  0
ARC
  5
1A486
  8
01
 10
593.71648426159163
 20
-1283.3695643559131
 30
0.0
 40
1.0
 50
180.0
 51
270.0
  0
LINE
  5
1A487
  8
01
 10
712.71648426159197
 20
-1281.7219779199379
 30
0.0
 11
709.71648426159209
 21
-1281.7219779199379
 31
0.0
  0
ARC
  5
1A488
  8
01
 10
709.71648426159209
 20
-1282.7219779199379
 30
0.0
 40
1.0
 50
90.0
 51
180.0
  0
LINE
  5
1A489
  8
01
 10
671.71648426159106
 20
-1275.206894239466
 30
0.0
 11
593.71648426159163
 21
-1275.206894239466
 31
0.0
  0
ARC
  5
1A48A
  8
01
 10
671.71648426159106
 20
-1276.206894239466
 30
0.0
 40
1.0
 50
0.0
 51
90.0
  0
LINE
  5
1A48B
  8
01
 10
712.71648426159197
 20
-1291.313207809822
 30
0.0
 11
583.71648426159163
 21
-1291.313207809822
 31
0.0
  0
ARC
  5
1A48C
  8
01
 10
712.71648426159197
 20
-1290.313207809822
 30
0.0
 40
1.0
 50
270.0
 51
0.0
  0
LINE
  5
1A48D
  8
01
 10
708.71648426159197
 20
-1294.2568512637311
 30
0.0
 11
593.71648426159118
 21
-1294.2568512637311
 31
0.0
  0
LINE
  5
1A48E
  8
01
 10
712.71648426159197
 20
-1296.904437699706
 30
0.0
 11
709.71648426159163
 21
-1296.904437699706
 31
0.0
  0
ARC
  5
1A48F
  8
01
 10
712.71648426159197
 20
-1295.904437699706
 30
0.0
 40
1.0
 50
270.0
 51
0.0
  0
LINE
  5
1A490
  8
01
 10
671.71648426159209
 20
-1303.4195213801779
 30
0.0
 11
593.71648426159118
 21
-1303.4195213801779
 31
0.0
  0
ARC
  5
1A491
  8
01
 10
671.71648426159209
 20
-1302.419521380177
 30
0.0
 40
1.0
 50
270.0
 51
0.0
  0
ARC
  5
1A496
  8
01
 10
583.71648426159163
 20
-1290.313207809822
 30
0.0
 40
1.0
 50
180.0
 51
270.0
  0
ARC
  5
1A497
  8
01
 10
583.71648426159106
 20
-1288.313207809822
 30
0.0
 40
1.0
 50
90.0
 51
180.0
  0
LINE
  5
1A4BD
  8
01
 10
706.71648426159175
 20
-1253.432165081706
 30
0.0
 11
594.71648426159152
 21
-1253.432165081706
 31
0.0
  0
LINE
  5
1A4BE
  8
01
 10
706.71648426159175
 20
-1252.624761836732
 30
0.0
 11
594.71648426159152
 21
-1252.624761836732
 31
0.0
  0
LINE
  5
1A4BF
  8
01
 10
591.71648426159106
 20
-1254.4783247470959
 30
0.0
 11
591.7164842615914
 21
-1247.4088453083391
 31
0.0
  0
LINE
  5
1A4C0
  8
01
 10
709.71648426159175
 20
-1254.4783247470959
 30
0.0
 11
709.71648426159175
 21
-1247.4088453083391
 31
0.0
  0
POLYLINE
  5
1A4C2
  8
01
 10
706.71648426159175
 20
-1252.624761836732
 30
0.0
 66
     1
 70
     8
  0
VERTEX
  8
01
  5
1C2A6
 10
706.716
 20
-1252.62
 30
0.000000
  70
    32
  0
VERTEX
  8
01
  5
1C2A7
 10
706.753
 20
-1252.62
 30
0.000000
  70
    32
  0
VERTEX
  8
01
  5
1C2A8
 10
706.790
 20
-1252.62
 30
0.000000
  70
    32
  0
VERTEX
  8
01
  5
1C2A9
 10
706.827
 20
-1252.62
 30
0.000000
  70
    32
  0
VERTEX
  8
01
  5
1C2AA
 10
706.864
 20
-1252.62
 30
0.000000
  70
    32
  0
VERTEX
  8
01
  5
1C2AB
 10
706.900
 20
-1252.62
 30
0.000000
  70
    32
  0
VERTEX
  8
01
  5
1C2AC
 10
706.937
 20
-1252.62
 30
0.000000
  70
    32
  0
VERTEX
  8
01
  5
1C2AD
 10
706.974
 20
-1252.62
 30
0.000000
  70
    32
  0
VERTEX
  8
01
  5
1C2AE
 10
707.011
 20
-1252.62
 30
0.000000
  70
    32
  0
VERTEX
  8
01
  5
1C2AF
 10
707.047
 20
-1252.61
 30
0.000000
  70
    32
  0
VERTEX
  8
01
  5
1C2B0
 10
707.084
 20
-1252.61
 30
0.000000
  70
    32
  0
VERTEX
  8
01
  5
1C2B1
 10
707.120
 20
-1252.61
 30
0.000000
  70
    32
  0
VERTEX
  8
01
  5
1C2B2
 10
707.157
 20
-1252.61
 30
0.000000
  70
    32
  0
VERTEX
  8
01
  5
1C2B3
 10
707.193
 20
-1252.60
 30
0.000000
  70
    32
  0
VERTEX
  8
01
  5
1C2B4
 10
707.229
 20
-1252.60
 30
0.000000
  70
    32
  0
VERTEX
  8
01
  5
1C2B5
 10
707.266
 20
-1252.59
 30
0.000000
  70
    32
  0
VERTEX
  8
01
  5
1C2B6
 10
707.302
 20
-1252.59
 30
0.000000
  70
    32
  0
VERTEX
  8
01
  5
1C2B7
 10
707.338
 20
-1252.59
 30
0.000000
  70
    32
  0
VERTEX
  8
01
  5
1C2B8
 10
707.374
 20
-1252.58
 30
0.000000
  70
    32
  0
VERTEX
  8
01
  5
1C2B9
 10
707.410
 20
-1252.58
 30
0.000000
  70
    32
  0
VERTEX
  8
01
  5
1C2BA
 10
707.445
 20
-1252.57
 30
0.000000
  70
    32
  0
VERTEX
  8
01
  5
1C2BB
 10
707.481
 20
-1252.57
 30
0.000000
  70
    32
  0
VERTEX
  8
01
  5
1C2BC
 10
707.517
 20
-1252.56
 30
0.000000
  70
    32
  0
VERTEX
  8
01
  5
1C2BD
 10
707.552
 20
-1252.55
 30
0.000000
  70
    32
  0
VERTEX
  8
01
  5
1C2BE
 10
707.587
 20
-1252.55
 30
0.000000
  70
    32
  0
VERTEX
  8
01
  5
1C2BF
 10
707.623
 20
-1252.54
 30
0.000000
  70
    32
  0
VERTEX
  8
01
  5
1C2C0
 10
707.658
 20
-1252.54
 30
0.000000
  70
    32
  0
VERTEX
  8
01
  5
1C2C1
 10
707.692
 20
-1252.53
 30
0.000000
  70
    32
  0
VERTEX
  8
01
  5
1C2C2
 10
707.727
 20
-1252.52
 30
0.000000
  70
    32
  0
VERTEX
  8
01
  5
1C2C3
 10
707.762
 20
-1252.51
 30
0.000000
  70
    32
  0
VERTEX
  8
01
  5
1C2C4
 10
707.796
 20
-1252.51
 30
0.000000
  70
    32
  0
VERTEX
  8
01
  5
1C2C5
 10
707.830
 20
-1252.50
 30
0.000000
  70
    32
  0
VERTEX
  8
01
  5
1C2C6
 10
707.865
 20
-1252.49
 30
0.000000
  70
    32
  0
VERTEX
  8
01
  5
1C2C7
 10
707.898
 20
-1252.48
 30
0.000000
  70
    32
  0
VERTEX
  8
01
  5
1C2C8
 10
707.932
 20
-1252.47
 30
0.000000
  70
    32
  0
VERTEX
  8
01
  5
1C2C9
 10
707.966
 20
-1252.46
 30
0.000000
  70
    32
  0
VERTEX
  8
01
  5
1C2CA
 10
707.999
 20
-1252.45
 30
0.000000
  70
    32
  0
VERTEX
  8
01
  5
1C2CB
 10
708.032
 20
-1252.45
 30
0.000000
  70
    32
  0
VERTEX
  8
01
  5
1C2CC
 10
708.065
 20
-1252.44
 30
0.000000
  70
    32
  0
VERTEX
  8
01
  5
1C2CD
 10
708.098
 20
-1252.43
 30
0.000000
  70
    32
  0
VERTEX
  8
01
  5
1C2CE
 10
708.131
 20
-1252.42
 30
0.000000
  70
    32
  0
VERTEX
  8
01
  5
1C2CF
 10
708.163
 20
-1252.41
 30
0.000000
  70
    32
  0
VERTEX
  8
01
  5
1C2D0
 10
708.195
 20
-1252.39
 30
0.000000
  70
    32
  0
VERTEX
  8
01
  5
1C2D1
 10
708.227
 20
-1252.38
 30
0.000000
  70
    32
  0
VERTEX
  8
01
  5
1C2D2
 10
708.259
 20
-1252.37
 30
0.000000
  70
    32
  0
VERTEX
  8
01
  5
1C2D3
 10
708.290
 20
-1252.36
 30
0.000000
  70
    32
  0
VERTEX
  8
01
  5
1C2D4
 10
708.321
 20
-1252.35
 30
0.000000
  70
    32
  0
VERTEX
  8
01
  5
1C2D5
 10
708.352
 20
-1252.34
 30
0.000000
  70
    32
  0
VERTEX
  8
01
  5
1C2D6
 10
708.383
 20
-1252.33
 30
0.000000
  70
    32
  0
VERTEX
  8
01
  5
1C2D7
 10
708.414
 20
-1252.31
 30
0.000000
  70
    32
  0
VERTEX
  8
01
  5
1C2D8
 10
708.444
 20
-1252.30
 30
0.000000
  70
    32
  0
VERTEX
  8
01
  5
1C2D9
 10
708.474
 20
-1252.29
 30
0.000000
  70
    32
  0
VERTEX
  8
01
  5
1C2DA
 10
708.504
 20
-1252.28
 30
0.000000
  70
    32
  0
VERTEX
  8
01
  5
1C2DB
 10
708.533
 20
-1252.26
 30
0.000000
  70
    32
  0
VERTEX
  8
01
  5
1C2DC
 10
708.562
 20
-1252.25
 30
0.000000
  70
    32
  0
VERTEX
  8
01
  5
1C2DD
 10
708.591
 20
-1252.24
 30
0.000000
  70
    32
  0
VERTEX
  8
01
  5
1C2DE
 10
708.620
 20
-1252.22
 30
0.000000
  70
    32
  0
VERTEX
  8
01
  5
1C2DF
 10
708.648
 20
-1252.21
 30
0.000000
  70
    32
  0
VERTEX
  8
01
  5
1C2E0
 10
708.676
 20
-1252.20
 30
0.000000
  70
    32
  0
VERTEX
  8
01
  5
1C2E1
 10
708.704
 20
-1252.18
 30
0.000000
  70
    32
  0
VERTEX
  8
01
  5
1C2E2
 10
708.731
 20
-1252.17
 30
0.000000
  70
    32
  0
VERTEX
  8
01
  5
1C2E3
 10
708.758
 20
-1252.15
 30
0.000000
  70
    32
  0
VERTEX
  8
01
  5
1C2E4
 10
708.785
 20
-1252.14
 30
0.000000
  70
    32
  0
VERTEX
  8
01
  5
1C2E5
 10
708.812
 20
-1252.12
 30
0.000000
  70
    32
  0
VERTEX
  8
01
  5
1C2E6
 10
708.838
 20
-1252.11
 30
0.000000
  70
    32
  0
VERTEX
  8
01
  5
1C2E7
 10
708.864
 20
-1252.09
 30
0.000000
  70
    32
  0
VERTEX
  8
01
  5
1C2E8
 10
708.889
 20
-1252.08
 30
0.000000
  70
    32
  0
VERTEX
  8
01
  5
1C2E9
 10
708.914
 20
-1252.06
 30
0.000000
  70
    32
  0
VERTEX
  8
01
  5
1C2EA
 10
708.939
 20
-1252.04
 30
0.000000
  70
    32
  0
VERTEX
  8
01
  5
1C2EB
 10
708.964
 20
-1252.03
 30
0.000000
  70
    32
  0
VERTEX
  8
01
  5
1C2EC
 10
708.988
 20
-1252.01
 30
0.000000
  70
    32
  0
VERTEX
  8
01
  5
1C2ED
 10
709.012
 20
-1251.99
 30
0.000000
  70
    32
  0
VERTEX
  8
01
  5
1C2EE
 10
709.036
 20
-1251.98
 30
0.000000
  70
    32
  0
VERTEX
  8
01
  5
1C2EF
 10
709.059
 20
-1251.96
 30
0.000000
  70
    32
  0
VERTEX
  8
01
  5
1C2F0
 10
709.082
 20
-1251.94
 30
0.000000
  70
    32
  0
VERTEX
  8
01
  5
1C2F1
 10
709.104
 20
-1251.93
 30
0.000000
  70
    32
  0
VERTEX
  8
01
  5
1C2F2
 10
709.126
 20
-1251.91
 30
0.000000
  70
    32
  0
VERTEX
  8
01
  5
1C2F3
 10
709.148
 20
-1251.89
 30
0.000000
  70
    32
  0
VERTEX
  8
01
  5
1C2F4
 10
709.169
 20
-1251.87
 30
0.000000
  70
    32
  0
VERTEX
  8
01
  5
1C2F5
 10
709.190
 20
-1251.86
 30
0.000000
  70
    32
  0
VERTEX
  8
01
  5
1C2F6
 10
709.211
 20
-1251.84
 30
0.000000
  70
    32
  0
VERTEX
  8
01
  5
1C2F7
 10
709.231
 20
-1251.82
 30
0.000000
  70
    32
  0
VERTEX
  8
01
  5
1C2F8
 10
709.251
 20
-1251.80
 30
0.000000
  70
    32
  0
VERTEX
  8
01
  5
1C2F9
 10
709.271
 20
-1251.78
 30
0.000000
  70
    32
  0
VERTEX
  8
01
  5
1C2FA
 10
709.290
 20
-1251.76
 30
0.000000
  70
    32
  0
VERTEX
  8
01
  5
1C2FB
 10
709.308
 20
-1251.75
 30
0.000000
  70
    32
  0
VERTEX
  8
01
  5
1C2FC
 10
709.327
 20
-1251.73
 30
0.000000
  70
    32
  0
VERTEX
  8
01
  5
1C2FD
 10
709.345
 20
-1251.71
 30
0.000000
  70
    32
  0
VERTEX
  8
01
  5
1C2FE
 10
709.362
 20
-1251.69
 30
0.000000
  70
    32
  0
VERTEX
  8
01
  5
1C2FF
 10
709.379
 20
-1251.67
 30
0.000000
  70
    32
  0
VERTEX
  8
01
  5
1C300
 10
709.396
 20
-1251.65
 30
0.000000
  70
    32
  0
VERTEX
  8
01
  5
1C301
 10
709.413
 20
-1251.63
 30
0.000000
  70
    32
  0
VERTEX
  8
01
  5
1C302
 10
709.428
 20
-1251.61
 30
0.000000
  70
    32
  0
VERTEX
  8
01
  5
1C303
 10
709.444
 20
-1251.59
 30
0.000000
  70
    32
  0
VERTEX
  8
01
  5
1C304
 10
709.459
 20
-1251.57
 30
0.000000
  70
    32
  0
VERTEX
  8
01
  5
1C305
 10
709.474
 20
-1251.55
 30
0.000000
  70
    32
  0
VERTEX
  8
01
  5
1C306
 10
709.488
 20
-1251.53
 30
0.000000
  70
    32
  0
VERTEX
  8
01
  5
1C307
 10
709.502
 20
-1251.51
 30
0.000000
  70
    32
  0
VERTEX
  8
01
  5
1C308
 10
709.515
 20
-1251.49
 30
0.000000
  70
    32
  0
VERTEX
  8
01
  5
1C309
 10
709.529
 20
-1251.47
 30
0.000000
  70
    32
  0
VERTEX
  8
01
  5
1C30A
 10
709.541
 20
-1251.45
 30
0.000000
  70
    32
  0
VERTEX
  8
01
  5
1C30B
 10
709.553
 20
-1251.43
 30
0.000000
  70
    32
  0
VERTEX
  8
01
  5
1C30C
 10
709.565
 20
-1251.41
 30
0.000000
  70
    32
  0
VERTEX
  8
01
  5
1C30D
 10
709.576
 20
-1251.39
 30
0.000000
  70
    32
  0
VERTEX
  8
01
  5
1C30E
 10
709.587
 20
-1251.37
 30
0.000000
  70
    32
  0
VERTEX
  8
01
  5
1C30F
 10
709.598
 20
-1251.35
 30
0.000000
  70
    32
  0
VERTEX
  8
01
  5
1C310
 10
709.608
 20
-1251.33
 30
0.000000
  70
    32
  0
VERTEX
  8
01
  5
1C311
 10
709.617
 20
-1251.31
 30
0.000000
  70
    32
  0
VERTEX
  8
01
  5
1C312
 10
709.627
 20
-1251.28
 30
0.000000
  70
    32
  0
VERTEX
  8
01
  5
1C313
 10
709.635
 20
-1251.26
 30
0.000000
  70
    32
  0
VERTEX
  8
01
  5
1C314
 10
709.644
 20
-1251.24
 30
0.000000
  70
    32
  0
VERTEX
  8
01
  5
1C315
 10
709.651
 20
-1251.22
 30
0.000000
  70
    32
  0
VERTEX
  8
01
  5
1C316
 10
709.659
 20
-1251.20
 30
0.000000
  70
    32
  0
VERTEX
  8
01
  5
1C317
 10
709.666
 20
-1251.18
 30
0.000000
  70
    32
  0
VERTEX
  8
01
  5
1C318
 10
709.672
 20
-1251.16
 30
0.000000
  70
    32
  0
VERTEX
  8
01
  5
1C319
 10
709.678
 20
-1251.14
 30
0.000000
  70
    32
  0
VERTEX
  8
01
  5
1C31A
 10
709.684
 20
-1251.11
 30
0.000000
  70
    32
  0
VERTEX
  8
01
  5
1C31B
 10
709.689
 20
-1251.09
 30
0.000000
  70
    32
  0
VERTEX
  8
01
  5
1C31C
 10
709.694
 20
-1251.07
 30
0.000000
  70
    32
  0
VERTEX
  8
01
  5
1C31D
 10
709.698
 20
-1251.05
 30
0.000000
  70
    32
  0
VERTEX
  8
01
  5
1C31E
 10
709.702
 20
-1251.03
 30
0.000000
  70
    32
  0
VERTEX
  8
01
  5
1C31F
 10
709.705
 20
-1251.01
 30
0.000000
  70
    32
  0
VERTEX
  8
01
  5
1C320
 10
709.708
 20
-1250.98
 30
0.000000
  70
    32
  0
VERTEX
  8
01
  5
1C321
 10
709.711
 20
-1250.96
 30
0.000000
  70
    32
  0
VERTEX
  8
01
  5
1C322
 10
709.713
 20
-1250.94
 30
0.000000
  70
    32
  0
VERTEX
  8
01
  5
1C323
 10
709.714
 20
-1250.92
 30
0.000000
  70
    32
  0
VERTEX
  8
01
  5
1C324
 10
709.716
 20
-1250.90
 30
0.000000
  70
    32
  0
VERTEX
  8
01
  5
1C325
 10
709.716
 20
-1250.88
 30
0.000000
  70
    32
  0
VERTEX
  8
01
  5
1C326
 10
709.716
 20
-1250.85
 30
0.000000
  70
    32
  0
SEQEND
  8
01
  5
1C327
  0
POLYLINE
  5
1A4C3
  8
01
 10
706.71648426159175
 20
-1253.432165081706
 30
0.0
 66
     1
 70
     8
  0
VERTEX
  8
01
  5
1C328
 10
706.716
 20
-1253.43
 30
0.000000
  70
    32
  0
VERTEX
  8
01
  5
1C329
 10
706.753
 20
-1253.43
 30
0.000000
  70
    32
  0
VERTEX
  8
01
  5
1C32A
 10
706.790
 20
-1253.43
 30
0.000000
  70
    32
  0
VERTEX
  8
01
  5
1C32B
 10
706.827
 20
-1253.43
 30
0.000000
  70
    32
  0
VERTEX
  8
01
  5
1C32C
 10
706.864
 20
-1253.43
 30
0.000000
  70
    32
  0
VERTEX
  8
01
  5
1C32D
 10
706.900
 20
-1253.43
 30
0.000000
  70
    32
  0
VERTEX
  8
01
  5
1C32E
 10
706.937
 20
-1253.43
 30
0.000000
  70
    32
  0
VERTEX
  8
01
  5
1C32F
 10
706.974
 20
-1253.43
 30
0.000000
  70
    32
  0
VERTEX
  8
01
  5
1C330
 10
707.011
 20
-1253.42
 30
0.000000
  70
    32
  0
VERTEX
  8
01
  5
1C331
 10
707.047
 20
-1253.42
 30
0.000000
  70
    32
  0
VERTEX
  8
01
  5
1C332
 10
707.084
 20
-1253.42
 30
0.000000
  70
    32
  0
VERTEX
  8
01
  5
1C333
 10
707.120
 20
-1253.42
 30
0.000000
  70
    32
  0
VERTEX
  8
01
  5
1C334
 10
707.157
 20
-1253.41
 30
0.000000
  70
    32
  0
VERTEX
  8
01
  5
1C335
 10
707.193
 20
-1253.41
 30
0.000000
  70
    32
  0
VERTEX
  8
01
  5
1C336
 10
707.229
 20
-1253.41
 30
0.000000
  70
    32
  0
VERTEX
  8
01
  5
1C337
 10
707.266
 20
-1253.40
 30
0.000000
  70
    32
  0
VERTEX
  8
01
  5
1C338
 10
707.302
 20
-1253.40
 30
0.000000
  70
    32
  0
VERTEX
  8
01
  5
1C339
 10
707.338
 20
-1253.39
 30
0.000000
  70
    32
  0
VERTEX
  8
01
  5
1C33A
 10
707.374
 20
-1253.39
 30
0.000000
  70
    32
  0
VERTEX
  8
01
  5
1C33B
 10
707.410
 20
-1253.38
 30
0.000000
  70
    32
  0
VERTEX
  8
01
  5
1C33C
 10
707.445
 20
-1253.38
 30
0.000000
  70
    32
  0
VERTEX
  8
01
  5
1C33D
 10
707.481
 20
-1253.37
 30
0.000000
  70
    32
  0
VERTEX
  8
01
  5
1C33E
 10
707.517
 20
-1253.37
 30
0.000000
  70
    32
  0
VERTEX
  8
01
  5
1C33F
 10
707.552
 20
-1253.36
 30
0.000000
  70
    32
  0
VERTEX
  8
01
  5
1C340
 10
707.587
 20
-1253.36
 30
0.000000
  70
    32
  0
VERTEX
  8
01
  5
1C341
 10
707.623
 20
-1253.35
 30
0.000000
  70
    32
  0
VERTEX
  8
01
  5
1C342
 10
707.658
 20
-1253.34
 30
0.000000
  70
    32
  0
VERTEX
  8
01
  5
1C343
 10
707.692
 20
-1253.34
 30
0.000000
  70
    32
  0
VERTEX
  8
01
  5
1C344
 10
707.727
 20
-1253.33
 30
0.000000
  70
    32
  0
VERTEX
  8
01
  5
1C345
 10
707.762
 20
-1253.32
 30
0.000000
  70
    32
  0
VERTEX
  8
01
  5
1C346
 10
707.796
 20
-1253.31
 30
0.000000
  70
    32
  0
VERTEX
  8
01
  5
1C347
 10
707.830
 20
-1253.31
 30
0.000000
  70
    32
  0
VERTEX
  8
01
  5
1C348
 10
707.865
 20
-1253.30
 30
0.000000
  70
    32
  0
VERTEX
  8
01
  5
1C349
 10
707.898
 20
-1253.29
 30
0.000000
  70
    32
  0
VERTEX
  8
01
  5
1C34A
 10
707.932
 20
-1253.28
 30
0.000000
  70
    32
  0
VERTEX
  8
01
  5
1C34B
 10
707.966
 20
-1253.27
 30
0.000000
  70
    32
  0
VERTEX
  8
01
  5
1C34C
 10
707.999
 20
-1253.26
 30
0.000000
  70
    32
  0
VERTEX
  8
01
  5
1C34D
 10
708.032
 20
-1253.25
 30
0.000000
  70
    32
  0
VERTEX
  8
01
  5
1C34E
 10
708.065
 20
-1253.24
 30
0.000000
  70
    32
  0
VERTEX
  8
01
  5
1C34F
 10
708.098
 20
-1253.23
 30
0.000000
  70
    32
  0
VERTEX
  8
01
  5
1C350
 10
708.131
 20
-1253.22
 30
0.000000
  70
    32
  0
VERTEX
  8
01
  5
1C351
 10
708.163
 20
-1253.21
 30
0.000000
  70
    32
  0
VERTEX
  8
01
  5
1C352
 10
708.195
 20
-1253.20
 30
0.000000
  70
    32
  0
VERTEX
  8
01
  5
1C353
 10
708.227
 20
-1253.19
 30
0.000000
  70
    32
  0
VERTEX
  8
01
  5
1C354
 10
708.259
 20
-1253.18
 30
0.000000
  70
    32
  0
VERTEX
  8
01
  5
1C355
 10
708.290
 20
-1253.17
 30
0.000000
  70
    32
  0
VERTEX
  8
01
  5
1C356
 10
708.321
 20
-1253.16
 30
0.000000
  70
    32
  0
VERTEX
  8
01
  5
1C357
 10
708.352
 20
-1253.15
 30
0.000000
  70
    32
  0
VERTEX
  8
01
  5
1C358
 10
708.383
 20
-1253.13
 30
0.000000
  70
    32
  0
VERTEX
  8
01
  5
1C359
 10
708.414
 20
-1253.12
 30
0.000000
  70
    32
  0
VERTEX
  8
01
  5
1C35A
 10
708.444
 20
-1253.11
 30
0.000000
  70
    32
  0
VERTEX
  8
01
  5
1C35B
 10
708.474
 20
-1253.10
 30
0.000000
  70
    32
  0
VERTEX
  8
01
  5
1C35C
 10
708.504
 20
-1253.08
 30
0.000000
  70
    32
  0
VERTEX
  8
01
  5
1C35D
 10
708.533
 20
-1253.07
 30
0.000000
  70
    32
  0
VERTEX
  8
01
  5
1C35E
 10
708.562
 20
-1253.06
 30
0.000000
  70
    32
  0
VERTEX
  8
01
  5
1C35F
 10
708.591
 20
-1253.04
 30
0.000000
  70
    32
  0
VERTEX
  8
01
  5
1C360
 10
708.620
 20
-1253.03
 30
0.000000
  70
    32
  0
VERTEX
  8
01
  5
1C361
 10
708.648
 20
-1253.02
 30
0.000000
  70
    32
  0
VERTEX
  8
01
  5
1C362
 10
708.676
 20
-1253.00
 30
0.000000
  70
    32
  0
VERTEX
  8
01
  5
1C363
 10
708.704
 20
-1252.99
 30
0.000000
  70
    32
  0
VERTEX
  8
01
  5
1C364
 10
708.731
 20
-1252.97
 30
0.000000
  70
    32
  0
VERTEX
  8
01
  5
1C365
 10
708.758
 20
-1252.96
 30
0.000000
  70
    32
  0
VERTEX
  8
01
  5
1C366
 10
708.785
 20
-1252.94
 30
0.000000
  70
    32
  0
VERTEX
  8
01
  5
1C367
 10
708.812
 20
-1252.93
 30
0.000000
  70
    32
  0
VERTEX
  8
01
  5
1C368
 10
708.838
 20
-1252.91
 30
0.000000
  70
    32
  0
VERTEX
  8
01
  5
1C369
 10
708.864
 20
-1252.90
 30
0.000000
  70
    32
  0
VERTEX
  8
01
  5
1C36A
 10
708.889
 20
-1252.88
 30
0.000000
  70
    32
  0
VERTEX
  8
01
  5
1C36B
 10
708.914
 20
-1252.87
 30
0.000000
  70
    32
  0
VERTEX
  8
01
  5
1C36C
 10
708.939
 20
-1252.85
 30
0.000000
  70
    32
  0
VERTEX
  8
01
  5
1C36D
 10
708.964
 20
-1252.83
 30
0.000000
  70
    32
  0
VERTEX
  8
01
  5
1C36E
 10
708.988
 20
-1252.82
 30
0.000000
  70
    32
  0
VERTEX
  8
01
  5
1C36F
 10
709.012
 20
-1252.80
 30
0.000000
  70
    32
  0
VERTEX
  8
01
  5
1C370
 10
709.036
 20
-1252.79
 30
0.000000
  70
    32
  0
VERTEX
  8
01
  5
1C371
 10
709.059
 20
-1252.77
 30
0.000000
  70
    32
  0
VERTEX
  8
01
  5
1C372
 10
709.082
 20
-1252.75
 30
0.000000
  70
    32
  0
VERTEX
  8
01
  5
1C373
 10
709.104
 20
-1252.73
 30
0.000000
  70
    32
  0
VERTEX
  8
01
  5
1C374
 10
709.126
 20
-1252.72
 30
0.000000
  70
    32
  0
VERTEX
  8
01
  5
1C375
 10
709.148
 20
-1252.70
 30
0.000000
  70
    32
  0
VERTEX
  8
01
  5
1C376
 10
709.169
 20
-1252.68
 30
0.000000
  70
    32
  0
VERTEX
  8
01
  5
1C377
 10
709.190
 20
-1252.66
 30
0.000000
  70
    32
  0
VERTEX
  8
01
  5
1C378
 10
709.211
 20
-1252.65
 30
0.000000
  70
    32
  0
VERTEX
  8
01
  5
1C379
 10
709.231
 20
-1252.63
 30
0.000000
  70
    32
  0
VERTEX
  8
01
  5
1C37A
 10
709.251
 20
-1252.61
 30
0.000000
  70
    32
  0
VERTEX
  8
01
  5
1C37B
 10
709.271
 20
-1252.59
 30
0.000000
  70
    32
  0
VERTEX
  8
01
  5
1C37C
 10
709.290
 20
-1252.57
 30
0.000000
  70
    32
  0
VERTEX
  8
01
  5
1C37D
 10
709.308
 20
-1252.55
 30
0.000000
  70
    32
  0
VERTEX
  8
01
  5
1C37E
 10
709.327
 20
-1252.53
 30
0.000000
  70
    32
  0
VERTEX
  8
01
  5
1C37F
 10
709.345
 20
-1252.52
 30
0.000000
  70
    32
  0
VERTEX
  8
01
  5
1C380
 10
709.362
 20
-1252.50
 30
0.000000
  70
    32
  0
VERTEX
  8
01
  5
1C381
 10
709.379
 20
-1252.48
 30
0.000000
  70
    32
  0
VERTEX
  8
01
  5
1C382
 10
709.396
 20
-1252.46
 30
0.000000
  70
    32
  0
VERTEX
  8
01
  5
1C383
 10
709.413
 20
-1252.44
 30
0.000000
  70
    32
  0
VERTEX
  8
01
  5
1C384
 10
709.428
 20
-1252.42
 30
0.000000
  70
    32
  0
VERTEX
  8
01
  5
1C385
 10
709.444
 20
-1252.40
 30
0.000000
  70
    32
  0
VERTEX
  8
01
  5
1C386
 10
709.459
 20
-1252.38
 30
0.000000
  70
    32
  0
VERTEX
  8
01
  5
1C387
 10
709.474
 20
-1252.36
 30
0.000000
  70
    32
  0
VERTEX
  8
01
  5
1C388
 10
709.488
 20
-1252.34
 30
0.000000
  70
    32
  0
VERTEX
  8
01
  5
1C389
 10
709.502
 20
-1252.32
 30
0.000000
  70
    32
  0
VERTEX
  8
01
  5
1C38A
 10
709.515
 20
-1252.30
 30
0.000000
  70
    32
  0
VERTEX
  8
01
  5
1C38B
 10
709.529
 20
-1252.28
 30
0.000000
  70
    32
  0
VERTEX
  8
01
  5
1C38C
 10
709.541
 20
-1252.26
 30
0.000000
  70
    32
  0
VERTEX
  8
01
  5
1C38D
 10
709.553
 20
-1252.24
 30
0.000000
  70
    32
  0
VERTEX
  8
01
  5
1C38E
 10
709.565
 20
-1252.22
 30
0.000000
  70
    32
  0
VERTEX
  8
01
  5
1C38F
 10
709.576
 20
-1252.20
 30
0.000000
  70
    32
  0
VERTEX
  8
01
  5
1C390
 10
709.587
 20
-1252.18
 30
0.000000
  70
    32
  0
VERTEX
  8
01
  5
1C391
 10
709.598
 20
-1252.16
 30
0.000000
  70
    32
  0
VERTEX
  8
01
  5
1C392
 10
709.608
 20
-1252.13
 30
0.000000
  70
    32
  0
VERTEX
  8
01
  5
1C393
 10
709.617
 20
-1252.11
 30
0.000000
  70
    32
  0
VERTEX
  8
01
  5
1C394
 10
709.627
 20
-1252.09
 30
0.000000
  70
    32
  0
VERTEX
  8
01
  5
1C395
 10
709.635
 20
-1252.07
 30
0.000000
  70
    32
  0
VERTEX
  8
01
  5
1C396
 10
709.644
 20
-1252.05
 30
0.000000
  70
    32
  0
VERTEX
  8
01
  5
1C397
 10
709.651
 20
-1252.03
 30
0.000000
  70
    32
  0
VERTEX
  8
01
  5
1C398
 10
709.659
 20
-1252.01
 30
0.000000
  70
    32
  0
VERTEX
  8
01
  5
1C399
 10
709.666
 20
-1251.99
 30
0.000000
  70
    32
  0
VERTEX
  8
01
  5
1C39A
 10
709.672
 20
-1251.96
 30
0.000000
  70
    32
  0
VERTEX
  8
01
  5
1C39B
 10
709.678
 20
-1251.94
 30
0.000000
  70
    32
  0
VERTEX
  8
01
  5
1C39C
 10
709.684
 20
-1251.92
 30
0.000000
  70
    32
  0
VERTEX
  8
01
  5
1C39D
 10
709.689
 20
-1251.90
 30
0.000000
  70
    32
  0
VERTEX
  8
01
  5
1C39E
 10
709.694
 20
-1251.88
 30
0.000000
  70
    32
  0
VERTEX
  8
01
  5
1C39F
 10
709.698
 20
-1251.86
 30
0.000000
  70
    32
  0
VERTEX
  8
01
  5
1C3A0
 10
709.702
 20
-1251.84
 30
0.000000
  70
    32
  0
VERTEX
  8
01
  5
1C3A1
 10
709.705
 20
-1251.81
 30
0.000000
  70
    32
  0
VERTEX
  8
01
  5
1C3A2
 10
709.708
 20
-1251.79
 30
0.000000
  70
    32
  0
VERTEX
  8
01
  5
1C3A3
 10
709.711
 20
-1251.77
 30
0.000000
  70
    32
  0
VERTEX
  8
01
  5
1C3A4
 10
709.713
 20
-1251.75
 30
0.000000
  70
    32
  0
VERTEX
  8
01
  5
1C3A5
 10
709.714
 20
-1251.73
 30
0.000000
  70
    32
  0
VERTEX
  8
01
  5
1C3A6
 10
709.716
 20
-1251.71
 30
0.000000
  70
    32
  0
VERTEX
  8
01
  5
1C3A7
 10
709.716
 20
-1251.68
 30
0.000000
  70
    32
  0
VERTEX
  8
01
  5
1C3A8
 10
709.716
 20
-1251.66
 30
0.000000
  70
    32
  0
SEQEND
  8
01
  5
1C3A9
  0
POLYLINE
  5
1A4C4
  8
01
 10
594.71648426159152
 20
-1252.624761836732
 30
0.0
 66
     1
 70
     8
  0
VERTEX
  8
01
  5
1C3AA
 10
594.716
 20
-1252.62
 30
0.000000
  70
    32
  0
VERTEX
  8
01
  5
1C3AB
 10
594.680
 20
-1252.62
 30
0.000000
  70
    32
  0
VERTEX
  8
01
  5
1C3AC
 10
594.643
 20
-1252.62
 30
0.000000
  70
    32
  0
VERTEX
  8
01
  5
1C3AD
 10
594.606
 20
-1252.62
 30
0.000000
  70
    32
  0
VERTEX
  8
01
  5
1C3AE
 10
594.569
 20
-1252.62
 30
0.000000
  70
    32
  0
VERTEX
  8
01
  5
1C3AF
 10
594.533
 20
-1252.62
 30
0.000000
  70
    32
  0
VERTEX
  8
01
  5
1C3B0
 10
594.496
 20
-1252.62
 30
0.000000
  70
    32
  0
VERTEX
  8
01
  5
1C3B1
 10
594.459
 20
-1252.62
 30
0.000000
  70
    32
  0
VERTEX
  8
01
  5
1C3B2
 10
594.422
 20
-1252.62
 30
0.000000
  70
    32
  0
VERTEX
  8
01
  5
1C3B3
 10
594.386
 20
-1252.61
 30
0.000000
  70
    32
  0
VERTEX
  8
01
  5
1C3B4
 10
594.349
 20
-1252.61
 30
0.000000
  70
    32
  0
VERTEX
  8
01
  5
1C3B5
 10
594.313
 20
-1252.61
 30
0.000000
  70
    32
  0
VERTEX
  8
01
  5
1C3B6
 10
594.276
 20
-1252.61
 30
0.000000
  70
    32
  0
VERTEX
  8
01
  5
1C3B7
 10
594.240
 20
-1252.60
 30
0.000000
  70
    32
  0
VERTEX
  8
01
  5
1C3B8
 10
594.204
 20
-1252.60
 30
0.000000
  70
    32
  0
VERTEX
  8
01
  5
1C3B9
 10
594.167
 20
-1252.59
 30
0.000000
  70
    32
  0
VERTEX
  8
01
  5
1C3BA
 10
594.131
 20
-1252.59
 30
0.000000
  70
    32
  0
VERTEX
  8
01
  5
1C3BB
 10
594.095
 20
-1252.59
 30
0.000000
  70
    32
  0
VERTEX
  8
01
  5
1C3BC
 10
594.059
 20
-1252.58
 30
0.000000
  70
    32
  0
VERTEX
  8
01
  5
1C3BD
 10
594.023
 20
-1252.58
 30
0.000000
  70
    32
  0
VERTEX
  8
01
  5
1C3BE
 10
593.988
 20
-1252.57
 30
0.000000
  70
    32
  0
VERTEX
  8
01
  5
1C3BF
 10
593.952
 20
-1252.57
 30
0.000000
  70
    32
  0
VERTEX
  8
01
  5
1C3C0
 10
593.916
 20
-1252.56
 30
0.000000
  70
    32
  0
VERTEX
  8
01
  5
1C3C1
 10
593.881
 20
-1252.55
 30
0.000000
  70
    32
  0
VERTEX
  8
01
  5
1C3C2
 10
593.846
 20
-1252.55
 30
0.000000
  70
    32
  0
VERTEX
  8
01
  5
1C3C3
 10
593.810
 20
-1252.54
 30
0.000000
  70
    32
  0
VERTEX
  8
01
  5
1C3C4
 10
593.775
 20
-1252.54
 30
0.000000
  70
    32
  0
VERTEX
  8
01
  5
1C3C5
 10
593.741
 20
-1252.53
 30
0.000000
  70
    32
  0
VERTEX
  8
01
  5
1C3C6
 10
593.706
 20
-1252.52
 30
0.000000
  70
    32
  0
VERTEX
  8
01
  5
1C3C7
 10
593.671
 20
-1252.51
 30
0.000000
  70
    32
  0
VERTEX
  8
01
  5
1C3C8
 10
593.637
 20
-1252.51
 30
0.000000
  70
    32
  0
VERTEX
  8
01
  5
1C3C9
 10
593.603
 20
-1252.50
 30
0.000000
  70
    32
  0
VERTEX
  8
01
  5
1C3CA
 10
593.568
 20
-1252.49
 30
0.000000
  70
    32
  0
VERTEX
  8
01
  5
1C3CB
 10
593.535
 20
-1252.48
 30
0.000000
  70
    32
  0
VERTEX
  8
01
  5
1C3CC
 10
593.501
 20
-1252.47
 30
0.000000
  70
    32
  0
VERTEX
  8
01
  5
1C3CD
 10
593.467
 20
-1252.46
 30
0.000000
  70
    32
  0
VERTEX
  8
01
  5
1C3CE
 10
593.434
 20
-1252.45
 30
0.000000
  70
    32
  0
VERTEX
  8
01
  5
1C3CF
 10
593.401
 20
-1252.45
 30
0.000000
  70
    32
  0
VERTEX
  8
01
  5
1C3D0
 10
593.368
 20
-1252.44
 30
0.000000
  70
    32
  0
VERTEX
  8
01
  5
1C3D1
 10
593.335
 20
-1252.43
 30
0.000000
  70
    32
  0
VERTEX
  8
01
  5
1C3D2
 10
593.302
 20
-1252.42
 30
0.000000
  70
    32
  0
VERTEX
  8
01
  5
1C3D3
 10
593.270
 20
-1252.41
 30
0.000000
  70
    32
  0
VERTEX
  8
01
  5
1C3D4
 10
593.238
 20
-1252.39
 30
0.000000
  70
    32
  0
VERTEX
  8
01
  5
1C3D5
 10
593.206
 20
-1252.38
 30
0.000000
  70
    32
  0
VERTEX
  8
01
  5
1C3D6
 10
593.174
 20
-1252.37
 30
0.000000
  70
    32
  0
VERTEX
  8
01
  5
1C3D7
 10
593.143
 20
-1252.36
 30
0.000000
  70
    32
  0
VERTEX
  8
01
  5
1C3D8
 10
593.111
 20
-1252.35
 30
0.000000
  70
    32
  0
VERTEX
  8
01
  5
1C3D9
 10
593.081
 20
-1252.34
 30
0.000000
  70
    32
  0
VERTEX
  8
01
  5
1C3DA
 10
593.050
 20
-1252.33
 30
0.000000
  70
    32
  0
VERTEX
  8
01
  5
1C3DB
 10
593.019
 20
-1252.31
 30
0.000000
  70
    32
  0
VERTEX
  8
01
  5
1C3DC
 10
592.989
 20
-1252.30
 30
0.000000
  70
    32
  0
VERTEX
  8
01
  5
1C3DD
 10
592.959
 20
-1252.29
 30
0.000000
  70
    32
  0
VERTEX
  8
01
  5
1C3DE
 10
592.929
 20
-1252.28
 30
0.000000
  70
    32
  0
VERTEX
  8
01
  5
1C3DF
 10
592.900
 20
-1252.26
 30
0.000000
  70
    32
  0
VERTEX
  8
01
  5
1C3E0
 10
592.871
 20
-1252.25
 30
0.000000
  70
    32
  0
VERTEX
  8
01
  5
1C3E1
 10
592.842
 20
-1252.24
 30
0.000000
  70
    32
  0
VERTEX
  8
01
  5
1C3E2
 10
592.813
 20
-1252.22
 30
0.000000
  70
    32
  0
VERTEX
  8
01
  5
1C3E3
 10
592.785
 20
-1252.21
 30
0.000000
  70
    32
  0
VERTEX
  8
01
  5
1C3E4
 10
592.757
 20
-1252.20
 30
0.000000
  70
    32
  0
VERTEX
  8
01
  5
1C3E5
 10
592.729
 20
-1252.18
 30
0.000000
  70
    32
  0
VERTEX
  8
01
  5
1C3E6
 10
592.702
 20
-1252.17
 30
0.000000
  70
    32
  0
VERTEX
  8
01
  5
1C3E7
 10
592.675
 20
-1252.15
 30
0.000000
  70
    32
  0
VERTEX
  8
01
  5
1C3E8
 10
592.648
 20
-1252.14
 30
0.000000
  70
    32
  0
VERTEX
  8
01
  5
1C3E9
 10
592.621
 20
-1252.12
 30
0.000000
  70
    32
  0
VERTEX
  8
01
  5
1C3EA
 10
592.595
 20
-1252.11
 30
0.000000
  70
    32
  0
VERTEX
  8
01
  5
1C3EB
 10
592.569
 20
-1252.09
 30
0.000000
  70
    32
  0
VERTEX
  8
01
  5
1C3EC
 10
592.544
 20
-1252.08
 30
0.000000
  70
    32
  0
VERTEX
  8
01
  5
1C3ED
 10
592.519
 20
-1252.06
 30
0.000000
  70
    32
  0
VERTEX
  8
01
  5
1C3EE
 10
592.494
 20
-1252.04
 30
0.000000
  70
    32
  0
VERTEX
  8
01
  5
1C3EF
 10
592.469
 20
-1252.03
 30
0.000000
  70
    32
  0
VERTEX
  8
01
  5
1C3F0
 10
592.445
 20
-1252.01
 30
0.000000
  70
    32
  0
VERTEX
  8
01
  5
1C3F1
 10
592.421
 20
-1251.99
 30
0.000000
  70
    32
  0
VERTEX
  8
01
  5
1C3F2
 10
592.397
 20
-1251.98
 30
0.000000
  70
    32
  0
VERTEX
  8
01
  5
1C3F3
 10
592.374
 20
-1251.96
 30
0.000000
  70
    32
  0
VERTEX
  8
01
  5
1C3F4
 10
592.351
 20
-1251.94
 30
0.000000
  70
    32
  0
VERTEX
  8
01
  5
1C3F5
 10
592.329
 20
-1251.93
 30
0.000000
  70
    32
  0
VERTEX
  8
01
  5
1C3F6
 10
592.307
 20
-1251.91
 30
0.000000
  70
    32
  0
VERTEX
  8
01
  5
1C3F7
 10
592.285
 20
-1251.89
 30
0.000000
  70
    32
  0
VERTEX
  8
01
  5
1C3F8
 10
592.264
 20
-1251.87
 30
0.000000
  70
    32
  0
VERTEX
  8
01
  5
1C3F9
 10
592.243
 20
-1251.86
 30
0.000000
  70
    32
  0
VERTEX
  8
01
  5
1C3FA
 10
592.222
 20
-1251.84
 30
0.000000
  70
    32
  0
VERTEX
  8
01
  5
1C3FB
 10
592.202
 20
-1251.82
 30
0.000000
  70
    32
  0
VERTEX
  8
01
  5
1C3FC
 10
592.182
 20
-1251.80
 30
0.000000
  70
    32
  0
VERTEX
  8
01
  5
1C3FD
 10
592.162
 20
-1251.78
 30
0.000000
  70
    32
  0
VERTEX
  8
01
  5
1C3FE
 10
592.143
 20
-1251.76
 30
0.000000
  70
    32
  0
VERTEX
  8
01
  5
1C3FF
 10
592.125
 20
-1251.75
 30
0.000000
  70
    32
  0
VERTEX
  8
01
  5
1C400
 10
592.106
 20
-1251.73
 30
0.000000
  70
    32
  0
VERTEX
  8
01
  5
1C401
 10
592.088
 20
-1251.71
 30
0.000000
  70
    32
  0
VERTEX
  8
01
  5
1C402
 10
592.071
 20
-1251.69
 30
0.000000
  70
    32
  0
VERTEX
  8
01
  5
1C403
 10
592.054
 20
-1251.67
 30
0.000000
  70
    32
  0
VERTEX
  8
01
  5
1C404
 10
592.037
 20
-1251.65
 30
0.000000
  70
    32
  0
VERTEX
  8
01
  5
1C405
 10
592.020
 20
-1251.63
 30
0.000000
  70
    32
  0
VERTEX
  8
01
  5
1C406
 10
592.005
 20
-1251.61
 30
0.000000
  70
    32
  0
VERTEX
  8
01
  5
1C407
 10
591.989
 20
-1251.59
 30
0.000000
  70
    32
  0
VERTEX
  8
01
  5
1C408
 10
591.974
 20
-1251.57
 30
0.000000
  70
    32
  0
VERTEX
  8
01
  5
1C409
 10
591.959
 20
-1251.55
 30
0.000000
  70
    32
  0
VERTEX
  8
01
  5
1C40A
 10
591.945
 20
-1251.53
 30
0.000000
  70
    32
  0
VERTEX
  8
01
  5
1C40B
 10
591.931
 20
-1251.51
 30
0.000000
  70
    32
  0
VERTEX
  8
01
  5
1C40C
 10
591.918
 20
-1251.49
 30
0.000000
  70
    32
  0
VERTEX
  8
01
  5
1C40D
 10
591.904
 20
-1251.47
 30
0.000000
  70
    32
  0
VERTEX
  8
01
  5
1C40E
 10
591.892
 20
-1251.45
 30
0.000000
  70
    32
  0
VERTEX
  8
01
  5
1C40F
 10
591.880
 20
-1251.43
 30
0.000000
  70
    32
  0
VERTEX
  8
01
  5
1C410
 10
591.868
 20
-1251.41
 30
0.000000
  70
    32
  0
VERTEX
  8
01
  5
1C411
 10
591.857
 20
-1251.39
 30
0.000000
  70
    32
  0
VERTEX
  8
01
  5
1C412
 10
591.846
 20
-1251.37
 30
0.000000
  70
    32
  0
VERTEX
  8
01
  5
1C413
 10
591.835
 20
-1251.35
 30
0.000000
  70
    32
  0
VERTEX
  8
01
  5
1C414
 10
591.825
 20
-1251.33
 30
0.000000
  70
    32
  0
VERTEX
  8
01
  5
1C415
 10
591.816
 20
-1251.31
 30
0.000000
  70
    32
  0
VERTEX
  8
01
  5
1C416
 10
591.806
 20
-1251.28
 30
0.000000
  70
    32
  0
VERTEX
  8
01
  5
1C417
 10
591.798
 20
-1251.26
 30
0.000000
  70
    32
  0
VERTEX
  8
01
  5
1C418
 10
591.789
 20
-1251.24
 30
0.000000
  70
    32
  0
VERTEX
  8
01
  5
1C419
 10
591.782
 20
-1251.22
 30
0.000000
  70
    32
  0
VERTEX
  8
01
  5
1C41A
 10
591.774
 20
-1251.20
 30
0.000000
  70
    32
  0
VERTEX
  8
01
  5
1C41B
 10
591.767
 20
-1251.18
 30
0.000000
  70
    32
  0
VERTEX
  8
01
  5
1C41C
 10
591.761
 20
-1251.16
 30
0.000000
  70
    32
  0
VERTEX
  8
01
  5
1C41D
 10
591.755
 20
-1251.14
 30
0.000000
  70
    32
  0
VERTEX
  8
01
  5
1C41E
 10
591.749
 20
-1251.11
 30
0.000000
  70
    32
  0
VERTEX
  8
01
  5
1C41F
 10
591.744
 20
-1251.09
 30
0.000000
  70
    32
  0
VERTEX
  8
01
  5
1C420
 10
591.739
 20
-1251.07
 30
0.000000
  70
    32
  0
VERTEX
  8
01
  5
1C421
 10
591.735
 20
-1251.05
 30
0.000000
  70
    32
  0
VERTEX
  8
01
  5
1C422
 10
591.731
 20
-1251.03
 30
0.000000
  70
    32
  0
VERTEX
  8
01
  5
1C423
 10
591.728
 20
-1251.01
 30
0.000000
  70
    32
  0
VERTEX
  8
01
  5
1C424
 10
591.725
 20
-1250.98
 30
0.000000
  70
    32
  0
VERTEX
  8
01
  5
1C425
 10
591.722
 20
-1250.96
 30
0.000000
  70
    32
  0
VERTEX
  8
01
  5
1C426
 10
591.720
 20
-1250.94
 30
0.000000
  70
    32
  0
VERTEX
  8
01
  5
1C427
 10
591.719
 20
-1250.92
 30
0.000000
  70
    32
  0
VERTEX
  8
01
  5
1C428
 10
591.717
 20
-1250.90
 30
0.000000
  70
    32
  0
VERTEX
  8
01
  5
1C429
 10
591.717
 20
-1250.88
 30
0.000000
  70
    32
  0
VERTEX
  8
01
  5
1C42A
 10
591.716
 20
-1250.85
 30
0.000000
  70
    32
  0
SEQEND
  8
01
  5
1C42B
  0
POLYLINE
  5
1A4C5
  8
01
 10
594.71648426159152
 20
-1253.432165081706
 30
0.0
 66
     1
 70
     8
  0
VERTEX
  8
01
  5
1C42C
 10
594.716
 20
-1253.43
 30
0.000000
  70
    32
  0
VERTEX
  8
01
  5
1C42D
 10
594.680
 20
-1253.43
 30
0.000000
  70
    32
  0
VERTEX
  8
01
  5
1C42E
 10
594.643
 20
-1253.43
 30
0.000000
  70
    32
  0
VERTEX
  8
01
  5
1C42F
 10
594.606
 20
-1253.43
 30
0.000000
  70
    32
  0
VERTEX
  8
01
  5
1C430
 10
594.569
 20
-1253.43
 30
0.000000
  70
    32
  0
VERTEX
  8
01
  5
1C431
 10
594.533
 20
-1253.43
 30
0.000000
  70
    32
  0
VERTEX
  8
01
  5
1C432
 10
594.496
 20
-1253.43
 30
0.000000
  70
    32
  0
VERTEX
  8
01
  5
1C433
 10
594.459
 20
-1253.43
 30
0.000000
  70
    32
  0
VERTEX
  8
01
  5
1C434
 10
594.422
 20
-1253.42
 30
0.000000
  70
    32
  0
VERTEX
  8
01
  5
1C435
 10
594.386
 20
-1253.42
 30
0.000000
  70
    32
  0
VERTEX
  8
01
  5
1C436
 10
594.349
 20
-1253.42
 30
0.000000
  70
    32
  0
VERTEX
  8
01
  5
1C437
 10
594.313
 20
-1253.42
 30
0.000000
  70
    32
  0
VERTEX
  8
01
  5
1C438
 10
594.276
 20
-1253.41
 30
0.000000
  70
    32
  0
VERTEX
  8
01
  5
1C439
 10
594.240
 20
-1253.41
 30
0.000000
  70
    32
  0
VERTEX
  8
01
  5
1C43A
 10
594.204
 20
-1253.41
 30
0.000000
  70
    32
  0
VERTEX
  8
01
  5
1C43B
 10
594.167
 20
-1253.40
 30
0.000000
  70
    32
  0
VERTEX
  8
01
  5
1C43C
 10
594.131
 20
-1253.40
 30
0.000000
  70
    32
  0
VERTEX
  8
01
  5
1C43D
 10
594.095
 20
-1253.39
 30
0.000000
  70
    32
  0
VERTEX
  8
01
  5
1C43E
 10
594.059
 20
-1253.39
 30
0.000000
  70
    32
  0
VERTEX
  8
01
  5
1C43F
 10
594.023
 20
-1253.38
 30
0.000000
  70
    32
  0
VERTEX
  8
01
  5
1C440
 10
593.988
 20
-1253.38
 30
0.000000
  70
    32
  0
VERTEX
  8
01
  5
1C441
 10
593.952
 20
-1253.37
 30
0.000000
  70
    32
  0
VERTEX
  8
01
  5
1C442
 10
593.916
 20
-1253.37
 30
0.000000
  70
    32
  0
VERTEX
  8
01
  5
1C443
 10
593.881
 20
-1253.36
 30
0.000000
  70
    32
  0
VERTEX
  8
01
  5
1C444
 10
593.846
 20
-1253.36
 30
0.000000
  70
    32
  0
VERTEX
  8
01
  5
1C445
 10
593.810
 20
-1253.35
 30
0.000000
  70
    32
  0
VERTEX
  8
01
  5
1C446
 10
593.775
 20
-1253.34
 30
0.000000
  70
    32
  0
VERTEX
  8
01
  5
1C447
 10
593.741
 20
-1253.34
 30
0.000000
  70
    32
  0
VERTEX
  8
01
  5
1C448
 10
593.706
 20
-1253.33
 30
0.000000
  70
    32
  0
VERTEX
  8
01
  5
1C449
 10
593.671
 20
-1253.32
 30
0.000000
  70
    32
  0
VERTEX
  8
01
  5
1C44A
 10
593.637
 20
-1253.31
 30
0.000000
  70
    32
  0
VERTEX
  8
01
  5
1C44B
 10
593.603
 20
-1253.31
 30
0.000000
  70
    32
  0
VERTEX
  8
01
  5
1C44C
 10
593.568
 20
-1253.30
 30
0.000000
  70
    32
  0
VERTEX
  8
01
  5
1C44D
 10
593.535
 20
-1253.29
 30
0.000000
  70
    32
  0
VERTEX
  8
01
  5
1C44E
 10
593.501
 20
-1253.28
 30
0.000000
  70
    32
  0
VERTEX
  8
01
  5
1C44F
 10
593.467
 20
-1253.27
 30
0.000000
  70
    32
  0
VERTEX
  8
01
  5
1C450
 10
593.434
 20
-1253.26
 30
0.000000
  70
    32
  0
VERTEX
  8
01
  5
1C451
 10
593.401
 20
-1253.25
 30
0.000000
  70
    32
  0
VERTEX
  8
01
  5
1C452
 10
593.368
 20
-1253.24
 30
0.000000
  70
    32
  0
VERTEX
  8
01
  5
1C453
 10
593.335
 20
-1253.23
 30
0.000000
  70
    32
  0
VERTEX
  8
01
  5
1C454
 10
593.302
 20
-1253.22
 30
0.000000
  70
    32
  0
VERTEX
  8
01
  5
1C455
 10
593.270
 20
-1253.21
 30
0.000000
  70
    32
  0
VERTEX
  8
01
  5
1C456
 10
593.238
 20
-1253.20
 30
0.000000
  70
    32
  0
VERTEX
  8
01
  5
1C457
 10
593.206
 20
-1253.19
 30
0.000000
  70
    32
  0
VERTEX
  8
01
  5
1C458
 10
593.174
 20
-1253.18
 30
0.000000
  70
    32
  0
VERTEX
  8
01
  5
1C459
 10
593.143
 20
-1253.17
 30
0.000000
  70
    32
  0
VERTEX
  8
01
  5
1C45A
 10
593.111
 20
-1253.16
 30
0.000000
  70
    32
  0
VERTEX
  8
01
  5
1C45B
 10
593.081
 20
-1253.15
 30
0.000000
  70
    32
  0
VERTEX
  8
01
  5
1C45C
 10
593.050
 20
-1253.13
 30
0.000000
  70
    32
  0
VERTEX
  8
01
  5
1C45D
 10
593.019
 20
-1253.12
 30
0.000000
  70
    32
  0
VERTEX
  8
01
  5
1C45E
 10
592.989
 20
-1253.11
 30
0.000000
  70
    32
  0
VERTEX
  8
01
  5
1C45F
 10
592.959
 20
-1253.10
 30
0.000000
  70
    32
  0
VERTEX
  8
01
  5
1C460
 10
592.929
 20
-1253.08
 30
0.000000
  70
    32
  0
VERTEX
  8
01
  5
1C461
 10
592.900
 20
-1253.07
 30
0.000000
  70
    32
  0
VERTEX
  8
01
  5
1C462
 10
592.871
 20
-1253.06
 30
0.000000
  70
    32
  0
VERTEX
  8
01
  5
1C463
 10
592.842
 20
-1253.04
 30
0.000000
  70
    32
  0
VERTEX
  8
01
  5
1C464
 10
592.813
 20
-1253.03
 30
0.000000
  70
    32
  0
VERTEX
  8
01
  5
1C465
 10
592.785
 20
-1253.02
 30
0.000000
  70
    32
  0
VERTEX
  8
01
  5
1C466
 10
592.757
 20
-1253.00
 30
0.000000
  70
    32
  0
VERTEX
  8
01
  5
1C467
 10
592.729
 20
-1252.99
 30
0.000000
  70
    32
  0
VERTEX
  8
01
  5
1C468
 10
592.702
 20
-1252.97
 30
0.000000
  70
    32
  0
VERTEX
  8
01
  5
1C469
 10
592.675
 20
-1252.96
 30
0.000000
  70
    32
  0
VERTEX
  8
01
  5
1C46A
 10
592.648
 20
-1252.94
 30
0.000000
  70
    32
  0
VERTEX
  8
01
  5
1C46B
 10
592.621
 20
-1252.93
 30
0.000000
  70
    32
  0
VERTEX
  8
01
  5
1C46C
 10
592.595
 20
-1252.91
 30
0.000000
  70
    32
  0
VERTEX
  8
01
  5
1C46D
 10
592.569
 20
-1252.90
 30
0.000000
  70
    32
  0
VERTEX
  8
01
  5
1C46E
 10
592.544
 20
-1252.88
 30
0.000000
  70
    32
  0
VERTEX
  8
01
  5
1C46F
 10
592.519
 20
-1252.87
 30
0.000000
  70
    32
  0
VERTEX
  8
01
  5
1C470
 10
592.494
 20
-1252.85
 30
0.000000
  70
    32
  0
VERTEX
  8
01
  5
1C471
 10
592.469
 20
-1252.83
 30
0.000000
  70
    32
  0
VERTEX
  8
01
  5
1C472
 10
592.445
 20
-1252.82
 30
0.000000
  70
    32
  0
VERTEX
  8
01
  5
1C473
 10
592.421
 20
-1252.80
 30
0.000000
  70
    32
  0
VERTEX
  8
01
  5
1C474
 10
592.397
 20
-1252.79
 30
0.000000
  70
    32
  0
VERTEX
  8
01
  5
1C475
 10
592.374
 20
-1252.77
 30
0.000000
  70
    32
  0
VERTEX
  8
01
  5
1C476
 10
592.351
 20
-1252.75
 30
0.000000
  70
    32
  0
VERTEX
  8
01
  5
1C477
 10
592.329
 20
-1252.73
 30
0.000000
  70
    32
  0
VERTEX
  8
01
  5
1C478
 10
592.307
 20
-1252.72
 30
0.000000
  70
    32
  0
VERTEX
  8
01
  5
1C479
 10
592.285
 20
-1252.70
 30
0.000000
  70
    32
  0
VERTEX
  8
01
  5
1C47A
 10
592.264
 20
-1252.68
 30
0.000000
  70
    32
  0
VERTEX
  8
01
  5
1C47B
 10
592.243
 20
-1252.66
 30
0.000000
  70
    32
  0
VERTEX
  8
01
  5
1C47C
 10
592.222
 20
-1252.65
 30
0.000000
  70
    32
  0
VERTEX
  8
01
  5
1C47D
 10
592.202
 20
-1252.63
 30
0.000000
  70
    32
  0
VERTEX
  8
01
  5
1C47E
 10
592.182
 20
-1252.61
 30
0.000000
  70
    32
  0
VERTEX
  8
01
  5
1C47F
 10
592.162
 20
-1252.59
 30
0.000000
  70
    32
  0
VERTEX
  8
01
  5
1C480
 10
592.143
 20
-1252.57
 30
0.000000
  70
    32
  0
VERTEX
  8
01
  5
1C481
 10
592.125
 20
-1252.55
 30
0.000000
  70
    32
  0
VERTEX
  8
01
  5
1C482
 10
592.106
 20
-1252.53
 30
0.000000
  70
    32
  0
VERTEX
  8
01
  5
1C483
 10
592.088
 20
-1252.52
 30
0.000000
  70
    32
  0
VERTEX
  8
01
  5
1C484
 10
592.071
 20
-1252.50
 30
0.000000
  70
    32
  0
VERTEX
  8
01
  5
1C485
 10
592.054
 20
-1252.48
 30
0.000000
  70
    32
  0
VERTEX
  8
01
  5
1C486
 10
592.037
 20
-1252.46
 30
0.000000
  70
    32
  0
VERTEX
  8
01
  5
1C487
 10
592.020
 20
-1252.44
 30
0.000000
  70
    32
  0
VERTEX
  8
01
  5
1C488
 10
592.005
 20
-1252.42
 30
0.000000
  70
    32
  0
VERTEX
  8
01
  5
1C489
 10
591.989
 20
-1252.40
 30
0.000000
  70
    32
  0
VERTEX
  8
01
  5
1C48A
 10
591.974
 20
-1252.38
 30
0.000000
  70
    32
  0
VERTEX
  8
01
  5
1C48B
 10
591.959
 20
-1252.36
 30
0.000000
  70
    32
  0
VERTEX
  8
01
  5
1C48C
 10
591.945
 20
-1252.34
 30
0.000000
  70
    32
  0
VERTEX
  8
01
  5
1C48D
 10
591.931
 20
-1252.32
 30
0.000000
  70
    32
  0
VERTEX
  8
01
  5
1C48E
 10
591.918
 20
-1252.30
 30
0.000000
  70
    32
  0
VERTEX
  8
01
  5
1C48F
 10
591.904
 20
-1252.28
 30
0.000000
  70
    32
  0
VERTEX
  8
01
  5
1C490
 10
591.892
 20
-1252.26
 30
0.000000
  70
    32
  0
VERTEX
  8
01
  5
1C491
 10
591.880
 20
-1252.24
 30
0.000000
  70
    32
  0
VERTEX
  8
01
  5
1C492
 10
591.868
 20
-1252.22
 30
0.000000
  70
    32
  0
VERTEX
  8
01
  5
1C493
 10
591.857
 20
-1252.20
 30
0.000000
  70
    32
  0
VERTEX
  8
01
  5
1C494
 10
591.846
 20
-1252.18
 30
0.000000
  70
    32
  0
VERTEX
  8
01
  5
1C495
 10
591.835
 20
-1252.16
 30
0.000000
  70
    32
  0
VERTEX
  8
01
  5
1C496
 10
591.825
 20
-1252.13
 30
0.000000
  70
    32
  0
VERTEX
  8
01
  5
1C497
 10
591.816
 20
-1252.11
 30
0.000000
  70
    32
  0
VERTEX
  8
01
  5
1C498
 10
591.806
 20
-1252.09
 30
0.000000
  70
    32
  0
VERTEX
  8
01
  5
1C499
 10
591.798
 20
-1252.07
 30
0.000000
  70
    32
  0
VERTEX
  8
01
  5
1C49A
 10
591.789
 20
-1252.05
 30
0.000000
  70
    32
  0
VERTEX
  8
01
  5
1C49B
 10
591.782
 20
-1252.03
 30
0.000000
  70
    32
  0
VERTEX
  8
01
  5
1C49C
 10
591.774
 20
-1252.01
 30
0.000000
  70
    32
  0
VERTEX
  8
01
  5
1C49D
 10
591.767
 20
-1251.99
 30
0.000000
  70
    32
  0
VERTEX
  8
01
  5
1C49E
 10
591.761
 20
-1251.96
 30
0.000000
  70
    32
  0
VERTEX
  8
01
  5
1C49F
 10
591.755
 20
-1251.94
 30
0.000000
  70
    32
  0
VERTEX
  8
01
  5
1C4A0
 10
591.749
 20
-1251.92
 30
0.000000
  70
    32
  0
VERTEX
  8
01
  5
1C4A1
 10
591.744
 20
-1251.90
 30
0.000000
  70
    32
  0
VERTEX
  8
01
  5
1C4A2
 10
591.739
 20
-1251.88
 30
0.000000
  70
    32
  0
VERTEX
  8
01
  5
1C4A3
 10
591.735
 20
-1251.86
 30
0.000000
  70
    32
  0
VERTEX
  8
01
  5
1C4A4
 10
591.731
 20
-1251.84
 30
0.000000
  70
    32
  0
VERTEX
  8
01
  5
1C4A5
 10
591.728
 20
-1251.81
 30
0.000000
  70
    32
  0
VERTEX
  8
01
  5
1C4A6
 10
591.725
 20
-1251.79
 30
0.000000
  70
    32
  0
VERTEX
  8
01
  5
1C4A7
 10
591.722
 20
-1251.77
 30
0.000000
  70
    32
  0
VERTEX
  8
01
  5
1C4A8
 10
591.720
 20
-1251.75
 30
0.000000
  70
    32
  0
VERTEX
  8
01
  5
1C4A9
 10
591.719
 20
-1251.73
 30
0.000000
  70
    32
  0
VERTEX
  8
01
  5
1C4AA
 10
591.717
 20
-1251.71
 30
0.000000
  70
    32
  0
VERTEX
  8
01
  5
1C4AB
 10
591.717
 20
-1251.68
 30
0.000000
  70
    32
  0
VERTEX
  8
01
  5
1C4AC
 10
591.716
 20
-1251.66
 30
0.000000
  70
    32
  0
SEQEND
  8
01
  5
1C4AD
  0
LINE
  5
1A4C6
  8
01
 10
668.46648426159152
 20
-1267.4132131374549
 30
0.0
 11
632.96648426159163
 21
-1267.413213137454
 31
0.0
  0
LINE
  5
1A4C7
  8
01
 10
632.96648426159175
 20
-1263.3282801057439
 30
0.0
 11
632.96648426159163
 21
-1267.413213137454
 31
0.0
  0
LINE
  5
1A4C8
  8
01
 10
668.46648426159175
 20
-1263.3282801057439
 30
0.0
 11
668.46648426159152
 21
-1267.4132131374549
 31
0.0
  0
LINE
  5
1A4C9
  8
01
 10
630.71648426159163
 20
-1274.9994146509539
 30
0.0
 11
630.71648426159152
 21
-1256.31321313745
 31
0.0
  0
LINE
  5
1A4CA
  8
01
 10
632.7164842615914
 20
-1274.999414650955
 30
0.0
 11
632.71648426159152
 21
-1262.6073083629619
 31
0.0
  0
LINE
  5
1A4CB
  8
01
 10
670.71648426159265
 20
-1274.999414650955
 30
0.0
 11
670.71648426159175
 21
-1256.31321313745
 31
0.0
  0
LINE
  5
1A4CC
  8
01
 10
668.7164842615914
 20
-1274.999414650955
 30
0.0
 11
668.71648426159175
 21
-1262.6073083629619
 31
0.0
  0
LINE
  5
1A4CD
  8
01
 10
668.71648426159209
 20
-1266.313213137455
 30
0.0
 11
668.46648426159152
 21
-1266.313213137455
 31
0.0
  0
LINE
  5
1A4CE
  8
01
 10
632.9664842615914
 20
-1266.313213137455
 30
0.0
 11
632.71648426159106
 21
-1266.313213137455
 31
0.0
  0
LINE
  5
1A4CF
  8
01
 10
670.71648426159163
 20
-1274.737229885531
 30
0.0
 11
668.71648426159163
 21
-1274.737229885531
 31
0.0
  0
LINE
  5
1A4D0
  8
01
 10
632.71648426159197
 20
-1274.737229885531
 30
0.0
 11
630.71648426159163
 21
-1274.737229885531
 31
0.0
  0
LINE
  5
1A4D1
  8
01
 10
670.71648426159265
 20
-1274.999414650955
 30
0.0
 11
668.7164842615914
 21
-1274.999414650955
 31
0.0
  0
LINE
  5
1A4D2
  8
01
 10
632.71648426159265
 20
-1274.999414650955
 30
0.0
 11
630.71648426159163
 21
-1274.999414650955
 31
0.0
  0
LINE
  5
1A520
  8
1PHANTOM
 10
910.24650434824252
 20
-1279.2188839958269
 30
0.0
 11
911.04649978229349
 21
-1281.1812190847029
 31
0.0
  0
LINE
  5
1A521
  8
1PHANTOM
 10
911.04649978229349
 20
-1281.1812190847029
 30
0.0
 11
911.35826963854561
 21
-1280.5929425096599
 31
0.0
  0
LINE
  5
1A52C
  8
1PHANTOM
 10
909.44649872868786
 20
-1281.6340331891099
 30
0.0
 11
909.62926287131575
 21
-1281.0822837253061
 31
0.0
  0
LINE
  5
1A52F
  8
1PHANTOM
 10
907.84649767508222
 20
-1282.086847293516
 30
0.0
 11
907.97576837271208
 21
-1281.550253558245
 31
0.0
  0
LINE
  5
1A530
  8
1PHANTOM
 10
908.53373588949671
 20
-1279.234168942929
 30
0.0
 11
908.64650540184675
 21
-1278.766070487779
 31
0.0
  0
LINE
  5
1A532
  8
1PHANTOM
 10
906.94650529205978
 20
-1278.81325434572
 30
0.0
 11
907.04650645545678
 21
-1278.31325434572
 31
0.0
  0
LINE
  5
1A533
  8
1PHANTOM
 10
910.09506855180211
 20
-1279.6760558364581
 30
0.0
 11
910.24650434824252
 21
-1279.2188839958269
 31
0.0
  0
LINE
  5
1A534
  8
1PHANTOM
 10
908.64650540184675
 20
-1278.766070487779
 30
0.0
 11
909.44649872868786
 21
-1281.6340331891099
 31
0.0
  0
LINE
  5
1A536
  8
1PHANTOM
 10
907.04650645545678
 20
-1278.31325434572
 30
0.0
 11
907.84649767508222
 21
-1282.086847293516
 31
0.0
  0
LINE
  5
1A8E7
  8
01
 10
591.71648426159118
 20
-1216.3790292269709
 30
0.0
 11
591.71648426159106
 21
-1139.7400344890809
 31
0.0
  0
LINE
  5
1A8E8
  8
01
 10
709.71648426159175
 20
-1216.3790292269709
 30
0.0
 11
709.71648426159163
 21
-1139.7400344890809
 31
0.0
  0
LINE
  5
1A8E9
  8
01
 10
706.71648426159163
 20
-1136.7400344890809
 30
0.0
 11
668.46648426159163
 21
-1136.7400344890809
 31
0.0
  0
LINE
  5
1A8EA
  8
01
 10
706.71648426159175
 20
-1219.3790292269709
 30
0.0
 11
594.71648426159118
 21
-1219.3790292269709
 31
0.0
  0
ARC
  5
1A8EB
  8
01
 10
706.71648426159175
 20
-1216.3790292269709
 30
0.0
 40
3.0
 50
270.0
 51
0.0
  0
ARC
  5
1A8EC
  8
01
 10
594.71648426159118
 20
-1216.3790292269709
 30
0.0
 40
3.0
 50
180.0
 51
270.0
  0
ARC
  5
1A8ED
  8
01
 10
594.71648426159118
 20
-1139.7400344890809
 30
0.0
 40
3.0
 50
90.0
 51
180.0
  0
ARC
  5
1A8EE
  8
01
 10
706.71648426159163
 20
-1139.7400344890809
 30
0.0
 40
3.0
 50
0.0
 51
90.0
  0
LINE
  5
1A8EF
  8
01
 10
668.46648426159163
 20
-1130.640034489081
 30
0.0
 11
632.96648426159163
 21
-1130.640034489081
 31
0.0
  0
LINE
  5
1A8F0
  8
01
 10
632.96648426159163
 20
-1136.7400344890809
 30
0.0
 11
632.96648426159163
 21
-1130.640034489081
 31
0.0
  0
LINE
  5
1A8F1
  8
01
 10
668.46648426159163
 20
-1136.7400344890809
 30
0.0
 11
668.46648426159163
 21
-1130.640034489081
 31
0.0
  0
LINE
  5
1A8F2
  8
01
 10
632.96648426159163
 20
-1136.7400344890809
 30
0.0
 11
594.71648426159118
 21
-1136.7400344890809
 31
0.0
  0
LINE
  5
1A8F3
  8
01
 10
670.71648426159243
 20
-1131.7400344890809
 30
0.0
 11
668.46648426159163
 21
-1131.7400344890809
 31
0.0
  0
LINE
  5
1A8F4
  8
01
 10
630.71648426159163
 20
-1136.7400344890809
 30
0.0
 11
630.71648426159163
 21
-1131.7400344890809
 31
0.0
  0
LINE
  5
1A8F5
  8
01
 10
670.71648426159254
 20
-1136.7400344890809
 30
0.0
 11
670.71648426159243
 21
-1131.7400344890809
 31
0.0
  0
LINE
  5
1A8F6
  8
01
 10
632.96648426159163
 20
-1131.7400344890809
 30
0.0
 11
630.71648426159163
 21
-1131.7400344890809
 31
0.0
  0
LINE
  5
1A8F7
  8
01
 10
672.71648426159118
 20
-1128.740034489063
 30
0.0
 11
582.71648426159106
 21
-1128.740034489063
 31
0.0
  0
LINE
  5
1A8F9
  8
01
 10
582.71648426159106
 20
-1213.740078319199
 30
0.0
 11
582.71648426159106
 21
-1128.740034489063
 31
0.0
  0
LINE
  5
1A8FB
  8
01
 10
711.71648426159197
 20
-1215.740078319199
 30
0.0
 11
709.71648426159175
 21
-1215.740078319199
 31
0.0
  0
LINE
  5
1A8FC
  8
01
 10
712.71648426159197
 20
-1185.740061742099
 30
0.0
 11
709.71648426159163
 21
-1185.740061742099
 31
0.0
  0
LINE
  5
1A8FD
  8
01
 10
713.71648426159209
 20
-1213.740078319199
 30
0.0
 11
713.71648426159209
 21
-1186.7400617420981
 31
0.0
  0
LINE
  5
1A8FE
  8
01
 10
672.71648426159118
 20
-1136.7400344890809
 30
0.0
 11
672.71648426159118
 21
-1128.740034489063
 31
0.0
  0
LINE
  5
1A8FF
  8
01
 10
591.71648426159118
 20
-1215.740078319199
 30
0.0
 11
584.71648426159106
 21
-1215.740078319199
 31
0.0
  0
ARC
  5
1A900
  8
01
 10
711.71648426159197
 20
-1213.740078319199
 30
0.0
 40
2.0
 50
270.0
 51
359.9999999999996
  0
ARC
  5
1A901
  8
01
 10
584.71648426159106
 20
-1213.740078319199
 30
0.0
 40
2.0
 50
180.0
 51
270.0
  0
LINE
  5
1A905
  8
1PHANTOM
 10
910.24650434824252
 20
-1297.2188839958269
 30
0.0
 11
911.04649978229349
 21
-1299.1812190847029
 31
0.0
  0
LINE
  5
1A906
  8
1PHANTOM
 10
911.04649978229349
 20
-1299.1812190847029
 30
0.0
 11
911.35826963854561
 21
-1298.5929425096599
 31
0.0
  0
LINE
  5
1A911
  8
1PHANTOM
 10
909.44649872868786
 20
-1299.6340331891099
 30
0.0
 11
909.62926287131575
 21
-1299.0822837253061
 31
0.0
  0
LINE
  5
1A914
  8
1PHANTOM
 10
907.84649767508222
 20
-1300.086847293516
 30
0.0
 11
907.97576837271208
 21
-1299.550253558245
 31
0.0
  0
LINE
  5
1A915
  8
1PHANTOM
 10
908.53373588949671
 20
-1297.234168942929
 30
0.0
 11
908.64650540184675
 21
-1296.766070487779
 31
0.0
  0
LINE
  5
1A917
  8
1PHANTOM
 10
906.94650529205978
 20
-1296.81325434572
 30
0.0
 11
907.04650645545678
 21
-1296.31325434572
 31
0.0
  0
LINE
  5
1A918
  8
1PHANTOM
 10
910.09506855180211
 20
-1297.6760558364581
 30
0.0
 11
910.24650434824252
 21
-1297.2188839958269
 31
0.0
  0
LINE
  5
1A919
  8
1PHANTOM
 10
908.64650540184675
 20
-1296.766070487779
 30
0.0
 11
909.44649872868786
 21
-1299.6340331891099
 31
0.0
  0
LINE
  5
1A91B
  8
1PHANTOM
 10
907.04650645545678
 20
-1296.31325434572
 30
0.0
 11
907.84649767508222
 21
-1300.086847293516
 31
0.0
  0
LINE
  5
1A93D
  8
1CENTER
 10
608.71648426159163
 20
-1292.8276708160811
 30
0.0
 11
608.71648426159163
 21
-1303.7987448035631
 31
0.0
  0
LINE
  5
1A93E
  8
1CENTER
 10
650.71649695181475
 20
-1274.8276454356351
 30
0.0
 11
650.71649695181475
 21
-1285.7987194231171
 31
0.0
  0
LINE
  5
1A984
  8
1CENTER
 10
915.30741639322878
 20
-1280.313207809822
 30
0.0
 11
878.67622539277374
 21
-1280.313207809822
 31
0.0
  0
LINE
  5
1A985
  8
1PHANTOM
 10
887.84650645545253
 20
-1278.31325434572
 30
0.0
 11
888.64649714827067
 21
-1282.31325434572
 31
0.0
  0
LINE
  5
1A986
  8
1PHANTOM
 10
899.04650645545678
 20
-1278.31325434572
 30
0.0
 11
899.84649714827935
 21
-1282.31325434572
 31
0.0
  0
LINE
  5
1A987
  8
1PHANTOM
 10
902.24650645545705
 20
-1278.31325434572
 30
0.0
 11
903.0464971482794
 21
-1282.31325434572
 31
0.0
  0
LINE
  5
1A988
  8
1PHANTOM
 10
903.0464971482794
 20
-1282.31325434572
 30
0.0
 11
903.14649831167662
 21
-1281.81325434572
 31
0.0
  0
LINE
  5
1A989
  8
1PHANTOM
 10
903.74650529205962
 20
-1278.81325434572
 30
0.0
 11
903.84650645545696
 21
-1278.31325434572
 31
0.0
  0
LINE
  5
1A98A
  8
1PHANTOM
 10
899.84649714827935
 20
-1282.31325434572
 30
0.0
 11
899.94649831167681
 21
-1281.81325434572
 31
0.0
  0
LINE
  5
1A98B
  8
1PHANTOM
 10
901.4464971482796
 20
-1282.31325434572
 30
0.0
 11
901.54649831167683
 21
-1281.81325434572
 31
0.0
  0
LINE
  5
1A98C
  8
1PHANTOM
 10
902.14650529205983
 20
-1278.81325434572
 30
0.0
 11
902.24650645545705
 21
-1278.31325434572
 31
0.0
  0
LINE
  5
1A98D
  8
1PHANTOM
 10
900.54650529205981
 20
-1278.81325434572
 30
0.0
 11
900.64650645545703
 21
-1278.31325434572
 31
0.0
  0
LINE
  5
1A98E
  8
1PHANTOM
 10
900.64650645545703
 20
-1278.31325434572
 30
0.0
 11
901.4464971482796
 21
-1282.31325434572
 31
0.0
  0
LINE
  5
1A98F
  8
1PHANTOM
 10
906.24649714827945
 20
-1282.31325434572
 30
0.0
 11
906.34649831167656
 21
-1281.81325434572
 31
0.0
  0
LINE
  5
1A990
  8
1PHANTOM
 10
904.64649714827965
 20
-1282.31325434572
 30
0.0
 11
904.74649831167665
 21
-1281.81325434572
 31
0.0
  0
LINE
  5
1A991
  8
1PHANTOM
 10
905.34650529205976
 20
-1278.81325434572
 30
0.0
 11
905.44650645545698
 21
-1278.31325434572
 31
0.0
  0
LINE
  5
1A992
  8
1PHANTOM
 10
905.44650645545698
 20
-1278.31325434572
 30
0.0
 11
906.24649714827945
 21
-1282.31325434572
 31
0.0
  0
LINE
  5
1A993
  8
1PHANTOM
 10
903.84650645545696
 20
-1278.31325434572
 30
0.0
 11
904.64649714827965
 21
-1282.31325434572
 31
0.0
  0
LINE
  5
1A994
  8
1PHANTOM
 10
891.04650645545246
 20
-1278.31325434572
 30
0.0
 11
891.84649714827071
 21
-1282.31325434572
 31
0.0
  0
LINE
  5
1A995
  8
1PHANTOM
 10
891.84649714827071
 20
-1282.31325434572
 30
0.0
 11
891.94649831166862
 21
-1281.81325434572
 31
0.0
  0
LINE
  5
1A996
  8
1PHANTOM
 10
892.54650529205935
 20
-1278.81325434572
 30
0.0
 11
892.6465064554568
 21
-1278.31325434572
 31
0.0
  0
LINE
  5
1A997
  8
1PHANTOM
 10
890.24649714827069
 20
-1282.31325434572
 30
0.0
 11
890.34649831166826
 21
-1281.81325434572
 31
0.0
  0
LINE
  5
1A998
  8
1PHANTOM
 10
888.64649714827067
 20
-1282.31325434572
 30
0.0
 11
888.74649831166835
 21
-1281.81325434572
 31
0.0
  0
LINE
  5
1A999
  8
1PHANTOM
 10
890.94650529205501
 20
-1278.81325434572
 30
0.0
 11
891.04650645545246
 21
-1278.31325434572
 31
0.0
  0
LINE
  5
1A99A
  8
1PHANTOM
 10
889.34650529205464
 20
-1278.81325434572
 30
0.0
 11
889.44650645545232
 21
-1278.31325434572
 31
0.0
  0
LINE
  5
1A99B
  8
1PHANTOM
 10
889.44650645545232
 20
-1278.31325434572
 30
0.0
 11
890.24649714827069
 21
-1282.31325434572
 31
0.0
  0
LINE
  5
1A99C
  8
1PHANTOM
 10
896.64649714827499
 20
-1282.31325434572
 30
0.0
 11
896.74649831167289
 21
-1281.81325434572
 31
0.0
  0
LINE
  5
1A99D
  8
1PHANTOM
 10
898.24649714827956
 20
-1282.31325434572
 30
0.0
 11
898.34649831167656
 21
-1281.81325434572
 31
0.0
  0
LINE
  5
1A99E
  8
1PHANTOM
 10
893.44649714827517
 20
-1282.31325434572
 30
0.0
 11
893.54649831167285
 21
-1281.81325434572
 31
0.0
  0
LINE
  5
1A99F
  8
1PHANTOM
 10
895.04649714827519
 20
-1282.31325434572
 30
0.0
 11
895.14649831167264
 21
-1281.81325434572
 31
0.0
  0
LINE
  5
1A9A0
  8
1PHANTOM
 10
898.94650529205978
 20
-1278.81325434572
 30
0.0
 11
899.04650645545678
 21
-1278.31325434572
 31
0.0
  0
LINE
  5
1A9A1
  8
1PHANTOM
 10
897.34650529205908
 20
-1278.81325434572
 30
0.0
 11
897.44650645545698
 21
-1278.31325434572
 31
0.0
  0
LINE
  5
1A9A2
  8
1PHANTOM
 10
894.14650529205915
 20
-1278.81325434572
 30
0.0
 11
894.2465064554566
 21
-1278.31325434572
 31
0.0
  0
LINE
  5
1A9A3
  8
1PHANTOM
 10
895.74650529205928
 20
-1278.81325434572
 30
0.0
 11
895.84650645545707
 21
-1278.31325434572
 31
0.0
  0
LINE
  5
1A9A4
  8
1PHANTOM
 10
895.84650645545707
 20
-1278.31325434572
 30
0.0
 11
896.64649714827499
 21
-1282.31325434572
 31
0.0
  0
LINE
  5
1A9A5
  8
1PHANTOM
 10
897.44650645545698
 20
-1278.31325434572
 30
0.0
 11
898.24649714827956
 21
-1282.31325434572
 31
0.0
  0
LINE
  5
1A9A6
  8
1PHANTOM
 10
894.2465064554566
 20
-1278.31325434572
 30
0.0
 11
895.04649714827519
 21
-1282.31325434572
 31
0.0
  0
LINE
  5
1A9A7
  8
1PHANTOM
 10
892.6465064554568
 20
-1278.31325434572
 30
0.0
 11
893.44649714827517
 21
-1282.31325434572
 31
0.0
  0
LINE
  5
1A9A8
  8
1PHANTOM
 10
882.34649831178194
 20
-1281.81325434572
 30
0.0
 11
882.34650529216674
 21
-1278.81325434572
 31
0.0
  0
LINE
  5
1A9A9
  8
1PHANTOM
 10
882.94650529205069
 20
-1278.81325434572
 30
0.0
 11
883.04650645544825
 21
-1278.31325434572
 31
0.0
  0
LINE
  5
1A9AA
  8
1PHANTOM
 10
883.04650645544825
 20
-1278.31325434572
 30
0.0
 11
883.84649714826662
 21
-1282.31325434572
 31
0.0
  0
LINE
  5
1A9AB
  8
1PHANTOM
 10
883.84649714826662
 20
-1282.31325434572
 30
0.0
 11
883.9464983116643
 21
-1281.81325434572
 31
0.0
  0
LINE
  5
1A9AC
  8
1PHANTOM
 10
884.5465052920506
 20
-1278.81325434572
 30
0.0
 11
884.64650645544805
 21
-1278.31325434572
 31
0.0
  0
LINE
  5
1A9AD
  8
1PHANTOM
 10
886.14650529205062
 20
-1278.81325434572
 30
0.0
 11
886.24650645544807
 21
-1278.31325434572
 31
0.0
  0
LINE
  5
1A9AE
  8
1PHANTOM
 10
886.24650645544807
 20
-1278.31325434572
 30
0.0
 11
887.04649714826655
 21
-1282.31325434572
 31
0.0
  0
LINE
  5
1A9AF
  8
1PHANTOM
 10
885.44649714826664
 20
-1282.31325434572
 30
0.0
 11
885.5464983116641
 21
-1281.81325434572
 31
0.0
  0
LINE
  5
1A9B0
  8
1PHANTOM
 10
887.04649714826655
 20
-1282.31325434572
 30
0.0
 11
887.14649831166412
 21
-1281.81325434572
 31
0.0
  0
LINE
  5
1A9B1
  8
1PHANTOM
 10
884.64650645544805
 20
-1278.31325434572
 30
0.0
 11
885.44649714826664
 21
-1282.31325434572
 31
0.0
  0
LINE
  5
1A9B2
  8
1PHANTOM
 10
887.74650529205462
 20
-1278.81325434572
 30
0.0
 11
887.84650645545253
 21
-1278.31325434572
 31
0.0
  0
LINE
  5
1A9B4
  8
01
 10
882.34650894033325
 20
-1278.063207809822
 30
0.0
 11
887.3465073540707
 21
-1278.063207809822
 31
0.0
  0
LINE
  5
1A9B5
  8
01
 10
882.34649466383212
 20
-1282.563207809822
 30
0.0
 11
887.34649307756945
 21
-1282.563207809822
 31
0.0
  0
LINE
  5
1A9B6
  8
01
 10
878.34650338834047
 20
-1276.313207809822
 30
0.0
 11
882.34651449230546
 21
-1276.313207809822
 31
0.0
  0
LINE
  5
1A9B7
  8
01
 10
878.3464906981169
 20
-1284.313207809822
 30
0.0
 11
882.346489111859
 21
-1284.313207809822
 31
0.0
  0
LINE
  5
1A9B8
  8
01
 10
800.34647542101925
 20
-1288.1284803240039
 30
0.0
 11
800.34646790381635
 21
-1290.4979274085949
 31
0.0
  0
LINE
  5
1A9B9
  8
01
 10
830.34649199811952
 20
-1282.9033713296731
 30
0.0
 11
830.34645132699336
 21
-1295.723043793211
 31
0.0
  0
LINE
  5
1A9BA
  8
01
 10
878.34651355739095
 20
-1276.1078898178639
 30
0.0
 11
878.34642976822329
 21
-1302.518510753406
 31
0.0
  0
LINE
  5
1A9BB
  8
01
 10
882.34651449230591
 20
-1276.313207809822
 30
0.0
 11
882.34648911185946
 21
-1284.313207809822
 31
0.0
  0
LINE
  5
1A9BC
  8
01
 10
887.34651925115509
 20
-1274.313207809822
 30
0.0
 11
887.34642407450838
 21
-1304.3131989019321
 31
0.0
  0
LINE
  5
1A9BD
  8
01
 10
882.34650894033325
 20
-1300.563207809822
 30
0.0
 11
887.34643597156435
 21
-1300.563207809822
 31
0.0
  0
LINE
  5
1A9BE
  8
01
 10
882.34649466383212
 20
-1296.063207809822
 30
0.0
 11
887.34645024806559
 21
-1296.063207809822
 31
0.0
  0
LINE
  5
1A9BF
  8
01
 10
878.34650338834047
 20
-1302.313207809822
 30
0.0
 11
882.34651449230637
 21
-1302.313207809822
 31
0.0
  0
LINE
  5
1A9C0
  8
01
 10
878.3464906981169
 20
-1294.313207809822
 30
0.0
 11
882.34648911185946
 21
-1294.313207809822
 31
0.0
  0
LINE
  5
1A9C1
  8
01
 10
882.34651449230591
 20
-1302.313207809822
 30
0.0
 11
882.34648911185946
 21
-1294.313207809822
 31
0.0
  0
ARC
  5
1A9C2
  8
01
 10
961.89525580547127
 20
-2070.8321880470512
 30
0.0
 40
800.0
 50
95.346917520084546
 51
101.5917661757848
  0
ARC
  5
1A9C3
  8
01
 10
879.34651355738526
 20
-1276.1078929904199
 30
0.0
 40
1.0
 50
95.930099297820746
 51
179.99981822594191
  0
ARC
  5
1A9C4
  8
01
 10
829.34649199812407
 20
-1282.903368157117
 30
0.0
 40
1.0
 50
359.99981822594202
 51
99.549133247607827
  0
ARC
  5
1A9C5
  8
01
 10
801.34647542101425
 20
-1288.12848349656
 30
0.0
 40
1.0
 50
101.5917661757715
 51
179.99981822594191
  0
ARC
  5
1A9C6
  8
01
 10
961.89525580547149
 20
-507.79422757259317
 30
0.0
 40
800.0
 50
258.4082332739377
 51
264.65307563359539
  0
ARC
  5
1A9C7
  8
01
 10
879.34642976821772
 20
-1302.518513925962
 30
0.0
 40
1.0
 50
179.99981822594191
 51
264.0698946613897
  0
ARC
  5
1A9C8
  8
01
 10
829.34645132699836
 20
-1295.723040620655
 30
0.0
 40
1.0
 50
260.45086379494461
 51
359.99981822594202
  0
ARC
  5
1A9C9
  8
01
 10
801.34646790381078
 20
-1290.4979305811501
 30
0.0
 40
1.0
 50
179.99981822594191
 51
258.4082332739377
  0
LINE
  5
1A9CB
  8
01
 10
887.49652967976886
 20
-1271.0260740590249
 30
0.0
 11
887.49642407446174
 21
-1304.31321313745
 31
0.0
  0
LINE
  5
1A9D0
  8
01
 10
887.49642407446174
 20
-1304.31321313745
 30
0.0
 11
887.3464241244809
 21
-1304.297447507417
 31
0.0
  0
LINE
  5
1A9DE
  8
1CENTER
 10
915.30741639322878
 20
-1298.313207809822
 30
0.0
 11
878.67622539277374
 21
-1298.313207809822
 31
0.0
  0
LINE
  5
1A9DF
  8
1PHANTOM
 10
887.84650645545253
 20
-1296.31325434572
 30
0.0
 11
888.64649714827067
 21
-1300.31325434572
 31
0.0
  0
LINE
  5
1A9E0
  8
1PHANTOM
 10
899.04650645545678
 20
-1296.31325434572
 30
0.0
 11
899.84649714827935
 21
-1300.31325434572
 31
0.0
  0
LINE
  5
1A9E1
  8
1PHANTOM
 10
902.24650645545705
 20
-1296.31325434572
 30
0.0
 11
903.0464971482794
 21
-1300.31325434572
 31
0.0
  0
LINE
  5
1A9E2
  8
1PHANTOM
 10
903.0464971482794
 20
-1300.31325434572
 30
0.0
 11
903.14649831167662
 21
-1299.81325434572
 31
0.0
  0
LINE
  5
1A9E3
  8
1PHANTOM
 10
903.74650529205962
 20
-1296.81325434572
 30
0.0
 11
903.84650645545696
 21
-1296.31325434572
 31
0.0
  0
LINE
  5
1A9E4
  8
1PHANTOM
 10
899.84649714827935
 20
-1300.31325434572
 30
0.0
 11
899.94649831167681
 21
-1299.81325434572
 31
0.0
  0
LINE
  5
1A9E5
  8
1PHANTOM
 10
901.4464971482796
 20
-1300.31325434572
 30
0.0
 11
901.54649831167683
 21
-1299.81325434572
 31
0.0
  0
LINE
  5
1A9E6
  8
1PHANTOM
 10
902.14650529205983
 20
-1296.81325434572
 30
0.0
 11
902.24650645545705
 21
-1296.31325434572
 31
0.0
  0
LINE
  5
1A9E7
  8
1PHANTOM
 10
900.54650529205981
 20
-1296.81325434572
 30
0.0
 11
900.64650645545703
 21
-1296.31325434572
 31
0.0
  0
LINE
  5
1A9E8
  8
1PHANTOM
 10
900.64650645545703
 20
-1296.31325434572
 30
0.0
 11
901.4464971482796
 21
-1300.31325434572
 31
0.0
  0
LINE
  5
1A9E9
  8
1PHANTOM
 10
906.24649714827945
 20
-1300.31325434572
 30
0.0
 11
906.34649831167656
 21
-1299.81325434572
 31
0.0
  0
LINE
  5
1A9EA
  8
1PHANTOM
 10
904.64649714827965
 20
-1300.31325434572
 30
0.0
 11
904.74649831167665
 21
-1299.81325434572
 31
0.0
  0
LINE
  5
1A9EB
  8
1PHANTOM
 10
905.34650529205976
 20
-1296.81325434572
 30
0.0
 11
905.44650645545698
 21
-1296.31325434572
 31
0.0
  0
LINE
  5
1A9EC
  8
1PHANTOM
 10
905.44650645545698
 20
-1296.31325434572
 30
0.0
 11
906.24649714827945
 21
-1300.31325434572
 31
0.0
  0
LINE
  5
1A9ED
  8
1PHANTOM
 10
903.84650645545696
 20
-1296.31325434572
 30
0.0
 11
904.64649714827965
 21
-1300.31325434572
 31
0.0
  0
LINE
  5
1A9EE
  8
1PHANTOM
 10
891.04650645545246
 20
-1296.31325434572
 30
0.0
 11
891.84649714827071
 21
-1300.31325434572
 31
0.0
  0
LINE
  5
1A9EF
  8
1PHANTOM
 10
891.84649714827071
 20
-1300.31325434572
 30
0.0
 11
891.94649831166862
 21
-1299.81325434572
 31
0.0
  0
LINE
  5
1A9F0
  8
1PHANTOM
 10
892.54650529205935
 20
-1296.81325434572
 30
0.0
 11
892.6465064554568
 21
-1296.31325434572
 31
0.0
  0
LINE
  5
1A9F1
  8
1PHANTOM
 10
890.24649714827069
 20
-1300.31325434572
 30
0.0
 11
890.34649831166826
 21
-1299.81325434572
 31
0.0
  0
LINE
  5
1A9F2
  8
1PHANTOM
 10
888.64649714827067
 20
-1300.31325434572
 30
0.0
 11
888.74649831166835
 21
-1299.81325434572
 31
0.0
  0
LINE
  5
1A9F3
  8
1PHANTOM
 10
890.94650529205501
 20
-1296.81325434572
 30
0.0
 11
891.04650645545246
 21
-1296.31325434572
 31
0.0
  0
LINE
  5
1A9F4
  8
1PHANTOM
 10
889.34650529205464
 20
-1296.81325434572
 30
0.0
 11
889.44650645545232
 21
-1296.31325434572
 31
0.0
  0
LINE
  5
1A9F5
  8
1PHANTOM
 10
889.44650645545232
 20
-1296.31325434572
 30
0.0
 11
890.24649714827069
 21
-1300.31325434572
 31
0.0
  0
LINE
  5
1A9F6
  8
1PHANTOM
 10
896.64649714827499
 20
-1300.31325434572
 30
0.0
 11
896.74649831167289
 21
-1299.81325434572
 31
0.0
  0
LINE
  5
1A9F7
  8
1PHANTOM
 10
898.24649714827956
 20
-1300.31325434572
 30
0.0
 11
898.34649831167656
 21
-1299.81325434572
 31
0.0
  0
LINE
  5
1A9F8
  8
1PHANTOM
 10
893.44649714827517
 20
-1300.31325434572
 30
0.0
 11
893.54649831167285
 21
-1299.81325434572
 31
0.0
  0
LINE
  5
1A9F9
  8
1PHANTOM
 10
895.04649714827519
 20
-1300.31325434572
 30
0.0
 11
895.14649831167264
 21
-1299.81325434572
 31
0.0
  0
LINE
  5
1A9FA
  8
1PHANTOM
 10
898.94650529205978
 20
-1296.81325434572
 30
0.0
 11
899.04650645545678
 21
-1296.31325434572
 31
0.0
  0
LINE
  5
1A9FB
  8
1PHANTOM
 10
897.34650529205908
 20
-1296.81325434572
 30
0.0
 11
897.44650645545698
 21
-1296.31325434572
 31
0.0
  0
LINE
  5
1A9FC
  8
1PHANTOM
 10
894.14650529205915
 20
-1296.81325434572
 30
0.0
 11
894.2465064554566
 21
-1296.31325434572
 31
0.0
  0
LINE
  5
1A9FD
  8
1PHANTOM
 10
895.74650529205928
 20
-1296.81325434572
 30
0.0
 11
895.84650645545707
 21
-1296.31325434572
 31
0.0
  0
LINE
  5
1A9FE
  8
1PHANTOM
 10
895.84650645545707
 20
-1296.31325434572
 30
0.0
 11
896.64649714827499
 21
-1300.31325434572
 31
0.0
  0
LINE
  5
1A9FF
  8
1PHANTOM
 10
897.44650645545698
 20
-1296.31325434572
 30
0.0
 11
898.24649714827956
 21
-1300.31325434572
 31
0.0
  0
LINE
  5
1AA00
  8
1PHANTOM
 10
894.2465064554566
 20
-1296.31325434572
 30
0.0
 11
895.04649714827519
 21
-1300.31325434572
 31
0.0
  0
LINE
  5
1AA01
  8
1PHANTOM
 10
892.6465064554568
 20
-1296.31325434572
 30
0.0
 11
893.44649714827517
 21
-1300.31325434572
 31
0.0
  0
LINE
  5
1AA02
  8
1PHANTOM
 10
882.34649831178194
 20
-1299.81325434572
 30
0.0
 11
882.34650529216674
 21
-1296.81325434572
 31
0.0
  0
LINE
  5
1AA03
  8
1PHANTOM
 10
882.94650529205069
 20
-1296.81325434572
 30
0.0
 11
883.04650645544825
 21
-1296.31325434572
 31
0.0
  0
LINE
  5
1AA04
  8
1PHANTOM
 10
883.04650645544825
 20
-1296.31325434572
 30
0.0
 11
883.84649714826662
 21
-1300.31325434572
 31
0.0
  0
LINE
  5
1AA05
  8
1PHANTOM
 10
883.84649714826662
 20
-1300.31325434572
 30
0.0
 11
883.9464983116643
 21
-1299.81325434572
 31
0.0
  0
LINE
  5
1AA06
  8
1PHANTOM
 10
884.5465052920506
 20
-1296.81325434572
 30
0.0
 11
884.64650645544805
 21
-1296.31325434572
 31
0.0
  0
LINE
  5
1AA07
  8
1PHANTOM
 10
886.14650529205062
 20
-1296.81325434572
 30
0.0
 11
886.24650645544807
 21
-1296.31325434572
 31
0.0
  0
LINE
  5
1AA08
  8
1PHANTOM
 10
886.24650645544807
 20
-1296.31325434572
 30
0.0
 11
887.04649714826655
 21
-1300.31325434572
 31
0.0
  0
LINE
  5
1AA09
  8
1PHANTOM
 10
885.44649714826664
 20
-1300.31325434572
 30
0.0
 11
885.5464983116641
 21
-1299.81325434572
 31
0.0
  0
LINE
  5
1AA0A
  8
1PHANTOM
 10
887.04649714826655
 20
-1300.31325434572
 30
0.0
 11
887.14649831166412
 21
-1299.81325434572
 31
0.0
  0
LINE
  5
1AA0B
  8
1PHANTOM
 10
884.64650645544805
 20
-1296.31325434572
 30
0.0
 11
885.44649714826664
 21
-1300.31325434572
 31
0.0
  0
LINE
  5
1AA0C
  8
1PHANTOM
 10
887.74650529205462
 20
-1296.81325434572
 30
0.0
 11
887.84650645545253
 21
-1296.31325434572
 31
0.0
  0
ARC
  5
1AB8A
  8
01
 10
712.71648426159197
 20
-1186.7400617420981
 30
0.0
 40
1.0
 50
0.0
 51
90.000000000003254
  0
LINE
  5
1AE15
  8
1CENTER
 10
603.23094726785052
 20
-1298.313207809822
 30
0.0
 11
614.20202125533274
 21
-1298.313207809822
 31
0.0
  0
LINE
  5
1AE16
  8
1CENTER
 10
645.23093457762729
 20
-1280.313207809822
 30
0.0
 11
656.20200856510951
 21
-1280.313207809822
 31
0.0
  0
CIRCLE
  5
1B907
  8
1PHANTOM
 10
811.61087557335566
 20
-1302.344502071353
 30
0.0
 40
18.5
  0
LINE
  5
1B909
  8
1PHANTOM
 10
707.71648426159197
 20
-1248.857515169123
 30
0.0
 11
707.71648426159197
 21
-1355.8575151691241
 31
0.0
  0
LINE
  5
1B90A
  8
1PHANTOM
 10
593.71648426159209
 20
-1248.8575151691241
 30
0.0
 11
593.716484261593
 21
-1355.8575151691241
 31
0.0
  0
LINE
  5
1BB61
  8
1PHANTOM
 10
649.62212660192154
 20
-1105.8400319427949
 30
0.0
 11
651.58446169079753
 21
-1105.0400365087439
 31
0.0
  0
LINE
  5
1BB62
  8
1PHANTOM
 10
651.58446169079753
 20
-1105.0400365087439
 30
0.0
 11
650.99618511575454
 21
-1104.728266652492
 31
0.0
  0
LINE
  5
1BB63
  8
1PHANTOM
 10
652.03727579520398
 20
-1106.64003756235
 30
0.0
 11
651.48552633140059
 21
-1106.457273419722
 31
0.0
  0
LINE
  5
1BB64
  8
1PHANTOM
 10
652.49008989961055
 20
-1108.240038615955
 30
0.0
 11
651.95349616433975
 21
-1108.110767918326
 31
0.0
  0
LINE
  5
1BB65
  8
1PHANTOM
 10
649.63741154902391
 20
-1107.5528004015409
 30
0.0
 11
649.16931309387337
 21
-1107.4400308891909
 31
0.0
  0
LINE
  5
1BB66
  8
1PHANTOM
 10
649.21649695181486
 20
-1109.1400309989781
 30
0.0
 11
648.71649695181475
 21
-1109.040029835581
 31
0.0
  0
LINE
  5
1BB67
  8
1PHANTOM
 10
650.07929844255295
 20
-1105.9914677392351
 30
0.0
 11
649.62212660192154
 21
-1105.8400319427949
 31
0.0
  0
LINE
  5
1BB68
  8
1PHANTOM
 10
649.16931309387337
 20
-1107.4400308891909
 30
0.0
 11
652.03727579520398
 21
-1106.64003756235
 31
0.0
  0
LINE
  5
1BB69
  8
1PHANTOM
 10
648.71649695181475
 20
-1109.040029835581
 30
0.0
 11
652.49008989961055
 21
-1108.240038615955
 31
0.0
  0
LINE
  5
1BBA0
  8
1PHANTOM
 10
648.71649695181475
 20
-1128.2400298355849
 30
0.0
 11
652.71649695181475
 21
-1127.4400391427671
 31
0.0
  0
LINE
  5
1BBA1
  8
1PHANTOM
 10
648.71649695181475
 20
-1117.040029835581
 30
0.0
 11
652.71649695181475
 21
-1116.240039142758
 31
0.0
  0
LINE
  5
1BBA2
  8
1PHANTOM
 10
648.71649695181475
 20
-1113.84002983558
 30
0.0
 11
652.71649695181475
 21
-1113.0400391427579
 31
0.0
  0
LINE
  5
1BBA3
  8
1PHANTOM
 10
652.71649695181475
 20
-1113.0400391427579
 30
0.0
 11
652.21649695181475
 21
-1112.940037979361
 31
0.0
  0
LINE
  5
1BBA4
  8
1PHANTOM
 10
649.21649695181486
 20
-1112.3400309989779
 30
0.0
 11
648.71649695181475
 21
-1112.240029835581
 31
0.0
  0
LINE
  5
1BBA5
  8
1PHANTOM
 10
652.71649695181475
 20
-1116.240039142758
 30
0.0
 11
652.21649695181475
 21
-1116.1400379793611
 31
0.0
  0
LINE
  5
1BBA6
  8
1PHANTOM
 10
652.71649695181475
 20
-1114.640039142758
 30
0.0
 11
652.21649695181475
 21
-1114.5400379793609
 31
0.0
  0
LINE
  5
1BBA7
  8
1PHANTOM
 10
649.21649695181486
 20
-1113.940030998978
 30
0.0
 11
648.71649695181475
 21
-1113.84002983558
 31
0.0
  0
LINE
  5
1BBA8
  8
1PHANTOM
 10
649.21649695181486
 20
-1115.540030998978
 30
0.0
 11
648.71649695181475
 21
-1115.4400298355799
 31
0.0
  0
LINE
  5
1BBA9
  8
1PHANTOM
 10
648.71649695181475
 20
-1115.4400298355799
 30
0.0
 11
652.71649695181475
 21
-1114.640039142758
 31
0.0
  0
LINE
  5
1BBAA
  8
1PHANTOM
 10
652.71649695181475
 20
-1109.8400391427581
 30
0.0
 11
652.21649695181475
 21
-1109.740037979361
 31
0.0
  0
LINE
  5
1BBAB
  8
1PHANTOM
 10
652.71649695181475
 20
-1111.440039142758
 30
0.0
 11
652.21649695181475
 21
-1111.3400379793611
 31
0.0
  0
LINE
  5
1BBAC
  8
1PHANTOM
 10
649.21649695181486
 20
-1110.740030998978
 30
0.0
 11
648.71649695181475
 21
-1110.6400298355809
 31
0.0
  0
LINE
  5
1BBAD
  8
1PHANTOM
 10
648.71649695181475
 20
-1110.6400298355809
 30
0.0
 11
652.71649695181475
 21
-1109.8400391427581
 31
0.0
  0
LINE
  5
1BBAE
  8
1PHANTOM
 10
648.71649695181475
 20
-1112.240029835581
 30
0.0
 11
652.71649695181475
 21
-1111.440039142758
 31
0.0
  0
LINE
  5
1BBAF
  8
1PHANTOM
 10
648.71649695181475
 20
-1125.0400298355851
 30
0.0
 11
652.71649695181475
 21
-1124.240039142767
 31
0.0
  0
LINE
  5
1BBB0
  8
1PHANTOM
 10
652.71649695181475
 20
-1124.240039142767
 30
0.0
 11
652.21649695181475
 21
-1124.140037979369
 31
0.0
  0
LINE
  5
1BBB1
  8
1PHANTOM
 10
649.21649695181486
 20
-1123.540030998978
 30
0.0
 11
648.71649695181475
 21
-1123.4400298355811
 31
0.0
  0
LINE
  5
1BBB2
  8
1PHANTOM
 10
652.71649695181475
 20
-1125.840039142767
 30
0.0
 11
652.21649695181475
 21
-1125.7400379793689
 31
0.0
  0
LINE
  5
1BBB3
  8
1PHANTOM
 10
652.71649695181475
 20
-1127.4400391427671
 30
0.0
 11
652.21649695181475
 21
-1127.3400379793691
 31
0.0
  0
LINE
  5
1BBB4
  8
1PHANTOM
 10
649.21649695181486
 20
-1125.1400309989831
 30
0.0
 11
648.71649695181475
 21
-1125.0400298355851
 31
0.0
  0
LINE
  5
1BBB5
  8
1PHANTOM
 10
649.21649695181486
 20
-1126.740030998983
 30
0.0
 11
648.71649695181475
 21
-1126.640029835585
 31
0.0
  0
LINE
  5
1BBB6
  8
1PHANTOM
 10
648.71649695181475
 20
-1126.640029835585
 30
0.0
 11
652.71649695181475
 21
-1125.840039142767
 31
0.0
  0
LINE
  5
1BBB7
  8
1PHANTOM
 10
652.71649695181475
 20
-1119.440039142763
 30
0.0
 11
652.21649695181475
 21
-1119.340037979365
 31
0.0
  0
LINE
  5
1BBB8
  8
1PHANTOM
 10
652.71649695181475
 20
-1117.8400391427581
 30
0.0
 11
652.21649695181475
 21
-1117.740037979361
 31
0.0
  0
LINE
  5
1BBB9
  8
1PHANTOM
 10
652.71649695181475
 20
-1122.6400391427619
 30
0.0
 11
652.21649695181475
 21
-1122.540037979365
 31
0.0
  0
LINE
  5
1BBBA
  8
1PHANTOM
 10
652.71649695181475
 20
-1121.040039142762
 30
0.0
 11
652.21649695181475
 21
-1120.9400379793649
 31
0.0
  0
LINE
  5
1BBBB
  8
1PHANTOM
 10
649.21649695181486
 20
-1117.1400309989781
 30
0.0
 11
648.71649695181475
 21
-1117.040029835581
 31
0.0
  0
LINE
  5
1BBBC
  8
1PHANTOM
 10
649.21649695181486
 20
-1118.7400309989789
 30
0.0
 11
648.71649695181475
 21
-1118.6400298355809
 31
0.0
  0
LINE
  5
1BBBD
  8
1PHANTOM
 10
649.21649695181486
 20
-1121.940030998978
 30
0.0
 11
648.71649695181475
 21
-1121.8400298355809
 31
0.0
  0
LINE
  5
1BBBE
  8
1PHANTOM
 10
649.21649695181486
 20
-1120.340030998979
 30
0.0
 11
648.71649695181475
 21
-1120.240029835581
 31
0.0
  0
LINE
  5
1BBBF
  8
1PHANTOM
 10
648.71649695181475
 20
-1120.240029835581
 30
0.0
 11
652.71649695181475
 21
-1119.440039142763
 31
0.0
  0
LINE
  5
1BBC0
  8
1PHANTOM
 10
648.71649695181475
 20
-1118.6400298355809
 30
0.0
 11
652.71649695181475
 21
-1117.8400391427581
 31
0.0
  0
LINE
  5
1BBC1
  8
1PHANTOM
 10
648.71649695181475
 20
-1121.8400298355809
 30
0.0
 11
652.71649695181475
 21
-1121.040039142762
 31
0.0
  0
LINE
  5
1BBC2
  8
1PHANTOM
 10
648.71649695181475
 20
-1123.4400298355811
 30
0.0
 11
652.71649695181475
 21
-1122.6400391427619
 31
0.0
  0
LINE
  5
1BBC3
  8
1PHANTOM
 10
652.21649695181475
 20
-1133.7400379792559
 30
0.0
 11
649.21649695181486
 21
-1133.7400309988709
 31
0.0
  0
LINE
  5
1BBC4
  8
1PHANTOM
 10
649.21649695181486
 20
-1133.140030998987
 30
0.0
 11
648.71649695181475
 21
-1133.0400298355889
 31
0.0
  0
LINE
  5
1BBC5
  8
1PHANTOM
 10
648.71649695181475
 20
-1133.0400298355889
 30
0.0
 11
652.71649695181475
 21
-1132.2400391427709
 31
0.0
  0
LINE
  5
1BBC6
  8
1PHANTOM
 10
652.71649695181475
 20
-1132.2400391427709
 30
0.0
 11
652.21649695181475
 21
-1132.1400379793729
 31
0.0
  0
LINE
  5
1BBC7
  8
1PHANTOM
 10
649.21649695181486
 20
-1131.540030998987
 30
0.0
 11
648.71649695181475
 21
-1131.440029835589
 31
0.0
  0
LINE
  5
1BBC8
  8
1PHANTOM
 10
649.21649695181486
 20
-1129.9400309989869
 30
0.0
 11
648.71649695181475
 21
-1129.84002983559
 31
0.0
  0
LINE
  5
1BBC9
  8
1PHANTOM
 10
648.71649695181475
 20
-1129.84002983559
 30
0.0
 11
652.71649695181475
 21
-1129.0400391427711
 31
0.0
  0
LINE
  5
1BBCA
  8
1PHANTOM
 10
652.71649695181475
 20
-1130.640039142771
 30
0.0
 11
652.21649695181475
 21
-1130.540037979373
 31
0.0
  0
LINE
  5
1BBCB
  8
1PHANTOM
 10
652.71649695181475
 20
-1129.0400391427711
 30
0.0
 11
652.21649695181475
 21
-1128.9400379793731
 31
0.0
  0
LINE
  5
1BBCC
  8
1PHANTOM
 10
648.71649695181475
 20
-1131.440029835589
 30
0.0
 11
652.71649695181475
 21
-1130.640039142771
 31
0.0
  0
LINE
  5
1BBCD
  8
1PHANTOM
 10
649.21649695181486
 20
-1128.3400309989829
 30
0.0
 11
648.71649695181475
 21
-1128.2400298355849
 31
0.0
  0
LINE
  5
1BC0A
  8
1CENTER
 10
650.71649695181475
 20
-1139.1921500305109
 30
0.0
 11
650.71649695181475
 21
-1101.561483792161
 31
0.0
  0
LINE
  5
1BC0C
  8
1PHANTOM
 10
607.62212660192154
 20
-1105.8400319427949
 30
0.0
 11
609.58446169079741
 21
-1105.0400365087439
 31
0.0
  0
LINE
  5
1BC0D
  8
1PHANTOM
 10
609.58446169079741
 20
-1105.0400365087439
 30
0.0
 11
608.99618511575454
 21
-1104.728266652492
 31
0.0
  0
LINE
  5
1BC0E
  8
1PHANTOM
 10
610.03727579520398
 20
-1106.64003756235
 30
0.0
 11
609.48552633140059
 21
-1106.457273419722
 31
0.0
  0
LINE
  5
1BC0F
  8
1PHANTOM
 10
610.49008989961055
 20
-1108.240038615955
 30
0.0
 11
609.95349616433975
 21
-1108.110767918326
 31
0.0
  0
LINE
  5
1BC10
  8
1PHANTOM
 10
607.63741154902391
 20
-1107.5528004015409
 30
0.0
 11
607.16931309387326
 21
-1107.4400308891909
 31
0.0
  0
LINE
  5
1BC11
  8
1PHANTOM
 10
607.21649695181475
 20
-1109.1400309989781
 30
0.0
 11
606.71649695181475
 21
-1109.040029835581
 31
0.0
  0
LINE
  5
1BC12
  8
1PHANTOM
 10
608.07929844255295
 20
-1105.9914677392351
 30
0.0
 11
607.62212660192154
 21
-1105.8400319427949
 31
0.0
  0
LINE
  5
1BC13
  8
1PHANTOM
 10
607.16931309387326
 20
-1107.4400308891909
 30
0.0
 11
610.03727579520398
 21
-1106.64003756235
 31
0.0
  0
LINE
  5
1BC14
  8
1PHANTOM
 10
606.71649695181475
 20
-1109.040029835581
 30
0.0
 11
610.49008989961055
 21
-1108.240038615955
 31
0.0
  0
LINE
  5
1BC16
  8
1PHANTOM
 10
606.71649695181475
 20
-1128.2400298355849
 30
0.0
 11
610.71649695181475
 21
-1127.4400391427671
 31
0.0
  0
LINE
  5
1BC17
  8
1PHANTOM
 10
606.71649695181475
 20
-1117.040029835581
 30
0.0
 11
610.71649695181475
 21
-1116.240039142758
 31
0.0
  0
LINE
  5
1BC18
  8
1PHANTOM
 10
606.71649695181475
 20
-1113.84002983558
 30
0.0
 11
610.71649695181475
 21
-1113.0400391427579
 31
0.0
  0
LINE
  5
1BC19
  8
1PHANTOM
 10
610.71649695181475
 20
-1113.0400391427579
 30
0.0
 11
610.21649695181475
 21
-1112.940037979361
 31
0.0
  0
LINE
  5
1BC1A
  8
1PHANTOM
 10
607.21649695181475
 20
-1112.3400309989779
 30
0.0
 11
606.71649695181475
 21
-1112.240029835581
 31
0.0
  0
LINE
  5
1BC1B
  8
1PHANTOM
 10
610.71649695181475
 20
-1116.240039142758
 30
0.0
 11
610.21649695181475
 21
-1116.1400379793611
 31
0.0
  0
LINE
  5
1BC1C
  8
1PHANTOM
 10
610.71649695181475
 20
-1114.640039142758
 30
0.0
 11
610.21649695181475
 21
-1114.5400379793609
 31
0.0
  0
LINE
  5
1BC1D
  8
1PHANTOM
 10
607.21649695181475
 20
-1113.940030998978
 30
0.0
 11
606.71649695181475
 21
-1113.84002983558
 31
0.0
  0
LINE
  5
1BC1E
  8
1PHANTOM
 10
607.21649695181475
 20
-1115.540030998978
 30
0.0
 11
606.71649695181475
 21
-1115.4400298355799
 31
0.0
  0
LINE
  5
1BC1F
  8
1PHANTOM
 10
606.71649695181475
 20
-1115.4400298355799
 30
0.0
 11
610.71649695181475
 21
-1114.640039142758
 31
0.0
  0
LINE
  5
1BC20
  8
1PHANTOM
 10
610.71649695181475
 20
-1109.8400391427581
 30
0.0
 11
610.21649695181475
 21
-1109.740037979361
 31
0.0
  0
LINE
  5
1BC21
  8
1PHANTOM
 10
610.71649695181475
 20
-1111.440039142758
 30
0.0
 11
610.21649695181475
 21
-1111.3400379793611
 31
0.0
  0
LINE
  5
1BC22
  8
1PHANTOM
 10
607.21649695181475
 20
-1110.740030998978
 30
0.0
 11
606.71649695181475
 21
-1110.6400298355809
 31
0.0
  0
LINE
  5
1BC23
  8
1PHANTOM
 10
606.71649695181475
 20
-1110.6400298355809
 30
0.0
 11
610.71649695181475
 21
-1109.8400391427581
 31
0.0
  0
LINE
  5
1BC24
  8
1PHANTOM
 10
606.71649695181475
 20
-1112.240029835581
 30
0.0
 11
610.71649695181475
 21
-1111.440039142758
 31
0.0
  0
LINE
  5
1BC25
  8
1PHANTOM
 10
606.71649695181475
 20
-1125.0400298355851
 30
0.0
 11
610.71649695181475
 21
-1124.240039142767
 31
0.0
  0
LINE
  5
1BC26
  8
1PHANTOM
 10
610.71649695181475
 20
-1124.240039142767
 30
0.0
 11
610.21649695181475
 21
-1124.140037979369
 31
0.0
  0
LINE
  5
1BC27
  8
1PHANTOM
 10
607.21649695181475
 20
-1123.540030998978
 30
0.0
 11
606.71649695181475
 21
-1123.4400298355811
 31
0.0
  0
LINE
  5
1BC28
  8
1PHANTOM
 10
610.71649695181475
 20
-1125.840039142767
 30
0.0
 11
610.21649695181475
 21
-1125.7400379793689
 31
0.0
  0
LINE
  5
1BC29
  8
1PHANTOM
 10
610.71649695181475
 20
-1127.4400391427671
 30
0.0
 11
610.21649695181475
 21
-1127.3400379793691
 31
0.0
  0
LINE
  5
1BC2A
  8
1PHANTOM
 10
607.21649695181475
 20
-1125.1400309989831
 30
0.0
 11
606.71649695181475
 21
-1125.0400298355851
 31
0.0
  0
LINE
  5
1BC2B
  8
1PHANTOM
 10
607.21649695181475
 20
-1126.740030998983
 30
0.0
 11
606.71649695181475
 21
-1126.640029835585
 31
0.0
  0
LINE
  5
1BC2C
  8
1PHANTOM
 10
606.71649695181475
 20
-1126.640029835585
 30
0.0
 11
610.71649695181475
 21
-1125.840039142767
 31
0.0
  0
LINE
  5
1BC2D
  8
1PHANTOM
 10
610.71649695181475
 20
-1119.440039142763
 30
0.0
 11
610.21649695181475
 21
-1119.340037979365
 31
0.0
  0
LINE
  5
1BC2E
  8
1PHANTOM
 10
610.71649695181475
 20
-1117.8400391427581
 30
0.0
 11
610.21649695181475
 21
-1117.740037979361
 31
0.0
  0
LINE
  5
1BC2F
  8
1PHANTOM
 10
610.71649695181475
 20
-1122.6400391427619
 30
0.0
 11
610.21649695181475
 21
-1122.540037979365
 31
0.0
  0
LINE
  5
1BC30
  8
1PHANTOM
 10
610.71649695181475
 20
-1121.040039142762
 30
0.0
 11
610.21649695181475
 21
-1120.9400379793649
 31
0.0
  0
LINE
  5
1BC31
  8
1PHANTOM
 10
607.21649695181475
 20
-1117.1400309989781
 30
0.0
 11
606.71649695181475
 21
-1117.040029835581
 31
0.0
  0
LINE
  5
1BC32
  8
1PHANTOM
 10
607.21649695181475
 20
-1118.7400309989789
 30
0.0
 11
606.71649695181475
 21
-1118.6400298355809
 31
0.0
  0
LINE
  5
1BC33
  8
1PHANTOM
 10
607.21649695181475
 20
-1121.940030998978
 30
0.0
 11
606.71649695181475
 21
-1121.8400298355809
 31
0.0
  0
LINE
  5
1BC34
  8
1PHANTOM
 10
607.21649695181475
 20
-1120.340030998979
 30
0.0
 11
606.71649695181475
 21
-1120.240029835581
 31
0.0
  0
LINE
  5
1BC35
  8
1PHANTOM
 10
606.71649695181475
 20
-1120.240029835581
 30
0.0
 11
610.71649695181475
 21
-1119.440039142763
 31
0.0
  0
LINE
  5
1BC36
  8
1PHANTOM
 10
606.71649695181475
 20
-1118.6400298355809
 30
0.0
 11
610.71649695181475
 21
-1117.8400391427581
 31
0.0
  0
LINE
  5
1BC37
  8
1PHANTOM
 10
606.71649695181475
 20
-1121.8400298355809
 30
0.0
 11
610.71649695181475
 21
-1121.040039142762
 31
0.0
  0
LINE
  5
1BC38
  8
1PHANTOM
 10
606.71649695181475
 20
-1123.4400298355811
 30
0.0
 11
610.71649695181475
 21
-1122.6400391427619
 31
0.0
  0
LINE
  5
1BC39
  8
1PHANTOM
 10
610.21649695181475
 20
-1133.7400379792559
 30
0.0
 11
607.21649695181475
 21
-1133.7400309988709
 31
0.0
  0
LINE
  5
1BC3A
  8
1PHANTOM
 10
607.21649695181475
 20
-1133.140030998987
 30
0.0
 11
606.71649695181475
 21
-1133.0400298355889
 31
0.0
  0
LINE
  5
1BC3B
  8
1PHANTOM
 10
606.71649695181475
 20
-1133.0400298355889
 30
0.0
 11
610.71649695181475
 21
-1132.2400391427709
 31
0.0
  0
LINE
  5
1BC3C
  8
1PHANTOM
 10
610.71649695181475
 20
-1132.2400391427709
 30
0.0
 11
610.21649695181475
 21
-1132.1400379793729
 31
0.0
  0
LINE
  5
1BC3D
  8
1PHANTOM
 10
607.21649695181475
 20
-1131.540030998987
 30
0.0
 11
606.71649695181475
 21
-1131.440029835589
 31
0.0
  0
LINE
  5
1BC3E
  8
1PHANTOM
 10
607.21649695181475
 20
-1129.9400309989869
 30
0.0
 11
606.71649695181475
 21
-1129.84002983559
 31
0.0
  0
LINE
  5
1BC3F
  8
1PHANTOM
 10
606.71649695181475
 20
-1129.84002983559
 30
0.0
 11
610.71649695181475
 21
-1129.0400391427711
 31
0.0
  0
LINE
  5
1BC40
  8
1PHANTOM
 10
610.71649695181475
 20
-1130.640039142771
 30
0.0
 11
610.21649695181475
 21
-1130.540037979373
 31
0.0
  0
LINE
  5
1BC41
  8
1PHANTOM
 10
610.71649695181475
 20
-1129.0400391427711
 30
0.0
 11
610.21649695181475
 21
-1128.9400379793731
 31
0.0
  0
LINE
  5
1BC42
  8
1PHANTOM
 10
606.71649695181475
 20
-1131.440029835589
 30
0.0
 11
610.71649695181475
 21
-1130.640039142771
 31
0.0
  0
LINE
  5
1BC43
  8
1PHANTOM
 10
607.21649695181475
 20
-1128.3400309989829
 30
0.0
 11
606.71649695181475
 21
-1128.2400298355849
 31
0.0
  0
LINE
  5
1BC44
  8
1CENTER
 10
608.71649695181475
 20
-1139.1921500305109
 30
0.0
 11
608.71649695181475
 21
-1101.561483792161
 31
0.0
  0
LINE
  5
1BE4D
  8
01
 10
880.49647007649276
 20
-1274.813213826041
 30
0.0
 11
880.49646953446211
 21
-1274.9840638041719
 31
0.0
  0
ARC
  5
1BE4E
  8
01
 10
879.34647166279819
 20
-1261.31321313745
 30
0.0
 40
5.0
 50
310.00000000000267
 51
195.0000000000297
  0
LINE
  5
1BE53
  8
01
 10
882.56040971123105
 20
-1265.143435353044
 30
0.0
 11
887.49652967976886
 21
-1271.0260740590249
 31
0.0
  0
LINE
  5
1BE54
  8
01
 10
874.51684253135363
 20
-1262.6073083629619
 30
0.0
 11
874.73900082060163
 21
-1263.436414385757
 31
0.0
  0
LINE
  5
1BE55
  8
01
 10
880.49646961380017
 20
-1274.8132131779309
 30
0.0
 11
879.14221428060125
 21
-1272.8791361232029
 31
0.0
  0
ARC
  5
1BE57
  8
01
 10
903.71677560927105
 20
-1255.6718430326709
 30
0.0
 40
30.0
 50
195.0000000000305
 51
214.9999999999971
  0
ARC
  5
1BE58
  8
01
  6
BYBLOCK
 10
879.34647166279763
 20
-1261.313213137455
 30
0.0
 40
5.0999999999999988
 50
203.27290764478829
 51
206.38580055761619
  0
ARC
  5
1BE59
  8
01
  6
BYBLOCK
 10
879.34647166279763
 20
-1261.313213137455
 30
0.0
 40
6.0999999999999988
 50
203.27290764478829
 51
232.06815118869631
  0
LINE
  5
1BE5A
  8
01
  6
BYBLOCK
 10
816.38450370307532
 20
-1248.7513426302869
 30
0.0
 11
879.94388742523086
 21
-1256.248324747095
 31
0.0
  0
LINE
  5
1BE5B
  8
01
  6
BYBLOCK
 10
816.50164404865029
 20
-1247.758227259628
 30
0.0
 11
880.06102777080582
 21
-1255.2552093764371
 31
0.0
  0
LINE
  5
1BE5C
  8
01
  6
BYBLOCK
 10
874.66144176821717
 20
-1263.3282801057369
 30
0.0
 11
873.7428084555338
 21
-1263.723391275998
 31
0.0
  0
LINE
  5
1BE5D
  8
01
  6
BYBLOCK
 10
880.06102777080628
 20
-1255.2552093764359
 30
0.0
 11
879.94388742523086
 21
-1256.248324747095
 31
0.0
  0
ARC
  5
1BE5E
  8
01
  6
BYBLOCK
 10
810.52728187771504
 20
-1298.4088453083391
 30
0.0
 40
51.0
 50
83.272907644788532
 51
115.9031708053754
  0
ARC
  5
1BE5F
  8
01
  6
BYBLOCK
 10
810.52728187771504
 20
-1298.4088453083391
 30
0.0
 40
50.0
 50
83.272907644788532
 51
115.9031708053754
  0
LINE
  5
1BE60
  8
01
  6
BYBLOCK
 10
788.68470337170515
 20
-1253.432165081706
 30
0.0
 11
788.24785180158494
 21
-1252.5326314771739
 31
0.0
  0
LINE
  5
1BE61
  8
01
  6
BYBLOCK
 10
816.38450370307532
 20
-1248.7513426302869
 30
0.0
 11
879.94388742523086
 21
-1256.248324747095
 31
0.0
  0
LINE
  5
1BE62
  8
01
  6
BYBLOCK
 10
816.50164404865029
 20
-1247.758227259628
 30
0.0
 11
880.06102777080582
 21
-1255.2552093764371
 31
0.0
  0
ARC
  5
1BE63
  8
01
  6
BYBLOCK
 10
810.52728187771504
 20
-1298.4088453083391
 30
0.0
 40
51.0
 50
83.272907644788532
 51
115.9031708053754
  0
ARC
  5
1BE64
  8
01
  6
BYBLOCK
 10
810.52728187771504
 20
-1298.4088453083391
 30
0.0
 40
50.0
 50
83.272907644788532
 51
115.9031708053754
  0
LINE
  5
1BE65
  8
01
  6
BYBLOCK
 10
788.68470337170515
 20
-1253.432165081706
 30
0.0
 11
788.24785180158494
 21
-1252.5326314771739
 31
0.0
  0
CIRCLE
  5
1BEA7
  8
1PHANTOM
 10
811.61087557335566
 20
-1302.344502071353
 30
0.0
 40
53.5
  0
LINE
  5
1BEA8
  8
1PHANTOM
 10
707.71648426159197
 20
-1248.857515169123
 30
0.0
 11
593.71648426159209
 21
-1248.8575151691241
 31
0.0
  0
LINE
  5
1BEAA
  8
1PHANTOM
 10
707.71648426159197
 20
-1355.8575151691241
 30
0.0
 11
593.716484261593
 21
-1355.8575151691241
 31
0.0
  0
LINE
  5
1BEAB
  8
01
 10
709.71648426159175
 20
-1247.4088453083391
 30
0.0
 11
591.7164842615914
 21
-1247.4088453083391
 31
0.0
  0
LINE
  5
1BEAD
  8
01
 10
670.71648426159175
 20
-1256.31321313745
 30
0.0
 11
630.71648426159152
 21
-1256.31321313745
 31
0.0
  0
LINE
  5
1BEAE
  8
01
 10
668.46648426159175
 20
-1263.723391275998
 30
0.0
 11
632.96648426159175
 21
-1263.723391275998
 31
0.0
  0
LINE
  5
1BEAF
  8
01
 10
668.46648426159175
 20
-1263.3282801057439
 30
0.0
 11
632.96648426159175
 21
-1263.3282801057439
 31
0.0
  0
LINE
  5
1BEB1
  8
01
 10
706.71648426159175
 20
-1256.2483247470959
 30
0.0
 11
668.46648426159175
 21
-1256.248324747095
 31
0.0
  0
LINE
  5
1BEB2
  8
01
 10
632.96648426159186
 20
-1256.31321313745
 30
0.0
 11
632.96648426159186
 21
-1256.248324747095
 31
0.0
  0
LINE
  5
1BEB3
  8
01
 10
668.46648426159175
 20
-1256.31321313745
 30
0.0
 11
668.46648426159175
 21
-1256.248324747095
 31
0.0
  0
LINE
  5
1BEB4
  8
01
 10
632.96648426159186
 20
-1256.248324747095
 30
0.0
 11
594.71648426159152
 21
-1256.248324747095
 31
0.0
  0
POLYLINE
  5
1BEB5
  8
01
 10
706.71648426159175
 20
-1256.2483247470959
 30
0.0
 66
     1
 70
     8
  0
VERTEX
  8
01
  5
1C4AE
 10
706.716
 20
-1256.25
 30
0.000000
  70
    32
  0
VERTEX
  8
01
  5
1C4AF
 10
706.753
 20
-1256.25
 30
0.000000
  70
    32
  0
VERTEX
  8
01
  5
1C4B0
 10
706.790
 20
-1256.25
 30
0.000000
  70
    32
  0
VERTEX
  8
01
  5
1C4B1
 10
706.827
 20
-1256.25
 30
0.000000
  70
    32
  0
VERTEX
  8
01
  5
1C4B2
 10
706.864
 20
-1256.25
 30
0.000000
  70
    32
  0
VERTEX
  8
01
  5
1C4B3
 10
706.900
 20
-1256.24
 30
0.000000
  70
    32
  0
VERTEX
  8
01
  5
1C4B4
 10
706.937
 20
-1256.24
 30
0.000000
  70
    32
  0
VERTEX
  8
01
  5
1C4B5
 10
706.974
 20
-1256.24
 30
0.000000
  70
    32
  0
VERTEX
  8
01
  5
1C4B6
 10
707.011
 20
-1256.24
 30
0.000000
  70
    32
  0
VERTEX
  8
01
  5
1C4B7
 10
707.047
 20
-1256.24
 30
0.000000
  70
    32
  0
VERTEX
  8
01
  5
1C4B8
 10
707.084
 20
-1256.24
 30
0.000000
  70
    32
  0
VERTEX
  8
01
  5
1C4B9
 10
707.120
 20
-1256.23
 30
0.000000
  70
    32
  0
VERTEX
  8
01
  5
1C4BA
 10
707.157
 20
-1256.23
 30
0.000000
  70
    32
  0
VERTEX
  8
01
  5
1C4BB
 10
707.193
 20
-1256.23
 30
0.000000
  70
    32
  0
VERTEX
  8
01
  5
1C4BC
 10
707.229
 20
-1256.22
 30
0.000000
  70
    32
  0
VERTEX
  8
01
  5
1C4BD
 10
707.266
 20
-1256.22
 30
0.000000
  70
    32
  0
VERTEX
  8
01
  5
1C4BE
 10
707.302
 20
-1256.21
 30
0.000000
  70
    32
  0
VERTEX
  8
01
  5
1C4BF
 10
707.338
 20
-1256.21
 30
0.000000
  70
    32
  0
VERTEX
  8
01
  5
1C4C0
 10
707.374
 20
-1256.21
 30
0.000000
  70
    32
  0
VERTEX
  8
01
  5
1C4C1
 10
707.410
 20
-1256.20
 30
0.000000
  70
    32
  0
VERTEX
  8
01
  5
1C4C2
 10
707.445
 20
-1256.20
 30
0.000000
  70
    32
  0
VERTEX
  8
01
  5
1C4C3
 10
707.481
 20
-1256.19
 30
0.000000
  70
    32
  0
VERTEX
  8
01
  5
1C4C4
 10
707.517
 20
-1256.18
 30
0.000000
  70
    32
  0
VERTEX
  8
01
  5
1C4C5
 10
707.552
 20
-1256.18
 30
0.000000
  70
    32
  0
VERTEX
  8
01
  5
1C4C6
 10
707.587
 20
-1256.17
 30
0.000000
  70
    32
  0
VERTEX
  8
01
  5
1C4C7
 10
707.623
 20
-1256.17
 30
0.000000
  70
    32
  0
VERTEX
  8
01
  5
1C4C8
 10
707.658
 20
-1256.16
 30
0.000000
  70
    32
  0
VERTEX
  8
01
  5
1C4C9
 10
707.692
 20
-1256.15
 30
0.000000
  70
    32
  0
VERTEX
  8
01
  5
1C4CA
 10
707.727
 20
-1256.14
 30
0.000000
  70
    32
  0
VERTEX
  8
01
  5
1C4CB
 10
707.762
 20
-1256.14
 30
0.000000
  70
    32
  0
VERTEX
  8
01
  5
1C4CC
 10
707.796
 20
-1256.13
 30
0.000000
  70
    32
  0
VERTEX
  8
01
  5
1C4CD
 10
707.830
 20
-1256.12
 30
0.000000
  70
    32
  0
VERTEX
  8
01
  5
1C4CE
 10
707.865
 20
-1256.11
 30
0.000000
  70
    32
  0
VERTEX
  8
01
  5
1C4CF
 10
707.898
 20
-1256.11
 30
0.000000
  70
    32
  0
VERTEX
  8
01
  5
1C4D0
 10
707.932
 20
-1256.10
 30
0.000000
  70
    32
  0
VERTEX
  8
01
  5
1C4D1
 10
707.966
 20
-1256.09
 30
0.000000
  70
    32
  0
VERTEX
  8
01
  5
1C4D2
 10
707.999
 20
-1256.08
 30
0.000000
  70
    32
  0
VERTEX
  8
01
  5
1C4D3
 10
708.032
 20
-1256.07
 30
0.000000
  70
    32
  0
VERTEX
  8
01
  5
1C4D4
 10
708.065
 20
-1256.06
 30
0.000000
  70
    32
  0
VERTEX
  8
01
  5
1C4D5
 10
708.098
 20
-1256.05
 30
0.000000
  70
    32
  0
VERTEX
  8
01
  5
1C4D6
 10
708.131
 20
-1256.04
 30
0.000000
  70
    32
  0
VERTEX
  8
01
  5
1C4D7
 10
708.163
 20
-1256.03
 30
0.000000
  70
    32
  0
VERTEX
  8
01
  5
1C4D8
 10
708.195
 20
-1256.02
 30
0.000000
  70
    32
  0
VERTEX
  8
01
  5
1C4D9
 10
708.227
 20
-1256.01
 30
0.000000
  70
    32
  0
VERTEX
  8
01
  5
1C4DA
 10
708.259
 20
-1256.00
 30
0.000000
  70
    32
  0
VERTEX
  8
01
  5
1C4DB
 10
708.290
 20
-1255.99
 30
0.000000
  70
    32
  0
VERTEX
  8
01
  5
1C4DC
 10
708.321
 20
-1255.97
 30
0.000000
  70
    32
  0
VERTEX
  8
01
  5
1C4DD
 10
708.352
 20
-1255.96
 30
0.000000
  70
    32
  0
VERTEX
  8
01
  5
1C4DE
 10
708.383
 20
-1255.95
 30
0.000000
  70
    32
  0
VERTEX
  8
01
  5
1C4DF
 10
708.414
 20
-1255.94
 30
0.000000
  70
    32
  0
VERTEX
  8
01
  5
1C4E0
 10
708.444
 20
-1255.93
 30
0.000000
  70
    32
  0
VERTEX
  8
01
  5
1C4E1
 10
708.474
 20
-1255.91
 30
0.000000
  70
    32
  0
VERTEX
  8
01
  5
1C4E2
 10
708.504
 20
-1255.90
 30
0.000000
  70
    32
  0
VERTEX
  8
01
  5
1C4E3
 10
708.533
 20
-1255.89
 30
0.000000
  70
    32
  0
VERTEX
  8
01
  5
1C4E4
 10
708.562
 20
-1255.87
 30
0.000000
  70
    32
  0
VERTEX
  8
01
  5
1C4E5
 10
708.591
 20
-1255.86
 30
0.000000
  70
    32
  0
VERTEX
  8
01
  5
1C4E6
 10
708.620
 20
-1255.85
 30
0.000000
  70
    32
  0
VERTEX
  8
01
  5
1C4E7
 10
708.648
 20
-1255.83
 30
0.000000
  70
    32
  0
VERTEX
  8
01
  5
1C4E8
 10
708.676
 20
-1255.82
 30
0.000000
  70
    32
  0
VERTEX
  8
01
  5
1C4E9
 10
708.704
 20
-1255.80
 30
0.000000
  70
    32
  0
VERTEX
  8
01
  5
1C4EA
 10
708.731
 20
-1255.79
 30
0.000000
  70
    32
  0
VERTEX
  8
01
  5
1C4EB
 10
708.758
 20
-1255.78
 30
0.000000
  70
    32
  0
VERTEX
  8
01
  5
1C4EC
 10
708.785
 20
-1255.76
 30
0.000000
  70
    32
  0
VERTEX
  8
01
  5
1C4ED
 10
708.812
 20
-1255.75
 30
0.000000
  70
    32
  0
VERTEX
  8
01
  5
1C4EE
 10
708.838
 20
-1255.73
 30
0.000000
  70
    32
  0
VERTEX
  8
01
  5
1C4EF
 10
708.864
 20
-1255.71
 30
0.000000
  70
    32
  0
VERTEX
  8
01
  5
1C4F0
 10
708.889
 20
-1255.70
 30
0.000000
  70
    32
  0
VERTEX
  8
01
  5
1C4F1
 10
708.914
 20
-1255.68
 30
0.000000
  70
    32
  0
VERTEX
  8
01
  5
1C4F2
 10
708.939
 20
-1255.67
 30
0.000000
  70
    32
  0
VERTEX
  8
01
  5
1C4F3
 10
708.964
 20
-1255.65
 30
0.000000
  70
    32
  0
VERTEX
  8
01
  5
1C4F4
 10
708.988
 20
-1255.63
 30
0.000000
  70
    32
  0
VERTEX
  8
01
  5
1C4F5
 10
709.012
 20
-1255.62
 30
0.000000
  70
    32
  0
VERTEX
  8
01
  5
1C4F6
 10
709.036
 20
-1255.60
 30
0.000000
  70
    32
  0
VERTEX
  8
01
  5
1C4F7
 10
709.059
 20
-1255.58
 30
0.000000
  70
    32
  0
VERTEX
  8
01
  5
1C4F8
 10
709.082
 20
-1255.57
 30
0.000000
  70
    32
  0
VERTEX
  8
01
  5
1C4F9
 10
709.104
 20
-1255.55
 30
0.000000
  70
    32
  0
VERTEX
  8
01
  5
1C4FA
 10
709.126
 20
-1255.53
 30
0.000000
  70
    32
  0
VERTEX
  8
01
  5
1C4FB
 10
709.148
 20
-1255.52
 30
0.000000
  70
    32
  0
VERTEX
  8
01
  5
1C4FC
 10
709.169
 20
-1255.50
 30
0.000000
  70
    32
  0
VERTEX
  8
01
  5
1C4FD
 10
709.190
 20
-1255.48
 30
0.000000
  70
    32
  0
VERTEX
  8
01
  5
1C4FE
 10
709.211
 20
-1255.46
 30
0.000000
  70
    32
  0
VERTEX
  8
01
  5
1C4FF
 10
709.231
 20
-1255.44
 30
0.000000
  70
    32
  0
VERTEX
  8
01
  5
1C500
 10
709.251
 20
-1255.43
 30
0.000000
  70
    32
  0
VERTEX
  8
01
  5
1C501
 10
709.271
 20
-1255.41
 30
0.000000
  70
    32
  0
VERTEX
  8
01
  5
1C502
 10
709.290
 20
-1255.39
 30
0.000000
  70
    32
  0
VERTEX
  8
01
  5
1C503
 10
709.308
 20
-1255.37
 30
0.000000
  70
    32
  0
VERTEX
  8
01
  5
1C504
 10
709.327
 20
-1255.35
 30
0.000000
  70
    32
  0
VERTEX
  8
01
  5
1C505
 10
709.345
 20
-1255.33
 30
0.000000
  70
    32
  0
VERTEX
  8
01
  5
1C506
 10
709.362
 20
-1255.31
 30
0.000000
  70
    32
  0
VERTEX
  8
01
  5
1C507
 10
709.379
 20
-1255.29
 30
0.000000
  70
    32
  0
VERTEX
  8
01
  5
1C508
 10
709.396
 20
-1255.27
 30
0.000000
  70
    32
  0
VERTEX
  8
01
  5
1C509
 10
709.413
 20
-1255.25
 30
0.000000
  70
    32
  0
VERTEX
  8
01
  5
1C50A
 10
709.428
 20
-1255.24
 30
0.000000
  70
    32
  0
VERTEX
  8
01
  5
1C50B
 10
709.444
 20
-1255.22
 30
0.000000
  70
    32
  0
VERTEX
  8
01
  5
1C50C
 10
709.459
 20
-1255.20
 30
0.000000
  70
    32
  0
VERTEX
  8
01
  5
1C50D
 10
709.474
 20
-1255.18
 30
0.000000
  70
    32
  0
VERTEX
  8
01
  5
1C50E
 10
709.488
 20
-1255.16
 30
0.000000
  70
    32
  0
VERTEX
  8
01
  5
1C50F
 10
709.502
 20
-1255.14
 30
0.000000
  70
    32
  0
VERTEX
  8
01
  5
1C510
 10
709.515
 20
-1255.12
 30
0.000000
  70
    32
  0
VERTEX
  8
01
  5
1C511
 10
709.529
 20
-1255.10
 30
0.000000
  70
    32
  0
VERTEX
  8
01
  5
1C512
 10
709.541
 20
-1255.07
 30
0.000000
  70
    32
  0
VERTEX
  8
01
  5
1C513
 10
709.553
 20
-1255.05
 30
0.000000
  70
    32
  0
VERTEX
  8
01
  5
1C514
 10
709.565
 20
-1255.03
 30
0.000000
  70
    32
  0
VERTEX
  8
01
  5
1C515
 10
709.576
 20
-1255.01
 30
0.000000
  70
    32
  0
VERTEX
  8
01
  5
1C516
 10
709.587
 20
-1254.99
 30
0.000000
  70
    32
  0
VERTEX
  8
01
  5
1C517
 10
709.598
 20
-1254.97
 30
0.000000
  70
    32
  0
VERTEX
  8
01
  5
1C518
 10
709.608
 20
-1254.95
 30
0.000000
  70
    32
  0
VERTEX
  8
01
  5
1C519
 10
709.617
 20
-1254.93
 30
0.000000
  70
    32
  0
VERTEX
  8
01
  5
1C51A
 10
709.627
 20
-1254.91
 30
0.000000
  70
    32
  0
VERTEX
  8
01
  5
1C51B
 10
709.635
 20
-1254.89
 30
0.000000
  70
    32
  0
VERTEX
  8
01
  5
1C51C
 10
709.644
 20
-1254.87
 30
0.000000
  70
    32
  0
VERTEX
  8
01
  5
1C51D
 10
709.651
 20
-1254.84
 30
0.000000
  70
    32
  0
VERTEX
  8
01
  5
1C51E
 10
709.659
 20
-1254.82
 30
0.000000
  70
    32
  0
VERTEX
  8
01
  5
1C51F
 10
709.666
 20
-1254.80
 30
0.000000
  70
    32
  0
VERTEX
  8
01
  5
1C520
 10
709.672
 20
-1254.78
 30
0.000000
  70
    32
  0
VERTEX
  8
01
  5
1C521
 10
709.678
 20
-1254.76
 30
0.000000
  70
    32
  0
VERTEX
  8
01
  5
1C522
 10
709.684
 20
-1254.74
 30
0.000000
  70
    32
  0
VERTEX
  8
01
  5
1C523
 10
709.689
 20
-1254.72
 30
0.000000
  70
    32
  0
VERTEX
  8
01
  5
1C524
 10
709.694
 20
-1254.69
 30
0.000000
  70
    32
  0
VERTEX
  8
01
  5
1C525
 10
709.698
 20
-1254.67
 30
0.000000
  70
    32
  0
VERTEX
  8
01
  5
1C526
 10
709.702
 20
-1254.65
 30
0.000000
  70
    32
  0
VERTEX
  8
01
  5
1C527
 10
709.705
 20
-1254.63
 30
0.000000
  70
    32
  0
VERTEX
  8
01
  5
1C528
 10
709.708
 20
-1254.61
 30
0.000000
  70
    32
  0
VERTEX
  8
01
  5
1C529
 10
709.711
 20
-1254.59
 30
0.000000
  70
    32
  0
VERTEX
  8
01
  5
1C52A
 10
709.713
 20
-1254.57
 30
0.000000
  70
    32
  0
VERTEX
  8
01
  5
1C52B
 10
709.714
 20
-1254.54
 30
0.000000
  70
    32
  0
VERTEX
  8
01
  5
1C52C
 10
709.716
 20
-1254.52
 30
0.000000
  70
    32
  0
VERTEX
  8
01
  5
1C52D
 10
709.716
 20
-1254.50
 30
0.000000
  70
    32
  0
VERTEX
  8
01
  5
1C52E
 10
709.716
 20
-1254.48
 30
0.000000
  70
    32
  0
SEQEND
  8
01
  5
1C52F
  0
POLYLINE
  5
1BEB6
  8
01
 10
594.71648426159152
 20
-1256.2483247470959
 30
0.0
 66
     1
 70
     8
  0
VERTEX
  8
01
  5
1C530
 10
594.716
 20
-1256.25
 30
0.000000
  70
    32
  0
VERTEX
  8
01
  5
1C531
 10
594.680
 20
-1256.25
 30
0.000000
  70
    32
  0
VERTEX
  8
01
  5
1C532
 10
594.643
 20
-1256.25
 30
0.000000
  70
    32
  0
VERTEX
  8
01
  5
1C533
 10
594.606
 20
-1256.25
 30
0.000000
  70
    32
  0
VERTEX
  8
01
  5
1C534
 10
594.569
 20
-1256.25
 30
0.000000
  70
    32
  0
VERTEX
  8
01
  5
1C535
 10
594.533
 20
-1256.24
 30
0.000000
  70
    32
  0
VERTEX
  8
01
  5
1C536
 10
594.496
 20
-1256.24
 30
0.000000
  70
    32
  0
VERTEX
  8
01
  5
1C537
 10
594.459
 20
-1256.24
 30
0.000000
  70
    32
  0
VERTEX
  8
01
  5
1C538
 10
594.422
 20
-1256.24
 30
0.000000
  70
    32
  0
VERTEX
  8
01
  5
1C539
 10
594.386
 20
-1256.24
 30
0.000000
  70
    32
  0
VERTEX
  8
01
  5
1C53A
 10
594.349
 20
-1256.24
 30
0.000000
  70
    32
  0
VERTEX
  8
01
  5
1C53B
 10
594.313
 20
-1256.23
 30
0.000000
  70
    32
  0
VERTEX
  8
01
  5
1C53C
 10
594.276
 20
-1256.23
 30
0.000000
  70
    32
  0
VERTEX
  8
01
  5
1C53D
 10
594.240
 20
-1256.23
 30
0.000000
  70
    32
  0
VERTEX
  8
01
  5
1C53E
 10
594.204
 20
-1256.22
 30
0.000000
  70
    32
  0
VERTEX
  8
01
  5
1C53F
 10
594.167
 20
-1256.22
 30
0.000000
  70
    32
  0
VERTEX
  8
01
  5
1C540
 10
594.131
 20
-1256.21
 30
0.000000
  70
    32
  0
VERTEX
  8
01
  5
1C541
 10
594.095
 20
-1256.21
 30
0.000000
  70
    32
  0
VERTEX
  8
01
  5
1C542
 10
594.059
 20
-1256.21
 30
0.000000
  70
    32
  0
VERTEX
  8
01
  5
1C543
 10
594.023
 20
-1256.20
 30
0.000000
  70
    32
  0
VERTEX
  8
01
  5
1C544
 10
593.988
 20
-1256.20
 30
0.000000
  70
    32
  0
VERTEX
  8
01
  5
1C545
 10
593.952
 20
-1256.19
 30
0.000000
  70
    32
  0
VERTEX
  8
01
  5
1C546
 10
593.916
 20
-1256.18
 30
0.000000
  70
    32
  0
VERTEX
  8
01
  5
1C547
 10
593.881
 20
-1256.18
 30
0.000000
  70
    32
  0
VERTEX
  8
01
  5
1C548
 10
593.846
 20
-1256.17
 30
0.000000
  70
    32
  0
VERTEX
  8
01
  5
1C549
 10
593.810
 20
-1256.17
 30
0.000000
  70
    32
  0
VERTEX
  8
01
  5
1C54A
 10
593.775
 20
-1256.16
 30
0.000000
  70
    32
  0
VERTEX
  8
01
  5
1C54B
 10
593.741
 20
-1256.15
 30
0.000000
  70
    32
  0
VERTEX
  8
01
  5
1C54C
 10
593.706
 20
-1256.14
 30
0.000000
  70
    32
  0
VERTEX
  8
01
  5
1C54D
 10
593.671
 20
-1256.14
 30
0.000000
  70
    32
  0
VERTEX
  8
01
  5
1C54E
 10
593.637
 20
-1256.13
 30
0.000000
  70
    32
  0
VERTEX
  8
01
  5
1C54F
 10
593.603
 20
-1256.12
 30
0.000000
  70
    32
  0
VERTEX
  8
01
  5
1C550
 10
593.568
 20
-1256.11
 30
0.000000
  70
    32
  0
VERTEX
  8
01
  5
1C551
 10
593.535
 20
-1256.11
 30
0.000000
  70
    32
  0
VERTEX
  8
01
  5
1C552
 10
593.501
 20
-1256.10
 30
0.000000
  70
    32
  0
VERTEX
  8
01
  5
1C553
 10
593.467
 20
-1256.09
 30
0.000000
  70
    32
  0
VERTEX
  8
01
  5
1C554
 10
593.434
 20
-1256.08
 30
0.000000
  70
    32
  0
VERTEX
  8
01
  5
1C555
 10
593.401
 20
-1256.07
 30
0.000000
  70
    32
  0
VERTEX
  8
01
  5
1C556
 10
593.368
 20
-1256.06
 30
0.000000
  70
    32
  0
VERTEX
  8
01
  5
1C557
 10
593.335
 20
-1256.05
 30
0.000000
  70
    32
  0
VERTEX
  8
01
  5
1C558
 10
593.302
 20
-1256.04
 30
0.000000
  70
    32
  0
VERTEX
  8
01
  5
1C559
 10
593.270
 20
-1256.03
 30
0.000000
  70
    32
  0
VERTEX
  8
01
  5
1C55A
 10
593.238
 20
-1256.02
 30
0.000000
  70
    32
  0
VERTEX
  8
01
  5
1C55B
 10
593.206
 20
-1256.01
 30
0.000000
  70
    32
  0
VERTEX
  8
01
  5
1C55C
 10
593.174
 20
-1256.00
 30
0.000000
  70
    32
  0
VERTEX
  8
01
  5
1C55D
 10
593.143
 20
-1255.99
 30
0.000000
  70
    32
  0
VERTEX
  8
01
  5
1C55E
 10
593.111
 20
-1255.97
 30
0.000000
  70
    32
  0
VERTEX
  8
01
  5
1C55F
 10
593.081
 20
-1255.96
 30
0.000000
  70
    32
  0
VERTEX
  8
01
  5
1C560
 10
593.050
 20
-1255.95
 30
0.000000
  70
    32
  0
VERTEX
  8
01
  5
1C561
 10
593.019
 20
-1255.94
 30
0.000000
  70
    32
  0
VERTEX
  8
01
  5
1C562
 10
592.989
 20
-1255.93
 30
0.000000
  70
    32
  0
VERTEX
  8
01
  5
1C563
 10
592.959
 20
-1255.91
 30
0.000000
  70
    32
  0
VERTEX
  8
01
  5
1C564
 10
592.929
 20
-1255.90
 30
0.000000
  70
    32
  0
VERTEX
  8
01
  5
1C565
 10
592.900
 20
-1255.89
 30
0.000000
  70
    32
  0
VERTEX
  8
01
  5
1C566
 10
592.871
 20
-1255.87
 30
0.000000
  70
    32
  0
VERTEX
  8
01
  5
1C567
 10
592.842
 20
-1255.86
 30
0.000000
  70
    32
  0
VERTEX
  8
01
  5
1C568
 10
592.813
 20
-1255.85
 30
0.000000
  70
    32
  0
VERTEX
  8
01
  5
1C569
 10
592.785
 20
-1255.83
 30
0.000000
  70
    32
  0
VERTEX
  8
01
  5
1C56A
 10
592.757
 20
-1255.82
 30
0.000000
  70
    32
  0
VERTEX
  8
01
  5
1C56B
 10
592.729
 20
-1255.80
 30
0.000000
  70
    32
  0
VERTEX
  8
01
  5
1C56C
 10
592.702
 20
-1255.79
 30
0.000000
  70
    32
  0
VERTEX
  8
01
  5
1C56D
 10
592.675
 20
-1255.78
 30
0.000000
  70
    32
  0
VERTEX
  8
01
  5
1C56E
 10
592.648
 20
-1255.76
 30
0.000000
  70
    32
  0
VERTEX
  8
01
  5
1C56F
 10
592.621
 20
-1255.75
 30
0.000000
  70
    32
  0
VERTEX
  8
01
  5
1C570
 10
592.595
 20
-1255.73
 30
0.000000
  70
    32
  0
VERTEX
  8
01
  5
1C571
 10
592.569
 20
-1255.71
 30
0.000000
  70
    32
  0
VERTEX
  8
01
  5
1C572
 10
592.544
 20
-1255.70
 30
0.000000
  70
    32
  0
VERTEX
  8
01
  5
1C573
 10
592.519
 20
-1255.68
 30
0.000000
  70
    32
  0
VERTEX
  8
01
  5
1C574
 10
592.494
 20
-1255.67
 30
0.000000
  70
    32
  0
VERTEX
  8
01
  5
1C575
 10
592.469
 20
-1255.65
 30
0.000000
  70
    32
  0
VERTEX
  8
01
  5
1C576
 10
592.445
 20
-1255.63
 30
0.000000
  70
    32
  0
VERTEX
  8
01
  5
1C577
 10
592.421
 20
-1255.62
 30
0.000000
  70
    32
  0
VERTEX
  8
01
  5
1C578
 10
592.397
 20
-1255.60
 30
0.000000
  70
    32
  0
VERTEX
  8
01
  5
1C579
 10
592.374
 20
-1255.58
 30
0.000000
  70
    32
  0
VERTEX
  8
01
  5
1C57A
 10
592.351
 20
-1255.57
 30
0.000000
  70
    32
  0
VERTEX
  8
01
  5
1C57B
 10
592.329
 20
-1255.55
 30
0.000000
  70
    32
  0
VERTEX
  8
01
  5
1C57C
 10
592.307
 20
-1255.53
 30
0.000000
  70
    32
  0
VERTEX
  8
01
  5
1C57D
 10
592.285
 20
-1255.52
 30
0.000000
  70
    32
  0
VERTEX
  8
01
  5
1C57E
 10
592.264
 20
-1255.50
 30
0.000000
  70
    32
  0
VERTEX
  8
01
  5
1C57F
 10
592.243
 20
-1255.48
 30
0.000000
  70
    32
  0
VERTEX
  8
01
  5
1C580
 10
592.222
 20
-1255.46
 30
0.000000
  70
    32
  0
VERTEX
  8
01
  5
1C581
 10
592.202
 20
-1255.44
 30
0.000000
  70
    32
  0
VERTEX
  8
01
  5
1C582
 10
592.182
 20
-1255.43
 30
0.000000
  70
    32
  0
VERTEX
  8
01
  5
1C583
 10
592.162
 20
-1255.41
 30
0.000000
  70
    32
  0
VERTEX
  8
01
  5
1C584
 10
592.143
 20
-1255.39
 30
0.000000
  70
    32
  0
VERTEX
  8
01
  5
1C585
 10
592.125
 20
-1255.37
 30
0.000000
  70
    32
  0
VERTEX
  8
01
  5
1C586
 10
592.106
 20
-1255.35
 30
0.000000
  70
    32
  0
VERTEX
  8
01
  5
1C587
 10
592.088
 20
-1255.33
 30
0.000000
  70
    32
  0
VERTEX
  8
01
  5
1C588
 10
592.071
 20
-1255.31
 30
0.000000
  70
    32
  0
VERTEX
  8
01
  5
1C589
 10
592.054
 20
-1255.29
 30
0.000000
  70
    32
  0
VERTEX
  8
01
  5
1C58A
 10
592.037
 20
-1255.27
 30
0.000000
  70
    32
  0
VERTEX
  8
01
  5
1C58B
 10
592.020
 20
-1255.25
 30
0.000000
  70
    32
  0
VERTEX
  8
01
  5
1C58C
 10
592.005
 20
-1255.24
 30
0.000000
  70
    32
  0
VERTEX
  8
01
  5
1C58D
 10
591.989
 20
-1255.22
 30
0.000000
  70
    32
  0
VERTEX
  8
01
  5
1C58E
 10
591.974
 20
-1255.20
 30
0.000000
  70
    32
  0
VERTEX
  8
01
  5
1C58F
 10
591.959
 20
-1255.18
 30
0.000000
  70
    32
  0
VERTEX
  8
01
  5
1C590
 10
591.945
 20
-1255.16
 30
0.000000
  70
    32
  0
VERTEX
  8
01
  5
1C591
 10
591.931
 20
-1255.14
 30
0.000000
  70
    32
  0
VERTEX
  8
01
  5
1C592
 10
591.918
 20
-1255.12
 30
0.000000
  70
    32
  0
VERTEX
  8
01
  5
1C593
 10
591.904
 20
-1255.10
 30
0.000000
  70
    32
  0
VERTEX
  8
01
  5
1C594
 10
591.892
 20
-1255.07
 30
0.000000
  70
    32
  0
VERTEX
  8
01
  5
1C595
 10
591.880
 20
-1255.05
 30
0.000000
  70
    32
  0
VERTEX
  8
01
  5
1C596
 10
591.868
 20
-1255.03
 30
0.000000
  70
    32
  0
VERTEX
  8
01
  5
1C597
 10
591.857
 20
-1255.01
 30
0.000000
  70
    32
  0
VERTEX
  8
01
  5
1C598
 10
591.846
 20
-1254.99
 30
0.000000
  70
    32
  0
VERTEX
  8
01
  5
1C599
 10
591.835
 20
-1254.97
 30
0.000000
  70
    32
  0
VERTEX
  8
01
  5
1C59A
 10
591.825
 20
-1254.95
 30
0.000000
  70
    32
  0
VERTEX
  8
01
  5
1C59B
 10
591.816
 20
-1254.93
 30
0.000000
  70
    32
  0
VERTEX
  8
01
  5
1C59C
 10
591.806
 20
-1254.91
 30
0.000000
  70
    32
  0
VERTEX
  8
01
  5
1C59D
 10
591.798
 20
-1254.89
 30
0.000000
  70
    32
  0
VERTEX
  8
01
  5
1C59E
 10
591.789
 20
-1254.87
 30
0.000000
  70
    32
  0
VERTEX
  8
01
  5
1C59F
 10
591.782
 20
-1254.84
 30
0.000000
  70
    32
  0
VERTEX
  8
01
  5
1C5A0
 10
591.774
 20
-1254.82
 30
0.000000
  70
    32
  0
VERTEX
  8
01
  5
1C5A1
 10
591.767
 20
-1254.80
 30
0.000000
  70
    32
  0
VERTEX
  8
01
  5
1C5A2
 10
591.761
 20
-1254.78
 30
0.000000
  70
    32
  0
VERTEX
  8
01
  5
1C5A3
 10
591.755
 20
-1254.76
 30
0.000000
  70
    32
  0
VERTEX
  8
01
  5
1C5A4
 10
591.749
 20
-1254.74
 30
0.000000
  70
    32
  0
VERTEX
  8
01
  5
1C5A5
 10
591.744
 20
-1254.72
 30
0.000000
  70
    32
  0
VERTEX
  8
01
  5
1C5A6
 10
591.739
 20
-1254.69
 30
0.000000
  70
    32
  0
VERTEX
  8
01
  5
1C5A7
 10
591.735
 20
-1254.67
 30
0.000000
  70
    32
  0
VERTEX
  8
01
  5
1C5A8
 10
591.731
 20
-1254.65
 30
0.000000
  70
    32
  0
VERTEX
  8
01
  5
1C5A9
 10
591.728
 20
-1254.63
 30
0.000000
  70
    32
  0
VERTEX
  8
01
  5
1C5AA
 10
591.725
 20
-1254.61
 30
0.000000
  70
    32
  0
VERTEX
  8
01
  5
1C5AB
 10
591.722
 20
-1254.59
 30
0.000000
  70
    32
  0
VERTEX
  8
01
  5
1C5AC
 10
591.720
 20
-1254.57
 30
0.000000
  70
    32
  0
VERTEX
  8
01
  5
1C5AD
 10
591.719
 20
-1254.54
 30
0.000000
  70
    32
  0
VERTEX
  8
01
  5
1C5AE
 10
591.717
 20
-1254.52
 30
0.000000
  70
    32
  0
VERTEX
  8
01
  5
1C5AF
 10
591.717
 20
-1254.50
 30
0.000000
  70
    32
  0
VERTEX
  8
01
  5
1C5B0
 10
591.716
 20
-1254.48
 30
0.000000
  70
    32
  0
SEQEND
  8
01
  5
1C5B1
  0
ARC
  5
1BEB7
  8
01
  6
BYBLOCK
 10
879.34647166279763
 20
-1261.313213137455
 30
0.0
 40
6.0999999999999988
 50
310.00000000003769
 51
83.272907644814794
  0
ARC
  5
1BEB8
  8
01
  6
BYBLOCK
 10
879.34647166279763
 20
-1261.313213137455
 30
0.0
 40
5.0999999999999988
 50
310.00000000004547
 51
83.272907644814794
  0
TEXT
  5
1BF33
  8
1TEXT
 10
812.76929233345334
 20
-1180.0694077804681
 30
0.0
 40
4.0
  1
表面処理：カバー
 41
0.8
 72
     1
 11
827.48929233345348
 21
-1180.0694077804681
 31
0.0
  0
TEXT
  5
1BF34
  8
1TEXT
 10
823.22262566678683
 20
-1187.0473028004519
 30
0.0
 40
4.0
  1
鏡面
 72
     1
 11
827.48929233345348
 21
-1187.0473028004519
 31
0.0
  0
LINE
  5
1BF35
  8
1DIM
 10
775.0892923334535
 20
-1174.5694077804681
 30
0.0
 11
880.08929233345327
 21
-1174.5694077804681
 31
0.0
  0
LINE
  5
1BF36
  8
1DIM
 10
775.08929233345373
 20
-1188.5694077804681
 30
0.0
 11
880.08929233345327
 21
-1188.5694077804681
 31
0.0
  0
LINE
  5
1BF37
  8
1DIM
 10
775.08929233345361
 20
-1181.5694077804681
 30
0.0
 11
880.08929233345327
 21
-1181.5694077804681
 31
0.0
  0
LINE
  5
1BF38
  8
1DIM
 10
845.08929233345327
 20
-1174.5694077804681
 30
0.0
 11
845.08929233345373
 21
-1195.5694077804681
 31
0.0
  0
TEXT
  5
1BF39
  8
1TEXT
 10
849.15595900012045
 20
-1187.283764764117
 30
0.0
 40
4.0
  1
SC453XC
 72
     1
 11
862.48929233345405
 21
-1187.283764764117
 31
0.0
  0
TEXT
  5
1BF3A
  8
1TEXT
 10
855.68929233345352
 20
-1180.0694077804681
 30
0.0
 40
4.0
  1
コード
 72
     1
 11
862.48929233345348
 21
-1180.0694077804681
 31
0.0
  0
LINE
  5
1BF3B
  8
1DIM
 10
810.08929233345373
 20
-1195.5694077804681
 30
0.0
 11
810.08929233345339
 21
-1174.5694077804681
 31
0.0
  0
LINE
  5
1BF3C
  8
1DIM
 10
880.08929233345384
 20
-1195.5694077804681
 30
0.0
 11
880.08929233345327
 21
-1174.5694077804681
 31
0.0
  0
TEXT
  5
1BF3E
  8
1TEXT
 10
779.47595900012016
 20
-1180.0694077804681
 30
0.0
 40
4.0
  1
表面処理：本体
 41
0.8
 72
     1
 11
792.48929233345336
 21
-1180.0694077804681
 31
0.0
  0
TEXT
  5
1BF3F
  8
1TEXT
 10
783.15595900012011
 20
-1187.0473028004519
 30
0.0
 40
4.0
  1
クローム
 72
     1
 11
792.48929233345336
 21
-1187.0473028004519
 31
0.0
  0
LINE
  5
1BF40
  8
1DIM
 10
775.08929233345373
 20
-1195.5694077804681
 30
0.0
 11
775.08929233345327
 21
-1174.5694077804681
 31
0.0
  0
TEXT
  5
1BF41
  8
1TEXT
 10
816.02262566678701
 20
-1194.0473028004519
 30
0.0
 40
4.0
  1
ヘアライン
 72
     1
 11
827.4892923334537
 21
-1194.0473028004519
 31
0.0
  0
LINE
  5
1BF42
  8
1DIM
 10
775.08929233345395
 20
-1195.5694077804681
 30
0.0
 11
880.08929233345361
 21
-1195.5694077804681
 31
0.0
  0
TEXT
  5
1BF43
  8
1TEXT
 10
849.15595900012067
 20
-1194.2837647641179
 30
0.0
 40
4.0
  1
SC453CT
 72
     1
 11
862.48929233345416
 21
-1194.2837647641179
 31
0.0
  0
TEXT
  5
1BF44
  8
1TEXT
 10
783.15595900012033
 20
-1194.0473028004519
 30
0.0
 40
4.0
  1
クローム
 72
     1
 11
792.4892923334537
 21
-1194.0473028004519
 31
0.0
  0
TEXT
  5
1BF9B
  8
1DIM
 10
691.02793567462288
 20
-1229.1252532804101
 30
0.0
 40
3.5
  1
材質：ステンレス
  0
TEXT
  5
1BF9C
  8
1DIM
 10
691.02793567462288
 20
-1234.958586613744
 30
0.0
 40
3.5
  1
仕上：各種仕上
  0
TEXT
  5
1BF9D
  8
1DIM
 10
690.32793567462295
 20
-1240.7919199470771
 30
0.0
 40
3.5
  1
※ヘアライン方向：横目
  0
SOLID
  5
1BF9E
  8
1DIM
 10
678.15840234874656
 20
-1221.360866801346
 30
0.0
 11
677.58280020008249
 21
-1219.4166977558241
 31
0.0
 12
678.75783003115009
 22
-1221.069094804724
 32
0.0
 13
678.75783003115009
 23
-1221.069094804724
 33
0.0
  0
LINE
  5
1BFA0
  8
1PHANTOM
 10
608.71649695181475
 20
-1103.7400344891171
 30
0.0
 11
607.21649695181475
 21
-1109.0400309989791
 31
0.0
  0
LINE
  5
1BFA1
  8
1PHANTOM
 10
607.21649695181475
 20
-1109.0400309989791
 30
0.0
 11
607.21649695181475
 21
-1133.7400309988709
 31
0.0
  0
LINE
  5
1BFA2
  8
1PHANTOM
 10
608.71649695181475
 20
-1103.7400344891171
 30
0.0
 11
610.21649695181475
 21
-1109.040037979363
 31
0.0
  0
LINE
  5
1BFA3
  8
1PHANTOM
 10
605.21645041591682
 20
-1133.740026345173
 30
0.0
 11
607.21649695181475
 21
-1133.7400309988709
 31
0.0
  0
LINE
  5
1BFA4
  8
1PHANTOM
 10
610.21649695181475
 20
-1109.040037979363
 30
0.0
 11
610.21649695181475
 21
-1133.7400379792559
 31
0.0
  0
LINE
  5
1BFA5
  8
1PHANTOM
 10
605.21645041591682
 20
-1133.740026345173
 30
0.0
 11
605.21645041591682
 21
-1134.8400298353679
 31
0.0
  0
LINE
  5
1BFA6
  8
1PHANTOM
 10
610.21649695181475
 20
-1133.7400379792559
 30
0.0
 11
612.21645041591682
 21
-1133.740042632737
 31
0.0
  0
ARC
  5
1BFA7
  8
1PHANTOM
 10
606.71645041591682
 20
-1134.8400298353679
 30
0.0
 40
1.5
 50
180.0
 51
269.99986668447491
  0
LINE
  5
1BFA8
  8
1PHANTOM
 10
612.21645041591682
 20
-1133.740042632737
 30
0.0
 11
612.21645041591682
 21
-1134.840039142548
 31
0.0
  0
LINE
  5
1BFA9
  8
1PHANTOM
 10
606.71644692572454
 20
-1136.340029835364
 30
0.0
 11
610.71644692572454
 21
-1136.3400391425439
 31
0.0
  0
ARC
  5
1BFAA
  8
1PHANTOM
 10
610.71645041591682
 20
-1134.840039142548
 30
0.0
 40
1.5
 50
269.99986668447491
 51
0.0
  0
LINE
  5
1BFAB
  8
1PHANTOM
 10
650.71649695181475
 20
-1103.7400344891171
 30
0.0
 11
649.21649695181486
 21
-1109.0400309989791
 31
0.0
  0
LINE
  5
1BFAC
  8
1PHANTOM
 10
649.21649695181486
 20
-1109.0400309989791
 30
0.0
 11
649.21649695181486
 21
-1133.7400309988709
 31
0.0
  0
LINE
  5
1BFAD
  8
1PHANTOM
 10
650.71649695181475
 20
-1103.7400344891171
 30
0.0
 11
652.21649695181475
 21
-1109.040037979363
 31
0.0
  0
LINE
  5
1BFAE
  8
1PHANTOM
 10
647.21645041591671
 20
-1133.740026345173
 30
0.0
 11
649.21649695181486
 21
-1133.7400309988709
 31
0.0
  0
LINE
  5
1BFAF
  8
1PHANTOM
 10
652.21649695181475
 20
-1109.040037979363
 30
0.0
 11
652.21649695181475
 21
-1133.7400379792559
 31
0.0
  0
LINE
  5
1BFB0
  8
1PHANTOM
 10
647.21645041591671
 20
-1133.740026345173
 30
0.0
 11
647.21645041591671
 21
-1134.8400298353679
 31
0.0
  0
LINE
  5
1BFB1
  8
1PHANTOM
 10
652.21649695181475
 20
-1133.7400379792559
 30
0.0
 11
654.21645041591682
 21
-1133.740042632737
 31
0.0
  0
ARC
  5
1BFB2
  8
1PHANTOM
 10
648.71645041591682
 20
-1134.8400298353679
 30
0.0
 40
1.5
 50
180.0
 51
269.99986668447491
  0
LINE
  5
1BFB3
  8
1PHANTOM
 10
654.21645041591682
 20
-1133.740042632737
 30
0.0
 11
654.21645041591682
 21
-1134.840039142548
 31
0.0
  0
LINE
  5
1BFB4
  8
1PHANTOM
 10
648.71644692572454
 20
-1136.340029835364
 30
0.0
 11
652.71644692572454
 21
-1136.3400391425439
 31
0.0
  0
ARC
  5
1BFB5
  8
1PHANTOM
 10
652.71645041591682
 20
-1134.840039142548
 30
0.0
 40
1.5
 50
269.99986668447491
 51
0.0
  0
LINE
  5
1BFB6
  8
1DIM
 10
582.71648426159163
 20
-1303.313207809822
 30
0.0
 11
582.71648426159163
 21
-1325.313207809822
 31
0.0
  0
LINE
  5
1BFB7
  8
1DIM
 10
713.71648426159209
 20
-1295.904437699706
 30
0.0
 11
713.71648426159209
 21
-1325.313207809822
 31
0.0
  0
LINE
  5
1BFB8
  8
1DIM
 10
584.71648426159163
 20
-1324.313207809822
 30
0.0
 11
711.71648426159197
 21
-1324.313207809822
 31
0.0
  0
LINE
  5
1BFBC
  8
1DIM
 10
608.71648426159163
 20
-1303.7987448035631
 30
0.0
 11
608.71648426159163
 21
-1315.313207809822
 31
0.0
  0
LINE
  5
1BFBD
  8
1DIM
 10
582.71648426159163
 20
-1303.313207809822
 30
0.0
 11
582.71648426159163
 21
-1315.313207809822
 31
0.0
  0
LINE
  5
1BFBE
  8
1DIM
 10
606.71648426159163
 20
-1314.313207809822
 30
0.0
 11
584.71648426159163
 21
-1314.313207809822
 31
0.0
  0
LINE
  5
1BFC2
  8
1DIM
 10
656.20200856510951
 20
-1280.313207809822
 30
0.0
 11
730.71648426159163
 21
-1280.313207809822
 31
0.0
  0
LINE
  5
1BFC3
  8
1DIM
 10
671.71648426159095
 20
-1274.313207809822
 30
0.0
 11
730.71648426159175
 21
-1274.313207809822
 31
0.0
  0
LINE
  5
1BFC4
  8
1DIM
 10
729.71648426159175
 20
-1278.313207809822
 30
0.0
 11
729.71648426159175
 21
-1276.313207809822
 31
0.0
  0
LINE
  5
1BFC8
  8
1DIM
 10
608.71648426159163
 20
-1303.7987448035631
 30
0.0
 11
608.71648426159163
 21
-1315.313207809822
 31
0.0
  0
LINE
  5
1BFC9
  8
1DIM
 10
650.71649695181475
 20
-1285.7987194231171
 30
0.0
 11
650.71649695181475
 21
-1315.313207809822
 31
0.0
  0
LINE
  5
1BFCA
  8
1DIM
 10
610.71648426159163
 20
-1314.313207809822
 30
0.0
 11
648.71649695181475
 21
-1314.313207809822
 31
0.0
  0
LINE
  5
1BFCE
  8
1DIM
 10
878.34651355739027
 20
-1276.1078898178639
 30
0.0
 11
878.34651355739027
 21
-1245.3694211173349
 31
0.0
  0
LINE
  5
1BFCF
  8
1DIM
 10
887.49652967976908
 20
-1271.0260740590261
 30
0.0
 11
887.49652967976908
 21
-1245.3694211173349
 31
0.0
  0
LINE
  5
1BFD0
  8
1DIM
 10
880.34651355739027
 20
-1246.3694211173349
 30
0.0
 11
885.49652967976897
 21
-1246.3694211173349
 31
0.0
  0
LINE
  5
1BFD4
  8
1PHANTOM
 10
912.34650180192034
 20
-1298.31325434572
 30
0.0
 11
907.04650529205855
 21
-1296.81325434572
 31
0.0
  0
LINE
  5
1BFD5
  8
1PHANTOM
 10
907.04650529205855
 20
-1296.81325434572
 30
0.0
 11
882.34650529216674
 21
-1296.81325434572
 31
0.0
  0
LINE
  5
1BFD6
  8
1PHANTOM
 10
912.34650180192034
 20
-1298.31325434572
 30
0.0
 11
907.04649831167478
 21
-1299.81325434572
 31
0.0
  0
LINE
  5
1BFD7
  8
1PHANTOM
 10
882.34650994586491
 20
-1294.813207809822
 30
0.0
 11
882.34650529216674
 21
-1296.81325434572
 31
0.0
  0
LINE
  5
1BFD8
  8
1PHANTOM
 10
907.04649831167478
 20
-1299.81325434572
 30
0.0
 11
882.34649831178194
 21
-1299.81325434572
 31
0.0
  0
LINE
  5
1BFD9
  8
1PHANTOM
 10
882.34650994586491
 20
-1294.813207809822
 30
0.0
 11
881.24650645566953
 21
-1294.813207809822
 31
0.0
  0
LINE
  5
1BFDA
  8
1PHANTOM
 10
882.34649831178194
 20
-1299.81325434572
 30
0.0
 11
882.34649365830035
 21
-1301.813207809822
 31
0.0
  0
ARC
  5
1BFDB
  8
1PHANTOM
 10
881.24650645566953
 20
-1296.313207809822
 30
0.0
 40
1.5
 50
90.0
 51
179.99986668447491
  0
LINE
  5
1BFDC
  8
1PHANTOM
 10
882.34649365830035
 20
-1301.813207809822
 30
0.0
 11
881.24649714848977
 21
-1301.813207809822
 31
0.0
  0
LINE
  5
1BFDD
  8
1PHANTOM
 10
879.74650645567351
 20
-1296.3132043196299
 30
0.0
 11
879.74649714849397
 21
-1300.3132043196299
 31
0.0
  0
ARC
  5
1BFDE
  8
1PHANTOM
 10
881.24649714848977
 20
-1300.313207809822
 30
0.0
 40
1.5
 50
179.99986668447491
 51
270.0
  0
LINE
  5
1BFDF
  8
1PHANTOM
 10
912.34650180192034
 20
-1280.31325434572
 30
0.0
 11
907.04650529205855
 21
-1278.81325434572
 31
0.0
  0
LINE
  5
1BFE0
  8
1PHANTOM
 10
907.04650529205855
 20
-1278.81325434572
 30
0.0
 11
882.34650529216674
 21
-1278.81325434572
 31
0.0
  0
LINE
  5
1BFE1
  8
1PHANTOM
 10
912.34650180192034
 20
-1280.31325434572
 30
0.0
 11
907.04649831167478
 21
-1281.81325434572
 31
0.0
  0
LINE
  5
1BFE2
  8
1PHANTOM
 10
882.34650994586491
 20
-1276.813207809822
 30
0.0
 11
882.34650529216674
 21
-1278.81325434572
 31
0.0
  0
LINE
  5
1BFE3
  8
1PHANTOM
 10
907.04649831167478
 20
-1281.81325434572
 30
0.0
 11
882.34649831178194
 21
-1281.81325434572
 31
0.0
  0
LINE
  5
1BFE4
  8
1PHANTOM
 10
882.34650994586491
 20
-1276.813207809822
 30
0.0
 11
881.24650645566953
 21
-1276.813207809822
 31
0.0
  0
LINE
  5
1BFE5
  8
1PHANTOM
 10
882.34649831178194
 20
-1281.81325434572
 30
0.0
 11
882.34649365830035
 21
-1283.813207809822
 31
0.0
  0
ARC
  5
1BFE6
  8
1PHANTOM
 10
881.24650645566953
 20
-1278.313207809822
 30
0.0
 40
1.5
 50
90.0
 51
179.99986668447491
  0
LINE
  5
1BFE7
  8
1PHANTOM
 10
882.34649365830035
 20
-1283.813207809822
 30
0.0
 11
881.24649714848977
 21
-1283.813207809822
 31
0.0
  0
LINE
  5
1BFE8
  8
1PHANTOM
 10
879.74650645567351
 20
-1278.3132043196299
 30
0.0
 11
879.74649714849397
 21
-1282.3132043196299
 31
0.0
  0
ARC
  5
1BFE9
  8
1PHANTOM
 10
881.24649714848977
 20
-1282.313207809822
 30
0.0
 40
1.5
 50
179.99986668447491
 51
270.0
  0
LINE
  5
1BFEA
  8
1DIM
 10
614.20202125533274
 20
-1298.313207809822
 30
0.0
 11
730.71648426159152
 21
-1298.313207809822
 31
0.0
  0
LINE
  5
1BFEB
  8
1DIM
 10
656.20200856510951
 20
-1280.313207809822
 30
0.0
 11
730.71648426159152
 21
-1280.313207809822
 31
0.0
  0
LINE
  5
1BFEC
  8
1DIM
 10
729.71648426159152
 20
-1296.313207809822
 30
0.0
 11
729.71648426159152
 21
-1282.313207809822
 31
0.0
  0
LINE
  5
1BFF0
  8
1DIM
 10
706.71648426159163
 20
-1136.7400344890809
 30
0.0
 11
730.71648426159175
 21
-1136.7400344890809
 31
0.0
  0
LINE
  5
1BFF1
  8
1DIM
 10
706.71648426159175
 20
-1219.3790292269709
 30
0.0
 11
730.71648426159175
 21
-1219.3790292269709
 31
0.0
  0
LINE
  5
1BFF2
  8
1DIM
 10
729.71648426159175
 20
-1138.7400344890809
 30
0.0
 11
729.71648426159175
 21
-1217.3790292269709
 31
0.0
  0
LINE
  5
1BFF6
  8
1DIM
 10
582.71648426159106
 20
-1128.740034489063
 30
0.0
 11
582.71648426159106
 21
-1117.6124220331189
 31
0.0
  0
LINE
  5
1BFF7
  8
1DIM
 10
672.71648426159118
 20
-1128.740034489063
 30
0.0
 11
672.71648426159118
 21
-1117.6124220331189
 31
0.0
  0
LINE
  5
1BFF8
  8
1DIM
 10
584.71648426159106
 20
-1118.6124220331189
 30
0.0
 11
670.71648426159106
 21
-1118.6124220331189
 31
0.0
  0
TEXT
  5
1BFFC
  8
1DIM
 10
719.48037400157125
 20
-1253.672810384948
 30
0.0
 40
3.5
  1
材質：亜鉛ダイキャスト
  0
TEXT
  5
1BFFD
  8
1DIM
 10
719.48037400157125
 20
-1259.506143718281
 30
0.0
 40
3.5
  1
仕上げ：クローム
  0
SOLID
  5
1BFFE
  8
1DIM
 10
711.14905801050702
 20
-1279.8747453417279
 30
0.0
 11
710.24838297422218
 21
-1281.691306816087
 31
0.0
 12
710.51121780064545
 22
-1279.680827031277
 32
0.0
 13
710.51121780064545
 23
-1279.680827031277
 33
0.0
  0
LINE
  5
1C000
  8
1DIM
 10
788.24785180158415
 20
-1252.5326314771739
 30
0.0
 11
788.24785180158415
 21
-1232.9190074545961
 31
0.0
  0
LINE
  5
1C001
  8
1DIM
 10
887.49652967976908
 20
-1271.0260740590261
 30
0.0
 11
887.49652967976908
 21
-1232.9190074545961
 31
0.0
  0
LINE
  5
1C002
  8
1DIM
 10
790.24785180158426
 20
-1233.9190074545961
 30
0.0
 11
885.49652967976897
 21
-1233.9190074545961
 31
0.0
  0
TEXT
  5
1C006
  8
1HATCH
 10
891.0015729052227
 20
-1229.0213605492129
 30
0.0
 40
3.5
  1
PB
  0
SOLID
  5
1C007
  8
1HATCH
 10
891.90610301686559
 20
-1248.174121552903
 30
0.0
 11
891.92644028490975
 21
-1250.201607066203
 31
0.0
 12
891.24963945947366
 22
-1248.2903112351501
 32
0.0
 13
891.24963945947366
 23
-1248.2903112351501
 33
0.0
  0
SOLID
  5
1C009
  8
1DIM
 10
899.96962382939637
 20
-1248.178508083002
 30
0.0
 11
900.42442249885084
 21
-1250.1544304704901
 31
0.0
 12
899.3533678480195
 22
-1248.4328169697169
 32
0.0
 13
899.3533678480195
 23
-1248.4328169697169
 33
0.0
  0
TEXT
  5
1C00B
  8
1DIM
 10
897.16891739976143
 20
-1235.0227065663371
 30
0.0
 40
3.5
  1
合板9mm以上
  0
LINE
  5
1C00C
  8
1DIM
 10
899.66149583870799
 20
-1248.30566252636
 30
0.0
 11
894.46891739976127
 21
-1235.722706566338
 31
0.0
  0
LINE
  5
1C00D
  8
1DIM
 10
894.46891739976127
 20
-1235.722706566338
 30
0.0
 11
926.36891739976124
 21
-1235.722706566338
 31
0.0
  0
LINE
  5
1C00E
  8
1HATCH
 10
891.57787123816956
 20
-1248.2322163940271
 30
0.0
 11
888.30157290522266
 21
-1229.7213605492129
 31
0.0
  0
LINE
  5
1C00F
  8
1HATCH
 10
888.30157290522266
 20
-1229.7213605492129
 30
0.0
 11
896.83490623855585
 21
-1229.7213605492129
 31
0.0
  0
TEXT
  5
1C010
  8
1DIM
 10
811.73885740734318
 20
-1233.2190074545961
 30
0.0
 40
3.5
  1
99 （ペーパー付き最大値）
  0
LINE
  5
1C011
  8
0
  6
BYBLOCK
 10
885.49652967976897
 20
-1233.383109074596
 30
0.0
 11
887.49652967976908
 21
-1233.9190074545961
 31
0.0
  0
LINE
  5
1C012
  8
0
  6
BYBLOCK
 10
887.49652967976908
 20
-1233.9190074545961
 30
0.0
 11
885.49652967976897
 21
-1234.454905834596
 31
0.0
  0
LINE
  5
1C013
  8
0
  6
BYBLOCK
 10
887.49652967976908
 20
-1233.9190074545961
 30
0.0
 11
885.49652967976897
 21
-1233.9190074545961
 31
0.0
  0
LINE
  5
1C014
  8
0
  6
BYBLOCK
 10
790.24785180158426
 20
-1234.454905834596
 30
0.0
 11
788.24785180158415
 21
-1233.9190074545961
 31
0.0
  0
LINE
  5
1C015
  8
0
  6
BYBLOCK
 10
788.24785180158415
 20
-1233.9190074545961
 30
0.0
 11
790.24785180158426
 21
-1233.383109074596
 31
0.0
  0
LINE
  5
1C016
  8
0
  6
BYBLOCK
 10
788.24785180158415
 20
-1233.9190074545961
 30
0.0
 11
790.24785180158426
 21
-1233.9190074545961
 31
0.0
  0
LINE
  5
1C017
  8
1DIM
 10
710.83013790557618
 20
-1279.777786186502
 30
0.0
 11
716.78037400157109
 21
-1260.2061437182811
 31
0.0
  0
LINE
  5
1C018
  8
1DIM
 10
716.78037400157109
 20
-1260.2061437182811
 30
0.0
 11
764.74704066823767
 21
-1260.2061437182811
 31
0.0
  0
TEXT
  5
1C019
  8
1DIM
 10
618.75815092825781
 20
-1117.91242203312
 30
0.0
 40
3.5
  1
接地面90
  0
LINE
  5
1C01A
  8
0
  6
BYBLOCK
 10
670.71648426159106
 20
-1118.0765236531199
 30
0.0
 11
672.71648426159118
 21
-1118.6124220331189
 31
0.0
  0
LINE
  5
1C01B
  8
0
  6
BYBLOCK
 10
672.71648426159118
 20
-1118.6124220331189
 30
0.0
 11
670.71648426159106
 21
-1119.1483204131191
 31
0.0
  0
LINE
  5
1C01C
  8
0
  6
BYBLOCK
 10
672.71648426159118
 20
-1118.6124220331189
 30
0.0
 11
670.71648426159106
 21
-1118.6124220331189
 31
0.0
  0
LINE
  5
1C01D
  8
0
  6
BYBLOCK
 10
584.71648426159106
 20
-1119.1483204131191
 30
0.0
 11
582.71648426159106
 21
-1118.6124220331189
 31
0.0
  0
LINE
  5
1C01E
  8
0
  6
BYBLOCK
 10
582.71648426159106
 20
-1118.6124220331189
 30
0.0
 11
584.71648426159106
 21
-1118.0765236531199
 31
0.0
  0
LINE
  5
1C01F
  8
0
  6
BYBLOCK
 10
582.71648426159106
 20
-1118.6124220331189
 30
0.0
 11
584.71648426159106
 21
-1118.6124220331189
 31
0.0
  0
TEXT
  5
1C020
  8
1DIM
 10
729.01648426159181
 20
-1205.4761985246921
 30
0.0
 40
3.5
  1
82.5（ペーパー無し最小値）
 50
90.0
  0
LINE
  5
1C021
  8
0
  6
BYBLOCK
 10
730.25238264159168
 20
-1217.3790292269709
 30
0.0
 11
729.71648426159175
 21
-1219.3790292269709
 31
0.0
  0
LINE
  5
1C022
  8
0
  6
BYBLOCK
 10
729.71648426159175
 20
-1219.3790292269709
 30
0.0
 11
729.1805858815917
 21
-1217.3790292269709
 31
0.0
  0
LINE
  5
1C023
  8
0
  6
BYBLOCK
 10
729.71648426159175
 20
-1219.3790292269709
 30
0.0
 11
729.71648426159175
 21
-1217.3790292269709
 31
0.0
  0
LINE
  5
1C024
  8
0
  6
BYBLOCK
 10
729.1805858815917
 20
-1138.7400344890809
 30
0.0
 11
729.71648426159175
 21
-1136.7400344890809
 31
0.0
  0
LINE
  5
1C025
  8
0
  6
BYBLOCK
 10
729.71648426159175
 20
-1136.7400344890809
 30
0.0
 11
730.25238264159168
 21
-1138.7400344890809
 31
0.0
  0
LINE
  5
1C026
  8
0
  6
BYBLOCK
 10
729.71648426159175
 20
-1136.7400344890809
 30
0.0
 11
729.71648426159175
 21
-1138.7400344890809
 31
0.0
  0
TEXT
  5
1C027
  8
1DIM
 10
729.0164842615917
 20
-1293.396541143155
 30
0.0
 40
3.5
  1
P18
 50
90.0
  0
LINE
  5
1C028
  8
0
  6
BYBLOCK
 10
729.18058588159136
 20
-1282.313207809822
 30
0.0
 11
729.71648426159152
 21
-1280.313207809822
 31
0.0
  0
LINE
  5
1C029
  8
0
  6
BYBLOCK
 10
729.71648426159152
 20
-1280.313207809822
 30
0.0
 11
730.25238264159157
 21
-1282.313207809822
 31
0.0
  0
LINE
  5
1C02A
  8
0
  6
BYBLOCK
 10
729.71648426159152
 20
-1280.313207809822
 30
0.0
 11
729.71648426159152
 21
-1282.313207809822
 31
0.0
  0
LINE
  5
1C02B
  8
0
  6
BYBLOCK
 10
730.25238264159157
 20
-1296.313207809822
 30
0.0
 11
729.71648426159152
 21
-1298.313207809822
 31
0.0
  0
LINE
  5
1C02C
  8
0
  6
BYBLOCK
 10
729.71648426159152
 20
-1298.313207809822
 30
0.0
 11
729.18058588159136
 21
-1296.313207809822
 31
0.0
  0
LINE
  5
1C02D
  8
0
  6
BYBLOCK
 10
729.71648426159152
 20
-1298.313207809822
 30
0.0
 11
729.71648426159152
 21
-1296.313207809822
 31
0.0
  0
TEXT
  5
1C02E
  8
1DIM
 10
881.7548549519131
 20
-1245.669421117334
 30
0.0
 40
3.5
  1
9
  0
LINE
  5
1C02F
  8
0
  6
BYBLOCK
 10
885.49652967976897
 20
-1245.833522737335
 30
0.0
 11
887.49652967976908
 21
-1246.3694211173349
 31
0.0
  0
LINE
  5
1C030
  8
0
  6
BYBLOCK
 10
887.49652967976908
 20
-1246.3694211173349
 30
0.0
 11
885.49652967976897
 21
-1246.9053194973339
 31
0.0
  0
LINE
  5
1C031
  8
0
  6
BYBLOCK
 10
887.49652967976908
 20
-1246.3694211173349
 30
0.0
 11
885.49652967976897
 21
-1246.3694211173349
 31
0.0
  0
LINE
  5
1C032
  8
0
  6
BYBLOCK
 10
880.34651355739027
 20
-1246.9053194973339
 30
0.0
 11
878.34651355739027
 21
-1246.3694211173349
 31
0.0
  0
LINE
  5
1C033
  8
0
  6
BYBLOCK
 10
878.34651355739027
 20
-1246.3694211173349
 30
0.0
 11
880.34651355739027
 21
-1245.833522737335
 31
0.0
  0
LINE
  5
1C034
  8
0
  6
BYBLOCK
 10
878.34651355739027
 20
-1246.3694211173349
 30
0.0
 11
880.34651355739027
 21
-1246.3694211173349
 31
0.0
  0
TEXT
  5
1C035
  8
1DIM
 10
625.04982394003662
 20
-1313.6132078098219
 30
0.0
 40
3.5
  1
P42
  0
LINE
  5
1C036
  8
0
  6
BYBLOCK
 10
648.71649695181475
 20
-1313.777309429822
 30
0.0
 11
650.71649695181475
 21
-1314.313207809822
 31
0.0
  0
LINE
  5
1C037
  8
0
  6
BYBLOCK
 10
650.71649695181475
 20
-1314.313207809822
 30
0.0
 11
648.71649695181475
 21
-1314.8491061898219
 31
0.0
  0
LINE
  5
1C038
  8
0
  6
BYBLOCK
 10
650.71649695181475
 20
-1314.313207809822
 30
0.0
 11
648.71649695181475
 21
-1314.313207809822
 31
0.0
  0
LINE
  5
1C039
  8
0
  6
BYBLOCK
 10
610.71648426159163
 20
-1314.8491061898219
 30
0.0
 11
608.71648426159163
 21
-1314.313207809822
 31
0.0
  0
LINE
  5
1C03A
  8
0
  6
BYBLOCK
 10
608.71648426159163
 20
-1314.313207809822
 30
0.0
 11
610.71648426159163
 21
-1313.777309429822
 31
0.0
  0
LINE
  5
1C03B
  8
0
  6
BYBLOCK
 10
608.71648426159163
 20
-1314.313207809822
 30
0.0
 11
610.71648426159163
 21
-1314.313207809822
 31
0.0
  0
TEXT
  5
1C03C
  8
1DIM
 10
729.01648426159181
 20
-1278.479874476488
 30
0.0
 40
3.5
  1
6
 50
90.0
  0
LINE
  5
1C03D
  8
0
  6
BYBLOCK
 10
729.1805858815917
 20
-1276.313207809822
 30
0.0
 11
729.71648426159175
 21
-1274.313207809822
 31
0.0
  0
LINE
  5
1C03E
  8
0
  6
BYBLOCK
 10
729.71648426159175
 20
-1274.313207809822
 30
0.0
 11
730.25238264159168
 21
-1276.313207809822
 31
0.0
  0
LINE
  5
1C03F
  8
0
  6
BYBLOCK
 10
729.71648426159175
 20
-1274.313207809822
 30
0.0
 11
729.71648426159175
 21
-1276.313207809822
 31
0.0
  0
LINE
  5
1C040
  8
0
  6
BYBLOCK
 10
730.25238264159157
 20
-1278.313207809822
 30
0.0
 11
729.71648426159163
 21
-1280.313207809822
 31
0.0
  0
LINE
  5
1C041
  8
0
  6
BYBLOCK
 10
729.71648426159163
 20
-1280.313207809822
 30
0.0
 11
729.18058588159158
 21
-1278.313207809822
 31
0.0
  0
LINE
  5
1C042
  8
0
  6
BYBLOCK
 10
729.71648426159163
 20
-1280.313207809822
 30
0.0
 11
729.71648426159163
 21
-1278.313207809822
 31
0.0
  0
TEXT
  5
1C043
  8
1DIM
 10
592.799817594925
 20
-1313.6132078098219
 30
0.0
 40
3.5
  1
26
  0
LINE
  5
1C044
  8
0
  6
BYBLOCK
 10
584.71648426159163
 20
-1314.8491061898219
 30
0.0
 11
582.71648426159163
 21
-1314.313207809822
 31
0.0
  0
LINE
  5
1C045
  8
0
  6
BYBLOCK
 10
582.71648426159163
 20
-1314.313207809822
 30
0.0
 11
584.71648426159163
 21
-1313.777309429822
 31
0.0
  0
LINE
  5
1C046
  8
0
  6
BYBLOCK
 10
582.71648426159163
 20
-1314.313207809822
 30
0.0
 11
584.71648426159163
 21
-1314.313207809822
 31
0.0
  0
LINE
  5
1C047
  8
0
  6
BYBLOCK
 10
606.71648426159163
 20
-1313.777309429822
 30
0.0
 11
608.71648426159163
 21
-1314.313207809822
 31
0.0
  0
LINE
  5
1C048
  8
0
  6
BYBLOCK
 10
608.71648426159163
 20
-1314.313207809822
 30
0.0
 11
606.71648426159163
 21
-1314.8491061898219
 31
0.0
  0
LINE
  5
1C049
  8
0
  6
BYBLOCK
 10
608.71648426159163
 20
-1314.313207809822
 30
0.0
 11
606.71648426159163
 21
-1314.313207809822
 31
0.0
  0
TEXT
  5
1C04A
  8
1DIM
 10
644.71648426159186
 20
-1323.6132078098219
 30
0.0
 40
3.5
  1
131
  0
LINE
  5
1C04B
  8
0
  6
BYBLOCK
 10
711.71648426159197
 20
-1323.777309429822
 30
0.0
 11
713.71648426159209
 21
-1324.313207809822
 31
0.0
  0
LINE
  5
1C04C
  8
0
  6
BYBLOCK
 10
713.71648426159209
 20
-1324.313207809822
 30
0.0
 11
711.71648426159197
 21
-1324.8491061898219
 31
0.0
  0
LINE
  5
1C04D
  8
0
  6
BYBLOCK
 10
713.71648426159209
 20
-1324.313207809822
 30
0.0
 11
711.71648426159197
 21
-1324.313207809822
 31
0.0
  0
LINE
  5
1C04E
  8
0
  6
BYBLOCK
 10
584.71648426159163
 20
-1324.8491061898219
 30
0.0
 11
582.71648426159163
 21
-1324.313207809822
 31
0.0
  0
LINE
  5
1C04F
  8
0
  6
BYBLOCK
 10
582.71648426159163
 20
-1324.313207809822
 30
0.0
 11
584.71648426159163
 21
-1323.777309429822
 31
0.0
  0
LINE
  5
1C050
  8
0
  6
BYBLOCK
 10
582.71648426159163
 20
-1324.313207809822
 30
0.0
 11
584.71648426159163
 21
-1324.313207809822
 31
0.0
  0
LINE
  5
1C051
  8
1DIM
 10
678.45811618994844
 20
-1221.2149808030349
 30
0.0
 11
688.32793567462295
 21
-1241.4919199470769
 31
0.0
  0
LINE
  5
1C052
  8
1DIM
 10
688.32793567462295
 20
-1241.4919199470769
 30
0.0
 11
735.82793567462295
 21
-1241.4919199470769
 31
0.0
  0
VIEWPORT
  5
57
 67
     1
  8
0
 10
-12.71820606546887
 20
14.349624936752379
 30
0.0
 40
411.65575489768349
 41
291.4669764588063
 68
     1
 69
     1
1001
ACAD
1000
MVIEW
1002
{
1070
    16
1010
0.0
1020
0.0
1030
0.0
1010
0.0
1020
0.0
1030
1.0
1040
0.0
1040
291.4669764588063
1040
-12.71820606546887
1040
14.349624936752379
1040
50.0
1040
0.0
1040
0.0
1070
     0
1070
   100
1070
     1
1070
     1
1070
     0
1070
     0
1070
     0
1070
     0
1040
0.0
1040
0.0
1040
0.0
1040
10.0
1040
10.0
1040
10.0
1040
10.0
1070
     0
1002
{
1002
}
1002
}
  0
ENDSEC
  0
EOF
