  0
SECTION
  2
HEADER
  9
$ACADVER
  1
AC1012
  9
$DWGCODEPAGE
  3
ansi_932
  9
$INSBASE
 10
0.0
 20
0.0
 30
0.0
  9
$EXTMIN
 10
605.4622196734757
 20
-1116.301681890422
 30
0.0
  9
$EXTMAX
 10
969.7629830684128
 20
-956.7535676080441
 30
0.0
  9
$LIMMIN
 10
0.0
 20
0.0
  9
$LIMMAX
 10
420.0
 20
297.0
  9
$ORTHOMODE
 70
     0
  9
$REGENMODE
 70
     1
  9
$FILLMODE
 70
     1
  9
$QTEXTMODE
 70
     0
  9
$MIRRTEXT
 70
     0
  9
$DRAGMODE
 70
     2
  9
$LTSCALE
 40
0.5
  9
$OSMODE
 70
 14463
  9
$ATTMODE
 70
     1
  9
$TEXTSIZE
 40
4.0
  9
$TRACEWID
 40
1.0
  9
$TEXTSTYLE
  7
STANDARD
  9
$CLAYER
  8
1TEXT
  9
$CELTYPE
  6
BYLAYER
  9
$CECOLOR
 62
   256
  9
$CELTSCALE
 40
1.0
  9
$DELOBJ
 70
     1
  9
$DISPSILH
 70
     0
  9
$DIMSCALE
 40
1.0
  9
$DIMASZ
 40
2.0
  9
$DIMEXO
 40
0.0
  9
$DIMDLI
 40
7.0
  9
$DIMRND
 40
0.0
  9
$DIMDLE
 40
0.0
  9
$DIMEXE
 40
1.0
  9
$DIMTP
 40
0.0
  9
$DIMTM
 40
0.0
  9
$DIMTXT
 40
3.5
  9
$DIMCEN
 40
0.0
  9
$DIMTSZ
 40
0.0
  9
$DIMTOL
 70
     0
  9
$DIMLIM
 70
     0
  9
$DIMTIH
 70
     0
  9
$DIMTOH
 70
     0
  9
$DIMSE1
 70
     0
  9
$DIMSE2
 70
     0
  9
$DIMTAD
 70
     1
  9
$DIMZIN
 70
     8
  9
$DIMBLK
  1

  9
$DIMASO
 70
     1
  9
$DIMSHO
 70
     1
  9
$DIMPOST
  1
 
  9
$DIMAPOST
  1

  9
$DIMALT
 70
     0
  9
$DIMALTD
 70
     2
  9
$DIMALTF
 40
25.4
  9
$DIMLFAC
 40
1.0
  9
$DIMTOFL
 70
     1
  9
$DIMTVP
 40
0.0
  9
$DIMTIX
 70
     0
  9
$DIMSOXD
 70
     0
  9
$DIMSAH
 70
     1
  9
$DIMBLK1
  1
OPEN30
  9
$DIMBLK2
  1
OPEN30
  9
$DIMSTYLE
  2
NEWX10
  9
$DIMCLRD
 70
   256
  9
$DIMCLRE
 70
   256
  9
$DIMCLRT
 70
   201
  9
$DIMTFAC
 40
0.7
  9
$DIMGAP
 40
0.7
  9
$DIMJUST
 70
     0
  9
$DIMSD1
 70
     0
  9
$DIMSD2
 70
     0
  9
$DIMTOLJ
 70
     1
  9
$DIMTZIN
 70
     8
  9
$DIMALTZ
 70
     0
  9
$DIMALTTZ
 70
     0
  9
$DIMFIT
 70
     2
  9
$DIMUPT
 70
     0
  9
$DIMUNIT
 70
     2
  9
$DIMDEC
 70
     2
  9
$DIMTDEC
 70
     4
  9
$DIMALTU
 70
     2
  9
$DIMALTTD
 70
     2
  9
$DIMTXSTY
  7
STANDARD
  9
$DIMAUNIT
 70
     0
  9
$LUNITS
 70
     2
  9
$LUPREC
 70
     4
  9
$SKETCHINC
 40
1.0
  9
$FILLETRAD
 40
0.0
  9
$AUNITS
 70
     0
  9
$AUPREC
 70
     2
  9
$MENU
  1
acad
  9
$ELEVATION
 40
0.0
  9
$PELEVATION
 40
0.0
  9
$THICKNESS
 40
0.0
  9
$LIMCHECK
 70
     0
  9
$CHAMFERA
 40
1.0
  9
$CHAMFERB
 40
1.0
  9
$CHAMFERC
 40
20.0
  9
$CHAMFERD
 40
0.0
  9
$SKPOLY
 70
     0
  9
$TDCREATE
 40
2453033.732663484
  9
$TDUPDATE
 40
2458129.498870486
  9
$TDINDWG
 40
1.8935394097
  9
$TDUSRTIMER
 40
1.8935394097
  9
$USRTIMER
 70
     1
  9
$ANGBASE
 50
0.0
  9
$ANGDIR
 70
     0
  9
$PDMODE
 70
     0
  9
$PDSIZE
 40
0.0
  9
$PLINEWID
 40
0.0
  9
$COORDS
 70
     2
  9
$SPLFRAME
 70
     0
  9
$SPLINETYPE
 70
     6
  9
$SPLINESEGS
 70
     8
  9
$ATTDIA
 70
     0
  9
$ATTREQ
 70
     1
  9
$HANDLING
 70
     1
  9
$HANDSEED
  5
1D138
  9
$SURFTAB1
 70
     6
  9
$SURFTAB2
 70
     6
  9
$SURFTYPE
 70
     6
  9
$SURFU
 70
     6
  9
$SURFV
 70
     6
  9
$UCSNAME
  2

  9
$UCSORG
 10
0.0
 20
0.0
 30
0.0
  9
$UCSXDIR
 10
1.0
 20
0.0
 30
0.0
  9
$UCSYDIR
 10
0.0
 20
1.0
 30
0.0
  9
$PUCSNAME
  2

  9
$PUCSORG
 10
0.0
 20
0.0
 30
0.0
  9
$PUCSXDIR
 10
1.0
 20
0.0
 30
0.0
  9
$PUCSYDIR
 10
0.0
 20
1.0
 30
0.0
  9
$USERI1
 70
     0
  9
$USERI2
 70
     0
  9
$USERI3
 70
     0
  9
$USERI4
 70
     0
  9
$USERI5
 70
     0
  9
$USERR1
 40
0.0
  9
$USERR2
 40
0.0
  9
$USERR3
 40
0.0
  9
$USERR4
 40
0.0
  9
$USERR5
 40
0.0
  9
$WORLDVIEW
 70
     1
  9
$SHADEDGE
 70
     3
  9
$SHADEDIF
 70
    70
  9
$TILEMODE
 70
     1
  9
$MAXACTVP
 70
    48
  9
$PINSBASE
 10
0.0
 20
0.0
 30
0.0
  9
$PLIMCHECK
 70
     0
  9
$PEXTMIN
 10
1.000000000000000E+20
 20
1.000000000000000E+20
 30
1.000000000000000E+20
  9
$PEXTMAX
 10
-1.000000000000000E+20
 20
-1.000000000000000E+20
 30
-1.000000000000000E+20
  9
$PLIMMIN
 10
0.0
 20
0.0
  9
$PLIMMAX
 10
420.0
 20
297.0
  9
$UNITMODE
 70
     0
  9
$VISRETAIN
 70
     1
  9
$PLINEGEN
 70
     0
  9
$PSLTSCALE
 70
     1
  9
$TREEDEPTH
 70
  3020
  9
$PICKSTYLE
 70
     0
  9
$CMLSTYLE
  2
STANDARD
  9
$CMLJUST
 70
     0
  9
$CMLSCALE
 40
20.0
  9
$SAVEIMAGES
 70
     1
  0
ENDSEC
  0
SECTION
  2
CLASSES
  0
CLASS
  1
DICTIONARYVAR
  2
AcDbDictionaryVar
  3
ObjectDBX Classes
 90
        0
280
     0
281
     0
  0
CLASS
  1
IDBUFFER
  2
AcDbIdBuffer
  3
ObjectDBX Classes
 90
    32768
280
     0
281
     0
  0
CLASS
  1
LWPOLYLINE
  2
AcDbPolyline
  3
ObjectDBX Classes
 90
    32768
280
     0
281
     1
  0
CLASS
  1
ACDBDICTIONARYWDFLT
  2
AcDbDictionaryWithDefault
  3
ObjectDBX Classes
 90
    32768
280
     0
281
     0
  0
CLASS
  1
ACDBPLACEHOLDER
  2
AcDbPlaceHolder
  3
ObjectDBX Classes
 90
        0
280
     0
281
     0
  0
CLASS
  1
LAYOUT
  2
AcDbLayout
  3
ObjectDBX Classes
 90
        0
280
     0
281
     0
  0
CLASS
  1
TABLESTYLE
  2
AcDbTableStyle
  3
ObjectDBX Classes
 90
     4095
280
     0
281
     0
  0
CLASS
  1
SORTENTSTABLE
  2
AcDbSortentsTable
  3
ObjectDBX Classes
 90
    32768
280
     0
281
     0
  0
CLASS
  1
DIMASSOC
  2
AcDbDimAssoc
  3
"AcDbDimAssoc|Product Desc:     AcDim ARX App For Dimension|Company:          Autodesk, Inc.|WEB Address:      www.autodesk.com"
 90
        0
280
     0
281
     0
  0
CLASS
  1
MATERIAL
  2
AcDbMaterial
  3
ObjectDBX Classes
 90
     1153
280
     0
281
     0
  0
CLASS
  1
VISUALSTYLE
  2
AcDbVisualStyle
  3
ObjectDBX Classes
 90
     4095
280
     0
281
     0
  0
CLASS
  1
SCALE
  2
AcDbScale
  3
ObjectDBX Classes
 90
     1153
280
     0
281
     0
  0
CLASS
  1
MLEADERSTYLE
  2
AcDbMLeaderStyle
  3
ACDB_MLEADERSTYLE_CLASS
 90
     4095
280
     0
281
     0
  0
CLASS
  1
CELLSTYLEMAP
  2
AcDbCellStyleMap
  3
ObjectDBX Classes
 90
     1152
280
     0
281
     0
  0
CLASS
  1
EXACXREFPANELOBJECT
  2
ExAcXREFPanelObject
  3
EXAC_ESW
 90
     1025
280
     1
281
     0
  0
CLASS
  1
NPOCOLLECTION
  2
AcDbImpNonPersistentObjectsCollection
  3
ObjectDBX Classes
 90
     1153
280
     1
281
     0
  0
CLASS
  1
SUN
  2
AcDbSun
  3
SCENEOE
 90
     1153
280
     0
281
     0
  0
CLASS
  1
XRECORD
  2
AcDbXrecord
  3
ObjectDBX Classes
 90
    32768
280
     0
281
     0
  0
CLASS
  1
HATCH
  2
AcDbHatch
  3
ObjectDBX Classes
 90
    32768
280
     0
281
     1
  0
ENDSEC
  0
SECTION
  2
TABLES
  0
TABLE
  2
VPORT
  5
8
330
0
100
AcDbSymbolTable
 70
     1
  0
VPORT
  5
19DC2
330
8
100
AcDbSymbolTableRecord
100
AcDbViewportTableRecord
  2
*ACTIVE
 70
     0
 10
0.0
 20
0.0
 11
1.0
 21
1.0
 12
787.6126013709443
 22
-1036.527624749233
 13
0.0
 23
0.0
 14
10.0
 24
10.0
 15
10.0
 25
10.0
 16
0.0
 26
0.0
 36
1.0
 17
0.0
 27
0.0
 37
0.0
 40
175.1039066575555
 41
2.233782129742962
 42
50.0
 43
0.0
 44
0.0
 50
0.0
 51
0.0
 71
    16
 72
   100
 73
     1
 74
     1
 75
     0
 76
     0
 77
     0
 78
     0
1001
ACAD_NAV_VCDISPLAY
1070
     3
  0
ENDTAB
  0
TABLE
  2
LTYPE
  5
5
330
0
100
AcDbSymbolTable
 70
     3
  0
LTYPE
  5
12
330
5
100
AcDbSymbolTableRecord
100
AcDbLinetypeTableRecord
  2
BYBLOCK
 70
     0
  3

 72
    65
 73
     0
 40
0.0
  0
LTYPE
  5
13
330
5
100
AcDbSymbolTableRecord
100
AcDbLinetypeTableRecord
  2
BYLAYER
 70
     0
  3

 72
    65
 73
     0
 40
0.0
  0
LTYPE
  5
14
330
5
100
AcDbSymbolTableRecord
100
AcDbLinetypeTableRecord
  2
CONTINUOUS
 70
     0
  3
Solid line
 72
    65
 73
     0
 40
0.0
  0
LTYPE
  5
26
330
5
100
AcDbSymbolTableRecord
100
AcDbLinetypeTableRecord
  2
CENTER2
 70
     0
  3
Center (.5x) ___ _ ___ _ ___ _ ___ _ ___ _ ___
 72
    65
 73
     4
 40
28.575
 49
19.05
 74
     0
 49
-3.175
 74
     0
 49
3.175
 74
     0
 49
-3.175
 74
     0
  0
LTYPE
  5
100
330
5
100
AcDbSymbolTableRecord
100
AcDbLinetypeTableRecord
  2
PHANTOM2
 70
     0
  3
Phantom (0.5x) ___ _ _ ___ _ _ ___ _ _ ___ _ _
 72
    65
 73
     6
 40
31.75
 49
15.875
 74
     0
 49
-3.175
 74
     0
 49
3.175
 74
     0
 49
-3.175
 74
     0
 49
3.175
 74
     0
 49
-3.175
 74
     0
  0
ENDTAB
  0
TABLE
  2
LAYER
  5
2
102
{ACAD_XDICTIONARY
360
18FE8
102
}
330
0
100
AcDbSymbolTable
 70
     7
  0
LAYER
  5
E
102
{ACAD_XDICTIONARY
360
1A20A
102
}
330
2
100
AcDbSymbolTableRecord
100
AcDbLayerTableRecord
  2
0
 70
     0
 62
     7
  6
CONTINUOUS
  0
LAYER
  5
29
102
{ACAD_XDICTIONARY
360
1A20C
102
}
330
2
100
AcDbSymbolTableRecord
100
AcDbLayerTableRecord
  2
1CENTER
 70
     0
 62
     7
  6
CENTER2
  0
LAYER
  5
31
102
{ACAD_XDICTIONARY
360
1A20E
102
}
330
2
100
AcDbSymbolTableRecord
100
AcDbLayerTableRecord
  2
1TEXT
 70
     0
 62
     7
  6
CONTINUOUS
  0
LAYER
  5
101
102
{ACAD_XDICTIONARY
360
1A218
102
}
330
2
100
AcDbSymbolTableRecord
100
AcDbLayerTableRecord
  2
1DIM
 70
     0
 62
     7
  6
CONTINUOUS
  0
LAYER
  5
103
102
{ACAD_XDICTIONARY
360
1A21C
102
}
330
2
100
AcDbSymbolTableRecord
100
AcDbLayerTableRecord
  2
1PHANTOM
 70
     0
 62
     7
  6
PHANTOM2
  0
LAYER
  5
25F
102
{ACAD_XDICTIONARY
360
1A220
102
}
330
2
100
AcDbSymbolTableRecord
100
AcDbLayerTableRecord
  2
01
 70
     0
 62
     1
  6
CONTINUOUS
  0
LAYER
  5
26D
102
{ACAD_XDICTIONARY
360
1A23C
102
}
330
2
100
AcDbSymbolTableRecord
100
AcDbLayerTableRecord
  2
1HATCH
 70
     0
 62
     7
  6
CONTINUOUS
  0
ENDTAB
  0
TABLE
  2
STYLE
  5
3
330
0
100
AcDbSymbolTable
 70
     1
  0
STYLE
  5
F
330
3
100
AcDbSymbolTableRecord
100
AcDbTextStyleTableRecord
  2
STANDARD
 70
     0
 40
0.0
 41
1.0
 50
0.0
 71
     0
 42
4.0
  3
txt.shx
  4
extfont.shx
  0
ENDTAB
  0
TABLE
  2
VIEW
  5
6
330
0
100
AcDbSymbolTable
 70
     0
  0
ENDTAB
  0
TABLE
  2
UCS
  5
7
330
0
100
AcDbSymbolTable
 70
     0
  0
ENDTAB
  0
TABLE
  2
APPID
  5
9
330
0
100
AcDbSymbolTable
 70
    17
  0
APPID
  5
10
330
9
100
AcDbSymbolTableRecord
100
AcDbRegAppTableRecord
  2
ACAD
 70
     0
  0
APPID
  5
21
330
9
100
AcDbSymbolTableRecord
100
AcDbRegAppTableRecord
  2
DRAWINGVARIABLESXDATA
 70
     0
  0
APPID
  5
64
330
9
100
AcDbSymbolTableRecord
100
AcDbRegAppTableRecord
  2
CONTENTTABDATA
 70
     0
  0
APPID
  5
65
330
9
100
AcDbSymbolTableRecord
100
AcDbRegAppTableRecord
  2
CONTENTCURRENTTAB
 70
     0
  0
APPID
  5
66
330
9
100
AcDbSymbolTableRecord
100
AcDbRegAppTableRecord
  2
CONTENTBLOCKDESCRIPTION
 70
     0
  0
APPID
  5
67
330
9
100
AcDbSymbolTableRecord
100
AcDbRegAppTableRecord
  2
CONTENTBLOCKICON
 70
     0
  0
APPID
  5
68
330
9
100
AcDbSymbolTableRecord
100
AcDbRegAppTableRecord
  2
CONTENTLONGBLOCKNAME
 70
     0
  0
APPID
  5
5A9
330
9
100
AcDbSymbolTableRecord
100
AcDbRegAppTableRecord
  2
ACAD_PSEXT
 70
     0
  0
APPID
  5
18AC
330
9
100
AcDbSymbolTableRecord
100
AcDbRegAppTableRecord
  2
ACAD_DSTYLE_DIMTEXT_FILL
 70
     0
  0
APPID
  5
19E1A
330
9
100
AcDbSymbolTableRecord
100
AcDbRegAppTableRecord
  2
ACAD_MLEADERVER
 70
     0
  0
APPID
  5
1A635
330
9
100
AcDbSymbolTableRecord
100
AcDbRegAppTableRecord
  2
ACAD_DSTYLE_DIMRADIAL_EXTE
 70
     0
  0
APPID
  5
1BEE1
330
9
100
AcDbSymbolTableRecord
100
AcDbRegAppTableRecord
  2
ACADANNOTATIVE
 70
     0
  0
APPID
  5
1C36D
330
9
100
AcDbSymbolTableRecord
100
AcDbRegAppTableRecord
  2
ACAD_NAV_VCDISPLAY
 70
     0
  0
APPID
  5
1C3DD
330
9
100
AcDbSymbolTableRecord
100
AcDbRegAppTableRecord
  2
ACAD_EXEMPT_FROM_CAD_STAND
 70
     0
  0
APPID
  5
1CBD4
330
9
100
AcDbSymbolTableRecord
100
AcDbRegAppTableRecord
  2
ACDBBLOCKREPETAG
 70
     0
  0
APPID
  5
1CBD5
330
9
100
AcDbSymbolTableRecord
100
AcDbRegAppTableRecord
  2
ACAD_DSTYLE_DIMJAG
 70
     0
  0
APPID
  5
1CBD6
330
9
100
AcDbSymbolTableRecord
100
AcDbRegAppTableRecord
  2
ACAD_DSTYLE_DIMTALN
 70
     0
  0
ENDTAB
  0
TABLE
  2
DIMSTYLE
  5
A
330
0
100
AcDbSymbolTable
 70
     1
  0
DIMSTYLE
105
48
330
A
100
AcDbSymbolTableRecord
100
AcDbDimStyleTableRecord
  2
NEWX10
 70
     0
  3
 
  4

  5

  6
OPEN30
  7
OPEN30
 40
1.0
 41
2.0
 42
0.0
 43
7.0
 44
1.0
 45
0.0
 46
0.0
 47
0.0
 48
0.0
140
3.5
141
0.0
142
0.0
143
25.4
144
1.0
145
0.0
146
0.7
147
0.7
 71
     0
 72
     0
 73
     0
 74
     0
 75
     0
 76
     0
 77
     1
 78
     8
170
     0
171
     2
172
     1
173
     1
174
     0
175
     0
176
   256
177
   256
178
   201
179
     2
270
     2
271
     2
272
     4
273
     2
274
     2
340
F
275
     0
280
     0
281
     0
282
     0
283
     1
284
     8
285
     0
286
     0
287
     2
288
     0
  0
ENDTAB
  0
TABLE
  2
BLOCK_RECORD
  5
1
330
0
100
AcDbSymbolTable
 70
     8
  0
BLOCK_RECORD
  5
18
102
{ACAD_XDICTIONARY
360
6E9
102
}
330
1
100
AcDbSymbolTableRecord
100
AcDbBlockTableRecord
  2
*MODEL_SPACE
  0
BLOCK_RECORD
  5
15
102
{ACAD_XDICTIONARY
360
59B
102
}
330
1
100
AcDbSymbolTableRecord
100
AcDbBlockTableRecord
  2
*PAPER_SPACE
  0
BLOCK_RECORD
  5
42
330
1
100
AcDbSymbolTableRecord
100
AcDbBlockTableRecord
  2
_OPEN30
  0
BLOCK_RECORD
  5
1C782
330
1
100
AcDbSymbolTableRecord
100
AcDbBlockTableRecord
  2
A3WAKUKAWAJUN2017_HYOUDAI_
  0
BLOCK_RECORD
  5
1CF98
330
1
100
AcDbSymbolTableRecord
100
AcDbBlockTableRecord
  2
*X36
  0
BLOCK_RECORD
  5
1CFE6
330
1
100
AcDbSymbolTableRecord
100
AcDbBlockTableRecord
  2
*X37
  0
BLOCK_RECORD
  5
1D038
330
1
100
AcDbSymbolTableRecord
100
AcDbBlockTableRecord
  2
*X38
  0
BLOCK_RECORD
  5
1D089
330
1
100
AcDbSymbolTableRecord
100
AcDbBlockTableRecord
  2
*X39
  0
BLOCK_RECORD
  5
1D0C6
330
1
100
AcDbSymbolTableRecord
100
AcDbBlockTableRecord
  2
*X40
  0
BLOCK_RECORD
  5
1D106
330
1
100
AcDbSymbolTableRecord
100
AcDbBlockTableRecord
  2
*X41
  0
ENDTAB
  0
ENDSEC
  0
SECTION
  2
BLOCKS
  0
BLOCK
  5
19
330
18
100
AcDbEntity
  8
0
100
AcDbBlockBegin
  2
*MODEL_SPACE
 70
     0
 10
0.0
 20
0.0
 30
0.0
  3
*MODEL_SPACE
  1

  0
ENDBLK
  5
1A
330
18
100
AcDbEntity
  8
0
100
AcDbBlockEnd
  0
BLOCK
  5
16
330
15
100
AcDbEntity
 67
     1
  8
0
100
AcDbBlockBegin
  2
*PAPER_SPACE
 70
     0
 10
0.0
 20
0.0
 30
0.0
  3
*PAPER_SPACE
  1

  0
ENDBLK
  5
17
330
15
100
AcDbEntity
 67
     1
  8
0
100
AcDbBlockEnd
  0
BLOCK
  5
43
330
42
100
AcDbEntity
  8
0
100
AcDbBlockBegin
  2
_OPEN30
 70
     0
 10
0.0
 20
0.0
 30
0.0
  3
_OPEN30
  1

  0
LINE
  5
44
330
42
100
AcDbEntity
  8
0
  6
BYBLOCK
 62
     0
100
AcDbLine
 10
-1.0
 20
0.26794919
 30
0.0
 11
0.0
 21
0.0
 31
0.0
  0
LINE
  5
45
330
42
100
AcDbEntity
  8
0
  6
BYBLOCK
 62
     0
100
AcDbLine
 10
0.0
 20
0.0
 30
0.0
 11
-1.0
 21
-0.26794919
 31
0.0
  0
LINE
  5
46
330
42
100
AcDbEntity
  8
0
  6
BYBLOCK
 62
     0
100
AcDbLine
 10
0.0
 20
0.0
 30
0.0
 11
-1.0
 21
0.0
 31
0.0
  0
ENDBLK
  5
47
330
42
100
AcDbEntity
  8
0
100
AcDbBlockEnd
  0
BLOCK
  5
1C783
330
1C782
100
AcDbEntity
  8
0
100
AcDbBlockBegin
  2
A3WAKUKAWAJUN2017_HYOUDAI_
 70
     0
 10
0.0
 20
0.0
 30
0.0
  3
A3WAKUKAWAJUN2017_HYOUDAI_
  1

  0
LINE
  5
1C784
330
1C782
100
AcDbEntity
  8
0
100
AcDbLine
 10
13.26299999998673
 20
-0.0001000000000317
 30
0.0
 11
9.236999999990758
 21
8.999899999990987
 31
0.0
1001
ACAD
1000
ASC_BOUNDS
1002
{
1070
    19
1005
1C7C5
1002
}
  0
LINE
  5
1C785
330
1C782
100
AcDbEntity
  8
0
100
AcDbLine
 10
5.657999999994331
 20
0.9999999999989768
 30
0.0
 11
9.236999999990758
 21
8.999999999991019
 31
0.0
1001
ACAD
1000
ASC_BOUNDS
1002
{
1070
    19
1005
1C7C5
1002
}
  0
LINE
  5
1C786
330
1C782
100
AcDbEntity
  8
0
100
AcDbLine
 10
18.59199999998134
 20
-0.2368999999997641
 30
0.0
 11
16.46099999998353
 21
5.432899999994561
 31
0.0
1001
ACAD
1000
ASC_BOUNDS
1002
{
1070
    19
1005
1C7C6
1002
}
  0
LINE
  5
1C787
330
1C782
100
AcDbEntity
  8
0
100
AcDbLine
 10
18.59199999998134
 20
-0.2368999999997641
 30
0.0
 11
22.38199999997767
 21
8.763099999991255
 31
0.0
1001
ACAD
1000
ASC_BOUNDS
1002
{
1070
    19
1005
1C7C6
1002
}
  0
LINE
  5
1C788
330
1C782
100
AcDbEntity
  8
0
100
AcDbLine
 10
14.32899999998563
 20
-0.2368999999997641
 30
0.0
 11
16.46099999998353
 21
5.432899999994561
 31
0.0
1001
ACAD
1000
ASC_BOUNDS
1002
{
1070
    19
1005
1C7C6
1002
}
  0
LINE
  5
1C789
330
1C782
100
AcDbEntity
  8
0
100
AcDbLine
 10
14.32899999998563
 20
-0.2368999999997641
 30
0.0
 11
10.53899999998941
 21
8.763099999991255
 31
0.0
1001
ACAD
1000
ASC_BOUNDS
1002
{
1070
    19
1005
1C7C6
1002
}
  0
LINE
  5
1C78A
330
1C782
100
AcDbEntity
  8
0
100
AcDbLine
 10
19.53899999998043
 20
-0.0001000000000317
 30
0.0
 11
23.56599999997638
 21
8.999899999990987
 31
0.0
1001
ACAD
1000
ASC_BOUNDS
1002
{
1070
    19
1005
1C7C7
1002
}
  0
LINE
  5
1C78B
330
1C782
100
AcDbEntity
  8
0
100
AcDbLine
 10
26.97358892824991
 20
1.383099999991202
 30
0.0
 11
23.56599999997638
 21
8.999899999990987
 31
0.0
1001
ACAD
1000
ASC_BOUNDS
1002
{
1070
    19
1005
1C7C7
1002
}
  0
LINE
  5
1C78C
330
1C782
100
AcDbEntity
  8
0
100
AcDbLine
 10
5.657999999994331
 20
0.9999999999989768
 30
0.0
 11
3.181999999996833
 21
4.668599999995308
 31
0.0
1001
ACAD
1000
ASC_BOUNDS
1002
{
1070
    19
1005
1C7C5
1002
}
  0
LINE
  5
1C78D
330
1C782
100
AcDbEntity
  8
0
100
AcDbLine
 10
4.617999999995391
 20
-0.0001000000000317
 30
0.0
 11
1.420999999998571
 21
4.736799999995242
 31
0.0
1001
ACAD
1000
ASC_BOUNDS
1002
{
1070
    19
1005
1C7C5
1002
}
  0
LINE
  5
1C78E
330
1C782
100
AcDbEntity
  8
0
100
AcDbLine
 10
1.420999999998571
 20
8.763099999991255
 30
0.0
 11
1.420999999998571
 21
0.0
 31
0.0
1001
ACAD
1000
ASC_BOUNDS
1002
{
1070
    19
1005
1C7CA
1002
}
  0
LINE
  5
1C78F
330
1C782
100
AcDbEntity
  8
0
100
AcDbLine
 10
0.0
 20
8.763099999991255
 30
0.0
 11
0.0
 21
0.0
 31
0.0
1001
ACAD
1000
ASC_BOUNDS
1002
{
1070
    19
1005
1C7CA
1002
}
  0
LINE
  5
1C790
330
1C782
100
AcDbEntity
  8
0
100
AcDbLine
 10
6.766999999993232
 20
-0.0001000000000317
 30
0.0
 11
7.826999999992154
 21
2.368399999997621
 31
0.0
1001
ACAD
1000
ASC_BOUNDS
1002
{
1070
    19
1005
1C7C5
1002
}
  0
LINE
  5
1C791
330
1C782
100
AcDbEntity
  8
0
100
AcDbLine
 10
0.0
 20
0.0
 30
0.0
 11
1.420999999998571
 21
0.0
 31
0.0
1001
ACAD
1000
ASC_BOUNDS
1002
{
1070
    19
1005
1C7CA
1002
}
  0
LINE
  5
1C792
330
1C782
100
AcDbEntity
  8
0
100
AcDbLine
 10
4.617999999995391
 20
0.0
 30
0.0
 11
6.766999999993232
 21
0.0
 31
0.0
1001
ACAD
1000
ASC_BOUNDS
1002
{
1070
    19
1005
1C7C5
1002
}
  0
LINE
  5
1C793
330
1C782
100
AcDbEntity
  8
0
100
AcDbLine
 10
11.70599999998831
 20
-0.0001000000000317
 30
0.0
 11
10.64699999998936
 21
2.368399999997621
 31
0.0
1001
ACAD
1000
ASC_BOUNDS
1002
{
1070
    19
1005
1C7C5
1002
}
  0
LINE
  5
1C794
330
1C782
100
AcDbEntity
  8
0
100
AcDbLine
 10
7.826999999992154
 20
2.368399999997621
 30
0.0
 11
10.64699999998936
 21
2.368399999997621
 31
0.0
1001
ACAD
1000
ASC_BOUNDS
1002
{
1070
    19
1005
1C7C5
1002
}
  0
LINE
  5
1C795
330
1C782
100
AcDbEntity
  8
0
100
AcDbLine
 10
11.70599999998831
 20
0.0
 30
0.0
 11
13.26299999998673
 21
0.0
 31
0.0
1001
ACAD
1000
ASC_BOUNDS
1002
{
1070
    19
1005
1C7C5
1002
}
  0
LINE
  5
1C796
330
1C782
100
AcDbEntity
  8
0
100
AcDbLine
 10
22.15599999997789
 20
2.368399999997621
 30
0.0
 11
24.97599999997499
 21
2.368399999997621
 31
0.0
1001
ACAD
1000
ASC_BOUNDS
1002
{
1070
    19
1005
1C7C7
1002
}
  0
LINE
  5
1C797
330
1C782
100
AcDbEntity
  8
0
100
AcDbLine
 10
19.53899999998043
 20
0.0
 30
0.0
 11
21.09599999997886
 21
0.0
 31
0.0
1001
ACAD
1000
ASC_BOUNDS
1002
{
1070
    19
1005
1C7C7
1002
}
  0
LINE
  5
1C798
330
1C782
100
AcDbEntity
  8
0
100
AcDbLine
 10
21.09599999997886
 20
-0.0001000000000317
 30
0.0
 11
22.15599999997789
 21
2.368399999997621
 31
0.0
1001
ACAD
1000
ASC_BOUNDS
1002
{
1070
    19
1005
1C7C7
1002
}
  0
LINE
  5
1C799
330
1C782
100
AcDbEntity
  8
0
100
AcDbLine
 10
26.02015566812236
 20
0.0330999999912365
 30
0.0
 11
24.97599999997499
 21
2.368399999997621
 31
0.0
1001
ACAD
1000
ASC_BOUNDS
1002
{
1070
    19
1005
1C7C7
1002
}
  0
LINE
  5
1C79A
330
1C782
100
AcDbEntity
  8
0
100
AcDbLine
 10
14.32399999998563
 20
3.315799999996671
 30
0.0
 11
16.46099999998353
 21
8.999899999990987
 31
0.0
1001
ACAD
1000
ASC_BOUNDS
1002
{
1070
    19
1005
1C7C6
1002
}
  0
LINE
  5
1C79B
330
1C782
100
AcDbEntity
  8
0
100
AcDbLine
 10
6.432999999993513
 20
8.763099999991255
 30
0.0
 11
3.181999999996833
 21
4.668599999995308
 31
0.0
1001
ACAD
1000
ASC_BOUNDS
1002
{
1070
    19
1005
1C7C5
1002
}
  0
LINE
  5
1C79C
330
1C782
100
AcDbEntity
  8
0
100
AcDbLine
 10
4.617999999995391
 20
8.763099999991255
 30
0.0
 11
1.420999999998571
 21
4.736799999995242
 31
0.0
1001
ACAD
1000
ASC_BOUNDS
1002
{
1070
    19
1005
1C7C5
1002
}
  0
LINE
  5
1C79D
330
1C782
100
AcDbEntity
  8
0
100
AcDbLine
 10
0.0
 20
8.763099999991255
 30
0.0
 11
1.420999999998571
 21
8.763099999991255
 31
0.0
1001
ACAD
1000
ASC_BOUNDS
1002
{
1070
    19
1005
1C7CA
1002
}
  0
LINE
  5
1C79E
330
1C782
100
AcDbEntity
  8
0
100
AcDbLine
 10
4.617999999995391
 20
8.763099999991255
 30
0.0
 11
6.432999999993513
 21
8.763099999991255
 31
0.0
1001
ACAD
1000
ASC_BOUNDS
1002
{
1070
    19
1005
1C7C5
1002
}
  0
LINE
  5
1C79F
330
1C782
100
AcDbEntity
  8
0
100
AcDbLine
 10
14.32399999998563
 20
3.315799999996671
 30
0.0
 11
12.02999999998792
 21
8.763099999991255
 31
0.0
1001
ACAD
1000
ASC_BOUNDS
1002
{
1070
    19
1005
1C7C6
1002
}
  0
LINE
  5
1C7A0
330
1C782
100
AcDbEntity
  8
0
100
AcDbLine
 10
10.06399999998996
 20
3.670999999996297
 30
0.0
 11
9.236999999990758
 21
5.5200999999945
 31
0.0
1001
ACAD
1000
ASC_BOUNDS
1002
{
1070
    19
1005
1C7C5
1002
}
  0
LINE
  5
1C7A1
330
1C782
100
AcDbEntity
  8
0
100
AcDbLine
 10
8.409999999991555
 20
3.670999999996297
 30
0.0
 11
9.236999999990758
 21
5.5200999999945
 31
0.0
1001
ACAD
1000
ASC_BOUNDS
1002
{
1070
    19
1005
1C7C5
1002
}
  0
LINE
  5
1C7A2
330
1C782
100
AcDbEntity
  8
0
100
AcDbLine
 10
8.409999999991555
 20
3.670999999996297
 30
0.0
 11
10.06399999998996
 21
3.670999999996297
 31
0.0
1001
ACAD
1000
ASC_BOUNDS
1002
{
1070
    19
1005
1C7C5
1002
}
  0
LINE
  5
1C7A3
330
1C782
100
AcDbEntity
  8
0
100
AcDbLine
 10
10.53899999998941
 20
8.763099999991255
 30
0.0
 11
12.02999999998792
 21
8.763099999991255
 31
0.0
1001
ACAD
1000
ASC_BOUNDS
1002
{
1070
    19
1005
1C7C6
1002
}
  0
LINE
  5
1C7A4
330
1C782
100
AcDbEntity
  8
0
100
AcDbLine
 10
22.7389999999773
 20
3.670999999996297
 30
0.0
 11
23.56599999997638
 21
5.5200999999945
 31
0.0
1001
ACAD
1000
ASC_BOUNDS
1002
{
1070
    19
1005
1C7C7
1002
}
  0
LINE
  5
1C7A5
330
1C782
100
AcDbEntity
  8
0
100
AcDbLine
 10
22.7389999999773
 20
3.670999999996297
 30
0.0
 11
24.39299999997559
 21
3.670999999996297
 31
0.0
1001
ACAD
1000
ASC_BOUNDS
1002
{
1070
    19
1005
1C7C7
1002
}
  0
LINE
  5
1C7A6
330
1C782
100
AcDbEntity
  8
0
100
AcDbLine
 10
18.59799999998143
 20
3.315799999996671
 30
0.0
 11
20.89099999997916
 21
8.763099999991255
 31
0.0
1001
ACAD
1000
ASC_BOUNDS
1002
{
1070
    19
1005
1C7C6
1002
}
  0
LINE
  5
1C7A7
330
1C782
100
AcDbEntity
  8
0
100
AcDbLine
 10
18.59799999998143
 20
3.315799999996671
 30
0.0
 11
16.46099999998353
 21
8.999899999990987
 31
0.0
1001
ACAD
1000
ASC_BOUNDS
1002
{
1070
    19
1005
1C7C6
1002
}
  0
LINE
  5
1C7A8
330
1C782
100
AcDbEntity
  8
0
100
AcDbLine
 10
20.89099999997916
 20
8.763099999991255
 30
0.0
 11
22.38199999997767
 21
8.763099999991255
 31
0.0
1001
ACAD
1000
ASC_BOUNDS
1002
{
1070
    19
1005
1C7C6
1002
}
  0
LINE
  5
1C7A9
330
1C782
100
AcDbEntity
  8
0
100
AcDbLine
 10
24.39299999997559
 20
3.670999999996297
 30
0.0
 11
23.56599999997638
 21
5.5200999999945
 31
0.0
1001
ACAD
1000
ASC_BOUNDS
1002
{
1070
    19
1005
1C7C7
1002
}
  0
LINE
  5
1C7AA
330
1C782
100
AcDbEntity
  8
0
100
AcDbLine
 10
44.99999999995498
 20
-0.2368999999997641
 30
0.0
 11
40.02599999995994
 21
5.341799999994635
 31
0.0
1001
ACAD
1000
ASC_BOUNDS
1002
{
1070
    19
1005
1C7C9
1002
}
  0
LINE
  5
1C7AB
330
1C782
100
AcDbEntity
  8
0
100
AcDbLine
 10
40.02599999995994
 20
5.341799999994635
 30
0.0
 11
40.02599999995994
 21
0.0
 31
0.0
1001
ACAD
1000
ASC_BOUNDS
1002
{
1070
    19
1005
1C7C9
1002
}
  0
LINE
  5
1C7AC
330
1C782
100
AcDbEntity
  8
0
100
AcDbLine
 10
38.60499999996136
 20
8.999999999991019
 30
0.0
 11
38.60499999996136
 21
0.0
 31
0.0
1001
ACAD
1000
ASC_BOUNDS
1002
{
1070
    19
1005
1C7C9
1002
}
  0
LINE
  5
1C7AD
330
1C782
100
AcDbEntity
  8
0
100
AcDbLine
 10
44.99999999995498
 20
8.763099999991255
 30
0.0
 11
44.99999999995498
 21
-0.2368999999997641
 31
0.0
1001
ACAD
1000
ASC_BOUNDS
1002
{
1070
    19
1005
1C7C9
1002
}
  0
LINE
  5
1C7AE
330
1C782
100
AcDbEntity
  8
0
100
AcDbLine
 10
38.60499999996136
 20
0.0
 30
0.0
 11
40.02599999995994
 21
0.0
 31
0.0
1001
ACAD
1000
ASC_BOUNDS
1002
{
1070
    19
1005
1C7C9
1002
}
  0
LINE
  5
1C7AF
330
1C782
100
AcDbEntity
  8
0
100
AcDbLine
 10
43.57899999995641
 20
3.421199999996588
 30
0.0
 11
38.60499999996136
 21
8.999899999990987
 31
0.0
1001
ACAD
1000
ASC_BOUNDS
1002
{
1070
    19
1005
1C7C9
1002
}
  0
LINE
  5
1C7B0
330
1C782
100
AcDbEntity
  8
0
100
AcDbLine
 10
43.57899999995641
 20
8.763099999991255
 30
0.0
 11
43.57899999995641
 21
3.421199999996588
 31
0.0
1001
ACAD
1000
ASC_BOUNDS
1002
{
1070
    19
1005
1C7C9
1002
}
  0
LINE
  5
1C7B1
330
1C782
100
AcDbEntity
  8
0
100
AcDbLine
 10
43.57899999995641
 20
8.763099999991255
 30
0.0
 11
44.99999999995498
 21
8.763099999991255
 31
0.0
1001
ACAD
1000
ASC_BOUNDS
1002
{
1070
    19
1005
1C7C9
1002
}
  0
LINE
  5
1C7B2
330
1C782
100
AcDbEntity
  8
0
100
AcDbLine
 10
37.67199999996831
 20
8.763099999991255
 30
0.0
 11
36.23199999996837
 21
8.763099999991255
 31
0.0
  0
LINE
  5
1C7B3
330
1C782
100
AcDbEntity
  8
0
100
AcDbLine
 10
31.64199999996833
 20
8.763099999991255
 30
0.0
 11
31.64199999996833
 21
2.481619422925121
 31
0.0
  0
LINE
  5
1C7B4
330
1C782
100
AcDbEntity
  8
0
100
AcDbLine
 10
37.67199999996831
 20
8.763099999991255
 30
0.0
 11
37.67199999996831
 21
2.481619422925121
 31
0.0
  0
LINE
  5
1C7B5
330
1C782
100
AcDbEntity
  8
0
100
AcDbLine
 10
36.23199999996837
 20
8.763099999991255
 30
0.0
 11
36.23199999996837
 21
2.481619422925064
 31
0.0
  0
LINE
  5
1C7B6
330
1C782
100
AcDbEntity
  8
0
100
AcDbLine
 10
33.08199999996839
 20
8.763099999991255
 30
0.0
 11
33.08199999996839
 21
2.481619422925121
 31
0.0
  0
ARC
  5
1C7B7
330
1C782
100
AcDbEntity
  8
0
100
AcDbCircle
 10
34.65699999996832
 20
3.183099999991214
 30
0.0
 40
3.420000000000007
100
AcDbArc
 50
240.0000000000255
 51
299.9999999999766
  0
ARC
  5
1C7B8
330
1C782
100
AcDbEntity
  8
0
100
AcDbCircle
 10
34.65699999996832
 20
3.183099999991214
 30
0.0
 40
1.97999999999999
100
AcDbArc
 50
240.000000000026
 51
299.9999999999703
  0
LINE
  5
1C7B9
330
1C782
100
AcDbEntity
  8
0
100
AcDbLine
 10
33.08199999996828
 20
8.763099999991255
 30
0.0
 11
31.64199999996833
 21
8.763099999991255
 31
0.0
  0
ARC
  5
1C7BA
330
1C782
100
AcDbEntity
  8
0
100
AcDbCircle
 10
35.06199999996829
 20
2.481619422925064
 30
0.0
 40
1.17
100
AcDbArc
 50
299.9999999999699
 51
0.0
  0
ARC
  5
1C7BB
330
1C782
100
AcDbEntity
  8
0
100
AcDbCircle
 10
34.25199999996835
 20
2.481619422925121
 30
0.0
 40
1.17
100
AcDbArc
 50
180.0
 51
240.0000000000238
  0
ARC
  5
1C7BC
330
1C782
100
AcDbEntity
  8
0
100
AcDbCircle
 10
35.06199999996841
 20
2.481619422925121
 30
0.0
 40
2.61
100
AcDbArc
 50
299.9999999999756
 51
0.0
  0
ARC
  5
1C7BD
330
1C782
100
AcDbEntity
  8
0
100
AcDbCircle
 10
34.25199999996835
 20
2.481619422925121
 30
0.0
 40
2.61
100
AcDbArc
 50
180.0
 51
240.0000000000244
  0
LINE
  5
1C7BE
330
1C782
100
AcDbEntity
  8
0
100
AcDbLine
 10
29.30199999996933
 20
8.763099999991255
 30
0.0
 11
30.74199999996927
 21
8.763099999991255
 31
0.0
1001
ACAD
1000
ASC_BOUNDS
1002
{
1070
    19
1005
1C7C7
1002
}
  0
LINE
  5
1C7BF
330
1C782
100
AcDbEntity
  8
0
100
AcDbLine
 10
30.74199999996927
 20
8.763099999991255
 30
0.0
 11
30.74199999996927
 21
2.373099999991211
 31
0.0
1001
ACAD
1000
ASC_BOUNDS
1002
{
1070
    19
1005
1C7C7
1002
}
  0
LINE
  5
1C7C0
330
1C782
100
AcDbEntity
  8
0
100
AcDbLine
 10
26.02015566812236
 20
0.0330999999912365
 30
0.0
 11
28.40199999996923
 21
0.0330999999912365
 31
0.0
1001
ACAD
1000
ASC_BOUNDS
1002
{
1070
    19
1005
1C7C7
1002
}
  0
LINE
  5
1C7C1
330
1C782
100
AcDbEntity
  8
0
100
AcDbLine
 10
29.30199999996933
 20
8.763099999991255
 30
0.0
 11
29.30199999996933
 21
2.283099999991236
 31
0.0
1001
ACAD
1000
ASC_BOUNDS
1002
{
1070
    19
1005
1C7C7
1002
}
  0
LINE
  5
1C7C2
330
1C782
100
AcDbEntity
  8
0
100
AcDbLine
 10
26.97358892824991
 20
1.383099999991202
 30
0.0
 11
28.40199999996923
 21
1.383099999991202
 31
0.0
1001
ACAD
1000
ASC_BOUNDS
1002
{
1070
    19
1005
1C7C7
1002
}
  0
ARC
  5
1C7C3
330
1C782
100
AcDbEntity
  8
0
100
AcDbCircle
 10
28.40199999996923
 20
2.283099999991236
 30
0.0
 40
0.9
100
AcDbArc
 50
270.0
 51
0.0
1001
ACAD
1000
ASC_BOUNDS
1002
{
1070
    19
1005
1C7C7
1002
}
  0
ARC
  5
1C7C4
330
1C782
100
AcDbEntity
  8
0
100
AcDbCircle
 10
28.40199999996923
 20
2.373099999991211
 30
0.0
 40
2.34
100
AcDbArc
 50
270.0
 51
0.0
1001
ACAD
1000
ASC_BOUNDS
1002
{
1070
    19
1005
1C7C7
1002
}
  0
INSERT
  5
1C7C5
330
1C782
100
AcDbEntity
  8
0
100
AcDbBlockReference
  2
*X36
 10
0.0
 20
0.0
 30
0.0
1001
ACAD
1000
HATCH
1002
{
1070
    19
1000
ANSI37
1040
0.15
1040
0.0
1000
ASC_BOUNDS
1070
     2
1070
     2
1070
    12
1005
1C784
1005
1C785
1005
1C78C
1005
1C79B
1005
1C79E
1005
1C79C
1005
1C78D
1005
1C792
1005
1C790
1005
1C794
1005
1C793
1005
1C795
1070
     2
1070
     3
1005
1C7A0
1005
1C7A2
1005
1C7A1
1000
ASC_SEEDPOINT
1011
3.614004224891801
1021
2.996669441146025
1031
0.0
1000
R14_HATCH_DATA
1000
1C7C5
1011
1.0
1021
0.0
1031
0.0
1011
0.0
1021
1.0
1031
0.0
1011
0.0
1021
0.0
1031
1.0
1040
0.0
1010
0.0
1020
0.0
1030
1.0
1000
ANSI37
1070
     0
1070
     1
1071
        2
1071
        7
1070
     0
1070
     1
1071
       17
1040
13.26299999998673
1040
-0.0001000000000317
1040
9.236999999990758
1040
8.999899999990987
1040
9.236999999990758
1040
8.999999999991019
1040
5.657999999994331
1040
0.9999999999989768
1040
3.181999999996833
1040
4.668599999995308
1040
6.432999999993513
1040
8.763099999991255
1040
4.617999999995391
1040
8.763099999991255
1040
1.420999999998571
1040
4.736799999995242
1040
4.617999999995391
1040
-0.0001000000000317
1040
4.617999999995391
1040
0.0
1040
6.766999999993232
1040
0.0
1040
6.766999999993232
1040
-0.0001000000000317
1040
7.826999999992154
1040
2.368399999997621
1040
10.64699999998936
1040
2.368399999997621
1040
11.70599999998831
1040
-0.0001000000000317
1040
11.70599999998831
1040
0.0
1040
13.26299999998673
1040
0.0
1071
       12
1005
1C784
1005
1C785
1005
1C78C
1005
1C79B
1005
1C79E
1005
1C79C
1005
1C78D
1005
1C792
1005
1C790
1005
1C794
1005
1C793
1005
1C795
1071
       22
1070
     0
1070
     1
1071
        3
1040
9.236999999990758
1040
5.5200999999945
1040
10.06399999998996
1040
3.670999999996297
1040
8.409999999991555
1040
3.670999999996297
1071
        3
1005
1C7A0
1005
1C7A2
1005
1C7A1
1070
     0
1070
     1
1040
0.0
1040
0.15
1070
     0
1070
     2
1040
0.7853981633974483
1040
49.29960901727088
1040
-10.17736998311392
1040
-0.3367596045400932
1040
0.3367596045400932
1070
     0
1040
2.356194490192345
1040
49.29960901727088
1040
-10.17736998311392
1040
-0.3367596045400932
1040
-0.3367596045400932
1070
     0
1040
0.0110235143455945
1071
        2
1040
3.614004224891801
1040
2.996669441146025
1040
0.0
1040
3.614004224891801
1040
2.996669441146025
1040
0.0
1002
}
  0
INSERT
  5
1C7C6
330
1C782
100
AcDbEntity
  8
0
100
AcDbBlockReference
  2
*X37
 10
0.0
 20
0.0
 30
0.0
1001
ACAD
1000
HATCH
1002
{
1070
    19
1000
ANSI37
1040
0.15
1040
0.0
1000
ASC_BOUNDS
1070
     1
1070
     2
1070
    10
1005
1C786
1005
1C787
1005
1C7A8
1005
1C7A6
1005
1C7A7
1005
1C79A
1005
1C79F
1005
1C7A3
1005
1C789
1005
1C788
1000
ASC_SEEDPOINT
1011
14.73245321214324
1021
2.798246178283421
1031
0.0
1000
R14_HATCH_DATA
1000
1C7C6
1011
1.0
1021
0.0
1031
0.0
1011
0.0
1021
1.0
1031
0.0
1011
0.0
1021
0.0
1031
1.0
1040
0.0
1010
0.0
1020
0.0
1030
1.0
1000
ANSI37
1070
     0
1070
     1
1071
        1
1071
        7
1070
     0
1070
     1
1071
       10
1040
16.46099999998353
1040
5.432899999994561
1040
18.59199999998134
1040
-0.2368999999997641
1040
22.38199999997767
1040
8.763099999991255
1040
20.89099999997916
1040
8.763099999991255
1040
18.59799999998143
1040
3.315799999996671
1040
16.46099999998353
1040
8.999899999990987
1040
14.32399999998563
1040
3.315799999996671
1040
12.02999999998792
1040
8.763099999991255
1040
10.53899999998941
1040
8.763099999991255
1040
14.32899999998563
1040
-0.2368999999997641
1071
       10
1005
1C786
1005
1C787
1005
1C7A8
1005
1C7A6
1005
1C7A7
1005
1C79A
1005
1C79F
1005
1C7A3
1005
1C789
1005
1C788
1070
     0
1070
     1
1040
0.0
1040
0.15
1070
     0
1070
     2
1040
0.7853981633974483
1040
49.29960901727088
1040
-10.17736998311392
1040
-0.3367596045400932
1040
0.3367596045400932
1070
     0
1040
2.356194490192345
1040
49.29960901727088
1040
-10.17736998311392
1040
-0.3367596045400932
1040
-0.3367596045400932
1070
     0
1040
0.0110235143455945
1071
        1
1040
14.73245321214324
1040
2.798246178283421
1040
0.0
1002
}
  0
INSERT
  5
1C7C7
330
1C782
100
AcDbEntity
  8
0
100
AcDbBlockReference
  2
*X38
 10
0.0
 20
0.0
 30
0.0
1001
ACAD
1000
HATCH
1002
{
1070
    19
1000
ANSI37
1040
0.15
1040
0.0
1000
ASC_BOUNDS
1070
     2
1070
     2
1070
    13
1005
1C78A
1005
1C797
1005
1C798
1005
1C796
1005
1C799
1005
1C7C0
1005
1C7C4
1005
1C7BF
1005
1C7BE
1005
1C7C1
1005
1C7C3
1005
1C7C2
1005
1C78B
1070
     2
1070
     3
1005
1C7A4
1005
1C7A9
1005
1C7A5
1000
ASC_SEEDPOINT
1011
21.97929957367762
1021
3.294304244259308
1031
0.0
1000
R14_HATCH_DATA
1000
1C7C7
1011
1.0
1021
0.0
1031
0.0
1011
0.0
1021
1.0
1031
0.0
1011
0.0
1021
0.0
1031
1.0
1040
0.0
1010
0.0
1020
0.0
1030
1.0
1000
ANSI37
1070
     0
1070
     1
1071
        2
1071
        7
1070
     1
1070
     1
1071
       15
1040
23.56599999997638
1040
8.999899999990987
1040
0.0
1040
19.53899999998043
1040
-0.0001000000000317
1040
0.0
1040
19.53899999998043
1040
0.0
1040
0.0
1040
21.09599999997886
1040
0.0
1040
0.0
1040
21.09599999997886
1040
-0.0001000000000317
1040
0.0
1040
22.15599999997789
1040
2.368399999997621
1040
0.0
1040
24.97599999997499
1040
2.368399999997621
1040
0.0
1040
26.02015566812236
1040
0.0330999999912365
1040
0.0
1040
28.40199999996923
1040
0.0330999999912365
1040
0.414213562373095
1040
30.74199999996923
1040
2.373099999991211
1040
0.0
1040
30.74199999996927
1040
8.763099999991255
1040
0.0
1040
29.30199999996933
1040
8.763099999991255
1040
0.0
1040
29.30199999996933
1040
2.283099999991236
1040
-0.414213562373095
1040
28.40199999996923
1040
1.383099999991237
1040
0.0
1040
26.97358892824991
1040
1.383099999991202
1040
0.0
1071
       13
1005
1C78A
1005
1C797
1005
1C798
1005
1C796
1005
1C799
1005
1C7C0
1005
1C7C4
1005
1C7BF
1005
1C7BE
1005
1C7C1
1005
1C7C3
1005
1C7C2
1005
1C78B
1071
       22
1070
     0
1070
     1
1071
        3
1040
22.7389999999773
1040
3.670999999996297
1040
23.56599999997638
1040
5.5200999999945
1040
24.39299999997559
1040
3.670999999996297
1071
        3
1005
1C7A4
1005
1C7A9
1005
1C7A5
1070
     0
1070
     1
1040
0.0
1040
0.15
1070
     0
1070
     2
1040
0.7853981633974483
1040
49.29960901727088
1040
-10.17736998311392
1040
-0.3367596045400932
1040
0.3367596045400932
1070
     0
1040
2.356194490192345
1040
49.29960901727088
1040
-10.17736998311392
1040
-0.3367596045400932
1040
-0.3367596045400932
1070
     0
1040
0.0110235143455945
1071
        2
1040
21.97929957367762
1040
3.294304244259308
1040
0.0
1040
21.97929957367762
1040
3.294304244259308
1040
0.0
1002
}
  0
INSERT
  5
1C7C8
330
1C782
100
AcDbEntity
  8
0
100
AcDbBlockReference
  2
*X39
 10
0.0
 20
0.0
 30
0.0
1001
ACAD
1000
HATCH
1002
{
1070
    19
1000
ANSI37
1040
0.15
1040
0.0
1000
R14_HATCH_DATA
1000
1C7C8
1011
1.0
1021
0.0
1031
0.0
1011
0.0
1021
1.0
1031
0.0
1011
0.0
1021
0.0
1031
1.0
1040
0.0
1010
0.0
1020
0.0
1030
1.0
1000
ANSI37
1070
     0
1070
     1
1071
        1
1071
        7
1070
     1
1070
     1
1071
       12
1040
31.64199999996833
1040
2.481619422925121
1040
0.2679491924310942
1040
32.94699999997067
1040
0.2212931190493919
1040
0.2679491924301353
1040
36.36699999995983
1040
0.2212931190459813
1040
0.2679491924321411
1040
37.67199999996831
1040
2.481619422928361
1040
0.0
1040
37.67199999996831
1040
8.763099999991255
1040
0.0
1040
36.23199999996837
1040
8.763099999991255
1040
0.0
1040
36.23199999996837
1040
2.481619422925064
1040
-0.2679491924310291
1040
35.64699999996708
1040
1.468369700498386
1040
-0.267949192430519
1040
33.66699999997093
1040
1.468369700497703
1040
-0.267949192431809
1040
33.08199999996839
1040
2.481619422926997
1040
0.0
1040
33.08199999996839
1040
8.763099999991255
1040
0.0
1040
31.64199999996833
1040
8.763099999991255
1040
0.0
1071
        0
1070
     0
1070
     1
1040
0.0
1040
0.15
1070
     0
1070
     2
1040
0.7853981633974483
1040
49.29960901727088
1040
-10.17736998311392
1040
-0.3367596045400932
1040
0.3367596045400932
1070
     0
1040
2.356194490192345
1040
49.29960901727088
1040
-10.17736998311392
1040
-0.3367596045400932
1040
-0.3367596045400932
1070
     0
1040
0.0110235143455945
1071
        1
1040
32.30357378967278
1040
3.988785755459219
1040
0.0
1002
}
  0
INSERT
  5
1C7C9
330
1C782
100
AcDbEntity
  8
0
100
AcDbBlockReference
  2
*X40
 10
0.0
 20
0.0
 30
0.0
1001
ACAD
1000
HATCH
1002
{
1070
    19
1000
ANSI37
1040
0.15
1040
0.0
1000
ASC_BOUNDS
1070
     1
1070
     2
1070
     8
1005
1C7AA
1005
1C7AD
1005
1C7B1
1005
1C7B0
1005
1C7AF
1005
1C7AC
1005
1C7AE
1005
1C7AB
1000
ASC_SEEDPOINT
1011
39.74896370716704
1021
4.484843821435049
1031
0.0
1000
R14_HATCH_DATA
1000
1C7C9
1011
1.0
1021
0.0
1031
0.0
1011
0.0
1021
1.0
1031
0.0
1011
0.0
1021
0.0
1031
1.0
1040
0.0
1010
0.0
1020
0.0
1030
1.0
1000
ANSI37
1070
     0
1070
     1
1071
        1
1071
        7
1070
     0
1070
     1
1071
        9
1040
40.02599999995994
1040
5.341799999994635
1040
44.99999999995498
1040
-0.2368999999997641
1040
44.99999999995498
1040
8.763099999991255
1040
43.57899999995641
1040
8.763099999991255
1040
43.57899999995641
1040
3.421199999996588
1040
38.60499999996136
1040
8.999899999990987
1040
38.60499999996136
1040
8.999999999991019
1040
38.60499999996136
1040
0.0
1040
40.02599999995994
1040
0.0
1071
        8
1005
1C7AA
1005
1C7AD
1005
1C7B1
1005
1C7B0
1005
1C7AF
1005
1C7AC
1005
1C7AE
1005
1C7AB
1070
     0
1070
     1
1040
0.0
1040
0.15
1070
     0
1070
     2
1040
0.7853981633974483
1040
49.29960901727088
1040
-10.17736998311392
1040
-0.3367596045400932
1040
0.3367596045400932
1070
     0
1040
2.356194490192345
1040
49.29960901727088
1040
-10.17736998311392
1040
-0.3367596045400932
1040
-0.3367596045400932
1070
     0
1040
0.0110235143455945
1071
        1
1040
39.74896370716704
1040
4.484843821435049
1040
0.0
1002
}
  0
INSERT
  5
1C7CA
330
1C782
100
AcDbEntity
  8
0
100
AcDbBlockReference
  2
*X41
 10
0.0
 20
0.0
 30
0.0
1001
ACAD
1000
HATCH
1002
{
1070
    19
1000
ANSI37
1040
0.15
1040
0.0
1000
ASC_BOUNDS
1070
     1
1070
     2
1070
     4
1005
1C78E
1005
1C79D
1005
1C78F
1005
1C791
1000
ASC_SEEDPOINT
1011
1.079051535452663
1021
4.148538732891836
1031
0.0
1000
R14_HATCH_DATA
1000
1C7CA
1011
1.0
1021
0.0
1031
0.0
1011
0.0
1021
1.0
1031
0.0
1011
0.0
1021
0.0
1031
1.0
1040
0.0
1010
0.0
1020
0.0
1030
1.0
1000
ANSI37
1070
     0
1070
     1
1071
        1
1071
        7
1070
     0
1070
     1
1071
        4
1040
1.420999999998571
1040
0.0
1040
1.420999999998571
1040
8.763099999991255
1040
0.0
1040
8.763099999991255
1040
0.0
1040
0.0
1071
        4
1005
1C78E
1005
1C79D
1005
1C78F
1005
1C791
1070
     0
1070
     1
1040
0.0
1040
0.15
1070
     0
1070
     2
1040
0.7853981633974483
1040
49.29960901727088
1040
-10.17736998311392
1040
-0.3367596045400932
1040
0.3367596045400932
1070
     0
1040
2.356194490192345
1040
49.29960901727088
1040
-10.17736998311392
1040
-0.3367596045400932
1040
-0.3367596045400932
1070
     0
1040
0.0053004257112761
1071
        1
1040
1.079051535452663
1040
4.148538732891836
1040
0.0
1002
}
  0
ENDBLK
  5
1C7CB
330
1C782
100
AcDbEntity
  8
0
100
AcDbBlockEnd
  0
BLOCK
  5
1D126
330
1CF98
100
AcDbEntity
  8
0
100
AcDbBlockBegin
  2
*X36
 70
     1
 10
0.0
 20
0.0
 30
0.0
  3
*X36
  1

  0
LINE
  5
1CF99
330
1CF98
100
AcDbEntity
  8
0
  6
CONTINUOUS
100
AcDbLine
 10
3.418023043697893
 20
7.251849696850613
 30
0.0
 11
4.929273346838536
 21
8.763099999991255
 31
0.0
  0
LINE
  5
1CF9A
330
1CF98
100
AcDbEntity
  8
0
  6
CONTINUOUS
100
AcDbLine
 10
1.483656411257782
 20
4.643963855330318
 30
0.0
 11
5.60279255591872
 21
8.763099999991255
 31
0.0
  0
LINE
  5
1CF9B
330
1CF98
100
AcDbEntity
  8
0
  6
CONTINUOUS
100
AcDbLine
 10
1.755053947328235
 20
4.241842182320584
 30
0.0
 11
6.276311764998907
 21
8.763099999991255
 31
0.0
  0
LINE
  5
1CF9C
330
1CF98
100
AcDbEntity
  8
0
  6
CONTINUOUS
100
AcDbLine
 10
2.026451483398688
 20
3.839720509310849
 30
0.0
 11
4.441040904851878
 21
6.254309930764039
 31
0.0
  0
LINE
  5
1CF9D
330
1CF98
100
AcDbEntity
  8
0
  6
CONTINUOUS
100
AcDbLine
 10
2.297849019469139
 20
3.437598836301114
 30
0.0
 11
3.321765168359338
 21
4.461514985191313
 31
0.0
  0
LINE
  5
1CF9E
330
1CF98
100
AcDbEntity
  8
0
  6
CONTINUOUS
100
AcDbLine
 10
2.569246555539591
 20
3.03547716329138
 30
0.0
 11
3.593163397972743
 21
4.059394005724531
 31
0.0
  0
LINE
  5
1CF9F
330
1CF98
100
AcDbEntity
  8
0
  6
CONTINUOUS
100
AcDbLine
 10
2.840644091610043
 20
2.633355490281646
 30
0.0
 11
3.864561627586149
 21
3.657273026257751
 31
0.0
  0
LINE
  5
1CFA0
330
1CF98
100
AcDbEntity
  8
0
  6
CONTINUOUS
100
AcDbLine
 10
3.112041627680496
 20
2.231233817271911
 30
0.0
 11
4.135959857199554
 21
3.25515204679097
 31
0.0
  0
LINE
  5
1CFA1
330
1CF98
100
AcDbEntity
  8
0
  6
CONTINUOUS
100
AcDbLine
 10
3.383439163750948
 20
1.829112144262177
 30
0.0
 11
4.40735808681296
 21
2.853031067324189
 31
0.0
  0
LINE
  5
1CFA2
330
1CF98
100
AcDbEntity
  8
0
  6
CONTINUOUS
100
AcDbLine
 10
3.654836699821399
 20
1.426990471252442
 30
0.0
 11
4.678756316426365
 21
2.450910087857407
 31
0.0
  0
LINE
  5
1CFA3
330
1CF98
100
AcDbEntity
  8
0
  6
CONTINUOUS
100
AcDbLine
 10
3.926234235891853
 20
1.024868798242709
 30
0.0
 11
4.95015454603977
 21
2.048789108390626
 31
0.0
  0
LINE
  5
1CFA4
330
1CF98
100
AcDbEntity
  8
0
  6
CONTINUOUS
100
AcDbLine
 10
4.197631771962304
 20
0.6227471252329737
 30
0.0
 11
5.221552775653176
 21
1.646668128923846
 31
0.0
  0
LINE
  5
1CFA5
330
1CF98
100
AcDbEntity
  8
0
  6
CONTINUOUS
100
AcDbLine
 10
8.715877546767851
 20
7.835069736359266
 30
0.0
 11
9.435953450375058
 21
8.555145639966472
 31
0.0
  0
LINE
  5
1CFA6
330
1CF98
100
AcDbEntity
  8
0
  6
CONTINUOUS
100
AcDbLine
 10
8.170620868422267
 20
6.616293848933497
 30
0.0
 11
9.644120833743461
 21
8.08979381425469
 31
0.0
  0
LINE
  5
1CFA7
330
1CF98
100
AcDbEntity
  8
0
  6
CONTINUOUS
100
AcDbLine
 10
7.625364190076684
 20
5.397517961507727
 30
0.0
 11
9.852288217111864
 21
7.624441988542907
 31
0.0
  0
LINE
  5
1CFA8
330
1CF98
100
AcDbEntity
  8
0
  6
CONTINUOUS
100
AcDbLine
 10
7.080107511731101
 20
4.178742074081957
 30
0.0
 11
10.06045560048027
 21
7.159090162831124
 31
0.0
  0
LINE
  5
1CFA9
330
1CF98
100
AcDbEntity
  8
0
  6
CONTINUOUS
100
AcDbLine
 10
6.534850833385518
 20
2.959966186656187
 30
0.0
 11
10.26862298384867
 21
6.693738337119342
 31
0.0
  0
LINE
  5
1CFAA
330
1CF98
100
AcDbEntity
  8
0
  6
CONTINUOUS
100
AcDbLine
 10
4.469029308032756
 20
0.2206254522232385
 30
0.0
 11
5.492951005266582
 21
1.244547149457064
 31
0.0
  0
LINE
  5
1CFAB
330
1CF98
100
AcDbEntity
  8
0
  6
CONTINUOUS
100
AcDbLine
 10
5.989594155039935
 20
1.741190299230417
 30
0.0
 11
8.806950407233131
 21
4.558546551423613
 31
0.0
  0
LINE
  5
1CFAC
330
1CF98
100
AcDbEntity
  8
0
  6
CONTINUOUS
100
AcDbLine
 10
9.401251593263643
 20
5.152847737454126
 30
0.0
 11
10.47679036721708
 21
6.228386511407559
 31
0.0
  0
LINE
  5
1CFAD
330
1CF98
100
AcDbEntity
  8
0
  6
CONTINUOUS
100
AcDbLine
 10
4.921837203428691
 20
-0.0000858614610131
 30
0.0
 11
8.592923064886001
 21
3.670999999996297
 31
0.0
  0
LINE
  5
1CFAE
330
1CF98
100
AcDbEntity
  8
0
  6
CONTINUOUS
100
AcDbLine
 10
9.609390446785305
 20
4.6874673818956
 30
0.0
 11
10.68495775058548
 21
5.763034685695775
 31
0.0
  0
LINE
  5
1CFAF
330
1CF98
100
AcDbEntity
  8
0
  6
CONTINUOUS
100
AcDbLine
 10
5.595387755019432
 20
-0.0000545189504582
 30
0.0
 11
7.716137258923768
 21
2.120694984953879
 31
0.0
  0
LINE
  5
1CFB0
330
1CF98
100
AcDbEntity
  8
0
  6
CONTINUOUS
100
AcDbLine
 10
6.268938306610172
 20
-0.000023176439905
 30
0.0
 11
7.170485805526503
 21
0.9015243224764267
 31
0.0
  0
LINE
  5
1CFB1
330
1CF98
100
AcDbEntity
  8
0
  6
CONTINUOUS
100
AcDbLine
 10
7.963842273967511
 20
2.368399999997621
 30
0.0
 11
9.266442273966188
 21
3.670999999996297
 31
0.0
  0
LINE
  5
1CFB2
330
1CF98
100
AcDbEntity
  8
0
  6
CONTINUOUS
100
AcDbLine
 10
8.637361483047696
 20
2.368399999997621
 30
0.0
 11
9.939961483046375
 21
3.670999999996297
 31
0.0
  0
LINE
  5
1CFB3
330
1CF98
100
AcDbEntity
  8
0
  6
CONTINUOUS
100
AcDbLine
 10
9.817529300306965
 20
4.222087026337075
 30
0.0
 11
10.89312513395388
 21
5.297682859983993
 31
0.0
  0
LINE
  5
1CFB4
330
1CF98
100
AcDbEntity
  8
0
  6
CONTINUOUS
100
AcDbLine
 10
10.02566815382863
 20
3.756706670778549
 30
0.0
 11
11.10129251732229
 21
4.832331034272211
 31
0.0
  0
LINE
  5
1CFB5
330
1CF98
100
AcDbEntity
  8
0
  6
CONTINUOUS
100
AcDbLine
 10
9.310880692127883
 20
2.368399999997621
 30
0.0
 11
11.30945990069069
 21
4.366979208560428
 31
0.0
  0
LINE
  5
1CFB6
330
1CF98
100
AcDbEntity
  8
0
  6
CONTINUOUS
100
AcDbLine
 10
9.98439990120807
 20
2.36839999999762
 30
0.0
 11
11.5176272840591
 21
3.901627382848645
 31
0.0
  0
LINE
  5
1CFB7
330
1CF98
100
AcDbEntity
  8
0
  6
CONTINUOUS
100
AcDbLine
 10
10.65037369446246
 20
2.36085458417182
 30
0.0
 11
11.7257946674275
 21
3.436275557136862
 31
0.0
  0
LINE
  5
1CFB8
330
1CF98
100
AcDbEntity
  8
0
  6
CONTINUOUS
100
AcDbLine
 10
10.85847197087848
 20
1.895433651507656
 30
0.0
 11
11.9339620507959
 21
2.97092373142508
 31
0.0
  0
LINE
  5
1CFB9
330
1CF98
100
AcDbEntity
  8
0
  6
CONTINUOUS
100
AcDbLine
 10
11.0665702472945
 20
1.430012718843491
 30
0.0
 11
12.14212943416431
 21
2.505571905713296
 31
0.0
  0
LINE
  5
1CFBA
330
1CF98
100
AcDbEntity
  8
0
  6
CONTINUOUS
100
AcDbLine
 10
11.27466852371052
 20
0.9645917861793256
 30
0.0
 11
12.35029681753271
 21
2.040220080001513
 31
0.0
  0
LINE
  5
1CFBB
330
1CF98
100
AcDbEntity
  8
0
  6
CONTINUOUS
100
AcDbLine
 10
11.48276680012654
 20
0.4991708535151611
 30
0.0
 11
12.55846420090111
 21
1.57486825428973
 31
0.0
  0
LINE
  5
1CFBC
330
1CF98
100
AcDbEntity
  8
0
  6
CONTINUOUS
100
AcDbLine
 10
11.69086507654257
 20
0.0337499208509957
 30
0.0
 11
12.76663158426952
 21
1.109516428577947
 31
0.0
  0
LINE
  5
1CFBD
330
1CF98
100
AcDbEntity
  8
0
  6
CONTINUOUS
100
AcDbLine
 10
12.33057447873954
 20
-0.0000598860322123
 30
0.0
 11
12.97479896763792
 21
0.6441646028661663
 31
0.0
  0
LINE
  5
1CFBE
330
1CF98
100
AcDbEntity
  8
0
  6
CONTINUOUS
100
AcDbLine
 10
13.00413694809395
 20
-0.0000166257579952
 30
0.0
 11
13.18296635100632
 21
0.1788127771543824
 31
0.0
  0
LINE
  5
1CFBF
330
1CF98
100
AcDbEntity
  8
0
  6
CONTINUOUS
100
AcDbLine
 10
4.772852165289667
 20
-0.000092794222212
 30
0.0
 11
4.296495091028902
 21
0.4762642800385528
 31
0.0
  0
LINE
  5
1CFC0
330
1CF98
100
AcDbEntity
  8
0
  6
CONTINUOUS
100
AcDbLine
 10
5.446340034776103
 20
-0.0000614546284616
 30
0.0
 11
2.898195908335625
 21
2.548082671812017
 31
0.0
  0
LINE
  5
1CFC1
330
1CF98
100
AcDbEntity
  8
0
  6
CONTINUOUS
100
AcDbLine
 10
6.119827904262539
 20
-0.0000301150347113
 30
0.0
 11
1.499896725642348
 21
4.61990106358548
 31
0.0
  0
LINE
  5
1CFC2
330
1CF98
100
AcDbEntity
  8
0
  6
CONTINUOUS
100
AcDbLine
 10
6.775136745476159
 20
0.0181802528318542
 30
0.0
 11
5.699826040202669
 21
1.093490958105344
 31
0.0
  0
LINE
  5
1CFC3
330
1CF98
100
AcDbEntity
  8
0
  6
CONTINUOUS
100
AcDbLine
 10
6.983376846288489
 20
0.4834593610997118
 30
0.0
 11
5.908008617934405
 21
1.558827589453796
 31
0.0
  0
LINE
  5
1CFC4
330
1CF98
100
AcDbEntity
  8
0
  6
CONTINUOUS
100
AcDbLine
 10
5.377063484962296
 20
1.416253513345719
 30
0.0
 11
1.702276957014131
 21
5.091040041293883
 31
0.0
  0
LINE
  5
1CFC5
330
1CF98
100
AcDbEntity
  8
0
  6
CONTINUOUS
100
AcDbLine
 10
3.978745891735324
 20
3.488090315652877
 30
0.0
 11
2.000373521109399
 21
5.466462686278803
 31
0.0
  0
LINE
  5
1CFC6
330
1CF98
100
AcDbEntity
  8
0
  6
CONTINUOUS
100
AcDbLine
 10
7.191616947100819
 20
0.948738469367568
 30
0.0
 11
6.11619119566614
 21
2.024164220802247
 31
0.0
  0
LINE
  5
1CFC7
330
1CF98
100
AcDbEntity
  8
0
  6
CONTINUOUS
100
AcDbLine
 10
7.399857047913149
 20
1.414017577635424
 30
0.0
 11
6.324373773397875
 21
2.489500852150698
 31
0.0
  0
LINE
  5
1CFC8
330
1CF98
100
AcDbEntity
  8
0
  6
CONTINUOUS
100
AcDbLine
 10
7.608097148725479
 20
1.879296685903281
 30
0.0
 11
6.53255635112961
 21
2.95483748349915
 31
0.0
  0
LINE
  5
1CFC9
330
1CF98
100
AcDbEntity
  8
0
  6
CONTINUOUS
100
AcDbLine
 10
7.816337249537808
 20
2.344575794171138
 30
0.0
 11
6.740738928861345
 21
3.420174114847601
 31
0.0
  0
LINE
  5
1CFCA
330
1CF98
100
AcDbEntity
  8
0
  6
CONTINUOUS
100
AcDbLine
 10
3.310241080789734
 20
4.830114335678653
 30
0.0
 11
2.298470085204666
 21
5.84188533126372
 31
0.0
  0
LINE
  5
1CFCB
330
1CF98
100
AcDbEntity
  8
0
  6
CONTINUOUS
100
AcDbLine
 10
3.60832983563551
 20
5.205544789913063
 30
0.0
 11
2.596566649299935
 21
6.217307976248638
 31
0.0
  0
LINE
  5
1CFCC
330
1CF98
100
AcDbEntity
  8
0
  6
CONTINUOUS
100
AcDbLine
 10
3.906418590481286
 20
5.580975244147473
 30
0.0
 11
2.894663213395203
 21
6.592730621233557
 31
0.0
  0
LINE
  5
1CFCD
330
1CF98
100
AcDbEntity
  8
0
  6
CONTINUOUS
100
AcDbLine
 10
4.204507345327062
 20
5.956405698381884
 30
0.0
 11
3.192759777490472
 21
6.968153266218474
 31
0.0
  0
LINE
  5
1CFCE
330
1CF98
100
AcDbEntity
  8
0
  6
CONTINUOUS
100
AcDbLine
 10
8.466032252791512
 20
2.368399999997621
 30
0.0
 11
6.948921506593081
 21
3.885510746196053
 31
0.0
  0
LINE
  5
1CFCF
330
1CF98
100
AcDbEntity
  8
0
  6
CONTINUOUS
100
AcDbLine
 10
9.139551461871699
 20
2.36839999999762
 30
0.0
 11
7.157104084324816
 21
4.350847377544504
 31
0.0
  0
LINE
  5
1CFD0
330
1CF98
100
AcDbEntity
  8
0
  6
CONTINUOUS
100
AcDbLine
 10
4.502596100172839
 20
6.331836152616295
 30
0.0
 11
3.49085634158574
 21
7.343575911203393
 31
0.0
  0
LINE
  5
1CFD1
330
1CF98
100
AcDbEntity
  8
0
  6
CONTINUOUS
100
AcDbLine
 10
4.800684855018615
 20
6.707266606850705
 30
0.0
 11
3.788952905681008
 21
7.718998556188312
 31
0.0
  0
LINE
  5
1CFD2
330
1CF98
100
AcDbEntity
  8
0
  6
CONTINUOUS
100
AcDbLine
 10
12.18154012887317
 20
-0.0000694579236642
 30
0.0
 11
11.32140332908496
 21
0.8600673418645499
 31
0.0
  0
LINE
  5
1CFD3
330
1CF98
100
AcDbEntity
  8
0
  6
CONTINUOUS
100
AcDbLine
 10
12.85501608323566
 20
-0.0000262032059659
 30
0.0
 11
10.77672456435345
 21
2.078265315676246
 31
0.0
  0
LINE
  5
1CFD4
330
1CF98
100
AcDbEntity
  8
0
  6
CONTINUOUS
100
AcDbLine
 10
9.813070670951886
 20
2.36839999999762
 30
0.0
 11
8.51047067095321
 21
3.670999999996297
 31
0.0
  0
LINE
  5
1CFD5
330
1CF98
100
AcDbEntity
  8
0
  6
CONTINUOUS
100
AcDbLine
 10
10.48658988003207
 20
2.36839999999762
 30
0.0
 11
9.183989880033396
 21
3.670999999996297
 31
0.0
  0
LINE
  5
1CFD6
330
1CF98
100
AcDbEntity
  8
0
  6
CONTINUOUS
100
AcDbLine
 10
8.441048632286794
 20
3.740422038662712
 30
0.0
 11
7.365286662056551
 21
4.816184008892956
 31
0.0
  0
LINE
  5
1CFD7
330
1CF98
100
AcDbEntity
  8
0
  6
CONTINUOUS
100
AcDbLine
 10
8.649187485808454
 20
4.205802394221237
 30
0.0
 11
7.573469239788285
 21
5.281520640241407
 31
0.0
  0
LINE
  5
1CFD8
330
1CF98
100
AcDbEntity
  8
0
  6
CONTINUOUS
100
AcDbLine
 10
5.098773609864391
 20
7.082697061085115
 30
0.0
 11
4.087049469776277
 21
8.09442120117323
 31
0.0
  0
LINE
  5
1CFD9
330
1CF98
100
AcDbEntity
  8
0
  6
CONTINUOUS
100
AcDbLine
 10
5.396862364710167
 20
7.458127515319526
 30
0.0
 11
4.385146033871544
 21
8.469843846158149
 31
0.0
  0
LINE
  5
1CFDA
330
1CF98
100
AcDbEntity
  8
0
  6
CONTINUOUS
100
AcDbLine
 10
13.04801363231285
 20
0.4804954567970334
 30
0.0
 11
9.85750908911358
 21
3.670999999996297
 31
0.0
  0
LINE
  5
1CFDB
330
1CF98
100
AcDbEntity
  8
0
  6
CONTINUOUS
100
AcDbLine
 10
8.857326339330116
 20
4.671182749779763
 30
0.0
 11
7.781651817520021
 21
5.746857271589858
 31
0.0
  0
LINE
  5
1CFDC
330
1CF98
100
AcDbEntity
  8
0
  6
CONTINUOUS
100
AcDbLine
 10
5.694951119555943
 20
7.833557969553937
 30
0.0
 11
4.765409089118624
 21
8.763099999991255
 31
0.0
  0
LINE
  5
1CFDD
330
1CF98
100
AcDbEntity
  8
0
  6
CONTINUOUS
100
AcDbLine
 10
12.50286117236978
 20
1.699167125820288
 30
0.0
 11
9.68611877250287
 21
4.515909525687196
 31
0.0
  0
LINE
  5
1CFDE
330
1CF98
100
AcDbEntity
  8
0
  6
CONTINUOUS
100
AcDbLine
 10
9.065465192851777
 20
5.136563105338288
 30
0.0
 11
7.989834395251757
 21
6.21219390293831
 31
0.0
  0
LINE
  5
1CFDF
330
1CF98
100
AcDbEntity
  8
0
  6
CONTINUOUS
100
AcDbLine
 10
5.993039874401719
 20
8.208988423788346
 30
0.0
 11
5.43892829819881
 21
8.763099999991255
 31
0.0
  0
LINE
  5
1CFE0
330
1CF98
100
AcDbEntity
  8
0
  6
CONTINUOUS
100
AcDbLine
 10
11.95770871242671
 20
2.917838794843543
 30
0.0
 11
8.19801697298349
 21
6.677530534286761
 31
0.0
  0
LINE
  5
1CFE1
330
1CF98
100
AcDbEntity
  8
0
  6
CONTINUOUS
100
AcDbLine
 10
6.291128629247495
 20
8.584418878022756
 30
0.0
 11
6.112447507278997
 21
8.763099999991255
 31
0.0
  0
LINE
  5
1CFE2
330
1CF98
100
AcDbEntity
  8
0
  6
CONTINUOUS
100
AcDbLine
 10
11.41255625248364
 20
4.136510463866797
 30
0.0
 11
8.406199550715227
 21
7.142867165635211
 31
0.0
  0
LINE
  5
1CFE3
330
1CF98
100
AcDbEntity
  8
0
  6
CONTINUOUS
100
AcDbLine
 10
10.86740379254057
 20
5.355182132890051
 30
0.0
 11
8.614382128446962
 21
7.608203796983664
 31
0.0
  0
LINE
  5
1CFE4
330
1CF98
100
AcDbEntity
  8
0
  6
CONTINUOUS
100
AcDbLine
 10
10.3222513325975
 20
6.573853801913305
 30
0.0
 11
8.822564706178696
 21
8.073540428332114
 31
0.0
  0
LINE
  5
1CFE5
330
1CF98
100
AcDbEntity
  8
0
  6
CONTINUOUS
100
AcDbLine
 10
9.777098872654436
 20
7.792525470936562
 30
0.0
 11
9.030747283910433
 21
8.538877059680566
 31
0.0
  0
ENDBLK
  5
1D127
330
1CF98
100
AcDbEntity
  8
0
100
AcDbBlockEnd
  0
BLOCK
  5
1D128
330
1CFE6
100
AcDbEntity
  8
0
100
AcDbBlockBegin
  2
*X37
 70
     1
 10
0.0
 20
0.0
 30
0.0
  3
*X37
  1

  0
LINE
  5
1CFE7
330
1CFE6
100
AcDbEntity
  8
0
  6
CONTINUOUS
100
AcDbLine
 10
10.67292308101235
 20
8.445076852443387
 30
0.0
 11
10.99094622856022
 21
8.763099999991255
 31
0.0
  0
LINE
  5
1CFE8
330
1CFE6
100
AcDbEntity
  8
0
  6
CONTINUOUS
100
AcDbLine
 10
10.87250383178748
 20
7.971138394138331
 30
0.0
 11
11.6644654376404
 21
8.763099999991255
 31
0.0
  0
LINE
  5
1CFE9
330
1CFE6
100
AcDbEntity
  8
0
  6
CONTINUOUS
100
AcDbLine
 10
11.07208458256261
 20
7.497199935833273
 30
0.0
 11
12.12126590876355
 21
8.546381262034211
 31
0.0
  0
LINE
  5
1CFEA
330
1CFE6
100
AcDbEntity
  8
0
  6
CONTINUOUS
100
AcDbLine
 10
11.27166533333774
 20
7.023261477528216
 30
0.0
 11
12.32085164573666
 21
8.072447789927136
 31
0.0
  0
LINE
  5
1CFEB
330
1CFE6
100
AcDbEntity
  8
0
  6
CONTINUOUS
100
AcDbLine
 10
11.47124608411287
 20
6.549323019223158
 30
0.0
 11
12.52043738270977
 21
7.59851431782006
 31
0.0
  0
LINE
  5
1CFEC
330
1CFE6
100
AcDbEntity
  8
0
  6
CONTINUOUS
100
AcDbLine
 10
11.670826834888
 20
6.075384560918101
 30
0.0
 11
12.72002311968288
 21
7.124580845712984
 31
0.0
  0
LINE
  5
1CFED
330
1CFE6
100
AcDbEntity
  8
0
  6
CONTINUOUS
100
AcDbLine
 10
11.87040758566313
 20
5.601446102613043
 30
0.0
 11
12.91960885665599
 21
6.650647373605907
 31
0.0
  0
LINE
  5
1CFEE
330
1CFE6
100
AcDbEntity
  8
0
  6
CONTINUOUS
100
AcDbLine
 10
12.06998833643825
 20
5.127507644307986
 30
0.0
 11
13.1191945936291
 21
6.176713901498832
 31
0.0
  0
LINE
  5
1CFEF
330
1CFE6
100
AcDbEntity
  8
0
  6
CONTINUOUS
100
AcDbLine
 10
12.26956908721338
 20
4.65356918600293
 30
0.0
 11
13.31878033060221
 21
5.702780429391757
 31
0.0
  0
LINE
  5
1CFF0
330
1CFE6
100
AcDbEntity
  8
0
  6
CONTINUOUS
100
AcDbLine
 10
12.46914983798851
 20
4.179630727697873
 30
0.0
 11
13.51836606757532
 21
5.228846957284683
 31
0.0
  0
LINE
  5
1CFF1
330
1CFE6
100
AcDbEntity
  8
0
  6
CONTINUOUS
100
AcDbLine
 10
12.66873058876364
 20
3.705692269392816
 30
0.0
 11
13.71795180454843
 21
4.754913485177607
 31
0.0
  0
LINE
  5
1CFF2
330
1CFE6
100
AcDbEntity
  8
0
  6
CONTINUOUS
100
AcDbLine
 10
12.86831133953877
 20
3.231753811087759
 30
0.0
 11
13.91753754152154
 21
4.280980013070531
 31
0.0
  0
LINE
  5
1CFF3
330
1CFE6
100
AcDbEntity
  8
0
  6
CONTINUOUS
100
AcDbLine
 10
13.0678920903139
 20
2.757815352782702
 30
0.0
 11
14.11712327849465
 21
3.807046540963456
 31
0.0
  0
LINE
  5
1CFF4
330
1CFE6
100
AcDbEntity
  8
0
  6
CONTINUOUS
100
AcDbLine
 10
13.26747284108903
 20
2.283876894477644
 30
0.0
 11
14.31670901546777
 21
3.333113068856379
 31
0.0
  0
LINE
  5
1CFF5
330
1CFE6
100
AcDbEntity
  8
0
  6
CONTINUOUS
100
AcDbLine
 10
16.36767838827179
 20
8.751678487061342
 30
0.0
 11
16.50332410898388
 21
8.887324207773432
 31
0.0
  0
LINE
  5
1CFF6
330
1CFE6
100
AcDbEntity
  8
0
  6
CONTINUOUS
100
AcDbLine
 10
15.96190732182191
 20
7.67238821153127
 30
0.0
 11
16.68735328004734
 21
8.397834169756699
 31
0.0
  0
LINE
  5
1CFF7
330
1CFE6
100
AcDbEntity
  8
0
  6
CONTINUOUS
100
AcDbLine
 10
15.55613625537202
 20
6.593097936001196
 30
0.0
 11
16.87138245111079
 21
7.908344131739965
 31
0.0
  0
LINE
  5
1CFF8
330
1CFE6
100
AcDbEntity
  8
0
  6
CONTINUOUS
100
AcDbLine
 10
15.15036518892213
 20
5.513807660471122
 30
0.0
 11
17.05541162217424
 21
7.418854093723231
 31
0.0
  0
LINE
  5
1CFF9
330
1CFE6
100
AcDbEntity
  8
0
  6
CONTINUOUS
100
AcDbLine
 10
14.74459412247225
 20
4.434517384941048
 30
0.0
 11
17.2394407932377
 21
6.929364055706499
 31
0.0
  0
LINE
  5
1CFFA
330
1CFE6
100
AcDbEntity
  8
0
  6
CONTINUOUS
100
AcDbLine
 10
14.33882305602236
 20
3.355227109410975
 30
0.0
 11
17.42346996430115
 21
6.439874017689766
 31
0.0
  0
LINE
  5
1CFFB
330
1CFE6
100
AcDbEntity
  8
0
  6
CONTINUOUS
100
AcDbLine
 10
13.46705359186416
 20
1.809938436172586
 30
0.0
 11
16.0819338255367
 21
4.424818669845129
 31
0.0
  0
LINE
  5
1CFFC
330
1CFE6
100
AcDbEntity
  8
0
  6
CONTINUOUS
100
AcDbLine
 10
16.63283254238972
 20
4.975717386698149
 30
0.0
 11
17.60749913536461
 21
5.950383979673033
 31
0.0
  0
LINE
  5
1CFFD
330
1CFE6
100
AcDbEntity
  8
0
  6
CONTINUOUS
100
AcDbLine
 10
13.66663434263929
 20
1.335999977867529
 30
0.0
 11
15.67604797733754
 21
3.345413612565779
 31
0.0
  0
LINE
  5
1CFFE
330
1CFE6
100
AcDbEntity
  8
0
  6
CONTINUOUS
100
AcDbLine
 10
13.86621509341442
 20
0.8620615195624723
 30
0.0
 11
15.27016212913838
 21
2.26600855528643
 31
0.0
  0
LINE
  5
1CFFF
330
1CFE6
100
AcDbEntity
  8
0
  6
CONTINUOUS
100
AcDbLine
 10
16.81682257348267
 20
4.486188208710908
 30
0.0
 11
17.79152830642806
 21
5.460893941656299
 31
0.0
  0
LINE
  5
1D000
330
1CFE6
100
AcDbEntity
  8
0
  6
CONTINUOUS
100
AcDbLine
 10
17.00081260457561
 20
3.996659030723667
 30
0.0
 11
17.97555747749151
 21
4.971403903639565
 31
0.0
  0
LINE
  5
1D001
330
1CFE6
100
AcDbEntity
  8
0
  6
CONTINUOUS
100
AcDbLine
 10
20.74362343514722
 20
8.412989070375462
 30
0.0
 11
21.09373436476302
 21
8.763099999991256
 31
0.0
  0
LINE
  5
1D002
330
1CFE6
100
AcDbEntity
  8
0
  6
CONTINUOUS
100
AcDbLine
 10
20.25401257174777
 20
7.249858997895826
 30
0.0
 11
21.7672535738432
 21
8.763099999991255
 31
0.0
  0
LINE
  5
1D003
330
1CFE6
100
AcDbEntity
  8
0
  6
CONTINUOUS
100
AcDbLine
 10
14.06579584418955
 20
0.3881230612574149
 30
0.0
 11
14.86427628093921
 21
1.186603498007082
 31
0.0
  0
LINE
  5
1D004
330
1CFE6
100
AcDbEntity
  8
0
  6
CONTINUOUS
100
AcDbLine
 10
14.26537659496467
 20
-0.0858153970476412
 30
0.0
 11
14.45839043274005
 21
0.1071984407277329
 31
0.0
  0
LINE
  5
1D005
330
1CFE6
100
AcDbEntity
  8
0
  6
CONTINUOUS
100
AcDbLine
 10
17.18480263566856
 20
3.507129852736426
 30
0.0
 11
18.15958664855496
 21
4.481913865622833
 31
0.0
  0
LINE
  5
1D006
330
1CFE6
100
AcDbEntity
  8
0
  6
CONTINUOUS
100
AcDbLine
 10
17.3687926667615
 20
3.017600674749186
 30
0.0
 11
18.34361581961842
 21
3.9924238276061
 31
0.0
  0
LINE
  5
1D007
330
1CFE6
100
AcDbEntity
  8
0
  6
CONTINUOUS
100
AcDbLine
 10
19.76440170834832
 20
6.086728925416191
 30
0.0
 11
22.33924590259489
 21
8.661573119662755
 31
0.0
  0
LINE
  5
1D008
330
1CFE6
100
AcDbEntity
  8
0
  6
CONTINUOUS
100
AcDbLine
 10
19.27479084494887
 20
4.923598852936555
 30
0.0
 11
21.84929622842713
 21
7.498104236414807
 31
0.0
  0
LINE
  5
1D009
330
1CFE6
100
AcDbEntity
  8
0
  6
CONTINUOUS
100
AcDbLine
 10
17.55278269785445
 20
2.528071496761945
 30
0.0
 11
18.52764499068187
 21
3.502933789589366
 31
0.0
  0
LINE
  5
1D00A
330
1CFE6
100
AcDbEntity
  8
0
  6
CONTINUOUS
100
AcDbLine
 10
18.78517998154942
 20
3.760468780456919
 30
0.0
 11
21.35934655425936
 21
6.33463535316686
 31
0.0
  0
LINE
  5
1D00B
330
1CFE6
100
AcDbEntity
  8
0
  6
CONTINUOUS
100
AcDbLine
 10
17.73677272894739
 20
2.038542318774704
 30
0.0
 11
20.8693968800916
 21
5.171166469918914
 31
0.0
  0
LINE
  5
1D00C
330
1CFE6
100
AcDbEntity
  8
0
  6
CONTINUOUS
100
AcDbLine
 10
17.92076276004034
 20
1.549013140787464
 30
0.0
 11
20.37944720592384
 21
4.007697586670968
 31
0.0
  0
LINE
  5
1D00D
330
1CFE6
100
AcDbEntity
  8
0
  6
CONTINUOUS
100
AcDbLine
 10
18.10475279113329
 20
1.059483962800223
 30
0.0
 11
19.88949753175608
 21
2.84422870342302
 31
0.0
  0
LINE
  5
1D00E
330
1CFE6
100
AcDbEntity
  8
0
  6
CONTINUOUS
100
AcDbLine
 10
18.28874282222623
 20
0.5699547848129822
 30
0.0
 11
19.39954785758832
 21
1.680759820175074
 31
0.0
  0
LINE
  5
1D00F
330
1CFE6
100
AcDbEntity
  8
0
  6
CONTINUOUS
100
AcDbLine
 10
18.47273285331918
 20
0.0804256068257416
 30
0.0
 11
18.90959818342056
 21
0.517290936927127
 31
0.0
  0
LINE
  5
1D010
330
1CFE6
100
AcDbEntity
  8
0
  6
CONTINUOUS
100
AcDbLine
 10
14.3590401358224
 20
-0.1570118376323384
 30
0.0
 11
14.24903296539946
 21
-0.0470046672093929
 31
0.0
  0
LINE
  5
1D011
330
1CFE6
100
AcDbEntity
  8
0
  6
CONTINUOUS
100
AcDbLine
 10
14.54309291258661
 20
0.332454594683643
 30
0.0
 11
13.75908329123172
 21
1.116464216038529
 31
0.0
  0
LINE
  5
1D012
330
1CFE6
100
AcDbEntity
  8
0
  6
CONTINUOUS
100
AcDbLine
 10
14.72714568935081
 20
0.8219210269996244
 30
0.0
 11
13.26913361706399
 21
2.27993309928645
 31
0.0
  0
LINE
  5
1D013
330
1CFE6
100
AcDbEntity
  8
0
  6
CONTINUOUS
100
AcDbLine
 10
14.91119846611502
 20
1.311387459315606
 30
0.0
 11
12.77918394289625
 21
3.443401982534371
 31
0.0
  0
LINE
  5
1D014
330
1CFE6
100
AcDbEntity
  8
0
  6
CONTINUOUS
100
AcDbLine
 10
15.09525124287922
 20
1.800853891631587
 30
0.0
 11
12.28923426872852
 21
4.606870865782293
 31
0.0
  0
LINE
  5
1D015
330
1CFE6
100
AcDbEntity
  8
0
  6
CONTINUOUS
100
AcDbLine
 10
15.27930401964343
 20
2.290320323947569
 30
0.0
 11
11.79928459456078
 21
5.770339749030213
 31
0.0
  0
LINE
  5
1D016
330
1CFE6
100
AcDbEntity
  8
0
  6
CONTINUOUS
100
AcDbLine
 10
15.46335679640763
 20
2.77978675626355
 30
0.0
 11
14.48885470994921
 21
3.754288842721972
 31
0.0
  0
LINE
  5
1D017
330
1CFE6
100
AcDbEntity
  8
0
  6
CONTINUOUS
100
AcDbLine
 10
13.88507249233704
 20
4.358071060334137
 30
0.0
 11
11.30933492039305
 21
6.933808632278135
 31
0.0
  0
LINE
  5
1D018
330
1CFE6
100
AcDbEntity
  8
0
  6
CONTINUOUS
100
AcDbLine
 10
18.75840522805855
 20
0.1582575336928151
 30
0.0
 11
18.25383727664818
 21
0.6628254851031863
 31
0.0
  0
LINE
  5
1D019
330
1CFE6
100
AcDbEntity
  8
0
  6
CONTINUOUS
100
AcDbLine
 10
15.64740957317184
 20
3.269253188579531
 30
0.0
 11
14.67288388101266
 21
4.243778880738705
 31
0.0
  0
LINE
  5
1D01A
330
1CFE6
100
AcDbEntity
  8
0
  6
CONTINUOUS
100
AcDbLine
 10
13.39509276772158
 20
5.521569994029786
 30
0.0
 11
10.81938524622531
 21
8.097277515526056
 31
0.0
  0
LINE
  5
1D01B
330
1CFE6
100
AcDbEntity
  8
0
  6
CONTINUOUS
100
AcDbLine
 10
18.95798597883369
 20
0.6321959919978686
 30
0.0
 11
17.84825644852853
 21
1.741925522303024
 31
0.0
  0
LINE
  5
1D01C
330
1CFE6
100
AcDbEntity
  8
0
  6
CONTINUOUS
100
AcDbLine
 10
19.15756672960882
 20
1.106134450302922
 30
0.0
 11
17.44267562040888
 21
2.821025559502861
 31
0.0
  0
LINE
  5
1D01D
330
1CFE6
100
AcDbEntity
  8
0
  6
CONTINUOUS
100
AcDbLine
 10
15.83146234993604
 20
3.758719620895513
 30
0.0
 11
14.85691305207612
 21
4.733268918755439
 31
0.0
  0
LINE
  5
1D01E
330
1CFE6
100
AcDbEntity
  8
0
  6
CONTINUOUS
100
AcDbLine
 10
16.01551512670025
 20
4.248186053211494
 30
0.0
 11
15.04094222313957
 21
5.222758956772172
 31
0.0
  0
LINE
  5
1D01F
330
1CFE6
100
AcDbEntity
  8
0
  6
CONTINUOUS
100
AcDbLine
 10
12.90511304310612
 20
6.685068927725435
 30
0.0
 11
10.8270819708403
 21
8.763099999991255
 31
0.0
  0
LINE
  5
1D020
330
1CFE6
100
AcDbEntity
  8
0
  6
CONTINUOUS
100
AcDbLine
 10
12.41513331849066
 20
7.848567861421083
 30
0.0
 11
11.50060117992049
 21
8.763099999991255
 31
0.0
  0
LINE
  5
1D021
330
1CFE6
100
AcDbEntity
  8
0
  6
CONTINUOUS
100
AcDbLine
 10
19.35714748038395
 20
1.580072908607975
 30
0.0
 11
17.03709479228923
 21
3.900125596702697
 31
0.0
  0
LINE
  5
1D022
330
1CFE6
100
AcDbEntity
  8
0
  6
CONTINUOUS
100
AcDbLine
 10
19.55672823115909
 20
2.054011366913028
 30
0.0
 11
16.63151396416958
 21
4.979225633902534
 31
0.0
  0
LINE
  5
1D023
330
1CFE6
100
AcDbEntity
  8
0
  6
CONTINUOUS
100
AcDbLine
 10
16.19956790346445
 20
4.737652485527476
 30
0.0
 11
15.22497139420302
 21
5.712248994788904
 31
0.0
  0
LINE
  5
1D024
330
1CFE6
100
AcDbEntity
  8
0
  6
CONTINUOUS
100
AcDbLine
 10
16.38362068022866
 20
5.227118917843457
 30
0.0
 11
15.40900056526648
 21
6.201739032805637
 31
0.0
  0
LINE
  5
1D025
330
1CFE6
100
AcDbEntity
  8
0
  6
CONTINUOUS
100
AcDbLine
 10
19.75630898193422
 20
2.527949825218081
 30
0.0
 11
18.70774536448286
 21
3.576513442669441
 31
0.0
  0
LINE
  5
1D026
330
1CFE6
100
AcDbEntity
  8
0
  6
CONTINUOUS
100
AcDbLine
 10
19.95588973270936
 20
3.001888283523134
 30
0.0
 11
18.90726987211446
 21
4.050508144118028
 31
0.0
  0
LINE
  5
1D027
330
1CFE6
100
AcDbEntity
  8
0
  6
CONTINUOUS
100
AcDbLine
 10
20.15547048348449
 20
3.475826741828186
 30
0.0
 11
19.10679437974606
 21
4.524502845566614
 31
0.0
  0
LINE
  5
1D028
330
1CFE6
100
AcDbEntity
  8
0
  6
CONTINUOUS
100
AcDbLine
 10
20.35505123425962
 20
3.94976520013324
 30
0.0
 11
19.30631888737766
 21
4.998497547015201
 31
0.0
  0
LINE
  5
1D029
330
1CFE6
100
AcDbEntity
  8
0
  6
CONTINUOUS
100
AcDbLine
 10
20.55463198503475
 20
4.423703658438292
 30
0.0
 11
19.50584339500926
 21
5.472492248463787
 31
0.0
  0
LINE
  5
1D02A
330
1CFE6
100
AcDbEntity
  8
0
  6
CONTINUOUS
100
AcDbLine
 10
18.37481191085755
 20
3.909446896294752
 30
0.0
 11
15.59302973632993
 21
6.691229070822371
 31
0.0
  0
LINE
  5
1D02B
330
1CFE6
100
AcDbEntity
  8
0
  6
CONTINUOUS
100
AcDbLine
 10
17.96904084440766
 20
4.988737171824825
 30
0.0
 11
15.77705890739338
 21
7.180719108839104
 31
0.0
  0
LINE
  5
1D02C
330
1CFE6
100
AcDbEntity
  8
0
  6
CONTINUOUS
100
AcDbLine
 10
17.56326977795777
 20
6.068027447354899
 30
0.0
 11
15.96108807845684
 21
7.670209146855838
 31
0.0
  0
LINE
  5
1D02D
330
1CFE6
100
AcDbEntity
  8
0
  6
CONTINUOUS
100
AcDbLine
 10
17.15749871150789
 20
7.147317722884972
 30
0.0
 11
16.14511724952029
 21
8.15969918487257
 31
0.0
  0
LINE
  5
1D02E
330
1CFE6
100
AcDbEntity
  8
0
  6
CONTINUOUS
100
AcDbLine
 10
16.751727645058
 20
8.226607998415046
 30
0.0
 11
16.32914642058374
 21
8.649189222889303
 31
0.0
  0
LINE
  5
1D02F
330
1CFE6
100
AcDbEntity
  8
0
  6
CONTINUOUS
100
AcDbLine
 10
20.75421273580989
 20
4.897642116743345
 30
0.0
 11
19.70536790264086
 21
5.946486949912374
 31
0.0
  0
LINE
  5
1D030
330
1CFE6
100
AcDbEntity
  8
0
  6
CONTINUOUS
100
AcDbLine
 10
20.95379348658502
 20
5.371580575048398
 30
0.0
 11
19.90489241027246
 21
6.42048165136096
 31
0.0
  0
LINE
  5
1D031
330
1CFE6
100
AcDbEntity
  8
0
  6
CONTINUOUS
100
AcDbLine
 10
21.15337423736015
 20
5.845519033353452
 30
0.0
 11
20.10441691790406
 21
6.894476352809547
 31
0.0
  0
LINE
  5
1D032
330
1CFE6
100
AcDbEntity
  8
0
  6
CONTINUOUS
100
AcDbLine
 10
21.35295498813529
 20
6.319457491658505
 30
0.0
 11
20.30394142553566
 21
7.368471054258134
 31
0.0
  0
LINE
  5
1D033
330
1CFE6
100
AcDbEntity
  8
0
  6
CONTINUOUS
100
AcDbLine
 10
21.55253573891042
 20
6.793395949963558
 30
0.0
 11
20.50346593316726
 21
7.842465755706721
 31
0.0
  0
LINE
  5
1D034
330
1CFE6
100
AcDbEntity
  8
0
  6
CONTINUOUS
100
AcDbLine
 10
21.75211648968556
 20
7.267334408268612
 30
0.0
 11
20.70299044079886
 21
8.316460457155308
 31
0.0
  0
LINE
  5
1D035
330
1CFE6
100
AcDbEntity
  8
0
  6
CONTINUOUS
100
AcDbLine
 10
21.95169724046069
 20
7.741272866573663
 30
0.0
 11
20.9298701070431
 21
8.763099999991256
 31
0.0
  0
LINE
  5
1D036
330
1CFE6
100
AcDbEntity
  8
0
  6
CONTINUOUS
100
AcDbLine
 10
22.15127799123582
 20
8.215211324878716
 30
0.0
 11
21.60338931612328
 21
8.763099999991256
 31
0.0
  0
LINE
  5
1D037
330
1CFE6
100
AcDbEntity
  8
0
  6
CONTINUOUS
100
AcDbLine
 10
22.35085874201096
 20
8.689149783183769
 30
0.0
 11
22.27690852520347
 21
8.763099999991255
 31
0.0
  0
ENDBLK
  5
1D129
330
1CFE6
100
AcDbEntity
  8
0
100
AcDbBlockEnd
  0
BLOCK
  5
1D12A
330
1D038
100
AcDbEntity
  8
0
100
AcDbBlockBegin
  2
*X38
 70
     1
 10
0.0
 20
0.0
 30
0.0
  3
*X38
  1

  0
LINE
  5
1D039
330
1D038
100
AcDbEntity
  8
0
  6
CONTINUOUS
100
AcDbLine
 10
23.19462913593892
 20
8.169917934846424
 30
0.0
 11
23.70775465517246
 21
8.683043454079957
 31
0.0
  0
LINE
  5
1D03A
330
1D038
100
AcDbEntity
  8
0
  6
CONTINUOUS
100
AcDbLine
 10
22.64923161835078
 20
6.951001208178088
 30
0.0
 11
23.9159364069932
 21
8.217705996820516
 31
0.0
  0
LINE
  5
1D03B
330
1D038
100
AcDbEntity
  8
0
  6
CONTINUOUS
100
AcDbLine
 10
22.10383410076263
 20
5.732084481509751
 30
0.0
 11
24.12411815881395
 21
7.752368539561078
 31
0.0
  0
LINE
  5
1D03C
330
1D038
100
AcDbEntity
  8
0
  6
CONTINUOUS
100
AcDbLine
 10
21.55843658317447
 20
4.513167754841414
 30
0.0
 11
24.3322999106347
 21
7.287031082301639
 31
0.0
  0
LINE
  5
1D03D
330
1D038
100
AcDbEntity
  8
0
  6
CONTINUOUS
100
AcDbLine
 10
21.01303906558632
 20
3.294251028173077
 30
0.0
 11
24.54048166245544
 21
6.821693625042199
 31
0.0
  0
LINE
  5
1D03E
330
1D038
100
AcDbEntity
  8
0
  6
CONTINUOUS
100
AcDbLine
 10
20.46764154799817
 20
2.075334301504738
 30
0.0
 11
23.28571549467848
 21
4.89340824818505
 31
0.0
  0
LINE
  5
1D03F
330
1D038
100
AcDbEntity
  8
0
  6
CONTINUOUS
100
AcDbLine
 10
19.92224403041002
 20
0.8564175748364002
 30
0.0
 11
22.74075865492779
 21
3.674932199354171
 31
0.0
  0
LINE
  5
1D040
330
1D038
100
AcDbEntity
  8
0
  6
CONTINUOUS
100
AcDbLine
 10
23.67305085490148
 20
5.280743608408048
 30
0.0
 11
24.74866341427619
 21
6.356356167782759
 31
0.0
  0
LINE
  5
1D041
330
1D038
100
AcDbEntity
  8
0
  6
CONTINUOUS
100
AcDbLine
 10
23.88118970842314
 20
4.815363252849522
 30
0.0
 11
24.95684516609694
 21
5.89101871052332
 31
0.0
  0
LINE
  5
1D042
330
1D038
100
AcDbEntity
  8
0
  6
CONTINUOUS
100
AcDbLine
 10
19.73925852647308
 20
-0.0000871381807288
 30
0.0
 11
23.4103456646501
 21
3.670999999996297
 31
0.0
  0
LINE
  5
1D043
330
1D038
100
AcDbEntity
  8
0
  6
CONTINUOUS
100
AcDbLine
 10
24.0893285619448
 20
4.349982897290997
 30
0.0
 11
25.16502691791769
 21
5.42568125326388
 31
0.0
  0
LINE
  5
1D044
330
1D038
100
AcDbEntity
  8
0
  6
CONTINUOUS
100
AcDbLine
 10
20.41282099582748
 20
-0.0000438779065108
 30
0.0
 11
21.64944178675636
 21
1.236576913022366
 31
0.0
  0
LINE
  5
1D045
330
1D038
100
AcDbEntity
  8
0
  6
CONTINUOUS
100
AcDbLine
 10
22.78126487373161
 20
2.36839999999762
 30
0.0
 11
24.08386487373029
 21
3.670999999996297
 31
0.0
  0
LINE
  5
1D046
330
1D038
100
AcDbEntity
  8
0
  6
CONTINUOUS
100
AcDbLine
 10
24.29746741546646
 20
3.884602541732471
 30
0.0
 11
25.37320866973843
 21
4.960343796004441
 31
0.0
  0
LINE
  5
1D047
330
1D038
100
AcDbEntity
  8
0
  6
CONTINUOUS
100
AcDbLine
 10
21.08638346518189
 20
-0.0000006176322938
 30
0.0
 11
21.10379033335899
 21
0.0174062505448083
 31
0.0
  0
LINE
  5
1D048
330
1D038
100
AcDbEntity
  8
0
  6
CONTINUOUS
100
AcDbLine
 10
23.4547840828118
 20
2.36839999999762
 30
0.0
 11
25.58139042155918
 21
4.495006338745002
 31
0.0
  0
LINE
  5
1D049
330
1D038
100
AcDbEntity
  8
0
  6
CONTINUOUS
100
AcDbLine
 10
29.30199999996933
 20
8.215615917155148
 30
0.0
 11
29.84948408280543
 21
8.763099999991255
 31
0.0
  0
LINE
  5
1D04A
330
1D038
100
AcDbEntity
  8
0
  6
CONTINUOUS
100
AcDbLine
 10
24.12830329189199
 20
2.36839999999762
 30
0.0
 11
25.78957217337993
 21
4.029668881485562
 31
0.0
  0
LINE
  5
1D04B
330
1D038
100
AcDbEntity
  8
0
  6
CONTINUOUS
100
AcDbLine
 10
29.30199999996933
 20
7.54209670807496
 30
0.0
 11
30.52300329188562
 21
8.763099999991255
 31
0.0
  0
LINE
  5
1D04C
330
1D038
100
AcDbEntity
  8
0
  6
CONTINUOUS
100
AcDbLine
 10
24.80182250097217
 20
2.36839999999762
 30
0.0
 11
25.99775392520067
 21
3.564331424226122
 31
0.0
  0
LINE
  5
1D04D
330
1D038
100
AcDbEntity
  8
0
  6
CONTINUOUS
100
AcDbLine
 10
29.30199999996933
 20
6.868577498994774
 30
0.0
 11
30.74199999996926
 21
8.308577498994712
 31
0.0
  0
LINE
  5
1D04E
330
1D038
100
AcDbEntity
  8
0
  6
CONTINUOUS
100
AcDbLine
 10
25.13028238392013
 20
2.023340673865392
 30
0.0
 11
26.20593567702142
 21
3.098993966966683
 31
0.0
  0
LINE
  5
1D04F
330
1D038
100
AcDbEntity
  8
0
  6
CONTINUOUS
100
AcDbLine
 10
25.33838066033617
 20
1.557919741201244
 30
0.0
 11
26.41411742884217
 21
2.633656509707244
 31
0.0
  0
LINE
  5
1D050
330
1D038
100
AcDbEntity
  8
0
  6
CONTINUOUS
100
AcDbLine
 10
25.54647893675221
 20
1.092498808537098
 30
0.0
 11
26.62229918066291
 21
2.168319052447804
 31
0.0
  0
LINE
  5
1D051
330
1D038
100
AcDbEntity
  8
0
  6
CONTINUOUS
100
AcDbLine
 10
25.75457721316825
 20
0.62707787587295
 30
0.0
 11
26.83048093248366
 21
1.702981595188365
 31
0.0
  0
LINE
  5
1D052
330
1D038
100
AcDbEntity
  8
0
  6
CONTINUOUS
100
AcDbLine
 10
29.30199999996933
 20
6.195058289914587
 30
0.0
 11
30.74199999996926
 21
7.635058289914522
 31
0.0
  0
LINE
  5
1D053
330
1D038
100
AcDbEntity
  8
0
  6
CONTINUOUS
100
AcDbLine
 10
29.30199999996933
 20
5.521539080834401
 30
0.0
 11
30.74199999996926
 21
6.961539080834331
 31
0.0
  0
LINE
  5
1D054
330
1D038
100
AcDbEntity
  8
0
  6
CONTINUOUS
100
AcDbLine
 10
29.30199999996933
 20
4.848019871754214
 30
0.0
 11
30.74199999996925
 21
6.288019871754143
 31
0.0
  0
LINE
  5
1D055
330
1D038
100
AcDbEntity
  8
0
  6
CONTINUOUS
100
AcDbLine
 10
29.30199999996933
 20
4.174500662674028
 30
0.0
 11
30.74199999996925
 21
5.614500662673953
 31
0.0
  0
LINE
  5
1D056
330
1D038
100
AcDbEntity
  8
0
  6
CONTINUOUS
100
AcDbLine
 10
25.96267548958429
 20
0.1616569432088024
 30
0.0
 11
27.18411854636669
 21
1.383099999991207
 31
0.0
  0
LINE
  5
1D057
330
1D038
100
AcDbEntity
  8
0
  6
CONTINUOUS
100
AcDbLine
 10
29.30199999996933
 20
3.500981453593841
 30
0.0
 11
30.74199999996925
 21
4.940981453593762
 31
0.0
  0
LINE
  5
1D058
330
1D038
100
AcDbEntity
  8
0
  6
CONTINUOUS
100
AcDbLine
 10
26.50763775544691
 20
0.0330999999912356
 30
0.0
 11
27.85763775544689
 21
1.383099999991223
 31
0.0
  0
LINE
  5
1D059
330
1D038
100
AcDbEntity
  8
0
  6
CONTINUOUS
100
AcDbLine
 10
29.30199999996933
 20
2.827462244513656
 30
0.0
 11
30.74199999996925
 21
4.267462244513574
 31
0.0
  0
LINE
  5
1D05A
330
1D038
100
AcDbEntity
  8
0
  6
CONTINUOUS
100
AcDbLine
 10
27.18115696452709
 20
0.0330999999912356
 30
0.0
 11
28.55073879889363
 21
1.402681834357775
 31
0.0
  0
LINE
  5
1D05B
330
1D038
100
AcDbEntity
  8
0
  6
CONTINUOUS
100
AcDbLine
 10
29.28241816560272
 20
2.134361201066866
 30
0.0
 11
30.74199999996924
 21
3.593943035433383
 31
0.0
  0
LINE
  5
1D05C
330
1D038
100
AcDbEntity
  8
0
  6
CONTINUOUS
100
AcDbLine
 10
27.85467617360728
 20
0.0330999999912356
 30
0.0
 11
30.74199999996924
 21
2.920423826353195
 31
0.0
  0
LINE
  5
1D05D
330
1D038
100
AcDbEntity
  8
0
  6
CONTINUOUS
100
AcDbLine
 10
28.53897559587887
 20
0.0438802131826428
 30
0.0
 11
30.73121978677781
 21
2.236124404081585
 31
0.0
  0
LINE
  5
1D05E
330
1D038
100
AcDbEntity
  8
0
  6
CONTINUOUS
100
AcDbLine
 10
29.45140055588722
 20
0.2827859641107988
 30
0.0
 11
30.49231403584965
 21
1.323699444073236
 31
0.0
  0
LINE
  5
1D05F
330
1D038
100
AcDbEntity
  8
0
  6
CONTINUOUS
100
AcDbLine
 10
19.59027867740337
 20
-0.0000967065718083
 30
0.0
 11
19.55485265190471
 21
0.035329318926844
 31
0.0
  0
LINE
  5
1D060
330
1D038
100
AcDbEntity
  8
0
  6
CONTINUOUS
100
AcDbLine
 10
20.26375463176586
 20
-0.0000534518541091
 30
0.0
 11
19.76305575737534
 21
0.5006454225364014
 31
0.0
  0
LINE
  5
1D061
330
1D038
100
AcDbEntity
  8
0
  6
CONTINUOUS
100
AcDbLine
 10
20.93723058612834
 20
-0.0000101971364099
 30
0.0
 11
19.97125886284597
 21
0.965961526145958
 31
0.0
  0
LINE
  5
1D062
330
1D038
100
AcDbEntity
  8
0
  6
CONTINUOUS
100
AcDbLine
 10
21.25514828313686
 20
0.355591314935257
 30
0.0
 11
20.1794619683166
 21
1.431277629755512
 31
0.0
  0
LINE
  5
1D063
330
1D038
100
AcDbEntity
  8
0
  6
CONTINUOUS
100
AcDbLine
 10
21.46338838394921
 20
0.8208704232030986
 30
0.0
 11
20.38766507378723
 21
1.896593733365069
 31
0.0
  0
LINE
  5
1D064
330
1D038
100
AcDbEntity
  8
0
  6
CONTINUOUS
100
AcDbLine
 10
21.67162848476155
 20
1.28614953147094
 30
0.0
 11
20.59586817925786
 21
2.361909836974626
 31
0.0
  0
LINE
  5
1D065
330
1D038
100
AcDbEntity
  8
0
  6
CONTINUOUS
100
AcDbLine
 10
21.8798685855739
 20
1.751428639738782
 30
0.0
 11
20.80407128472849
 21
2.827225940584183
 31
0.0
  0
LINE
  5
1D066
330
1D038
100
AcDbEntity
  8
0
  6
CONTINUOUS
100
AcDbLine
 10
22.08810868638624
 20
2.216707748006623
 30
0.0
 11
21.01227439019912
 21
3.292542044193739
 31
0.0
  0
LINE
  5
1D067
330
1D038
100
AcDbEntity
  8
0
  6
CONTINUOUS
100
AcDbLine
 10
22.60993564347543
 20
2.36839999999762
 30
0.0
 11
21.22047749566975
 21
3.757858147803296
 31
0.0
  0
LINE
  5
1D068
330
1D038
100
AcDbEntity
  8
0
  6
CONTINUOUS
100
AcDbLine
 10
23.28345485255561
 20
2.36839999999762
 30
0.0
 11
21.42868060114038
 21
4.223174251412853
 31
0.0
  0
LINE
  5
1D069
330
1D038
100
AcDbEntity
  8
0
  6
CONTINUOUS
100
AcDbLine
 10
26.29227406164219
 20
0.0330999999912356
 30
0.0
 11
25.80009199592872
 21
0.5252820657046957
 31
0.0
  0
LINE
  5
1D06A
330
1D038
100
AcDbEntity
  8
0
  6
CONTINUOUS
100
AcDbLine
 10
23.9569740616358
 20
2.36839999999762
 30
0.0
 11
21.63688370661101
 21
4.688490355022409
 31
0.0
  0
LINE
  5
1D06B
330
1D038
100
AcDbEntity
  8
0
  6
CONTINUOUS
100
AcDbLine
 10
26.96579327072237
 20
0.0330999999912356
 30
0.0
 11
25.2554132311971
 21
1.743480039516508
 31
0.0
  0
LINE
  5
1D06C
330
1D038
100
AcDbEntity
  8
0
  6
CONTINUOUS
100
AcDbLine
 10
24.63049327071599
 20
2.36839999999762
 30
0.0
 11
23.32789327071731
 21
3.670999999996297
 31
0.0
  0
LINE
  5
1D06D
330
1D038
100
AcDbEntity
  8
0
  6
CONTINUOUS
100
AcDbLine
 10
22.92098674744635
 20
4.077906523267254
 30
0.0
 11
21.84508681208164
 21
5.153806458631966
 31
0.0
  0
LINE
  5
1D06E
330
1D038
100
AcDbEntity
  8
0
  6
CONTINUOUS
100
AcDbLine
 10
27.63931247980256
 20
0.0330999999912356
 30
0.0
 11
24.0014124797975
 21
3.670999999996297
 31
0.0
  0
LINE
  5
1D06F
330
1D038
100
AcDbEntity
  8
0
  6
CONTINUOUS
100
AcDbLine
 10
23.129125600968
 20
4.5432868788258
 30
0.0
 11
22.05328991755227
 21
5.619122562241522
 31
0.0
  0
LINE
  5
1D070
330
1D038
100
AcDbEntity
  8
0
  6
CONTINUOUS
100
AcDbLine
 10
28.31283168888275
 20
0.0330999999912356
 30
0.0
 11
24.16488385994816
 21
4.181047828925828
 31
0.0
  0
LINE
  5
1D071
330
1D038
100
AcDbEntity
  8
0
  6
CONTINUOUS
100
AcDbLine
 10
23.33726445448964
 20
5.008667234384345
 30
0.0
 11
22.2614930230229
 21
6.084438665851079
 31
0.0
  0
LINE
  5
1D072
330
1D038
100
AcDbEntity
  8
0
  6
CONTINUOUS
100
AcDbLine
 10
28.92085740005492
 20
0.0985934978992438
 30
0.0
 11
27.63635089796295
 21
1.383099999991217
 31
0.0
  0
LINE
  5
1D073
330
1D038
100
AcDbEntity
  8
0
  6
CONTINUOUS
100
AcDbLine
 10
26.43704649509776
 20
2.582404402856405
 30
0.0
 11
23.61992702019732
 21
5.399523877756844
 31
0.0
  0
LINE
  5
1D074
330
1D038
100
AcDbEntity
  8
0
  6
CONTINUOUS
100
AcDbLine
 10
23.54540330801128
 20
5.47404758994289
 30
0.0
 11
22.46969612849353
 21
6.549754769460635
 31
0.0
  0
LINE
  5
1D075
330
1D038
100
AcDbEntity
  8
0
  6
CONTINUOUS
100
AcDbLine
 10
29.42225615078443
 20
0.2707139562499279
 30
0.0
 11
28.30987010704312
 21
1.383099999991234
 31
0.0
  0
LINE
  5
1D076
330
1D038
100
AcDbEntity
  8
0
  6
CONTINUOUS
100
AcDbLine
 10
25.89179548232307
 20
3.801174624711282
 30
0.0
 11
22.67789923396416
 21
7.015070873070191
 31
0.0
  0
LINE
  5
1D077
330
1D038
100
AcDbEntity
  8
0
  6
CONTINUOUS
100
AcDbLine
 10
29.83624534690007
 20
0.5302439692144705
 30
0.0
 11
28.85811781497101
 21
1.508371501143527
 31
0.0
  0
LINE
  5
1D078
330
1D038
100
AcDbEntity
  8
0
  6
CONTINUOUS
100
AcDbLine
 10
25.34654446954838
 20
5.01994484656616
 30
0.0
 11
22.88610233943479
 21
7.480386976679748
 31
0.0
  0
LINE
  5
1D079
330
1D038
100
AcDbEntity
  8
0
  6
CONTINUOUS
100
AcDbLine
 10
30.17865975401872
 20
0.8613487711760022
 30
0.0
 11
29.18888744090175
 21
1.851121084292977
 31
0.0
  0
LINE
  5
1D07A
330
1D038
100
AcDbEntity
  8
0
  6
CONTINUOUS
100
AcDbLine
 10
24.80129345677369
 20
6.238715068421037
 30
0.0
 11
23.09430544490542
 21
7.945703080289305
 31
0.0
  0
LINE
  5
1D07B
330
1D038
100
AcDbEntity
  8
0
  6
CONTINUOUS
100
AcDbLine
 10
30.45496647202376
 20
1.258561262251155
 30
0.0
 11
29.30199999996933
 21
2.411527734305588
 31
0.0
  0
LINE
  5
1D07C
330
1D038
100
AcDbEntity
  8
0
  6
CONTINUOUS
100
AcDbLine
 10
24.256042443999
 20
7.457485290275915
 30
0.0
 11
23.30250855037605
 21
8.411019183898862
 31
0.0
  0
LINE
  5
1D07D
330
1D038
100
AcDbEntity
  8
0
  6
CONTINUOUS
100
AcDbLine
 10
30.64868582078271
 20
1.738361122572387
 30
0.0
 11
29.30199999996933
 21
3.085046943385775
 31
0.0
  0
LINE
  5
1D07E
330
1D038
100
AcDbEntity
  8
0
  6
CONTINUOUS
100
AcDbLine
 10
23.71079143122431
 20
8.676255512130794
 30
0.0
 11
23.51071165584668
 21
8.876335287508416
 31
0.0
  0
LINE
  5
1D07F
330
1D038
100
AcDbEntity
  8
0
  6
CONTINUOUS
100
AcDbLine
 10
30.73802122914428
 20
2.322544923291007
 30
0.0
 11
29.30199999996933
 21
3.758566152465961
 31
0.0
  0
LINE
  5
1D080
330
1D038
100
AcDbEntity
  8
0
  6
CONTINUOUS
100
AcDbLine
 10
30.74199999996924
 20
2.992085361546236
 30
0.0
 11
29.30199999996933
 21
4.432085361546148
 31
0.0
  0
LINE
  5
1D081
330
1D038
100
AcDbEntity
  8
0
  6
CONTINUOUS
100
AcDbLine
 10
30.74199999996924
 20
3.665604570626419
 30
0.0
 11
29.30199999996933
 21
5.105604570626333
 31
0.0
  0
LINE
  5
1D082
330
1D038
100
AcDbEntity
  8
0
  6
CONTINUOUS
100
AcDbLine
 10
30.74199999996925
 20
4.339123779706602
 30
0.0
 11
29.30199999996933
 21
5.77912377970652
 31
0.0
  0
LINE
  5
1D083
330
1D038
100
AcDbEntity
  8
0
  6
CONTINUOUS
100
AcDbLine
 10
30.74199999996925
 20
5.012642988786785
 30
0.0
 11
29.30199999996933
 21
6.452642988786707
 31
0.0
  0
LINE
  5
1D084
330
1D038
100
AcDbEntity
  8
0
  6
CONTINUOUS
100
AcDbLine
 10
30.74199999996925
 20
5.68616219786697
 30
0.0
 11
29.30199999996933
 21
7.126162197866894
 31
0.0
  0
LINE
  5
1D085
330
1D038
100
AcDbEntity
  8
0
  6
CONTINUOUS
100
AcDbLine
 10
30.74199999996925
 20
6.359681406947153
 30
0.0
 11
29.30199999996933
 21
7.799681406947081
 31
0.0
  0
LINE
  5
1D086
330
1D038
100
AcDbEntity
  8
0
  6
CONTINUOUS
100
AcDbLine
 10
30.74199999996926
 20
7.033200616027337
 30
0.0
 11
29.30199999996933
 21
8.473200616027269
 31
0.0
  0
LINE
  5
1D087
330
1D038
100
AcDbEntity
  8
0
  6
CONTINUOUS
100
AcDbLine
 10
30.74199999996926
 20
7.706719825107518
 30
0.0
 11
29.68561982508552
 21
8.763099999991255
 31
0.0
  0
LINE
  5
1D088
330
1D038
100
AcDbEntity
  8
0
  6
CONTINUOUS
100
AcDbLine
 10
30.74199999996926
 20
8.380239034187703
 30
0.0
 11
30.35913903416571
 21
8.763099999991255
 31
0.0
  0
ENDBLK
  5
1D12B
330
1D038
100
AcDbEntity
  8
0
100
AcDbBlockEnd
  0
BLOCK
  5
1D12C
330
1D089
100
AcDbEntity
  8
0
100
AcDbBlockBegin
  2
*X39
 70
     1
 10
0.0
 20
0.0
 30
0.0
  3
*X39
  1

  0
LINE
  5
1D08A
330
1D089
100
AcDbEntity
  8
0
  6
CONTINUOUS
100
AcDbLine
 10
31.64199999996833
 20
8.535058289913598
 30
0.0
 11
31.87004171004599
 21
8.763099999991255
 31
0.0
  0
LINE
  5
1D08B
330
1D089
100
AcDbEntity
  8
0
  6
CONTINUOUS
100
AcDbLine
 10
31.64199999996833
 20
7.861539080833412
 30
0.0
 11
32.54356091912618
 21
8.763099999991255
 31
0.0
  0
LINE
  5
1D08C
330
1D089
100
AcDbEntity
  8
0
  6
CONTINUOUS
100
AcDbLine
 10
31.64199999996833
 20
7.188019871753226
 30
0.0
 11
33.08199999996839
 21
8.628019871753281
 31
0.0
  0
LINE
  5
1D08D
330
1D089
100
AcDbEntity
  8
0
  6
CONTINUOUS
100
AcDbLine
 10
31.64199999996833
 20
6.51450066267304
 30
0.0
 11
33.08199999996839
 21
7.954500662673095
 31
0.0
  0
LINE
  5
1D08E
330
1D089
100
AcDbEntity
  8
0
  6
CONTINUOUS
100
AcDbLine
 10
31.64199999996833
 20
5.840981453592853
 30
0.0
 11
33.08199999996839
 21
7.280981453592908
 31
0.0
  0
LINE
  5
1D08F
330
1D089
100
AcDbEntity
  8
0
  6
CONTINUOUS
100
AcDbLine
 10
31.64199999996833
 20
5.167462244512667
 30
0.0
 11
33.08199999996839
 21
6.607462244512721
 31
0.0
  0
LINE
  5
1D090
330
1D089
100
AcDbEntity
  8
0
  6
CONTINUOUS
100
AcDbLine
 10
31.64199999996833
 20
4.493943035432481
 30
0.0
 11
33.08199999996839
 21
5.933943035432535
 31
0.0
  0
LINE
  5
1D091
330
1D089
100
AcDbEntity
  8
0
  6
CONTINUOUS
100
AcDbLine
 10
31.64199999996833
 20
3.820423826352293
 30
0.0
 11
33.08199999996839
 21
5.260423826352348
 31
0.0
  0
LINE
  5
1D092
330
1D089
100
AcDbEntity
  8
0
  6
CONTINUOUS
100
AcDbLine
 10
31.64199999996833
 20
3.146904617272106
 30
0.0
 11
33.08199999996839
 21
4.586904617272161
 31
0.0
  0
LINE
  5
1D093
330
1D089
100
AcDbEntity
  8
0
  6
CONTINUOUS
100
AcDbLine
 10
36.23199999996837
 20
8.410423826352325
 30
0.0
 11
36.5846761736073
 21
8.763099999991255
 31
0.0
  0
LINE
  5
1D094
330
1D089
100
AcDbEntity
  8
0
  6
CONTINUOUS
100
AcDbLine
 10
36.23199999996837
 20
7.73690461727214
 30
0.0
 11
37.25819538268748
 21
8.763099999991255
 31
0.0
  0
LINE
  5
1D095
330
1D089
100
AcDbEntity
  8
0
  6
CONTINUOUS
100
AcDbLine
 10
31.64257403601376
 20
2.473959444237348
 30
0.0
 11
33.08199999996839
 21
3.913385408191974
 31
0.0
  0
LINE
  5
1D096
330
1D089
100
AcDbEntity
  8
0
  6
CONTINUOUS
100
AcDbLine
 10
36.23199999996837
 20
7.063385408191953
 30
0.0
 11
37.67199999996831
 21
8.503385408191894
 31
0.0
  0
LINE
  5
1D097
330
1D089
100
AcDbEntity
  8
0
  6
CONTINUOUS
100
AcDbLine
 10
31.72013636841932
 20
1.87800256756272
 30
0.0
 11
33.08199999996839
 21
3.239866199111788
 31
0.0
  0
LINE
  5
1D098
330
1D089
100
AcDbEntity
  8
0
  6
CONTINUOUS
100
AcDbLine
 10
36.23199999996837
 20
6.389866199111767
 30
0.0
 11
37.67199999996831
 21
7.829866199111708
 31
0.0
  0
LINE
  5
1D099
330
1D089
100
AcDbEntity
  8
0
  6
CONTINUOUS
100
AcDbLine
 10
31.89042734314753
 20
1.374774333210744
 30
0.0
 11
33.08199999996839
 21
2.566346990031601
 31
0.0
  0
LINE
  5
1D09A
330
1D089
100
AcDbEntity
  8
0
  6
CONTINUOUS
100
AcDbLine
 10
36.23199999996837
 20
5.71634699003158
 30
0.0
 11
37.67199999996831
 21
7.156346990031521
 31
0.0
  0
LINE
  5
1D09B
330
1D089
100
AcDbEntity
  8
0
  6
CONTINUOUS
100
AcDbLine
 10
32.14210568064475
 20
0.952933461627778
 30
0.0
 11
33.18745552475986
 21
1.998283305742888
 31
0.0
  0
LINE
  5
1D09C
330
1D089
100
AcDbEntity
  8
0
  6
CONTINUOUS
100
AcDbLine
 10
36.23199999996837
 20
5.042827780951393
 30
0.0
 11
37.67199999996831
 21
6.482827780951334
 31
0.0
  0
LINE
  5
1D09D
330
1D089
100
AcDbEntity
  8
0
  6
CONTINUOUS
100
AcDbLine
 10
32.45820639400955
 20
0.5955149659123915
 30
0.0
 11
33.47242681921943
 21
1.60973539112227
 31
0.0
  0
LINE
  5
1D09E
330
1D089
100
AcDbEntity
  8
0
  6
CONTINUOUS
100
AcDbLine
 10
36.23199999996837
 20
4.369308571871207
 30
0.0
 11
37.67199999996831
 21
5.809308571871147
 31
0.0
  0
LINE
  5
1D09F
330
1D089
100
AcDbEntity
  8
0
  6
CONTINUOUS
100
AcDbLine
 10
32.83432456621412
 20
0.2981139290367771
 30
0.0
 11
33.89722476612215
 21
1.361014128944803
 31
0.0
  0
LINE
  5
1D0A0
330
1D089
100
AcDbEntity
  8
0
  6
CONTINUOUS
100
AcDbLine
 10
36.23199999996837
 20
3.69578936279102
 30
0.0
 11
37.67199999996831
 21
5.135789362790962
 31
0.0
  0
LINE
  5
1D0A1
330
1D089
100
AcDbEntity
  8
0
  6
CONTINUOUS
100
AcDbLine
 10
33.2711633111245
 20
0.0614334648669672
 30
0.0
 11
34.43247338014423
 21
1.222743533886696
 31
0.0
  0
LINE
  5
1D0A2
330
1D089
100
AcDbEntity
  8
0
  6
CONTINUOUS
100
AcDbLine
 10
36.23199999996837
 20
3.022270153710834
 30
0.0
 11
37.67199999996831
 21
4.462270153710775
 31
0.0
  0
LINE
  5
1D0A3
330
1D089
100
AcDbEntity
  8
0
  6
CONTINUOUS
100
AcDbLine
 10
33.76515245874577
 20
-0.1180965965919523
 30
0.0
 11
35.1587445516215
 21
1.27549549628378
 31
0.0
  0
LINE
  5
1D0A4
330
1D089
100
AcDbEntity
  8
0
  6
CONTINUOUS
100
AcDbLine
 10
36.21639478609585
 20
2.333145730758136
 30
0.0
 11
37.67199999996831
 21
3.788750944630588
 31
0.0
  0
LINE
  5
1D0A5
330
1D089
100
AcDbEntity
  8
0
  6
CONTINUOUS
100
AcDbLine
 10
34.34060583368432
 20
-0.2161624307335863
 30
0.0
 11
37.67199999996831
 21
3.115231735550401
 31
0.0
  0
LINE
  5
1D0A6
330
1D089
100
AcDbEntity
  8
0
  6
CONTINUOUS
100
AcDbLine
 10
35.01698193613905
 20
-0.2133055373590427
 30
0.0
 11
37.66876712070525
 21
2.438479647207154
 31
0.0
  0
LINE
  5
1D0A7
330
1D089
100
AcDbEntity
  8
0
  6
CONTINUOUS
100
AcDbLine
 10
35.90743367693304
 20
0.0036269943547609
 30
0.0
 11
37.51723902192366
 21
1.613432339345381
 31
0.0
  0
LINE
  5
1D0A8
330
1D089
100
AcDbEntity
  8
0
  6
CONTINUOUS
100
AcDbLine
 10
32.55309425579761
 20
0.5074718966376706
 30
0.0
 11
32.27784730925847
 21
0.7827188431768102
 31
0.0
  0
LINE
  5
1D0A9
330
1D089
100
AcDbEntity
  8
0
  6
CONTINUOUS
100
AcDbLine
 10
33.87496468909684
 20
-0.1408793275813673
 30
0.0
 11
31.67993083278052
 21
2.054154528734943
 31
0.0
  0
LINE
  5
1D0AA
330
1D089
100
AcDbEntity
  8
0
  6
CONTINUOUS
100
AcDbLine
 10
34.64362813207632
 20
-0.2360235614806649
 30
0.0
 11
31.64199999996833
 21
2.765604570627322
 31
0.0
  0
LINE
  5
1D0AB
330
1D089
100
AcDbEntity
  8
0
  6
CONTINUOUS
100
AcDbLine
 10
35.25801106796118
 20
-0.1768872882853429
 30
0.0
 11
31.64199999996833
 21
3.439123779707508
 31
0.0
  0
LINE
  5
1D0AC
330
1D089
100
AcDbEntity
  8
0
  6
CONTINUOUS
100
AcDbLine
 10
35.79065650332146
 20
-0.0360135145654361
 30
0.0
 11
34.54143210838231
 21
1.213210880373721
 31
0.0
  0
LINE
  5
1D0AD
330
1D089
100
AcDbEntity
  8
0
  6
CONTINUOUS
100
AcDbLine
 10
33.08199999996839
 20
2.67264298878764
 30
0.0
 11
31.64199999996833
 21
4.112642988787695
 31
0.0
  0
LINE
  5
1D0AE
330
1D089
100
AcDbEntity
  8
0
  6
CONTINUOUS
100
AcDbLine
 10
36.25975597779143
 20
0.1684062200447833
 30
0.0
 11
35.15395110240023
 21
1.274211095435983
 31
0.0
  0
LINE
  5
1D0AF
330
1D089
100
AcDbEntity
  8
0
  6
CONTINUOUS
100
AcDbLine
 10
33.08199999996839
 20
3.346162197867826
 30
0.0
 11
31.64199999996833
 21
4.786162197867881
 31
0.0
  0
LINE
  5
1D0B0
330
1D089
100
AcDbEntity
  8
0
  6
CONTINUOUS
100
AcDbLine
 10
36.67226329638774
 20
0.4294181105286579
 30
0.0
 11
35.63766478748767
 21
1.464016619428737
 31
0.0
  0
LINE
  5
1D0B1
330
1D089
100
AcDbEntity
  8
0
  6
CONTINUOUS
100
AcDbLine
 10
33.08199999996839
 20
4.019681406948012
 30
0.0
 11
31.64199999996833
 21
5.459681406948068
 31
0.0
  0
LINE
  5
1D0B2
330
1D089
100
AcDbEntity
  8
0
  6
CONTINUOUS
100
AcDbLine
 10
37.01677749710036
 20
0.7584231188962329
 30
0.0
 11
35.99563422741351
 21
1.779566388583076
 31
0.0
  0
LINE
  5
1D0B3
330
1D089
100
AcDbEntity
  8
0
  6
CONTINUOUS
100
AcDbLine
 10
33.08199999996839
 20
4.693200616028199
 30
0.0
 11
31.64199999996833
 21
6.133200616028255
 31
0.0
  0
LINE
  5
1D0B4
330
1D089
100
AcDbEntity
  8
0
  6
CONTINUOUS
100
AcDbLine
 10
37.29859977568887
 20
1.1501200493879
 30
0.0
 11
36.20680593341555
 21
2.241913891661226
 31
0.0
  0
LINE
  5
1D0B5
330
1D089
100
AcDbEntity
  8
0
  6
CONTINUOUS
100
AcDbLine
 10
33.08199999996839
 20
5.366719825108386
 30
0.0
 11
31.64199999996833
 21
6.80671982510844
 31
0.0
  0
LINE
  5
1D0B6
330
1D089
100
AcDbEntity
  8
0
  6
CONTINUOUS
100
AcDbLine
 10
37.5148623517228
 20
1.607376682434161
 30
0.0
 11
36.23199999996837
 21
2.890239034188594
 31
0.0
  0
LINE
  5
1D0B7
330
1D089
100
AcDbEntity
  8
0
  6
CONTINUOUS
100
AcDbLine
 10
33.08199999996839
 20
6.040239034188573
 30
0.0
 11
31.64199999996833
 21
7.480239034188627
 31
0.0
  0
LINE
  5
1D0B8
330
1D089
100
AcDbEntity
  8
0
  6
CONTINUOUS
100
AcDbLine
 10
37.64705163358367
 20
2.148706609653477
 30
0.0
 11
36.23199999996837
 21
3.56375824326878
 31
0.0
  0
LINE
  5
1D0B9
330
1D089
100
AcDbEntity
  8
0
  6
CONTINUOUS
100
AcDbLine
 10
33.08199999996839
 20
6.713758243268758
 30
0.0
 11
31.64199999996833
 21
8.153758243268815
 31
0.0
  0
LINE
  5
1D0BA
330
1D089
100
AcDbEntity
  8
0
  6
CONTINUOUS
100
AcDbLine
 10
37.67199999996831
 20
2.797277452349026
 30
0.0
 11
36.23199999996837
 21
4.237277452348967
 31
0.0
  0
LINE
  5
1D0BB
330
1D089
100
AcDbEntity
  8
0
  6
CONTINUOUS
100
AcDbLine
 10
37.67199999996831
 20
3.470796661429213
 30
0.0
 11
36.23199999996837
 21
4.910796661429154
 31
0.0
  0
LINE
  5
1D0BC
330
1D089
100
AcDbEntity
  8
0
  6
CONTINUOUS
100
AcDbLine
 10
37.67199999996831
 20
4.144315870509399
 30
0.0
 11
36.23199999996837
 21
5.58431587050934
 31
0.0
  0
LINE
  5
1D0BD
330
1D089
100
AcDbEntity
  8
0
  6
CONTINUOUS
100
AcDbLine
 10
33.08199999996839
 20
7.387277452348945
 30
0.0
 11
31.70617745232608
 21
8.763099999991255
 31
0.0
  0
LINE
  5
1D0BE
330
1D089
100
AcDbEntity
  8
0
  6
CONTINUOUS
100
AcDbLine
 10
33.08199999996839
 20
8.060796661429132
 30
0.0
 11
32.37969666140626
 21
8.763099999991255
 31
0.0
  0
LINE
  5
1D0BF
330
1D089
100
AcDbEntity
  8
0
  6
CONTINUOUS
100
AcDbLine
 10
33.08199999996839
 20
8.734315870509318
 30
0.0
 11
33.05321587048645
 21
8.763099999991255
 31
0.0
  0
LINE
  5
1D0C0
330
1D089
100
AcDbEntity
  8
0
  6
CONTINUOUS
100
AcDbLine
 10
37.67199999996831
 20
4.817835079589585
 30
0.0
 11
36.23199999996837
 21
6.257835079589526
 31
0.0
  0
LINE
  5
1D0C1
330
1D089
100
AcDbEntity
  8
0
  6
CONTINUOUS
100
AcDbLine
 10
37.67199999996831
 20
5.491354288669771
 30
0.0
 11
36.23199999996837
 21
6.931354288669713
 31
0.0
  0
LINE
  5
1D0C2
330
1D089
100
AcDbEntity
  8
0
  6
CONTINUOUS
100
AcDbLine
 10
37.67199999996831
 20
6.164873497749958
 30
0.0
 11
36.23199999996837
 21
7.6048734977499
 31
0.0
  0
LINE
  5
1D0C3
330
1D089
100
AcDbEntity
  8
0
  6
CONTINUOUS
100
AcDbLine
 10
37.67199999996831
 20
6.838392706830144
 30
0.0
 11
36.23199999996837
 21
8.278392706830086
 31
0.0
  0
LINE
  5
1D0C4
330
1D089
100
AcDbEntity
  8
0
  6
CONTINUOUS
100
AcDbLine
 10
37.67199999996831
 20
7.511911915910332
 30
0.0
 11
36.42081191588738
 21
8.763099999991255
 31
0.0
  0
LINE
  5
1D0C5
330
1D089
100
AcDbEntity
  8
0
  6
CONTINUOUS
100
AcDbLine
 10
37.67199999996831
 20
8.185431124990519
 30
0.0
 11
37.09433112496757
 21
8.763099999991255
 31
0.0
  0
ENDBLK
  5
1D12D
330
1D089
100
AcDbEntity
  8
0
100
AcDbBlockEnd
  0
BLOCK
  5
1D12E
330
1D0C6
100
AcDbEntity
  8
0
100
AcDbBlockBegin
  2
*X40
 70
     1
 10
0.0
 20
0.0
 30
0.0
  3
*X40
  1

  0
LINE
  5
1D0C7
330
1D0C6
100
AcDbEntity
  8
0
  6
CONTINUOUS
100
AcDbLine
 10
38.60499999996136
 20
8.762866199104765
 30
0.0
 11
38.71672554182345
 21
8.874591740966855
 31
0.0
  0
LINE
  5
1D0C8
330
1D0C6
100
AcDbEntity
  8
0
  6
CONTINUOUS
100
AcDbLine
 10
38.60499999996136
 20
8.089346990024577
 30
0.0
 11
39.03418785440363
 21
8.518534844466847
 31
0.0
  0
LINE
  5
1D0C9
330
1D0C6
100
AcDbEntity
  8
0
  6
CONTINUOUS
100
AcDbLine
 10
38.60499999996136
 20
7.41582778094439
 30
0.0
 11
39.35165016698382
 21
8.16247794796684
 31
0.0
  0
LINE
  5
1D0CA
330
1D0C6
100
AcDbEntity
  8
0
  6
CONTINUOUS
100
AcDbLine
 10
38.60499999996136
 20
6.742308571864204
 30
0.0
 11
39.66911247956399
 21
7.806421051466834
 31
0.0
  0
LINE
  5
1D0CB
330
1D0C6
100
AcDbEntity
  8
0
  6
CONTINUOUS
100
AcDbLine
 10
38.60499999996136
 20
6.068789362784018
 30
0.0
 11
39.98657479214418
 21
7.450364154966827
 31
0.0
  0
LINE
  5
1D0CC
330
1D0C6
100
AcDbEntity
  8
0
  6
CONTINUOUS
100
AcDbLine
 10
38.60499999996136
 20
5.395270153703832
 30
0.0
 11
40.30403710472435
 21
7.09430725846682
 31
0.0
  0
LINE
  5
1D0CD
330
1D0C6
100
AcDbEntity
  8
0
  6
CONTINUOUS
100
AcDbLine
 10
38.60499999996136
 20
4.721750944623645
 30
0.0
 11
40.62149941730453
 21
6.738250361966813
 31
0.0
  0
LINE
  5
1D0CE
330
1D0C6
100
AcDbEntity
  8
0
  6
CONTINUOUS
100
AcDbLine
 10
38.60499999996136
 20
4.048231735543458
 30
0.0
 11
40.93896172988471
 21
6.382193465466806
 31
0.0
  0
LINE
  5
1D0CF
330
1D0C6
100
AcDbEntity
  8
0
  6
CONTINUOUS
100
AcDbLine
 10
38.60499999996136
 20
3.374712526463272
 30
0.0
 11
40.02599999995994
 21
4.795712526461843
 31
0.0
  0
LINE
  5
1D0D0
330
1D0C6
100
AcDbEntity
  8
0
  6
CONTINUOUS
100
AcDbLine
 10
38.60499999996136
 20
2.701193317383085
 30
0.0
 11
40.02599999995994
 21
4.122193317381657
 31
0.0
  0
LINE
  5
1D0D1
330
1D0C6
100
AcDbEntity
  8
0
  6
CONTINUOUS
100
AcDbLine
 10
40.28339754687704
 20
5.053110073378947
 30
0.0
 11
41.25642404246489
 21
6.026136568966799
 31
0.0
  0
LINE
  5
1D0D2
330
1D0C6
100
AcDbEntity
  8
0
  6
CONTINUOUS
100
AcDbLine
 10
40.60085985945722
 20
4.697053176878939
 30
0.0
 11
41.57388635504507
 21
5.670079672466793
 31
0.0
  0
LINE
  5
1D0D3
330
1D0C6
100
AcDbEntity
  8
0
  6
CONTINUOUS
100
AcDbLine
 10
43.57899999995641
 20
8.348712526458318
 30
0.0
 11
43.99338747348935
 21
8.763099999991255
 31
0.0
  0
LINE
  5
1D0D4
330
1D0C6
100
AcDbEntity
  8
0
  6
CONTINUOUS
100
AcDbLine
 10
43.57899999995641
 20
7.675193317378131
 30
0.0
 11
44.66690668256953
 21
8.763099999991255
 31
0.0
  0
LINE
  5
1D0D5
330
1D0C6
100
AcDbEntity
  8
0
  6
CONTINUOUS
100
AcDbLine
 10
38.60499999996136
 20
2.027674108302898
 30
0.0
 11
40.02599999995994
 21
3.44867410830147
 31
0.0
  0
LINE
  5
1D0D6
330
1D0C6
100
AcDbEntity
  8
0
  6
CONTINUOUS
100
AcDbLine
 10
38.60499999996136
 20
1.354154899222712
 30
0.0
 11
40.02599999995994
 21
2.775154899221284
 31
0.0
  0
LINE
  5
1D0D7
330
1D0C6
100
AcDbEntity
  8
0
  6
CONTINUOUS
100
AcDbLine
 10
38.60499999996136
 20
0.6806356901425255
 30
0.0
 11
40.02599999995994
 21
2.101635690141098
 31
0.0
  0
LINE
  5
1D0D8
330
1D0C6
100
AcDbEntity
  8
0
  6
CONTINUOUS
100
AcDbLine
 10
38.60499999996136
 20
0.0071164810623383
 30
0.0
 11
40.02599999995994
 21
1.428116481060911
 31
0.0
  0
LINE
  5
1D0D9
330
1D0C6
100
AcDbEntity
  8
0
  6
CONTINUOUS
100
AcDbLine
 10
40.9183221720374
 20
4.340996280378933
 30
0.0
 11
41.89134866762525
 21
5.314022775966786
 31
0.0
  0
LINE
  5
1D0DA
330
1D0C6
100
AcDbEntity
  8
0
  6
CONTINUOUS
100
AcDbLine
 10
41.23578448461758
 20
3.984939383878926
 30
0.0
 11
42.20881098020543
 21
4.957965879466778
 31
0.0
  0
LINE
  5
1D0DB
330
1D0C6
100
AcDbEntity
  8
0
  6
CONTINUOUS
100
AcDbLine
 10
41.55324679719776
 20
3.628882487378919
 30
0.0
 11
42.52627329278561
 21
4.601908982966772
 31
0.0
  0
LINE
  5
1D0DC
330
1D0C6
100
AcDbEntity
  8
0
  6
CONTINUOUS
100
AcDbLine
 10
41.87070910977793
 20
3.272825590878912
 30
0.0
 11
42.84373560536579
 21
4.245852086466765
 31
0.0
  0
LINE
  5
1D0DD
330
1D0C6
100
AcDbEntity
  8
0
  6
CONTINUOUS
100
AcDbLine
 10
43.57899999995641
 20
7.001674108297943
 30
0.0
 11
44.99999999995498
 21
8.422674108296516
 31
0.0
  0
LINE
  5
1D0DE
330
1D0C6
100
AcDbEntity
  8
0
  6
CONTINUOUS
100
AcDbLine
 10
43.57899999995641
 20
6.328154899217758
 30
0.0
 11
44.99999999995498
 21
7.749154899216329
 31
0.0
  0
LINE
  5
1D0DF
330
1D0C6
100
AcDbEntity
  8
0
  6
CONTINUOUS
100
AcDbLine
 10
43.57899999995641
 20
5.654635690137571
 30
0.0
 11
44.99999999995498
 21
7.075635690136142
 31
0.0
  0
LINE
  5
1D0E0
330
1D0C6
100
AcDbEntity
  8
0
  6
CONTINUOUS
100
AcDbLine
 10
43.57899999995641
 20
4.981116481057384
 30
0.0
 11
44.99999999995498
 21
6.402116481055955
 31
0.0
  0
LINE
  5
1D0E1
330
1D0C6
100
AcDbEntity
  8
0
  6
CONTINUOUS
100
AcDbLine
 10
39.27140272797921
 20
-0.0000000000000009
 30
0.0
 11
40.02599999995994
 21
0.7545972719807246
 31
0.0
  0
LINE
  5
1D0E2
330
1D0C6
100
AcDbEntity
  8
0
  6
CONTINUOUS
100
AcDbLine
 10
39.9449219370594
 20
-0.0000000000000009
 30
0.0
 11
40.02599999995994
 21
0.0810780629005379
 31
0.0
  0
LINE
  5
1D0E3
330
1D0C6
100
AcDbEntity
  8
0
  6
CONTINUOUS
100
AcDbLine
 10
42.18817142235812
 20
2.916768694378905
 30
0.0
 11
43.16119791794597
 21
3.889795189966758
 31
0.0
  0
LINE
  5
1D0E4
330
1D0C6
100
AcDbEntity
  8
0
  6
CONTINUOUS
100
AcDbLine
 10
42.50563373493829
 20
2.560711797878898
 30
0.0
 11
43.47866023052615
 21
3.533738293466751
 31
0.0
  0
LINE
  5
1D0E5
330
1D0C6
100
AcDbEntity
  8
0
  6
CONTINUOUS
100
AcDbLine
 10
43.57899999995641
 20
4.307597271977198
 30
0.0
 11
44.99999999995498
 21
5.728597271975769
 31
0.0
  0
LINE
  5
1D0E6
330
1D0C6
100
AcDbEntity
  8
0
  6
CONTINUOUS
100
AcDbLine
 10
43.57899999995641
 20
3.634078062897011
 30
0.0
 11
44.99999999995498
 21
5.055078062895582
 31
0.0
  0
LINE
  5
1D0E7
330
1D0C6
100
AcDbEntity
  8
0
  6
CONTINUOUS
100
AcDbLine
 10
42.82309604751848
 20
2.204654901378891
 30
0.0
 11
44.99999999995498
 21
4.381558853815395
 31
0.0
  0
LINE
  5
1D0E8
330
1D0C6
100
AcDbEntity
  8
0
  6
CONTINUOUS
100
AcDbLine
 10
43.14055836009865
 20
1.848598004878885
 30
0.0
 11
44.99999999995498
 21
3.70803964473521
 31
0.0
  0
LINE
  5
1D0E9
330
1D0C6
100
AcDbEntity
  8
0
  6
CONTINUOUS
100
AcDbLine
 10
43.45802067267883
 20
1.492541108378878
 30
0.0
 11
44.99999999995498
 21
3.034520435655023
 31
0.0
  0
LINE
  5
1D0EA
330
1D0C6
100
AcDbEntity
  8
0
  6
CONTINUOUS
100
AcDbLine
 10
43.77548298525902
 20
1.136484211878871
 30
0.0
 11
44.99999999995498
 21
2.361001226574837
 31
0.0
  0
LINE
  5
1D0EB
330
1D0C6
100
AcDbEntity
  8
0
  6
CONTINUOUS
100
AcDbLine
 10
44.09294529783919
 20
0.7804273153788639
 30
0.0
 11
44.99999999995498
 21
1.687482017494649
 31
0.0
  0
LINE
  5
1D0EC
330
1D0C6
100
AcDbEntity
  8
0
  6
CONTINUOUS
100
AcDbLine
 10
44.41040761041938
 20
0.4243704188788566
 30
0.0
 11
44.99999999995498
 21
1.013962808414463
 31
0.0
  0
LINE
  5
1D0ED
330
1D0C6
100
AcDbEntity
  8
0
  6
CONTINUOUS
100
AcDbLine
 10
44.72786992299955
 20
0.0683135223788494
 30
0.0
 11
44.99999999995498
 21
0.340443599334276
 31
0.0
  0
LINE
  5
1D0EE
330
1D0C6
100
AcDbEntity
  8
0
  6
CONTINUOUS
100
AcDbLine
 10
39.12223903415696
 20
-0.0000000000000009
 30
0.0
 11
38.60499999996136
 21
0.5172390341955961
 31
0.0
  0
LINE
  5
1D0EF
330
1D0C6
100
AcDbEntity
  8
0
  6
CONTINUOUS
100
AcDbLine
 10
39.79575824323715
 20
-0.0000000000000009
 30
0.0
 11
38.60499999996136
 21
1.190758243275783
 31
0.0
  0
LINE
  5
1D0F0
330
1D0C6
100
AcDbEntity
  8
0
  6
CONTINUOUS
100
AcDbLine
 10
40.02599999995994
 20
0.443277452357397
 30
0.0
 11
38.60499999996136
 21
1.864277452355969
 31
0.0
  0
LINE
  5
1D0F1
330
1D0C6
100
AcDbEntity
  8
0
  6
CONTINUOUS
100
AcDbLine
 10
40.02599999995994
 20
1.116796661437583
 30
0.0
 11
38.60499999996136
 21
2.537796661436155
 31
0.0
  0
LINE
  5
1D0F2
330
1D0C6
100
AcDbEntity
  8
0
  6
CONTINUOUS
100
AcDbLine
 10
40.02599999995994
 20
1.79031587051777
 30
0.0
 11
38.60499999996136
 21
3.211315870516341
 31
0.0
  0
LINE
  5
1D0F3
330
1D0C6
100
AcDbEntity
  8
0
  6
CONTINUOUS
100
AcDbLine
 10
40.02599999995994
 20
2.463835079597956
 30
0.0
 11
38.60499999996136
 21
3.884835079596527
 31
0.0
  0
LINE
  5
1D0F4
330
1D0C6
100
AcDbEntity
  8
0
  6
CONTINUOUS
100
AcDbLine
 10
40.02599999995994
 20
3.137354288678143
 30
0.0
 11
38.60499999996136
 21
4.558354288676714
 31
0.0
  0
LINE
  5
1D0F5
330
1D0C6
100
AcDbEntity
  8
0
  6
CONTINUOUS
100
AcDbLine
 10
40.02599999995994
 20
3.810873497758329
 30
0.0
 11
38.60499999996136
 21
5.2318734977569
 31
0.0
  0
LINE
  5
1D0F6
330
1D0C6
100
AcDbEntity
  8
0
  6
CONTINUOUS
100
AcDbLine
 10
40.02599999995994
 20
4.484392706838515
 30
0.0
 11
38.60499999996136
 21
5.905392706837086
 31
0.0
  0
LINE
  5
1D0F7
330
1D0C6
100
AcDbEntity
  8
0
  6
CONTINUOUS
100
AcDbLine
 10
44.99999999995498
 20
0.183911915923658
 30
0.0
 11
41.53858364506288
 21
3.64532827081576
 31
0.0
  0
LINE
  5
1D0F8
330
1D0C6
100
AcDbEntity
  8
0
  6
CONTINUOUS
100
AcDbLine
 10
40.02599999995994
 20
5.157911915918703
 30
0.0
 11
38.60499999996136
 21
6.578911915917274
 31
0.0
  0
LINE
  5
1D0F9
330
1D0C6
100
AcDbEntity
  8
0
  6
CONTINUOUS
100
AcDbLine
 10
44.99999999995498
 20
0.8574311250038447
 30
0.0
 11
38.60499999996136
 21
7.25243112499746
 31
0.0
  0
LINE
  5
1D0FA
330
1D0C6
100
AcDbEntity
  8
0
  6
CONTINUOUS
100
AcDbLine
 10
44.99999999995498
 20
1.530950334084031
 30
0.0
 11
38.60499999996136
 21
7.925950334077647
 31
0.0
  0
LINE
  5
1D0FB
330
1D0C6
100
AcDbEntity
  8
0
  6
CONTINUOUS
100
AcDbLine
 10
44.99999999995498
 20
2.204469543164218
 30
0.0
 11
43.57899999995641
 21
3.625469543162789
 31
0.0
  0
LINE
  5
1D0FC
330
1D0C6
100
AcDbEntity
  8
0
  6
CONTINUOUS
100
AcDbLine
 10
41.89876730984767
 20
5.305702233271528
 30
0.0
 11
38.60499999996136
 21
8.599469543157834
 31
0.0
  0
LINE
  5
1D0FD
330
1D0C6
100
AcDbEntity
  8
0
  6
CONTINUOUS
100
AcDbLine
 10
44.99999999995498
 20
2.877988752244405
 30
0.0
 11
43.57899999995641
 21
4.298988752242975
 31
0.0
  0
LINE
  5
1D0FE
330
1D0C6
100
AcDbEntity
  8
0
  6
CONTINUOUS
100
AcDbLine
 10
44.99999999995498
 20
3.551507961324591
 30
0.0
 11
43.57899999995641
 21
4.972507961323163
 31
0.0
  0
LINE
  5
1D0FF
330
1D0C6
100
AcDbEntity
  8
0
  6
CONTINUOUS
100
AcDbLine
 10
44.99999999995498
 20
4.225027170404777
 30
0.0
 11
43.57899999995641
 21
5.646027170403348
 31
0.0
  0
LINE
  5
1D100
330
1D0C6
100
AcDbEntity
  8
0
  6
CONTINUOUS
100
AcDbLine
 10
44.99999999995498
 20
4.898546379484964
 30
0.0
 11
43.57899999995641
 21
6.319546379483535
 31
0.0
  0
LINE
  5
1D101
330
1D0C6
100
AcDbEntity
  8
0
  6
CONTINUOUS
100
AcDbLine
 10
44.99999999995498
 20
5.572065588565151
 30
0.0
 11
43.57899999995641
 21
6.993065588563722
 31
0.0
  0
LINE
  5
1D102
330
1D0C6
100
AcDbEntity
  8
0
  6
CONTINUOUS
100
AcDbLine
 10
44.99999999995498
 20
6.245584797645336
 30
0.0
 11
43.57899999995641
 21
7.666584797643908
 31
0.0
  0
LINE
  5
1D103
330
1D0C6
100
AcDbEntity
  8
0
  6
CONTINUOUS
100
AcDbLine
 10
44.99999999995498
 20
6.919104006725522
 30
0.0
 11
43.57899999995641
 21
8.340104006724093
 31
0.0
  0
LINE
  5
1D104
330
1D0C6
100
AcDbEntity
  8
0
  6
CONTINUOUS
100
AcDbLine
 10
44.99999999995498
 20
7.592623215805709
 30
0.0
 11
43.82952321576943
 21
8.763099999991255
 31
0.0
  0
LINE
  5
1D105
330
1D0C6
100
AcDbEntity
  8
0
  6
CONTINUOUS
100
AcDbLine
 10
44.99999999995498
 20
8.266142424885896
 30
0.0
 11
44.50304242484962
 21
8.763099999991255
 31
0.0
  0
ENDBLK
  5
1D12F
330
1D0C6
100
AcDbEntity
  8
0
100
AcDbBlockEnd
  0
BLOCK
  5
1D130
330
1D106
100
AcDbEntity
  8
0
100
AcDbBlockBegin
  2
*X41
 70
     1
 10
0.0
 20
0.0
 30
0.0
  3
*X41
  1

  0
LINE
  5
1D107
330
1D106
100
AcDbEntity
  8
0
  6
CONTINUOUS
100
AcDbLine
 10
0.0
 20
8.548461116714023
 30
0.0
 11
0.2146388832772324
 21
8.763099999991255
 31
0.0
  0
LINE
  5
1D108
330
1D106
100
AcDbEntity
  8
0
  6
CONTINUOUS
100
AcDbLine
 10
-0.0000000000000002
 20
7.874941907633837
 30
0.0
 11
0.8881580923574184
 21
8.763099999991255
 31
0.0
  0
LINE
  5
1D109
330
1D106
100
AcDbEntity
  8
0
  6
CONTINUOUS
100
AcDbLine
 10
0.0
 20
7.20142269855365
 30
0.0
 11
1.420999999998572
 21
8.622422698552223
 31
0.0
  0
LINE
  5
1D10A
330
1D106
100
AcDbEntity
  8
0
  6
CONTINUOUS
100
AcDbLine
 10
-0.0000000000000001
 20
6.527903489473465
 30
0.0
 11
1.420999999998571
 21
7.948903489472036
 31
0.0
  0
LINE
  5
1D10B
330
1D106
100
AcDbEntity
  8
0
  6
CONTINUOUS
100
AcDbLine
 10
-0.0000000000000002
 20
5.854384280393278
 30
0.0
 11
1.420999999998571
 21
7.275384280391849
 31
0.0
  0
LINE
  5
1D10C
330
1D106
100
AcDbEntity
  8
0
  6
CONTINUOUS
100
AcDbLine
 10
-0.0000000000000002
 20
5.180865071313091
 30
0.0
 11
1.420999999998571
 21
6.601865071311663
 31
0.0
  0
LINE
  5
1D10D
330
1D106
100
AcDbEntity
  8
0
  6
CONTINUOUS
100
AcDbLine
 10
0.0
 20
4.507345862232905
 30
0.0
 11
1.420999999998571
 21
5.928345862231477
 31
0.0
  0
LINE
  5
1D10E
330
1D106
100
AcDbEntity
  8
0
  6
CONTINUOUS
100
AcDbLine
 10
-0.0000000000000003
 20
3.833826653152718
 30
0.0
 11
1.420999999998571
 21
5.25482665315129
 31
0.0
  0
LINE
  5
1D10F
330
1D106
100
AcDbEntity
  8
0
  6
CONTINUOUS
100
AcDbLine
 10
-0.0000000000000002
 20
3.160307444072532
 30
0.0
 11
1.420999999998571
 21
4.581307444071103
 31
0.0
  0
LINE
  5
1D110
330
1D106
100
AcDbEntity
  8
0
  6
CONTINUOUS
100
AcDbLine
 10
-0.0000000000000001
 20
2.486788234992345
 30
0.0
 11
1.420999999998571
 21
3.907788234990917
 31
0.0
  0
LINE
  5
1D111
330
1D106
100
AcDbEntity
  8
0
  6
CONTINUOUS
100
AcDbLine
 10
-0.0000000000000006
 20
1.813269025912159
 30
0.0
 11
1.420999999998571
 21
3.234269025910731
 31
0.0
  0
LINE
  5
1D112
330
1D106
100
AcDbEntity
  8
0
  6
CONTINUOUS
100
AcDbLine
 10
0.0
 20
1.139749816831973
 30
0.0
 11
1.420999999998571
 21
2.560749816830544
 31
0.0
  0
LINE
  5
1D113
330
1D106
100
AcDbEntity
  8
0
  6
CONTINUOUS
100
AcDbLine
 10
0.0000000000000002
 20
0.466230607751787
 30
0.0
 11
1.420999999998571
 21
1.887230607750358
 31
0.0
  0
LINE
  5
1D114
330
1D106
100
AcDbEntity
  8
0
  6
CONTINUOUS
100
AcDbLine
 10
0.2072886013284003
 20
-0.0000000000000009
 30
0.0
 11
1.420999999998571
 21
1.213711398670171
 31
0.0
  0
LINE
  5
1D115
330
1D106
100
AcDbEntity
  8
0
  6
CONTINUOUS
100
AcDbLine
 10
0.8808078104085864
 20
-0.0000000000000009
 30
0.0
 11
1.420999999998571
 21
0.5401921895899839
 31
0.0
  0
LINE
  5
1D116
330
1D106
100
AcDbEntity
  8
0
  6
CONTINUOUS
100
AcDbLine
 10
0.0581249075061505
 20
-0.0000000000000009
 30
0.0
 11
-0.0000000000000002
 21
0.0581249075061496
 31
0.0
  0
LINE
  5
1D117
330
1D106
100
AcDbEntity
  8
0
  6
CONTINUOUS
100
AcDbLine
 10
0.7316441165863372
 20
-0.0000000000000009
 30
0.0
 11
-0.0000000000000002
 21
0.7316441165863363
 31
0.0
  0
LINE
  5
1D118
330
1D106
100
AcDbEntity
  8
0
  6
CONTINUOUS
100
AcDbLine
 10
1.405163325666523
 20
-0.0000000000000009
 30
0.0
 11
-0.0000000000000002
 21
1.405163325666523
 31
0.0
  0
LINE
  5
1D119
330
1D106
100
AcDbEntity
  8
0
  6
CONTINUOUS
100
AcDbLine
 10
1.420999999998572
 20
0.6576825347481381
 30
0.0
 11
-0.0000000000000001
 21
2.07868253474671
 31
0.0
  0
LINE
  5
1D11A
330
1D106
100
AcDbEntity
  8
0
  6
CONTINUOUS
100
AcDbLine
 10
1.420999999998571
 20
1.331201743828324
 30
0.0
 11
-0.0000000000000001
 21
2.752201743826896
 31
0.0
  0
LINE
  5
1D11B
330
1D106
100
AcDbEntity
  8
0
  6
CONTINUOUS
100
AcDbLine
 10
1.420999999998571
 20
2.004720952908511
 30
0.0
 11
-0.0000000000000002
 21
3.425720952907082
 31
0.0
  0
LINE
  5
1D11C
330
1D106
100
AcDbEntity
  8
0
  6
CONTINUOUS
100
AcDbLine
 10
1.420999999998571
 20
2.678240161988697
 30
0.0
 11
-0.0000000000000001
 21
4.099240161987269
 31
0.0
  0
LINE
  5
1D11D
330
1D106
100
AcDbEntity
  8
0
  6
CONTINUOUS
100
AcDbLine
 10
1.420999999998572
 20
3.351759371068884
 30
0.0
 11
0.0
 21
4.772759371067455
 31
0.0
  0
LINE
  5
1D11E
330
1D106
100
AcDbEntity
  8
0
  6
CONTINUOUS
100
AcDbLine
 10
1.420999999998571
 20
4.02527858014907
 30
0.0
 11
-0.0000000000000003
 21
5.446278580147642
 31
0.0
  0
LINE
  5
1D11F
330
1D106
100
AcDbEntity
  8
0
  6
CONTINUOUS
100
AcDbLine
 10
1.420999999998571
 20
4.698797789229257
 30
0.0
 11
0.0
 21
6.119797789227828
 31
0.0
  0
LINE
  5
1D120
330
1D106
100
AcDbEntity
  8
0
  6
CONTINUOUS
100
AcDbLine
 10
1.420999999998571
 20
5.372316998309444
 30
0.0
 11
-0.0000000000000001
 21
6.793316998308015
 31
0.0
  0
LINE
  5
1D121
330
1D106
100
AcDbEntity
  8
0
  6
CONTINUOUS
100
AcDbLine
 10
1.420999999998572
 20
6.045836207389629
 30
0.0
 11
-0.0000000000000004
 21
7.466836207388202
 31
0.0
  0
LINE
  5
1D122
330
1D106
100
AcDbEntity
  8
0
  6
CONTINUOUS
100
AcDbLine
 10
1.420999999998571
 20
6.719355416469816
 30
0.0
 11
0.0
 21
8.140355416468388
 31
0.0
  0
LINE
  5
1D123
330
1D106
100
AcDbEntity
  8
0
  6
CONTINUOUS
100
AcDbLine
 10
1.420999999998571
 20
7.392874625550003
 30
0.0
 11
0.0507746255573185
 21
8.763099999991255
 31
0.0
  0
LINE
  5
1D124
330
1D106
100
AcDbEntity
  8
0
  6
CONTINUOUS
100
AcDbLine
 10
1.420999999998571
 20
8.06639383463019
 30
0.0
 11
0.7242938346375052
 21
8.763099999991255
 31
0.0
  0
LINE
  5
1D125
330
1D106
100
AcDbEntity
  8
0
  6
CONTINUOUS
100
AcDbLine
 10
1.420999999998571
 20
8.739913043710375
 30
0.0
 11
1.397813043717691
 21
8.763099999991255
 31
0.0
  0
ENDBLK
  5
1D131
330
1D106
100
AcDbEntity
  8
0
100
AcDbBlockEnd
  0
ENDSEC
  0
SECTION
  2
ENTITIES
  0
LINE
  5
193BD
330
18
100
AcDbEntity
  8
01
100
AcDbLine
 10
938.6941723932229
 20
-1036.301681890422
 30
0.0
 11
938.6941723932229
 21
-1116.301681890422
 31
0.0
  0
LINE
  5
193BE
330
18
100
AcDbEntity
  8
01
100
AcDbLine
 10
947.694172393223
 20
-1036.301681890422
 30
0.0
 11
947.6941723932229
 21
-1116.301681890422
 31
0.0
  0
LINE
  5
193BF
330
18
100
AcDbEntity
  8
01
100
AcDbLine
 10
929.6941723932229
 20
-1036.301681890422
 30
0.0
 11
929.6941723932229
 21
-1116.301681890422
 31
0.0
  0
TEXT
  5
193C6
330
18
100
AcDbEntity
  8
1TEXT
100
AcDbText
 10
885.0548277924509
 20
-979.464249864826
 30
0.0
 40
4.0
  1
表面処理：
 72
     1
 11
895.8548277924508
 21
-979.464249864826
 31
0.0
100
AcDbText
  0
TEXT
  5
193C7
330
18
100
AcDbEntity
  8
1TEXT
100
AcDbText
 10
884.3881611257841
 20
-986.2995385243504
 30
0.0
 40
4.0
  1
ポリッシュ
 72
     1
 11
895.8548277924508
 21
-986.2995385243504
 31
0.0
100
AcDbText
  0
LINE
  5
193C8
330
18
100
AcDbEntity
  8
1DIM
100
AcDbLine
 10
878.4548277924507
 20
-973.964249864826
 30
0.0
 11
948.4548277924507
 21
-973.964249864826
 31
0.0
  0
LINE
  5
193C9
330
18
100
AcDbEntity
  8
1DIM
100
AcDbLine
 10
878.4548277924507
 20
-987.964249864826
 30
0.0
 11
948.4548277924507
 21
-987.964249864826
 31
0.0
  0
LINE
  5
193CA
330
18
100
AcDbEntity
  8
1DIM
100
AcDbLine
 10
878.4548277924507
 20
-980.964249864826
 30
0.0
 11
948.4548277924507
 21
-980.964249864826
 31
0.0
  0
LINE
  5
193CB
330
18
100
AcDbEntity
  8
1DIM
100
AcDbLine
 10
913.4548277924507
 20
-973.964249864826
 30
0.0
 11
913.4548277924504
 21
-1001.964249864826
 31
0.0
  0
TEXT
  5
193CC
330
18
100
AcDbEntity
  8
1TEXT
100
AcDbText
 10
917.5103833480068
 20
-986.6786068484754
 30
0.0
 40
4.0
  1
SC-461-XP
 41
0.8
 72
     1
 11
930.8548277924513
 21
-986.6786068484754
 31
0.0
100
AcDbText
  0
TEXT
  5
193CD
330
18
100
AcDbEntity
  8
1TEXT
100
AcDbText
 10
923.9881611257841
 20
-979.464249864826
 30
0.0
 40
4.0
  1
コード
 72
     1
 11
930.8548277924508
 21
-979.464249864826
 31
0.0
100
AcDbText
  0
LINE
  5
193CE
330
18
100
AcDbEntity
  8
1DIM
100
AcDbLine
 10
878.4548277924505
 20
-1001.964249864826
 30
0.0
 11
878.4548277924507
 21
-973.964249864826
 31
0.0
  0
LINE
  5
193CF
330
18
100
AcDbEntity
  8
1DIM
100
AcDbLine
 10
948.4548277924505
 20
-1001.964249864826
 30
0.0
 11
948.4548277924507
 21
-973.964249864826
 31
0.0
  0
TEXT
  5
193D0
330
18
100
AcDbEntity
  8
1TEXT
100
AcDbText
 10
878.4548277924507
 20
-968.964249864826
 30
0.0
 40
8.0
  1
SC-461-X
100
AcDbText
  0
TEXT
  5
1B77A
330
18
100
AcDbEntity
  8
1TEXT
100
AcDbText
 10
884.3214944591174
 20
-993.2995385243504
 30
0.0
 40
4.0
  1
ヘアライン
 72
     1
 11
895.8548277924507
 21
-993.2995385243504
 31
0.0
100
AcDbText
  0
LINE
  5
1B77B
330
18
100
AcDbEntity
  8
1DIM
100
AcDbLine
 10
878.4548277924506
 20
-994.964249864826
 30
0.0
 11
948.4548277924506
 21
-994.964249864826
 31
0.0
  0
TEXT
  5
1B77C
330
18
100
AcDbEntity
  8
1TEXT
100
AcDbText
 10
917.5103833480067
 20
-993.6786068484754
 30
0.0
 40
4.0
  1
SC-461-XT
 41
0.8
 72
     1
 11
930.8548277924511
 21
-993.6786068484754
 31
0.0
100
AcDbText
  0
TEXT
  5
1B77D
330
18
100
AcDbEntity
  8
1TEXT
100
AcDbText
 10
878.6948277924507
 20
-1000.29953852435
 30
0.0
 40
4.0
  1
コンビネーション
 41
0.9
 72
     1
 11
895.8548277924507
 21
-1000.29953852435
 31
0.0
100
AcDbText
  0
LINE
  5
1B77E
330
18
100
AcDbEntity
  8
1DIM
100
AcDbLine
 10
878.4548277924506
 20
-1001.964249864826
 30
0.0
 11
948.4548277924506
 21
-1001.964249864826
 31
0.0
  0
TEXT
  5
1B77F
330
18
100
AcDbEntity
  8
1TEXT
100
AcDbText
 10
917.5103833480067
 20
-1000.678606848475
 30
0.0
 40
4.0
  1
SC-461-PT
 41
0.8
 72
     1
 11
930.8548277924511
 21
-1000.678606848475
 31
0.0
100
AcDbText
  0
LINE
  5
1B7FC
330
18
100
AcDbEntity
  8
1PHANTOM
100
AcDbLine
 10
907.6941723932229
 20
-1070.301681890422
 30
0.0
 11
929.6941723932229
 21
-1070.301681890422
 31
0.0
  0
LINE
  5
1B7FE
330
18
100
AcDbEntity
  8
1PHANTOM
100
AcDbLine
 10
906.6941723932229
 20
-1081.301681890422
 30
0.0
 11
907.6941723932229
 21
-1082.301681890422
 31
0.0
  0
LINE
  5
1B7FF
330
18
100
AcDbEntity
  8
01
100
AcDbLine
 10
929.6941723932229
 20
-1082.301681890422
 30
0.0
 11
929.6941723932229
 21
-1070.301681890422
 31
0.0
  0
LINE
  5
1B800
330
18
100
AcDbEntity
  8
1PHANTOM
100
AcDbLine
 10
906.6941723932229
 20
-1081.301681890422
 30
0.0
 11
906.6941723932229
 21
-1071.301681890422
 31
0.0
  0
LINE
  5
1B801
330
18
100
AcDbEntity
  8
1PHANTOM
100
AcDbLine
 10
907.6941723932229
 20
-1070.301681890422
 30
0.0
 11
906.6941723932229
 21
-1071.301681890422
 31
0.0
  0
LINE
  5
1B80A
330
18
100
AcDbEntity
  8
01
100
AcDbLine
 10
606.4622196734757
 20
-1083.501681890422
 30
0.0
 11
834.462219673476
 21
-1083.501681890421
 31
0.0
  0
ARC
  5
1B80B
330
18
100
AcDbEntity
  8
01
100
AcDbCircle
 10
606.4622196734757
 20
-1082.501681890422
 30
0.0
 40
1.0
100
AcDbArc
 50
180.0
 51
270.0
  0
LINE
  5
1B80C
330
18
100
AcDbEntity
  8
01
100
AcDbLine
 10
606.4622196734757
 20
-1068.501681890422
 30
0.0
 11
834.462219673476
 21
-1068.50168189042
 31
0.0
  0
ARC
  5
1B80D
330
18
100
AcDbEntity
  8
01
100
AcDbCircle
 10
606.4622196734757
 20
-1069.501681890422
 30
0.0
 40
1.0
100
AcDbArc
 50
90.0
 51
180.0
  0
LINE
  5
1B80E
330
18
100
AcDbEntity
  8
01
100
AcDbLine
 10
605.4622196734757
 20
-1082.501681890422
 30
0.0
 11
605.4622196734757
 21
-1069.501681890422
 31
0.0
  0
ARC
  5
1B80F
330
18
100
AcDbEntity
  8
01
100
AcDbCircle
 10
834.462219673476
 20
-1082.501681890422
 30
0.0
 40
1.0
100
AcDbArc
 50
270.0
 51
0.0
  0
ARC
  5
1B810
330
18
100
AcDbEntity
  8
01
100
AcDbCircle
 10
834.462219673476
 20
-1069.501681890422
 30
0.0
 40
1.0
100
AcDbArc
 50
0.0
 51
90.0
  0
LINE
  5
1B811
330
18
100
AcDbEntity
  8
01
100
AcDbLine
 10
835.462219673476
 20
-1082.501681890422
 30
0.0
 11
835.462219673476
 21
-1069.501681890422
 31
0.0
  0
LINE
  5
1B812
330
18
100
AcDbEntity
  8
01
100
AcDbLine
 10
605.4622196734757
 20
-983.5016818904222
 30
0.0
 11
635.4622196734758
 21
-983.5016818904224
 31
0.0
  0
LINE
  5
1B813
330
18
100
AcDbEntity
  8
01
100
AcDbLine
 10
805.4622196734758
 20
-983.5016818904224
 30
0.0
 11
835.4622196734757
 21
-983.5016818904222
 31
0.0
  0
LINE
  5
1B814
330
18
100
AcDbEntity
  8
01
100
AcDbLine
 10
636.462219673476
 20
-1013.501681890422
 30
0.0
 11
804.4622196734758
 21
-1013.501681890422
 31
0.0
  0
ARC
  5
1B815
330
18
100
AcDbEntity
  8
01
100
AcDbCircle
 10
636.462219673476
 20
-1012.501681890422
 30
0.0
 40
1.0
100
AcDbArc
 50
180.0
 51
270.0
  0
ARC
  5
1B817
330
18
100
AcDbEntity
  8
01
100
AcDbCircle
 10
834.2622196734761
 20
-1037.301681890422
 30
0.0
 40
1.2
100
AcDbArc
 50
270.0
 51
0.0
  0
LINE
  5
1B818
330
18
100
AcDbEntity
  8
01
100
AcDbLine
 10
835.4622196734758
 20
-983.5016818904222
 30
0.0
 11
835.462219673476
 21
-1037.301681890422
 31
0.0
  0
LINE
  5
1B819
330
18
100
AcDbEntity
  8
01
100
AcDbLine
 10
805.4622196734758
 20
-983.5016818904222
 30
0.0
 11
805.4622196734758
 21
-1012.501681890422
 31
0.0
  0
ARC
  5
1B81A
330
18
100
AcDbEntity
  8
01
100
AcDbCircle
 10
804.4622196734758
 20
-1012.501681890422
 30
0.0
 40
1.0
100
AcDbArc
 50
270.0
 51
0.0
  0
LINE
  5
1B81B
330
18
100
AcDbEntity
  8
01
100
AcDbLine
 10
635.4622196734758
 20
-983.5016818904222
 30
0.0
 11
635.462219673476
 21
-1012.501681890422
 31
0.0
  0
LINE
  5
1B81C
330
18
100
AcDbEntity
  8
01
100
AcDbLine
 10
605.4622196734757
 20
-983.5016818904222
 30
0.0
 11
605.4622196734757
 21
-1037.301681890422
 31
0.0
  0
ARC
  5
1B81D
330
18
100
AcDbEntity
  8
01
100
AcDbCircle
 10
606.6622196734758
 20
-1037.301681890422
 30
0.0
 40
1.2
100
AcDbArc
 50
180.0
 51
270.0
  0
LINE
  5
1B81E
330
18
100
AcDbEntity
  8
01
100
AcDbLine
 10
929.6941723932229
 20
-1068.501681890422
 30
0.0
 11
929.6941723932229
 21
-1083.501681890422
 31
0.0
  0
LINE
  5
1B81F
330
18
100
AcDbEntity
  8
01
100
AcDbLine
 10
929.6941723932229
 20
-1083.501681890422
 30
0.0
 11
875.6941723932225
 21
-1083.501681890422
 31
0.0
  0
LINE
  5
1B821
330
18
100
AcDbEntity
  8
01
100
AcDbLine
 10
929.6941723932229
 20
-1068.501681890422
 30
0.0
 11
875.6941723932225
 21
-1068.501681890422
 31
0.0
  0
ARC
  5
1B823
330
18
100
AcDbEntity
  8
01
100
AcDbCircle
 10
875.6941723932225
 20
-1069.501681890422
 30
0.0
 40
1.0
100
AcDbArc
 50
90.0
 51
180.0
  0
LINE
  5
1B824
330
18
100
AcDbEntity
  8
01
100
AcDbLine
 10
874.6941723932225
 20
-1069.501681890422
 30
0.0
 11
874.6941723932225
 21
-1082.501681890422
 31
0.0
  0
ARC
  5
1B826
330
18
100
AcDbEntity
  8
01
100
AcDbCircle
 10
875.6941723932225
 20
-1082.501681890422
 30
0.0
 40
1.0
100
AcDbArc
 50
180.0
 51
270.0
  0
LINE
  5
1B9B7
330
18
100
AcDbEntity
  8
1PHANTOM
100
AcDbLine
 10
806.9622196734757
 20
-1006.001681890422
 30
0.0
 11
806.9622196734757
 21
-983.5016818904223
 31
0.0
  0
LINE
  5
1B9B8
330
18
100
AcDbEntity
  8
1PHANTOM
100
AcDbLine
 10
807.4622196734757
 20
-1006.501681890422
 30
0.0
 11
806.9622196734757
 21
-1006.001681890422
 31
0.0
  0
LINE
  5
1B9BA
330
18
100
AcDbEntity
  8
1PHANTOM
100
AcDbLine
 10
807.4622196734757
 20
-1006.501681890422
 30
0.0
 11
833.4622196734759
 21
-1006.501681890422
 31
0.0
  0
LINE
  5
1B9BB
330
18
100
AcDbEntity
  8
1PHANTOM
100
AcDbLine
 10
833.9622196734759
 20
-1006.001681890422
 30
0.0
 11
833.4622196734759
 21
-1006.501681890422
 31
0.0
  0
LINE
  5
1B9BC
330
18
100
AcDbEntity
  8
1PHANTOM
100
AcDbLine
 10
833.9622196734759
 20
-1006.001681890422
 30
0.0
 11
833.9622196734762
 21
-983.5016818904223
 31
0.0
  0
LINE
  5
1B9BD
330
18
100
AcDbEntity
  8
1PHANTOM
100
AcDbLine
 10
807.9622196734757
 20
-1006.001681890423
 30
0.0
 11
807.9622196734757
 21
-983.5016818904223
 31
0.0
  0
LINE
  5
1B9BE
330
18
100
AcDbEntity
  8
1PHANTOM
100
AcDbLine
 10
832.9622196734762
 20
-1006.001681890422
 30
0.0
 11
832.9622196734757
 21
-983.5016818904223
 31
0.0
  0
LINE
  5
1BA1B
330
18
100
AcDbEntity
  8
1PHANTOM
100
AcDbLine
 10
833.9622196734759
 20
-1006.001681890422
 30
0.0
 11
806.9622196734757
 21
-1006.001681890422
 31
0.0
  0
LINE
  5
1BA1C
330
18
100
AcDbEntity
  8
1PHANTOM
100
AcDbLine
 10
832.7551128922895
 20
-1006.501681890422
 30
0.0
 11
832.9622196734762
 21
-1006.001681890422
 31
0.0
  0
LINE
  5
1BA1D
330
18
100
AcDbEntity
  8
1PHANTOM
100
AcDbLine
 10
808.1693264546623
 20
-1006.501681890422
 30
0.0
 11
807.9622196734756
 21
-1006.001681890422
 31
0.0
  0
LINE
  5
1BBE9
102
{ACAD_REACTORS
330
1BC49
102
}
330
18
100
AcDbEntity
  8
1PHANTOM
100
AcDbLine
 10
913.3441723932227
 20
-1081.83641149715
 30
0.0
 11
913.6941723932229
 21
-1082.186411323076
 31
0.0
  0
LINE
  5
1BBEA
102
{ACAD_REACTORS
330
1BC49
102
}
330
18
100
AcDbEntity
  8
1PHANTOM
100
AcDbLine
 10
909.6941723932229
 20
-1082.186411323076
 30
0.0
 11
910.0441723932228
 21
-1081.83641149715
 31
0.0
  0
LINE
  5
1BBEB
102
{ACAD_REACTORS
330
1BC49
102
}
330
18
100
AcDbEntity
  8
1PHANTOM
100
AcDbLine
 10
914.6941723932229
 20
-1083.18641148715
 30
0.0
 11
908.6941723932229
 21
-1083.18641148715
 31
0.0
  0
LINE
  5
1BBEC
102
{ACAD_REACTORS
330
1BC49
102
}
330
18
100
AcDbEntity
  8
1PHANTOM
100
AcDbLine
 10
913.6941723932229
 20
-1075.83641149715
 30
0.0
 11
909.6941723932229
 21
-1075.83641149715
 31
0.0
  0
LINE
  5
1BBEE
102
{ACAD_REACTORS
330
1BC49
102
}
330
18
100
AcDbEntity
  8
1PHANTOM
100
AcDbLine
 10
910.0441723932228
 20
-1075.48641149715
 30
0.0
 11
910.0441723932228
 21
-1081.83641149715
 31
0.0
  0
LINE
  5
1BBEF
102
{ACAD_REACTORS
330
1BC49
102
}
330
18
100
AcDbEntity
  8
1PHANTOM
100
AcDbLine
 10
913.3441723932227
 20
-1075.48641149715
 30
0.0
 11
913.3441723932227
 21
-1081.83641149715
 31
0.0
  0
LINE
  5
1BBF0
102
{ACAD_REACTORS
330
1BC49
102
}
330
18
100
AcDbEntity
  8
1PHANTOM
100
AcDbLine
 10
911.6941723932229
 20
-1073.88473649715
 30
0.0
 11
911.6941723932229
 21
-1085.04518039715
 31
0.0
  0
LINE
  5
1BC90
330
18
100
AcDbEntity
  8
1CENTER
100
AcDbLine
 10
807.5595101570402
 20
-1078.301681890422
 30
0.0
 11
815.3649291899114
 21
-1078.301681890422
 31
0.0
  0
LINE
  5
1BC93
330
18
100
AcDbEntity
  8
1CENTER
100
AcDbLine
 10
825.5595101570402
 20
-1074.301681890422
 30
0.0
 11
833.3649291899114
 21
-1074.301681890422
 31
0.0
  0
LINE
  5
1BC94
330
18
100
AcDbEntity
  8
1CENTER
100
AcDbLine
 10
829.4622196734758
 20
-1078.204391406857
 30
0.0
 11
829.4622196734758
 21
-1070.398972373986
 31
0.0
  0
LINE
  5
1BC95
330
18
100
AcDbEntity
  8
1CENTER
100
AcDbLine
 10
811.4622196734758
 20
-1082.204391406857
 30
0.0
 11
811.4622196734758
 21
-1074.398972373986
 31
0.0
  0
LINE
  5
1BC98
330
18
100
AcDbEntity
  8
1CENTER
100
AcDbLine
 10
607.5595101570402
 20
-1078.301681890422
 30
0.0
 11
615.3649291899114
 21
-1078.301681890422
 31
0.0
  0
LINE
  5
1BC99
330
18
100
AcDbEntity
  8
1CENTER
100
AcDbLine
 10
625.5595101570402
 20
-1074.301681890422
 30
0.0
 11
633.3649291899114
 21
-1074.301681890422
 31
0.0
  0
LINE
  5
1BC9A
330
18
100
AcDbEntity
  8
1CENTER
100
AcDbLine
 10
629.4622196734758
 20
-1078.204391406857
 30
0.0
 11
629.4622196734758
 21
-1070.398972373986
 31
0.0
  0
LINE
  5
1BC9B
330
18
100
AcDbEntity
  8
1CENTER
100
AcDbLine
 10
611.4622196734758
 20
-1082.204391406857
 30
0.0
 11
611.4622196734758
 21
-1074.398972373986
 31
0.0
  0
LINE
  5
1BC9C
330
18
100
AcDbEntity
  8
1PHANTOM
100
AcDbLine
 10
606.9622196734757
 20
-1006.001681890422
 30
0.0
 11
606.9622196734757
 21
-983.5016818904223
 31
0.0
  0
LINE
  5
1BC9D
330
18
100
AcDbEntity
  8
1PHANTOM
100
AcDbLine
 10
607.4622196734757
 20
-1006.501681890422
 30
0.0
 11
606.9622196734757
 21
-1006.001681890422
 31
0.0
  0
LINE
  5
1BC9E
330
18
100
AcDbEntity
  8
1PHANTOM
100
AcDbLine
 10
607.4622196734757
 20
-1006.501681890422
 30
0.0
 11
633.4622196734759
 21
-1006.501681890422
 31
0.0
  0
LINE
  5
1BC9F
330
18
100
AcDbEntity
  8
1PHANTOM
100
AcDbLine
 10
633.9622196734759
 20
-1006.001681890422
 30
0.0
 11
633.4622196734759
 21
-1006.501681890422
 31
0.0
  0
LINE
  5
1BCA0
330
18
100
AcDbEntity
  8
1PHANTOM
100
AcDbLine
 10
633.9622196734759
 20
-1006.001681890422
 30
0.0
 11
633.9622196734762
 21
-983.5016818904223
 31
0.0
  0
LINE
  5
1BCA1
330
18
100
AcDbEntity
  8
1PHANTOM
100
AcDbLine
 10
607.9622196734757
 20
-1006.001681890423
 30
0.0
 11
607.9622196734757
 21
-983.5016818904223
 31
0.0
  0
LINE
  5
1BCA2
330
18
100
AcDbEntity
  8
1PHANTOM
100
AcDbLine
 10
632.9622196734762
 20
-1006.001681890422
 30
0.0
 11
632.9622196734757
 21
-983.5016818904223
 31
0.0
  0
LINE
  5
1BCA3
330
18
100
AcDbEntity
  8
1PHANTOM
100
AcDbLine
 10
633.9622196734759
 20
-1006.001681890422
 30
0.0
 11
606.9622196734757
 21
-1006.001681890422
 31
0.0
  0
LINE
  5
1BCA4
330
18
100
AcDbEntity
  8
1PHANTOM
100
AcDbLine
 10
632.7551128922895
 20
-1006.501681890422
 30
0.0
 11
632.9622196734762
 21
-1006.001681890422
 31
0.0
  0
LINE
  5
1BCA5
330
18
100
AcDbEntity
  8
1PHANTOM
100
AcDbLine
 10
608.1693264546623
 20
-1006.501681890422
 30
0.0
 11
607.9622196734756
 21
-1006.001681890422
 31
0.0
  0
LINE
  5
1BEE9
102
{ACAD_REACTORS
330
1BF52
102
}
330
18
100
AcDbEntity
  8
1CENTER
100
AcDbLine
 10
829.4622196734758
 20
-956.7535676080441
 30
0.0
 11
829.4622196734758
 21
-1011.171958299733
 31
0.0
  0
LINE
  5
1BEEA
102
{ACAD_REACTORS
330
1BF52
102
}
330
18
100
AcDbEntity
  8
01
100
AcDbLine
 10
828.3678958594808
 20
-959.6016793442648
 30
0.0
 11
830.3302309483563
 21
-958.8016839102138
 31
0.0
  0
LINE
  5
1BEEB
102
{ACAD_REACTORS
330
1BF52
102
}
330
18
100
AcDbEntity
  8
01
100
AcDbLine
 10
830.3302309483563
 20
-958.8016839102138
 30
0.0
 11
829.7419543733138
 21
-958.4899140539617
 31
0.0
  0
LINE
  5
1BEEC
102
{ACAD_REACTORS
330
1BF52
102
}
330
18
100
AcDbEntity
  8
01
100
AcDbLine
 10
827.4622662093739
 20
-1002.001677237055
 30
0.0
 11
831.4622662093739
 21
-1001.201686544237
 31
0.0
  0
LINE
  5
1BEED
102
{ACAD_REACTORS
330
1BF52
102
}
330
18
100
AcDbEntity
  8
01
100
AcDbLine
 10
827.4622662093739
 20
-990.8016772370504
 30
0.0
 11
831.4622662093739
 21
-990.0016865442278
 31
0.0
  0
LINE
  5
1BEEE
102
{ACAD_REACTORS
330
1BF52
102
}
330
18
100
AcDbEntity
  8
01
100
AcDbLine
 10
827.4622662093739
 20
-987.6016772370504
 30
0.0
 11
831.4622662093739
 21
-986.8016865442278
 31
0.0
  0
LINE
  5
1BEEF
102
{ACAD_REACTORS
330
1BF52
102
}
330
18
100
AcDbEntity
  8
01
100
AcDbLine
 10
831.4622662093739
 20
-986.8016865442278
 30
0.0
 11
830.9622662093739
 21
-986.7016853808306
 31
0.0
  0
LINE
  5
1BEF0
102
{ACAD_REACTORS
330
1BF52
102
}
330
18
100
AcDbEntity
  8
01
100
AcDbLine
 10
827.9622662093739
 20
-986.1016784004476
 30
0.0
 11
827.4622662093739
 21
-986.0016772370503
 31
0.0
  0
LINE
  5
1BEF1
102
{ACAD_REACTORS
330
1BF52
102
}
330
18
100
AcDbEntity
  8
01
100
AcDbLine
 10
831.4622662093739
 20
-990.0016865442278
 30
0.0
 11
830.9622662093739
 21
-989.9016853808306
 31
0.0
  0
LINE
  5
1BEF2
102
{ACAD_REACTORS
330
1BF52
102
}
330
18
100
AcDbEntity
  8
01
100
AcDbLine
 10
831.4622662093739
 20
-988.4016865442277
 30
0.0
 11
830.9622662093739
 21
-988.3016853808306
 31
0.0
  0
LINE
  5
1BEF3
102
{ACAD_REACTORS
330
1BF52
102
}
330
18
100
AcDbEntity
  8
01
100
AcDbLine
 10
827.9622662093739
 20
-987.7016784004475
 30
0.0
 11
827.4622662093739
 21
-987.6016772370504
 31
0.0
  0
LINE
  5
1BEF4
102
{ACAD_REACTORS
330
1BF52
102
}
330
18
100
AcDbEntity
  8
01
100
AcDbLine
 10
827.9622662093739
 20
-989.3016784004474
 30
0.0
 11
827.4622662093739
 21
-989.2016772370503
 31
0.0
  0
LINE
  5
1BEF5
102
{ACAD_REACTORS
330
1BF52
102
}
330
18
100
AcDbEntity
  8
01
100
AcDbLine
 10
827.4622662093739
 20
-989.2016772370503
 30
0.0
 11
831.4622662093739
 21
-988.4016865442277
 31
0.0
  0
LINE
  5
1BEF6
102
{ACAD_REACTORS
330
1BF52
102
}
330
18
100
AcDbEntity
  8
01
100
AcDbLine
 10
830.7830450527631
 20
-960.4016849638194
 30
0.0
 11
830.2312955889597
 21
-960.2189208211914
 31
0.0
  0
LINE
  5
1BEF7
102
{ACAD_REACTORS
330
1BF52
102
}
330
18
100
AcDbEntity
  8
01
100
AcDbLine
 10
831.4622662093739
 20
-983.6016865442277
 30
0.0
 11
830.9622662093739
 21
-983.5016853808306
 31
0.0
  0
LINE
  5
1BEF8
102
{ACAD_REACTORS
330
1BF52
102
}
330
18
100
AcDbEntity
  8
01
100
AcDbLine
 10
831.4622662093739
 20
-985.2016865442278
 30
0.0
 11
830.9622662093739
 21
-985.1016853808308
 31
0.0
  0
LINE
  5
1BEF9
102
{ACAD_REACTORS
330
1BF52
102
}
330
18
100
AcDbEntity
  8
01
100
AcDbLine
 10
831.2358591571699
 20
-962.0016860174251
 30
0.0
 11
830.6992654218986
 21
-961.8724153197952
 31
0.0
  0
LINE
  5
1BEFA
102
{ACAD_REACTORS
330
1BF52
102
}
330
18
100
AcDbEntity
  8
01
100
AcDbLine
 10
828.3831808065825
 20
-961.3144478030106
 30
0.0
 11
827.9150823514326
 21
-961.2016782906605
 31
0.0
  0
LINE
  5
1BEFB
102
{ACAD_REACTORS
330
1BF52
102
}
330
18
100
AcDbEntity
  8
01
100
AcDbLine
 10
827.9622662093739
 20
-984.5016784004474
 30
0.0
 11
827.4622662093739
 21
-984.4016772370503
 31
0.0
  0
LINE
  5
1BEFC
102
{ACAD_REACTORS
330
1BF52
102
}
330
18
100
AcDbEntity
  8
01
100
AcDbLine
 10
827.9622662093739
 20
-962.9016784004475
 30
0.0
 11
827.4622662093739
 21
-962.8016772370504
 31
0.0
  0
LINE
  5
1BEFD
102
{ACAD_REACTORS
330
1BF52
102
}
330
18
100
AcDbEntity
  8
01
100
AcDbLine
 10
828.825067700112
 20
-959.7531151407052
 30
0.0
 11
828.3678958594808
 21
-959.6016793442648
 31
0.0
  0
LINE
  5
1BEFE
102
{ACAD_REACTORS
330
1BF52
102
}
330
18
100
AcDbEntity
  8
01
100
AcDbLine
 10
827.9150823514326
 20
-961.2016782906605
 30
0.0
 11
830.7830450527631
 21
-960.4016849638194
 31
0.0
  0
LINE
  5
1BEFF
102
{ACAD_REACTORS
330
1BF52
102
}
330
18
100
AcDbEntity
  8
01
100
AcDbLine
 10
827.4622662093739
 20
-984.4016772370503
 30
0.0
 11
831.4622662093739
 21
-983.6016865442277
 31
0.0
  0
LINE
  5
1BF00
102
{ACAD_REACTORS
330
1BF52
102
}
330
18
100
AcDbEntity
  8
01
100
AcDbLine
 10
827.4622662093739
 20
-962.8016772370504
 30
0.0
 11
831.2358591571699
 21
-962.0016860174251
 31
0.0
  0
LINE
  5
1BF01
102
{ACAD_REACTORS
330
1BF52
102
}
330
18
100
AcDbEntity
  8
01
100
AcDbLine
 10
827.4622662093739
 20
-986.0016772370503
 30
0.0
 11
831.4622662093739
 21
-985.2016865442278
 31
0.0
  0
LINE
  5
1BF02
102
{ACAD_REACTORS
330
1BF52
102
}
330
18
100
AcDbEntity
  8
01
100
AcDbLine
 10
827.4622662093739
 20
-998.8016772370547
 30
0.0
 11
831.4622662093739
 21
-998.0016865442365
 31
0.0
  0
LINE
  5
1BF03
102
{ACAD_REACTORS
330
1BF52
102
}
330
18
100
AcDbEntity
  8
01
100
AcDbLine
 10
831.4622662093739
 20
-998.0016865442365
 30
0.0
 11
830.9622662093739
 21
-997.9016853808388
 31
0.0
  0
LINE
  5
1BF04
102
{ACAD_REACTORS
330
1BF52
102
}
330
18
100
AcDbEntity
  8
01
100
AcDbLine
 10
827.9622662093739
 20
-997.301678400448
 30
0.0
 11
827.4622662093739
 21
-997.2016772370504
 31
0.0
  0
LINE
  5
1BF05
102
{ACAD_REACTORS
330
1BF52
102
}
330
18
100
AcDbEntity
  8
01
100
AcDbLine
 10
831.4622662093739
 20
-999.6016865442366
 30
0.0
 11
830.9622662093739
 21
-999.5016853808389
 31
0.0
  0
LINE
  5
1BF06
102
{ACAD_REACTORS
330
1BF52
102
}
330
18
100
AcDbEntity
  8
01
100
AcDbLine
 10
831.4622662093739
 20
-1001.201686544237
 30
0.0
 11
830.9622662093739
 21
-1001.101685380839
 31
0.0
  0
LINE
  5
1BF07
102
{ACAD_REACTORS
330
1BF52
102
}
330
18
100
AcDbEntity
  8
01
100
AcDbLine
 10
827.9622662093739
 20
-998.9016784004524
 30
0.0
 11
827.4622662093739
 21
-998.8016772370547
 31
0.0
  0
LINE
  5
1BF08
102
{ACAD_REACTORS
330
1BF52
102
}
330
18
100
AcDbEntity
  8
01
100
AcDbLine
 10
827.9622662093739
 20
-1000.501678400453
 30
0.0
 11
827.4622662093739
 21
-1000.401677237055
 31
0.0
  0
LINE
  5
1BF09
102
{ACAD_REACTORS
330
1BF52
102
}
330
18
100
AcDbEntity
  8
01
100
AcDbLine
 10
827.4622662093739
 20
-1000.401677237055
 30
0.0
 11
831.4622662093739
 21
-999.6016865442366
 31
0.0
  0
LINE
  5
1BF0A
102
{ACAD_REACTORS
330
1BF52
102
}
330
18
100
AcDbEntity
  8
01
100
AcDbLine
 10
831.4622662093739
 20
-993.2016865442321
 30
0.0
 11
830.9622662093739
 21
-993.1016853808344
 31
0.0
  0
LINE
  5
1BF0B
102
{ACAD_REACTORS
330
1BF52
102
}
330
18
100
AcDbEntity
  8
01
100
AcDbLine
 10
831.4622662093739
 20
-991.6016865442277
 30
0.0
 11
830.9622662093739
 21
-991.5016853808306
 31
0.0
  0
LINE
  5
1BF0C
102
{ACAD_REACTORS
330
1BF52
102
}
330
18
100
AcDbEntity
  8
01
100
AcDbLine
 10
831.4622662093739
 20
-996.4016865442321
 30
0.0
 11
830.9622662093739
 21
-996.3016853808344
 31
0.0
  0
LINE
  5
1BF0D
102
{ACAD_REACTORS
330
1BF52
102
}
330
18
100
AcDbEntity
  8
01
100
AcDbLine
 10
831.4622662093739
 20
-994.8016865442322
 30
0.0
 11
830.9622662093739
 21
-994.7016853808345
 31
0.0
  0
LINE
  5
1BF0E
102
{ACAD_REACTORS
330
1BF52
102
}
330
18
100
AcDbEntity
  8
01
100
AcDbLine
 10
827.9622662093739
 20
-990.9016784004475
 30
0.0
 11
827.4622662093739
 21
-990.8016772370504
 31
0.0
  0
LINE
  5
1BF0F
102
{ACAD_REACTORS
330
1BF52
102
}
330
18
100
AcDbEntity
  8
01
100
AcDbLine
 10
827.9622662093739
 20
-992.5016784004481
 30
0.0
 11
827.4622662093739
 21
-992.4016772370503
 31
0.0
  0
LINE
  5
1BF10
102
{ACAD_REACTORS
330
1BF52
102
}
330
18
100
AcDbEntity
  8
01
100
AcDbLine
 10
827.9622662093739
 20
-995.7016784004481
 30
0.0
 11
827.4622662093739
 21
-995.6016772370505
 31
0.0
  0
LINE
  5
1BF11
102
{ACAD_REACTORS
330
1BF52
102
}
330
18
100
AcDbEntity
  8
01
100
AcDbLine
 10
827.9622662093739
 20
-994.101678400448
 30
0.0
 11
827.4622662093739
 21
-994.0016772370503
 31
0.0
  0
LINE
  5
1BF12
102
{ACAD_REACTORS
330
1BF52
102
}
330
18
100
AcDbEntity
  8
01
100
AcDbLine
 10
827.4622662093739
 20
-994.0016772370503
 30
0.0
 11
831.4622662093739
 21
-993.2016865442321
 31
0.0
  0
LINE
  5
1BF13
102
{ACAD_REACTORS
330
1BF52
102
}
330
18
100
AcDbEntity
  8
01
100
AcDbLine
 10
827.4622662093739
 20
-992.4016772370503
 30
0.0
 11
831.4622662093739
 21
-991.6016865442277
 31
0.0
  0
LINE
  5
1BF14
102
{ACAD_REACTORS
330
1BF52
102
}
330
18
100
AcDbEntity
  8
01
100
AcDbLine
 10
827.4622662093739
 20
-995.6016772370505
 30
0.0
 11
831.4622662093739
 21
-994.8016865442322
 31
0.0
  0
LINE
  5
1BF15
102
{ACAD_REACTORS
330
1BF52
102
}
330
18
100
AcDbEntity
  8
01
100
AcDbLine
 10
827.4622662093739
 20
-997.2016772370504
 30
0.0
 11
831.4622662093739
 21
-996.4016865442321
 31
0.0
  0
LINE
  5
1BF16
102
{ACAD_REACTORS
330
1BF52
102
}
330
18
100
AcDbEntity
  8
01
100
AcDbLine
 10
830.9622662093739
 20
-1007.501685380725
 30
0.0
 11
827.9622662093739
 21
-1007.501678400341
 31
0.0
  0
LINE
  5
1BF17
102
{ACAD_REACTORS
330
1BF52
102
}
330
18
100
AcDbEntity
  8
01
100
AcDbLine
 10
827.9622662093739
 20
-1006.901678400457
 30
0.0
 11
827.4622662093739
 21
-1006.801677237059
 31
0.0
  0
LINE
  5
1BF18
102
{ACAD_REACTORS
330
1BF52
102
}
330
18
100
AcDbEntity
  8
01
100
AcDbLine
 10
827.4622662093739
 20
-1006.801677237059
 30
0.0
 11
831.4622662093739
 21
-1006.001686544241
 31
0.0
  0
LINE
  5
1BF19
102
{ACAD_REACTORS
330
1BF52
102
}
330
18
100
AcDbEntity
  8
01
100
AcDbLine
 10
831.4622662093739
 20
-1006.001686544241
 30
0.0
 11
830.9622662093739
 21
-1005.901685380843
 31
0.0
  0
LINE
  5
1BF1A
102
{ACAD_REACTORS
330
1BF52
102
}
330
18
100
AcDbEntity
  8
01
100
AcDbLine
 10
827.9622662093739
 20
-1005.301678400457
 30
0.0
 11
827.4622662093739
 21
-1005.201677237059
 31
0.0
  0
LINE
  5
1BF1B
102
{ACAD_REACTORS
330
1BF52
102
}
330
18
100
AcDbEntity
  8
01
100
AcDbLine
 10
827.9622662093739
 20
-1003.701678400457
 30
0.0
 11
827.4622662093739
 21
-1003.601677237059
 31
0.0
  0
LINE
  5
1BF1C
102
{ACAD_REACTORS
330
1BF52
102
}
330
18
100
AcDbEntity
  8
01
100
AcDbLine
 10
827.4622662093739
 20
-1003.601677237059
 30
0.0
 11
831.4622662093739
 21
-1002.801686544241
 31
0.0
  0
LINE
  5
1BF1D
102
{ACAD_REACTORS
330
1BF52
102
}
330
18
100
AcDbEntity
  8
01
100
AcDbLine
 10
831.4622662093739
 20
-1004.401686544241
 30
0.0
 11
830.9622662093739
 21
-1004.301685380843
 31
0.0
  0
LINE
  5
1BF1E
102
{ACAD_REACTORS
330
1BF52
102
}
330
18
100
AcDbEntity
  8
01
100
AcDbLine
 10
831.4622662093739
 20
-1002.801686544241
 30
0.0
 11
830.9622662093739
 21
-1002.701685380843
 31
0.0
  0
LINE
  5
1BF1F
102
{ACAD_REACTORS
330
1BF52
102
}
330
18
100
AcDbEntity
  8
01
100
AcDbLine
 10
827.4622662093739
 20
-1005.201677237059
 30
0.0
 11
831.4622662093739
 21
-1004.401686544241
 31
0.0
  0
LINE
  5
1BF20
102
{ACAD_REACTORS
330
1BF52
102
}
330
18
100
AcDbEntity
  8
01
100
AcDbLine
 10
827.9622662093739
 20
-1002.101678400452
 30
0.0
 11
827.4622662093739
 21
-1002.001677237055
 31
0.0
  0
LINE
  5
1BF21
102
{ACAD_REACTORS
330
1BF52
102
}
330
18
100
AcDbEntity
  8
01
100
AcDbLine
 10
829.4622662093739
 20
-957.501681890587
 30
0.0
 11
827.9622662093739
 21
-962.8016784004486
 31
0.0
  0
LINE
  5
1BF22
102
{ACAD_REACTORS
330
1BF52
102
}
330
18
100
AcDbEntity
  8
01
100
AcDbLine
 10
827.9622662093739
 20
-962.8016784004482
 30
0.0
 11
827.9622662093739
 21
-1007.501678400341
 31
0.0
  0
LINE
  5
1BF23
102
{ACAD_REACTORS
330
1BF52
102
}
330
18
100
AcDbEntity
  8
01
100
AcDbLine
 10
829.4622662093739
 20
-957.501681890587
 30
0.0
 11
830.9622662093739
 21
-962.8016853808323
 31
0.0
  0
LINE
  5
1BF24
102
{ACAD_REACTORS
330
1BF52
102
}
330
18
100
AcDbEntity
  8
01
100
AcDbLine
 10
825.9622196734758
 20
-1007.501673746642
 30
0.0
 11
827.9622662093739
 21
-1007.501678400341
 31
0.0
  0
LINE
  5
1BF25
102
{ACAD_REACTORS
330
1BF52
102
}
330
18
100
AcDbEntity
  8
01
100
AcDbLine
 10
830.9622662093739
 20
-962.8016853808322
 30
0.0
 11
830.9622662093739
 21
-1007.501685380725
 31
0.0
  0
LINE
  5
1BF26
102
{ACAD_REACTORS
330
1BF52
102
}
330
18
100
AcDbEntity
  8
01
100
AcDbLine
 10
825.9622196734758
 20
-1006.50167374664
 30
0.0
 11
825.9622196734758
 21
-1008.601677236838
 31
0.0
  0
LINE
  5
1BF27
102
{ACAD_REACTORS
330
1BF52
102
}
330
18
100
AcDbEntity
  8
01
100
AcDbLine
 10
830.9622662093739
 20
-1007.501685380725
 30
0.0
 11
832.9622196734758
 21
-1007.501690034207
 31
0.0
  0
ARC
  5
1BF28
102
{ACAD_REACTORS
330
1BF52
102
}
330
18
100
AcDbEntity
  8
01
100
AcDbCircle
 10
827.4622196734758
 20
-1008.601677236838
 30
0.0
 40
1.5
100
AcDbArc
 50
180.0
 51
269.9998666844668
  0
LINE
  5
1BF29
102
{ACAD_REACTORS
330
1BF52
102
}
330
18
100
AcDbEntity
  8
01
100
AcDbLine
 10
832.9622196734758
 20
-1006.501690034204
 30
0.0
 11
832.9622196734758
 21
-1008.601686544017
 31
0.0
  0
LINE
  5
1BF2A
102
{ACAD_REACTORS
330
1BF52
102
}
330
18
100
AcDbEntity
  8
01
100
AcDbLine
 10
827.4622161832833
 20
-1010.101677236834
 30
0.0
 11
831.4622161832833
 21
-1010.101686544013
 31
0.0
  0
ARC
  5
1BF2B
102
{ACAD_REACTORS
330
1BF52
102
}
330
18
100
AcDbEntity
  8
01
100
AcDbCircle
 10
831.4622196734758
 20
-1008.601686544017
 30
0.0
 40
1.5
100
AcDbArc
 50
269.9998666844668
 51
0.0
  0
LINE
  5
1BF2C
102
{ACAD_REACTORS
330
1BF52
102
}
330
18
100
AcDbEntity
  8
01
100
AcDbLine
 10
827.4622662093739
 20
-976.401677237046
 30
0.0
 11
831.4622662093739
 21
-975.6016865442234
 31
0.0
  0
LINE
  5
1BF2D
102
{ACAD_REACTORS
330
1BF52
102
}
330
18
100
AcDbEntity
  8
01
100
AcDbLine
 10
827.4622662093739
 20
-973.2016772370459
 30
0.0
 11
831.4622662093739
 21
-972.4016865442234
 31
0.0
  0
LINE
  5
1BF2E
102
{ACAD_REACTORS
330
1BF52
102
}
330
18
100
AcDbEntity
  8
01
100
AcDbLine
 10
831.4622662093739
 20
-972.4016865442234
 30
0.0
 11
830.9622662093739
 21
-972.3016853808261
 31
0.0
  0
LINE
  5
1BF2F
102
{ACAD_REACTORS
330
1BF52
102
}
330
18
100
AcDbEntity
  8
01
100
AcDbLine
 10
827.9622662093739
 20
-971.7016784004431
 30
0.0
 11
827.4622662093739
 21
-971.6016772370459
 31
0.0
  0
LINE
  5
1BF30
102
{ACAD_REACTORS
330
1BF52
102
}
330
18
100
AcDbEntity
  8
01
100
AcDbLine
 10
831.4622662093739
 20
-975.6016865442234
 30
0.0
 11
830.9622662093739
 21
-975.5016853808262
 31
0.0
  0
LINE
  5
1BF31
102
{ACAD_REACTORS
330
1BF52
102
}
330
18
100
AcDbEntity
  8
01
100
AcDbLine
 10
831.4622662093739
 20
-974.0016865442233
 30
0.0
 11
830.9622662093739
 21
-973.9016853808262
 31
0.0
  0
LINE
  5
1BF32
102
{ACAD_REACTORS
330
1BF52
102
}
330
18
100
AcDbEntity
  8
01
100
AcDbLine
 10
827.9622662093739
 20
-973.301678400443
 30
0.0
 11
827.4622662093739
 21
-973.2016772370459
 31
0.0
  0
LINE
  5
1BF33
102
{ACAD_REACTORS
330
1BF52
102
}
330
18
100
AcDbEntity
  8
01
100
AcDbLine
 10
827.9622662093739
 20
-974.901678400443
 30
0.0
 11
827.4622662093739
 21
-974.8016772370459
 31
0.0
  0
LINE
  5
1BF34
102
{ACAD_REACTORS
330
1BF52
102
}
330
18
100
AcDbEntity
  8
01
100
AcDbLine
 10
827.4622662093739
 20
-974.8016772370459
 30
0.0
 11
831.4622662093739
 21
-974.0016865442233
 31
0.0
  0
LINE
  5
1BF35
102
{ACAD_REACTORS
330
1BF52
102
}
330
18
100
AcDbEntity
  8
01
100
AcDbLine
 10
831.4622662093739
 20
-969.2016865442233
 30
0.0
 11
830.9622662093739
 21
-969.1016853808262
 31
0.0
  0
LINE
  5
1BF36
102
{ACAD_REACTORS
330
1BF52
102
}
330
18
100
AcDbEntity
  8
01
100
AcDbLine
 10
831.4622662093739
 20
-970.8016865442233
 30
0.0
 11
830.9622662093739
 21
-970.7016853808263
 31
0.0
  0
LINE
  5
1BF37
102
{ACAD_REACTORS
330
1BF52
102
}
330
18
100
AcDbEntity
  8
01
100
AcDbLine
 10
827.9622662093739
 20
-970.101678400443
 30
0.0
 11
827.4622662093739
 21
-970.0016772370459
 31
0.0
  0
LINE
  5
1BF38
102
{ACAD_REACTORS
330
1BF52
102
}
330
18
100
AcDbEntity
  8
01
100
AcDbLine
 10
827.4622662093739
 20
-970.0016772370459
 30
0.0
 11
831.4622662093739
 21
-969.2016865442233
 31
0.0
  0
LINE
  5
1BF39
102
{ACAD_REACTORS
330
1BF52
102
}
330
18
100
AcDbEntity
  8
01
100
AcDbLine
 10
827.4622662093739
 20
-971.6016772370459
 30
0.0
 11
831.4622662093739
 21
-970.8016865442233
 31
0.0
  0
LINE
  5
1BF3A
102
{ACAD_REACTORS
330
1BF52
102
}
330
18
100
AcDbEntity
  8
01
100
AcDbLine
 10
827.9622662093739
 20
-982.9016784004436
 30
0.0
 11
827.4622662093739
 21
-982.801677237046
 31
0.0
  0
LINE
  5
1BF3B
102
{ACAD_REACTORS
330
1BF52
102
}
330
18
100
AcDbEntity
  8
01
100
AcDbLine
 10
831.4622662093739
 20
-978.8016865442277
 30
0.0
 11
830.9622662093739
 21
-978.70168538083
 31
0.0
  0
LINE
  5
1BF3C
102
{ACAD_REACTORS
330
1BF52
102
}
330
18
100
AcDbEntity
  8
01
100
AcDbLine
 10
831.4622662093739
 20
-977.2016865442233
 30
0.0
 11
830.9622662093739
 21
-977.1016853808262
 31
0.0
  0
LINE
  5
1BF3D
102
{ACAD_REACTORS
330
1BF52
102
}
330
18
100
AcDbEntity
  8
01
100
AcDbLine
 10
831.4622662093739
 20
-982.0016865442277
 30
0.0
 11
830.9622662093739
 21
-981.90168538083
 31
0.0
  0
LINE
  5
1BF3E
102
{ACAD_REACTORS
330
1BF52
102
}
330
18
100
AcDbEntity
  8
01
100
AcDbLine
 10
831.4622662093739
 20
-980.4016865442278
 30
0.0
 11
830.9622662093739
 21
-980.3016853808301
 31
0.0
  0
LINE
  5
1BF3F
102
{ACAD_REACTORS
330
1BF52
102
}
330
18
100
AcDbEntity
  8
01
100
AcDbLine
 10
827.9622662093739
 20
-976.5016784004431
 30
0.0
 11
827.4622662093739
 21
-976.401677237046
 31
0.0
  0
LINE
  5
1BF40
102
{ACAD_REACTORS
330
1BF52
102
}
330
18
100
AcDbEntity
  8
01
100
AcDbLine
 10
827.9622662093739
 20
-978.1016784004437
 30
0.0
 11
827.4622662093739
 21
-978.0016772370459
 31
0.0
  0
LINE
  5
1BF41
102
{ACAD_REACTORS
330
1BF52
102
}
330
18
100
AcDbEntity
  8
01
100
AcDbLine
 10
827.9622662093739
 20
-981.3016784004437
 30
0.0
 11
827.4622662093739
 21
-981.201677237046
 31
0.0
  0
LINE
  5
1BF42
102
{ACAD_REACTORS
330
1BF52
102
}
330
18
100
AcDbEntity
  8
01
100
AcDbLine
 10
827.9622662093739
 20
-979.7016784004436
 30
0.0
 11
827.4622662093739
 21
-979.6016772370459
 31
0.0
  0
LINE
  5
1BF43
102
{ACAD_REACTORS
330
1BF52
102
}
330
18
100
AcDbEntity
  8
01
100
AcDbLine
 10
827.4622662093739
 20
-979.6016772370459
 30
0.0
 11
831.4622662093739
 21
-978.8016865442277
 31
0.0
  0
LINE
  5
1BF44
102
{ACAD_REACTORS
330
1BF52
102
}
330
18
100
AcDbEntity
  8
01
100
AcDbLine
 10
827.4622662093739
 20
-978.0016772370459
 30
0.0
 11
831.4622662093739
 21
-977.2016865442233
 31
0.0
  0
LINE
  5
1BF45
102
{ACAD_REACTORS
330
1BF52
102
}
330
18
100
AcDbEntity
  8
01
100
AcDbLine
 10
827.4622662093739
 20
-981.201677237046
 30
0.0
 11
831.4622662093739
 21
-980.4016865442278
 31
0.0
  0
LINE
  5
1BF46
102
{ACAD_REACTORS
330
1BF52
102
}
330
18
100
AcDbEntity
  8
01
100
AcDbLine
 10
827.4622662093739
 20
-982.801677237046
 30
0.0
 11
831.4622662093739
 21
-982.0016865442277
 31
0.0
  0
LINE
  5
1BF47
102
{ACAD_REACTORS
330
1BF52
102
}
330
18
100
AcDbEntity
  8
01
100
AcDbLine
 10
827.4622662093739
 20
-968.401677237046
 30
0.0
 11
831.4622662093739
 21
-967.6016865442234
 31
0.0
  0
LINE
  5
1BF48
102
{ACAD_REACTORS
330
1BF52
102
}
330
18
100
AcDbEntity
  8
01
100
AcDbLine
 10
831.4622662093739
 20
-967.6016865442234
 30
0.0
 11
830.9622662093739
 21
-967.5016853808262
 31
0.0
  0
LINE
  5
1BF49
102
{ACAD_REACTORS
330
1BF52
102
}
330
18
100
AcDbEntity
  8
01
100
AcDbLine
 10
827.9622662093739
 20
-966.9016784004432
 30
0.0
 11
827.4622662093739
 21
-966.801677237046
 31
0.0
  0
LINE
  5
1BF4A
102
{ACAD_REACTORS
330
1BF52
102
}
330
18
100
AcDbEntity
  8
01
100
AcDbLine
 10
827.9622662093739
 20
-968.5016784004431
 30
0.0
 11
827.4622662093739
 21
-968.401677237046
 31
0.0
  0
LINE
  5
1BF4B
102
{ACAD_REACTORS
330
1BF52
102
}
330
18
100
AcDbEntity
  8
01
100
AcDbLine
 10
831.4622662093739
 20
-964.4016865442234
 30
0.0
 11
830.9622662093739
 21
-964.3016853808263
 31
0.0
  0
LINE
  5
1BF4C
102
{ACAD_REACTORS
330
1BF52
102
}
330
18
100
AcDbEntity
  8
01
100
AcDbLine
 10
831.4622662093739
 20
-966.0016865442234
 30
0.0
 11
830.9622662093739
 21
-965.9016853808264
 31
0.0
  0
LINE
  5
1BF4D
102
{ACAD_REACTORS
330
1BF52
102
}
330
18
100
AcDbEntity
  8
01
100
AcDbLine
 10
827.9622662093739
 20
-965.301678400443
 30
0.0
 11
827.4622662093739
 21
-965.2016772370459
 31
0.0
  0
LINE
  5
1BF4E
102
{ACAD_REACTORS
330
1BF52
102
}
330
18
100
AcDbEntity
  8
01
100
AcDbLine
 10
827.4622662093739
 20
-965.2016772370459
 30
0.0
 11
831.4622662093739
 21
-964.4016865442234
 31
0.0
  0
LINE
  5
1BF4F
102
{ACAD_REACTORS
330
1BF52
102
}
330
18
100
AcDbEntity
  8
01
100
AcDbLine
 10
827.4622662093739
 20
-966.801677237046
 30
0.0
 11
831.4622662093739
 21
-966.0016865442234
 31
0.0
  0
LINE
  5
1BF50
102
{ACAD_REACTORS
330
1BF52
102
}
330
18
100
AcDbEntity
  8
01
100
AcDbLine
 10
832.9622196734758
 20
-1006.501690034204
 30
0.0
 11
825.9622196734758
 21
-1006.50167374664
 31
0.0
  0
LINE
  5
1BF51
102
{ACAD_REACTORS
330
1BF52
102
}
330
18
100
AcDbEntity
  8
01
100
AcDbLine
 10
829.4622196734758
 20
-1007.501681890425
 30
0.0
 11
830.0395691670697
 21
-1006.501683233796
 31
0.0
  0
LINE
  5
1BF53
102
{ACAD_REACTORS
330
1BFBC
102
}
330
18
100
AcDbEntity
  8
01
100
AcDbLine
 10
955.694172393058
 20
-1074.30172842632
 30
0.0
 11
950.3941758831963
 21
-1072.80172842632
 31
0.0
  0
LINE
  5
1BF54
102
{ACAD_REACTORS
330
1BFBC
102
}
330
18
100
AcDbEntity
  8
01
100
AcDbLine
 10
950.3941758831968
 20
-1072.80172842632
 30
0.0
 11
905.6941758833044
 21
-1072.80172842632
 31
0.0
  0
LINE
  5
1BF55
102
{ACAD_REACTORS
330
1BFBC
102
}
330
18
100
AcDbEntity
  8
01
100
AcDbLine
 10
955.694172393058
 20
-1074.30172842632
 30
0.0
 11
950.3941689028127
 21
-1075.80172842632
 31
0.0
  0
LINE
  5
1BF56
102
{ACAD_REACTORS
330
1BFBC
102
}
330
18
100
AcDbEntity
  8
01
100
AcDbLine
 10
905.6941805370025
 20
-1070.801681890422
 30
0.0
 11
905.6941758833044
 21
-1072.80172842632
 31
0.0
  0
LINE
  5
1BF57
102
{ACAD_REACTORS
330
1BFBC
102
}
330
18
100
AcDbEntity
  8
01
100
AcDbLine
 10
950.3941689028128
 20
-1075.80172842632
 30
0.0
 11
905.6941689029197
 21
-1075.80172842632
 31
0.0
  0
LINE
  5
1BF58
102
{ACAD_REACTORS
330
1BFBC
102
}
330
18
100
AcDbEntity
  8
01
100
AcDbLine
 10
906.6941805370051
 20
-1070.801681890422
 30
0.0
 11
904.5941770468072
 21
-1070.801681890422
 31
0.0
  0
LINE
  5
1BF59
102
{ACAD_REACTORS
330
1BFBC
102
}
330
18
100
AcDbEntity
  8
01
100
AcDbLine
 10
905.6941689029197
 20
-1075.80172842632
 30
0.0
 11
905.6941642494382
 21
-1077.801681890422
 31
0.0
  0
ARC
  5
1BF5A
102
{ACAD_REACTORS
330
1BFBC
102
}
330
18
100
AcDbEntity
  8
01
100
AcDbCircle
 10
904.5941770468072
 20
-1072.301681890422
 30
0.0
 40
1.5
100
AcDbArc
 50
90.0
 51
179.9998666844662
  0
LINE
  5
1BF5B
102
{ACAD_REACTORS
330
1BFBC
102
}
330
18
100
AcDbEntity
  8
01
100
AcDbLine
 10
906.6941642494406
 20
-1077.801681890422
 30
0.0
 11
904.5941677396276
 21
-1077.801681890422
 31
0.0
  0
LINE
  5
1BF5C
102
{ACAD_REACTORS
330
1BFBC
102
}
330
18
100
AcDbEntity
  8
01
100
AcDbLine
 10
903.0941770468113
 20
-1072.301678400229
 30
0.0
 11
903.0941677396316
 21
-1076.301678400229
 31
0.0
  0
ARC
  5
1BF5D
102
{ACAD_REACTORS
330
1BFBC
102
}
330
18
100
AcDbEntity
  8
01
100
AcDbCircle
 10
904.5941677396276
 20
-1076.301681890422
 30
0.0
 40
1.5
100
AcDbArc
 50
179.9998666844662
 51
270.0
  0
LINE
  5
1BF5E
102
{ACAD_REACTORS
330
1BFBC
102
}
330
18
100
AcDbEntity
  8
1CENTER
100
AcDbLine
 10
956.4422866756008
 20
-1074.301681890422
 30
0.0
 11
902.0238959839115
 21
-1074.301681890422
 31
0.0
  0
LINE
  5
1BF5F
102
{ACAD_REACTORS
330
1BFBC
102
}
330
18
100
AcDbEntity
  8
01
100
AcDbLine
 10
953.5941749393802
 20
-1073.207358076427
 30
0.0
 11
954.3941703734312
 21
-1075.169693165302
 31
0.0
  0
LINE
  5
1BF60
102
{ACAD_REACTORS
330
1BFBC
102
}
330
18
100
AcDbEntity
  8
01
100
AcDbLine
 10
954.3941703734312
 20
-1075.169693165302
 30
0.0
 11
954.7059402296833
 21
-1074.58141659026
 31
0.0
  0
LINE
  5
1BF61
102
{ACAD_REACTORS
330
1BFBC
102
}
330
18
100
AcDbEntity
  8
01
100
AcDbLine
 10
911.1941770465902
 20
-1072.30172842632
 30
0.0
 11
911.9941677394085
 21
-1076.30172842632
 31
0.0
  0
LINE
  5
1BF62
102
{ACAD_REACTORS
330
1BFBC
102
}
330
18
100
AcDbEntity
  8
01
100
AcDbLine
 10
922.3941770465946
 20
-1072.30172842632
 30
0.0
 11
923.1941677394171
 21
-1076.30172842632
 31
0.0
  0
LINE
  5
1BF63
102
{ACAD_REACTORS
330
1BFBC
102
}
330
18
100
AcDbEntity
  8
01
100
AcDbLine
 10
925.5941770465946
 20
-1072.30172842632
 30
0.0
 11
926.3941677394172
 21
-1076.30172842632
 31
0.0
  0
LINE
  5
1BF64
102
{ACAD_REACTORS
330
1BFBC
102
}
330
18
100
AcDbEntity
  8
01
100
AcDbLine
 10
926.3941677394172
 20
-1076.30172842632
 30
0.0
 11
926.4941689028144
 21
-1075.80172842632
 31
0.0
  0
LINE
  5
1BF65
102
{ACAD_REACTORS
330
1BFBC
102
}
330
18
100
AcDbEntity
  8
01
100
AcDbLine
 10
927.0941758831974
 20
-1072.80172842632
 30
0.0
 11
927.1941770465946
 21
-1072.30172842632
 31
0.0
  0
LINE
  5
1BF66
102
{ACAD_REACTORS
330
1BFBC
102
}
330
18
100
AcDbEntity
  8
01
100
AcDbLine
 10
923.1941677394171
 20
-1076.30172842632
 30
0.0
 11
923.2941689028144
 21
-1075.80172842632
 31
0.0
  0
LINE
  5
1BF67
102
{ACAD_REACTORS
330
1BFBC
102
}
330
18
100
AcDbEntity
  8
01
100
AcDbLine
 10
924.7941677394173
 20
-1076.30172842632
 30
0.0
 11
924.8941689028144
 21
-1075.80172842632
 31
0.0
  0
LINE
  5
1BF68
102
{ACAD_REACTORS
330
1BFBC
102
}
330
18
100
AcDbEntity
  8
01
100
AcDbLine
 10
925.4941758831975
 20
-1072.80172842632
 30
0.0
 11
925.5941770465946
 21
-1072.30172842632
 31
0.0
  0
LINE
  5
1BF69
102
{ACAD_REACTORS
330
1BFBC
102
}
330
18
100
AcDbEntity
  8
01
100
AcDbLine
 10
923.8941758831976
 20
-1072.80172842632
 30
0.0
 11
923.9941770465947
 21
-1072.30172842632
 31
0.0
  0
LINE
  5
1BF6A
102
{ACAD_REACTORS
330
1BFBC
102
}
330
18
100
AcDbEntity
  8
01
100
AcDbLine
 10
923.9941770465947
 20
-1072.30172842632
 30
0.0
 11
924.7941677394173
 21
-1076.30172842632
 31
0.0
  0
LINE
  5
1BF6B
102
{ACAD_REACTORS
330
1BFBC
102
}
330
18
100
AcDbEntity
  8
01
100
AcDbLine
 10
952.7941693198255
 20
-1075.622507269709
 30
0.0
 11
952.9769334624535
 21
-1075.070757805906
 31
0.0
  0
LINE
  5
1BF6C
102
{ACAD_REACTORS
330
1BFBC
102
}
330
18
100
AcDbEntity
  8
01
100
AcDbLine
 10
929.5941677394172
 20
-1076.30172842632
 30
0.0
 11
929.6941689028143
 21
-1075.80172842632
 31
0.0
  0
LINE
  5
1BF6D
102
{ACAD_REACTORS
330
1BFBC
102
}
330
18
100
AcDbEntity
  8
01
100
AcDbLine
 10
927.9941677394172
 20
-1076.30172842632
 30
0.0
 11
928.0941689028142
 21
-1075.80172842632
 31
0.0
  0
LINE
  5
1BF6E
102
{ACAD_REACTORS
330
1BFBC
102
}
330
18
100
AcDbEntity
  8
01
100
AcDbLine
 10
951.1941682662199
 20
-1076.075321374116
 30
0.0
 11
951.3234389638498
 21
-1075.538727638845
 31
0.0
  0
LINE
  5
1BF6F
102
{ACAD_REACTORS
330
1BFBC
102
}
330
18
100
AcDbEntity
  8
01
100
AcDbLine
 10
951.8814064806344
 20
-1073.222643023528
 30
0.0
 11
951.9941759929844
 21
-1072.754544568379
 31
0.0
  0
LINE
  5
1BF70
102
{ACAD_REACTORS
330
1BFBC
102
}
330
18
100
AcDbEntity
  8
01
100
AcDbLine
 10
928.6941758831975
 20
-1072.80172842632
 30
0.0
 11
928.7941770465947
 21
-1072.30172842632
 31
0.0
  0
LINE
  5
1BF71
102
{ACAD_REACTORS
330
1BFBC
102
}
330
18
100
AcDbEntity
  8
01
100
AcDbLine
 10
950.2941758831975
 20
-1072.80172842632
 30
0.0
 11
950.3941770465946
 21
-1072.30172842632
 31
0.0
  0
LINE
  5
1BF72
102
{ACAD_REACTORS
330
1BFBC
102
}
330
18
100
AcDbEntity
  8
01
100
AcDbLine
 10
953.4427391429398
 20
-1073.664529917058
 30
0.0
 11
953.5941749393802
 21
-1073.207358076427
 31
0.0
  0
LINE
  5
1BF73
102
{ACAD_REACTORS
330
1BFBC
102
}
330
18
100
AcDbEntity
  8
01
100
AcDbLine
 10
951.9941759929844
 20
-1072.754544568379
 30
0.0
 11
952.7941693198255
 21
-1075.622507269709
 31
0.0
  0
LINE
  5
1BF74
102
{ACAD_REACTORS
330
1BFBC
102
}
330
18
100
AcDbEntity
  8
01
100
AcDbLine
 10
928.7941770465947
 20
-1072.30172842632
 30
0.0
 11
929.5941677394172
 21
-1076.30172842632
 31
0.0
  0
LINE
  5
1BF75
102
{ACAD_REACTORS
330
1BFBC
102
}
330
18
100
AcDbEntity
  8
01
100
AcDbLine
 10
950.3941770465946
 20
-1072.30172842632
 30
0.0
 11
951.1941682662199
 21
-1076.075321374116
 31
0.0
  0
LINE
  5
1BF76
102
{ACAD_REACTORS
330
1BFBC
102
}
330
18
100
AcDbEntity
  8
01
100
AcDbLine
 10
927.1941770465946
 20
-1072.30172842632
 30
0.0
 11
927.9941677394172
 21
-1076.30172842632
 31
0.0
  0
LINE
  5
1BF77
102
{ACAD_REACTORS
330
1BFBC
102
}
330
18
100
AcDbEntity
  8
01
100
AcDbLine
 10
914.3941770465902
 20
-1072.30172842632
 30
0.0
 11
915.1941677394085
 21
-1076.30172842632
 31
0.0
  0
LINE
  5
1BF78
102
{ACAD_REACTORS
330
1BFBC
102
}
330
18
100
AcDbEntity
  8
01
100
AcDbLine
 10
915.1941677394085
 20
-1076.30172842632
 30
0.0
 11
915.2941689028062
 21
-1075.80172842632
 31
0.0
  0
LINE
  5
1BF79
102
{ACAD_REACTORS
330
1BFBC
102
}
330
18
100
AcDbEntity
  8
01
100
AcDbLine
 10
915.8941758831969
 20
-1072.80172842632
 30
0.0
 11
915.9941770465946
 21
-1072.30172842632
 31
0.0
  0
LINE
  5
1BF7A
102
{ACAD_REACTORS
330
1BFBC
102
}
330
18
100
AcDbEntity
  8
01
100
AcDbLine
 10
913.5941677394084
 20
-1076.30172842632
 30
0.0
 11
913.694168902806
 21
-1075.80172842632
 31
0.0
  0
LINE
  5
1BF7B
102
{ACAD_REACTORS
330
1BFBC
102
}
330
18
100
AcDbEntity
  8
01
100
AcDbLine
 10
911.9941677394085
 20
-1076.30172842632
 30
0.0
 11
912.0941689028061
 21
-1075.80172842632
 31
0.0
  0
LINE
  5
1BF7C
102
{ACAD_REACTORS
330
1BFBC
102
}
330
18
100
AcDbEntity
  8
01
100
AcDbLine
 10
914.2941758831926
 20
-1072.80172842632
 30
0.0
 11
914.3941770465902
 21
-1072.30172842632
 31
0.0
  0
LINE
  5
1BF7D
102
{ACAD_REACTORS
330
1BFBC
102
}
330
18
100
AcDbEntity
  8
01
100
AcDbLine
 10
912.6941758831924
 20
-1072.80172842632
 30
0.0
 11
912.7941770465901
 21
-1072.30172842632
 31
0.0
  0
LINE
  5
1BF7E
102
{ACAD_REACTORS
330
1BFBC
102
}
330
18
100
AcDbEntity
  8
01
100
AcDbLine
 10
912.7941770465901
 20
-1072.30172842632
 30
0.0
 11
913.5941677394084
 21
-1076.30172842632
 31
0.0
  0
LINE
  5
1BF7F
102
{ACAD_REACTORS
330
1BFBC
102
}
330
18
100
AcDbEntity
  8
01
100
AcDbLine
 10
919.9941677394129
 20
-1076.30172842632
 30
0.0
 11
920.0941689028106
 21
-1075.80172842632
 31
0.0
  0
LINE
  5
1BF80
102
{ACAD_REACTORS
330
1BFBC
102
}
330
18
100
AcDbEntity
  8
01
100
AcDbLine
 10
921.5941677394172
 20
-1076.30172842632
 30
0.0
 11
921.6941689028143
 21
-1075.80172842632
 31
0.0
  0
LINE
  5
1BF81
102
{ACAD_REACTORS
330
1BFBC
102
}
330
18
100
AcDbEntity
  8
01
100
AcDbLine
 10
916.7941677394128
 20
-1076.30172842632
 30
0.0
 11
916.8941689028105
 21
-1075.80172842632
 31
0.0
  0
LINE
  5
1BF82
102
{ACAD_REACTORS
330
1BFBC
102
}
330
18
100
AcDbEntity
  8
01
100
AcDbLine
 10
918.3941677394128
 20
-1076.30172842632
 30
0.0
 11
918.4941689028104
 21
-1075.80172842632
 31
0.0
  0
LINE
  5
1BF83
102
{ACAD_REACTORS
330
1BFBC
102
}
330
18
100
AcDbEntity
  8
01
100
AcDbLine
 10
922.2941758831975
 20
-1072.80172842632
 30
0.0
 11
922.3941770465946
 21
-1072.30172842632
 31
0.0
  0
LINE
  5
1BF84
102
{ACAD_REACTORS
330
1BFBC
102
}
330
18
100
AcDbEntity
  8
01
100
AcDbLine
 10
920.6941758831969
 20
-1072.80172842632
 30
0.0
 11
920.7941770465947
 21
-1072.30172842632
 31
0.0
  0
LINE
  5
1BF85
102
{ACAD_REACTORS
330
1BFBC
102
}
330
18
100
AcDbEntity
  8
01
100
AcDbLine
 10
917.4941758831968
 20
-1072.80172842632
 30
0.0
 11
917.5941770465945
 21
-1072.30172842632
 31
0.0
  0
LINE
  5
1BF86
102
{ACAD_REACTORS
330
1BFBC
102
}
330
18
100
AcDbEntity
  8
01
100
AcDbLine
 10
919.094175883197
 20
-1072.80172842632
 30
0.0
 11
919.1941770465946
 21
-1072.30172842632
 31
0.0
  0
LINE
  5
1BF87
102
{ACAD_REACTORS
330
1BFBC
102
}
330
18
100
AcDbEntity
  8
01
100
AcDbLine
 10
919.1941770465946
 20
-1072.30172842632
 30
0.0
 11
919.9941677394129
 21
-1076.30172842632
 31
0.0
  0
LINE
  5
1BF88
102
{ACAD_REACTORS
330
1BFBC
102
}
330
18
100
AcDbEntity
  8
01
100
AcDbLine
 10
920.7941770465947
 20
-1072.30172842632
 30
0.0
 11
921.5941677394172
 21
-1076.30172842632
 31
0.0
  0
LINE
  5
1BF89
102
{ACAD_REACTORS
330
1BFBC
102
}
330
18
100
AcDbEntity
  8
01
100
AcDbLine
 10
917.5941770465945
 20
-1072.30172842632
 30
0.0
 11
918.3941677394128
 21
-1076.30172842632
 31
0.0
  0
LINE
  5
1BF8A
102
{ACAD_REACTORS
330
1BFBC
102
}
330
18
100
AcDbEntity
  8
01
100
AcDbLine
 10
915.9941770465946
 20
-1072.30172842632
 30
0.0
 11
916.7941677394128
 21
-1076.30172842632
 31
0.0
  0
LINE
  5
1BF8B
102
{ACAD_REACTORS
330
1BFBC
102
}
330
18
100
AcDbEntity
  8
01
100
AcDbLine
 10
905.6941689029197
 20
-1075.80172842632
 30
0.0
 11
905.6941758833044
 21
-1072.80172842632
 31
0.0
  0
LINE
  5
1BF8C
102
{ACAD_REACTORS
330
1BFBC
102
}
330
18
100
AcDbEntity
  8
01
100
AcDbLine
 10
906.6941642494406
 20
-1077.801681890422
 30
0.0
 11
906.6941805370051
 21
-1070.801681890422
 31
0.0
  0
LINE
  5
1BF8D
102
{ACAD_REACTORS
330
1BFBC
102
}
330
18
100
AcDbEntity
  8
01
100
AcDbLine
 10
906.2941758831884
 20
-1072.80172842632
 30
0.0
 11
906.394177046586
 21
-1072.30172842632
 31
0.0
  0
LINE
  5
1BF8E
102
{ACAD_REACTORS
330
1BFBC
102
}
330
18
100
AcDbEntity
  8
01
100
AcDbLine
 10
906.394177046586
 20
-1072.30172842632
 30
0.0
 11
907.1941677394043
 21
-1076.30172842632
 31
0.0
  0
LINE
  5
1BF8F
102
{ACAD_REACTORS
330
1BFBC
102
}
330
18
100
AcDbEntity
  8
01
100
AcDbLine
 10
907.1941677394043
 20
-1076.30172842632
 30
0.0
 11
907.294168902802
 21
-1075.80172842632
 31
0.0
  0
LINE
  5
1BF90
102
{ACAD_REACTORS
330
1BFBC
102
}
330
18
100
AcDbEntity
  8
01
100
AcDbLine
 10
907.8941758831883
 20
-1072.80172842632
 30
0.0
 11
907.994177046586
 21
-1072.30172842632
 31
0.0
  0
LINE
  5
1BF91
102
{ACAD_REACTORS
330
1BFBC
102
}
330
18
100
AcDbEntity
  8
01
100
AcDbLine
 10
909.4941758831882
 20
-1072.80172842632
 30
0.0
 11
909.5941770465859
 21
-1072.30172842632
 31
0.0
  0
LINE
  5
1BF92
102
{ACAD_REACTORS
330
1BFBC
102
}
330
18
100
AcDbEntity
  8
01
100
AcDbLine
 10
909.5941770465859
 20
-1072.30172842632
 30
0.0
 11
910.3941677394041
 21
-1076.30172842632
 31
0.0
  0
LINE
  5
1BF93
102
{ACAD_REACTORS
330
1BFBC
102
}
330
18
100
AcDbEntity
  8
01
100
AcDbLine
 10
908.7941677394042
 20
-1076.30172842632
 30
0.0
 11
908.8941689028019
 21
-1075.80172842632
 31
0.0
  0
LINE
  5
1BF94
102
{ACAD_REACTORS
330
1BFBC
102
}
330
18
100
AcDbEntity
  8
01
100
AcDbLine
 10
910.3941677394041
 20
-1076.30172842632
 30
0.0
 11
910.4941689028018
 21
-1075.80172842632
 31
0.0
  0
LINE
  5
1BF95
102
{ACAD_REACTORS
330
1BFBC
102
}
330
18
100
AcDbEntity
  8
01
100
AcDbLine
 10
907.994177046586
 20
-1072.30172842632
 30
0.0
 11
908.7941677394042
 21
-1076.30172842632
 31
0.0
  0
LINE
  5
1BF96
102
{ACAD_REACTORS
330
1BFBC
102
}
330
18
100
AcDbEntity
  8
01
100
AcDbLine
 10
911.0941758831925
 20
-1072.80172842632
 30
0.0
 11
911.1941770465902
 21
-1072.30172842632
 31
0.0
  0
LINE
  5
1BF97
102
{ACAD_REACTORS
330
1BFBC
102
}
330
18
100
AcDbEntity
  8
01
100
AcDbLine
 10
936.794177046599
 20
-1072.30172842632
 30
0.0
 11
937.5941677394216
 21
-1076.30172842632
 31
0.0
  0
LINE
  5
1BF98
102
{ACAD_REACTORS
330
1BFBC
102
}
330
18
100
AcDbEntity
  8
01
100
AcDbLine
 10
939.994177046599
 20
-1072.30172842632
 30
0.0
 11
940.7941677394216
 21
-1076.30172842632
 31
0.0
  0
LINE
  5
1BF99
102
{ACAD_REACTORS
330
1BFBC
102
}
330
18
100
AcDbEntity
  8
01
100
AcDbLine
 10
940.7941677394216
 20
-1076.30172842632
 30
0.0
 11
940.8941689028188
 21
-1075.80172842632
 31
0.0
  0
LINE
  5
1BF9A
102
{ACAD_REACTORS
330
1BFBC
102
}
330
18
100
AcDbEntity
  8
01
100
AcDbLine
 10
941.4941758832018
 20
-1072.80172842632
 30
0.0
 11
941.594177046599
 21
-1072.30172842632
 31
0.0
  0
LINE
  5
1BF9B
102
{ACAD_REACTORS
330
1BFBC
102
}
330
18
100
AcDbEntity
  8
01
100
AcDbLine
 10
937.5941677394216
 20
-1076.30172842632
 30
0.0
 11
937.6941689028188
 21
-1075.80172842632
 31
0.0
  0
LINE
  5
1BF9C
102
{ACAD_REACTORS
330
1BFBC
102
}
330
18
100
AcDbEntity
  8
01
100
AcDbLine
 10
939.1941677394217
 20
-1076.30172842632
 30
0.0
 11
939.2941689028188
 21
-1075.80172842632
 31
0.0
  0
LINE
  5
1BF9D
102
{ACAD_REACTORS
330
1BFBC
102
}
330
18
100
AcDbEntity
  8
01
100
AcDbLine
 10
939.8941758832019
 20
-1072.80172842632
 30
0.0
 11
939.994177046599
 21
-1072.30172842632
 31
0.0
  0
LINE
  5
1BF9E
102
{ACAD_REACTORS
330
1BFBC
102
}
330
18
100
AcDbEntity
  8
01
100
AcDbLine
 10
938.294175883202
 20
-1072.80172842632
 30
0.0
 11
938.3941770465991
 21
-1072.30172842632
 31
0.0
  0
LINE
  5
1BF9F
102
{ACAD_REACTORS
330
1BFBC
102
}
330
18
100
AcDbEntity
  8
01
100
AcDbLine
 10
938.3941770465991
 20
-1072.30172842632
 30
0.0
 11
939.1941677394217
 21
-1076.30172842632
 31
0.0
  0
LINE
  5
1BFA0
102
{ACAD_REACTORS
330
1BFBC
102
}
330
18
100
AcDbEntity
  8
01
100
AcDbLine
 10
943.9941677394216
 20
-1076.30172842632
 30
0.0
 11
944.0941689028188
 21
-1075.80172842632
 31
0.0
  0
LINE
  5
1BFA1
102
{ACAD_REACTORS
330
1BFBC
102
}
330
18
100
AcDbEntity
  8
01
100
AcDbLine
 10
942.3941677394216
 20
-1076.30172842632
 30
0.0
 11
942.4941689028186
 21
-1075.80172842632
 31
0.0
  0
LINE
  5
1BFA2
102
{ACAD_REACTORS
330
1BFBC
102
}
330
18
100
AcDbEntity
  8
01
100
AcDbLine
 10
943.094175883202
 20
-1072.80172842632
 30
0.0
 11
943.1941770465991
 21
-1072.30172842632
 31
0.0
  0
LINE
  5
1BFA3
102
{ACAD_REACTORS
330
1BFBC
102
}
330
18
100
AcDbEntity
  8
01
100
AcDbLine
 10
943.1941770465991
 20
-1072.30172842632
 30
0.0
 11
943.9941677394216
 21
-1076.30172842632
 31
0.0
  0
LINE
  5
1BFA4
102
{ACAD_REACTORS
330
1BFBC
102
}
330
18
100
AcDbEntity
  8
01
100
AcDbLine
 10
941.594177046599
 20
-1072.30172842632
 30
0.0
 11
942.3941677394216
 21
-1076.30172842632
 31
0.0
  0
LINE
  5
1BFA5
102
{ACAD_REACTORS
330
1BFBC
102
}
330
18
100
AcDbEntity
  8
01
100
AcDbLine
 10
930.2941758832013
 20
-1072.80172842632
 30
0.0
 11
930.394177046599
 21
-1072.30172842632
 31
0.0
  0
LINE
  5
1BFA6
102
{ACAD_REACTORS
330
1BFBC
102
}
330
18
100
AcDbEntity
  8
01
100
AcDbLine
 10
934.3941677394173
 20
-1076.30172842632
 30
0.0
 11
934.494168902815
 21
-1075.80172842632
 31
0.0
  0
LINE
  5
1BFA7
102
{ACAD_REACTORS
330
1BFBC
102
}
330
18
100
AcDbEntity
  8
01
100
AcDbLine
 10
935.9941677394216
 20
-1076.30172842632
 30
0.0
 11
936.0941689028188
 21
-1075.80172842632
 31
0.0
  0
LINE
  5
1BFA8
102
{ACAD_REACTORS
330
1BFBC
102
}
330
18
100
AcDbEntity
  8
01
100
AcDbLine
 10
931.1941677394173
 20
-1076.30172842632
 30
0.0
 11
931.2941689028149
 21
-1075.80172842632
 31
0.0
  0
LINE
  5
1BFA9
102
{ACAD_REACTORS
330
1BFBC
102
}
330
18
100
AcDbEntity
  8
01
100
AcDbLine
 10
932.7941677394172
 20
-1076.30172842632
 30
0.0
 11
932.8941689028148
 21
-1075.80172842632
 31
0.0
  0
LINE
  5
1BFAA
102
{ACAD_REACTORS
330
1BFBC
102
}
330
18
100
AcDbEntity
  8
01
100
AcDbLine
 10
936.6941758832019
 20
-1072.80172842632
 30
0.0
 11
936.794177046599
 21
-1072.30172842632
 31
0.0
  0
LINE
  5
1BFAB
102
{ACAD_REACTORS
330
1BFBC
102
}
330
18
100
AcDbEntity
  8
01
100
AcDbLine
 10
935.0941758832013
 20
-1072.80172842632
 30
0.0
 11
935.1941770465991
 21
-1072.30172842632
 31
0.0
  0
LINE
  5
1BFAC
102
{ACAD_REACTORS
330
1BFBC
102
}
330
18
100
AcDbEntity
  8
01
100
AcDbLine
 10
931.8941758832012
 20
-1072.80172842632
 30
0.0
 11
931.9941770465989
 21
-1072.30172842632
 31
0.0
  0
LINE
  5
1BFAD
102
{ACAD_REACTORS
330
1BFBC
102
}
330
18
100
AcDbEntity
  8
01
100
AcDbLine
 10
933.4941758832014
 20
-1072.80172842632
 30
0.0
 11
933.594177046599
 21
-1072.30172842632
 31
0.0
  0
LINE
  5
1BFAE
102
{ACAD_REACTORS
330
1BFBC
102
}
330
18
100
AcDbEntity
  8
01
100
AcDbLine
 10
933.594177046599
 20
-1072.30172842632
 30
0.0
 11
934.3941677394173
 21
-1076.30172842632
 31
0.0
  0
LINE
  5
1BFAF
102
{ACAD_REACTORS
330
1BFBC
102
}
330
18
100
AcDbEntity
  8
01
100
AcDbLine
 10
935.1941770465991
 20
-1072.30172842632
 30
0.0
 11
935.9941677394216
 21
-1076.30172842632
 31
0.0
  0
LINE
  5
1BFB0
102
{ACAD_REACTORS
330
1BFBC
102
}
330
18
100
AcDbEntity
  8
01
100
AcDbLine
 10
931.9941770465989
 20
-1072.30172842632
 30
0.0
 11
932.7941677394172
 21
-1076.30172842632
 31
0.0
  0
LINE
  5
1BFB1
102
{ACAD_REACTORS
330
1BFBC
102
}
330
18
100
AcDbEntity
  8
01
100
AcDbLine
 10
930.394177046599
 20
-1072.30172842632
 30
0.0
 11
931.1941677394173
 21
-1076.30172842632
 31
0.0
  0
LINE
  5
1BFB2
102
{ACAD_REACTORS
330
1BFBC
102
}
330
18
100
AcDbEntity
  8
01
100
AcDbLine
 10
944.794177046599
 20
-1072.30172842632
 30
0.0
 11
945.5941677394216
 21
-1076.30172842632
 31
0.0
  0
LINE
  5
1BFB3
102
{ACAD_REACTORS
330
1BFBC
102
}
330
18
100
AcDbEntity
  8
01
100
AcDbLine
 10
945.5941677394216
 20
-1076.30172842632
 30
0.0
 11
945.6941689028188
 21
-1075.80172842632
 31
0.0
  0
LINE
  5
1BFB4
102
{ACAD_REACTORS
330
1BFBC
102
}
330
18
100
AcDbEntity
  8
01
100
AcDbLine
 10
946.2941758832018
 20
-1072.80172842632
 30
0.0
 11
946.394177046599
 21
-1072.30172842632
 31
0.0
  0
LINE
  5
1BFB5
102
{ACAD_REACTORS
330
1BFBC
102
}
330
18
100
AcDbEntity
  8
01
100
AcDbLine
 10
944.6941758832019
 20
-1072.80172842632
 30
0.0
 11
944.794177046599
 21
-1072.30172842632
 31
0.0
  0
LINE
  5
1BFB6
102
{ACAD_REACTORS
330
1BFBC
102
}
330
18
100
AcDbEntity
  8
01
100
AcDbLine
 10
948.7941677394216
 20
-1076.30172842632
 30
0.0
 11
948.8941689028187
 21
-1075.80172842632
 31
0.0
  0
LINE
  5
1BFB7
102
{ACAD_REACTORS
330
1BFBC
102
}
330
18
100
AcDbEntity
  8
01
100
AcDbLine
 10
947.1941677394216
 20
-1076.30172842632
 30
0.0
 11
947.2941689028186
 21
-1075.80172842632
 31
0.0
  0
LINE
  5
1BFB8
102
{ACAD_REACTORS
330
1BFBC
102
}
330
18
100
AcDbEntity
  8
01
100
AcDbLine
 10
947.8941758832019
 20
-1072.80172842632
 30
0.0
 11
947.994177046599
 21
-1072.30172842632
 31
0.0
  0
LINE
  5
1BFB9
102
{ACAD_REACTORS
330
1BFBC
102
}
330
18
100
AcDbEntity
  8
01
100
AcDbLine
 10
947.994177046599
 20
-1072.30172842632
 30
0.0
 11
948.7941677394216
 21
-1076.30172842632
 31
0.0
  0
LINE
  5
1BFBA
102
{ACAD_REACTORS
330
1BFBC
102
}
330
18
100
AcDbEntity
  8
01
100
AcDbLine
 10
946.394177046599
 20
-1072.30172842632
 30
0.0
 11
947.1941677394216
 21
-1076.30172842632
 31
0.0
  0
LINE
  5
1BFBB
102
{ACAD_REACTORS
330
1BFBC
102
}
330
18
100
AcDbEntity
  8
01
100
AcDbLine
 10
905.6941723932204
 20
-1074.301681890422
 30
0.0
 11
906.6941710498489
 21
-1074.879031384016
 31
0.0
  0
LINE
  5
1BFBD
102
{ACAD_REACTORS
330
1C026
102
}
330
18
100
AcDbEntity
  8
01
100
AcDbLine
 10
955.694172393058
 20
-1078.30172842632
 30
0.0
 11
950.3941758831963
 21
-1076.80172842632
 31
0.0
  0
LINE
  5
1BFBE
102
{ACAD_REACTORS
330
1C026
102
}
330
18
100
AcDbEntity
  8
01
100
AcDbLine
 10
950.3941758831968
 20
-1076.80172842632
 30
0.0
 11
905.6941758833044
 21
-1076.80172842632
 31
0.0
  0
LINE
  5
1BFBF
102
{ACAD_REACTORS
330
1C026
102
}
330
18
100
AcDbEntity
  8
01
100
AcDbLine
 10
955.694172393058
 20
-1078.30172842632
 30
0.0
 11
950.3941689028127
 21
-1079.80172842632
 31
0.0
  0
LINE
  5
1BFC0
102
{ACAD_REACTORS
330
1C026
102
}
330
18
100
AcDbEntity
  8
01
100
AcDbLine
 10
905.6941805370025
 20
-1074.801681890422
 30
0.0
 11
905.6941758833044
 21
-1076.80172842632
 31
0.0
  0
LINE
  5
1BFC1
102
{ACAD_REACTORS
330
1C026
102
}
330
18
100
AcDbEntity
  8
01
100
AcDbLine
 10
950.3941689028128
 20
-1079.80172842632
 30
0.0
 11
905.6941689029197
 21
-1079.80172842632
 31
0.0
  0
LINE
  5
1BFC2
102
{ACAD_REACTORS
330
1C026
102
}
330
18
100
AcDbEntity
  8
01
100
AcDbLine
 10
906.6941805370051
 20
-1074.801681890422
 30
0.0
 11
904.5941770468072
 21
-1074.801681890422
 31
0.0
  0
LINE
  5
1BFC3
102
{ACAD_REACTORS
330
1C026
102
}
330
18
100
AcDbEntity
  8
01
100
AcDbLine
 10
905.6941689029197
 20
-1079.80172842632
 30
0.0
 11
905.6941642494382
 21
-1081.801681890422
 31
0.0
  0
ARC
  5
1BFC4
102
{ACAD_REACTORS
330
1C026
102
}
330
18
100
AcDbEntity
  8
01
100
AcDbCircle
 10
904.5941770468072
 20
-1076.301681890422
 30
0.0
 40
1.5
100
AcDbArc
 50
90.0
 51
179.9998666844662
  0
LINE
  5
1BFC5
102
{ACAD_REACTORS
330
1C026
102
}
330
18
100
AcDbEntity
  8
01
100
AcDbLine
 10
906.6941642494406
 20
-1081.801681890422
 30
0.0
 11
904.5941677396276
 21
-1081.801681890422
 31
0.0
  0
LINE
  5
1BFC6
102
{ACAD_REACTORS
330
1C026
102
}
330
18
100
AcDbEntity
  8
01
100
AcDbLine
 10
903.0941770468113
 20
-1076.301678400229
 30
0.0
 11
903.0941677396316
 21
-1080.301678400229
 31
0.0
  0
ARC
  5
1BFC7
102
{ACAD_REACTORS
330
1C026
102
}
330
18
100
AcDbEntity
  8
01
100
AcDbCircle
 10
904.5941677396276
 20
-1080.301681890422
 30
0.0
 40
1.5
100
AcDbArc
 50
179.9998666844662
 51
270.0
  0
LINE
  5
1BFC8
102
{ACAD_REACTORS
330
1C026
102
}
330
18
100
AcDbEntity
  8
1CENTER
100
AcDbLine
 10
956.4422866756008
 20
-1078.301681890422
 30
0.0
 11
902.0238959839115
 21
-1078.301681890422
 31
0.0
  0
LINE
  5
1BFC9
102
{ACAD_REACTORS
330
1C026
102
}
330
18
100
AcDbEntity
  8
01
100
AcDbLine
 10
953.5941749393802
 20
-1077.207358076427
 30
0.0
 11
954.3941703734312
 21
-1079.169693165302
 31
0.0
  0
LINE
  5
1BFCA
102
{ACAD_REACTORS
330
1C026
102
}
330
18
100
AcDbEntity
  8
01
100
AcDbLine
 10
954.3941703734312
 20
-1079.169693165302
 30
0.0
 11
954.7059402296833
 21
-1078.58141659026
 31
0.0
  0
LINE
  5
1BFCB
102
{ACAD_REACTORS
330
1C026
102
}
330
18
100
AcDbEntity
  8
01
100
AcDbLine
 10
911.1941770465902
 20
-1076.30172842632
 30
0.0
 11
911.9941677394085
 21
-1080.30172842632
 31
0.0
  0
LINE
  5
1BFCC
102
{ACAD_REACTORS
330
1C026
102
}
330
18
100
AcDbEntity
  8
01
100
AcDbLine
 10
922.3941770465946
 20
-1076.30172842632
 30
0.0
 11
923.1941677394171
 21
-1080.30172842632
 31
0.0
  0
LINE
  5
1BFCD
102
{ACAD_REACTORS
330
1C026
102
}
330
18
100
AcDbEntity
  8
01
100
AcDbLine
 10
925.5941770465946
 20
-1076.30172842632
 30
0.0
 11
926.3941677394172
 21
-1080.30172842632
 31
0.0
  0
LINE
  5
1BFCE
102
{ACAD_REACTORS
330
1C026
102
}
330
18
100
AcDbEntity
  8
01
100
AcDbLine
 10
926.3941677394172
 20
-1080.30172842632
 30
0.0
 11
926.4941689028144
 21
-1079.80172842632
 31
0.0
  0
LINE
  5
1BFCF
102
{ACAD_REACTORS
330
1C026
102
}
330
18
100
AcDbEntity
  8
01
100
AcDbLine
 10
927.0941758831974
 20
-1076.80172842632
 30
0.0
 11
927.1941770465946
 21
-1076.30172842632
 31
0.0
  0
LINE
  5
1BFD0
102
{ACAD_REACTORS
330
1C026
102
}
330
18
100
AcDbEntity
  8
01
100
AcDbLine
 10
923.1941677394171
 20
-1080.30172842632
 30
0.0
 11
923.2941689028144
 21
-1079.80172842632
 31
0.0
  0
LINE
  5
1BFD1
102
{ACAD_REACTORS
330
1C026
102
}
330
18
100
AcDbEntity
  8
01
100
AcDbLine
 10
924.7941677394173
 20
-1080.30172842632
 30
0.0
 11
924.8941689028144
 21
-1079.80172842632
 31
0.0
  0
LINE
  5
1BFD2
102
{ACAD_REACTORS
330
1C026
102
}
330
18
100
AcDbEntity
  8
01
100
AcDbLine
 10
925.4941758831975
 20
-1076.80172842632
 30
0.0
 11
925.5941770465946
 21
-1076.30172842632
 31
0.0
  0
LINE
  5
1BFD3
102
{ACAD_REACTORS
330
1C026
102
}
330
18
100
AcDbEntity
  8
01
100
AcDbLine
 10
923.8941758831976
 20
-1076.80172842632
 30
0.0
 11
923.9941770465947
 21
-1076.30172842632
 31
0.0
  0
LINE
  5
1BFD4
102
{ACAD_REACTORS
330
1C026
102
}
330
18
100
AcDbEntity
  8
01
100
AcDbLine
 10
923.9941770465947
 20
-1076.30172842632
 30
0.0
 11
924.7941677394173
 21
-1080.30172842632
 31
0.0
  0
LINE
  5
1BFD5
102
{ACAD_REACTORS
330
1C026
102
}
330
18
100
AcDbEntity
  8
01
100
AcDbLine
 10
952.7941693198255
 20
-1079.622507269709
 30
0.0
 11
952.9769334624535
 21
-1079.070757805906
 31
0.0
  0
LINE
  5
1BFD6
102
{ACAD_REACTORS
330
1C026
102
}
330
18
100
AcDbEntity
  8
01
100
AcDbLine
 10
929.5941677394172
 20
-1080.30172842632
 30
0.0
 11
929.6941689028143
 21
-1079.80172842632
 31
0.0
  0
LINE
  5
1BFD7
102
{ACAD_REACTORS
330
1C026
102
}
330
18
100
AcDbEntity
  8
01
100
AcDbLine
 10
927.9941677394172
 20
-1080.30172842632
 30
0.0
 11
928.0941689028142
 21
-1079.80172842632
 31
0.0
  0
LINE
  5
1BFD8
102
{ACAD_REACTORS
330
1C026
102
}
330
18
100
AcDbEntity
  8
01
100
AcDbLine
 10
951.1941682662199
 20
-1080.075321374116
 30
0.0
 11
951.3234389638498
 21
-1079.538727638845
 31
0.0
  0
LINE
  5
1BFD9
102
{ACAD_REACTORS
330
1C026
102
}
330
18
100
AcDbEntity
  8
01
100
AcDbLine
 10
951.8814064806344
 20
-1077.222643023528
 30
0.0
 11
951.9941759929844
 21
-1076.754544568379
 31
0.0
  0
LINE
  5
1BFDA
102
{ACAD_REACTORS
330
1C026
102
}
330
18
100
AcDbEntity
  8
01
100
AcDbLine
 10
928.6941758831975
 20
-1076.80172842632
 30
0.0
 11
928.7941770465947
 21
-1076.30172842632
 31
0.0
  0
LINE
  5
1BFDB
102
{ACAD_REACTORS
330
1C026
102
}
330
18
100
AcDbEntity
  8
01
100
AcDbLine
 10
950.2941758831975
 20
-1076.80172842632
 30
0.0
 11
950.3941770465946
 21
-1076.30172842632
 31
0.0
  0
LINE
  5
1BFDC
102
{ACAD_REACTORS
330
1C026
102
}
330
18
100
AcDbEntity
  8
01
100
AcDbLine
 10
953.4427391429398
 20
-1077.664529917058
 30
0.0
 11
953.5941749393802
 21
-1077.207358076427
 31
0.0
  0
LINE
  5
1BFDD
102
{ACAD_REACTORS
330
1C026
102
}
330
18
100
AcDbEntity
  8
01
100
AcDbLine
 10
951.9941759929844
 20
-1076.754544568379
 30
0.0
 11
952.7941693198255
 21
-1079.622507269709
 31
0.0
  0
LINE
  5
1BFDE
102
{ACAD_REACTORS
330
1C026
102
}
330
18
100
AcDbEntity
  8
01
100
AcDbLine
 10
928.7941770465947
 20
-1076.30172842632
 30
0.0
 11
929.5941677394172
 21
-1080.30172842632
 31
0.0
  0
LINE
  5
1BFDF
102
{ACAD_REACTORS
330
1C026
102
}
330
18
100
AcDbEntity
  8
01
100
AcDbLine
 10
950.3941770465946
 20
-1076.30172842632
 30
0.0
 11
951.1941682662199
 21
-1080.075321374116
 31
0.0
  0
LINE
  5
1BFE0
102
{ACAD_REACTORS
330
1C026
102
}
330
18
100
AcDbEntity
  8
01
100
AcDbLine
 10
927.1941770465946
 20
-1076.30172842632
 30
0.0
 11
927.9941677394172
 21
-1080.30172842632
 31
0.0
  0
LINE
  5
1BFE1
102
{ACAD_REACTORS
330
1C026
102
}
330
18
100
AcDbEntity
  8
01
100
AcDbLine
 10
914.3941770465902
 20
-1076.30172842632
 30
0.0
 11
915.1941677394085
 21
-1080.30172842632
 31
0.0
  0
LINE
  5
1BFE2
102
{ACAD_REACTORS
330
1C026
102
}
330
18
100
AcDbEntity
  8
01
100
AcDbLine
 10
915.1941677394085
 20
-1080.30172842632
 30
0.0
 11
915.2941689028062
 21
-1079.80172842632
 31
0.0
  0
LINE
  5
1BFE3
102
{ACAD_REACTORS
330
1C026
102
}
330
18
100
AcDbEntity
  8
01
100
AcDbLine
 10
915.8941758831969
 20
-1076.80172842632
 30
0.0
 11
915.9941770465946
 21
-1076.30172842632
 31
0.0
  0
LINE
  5
1BFE4
102
{ACAD_REACTORS
330
1C026
102
}
330
18
100
AcDbEntity
  8
01
100
AcDbLine
 10
913.5941677394084
 20
-1080.30172842632
 30
0.0
 11
913.694168902806
 21
-1079.80172842632
 31
0.0
  0
LINE
  5
1BFE5
102
{ACAD_REACTORS
330
1C026
102
}
330
18
100
AcDbEntity
  8
01
100
AcDbLine
 10
911.9941677394085
 20
-1080.30172842632
 30
0.0
 11
912.0941689028061
 21
-1079.80172842632
 31
0.0
  0
LINE
  5
1BFE6
102
{ACAD_REACTORS
330
1C026
102
}
330
18
100
AcDbEntity
  8
01
100
AcDbLine
 10
914.2941758831926
 20
-1076.80172842632
 30
0.0
 11
914.3941770465902
 21
-1076.30172842632
 31
0.0
  0
LINE
  5
1BFE7
102
{ACAD_REACTORS
330
1C026
102
}
330
18
100
AcDbEntity
  8
01
100
AcDbLine
 10
912.6941758831924
 20
-1076.80172842632
 30
0.0
 11
912.7941770465901
 21
-1076.30172842632
 31
0.0
  0
LINE
  5
1BFE8
102
{ACAD_REACTORS
330
1C026
102
}
330
18
100
AcDbEntity
  8
01
100
AcDbLine
 10
912.7941770465901
 20
-1076.30172842632
 30
0.0
 11
913.5941677394084
 21
-1080.30172842632
 31
0.0
  0
LINE
  5
1BFE9
102
{ACAD_REACTORS
330
1C026
102
}
330
18
100
AcDbEntity
  8
01
100
AcDbLine
 10
919.9941677394129
 20
-1080.30172842632
 30
0.0
 11
920.0941689028106
 21
-1079.80172842632
 31
0.0
  0
LINE
  5
1BFEA
102
{ACAD_REACTORS
330
1C026
102
}
330
18
100
AcDbEntity
  8
01
100
AcDbLine
 10
921.5941677394172
 20
-1080.30172842632
 30
0.0
 11
921.6941689028143
 21
-1079.80172842632
 31
0.0
  0
LINE
  5
1BFEB
102
{ACAD_REACTORS
330
1C026
102
}
330
18
100
AcDbEntity
  8
01
100
AcDbLine
 10
916.7941677394128
 20
-1080.30172842632
 30
0.0
 11
916.8941689028105
 21
-1079.80172842632
 31
0.0
  0
LINE
  5
1BFEC
102
{ACAD_REACTORS
330
1C026
102
}
330
18
100
AcDbEntity
  8
01
100
AcDbLine
 10
918.3941677394128
 20
-1080.30172842632
 30
0.0
 11
918.4941689028104
 21
-1079.80172842632
 31
0.0
  0
LINE
  5
1BFED
102
{ACAD_REACTORS
330
1C026
102
}
330
18
100
AcDbEntity
  8
01
100
AcDbLine
 10
922.2941758831975
 20
-1076.80172842632
 30
0.0
 11
922.3941770465946
 21
-1076.30172842632
 31
0.0
  0
LINE
  5
1BFEE
102
{ACAD_REACTORS
330
1C026
102
}
330
18
100
AcDbEntity
  8
01
100
AcDbLine
 10
920.6941758831969
 20
-1076.80172842632
 30
0.0
 11
920.7941770465947
 21
-1076.30172842632
 31
0.0
  0
LINE
  5
1BFEF
102
{ACAD_REACTORS
330
1C026
102
}
330
18
100
AcDbEntity
  8
01
100
AcDbLine
 10
917.4941758831968
 20
-1076.80172842632
 30
0.0
 11
917.5941770465945
 21
-1076.30172842632
 31
0.0
  0
LINE
  5
1BFF0
102
{ACAD_REACTORS
330
1C026
102
}
330
18
100
AcDbEntity
  8
01
100
AcDbLine
 10
919.094175883197
 20
-1076.80172842632
 30
0.0
 11
919.1941770465946
 21
-1076.30172842632
 31
0.0
  0
LINE
  5
1BFF1
102
{ACAD_REACTORS
330
1C026
102
}
330
18
100
AcDbEntity
  8
01
100
AcDbLine
 10
919.1941770465946
 20
-1076.30172842632
 30
0.0
 11
919.9941677394129
 21
-1080.30172842632
 31
0.0
  0
LINE
  5
1BFF2
102
{ACAD_REACTORS
330
1C026
102
}
330
18
100
AcDbEntity
  8
01
100
AcDbLine
 10
920.7941770465947
 20
-1076.30172842632
 30
0.0
 11
921.5941677394172
 21
-1080.30172842632
 31
0.0
  0
LINE
  5
1BFF3
102
{ACAD_REACTORS
330
1C026
102
}
330
18
100
AcDbEntity
  8
01
100
AcDbLine
 10
917.5941770465945
 20
-1076.30172842632
 30
0.0
 11
918.3941677394128
 21
-1080.30172842632
 31
0.0
  0
LINE
  5
1BFF4
102
{ACAD_REACTORS
330
1C026
102
}
330
18
100
AcDbEntity
  8
01
100
AcDbLine
 10
915.9941770465946
 20
-1076.30172842632
 30
0.0
 11
916.7941677394128
 21
-1080.30172842632
 31
0.0
  0
LINE
  5
1BFF5
102
{ACAD_REACTORS
330
1C026
102
}
330
18
100
AcDbEntity
  8
01
100
AcDbLine
 10
905.6941689029197
 20
-1079.80172842632
 30
0.0
 11
905.6941758833044
 21
-1076.80172842632
 31
0.0
  0
LINE
  5
1BFF6
102
{ACAD_REACTORS
330
1C026
102
}
330
18
100
AcDbEntity
  8
01
100
AcDbLine
 10
906.6941642494406
 20
-1081.801681890422
 30
0.0
 11
906.6941805370051
 21
-1074.801681890422
 31
0.0
  0
LINE
  5
1BFF7
102
{ACAD_REACTORS
330
1C026
102
}
330
18
100
AcDbEntity
  8
01
100
AcDbLine
 10
906.2941758831884
 20
-1076.80172842632
 30
0.0
 11
906.394177046586
 21
-1076.30172842632
 31
0.0
  0
LINE
  5
1BFF8
102
{ACAD_REACTORS
330
1C026
102
}
330
18
100
AcDbEntity
  8
01
100
AcDbLine
 10
906.394177046586
 20
-1076.30172842632
 30
0.0
 11
907.1941677394043
 21
-1080.30172842632
 31
0.0
  0
LINE
  5
1BFF9
102
{ACAD_REACTORS
330
1C026
102
}
330
18
100
AcDbEntity
  8
01
100
AcDbLine
 10
907.1941677394043
 20
-1080.30172842632
 30
0.0
 11
907.294168902802
 21
-1079.80172842632
 31
0.0
  0
LINE
  5
1BFFA
102
{ACAD_REACTORS
330
1C026
102
}
330
18
100
AcDbEntity
  8
01
100
AcDbLine
 10
907.8941758831883
 20
-1076.80172842632
 30
0.0
 11
907.994177046586
 21
-1076.30172842632
 31
0.0
  0
LINE
  5
1BFFB
102
{ACAD_REACTORS
330
1C026
102
}
330
18
100
AcDbEntity
  8
01
100
AcDbLine
 10
909.4941758831882
 20
-1076.80172842632
 30
0.0
 11
909.5941770465859
 21
-1076.30172842632
 31
0.0
  0
LINE
  5
1BFFC
102
{ACAD_REACTORS
330
1C026
102
}
330
18
100
AcDbEntity
  8
01
100
AcDbLine
 10
909.5941770465859
 20
-1076.30172842632
 30
0.0
 11
910.3941677394041
 21
-1080.30172842632
 31
0.0
  0
LINE
  5
1BFFD
102
{ACAD_REACTORS
330
1C026
102
}
330
18
100
AcDbEntity
  8
01
100
AcDbLine
 10
908.7941677394042
 20
-1080.30172842632
 30
0.0
 11
908.8941689028019
 21
-1079.80172842632
 31
0.0
  0
LINE
  5
1BFFE
102
{ACAD_REACTORS
330
1C026
102
}
330
18
100
AcDbEntity
  8
01
100
AcDbLine
 10
910.3941677394041
 20
-1080.30172842632
 30
0.0
 11
910.4941689028018
 21
-1079.80172842632
 31
0.0
  0
LINE
  5
1BFFF
102
{ACAD_REACTORS
330
1C026
102
}
330
18
100
AcDbEntity
  8
01
100
AcDbLine
 10
907.994177046586
 20
-1076.30172842632
 30
0.0
 11
908.7941677394042
 21
-1080.30172842632
 31
0.0
  0
LINE
  5
1C000
102
{ACAD_REACTORS
330
1C026
102
}
330
18
100
AcDbEntity
  8
01
100
AcDbLine
 10
911.0941758831925
 20
-1076.80172842632
 30
0.0
 11
911.1941770465902
 21
-1076.30172842632
 31
0.0
  0
LINE
  5
1C001
102
{ACAD_REACTORS
330
1C026
102
}
330
18
100
AcDbEntity
  8
01
100
AcDbLine
 10
936.794177046599
 20
-1076.30172842632
 30
0.0
 11
937.5941677394216
 21
-1080.30172842632
 31
0.0
  0
LINE
  5
1C002
102
{ACAD_REACTORS
330
1C026
102
}
330
18
100
AcDbEntity
  8
01
100
AcDbLine
 10
939.994177046599
 20
-1076.30172842632
 30
0.0
 11
940.7941677394216
 21
-1080.30172842632
 31
0.0
  0
LINE
  5
1C003
102
{ACAD_REACTORS
330
1C026
102
}
330
18
100
AcDbEntity
  8
01
100
AcDbLine
 10
940.7941677394216
 20
-1080.30172842632
 30
0.0
 11
940.8941689028188
 21
-1079.80172842632
 31
0.0
  0
LINE
  5
1C004
102
{ACAD_REACTORS
330
1C026
102
}
330
18
100
AcDbEntity
  8
01
100
AcDbLine
 10
941.4941758832018
 20
-1076.80172842632
 30
0.0
 11
941.594177046599
 21
-1076.30172842632
 31
0.0
  0
LINE
  5
1C005
102
{ACAD_REACTORS
330
1C026
102
}
330
18
100
AcDbEntity
  8
01
100
AcDbLine
 10
937.5941677394216
 20
-1080.30172842632
 30
0.0
 11
937.6941689028188
 21
-1079.80172842632
 31
0.0
  0
LINE
  5
1C006
102
{ACAD_REACTORS
330
1C026
102
}
330
18
100
AcDbEntity
  8
01
100
AcDbLine
 10
939.1941677394217
 20
-1080.30172842632
 30
0.0
 11
939.2941689028188
 21
-1079.80172842632
 31
0.0
  0
LINE
  5
1C007
102
{ACAD_REACTORS
330
1C026
102
}
330
18
100
AcDbEntity
  8
01
100
AcDbLine
 10
939.8941758832019
 20
-1076.80172842632
 30
0.0
 11
939.994177046599
 21
-1076.30172842632
 31
0.0
  0
LINE
  5
1C008
102
{ACAD_REACTORS
330
1C026
102
}
330
18
100
AcDbEntity
  8
01
100
AcDbLine
 10
938.294175883202
 20
-1076.80172842632
 30
0.0
 11
938.3941770465991
 21
-1076.30172842632
 31
0.0
  0
LINE
  5
1C009
102
{ACAD_REACTORS
330
1C026
102
}
330
18
100
AcDbEntity
  8
01
100
AcDbLine
 10
938.3941770465991
 20
-1076.30172842632
 30
0.0
 11
939.1941677394217
 21
-1080.30172842632
 31
0.0
  0
LINE
  5
1C00A
102
{ACAD_REACTORS
330
1C026
102
}
330
18
100
AcDbEntity
  8
01
100
AcDbLine
 10
943.9941677394216
 20
-1080.30172842632
 30
0.0
 11
944.0941689028188
 21
-1079.80172842632
 31
0.0
  0
LINE
  5
1C00B
102
{ACAD_REACTORS
330
1C026
102
}
330
18
100
AcDbEntity
  8
01
100
AcDbLine
 10
942.3941677394216
 20
-1080.30172842632
 30
0.0
 11
942.4941689028186
 21
-1079.80172842632
 31
0.0
  0
LINE
  5
1C00C
102
{ACAD_REACTORS
330
1C026
102
}
330
18
100
AcDbEntity
  8
01
100
AcDbLine
 10
943.094175883202
 20
-1076.80172842632
 30
0.0
 11
943.1941770465991
 21
-1076.30172842632
 31
0.0
  0
LINE
  5
1C00D
102
{ACAD_REACTORS
330
1C026
102
}
330
18
100
AcDbEntity
  8
01
100
AcDbLine
 10
943.1941770465991
 20
-1076.30172842632
 30
0.0
 11
943.9941677394216
 21
-1080.30172842632
 31
0.0
  0
LINE
  5
1C00E
102
{ACAD_REACTORS
330
1C026
102
}
330
18
100
AcDbEntity
  8
01
100
AcDbLine
 10
941.594177046599
 20
-1076.30172842632
 30
0.0
 11
942.3941677394216
 21
-1080.30172842632
 31
0.0
  0
LINE
  5
1C00F
102
{ACAD_REACTORS
330
1C026
102
}
330
18
100
AcDbEntity
  8
01
100
AcDbLine
 10
930.2941758832013
 20
-1076.80172842632
 30
0.0
 11
930.394177046599
 21
-1076.30172842632
 31
0.0
  0
LINE
  5
1C010
102
{ACAD_REACTORS
330
1C026
102
}
330
18
100
AcDbEntity
  8
01
100
AcDbLine
 10
934.3941677394173
 20
-1080.30172842632
 30
0.0
 11
934.494168902815
 21
-1079.80172842632
 31
0.0
  0
LINE
  5
1C011
102
{ACAD_REACTORS
330
1C026
102
}
330
18
100
AcDbEntity
  8
01
100
AcDbLine
 10
935.9941677394216
 20
-1080.30172842632
 30
0.0
 11
936.0941689028188
 21
-1079.80172842632
 31
0.0
  0
LINE
  5
1C012
102
{ACAD_REACTORS
330
1C026
102
}
330
18
100
AcDbEntity
  8
01
100
AcDbLine
 10
931.1941677394173
 20
-1080.30172842632
 30
0.0
 11
931.2941689028149
 21
-1079.80172842632
 31
0.0
  0
LINE
  5
1C013
102
{ACAD_REACTORS
330
1C026
102
}
330
18
100
AcDbEntity
  8
01
100
AcDbLine
 10
932.7941677394172
 20
-1080.30172842632
 30
0.0
 11
932.8941689028148
 21
-1079.80172842632
 31
0.0
  0
LINE
  5
1C014
102
{ACAD_REACTORS
330
1C026
102
}
330
18
100
AcDbEntity
  8
01
100
AcDbLine
 10
936.6941758832019
 20
-1076.80172842632
 30
0.0
 11
936.794177046599
 21
-1076.30172842632
 31
0.0
  0
LINE
  5
1C015
102
{ACAD_REACTORS
330
1C026
102
}
330
18
100
AcDbEntity
  8
01
100
AcDbLine
 10
935.0941758832013
 20
-1076.80172842632
 30
0.0
 11
935.1941770465991
 21
-1076.30172842632
 31
0.0
  0
LINE
  5
1C016
102
{ACAD_REACTORS
330
1C026
102
}
330
18
100
AcDbEntity
  8
01
100
AcDbLine
 10
931.8941758832012
 20
-1076.80172842632
 30
0.0
 11
931.9941770465989
 21
-1076.30172842632
 31
0.0
  0
LINE
  5
1C017
102
{ACAD_REACTORS
330
1C026
102
}
330
18
100
AcDbEntity
  8
01
100
AcDbLine
 10
933.4941758832014
 20
-1076.80172842632
 30
0.0
 11
933.594177046599
 21
-1076.30172842632
 31
0.0
  0
LINE
  5
1C018
102
{ACAD_REACTORS
330
1C026
102
}
330
18
100
AcDbEntity
  8
01
100
AcDbLine
 10
933.594177046599
 20
-1076.30172842632
 30
0.0
 11
934.3941677394173
 21
-1080.30172842632
 31
0.0
  0
LINE
  5
1C019
102
{ACAD_REACTORS
330
1C026
102
}
330
18
100
AcDbEntity
  8
01
100
AcDbLine
 10
935.1941770465991
 20
-1076.30172842632
 30
0.0
 11
935.9941677394216
 21
-1080.30172842632
 31
0.0
  0
LINE
  5
1C01A
102
{ACAD_REACTORS
330
1C026
102
}
330
18
100
AcDbEntity
  8
01
100
AcDbLine
 10
931.9941770465989
 20
-1076.30172842632
 30
0.0
 11
932.7941677394172
 21
-1080.30172842632
 31
0.0
  0
LINE
  5
1C01B
102
{ACAD_REACTORS
330
1C026
102
}
330
18
100
AcDbEntity
  8
01
100
AcDbLine
 10
930.394177046599
 20
-1076.30172842632
 30
0.0
 11
931.1941677394173
 21
-1080.30172842632
 31
0.0
  0
LINE
  5
1C01C
102
{ACAD_REACTORS
330
1C026
102
}
330
18
100
AcDbEntity
  8
01
100
AcDbLine
 10
944.794177046599
 20
-1076.30172842632
 30
0.0
 11
945.5941677394216
 21
-1080.30172842632
 31
0.0
  0
LINE
  5
1C01D
102
{ACAD_REACTORS
330
1C026
102
}
330
18
100
AcDbEntity
  8
01
100
AcDbLine
 10
945.5941677394216
 20
-1080.30172842632
 30
0.0
 11
945.6941689028188
 21
-1079.80172842632
 31
0.0
  0
LINE
  5
1C01E
102
{ACAD_REACTORS
330
1C026
102
}
330
18
100
AcDbEntity
  8
01
100
AcDbLine
 10
946.2941758832018
 20
-1076.80172842632
 30
0.0
 11
946.394177046599
 21
-1076.30172842632
 31
0.0
  0
LINE
  5
1C01F
102
{ACAD_REACTORS
330
1C026
102
}
330
18
100
AcDbEntity
  8
01
100
AcDbLine
 10
944.6941758832019
 20
-1076.80172842632
 30
0.0
 11
944.794177046599
 21
-1076.30172842632
 31
0.0
  0
LINE
  5
1C020
102
{ACAD_REACTORS
330
1C026
102
}
330
18
100
AcDbEntity
  8
01
100
AcDbLine
 10
948.7941677394216
 20
-1080.30172842632
 30
0.0
 11
948.8941689028187
 21
-1079.80172842632
 31
0.0
  0
LINE
  5
1C021
102
{ACAD_REACTORS
330
1C026
102
}
330
18
100
AcDbEntity
  8
01
100
AcDbLine
 10
947.1941677394216
 20
-1080.30172842632
 30
0.0
 11
947.2941689028186
 21
-1079.80172842632
 31
0.0
  0
LINE
  5
1C022
102
{ACAD_REACTORS
330
1C026
102
}
330
18
100
AcDbEntity
  8
01
100
AcDbLine
 10
947.8941758832019
 20
-1076.80172842632
 30
0.0
 11
947.994177046599
 21
-1076.30172842632
 31
0.0
  0
LINE
  5
1C023
102
{ACAD_REACTORS
330
1C026
102
}
330
18
100
AcDbEntity
  8
01
100
AcDbLine
 10
947.994177046599
 20
-1076.30172842632
 30
0.0
 11
948.7941677394216
 21
-1080.30172842632
 31
0.0
  0
LINE
  5
1C024
102
{ACAD_REACTORS
330
1C026
102
}
330
18
100
AcDbEntity
  8
01
100
AcDbLine
 10
946.394177046599
 20
-1076.30172842632
 30
0.0
 11
947.1941677394216
 21
-1080.30172842632
 31
0.0
  0
LINE
  5
1C025
102
{ACAD_REACTORS
330
1C026
102
}
330
18
100
AcDbEntity
  8
01
100
AcDbLine
 10
905.6941723932204
 20
-1078.301681890422
 30
0.0
 11
906.6941710498489
 21
-1078.879031384016
 31
0.0
  0
LINE
  5
1C029
102
{ACAD_REACTORS
330
1C092
102
}
330
18
100
AcDbEntity
  8
01
100
AcDbLine
 10
811.4622662093739
 20
-957.501681890587
 30
0.0
 11
809.9622662093739
 21
-962.8016784004486
 31
0.0
  0
LINE
  5
1C02A
102
{ACAD_REACTORS
330
1C092
102
}
330
18
100
AcDbEntity
  8
01
100
AcDbLine
 10
809.9622662093739
 20
-962.8016784004482
 30
0.0
 11
809.9622662093739
 21
-1007.501678400341
 31
0.0
  0
LINE
  5
1C02B
102
{ACAD_REACTORS
330
1C092
102
}
330
18
100
AcDbEntity
  8
01
100
AcDbLine
 10
811.4622662093739
 20
-957.501681890587
 30
0.0
 11
812.9622662093739
 21
-962.8016853808323
 31
0.0
  0
LINE
  5
1C02C
102
{ACAD_REACTORS
330
1C092
102
}
330
18
100
AcDbEntity
  8
01
100
AcDbLine
 10
807.9622196734758
 20
-1007.501673746642
 30
0.0
 11
809.9622662093739
 21
-1007.501678400341
 31
0.0
  0
LINE
  5
1C02D
102
{ACAD_REACTORS
330
1C092
102
}
330
18
100
AcDbEntity
  8
01
100
AcDbLine
 10
812.9622662093739
 20
-962.8016853808322
 30
0.0
 11
812.9622662093739
 21
-1007.501685380725
 31
0.0
  0
LINE
  5
1C02E
102
{ACAD_REACTORS
330
1C092
102
}
330
18
100
AcDbEntity
  8
01
100
AcDbLine
 10
807.9622196734758
 20
-1006.50167374664
 30
0.0
 11
807.9622196734758
 21
-1008.601677236838
 31
0.0
  0
LINE
  5
1C02F
102
{ACAD_REACTORS
330
1C092
102
}
330
18
100
AcDbEntity
  8
01
100
AcDbLine
 10
812.9622662093739
 20
-1007.501685380725
 30
0.0
 11
814.9622196734758
 21
-1007.501690034207
 31
0.0
  0
ARC
  5
1C030
102
{ACAD_REACTORS
330
1C092
102
}
330
18
100
AcDbEntity
  8
01
100
AcDbCircle
 10
809.4622196734758
 20
-1008.601677236838
 30
0.0
 40
1.5
100
AcDbArc
 50
180.0
 51
269.9998666844668
  0
LINE
  5
1C031
102
{ACAD_REACTORS
330
1C092
102
}
330
18
100
AcDbEntity
  8
01
100
AcDbLine
 10
814.9622196734758
 20
-1006.501690034204
 30
0.0
 11
814.9622196734758
 21
-1008.601686544017
 31
0.0
  0
LINE
  5
1C032
102
{ACAD_REACTORS
330
1C092
102
}
330
18
100
AcDbEntity
  8
01
100
AcDbLine
 10
809.4622161832833
 20
-1010.101677236834
 30
0.0
 11
813.4622161832833
 21
-1010.101686544013
 31
0.0
  0
ARC
  5
1C033
102
{ACAD_REACTORS
330
1C092
102
}
330
18
100
AcDbEntity
  8
01
100
AcDbCircle
 10
813.4622196734758
 20
-1008.601686544017
 30
0.0
 40
1.5
100
AcDbArc
 50
269.9998666844668
 51
0.0
  0
LINE
  5
1C034
102
{ACAD_REACTORS
330
1C092
102
}
330
18
100
AcDbEntity
  8
1CENTER
100
AcDbLine
 10
811.4622196734758
 20
-956.7535676080441
 30
0.0
 11
811.4622196734758
 21
-1011.171958299733
 31
0.0
  0
LINE
  5
1C035
102
{ACAD_REACTORS
330
1C092
102
}
330
18
100
AcDbEntity
  8
01
100
AcDbLine
 10
810.3678958594808
 20
-959.6016793442648
 30
0.0
 11
812.3302309483563
 21
-958.8016839102138
 31
0.0
  0
LINE
  5
1C036
102
{ACAD_REACTORS
330
1C092
102
}
330
18
100
AcDbEntity
  8
01
100
AcDbLine
 10
812.3302309483563
 20
-958.8016839102138
 30
0.0
 11
811.7419543733138
 21
-958.4899140539617
 31
0.0
  0
LINE
  5
1C037
102
{ACAD_REACTORS
330
1C092
102
}
330
18
100
AcDbEntity
  8
01
100
AcDbLine
 10
809.4622662093739
 20
-1002.001677237055
 30
0.0
 11
813.4622662093739
 21
-1001.201686544237
 31
0.0
  0
LINE
  5
1C038
102
{ACAD_REACTORS
330
1C092
102
}
330
18
100
AcDbEntity
  8
01
100
AcDbLine
 10
809.4622662093739
 20
-990.8016772370504
 30
0.0
 11
813.4622662093739
 21
-990.0016865442278
 31
0.0
  0
LINE
  5
1C039
102
{ACAD_REACTORS
330
1C092
102
}
330
18
100
AcDbEntity
  8
01
100
AcDbLine
 10
809.4622662093739
 20
-987.6016772370504
 30
0.0
 11
813.4622662093739
 21
-986.8016865442278
 31
0.0
  0
LINE
  5
1C03A
102
{ACAD_REACTORS
330
1C092
102
}
330
18
100
AcDbEntity
  8
01
100
AcDbLine
 10
813.4622662093739
 20
-986.8016865442278
 30
0.0
 11
812.9622662093739
 21
-986.7016853808306
 31
0.0
  0
LINE
  5
1C03B
102
{ACAD_REACTORS
330
1C092
102
}
330
18
100
AcDbEntity
  8
01
100
AcDbLine
 10
809.9622662093739
 20
-986.1016784004476
 30
0.0
 11
809.4622662093739
 21
-986.0016772370503
 31
0.0
  0
LINE
  5
1C03C
102
{ACAD_REACTORS
330
1C092
102
}
330
18
100
AcDbEntity
  8
01
100
AcDbLine
 10
813.4622662093739
 20
-990.0016865442278
 30
0.0
 11
812.9622662093739
 21
-989.9016853808306
 31
0.0
  0
LINE
  5
1C03D
102
{ACAD_REACTORS
330
1C092
102
}
330
18
100
AcDbEntity
  8
01
100
AcDbLine
 10
813.4622662093739
 20
-988.4016865442277
 30
0.0
 11
812.9622662093739
 21
-988.3016853808306
 31
0.0
  0
LINE
  5
1C03E
102
{ACAD_REACTORS
330
1C092
102
}
330
18
100
AcDbEntity
  8
01
100
AcDbLine
 10
809.9622662093739
 20
-987.7016784004475
 30
0.0
 11
809.4622662093739
 21
-987.6016772370504
 31
0.0
  0
LINE
  5
1C03F
102
{ACAD_REACTORS
330
1C092
102
}
330
18
100
AcDbEntity
  8
01
100
AcDbLine
 10
809.9622662093739
 20
-989.3016784004474
 30
0.0
 11
809.4622662093739
 21
-989.2016772370503
 31
0.0
  0
LINE
  5
1C040
102
{ACAD_REACTORS
330
1C092
102
}
330
18
100
AcDbEntity
  8
01
100
AcDbLine
 10
809.4622662093739
 20
-989.2016772370503
 30
0.0
 11
813.4622662093739
 21
-988.4016865442277
 31
0.0
  0
LINE
  5
1C041
102
{ACAD_REACTORS
330
1C092
102
}
330
18
100
AcDbEntity
  8
01
100
AcDbLine
 10
812.7830450527631
 20
-960.4016849638194
 30
0.0
 11
812.2312955889597
 21
-960.2189208211914
 31
0.0
  0
LINE
  5
1C042
102
{ACAD_REACTORS
330
1C092
102
}
330
18
100
AcDbEntity
  8
01
100
AcDbLine
 10
813.4622662093739
 20
-983.6016865442277
 30
0.0
 11
812.9622662093739
 21
-983.5016853808306
 31
0.0
  0
LINE
  5
1C043
102
{ACAD_REACTORS
330
1C092
102
}
330
18
100
AcDbEntity
  8
01
100
AcDbLine
 10
813.4622662093739
 20
-985.2016865442278
 30
0.0
 11
812.9622662093739
 21
-985.1016853808308
 31
0.0
  0
LINE
  5
1C044
102
{ACAD_REACTORS
330
1C092
102
}
330
18
100
AcDbEntity
  8
01
100
AcDbLine
 10
813.2358591571699
 20
-962.0016860174251
 30
0.0
 11
812.6992654218986
 21
-961.8724153197952
 31
0.0
  0
LINE
  5
1C045
102
{ACAD_REACTORS
330
1C092
102
}
330
18
100
AcDbEntity
  8
01
100
AcDbLine
 10
810.3831808065825
 20
-961.3144478030106
 30
0.0
 11
809.9150823514326
 21
-961.2016782906605
 31
0.0
  0
LINE
  5
1C046
102
{ACAD_REACTORS
330
1C092
102
}
330
18
100
AcDbEntity
  8
01
100
AcDbLine
 10
809.9622662093739
 20
-984.5016784004474
 30
0.0
 11
809.4622662093739
 21
-984.4016772370503
 31
0.0
  0
LINE
  5
1C047
102
{ACAD_REACTORS
330
1C092
102
}
330
18
100
AcDbEntity
  8
01
100
AcDbLine
 10
809.9622662093739
 20
-962.9016784004475
 30
0.0
 11
809.4622662093739
 21
-962.8016772370504
 31
0.0
  0
LINE
  5
1C048
102
{ACAD_REACTORS
330
1C092
102
}
330
18
100
AcDbEntity
  8
01
100
AcDbLine
 10
810.825067700112
 20
-959.7531151407052
 30
0.0
 11
810.3678958594808
 21
-959.6016793442648
 31
0.0
  0
LINE
  5
1C049
102
{ACAD_REACTORS
330
1C092
102
}
330
18
100
AcDbEntity
  8
01
100
AcDbLine
 10
809.9150823514326
 20
-961.2016782906605
 30
0.0
 11
812.7830450527631
 21
-960.4016849638194
 31
0.0
  0
LINE
  5
1C04A
102
{ACAD_REACTORS
330
1C092
102
}
330
18
100
AcDbEntity
  8
01
100
AcDbLine
 10
809.4622662093739
 20
-984.4016772370503
 30
0.0
 11
813.4622662093739
 21
-983.6016865442277
 31
0.0
  0
LINE
  5
1C04B
102
{ACAD_REACTORS
330
1C092
102
}
330
18
100
AcDbEntity
  8
01
100
AcDbLine
 10
809.4622662093739
 20
-962.8016772370504
 30
0.0
 11
813.2358591571699
 21
-962.0016860174251
 31
0.0
  0
LINE
  5
1C04C
102
{ACAD_REACTORS
330
1C092
102
}
330
18
100
AcDbEntity
  8
01
100
AcDbLine
 10
809.4622662093739
 20
-986.0016772370503
 30
0.0
 11
813.4622662093739
 21
-985.2016865442278
 31
0.0
  0
LINE
  5
1C04D
102
{ACAD_REACTORS
330
1C092
102
}
330
18
100
AcDbEntity
  8
01
100
AcDbLine
 10
809.4622662093739
 20
-998.8016772370547
 30
0.0
 11
813.4622662093739
 21
-998.0016865442365
 31
0.0
  0
LINE
  5
1C04E
102
{ACAD_REACTORS
330
1C092
102
}
330
18
100
AcDbEntity
  8
01
100
AcDbLine
 10
813.4622662093739
 20
-998.0016865442365
 30
0.0
 11
812.9622662093739
 21
-997.9016853808388
 31
0.0
  0
LINE
  5
1C04F
102
{ACAD_REACTORS
330
1C092
102
}
330
18
100
AcDbEntity
  8
01
100
AcDbLine
 10
809.9622662093739
 20
-997.301678400448
 30
0.0
 11
809.4622662093739
 21
-997.2016772370504
 31
0.0
  0
LINE
  5
1C050
102
{ACAD_REACTORS
330
1C092
102
}
330
18
100
AcDbEntity
  8
01
100
AcDbLine
 10
813.4622662093739
 20
-999.6016865442366
 30
0.0
 11
812.9622662093739
 21
-999.5016853808389
 31
0.0
  0
LINE
  5
1C051
102
{ACAD_REACTORS
330
1C092
102
}
330
18
100
AcDbEntity
  8
01
100
AcDbLine
 10
813.4622662093739
 20
-1001.201686544237
 30
0.0
 11
812.9622662093739
 21
-1001.101685380839
 31
0.0
  0
LINE
  5
1C052
102
{ACAD_REACTORS
330
1C092
102
}
330
18
100
AcDbEntity
  8
01
100
AcDbLine
 10
809.9622662093739
 20
-998.9016784004524
 30
0.0
 11
809.4622662093739
 21
-998.8016772370547
 31
0.0
  0
LINE
  5
1C053
102
{ACAD_REACTORS
330
1C092
102
}
330
18
100
AcDbEntity
  8
01
100
AcDbLine
 10
809.9622662093739
 20
-1000.501678400453
 30
0.0
 11
809.4622662093739
 21
-1000.401677237055
 31
0.0
  0
LINE
  5
1C054
102
{ACAD_REACTORS
330
1C092
102
}
330
18
100
AcDbEntity
  8
01
100
AcDbLine
 10
809.4622662093739
 20
-1000.401677237055
 30
0.0
 11
813.4622662093739
 21
-999.6016865442366
 31
0.0
  0
LINE
  5
1C055
102
{ACAD_REACTORS
330
1C092
102
}
330
18
100
AcDbEntity
  8
01
100
AcDbLine
 10
813.4622662093739
 20
-993.2016865442321
 30
0.0
 11
812.9622662093739
 21
-993.1016853808344
 31
0.0
  0
LINE
  5
1C056
102
{ACAD_REACTORS
330
1C092
102
}
330
18
100
AcDbEntity
  8
01
100
AcDbLine
 10
813.4622662093739
 20
-991.6016865442277
 30
0.0
 11
812.9622662093739
 21
-991.5016853808306
 31
0.0
  0
LINE
  5
1C057
102
{ACAD_REACTORS
330
1C092
102
}
330
18
100
AcDbEntity
  8
01
100
AcDbLine
 10
813.4622662093739
 20
-996.4016865442321
 30
0.0
 11
812.9622662093739
 21
-996.3016853808344
 31
0.0
  0
LINE
  5
1C058
102
{ACAD_REACTORS
330
1C092
102
}
330
18
100
AcDbEntity
  8
01
100
AcDbLine
 10
813.4622662093739
 20
-994.8016865442322
 30
0.0
 11
812.9622662093739
 21
-994.7016853808345
 31
0.0
  0
LINE
  5
1C059
102
{ACAD_REACTORS
330
1C092
102
}
330
18
100
AcDbEntity
  8
01
100
AcDbLine
 10
809.9622662093739
 20
-990.9016784004475
 30
0.0
 11
809.4622662093739
 21
-990.8016772370504
 31
0.0
  0
LINE
  5
1C05A
102
{ACAD_REACTORS
330
1C092
102
}
330
18
100
AcDbEntity
  8
01
100
AcDbLine
 10
809.9622662093739
 20
-992.5016784004481
 30
0.0
 11
809.4622662093739
 21
-992.4016772370503
 31
0.0
  0
LINE
  5
1C05B
102
{ACAD_REACTORS
330
1C092
102
}
330
18
100
AcDbEntity
  8
01
100
AcDbLine
 10
809.9622662093739
 20
-995.7016784004481
 30
0.0
 11
809.4622662093739
 21
-995.6016772370505
 31
0.0
  0
LINE
  5
1C05C
102
{ACAD_REACTORS
330
1C092
102
}
330
18
100
AcDbEntity
  8
01
100
AcDbLine
 10
809.9622662093739
 20
-994.101678400448
 30
0.0
 11
809.4622662093739
 21
-994.0016772370503
 31
0.0
  0
LINE
  5
1C05D
102
{ACAD_REACTORS
330
1C092
102
}
330
18
100
AcDbEntity
  8
01
100
AcDbLine
 10
809.4622662093739
 20
-994.0016772370503
 30
0.0
 11
813.4622662093739
 21
-993.2016865442321
 31
0.0
  0
LINE
  5
1C05E
102
{ACAD_REACTORS
330
1C092
102
}
330
18
100
AcDbEntity
  8
01
100
AcDbLine
 10
809.4622662093739
 20
-992.4016772370503
 30
0.0
 11
813.4622662093739
 21
-991.6016865442277
 31
0.0
  0
LINE
  5
1C05F
102
{ACAD_REACTORS
330
1C092
102
}
330
18
100
AcDbEntity
  8
01
100
AcDbLine
 10
809.4622662093739
 20
-995.6016772370505
 30
0.0
 11
813.4622662093739
 21
-994.8016865442322
 31
0.0
  0
LINE
  5
1C060
102
{ACAD_REACTORS
330
1C092
102
}
330
18
100
AcDbEntity
  8
01
100
AcDbLine
 10
809.4622662093739
 20
-997.2016772370504
 30
0.0
 11
813.4622662093739
 21
-996.4016865442321
 31
0.0
  0
LINE
  5
1C061
102
{ACAD_REACTORS
330
1C092
102
}
330
18
100
AcDbEntity
  8
01
100
AcDbLine
 10
812.9622662093739
 20
-1007.501685380725
 30
0.0
 11
809.9622662093739
 21
-1007.501678400341
 31
0.0
  0
LINE
  5
1C062
102
{ACAD_REACTORS
330
1C092
102
}
330
18
100
AcDbEntity
  8
01
100
AcDbLine
 10
814.9622196734758
 20
-1006.501690034204
 30
0.0
 11
807.9622196734758
 21
-1006.50167374664
 31
0.0
  0
LINE
  5
1C063
102
{ACAD_REACTORS
330
1C092
102
}
330
18
100
AcDbEntity
  8
01
100
AcDbLine
 10
809.9622662093739
 20
-1006.901678400457
 30
0.0
 11
809.4622662093739
 21
-1006.801677237059
 31
0.0
  0
LINE
  5
1C064
102
{ACAD_REACTORS
330
1C092
102
}
330
18
100
AcDbEntity
  8
01
100
AcDbLine
 10
809.4622662093739
 20
-1006.801677237059
 30
0.0
 11
813.4622662093739
 21
-1006.001686544241
 31
0.0
  0
LINE
  5
1C065
102
{ACAD_REACTORS
330
1C092
102
}
330
18
100
AcDbEntity
  8
01
100
AcDbLine
 10
813.4622662093739
 20
-1006.001686544241
 30
0.0
 11
812.9622662093739
 21
-1005.901685380843
 31
0.0
  0
LINE
  5
1C066
102
{ACAD_REACTORS
330
1C092
102
}
330
18
100
AcDbEntity
  8
01
100
AcDbLine
 10
809.9622662093739
 20
-1005.301678400457
 30
0.0
 11
809.4622662093739
 21
-1005.201677237059
 31
0.0
  0
LINE
  5
1C067
102
{ACAD_REACTORS
330
1C092
102
}
330
18
100
AcDbEntity
  8
01
100
AcDbLine
 10
809.9622662093739
 20
-1003.701678400457
 30
0.0
 11
809.4622662093739
 21
-1003.601677237059
 31
0.0
  0
LINE
  5
1C068
102
{ACAD_REACTORS
330
1C092
102
}
330
18
100
AcDbEntity
  8
01
100
AcDbLine
 10
809.4622662093739
 20
-1003.601677237059
 30
0.0
 11
813.4622662093739
 21
-1002.801686544241
 31
0.0
  0
LINE
  5
1C069
102
{ACAD_REACTORS
330
1C092
102
}
330
18
100
AcDbEntity
  8
01
100
AcDbLine
 10
813.4622662093739
 20
-1004.401686544241
 30
0.0
 11
812.9622662093739
 21
-1004.301685380843
 31
0.0
  0
LINE
  5
1C06A
102
{ACAD_REACTORS
330
1C092
102
}
330
18
100
AcDbEntity
  8
01
100
AcDbLine
 10
813.4622662093739
 20
-1002.801686544241
 30
0.0
 11
812.9622662093739
 21
-1002.701685380843
 31
0.0
  0
LINE
  5
1C06B
102
{ACAD_REACTORS
330
1C092
102
}
330
18
100
AcDbEntity
  8
01
100
AcDbLine
 10
809.4622662093739
 20
-1005.201677237059
 30
0.0
 11
813.4622662093739
 21
-1004.401686544241
 31
0.0
  0
LINE
  5
1C06C
102
{ACAD_REACTORS
330
1C092
102
}
330
18
100
AcDbEntity
  8
01
100
AcDbLine
 10
809.9622662093739
 20
-1002.101678400452
 30
0.0
 11
809.4622662093739
 21
-1002.001677237055
 31
0.0
  0
LINE
  5
1C06D
102
{ACAD_REACTORS
330
1C092
102
}
330
18
100
AcDbEntity
  8
01
100
AcDbLine
 10
809.4622662093739
 20
-976.401677237046
 30
0.0
 11
813.4622662093739
 21
-975.6016865442234
 31
0.0
  0
LINE
  5
1C06E
102
{ACAD_REACTORS
330
1C092
102
}
330
18
100
AcDbEntity
  8
01
100
AcDbLine
 10
809.4622662093739
 20
-973.2016772370459
 30
0.0
 11
813.4622662093739
 21
-972.4016865442234
 31
0.0
  0
LINE
  5
1C06F
102
{ACAD_REACTORS
330
1C092
102
}
330
18
100
AcDbEntity
  8
01
100
AcDbLine
 10
813.4622662093739
 20
-972.4016865442234
 30
0.0
 11
812.9622662093739
 21
-972.3016853808261
 31
0.0
  0
LINE
  5
1C070
102
{ACAD_REACTORS
330
1C092
102
}
330
18
100
AcDbEntity
  8
01
100
AcDbLine
 10
809.9622662093739
 20
-971.7016784004431
 30
0.0
 11
809.4622662093739
 21
-971.6016772370459
 31
0.0
  0
LINE
  5
1C071
102
{ACAD_REACTORS
330
1C092
102
}
330
18
100
AcDbEntity
  8
01
100
AcDbLine
 10
813.4622662093739
 20
-975.6016865442234
 30
0.0
 11
812.9622662093739
 21
-975.5016853808262
 31
0.0
  0
LINE
  5
1C072
102
{ACAD_REACTORS
330
1C092
102
}
330
18
100
AcDbEntity
  8
01
100
AcDbLine
 10
813.4622662093739
 20
-974.0016865442233
 30
0.0
 11
812.9622662093739
 21
-973.9016853808262
 31
0.0
  0
LINE
  5
1C073
102
{ACAD_REACTORS
330
1C092
102
}
330
18
100
AcDbEntity
  8
01
100
AcDbLine
 10
809.9622662093739
 20
-973.301678400443
 30
0.0
 11
809.4622662093739
 21
-973.2016772370459
 31
0.0
  0
LINE
  5
1C074
102
{ACAD_REACTORS
330
1C092
102
}
330
18
100
AcDbEntity
  8
01
100
AcDbLine
 10
809.9622662093739
 20
-974.901678400443
 30
0.0
 11
809.4622662093739
 21
-974.8016772370459
 31
0.0
  0
LINE
  5
1C075
102
{ACAD_REACTORS
330
1C092
102
}
330
18
100
AcDbEntity
  8
01
100
AcDbLine
 10
809.4622662093739
 20
-974.8016772370459
 30
0.0
 11
813.4622662093739
 21
-974.0016865442233
 31
0.0
  0
LINE
  5
1C076
102
{ACAD_REACTORS
330
1C092
102
}
330
18
100
AcDbEntity
  8
01
100
AcDbLine
 10
813.4622662093739
 20
-969.2016865442233
 30
0.0
 11
812.9622662093739
 21
-969.1016853808262
 31
0.0
  0
LINE
  5
1C077
102
{ACAD_REACTORS
330
1C092
102
}
330
18
100
AcDbEntity
  8
01
100
AcDbLine
 10
813.4622662093739
 20
-970.8016865442233
 30
0.0
 11
812.9622662093739
 21
-970.7016853808263
 31
0.0
  0
LINE
  5
1C078
102
{ACAD_REACTORS
330
1C092
102
}
330
18
100
AcDbEntity
  8
01
100
AcDbLine
 10
809.9622662093739
 20
-970.101678400443
 30
0.0
 11
809.4622662093739
 21
-970.0016772370459
 31
0.0
  0
LINE
  5
1C079
102
{ACAD_REACTORS
330
1C092
102
}
330
18
100
AcDbEntity
  8
01
100
AcDbLine
 10
809.4622662093739
 20
-970.0016772370459
 30
0.0
 11
813.4622662093739
 21
-969.2016865442233
 31
0.0
  0
LINE
  5
1C07A
102
{ACAD_REACTORS
330
1C092
102
}
330
18
100
AcDbEntity
  8
01
100
AcDbLine
 10
809.4622662093739
 20
-971.6016772370459
 30
0.0
 11
813.4622662093739
 21
-970.8016865442233
 31
0.0
  0
LINE
  5
1C07B
102
{ACAD_REACTORS
330
1C092
102
}
330
18
100
AcDbEntity
  8
01
100
AcDbLine
 10
809.9622662093739
 20
-982.9016784004436
 30
0.0
 11
809.4622662093739
 21
-982.801677237046
 31
0.0
  0
LINE
  5
1C07C
102
{ACAD_REACTORS
330
1C092
102
}
330
18
100
AcDbEntity
  8
01
100
AcDbLine
 10
813.4622662093739
 20
-978.8016865442277
 30
0.0
 11
812.9622662093739
 21
-978.70168538083
 31
0.0
  0
LINE
  5
1C07D
102
{ACAD_REACTORS
330
1C092
102
}
330
18
100
AcDbEntity
  8
01
100
AcDbLine
 10
813.4622662093739
 20
-977.2016865442233
 30
0.0
 11
812.9622662093739
 21
-977.1016853808262
 31
0.0
  0
LINE
  5
1C07E
102
{ACAD_REACTORS
330
1C092
102
}
330
18
100
AcDbEntity
  8
01
100
AcDbLine
 10
813.4622662093739
 20
-982.0016865442277
 30
0.0
 11
812.9622662093739
 21
-981.90168538083
 31
0.0
  0
LINE
  5
1C07F
102
{ACAD_REACTORS
330
1C092
102
}
330
18
100
AcDbEntity
  8
01
100
AcDbLine
 10
813.4622662093739
 20
-980.4016865442278
 30
0.0
 11
812.9622662093739
 21
-980.3016853808301
 31
0.0
  0
LINE
  5
1C080
102
{ACAD_REACTORS
330
1C092
102
}
330
18
100
AcDbEntity
  8
01
100
AcDbLine
 10
809.9622662093739
 20
-976.5016784004431
 30
0.0
 11
809.4622662093739
 21
-976.401677237046
 31
0.0
  0
LINE
  5
1C081
102
{ACAD_REACTORS
330
1C092
102
}
330
18
100
AcDbEntity
  8
01
100
AcDbLine
 10
809.9622662093739
 20
-978.1016784004437
 30
0.0
 11
809.4622662093739
 21
-978.0016772370459
 31
0.0
  0
LINE
  5
1C082
102
{ACAD_REACTORS
330
1C092
102
}
330
18
100
AcDbEntity
  8
01
100
AcDbLine
 10
809.9622662093739
 20
-981.3016784004437
 30
0.0
 11
809.4622662093739
 21
-981.201677237046
 31
0.0
  0
LINE
  5
1C083
102
{ACAD_REACTORS
330
1C092
102
}
330
18
100
AcDbEntity
  8
01
100
AcDbLine
 10
809.9622662093739
 20
-979.7016784004436
 30
0.0
 11
809.4622662093739
 21
-979.6016772370459
 31
0.0
  0
LINE
  5
1C084
102
{ACAD_REACTORS
330
1C092
102
}
330
18
100
AcDbEntity
  8
01
100
AcDbLine
 10
809.4622662093739
 20
-979.6016772370459
 30
0.0
 11
813.4622662093739
 21
-978.8016865442277
 31
0.0
  0
LINE
  5
1C085
102
{ACAD_REACTORS
330
1C092
102
}
330
18
100
AcDbEntity
  8
01
100
AcDbLine
 10
809.4622662093739
 20
-978.0016772370459
 30
0.0
 11
813.4622662093739
 21
-977.2016865442233
 31
0.0
  0
LINE
  5
1C086
102
{ACAD_REACTORS
330
1C092
102
}
330
18
100
AcDbEntity
  8
01
100
AcDbLine
 10
809.4622662093739
 20
-981.201677237046
 30
0.0
 11
813.4622662093739
 21
-980.4016865442278
 31
0.0
  0
LINE
  5
1C087
102
{ACAD_REACTORS
330
1C092
102
}
330
18
100
AcDbEntity
  8
01
100
AcDbLine
 10
809.4622662093739
 20
-982.801677237046
 30
0.0
 11
813.4622662093739
 21
-982.0016865442277
 31
0.0
  0
LINE
  5
1C088
102
{ACAD_REACTORS
330
1C092
102
}
330
18
100
AcDbEntity
  8
01
100
AcDbLine
 10
809.4622662093739
 20
-968.401677237046
 30
0.0
 11
813.4622662093739
 21
-967.6016865442234
 31
0.0
  0
LINE
  5
1C089
102
{ACAD_REACTORS
330
1C092
102
}
330
18
100
AcDbEntity
  8
01
100
AcDbLine
 10
813.4622662093739
 20
-967.6016865442234
 30
0.0
 11
812.9622662093739
 21
-967.5016853808262
 31
0.0
  0
LINE
  5
1C08A
102
{ACAD_REACTORS
330
1C092
102
}
330
18
100
AcDbEntity
  8
01
100
AcDbLine
 10
809.9622662093739
 20
-966.9016784004432
 30
0.0
 11
809.4622662093739
 21
-966.801677237046
 31
0.0
  0
LINE
  5
1C08B
102
{ACAD_REACTORS
330
1C092
102
}
330
18
100
AcDbEntity
  8
01
100
AcDbLine
 10
809.9622662093739
 20
-968.5016784004431
 30
0.0
 11
809.4622662093739
 21
-968.401677237046
 31
0.0
  0
LINE
  5
1C08C
102
{ACAD_REACTORS
330
1C092
102
}
330
18
100
AcDbEntity
  8
01
100
AcDbLine
 10
813.4622662093739
 20
-964.4016865442234
 30
0.0
 11
812.9622662093739
 21
-964.3016853808263
 31
0.0
  0
LINE
  5
1C08D
102
{ACAD_REACTORS
330
1C092
102
}
330
18
100
AcDbEntity
  8
01
100
AcDbLine
 10
813.4622662093739
 20
-966.0016865442234
 30
0.0
 11
812.9622662093739
 21
-965.9016853808264
 31
0.0
  0
LINE
  5
1C08E
102
{ACAD_REACTORS
330
1C092
102
}
330
18
100
AcDbEntity
  8
01
100
AcDbLine
 10
809.9622662093739
 20
-965.301678400443
 30
0.0
 11
809.4622662093739
 21
-965.2016772370459
 31
0.0
  0
LINE
  5
1C08F
102
{ACAD_REACTORS
330
1C092
102
}
330
18
100
AcDbEntity
  8
01
100
AcDbLine
 10
809.4622662093739
 20
-965.2016772370459
 30
0.0
 11
813.4622662093739
 21
-964.4016865442234
 31
0.0
  0
LINE
  5
1C090
102
{ACAD_REACTORS
330
1C092
102
}
330
18
100
AcDbEntity
  8
01
100
AcDbLine
 10
809.4622662093739
 20
-966.801677237046
 30
0.0
 11
813.4622662093739
 21
-966.0016865442234
 31
0.0
  0
LINE
  5
1C091
102
{ACAD_REACTORS
330
1C092
102
}
330
18
100
AcDbEntity
  8
01
100
AcDbLine
 10
811.4622196734758
 20
-1007.501681890425
 30
0.0
 11
812.0395691670697
 21
-1006.501683233796
 31
0.0
  0
LINE
  5
1C093
102
{ACAD_REACTORS
330
1C166
102
}
330
18
100
AcDbEntity
  8
01
100
AcDbLine
 10
629.4622662093739
 20
-957.501681890587
 30
0.0
 11
627.9622662093739
 21
-962.8016784004486
 31
0.0
  0
LINE
  5
1C094
102
{ACAD_REACTORS
330
1C166
102
}
330
18
100
AcDbEntity
  8
01
100
AcDbLine
 10
627.9622662093739
 20
-962.8016784004482
 30
0.0
 11
627.9622662093739
 21
-1007.501678400341
 31
0.0
  0
LINE
  5
1C095
102
{ACAD_REACTORS
330
1C166
102
}
330
18
100
AcDbEntity
  8
01
100
AcDbLine
 10
629.4622662093739
 20
-957.501681890587
 30
0.0
 11
630.9622662093739
 21
-962.8016853808323
 31
0.0
  0
LINE
  5
1C096
102
{ACAD_REACTORS
330
1C166
102
}
330
18
100
AcDbEntity
  8
01
100
AcDbLine
 10
625.9622196734758
 20
-1007.501673746642
 30
0.0
 11
627.9622662093739
 21
-1007.501678400341
 31
0.0
  0
LINE
  5
1C097
102
{ACAD_REACTORS
330
1C166
102
}
330
18
100
AcDbEntity
  8
01
100
AcDbLine
 10
630.9622662093739
 20
-962.8016853808322
 30
0.0
 11
630.9622662093739
 21
-1007.501685380725
 31
0.0
  0
LINE
  5
1C098
102
{ACAD_REACTORS
330
1C166
102
}
330
18
100
AcDbEntity
  8
01
100
AcDbLine
 10
625.9622196734758
 20
-1006.50167374664
 30
0.0
 11
625.9622196734758
 21
-1008.601677236838
 31
0.0
  0
LINE
  5
1C099
102
{ACAD_REACTORS
330
1C166
102
}
330
18
100
AcDbEntity
  8
01
100
AcDbLine
 10
630.9622662093739
 20
-1007.501685380725
 30
0.0
 11
632.9622196734758
 21
-1007.501690034207
 31
0.0
  0
ARC
  5
1C09A
102
{ACAD_REACTORS
330
1C166
102
}
330
18
100
AcDbEntity
  8
01
100
AcDbCircle
 10
627.4622196734758
 20
-1008.601677236838
 30
0.0
 40
1.5
100
AcDbArc
 50
180.0
 51
269.9998666844668
  0
LINE
  5
1C09B
102
{ACAD_REACTORS
330
1C166
102
}
330
18
100
AcDbEntity
  8
01
100
AcDbLine
 10
632.9622196734758
 20
-1006.501690034204
 30
0.0
 11
632.9622196734758
 21
-1008.601686544017
 31
0.0
  0
LINE
  5
1C09C
102
{ACAD_REACTORS
330
1C166
102
}
330
18
100
AcDbEntity
  8
01
100
AcDbLine
 10
627.4622161832833
 20
-1010.101677236834
 30
0.0
 11
631.4622161832833
 21
-1010.101686544013
 31
0.0
  0
ARC
  5
1C09D
102
{ACAD_REACTORS
330
1C166
102
}
330
18
100
AcDbEntity
  8
01
100
AcDbCircle
 10
631.4622196734758
 20
-1008.601686544017
 30
0.0
 40
1.5
100
AcDbArc
 50
269.9998666844668
 51
0.0
  0
LINE
  5
1C09E
102
{ACAD_REACTORS
330
1C166
102
}
330
18
100
AcDbEntity
  8
1CENTER
100
AcDbLine
 10
629.4622196734758
 20
-956.7535676080441
 30
0.0
 11
629.4622196734758
 21
-1011.171958299733
 31
0.0
  0
LINE
  5
1C09F
102
{ACAD_REACTORS
330
1C166
102
}
330
18
100
AcDbEntity
  8
01
100
AcDbLine
 10
628.3678958594808
 20
-959.6016793442648
 30
0.0
 11
630.3302309483563
 21
-958.8016839102138
 31
0.0
  0
LINE
  5
1C0A0
102
{ACAD_REACTORS
330
1C166
102
}
330
18
100
AcDbEntity
  8
01
100
AcDbLine
 10
630.3302309483563
 20
-958.8016839102138
 30
0.0
 11
629.7419543733138
 21
-958.4899140539617
 31
0.0
  0
LINE
  5
1C0A1
102
{ACAD_REACTORS
330
1C166
102
}
330
18
100
AcDbEntity
  8
01
100
AcDbLine
 10
627.4622662093739
 20
-1002.001677237055
 30
0.0
 11
631.4622662093739
 21
-1001.201686544237
 31
0.0
  0
LINE
  5
1C0A2
102
{ACAD_REACTORS
330
1C166
102
}
330
18
100
AcDbEntity
  8
01
100
AcDbLine
 10
627.4622662093739
 20
-990.8016772370504
 30
0.0
 11
631.4622662093739
 21
-990.0016865442278
 31
0.0
  0
LINE
  5
1C0A3
102
{ACAD_REACTORS
330
1C166
102
}
330
18
100
AcDbEntity
  8
01
100
AcDbLine
 10
627.4622662093739
 20
-987.6016772370504
 30
0.0
 11
631.4622662093739
 21
-986.8016865442278
 31
0.0
  0
LINE
  5
1C0A4
102
{ACAD_REACTORS
330
1C166
102
}
330
18
100
AcDbEntity
  8
01
100
AcDbLine
 10
631.4622662093739
 20
-986.8016865442278
 30
0.0
 11
630.9622662093739
 21
-986.7016853808306
 31
0.0
  0
LINE
  5
1C0A5
102
{ACAD_REACTORS
330
1C166
102
}
330
18
100
AcDbEntity
  8
01
100
AcDbLine
 10
627.9622662093739
 20
-986.1016784004476
 30
0.0
 11
627.4622662093739
 21
-986.0016772370503
 31
0.0
  0
LINE
  5
1C0A6
102
{ACAD_REACTORS
330
1C166
102
}
330
18
100
AcDbEntity
  8
01
100
AcDbLine
 10
631.4622662093739
 20
-990.0016865442278
 30
0.0
 11
630.9622662093739
 21
-989.9016853808306
 31
0.0
  0
LINE
  5
1C0A7
102
{ACAD_REACTORS
330
1C166
102
}
330
18
100
AcDbEntity
  8
01
100
AcDbLine
 10
631.4622662093739
 20
-988.4016865442277
 30
0.0
 11
630.9622662093739
 21
-988.3016853808306
 31
0.0
  0
LINE
  5
1C0A8
102
{ACAD_REACTORS
330
1C166
102
}
330
18
100
AcDbEntity
  8
01
100
AcDbLine
 10
627.9622662093739
 20
-987.7016784004475
 30
0.0
 11
627.4622662093739
 21
-987.6016772370504
 31
0.0
  0
LINE
  5
1C0A9
102
{ACAD_REACTORS
330
1C166
102
}
330
18
100
AcDbEntity
  8
01
100
AcDbLine
 10
627.9622662093739
 20
-989.3016784004474
 30
0.0
 11
627.4622662093739
 21
-989.2016772370503
 31
0.0
  0
LINE
  5
1C0AA
102
{ACAD_REACTORS
330
1C166
102
}
330
18
100
AcDbEntity
  8
01
100
AcDbLine
 10
627.4622662093739
 20
-989.2016772370503
 30
0.0
 11
631.4622662093739
 21
-988.4016865442277
 31
0.0
  0
LINE
  5
1C0AB
102
{ACAD_REACTORS
330
1C166
102
}
330
18
100
AcDbEntity
  8
01
100
AcDbLine
 10
630.7830450527631
 20
-960.4016849638194
 30
0.0
 11
630.2312955889597
 21
-960.2189208211914
 31
0.0
  0
LINE
  5
1C0AC
102
{ACAD_REACTORS
330
1C166
102
}
330
18
100
AcDbEntity
  8
01
100
AcDbLine
 10
631.4622662093739
 20
-983.6016865442277
 30
0.0
 11
630.9622662093739
 21
-983.5016853808306
 31
0.0
  0
LINE
  5
1C0AD
102
{ACAD_REACTORS
330
1C166
102
}
330
18
100
AcDbEntity
  8
01
100
AcDbLine
 10
631.4622662093739
 20
-985.2016865442278
 30
0.0
 11
630.9622662093739
 21
-985.1016853808308
 31
0.0
  0
LINE
  5
1C0AE
102
{ACAD_REACTORS
330
1C166
102
}
330
18
100
AcDbEntity
  8
01
100
AcDbLine
 10
631.2358591571699
 20
-962.0016860174251
 30
0.0
 11
630.6992654218986
 21
-961.8724153197952
 31
0.0
  0
LINE
  5
1C0AF
102
{ACAD_REACTORS
330
1C166
102
}
330
18
100
AcDbEntity
  8
01
100
AcDbLine
 10
628.3831808065825
 20
-961.3144478030106
 30
0.0
 11
627.9150823514326
 21
-961.2016782906605
 31
0.0
  0
LINE
  5
1C0B0
102
{ACAD_REACTORS
330
1C166
102
}
330
18
100
AcDbEntity
  8
01
100
AcDbLine
 10
627.9622662093739
 20
-984.5016784004474
 30
0.0
 11
627.4622662093739
 21
-984.4016772370503
 31
0.0
  0
LINE
  5
1C0B1
102
{ACAD_REACTORS
330
1C166
102
}
330
18
100
AcDbEntity
  8
01
100
AcDbLine
 10
627.9622662093739
 20
-962.9016784004475
 30
0.0
 11
627.4622662093739
 21
-962.8016772370504
 31
0.0
  0
LINE
  5
1C0B2
102
{ACAD_REACTORS
330
1C166
102
}
330
18
100
AcDbEntity
  8
01
100
AcDbLine
 10
628.825067700112
 20
-959.7531151407052
 30
0.0
 11
628.3678958594808
 21
-959.6016793442648
 31
0.0
  0
LINE
  5
1C0B3
102
{ACAD_REACTORS
330
1C166
102
}
330
18
100
AcDbEntity
  8
01
100
AcDbLine
 10
627.9150823514326
 20
-961.2016782906605
 30
0.0
 11
630.7830450527631
 21
-960.4016849638194
 31
0.0
  0
LINE
  5
1C0B4
102
{ACAD_REACTORS
330
1C166
102
}
330
18
100
AcDbEntity
  8
01
100
AcDbLine
 10
627.4622662093739
 20
-984.4016772370503
 30
0.0
 11
631.4622662093739
 21
-983.6016865442277
 31
0.0
  0
LINE
  5
1C0B5
102
{ACAD_REACTORS
330
1C166
102
}
330
18
100
AcDbEntity
  8
01
100
AcDbLine
 10
627.4622662093739
 20
-962.8016772370504
 30
0.0
 11
631.2358591571699
 21
-962.0016860174251
 31
0.0
  0
LINE
  5
1C0B6
102
{ACAD_REACTORS
330
1C166
102
}
330
18
100
AcDbEntity
  8
01
100
AcDbLine
 10
627.4622662093739
 20
-986.0016772370503
 30
0.0
 11
631.4622662093739
 21
-985.2016865442278
 31
0.0
  0
LINE
  5
1C0B7
102
{ACAD_REACTORS
330
1C166
102
}
330
18
100
AcDbEntity
  8
01
100
AcDbLine
 10
627.4622662093739
 20
-998.8016772370547
 30
0.0
 11
631.4622662093739
 21
-998.0016865442365
 31
0.0
  0
LINE
  5
1C0B8
102
{ACAD_REACTORS
330
1C166
102
}
330
18
100
AcDbEntity
  8
01
100
AcDbLine
 10
631.4622662093739
 20
-998.0016865442365
 30
0.0
 11
630.9622662093739
 21
-997.9016853808388
 31
0.0
  0
LINE
  5
1C0B9
102
{ACAD_REACTORS
330
1C166
102
}
330
18
100
AcDbEntity
  8
01
100
AcDbLine
 10
627.9622662093739
 20
-997.301678400448
 30
0.0
 11
627.4622662093739
 21
-997.2016772370504
 31
0.0
  0
LINE
  5
1C0BA
102
{ACAD_REACTORS
330
1C166
102
}
330
18
100
AcDbEntity
  8
01
100
AcDbLine
 10
631.4622662093739
 20
-999.6016865442366
 30
0.0
 11
630.9622662093739
 21
-999.5016853808389
 31
0.0
  0
LINE
  5
1C0BB
102
{ACAD_REACTORS
330
1C166
102
}
330
18
100
AcDbEntity
  8
01
100
AcDbLine
 10
631.4622662093739
 20
-1001.201686544237
 30
0.0
 11
630.9622662093739
 21
-1001.101685380839
 31
0.0
  0
LINE
  5
1C0BC
102
{ACAD_REACTORS
330
1C166
102
}
330
18
100
AcDbEntity
  8
01
100
AcDbLine
 10
627.9622662093739
 20
-998.9016784004524
 30
0.0
 11
627.4622662093739
 21
-998.8016772370547
 31
0.0
  0
LINE
  5
1C0BD
102
{ACAD_REACTORS
330
1C166
102
}
330
18
100
AcDbEntity
  8
01
100
AcDbLine
 10
627.9622662093739
 20
-1000.501678400453
 30
0.0
 11
627.4622662093739
 21
-1000.401677237055
 31
0.0
  0
LINE
  5
1C0BE
102
{ACAD_REACTORS
330
1C166
102
}
330
18
100
AcDbEntity
  8
01
100
AcDbLine
 10
627.4622662093739
 20
-1000.401677237055
 30
0.0
 11
631.4622662093739
 21
-999.6016865442366
 31
0.0
  0
LINE
  5
1C0BF
102
{ACAD_REACTORS
330
1C166
102
}
330
18
100
AcDbEntity
  8
01
100
AcDbLine
 10
631.4622662093739
 20
-993.2016865442321
 30
0.0
 11
630.9622662093739
 21
-993.1016853808344
 31
0.0
  0
LINE
  5
1C0C0
102
{ACAD_REACTORS
330
1C166
102
}
330
18
100
AcDbEntity
  8
01
100
AcDbLine
 10
631.4622662093739
 20
-991.6016865442277
 30
0.0
 11
630.9622662093739
 21
-991.5016853808306
 31
0.0
  0
LINE
  5
1C0C1
102
{ACAD_REACTORS
330
1C166
102
}
330
18
100
AcDbEntity
  8
01
100
AcDbLine
 10
631.4622662093739
 20
-996.4016865442321
 30
0.0
 11
630.9622662093739
 21
-996.3016853808344
 31
0.0
  0
LINE
  5
1C0C2
102
{ACAD_REACTORS
330
1C166
102
}
330
18
100
AcDbEntity
  8
01
100
AcDbLine
 10
631.4622662093739
 20
-994.8016865442322
 30
0.0
 11
630.9622662093739
 21
-994.7016853808345
 31
0.0
  0
LINE
  5
1C0C3
102
{ACAD_REACTORS
330
1C166
102
}
330
18
100
AcDbEntity
  8
01
100
AcDbLine
 10
627.9622662093739
 20
-990.9016784004475
 30
0.0
 11
627.4622662093739
 21
-990.8016772370504
 31
0.0
  0
LINE
  5
1C0C4
102
{ACAD_REACTORS
330
1C166
102
}
330
18
100
AcDbEntity
  8
01
100
AcDbLine
 10
627.9622662093739
 20
-992.5016784004481
 30
0.0
 11
627.4622662093739
 21
-992.4016772370503
 31
0.0
  0
LINE
  5
1C0C5
102
{ACAD_REACTORS
330
1C166
102
}
330
18
100
AcDbEntity
  8
01
100
AcDbLine
 10
627.9622662093739
 20
-995.7016784004481
 30
0.0
 11
627.4622662093739
 21
-995.6016772370505
 31
0.0
  0
LINE
  5
1C0C6
102
{ACAD_REACTORS
330
1C166
102
}
330
18
100
AcDbEntity
  8
01
100
AcDbLine
 10
627.9622662093739
 20
-994.101678400448
 30
0.0
 11
627.4622662093739
 21
-994.0016772370503
 31
0.0
  0
LINE
  5
1C0C7
102
{ACAD_REACTORS
330
1C166
102
}
330
18
100
AcDbEntity
  8
01
100
AcDbLine
 10
627.4622662093739
 20
-994.0016772370503
 30
0.0
 11
631.4622662093739
 21
-993.2016865442321
 31
0.0
  0
LINE
  5
1C0C8
102
{ACAD_REACTORS
330
1C166
102
}
330
18
100
AcDbEntity
  8
01
100
AcDbLine
 10
627.4622662093739
 20
-992.4016772370503
 30
0.0
 11
631.4622662093739
 21
-991.6016865442277
 31
0.0
  0
LINE
  5
1C0C9
102
{ACAD_REACTORS
330
1C166
102
}
330
18
100
AcDbEntity
  8
01
100
AcDbLine
 10
627.4622662093739
 20
-995.6016772370505
 30
0.0
 11
631.4622662093739
 21
-994.8016865442322
 31
0.0
  0
LINE
  5
1C0CA
102
{ACAD_REACTORS
330
1C166
102
}
330
18
100
AcDbEntity
  8
01
100
AcDbLine
 10
627.4622662093739
 20
-997.2016772370504
 30
0.0
 11
631.4622662093739
 21
-996.4016865442321
 31
0.0
  0
LINE
  5
1C0CB
102
{ACAD_REACTORS
330
1C166
102
}
330
18
100
AcDbEntity
  8
01
100
AcDbLine
 10
630.9622662093739
 20
-1007.501685380725
 30
0.0
 11
627.9622662093739
 21
-1007.501678400341
 31
0.0
  0
LINE
  5
1C0CC
102
{ACAD_REACTORS
330
1C166
102
}
330
18
100
AcDbEntity
  8
01
100
AcDbLine
 10
632.9622196734758
 20
-1006.501690034204
 30
0.0
 11
625.9622196734758
 21
-1006.50167374664
 31
0.0
  0
LINE
  5
1C0CD
102
{ACAD_REACTORS
330
1C166
102
}
330
18
100
AcDbEntity
  8
01
100
AcDbLine
 10
627.9622662093739
 20
-1006.901678400457
 30
0.0
 11
627.4622662093739
 21
-1006.801677237059
 31
0.0
  0
LINE
  5
1C0CE
102
{ACAD_REACTORS
330
1C166
102
}
330
18
100
AcDbEntity
  8
01
100
AcDbLine
 10
627.4622662093739
 20
-1006.801677237059
 30
0.0
 11
631.4622662093739
 21
-1006.001686544241
 31
0.0
  0
LINE
  5
1C0CF
102
{ACAD_REACTORS
330
1C166
102
}
330
18
100
AcDbEntity
  8
01
100
AcDbLine
 10
631.4622662093739
 20
-1006.001686544241
 30
0.0
 11
630.9622662093739
 21
-1005.901685380843
 31
0.0
  0
LINE
  5
1C0D0
102
{ACAD_REACTORS
330
1C166
102
}
330
18
100
AcDbEntity
  8
01
100
AcDbLine
 10
627.9622662093739
 20
-1005.301678400457
 30
0.0
 11
627.4622662093739
 21
-1005.201677237059
 31
0.0
  0
LINE
  5
1C0D1
102
{ACAD_REACTORS
330
1C166
102
}
330
18
100
AcDbEntity
  8
01
100
AcDbLine
 10
627.9622662093739
 20
-1003.701678400457
 30
0.0
 11
627.4622662093739
 21
-1003.601677237059
 31
0.0
  0
LINE
  5
1C0D2
102
{ACAD_REACTORS
330
1C166
102
}
330
18
100
AcDbEntity
  8
01
100
AcDbLine
 10
627.4622662093739
 20
-1003.601677237059
 30
0.0
 11
631.4622662093739
 21
-1002.801686544241
 31
0.0
  0
LINE
  5
1C0D3
102
{ACAD_REACTORS
330
1C166
102
}
330
18
100
AcDbEntity
  8
01
100
AcDbLine
 10
631.4622662093739
 20
-1004.401686544241
 30
0.0
 11
630.9622662093739
 21
-1004.301685380843
 31
0.0
  0
LINE
  5
1C0D4
102
{ACAD_REACTORS
330
1C166
102
}
330
18
100
AcDbEntity
  8
01
100
AcDbLine
 10
631.4622662093739
 20
-1002.801686544241
 30
0.0
 11
630.9622662093739
 21
-1002.701685380843
 31
0.0
  0
LINE
  5
1C0D5
102
{ACAD_REACTORS
330
1C166
102
}
330
18
100
AcDbEntity
  8
01
100
AcDbLine
 10
627.4622662093739
 20
-1005.201677237059
 30
0.0
 11
631.4622662093739
 21
-1004.401686544241
 31
0.0
  0
LINE
  5
1C0D6
102
{ACAD_REACTORS
330
1C166
102
}
330
18
100
AcDbEntity
  8
01
100
AcDbLine
 10
627.9622662093739
 20
-1002.101678400452
 30
0.0
 11
627.4622662093739
 21
-1002.001677237055
 31
0.0
  0
LINE
  5
1C0D7
102
{ACAD_REACTORS
330
1C166
102
}
330
18
100
AcDbEntity
  8
01
100
AcDbLine
 10
627.4622662093739
 20
-976.401677237046
 30
0.0
 11
631.4622662093739
 21
-975.6016865442234
 31
0.0
  0
LINE
  5
1C0D8
102
{ACAD_REACTORS
330
1C166
102
}
330
18
100
AcDbEntity
  8
01
100
AcDbLine
 10
627.4622662093739
 20
-973.2016772370459
 30
0.0
 11
631.4622662093739
 21
-972.4016865442234
 31
0.0
  0
LINE
  5
1C0D9
102
{ACAD_REACTORS
330
1C166
102
}
330
18
100
AcDbEntity
  8
01
100
AcDbLine
 10
631.4622662093739
 20
-972.4016865442234
 30
0.0
 11
630.9622662093739
 21
-972.3016853808261
 31
0.0
  0
LINE
  5
1C0DA
102
{ACAD_REACTORS
330
1C166
102
}
330
18
100
AcDbEntity
  8
01
100
AcDbLine
 10
627.9622662093739
 20
-971.7016784004431
 30
0.0
 11
627.4622662093739
 21
-971.6016772370459
 31
0.0
  0
LINE
  5
1C0DB
102
{ACAD_REACTORS
330
1C166
102
}
330
18
100
AcDbEntity
  8
01
100
AcDbLine
 10
631.4622662093739
 20
-975.6016865442234
 30
0.0
 11
630.9622662093739
 21
-975.5016853808262
 31
0.0
  0
LINE
  5
1C0DC
102
{ACAD_REACTORS
330
1C166
102
}
330
18
100
AcDbEntity
  8
01
100
AcDbLine
 10
631.4622662093739
 20
-974.0016865442233
 30
0.0
 11
630.9622662093739
 21
-973.9016853808262
 31
0.0
  0
LINE
  5
1C0DD
102
{ACAD_REACTORS
330
1C166
102
}
330
18
100
AcDbEntity
  8
01
100
AcDbLine
 10
627.9622662093739
 20
-973.301678400443
 30
0.0
 11
627.4622662093739
 21
-973.2016772370459
 31
0.0
  0
LINE
  5
1C0DE
102
{ACAD_REACTORS
330
1C166
102
}
330
18
100
AcDbEntity
  8
01
100
AcDbLine
 10
627.9622662093739
 20
-974.901678400443
 30
0.0
 11
627.4622662093739
 21
-974.8016772370459
 31
0.0
  0
LINE
  5
1C0DF
102
{ACAD_REACTORS
330
1C166
102
}
330
18
100
AcDbEntity
  8
01
100
AcDbLine
 10
627.4622662093739
 20
-974.8016772370459
 30
0.0
 11
631.4622662093739
 21
-974.0016865442233
 31
0.0
  0
LINE
  5
1C0E0
102
{ACAD_REACTORS
330
1C166
102
}
330
18
100
AcDbEntity
  8
01
100
AcDbLine
 10
631.4622662093739
 20
-969.2016865442233
 30
0.0
 11
630.9622662093739
 21
-969.1016853808262
 31
0.0
  0
LINE
  5
1C0E1
102
{ACAD_REACTORS
330
1C166
102
}
330
18
100
AcDbEntity
  8
01
100
AcDbLine
 10
631.4622662093739
 20
-970.8016865442233
 30
0.0
 11
630.9622662093739
 21
-970.7016853808263
 31
0.0
  0
LINE
  5
1C0E2
102
{ACAD_REACTORS
330
1C166
102
}
330
18
100
AcDbEntity
  8
01
100
AcDbLine
 10
627.9622662093739
 20
-970.101678400443
 30
0.0
 11
627.4622662093739
 21
-970.0016772370459
 31
0.0
  0
LINE
  5
1C0E3
102
{ACAD_REACTORS
330
1C166
102
}
330
18
100
AcDbEntity
  8
01
100
AcDbLine
 10
627.4622662093739
 20
-970.0016772370459
 30
0.0
 11
631.4622662093739
 21
-969.2016865442233
 31
0.0
  0
LINE
  5
1C0E4
102
{ACAD_REACTORS
330
1C166
102
}
330
18
100
AcDbEntity
  8
01
100
AcDbLine
 10
627.4622662093739
 20
-971.6016772370459
 30
0.0
 11
631.4622662093739
 21
-970.8016865442233
 31
0.0
  0
LINE
  5
1C0E5
102
{ACAD_REACTORS
330
1C166
102
}
330
18
100
AcDbEntity
  8
01
100
AcDbLine
 10
627.9622662093739
 20
-982.9016784004436
 30
0.0
 11
627.4622662093739
 21
-982.801677237046
 31
0.0
  0
LINE
  5
1C0E6
102
{ACAD_REACTORS
330
1C166
102
}
330
18
100
AcDbEntity
  8
01
100
AcDbLine
 10
631.4622662093739
 20
-978.8016865442277
 30
0.0
 11
630.9622662093739
 21
-978.70168538083
 31
0.0
  0
LINE
  5
1C0E7
102
{ACAD_REACTORS
330
1C166
102
}
330
18
100
AcDbEntity
  8
01
100
AcDbLine
 10
631.4622662093739
 20
-977.2016865442233
 30
0.0
 11
630.9622662093739
 21
-977.1016853808262
 31
0.0
  0
LINE
  5
1C0E8
102
{ACAD_REACTORS
330
1C166
102
}
330
18
100
AcDbEntity
  8
01
100
AcDbLine
 10
631.4622662093739
 20
-982.0016865442277
 30
0.0
 11
630.9622662093739
 21
-981.90168538083
 31
0.0
  0
LINE
  5
1C0E9
102
{ACAD_REACTORS
330
1C166
102
}
330
18
100
AcDbEntity
  8
01
100
AcDbLine
 10
631.4622662093739
 20
-980.4016865442278
 30
0.0
 11
630.9622662093739
 21
-980.3016853808301
 31
0.0
  0
LINE
  5
1C0EA
102
{ACAD_REACTORS
330
1C166
102
}
330
18
100
AcDbEntity
  8
01
100
AcDbLine
 10
627.9622662093739
 20
-976.5016784004431
 30
0.0
 11
627.4622662093739
 21
-976.401677237046
 31
0.0
  0
LINE
  5
1C0EB
102
{ACAD_REACTORS
330
1C166
102
}
330
18
100
AcDbEntity
  8
01
100
AcDbLine
 10
627.9622662093739
 20
-978.1016784004437
 30
0.0
 11
627.4622662093739
 21
-978.0016772370459
 31
0.0
  0
LINE
  5
1C0EC
102
{ACAD_REACTORS
330
1C166
102
}
330
18
100
AcDbEntity
  8
01
100
AcDbLine
 10
627.9622662093739
 20
-981.3016784004437
 30
0.0
 11
627.4622662093739
 21
-981.201677237046
 31
0.0
  0
LINE
  5
1C0ED
102
{ACAD_REACTORS
330
1C166
102
}
330
18
100
AcDbEntity
  8
01
100
AcDbLine
 10
627.9622662093739
 20
-979.7016784004436
 30
0.0
 11
627.4622662093739
 21
-979.6016772370459
 31
0.0
  0
LINE
  5
1C0EE
102
{ACAD_REACTORS
330
1C166
102
}
330
18
100
AcDbEntity
  8
01
100
AcDbLine
 10
627.4622662093739
 20
-979.6016772370459
 30
0.0
 11
631.4622662093739
 21
-978.8016865442277
 31
0.0
  0
LINE
  5
1C0EF
102
{ACAD_REACTORS
330
1C166
102
}
330
18
100
AcDbEntity
  8
01
100
AcDbLine
 10
627.4622662093739
 20
-978.0016772370459
 30
0.0
 11
631.4622662093739
 21
-977.2016865442233
 31
0.0
  0
LINE
  5
1C0F0
102
{ACAD_REACTORS
330
1C166
102
}
330
18
100
AcDbEntity
  8
01
100
AcDbLine
 10
627.4622662093739
 20
-981.201677237046
 30
0.0
 11
631.4622662093739
 21
-980.4016865442278
 31
0.0
  0
LINE
  5
1C0F1
102
{ACAD_REACTORS
330
1C166
102
}
330
18
100
AcDbEntity
  8
01
100
AcDbLine
 10
627.4622662093739
 20
-982.801677237046
 30
0.0
 11
631.4622662093739
 21
-982.0016865442277
 31
0.0
  0
LINE
  5
1C0F2
102
{ACAD_REACTORS
330
1C166
102
}
330
18
100
AcDbEntity
  8
01
100
AcDbLine
 10
627.4622662093739
 20
-968.401677237046
 30
0.0
 11
631.4622662093739
 21
-967.6016865442234
 31
0.0
  0
LINE
  5
1C0F3
102
{ACAD_REACTORS
330
1C166
102
}
330
18
100
AcDbEntity
  8
01
100
AcDbLine
 10
631.4622662093739
 20
-967.6016865442234
 30
0.0
 11
630.9622662093739
 21
-967.5016853808262
 31
0.0
  0
LINE
  5
1C0F4
102
{ACAD_REACTORS
330
1C166
102
}
330
18
100
AcDbEntity
  8
01
100
AcDbLine
 10
627.9622662093739
 20
-966.9016784004432
 30
0.0
 11
627.4622662093739
 21
-966.801677237046
 31
0.0
  0
LINE
  5
1C0F5
102
{ACAD_REACTORS
330
1C166
102
}
330
18
100
AcDbEntity
  8
01
100
AcDbLine
 10
627.9622662093739
 20
-968.5016784004431
 30
0.0
 11
627.4622662093739
 21
-968.401677237046
 31
0.0
  0
LINE
  5
1C0F6
102
{ACAD_REACTORS
330
1C166
102
}
330
18
100
AcDbEntity
  8
01
100
AcDbLine
 10
631.4622662093739
 20
-964.4016865442234
 30
0.0
 11
630.9622662093739
 21
-964.3016853808263
 31
0.0
  0
LINE
  5
1C0F7
102
{ACAD_REACTORS
330
1C166
102
}
330
18
100
AcDbEntity
  8
01
100
AcDbLine
 10
631.4622662093739
 20
-966.0016865442234
 30
0.0
 11
630.9622662093739
 21
-965.9016853808264
 31
0.0
  0
LINE
  5
1C0F8
102
{ACAD_REACTORS
330
1C166
102
}
330
18
100
AcDbEntity
  8
01
100
AcDbLine
 10
627.9622662093739
 20
-965.301678400443
 30
0.0
 11
627.4622662093739
 21
-965.2016772370459
 31
0.0
  0
LINE
  5
1C0F9
102
{ACAD_REACTORS
330
1C166
102
}
330
18
100
AcDbEntity
  8
01
100
AcDbLine
 10
627.4622662093739
 20
-965.2016772370459
 30
0.0
 11
631.4622662093739
 21
-964.4016865442234
 31
0.0
  0
LINE
  5
1C0FA
102
{ACAD_REACTORS
330
1C166
102
}
330
18
100
AcDbEntity
  8
01
100
AcDbLine
 10
627.4622662093739
 20
-966.801677237046
 30
0.0
 11
631.4622662093739
 21
-966.0016865442234
 31
0.0
  0
LINE
  5
1C0FB
102
{ACAD_REACTORS
330
1C166
102
}
330
18
100
AcDbEntity
  8
01
100
AcDbLine
 10
629.4622196734758
 20
-1007.501681890425
 30
0.0
 11
630.0395691670697
 21
-1006.501683233796
 31
0.0
  0
LINE
  5
1C0FC
102
{ACAD_REACTORS
330
1C165
102
}
330
18
100
AcDbEntity
  8
01
100
AcDbLine
 10
611.4622662093739
 20
-957.501681890587
 30
0.0
 11
609.9622662093739
 21
-962.8016784004486
 31
0.0
  0
LINE
  5
1C0FD
102
{ACAD_REACTORS
330
1C165
102
}
330
18
100
AcDbEntity
  8
01
100
AcDbLine
 10
609.9622662093739
 20
-962.8016784004482
 30
0.0
 11
609.9622662093739
 21
-1007.501678400341
 31
0.0
  0
LINE
  5
1C0FE
102
{ACAD_REACTORS
330
1C165
102
}
330
18
100
AcDbEntity
  8
01
100
AcDbLine
 10
611.4622662093739
 20
-957.501681890587
 30
0.0
 11
612.9622662093739
 21
-962.8016853808323
 31
0.0
  0
LINE
  5
1C0FF
102
{ACAD_REACTORS
330
1C165
102
}
330
18
100
AcDbEntity
  8
01
100
AcDbLine
 10
607.9622196734758
 20
-1007.501673746642
 30
0.0
 11
609.9622662093739
 21
-1007.501678400341
 31
0.0
  0
LINE
  5
1C100
102
{ACAD_REACTORS
330
1C165
102
}
330
18
100
AcDbEntity
  8
01
100
AcDbLine
 10
612.9622662093739
 20
-962.8016853808322
 30
0.0
 11
612.9622662093739
 21
-1007.501685380725
 31
0.0
  0
LINE
  5
1C101
102
{ACAD_REACTORS
330
1C165
102
}
330
18
100
AcDbEntity
  8
01
100
AcDbLine
 10
607.9622196734758
 20
-1006.50167374664
 30
0.0
 11
607.9622196734758
 21
-1008.601677236838
 31
0.0
  0
LINE
  5
1C102
102
{ACAD_REACTORS
330
1C165
102
}
330
18
100
AcDbEntity
  8
01
100
AcDbLine
 10
612.9622662093739
 20
-1007.501685380725
 30
0.0
 11
614.9622196734758
 21
-1007.501690034207
 31
0.0
  0
ARC
  5
1C103
102
{ACAD_REACTORS
330
1C165
102
}
330
18
100
AcDbEntity
  8
01
100
AcDbCircle
 10
609.4622196734758
 20
-1008.601677236838
 30
0.0
 40
1.5
100
AcDbArc
 50
180.0
 51
269.9998666844668
  0
LINE
  5
1C104
102
{ACAD_REACTORS
330
1C165
102
}
330
18
100
AcDbEntity
  8
01
100
AcDbLine
 10
614.9622196734758
 20
-1006.501690034204
 30
0.0
 11
614.9622196734758
 21
-1008.601686544017
 31
0.0
  0
LINE
  5
1C105
102
{ACAD_REACTORS
330
1C165
102
}
330
18
100
AcDbEntity
  8
01
100
AcDbLine
 10
609.4622161832833
 20
-1010.101677236834
 30
0.0
 11
613.4622161832833
 21
-1010.101686544013
 31
0.0
  0
ARC
  5
1C106
102
{ACAD_REACTORS
330
1C165
102
}
330
18
100
AcDbEntity
  8
01
100
AcDbCircle
 10
613.4622196734758
 20
-1008.601686544017
 30
0.0
 40
1.5
100
AcDbArc
 50
269.9998666844668
 51
0.0
  0
LINE
  5
1C107
102
{ACAD_REACTORS
330
1C165
102
}
330
18
100
AcDbEntity
  8
1CENTER
100
AcDbLine
 10
611.4622196734758
 20
-956.7535676080441
 30
0.0
 11
611.4622196734758
 21
-1011.171958299733
 31
0.0
  0
LINE
  5
1C108
102
{ACAD_REACTORS
330
1C165
102
}
330
18
100
AcDbEntity
  8
01
100
AcDbLine
 10
610.3678958594808
 20
-959.6016793442648
 30
0.0
 11
612.3302309483563
 21
-958.8016839102138
 31
0.0
  0
LINE
  5
1C109
102
{ACAD_REACTORS
330
1C165
102
}
330
18
100
AcDbEntity
  8
01
100
AcDbLine
 10
612.3302309483563
 20
-958.8016839102138
 30
0.0
 11
611.7419543733138
 21
-958.4899140539617
 31
0.0
  0
LINE
  5
1C10A
102
{ACAD_REACTORS
330
1C165
102
}
330
18
100
AcDbEntity
  8
01
100
AcDbLine
 10
609.4622662093739
 20
-1002.001677237055
 30
0.0
 11
613.4622662093739
 21
-1001.201686544237
 31
0.0
  0
LINE
  5
1C10B
102
{ACAD_REACTORS
330
1C165
102
}
330
18
100
AcDbEntity
  8
01
100
AcDbLine
 10
609.4622662093739
 20
-990.8016772370504
 30
0.0
 11
613.4622662093739
 21
-990.0016865442278
 31
0.0
  0
LINE
  5
1C10C
102
{ACAD_REACTORS
330
1C165
102
}
330
18
100
AcDbEntity
  8
01
100
AcDbLine
 10
609.4622662093739
 20
-987.6016772370504
 30
0.0
 11
613.4622662093739
 21
-986.8016865442278
 31
0.0
  0
LINE
  5
1C10D
102
{ACAD_REACTORS
330
1C165
102
}
330
18
100
AcDbEntity
  8
01
100
AcDbLine
 10
613.4622662093739
 20
-986.8016865442278
 30
0.0
 11
612.9622662093739
 21
-986.7016853808306
 31
0.0
  0
LINE
  5
1C10E
102
{ACAD_REACTORS
330
1C165
102
}
330
18
100
AcDbEntity
  8
01
100
AcDbLine
 10
609.9622662093739
 20
-986.1016784004476
 30
0.0
 11
609.4622662093739
 21
-986.0016772370503
 31
0.0
  0
LINE
  5
1C10F
102
{ACAD_REACTORS
330
1C165
102
}
330
18
100
AcDbEntity
  8
01
100
AcDbLine
 10
613.4622662093739
 20
-990.0016865442278
 30
0.0
 11
612.9622662093739
 21
-989.9016853808306
 31
0.0
  0
LINE
  5
1C110
102
{ACAD_REACTORS
330
1C165
102
}
330
18
100
AcDbEntity
  8
01
100
AcDbLine
 10
613.4622662093739
 20
-988.4016865442277
 30
0.0
 11
612.9622662093739
 21
-988.3016853808306
 31
0.0
  0
LINE
  5
1C111
102
{ACAD_REACTORS
330
1C165
102
}
330
18
100
AcDbEntity
  8
01
100
AcDbLine
 10
609.9622662093739
 20
-987.7016784004475
 30
0.0
 11
609.4622662093739
 21
-987.6016772370504
 31
0.0
  0
LINE
  5
1C112
102
{ACAD_REACTORS
330
1C165
102
}
330
18
100
AcDbEntity
  8
01
100
AcDbLine
 10
609.9622662093739
 20
-989.3016784004474
 30
0.0
 11
609.4622662093739
 21
-989.2016772370503
 31
0.0
  0
LINE
  5
1C113
102
{ACAD_REACTORS
330
1C165
102
}
330
18
100
AcDbEntity
  8
01
100
AcDbLine
 10
609.4622662093739
 20
-989.2016772370503
 30
0.0
 11
613.4622662093739
 21
-988.4016865442277
 31
0.0
  0
LINE
  5
1C114
102
{ACAD_REACTORS
330
1C165
102
}
330
18
100
AcDbEntity
  8
01
100
AcDbLine
 10
612.7830450527631
 20
-960.4016849638194
 30
0.0
 11
612.2312955889597
 21
-960.2189208211914
 31
0.0
  0
LINE
  5
1C115
102
{ACAD_REACTORS
330
1C165
102
}
330
18
100
AcDbEntity
  8
01
100
AcDbLine
 10
613.4622662093739
 20
-983.6016865442277
 30
0.0
 11
612.9622662093739
 21
-983.5016853808306
 31
0.0
  0
LINE
  5
1C116
102
{ACAD_REACTORS
330
1C165
102
}
330
18
100
AcDbEntity
  8
01
100
AcDbLine
 10
613.4622662093739
 20
-985.2016865442278
 30
0.0
 11
612.9622662093739
 21
-985.1016853808308
 31
0.0
  0
LINE
  5
1C117
102
{ACAD_REACTORS
330
1C165
102
}
330
18
100
AcDbEntity
  8
01
100
AcDbLine
 10
613.2358591571699
 20
-962.0016860174251
 30
0.0
 11
612.6992654218986
 21
-961.8724153197952
 31
0.0
  0
LINE
  5
1C118
102
{ACAD_REACTORS
330
1C165
102
}
330
18
100
AcDbEntity
  8
01
100
AcDbLine
 10
610.3831808065825
 20
-961.3144478030106
 30
0.0
 11
609.9150823514326
 21
-961.2016782906605
 31
0.0
  0
LINE
  5
1C119
102
{ACAD_REACTORS
330
1C165
102
}
330
18
100
AcDbEntity
  8
01
100
AcDbLine
 10
609.9622662093739
 20
-984.5016784004474
 30
0.0
 11
609.4622662093739
 21
-984.4016772370503
 31
0.0
  0
LINE
  5
1C11A
102
{ACAD_REACTORS
330
1C165
102
}
330
18
100
AcDbEntity
  8
01
100
AcDbLine
 10
609.9622662093739
 20
-962.9016784004475
 30
0.0
 11
609.4622662093739
 21
-962.8016772370504
 31
0.0
  0
LINE
  5
1C11B
102
{ACAD_REACTORS
330
1C165
102
}
330
18
100
AcDbEntity
  8
01
100
AcDbLine
 10
610.825067700112
 20
-959.7531151407052
 30
0.0
 11
610.3678958594808
 21
-959.6016793442648
 31
0.0
  0
LINE
  5
1C11C
102
{ACAD_REACTORS
330
1C165
102
}
330
18
100
AcDbEntity
  8
01
100
AcDbLine
 10
609.9150823514326
 20
-961.2016782906605
 30
0.0
 11
612.7830450527631
 21
-960.4016849638194
 31
0.0
  0
LINE
  5
1C11D
102
{ACAD_REACTORS
330
1C165
102
}
330
18
100
AcDbEntity
  8
01
100
AcDbLine
 10
609.4622662093739
 20
-984.4016772370503
 30
0.0
 11
613.4622662093739
 21
-983.6016865442277
 31
0.0
  0
LINE
  5
1C11E
102
{ACAD_REACTORS
330
1C165
102
}
330
18
100
AcDbEntity
  8
01
100
AcDbLine
 10
609.4622662093739
 20
-962.8016772370504
 30
0.0
 11
613.2358591571699
 21
-962.0016860174251
 31
0.0
  0
LINE
  5
1C11F
102
{ACAD_REACTORS
330
1C165
102
}
330
18
100
AcDbEntity
  8
01
100
AcDbLine
 10
609.4622662093739
 20
-986.0016772370503
 30
0.0
 11
613.4622662093739
 21
-985.2016865442278
 31
0.0
  0
LINE
  5
1C120
102
{ACAD_REACTORS
330
1C165
102
}
330
18
100
AcDbEntity
  8
01
100
AcDbLine
 10
609.4622662093739
 20
-998.8016772370547
 30
0.0
 11
613.4622662093739
 21
-998.0016865442365
 31
0.0
  0
LINE
  5
1C121
102
{ACAD_REACTORS
330
1C165
102
}
330
18
100
AcDbEntity
  8
01
100
AcDbLine
 10
613.4622662093739
 20
-998.0016865442365
 30
0.0
 11
612.9622662093739
 21
-997.9016853808388
 31
0.0
  0
LINE
  5
1C122
102
{ACAD_REACTORS
330
1C165
102
}
330
18
100
AcDbEntity
  8
01
100
AcDbLine
 10
609.9622662093739
 20
-997.301678400448
 30
0.0
 11
609.4622662093739
 21
-997.2016772370504
 31
0.0
  0
LINE
  5
1C123
102
{ACAD_REACTORS
330
1C165
102
}
330
18
100
AcDbEntity
  8
01
100
AcDbLine
 10
613.4622662093739
 20
-999.6016865442366
 30
0.0
 11
612.9622662093739
 21
-999.5016853808389
 31
0.0
  0
LINE
  5
1C124
102
{ACAD_REACTORS
330
1C165
102
}
330
18
100
AcDbEntity
  8
01
100
AcDbLine
 10
613.4622662093739
 20
-1001.201686544237
 30
0.0
 11
612.9622662093739
 21
-1001.101685380839
 31
0.0
  0
LINE
  5
1C125
102
{ACAD_REACTORS
330
1C165
102
}
330
18
100
AcDbEntity
  8
01
100
AcDbLine
 10
609.9622662093739
 20
-998.9016784004524
 30
0.0
 11
609.4622662093739
 21
-998.8016772370547
 31
0.0
  0
LINE
  5
1C126
102
{ACAD_REACTORS
330
1C165
102
}
330
18
100
AcDbEntity
  8
01
100
AcDbLine
 10
609.9622662093739
 20
-1000.501678400453
 30
0.0
 11
609.4622662093739
 21
-1000.401677237055
 31
0.0
  0
LINE
  5
1C127
102
{ACAD_REACTORS
330
1C165
102
}
330
18
100
AcDbEntity
  8
01
100
AcDbLine
 10
609.4622662093739
 20
-1000.401677237055
 30
0.0
 11
613.4622662093739
 21
-999.6016865442366
 31
0.0
  0
LINE
  5
1C128
102
{ACAD_REACTORS
330
1C165
102
}
330
18
100
AcDbEntity
  8
01
100
AcDbLine
 10
613.4622662093739
 20
-993.2016865442321
 30
0.0
 11
612.9622662093739
 21
-993.1016853808344
 31
0.0
  0
LINE
  5
1C129
102
{ACAD_REACTORS
330
1C165
102
}
330
18
100
AcDbEntity
  8
01
100
AcDbLine
 10
613.4622662093739
 20
-991.6016865442277
 30
0.0
 11
612.9622662093739
 21
-991.5016853808306
 31
0.0
  0
LINE
  5
1C12A
102
{ACAD_REACTORS
330
1C165
102
}
330
18
100
AcDbEntity
  8
01
100
AcDbLine
 10
613.4622662093739
 20
-996.4016865442321
 30
0.0
 11
612.9622662093739
 21
-996.3016853808344
 31
0.0
  0
LINE
  5
1C12B
102
{ACAD_REACTORS
330
1C165
102
}
330
18
100
AcDbEntity
  8
01
100
AcDbLine
 10
613.4622662093739
 20
-994.8016865442322
 30
0.0
 11
612.9622662093739
 21
-994.7016853808345
 31
0.0
  0
LINE
  5
1C12C
102
{ACAD_REACTORS
330
1C165
102
}
330
18
100
AcDbEntity
  8
01
100
AcDbLine
 10
609.9622662093739
 20
-990.9016784004475
 30
0.0
 11
609.4622662093739
 21
-990.8016772370504
 31
0.0
  0
LINE
  5
1C12D
102
{ACAD_REACTORS
330
1C165
102
}
330
18
100
AcDbEntity
  8
01
100
AcDbLine
 10
609.9622662093739
 20
-992.5016784004481
 30
0.0
 11
609.4622662093739
 21
-992.4016772370503
 31
0.0
  0
LINE
  5
1C12E
102
{ACAD_REACTORS
330
1C165
102
}
330
18
100
AcDbEntity
  8
01
100
AcDbLine
 10
609.9622662093739
 20
-995.7016784004481
 30
0.0
 11
609.4622662093739
 21
-995.6016772370505
 31
0.0
  0
LINE
  5
1C12F
102
{ACAD_REACTORS
330
1C165
102
}
330
18
100
AcDbEntity
  8
01
100
AcDbLine
 10
609.9622662093739
 20
-994.101678400448
 30
0.0
 11
609.4622662093739
 21
-994.0016772370503
 31
0.0
  0
LINE
  5
1C130
102
{ACAD_REACTORS
330
1C165
102
}
330
18
100
AcDbEntity
  8
01
100
AcDbLine
 10
609.4622662093739
 20
-994.0016772370503
 30
0.0
 11
613.4622662093739
 21
-993.2016865442321
 31
0.0
  0
LINE
  5
1C131
102
{ACAD_REACTORS
330
1C165
102
}
330
18
100
AcDbEntity
  8
01
100
AcDbLine
 10
609.4622662093739
 20
-992.4016772370503
 30
0.0
 11
613.4622662093739
 21
-991.6016865442277
 31
0.0
  0
LINE
  5
1C132
102
{ACAD_REACTORS
330
1C165
102
}
330
18
100
AcDbEntity
  8
01
100
AcDbLine
 10
609.4622662093739
 20
-995.6016772370505
 30
0.0
 11
613.4622662093739
 21
-994.8016865442322
 31
0.0
  0
LINE
  5
1C133
102
{ACAD_REACTORS
330
1C165
102
}
330
18
100
AcDbEntity
  8
01
100
AcDbLine
 10
609.4622662093739
 20
-997.2016772370504
 30
0.0
 11
613.4622662093739
 21
-996.4016865442321
 31
0.0
  0
LINE
  5
1C134
102
{ACAD_REACTORS
330
1C165
102
}
330
18
100
AcDbEntity
  8
01
100
AcDbLine
 10
612.9622662093739
 20
-1007.501685380725
 30
0.0
 11
609.9622662093739
 21
-1007.501678400341
 31
0.0
  0
LINE
  5
1C135
102
{ACAD_REACTORS
330
1C165
102
}
330
18
100
AcDbEntity
  8
01
100
AcDbLine
 10
614.9622196734758
 20
-1006.501690034204
 30
0.0
 11
607.9622196734758
 21
-1006.50167374664
 31
0.0
  0
LINE
  5
1C136
102
{ACAD_REACTORS
330
1C165
102
}
330
18
100
AcDbEntity
  8
01
100
AcDbLine
 10
609.9622662093739
 20
-1006.901678400457
 30
0.0
 11
609.4622662093739
 21
-1006.801677237059
 31
0.0
  0
LINE
  5
1C137
102
{ACAD_REACTORS
330
1C165
102
}
330
18
100
AcDbEntity
  8
01
100
AcDbLine
 10
609.4622662093739
 20
-1006.801677237059
 30
0.0
 11
613.4622662093739
 21
-1006.001686544241
 31
0.0
  0
LINE
  5
1C138
102
{ACAD_REACTORS
330
1C165
102
}
330
18
100
AcDbEntity
  8
01
100
AcDbLine
 10
613.4622662093739
 20
-1006.001686544241
 30
0.0
 11
612.9622662093739
 21
-1005.901685380843
 31
0.0
  0
LINE
  5
1C139
102
{ACAD_REACTORS
330
1C165
102
}
330
18
100
AcDbEntity
  8
01
100
AcDbLine
 10
609.9622662093739
 20
-1005.301678400457
 30
0.0
 11
609.4622662093739
 21
-1005.201677237059
 31
0.0
  0
LINE
  5
1C13A
102
{ACAD_REACTORS
330
1C165
102
}
330
18
100
AcDbEntity
  8
01
100
AcDbLine
 10
609.9622662093739
 20
-1003.701678400457
 30
0.0
 11
609.4622662093739
 21
-1003.601677237059
 31
0.0
  0
LINE
  5
1C13B
102
{ACAD_REACTORS
330
1C165
102
}
330
18
100
AcDbEntity
  8
01
100
AcDbLine
 10
609.4622662093739
 20
-1003.601677237059
 30
0.0
 11
613.4622662093739
 21
-1002.801686544241
 31
0.0
  0
LINE
  5
1C13C
102
{ACAD_REACTORS
330
1C165
102
}
330
18
100
AcDbEntity
  8
01
100
AcDbLine
 10
613.4622662093739
 20
-1004.401686544241
 30
0.0
 11
612.9622662093739
 21
-1004.301685380843
 31
0.0
  0
LINE
  5
1C13D
102
{ACAD_REACTORS
330
1C165
102
}
330
18
100
AcDbEntity
  8
01
100
AcDbLine
 10
613.4622662093739
 20
-1002.801686544241
 30
0.0
 11
612.9622662093739
 21
-1002.701685380843
 31
0.0
  0
LINE
  5
1C13E
102
{ACAD_REACTORS
330
1C165
102
}
330
18
100
AcDbEntity
  8
01
100
AcDbLine
 10
609.4622662093739
 20
-1005.201677237059
 30
0.0
 11
613.4622662093739
 21
-1004.401686544241
 31
0.0
  0
LINE
  5
1C13F
102
{ACAD_REACTORS
330
1C165
102
}
330
18
100
AcDbEntity
  8
01
100
AcDbLine
 10
609.9622662093739
 20
-1002.101678400452
 30
0.0
 11
609.4622662093739
 21
-1002.001677237055
 31
0.0
  0
LINE
  5
1C140
102
{ACAD_REACTORS
330
1C165
102
}
330
18
100
AcDbEntity
  8
01
100
AcDbLine
 10
609.4622662093739
 20
-976.401677237046
 30
0.0
 11
613.4622662093739
 21
-975.6016865442234
 31
0.0
  0
LINE
  5
1C141
102
{ACAD_REACTORS
330
1C165
102
}
330
18
100
AcDbEntity
  8
01
100
AcDbLine
 10
609.4622662093739
 20
-973.2016772370459
 30
0.0
 11
613.4622662093739
 21
-972.4016865442234
 31
0.0
  0
LINE
  5
1C142
102
{ACAD_REACTORS
330
1C165
102
}
330
18
100
AcDbEntity
  8
01
100
AcDbLine
 10
613.4622662093739
 20
-972.4016865442234
 30
0.0
 11
612.9622662093739
 21
-972.3016853808261
 31
0.0
  0
LINE
  5
1C143
102
{ACAD_REACTORS
330
1C165
102
}
330
18
100
AcDbEntity
  8
01
100
AcDbLine
 10
609.9622662093739
 20
-971.7016784004431
 30
0.0
 11
609.4622662093739
 21
-971.6016772370459
 31
0.0
  0
LINE
  5
1C144
102
{ACAD_REACTORS
330
1C165
102
}
330
18
100
AcDbEntity
  8
01
100
AcDbLine
 10
613.4622662093739
 20
-975.6016865442234
 30
0.0
 11
612.9622662093739
 21
-975.5016853808262
 31
0.0
  0
LINE
  5
1C145
102
{ACAD_REACTORS
330
1C165
102
}
330
18
100
AcDbEntity
  8
01
100
AcDbLine
 10
613.4622662093739
 20
-974.0016865442233
 30
0.0
 11
612.9622662093739
 21
-973.9016853808262
 31
0.0
  0
LINE
  5
1C146
102
{ACAD_REACTORS
330
1C165
102
}
330
18
100
AcDbEntity
  8
01
100
AcDbLine
 10
609.9622662093739
 20
-973.301678400443
 30
0.0
 11
609.4622662093739
 21
-973.2016772370459
 31
0.0
  0
LINE
  5
1C147
102
{ACAD_REACTORS
330
1C165
102
}
330
18
100
AcDbEntity
  8
01
100
AcDbLine
 10
609.9622662093739
 20
-974.901678400443
 30
0.0
 11
609.4622662093739
 21
-974.8016772370459
 31
0.0
  0
LINE
  5
1C148
102
{ACAD_REACTORS
330
1C165
102
}
330
18
100
AcDbEntity
  8
01
100
AcDbLine
 10
609.4622662093739
 20
-974.8016772370459
 30
0.0
 11
613.4622662093739
 21
-974.0016865442233
 31
0.0
  0
LINE
  5
1C149
102
{ACAD_REACTORS
330
1C165
102
}
330
18
100
AcDbEntity
  8
01
100
AcDbLine
 10
613.4622662093739
 20
-969.2016865442233
 30
0.0
 11
612.9622662093739
 21
-969.1016853808262
 31
0.0
  0
LINE
  5
1C14A
102
{ACAD_REACTORS
330
1C165
102
}
330
18
100
AcDbEntity
  8
01
100
AcDbLine
 10
613.4622662093739
 20
-970.8016865442233
 30
0.0
 11
612.9622662093739
 21
-970.7016853808263
 31
0.0
  0
LINE
  5
1C14B
102
{ACAD_REACTORS
330
1C165
102
}
330
18
100
AcDbEntity
  8
01
100
AcDbLine
 10
609.9622662093739
 20
-970.101678400443
 30
0.0
 11
609.4622662093739
 21
-970.0016772370459
 31
0.0
  0
LINE
  5
1C14C
102
{ACAD_REACTORS
330
1C165
102
}
330
18
100
AcDbEntity
  8
01
100
AcDbLine
 10
609.4622662093739
 20
-970.0016772370459
 30
0.0
 11
613.4622662093739
 21
-969.2016865442233
 31
0.0
  0
LINE
  5
1C14D
102
{ACAD_REACTORS
330
1C165
102
}
330
18
100
AcDbEntity
  8
01
100
AcDbLine
 10
609.4622662093739
 20
-971.6016772370459
 30
0.0
 11
613.4622662093739
 21
-970.8016865442233
 31
0.0
  0
LINE
  5
1C14E
102
{ACAD_REACTORS
330
1C165
102
}
330
18
100
AcDbEntity
  8
01
100
AcDbLine
 10
609.9622662093739
 20
-982.9016784004436
 30
0.0
 11
609.4622662093739
 21
-982.801677237046
 31
0.0
  0
LINE
  5
1C14F
102
{ACAD_REACTORS
330
1C165
102
}
330
18
100
AcDbEntity
  8
01
100
AcDbLine
 10
613.4622662093739
 20
-978.8016865442277
 30
0.0
 11
612.9622662093739
 21
-978.70168538083
 31
0.0
  0
LINE
  5
1C150
102
{ACAD_REACTORS
330
1C165
102
}
330
18
100
AcDbEntity
  8
01
100
AcDbLine
 10
613.4622662093739
 20
-977.2016865442233
 30
0.0
 11
612.9622662093739
 21
-977.1016853808262
 31
0.0
  0
LINE
  5
1C151
102
{ACAD_REACTORS
330
1C165
102
}
330
18
100
AcDbEntity
  8
01
100
AcDbLine
 10
613.4622662093739
 20
-982.0016865442277
 30
0.0
 11
612.9622662093739
 21
-981.90168538083
 31
0.0
  0
LINE
  5
1C152
102
{ACAD_REACTORS
330
1C165
102
}
330
18
100
AcDbEntity
  8
01
100
AcDbLine
 10
613.4622662093739
 20
-980.4016865442278
 30
0.0
 11
612.9622662093739
 21
-980.3016853808301
 31
0.0
  0
LINE
  5
1C153
102
{ACAD_REACTORS
330
1C165
102
}
330
18
100
AcDbEntity
  8
01
100
AcDbLine
 10
609.9622662093739
 20
-976.5016784004431
 30
0.0
 11
609.4622662093739
 21
-976.401677237046
 31
0.0
  0
LINE
  5
1C154
102
{ACAD_REACTORS
330
1C165
102
}
330
18
100
AcDbEntity
  8
01
100
AcDbLine
 10
609.9622662093739
 20
-978.1016784004437
 30
0.0
 11
609.4622662093739
 21
-978.0016772370459
 31
0.0
  0
LINE
  5
1C155
102
{ACAD_REACTORS
330
1C165
102
}
330
18
100
AcDbEntity
  8
01
100
AcDbLine
 10
609.9622662093739
 20
-981.3016784004437
 30
0.0
 11
609.4622662093739
 21
-981.201677237046
 31
0.0
  0
LINE
  5
1C156
102
{ACAD_REACTORS
330
1C165
102
}
330
18
100
AcDbEntity
  8
01
100
AcDbLine
 10
609.9622662093739
 20
-979.7016784004436
 30
0.0
 11
609.4622662093739
 21
-979.6016772370459
 31
0.0
  0
LINE
  5
1C157
102
{ACAD_REACTORS
330
1C165
102
}
330
18
100
AcDbEntity
  8
01
100
AcDbLine
 10
609.4622662093739
 20
-979.6016772370459
 30
0.0
 11
613.4622662093739
 21
-978.8016865442277
 31
0.0
  0
LINE
  5
1C158
102
{ACAD_REACTORS
330
1C165
102
}
330
18
100
AcDbEntity
  8
01
100
AcDbLine
 10
609.4622662093739
 20
-978.0016772370459
 30
0.0
 11
613.4622662093739
 21
-977.2016865442233
 31
0.0
  0
LINE
  5
1C159
102
{ACAD_REACTORS
330
1C165
102
}
330
18
100
AcDbEntity
  8
01
100
AcDbLine
 10
609.4622662093739
 20
-981.201677237046
 30
0.0
 11
613.4622662093739
 21
-980.4016865442278
 31
0.0
  0
LINE
  5
1C15A
102
{ACAD_REACTORS
330
1C165
102
}
330
18
100
AcDbEntity
  8
01
100
AcDbLine
 10
609.4622662093739
 20
-982.801677237046
 30
0.0
 11
613.4622662093739
 21
-982.0016865442277
 31
0.0
  0
LINE
  5
1C15B
102
{ACAD_REACTORS
330
1C165
102
}
330
18
100
AcDbEntity
  8
01
100
AcDbLine
 10
609.4622662093739
 20
-968.401677237046
 30
0.0
 11
613.4622662093739
 21
-967.6016865442234
 31
0.0
  0
LINE
  5
1C15C
102
{ACAD_REACTORS
330
1C165
102
}
330
18
100
AcDbEntity
  8
01
100
AcDbLine
 10
613.4622662093739
 20
-967.6016865442234
 30
0.0
 11
612.9622662093739
 21
-967.5016853808262
 31
0.0
  0
LINE
  5
1C15D
102
{ACAD_REACTORS
330
1C165
102
}
330
18
100
AcDbEntity
  8
01
100
AcDbLine
 10
609.9622662093739
 20
-966.9016784004432
 30
0.0
 11
609.4622662093739
 21
-966.801677237046
 31
0.0
  0
LINE
  5
1C15E
102
{ACAD_REACTORS
330
1C165
102
}
330
18
100
AcDbEntity
  8
01
100
AcDbLine
 10
609.9622662093739
 20
-968.5016784004431
 30
0.0
 11
609.4622662093739
 21
-968.401677237046
 31
0.0
  0
LINE
  5
1C15F
102
{ACAD_REACTORS
330
1C165
102
}
330
18
100
AcDbEntity
  8
01
100
AcDbLine
 10
613.4622662093739
 20
-964.4016865442234
 30
0.0
 11
612.9622662093739
 21
-964.3016853808263
 31
0.0
  0
LINE
  5
1C160
102
{ACAD_REACTORS
330
1C165
102
}
330
18
100
AcDbEntity
  8
01
100
AcDbLine
 10
613.4622662093739
 20
-966.0016865442234
 30
0.0
 11
612.9622662093739
 21
-965.9016853808264
 31
0.0
  0
LINE
  5
1C161
102
{ACAD_REACTORS
330
1C165
102
}
330
18
100
AcDbEntity
  8
01
100
AcDbLine
 10
609.9622662093739
 20
-965.301678400443
 30
0.0
 11
609.4622662093739
 21
-965.2016772370459
 31
0.0
  0
LINE
  5
1C162
102
{ACAD_REACTORS
330
1C165
102
}
330
18
100
AcDbEntity
  8
01
100
AcDbLine
 10
609.4622662093739
 20
-965.2016772370459
 30
0.0
 11
613.4622662093739
 21
-964.4016865442234
 31
0.0
  0
LINE
  5
1C163
102
{ACAD_REACTORS
330
1C165
102
}
330
18
100
AcDbEntity
  8
01
100
AcDbLine
 10
609.4622662093739
 20
-966.801677237046
 30
0.0
 11
613.4622662093739
 21
-966.0016865442234
 31
0.0
  0
LINE
  5
1C164
102
{ACAD_REACTORS
330
1C165
102
}
330
18
100
AcDbEntity
  8
01
100
AcDbLine
 10
611.4622196734758
 20
-1007.501681890425
 30
0.0
 11
612.0395691670697
 21
-1006.501683233796
 31
0.0
  0
LINE
  5
1C170
330
18
100
AcDbEntity
  8
01
100
AcDbLine
 10
606.4622196734755
 20
-1038.501681890422
 30
0.0
 11
834.4622196734758
 21
-1038.50168189042
 31
0.0
  0
LINE
  5
1C218
330
18
100
AcDbEntity
  8
1PHANTOM
100
AcDbLine
 10
907.6941723932229
 20
-1082.301681890422
 30
0.0
 11
929.6941723932229
 21
-1082.301681890422
 31
0.0
  0
LINE
  5
1C3B0
330
18
100
AcDbEntity
  8
1CENTER
100
AcDbLine
 10
620.4622196734758
 20
-1085.501681890422
 30
0.0
 11
620.4622196734758
 21
-1066.501681890422
 31
0.0
  0
LINE
  5
1C3B4
330
18
100
AcDbEntity
  8
1CENTER
100
AcDbLine
 10
820.4622196734758
 20
-1085.501681890421
 30
0.0
 11
820.4622196734758
 21
-1066.50168189042
 31
0.0
  0
TEXT
  5
1CEF6
330
18
100
AcDbEntity
  8
1DIM
  6
CONTINUOUS
100
AcDbText
 10
939.5166181301524
 20
-1022.011185100882
 30
0.0
 40
3.5
  1
合板9mm以上
100
AcDbText
  0
SOLID
  5
1CEF7
330
18
100
AcDbEntity
  8
1DIM
100
AcDbTrace
 10
942.3173245597875
 20
-1035.166986617547
 30
0.0
 11
942.7721232292421
 21
-1037.142909005034
 31
0.0
 12
941.7010685784107
 22
-1035.421295504261
 32
0.0
 13
941.7010685784107
 23
-1035.421295504261
 33
0.0
  0
LINE
  5
1CEF8
330
18
100
AcDbEntity
  8
1DIM
100
AcDbLine
 10
942.0091965690991
 20
-1035.294141060904
 30
0.0
 11
936.8166181301524
 21
-1022.711185100882
 31
0.0
  0
LINE
  5
1CEF9
330
18
100
AcDbEntity
  8
1DIM
100
AcDbLine
 10
936.8166181301524
 20
-1022.711185100882
 30
0.0
 11
968.9499514634857
 21
-1022.711185100882
 31
0.0
  0
SOLID
  5
1CEFA
330
18
100
AcDbEntity
  8
1HATCH
100
AcDbTrace
 10
934.2538037472567
 20
-1035.162600087448
 30
0.0
 11
934.2741410153009
 21
-1037.190085600748
 31
0.0
 12
933.5973401898647
 22
-1035.278789769695
 32
0.0
 13
933.5973401898647
 23
-1035.278789769695
 33
0.0
  0
LINE
  5
1CEFB
330
18
100
AcDbEntity
  8
1HATCH
100
AcDbLine
 10
933.9255719685607
 20
-1035.220694928571
 30
0.0
 11
930.6492736356138
 21
-1016.709839083758
 31
0.0
  0
LINE
  5
1CEFC
330
18
100
AcDbEntity
  8
1HATCH
100
AcDbLine
 10
930.6492736356138
 20
-1016.709839083758
 30
0.0
 11
939.1826069689471
 21
-1016.709839083758
 31
0.0
  0
TEXT
  5
1CEFD
330
18
100
AcDbEntity
  8
1HATCH
  6
CONTINUOUS
100
AcDbText
 10
933.3492736356138
 20
-1016.009839083758
 30
0.0
 40
3.5
  1
PB
100
AcDbText
  0
SOLID
  5
1CEFE
330
18
100
AcDbEntity
  8
1DIM
100
AcDbTrace
 10
877.9768124543627
 20
-1066.155774584581
 30
0.0
 11
877.4617668818387
 21
-1068.116855707159
 31
0.0
 12
877.3129458431197
 22
-1066.09473716228
 32
0.0
 13
877.3129458431197
 23
-1066.09473716228
 33
0.0
  0
LINE
  5
1CEFF
330
18
100
AcDbEntity
  8
1DIM
100
AcDbLine
 10
877.6448791487412
 20
-1066.12525587343
 30
0.0
 11
879.2532548024617
 21
-1048.63194022228
 31
0.0
  0
LINE
  5
1CF00
330
18
100
AcDbEntity
  8
1DIM
100
AcDbLine
 10
879.2532548024617
 20
-1048.63194022228
 30
0.0
 11
881.9532548024617
 21
-1048.63194022228
 31
0.0
  0
TEXT
  5
1CF01
330
18
100
AcDbEntity
  8
1DIM
  6
CONTINUOUS
100
AcDbText
 10
881.7351250771962
 20
-1036.265273555614
 30
0.0
 40
3.5
  1
材質：ステンレス
100
AcDbText
  0
TEXT
  5
1CF02
330
18
100
AcDbEntity
  8
1DIM
  6
CONTINUOUS
100
AcDbText
 10
881.8517917438629
 20
-1042.098606888947
 30
0.0
 40
3.5
  1
仕上：各種仕上
100
AcDbText
  0
TEXT
  5
1CF03
330
18
100
AcDbEntity
  8
1DIM
  6
CONTINUOUS
100
AcDbText
 10
881.3851250771962
 20
-1047.93194022228
 30
0.0
 40
3.5
  1
※ヘアライン方向：横目
100
AcDbText
  0
LINE
  5
1CF04
330
18
100
AcDbEntity
  8
1DIM
100
AcDbLine
 10
834.462219673476
 20
-1068.501681890422
 30
0.0
 11
861.6976567279627
 21
-1068.501681890422
 31
0.0
  0
LINE
  5
1CF05
330
18
100
AcDbEntity
  8
1DIM
100
AcDbLine
 10
834.462219673476
 20
-1083.501681890421
 30
0.0
 11
861.6976567279627
 21
-1083.501681890421
 31
0.0
  0
LINE
  5
1CF06
330
18
100
AcDbEntity
  8
1DIM
100
AcDbLine
 10
860.6976567279627
 20
-1070.501681890422
 30
0.0
 11
860.6976567279627
 21
-1081.501681890421
 31
0.0
  0
LINE
  5
1CF0A
330
18
100
AcDbEntity
  8
1DIM
100
AcDbLine
 10
834.2622196734761
 20
-1038.501681890422
 30
0.0
 11
860.9962347946292
 21
-1038.501681890422
 31
0.0
  0
LINE
  5
1CF0B
330
18
100
AcDbEntity
  8
1DIM
100
AcDbLine
 10
835.4622196734758
 20
-983.5016818904222
 30
0.0
 11
860.9962347946292
 21
-983.5016818904222
 31
0.0
  0
LINE
  5
1CF0C
330
18
100
AcDbEntity
  8
1DIM
100
AcDbLine
 10
859.9962347946292
 20
-1036.501681890422
 30
0.0
 11
859.9962347946292
 21
-985.5016818904222
 31
0.0
  0
LINE
  5
1CF10
330
18
100
AcDbEntity
  8
1PHANTOM
100
AcDbLine
 10
913.6941723932229
 20
-1082.186411323076
 30
0.0
 11
913.6941723932229
 21
-1075.83641149715
 31
0.0
  0
LINE
  5
1CF11
330
18
100
AcDbEntity
  8
1PHANTOM
100
AcDbLine
 10
913.6941723932229
 20
-1075.83641149715
 30
0.0
 11
913.3441723932227
 21
-1075.48641149715
 31
0.0
  0
LINE
  5
1CF12
330
18
100
AcDbEntity
  8
1PHANTOM
100
AcDbLine
 10
913.3441723932227
 20
-1075.48641149715
 30
0.0
 11
910.0441723932228
 21
-1075.48641149715
 31
0.0
  0
LINE
  5
1CF13
330
18
100
AcDbEntity
  8
1PHANTOM
100
AcDbLine
 10
910.0441723932228
 20
-1075.48641149715
 30
0.0
 11
909.6941723932229
 21
-1075.83641149715
 31
0.0
  0
LINE
  5
1CF14
330
18
100
AcDbEntity
  8
1PHANTOM
100
AcDbLine
 10
909.6941723932229
 20
-1075.83641149715
 30
0.0
 11
909.6941723932229
 21
-1082.186411323076
 31
0.0
  0
LINE
  5
1CF15
330
18
100
AcDbEntity
  8
1PHANTOM
100
AcDbLine
 10
909.6941723932229
 20
-1082.186411323076
 30
0.0
 11
908.6941723932229
 21
-1083.18641148715
 31
0.0
  0
LINE
  5
1CF16
330
18
100
AcDbEntity
  8
1PHANTOM
100
AcDbLine
 10
908.6941723932229
 20
-1083.18641148715
 30
0.0
 11
908.6941723932229
 21
-1083.48641149715
 31
0.0
  0
LINE
  5
1CF17
330
18
100
AcDbEntity
  8
1PHANTOM
100
AcDbLine
 10
908.6941723932229
 20
-1083.48641149715
 30
0.0
 11
914.6941723932229
 21
-1083.48641149715
 31
0.0
  0
LINE
  5
1CF18
330
18
100
AcDbEntity
  8
1PHANTOM
100
AcDbLine
 10
914.6941723932229
 20
-1083.48641149715
 30
0.0
 11
914.6941723932229
 21
-1083.18641139715
 31
0.0
  0
LINE
  5
1CF19
330
18
100
AcDbEntity
  8
1PHANTOM
100
AcDbLine
 10
914.6941723932229
 20
-1083.18641139715
 30
0.0
 11
913.6941723932229
 21
-1082.186411323076
 31
0.0
  0
LINE
  5
1CF1A
330
18
100
AcDbEntity
  8
1DIM
100
AcDbLine
 10
605.4622196734757
 20
-1082.501681890422
 30
0.0
 11
605.4622196734757
 21
-1108.386576748225
 31
0.0
  0
LINE
  5
1CF1B
330
18
100
AcDbEntity
  8
1DIM
100
AcDbLine
 10
835.4622196734762
 20
-1082.501681890422
 30
0.0
 11
835.4622196734762
 21
-1108.386576748225
 31
0.0
  0
LINE
  5
1CF1C
330
18
100
AcDbEntity
  8
1DIM
100
AcDbLine
 10
607.4622196734757
 20
-1107.386576748225
 30
0.0
 11
833.4622196734762
 21
-1107.386576748225
 31
0.0
  0
LINE
  5
1CF20
330
18
100
AcDbEntity
  8
1DIM
100
AcDbLine
 10
910.5968819096582
 20
-1078.301681890422
 30
0.0
 11
969.7629830684128
 21
-1078.301681890422
 31
0.0
  0
LINE
  5
1CF21
330
18
100
AcDbEntity
  8
1DIM
100
AcDbLine
 10
928.5968819096582
 20
-1074.301681890422
 30
0.0
 11
969.7629830684128
 21
-1074.301681890422
 31
0.0
  0
LINE
  5
1CF22
330
18
100
AcDbEntity
  8
1DIM
100
AcDbLine
 10
968.7629830684128
 20
-1078.301681890422
 30
0.0
 11
968.7629830684128
 21
-1090.960896983052
 31
0.0
  0
LINE
  5
1CF23
330
18
100
AcDbEntity
  8
1DIM
100
AcDbLine
 10
968.7629830684128
 20
-1078.301681890422
 30
0.0
 11
968.7629830684128
 21
-1074.301681890422
 31
0.0
  0
LINE
  5
1CF24
330
18
100
AcDbEntity
  8
1DIM
100
AcDbLine
 10
968.7629830684128
 20
-1080.301681890422
 30
0.0
 11
968.7629830684128
 21
-1082.301681890422
 31
0.0
  0
LINE
  5
1CF25
330
18
100
AcDbEntity
  8
1DIM
100
AcDbLine
 10
968.7629830684128
 20
-1072.301681890422
 30
0.0
 11
968.7629830684128
 21
-1070.301681890422
 31
0.0
  0
LINE
  5
1CF29
330
18
100
AcDbEntity
  8
1DIM
100
AcDbLine
 10
928.5968819096582
 20
-1074.301681890422
 30
0.0
 11
969.7629830684128
 21
-1074.301681890422
 31
0.0
  0
LINE
  5
1CF2A
330
18
100
AcDbEntity
  8
1DIM
100
AcDbLine
 10
929.6941723932229
 20
-1068.501681890422
 30
0.0
 11
969.7629830684128
 21
-1068.501681890422
 31
0.0
  0
LINE
  5
1CF2B
330
18
100
AcDbEntity
  8
1DIM
100
AcDbLine
 10
968.7629830684128
 20
-1068.501681890422
 30
0.0
 11
968.7629830684128
 21
-1057.768348557089
 31
0.0
  0
LINE
  5
1CF2C
330
18
100
AcDbEntity
  8
1DIM
100
AcDbLine
 10
968.7629830684128
 20
-1072.301681890422
 30
0.0
 11
968.7629830684128
 21
-1070.501681890422
 31
0.0
  0
LINE
  5
1CF30
330
18
100
AcDbEntity
  8
1DIM
100
AcDbLine
 10
629.4622196734758
 20
-1078.204391406857
 30
0.0
 11
629.4622196734758
 21
-1092.538514941923
 31
0.0
  0
LINE
  5
1CF31
330
18
100
AcDbEntity
  8
1DIM
100
AcDbLine
 10
811.4622196734758
 20
-1082.204391406857
 30
0.0
 11
811.4622196734758
 21
-1092.538514941923
 31
0.0
  0
LINE
  5
1CF32
330
18
100
AcDbEntity
  8
1DIM
100
AcDbLine
 10
631.4622196734758
 20
-1091.538514941923
 30
0.0
 11
809.4622196734758
 21
-1091.538514941923
 31
0.0
  0
LINE
  5
1CF36
330
18
100
AcDbEntity
  8
1DIM
100
AcDbLine
 10
620.4622196734758
 20
-1077.5352842286
 30
0.0
 11
620.4622196734758
 21
-1100.1387341862
 31
0.0
  0
LINE
  5
1CF37
330
18
100
AcDbEntity
  8
1DIM
100
AcDbLine
 10
820.4622196734758
 20
-1085.501681890422
 30
0.0
 11
820.4622196734758
 21
-1100.1387341862
 31
0.0
  0
LINE
  5
1CF38
330
18
100
AcDbEntity
  8
1DIM
100
AcDbLine
 10
622.4622196734758
 20
-1099.1387341862
 30
0.0
 11
818.4622196734758
 21
-1099.1387341862
 31
0.0
  0
LINE
  5
1CF3C
330
18
100
AcDbEntity
  8
1DIM
100
AcDbLine
 10
811.4622196734758
 20
-1078.301681890422
 30
0.0
 11
811.4622196734758
 21
-1061.487063385108
 31
0.0
  0
LINE
  5
1CF3D
330
18
100
AcDbEntity
  8
1DIM
100
AcDbLine
 10
829.4622196734758
 20
-1074.301681890422
 30
0.0
 11
829.4622196734758
 21
-1061.487063385108
 31
0.0
  0
LINE
  5
1CF3E
330
18
100
AcDbEntity
  8
1DIM
100
AcDbLine
 10
813.4622196734758
 20
-1062.487063385108
 30
0.0
 11
827.4622196734758
 21
-1062.487063385108
 31
0.0
  0
LINE
  5
1CF42
330
18
100
AcDbEntity
  8
1DIM
100
AcDbLine
 10
629.4622196734758
 20
-1078.204391406857
 30
0.0
 11
629.4622196734758
 21
-1060.514897219134
 31
0.0
  0
LINE
  5
1CF43
330
18
100
AcDbEntity
  8
1DIM
100
AcDbLine
 10
611.4622196734758
 20
-1082.204391406857
 30
0.0
 11
611.4622196734758
 21
-1060.514897219134
 31
0.0
  0
LINE
  5
1CF44
330
18
100
AcDbEntity
  8
1DIM
100
AcDbLine
 10
627.4622196734758
 20
-1061.514897219134
 30
0.0
 11
613.4622196734758
 21
-1061.514897219134
 31
0.0
  0
LINE
  5
1CF48
330
18
100
AcDbEntity
  8
1DIM
100
AcDbLine
 10
911.6941723932229
 20
-1083.48641149715
 30
0.0
 11
911.6941723932229
 21
-1101.28488771569
 31
0.0
  0
LINE
  5
1CF49
330
18
100
AcDbEntity
  8
1DIM
100
AcDbLine
 10
929.6941723932229
 20
-1083.501681890422
 30
0.0
 11
929.6941723932229
 21
-1101.28488771569
 31
0.0
  0
LINE
  5
1CF4A
330
18
100
AcDbEntity
  8
1DIM
100
AcDbLine
 10
913.6941723932229
 20
-1100.28488771569
 30
0.0
 11
927.6941723932229
 21
-1100.28488771569
 31
0.0
  0
LINE
  5
1CF4E
330
18
100
AcDbEntity
  8
0
  6
BYBLOCK
100
AcDbLine
 10
860.1617583479626
 20
-1070.501681890422
 30
0.0
 11
860.6976567279627
 21
-1068.501681890422
 31
0.0
  0
LINE
  5
1CF4F
330
18
100
AcDbEntity
  8
0
  6
BYBLOCK
100
AcDbLine
 10
860.6976567279627
 20
-1068.501681890422
 30
0.0
 11
861.2335551079627
 21
-1070.501681890422
 31
0.0
  0
LINE
  5
1CF50
330
18
100
AcDbEntity
  8
0
  6
BYBLOCK
100
AcDbLine
 10
860.6976567279627
 20
-1068.501681890422
 30
0.0
 11
860.6976567279627
 21
-1070.501681890422
 31
0.0
  0
LINE
  5
1CF51
330
18
100
AcDbEntity
  8
0
  6
BYBLOCK
100
AcDbLine
 10
861.2335551079627
 20
-1081.501681890421
 30
0.0
 11
860.6976567279627
 21
-1083.501681890421
 31
0.0
  0
LINE
  5
1CF52
330
18
100
AcDbEntity
  8
0
  6
BYBLOCK
100
AcDbLine
 10
860.6976567279627
 20
-1083.501681890421
 30
0.0
 11
860.1617583479626
 21
-1081.501681890421
 31
0.0
  0
LINE
  5
1CF53
330
18
100
AcDbEntity
  8
0
  6
BYBLOCK
100
AcDbLine
 10
860.6976567279627
 20
-1083.501681890421
 30
0.0
 11
860.6976567279627
 21
-1081.501681890421
 31
0.0
  0
TEXT
  5
1CF54
330
18
100
AcDbEntity
  8
1DIM
  6
CONTINUOUS
100
AcDbText
 10
859.9976567279627
 20
-1078.335015223754
 30
0.0
 40
3.5
  1
15
 50
90.0
100
AcDbText
  0
LINE
  5
1CF55
330
18
100
AcDbEntity
  8
0
  6
BYBLOCK
100
AcDbLine
 10
860.5321331746293
 20
-1036.501681890422
 30
0.0
 11
859.9962347946292
 21
-1038.501681890422
 31
0.0
  0
LINE
  5
1CF56
330
18
100
AcDbEntity
  8
0
  6
BYBLOCK
100
AcDbLine
 10
859.9962347946292
 20
-1038.501681890422
 30
0.0
 11
859.4603364146292
 21
-1036.501681890422
 31
0.0
  0
LINE
  5
1CF57
330
18
100
AcDbEntity
  8
0
  6
BYBLOCK
100
AcDbLine
 10
859.9962347946292
 20
-1038.501681890422
 30
0.0
 11
859.9962347946292
 21
-1036.501681890422
 31
0.0
  0
LINE
  5
1CF58
330
18
100
AcDbEntity
  8
0
  6
BYBLOCK
100
AcDbLine
 10
859.4603364146292
 20
-985.5016818904222
 30
0.0
 11
859.9962347946292
 21
-983.5016818904222
 31
0.0
  0
LINE
  5
1CF59
330
18
100
AcDbEntity
  8
0
  6
BYBLOCK
100
AcDbLine
 10
859.9962347946292
 20
-983.5016818904222
 30
0.0
 11
860.5321331746293
 21
-985.5016818904222
 31
0.0
  0
LINE
  5
1CF5A
330
18
100
AcDbEntity
  8
0
  6
BYBLOCK
100
AcDbLine
 10
859.9962347946292
 20
-983.5016818904222
 30
0.0
 11
859.9962347946292
 21
-985.5016818904222
 31
0.0
  0
TEXT
  5
1CF5B
330
18
100
AcDbEntity
  8
1DIM
  6
CONTINUOUS
100
AcDbText
 10
859.2962347946291
 20
-1016.31950063671
 30
0.0
 40
3.5
  1
55
 50
90.0
100
AcDbText
  0
LINE
  5
1CF5C
330
18
100
AcDbEntity
  8
0
  6
BYBLOCK
100
AcDbLine
 10
607.4622196734757
 20
-1107.922475128225
 30
0.0
 11
605.4622196734757
 21
-1107.386576748225
 31
0.0
  0
LINE
  5
1CF5D
330
18
100
AcDbEntity
  8
0
  6
BYBLOCK
100
AcDbLine
 10
605.4622196734757
 20
-1107.386576748225
 30
0.0
 11
607.4622196734757
 21
-1106.850678368225
 31
0.0
  0
LINE
  5
1CF5E
330
18
100
AcDbEntity
  8
0
  6
BYBLOCK
100
AcDbLine
 10
605.4622196734757
 20
-1107.386576748225
 30
0.0
 11
607.4622196734757
 21
-1107.386576748225
 31
0.0
  0
LINE
  5
1CF5F
330
18
100
AcDbEntity
  8
0
  6
BYBLOCK
100
AcDbLine
 10
833.4622196734762
 20
-1106.850678368225
 30
0.0
 11
835.4622196734762
 21
-1107.386576748225
 31
0.0
  0
LINE
  5
1CF60
330
18
100
AcDbEntity
  8
0
  6
BYBLOCK
100
AcDbLine
 10
835.4622196734762
 20
-1107.386576748225
 30
0.0
 11
833.4622196734762
 21
-1107.922475128225
 31
0.0
  0
LINE
  5
1CF61
330
18
100
AcDbEntity
  8
0
  6
BYBLOCK
100
AcDbLine
 10
835.4622196734762
 20
-1107.386576748225
 30
0.0
 11
833.4622196734762
 21
-1107.386576748225
 31
0.0
  0
TEXT
  5
1CF62
330
18
100
AcDbEntity
  8
1DIM
  6
CONTINUOUS
100
AcDbText
 10
716.0143030068093
 20
-1106.686576748225
 30
0.0
 40
3.5
  1
230
100
AcDbText
  0
LINE
  5
1CF63
330
18
100
AcDbEntity
  8
0
  6
BYBLOCK
100
AcDbLine
 10
968.2270846884128
 20
-1080.301681890422
 30
0.0
 11
968.7629830684128
 21
-1078.301681890422
 31
0.0
  0
LINE
  5
1CF64
330
18
100
AcDbEntity
  8
0
  6
BYBLOCK
100
AcDbLine
 10
968.7629830684128
 20
-1078.301681890422
 30
0.0
 11
969.2988814484129
 21
-1080.301681890422
 31
0.0
  0
LINE
  5
1CF65
330
18
100
AcDbEntity
  8
0
  6
BYBLOCK
100
AcDbLine
 10
968.7629830684128
 20
-1078.301681890422
 30
0.0
 11
968.7629830684128
 21
-1080.301681890422
 31
0.0
  0
LINE
  5
1CF66
330
18
100
AcDbEntity
  8
0
  6
BYBLOCK
100
AcDbLine
 10
969.2988814484129
 20
-1072.301681890422
 30
0.0
 11
968.7629830684128
 21
-1074.301681890422
 31
0.0
  0
LINE
  5
1CF67
330
18
100
AcDbEntity
  8
0
  6
BYBLOCK
100
AcDbLine
 10
968.7629830684128
 20
-1074.301681890422
 30
0.0
 11
968.2270846884128
 21
-1072.301681890422
 31
0.0
  0
LINE
  5
1CF68
330
18
100
AcDbEntity
  8
0
  6
BYBLOCK
100
AcDbLine
 10
968.7629830684128
 20
-1074.301681890422
 30
0.0
 11
968.7629830684128
 21
-1072.301681890422
 31
0.0
  0
TEXT
  5
1CF69
330
18
100
AcDbEntity
  8
1DIM
  6
CONTINUOUS
100
AcDbText
 10
968.0629830684128
 20
-1090.260896983052
 30
0.0
 40
3.5
  1
P4
 50
90.0
100
AcDbText
  0
LINE
  5
1CF6A
330
18
100
AcDbEntity
  8
0
  6
BYBLOCK
100
AcDbLine
 10
969.2988814484129
 20
-1072.301681890422
 30
0.0
 11
968.7629830684128
 21
-1074.301681890422
 31
0.0
  0
LINE
  5
1CF6B
330
18
100
AcDbEntity
  8
0
  6
BYBLOCK
100
AcDbLine
 10
968.7629830684128
 20
-1074.301681890422
 30
0.0
 11
968.2270846884128
 21
-1072.301681890422
 31
0.0
  0
LINE
  5
1CF6C
330
18
100
AcDbEntity
  8
0
  6
BYBLOCK
100
AcDbLine
 10
968.7629830684128
 20
-1074.301681890422
 30
0.0
 11
968.7629830684128
 21
-1072.301681890422
 31
0.0
  0
LINE
  5
1CF6D
330
18
100
AcDbEntity
  8
0
  6
BYBLOCK
100
AcDbLine
 10
968.2270846884128
 20
-1070.501681890422
 30
0.0
 11
968.7629830684128
 21
-1068.501681890422
 31
0.0
  0
LINE
  5
1CF6E
330
18
100
AcDbEntity
  8
0
  6
BYBLOCK
100
AcDbLine
 10
968.7629830684128
 20
-1068.501681890422
 30
0.0
 11
969.2988814484129
 21
-1070.501681890422
 31
0.0
  0
LINE
  5
1CF6F
330
18
100
AcDbEntity
  8
0
  6
BYBLOCK
100
AcDbLine
 10
968.7629830684128
 20
-1068.501681890422
 30
0.0
 11
968.7629830684128
 21
-1070.501681890422
 31
0.0
  0
TEXT
  5
1CF70
330
18
100
AcDbEntity
  8
1DIM
  6
CONTINUOUS
100
AcDbText
 10
968.0629830684128
 20
-1065.647168001533
 30
0.0
 40
3.5
  1
5.8
 50
90.0
100
AcDbText
  0
LINE
  5
1CF71
330
18
100
AcDbEntity
  8
0
  6
BYBLOCK
100
AcDbLine
 10
631.4622196734758
 20
-1092.074413321923
 30
0.0
 11
629.4622196734758
 21
-1091.538514941923
 31
0.0
  0
LINE
  5
1CF72
330
18
100
AcDbEntity
  8
0
  6
BYBLOCK
100
AcDbLine
 10
629.4622196734758
 20
-1091.538514941923
 30
0.0
 11
631.4622196734758
 21
-1091.002616561924
 31
0.0
  0
LINE
  5
1CF73
330
18
100
AcDbEntity
  8
0
  6
BYBLOCK
100
AcDbLine
 10
629.4622196734758
 20
-1091.538514941923
 30
0.0
 11
631.4622196734758
 21
-1091.538514941923
 31
0.0
  0
LINE
  5
1CF74
330
18
100
AcDbEntity
  8
0
  6
BYBLOCK
100
AcDbLine
 10
809.4622196734758
 20
-1091.002616561924
 30
0.0
 11
811.4622196734758
 21
-1091.538514941923
 31
0.0
  0
LINE
  5
1CF75
330
18
100
AcDbEntity
  8
0
  6
BYBLOCK
100
AcDbLine
 10
811.4622196734758
 20
-1091.538514941923
 30
0.0
 11
809.4622196734758
 21
-1092.074413321923
 31
0.0
  0
LINE
  5
1CF76
330
18
100
AcDbEntity
  8
0
  6
BYBLOCK
100
AcDbLine
 10
811.4622196734758
 20
-1091.538514941923
 30
0.0
 11
809.4622196734758
 21
-1091.538514941923
 31
0.0
  0
TEXT
  5
1CF77
330
18
100
AcDbEntity
  8
1DIM
  6
CONTINUOUS
100
AcDbText
 10
716.3788863401425
 20
-1090.838514941923
 30
0.0
 40
3.5
  1
182
100
AcDbText
  0
LINE
  5
1CF78
330
18
100
AcDbEntity
  8
0
  6
BYBLOCK
100
AcDbLine
 10
622.4622196734758
 20
-1099.6746325662
 30
0.0
 11
620.4622196734758
 21
-1099.1387341862
 31
0.0
  0
LINE
  5
1CF79
330
18
100
AcDbEntity
  8
0
  6
BYBLOCK
100
AcDbLine
 10
620.4622196734758
 20
-1099.1387341862
 30
0.0
 11
622.4622196734758
 21
-1098.6028358062
 31
0.0
  0
LINE
  5
1CF7A
330
18
100
AcDbEntity
  8
0
  6
BYBLOCK
100
AcDbLine
 10
620.4622196734758
 20
-1099.1387341862
 30
0.0
 11
622.4622196734758
 21
-1099.1387341862
 31
0.0
  0
LINE
  5
1CF7B
330
18
100
AcDbEntity
  8
0
  6
BYBLOCK
100
AcDbLine
 10
818.4622196734758
 20
-1098.6028358062
 30
0.0
 11
820.4622196734758
 21
-1099.1387341862
 31
0.0
  0
LINE
  5
1CF7C
330
18
100
AcDbEntity
  8
0
  6
BYBLOCK
100
AcDbLine
 10
820.4622196734758
 20
-1099.1387341862
 30
0.0
 11
818.4622196734758
 21
-1099.6746325662
 31
0.0
  0
LINE
  5
1CF7D
330
18
100
AcDbEntity
  8
0
  6
BYBLOCK
100
AcDbLine
 10
820.4622196734758
 20
-1099.1387341862
 30
0.0
 11
818.4622196734758
 21
-1099.1387341862
 31
0.0
  0
TEXT
  5
1CF7E
330
18
100
AcDbEntity
  8
1DIM
  6
CONTINUOUS
100
AcDbText
 10
714.5559696734758
 20
-1098.4387341862
 30
0.0
 40
3.5
  1
P200
100
AcDbText
  0
LINE
  5
1CF7F
330
18
100
AcDbEntity
  8
0
  6
BYBLOCK
100
AcDbLine
 10
813.4622196734758
 20
-1063.022961765108
 30
0.0
 11
811.4622196734758
 21
-1062.487063385108
 31
0.0
  0
LINE
  5
1CF80
330
18
100
AcDbEntity
  8
0
  6
BYBLOCK
100
AcDbLine
 10
811.4622196734758
 20
-1062.487063385108
 30
0.0
 11
813.4622196734758
 21
-1061.951165005108
 31
0.0
  0
LINE
  5
1CF81
330
18
100
AcDbEntity
  8
0
  6
BYBLOCK
100
AcDbLine
 10
811.4622196734758
 20
-1062.487063385108
 30
0.0
 11
813.4622196734758
 21
-1062.487063385108
 31
0.0
  0
LINE
  5
1CF82
330
18
100
AcDbEntity
  8
0
  6
BYBLOCK
100
AcDbLine
 10
827.4622196734758
 20
-1061.951165005108
 30
0.0
 11
829.4622196734758
 21
-1062.487063385108
 31
0.0
  0
LINE
  5
1CF83
330
18
100
AcDbEntity
  8
0
  6
BYBLOCK
100
AcDbLine
 10
829.4622196734758
 20
-1062.487063385108
 30
0.0
 11
827.4622196734758
 21
-1063.022961765108
 31
0.0
  0
LINE
  5
1CF84
330
18
100
AcDbEntity
  8
0
  6
BYBLOCK
100
AcDbLine
 10
829.4622196734758
 20
-1062.487063385108
 30
0.0
 11
827.4622196734758
 21
-1062.487063385108
 31
0.0
  0
TEXT
  5
1CF85
330
18
100
AcDbEntity
  8
1DIM
  6
CONTINUOUS
100
AcDbText
 10
816.3788863401425
 20
-1061.787063385108
 30
0.0
 40
3.5
  1
P18
100
AcDbText
  0
LINE
  5
1CF86
330
18
100
AcDbEntity
  8
0
  6
BYBLOCK
100
AcDbLine
 10
627.4622196734758
 20
-1060.978998839134
 30
0.0
 11
629.4622196734758
 21
-1061.514897219134
 31
0.0
  0
LINE
  5
1CF87
330
18
100
AcDbEntity
  8
0
  6
BYBLOCK
100
AcDbLine
 10
629.4622196734758
 20
-1061.514897219134
 30
0.0
 11
627.4622196734758
 21
-1062.050795599134
 31
0.0
  0
LINE
  5
1CF88
330
18
100
AcDbEntity
  8
0
  6
BYBLOCK
100
AcDbLine
 10
629.4622196734758
 20
-1061.514897219134
 30
0.0
 11
627.4622196734758
 21
-1061.514897219134
 31
0.0
  0
LINE
  5
1CF89
330
18
100
AcDbEntity
  8
0
  6
BYBLOCK
100
AcDbLine
 10
613.4622196734758
 20
-1062.050795599134
 30
0.0
 11
611.4622196734758
 21
-1061.514897219134
 31
0.0
  0
LINE
  5
1CF8A
330
18
100
AcDbEntity
  8
0
  6
BYBLOCK
100
AcDbLine
 10
611.4622196734758
 20
-1061.514897219134
 30
0.0
 11
613.4622196734758
 21
-1060.978998839134
 31
0.0
  0
LINE
  5
1CF8B
330
18
100
AcDbEntity
  8
0
  6
BYBLOCK
100
AcDbLine
 10
611.4622196734758
 20
-1061.514897219134
 30
0.0
 11
613.4622196734758
 21
-1061.514897219134
 31
0.0
  0
TEXT
  5
1CF8C
330
18
100
AcDbEntity
  8
1DIM
  6
CONTINUOUS
100
AcDbText
 10
616.3788863401425
 20
-1060.814897219134
 30
0.0
 40
3.5
  1
P18
100
AcDbText
  0
LINE
  5
1CF8D
330
18
100
AcDbEntity
  8
0
  6
BYBLOCK
100
AcDbLine
 10
913.6941723932229
 20
-1100.82078609569
 30
0.0
 11
911.6941723932229
 21
-1100.28488771569
 31
0.0
  0
LINE
  5
1CF8E
330
18
100
AcDbEntity
  8
0
  6
BYBLOCK
100
AcDbLine
 10
911.6941723932229
 20
-1100.28488771569
 30
0.0
 11
913.6941723932229
 21
-1099.74898933569
 31
0.0
  0
LINE
  5
1CF8F
330
18
100
AcDbEntity
  8
0
  6
BYBLOCK
100
AcDbLine
 10
911.6941723932229
 20
-1100.28488771569
 30
0.0
 11
913.6941723932229
 21
-1100.28488771569
 31
0.0
  0
LINE
  5
1CF90
330
18
100
AcDbEntity
  8
0
  6
BYBLOCK
100
AcDbLine
 10
927.6941723932229
 20
-1099.74898933569
 30
0.0
 11
929.6941723932229
 21
-1100.28488771569
 31
0.0
  0
LINE
  5
1CF91
330
18
100
AcDbEntity
  8
0
  6
BYBLOCK
100
AcDbLine
 10
929.6941723932229
 20
-1100.28488771569
 30
0.0
 11
927.6941723932229
 21
-1100.82078609569
 31
0.0
  0
LINE
  5
1CF92
330
18
100
AcDbEntity
  8
0
  6
BYBLOCK
100
AcDbLine
 10
929.6941723932229
 20
-1100.28488771569
 30
0.0
 11
927.6941723932229
 21
-1100.28488771569
 31
0.0
  0
TEXT
  5
1CF93
330
18
100
AcDbEntity
  8
1DIM
  6
CONTINUOUS
100
AcDbText
 10
918.3608390598895
 20
-1099.58488771569
 30
0.0
 40
3.5
  1
18
100
AcDbText
  0
VIEWPORT
  5
57
330
15
100
AcDbEntity
 67
     1
  8
0
100
AcDbViewport
 68
     1
 10
0.0
 20
0.0
 30
0.0
 40
663.4332925336597
 41
297.0
 68
     1
 69
     1
1001
ACAD
1000
MVIEW
1002
{
1070
    16
1010
0.0
1020
0.0
1030
0.0
1010
0.0
1020
0.0
1030
1.0
1040
0.0
1040
297.0
1040
-10.5087197062422
1040
10.21635618115053
1040
50.0
1040
0.0
1040
0.0
1070
    16
1070
   100
1070
     0
1070
     1
1070
     0
1070
     0
1070
     0
1070
     0
1040
0.0
1040
0.0
1040
0.0
1040
10.0
1040
10.0
1040
10.0
1040
10.0
1070
     0
1002
{
1002
}
1002
}
  0
ENDSEC
  0
SECTION
  2
OBJECTS
  0
DICTIONARY
  5
C
330
0
100
AcDbDictionary
  3
ACAD_CIP_PREVIOUS_PRODUCT_INFO
350
1C30B
  3
ACAD_COLOR
350
2D0
  3
ACAD_GROUP
350
D
  3
ACAD_LAYOUT
350
2D1
  3
ACAD_MATERIAL
350
2CF
  3
ACAD_MLEADERSTYLE
350
19E18
  3
ACAD_MLINESTYLE
350
1B
  3
ACAD_PLOTSETTINGS
350
2D2
  3
ACAD_SCALELIST
350
19DF6
  3
ACAD_VISUALSTYLE
350
19DE5
  3
ACDBHEADERROUNDTRIPXREC
350
1CF94
  3
ACDBVARIABLEDICTIONARY
350
37
  3
AEC_PROPERTY_SET_DEFS
350
1CBF2
  3
CONTENTDICTIONARY
350
D8
  3
DRAWINGVARIABLESDICT
350
20
  3
DWGPROPS
350
1CF97
1001
ACAD
1000
TREAT_AS_HARD
1070
     0
  0
DICTIONARY
  5
18FE8
330
2
100
AcDbDictionary
  3
ACAD_LAYERSTATES
360
18FE9
1001
ACAD
1000
TREAT_AS_HARD
1070
     1
  0
DICTIONARY
  5
1A20A
330
E
100
AcDbDictionary
  3
ADSK_XREC_LAYER_RECONCILED
360
1A20B
1001
ACAD
1000
TREAT_AS_HARD
1070
     1
  0
DICTIONARY
  5
1A20C
330
29
100
AcDbDictionary
  3
ADSK_XREC_LAYER_RECONCILED
360
1A20D
1001
ACAD
1000
TREAT_AS_HARD
1070
     1
  0
DICTIONARY
  5
1A20E
330
31
100
AcDbDictionary
  3
ADSK_XREC_LAYER_RECONCILED
360
1A20F
1001
ACAD
1000
TREAT_AS_HARD
1070
     1
  0
DICTIONARY
  5
1A218
330
101
100
AcDbDictionary
  3
ADSK_XREC_LAYER_RECONCILED
360
1A219
1001
ACAD
1000
TREAT_AS_HARD
1070
     1
  0
DICTIONARY
  5
1A21C
330
103
100
AcDbDictionary
  3
ADSK_XREC_LAYER_RECONCILED
360
1A21D
1001
ACAD
1000
TREAT_AS_HARD
1070
     1
  0
DICTIONARY
  5
1A220
330
25F
100
AcDbDictionary
  3
ADSK_XREC_LAYER_RECONCILED
360
1A221
1001
ACAD
1000
TREAT_AS_HARD
1070
     1
  0
DICTIONARY
  5
1A23C
330
26D
100
AcDbDictionary
  3
ADSK_XREC_LAYER_RECONCILED
360
1A23D
1001
ACAD
1000
TREAT_AS_HARD
1070
     1
  0
DICTIONARY
  5
6E9
330
18
100
AcDbDictionary
  3
ACAD_SORTENTS
360
6EA
1001
ACAD
1000
TREAT_AS_HARD
1070
     1
  0
DICTIONARY
  5
59B
330
15
100
AcDbDictionary
  3
ACAD_SORTENTS
360
59C
1001
ACAD
1000
TREAT_AS_HARD
1070
     1
  0
XRECORD
  5
1C30B
102
{ACAD_REACTORS
330
C
102
}
330
C
100
AcDbXrecord
300
ACDLT
300
2012
300
ACDLT_F_S
  0
DICTIONARY
  5
2D0
102
{ACAD_REACTORS
330
C
102
}
330
C
100
AcDbDictionary
1001
ACAD
1000
TREAT_AS_HARD
1070
     0
  0
DICTIONARY
  5
D
102
{ACAD_REACTORS
330
C
102
}
330
C
100
AcDbDictionary
  3
*A1
350
1BC49
  3
*A2
350
1BF52
  3
*A3
350
1BFBC
  3
*A4
350
1C026
  3
*A5
350
1C092
  3
*A6
350
1C165
  3
*A7
350
1C166
1001
ACAD
1000
TREAT_AS_HARD
1070
     0
  0
DICTIONARY
  5
2D1
102
{ACAD_REACTORS
330
C
102
}
330
C
100
AcDbDictionary
1001
ACAD
1000
TREAT_AS_HARD
1070
     0
  0
DICTIONARY
  5
2CF
102
{ACAD_REACTORS
330
C
102
}
330
C
100
AcDbDictionary
  3
BYBLOCK
350
19DD5
  3
BYLAYER
350
19DCD
  3
GLOBAL
350
19DDD
1001
ACAD
1000
TREAT_AS_HARD
1070
     0
  0
DICTIONARY
  5
19E18
102
{ACAD_REACTORS
330
C
102
}
330
C
100
AcDbDictionary
  3
STANDARD
350
19E19
1001
ACAD
1000
TREAT_AS_HARD
1070
     0
  0
DICTIONARY
  5
1B
102
{ACAD_REACTORS
330
C
102
}
330
C
100
AcDbDictionary
  3
STANDARD
350
1C
1001
ACAD
1000
TREAT_AS_HARD
1070
     0
  0
DICTIONARY
  5
2D2
102
{ACAD_REACTORS
330
C
102
}
330
C
100
AcDbDictionary
1001
ACAD
1000
TREAT_AS_HARD
1070
     0
  0
DICTIONARY
  5
19DF6
102
{ACAD_REACTORS
330
C
102
}
330
C
100
AcDbDictionary
  3
A0
350
19DF7
  3
A1
350
19DF8
  3
A2
350
19DF9
  3
A3
350
19DFA
  3
A4
350
19DFB
  3
A5
350
19DFC
  3
A6
350
19DFD
  3
A7
350
19DFE
  3
A8
350
19DFF
  3
A9
350
19E00
  3
B0
350
19E01
  3
B1
350
19E02
  3
B2
350
19E03
  3
B3
350
19E04
  3
B4
350
19E05
  3
B5
350
19E06
  3
B6
350
19E07
  3
B7
350
19E08
  3
B8
350
19E09
  3
B9
350
19E0A
  3
C0
350
19E0B
  3
C1
350
19E0C
  3
C2
350
19E0D
  3
C3
350
19E0E
  3
C4
350
19E0F
  3
C5
350
19E10
  3
C6
350
19E11
  3
C7
350
19E12
  3
C8
350
19E13
  3
C9
350
19E14
  3
D0
350
19E15
  3
D1
350
19E16
  3
D2
350
19E17
1001
ACAD
1000
TREAT_AS_HARD
1070
     0
  0
DICTIONARY
  5
19DE5
102
{ACAD_REACTORS
330
C
102
}
330
C
100
AcDbDictionary
  3
2DWIREFRAME
350
19DEB
  3
3D_HIDDEN
350
19DED
  3
3DWIREFRAME
350
19DEC
  3
BASIC
350
19DEA
  3
BRIGHTEN
350
19DF1
  3
COLORCHANGE
350
19DF5
  3
CONCEPTUAL
350
19DEE
  3
DIM
350
19DF0
  3
EDGECOLOROFF
350
1C2FC
  3
FACEPATTERN
350
19DF4
  3
FLAT
350
19DE6
  3
FLATWITHEDGES
350
19DE7
  3
GOURAUD
350
19DE8
  3
GOURAUDWITHEDGES
350
19DE9
  3
HIDDEN
350
1C2F4
  3
JITTEROFF
350
1C2FA
  3
LINEPATTERN
350
19DF3
  3
MODELING
350
1CD13
  3
OVERHANGOFF
350
1C2FB
  3
REALISTIC
350
19DEF
  3
SHADED
350
1C2F9
  3
SHADED_WITH_EDGES
350
1C2F8
  3
SHADES_OF_GRAY
350
1C2F5
  3
SKETCHY
350
1C2F6
  3
THICKEN
350
19DF2
  3
WIREFRAME
350
1C2F3
  3
X-RAY
350
1C2F7
1001
ACAD
1000
TREAT_AS_HARD
1070
     0
  0
DICTIONARY
  5
1CF94
102
{ACAD_REACTORS
330
C
102
}
330
C
100
AcDbDictionary
  3
COLORDICT
350
1CF95
  3
MATERIALDICT
350
1CF96
1001
ACAD
1000
TREAT_AS_HARD
1070
     0
  0
DICTIONARY
  5
37
102
{ACAD_REACTORS
330
C
102
}
330
C
100
AcDbDictionary
  3
CANNOSCALE
350
1A2A6
  3
CMLEADERSTYLE
350
1A2A5
  3
CTABLESTYLE
350
4F1
  3
DIMADEC
350
38
  3
DIMASSOC
350
408
  3
HIDETEXT
350
1891
  3
INDEXCTL
350
1A2A8
  3
INTERSECTIONCOLOR
350
1895
  3
INTERSECTIONDISPLAY
350
1894
  3
MSLTSCALE
350
1CD80
  3
OBSCOLOR
350
1892
  3
OBSLTYPE
350
1893
  3
PROJECTNAME
350
409
  3
SORTENTS
350
1A2A7
  3
XCLIPFRAME
350
1CD12
1001
ACAD
1000
TREAT_AS_HARD
1070
     0
  0
DICTIONARY
  5
1CBF2
102
{ACAD_REACTORS
330
C
102
}
330
C
100
AcDbDictionary
1001
ACAD
1000
TREAT_AS_HARD
1070
     0
  0
DICTIONARY
  5
D8
102
{ACAD_REACTORS
330
C
102
}
330
C
100
AcDbDictionary
1001
CONTENTTABDATA
1070
    11
1000
Child
1000
D:\ACLT\TABset\CHILDREN.dwg
1070
     0
1070
     0
1070
     1
1000
PK
1000
D:\ACLT\TABset\PK.dwg
1070
     0
1070
     0
1070
     1
1000
Lev1
1000
D:\ACLT\TABset\Lever01.dwg
1070
     0
1070
     0
1070
     1
1000
Lev2
1000
D:\ACLT\TABset\Lever02.dwg
1070
     0
1070
     0
1070
     1
1000
L3
1000
D:\Aclt\TABset\Lever03.dwg
1070
     0
1070
     0
1070
     1
1000
Form
1000
D:\ACLT\FORMAT
1070
     1
1070
     0
1070
     1
1000
Jnt
1000
D:\ACLT\TABset\JOINTPARTS.dwg
1070
     0
1070
     0
1070
     1
1000
ISO
1000
D:\ACLT\TABset\Isome01.dwg
1070
     0
1070
     0
1070
     1
1000
R
1000
D:\ACLT\TABset\REGION.dwg
1070
     0
1070
     0
1070
     1
1000
std
1000
D:\ACLT\TABset\std_sym_all.dwg
1070
     0
1070
     0
1070
     1
1000
丸
1000
D:\Aclt\TABset\MARU.dwg
1070
     0
1070
     0
1070
     1
1001
CONTENTCURRENTTAB
1070
     0
1001
ACAD
1000
TREAT_AS_HARD
1070
     0
  0
DICTIONARY
  5
20
102
{ACAD_REACTORS
330
C
102
}
330
C
100
AcDbDictionary
1001
DRAWINGVARIABLESXDATA
1000
POLARANG
1000
0.261799387799149410000000
1000
POLARMODE
1000
1
1000
POLARSTYLE
1000
1
1001
ACAD
1000
TREAT_AS_HARD
1070
     0
  0
XRECORD
  5
1CF97
102
{ACAD_REACTORS
330
C
102
}
330
C
100
AcDbXrecord
  1
DWGPROPS COOKIE
  2

  3

  4

  6

  7

  8
3684
  9

300
=
301
=
302
=
303
=
304
=
305
=
306
=
307
=
308
=
309
=
 40
0.0
 41
2453033.357663484
 42
2458129.123870486
  1

 90
        0
  0
DICTIONARY
  5
18FE9
102
{ACAD_REACTORS
330
18FE8
102
}
330
18FE8
100
AcDbDictionary
1001
ACAD
1000
TREAT_AS_HARD
1070
     0
  0
ACAD_PROXY_OBJECT
  5
1A20B
102
{ACAD_REACTORS
330
1A20A
102
}
330
1A20A
100
AcDbZombieObject
 90
      499
 91
      517
 93
       34
310
40C8804040
  0
ACAD_PROXY_OBJECT
  5
1A20D
102
{ACAD_REACTORS
330
1A20C
102
}
330
1A20C
100
AcDbZombieObject
 90
      499
 91
      517
 93
       34
310
40C8804040
  0
ACAD_PROXY_OBJECT
  5
1A20F
102
{ACAD_REACTORS
330
1A20E
102
}
330
1A20E
100
AcDbZombieObject
 90
      499
 91
      517
 93
       34
310
40C8804040
  0
ACAD_PROXY_OBJECT
  5
1A219
102
{ACAD_REACTORS
330
1A218
102
}
330
1A218
100
AcDbZombieObject
 90
      499
 91
      517
 93
       34
310
40C8804040
  0
ACAD_PROXY_OBJECT
  5
1A21D
102
{ACAD_REACTORS
330
1A21C
102
}
330
1A21C
100
AcDbZombieObject
 90
      499
 91
      517
 93
       34
310
40C8804040
  0
ACAD_PROXY_OBJECT
  5
1A221
102
{ACAD_REACTORS
330
1A220
102
}
330
1A220
100
AcDbZombieObject
 90
      499
 91
      517
 93
       34
310
40C8804040
  0
ACAD_PROXY_OBJECT
  5
1A23D
102
{ACAD_REACTORS
330
1A23C
102
}
330
1A23C
100
AcDbZombieObject
 90
      499
 91
      517
 93
       34
310
40C8804040
  0
SORTENTSTABLE
  5
6EA
102
{ACAD_REACTORS
330
6E9
102
}
330
6E9
100
AcDbSortentsTable
330
18
331
0
  5
99AB
331
0
  5
AB53
331
0
  5
AB54
331
0
  5
ECB5
331
193C6
  5
193CE
331
193C7
  5
193CF
331
193C8
  5
193D0
331
193C9
  5
1B77A
331
193CA
  5
1B77B
331
193CB
  5
1B77C
331
193CC
  5
1B77D
331
193CD
  5
1B77E
331
193CE
  5
1B77F
331
193CF
  5
1B7FC
331
193D0
  5
1B7FE
331
1B77A
  5
1B813
331
1B77B
  5
1B814
331
1B77C
  5
1B815
331
1B77D
  5
1B816
331
1B77E
  5
1B817
331
1B77F
  5
1B819
331
1B7FC
  5
1B81A
331
1B7FE
  5
1B81B
331
1B7FF
  5
1B81D
331
1B800
  5
1B81E
331
1B801
  5
1B820
331
1B80A
  5
1B821
331
1B80B
  5
1B822
331
1B80C
  5
1B823
331
1B80D
  5
1B825
331
1B80E
  5
1B826
331
1B80F
  5
1B828
331
1B810
  5
1B99B
331
1B811
  5
1B9B8
331
1B812
  5
1B9BC
331
1B813
  5
1B9BD
331
1B814
  5
1B9BE
331
1B815
  5
1BA1D
331
1B817
  5
1BA1E
331
1B818
  5
1BBE9
331
1B819
  5
1BBEA
331
1B81A
  5
1BBEB
331
1B81B
  5
1BBEC
331
1B81C
  5
1BBED
331
1B81D
  5
1BBEE
331
1B81E
  5
1BBEF
331
1B81F
  5
1BBF0
331
1B821
  5
1BC90
331
1B823
  5
1BC93
331
1B824
  5
1BC94
331
1B826
  5
1BC95
331
0
  5
1B9BF
331
0
  5
1BA1C
331
1B9B7
  5
1BEF6
331
1B9B8
  5
1BEF7
331
1B9BA
  5
1BEF8
331
1B9BB
  5
1BEF9
331
1B9BC
  5
1BEFA
331
1B9BD
  5
1BEFB
331
1B9BE
  5
1BEFC
331
1BA1B
  5
1BEFD
331
1BA1C
  5
1BEFE
331
1BA1D
  5
1BEFF
331
1BBE9
  5
1BF00
331
1BBEA
  5
1BF01
331
1BBEB
  5
1BF02
331
1BBEC
  5
1BF03
331
0
  5
1BC98
331
1BBEE
  5
1BF0E
331
1BBEF
  5
1BF0F
331
1BBF0
  5
1BF10
331
1BC90
  5
1BF11
331
1BC93
  5
1BF12
331
1BC94
  5
1BF13
331
1BC95
  5
1BF14
331
1BC98
  5
1BF15
331
1BC99
  5
1BF16
331
1BC9A
  5
1BF17
331
1BC9B
  5
1BF18
331
1BC9C
  5
1BF19
331
1BC9D
  5
1BF1A
331
1BC9E
  5
1BF1B
331
1BC9F
  5
1BF1C
331
1BCA0
  5
1BF1D
331
1BCA1
  5
1BF1E
331
1BCA2
  5
1BF1F
331
1BCA3
  5
1BF20
331
1BCA4
  5
1BF21
331
1BCA5
  5
1BF22
331
1BEE9
  5
1BF2E
331
1BEEA
  5
1BF2F
331
1BEEB
  5
1BF30
331
1BEEC
  5
1BF31
331
1BEED
  5
1BF32
331
1BEEE
  5
1BF33
331
1BEEF
  5
1BF34
331
1BEF0
  5
1BF35
331
1BEF1
  5
1BF36
331
1BEF2
  5
1BF37
331
1BEF3
  5
1BF38
331
1BEF4
  5
1BF39
331
1BEF5
  5
1BF3A
331
1BEF6
  5
1BF3B
331
1BEF7
  5
1BF3C
331
1BEF8
  5
1BF3D
331
1BEF9
  5
1BF3E
331
1BEFA
  5
1BF3F
331
1BEFB
  5
1BF40
331
1BEFC
  5
1BF41
331
1BEFD
  5
1BF42
331
1BEFE
  5
1BF43
331
1BEFF
  5
1BF44
331
1BF00
  5
1BF45
331
1BF01
  5
1BF46
331
1BF02
  5
1BF47
331
1BF03
  5
1BF48
331
1BF04
  5
1BF49
331
1BF05
  5
1BF4A
331
1BF06
  5
1BF4B
331
1BF07
  5
1BF4C
331
1BF08
  5
1BF4D
331
1BF09
  5
1BF4E
331
1BF0A
  5
1BF4F
331
1BF0B
  5
1BF50
331
1BF0C
  5
1BF51
331
1BF0D
  5
1BF53
331
1BF0E
  5
1BF54
331
1BF0F
  5
1BF55
331
1BF10
  5
1BF56
331
1BF11
  5
1BF57
331
1BF12
  5
1BF58
331
1BF13
  5
1BF59
331
1BF14
  5
1BF5A
331
1BF15
  5
1BF5B
331
1BF16
  5
1BF5C
331
1BF17
  5
1BF5E
331
1BF18
  5
1BF5F
331
1BF19
  5
1BF60
331
1BF1A
  5
1BF61
331
1BF1B
  5
1BF62
331
1BF1C
  5
1BF63
331
1BF1D
  5
1BF64
331
1BF1E
  5
1BF65
331
1BF1F
  5
1BF66
331
1BF20
  5
1BF67
331
1BF21
  5
1BF23
331
1BF22
  5
1BF24
331
1BF23
  5
1BF25
331
1BF24
  5
1BF26
331
1BF25
  5
1BF27
331
1BF26
  5
1BF28
331
1BF27
  5
1BF29
331
1BF28
  5
1BF2A
331
1BF29
  5
1BF2B
331
1BF2A
  5
1BF2C
331
1BF2B
  5
1BF2D
331
1BF2C
  5
1BF68
331
1BF2D
  5
1BF69
331
1BF2E
  5
1BF6A
331
1BF2F
  5
1BF6B
331
1BF30
  5
1BF6C
331
1BF31
  5
1BF6D
331
1BF32
  5
1BF6E
331
1BF33
  5
1BF6F
331
1BF34
  5
1BF70
331
1BF35
  5
1BF71
331
1BF36
  5
1BF72
331
1BF37
  5
1BF73
331
1BF38
  5
1BF74
331
1BF39
  5
1BF75
331
1BF3A
  5
1BF76
331
1BF3B
  5
1BF77
331
1BF3C
  5
1BF78
331
1BF3D
  5
1BF79
331
1BF3E
  5
1BF7A
331
1BF3F
  5
1BF7B
331
1BF40
  5
1BF7C
331
1BF41
  5
1BF7D
331
1BF42
  5
1BF7E
331
1BF43
  5
1BF7F
331
1BF44
  5
1BF80
331
1BF45
  5
1BF81
331
1BF46
  5
1BF82
331
1BF47
  5
1BF83
331
1BF48
  5
1BF84
331
1BF49
  5
1BF85
331
1BF4A
  5
1BF86
331
1BF4B
  5
1BF87
331
1BF4C
  5
1BF88
331
1BF4D
  5
1BF89
331
1BF4E
  5
1BF8A
331
1BF4F
  5
1BF8B
331
1BF50
  5
1BF5D
331
1BF51
  5
1BF8C
331
1BF53
  5
1BF8D
331
1BF54
  5
1BF8E
331
1BF55
  5
1BF8F
331
1BF56
  5
1BF90
331
1BF57
  5
1BF91
331
1BF58
  5
1BF92
331
1BF59
  5
1BF93
331
1BF5A
  5
1BF94
331
1BF5B
  5
1BF95
331
1BF5C
  5
1BF96
331
1BF5D
  5
1BF97
331
1BF5E
  5
1BF98
331
1BF5F
  5
1BF99
331
1BF60
  5
1BF9A
331
1BF61
  5
1BF9B
331
1BF62
  5
1BF9C
331
1BF63
  5
1BF9D
331
1BF64
  5
1BF9E
331
1BF65
  5
1BF9F
331
1BF66
  5
1BFA0
331
1BF67
  5
1BFA1
331
1BF68
  5
1BFA2
331
1BF69
  5
1BFA3
331
1BF6A
  5
1BFA4
331
1BF6B
  5
1BFA5
331
1BF6C
  5
1BFA6
331
1BF6D
  5
1BFA7
331
1BF6E
  5
1BFA8
331
1BF6F
  5
1BFA9
331
1BF70
  5
1BFAA
331
1BF71
  5
1BFAB
331
1BF72
  5
1BFAC
331
1BF73
  5
1BFAD
331
1BF74
  5
1BFAE
331
1BF75
  5
1BFAF
331
1BF76
  5
1BFB0
331
1BF77
  5
1BFB1
331
1BF78
  5
1BFB2
331
1BF79
  5
1BFB3
331
1BF7A
  5
1BFB4
331
1BF7B
  5
1BFB5
331
1BF7C
  5
1BFB6
331
1BF7D
  5
1BFB7
331
1BF7E
  5
1BFB8
331
1BF7F
  5
1BFB9
331
1BF80
  5
1BFBA
331
1BF81
  5
1BFBB
331
1BF82
  5
1BFBD
331
1BF83
  5
1BFBE
331
1BF84
  5
1BFBF
331
1BF85
  5
1BFC0
331
1BF86
  5
1BFC1
331
1BF87
  5
1BFC2
331
1BF88
  5
1BFC3
331
1BF89
  5
1BFC4
331
1BF8A
  5
1BFC5
331
1BF8B
  5
1BFC6
331
1BF8C
  5
1BFC7
331
1BF8D
  5
1BFC8
331
1BF8E
  5
1BFC9
331
1BF8F
  5
1BFCA
331
1BF90
  5
1BFCB
331
1BF91
  5
1BFCC
331
1BF92
  5
1BFCD
331
1BF93
  5
1BFCE
331
1BF94
  5
1BFCF
331
1BF95
  5
1BFD0
331
1BF96
  5
1BFD1
331
1BF97
  5
1BFD2
331
1BF98
  5
1BFD3
331
1BF99
  5
1BFD4
331
1BF9A
  5
1BFD5
331
1BF9B
  5
1BFD6
331
1BF9C
  5
1BFD7
331
1BF9D
  5
1BFD8
331
1BF9E
  5
1BFD9
331
1BF9F
  5
1BFDA
331
1BFA0
  5
1BFDB
331
1BFA1
  5
1BFDC
331
1BFA2
  5
1BFDD
331
1BFA3
  5
1BFDE
331
1BFA4
  5
1BFDF
331
1BFA5
  5
1BFE0
331
1BFA6
  5
1BFE1
331
1BFA7
  5
1BFE2
331
1BFA8
  5
1BFE3
331
1BFA9
  5
1BFE4
331
1BFAA
  5
1BFE5
331
1BFAB
  5
1BFE6
331
1BFAC
  5
1BFE7
331
1BFAD
  5
1BFE8
331
1BFAE
  5
1BFE9
331
1BFAF
  5
1BFEA
331
1BFB0
  5
1BFEB
331
1BFB1
  5
1BFEC
331
1BFB2
  5
1BFED
331
1BFB3
  5
1BFEE
331
1BFB4
  5
1BFEF
331
1BFB5
  5
1BFF0
331
1BFB6
  5
1BFF1
331
1BFB7
  5
1BFF2
331
1BFB8
  5
1BFF3
331
1BFB9
  5
1BFF4
331
1BFBA
  5
1BFF5
331
1BFBB
  5
1BFF6
331
1BFBD
  5
1BFF7
331
1BFBE
  5
1BFF8
331
1BFBF
  5
1BFF9
331
1BFC0
  5
1BFFA
331
1BFC1
  5
1BFFB
331
1BFC2
  5
1BFFC
331
1BFC3
  5
1BFFD
331
1BFC4
  5
1BFFE
331
1BFC5
  5
1BFFF
331
1BFC6
  5
1C000
331
1BFC7
  5
1C001
331
1BFC8
  5
1C002
331
1BFC9
  5
1C003
331
1BFCA
  5
1C004
331
1BFCB
  5
1C005
331
1BFCC
  5
1C006
331
1BFCD
  5
1C007
331
1BFCE
  5
1C008
331
1BFCF
  5
1C009
331
1BFD0
  5
1C00A
331
1BFD1
  5
1C00B
331
1BFD2
  5
1C00C
331
1BFD3
  5
1C00D
331
1BFD4
  5
1C00E
331
1BFD5
  5
1C00F
331
1BFD6
  5
1C010
331
1BFD7
  5
1C011
331
1BFD8
  5
1C012
331
1BFD9
  5
1C013
331
1BFDA
  5
1C014
331
1BFDB
  5
1C015
331
1BFDC
  5
1C016
331
1BFDD
  5
1C017
331
1BFDE
  5
1C018
331
1BFDF
  5
1C019
331
1BFE0
  5
1C01A
331
1BFE1
  5
1C01B
331
1BFE2
  5
1C01C
331
1BFE3
  5
1C01D
331
1BFE4
  5
1C01E
331
1BFE5
  5
1C01F
331
1BFE6
  5
1C020
331
1BFE7
  5
1C021
331
1BFE8
  5
1C022
331
1BFE9
  5
1C023
331
1BFEA
  5
1C024
331
1BFEB
  5
1C025
331
1BFEC
  5
1C029
331
1BFED
  5
1C02A
331
1BFEE
  5
1C02B
331
1BFEF
  5
1C02C
331
1BFF0
  5
1C02D
331
1BFF1
  5
1C02E
331
1BFF2
  5
1C02F
331
1BFF3
  5
1C030
331
1BFF4
  5
1C031
331
1BFF5
  5
1C032
331
1BFF6
  5
1C033
331
1BFF7
  5
1C034
331
1BFF8
  5
1C035
331
1BFF9
  5
1C036
331
1BFFA
  5
1C037
331
1BFFB
  5
1C038
331
1BFFC
  5
1C039
331
1BFFD
  5
1C03A
331
1BFFE
  5
1C03B
331
1BFFF
  5
1C03C
331
1C000
  5
1C03D
331
1C001
  5
1C03E
331
1C002
  5
1C03F
331
1C003
  5
1C040
331
1C004
  5
1C041
331
1C005
  5
1C042
331
1C006
  5
1C043
331
1C007
  5
1C044
331
1C008
  5
1C045
331
1C009
  5
1C046
331
1C00A
  5
1C047
331
1C00B
  5
1C048
331
1C00C
  5
1C049
331
1C00D
  5
1C04A
331
1C00E
  5
1C04B
331
1C00F
  5
1C04C
331
1C010
  5
1C04D
331
1C011
  5
1C04E
331
1C012
  5
1C04F
331
1C013
  5
1C050
331
1C014
  5
1C051
331
1C015
  5
1C052
331
1C016
  5
1C053
331
1C017
  5
1C054
331
1C018
  5
1C055
331
1C019
  5
1C056
331
1C01A
  5
1C057
331
1C01B
  5
1C058
331
1C01C
  5
1C059
331
1C01D
  5
1C05A
331
1C01E
  5
1C05B
331
1C01F
  5
1C05C
331
1C020
  5
1C05D
331
1C021
  5
1C05E
331
1C022
  5
1C05F
331
1C023
  5
1C060
331
1C024
  5
1C061
331
1C025
  5
1C062
331
1C029
  5
1C063
331
1C02A
  5
1C064
331
1C02B
  5
1C065
331
1C02C
  5
1C066
331
1C02D
  5
1C067
331
1C02E
  5
1C068
331
1C02F
  5
1C069
331
1C030
  5
1C06A
331
1C031
  5
1C06B
331
1C032
  5
1C06C
331
1C033
  5
1C06D
331
1C034
  5
1C06E
331
1C035
  5
1C06F
331
1C036
  5
1C070
331
1C037
  5
1C071
331
1C038
  5
1C072
331
1C039
  5
1C073
331
1C03A
  5
1C074
331
1C03B
  5
1C075
331
1C03C
  5
1C076
331
1C03D
  5
1C077
331
1C03E
  5
1C078
331
1C03F
  5
1C079
331
1C040
  5
1C07A
331
1C041
  5
1C07B
331
1C042
  5
1C07C
331
1C043
  5
1C07D
331
1C044
  5
1C07E
331
1C045
  5
1C07F
331
1C046
  5
1C080
331
1C047
  5
1C081
331
1C048
  5
1C082
331
1C049
  5
1C083
331
1C04A
  5
1C084
331
1C04B
  5
1C085
331
1C04C
  5
1C086
331
1C04D
  5
1C087
331
1C04E
  5
1C088
331
1C04F
  5
1C089
331
1C050
  5
1C08A
331
1C051
  5
1C08B
331
1C052
  5
1C08C
331
1C053
  5
1C08D
331
1C054
  5
1C08E
331
1C055
  5
1C08F
331
1C056
  5
1C090
331
1C057
  5
1C091
331
1C058
  5
1C093
331
1C059
  5
1C094
331
1C05A
  5
1C095
331
1C05B
  5
1C096
331
1C05C
  5
1C097
331
1C05D
  5
1C098
331
1C05E
  5
1C099
331
1C05F
  5
1C09A
331
1C060
  5
1C09B
331
1C061
  5
1C09C
331
1C062
  5
1C09D
331
1C063
  5
1C09E
331
1C064
  5
1C09F
331
1C065
  5
1C0A0
331
1C066
  5
1C0A1
331
1C067
  5
1C0A2
331
1C068
  5
1C0A3
331
1C069
  5
1C0A4
331
1C06A
  5
1C0A5
331
1C06B
  5
1C0A6
331
1C06C
  5
1C0A7
331
1C06D
  5
1C0A8
331
1C06E
  5
1C0A9
331
1C06F
  5
1C0AA
331
1C070
  5
1C0AB
331
1C071
  5
1C0AC
331
1C072
  5
1C0AD
331
1C073
  5
1C0AE
331
1C074
  5
1C0AF
331
1C075
  5
1C0B0
331
1C076
  5
1C0B1
331
1C077
  5
1C0B2
331
1C078
  5
1C0B3
331
1C079
  5
1C0B4
331
1C07A
  5
1C0B5
331
1C07B
  5
1C0B6
331
1C07C
  5
1C0B7
331
1C07D
  5
1C0B8
331
1C07E
  5
1C0B9
331
1C07F
  5
1C0BA
331
1C080
  5
1C0BB
331
1C081
  5
1C0BC
331
1C082
  5
1C0BD
331
1C083
  5
1C0BE
331
1C084
  5
1C0BF
331
1C085
  5
1C0C0
331
1C086
  5
1C0C1
331
1C087
  5
1C0C2
331
1C088
  5
1C0C3
331
1C089
  5
1C0C4
331
1C08A
  5
1C0C5
331
1C08B
  5
1C0C6
331
1C08C
  5
1C0C7
331
1C08D
  5
1C0C8
331
1C08E
  5
1C0C9
331
1C08F
  5
1C0CA
331
1C090
  5
1C0CB
331
1C091
  5
1C0CC
331
1C093
  5
1C0CD
331
1C094
  5
1C0CE
331
1C095
  5
1C0CF
331
1C096
  5
1C0D0
331
1C097
  5
1C0D1
331
1C098
  5
1C0D2
331
1C099
  5
1C0D3
331
1C09A
  5
1C0D4
331
1C09B
  5
1C0D5
331
1C09C
  5
1C0D6
331
1C09D
  5
1C0D7
331
1C09E
  5
1C0D8
331
1C09F
  5
1C0D9
331
1C0A0
  5
1C0DA
331
1C0A1
  5
1C0DB
331
1C0A2
  5
1C0DC
331
1C0A3
  5
1C0DD
331
1C0A4
  5
1C0DE
331
1C0A5
  5
1C0DF
331
1C0A6
  5
1C0E0
331
1C0A7
  5
1C0E1
331
1C0A8
  5
1C0E2
331
1C0A9
  5
1C0E3
331
1C0AA
  5
1C0E4
331
1C0AB
  5
1C0E5
331
1C0AC
  5
1C0E6
331
1C0AD
  5
1C0E7
331
1C0AE
  5
1C0E8
331
1C0AF
  5
1C0E9
331
1C0B0
  5
1C0EA
331
1C0B1
  5
1C0EB
331
1C0B2
  5
1C0EC
331
1C0B3
  5
1C0ED
331
1C0B4
  5
1C0EE
331
1C0B5
  5
1C0EF
331
1C0B6
  5
1C0F0
331
1C0B7
  5
1C0F1
331
1C0B8
  5
1C0F2
331
1C0B9
  5
1C0F3
331
1C0BA
  5
1C0F4
331
1C0BB
  5
1C0F5
331
1C0BC
  5
1C0F6
331
1C0BD
  5
1C0F7
331
1C0BE
  5
1C0F8
331
1C0BF
  5
1C0F9
331
1C0C0
  5
1C0FA
331
1C0C1
  5
1C0FB
331
1C0C2
  5
1C0FC
331
1C0C3
  5
1C0FD
331
1C0C4
  5
1C0FE
331
1C0C5
  5
1C0FF
331
1C0C6
  5
1C100
331
1C0C7
  5
1C101
331
1C0C8
  5
1C102
331
1C0C9
  5
1C103
331
1C0CA
  5
1C104
331
1C0CB
  5
1C105
331
1C0CC
  5
1C106
331
1C0CD
  5
1C107
331
1C0CE
  5
1C108
331
1C0CF
  5
1C109
331
1C0D0
  5
1C10A
331
1C0D1
  5
1C10B
331
1C0D2
  5
1C10C
331
1C0D3
  5
1C10D
331
1C0D4
  5
1C10E
331
1C0D5
  5
1C10F
331
1C0D6
  5
1C110
331
1C0D7
  5
1C111
331
1C0D8
  5
1C112
331
1C0D9
  5
1C113
331
1C0DA
  5
1C114
331
1C0DB
  5
1C115
331
1C0DC
  5
1C116
331
1C0DD
  5
1C117
331
1C0DE
  5
1C118
331
1C0DF
  5
1C119
331
1C0E0
  5
1C11A
331
1C0E1
  5
1C11B
331
1C0E2
  5
1C11C
331
1C0E3
  5
1C11D
331
1C0E4
  5
1C11E
331
1C0E5
  5
1C11F
331
1C0E6
  5
1C120
331
1C0E7
  5
1C121
331
1C0E8
  5
1C122
331
1C0E9
  5
1C123
331
1C0EA
  5
1C124
331
1C0EB
  5
1C125
331
1C0EC
  5
1C126
331
1C0ED
  5
1C127
331
1C0EE
  5
1C128
331
1C0EF
  5
1C129
331
1C0F0
  5
1C12A
331
1C0F1
  5
1C12B
331
1C0F2
  5
1C12C
331
1C0F3
  5
1C12D
331
1C0F4
  5
1C12E
331
1C0F5
  5
1C12F
331
1C0F6
  5
1C130
331
1C0F7
  5
1C131
331
1C0F8
  5
1C132
331
1C0F9
  5
1C133
331
1C0FA
  5
1C134
331
1C0FB
  5
1C135
331
1C0FC
  5
1C136
331
1C0FD
  5
1C137
331
1C0FE
  5
1C138
331
1C0FF
  5
1C139
331
1C100
  5
1C13A
331
1C101
  5
1C13B
331
1C102
  5
1C13C
331
1C103
  5
1C13D
331
1C104
  5
1C13E
331
1C105
  5
1C13F
331
1C106
  5
1C140
331
1C107
  5
1C141
331
1C108
  5
1C142
331
1C109
  5
1C143
331
1C10A
  5
1C144
331
1C10B
  5
1C145
331
1C10C
  5
1C146
331
1C10D
  5
1C147
331
1C10E
  5
1C148
331
1C10F
  5
1C149
331
1C110
  5
1C14A
331
1C111
  5
1C14B
331
1C112
  5
1C14C
331
1C113
  5
1C14D
331
1C114
  5
1C14E
331
1C115
  5
1C14F
331
1C116
  5
1C150
331
1C117
  5
1C151
331
1C118
  5
1C152
331
1C119
  5
1C153
331
1C11A
  5
1C154
331
1C11B
  5
1C155
331
1C11C
  5
1C156
331
1C11D
  5
1C157
331
1C11E
  5
1C158
331
1C11F
  5
1C159
331
1C120
  5
1C15A
331
1C121
  5
1C15B
331
1C122
  5
1C15C
331
1C123
  5
1C15D
331
1C124
  5
1C15E
331
1C125
  5
1C15F
331
1C126
  5
1C160
331
1C127
  5
1C161
331
1C128
  5
1C162
331
1C129
  5
1C163
331
1C12A
  5
1C164
331
1C12B
  5
1C170
331
1C12C
  5
1C17A
331
1C12D
  5
1C17B
331
1C12E
  5
1C18E
331
1C12F
  5
1C18F
331
1C130
  5
1C19C
331
1C131
  5
1C19D
331
1C132
  5
1C1C5
331
1C133
  5
1C23C
331
1C134
  5
1C3B2
331
1C135
  5
1C3B4
331
1C136
  5
1CEF6
331
1C137
  5
1CEF7
331
1C138
  5
1CEF8
331
1C139
  5
1CEF9
331
1C13A
  5
1CEFA
331
1C13B
  5
1CEFB
331
1C13C
  5
1CEFC
331
1C13D
  5
1CEFD
331
1C13E
  5
1CEFE
331
1C13F
  5
1CEFF
331
1C140
  5
1CF00
331
1C141
  5
1CF01
331
1C142
  5
1CF02
331
1C143
  5
1CF03
331
1C144
  5
1CF04
331
1C145
  5
1CF05
331
1C146
  5
1CF06
331
1C147
  5
1CF07
331
1C148
  5
1CF08
331
1C149
  5
1CF09
331
1C14A
  5
1CF0A
331
1C14B
  5
1CF0B
331
1C14C
  5
1CF0C
331
1C14D
  5
1CF0D
331
1C14E
  5
1CF0E
331
1C14F
  5
1CF0F
331
1C150
  5
1CF10
331
1C151
  5
1CF11
331
1C152
  5
1CF12
331
1C153
  5
1CF13
331
1C154
  5
1CF14
331
1C155
  5
1CF15
331
1C156
  5
1CF16
331
1C157
  5
1CF17
331
1C158
  5
1CF18
331
1C159
  5
1CF19
331
1C15A
  5
1CF1D
331
1C15B
  5
1CF1E
331
1C15C
  5
1CF1F
331
1C15D
  5
1CF20
331
1C15E
  5
1CF21
331
1C15F
  5
1CF22
331
1C160
  5
1CF26
331
1C161
  5
1CF27
331
1C162
  5
1CF28
331
1C163
  5
1CF29
331
1C164
  5
1CF2A
331
1C170
  5
1B824
331
0
  5
1C1D2
331
0
  5
1C219
331
1C218
  5
1CF54
331
0
  5
1C249
331
0
  5
1C3B0
331
1C3B0
  5
1CF6A
331
1C3B4
  5
1CF6B
331
1CEF6
  5
193C6
331
1CEF7
  5
193C7
331
1CEF8
  5
193C8
331
1CEF9
  5
193C9
331
1CEFA
  5
193CA
331
1CEFB
  5
193CB
331
1CEFC
  5
193CC
331
1CEFD
  5
193CD
331
1CEFE
  5
1B7FF
331
1CEFF
  5
1B800
331
1CF00
  5
1B801
331
1CF01
  5
1B80A
331
1CF02
  5
1B80F
331
1CF03
  5
1B810
331
1CF04
  5
1BC99
331
1CF05
  5
1BC9A
331
1CF06
  5
1BC9B
331
0
  5
1BC9C
331
0
  5
1BC9D
331
0
  5
1BC9E
331
1CF0A
  5
1BEEC
331
1CF0B
  5
1BEED
331
1CF0C
  5
1BEEE
331
0
  5
1BCA2
331
0
  5
1BCA3
331
0
  5
1BCA4
331
1CF10
  5
1BF04
331
1CF11
  5
1BF05
331
1CF12
  5
1BF06
331
1CF13
  5
1BF07
331
1CF14
  5
1BF08
331
1CF15
  5
1BF09
331
1CF16
  5
1BF0A
331
1CF17
  5
1BF0B
331
1CF18
  5
1BF0C
331
1CF19
  5
1BF0D
331
1CF1A
  5
1CF2E
331
1CF1B
  5
1CF2F
331
1CF1C
  5
1CF30
331
0
  5
1CF1A
331
0
  5
1CF1B
331
0
  5
1CF1C
331
1CF20
  5
1CF3E
331
1CF21
  5
1CF42
331
1CF22
  5
1CF43
331
1CF23
  5
1CF44
331
1CF24
  5
1CF48
331
1CF25
  5
1CF49
331
0
  5
1CF23
331
0
  5
1CF24
331
0
  5
1CF25
331
1CF29
  5
1CF55
331
1CF2A
  5
1CF56
331
1CF2B
  5
1CF57
331
1CF2C
  5
1CF58
331
0
  5
1CF2B
331
0
  5
1CF2C
331
0
  5
1CF2D
331
1CF30
  5
1CF60
331
1CF31
  5
1CF61
331
1CF32
  5
1CF62
331
0
  5
1CF31
331
0
  5
1CF32
331
0
  5
1CF33
331
1CF36
  5
1CF6C
331
1CF37
  5
1CF6D
331
1CF38
  5
1CF6E
331
1CF3C
  5
1CF76
331
1CF3D
  5
1CF77
331
1CF3E
  5
1CF78
331
1CF42
  5
1CF80
331
1CF43
  5
1CF81
331
1CF44
  5
1CF82
331
1CF48
  5
1CF8A
331
1CF49
  5
1CF8B
331
1CF4A
  5
1CF8C
331
1CF4E
  5
1BC9F
331
1CF4F
  5
1BCA0
331
1CF50
  5
1BCA1
331
1CF51
  5
1BCA5
331
1CF52
  5
1BEE9
331
1CF53
  5
1BEEA
331
1CF54
  5
1BEEB
331
1CF55
  5
1BEEF
331
1CF56
  5
1BEF0
331
1CF57
  5
1BEF1
331
1CF58
  5
1BEF2
331
1CF59
  5
1BEF3
331
1CF5A
  5
1BEF4
331
1CF5B
  5
1BEF5
331
1CF5C
  5
1CF34
331
1CF5D
  5
1CF35
331
1CF5E
  5
1CF36
331
1CF5F
  5
1CF37
331
1CF60
  5
1CF38
331
1CF61
  5
1CF3C
331
1CF62
  5
1CF3D
331
1CF63
  5
1CF4A
331
1CF64
  5
1CF4E
331
1CF65
  5
1CF4F
331
1CF66
  5
1CF50
331
1CF67
  5
1CF51
331
1CF68
  5
1CF52
331
1CF69
  5
1CF53
331
1CF6A
  5
1CF59
331
1CF6B
  5
1CF5A
331
1CF6C
  5
1CF5B
331
1CF6D
  5
1CF5C
331
1CF6E
  5
1CF5D
331
1CF6F
  5
1CF5E
331
1CF70
  5
1CF5F
331
1CF71
  5
1CF63
331
1CF72
  5
1CF64
331
1CF73
  5
1CF65
331
1CF74
  5
1CF66
331
1CF75
  5
1CF67
331
1CF76
  5
1CF68
331
1CF77
  5
1CF69
331
1CF78
  5
1CF6F
331
1CF79
  5
1CF70
331
1CF7A
  5
1CF71
331
1CF7B
  5
1CF72
331
1CF7C
  5
1CF73
331
1CF7D
  5
1CF74
331
1CF7E
  5
1CF75
331
1CF7F
  5
1CF79
331
1CF80
  5
1CF7A
331
1CF81
  5
1CF7B
331
1CF82
  5
1CF7C
331
1CF83
  5
1CF7D
331
1CF84
  5
1CF7E
331
1CF85
  5
1CF7F
331
1CF86
  5
1CF83
331
1CF87
  5
1CF84
331
1CF88
  5
1CF85
331
1CF89
  5
1CF86
331
1CF8A
  5
1CF87
331
1CF8B
  5
1CF88
331
1CF8C
  5
1CF89
  0
SORTENTSTABLE
  5
59C
102
{ACAD_REACTORS
330
59B
102
}
330
59B
100
AcDbSortentsTable
330
15
331
57
  5
57
331
0
  5
70
  0
GROUP
  5
1BC49
102
{ACAD_REACTORS
330
D
102
}
330
D
100
AcDbGroup
300

 70
     1
 71
     1
340
1BBEC
340
1BBF0
340
1BBEF
340
1BBEE
340
1BBEB
340
1BBEA
340
1BBE9
  0
GROUP
  5
1BF52
102
{ACAD_REACTORS
330
D
102
}
330
D
100
AcDbGroup
300

 70
     1
 71
     1
340
1BF51
340
1BF4F
340
1BF4E
340
1BF4D
340
1BF4C
340
1BF4B
340
1BF4A
340
1BF49
340
1BF48
340
1BF47
340
1BF46
340
1BF45
340
1BF44
340
1BF43
340
1BF42
340
1BF41
340
1BF40
340
1BF3F
340
1BF3E
340
1BF3D
340
1BF3C
340
1BF3B
340
1BF3A
340
1BF39
340
1BF38
340
1BF37
340
1BF36
340
1BF35
340
1BF34
340
1BF33
340
1BF32
340
1BF31
340
1BF30
340
1BF2F
340
1BF2E
340
1BF2D
340
1BF2C
340
1BF20
340
1BF1F
340
1BF1E
340
1BF1D
340
1BF1C
340
1BF1B
340
1BF1A
340
1BF19
340
1BF18
340
1BF17
340
1BF50
340
1BF16
340
1BF15
340
1BF14
340
1BF13
340
1BF12
340
1BF11
340
1BF10
340
1BF0F
340
1BF0E
340
1BF0D
340
1BF0C
340
1BF0B
340
1BF0A
340
1BF09
340
1BF08
340
1BF07
340
1BF06
340
1BF05
340
1BF04
340
1BF03
340
1BF02
340
1BF01
340
1BF00
340
1BEFF
340
1BEFE
340
1BEFD
340
1BEFC
340
1BEFB
340
1BEFA
340
1BEF9
340
1BEF8
340
1BEF7
340
1BEF6
340
1BEF5
340
1BEF4
340
1BEF3
340
1BEF2
340
1BEF1
340
1BEF0
340
1BEEF
340
1BEEE
340
1BEED
340
1BEEC
340
1BEEB
340
1BEEA
340
1BEE9
340
1BF2B
340
1BF2A
340
1BF29
340
1BF28
340
1BF27
340
1BF26
340
1BF25
340
1BF24
340
1BF23
340
1BF22
340
1BF21
  0
GROUP
  5
1BFBC
102
{ACAD_REACTORS
330
D
102
}
330
D
100
AcDbGroup
300

 70
     1
 71
     1
340
1BFBB
340
1BFBA
340
1BFB9
340
1BFB8
340
1BFB7
340
1BFB6
340
1BFB5
340
1BFB4
340
1BFB3
340
1BFB2
340
1BFB1
340
1BFB0
340
1BFAF
340
1BFAE
340
1BFAD
340
1BFAC
340
1BFAB
340
1BFAA
340
1BFA9
340
1BFA8
340
1BFA7
340
1BFA6
340
1BFA5
340
1BFA4
340
1BFA3
340
1BFA2
340
1BFA1
340
1BFA0
340
1BF9F
340
1BF9E
340
1BF9D
340
1BF9C
340
1BF9B
340
1BF9A
340
1BF99
340
1BF98
340
1BF97
340
1BF96
340
1BF95
340
1BF94
340
1BF93
340
1BF92
340
1BF91
340
1BF90
340
1BF8F
340
1BF8E
340
1BF8D
340
1BF8C
340
1BF8B
340
1BF8A
340
1BF89
340
1BF88
340
1BF87
340
1BF86
340
1BF85
340
1BF84
340
1BF83
340
1BF82
340
1BF81
340
1BF80
340
1BF7F
340
1BF7E
340
1BF7D
340
1BF7C
340
1BF7B
340
1BF7A
340
1BF79
340
1BF78
340
1BF77
340
1BF76
340
1BF75
340
1BF74
340
1BF73
340
1BF72
340
1BF71
340
1BF70
340
1BF6F
340
1BF6E
340
1BF6D
340
1BF6C
340
1BF6B
340
1BF6A
340
1BF69
340
1BF68
340
1BF67
340
1BF66
340
1BF65
340
1BF64
340
1BF63
340
1BF62
340
1BF61
340
1BF60
340
1BF5F
340
1BF5E
340
1BF5D
340
1BF5C
340
1BF5B
340
1BF5A
340
1BF59
340
1BF58
340
1BF57
340
1BF56
340
1BF55
340
1BF54
340
1BF53
  0
GROUP
  5
1C026
102
{ACAD_REACTORS
330
D
102
}
330
D
100
AcDbGroup
300

 70
     1
 71
     1
340
1C025
340
1C024
340
1C023
340
1C022
340
1C021
340
1C020
340
1C01F
340
1C01E
340
1C01D
340
1C01C
340
1C01B
340
1C01A
340
1C019
340
1C018
340
1C017
340
1C016
340
1C015
340
1C014
340
1C013
340
1C012
340
1C011
340
1C010
340
1C00F
340
1C00E
340
1C00D
340
1C00C
340
1C00B
340
1C00A
340
1C009
340
1C008
340
1C007
340
1C006
340
1C005
340
1C004
340
1C003
340
1C002
340
1C001
340
1C000
340
1BFFF
340
1BFFE
340
1BFFD
340
1BFFC
340
1BFFB
340
1BFFA
340
1BFF9
340
1BFF8
340
1BFF7
340
1BFF6
340
1BFF5
340
1BFF4
340
1BFF3
340
1BFF2
340
1BFF1
340
1BFF0
340
1BFEF
340
1BFEE
340
1BFED
340
1BFEC
340
1BFEB
340
1BFEA
340
1BFE9
340
1BFE8
340
1BFE7
340
1BFE6
340
1BFE5
340
1BFE4
340
1BFE3
340
1BFE2
340
1BFE1
340
1BFE0
340
1BFDF
340
1BFDE
340
1BFDD
340
1BFDC
340
1BFDB
340
1BFDA
340
1BFD9
340
1BFD8
340
1BFD7
340
1BFD6
340
1BFD5
340
1BFD4
340
1BFD3
340
1BFD2
340
1BFD1
340
1BFD0
340
1BFCF
340
1BFCE
340
1BFCD
340
1BFCC
340
1BFCB
340
1BFCA
340
1BFC9
340
1BFC8
340
1BFC7
340
1BFC6
340
1BFC5
340
1BFC4
340
1BFC3
340
1BFC2
340
1BFC1
340
1BFC0
340
1BFBF
340
1BFBE
340
1BFBD
  0
GROUP
  5
1C092
102
{ACAD_REACTORS
330
D
102
}
330
D
100
AcDbGroup
300

 70
     1
 71
     1
340
1C091
340
1C090
340
1C08F
340
1C08E
340
1C08D
340
1C08C
340
1C08B
340
1C08A
340
1C089
340
1C088
340
1C087
340
1C086
340
1C085
340
1C084
340
1C083
340
1C082
340
1C081
340
1C080
340
1C07F
340
1C07E
340
1C07D
340
1C07C
340
1C07B
340
1C07A
340
1C079
340
1C078
340
1C077
340
1C076
340
1C075
340
1C074
340
1C073
340
1C072
340
1C071
340
1C070
340
1C06F
340
1C06E
340
1C06D
340
1C06C
340
1C06B
340
1C06A
340
1C069
340
1C068
340
1C067
340
1C066
340
1C065
340
1C064
340
1C063
340
1C062
340
1C061
340
1C060
340
1C05F
340
1C05E
340
1C05D
340
1C05C
340
1C05B
340
1C05A
340
1C059
340
1C058
340
1C057
340
1C056
340
1C055
340
1C054
340
1C053
340
1C052
340
1C051
340
1C050
340
1C04F
340
1C04E
340
1C04D
340
1C04C
340
1C04B
340
1C04A
340
1C049
340
1C048
340
1C047
340
1C046
340
1C045
340
1C044
340
1C043
340
1C042
340
1C041
340
1C040
340
1C03F
340
1C03E
340
1C03D
340
1C03C
340
1C03B
340
1C03A
340
1C039
340
1C038
340
1C037
340
1C036
340
1C035
340
1C034
340
1C033
340
1C032
340
1C031
340
1C030
340
1C02F
340
1C02E
340
1C02D
340
1C02C
340
1C02B
340
1C02A
340
1C029
  0
GROUP
  5
1C165
102
{ACAD_REACTORS
330
D
102
}
330
D
100
AcDbGroup
300

 70
     1
 71
     1
340
1C164
340
1C163
340
1C162
340
1C161
340
1C160
340
1C15F
340
1C15E
340
1C15D
340
1C15C
340
1C15B
340
1C15A
340
1C159
340
1C158
340
1C157
340
1C156
340
1C155
340
1C154
340
1C153
340
1C152
340
1C151
340
1C150
340
1C14F
340
1C14E
340
1C14D
340
1C14C
340
1C14B
340
1C14A
340
1C149
340
1C148
340
1C147
340
1C146
340
1C145
340
1C144
340
1C143
340
1C142
340
1C141
340
1C140
340
1C13F
340
1C13E
340
1C13D
340
1C13C
340
1C13B
340
1C13A
340
1C139
340
1C138
340
1C137
340
1C136
340
1C135
340
1C134
340
1C133
340
1C132
340
1C131
340
1C130
340
1C12F
340
1C12E
340
1C12D
340
1C12C
340
1C12B
340
1C12A
340
1C129
340
1C128
340
1C127
340
1C126
340
1C125
340
1C124
340
1C123
340
1C122
340
1C121
340
1C120
340
1C11F
340
1C11E
340
1C11D
340
1C11C
340
1C11B
340
1C11A
340
1C119
340
1C118
340
1C117
340
1C116
340
1C115
340
1C114
340
1C113
340
1C112
340
1C111
340
1C110
340
1C10F
340
1C10E
340
1C10D
340
1C10C
340
1C10B
340
1C10A
340
1C109
340
1C108
340
1C107
340
1C106
340
1C105
340
1C104
340
1C103
340
1C102
340
1C101
340
1C100
340
1C0FF
340
1C0FE
340
1C0FD
340
1C0FC
  0
GROUP
  5
1C166
102
{ACAD_REACTORS
330
D
102
}
330
D
100
AcDbGroup
300

 70
     1
 71
     1
340
1C0FB
340
1C0FA
340
1C0F9
340
1C0F8
340
1C0F7
340
1C0F6
340
1C0F5
340
1C0F4
340
1C0F3
340
1C0F2
340
1C0F1
340
1C0F0
340
1C0EF
340
1C0EE
340
1C0ED
340
1C0EC
340
1C0EB
340
1C0EA
340
1C0E9
340
1C0E8
340
1C0E7
340
1C0E6
340
1C0E5
340
1C0E4
340
1C0E3
340
1C0E2
340
1C0E1
340
1C0E0
340
1C0DF
340
1C0DE
340
1C0DD
340
1C0DC
340
1C0DB
340
1C0DA
340
1C0D9
340
1C0D8
340
1C0D7
340
1C0D6
340
1C0D5
340
1C0D4
340
1C0D3
340
1C0D2
340
1C0D1
340
1C0D0
340
1C0CF
340
1C0CE
340
1C0CD
340
1C0CC
340
1C0CB
340
1C0CA
340
1C0C9
340
1C0C8
340
1C0C7
340
1C0C6
340
1C0C5
340
1C0C4
340
1C0C3
340
1C0C2
340
1C0C1
340
1C0C0
340
1C0BF
340
1C0BE
340
1C0BD
340
1C0BC
340
1C0BB
340
1C0BA
340
1C0B9
340
1C0B8
340
1C0B7
340
1C0B6
340
1C0B5
340
1C0B4
340
1C0B3
340
1C0B2
340
1C0B1
340
1C0B0
340
1C0AF
340
1C0AE
340
1C0AD
340
1C0AC
340
1C0AB
340
1C0AA
340
1C0A9
340
1C0A8
340
1C0A7
340
1C0A6
340
1C0A5
340
1C0A4
340
1C0A3
340
1C0A2
340
1C0A1
340
1C0A0
340
1C09F
340
1C09E
340
1C09D
340
1C09C
340
1C09B
340
1C09A
340
1C099
340
1C098
340
1C097
340
1C096
340
1C095
340
1C094
340
1C093
  0
MATERIAL
  5
19DD5
102
{ACAD_REACTORS
330
2CF
102
}
102
{ACAD_XDICTIONARY
360
1D132
102
}
330
2CF
100
AcDbMaterial
  1
BYBLOCK
 72
     0
 73
     2
 43
0.0208333333333333
 43
0.0
 43
0.0
 43
0.0
 43
0.0
 43
0.0208333333333333
 43
0.0
 43
0.0
 43
0.0
 43
0.0
 43
1.0
 43
0.0
 43
0.0
 43
0.0
 43
0.0
 43
1.0
 77
     0
 78
     2
 47
0.0208333333333333
 47
0.0
 47
0.0
 47
0.0
 47
0.0
 47
0.0208333333333333
 47
0.0
 47
0.0
 47
0.0
 47
0.0
 47
1.0
 47
0.0
 47
0.0
 47
0.0
 47
0.0
 47
1.0
171
     0
172
     2
 49
0.0208333333333333
 49
0.0
 49
0.0
 49
0.0
 49
0.0
 49
0.0208333333333333
 49
0.0
 49
0.0
 49
0.0
 49
0.0
 49
1.0
 49
0.0
 49
0.0
 49
0.0
 49
0.0
 49
1.0
175
     0
176
     2
142
0.0208333333333333
142
0.0
142
0.0
142
0.0
142
0.0
142
0.0208333333333333
142
0.0
142
0.0
142
0.0
142
0.0
142
1.0
142
0.0
142
0.0
142
0.0
142
0.0
142
1.0
179
     0
270
     2
144
0.0208333333333333
144
0.0
144
0.0
144
0.0
144
0.0
144
0.0208333333333333
144
0.0
144
0.0
144
0.0
144
0.0
144
1.0
144
0.0
144
0.0
144
0.0
144
0.0
144
1.0
274
     2
147
0.0208333333333333
147
0.0
147
0.0
147
0.0
147
0.0
147
0.0208333333333333
147
0.0
147
0.0
147
0.0
147
0.0
147
1.0
147
0.0
147
0.0
147
0.0
147
0.0
147
1.0
  0
MATERIAL
  5
19DCD
102
{ACAD_REACTORS
330
2CF
102
}
102
{ACAD_XDICTIONARY
360
1D134
102
}
330
2CF
100
AcDbMaterial
  1
BYLAYER
 72
     0
 73
     2
 43
0.0208333333333333
 43
0.0
 43
0.0
 43
0.0
 43
0.0
 43
0.0208333333333333
 43
0.0
 43
0.0
 43
0.0
 43
0.0
 43
1.0
 43
0.0
 43
0.0
 43
0.0
 43
0.0
 43
1.0
 77
     0
 78
     2
 47
0.0208333333333333
 47
0.0
 47
0.0
 47
0.0
 47
0.0
 47
0.0208333333333333
 47
0.0
 47
0.0
 47
0.0
 47
0.0
 47
1.0
 47
0.0
 47
0.0
 47
0.0
 47
0.0
 47
1.0
171
     0
172
     2
 49
0.0208333333333333
 49
0.0
 49
0.0
 49
0.0
 49
0.0
 49
0.0208333333333333
 49
0.0
 49
0.0
 49
0.0
 49
0.0
 49
1.0
 49
0.0
 49
0.0
 49
0.0
 49
0.0
 49
1.0
175
     0
176
     2
142
0.0208333333333333
142
0.0
142
0.0
142
0.0
142
0.0
142
0.0208333333333333
142
0.0
142
0.0
142
0.0
142
0.0
142
1.0
142
0.0
142
0.0
142
0.0
142
0.0
142
1.0
179
     0
270
     2
144
0.0208333333333333
144
0.0
144
0.0
144
0.0
144
0.0
144
0.0208333333333333
144
0.0
144
0.0
144
0.0
144
0.0
144
1.0
144
0.0
144
0.0
144
0.0
144
0.0
144
1.0
274
     2
147
0.0208333333333333
147
0.0
147
0.0
147
0.0
147
0.0
147
0.0208333333333333
147
0.0
147
0.0
147
0.0
147
0.0
147
1.0
147
0.0
147
0.0
147
0.0
147
0.0
147
1.0
  0
MATERIAL
  5
19DDD
102
{ACAD_REACTORS
330
2CF
102
}
102
{ACAD_XDICTIONARY
360
1D136
102
}
330
2CF
100
AcDbMaterial
  1
GLOBAL
 72
     0
 73
     2
 43
0.0208333333333333
 43
0.0
 43
0.0
 43
0.0
 43
0.0
 43
0.0208333333333333
 43
0.0
 43
0.0
 43
0.0
 43
0.0
 43
1.0
 43
0.0
 43
0.0
 43
0.0
 43
0.0
 43
1.0
 77
     0
 78
     2
 47
0.0208333333333333
 47
0.0
 47
0.0
 47
0.0
 47
0.0
 47
0.0208333333333333
 47
0.0
 47
0.0
 47
0.0
 47
0.0
 47
1.0
 47
0.0
 47
0.0
 47
0.0
 47
0.0
 47
1.0
171
     0
172
     2
 49
0.0208333333333333
 49
0.0
 49
0.0
 49
0.0
 49
0.0
 49
0.0208333333333333
 49
0.0
 49
0.0
 49
0.0
 49
0.0
 49
1.0
 49
0.0
 49
0.0
 49
0.0
 49
0.0
 49
1.0
175
     0
176
     2
142
0.0208333333333333
142
0.0
142
0.0
142
0.0
142
0.0
142
0.0208333333333333
142
0.0
142
0.0
142
0.0
142
0.0
142
1.0
142
0.0
142
0.0
142
0.0
142
0.0
142
1.0
179
     0
270
     2
144
0.0208333333333333
144
0.0
144
0.0
144
0.0
144
0.0
144
0.0208333333333333
144
0.0
144
0.0
144
0.0
144
0.0
144
1.0
144
0.0
144
0.0
144
0.0
144
0.0
144
1.0
274
     2
147
0.0208333333333333
147
0.0
147
0.0
147
0.0
147
0.0
147
0.0208333333333333
147
0.0
147
0.0
147
0.0
147
0.0
147
1.0
147
0.0
147
0.0
147
0.0
147
0.0
147
1.0
  0
ACAD_PROXY_OBJECT
  5
19E19
102
{ACAD_REACTORS
330
19E18
102
}
330
19E18
100
AcDbZombieObject
 90
      499
 91
      512
 93
      610
310
40901902A4063FBFFFFFE000000000000002040AD7A3703D0AD73F4214DD185B99185C990000000000000104090141901A00000000000004100000000000000041025764000000000000300FC0
340
12
340
0
340
F
340
0
 94
        0
1001
ACAD_MLEADERVER
1070
     2
  0
MLINESTYLE
  5
1C
102
{ACAD_REACTORS
330
1B
102
}
330
1B
100
AcDbMlineStyle
  2
STANDARD
 70
     0
  3

 62
   256
 51
90.0
 52
90.0
 71
     2
 49
0.5
 62
   256
  6
BYLAYER
 49
-0.5
 62
   256
  6
BYLAYER
  0
ACAD_PROXY_OBJECT
  5
19DF7
102
{ACAD_REACTORS
330
19DF6
102
}
330
19DF6
100
AcDbZombieObject
 90
      499
 91
      511
 93
       41
310
903313A31580
  0
ACAD_PROXY_OBJECT
  5
19DF8
102
{ACAD_REACTORS
330
19DF6
102
}
330
19DF6
100
AcDbZombieObject
 90
      499
 91
      511
 93
      105
310
903313A324000000000000004000
  0
ACAD_PROXY_OBJECT
  5
19DF9
102
{ACAD_REACTORS
330
19DF6
102
}
330
19DF6
100
AcDbZombieObject
 90
      499
 91
      511
 93
      105
310
903313A344000000000000104000
  0
ACAD_PROXY_OBJECT
  5
19DFA
102
{ACAD_REACTORS
330
19DF6
102
}
330
19DF6
100
AcDbZombieObject
 90
      499
 91
      511
 93
      105
310
903313A354000000000000144000
  0
ACAD_PROXY_OBJECT
  5
19DFB
102
{ACAD_REACTORS
330
19DF6
102
}
330
19DF6
100
AcDbZombieObject
 90
      499
 91
      511
 93
      105
310
903313A384000000000000204000
  0
ACAD_PROXY_OBJECT
  5
19DFC
102
{ACAD_REACTORS
330
19DF6
102
}
330
19DF6
100
AcDbZombieObject
 90
      499
 91
      511
 93
      113
310
904313A31304000000000000244000
  0
ACAD_PROXY_OBJECT
  5
19DFD
102
{ACAD_REACTORS
330
19DF6
102
}
330
19DF6
100
AcDbZombieObject
 90
      499
 91
      511
 93
      113
310
904313A31364000000000000304000
  0
ACAD_PROXY_OBJECT
  5
19DFE
102
{ACAD_REACTORS
330
19DF6
102
}
330
19DF6
100
AcDbZombieObject
 90
      499
 91
      511
 93
      113
310
904313A32304000000000000344000
  0
ACAD_PROXY_OBJECT
  5
19DFF
102
{ACAD_REACTORS
330
19DF6
102
}
330
19DF6
100
AcDbZombieObject
 90
      499
 91
      511
 93
      113
310
904313A333040000000000003E4000
  0
ACAD_PROXY_OBJECT
  5
19E00
102
{ACAD_REACTORS
330
19DF6
102
}
330
19DF6
100
AcDbZombieObject
 90
      499
 91
      511
 93
      113
310
904313A34304000000000000444000
  0
ACAD_PROXY_OBJECT
  5
19E01
102
{ACAD_REACTORS
330
19DF6
102
}
330
19DF6
100
AcDbZombieObject
 90
      499
 91
      511
 93
      113
310
904313A35304000000000000494000
  0
ACAD_PROXY_OBJECT
  5
19E02
102
{ACAD_REACTORS
330
19DF6
102
}
330
19DF6
100
AcDbZombieObject
 90
      499
 91
      511
 93
      121
310
905313A3130304000000000000594000
  0
ACAD_PROXY_OBJECT
  5
19E03
102
{ACAD_REACTORS
330
19DF6
102
}
330
19DF6
100
AcDbZombieObject
 90
      499
 91
      511
 93
      105
310
903323A310000000000000010100
  0
ACAD_PROXY_OBJECT
  5
19E04
102
{ACAD_REACTORS
330
19DF6
102
}
330
19DF6
100
AcDbZombieObject
 90
      499
 91
      511
 93
      105
310
903343A310000000000000410100
  0
ACAD_PROXY_OBJECT
  5
19E05
102
{ACAD_REACTORS
330
19DF6
102
}
330
19DF6
100
AcDbZombieObject
 90
      499
 91
      511
 93
      105
310
903383A310000000000000810100
  0
ACAD_PROXY_OBJECT
  5
19E06
102
{ACAD_REACTORS
330
19DF6
102
}
330
19DF6
100
AcDbZombieObject
 90
      499
 91
      511
 93
      113
310
90431303A310000000000000910100
  0
ACAD_PROXY_OBJECT
  5
19E07
102
{ACAD_REACTORS
330
19DF6
102
}
330
19DF6
100
AcDbZombieObject
 90
      499
 91
      511
 93
      121
310
9053130303A310000000000001650100
  0
ACAD_PROXY_OBJECT
  5
19E08
102
{ACAD_REACTORS
330
19DF6
102
}
330
19DF6
100
AcDbZombieObject
 90
      499
 91
      511
 93
      257
310
90E312F31323822203D2031272D3022000000000000200FC000000000000284000
  0
ACAD_PROXY_OBJECT
  5
19E09
102
{ACAD_REACTORS
330
19DF6
102
}
330
19DF6
100
AcDbZombieObject
 90
      499
 91
      511
 93
      249
310
90D312F363422203D2031272D3022000000000000240FC000000000000284000
  0
ACAD_PROXY_OBJECT
  5
19E0A
102
{ACAD_REACTORS
330
19DF6
102
}
330
19DF6
100
AcDbZombieObject
 90
      499
 91
      511
 93
      249
310
90D312F333222203D2031272D3022000000000000280FC000000000000284000
  0
ACAD_PROXY_OBJECT
  5
19E0B
102
{ACAD_REACTORS
330
19DF6
102
}
330
19DF6
100
AcDbZombieObject
 90
      499
 91
      511
 93
      249
310
90D312F313622203D2031272D30220000000000002C0FC000000000000284000
  0
ACAD_PROXY_OBJECT
  5
19E0C
102
{ACAD_REACTORS
330
19DF6
102
}
330
19DF6
100
AcDbZombieObject
 90
      499
 91
      511
 93
      249
310
90D332F333222203D2031272D30220000000000002E0FC000000000000284000
  0
ACAD_PROXY_OBJECT
  5
19E0D
102
{ACAD_REACTORS
330
19DF6
102
}
330
19DF6
100
AcDbZombieObject
 90
      499
 91
      511
 93
      241
310
90C312F3822203D2031272D3022000000000000300FC000000000000284000
  0
ACAD_PROXY_OBJECT
  5
19E0E
102
{ACAD_REACTORS
330
19DF6
102
}
330
19DF6
100
AcDbZombieObject
 90
      499
 91
      511
 93
      249
310
90D332F313622203D2031272D3022000000000000320FC000000000000284000
  0
ACAD_PROXY_OBJECT
  5
19E0F
102
{ACAD_REACTORS
330
19DF6
102
}
330
19DF6
100
AcDbZombieObject
 90
      499
 91
      511
 93
      241
310
90C312F3422203D2031272D3022000000000000340FC000000000000284000
  0
ACAD_PROXY_OBJECT
  5
19E10
102
{ACAD_REACTORS
330
19DF6
102
}
330
19DF6
100
AcDbZombieObject
 90
      499
 91
      511
 93
      241
310
90C332F3822203D2031272D3022000000000000360FC000000000000284000
  0
ACAD_PROXY_OBJECT
  5
19E11
102
{ACAD_REACTORS
330
19DF6
102
}
330
19DF6
100
AcDbZombieObject
 90
      499
 91
      511
 93
      241
310
90C312F3222203D2031272D3022000000000000380FC000000000000284000
  0
ACAD_PROXY_OBJECT
  5
19E12
102
{ACAD_REACTORS
330
19DF6
102
}
330
19DF6
100
AcDbZombieObject
 90
      499
 91
      511
 93
      241
310
90C332F3422203D2031272D30220000000000003A0FC000000000000284000
  0
ACAD_PROXY_OBJECT
  5
19E13
102
{ACAD_REACTORS
330
19DF6
102
}
330
19DF6
100
AcDbZombieObject
 90
      499
 91
      511
 93
      161
310
90A3122203D2031272D30224000000000000284000
  0
ACAD_PROXY_OBJECT
  5
19E14
102
{ACAD_REACTORS
330
19DF6
102
}
330
19DF6
100
AcDbZombieObject
 90
      499
 91
      511
 93
      257
310
90E312D312F3222203D2031272D30220000000000003E0FC000000000000284000
  0
ACAD_PROXY_OBJECT
  5
19E15
102
{ACAD_REACTORS
330
19DF6
102
}
330
19DF6
100
AcDbZombieObject
 90
      499
 91
      511
 93
      225
310
90A3322203D2031272D302200000000000002100000000000000284000
  0
ACAD_PROXY_OBJECT
  5
19E16
102
{ACAD_REACTORS
330
19DF6
102
}
330
19DF6
100
AcDbZombieObject
 90
      499
 91
      511
 93
      225
310
90A3622203D2031272D302200000000000006100000000000000284000
  0
ACAD_PROXY_OBJECT
  5
19E17
102
{ACAD_REACTORS
330
19DF6
102
}
330
19DF6
100
AcDbZombieObject
 90
      499
 91
      511
 93
      249
310
90D31272D3022203D2031272D30220000000000000A100000000000000284000
  0
ACAD_PROXY_OBJECT
  5
19DEB
102
{ACAD_REACTORS
330
19DE5
102
}
330
19DE5
100
AcDbZombieObject
 90
      499
 91
      510
 93
      436
310
42CC9915DA5C99599C985B595049028333333333333E3BF0000000000000FB0107901411070040501600405405064090741402480A0340
1001
ACAD
1000
AcDbSavedByObjectVersion
1070
     0
  0
ACAD_PROXY_OBJECT
  5
19DED
102
{ACAD_REACTORS
330
19DE5
102
}
330
19DE5
100
AcDbZombieObject
 90
      499
 91
      510
 93
      500
310
424CD108121A5919195B90640502408333333333333E3BF0000000000000FB01079024090700405020000000000001110200405405064090740C02480A0340
1001
ACAD
1000
AcDbSavedByObjectVersion
1070
     0
  0
ACAD_PROXY_OBJECT
  5
19DEC
102
{ACAD_REACTORS
330
19DE5
102
}
330
19DE5
100
AcDbZombieObject
 90
      499
 91
      510
 93
      436
310
42CCD915DA5C99599C985B595059028333333333333E3BF0000000000000FB0107901411070040501600405405064090741402480A0340
1001
ACAD
1000
AcDbSavedByObjectVersion
1070
     0
  0
ACAD_PROXY_OBJECT
  5
19DEA
102
{ACAD_REACTORS
330
19DE5
102
}
330
19DE5
100
AcDbZombieObject
 90
      499
 91
      510
 93
      388
310
4150985CDA58D07406404333333333333E3BF0000000000000FB0107A41107004050150841D405064090741402480A0350
1001
ACAD
1000
AcDbSavedByObjectVersion
1070
     0
  0
ACAD_PROXY_OBJECT
  5
19DF1
102
{ACAD_REACTORS
330
19DE5
102
}
330
19DE5
100
AcDbZombieObject
 90
      499
 91
      510
 93
      428
310
42109C9A59DA1D195B90C409028333333333333E3BF0000000000000FB010790141107004050150841D405064090741402480A029950
1001
ACAD
1000
AcDbSavedByObjectVersion
1070
     0
  0
ACAD_PROXY_OBJECT
  5
19DF5
102
{ACAD_REACTORS
330
19DE5
102
}
330
19DE5
100
AcDbZombieObject
 90
      499
 91
      510
 93
      452
310
42D0DBDB1BDC90DA185B99D95104090240C333333333333E3BF0000000000000FB0108901411070040501508421405064090741402480A0350
1001
ACAD
1000
AcDbSavedByObjectVersion
1070
     0
  0
ACAD_PROXY_OBJECT
  5
19DEE
102
{ACAD_REACTORS
330
19DE5
102
}
330
19DE5
100
AcDbZombieObject
 90
      499
 91
      510
 93
      500
310
4290DBDB98D95C1D1D585B10940D028333333333333E3BF0000000000000FB0107902409070040501000000000000111010841D405064090740C02480A0340
1001
ACAD
1000
AcDbSavedByObjectVersion
1070
     0
  0
ACAD_PROXY_OBJECT
  5
19DF0
102
{ACAD_REACTORS
330
19DE5
102
}
330
19DE5
100
AcDbZombieObject
 90
      499
 91
      510
 93
      412
310
40D11A5B50B409028333333333333E3BF0000000000000FB010790141107004050150841D405064090741402480A02677FFFFFD0
1001
ACAD
1000
AcDbSavedByObjectVersion
1070
     0
  0
ACAD_PROXY_OBJECT
  5
1C2FC
102
{ACAD_REACTORS
330
19DE5
102
}
330
19DE5
100
AcDbZombieObject
 90
      499
 91
      510
 93
      452
310
43115919D950DBDB1BDC93D999916409028333333333333E3BF0000000000000FB010790141107004050150841D405064090741402480A0350
1001
ACAD
1000
AcDbSavedByObjectVersion
1070
     0
  0
ACAD_PROXY_OBJECT
  5
19DF4
102
{ACAD_REACTORS
330
19DE5
102
}
330
19DE5
100
AcDbZombieObject
 90
      499
 91
      510
 93
      444
310
42D19858D95C185D1D195C9B90F409028333333333333E3BF0000000000000FB010790141107004050150841D405064090741402480A0350
1001
ACAD
1000
AcDbSavedByObjectVersion
1070
     0
  0
ACAD_PROXY_OBJECT
  5
19DE6
102
{ACAD_REACTORS
330
19DE5
102
}
330
19DE5
100
AcDbZombieObject
 90
      499
 91
      510
 93
      388
310
41119B185D240901404333333333333E3BF0000000000000F9010740A41107004050150841D405064090741402480A1B50
1001
ACAD
1000
AcDbSavedByObjectVersion
1070
     0
  0
ACAD_PROXY_OBJECT
  5
19DE7
102
{ACAD_REACTORS
330
19DE5
102
}
330
19DE5
100
AcDbZombieObject
 90
      499
 91
      510
 93
      476
310
43519B185D15DA5D1A115919D95CD0140901404333333333333E3BF0000000000000F9010740901411070040501600405405064090741402480A1B50
1001
ACAD
1000
AcDbSavedByObjectVersion
1070
     0
  0
ACAD_PROXY_OBJECT
  5
19DE8
102
{ACAD_REACTORS
330
19DE5
102
}
330
19DE5
100
AcDbZombieObject
 90
      499
 91
      510
 93
      412
310
41D1DBDD5C985D5910240902404333333333333E3BF0000000000000F9010740A411070040501641D405064090741402480A1B50
1001
ACAD
1000
AcDbSavedByObjectVersion
1070
     0
  0
ACAD_PROXY_OBJECT
  5
19DE9
102
{ACAD_REACTORS
330
19DE5
102
}
330
19DE5
100
AcDbZombieObject
 90
      499
 91
      510
 93
      500
310
4411DBDD5C985D5915DA5D1A115919D95CD0340902404333333333333E3BF0000000000000F9010740901411070040501600405405064090741402480A1B50
1001
ACAD
1000
AcDbSavedByObjectVersion
1070
     0
  0
ACAD_PROXY_OBJECT
  5
1C2F4
102
{ACAD_REACTORS
330
19DE5
102
}
330
19DE5
100
AcDbZombieObject
 90
      499
 91
      510
 93
      476
310
41921A5919195B90640502408333333333333E3BF0000000000000FB01079024090700405020000000000001110200405405064090740C02480A0340
1001
ACAD
1000
AcDbSavedByObjectVersion
1070
     0
  0
ACAD_PROXY_OBJECT
  5
1C2FA
102
{ACAD_REACTORS
330
19DE5
102
}
330
19DE5
100
AcDbZombieObject
 90
      499
 91
      510
 93
      428
310
42529A5D1D195C93D999914409028333333333333E3BF0000000000000FB010790141107004050150A41D405064090741402480A0350
1001
ACAD
1000
AcDbSavedByObjectVersion
1070
     0
  0
ACAD_PROXY_OBJECT
  5
19DF3
102
{ACAD_REACTORS
330
19DE5
102
}
330
19DE5
100
AcDbZombieObject
 90
      499
 91
      510
 93
      444
310
42D31A5B995C185D1D195C9B90E409028333333333333E3BF0000000000000FB010790141107004050750841D405064090741402483A0350
1001
ACAD
1000
AcDbSavedByObjectVersion
1070
     0
  0
ACAD_PROXY_OBJECT
  5
1CD13
102
{ACAD_REACTORS
330
19DE5
102
}
330
19DE5
100
AcDbZombieObject
 90
      499
 91
      510
 93
      484
310
42135BD9195B1A5B99D0A409038333333333333E33F0000000000000F901074090290700405010000000000201990108421405064090741402480A1B40
1001
ACAD
1000
AcDbSavedByObjectVersion
1070
     0
  0
ACAD_PROXY_OBJECT
  5
1C2FB
102
{ACAD_REACTORS
330
19DE5
102
}
330
19DE5
100
AcDbZombieObject
 90
      499
 91
      510
 93
      444
310
42D3DD995C9A185B99D3D999915409028333333333333E3BF0000000000000FB010790141107004050150941D405064090741402480A0350
1001
ACAD
1000
AcDbSavedByObjectVersion
1070
     0
  0
ACAD_PROXY_OBJECT
  5
19DEF
102
{ACAD_REACTORS
330
19DE5
102
}
330
19DE5
100
AcDbZombieObject
 90
      499
 91
      510
 93
      420
310
425499585B1A5CDD1A58D08409028333333333333E3BF0000000000000FB01079019070040501508421405064090741402480A1B40
1001
ACAD
1000
AcDbSavedByObjectVersion
1070
     0
  0
ACAD_PROXY_OBJECT
  5
1C2F9
102
{ACAD_REACTORS
330
19DE5
102
}
330
19DE5
100
AcDbZombieObject
 90
      499
 91
      510
 93
      420
310
4194DA1859195911B40902404333333333333E3BF0000000000000F9010740A41107004050150800405405064090840C02480A0B40
1001
ACAD
1000
AcDbSavedByObjectVersion
1070
     0
  0
ACAD_PROXY_OBJECT
  5
1C2F8
102
{ACAD_REACTORS
330
19DE5
102
}
330
19DE5
100
AcDbZombieObject
 90
      499
 91
      510
 93
      516
310
4454DA18591959081DDA5D1A08195919D95CD1A40902404333333333333E3BF0000000000000F901074090142907004050250800405405064090740C02480A0B40
1001
ACAD
1000
AcDbSavedByObjectVersion
1070
     0
  0
ACAD_PROXY_OBJECT
  5
1C2F5
102
{ACAD_REACTORS
330
19DE5
102
}
330
19DE5
100
AcDbZombieObject
 90
      499
 91
      510
 93
      532
310
4394DA1859195CC81BD98811DC985E5174090240C333333333333E3BF0000000000000FB01079024090741D01000000000000111010841D405064090740C02480A0340
1001
ACAD
1000
AcDbSavedByObjectVersion
1070
     0
  0
ACAD_PROXY_OBJECT
  5
1C2F6
102
{ACAD_REACTORS
330
19DE5
102
}
330
19DE5
100
AcDbZombieObject
 90
      499
 91
      510
 93
      476
310
41D4DAD95D18DA1E51840502408333333333333E3BF0000000000000FB01079024090741D01000000000000111010B41D405064090741802480A0340
1001
ACAD
1000
AcDbSavedByObjectVersion
1070
     0
  0
ACAD_PROXY_OBJECT
  5
19DF2
102
{ACAD_REACTORS
330
19DE5
102
}
330
19DE5
100
AcDbZombieObject
 90
      499
 91
      510
 93
      412
310
41D51A1A58DAD95B90D409028333333333333E3BF0000000000000FB010790141107004050150C41D405064090741402480A0350
1001
ACAD
1000
AcDbSavedByObjectVersion
1070
     0
  0
ACAD_PROXY_OBJECT
  5
1C2F3
102
{ACAD_REACTORS
330
19DE5
102
}
330
19DE5
100
AcDbZombieObject
 90
      499
 91
      510
 93
      420
310
4255DA5C99599C985B595059028333333333333E3BF0000000000000FB0107901411070040501600405405064090740C02480A0340
1001
ACAD
1000
AcDbSavedByObjectVersion
1070
     0
  0
ACAD_PROXY_OBJECT
  5
1C2F7
102
{ACAD_REACTORS
330
19DE5
102
}
330
19DE5
100
AcDbZombieObject
 90
      499
 91
      510
 93
      404
310
41560B54985E51940902404000000000000E03F0000000000000FB010740501907004050150841D405064090740C02480A1B40
1001
ACAD
1000
AcDbSavedByObjectVersion
1070
     0
  0
XRECORD
  5
1CF95
102
{ACAD_REACTORS
330
1CF94
102
}
330
1CF94
100
AcDbXrecord
340
2D0
  0
XRECORD
  5
1CF96
102
{ACAD_REACTORS
330
1CF94
102
}
330
1CF94
100
AcDbXrecord
340
2CF
  0
DICTIONARYVAR
  5
1A2A6
102
{ACAD_REACTORS
330
37
102
}
330
37
100
DictionaryVariables
280
     0
  1
1:1
  0
DICTIONARYVAR
  5
1A2A5
102
{ACAD_REACTORS
330
37
102
}
330
37
100
DictionaryVariables
280
     0
  1
Standard
  0
DICTIONARYVAR
  5
4F1
102
{ACAD_REACTORS
330
37
102
}
330
37
100
DictionaryVariables
280
     0
  1
Standard
  0
DICTIONARYVAR
  5
38
102
{ACAD_REACTORS
330
37
102
}
330
37
100
DictionaryVariables
280
     0
  1
-1
  0
DICTIONARYVAR
  5
408
102
{ACAD_REACTORS
330
37
102
}
330
37
100
DictionaryVariables
280
     0
  1
2
  0
DICTIONARYVAR
  5
1891
102
{ACAD_REACTORS
330
37
102
}
330
37
100
DictionaryVariables
280
     0
  1
1
  0
DICTIONARYVAR
  5
1A2A8
102
{ACAD_REACTORS
330
37
102
}
330
37
100
DictionaryVariables
280
     0
  1
0
  0
DICTIONARYVAR
  5
1895
102
{ACAD_REACTORS
330
37
102
}
330
37
100
DictionaryVariables
280
     0
  1
8
  0
DICTIONARYVAR
  5
1894
102
{ACAD_REACTORS
330
37
102
}
330
37
100
DictionaryVariables
280
     0
  1
1
  0
DICTIONARYVAR
  5
1CD80
102
{ACAD_REACTORS
330
37
102
}
330
37
100
DictionaryVariables
280
     0
  1
0
  0
DICTIONARYVAR
  5
1892
102
{ACAD_REACTORS
330
37
102
}
330
37
100
DictionaryVariables
280
     0
  1
8
  0
DICTIONARYVAR
  5
1893
102
{ACAD_REACTORS
330
37
102
}
330
37
100
DictionaryVariables
280
     0
  1
2
  0
DICTIONARYVAR
  5
409
102
{ACAD_REACTORS
330
37
102
}
330
37
100
DictionaryVariables
280
     0
  1

  0
DICTIONARYVAR
  5
1A2A7
102
{ACAD_REACTORS
330
37
102
}
330
37
100
DictionaryVariables
280
     0
  1
127
  0
DICTIONARYVAR
  5
1CD12
102
{ACAD_REACTORS
330
37
102
}
330
37
100
DictionaryVariables
280
     0
  1
2
  0
DICTIONARY
  5
1D132
330
19DD5
100
AcDbDictionary
  3
ACAD_XREC_ROUNDTRIP
360
1D133
1001
ACAD
1000
TREAT_AS_HARD
1070
     1
  0
DICTIONARY
  5
1D134
330
19DCD
100
AcDbDictionary
  3
ACAD_XREC_ROUNDTRIP
360
1D135
1001
ACAD
1000
TREAT_AS_HARD
1070
     1
  0
DICTIONARY
  5
1D136
330
19DDD
100
AcDbDictionary
  3
ACAD_XREC_ROUNDTRIP
360
1D137
1001
ACAD
1000
TREAT_AS_HARD
1070
     1
  0
XRECORD
  5
1D133
102
{ACAD_REACTORS
330
1D132
102
}
330
1D132
100
AcDbXrecord
102
MATERIAL
148
0.0
149
0.0
149
0.0
 93
        0
 94
      127
282
     0
 72
     0
 77
     0
171
     0
175
     0
179
     0
273
     0
  0
XRECORD
  5
1D135
102
{ACAD_REACTORS
330
1D134
102
}
330
1D134
100
AcDbXrecord
102
MATERIAL
148
0.0
149
0.0
149
0.0
 93
        0
 94
      127
282
     0
 72
     0
 77
     0
171
     0
175
     0
179
     0
273
     0
  0
XRECORD
  5
1D137
102
{ACAD_REACTORS
330
1D136
102
}
330
1D136
100
AcDbXrecord
102
MATERIAL
148
0.0
149
0.0
149
0.0
 93
        0
 94
      127
282
     0
 72
     0
 77
     0
171
     0
175
     0
179
     0
273
     0
  0
ENDSEC
  0
EOF
