  0
SECTION
  2
HEADER
  9
$ACADVER
  1
AC1009
  9
$DWGCODEPAGE
  3
ansi_932
  9
$INSBASE
 10
0.0
 20
0.0
 30
0.0
  9
$EXTMIN
 10
57.34557782977208
 20
-2813.836558332152
 30
0.0
  9
$EXTMAX
 10
410.7066211121083
 20
-2581.365918684231
 30
0.0
  9
$LIMMIN
 10
0.0
 20
0.0
  9
$LIMMAX
 10
420.0
 20
297.0
  9
$ORTHOMODE
 70
     0
  9
$REGENMODE
 70
     1
  9
$FILLMODE
 70
     1
  9
$QTEXTMODE
 70
     0
  9
$MIRRTEXT
 70
     0
  9
$DRAGMODE
 70
     2
  9
$LTSCALE
 40
0.5
  9
$OSMODE
 70
 14591
  9
$ATTMODE
 70
     1
  9
$TEXTSIZE
 40
4.0
  9
$TRACEWID
 40
1.0
  9
$TEXTSTYLE
  7
STANDARD
  9
$CLAYER
  8
1TEXT
  9
$CELTYPE
  6
BYLAYER
  9
$CECOLOR
 62
   256
  9
$DIMSCALE
 40
1.0
  9
$DIMASZ
 40
2.0
  9
$DIMEXO
 40
0.0
  9
$DIMDLI
 40
7.0
  9
$DIMRND
 40
0.0
  9
$DIMDLE
 40
0.0
  9
$DIMEXE
 40
1.0
  9
$DIMTP
 40
0.0
  9
$DIMTM
 40
0.0
  9
$DIMTXT
 40
3.5
  9
$DIMCEN
 40
0.0
  9
$DIMTSZ
 40
0.0
  9
$DIMTOL
 70
     0
  9
$DIMLIM
 70
     0
  9
$DIMTIH
 70
     0
  9
$DIMTOH
 70
     0
  9
$DIMSE1
 70
     0
  9
$DIMSE2
 70
     0
  9
$DIMTAD
 70
     1
  9
$DIMZIN
 70
     8
  9
$DIMBLK
  1

  9
$DIMASO
 70
     1
  9
$DIMSHO
 70
     1
  9
$DIMPOST
  1
 
  9
$DIMAPOST
  1

  9
$DIMALT
 70
     0
  9
$DIMALTD
 70
     2
  9
$DIMALTF
 40
25.4
  9
$DIMLFAC
 40
1.0
  9
$DIMTOFL
 70
     1
  9
$DIMTVP
 40
0.0
  9
$DIMTIX
 70
     0
  9
$DIMSOXD
 70
     0
  9
$DIMSAH
 70
     1
  9
$DIMBLK1
  1
OPEN30
  9
$DIMBLK2
  1
OPEN30
  9
$DIMSTYLE
  2
NEWX10
  9
$DIMCLRD
 70
   256
  9
$DIMCLRE
 70
   256
  9
$DIMCLRT
 70
   201
  9
$DIMTFAC
 40
0.7
  9
$DIMGAP
 40
0.7
  9
$LUNITS
 70
     2
  9
$LUPREC
 70
     4
  9
$SKETCHINC
 40
1.0
  9
$FILLETRAD
 40
0.0
  9
$AUNITS
 70
     0
  9
$AUPREC
 70
     2
  9
$MENU
  1
acad
  9
$ELEVATION
 40
0.0
  9
$PELEVATION
 40
0.0
  9
$THICKNESS
 40
0.0
  9
$LIMCHECK
 70
     0
  9
$CHAMFERA
 40
10.0
  9
$CHAMFERB
 40
10.0
  9
$SKPOLY
 70
     0
  9
$TDCREATE
 40
2453033.732663484
  9
$TDUPDATE
 40
2459825.427852754
  9
$TDINDWG
 40
2.0960495486
  9
$TDUSRTIMER
 40
2.0960495486
  9
$USRTIMER
 70
     1
  9
$ANGBASE
 50
0.0
  9
$ANGDIR
 70
     0
  9
$PDMODE
 70
     0
  9
$PDSIZE
 40
0.0
  9
$PLINEWID
 40
0.0
  9
$COORDS
 70
     2
  9
$SPLFRAME
 70
     0
  9
$SPLINETYPE
 70
     6
  9
$SPLINESEGS
 70
     8
  9
$ATTDIA
 70
     0
  9
$ATTREQ
 70
     1
  9
$HANDLING
 70
     1
  9
$HANDSEED
  5
1642C
  9
$SURFTAB1
 70
     6
  9
$SURFTAB2
 70
     6
  9
$SURFTYPE
 70
     6
  9
$SURFU
 70
     6
  9
$SURFV
 70
     6
  9
$UCSNAME
  2

  9
$UCSORG
 10
0.0
 20
0.0
 30
0.0
  9
$UCSXDIR
 10
1.0
 20
0.0
 30
0.0
  9
$UCSYDIR
 10
0.0
 20
1.0
 30
0.0
  9
$PUCSNAME
  2

  9
$PUCSORG
 10
0.0
 20
0.0
 30
0.0
  9
$PUCSXDIR
 10
1.0
 20
0.0
 30
0.0
  9
$PUCSYDIR
 10
0.0
 20
1.0
 30
0.0
  9
$USERI1
 70
     0
  9
$USERI2
 70
     0
  9
$USERI3
 70
     0
  9
$USERI4
 70
     0
  9
$USERI5
 70
     0
  9
$USERR1
 40
0.0
  9
$USERR2
 40
0.0
  9
$USERR3
 40
0.0
  9
$USERR4
 40
0.0
  9
$USERR5
 40
0.0
  9
$WORLDVIEW
 70
     1
  9
$SHADEDGE
 70
     3
  9
$SHADEDIF
 70
    70
  9
$TILEMODE
 70
     1
  9
$MAXACTVP
 70
    48
  9
$PLIMCHECK
 70
     0
  9
$PEXTMIN
 10
1.000000000000000E+20
 20
1.000000000000000E+20
 30
1.000000000000000E+20
  9
$PEXTMAX
 10
-1.000000000000000E+20
 20
-1.000000000000000E+20
 30
-1.000000000000000E+20
  9
$PLIMMIN
 10
0.0
 20
0.0
  9
$PLIMMAX
 10
420.0
 20
297.0
  9
$UNITMODE
 70
     0
  9
$VISRETAIN
 70
     1
  9
$PLINEGEN
 70
     0
  9
$PSLTSCALE
 70
     1
  0
ENDSEC
  0
SECTION
  2
TABLES
  0
TABLE
  2
VPORT
 70
     1
  0
VPORT
  2
*ACTIVE
 70
     0
 10
0.0
 20
0.0
 11
1.0
 21
1.0
 12
234.0260994709402
 22
-2697.601238508191
 13
0.0
 23
0.0
 14
10.0
 24
10.0
 15
10.0
 25
10.0
 16
0.0
 26
0.0
 36
1.0
 17
0.0
 27
0.0
 37
0.0
 40
249.6000552009257
 41
1.866585067319461
 42
50.0
 43
0.0
 44
0.0
 50
0.0
 51
0.0
 71
     0
 72
   100
 73
     1
 74
     1
 75
     0
 76
     0
 77
     0
 78
     0
  0
ENDTAB
  0
TABLE
  2
LTYPE
 70
    15
  0
LTYPE
  2
CONTINUOUS
 70
     0
  3
Solid line
 72
    65
 73
     0
 40
0.0
  0
LTYPE
  2
CENTER2
 70
     0
  3
Center (.5x) ___ _ ___ _ ___ _ ___ _ ___ _ ___
 72
    65
 73
     4
 40
28.575
 49
19.05
 49
-3.175
 49
3.175
 49
-3.175
  0
LTYPE
  2
XREF1|CENTER2
 70
    16
  3
Center (.5x) ___ _ ___ _ ___ _ ___ _ ___ _ ___
 72
    65
 73
     4
 40
28.575
 49
19.05
 49
-3.175
 49
3.175
 49
-3.175
  0
LTYPE
  2
HIDDEN
 70
     0
  3
Hidden __ __ __ __ __ __ __ __ __ __ __ __ __ _
 72
    65
 73
     2
 40
9.524999999999999
 49
6.35
 49
-3.175
  0
LTYPE
  2
PHANTOM2
 70
     0
  3
Phantom (0.5x) ___ _ _ ___ _ _ ___ _ _ ___ _ _
 72
    65
 73
     6
 40
31.75
 49
15.875
 49
-3.175
 49
3.175
 49
-3.175
 49
3.175
 49
-3.175
  0
ENDTAB
  0
TABLE
  2
LAYER
 70
    42
  0
LAYER
  2
0
 70
     0
 62
     7
  6
CONTINUOUS
  0
LAYER
  2
1CENTER
 70
     0
 62
     7
  6
CENTER2
  0
LAYER
  2
1TEXT
 70
     0
 62
     7
  6
CONTINUOUS
  0
LAYER
  2
1DIM
 70
     0
 62
     7
  6
CONTINUOUS
  0
LAYER
  2
1HIDDEN
 70
     0
 62
     7
  6
HIDDEN
  0
LAYER
  2
1PHANTOM
 70
     0
 62
     7
  6
PHANTOM2
  0
LAYER
  2
01
 70
     0
 62
     1
  6
CONTINUOUS
  0
LAYER
  2
1HATCH
 70
     0
 62
     7
  6
CONTINUOUS
  0
ENDTAB
  0
TABLE
  2
STYLE
 70
    23
  0
STYLE
  2
STANDARD
 70
     0
 40
0.0
 41
1.0
 50
0.0
 71
     0
 42
4.0
  3
txt.shx
  4
extfont.shx
  0
STYLE
  2
XREF1|STANDARD
 70
    16
 40
0.0
 41
1.0
 50
0.0
 71
     0
 42
4.0
  3
romans.shx
  4
extfont.shx
  0
ENDTAB
  0
TABLE
  2
VIEW
 70
     0
  0
ENDTAB
  0
TABLE
  2
UCS
 70
     0
  0
ENDTAB
  0
TABLE
  2
APPID
 70
    12
  0
APPID
  2
ACAD
 70
     0
  0
APPID
  2
DRAWINGVARIABLESXDATA
 70
     0
  0
APPID
  2
CONTENTTABDATA
 70
     0
  0
APPID
  2
CONTENTCURRENTTAB
 70
     0
  0
APPID
  2
CONTENTBLOCKDESCRIPTION
 70
     0
  0
APPID
  2
CONTENTBLOCKICON
 70
     0
  0
APPID
  2
CONTENTLONGBLOCKNAME
 70
     0
  0
APPID
  2
ACAD_PSEXT
 70
     0
  0
APPID
  2
ACAD_DSTYLE_DIMTEXT_FILL
 70
     0
  0
APPID
  2
ACAD_MLEADERVER
 70
     0
  0
APPID
  2
ACADANNOTATIVE
 70
     0
  0
APPID
  2
ACDBBLOCKREPETAG
 70
     0
  0
ENDTAB
  0
TABLE
  2
DIMSTYLE
 70
     6
  0
DIMSTYLE
  2
NEWX10
 70
     0
  3
 
  4

  5

  6
OPEN30
  7
OPEN30
 40
1.0
 41
2.0
 42
0.0
 43
7.0
 44
1.0
 45
0.0
 46
0.0
 47
0.0
 48
0.0
140
3.5
141
0.0
142
0.0
143
25.4
144
1.0
145
0.0
146
0.7
147
0.7
 71
     0
 72
     0
 73
     0
 74
     0
 75
     0
 76
     0
 77
     1
 78
     8
170
     0
171
     2
172
     1
173
     1
174
     0
175
     0
176
   256
177
   256
178
   201
  0
ENDTAB
  0
ENDSEC
  0
SECTION
  2
BLOCKS
  0
BLOCK
  8
0
  2
$MODEL_SPACE
 70
     0
 10
0.0
 20
0.0
 30
0.0
  3
$MODEL_SPACE
  1

  0
ENDBLK
  5
1A
  8
0
  0
BLOCK
 67
     1
  8
0
  2
$PAPER_SPACE
 70
     0
 10
0.0
 20
0.0
 30
0.0
  3
$PAPER_SPACE
  1

  0
ENDBLK
  5
17
 67
     1
  8
0
  0
BLOCK
  8
0
  2
_OPEN30
 70
     0
 10
0.0
 20
0.0
 30
0.0
  3
_OPEN30
  1

  0
LINE
  5
44
  8
0
  6
BYBLOCK
 62
     0
 10
-1.0
 20
0.26794919
 30
0.0
 11
0.0
 21
0.0
 31
0.0
  0
LINE
  5
45
  8
0
  6
BYBLOCK
 62
     0
 10
0.0
 20
0.0
 30
0.0
 11
-1.0
 21
-0.26794919
 31
0.0
  0
LINE
  5
46
  8
0
  6
BYBLOCK
 62
     0
 10
0.0
 20
0.0
 30
0.0
 11
-1.0
 21
0.0
 31
0.0
  0
ENDBLK
  5
47
  8
0
  0
BLOCK
  8
0
  2
XREF1
 70
     4
 10
0.0
 20
0.0
 30
0.0
  3
XREF1
  1
D:\ACLT\FORMAT\KAWAJUN(9)図面用.dwg
  0
ENDBLK
  5
5D
  8
0
  0
BLOCK
  8
0
  2
A3WAKUKAWAJUN2017_HYOUDAI_
 70
     0
 10
0.0
 20
0.0
 30
0.0
  3
A3WAKUKAWAJUN2017_HYOUDAI_
  1

  0
LINE
  5
15908
  8
0
 10
13.26299999998673
 20
-0.0001000000000317
 30
0.0
 11
9.236999999990758
 21
8.999899999990987
 31
0.0
1001
ACAD
1000
ASC_BOUNDS
1002
{
1070
    19
1005
15949
1002
}
  0
LINE
  5
15909
  8
0
 10
5.657999999994331
 20
0.9999999999989768
 30
0.0
 11
9.236999999990758
 21
8.999999999991019
 31
0.0
1001
ACAD
1000
ASC_BOUNDS
1002
{
1070
    19
1005
15949
1002
}
  0
LINE
  5
1590A
  8
0
 10
18.59199999998134
 20
-0.2368999999997641
 30
0.0
 11
16.46099999998353
 21
5.432899999994561
 31
0.0
1001
ACAD
1000
ASC_BOUNDS
1002
{
1070
    19
1005
1594A
1002
}
  0
LINE
  5
1590B
  8
0
 10
18.59199999998134
 20
-0.2368999999997641
 30
0.0
 11
22.38199999997767
 21
8.763099999991255
 31
0.0
1001
ACAD
1000
ASC_BOUNDS
1002
{
1070
    19
1005
1594A
1002
}
  0
LINE
  5
1590C
  8
0
 10
14.32899999998563
 20
-0.2368999999997641
 30
0.0
 11
16.46099999998353
 21
5.432899999994561
 31
0.0
1001
ACAD
1000
ASC_BOUNDS
1002
{
1070
    19
1005
1594A
1002
}
  0
LINE
  5
1590D
  8
0
 10
14.32899999998563
 20
-0.2368999999997641
 30
0.0
 11
10.53899999998941
 21
8.763099999991255
 31
0.0
1001
ACAD
1000
ASC_BOUNDS
1002
{
1070
    19
1005
1594A
1002
}
  0
LINE
  5
1590E
  8
0
 10
19.53899999998043
 20
-0.0001000000000317
 30
0.0
 11
23.56599999997638
 21
8.999899999990987
 31
0.0
1001
ACAD
1000
ASC_BOUNDS
1002
{
1070
    19
1005
1594B
1002
}
  0
LINE
  5
1590F
  8
0
 10
26.97358892824991
 20
1.383099999991202
 30
0.0
 11
23.56599999997638
 21
8.999899999990987
 31
0.0
1001
ACAD
1000
ASC_BOUNDS
1002
{
1070
    19
1005
1594B
1002
}
  0
LINE
  5
15910
  8
0
 10
5.657999999994331
 20
0.9999999999989768
 30
0.0
 11
3.181999999996833
 21
4.668599999995308
 31
0.0
1001
ACAD
1000
ASC_BOUNDS
1002
{
1070
    19
1005
15949
1002
}
  0
LINE
  5
15911
  8
0
 10
4.617999999995391
 20
-0.0001000000000317
 30
0.0
 11
1.420999999998571
 21
4.736799999995242
 31
0.0
1001
ACAD
1000
ASC_BOUNDS
1002
{
1070
    19
1005
15949
1002
}
  0
LINE
  5
15912
  8
0
 10
1.420999999998571
 20
8.763099999991255
 30
0.0
 11
1.420999999998571
 21
0.0
 31
0.0
1001
ACAD
1000
ASC_BOUNDS
1002
{
1070
    19
1005
1594E
1002
}
  0
LINE
  5
15913
  8
0
 10
0.0
 20
8.763099999991255
 30
0.0
 11
0.0
 21
0.0
 31
0.0
1001
ACAD
1000
ASC_BOUNDS
1002
{
1070
    19
1005
1594E
1002
}
  0
LINE
  5
15914
  8
0
 10
6.766999999993232
 20
-0.0001000000000317
 30
0.0
 11
7.826999999992154
 21
2.368399999997621
 31
0.0
1001
ACAD
1000
ASC_BOUNDS
1002
{
1070
    19
1005
15949
1002
}
  0
LINE
  5
15915
  8
0
 10
0.0
 20
0.0
 30
0.0
 11
1.420999999998571
 21
0.0
 31
0.0
1001
ACAD
1000
ASC_BOUNDS
1002
{
1070
    19
1005
1594E
1002
}
  0
LINE
  5
15916
  8
0
 10
4.617999999995391
 20
0.0
 30
0.0
 11
6.766999999993232
 21
0.0
 31
0.0
1001
ACAD
1000
ASC_BOUNDS
1002
{
1070
    19
1005
15949
1002
}
  0
LINE
  5
15917
  8
0
 10
11.70599999998831
 20
-0.0001000000000317
 30
0.0
 11
10.64699999998936
 21
2.368399999997621
 31
0.0
1001
ACAD
1000
ASC_BOUNDS
1002
{
1070
    19
1005
15949
1002
}
  0
LINE
  5
15918
  8
0
 10
7.826999999992154
 20
2.368399999997621
 30
0.0
 11
10.64699999998936
 21
2.368399999997621
 31
0.0
1001
ACAD
1000
ASC_BOUNDS
1002
{
1070
    19
1005
15949
1002
}
  0
LINE
  5
15919
  8
0
 10
11.70599999998831
 20
0.0
 30
0.0
 11
13.26299999998673
 21
0.0
 31
0.0
1001
ACAD
1000
ASC_BOUNDS
1002
{
1070
    19
1005
15949
1002
}
  0
LINE
  5
1591A
  8
0
 10
22.15599999997789
 20
2.368399999997621
 30
0.0
 11
24.97599999997499
 21
2.368399999997621
 31
0.0
1001
ACAD
1000
ASC_BOUNDS
1002
{
1070
    19
1005
1594B
1002
}
  0
LINE
  5
1591B
  8
0
 10
19.53899999998043
 20
0.0
 30
0.0
 11
21.09599999997886
 21
0.0
 31
0.0
1001
ACAD
1000
ASC_BOUNDS
1002
{
1070
    19
1005
1594B
1002
}
  0
LINE
  5
1591C
  8
0
 10
21.09599999997886
 20
-0.0001000000000317
 30
0.0
 11
22.15599999997789
 21
2.368399999997621
 31
0.0
1001
ACAD
1000
ASC_BOUNDS
1002
{
1070
    19
1005
1594B
1002
}
  0
LINE
  5
1591D
  8
0
 10
26.02015566812236
 20
0.0330999999912365
 30
0.0
 11
24.97599999997499
 21
2.368399999997621
 31
0.0
1001
ACAD
1000
ASC_BOUNDS
1002
{
1070
    19
1005
1594B
1002
}
  0
LINE
  5
1591E
  8
0
 10
14.32399999998563
 20
3.315799999996671
 30
0.0
 11
16.46099999998353
 21
8.999899999990987
 31
0.0
1001
ACAD
1000
ASC_BOUNDS
1002
{
1070
    19
1005
1594A
1002
}
  0
LINE
  5
1591F
  8
0
 10
6.432999999993513
 20
8.763099999991255
 30
0.0
 11
3.181999999996833
 21
4.668599999995308
 31
0.0
1001
ACAD
1000
ASC_BOUNDS
1002
{
1070
    19
1005
15949
1002
}
  0
LINE
  5
15920
  8
0
 10
4.617999999995391
 20
8.763099999991255
 30
0.0
 11
1.420999999998571
 21
4.736799999995242
 31
0.0
1001
ACAD
1000
ASC_BOUNDS
1002
{
1070
    19
1005
15949
1002
}
  0
LINE
  5
15921
  8
0
 10
0.0
 20
8.763099999991255
 30
0.0
 11
1.420999999998571
 21
8.763099999991255
 31
0.0
1001
ACAD
1000
ASC_BOUNDS
1002
{
1070
    19
1005
1594E
1002
}
  0
LINE
  5
15922
  8
0
 10
4.617999999995391
 20
8.763099999991255
 30
0.0
 11
6.432999999993513
 21
8.763099999991255
 31
0.0
1001
ACAD
1000
ASC_BOUNDS
1002
{
1070
    19
1005
15949
1002
}
  0
LINE
  5
15923
  8
0
 10
14.32399999998563
 20
3.315799999996671
 30
0.0
 11
12.02999999998792
 21
8.763099999991255
 31
0.0
1001
ACAD
1000
ASC_BOUNDS
1002
{
1070
    19
1005
1594A
1002
}
  0
LINE
  5
15924
  8
0
 10
10.06399999998996
 20
3.670999999996297
 30
0.0
 11
9.236999999990758
 21
5.5200999999945
 31
0.0
1001
ACAD
1000
ASC_BOUNDS
1002
{
1070
    19
1005
15949
1002
}
  0
LINE
  5
15925
  8
0
 10
8.409999999991555
 20
3.670999999996297
 30
0.0
 11
9.236999999990758
 21
5.5200999999945
 31
0.0
1001
ACAD
1000
ASC_BOUNDS
1002
{
1070
    19
1005
15949
1002
}
  0
LINE
  5
15926
  8
0
 10
8.409999999991555
 20
3.670999999996297
 30
0.0
 11
10.06399999998996
 21
3.670999999996297
 31
0.0
1001
ACAD
1000
ASC_BOUNDS
1002
{
1070
    19
1005
15949
1002
}
  0
LINE
  5
15927
  8
0
 10
10.53899999998941
 20
8.763099999991255
 30
0.0
 11
12.02999999998792
 21
8.763099999991255
 31
0.0
1001
ACAD
1000
ASC_BOUNDS
1002
{
1070
    19
1005
1594A
1002
}
  0
LINE
  5
15928
  8
0
 10
22.7389999999773
 20
3.670999999996297
 30
0.0
 11
23.56599999997638
 21
5.5200999999945
 31
0.0
1001
ACAD
1000
ASC_BOUNDS
1002
{
1070
    19
1005
1594B
1002
}
  0
LINE
  5
15929
  8
0
 10
22.7389999999773
 20
3.670999999996297
 30
0.0
 11
24.39299999997559
 21
3.670999999996297
 31
0.0
1001
ACAD
1000
ASC_BOUNDS
1002
{
1070
    19
1005
1594B
1002
}
  0
LINE
  5
1592A
  8
0
 10
18.59799999998143
 20
3.315799999996671
 30
0.0
 11
20.89099999997916
 21
8.763099999991255
 31
0.0
1001
ACAD
1000
ASC_BOUNDS
1002
{
1070
    19
1005
1594A
1002
}
  0
LINE
  5
1592B
  8
0
 10
18.59799999998143
 20
3.315799999996671
 30
0.0
 11
16.46099999998353
 21
8.999899999990987
 31
0.0
1001
ACAD
1000
ASC_BOUNDS
1002
{
1070
    19
1005
1594A
1002
}
  0
LINE
  5
1592C
  8
0
 10
20.89099999997916
 20
8.763099999991255
 30
0.0
 11
22.38199999997767
 21
8.763099999991255
 31
0.0
1001
ACAD
1000
ASC_BOUNDS
1002
{
1070
    19
1005
1594A
1002
}
  0
LINE
  5
1592D
  8
0
 10
24.39299999997559
 20
3.670999999996297
 30
0.0
 11
23.56599999997638
 21
5.5200999999945
 31
0.0
1001
ACAD
1000
ASC_BOUNDS
1002
{
1070
    19
1005
1594B
1002
}
  0
LINE
  5
1592E
  8
0
 10
44.99999999995498
 20
-0.2368999999997641
 30
0.0
 11
40.02599999995994
 21
5.341799999994635
 31
0.0
1001
ACAD
1000
ASC_BOUNDS
1002
{
1070
    19
1005
1594D
1002
}
  0
LINE
  5
1592F
  8
0
 10
40.02599999995994
 20
5.341799999994635
 30
0.0
 11
40.02599999995994
 21
0.0
 31
0.0
1001
ACAD
1000
ASC_BOUNDS
1002
{
1070
    19
1005
1594D
1002
}
  0
LINE
  5
15930
  8
0
 10
38.60499999996136
 20
8.999999999991019
 30
0.0
 11
38.60499999996136
 21
0.0
 31
0.0
1001
ACAD
1000
ASC_BOUNDS
1002
{
1070
    19
1005
1594D
1002
}
  0
LINE
  5
15931
  8
0
 10
44.99999999995498
 20
8.763099999991255
 30
0.0
 11
44.99999999995498
 21
-0.2368999999997641
 31
0.0
1001
ACAD
1000
ASC_BOUNDS
1002
{
1070
    19
1005
1594D
1002
}
  0
LINE
  5
15932
  8
0
 10
38.60499999996136
 20
0.0
 30
0.0
 11
40.02599999995994
 21
0.0
 31
0.0
1001
ACAD
1000
ASC_BOUNDS
1002
{
1070
    19
1005
1594D
1002
}
  0
LINE
  5
15933
  8
0
 10
43.57899999995641
 20
3.421199999996588
 30
0.0
 11
38.60499999996136
 21
8.999899999990987
 31
0.0
1001
ACAD
1000
ASC_BOUNDS
1002
{
1070
    19
1005
1594D
1002
}
  0
LINE
  5
15934
  8
0
 10
43.57899999995641
 20
8.763099999991255
 30
0.0
 11
43.57899999995641
 21
3.421199999996588
 31
0.0
1001
ACAD
1000
ASC_BOUNDS
1002
{
1070
    19
1005
1594D
1002
}
  0
LINE
  5
15935
  8
0
 10
43.57899999995641
 20
8.763099999991255
 30
0.0
 11
44.99999999995498
 21
8.763099999991255
 31
0.0
1001
ACAD
1000
ASC_BOUNDS
1002
{
1070
    19
1005
1594D
1002
}
  0
LINE
  5
15936
  8
0
 10
37.67199999996831
 20
8.763099999991255
 30
0.0
 11
36.23199999996837
 21
8.763099999991255
 31
0.0
  0
LINE
  5
15937
  8
0
 10
31.64199999996833
 20
8.763099999991255
 30
0.0
 11
31.64199999996833
 21
2.481619422925121
 31
0.0
  0
LINE
  5
15938
  8
0
 10
37.67199999996831
 20
8.763099999991255
 30
0.0
 11
37.67199999996831
 21
2.481619422925121
 31
0.0
  0
LINE
  5
15939
  8
0
 10
36.23199999996837
 20
8.763099999991255
 30
0.0
 11
36.23199999996837
 21
2.481619422925064
 31
0.0
  0
LINE
  5
1593A
  8
0
 10
33.08199999996839
 20
8.763099999991255
 30
0.0
 11
33.08199999996839
 21
2.481619422925121
 31
0.0
  0
ARC
  5
1593B
  8
0
 10
34.65699999996832
 20
3.183099999991214
 30
0.0
 40
3.420000000000007
 50
240.0000000000255
 51
299.9999999999766
  0
ARC
  5
1593C
  8
0
 10
34.65699999996832
 20
3.183099999991214
 30
0.0
 40
1.97999999999999
 50
240.000000000026
 51
299.9999999999703
  0
LINE
  5
1593D
  8
0
 10
33.08199999996828
 20
8.763099999991255
 30
0.0
 11
31.64199999996833
 21
8.763099999991255
 31
0.0
  0
ARC
  5
1593E
  8
0
 10
35.06199999996829
 20
2.481619422925064
 30
0.0
 40
1.17
 50
299.9999999999699
 51
0.0
  0
ARC
  5
1593F
  8
0
 10
34.25199999996835
 20
2.481619422925121
 30
0.0
 40
1.17
 50
180.0
 51
240.0000000000238
  0
ARC
  5
15940
  8
0
 10
35.06199999996841
 20
2.481619422925121
 30
0.0
 40
2.61
 50
299.9999999999756
 51
0.0
  0
ARC
  5
15941
  8
0
 10
34.25199999996835
 20
2.481619422925121
 30
0.0
 40
2.61
 50
180.0
 51
240.0000000000244
  0
LINE
  5
15942
  8
0
 10
29.30199999996933
 20
8.763099999991255
 30
0.0
 11
30.74199999996927
 21
8.763099999991255
 31
0.0
1001
ACAD
1000
ASC_BOUNDS
1002
{
1070
    19
1005
1594B
1002
}
  0
LINE
  5
15943
  8
0
 10
30.74199999996927
 20
8.763099999991255
 30
0.0
 11
30.74199999996927
 21
2.373099999991211
 31
0.0
1001
ACAD
1000
ASC_BOUNDS
1002
{
1070
    19
1005
1594B
1002
}
  0
LINE
  5
15944
  8
0
 10
26.02015566812236
 20
0.0330999999912365
 30
0.0
 11
28.40199999996923
 21
0.0330999999912365
 31
0.0
1001
ACAD
1000
ASC_BOUNDS
1002
{
1070
    19
1005
1594B
1002
}
  0
LINE
  5
15945
  8
0
 10
29.30199999996933
 20
8.763099999991255
 30
0.0
 11
29.30199999996933
 21
2.283099999991236
 31
0.0
1001
ACAD
1000
ASC_BOUNDS
1002
{
1070
    19
1005
1594B
1002
}
  0
LINE
  5
15946
  8
0
 10
26.97358892824991
 20
1.383099999991202
 30
0.0
 11
28.40199999996923
 21
1.383099999991202
 31
0.0
1001
ACAD
1000
ASC_BOUNDS
1002
{
1070
    19
1005
1594B
1002
}
  0
ARC
  5
15947
  8
0
 10
28.40199999996923
 20
2.283099999991236
 30
0.0
 40
0.9
 50
270.0
 51
0.0
1001
ACAD
1000
ASC_BOUNDS
1002
{
1070
    19
1005
1594B
1002
}
  0
ARC
  5
15948
  8
0
 10
28.40199999996923
 20
2.373099999991211
 30
0.0
 40
2.34
 50
270.0
 51
0.0
1001
ACAD
1000
ASC_BOUNDS
1002
{
1070
    19
1005
1594B
1002
}
  0
INSERT
  5
15949
  8
0
  2
*X24
 10
0.0
 20
0.0
 30
0.0
1001
ACAD
1000
HATCH
1002
{
1070
    19
1000
ANSI37
1040
0.15
1040
0.0
1000
ASC_BOUNDS
1070
     2
1070
     2
1070
    12
1005
15908
1005
15909
1005
15910
1005
1591F
1005
15922
1005
15920
1005
15911
1005
15916
1005
15914
1005
15918
1005
15917
1005
15919
1070
     2
1070
     3
1005
15924
1005
15926
1005
15925
1000
ASC_SEEDPOINT
1011
3.614004224891801
1021
2.996669441146025
1031
0.0
1021
2.996669441146025
1031
0.0
1000
R14_HATCH_DATA
1000
15949
1011
1.0
1021
0.0
1031
0.0
1021
0.0
1031
0.0
1011
0.0
1021
1.0
1031
0.0
1021
1.0
1031
0.0
1011
0.0
1021
0.0
1031
1.0
1021
0.0
1031
1.0
1040
0.0
1010
0.0
1020
0.0
1030
1.0
1000
ANSI37
1070
     0
1070
     1
1071
        2
1071
        7
1070
     0
1070
     1
1071
       17
1040
13.26299999998673
1040
-0.0001000000000317
1040
9.236999999990758
1040
8.999899999990987
1040
9.236999999990758
1040
8.999999999991019
1040
5.657999999994331
1040
0.9999999999989768
1040
3.181999999996833
1040
4.668599999995308
1040
6.432999999993513
1040
8.763099999991255
1040
4.617999999995391
1040
8.763099999991255
1040
1.420999999998571
1040
4.736799999995242
1040
4.617999999995391
1040
-0.0001000000000317
1040
4.617999999995391
1040
0.0
1040
6.766999999993232
1040
0.0
1040
6.766999999993232
1040
-0.0001000000000317
1040
7.826999999992154
1040
2.368399999997621
1040
10.64699999998936
1040
2.368399999997621
1040
11.70599999998831
1040
-0.0001000000000317
1040
11.70599999998831
1040
0.0
1040
13.26299999998673
1040
0.0
1071
       12
1005
15908
1005
15909
1005
15910
1005
1591F
1005
15922
1005
15920
1005
15911
1005
15916
1005
15914
1005
15918
1005
15917
1005
15919
1071
       22
1070
     0
1070
     1
1071
        3
1040
9.236999999990758
1040
5.5200999999945
1040
10.06399999998996
1040
3.670999999996297
1040
8.409999999991555
1040
3.670999999996297
1071
        3
1005
15924
1005
15926
1005
15925
1070
     0
1070
     1
1040
0.0
1040
0.15
1070
     0
1070
     2
1040
0.7853981633974483
1040
49.29960901727088
1040
-10.17736998311392
1040
-0.3367596045400932
1040
0.3367596045400932
1070
     0
1040
2.356194490192345
1040
49.29960901727088
1040
-10.17736998311392
1040
-0.3367596045400932
1040
-0.3367596045400932
1070
     0
1040
0.0110235143455945
1071
        2
1040
3.614004224891801
1040
2.996669441146025
1040
0.0
1040
3.614004224891801
1040
2.996669441146025
1040
0.0
1002
}
  0
INSERT
  5
1594A
  8
0
  2
*X25
 10
0.0
 20
0.0
 30
0.0
1001
ACAD
1000
HATCH
1002
{
1070
    19
1000
ANSI37
1040
0.15
1040
0.0
1000
ASC_BOUNDS
1070
     1
1070
     2
1070
    10
1005
1590A
1005
1590B
1005
1592C
1005
1592A
1005
1592B
1005
1591E
1005
15923
1005
15927
1005
1590D
1005
1590C
1000
ASC_SEEDPOINT
1011
14.73245321214324
1021
2.798246178283421
1031
0.0
1021
2.798246178283421
1031
0.0
1000
R14_HATCH_DATA
1000
1594A
1011
1.0
1021
0.0
1031
0.0
1021
0.0
1031
0.0
1011
0.0
1021
1.0
1031
0.0
1021
1.0
1031
0.0
1011
0.0
1021
0.0
1031
1.0
1021
0.0
1031
1.0
1040
0.0
1010
0.0
1020
0.0
1030
1.0
1000
ANSI37
1070
     0
1070
     1
1071
        1
1071
        7
1070
     0
1070
     1
1071
       10
1040
16.46099999998353
1040
5.432899999994561
1040
18.59199999998134
1040
-0.2368999999997641
1040
22.38199999997767
1040
8.763099999991255
1040
20.89099999997916
1040
8.763099999991255
1040
18.59799999998143
1040
3.315799999996671
1040
16.46099999998353
1040
8.999899999990987
1040
14.32399999998563
1040
3.315799999996671
1040
12.02999999998792
1040
8.763099999991255
1040
10.53899999998941
1040
8.763099999991255
1040
14.32899999998563
1040
-0.2368999999997641
1071
       10
1005
1590A
1005
1590B
1005
1592C
1005
1592A
1005
1592B
1005
1591E
1005
15923
1005
15927
1005
1590D
1005
1590C
1070
     0
1070
     1
1040
0.0
1040
0.15
1070
     0
1070
     2
1040
0.7853981633974483
1040
49.29960901727088
1040
-10.17736998311392
1040
-0.3367596045400932
1040
0.3367596045400932
1070
     0
1040
2.356194490192345
1040
49.29960901727088
1040
-10.17736998311392
1040
-0.3367596045400932
1040
-0.3367596045400932
1070
     0
1040
0.0110235143455945
1071
        1
1040
14.73245321214324
1040
2.798246178283421
1040
0.0
1002
}
  0
INSERT
  5
1594B
  8
0
  2
*X26
 10
0.0
 20
0.0
 30
0.0
1001
ACAD
1000
HATCH
1002
{
1070
    19
1000
ANSI37
1040
0.15
1040
0.0
1000
ASC_BOUNDS
1070
     2
1070
     2
1070
    13
1005
1590E
1005
1591B
1005
1591C
1005
1591A
1005
1591D
1005
15944
1005
15948
1005
15943
1005
15942
1005
15945
1005
15947
1005
15946
1005
1590F
1070
     2
1070
     3
1005
15928
1005
1592D
1005
15929
1000
ASC_SEEDPOINT
1011
21.97929957367762
1021
3.294304244259308
1031
0.0
1021
3.294304244259308
1031
0.0
1000
R14_HATCH_DATA
1000
1594B
1011
1.0
1021
0.0
1031
0.0
1021
0.0
1031
0.0
1011
0.0
1021
1.0
1031
0.0
1021
1.0
1031
0.0
1011
0.0
1021
0.0
1031
1.0
1021
0.0
1031
1.0
1040
0.0
1010
0.0
1020
0.0
1030
1.0
1000
ANSI37
1070
     0
1070
     1
1071
        2
1071
        7
1070
     1
1070
     1
1071
       15
1040
23.56599999997638
1040
8.999899999990987
1040
0.0
1040
19.53899999998043
1040
-0.0001000000000317
1040
0.0
1040
19.53899999998043
1040
0.0
1040
0.0
1040
21.09599999997886
1040
0.0
1040
0.0
1040
21.09599999997886
1040
-0.0001000000000317
1040
0.0
1040
22.15599999997789
1040
2.368399999997621
1040
0.0
1040
24.97599999997499
1040
2.368399999997621
1040
0.0
1040
26.02015566812236
1040
0.0330999999912365
1040
0.0
1040
28.40199999996923
1040
0.0330999999912365
1040
0.414213562373095
1040
30.74199999996923
1040
2.373099999991211
1040
0.0
1040
30.74199999996927
1040
8.763099999991255
1040
0.0
1040
29.30199999996933
1040
8.763099999991255
1040
0.0
1040
29.30199999996933
1040
2.283099999991236
1040
-0.414213562373095
1040
28.40199999996923
1040
1.383099999991237
1040
0.0
1040
26.97358892824991
1040
1.383099999991202
1040
0.0
1071
       13
1005
1590E
1005
1591B
1005
1591C
1005
1591A
1005
1591D
1005
15944
1005
15948
1005
15943
1005
15942
1005
15945
1005
15947
1005
15946
1005
1590F
1071
       22
1070
     0
1070
     1
1071
        3
1040
22.7389999999773
1040
3.670999999996297
1040
23.56599999997638
1040
5.5200999999945
1040
24.39299999997559
1040
3.670999999996297
1071
        3
1005
15928
1005
1592D
1005
15929
1070
     0
1070
     1
1040
0.0
1040
0.15
1070
     0
1070
     2
1040
0.7853981633974483
1040
49.29960901727088
1040
-10.17736998311392
1040
-0.3367596045400932
1040
0.3367596045400932
1070
     0
1040
2.356194490192345
1040
49.29960901727088
1040
-10.17736998311392
1040
-0.3367596045400932
1040
-0.3367596045400932
1070
     0
1040
0.0110235143455945
1071
        2
1040
21.97929957367762
1040
3.294304244259308
1040
0.0
1040
21.97929957367762
1040
3.294304244259308
1040
0.0
1002
}
  0
INSERT
  5
1594C
  8
0
  2
*X27
 10
0.0
 20
0.0
 30
0.0
1001
ACAD
1000
HATCH
1002
{
1070
    19
1000
ANSI37
1040
0.15
1040
0.0
1000
R14_HATCH_DATA
1000
1594C
1011
1.0
1021
0.0
1031
0.0
1021
0.0
1031
0.0
1011
0.0
1021
1.0
1031
0.0
1021
1.0
1031
0.0
1011
0.0
1021
0.0
1031
1.0
1021
0.0
1031
1.0
1040
0.0
1010
0.0
1020
0.0
1030
1.0
1000
ANSI37
1070
     0
1070
     1
1071
        1
1071
        7
1070
     1
1070
     1
1071
       12
1040
31.64199999996833
1040
2.481619422925121
1040
0.2679491924310942
1040
32.94699999997067
1040
0.2212931190493919
1040
0.2679491924301353
1040
36.36699999995983
1040
0.2212931190459813
1040
0.2679491924321411
1040
37.67199999996831
1040
2.481619422928361
1040
0.0
1040
37.67199999996831
1040
8.763099999991255
1040
0.0
1040
36.23199999996837
1040
8.763099999991255
1040
0.0
1040
36.23199999996837
1040
2.481619422925064
1040
-0.2679491924310291
1040
35.64699999996708
1040
1.468369700498386
1040
-0.267949192430519
1040
33.66699999997093
1040
1.468369700497703
1040
-0.267949192431809
1040
33.08199999996839
1040
2.481619422926997
1040
0.0
1040
33.08199999996839
1040
8.763099999991255
1040
0.0
1040
31.64199999996833
1040
8.763099999991255
1040
0.0
1071
        0
1070
     0
1070
     1
1040
0.0
1040
0.15
1070
     0
1070
     2
1040
0.7853981633974483
1040
49.29960901727088
1040
-10.17736998311392
1040
-0.3367596045400932
1040
0.3367596045400932
1070
     0
1040
2.356194490192345
1040
49.29960901727088
1040
-10.17736998311392
1040
-0.3367596045400932
1040
-0.3367596045400932
1070
     0
1040
0.0110235143455945
1071
        1
1040
32.30357378967278
1040
3.988785755459219
1040
0.0
1002
}
  0
INSERT
  5
1594D
  8
0
  2
*X28
 10
0.0
 20
0.0
 30
0.0
1001
ACAD
1000
HATCH
1002
{
1070
    19
1000
ANSI37
1040
0.15
1040
0.0
1000
ASC_BOUNDS
1070
     1
1070
     2
1070
     8
1005
1592E
1005
15931
1005
15935
1005
15934
1005
15933
1005
15930
1005
15932
1005
1592F
1000
ASC_SEEDPOINT
1011
39.74896370716704
1021
4.484843821435049
1031
0.0
1021
4.484843821435049
1031
0.0
1000
R14_HATCH_DATA
1000
1594D
1011
1.0
1021
0.0
1031
0.0
1021
0.0
1031
0.0
1011
0.0
1021
1.0
1031
0.0
1021
1.0
1031
0.0
1011
0.0
1021
0.0
1031
1.0
1021
0.0
1031
1.0
1040
0.0
1010
0.0
1020
0.0
1030
1.0
1000
ANSI37
1070
     0
1070
     1
1071
        1
1071
        7
1070
     0
1070
     1
1071
        9
1040
40.02599999995994
1040
5.341799999994635
1040
44.99999999995498
1040
-0.2368999999997641
1040
44.99999999995498
1040
8.763099999991255
1040
43.57899999995641
1040
8.763099999991255
1040
43.57899999995641
1040
3.421199999996588
1040
38.60499999996136
1040
8.999899999990987
1040
38.60499999996136
1040
8.999999999991019
1040
38.60499999996136
1040
0.0
1040
40.02599999995994
1040
0.0
1071
        8
1005
1592E
1005
15931
1005
15935
1005
15934
1005
15933
1005
15930
1005
15932
1005
1592F
1070
     0
1070
     1
1040
0.0
1040
0.15
1070
     0
1070
     2
1040
0.7853981633974483
1040
49.29960901727088
1040
-10.17736998311392
1040
-0.3367596045400932
1040
0.3367596045400932
1070
     0
1040
2.356194490192345
1040
49.29960901727088
1040
-10.17736998311392
1040
-0.3367596045400932
1040
-0.3367596045400932
1070
     0
1040
0.0110235143455945
1071
        1
1040
39.74896370716704
1040
4.484843821435049
1040
0.0
1002
}
  0
INSERT
  5
1594E
  8
0
  2
*X29
 10
0.0
 20
0.0
 30
0.0
1001
ACAD
1000
HATCH
1002
{
1070
    19
1000
ANSI37
1040
0.15
1040
0.0
1000
ASC_BOUNDS
1070
     1
1070
     2
1070
     4
1005
15912
1005
15921
1005
15913
1005
15915
1000
ASC_SEEDPOINT
1011
1.079051535452663
1021
4.148538732891836
1031
0.0
1021
4.148538732891836
1031
0.0
1000
R14_HATCH_DATA
1000
1594E
1011
1.0
1021
0.0
1031
0.0
1021
0.0
1031
0.0
1011
0.0
1021
1.0
1031
0.0
1021
1.0
1031
0.0
1011
0.0
1021
0.0
1031
1.0
1021
0.0
1031
1.0
1040
0.0
1010
0.0
1020
0.0
1030
1.0
1000
ANSI37
1070
     0
1070
     1
1071
        1
1071
        7
1070
     0
1070
     1
1071
        4
1040
1.420999999998571
1040
0.0
1040
1.420999999998571
1040
8.763099999991255
1040
0.0
1040
8.763099999991255
1040
0.0
1040
0.0
1071
        4
1005
15912
1005
15921
1005
15913
1005
15915
1070
     0
1070
     1
1040
0.0
1040
0.15
1070
     0
1070
     2
1040
0.7853981633974483
1040
49.29960901727088
1040
-10.17736998311392
1040
-0.3367596045400932
1040
0.3367596045400932
1070
     0
1040
2.356194490192345
1040
49.29960901727088
1040
-10.17736998311392
1040
-0.3367596045400932
1040
-0.3367596045400932
1070
     0
1040
0.0053004257112761
1071
        1
1040
1.079051535452663
1040
4.148538732891836
1040
0.0
1002
}
  0
ENDBLK
  5
16006
  8
0
  0
BLOCK
  8
0
  2
*X24
 70
     1
 10
0.0
 20
0.0
 30
0.0
  3
*X24
  1

  0
LINE
  5
16285
  8
0
  6
CONTINUOUS
 10
3.418023043697893
 20
7.251849696850613
 30
0.0
 11
4.929273346838536
 21
8.763099999991255
 31
0.0
  0
LINE
  5
16286
  8
0
  6
CONTINUOUS
 10
1.483656411257782
 20
4.643963855330318
 30
0.0
 11
5.60279255591872
 21
8.763099999991255
 31
0.0
  0
LINE
  5
16287
  8
0
  6
CONTINUOUS
 10
1.755053947328235
 20
4.241842182320584
 30
0.0
 11
6.276311764998907
 21
8.763099999991255
 31
0.0
  0
LINE
  5
16288
  8
0
  6
CONTINUOUS
 10
2.026451483398688
 20
3.839720509310849
 30
0.0
 11
4.441040904851878
 21
6.254309930764039
 31
0.0
  0
LINE
  5
16289
  8
0
  6
CONTINUOUS
 10
2.297849019469139
 20
3.437598836301114
 30
0.0
 11
3.321765168359338
 21
4.461514985191313
 31
0.0
  0
LINE
  5
1628A
  8
0
  6
CONTINUOUS
 10
2.569246555539591
 20
3.03547716329138
 30
0.0
 11
3.593163397972743
 21
4.059394005724531
 31
0.0
  0
LINE
  5
1628B
  8
0
  6
CONTINUOUS
 10
2.840644091610043
 20
2.633355490281646
 30
0.0
 11
3.864561627586149
 21
3.657273026257751
 31
0.0
  0
LINE
  5
1628C
  8
0
  6
CONTINUOUS
 10
3.112041627680496
 20
2.231233817271911
 30
0.0
 11
4.135959857199554
 21
3.25515204679097
 31
0.0
  0
LINE
  5
1628D
  8
0
  6
CONTINUOUS
 10
3.383439163750948
 20
1.829112144262177
 30
0.0
 11
4.40735808681296
 21
2.853031067324189
 31
0.0
  0
LINE
  5
1628E
  8
0
  6
CONTINUOUS
 10
3.654836699821399
 20
1.426990471252442
 30
0.0
 11
4.678756316426365
 21
2.450910087857407
 31
0.0
  0
LINE
  5
1628F
  8
0
  6
CONTINUOUS
 10
3.926234235891853
 20
1.024868798242709
 30
0.0
 11
4.95015454603977
 21
2.048789108390626
 31
0.0
  0
LINE
  5
16290
  8
0
  6
CONTINUOUS
 10
4.197631771962304
 20
0.6227471252329737
 30
0.0
 11
5.221552775653176
 21
1.646668128923846
 31
0.0
  0
LINE
  5
16291
  8
0
  6
CONTINUOUS
 10
8.715877546767851
 20
7.835069736359266
 30
0.0
 11
9.435953450375058
 21
8.555145639966472
 31
0.0
  0
LINE
  5
16292
  8
0
  6
CONTINUOUS
 10
8.170620868422267
 20
6.616293848933497
 30
0.0
 11
9.644120833743461
 21
8.08979381425469
 31
0.0
  0
LINE
  5
16293
  8
0
  6
CONTINUOUS
 10
7.625364190076684
 20
5.397517961507727
 30
0.0
 11
9.852288217111864
 21
7.624441988542907
 31
0.0
  0
LINE
  5
16294
  8
0
  6
CONTINUOUS
 10
7.080107511731101
 20
4.178742074081957
 30
0.0
 11
10.06045560048027
 21
7.159090162831124
 31
0.0
  0
LINE
  5
16295
  8
0
  6
CONTINUOUS
 10
6.534850833385518
 20
2.959966186656187
 30
0.0
 11
10.26862298384867
 21
6.693738337119342
 31
0.0
  0
LINE
  5
16296
  8
0
  6
CONTINUOUS
 10
4.469029308032756
 20
0.2206254522232385
 30
0.0
 11
5.492951005266582
 21
1.244547149457064
 31
0.0
  0
LINE
  5
16297
  8
0
  6
CONTINUOUS
 10
5.989594155039935
 20
1.741190299230417
 30
0.0
 11
8.806950407233131
 21
4.558546551423613
 31
0.0
  0
LINE
  5
16298
  8
0
  6
CONTINUOUS
 10
9.401251593263643
 20
5.152847737454126
 30
0.0
 11
10.47679036721708
 21
6.228386511407559
 31
0.0
  0
LINE
  5
16299
  8
0
  6
CONTINUOUS
 10
4.921837203428691
 20
-0.0000858614610131
 30
0.0
 11
8.592923064886001
 21
3.670999999996297
 31
0.0
  0
LINE
  5
1629A
  8
0
  6
CONTINUOUS
 10
9.609390446785305
 20
4.6874673818956
 30
0.0
 11
10.68495775058548
 21
5.763034685695775
 31
0.0
  0
LINE
  5
1629B
  8
0
  6
CONTINUOUS
 10
5.595387755019432
 20
-0.0000545189504582
 30
0.0
 11
7.716137258923768
 21
2.120694984953879
 31
0.0
  0
LINE
  5
1629C
  8
0
  6
CONTINUOUS
 10
6.268938306610172
 20
-0.000023176439905
 30
0.0
 11
7.170485805526503
 21
0.9015243224764267
 31
0.0
  0
LINE
  5
1629D
  8
0
  6
CONTINUOUS
 10
7.963842273967511
 20
2.368399999997621
 30
0.0
 11
9.266442273966188
 21
3.670999999996297
 31
0.0
  0
LINE
  5
1629E
  8
0
  6
CONTINUOUS
 10
8.637361483047696
 20
2.368399999997621
 30
0.0
 11
9.939961483046375
 21
3.670999999996297
 31
0.0
  0
LINE
  5
1629F
  8
0
  6
CONTINUOUS
 10
9.817529300306965
 20
4.222087026337075
 30
0.0
 11
10.89312513395388
 21
5.297682859983993
 31
0.0
  0
LINE
  5
162A0
  8
0
  6
CONTINUOUS
 10
10.02566815382863
 20
3.756706670778549
 30
0.0
 11
11.10129251732229
 21
4.832331034272211
 31
0.0
  0
LINE
  5
162A1
  8
0
  6
CONTINUOUS
 10
9.310880692127883
 20
2.368399999997621
 30
0.0
 11
11.30945990069069
 21
4.366979208560428
 31
0.0
  0
LINE
  5
162A2
  8
0
  6
CONTINUOUS
 10
9.98439990120807
 20
2.36839999999762
 30
0.0
 11
11.5176272840591
 21
3.901627382848645
 31
0.0
  0
LINE
  5
162A3
  8
0
  6
CONTINUOUS
 10
10.65037369446246
 20
2.36085458417182
 30
0.0
 11
11.7257946674275
 21
3.436275557136862
 31
0.0
  0
LINE
  5
162A4
  8
0
  6
CONTINUOUS
 10
10.85847197087848
 20
1.895433651507656
 30
0.0
 11
11.9339620507959
 21
2.97092373142508
 31
0.0
  0
LINE
  5
162A5
  8
0
  6
CONTINUOUS
 10
11.0665702472945
 20
1.430012718843491
 30
0.0
 11
12.14212943416431
 21
2.505571905713296
 31
0.0
  0
LINE
  5
162A6
  8
0
  6
CONTINUOUS
 10
11.27466852371052
 20
0.9645917861793256
 30
0.0
 11
12.35029681753271
 21
2.040220080001513
 31
0.0
  0
LINE
  5
162A7
  8
0
  6
CONTINUOUS
 10
11.48276680012654
 20
0.4991708535151611
 30
0.0
 11
12.55846420090111
 21
1.57486825428973
 31
0.0
  0
LINE
  5
162A8
  8
0
  6
CONTINUOUS
 10
11.69086507654257
 20
0.0337499208509957
 30
0.0
 11
12.76663158426952
 21
1.109516428577947
 31
0.0
  0
LINE
  5
162A9
  8
0
  6
CONTINUOUS
 10
12.33057447873954
 20
-0.0000598860322123
 30
0.0
 11
12.97479896763792
 21
0.6441646028661663
 31
0.0
  0
LINE
  5
162AA
  8
0
  6
CONTINUOUS
 10
13.00413694809395
 20
-0.0000166257579952
 30
0.0
 11
13.18296635100632
 21
0.1788127771543824
 31
0.0
  0
LINE
  5
162AB
  8
0
  6
CONTINUOUS
 10
4.772852165289667
 20
-0.000092794222212
 30
0.0
 11
4.296495091028902
 21
0.4762642800385528
 31
0.0
  0
LINE
  5
162AC
  8
0
  6
CONTINUOUS
 10
5.446340034776103
 20
-0.0000614546284616
 30
0.0
 11
2.898195908335625
 21
2.548082671812017
 31
0.0
  0
LINE
  5
162AD
  8
0
  6
CONTINUOUS
 10
6.119827904262539
 20
-0.0000301150347113
 30
0.0
 11
1.499896725642348
 21
4.61990106358548
 31
0.0
  0
LINE
  5
162AE
  8
0
  6
CONTINUOUS
 10
6.775136745476159
 20
0.0181802528318542
 30
0.0
 11
5.699826040202669
 21
1.093490958105344
 31
0.0
  0
LINE
  5
162AF
  8
0
  6
CONTINUOUS
 10
6.983376846288489
 20
0.4834593610997118
 30
0.0
 11
5.908008617934405
 21
1.558827589453796
 31
0.0
  0
LINE
  5
162B0
  8
0
  6
CONTINUOUS
 10
5.377063484962296
 20
1.416253513345719
 30
0.0
 11
1.702276957014131
 21
5.091040041293883
 31
0.0
  0
LINE
  5
162B1
  8
0
  6
CONTINUOUS
 10
3.978745891735324
 20
3.488090315652877
 30
0.0
 11
2.000373521109399
 21
5.466462686278803
 31
0.0
  0
LINE
  5
162B2
  8
0
  6
CONTINUOUS
 10
7.191616947100819
 20
0.948738469367568
 30
0.0
 11
6.11619119566614
 21
2.024164220802247
 31
0.0
  0
LINE
  5
162B3
  8
0
  6
CONTINUOUS
 10
7.399857047913149
 20
1.414017577635424
 30
0.0
 11
6.324373773397875
 21
2.489500852150698
 31
0.0
  0
LINE
  5
162B4
  8
0
  6
CONTINUOUS
 10
7.608097148725479
 20
1.879296685903281
 30
0.0
 11
6.53255635112961
 21
2.95483748349915
 31
0.0
  0
LINE
  5
162B5
  8
0
  6
CONTINUOUS
 10
7.816337249537808
 20
2.344575794171138
 30
0.0
 11
6.740738928861345
 21
3.420174114847601
 31
0.0
  0
LINE
  5
162B6
  8
0
  6
CONTINUOUS
 10
3.310241080789734
 20
4.830114335678653
 30
0.0
 11
2.298470085204666
 21
5.84188533126372
 31
0.0
  0
LINE
  5
162B7
  8
0
  6
CONTINUOUS
 10
3.60832983563551
 20
5.205544789913063
 30
0.0
 11
2.596566649299935
 21
6.217307976248638
 31
0.0
  0
LINE
  5
162B8
  8
0
  6
CONTINUOUS
 10
3.906418590481286
 20
5.580975244147473
 30
0.0
 11
2.894663213395203
 21
6.592730621233557
 31
0.0
  0
LINE
  5
162B9
  8
0
  6
CONTINUOUS
 10
4.204507345327062
 20
5.956405698381884
 30
0.0
 11
3.192759777490472
 21
6.968153266218474
 31
0.0
  0
LINE
  5
162BA
  8
0
  6
CONTINUOUS
 10
8.466032252791512
 20
2.368399999997621
 30
0.0
 11
6.948921506593081
 21
3.885510746196053
 31
0.0
  0
LINE
  5
162BB
  8
0
  6
CONTINUOUS
 10
9.139551461871699
 20
2.36839999999762
 30
0.0
 11
7.157104084324816
 21
4.350847377544504
 31
0.0
  0
LINE
  5
162BC
  8
0
  6
CONTINUOUS
 10
4.502596100172839
 20
6.331836152616295
 30
0.0
 11
3.49085634158574
 21
7.343575911203393
 31
0.0
  0
LINE
  5
162BD
  8
0
  6
CONTINUOUS
 10
4.800684855018615
 20
6.707266606850705
 30
0.0
 11
3.788952905681008
 21
7.718998556188312
 31
0.0
  0
LINE
  5
162BE
  8
0
  6
CONTINUOUS
 10
12.18154012887317
 20
-0.0000694579236642
 30
0.0
 11
11.32140332908496
 21
0.8600673418645499
 31
0.0
  0
LINE
  5
162BF
  8
0
  6
CONTINUOUS
 10
12.85501608323566
 20
-0.0000262032059659
 30
0.0
 11
10.77672456435345
 21
2.078265315676246
 31
0.0
  0
LINE
  5
162C0
  8
0
  6
CONTINUOUS
 10
9.813070670951886
 20
2.36839999999762
 30
0.0
 11
8.51047067095321
 21
3.670999999996297
 31
0.0
  0
LINE
  5
162C1
  8
0
  6
CONTINUOUS
 10
10.48658988003207
 20
2.36839999999762
 30
0.0
 11
9.183989880033396
 21
3.670999999996297
 31
0.0
  0
LINE
  5
162C2
  8
0
  6
CONTINUOUS
 10
8.441048632286794
 20
3.740422038662712
 30
0.0
 11
7.365286662056551
 21
4.816184008892956
 31
0.0
  0
LINE
  5
162C3
  8
0
  6
CONTINUOUS
 10
8.649187485808454
 20
4.205802394221237
 30
0.0
 11
7.573469239788285
 21
5.281520640241407
 31
0.0
  0
LINE
  5
162C4
  8
0
  6
CONTINUOUS
 10
5.098773609864391
 20
7.082697061085115
 30
0.0
 11
4.087049469776277
 21
8.09442120117323
 31
0.0
  0
LINE
  5
162C5
  8
0
  6
CONTINUOUS
 10
5.396862364710167
 20
7.458127515319526
 30
0.0
 11
4.385146033871544
 21
8.469843846158149
 31
0.0
  0
LINE
  5
162C6
  8
0
  6
CONTINUOUS
 10
13.04801363231285
 20
0.4804954567970334
 30
0.0
 11
9.85750908911358
 21
3.670999999996297
 31
0.0
  0
LINE
  5
162C7
  8
0
  6
CONTINUOUS
 10
8.857326339330116
 20
4.671182749779763
 30
0.0
 11
7.781651817520021
 21
5.746857271589858
 31
0.0
  0
LINE
  5
162C8
  8
0
  6
CONTINUOUS
 10
5.694951119555943
 20
7.833557969553937
 30
0.0
 11
4.765409089118624
 21
8.763099999991255
 31
0.0
  0
LINE
  5
162C9
  8
0
  6
CONTINUOUS
 10
12.50286117236978
 20
1.699167125820288
 30
0.0
 11
9.68611877250287
 21
4.515909525687196
 31
0.0
  0
LINE
  5
162CA
  8
0
  6
CONTINUOUS
 10
9.065465192851777
 20
5.136563105338288
 30
0.0
 11
7.989834395251757
 21
6.21219390293831
 31
0.0
  0
LINE
  5
162CB
  8
0
  6
CONTINUOUS
 10
5.993039874401719
 20
8.208988423788346
 30
0.0
 11
5.43892829819881
 21
8.763099999991255
 31
0.0
  0
LINE
  5
162CC
  8
0
  6
CONTINUOUS
 10
11.95770871242671
 20
2.917838794843543
 30
0.0
 11
8.19801697298349
 21
6.677530534286761
 31
0.0
  0
LINE
  5
162CD
  8
0
  6
CONTINUOUS
 10
6.291128629247495
 20
8.584418878022756
 30
0.0
 11
6.112447507278997
 21
8.763099999991255
 31
0.0
  0
LINE
  5
162CE
  8
0
  6
CONTINUOUS
 10
11.41255625248364
 20
4.136510463866797
 30
0.0
 11
8.406199550715227
 21
7.142867165635211
 31
0.0
  0
LINE
  5
162CF
  8
0
  6
CONTINUOUS
 10
10.86740379254057
 20
5.355182132890051
 30
0.0
 11
8.614382128446962
 21
7.608203796983664
 31
0.0
  0
LINE
  5
162D0
  8
0
  6
CONTINUOUS
 10
10.3222513325975
 20
6.573853801913305
 30
0.0
 11
8.822564706178696
 21
8.073540428332114
 31
0.0
  0
LINE
  5
162D1
  8
0
  6
CONTINUOUS
 10
9.777098872654436
 20
7.792525470936562
 30
0.0
 11
9.030747283910433
 21
8.538877059680566
 31
0.0
  0
ENDBLK
  5
16413
  8
0
  0
BLOCK
  8
0
  2
*X25
 70
     1
 10
0.0
 20
0.0
 30
0.0
  3
*X25
  1

  0
LINE
  5
162D3
  8
0
  6
CONTINUOUS
 10
10.67292308101235
 20
8.445076852443387
 30
0.0
 11
10.99094622856022
 21
8.763099999991255
 31
0.0
  0
LINE
  5
162D4
  8
0
  6
CONTINUOUS
 10
10.87250383178748
 20
7.971138394138331
 30
0.0
 11
11.6644654376404
 21
8.763099999991255
 31
0.0
  0
LINE
  5
162D5
  8
0
  6
CONTINUOUS
 10
11.07208458256261
 20
7.497199935833273
 30
0.0
 11
12.12126590876355
 21
8.546381262034211
 31
0.0
  0
LINE
  5
162D6
  8
0
  6
CONTINUOUS
 10
11.27166533333774
 20
7.023261477528216
 30
0.0
 11
12.32085164573666
 21
8.072447789927136
 31
0.0
  0
LINE
  5
162D7
  8
0
  6
CONTINUOUS
 10
11.47124608411287
 20
6.549323019223158
 30
0.0
 11
12.52043738270977
 21
7.59851431782006
 31
0.0
  0
LINE
  5
162D8
  8
0
  6
CONTINUOUS
 10
11.670826834888
 20
6.075384560918101
 30
0.0
 11
12.72002311968288
 21
7.124580845712984
 31
0.0
  0
LINE
  5
162D9
  8
0
  6
CONTINUOUS
 10
11.87040758566313
 20
5.601446102613043
 30
0.0
 11
12.91960885665599
 21
6.650647373605907
 31
0.0
  0
LINE
  5
162DA
  8
0
  6
CONTINUOUS
 10
12.06998833643825
 20
5.127507644307986
 30
0.0
 11
13.1191945936291
 21
6.176713901498832
 31
0.0
  0
LINE
  5
162DB
  8
0
  6
CONTINUOUS
 10
12.26956908721338
 20
4.65356918600293
 30
0.0
 11
13.31878033060221
 21
5.702780429391757
 31
0.0
  0
LINE
  5
162DC
  8
0
  6
CONTINUOUS
 10
12.46914983798851
 20
4.179630727697873
 30
0.0
 11
13.51836606757532
 21
5.228846957284683
 31
0.0
  0
LINE
  5
162DD
  8
0
  6
CONTINUOUS
 10
12.66873058876364
 20
3.705692269392816
 30
0.0
 11
13.71795180454843
 21
4.754913485177607
 31
0.0
  0
LINE
  5
162DE
  8
0
  6
CONTINUOUS
 10
12.86831133953877
 20
3.231753811087759
 30
0.0
 11
13.91753754152154
 21
4.280980013070531
 31
0.0
  0
LINE
  5
162DF
  8
0
  6
CONTINUOUS
 10
13.0678920903139
 20
2.757815352782702
 30
0.0
 11
14.11712327849465
 21
3.807046540963456
 31
0.0
  0
LINE
  5
162E0
  8
0
  6
CONTINUOUS
 10
13.26747284108903
 20
2.283876894477644
 30
0.0
 11
14.31670901546777
 21
3.333113068856379
 31
0.0
  0
LINE
  5
162E1
  8
0
  6
CONTINUOUS
 10
16.36767838827179
 20
8.751678487061342
 30
0.0
 11
16.50332410898388
 21
8.887324207773432
 31
0.0
  0
LINE
  5
162E2
  8
0
  6
CONTINUOUS
 10
15.96190732182191
 20
7.67238821153127
 30
0.0
 11
16.68735328004734
 21
8.397834169756699
 31
0.0
  0
LINE
  5
162E3
  8
0
  6
CONTINUOUS
 10
15.55613625537202
 20
6.593097936001196
 30
0.0
 11
16.87138245111079
 21
7.908344131739965
 31
0.0
  0
LINE
  5
162E4
  8
0
  6
CONTINUOUS
 10
15.15036518892213
 20
5.513807660471122
 30
0.0
 11
17.05541162217424
 21
7.418854093723231
 31
0.0
  0
LINE
  5
162E5
  8
0
  6
CONTINUOUS
 10
14.74459412247225
 20
4.434517384941048
 30
0.0
 11
17.2394407932377
 21
6.929364055706499
 31
0.0
  0
LINE
  5
162E6
  8
0
  6
CONTINUOUS
 10
14.33882305602236
 20
3.355227109410975
 30
0.0
 11
17.42346996430115
 21
6.439874017689766
 31
0.0
  0
LINE
  5
162E7
  8
0
  6
CONTINUOUS
 10
13.46705359186416
 20
1.809938436172586
 30
0.0
 11
16.0819338255367
 21
4.424818669845129
 31
0.0
  0
LINE
  5
162E8
  8
0
  6
CONTINUOUS
 10
16.63283254238972
 20
4.975717386698149
 30
0.0
 11
17.60749913536461
 21
5.950383979673033
 31
0.0
  0
LINE
  5
162E9
  8
0
  6
CONTINUOUS
 10
13.66663434263929
 20
1.335999977867529
 30
0.0
 11
15.67604797733754
 21
3.345413612565779
 31
0.0
  0
LINE
  5
162EA
  8
0
  6
CONTINUOUS
 10
13.86621509341442
 20
0.8620615195624723
 30
0.0
 11
15.27016212913838
 21
2.26600855528643
 31
0.0
  0
LINE
  5
162EB
  8
0
  6
CONTINUOUS
 10
16.81682257348267
 20
4.486188208710908
 30
0.0
 11
17.79152830642806
 21
5.460893941656299
 31
0.0
  0
LINE
  5
162EC
  8
0
  6
CONTINUOUS
 10
17.00081260457561
 20
3.996659030723667
 30
0.0
 11
17.97555747749151
 21
4.971403903639565
 31
0.0
  0
LINE
  5
162ED
  8
0
  6
CONTINUOUS
 10
20.74362343514722
 20
8.412989070375462
 30
0.0
 11
21.09373436476302
 21
8.763099999991256
 31
0.0
  0
LINE
  5
162EE
  8
0
  6
CONTINUOUS
 10
20.25401257174777
 20
7.249858997895826
 30
0.0
 11
21.7672535738432
 21
8.763099999991255
 31
0.0
  0
LINE
  5
162EF
  8
0
  6
CONTINUOUS
 10
14.06579584418955
 20
0.3881230612574149
 30
0.0
 11
14.86427628093921
 21
1.186603498007082
 31
0.0
  0
LINE
  5
162F0
  8
0
  6
CONTINUOUS
 10
14.26537659496467
 20
-0.0858153970476412
 30
0.0
 11
14.45839043274005
 21
0.1071984407277329
 31
0.0
  0
LINE
  5
162F1
  8
0
  6
CONTINUOUS
 10
17.18480263566856
 20
3.507129852736426
 30
0.0
 11
18.15958664855496
 21
4.481913865622833
 31
0.0
  0
LINE
  5
162F2
  8
0
  6
CONTINUOUS
 10
17.3687926667615
 20
3.017600674749186
 30
0.0
 11
18.34361581961842
 21
3.9924238276061
 31
0.0
  0
LINE
  5
162F3
  8
0
  6
CONTINUOUS
 10
19.76440170834832
 20
6.086728925416191
 30
0.0
 11
22.33924590259489
 21
8.661573119662755
 31
0.0
  0
LINE
  5
162F4
  8
0
  6
CONTINUOUS
 10
19.27479084494887
 20
4.923598852936555
 30
0.0
 11
21.84929622842713
 21
7.498104236414807
 31
0.0
  0
LINE
  5
162F5
  8
0
  6
CONTINUOUS
 10
17.55278269785445
 20
2.528071496761945
 30
0.0
 11
18.52764499068187
 21
3.502933789589366
 31
0.0
  0
LINE
  5
162F6
  8
0
  6
CONTINUOUS
 10
18.78517998154942
 20
3.760468780456919
 30
0.0
 11
21.35934655425936
 21
6.33463535316686
 31
0.0
  0
LINE
  5
162F7
  8
0
  6
CONTINUOUS
 10
17.73677272894739
 20
2.038542318774704
 30
0.0
 11
20.8693968800916
 21
5.171166469918914
 31
0.0
  0
LINE
  5
162F8
  8
0
  6
CONTINUOUS
 10
17.92076276004034
 20
1.549013140787464
 30
0.0
 11
20.37944720592384
 21
4.007697586670968
 31
0.0
  0
LINE
  5
162F9
  8
0
  6
CONTINUOUS
 10
18.10475279113329
 20
1.059483962800223
 30
0.0
 11
19.88949753175608
 21
2.84422870342302
 31
0.0
  0
LINE
  5
162FA
  8
0
  6
CONTINUOUS
 10
18.28874282222623
 20
0.5699547848129822
 30
0.0
 11
19.39954785758832
 21
1.680759820175074
 31
0.0
  0
LINE
  5
162FB
  8
0
  6
CONTINUOUS
 10
18.47273285331918
 20
0.0804256068257416
 30
0.0
 11
18.90959818342056
 21
0.517290936927127
 31
0.0
  0
LINE
  5
162FC
  8
0
  6
CONTINUOUS
 10
14.3590401358224
 20
-0.1570118376323384
 30
0.0
 11
14.24903296539946
 21
-0.0470046672093929
 31
0.0
  0
LINE
  5
162FD
  8
0
  6
CONTINUOUS
 10
14.54309291258661
 20
0.332454594683643
 30
0.0
 11
13.75908329123172
 21
1.116464216038529
 31
0.0
  0
LINE
  5
162FE
  8
0
  6
CONTINUOUS
 10
14.72714568935081
 20
0.8219210269996244
 30
0.0
 11
13.26913361706399
 21
2.27993309928645
 31
0.0
  0
LINE
  5
162FF
  8
0
  6
CONTINUOUS
 10
14.91119846611502
 20
1.311387459315606
 30
0.0
 11
12.77918394289625
 21
3.443401982534371
 31
0.0
  0
LINE
  5
16300
  8
0
  6
CONTINUOUS
 10
15.09525124287922
 20
1.800853891631587
 30
0.0
 11
12.28923426872852
 21
4.606870865782293
 31
0.0
  0
LINE
  5
16301
  8
0
  6
CONTINUOUS
 10
15.27930401964343
 20
2.290320323947569
 30
0.0
 11
11.79928459456078
 21
5.770339749030213
 31
0.0
  0
LINE
  5
16302
  8
0
  6
CONTINUOUS
 10
15.46335679640763
 20
2.77978675626355
 30
0.0
 11
14.48885470994921
 21
3.754288842721972
 31
0.0
  0
LINE
  5
16303
  8
0
  6
CONTINUOUS
 10
13.88507249233704
 20
4.358071060334137
 30
0.0
 11
11.30933492039305
 21
6.933808632278135
 31
0.0
  0
LINE
  5
16304
  8
0
  6
CONTINUOUS
 10
18.75840522805855
 20
0.1582575336928151
 30
0.0
 11
18.25383727664818
 21
0.6628254851031863
 31
0.0
  0
LINE
  5
16305
  8
0
  6
CONTINUOUS
 10
15.64740957317184
 20
3.269253188579531
 30
0.0
 11
14.67288388101266
 21
4.243778880738705
 31
0.0
  0
LINE
  5
16306
  8
0
  6
CONTINUOUS
 10
13.39509276772158
 20
5.521569994029786
 30
0.0
 11
10.81938524622531
 21
8.097277515526056
 31
0.0
  0
LINE
  5
16307
  8
0
  6
CONTINUOUS
 10
18.95798597883369
 20
0.6321959919978686
 30
0.0
 11
17.84825644852853
 21
1.741925522303024
 31
0.0
  0
LINE
  5
16308
  8
0
  6
CONTINUOUS
 10
19.15756672960882
 20
1.106134450302922
 30
0.0
 11
17.44267562040888
 21
2.821025559502861
 31
0.0
  0
LINE
  5
16309
  8
0
  6
CONTINUOUS
 10
15.83146234993604
 20
3.758719620895513
 30
0.0
 11
14.85691305207612
 21
4.733268918755439
 31
0.0
  0
LINE
  5
1630A
  8
0
  6
CONTINUOUS
 10
16.01551512670025
 20
4.248186053211494
 30
0.0
 11
15.04094222313957
 21
5.222758956772172
 31
0.0
  0
LINE
  5
1630B
  8
0
  6
CONTINUOUS
 10
12.90511304310612
 20
6.685068927725435
 30
0.0
 11
10.8270819708403
 21
8.763099999991255
 31
0.0
  0
LINE
  5
1630C
  8
0
  6
CONTINUOUS
 10
12.41513331849066
 20
7.848567861421083
 30
0.0
 11
11.50060117992049
 21
8.763099999991255
 31
0.0
  0
LINE
  5
1630D
  8
0
  6
CONTINUOUS
 10
19.35714748038395
 20
1.580072908607975
 30
0.0
 11
17.03709479228923
 21
3.900125596702697
 31
0.0
  0
LINE
  5
1630E
  8
0
  6
CONTINUOUS
 10
19.55672823115909
 20
2.054011366913028
 30
0.0
 11
16.63151396416958
 21
4.979225633902534
 31
0.0
  0
LINE
  5
1630F
  8
0
  6
CONTINUOUS
 10
16.19956790346445
 20
4.737652485527476
 30
0.0
 11
15.22497139420302
 21
5.712248994788904
 31
0.0
  0
LINE
  5
16310
  8
0
  6
CONTINUOUS
 10
16.38362068022866
 20
5.227118917843457
 30
0.0
 11
15.40900056526648
 21
6.201739032805637
 31
0.0
  0
LINE
  5
16311
  8
0
  6
CONTINUOUS
 10
19.75630898193422
 20
2.527949825218081
 30
0.0
 11
18.70774536448286
 21
3.576513442669441
 31
0.0
  0
LINE
  5
16312
  8
0
  6
CONTINUOUS
 10
19.95588973270936
 20
3.001888283523134
 30
0.0
 11
18.90726987211446
 21
4.050508144118028
 31
0.0
  0
LINE
  5
16313
  8
0
  6
CONTINUOUS
 10
20.15547048348449
 20
3.475826741828186
 30
0.0
 11
19.10679437974606
 21
4.524502845566614
 31
0.0
  0
LINE
  5
16314
  8
0
  6
CONTINUOUS
 10
20.35505123425962
 20
3.94976520013324
 30
0.0
 11
19.30631888737766
 21
4.998497547015201
 31
0.0
  0
LINE
  5
16315
  8
0
  6
CONTINUOUS
 10
20.55463198503475
 20
4.423703658438292
 30
0.0
 11
19.50584339500926
 21
5.472492248463787
 31
0.0
  0
LINE
  5
16316
  8
0
  6
CONTINUOUS
 10
18.37481191085755
 20
3.909446896294752
 30
0.0
 11
15.59302973632993
 21
6.691229070822371
 31
0.0
  0
LINE
  5
16317
  8
0
  6
CONTINUOUS
 10
17.96904084440766
 20
4.988737171824825
 30
0.0
 11
15.77705890739338
 21
7.180719108839104
 31
0.0
  0
LINE
  5
16318
  8
0
  6
CONTINUOUS
 10
17.56326977795777
 20
6.068027447354899
 30
0.0
 11
15.96108807845684
 21
7.670209146855838
 31
0.0
  0
LINE
  5
16319
  8
0
  6
CONTINUOUS
 10
17.15749871150789
 20
7.147317722884972
 30
0.0
 11
16.14511724952029
 21
8.15969918487257
 31
0.0
  0
LINE
  5
1631A
  8
0
  6
CONTINUOUS
 10
16.751727645058
 20
8.226607998415046
 30
0.0
 11
16.32914642058374
 21
8.649189222889303
 31
0.0
  0
LINE
  5
1631B
  8
0
  6
CONTINUOUS
 10
20.75421273580989
 20
4.897642116743345
 30
0.0
 11
19.70536790264086
 21
5.946486949912374
 31
0.0
  0
LINE
  5
1631C
  8
0
  6
CONTINUOUS
 10
20.95379348658502
 20
5.371580575048398
 30
0.0
 11
19.90489241027246
 21
6.42048165136096
 31
0.0
  0
LINE
  5
1631D
  8
0
  6
CONTINUOUS
 10
21.15337423736015
 20
5.845519033353452
 30
0.0
 11
20.10441691790406
 21
6.894476352809547
 31
0.0
  0
LINE
  5
1631E
  8
0
  6
CONTINUOUS
 10
21.35295498813529
 20
6.319457491658505
 30
0.0
 11
20.30394142553566
 21
7.368471054258134
 31
0.0
  0
LINE
  5
1631F
  8
0
  6
CONTINUOUS
 10
21.55253573891042
 20
6.793395949963558
 30
0.0
 11
20.50346593316726
 21
7.842465755706721
 31
0.0
  0
LINE
  5
16320
  8
0
  6
CONTINUOUS
 10
21.75211648968556
 20
7.267334408268612
 30
0.0
 11
20.70299044079886
 21
8.316460457155308
 31
0.0
  0
LINE
  5
16321
  8
0
  6
CONTINUOUS
 10
21.95169724046069
 20
7.741272866573663
 30
0.0
 11
20.9298701070431
 21
8.763099999991256
 31
0.0
  0
LINE
  5
16322
  8
0
  6
CONTINUOUS
 10
22.15127799123582
 20
8.215211324878716
 30
0.0
 11
21.60338931612328
 21
8.763099999991256
 31
0.0
  0
LINE
  5
16323
  8
0
  6
CONTINUOUS
 10
22.35085874201096
 20
8.689149783183769
 30
0.0
 11
22.27690852520347
 21
8.763099999991255
 31
0.0
  0
ENDBLK
  5
16415
  8
0
  0
BLOCK
  8
0
  2
*X26
 70
     1
 10
0.0
 20
0.0
 30
0.0
  3
*X26
  1

  0
LINE
  5
16325
  8
0
  6
CONTINUOUS
 10
23.19462913593892
 20
8.169917934846424
 30
0.0
 11
23.70775465517246
 21
8.683043454079957
 31
0.0
  0
LINE
  5
16326
  8
0
  6
CONTINUOUS
 10
22.64923161835078
 20
6.951001208178088
 30
0.0
 11
23.9159364069932
 21
8.217705996820516
 31
0.0
  0
LINE
  5
16327
  8
0
  6
CONTINUOUS
 10
22.10383410076263
 20
5.732084481509751
 30
0.0
 11
24.12411815881395
 21
7.752368539561078
 31
0.0
  0
LINE
  5
16328
  8
0
  6
CONTINUOUS
 10
21.55843658317447
 20
4.513167754841414
 30
0.0
 11
24.3322999106347
 21
7.287031082301639
 31
0.0
  0
LINE
  5
16329
  8
0
  6
CONTINUOUS
 10
21.01303906558632
 20
3.294251028173077
 30
0.0
 11
24.54048166245544
 21
6.821693625042199
 31
0.0
  0
LINE
  5
1632A
  8
0
  6
CONTINUOUS
 10
20.46764154799817
 20
2.075334301504738
 30
0.0
 11
23.28571549467848
 21
4.89340824818505
 31
0.0
  0
LINE
  5
1632B
  8
0
  6
CONTINUOUS
 10
19.92224403041002
 20
0.8564175748364002
 30
0.0
 11
22.74075865492779
 21
3.674932199354171
 31
0.0
  0
LINE
  5
1632C
  8
0
  6
CONTINUOUS
 10
23.67305085490148
 20
5.280743608408048
 30
0.0
 11
24.74866341427619
 21
6.356356167782759
 31
0.0
  0
LINE
  5
1632D
  8
0
  6
CONTINUOUS
 10
23.88118970842314
 20
4.815363252849522
 30
0.0
 11
24.95684516609694
 21
5.89101871052332
 31
0.0
  0
LINE
  5
1632E
  8
0
  6
CONTINUOUS
 10
19.73925852647308
 20
-0.0000871381807288
 30
0.0
 11
23.4103456646501
 21
3.670999999996297
 31
0.0
  0
LINE
  5
1632F
  8
0
  6
CONTINUOUS
 10
24.0893285619448
 20
4.349982897290997
 30
0.0
 11
25.16502691791769
 21
5.42568125326388
 31
0.0
  0
LINE
  5
16330
  8
0
  6
CONTINUOUS
 10
20.41282099582748
 20
-0.0000438779065108
 30
0.0
 11
21.64944178675636
 21
1.236576913022366
 31
0.0
  0
LINE
  5
16331
  8
0
  6
CONTINUOUS
 10
22.78126487373161
 20
2.36839999999762
 30
0.0
 11
24.08386487373029
 21
3.670999999996297
 31
0.0
  0
LINE
  5
16332
  8
0
  6
CONTINUOUS
 10
24.29746741546646
 20
3.884602541732471
 30
0.0
 11
25.37320866973843
 21
4.960343796004441
 31
0.0
  0
LINE
  5
16333
  8
0
  6
CONTINUOUS
 10
21.08638346518189
 20
-0.0000006176322938
 30
0.0
 11
21.10379033335899
 21
0.0174062505448083
 31
0.0
  0
LINE
  5
16334
  8
0
  6
CONTINUOUS
 10
23.4547840828118
 20
2.36839999999762
 30
0.0
 11
25.58139042155918
 21
4.495006338745002
 31
0.0
  0
LINE
  5
16335
  8
0
  6
CONTINUOUS
 10
29.30199999996933
 20
8.215615917155148
 30
0.0
 11
29.84948408280543
 21
8.763099999991255
 31
0.0
  0
LINE
  5
16336
  8
0
  6
CONTINUOUS
 10
24.12830329189199
 20
2.36839999999762
 30
0.0
 11
25.78957217337993
 21
4.029668881485562
 31
0.0
  0
LINE
  5
16337
  8
0
  6
CONTINUOUS
 10
29.30199999996933
 20
7.54209670807496
 30
0.0
 11
30.52300329188562
 21
8.763099999991255
 31
0.0
  0
LINE
  5
16338
  8
0
  6
CONTINUOUS
 10
24.80182250097217
 20
2.36839999999762
 30
0.0
 11
25.99775392520067
 21
3.564331424226122
 31
0.0
  0
LINE
  5
16339
  8
0
  6
CONTINUOUS
 10
29.30199999996933
 20
6.868577498994774
 30
0.0
 11
30.74199999996926
 21
8.308577498994712
 31
0.0
  0
LINE
  5
1633A
  8
0
  6
CONTINUOUS
 10
25.13028238392013
 20
2.023340673865392
 30
0.0
 11
26.20593567702142
 21
3.098993966966683
 31
0.0
  0
LINE
  5
1633B
  8
0
  6
CONTINUOUS
 10
25.33838066033617
 20
1.557919741201244
 30
0.0
 11
26.41411742884217
 21
2.633656509707244
 31
0.0
  0
LINE
  5
1633C
  8
0
  6
CONTINUOUS
 10
25.54647893675221
 20
1.092498808537098
 30
0.0
 11
26.62229918066291
 21
2.168319052447804
 31
0.0
  0
LINE
  5
1633D
  8
0
  6
CONTINUOUS
 10
25.75457721316825
 20
0.62707787587295
 30
0.0
 11
26.83048093248366
 21
1.702981595188365
 31
0.0
  0
LINE
  5
1633E
  8
0
  6
CONTINUOUS
 10
29.30199999996933
 20
6.195058289914587
 30
0.0
 11
30.74199999996926
 21
7.635058289914522
 31
0.0
  0
LINE
  5
1633F
  8
0
  6
CONTINUOUS
 10
29.30199999996933
 20
5.521539080834401
 30
0.0
 11
30.74199999996926
 21
6.961539080834331
 31
0.0
  0
LINE
  5
16340
  8
0
  6
CONTINUOUS
 10
29.30199999996933
 20
4.848019871754214
 30
0.0
 11
30.74199999996925
 21
6.288019871754143
 31
0.0
  0
LINE
  5
16341
  8
0
  6
CONTINUOUS
 10
29.30199999996933
 20
4.174500662674028
 30
0.0
 11
30.74199999996925
 21
5.614500662673953
 31
0.0
  0
LINE
  5
16342
  8
0
  6
CONTINUOUS
 10
25.96267548958429
 20
0.1616569432088024
 30
0.0
 11
27.18411854636669
 21
1.383099999991207
 31
0.0
  0
LINE
  5
16343
  8
0
  6
CONTINUOUS
 10
29.30199999996933
 20
3.500981453593841
 30
0.0
 11
30.74199999996925
 21
4.940981453593762
 31
0.0
  0
LINE
  5
16344
  8
0
  6
CONTINUOUS
 10
26.50763775544691
 20
0.0330999999912356
 30
0.0
 11
27.85763775544689
 21
1.383099999991223
 31
0.0
  0
LINE
  5
16345
  8
0
  6
CONTINUOUS
 10
29.30199999996933
 20
2.827462244513656
 30
0.0
 11
30.74199999996925
 21
4.267462244513574
 31
0.0
  0
LINE
  5
16346
  8
0
  6
CONTINUOUS
 10
27.18115696452709
 20
0.0330999999912356
 30
0.0
 11
28.6224847300034
 21
1.474427765467545
 31
0.0
  0
LINE
  5
16347
  8
0
  6
CONTINUOUS
 10
29.21067223449293
 20
2.062615269957069
 30
0.0
 11
30.74199999996924
 21
3.593943035433383
 31
0.0
  0
LINE
  5
16348
  8
0
  6
CONTINUOUS
 10
27.85467617360728
 20
0.0330999999912356
 30
0.0
 11
30.74199999996924
 21
2.920423826353195
 31
0.0
  0
LINE
  5
16349
  8
0
  6
CONTINUOUS
 10
28.57438609860264
 20
0.0792907159064073
 30
0.0
 11
30.69580928405405
 21
2.200713901357819
 31
0.0
  0
LINE
  5
1634A
  8
0
  6
CONTINUOUS
 10
29.49443044814297
 20
0.3258158563665496
 30
0.0
 11
30.44928414359389
 21
1.280669551817477
 31
0.0
  0
LINE
  5
1634B
  8
0
  6
CONTINUOUS
 10
19.59027867740337
 20
-0.0000967065718083
 30
0.0
 11
19.55485265190471
 21
0.035329318926844
 31
0.0
  0
LINE
  5
1634C
  8
0
  6
CONTINUOUS
 10
20.26375463176586
 20
-0.0000534518541091
 30
0.0
 11
19.76305575737534
 21
0.5006454225364014
 31
0.0
  0
LINE
  5
1634D
  8
0
  6
CONTINUOUS
 10
20.93723058612834
 20
-0.0000101971364099
 30
0.0
 11
19.97125886284597
 21
0.965961526145958
 31
0.0
  0
LINE
  5
1634E
  8
0
  6
CONTINUOUS
 10
21.25514828313686
 20
0.355591314935257
 30
0.0
 11
20.1794619683166
 21
1.431277629755512
 31
0.0
  0
LINE
  5
1634F
  8
0
  6
CONTINUOUS
 10
21.46338838394921
 20
0.8208704232030986
 30
0.0
 11
20.38766507378723
 21
1.896593733365069
 31
0.0
  0
LINE
  5
16350
  8
0
  6
CONTINUOUS
 10
21.67162848476155
 20
1.28614953147094
 30
0.0
 11
20.59586817925786
 21
2.361909836974626
 31
0.0
  0
LINE
  5
16351
  8
0
  6
CONTINUOUS
 10
21.8798685855739
 20
1.751428639738782
 30
0.0
 11
20.80407128472849
 21
2.827225940584183
 31
0.0
  0
LINE
  5
16352
  8
0
  6
CONTINUOUS
 10
22.08810868638624
 20
2.216707748006623
 30
0.0
 11
21.01227439019912
 21
3.292542044193739
 31
0.0
  0
LINE
  5
16353
  8
0
  6
CONTINUOUS
 10
22.60993564347543
 20
2.36839999999762
 30
0.0
 11
21.22047749566975
 21
3.757858147803296
 31
0.0
  0
LINE
  5
16354
  8
0
  6
CONTINUOUS
 10
23.28345485255561
 20
2.36839999999762
 30
0.0
 11
21.42868060114038
 21
4.223174251412853
 31
0.0
  0
LINE
  5
16355
  8
0
  6
CONTINUOUS
 10
26.29227406164219
 20
0.0330999999912356
 30
0.0
 11
25.80009199592872
 21
0.5252820657046957
 31
0.0
  0
LINE
  5
16356
  8
0
  6
CONTINUOUS
 10
23.9569740616358
 20
2.36839999999762
 30
0.0
 11
21.63688370661101
 21
4.688490355022409
 31
0.0
  0
LINE
  5
16357
  8
0
  6
CONTINUOUS
 10
26.96579327072237
 20
0.0330999999912356
 30
0.0
 11
25.2554132311971
 21
1.743480039516508
 31
0.0
  0
LINE
  5
16358
  8
0
  6
CONTINUOUS
 10
24.63049327071599
 20
2.36839999999762
 30
0.0
 11
23.32789327071731
 21
3.670999999996297
 31
0.0
  0
LINE
  5
16359
  8
0
  6
CONTINUOUS
 10
22.92098674744635
 20
4.077906523267254
 30
0.0
 11
21.84508681208164
 21
5.153806458631966
 31
0.0
  0
LINE
  5
1635A
  8
0
  6
CONTINUOUS
 10
27.63931247980256
 20
0.0330999999912356
 30
0.0
 11
24.0014124797975
 21
3.670999999996297
 31
0.0
  0
LINE
  5
1635B
  8
0
  6
CONTINUOUS
 10
23.129125600968
 20
4.5432868788258
 30
0.0
 11
22.05328991755227
 21
5.619122562241522
 31
0.0
  0
LINE
  5
1635C
  8
0
  6
CONTINUOUS
 10
28.31283168888275
 20
0.0330999999912356
 30
0.0
 11
24.16488385994816
 21
4.181047828925828
 31
0.0
  0
LINE
  5
1635D
  8
0
  6
CONTINUOUS
 10
23.33726445448964
 20
5.008667234384345
 30
0.0
 11
22.2614930230229
 21
6.084438665851079
 31
0.0
  0
LINE
  5
1635E
  8
0
  6
CONTINUOUS
 10
28.86286302309502
 20
0.1565878748591523
 30
0.0
 11
27.63635089796295
 21
1.383099999991217
 31
0.0
  0
LINE
  5
1635F
  8
0
  6
CONTINUOUS
 10
26.43704649509776
 20
2.582404402856405
 30
0.0
 11
23.61992702019732
 21
5.399523877756844
 31
0.0
  0
LINE
  5
16360
  8
0
  6
CONTINUOUS
 10
23.54540330801128
 20
5.47404758994289
 30
0.0
 11
22.46969612849353
 21
6.549754769460635
 31
0.0
  0
LINE
  5
16361
  8
0
  6
CONTINUOUS
 10
29.39405087596853
 20
0.2989192310658284
 30
0.0
 11
28.30987010704312
 21
1.383099999991234
 31
0.0
  0
LINE
  5
16362
  8
0
  6
CONTINUOUS
 10
25.89179548232307
 20
3.801174624711282
 30
0.0
 11
22.67789923396416
 21
7.015070873070191
 31
0.0
  0
LINE
  5
16363
  8
0
  6
CONTINUOUS
 10
29.79594438047407
 20
0.570544935640473
 30
0.0
 11
28.81310432793121
 21
1.553384988183336
 31
0.0
  0
LINE
  5
16364
  8
0
  6
CONTINUOUS
 10
25.34654446954838
 20
5.01994484656616
 30
0.0
 11
22.88610233943479
 21
7.480386976679748
 31
0.0
  0
LINE
  5
16365
  8
0
  6
CONTINUOUS
 10
30.13270398501416
 20
0.9073045401805646
 30
0.0
 11
29.14234640337737
 21
1.897662121817355
 31
0.0
  0
LINE
  5
16366
  8
0
  6
CONTINUOUS
 10
24.80129345677369
 20
6.238715068421037
 30
0.0
 11
23.09430544490542
 21
7.945703080289305
 31
0.0
  0
LINE
  5
16367
  8
0
  6
CONTINUOUS
 10
30.44581292956759
 20
1.26771480470732
 30
0.0
 11
29.30199999996933
 21
2.411527734305588
 31
0.0
  0
LINE
  5
16368
  8
0
  6
CONTINUOUS
 10
30.58814428577427
 20
1.798902657580827
 30
0.0
 11
29.30199999996933
 21
3.085046943385775
 31
0.0
  0
LINE
  5
16369
  8
0
  6
CONTINUOUS
 10
24.256042443999
 20
7.457485290275915
 30
0.0
 11
23.30250855037605
 21
8.411019183898862
 31
0.0
  0
LINE
  5
1636A
  8
0
  6
CONTINUOUS
 10
23.71079143122431
 20
8.676255512130794
 30
0.0
 11
23.51071165584668
 21
8.876335287508418
 31
0.0
  0
LINE
  5
1636B
  8
0
  6
CONTINUOUS
 10
30.73047564198095
 20
2.330090510454333
 30
0.0
 11
29.30199999996933
 21
3.758566152465961
 31
0.0
  0
LINE
  5
1636C
  8
0
  6
CONTINUOUS
 10
30.74199999996924
 20
2.992085361546236
 30
0.0
 11
29.30199999996933
 21
4.432085361546148
 31
0.0
  0
LINE
  5
1636D
  8
0
  6
CONTINUOUS
 10
30.74199999996924
 20
3.665604570626419
 30
0.0
 11
29.30199999996933
 21
5.105604570626333
 31
0.0
  0
LINE
  5
1636E
  8
0
  6
CONTINUOUS
 10
30.74199999996925
 20
4.339123779706602
 30
0.0
 11
29.30199999996933
 21
5.77912377970652
 31
0.0
  0
LINE
  5
1636F
  8
0
  6
CONTINUOUS
 10
30.74199999996925
 20
5.012642988786785
 30
0.0
 11
29.30199999996933
 21
6.452642988786707
 31
0.0
  0
LINE
  5
16370
  8
0
  6
CONTINUOUS
 10
30.74199999996925
 20
5.68616219786697
 30
0.0
 11
29.30199999996933
 21
7.126162197866894
 31
0.0
  0
LINE
  5
16371
  8
0
  6
CONTINUOUS
 10
30.74199999996925
 20
6.359681406947153
 30
0.0
 11
29.30199999996933
 21
7.799681406947081
 31
0.0
  0
LINE
  5
16372
  8
0
  6
CONTINUOUS
 10
30.74199999996926
 20
7.033200616027337
 30
0.0
 11
29.30199999996933
 21
8.473200616027269
 31
0.0
  0
LINE
  5
16373
  8
0
  6
CONTINUOUS
 10
30.74199999996926
 20
7.706719825107518
 30
0.0
 11
29.68561982508552
 21
8.763099999991255
 31
0.0
  0
LINE
  5
16374
  8
0
  6
CONTINUOUS
 10
30.74199999996926
 20
8.380239034187703
 30
0.0
 11
30.35913903416571
 21
8.763099999991255
 31
0.0
  0
ENDBLK
  5
16417
  8
0
  0
BLOCK
  8
0
  2
*X27
 70
     1
 10
0.0
 20
0.0
 30
0.0
  3
*X27
  1

  0
LINE
  5
16376
  8
0
  6
CONTINUOUS
 10
31.64199999996833
 20
8.5350582899136
 30
0.0
 11
31.87004171004599
 21
8.763099999991255
 31
0.0
  0
LINE
  5
16377
  8
0
  6
CONTINUOUS
 10
31.64199999996833
 20
7.861539080833413
 30
0.0
 11
32.54356091912618
 21
8.763099999991255
 31
0.0
  0
LINE
  5
16378
  8
0
  6
CONTINUOUS
 10
31.64199999996833
 20
7.188019871753227
 30
0.0
 11
33.08199999996839
 21
8.628019871753281
 31
0.0
  0
LINE
  5
16379
  8
0
  6
CONTINUOUS
 10
31.64199999996833
 20
6.514500662673041
 30
0.0
 11
33.08199999996839
 21
7.954500662673095
 31
0.0
  0
LINE
  5
1637A
  8
0
  6
CONTINUOUS
 10
31.64199999996833
 20
5.840981453592855
 30
0.0
 11
33.08199999996839
 21
7.28098145359291
 31
0.0
  0
LINE
  5
1637B
  8
0
  6
CONTINUOUS
 10
31.64199999996833
 20
5.167462244512668
 30
0.0
 11
33.08199999996839
 21
6.607462244512723
 31
0.0
  0
LINE
  5
1637C
  8
0
  6
CONTINUOUS
 10
31.64199999996833
 20
4.493943035432482
 30
0.0
 11
33.08199999996839
 21
5.933943035432536
 31
0.0
  0
LINE
  5
1637D
  8
0
  6
CONTINUOUS
 10
31.64199999996833
 20
3.820423826352294
 30
0.0
 11
33.08199999996839
 21
5.260423826352349
 31
0.0
  0
LINE
  5
1637E
  8
0
  6
CONTINUOUS
 10
31.64199999996833
 20
3.146904617272108
 30
0.0
 11
33.08199999996839
 21
4.586904617272163
 31
0.0
  0
LINE
  5
1637F
  8
0
  6
CONTINUOUS
 10
36.23199999996837
 20
8.410423826352327
 30
0.0
 11
36.58467617360729
 21
8.763099999991255
 31
0.0
  0
LINE
  5
16380
  8
0
  6
CONTINUOUS
 10
36.23199999996837
 20
7.73690461727214
 30
0.0
 11
37.25819538268748
 21
8.763099999991255
 31
0.0
  0
LINE
  5
16381
  8
0
  6
CONTINUOUS
 10
31.64323424774199
 20
2.474619655965573
 30
0.0
 11
33.08199999996839
 21
3.913385408191976
 31
0.0
  0
LINE
  5
16382
  8
0
  6
CONTINUOUS
 10
31.74419223861915
 20
1.902058437762552
 30
0.0
 11
33.08199999996839
 21
3.239866199111789
 31
0.0
  0
LINE
  5
16383
  8
0
  6
CONTINUOUS
 10
36.23199999996837
 20
7.063385408191953
 30
0.0
 11
37.67199999996831
 21
8.503385408191894
 31
0.0
  0
LINE
  5
16384
  8
0
  6
CONTINUOUS
 10
36.23199999996837
 20
6.389866199111767
 30
0.0
 11
37.67199999996831
 21
7.829866199111708
 31
0.0
  0
LINE
  5
16385
  8
0
  6
CONTINUOUS
 10
31.91111233414976
 20
1.39545932421297
 30
0.0
 11
33.08199999996839
 21
2.566346990031603
 31
0.0
  0
LINE
  5
16386
  8
0
  6
CONTINUOUS
 10
36.23199999996837
 20
5.71634699003158
 30
0.0
 11
37.67199999996831
 21
7.156346990031522
 31
0.0
  0
LINE
  5
16387
  8
0
  6
CONTINUOUS
 10
32.1576374746103
 20
0.9684652555933289
 30
0.0
 11
33.20642631446081
 21
2.017254095443838
 31
0.0
  0
LINE
  5
16388
  8
0
  6
CONTINUOUS
 10
36.23199999996837
 20
5.042827780951393
 30
0.0
 11
37.67199999996831
 21
6.482827780951334
 31
0.0
  0
LINE
  5
16389
  8
0
  6
CONTINUOUS
 10
32.47774023927325
 20
0.6150488111760914
 30
0.0
 11
33.49903056428258
 21
1.636339136185419
 31
0.0
  0
LINE
  5
1638A
  8
0
  6
CONTINUOUS
 10
36.23199999996837
 20
4.369308571871207
 30
0.0
 11
37.67199999996831
 21
5.809308571871148
 31
0.0
  0
LINE
  5
1638B
  8
0
  6
CONTINUOUS
 10
32.84396249154443
 20
0.3077518543670883
 30
0.0
 11
33.93324121824649
 21
1.397030581069146
 31
0.0
  0
LINE
  5
1638C
  8
0
  6
CONTINUOUS
 10
36.23199999996837
 20
3.695789362791021
 30
0.0
 11
37.67199999996831
 21
5.135789362790963
 31
0.0
  0
LINE
  5
1638D
  8
0
  6
CONTINUOUS
 10
33.30186329036846
 20
0.0921334441109263
 30
0.0
 11
34.46442907112041
 21
1.254699224862875
 31
0.0
  0
LINE
  5
1638E
  8
0
  6
CONTINUOUS
 10
36.23199999996837
 20
3.022270153710834
 30
0.0
 11
37.67199999996831
 21
4.462270153710776
 31
0.0
  0
LINE
  5
1638F
  8
0
  6
CONTINUOUS
 10
33.79565647746294
 20
-0.0875925778747773
 30
0.0
 11
35.24350171668284
 21
1.360252661345124
 31
0.0
  0
LINE
  5
16390
  8
0
  6
CONTINUOUS
 10
36.18336676155003
 20
2.300117706212308
 30
0.0
 11
37.67199999996831
 21
3.788750944630589
 31
0.0
  0
LINE
  5
16391
  8
0
  6
CONTINUOUS
 10
34.37182574910968
 20
-0.184942515308224
 30
0.0
 11
37.67199999996831
 21
3.115231735550402
 31
0.0
  0
LINE
  5
16392
  8
0
  6
CONTINUOUS
 10
35.0453449581892
 20
-0.1849425153088955
 30
0.0
 11
37.66345697088136
 21
2.433169497383271
 31
0.0
  0
LINE
  5
16393
  8
0
  6
CONTINUOUS
 10
35.98667157609191
 20
0.0828648935136398
 30
0.0
 11
37.51927401744566
 21
1.615467334867382
 31
0.0
  0
LINE
  5
16394
  8
0
  6
CONTINUOUS
 10
32.27747408544484
 20
0.7830920669904482
 30
0.0
 11
32.24716210471949
 21
0.8134040477157893
 31
0.0
  0
LINE
  5
16395
  8
0
  6
CONTINUOUS
 10
33.83656881101902
 20
-0.1024834495035494
 30
0.0
 11
31.72538911593758
 21
2.008696245577891
 31
0.0
  0
LINE
  5
16396
  8
0
  6
CONTINUOUS
 10
34.5925470859041
 20
-0.1849425153084434
 30
0.0
 11
31.64199999996833
 21
2.765604570627322
 31
0.0
  0
LINE
  5
16397
  8
0
  6
CONTINUOUS
 10
35.26201302775981
 20
-0.1808892480839752
 30
0.0
 11
31.64199999996833
 21
3.439123779707508
 31
0.0
  0
LINE
  5
16398
  8
0
  6
CONTINUOUS
 10
35.75580621485512
 20
-0.0011632260990879
 30
0.0
 11
34.51294304365551
 21
1.241699945100514
 31
0.0
  0
LINE
  5
16399
  8
0
  6
CONTINUOUS
 10
33.08199999996839
 20
2.672642988787641
 30
0.0
 11
31.64199999996833
 21
4.112642988787695
 31
0.0
  0
LINE
  5
1639A
  8
0
  6
CONTINUOUS
 10
36.24959940195042
 20
0.1785627958857976
 30
0.0
 11
35.10501653033629
 21
1.323145667499924
 31
0.0
  0
LINE
  5
1639B
  8
0
  6
CONTINUOUS
 10
33.08199999996839
 20
3.346162197867827
 30
0.0
 11
31.64199999996833
 21
4.786162197867881
 31
0.0
  0
LINE
  5
1639C
  8
0
  6
CONTINUOUS
 10
36.64615197150552
 20
0.4555294354108876
 30
0.0
 11
35.6362043832099
 21
1.465477023706505
 31
0.0
  0
LINE
  5
1639D
  8
0
  6
CONTINUOUS
 10
33.08199999996839
 20
4.019681406948013
 30
0.0
 11
31.64199999996833
 21
5.459681406948068
 31
0.0
  0
LINE
  5
1639E
  8
0
  6
CONTINUOUS
 10
37.0123742237774
 20
0.7628263922191891
 30
0.0
 11
35.97691545773309
 21
1.798285158263504
 31
0.0
  0
LINE
  5
1639F
  8
0
  6
CONTINUOUS
 10
33.08199999996839
 20
4.6932006160282
 30
0.0
 11
31.64199999996833
 21
6.133200616028255
 31
0.0
  0
LINE
  5
163A0
  8
0
  6
CONTINUOUS
 10
37.27491524157143
 20
1.173804583505349
 30
0.0
 11
36.17602012811361
 21
2.272699696963169
 31
0.0
  0
LINE
  5
163A1
  8
0
  6
CONTINUOUS
 10
33.08199999996839
 20
5.366719825108387
 30
0.0
 11
31.64199999996833
 21
6.806719825108441
 31
0.0
  0
LINE
  5
163A2
  8
0
  6
CONTINUOUS
 10
37.51739996707661
 20
1.604839067080355
 30
0.0
 11
36.23199999996837
 21
2.890239034188595
 31
0.0
  0
LINE
  5
163A3
  8
0
  6
CONTINUOUS
 10
37.6183579579535
 20
2.177400285283649
 30
0.0
 11
36.23199999996837
 21
3.563758243268782
 31
0.0
  0
LINE
  5
163A4
  8
0
  6
CONTINUOUS
 10
33.08199999996839
 20
6.040239034188573
 30
0.0
 11
31.64199999996833
 21
7.480239034188628
 31
0.0
  0
LINE
  5
163A5
  8
0
  6
CONTINUOUS
 10
33.08199999996839
 20
6.713758243268759
 30
0.0
 11
31.64199999996833
 21
8.153758243268815
 31
0.0
  0
LINE
  5
163A6
  8
0
  6
CONTINUOUS
 10
37.67199999996831
 20
2.797277452349027
 30
0.0
 11
36.23199999996837
 21
4.237277452348969
 31
0.0
  0
LINE
  5
163A7
  8
0
  6
CONTINUOUS
 10
37.67199999996831
 20
3.470796661429214
 30
0.0
 11
36.23199999996837
 21
4.910796661429155
 31
0.0
  0
LINE
  5
163A8
  8
0
  6
CONTINUOUS
 10
37.67199999996831
 20
4.1443158705094
 30
0.0
 11
36.23199999996837
 21
5.584315870509341
 31
0.0
  0
LINE
  5
163A9
  8
0
  6
CONTINUOUS
 10
33.08199999996839
 20
7.387277452348946
 30
0.0
 11
31.70617745232608
 21
8.763099999991255
 31
0.0
  0
LINE
  5
163AA
  8
0
  6
CONTINUOUS
 10
33.08199999996839
 20
8.060796661429134
 30
0.0
 11
32.37969666140626
 21
8.763099999991255
 31
0.0
  0
LINE
  5
163AB
  8
0
  6
CONTINUOUS
 10
33.08199999996839
 20
8.734315870509318
 30
0.0
 11
33.05321587048645
 21
8.763099999991255
 31
0.0
  0
LINE
  5
163AC
  8
0
  6
CONTINUOUS
 10
37.67199999996831
 20
4.817835079589586
 30
0.0
 11
36.23199999996837
 21
6.257835079589528
 31
0.0
  0
LINE
  5
163AD
  8
0
  6
CONTINUOUS
 10
37.67199999996831
 20
5.491354288669772
 30
0.0
 11
36.23199999996837
 21
6.931354288669715
 31
0.0
  0
LINE
  5
163AE
  8
0
  6
CONTINUOUS
 10
37.67199999996831
 20
6.164873497749959
 30
0.0
 11
36.23199999996837
 21
7.6048734977499
 31
0.0
  0
LINE
  5
163AF
  8
0
  6
CONTINUOUS
 10
37.67199999996831
 20
6.838392706830145
 30
0.0
 11
36.23199999996837
 21
8.278392706830086
 31
0.0
  0
LINE
  5
163B0
  8
0
  6
CONTINUOUS
 10
37.67199999996831
 20
7.511911915910333
 30
0.0
 11
36.42081191588738
 21
8.763099999991255
 31
0.0
  0
LINE
  5
163B1
  8
0
  6
CONTINUOUS
 10
37.67199999996831
 20
8.185431124990519
 30
0.0
 11
37.09433112496757
 21
8.763099999991255
 31
0.0
  0
ENDBLK
  5
16419
  8
0
  0
BLOCK
  8
0
  2
*X28
 70
     1
 10
0.0
 20
0.0
 30
0.0
  3
*X28
  1

  0
LINE
  5
163B3
  8
0
  6
CONTINUOUS
 10
38.60499999996136
 20
8.762866199104765
 30
0.0
 11
38.71672554182345
 21
8.874591740966855
 31
0.0
  0
LINE
  5
163B4
  8
0
  6
CONTINUOUS
 10
38.60499999996136
 20
8.089346990024577
 30
0.0
 11
39.03418785440363
 21
8.518534844466847
 31
0.0
  0
LINE
  5
163B5
  8
0
  6
CONTINUOUS
 10
38.60499999996136
 20
7.41582778094439
 30
0.0
 11
39.35165016698382
 21
8.16247794796684
 31
0.0
  0
LINE
  5
163B6
  8
0
  6
CONTINUOUS
 10
38.60499999996136
 20
6.742308571864204
 30
0.0
 11
39.66911247956399
 21
7.806421051466834
 31
0.0
  0
LINE
  5
163B7
  8
0
  6
CONTINUOUS
 10
38.60499999996136
 20
6.068789362784018
 30
0.0
 11
39.98657479214418
 21
7.450364154966827
 31
0.0
  0
LINE
  5
163B8
  8
0
  6
CONTINUOUS
 10
38.60499999996136
 20
5.395270153703832
 30
0.0
 11
40.30403710472435
 21
7.09430725846682
 31
0.0
  0
LINE
  5
163B9
  8
0
  6
CONTINUOUS
 10
38.60499999996136
 20
4.721750944623645
 30
0.0
 11
40.62149941730453
 21
6.738250361966813
 31
0.0
  0
LINE
  5
163BA
  8
0
  6
CONTINUOUS
 10
38.60499999996136
 20
4.048231735543458
 30
0.0
 11
40.93896172988471
 21
6.382193465466806
 31
0.0
  0
LINE
  5
163BB
  8
0
  6
CONTINUOUS
 10
38.60499999996136
 20
3.374712526463272
 30
0.0
 11
40.02599999995994
 21
4.795712526461843
 31
0.0
  0
LINE
  5
163BC
  8
0
  6
CONTINUOUS
 10
38.60499999996136
 20
2.701193317383085
 30
0.0
 11
40.02599999995994
 21
4.122193317381657
 31
0.0
  0
LINE
  5
163BD
  8
0
  6
CONTINUOUS
 10
40.28339754687704
 20
5.053110073378947
 30
0.0
 11
41.25642404246489
 21
6.026136568966799
 31
0.0
  0
LINE
  5
163BE
  8
0
  6
CONTINUOUS
 10
40.60085985945722
 20
4.697053176878939
 30
0.0
 11
41.57388635504507
 21
5.670079672466793
 31
0.0
  0
LINE
  5
163BF
  8
0
  6
CONTINUOUS
 10
43.57899999995641
 20
8.348712526458318
 30
0.0
 11
43.99338747348935
 21
8.763099999991255
 31
0.0
  0
LINE
  5
163C0
  8
0
  6
CONTINUOUS
 10
43.57899999995641
 20
7.675193317378131
 30
0.0
 11
44.66690668256953
 21
8.763099999991255
 31
0.0
  0
LINE
  5
163C1
  8
0
  6
CONTINUOUS
 10
38.60499999996136
 20
2.027674108302898
 30
0.0
 11
40.02599999995994
 21
3.44867410830147
 31
0.0
  0
LINE
  5
163C2
  8
0
  6
CONTINUOUS
 10
38.60499999996136
 20
1.354154899222712
 30
0.0
 11
40.02599999995994
 21
2.775154899221284
 31
0.0
  0
LINE
  5
163C3
  8
0
  6
CONTINUOUS
 10
38.60499999996136
 20
0.6806356901425255
 30
0.0
 11
40.02599999995994
 21
2.101635690141098
 31
0.0
  0
LINE
  5
163C4
  8
0
  6
CONTINUOUS
 10
38.60499999996136
 20
0.0071164810623383
 30
0.0
 11
40.02599999995994
 21
1.428116481060911
 31
0.0
  0
LINE
  5
163C5
  8
0
  6
CONTINUOUS
 10
40.9183221720374
 20
4.340996280378933
 30
0.0
 11
41.89134866762525
 21
5.314022775966786
 31
0.0
  0
LINE
  5
163C6
  8
0
  6
CONTINUOUS
 10
41.23578448461758
 20
3.984939383878926
 30
0.0
 11
42.20881098020543
 21
4.957965879466778
 31
0.0
  0
LINE
  5
163C7
  8
0
  6
CONTINUOUS
 10
41.55324679719776
 20
3.628882487378919
 30
0.0
 11
42.52627329278561
 21
4.601908982966772
 31
0.0
  0
LINE
  5
163C8
  8
0
  6
CONTINUOUS
 10
41.87070910977793
 20
3.272825590878912
 30
0.0
 11
42.84373560536579
 21
4.245852086466765
 31
0.0
  0
LINE
  5
163C9
  8
0
  6
CONTINUOUS
 10
43.57899999995641
 20
7.001674108297943
 30
0.0
 11
44.99999999995498
 21
8.422674108296516
 31
0.0
  0
LINE
  5
163CA
  8
0
  6
CONTINUOUS
 10
43.57899999995641
 20
6.328154899217758
 30
0.0
 11
44.99999999995498
 21
7.749154899216329
 31
0.0
  0
LINE
  5
163CB
  8
0
  6
CONTINUOUS
 10
43.57899999995641
 20
5.654635690137571
 30
0.0
 11
44.99999999995498
 21
7.075635690136142
 31
0.0
  0
LINE
  5
163CC
  8
0
  6
CONTINUOUS
 10
43.57899999995641
 20
4.981116481057384
 30
0.0
 11
44.99999999995498
 21
6.402116481055955
 31
0.0
  0
LINE
  5
163CD
  8
0
  6
CONTINUOUS
 10
39.27140272797921
 20
-0.0000000000000009
 30
0.0
 11
40.02599999995994
 21
0.7545972719807246
 31
0.0
  0
LINE
  5
163CE
  8
0
  6
CONTINUOUS
 10
39.9449219370594
 20
-0.0000000000000009
 30
0.0
 11
40.02599999995994
 21
0.0810780629005379
 31
0.0
  0
LINE
  5
163CF
  8
0
  6
CONTINUOUS
 10
42.18817142235812
 20
2.916768694378905
 30
0.0
 11
43.16119791794597
 21
3.889795189966758
 31
0.0
  0
LINE
  5
163D0
  8
0
  6
CONTINUOUS
 10
42.50563373493829
 20
2.560711797878898
 30
0.0
 11
43.47866023052615
 21
3.533738293466751
 31
0.0
  0
LINE
  5
163D1
  8
0
  6
CONTINUOUS
 10
43.57899999995641
 20
4.307597271977198
 30
0.0
 11
44.99999999995498
 21
5.728597271975769
 31
0.0
  0
LINE
  5
163D2
  8
0
  6
CONTINUOUS
 10
43.57899999995641
 20
3.634078062897011
 30
0.0
 11
44.99999999995498
 21
5.055078062895582
 31
0.0
  0
LINE
  5
163D3
  8
0
  6
CONTINUOUS
 10
42.82309604751848
 20
2.204654901378891
 30
0.0
 11
44.99999999995498
 21
4.381558853815395
 31
0.0
  0
LINE
  5
163D4
  8
0
  6
CONTINUOUS
 10
43.14055836009865
 20
1.848598004878885
 30
0.0
 11
44.99999999995498
 21
3.70803964473521
 31
0.0
  0
LINE
  5
163D5
  8
0
  6
CONTINUOUS
 10
43.45802067267883
 20
1.492541108378878
 30
0.0
 11
44.99999999995498
 21
3.034520435655023
 31
0.0
  0
LINE
  5
163D6
  8
0
  6
CONTINUOUS
 10
43.77548298525902
 20
1.136484211878871
 30
0.0
 11
44.99999999995498
 21
2.361001226574837
 31
0.0
  0
LINE
  5
163D7
  8
0
  6
CONTINUOUS
 10
44.09294529783919
 20
0.7804273153788639
 30
0.0
 11
44.99999999995498
 21
1.687482017494649
 31
0.0
  0
LINE
  5
163D8
  8
0
  6
CONTINUOUS
 10
44.41040761041938
 20
0.4243704188788566
 30
0.0
 11
44.99999999995498
 21
1.013962808414463
 31
0.0
  0
LINE
  5
163D9
  8
0
  6
CONTINUOUS
 10
44.72786992299955
 20
0.0683135223788494
 30
0.0
 11
44.99999999995498
 21
0.340443599334276
 31
0.0
  0
LINE
  5
163DA
  8
0
  6
CONTINUOUS
 10
39.12223903415696
 20
-0.0000000000000009
 30
0.0
 11
38.60499999996136
 21
0.5172390341955961
 31
0.0
  0
LINE
  5
163DB
  8
0
  6
CONTINUOUS
 10
39.79575824323715
 20
-0.0000000000000009
 30
0.0
 11
38.60499999996136
 21
1.190758243275783
 31
0.0
  0
LINE
  5
163DC
  8
0
  6
CONTINUOUS
 10
40.02599999995994
 20
0.443277452357397
 30
0.0
 11
38.60499999996136
 21
1.864277452355969
 31
0.0
  0
LINE
  5
163DD
  8
0
  6
CONTINUOUS
 10
40.02599999995994
 20
1.116796661437583
 30
0.0
 11
38.60499999996136
 21
2.537796661436155
 31
0.0
  0
LINE
  5
163DE
  8
0
  6
CONTINUOUS
 10
40.02599999995994
 20
1.79031587051777
 30
0.0
 11
38.60499999996136
 21
3.211315870516341
 31
0.0
  0
LINE
  5
163DF
  8
0
  6
CONTINUOUS
 10
40.02599999995994
 20
2.463835079597956
 30
0.0
 11
38.60499999996136
 21
3.884835079596527
 31
0.0
  0
LINE
  5
163E0
  8
0
  6
CONTINUOUS
 10
40.02599999995994
 20
3.137354288678143
 30
0.0
 11
38.60499999996136
 21
4.558354288676714
 31
0.0
  0
LINE
  5
163E1
  8
0
  6
CONTINUOUS
 10
40.02599999995994
 20
3.810873497758329
 30
0.0
 11
38.60499999996136
 21
5.2318734977569
 31
0.0
  0
LINE
  5
163E2
  8
0
  6
CONTINUOUS
 10
40.02599999995994
 20
4.484392706838515
 30
0.0
 11
38.60499999996136
 21
5.905392706837086
 31
0.0
  0
LINE
  5
163E3
  8
0
  6
CONTINUOUS
 10
44.99999999995498
 20
0.183911915923658
 30
0.0
 11
41.53858364506288
 21
3.64532827081576
 31
0.0
  0
LINE
  5
163E4
  8
0
  6
CONTINUOUS
 10
40.02599999995994
 20
5.157911915918703
 30
0.0
 11
38.60499999996136
 21
6.578911915917274
 31
0.0
  0
LINE
  5
163E5
  8
0
  6
CONTINUOUS
 10
44.99999999995498
 20
0.8574311250038447
 30
0.0
 11
38.60499999996136
 21
7.25243112499746
 31
0.0
  0
LINE
  5
163E6
  8
0
  6
CONTINUOUS
 10
44.99999999995498
 20
1.530950334084031
 30
0.0
 11
38.60499999996136
 21
7.925950334077647
 31
0.0
  0
LINE
  5
163E7
  8
0
  6
CONTINUOUS
 10
44.99999999995498
 20
2.204469543164218
 30
0.0
 11
43.57899999995641
 21
3.625469543162789
 31
0.0
  0
LINE
  5
163E8
  8
0
  6
CONTINUOUS
 10
41.89876730984767
 20
5.305702233271528
 30
0.0
 11
38.60499999996136
 21
8.599469543157834
 31
0.0
  0
LINE
  5
163E9
  8
0
  6
CONTINUOUS
 10
44.99999999995498
 20
2.877988752244405
 30
0.0
 11
43.57899999995641
 21
4.298988752242975
 31
0.0
  0
LINE
  5
163EA
  8
0
  6
CONTINUOUS
 10
44.99999999995498
 20
3.551507961324591
 30
0.0
 11
43.57899999995641
 21
4.972507961323163
 31
0.0
  0
LINE
  5
163EB
  8
0
  6
CONTINUOUS
 10
44.99999999995498
 20
4.225027170404777
 30
0.0
 11
43.57899999995641
 21
5.646027170403348
 31
0.0
  0
LINE
  5
163EC
  8
0
  6
CONTINUOUS
 10
44.99999999995498
 20
4.898546379484964
 30
0.0
 11
43.57899999995641
 21
6.319546379483535
 31
0.0
  0
LINE
  5
163ED
  8
0
  6
CONTINUOUS
 10
44.99999999995498
 20
5.572065588565151
 30
0.0
 11
43.57899999995641
 21
6.993065588563722
 31
0.0
  0
LINE
  5
163EE
  8
0
  6
CONTINUOUS
 10
44.99999999995498
 20
6.245584797645336
 30
0.0
 11
43.57899999995641
 21
7.666584797643908
 31
0.0
  0
LINE
  5
163EF
  8
0
  6
CONTINUOUS
 10
44.99999999995498
 20
6.919104006725522
 30
0.0
 11
43.57899999995641
 21
8.340104006724093
 31
0.0
  0
LINE
  5
163F0
  8
0
  6
CONTINUOUS
 10
44.99999999995498
 20
7.592623215805709
 30
0.0
 11
43.82952321576943
 21
8.763099999991255
 31
0.0
  0
LINE
  5
163F1
  8
0
  6
CONTINUOUS
 10
44.99999999995498
 20
8.266142424885896
 30
0.0
 11
44.50304242484962
 21
8.763099999991255
 31
0.0
  0
ENDBLK
  5
1641B
  8
0
  0
BLOCK
  8
0
  2
*X29
 70
     1
 10
0.0
 20
0.0
 30
0.0
  3
*X29
  1

  0
LINE
  5
163F3
  8
0
  6
CONTINUOUS
 10
0.0
 20
8.548461116714023
 30
0.0
 11
0.2146388832772324
 21
8.763099999991255
 31
0.0
  0
LINE
  5
163F4
  8
0
  6
CONTINUOUS
 10
-0.0000000000000002
 20
7.874941907633837
 30
0.0
 11
0.8881580923574184
 21
8.763099999991255
 31
0.0
  0
LINE
  5
163F5
  8
0
  6
CONTINUOUS
 10
0.0
 20
7.20142269855365
 30
0.0
 11
1.420999999998572
 21
8.622422698552223
 31
0.0
  0
LINE
  5
163F6
  8
0
  6
CONTINUOUS
 10
-0.0000000000000001
 20
6.527903489473465
 30
0.0
 11
1.420999999998571
 21
7.948903489472036
 31
0.0
  0
LINE
  5
163F7
  8
0
  6
CONTINUOUS
 10
-0.0000000000000002
 20
5.854384280393278
 30
0.0
 11
1.420999999998571
 21
7.275384280391849
 31
0.0
  0
LINE
  5
163F8
  8
0
  6
CONTINUOUS
 10
-0.0000000000000002
 20
5.180865071313091
 30
0.0
 11
1.420999999998571
 21
6.601865071311663
 31
0.0
  0
LINE
  5
163F9
  8
0
  6
CONTINUOUS
 10
0.0
 20
4.507345862232905
 30
0.0
 11
1.420999999998571
 21
5.928345862231477
 31
0.0
  0
LINE
  5
163FA
  8
0
  6
CONTINUOUS
 10
-0.0000000000000003
 20
3.833826653152718
 30
0.0
 11
1.420999999998571
 21
5.25482665315129
 31
0.0
  0
LINE
  5
163FB
  8
0
  6
CONTINUOUS
 10
-0.0000000000000002
 20
3.160307444072532
 30
0.0
 11
1.420999999998571
 21
4.581307444071103
 31
0.0
  0
LINE
  5
163FC
  8
0
  6
CONTINUOUS
 10
-0.0000000000000001
 20
2.486788234992345
 30
0.0
 11
1.420999999998571
 21
3.907788234990917
 31
0.0
  0
LINE
  5
163FD
  8
0
  6
CONTINUOUS
 10
-0.0000000000000006
 20
1.813269025912159
 30
0.0
 11
1.420999999998571
 21
3.234269025910731
 31
0.0
  0
LINE
  5
163FE
  8
0
  6
CONTINUOUS
 10
0.0
 20
1.139749816831973
 30
0.0
 11
1.420999999998571
 21
2.560749816830544
 31
0.0
  0
LINE
  5
163FF
  8
0
  6
CONTINUOUS
 10
0.0000000000000002
 20
0.466230607751787
 30
0.0
 11
1.420999999998571
 21
1.887230607750358
 31
0.0
  0
LINE
  5
16400
  8
0
  6
CONTINUOUS
 10
0.2072886013284003
 20
-0.0000000000000009
 30
0.0
 11
1.420999999998571
 21
1.213711398670171
 31
0.0
  0
LINE
  5
16401
  8
0
  6
CONTINUOUS
 10
0.8808078104085864
 20
-0.0000000000000009
 30
0.0
 11
1.420999999998571
 21
0.5401921895899839
 31
0.0
  0
LINE
  5
16402
  8
0
  6
CONTINUOUS
 10
0.0581249075061505
 20
-0.0000000000000009
 30
0.0
 11
-0.0000000000000002
 21
0.0581249075061496
 31
0.0
  0
LINE
  5
16403
  8
0
  6
CONTINUOUS
 10
0.7316441165863372
 20
-0.0000000000000009
 30
0.0
 11
-0.0000000000000002
 21
0.7316441165863363
 31
0.0
  0
LINE
  5
16404
  8
0
  6
CONTINUOUS
 10
1.405163325666523
 20
-0.0000000000000009
 30
0.0
 11
-0.0000000000000002
 21
1.405163325666523
 31
0.0
  0
LINE
  5
16405
  8
0
  6
CONTINUOUS
 10
1.420999999998572
 20
0.6576825347481381
 30
0.0
 11
-0.0000000000000001
 21
2.07868253474671
 31
0.0
  0
LINE
  5
16406
  8
0
  6
CONTINUOUS
 10
1.420999999998571
 20
1.331201743828324
 30
0.0
 11
-0.0000000000000001
 21
2.752201743826896
 31
0.0
  0
LINE
  5
16407
  8
0
  6
CONTINUOUS
 10
1.420999999998571
 20
2.004720952908511
 30
0.0
 11
-0.0000000000000002
 21
3.425720952907082
 31
0.0
  0
LINE
  5
16408
  8
0
  6
CONTINUOUS
 10
1.420999999998571
 20
2.678240161988697
 30
0.0
 11
-0.0000000000000001
 21
4.099240161987269
 31
0.0
  0
LINE
  5
16409
  8
0
  6
CONTINUOUS
 10
1.420999999998572
 20
3.351759371068884
 30
0.0
 11
0.0
 21
4.772759371067455
 31
0.0
  0
LINE
  5
1640A
  8
0
  6
CONTINUOUS
 10
1.420999999998571
 20
4.02527858014907
 30
0.0
 11
-0.0000000000000003
 21
5.446278580147642
 31
0.0
  0
LINE
  5
1640B
  8
0
  6
CONTINUOUS
 10
1.420999999998571
 20
4.698797789229257
 30
0.0
 11
0.0
 21
6.119797789227828
 31
0.0
  0
LINE
  5
1640C
  8
0
  6
CONTINUOUS
 10
1.420999999998571
 20
5.372316998309444
 30
0.0
 11
-0.0000000000000001
 21
6.793316998308015
 31
0.0
  0
LINE
  5
1640D
  8
0
  6
CONTINUOUS
 10
1.420999999998572
 20
6.045836207389629
 30
0.0
 11
-0.0000000000000004
 21
7.466836207388202
 31
0.0
  0
LINE
  5
1640E
  8
0
  6
CONTINUOUS
 10
1.420999999998571
 20
6.719355416469816
 30
0.0
 11
0.0
 21
8.140355416468388
 31
0.0
  0
LINE
  5
1640F
  8
0
  6
CONTINUOUS
 10
1.420999999998571
 20
7.392874625550003
 30
0.0
 11
0.0507746255573185
 21
8.763099999991255
 31
0.0
  0
LINE
  5
16410
  8
0
  6
CONTINUOUS
 10
1.420999999998571
 20
8.06639383463019
 30
0.0
 11
0.7242938346375052
 21
8.763099999991255
 31
0.0
  0
LINE
  5
16411
  8
0
  6
CONTINUOUS
 10
1.420999999998571
 20
8.739913043710375
 30
0.0
 11
1.397813043717691
 21
8.763099999991255
 31
0.0
  0
ENDBLK
  5
1641D
  8
0
  0
ENDSEC
  0
SECTION
  2
ENTITIES
  0
LINE
  5
14FC0
  8
1PHANTOM
 10
187.3455778297721
 20
-2785.836558332152
 30
0.0
 11
187.3455778297716
 21
-2775.984316996201
 31
0.0
  0
LINE
  5
14FC1
  8
01
 10
187.3455778297719
 20
-2775.984316996201
 30
0.0
 11
187.3455778297721
 21
-2764.180469418907
 31
0.0
  0
ARC
  5
14FC3
  8
1PHANTOM
 10
186.3455778297721
 20
-2785.836558332152
 30
0.0
 40
1.0
 50
270.0
 51
0.0
  0
LINE
  5
14FC4
  8
1PHANTOM
 10
137.3455778297725
 20
-2785.836558332152
 30
0.0
 11
137.3455778297719
 21
-2775.984316996201
 31
0.0
  0
LINE
  5
14FC5
  8
01
 10
137.3455778297723
 20
-2775.984316996201
 30
0.0
 11
137.3455778297721
 21
-2764.180469418907
 31
0.0
  0
ARC
  5
14FC7
  8
1PHANTOM
 10
138.3455778297725
 20
-2785.836558332152
 30
0.0
 40
1.0
 50
180.0
 51
270.0
  0
LINE
  5
14FC8
  8
1PHANTOM
 10
138.3455778297721
 20
-2758.238482120799
 30
0.0
 11
186.3455778297721
 21
-2758.238482120799
 31
0.0
  0
LINE
  5
14FC9
  8
1PHANTOM
 10
138.3455778297725
 20
-2786.836558332152
 30
0.0
 11
186.3455778297721
 21
-2786.836558332152
 31
0.0
  0
LINE
  5
14FD3
  8
1CENTER
 10
176.8455778297734
 20
-2769.836558332152
 30
0.0
 11
185.8455778297734
 21
-2769.836558332152
 31
0.0
  0
LINE
  5
14FD4
  8
1CENTER
 10
181.3455778297734
 20
-2774.336558332152
 30
0.0
 11
181.3455778297734
 21
-2765.336558332152
 31
0.0
  0
POLYLINE
  5
14FE7
  8
1PHANTOM
 66
     1
 10
0.0
 20
0.0
 30
0.0
  0
VERTEX
  5
16206
  8
1PHANTOM
 10
187.3455778297721
 20
-2758.738482120799
 30
0.0
  0
VERTEX
  5
16207
  8
1PHANTOM
 10
187.3263631101753
 20
-2758.640936959791
 30
0.0
  0
VERTEX
  5
16208
  8
1PHANTOM
 10
187.2694573622834
 20
-2758.547140404616
 30
0.0
  0
VERTEX
  5
16209
  8
1PHANTOM
 10
187.1770474420746
 20
-2758.460697004289
 30
0.0
  0
VERTEX
  5
1620A
  8
1PHANTOM
 10
187.0526846109586
 20
-2758.384928730206
 30
0.0
  0
VERTEX
  5
1620B
  8
1PHANTOM
 10
186.9011480627917
 20
-2758.322747314648
 30
0.0
  0
VERTEX
  5
1620C
  8
1PHANTOM
 10
186.7282612621372
 20
-2758.276542354543
 30
0.0
  0
VERTEX
  5
1620D
  8
1PHANTOM
 10
186.5406681517882
 20
-2758.248089480597
 30
0.0
  0
VERTEX
  5
1620E
  8
1PHANTOM
 10
186.3455778297721
 20
-2758.238482120799
 30
0.0
  0
SEQEND
  5
1641E
  8
1PHANTOM
  0
POLYLINE
  5
14FE9
  8
1PHANTOM
 66
     1
 10
0.0
 20
0.0
 30
0.0
  0
VERTEX
  5
1620F
  8
1PHANTOM
 10
137.3455778297721
 20
-2758.738482120799
 30
0.0
  0
VERTEX
  5
16210
  8
1PHANTOM
 10
137.3647925493688
 20
-2758.640936959791
 30
0.0
  0
VERTEX
  5
16211
  8
1PHANTOM
 10
137.4216982972608
 20
-2758.547140404616
 30
0.0
  0
VERTEX
  5
16212
  8
1PHANTOM
 10
137.5141082174695
 20
-2758.460697004289
 30
0.0
  0
VERTEX
  5
16213
  8
1PHANTOM
 10
137.6384710485855
 20
-2758.384928730206
 30
0.0
  0
VERTEX
  5
16214
  8
1PHANTOM
 10
137.7900075967525
 20
-2758.322747314648
 30
0.0
  0
VERTEX
  5
16215
  8
1PHANTOM
 10
137.962894397407
 20
-2758.276542354543
 30
0.0
  0
VERTEX
  5
16216
  8
1PHANTOM
 10
138.1504875077559
 20
-2758.248089480597
 30
0.0
  0
VERTEX
  5
16217
  8
1PHANTOM
 10
138.3455778297721
 20
-2758.238482120799
 30
0.0
  0
SEQEND
  5
1641F
  8
1PHANTOM
  0
LINE
  5
14FEA
  8
01
 10
57.34557782977231
 20
-2752.582393207554
 30
0.0
 11
57.34557782977208
 21
-2787.582393207554
 31
0.0
  0
ARC
  5
14FEB
  8
01
 10
57.84557782977208
 20
-2787.582393207554
 30
0.0
 40
0.5
 50
180.0
 51
270.0
  0
ARC
  5
14FEC
  8
01
 10
57.84557782977231
 20
-2752.582393207554
 30
0.0
 40
0.5
 50
90.0
 51
180.0
  0
LINE
  5
14FED
  8
01
 10
267.3455778297725
 20
-2752.582393207554
 30
0.0
 11
267.3455778297725
 21
-2787.582393207554
 31
0.0
  0
LINE
  5
14FEF
  8
01
 10
266.8455778297725
 20
-2752.082393207554
 30
0.0
 11
57.84557782977231
 21
-2752.082393207554
 31
0.0
  0
ARC
  5
14FF0
  8
01
 10
266.8455778297725
 20
-2752.582393207554
 30
0.0
 40
0.5
 50
0.0
 51
90.0
  0
LINE
  5
14FF1
  8
01
 10
266.8455778297725
 20
-2788.082393207554
 30
0.0
 11
57.84557782977208
 21
-2788.082393207554
 31
0.0
  0
LINE
  5
14FF2
  8
01
 10
77.34557782977231
 20
-2762.037920175541
 30
0.0
 11
77.34557782977231
 21
-2772.301304294308
 31
0.0
  0
LINE
  5
14FF3
  8
01
 10
247.3455778297721
 20
-2762.037920175541
 30
0.0
 11
247.3455778297721
 21
-2772.301304294308
 31
0.0
  0
LINE
  5
14FF4
  8
01
 10
240.3455778297721
 20
-2775.984316996201
 30
0.0
 11
84.34557782977208
 21
-2775.984316996201
 31
0.0
  0
LINE
  5
14FF5
  8
01
 10
240.3455778297721
 20
-2758.354907473649
 30
0.0
 11
84.34557782977208
 21
-2758.354907473649
 31
0.0
  0
LINE
  5
14FF6
  8
01
 10
84.34557782977208
 20
-2764.180469418907
 30
0.0
 11
240.3455778297721
 21
-2764.180469418907
 31
0.0
  0
POLYLINE
  5
14FF7
  8
01
 66
     1
 10
0.0
 20
0.0
 30
0.0
  0
VERTEX
  5
16218
  8
01
 10
240.3455778297721
 20
-2775.9843169962
 30
0.0
  0
VERTEX
  5
16219
  8
01
 10
241.711210083885
 20
-2775.913548939862
 30
0.0
  0
VERTEX
  5
1621A
  8
01
 10
243.0243618563277
 20
-2775.703964347565
 30
0.0
  0
VERTEX
  5
1621B
  8
01
 10
244.2345694609093
 20
-2775.363617437655
 30
0.0
  0
VERTEX
  5
1621C
  8
01
 10
245.2953252980779
 20
-2774.905587551012
 30
0.0
  0
VERTEX
  5
1621D
  8
01
 10
246.1658651158899
 20
-2774.347476519312
 30
0.0
  0
VERTEX
  5
1621E
  8
01
 10
246.8127345573511
 20
-2773.710732236512
 30
0.0
  0
VERTEX
  5
1621F
  8
01
 10
247.2110747925947
 20
-2773.019824428309
 30
0.0
  0
VERTEX
  5
16220
  8
01
 10
247.3455778297721
 20
-2772.301304294308
 30
0.0
  0
SEQEND
  5
16420
  8
01
  0
POLYLINE
  5
14FF8
  8
01
 66
     1
 10
0.0
 20
0.0
 30
0.0
  0
VERTEX
  5
16221
  8
01
 10
84.34557782977208
 20
-2775.9843169962
 30
0.0
  0
VERTEX
  5
16222
  8
01
 10
82.97994557565919
 20
-2775.913548939862
 30
0.0
  0
VERTEX
  5
16223
  8
01
 10
81.66679380321645
 20
-2775.703964347565
 30
0.0
  0
VERTEX
  5
16224
  8
01
 10
80.45658619863487
 20
-2775.363617437655
 30
0.0
  0
VERTEX
  5
16225
  8
01
 10
79.39583036146625
 20
-2774.905587551012
 30
0.0
  0
VERTEX
  5
16226
  8
01
 10
78.52529054365426
 20
-2774.347476519312
 30
0.0
  0
VERTEX
  5
16227
  8
01
 10
77.87842110219307
 20
-2773.710732236512
 30
0.0
  0
VERTEX
  5
16228
  8
01
 10
77.48008086694948
 20
-2773.019824428309
 30
0.0
  0
VERTEX
  5
16229
  8
01
 10
77.34557782977208
 20
-2772.301304294308
 30
0.0
  0
SEQEND
  5
16421
  8
01
  0
POLYLINE
  5
14FF9
  8
01
 66
     1
 10
0.0
 20
0.0
 30
0.0
  0
VERTEX
  5
1622A
  8
01
 10
240.3455778297721
 20
-2758.354907473649
 30
0.0
  0
VERTEX
  5
1622B
  8
01
 10
241.711210083885
 20
-2758.425675529987
 30
0.0
  0
VERTEX
  5
1622C
  8
01
 10
243.0243618563277
 20
-2758.635260122284
 30
0.0
  0
VERTEX
  5
1622D
  8
01
 10
244.2345694609093
 20
-2758.975607032194
 30
0.0
  0
VERTEX
  5
1622E
  8
01
 10
245.2953252980779
 20
-2759.433636918837
 30
0.0
  0
VERTEX
  5
1622F
  8
01
 10
246.1658651158899
 20
-2759.991747950537
 30
0.0
  0
VERTEX
  5
16230
  8
01
 10
246.8127345573511
 20
-2760.628492233337
 30
0.0
  0
VERTEX
  5
16231
  8
01
 10
247.2110747925947
 20
-2761.31940004154
 30
0.0
  0
VERTEX
  5
16232
  8
01
 10
247.3455778297721
 20
-2762.037920175541
 30
0.0
  0
SEQEND
  5
16422
  8
01
  0
POLYLINE
  5
14FFA
  8
01
 66
     1
 10
0.0
 20
0.0
 30
0.0
  0
VERTEX
  5
16233
  8
01
 10
84.34557782977208
 20
-2758.354907473649
 30
0.0
  0
VERTEX
  5
16234
  8
01
 10
82.97994557565919
 20
-2758.425675529987
 30
0.0
  0
VERTEX
  5
16235
  8
01
 10
81.66679380321645
 20
-2758.635260122284
 30
0.0
  0
VERTEX
  5
16236
  8
01
 10
80.45658619863487
 20
-2758.975607032194
 30
0.0
  0
VERTEX
  5
16237
  8
01
 10
79.39583036146625
 20
-2759.433636918837
 30
0.0
  0
VERTEX
  5
16238
  8
01
 10
78.52529054365426
 20
-2759.991747950537
 30
0.0
  0
VERTEX
  5
16239
  8
01
 10
77.87842110219307
 20
-2760.628492233337
 30
0.0
  0
VERTEX
  5
1623A
  8
01
 10
77.48008086694948
 20
-2761.31940004154
 30
0.0
  0
VERTEX
  5
1623B
  8
01
 10
77.34557782977208
 20
-2762.037920175541
 30
0.0
  0
SEQEND
  5
16423
  8
01
  0
POLYLINE
  5
14FFB
  8
01
 66
     1
 10
0.0
 20
0.0
 30
0.0
  0
VERTEX
  5
1623C
  8
01
 10
240.3455778297721
 20
-2764.180469418906
 30
0.0
  0
VERTEX
  5
1623D
  8
01
 10
241.711210083885
 20
-2764.251237475245
 30
0.0
  0
VERTEX
  5
1623E
  8
01
 10
243.0243618563277
 20
-2764.460822067541
 30
0.0
  0
VERTEX
  5
1623F
  8
01
 10
244.2345694609093
 20
-2764.801168977451
 30
0.0
  0
VERTEX
  5
16240
  8
01
 10
245.2953252980779
 20
-2765.259198864095
 30
0.0
  0
VERTEX
  5
16241
  8
01
 10
246.1658651158899
 20
-2765.817309895795
 30
0.0
  0
VERTEX
  5
16242
  8
01
 10
246.8127345573511
 20
-2766.454054178595
 30
0.0
  0
VERTEX
  5
16243
  8
01
 10
247.2110747925947
 20
-2767.144961986797
 30
0.0
  0
VERTEX
  5
16244
  8
01
 10
247.3455778297721
 20
-2767.863482120799
 30
0.0
  0
SEQEND
  5
16424
  8
01
  0
POLYLINE
  5
14FFC
  8
01
 66
     1
 10
0.0
 20
0.0
 30
0.0
  0
VERTEX
  5
16245
  8
01
 10
84.34557782977208
 20
-2764.180469418906
 30
0.0
  0
VERTEX
  5
16246
  8
01
 10
82.97994557565919
 20
-2764.251237475245
 30
0.0
  0
VERTEX
  5
16247
  8
01
 10
81.66679380321645
 20
-2764.460822067541
 30
0.0
  0
VERTEX
  5
16248
  8
01
 10
80.45658619863487
 20
-2764.801168977451
 30
0.0
  0
VERTEX
  5
16249
  8
01
 10
79.39583036146625
 20
-2765.259198864095
 30
0.0
  0
VERTEX
  5
1624A
  8
01
 10
78.52529054365426
 20
-2765.817309895795
 30
0.0
  0
VERTEX
  5
1624B
  8
01
 10
77.87842110219307
 20
-2766.454054178595
 30
0.0
  0
VERTEX
  5
1624C
  8
01
 10
77.48008086694948
 20
-2767.144961986797
 30
0.0
  0
VERTEX
  5
1624D
  8
01
 10
77.34557782977208
 20
-2767.863482120799
 30
0.0
  0
SEQEND
  5
16425
  8
01
  0
LINE
  5
14FFE
  8
1PHANTOM
 10
137.3455778297721
 20
-2764.180469418907
 30
0.0
 11
137.3455778297721
 21
-2758.738482120799
 31
0.0
  0
LINE
  5
15004
  8
1CENTER
 10
147.8455778297707
 20
-2769.836558332152
 30
0.0
 11
138.8455778297707
 21
-2769.836558332152
 31
0.0
  0
LINE
  5
15005
  8
1CENTER
 10
143.3455778297707
 20
-2774.336558332152
 30
0.0
 11
143.3455778297707
 21
-2765.336558332152
 31
0.0
  0
LINE
  5
151BE
  8
01
 10
352.825124062312
 20
-2758.613440082169
 30
0.0
 11
344.381303562371
 21
-2763.488482120799
 31
0.0
  0
LINE
  5
151C3
  8
01
 10
299.095650642815
 20
-2781.551262255678
 30
0.0
 11
349.3251240623125
 21
-2752.551262255678
 31
0.0
  0
LINE
  5
151C5
  8
01
 10
302.595650642815
 20
-2787.613440082169
 30
0.0
 11
352.8251240623125
 21
-2758.613440082169
 31
0.0
  0
ARC
  5
151C8
  8
01
 10
300.845650642815
 20
-2784.582351168923
 30
0.0
 40
3.5
 50
119.9999999999997
 51
299.9999999999995
  0
ARC
  5
151C9
  8
01
 10
351.0751240623125
 20
-2755.582351168923
 30
0.0
 40
3.5
 50
299.9999999999995
 51
119.9999999999997
  0
LINE
  5
151CD
  8
01
 10
359.974570302107
 20
-2786.836558332153
 30
0.0
 11
359.9745703021065
 21
-2760.836558332153
 31
0.0
  0
LINE
  5
151CE
  8
01
 10
359.9745703021065
 20
-2760.836558332153
 30
0.0
 11
356.7066211096752
 21
-2760.836558332153
 31
0.0
  0
ARC
  5
151CF
  8
01
 10
356.7066211096752
 20
-2757.836558332153
 30
0.0
 40
3.0
 50
210.0000000000151
 51
270.0
  0
LINE
  5
151D0
  8
01
 10
354.108544898322
 20
-2759.336558332153
 30
0.0
 11
353.4745703021061
 21
-2758.2384821208
 31
0.0
  0
LINE
  5
151D1
  8
01
 10
353.4745703021061
 20
-2758.2384821208
 30
0.0
 11
344.3813035623696
 21
-2763.4884821208
 31
0.0
  0
LINE
  5
151D2
  8
01
 10
344.3813035623696
 20
-2763.4884821208
 30
0.0
 11
357.5726465134597
 21
-2786.336558332153
 31
0.0
  0
ARC
  5
151D3
  8
01
 10
358.4386719172442
 20
-2785.836558332153
 30
0.0
 40
1.0
 50
210.0000000000151
 51
270.0
  0
LINE
  5
151D4
  8
01
 10
359.9745703021065
 20
-2786.836558332153
 30
0.0
 11
358.4386719172442
 21
-2786.836558332153
 31
0.0
  0
LINE
  5
151D6
  8
1CENTER
 10
353.4745703021079
 20
-2769.836558332152
 30
0.0
 11
345.5035130950891
 21
-2769.836558332152
 31
0.0
  0
LINE
  5
15285
  8
01
 10
266.8455778297725
 20
-2619.196305288991
 30
0.0
 11
57.8455778297722
 21
-2619.196305288991
 31
0.0
  0
LINE
  5
15286
  8
01
 10
137.3455778297722
 20
-2613.796713601534
 30
0.0
 11
187.345577829772
 21
-2613.796713601534
 31
0.0
  0
LINE
  5
15287
  8
01
 10
266.8455778297725
 20
-2676.173513903932
 30
0.0
 11
57.8455778297722
 21
-2676.173513903932
 31
0.0
  0
LINE
  5
15289
  8
01
 10
240.3455778297721
 20
-2664.716341117304
 30
0.0
 11
84.34557782977262
 21
-2664.716341117304
 31
0.0
  0
LINE
  5
1528A
  8
01
 10
240.3455778297721
 20
-2634.405451984849
 30
0.0
 11
84.34557782977211
 21
-2634.405451984848
 31
0.0
  0
LINE
  5
1528B
  8
01
 10
267.3455778297725
 20
-2619.696305288991
 30
0.0
 11
267.3455778297725
 21
-2675.673513903932
 31
0.0
  0
LINE
  5
1528C
  8
01
 10
57.3455778297722
 20
-2675.673513903932
 30
0.0
 11
57.3455778297722
 21
-2619.696305288991
 31
0.0
  0
LINE
  5
1528D
  8
01
 10
77.34557782977231
 20
-2640.46762981134
 30
0.0
 11
77.34557782977231
 21
-2658.654163290813
 31
0.0
  0
LINE
  5
1528E
  8
01
 10
247.3455778297721
 20
-2640.46762981134
 30
0.0
 11
247.3455778297721
 21
-2658.654163290813
 31
0.0
  0
LINE
  5
1528F
  8
01
 10
187.345577829772
 20
-2613.796713601534
 30
0.0
 11
187.345577829772
 21
-2619.196305288991
 31
0.0
  0
LINE
  5
15290
  8
01
 10
137.3455778297722
 20
-2613.796713601534
 30
0.0
 11
137.3455778297722
 21
-2619.196305288991
 31
0.0
  0
ARC
  5
15292
  8
01
 10
266.8455778297725
 20
-2675.673513903932
 30
0.0
 40
0.5
 50
270.0
 51
0.0
  0
ARC
  5
15293
  8
01
 10
266.8455778297725
 20
-2619.696305288991
 30
0.0
 40
0.5
 50
0.0
 51
90.0
  0
ARC
  5
15294
  8
01
 10
57.8455778297722
 20
-2619.696305288991
 30
0.0
 40
0.5
 50
90.0
 51
180.0
  0
ARC
  5
15295
  8
01
 10
57.8455778297722
 20
-2675.673513903932
 30
0.0
 40
0.5
 50
180.0
 51
270.0
  0
POLYLINE
  5
1529A
  8
01
 66
     1
 10
0.0
 20
0.0
 30
0.0
  0
VERTEX
  5
1624E
  8
01
 10
240.3455778297721
 20
-2664.716341117304
 30
0.0
  0
VERTEX
  5
1624F
  8
01
 10
241.711210083885
 20
-2664.599858070222
 30
0.0
  0
VERTEX
  5
16250
  8
01
 10
243.0243618563277
 20
-2664.254885307152
 30
0.0
  0
VERTEX
  5
16251
  8
01
 10
244.2345694609093
 20
-2663.694679937914
 30
0.0
  0
VERTEX
  5
16252
  8
01
 10
245.2953252980779
 20
-2662.940770340683
 30
0.0
  0
VERTEX
  5
16253
  8
01
 10
246.1658651158899
 20
-2662.022128838483
 30
0.0
  0
VERTEX
  5
16254
  8
01
 10
246.8127345573511
 20
-2660.974058309062
 30
0.0
  0
VERTEX
  5
16255
  8
01
 10
247.2110747925947
 20
-2659.836835515102
 30
0.0
  0
VERTEX
  5
16256
  8
01
 10
247.3455778297721
 20
-2658.654163290813
 30
0.0
  0
SEQEND
  5
16426
  8
01
  0
POLYLINE
  5
1529B
  8
01
 66
     1
 10
0.0
 20
0.0
 30
0.0
  0
VERTEX
  5
16257
  8
01
 10
84.34557782977262
 20
-2664.716341117304
 30
0.0
  0
VERTEX
  5
16258
  8
01
 10
82.97994557565973
 20
-2664.599858070222
 30
0.0
  0
VERTEX
  5
16259
  8
01
 10
81.666793803217
 20
-2664.254885307152
 30
0.0
  0
VERTEX
  5
1625A
  8
01
 10
80.45658619863542
 20
-2663.694679937914
 30
0.0
  0
VERTEX
  5
1625B
  8
01
 10
79.3958303614668
 20
-2662.940770340683
 30
0.0
  0
VERTEX
  5
1625C
  8
01
 10
78.52529054365483
 20
-2662.022128838483
 30
0.0
  0
VERTEX
  5
1625D
  8
01
 10
77.87842110219364
 20
-2660.974058309062
 30
0.0
  0
VERTEX
  5
1625E
  8
01
 10
77.48008086695003
 20
-2659.836835515102
 30
0.0
  0
VERTEX
  5
1625F
  8
01
 10
77.34557782977265
 20
-2658.654163290813
 30
0.0
  0
SEQEND
  5
16427
  8
01
  0
POLYLINE
  5
1529C
  8
01
 66
     1
 10
0.0
 20
0.0
 30
0.0
  0
VERTEX
  5
16260
  8
01
 10
240.3455778297721
 20
-2661.399353819196
 30
0.0
  0
VERTEX
  5
16261
  8
01
 10
241.711210083885
 20
-2661.282870772114
 30
0.0
  0
VERTEX
  5
16262
  8
01
 10
243.0243618563277
 20
-2660.937898009044
 30
0.0
  0
VERTEX
  5
16263
  8
01
 10
244.2345694609093
 20
-2660.377692639806
 30
0.0
  0
VERTEX
  5
16264
  8
01
 10
245.2953252980779
 20
-2659.623783042575
 30
0.0
  0
VERTEX
  5
16265
  8
01
 10
246.1658651158899
 20
-2658.705141540375
 30
0.0
  0
VERTEX
  5
16266
  8
01
 10
246.8127345573511
 20
-2657.657071010954
 30
0.0
  0
VERTEX
  5
16267
  8
01
 10
247.2110747925947
 20
-2656.519848216994
 30
0.0
  0
VERTEX
  5
16268
  8
01
 10
247.3455778297721
 20
-2655.337175992705
 30
0.0
  0
SEQEND
  5
16428
  8
01
  0
POLYLINE
  5
1529D
  8
01
 66
     1
 10
0.0
 20
0.0
 30
0.0
  0
VERTEX
  5
16269
  8
01
 10
84.34557782977264
 20
-2661.399353819196
 30
0.0
  0
VERTEX
  5
1626A
  8
01
 10
82.97994557565974
 20
-2661.282870772114
 30
0.0
  0
VERTEX
  5
1626B
  8
01
 10
81.66679380321702
 20
-2660.937898009044
 30
0.0
  0
VERTEX
  5
1626C
  8
01
 10
80.45658619863543
 20
-2660.377692639806
 30
0.0
  0
VERTEX
  5
1626D
  8
01
 10
79.39583036146682
 20
-2659.623783042575
 30
0.0
  0
VERTEX
  5
1626E
  8
01
 10
78.52529054365485
 20
-2658.705141540375
 30
0.0
  0
VERTEX
  5
1626F
  8
01
 10
77.87842110219366
 20
-2657.657071010954
 30
0.0
  0
VERTEX
  5
16270
  8
01
 10
77.48008086695006
 20
-2656.519848216994
 30
0.0
  0
VERTEX
  5
16271
  8
01
 10
77.34557782977267
 20
-2655.337175992705
 30
0.0
  0
SEQEND
  5
16429
  8
01
  0
LINE
  5
1529E
  8
01
 10
240.3455778297721
 20
-2661.399353819196
 30
0.0
 11
84.34557782977262
 21
-2661.399353819196
 31
0.0
  0
POLYLINE
  5
152A3
  8
01
 66
     1
 10
0.0
 20
0.0
 30
0.0
  0
VERTEX
  5
16272
  8
01
 10
247.3455778297721
 20
-2640.46762981134
 30
0.0
  0
VERTEX
  5
16273
  8
01
 10
247.2110747925947
 20
-2639.284957587051
 30
0.0
  0
VERTEX
  5
16274
  8
01
 10
246.8127345573511
 20
-2638.147734793091
 30
0.0
  0
VERTEX
  5
16275
  8
01
 10
246.1658651158899
 20
-2637.09966426367
 30
0.0
  0
VERTEX
  5
16276
  8
01
 10
245.2953252980779
 20
-2636.181022761469
 30
0.0
  0
VERTEX
  5
16277
  8
01
 10
244.2345694609093
 20
-2635.427113164238
 30
0.0
  0
VERTEX
  5
16278
  8
01
 10
243.0243618563277
 20
-2634.866907795001
 30
0.0
  0
VERTEX
  5
16279
  8
01
 10
241.711210083885
 20
-2634.52193503193
 30
0.0
  0
VERTEX
  5
1627A
  8
01
 10
240.3455778297721
 20
-2634.405451984849
 30
0.0
  0
SEQEND
  5
1642A
  8
01
  0
POLYLINE
  5
152A4
  8
01
 66
     1
 10
0.0
 20
0.0
 30
0.0
  0
VERTEX
  5
1627B
  8
01
 10
77.34557782977208
 20
-2640.46762981134
 30
0.0
  0
VERTEX
  5
1627C
  8
01
 10
77.48008086694946
 20
-2639.284957587051
 30
0.0
  0
VERTEX
  5
1627D
  8
01
 10
77.87842110219307
 20
-2638.147734793091
 30
0.0
  0
VERTEX
  5
1627E
  8
01
 10
78.52529054365426
 20
-2637.09966426367
 30
0.0
  0
VERTEX
  5
1627F
  8
01
 10
79.39583036146624
 20
-2636.181022761469
 30
0.0
  0
VERTEX
  5
16280
  8
01
 10
80.45658619863485
 20
-2635.427113164238
 30
0.0
  0
VERTEX
  5
16281
  8
01
 10
81.66679380321644
 20
-2634.866907795001
 30
0.0
  0
VERTEX
  5
16282
  8
01
 10
82.97994557565916
 20
-2634.52193503193
 30
0.0
  0
VERTEX
  5
16283
  8
01
 10
84.34557782977205
 20
-2634.405451984849
 30
0.0
  0
SEQEND
  5
1642B
  8
01
  0
LINE
  5
152E0
  8
1PHANTOM
 10
181.845577679773
 20
-2617.796713601534
 30
0.0
 11
180.845577979773
 21
-2616.796713601534
 31
0.0
  0
LINE
  5
152E1
  8
1PHANTOM
 10
177.545577829773
 20
-2617.796704759713
 30
0.0
 11
185.1455778297729
 21
-2617.796722443354
 31
0.0
  0
LINE
  5
152E2
  8
1PHANTOM
 10
177.545577829773
 20
-2616.796713601534
 30
0.0
 11
185.1455778297729
 21
-2616.796713601534
 31
0.0
  0
LINE
  5
152E3
  8
1PHANTOM
 10
185.1455778297729
 20
-2617.796722443354
 30
0.0
 11
185.1455778297729
 21
-2616.796713601534
 31
0.0
  0
LINE
  5
152E4
  8
1PHANTOM
 10
177.545577829773
 20
-2617.796704759713
 30
0.0
 11
177.545577829773
 21
-2616.796713601534
 31
0.0
  0
LINE
  5
15352
  8
1HIDDEN
 10
353.4745703021079
 20
-2765.586558332152
 30
0.0
 11
345.5926284277739
 21
-2765.586558332152
 31
0.0
  0
LINE
  5
15353
  8
1HIDDEN
 10
353.4745703021079
 20
-2774.086558332152
 30
0.0
 11
350.5001057158863
 21
-2774.086558332152
 31
0.0
  0
LINE
  5
15355
  8
1PHANTOM
 10
187.3455778297721
 20
-2764.180469418907
 30
0.0
 11
187.3455778297721
 21
-2758.738482120799
 31
0.0
  0
LINE
  5
15357
  8
1PHANTOM
 10
352.4745703021079
 20
-2770.336558182152
 30
0.0
 11
353.4745703021079
 21
-2769.336558482152
 31
0.0
  0
LINE
  5
15358
  8
1PHANTOM
 10
352.4745791439285
 20
-2766.036558332152
 30
0.0
 11
352.4745614602871
 21
-2773.636558332152
 31
0.0
  0
LINE
  5
15359
  8
1PHANTOM
 10
353.4745703021079
 20
-2766.036558332152
 30
0.0
 11
353.4745703021079
 21
-2773.636558332152
 31
0.0
  0
LINE
  5
1535A
  8
1PHANTOM
 10
352.4745614602871
 20
-2773.636558332152
 30
0.0
 11
353.4745703021079
 21
-2773.636558332152
 31
0.0
  0
LINE
  5
1535B
  8
1PHANTOM
 10
352.4745791439285
 20
-2766.036558332152
 30
0.0
 11
353.4745703021079
 21
-2766.036558332152
 31
0.0
  0
LINE
  5
1535D
  8
1HIDDEN
 10
353.4745703021079
 20
-2774.086558332152
 30
0.0
 11
353.4745703021079
 21
-2765.586558332152
 31
0.0
  0
LINE
  5
1535E
  8
1HIDDEN
 10
359.9745703021067
 20
-2767.586558332152
 30
0.0
 11
353.4745703021079
 21
-2767.586558332152
 31
0.0
  0
LINE
  5
1535F
  8
1HIDDEN
 10
359.9745703021068
 20
-2772.086558332152
 30
0.0
 11
353.4745703021079
 21
-2772.086558332152
 31
0.0
  0
LINE
  5
15363
  8
1PHANTOM
 10
143.845577679773
 20
-2617.796713601533
 30
0.0
 11
142.845577979773
 21
-2616.796713601533
 31
0.0
  0
LINE
  5
15364
  8
1PHANTOM
 10
139.545577829773
 20
-2617.796704759713
 30
0.0
 11
147.1455778297729
 21
-2617.796722443354
 31
0.0
  0
LINE
  5
15365
  8
1PHANTOM
 10
139.545577829773
 20
-2616.796713601533
 30
0.0
 11
147.1455778297729
 21
-2616.796713601533
 31
0.0
  0
LINE
  5
15366
  8
1PHANTOM
 10
147.1455778297729
 20
-2617.796722443354
 30
0.0
 11
147.1455778297729
 21
-2616.796713601533
 31
0.0
  0
LINE
  5
15367
  8
1PHANTOM
 10
139.545577829773
 20
-2617.796704759713
 30
0.0
 11
139.545577829773
 21
-2616.796713601533
 31
0.0
  0
LINE
  5
1540D
  8
01
 10
368.9745703021085
 20
-2733.836558332152
 30
0.0
 11
368.9745703021085
 21
-2813.836558332152
 31
0.0
  0
LINE
  5
1540E
  8
01
 10
377.9745703021086
 20
-2733.836558332152
 30
0.0
 11
377.9745703021085
 21
-2813.836558332152
 31
0.0
  0
LINE
  5
1540F
  8
01
 10
359.9745703021085
 20
-2733.836558332152
 30
0.0
 11
359.9745703021085
 21
-2813.836558332152
 31
0.0
  0
LINE
  5
15414
  8
1CENTER
 10
356.4745703021085
 20
-2769.836558332152
 30
0.0
 11
374.4745703021085
 21
-2769.836558332152
 31
0.0
  0
TEXT
  5
154F8
  8
1TEXT
 10
329.7375378370382
 20
-2638.052127558307
 30
0.0
 40
8.0
  1
SC-470-X
  0
LINE
  5
154FB
  8
1DIM
 10
329.9745703021083
 20
-2669.230261815103
 30
0.0
 11
399.9745703021083
 21
-2669.230261815103
 31
0.0
  0
TEXT
  5
154FC
  8
1TEXT
 10
338.1079036354417
 20
-2646.730261815103
 30
0.0
 40
4.0
  1
表面処理
 72
     1
 11
347.3745703021084
 21
-2646.730261815103
 31
0.0
  0
TEXT
  5
154FD
  8
1TEXT
 10
332.4945703021084
 20
-2653.565550474627
 30
0.0
 40
4.0
  1
ブラストシルバー
 41
0.8
 72
     1
 11
347.3745703021084
 21
-2653.565550474627
 31
0.0
  0
LINE
  5
154FF
  8
1DIM
 10
329.9745703021083
 20
-2641.230261815103
 30
0.0
 11
399.9745703021083
 21
-2641.230261815103
 31
0.0
  0
LINE
  5
15500
  8
1DIM
 10
329.9745703021083
 20
-2655.230261815103
 30
0.0
 11
399.9745703021083
 21
-2655.230261815103
 31
0.0
  0
LINE
  5
15501
  8
1DIM
 10
329.9745703021083
 20
-2648.230261815103
 30
0.0
 11
399.9745703021083
 21
-2648.230261815103
 31
0.0
  0
LINE
  5
15502
  8
1DIM
 10
329.9745703021083
 20
-2662.230261815103
 30
0.0
 11
399.9745703021083
 21
-2662.230261815103
 31
0.0
  0
LINE
  5
15503
  8
1DIM
 10
329.9745703021083
 20
-2662.230261815103
 30
0.0
 11
399.9745703021083
 21
-2662.230261815103
 31
0.0
  0
LINE
  5
15504
  8
1DIM
 10
364.9745703021083
 20
-2641.230261815103
 30
0.0
 11
364.9745703021083
 21
-2669.230261815103
 31
0.0
  0
TEXT
  5
15505
  8
1TEXT
 10
367.0745703021088
 20
-2653.944618798752
 30
0.0
 40
4.0
  1
SC-470-XS
 41
0.9
 72
     1
 11
382.3745703021089
 21
-2653.944618798752
 31
0.0
  0
TEXT
  5
15507
  8
1TEXT
 10
375.5079036354417
 20
-2646.730261815103
 30
0.0
 40
4.0
  1
コード
 72
     1
 11
382.3745703021084
 21
-2646.730261815103
 31
0.0
  0
LINE
  5
15509
  8
1DIM
 10
329.9745703021083
 20
-2669.230261815103
 30
0.0
 11
329.9745703021083
 21
-2641.230261815103
 31
0.0
  0
LINE
  5
1550A
  8
1DIM
 10
399.9745703021083
 20
-2669.230261815103
 30
0.0
 11
399.9745703021083
 21
-2641.230261815103
 31
0.0
  0
TEXT
  5
1550B
  8
1TEXT
 10
332.4945703021084
 20
-2660.565550474627
 30
0.0
 40
4.0
  1
ブラストブラック
 41
0.8
 72
     1
 11
347.3745703021084
 21
-2660.565550474627
 31
0.0
  0
TEXT
  5
1550C
  8
1TEXT
 10
367.0745703021088
 20
-2660.944618798752
 30
0.0
 40
4.0
  1
SC-470-XK
 41
0.9
 72
     1
 11
382.3745703021089
 21
-2660.944618798752
 31
0.0
  0
ARC
  5
15580
  8
01
 10
266.8455778297725
 20
-2787.582393207554
 30
0.0
 40
0.5
 50
270.0
 51
0.0
  0
CIRCLE
  5
157DD
  8
01
 10
143.3455778297721
 20
-2769.836558332152
 30
0.0
 40
2.25
  0
CIRCLE
  5
157DE
  8
01
 10
143.3455778297721
 20
-2769.836558332152
 30
0.0
 40
4.25
  0
CIRCLE
  5
157DF
  8
01
 10
181.3455778297721
 20
-2769.836558332152
 30
0.0
 40
2.25
  0
CIRCLE
  5
157E0
  8
01
 10
181.3455778297721
 20
-2769.836558332152
 30
0.0
 40
4.25
  0
TEXT
  5
16026
  8
1TEXT
 10
330.4312369687751
 20
-2667.565550474627
 30
0.0
 40
4.0
  1
ブラストライトブロンズ
 41
0.65
 72
     1
 11
347.3745703021084
 21
-2667.565550474627
 31
0.0
  0
TEXT
  5
16027
  8
1TEXT
 10
367.0745703021088
 20
-2667.944618798752
 30
0.0
 40
4.0
  1
SC-470-4U
 41
0.9
 72
     1
 11
382.3745703021089
 21
-2667.944618798752
 31
0.0
  0
LINE
  5
160A2
  8
01
 10
181.3456243656709
 20
-2582.796713601696
 30
0.0
 11
179.8456243656709
 21
-2588.096710111558
 31
0.0
  0
LINE
  5
160A3
  8
01
 10
179.8456243656709
 20
-2588.096710111558
 30
0.0
 11
179.8456243656711
 21
-2617.79671011145
 31
0.0
  0
LINE
  5
160A4
  8
01
 10
181.3456243656709
 20
-2582.796713601696
 30
0.0
 11
182.845624365671
 21
-2588.096717091942
 31
0.0
  0
LINE
  5
160A5
  8
01
 10
177.8455778297731
 20
-2617.796705457752
 30
0.0
 11
184.845577829773
 21
-2617.796721745316
 31
0.0
  0
LINE
  5
160A6
  8
01
 10
182.845624365671
 20
-2588.096717091942
 30
0.0
 11
182.8456243656711
 21
-2617.796717091835
 31
0.0
  0
LINE
  5
160A7
  8
01
 10
177.8455778297731
 20
-2617.796705457752
 30
0.0
 11
177.845577829773
 21
-2618.896708947947
 31
0.0
  0
ARC
  5
160A8
  8
01
 10
179.345577829773
 20
-2618.896708947947
 30
0.0
 40
1.5
 50
180.0
 51
269.9998666844684
  0
LINE
  5
160A9
  8
01
 10
184.845577829773
 20
-2617.796721745316
 30
0.0
 11
184.845577829773
 21
-2618.896718255127
 31
0.0
  0
LINE
  5
160AA
  8
01
 10
179.3455743395806
 20
-2620.396708947943
 30
0.0
 11
183.3455743395806
 21
-2620.396718255123
 31
0.0
  0
ARC
  5
160AB
  8
01
 10
183.345577829773
 20
-2618.896718255127
 30
0.0
 40
1.5
 50
269.9998666844684
 51
0.0
  0
LINE
  5
160AC
  8
1CENTER
 10
181.345577829773
 20
-2581.365918684231
 30
0.0
 11
181.345577829773
 21
-2621.466990010843
 31
0.0
  0
LINE
  5
160AD
  8
01
 10
180.2512540157779
 20
-2584.896711055374
 30
0.0
 11
182.2135891046534
 21
-2584.096715621323
 31
0.0
  0
LINE
  5
160AE
  8
01
 10
182.2135891046534
 20
-2584.096715621323
 30
0.0
 11
181.6253125296109
 21
-2583.784945765071
 31
0.0
  0
LINE
  5
160AF
  8
01
 10
179.3456243656709
 20
-2607.296708948164
 30
0.0
 11
183.3456243656709
 21
-2606.496718255346
 31
0.0
  0
LINE
  5
160B0
  8
01
 10
179.3456243656709
 20
-2596.09670894816
 30
0.0
 11
183.3456243656709
 21
-2595.296718255338
 31
0.0
  0
LINE
  5
160B1
  8
01
 10
179.3456243656709
 20
-2592.89670894816
 30
0.0
 11
183.3456243656709
 21
-2592.096718255337
 31
0.0
  0
LINE
  5
160B2
  8
01
 10
183.3456243656709
 20
-2592.096718255337
 30
0.0
 11
182.8456243656709
 21
-2591.99671709194
 31
0.0
  0
LINE
  5
160B3
  8
01
 10
179.8456243656709
 20
-2591.396710111557
 30
0.0
 11
179.3456243656709
 21
-2591.29670894816
 31
0.0
  0
LINE
  5
160B4
  8
01
 10
183.3456243656709
 20
-2595.296718255338
 30
0.0
 11
182.8456243656709
 21
-2595.19671709194
 31
0.0
  0
LINE
  5
160B5
  8
01
 10
183.3456243656709
 20
-2593.696718255337
 30
0.0
 11
182.8456243656709
 21
-2593.59671709194
 31
0.0
  0
LINE
  5
160B6
  8
01
 10
179.8456243656709
 20
-2592.996710111557
 30
0.0
 11
179.3456243656709
 21
-2592.89670894816
 31
0.0
  0
LINE
  5
160B7
  8
01
 10
179.8456243656709
 20
-2594.596710111557
 30
0.0
 11
179.3456243656709
 21
-2594.49670894816
 31
0.0
  0
LINE
  5
160B8
  8
01
 10
179.3456243656709
 20
-2594.49670894816
 30
0.0
 11
183.3456243656709
 21
-2593.696718255337
 31
0.0
  0
LINE
  5
160B9
  8
01
 10
182.6664032090601
 20
-2585.696716674929
 30
0.0
 11
182.1146537452569
 21
-2585.513952532301
 31
0.0
  0
LINE
  5
160BA
  8
01
 10
183.3456243656709
 20
-2588.896718255337
 30
0.0
 11
182.8456243656709
 21
-2588.79671709194
 31
0.0
  0
LINE
  5
160BB
  8
01
 10
183.3456243656709
 20
-2590.496718255337
 30
0.0
 11
182.8456243656709
 21
-2590.39671709194
 31
0.0
  0
LINE
  5
160BC
  8
01
 10
183.1192173134669
 20
-2587.296717728535
 30
0.0
 11
182.5826235781958
 21
-2587.167447030905
 31
0.0
  0
LINE
  5
160BD
  8
01
 10
180.2665389628796
 20
-2586.60947951412
 30
0.0
 11
179.7984405077297
 21
-2586.49671000177
 31
0.0
  0
LINE
  5
160BE
  8
01
 10
179.8456243656709
 20
-2589.796710111557
 30
0.0
 11
179.3456243656709
 21
-2589.69670894816
 31
0.0
  0
LINE
  5
160BF
  8
01
 10
179.8456243656709
 20
-2588.196710111557
 30
0.0
 11
179.3456243656709
 21
-2588.09670894816
 31
0.0
  0
LINE
  5
160C0
  8
01
 10
180.708425856409
 20
-2585.048146851815
 30
0.0
 11
180.2512540157779
 21
-2584.896711055374
 31
0.0
  0
LINE
  5
160C1
  8
01
 10
179.7984405077297
 20
-2586.49671000177
 30
0.0
 11
182.6664032090601
 21
-2585.696716674929
 31
0.0
  0
LINE
  5
160C2
  8
01
 10
179.3456243656709
 20
-2589.69670894816
 30
0.0
 11
183.3456243656709
 21
-2588.896718255337
 31
0.0
  0
LINE
  5
160C3
  8
01
 10
179.3456243656709
 20
-2588.09670894816
 30
0.0
 11
183.1192173134669
 21
-2587.296717728535
 31
0.0
  0
LINE
  5
160C4
  8
01
 10
179.3456243656709
 20
-2591.29670894816
 30
0.0
 11
183.3456243656709
 21
-2590.496718255337
 31
0.0
  0
LINE
  5
160C5
  8
01
 10
179.3456243656709
 20
-2604.096708948164
 30
0.0
 11
183.3456243656709
 21
-2603.296718255346
 31
0.0
  0
LINE
  5
160C6
  8
01
 10
183.3456243656709
 20
-2603.296718255346
 30
0.0
 11
182.8456243656709
 21
-2603.196717091948
 31
0.0
  0
LINE
  5
160C7
  8
01
 10
179.8456243656709
 20
-2602.596710111558
 30
0.0
 11
179.3456243656709
 21
-2602.49670894816
 31
0.0
  0
LINE
  5
160C8
  8
01
 10
183.3456243656709
 20
-2604.896718255346
 30
0.0
 11
182.8456243656709
 21
-2604.796717091948
 31
0.0
  0
LINE
  5
160C9
  8
01
 10
183.3456243656709
 20
-2606.496718255346
 30
0.0
 11
182.8456243656709
 21
-2606.396717091948
 31
0.0
  0
LINE
  5
160CA
  8
01
 10
179.8456243656709
 20
-2604.196710111562
 30
0.0
 11
179.3456243656709
 21
-2604.096708948164
 31
0.0
  0
LINE
  5
160CB
  8
01
 10
179.8456243656709
 20
-2605.796710111562
 30
0.0
 11
179.3456243656709
 21
-2605.696708948165
 31
0.0
  0
LINE
  5
160CC
  8
01
 10
179.3456243656709
 20
-2605.696708948165
 30
0.0
 11
183.3456243656709
 21
-2604.896718255346
 31
0.0
  0
LINE
  5
160CD
  8
01
 10
183.3456243656709
 20
-2598.496718255341
 30
0.0
 11
182.8456243656709
 21
-2598.396717091944
 31
0.0
  0
LINE
  5
160CE
  8
01
 10
183.3456243656709
 20
-2596.896718255337
 30
0.0
 11
182.8456243656709
 21
-2596.79671709194
 31
0.0
  0
LINE
  5
160CF
  8
01
 10
183.3456243656709
 20
-2601.696718255342
 30
0.0
 11
182.8456243656709
 21
-2601.596717091944
 31
0.0
  0
LINE
  5
160D0
  8
01
 10
183.3456243656709
 20
-2600.096718255342
 30
0.0
 11
182.8456243656709
 21
-2599.996717091944
 31
0.0
  0
LINE
  5
160D1
  8
01
 10
179.8456243656709
 20
-2596.196710111557
 30
0.0
 11
179.3456243656709
 21
-2596.09670894816
 31
0.0
  0
LINE
  5
160D2
  8
01
 10
179.8456243656709
 20
-2597.796710111558
 30
0.0
 11
179.3456243656709
 21
-2597.69670894816
 31
0.0
  0
LINE
  5
160D3
  8
01
 10
179.8456243656709
 20
-2600.996710111558
 30
0.0
 11
179.3456243656709
 21
-2600.89670894816
 31
0.0
  0
LINE
  5
160D4
  8
01
 10
179.8456243656709
 20
-2599.396710111558
 30
0.0
 11
179.3456243656709
 21
-2599.29670894816
 31
0.0
  0
LINE
  5
160D5
  8
01
 10
179.3456243656709
 20
-2599.29670894816
 30
0.0
 11
183.3456243656709
 21
-2598.496718255341
 31
0.0
  0
LINE
  5
160D6
  8
01
 10
179.3456243656709
 20
-2597.69670894816
 30
0.0
 11
183.3456243656709
 21
-2596.896718255337
 31
0.0
  0
LINE
  5
160D7
  8
01
 10
179.3456243656709
 20
-2600.89670894816
 30
0.0
 11
183.3456243656709
 21
-2600.096718255342
 31
0.0
  0
LINE
  5
160D8
  8
01
 10
179.3456243656709
 20
-2602.49670894816
 30
0.0
 11
183.3456243656709
 21
-2601.696718255342
 31
0.0
  0
LINE
  5
160D9
  8
01
 10
179.8456243656709
 20
-2612.196710111566
 30
0.0
 11
179.3456243656709
 21
-2612.096708948168
 31
0.0
  0
LINE
  5
160DA
  8
01
 10
179.3456243656709
 20
-2612.096708948168
 30
0.0
 11
183.3456243656709
 21
-2611.29671825535
 31
0.0
  0
LINE
  5
160DB
  8
01
 10
183.3456243656709
 20
-2611.29671825535
 30
0.0
 11
182.8456243656709
 21
-2611.196717091952
 31
0.0
  0
LINE
  5
160DC
  8
01
 10
179.8456243656709
 20
-2610.596710111566
 30
0.0
 11
179.3456243656709
 21
-2610.496708948168
 31
0.0
  0
LINE
  5
160DD
  8
01
 10
179.8456243656709
 20
-2608.996710111566
 30
0.0
 11
179.3456243656709
 21
-2608.896708948168
 31
0.0
  0
LINE
  5
160DE
  8
01
 10
179.3456243656709
 20
-2608.896708948168
 30
0.0
 11
183.3456243656709
 21
-2608.09671825535
 31
0.0
  0
LINE
  5
160DF
  8
01
 10
183.3456243656709
 20
-2609.69671825535
 30
0.0
 11
182.8456243656709
 21
-2609.596717091953
 31
0.0
  0
LINE
  5
160E0
  8
01
 10
183.3456243656709
 20
-2608.09671825535
 30
0.0
 11
182.8456243656709
 21
-2607.996717091953
 31
0.0
  0
LINE
  5
160E1
  8
01
 10
179.3456243656709
 20
-2610.496708948168
 30
0.0
 11
183.3456243656709
 21
-2609.69671825535
 31
0.0
  0
LINE
  5
160E2
  8
01
 10
179.8456243656709
 20
-2607.396710111562
 30
0.0
 11
179.3456243656709
 21
-2607.296708948164
 31
0.0
  0
LINE
  5
160E3
  8
01
 10
179.8456243656709
 20
-2613.796710111566
 30
0.0
 11
179.3456243656709
 21
-2613.696708948168
 31
0.0
  0
LINE
  5
160E4
  8
01
 10
179.3456243656709
 20
-2613.696708948168
 30
0.0
 11
183.3456243656709
 21
-2612.89671825535
 31
0.0
  0
LINE
  5
160E5
  8
01
 10
183.3456243656709
 20
-2612.89671825535
 30
0.0
 11
182.8456243656709
 21
-2612.796717091952
 31
0.0
  0
LINE
  5
160E6
  8
01
 10
179.8456243656709
 20
-2615.396710111566
 30
0.0
 11
179.3456243656709
 21
-2615.296708948168
 31
0.0
  0
LINE
  5
160E7
  8
01
 10
179.3456243656709
 20
-2615.296708948168
 30
0.0
 11
183.3456243656709
 21
-2614.49671825535
 31
0.0
  0
LINE
  5
160E8
  8
01
 10
183.3456243656709
 20
-2614.49671825535
 30
0.0
 11
182.8456243656709
 21
-2614.396717091952
 31
0.0
  0
LINE
  5
160E9
  8
01
 10
179.8456243656709
 20
-2616.996710111566
 30
0.0
 11
179.3456243656709
 21
-2616.896708948168
 31
0.0
  0
LINE
  5
160EA
  8
01
 10
179.3456243656709
 20
-2616.896708948168
 30
0.0
 11
183.3456243656709
 21
-2616.09671825535
 31
0.0
  0
LINE
  5
160EB
  8
01
 10
183.3456243656709
 20
-2616.09671825535
 30
0.0
 11
182.8456243656709
 21
-2615.996717091952
 31
0.0
  0
LINE
  5
160EC
  8
01
 10
387.4745703019454
 20
-2769.83660486805
 30
0.0
 11
382.1745737920837
 21
-2768.33660486805
 31
0.0
  0
LINE
  5
160ED
  8
01
 10
382.1745737920837
 20
-2768.33660486805
 30
0.0
 11
352.4745737921918
 21
-2768.33660486805
 31
0.0
  0
LINE
  5
160EE
  8
01
 10
387.4745703019454
 20
-2769.83660486805
 30
0.0
 11
382.1745668117001
 21
-2771.33660486805
 31
0.0
  0
LINE
  5
160EF
  8
01
 10
352.4745784458899
 20
-2766.336558332152
 30
0.0
 11
352.4745621583256
 21
-2773.336558332152
 31
0.0
  0
LINE
  5
160F0
  8
01
 10
382.1745668117001
 20
-2771.33660486805
 30
0.0
 11
352.4745668118071
 21
-2771.33660486805
 31
0.0
  0
LINE
  5
160F1
  8
01
 10
352.4745784458899
 20
-2766.336558332152
 30
0.0
 11
351.3745749556946
 21
-2766.336558332152
 31
0.0
  0
ARC
  5
160F2
  8
01
 10
351.3745749556946
 20
-2767.836558332152
 30
0.0
 40
1.5
 50
90.0
 51
179.9998666844749
  0
LINE
  5
160F3
  8
01
 10
352.4745621583256
 20
-2773.336558332152
 30
0.0
 11
351.374565648515
 21
-2773.336558332152
 31
0.0
  0
LINE
  5
160F4
  8
01
 10
349.8745749556987
 20
-2767.83655484196
 30
0.0
 11
349.874565648519
 21
-2771.83655484196
 31
0.0
  0
ARC
  5
160F5
  8
01
 10
351.374565648515
 20
-2771.836558332152
 30
0.0
 40
1.5
 50
179.9998666844749
 51
270.0
  0
LINE
  5
160F6
  8
1CENTER
 10
388.9053652194108
 20
-2769.836558332152
 30
0.0
 11
348.8042938927989
 21
-2769.836558332152
 31
0.0
  0
LINE
  5
160F7
  8
01
 10
385.3745728482676
 20
-2768.742234518157
 30
0.0
 11
386.1745682823185
 21
-2770.704569607032
 31
0.0
  0
LINE
  5
160F8
  8
01
 10
386.1745682823185
 20
-2770.704569607032
 30
0.0
 11
386.4863381385707
 21
-2770.11629303199
 31
0.0
  0
LINE
  5
160F9
  8
01
 10
362.9745749554776
 20
-2767.83660486805
 30
0.0
 11
363.7745656482958
 21
-2771.83660486805
 31
0.0
  0
LINE
  5
160FA
  8
01
 10
374.1745749554819
 20
-2767.83660486805
 30
0.0
 11
374.9745656483045
 21
-2771.83660486805
 31
0.0
  0
LINE
  5
160FB
  8
01
 10
377.374574955482
 20
-2767.83660486805
 30
0.0
 11
378.1745656483046
 21
-2771.83660486805
 31
0.0
  0
LINE
  5
160FC
  8
01
 10
378.1745656483046
 20
-2771.83660486805
 30
0.0
 11
378.2745668117018
 21
-2771.33660486805
 31
0.0
  0
LINE
  5
160FD
  8
01
 10
378.8745737920848
 20
-2768.33660486805
 30
0.0
 11
378.974574955482
 21
-2767.83660486805
 31
0.0
  0
LINE
  5
160FE
  8
01
 10
374.9745656483045
 20
-2771.83660486805
 30
0.0
 11
375.0745668117017
 21
-2771.33660486805
 31
0.0
  0
LINE
  5
160FF
  8
01
 10
376.5745656483047
 20
-2771.83660486805
 30
0.0
 11
376.6745668117018
 21
-2771.33660486805
 31
0.0
  0
LINE
  5
16100
  8
01
 10
377.2745737920849
 20
-2768.33660486805
 30
0.0
 11
377.374574955482
 21
-2767.83660486805
 31
0.0
  0
LINE
  5
16101
  8
01
 10
375.674573792085
 20
-2768.33660486805
 30
0.0
 11
375.7745749554821
 21
-2767.83660486805
 31
0.0
  0
LINE
  5
16102
  8
01
 10
375.7745749554821
 20
-2767.83660486805
 30
0.0
 11
376.5745656483047
 21
-2771.83660486805
 31
0.0
  0
LINE
  5
16103
  8
01
 10
384.5745672287129
 20
-2771.157383711439
 30
0.0
 11
384.7573313713409
 21
-2770.605634247636
 31
0.0
  0
LINE
  5
16104
  8
01
 10
381.3745656483046
 20
-2771.83660486805
 30
0.0
 11
381.4745668117017
 21
-2771.33660486805
 31
0.0
  0
LINE
  5
16105
  8
01
 10
379.7745656483046
 20
-2771.83660486805
 30
0.0
 11
379.8745668117016
 21
-2771.33660486805
 31
0.0
  0
LINE
  5
16106
  8
01
 10
382.9745661751073
 20
-2771.610197815846
 30
0.0
 11
383.1038368727371
 21
-2771.073604080575
 31
0.0
  0
LINE
  5
16107
  8
01
 10
383.6618043895218
 20
-2768.757519465259
 30
0.0
 11
383.7745739018718
 21
-2768.289421010109
 31
0.0
  0
LINE
  5
16108
  8
01
 10
380.4745737920849
 20
-2768.33660486805
 30
0.0
 11
380.574574955482
 21
-2767.83660486805
 31
0.0
  0
LINE
  5
16109
  8
01
 10
382.0745737920848
 20
-2768.33660486805
 30
0.0
 11
382.1745749554819
 21
-2767.83660486805
 31
0.0
  0
LINE
  5
1610A
  8
01
 10
385.2231370518272
 20
-2769.199406358788
 30
0.0
 11
385.3745728482676
 21
-2768.742234518157
 31
0.0
  0
LINE
  5
1610B
  8
01
 10
383.7745739018718
 20
-2768.289421010109
 30
0.0
 11
384.5745672287129
 21
-2771.157383711439
 31
0.0
  0
LINE
  5
1610C
  8
01
 10
380.574574955482
 20
-2767.83660486805
 30
0.0
 11
381.3745656483046
 21
-2771.83660486805
 31
0.0
  0
LINE
  5
1610D
  8
01
 10
382.1745749554819
 20
-2767.83660486805
 30
0.0
 11
382.9745661751073
 21
-2771.610197815846
 31
0.0
  0
LINE
  5
1610E
  8
01
 10
378.974574955482
 20
-2767.83660486805
 30
0.0
 11
379.7745656483046
 21
-2771.83660486805
 31
0.0
  0
LINE
  5
1610F
  8
01
 10
366.1745749554776
 20
-2767.83660486805
 30
0.0
 11
366.9745656482959
 21
-2771.83660486805
 31
0.0
  0
LINE
  5
16110
  8
01
 10
366.9745656482959
 20
-2771.83660486805
 30
0.0
 11
367.0745668116936
 21
-2771.33660486805
 31
0.0
  0
LINE
  5
16111
  8
01
 10
367.6745737920843
 20
-2768.33660486805
 30
0.0
 11
367.774574955482
 21
-2767.83660486805
 31
0.0
  0
LINE
  5
16112
  8
01
 10
365.3745656482957
 20
-2771.83660486805
 30
0.0
 11
365.4745668116934
 21
-2771.33660486805
 31
0.0
  0
LINE
  5
16113
  8
01
 10
363.7745656482958
 20
-2771.83660486805
 30
0.0
 11
363.8745668116935
 21
-2771.33660486805
 31
0.0
  0
LINE
  5
16114
  8
01
 10
366.0745737920799
 20
-2768.33660486805
 30
0.0
 11
366.1745749554776
 21
-2767.83660486805
 31
0.0
  0
LINE
  5
16115
  8
01
 10
364.4745737920798
 20
-2768.33660486805
 30
0.0
 11
364.5745749554775
 21
-2767.83660486805
 31
0.0
  0
LINE
  5
16116
  8
01
 10
364.5745749554775
 20
-2767.83660486805
 30
0.0
 11
365.3745656482957
 21
-2771.83660486805
 31
0.0
  0
LINE
  5
16117
  8
01
 10
371.7745656483003
 20
-2771.83660486805
 30
0.0
 11
371.8745668116979
 21
-2771.33660486805
 31
0.0
  0
LINE
  5
16118
  8
01
 10
373.3745656483046
 20
-2771.83660486805
 30
0.0
 11
373.4745668117017
 21
-2771.33660486805
 31
0.0
  0
LINE
  5
16119
  8
01
 10
368.5745656483002
 20
-2771.83660486805
 30
0.0
 11
368.6745668116979
 21
-2771.33660486805
 31
0.0
  0
LINE
  5
1611A
  8
01
 10
370.1745656483001
 20
-2771.83660486805
 30
0.0
 11
370.2745668116978
 21
-2771.33660486805
 31
0.0
  0
LINE
  5
1611B
  8
01
 10
374.0745737920848
 20
-2768.33660486805
 30
0.0
 11
374.1745749554819
 21
-2767.83660486805
 31
0.0
  0
LINE
  5
1611C
  8
01
 10
372.4745737920842
 20
-2768.33660486805
 30
0.0
 11
372.574574955482
 21
-2767.83660486805
 31
0.0
  0
LINE
  5
1611D
  8
01
 10
369.2745737920842
 20
-2768.33660486805
 30
0.0
 11
369.3745749554819
 21
-2767.83660486805
 31
0.0
  0
LINE
  5
1611E
  8
01
 10
370.8745737920843
 20
-2768.33660486805
 30
0.0
 11
370.974574955482
 21
-2767.83660486805
 31
0.0
  0
LINE
  5
1611F
  8
01
 10
370.974574955482
 20
-2767.83660486805
 30
0.0
 11
371.7745656483003
 21
-2771.83660486805
 31
0.0
  0
LINE
  5
16120
  8
01
 10
372.574574955482
 20
-2767.83660486805
 30
0.0
 11
373.3745656483046
 21
-2771.83660486805
 31
0.0
  0
LINE
  5
16121
  8
01
 10
369.3745749554819
 20
-2767.83660486805
 30
0.0
 11
370.1745656483001
 21
-2771.83660486805
 31
0.0
  0
LINE
  5
16122
  8
01
 10
367.774574955482
 20
-2767.83660486805
 30
0.0
 11
368.5745656483002
 21
-2771.83660486805
 31
0.0
  0
LINE
  5
16123
  8
01
 10
358.0745737920757
 20
-2768.33660486805
 30
0.0
 11
358.1745749554734
 21
-2767.83660486805
 31
0.0
  0
LINE
  5
16124
  8
01
 10
358.1745749554734
 20
-2767.83660486805
 30
0.0
 11
358.9745656482917
 21
-2771.83660486805
 31
0.0
  0
LINE
  5
16125
  8
01
 10
358.9745656482917
 20
-2771.83660486805
 30
0.0
 11
359.0745668116894
 21
-2771.33660486805
 31
0.0
  0
LINE
  5
16126
  8
01
 10
359.6745737920756
 20
-2768.33660486805
 30
0.0
 11
359.7745749554733
 21
-2767.83660486805
 31
0.0
  0
LINE
  5
16127
  8
01
 10
361.2745737920756
 20
-2768.33660486805
 30
0.0
 11
361.3745749554732
 21
-2767.83660486805
 31
0.0
  0
LINE
  5
16128
  8
01
 10
361.3745749554732
 20
-2767.83660486805
 30
0.0
 11
362.1745656482915
 21
-2771.83660486805
 31
0.0
  0
LINE
  5
16129
  8
01
 10
360.5745656482916
 20
-2771.83660486805
 30
0.0
 11
360.6745668116893
 21
-2771.33660486805
 31
0.0
  0
LINE
  5
1612A
  8
01
 10
362.1745656482915
 20
-2771.83660486805
 30
0.0
 11
362.2745668116892
 21
-2771.33660486805
 31
0.0
  0
LINE
  5
1612B
  8
01
 10
359.7745749554733
 20
-2767.83660486805
 30
0.0
 11
360.5745656482916
 21
-2771.83660486805
 31
0.0
  0
LINE
  5
1612C
  8
01
 10
362.8745737920799
 20
-2768.33660486805
 30
0.0
 11
362.9745749554776
 21
-2767.83660486805
 31
0.0
  0
LINE
  5
1612D
  8
01
 10
356.4745737920758
 20
-2768.33660486805
 30
0.0
 11
356.5745749554735
 21
-2767.83660486805
 31
0.0
  0
LINE
  5
1612E
  8
01
 10
356.5745749554735
 20
-2767.83660486805
 30
0.0
 11
357.3745656482918
 21
-2771.83660486805
 31
0.0
  0
LINE
  5
1612F
  8
01
 10
357.3745656482918
 20
-2771.83660486805
 30
0.0
 11
357.4745668116894
 21
-2771.33660486805
 31
0.0
  0
LINE
  5
16130
  8
01
 10
354.8745737920759
 20
-2768.33660486805
 30
0.0
 11
354.9745749554736
 21
-2767.83660486805
 31
0.0
  0
LINE
  5
16131
  8
01
 10
354.9745749554736
 20
-2767.83660486805
 30
0.0
 11
355.7745656482918
 21
-2771.83660486805
 31
0.0
  0
LINE
  5
16132
  8
01
 10
355.7745656482918
 20
-2771.83660486805
 30
0.0
 11
355.8745668116895
 21
-2771.33660486805
 31
0.0
  0
LINE
  5
16133
  8
01
 10
353.274573792076
 20
-2768.33660486805
 30
0.0
 11
353.3745749554737
 21
-2767.83660486805
 31
0.0
  0
LINE
  5
16134
  8
01
 10
353.3745749554737
 20
-2767.83660486805
 30
0.0
 11
354.1745656482919
 21
-2771.83660486805
 31
0.0
  0
LINE
  5
16135
  8
01
 10
354.1745656482919
 20
-2771.83660486805
 30
0.0
 11
354.2745668116896
 21
-2771.33660486805
 31
0.0
  0
LINE
  5
16136
  8
01
 10
143.3456243656709
 20
-2582.796713601696
 30
0.0
 11
141.8456243656709
 21
-2588.096710111558
 31
0.0
  0
LINE
  5
16137
  8
01
 10
141.8456243656709
 20
-2588.096710111558
 30
0.0
 11
141.8456243656711
 21
-2617.79671011145
 31
0.0
  0
LINE
  5
16138
  8
01
 10
143.3456243656709
 20
-2582.796713601696
 30
0.0
 11
144.845624365671
 21
-2588.096717091941
 31
0.0
  0
LINE
  5
16139
  8
01
 10
139.8455778297731
 20
-2617.796705457752
 30
0.0
 11
146.845577829773
 21
-2617.796721745316
 31
0.0
  0
LINE
  5
1613A
  8
01
 10
144.845624365671
 20
-2588.096717091941
 30
0.0
 11
144.8456243656711
 21
-2617.796717091834
 31
0.0
  0
LINE
  5
1613B
  8
01
 10
139.8455778297731
 20
-2617.796705457752
 30
0.0
 11
139.845577829773
 21
-2618.896708947947
 31
0.0
  0
ARC
  5
1613C
  8
01
 10
141.345577829773
 20
-2618.896708947947
 30
0.0
 40
1.5
 50
180.0
 51
269.9998666844684
  0
LINE
  5
1613D
  8
01
 10
146.845577829773
 20
-2617.796721745316
 30
0.0
 11
146.845577829773
 21
-2618.896718255126
 31
0.0
  0
LINE
  5
1613E
  8
01
 10
141.3455743395806
 20
-2620.396708947943
 30
0.0
 11
145.3455743395806
 21
-2620.396718255122
 31
0.0
  0
ARC
  5
1613F
  8
01
 10
145.345577829773
 20
-2618.896718255126
 30
0.0
 40
1.5
 50
269.9998666844684
 51
0.0
  0
LINE
  5
16140
  8
1CENTER
 10
143.345577829773
 20
-2581.365918684231
 30
0.0
 11
143.345577829773
 21
-2621.466990010842
 31
0.0
  0
LINE
  5
16141
  8
01
 10
142.2512540157779
 20
-2584.896711055374
 30
0.0
 11
144.2135891046534
 21
-2584.096715621323
 31
0.0
  0
LINE
  5
16142
  8
01
 10
144.2135891046534
 20
-2584.096715621323
 30
0.0
 11
143.6253125296109
 21
-2583.784945765071
 31
0.0
  0
LINE
  5
16143
  8
01
 10
141.3456243656709
 20
-2607.296708948164
 30
0.0
 11
145.3456243656709
 21
-2606.496718255346
 31
0.0
  0
LINE
  5
16144
  8
01
 10
141.3456243656709
 20
-2596.09670894816
 30
0.0
 11
145.3456243656709
 21
-2595.296718255337
 31
0.0
  0
LINE
  5
16145
  8
01
 10
141.3456243656709
 20
-2592.896708948159
 30
0.0
 11
145.3456243656709
 21
-2592.096718255337
 31
0.0
  0
LINE
  5
16146
  8
01
 10
145.3456243656709
 20
-2592.096718255337
 30
0.0
 11
144.8456243656709
 21
-2591.996717091939
 31
0.0
  0
LINE
  5
16147
  8
01
 10
141.8456243656709
 20
-2591.396710111557
 30
0.0
 11
141.3456243656709
 21
-2591.296708948159
 31
0.0
  0
LINE
  5
16148
  8
01
 10
145.3456243656709
 20
-2595.296718255337
 30
0.0
 11
144.8456243656709
 21
-2595.19671709194
 31
0.0
  0
LINE
  5
16149
  8
01
 10
145.3456243656709
 20
-2593.696718255337
 30
0.0
 11
144.8456243656709
 21
-2593.59671709194
 31
0.0
  0
LINE
  5
1614A
  8
01
 10
141.8456243656709
 20
-2592.996710111557
 30
0.0
 11
141.3456243656709
 21
-2592.896708948159
 31
0.0
  0
LINE
  5
1614B
  8
01
 10
141.8456243656709
 20
-2594.596710111557
 30
0.0
 11
141.3456243656709
 21
-2594.496708948159
 31
0.0
  0
LINE
  5
1614C
  8
01
 10
141.3456243656709
 20
-2594.496708948159
 30
0.0
 11
145.3456243656709
 21
-2593.696718255337
 31
0.0
  0
LINE
  5
1614D
  8
01
 10
144.6664032090601
 20
-2585.696716674929
 30
0.0
 11
144.1146537452569
 21
-2585.513952532301
 31
0.0
  0
LINE
  5
1614E
  8
01
 10
145.3456243656709
 20
-2588.896718255337
 30
0.0
 11
144.8456243656709
 21
-2588.79671709194
 31
0.0
  0
LINE
  5
1614F
  8
01
 10
145.3456243656709
 20
-2590.496718255337
 30
0.0
 11
144.8456243656709
 21
-2590.39671709194
 31
0.0
  0
LINE
  5
16150
  8
01
 10
145.1192173134669
 20
-2587.296717728534
 30
0.0
 11
144.5826235781958
 21
-2587.167447030904
 31
0.0
  0
LINE
  5
16151
  8
01
 10
142.2665389628796
 20
-2586.60947951412
 30
0.0
 11
141.7984405077297
 21
-2586.49671000177
 31
0.0
  0
LINE
  5
16152
  8
01
 10
141.8456243656709
 20
-2589.796710111556
 30
0.0
 11
141.3456243656709
 21
-2589.69670894816
 31
0.0
  0
LINE
  5
16153
  8
01
 10
141.8456243656709
 20
-2588.196710111557
 30
0.0
 11
141.3456243656709
 21
-2588.09670894816
 31
0.0
  0
LINE
  5
16154
  8
01
 10
142.708425856409
 20
-2585.048146851814
 30
0.0
 11
142.2512540157779
 21
-2584.896711055374
 31
0.0
  0
LINE
  5
16155
  8
01
 10
141.7984405077297
 20
-2586.49671000177
 30
0.0
 11
144.6664032090601
 21
-2585.696716674929
 31
0.0
  0
LINE
  5
16156
  8
01
 10
141.3456243656709
 20
-2589.69670894816
 30
0.0
 11
145.3456243656709
 21
-2588.896718255337
 31
0.0
  0
LINE
  5
16157
  8
01
 10
141.3456243656709
 20
-2588.09670894816
 30
0.0
 11
145.1192173134669
 21
-2587.296717728534
 31
0.0
  0
LINE
  5
16158
  8
01
 10
141.3456243656709
 20
-2591.296708948159
 30
0.0
 11
145.3456243656709
 21
-2590.496718255337
 31
0.0
  0
LINE
  5
16159
  8
01
 10
141.3456243656709
 20
-2604.096708948164
 30
0.0
 11
145.3456243656709
 21
-2603.296718255346
 31
0.0
  0
LINE
  5
1615A
  8
01
 10
145.3456243656709
 20
-2603.296718255346
 30
0.0
 11
144.8456243656709
 21
-2603.196717091948
 31
0.0
  0
LINE
  5
1615B
  8
01
 10
141.8456243656709
 20
-2602.596710111557
 30
0.0
 11
141.3456243656709
 21
-2602.496708948159
 31
0.0
  0
LINE
  5
1615C
  8
01
 10
145.3456243656709
 20
-2604.896718255346
 30
0.0
 11
144.8456243656709
 21
-2604.796717091948
 31
0.0
  0
LINE
  5
1615D
  8
01
 10
145.3456243656709
 20
-2606.496718255346
 30
0.0
 11
144.8456243656709
 21
-2606.396717091948
 31
0.0
  0
LINE
  5
1615E
  8
01
 10
141.8456243656709
 20
-2604.196710111562
 30
0.0
 11
141.3456243656709
 21
-2604.096708948164
 31
0.0
  0
LINE
  5
1615F
  8
01
 10
141.8456243656709
 20
-2605.796710111561
 30
0.0
 11
141.3456243656709
 21
-2605.696708948164
 31
0.0
  0
LINE
  5
16160
  8
01
 10
141.3456243656709
 20
-2605.696708948164
 30
0.0
 11
145.3456243656709
 21
-2604.896718255346
 31
0.0
  0
LINE
  5
16161
  8
01
 10
145.3456243656709
 20
-2598.496718255341
 30
0.0
 11
144.8456243656709
 21
-2598.396717091944
 31
0.0
  0
LINE
  5
16162
  8
01
 10
145.3456243656709
 20
-2596.896718255337
 30
0.0
 11
144.8456243656709
 21
-2596.79671709194
 31
0.0
  0
LINE
  5
16163
  8
01
 10
145.3456243656709
 20
-2601.696718255341
 30
0.0
 11
144.8456243656709
 21
-2601.596717091943
 31
0.0
  0
LINE
  5
16164
  8
01
 10
145.3456243656709
 20
-2600.096718255341
 30
0.0
 11
144.8456243656709
 21
-2599.996717091944
 31
0.0
  0
LINE
  5
16165
  8
01
 10
141.8456243656709
 20
-2596.196710111557
 30
0.0
 11
141.3456243656709
 21
-2596.09670894816
 31
0.0
  0
LINE
  5
16166
  8
01
 10
141.8456243656709
 20
-2597.796710111557
 30
0.0
 11
141.3456243656709
 21
-2597.69670894816
 31
0.0
  0
LINE
  5
16167
  8
01
 10
141.8456243656709
 20
-2600.996710111557
 30
0.0
 11
141.3456243656709
 21
-2600.896708948159
 31
0.0
  0
LINE
  5
16168
  8
01
 10
141.8456243656709
 20
-2599.396710111557
 30
0.0
 11
141.3456243656709
 21
-2599.296708948159
 31
0.0
  0
LINE
  5
16169
  8
01
 10
141.3456243656709
 20
-2599.296708948159
 30
0.0
 11
145.3456243656709
 21
-2598.496718255341
 31
0.0
  0
LINE
  5
1616A
  8
01
 10
141.3456243656709
 20
-2597.69670894816
 30
0.0
 11
145.3456243656709
 21
-2596.896718255337
 31
0.0
  0
LINE
  5
1616B
  8
01
 10
141.3456243656709
 20
-2600.896708948159
 30
0.0
 11
145.3456243656709
 21
-2600.096718255341
 31
0.0
  0
LINE
  5
1616C
  8
01
 10
141.3456243656709
 20
-2602.496708948159
 30
0.0
 11
145.3456243656709
 21
-2601.696718255341
 31
0.0
  0
LINE
  5
1616D
  8
01
 10
141.8456243656709
 20
-2612.196710111566
 30
0.0
 11
141.3456243656709
 21
-2612.096708948168
 31
0.0
  0
LINE
  5
1616E
  8
01
 10
141.3456243656709
 20
-2612.096708948168
 30
0.0
 11
145.3456243656709
 21
-2611.29671825535
 31
0.0
  0
LINE
  5
1616F
  8
01
 10
145.3456243656709
 20
-2611.29671825535
 30
0.0
 11
144.8456243656709
 21
-2611.196717091952
 31
0.0
  0
LINE
  5
16170
  8
01
 10
141.8456243656709
 20
-2610.596710111566
 30
0.0
 11
141.3456243656709
 21
-2610.496708948168
 31
0.0
  0
LINE
  5
16171
  8
01
 10
141.8456243656709
 20
-2608.996710111566
 30
0.0
 11
141.3456243656709
 21
-2608.896708948168
 31
0.0
  0
LINE
  5
16172
  8
01
 10
141.3456243656709
 20
-2608.896708948168
 30
0.0
 11
145.3456243656709
 21
-2608.09671825535
 31
0.0
  0
LINE
  5
16173
  8
01
 10
145.3456243656709
 20
-2609.69671825535
 30
0.0
 11
144.8456243656709
 21
-2609.596717091952
 31
0.0
  0
LINE
  5
16174
  8
01
 10
145.3456243656709
 20
-2608.09671825535
 30
0.0
 11
144.8456243656709
 21
-2607.996717091952
 31
0.0
  0
LINE
  5
16175
  8
01
 10
141.3456243656709
 20
-2610.496708948168
 30
0.0
 11
145.3456243656709
 21
-2609.69671825535
 31
0.0
  0
LINE
  5
16176
  8
01
 10
141.8456243656709
 20
-2607.396710111561
 30
0.0
 11
141.3456243656709
 21
-2607.296708948164
 31
0.0
  0
LINE
  5
16177
  8
01
 10
141.8456243656709
 20
-2613.796710111566
 30
0.0
 11
141.3456243656709
 21
-2613.696708948168
 31
0.0
  0
LINE
  5
16178
  8
01
 10
141.3456243656709
 20
-2613.696708948168
 30
0.0
 11
145.3456243656709
 21
-2612.89671825535
 31
0.0
  0
LINE
  5
16179
  8
01
 10
145.3456243656709
 20
-2612.89671825535
 30
0.0
 11
144.8456243656709
 21
-2612.796717091952
 31
0.0
  0
LINE
  5
1617A
  8
01
 10
141.8456243656709
 20
-2615.396710111565
 30
0.0
 11
141.3456243656709
 21
-2615.296708948168
 31
0.0
  0
LINE
  5
1617B
  8
01
 10
141.3456243656709
 20
-2615.296708948168
 30
0.0
 11
145.3456243656709
 21
-2614.49671825535
 31
0.0
  0
LINE
  5
1617C
  8
01
 10
145.3456243656709
 20
-2614.49671825535
 30
0.0
 11
144.8456243656709
 21
-2614.396717091952
 31
0.0
  0
LINE
  5
1617D
  8
01
 10
141.8456243656709
 20
-2616.996710111565
 30
0.0
 11
141.3456243656709
 21
-2616.896708948168
 31
0.0
  0
LINE
  5
1617E
  8
01
 10
141.3456243656709
 20
-2616.896708948168
 30
0.0
 11
145.3456243656709
 21
-2616.09671825535
 31
0.0
  0
LINE
  5
1617F
  8
01
 10
145.3456243656709
 20
-2616.09671825535
 30
0.0
 11
144.8456243656709
 21
-2615.996717091952
 31
0.0
  0
LINE
  5
16180
  8
1DIM
 10
359.9745703021084
 20
-2786.836558332152
 30
0.0
 11
359.9745703021084
 21
-2731.082393207554
 31
0.0
1001
ACAD
1000
DSTYLE
1002
{
1070
     3
1000
<>
1070
   271
1070
     0
1002
}
  0
LINE
  5
16181
  8
1DIM
 10
297.3455778297724
 20
-2784.582393207554
 30
0.0
 11
297.3455778297724
 21
-2731.082393207554
 31
0.0
1001
ACAD
1000
DSTYLE
1002
{
1070
     3
1000
<>
1070
   271
1070
     0
1002
}
  0
LINE
  5
16182
  8
1DIM
 10
357.9745703021084
 20
-2732.082393207554
 30
0.0
 11
299.3455778297724
 21
-2732.082393207554
 31
0.0
1001
ACAD
1000
DSTYLE
1002
{
1070
     3
1000
<>
1070
   271
1070
     0
1002
}
  0
SOLID
  5
16186
  8
1DIM
 10
188.4588790759888
 20
-2669.49832769606
 30
0.0
 11
187.7544779054269
 21
-2667.597030743445
 31
0.0
 12
189.0374401865362
 22
-2669.167100454115
 32
0.0
 13
189.0374401865362
 23
-2669.167100454115
 33
0.0
  0
LINE
  5
16187
  8
1DIM
 10
188.7481596312625
 20
-2669.332714075088
 30
0.0
 11
205.0544779054269
 21
-2697.815279561657
 31
0.0
  0
LINE
  5
16188
  8
1DIM
 10
205.0544779054269
 20
-2697.815279561657
 30
0.0
 11
244.7378112387603
 21
-2697.815279561657
 31
0.0
  0
TEXT
  5
16189
  8
1DIM
  6
CONTINUOUS
 10
207.5211445720936
 20
-2691.281946228324
 30
0.0
 40
3.5
  1
材質：アルミ
  0
TEXT
  5
1618A
  8
1DIM
  6
CONTINUOUS
 10
207.6378112387603
 20
-2697.115279561658
 30
0.0
 40
3.5
  1
仕上げ：各種仕上げ
  0
LINE
  5
1618B
  8
1DIM
 10
57.34557782977208
 20
-2752.582393207554
 30
0.0
 11
57.34557782977208
 21
-2731.082393207554
 31
0.0
  0
LINE
  5
1618C
  8
1DIM
 10
267.3455778297759
 20
-2752.582393207554
 30
0.0
 11
267.3455778297759
 21
-2731.082393207554
 31
0.0
  0
LINE
  5
1618D
  8
1DIM
 10
59.34557782977208
 20
-2732.082393207554
 30
0.0
 11
265.3455778297759
 21
-2732.082393207554
 31
0.0
  0
LINE
  5
16191
  8
1DIM
 10
359.9745703021065
 20
-2760.836558332153
 30
0.0
 11
400.9745703021084
 21
-2760.836558332153
 31
0.0
  0
LINE
  5
16192
  8
1DIM
 10
359.9745703021067
 20
-2769.836558332152
 30
0.0
 11
400.9745703021084
 21
-2769.836558332152
 31
0.0
  0
LINE
  5
16193
  8
1DIM
 10
399.9745703021084
 20
-2762.836558332153
 30
0.0
 11
399.9745703021084
 21
-2767.836558332152
 31
0.0
  0
LINE
  5
16197
  8
1DIM
 10
359.9745703021065
 20
-2760.836558332153
 30
0.0
 11
410.7066211121083
 21
-2760.836558332153
 31
0.0
  0
LINE
  5
16198
  8
1DIM
 10
359.9745703021084
 20
-2786.836558332152
 30
0.0
 11
410.7066211121083
 21
-2786.836558332152
 31
0.0
  0
LINE
  5
16199
  8
1DIM
 10
409.7066211121083
 20
-2762.836558332153
 30
0.0
 11
409.7066211121083
 21
-2784.836558332152
 31
0.0
  0
TEXT
  5
1619D
  8
1DIM
  6
CONTINUOUS
 10
366.2970160390381
 20
-2715.546061542612
 30
0.0
 40
3.5
  1
合板9mm以上
  0
SOLID
  5
1619E
  8
1DIM
 10
369.0977224686731
 20
-2728.701863059277
 30
0.0
 11
369.5525211381277
 21
-2730.677785446764
 31
0.0
 12
368.4814664872964
 22
-2728.956171945991
 32
0.0
 13
368.4814664872964
 23
-2728.956171945991
 33
0.0
  0
LINE
  5
1619F
  8
1DIM
 10
368.7895944779847
 20
-2728.829017502634
 30
0.0
 11
363.5970160390381
 21
-2716.246061542612
 31
0.0
  0
LINE
  5
161A0
  8
1DIM
 10
363.5970160390381
 20
-2716.246061542612
 30
0.0
 11
365.5970160390381
 21
-2716.246061542612
 31
0.0
  0
SOLID
  5
161A1
  8
1HATCH
 10
361.0342016561423
 20
-2728.697476529177
 30
0.0
 11
361.0545389241865
 21
-2730.724962042477
 31
0.0
 12
360.3777380987502
 22
-2728.813666211424
 32
0.0
 13
360.3777380987502
 23
-2728.813666211424
 33
0.0
  0
LINE
  5
161A2
  8
1HATCH
 10
360.7059698774463
 20
-2728.755571370301
 30
0.0
 11
357.4296715444995
 21
-2710.244715525488
 31
0.0
  0
LINE
  5
161A3
  8
1HATCH
 10
357.4296715444995
 20
-2710.244715525488
 30
0.0
 11
365.9630048778328
 21
-2710.244715525488
 31
0.0
  0
TEXT
  5
161A4
  8
1HATCH
  6
CONTINUOUS
 10
360.1296715444994
 20
-2709.544715525488
 30
0.0
 40
3.5
  1
PB
  0
LINE
  5
161A5
  8
1DIM
 10
137.3455778297721
 20
-2758.738482120799
 30
0.0
 11
137.3455778297721
 21
-2741.082393207554
 31
0.0
  0
LINE
  5
161A6
  8
1DIM
 10
187.3455778297721
 20
-2758.738482120799
 30
0.0
 11
187.3455778297721
 21
-2741.082393207554
 31
0.0
  0
LINE
  5
161A7
  8
1DIM
 10
139.3455778297721
 20
-2742.082393207554
 30
0.0
 11
185.3455778297721
 21
-2742.082393207554
 31
0.0
  0
LINE
  5
161AB
  8
1DIM
 10
352.8251240623119
 20
-2758.613440082169
 30
0.0
 11
362.8001619457289
 21
-2752.854349275004
 31
0.0
  0
LINE
  5
161AC
  8
1DIM
 10
349.3251240623126
 20
-2752.551262255678
 30
0.0
 11
359.3001619457295
 21
-2746.792171448512
 31
0.0
  0
LINE
  5
161AD
  8
1DIM
 10
360.9341365419444
 20
-2751.622298467435
 30
0.0
 11
359.4341365419449
 21
-2749.024222256081
 31
0.0
  0
LINE
  5
161AE
  8
1DIM
 10
358.4341365419451
 20
-2747.292171448512
 30
0.0
 11
353.7896428608977
 21
-2739.247672417503
 31
0.0
  0
LINE
  5
161B2
  8
1DIM
 10
143.3455778297707
 20
-2774.336558332152
 30
0.0
 11
143.3455778297707
 21
-2797.836558332152
 31
0.0
  0
LINE
  5
161B3
  8
1DIM
 10
181.3455778297734
 20
-2774.336558332152
 30
0.0
 11
181.3455778297734
 21
-2797.836558332152
 31
0.0
  0
LINE
  5
161B4
  8
1DIM
 10
145.3455778297707
 20
-2796.836558332152
 30
0.0
 11
179.3455778297734
 21
-2796.836558332152
 31
0.0
  0
LINE
  5
161B8
  8
1DIM
 10
297.8145617295695
 20
-2786.332351168923
 30
0.0
 11
290.5100339691437
 21
-2773.680537962568
 31
0.0
  0
LINE
  5
161B9
  8
1DIM
 10
354.1062129755583
 20
-2753.832351168923
 30
0.0
 11
346.8016852151322
 21
-2741.180537962568
 31
0.0
  0
LINE
  5
161BA
  8
1DIM
 10
292.7420847767125
 20
-2773.546563366353
 30
0.0
 11
345.5696344075634
 21
-2743.046563366353
 31
0.0
  0
LINE
  5
161BE
  8
1DIM
 10
266.8455778297725
 20
-2752.082393207554
 30
0.0
 11
278.3455778297721
 21
-2752.082393207554
 31
0.0
  0
LINE
  5
161BF
  8
1DIM
 10
266.8455778297725
 20
-2788.082393207554
 30
0.0
 11
278.3455778297721
 21
-2788.082393207554
 31
0.0
  0
LINE
  5
161C0
  8
1DIM
 10
277.3455778297721
 20
-2754.082393207554
 30
0.0
 11
277.3455778297721
 21
-2786.082393207554
 31
0.0
  0
LINE
  5
161C4
  8
0
  6
BYBLOCK
 10
357.9745703021084
 20
-2731.546494827553
 30
0.0
 11
359.9745703021084
 21
-2732.082393207554
 31
0.0
  0
LINE
  5
161C5
  8
0
  6
BYBLOCK
 10
359.9745703021084
 20
-2732.082393207554
 30
0.0
 11
357.9745703021084
 21
-2732.618291587554
 31
0.0
  0
LINE
  5
161C6
  8
0
  6
BYBLOCK
 10
359.9745703021084
 20
-2732.082393207554
 30
0.0
 11
357.9745703021084
 21
-2732.082393207554
 31
0.0
  0
LINE
  5
161C7
  8
0
  6
BYBLOCK
 10
299.3455778297724
 20
-2732.618291587554
 30
0.0
 11
297.3455778297724
 21
-2732.082393207554
 31
0.0
  0
LINE
  5
161C8
  8
0
  6
BYBLOCK
 10
297.3455778297724
 20
-2732.082393207554
 30
0.0
 11
299.3455778297724
 21
-2731.546494827553
 31
0.0
  0
LINE
  5
161C9
  8
0
  6
BYBLOCK
 10
297.3455778297724
 20
-2732.082393207554
 30
0.0
 11
299.3455778297724
 21
-2732.082393207554
 31
0.0
  0
TEXT
  5
161CA
  8
1DIM
  6
CONTINUOUS
 10
325.7312546214959
 20
-2731.382393207554
 30
0.0
 40
3.5
  1
63
1001
ACAD
1000
DSTYLE
1002
{
1070
     3
1000
<>
1070
   271
1070
     0
1002
}
  0
LINE
  5
161CB
  8
0
  6
BYBLOCK
 10
59.34557782977208
 20
-2732.618291587554
 30
0.0
 11
57.34557782977208
 21
-2732.082393207554
 31
0.0
  0
LINE
  5
161CC
  8
0
  6
BYBLOCK
 10
57.34557782977208
 20
-2732.082393207554
 30
0.0
 11
59.34557782977208
 21
-2731.546494827553
 31
0.0
  0
LINE
  5
161CD
  8
0
  6
BYBLOCK
 10
57.34557782977208
 20
-2732.082393207554
 30
0.0
 11
59.34557782977208
 21
-2732.082393207554
 31
0.0
  0
LINE
  5
161CE
  8
0
  6
BYBLOCK
 10
265.3455778297759
 20
-2731.546494827553
 30
0.0
 11
267.3455778297759
 21
-2732.082393207554
 31
0.0
  0
LINE
  5
161CF
  8
0
  6
BYBLOCK
 10
267.3455778297759
 20
-2732.082393207554
 30
0.0
 11
265.3455778297759
 21
-2732.618291587554
 31
0.0
  0
LINE
  5
161D0
  8
0
  6
BYBLOCK
 10
267.3455778297759
 20
-2732.082393207554
 30
0.0
 11
265.3455778297759
 21
-2732.082393207554
 31
0.0
  0
TEXT
  5
161D1
  8
1DIM
  6
CONTINUOUS
 10
158.4809944964407
 20
-2731.382393207554
 30
0.0
 40
3.5
  1
210
  0
LINE
  5
161D2
  8
0
  6
BYBLOCK
 10
399.4386719221084
 20
-2762.836558332153
 30
0.0
 11
399.9745703021084
 21
-2760.836558332153
 31
0.0
  0
LINE
  5
161D3
  8
0
  6
BYBLOCK
 10
399.9745703021084
 20
-2760.836558332153
 30
0.0
 11
400.5104686821084
 21
-2762.836558332153
 31
0.0
  0
LINE
  5
161D4
  8
0
  6
BYBLOCK
 10
399.9745703021084
 20
-2760.836558332153
 30
0.0
 11
399.9745703021084
 21
-2762.836558332153
 31
0.0
  0
LINE
  5
161D5
  8
0
  6
BYBLOCK
 10
400.5104686821084
 20
-2767.836558332152
 30
0.0
 11
399.9745703021084
 21
-2769.836558332152
 31
0.0
  0
LINE
  5
161D6
  8
0
  6
BYBLOCK
 10
399.9745703021084
 20
-2769.836558332152
 30
0.0
 11
399.4386719221084
 21
-2767.836558332152
 31
0.0
  0
LINE
  5
161D7
  8
0
  6
BYBLOCK
 10
399.9745703021084
 20
-2769.836558332152
 30
0.0
 11
399.9745703021084
 21
-2767.836558332152
 31
0.0
  0
TEXT
  5
161D8
  8
1DIM
  6
CONTINUOUS
 10
399.2745703021087
 20
-2766.50484536919
 30
0.0
 40
3.5
  1
9
 50
90.0
  0
LINE
  5
161D9
  8
0
  6
BYBLOCK
 10
409.1707227321083
 20
-2762.836558332153
 30
0.0
 11
409.7066211121083
 21
-2760.836558332153
 31
0.0
  0
LINE
  5
161DA
  8
0
  6
BYBLOCK
 10
409.7066211121083
 20
-2760.836558332153
 30
0.0
 11
410.2425194921083
 21
-2762.836558332153
 31
0.0
  0
LINE
  5
161DB
  8
0
  6
BYBLOCK
 10
409.7066211121083
 20
-2760.836558332153
 30
0.0
 11
409.7066211121083
 21
-2762.836558332153
 31
0.0
  0
LINE
  5
161DC
  8
0
  6
BYBLOCK
 10
410.2425194921083
 20
-2784.836558332152
 30
0.0
 11
409.7066211121083
 21
-2786.836558332152
 31
0.0
  0
LINE
  5
161DD
  8
0
  6
BYBLOCK
 10
409.7066211121083
 20
-2786.836558332152
 30
0.0
 11
409.1707227321083
 21
-2784.836558332152
 31
0.0
  0
LINE
  5
161DE
  8
0
  6
BYBLOCK
 10
409.7066211121083
 20
-2786.836558332152
 30
0.0
 11
409.7066211121083
 21
-2784.836558332152
 31
0.0
  0
TEXT
  5
161DF
  8
1DIM
  6
CONTINUOUS
 10
409.0066211121089
 20
-2777.753224998819
 30
0.0
 40
3.5
  1
26
 50
90.0
  0
LINE
  5
161E0
  8
0
  6
BYBLOCK
 10
139.3455778297721
 20
-2742.618291587554
 30
0.0
 11
137.3455778297721
 21
-2742.082393207554
 31
0.0
  0
LINE
  5
161E1
  8
0
  6
BYBLOCK
 10
137.3455778297721
 20
-2742.082393207554
 30
0.0
 11
139.3455778297721
 21
-2741.546494827553
 31
0.0
  0
LINE
  5
161E2
  8
0
  6
BYBLOCK
 10
137.3455778297721
 20
-2742.082393207554
 30
0.0
 11
139.3455778297721
 21
-2742.082393207554
 31
0.0
  0
LINE
  5
161E3
  8
0
  6
BYBLOCK
 10
185.3455778297721
 20
-2741.546494827553
 30
0.0
 11
187.3455778297721
 21
-2742.082393207554
 31
0.0
  0
LINE
  5
161E4
  8
0
  6
BYBLOCK
 10
187.3455778297721
 20
-2742.082393207554
 30
0.0
 11
185.3455778297721
 21
-2742.618291587554
 31
0.0
  0
LINE
  5
161E5
  8
0
  6
BYBLOCK
 10
187.3455778297721
 20
-2742.082393207554
 30
0.0
 11
185.3455778297721
 21
-2742.082393207554
 31
0.0
  0
TEXT
  5
161E6
  8
1DIM
  6
CONTINUOUS
 10
159.6355083853276
 20
-2741.382393207553
 30
0.0
 40
3.5
  1
50
  0
LINE
  5
161E7
  8
0
  6
BYBLOCK
 10
361.3982381528716
 20
-2751.354349277435
 30
0.0
 11
361.9341365419444
 21
-2753.354349275004
 31
0.0
  0
LINE
  5
161E8
  8
0
  6
BYBLOCK
 10
361.9341365419444
 20
-2753.354349275004
 30
0.0
 11
360.4700349310177
 21
-2751.890247657434
 31
0.0
  0
LINE
  5
161E9
  8
0
  6
BYBLOCK
 10
361.9341365419444
 20
-2753.354349275004
 30
0.0
 11
360.9341365419447
 21
-2751.622298467435
 31
0.0
  0
LINE
  5
161EA
  8
0
  6
BYBLOCK
 10
358.9700349310179
 20
-2749.292171446081
 30
0.0
 11
358.4341365419451
 21
-2747.292171448512
 31
0.0
  0
LINE
  5
161EB
  8
0
  6
BYBLOCK
 10
358.4341365419451
 20
-2747.292171448512
 30
0.0
 11
359.8982381528719
 21
-2748.756273066081
 31
0.0
  0
LINE
  5
161EC
  8
0
  6
BYBLOCK
 10
358.4341365419451
 20
-2747.292171448512
 30
0.0
 11
359.4341365419449
 21
-2749.024222256081
 31
0.0
  0
TEXT
  5
161ED
  8
1DIM
  6
CONTINUOUS
 10
354.7458606435466
 20
-2739.503890200152
 30
0.0
 40
3.5
  1
7
 50
299.9999999999931
  0
LINE
  5
161EE
  8
0
  6
BYBLOCK
 10
145.3455778297707
 20
-2797.372456712152
 30
0.0
 11
143.3455778297707
 21
-2796.836558332152
 31
0.0
  0
LINE
  5
161EF
  8
0
  6
BYBLOCK
 10
143.3455778297707
 20
-2796.836558332152
 30
0.0
 11
145.3455778297707
 21
-2796.300659952152
 31
0.0
  0
LINE
  5
161F0
  8
0
  6
BYBLOCK
 10
143.3455778297707
 20
-2796.836558332152
 30
0.0
 11
145.3455778297707
 21
-2796.836558332152
 31
0.0
  0
LINE
  5
161F1
  8
0
  6
BYBLOCK
 10
179.3455778297734
 20
-2796.300659952152
 30
0.0
 11
181.3455778297734
 21
-2796.836558332152
 31
0.0
  0
LINE
  5
161F2
  8
0
  6
BYBLOCK
 10
181.3455778297734
 20
-2796.836558332152
 30
0.0
 11
179.3455778297734
 21
-2797.372456712152
 31
0.0
  0
LINE
  5
161F3
  8
0
  6
BYBLOCK
 10
181.3455778297734
 20
-2796.836558332152
 30
0.0
 11
179.3455778297734
 21
-2796.836558332152
 31
0.0
  0
TEXT
  5
161F4
  8
1DIM
  6
CONTINUOUS
 10
159.4289111631054
 20
-2796.136558332152
 30
0.0
 40
3.5
  1
38
  0
LINE
  5
161F5
  8
0
  6
BYBLOCK
 10
293.0100339667126
 20
-2774.010664977279
 30
0.0
 11
291.0100339691437
 21
-2774.546563366353
 31
0.0
  0
LINE
  5
161F6
  8
0
  6
BYBLOCK
 10
291.0100339691437
 20
-2774.546563366353
 30
0.0
 11
292.4741355867126
 21
-2773.082461755426
 31
0.0
  0
LINE
  5
161F7
  8
0
  6
BYBLOCK
 10
291.0100339691437
 20
-2774.546563366353
 30
0.0
 11
292.7420847767126
 21
-2773.546563366353
 31
0.0
  0
LINE
  5
161F8
  8
0
  6
BYBLOCK
 10
345.3016852175634
 20
-2742.582461755426
 30
0.0
 11
347.3016852151322
 21
-2742.046563366353
 31
0.0
  0
LINE
  5
161F9
  8
0
  6
BYBLOCK
 10
347.3016852151322
 20
-2742.046563366353
 30
0.0
 11
345.8375835975634
 21
-2743.510664977279
 31
0.0
  0
LINE
  5
161FA
  8
0
  6
BYBLOCK
 10
347.3016852151322
 20
-2742.046563366353
 30
0.0
 11
345.5696344075633
 21
-2743.046563366353
 31
0.0
  0
TEXT
  5
161FB
  8
1DIM
  6
CONTINUOUS
 10
316.269427550151
 20
-2759.154755305925
 30
0.0
 40
3.5
  1
65
 50
29.99999999999999
  0
LINE
  5
161FC
  8
0
  6
BYBLOCK
 10
276.8096794497721
 20
-2754.082393207554
 30
0.0
 11
277.3455778297721
 21
-2752.082393207554
 31
0.0
  0
LINE
  5
161FD
  8
0
  6
BYBLOCK
 10
277.3455778297721
 20
-2752.082393207554
 30
0.0
 11
277.8814762097721
 21
-2754.082393207554
 31
0.0
  0
LINE
  5
161FE
  8
0
  6
BYBLOCK
 10
277.3455778297721
 20
-2752.082393207554
 30
0.0
 11
277.3455778297721
 21
-2754.082393207554
 31
0.0
  0
LINE
  5
161FF
  8
0
  6
BYBLOCK
 10
277.8814762097721
 20
-2786.082393207554
 30
0.0
 11
277.3455778297721
 21
-2788.082393207554
 31
0.0
  0
LINE
  5
16200
  8
0
  6
BYBLOCK
 10
277.3455778297721
 20
-2788.082393207554
 30
0.0
 11
276.8096794497721
 21
-2786.082393207554
 31
0.0
  0
LINE
  5
16201
  8
0
  6
BYBLOCK
 10
277.3455778297721
 20
-2788.082393207554
 30
0.0
 11
277.3455778297721
 21
-2786.082393207554
 31
0.0
  0
TEXT
  5
16202
  8
1DIM
  6
CONTINUOUS
 10
276.6455778297727
 20
-2772.99905987422
 30
0.0
 40
3.5
  1
36
 50
90.0
  0
VIEWPORT
  5
57
 67
     1
  8
0
 10
0.0
 20
0.0
 30
0.0
 40
554.37576499388
 41
297.0
 68
     1
 69
     1
1001
ACAD
1000
MVIEW
1002
{
1070
    16
1010
0.0
1020
0.0
1030
0.0
1010
0.0
1020
0.0
1030
1.0
1040
0.0
1040
297.0
1040
-4.171999999999798
1040
12.83899999999988
1040
50.0
1040
0.0
1040
0.0
1070
     0
1070
   100
1070
     0
1070
     1
1070
     0
1070
     0
1070
     0
1070
     0
1040
0.0
1040
0.0
1040
0.0
1040
10.0
1040
10.0
1040
10.0
1040
10.0
1070
     0
1002
{
1002
}
1002
}
  0
ENDSEC
  0
EOF
