  0
SECTION
  2
HEADER
  9
$ACADVER
  1
AC1009
  9
$DWGCODEPAGE
  3
ansi_932
  9
$INSBASE
 10
0.0
 20
0.0
 30
0.0
  9
$EXTMIN
 10
146.016241615364
 20
-734.4213303512677
 30
0.0
  9
$EXTMAX
 10
795.516241615365
 20
-460.025441490976
 30
0.0
  9
$LIMMIN
 10
0.0
 20
0.0
  9
$LIMMAX
 10
420.0
 20
297.0
  9
$ORTHOMODE
 70
     0
  9
$REGENMODE
 70
     1
  9
$FILLMODE
 70
     1
  9
$QTEXTMODE
 70
     0
  9
$MIRRTEXT
 70
     0
  9
$DRAGMODE
 70
     2
  9
$LTSCALE
 40
0.5
  9
$OSMODE
 70
 14591
  9
$ATTMODE
 70
     1
  9
$TEXTSIZE
 40
4.0
  9
$TRACEWID
 40
1.0
  9
$TEXTSTYLE
  7
STANDARD
  9
$CLAYER
  8
1TEXT
  9
$CELTYPE
  6
BYLAYER
  9
$CECOLOR
 62
   256
  9
$DIMSCALE
 40
1.0
  9
$DIMASZ
 40
2.0
  9
$DIMEXO
 40
0.0
  9
$DIMDLI
 40
7.0
  9
$DIMRND
 40
0.0
  9
$DIMDLE
 40
0.0
  9
$DIMEXE
 40
1.0
  9
$DIMTP
 40
0.0
  9
$DIMTM
 40
0.0
  9
$DIMTXT
 40
3.5
  9
$DIMCEN
 40
0.0
  9
$DIMTSZ
 40
0.0
  9
$DIMTOL
 70
     0
  9
$DIMLIM
 70
     0
  9
$DIMTIH
 70
     0
  9
$DIMTOH
 70
     0
  9
$DIMSE1
 70
     0
  9
$DIMSE2
 70
     0
  9
$DIMTAD
 70
     1
  9
$DIMZIN
 70
     8
  9
$DIMBLK
  1

  9
$DIMASO
 70
     1
  9
$DIMSHO
 70
     1
  9
$DIMPOST
  1
 
  9
$DIMAPOST
  1

  9
$DIMALT
 70
     0
  9
$DIMALTD
 70
     2
  9
$DIMALTF
 40
25.4
  9
$DIMLFAC
 40
1.0
  9
$DIMTOFL
 70
     1
  9
$DIMTVP
 40
0.0
  9
$DIMTIX
 70
     0
  9
$DIMSOXD
 70
     0
  9
$DIMSAH
 70
     1
  9
$DIMBLK1
  1
OPEN30
  9
$DIMBLK2
  1
OPEN30
  9
$DIMSTYLE
  2
NEWX10
  9
$DIMCLRD
 70
   256
  9
$DIMCLRE
 70
   256
  9
$DIMCLRT
 70
   201
  9
$DIMTFAC
 40
0.7
  9
$DIMGAP
 40
0.7
  9
$LUNITS
 70
     2
  9
$LUPREC
 70
     4
  9
$SKETCHINC
 40
1.0
  9
$FILLETRAD
 40
0.0
  9
$AUNITS
 70
     0
  9
$AUPREC
 70
     2
  9
$MENU
  1
acad
  9
$ELEVATION
 40
0.0
  9
$PELEVATION
 40
0.0
  9
$THICKNESS
 40
0.0
  9
$LIMCHECK
 70
     0
  9
$CHAMFERA
 40
1.0
  9
$CHAMFERB
 40
1.0
  9
$SKPOLY
 70
     0
  9
$TDCREATE
 40
2453033.732663484
  9
$TDUPDATE
 40
2459825.425568669
  9
$TDINDWG
 40
2.3679713889
  9
$TDUSRTIMER
 40
2.3679713889
  9
$USRTIMER
 70
     1
  9
$ANGBASE
 50
0.0
  9
$ANGDIR
 70
     0
  9
$PDMODE
 70
     0
  9
$PDSIZE
 40
0.0
  9
$PLINEWID
 40
0.0
  9
$COORDS
 70
     2
  9
$SPLFRAME
 70
     0
  9
$SPLINETYPE
 70
     6
  9
$SPLINESEGS
 70
     8
  9
$ATTDIA
 70
     0
  9
$ATTREQ
 70
     1
  9
$HANDLING
 70
     1
  9
$HANDSEED
  5
2236F
  9
$SURFTAB1
 70
     6
  9
$SURFTAB2
 70
     6
  9
$SURFTYPE
 70
     6
  9
$SURFU
 70
     6
  9
$SURFV
 70
     6
  9
$UCSNAME
  2

  9
$UCSORG
 10
0.0
 20
0.0
 30
0.0
  9
$UCSXDIR
 10
1.0
 20
0.0
 30
0.0
  9
$UCSYDIR
 10
0.0
 20
1.0
 30
0.0
  9
$PUCSNAME
  2

  9
$PUCSORG
 10
0.0
 20
0.0
 30
0.0
  9
$PUCSXDIR
 10
1.0
 20
0.0
 30
0.0
  9
$PUCSYDIR
 10
0.0
 20
1.0
 30
0.0
  9
$USERI1
 70
     0
  9
$USERI2
 70
     0
  9
$USERI3
 70
     0
  9
$USERI4
 70
     0
  9
$USERI5
 70
     0
  9
$USERR1
 40
0.0
  9
$USERR2
 40
0.0
  9
$USERR3
 40
0.0
  9
$USERR4
 40
0.0
  9
$USERR5
 40
0.0
  9
$WORLDVIEW
 70
     1
  9
$SHADEDGE
 70
     3
  9
$SHADEDIF
 70
    70
  9
$TILEMODE
 70
     1
  9
$MAXACTVP
 70
    48
  9
$PLIMCHECK
 70
     0
  9
$PEXTMIN
 10
1.000000000000000E+20
 20
1.000000000000000E+20
 30
1.000000000000000E+20
  9
$PEXTMAX
 10
-1.000000000000000E+20
 20
-1.000000000000000E+20
 30
-1.000000000000000E+20
  9
$PLIMMIN
 10
0.0
 20
0.0
  9
$PLIMMAX
 10
420.0
 20
297.0
  9
$UNITMODE
 70
     0
  9
$VISRETAIN
 70
     1
  9
$PLINEGEN
 70
     0
  9
$PSLTSCALE
 70
     1
  0
ENDSEC
  0
SECTION
  2
TABLES
  0
TABLE
  2
VPORT
 70
     1
  0
VPORT
  2
*ACTIVE
 70
     0
 10
0.0
 20
0.0
 11
1.0
 21
1.0
 12
470.7662416153645
 22
-597.2233859211219
 13
0.0
 23
0.0
 14
10.0
 24
10.0
 15
10.0
 25
10.0
 16
0.0
 26
0.0
 36
1.0
 17
0.0
 27
0.0
 37
0.0
 40
373.6009180327874
 41
1.866585067319461
 42
50.0
 43
0.0
 44
0.0
 50
0.0
 51
0.0
 71
    16
 72
   100
 73
     1
 74
     1
 75
     0
 76
     0
 77
     0
 78
     0
  0
ENDTAB
  0
TABLE
  2
LTYPE
 70
    18
  0
LTYPE
  2
CONTINUOUS
 70
     0
  3
Solid line
 72
    65
 73
     0
 40
0.0
  0
LTYPE
  2
CENTER2
 70
     0
  3
Center (.5x) ___ _ ___ _ ___ _ ___ _ ___ _ ___
 72
    65
 73
     4
 40
28.575
 49
19.05
 49
-3.175
 49
3.175
 49
-3.175
  0
ENDTAB
  0
TABLE
  2
LAYER
 70
    45
  0
LAYER
  2
0
 70
     0
 62
     7
  6
CONTINUOUS
  0
LAYER
  2
1CENTER
 70
     0
 62
     7
  6
CENTER2
  0
LAYER
  2
1TEXT
 70
     0
 62
     7
  6
CONTINUOUS
  0
LAYER
  2
1DIM
 70
     0
 62
     7
  6
CONTINUOUS
  0
LAYER
  2
01
 70
     0
 62
     1
  6
CONTINUOUS
  0
LAYER
  2
1DIM1
 70
     0
 62
     7
  6
CONTINUOUS
  0
ENDTAB
  0
TABLE
  2
STYLE
 70
    26
  0
STYLE
  2
STANDARD
 70
     0
 40
0.0
 41
1.0
 50
0.0
 71
     0
 42
4.0
  3
txt.shx
  4
extfont.shx
  0
ENDTAB
  0
TABLE
  2
VIEW
 70
     0
  0
ENDTAB
  0
TABLE
  2
UCS
 70
     0
  0
ENDTAB
  0
TABLE
  2
APPID
 70
    17
  0
APPID
  2
ACAD
 70
     0
  0
APPID
  2
DRAWINGVARIABLESXDATA
 70
     0
  0
APPID
  2
CONTENTTABDATA
 70
     0
  0
APPID
  2
CONTENTCURRENTTAB
 70
     0
  0
APPID
  2
CONTENTBLOCKDESCRIPTION
 70
     0
  0
APPID
  2
CONTENTBLOCKICON
 70
     0
  0
APPID
  2
CONTENTLONGBLOCKNAME
 70
     0
  0
APPID
  2
ACAD_PSEXT
 70
     0
  0
APPID
  2
ACAD_DSTYLE_DIMTEXT_FILL
 70
     0
  0
APPID
  2
ACAD_MLEADERVER
 70
     0
  0
APPID
  2
ACAD_DSTYLE_DIMRADIAL_EXTE
 70
     0
  0
APPID
  2
ACADANNOTATIVE
 70
     0
  0
APPID
  2
ACAD_EXEMPT_FROM_CAD_STAND
 70
     0
  0
APPID
  2
ACDBBLOCKREPETAG
 70
     0
  0
APPID
  2
ACAD_OBJECT_CHANGE_GUID
 70
     0
  0
APPID
  2
ACLAYERTOOLS
 70
     0
  0
APPID
  2
ACAD_NAV_VCDISPLAY
 70
     0
  0
ENDTAB
  0
TABLE
  2
DIMSTYLE
 70
    10
  0
DIMSTYLE
  2
NEWX10
 70
     0
  3
 
  4

  5

  6
OPEN30
  7
OPEN30
 40
1.0
 41
2.0
 42
0.0
 43
7.0
 44
1.0
 45
0.0
 46
0.0
 47
0.0
 48
0.0
140
3.5
141
0.0
142
0.0
143
25.4
144
1.0
145
0.0
146
0.7
147
0.7
 71
     0
 72
     0
 73
     0
 74
     0
 75
     0
 76
     0
 77
     1
 78
     8
170
     0
171
     2
172
     1
173
     1
174
     0
175
     0
176
   256
177
   256
178
   201
  0
ENDTAB
  0
ENDSEC
  0
SECTION
  2
BLOCKS
  0
BLOCK
  8
0
  2
$MODEL_SPACE
 70
     0
 10
0.0
 20
0.0
 30
0.0
  3
$MODEL_SPACE
  1

  0
ENDBLK
  5
1A
  8
0
  0
BLOCK
 67
     1
  8
0
  2
$PAPER_SPACE
 70
     0
 10
0.0
 20
0.0
 30
0.0
  3
$PAPER_SPACE
  1

  0
ENDBLK
  5
17
 67
     1
  8
0
  0
BLOCK
  8
0
  2
_OPEN30
 70
     0
 10
0.0
 20
0.0
 30
0.0
  3
_OPEN30
  1

  0
LINE
  5
44
  8
0
  6
BYBLOCK
 62
     0
 10
-1.0
 20
0.26794919
 30
0.0
 11
0.0
 21
0.0
 31
0.0
  0
LINE
  5
45
  8
0
  6
BYBLOCK
 62
     0
 10
0.0
 20
0.0
 30
0.0
 11
-1.0
 21
-0.26794919
 31
0.0
  0
LINE
  5
46
  8
0
  6
BYBLOCK
 62
     0
 10
0.0
 20
0.0
 30
0.0
 11
-1.0
 21
0.0
 31
0.0
  0
ENDBLK
  5
47
  8
0
  0
BLOCK
  8
0
  2
A3WAKUKAWAJUN2017_HYOUDAI_
 70
     0
 10
0.0
 20
0.0
 30
0.0
  3
A3WAKUKAWAJUN2017_HYOUDAI_
  1

  0
LINE
  5
20318
  8
0
 10
13.26299999998673
 20
-0.0001000000000317
 30
0.0
 11
9.236999999990758
 21
8.999899999990987
 31
0.0
1001
ACAD
1000
ASC_BOUNDS
1002
{
1070
    19
1005
20359
1002
}
  0
LINE
  5
20319
  8
0
 10
5.657999999994331
 20
0.9999999999989768
 30
0.0
 11
9.236999999990758
 21
8.999999999991019
 31
0.0
1001
ACAD
1000
ASC_BOUNDS
1002
{
1070
    19
1005
20359
1002
}
  0
LINE
  5
2031A
  8
0
 10
18.59199999998134
 20
-0.2368999999997641
 30
0.0
 11
16.46099999998353
 21
5.432899999994561
 31
0.0
1001
ACAD
1000
ASC_BOUNDS
1002
{
1070
    19
1005
2035A
1002
}
  0
LINE
  5
2031B
  8
0
 10
18.59199999998134
 20
-0.2368999999997641
 30
0.0
 11
22.38199999997767
 21
8.763099999991255
 31
0.0
1001
ACAD
1000
ASC_BOUNDS
1002
{
1070
    19
1005
2035A
1002
}
  0
LINE
  5
2031C
  8
0
 10
14.32899999998563
 20
-0.2368999999997641
 30
0.0
 11
16.46099999998353
 21
5.432899999994561
 31
0.0
1001
ACAD
1000
ASC_BOUNDS
1002
{
1070
    19
1005
2035A
1002
}
  0
LINE
  5
2031D
  8
0
 10
14.32899999998563
 20
-0.2368999999997641
 30
0.0
 11
10.53899999998941
 21
8.763099999991255
 31
0.0
1001
ACAD
1000
ASC_BOUNDS
1002
{
1070
    19
1005
2035A
1002
}
  0
LINE
  5
2031E
  8
0
 10
19.53899999998043
 20
-0.0001000000000317
 30
0.0
 11
23.56599999997638
 21
8.999899999990987
 31
0.0
1001
ACAD
1000
ASC_BOUNDS
1002
{
1070
    19
1005
2035B
1002
}
  0
LINE
  5
2031F
  8
0
 10
26.97358892824991
 20
1.383099999991202
 30
0.0
 11
23.56599999997638
 21
8.999899999990987
 31
0.0
1001
ACAD
1000
ASC_BOUNDS
1002
{
1070
    19
1005
2035B
1002
}
  0
LINE
  5
20320
  8
0
 10
5.657999999994331
 20
0.9999999999989768
 30
0.0
 11
3.181999999996833
 21
4.668599999995308
 31
0.0
1001
ACAD
1000
ASC_BOUNDS
1002
{
1070
    19
1005
20359
1002
}
  0
LINE
  5
20321
  8
0
 10
4.617999999995391
 20
-0.0001000000000317
 30
0.0
 11
1.420999999998571
 21
4.736799999995242
 31
0.0
1001
ACAD
1000
ASC_BOUNDS
1002
{
1070
    19
1005
20359
1002
}
  0
LINE
  5
20322
  8
0
 10
1.420999999998571
 20
8.763099999991255
 30
0.0
 11
1.420999999998571
 21
0.0
 31
0.0
1001
ACAD
1000
ASC_BOUNDS
1002
{
1070
    19
1005
2035E
1002
}
  0
LINE
  5
20323
  8
0
 10
0.0
 20
8.763099999991255
 30
0.0
 11
0.0
 21
0.0
 31
0.0
1001
ACAD
1000
ASC_BOUNDS
1002
{
1070
    19
1005
2035E
1002
}
  0
LINE
  5
20324
  8
0
 10
6.766999999993232
 20
-0.0001000000000317
 30
0.0
 11
7.826999999992154
 21
2.368399999997621
 31
0.0
1001
ACAD
1000
ASC_BOUNDS
1002
{
1070
    19
1005
20359
1002
}
  0
LINE
  5
20325
  8
0
 10
0.0
 20
0.0
 30
0.0
 11
1.420999999998571
 21
0.0
 31
0.0
1001
ACAD
1000
ASC_BOUNDS
1002
{
1070
    19
1005
2035E
1002
}
  0
LINE
  5
20326
  8
0
 10
4.617999999995391
 20
0.0
 30
0.0
 11
6.766999999993232
 21
0.0
 31
0.0
1001
ACAD
1000
ASC_BOUNDS
1002
{
1070
    19
1005
20359
1002
}
  0
LINE
  5
20327
  8
0
 10
11.70599999998831
 20
-0.0001000000000317
 30
0.0
 11
10.64699999998936
 21
2.368399999997621
 31
0.0
1001
ACAD
1000
ASC_BOUNDS
1002
{
1070
    19
1005
20359
1002
}
  0
LINE
  5
20328
  8
0
 10
7.826999999992154
 20
2.368399999997621
 30
0.0
 11
10.64699999998936
 21
2.368399999997621
 31
0.0
1001
ACAD
1000
ASC_BOUNDS
1002
{
1070
    19
1005
20359
1002
}
  0
LINE
  5
20329
  8
0
 10
11.70599999998831
 20
0.0
 30
0.0
 11
13.26299999998673
 21
0.0
 31
0.0
1001
ACAD
1000
ASC_BOUNDS
1002
{
1070
    19
1005
20359
1002
}
  0
LINE
  5
2032A
  8
0
 10
22.15599999997789
 20
2.368399999997621
 30
0.0
 11
24.97599999997499
 21
2.368399999997621
 31
0.0
1001
ACAD
1000
ASC_BOUNDS
1002
{
1070
    19
1005
2035B
1002
}
  0
LINE
  5
2032B
  8
0
 10
19.53899999998043
 20
0.0
 30
0.0
 11
21.09599999997886
 21
0.0
 31
0.0
1001
ACAD
1000
ASC_BOUNDS
1002
{
1070
    19
1005
2035B
1002
}
  0
LINE
  5
2032C
  8
0
 10
21.09599999997886
 20
-0.0001000000000317
 30
0.0
 11
22.15599999997789
 21
2.368399999997621
 31
0.0
1001
ACAD
1000
ASC_BOUNDS
1002
{
1070
    19
1005
2035B
1002
}
  0
LINE
  5
2032D
  8
0
 10
26.02015566812236
 20
0.0330999999912365
 30
0.0
 11
24.97599999997499
 21
2.368399999997621
 31
0.0
1001
ACAD
1000
ASC_BOUNDS
1002
{
1070
    19
1005
2035B
1002
}
  0
LINE
  5
2032E
  8
0
 10
14.32399999998563
 20
3.315799999996671
 30
0.0
 11
16.46099999998353
 21
8.999899999990987
 31
0.0
1001
ACAD
1000
ASC_BOUNDS
1002
{
1070
    19
1005
2035A
1002
}
  0
LINE
  5
2032F
  8
0
 10
6.432999999993513
 20
8.763099999991255
 30
0.0
 11
3.181999999996833
 21
4.668599999995308
 31
0.0
1001
ACAD
1000
ASC_BOUNDS
1002
{
1070
    19
1005
20359
1002
}
  0
LINE
  5
20330
  8
0
 10
4.617999999995391
 20
8.763099999991255
 30
0.0
 11
1.420999999998571
 21
4.736799999995242
 31
0.0
1001
ACAD
1000
ASC_BOUNDS
1002
{
1070
    19
1005
20359
1002
}
  0
LINE
  5
20331
  8
0
 10
0.0
 20
8.763099999991255
 30
0.0
 11
1.420999999998571
 21
8.763099999991255
 31
0.0
1001
ACAD
1000
ASC_BOUNDS
1002
{
1070
    19
1005
2035E
1002
}
  0
LINE
  5
20332
  8
0
 10
4.617999999995391
 20
8.763099999991255
 30
0.0
 11
6.432999999993513
 21
8.763099999991255
 31
0.0
1001
ACAD
1000
ASC_BOUNDS
1002
{
1070
    19
1005
20359
1002
}
  0
LINE
  5
20333
  8
0
 10
14.32399999998563
 20
3.315799999996671
 30
0.0
 11
12.02999999998792
 21
8.763099999991255
 31
0.0
1001
ACAD
1000
ASC_BOUNDS
1002
{
1070
    19
1005
2035A
1002
}
  0
LINE
  5
20334
  8
0
 10
10.06399999998996
 20
3.670999999996297
 30
0.0
 11
9.236999999990758
 21
5.5200999999945
 31
0.0
1001
ACAD
1000
ASC_BOUNDS
1002
{
1070
    19
1005
20359
1002
}
  0
LINE
  5
20335
  8
0
 10
8.409999999991555
 20
3.670999999996297
 30
0.0
 11
9.236999999990758
 21
5.5200999999945
 31
0.0
1001
ACAD
1000
ASC_BOUNDS
1002
{
1070
    19
1005
20359
1002
}
  0
LINE
  5
20336
  8
0
 10
8.409999999991555
 20
3.670999999996297
 30
0.0
 11
10.06399999998996
 21
3.670999999996297
 31
0.0
1001
ACAD
1000
ASC_BOUNDS
1002
{
1070
    19
1005
20359
1002
}
  0
LINE
  5
20337
  8
0
 10
10.53899999998941
 20
8.763099999991255
 30
0.0
 11
12.02999999998792
 21
8.763099999991255
 31
0.0
1001
ACAD
1000
ASC_BOUNDS
1002
{
1070
    19
1005
2035A
1002
}
  0
LINE
  5
20338
  8
0
 10
22.7389999999773
 20
3.670999999996297
 30
0.0
 11
23.56599999997638
 21
5.5200999999945
 31
0.0
1001
ACAD
1000
ASC_BOUNDS
1002
{
1070
    19
1005
2035B
1002
}
  0
LINE
  5
20339
  8
0
 10
22.7389999999773
 20
3.670999999996297
 30
0.0
 11
24.39299999997559
 21
3.670999999996297
 31
0.0
1001
ACAD
1000
ASC_BOUNDS
1002
{
1070
    19
1005
2035B
1002
}
  0
LINE
  5
2033A
  8
0
 10
18.59799999998143
 20
3.315799999996671
 30
0.0
 11
20.89099999997916
 21
8.763099999991255
 31
0.0
1001
ACAD
1000
ASC_BOUNDS
1002
{
1070
    19
1005
2035A
1002
}
  0
LINE
  5
2033B
  8
0
 10
18.59799999998143
 20
3.315799999996671
 30
0.0
 11
16.46099999998353
 21
8.999899999990987
 31
0.0
1001
ACAD
1000
ASC_BOUNDS
1002
{
1070
    19
1005
2035A
1002
}
  0
LINE
  5
2033C
  8
0
 10
20.89099999997916
 20
8.763099999991255
 30
0.0
 11
22.38199999997767
 21
8.763099999991255
 31
0.0
1001
ACAD
1000
ASC_BOUNDS
1002
{
1070
    19
1005
2035A
1002
}
  0
LINE
  5
2033D
  8
0
 10
24.39299999997559
 20
3.670999999996297
 30
0.0
 11
23.56599999997638
 21
5.5200999999945
 31
0.0
1001
ACAD
1000
ASC_BOUNDS
1002
{
1070
    19
1005
2035B
1002
}
  0
LINE
  5
2033E
  8
0
 10
44.99999999995498
 20
-0.2368999999997641
 30
0.0
 11
40.02599999995994
 21
5.341799999994635
 31
0.0
1001
ACAD
1000
ASC_BOUNDS
1002
{
1070
    19
1005
2035D
1002
}
  0
LINE
  5
2033F
  8
0
 10
40.02599999995994
 20
5.341799999994635
 30
0.0
 11
40.02599999995994
 21
0.0
 31
0.0
1001
ACAD
1000
ASC_BOUNDS
1002
{
1070
    19
1005
2035D
1002
}
  0
LINE
  5
20340
  8
0
 10
38.60499999996136
 20
8.999999999991019
 30
0.0
 11
38.60499999996136
 21
0.0
 31
0.0
1001
ACAD
1000
ASC_BOUNDS
1002
{
1070
    19
1005
2035D
1002
}
  0
LINE
  5
20341
  8
0
 10
44.99999999995498
 20
8.763099999991255
 30
0.0
 11
44.99999999995498
 21
-0.2368999999997641
 31
0.0
1001
ACAD
1000
ASC_BOUNDS
1002
{
1070
    19
1005
2035D
1002
}
  0
LINE
  5
20342
  8
0
 10
38.60499999996136
 20
0.0
 30
0.0
 11
40.02599999995994
 21
0.0
 31
0.0
1001
ACAD
1000
ASC_BOUNDS
1002
{
1070
    19
1005
2035D
1002
}
  0
LINE
  5
20343
  8
0
 10
43.57899999995641
 20
3.421199999996588
 30
0.0
 11
38.60499999996136
 21
8.999899999990987
 31
0.0
1001
ACAD
1000
ASC_BOUNDS
1002
{
1070
    19
1005
2035D
1002
}
  0
LINE
  5
20344
  8
0
 10
43.57899999995641
 20
8.763099999991255
 30
0.0
 11
43.57899999995641
 21
3.421199999996588
 31
0.0
1001
ACAD
1000
ASC_BOUNDS
1002
{
1070
    19
1005
2035D
1002
}
  0
LINE
  5
20345
  8
0
 10
43.57899999995641
 20
8.763099999991255
 30
0.0
 11
44.99999999995498
 21
8.763099999991255
 31
0.0
1001
ACAD
1000
ASC_BOUNDS
1002
{
1070
    19
1005
2035D
1002
}
  0
LINE
  5
20346
  8
0
 10
37.67199999996831
 20
8.763099999991255
 30
0.0
 11
36.23199999996837
 21
8.763099999991255
 31
0.0
  0
LINE
  5
20347
  8
0
 10
31.64199999996833
 20
8.763099999991255
 30
0.0
 11
31.64199999996833
 21
2.481619422925121
 31
0.0
  0
LINE
  5
20348
  8
0
 10
37.67199999996831
 20
8.763099999991255
 30
0.0
 11
37.67199999996831
 21
2.481619422925121
 31
0.0
  0
LINE
  5
20349
  8
0
 10
36.23199999996837
 20
8.763099999991255
 30
0.0
 11
36.23199999996837
 21
2.481619422925064
 31
0.0
  0
LINE
  5
2034A
  8
0
 10
33.08199999996839
 20
8.763099999991255
 30
0.0
 11
33.08199999996839
 21
2.481619422925121
 31
0.0
  0
ARC
  5
2034B
  8
0
 10
34.65699999996832
 20
3.183099999991214
 30
0.0
 40
3.420000000000007
 50
240.0000000000255
 51
299.9999999999766
  0
ARC
  5
2034C
  8
0
 10
34.65699999996832
 20
3.183099999991214
 30
0.0
 40
1.97999999999999
 50
240.000000000026
 51
299.9999999999703
  0
LINE
  5
2034D
  8
0
 10
33.08199999996828
 20
8.763099999991255
 30
0.0
 11
31.64199999996833
 21
8.763099999991255
 31
0.0
  0
ARC
  5
2034E
  8
0
 10
35.06199999996829
 20
2.481619422925064
 30
0.0
 40
1.17
 50
299.9999999999699
 51
0.0
  0
ARC
  5
2034F
  8
0
 10
34.25199999996835
 20
2.481619422925121
 30
0.0
 40
1.17
 50
180.0
 51
240.0000000000238
  0
ARC
  5
20350
  8
0
 10
35.06199999996841
 20
2.481619422925121
 30
0.0
 40
2.61
 50
299.9999999999756
 51
0.0
  0
ARC
  5
20351
  8
0
 10
34.25199999996835
 20
2.481619422925121
 30
0.0
 40
2.61
 50
180.0
 51
240.0000000000244
  0
LINE
  5
20352
  8
0
 10
29.30199999996933
 20
8.763099999991255
 30
0.0
 11
30.74199999996927
 21
8.763099999991255
 31
0.0
1001
ACAD
1000
ASC_BOUNDS
1002
{
1070
    19
1005
2035B
1002
}
  0
LINE
  5
20353
  8
0
 10
30.74199999996927
 20
8.763099999991255
 30
0.0
 11
30.74199999996927
 21
2.373099999991211
 31
0.0
1001
ACAD
1000
ASC_BOUNDS
1002
{
1070
    19
1005
2035B
1002
}
  0
LINE
  5
20354
  8
0
 10
26.02015566812236
 20
0.0330999999912365
 30
0.0
 11
28.40199999996923
 21
0.0330999999912365
 31
0.0
1001
ACAD
1000
ASC_BOUNDS
1002
{
1070
    19
1005
2035B
1002
}
  0
LINE
  5
20355
  8
0
 10
29.30199999996933
 20
8.763099999991255
 30
0.0
 11
29.30199999996933
 21
2.283099999991236
 31
0.0
1001
ACAD
1000
ASC_BOUNDS
1002
{
1070
    19
1005
2035B
1002
}
  0
LINE
  5
20356
  8
0
 10
26.97358892824991
 20
1.383099999991202
 30
0.0
 11
28.40199999996923
 21
1.383099999991202
 31
0.0
1001
ACAD
1000
ASC_BOUNDS
1002
{
1070
    19
1005
2035B
1002
}
  0
ARC
  5
20357
  8
0
 10
28.40199999996923
 20
2.283099999991236
 30
0.0
 40
0.9
 50
270.0
 51
0.0
1001
ACAD
1000
ASC_BOUNDS
1002
{
1070
    19
1005
2035B
1002
}
  0
ARC
  5
20358
  8
0
 10
28.40199999996923
 20
2.373099999991211
 30
0.0
 40
2.34
 50
270.0
 51
0.0
1001
ACAD
1000
ASC_BOUNDS
1002
{
1070
    19
1005
2035B
1002
}
  0
INSERT
  5
20359
  8
0
  2
*X51
 10
0.0
 20
0.0
 30
0.0
1001
ACAD
1000
HATCH
1002
{
1070
    19
1000
ANSI37
1040
0.15
1040
0.0
1000
ASC_BOUNDS
1070
     2
1070
     2
1070
    12
1005
20318
1005
20319
1005
20320
1005
2032F
1005
20332
1005
20330
1005
20321
1005
20326
1005
20324
1005
20328
1005
20327
1005
20329
1070
     2
1070
     3
1005
20334
1005
20336
1005
20335
1000
ASC_SEEDPOINT
1011
3.614004224891801
1021
2.996669441146025
1031
0.0
1021
2.996669441146025
1031
0.0
1000
R14_HATCH_DATA
1000
20359
1011
1.0
1021
0.0
1031
0.0
1021
0.0
1031
0.0
1011
0.0
1021
1.0
1031
0.0
1021
1.0
1031
0.0
1011
0.0
1021
0.0
1031
1.0
1021
0.0
1031
1.0
1040
0.0
1010
0.0
1020
0.0
1030
1.0
1000
ANSI37
1070
     0
1070
     1
1071
        2
1071
        7
1070
     0
1070
     1
1071
       17
1040
13.26299999998673
1040
-0.0001000000000317
1040
9.236999999990758
1040
8.999899999990987
1040
9.236999999990758
1040
8.999999999991019
1040
5.657999999994331
1040
0.9999999999989768
1040
3.181999999996833
1040
4.668599999995308
1040
6.432999999993513
1040
8.763099999991255
1040
4.617999999995391
1040
8.763099999991255
1040
1.420999999998571
1040
4.736799999995242
1040
4.617999999995391
1040
-0.0001000000000317
1040
4.617999999995391
1040
0.0
1040
6.766999999993232
1040
0.0
1040
6.766999999993232
1040
-0.0001000000000317
1040
7.826999999992154
1040
2.368399999997621
1040
10.64699999998936
1040
2.368399999997621
1040
11.70599999998831
1040
-0.0001000000000317
1040
11.70599999998831
1040
0.0
1040
13.26299999998673
1040
0.0
1071
       12
1005
20318
1005
20319
1005
20320
1005
2032F
1005
20332
1005
20330
1005
20321
1005
20326
1005
20324
1005
20328
1005
20327
1005
20329
1071
       22
1070
     0
1070
     1
1071
        3
1040
9.236999999990758
1040
5.5200999999945
1040
10.06399999998996
1040
3.670999999996297
1040
8.409999999991555
1040
3.670999999996297
1071
        3
1005
20334
1005
20336
1005
20335
1070
     0
1070
     1
1040
0.0
1040
0.15
1070
     0
1070
     2
1040
0.7853981633974483
1040
49.29960901727088
1040
-10.17736998311392
1040
-0.3367596045400932
1040
0.3367596045400932
1070
     0
1040
2.356194490192345
1040
49.29960901727088
1040
-10.17736998311392
1040
-0.3367596045400932
1040
-0.3367596045400932
1070
     0
1040
0.0110235143455945
1071
        2
1040
3.614004224891801
1040
2.996669441146025
1040
0.0
1040
3.614004224891801
1040
2.996669441146025
1040
0.0
1002
}
  0
INSERT
  5
2035A
  8
0
  2
*X52
 10
0.0
 20
0.0
 30
0.0
1001
ACAD
1000
HATCH
1002
{
1070
    19
1000
ANSI37
1040
0.15
1040
0.0
1000
ASC_BOUNDS
1070
     1
1070
     2
1070
    10
1005
2031A
1005
2031B
1005
2033C
1005
2033A
1005
2033B
1005
2032E
1005
20333
1005
20337
1005
2031D
1005
2031C
1000
ASC_SEEDPOINT
1011
14.73245321214324
1021
2.798246178283421
1031
0.0
1021
2.798246178283421
1031
0.0
1000
R14_HATCH_DATA
1000
2035A
1011
1.0
1021
0.0
1031
0.0
1021
0.0
1031
0.0
1011
0.0
1021
1.0
1031
0.0
1021
1.0
1031
0.0
1011
0.0
1021
0.0
1031
1.0
1021
0.0
1031
1.0
1040
0.0
1010
0.0
1020
0.0
1030
1.0
1000
ANSI37
1070
     0
1070
     1
1071
        1
1071
        7
1070
     0
1070
     1
1071
       10
1040
16.46099999998353
1040
5.432899999994561
1040
18.59199999998134
1040
-0.2368999999997641
1040
22.38199999997767
1040
8.763099999991255
1040
20.89099999997916
1040
8.763099999991255
1040
18.59799999998143
1040
3.315799999996671
1040
16.46099999998353
1040
8.999899999990987
1040
14.32399999998563
1040
3.315799999996671
1040
12.02999999998792
1040
8.763099999991255
1040
10.53899999998941
1040
8.763099999991255
1040
14.32899999998563
1040
-0.2368999999997641
1071
       10
1005
2031A
1005
2031B
1005
2033C
1005
2033A
1005
2033B
1005
2032E
1005
20333
1005
20337
1005
2031D
1005
2031C
1070
     0
1070
     1
1040
0.0
1040
0.15
1070
     0
1070
     2
1040
0.7853981633974483
1040
49.29960901727088
1040
-10.17736998311392
1040
-0.3367596045400932
1040
0.3367596045400932
1070
     0
1040
2.356194490192345
1040
49.29960901727088
1040
-10.17736998311392
1040
-0.3367596045400932
1040
-0.3367596045400932
1070
     0
1040
0.0110235143455945
1071
        1
1040
14.73245321214324
1040
2.798246178283421
1040
0.0
1002
}
  0
INSERT
  5
2035B
  8
0
  2
*X53
 10
0.0
 20
0.0
 30
0.0
1001
ACAD
1000
HATCH
1002
{
1070
    19
1000
ANSI37
1040
0.15
1040
0.0
1000
ASC_BOUNDS
1070
     2
1070
     2
1070
    13
1005
2031E
1005
2032B
1005
2032C
1005
2032A
1005
2032D
1005
20354
1005
20358
1005
20353
1005
20352
1005
20355
1005
20357
1005
20356
1005
2031F
1070
     2
1070
     3
1005
20338
1005
2033D
1005
20339
1000
ASC_SEEDPOINT
1011
21.97929957367762
1021
3.294304244259308
1031
0.0
1021
3.294304244259308
1031
0.0
1000
R14_HATCH_DATA
1000
2035B
1011
1.0
1021
0.0
1031
0.0
1021
0.0
1031
0.0
1011
0.0
1021
1.0
1031
0.0
1021
1.0
1031
0.0
1011
0.0
1021
0.0
1031
1.0
1021
0.0
1031
1.0
1040
0.0
1010
0.0
1020
0.0
1030
1.0
1000
ANSI37
1070
     0
1070
     1
1071
        2
1071
        7
1070
     1
1070
     1
1071
       15
1040
23.56599999997638
1040
8.999899999990987
1040
0.0
1040
19.53899999998043
1040
-0.0001000000000317
1040
0.0
1040
19.53899999998043
1040
0.0
1040
0.0
1040
21.09599999997886
1040
0.0
1040
0.0
1040
21.09599999997886
1040
-0.0001000000000317
1040
0.0
1040
22.15599999997789
1040
2.368399999997621
1040
0.0
1040
24.97599999997499
1040
2.368399999997621
1040
0.0
1040
26.02015566812236
1040
0.0330999999912365
1040
0.0
1040
28.40199999996923
1040
0.0330999999912365
1040
0.414213562373095
1040
30.74199999996923
1040
2.373099999991211
1040
0.0
1040
30.74199999996927
1040
8.763099999991255
1040
0.0
1040
29.30199999996933
1040
8.763099999991255
1040
0.0
1040
29.30199999996933
1040
2.283099999991236
1040
-0.414213562373095
1040
28.40199999996923
1040
1.383099999991237
1040
0.0
1040
26.97358892824991
1040
1.383099999991202
1040
0.0
1071
       13
1005
2031E
1005
2032B
1005
2032C
1005
2032A
1005
2032D
1005
20354
1005
20358
1005
20353
1005
20352
1005
20355
1005
20357
1005
20356
1005
2031F
1071
       22
1070
     0
1070
     1
1071
        3
1040
22.7389999999773
1040
3.670999999996297
1040
23.56599999997638
1040
5.5200999999945
1040
24.39299999997559
1040
3.670999999996297
1071
        3
1005
20338
1005
2033D
1005
20339
1070
     0
1070
     1
1040
0.0
1040
0.15
1070
     0
1070
     2
1040
0.7853981633974483
1040
49.29960901727088
1040
-10.17736998311392
1040
-0.3367596045400932
1040
0.3367596045400932
1070
     0
1040
2.356194490192345
1040
49.29960901727088
1040
-10.17736998311392
1040
-0.3367596045400932
1040
-0.3367596045400932
1070
     0
1040
0.0110235143455945
1071
        2
1040
21.97929957367762
1040
3.294304244259308
1040
0.0
1040
21.97929957367762
1040
3.294304244259308
1040
0.0
1002
}
  0
INSERT
  5
2035C
  8
0
  2
*X54
 10
0.0
 20
0.0
 30
0.0
1001
ACAD
1000
HATCH
1002
{
1070
    19
1000
ANSI37
1040
0.15
1040
0.0
1000
R14_HATCH_DATA
1000
2035C
1011
1.0
1021
0.0
1031
0.0
1021
0.0
1031
0.0
1011
0.0
1021
1.0
1031
0.0
1021
1.0
1031
0.0
1011
0.0
1021
0.0
1031
1.0
1021
0.0
1031
1.0
1040
0.0
1010
0.0
1020
0.0
1030
1.0
1000
ANSI37
1070
     0
1070
     1
1071
        1
1071
        7
1070
     1
1070
     1
1071
       12
1040
31.64199999996833
1040
2.481619422925121
1040
0.2679491924310942
1040
32.94699999997067
1040
0.2212931190493919
1040
0.2679491924301353
1040
36.36699999995983
1040
0.2212931190459813
1040
0.2679491924321411
1040
37.67199999996831
1040
2.481619422928361
1040
0.0
1040
37.67199999996831
1040
8.763099999991255
1040
0.0
1040
36.23199999996837
1040
8.763099999991255
1040
0.0
1040
36.23199999996837
1040
2.481619422925064
1040
-0.2679491924310291
1040
35.64699999996708
1040
1.468369700498386
1040
-0.267949192430519
1040
33.66699999997093
1040
1.468369700497703
1040
-0.267949192431809
1040
33.08199999996839
1040
2.481619422926997
1040
0.0
1040
33.08199999996839
1040
8.763099999991255
1040
0.0
1040
31.64199999996833
1040
8.763099999991255
1040
0.0
1071
        0
1070
     0
1070
     1
1040
0.0
1040
0.15
1070
     0
1070
     2
1040
0.7853981633974483
1040
49.29960901727088
1040
-10.17736998311392
1040
-0.3367596045400932
1040
0.3367596045400932
1070
     0
1040
2.356194490192345
1040
49.29960901727088
1040
-10.17736998311392
1040
-0.3367596045400932
1040
-0.3367596045400932
1070
     0
1040
0.0110235143455945
1071
        1
1040
32.30357378967278
1040
3.988785755459219
1040
0.0
1002
}
  0
INSERT
  5
2035D
  8
0
  2
*X55
 10
0.0
 20
0.0
 30
0.0
1001
ACAD
1000
HATCH
1002
{
1070
    19
1000
ANSI37
1040
0.15
1040
0.0
1000
ASC_BOUNDS
1070
     1
1070
     2
1070
     8
1005
2033E
1005
20341
1005
20345
1005
20344
1005
20343
1005
20340
1005
20342
1005
2033F
1000
ASC_SEEDPOINT
1011
39.74896370716704
1021
4.484843821435049
1031
0.0
1021
4.484843821435049
1031
0.0
1000
R14_HATCH_DATA
1000
2035D
1011
1.0
1021
0.0
1031
0.0
1021
0.0
1031
0.0
1011
0.0
1021
1.0
1031
0.0
1021
1.0
1031
0.0
1011
0.0
1021
0.0
1031
1.0
1021
0.0
1031
1.0
1040
0.0
1010
0.0
1020
0.0
1030
1.0
1000
ANSI37
1070
     0
1070
     1
1071
        1
1071
        7
1070
     0
1070
     1
1071
        9
1040
40.02599999995994
1040
5.341799999994635
1040
44.99999999995498
1040
-0.2368999999997641
1040
44.99999999995498
1040
8.763099999991255
1040
43.57899999995641
1040
8.763099999991255
1040
43.57899999995641
1040
3.421199999996588
1040
38.60499999996136
1040
8.999899999990987
1040
38.60499999996136
1040
8.999999999991019
1040
38.60499999996136
1040
0.0
1040
40.02599999995994
1040
0.0
1071
        8
1005
2033E
1005
20341
1005
20345
1005
20344
1005
20343
1005
20340
1005
20342
1005
2033F
1070
     0
1070
     1
1040
0.0
1040
0.15
1070
     0
1070
     2
1040
0.7853981633974483
1040
49.29960901727088
1040
-10.17736998311392
1040
-0.3367596045400932
1040
0.3367596045400932
1070
     0
1040
2.356194490192345
1040
49.29960901727088
1040
-10.17736998311392
1040
-0.3367596045400932
1040
-0.3367596045400932
1070
     0
1040
0.0110235143455945
1071
        1
1040
39.74896370716704
1040
4.484843821435049
1040
0.0
1002
}
  0
INSERT
  5
2035E
  8
0
  2
*X56
 10
0.0
 20
0.0
 30
0.0
1001
ACAD
1000
HATCH
1002
{
1070
    19
1000
ANSI37
1040
0.15
1040
0.0
1000
ASC_BOUNDS
1070
     1
1070
     2
1070
     4
1005
20322
1005
20331
1005
20323
1005
20325
1000
ASC_SEEDPOINT
1011
1.079051535452663
1021
4.148538732891836
1031
0.0
1021
4.148538732891836
1031
0.0
1000
R14_HATCH_DATA
1000
2035E
1011
1.0
1021
0.0
1031
0.0
1021
0.0
1031
0.0
1011
0.0
1021
1.0
1031
0.0
1021
1.0
1031
0.0
1011
0.0
1021
0.0
1031
1.0
1021
0.0
1031
1.0
1040
0.0
1010
0.0
1020
0.0
1030
1.0
1000
ANSI37
1070
     0
1070
     1
1071
        1
1071
        7
1070
     0
1070
     1
1071
        4
1040
1.420999999998571
1040
0.0
1040
1.420999999998571
1040
8.763099999991255
1040
0.0
1040
8.763099999991255
1040
0.0
1040
0.0
1071
        4
1005
20322
1005
20331
1005
20323
1005
20325
1070
     0
1070
     1
1040
0.0
1040
0.15
1070
     0
1070
     2
1040
0.7853981633974483
1040
49.29960901727088
1040
-10.17736998311392
1040
-0.3367596045400932
1040
0.3367596045400932
1070
     0
1040
2.356194490192345
1040
49.29960901727088
1040
-10.17736998311392
1040
-0.3367596045400932
1040
-0.3367596045400932
1070
     0
1040
0.0053004257112761
1071
        1
1040
1.079051535452663
1040
4.148538732891836
1040
0.0
1002
}
  0
ENDBLK
  5
20A16
  8
0
  0
BLOCK
  8
0
  2
*X51
 70
     1
 10
0.0
 20
0.0
 30
0.0
  3
*X51
  1

  0
LINE
  5
221D6
  8
0
  6
CONTINUOUS
 10
3.418023043697893
 20
7.251849696850613
 30
0.0
 11
4.929273346838536
 21
8.763099999991255
 31
0.0
  0
LINE
  5
221D7
  8
0
  6
CONTINUOUS
 10
1.483656411257782
 20
4.643963855330318
 30
0.0
 11
5.60279255591872
 21
8.763099999991255
 31
0.0
  0
LINE
  5
221D8
  8
0
  6
CONTINUOUS
 10
1.755053947328235
 20
4.241842182320584
 30
0.0
 11
6.276311764998907
 21
8.763099999991255
 31
0.0
  0
LINE
  5
221D9
  8
0
  6
CONTINUOUS
 10
2.026451483398688
 20
3.839720509310849
 30
0.0
 11
4.441040904851878
 21
6.254309930764039
 31
0.0
  0
LINE
  5
221DA
  8
0
  6
CONTINUOUS
 10
2.297849019469139
 20
3.437598836301114
 30
0.0
 11
3.321765168359338
 21
4.461514985191313
 31
0.0
  0
LINE
  5
221DB
  8
0
  6
CONTINUOUS
 10
2.569246555539591
 20
3.03547716329138
 30
0.0
 11
3.593163397972743
 21
4.059394005724531
 31
0.0
  0
LINE
  5
221DC
  8
0
  6
CONTINUOUS
 10
2.840644091610043
 20
2.633355490281646
 30
0.0
 11
3.864561627586149
 21
3.657273026257751
 31
0.0
  0
LINE
  5
221DD
  8
0
  6
CONTINUOUS
 10
3.112041627680496
 20
2.231233817271911
 30
0.0
 11
4.135959857199554
 21
3.25515204679097
 31
0.0
  0
LINE
  5
221DE
  8
0
  6
CONTINUOUS
 10
3.383439163750948
 20
1.829112144262177
 30
0.0
 11
4.40735808681296
 21
2.853031067324189
 31
0.0
  0
LINE
  5
221DF
  8
0
  6
CONTINUOUS
 10
3.654836699821399
 20
1.426990471252442
 30
0.0
 11
4.678756316426365
 21
2.450910087857407
 31
0.0
  0
LINE
  5
221E0
  8
0
  6
CONTINUOUS
 10
3.926234235891853
 20
1.024868798242709
 30
0.0
 11
4.95015454603977
 21
2.048789108390626
 31
0.0
  0
LINE
  5
221E1
  8
0
  6
CONTINUOUS
 10
4.197631771962304
 20
0.6227471252329737
 30
0.0
 11
5.221552775653176
 21
1.646668128923846
 31
0.0
  0
LINE
  5
221E2
  8
0
  6
CONTINUOUS
 10
8.715877546767851
 20
7.835069736359266
 30
0.0
 11
9.435953450375058
 21
8.555145639966472
 31
0.0
  0
LINE
  5
221E3
  8
0
  6
CONTINUOUS
 10
8.170620868422267
 20
6.616293848933497
 30
0.0
 11
9.644120833743461
 21
8.08979381425469
 31
0.0
  0
LINE
  5
221E4
  8
0
  6
CONTINUOUS
 10
7.625364190076684
 20
5.397517961507727
 30
0.0
 11
9.852288217111864
 21
7.624441988542907
 31
0.0
  0
LINE
  5
221E5
  8
0
  6
CONTINUOUS
 10
7.080107511731101
 20
4.178742074081957
 30
0.0
 11
10.06045560048027
 21
7.159090162831124
 31
0.0
  0
LINE
  5
221E6
  8
0
  6
CONTINUOUS
 10
6.534850833385518
 20
2.959966186656187
 30
0.0
 11
10.26862298384867
 21
6.693738337119342
 31
0.0
  0
LINE
  5
221E7
  8
0
  6
CONTINUOUS
 10
4.469029308032756
 20
0.2206254522232385
 30
0.0
 11
5.492951005266582
 21
1.244547149457064
 31
0.0
  0
LINE
  5
221E8
  8
0
  6
CONTINUOUS
 10
5.989594155039935
 20
1.741190299230417
 30
0.0
 11
8.806950407233131
 21
4.558546551423613
 31
0.0
  0
LINE
  5
221E9
  8
0
  6
CONTINUOUS
 10
9.401251593263643
 20
5.152847737454126
 30
0.0
 11
10.47679036721708
 21
6.228386511407559
 31
0.0
  0
LINE
  5
221EA
  8
0
  6
CONTINUOUS
 10
4.921837203428691
 20
-0.0000858614610131
 30
0.0
 11
8.592923064886001
 21
3.670999999996297
 31
0.0
  0
LINE
  5
221EB
  8
0
  6
CONTINUOUS
 10
9.609390446785305
 20
4.6874673818956
 30
0.0
 11
10.68495775058548
 21
5.763034685695775
 31
0.0
  0
LINE
  5
221EC
  8
0
  6
CONTINUOUS
 10
5.595387755019432
 20
-0.0000545189504582
 30
0.0
 11
7.716137258923768
 21
2.120694984953879
 31
0.0
  0
LINE
  5
221ED
  8
0
  6
CONTINUOUS
 10
6.268938306610172
 20
-0.000023176439905
 30
0.0
 11
7.170485805526503
 21
0.9015243224764267
 31
0.0
  0
LINE
  5
221EE
  8
0
  6
CONTINUOUS
 10
7.963842273967511
 20
2.368399999997621
 30
0.0
 11
9.266442273966188
 21
3.670999999996297
 31
0.0
  0
LINE
  5
221EF
  8
0
  6
CONTINUOUS
 10
8.637361483047696
 20
2.368399999997621
 30
0.0
 11
9.939961483046375
 21
3.670999999996297
 31
0.0
  0
LINE
  5
221F0
  8
0
  6
CONTINUOUS
 10
9.817529300306965
 20
4.222087026337075
 30
0.0
 11
10.89312513395388
 21
5.297682859983993
 31
0.0
  0
LINE
  5
221F1
  8
0
  6
CONTINUOUS
 10
10.02566815382863
 20
3.756706670778549
 30
0.0
 11
11.10129251732229
 21
4.832331034272211
 31
0.0
  0
LINE
  5
221F2
  8
0
  6
CONTINUOUS
 10
9.310880692127883
 20
2.368399999997621
 30
0.0
 11
11.30945990069069
 21
4.366979208560428
 31
0.0
  0
LINE
  5
221F3
  8
0
  6
CONTINUOUS
 10
9.98439990120807
 20
2.36839999999762
 30
0.0
 11
11.5176272840591
 21
3.901627382848645
 31
0.0
  0
LINE
  5
221F4
  8
0
  6
CONTINUOUS
 10
10.65037369446246
 20
2.36085458417182
 30
0.0
 11
11.7257946674275
 21
3.436275557136862
 31
0.0
  0
LINE
  5
221F5
  8
0
  6
CONTINUOUS
 10
10.85847197087848
 20
1.895433651507656
 30
0.0
 11
11.9339620507959
 21
2.97092373142508
 31
0.0
  0
LINE
  5
221F6
  8
0
  6
CONTINUOUS
 10
11.0665702472945
 20
1.430012718843491
 30
0.0
 11
12.14212943416431
 21
2.505571905713296
 31
0.0
  0
LINE
  5
221F7
  8
0
  6
CONTINUOUS
 10
11.27466852371052
 20
0.9645917861793256
 30
0.0
 11
12.35029681753271
 21
2.040220080001513
 31
0.0
  0
LINE
  5
221F8
  8
0
  6
CONTINUOUS
 10
11.48276680012654
 20
0.4991708535151611
 30
0.0
 11
12.55846420090111
 21
1.57486825428973
 31
0.0
  0
LINE
  5
221F9
  8
0
  6
CONTINUOUS
 10
11.69086507654257
 20
0.0337499208509957
 30
0.0
 11
12.76663158426952
 21
1.109516428577947
 31
0.0
  0
LINE
  5
221FA
  8
0
  6
CONTINUOUS
 10
12.33057447873954
 20
-0.0000598860322123
 30
0.0
 11
12.97479896763792
 21
0.6441646028661663
 31
0.0
  0
LINE
  5
221FB
  8
0
  6
CONTINUOUS
 10
13.00413694809395
 20
-0.0000166257579952
 30
0.0
 11
13.18296635100632
 21
0.1788127771543824
 31
0.0
  0
LINE
  5
221FC
  8
0
  6
CONTINUOUS
 10
4.772852165289667
 20
-0.000092794222212
 30
0.0
 11
4.296495091028902
 21
0.4762642800385528
 31
0.0
  0
LINE
  5
221FD
  8
0
  6
CONTINUOUS
 10
5.446340034776103
 20
-0.0000614546284616
 30
0.0
 11
2.898195908335625
 21
2.548082671812017
 31
0.0
  0
LINE
  5
221FE
  8
0
  6
CONTINUOUS
 10
6.119827904262539
 20
-0.0000301150347113
 30
0.0
 11
1.499896725642348
 21
4.61990106358548
 31
0.0
  0
LINE
  5
221FF
  8
0
  6
CONTINUOUS
 10
6.775136745476159
 20
0.0181802528318542
 30
0.0
 11
5.699826040202669
 21
1.093490958105344
 31
0.0
  0
LINE
  5
22200
  8
0
  6
CONTINUOUS
 10
6.983376846288489
 20
0.4834593610997118
 30
0.0
 11
5.908008617934405
 21
1.558827589453796
 31
0.0
  0
LINE
  5
22201
  8
0
  6
CONTINUOUS
 10
5.377063484962296
 20
1.416253513345719
 30
0.0
 11
1.702276957014131
 21
5.091040041293883
 31
0.0
  0
LINE
  5
22202
  8
0
  6
CONTINUOUS
 10
3.978745891735324
 20
3.488090315652877
 30
0.0
 11
2.000373521109399
 21
5.466462686278803
 31
0.0
  0
LINE
  5
22203
  8
0
  6
CONTINUOUS
 10
7.191616947100819
 20
0.948738469367568
 30
0.0
 11
6.11619119566614
 21
2.024164220802247
 31
0.0
  0
LINE
  5
22204
  8
0
  6
CONTINUOUS
 10
7.399857047913149
 20
1.414017577635424
 30
0.0
 11
6.324373773397875
 21
2.489500852150698
 31
0.0
  0
LINE
  5
22205
  8
0
  6
CONTINUOUS
 10
7.608097148725479
 20
1.879296685903281
 30
0.0
 11
6.53255635112961
 21
2.95483748349915
 31
0.0
  0
LINE
  5
22206
  8
0
  6
CONTINUOUS
 10
7.816337249537808
 20
2.344575794171138
 30
0.0
 11
6.740738928861345
 21
3.420174114847601
 31
0.0
  0
LINE
  5
22207
  8
0
  6
CONTINUOUS
 10
3.310241080789734
 20
4.830114335678653
 30
0.0
 11
2.298470085204666
 21
5.84188533126372
 31
0.0
  0
LINE
  5
22208
  8
0
  6
CONTINUOUS
 10
3.60832983563551
 20
5.205544789913063
 30
0.0
 11
2.596566649299935
 21
6.217307976248638
 31
0.0
  0
LINE
  5
22209
  8
0
  6
CONTINUOUS
 10
3.906418590481286
 20
5.580975244147473
 30
0.0
 11
2.894663213395203
 21
6.592730621233557
 31
0.0
  0
LINE
  5
2220A
  8
0
  6
CONTINUOUS
 10
4.204507345327062
 20
5.956405698381884
 30
0.0
 11
3.192759777490472
 21
6.968153266218474
 31
0.0
  0
LINE
  5
2220B
  8
0
  6
CONTINUOUS
 10
8.466032252791512
 20
2.368399999997621
 30
0.0
 11
6.948921506593081
 21
3.885510746196053
 31
0.0
  0
LINE
  5
2220C
  8
0
  6
CONTINUOUS
 10
9.139551461871699
 20
2.36839999999762
 30
0.0
 11
7.157104084324816
 21
4.350847377544504
 31
0.0
  0
LINE
  5
2220D
  8
0
  6
CONTINUOUS
 10
4.502596100172839
 20
6.331836152616295
 30
0.0
 11
3.49085634158574
 21
7.343575911203393
 31
0.0
  0
LINE
  5
2220E
  8
0
  6
CONTINUOUS
 10
4.800684855018615
 20
6.707266606850705
 30
0.0
 11
3.788952905681008
 21
7.718998556188312
 31
0.0
  0
LINE
  5
2220F
  8
0
  6
CONTINUOUS
 10
12.18154012887317
 20
-0.0000694579236642
 30
0.0
 11
11.32140332908496
 21
0.8600673418645499
 31
0.0
  0
LINE
  5
22210
  8
0
  6
CONTINUOUS
 10
12.85501608323566
 20
-0.0000262032059659
 30
0.0
 11
10.77672456435345
 21
2.078265315676246
 31
0.0
  0
LINE
  5
22211
  8
0
  6
CONTINUOUS
 10
9.813070670951886
 20
2.36839999999762
 30
0.0
 11
8.51047067095321
 21
3.670999999996297
 31
0.0
  0
LINE
  5
22212
  8
0
  6
CONTINUOUS
 10
10.48658988003207
 20
2.36839999999762
 30
0.0
 11
9.183989880033396
 21
3.670999999996297
 31
0.0
  0
LINE
  5
22213
  8
0
  6
CONTINUOUS
 10
8.441048632286794
 20
3.740422038662712
 30
0.0
 11
7.365286662056551
 21
4.816184008892956
 31
0.0
  0
LINE
  5
22214
  8
0
  6
CONTINUOUS
 10
8.649187485808454
 20
4.205802394221237
 30
0.0
 11
7.573469239788285
 21
5.281520640241407
 31
0.0
  0
LINE
  5
22215
  8
0
  6
CONTINUOUS
 10
5.098773609864391
 20
7.082697061085115
 30
0.0
 11
4.087049469776277
 21
8.09442120117323
 31
0.0
  0
LINE
  5
22216
  8
0
  6
CONTINUOUS
 10
5.396862364710167
 20
7.458127515319526
 30
0.0
 11
4.385146033871544
 21
8.469843846158149
 31
0.0
  0
LINE
  5
22217
  8
0
  6
CONTINUOUS
 10
13.04801363231285
 20
0.4804954567970334
 30
0.0
 11
9.85750908911358
 21
3.670999999996297
 31
0.0
  0
LINE
  5
22218
  8
0
  6
CONTINUOUS
 10
8.857326339330116
 20
4.671182749779763
 30
0.0
 11
7.781651817520021
 21
5.746857271589858
 31
0.0
  0
LINE
  5
22219
  8
0
  6
CONTINUOUS
 10
5.694951119555943
 20
7.833557969553937
 30
0.0
 11
4.765409089118624
 21
8.763099999991255
 31
0.0
  0
LINE
  5
2221A
  8
0
  6
CONTINUOUS
 10
12.50286117236978
 20
1.699167125820288
 30
0.0
 11
9.68611877250287
 21
4.515909525687196
 31
0.0
  0
LINE
  5
2221B
  8
0
  6
CONTINUOUS
 10
9.065465192851777
 20
5.136563105338288
 30
0.0
 11
7.989834395251757
 21
6.21219390293831
 31
0.0
  0
LINE
  5
2221C
  8
0
  6
CONTINUOUS
 10
5.993039874401719
 20
8.208988423788346
 30
0.0
 11
5.43892829819881
 21
8.763099999991255
 31
0.0
  0
LINE
  5
2221D
  8
0
  6
CONTINUOUS
 10
11.95770871242671
 20
2.917838794843543
 30
0.0
 11
8.19801697298349
 21
6.677530534286761
 31
0.0
  0
LINE
  5
2221E
  8
0
  6
CONTINUOUS
 10
6.291128629247495
 20
8.584418878022756
 30
0.0
 11
6.112447507278997
 21
8.763099999991255
 31
0.0
  0
LINE
  5
2221F
  8
0
  6
CONTINUOUS
 10
11.41255625248364
 20
4.136510463866797
 30
0.0
 11
8.406199550715227
 21
7.142867165635211
 31
0.0
  0
LINE
  5
22220
  8
0
  6
CONTINUOUS
 10
10.86740379254057
 20
5.355182132890051
 30
0.0
 11
8.614382128446962
 21
7.608203796983664
 31
0.0
  0
LINE
  5
22221
  8
0
  6
CONTINUOUS
 10
10.3222513325975
 20
6.573853801913305
 30
0.0
 11
8.822564706178696
 21
8.073540428332114
 31
0.0
  0
LINE
  5
22222
  8
0
  6
CONTINUOUS
 10
9.777098872654436
 20
7.792525470936562
 30
0.0
 11
9.030747283910433
 21
8.538877059680566
 31
0.0
  0
ENDBLK
  5
22364
  8
0
  0
BLOCK
  8
0
  2
*X52
 70
     1
 10
0.0
 20
0.0
 30
0.0
  3
*X52
  1

  0
LINE
  5
22224
  8
0
  6
CONTINUOUS
 10
10.67292308101235
 20
8.445076852443387
 30
0.0
 11
10.99094622856022
 21
8.763099999991255
 31
0.0
  0
LINE
  5
22225
  8
0
  6
CONTINUOUS
 10
10.87250383178748
 20
7.971138394138331
 30
0.0
 11
11.6644654376404
 21
8.763099999991255
 31
0.0
  0
LINE
  5
22226
  8
0
  6
CONTINUOUS
 10
11.07208458256261
 20
7.497199935833273
 30
0.0
 11
12.12126590876355
 21
8.546381262034211
 31
0.0
  0
LINE
  5
22227
  8
0
  6
CONTINUOUS
 10
11.27166533333774
 20
7.023261477528216
 30
0.0
 11
12.32085164573666
 21
8.072447789927136
 31
0.0
  0
LINE
  5
22228
  8
0
  6
CONTINUOUS
 10
11.47124608411287
 20
6.549323019223158
 30
0.0
 11
12.52043738270977
 21
7.59851431782006
 31
0.0
  0
LINE
  5
22229
  8
0
  6
CONTINUOUS
 10
11.670826834888
 20
6.075384560918101
 30
0.0
 11
12.72002311968288
 21
7.124580845712984
 31
0.0
  0
LINE
  5
2222A
  8
0
  6
CONTINUOUS
 10
11.87040758566313
 20
5.601446102613043
 30
0.0
 11
12.91960885665599
 21
6.650647373605907
 31
0.0
  0
LINE
  5
2222B
  8
0
  6
CONTINUOUS
 10
12.06998833643825
 20
5.127507644307986
 30
0.0
 11
13.1191945936291
 21
6.176713901498832
 31
0.0
  0
LINE
  5
2222C
  8
0
  6
CONTINUOUS
 10
12.26956908721338
 20
4.65356918600293
 30
0.0
 11
13.31878033060221
 21
5.702780429391757
 31
0.0
  0
LINE
  5
2222D
  8
0
  6
CONTINUOUS
 10
12.46914983798851
 20
4.179630727697873
 30
0.0
 11
13.51836606757532
 21
5.228846957284683
 31
0.0
  0
LINE
  5
2222E
  8
0
  6
CONTINUOUS
 10
12.66873058876364
 20
3.705692269392816
 30
0.0
 11
13.71795180454843
 21
4.754913485177607
 31
0.0
  0
LINE
  5
2222F
  8
0
  6
CONTINUOUS
 10
12.86831133953877
 20
3.231753811087759
 30
0.0
 11
13.91753754152154
 21
4.280980013070531
 31
0.0
  0
LINE
  5
22230
  8
0
  6
CONTINUOUS
 10
13.0678920903139
 20
2.757815352782702
 30
0.0
 11
14.11712327849465
 21
3.807046540963456
 31
0.0
  0
LINE
  5
22231
  8
0
  6
CONTINUOUS
 10
13.26747284108903
 20
2.283876894477644
 30
0.0
 11
14.31670901546777
 21
3.333113068856379
 31
0.0
  0
LINE
  5
22232
  8
0
  6
CONTINUOUS
 10
16.36767838827179
 20
8.751678487061342
 30
0.0
 11
16.50332410898388
 21
8.887324207773432
 31
0.0
  0
LINE
  5
22233
  8
0
  6
CONTINUOUS
 10
15.96190732182191
 20
7.67238821153127
 30
0.0
 11
16.68735328004734
 21
8.397834169756699
 31
0.0
  0
LINE
  5
22234
  8
0
  6
CONTINUOUS
 10
15.55613625537202
 20
6.593097936001196
 30
0.0
 11
16.87138245111079
 21
7.908344131739965
 31
0.0
  0
LINE
  5
22235
  8
0
  6
CONTINUOUS
 10
15.15036518892213
 20
5.513807660471122
 30
0.0
 11
17.05541162217424
 21
7.418854093723231
 31
0.0
  0
LINE
  5
22236
  8
0
  6
CONTINUOUS
 10
14.74459412247225
 20
4.434517384941048
 30
0.0
 11
17.2394407932377
 21
6.929364055706499
 31
0.0
  0
LINE
  5
22237
  8
0
  6
CONTINUOUS
 10
14.33882305602236
 20
3.355227109410975
 30
0.0
 11
17.42346996430115
 21
6.439874017689766
 31
0.0
  0
LINE
  5
22238
  8
0
  6
CONTINUOUS
 10
13.46705359186416
 20
1.809938436172586
 30
0.0
 11
16.0819338255367
 21
4.424818669845129
 31
0.0
  0
LINE
  5
22239
  8
0
  6
CONTINUOUS
 10
16.63283254238972
 20
4.975717386698149
 30
0.0
 11
17.60749913536461
 21
5.950383979673033
 31
0.0
  0
LINE
  5
2223A
  8
0
  6
CONTINUOUS
 10
13.66663434263929
 20
1.335999977867529
 30
0.0
 11
15.67604797733754
 21
3.345413612565779
 31
0.0
  0
LINE
  5
2223B
  8
0
  6
CONTINUOUS
 10
13.86621509341442
 20
0.8620615195624723
 30
0.0
 11
15.27016212913838
 21
2.26600855528643
 31
0.0
  0
LINE
  5
2223C
  8
0
  6
CONTINUOUS
 10
16.81682257348267
 20
4.486188208710908
 30
0.0
 11
17.79152830642806
 21
5.460893941656299
 31
0.0
  0
LINE
  5
2223D
  8
0
  6
CONTINUOUS
 10
17.00081260457561
 20
3.996659030723667
 30
0.0
 11
17.97555747749151
 21
4.971403903639565
 31
0.0
  0
LINE
  5
2223E
  8
0
  6
CONTINUOUS
 10
20.74362343514722
 20
8.412989070375462
 30
0.0
 11
21.09373436476302
 21
8.763099999991256
 31
0.0
  0
LINE
  5
2223F
  8
0
  6
CONTINUOUS
 10
20.25401257174777
 20
7.249858997895826
 30
0.0
 11
21.7672535738432
 21
8.763099999991255
 31
0.0
  0
LINE
  5
22240
  8
0
  6
CONTINUOUS
 10
14.06579584418955
 20
0.3881230612574149
 30
0.0
 11
14.86427628093921
 21
1.186603498007082
 31
0.0
  0
LINE
  5
22241
  8
0
  6
CONTINUOUS
 10
14.26537659496467
 20
-0.0858153970476412
 30
0.0
 11
14.45839043274005
 21
0.1071984407277329
 31
0.0
  0
LINE
  5
22242
  8
0
  6
CONTINUOUS
 10
17.18480263566856
 20
3.507129852736426
 30
0.0
 11
18.15958664855496
 21
4.481913865622833
 31
0.0
  0
LINE
  5
22243
  8
0
  6
CONTINUOUS
 10
17.3687926667615
 20
3.017600674749186
 30
0.0
 11
18.34361581961842
 21
3.9924238276061
 31
0.0
  0
LINE
  5
22244
  8
0
  6
CONTINUOUS
 10
19.76440170834832
 20
6.086728925416191
 30
0.0
 11
22.33924590259489
 21
8.661573119662755
 31
0.0
  0
LINE
  5
22245
  8
0
  6
CONTINUOUS
 10
19.27479084494887
 20
4.923598852936555
 30
0.0
 11
21.84929622842713
 21
7.498104236414807
 31
0.0
  0
LINE
  5
22246
  8
0
  6
CONTINUOUS
 10
17.55278269785445
 20
2.528071496761945
 30
0.0
 11
18.52764499068187
 21
3.502933789589366
 31
0.0
  0
LINE
  5
22247
  8
0
  6
CONTINUOUS
 10
18.78517998154942
 20
3.760468780456919
 30
0.0
 11
21.35934655425936
 21
6.33463535316686
 31
0.0
  0
LINE
  5
22248
  8
0
  6
CONTINUOUS
 10
17.73677272894739
 20
2.038542318774704
 30
0.0
 11
20.8693968800916
 21
5.171166469918914
 31
0.0
  0
LINE
  5
22249
  8
0
  6
CONTINUOUS
 10
17.92076276004034
 20
1.549013140787464
 30
0.0
 11
20.37944720592384
 21
4.007697586670968
 31
0.0
  0
LINE
  5
2224A
  8
0
  6
CONTINUOUS
 10
18.10475279113329
 20
1.059483962800223
 30
0.0
 11
19.88949753175608
 21
2.84422870342302
 31
0.0
  0
LINE
  5
2224B
  8
0
  6
CONTINUOUS
 10
18.28874282222623
 20
0.5699547848129822
 30
0.0
 11
19.39954785758832
 21
1.680759820175074
 31
0.0
  0
LINE
  5
2224C
  8
0
  6
CONTINUOUS
 10
18.47273285331918
 20
0.0804256068257416
 30
0.0
 11
18.90959818342056
 21
0.517290936927127
 31
0.0
  0
LINE
  5
2224D
  8
0
  6
CONTINUOUS
 10
14.3590401358224
 20
-0.1570118376323384
 30
0.0
 11
14.24903296539946
 21
-0.0470046672093929
 31
0.0
  0
LINE
  5
2224E
  8
0
  6
CONTINUOUS
 10
14.54309291258661
 20
0.332454594683643
 30
0.0
 11
13.75908329123172
 21
1.116464216038529
 31
0.0
  0
LINE
  5
2224F
  8
0
  6
CONTINUOUS
 10
14.72714568935081
 20
0.8219210269996244
 30
0.0
 11
13.26913361706399
 21
2.27993309928645
 31
0.0
  0
LINE
  5
22250
  8
0
  6
CONTINUOUS
 10
14.91119846611502
 20
1.311387459315606
 30
0.0
 11
12.77918394289625
 21
3.443401982534371
 31
0.0
  0
LINE
  5
22251
  8
0
  6
CONTINUOUS
 10
15.09525124287922
 20
1.800853891631587
 30
0.0
 11
12.28923426872852
 21
4.606870865782293
 31
0.0
  0
LINE
  5
22252
  8
0
  6
CONTINUOUS
 10
15.27930401964343
 20
2.290320323947569
 30
0.0
 11
11.79928459456078
 21
5.770339749030213
 31
0.0
  0
LINE
  5
22253
  8
0
  6
CONTINUOUS
 10
15.46335679640763
 20
2.77978675626355
 30
0.0
 11
14.48885470994921
 21
3.754288842721972
 31
0.0
  0
LINE
  5
22254
  8
0
  6
CONTINUOUS
 10
13.88507249233704
 20
4.358071060334137
 30
0.0
 11
11.30933492039305
 21
6.933808632278135
 31
0.0
  0
LINE
  5
22255
  8
0
  6
CONTINUOUS
 10
18.75840522805855
 20
0.1582575336928151
 30
0.0
 11
18.25383727664818
 21
0.6628254851031863
 31
0.0
  0
LINE
  5
22256
  8
0
  6
CONTINUOUS
 10
15.64740957317184
 20
3.269253188579531
 30
0.0
 11
14.67288388101266
 21
4.243778880738705
 31
0.0
  0
LINE
  5
22257
  8
0
  6
CONTINUOUS
 10
13.39509276772158
 20
5.521569994029786
 30
0.0
 11
10.81938524622531
 21
8.097277515526056
 31
0.0
  0
LINE
  5
22258
  8
0
  6
CONTINUOUS
 10
18.95798597883369
 20
0.6321959919978686
 30
0.0
 11
17.84825644852853
 21
1.741925522303024
 31
0.0
  0
LINE
  5
22259
  8
0
  6
CONTINUOUS
 10
19.15756672960882
 20
1.106134450302922
 30
0.0
 11
17.44267562040888
 21
2.821025559502861
 31
0.0
  0
LINE
  5
2225A
  8
0
  6
CONTINUOUS
 10
15.83146234993604
 20
3.758719620895513
 30
0.0
 11
14.85691305207612
 21
4.733268918755439
 31
0.0
  0
LINE
  5
2225B
  8
0
  6
CONTINUOUS
 10
16.01551512670025
 20
4.248186053211494
 30
0.0
 11
15.04094222313957
 21
5.222758956772172
 31
0.0
  0
LINE
  5
2225C
  8
0
  6
CONTINUOUS
 10
12.90511304310612
 20
6.685068927725435
 30
0.0
 11
10.8270819708403
 21
8.763099999991255
 31
0.0
  0
LINE
  5
2225D
  8
0
  6
CONTINUOUS
 10
12.41513331849066
 20
7.848567861421083
 30
0.0
 11
11.50060117992049
 21
8.763099999991255
 31
0.0
  0
LINE
  5
2225E
  8
0
  6
CONTINUOUS
 10
19.35714748038395
 20
1.580072908607975
 30
0.0
 11
17.03709479228923
 21
3.900125596702697
 31
0.0
  0
LINE
  5
2225F
  8
0
  6
CONTINUOUS
 10
19.55672823115909
 20
2.054011366913028
 30
0.0
 11
16.63151396416958
 21
4.979225633902534
 31
0.0
  0
LINE
  5
22260
  8
0
  6
CONTINUOUS
 10
16.19956790346445
 20
4.737652485527476
 30
0.0
 11
15.22497139420302
 21
5.712248994788904
 31
0.0
  0
LINE
  5
22261
  8
0
  6
CONTINUOUS
 10
16.38362068022866
 20
5.227118917843457
 30
0.0
 11
15.40900056526648
 21
6.201739032805637
 31
0.0
  0
LINE
  5
22262
  8
0
  6
CONTINUOUS
 10
19.75630898193422
 20
2.527949825218081
 30
0.0
 11
18.70774536448286
 21
3.576513442669441
 31
0.0
  0
LINE
  5
22263
  8
0
  6
CONTINUOUS
 10
19.95588973270936
 20
3.001888283523134
 30
0.0
 11
18.90726987211446
 21
4.050508144118028
 31
0.0
  0
LINE
  5
22264
  8
0
  6
CONTINUOUS
 10
20.15547048348449
 20
3.475826741828186
 30
0.0
 11
19.10679437974606
 21
4.524502845566614
 31
0.0
  0
LINE
  5
22265
  8
0
  6
CONTINUOUS
 10
20.35505123425962
 20
3.94976520013324
 30
0.0
 11
19.30631888737766
 21
4.998497547015201
 31
0.0
  0
LINE
  5
22266
  8
0
  6
CONTINUOUS
 10
20.55463198503475
 20
4.423703658438292
 30
0.0
 11
19.50584339500926
 21
5.472492248463787
 31
0.0
  0
LINE
  5
22267
  8
0
  6
CONTINUOUS
 10
18.37481191085755
 20
3.909446896294752
 30
0.0
 11
15.59302973632993
 21
6.691229070822371
 31
0.0
  0
LINE
  5
22268
  8
0
  6
CONTINUOUS
 10
17.96904084440766
 20
4.988737171824825
 30
0.0
 11
15.77705890739338
 21
7.180719108839104
 31
0.0
  0
LINE
  5
22269
  8
0
  6
CONTINUOUS
 10
17.56326977795777
 20
6.068027447354899
 30
0.0
 11
15.96108807845684
 21
7.670209146855838
 31
0.0
  0
LINE
  5
2226A
  8
0
  6
CONTINUOUS
 10
17.15749871150789
 20
7.147317722884972
 30
0.0
 11
16.14511724952029
 21
8.15969918487257
 31
0.0
  0
LINE
  5
2226B
  8
0
  6
CONTINUOUS
 10
16.751727645058
 20
8.226607998415046
 30
0.0
 11
16.32914642058374
 21
8.649189222889303
 31
0.0
  0
LINE
  5
2226C
  8
0
  6
CONTINUOUS
 10
20.75421273580989
 20
4.897642116743345
 30
0.0
 11
19.70536790264086
 21
5.946486949912374
 31
0.0
  0
LINE
  5
2226D
  8
0
  6
CONTINUOUS
 10
20.95379348658502
 20
5.371580575048398
 30
0.0
 11
19.90489241027246
 21
6.42048165136096
 31
0.0
  0
LINE
  5
2226E
  8
0
  6
CONTINUOUS
 10
21.15337423736015
 20
5.845519033353452
 30
0.0
 11
20.10441691790406
 21
6.894476352809547
 31
0.0
  0
LINE
  5
2226F
  8
0
  6
CONTINUOUS
 10
21.35295498813529
 20
6.319457491658505
 30
0.0
 11
20.30394142553566
 21
7.368471054258134
 31
0.0
  0
LINE
  5
22270
  8
0
  6
CONTINUOUS
 10
21.55253573891042
 20
6.793395949963558
 30
0.0
 11
20.50346593316726
 21
7.842465755706721
 31
0.0
  0
LINE
  5
22271
  8
0
  6
CONTINUOUS
 10
21.75211648968556
 20
7.267334408268612
 30
0.0
 11
20.70299044079886
 21
8.316460457155308
 31
0.0
  0
LINE
  5
22272
  8
0
  6
CONTINUOUS
 10
21.95169724046069
 20
7.741272866573663
 30
0.0
 11
20.9298701070431
 21
8.763099999991256
 31
0.0
  0
LINE
  5
22273
  8
0
  6
CONTINUOUS
 10
22.15127799123582
 20
8.215211324878716
 30
0.0
 11
21.60338931612328
 21
8.763099999991256
 31
0.0
  0
LINE
  5
22274
  8
0
  6
CONTINUOUS
 10
22.35085874201096
 20
8.689149783183769
 30
0.0
 11
22.27690852520347
 21
8.763099999991255
 31
0.0
  0
ENDBLK
  5
22366
  8
0
  0
BLOCK
  8
0
  2
*X53
 70
     1
 10
0.0
 20
0.0
 30
0.0
  3
*X53
  1

  0
LINE
  5
22276
  8
0
  6
CONTINUOUS
 10
23.19462913593892
 20
8.169917934846424
 30
0.0
 11
23.70775465517246
 21
8.683043454079957
 31
0.0
  0
LINE
  5
22277
  8
0
  6
CONTINUOUS
 10
22.64923161835078
 20
6.951001208178088
 30
0.0
 11
23.9159364069932
 21
8.217705996820516
 31
0.0
  0
LINE
  5
22278
  8
0
  6
CONTINUOUS
 10
22.10383410076263
 20
5.732084481509751
 30
0.0
 11
24.12411815881395
 21
7.752368539561078
 31
0.0
  0
LINE
  5
22279
  8
0
  6
CONTINUOUS
 10
21.55843658317447
 20
4.513167754841414
 30
0.0
 11
24.3322999106347
 21
7.287031082301639
 31
0.0
  0
LINE
  5
2227A
  8
0
  6
CONTINUOUS
 10
21.01303906558632
 20
3.294251028173077
 30
0.0
 11
24.54048166245544
 21
6.821693625042199
 31
0.0
  0
LINE
  5
2227B
  8
0
  6
CONTINUOUS
 10
20.46764154799817
 20
2.075334301504738
 30
0.0
 11
23.28571549467848
 21
4.89340824818505
 31
0.0
  0
LINE
  5
2227C
  8
0
  6
CONTINUOUS
 10
19.92224403041002
 20
0.8564175748364002
 30
0.0
 11
22.74075865492779
 21
3.674932199354171
 31
0.0
  0
LINE
  5
2227D
  8
0
  6
CONTINUOUS
 10
23.67305085490148
 20
5.280743608408048
 30
0.0
 11
24.74866341427619
 21
6.356356167782759
 31
0.0
  0
LINE
  5
2227E
  8
0
  6
CONTINUOUS
 10
23.88118970842314
 20
4.815363252849522
 30
0.0
 11
24.95684516609694
 21
5.89101871052332
 31
0.0
  0
LINE
  5
2227F
  8
0
  6
CONTINUOUS
 10
19.73925852647308
 20
-0.0000871381807288
 30
0.0
 11
23.4103456646501
 21
3.670999999996297
 31
0.0
  0
LINE
  5
22280
  8
0
  6
CONTINUOUS
 10
24.0893285619448
 20
4.349982897290997
 30
0.0
 11
25.16502691791769
 21
5.42568125326388
 31
0.0
  0
LINE
  5
22281
  8
0
  6
CONTINUOUS
 10
20.41282099582748
 20
-0.0000438779065108
 30
0.0
 11
21.64944178675636
 21
1.236576913022366
 31
0.0
  0
LINE
  5
22282
  8
0
  6
CONTINUOUS
 10
22.78126487373161
 20
2.36839999999762
 30
0.0
 11
24.08386487373029
 21
3.670999999996297
 31
0.0
  0
LINE
  5
22283
  8
0
  6
CONTINUOUS
 10
24.29746741546646
 20
3.884602541732471
 30
0.0
 11
25.37320866973843
 21
4.960343796004441
 31
0.0
  0
LINE
  5
22284
  8
0
  6
CONTINUOUS
 10
21.08638346518189
 20
-0.0000006176322938
 30
0.0
 11
21.10379033335899
 21
0.0174062505448083
 31
0.0
  0
LINE
  5
22285
  8
0
  6
CONTINUOUS
 10
23.4547840828118
 20
2.36839999999762
 30
0.0
 11
25.58139042155918
 21
4.495006338745002
 31
0.0
  0
LINE
  5
22286
  8
0
  6
CONTINUOUS
 10
29.30199999996933
 20
8.215615917155148
 30
0.0
 11
29.84948408280543
 21
8.763099999991255
 31
0.0
  0
LINE
  5
22287
  8
0
  6
CONTINUOUS
 10
24.12830329189199
 20
2.36839999999762
 30
0.0
 11
25.78957217337993
 21
4.029668881485562
 31
0.0
  0
LINE
  5
22288
  8
0
  6
CONTINUOUS
 10
29.30199999996933
 20
7.54209670807496
 30
0.0
 11
30.52300329188562
 21
8.763099999991255
 31
0.0
  0
LINE
  5
22289
  8
0
  6
CONTINUOUS
 10
24.80182250097217
 20
2.36839999999762
 30
0.0
 11
25.99775392520067
 21
3.564331424226122
 31
0.0
  0
LINE
  5
2228A
  8
0
  6
CONTINUOUS
 10
29.30199999996933
 20
6.868577498994774
 30
0.0
 11
30.74199999996926
 21
8.308577498994712
 31
0.0
  0
LINE
  5
2228B
  8
0
  6
CONTINUOUS
 10
25.13028238392013
 20
2.023340673865392
 30
0.0
 11
26.20593567702142
 21
3.098993966966683
 31
0.0
  0
LINE
  5
2228C
  8
0
  6
CONTINUOUS
 10
25.33838066033617
 20
1.557919741201244
 30
0.0
 11
26.41411742884217
 21
2.633656509707244
 31
0.0
  0
LINE
  5
2228D
  8
0
  6
CONTINUOUS
 10
25.54647893675221
 20
1.092498808537098
 30
0.0
 11
26.62229918066291
 21
2.168319052447804
 31
0.0
  0
LINE
  5
2228E
  8
0
  6
CONTINUOUS
 10
25.75457721316825
 20
0.62707787587295
 30
0.0
 11
26.83048093248366
 21
1.702981595188365
 31
0.0
  0
LINE
  5
2228F
  8
0
  6
CONTINUOUS
 10
29.30199999996933
 20
6.195058289914587
 30
0.0
 11
30.74199999996926
 21
7.635058289914522
 31
0.0
  0
LINE
  5
22290
  8
0
  6
CONTINUOUS
 10
29.30199999996933
 20
5.521539080834401
 30
0.0
 11
30.74199999996926
 21
6.961539080834331
 31
0.0
  0
LINE
  5
22291
  8
0
  6
CONTINUOUS
 10
29.30199999996933
 20
4.848019871754214
 30
0.0
 11
30.74199999996925
 21
6.288019871754143
 31
0.0
  0
LINE
  5
22292
  8
0
  6
CONTINUOUS
 10
29.30199999996933
 20
4.174500662674028
 30
0.0
 11
30.74199999996925
 21
5.614500662673953
 31
0.0
  0
LINE
  5
22293
  8
0
  6
CONTINUOUS
 10
25.96267548958429
 20
0.1616569432088024
 30
0.0
 11
27.18411854636669
 21
1.383099999991207
 31
0.0
  0
LINE
  5
22294
  8
0
  6
CONTINUOUS
 10
29.30199999996933
 20
3.500981453593841
 30
0.0
 11
30.74199999996925
 21
4.940981453593762
 31
0.0
  0
LINE
  5
22295
  8
0
  6
CONTINUOUS
 10
26.50763775544691
 20
0.0330999999912356
 30
0.0
 11
27.85763775544689
 21
1.383099999991223
 31
0.0
  0
LINE
  5
22296
  8
0
  6
CONTINUOUS
 10
29.30199999996933
 20
2.827462244513656
 30
0.0
 11
30.74199999996925
 21
4.267462244513574
 31
0.0
  0
LINE
  5
22297
  8
0
  6
CONTINUOUS
 10
27.18115696452709
 20
0.0330999999912356
 30
0.0
 11
28.6224847300034
 21
1.474427765467545
 31
0.0
  0
LINE
  5
22298
  8
0
  6
CONTINUOUS
 10
29.21067223449293
 20
2.062615269957069
 30
0.0
 11
30.74199999996924
 21
3.593943035433383
 31
0.0
  0
LINE
  5
22299
  8
0
  6
CONTINUOUS
 10
27.85467617360728
 20
0.0330999999912356
 30
0.0
 11
30.74199999996924
 21
2.920423826353195
 31
0.0
  0
LINE
  5
2229A
  8
0
  6
CONTINUOUS
 10
28.57438609860264
 20
0.0792907159064073
 30
0.0
 11
30.69580928405405
 21
2.200713901357819
 31
0.0
  0
LINE
  5
2229B
  8
0
  6
CONTINUOUS
 10
29.49443044814297
 20
0.3258158563665496
 30
0.0
 11
30.44928414359389
 21
1.280669551817477
 31
0.0
  0
LINE
  5
2229C
  8
0
  6
CONTINUOUS
 10
19.59027867740337
 20
-0.0000967065718083
 30
0.0
 11
19.55485265190471
 21
0.035329318926844
 31
0.0
  0
LINE
  5
2229D
  8
0
  6
CONTINUOUS
 10
20.26375463176586
 20
-0.0000534518541091
 30
0.0
 11
19.76305575737534
 21
0.5006454225364014
 31
0.0
  0
LINE
  5
2229E
  8
0
  6
CONTINUOUS
 10
20.93723058612834
 20
-0.0000101971364099
 30
0.0
 11
19.97125886284597
 21
0.965961526145958
 31
0.0
  0
LINE
  5
2229F
  8
0
  6
CONTINUOUS
 10
21.25514828313686
 20
0.355591314935257
 30
0.0
 11
20.1794619683166
 21
1.431277629755512
 31
0.0
  0
LINE
  5
222A0
  8
0
  6
CONTINUOUS
 10
21.46338838394921
 20
0.8208704232030986
 30
0.0
 11
20.38766507378723
 21
1.896593733365069
 31
0.0
  0
LINE
  5
222A1
  8
0
  6
CONTINUOUS
 10
21.67162848476155
 20
1.28614953147094
 30
0.0
 11
20.59586817925786
 21
2.361909836974626
 31
0.0
  0
LINE
  5
222A2
  8
0
  6
CONTINUOUS
 10
21.8798685855739
 20
1.751428639738782
 30
0.0
 11
20.80407128472849
 21
2.827225940584183
 31
0.0
  0
LINE
  5
222A3
  8
0
  6
CONTINUOUS
 10
22.08810868638624
 20
2.216707748006623
 30
0.0
 11
21.01227439019912
 21
3.292542044193739
 31
0.0
  0
LINE
  5
222A4
  8
0
  6
CONTINUOUS
 10
22.60993564347543
 20
2.36839999999762
 30
0.0
 11
21.22047749566975
 21
3.757858147803296
 31
0.0
  0
LINE
  5
222A5
  8
0
  6
CONTINUOUS
 10
23.28345485255561
 20
2.36839999999762
 30
0.0
 11
21.42868060114038
 21
4.223174251412853
 31
0.0
  0
LINE
  5
222A6
  8
0
  6
CONTINUOUS
 10
26.29227406164219
 20
0.0330999999912356
 30
0.0
 11
25.80009199592872
 21
0.5252820657046957
 31
0.0
  0
LINE
  5
222A7
  8
0
  6
CONTINUOUS
 10
23.9569740616358
 20
2.36839999999762
 30
0.0
 11
21.63688370661101
 21
4.688490355022409
 31
0.0
  0
LINE
  5
222A8
  8
0
  6
CONTINUOUS
 10
26.96579327072237
 20
0.0330999999912356
 30
0.0
 11
25.2554132311971
 21
1.743480039516508
 31
0.0
  0
LINE
  5
222A9
  8
0
  6
CONTINUOUS
 10
24.63049327071599
 20
2.36839999999762
 30
0.0
 11
23.32789327071731
 21
3.670999999996297
 31
0.0
  0
LINE
  5
222AA
  8
0
  6
CONTINUOUS
 10
22.92098674744635
 20
4.077906523267254
 30
0.0
 11
21.84508681208164
 21
5.153806458631966
 31
0.0
  0
LINE
  5
222AB
  8
0
  6
CONTINUOUS
 10
27.63931247980256
 20
0.0330999999912356
 30
0.0
 11
24.0014124797975
 21
3.670999999996297
 31
0.0
  0
LINE
  5
222AC
  8
0
  6
CONTINUOUS
 10
23.129125600968
 20
4.5432868788258
 30
0.0
 11
22.05328991755227
 21
5.619122562241522
 31
0.0
  0
LINE
  5
222AD
  8
0
  6
CONTINUOUS
 10
28.31283168888275
 20
0.0330999999912356
 30
0.0
 11
24.16488385994816
 21
4.181047828925828
 31
0.0
  0
LINE
  5
222AE
  8
0
  6
CONTINUOUS
 10
23.33726445448964
 20
5.008667234384345
 30
0.0
 11
22.2614930230229
 21
6.084438665851079
 31
0.0
  0
LINE
  5
222AF
  8
0
  6
CONTINUOUS
 10
28.86286302309502
 20
0.1565878748591523
 30
0.0
 11
27.63635089796295
 21
1.383099999991217
 31
0.0
  0
LINE
  5
222B0
  8
0
  6
CONTINUOUS
 10
26.43704649509776
 20
2.582404402856405
 30
0.0
 11
23.61992702019732
 21
5.399523877756844
 31
0.0
  0
LINE
  5
222B1
  8
0
  6
CONTINUOUS
 10
23.54540330801128
 20
5.47404758994289
 30
0.0
 11
22.46969612849353
 21
6.549754769460635
 31
0.0
  0
LINE
  5
222B2
  8
0
  6
CONTINUOUS
 10
29.39405087596853
 20
0.2989192310658284
 30
0.0
 11
28.30987010704312
 21
1.383099999991234
 31
0.0
  0
LINE
  5
222B3
  8
0
  6
CONTINUOUS
 10
25.89179548232307
 20
3.801174624711282
 30
0.0
 11
22.67789923396416
 21
7.015070873070191
 31
0.0
  0
LINE
  5
222B4
  8
0
  6
CONTINUOUS
 10
29.79594438047407
 20
0.570544935640473
 30
0.0
 11
28.81310432793121
 21
1.553384988183336
 31
0.0
  0
LINE
  5
222B5
  8
0
  6
CONTINUOUS
 10
25.34654446954838
 20
5.01994484656616
 30
0.0
 11
22.88610233943479
 21
7.480386976679748
 31
0.0
  0
LINE
  5
222B6
  8
0
  6
CONTINUOUS
 10
30.13270398501416
 20
0.9073045401805646
 30
0.0
 11
29.14234640337737
 21
1.897662121817355
 31
0.0
  0
LINE
  5
222B7
  8
0
  6
CONTINUOUS
 10
24.80129345677369
 20
6.238715068421037
 30
0.0
 11
23.09430544490542
 21
7.945703080289305
 31
0.0
  0
LINE
  5
222B8
  8
0
  6
CONTINUOUS
 10
30.44581292956759
 20
1.26771480470732
 30
0.0
 11
29.30199999996933
 21
2.411527734305588
 31
0.0
  0
LINE
  5
222B9
  8
0
  6
CONTINUOUS
 10
30.58814428577427
 20
1.798902657580827
 30
0.0
 11
29.30199999996933
 21
3.085046943385775
 31
0.0
  0
LINE
  5
222BA
  8
0
  6
CONTINUOUS
 10
24.256042443999
 20
7.457485290275915
 30
0.0
 11
23.30250855037605
 21
8.411019183898862
 31
0.0
  0
LINE
  5
222BB
  8
0
  6
CONTINUOUS
 10
23.71079143122431
 20
8.676255512130794
 30
0.0
 11
23.51071165584668
 21
8.876335287508418
 31
0.0
  0
LINE
  5
222BC
  8
0
  6
CONTINUOUS
 10
30.73047564198095
 20
2.330090510454333
 30
0.0
 11
29.30199999996933
 21
3.758566152465961
 31
0.0
  0
LINE
  5
222BD
  8
0
  6
CONTINUOUS
 10
30.74199999996924
 20
2.992085361546236
 30
0.0
 11
29.30199999996933
 21
4.432085361546148
 31
0.0
  0
LINE
  5
222BE
  8
0
  6
CONTINUOUS
 10
30.74199999996924
 20
3.665604570626419
 30
0.0
 11
29.30199999996933
 21
5.105604570626333
 31
0.0
  0
LINE
  5
222BF
  8
0
  6
CONTINUOUS
 10
30.74199999996925
 20
4.339123779706602
 30
0.0
 11
29.30199999996933
 21
5.77912377970652
 31
0.0
  0
LINE
  5
222C0
  8
0
  6
CONTINUOUS
 10
30.74199999996925
 20
5.012642988786785
 30
0.0
 11
29.30199999996933
 21
6.452642988786707
 31
0.0
  0
LINE
  5
222C1
  8
0
  6
CONTINUOUS
 10
30.74199999996925
 20
5.68616219786697
 30
0.0
 11
29.30199999996933
 21
7.126162197866894
 31
0.0
  0
LINE
  5
222C2
  8
0
  6
CONTINUOUS
 10
30.74199999996925
 20
6.359681406947153
 30
0.0
 11
29.30199999996933
 21
7.799681406947081
 31
0.0
  0
LINE
  5
222C3
  8
0
  6
CONTINUOUS
 10
30.74199999996926
 20
7.033200616027337
 30
0.0
 11
29.30199999996933
 21
8.473200616027269
 31
0.0
  0
LINE
  5
222C4
  8
0
  6
CONTINUOUS
 10
30.74199999996926
 20
7.706719825107518
 30
0.0
 11
29.68561982508552
 21
8.763099999991255
 31
0.0
  0
LINE
  5
222C5
  8
0
  6
CONTINUOUS
 10
30.74199999996926
 20
8.380239034187703
 30
0.0
 11
30.35913903416571
 21
8.763099999991255
 31
0.0
  0
ENDBLK
  5
22368
  8
0
  0
BLOCK
  8
0
  2
*X54
 70
     1
 10
0.0
 20
0.0
 30
0.0
  3
*X54
  1

  0
LINE
  5
222C7
  8
0
  6
CONTINUOUS
 10
31.64199999996833
 20
8.5350582899136
 30
0.0
 11
31.87004171004599
 21
8.763099999991255
 31
0.0
  0
LINE
  5
222C8
  8
0
  6
CONTINUOUS
 10
31.64199999996833
 20
7.861539080833413
 30
0.0
 11
32.54356091912618
 21
8.763099999991255
 31
0.0
  0
LINE
  5
222C9
  8
0
  6
CONTINUOUS
 10
31.64199999996833
 20
7.188019871753227
 30
0.0
 11
33.08199999996839
 21
8.628019871753281
 31
0.0
  0
LINE
  5
222CA
  8
0
  6
CONTINUOUS
 10
31.64199999996833
 20
6.514500662673041
 30
0.0
 11
33.08199999996839
 21
7.954500662673095
 31
0.0
  0
LINE
  5
222CB
  8
0
  6
CONTINUOUS
 10
31.64199999996833
 20
5.840981453592855
 30
0.0
 11
33.08199999996839
 21
7.28098145359291
 31
0.0
  0
LINE
  5
222CC
  8
0
  6
CONTINUOUS
 10
31.64199999996833
 20
5.167462244512668
 30
0.0
 11
33.08199999996839
 21
6.607462244512723
 31
0.0
  0
LINE
  5
222CD
  8
0
  6
CONTINUOUS
 10
31.64199999996833
 20
4.493943035432482
 30
0.0
 11
33.08199999996839
 21
5.933943035432536
 31
0.0
  0
LINE
  5
222CE
  8
0
  6
CONTINUOUS
 10
31.64199999996833
 20
3.820423826352294
 30
0.0
 11
33.08199999996839
 21
5.260423826352349
 31
0.0
  0
LINE
  5
222CF
  8
0
  6
CONTINUOUS
 10
31.64199999996833
 20
3.146904617272108
 30
0.0
 11
33.08199999996839
 21
4.586904617272163
 31
0.0
  0
LINE
  5
222D0
  8
0
  6
CONTINUOUS
 10
36.23199999996837
 20
8.410423826352327
 30
0.0
 11
36.58467617360729
 21
8.763099999991255
 31
0.0
  0
LINE
  5
222D1
  8
0
  6
CONTINUOUS
 10
36.23199999996837
 20
7.73690461727214
 30
0.0
 11
37.25819538268748
 21
8.763099999991255
 31
0.0
  0
LINE
  5
222D2
  8
0
  6
CONTINUOUS
 10
31.64323424774199
 20
2.474619655965573
 30
0.0
 11
33.08199999996839
 21
3.913385408191976
 31
0.0
  0
LINE
  5
222D3
  8
0
  6
CONTINUOUS
 10
31.74419223861915
 20
1.902058437762552
 30
0.0
 11
33.08199999996839
 21
3.239866199111789
 31
0.0
  0
LINE
  5
222D4
  8
0
  6
CONTINUOUS
 10
36.23199999996837
 20
7.063385408191953
 30
0.0
 11
37.67199999996831
 21
8.503385408191894
 31
0.0
  0
LINE
  5
222D5
  8
0
  6
CONTINUOUS
 10
36.23199999996837
 20
6.389866199111767
 30
0.0
 11
37.67199999996831
 21
7.829866199111708
 31
0.0
  0
LINE
  5
222D6
  8
0
  6
CONTINUOUS
 10
31.91111233414976
 20
1.39545932421297
 30
0.0
 11
33.08199999996839
 21
2.566346990031603
 31
0.0
  0
LINE
  5
222D7
  8
0
  6
CONTINUOUS
 10
36.23199999996837
 20
5.71634699003158
 30
0.0
 11
37.67199999996831
 21
7.156346990031522
 31
0.0
  0
LINE
  5
222D8
  8
0
  6
CONTINUOUS
 10
32.1576374746103
 20
0.9684652555933289
 30
0.0
 11
33.20642631446081
 21
2.017254095443838
 31
0.0
  0
LINE
  5
222D9
  8
0
  6
CONTINUOUS
 10
36.23199999996837
 20
5.042827780951393
 30
0.0
 11
37.67199999996831
 21
6.482827780951334
 31
0.0
  0
LINE
  5
222DA
  8
0
  6
CONTINUOUS
 10
32.47774023927325
 20
0.6150488111760914
 30
0.0
 11
33.49903056428258
 21
1.636339136185419
 31
0.0
  0
LINE
  5
222DB
  8
0
  6
CONTINUOUS
 10
36.23199999996837
 20
4.369308571871207
 30
0.0
 11
37.67199999996831
 21
5.809308571871148
 31
0.0
  0
LINE
  5
222DC
  8
0
  6
CONTINUOUS
 10
32.84396249154443
 20
0.3077518543670883
 30
0.0
 11
33.93324121824649
 21
1.397030581069146
 31
0.0
  0
LINE
  5
222DD
  8
0
  6
CONTINUOUS
 10
36.23199999996837
 20
3.695789362791021
 30
0.0
 11
37.67199999996831
 21
5.135789362790963
 31
0.0
  0
LINE
  5
222DE
  8
0
  6
CONTINUOUS
 10
33.30186329036846
 20
0.0921334441109263
 30
0.0
 11
34.46442907112041
 21
1.254699224862875
 31
0.0
  0
LINE
  5
222DF
  8
0
  6
CONTINUOUS
 10
36.23199999996837
 20
3.022270153710834
 30
0.0
 11
37.67199999996831
 21
4.462270153710776
 31
0.0
  0
LINE
  5
222E0
  8
0
  6
CONTINUOUS
 10
33.79565647746294
 20
-0.0875925778747773
 30
0.0
 11
35.24350171668284
 21
1.360252661345124
 31
0.0
  0
LINE
  5
222E1
  8
0
  6
CONTINUOUS
 10
36.18336676155003
 20
2.300117706212308
 30
0.0
 11
37.67199999996831
 21
3.788750944630589
 31
0.0
  0
LINE
  5
222E2
  8
0
  6
CONTINUOUS
 10
34.37182574910968
 20
-0.184942515308224
 30
0.0
 11
37.67199999996831
 21
3.115231735550402
 31
0.0
  0
LINE
  5
222E3
  8
0
  6
CONTINUOUS
 10
35.0453449581892
 20
-0.1849425153088955
 30
0.0
 11
37.66345697088136
 21
2.433169497383271
 31
0.0
  0
LINE
  5
222E4
  8
0
  6
CONTINUOUS
 10
35.98667157609191
 20
0.0828648935136398
 30
0.0
 11
37.51927401744566
 21
1.615467334867382
 31
0.0
  0
LINE
  5
222E5
  8
0
  6
CONTINUOUS
 10
32.27747408544484
 20
0.7830920669904482
 30
0.0
 11
32.24716210471949
 21
0.8134040477157893
 31
0.0
  0
LINE
  5
222E6
  8
0
  6
CONTINUOUS
 10
33.83656881101902
 20
-0.1024834495035494
 30
0.0
 11
31.72538911593758
 21
2.008696245577891
 31
0.0
  0
LINE
  5
222E7
  8
0
  6
CONTINUOUS
 10
34.5925470859041
 20
-0.1849425153084434
 30
0.0
 11
31.64199999996833
 21
2.765604570627322
 31
0.0
  0
LINE
  5
222E8
  8
0
  6
CONTINUOUS
 10
35.26201302775981
 20
-0.1808892480839752
 30
0.0
 11
31.64199999996833
 21
3.439123779707508
 31
0.0
  0
LINE
  5
222E9
  8
0
  6
CONTINUOUS
 10
35.75580621485512
 20
-0.0011632260990879
 30
0.0
 11
34.51294304365551
 21
1.241699945100514
 31
0.0
  0
LINE
  5
222EA
  8
0
  6
CONTINUOUS
 10
33.08199999996839
 20
2.672642988787641
 30
0.0
 11
31.64199999996833
 21
4.112642988787695
 31
0.0
  0
LINE
  5
222EB
  8
0
  6
CONTINUOUS
 10
36.24959940195042
 20
0.1785627958857976
 30
0.0
 11
35.10501653033629
 21
1.323145667499924
 31
0.0
  0
LINE
  5
222EC
  8
0
  6
CONTINUOUS
 10
33.08199999996839
 20
3.346162197867827
 30
0.0
 11
31.64199999996833
 21
4.786162197867881
 31
0.0
  0
LINE
  5
222ED
  8
0
  6
CONTINUOUS
 10
36.64615197150552
 20
0.4555294354108876
 30
0.0
 11
35.6362043832099
 21
1.465477023706505
 31
0.0
  0
LINE
  5
222EE
  8
0
  6
CONTINUOUS
 10
33.08199999996839
 20
4.019681406948013
 30
0.0
 11
31.64199999996833
 21
5.459681406948068
 31
0.0
  0
LINE
  5
222EF
  8
0
  6
CONTINUOUS
 10
37.0123742237774
 20
0.7628263922191891
 30
0.0
 11
35.97691545773309
 21
1.798285158263504
 31
0.0
  0
LINE
  5
222F0
  8
0
  6
CONTINUOUS
 10
33.08199999996839
 20
4.6932006160282
 30
0.0
 11
31.64199999996833
 21
6.133200616028255
 31
0.0
  0
LINE
  5
222F1
  8
0
  6
CONTINUOUS
 10
37.27491524157143
 20
1.173804583505349
 30
0.0
 11
36.17602012811361
 21
2.272699696963169
 31
0.0
  0
LINE
  5
222F2
  8
0
  6
CONTINUOUS
 10
33.08199999996839
 20
5.366719825108387
 30
0.0
 11
31.64199999996833
 21
6.806719825108441
 31
0.0
  0
LINE
  5
222F3
  8
0
  6
CONTINUOUS
 10
37.51739996707661
 20
1.604839067080355
 30
0.0
 11
36.23199999996837
 21
2.890239034188595
 31
0.0
  0
LINE
  5
222F4
  8
0
  6
CONTINUOUS
 10
37.6183579579535
 20
2.177400285283649
 30
0.0
 11
36.23199999996837
 21
3.563758243268782
 31
0.0
  0
LINE
  5
222F5
  8
0
  6
CONTINUOUS
 10
33.08199999996839
 20
6.040239034188573
 30
0.0
 11
31.64199999996833
 21
7.480239034188628
 31
0.0
  0
LINE
  5
222F6
  8
0
  6
CONTINUOUS
 10
33.08199999996839
 20
6.713758243268759
 30
0.0
 11
31.64199999996833
 21
8.153758243268815
 31
0.0
  0
LINE
  5
222F7
  8
0
  6
CONTINUOUS
 10
37.67199999996831
 20
2.797277452349027
 30
0.0
 11
36.23199999996837
 21
4.237277452348969
 31
0.0
  0
LINE
  5
222F8
  8
0
  6
CONTINUOUS
 10
37.67199999996831
 20
3.470796661429214
 30
0.0
 11
36.23199999996837
 21
4.910796661429155
 31
0.0
  0
LINE
  5
222F9
  8
0
  6
CONTINUOUS
 10
37.67199999996831
 20
4.1443158705094
 30
0.0
 11
36.23199999996837
 21
5.584315870509341
 31
0.0
  0
LINE
  5
222FA
  8
0
  6
CONTINUOUS
 10
33.08199999996839
 20
7.387277452348946
 30
0.0
 11
31.70617745232608
 21
8.763099999991255
 31
0.0
  0
LINE
  5
222FB
  8
0
  6
CONTINUOUS
 10
33.08199999996839
 20
8.060796661429134
 30
0.0
 11
32.37969666140626
 21
8.763099999991255
 31
0.0
  0
LINE
  5
222FC
  8
0
  6
CONTINUOUS
 10
33.08199999996839
 20
8.734315870509318
 30
0.0
 11
33.05321587048645
 21
8.763099999991255
 31
0.0
  0
LINE
  5
222FD
  8
0
  6
CONTINUOUS
 10
37.67199999996831
 20
4.817835079589586
 30
0.0
 11
36.23199999996837
 21
6.257835079589528
 31
0.0
  0
LINE
  5
222FE
  8
0
  6
CONTINUOUS
 10
37.67199999996831
 20
5.491354288669772
 30
0.0
 11
36.23199999996837
 21
6.931354288669715
 31
0.0
  0
LINE
  5
222FF
  8
0
  6
CONTINUOUS
 10
37.67199999996831
 20
6.164873497749959
 30
0.0
 11
36.23199999996837
 21
7.6048734977499
 31
0.0
  0
LINE
  5
22300
  8
0
  6
CONTINUOUS
 10
37.67199999996831
 20
6.838392706830145
 30
0.0
 11
36.23199999996837
 21
8.278392706830086
 31
0.0
  0
LINE
  5
22301
  8
0
  6
CONTINUOUS
 10
37.67199999996831
 20
7.511911915910333
 30
0.0
 11
36.42081191588738
 21
8.763099999991255
 31
0.0
  0
LINE
  5
22302
  8
0
  6
CONTINUOUS
 10
37.67199999996831
 20
8.185431124990519
 30
0.0
 11
37.09433112496757
 21
8.763099999991255
 31
0.0
  0
ENDBLK
  5
2236A
  8
0
  0
BLOCK
  8
0
  2
*X55
 70
     1
 10
0.0
 20
0.0
 30
0.0
  3
*X55
  1

  0
LINE
  5
22304
  8
0
  6
CONTINUOUS
 10
38.60499999996136
 20
8.762866199104765
 30
0.0
 11
38.71672554182345
 21
8.874591740966855
 31
0.0
  0
LINE
  5
22305
  8
0
  6
CONTINUOUS
 10
38.60499999996136
 20
8.089346990024577
 30
0.0
 11
39.03418785440363
 21
8.518534844466847
 31
0.0
  0
LINE
  5
22306
  8
0
  6
CONTINUOUS
 10
38.60499999996136
 20
7.41582778094439
 30
0.0
 11
39.35165016698382
 21
8.16247794796684
 31
0.0
  0
LINE
  5
22307
  8
0
  6
CONTINUOUS
 10
38.60499999996136
 20
6.742308571864204
 30
0.0
 11
39.66911247956399
 21
7.806421051466834
 31
0.0
  0
LINE
  5
22308
  8
0
  6
CONTINUOUS
 10
38.60499999996136
 20
6.068789362784018
 30
0.0
 11
39.98657479214418
 21
7.450364154966827
 31
0.0
  0
LINE
  5
22309
  8
0
  6
CONTINUOUS
 10
38.60499999996136
 20
5.395270153703832
 30
0.0
 11
40.30403710472435
 21
7.09430725846682
 31
0.0
  0
LINE
  5
2230A
  8
0
  6
CONTINUOUS
 10
38.60499999996136
 20
4.721750944623645
 30
0.0
 11
40.62149941730453
 21
6.738250361966813
 31
0.0
  0
LINE
  5
2230B
  8
0
  6
CONTINUOUS
 10
38.60499999996136
 20
4.048231735543458
 30
0.0
 11
40.93896172988471
 21
6.382193465466806
 31
0.0
  0
LINE
  5
2230C
  8
0
  6
CONTINUOUS
 10
38.60499999996136
 20
3.374712526463272
 30
0.0
 11
40.02599999995994
 21
4.795712526461843
 31
0.0
  0
LINE
  5
2230D
  8
0
  6
CONTINUOUS
 10
38.60499999996136
 20
2.701193317383085
 30
0.0
 11
40.02599999995994
 21
4.122193317381657
 31
0.0
  0
LINE
  5
2230E
  8
0
  6
CONTINUOUS
 10
40.28339754687704
 20
5.053110073378947
 30
0.0
 11
41.25642404246489
 21
6.026136568966799
 31
0.0
  0
LINE
  5
2230F
  8
0
  6
CONTINUOUS
 10
40.60085985945722
 20
4.697053176878939
 30
0.0
 11
41.57388635504507
 21
5.670079672466793
 31
0.0
  0
LINE
  5
22310
  8
0
  6
CONTINUOUS
 10
43.57899999995641
 20
8.348712526458318
 30
0.0
 11
43.99338747348935
 21
8.763099999991255
 31
0.0
  0
LINE
  5
22311
  8
0
  6
CONTINUOUS
 10
43.57899999995641
 20
7.675193317378131
 30
0.0
 11
44.66690668256953
 21
8.763099999991255
 31
0.0
  0
LINE
  5
22312
  8
0
  6
CONTINUOUS
 10
38.60499999996136
 20
2.027674108302898
 30
0.0
 11
40.02599999995994
 21
3.44867410830147
 31
0.0
  0
LINE
  5
22313
  8
0
  6
CONTINUOUS
 10
38.60499999996136
 20
1.354154899222712
 30
0.0
 11
40.02599999995994
 21
2.775154899221284
 31
0.0
  0
LINE
  5
22314
  8
0
  6
CONTINUOUS
 10
38.60499999996136
 20
0.6806356901425255
 30
0.0
 11
40.02599999995994
 21
2.101635690141098
 31
0.0
  0
LINE
  5
22315
  8
0
  6
CONTINUOUS
 10
38.60499999996136
 20
0.0071164810623383
 30
0.0
 11
40.02599999995994
 21
1.428116481060911
 31
0.0
  0
LINE
  5
22316
  8
0
  6
CONTINUOUS
 10
40.9183221720374
 20
4.340996280378933
 30
0.0
 11
41.89134866762525
 21
5.314022775966786
 31
0.0
  0
LINE
  5
22317
  8
0
  6
CONTINUOUS
 10
41.23578448461758
 20
3.984939383878926
 30
0.0
 11
42.20881098020543
 21
4.957965879466778
 31
0.0
  0
LINE
  5
22318
  8
0
  6
CONTINUOUS
 10
41.55324679719776
 20
3.628882487378919
 30
0.0
 11
42.52627329278561
 21
4.601908982966772
 31
0.0
  0
LINE
  5
22319
  8
0
  6
CONTINUOUS
 10
41.87070910977793
 20
3.272825590878912
 30
0.0
 11
42.84373560536579
 21
4.245852086466765
 31
0.0
  0
LINE
  5
2231A
  8
0
  6
CONTINUOUS
 10
43.57899999995641
 20
7.001674108297943
 30
0.0
 11
44.99999999995498
 21
8.422674108296516
 31
0.0
  0
LINE
  5
2231B
  8
0
  6
CONTINUOUS
 10
43.57899999995641
 20
6.328154899217758
 30
0.0
 11
44.99999999995498
 21
7.749154899216329
 31
0.0
  0
LINE
  5
2231C
  8
0
  6
CONTINUOUS
 10
43.57899999995641
 20
5.654635690137571
 30
0.0
 11
44.99999999995498
 21
7.075635690136142
 31
0.0
  0
LINE
  5
2231D
  8
0
  6
CONTINUOUS
 10
43.57899999995641
 20
4.981116481057384
 30
0.0
 11
44.99999999995498
 21
6.402116481055955
 31
0.0
  0
LINE
  5
2231E
  8
0
  6
CONTINUOUS
 10
39.27140272797921
 20
-0.0000000000000009
 30
0.0
 11
40.02599999995994
 21
0.7545972719807246
 31
0.0
  0
LINE
  5
2231F
  8
0
  6
CONTINUOUS
 10
39.9449219370594
 20
-0.0000000000000009
 30
0.0
 11
40.02599999995994
 21
0.0810780629005379
 31
0.0
  0
LINE
  5
22320
  8
0
  6
CONTINUOUS
 10
42.18817142235812
 20
2.916768694378905
 30
0.0
 11
43.16119791794597
 21
3.889795189966758
 31
0.0
  0
LINE
  5
22321
  8
0
  6
CONTINUOUS
 10
42.50563373493829
 20
2.560711797878898
 30
0.0
 11
43.47866023052615
 21
3.533738293466751
 31
0.0
  0
LINE
  5
22322
  8
0
  6
CONTINUOUS
 10
43.57899999995641
 20
4.307597271977198
 30
0.0
 11
44.99999999995498
 21
5.728597271975769
 31
0.0
  0
LINE
  5
22323
  8
0
  6
CONTINUOUS
 10
43.57899999995641
 20
3.634078062897011
 30
0.0
 11
44.99999999995498
 21
5.055078062895582
 31
0.0
  0
LINE
  5
22324
  8
0
  6
CONTINUOUS
 10
42.82309604751848
 20
2.204654901378891
 30
0.0
 11
44.99999999995498
 21
4.381558853815395
 31
0.0
  0
LINE
  5
22325
  8
0
  6
CONTINUOUS
 10
43.14055836009865
 20
1.848598004878885
 30
0.0
 11
44.99999999995498
 21
3.70803964473521
 31
0.0
  0
LINE
  5
22326
  8
0
  6
CONTINUOUS
 10
43.45802067267883
 20
1.492541108378878
 30
0.0
 11
44.99999999995498
 21
3.034520435655023
 31
0.0
  0
LINE
  5
22327
  8
0
  6
CONTINUOUS
 10
43.77548298525902
 20
1.136484211878871
 30
0.0
 11
44.99999999995498
 21
2.361001226574837
 31
0.0
  0
LINE
  5
22328
  8
0
  6
CONTINUOUS
 10
44.09294529783919
 20
0.7804273153788639
 30
0.0
 11
44.99999999995498
 21
1.687482017494649
 31
0.0
  0
LINE
  5
22329
  8
0
  6
CONTINUOUS
 10
44.41040761041938
 20
0.4243704188788566
 30
0.0
 11
44.99999999995498
 21
1.013962808414463
 31
0.0
  0
LINE
  5
2232A
  8
0
  6
CONTINUOUS
 10
44.72786992299955
 20
0.0683135223788494
 30
0.0
 11
44.99999999995498
 21
0.340443599334276
 31
0.0
  0
LINE
  5
2232B
  8
0
  6
CONTINUOUS
 10
39.12223903415696
 20
-0.0000000000000009
 30
0.0
 11
38.60499999996136
 21
0.5172390341955961
 31
0.0
  0
LINE
  5
2232C
  8
0
  6
CONTINUOUS
 10
39.79575824323715
 20
-0.0000000000000009
 30
0.0
 11
38.60499999996136
 21
1.190758243275783
 31
0.0
  0
LINE
  5
2232D
  8
0
  6
CONTINUOUS
 10
40.02599999995994
 20
0.443277452357397
 30
0.0
 11
38.60499999996136
 21
1.864277452355969
 31
0.0
  0
LINE
  5
2232E
  8
0
  6
CONTINUOUS
 10
40.02599999995994
 20
1.116796661437583
 30
0.0
 11
38.60499999996136
 21
2.537796661436155
 31
0.0
  0
LINE
  5
2232F
  8
0
  6
CONTINUOUS
 10
40.02599999995994
 20
1.79031587051777
 30
0.0
 11
38.60499999996136
 21
3.211315870516341
 31
0.0
  0
LINE
  5
22330
  8
0
  6
CONTINUOUS
 10
40.02599999995994
 20
2.463835079597956
 30
0.0
 11
38.60499999996136
 21
3.884835079596527
 31
0.0
  0
LINE
  5
22331
  8
0
  6
CONTINUOUS
 10
40.02599999995994
 20
3.137354288678143
 30
0.0
 11
38.60499999996136
 21
4.558354288676714
 31
0.0
  0
LINE
  5
22332
  8
0
  6
CONTINUOUS
 10
40.02599999995994
 20
3.810873497758329
 30
0.0
 11
38.60499999996136
 21
5.2318734977569
 31
0.0
  0
LINE
  5
22333
  8
0
  6
CONTINUOUS
 10
40.02599999995994
 20
4.484392706838515
 30
0.0
 11
38.60499999996136
 21
5.905392706837086
 31
0.0
  0
LINE
  5
22334
  8
0
  6
CONTINUOUS
 10
44.99999999995498
 20
0.183911915923658
 30
0.0
 11
41.53858364506288
 21
3.64532827081576
 31
0.0
  0
LINE
  5
22335
  8
0
  6
CONTINUOUS
 10
40.02599999995994
 20
5.157911915918703
 30
0.0
 11
38.60499999996136
 21
6.578911915917274
 31
0.0
  0
LINE
  5
22336
  8
0
  6
CONTINUOUS
 10
44.99999999995498
 20
0.8574311250038447
 30
0.0
 11
38.60499999996136
 21
7.25243112499746
 31
0.0
  0
LINE
  5
22337
  8
0
  6
CONTINUOUS
 10
44.99999999995498
 20
1.530950334084031
 30
0.0
 11
38.60499999996136
 21
7.925950334077647
 31
0.0
  0
LINE
  5
22338
  8
0
  6
CONTINUOUS
 10
44.99999999995498
 20
2.204469543164218
 30
0.0
 11
43.57899999995641
 21
3.625469543162789
 31
0.0
  0
LINE
  5
22339
  8
0
  6
CONTINUOUS
 10
41.89876730984767
 20
5.305702233271528
 30
0.0
 11
38.60499999996136
 21
8.599469543157834
 31
0.0
  0
LINE
  5
2233A
  8
0
  6
CONTINUOUS
 10
44.99999999995498
 20
2.877988752244405
 30
0.0
 11
43.57899999995641
 21
4.298988752242975
 31
0.0
  0
LINE
  5
2233B
  8
0
  6
CONTINUOUS
 10
44.99999999995498
 20
3.551507961324591
 30
0.0
 11
43.57899999995641
 21
4.972507961323163
 31
0.0
  0
LINE
  5
2233C
  8
0
  6
CONTINUOUS
 10
44.99999999995498
 20
4.225027170404777
 30
0.0
 11
43.57899999995641
 21
5.646027170403348
 31
0.0
  0
LINE
  5
2233D
  8
0
  6
CONTINUOUS
 10
44.99999999995498
 20
4.898546379484964
 30
0.0
 11
43.57899999995641
 21
6.319546379483535
 31
0.0
  0
LINE
  5
2233E
  8
0
  6
CONTINUOUS
 10
44.99999999995498
 20
5.572065588565151
 30
0.0
 11
43.57899999995641
 21
6.993065588563722
 31
0.0
  0
LINE
  5
2233F
  8
0
  6
CONTINUOUS
 10
44.99999999995498
 20
6.245584797645336
 30
0.0
 11
43.57899999995641
 21
7.666584797643908
 31
0.0
  0
LINE
  5
22340
  8
0
  6
CONTINUOUS
 10
44.99999999995498
 20
6.919104006725522
 30
0.0
 11
43.57899999995641
 21
8.340104006724093
 31
0.0
  0
LINE
  5
22341
  8
0
  6
CONTINUOUS
 10
44.99999999995498
 20
7.592623215805709
 30
0.0
 11
43.82952321576943
 21
8.763099999991255
 31
0.0
  0
LINE
  5
22342
  8
0
  6
CONTINUOUS
 10
44.99999999995498
 20
8.266142424885896
 30
0.0
 11
44.50304242484962
 21
8.763099999991255
 31
0.0
  0
ENDBLK
  5
2236C
  8
0
  0
BLOCK
  8
0
  2
*X56
 70
     1
 10
0.0
 20
0.0
 30
0.0
  3
*X56
  1

  0
LINE
  5
22344
  8
0
  6
CONTINUOUS
 10
0.0
 20
8.548461116714023
 30
0.0
 11
0.2146388832772324
 21
8.763099999991255
 31
0.0
  0
LINE
  5
22345
  8
0
  6
CONTINUOUS
 10
-0.0000000000000002
 20
7.874941907633837
 30
0.0
 11
0.8881580923574184
 21
8.763099999991255
 31
0.0
  0
LINE
  5
22346
  8
0
  6
CONTINUOUS
 10
0.0
 20
7.20142269855365
 30
0.0
 11
1.420999999998572
 21
8.622422698552223
 31
0.0
  0
LINE
  5
22347
  8
0
  6
CONTINUOUS
 10
-0.0000000000000001
 20
6.527903489473465
 30
0.0
 11
1.420999999998571
 21
7.948903489472036
 31
0.0
  0
LINE
  5
22348
  8
0
  6
CONTINUOUS
 10
-0.0000000000000002
 20
5.854384280393278
 30
0.0
 11
1.420999999998571
 21
7.275384280391849
 31
0.0
  0
LINE
  5
22349
  8
0
  6
CONTINUOUS
 10
-0.0000000000000002
 20
5.180865071313091
 30
0.0
 11
1.420999999998571
 21
6.601865071311663
 31
0.0
  0
LINE
  5
2234A
  8
0
  6
CONTINUOUS
 10
0.0
 20
4.507345862232905
 30
0.0
 11
1.420999999998571
 21
5.928345862231477
 31
0.0
  0
LINE
  5
2234B
  8
0
  6
CONTINUOUS
 10
-0.0000000000000003
 20
3.833826653152718
 30
0.0
 11
1.420999999998571
 21
5.25482665315129
 31
0.0
  0
LINE
  5
2234C
  8
0
  6
CONTINUOUS
 10
-0.0000000000000002
 20
3.160307444072532
 30
0.0
 11
1.420999999998571
 21
4.581307444071103
 31
0.0
  0
LINE
  5
2234D
  8
0
  6
CONTINUOUS
 10
-0.0000000000000001
 20
2.486788234992345
 30
0.0
 11
1.420999999998571
 21
3.907788234990917
 31
0.0
  0
LINE
  5
2234E
  8
0
  6
CONTINUOUS
 10
-0.0000000000000006
 20
1.813269025912159
 30
0.0
 11
1.420999999998571
 21
3.234269025910731
 31
0.0
  0
LINE
  5
2234F
  8
0
  6
CONTINUOUS
 10
0.0
 20
1.139749816831973
 30
0.0
 11
1.420999999998571
 21
2.560749816830544
 31
0.0
  0
LINE
  5
22350
  8
0
  6
CONTINUOUS
 10
0.0000000000000002
 20
0.466230607751787
 30
0.0
 11
1.420999999998571
 21
1.887230607750358
 31
0.0
  0
LINE
  5
22351
  8
0
  6
CONTINUOUS
 10
0.2072886013284003
 20
-0.0000000000000009
 30
0.0
 11
1.420999999998571
 21
1.213711398670171
 31
0.0
  0
LINE
  5
22352
  8
0
  6
CONTINUOUS
 10
0.8808078104085864
 20
-0.0000000000000009
 30
0.0
 11
1.420999999998571
 21
0.5401921895899839
 31
0.0
  0
LINE
  5
22353
  8
0
  6
CONTINUOUS
 10
0.0581249075061505
 20
-0.0000000000000009
 30
0.0
 11
-0.0000000000000002
 21
0.0581249075061496
 31
0.0
  0
LINE
  5
22354
  8
0
  6
CONTINUOUS
 10
0.7316441165863372
 20
-0.0000000000000009
 30
0.0
 11
-0.0000000000000002
 21
0.7316441165863363
 31
0.0
  0
LINE
  5
22355
  8
0
  6
CONTINUOUS
 10
1.405163325666523
 20
-0.0000000000000009
 30
0.0
 11
-0.0000000000000002
 21
1.405163325666523
 31
0.0
  0
LINE
  5
22356
  8
0
  6
CONTINUOUS
 10
1.420999999998572
 20
0.6576825347481381
 30
0.0
 11
-0.0000000000000001
 21
2.07868253474671
 31
0.0
  0
LINE
  5
22357
  8
0
  6
CONTINUOUS
 10
1.420999999998571
 20
1.331201743828324
 30
0.0
 11
-0.0000000000000001
 21
2.752201743826896
 31
0.0
  0
LINE
  5
22358
  8
0
  6
CONTINUOUS
 10
1.420999999998571
 20
2.004720952908511
 30
0.0
 11
-0.0000000000000002
 21
3.425720952907082
 31
0.0
  0
LINE
  5
22359
  8
0
  6
CONTINUOUS
 10
1.420999999998571
 20
2.678240161988697
 30
0.0
 11
-0.0000000000000001
 21
4.099240161987269
 31
0.0
  0
LINE
  5
2235A
  8
0
  6
CONTINUOUS
 10
1.420999999998572
 20
3.351759371068884
 30
0.0
 11
0.0
 21
4.772759371067455
 31
0.0
  0
LINE
  5
2235B
  8
0
  6
CONTINUOUS
 10
1.420999999998571
 20
4.02527858014907
 30
0.0
 11
-0.0000000000000003
 21
5.446278580147642
 31
0.0
  0
LINE
  5
2235C
  8
0
  6
CONTINUOUS
 10
1.420999999998571
 20
4.698797789229257
 30
0.0
 11
0.0
 21
6.119797789227828
 31
0.0
  0
LINE
  5
2235D
  8
0
  6
CONTINUOUS
 10
1.420999999998571
 20
5.372316998309444
 30
0.0
 11
-0.0000000000000001
 21
6.793316998308015
 31
0.0
  0
LINE
  5
2235E
  8
0
  6
CONTINUOUS
 10
1.420999999998572
 20
6.045836207389629
 30
0.0
 11
-0.0000000000000004
 21
7.466836207388202
 31
0.0
  0
LINE
  5
2235F
  8
0
  6
CONTINUOUS
 10
1.420999999998571
 20
6.719355416469816
 30
0.0
 11
0.0
 21
8.140355416468388
 31
0.0
  0
LINE
  5
22360
  8
0
  6
CONTINUOUS
 10
1.420999999998571
 20
7.392874625550003
 30
0.0
 11
0.0507746255573185
 21
8.763099999991255
 31
0.0
  0
LINE
  5
22361
  8
0
  6
CONTINUOUS
 10
1.420999999998571
 20
8.06639383463019
 30
0.0
 11
0.7242938346375052
 21
8.763099999991255
 31
0.0
  0
LINE
  5
22362
  8
0
  6
CONTINUOUS
 10
1.420999999998571
 20
8.739913043710375
 30
0.0
 11
1.397813043717691
 21
8.763099999991255
 31
0.0
  0
ENDBLK
  5
2236E
  8
0
  0
ENDSEC
  0
SECTION
  2
ENTITIES
  0
LINE
  5
1D8CA
  8
01
 10
743.016241615365
 20
-650.6713303512659
 30
0.0
 11
743.016241615365
 21
-672.8213303512673
 31
0.0
  0
LINE
  5
1D90A
  8
01
 10
743.016241615365
 20
-653.1713303512665
 30
0.0
 11
743.016241615365
 21
-670.8213303512659
 31
0.0
  0
TEXT
  5
1DB9B
  8
1TEXT
 10
513.3706615454182
 20
-468.025441490976
 30
0.0
 40
8.0
  1
SC-471-X
  0
LINE
  5
1DBA4
  8
01
 10
755.516241615365
 20
-618.5931567659845
 30
0.0
 11
755.516241615365
 21
-693.0495039365483
 31
0.0
  0
LINE
  5
1DBA5
  8
01
 10
764.516241615365
 20
-618.5931567659845
 30
0.0
 11
764.516241615365
 21
-693.0495039365483
 31
0.0
  0
LINE
  5
1DBA6
  8
01
 10
743.016241615365
 20
-618.5931567659845
 30
0.0
 11
743.016241615365
 21
-693.0495039365483
 31
0.0
  0
LINE
  5
1E7B5
  8
01
 10
623.5162414684689
 20
-554.4084290685676
 30
0.0
 11
622.516241768469
 21
-553.4084290685676
 31
0.0
  0
LINE
  5
1E7B6
  8
01
 10
626.8162416184689
 20
-554.4084290685676
 30
0.0
 11
626.8162416184689
 21
-553.4084290685676
 31
0.0
  0
LINE
  5
1E7B7
  8
01
 10
626.8162416184689
 20
-553.4084290685676
 30
0.0
 11
619.216241618469
 21
-553.4084290685676
 31
0.0
  0
LINE
  5
1E7B8
  8
01
 10
626.8162416184689
 20
-554.4084290685676
 30
0.0
 11
619.216241618469
 21
-554.4084290685676
 31
0.0
  0
LINE
  5
1E7B9
  8
01
 10
619.216241618469
 20
-554.4084290685676
 30
0.0
 11
619.216241618469
 21
-553.4084290685676
 31
0.0
  0
LINE
  5
1E9CD
  8
01
 10
740.016241615365
 20
-672.3212500321943
 30
0.0
 11
741.016241615365
 21
-671.3212503321943
 31
0.0
  0
LINE
  5
1E9CE
  8
01
 10
740.016241615365
 20
-675.6212501821942
 30
0.0
 11
741.016241615365
 21
-675.6212501821942
 31
0.0
  0
LINE
  5
1E9CF
  8
01
 10
741.016241615365
 20
-675.6212501821942
 30
0.0
 11
741.016241615365
 21
-668.0212501821943
 31
0.0
  0
LINE
  5
1E9D0
  8
01
 10
740.016241615365
 20
-675.6212501821942
 30
0.0
 11
740.016241615365
 21
-668.0212501821943
 31
0.0
  0
LINE
  5
1E9D1
  8
01
 10
740.016241615365
 20
-668.0212501821943
 30
0.0
 11
741.016241615365
 21
-668.0212501821943
 31
0.0
  0
LINE
  5
1E9D4
  8
01
 10
605.5162414684689
 20
-554.4084290685676
 30
0.0
 11
604.516241768469
 21
-553.4084290685676
 31
0.0
  0
LINE
  5
1E9D5
  8
01
 10
608.8162416184689
 20
-554.4084290685676
 30
0.0
 11
608.8162416184689
 21
-553.4084290685676
 31
0.0
  0
LINE
  5
1E9D6
  8
01
 10
608.8162416184689
 20
-553.4084290685676
 30
0.0
 11
601.216241618469
 21
-553.4084290685676
 31
0.0
  0
LINE
  5
1E9D7
  8
01
 10
608.8162416184689
 20
-554.4084290685676
 30
0.0
 11
601.216241618469
 21
-554.4084290685676
 31
0.0
  0
LINE
  5
1E9D8
  8
01
 10
601.216241618469
 20
-554.4084290685676
 30
0.0
 11
601.216241618469
 21
-553.4084290685676
 31
0.0
  0
LINE
  5
1EE56
  8
1DIM
 10
513.3706615454182
 20
-473.025441490976
 30
0.0
 11
583.3706615454182
 21
-473.025441490976
 31
0.0
  0
LINE
  5
1EE57
  8
1DIM
 10
513.3706615454182
 20
-487.025441490976
 30
0.0
 11
583.3706615454182
 21
-487.025441490976
 31
0.0
  0
LINE
  5
1EE58
  8
1DIM
 10
513.3706615454182
 20
-480.025441490976
 30
0.0
 11
583.3706615454182
 21
-480.025441490976
 31
0.0
  0
LINE
  5
1EE5B
  8
1DIM
 10
583.3706615454182
 20
-473.025441490976
 30
0.0
 11
583.3706615454182
 21
-501.025441490976
 31
0.0
  0
TEXT
  5
1EE5D
  8
1TEXT
 10
558.9039948787512
 20
-478.525441490976
 30
0.0
 40
4.0
  1
コード
 72
     1
 11
565.7706615454179
 21
-478.525441490976
 31
0.0
  0
LINE
  5
1EE5E
  8
1DIM
 10
548.3706615454182
 20
-501.025441490976
 30
0.0
 11
548.3706615454182
 21
-473.025441490976
 31
0.0
  0
TEXT
  5
1EE62
  8
1TEXT
 10
521.5039948787512
 20
-478.525441490976
 30
0.0
 40
4.0
  1
表面処理
 72
     1
 11
530.7706615454179
 21
-478.525441490976
 31
0.0
  0
LINE
  5
1EE65
  8
1DIM
 10
513.3706615454182
 20
-501.025441490976
 30
0.0
 11
513.3706615454182
 21
-473.025441490976
 31
0.0
  0
LINE
  5
20CC1
  8
01
 10
596.0162416153647
 20
-613.4084516051706
 30
0.0
 11
182.0162416153641
 21
-613.4084516051706
 31
0.0
  0
LINE
  5
20CEE
  8
01
 10
182.016241615364
 20
-588.4084561874196
 30
0.0
 11
596.0162416153647
 21
-588.4084561874196
 31
0.0
  0
LINE
  5
20D3B
  8
01
 10
596.0162416153646
 20
-660.0213303512663
 30
0.0
 11
596.0162416153646
 21
-651.621330351266
 31
0.0
  0
LINE
  5
20D3C
  8
01
 10
632.0162416153646
 20
-660.0213303512666
 30
0.0
 11
632.0162416153646
 21
-651.6213303512662
 31
0.0
  0
LINE
  5
20D3D
  8
01
 10
599.5162416153646
 20
-683.8213303512663
 30
0.0
 11
628.5162416153646
 21
-683.8213303512663
 31
0.0
  0
LINE
  5
20D3E
  8
01
  6
BYBLOCK
 10
631.5162416153646
 20
-660.5213303512666
 30
0.0
 11
596.5162416153646
 21
-660.5213303512663
 31
0.0
  0
LINE
  5
20D3F
  8
01
  6
BYBLOCK
 10
631.5162416153646
 20
-651.1213303512662
 30
0.0
 11
596.5162416153646
 21
-651.121330351266
 31
0.0
  0
LINE
  5
20D40
  8
01
 10
629.0162416153646
 20
-660.5213303512666
 30
0.0
 11
629.0162416153646
 21
-683.3213303512663
 31
0.0
  0
LINE
  5
20D41
  8
01
 10
599.0162416153646
 20
-660.5213303512663
 30
0.0
 11
599.0162416153646
 21
-683.3213303512663
 31
0.0
  0
CIRCLE
  5
20D42
  8
01
 10
605.0162416153646
 20
-671.8213303512663
 30
0.0
 40
2.25
  0
CIRCLE
  5
20D43
  8
01
 10
605.0162416153646
 20
-671.8213303512663
 30
0.0
 40
4.25
  0
LINE
  5
20D44
  8
1CENTER
 10
611.3912417870094
 20
-671.8212967149879
 30
0.0
 11
598.6412417870094
 21
-671.8212967149879
 31
0.0
  0
LINE
  5
20D45
  8
1CENTER
 10
605.0162417870094
 20
-678.1962967149879
 30
0.0
 11
605.0162417870094
 21
-665.4462967149879
 31
0.0
  0
CIRCLE
  5
20D46
  8
01
 10
623.0162416153646
 20
-671.8213303512663
 30
0.0
 40
2.25
  0
CIRCLE
  5
20D47
  8
01
 10
623.0162416153646
 20
-671.8213303512663
 30
0.0
 40
4.25
  0
LINE
  5
20D48
  8
1CENTER
 10
629.3912417870094
 20
-671.8212967149879
 30
0.0
 11
616.6412417870094
 21
-671.8212967149879
 31
0.0
  0
LINE
  5
20D49
  8
1CENTER
 10
623.0162417870094
 20
-678.1962967149879
 30
0.0
 11
623.0162417870094
 21
-665.4462967149879
 31
0.0
  0
ARC
  5
20D4A
  8
01
 10
599.5162416153646
 20
-683.3213303512663
 30
0.0
 40
0.5
 50
180.0
 51
270.0
  0
ARC
  5
20D4B
  8
01
 10
628.5162416153646
 20
-683.3213303512663
 30
0.0
 40
0.5
 50
270.0
 51
0.0
  0
ARC
  5
20D4C
  8
01
 10
596.5162416153646
 20
-651.621330351266
 30
0.0
 40
0.5
 50
90.0
 51
180.0
  0
ARC
  5
20D4D
  8
01
 10
596.5162416153646
 20
-660.0213303512663
 30
0.0
 40
0.5
 50
180.0
 51
270.0
  0
ARC
  5
20D4E
  8
01
 10
631.5162416153646
 20
-660.0213303512666
 30
0.0
 40
0.5
 50
270.0
 51
0.0
  0
ARC
  5
20D4F
  8
01
 10
631.5162416153646
 20
-651.6213303512662
 30
0.0
 40
0.5
 50
0.0
 51
90.0
  0
LINE
  5
20D50
  8
1CENTER
 10
614.0162416153646
 20
-686.3144251682171
 30
0.0
 11
614.0162416153646
 21
-648.5132752419853
 31
0.0
  0
LINE
  5
20D60
  8
01
 10
632.0162416153647
 20
-613.2084290685675
 30
0.0
 11
632.0162416153647
 21
-556.6084290685676
 31
0.0
  0
LINE
  5
20D61
  8
01
 10
596.0162416153647
 20
-613.4084516051706
 30
0.0
 11
596.0162416153647
 21
-556.6084290685676
 31
0.0
  0
LINE
  5
20D62
  8
01
 10
631.5162416153647
 20
-556.1084290685676
 30
0.0
 11
596.5162416153647
 21
-556.1084290685676
 31
0.0
  0
LINE
  5
20D63
  8
01
 10
631.5162416153647
 20
-613.7084290685675
 30
0.0
 11
596.5162416153647
 21
-613.7084290685675
 31
0.0
  0
ARC
  5
20D64
  8
01
 10
631.5162416153647
 20
-556.6084290685676
 30
0.0
 40
0.5
 50
0.0
 51
90.0
  0
ARC
  5
20D65
  8
01
 10
631.5162416153647
 20
-613.2084290685675
 30
0.0
 40
0.5
 50
270.0
 51
0.0
  0
ARC
  5
20D66
  8
01
 10
596.5162416153647
 20
-613.2084290685675
 30
0.0
 40
0.5
 50
180.0
 51
270.0
  0
ARC
  5
20D67
  8
01
 10
596.5162416153647
 20
-556.6084290685676
 30
0.0
 40
0.5
 50
90.0
 51
180.0
  0
LINE
  5
20D68
  8
01
 10
629.0162416153646
 20
-551.4084290685676
 30
0.0
 11
599.0162416153647
 21
-551.4084290685676
 31
0.0
  0
LINE
  5
20D69
  8
01
 10
599.0162416153647
 20
-556.1084290685676
 30
0.0
 11
599.0162416153647
 21
-551.4084290685676
 31
0.0
  0
LINE
  5
20D6A
  8
01
 10
629.0162416153646
 20
-556.1084290685676
 30
0.0
 11
629.0162416153646
 21
-551.4084290685676
 31
0.0
  0
LINE
  5
20D6D
  8
01
 10
181.916241615364
 20
-651.321330351266
 30
0.0
 11
596.1162416153646
 21
-651.321330351266
 31
0.0
  0
LINE
  5
20D6E
  8
01
 10
181.9162416153642
 20
-660.321330351266
 30
0.0
 11
596.1162416153644
 21
-660.321330351266
 31
0.0
  0
LINE
  5
20D6F
  8
01
 10
182.016241615364
 20
-660.0213303512663
 30
0.0
 11
182.016241615364
 21
-651.621330351266
 31
0.0
  0
LINE
  5
20D70
  8
01
 10
146.016241615364
 20
-660.0213303512666
 30
0.0
 11
146.016241615364
 21
-651.6213303512662
 31
0.0
  0
LINE
  5
20D71
  8
01
 10
178.516241615364
 20
-683.8213303512663
 30
0.0
 11
149.516241615364
 21
-683.8213303512663
 31
0.0
  0
LINE
  5
20D72
  8
01
  6
BYBLOCK
 10
146.516241615364
 20
-660.5213303512666
 30
0.0
 11
181.516241615364
 21
-660.5213303512663
 31
0.0
  0
LINE
  5
20D73
  8
01
  6
BYBLOCK
 10
146.516241615364
 20
-651.1213303512662
 30
0.0
 11
181.516241615364
 21
-651.121330351266
 31
0.0
  0
LINE
  5
20D74
  8
01
 10
149.016241615364
 20
-660.5213303512666
 30
0.0
 11
149.016241615364
 21
-683.3213303512663
 31
0.0
  0
LINE
  5
20D75
  8
01
 10
179.016241615364
 20
-660.5213303512663
 30
0.0
 11
179.016241615364
 21
-683.3213303512663
 31
0.0
  0
CIRCLE
  5
20D76
  8
01
 10
173.016241615364
 20
-671.8213303512663
 30
0.0
 40
2.25
  0
CIRCLE
  5
20D77
  8
01
 10
173.016241615364
 20
-671.8213303512663
 30
0.0
 40
4.25
  0
LINE
  5
20D78
  8
1CENTER
 10
166.6412414437191
 20
-671.8212967149879
 30
0.0
 11
179.3912414437191
 21
-671.8212967149879
 31
0.0
  0
LINE
  5
20D79
  8
1CENTER
 10
173.0162414437191
 20
-678.1962967149879
 30
0.0
 11
173.0162414437191
 21
-665.4462967149879
 31
0.0
  0
CIRCLE
  5
20D7A
  8
01
 10
155.016241615364
 20
-671.8213303512663
 30
0.0
 40
2.25
  0
CIRCLE
  5
20D7B
  8
01
 10
155.016241615364
 20
-671.8213303512663
 30
0.0
 40
4.25
  0
LINE
  5
20D7C
  8
1CENTER
 10
148.6412414437191
 20
-671.8212967149879
 30
0.0
 11
161.3912414437191
 21
-671.8212967149879
 31
0.0
  0
LINE
  5
20D7D
  8
1CENTER
 10
155.0162414437191
 20
-678.1962967149879
 30
0.0
 11
155.0162414437191
 21
-665.4462967149879
 31
0.0
  0
ARC
  5
20D7E
  8
01
 10
178.516241615364
 20
-683.3213303512663
 30
0.0
 40
0.5
 50
270.0
 51
0.0
  0
ARC
  5
20D7F
  8
01
 10
149.516241615364
 20
-683.3213303512663
 30
0.0
 40
0.5
 50
180.0
 51
270.0
  0
ARC
  5
20D80
  8
01
 10
181.516241615364
 20
-651.621330351266
 30
0.0
 40
0.5
 50
0.0
 51
90.0
  0
ARC
  5
20D81
  8
01
 10
181.516241615364
 20
-660.0213303512663
 30
0.0
 40
0.5
 50
270.0
 51
0.0
  0
ARC
  5
20D82
  8
01
 10
146.516241615364
 20
-660.0213303512666
 30
0.0
 40
0.5
 50
180.0
 51
270.0
  0
ARC
  5
20D83
  8
01
 10
146.516241615364
 20
-651.6213303512662
 30
0.0
 40
0.5
 50
90.0
 51
180.0
  0
LINE
  5
20D84
  8
1CENTER
 10
164.016241615364
 20
-686.3144251682171
 30
0.0
 11
164.016241615364
 21
-648.5132752419853
 31
0.0
  0
LINE
  5
20D87
  8
01
 10
146.0162416153641
 20
-613.2084290685675
 30
0.0
 11
146.0162416153641
 21
-556.6084290685676
 31
0.0
  0
LINE
  5
20D88
  8
01
 10
182.0162416153641
 20
-613.4084516051706
 30
0.0
 11
182.0162416153641
 21
-556.6084290685676
 31
0.0
  0
LINE
  5
20D89
  8
01
 10
146.5162416153641
 20
-556.1084290685676
 30
0.0
 11
181.5162416153641
 21
-556.1084290685676
 31
0.0
  0
LINE
  5
20D8A
  8
01
 10
146.5162416153641
 20
-613.7084290685675
 30
0.0
 11
181.5162416153641
 21
-613.7084290685675
 31
0.0
  0
ARC
  5
20D8B
  8
01
 10
146.5162416153641
 20
-556.6084290685676
 30
0.0
 40
0.5
 50
90.0
 51
180.0
  0
ARC
  5
20D8C
  8
01
 10
146.5162416153641
 20
-613.2084290685675
 30
0.0
 40
0.5
 50
180.0
 51
270.0
  0
ARC
  5
20D8D
  8
01
 10
181.5162416153641
 20
-613.2084290685675
 30
0.0
 40
0.5
 50
270.0
 51
0.0
  0
ARC
  5
20D8E
  8
01
 10
181.5162416153641
 20
-556.6084290685676
 30
0.0
 40
0.5
 50
0.0
 51
90.0
  0
LINE
  5
20D8F
  8
01
 10
149.0162416153642
 20
-551.4084290685676
 30
0.0
 11
179.0162416153641
 21
-551.4084290685676
 31
0.0
  0
LINE
  5
20D90
  8
01
 10
179.0162416153641
 20
-556.1084290685676
 30
0.0
 11
179.0162416153641
 21
-551.4084290685676
 31
0.0
  0
LINE
  5
20D91
  8
01
 10
149.0162416153642
 20
-556.1084290685676
 30
0.0
 11
149.0162416153642
 21
-551.4084290685676
 31
0.0
  0
LINE
  5
213F3
  8
01
 10
743.016241615365
 20
-661.8213303512663
 30
0.0
 11
743.016241615365
 21
-683.8213303512663
 31
0.0
  0
LINE
  5
213F4
  8
01
  6
BYBLOCK
 10
733.516241615365
 20
-661.8213303512663
 30
0.0
 11
743.016241615365
 21
-661.8213303512663
 31
0.0
  0
LINE
  5
213F5
  8
01
 10
733.016241615365
 20
-661.1213303512664
 30
0.0
 11
733.016241615365
 21
-661.3213303512663
 31
0.0
  0
LINE
  5
213F6
  8
01
  6
BYBLOCK
 10
741.2841908077959
 20
-683.8213303512663
 30
0.0
 11
743.016241615365
 21
-683.8213303512663
 31
0.0
  0
LINE
  5
213F7
  8
01
 10
740.7841908077959
 20
-683.6873557550508
 30
0.0
 11
700.8326628797628
 21
-660.6213303512665
 31
0.0
  0
ARC
  5
21401
  8
01
 10
733.516241615365
 20
-661.3213303512663
 30
0.0
 40
0.4999999999999998
 50
180.0
 51
270.0
  0
ARC
  5
21402
  8
01
 10
733.516241615365
 20
-661.1213303512664
 30
0.0
 40
0.4999999999999998
 50
90.0
 51
180.0
  0
ARC
  5
2140B
  8
01
 10
741.2841908077959
 20
-682.8213303512663
 30
0.0
 40
0.9999999999999996
 50
239.9999999999994
 51
270.0
  0
LINE
  5
2140C
  8
01
 10
685.516241615365
 20
-660.6213303512665
 30
0.0
 11
733.516241615365
 21
-660.6213303512664
 31
0.0
  0
ARC
  5
2140D
  8
01
  6
BYBLOCK
 10
685.516241615365
 20
-655.8213303512665
 30
0.0
 40
4.799999999999998
 50
90.0
 51
270.0
  0
LINE
  5
2140E
  8
01
  6
BYBLOCK
 10
685.516241615365
 20
-651.0213303512663
 30
0.0
 11
733.516241615365
 21
-651.0213303512661
 31
0.0
  0
ARC
  5
2140F
  8
01
  6
BYBLOCK
 10
733.516241615365
 20
-655.8213303512663
 30
0.0
 40
4.799999999999998
 50
270.0
 51
90.0
  0
LINE
  5
21425
  8
01
 10
173.5162414684685
 20
-554.4084290685676
 30
0.0
 11
172.5162417684685
 21
-553.4084290685676
 31
0.0
  0
LINE
  5
21426
  8
01
 10
176.8162416184684
 20
-554.4084290685676
 30
0.0
 11
176.8162416184684
 21
-553.4084290685676
 31
0.0
  0
LINE
  5
21427
  8
01
 10
176.8162416184684
 20
-553.4084290685676
 30
0.0
 11
169.2162416184685
 21
-553.4084290685676
 31
0.0
  0
LINE
  5
21428
  8
01
 10
176.8162416184684
 20
-554.4084290685676
 30
0.0
 11
169.2162416184685
 21
-554.4084290685676
 31
0.0
  0
LINE
  5
21429
  8
01
 10
169.2162416184685
 20
-554.4084290685676
 30
0.0
 11
169.2162416184685
 21
-553.4084290685676
 31
0.0
  0
LINE
  5
2142B
  8
01
 10
155.5162414684685
 20
-554.4084290685676
 30
0.0
 11
154.5162417684685
 21
-553.4084290685676
 31
0.0
  0
LINE
  5
2142C
  8
01
 10
158.8162416184684
 20
-554.4084290685676
 30
0.0
 11
158.8162416184684
 21
-553.4084290685676
 31
0.0
  0
LINE
  5
2142D
  8
01
 10
158.8162416184684
 20
-553.4084290685676
 30
0.0
 11
151.2162416184685
 21
-553.4084290685676
 31
0.0
  0
LINE
  5
2142E
  8
01
 10
158.8162416184684
 20
-554.4084290685676
 30
0.0
 11
151.2162416184685
 21
-554.4084290685676
 31
0.0
  0
LINE
  5
2142F
  8
01
 10
151.2162416184685
 20
-554.4084290685676
 30
0.0
 11
151.2162416184685
 21
-553.4084290685676
 31
0.0
  0
LINE
  5
214E6
  8
1DIM
 10
513.3706615454182
 20
-494.025441490976
 30
0.0
 11
583.3706615454182
 21
-494.025441490976
 31
0.0
  0
TEXT
  5
214E7
  8
1TEXT
 10
515.8906615454179
 20
-485.3607301505004
 30
0.0
 40
4.0
  1
ブラストシルバー
 41
0.8
 72
     1
 11
530.7706615454179
 21
-485.3607301505004
 31
0.0
  0
TEXT
  5
214E8
  8
1TEXT
 10
551.6039948787521
 20
-485.7397984746253
 30
0.0
 40
4.0
  1
SC-471-XS
 41
0.85
 72
     1
 11
565.7706615454188
 21
-485.7397984746253
 31
0.0
  0
LINE
  5
214E9
  8
1DIM
 10
513.3706615454182
 20
-501.025441490976
 30
0.0
 11
583.3706615454182
 21
-501.025441490976
 31
0.0
  0
TEXT
  5
214EA
  8
1TEXT
 10
515.8906615454179
 20
-492.3607301505004
 30
0.0
 40
4.0
  1
ブラストブラック
 41
0.8
 72
     1
 11
530.7706615454179
 21
-492.3607301505004
 31
0.0
  0
TEXT
  5
214EB
  8
1TEXT
 10
551.6039948787521
 20
-492.7397984746253
 30
0.0
 40
4.0
  1
SC-471-XK
 41
0.85
 72
     1
 11
565.7706615454188
 21
-492.7397984746253
 31
0.0
  0
TEXT
  5
21EB4
  8
1TEXT
 10
513.8273282120845
 20
-499.3607301505004
 30
0.0
 40
4.0
  1
ブラストライトブロンズ
 41
0.65
 72
     1
 11
530.7706615454179
 21
-499.3607301505004
 31
0.0
  0
TEXT
  5
21EB5
  8
1TEXT
 10
551.6039948787521
 20
-499.7397984746253
 30
0.0
 40
4.0
  1
SC-471-4U
 41
0.85
 72
     1
 11
565.7706615454188
 21
-499.7397984746253
 31
0.0
  0
TEXT
  5
21FD9
  8
01
  6
CONTINUOUS
 10
749.7537571261875
 20
-611.3902613041472
 30
0.0
 40
3.5
  1
PB
  0
TEXT
  5
21FDA
  8
01
  6
CONTINUOUS
 10
762.8891752713527
 20
-611.3902613041472
 30
0.0
 40
3.5
  1
合板9mm以上
  0
LINE
  5
21FDB
  8
1DIM1
 10
164.016241615364
 20
-655.8213303512663
 30
0.0
 11
164.016241615364
 21
-704.4213303512677
 31
0.0
1001
ACAD
1000
DSTYLE
1002
{
1070
    40
1040
3.0
1070
    45
1040
0.5
1002
}
  0
LINE
  5
21FDC
  8
1DIM1
 10
614.0162416153646
 20
-655.8213303512669
 30
0.0
 11
614.0162416153646
 21
-704.4213303512677
 31
0.0
1001
ACAD
1000
DSTYLE
1002
{
1070
    40
1040
3.0
1070
    45
1040
0.5
1002
}
  0
LINE
  5
21FDD
  8
1DIM1
 10
170.016241615364
 20
-701.4213303512677
 30
0.0
 11
608.0162416153646
 21
-701.4213303512677
 31
0.0
1001
ACAD
1000
DSTYLE
1002
{
1070
    40
1040
3.0
1070
    45
1040
0.5
1002
}
  0
LINE
  5
21FE1
  8
1DIM
 10
535.430682765844
 20
-660.321330351266
 30
0.0
 11
545.2458307863246
 21
-660.321330351266
 31
0.0
1001
ACAD
1000
DSTYLE
1002
{
1070
    45
1040
0.5
1002
}
  0
LINE
  5
21FE2
  8
1DIM
 10
535.430682765844
 20
-651.321330351266
 30
0.0
 11
545.2458307863246
 21
-651.321330351266
 31
0.0
1001
ACAD
1000
DSTYLE
1002
{
1070
    45
1040
0.5
1002
}
  0
LINE
  5
21FE3
  8
1DIM
 10
544.2458307863246
 20
-651.321330351266
 30
0.0
 11
544.2458307863246
 21
-643.171330351266
 31
0.0
1001
ACAD
1000
DSTYLE
1002
{
1070
    45
1040
0.5
1002
}
  0
LINE
  5
21FE4
  8
1DIM
 10
544.2458307863246
 20
-658.321330351266
 30
0.0
 11
544.2458307863246
 21
-653.321330351266
 31
0.0
1001
ACAD
1000
DSTYLE
1002
{
1070
    45
1040
0.5
1002
}
  0
SOLID
  5
21FE8
  8
1DIM
 10
577.5097482874638
 20
-652.8517979089814
 30
0.0
 11
576.6864228483344
 21
-654.7047000468164
 31
0.0
 12
576.8643029757807
 22
-652.684930314552
 32
0.0
 13
576.8643029757807
 23
-652.684930314552
 33
0.0
1001
ACAD
1000
DSTYLE
1002
{
1070
    45
1040
0.5
1002
}
  0
LINE
  5
21FE9
  8
1DIM
 10
577.1870256316222
 20
-652.7683641117668
 30
0.0
 11
580.3225533430837
 21
-640.6401155567542
 31
0.0
1001
ACAD
1000
DSTYLE
1002
{
1070
    45
1040
0.5
1002
}
  0
LINE
  5
21FEA
  8
1DIM
 10
580.3225533430837
 20
-640.6401155567542
 30
0.0
 11
620.005886676417
 21
-640.6401155567542
 31
0.0
1001
ACAD
1000
DSTYLE
1002
{
1070
    45
1040
0.5
1002
}
  0
TEXT
  5
21FEB
  8
1DIM
  6
CONTINUOUS
 10
582.7892200097504
 20
-634.1067822234207
 30
0.0
 40
3.5
  1
材質：アルミ
  0
TEXT
  5
21FEC
  8
1DIM
  6
CONTINUOUS
 10
582.905886676417
 20
-639.9401155567541
 30
0.0
 40
3.5
  1
仕上げ：各種仕上げ
  0
SOLID
  5
21FED
  8
1DIM
 10
600.4812965327234
 20
-677.0398263908937
 30
0.0
 11
601.6036918170936
 21
-675.3512352809046
 31
0.0
 12
601.089617718902
 22
-677.3125712879875
 32
0.0
 13
601.089617718902
 23
-677.3125712879875
 33
0.0
1001
ACAD
1000
DSTYLE
1002
{
1070
    45
1040
0.5
1002
}
  0
LINE
  5
21FEE
  8
1DIM
 10
600.7854571258126
 20
-677.1761988394405
 30
0.0
 11
594.807722625075
 21
-690.5087399094994
 31
0.0
1001
ACAD
1000
DSTYLE
1002
{
1070
    45
1040
0.5
1002
}
  0
LINE
  5
21FEF
  8
1DIM
 10
594.807722625075
 20
-690.5087399094994
 30
0.0
 11
555.1243892917416
 21
-690.5087399094994
 31
0.0
1001
ACAD
1000
DSTYLE
1002
{
1070
    45
1040
0.5
1002
}
  0
TEXT
  5
21FF0
  8
1DIM
  6
CONTINUOUS
 10
568.4243892917416
 20
-683.9754065761659
 30
0.0
 40
3.5
  1
材質：アルミ
  0
TEXT
  5
21FF1
  8
1DIM
  6
CONTINUOUS
 10
555.007722625075
 20
-689.8087399094993
 30
0.0
 40
3.5
  1
仕上げ：各種仕上げ
  0
LINE
  5
21FF2
  8
1DIM
 10
534.7679695415902
 20
-613.4084516051706
 30
0.0
 11
545.2458307863246
 21
-613.4084516051706
 31
0.0
1001
ACAD
1000
DSTYLE
1002
{
1070
    45
1040
0.5
1002
}
  0
LINE
  5
21FF3
  8
1DIM
 10
534.7188985148118
 20
-588.4084561874196
 30
0.0
 11
545.2458307863246
 21
-588.4084561874196
 31
0.0
1001
ACAD
1000
DSTYLE
1002
{
1070
    45
1040
0.5
1002
}
  0
LINE
  5
21FF4
  8
1DIM
 10
544.2458307863246
 20
-588.4084561874196
 30
0.0
 11
544.2458307863246
 21
-577.4422070227005
 31
0.0
1001
ACAD
1000
DSTYLE
1002
{
1070
    45
1040
0.5
1002
}
  0
LINE
  5
21FF5
  8
1DIM
 10
544.2458307863246
 20
-611.4084516051706
 30
0.0
 11
544.2458307863246
 21
-590.4084561874196
 31
0.0
1001
ACAD
1000
DSTYLE
1002
{
1070
    45
1040
0.5
1002
}
  0
LINE
  5
21FF9
  8
1DIM
 10
680.716241615365
 20
-655.8213303512665
 30
0.0
 11
680.716241615365
 21
-712.4213303512677
 31
0.0
1001
ACAD
1000
DSTYLE
1002
{
1070
    45
1040
0.5
1002
}
  0
LINE
  5
21FFA
  8
1DIM
 10
743.016241615365
 20
-693.0495039365483
 30
0.0
 11
743.016241615365
 21
-712.4213303512677
 31
0.0
1001
ACAD
1000
DSTYLE
1002
{
1070
    45
1040
0.5
1002
}
  0
LINE
  5
21FFB
  8
1DIM
 10
682.716241615365
 20
-711.4213303512677
 30
0.0
 11
741.016241615365
 21
-711.4213303512677
 31
0.0
1001
ACAD
1000
DSTYLE
1002
{
1070
    45
1040
0.5
1002
}
  0
LINE
  5
21FFF
  8
1DIM
 10
605.0162416153646
 20
-671.8213303512663
 30
0.0
 11
605.0162416153646
 21
-692.4213303512677
 31
0.0
1001
ACAD
1000
DSTYLE
1002
{
1070
    40
1040
1.0
1070
    45
1040
0.5
1002
}
  0
LINE
  5
22000
  8
1DIM
 10
623.0162416153646
 20
-671.8213303512663
 30
0.0
 11
623.0162416153646
 21
-692.4213303512677
 31
0.0
1001
ACAD
1000
DSTYLE
1002
{
1070
    40
1040
1.0
1070
    45
1040
0.5
1002
}
  0
LINE
  5
22001
  8
1DIM
 10
607.0162416153646
 20
-691.4213303512677
 30
0.0
 11
621.0162416153646
 21
-691.4213303512677
 31
0.0
1001
ACAD
1000
DSTYLE
1002
{
1070
    40
1040
1.0
1070
    45
1040
0.5
1002
}
  0
LINE
  5
22005
  8
1DIM
 10
776.447036532668
 20
-671.8212501790899
 30
0.0
 11
785.516241615365
 21
-671.8212501790899
 31
0.0
1001
ACAD
1000
DSTYLE
1002
{
1070
    45
1040
0.5
1070
   271
1070
     0
1002
}
  0
LINE
  5
22006
  8
1DIM
 10
733.516241615365
 20
-651.0213303512663
 30
0.0
 11
785.516241615365
 21
-651.0213303512663
 31
0.0
1001
ACAD
1000
DSTYLE
1002
{
1070
    45
1040
0.5
1070
   271
1070
     0
1002
}
  0
LINE
  5
22007
  8
1DIM
 10
784.516241615365
 20
-669.8212501790899
 30
0.0
 11
784.516241615365
 21
-653.0213303512663
 31
0.0
1001
ACAD
1000
DSTYLE
1002
{
1070
    45
1040
0.5
1070
   271
1070
     0
1002
}
  0
LINE
  5
2200B
  8
1DIM1
 10
146.016241615364
 20
-655.8213303512664
 30
0.0
 11
146.016241615364
 21
-734.4213303512677
 31
0.0
1001
ACAD
1000
DSTYLE
1002
{
1070
    40
1040
3.0
1070
    45
1040
0.5
1002
}
  0
LINE
  5
2200C
  8
1DIM1
 10
632.0162416153646
 20
-655.8213303512664
 30
0.0
 11
632.0162416153646
 21
-734.4213303512677
 31
0.0
1001
ACAD
1000
DSTYLE
1002
{
1070
    40
1040
3.0
1070
    45
1040
0.5
1002
}
  0
LINE
  5
2200D
  8
1DIM1
 10
152.016241615364
 20
-731.4213303512677
 30
0.0
 11
626.0162416153646
 21
-731.4213303512677
 31
0.0
1001
ACAD
1000
DSTYLE
1002
{
1070
    40
1040
3.0
1070
    45
1040
0.5
1002
}
  0
LINE
  5
22011
  8
1DIM
 10
743.016241615365
 20
-683.8213303512663
 30
0.0
 11
795.516241615365
 21
-683.8213303512663
 31
0.0
1001
ACAD
1000
DSTYLE
1002
{
1070
    45
1040
0.5
1002
}
  0
LINE
  5
22012
  8
1DIM
 10
733.516241615365
 20
-651.0213303512663
 30
0.0
 11
795.516241615365
 21
-651.0213303512663
 31
0.0
1001
ACAD
1000
DSTYLE
1002
{
1070
    45
1040
0.5
1002
}
  0
LINE
  5
22013
  8
1DIM
 10
794.516241615365
 20
-681.8213303512663
 30
0.0
 11
794.516241615365
 21
-653.0213303512663
 31
0.0
1001
ACAD
1000
DSTYLE
1002
{
1070
    45
1040
0.5
1002
}
  0
LINE
  5
22017
  8
1DIM
 10
629.0162416153646
 20
-551.4084290685676
 30
0.0
 11
629.0162416153646
 21
-515.4084290685676
 31
0.0
1001
ACAD
1000
DSTYLE
1002
{
1070
    45
1040
0.5
1002
}
  0
LINE
  5
22018
  8
1DIM
 10
599.0162416153647
 20
-551.4084290685676
 30
0.0
 11
599.0162416153647
 21
-515.4084290685676
 31
0.0
1001
ACAD
1000
DSTYLE
1002
{
1070
    45
1040
0.5
1002
}
  0
LINE
  5
22019
  8
1DIM
 10
627.0162416153646
 20
-516.4084290685676
 30
0.0
 11
601.0162416153647
 21
-516.4084290685676
 31
0.0
1001
ACAD
1000
DSTYLE
1002
{
1070
    45
1040
0.5
1002
}
  0
SOLID
  5
2201D
  8
1DIM
 10
746.6708479197653
 20
-624.9354292138315
 30
0.0
 11
745.9299131930724
 21
-626.8227889680627
 31
0.0
 12
746.0186807169501
 22
-624.797145505403
 32
0.0
 13
746.0186807169501
 23
-624.797145505403
 33
0.0
1001
ACAD
1000
DSTYLE
1002
{
1070
    45
1040
0.5
1002
}
  0
LINE
  5
2201E
  8
1DIM
 10
746.3447643183576
 20
-624.8662873596172
 30
0.0
 11
749.0537571261874
 21
-612.0902613041472
 31
0.0
1001
ACAD
1000
DSTYLE
1002
{
1070
    45
1040
0.5
1002
}
  0
SOLID
  5
2201F
  8
1DIM
 10
759.8062660649305
 20
-624.9354292138315
 30
0.0
 11
759.0653313382376
 21
-626.8227889680627
 31
0.0
 12
759.1540988621153
 22
-624.797145505403
 32
0.0
 13
759.1540988621153
 23
-624.797145505403
 33
0.0
1001
ACAD
1000
DSTYLE
1002
{
1070
    45
1040
0.5
1002
}
  0
LINE
  5
22020
  8
1DIM
 10
759.4801824635229
 20
-624.8662873596172
 30
0.0
 11
762.1891752713526
 21
-612.0902613041472
 31
0.0
1001
ACAD
1000
DSTYLE
1002
{
1070
    45
1040
0.5
1002
}
  0
LINE
  5
22021
  8
0
 10
623.0162881512625
 20
-519.4084290687299
 30
0.0
 11
621.5162881512625
 21
-524.7084255785916
 31
0.0
  0
LINE
  5
22022
  8
0
 10
621.5162881512625
 20
-524.7084255785916
 30
0.0
 11
621.5162881512628
 21
-554.4084255784835
 31
0.0
  0
LINE
  5
22023
  8
0
 10
623.0162881512625
 20
-519.4084290687299
 30
0.0
 11
624.5162881512626
 21
-524.7084325589752
 31
0.0
  0
LINE
  5
22024
  8
0
 10
619.5162416153647
 20
-554.4084209247853
 30
0.0
 11
626.5162416153646
 21
-554.4084372123498
 31
0.0
  0
LINE
  5
22025
  8
0
 10
624.5162881512626
 20
-524.7084325589752
 30
0.0
 11
624.5162881512628
 21
-554.4084325588682
 31
0.0
  0
LINE
  5
22026
  8
0
 10
619.5162416153647
 20
-554.4084209247853
 30
0.0
 11
619.5162416153646
 21
-555.5084244149807
 31
0.0
  0
ARC
  5
22027
  8
0
 10
621.0162416153646
 20
-555.5084244149807
 30
0.0
 40
1.5
 50
180.0
 51
269.9998666844662
  0
LINE
  5
22028
  8
0
 10
626.5162416153646
 20
-554.4084372123498
 30
0.0
 11
626.5162416153646
 21
-555.5084337221604
 31
0.0
  0
LINE
  5
22029
  8
0
 10
621.0162381251722
 20
-557.0084244149766
 30
0.0
 11
625.0162381251722
 21
-557.0084337221563
 31
0.0
  0
ARC
  5
2202A
  8
0
 10
625.0162416153646
 20
-555.5084337221604
 30
0.0
 40
1.5
 50
269.9998666844662
 51
0.0
  0
LINE
  5
2202B
  8
1CENTER
 10
623.0162416153646
 20
-517.9776341512645
 30
0.0
 11
623.0162416153646
 21
-558.0787054778764
 31
0.0
  0
LINE
  5
2202C
  8
0
 10
621.9219178013695
 20
-521.5084265224077
 30
0.0
 11
623.884252890245
 21
-520.7084310883567
 31
0.0
  0
LINE
  5
2202D
  8
0
 10
623.884252890245
 20
-520.7084310883567
 30
0.0
 11
623.2959763152026
 21
-520.3966612321046
 31
0.0
  0
LINE
  5
2202E
  8
0
 10
621.0162881512625
 20
-543.9084244151977
 30
0.0
 11
625.0162881512625
 21
-543.1084337223795
 31
0.0
  0
LINE
  5
2202F
  8
0
 10
621.0162881512625
 20
-532.7084244151933
 30
0.0
 11
625.0162881512625
 21
-531.9084337223708
 31
0.0
  0
LINE
  5
22030
  8
0
 10
621.0162881512625
 20
-529.5084244151933
 30
0.0
 11
625.0162881512625
 21
-528.7084337223707
 31
0.0
  0
LINE
  5
22031
  8
0
 10
625.0162881512625
 20
-528.7084337223707
 30
0.0
 11
624.5162881512625
 21
-528.6084325589735
 31
0.0
  0
LINE
  5
22032
  8
0
 10
621.5162881512625
 20
-528.0084255785905
 30
0.0
 11
621.0162881512625
 21
-527.9084244151933
 31
0.0
  0
LINE
  5
22033
  8
0
 10
625.0162881512625
 20
-531.9084337223708
 30
0.0
 11
624.5162881512625
 21
-531.8084325589735
 31
0.0
  0
LINE
  5
22034
  8
0
 10
625.0162881512625
 20
-530.3084337223706
 30
0.0
 11
624.5162881512625
 21
-530.2084325589735
 31
0.0
  0
LINE
  5
22035
  8
0
 10
621.5162881512625
 20
-529.6084255785904
 30
0.0
 11
621.0162881512625
 21
-529.5084244151933
 31
0.0
  0
LINE
  5
22036
  8
0
 10
621.5162881512625
 20
-531.2084255785903
 30
0.0
 11
621.0162881512625
 21
-531.1084244151932
 31
0.0
  0
LINE
  5
22037
  8
0
 10
621.0162881512625
 20
-531.1084244151932
 30
0.0
 11
625.0162881512625
 21
-530.3084337223706
 31
0.0
  0
LINE
  5
22038
  8
0
 10
624.3370669946518
 20
-522.3084321419624
 30
0.0
 11
623.7853175308485
 21
-522.1256679993344
 31
0.0
  0
LINE
  5
22039
  8
0
 10
625.0162881512625
 20
-525.5084337223707
 30
0.0
 11
624.5162881512625
 21
-525.4084325589736
 31
0.0
  0
LINE
  5
2203A
  8
0
 10
625.0162881512625
 20
-527.1084337223707
 30
0.0
 11
624.5162881512625
 21
-527.0084325589737
 31
0.0
  0
LINE
  5
2203B
  8
0
 10
624.7898810990586
 20
-523.908433195568
 30
0.0
 11
624.2532873637874
 21
-523.7791624979382
 31
0.0
  0
LINE
  5
2203C
  8
0
 10
621.9372027484712
 20
-523.2211949811535
 30
0.0
 11
621.4691042933213
 21
-523.1084254688035
 31
0.0
  0
LINE
  5
2203D
  8
0
 10
621.5162881512625
 20
-526.4084255785904
 30
0.0
 11
621.0162881512625
 21
-526.3084244151933
 31
0.0
  0
LINE
  5
2203E
  8
0
 10
621.5162881512625
 20
-524.8084255785905
 30
0.0
 11
621.0162881512625
 21
-524.7084244151933
 31
0.0
  0
LINE
  5
2203F
  8
0
 10
622.3790896420006
 20
-521.6598623188481
 30
0.0
 11
621.9219178013695
 21
-521.5084265224077
 31
0.0
  0
LINE
  5
22040
  8
0
 10
621.4691042933213
 20
-523.1084254688035
 30
0.0
 11
624.3370669946518
 21
-522.3084321419624
 31
0.0
  0
LINE
  5
22041
  8
0
 10
621.0162881512625
 20
-526.3084244151933
 30
0.0
 11
625.0162881512625
 21
-525.5084337223707
 31
0.0
  0
LINE
  5
22042
  8
0
 10
621.0162881512625
 20
-524.7084244151933
 30
0.0
 11
624.7898810990586
 21
-523.908433195568
 31
0.0
  0
LINE
  5
22043
  8
0
 10
621.0162881512625
 20
-527.9084244151933
 30
0.0
 11
625.0162881512625
 21
-527.1084337223707
 31
0.0
  0
LINE
  5
22044
  8
0
 10
621.0162881512625
 20
-540.7084244151977
 30
0.0
 11
625.0162881512625
 21
-539.9084337223794
 31
0.0
  0
LINE
  5
22045
  8
0
 10
625.0162881512625
 20
-539.9084337223794
 30
0.0
 11
624.5162881512625
 21
-539.8084325589817
 31
0.0
  0
LINE
  5
22046
  8
0
 10
621.5162881512625
 20
-539.208425578591
 30
0.0
 11
621.0162881512625
 21
-539.1084244151933
 31
0.0
  0
LINE
  5
22047
  8
0
 10
625.0162881512625
 20
-541.5084337223796
 30
0.0
 11
624.5162881512625
 21
-541.4084325589819
 31
0.0
  0
LINE
  5
22048
  8
0
 10
625.0162881512625
 20
-543.1084337223795
 30
0.0
 11
624.5162881512625
 21
-543.0084325589818
 31
0.0
  0
LINE
  5
22049
  8
0
 10
621.5162881512625
 20
-540.8084255785953
 30
0.0
 11
621.0162881512625
 21
-540.7084244151977
 31
0.0
  0
LINE
  5
2204A
  8
0
 10
621.5162881512625
 20
-542.4084255785955
 30
0.0
 11
621.0162881512625
 21
-542.3084244151978
 31
0.0
  0
LINE
  5
2204B
  8
0
 10
621.0162881512625
 20
-542.3084244151978
 30
0.0
 11
625.0162881512625
 21
-541.5084337223796
 31
0.0
  0
LINE
  5
2204C
  8
0
 10
625.0162881512625
 20
-535.108433722375
 30
0.0
 11
624.5162881512625
 21
-535.0084325589773
 31
0.0
  0
LINE
  5
2204D
  8
0
 10
625.0162881512625
 20
-533.5084337223707
 30
0.0
 11
624.5162881512625
 21
-533.4084325589736
 31
0.0
  0
LINE
  5
2204E
  8
0
 10
625.0162881512625
 20
-538.3084337223751
 30
0.0
 11
624.5162881512625
 21
-538.2084325589774
 31
0.0
  0
LINE
  5
2204F
  8
0
 10
625.0162881512625
 20
-536.7084337223752
 30
0.0
 11
624.5162881512625
 21
-536.6084325589775
 31
0.0
  0
LINE
  5
22050
  8
0
 10
621.5162881512625
 20
-532.8084255785905
 30
0.0
 11
621.0162881512625
 21
-532.7084244151933
 31
0.0
  0
LINE
  5
22051
  8
0
 10
621.5162881512625
 20
-534.408425578591
 30
0.0
 11
621.0162881512625
 21
-534.3084244151933
 31
0.0
  0
LINE
  5
22052
  8
0
 10
621.5162881512625
 20
-537.6084255785911
 30
0.0
 11
621.0162881512625
 21
-537.5084244151934
 31
0.0
  0
LINE
  5
22053
  8
0
 10
621.5162881512625
 20
-536.008425578591
 30
0.0
 11
621.0162881512625
 21
-535.9084244151933
 31
0.0
  0
LINE
  5
22054
  8
0
 10
621.0162881512625
 20
-535.9084244151933
 30
0.0
 11
625.0162881512625
 21
-535.108433722375
 31
0.0
  0
LINE
  5
22055
  8
0
 10
621.0162881512625
 20
-534.3084244151933
 30
0.0
 11
625.0162881512625
 21
-533.5084337223707
 31
0.0
  0
LINE
  5
22056
  8
0
 10
621.0162881512625
 20
-537.5084244151934
 30
0.0
 11
625.0162881512625
 21
-536.7084337223752
 31
0.0
  0
LINE
  5
22057
  8
0
 10
621.0162881512625
 20
-539.1084244151933
 30
0.0
 11
625.0162881512625
 21
-538.3084337223751
 31
0.0
  0
LINE
  5
22058
  8
0
 10
621.5162881512625
 20
-548.8084255785996
 30
0.0
 11
621.0162881512625
 21
-548.7084244152019
 31
0.0
  0
LINE
  5
22059
  8
0
 10
621.0162881512625
 20
-548.7084244152019
 30
0.0
 11
625.0162881512625
 21
-547.9084337223836
 31
0.0
  0
LINE
  5
2205A
  8
0
 10
625.0162881512625
 20
-547.9084337223836
 30
0.0
 11
624.5162881512625
 21
-547.8084325589859
 31
0.0
  0
LINE
  5
2205B
  8
0
 10
621.5162881512625
 20
-547.2084255785996
 30
0.0
 11
621.0162881512625
 21
-547.108424415202
 31
0.0
  0
LINE
  5
2205C
  8
0
 10
621.5162881512625
 20
-545.6084255785997
 30
0.0
 11
621.0162881512625
 21
-545.5084244152021
 31
0.0
  0
LINE
  5
2205D
  8
0
 10
621.0162881512625
 20
-545.5084244152021
 30
0.0
 11
625.0162881512625
 21
-544.7084337223838
 31
0.0
  0
LINE
  5
2205E
  8
0
 10
625.0162881512625
 20
-546.3084337223837
 30
0.0
 11
624.5162881512625
 21
-546.208432558986
 31
0.0
  0
LINE
  5
2205F
  8
0
 10
625.0162881512625
 20
-544.7084337223838
 30
0.0
 11
624.5162881512625
 21
-544.6084325589861
 31
0.0
  0
LINE
  5
22060
  8
0
 10
621.0162881512625
 20
-547.108424415202
 30
0.0
 11
625.0162881512625
 21
-546.3084337223837
 31
0.0
  0
LINE
  5
22061
  8
0
 10
621.5162881512625
 20
-544.0084255785954
 30
0.0
 11
621.0162881512625
 21
-543.9084244151977
 31
0.0
  0
LINE
  5
22062
  8
0
 10
621.5162881512625
 20
-550.4084255785995
 30
0.0
 11
621.0162881512625
 21
-550.3084244152018
 31
0.0
  0
LINE
  5
22063
  8
0
 10
621.0162881512625
 20
-550.3084244152018
 30
0.0
 11
625.0162881512625
 21
-549.5084337223835
 31
0.0
  0
LINE
  5
22064
  8
0
 10
625.0162881512625
 20
-549.5084337223835
 30
0.0
 11
624.5162881512625
 21
-549.4084325589859
 31
0.0
  0
LINE
  5
22065
  8
0
 10
621.5162881512625
 20
-552.0084255785994
 30
0.0
 11
621.0162881512625
 21
-551.9084244152017
 31
0.0
  0
LINE
  5
22066
  8
0
 10
621.0162881512625
 20
-551.9084244152017
 30
0.0
 11
625.0162881512625
 21
-551.1084337223834
 31
0.0
  0
LINE
  5
22067
  8
0
 10
625.0162881512625
 20
-551.1084337223834
 30
0.0
 11
624.5162881512625
 21
-551.0084325589858
 31
0.0
  0
LINE
  5
22068
  8
0
 10
621.5162881512625
 20
-553.6084255785993
 30
0.0
 11
621.0162881512625
 21
-553.5084244152016
 31
0.0
  0
LINE
  5
22069
  8
0
 10
621.0162881512625
 20
-553.5084244152016
 30
0.0
 11
625.0162881512625
 21
-552.7084337223833
 31
0.0
  0
LINE
  5
2206A
  8
0
 10
625.0162881512625
 20
-552.7084337223833
 30
0.0
 11
624.5162881512625
 21
-552.6084325589857
 31
0.0
  0
LINE
  5
2206B
  8
0
 10
775.0162416152026
 20
-671.8212967149879
 30
0.0
 11
769.7162451053409
 21
-670.3212967149879
 31
0.0
  0
LINE
  5
2206C
  8
0
 10
769.7162451053409
 20
-670.3212967149879
 30
0.0
 11
740.016245105449
 21
-670.3212967149881
 31
0.0
  0
LINE
  5
2206D
  8
0
 10
775.0162416152026
 20
-671.8212967149879
 30
0.0
 11
769.7162381249573
 21
-673.321296714988
 31
0.0
  0
LINE
  5
2206E
  8
0
 10
740.0162497591472
 20
-668.32125017909
 30
0.0
 11
740.0162334715827
 21
-675.3212501790899
 31
0.0
  0
LINE
  5
2206F
  8
0
 10
769.7162381249573
 20
-673.321296714988
 30
0.0
 11
740.0162381250643
 21
-673.3212967149881
 31
0.0
  0
LINE
  5
22070
  8
0
 10
740.0162497591472
 20
-668.32125017909
 30
0.0
 11
738.9162462689518
 21
-668.3212501790899
 31
0.0
  0
ARC
  5
22071
  8
0
 10
738.9162462689518
 20
-669.8212501790899
 30
0.0
 40
1.5
 50
90.0
 51
179.9998666844663
  0
LINE
  5
22072
  8
0
 10
740.0162334715827
 20
-675.3212501790899
 30
0.0
 11
738.9162369617721
 21
-675.3212501790899
 31
0.0
  0
LINE
  5
22073
  8
0
 10
737.4162462689559
 20
-669.8212466888975
 30
0.0
 11
737.4162369617762
 21
-673.8212466888975
 31
0.0
  0
ARC
  5
22074
  8
0
 10
738.9162369617721
 20
-673.8212501790899
 30
0.0
 40
1.5
 50
179.9998666844663
 51
270.0
  0
LINE
  5
22075
  8
1CENTER
 10
776.447036532668
 20
-671.8212501790899
 30
0.0
 11
736.3459652060561
 21
-671.8212501790899
 31
0.0
  0
LINE
  5
22076
  8
0
 10
772.9162441615248
 20
-670.7269263650949
 30
0.0
 11
773.7162395955758
 21
-672.6892614539703
 31
0.0
  0
LINE
  5
22077
  8
0
 10
773.7162395955758
 20
-672.6892614539703
 30
0.0
 11
774.0280094518279
 21
-672.1009848789279
 31
0.0
  0
LINE
  5
22078
  8
0
 10
750.5162462687348
 20
-669.8212967149879
 30
0.0
 11
751.316236961553
 21
-673.8212967149879
 31
0.0
  0
LINE
  5
22079
  8
0
 10
761.7162462687392
 20
-669.8212967149879
 30
0.0
 11
762.5162369615617
 21
-673.8212967149879
 31
0.0
  0
LINE
  5
2207A
  8
0
 10
764.9162462687392
 20
-669.8212967149879
 30
0.0
 11
765.7162369615618
 21
-673.8212967149879
 31
0.0
  0
LINE
  5
2207B
  8
0
 10
765.7162369615618
 20
-673.8212967149879
 30
0.0
 11
765.816238124959
 21
-673.3212967149879
 31
0.0
  0
LINE
  5
2207C
  8
0
 10
766.416245105342
 20
-670.3212967149879
 30
0.0
 11
766.5162462687392
 21
-669.8212967149879
 31
0.0
  0
LINE
  5
2207D
  8
0
 10
762.5162369615617
 20
-673.8212967149879
 30
0.0
 11
762.616238124959
 21
-673.3212967149879
 31
0.0
  0
LINE
  5
2207E
  8
0
 10
764.1162369615619
 20
-673.8212967149879
 30
0.0
 11
764.216238124959
 21
-673.3212967149879
 31
0.0
  0
LINE
  5
2207F
  8
0
 10
764.8162451053421
 20
-670.3212967149879
 30
0.0
 11
764.9162462687392
 21
-669.8212967149879
 31
0.0
  0
LINE
  5
22080
  8
0
 10
763.2162451053422
 20
-670.3212967149879
 30
0.0
 11
763.3162462687393
 21
-669.8212967149879
 31
0.0
  0
LINE
  5
22081
  8
0
 10
763.3162462687393
 20
-669.8212967149879
 30
0.0
 11
764.1162369615619
 21
-673.8212967149879
 31
0.0
  0
LINE
  5
22082
  8
0
 10
772.1162385419701
 20
-673.1420755583771
 30
0.0
 11
772.2990026845981
 21
-672.5903260945738
 31
0.0
  0
LINE
  5
22083
  8
0
 10
768.9162369615618
 20
-673.8212967149879
 30
0.0
 11
769.0162381249589
 21
-673.3212967149879
 31
0.0
  0
LINE
  5
22084
  8
0
 10
767.3162369615618
 20
-673.8212967149879
 30
0.0
 11
767.4162381249588
 21
-673.3212967149879
 31
0.0
  0
LINE
  5
22085
  8
0
 10
770.5162374883645
 20
-673.5948896627839
 30
0.0
 11
770.6455081859943
 21
-673.0582959275127
 31
0.0
  0
LINE
  5
22086
  8
0
 10
771.203475702779
 20
-670.7422113121966
 30
0.0
 11
771.316245215129
 21
-670.2741128570466
 31
0.0
  0
LINE
  5
22087
  8
0
 10
768.0162451053421
 20
-670.3212967149879
 30
0.0
 11
768.1162462687392
 21
-669.8212967149879
 31
0.0
  0
LINE
  5
22088
  8
0
 10
769.616245105342
 20
-670.3212967149879
 30
0.0
 11
769.7162462687392
 21
-669.8212967149879
 31
0.0
  0
LINE
  5
22089
  8
0
 10
772.7648083650844
 20
-671.184098205726
 30
0.0
 11
772.9162441615248
 21
-670.7269263650949
 31
0.0
  0
LINE
  5
2208A
  8
0
 10
771.316245215129
 20
-670.2741128570466
 30
0.0
 11
772.1162385419701
 21
-673.1420755583771
 31
0.0
  0
LINE
  5
2208B
  8
0
 10
768.1162462687392
 20
-669.8212967149879
 30
0.0
 11
768.9162369615618
 21
-673.8212967149879
 31
0.0
  0
LINE
  5
2208C
  8
0
 10
769.7162462687392
 20
-669.8212967149879
 30
0.0
 11
770.5162374883645
 21
-673.5948896627839
 31
0.0
  0
LINE
  5
2208D
  8
0
 10
766.5162462687392
 20
-669.8212967149879
 30
0.0
 11
767.3162369615618
 21
-673.8212967149879
 31
0.0
  0
LINE
  5
2208E
  8
0
 10
753.7162462687348
 20
-669.8212967149879
 30
0.0
 11
754.5162369615531
 21
-673.8212967149879
 31
0.0
  0
LINE
  5
2208F
  8
0
 10
754.5162369615531
 20
-673.8212967149879
 30
0.0
 11
754.6162381249508
 21
-673.3212967149879
 31
0.0
  0
LINE
  5
22090
  8
0
 10
755.2162451053415
 20
-670.3212967149879
 30
0.0
 11
755.3162462687392
 21
-669.8212967149879
 31
0.0
  0
LINE
  5
22091
  8
0
 10
752.916236961553
 20
-673.8212967149879
 30
0.0
 11
753.0162381249506
 21
-673.3212967149879
 31
0.0
  0
LINE
  5
22092
  8
0
 10
751.316236961553
 20
-673.8212967149879
 30
0.0
 11
751.4162381249507
 21
-673.3212967149879
 31
0.0
  0
LINE
  5
22093
  8
0
 10
753.6162451053372
 20
-670.3212967149879
 30
0.0
 11
753.7162462687348
 21
-669.8212967149879
 31
0.0
  0
LINE
  5
22094
  8
0
 10
752.016245105337
 20
-670.3212967149879
 30
0.0
 11
752.1162462687347
 21
-669.8212967149879
 31
0.0
  0
LINE
  5
22095
  8
0
 10
752.1162462687347
 20
-669.8212967149879
 30
0.0
 11
752.916236961553
 21
-673.8212967149879
 31
0.0
  0
LINE
  5
22096
  8
0
 10
759.3162369615575
 20
-673.8212967149879
 30
0.0
 11
759.4162381249552
 21
-673.3212967149879
 31
0.0
  0
LINE
  5
22097
  8
0
 10
760.9162369615618
 20
-673.8212967149879
 30
0.0
 11
761.0162381249589
 21
-673.3212967149879
 31
0.0
  0
LINE
  5
22098
  8
0
 10
756.1162369615574
 20
-673.8212967149879
 30
0.0
 11
756.2162381249551
 21
-673.3212967149879
 31
0.0
  0
LINE
  5
22099
  8
0
 10
757.7162369615573
 20
-673.8212967149879
 30
0.0
 11
757.816238124955
 21
-673.3212967149879
 31
0.0
  0
LINE
  5
2209A
  8
0
 10
761.616245105342
 20
-670.3212967149879
 30
0.0
 11
761.7162462687392
 21
-669.8212967149879
 31
0.0
  0
LINE
  5
2209B
  8
0
 10
760.0162451053415
 20
-670.3212967149879
 30
0.0
 11
760.1162462687392
 21
-669.8212967149879
 31
0.0
  0
LINE
  5
2209C
  8
0
 10
756.8162451053414
 20
-670.3212967149879
 30
0.0
 11
756.9162462687391
 21
-669.8212967149879
 31
0.0
  0
LINE
  5
2209D
  8
0
 10
758.4162451053415
 20
-670.3212967149879
 30
0.0
 11
758.5162462687392
 21
-669.8212967149879
 31
0.0
  0
LINE
  5
2209E
  8
0
 10
758.5162462687392
 20
-669.8212967149879
 30
0.0
 11
759.3162369615575
 21
-673.8212967149879
 31
0.0
  0
LINE
  5
2209F
  8
0
 10
760.1162462687392
 20
-669.8212967149879
 30
0.0
 11
760.9162369615618
 21
-673.8212967149879
 31
0.0
  0
LINE
  5
220A0
  8
0
 10
756.9162462687391
 20
-669.8212967149879
 30
0.0
 11
757.7162369615573
 21
-673.8212967149879
 31
0.0
  0
LINE
  5
220A1
  8
0
 10
755.3162462687392
 20
-669.8212967149879
 30
0.0
 11
756.1162369615574
 21
-673.8212967149879
 31
0.0
  0
LINE
  5
220A2
  8
0
 10
745.616245105333
 20
-670.3212967149879
 30
0.0
 11
745.7162462687306
 21
-669.8212967149879
 31
0.0
  0
LINE
  5
220A3
  8
0
 10
745.7162462687306
 20
-669.8212967149879
 30
0.0
 11
746.5162369615489
 21
-673.8212967149879
 31
0.0
  0
LINE
  5
220A4
  8
0
 10
746.5162369615489
 20
-673.8212967149879
 30
0.0
 11
746.6162381249466
 21
-673.3212967149879
 31
0.0
  0
LINE
  5
220A5
  8
0
 10
747.2162451053329
 20
-670.3212967149879
 30
0.0
 11
747.3162462687305
 21
-669.8212967149879
 31
0.0
  0
LINE
  5
220A6
  8
0
 10
748.8162451053328
 20
-670.3212967149879
 30
0.0
 11
748.9162462687304
 21
-669.8212967149879
 31
0.0
  0
LINE
  5
220A7
  8
0
 10
748.9162462687304
 20
-669.8212967149879
 30
0.0
 11
749.7162369615487
 21
-673.8212967149879
 31
0.0
  0
LINE
  5
220A8
  8
0
 10
748.1162369615488
 20
-673.8212967149879
 30
0.0
 11
748.2162381249465
 21
-673.3212967149879
 31
0.0
  0
LINE
  5
220A9
  8
0
 10
749.7162369615487
 20
-673.8212967149879
 30
0.0
 11
749.8162381249464
 21
-673.3212967149879
 31
0.0
  0
LINE
  5
220AA
  8
0
 10
747.3162462687305
 20
-669.8212967149879
 30
0.0
 11
748.1162369615488
 21
-673.8212967149879
 31
0.0
  0
LINE
  5
220AB
  8
0
 10
750.4162451053371
 20
-670.3212967149879
 30
0.0
 11
750.5162462687348
 21
-669.8212967149879
 31
0.0
  0
LINE
  5
220AC
  8
0
 10
744.016245105333
 20
-670.3212967149879
 30
0.0
 11
744.1162462687307
 21
-669.8212967149879
 31
0.0
  0
LINE
  5
220AD
  8
0
 10
744.1162462687307
 20
-669.8212967149879
 30
0.0
 11
744.916236961549
 21
-673.8212967149879
 31
0.0
  0
LINE
  5
220AE
  8
0
 10
744.916236961549
 20
-673.8212967149879
 30
0.0
 11
745.0162381249467
 21
-673.3212967149879
 31
0.0
  0
LINE
  5
220AF
  8
0
 10
742.4162451053331
 20
-670.3212967149879
 30
0.0
 11
742.5162462687308
 21
-669.8212967149879
 31
0.0
  0
LINE
  5
220B0
  8
0
 10
742.5162462687308
 20
-669.8212967149879
 30
0.0
 11
743.3162369615491
 21
-673.8212967149879
 31
0.0
  0
LINE
  5
220B1
  8
0
 10
743.3162369615491
 20
-673.8212967149879
 30
0.0
 11
743.4162381249467
 21
-673.3212967149879
 31
0.0
  0
LINE
  5
220B2
  8
0
 10
740.8162451053332
 20
-670.3212967149879
 30
0.0
 11
740.9162462687309
 21
-669.8212967149879
 31
0.0
  0
LINE
  5
220B3
  8
0
 10
740.9162462687309
 20
-669.8212967149879
 30
0.0
 11
741.7162369615492
 21
-673.8212967149879
 31
0.0
  0
LINE
  5
220B4
  8
0
 10
741.7162369615492
 20
-673.8212967149879
 30
0.0
 11
741.8162381249468
 21
-673.3212967149879
 31
0.0
  0
LINE
  5
220B5
  8
0
 10
605.0162881512625
 20
-519.4084290687299
 30
0.0
 11
603.5162881512625
 21
-524.7084255785916
 31
0.0
  0
LINE
  5
220B6
  8
0
 10
603.5162881512625
 20
-524.7084255785916
 30
0.0
 11
603.5162881512628
 21
-554.4084255784835
 31
0.0
  0
LINE
  5
220B7
  8
0
 10
605.0162881512625
 20
-519.4084290687299
 30
0.0
 11
606.5162881512626
 21
-524.7084325589752
 31
0.0
  0
LINE
  5
220B8
  8
0
 10
601.5162416153647
 20
-554.4084209247853
 30
0.0
 11
608.5162416153646
 21
-554.4084372123498
 31
0.0
  0
LINE
  5
220B9
  8
0
 10
606.5162881512626
 20
-524.7084325589752
 30
0.0
 11
606.5162881512628
 21
-554.4084325588682
 31
0.0
  0
LINE
  5
220BA
  8
0
 10
601.5162416153647
 20
-554.4084209247853
 30
0.0
 11
601.5162416153646
 21
-555.5084244149807
 31
0.0
  0
ARC
  5
220BB
  8
0
 10
603.0162416153646
 20
-555.5084244149807
 30
0.0
 40
1.5
 50
180.0
 51
269.9998666844662
  0
LINE
  5
220BC
  8
0
 10
608.5162416153646
 20
-554.4084372123498
 30
0.0
 11
608.5162416153646
 21
-555.5084337221604
 31
0.0
  0
LINE
  5
220BD
  8
0
 10
603.0162381251722
 20
-557.0084244149766
 30
0.0
 11
607.0162381251722
 21
-557.0084337221563
 31
0.0
  0
ARC
  5
220BE
  8
0
 10
607.0162416153646
 20
-555.5084337221604
 30
0.0
 40
1.5
 50
269.9998666844662
 51
0.0
  0
LINE
  5
220BF
  8
1CENTER
 10
605.0162416153646
 20
-517.9776341512645
 30
0.0
 11
605.0162416153646
 21
-558.0787054778764
 31
0.0
  0
LINE
  5
220C0
  8
0
 10
603.9219178013695
 20
-521.5084265224077
 30
0.0
 11
605.884252890245
 21
-520.7084310883567
 31
0.0
  0
LINE
  5
220C1
  8
0
 10
605.884252890245
 20
-520.7084310883567
 30
0.0
 11
605.2959763152026
 21
-520.3966612321046
 31
0.0
  0
LINE
  5
220C2
  8
0
 10
603.0162881512625
 20
-543.9084244151977
 30
0.0
 11
607.0162881512625
 21
-543.1084337223795
 31
0.0
  0
LINE
  5
220C3
  8
0
 10
603.0162881512625
 20
-532.7084244151933
 30
0.0
 11
607.0162881512625
 21
-531.9084337223708
 31
0.0
  0
LINE
  5
220C4
  8
0
 10
603.0162881512625
 20
-529.5084244151933
 30
0.0
 11
607.0162881512625
 21
-528.7084337223707
 31
0.0
  0
LINE
  5
220C5
  8
0
 10
607.0162881512625
 20
-528.7084337223707
 30
0.0
 11
606.5162881512625
 21
-528.6084325589735
 31
0.0
  0
LINE
  5
220C6
  8
0
 10
603.5162881512625
 20
-528.0084255785905
 30
0.0
 11
603.0162881512625
 21
-527.9084244151933
 31
0.0
  0
LINE
  5
220C7
  8
0
 10
607.0162881512625
 20
-531.9084337223708
 30
0.0
 11
606.5162881512625
 21
-531.8084325589735
 31
0.0
  0
LINE
  5
220C8
  8
0
 10
607.0162881512625
 20
-530.3084337223706
 30
0.0
 11
606.5162881512625
 21
-530.2084325589735
 31
0.0
  0
LINE
  5
220C9
  8
0
 10
603.5162881512625
 20
-529.6084255785904
 30
0.0
 11
603.0162881512625
 21
-529.5084244151933
 31
0.0
  0
LINE
  5
220CA
  8
0
 10
603.5162881512625
 20
-531.2084255785903
 30
0.0
 11
603.0162881512625
 21
-531.1084244151932
 31
0.0
  0
LINE
  5
220CB
  8
0
 10
603.0162881512625
 20
-531.1084244151932
 30
0.0
 11
607.0162881512625
 21
-530.3084337223706
 31
0.0
  0
LINE
  5
220CC
  8
0
 10
606.3370669946518
 20
-522.3084321419624
 30
0.0
 11
605.7853175308485
 21
-522.1256679993344
 31
0.0
  0
LINE
  5
220CD
  8
0
 10
607.0162881512625
 20
-525.5084337223707
 30
0.0
 11
606.5162881512625
 21
-525.4084325589736
 31
0.0
  0
LINE
  5
220CE
  8
0
 10
607.0162881512625
 20
-527.1084337223707
 30
0.0
 11
606.5162881512625
 21
-527.0084325589737
 31
0.0
  0
LINE
  5
220CF
  8
0
 10
606.7898810990586
 20
-523.908433195568
 30
0.0
 11
606.2532873637874
 21
-523.7791624979382
 31
0.0
  0
LINE
  5
220D0
  8
0
 10
603.9372027484712
 20
-523.2211949811535
 30
0.0
 11
603.4691042933213
 21
-523.1084254688035
 31
0.0
  0
LINE
  5
220D1
  8
0
 10
603.5162881512625
 20
-526.4084255785904
 30
0.0
 11
603.0162881512625
 21
-526.3084244151933
 31
0.0
  0
LINE
  5
220D2
  8
0
 10
603.5162881512625
 20
-524.8084255785905
 30
0.0
 11
603.0162881512625
 21
-524.7084244151933
 31
0.0
  0
LINE
  5
220D3
  8
0
 10
604.3790896420006
 20
-521.6598623188481
 30
0.0
 11
603.9219178013695
 21
-521.5084265224077
 31
0.0
  0
LINE
  5
220D4
  8
0
 10
603.4691042933213
 20
-523.1084254688035
 30
0.0
 11
606.3370669946518
 21
-522.3084321419624
 31
0.0
  0
LINE
  5
220D5
  8
0
 10
603.0162881512625
 20
-526.3084244151933
 30
0.0
 11
607.0162881512625
 21
-525.5084337223707
 31
0.0
  0
LINE
  5
220D6
  8
0
 10
603.0162881512625
 20
-524.7084244151933
 30
0.0
 11
606.7898810990586
 21
-523.908433195568
 31
0.0
  0
LINE
  5
220D7
  8
0
 10
603.0162881512625
 20
-527.9084244151933
 30
0.0
 11
607.0162881512625
 21
-527.1084337223707
 31
0.0
  0
LINE
  5
220D8
  8
0
 10
603.0162881512625
 20
-540.7084244151977
 30
0.0
 11
607.0162881512625
 21
-539.9084337223794
 31
0.0
  0
LINE
  5
220D9
  8
0
 10
607.0162881512625
 20
-539.9084337223794
 30
0.0
 11
606.5162881512625
 21
-539.8084325589817
 31
0.0
  0
LINE
  5
220DA
  8
0
 10
603.5162881512625
 20
-539.208425578591
 30
0.0
 11
603.0162881512625
 21
-539.1084244151933
 31
0.0
  0
LINE
  5
220DB
  8
0
 10
607.0162881512625
 20
-541.5084337223796
 30
0.0
 11
606.5162881512625
 21
-541.4084325589819
 31
0.0
  0
LINE
  5
220DC
  8
0
 10
607.0162881512625
 20
-543.1084337223795
 30
0.0
 11
606.5162881512625
 21
-543.0084325589818
 31
0.0
  0
LINE
  5
220DD
  8
0
 10
603.5162881512625
 20
-540.8084255785953
 30
0.0
 11
603.0162881512625
 21
-540.7084244151977
 31
0.0
  0
LINE
  5
220DE
  8
0
 10
603.5162881512625
 20
-542.4084255785955
 30
0.0
 11
603.0162881512625
 21
-542.3084244151978
 31
0.0
  0
LINE
  5
220DF
  8
0
 10
603.0162881512625
 20
-542.3084244151978
 30
0.0
 11
607.0162881512625
 21
-541.5084337223796
 31
0.0
  0
LINE
  5
220E0
  8
0
 10
607.0162881512625
 20
-535.108433722375
 30
0.0
 11
606.5162881512625
 21
-535.0084325589773
 31
0.0
  0
LINE
  5
220E1
  8
0
 10
607.0162881512625
 20
-533.5084337223707
 30
0.0
 11
606.5162881512625
 21
-533.4084325589736
 31
0.0
  0
LINE
  5
220E2
  8
0
 10
607.0162881512625
 20
-538.3084337223751
 30
0.0
 11
606.5162881512625
 21
-538.2084325589774
 31
0.0
  0
LINE
  5
220E3
  8
0
 10
607.0162881512625
 20
-536.7084337223752
 30
0.0
 11
606.5162881512625
 21
-536.6084325589775
 31
0.0
  0
LINE
  5
220E4
  8
0
 10
603.5162881512625
 20
-532.8084255785905
 30
0.0
 11
603.0162881512625
 21
-532.7084244151933
 31
0.0
  0
LINE
  5
220E5
  8
0
 10
603.5162881512625
 20
-534.408425578591
 30
0.0
 11
603.0162881512625
 21
-534.3084244151933
 31
0.0
  0
LINE
  5
220E6
  8
0
 10
603.5162881512625
 20
-537.6084255785911
 30
0.0
 11
603.0162881512625
 21
-537.5084244151934
 31
0.0
  0
LINE
  5
220E7
  8
0
 10
603.5162881512625
 20
-536.008425578591
 30
0.0
 11
603.0162881512625
 21
-535.9084244151933
 31
0.0
  0
LINE
  5
220E8
  8
0
 10
603.0162881512625
 20
-535.9084244151933
 30
0.0
 11
607.0162881512625
 21
-535.108433722375
 31
0.0
  0
LINE
  5
220E9
  8
0
 10
603.0162881512625
 20
-534.3084244151933
 30
0.0
 11
607.0162881512625
 21
-533.5084337223707
 31
0.0
  0
LINE
  5
220EA
  8
0
 10
603.0162881512625
 20
-537.5084244151934
 30
0.0
 11
607.0162881512625
 21
-536.7084337223752
 31
0.0
  0
LINE
  5
220EB
  8
0
 10
603.0162881512625
 20
-539.1084244151933
 30
0.0
 11
607.0162881512625
 21
-538.3084337223751
 31
0.0
  0
LINE
  5
220EC
  8
0
 10
603.5162881512625
 20
-548.8084255785996
 30
0.0
 11
603.0162881512625
 21
-548.7084244152019
 31
0.0
  0
LINE
  5
220ED
  8
0
 10
603.0162881512625
 20
-548.7084244152019
 30
0.0
 11
607.0162881512625
 21
-547.9084337223836
 31
0.0
  0
LINE
  5
220EE
  8
0
 10
607.0162881512625
 20
-547.9084337223836
 30
0.0
 11
606.5162881512625
 21
-547.8084325589859
 31
0.0
  0
LINE
  5
220EF
  8
0
 10
603.5162881512625
 20
-547.2084255785996
 30
0.0
 11
603.0162881512625
 21
-547.108424415202
 31
0.0
  0
LINE
  5
220F0
  8
0
 10
603.5162881512625
 20
-545.6084255785997
 30
0.0
 11
603.0162881512625
 21
-545.5084244152021
 31
0.0
  0
LINE
  5
220F1
  8
0
 10
603.0162881512625
 20
-545.5084244152021
 30
0.0
 11
607.0162881512625
 21
-544.7084337223838
 31
0.0
  0
LINE
  5
220F2
  8
0
 10
607.0162881512625
 20
-546.3084337223837
 30
0.0
 11
606.5162881512625
 21
-546.208432558986
 31
0.0
  0
LINE
  5
220F3
  8
0
 10
607.0162881512625
 20
-544.7084337223838
 30
0.0
 11
606.5162881512625
 21
-544.6084325589861
 31
0.0
  0
LINE
  5
220F4
  8
0
 10
603.0162881512625
 20
-547.108424415202
 30
0.0
 11
607.0162881512625
 21
-546.3084337223837
 31
0.0
  0
LINE
  5
220F5
  8
0
 10
603.5162881512625
 20
-544.0084255785954
 30
0.0
 11
603.0162881512625
 21
-543.9084244151977
 31
0.0
  0
LINE
  5
220F6
  8
0
 10
603.5162881512625
 20
-550.4084255785995
 30
0.0
 11
603.0162881512625
 21
-550.3084244152018
 31
0.0
  0
LINE
  5
220F7
  8
0
 10
603.0162881512625
 20
-550.3084244152018
 30
0.0
 11
607.0162881512625
 21
-549.5084337223835
 31
0.0
  0
LINE
  5
220F8
  8
0
 10
607.0162881512625
 20
-549.5084337223835
 30
0.0
 11
606.5162881512625
 21
-549.4084325589859
 31
0.0
  0
LINE
  5
220F9
  8
0
 10
603.5162881512625
 20
-552.0084255785994
 30
0.0
 11
603.0162881512625
 21
-551.9084244152017
 31
0.0
  0
LINE
  5
220FA
  8
0
 10
603.0162881512625
 20
-551.9084244152017
 30
0.0
 11
607.0162881512625
 21
-551.1084337223834
 31
0.0
  0
LINE
  5
220FB
  8
0
 10
607.0162881512625
 20
-551.1084337223834
 30
0.0
 11
606.5162881512625
 21
-551.0084325589858
 31
0.0
  0
LINE
  5
220FC
  8
0
 10
603.5162881512625
 20
-553.6084255785993
 30
0.0
 11
603.0162881512625
 21
-553.5084244152016
 31
0.0
  0
LINE
  5
220FD
  8
0
 10
603.0162881512625
 20
-553.5084244152016
 30
0.0
 11
607.0162881512625
 21
-552.7084337223833
 31
0.0
  0
LINE
  5
220FE
  8
0
 10
607.0162881512625
 20
-552.7084337223833
 30
0.0
 11
606.5162881512625
 21
-552.6084325589857
 31
0.0
  0
LINE
  5
220FF
  8
0
 10
173.0162881512621
 20
-519.4084290687299
 30
0.0
 11
171.5162881512621
 21
-524.7084255785916
 31
0.0
  0
LINE
  5
22100
  8
0
 10
171.5162881512621
 20
-524.7084255785916
 30
0.0
 11
171.5162881512623
 21
-554.4084255784835
 31
0.0
  0
LINE
  5
22101
  8
0
 10
173.0162881512621
 20
-519.4084290687299
 30
0.0
 11
174.5162881512622
 21
-524.7084325589752
 31
0.0
  0
LINE
  5
22102
  8
0
 10
169.5162416153643
 20
-554.4084209247853
 30
0.0
 11
176.5162416153642
 21
-554.4084372123498
 31
0.0
  0
LINE
  5
22103
  8
0
 10
174.5162881512622
 20
-524.7084325589752
 30
0.0
 11
174.5162881512623
 21
-554.4084325588682
 31
0.0
  0
LINE
  5
22104
  8
0
 10
169.5162416153643
 20
-554.4084209247853
 30
0.0
 11
169.5162416153642
 21
-555.5084244149807
 31
0.0
  0
ARC
  5
22105
  8
0
 10
171.0162416153642
 20
-555.5084244149807
 30
0.0
 40
1.5
 50
180.0
 51
269.9998666844684
  0
LINE
  5
22106
  8
0
 10
176.5162416153642
 20
-554.4084372123498
 30
0.0
 11
176.5162416153642
 21
-555.5084337221604
 31
0.0
  0
LINE
  5
22107
  8
0
 10
171.0162381251718
 20
-557.0084244149766
 30
0.0
 11
175.0162381251718
 21
-557.0084337221563
 31
0.0
  0
ARC
  5
22108
  8
0
 10
175.0162416153642
 20
-555.5084337221604
 30
0.0
 40
1.5
 50
269.9998666844684
 51
0.0
  0
LINE
  5
22109
  8
1CENTER
 10
173.0162416153642
 20
-517.9776341512645
 30
0.0
 11
173.0162416153642
 21
-558.0787054778764
 31
0.0
  0
LINE
  5
2210A
  8
0
 10
171.9219178013691
 20
-521.5084265224077
 30
0.0
 11
173.8842528902445
 21
-520.7084310883567
 31
0.0
  0
LINE
  5
2210B
  8
0
 10
173.8842528902445
 20
-520.7084310883567
 30
0.0
 11
173.2959763152021
 21
-520.3966612321046
 31
0.0
  0
LINE
  5
2210C
  8
0
 10
171.0162881512621
 20
-543.9084244151977
 30
0.0
 11
175.0162881512621
 21
-543.1084337223795
 31
0.0
  0
LINE
  5
2210D
  8
0
 10
171.0162881512621
 20
-532.7084244151933
 30
0.0
 11
175.0162881512621
 21
-531.9084337223708
 31
0.0
  0
LINE
  5
2210E
  8
0
 10
171.0162881512621
 20
-529.5084244151933
 30
0.0
 11
175.0162881512621
 21
-528.7084337223707
 31
0.0
  0
LINE
  5
2210F
  8
0
 10
175.0162881512621
 20
-528.7084337223707
 30
0.0
 11
174.5162881512621
 21
-528.6084325589735
 31
0.0
  0
LINE
  5
22110
  8
0
 10
171.5162881512621
 20
-528.0084255785905
 30
0.0
 11
171.0162881512621
 21
-527.9084244151933
 31
0.0
  0
LINE
  5
22111
  8
0
 10
175.0162881512621
 20
-531.9084337223708
 30
0.0
 11
174.5162881512621
 21
-531.8084325589735
 31
0.0
  0
LINE
  5
22112
  8
0
 10
175.0162881512621
 20
-530.3084337223706
 30
0.0
 11
174.5162881512621
 21
-530.2084325589735
 31
0.0
  0
LINE
  5
22113
  8
0
 10
171.5162881512621
 20
-529.6084255785904
 30
0.0
 11
171.0162881512621
 21
-529.5084244151933
 31
0.0
  0
LINE
  5
22114
  8
0
 10
171.5162881512621
 20
-531.2084255785903
 30
0.0
 11
171.0162881512621
 21
-531.1084244151932
 31
0.0
  0
LINE
  5
22115
  8
0
 10
171.0162881512621
 20
-531.1084244151932
 30
0.0
 11
175.0162881512621
 21
-530.3084337223706
 31
0.0
  0
LINE
  5
22116
  8
0
 10
174.3370669946513
 20
-522.3084321419624
 30
0.0
 11
173.785317530848
 21
-522.1256679993344
 31
0.0
  0
LINE
  5
22117
  8
0
 10
175.0162881512621
 20
-525.5084337223707
 30
0.0
 11
174.5162881512621
 21
-525.4084325589736
 31
0.0
  0
LINE
  5
22118
  8
0
 10
175.0162881512621
 20
-527.1084337223707
 30
0.0
 11
174.5162881512621
 21
-527.0084325589737
 31
0.0
  0
LINE
  5
22119
  8
0
 10
174.7898810990581
 20
-523.908433195568
 30
0.0
 11
174.253287363787
 21
-523.7791624979382
 31
0.0
  0
LINE
  5
2211A
  8
0
 10
171.9372027484708
 20
-523.2211949811535
 30
0.0
 11
171.4691042933208
 21
-523.1084254688035
 31
0.0
  0
LINE
  5
2211B
  8
0
 10
171.5162881512621
 20
-526.4084255785904
 30
0.0
 11
171.0162881512621
 21
-526.3084244151933
 31
0.0
  0
LINE
  5
2211C
  8
0
 10
171.5162881512621
 20
-524.8084255785905
 30
0.0
 11
171.0162881512621
 21
-524.7084244151933
 31
0.0
  0
LINE
  5
2211D
  8
0
 10
172.3790896420002
 20
-521.6598623188481
 30
0.0
 11
171.9219178013691
 21
-521.5084265224077
 31
0.0
  0
LINE
  5
2211E
  8
0
 10
171.4691042933208
 20
-523.1084254688035
 30
0.0
 11
174.3370669946513
 21
-522.3084321419624
 31
0.0
  0
LINE
  5
2211F
  8
0
 10
171.0162881512621
 20
-526.3084244151933
 30
0.0
 11
175.0162881512621
 21
-525.5084337223707
 31
0.0
  0
LINE
  5
22120
  8
0
 10
171.0162881512621
 20
-524.7084244151933
 30
0.0
 11
174.7898810990581
 21
-523.908433195568
 31
0.0
  0
LINE
  5
22121
  8
0
 10
171.0162881512621
 20
-527.9084244151933
 30
0.0
 11
175.0162881512621
 21
-527.1084337223707
 31
0.0
  0
LINE
  5
22122
  8
0
 10
171.0162881512621
 20
-540.7084244151977
 30
0.0
 11
175.0162881512621
 21
-539.9084337223794
 31
0.0
  0
LINE
  5
22123
  8
0
 10
175.0162881512621
 20
-539.9084337223794
 30
0.0
 11
174.5162881512621
 21
-539.8084325589817
 31
0.0
  0
LINE
  5
22124
  8
0
 10
171.5162881512621
 20
-539.208425578591
 30
0.0
 11
171.0162881512621
 21
-539.1084244151933
 31
0.0
  0
LINE
  5
22125
  8
0
 10
175.0162881512621
 20
-541.5084337223796
 30
0.0
 11
174.5162881512621
 21
-541.4084325589819
 31
0.0
  0
LINE
  5
22126
  8
0
 10
175.0162881512621
 20
-543.1084337223795
 30
0.0
 11
174.5162881512621
 21
-543.0084325589818
 31
0.0
  0
LINE
  5
22127
  8
0
 10
171.5162881512621
 20
-540.8084255785953
 30
0.0
 11
171.0162881512621
 21
-540.7084244151977
 31
0.0
  0
LINE
  5
22128
  8
0
 10
171.5162881512621
 20
-542.4084255785955
 30
0.0
 11
171.0162881512621
 21
-542.3084244151978
 31
0.0
  0
LINE
  5
22129
  8
0
 10
171.0162881512621
 20
-542.3084244151978
 30
0.0
 11
175.0162881512621
 21
-541.5084337223796
 31
0.0
  0
LINE
  5
2212A
  8
0
 10
175.0162881512621
 20
-535.108433722375
 30
0.0
 11
174.5162881512621
 21
-535.0084325589773
 31
0.0
  0
LINE
  5
2212B
  8
0
 10
175.0162881512621
 20
-533.5084337223707
 30
0.0
 11
174.5162881512621
 21
-533.4084325589736
 31
0.0
  0
LINE
  5
2212C
  8
0
 10
175.0162881512621
 20
-538.3084337223751
 30
0.0
 11
174.5162881512621
 21
-538.2084325589774
 31
0.0
  0
LINE
  5
2212D
  8
0
 10
175.0162881512621
 20
-536.7084337223752
 30
0.0
 11
174.5162881512621
 21
-536.6084325589775
 31
0.0
  0
LINE
  5
2212E
  8
0
 10
171.5162881512621
 20
-532.8084255785905
 30
0.0
 11
171.0162881512621
 21
-532.7084244151933
 31
0.0
  0
LINE
  5
2212F
  8
0
 10
171.5162881512621
 20
-534.408425578591
 30
0.0
 11
171.0162881512621
 21
-534.3084244151933
 31
0.0
  0
LINE
  5
22130
  8
0
 10
171.5162881512621
 20
-537.6084255785911
 30
0.0
 11
171.0162881512621
 21
-537.5084244151934
 31
0.0
  0
LINE
  5
22131
  8
0
 10
171.5162881512621
 20
-536.008425578591
 30
0.0
 11
171.0162881512621
 21
-535.9084244151933
 31
0.0
  0
LINE
  5
22132
  8
0
 10
171.0162881512621
 20
-535.9084244151933
 30
0.0
 11
175.0162881512621
 21
-535.108433722375
 31
0.0
  0
LINE
  5
22133
  8
0
 10
171.0162881512621
 20
-534.3084244151933
 30
0.0
 11
175.0162881512621
 21
-533.5084337223707
 31
0.0
  0
LINE
  5
22134
  8
0
 10
171.0162881512621
 20
-537.5084244151934
 30
0.0
 11
175.0162881512621
 21
-536.7084337223752
 31
0.0
  0
LINE
  5
22135
  8
0
 10
171.0162881512621
 20
-539.1084244151933
 30
0.0
 11
175.0162881512621
 21
-538.3084337223751
 31
0.0
  0
LINE
  5
22136
  8
0
 10
171.5162881512621
 20
-548.8084255785996
 30
0.0
 11
171.0162881512621
 21
-548.7084244152019
 31
0.0
  0
LINE
  5
22137
  8
0
 10
171.0162881512621
 20
-548.7084244152019
 30
0.0
 11
175.0162881512621
 21
-547.9084337223836
 31
0.0
  0
LINE
  5
22138
  8
0
 10
175.0162881512621
 20
-547.9084337223836
 30
0.0
 11
174.5162881512621
 21
-547.8084325589859
 31
0.0
  0
LINE
  5
22139
  8
0
 10
171.5162881512621
 20
-547.2084255785996
 30
0.0
 11
171.0162881512621
 21
-547.108424415202
 31
0.0
  0
LINE
  5
2213A
  8
0
 10
171.5162881512621
 20
-545.6084255785997
 30
0.0
 11
171.0162881512621
 21
-545.5084244152021
 31
0.0
  0
LINE
  5
2213B
  8
0
 10
171.0162881512621
 20
-545.5084244152021
 30
0.0
 11
175.0162881512621
 21
-544.7084337223838
 31
0.0
  0
LINE
  5
2213C
  8
0
 10
175.0162881512621
 20
-546.3084337223837
 30
0.0
 11
174.5162881512621
 21
-546.208432558986
 31
0.0
  0
LINE
  5
2213D
  8
0
 10
175.0162881512621
 20
-544.7084337223838
 30
0.0
 11
174.5162881512621
 21
-544.6084325589861
 31
0.0
  0
LINE
  5
2213E
  8
0
 10
171.0162881512621
 20
-547.108424415202
 30
0.0
 11
175.0162881512621
 21
-546.3084337223837
 31
0.0
  0
LINE
  5
2213F
  8
0
 10
171.5162881512621
 20
-544.0084255785954
 30
0.0
 11
171.0162881512621
 21
-543.9084244151977
 31
0.0
  0
LINE
  5
22140
  8
0
 10
171.5162881512621
 20
-550.4084255785995
 30
0.0
 11
171.0162881512621
 21
-550.3084244152018
 31
0.0
  0
LINE
  5
22141
  8
0
 10
171.0162881512621
 20
-550.3084244152018
 30
0.0
 11
175.0162881512621
 21
-549.5084337223835
 31
0.0
  0
LINE
  5
22142
  8
0
 10
175.0162881512621
 20
-549.5084337223835
 30
0.0
 11
174.5162881512621
 21
-549.4084325589859
 31
0.0
  0
LINE
  5
22143
  8
0
 10
171.5162881512621
 20
-552.0084255785994
 30
0.0
 11
171.0162881512621
 21
-551.9084244152017
 31
0.0
  0
LINE
  5
22144
  8
0
 10
171.0162881512621
 20
-551.9084244152017
 30
0.0
 11
175.0162881512621
 21
-551.1084337223834
 31
0.0
  0
LINE
  5
22145
  8
0
 10
175.0162881512621
 20
-551.1084337223834
 30
0.0
 11
174.5162881512621
 21
-551.0084325589858
 31
0.0
  0
LINE
  5
22146
  8
0
 10
171.5162881512621
 20
-553.6084255785993
 30
0.0
 11
171.0162881512621
 21
-553.5084244152016
 31
0.0
  0
LINE
  5
22147
  8
0
 10
171.0162881512621
 20
-553.5084244152016
 30
0.0
 11
175.0162881512621
 21
-552.7084337223833
 31
0.0
  0
LINE
  5
22148
  8
0
 10
175.0162881512621
 20
-552.7084337223833
 30
0.0
 11
174.5162881512621
 21
-552.6084325589857
 31
0.0
  0
LINE
  5
22149
  8
0
 10
155.0162881512621
 20
-519.4084290687299
 30
0.0
 11
153.5162881512621
 21
-524.7084255785916
 31
0.0
  0
LINE
  5
2214A
  8
0
 10
153.5162881512621
 20
-524.7084255785916
 30
0.0
 11
153.5162881512623
 21
-554.4084255784835
 31
0.0
  0
LINE
  5
2214B
  8
0
 10
155.0162881512621
 20
-519.4084290687299
 30
0.0
 11
156.5162881512622
 21
-524.7084325589752
 31
0.0
  0
LINE
  5
2214C
  8
0
 10
151.5162416153643
 20
-554.4084209247853
 30
0.0
 11
158.5162416153642
 21
-554.4084372123498
 31
0.0
  0
LINE
  5
2214D
  8
0
 10
156.5162881512622
 20
-524.7084325589752
 30
0.0
 11
156.5162881512623
 21
-554.4084325588682
 31
0.0
  0
LINE
  5
2214E
  8
0
 10
151.5162416153643
 20
-554.4084209247853
 30
0.0
 11
151.5162416153642
 21
-555.5084244149807
 31
0.0
  0
ARC
  5
2214F
  8
0
 10
153.0162416153642
 20
-555.5084244149807
 30
0.0
 40
1.5
 50
180.0
 51
269.9998666844684
  0
LINE
  5
22150
  8
0
 10
158.5162416153642
 20
-554.4084372123498
 30
0.0
 11
158.5162416153642
 21
-555.5084337221604
 31
0.0
  0
LINE
  5
22151
  8
0
 10
153.0162381251718
 20
-557.0084244149766
 30
0.0
 11
157.0162381251718
 21
-557.0084337221563
 31
0.0
  0
ARC
  5
22152
  8
0
 10
157.0162416153642
 20
-555.5084337221604
 30
0.0
 40
1.5
 50
269.9998666844684
 51
0.0
  0
LINE
  5
22153
  8
1CENTER
 10
155.0162416153642
 20
-517.9776341512645
 30
0.0
 11
155.0162416153642
 21
-558.0787054778764
 31
0.0
  0
LINE
  5
22154
  8
0
 10
153.9219178013691
 20
-521.5084265224077
 30
0.0
 11
155.8842528902445
 21
-520.7084310883567
 31
0.0
  0
LINE
  5
22155
  8
0
 10
155.8842528902445
 20
-520.7084310883567
 30
0.0
 11
155.2959763152021
 21
-520.3966612321046
 31
0.0
  0
LINE
  5
22156
  8
0
 10
153.0162881512621
 20
-543.9084244151977
 30
0.0
 11
157.0162881512621
 21
-543.1084337223795
 31
0.0
  0
LINE
  5
22157
  8
0
 10
153.0162881512621
 20
-532.7084244151933
 30
0.0
 11
157.0162881512621
 21
-531.9084337223708
 31
0.0
  0
LINE
  5
22158
  8
0
 10
153.0162881512621
 20
-529.5084244151933
 30
0.0
 11
157.0162881512621
 21
-528.7084337223707
 31
0.0
  0
LINE
  5
22159
  8
0
 10
157.0162881512621
 20
-528.7084337223707
 30
0.0
 11
156.5162881512621
 21
-528.6084325589735
 31
0.0
  0
LINE
  5
2215A
  8
0
 10
153.5162881512621
 20
-528.0084255785905
 30
0.0
 11
153.0162881512621
 21
-527.9084244151933
 31
0.0
  0
LINE
  5
2215B
  8
0
 10
157.0162881512621
 20
-531.9084337223708
 30
0.0
 11
156.5162881512621
 21
-531.8084325589735
 31
0.0
  0
LINE
  5
2215C
  8
0
 10
157.0162881512621
 20
-530.3084337223706
 30
0.0
 11
156.5162881512621
 21
-530.2084325589735
 31
0.0
  0
LINE
  5
2215D
  8
0
 10
153.5162881512621
 20
-529.6084255785904
 30
0.0
 11
153.0162881512621
 21
-529.5084244151933
 31
0.0
  0
LINE
  5
2215E
  8
0
 10
153.5162881512621
 20
-531.2084255785903
 30
0.0
 11
153.0162881512621
 21
-531.1084244151932
 31
0.0
  0
LINE
  5
2215F
  8
0
 10
153.0162881512621
 20
-531.1084244151932
 30
0.0
 11
157.0162881512621
 21
-530.3084337223706
 31
0.0
  0
LINE
  5
22160
  8
0
 10
156.3370669946513
 20
-522.3084321419624
 30
0.0
 11
155.785317530848
 21
-522.1256679993344
 31
0.0
  0
LINE
  5
22161
  8
0
 10
157.0162881512621
 20
-525.5084337223707
 30
0.0
 11
156.5162881512621
 21
-525.4084325589736
 31
0.0
  0
LINE
  5
22162
  8
0
 10
157.0162881512621
 20
-527.1084337223707
 30
0.0
 11
156.5162881512621
 21
-527.0084325589737
 31
0.0
  0
LINE
  5
22163
  8
0
 10
156.7898810990581
 20
-523.908433195568
 30
0.0
 11
156.253287363787
 21
-523.7791624979382
 31
0.0
  0
LINE
  5
22164
  8
0
 10
153.9372027484708
 20
-523.2211949811535
 30
0.0
 11
153.4691042933208
 21
-523.1084254688035
 31
0.0
  0
LINE
  5
22165
  8
0
 10
153.5162881512621
 20
-526.4084255785904
 30
0.0
 11
153.0162881512621
 21
-526.3084244151933
 31
0.0
  0
LINE
  5
22166
  8
0
 10
153.5162881512621
 20
-524.8084255785905
 30
0.0
 11
153.0162881512621
 21
-524.7084244151933
 31
0.0
  0
LINE
  5
22167
  8
0
 10
154.3790896420002
 20
-521.6598623188481
 30
0.0
 11
153.9219178013691
 21
-521.5084265224077
 31
0.0
  0
LINE
  5
22168
  8
0
 10
153.4691042933208
 20
-523.1084254688035
 30
0.0
 11
156.3370669946513
 21
-522.3084321419624
 31
0.0
  0
LINE
  5
22169
  8
0
 10
153.0162881512621
 20
-526.3084244151933
 30
0.0
 11
157.0162881512621
 21
-525.5084337223707
 31
0.0
  0
LINE
  5
2216A
  8
0
 10
153.0162881512621
 20
-524.7084244151933
 30
0.0
 11
156.7898810990581
 21
-523.908433195568
 31
0.0
  0
LINE
  5
2216B
  8
0
 10
153.0162881512621
 20
-527.9084244151933
 30
0.0
 11
157.0162881512621
 21
-527.1084337223707
 31
0.0
  0
LINE
  5
2216C
  8
0
 10
153.0162881512621
 20
-540.7084244151977
 30
0.0
 11
157.0162881512621
 21
-539.9084337223794
 31
0.0
  0
LINE
  5
2216D
  8
0
 10
157.0162881512621
 20
-539.9084337223794
 30
0.0
 11
156.5162881512621
 21
-539.8084325589817
 31
0.0
  0
LINE
  5
2216E
  8
0
 10
153.5162881512621
 20
-539.208425578591
 30
0.0
 11
153.0162881512621
 21
-539.1084244151933
 31
0.0
  0
LINE
  5
2216F
  8
0
 10
157.0162881512621
 20
-541.5084337223796
 30
0.0
 11
156.5162881512621
 21
-541.4084325589819
 31
0.0
  0
LINE
  5
22170
  8
0
 10
157.0162881512621
 20
-543.1084337223795
 30
0.0
 11
156.5162881512621
 21
-543.0084325589818
 31
0.0
  0
LINE
  5
22171
  8
0
 10
153.5162881512621
 20
-540.8084255785953
 30
0.0
 11
153.0162881512621
 21
-540.7084244151977
 31
0.0
  0
LINE
  5
22172
  8
0
 10
153.5162881512621
 20
-542.4084255785955
 30
0.0
 11
153.0162881512621
 21
-542.3084244151978
 31
0.0
  0
LINE
  5
22173
  8
0
 10
153.0162881512621
 20
-542.3084244151978
 30
0.0
 11
157.0162881512621
 21
-541.5084337223796
 31
0.0
  0
LINE
  5
22174
  8
0
 10
157.0162881512621
 20
-535.108433722375
 30
0.0
 11
156.5162881512621
 21
-535.0084325589773
 31
0.0
  0
LINE
  5
22175
  8
0
 10
157.0162881512621
 20
-533.5084337223707
 30
0.0
 11
156.5162881512621
 21
-533.4084325589736
 31
0.0
  0
LINE
  5
22176
  8
0
 10
157.0162881512621
 20
-538.3084337223751
 30
0.0
 11
156.5162881512621
 21
-538.2084325589774
 31
0.0
  0
LINE
  5
22177
  8
0
 10
157.0162881512621
 20
-536.7084337223752
 30
0.0
 11
156.5162881512621
 21
-536.6084325589775
 31
0.0
  0
LINE
  5
22178
  8
0
 10
153.5162881512621
 20
-532.8084255785905
 30
0.0
 11
153.0162881512621
 21
-532.7084244151933
 31
0.0
  0
LINE
  5
22179
  8
0
 10
153.5162881512621
 20
-534.408425578591
 30
0.0
 11
153.0162881512621
 21
-534.3084244151933
 31
0.0
  0
LINE
  5
2217A
  8
0
 10
153.5162881512621
 20
-537.6084255785911
 30
0.0
 11
153.0162881512621
 21
-537.5084244151934
 31
0.0
  0
LINE
  5
2217B
  8
0
 10
153.5162881512621
 20
-536.008425578591
 30
0.0
 11
153.0162881512621
 21
-535.9084244151933
 31
0.0
  0
LINE
  5
2217C
  8
0
 10
153.0162881512621
 20
-535.9084244151933
 30
0.0
 11
157.0162881512621
 21
-535.108433722375
 31
0.0
  0
LINE
  5
2217D
  8
0
 10
153.0162881512621
 20
-534.3084244151933
 30
0.0
 11
157.0162881512621
 21
-533.5084337223707
 31
0.0
  0
LINE
  5
2217E
  8
0
 10
153.0162881512621
 20
-537.5084244151934
 30
0.0
 11
157.0162881512621
 21
-536.7084337223752
 31
0.0
  0
LINE
  5
2217F
  8
0
 10
153.0162881512621
 20
-539.1084244151933
 30
0.0
 11
157.0162881512621
 21
-538.3084337223751
 31
0.0
  0
LINE
  5
22180
  8
0
 10
153.5162881512621
 20
-548.8084255785996
 30
0.0
 11
153.0162881512621
 21
-548.7084244152019
 31
0.0
  0
LINE
  5
22181
  8
0
 10
153.0162881512621
 20
-548.7084244152019
 30
0.0
 11
157.0162881512621
 21
-547.9084337223836
 31
0.0
  0
LINE
  5
22182
  8
0
 10
157.0162881512621
 20
-547.9084337223836
 30
0.0
 11
156.5162881512621
 21
-547.8084325589859
 31
0.0
  0
LINE
  5
22183
  8
0
 10
153.5162881512621
 20
-547.2084255785996
 30
0.0
 11
153.0162881512621
 21
-547.108424415202
 31
0.0
  0
LINE
  5
22184
  8
0
 10
153.5162881512621
 20
-545.6084255785997
 30
0.0
 11
153.0162881512621
 21
-545.5084244152021
 31
0.0
  0
LINE
  5
22185
  8
0
 10
153.0162881512621
 20
-545.5084244152021
 30
0.0
 11
157.0162881512621
 21
-544.7084337223838
 31
0.0
  0
LINE
  5
22186
  8
0
 10
157.0162881512621
 20
-546.3084337223837
 30
0.0
 11
156.5162881512621
 21
-546.208432558986
 31
0.0
  0
LINE
  5
22187
  8
0
 10
157.0162881512621
 20
-544.7084337223838
 30
0.0
 11
156.5162881512621
 21
-544.6084325589861
 31
0.0
  0
LINE
  5
22188
  8
0
 10
153.0162881512621
 20
-547.108424415202
 30
0.0
 11
157.0162881512621
 21
-546.3084337223837
 31
0.0
  0
LINE
  5
22189
  8
0
 10
153.5162881512621
 20
-544.0084255785954
 30
0.0
 11
153.0162881512621
 21
-543.9084244151977
 31
0.0
  0
LINE
  5
2218A
  8
0
 10
153.5162881512621
 20
-550.4084255785995
 30
0.0
 11
153.0162881512621
 21
-550.3084244152018
 31
0.0
  0
LINE
  5
2218B
  8
0
 10
153.0162881512621
 20
-550.3084244152018
 30
0.0
 11
157.0162881512621
 21
-549.5084337223835
 31
0.0
  0
LINE
  5
2218C
  8
0
 10
157.0162881512621
 20
-549.5084337223835
 30
0.0
 11
156.5162881512621
 21
-549.4084325589859
 31
0.0
  0
LINE
  5
2218D
  8
0
 10
153.5162881512621
 20
-552.0084255785994
 30
0.0
 11
153.0162881512621
 21
-551.9084244152017
 31
0.0
  0
LINE
  5
2218E
  8
0
 10
153.0162881512621
 20
-551.9084244152017
 30
0.0
 11
157.0162881512621
 21
-551.1084337223834
 31
0.0
  0
LINE
  5
2218F
  8
0
 10
157.0162881512621
 20
-551.1084337223834
 30
0.0
 11
156.5162881512621
 21
-551.0084325589858
 31
0.0
  0
LINE
  5
22190
  8
0
 10
153.5162881512621
 20
-553.6084255785993
 30
0.0
 11
153.0162881512621
 21
-553.5084244152016
 31
0.0
  0
LINE
  5
22191
  8
0
 10
153.0162881512621
 20
-553.5084244152016
 30
0.0
 11
157.0162881512621
 21
-552.7084337223833
 31
0.0
  0
LINE
  5
22192
  8
0
 10
157.0162881512621
 20
-552.7084337223833
 30
0.0
 11
156.5162881512621
 21
-552.6084325589857
 31
0.0
  0
LINE
  5
22193
  8
0
  6
BYBLOCK
 10
170.016241615364
 20
-703.0290254912677
 30
0.0
 11
164.016241615364
 21
-701.4213303512677
 31
0.0
  0
LINE
  5
22194
  8
0
  6
BYBLOCK
 10
164.016241615364
 20
-701.4213303512677
 30
0.0
 11
170.016241615364
 21
-699.8136352112676
 31
0.0
  0
LINE
  5
22195
  8
0
  6
BYBLOCK
 10
164.016241615364
 20
-701.4213303512677
 30
0.0
 11
170.016241615364
 21
-701.4213303512677
 31
0.0
  0
LINE
  5
22196
  8
0
  6
BYBLOCK
 10
608.0162416153646
 20
-699.8136352112676
 30
0.0
 11
614.0162416153646
 21
-701.4213303512677
 31
0.0
  0
LINE
  5
22197
  8
0
  6
BYBLOCK
 10
614.0162416153646
 20
-701.4213303512677
 30
0.0
 11
608.0162416153646
 21
-703.0290254912677
 31
0.0
  0
LINE
  5
22198
  8
0
  6
BYBLOCK
 10
614.0162416153646
 20
-701.4213303512677
 30
0.0
 11
608.0162416153646
 21
-701.4213303512677
 31
0.0
  0
TEXT
  5
22199
  8
1DIM1
  6
CONTINUOUS
 10
370.386033282031
 20
-699.3213303512676
 30
0.0
 40
10.5
  1
P450
1001
ACAD
1000
DSTYLE
1002
{
1070
    40
1040
3.0
1070
    45
1040
0.5
1002
}
  0
LINE
  5
2219A
  8
0
  6
BYBLOCK
 10
544.7817291663247
 20
-658.321330351266
 30
0.0
 11
544.2458307863246
 21
-660.321330351266
 31
0.0
  0
LINE
  5
2219B
  8
0
  6
BYBLOCK
 10
544.2458307863246
 20
-660.321330351266
 30
0.0
 11
543.7099324063246
 21
-658.321330351266
 31
0.0
  0
LINE
  5
2219C
  8
0
  6
BYBLOCK
 10
544.2458307863246
 20
-660.321330351266
 30
0.0
 11
544.2458307863246
 21
-658.321330351266
 31
0.0
  0
LINE
  5
2219D
  8
0
  6
BYBLOCK
 10
543.7099324063246
 20
-653.321330351266
 30
0.0
 11
544.2458307863246
 21
-651.321330351266
 31
0.0
  0
LINE
  5
2219E
  8
0
  6
BYBLOCK
 10
544.2458307863246
 20
-651.321330351266
 30
0.0
 11
544.7817291663247
 21
-653.321330351266
 31
0.0
  0
LINE
  5
2219F
  8
0
  6
BYBLOCK
 10
544.2458307863246
 20
-651.321330351266
 30
0.0
 11
544.2458307863246
 21
-653.321330351266
 31
0.0
  0
TEXT
  5
221A0
  8
1DIM
  6
CONTINUOUS
 10
543.5458307863246
 20
-646.1229507216364
 30
0.0
 40
3.5
  1
9
 50
90.0
1001
ACAD
1000
DSTYLE
1002
{
1070
    45
1040
0.5
1002
}
  0
LINE
  5
221A1
  8
0
  6
BYBLOCK
 10
544.7817291663247
 20
-611.4084516051706
 30
0.0
 11
544.2458307863246
 21
-613.4084516051706
 31
0.0
  0
LINE
  5
221A2
  8
0
  6
BYBLOCK
 10
544.2458307863246
 20
-613.4084516051706
 30
0.0
 11
543.7099324063246
 21
-611.4084516051706
 31
0.0
  0
LINE
  5
221A3
  8
0
  6
BYBLOCK
 10
544.2458307863246
 20
-613.4084516051706
 30
0.0
 11
544.2458307863246
 21
-611.4084516051706
 31
0.0
  0
LINE
  5
221A4
  8
0
  6
BYBLOCK
 10
543.7099324063246
 20
-590.4084561874196
 30
0.0
 11
544.2458307863246
 21
-588.4084561874196
 31
0.0
  0
LINE
  5
221A5
  8
0
  6
BYBLOCK
 10
544.2458307863246
 20
-588.4084561874196
 30
0.0
 11
544.7817291663247
 21
-590.4084561874196
 31
0.0
  0
LINE
  5
221A6
  8
0
  6
BYBLOCK
 10
544.2458307863246
 20
-588.4084561874196
 30
0.0
 11
544.2458307863246
 21
-590.4084561874196
 31
0.0
  0
TEXT
  5
221A7
  8
1DIM
  6
CONTINUOUS
 10
543.5458307863247
 20
-583.8922070227005
 30
0.0
 40
3.5
  1
25
 50
90.0
1001
ACAD
1000
DSTYLE
1002
{
1070
    45
1040
0.5
1002
}
  0
LINE
  5
221A8
  8
0
  6
BYBLOCK
 10
682.716241615365
 20
-711.9572287312677
 30
0.0
 11
680.716241615365
 21
-711.4213303512677
 31
0.0
  0
LINE
  5
221A9
  8
0
  6
BYBLOCK
 10
680.716241615365
 20
-711.4213303512677
 30
0.0
 11
682.716241615365
 21
-710.8854319712676
 31
0.0
  0
LINE
  5
221AA
  8
0
  6
BYBLOCK
 10
680.716241615365
 20
-711.4213303512677
 30
0.0
 11
682.716241615365
 21
-711.4213303512677
 31
0.0
  0
LINE
  5
221AB
  8
0
  6
BYBLOCK
 10
741.016241615365
 20
-710.8854319712676
 30
0.0
 11
743.016241615365
 21
-711.4213303512677
 31
0.0
  0
LINE
  5
221AC
  8
0
  6
BYBLOCK
 10
743.016241615365
 20
-711.4213303512677
 30
0.0
 11
741.016241615365
 21
-711.9572287312677
 31
0.0
  0
LINE
  5
221AD
  8
0
  6
BYBLOCK
 10
743.016241615365
 20
-711.4213303512677
 30
0.0
 11
741.016241615365
 21
-711.4213303512677
 31
0.0
  0
TEXT
  5
221AE
  8
1DIM
  6
CONTINUOUS
 10
706.6040888375871
 20
-710.7213303512677
 30
0.0
 40
3.5
  1
62.5
1001
ACAD
1000
DSTYLE
1002
{
1070
    45
1040
0.5
1002
}
  0
LINE
  5
221AF
  8
0
  6
BYBLOCK
 10
607.0162416153646
 20
-691.9572287312677
 30
0.0
 11
605.0162416153646
 21
-691.4213303512677
 31
0.0
  0
LINE
  5
221B0
  8
0
  6
BYBLOCK
 10
605.0162416153646
 20
-691.4213303512677
 30
0.0
 11
607.0162416153646
 21
-690.8854319712676
 31
0.0
  0
LINE
  5
221B1
  8
0
  6
BYBLOCK
 10
605.0162416153646
 20
-691.4213303512677
 30
0.0
 11
607.0162416153646
 21
-691.4213303512677
 31
0.0
  0
LINE
  5
221B2
  8
0
  6
BYBLOCK
 10
621.0162416153646
 20
-690.8854319712676
 30
0.0
 11
623.0162416153646
 21
-691.4213303512677
 31
0.0
  0
LINE
  5
221B3
  8
0
  6
BYBLOCK
 10
623.0162416153646
 20
-691.4213303512677
 30
0.0
 11
621.0162416153646
 21
-691.9572287312677
 31
0.0
  0
LINE
  5
221B4
  8
0
  6
BYBLOCK
 10
623.0162416153646
 20
-691.4213303512677
 30
0.0
 11
621.0162416153646
 21
-691.4213303512677
 31
0.0
  0
TEXT
  5
221B5
  8
1DIM
  6
CONTINUOUS
 10
609.9329082820312
 20
-690.7213303512676
 30
0.0
 40
3.5
  1
P18
1001
ACAD
1000
DSTYLE
1002
{
1070
    40
1040
1.0
1070
    45
1040
0.5
1002
}
  0
LINE
  5
221B6
  8
0
  6
BYBLOCK
 10
785.052139995365
 20
-669.8212501790899
 30
0.0
 11
784.516241615365
 21
-671.8212501790899
 31
0.0
  0
LINE
  5
221B7
  8
0
  6
BYBLOCK
 10
784.516241615365
 20
-671.8212501790899
 30
0.0
 11
783.9803432353649
 21
-669.8212501790899
 31
0.0
  0
LINE
  5
221B8
  8
0
  6
BYBLOCK
 10
784.516241615365
 20
-671.8212501790899
 30
0.0
 11
784.516241615365
 21
-669.8212501790899
 31
0.0
  0
LINE
  5
221B9
  8
0
  6
BYBLOCK
 10
783.9803432353649
 20
-653.0213303512663
 30
0.0
 11
784.516241615365
 21
-651.0213303512663
 31
0.0
  0
LINE
  5
221BA
  8
0
  6
BYBLOCK
 10
784.516241615365
 20
-651.0213303512663
 30
0.0
 11
785.052139995365
 21
-653.0213303512663
 31
0.0
  0
LINE
  5
221BB
  8
0
  6
BYBLOCK
 10
784.516241615365
 20
-651.0213303512663
 30
0.0
 11
784.516241615365
 21
-653.0213303512663
 31
0.0
  0
TEXT
  5
221BC
  8
1DIM
  6
CONTINUOUS
 10
783.8162416153649
 20
-663.7546235985114
 30
0.0
 40
3.5
  1
21
 50
90.0
1001
ACAD
1000
DSTYLE
1002
{
1070
    45
1040
0.5
1070
   271
1070
     0
1002
}
  0
LINE
  5
221BD
  8
0
  6
BYBLOCK
 10
152.016241615364
 20
-733.0290254912677
 30
0.0
 11
146.016241615364
 21
-731.4213303512677
 31
0.0
  0
LINE
  5
221BE
  8
0
  6
BYBLOCK
 10
146.016241615364
 20
-731.4213303512677
 30
0.0
 11
152.016241615364
 21
-729.8136352112676
 31
0.0
  0
LINE
  5
221BF
  8
0
  6
BYBLOCK
 10
146.016241615364
 20
-731.4213303512677
 30
0.0
 11
152.016241615364
 21
-731.4213303512677
 31
0.0
  0
LINE
  5
221C0
  8
0
  6
BYBLOCK
 10
626.0162416153646
 20
-729.8136352112676
 30
0.0
 11
632.0162416153646
 21
-731.4213303512677
 31
0.0
  0
LINE
  5
221C1
  8
0
  6
BYBLOCK
 10
632.0162416153646
 20
-731.4213303512677
 30
0.0
 11
626.0162416153646
 21
-733.0290254912677
 31
0.0
  0
LINE
  5
221C2
  8
0
  6
BYBLOCK
 10
632.0162416153646
 20
-731.4213303512677
 30
0.0
 11
626.0162416153646
 21
-731.4213303512677
 31
0.0
  0
TEXT
  5
221C3
  8
1DIM1
  6
CONTINUOUS
 10
375.0162416153643
 20
-729.3213303512676
 30
0.0
 40
10.5
  1
486
1001
ACAD
1000
DSTYLE
1002
{
1070
    40
1040
3.0
1070
    45
1040
0.5
1002
}
  0
LINE
  5
221C4
  8
0
  6
BYBLOCK
 10
795.052139995365
 20
-681.8213303512663
 30
0.0
 11
794.516241615365
 21
-683.8213303512663
 31
0.0
  0
LINE
  5
221C5
  8
0
  6
BYBLOCK
 10
794.516241615365
 20
-683.8213303512663
 30
0.0
 11
793.9803432353649
 21
-681.8213303512663
 31
0.0
  0
LINE
  5
221C6
  8
0
  6
BYBLOCK
 10
794.516241615365
 20
-683.8213303512663
 30
0.0
 11
794.516241615365
 21
-681.8213303512663
 31
0.0
  0
LINE
  5
221C7
  8
0
  6
BYBLOCK
 10
793.9803432353649
 20
-653.0213303512663
 30
0.0
 11
794.516241615365
 21
-651.0213303512663
 31
0.0
  0
LINE
  5
221C8
  8
0
  6
BYBLOCK
 10
794.516241615365
 20
-651.0213303512663
 30
0.0
 11
795.052139995365
 21
-653.0213303512663
 31
0.0
  0
LINE
  5
221C9
  8
0
  6
BYBLOCK
 10
794.516241615365
 20
-651.0213303512663
 30
0.0
 11
794.516241615365
 21
-653.0213303512663
 31
0.0
  0
TEXT
  5
221CA
  8
1DIM
  6
CONTINUOUS
 10
793.8162416153649
 20
-670.3379970179328
 30
0.0
 40
3.5
  1
33
 50
90.0
1001
ACAD
1000
DSTYLE
1002
{
1070
    45
1040
0.5
1002
}
  0
LINE
  5
221CB
  8
0
  6
BYBLOCK
 10
627.0162416153646
 20
-515.8725306885675
 30
0.0
 11
629.0162416153646
 21
-516.4084290685676
 31
0.0
  0
LINE
  5
221CC
  8
0
  6
BYBLOCK
 10
629.0162416153646
 20
-516.4084290685676
 30
0.0
 11
627.0162416153646
 21
-516.9443274485676
 31
0.0
  0
LINE
  5
221CD
  8
0
  6
BYBLOCK
 10
629.0162416153646
 20
-516.4084290685676
 30
0.0
 11
627.0162416153646
 21
-516.4084290685676
 31
0.0
  0
LINE
  5
221CE
  8
0
  6
BYBLOCK
 10
601.0162416153647
 20
-516.9443274485676
 30
0.0
 11
599.0162416153647
 21
-516.4084290685676
 31
0.0
  0
LINE
  5
221CF
  8
0
  6
BYBLOCK
 10
599.0162416153647
 20
-516.4084290685676
 30
0.0
 11
601.0162416153647
 21
-515.8725306885675
 31
0.0
  0
LINE
  5
221D0
  8
0
  6
BYBLOCK
 10
599.0162416153647
 20
-516.4084290685676
 30
0.0
 11
601.0162416153647
 21
-516.4084290685676
 31
0.0
  0
TEXT
  5
221D1
  8
1DIM
  6
CONTINUOUS
 10
611.318324948698
 20
-515.7084290685675
 30
0.0
 40
3.5
  1
30
1001
ACAD
1000
DSTYLE
1002
{
1070
    45
1040
0.5
1002
}
  0
VIEWPORT
  5
57
 67
     1
  8
0
 10
0.0
 20
0.0
 30
0.0
 40
554.3757649938801
 41
297.0000000000001
 68
     1
 69
     1
1001
ACAD
1000
MVIEW
1002
{
1070
    16
1010
0.0
1020
0.0
1030
0.0
1010
0.0
1020
0.0
1030
1.0
1040
0.0
1040
297.0000000000001
1040
-4.171999999925333
1040
12.83903210976956
1040
50.0
1040
0.0
1040
0.0
1070
    16
1070
   100
1070
     0
1070
     1
1070
     0
1070
     0
1070
     0
1070
     0
1040
0.0
1040
0.0
1040
0.0
1040
10.0
1040
10.0
1040
10.0
1040
10.0
1070
     0
1002
{
1002
}
1002
}
  0
ENDSEC
  0
EOF
