  0
SECTION
  2
HEADER
  9
$ACADVER
  1
AC1009
  9
$DWGCODEPAGE
  3
ansi_932
  9
$INSBASE
 10
0.0
 20
0.0
 30
0.0
  9
$EXTMIN
 10
-454.1201593449616
 20
-1488.692806041388
 30
-0.0000000000022832
  9
$EXTMAX
 10
-113.9915771932532
 20
-1210.722000671278
 30
0.0000000000066642
  9
$LIMMIN
 10
0.0
 20
0.0
  9
$LIMMAX
 10
420.0
 20
297.0
  9
$ORTHOMODE
 70
     0
  9
$REGENMODE
 70
     1
  9
$FILLMODE
 70
     1
  9
$QTEXTMODE
 70
     0
  9
$MIRRTEXT
 70
     0
  9
$DRAGMODE
 70
     2
  9
$LTSCALE
 40
0.5
  9
$OSMODE
 70
 14591
  9
$ATTMODE
 70
     1
  9
$TEXTSIZE
 40
4.0
  9
$TRACEWID
 40
1.0
  9
$TEXTSTYLE
  7
STANDARD
  9
$CLAYER
  8
1TEXT
  9
$CELTYPE
  6
BYLAYER
  9
$CECOLOR
 62
   256
  9
$DIMSCALE
 40
1.0
  9
$DIMASZ
 40
2.0
  9
$DIMEXO
 40
0.0
  9
$DIMDLI
 40
7.0
  9
$DIMRND
 40
0.0
  9
$DIMDLE
 40
0.0
  9
$DIMEXE
 40
1.0
  9
$DIMTP
 40
0.0
  9
$DIMTM
 40
0.0
  9
$DIMTXT
 40
3.5
  9
$DIMCEN
 40
0.0
  9
$DIMTSZ
 40
0.0
  9
$DIMTOL
 70
     0
  9
$DIMLIM
 70
     0
  9
$DIMTIH
 70
     0
  9
$DIMTOH
 70
     0
  9
$DIMSE1
 70
     0
  9
$DIMSE2
 70
     0
  9
$DIMTAD
 70
     1
  9
$DIMZIN
 70
     8
  9
$DIMBLK
  1

  9
$DIMASO
 70
     1
  9
$DIMSHO
 70
     1
  9
$DIMPOST
  1
 
  9
$DIMAPOST
  1

  9
$DIMALT
 70
     0
  9
$DIMALTD
 70
     2
  9
$DIMALTF
 40
25.4
  9
$DIMLFAC
 40
1.0
  9
$DIMTOFL
 70
     1
  9
$DIMTVP
 40
0.0
  9
$DIMTIX
 70
     0
  9
$DIMSOXD
 70
     0
  9
$DIMSAH
 70
     1
  9
$DIMBLK1
  1
OPEN30
  9
$DIMBLK2
  1
OPEN30
  9
$DIMSTYLE
  2
NEWX10
  9
$DIMCLRD
 70
   256
  9
$DIMCLRE
 70
   256
  9
$DIMCLRT
 70
   201
  9
$DIMTFAC
 40
0.7
  9
$DIMGAP
 40
0.7
  9
$LUNITS
 70
     2
  9
$LUPREC
 70
     4
  9
$SKETCHINC
 40
1.0
  9
$FILLETRAD
 40
0.5
  9
$AUNITS
 70
     0
  9
$AUPREC
 70
     2
  9
$MENU
  1
acad
  9
$ELEVATION
 40
0.0
  9
$PELEVATION
 40
0.0
  9
$THICKNESS
 40
0.0
  9
$LIMCHECK
 70
     0
  9
$CHAMFERA
 40
10.0
  9
$CHAMFERB
 40
10.0
  9
$SKPOLY
 70
     0
  9
$TDCREATE
 40
2453033.732663484
  9
$TDUPDATE
 40
2459825.424905208
  9
$TDINDWG
 40
1.726495706
  9
$TDUSRTIMER
 40
1.726495706
  9
$USRTIMER
 70
     1
  9
$ANGBASE
 50
0.0
  9
$ANGDIR
 70
     0
  9
$PDMODE
 70
     0
  9
$PDSIZE
 40
0.0
  9
$PLINEWID
 40
0.0
  9
$COORDS
 70
     2
  9
$SPLFRAME
 70
     0
  9
$SPLINETYPE
 70
     6
  9
$SPLINESEGS
 70
     8
  9
$ATTDIA
 70
     0
  9
$ATTREQ
 70
     1
  9
$HANDLING
 70
     1
  9
$HANDSEED
  5
1750D
  9
$SURFTAB1
 70
     6
  9
$SURFTAB2
 70
     6
  9
$SURFTYPE
 70
     6
  9
$SURFU
 70
     6
  9
$SURFV
 70
     6
  9
$UCSNAME
  2

  9
$UCSORG
 10
0.0
 20
0.0
 30
0.0
  9
$UCSXDIR
 10
1.0
 20
0.0
 30
0.0
  9
$UCSYDIR
 10
0.0
 20
1.0
 30
0.0
  9
$PUCSNAME
  2

  9
$PUCSORG
 10
0.0
 20
0.0
 30
0.0
  9
$PUCSXDIR
 10
1.0
 20
0.0
 30
0.0
  9
$PUCSYDIR
 10
0.0
 20
1.0
 30
0.0
  9
$USERI1
 70
     0
  9
$USERI2
 70
     0
  9
$USERI3
 70
     0
  9
$USERI4
 70
     0
  9
$USERI5
 70
     0
  9
$USERR1
 40
0.0
  9
$USERR2
 40
0.0
  9
$USERR3
 40
0.0
  9
$USERR4
 40
0.0
  9
$USERR5
 40
0.0
  9
$WORLDVIEW
 70
     1
  9
$SHADEDGE
 70
     3
  9
$SHADEDIF
 70
    70
  9
$TILEMODE
 70
     1
  9
$MAXACTVP
 70
    48
  9
$PLIMCHECK
 70
     0
  9
$PEXTMIN
 10
1.000000000000000E+20
 20
1.000000000000000E+20
 30
1.000000000000000E+20
  9
$PEXTMAX
 10
-1.000000000000000E+20
 20
-1.000000000000000E+20
 30
-1.000000000000000E+20
  9
$PLIMMIN
 10
0.0
 20
0.0
  9
$PLIMMAX
 10
420.0
 20
297.0
  9
$UNITMODE
 70
     0
  9
$VISRETAIN
 70
     1
  9
$PLINEGEN
 70
     0
  9
$PSLTSCALE
 70
     1
  0
ENDSEC
  0
SECTION
  2
TABLES
  0
TABLE
  2
VPORT
 70
     1
  0
VPORT
  2
*ACTIVE
 70
     0
 10
0.0
 20
0.0
 11
1.0
 21
1.0
 12
-284.0558682691074
 22
-1349.707403356334
 13
0.0
 23
0.0
 14
10.0
 24
10.0
 15
10.0
 25
10.0
 16
0.0
 26
0.0
 36
1.0
 17
0.0
 27
0.0
 37
0.0
 40
298.4528647131707
 41
1.866585067319461
 42
50.0
 43
0.0
 44
0.0
 50
0.0
 51
0.0
 71
     0
 72
   100
 73
     1
 74
     1
 75
     0
 76
     0
 77
     0
 78
     0
  0
ENDTAB
  0
TABLE
  2
LTYPE
 70
    15
  0
LTYPE
  2
CONTINUOUS
 70
     0
  3
Solid line
 72
    65
 73
     0
 40
0.0
  0
LTYPE
  2
CENTER2
 70
     0
  3
Center (.5x) ___ _ ___ _ ___ _ ___ _ ___ _ ___
 72
    65
 73
     4
 40
28.575
 49
19.05
 49
-3.175
 49
3.175
 49
-3.175
  0
LTYPE
  2
XREF1|CENTER2
 70
    16
  3
Center (.5x) ___ _ ___ _ ___ _ ___ _ ___ _ ___
 72
    65
 73
     4
 40
28.575
 49
19.05
 49
-3.175
 49
3.175
 49
-3.175
  0
LTYPE
  2
PHANTOM2
 70
     0
  3
Phantom (0.5x) ___ _ _ ___ _ _ ___ _ _ ___ _ _
 72
    65
 73
     6
 40
31.75
 49
15.875
 49
-3.175
 49
3.175
 49
-3.175
 49
3.175
 49
-3.175
  0
ENDTAB
  0
TABLE
  2
LAYER
 70
    43
  0
LAYER
  2
0
 70
     0
 62
     7
  6
CONTINUOUS
  0
LAYER
  2
1CENTER
 70
     0
 62
     7
  6
CENTER2
  0
LAYER
  2
1TEXT
 70
     0
 62
     7
  6
CONTINUOUS
  0
LAYER
  2
1DIM
 70
     0
 62
     7
  6
CONTINUOUS
  0
LAYER
  2
1PHANTOM
 70
     0
 62
     7
  6
PHANTOM2
  0
LAYER
  2
01
 70
     0
 62
     1
  6
CONTINUOUS
  0
LAYER
  2
1HATCH
 70
     0
 62
     7
  6
CONTINUOUS
  0
ENDTAB
  0
TABLE
  2
STYLE
 70
    22
  0
STYLE
  2
STANDARD
 70
     0
 40
0.0
 41
1.0
 50
0.0
 71
     0
 42
4.0
  3
txt.shx
  4
extfont.shx
  0
STYLE
  2
XREF1|STANDARD
 70
    16
 40
0.0
 41
1.0
 50
0.0
 71
     0
 42
4.0
  3
romans.shx
  4
extfont.shx
  0
ENDTAB
  0
TABLE
  2
VIEW
 70
     0
  0
ENDTAB
  0
TABLE
  2
UCS
 70
     0
  0
ENDTAB
  0
TABLE
  2
APPID
 70
    14
  0
APPID
  2
ACAD
 70
     0
  0
APPID
  2
DRAWINGVARIABLESXDATA
 70
     0
  0
APPID
  2
CONTENTTABDATA
 70
     0
  0
APPID
  2
CONTENTCURRENTTAB
 70
     0
  0
APPID
  2
CONTENTBLOCKDESCRIPTION
 70
     0
  0
APPID
  2
CONTENTBLOCKICON
 70
     0
  0
APPID
  2
CONTENTLONGBLOCKNAME
 70
     0
  0
APPID
  2
ACAD_PSEXT
 70
     0
  0
APPID
  2
ACAD_DSTYLE_DIMTEXT_FILL
 70
     0
  0
APPID
  2
ACAD_MLEADERVER
 70
     0
  0
APPID
  2
ACAD_DSTYLE_DIMRADIAL_EXTE
 70
     0
  0
APPID
  2
ACADANNOTATIVE
 70
     0
  0
APPID
  2
ACDBBLOCKREPETAG
 70
     0
  0
APPID
  2
ACAD_OBJECT_CHANGE_GUID
 70
     0
  0
ENDTAB
  0
TABLE
  2
DIMSTYLE
 70
     5
  0
DIMSTYLE
  2
NEWX10
 70
     0
  3
 
  4

  5

  6
OPEN30
  7
OPEN30
 40
1.0
 41
2.0
 42
0.0
 43
7.0
 44
1.0
 45
0.0
 46
0.0
 47
0.0
 48
0.0
140
3.5
141
0.0
142
0.0
143
25.4
144
1.0
145
0.0
146
0.7
147
0.7
 71
     0
 72
     0
 73
     0
 74
     0
 75
     0
 76
     0
 77
     1
 78
     8
170
     0
171
     2
172
     1
173
     1
174
     0
175
     0
176
   256
177
   256
178
   201
  0
ENDTAB
  0
ENDSEC
  0
SECTION
  2
BLOCKS
  0
BLOCK
  8
0
  2
$MODEL_SPACE
 70
     0
 10
0.0
 20
0.0
 30
0.0
  3
$MODEL_SPACE
  1

  0
ENDBLK
  5
1A
  8
0
  0
BLOCK
 67
     1
  8
0
  2
$PAPER_SPACE
 70
     0
 10
0.0
 20
0.0
 30
0.0
  3
$PAPER_SPACE
  1

  0
ENDBLK
  5
17
 67
     1
  8
0
  0
BLOCK
  8
0
  2
_OPEN30
 70
     0
 10
0.0
 20
0.0
 30
0.0
  3
_OPEN30
  1

  0
LINE
  5
44
  8
0
  6
BYBLOCK
 62
     0
 10
-1.0
 20
0.26794919
 30
0.0
 11
0.0
 21
0.0
 31
0.0
  0
LINE
  5
45
  8
0
  6
BYBLOCK
 62
     0
 10
0.0
 20
0.0
 30
0.0
 11
-1.0
 21
-0.26794919
 31
0.0
  0
LINE
  5
46
  8
0
  6
BYBLOCK
 62
     0
 10
0.0
 20
0.0
 30
0.0
 11
-1.0
 21
0.0
 31
0.0
  0
ENDBLK
  5
47
  8
0
  0
BLOCK
  8
0
  2
XREF1
 70
     4
 10
0.0
 20
0.0
 30
0.0
  3
XREF1
  1
D:\ACLT\FORMAT\KAWAJUN(9)図面用.dwg
  0
ENDBLK
  5
5D
  8
0
  0
BLOCK
  8
0
  2
A3WAKUKAWAJUN2017_HYOUDAI_
 70
     0
 10
0.0
 20
0.0
 30
0.0
  3
A3WAKUKAWAJUN2017_HYOUDAI_
  1

  0
LINE
  5
16263
  8
0
 10
13.26299999998673
 20
-0.0001000000000317
 30
0.0
 11
9.236999999990758
 21
8.999899999990987
 31
0.0
1001
ACAD
1000
ASC_BOUNDS
1002
{
1070
    19
1005
162A4
1002
}
  0
LINE
  5
16264
  8
0
 10
5.657999999994331
 20
0.9999999999989768
 30
0.0
 11
9.236999999990758
 21
8.999999999991019
 31
0.0
1001
ACAD
1000
ASC_BOUNDS
1002
{
1070
    19
1005
162A4
1002
}
  0
LINE
  5
16265
  8
0
 10
18.59199999998134
 20
-0.2368999999997641
 30
0.0
 11
16.46099999998353
 21
5.432899999994561
 31
0.0
1001
ACAD
1000
ASC_BOUNDS
1002
{
1070
    19
1005
162A5
1002
}
  0
LINE
  5
16266
  8
0
 10
18.59199999998134
 20
-0.2368999999997641
 30
0.0
 11
22.38199999997767
 21
8.763099999991255
 31
0.0
1001
ACAD
1000
ASC_BOUNDS
1002
{
1070
    19
1005
162A5
1002
}
  0
LINE
  5
16267
  8
0
 10
14.32899999998563
 20
-0.2368999999997641
 30
0.0
 11
16.46099999998353
 21
5.432899999994561
 31
0.0
1001
ACAD
1000
ASC_BOUNDS
1002
{
1070
    19
1005
162A5
1002
}
  0
LINE
  5
16268
  8
0
 10
14.32899999998563
 20
-0.2368999999997641
 30
0.0
 11
10.53899999998941
 21
8.763099999991255
 31
0.0
1001
ACAD
1000
ASC_BOUNDS
1002
{
1070
    19
1005
162A5
1002
}
  0
LINE
  5
16269
  8
0
 10
19.53899999998043
 20
-0.0001000000000317
 30
0.0
 11
23.56599999997638
 21
8.999899999990987
 31
0.0
1001
ACAD
1000
ASC_BOUNDS
1002
{
1070
    19
1005
162A6
1002
}
  0
LINE
  5
1626A
  8
0
 10
26.97358892824991
 20
1.383099999991202
 30
0.0
 11
23.56599999997638
 21
8.999899999990987
 31
0.0
1001
ACAD
1000
ASC_BOUNDS
1002
{
1070
    19
1005
162A6
1002
}
  0
LINE
  5
1626B
  8
0
 10
5.657999999994331
 20
0.9999999999989768
 30
0.0
 11
3.181999999996833
 21
4.668599999995308
 31
0.0
1001
ACAD
1000
ASC_BOUNDS
1002
{
1070
    19
1005
162A4
1002
}
  0
LINE
  5
1626C
  8
0
 10
4.617999999995391
 20
-0.0001000000000317
 30
0.0
 11
1.420999999998571
 21
4.736799999995242
 31
0.0
1001
ACAD
1000
ASC_BOUNDS
1002
{
1070
    19
1005
162A4
1002
}
  0
LINE
  5
1626D
  8
0
 10
1.420999999998571
 20
8.763099999991255
 30
0.0
 11
1.420999999998571
 21
0.0
 31
0.0
1001
ACAD
1000
ASC_BOUNDS
1002
{
1070
    19
1005
162A9
1002
}
  0
LINE
  5
1626E
  8
0
 10
0.0
 20
8.763099999991255
 30
0.0
 11
0.0
 21
0.0
 31
0.0
1001
ACAD
1000
ASC_BOUNDS
1002
{
1070
    19
1005
162A9
1002
}
  0
LINE
  5
1626F
  8
0
 10
6.766999999993232
 20
-0.0001000000000317
 30
0.0
 11
7.826999999992154
 21
2.368399999997621
 31
0.0
1001
ACAD
1000
ASC_BOUNDS
1002
{
1070
    19
1005
162A4
1002
}
  0
LINE
  5
16270
  8
0
 10
0.0
 20
0.0
 30
0.0
 11
1.420999999998571
 21
0.0
 31
0.0
1001
ACAD
1000
ASC_BOUNDS
1002
{
1070
    19
1005
162A9
1002
}
  0
LINE
  5
16271
  8
0
 10
4.617999999995391
 20
0.0
 30
0.0
 11
6.766999999993232
 21
0.0
 31
0.0
1001
ACAD
1000
ASC_BOUNDS
1002
{
1070
    19
1005
162A4
1002
}
  0
LINE
  5
16272
  8
0
 10
11.70599999998831
 20
-0.0001000000000317
 30
0.0
 11
10.64699999998936
 21
2.368399999997621
 31
0.0
1001
ACAD
1000
ASC_BOUNDS
1002
{
1070
    19
1005
162A4
1002
}
  0
LINE
  5
16273
  8
0
 10
7.826999999992154
 20
2.368399999997621
 30
0.0
 11
10.64699999998936
 21
2.368399999997621
 31
0.0
1001
ACAD
1000
ASC_BOUNDS
1002
{
1070
    19
1005
162A4
1002
}
  0
LINE
  5
16274
  8
0
 10
11.70599999998831
 20
0.0
 30
0.0
 11
13.26299999998673
 21
0.0
 31
0.0
1001
ACAD
1000
ASC_BOUNDS
1002
{
1070
    19
1005
162A4
1002
}
  0
LINE
  5
16275
  8
0
 10
22.15599999997789
 20
2.368399999997621
 30
0.0
 11
24.97599999997499
 21
2.368399999997621
 31
0.0
1001
ACAD
1000
ASC_BOUNDS
1002
{
1070
    19
1005
162A6
1002
}
  0
LINE
  5
16276
  8
0
 10
19.53899999998043
 20
0.0
 30
0.0
 11
21.09599999997886
 21
0.0
 31
0.0
1001
ACAD
1000
ASC_BOUNDS
1002
{
1070
    19
1005
162A6
1002
}
  0
LINE
  5
16277
  8
0
 10
21.09599999997886
 20
-0.0001000000000317
 30
0.0
 11
22.15599999997789
 21
2.368399999997621
 31
0.0
1001
ACAD
1000
ASC_BOUNDS
1002
{
1070
    19
1005
162A6
1002
}
  0
LINE
  5
16278
  8
0
 10
26.02015566812236
 20
0.0330999999912365
 30
0.0
 11
24.97599999997499
 21
2.368399999997621
 31
0.0
1001
ACAD
1000
ASC_BOUNDS
1002
{
1070
    19
1005
162A6
1002
}
  0
LINE
  5
16279
  8
0
 10
14.32399999998563
 20
3.315799999996671
 30
0.0
 11
16.46099999998353
 21
8.999899999990987
 31
0.0
1001
ACAD
1000
ASC_BOUNDS
1002
{
1070
    19
1005
162A5
1002
}
  0
LINE
  5
1627A
  8
0
 10
6.432999999993513
 20
8.763099999991255
 30
0.0
 11
3.181999999996833
 21
4.668599999995308
 31
0.0
1001
ACAD
1000
ASC_BOUNDS
1002
{
1070
    19
1005
162A4
1002
}
  0
LINE
  5
1627B
  8
0
 10
4.617999999995391
 20
8.763099999991255
 30
0.0
 11
1.420999999998571
 21
4.736799999995242
 31
0.0
1001
ACAD
1000
ASC_BOUNDS
1002
{
1070
    19
1005
162A4
1002
}
  0
LINE
  5
1627C
  8
0
 10
0.0
 20
8.763099999991255
 30
0.0
 11
1.420999999998571
 21
8.763099999991255
 31
0.0
1001
ACAD
1000
ASC_BOUNDS
1002
{
1070
    19
1005
162A9
1002
}
  0
LINE
  5
1627D
  8
0
 10
4.617999999995391
 20
8.763099999991255
 30
0.0
 11
6.432999999993513
 21
8.763099999991255
 31
0.0
1001
ACAD
1000
ASC_BOUNDS
1002
{
1070
    19
1005
162A4
1002
}
  0
LINE
  5
1627E
  8
0
 10
14.32399999998563
 20
3.315799999996671
 30
0.0
 11
12.02999999998792
 21
8.763099999991255
 31
0.0
1001
ACAD
1000
ASC_BOUNDS
1002
{
1070
    19
1005
162A5
1002
}
  0
LINE
  5
1627F
  8
0
 10
10.06399999998996
 20
3.670999999996297
 30
0.0
 11
9.236999999990758
 21
5.5200999999945
 31
0.0
1001
ACAD
1000
ASC_BOUNDS
1002
{
1070
    19
1005
162A4
1002
}
  0
LINE
  5
16280
  8
0
 10
8.409999999991555
 20
3.670999999996297
 30
0.0
 11
9.236999999990758
 21
5.5200999999945
 31
0.0
1001
ACAD
1000
ASC_BOUNDS
1002
{
1070
    19
1005
162A4
1002
}
  0
LINE
  5
16281
  8
0
 10
8.409999999991555
 20
3.670999999996297
 30
0.0
 11
10.06399999998996
 21
3.670999999996297
 31
0.0
1001
ACAD
1000
ASC_BOUNDS
1002
{
1070
    19
1005
162A4
1002
}
  0
LINE
  5
16282
  8
0
 10
10.53899999998941
 20
8.763099999991255
 30
0.0
 11
12.02999999998792
 21
8.763099999991255
 31
0.0
1001
ACAD
1000
ASC_BOUNDS
1002
{
1070
    19
1005
162A5
1002
}
  0
LINE
  5
16283
  8
0
 10
22.7389999999773
 20
3.670999999996297
 30
0.0
 11
23.56599999997638
 21
5.5200999999945
 31
0.0
1001
ACAD
1000
ASC_BOUNDS
1002
{
1070
    19
1005
162A6
1002
}
  0
LINE
  5
16284
  8
0
 10
22.7389999999773
 20
3.670999999996297
 30
0.0
 11
24.39299999997559
 21
3.670999999996297
 31
0.0
1001
ACAD
1000
ASC_BOUNDS
1002
{
1070
    19
1005
162A6
1002
}
  0
LINE
  5
16285
  8
0
 10
18.59799999998143
 20
3.315799999996671
 30
0.0
 11
20.89099999997916
 21
8.763099999991255
 31
0.0
1001
ACAD
1000
ASC_BOUNDS
1002
{
1070
    19
1005
162A5
1002
}
  0
LINE
  5
16286
  8
0
 10
18.59799999998143
 20
3.315799999996671
 30
0.0
 11
16.46099999998353
 21
8.999899999990987
 31
0.0
1001
ACAD
1000
ASC_BOUNDS
1002
{
1070
    19
1005
162A5
1002
}
  0
LINE
  5
16287
  8
0
 10
20.89099999997916
 20
8.763099999991255
 30
0.0
 11
22.38199999997767
 21
8.763099999991255
 31
0.0
1001
ACAD
1000
ASC_BOUNDS
1002
{
1070
    19
1005
162A5
1002
}
  0
LINE
  5
16288
  8
0
 10
24.39299999997559
 20
3.670999999996297
 30
0.0
 11
23.56599999997638
 21
5.5200999999945
 31
0.0
1001
ACAD
1000
ASC_BOUNDS
1002
{
1070
    19
1005
162A6
1002
}
  0
LINE
  5
16289
  8
0
 10
44.99999999995498
 20
-0.2368999999997641
 30
0.0
 11
40.02599999995994
 21
5.341799999994635
 31
0.0
1001
ACAD
1000
ASC_BOUNDS
1002
{
1070
    19
1005
162A8
1002
}
  0
LINE
  5
1628A
  8
0
 10
40.02599999995994
 20
5.341799999994635
 30
0.0
 11
40.02599999995994
 21
0.0
 31
0.0
1001
ACAD
1000
ASC_BOUNDS
1002
{
1070
    19
1005
162A8
1002
}
  0
LINE
  5
1628B
  8
0
 10
38.60499999996136
 20
8.999999999991019
 30
0.0
 11
38.60499999996136
 21
0.0
 31
0.0
1001
ACAD
1000
ASC_BOUNDS
1002
{
1070
    19
1005
162A8
1002
}
  0
LINE
  5
1628C
  8
0
 10
44.99999999995498
 20
8.763099999991255
 30
0.0
 11
44.99999999995498
 21
-0.2368999999997641
 31
0.0
1001
ACAD
1000
ASC_BOUNDS
1002
{
1070
    19
1005
162A8
1002
}
  0
LINE
  5
1628D
  8
0
 10
38.60499999996136
 20
0.0
 30
0.0
 11
40.02599999995994
 21
0.0
 31
0.0
1001
ACAD
1000
ASC_BOUNDS
1002
{
1070
    19
1005
162A8
1002
}
  0
LINE
  5
1628E
  8
0
 10
43.57899999995641
 20
3.421199999996588
 30
0.0
 11
38.60499999996136
 21
8.999899999990987
 31
0.0
1001
ACAD
1000
ASC_BOUNDS
1002
{
1070
    19
1005
162A8
1002
}
  0
LINE
  5
1628F
  8
0
 10
43.57899999995641
 20
8.763099999991255
 30
0.0
 11
43.57899999995641
 21
3.421199999996588
 31
0.0
1001
ACAD
1000
ASC_BOUNDS
1002
{
1070
    19
1005
162A8
1002
}
  0
LINE
  5
16290
  8
0
 10
43.57899999995641
 20
8.763099999991255
 30
0.0
 11
44.99999999995498
 21
8.763099999991255
 31
0.0
1001
ACAD
1000
ASC_BOUNDS
1002
{
1070
    19
1005
162A8
1002
}
  0
LINE
  5
16291
  8
0
 10
37.67199999996831
 20
8.763099999991255
 30
0.0
 11
36.23199999996837
 21
8.763099999991255
 31
0.0
  0
LINE
  5
16292
  8
0
 10
31.64199999996833
 20
8.763099999991255
 30
0.0
 11
31.64199999996833
 21
2.481619422925121
 31
0.0
  0
LINE
  5
16293
  8
0
 10
37.67199999996831
 20
8.763099999991255
 30
0.0
 11
37.67199999996831
 21
2.481619422925121
 31
0.0
  0
LINE
  5
16294
  8
0
 10
36.23199999996837
 20
8.763099999991255
 30
0.0
 11
36.23199999996837
 21
2.481619422925064
 31
0.0
  0
LINE
  5
16295
  8
0
 10
33.08199999996839
 20
8.763099999991255
 30
0.0
 11
33.08199999996839
 21
2.481619422925121
 31
0.0
  0
ARC
  5
16296
  8
0
 10
34.65699999996832
 20
3.183099999991214
 30
0.0
 40
3.420000000000007
 50
240.0000000000255
 51
299.9999999999766
  0
ARC
  5
16297
  8
0
 10
34.65699999996832
 20
3.183099999991214
 30
0.0
 40
1.97999999999999
 50
240.000000000026
 51
299.9999999999703
  0
LINE
  5
16298
  8
0
 10
33.08199999996828
 20
8.763099999991255
 30
0.0
 11
31.64199999996833
 21
8.763099999991255
 31
0.0
  0
ARC
  5
16299
  8
0
 10
35.06199999996829
 20
2.481619422925064
 30
0.0
 40
1.17
 50
299.9999999999699
 51
0.0
  0
ARC
  5
1629A
  8
0
 10
34.25199999996835
 20
2.481619422925121
 30
0.0
 40
1.17
 50
180.0
 51
240.0000000000238
  0
ARC
  5
1629B
  8
0
 10
35.06199999996841
 20
2.481619422925121
 30
0.0
 40
2.61
 50
299.9999999999756
 51
0.0
  0
ARC
  5
1629C
  8
0
 10
34.25199999996835
 20
2.481619422925121
 30
0.0
 40
2.61
 50
180.0
 51
240.0000000000244
  0
LINE
  5
1629D
  8
0
 10
29.30199999996933
 20
8.763099999991255
 30
0.0
 11
30.74199999996927
 21
8.763099999991255
 31
0.0
1001
ACAD
1000
ASC_BOUNDS
1002
{
1070
    19
1005
162A6
1002
}
  0
LINE
  5
1629E
  8
0
 10
30.74199999996927
 20
8.763099999991255
 30
0.0
 11
30.74199999996927
 21
2.373099999991211
 31
0.0
1001
ACAD
1000
ASC_BOUNDS
1002
{
1070
    19
1005
162A6
1002
}
  0
LINE
  5
1629F
  8
0
 10
26.02015566812236
 20
0.0330999999912365
 30
0.0
 11
28.40199999996923
 21
0.0330999999912365
 31
0.0
1001
ACAD
1000
ASC_BOUNDS
1002
{
1070
    19
1005
162A6
1002
}
  0
LINE
  5
162A0
  8
0
 10
29.30199999996933
 20
8.763099999991255
 30
0.0
 11
29.30199999996933
 21
2.283099999991236
 31
0.0
1001
ACAD
1000
ASC_BOUNDS
1002
{
1070
    19
1005
162A6
1002
}
  0
LINE
  5
162A1
  8
0
 10
26.97358892824991
 20
1.383099999991202
 30
0.0
 11
28.40199999996923
 21
1.383099999991202
 31
0.0
1001
ACAD
1000
ASC_BOUNDS
1002
{
1070
    19
1005
162A6
1002
}
  0
ARC
  5
162A2
  8
0
 10
28.40199999996923
 20
2.283099999991236
 30
0.0
 40
0.9
 50
270.0
 51
0.0
1001
ACAD
1000
ASC_BOUNDS
1002
{
1070
    19
1005
162A6
1002
}
  0
ARC
  5
162A3
  8
0
 10
28.40199999996923
 20
2.373099999991211
 30
0.0
 40
2.34
 50
270.0
 51
0.0
1001
ACAD
1000
ASC_BOUNDS
1002
{
1070
    19
1005
162A6
1002
}
  0
INSERT
  5
162A4
  8
0
  2
*X24
 10
0.0
 20
0.0
 30
0.0
1001
ACAD
1000
HATCH
1002
{
1070
    19
1000
ANSI37
1040
0.15
1040
0.0
1000
ASC_BOUNDS
1070
     2
1070
     2
1070
    12
1005
16263
1005
16264
1005
1626B
1005
1627A
1005
1627D
1005
1627B
1005
1626C
1005
16271
1005
1626F
1005
16273
1005
16272
1005
16274
1070
     2
1070
     3
1005
1627F
1005
16281
1005
16280
1000
ASC_SEEDPOINT
1011
3.614004224891801
1021
2.996669441146025
1031
0.0
1021
2.996669441146025
1031
0.0
1000
R14_HATCH_DATA
1000
162A4
1011
1.0
1021
0.0
1031
0.0
1021
0.0
1031
0.0
1011
0.0
1021
1.0
1031
0.0
1021
1.0
1031
0.0
1011
0.0
1021
0.0
1031
1.0
1021
0.0
1031
1.0
1040
0.0
1010
0.0
1020
0.0
1030
1.0
1000
ANSI37
1070
     0
1070
     1
1071
        2
1071
        7
1070
     0
1070
     1
1071
       17
1040
13.26299999998673
1040
-0.0001000000000317
1040
9.236999999990758
1040
8.999899999990987
1040
9.236999999990758
1040
8.999999999991019
1040
5.657999999994331
1040
0.9999999999989768
1040
3.181999999996833
1040
4.668599999995308
1040
6.432999999993513
1040
8.763099999991255
1040
4.617999999995391
1040
8.763099999991255
1040
1.420999999998571
1040
4.736799999995242
1040
4.617999999995391
1040
-0.0001000000000317
1040
4.617999999995391
1040
0.0
1040
6.766999999993232
1040
0.0
1040
6.766999999993232
1040
-0.0001000000000317
1040
7.826999999992154
1040
2.368399999997621
1040
10.64699999998936
1040
2.368399999997621
1040
11.70599999998831
1040
-0.0001000000000317
1040
11.70599999998831
1040
0.0
1040
13.26299999998673
1040
0.0
1071
       12
1005
16263
1005
16264
1005
1626B
1005
1627A
1005
1627D
1005
1627B
1005
1626C
1005
16271
1005
1626F
1005
16273
1005
16272
1005
16274
1071
       22
1070
     0
1070
     1
1071
        3
1040
9.236999999990758
1040
5.5200999999945
1040
10.06399999998996
1040
3.670999999996297
1040
8.409999999991555
1040
3.670999999996297
1071
        3
1005
1627F
1005
16281
1005
16280
1070
     0
1070
     1
1040
0.0
1040
0.15
1070
     0
1070
     2
1040
0.7853981633974483
1040
49.29960901727088
1040
-10.17736998311392
1040
-0.3367596045400932
1040
0.3367596045400932
1070
     0
1040
2.356194490192345
1040
49.29960901727088
1040
-10.17736998311392
1040
-0.3367596045400932
1040
-0.3367596045400932
1070
     0
1040
0.0110235143455945
1071
        2
1040
3.614004224891801
1040
2.996669441146025
1040
0.0
1040
3.614004224891801
1040
2.996669441146025
1040
0.0
1002
}
  0
INSERT
  5
162A5
  8
0
  2
*X25
 10
0.0
 20
0.0
 30
0.0
1001
ACAD
1000
HATCH
1002
{
1070
    19
1000
ANSI37
1040
0.15
1040
0.0
1000
ASC_BOUNDS
1070
     1
1070
     2
1070
    10
1005
16265
1005
16266
1005
16287
1005
16285
1005
16286
1005
16279
1005
1627E
1005
16282
1005
16268
1005
16267
1000
ASC_SEEDPOINT
1011
14.73245321214324
1021
2.798246178283421
1031
0.0
1021
2.798246178283421
1031
0.0
1000
R14_HATCH_DATA
1000
162A5
1011
1.0
1021
0.0
1031
0.0
1021
0.0
1031
0.0
1011
0.0
1021
1.0
1031
0.0
1021
1.0
1031
0.0
1011
0.0
1021
0.0
1031
1.0
1021
0.0
1031
1.0
1040
0.0
1010
0.0
1020
0.0
1030
1.0
1000
ANSI37
1070
     0
1070
     1
1071
        1
1071
        7
1070
     0
1070
     1
1071
       10
1040
16.46099999998353
1040
5.432899999994561
1040
18.59199999998134
1040
-0.2368999999997641
1040
22.38199999997767
1040
8.763099999991255
1040
20.89099999997916
1040
8.763099999991255
1040
18.59799999998143
1040
3.315799999996671
1040
16.46099999998353
1040
8.999899999990987
1040
14.32399999998563
1040
3.315799999996671
1040
12.02999999998792
1040
8.763099999991255
1040
10.53899999998941
1040
8.763099999991255
1040
14.32899999998563
1040
-0.2368999999997641
1071
       10
1005
16265
1005
16266
1005
16287
1005
16285
1005
16286
1005
16279
1005
1627E
1005
16282
1005
16268
1005
16267
1070
     0
1070
     1
1040
0.0
1040
0.15
1070
     0
1070
     2
1040
0.7853981633974483
1040
49.29960901727088
1040
-10.17736998311392
1040
-0.3367596045400932
1040
0.3367596045400932
1070
     0
1040
2.356194490192345
1040
49.29960901727088
1040
-10.17736998311392
1040
-0.3367596045400932
1040
-0.3367596045400932
1070
     0
1040
0.0110235143455945
1071
        1
1040
14.73245321214324
1040
2.798246178283421
1040
0.0
1002
}
  0
INSERT
  5
162A6
  8
0
  2
*X26
 10
0.0
 20
0.0
 30
0.0
1001
ACAD
1000
HATCH
1002
{
1070
    19
1000
ANSI37
1040
0.15
1040
0.0
1000
ASC_BOUNDS
1070
     2
1070
     2
1070
    13
1005
16269
1005
16276
1005
16277
1005
16275
1005
16278
1005
1629F
1005
162A3
1005
1629E
1005
1629D
1005
162A0
1005
162A2
1005
162A1
1005
1626A
1070
     2
1070
     3
1005
16283
1005
16288
1005
16284
1000
ASC_SEEDPOINT
1011
21.97929957367762
1021
3.294304244259308
1031
0.0
1021
3.294304244259308
1031
0.0
1000
R14_HATCH_DATA
1000
162A6
1011
1.0
1021
0.0
1031
0.0
1021
0.0
1031
0.0
1011
0.0
1021
1.0
1031
0.0
1021
1.0
1031
0.0
1011
0.0
1021
0.0
1031
1.0
1021
0.0
1031
1.0
1040
0.0
1010
0.0
1020
0.0
1030
1.0
1000
ANSI37
1070
     0
1070
     1
1071
        2
1071
        7
1070
     1
1070
     1
1071
       15
1040
23.56599999997638
1040
8.999899999990987
1040
0.0
1040
19.53899999998043
1040
-0.0001000000000317
1040
0.0
1040
19.53899999998043
1040
0.0
1040
0.0
1040
21.09599999997886
1040
0.0
1040
0.0
1040
21.09599999997886
1040
-0.0001000000000317
1040
0.0
1040
22.15599999997789
1040
2.368399999997621
1040
0.0
1040
24.97599999997499
1040
2.368399999997621
1040
0.0
1040
26.02015566812236
1040
0.0330999999912365
1040
0.0
1040
28.40199999996923
1040
0.0330999999912365
1040
0.414213562373095
1040
30.74199999996923
1040
2.373099999991211
1040
0.0
1040
30.74199999996927
1040
8.763099999991255
1040
0.0
1040
29.30199999996933
1040
8.763099999991255
1040
0.0
1040
29.30199999996933
1040
2.283099999991236
1040
-0.414213562373095
1040
28.40199999996923
1040
1.383099999991237
1040
0.0
1040
26.97358892824991
1040
1.383099999991202
1040
0.0
1071
       13
1005
16269
1005
16276
1005
16277
1005
16275
1005
16278
1005
1629F
1005
162A3
1005
1629E
1005
1629D
1005
162A0
1005
162A2
1005
162A1
1005
1626A
1071
       22
1070
     0
1070
     1
1071
        3
1040
22.7389999999773
1040
3.670999999996297
1040
23.56599999997638
1040
5.5200999999945
1040
24.39299999997559
1040
3.670999999996297
1071
        3
1005
16283
1005
16288
1005
16284
1070
     0
1070
     1
1040
0.0
1040
0.15
1070
     0
1070
     2
1040
0.7853981633974483
1040
49.29960901727088
1040
-10.17736998311392
1040
-0.3367596045400932
1040
0.3367596045400932
1070
     0
1040
2.356194490192345
1040
49.29960901727088
1040
-10.17736998311392
1040
-0.3367596045400932
1040
-0.3367596045400932
1070
     0
1040
0.0110235143455945
1071
        2
1040
21.97929957367762
1040
3.294304244259308
1040
0.0
1040
21.97929957367762
1040
3.294304244259308
1040
0.0
1002
}
  0
INSERT
  5
162A7
  8
0
  2
*X27
 10
0.0
 20
0.0
 30
0.0
1001
ACAD
1000
HATCH
1002
{
1070
    19
1000
ANSI37
1040
0.15
1040
0.0
1000
R14_HATCH_DATA
1000
162A7
1011
1.0
1021
0.0
1031
0.0
1021
0.0
1031
0.0
1011
0.0
1021
1.0
1031
0.0
1021
1.0
1031
0.0
1011
0.0
1021
0.0
1031
1.0
1021
0.0
1031
1.0
1040
0.0
1010
0.0
1020
0.0
1030
1.0
1000
ANSI37
1070
     0
1070
     1
1071
        1
1071
        7
1070
     1
1070
     1
1071
       12
1040
31.64199999996833
1040
2.481619422925121
1040
0.2679491924310942
1040
32.94699999997067
1040
0.2212931190493919
1040
0.2679491924301353
1040
36.36699999995983
1040
0.2212931190459813
1040
0.2679491924321411
1040
37.67199999996831
1040
2.481619422928361
1040
0.0
1040
37.67199999996831
1040
8.763099999991255
1040
0.0
1040
36.23199999996837
1040
8.763099999991255
1040
0.0
1040
36.23199999996837
1040
2.481619422925064
1040
-0.2679491924310291
1040
35.64699999996708
1040
1.468369700498386
1040
-0.267949192430519
1040
33.66699999997093
1040
1.468369700497703
1040
-0.267949192431809
1040
33.08199999996839
1040
2.481619422926997
1040
0.0
1040
33.08199999996839
1040
8.763099999991255
1040
0.0
1040
31.64199999996833
1040
8.763099999991255
1040
0.0
1071
        0
1070
     0
1070
     1
1040
0.0
1040
0.15
1070
     0
1070
     2
1040
0.7853981633974483
1040
49.29960901727088
1040
-10.17736998311392
1040
-0.3367596045400932
1040
0.3367596045400932
1070
     0
1040
2.356194490192345
1040
49.29960901727088
1040
-10.17736998311392
1040
-0.3367596045400932
1040
-0.3367596045400932
1070
     0
1040
0.0110235143455945
1071
        1
1040
32.30357378967278
1040
3.988785755459219
1040
0.0
1002
}
  0
INSERT
  5
162A8
  8
0
  2
*X28
 10
0.0
 20
0.0
 30
0.0
1001
ACAD
1000
HATCH
1002
{
1070
    19
1000
ANSI37
1040
0.15
1040
0.0
1000
ASC_BOUNDS
1070
     1
1070
     2
1070
     8
1005
16289
1005
1628C
1005
16290
1005
1628F
1005
1628E
1005
1628B
1005
1628D
1005
1628A
1000
ASC_SEEDPOINT
1011
39.74896370716704
1021
4.484843821435049
1031
0.0
1021
4.484843821435049
1031
0.0
1000
R14_HATCH_DATA
1000
162A8
1011
1.0
1021
0.0
1031
0.0
1021
0.0
1031
0.0
1011
0.0
1021
1.0
1031
0.0
1021
1.0
1031
0.0
1011
0.0
1021
0.0
1031
1.0
1021
0.0
1031
1.0
1040
0.0
1010
0.0
1020
0.0
1030
1.0
1000
ANSI37
1070
     0
1070
     1
1071
        1
1071
        7
1070
     0
1070
     1
1071
        9
1040
40.02599999995994
1040
5.341799999994635
1040
44.99999999995498
1040
-0.2368999999997641
1040
44.99999999995498
1040
8.763099999991255
1040
43.57899999995641
1040
8.763099999991255
1040
43.57899999995641
1040
3.421199999996588
1040
38.60499999996136
1040
8.999899999990987
1040
38.60499999996136
1040
8.999999999991019
1040
38.60499999996136
1040
0.0
1040
40.02599999995994
1040
0.0
1071
        8
1005
16289
1005
1628C
1005
16290
1005
1628F
1005
1628E
1005
1628B
1005
1628D
1005
1628A
1070
     0
1070
     1
1040
0.0
1040
0.15
1070
     0
1070
     2
1040
0.7853981633974483
1040
49.29960901727088
1040
-10.17736998311392
1040
-0.3367596045400932
1040
0.3367596045400932
1070
     0
1040
2.356194490192345
1040
49.29960901727088
1040
-10.17736998311392
1040
-0.3367596045400932
1040
-0.3367596045400932
1070
     0
1040
0.0110235143455945
1071
        1
1040
39.74896370716704
1040
4.484843821435049
1040
0.0
1002
}
  0
INSERT
  5
162A9
  8
0
  2
*X29
 10
0.0
 20
0.0
 30
0.0
1001
ACAD
1000
HATCH
1002
{
1070
    19
1000
ANSI37
1040
0.15
1040
0.0
1000
ASC_BOUNDS
1070
     1
1070
     2
1070
     4
1005
1626D
1005
1627C
1005
1626E
1005
16270
1000
ASC_SEEDPOINT
1011
1.079051535452663
1021
4.148538732891836
1031
0.0
1021
4.148538732891836
1031
0.0
1000
R14_HATCH_DATA
1000
162A9
1011
1.0
1021
0.0
1031
0.0
1021
0.0
1031
0.0
1011
0.0
1021
1.0
1031
0.0
1021
1.0
1031
0.0
1011
0.0
1021
0.0
1031
1.0
1021
0.0
1031
1.0
1040
0.0
1010
0.0
1020
0.0
1030
1.0
1000
ANSI37
1070
     0
1070
     1
1071
        1
1071
        7
1070
     0
1070
     1
1071
        4
1040
1.420999999998571
1040
0.0
1040
1.420999999998571
1040
8.763099999991255
1040
0.0
1040
8.763099999991255
1040
0.0
1040
0.0
1071
        4
1005
1626D
1005
1627C
1005
1626E
1005
16270
1070
     0
1070
     1
1040
0.0
1040
0.15
1070
     0
1070
     2
1040
0.7853981633974483
1040
49.29960901727088
1040
-10.17736998311392
1040
-0.3367596045400932
1040
0.3367596045400932
1070
     0
1040
2.356194490192345
1040
49.29960901727088
1040
-10.17736998311392
1040
-0.3367596045400932
1040
-0.3367596045400932
1070
     0
1040
0.0053004257112761
1071
        1
1040
1.079051535452663
1040
4.148538732891836
1040
0.0
1002
}
  0
ENDBLK
  5
1695E
  8
0
  0
BLOCK
  8
0
  2
*X24
 70
     1
 10
0.0
 20
0.0
 30
0.0
  3
*X24
  1

  0
LINE
  5
1736F
  8
0
  6
CONTINUOUS
 10
3.418023043697893
 20
7.251849696850613
 30
0.0
 11
4.929273346838536
 21
8.763099999991255
 31
0.0
  0
LINE
  5
17370
  8
0
  6
CONTINUOUS
 10
1.483656411257782
 20
4.643963855330318
 30
0.0
 11
5.60279255591872
 21
8.763099999991255
 31
0.0
  0
LINE
  5
17371
  8
0
  6
CONTINUOUS
 10
1.755053947328235
 20
4.241842182320584
 30
0.0
 11
6.276311764998907
 21
8.763099999991255
 31
0.0
  0
LINE
  5
17372
  8
0
  6
CONTINUOUS
 10
2.026451483398688
 20
3.839720509310849
 30
0.0
 11
4.441040904851878
 21
6.254309930764039
 31
0.0
  0
LINE
  5
17373
  8
0
  6
CONTINUOUS
 10
2.297849019469139
 20
3.437598836301114
 30
0.0
 11
3.321765168359338
 21
4.461514985191313
 31
0.0
  0
LINE
  5
17374
  8
0
  6
CONTINUOUS
 10
2.569246555539591
 20
3.03547716329138
 30
0.0
 11
3.593163397972743
 21
4.059394005724531
 31
0.0
  0
LINE
  5
17375
  8
0
  6
CONTINUOUS
 10
2.840644091610043
 20
2.633355490281646
 30
0.0
 11
3.864561627586149
 21
3.657273026257751
 31
0.0
  0
LINE
  5
17376
  8
0
  6
CONTINUOUS
 10
3.112041627680496
 20
2.231233817271911
 30
0.0
 11
4.135959857199554
 21
3.25515204679097
 31
0.0
  0
LINE
  5
17377
  8
0
  6
CONTINUOUS
 10
3.383439163750948
 20
1.829112144262177
 30
0.0
 11
4.40735808681296
 21
2.853031067324189
 31
0.0
  0
LINE
  5
17378
  8
0
  6
CONTINUOUS
 10
3.654836699821399
 20
1.426990471252442
 30
0.0
 11
4.678756316426365
 21
2.450910087857407
 31
0.0
  0
LINE
  5
17379
  8
0
  6
CONTINUOUS
 10
3.926234235891853
 20
1.024868798242709
 30
0.0
 11
4.95015454603977
 21
2.048789108390626
 31
0.0
  0
LINE
  5
1737A
  8
0
  6
CONTINUOUS
 10
4.197631771962304
 20
0.6227471252329737
 30
0.0
 11
5.221552775653176
 21
1.646668128923846
 31
0.0
  0
LINE
  5
1737B
  8
0
  6
CONTINUOUS
 10
8.715877546767851
 20
7.835069736359266
 30
0.0
 11
9.435953450375058
 21
8.555145639966472
 31
0.0
  0
LINE
  5
1737C
  8
0
  6
CONTINUOUS
 10
8.170620868422267
 20
6.616293848933497
 30
0.0
 11
9.644120833743461
 21
8.08979381425469
 31
0.0
  0
LINE
  5
1737D
  8
0
  6
CONTINUOUS
 10
7.625364190076684
 20
5.397517961507727
 30
0.0
 11
9.852288217111864
 21
7.624441988542907
 31
0.0
  0
LINE
  5
1737E
  8
0
  6
CONTINUOUS
 10
7.080107511731101
 20
4.178742074081957
 30
0.0
 11
10.06045560048027
 21
7.159090162831124
 31
0.0
  0
LINE
  5
1737F
  8
0
  6
CONTINUOUS
 10
6.534850833385518
 20
2.959966186656187
 30
0.0
 11
10.26862298384867
 21
6.693738337119342
 31
0.0
  0
LINE
  5
17380
  8
0
  6
CONTINUOUS
 10
4.469029308032756
 20
0.2206254522232385
 30
0.0
 11
5.492951005266582
 21
1.244547149457064
 31
0.0
  0
LINE
  5
17381
  8
0
  6
CONTINUOUS
 10
5.989594155039935
 20
1.741190299230417
 30
0.0
 11
8.806950407233131
 21
4.558546551423613
 31
0.0
  0
LINE
  5
17382
  8
0
  6
CONTINUOUS
 10
9.401251593263643
 20
5.152847737454126
 30
0.0
 11
10.47679036721708
 21
6.228386511407559
 31
0.0
  0
LINE
  5
17383
  8
0
  6
CONTINUOUS
 10
4.921837203428691
 20
-0.0000858614610131
 30
0.0
 11
8.592923064886001
 21
3.670999999996297
 31
0.0
  0
LINE
  5
17384
  8
0
  6
CONTINUOUS
 10
9.609390446785305
 20
4.6874673818956
 30
0.0
 11
10.68495775058548
 21
5.763034685695775
 31
0.0
  0
LINE
  5
17385
  8
0
  6
CONTINUOUS
 10
5.595387755019432
 20
-0.0000545189504582
 30
0.0
 11
7.716137258923768
 21
2.120694984953879
 31
0.0
  0
LINE
  5
17386
  8
0
  6
CONTINUOUS
 10
6.268938306610172
 20
-0.000023176439905
 30
0.0
 11
7.170485805526503
 21
0.9015243224764267
 31
0.0
  0
LINE
  5
17387
  8
0
  6
CONTINUOUS
 10
7.963842273967511
 20
2.368399999997621
 30
0.0
 11
9.266442273966188
 21
3.670999999996297
 31
0.0
  0
LINE
  5
17388
  8
0
  6
CONTINUOUS
 10
8.637361483047696
 20
2.368399999997621
 30
0.0
 11
9.939961483046375
 21
3.670999999996297
 31
0.0
  0
LINE
  5
17389
  8
0
  6
CONTINUOUS
 10
9.817529300306965
 20
4.222087026337075
 30
0.0
 11
10.89312513395388
 21
5.297682859983993
 31
0.0
  0
LINE
  5
1738A
  8
0
  6
CONTINUOUS
 10
10.02566815382863
 20
3.756706670778549
 30
0.0
 11
11.10129251732229
 21
4.832331034272211
 31
0.0
  0
LINE
  5
1738B
  8
0
  6
CONTINUOUS
 10
9.310880692127883
 20
2.368399999997621
 30
0.0
 11
11.30945990069069
 21
4.366979208560428
 31
0.0
  0
LINE
  5
1738C
  8
0
  6
CONTINUOUS
 10
9.98439990120807
 20
2.36839999999762
 30
0.0
 11
11.5176272840591
 21
3.901627382848645
 31
0.0
  0
LINE
  5
1738D
  8
0
  6
CONTINUOUS
 10
10.65037369446246
 20
2.36085458417182
 30
0.0
 11
11.7257946674275
 21
3.436275557136862
 31
0.0
  0
LINE
  5
1738E
  8
0
  6
CONTINUOUS
 10
10.85847197087848
 20
1.895433651507656
 30
0.0
 11
11.9339620507959
 21
2.97092373142508
 31
0.0
  0
LINE
  5
1738F
  8
0
  6
CONTINUOUS
 10
11.0665702472945
 20
1.430012718843491
 30
0.0
 11
12.14212943416431
 21
2.505571905713296
 31
0.0
  0
LINE
  5
17390
  8
0
  6
CONTINUOUS
 10
11.27466852371052
 20
0.9645917861793256
 30
0.0
 11
12.35029681753271
 21
2.040220080001513
 31
0.0
  0
LINE
  5
17391
  8
0
  6
CONTINUOUS
 10
11.48276680012654
 20
0.4991708535151611
 30
0.0
 11
12.55846420090111
 21
1.57486825428973
 31
0.0
  0
LINE
  5
17392
  8
0
  6
CONTINUOUS
 10
11.69086507654257
 20
0.0337499208509957
 30
0.0
 11
12.76663158426952
 21
1.109516428577947
 31
0.0
  0
LINE
  5
17393
  8
0
  6
CONTINUOUS
 10
12.33057447873954
 20
-0.0000598860322123
 30
0.0
 11
12.97479896763792
 21
0.6441646028661663
 31
0.0
  0
LINE
  5
17394
  8
0
  6
CONTINUOUS
 10
13.00413694809395
 20
-0.0000166257579952
 30
0.0
 11
13.18296635100632
 21
0.1788127771543824
 31
0.0
  0
LINE
  5
17395
  8
0
  6
CONTINUOUS
 10
4.772852165289667
 20
-0.000092794222212
 30
0.0
 11
4.296495091028902
 21
0.4762642800385528
 31
0.0
  0
LINE
  5
17396
  8
0
  6
CONTINUOUS
 10
5.446340034776103
 20
-0.0000614546284616
 30
0.0
 11
2.898195908335625
 21
2.548082671812017
 31
0.0
  0
LINE
  5
17397
  8
0
  6
CONTINUOUS
 10
6.119827904262539
 20
-0.0000301150347113
 30
0.0
 11
1.499896725642348
 21
4.61990106358548
 31
0.0
  0
LINE
  5
17398
  8
0
  6
CONTINUOUS
 10
6.775136745476159
 20
0.0181802528318542
 30
0.0
 11
5.699826040202669
 21
1.093490958105344
 31
0.0
  0
LINE
  5
17399
  8
0
  6
CONTINUOUS
 10
6.983376846288489
 20
0.4834593610997118
 30
0.0
 11
5.908008617934405
 21
1.558827589453796
 31
0.0
  0
LINE
  5
1739A
  8
0
  6
CONTINUOUS
 10
5.377063484962296
 20
1.416253513345719
 30
0.0
 11
1.702276957014131
 21
5.091040041293883
 31
0.0
  0
LINE
  5
1739B
  8
0
  6
CONTINUOUS
 10
3.978745891735324
 20
3.488090315652877
 30
0.0
 11
2.000373521109399
 21
5.466462686278803
 31
0.0
  0
LINE
  5
1739C
  8
0
  6
CONTINUOUS
 10
7.191616947100819
 20
0.948738469367568
 30
0.0
 11
6.11619119566614
 21
2.024164220802247
 31
0.0
  0
LINE
  5
1739D
  8
0
  6
CONTINUOUS
 10
7.399857047913149
 20
1.414017577635424
 30
0.0
 11
6.324373773397875
 21
2.489500852150698
 31
0.0
  0
LINE
  5
1739E
  8
0
  6
CONTINUOUS
 10
7.608097148725479
 20
1.879296685903281
 30
0.0
 11
6.53255635112961
 21
2.95483748349915
 31
0.0
  0
LINE
  5
1739F
  8
0
  6
CONTINUOUS
 10
7.816337249537808
 20
2.344575794171138
 30
0.0
 11
6.740738928861345
 21
3.420174114847601
 31
0.0
  0
LINE
  5
173A0
  8
0
  6
CONTINUOUS
 10
3.310241080789734
 20
4.830114335678653
 30
0.0
 11
2.298470085204666
 21
5.84188533126372
 31
0.0
  0
LINE
  5
173A1
  8
0
  6
CONTINUOUS
 10
3.60832983563551
 20
5.205544789913063
 30
0.0
 11
2.596566649299935
 21
6.217307976248638
 31
0.0
  0
LINE
  5
173A2
  8
0
  6
CONTINUOUS
 10
3.906418590481286
 20
5.580975244147473
 30
0.0
 11
2.894663213395203
 21
6.592730621233557
 31
0.0
  0
LINE
  5
173A3
  8
0
  6
CONTINUOUS
 10
4.204507345327062
 20
5.956405698381884
 30
0.0
 11
3.192759777490472
 21
6.968153266218474
 31
0.0
  0
LINE
  5
173A4
  8
0
  6
CONTINUOUS
 10
8.466032252791512
 20
2.368399999997621
 30
0.0
 11
6.948921506593081
 21
3.885510746196053
 31
0.0
  0
LINE
  5
173A5
  8
0
  6
CONTINUOUS
 10
9.139551461871699
 20
2.36839999999762
 30
0.0
 11
7.157104084324816
 21
4.350847377544504
 31
0.0
  0
LINE
  5
173A6
  8
0
  6
CONTINUOUS
 10
4.502596100172839
 20
6.331836152616295
 30
0.0
 11
3.49085634158574
 21
7.343575911203393
 31
0.0
  0
LINE
  5
173A7
  8
0
  6
CONTINUOUS
 10
4.800684855018615
 20
6.707266606850705
 30
0.0
 11
3.788952905681008
 21
7.718998556188312
 31
0.0
  0
LINE
  5
173A8
  8
0
  6
CONTINUOUS
 10
12.18154012887317
 20
-0.0000694579236642
 30
0.0
 11
11.32140332908496
 21
0.8600673418645499
 31
0.0
  0
LINE
  5
173A9
  8
0
  6
CONTINUOUS
 10
12.85501608323566
 20
-0.0000262032059659
 30
0.0
 11
10.77672456435345
 21
2.078265315676246
 31
0.0
  0
LINE
  5
173AA
  8
0
  6
CONTINUOUS
 10
9.813070670951886
 20
2.36839999999762
 30
0.0
 11
8.51047067095321
 21
3.670999999996297
 31
0.0
  0
LINE
  5
173AB
  8
0
  6
CONTINUOUS
 10
10.48658988003207
 20
2.36839999999762
 30
0.0
 11
9.183989880033396
 21
3.670999999996297
 31
0.0
  0
LINE
  5
173AC
  8
0
  6
CONTINUOUS
 10
8.441048632286794
 20
3.740422038662712
 30
0.0
 11
7.365286662056551
 21
4.816184008892956
 31
0.0
  0
LINE
  5
173AD
  8
0
  6
CONTINUOUS
 10
8.649187485808454
 20
4.205802394221237
 30
0.0
 11
7.573469239788285
 21
5.281520640241407
 31
0.0
  0
LINE
  5
173AE
  8
0
  6
CONTINUOUS
 10
5.098773609864391
 20
7.082697061085115
 30
0.0
 11
4.087049469776277
 21
8.09442120117323
 31
0.0
  0
LINE
  5
173AF
  8
0
  6
CONTINUOUS
 10
5.396862364710167
 20
7.458127515319526
 30
0.0
 11
4.385146033871544
 21
8.469843846158149
 31
0.0
  0
LINE
  5
173B0
  8
0
  6
CONTINUOUS
 10
13.04801363231285
 20
0.4804954567970334
 30
0.0
 11
9.85750908911358
 21
3.670999999996297
 31
0.0
  0
LINE
  5
173B1
  8
0
  6
CONTINUOUS
 10
8.857326339330116
 20
4.671182749779763
 30
0.0
 11
7.781651817520021
 21
5.746857271589858
 31
0.0
  0
LINE
  5
173B2
  8
0
  6
CONTINUOUS
 10
5.694951119555943
 20
7.833557969553937
 30
0.0
 11
4.765409089118624
 21
8.763099999991255
 31
0.0
  0
LINE
  5
173B3
  8
0
  6
CONTINUOUS
 10
12.50286117236978
 20
1.699167125820288
 30
0.0
 11
9.68611877250287
 21
4.515909525687196
 31
0.0
  0
LINE
  5
173B4
  8
0
  6
CONTINUOUS
 10
9.065465192851777
 20
5.136563105338288
 30
0.0
 11
7.989834395251757
 21
6.21219390293831
 31
0.0
  0
LINE
  5
173B5
  8
0
  6
CONTINUOUS
 10
5.993039874401719
 20
8.208988423788346
 30
0.0
 11
5.43892829819881
 21
8.763099999991255
 31
0.0
  0
LINE
  5
173B6
  8
0
  6
CONTINUOUS
 10
11.95770871242671
 20
2.917838794843543
 30
0.0
 11
8.19801697298349
 21
6.677530534286761
 31
0.0
  0
LINE
  5
173B7
  8
0
  6
CONTINUOUS
 10
6.291128629247495
 20
8.584418878022756
 30
0.0
 11
6.112447507278997
 21
8.763099999991255
 31
0.0
  0
LINE
  5
173B8
  8
0
  6
CONTINUOUS
 10
11.41255625248364
 20
4.136510463866797
 30
0.0
 11
8.406199550715227
 21
7.142867165635211
 31
0.0
  0
LINE
  5
173B9
  8
0
  6
CONTINUOUS
 10
10.86740379254057
 20
5.355182132890051
 30
0.0
 11
8.614382128446962
 21
7.608203796983664
 31
0.0
  0
LINE
  5
173BA
  8
0
  6
CONTINUOUS
 10
10.3222513325975
 20
6.573853801913305
 30
0.0
 11
8.822564706178696
 21
8.073540428332114
 31
0.0
  0
LINE
  5
173BB
  8
0
  6
CONTINUOUS
 10
9.777098872654436
 20
7.792525470936562
 30
0.0
 11
9.030747283910433
 21
8.538877059680566
 31
0.0
  0
ENDBLK
  5
174FD
  8
0
  0
BLOCK
  8
0
  2
*X25
 70
     1
 10
0.0
 20
0.0
 30
0.0
  3
*X25
  1

  0
LINE
  5
173BD
  8
0
  6
CONTINUOUS
 10
10.67292308101235
 20
8.445076852443387
 30
0.0
 11
10.99094622856022
 21
8.763099999991255
 31
0.0
  0
LINE
  5
173BE
  8
0
  6
CONTINUOUS
 10
10.87250383178748
 20
7.971138394138331
 30
0.0
 11
11.6644654376404
 21
8.763099999991255
 31
0.0
  0
LINE
  5
173BF
  8
0
  6
CONTINUOUS
 10
11.07208458256261
 20
7.497199935833273
 30
0.0
 11
12.12126590876355
 21
8.546381262034211
 31
0.0
  0
LINE
  5
173C0
  8
0
  6
CONTINUOUS
 10
11.27166533333774
 20
7.023261477528216
 30
0.0
 11
12.32085164573666
 21
8.072447789927136
 31
0.0
  0
LINE
  5
173C1
  8
0
  6
CONTINUOUS
 10
11.47124608411287
 20
6.549323019223158
 30
0.0
 11
12.52043738270977
 21
7.59851431782006
 31
0.0
  0
LINE
  5
173C2
  8
0
  6
CONTINUOUS
 10
11.670826834888
 20
6.075384560918101
 30
0.0
 11
12.72002311968288
 21
7.124580845712984
 31
0.0
  0
LINE
  5
173C3
  8
0
  6
CONTINUOUS
 10
11.87040758566313
 20
5.601446102613043
 30
0.0
 11
12.91960885665599
 21
6.650647373605907
 31
0.0
  0
LINE
  5
173C4
  8
0
  6
CONTINUOUS
 10
12.06998833643825
 20
5.127507644307986
 30
0.0
 11
13.1191945936291
 21
6.176713901498832
 31
0.0
  0
LINE
  5
173C5
  8
0
  6
CONTINUOUS
 10
12.26956908721338
 20
4.65356918600293
 30
0.0
 11
13.31878033060221
 21
5.702780429391757
 31
0.0
  0
LINE
  5
173C6
  8
0
  6
CONTINUOUS
 10
12.46914983798851
 20
4.179630727697873
 30
0.0
 11
13.51836606757532
 21
5.228846957284683
 31
0.0
  0
LINE
  5
173C7
  8
0
  6
CONTINUOUS
 10
12.66873058876364
 20
3.705692269392816
 30
0.0
 11
13.71795180454843
 21
4.754913485177607
 31
0.0
  0
LINE
  5
173C8
  8
0
  6
CONTINUOUS
 10
12.86831133953877
 20
3.231753811087759
 30
0.0
 11
13.91753754152154
 21
4.280980013070531
 31
0.0
  0
LINE
  5
173C9
  8
0
  6
CONTINUOUS
 10
13.0678920903139
 20
2.757815352782702
 30
0.0
 11
14.11712327849465
 21
3.807046540963456
 31
0.0
  0
LINE
  5
173CA
  8
0
  6
CONTINUOUS
 10
13.26747284108903
 20
2.283876894477644
 30
0.0
 11
14.31670901546777
 21
3.333113068856379
 31
0.0
  0
LINE
  5
173CB
  8
0
  6
CONTINUOUS
 10
16.36767838827179
 20
8.751678487061342
 30
0.0
 11
16.50332410898388
 21
8.887324207773432
 31
0.0
  0
LINE
  5
173CC
  8
0
  6
CONTINUOUS
 10
15.96190732182191
 20
7.67238821153127
 30
0.0
 11
16.68735328004734
 21
8.397834169756699
 31
0.0
  0
LINE
  5
173CD
  8
0
  6
CONTINUOUS
 10
15.55613625537202
 20
6.593097936001196
 30
0.0
 11
16.87138245111079
 21
7.908344131739965
 31
0.0
  0
LINE
  5
173CE
  8
0
  6
CONTINUOUS
 10
15.15036518892213
 20
5.513807660471122
 30
0.0
 11
17.05541162217424
 21
7.418854093723231
 31
0.0
  0
LINE
  5
173CF
  8
0
  6
CONTINUOUS
 10
14.74459412247225
 20
4.434517384941048
 30
0.0
 11
17.2394407932377
 21
6.929364055706499
 31
0.0
  0
LINE
  5
173D0
  8
0
  6
CONTINUOUS
 10
14.33882305602236
 20
3.355227109410975
 30
0.0
 11
17.42346996430115
 21
6.439874017689766
 31
0.0
  0
LINE
  5
173D1
  8
0
  6
CONTINUOUS
 10
13.46705359186416
 20
1.809938436172586
 30
0.0
 11
16.0819338255367
 21
4.424818669845129
 31
0.0
  0
LINE
  5
173D2
  8
0
  6
CONTINUOUS
 10
16.63283254238972
 20
4.975717386698149
 30
0.0
 11
17.60749913536461
 21
5.950383979673033
 31
0.0
  0
LINE
  5
173D3
  8
0
  6
CONTINUOUS
 10
13.66663434263929
 20
1.335999977867529
 30
0.0
 11
15.67604797733754
 21
3.345413612565779
 31
0.0
  0
LINE
  5
173D4
  8
0
  6
CONTINUOUS
 10
13.86621509341442
 20
0.8620615195624723
 30
0.0
 11
15.27016212913838
 21
2.26600855528643
 31
0.0
  0
LINE
  5
173D5
  8
0
  6
CONTINUOUS
 10
16.81682257348267
 20
4.486188208710908
 30
0.0
 11
17.79152830642806
 21
5.460893941656299
 31
0.0
  0
LINE
  5
173D6
  8
0
  6
CONTINUOUS
 10
17.00081260457561
 20
3.996659030723667
 30
0.0
 11
17.97555747749151
 21
4.971403903639565
 31
0.0
  0
LINE
  5
173D7
  8
0
  6
CONTINUOUS
 10
20.74362343514722
 20
8.412989070375462
 30
0.0
 11
21.09373436476302
 21
8.763099999991256
 31
0.0
  0
LINE
  5
173D8
  8
0
  6
CONTINUOUS
 10
20.25401257174777
 20
7.249858997895826
 30
0.0
 11
21.7672535738432
 21
8.763099999991255
 31
0.0
  0
LINE
  5
173D9
  8
0
  6
CONTINUOUS
 10
14.06579584418955
 20
0.3881230612574149
 30
0.0
 11
14.86427628093921
 21
1.186603498007082
 31
0.0
  0
LINE
  5
173DA
  8
0
  6
CONTINUOUS
 10
14.26537659496467
 20
-0.0858153970476412
 30
0.0
 11
14.45839043274005
 21
0.1071984407277329
 31
0.0
  0
LINE
  5
173DB
  8
0
  6
CONTINUOUS
 10
17.18480263566856
 20
3.507129852736426
 30
0.0
 11
18.15958664855496
 21
4.481913865622833
 31
0.0
  0
LINE
  5
173DC
  8
0
  6
CONTINUOUS
 10
17.3687926667615
 20
3.017600674749186
 30
0.0
 11
18.34361581961842
 21
3.9924238276061
 31
0.0
  0
LINE
  5
173DD
  8
0
  6
CONTINUOUS
 10
19.76440170834832
 20
6.086728925416191
 30
0.0
 11
22.33924590259489
 21
8.661573119662755
 31
0.0
  0
LINE
  5
173DE
  8
0
  6
CONTINUOUS
 10
19.27479084494887
 20
4.923598852936555
 30
0.0
 11
21.84929622842713
 21
7.498104236414807
 31
0.0
  0
LINE
  5
173DF
  8
0
  6
CONTINUOUS
 10
17.55278269785445
 20
2.528071496761945
 30
0.0
 11
18.52764499068187
 21
3.502933789589366
 31
0.0
  0
LINE
  5
173E0
  8
0
  6
CONTINUOUS
 10
18.78517998154942
 20
3.760468780456919
 30
0.0
 11
21.35934655425936
 21
6.33463535316686
 31
0.0
  0
LINE
  5
173E1
  8
0
  6
CONTINUOUS
 10
17.73677272894739
 20
2.038542318774704
 30
0.0
 11
20.8693968800916
 21
5.171166469918914
 31
0.0
  0
LINE
  5
173E2
  8
0
  6
CONTINUOUS
 10
17.92076276004034
 20
1.549013140787464
 30
0.0
 11
20.37944720592384
 21
4.007697586670968
 31
0.0
  0
LINE
  5
173E3
  8
0
  6
CONTINUOUS
 10
18.10475279113329
 20
1.059483962800223
 30
0.0
 11
19.88949753175608
 21
2.84422870342302
 31
0.0
  0
LINE
  5
173E4
  8
0
  6
CONTINUOUS
 10
18.28874282222623
 20
0.5699547848129822
 30
0.0
 11
19.39954785758832
 21
1.680759820175074
 31
0.0
  0
LINE
  5
173E5
  8
0
  6
CONTINUOUS
 10
18.47273285331918
 20
0.0804256068257416
 30
0.0
 11
18.90959818342056
 21
0.517290936927127
 31
0.0
  0
LINE
  5
173E6
  8
0
  6
CONTINUOUS
 10
14.3590401358224
 20
-0.1570118376323384
 30
0.0
 11
14.24903296539946
 21
-0.0470046672093929
 31
0.0
  0
LINE
  5
173E7
  8
0
  6
CONTINUOUS
 10
14.54309291258661
 20
0.332454594683643
 30
0.0
 11
13.75908329123172
 21
1.116464216038529
 31
0.0
  0
LINE
  5
173E8
  8
0
  6
CONTINUOUS
 10
14.72714568935081
 20
0.8219210269996244
 30
0.0
 11
13.26913361706399
 21
2.27993309928645
 31
0.0
  0
LINE
  5
173E9
  8
0
  6
CONTINUOUS
 10
14.91119846611502
 20
1.311387459315606
 30
0.0
 11
12.77918394289625
 21
3.443401982534371
 31
0.0
  0
LINE
  5
173EA
  8
0
  6
CONTINUOUS
 10
15.09525124287922
 20
1.800853891631587
 30
0.0
 11
12.28923426872852
 21
4.606870865782293
 31
0.0
  0
LINE
  5
173EB
  8
0
  6
CONTINUOUS
 10
15.27930401964343
 20
2.290320323947569
 30
0.0
 11
11.79928459456078
 21
5.770339749030213
 31
0.0
  0
LINE
  5
173EC
  8
0
  6
CONTINUOUS
 10
15.46335679640763
 20
2.77978675626355
 30
0.0
 11
14.48885470994921
 21
3.754288842721972
 31
0.0
  0
LINE
  5
173ED
  8
0
  6
CONTINUOUS
 10
13.88507249233704
 20
4.358071060334137
 30
0.0
 11
11.30933492039305
 21
6.933808632278135
 31
0.0
  0
LINE
  5
173EE
  8
0
  6
CONTINUOUS
 10
18.75840522805855
 20
0.1582575336928151
 30
0.0
 11
18.25383727664818
 21
0.6628254851031863
 31
0.0
  0
LINE
  5
173EF
  8
0
  6
CONTINUOUS
 10
15.64740957317184
 20
3.269253188579531
 30
0.0
 11
14.67288388101266
 21
4.243778880738705
 31
0.0
  0
LINE
  5
173F0
  8
0
  6
CONTINUOUS
 10
13.39509276772158
 20
5.521569994029786
 30
0.0
 11
10.81938524622531
 21
8.097277515526056
 31
0.0
  0
LINE
  5
173F1
  8
0
  6
CONTINUOUS
 10
18.95798597883369
 20
0.6321959919978686
 30
0.0
 11
17.84825644852853
 21
1.741925522303024
 31
0.0
  0
LINE
  5
173F2
  8
0
  6
CONTINUOUS
 10
19.15756672960882
 20
1.106134450302922
 30
0.0
 11
17.44267562040888
 21
2.821025559502861
 31
0.0
  0
LINE
  5
173F3
  8
0
  6
CONTINUOUS
 10
15.83146234993604
 20
3.758719620895513
 30
0.0
 11
14.85691305207612
 21
4.733268918755439
 31
0.0
  0
LINE
  5
173F4
  8
0
  6
CONTINUOUS
 10
16.01551512670025
 20
4.248186053211494
 30
0.0
 11
15.04094222313957
 21
5.222758956772172
 31
0.0
  0
LINE
  5
173F5
  8
0
  6
CONTINUOUS
 10
12.90511304310612
 20
6.685068927725435
 30
0.0
 11
10.8270819708403
 21
8.763099999991255
 31
0.0
  0
LINE
  5
173F6
  8
0
  6
CONTINUOUS
 10
12.41513331849066
 20
7.848567861421083
 30
0.0
 11
11.50060117992049
 21
8.763099999991255
 31
0.0
  0
LINE
  5
173F7
  8
0
  6
CONTINUOUS
 10
19.35714748038395
 20
1.580072908607975
 30
0.0
 11
17.03709479228923
 21
3.900125596702697
 31
0.0
  0
LINE
  5
173F8
  8
0
  6
CONTINUOUS
 10
19.55672823115909
 20
2.054011366913028
 30
0.0
 11
16.63151396416958
 21
4.979225633902534
 31
0.0
  0
LINE
  5
173F9
  8
0
  6
CONTINUOUS
 10
16.19956790346445
 20
4.737652485527476
 30
0.0
 11
15.22497139420302
 21
5.712248994788904
 31
0.0
  0
LINE
  5
173FA
  8
0
  6
CONTINUOUS
 10
16.38362068022866
 20
5.227118917843457
 30
0.0
 11
15.40900056526648
 21
6.201739032805637
 31
0.0
  0
LINE
  5
173FB
  8
0
  6
CONTINUOUS
 10
19.75630898193422
 20
2.527949825218081
 30
0.0
 11
18.70774536448286
 21
3.576513442669441
 31
0.0
  0
LINE
  5
173FC
  8
0
  6
CONTINUOUS
 10
19.95588973270936
 20
3.001888283523134
 30
0.0
 11
18.90726987211446
 21
4.050508144118028
 31
0.0
  0
LINE
  5
173FD
  8
0
  6
CONTINUOUS
 10
20.15547048348449
 20
3.475826741828186
 30
0.0
 11
19.10679437974606
 21
4.524502845566614
 31
0.0
  0
LINE
  5
173FE
  8
0
  6
CONTINUOUS
 10
20.35505123425962
 20
3.94976520013324
 30
0.0
 11
19.30631888737766
 21
4.998497547015201
 31
0.0
  0
LINE
  5
173FF
  8
0
  6
CONTINUOUS
 10
20.55463198503475
 20
4.423703658438292
 30
0.0
 11
19.50584339500926
 21
5.472492248463787
 31
0.0
  0
LINE
  5
17400
  8
0
  6
CONTINUOUS
 10
18.37481191085755
 20
3.909446896294752
 30
0.0
 11
15.59302973632993
 21
6.691229070822371
 31
0.0
  0
LINE
  5
17401
  8
0
  6
CONTINUOUS
 10
17.96904084440766
 20
4.988737171824825
 30
0.0
 11
15.77705890739338
 21
7.180719108839104
 31
0.0
  0
LINE
  5
17402
  8
0
  6
CONTINUOUS
 10
17.56326977795777
 20
6.068027447354899
 30
0.0
 11
15.96108807845684
 21
7.670209146855838
 31
0.0
  0
LINE
  5
17403
  8
0
  6
CONTINUOUS
 10
17.15749871150789
 20
7.147317722884972
 30
0.0
 11
16.14511724952029
 21
8.15969918487257
 31
0.0
  0
LINE
  5
17404
  8
0
  6
CONTINUOUS
 10
16.751727645058
 20
8.226607998415046
 30
0.0
 11
16.32914642058374
 21
8.649189222889303
 31
0.0
  0
LINE
  5
17405
  8
0
  6
CONTINUOUS
 10
20.75421273580989
 20
4.897642116743345
 30
0.0
 11
19.70536790264086
 21
5.946486949912374
 31
0.0
  0
LINE
  5
17406
  8
0
  6
CONTINUOUS
 10
20.95379348658502
 20
5.371580575048398
 30
0.0
 11
19.90489241027246
 21
6.42048165136096
 31
0.0
  0
LINE
  5
17407
  8
0
  6
CONTINUOUS
 10
21.15337423736015
 20
5.845519033353452
 30
0.0
 11
20.10441691790406
 21
6.894476352809547
 31
0.0
  0
LINE
  5
17408
  8
0
  6
CONTINUOUS
 10
21.35295498813529
 20
6.319457491658505
 30
0.0
 11
20.30394142553566
 21
7.368471054258134
 31
0.0
  0
LINE
  5
17409
  8
0
  6
CONTINUOUS
 10
21.55253573891042
 20
6.793395949963558
 30
0.0
 11
20.50346593316726
 21
7.842465755706721
 31
0.0
  0
LINE
  5
1740A
  8
0
  6
CONTINUOUS
 10
21.75211648968556
 20
7.267334408268612
 30
0.0
 11
20.70299044079886
 21
8.316460457155308
 31
0.0
  0
LINE
  5
1740B
  8
0
  6
CONTINUOUS
 10
21.95169724046069
 20
7.741272866573663
 30
0.0
 11
20.9298701070431
 21
8.763099999991256
 31
0.0
  0
LINE
  5
1740C
  8
0
  6
CONTINUOUS
 10
22.15127799123582
 20
8.215211324878716
 30
0.0
 11
21.60338931612328
 21
8.763099999991256
 31
0.0
  0
LINE
  5
1740D
  8
0
  6
CONTINUOUS
 10
22.35085874201096
 20
8.689149783183769
 30
0.0
 11
22.27690852520347
 21
8.763099999991255
 31
0.0
  0
ENDBLK
  5
174FF
  8
0
  0
BLOCK
  8
0
  2
*X26
 70
     1
 10
0.0
 20
0.0
 30
0.0
  3
*X26
  1

  0
LINE
  5
1740F
  8
0
  6
CONTINUOUS
 10
23.19462913593892
 20
8.169917934846424
 30
0.0
 11
23.70775465517246
 21
8.683043454079957
 31
0.0
  0
LINE
  5
17410
  8
0
  6
CONTINUOUS
 10
22.64923161835078
 20
6.951001208178088
 30
0.0
 11
23.9159364069932
 21
8.217705996820516
 31
0.0
  0
LINE
  5
17411
  8
0
  6
CONTINUOUS
 10
22.10383410076263
 20
5.732084481509751
 30
0.0
 11
24.12411815881395
 21
7.752368539561078
 31
0.0
  0
LINE
  5
17412
  8
0
  6
CONTINUOUS
 10
21.55843658317447
 20
4.513167754841414
 30
0.0
 11
24.3322999106347
 21
7.287031082301639
 31
0.0
  0
LINE
  5
17413
  8
0
  6
CONTINUOUS
 10
21.01303906558632
 20
3.294251028173077
 30
0.0
 11
24.54048166245544
 21
6.821693625042199
 31
0.0
  0
LINE
  5
17414
  8
0
  6
CONTINUOUS
 10
20.46764154799817
 20
2.075334301504738
 30
0.0
 11
23.28571549467848
 21
4.89340824818505
 31
0.0
  0
LINE
  5
17415
  8
0
  6
CONTINUOUS
 10
19.92224403041002
 20
0.8564175748364002
 30
0.0
 11
22.74075865492779
 21
3.674932199354171
 31
0.0
  0
LINE
  5
17416
  8
0
  6
CONTINUOUS
 10
23.67305085490148
 20
5.280743608408048
 30
0.0
 11
24.74866341427619
 21
6.356356167782759
 31
0.0
  0
LINE
  5
17417
  8
0
  6
CONTINUOUS
 10
23.88118970842314
 20
4.815363252849522
 30
0.0
 11
24.95684516609694
 21
5.89101871052332
 31
0.0
  0
LINE
  5
17418
  8
0
  6
CONTINUOUS
 10
19.73925852647308
 20
-0.0000871381807288
 30
0.0
 11
23.4103456646501
 21
3.670999999996297
 31
0.0
  0
LINE
  5
17419
  8
0
  6
CONTINUOUS
 10
24.0893285619448
 20
4.349982897290997
 30
0.0
 11
25.16502691791769
 21
5.42568125326388
 31
0.0
  0
LINE
  5
1741A
  8
0
  6
CONTINUOUS
 10
20.41282099582748
 20
-0.0000438779065108
 30
0.0
 11
21.64944178675636
 21
1.236576913022366
 31
0.0
  0
LINE
  5
1741B
  8
0
  6
CONTINUOUS
 10
22.78126487373161
 20
2.36839999999762
 30
0.0
 11
24.08386487373029
 21
3.670999999996297
 31
0.0
  0
LINE
  5
1741C
  8
0
  6
CONTINUOUS
 10
24.29746741546646
 20
3.884602541732471
 30
0.0
 11
25.37320866973843
 21
4.960343796004441
 31
0.0
  0
LINE
  5
1741D
  8
0
  6
CONTINUOUS
 10
21.08638346518189
 20
-0.0000006176322938
 30
0.0
 11
21.10379033335899
 21
0.0174062505448083
 31
0.0
  0
LINE
  5
1741E
  8
0
  6
CONTINUOUS
 10
23.4547840828118
 20
2.36839999999762
 30
0.0
 11
25.58139042155918
 21
4.495006338745002
 31
0.0
  0
LINE
  5
1741F
  8
0
  6
CONTINUOUS
 10
29.30199999996933
 20
8.215615917155148
 30
0.0
 11
29.84948408280543
 21
8.763099999991255
 31
0.0
  0
LINE
  5
17420
  8
0
  6
CONTINUOUS
 10
24.12830329189199
 20
2.36839999999762
 30
0.0
 11
25.78957217337993
 21
4.029668881485562
 31
0.0
  0
LINE
  5
17421
  8
0
  6
CONTINUOUS
 10
29.30199999996933
 20
7.54209670807496
 30
0.0
 11
30.52300329188562
 21
8.763099999991255
 31
0.0
  0
LINE
  5
17422
  8
0
  6
CONTINUOUS
 10
24.80182250097217
 20
2.36839999999762
 30
0.0
 11
25.99775392520067
 21
3.564331424226122
 31
0.0
  0
LINE
  5
17423
  8
0
  6
CONTINUOUS
 10
29.30199999996933
 20
6.868577498994774
 30
0.0
 11
30.74199999996926
 21
8.308577498994712
 31
0.0
  0
LINE
  5
17424
  8
0
  6
CONTINUOUS
 10
25.13028238392013
 20
2.023340673865392
 30
0.0
 11
26.20593567702142
 21
3.098993966966683
 31
0.0
  0
LINE
  5
17425
  8
0
  6
CONTINUOUS
 10
25.33838066033617
 20
1.557919741201244
 30
0.0
 11
26.41411742884217
 21
2.633656509707244
 31
0.0
  0
LINE
  5
17426
  8
0
  6
CONTINUOUS
 10
25.54647893675221
 20
1.092498808537098
 30
0.0
 11
26.62229918066291
 21
2.168319052447804
 31
0.0
  0
LINE
  5
17427
  8
0
  6
CONTINUOUS
 10
25.75457721316825
 20
0.62707787587295
 30
0.0
 11
26.83048093248366
 21
1.702981595188365
 31
0.0
  0
LINE
  5
17428
  8
0
  6
CONTINUOUS
 10
29.30199999996933
 20
6.195058289914587
 30
0.0
 11
30.74199999996926
 21
7.635058289914522
 31
0.0
  0
LINE
  5
17429
  8
0
  6
CONTINUOUS
 10
29.30199999996933
 20
5.521539080834401
 30
0.0
 11
30.74199999996926
 21
6.961539080834331
 31
0.0
  0
LINE
  5
1742A
  8
0
  6
CONTINUOUS
 10
29.30199999996933
 20
4.848019871754214
 30
0.0
 11
30.74199999996925
 21
6.288019871754143
 31
0.0
  0
LINE
  5
1742B
  8
0
  6
CONTINUOUS
 10
29.30199999996933
 20
4.174500662674028
 30
0.0
 11
30.74199999996925
 21
5.614500662673953
 31
0.0
  0
LINE
  5
1742C
  8
0
  6
CONTINUOUS
 10
25.96267548958429
 20
0.1616569432088024
 30
0.0
 11
27.18411854636669
 21
1.383099999991207
 31
0.0
  0
LINE
  5
1742D
  8
0
  6
CONTINUOUS
 10
29.30199999996933
 20
3.500981453593841
 30
0.0
 11
30.74199999996925
 21
4.940981453593762
 31
0.0
  0
LINE
  5
1742E
  8
0
  6
CONTINUOUS
 10
26.50763775544691
 20
0.0330999999912356
 30
0.0
 11
27.85763775544689
 21
1.383099999991223
 31
0.0
  0
LINE
  5
1742F
  8
0
  6
CONTINUOUS
 10
29.30199999996933
 20
2.827462244513656
 30
0.0
 11
30.74199999996925
 21
4.267462244513574
 31
0.0
  0
LINE
  5
17430
  8
0
  6
CONTINUOUS
 10
27.18115696452709
 20
0.0330999999912356
 30
0.0
 11
28.6224847300034
 21
1.474427765467545
 31
0.0
  0
LINE
  5
17431
  8
0
  6
CONTINUOUS
 10
29.21067223449293
 20
2.062615269957069
 30
0.0
 11
30.74199999996924
 21
3.593943035433383
 31
0.0
  0
LINE
  5
17432
  8
0
  6
CONTINUOUS
 10
27.85467617360728
 20
0.0330999999912356
 30
0.0
 11
30.74199999996924
 21
2.920423826353195
 31
0.0
  0
LINE
  5
17433
  8
0
  6
CONTINUOUS
 10
28.57438609860264
 20
0.0792907159064073
 30
0.0
 11
30.69580928405405
 21
2.200713901357819
 31
0.0
  0
LINE
  5
17434
  8
0
  6
CONTINUOUS
 10
29.49443044814297
 20
0.3258158563665496
 30
0.0
 11
30.44928414359389
 21
1.280669551817477
 31
0.0
  0
LINE
  5
17435
  8
0
  6
CONTINUOUS
 10
19.59027867740337
 20
-0.0000967065718083
 30
0.0
 11
19.55485265190471
 21
0.035329318926844
 31
0.0
  0
LINE
  5
17436
  8
0
  6
CONTINUOUS
 10
20.26375463176586
 20
-0.0000534518541091
 30
0.0
 11
19.76305575737534
 21
0.5006454225364014
 31
0.0
  0
LINE
  5
17437
  8
0
  6
CONTINUOUS
 10
20.93723058612834
 20
-0.0000101971364099
 30
0.0
 11
19.97125886284597
 21
0.965961526145958
 31
0.0
  0
LINE
  5
17438
  8
0
  6
CONTINUOUS
 10
21.25514828313686
 20
0.355591314935257
 30
0.0
 11
20.1794619683166
 21
1.431277629755512
 31
0.0
  0
LINE
  5
17439
  8
0
  6
CONTINUOUS
 10
21.46338838394921
 20
0.8208704232030986
 30
0.0
 11
20.38766507378723
 21
1.896593733365069
 31
0.0
  0
LINE
  5
1743A
  8
0
  6
CONTINUOUS
 10
21.67162848476155
 20
1.28614953147094
 30
0.0
 11
20.59586817925786
 21
2.361909836974626
 31
0.0
  0
LINE
  5
1743B
  8
0
  6
CONTINUOUS
 10
21.8798685855739
 20
1.751428639738782
 30
0.0
 11
20.80407128472849
 21
2.827225940584183
 31
0.0
  0
LINE
  5
1743C
  8
0
  6
CONTINUOUS
 10
22.08810868638624
 20
2.216707748006623
 30
0.0
 11
21.01227439019912
 21
3.292542044193739
 31
0.0
  0
LINE
  5
1743D
  8
0
  6
CONTINUOUS
 10
22.60993564347543
 20
2.36839999999762
 30
0.0
 11
21.22047749566975
 21
3.757858147803296
 31
0.0
  0
LINE
  5
1743E
  8
0
  6
CONTINUOUS
 10
23.28345485255561
 20
2.36839999999762
 30
0.0
 11
21.42868060114038
 21
4.223174251412853
 31
0.0
  0
LINE
  5
1743F
  8
0
  6
CONTINUOUS
 10
26.29227406164219
 20
0.0330999999912356
 30
0.0
 11
25.80009199592872
 21
0.5252820657046957
 31
0.0
  0
LINE
  5
17440
  8
0
  6
CONTINUOUS
 10
23.9569740616358
 20
2.36839999999762
 30
0.0
 11
21.63688370661101
 21
4.688490355022409
 31
0.0
  0
LINE
  5
17441
  8
0
  6
CONTINUOUS
 10
26.96579327072237
 20
0.0330999999912356
 30
0.0
 11
25.2554132311971
 21
1.743480039516508
 31
0.0
  0
LINE
  5
17442
  8
0
  6
CONTINUOUS
 10
24.63049327071599
 20
2.36839999999762
 30
0.0
 11
23.32789327071731
 21
3.670999999996297
 31
0.0
  0
LINE
  5
17443
  8
0
  6
CONTINUOUS
 10
22.92098674744635
 20
4.077906523267254
 30
0.0
 11
21.84508681208164
 21
5.153806458631966
 31
0.0
  0
LINE
  5
17444
  8
0
  6
CONTINUOUS
 10
27.63931247980256
 20
0.0330999999912356
 30
0.0
 11
24.0014124797975
 21
3.670999999996297
 31
0.0
  0
LINE
  5
17445
  8
0
  6
CONTINUOUS
 10
23.129125600968
 20
4.5432868788258
 30
0.0
 11
22.05328991755227
 21
5.619122562241522
 31
0.0
  0
LINE
  5
17446
  8
0
  6
CONTINUOUS
 10
28.31283168888275
 20
0.0330999999912356
 30
0.0
 11
24.16488385994816
 21
4.181047828925828
 31
0.0
  0
LINE
  5
17447
  8
0
  6
CONTINUOUS
 10
23.33726445448964
 20
5.008667234384345
 30
0.0
 11
22.2614930230229
 21
6.084438665851079
 31
0.0
  0
LINE
  5
17448
  8
0
  6
CONTINUOUS
 10
28.86286302309502
 20
0.1565878748591523
 30
0.0
 11
27.63635089796295
 21
1.383099999991217
 31
0.0
  0
LINE
  5
17449
  8
0
  6
CONTINUOUS
 10
26.43704649509776
 20
2.582404402856405
 30
0.0
 11
23.61992702019732
 21
5.399523877756844
 31
0.0
  0
LINE
  5
1744A
  8
0
  6
CONTINUOUS
 10
23.54540330801128
 20
5.47404758994289
 30
0.0
 11
22.46969612849353
 21
6.549754769460635
 31
0.0
  0
LINE
  5
1744B
  8
0
  6
CONTINUOUS
 10
29.39405087596853
 20
0.2989192310658284
 30
0.0
 11
28.30987010704312
 21
1.383099999991234
 31
0.0
  0
LINE
  5
1744C
  8
0
  6
CONTINUOUS
 10
25.89179548232307
 20
3.801174624711282
 30
0.0
 11
22.67789923396416
 21
7.015070873070191
 31
0.0
  0
LINE
  5
1744D
  8
0
  6
CONTINUOUS
 10
29.79594438047407
 20
0.570544935640473
 30
0.0
 11
28.81310432793121
 21
1.553384988183336
 31
0.0
  0
LINE
  5
1744E
  8
0
  6
CONTINUOUS
 10
25.34654446954838
 20
5.01994484656616
 30
0.0
 11
22.88610233943479
 21
7.480386976679748
 31
0.0
  0
LINE
  5
1744F
  8
0
  6
CONTINUOUS
 10
30.13270398501416
 20
0.9073045401805646
 30
0.0
 11
29.14234640337737
 21
1.897662121817355
 31
0.0
  0
LINE
  5
17450
  8
0
  6
CONTINUOUS
 10
24.80129345677369
 20
6.238715068421037
 30
0.0
 11
23.09430544490542
 21
7.945703080289305
 31
0.0
  0
LINE
  5
17451
  8
0
  6
CONTINUOUS
 10
30.44581292956759
 20
1.26771480470732
 30
0.0
 11
29.30199999996933
 21
2.411527734305588
 31
0.0
  0
LINE
  5
17452
  8
0
  6
CONTINUOUS
 10
30.58814428577427
 20
1.798902657580827
 30
0.0
 11
29.30199999996933
 21
3.085046943385775
 31
0.0
  0
LINE
  5
17453
  8
0
  6
CONTINUOUS
 10
24.256042443999
 20
7.457485290275915
 30
0.0
 11
23.30250855037605
 21
8.411019183898862
 31
0.0
  0
LINE
  5
17454
  8
0
  6
CONTINUOUS
 10
23.71079143122431
 20
8.676255512130794
 30
0.0
 11
23.51071165584668
 21
8.876335287508418
 31
0.0
  0
LINE
  5
17455
  8
0
  6
CONTINUOUS
 10
30.73047564198095
 20
2.330090510454333
 30
0.0
 11
29.30199999996933
 21
3.758566152465961
 31
0.0
  0
LINE
  5
17456
  8
0
  6
CONTINUOUS
 10
30.74199999996924
 20
2.992085361546236
 30
0.0
 11
29.30199999996933
 21
4.432085361546148
 31
0.0
  0
LINE
  5
17457
  8
0
  6
CONTINUOUS
 10
30.74199999996924
 20
3.665604570626419
 30
0.0
 11
29.30199999996933
 21
5.105604570626333
 31
0.0
  0
LINE
  5
17458
  8
0
  6
CONTINUOUS
 10
30.74199999996925
 20
4.339123779706602
 30
0.0
 11
29.30199999996933
 21
5.77912377970652
 31
0.0
  0
LINE
  5
17459
  8
0
  6
CONTINUOUS
 10
30.74199999996925
 20
5.012642988786785
 30
0.0
 11
29.30199999996933
 21
6.452642988786707
 31
0.0
  0
LINE
  5
1745A
  8
0
  6
CONTINUOUS
 10
30.74199999996925
 20
5.68616219786697
 30
0.0
 11
29.30199999996933
 21
7.126162197866894
 31
0.0
  0
LINE
  5
1745B
  8
0
  6
CONTINUOUS
 10
30.74199999996925
 20
6.359681406947153
 30
0.0
 11
29.30199999996933
 21
7.799681406947081
 31
0.0
  0
LINE
  5
1745C
  8
0
  6
CONTINUOUS
 10
30.74199999996926
 20
7.033200616027337
 30
0.0
 11
29.30199999996933
 21
8.473200616027269
 31
0.0
  0
LINE
  5
1745D
  8
0
  6
CONTINUOUS
 10
30.74199999996926
 20
7.706719825107518
 30
0.0
 11
29.68561982508552
 21
8.763099999991255
 31
0.0
  0
LINE
  5
1745E
  8
0
  6
CONTINUOUS
 10
30.74199999996926
 20
8.380239034187703
 30
0.0
 11
30.35913903416571
 21
8.763099999991255
 31
0.0
  0
ENDBLK
  5
17501
  8
0
  0
BLOCK
  8
0
  2
*X27
 70
     1
 10
0.0
 20
0.0
 30
0.0
  3
*X27
  1

  0
LINE
  5
17460
  8
0
  6
CONTINUOUS
 10
31.64199999996833
 20
8.5350582899136
 30
0.0
 11
31.87004171004599
 21
8.763099999991255
 31
0.0
  0
LINE
  5
17461
  8
0
  6
CONTINUOUS
 10
31.64199999996833
 20
7.861539080833413
 30
0.0
 11
32.54356091912618
 21
8.763099999991255
 31
0.0
  0
LINE
  5
17462
  8
0
  6
CONTINUOUS
 10
31.64199999996833
 20
7.188019871753227
 30
0.0
 11
33.08199999996839
 21
8.628019871753281
 31
0.0
  0
LINE
  5
17463
  8
0
  6
CONTINUOUS
 10
31.64199999996833
 20
6.514500662673041
 30
0.0
 11
33.08199999996839
 21
7.954500662673095
 31
0.0
  0
LINE
  5
17464
  8
0
  6
CONTINUOUS
 10
31.64199999996833
 20
5.840981453592855
 30
0.0
 11
33.08199999996839
 21
7.28098145359291
 31
0.0
  0
LINE
  5
17465
  8
0
  6
CONTINUOUS
 10
31.64199999996833
 20
5.167462244512668
 30
0.0
 11
33.08199999996839
 21
6.607462244512723
 31
0.0
  0
LINE
  5
17466
  8
0
  6
CONTINUOUS
 10
31.64199999996833
 20
4.493943035432482
 30
0.0
 11
33.08199999996839
 21
5.933943035432536
 31
0.0
  0
LINE
  5
17467
  8
0
  6
CONTINUOUS
 10
31.64199999996833
 20
3.820423826352294
 30
0.0
 11
33.08199999996839
 21
5.260423826352349
 31
0.0
  0
LINE
  5
17468
  8
0
  6
CONTINUOUS
 10
31.64199999996833
 20
3.146904617272108
 30
0.0
 11
33.08199999996839
 21
4.586904617272163
 31
0.0
  0
LINE
  5
17469
  8
0
  6
CONTINUOUS
 10
36.23199999996837
 20
8.410423826352327
 30
0.0
 11
36.58467617360729
 21
8.763099999991255
 31
0.0
  0
LINE
  5
1746A
  8
0
  6
CONTINUOUS
 10
36.23199999996837
 20
7.73690461727214
 30
0.0
 11
37.25819538268748
 21
8.763099999991255
 31
0.0
  0
LINE
  5
1746B
  8
0
  6
CONTINUOUS
 10
31.64323424774199
 20
2.474619655965573
 30
0.0
 11
33.08199999996839
 21
3.913385408191976
 31
0.0
  0
LINE
  5
1746C
  8
0
  6
CONTINUOUS
 10
31.74419223861915
 20
1.902058437762552
 30
0.0
 11
33.08199999996839
 21
3.239866199111789
 31
0.0
  0
LINE
  5
1746D
  8
0
  6
CONTINUOUS
 10
36.23199999996837
 20
7.063385408191953
 30
0.0
 11
37.67199999996831
 21
8.503385408191894
 31
0.0
  0
LINE
  5
1746E
  8
0
  6
CONTINUOUS
 10
36.23199999996837
 20
6.389866199111767
 30
0.0
 11
37.67199999996831
 21
7.829866199111708
 31
0.0
  0
LINE
  5
1746F
  8
0
  6
CONTINUOUS
 10
31.91111233414976
 20
1.39545932421297
 30
0.0
 11
33.08199999996839
 21
2.566346990031603
 31
0.0
  0
LINE
  5
17470
  8
0
  6
CONTINUOUS
 10
36.23199999996837
 20
5.71634699003158
 30
0.0
 11
37.67199999996831
 21
7.156346990031522
 31
0.0
  0
LINE
  5
17471
  8
0
  6
CONTINUOUS
 10
32.1576374746103
 20
0.9684652555933289
 30
0.0
 11
33.20642631446081
 21
2.017254095443838
 31
0.0
  0
LINE
  5
17472
  8
0
  6
CONTINUOUS
 10
36.23199999996837
 20
5.042827780951393
 30
0.0
 11
37.67199999996831
 21
6.482827780951334
 31
0.0
  0
LINE
  5
17473
  8
0
  6
CONTINUOUS
 10
32.47774023927325
 20
0.6150488111760914
 30
0.0
 11
33.49903056428258
 21
1.636339136185419
 31
0.0
  0
LINE
  5
17474
  8
0
  6
CONTINUOUS
 10
36.23199999996837
 20
4.369308571871207
 30
0.0
 11
37.67199999996831
 21
5.809308571871148
 31
0.0
  0
LINE
  5
17475
  8
0
  6
CONTINUOUS
 10
32.84396249154443
 20
0.3077518543670883
 30
0.0
 11
33.93324121824649
 21
1.397030581069146
 31
0.0
  0
LINE
  5
17476
  8
0
  6
CONTINUOUS
 10
36.23199999996837
 20
3.695789362791021
 30
0.0
 11
37.67199999996831
 21
5.135789362790963
 31
0.0
  0
LINE
  5
17477
  8
0
  6
CONTINUOUS
 10
33.30186329036846
 20
0.0921334441109263
 30
0.0
 11
34.46442907112041
 21
1.254699224862875
 31
0.0
  0
LINE
  5
17478
  8
0
  6
CONTINUOUS
 10
36.23199999996837
 20
3.022270153710834
 30
0.0
 11
37.67199999996831
 21
4.462270153710776
 31
0.0
  0
LINE
  5
17479
  8
0
  6
CONTINUOUS
 10
33.79565647746294
 20
-0.0875925778747773
 30
0.0
 11
35.24350171668284
 21
1.360252661345124
 31
0.0
  0
LINE
  5
1747A
  8
0
  6
CONTINUOUS
 10
36.18336676155003
 20
2.300117706212308
 30
0.0
 11
37.67199999996831
 21
3.788750944630589
 31
0.0
  0
LINE
  5
1747B
  8
0
  6
CONTINUOUS
 10
34.37182574910968
 20
-0.184942515308224
 30
0.0
 11
37.67199999996831
 21
3.115231735550402
 31
0.0
  0
LINE
  5
1747C
  8
0
  6
CONTINUOUS
 10
35.0453449581892
 20
-0.1849425153088955
 30
0.0
 11
37.66345697088136
 21
2.433169497383271
 31
0.0
  0
LINE
  5
1747D
  8
0
  6
CONTINUOUS
 10
35.98667157609191
 20
0.0828648935136398
 30
0.0
 11
37.51927401744566
 21
1.615467334867382
 31
0.0
  0
LINE
  5
1747E
  8
0
  6
CONTINUOUS
 10
32.27747408544484
 20
0.7830920669904482
 30
0.0
 11
32.24716210471949
 21
0.8134040477157893
 31
0.0
  0
LINE
  5
1747F
  8
0
  6
CONTINUOUS
 10
33.83656881101902
 20
-0.1024834495035494
 30
0.0
 11
31.72538911593758
 21
2.008696245577891
 31
0.0
  0
LINE
  5
17480
  8
0
  6
CONTINUOUS
 10
34.5925470859041
 20
-0.1849425153084434
 30
0.0
 11
31.64199999996833
 21
2.765604570627322
 31
0.0
  0
LINE
  5
17481
  8
0
  6
CONTINUOUS
 10
35.26201302775981
 20
-0.1808892480839752
 30
0.0
 11
31.64199999996833
 21
3.439123779707508
 31
0.0
  0
LINE
  5
17482
  8
0
  6
CONTINUOUS
 10
35.75580621485512
 20
-0.0011632260990879
 30
0.0
 11
34.51294304365551
 21
1.241699945100514
 31
0.0
  0
LINE
  5
17483
  8
0
  6
CONTINUOUS
 10
33.08199999996839
 20
2.672642988787641
 30
0.0
 11
31.64199999996833
 21
4.112642988787695
 31
0.0
  0
LINE
  5
17484
  8
0
  6
CONTINUOUS
 10
36.24959940195042
 20
0.1785627958857976
 30
0.0
 11
35.10501653033629
 21
1.323145667499924
 31
0.0
  0
LINE
  5
17485
  8
0
  6
CONTINUOUS
 10
33.08199999996839
 20
3.346162197867827
 30
0.0
 11
31.64199999996833
 21
4.786162197867881
 31
0.0
  0
LINE
  5
17486
  8
0
  6
CONTINUOUS
 10
36.64615197150552
 20
0.4555294354108876
 30
0.0
 11
35.6362043832099
 21
1.465477023706505
 31
0.0
  0
LINE
  5
17487
  8
0
  6
CONTINUOUS
 10
33.08199999996839
 20
4.019681406948013
 30
0.0
 11
31.64199999996833
 21
5.459681406948068
 31
0.0
  0
LINE
  5
17488
  8
0
  6
CONTINUOUS
 10
37.0123742237774
 20
0.7628263922191891
 30
0.0
 11
35.97691545773309
 21
1.798285158263504
 31
0.0
  0
LINE
  5
17489
  8
0
  6
CONTINUOUS
 10
33.08199999996839
 20
4.6932006160282
 30
0.0
 11
31.64199999996833
 21
6.133200616028255
 31
0.0
  0
LINE
  5
1748A
  8
0
  6
CONTINUOUS
 10
37.27491524157143
 20
1.173804583505349
 30
0.0
 11
36.17602012811361
 21
2.272699696963169
 31
0.0
  0
LINE
  5
1748B
  8
0
  6
CONTINUOUS
 10
33.08199999996839
 20
5.366719825108387
 30
0.0
 11
31.64199999996833
 21
6.806719825108441
 31
0.0
  0
LINE
  5
1748C
  8
0
  6
CONTINUOUS
 10
37.51739996707661
 20
1.604839067080355
 30
0.0
 11
36.23199999996837
 21
2.890239034188595
 31
0.0
  0
LINE
  5
1748D
  8
0
  6
CONTINUOUS
 10
37.6183579579535
 20
2.177400285283649
 30
0.0
 11
36.23199999996837
 21
3.563758243268782
 31
0.0
  0
LINE
  5
1748E
  8
0
  6
CONTINUOUS
 10
33.08199999996839
 20
6.040239034188573
 30
0.0
 11
31.64199999996833
 21
7.480239034188628
 31
0.0
  0
LINE
  5
1748F
  8
0
  6
CONTINUOUS
 10
33.08199999996839
 20
6.713758243268759
 30
0.0
 11
31.64199999996833
 21
8.153758243268815
 31
0.0
  0
LINE
  5
17490
  8
0
  6
CONTINUOUS
 10
37.67199999996831
 20
2.797277452349027
 30
0.0
 11
36.23199999996837
 21
4.237277452348969
 31
0.0
  0
LINE
  5
17491
  8
0
  6
CONTINUOUS
 10
37.67199999996831
 20
3.470796661429214
 30
0.0
 11
36.23199999996837
 21
4.910796661429155
 31
0.0
  0
LINE
  5
17492
  8
0
  6
CONTINUOUS
 10
37.67199999996831
 20
4.1443158705094
 30
0.0
 11
36.23199999996837
 21
5.584315870509341
 31
0.0
  0
LINE
  5
17493
  8
0
  6
CONTINUOUS
 10
33.08199999996839
 20
7.387277452348946
 30
0.0
 11
31.70617745232608
 21
8.763099999991255
 31
0.0
  0
LINE
  5
17494
  8
0
  6
CONTINUOUS
 10
33.08199999996839
 20
8.060796661429134
 30
0.0
 11
32.37969666140626
 21
8.763099999991255
 31
0.0
  0
LINE
  5
17495
  8
0
  6
CONTINUOUS
 10
33.08199999996839
 20
8.734315870509318
 30
0.0
 11
33.05321587048645
 21
8.763099999991255
 31
0.0
  0
LINE
  5
17496
  8
0
  6
CONTINUOUS
 10
37.67199999996831
 20
4.817835079589586
 30
0.0
 11
36.23199999996837
 21
6.257835079589528
 31
0.0
  0
LINE
  5
17497
  8
0
  6
CONTINUOUS
 10
37.67199999996831
 20
5.491354288669772
 30
0.0
 11
36.23199999996837
 21
6.931354288669715
 31
0.0
  0
LINE
  5
17498
  8
0
  6
CONTINUOUS
 10
37.67199999996831
 20
6.164873497749959
 30
0.0
 11
36.23199999996837
 21
7.6048734977499
 31
0.0
  0
LINE
  5
17499
  8
0
  6
CONTINUOUS
 10
37.67199999996831
 20
6.838392706830145
 30
0.0
 11
36.23199999996837
 21
8.278392706830086
 31
0.0
  0
LINE
  5
1749A
  8
0
  6
CONTINUOUS
 10
37.67199999996831
 20
7.511911915910333
 30
0.0
 11
36.42081191588738
 21
8.763099999991255
 31
0.0
  0
LINE
  5
1749B
  8
0
  6
CONTINUOUS
 10
37.67199999996831
 20
8.185431124990519
 30
0.0
 11
37.09433112496757
 21
8.763099999991255
 31
0.0
  0
ENDBLK
  5
17503
  8
0
  0
BLOCK
  8
0
  2
*X28
 70
     1
 10
0.0
 20
0.0
 30
0.0
  3
*X28
  1

  0
LINE
  5
1749D
  8
0
  6
CONTINUOUS
 10
38.60499999996136
 20
8.762866199104765
 30
0.0
 11
38.71672554182345
 21
8.874591740966855
 31
0.0
  0
LINE
  5
1749E
  8
0
  6
CONTINUOUS
 10
38.60499999996136
 20
8.089346990024577
 30
0.0
 11
39.03418785440363
 21
8.518534844466847
 31
0.0
  0
LINE
  5
1749F
  8
0
  6
CONTINUOUS
 10
38.60499999996136
 20
7.41582778094439
 30
0.0
 11
39.35165016698382
 21
8.16247794796684
 31
0.0
  0
LINE
  5
174A0
  8
0
  6
CONTINUOUS
 10
38.60499999996136
 20
6.742308571864204
 30
0.0
 11
39.66911247956399
 21
7.806421051466834
 31
0.0
  0
LINE
  5
174A1
  8
0
  6
CONTINUOUS
 10
38.60499999996136
 20
6.068789362784018
 30
0.0
 11
39.98657479214418
 21
7.450364154966827
 31
0.0
  0
LINE
  5
174A2
  8
0
  6
CONTINUOUS
 10
38.60499999996136
 20
5.395270153703832
 30
0.0
 11
40.30403710472435
 21
7.09430725846682
 31
0.0
  0
LINE
  5
174A3
  8
0
  6
CONTINUOUS
 10
38.60499999996136
 20
4.721750944623645
 30
0.0
 11
40.62149941730453
 21
6.738250361966813
 31
0.0
  0
LINE
  5
174A4
  8
0
  6
CONTINUOUS
 10
38.60499999996136
 20
4.048231735543458
 30
0.0
 11
40.93896172988471
 21
6.382193465466806
 31
0.0
  0
LINE
  5
174A5
  8
0
  6
CONTINUOUS
 10
38.60499999996136
 20
3.374712526463272
 30
0.0
 11
40.02599999995994
 21
4.795712526461843
 31
0.0
  0
LINE
  5
174A6
  8
0
  6
CONTINUOUS
 10
38.60499999996136
 20
2.701193317383085
 30
0.0
 11
40.02599999995994
 21
4.122193317381657
 31
0.0
  0
LINE
  5
174A7
  8
0
  6
CONTINUOUS
 10
40.28339754687704
 20
5.053110073378947
 30
0.0
 11
41.25642404246489
 21
6.026136568966799
 31
0.0
  0
LINE
  5
174A8
  8
0
  6
CONTINUOUS
 10
40.60085985945722
 20
4.697053176878939
 30
0.0
 11
41.57388635504507
 21
5.670079672466793
 31
0.0
  0
LINE
  5
174A9
  8
0
  6
CONTINUOUS
 10
43.57899999995641
 20
8.348712526458318
 30
0.0
 11
43.99338747348935
 21
8.763099999991255
 31
0.0
  0
LINE
  5
174AA
  8
0
  6
CONTINUOUS
 10
43.57899999995641
 20
7.675193317378131
 30
0.0
 11
44.66690668256953
 21
8.763099999991255
 31
0.0
  0
LINE
  5
174AB
  8
0
  6
CONTINUOUS
 10
38.60499999996136
 20
2.027674108302898
 30
0.0
 11
40.02599999995994
 21
3.44867410830147
 31
0.0
  0
LINE
  5
174AC
  8
0
  6
CONTINUOUS
 10
38.60499999996136
 20
1.354154899222712
 30
0.0
 11
40.02599999995994
 21
2.775154899221284
 31
0.0
  0
LINE
  5
174AD
  8
0
  6
CONTINUOUS
 10
38.60499999996136
 20
0.6806356901425255
 30
0.0
 11
40.02599999995994
 21
2.101635690141098
 31
0.0
  0
LINE
  5
174AE
  8
0
  6
CONTINUOUS
 10
38.60499999996136
 20
0.0071164810623383
 30
0.0
 11
40.02599999995994
 21
1.428116481060911
 31
0.0
  0
LINE
  5
174AF
  8
0
  6
CONTINUOUS
 10
40.9183221720374
 20
4.340996280378933
 30
0.0
 11
41.89134866762525
 21
5.314022775966786
 31
0.0
  0
LINE
  5
174B0
  8
0
  6
CONTINUOUS
 10
41.23578448461758
 20
3.984939383878926
 30
0.0
 11
42.20881098020543
 21
4.957965879466778
 31
0.0
  0
LINE
  5
174B1
  8
0
  6
CONTINUOUS
 10
41.55324679719776
 20
3.628882487378919
 30
0.0
 11
42.52627329278561
 21
4.601908982966772
 31
0.0
  0
LINE
  5
174B2
  8
0
  6
CONTINUOUS
 10
41.87070910977793
 20
3.272825590878912
 30
0.0
 11
42.84373560536579
 21
4.245852086466765
 31
0.0
  0
LINE
  5
174B3
  8
0
  6
CONTINUOUS
 10
43.57899999995641
 20
7.001674108297943
 30
0.0
 11
44.99999999995498
 21
8.422674108296516
 31
0.0
  0
LINE
  5
174B4
  8
0
  6
CONTINUOUS
 10
43.57899999995641
 20
6.328154899217758
 30
0.0
 11
44.99999999995498
 21
7.749154899216329
 31
0.0
  0
LINE
  5
174B5
  8
0
  6
CONTINUOUS
 10
43.57899999995641
 20
5.654635690137571
 30
0.0
 11
44.99999999995498
 21
7.075635690136142
 31
0.0
  0
LINE
  5
174B6
  8
0
  6
CONTINUOUS
 10
43.57899999995641
 20
4.981116481057384
 30
0.0
 11
44.99999999995498
 21
6.402116481055955
 31
0.0
  0
LINE
  5
174B7
  8
0
  6
CONTINUOUS
 10
39.27140272797921
 20
-0.0000000000000009
 30
0.0
 11
40.02599999995994
 21
0.7545972719807246
 31
0.0
  0
LINE
  5
174B8
  8
0
  6
CONTINUOUS
 10
39.9449219370594
 20
-0.0000000000000009
 30
0.0
 11
40.02599999995994
 21
0.0810780629005379
 31
0.0
  0
LINE
  5
174B9
  8
0
  6
CONTINUOUS
 10
42.18817142235812
 20
2.916768694378905
 30
0.0
 11
43.16119791794597
 21
3.889795189966758
 31
0.0
  0
LINE
  5
174BA
  8
0
  6
CONTINUOUS
 10
42.50563373493829
 20
2.560711797878898
 30
0.0
 11
43.47866023052615
 21
3.533738293466751
 31
0.0
  0
LINE
  5
174BB
  8
0
  6
CONTINUOUS
 10
43.57899999995641
 20
4.307597271977198
 30
0.0
 11
44.99999999995498
 21
5.728597271975769
 31
0.0
  0
LINE
  5
174BC
  8
0
  6
CONTINUOUS
 10
43.57899999995641
 20
3.634078062897011
 30
0.0
 11
44.99999999995498
 21
5.055078062895582
 31
0.0
  0
LINE
  5
174BD
  8
0
  6
CONTINUOUS
 10
42.82309604751848
 20
2.204654901378891
 30
0.0
 11
44.99999999995498
 21
4.381558853815395
 31
0.0
  0
LINE
  5
174BE
  8
0
  6
CONTINUOUS
 10
43.14055836009865
 20
1.848598004878885
 30
0.0
 11
44.99999999995498
 21
3.70803964473521
 31
0.0
  0
LINE
  5
174BF
  8
0
  6
CONTINUOUS
 10
43.45802067267883
 20
1.492541108378878
 30
0.0
 11
44.99999999995498
 21
3.034520435655023
 31
0.0
  0
LINE
  5
174C0
  8
0
  6
CONTINUOUS
 10
43.77548298525902
 20
1.136484211878871
 30
0.0
 11
44.99999999995498
 21
2.361001226574837
 31
0.0
  0
LINE
  5
174C1
  8
0
  6
CONTINUOUS
 10
44.09294529783919
 20
0.7804273153788639
 30
0.0
 11
44.99999999995498
 21
1.687482017494649
 31
0.0
  0
LINE
  5
174C2
  8
0
  6
CONTINUOUS
 10
44.41040761041938
 20
0.4243704188788566
 30
0.0
 11
44.99999999995498
 21
1.013962808414463
 31
0.0
  0
LINE
  5
174C3
  8
0
  6
CONTINUOUS
 10
44.72786992299955
 20
0.0683135223788494
 30
0.0
 11
44.99999999995498
 21
0.340443599334276
 31
0.0
  0
LINE
  5
174C4
  8
0
  6
CONTINUOUS
 10
39.12223903415696
 20
-0.0000000000000009
 30
0.0
 11
38.60499999996136
 21
0.5172390341955961
 31
0.0
  0
LINE
  5
174C5
  8
0
  6
CONTINUOUS
 10
39.79575824323715
 20
-0.0000000000000009
 30
0.0
 11
38.60499999996136
 21
1.190758243275783
 31
0.0
  0
LINE
  5
174C6
  8
0
  6
CONTINUOUS
 10
40.02599999995994
 20
0.443277452357397
 30
0.0
 11
38.60499999996136
 21
1.864277452355969
 31
0.0
  0
LINE
  5
174C7
  8
0
  6
CONTINUOUS
 10
40.02599999995994
 20
1.116796661437583
 30
0.0
 11
38.60499999996136
 21
2.537796661436155
 31
0.0
  0
LINE
  5
174C8
  8
0
  6
CONTINUOUS
 10
40.02599999995994
 20
1.79031587051777
 30
0.0
 11
38.60499999996136
 21
3.211315870516341
 31
0.0
  0
LINE
  5
174C9
  8
0
  6
CONTINUOUS
 10
40.02599999995994
 20
2.463835079597956
 30
0.0
 11
38.60499999996136
 21
3.884835079596527
 31
0.0
  0
LINE
  5
174CA
  8
0
  6
CONTINUOUS
 10
40.02599999995994
 20
3.137354288678143
 30
0.0
 11
38.60499999996136
 21
4.558354288676714
 31
0.0
  0
LINE
  5
174CB
  8
0
  6
CONTINUOUS
 10
40.02599999995994
 20
3.810873497758329
 30
0.0
 11
38.60499999996136
 21
5.2318734977569
 31
0.0
  0
LINE
  5
174CC
  8
0
  6
CONTINUOUS
 10
40.02599999995994
 20
4.484392706838515
 30
0.0
 11
38.60499999996136
 21
5.905392706837086
 31
0.0
  0
LINE
  5
174CD
  8
0
  6
CONTINUOUS
 10
44.99999999995498
 20
0.183911915923658
 30
0.0
 11
41.53858364506288
 21
3.64532827081576
 31
0.0
  0
LINE
  5
174CE
  8
0
  6
CONTINUOUS
 10
40.02599999995994
 20
5.157911915918703
 30
0.0
 11
38.60499999996136
 21
6.578911915917274
 31
0.0
  0
LINE
  5
174CF
  8
0
  6
CONTINUOUS
 10
44.99999999995498
 20
0.8574311250038447
 30
0.0
 11
38.60499999996136
 21
7.25243112499746
 31
0.0
  0
LINE
  5
174D0
  8
0
  6
CONTINUOUS
 10
44.99999999995498
 20
1.530950334084031
 30
0.0
 11
38.60499999996136
 21
7.925950334077647
 31
0.0
  0
LINE
  5
174D1
  8
0
  6
CONTINUOUS
 10
44.99999999995498
 20
2.204469543164218
 30
0.0
 11
43.57899999995641
 21
3.625469543162789
 31
0.0
  0
LINE
  5
174D2
  8
0
  6
CONTINUOUS
 10
41.89876730984767
 20
5.305702233271528
 30
0.0
 11
38.60499999996136
 21
8.599469543157834
 31
0.0
  0
LINE
  5
174D3
  8
0
  6
CONTINUOUS
 10
44.99999999995498
 20
2.877988752244405
 30
0.0
 11
43.57899999995641
 21
4.298988752242975
 31
0.0
  0
LINE
  5
174D4
  8
0
  6
CONTINUOUS
 10
44.99999999995498
 20
3.551507961324591
 30
0.0
 11
43.57899999995641
 21
4.972507961323163
 31
0.0
  0
LINE
  5
174D5
  8
0
  6
CONTINUOUS
 10
44.99999999995498
 20
4.225027170404777
 30
0.0
 11
43.57899999995641
 21
5.646027170403348
 31
0.0
  0
LINE
  5
174D6
  8
0
  6
CONTINUOUS
 10
44.99999999995498
 20
4.898546379484964
 30
0.0
 11
43.57899999995641
 21
6.319546379483535
 31
0.0
  0
LINE
  5
174D7
  8
0
  6
CONTINUOUS
 10
44.99999999995498
 20
5.572065588565151
 30
0.0
 11
43.57899999995641
 21
6.993065588563722
 31
0.0
  0
LINE
  5
174D8
  8
0
  6
CONTINUOUS
 10
44.99999999995498
 20
6.245584797645336
 30
0.0
 11
43.57899999995641
 21
7.666584797643908
 31
0.0
  0
LINE
  5
174D9
  8
0
  6
CONTINUOUS
 10
44.99999999995498
 20
6.919104006725522
 30
0.0
 11
43.57899999995641
 21
8.340104006724093
 31
0.0
  0
LINE
  5
174DA
  8
0
  6
CONTINUOUS
 10
44.99999999995498
 20
7.592623215805709
 30
0.0
 11
43.82952321576943
 21
8.763099999991255
 31
0.0
  0
LINE
  5
174DB
  8
0
  6
CONTINUOUS
 10
44.99999999995498
 20
8.266142424885896
 30
0.0
 11
44.50304242484962
 21
8.763099999991255
 31
0.0
  0
ENDBLK
  5
17505
  8
0
  0
BLOCK
  8
0
  2
*X29
 70
     1
 10
0.0
 20
0.0
 30
0.0
  3
*X29
  1

  0
LINE
  5
174DD
  8
0
  6
CONTINUOUS
 10
0.0
 20
8.548461116714023
 30
0.0
 11
0.2146388832772324
 21
8.763099999991255
 31
0.0
  0
LINE
  5
174DE
  8
0
  6
CONTINUOUS
 10
-0.0000000000000002
 20
7.874941907633837
 30
0.0
 11
0.8881580923574184
 21
8.763099999991255
 31
0.0
  0
LINE
  5
174DF
  8
0
  6
CONTINUOUS
 10
0.0
 20
7.20142269855365
 30
0.0
 11
1.420999999998572
 21
8.622422698552223
 31
0.0
  0
LINE
  5
174E0
  8
0
  6
CONTINUOUS
 10
-0.0000000000000001
 20
6.527903489473465
 30
0.0
 11
1.420999999998571
 21
7.948903489472036
 31
0.0
  0
LINE
  5
174E1
  8
0
  6
CONTINUOUS
 10
-0.0000000000000002
 20
5.854384280393278
 30
0.0
 11
1.420999999998571
 21
7.275384280391849
 31
0.0
  0
LINE
  5
174E2
  8
0
  6
CONTINUOUS
 10
-0.0000000000000002
 20
5.180865071313091
 30
0.0
 11
1.420999999998571
 21
6.601865071311663
 31
0.0
  0
LINE
  5
174E3
  8
0
  6
CONTINUOUS
 10
0.0
 20
4.507345862232905
 30
0.0
 11
1.420999999998571
 21
5.928345862231477
 31
0.0
  0
LINE
  5
174E4
  8
0
  6
CONTINUOUS
 10
-0.0000000000000003
 20
3.833826653152718
 30
0.0
 11
1.420999999998571
 21
5.25482665315129
 31
0.0
  0
LINE
  5
174E5
  8
0
  6
CONTINUOUS
 10
-0.0000000000000002
 20
3.160307444072532
 30
0.0
 11
1.420999999998571
 21
4.581307444071103
 31
0.0
  0
LINE
  5
174E6
  8
0
  6
CONTINUOUS
 10
-0.0000000000000001
 20
2.486788234992345
 30
0.0
 11
1.420999999998571
 21
3.907788234990917
 31
0.0
  0
LINE
  5
174E7
  8
0
  6
CONTINUOUS
 10
-0.0000000000000006
 20
1.813269025912159
 30
0.0
 11
1.420999999998571
 21
3.234269025910731
 31
0.0
  0
LINE
  5
174E8
  8
0
  6
CONTINUOUS
 10
0.0
 20
1.139749816831973
 30
0.0
 11
1.420999999998571
 21
2.560749816830544
 31
0.0
  0
LINE
  5
174E9
  8
0
  6
CONTINUOUS
 10
0.0000000000000002
 20
0.466230607751787
 30
0.0
 11
1.420999999998571
 21
1.887230607750358
 31
0.0
  0
LINE
  5
174EA
  8
0
  6
CONTINUOUS
 10
0.2072886013284003
 20
-0.0000000000000009
 30
0.0
 11
1.420999999998571
 21
1.213711398670171
 31
0.0
  0
LINE
  5
174EB
  8
0
  6
CONTINUOUS
 10
0.8808078104085864
 20
-0.0000000000000009
 30
0.0
 11
1.420999999998571
 21
0.5401921895899839
 31
0.0
  0
LINE
  5
174EC
  8
0
  6
CONTINUOUS
 10
0.0581249075061505
 20
-0.0000000000000009
 30
0.0
 11
-0.0000000000000002
 21
0.0581249075061496
 31
0.0
  0
LINE
  5
174ED
  8
0
  6
CONTINUOUS
 10
0.7316441165863372
 20
-0.0000000000000009
 30
0.0
 11
-0.0000000000000002
 21
0.7316441165863363
 31
0.0
  0
LINE
  5
174EE
  8
0
  6
CONTINUOUS
 10
1.405163325666523
 20
-0.0000000000000009
 30
0.0
 11
-0.0000000000000002
 21
1.405163325666523
 31
0.0
  0
LINE
  5
174EF
  8
0
  6
CONTINUOUS
 10
1.420999999998572
 20
0.6576825347481381
 30
0.0
 11
-0.0000000000000001
 21
2.07868253474671
 31
0.0
  0
LINE
  5
174F0
  8
0
  6
CONTINUOUS
 10
1.420999999998571
 20
1.331201743828324
 30
0.0
 11
-0.0000000000000001
 21
2.752201743826896
 31
0.0
  0
LINE
  5
174F1
  8
0
  6
CONTINUOUS
 10
1.420999999998571
 20
2.004720952908511
 30
0.0
 11
-0.0000000000000002
 21
3.425720952907082
 31
0.0
  0
LINE
  5
174F2
  8
0
  6
CONTINUOUS
 10
1.420999999998571
 20
2.678240161988697
 30
0.0
 11
-0.0000000000000001
 21
4.099240161987269
 31
0.0
  0
LINE
  5
174F3
  8
0
  6
CONTINUOUS
 10
1.420999999998572
 20
3.351759371068884
 30
0.0
 11
0.0
 21
4.772759371067455
 31
0.0
  0
LINE
  5
174F4
  8
0
  6
CONTINUOUS
 10
1.420999999998571
 20
4.02527858014907
 30
0.0
 11
-0.0000000000000003
 21
5.446278580147642
 31
0.0
  0
LINE
  5
174F5
  8
0
  6
CONTINUOUS
 10
1.420999999998571
 20
4.698797789229257
 30
0.0
 11
0.0
 21
6.119797789227828
 31
0.0
  0
LINE
  5
174F6
  8
0
  6
CONTINUOUS
 10
1.420999999998571
 20
5.372316998309444
 30
0.0
 11
-0.0000000000000001
 21
6.793316998308015
 31
0.0
  0
LINE
  5
174F7
  8
0
  6
CONTINUOUS
 10
1.420999999998572
 20
6.045836207389629
 30
0.0
 11
-0.0000000000000004
 21
7.466836207388202
 31
0.0
  0
LINE
  5
174F8
  8
0
  6
CONTINUOUS
 10
1.420999999998571
 20
6.719355416469816
 30
0.0
 11
0.0
 21
8.140355416468388
 31
0.0
  0
LINE
  5
174F9
  8
0
  6
CONTINUOUS
 10
1.420999999998571
 20
7.392874625550003
 30
0.0
 11
0.0507746255573185
 21
8.763099999991255
 31
0.0
  0
LINE
  5
174FA
  8
0
  6
CONTINUOUS
 10
1.420999999998571
 20
8.06639383463019
 30
0.0
 11
0.7242938346375052
 21
8.763099999991255
 31
0.0
  0
LINE
  5
174FB
  8
0
  6
CONTINUOUS
 10
1.420999999998571
 20
8.739913043710375
 30
0.0
 11
1.397813043717691
 21
8.763099999991255
 31
0.0
  0
ENDBLK
  5
17507
  8
0
  0
ENDSEC
  0
SECTION
  2
ENTITIES
  0
LINE
  5
154F9
  8
01
 10
-310.9201593449615
 20
-1358.000332800812
 30
0.0
 11
-453.3201593449614
 21
-1358.000332800812
 31
0.0
  0
ARC
  5
154FA
  8
01
 10
-310.9201593449615
 20
-1358.800332800812
 30
0.0
 40
0.8
 50
0.0
 51
90.0
  0
LINE
  5
154FB
  8
01
 10
-310.9201593449615
 20
-1382.989350967374
 30
0.0
 11
-453.3201593449614
 21
-1382.989350967374
 31
0.0
  0
LINE
  5
154FC
  8
01
 10
-310.1201593449615
 20
-1358.800332800812
 30
0.0
 11
-310.1201593449615
 21
-1382.823985166127
 31
0.0
  0
ARC
  5
154FD
  8
01
 10
-310.9201593449615
 20
-1382.189350967374
 30
0.0
 40
0.8
 50
270.0
 51
0.0
  0
LINE
  5
154FE
  8
01
 10
-312.1201593449615
 20
-1383.840068083639
 30
0.0
 11
-452.1201593449615
 21
-1383.840068083639
 31
0.0
  0
ARC
  5
15500
  8
01
 10
-453.3201593449614
 20
-1358.800332800812
 30
0.0
 40
0.8
 50
90.0
 51
180.0
  0
LINE
  5
15501
  8
01
 10
-454.1201593449615
 20
-1358.800332800812
 30
0.0
 11
-454.1201593449615
 21
-1382.189350967374
 31
0.0
  0
ARC
  5
15502
  8
01
 10
-453.3201593449614
 20
-1382.189350967374
 30
0.0
 40
0.8
 50
180.0
 51
270.0
  0
LINE
  5
15503
  8
01
 10
-312.1201593449615
 20
-1383.840068083639
 30
0.0
 11
-312.1201593449615
 21
-1382.823985166127
 31
0.0
  0
LINE
  5
15504
  8
01
 10
-452.1201593449615
 20
-1383.840068083639
 30
0.0
 11
-452.1201593449615
 21
-1382.989350967374
 31
0.0
  0
LINE
  5
15505
  8
01
 10
-451.6201593449614
 20
-1430.125205272655
 30
0.0
 11
-312.6201593449616
 21
-1430.125205272655
 31
0.0
  0
LINE
  5
15506
  8
01
 10
-433.6201593449616
 20
-1412.692792799141
 30
0.0000000000000271
 11
-327.6201593449615
 21
-1412.692792799141
 31
0.0000000000000271
  0
LINE
  5
15507
  8
01
 10
-433.6201593449616
 20
-1385.213705540651
 30
0.0000000000000271
 11
-355.6201593449611
 21
-1385.213705540651
 31
0.0000000000000271
  0
LINE
  5
1550B
  8
01
 10
-452.6201593449614
 20
-1425.888236813337
 30
0.0
 11
-452.6201593449616
 21
-1382.989350967374
 31
0.0
  0
ARC
  5
1550E
  8
01
 10
-355.6201593449611
 20
-1384.213705540651
 30
0.0000000000000271
 40
1.0
 50
270.0
 51
0.0
  0
LINE
  5
1550F
  8
01
 10
-439.6201593449616
 20
-1408.423429786307
 30
0.0
 11
-439.6201593449617
 21
-1389.483068553484
 31
0.0
  0
LINE
  5
15510
  8
01
 10
-311.6201593449615
 20
-1425.888236813335
 30
0.0
 11
-311.6201593449616
 21
-1404.050978653842
 31
0.0
  0
ARC
  5
15511
  8
01
 10
-312.6201593449616
 20
-1404.050978653842
 30
-0.0000000000022832
 40
1.0
 50
0.0
 51
90.0
  0
LINE
  5
15512
  8
01
 10
-321.6201593449615
 20
-1408.423429786307
 30
0.0
 11
-321.6201593449616
 21
-1404.050978653842
 31
0.0
  0
LINE
  5
15516
  8
01
 10
-320.6201593449616
 20
-1403.050978653842
 30
0.0000000000000271
 11
-312.6201593449616
 21
-1403.050978653842
 31
0.0000000000000302
  0
ARC
  5
15517
  8
01
 10
-320.6201593449616
 20
-1404.050978653842
 30
0.0
 40
1.0
 50
90.0
 51
180.0
  0
POLYLINE
  5
15518
  8
01
 66
     1
 10
0.0
 20
0.0
 30
0.0000000000000271
  0
VERTEX
  5
1733F
  8
01
 10
-433.6201593449616
 20
-1412.69279279914
 30
0.0000000000000271
  0
VERTEX
  5
17340
  8
01
 10
-434.7907012770584
 20
-1412.610758185992
 30
0.0000000000000271
  0
VERTEX
  5
17341
  8
01
 10
-435.9162599391522
 20
-1412.367806890725
 30
0.0000000000000271
  0
VERTEX
  5
17342
  8
01
 10
-436.9535807430792
 20
-1411.973275395366
 30
0.0000000000000271
  0
VERTEX
  5
17343
  8
01
 10
-437.8628000320809
 20
-1411.442325324029
 30
0.0000000000000271
  0
VERTEX
  5
17344
  8
01
 10
-438.6089770187769
 20
-1410.795360790192
 30
0.0000000000000271
  0
VERTEX
  5
17345
  8
01
 10
-439.1634365400294
 20
-1410.057244278071
 30
0.0000000000000271
  0
VERTEX
  5
17346
  8
01
 10
-439.504871027381
 20
-1409.256341191285
 30
0.0000000000000271
  0
VERTEX
  5
17347
  8
01
 10
-439.6201593449616
 20
-1408.423429786307
 30
0.0000000000000271
  0
SEQEND
  5
17508
  8
01
  0
POLYLINE
  5
15519
  8
01
 66
     1
 10
0.0
 20
0.0
 30
0.0
  0
VERTEX
  5
17348
  8
01
 10
-327.6201593449615
 20
-1412.69279279914
 30
0.0
  0
VERTEX
  5
17349
  8
01
 10
-326.4496174128647
 20
-1412.610758185992
 30
0.0
  0
VERTEX
  5
1734A
  8
01
 10
-325.324058750771
 20
-1412.367806890725
 30
0.0
  0
VERTEX
  5
1734B
  8
01
 10
-324.2867379468439
 20
-1411.973275395366
 30
0.0
  0
VERTEX
  5
1734C
  8
01
 10
-323.3775186578422
 20
-1411.442325324029
 30
0.0
  0
VERTEX
  5
1734D
  8
01
 10
-322.6313416711462
 20
-1410.795360790192
 30
0.0
  0
VERTEX
  5
1734E
  8
01
 10
-322.0768821498938
 20
-1410.057244278071
 30
0.0
  0
VERTEX
  5
1734F
  8
01
 10
-321.7354476625421
 20
-1409.256341191285
 30
0.0
  0
VERTEX
  5
17350
  8
01
 10
-321.6201593449615
 20
-1408.423429786307
 30
0.0
  0
SEQEND
  5
17509
  8
01
  0
POLYLINE
  5
1551A
  8
01
 66
     1
 10
0.0
 20
0.0
 30
0.0000000000000271
  0
VERTEX
  5
17351
  8
01
 10
-451.6201593449614
 20
-1430.125205272655
 30
0.0000000000000271
  0
VERTEX
  5
17352
  8
01
 10
-451.8295103808572
 20
-1430.007105727072
 30
0.0000000000000271
  0
VERTEX
  5
17353
  8
01
 10
-452.0302112922843
 20
-1429.657686816684
 30
0.0000000000000271
  0
VERTEX
  5
17354
  8
01
 10
-452.2139693671603
 20
-1429.091386096357
 30
0.0000000000000271
  0
VERTEX
  5
17355
  8
01
 10
-452.3731919503403
 20
-1428.33160240764
 30
0.0000000000000271
  0
VERTEX
  5
17356
  8
01
 10
-452.5013001626855
 20
-1427.409729067738
 30
0.0000000000000271
  0
VERTEX
  5
17357
  8
01
 10
-452.5930007321684
 20
-1426.363856736678
 30
0.0000000000000271
  0
VERTEX
  5
17358
  8
01
 10
-452.6445047052903
 20
-1425.237199558603
 30
0.0000000000000271
  0
VERTEX
  5
17359
  8
01
 10
-452.6536840019288
 20
-1424.076309607078
 30
0.0000000000000271
  0
VERTEX
  5
1735A
  8
01
 10
-452.6201593449614
 20
-1422.929153411299
 30
0.0000000000000271
  0
SEQEND
  5
1750A
  8
01
  0
POLYLINE
  5
1551B
  8
01
 66
     1
 10
0.0
 20
0.0
 30
0.0000000000000271
  0
VERTEX
  5
1735B
  8
01
 10
-312.6201593449616
 20
-1430.125205272655
 30
0.0000000000000271
  0
VERTEX
  5
1735C
  8
01
 10
-312.4108083090658
 20
-1430.007105727072
 30
0.0000000000000271
  0
VERTEX
  5
1735D
  8
01
 10
-312.2101073976388
 20
-1429.657686816684
 30
0.0000000000000271
  0
VERTEX
  5
1735E
  8
01
 10
-312.0263493227627
 20
-1429.091386096357
 30
0.0000000000000271
  0
VERTEX
  5
1735F
  8
01
 10
-311.8671267395827
 20
-1428.33160240764
 30
0.0000000000000271
  0
VERTEX
  5
17360
  8
01
 10
-311.7390185272375
 20
-1427.409729067738
 30
0.0000000000000271
  0
VERTEX
  5
17361
  8
01
 10
-311.6473179577546
 20
-1426.363856736678
 30
0.0000000000000271
  0
VERTEX
  5
17362
  8
01
 10
-311.5958139846327
 20
-1425.237199558603
 30
0.0000000000000271
  0
VERTEX
  5
17363
  8
01
 10
-311.5866346879942
 20
-1424.076309607078
 30
0.0000000000000271
  0
VERTEX
  5
17364
  8
01
 10
-311.6201593449616
 20
-1422.929153411299
 30
0.0000000000000271
  0
SEQEND
  5
1750B
  8
01
  0
POLYLINE
  5
1551C
  8
01
 66
     1
 10
0.0
 20
0.0
 30
0.0000000000000271
  0
VERTEX
  5
17365
  8
01
 10
-433.6201593449616
 20
-1385.213705540651
 30
0.0000000000000271
  0
VERTEX
  5
17366
  8
01
 10
-434.7907012770584
 20
-1385.2957401538
 30
0.0000000000000271
  0
VERTEX
  5
17367
  8
01
 10
-435.9162599391522
 20
-1385.538691449067
 30
0.0000000000000271
  0
VERTEX
  5
17368
  8
01
 10
-436.9535807430792
 20
-1385.933222944425
 30
0.0000000000000271
  0
VERTEX
  5
17369
  8
01
 10
-437.8628000320809
 20
-1386.464173015763
 30
0.0000000000000271
  0
VERTEX
  5
1736A
  8
01
 10
-438.6089770187769
 20
-1387.111137549599
 30
0.0000000000000271
  0
VERTEX
  5
1736B
  8
01
 10
-439.1634365400294
 20
-1387.849254061721
 30
0.0000000000000271
  0
VERTEX
  5
1736C
  8
01
 10
-439.504871027381
 20
-1388.650157148507
 30
0.0000000000000271
  0
VERTEX
  5
1736D
  8
01
 10
-439.6201593449616
 20
-1389.483068553484
 30
0.0000000000000271
  0
SEQEND
  5
1750C
  8
01
  0
LINE
  5
15539
  8
01
 10
-363.1201593449613
 20
-1408.152424173646
 30
0.0
 11
-401.1201593449615
 21
-1408.152424173646
 31
0.0
  0
CIRCLE
  5
15541
  8
01
 10
-368.1201593449615
 20
-1394.152424173646
 30
0.0
 40
4.25
  0
CIRCLE
  5
15542
  8
01
 10
-368.1201593449615
 20
-1394.152424173647
 30
0.0
 40
2.25
  0
CIRCLE
  5
15543
  8
01
 10
-396.1201593449615
 20
-1394.152424173646
 30
0.0
 40
4.25
  0
CIRCLE
  5
15544
  8
01
 10
-396.1201593449617
 20
-1394.152424173647
 30
0.0
 40
2.25
  0
LINE
  5
155AB
  8
1CENTER
 10
-400.6201593449618
 20
-1394.152424173646
 30
0.0
 11
-391.6201593449618
 21
-1394.152424173646
 31
0.0
  0
LINE
  5
155AD
  8
1CENTER
 10
-372.6201593449618
 20
-1394.152424173646
 30
0.0
 11
-363.6201593449618
 21
-1394.152424173646
 31
0.0
  0
LINE
  5
155AE
  8
1CENTER
 10
-368.1201593449618
 20
-1398.652424173646
 30
0.0
 11
-368.1201593449618
 21
-1389.652424173646
 31
0.0
  0
LINE
  5
155AF
  8
1PHANTOM
 10
-436.9397419429508
 20
-1373.692767418691
 30
0.0
 11
-436.9397419429508
 21
-1488.692767418688
 31
0.0
  0
LINE
  5
155B0
  8
1PHANTOM
 10
-322.9397419429514
 20
-1373.692767418691
 30
0.0
 11
-322.9397419429514
 21
-1488.692767418688
 31
0.0
  0
LINE
  5
155B2
  8
1PHANTOM
 10
-322.9397419429514
 20
-1373.692767418691
 30
0.0
 11
-436.9397419429508
 21
-1373.692767418691
 31
0.0
  0
LINE
  5
155B3
  8
1PHANTOM
 10
-436.9397419429508
 20
-1488.692767418688
 30
0.0
 11
-322.9397419429514
 21
-1488.692767418688
 31
0.0
  0
LINE
  5
155B4
  8
01
 10
-354.6201593449611
 20
-1384.213705540651
 30
0.0000000000000271
 11
-354.6201593449612
 21
-1383.840068083639
 31
0.0
  0
LINE
  5
155C1
  8
01
 10
-189.0162651451504
 20
-1384.860311694499
 30
0.0000000000000271
 11
-192.8729908032696
 21
-1380.264045035785
 31
0.0000000000000271
  0
LINE
  5
155C3
  8
01
 10
-180.1100006583737
 20
-1368.249217423152
 30
0.0000000000000271
 11
-245.9898227666063
 21
-1423.528951856194
 31
0.0000000000000271
  0
ARC
  5
155C4
  8
01
 10
-192.1069463601507
 20
-1379.621257426098
 30
0.0000000000000271
 40
0.9999999999999999
 50
130.0000000000025
 51
220.0000000000025
  0
LINE
  5
155C6
  8
01
 10
-174.9676997808818
 20
-1374.377572968103
 30
0.0000000000000271
 11
-240.8475218891135
 21
-1429.657307401146
 31
0.0000000000000271
  0
ARC
  5
155C7
  8
01
 10
-217.3599095405525
 20
-1408.643453252901
 30
0.0000000000000271
 40
1.0
 50
310.0000000000025
 51
40.00000000000254
  0
ARC
  5
155C8
  8
01
 10
-188.2502207020315
 20
-1384.217524084812
 30
0.0000000000000271
 40
0.9999999999999999
 50
220.0000000000025
 51
310.0000000000025
  0
ARC
  5
155C9
  8
01
 10
-180.411516881324
 20
-1373.723848731952
 30
0.0000000000000271
 40
6.249999999999999
 50
11.92751306415107
 51
68.07248693584873
  0
ARC
  5
155CA
  8
01
 10
-176.253275000255
 20
-1372.845484081865
 30
0.0000000000000271
 40
2.0
 50
310.0000000000025
 51
11.92751306415107
  0
ARC
  5
155CC
  8
01
 10
-240.5460056661636
 20
-1424.182676092345
 30
0.0000000000000271
 40
6.249999999999999
 50
191.9275130641511
 51
248.0724869358557
  0
ARC
  5
155CD
  8
01
 10
-242.1330971084867
 20
-1428.125218514908
 30
0.0000000000000271
 40
2.0
 50
248.0724869358557
 51
310.0000000000025
  0
ARC
  5
155CE
  8
01
 10
-244.7042475472331
 20
-1425.061040742432
 30
0.0000000000000271
 40
2.0
 50
130.0000000000025
 51
191.9275130641511
  0
LINE
  5
155E0
  8
01
 10
-164.9915771932532
 20
-1408.1524374159
 30
0.0
 11
-164.9915771932532
 21
-1378.1524374159
 31
0.0
  0
ARC
  5
155EE
  8
01
 10
-180.3349124370096
 20
-1373.659569970983
 30
0.0000000000000417
 40
6.25
 50
40.00000000000254
 51
54.53159972174765
  0
LINE
  5
155F9
  8
01
 10
-169.3053638176178
 20
-1377.08080024496
 30
0.0000000000000418
 11
-175.5674989636844
 21
-1369.617878187326
 31
0.0000000000000416
  0
ARC
  5
155FA
  8
01
 10
-167.0072304882614
 20
-1375.1524374159
 30
0.0000000000066642
 40
3.0
 50
220.0000000000025
 51
270.0
  0
LINE
  5
155FB
  8
01
 10
-167.2913139782171
 20
-1407.795225025587
 30
0.0000000000000002
 11
-186.9179930935369
 21
-1384.405059679213
 31
0.0000000000000141
  0
ARC
  5
155FC
  8
01
 10
-166.5252695350981
 20
-1407.1524374159
 30
-0.000000000000166
 40
1.0
 50
220.0000000000025
 51
270.0
  0
LINE
  5
155FD
  8
01
 10
-164.9915771932532
 20
-1408.1524374159
 30
0.0
 11
-166.5252695350981
 21
-1408.1524374159
 31
0.0
  0
LINE
  5
155FE
  8
01
 10
-164.9915771932532
 20
-1378.1524374159
 30
0.0
 11
-167.0072304882614
 21
-1378.1524374159
 31
0.0000000000000102
  0
LINE
  5
15602
  8
01
 10
-177.0798713931633
 20
-1361.813540114914
 30
-0.0000000000000568
 11
-178.2905636147825
 21
-1361.880123929603
 31
-0.0000000000000568
  0
LINE
  5
15603
  8
01
 10
-181.316591079742
 20
-1368.456216253519
 30
-0.0000000000000568
 11
-182.8691453523609
 21
-1368.541601278827
 31
-0.0000000000000568
  0
LINE
  5
15604
  8
01
 10
-181.1592804564606
 20
-1369.129667714728
 30
-0.0000000000000568
 11
-181.316591079742
 21
-1368.456216253519
 31
-0.0000000000000568
  0
LINE
  5
15605
  8
01
 10
-176.7014627510758
 20
-1368.694137174553
 30
-0.0000000000000568
 11
-177.0798713931633
 21
-1361.813540114914
 31
-0.0000000000000568
  0
LINE
  5
15606
  8
01
 10
-182.8691453523609
 20
-1368.541601278827
 30
-0.0000000000000568
 11
-185.0016733230442
 21
-1365.276279785581
 31
-0.0000000000000568
  0
LINE
  5
15611
  8
01
 10
-181.316591079742
 20
-1368.456216253519
 30
-0.0000000000000568
 11
-176.9807579928384
 21
-1363.615717166379
 31
-0.0000000000000568
  0
ARC
  5
15618
  8
01
 10
-181.8891027970499
 20
-1361.77757758063
 30
-0.0000000000000568
 40
3.6
 50
268.2720741613787
 51
358.3677033746035
  0
ARC
  5
15619
  8
01
 10
-166.9209431983332
 20
-865.603299530843
 30
-0.0000000000000568
 40
499.9999999999999
 50
267.927649127318
 51
268.2720741613787
  0
LINE
  5
15626
  8
1CENTER
 10
-181.1448830586509
 20
-1394.1524374159
 30
0.0
 11
-163.932836518254
 21
-1394.1524374159
 31
0.0
  0
LINE
  5
15628
  8
01
 10
-220.4505907555526
 20
-1403.4043989845
 30
0.0000000000000271
 11
-216.5938650974335
 21
-1408.000665643214
 31
0.0000000000000271
  0
ARC
  5
15629
  8
01
 10
-221.2166351986716
 20
-1404.047186594187
 30
0.0000000000000271
 40
1.0
 50
40.00000000000254
 51
130.0000000000025
  0
CIRCLE
  5
15641
  8
1PHANTOM
 10
-232.6201593449614
 20
-1431.192806041388
 30
0.0000000000000271
 40
18.5
  0
CIRCLE
  5
15642
  8
1PHANTOM
 10
-232.6201593449614
 20
-1431.192806041388
 30
0.0000000000000271
 40
57.5
  0
LINE
  5
15647
  8
01
 10
-270.4605926080283
 20
-1388.924841398433
 30
-0.0000000000000568
 11
-270.3256122342971
 21
-1387.801551454248
 31
-0.0000000000000568
  0
LINE
  5
15648
  8
01
 10
-270.5771398636043
 20
-1387.481318037964
 30
-0.0000000000000568
 11
-270.3256122342968
 21
-1387.801551454248
 31
-0.0000000000000568
  0
ARC
  5
15649
  8
01
 10
-272.1226441694567
 20
-1386.161223369987
 30
-0.0000000000000568
 40
2.0
 50
129.6871378090537
 51
309.3331874512681
  0
ARC
  5
1564B
  8
01
 10
-145.5808986675993
 20
-1957.073814442686
 30
-0.0000000000000568
 40
599.9999999999999
 50
93.4945523171175
 51
97.28487562197775
  0
ARC
  5
1564C
  8
01
 10
-201.6532326604683
 20
-1865.013164374866
 30
-0.0000000000000568
 40
499.9999999999999
 50
87.75586111253885
 51
90.83351879761561
  0
ARC
  5
1564D
  8
01
 10
-181.9331397255009
 20
-1361.791077147956
 30
-0.0000000000000568
 40
3.608331085151462
 50
267.7558611125388
 51
93.4945523171175
  0
ARC
  5
1564F
  8
01
 10
-208.9822854722022
 20
-1461.109839792054
 30
-0.0000000000000568
 40
100.0
 50
97.28487562197775
 51
130.1124160971389
  0
ARC
  5
15650
  8
01
 10
-207.4720863690378
 20
-1465.055490437338
 30
-0.0000000000000568
 40
100.0
 50
90.83351879761561
 51
129.3331874512681
  0
LINE
  5
15651
  8
01
 10
-271.2267846711752
 20
-1387.949360881293
 30
-0.0000000000000568
 11
-270.4605926080283
 21
-1388.924841398433
 31
-0.0000000000000568
  0
LINE
  5
15794
  8
01
 10
-454.1201593449616
 20
-1327.500332800812
 30
0.0
 11
-454.1201593449615
 21
-1256.916370854603
 31
0.0
  0
LINE
  5
15795
  8
01
 10
-310.1201593449615
 20
-1327.500332800811
 30
0.0
 11
-310.1201593449615
 21
-1256.916370854603
 31
0.0
  0
LINE
  5
15799
  8
01
 10
-362.1201593449614
 20
-1238.682915262425
 30
0.0000000000000568
 11
-402.1201593449615
 21
-1238.682915262425
 31
0.0000000000000568
  0
LINE
  5
1579A
  8
01
 10
-402.1201593449615
 20
-1255.808282001624
 30
0.0000000000000508
 11
-402.1201593449615
 21
-1238.682915262425
 31
0.0000000000000568
  0
LINE
  5
1579B
  8
01
 10
-362.1201593449614
 20
-1255.808282001624
 30
0.000000000000051
 11
-362.1201593449613
 21
-1238.682915262425
 31
0.0000000000000568
  0
LINE
  5
157A1
  8
01
 10
-310.6201593449615
 20
-1256.416370854603
 30
0.0
 11
-453.6201593449615
 21
-1256.416370854603
 31
0.0
  0
LINE
  5
157A2
  8
01
 10
-453.6201593449616
 20
-1328.000332800812
 30
0.0
 11
-310.6201593449615
 21
-1328.000332800811
 31
0.0
  0
LINE
  5
157A3
  8
01
 10
-354.6201593449612
 20
-1247.944613069426
 30
0.0000000000000839
 11
-359.6201593449615
 21
-1247.944613069426
 31
0.0000000000000839
  0
LINE
  5
157A4
  8
01
 10
-452.6201593449615
 20
-1256.416370854602
 30
0.0000000000000786
 11
-452.6201593449617
 21
-1248.444613069427
 31
0.0000000000000836
  0
LINE
  5
157A5
  8
01
 10
-354.6201593449613
 20
-1255.808282001624
 30
-0.0000000000000377
 11
-354.6201593449612
 21
-1247.944613069426
 31
-0.0000000000000401
  0
LINE
  5
157A6
  8
01
 10
-359.6201593449616
 20
-1255.808282001624
 30
0.0
 11
-359.6201593449615
 21
-1247.944613069427
 31
0.0
  0
LINE
  5
157A7
  8
01
 10
-404.6201593449615
 20
-1255.808282001624
 30
0.0
 11
-404.6201593449615
 21
-1247.944613069426
 31
0.0
  0
LINE
  5
157AA
  8
01
 10
-404.6201593449615
 20
-1247.944613069427
 30
0.0000000000000839
 11
-452.1201593449617
 21
-1247.944613069427
 31
0.0000000000000839
  0
LINE
  5
157AB
  8
01
 10
-359.6201593449615
 20
-1250.95717117941
 30
0.0
 11
-362.1201593449614
 21
-1250.95717117941
 31
0.0
  0
LINE
  5
157AC
  8
01
 10
-404.6201593449614
 20
-1250.95717117941
 30
0.0
 11
-402.1201593449615
 21
-1250.95717117941
 31
0.0
  0
LINE
  5
15BA2
  8
1PHANTOM
 10
-371.9201593449618
 20
-1243.682915262425
 30
0.0000000000000568
 11
-371.9201593449618
 21
-1242.682915262425
 31
0.0000000000000568
  0
LINE
  5
15BA3
  8
1PHANTOM
 10
-364.3201593449619
 20
-1243.682915262425
 30
0.0000000000000568
 11
-364.3201593449619
 21
-1242.682915262425
 31
0.0000000000000568
  0
LINE
  5
15BA4
  8
1PHANTOM
 10
-367.6201594949619
 20
-1243.682915262425
 30
0.0000000000000568
 11
-368.6201591949618
 21
-1242.682915262425
 31
0.0000000000000568
  0
LINE
  5
15BA5
  8
1PHANTOM
 10
-364.3201593449619
 20
-1243.682915262425
 30
0.0000000000000568
 11
-371.9201593449618
 21
-1243.682915262425
 31
0.0000000000000568
  0
LINE
  5
15BA6
  8
1PHANTOM
 10
-364.3201593449619
 20
-1242.682915262425
 30
0.0000000000000568
 11
-371.9201593449618
 21
-1242.682915262425
 31
0.0000000000000568
  0
LINE
  5
15BB1
  8
01
 10
-349.6201593449613
 20
-1256.416370854603
 30
-0.0000000000000113
 11
-349.6201593449613
 21
-1255.808282001624
 31
-0.0000000000000113
  0
LINE
  5
15BB2
  8
01
 10
-414.6201593449615
 20
-1256.416370854603
 30
-0.0000000000000113
 11
-414.6201593449615
 21
-1255.808282001624
 31
-0.0000000000000113
  0
LINE
  5
15BB3
  8
01
 10
-402.1201593449615
 20
-1385.213705540651
 30
0.0
 11
-402.1201593449615
 21
-1407.152424173646
 31
0.0
  0
LINE
  5
15BB4
  8
01
 10
-362.1201593449613
 20
-1385.213705540651
 30
0.0
 11
-362.1201593449613
 21
-1407.152424173646
 31
0.0
  0
LINE
  5
15BB5
  8
1CENTER
 10
-396.1201593449612
 20
-1398.652424173646
 30
0.0
 11
-396.1201593449612
 21
-1389.652424173646
 31
0.0
  0
ARC
  5
15BB6
  8
01
 10
-363.1201593449613
 20
-1407.152424173646
 30
0.0
 40
1.0
 50
270.0
 51
0.0000000000001399
  0
ARC
  5
15BB7
  8
01
 10
-401.1201593449615
 20
-1407.152424173646
 30
0.0
 40
1.0
 50
180.0
 51
270.0
  0
ARC
  5
15BB8
  8
01
 10
-178.8244254390008
 20
-1369.78130630939
 30
0.0000000000000271
 40
2.0
 50
68.07248693584346
 51
129.9999999999928
  0
LINE
  5
15BB9
  8
01
 10
-155.9915771932532
 20
-1352.652483951799
 30
0.0
 11
-155.9915771932532
 21
-1432.652483951798
 31
0.0
  0
LINE
  5
15BBA
  8
01
 10
-146.9915771932531
 20
-1352.652483951799
 30
0.0
 11
-146.9915771932532
 21
-1432.652483951798
 31
0.0
  0
LINE
  5
15BBB
  8
01
 10
-164.9915771932532
 20
-1352.652483951799
 30
0.0
 11
-164.9915771932532
 21
-1432.652483951798
 31
0.0
  0
LINE
  5
15C6D
  8
01
 10
-349.6201593449613
 20
-1255.808282001624
 30
0.0
 11
-414.6201593449615
 21
-1255.808282001624
 31
0.0
  0
ARC
  5
15C72
  8
01
 10
-452.1201593449617
 20
-1248.444613069427
 30
0.0000000000008517
 40
0.5
 50
89.99999999999959
 51
180.0000000000011
  0
ARC
  5
15C73
  8
01
 10
-310.6201593449615
 20
-1256.916370854603
 30
0.0
 40
0.5
 50
0.0
 51
90.0
  0
ARC
  5
15C74
  8
01
 10
-453.6201593449615
 20
-1256.916370854603
 30
0.0
 40
0.5
 50
90.0
 51
180.0
  0
ARC
  5
15C75
  8
01
 10
-453.6201593449616
 20
-1327.500332800812
 30
0.0
 40
0.5
 50
179.9999999999999
 51
270.0
  0
ARC
  5
15C76
  8
01
 10
-310.6201593449615
 20
-1327.500332800811
 30
0.0
 40
0.5
 50
270.0
 51
0.0
  0
LINE
  5
15C78
  8
1PHANTOM
 10
-169.9915771932532
 20
-1390.3524374159
 30
0.0
 11
-168.9915771932532
 21
-1390.3524374159
 31
0.0
  0
LINE
  5
15C79
  8
1PHANTOM
 10
-169.9915771932532
 20
-1397.9524374159
 30
0.0
 11
-168.9915771932532
 21
-1397.9524374159
 31
0.0
  0
LINE
  5
15C7A
  8
1PHANTOM
 10
-169.9915771932532
 20
-1394.6524372659
 30
0.0
 11
-168.9915771932532
 21
-1393.6524375659
 31
0.0
  0
LINE
  5
15C7B
  8
1PHANTOM
 10
-169.9915771932532
 20
-1397.9524374159
 30
0.0
 11
-169.9915771932532
 21
-1390.3524374159
 31
0.0
  0
LINE
  5
15C7C
  8
1PHANTOM
 10
-168.9915771932532
 20
-1397.9524374159
 30
0.0
 11
-168.9915771932532
 21
-1390.3524374159
 31
0.0
  0
LINE
  5
15C7F
  8
1PHANTOM
 10
-399.9201593449621
 20
-1243.682915262425
 30
0.0000000000000568
 11
-399.9201593449621
 21
-1242.682915262425
 31
0.0000000000000568
  0
LINE
  5
15C80
  8
1PHANTOM
 10
-392.3201593449622
 20
-1243.682915262425
 30
0.0000000000000568
 11
-392.3201593449622
 21
-1242.682915262425
 31
0.0000000000000568
  0
LINE
  5
15C81
  8
1PHANTOM
 10
-395.6201594949622
 20
-1243.682915262425
 30
0.0000000000000568
 11
-396.6201591949622
 21
-1242.682915262425
 31
0.0000000000000568
  0
LINE
  5
15C82
  8
1PHANTOM
 10
-392.3201593449622
 20
-1243.682915262425
 30
0.0000000000000568
 11
-399.9201593449621
 21
-1243.682915262425
 31
0.0000000000000568
  0
LINE
  5
15C83
  8
1PHANTOM
 10
-392.3201593449622
 20
-1242.682915262425
 30
0.0000000000000568
 11
-399.9201593449621
 21
-1242.682915262425
 31
0.0000000000000568
  0
LINE
  5
15DFD
  8
1DIM
 10
-184.9915771932532
 20
-1266.682915262425
 30
0.0
 11
-114.9915771932532
 21
-1266.682915262425
 31
0.0
  0
TEXT
  5
15DFE
  8
1TEXT
 10
-176.8582438599198
 20
-1244.182915262425
 30
0.0
 40
4.0
  1
表面処理
 72
     1
 11
-167.5915771932531
 21
-1244.182915262425
 31
0.0
  0
TEXT
  5
15DFF
  8
1TEXT
 10
-182.4715771932531
 20
-1251.018203921949
 30
0.0
 40
4.0
  1
ブラストシルバー
 41
0.8
 72
     1
 11
-167.5915771932531
 21
-1251.018203921949
 31
0.0
  0
LINE
  5
15E01
  8
1DIM
 10
-184.9915771932532
 20
-1238.682915262425
 30
0.0
 11
-114.9915771932532
 21
-1238.682915262425
 31
0.0
  0
LINE
  5
15E02
  8
1DIM
 10
-184.9915771932532
 20
-1252.682915262425
 30
0.0
 11
-114.9915771932532
 21
-1252.682915262425
 31
0.0
  0
LINE
  5
15E03
  8
1DIM
 10
-184.9915771932532
 20
-1245.682915262425
 30
0.0
 11
-114.9915771932532
 21
-1245.682915262425
 31
0.0
  0
LINE
  5
15E04
  8
1DIM
 10
-184.9915771932532
 20
-1259.682915262425
 30
0.0
 11
-114.9915771932532
 21
-1259.682915262425
 31
0.0
  0
LINE
  5
15E05
  8
1DIM
 10
-184.9915771932532
 20
-1259.682915262425
 30
0.0
 11
-114.9915771932532
 21
-1259.682915262425
 31
0.0
  0
LINE
  5
15E06
  8
1DIM
 10
-149.9915771932532
 20
-1238.682915262425
 30
0.0
 11
-149.9915771932532
 21
-1266.682915262425
 31
0.0
  0
TEXT
  5
15E07
  8
1TEXT
 10
-148.1915771932526
 20
-1251.397272246074
 30
0.0
 40
4.0
  1
SC-473-XS
 41
0.9
 72
     1
 11
-132.5915771932526
 21
-1251.397272246074
 31
0.0
  0
TEXT
  5
15E09
  8
1TEXT
 10
-139.4582438599198
 20
-1244.182915262425
 30
0.0
 40
4.0
  1
コード
 72
     1
 11
-132.5915771932531
 21
-1244.182915262425
 31
0.0
  0
LINE
  5
15E0B
  8
1DIM
 10
-184.9915771932532
 20
-1266.682915262425
 30
0.0
 11
-184.9915771932532
 21
-1238.682915262425
 31
0.0
  0
LINE
  5
15E0C
  8
1DIM
 10
-114.9915771932532
 20
-1266.682915262425
 30
0.0
 11
-114.9915771932532
 21
-1238.682915262425
 31
0.0
  0
TEXT
  5
15E0E
  8
1TEXT
 10
-148.1915771932526
 20
-1265.397272246074
 30
0.0
 40
4.0
  1
SC-473-4U
 41
0.9
 72
     1
 11
-132.5915771932526
 21
-1265.397272246074
 31
0.0
  0
TEXT
  5
15E12
  8
1TEXT
 10
-184.9915771932532
 20
-1233.682915262425
 30
0.0
 40
8.0
  1
SC-473-X
  0
TEXT
  5
15E25
  8
1TEXT
 10
-184.5349105265864
 20
-1265.018203921949
 30
0.0
 40
4.0
  1
ブラストライトブロンズ
 41
0.65
 72
     1
 11
-167.5915771932531
 21
-1265.018203921949
 31
0.0
  0
TEXT
  5
170FC
  8
1TEXT
 10
-148.1915771932526
 20
-1258.397272246074
 30
0.0
 40
4.0
  1
SC-473-XK
 41
0.9
 72
     1
 11
-132.5915771932526
 21
-1258.397272246074
 31
0.0
  0
TEXT
  5
170FD
  8
1TEXT
 10
-182.4715771932531
 20
-1258.018203921949
 30
0.0
 40
4.0
  1
ブラストブラック
 41
0.8
 72
     1
 11
-167.5915771932531
 21
-1258.018203921949
 31
0.0
  0
LINE
  5
171F4
  8
01
 10
-178.5496840232728
 20
-1369.051911406457
 30
0.0000000000000001
 11
-178.5496840232728
 21
-1373.965852239112
 31
0.0000000000000001
  0
LINE
  5
171F5
  8
01
 10
-176.092713606945
 20
-1371.508881822785
 30
0.0000000000000001
 11
-181.0066544396005
 21
-1371.508881822785
 31
0.0000000000000001
  0
LINE
  5
171F6
  8
1DIM
 10
-454.1201593449615
 20
-1358.800332800812
 30
0.0
 11
-454.1201593449615
 21
-1347.000332800812
 31
0.0
  0
LINE
  5
171F7
  8
1DIM
 10
-310.1201593449615
 20
-1358.800332800812
 30
0.0
 11
-310.1201593449615
 21
-1347.000332800812
 31
0.0
  0
LINE
  5
171F8
  8
1DIM
 10
-452.1201593449615
 20
-1348.000332800812
 30
0.0
 11
-312.1201593449615
 21
-1348.000332800812
 31
0.0
  0
LINE
  5
171FC
  8
1DIM
 10
-164.9915771932498
 20
-1378.1524374159
 30
0.0
 11
-123.9915771932532
 21
-1378.1524374159
 31
0.0
  0
LINE
  5
171FD
  8
1DIM
 10
-164.9915771932532
 20
-1394.1524374159
 30
0.0
 11
-123.9915771932532
 21
-1394.1524374159
 31
0.0
  0
LINE
  5
171FE
  8
1DIM
 10
-124.9915771932532
 20
-1380.1524374159
 30
0.0
 11
-124.9915771932532
 21
-1392.1524374159
 31
0.0
  0
LINE
  5
17202
  8
1DIM
 10
-274.1226441694567
 20
-1386.161223369987
 30
0.0
 11
-274.1226441694567
 21
-1337.000332800812
 31
0.0
1001
ACAD
1000
DSTYLE
1002
{
1070
     3
1000
<>
1070
   179
1070
     0
1070
   271
1070
     0
1002
}
  0
LINE
  5
17203
  8
1DIM
 10
-164.9915771932532
 20
-1352.652483951799
 30
0.0
 11
-164.9915771932532
 21
-1337.000332800812
 31
0.0
1001
ACAD
1000
DSTYLE
1002
{
1070
     3
1000
<>
1070
   179
1070
     0
1070
   271
1070
     0
1002
}
  0
LINE
  5
17204
  8
1DIM
 10
-272.1226441694567
 20
-1338.000332800812
 30
0.0
 11
-166.9915771932532
 21
-1338.000332800812
 31
0.0
1001
ACAD
1000
DSTYLE
1002
{
1070
     3
1000
<>
1070
   179
1070
     0
1070
   271
1070
     0
1002
}
  0
LINE
  5
17208
  8
1DIM
 10
-164.9915771932532
 20
-1408.1524374159
 30
0.0
 11
-113.9915771932532
 21
-1408.1524374159
 31
0.0
  0
LINE
  5
17209
  8
1DIM
 10
-164.9915771932532
 20
-1378.1524374159
 30
0.0
 11
-113.9915771932532
 21
-1378.1524374159
 31
0.0
  0
LINE
  5
1720A
  8
1DIM
 10
-114.9915771932532
 20
-1406.1524374159
 30
0.0
 11
-114.9915771932532
 21
-1380.1524374159
 31
0.0
  0
LINE
  5
1720F
  8
1CENTER
 10
-368.1201593449618
 20
-1210.722000671279
 30
0.0000000000000568
 11
-368.1201593449618
 21
-1247.353191671734
 31
0.0000000000000568
  0
LINE
  5
17210
  8
0
 10
-369.2144831589569
 20
-1215.782912716265
 30
0.0000000000000568
 11
-367.2521480700815
 21
-1214.982917282214
 31
0.0000000000000568
  0
LINE
  5
17211
  8
0
 10
-367.2521480700815
 20
-1214.982917282214
 30
0.0000000000000568
 11
-367.8404246451239
 21
-1214.671147425962
 31
0.0000000000000568
  0
LINE
  5
17212
  8
0
 10
-370.1201128090639
 20
-1238.182910609055
 30
0.0000000000000568
 11
-366.1201128090639
 21
-1237.382919916237
 31
0.0000000000000568
  0
LINE
  5
17213
  8
0
 10
-370.1201128090639
 20
-1226.982910609051
 30
0.0000000000000568
 11
-366.1201128090639
 21
-1226.182919916228
 31
0.0000000000000568
  0
LINE
  5
17214
  8
0
 10
-370.1201128090639
 20
-1223.782910609051
 30
0.0000000000000568
 11
-366.1201128090639
 21
-1222.982919916228
 31
0.0000000000000568
  0
LINE
  5
17215
  8
0
 10
-366.1201128090639
 20
-1222.982919916228
 30
0.0000000000000568
 11
-366.6201128090639
 21
-1222.882918752831
 31
0.0000000000000568
  0
LINE
  5
17216
  8
0
 10
-369.6201128090639
 20
-1222.282911772448
 30
0.0000000000000568
 11
-370.1201128090639
 21
-1222.182910609051
 31
0.0000000000000568
  0
LINE
  5
17217
  8
0
 10
-366.1201128090639
 20
-1226.182919916228
 30
0.0000000000000568
 11
-366.6201128090639
 21
-1226.082918752831
 31
0.0000000000000568
  0
LINE
  5
17218
  8
0
 10
-366.1201128090639
 20
-1224.582919916228
 30
0.0000000000000568
 11
-366.6201128090639
 21
-1224.482918752831
 31
0.0000000000000568
  0
LINE
  5
17219
  8
0
 10
-369.6201128090639
 20
-1223.882911772448
 30
0.0000000000000568
 11
-370.1201128090639
 21
-1223.782910609051
 31
0.0000000000000568
  0
LINE
  5
1721A
  8
0
 10
-369.6201128090639
 20
-1225.482911772448
 30
0.0000000000000568
 11
-370.1201128090639
 21
-1225.382910609051
 31
0.0000000000000568
  0
LINE
  5
1721B
  8
0
 10
-370.1201128090639
 20
-1225.382910609051
 30
0.0000000000000568
 11
-366.1201128090639
 21
-1224.582919916228
 31
0.0000000000000568
  0
LINE
  5
1721C
  8
0
 10
-366.7993339656747
 20
-1216.58291833582
 30
0.0000000000000568
 11
-367.351083429478
 21
-1216.400154193192
 31
0.0000000000000568
  0
LINE
  5
1721D
  8
0
 10
-366.1201128090639
 20
-1219.782919916228
 30
0.0000000000000568
 11
-366.6201128090639
 21
-1219.682918752831
 31
0.0000000000000568
  0
LINE
  5
1721E
  8
0
 10
-366.1201128090639
 20
-1221.382919916228
 30
0.0000000000000568
 11
-366.6201128090639
 21
-1221.282918752831
 31
0.0000000000000568
  0
LINE
  5
1721F
  8
0
 10
-366.3465198612679
 20
-1218.182919389425
 30
0.0000000000000568
 11
-366.883113596539
 21
-1218.053648691796
 31
0.0000000000000568
  0
LINE
  5
17220
  8
0
 10
-369.1991982118552
 20
-1217.495681175011
 30
0.0000000000000568
 11
-369.6672966670052
 21
-1217.382911662661
 31
0.0000000000000568
  0
LINE
  5
17221
  8
0
 10
-369.6201128090639
 20
-1220.682911772448
 30
0.0000000000000568
 11
-370.1201128090639
 21
-1220.582910609051
 31
0.0000000000000568
  0
LINE
  5
17222
  8
0
 10
-369.6201128090639
 20
-1219.082911772448
 30
0.0000000000000568
 11
-370.1201128090639
 21
-1218.982910609051
 31
0.0000000000000568
  0
LINE
  5
17223
  8
0
 10
-368.7573113183258
 20
-1215.934348512706
 30
0.0000000000000568
 11
-369.2144831589569
 21
-1215.782912716265
 31
0.0000000000000568
  0
LINE
  5
17224
  8
0
 10
-369.6672966670052
 20
-1217.382911662661
 30
0.0000000000000568
 11
-366.7993339656747
 21
-1216.58291833582
 31
0.0000000000000568
  0
LINE
  5
17225
  8
0
 10
-370.1201128090639
 20
-1220.582910609051
 30
0.0000000000000568
 11
-366.1201128090639
 21
-1219.782919916228
 31
0.0000000000000568
  0
LINE
  5
17226
  8
0
 10
-370.1201128090639
 20
-1218.982910609051
 30
0.0000000000000568
 11
-366.3465198612679
 21
-1218.182919389425
 31
0.0000000000000568
  0
LINE
  5
17227
  8
0
 10
-370.1201128090639
 20
-1222.182910609051
 30
0.0000000000000568
 11
-366.1201128090639
 21
-1221.382919916228
 31
0.0000000000000568
  0
LINE
  5
17228
  8
0
 10
-370.1201128090639
 20
-1234.982910609055
 30
0.0000000000000568
 11
-366.1201128090639
 21
-1234.182919916237
 31
0.0000000000000568
  0
LINE
  5
17229
  8
0
 10
-366.1201128090639
 20
-1234.182919916237
 30
0.0000000000000568
 11
-366.6201128090639
 21
-1234.082918752839
 31
0.0000000000000568
  0
LINE
  5
1722A
  8
0
 10
-369.6201128090639
 20
-1233.482911772448
 30
0.0000000000000568
 11
-370.1201128090639
 21
-1233.382910609051
 31
0.0000000000000568
  0
LINE
  5
1722B
  8
0
 10
-366.1201128090639
 20
-1235.782919916237
 30
0.0000000000000568
 11
-366.6201128090639
 21
-1235.682918752839
 31
0.0000000000000568
  0
LINE
  5
1722C
  8
0
 10
-366.1201128090639
 20
-1237.382919916237
 30
0.0000000000000568
 11
-366.6201128090639
 21
-1237.282918752839
 31
0.0000000000000568
  0
LINE
  5
1722D
  8
0
 10
-369.6201128090639
 20
-1235.082911772453
 30
0.0000000000000568
 11
-370.1201128090639
 21
-1234.982910609055
 31
0.0000000000000568
  0
LINE
  5
1722E
  8
0
 10
-369.6201128090639
 20
-1236.682911772453
 30
0.0000000000000568
 11
-370.1201128090639
 21
-1236.582910609055
 31
0.0000000000000568
  0
LINE
  5
1722F
  8
0
 10
-370.1201128090639
 20
-1236.582910609055
 30
0.0000000000000568
 11
-366.1201128090639
 21
-1235.782919916237
 31
0.0000000000000568
  0
LINE
  5
17230
  8
0
 10
-366.1201128090639
 20
-1229.382919916233
 30
0.0000000000000568
 11
-366.6201128090639
 21
-1229.282918752835
 31
0.0000000000000568
  0
LINE
  5
17231
  8
0
 10
-366.1201128090639
 20
-1227.782919916228
 30
0.0000000000000568
 11
-366.6201128090639
 21
-1227.682918752831
 31
0.0000000000000568
  0
LINE
  5
17232
  8
0
 10
-366.1201128090639
 20
-1232.582919916233
 30
0.0000000000000568
 11
-366.6201128090639
 21
-1232.482918752835
 31
0.0000000000000568
  0
LINE
  5
17233
  8
0
 10
-366.1201128090639
 20
-1230.982919916233
 30
0.0000000000000568
 11
-366.6201128090639
 21
-1230.882918752835
 31
0.0000000000000568
  0
LINE
  5
17234
  8
0
 10
-369.6201128090639
 20
-1227.082911772448
 30
0.0000000000000568
 11
-370.1201128090639
 21
-1226.982910609051
 31
0.0000000000000568
  0
LINE
  5
17235
  8
0
 10
-369.6201128090639
 20
-1228.682911772449
 30
0.0000000000000568
 11
-370.1201128090639
 21
-1228.582910609051
 31
0.0000000000000568
  0
LINE
  5
17236
  8
0
 10
-369.6201128090639
 20
-1231.882911772449
 30
0.0000000000000568
 11
-370.1201128090639
 21
-1231.782910609051
 31
0.0000000000000568
  0
LINE
  5
17237
  8
0
 10
-369.6201128090639
 20
-1230.282911772448
 30
0.0000000000000568
 11
-370.1201128090639
 21
-1230.182910609051
 31
0.0000000000000568
  0
LINE
  5
17238
  8
0
 10
-370.1201128090639
 20
-1230.182910609051
 30
0.0000000000000568
 11
-366.1201128090639
 21
-1229.382919916233
 31
0.0000000000000568
  0
LINE
  5
17239
  8
0
 10
-370.1201128090639
 20
-1228.582910609051
 30
0.0000000000000568
 11
-366.1201128090639
 21
-1227.782919916228
 31
0.0000000000000568
  0
LINE
  5
1723A
  8
0
 10
-370.1201128090639
 20
-1231.782910609051
 30
0.0000000000000568
 11
-366.1201128090639
 21
-1230.982919916233
 31
0.0000000000000568
  0
LINE
  5
1723B
  8
0
 10
-370.1201128090639
 20
-1233.382910609051
 30
0.0000000000000568
 11
-366.1201128090639
 21
-1232.582919916233
 31
0.0000000000000568
  0
LINE
  5
1723C
  8
0
 10
-366.6201128090639
 20
-1243.682918752726
 30
0.0000000000000568
 11
-369.6201128090637
 21
-1243.682911772341
 31
0.0000000000000568
  0
LINE
  5
1723D
  8
0
 10
-369.6201128090639
 20
-1243.082911772457
 30
0.0000000000000568
 11
-370.1201128090639
 21
-1242.982910609059
 31
0.0000000000000568
  0
LINE
  5
1723E
  8
0
 10
-370.1201128090639
 20
-1242.982910609059
 30
0.0000000000000568
 11
-366.1201128090639
 21
-1242.182919916241
 31
0.0000000000000568
  0
LINE
  5
1723F
  8
0
 10
-366.1201128090639
 20
-1242.182919916241
 30
0.0000000000000568
 11
-366.6201128090639
 21
-1242.082918752843
 31
0.0000000000000568
  0
LINE
  5
17240
  8
0
 10
-369.6201128090639
 20
-1241.482911772457
 30
0.0000000000000568
 11
-370.1201128090639
 21
-1241.38291060906
 31
0.0000000000000568
  0
LINE
  5
17241
  8
0
 10
-369.6201128090639
 20
-1239.882911772457
 30
0.0000000000000568
 11
-370.1201128090639
 21
-1239.78291060906
 31
0.0000000000000568
  0
LINE
  5
17242
  8
0
 10
-370.1201128090639
 20
-1239.78291060906
 30
0.0000000000000568
 11
-366.1201128090639
 21
-1238.982919916241
 31
0.0000000000000568
  0
LINE
  5
17243
  8
0
 10
-366.1201128090639
 20
-1240.582919916241
 30
0.0000000000000568
 11
-366.6201128090639
 21
-1240.482918752843
 31
0.0000000000000568
  0
LINE
  5
17244
  8
0
 10
-366.1201128090639
 20
-1238.982919916241
 30
0.0000000000000568
 11
-366.6201128090639
 21
-1238.882918752844
 31
0.0000000000000568
  0
LINE
  5
17245
  8
0
 10
-370.1201128090639
 20
-1241.38291060906
 30
0.0000000000000568
 11
-366.1201128090639
 21
-1240.582919916241
 31
0.0000000000000568
  0
LINE
  5
17246
  8
0
 10
-369.6201128090639
 20
-1238.282911772453
 30
0.0000000000000568
 11
-370.1201128090639
 21
-1238.182910609055
 31
0.0000000000000568
  0
TEXT
  5
17247
  8
1DIM
  6
CONTINUOUS
 10
-155.1691314563236
 20
-1338.361987162258
 30
0.0
 40
3.5
  1
合板9mm以上
  0
SOLID
  5
17248
  8
1DIM
 10
-152.3684250266886
 20
-1351.517788678923
 30
0.0
 11
-151.913626357234
 21
-1353.493711066411
 31
0.0
 12
-152.9846810080653
 22
-1351.772097565638
 32
0.0
 13
-152.9846810080653
 23
-1351.772097565638
 33
0.0
  0
LINE
  5
17249
  8
1DIM
 10
-152.6765530173769
 20
-1351.644943122281
 30
0.0
 11
-157.8691314563236
 21
-1339.061987162258
 31
0.0
  0
LINE
  5
1724A
  8
1DIM
 10
-157.8691314563236
 20
-1339.061987162258
 30
0.0
 11
-155.8691314563236
 21
-1339.061987162258
 31
0.0
  0
SOLID
  5
1724B
  8
1HATCH
 10
-160.4319458392194
 20
-1351.513402148824
 30
0.0
 11
-160.4116085711752
 21
-1353.540887662124
 31
0.0
 12
-161.0884093966114
 22
-1351.629591831071
 32
0.0
 13
-161.0884093966114
 23
-1351.629591831071
 33
0.0
  0
LINE
  5
1724C
  8
1HATCH
 10
-160.7601776179154
 20
-1351.571496989948
 30
0.0
 11
-164.0364759508622
 21
-1333.060641145134
 31
0.0
  0
LINE
  5
1724D
  8
1HATCH
 10
-164.0364759508622
 20
-1333.060641145134
 30
0.0
 11
-155.5031426175289
 21
-1333.060641145134
 31
0.0
  0
TEXT
  5
1724E
  8
1HATCH
  6
CONTINUOUS
 10
-161.3364759508622
 20
-1332.360641145134
 30
0.0
 40
3.5
  1
PB
  0
LINE
  5
17250
  8
1CENTER
 10
-137.0306626021072
 20
-1394.1524374159
 30
0.0
 11
-173.661853602562
 21
-1394.1524374159
 31
0.0
  0
LINE
  5
17251
  8
0
 10
-142.0915746470934
 20
-1393.058113601905
 30
0.0
 11
-141.2915792130424
 21
-1395.020448690781
 31
0.0
  0
LINE
  5
17252
  8
0
 10
-141.2915792130424
 20
-1395.020448690781
 30
0.0
 11
-140.9798093567903
 21
-1394.432172115738
 31
0.0
  0
LINE
  5
17253
  8
0
 10
-164.4915725398834
 20
-1392.152483951798
 30
0.0
 11
-163.6915818470652
 21
-1396.152483951798
 31
0.0
  0
LINE
  5
17254
  8
0
 10
-153.291572539879
 20
-1392.152483951798
 30
0.0
 11
-152.4915818470565
 21
-1396.152483951798
 31
0.0
  0
LINE
  5
17255
  8
0
 10
-150.091572539879
 20
-1392.152483951798
 30
0.0
 11
-149.2915818470564
 21
-1396.152483951798
 31
0.0
  0
LINE
  5
17256
  8
0
 10
-149.2915818470564
 20
-1396.152483951798
 30
0.0
 11
-149.1915806836592
 21
-1395.652483951798
 31
0.0
  0
LINE
  5
17257
  8
0
 10
-148.5915737032762
 20
-1392.652483951798
 30
0.0
 11
-148.491572539879
 21
-1392.152483951798
 31
0.0
  0
LINE
  5
17258
  8
0
 10
-152.4915818470565
 20
-1396.152483951798
 30
0.0
 11
-152.3915806836592
 21
-1395.652483951798
 31
0.0
  0
LINE
  5
17259
  8
0
 10
-150.8915818470563
 20
-1396.152483951798
 30
0.0
 11
-150.7915806836592
 21
-1395.652483951798
 31
0.0
  0
LINE
  5
1725A
  8
0
 10
-150.1915737032761
 20
-1392.652483951798
 30
0.0
 11
-150.091572539879
 21
-1392.152483951798
 31
0.0
  0
LINE
  5
1725B
  8
0
 10
-151.791573703276
 20
-1392.652483951798
 30
0.0
 11
-151.6915725398789
 21
-1392.152483951798
 31
0.0
  0
LINE
  5
1725C
  8
0
 10
-151.6915725398789
 20
-1392.152483951798
 30
0.0
 11
-150.8915818470563
 21
-1396.152483951798
 31
0.0
  0
LINE
  5
1725D
  8
0
 10
-142.8915802666481
 20
-1395.473262795187
 30
0.0
 11
-142.7088161240201
 21
-1394.921513331384
 31
0.0
  0
LINE
  5
1725E
  8
0
 10
-146.0915818470564
 20
-1396.152483951798
 30
0.0
 11
-145.9915806836593
 21
-1395.652483951798
 31
0.0
  0
LINE
  5
1725F
  8
0
 10
-147.6915818470564
 20
-1396.152483951798
 30
0.0
 11
-147.5915806836594
 21
-1395.652483951798
 31
0.0
  0
LINE
  5
17260
  8
0
 10
-144.4915813202537
 20
-1395.926076899594
 30
0.0
 11
-144.3623106226239
 21
-1395.389483164323
 31
0.0
  0
LINE
  5
17261
  8
0
 10
-143.8043431058392
 20
-1393.073398549007
 30
0.0
 11
-143.6915735934892
 21
-1392.605300093857
 31
0.0
  0
LINE
  5
17262
  8
0
 10
-146.9915737032761
 20
-1392.652483951798
 30
0.0
 11
-146.891572539879
 21
-1392.152483951798
 31
0.0
  0
LINE
  5
17263
  8
0
 10
-145.3915737032762
 20
-1392.652483951798
 30
0.0
 11
-145.291572539879
 21
-1392.152483951798
 31
0.0
  0
LINE
  5
17264
  8
0
 10
-142.2430104435338
 20
-1393.515285442536
 30
0.0
 11
-142.0915746470934
 21
-1393.058113601905
 31
0.0
  0
LINE
  5
17265
  8
0
 10
-143.6915735934892
 20
-1392.605300093857
 30
0.0
 11
-142.8915802666481
 21
-1395.473262795187
 31
0.0
  0
LINE
  5
17266
  8
0
 10
-146.891572539879
 20
-1392.152483951798
 30
0.0
 11
-146.0915818470564
 21
-1396.152483951798
 31
0.0
  0
LINE
  5
17267
  8
0
 10
-145.291572539879
 20
-1392.152483951798
 30
0.0
 11
-144.4915813202537
 21
-1395.926076899594
 31
0.0
  0
LINE
  5
17268
  8
0
 10
-148.491572539879
 20
-1392.152483951798
 30
0.0
 11
-147.6915818470564
 21
-1396.152483951798
 31
0.0
  0
LINE
  5
17269
  8
0
 10
-161.2915725398834
 20
-1392.152483951798
 30
0.0
 11
-160.4915818470651
 21
-1396.152483951798
 31
0.0
  0
LINE
  5
1726A
  8
0
 10
-160.4915818470651
 20
-1396.152483951798
 30
0.0
 11
-160.3915806836674
 21
-1395.652483951798
 31
0.0
  0
LINE
  5
1726B
  8
0
 10
-159.7915737032767
 20
-1392.652483951798
 30
0.0
 11
-159.691572539879
 21
-1392.152483951798
 31
0.0
  0
LINE
  5
1726C
  8
0
 10
-162.0915818470652
 20
-1396.152483951798
 30
0.0
 11
-161.9915806836676
 21
-1395.652483951798
 31
0.0
  0
LINE
  5
1726D
  8
0
 10
-163.6915818470652
 20
-1396.152483951798
 30
0.0
 11
-163.5915806836675
 21
-1395.652483951798
 31
0.0
  0
LINE
  5
1726E
  8
0
 10
-161.391573703281
 20
-1392.652483951798
 30
0.0
 11
-161.2915725398834
 21
-1392.152483951798
 31
0.0
  0
LINE
  5
1726F
  8
0
 10
-162.9915737032812
 20
-1392.652483951798
 30
0.0
 11
-162.8915725398835
 21
-1392.152483951798
 31
0.0
  0
LINE
  5
17270
  8
0
 10
-162.8915725398835
 20
-1392.152483951798
 30
0.0
 11
-162.0915818470652
 21
-1396.152483951798
 31
0.0
  0
LINE
  5
17271
  8
0
 10
-155.6915818470607
 20
-1396.152483951798
 30
0.0
 11
-155.591580683663
 21
-1395.652483951798
 31
0.0
  0
LINE
  5
17272
  8
0
 10
-154.0915818470564
 20
-1396.152483951798
 30
0.0
 11
-153.9915806836593
 21
-1395.652483951798
 31
0.0
  0
LINE
  5
17273
  8
0
 10
-158.8915818470608
 20
-1396.152483951798
 30
0.0
 11
-158.7915806836631
 21
-1395.652483951798
 31
0.0
  0
LINE
  5
17274
  8
0
 10
-157.2915818470609
 20
-1396.152483951798
 30
0.0
 11
-157.1915806836632
 21
-1395.652483951798
 31
0.0
  0
LINE
  5
17275
  8
0
 10
-153.3915737032762
 20
-1392.652483951798
 30
0.0
 11
-153.291572539879
 21
-1392.152483951798
 31
0.0
  0
LINE
  5
17276
  8
0
 10
-154.9915737032767
 20
-1392.652483951798
 30
0.0
 11
-154.891572539879
 21
-1392.152483951798
 31
0.0
  0
LINE
  5
17277
  8
0
 10
-158.1915737032768
 20
-1392.652483951798
 30
0.0
 11
-158.0915725398791
 21
-1392.152483951798
 31
0.0
  0
LINE
  5
17278
  8
0
 10
-156.5915737032767
 20
-1392.652483951798
 30
0.0
 11
-156.491572539879
 21
-1392.152483951798
 31
0.0
  0
LINE
  5
17279
  8
0
 10
-156.491572539879
 20
-1392.152483951798
 30
0.0
 11
-155.6915818470607
 21
-1396.152483951798
 31
0.0
  0
LINE
  5
1727A
  8
0
 10
-154.891572539879
 20
-1392.152483951798
 30
0.0
 11
-154.0915818470564
 21
-1396.152483951798
 31
0.0
  0
LINE
  5
1727B
  8
0
 10
-158.0915725398791
 20
-1392.152483951798
 30
0.0
 11
-157.2915818470609
 21
-1396.152483951798
 31
0.0
  0
LINE
  5
1727C
  8
0
 10
-159.691572539879
 20
-1392.152483951798
 30
0.0
 11
-158.8915818470608
 21
-1396.152483951798
 31
0.0
  0
LINE
  5
1727D
  8
0
 10
-169.9915806835538
 20
-1395.652483951798
 30
0.0
 11
-169.9915737031691
 21
-1392.652483951798
 31
0.0
  0
LINE
  5
1727E
  8
0
 10
-169.3915737032852
 20
-1392.652483951798
 30
0.0
 11
-169.2915725398876
 21
-1392.152483951798
 31
0.0
  0
LINE
  5
1727F
  8
0
 10
-169.2915725398876
 20
-1392.152483951798
 30
0.0
 11
-168.4915818470693
 21
-1396.152483951798
 31
0.0
  0
LINE
  5
17280
  8
0
 10
-168.4915818470693
 20
-1396.152483951798
 30
0.0
 11
-168.3915806836716
 21
-1395.652483951798
 31
0.0
  0
LINE
  5
17281
  8
0
 10
-167.7915737032853
 20
-1392.652483951798
 30
0.0
 11
-167.6915725398877
 21
-1392.152483951798
 31
0.0
  0
LINE
  5
17282
  8
0
 10
-166.1915737032854
 20
-1392.652483951798
 30
0.0
 11
-166.0915725398877
 21
-1392.152483951798
 31
0.0
  0
LINE
  5
17283
  8
0
 10
-166.0915725398877
 20
-1392.152483951798
 30
0.0
 11
-165.2915818470695
 21
-1396.152483951798
 31
0.0
  0
LINE
  5
17284
  8
0
 10
-166.8915818470694
 20
-1396.152483951798
 30
0.0
 11
-166.7915806836717
 21
-1395.652483951798
 31
0.0
  0
LINE
  5
17285
  8
0
 10
-165.2915818470695
 20
-1396.152483951798
 30
0.0
 11
-165.1915806836718
 21
-1395.652483951798
 31
0.0
  0
LINE
  5
17286
  8
0
 10
-167.6915725398877
 20
-1392.152483951798
 30
0.0
 11
-166.8915818470694
 21
-1396.152483951798
 31
0.0
  0
LINE
  5
17287
  8
0
 10
-164.5915737032811
 20
-1392.652483951798
 30
0.0
 11
-164.4915725398834
 21
-1392.152483951798
 31
0.0
  0
LINE
  5
17289
  8
1CENTER
 10
-396.1201593449622
 20
-1210.722000671278
 30
0.0000000000000568
 11
-396.1201593449622
 21
-1247.353191671733
 31
0.0000000000000568
  0
LINE
  5
1728A
  8
0
 10
-397.2144831589573
 20
-1215.782912716265
 30
0.0000000000000568
 11
-395.2521480700818
 21
-1214.982917282214
 31
0.0000000000000568
  0
LINE
  5
1728B
  8
0
 10
-395.2521480700818
 20
-1214.982917282214
 30
0.0000000000000568
 11
-395.8404246451242
 21
-1214.671147425962
 31
0.0000000000000568
  0
LINE
  5
1728C
  8
0
 10
-398.1201128090643
 20
-1238.182910609055
 30
0.0000000000000568
 11
-394.1201128090643
 21
-1237.382919916236
 31
0.0000000000000568
  0
LINE
  5
1728D
  8
0
 10
-398.1201128090643
 20
-1226.98291060905
 30
0.0000000000000568
 11
-394.1201128090643
 21
-1226.182919916228
 31
0.0000000000000568
  0
LINE
  5
1728E
  8
0
 10
-398.1201128090643
 20
-1223.78291060905
 30
0.0000000000000568
 11
-394.1201128090643
 21
-1222.982919916228
 31
0.0000000000000568
  0
LINE
  5
1728F
  8
0
 10
-394.1201128090643
 20
-1222.982919916228
 30
0.0000000000000568
 11
-394.6201128090643
 21
-1222.882918752831
 31
0.0000000000000568
  0
LINE
  5
17290
  8
0
 10
-397.6201128090643
 20
-1222.282911772448
 30
0.0000000000000568
 11
-398.1201128090643
 21
-1222.18291060905
 31
0.0000000000000568
  0
LINE
  5
17291
  8
0
 10
-394.1201128090643
 20
-1226.182919916228
 30
0.0000000000000568
 11
-394.6201128090643
 21
-1226.082918752831
 31
0.0000000000000568
  0
LINE
  5
17292
  8
0
 10
-394.1201128090643
 20
-1224.582919916228
 30
0.0000000000000568
 11
-394.6201128090643
 21
-1224.482918752831
 31
0.0000000000000568
  0
LINE
  5
17293
  8
0
 10
-397.6201128090643
 20
-1223.882911772447
 30
0.0000000000000568
 11
-398.1201128090643
 21
-1223.78291060905
 31
0.0000000000000568
  0
LINE
  5
17294
  8
0
 10
-397.6201128090643
 20
-1225.482911772447
 30
0.0000000000000568
 11
-398.1201128090643
 21
-1225.38291060905
 31
0.0000000000000568
  0
LINE
  5
17295
  8
0
 10
-398.1201128090643
 20
-1225.38291060905
 30
0.0000000000000568
 11
-394.1201128090643
 21
-1224.582919916228
 31
0.0000000000000568
  0
LINE
  5
17296
  8
0
 10
-394.799333965675
 20
-1216.582918335819
 30
0.0000000000000568
 11
-395.3510834294783
 21
-1216.400154193191
 31
0.0000000000000568
  0
LINE
  5
17297
  8
0
 10
-394.1201128090643
 20
-1219.782919916228
 30
0.0000000000000568
 11
-394.6201128090643
 21
-1219.682918752831
 31
0.0000000000000568
  0
LINE
  5
17298
  8
0
 10
-394.1201128090643
 20
-1221.382919916228
 30
0.0000000000000568
 11
-394.6201128090643
 21
-1221.282918752831
 31
0.0000000000000568
  0
LINE
  5
17299
  8
0
 10
-394.3465198612682
 20
-1218.182919389425
 30
0.0000000000000568
 11
-394.8831135965394
 21
-1218.053648691795
 31
0.0000000000000568
  0
LINE
  5
1729A
  8
0
 10
-397.1991982118556
 20
-1217.495681175011
 30
0.0000000000000568
 11
-397.6672966670055
 21
-1217.38291166266
 31
0.0000000000000568
  0
LINE
  5
1729B
  8
0
 10
-397.6201128090643
 20
-1220.682911772447
 30
0.0000000000000568
 11
-398.1201128090643
 21
-1220.58291060905
 31
0.0000000000000568
  0
LINE
  5
1729C
  8
0
 10
-397.6201128090643
 20
-1219.082911772447
 30
0.0000000000000568
 11
-398.1201128090643
 21
-1218.98291060905
 31
0.0000000000000568
  0
LINE
  5
1729D
  8
0
 10
-396.7573113183262
 20
-1215.934348512705
 30
0.0000000000000568
 11
-397.2144831589573
 21
-1215.782912716265
 31
0.0000000000000568
  0
LINE
  5
1729E
  8
0
 10
-397.6672966670055
 20
-1217.38291166266
 30
0.0000000000000568
 11
-394.799333965675
 21
-1216.582918335819
 31
0.0000000000000568
  0
LINE
  5
1729F
  8
0
 10
-398.1201128090643
 20
-1220.58291060905
 30
0.0000000000000568
 11
-394.1201128090643
 21
-1219.782919916228
 31
0.0000000000000568
  0
LINE
  5
172A0
  8
0
 10
-398.1201128090643
 20
-1218.98291060905
 30
0.0000000000000568
 11
-394.3465198612682
 21
-1218.182919389425
 31
0.0000000000000568
  0
LINE
  5
172A1
  8
0
 10
-398.1201128090643
 20
-1222.18291060905
 30
0.0000000000000568
 11
-394.1201128090643
 21
-1221.382919916228
 31
0.0000000000000568
  0
LINE
  5
172A2
  8
0
 10
-398.1201128090643
 20
-1234.982910609055
 30
0.0000000000000568
 11
-394.1201128090643
 21
-1234.182919916236
 31
0.0000000000000568
  0
LINE
  5
172A3
  8
0
 10
-394.1201128090643
 20
-1234.182919916236
 30
0.0000000000000568
 11
-394.6201128090643
 21
-1234.082918752839
 31
0.0000000000000568
  0
LINE
  5
172A4
  8
0
 10
-397.6201128090643
 20
-1233.482911772448
 30
0.0000000000000568
 11
-398.1201128090643
 21
-1233.38291060905
 31
0.0000000000000568
  0
LINE
  5
172A5
  8
0
 10
-394.1201128090643
 20
-1235.782919916237
 30
0.0000000000000568
 11
-394.6201128090643
 21
-1235.682918752839
 31
0.0000000000000568
  0
LINE
  5
172A6
  8
0
 10
-394.1201128090643
 20
-1237.382919916236
 30
0.0000000000000568
 11
-394.6201128090643
 21
-1237.282918752839
 31
0.0000000000000568
  0
LINE
  5
172A7
  8
0
 10
-397.6201128090643
 20
-1235.082911772452
 30
0.0000000000000568
 11
-398.1201128090643
 21
-1234.982910609055
 31
0.0000000000000568
  0
LINE
  5
172A8
  8
0
 10
-397.6201128090643
 20
-1236.682911772453
 30
0.0000000000000568
 11
-398.1201128090643
 21
-1236.582910609055
 31
0.0000000000000568
  0
LINE
  5
172A9
  8
0
 10
-398.1201128090643
 20
-1236.582910609055
 30
0.0000000000000568
 11
-394.1201128090643
 21
-1235.782919916237
 31
0.0000000000000568
  0
LINE
  5
172AA
  8
0
 10
-394.1201128090643
 20
-1229.382919916232
 30
0.0000000000000568
 11
-394.6201128090643
 21
-1229.282918752834
 31
0.0000000000000568
  0
LINE
  5
172AB
  8
0
 10
-394.1201128090643
 20
-1227.782919916228
 30
0.0000000000000568
 11
-394.6201128090643
 21
-1227.682918752831
 31
0.0000000000000568
  0
LINE
  5
172AC
  8
0
 10
-394.1201128090643
 20
-1232.582919916232
 30
0.0000000000000568
 11
-394.6201128090643
 21
-1232.482918752834
 31
0.0000000000000568
  0
LINE
  5
172AD
  8
0
 10
-394.1201128090643
 20
-1230.982919916232
 30
0.0000000000000568
 11
-394.6201128090643
 21
-1230.882918752834
 31
0.0000000000000568
  0
LINE
  5
172AE
  8
0
 10
-397.6201128090643
 20
-1227.082911772447
 30
0.0000000000000568
 11
-398.1201128090643
 21
-1226.98291060905
 31
0.0000000000000568
  0
LINE
  5
172AF
  8
0
 10
-397.6201128090643
 20
-1228.682911772448
 30
0.0000000000000568
 11
-398.1201128090643
 21
-1228.58291060905
 31
0.0000000000000568
  0
LINE
  5
172B0
  8
0
 10
-397.6201128090643
 20
-1231.882911772448
 30
0.0000000000000568
 11
-398.1201128090643
 21
-1231.782910609051
 31
0.0000000000000568
  0
LINE
  5
172B1
  8
0
 10
-397.6201128090643
 20
-1230.282911772448
 30
0.0000000000000568
 11
-398.1201128090643
 21
-1230.18291060905
 31
0.0000000000000568
  0
LINE
  5
172B2
  8
0
 10
-398.1201128090643
 20
-1230.18291060905
 30
0.0000000000000568
 11
-394.1201128090643
 21
-1229.382919916232
 31
0.0000000000000568
  0
LINE
  5
172B3
  8
0
 10
-398.1201128090643
 20
-1228.58291060905
 30
0.0000000000000568
 11
-394.1201128090643
 21
-1227.782919916228
 31
0.0000000000000568
  0
LINE
  5
172B4
  8
0
 10
-398.1201128090643
 20
-1231.782910609051
 30
0.0000000000000568
 11
-394.1201128090643
 21
-1230.982919916232
 31
0.0000000000000568
  0
LINE
  5
172B5
  8
0
 10
-398.1201128090643
 20
-1233.38291060905
 30
0.0000000000000568
 11
-394.1201128090643
 21
-1232.582919916232
 31
0.0000000000000568
  0
LINE
  5
172B6
  8
0
 10
-394.6201128090643
 20
-1243.682918752725
 30
0.0000000000000568
 11
-397.620112809064
 21
-1243.682911772341
 31
0.0000000000000568
  0
LINE
  5
172B7
  8
0
 10
-397.6201128090643
 20
-1243.082911772457
 30
0.0000000000000568
 11
-398.1201128090643
 21
-1242.982910609059
 31
0.0000000000000568
  0
LINE
  5
172B8
  8
0
 10
-398.1201128090643
 20
-1242.982910609059
 30
0.0000000000000568
 11
-394.1201128090643
 21
-1242.182919916241
 31
0.0000000000000568
  0
LINE
  5
172B9
  8
0
 10
-394.1201128090643
 20
-1242.182919916241
 30
0.0000000000000568
 11
-394.6201128090643
 21
-1242.082918752843
 31
0.0000000000000568
  0
LINE
  5
172BA
  8
0
 10
-397.6201128090643
 20
-1241.482911772457
 30
0.0000000000000568
 11
-398.1201128090643
 21
-1241.382910609059
 31
0.0000000000000568
  0
LINE
  5
172BB
  8
0
 10
-397.6201128090643
 20
-1239.882911772457
 30
0.0000000000000568
 11
-398.1201128090643
 21
-1239.782910609059
 31
0.0000000000000568
  0
LINE
  5
172BC
  8
0
 10
-398.1201128090643
 20
-1239.782910609059
 30
0.0000000000000568
 11
-394.1201128090643
 21
-1238.982919916241
 31
0.0000000000000568
  0
LINE
  5
172BD
  8
0
 10
-394.1201128090643
 20
-1240.582919916241
 30
0.0000000000000568
 11
-394.6201128090643
 21
-1240.482918752843
 31
0.0000000000000568
  0
LINE
  5
172BE
  8
0
 10
-394.1201128090643
 20
-1238.982919916241
 30
0.0000000000000568
 11
-394.6201128090643
 21
-1238.882918752843
 31
0.0000000000000568
  0
LINE
  5
172BF
  8
0
 10
-398.1201128090643
 20
-1241.382910609059
 30
0.0000000000000568
 11
-394.1201128090643
 21
-1240.582919916241
 31
0.0000000000000568
  0
LINE
  5
172C0
  8
0
 10
-397.6201128090643
 20
-1238.282911772453
 30
0.0000000000000568
 11
-398.1201128090643
 21
-1238.182910609055
 31
0.0000000000000568
  0
LINE
  5
172C1
  8
1DIM
 10
-362.1201593449611
 20
-1238.682915262425
 30
0.0000000000000568
 11
-299.1201593449614
 21
-1238.682915262425
 31
0.0000000000000568
1001
ACAD
1000
DSTYLE
1002
{
1070
   271
1070
     0
1002
}
  0
LINE
  5
172C2
  8
1DIM
 10
-310.6201593449615
 20
-1328.000332800812
 30
0.0000000000000568
 11
-299.1201593449614
 21
-1328.000332800812
 31
0.0000000000000568
1001
ACAD
1000
DSTYLE
1002
{
1070
   271
1070
     0
1002
}
  0
LINE
  5
172C3
  8
1DIM
 10
-300.1201593449614
 20
-1240.682915262425
 30
0.0000000000000568
 11
-300.1201593449614
 21
-1326.000332800812
 31
0.0000000000000568
1001
ACAD
1000
DSTYLE
1002
{
1070
   271
1070
     0
1002
}
  0
LINE
  5
172C7
  8
1DIM
 10
-402.1201593449615
 20
-1238.682915262425
 30
0.0
 11
-402.1201593449615
 21
-1217.682915262425
 31
0.0
  0
LINE
  5
172C8
  8
1DIM
 10
-362.1201593449613
 20
-1238.682915262425
 30
0.0
 11
-362.1201593449613
 21
-1217.682915262425
 31
0.0
  0
LINE
  5
172C9
  8
1DIM
 10
-400.1201593449615
 20
-1218.682915262425
 30
0.0
 11
-364.1201593449613
 21
-1218.682915262425
 31
0.0
  0
LINE
  5
172CD
  8
1DIM
 10
-178.5496840232728
 20
-1369.051911406457
 30
0.0
 11
-178.5496840232728
 21
-1347.000332800812
 31
0.0
1001
ACAD
1000
DSTYLE
1002
{
1070
   271
1070
     1
1002
}
  0
LINE
  5
172CE
  8
1DIM
 10
-164.9915771932532
 20
-1358.000332800812
 30
0.0
 11
-164.9915771932532
 21
-1347.000332800812
 31
0.0
1001
ACAD
1000
DSTYLE
1002
{
1070
   271
1070
     1
1002
}
  0
LINE
  5
172CF
  8
1DIM
 10
-176.5496840232728
 20
-1348.000332800812
 30
0.0
 11
-166.9915771932532
 21
-1348.000332800812
 31
0.0
1001
ACAD
1000
DSTYLE
1002
{
1070
   271
1070
     1
1002
}
  0
SOLID
  5
172D3
  8
1DIM
 10
-242.1323424508217
 20
-1425.849570154767
 30
0.0
 11
-240.8493801697124
 21
-1424.279500444097
 31
0.0
 12
-241.5537813402743
 22
-1426.180797396712
 32
0.0
 13
-241.5537813402743
 23
-1426.180797396712
 33
0.0
  0
LINE
  5
172D4
  8
1DIM
 10
-241.843061895548
 20
-1426.015183775739
 30
0.0
 11
-258.1493801697125
 21
-1454.497749262309
 31
0.0
  0
LINE
  5
172D5
  8
1DIM
 10
-258.1493801697125
 20
-1454.497749262309
 30
0.0
 11
-297.8327135030458
 21
-1454.497749262309
 31
0.0
  0
TEXT
  5
172D6
  8
1DIM
  6
CONTINUOUS
 10
-284.5327135030458
 20
-1447.964415928976
 30
0.0
 40
3.5
  1
材質：アルミ
  0
TEXT
  5
172D7
  8
1DIM
  6
CONTINUOUS
 10
-297.9493801697125
 20
-1453.797749262309
 30
0.0
 40
3.5
  1
仕上げ：各種仕上げ
  0
SOLID
  5
172D8
  8
1DIM
 10
-311.4763445101872
 20
-1262.348709171065
 30
0.0
 11
-313.0534806113811
 21
-1263.62297477502
 31
0.0
 12
-311.974870441264
 22
-1261.906084792513
 32
0.0
 13
-311.974870441264
 23
-1261.906084792513
 33
0.0
  0
LINE
  5
172D9
  8
1DIM
 10
-311.7256074757256
 20
-1262.127396981789
 30
0.0
 11
-295.7534806113811
 21
-1244.138059290141
 31
0.0
  0
LINE
  5
172DA
  8
1DIM
 10
-295.7534806113811
 20
-1244.138059290141
 30
0.0
 11
-256.0701472780478
 21
-1244.138059290141
 31
0.0
  0
TEXT
  5
172DB
  8
1DIM
  6
CONTINUOUS
 10
-293.2868139447145
 20
-1237.604725956808
 30
0.0
 40
3.5
  1
材質：アルミ
  0
TEXT
  5
172DC
  8
1DIM
  6
CONTINUOUS
 10
-293.1701472780478
 20
-1243.438059290141
 30
0.0
 40
3.5
  1
仕上げ：各種仕上げ
  0
LINE
  5
172DD
  8
1DIM
 10
-396.1201593449622
 20
-1238.682915262425
 30
0.0
 11
-396.1201593449622
 21
-1227.682915262425
 31
0.0
  0
LINE
  5
172DE
  8
1DIM
 10
-368.1201593449618
 20
-1238.682915262425
 30
0.0
 11
-368.1201593449618
 21
-1227.682915262425
 31
0.0
  0
LINE
  5
172DF
  8
1DIM
 10
-394.1201593449622
 20
-1228.682915262425
 30
0.0
 11
-370.1201593449618
 21
-1228.682915262425
 31
0.0
  0
LINE
  5
172E3
  8
0
  6
BYBLOCK
 10
-452.1201593449615
 20
-1348.536231180811
 30
0.0
 11
-454.1201593449615
 21
-1348.000332800812
 31
0.0
  0
LINE
  5
172E4
  8
0
  6
BYBLOCK
 10
-454.1201593449615
 20
-1348.000332800812
 30
0.0
 11
-452.1201593449615
 21
-1347.464434420812
 31
0.0
  0
LINE
  5
172E5
  8
0
  6
BYBLOCK
 10
-454.1201593449615
 20
-1348.000332800812
 30
0.0
 11
-452.1201593449615
 21
-1348.000332800812
 31
0.0
  0
LINE
  5
172E6
  8
0
  6
BYBLOCK
 10
-312.1201593449615
 20
-1347.464434420812
 30
0.0
 11
-310.1201593449615
 21
-1348.000332800812
 31
0.0
  0
LINE
  5
172E7
  8
0
  6
BYBLOCK
 10
-310.1201593449615
 20
-1348.000332800812
 30
0.0
 11
-312.1201593449615
 21
-1348.536231180811
 31
0.0
  0
LINE
  5
172E8
  8
0
  6
BYBLOCK
 10
-310.1201593449615
 20
-1348.000332800812
 30
0.0
 11
-312.1201593449615
 21
-1348.000332800812
 31
0.0
  0
TEXT
  5
172E9
  8
1DIM
  6
CONTINUOUS
 10
-386.2034926782948
 20
-1347.300332800811
 30
0.0
 40
3.5
  1
144
  0
LINE
  5
172EA
  8
0
  6
BYBLOCK
 10
-125.5274755732532
 20
-1380.1524374159
 30
0.0
 11
-124.9915771932532
 21
-1378.1524374159
 31
0.0
  0
LINE
  5
172EB
  8
0
  6
BYBLOCK
 10
-124.9915771932532
 20
-1378.1524374159
 30
0.0
 11
-124.4556788132532
 21
-1380.1524374159
 31
0.0
  0
LINE
  5
172EC
  8
0
  6
BYBLOCK
 10
-124.9915771932532
 20
-1378.1524374159
 30
0.0
 11
-124.9915771932532
 21
-1380.1524374159
 31
0.0
  0
LINE
  5
172ED
  8
0
  6
BYBLOCK
 10
-124.4556788132532
 20
-1392.1524374159
 30
0.0
 11
-124.9915771932532
 21
-1394.1524374159
 31
0.0
  0
LINE
  5
172EE
  8
0
  6
BYBLOCK
 10
-124.9915771932532
 20
-1394.1524374159
 30
0.0
 11
-125.5274755732532
 21
-1392.1524374159
 31
0.0
  0
LINE
  5
172EF
  8
0
  6
BYBLOCK
 10
-124.9915771932532
 20
-1394.1524374159
 30
0.0
 11
-124.9915771932532
 21
-1392.1524374159
 31
0.0
  0
TEXT
  5
172F0
  8
1DIM
  6
CONTINUOUS
 10
-125.6915771932529
 20
-1388.485770749233
 30
0.0
 40
3.5
  1
16
 50
90.0
  0
LINE
  5
172F1
  8
0
  6
BYBLOCK
 10
-272.1226441694567
 20
-1338.536231180811
 30
0.0
 11
-274.1226441694567
 21
-1338.000332800812
 31
0.0
  0
LINE
  5
172F2
  8
0
  6
BYBLOCK
 10
-274.1226441694567
 20
-1338.000332800812
 30
0.0
 11
-272.1226441694567
 21
-1337.464434420812
 31
0.0
  0
LINE
  5
172F3
  8
0
  6
BYBLOCK
 10
-274.1226441694567
 20
-1338.000332800812
 30
0.0
 11
-272.1226441694567
 21
-1338.000332800812
 31
0.0
  0
LINE
  5
172F4
  8
0
  6
BYBLOCK
 10
-166.9915771932532
 20
-1337.464434420812
 30
0.0
 11
-164.9915771932532
 21
-1338.000332800812
 31
0.0
  0
LINE
  5
172F5
  8
0
  6
BYBLOCK
 10
-164.9915771932532
 20
-1338.000332800812
 30
0.0
 11
-166.9915771932532
 21
-1338.536231180811
 31
0.0
  0
LINE
  5
172F6
  8
0
  6
BYBLOCK
 10
-164.9915771932532
 20
-1338.000332800812
 30
0.0
 11
-166.9915771932532
 21
-1338.000332800812
 31
0.0
  0
TEXT
  5
172F7
  8
1DIM
  6
CONTINUOUS
 10
-253.3400117876258
 20
-1337.300332800811
 30
0.0
 40
3.5
  1
109（ペーパー付き最大値）
1001
ACAD
1000
DSTYLE
1002
{
1070
     3
1000
<>
1070
   179
1070
     0
1070
   271
1070
     0
1002
}
  0
LINE
  5
172F8
  8
0
  6
BYBLOCK
 10
-114.4556788132532
 20
-1406.1524374159
 30
0.0
 11
-114.9915771932532
 21
-1408.1524374159
 31
0.0
  0
LINE
  5
172F9
  8
0
  6
BYBLOCK
 10
-114.9915771932532
 20
-1408.1524374159
 30
0.0
 11
-115.5274755732532
 21
-1406.1524374159
 31
0.0
  0
LINE
  5
172FA
  8
0
  6
BYBLOCK
 10
-114.9915771932532
 20
-1408.1524374159
 30
0.0
 11
-114.9915771932532
 21
-1406.1524374159
 31
0.0
  0
LINE
  5
172FB
  8
0
  6
BYBLOCK
 10
-115.5274755732532
 20
-1380.1524374159
 30
0.0
 11
-114.9915771932532
 21
-1378.1524374159
 31
0.0
  0
LINE
  5
172FC
  8
0
  6
BYBLOCK
 10
-114.9915771932532
 20
-1378.1524374159
 30
0.0
 11
-114.4556788132532
 21
-1380.1524374159
 31
0.0
  0
LINE
  5
172FD
  8
0
  6
BYBLOCK
 10
-114.9915771932532
 20
-1378.1524374159
 30
0.0
 11
-114.9915771932532
 21
-1380.1524374159
 31
0.0
  0
TEXT
  5
172FE
  8
1DIM
  6
CONTINUOUS
 10
-115.6915771932529
 20
-1395.850354082567
 30
0.0
 40
3.5
  1
30
 50
90.0
  0
LINE
  5
172FF
  8
0
 10
-368.1201128090639
 20
-1213.682915262587
 30
0.0000000000000568
 11
-369.6201128090639
 21
-1218.982911772449
 31
0.0000000000000568
  0
LINE
  5
17300
  8
0
 10
-369.6201128090639
 20
-1218.982911772449
 30
0.0000000000000568
 11
-369.6201128090637
 21
-1243.682911772341
 31
0.0000000000000568
  0
LINE
  5
17301
  8
0
 10
-369.6201128090637
 20
-1243.682911772341
 30
0.0000000000000568
 11
-371.6201593449617
 21
-1243.682907118643
 31
0.0000000000000568
  0
LINE
  5
17302
  8
0
 10
-371.6201593449617
 20
-1243.682907118643
 30
0.0000000000000568
 11
-371.6201593449618
 21
-1244.782910608838
 31
0.0000000000000568
  0
ARC
  5
17303
  8
0
 10
-370.1201593449618
 20
-1244.782910608838
 30
0.0000000000000568
 40
1.5
 50
180.0
 51
269.9998666844705
  0
LINE
  5
17304
  8
0
 10
-370.1201628351542
 20
-1246.282910608834
 30
0.0000000000000568
 11
-366.1201628351542
 21
-1246.282919916014
 31
0.0000000000000568
  0
ARC
  5
17305
  8
0
 10
-366.1201593449618
 20
-1244.782919916018
 30
0.0000000000000568
 40
1.5
 50
269.9998666844705
 51
0.0
  0
LINE
  5
17306
  8
0
 10
-364.6201593449618
 20
-1244.782919916018
 30
0.0000000000000568
 11
-364.6201593449618
 21
-1243.682923406207
 31
0.0000000000000568
  0
LINE
  5
17307
  8
0
 10
-364.6201593449618
 20
-1243.682923406207
 30
0.0000000000000568
 11
-366.6201128090639
 21
-1243.682918752726
 31
0.0000000000000568
  0
LINE
  5
17308
  8
0
 10
-366.6201128090639
 20
-1243.682918752726
 30
0.0000000000000568
 11
-366.6201128090638
 21
-1218.982918752833
 31
0.0000000000000568
  0
LINE
  5
17309
  8
0
 10
-366.6201128090638
 20
-1218.982918752833
 30
0.0000000000000568
 11
-368.1201128090639
 21
-1213.682915262587
 31
0.0000000000000568
  0
LINE
  5
1730A
  8
0
 10
-139.9915771934156
 20
-1394.152483951798
 30
0.0
 11
-145.2915737032773
 21
-1392.652483951798
 31
0.0
  0
LINE
  5
1730B
  8
0
 10
-145.2915737032773
 20
-1392.652483951798
 30
0.0
 11
-169.9915737031691
 21
-1392.652483951798
 31
0.0
  0
LINE
  5
1730C
  8
0
 10
-169.9915737031691
 20
-1392.652483951798
 30
0.0
 11
-169.9915690494711
 21
-1390.6524374159
 31
0.0
  0
LINE
  5
1730D
  8
0
 10
-169.9915690494711
 20
-1390.6524374159
 30
0.0
 11
-171.0915725396664
 21
-1390.6524374159
 31
0.0
  0
ARC
  5
1730E
  8
0
 10
-171.0915725396664
 20
-1392.1524374159
 30
0.0
 40
1.5
 50
90.0
 51
179.9998666844663
  0
LINE
  5
1730F
  8
0
 10
-172.5915725396623
 20
-1392.152433925708
 30
0.0
 11
-172.5915818468419
 21
-1396.152433925708
 31
0.0
  0
ARC
  5
17310
  8
0
 10
-171.091581846846
 20
-1396.1524374159
 30
0.0
 40
1.5
 50
179.9998666844663
 51
270.0
  0
LINE
  5
17311
  8
0
 10
-171.091581846846
 20
-1397.6524374159
 30
0.0
 11
-169.9915853370353
 21
-1397.6524374159
 31
0.0
  0
LINE
  5
17312
  8
0
 10
-169.9915853370353
 20
-1397.6524374159
 30
0.0
 11
-169.9915806835538
 21
-1395.652483951798
 31
0.0
  0
LINE
  5
17313
  8
0
 10
-169.9915806835538
 20
-1395.652483951798
 30
0.0
 11
-145.2915806836609
 21
-1395.652483951798
 31
0.0
  0
LINE
  5
17314
  8
0
 10
-145.2915806836609
 20
-1395.652483951798
 30
0.0
 11
-139.9915771934156
 21
-1394.152483951798
 31
0.0
  0
LINE
  5
17315
  8
0
 10
-396.1201128090643
 20
-1213.682915262587
 30
0.0000000000000568
 11
-397.6201128090643
 21
-1218.982911772449
 31
0.0000000000000568
  0
LINE
  5
17316
  8
0
 10
-397.6201128090643
 20
-1218.982911772449
 30
0.0000000000000568
 11
-397.620112809064
 21
-1243.682911772341
 31
0.0000000000000568
  0
LINE
  5
17317
  8
0
 10
-397.620112809064
 20
-1243.682911772341
 30
0.0000000000000568
 11
-399.6201593449621
 21
-1243.682907118642
 31
0.0000000000000568
  0
LINE
  5
17318
  8
0
 10
-399.6201593449621
 20
-1243.682907118642
 30
0.0000000000000568
 11
-399.6201593449622
 21
-1244.782910608838
 31
0.0000000000000568
  0
ARC
  5
17319
  8
0
 10
-398.1201593449622
 20
-1244.782910608838
 30
0.0000000000000568
 40
1.5
 50
180.0
 51
269.9998666844705
  0
LINE
  5
1731A
  8
0
 10
-398.1201628351546
 20
-1246.282910608834
 30
0.0000000000000568
 11
-394.1201628351546
 21
-1246.282919916013
 31
0.0000000000000568
  0
ARC
  5
1731B
  8
0
 10
-394.1201593449622
 20
-1244.782919916017
 30
0.0000000000000568
 40
1.5
 50
269.9998666844705
 51
0.0
  0
LINE
  5
1731C
  8
0
 10
-392.6201593449622
 20
-1244.782919916017
 30
0.0000000000000568
 11
-392.6201593449622
 21
-1243.682923406207
 31
0.0000000000000568
  0
LINE
  5
1731D
  8
0
 10
-392.6201593449622
 20
-1243.682923406207
 30
0.0000000000000568
 11
-394.6201128090643
 21
-1243.682918752725
 31
0.0000000000000568
  0
LINE
  5
1731E
  8
0
 10
-394.6201128090643
 20
-1243.682918752725
 30
0.0000000000000568
 11
-394.6201128090642
 21
-1218.982918752832
 31
0.0000000000000568
  0
LINE
  5
1731F
  8
0
 10
-394.6201128090642
 20
-1218.982918752832
 30
0.0000000000000568
 11
-396.1201128090643
 21
-1213.682915262587
 31
0.0000000000000568
  0
LINE
  5
17320
  8
0
  6
BYBLOCK
 10
-300.6560577249614
 20
-1240.682915262425
 30
0.0000000000000568
 11
-300.1201593449614
 21
-1238.682915262425
 31
0.0000000000000568
  0
LINE
  5
17321
  8
0
  6
BYBLOCK
 10
-300.1201593449614
 20
-1238.682915262425
 30
0.0000000000000568
 11
-299.5842609649614
 21
-1240.682915262425
 31
0.0000000000000568
  0
LINE
  5
17322
  8
0
  6
BYBLOCK
 10
-300.1201593449614
 20
-1238.682915262425
 30
0.0000000000000568
 11
-300.1201593449614
 21
-1240.682915262425
 31
0.0000000000000568
  0
LINE
  5
17323
  8
0
  6
BYBLOCK
 10
-299.5842609649614
 20
-1326.000332800812
 30
0.0000000000000568
 11
-300.1201593449614
 21
-1328.000332800812
 31
0.0000000000000568
  0
LINE
  5
17324
  8
0
  6
BYBLOCK
 10
-300.1201593449614
 20
-1328.000332800812
 30
0.0000000000000568
 11
-300.6560577249614
 21
-1326.000332800812
 31
0.0000000000000568
  0
LINE
  5
17325
  8
0
  6
BYBLOCK
 10
-300.1201593449614
 20
-1328.000332800812
 30
0.0000000000000568
 11
-300.1201593449614
 21
-1326.000332800812
 31
0.0000000000000568
  0
TEXT
  5
17326
  8
1DIM
  6
CONTINUOUS
 10
-300.8201593449612
 20
-1309.300767550137
 30
0.0000000000000568
 40
3.5
  1
89 （ペーパー無し最小値）
 50
90.0
1001
ACAD
1000
DSTYLE
1002
{
1070
   271
1070
     0
1002
}
  0
LINE
  5
17327
  8
0
  6
BYBLOCK
 10
-400.1201593449615
 20
-1219.218813642425
 30
0.0
 11
-402.1201593449615
 21
-1218.682915262425
 31
0.0
  0
LINE
  5
17328
  8
0
  6
BYBLOCK
 10
-402.1201593449615
 20
-1218.682915262425
 30
0.0
 11
-400.1201593449615
 21
-1218.147016882425
 31
0.0
  0
LINE
  5
17329
  8
0
  6
BYBLOCK
 10
-402.1201593449615
 20
-1218.682915262425
 30
0.0
 11
-400.1201593449615
 21
-1218.682915262425
 31
0.0
  0
LINE
  5
1732A
  8
0
  6
BYBLOCK
 10
-364.1201593449613
 20
-1218.147016882425
 30
0.0
 11
-362.1201593449613
 21
-1218.682915262425
 31
0.0
  0
LINE
  5
1732B
  8
0
  6
BYBLOCK
 10
-362.1201593449613
 20
-1218.682915262425
 30
0.0
 11
-364.1201593449613
 21
-1219.218813642425
 31
0.0
  0
LINE
  5
1732C
  8
0
  6
BYBLOCK
 10
-362.1201593449613
 20
-1218.682915262425
 30
0.0
 11
-364.1201593449613
 21
-1218.682915262425
 31
0.0
  0
TEXT
  5
1732D
  8
1DIM
  6
CONTINUOUS
 10
-384.8180760116281
 20
-1217.982915262425
 30
0.0
 40
3.5
  1
40
  0
LINE
  5
1732E
  8
0
  6
BYBLOCK
 10
-176.5496840232728
 20
-1348.536231180811
 30
0.0
 11
-178.5496840232728
 21
-1348.000332800812
 31
0.0
  0
LINE
  5
1732F
  8
0
  6
BYBLOCK
 10
-178.5496840232728
 20
-1348.000332800812
 30
0.0
 11
-176.5496840232728
 21
-1347.464434420812
 31
0.0
  0
LINE
  5
17330
  8
0
  6
BYBLOCK
 10
-178.5496840232728
 20
-1348.000332800812
 30
0.0
 11
-176.5496840232728
 21
-1348.000332800812
 31
0.0
  0
LINE
  5
17331
  8
0
  6
BYBLOCK
 10
-166.9915771932532
 20
-1347.464434420812
 30
0.0
 11
-164.9915771932532
 21
-1348.000332800812
 31
0.0
  0
LINE
  5
17332
  8
0
  6
BYBLOCK
 10
-164.9915771932532
 20
-1348.000332800812
 30
0.0
 11
-166.9915771932532
 21
-1348.536231180811
 31
0.0
  0
LINE
  5
17333
  8
0
  6
BYBLOCK
 10
-164.9915771932532
 20
-1348.000332800812
 30
0.0
 11
-166.9915771932532
 21
-1348.000332800812
 31
0.0
  0
TEXT
  5
17334
  8
1DIM
  6
CONTINUOUS
 10
-176.4372972749296
 20
-1347.300332800811
 30
0.0
 40
3.5
  1
13.5
1001
ACAD
1000
DSTYLE
1002
{
1070
   271
1070
     1
1002
}
  0
LINE
  5
17335
  8
0
  6
BYBLOCK
 10
-394.1201593449622
 20
-1229.218813642425
 30
0.0
 11
-396.1201593449622
 21
-1228.682915262425
 31
0.0
  0
LINE
  5
17336
  8
0
  6
BYBLOCK
 10
-396.1201593449622
 20
-1228.682915262425
 30
0.0
 11
-394.1201593449622
 21
-1228.147016882425
 31
0.0
  0
LINE
  5
17337
  8
0
  6
BYBLOCK
 10
-396.1201593449622
 20
-1228.682915262425
 30
0.0
 11
-394.1201593449622
 21
-1228.682915262425
 31
0.0
  0
LINE
  5
17338
  8
0
  6
BYBLOCK
 10
-370.1201593449618
 20
-1228.147016882425
 30
0.0
 11
-368.1201593449618
 21
-1228.682915262425
 31
0.0
  0
LINE
  5
17339
  8
0
  6
BYBLOCK
 10
-368.1201593449618
 20
-1228.682915262425
 30
0.0
 11
-370.1201593449618
 21
-1229.218813642425
 31
0.0
  0
LINE
  5
1733A
  8
0
  6
BYBLOCK
 10
-368.1201593449618
 20
-1228.682915262425
 30
0.0
 11
-370.1201593449618
 21
-1228.682915262425
 31
0.0
  0
TEXT
  5
1733B
  8
1DIM
  6
CONTINUOUS
 10
-388.5368260116287
 20
-1227.982915262425
 30
0.0
 40
3.5
  1
P=28
  0
VIEWPORT
  5
57
 67
     1
  8
0
 10
0.0
 20
0.0
 30
0.0
 40
554.37576499388
 41
297.0
 68
     1
 69
     1
1001
ACAD
1000
MVIEW
1002
{
1070
    16
1010
0.0
1020
0.0
1030
0.0
1010
0.0
1020
0.0
1030
1.0
1040
0.0
1040
297.0
1040
-4.171999999999827
1040
12.83899999999988
1040
50.0
1040
0.0
1040
0.0
1070
     0
1070
   100
1070
     0
1070
     1
1070
     0
1070
     0
1070
     0
1070
     0
1040
0.0
1040
0.0
1040
0.0
1040
10.0
1040
10.0
1040
10.0
1040
10.0
1070
     0
1002
{
1002
}
1002
}
  0
ENDSEC
  0
EOF
