  0
SECTION
  2
HEADER
  9
$ACADVER
  1
AC1009
  9
$DWGCODEPAGE
  3
ansi_932
  9
$INSBASE
 10
0.0
 20
0.0
 30
0.0
  9
$EXTMIN
 10
439.7299313720666
 20
-712.4213303512677
 30
0.0
  9
$EXTMAX
 10
765.516241615365
 20
-496.8272375149052
 30
0.0
  9
$LIMMIN
 10
0.0
 20
0.0
  9
$LIMMAX
 10
420.0
 20
297.0
  9
$ORTHOMODE
 70
     0
  9
$REGENMODE
 70
     1
  9
$FILLMODE
 70
     1
  9
$QTEXTMODE
 70
     0
  9
$MIRRTEXT
 70
     0
  9
$DRAGMODE
 70
     2
  9
$LTSCALE
 40
0.5
  9
$OSMODE
 70
 14591
  9
$ATTMODE
 70
     1
  9
$TEXTSIZE
 40
4.0
  9
$TRACEWID
 40
1.0
  9
$TEXTSTYLE
  7
STANDARD
  9
$CLAYER
  8
1TEXT
  9
$CELTYPE
  6
BYLAYER
  9
$CECOLOR
 62
   256
  9
$DIMSCALE
 40
1.0
  9
$DIMASZ
 40
2.0
  9
$DIMEXO
 40
0.0
  9
$DIMDLI
 40
7.0
  9
$DIMRND
 40
0.0
  9
$DIMDLE
 40
0.0
  9
$DIMEXE
 40
1.0
  9
$DIMTP
 40
0.0
  9
$DIMTM
 40
0.0
  9
$DIMTXT
 40
3.5
  9
$DIMCEN
 40
0.0
  9
$DIMTSZ
 40
0.0
  9
$DIMTOL
 70
     0
  9
$DIMLIM
 70
     0
  9
$DIMTIH
 70
     0
  9
$DIMTOH
 70
     0
  9
$DIMSE1
 70
     0
  9
$DIMSE2
 70
     0
  9
$DIMTAD
 70
     1
  9
$DIMZIN
 70
     8
  9
$DIMBLK
  1

  9
$DIMASO
 70
     1
  9
$DIMSHO
 70
     1
  9
$DIMPOST
  1
 
  9
$DIMAPOST
  1

  9
$DIMALT
 70
     0
  9
$DIMALTD
 70
     2
  9
$DIMALTF
 40
25.4
  9
$DIMLFAC
 40
1.0
  9
$DIMTOFL
 70
     1
  9
$DIMTVP
 40
0.0
  9
$DIMTIX
 70
     0
  9
$DIMSOXD
 70
     0
  9
$DIMSAH
 70
     1
  9
$DIMBLK1
  1
OPEN30
  9
$DIMBLK2
  1
OPEN30
  9
$DIMSTYLE
  2
NEWX10
  9
$DIMCLRD
 70
   256
  9
$DIMCLRE
 70
   256
  9
$DIMCLRT
 70
   201
  9
$DIMTFAC
 40
0.7
  9
$DIMGAP
 40
0.7
  9
$LUNITS
 70
     2
  9
$LUPREC
 70
     4
  9
$SKETCHINC
 40
1.0
  9
$FILLETRAD
 40
0.0
  9
$AUNITS
 70
     0
  9
$AUPREC
 70
     2
  9
$MENU
  1
acad
  9
$ELEVATION
 40
0.0
  9
$PELEVATION
 40
0.0
  9
$THICKNESS
 40
0.0
  9
$LIMCHECK
 70
     0
  9
$CHAMFERA
 40
1.0
  9
$CHAMFERB
 40
1.0
  9
$SKPOLY
 70
     0
  9
$TDCREATE
 40
2453033.732663484
  9
$TDUPDATE
 40
2459824.435495474
  9
$TDINDWG
 40
2.4152772917
  9
$TDUSRTIMER
 40
2.4152772917
  9
$USRTIMER
 70
     1
  9
$ANGBASE
 50
0.0
  9
$ANGDIR
 70
     0
  9
$PDMODE
 70
     0
  9
$PDSIZE
 40
0.0
  9
$PLINEWID
 40
0.0
  9
$COORDS
 70
     2
  9
$SPLFRAME
 70
     0
  9
$SPLINETYPE
 70
     6
  9
$SPLINESEGS
 70
     8
  9
$ATTDIA
 70
     0
  9
$ATTREQ
 70
     1
  9
$HANDLING
 70
     1
  9
$HANDSEED
  5
21199
  9
$SURFTAB1
 70
     6
  9
$SURFTAB2
 70
     6
  9
$SURFTYPE
 70
     6
  9
$SURFU
 70
     6
  9
$SURFV
 70
     6
  9
$UCSNAME
  2

  9
$UCSORG
 10
0.0
 20
0.0
 30
0.0
  9
$UCSXDIR
 10
1.0
 20
0.0
 30
0.0
  9
$UCSYDIR
 10
0.0
 20
1.0
 30
0.0
  9
$PUCSNAME
  2

  9
$PUCSORG
 10
0.0
 20
0.0
 30
0.0
  9
$PUCSXDIR
 10
1.0
 20
0.0
 30
0.0
  9
$PUCSYDIR
 10
0.0
 20
1.0
 30
0.0
  9
$USERI1
 70
     0
  9
$USERI2
 70
     0
  9
$USERI3
 70
     0
  9
$USERI4
 70
     0
  9
$USERI5
 70
     0
  9
$USERR1
 40
0.0
  9
$USERR2
 40
0.0
  9
$USERR3
 40
0.0
  9
$USERR4
 40
0.0
  9
$USERR5
 40
0.0
  9
$WORLDVIEW
 70
     1
  9
$SHADEDGE
 70
     3
  9
$SHADEDIF
 70
    70
  9
$TILEMODE
 70
     1
  9
$MAXACTVP
 70
    48
  9
$PLIMCHECK
 70
     0
  9
$PEXTMIN
 10
1.000000000000000E+20
 20
1.000000000000000E+20
 30
1.000000000000000E+20
  9
$PEXTMAX
 10
-1.000000000000000E+20
 20
-1.000000000000000E+20
 30
-1.000000000000000E+20
  9
$PLIMMIN
 10
0.0
 20
0.0
  9
$PLIMMAX
 10
420.0
 20
297.0
  9
$UNITMODE
 70
     0
  9
$VISRETAIN
 70
     1
  9
$PLINEGEN
 70
     0
  9
$PSLTSCALE
 70
     1
  0
ENDSEC
  0
SECTION
  2
TABLES
  0
TABLE
  2
VPORT
 70
     1
  0
VPORT
  2
*ACTIVE
 70
     0
 10
0.0
 20
0.0
 11
1.0
 21
1.0
 12
602.6230864937158
 22
-604.6242839330864
 13
0.0
 23
0.0
 14
10.0
 24
10.0
 15
10.0
 25
10.0
 16
0.0
 26
0.0
 36
1.0
 17
0.0
 27
0.0
 37
0.0
 40
231.4799733611471
 41
1.866585067319461
 42
50.0
 43
0.0
 44
0.0
 50
0.0
 51
0.0
 71
     0
 72
   100
 73
     1
 74
     1
 75
     0
 76
     0
 77
     0
 78
     0
  0
ENDTAB
  0
TABLE
  2
LTYPE
 70
    18
  0
LTYPE
  2
CONTINUOUS
 70
     0
  3
Solid line
 72
    65
 73
     0
 40
0.0
  0
LTYPE
  2
CENTER2
 70
     0
  3
Center (.5x) ___ _ ___ _ ___ _ ___ _ ___ _ ___
 72
    65
 73
     4
 40
28.575
 49
19.05
 49
-3.175
 49
3.175
 49
-3.175
  0
LTYPE
  2
PHANTOM2
 70
     0
  3
Phantom (0.5x) ___ _ _ ___ _ _ ___ _ _ ___ _ _
 72
    65
 73
     6
 40
31.75
 49
15.875
 49
-3.175
 49
3.175
 49
-3.175
 49
3.175
 49
-3.175
  0
ENDTAB
  0
TABLE
  2
LAYER
 70
    45
  0
LAYER
  2
0
 70
     0
 62
     7
  6
CONTINUOUS
  0
LAYER
  2
1CENTER
 70
     0
 62
     7
  6
CENTER2
  0
LAYER
  2
1TEXT
 70
     0
 62
     7
  6
CONTINUOUS
  0
LAYER
  2
1DIM
 70
     0
 62
     7
  6
CONTINUOUS
  0
LAYER
  2
1PHANTOM
 70
     0
 62
     7
  6
PHANTOM2
  0
LAYER
  2
01
 70
     0
 62
     1
  6
CONTINUOUS
  0
LAYER
  2
1HATCH
 70
     0
 62
     7
  6
CONTINUOUS
  0
ENDTAB
  0
TABLE
  2
STYLE
 70
    25
  0
STYLE
  2
STANDARD
 70
     0
 40
0.0
 41
1.0
 50
0.0
 71
     0
 42
4.0
  3
txt.shx
  4
extfont.shx
  0
ENDTAB
  0
TABLE
  2
VIEW
 70
     0
  0
ENDTAB
  0
TABLE
  2
UCS
 70
     0
  0
ENDTAB
  0
TABLE
  2
APPID
 70
    16
  0
APPID
  2
ACAD
 70
     0
  0
APPID
  2
DRAWINGVARIABLESXDATA
 70
     0
  0
APPID
  2
CONTENTTABDATA
 70
     0
  0
APPID
  2
CONTENTCURRENTTAB
 70
     0
  0
APPID
  2
CONTENTBLOCKDESCRIPTION
 70
     0
  0
APPID
  2
CONTENTBLOCKICON
 70
     0
  0
APPID
  2
CONTENTLONGBLOCKNAME
 70
     0
  0
APPID
  2
ACAD_PSEXT
 70
     0
  0
APPID
  2
ACAD_DSTYLE_DIMTEXT_FILL
 70
     0
  0
APPID
  2
ACAD_MLEADERVER
 70
     0
  0
APPID
  2
ACAD_DSTYLE_DIMRADIAL_EXTE
 70
     0
  0
APPID
  2
ACADANNOTATIVE
 70
     0
  0
APPID
  2
ACAD_EXEMPT_FROM_CAD_STAND
 70
     0
  0
APPID
  2
ACAD_NAV_VCDISPLAY
 70
     0
  0
APPID
  2
ACLAYERTOOLS
 70
     0
  0
APPID
  2
ACDBBLOCKREPETAG
 70
     0
  0
ENDTAB
  0
TABLE
  2
DIMSTYLE
 70
    10
  0
DIMSTYLE
  2
NEWX10
 70
     0
  3
 
  4

  5

  6
OPEN30
  7
OPEN30
 40
1.0
 41
2.0
 42
0.0
 43
7.0
 44
1.0
 45
0.0
 46
0.0
 47
0.0
 48
0.0
140
3.5
141
0.0
142
0.0
143
25.4
144
1.0
145
0.0
146
0.7
147
0.7
 71
     0
 72
     0
 73
     0
 74
     0
 75
     0
 76
     0
 77
     1
 78
     8
170
     0
171
     2
172
     1
173
     1
174
     0
175
     0
176
   256
177
   256
178
   201
  0
ENDTAB
  0
ENDSEC
  0
SECTION
  2
BLOCKS
  0
BLOCK
  8
0
  2
$MODEL_SPACE
 70
     0
 10
0.0
 20
0.0
 30
0.0
  3
$MODEL_SPACE
  1

  0
ENDBLK
  5
1A
  8
0
  0
BLOCK
 67
     1
  8
0
  2
$PAPER_SPACE
 70
     0
 10
0.0
 20
0.0
 30
0.0
  3
$PAPER_SPACE
  1

  0
ENDBLK
  5
17
 67
     1
  8
0
  0
BLOCK
  8
0
  2
_OPEN30
 70
     0
 10
0.0
 20
0.0
 30
0.0
  3
_OPEN30
  1

  0
LINE
  5
44
  8
0
  6
BYBLOCK
 62
     0
 10
-1.0
 20
0.26794919
 30
0.0
 11
0.0
 21
0.0
 31
0.0
  0
LINE
  5
45
  8
0
  6
BYBLOCK
 62
     0
 10
0.0
 20
0.0
 30
0.0
 11
-1.0
 21
-0.26794919
 31
0.0
  0
LINE
  5
46
  8
0
  6
BYBLOCK
 62
     0
 10
0.0
 20
0.0
 30
0.0
 11
-1.0
 21
0.0
 31
0.0
  0
ENDBLK
  5
47
  8
0
  0
BLOCK
  8
0
  2
A3WAKUKAWAJUN2017_HYOUDAI_
 70
     0
 10
0.0
 20
0.0
 30
0.0
  3
A3WAKUKAWAJUN2017_HYOUDAI_
  1

  0
LINE
  5
20469
  8
0
 10
13.26299999998673
 20
-0.0001000000000317
 30
0.0
 11
9.236999999990758
 21
8.999899999990987
 31
0.0
1001
ACAD
1000
ASC_BOUNDS
1002
{
1070
    19
1005
204AA
1002
}
  0
LINE
  5
2046A
  8
0
 10
5.657999999994331
 20
0.9999999999989768
 30
0.0
 11
9.236999999990758
 21
8.999999999991019
 31
0.0
1001
ACAD
1000
ASC_BOUNDS
1002
{
1070
    19
1005
204AA
1002
}
  0
LINE
  5
2046B
  8
0
 10
18.59199999998134
 20
-0.2368999999997641
 30
0.0
 11
16.46099999998353
 21
5.432899999994561
 31
0.0
1001
ACAD
1000
ASC_BOUNDS
1002
{
1070
    19
1005
204AB
1002
}
  0
LINE
  5
2046C
  8
0
 10
18.59199999998134
 20
-0.2368999999997641
 30
0.0
 11
22.38199999997767
 21
8.763099999991255
 31
0.0
1001
ACAD
1000
ASC_BOUNDS
1002
{
1070
    19
1005
204AB
1002
}
  0
LINE
  5
2046D
  8
0
 10
14.32899999998563
 20
-0.2368999999997641
 30
0.0
 11
16.46099999998353
 21
5.432899999994561
 31
0.0
1001
ACAD
1000
ASC_BOUNDS
1002
{
1070
    19
1005
204AB
1002
}
  0
LINE
  5
2046E
  8
0
 10
14.32899999998563
 20
-0.2368999999997641
 30
0.0
 11
10.53899999998941
 21
8.763099999991255
 31
0.0
1001
ACAD
1000
ASC_BOUNDS
1002
{
1070
    19
1005
204AB
1002
}
  0
LINE
  5
2046F
  8
0
 10
19.53899999998043
 20
-0.0001000000000317
 30
0.0
 11
23.56599999997638
 21
8.999899999990987
 31
0.0
1001
ACAD
1000
ASC_BOUNDS
1002
{
1070
    19
1005
204AC
1002
}
  0
LINE
  5
20470
  8
0
 10
26.97358892824991
 20
1.383099999991202
 30
0.0
 11
23.56599999997638
 21
8.999899999990987
 31
0.0
1001
ACAD
1000
ASC_BOUNDS
1002
{
1070
    19
1005
204AC
1002
}
  0
LINE
  5
20471
  8
0
 10
5.657999999994331
 20
0.9999999999989768
 30
0.0
 11
3.181999999996833
 21
4.668599999995308
 31
0.0
1001
ACAD
1000
ASC_BOUNDS
1002
{
1070
    19
1005
204AA
1002
}
  0
LINE
  5
20472
  8
0
 10
4.617999999995391
 20
-0.0001000000000317
 30
0.0
 11
1.420999999998571
 21
4.736799999995242
 31
0.0
1001
ACAD
1000
ASC_BOUNDS
1002
{
1070
    19
1005
204AA
1002
}
  0
LINE
  5
20473
  8
0
 10
1.420999999998571
 20
8.763099999991255
 30
0.0
 11
1.420999999998571
 21
0.0
 31
0.0
1001
ACAD
1000
ASC_BOUNDS
1002
{
1070
    19
1005
204AF
1002
}
  0
LINE
  5
20474
  8
0
 10
0.0
 20
8.763099999991255
 30
0.0
 11
0.0
 21
0.0
 31
0.0
1001
ACAD
1000
ASC_BOUNDS
1002
{
1070
    19
1005
204AF
1002
}
  0
LINE
  5
20475
  8
0
 10
6.766999999993232
 20
-0.0001000000000317
 30
0.0
 11
7.826999999992154
 21
2.368399999997621
 31
0.0
1001
ACAD
1000
ASC_BOUNDS
1002
{
1070
    19
1005
204AA
1002
}
  0
LINE
  5
20476
  8
0
 10
0.0
 20
0.0
 30
0.0
 11
1.420999999998571
 21
0.0
 31
0.0
1001
ACAD
1000
ASC_BOUNDS
1002
{
1070
    19
1005
204AF
1002
}
  0
LINE
  5
20477
  8
0
 10
4.617999999995391
 20
0.0
 30
0.0
 11
6.766999999993232
 21
0.0
 31
0.0
1001
ACAD
1000
ASC_BOUNDS
1002
{
1070
    19
1005
204AA
1002
}
  0
LINE
  5
20478
  8
0
 10
11.70599999998831
 20
-0.0001000000000317
 30
0.0
 11
10.64699999998936
 21
2.368399999997621
 31
0.0
1001
ACAD
1000
ASC_BOUNDS
1002
{
1070
    19
1005
204AA
1002
}
  0
LINE
  5
20479
  8
0
 10
7.826999999992154
 20
2.368399999997621
 30
0.0
 11
10.64699999998936
 21
2.368399999997621
 31
0.0
1001
ACAD
1000
ASC_BOUNDS
1002
{
1070
    19
1005
204AA
1002
}
  0
LINE
  5
2047A
  8
0
 10
11.70599999998831
 20
0.0
 30
0.0
 11
13.26299999998673
 21
0.0
 31
0.0
1001
ACAD
1000
ASC_BOUNDS
1002
{
1070
    19
1005
204AA
1002
}
  0
LINE
  5
2047B
  8
0
 10
22.15599999997789
 20
2.368399999997621
 30
0.0
 11
24.97599999997499
 21
2.368399999997621
 31
0.0
1001
ACAD
1000
ASC_BOUNDS
1002
{
1070
    19
1005
204AC
1002
}
  0
LINE
  5
2047C
  8
0
 10
19.53899999998043
 20
0.0
 30
0.0
 11
21.09599999997886
 21
0.0
 31
0.0
1001
ACAD
1000
ASC_BOUNDS
1002
{
1070
    19
1005
204AC
1002
}
  0
LINE
  5
2047D
  8
0
 10
21.09599999997886
 20
-0.0001000000000317
 30
0.0
 11
22.15599999997789
 21
2.368399999997621
 31
0.0
1001
ACAD
1000
ASC_BOUNDS
1002
{
1070
    19
1005
204AC
1002
}
  0
LINE
  5
2047E
  8
0
 10
26.02015566812236
 20
0.0330999999912365
 30
0.0
 11
24.97599999997499
 21
2.368399999997621
 31
0.0
1001
ACAD
1000
ASC_BOUNDS
1002
{
1070
    19
1005
204AC
1002
}
  0
LINE
  5
2047F
  8
0
 10
14.32399999998563
 20
3.315799999996671
 30
0.0
 11
16.46099999998353
 21
8.999899999990987
 31
0.0
1001
ACAD
1000
ASC_BOUNDS
1002
{
1070
    19
1005
204AB
1002
}
  0
LINE
  5
20480
  8
0
 10
6.432999999993513
 20
8.763099999991255
 30
0.0
 11
3.181999999996833
 21
4.668599999995308
 31
0.0
1001
ACAD
1000
ASC_BOUNDS
1002
{
1070
    19
1005
204AA
1002
}
  0
LINE
  5
20481
  8
0
 10
4.617999999995391
 20
8.763099999991255
 30
0.0
 11
1.420999999998571
 21
4.736799999995242
 31
0.0
1001
ACAD
1000
ASC_BOUNDS
1002
{
1070
    19
1005
204AA
1002
}
  0
LINE
  5
20482
  8
0
 10
0.0
 20
8.763099999991255
 30
0.0
 11
1.420999999998571
 21
8.763099999991255
 31
0.0
1001
ACAD
1000
ASC_BOUNDS
1002
{
1070
    19
1005
204AF
1002
}
  0
LINE
  5
20483
  8
0
 10
4.617999999995391
 20
8.763099999991255
 30
0.0
 11
6.432999999993513
 21
8.763099999991255
 31
0.0
1001
ACAD
1000
ASC_BOUNDS
1002
{
1070
    19
1005
204AA
1002
}
  0
LINE
  5
20484
  8
0
 10
14.32399999998563
 20
3.315799999996671
 30
0.0
 11
12.02999999998792
 21
8.763099999991255
 31
0.0
1001
ACAD
1000
ASC_BOUNDS
1002
{
1070
    19
1005
204AB
1002
}
  0
LINE
  5
20485
  8
0
 10
10.06399999998996
 20
3.670999999996297
 30
0.0
 11
9.236999999990758
 21
5.5200999999945
 31
0.0
1001
ACAD
1000
ASC_BOUNDS
1002
{
1070
    19
1005
204AA
1002
}
  0
LINE
  5
20486
  8
0
 10
8.409999999991555
 20
3.670999999996297
 30
0.0
 11
9.236999999990758
 21
5.5200999999945
 31
0.0
1001
ACAD
1000
ASC_BOUNDS
1002
{
1070
    19
1005
204AA
1002
}
  0
LINE
  5
20487
  8
0
 10
8.409999999991555
 20
3.670999999996297
 30
0.0
 11
10.06399999998996
 21
3.670999999996297
 31
0.0
1001
ACAD
1000
ASC_BOUNDS
1002
{
1070
    19
1005
204AA
1002
}
  0
LINE
  5
20488
  8
0
 10
10.53899999998941
 20
8.763099999991255
 30
0.0
 11
12.02999999998792
 21
8.763099999991255
 31
0.0
1001
ACAD
1000
ASC_BOUNDS
1002
{
1070
    19
1005
204AB
1002
}
  0
LINE
  5
20489
  8
0
 10
22.7389999999773
 20
3.670999999996297
 30
0.0
 11
23.56599999997638
 21
5.5200999999945
 31
0.0
1001
ACAD
1000
ASC_BOUNDS
1002
{
1070
    19
1005
204AC
1002
}
  0
LINE
  5
2048A
  8
0
 10
22.7389999999773
 20
3.670999999996297
 30
0.0
 11
24.39299999997559
 21
3.670999999996297
 31
0.0
1001
ACAD
1000
ASC_BOUNDS
1002
{
1070
    19
1005
204AC
1002
}
  0
LINE
  5
2048B
  8
0
 10
18.59799999998143
 20
3.315799999996671
 30
0.0
 11
20.89099999997916
 21
8.763099999991255
 31
0.0
1001
ACAD
1000
ASC_BOUNDS
1002
{
1070
    19
1005
204AB
1002
}
  0
LINE
  5
2048C
  8
0
 10
18.59799999998143
 20
3.315799999996671
 30
0.0
 11
16.46099999998353
 21
8.999899999990987
 31
0.0
1001
ACAD
1000
ASC_BOUNDS
1002
{
1070
    19
1005
204AB
1002
}
  0
LINE
  5
2048D
  8
0
 10
20.89099999997916
 20
8.763099999991255
 30
0.0
 11
22.38199999997767
 21
8.763099999991255
 31
0.0
1001
ACAD
1000
ASC_BOUNDS
1002
{
1070
    19
1005
204AB
1002
}
  0
LINE
  5
2048E
  8
0
 10
24.39299999997559
 20
3.670999999996297
 30
0.0
 11
23.56599999997638
 21
5.5200999999945
 31
0.0
1001
ACAD
1000
ASC_BOUNDS
1002
{
1070
    19
1005
204AC
1002
}
  0
LINE
  5
2048F
  8
0
 10
44.99999999995498
 20
-0.2368999999997641
 30
0.0
 11
40.02599999995994
 21
5.341799999994635
 31
0.0
1001
ACAD
1000
ASC_BOUNDS
1002
{
1070
    19
1005
204AE
1002
}
  0
LINE
  5
20490
  8
0
 10
40.02599999995994
 20
5.341799999994635
 30
0.0
 11
40.02599999995994
 21
0.0
 31
0.0
1001
ACAD
1000
ASC_BOUNDS
1002
{
1070
    19
1005
204AE
1002
}
  0
LINE
  5
20491
  8
0
 10
38.60499999996136
 20
8.999999999991019
 30
0.0
 11
38.60499999996136
 21
0.0
 31
0.0
1001
ACAD
1000
ASC_BOUNDS
1002
{
1070
    19
1005
204AE
1002
}
  0
LINE
  5
20492
  8
0
 10
44.99999999995498
 20
8.763099999991255
 30
0.0
 11
44.99999999995498
 21
-0.2368999999997641
 31
0.0
1001
ACAD
1000
ASC_BOUNDS
1002
{
1070
    19
1005
204AE
1002
}
  0
LINE
  5
20493
  8
0
 10
38.60499999996136
 20
0.0
 30
0.0
 11
40.02599999995994
 21
0.0
 31
0.0
1001
ACAD
1000
ASC_BOUNDS
1002
{
1070
    19
1005
204AE
1002
}
  0
LINE
  5
20494
  8
0
 10
43.57899999995641
 20
3.421199999996588
 30
0.0
 11
38.60499999996136
 21
8.999899999990987
 31
0.0
1001
ACAD
1000
ASC_BOUNDS
1002
{
1070
    19
1005
204AE
1002
}
  0
LINE
  5
20495
  8
0
 10
43.57899999995641
 20
8.763099999991255
 30
0.0
 11
43.57899999995641
 21
3.421199999996588
 31
0.0
1001
ACAD
1000
ASC_BOUNDS
1002
{
1070
    19
1005
204AE
1002
}
  0
LINE
  5
20496
  8
0
 10
43.57899999995641
 20
8.763099999991255
 30
0.0
 11
44.99999999995498
 21
8.763099999991255
 31
0.0
1001
ACAD
1000
ASC_BOUNDS
1002
{
1070
    19
1005
204AE
1002
}
  0
LINE
  5
20497
  8
0
 10
37.67199999996831
 20
8.763099999991255
 30
0.0
 11
36.23199999996837
 21
8.763099999991255
 31
0.0
  0
LINE
  5
20498
  8
0
 10
31.64199999996833
 20
8.763099999991255
 30
0.0
 11
31.64199999996833
 21
2.481619422925121
 31
0.0
  0
LINE
  5
20499
  8
0
 10
37.67199999996831
 20
8.763099999991255
 30
0.0
 11
37.67199999996831
 21
2.481619422925121
 31
0.0
  0
LINE
  5
2049A
  8
0
 10
36.23199999996837
 20
8.763099999991255
 30
0.0
 11
36.23199999996837
 21
2.481619422925064
 31
0.0
  0
LINE
  5
2049B
  8
0
 10
33.08199999996839
 20
8.763099999991255
 30
0.0
 11
33.08199999996839
 21
2.481619422925121
 31
0.0
  0
ARC
  5
2049C
  8
0
 10
34.65699999996832
 20
3.183099999991214
 30
0.0
 40
3.420000000000007
 50
240.0000000000255
 51
299.9999999999766
  0
ARC
  5
2049D
  8
0
 10
34.65699999996832
 20
3.183099999991214
 30
0.0
 40
1.97999999999999
 50
240.000000000026
 51
299.9999999999703
  0
LINE
  5
2049E
  8
0
 10
33.08199999996828
 20
8.763099999991255
 30
0.0
 11
31.64199999996833
 21
8.763099999991255
 31
0.0
  0
ARC
  5
2049F
  8
0
 10
35.06199999996829
 20
2.481619422925064
 30
0.0
 40
1.17
 50
299.9999999999699
 51
0.0
  0
ARC
  5
204A0
  8
0
 10
34.25199999996835
 20
2.481619422925121
 30
0.0
 40
1.17
 50
180.0
 51
240.0000000000238
  0
ARC
  5
204A1
  8
0
 10
35.06199999996841
 20
2.481619422925121
 30
0.0
 40
2.61
 50
299.9999999999756
 51
0.0
  0
ARC
  5
204A2
  8
0
 10
34.25199999996835
 20
2.481619422925121
 30
0.0
 40
2.61
 50
180.0
 51
240.0000000000244
  0
LINE
  5
204A3
  8
0
 10
29.30199999996933
 20
8.763099999991255
 30
0.0
 11
30.74199999996927
 21
8.763099999991255
 31
0.0
1001
ACAD
1000
ASC_BOUNDS
1002
{
1070
    19
1005
204AC
1002
}
  0
LINE
  5
204A4
  8
0
 10
30.74199999996927
 20
8.763099999991255
 30
0.0
 11
30.74199999996927
 21
2.373099999991211
 31
0.0
1001
ACAD
1000
ASC_BOUNDS
1002
{
1070
    19
1005
204AC
1002
}
  0
LINE
  5
204A5
  8
0
 10
26.02015566812236
 20
0.0330999999912365
 30
0.0
 11
28.40199999996923
 21
0.0330999999912365
 31
0.0
1001
ACAD
1000
ASC_BOUNDS
1002
{
1070
    19
1005
204AC
1002
}
  0
LINE
  5
204A6
  8
0
 10
29.30199999996933
 20
8.763099999991255
 30
0.0
 11
29.30199999996933
 21
2.283099999991236
 31
0.0
1001
ACAD
1000
ASC_BOUNDS
1002
{
1070
    19
1005
204AC
1002
}
  0
LINE
  5
204A7
  8
0
 10
26.97358892824991
 20
1.383099999991202
 30
0.0
 11
28.40199999996923
 21
1.383099999991202
 31
0.0
1001
ACAD
1000
ASC_BOUNDS
1002
{
1070
    19
1005
204AC
1002
}
  0
ARC
  5
204A8
  8
0
 10
28.40199999996923
 20
2.283099999991236
 30
0.0
 40
0.9
 50
270.0
 51
0.0
1001
ACAD
1000
ASC_BOUNDS
1002
{
1070
    19
1005
204AC
1002
}
  0
ARC
  5
204A9
  8
0
 10
28.40199999996923
 20
2.373099999991211
 30
0.0
 40
2.34
 50
270.0
 51
0.0
1001
ACAD
1000
ASC_BOUNDS
1002
{
1070
    19
1005
204AC
1002
}
  0
INSERT
  5
204AA
  8
0
  2
*X51
 10
0.0
 20
0.0
 30
0.0
1001
ACAD
1000
HATCH
1002
{
1070
    19
1000
ANSI37
1040
0.15
1040
0.0
1000
ASC_BOUNDS
1070
     2
1070
     2
1070
    12
1005
20469
1005
2046A
1005
20471
1005
20480
1005
20483
1005
20481
1005
20472
1005
20477
1005
20475
1005
20479
1005
20478
1005
2047A
1070
     2
1070
     3
1005
20485
1005
20487
1005
20486
1000
ASC_SEEDPOINT
1011
3.614004224891801
1021
2.996669441146025
1031
0.0
1021
2.996669441146025
1031
0.0
1000
R14_HATCH_DATA
1000
204AA
1011
1.0
1021
0.0
1031
0.0
1021
0.0
1031
0.0
1011
0.0
1021
1.0
1031
0.0
1021
1.0
1031
0.0
1011
0.0
1021
0.0
1031
1.0
1021
0.0
1031
1.0
1040
0.0
1010
0.0
1020
0.0
1030
1.0
1000
ANSI37
1070
     0
1070
     1
1071
        2
1071
        7
1070
     0
1070
     1
1071
       17
1040
13.26299999998673
1040
-0.0001000000000317
1040
9.236999999990758
1040
8.999899999990987
1040
9.236999999990758
1040
8.999999999991019
1040
5.657999999994331
1040
0.9999999999989768
1040
3.181999999996833
1040
4.668599999995308
1040
6.432999999993513
1040
8.763099999991255
1040
4.617999999995391
1040
8.763099999991255
1040
1.420999999998571
1040
4.736799999995242
1040
4.617999999995391
1040
-0.0001000000000317
1040
4.617999999995391
1040
0.0
1040
6.766999999993232
1040
0.0
1040
6.766999999993232
1040
-0.0001000000000317
1040
7.826999999992154
1040
2.368399999997621
1040
10.64699999998936
1040
2.368399999997621
1040
11.70599999998831
1040
-0.0001000000000317
1040
11.70599999998831
1040
0.0
1040
13.26299999998673
1040
0.0
1071
       12
1005
20469
1005
2046A
1005
20471
1005
20480
1005
20483
1005
20481
1005
20472
1005
20477
1005
20475
1005
20479
1005
20478
1005
2047A
1071
       22
1070
     0
1070
     1
1071
        3
1040
9.236999999990758
1040
5.5200999999945
1040
10.06399999998996
1040
3.670999999996297
1040
8.409999999991555
1040
3.670999999996297
1071
        3
1005
20485
1005
20487
1005
20486
1070
     0
1070
     1
1040
0.0
1040
0.15
1070
     0
1070
     2
1040
0.7853981633974483
1040
49.29960901727088
1040
-10.17736998311392
1040
-0.3367596045400932
1040
0.3367596045400932
1070
     0
1040
2.356194490192345
1040
49.29960901727088
1040
-10.17736998311392
1040
-0.3367596045400932
1040
-0.3367596045400932
1070
     0
1040
0.0110235143455945
1071
        2
1040
3.614004224891801
1040
2.996669441146025
1040
0.0
1040
3.614004224891801
1040
2.996669441146025
1040
0.0
1002
}
  0
INSERT
  5
204AB
  8
0
  2
*X52
 10
0.0
 20
0.0
 30
0.0
1001
ACAD
1000
HATCH
1002
{
1070
    19
1000
ANSI37
1040
0.15
1040
0.0
1000
ASC_BOUNDS
1070
     1
1070
     2
1070
    10
1005
2046B
1005
2046C
1005
2048D
1005
2048B
1005
2048C
1005
2047F
1005
20484
1005
20488
1005
2046E
1005
2046D
1000
ASC_SEEDPOINT
1011
14.73245321214324
1021
2.798246178283421
1031
0.0
1021
2.798246178283421
1031
0.0
1000
R14_HATCH_DATA
1000
204AB
1011
1.0
1021
0.0
1031
0.0
1021
0.0
1031
0.0
1011
0.0
1021
1.0
1031
0.0
1021
1.0
1031
0.0
1011
0.0
1021
0.0
1031
1.0
1021
0.0
1031
1.0
1040
0.0
1010
0.0
1020
0.0
1030
1.0
1000
ANSI37
1070
     0
1070
     1
1071
        1
1071
        7
1070
     0
1070
     1
1071
       10
1040
16.46099999998353
1040
5.432899999994561
1040
18.59199999998134
1040
-0.2368999999997641
1040
22.38199999997767
1040
8.763099999991255
1040
20.89099999997916
1040
8.763099999991255
1040
18.59799999998143
1040
3.315799999996671
1040
16.46099999998353
1040
8.999899999990987
1040
14.32399999998563
1040
3.315799999996671
1040
12.02999999998792
1040
8.763099999991255
1040
10.53899999998941
1040
8.763099999991255
1040
14.32899999998563
1040
-0.2368999999997641
1071
       10
1005
2046B
1005
2046C
1005
2048D
1005
2048B
1005
2048C
1005
2047F
1005
20484
1005
20488
1005
2046E
1005
2046D
1070
     0
1070
     1
1040
0.0
1040
0.15
1070
     0
1070
     2
1040
0.7853981633974483
1040
49.29960901727088
1040
-10.17736998311392
1040
-0.3367596045400932
1040
0.3367596045400932
1070
     0
1040
2.356194490192345
1040
49.29960901727088
1040
-10.17736998311392
1040
-0.3367596045400932
1040
-0.3367596045400932
1070
     0
1040
0.0110235143455945
1071
        1
1040
14.73245321214324
1040
2.798246178283421
1040
0.0
1002
}
  0
INSERT
  5
204AC
  8
0
  2
*X53
 10
0.0
 20
0.0
 30
0.0
1001
ACAD
1000
HATCH
1002
{
1070
    19
1000
ANSI37
1040
0.15
1040
0.0
1000
ASC_BOUNDS
1070
     2
1070
     2
1070
    13
1005
2046F
1005
2047C
1005
2047D
1005
2047B
1005
2047E
1005
204A5
1005
204A9
1005
204A4
1005
204A3
1005
204A6
1005
204A8
1005
204A7
1005
20470
1070
     2
1070
     3
1005
20489
1005
2048E
1005
2048A
1000
ASC_SEEDPOINT
1011
21.97929957367762
1021
3.294304244259308
1031
0.0
1021
3.294304244259308
1031
0.0
1000
R14_HATCH_DATA
1000
204AC
1011
1.0
1021
0.0
1031
0.0
1021
0.0
1031
0.0
1011
0.0
1021
1.0
1031
0.0
1021
1.0
1031
0.0
1011
0.0
1021
0.0
1031
1.0
1021
0.0
1031
1.0
1040
0.0
1010
0.0
1020
0.0
1030
1.0
1000
ANSI37
1070
     0
1070
     1
1071
        2
1071
        7
1070
     1
1070
     1
1071
       15
1040
23.56599999997638
1040
8.999899999990987
1040
0.0
1040
19.53899999998043
1040
-0.0001000000000317
1040
0.0
1040
19.53899999998043
1040
0.0
1040
0.0
1040
21.09599999997886
1040
0.0
1040
0.0
1040
21.09599999997886
1040
-0.0001000000000317
1040
0.0
1040
22.15599999997789
1040
2.368399999997621
1040
0.0
1040
24.97599999997499
1040
2.368399999997621
1040
0.0
1040
26.02015566812236
1040
0.0330999999912365
1040
0.0
1040
28.40199999996923
1040
0.0330999999912365
1040
0.414213562373095
1040
30.74199999996923
1040
2.373099999991211
1040
0.0
1040
30.74199999996927
1040
8.763099999991255
1040
0.0
1040
29.30199999996933
1040
8.763099999991255
1040
0.0
1040
29.30199999996933
1040
2.283099999991236
1040
-0.414213562373095
1040
28.40199999996923
1040
1.383099999991237
1040
0.0
1040
26.97358892824991
1040
1.383099999991202
1040
0.0
1071
       13
1005
2046F
1005
2047C
1005
2047D
1005
2047B
1005
2047E
1005
204A5
1005
204A9
1005
204A4
1005
204A3
1005
204A6
1005
204A8
1005
204A7
1005
20470
1071
       22
1070
     0
1070
     1
1071
        3
1040
22.7389999999773
1040
3.670999999996297
1040
23.56599999997638
1040
5.5200999999945
1040
24.39299999997559
1040
3.670999999996297
1071
        3
1005
20489
1005
2048E
1005
2048A
1070
     0
1070
     1
1040
0.0
1040
0.15
1070
     0
1070
     2
1040
0.7853981633974483
1040
49.29960901727088
1040
-10.17736998311392
1040
-0.3367596045400932
1040
0.3367596045400932
1070
     0
1040
2.356194490192345
1040
49.29960901727088
1040
-10.17736998311392
1040
-0.3367596045400932
1040
-0.3367596045400932
1070
     0
1040
0.0110235143455945
1071
        2
1040
21.97929957367762
1040
3.294304244259308
1040
0.0
1040
21.97929957367762
1040
3.294304244259308
1040
0.0
1002
}
  0
INSERT
  5
204AD
  8
0
  2
*X54
 10
0.0
 20
0.0
 30
0.0
1001
ACAD
1000
HATCH
1002
{
1070
    19
1000
ANSI37
1040
0.15
1040
0.0
1000
R14_HATCH_DATA
1000
204AD
1011
1.0
1021
0.0
1031
0.0
1021
0.0
1031
0.0
1011
0.0
1021
1.0
1031
0.0
1021
1.0
1031
0.0
1011
0.0
1021
0.0
1031
1.0
1021
0.0
1031
1.0
1040
0.0
1010
0.0
1020
0.0
1030
1.0
1000
ANSI37
1070
     0
1070
     1
1071
        1
1071
        7
1070
     1
1070
     1
1071
       12
1040
31.64199999996833
1040
2.481619422925121
1040
0.2679491924310942
1040
32.94699999997067
1040
0.2212931190493919
1040
0.2679491924301353
1040
36.36699999995983
1040
0.2212931190459813
1040
0.2679491924321411
1040
37.67199999996831
1040
2.481619422928361
1040
0.0
1040
37.67199999996831
1040
8.763099999991255
1040
0.0
1040
36.23199999996837
1040
8.763099999991255
1040
0.0
1040
36.23199999996837
1040
2.481619422925064
1040
-0.2679491924310291
1040
35.64699999996708
1040
1.468369700498386
1040
-0.267949192430519
1040
33.66699999997093
1040
1.468369700497703
1040
-0.267949192431809
1040
33.08199999996839
1040
2.481619422926997
1040
0.0
1040
33.08199999996839
1040
8.763099999991255
1040
0.0
1040
31.64199999996833
1040
8.763099999991255
1040
0.0
1071
        0
1070
     0
1070
     1
1040
0.0
1040
0.15
1070
     0
1070
     2
1040
0.7853981633974483
1040
49.29960901727088
1040
-10.17736998311392
1040
-0.3367596045400932
1040
0.3367596045400932
1070
     0
1040
2.356194490192345
1040
49.29960901727088
1040
-10.17736998311392
1040
-0.3367596045400932
1040
-0.3367596045400932
1070
     0
1040
0.0110235143455945
1071
        1
1040
32.30357378967278
1040
3.988785755459219
1040
0.0
1002
}
  0
INSERT
  5
204AE
  8
0
  2
*X55
 10
0.0
 20
0.0
 30
0.0
1001
ACAD
1000
HATCH
1002
{
1070
    19
1000
ANSI37
1040
0.15
1040
0.0
1000
ASC_BOUNDS
1070
     1
1070
     2
1070
     8
1005
2048F
1005
20492
1005
20496
1005
20495
1005
20494
1005
20491
1005
20493
1005
20490
1000
ASC_SEEDPOINT
1011
39.74896370716704
1021
4.484843821435049
1031
0.0
1021
4.484843821435049
1031
0.0
1000
R14_HATCH_DATA
1000
204AE
1011
1.0
1021
0.0
1031
0.0
1021
0.0
1031
0.0
1011
0.0
1021
1.0
1031
0.0
1021
1.0
1031
0.0
1011
0.0
1021
0.0
1031
1.0
1021
0.0
1031
1.0
1040
0.0
1010
0.0
1020
0.0
1030
1.0
1000
ANSI37
1070
     0
1070
     1
1071
        1
1071
        7
1070
     0
1070
     1
1071
        9
1040
40.02599999995994
1040
5.341799999994635
1040
44.99999999995498
1040
-0.2368999999997641
1040
44.99999999995498
1040
8.763099999991255
1040
43.57899999995641
1040
8.763099999991255
1040
43.57899999995641
1040
3.421199999996588
1040
38.60499999996136
1040
8.999899999990987
1040
38.60499999996136
1040
8.999999999991019
1040
38.60499999996136
1040
0.0
1040
40.02599999995994
1040
0.0
1071
        8
1005
2048F
1005
20492
1005
20496
1005
20495
1005
20494
1005
20491
1005
20493
1005
20490
1070
     0
1070
     1
1040
0.0
1040
0.15
1070
     0
1070
     2
1040
0.7853981633974483
1040
49.29960901727088
1040
-10.17736998311392
1040
-0.3367596045400932
1040
0.3367596045400932
1070
     0
1040
2.356194490192345
1040
49.29960901727088
1040
-10.17736998311392
1040
-0.3367596045400932
1040
-0.3367596045400932
1070
     0
1040
0.0110235143455945
1071
        1
1040
39.74896370716704
1040
4.484843821435049
1040
0.0
1002
}
  0
INSERT
  5
204AF
  8
0
  2
*X56
 10
0.0
 20
0.0
 30
0.0
1001
ACAD
1000
HATCH
1002
{
1070
    19
1000
ANSI37
1040
0.15
1040
0.0
1000
ASC_BOUNDS
1070
     1
1070
     2
1070
     4
1005
20473
1005
20482
1005
20474
1005
20476
1000
ASC_SEEDPOINT
1011
1.079051535452663
1021
4.148538732891836
1031
0.0
1021
4.148538732891836
1031
0.0
1000
R14_HATCH_DATA
1000
204AF
1011
1.0
1021
0.0
1031
0.0
1021
0.0
1031
0.0
1011
0.0
1021
1.0
1031
0.0
1021
1.0
1031
0.0
1011
0.0
1021
0.0
1031
1.0
1021
0.0
1031
1.0
1040
0.0
1010
0.0
1020
0.0
1030
1.0
1000
ANSI37
1070
     0
1070
     1
1071
        1
1071
        7
1070
     0
1070
     1
1071
        4
1040
1.420999999998571
1040
0.0
1040
1.420999999998571
1040
8.763099999991255
1040
0.0
1040
8.763099999991255
1040
0.0
1040
0.0
1071
        4
1005
20473
1005
20482
1005
20474
1005
20476
1070
     0
1070
     1
1040
0.0
1040
0.15
1070
     0
1070
     2
1040
0.7853981633974483
1040
49.29960901727088
1040
-10.17736998311392
1040
-0.3367596045400932
1040
0.3367596045400932
1070
     0
1040
2.356194490192345
1040
49.29960901727088
1040
-10.17736998311392
1040
-0.3367596045400932
1040
-0.3367596045400932
1070
     0
1040
0.0053004257112761
1071
        1
1040
1.079051535452663
1040
4.148538732891836
1040
0.0
1002
}
  0
ENDBLK
  5
20B67
  8
0
  0
BLOCK
  8
0
  2
*X51
 70
     1
 10
0.0
 20
0.0
 30
0.0
  3
*X51
  1

  0
LINE
  5
20FF6
  8
0
  6
CONTINUOUS
 10
3.418023043697893
 20
7.251849696850613
 30
0.0
 11
4.929273346838536
 21
8.763099999991255
 31
0.0
  0
LINE
  5
20FF7
  8
0
  6
CONTINUOUS
 10
1.483656411257782
 20
4.643963855330318
 30
0.0
 11
5.60279255591872
 21
8.763099999991255
 31
0.0
  0
LINE
  5
20FF8
  8
0
  6
CONTINUOUS
 10
1.755053947328235
 20
4.241842182320584
 30
0.0
 11
6.276311764998907
 21
8.763099999991255
 31
0.0
  0
LINE
  5
20FF9
  8
0
  6
CONTINUOUS
 10
2.026451483398688
 20
3.839720509310849
 30
0.0
 11
4.441040904851878
 21
6.254309930764039
 31
0.0
  0
LINE
  5
20FFA
  8
0
  6
CONTINUOUS
 10
2.297849019469139
 20
3.437598836301114
 30
0.0
 11
3.321765168359338
 21
4.461514985191313
 31
0.0
  0
LINE
  5
20FFB
  8
0
  6
CONTINUOUS
 10
2.569246555539591
 20
3.03547716329138
 30
0.0
 11
3.593163397972743
 21
4.059394005724531
 31
0.0
  0
LINE
  5
20FFC
  8
0
  6
CONTINUOUS
 10
2.840644091610043
 20
2.633355490281646
 30
0.0
 11
3.864561627586149
 21
3.657273026257751
 31
0.0
  0
LINE
  5
20FFD
  8
0
  6
CONTINUOUS
 10
3.112041627680496
 20
2.231233817271911
 30
0.0
 11
4.135959857199554
 21
3.25515204679097
 31
0.0
  0
LINE
  5
20FFE
  8
0
  6
CONTINUOUS
 10
3.383439163750948
 20
1.829112144262177
 30
0.0
 11
4.40735808681296
 21
2.853031067324189
 31
0.0
  0
LINE
  5
20FFF
  8
0
  6
CONTINUOUS
 10
3.654836699821399
 20
1.426990471252442
 30
0.0
 11
4.678756316426365
 21
2.450910087857407
 31
0.0
  0
LINE
  5
21000
  8
0
  6
CONTINUOUS
 10
3.926234235891853
 20
1.024868798242709
 30
0.0
 11
4.95015454603977
 21
2.048789108390626
 31
0.0
  0
LINE
  5
21001
  8
0
  6
CONTINUOUS
 10
4.197631771962304
 20
0.6227471252329737
 30
0.0
 11
5.221552775653176
 21
1.646668128923846
 31
0.0
  0
LINE
  5
21002
  8
0
  6
CONTINUOUS
 10
8.715877546767851
 20
7.835069736359266
 30
0.0
 11
9.435953450375058
 21
8.555145639966472
 31
0.0
  0
LINE
  5
21003
  8
0
  6
CONTINUOUS
 10
8.170620868422267
 20
6.616293848933497
 30
0.0
 11
9.644120833743461
 21
8.08979381425469
 31
0.0
  0
LINE
  5
21004
  8
0
  6
CONTINUOUS
 10
7.625364190076684
 20
5.397517961507727
 30
0.0
 11
9.852288217111864
 21
7.624441988542907
 31
0.0
  0
LINE
  5
21005
  8
0
  6
CONTINUOUS
 10
7.080107511731101
 20
4.178742074081957
 30
0.0
 11
10.06045560048027
 21
7.159090162831124
 31
0.0
  0
LINE
  5
21006
  8
0
  6
CONTINUOUS
 10
6.534850833385518
 20
2.959966186656187
 30
0.0
 11
10.26862298384867
 21
6.693738337119342
 31
0.0
  0
LINE
  5
21007
  8
0
  6
CONTINUOUS
 10
4.469029308032756
 20
0.2206254522232385
 30
0.0
 11
5.492951005266582
 21
1.244547149457064
 31
0.0
  0
LINE
  5
21008
  8
0
  6
CONTINUOUS
 10
5.989594155039935
 20
1.741190299230417
 30
0.0
 11
8.806950407233131
 21
4.558546551423613
 31
0.0
  0
LINE
  5
21009
  8
0
  6
CONTINUOUS
 10
9.401251593263643
 20
5.152847737454126
 30
0.0
 11
10.47679036721708
 21
6.228386511407559
 31
0.0
  0
LINE
  5
2100A
  8
0
  6
CONTINUOUS
 10
4.921837203428691
 20
-0.0000858614610131
 30
0.0
 11
8.592923064886001
 21
3.670999999996297
 31
0.0
  0
LINE
  5
2100B
  8
0
  6
CONTINUOUS
 10
9.609390446785305
 20
4.6874673818956
 30
0.0
 11
10.68495775058548
 21
5.763034685695775
 31
0.0
  0
LINE
  5
2100C
  8
0
  6
CONTINUOUS
 10
5.595387755019432
 20
-0.0000545189504582
 30
0.0
 11
7.716137258923768
 21
2.120694984953879
 31
0.0
  0
LINE
  5
2100D
  8
0
  6
CONTINUOUS
 10
6.268938306610172
 20
-0.000023176439905
 30
0.0
 11
7.170485805526503
 21
0.9015243224764267
 31
0.0
  0
LINE
  5
2100E
  8
0
  6
CONTINUOUS
 10
7.963842273967511
 20
2.368399999997621
 30
0.0
 11
9.266442273966188
 21
3.670999999996297
 31
0.0
  0
LINE
  5
2100F
  8
0
  6
CONTINUOUS
 10
8.637361483047696
 20
2.368399999997621
 30
0.0
 11
9.939961483046375
 21
3.670999999996297
 31
0.0
  0
LINE
  5
21010
  8
0
  6
CONTINUOUS
 10
9.817529300306965
 20
4.222087026337075
 30
0.0
 11
10.89312513395388
 21
5.297682859983993
 31
0.0
  0
LINE
  5
21011
  8
0
  6
CONTINUOUS
 10
10.02566815382863
 20
3.756706670778549
 30
0.0
 11
11.10129251732229
 21
4.832331034272211
 31
0.0
  0
LINE
  5
21012
  8
0
  6
CONTINUOUS
 10
9.310880692127883
 20
2.368399999997621
 30
0.0
 11
11.30945990069069
 21
4.366979208560428
 31
0.0
  0
LINE
  5
21013
  8
0
  6
CONTINUOUS
 10
9.98439990120807
 20
2.36839999999762
 30
0.0
 11
11.5176272840591
 21
3.901627382848645
 31
0.0
  0
LINE
  5
21014
  8
0
  6
CONTINUOUS
 10
10.65037369446246
 20
2.36085458417182
 30
0.0
 11
11.7257946674275
 21
3.436275557136862
 31
0.0
  0
LINE
  5
21015
  8
0
  6
CONTINUOUS
 10
10.85847197087848
 20
1.895433651507656
 30
0.0
 11
11.9339620507959
 21
2.97092373142508
 31
0.0
  0
LINE
  5
21016
  8
0
  6
CONTINUOUS
 10
11.0665702472945
 20
1.430012718843491
 30
0.0
 11
12.14212943416431
 21
2.505571905713296
 31
0.0
  0
LINE
  5
21017
  8
0
  6
CONTINUOUS
 10
11.27466852371052
 20
0.9645917861793256
 30
0.0
 11
12.35029681753271
 21
2.040220080001513
 31
0.0
  0
LINE
  5
21018
  8
0
  6
CONTINUOUS
 10
11.48276680012654
 20
0.4991708535151611
 30
0.0
 11
12.55846420090111
 21
1.57486825428973
 31
0.0
  0
LINE
  5
21019
  8
0
  6
CONTINUOUS
 10
11.69086507654257
 20
0.0337499208509957
 30
0.0
 11
12.76663158426952
 21
1.109516428577947
 31
0.0
  0
LINE
  5
2101A
  8
0
  6
CONTINUOUS
 10
12.33057447873954
 20
-0.0000598860322123
 30
0.0
 11
12.97479896763792
 21
0.6441646028661663
 31
0.0
  0
LINE
  5
2101B
  8
0
  6
CONTINUOUS
 10
13.00413694809395
 20
-0.0000166257579952
 30
0.0
 11
13.18296635100632
 21
0.1788127771543824
 31
0.0
  0
LINE
  5
2101C
  8
0
  6
CONTINUOUS
 10
4.772852165289667
 20
-0.000092794222212
 30
0.0
 11
4.296495091028902
 21
0.4762642800385528
 31
0.0
  0
LINE
  5
2101D
  8
0
  6
CONTINUOUS
 10
5.446340034776103
 20
-0.0000614546284616
 30
0.0
 11
2.898195908335625
 21
2.548082671812017
 31
0.0
  0
LINE
  5
2101E
  8
0
  6
CONTINUOUS
 10
6.119827904262539
 20
-0.0000301150347113
 30
0.0
 11
1.499896725642348
 21
4.61990106358548
 31
0.0
  0
LINE
  5
2101F
  8
0
  6
CONTINUOUS
 10
6.775136745476159
 20
0.0181802528318542
 30
0.0
 11
5.699826040202669
 21
1.093490958105344
 31
0.0
  0
LINE
  5
21020
  8
0
  6
CONTINUOUS
 10
6.983376846288489
 20
0.4834593610997118
 30
0.0
 11
5.908008617934405
 21
1.558827589453796
 31
0.0
  0
LINE
  5
21021
  8
0
  6
CONTINUOUS
 10
5.377063484962296
 20
1.416253513345719
 30
0.0
 11
1.702276957014131
 21
5.091040041293883
 31
0.0
  0
LINE
  5
21022
  8
0
  6
CONTINUOUS
 10
3.978745891735324
 20
3.488090315652877
 30
0.0
 11
2.000373521109399
 21
5.466462686278803
 31
0.0
  0
LINE
  5
21023
  8
0
  6
CONTINUOUS
 10
7.191616947100819
 20
0.948738469367568
 30
0.0
 11
6.11619119566614
 21
2.024164220802247
 31
0.0
  0
LINE
  5
21024
  8
0
  6
CONTINUOUS
 10
7.399857047913149
 20
1.414017577635424
 30
0.0
 11
6.324373773397875
 21
2.489500852150698
 31
0.0
  0
LINE
  5
21025
  8
0
  6
CONTINUOUS
 10
7.608097148725479
 20
1.879296685903281
 30
0.0
 11
6.53255635112961
 21
2.95483748349915
 31
0.0
  0
LINE
  5
21026
  8
0
  6
CONTINUOUS
 10
7.816337249537808
 20
2.344575794171138
 30
0.0
 11
6.740738928861345
 21
3.420174114847601
 31
0.0
  0
LINE
  5
21027
  8
0
  6
CONTINUOUS
 10
3.310241080789734
 20
4.830114335678653
 30
0.0
 11
2.298470085204666
 21
5.84188533126372
 31
0.0
  0
LINE
  5
21028
  8
0
  6
CONTINUOUS
 10
3.60832983563551
 20
5.205544789913063
 30
0.0
 11
2.596566649299935
 21
6.217307976248638
 31
0.0
  0
LINE
  5
21029
  8
0
  6
CONTINUOUS
 10
3.906418590481286
 20
5.580975244147473
 30
0.0
 11
2.894663213395203
 21
6.592730621233557
 31
0.0
  0
LINE
  5
2102A
  8
0
  6
CONTINUOUS
 10
4.204507345327062
 20
5.956405698381884
 30
0.0
 11
3.192759777490472
 21
6.968153266218474
 31
0.0
  0
LINE
  5
2102B
  8
0
  6
CONTINUOUS
 10
8.466032252791512
 20
2.368399999997621
 30
0.0
 11
6.948921506593081
 21
3.885510746196053
 31
0.0
  0
LINE
  5
2102C
  8
0
  6
CONTINUOUS
 10
9.139551461871699
 20
2.36839999999762
 30
0.0
 11
7.157104084324816
 21
4.350847377544504
 31
0.0
  0
LINE
  5
2102D
  8
0
  6
CONTINUOUS
 10
4.502596100172839
 20
6.331836152616295
 30
0.0
 11
3.49085634158574
 21
7.343575911203393
 31
0.0
  0
LINE
  5
2102E
  8
0
  6
CONTINUOUS
 10
4.800684855018615
 20
6.707266606850705
 30
0.0
 11
3.788952905681008
 21
7.718998556188312
 31
0.0
  0
LINE
  5
2102F
  8
0
  6
CONTINUOUS
 10
12.18154012887317
 20
-0.0000694579236642
 30
0.0
 11
11.32140332908496
 21
0.8600673418645499
 31
0.0
  0
LINE
  5
21030
  8
0
  6
CONTINUOUS
 10
12.85501608323566
 20
-0.0000262032059659
 30
0.0
 11
10.77672456435345
 21
2.078265315676246
 31
0.0
  0
LINE
  5
21031
  8
0
  6
CONTINUOUS
 10
9.813070670951886
 20
2.36839999999762
 30
0.0
 11
8.51047067095321
 21
3.670999999996297
 31
0.0
  0
LINE
  5
21032
  8
0
  6
CONTINUOUS
 10
10.48658988003207
 20
2.36839999999762
 30
0.0
 11
9.183989880033396
 21
3.670999999996297
 31
0.0
  0
LINE
  5
21033
  8
0
  6
CONTINUOUS
 10
8.441048632286794
 20
3.740422038662712
 30
0.0
 11
7.365286662056551
 21
4.816184008892956
 31
0.0
  0
LINE
  5
21034
  8
0
  6
CONTINUOUS
 10
8.649187485808454
 20
4.205802394221237
 30
0.0
 11
7.573469239788285
 21
5.281520640241407
 31
0.0
  0
LINE
  5
21035
  8
0
  6
CONTINUOUS
 10
5.098773609864391
 20
7.082697061085115
 30
0.0
 11
4.087049469776277
 21
8.09442120117323
 31
0.0
  0
LINE
  5
21036
  8
0
  6
CONTINUOUS
 10
5.396862364710167
 20
7.458127515319526
 30
0.0
 11
4.385146033871544
 21
8.469843846158149
 31
0.0
  0
LINE
  5
21037
  8
0
  6
CONTINUOUS
 10
13.04801363231285
 20
0.4804954567970334
 30
0.0
 11
9.85750908911358
 21
3.670999999996297
 31
0.0
  0
LINE
  5
21038
  8
0
  6
CONTINUOUS
 10
8.857326339330116
 20
4.671182749779763
 30
0.0
 11
7.781651817520021
 21
5.746857271589858
 31
0.0
  0
LINE
  5
21039
  8
0
  6
CONTINUOUS
 10
5.694951119555943
 20
7.833557969553937
 30
0.0
 11
4.765409089118624
 21
8.763099999991255
 31
0.0
  0
LINE
  5
2103A
  8
0
  6
CONTINUOUS
 10
12.50286117236978
 20
1.699167125820288
 30
0.0
 11
9.68611877250287
 21
4.515909525687196
 31
0.0
  0
LINE
  5
2103B
  8
0
  6
CONTINUOUS
 10
9.065465192851777
 20
5.136563105338288
 30
0.0
 11
7.989834395251757
 21
6.21219390293831
 31
0.0
  0
LINE
  5
2103C
  8
0
  6
CONTINUOUS
 10
5.993039874401719
 20
8.208988423788346
 30
0.0
 11
5.43892829819881
 21
8.763099999991255
 31
0.0
  0
LINE
  5
2103D
  8
0
  6
CONTINUOUS
 10
11.95770871242671
 20
2.917838794843543
 30
0.0
 11
8.19801697298349
 21
6.677530534286761
 31
0.0
  0
LINE
  5
2103E
  8
0
  6
CONTINUOUS
 10
6.291128629247495
 20
8.584418878022756
 30
0.0
 11
6.112447507278997
 21
8.763099999991255
 31
0.0
  0
LINE
  5
2103F
  8
0
  6
CONTINUOUS
 10
11.41255625248364
 20
4.136510463866797
 30
0.0
 11
8.406199550715227
 21
7.142867165635211
 31
0.0
  0
LINE
  5
21040
  8
0
  6
CONTINUOUS
 10
10.86740379254057
 20
5.355182132890051
 30
0.0
 11
8.614382128446962
 21
7.608203796983664
 31
0.0
  0
LINE
  5
21041
  8
0
  6
CONTINUOUS
 10
10.3222513325975
 20
6.573853801913305
 30
0.0
 11
8.822564706178696
 21
8.073540428332114
 31
0.0
  0
LINE
  5
21042
  8
0
  6
CONTINUOUS
 10
9.777098872654436
 20
7.792525470936562
 30
0.0
 11
9.030747283910433
 21
8.538877059680566
 31
0.0
  0
ENDBLK
  5
21184
  8
0
  0
BLOCK
  8
0
  2
*X52
 70
     1
 10
0.0
 20
0.0
 30
0.0
  3
*X52
  1

  0
LINE
  5
21044
  8
0
  6
CONTINUOUS
 10
10.67292308101235
 20
8.445076852443387
 30
0.0
 11
10.99094622856022
 21
8.763099999991255
 31
0.0
  0
LINE
  5
21045
  8
0
  6
CONTINUOUS
 10
10.87250383178748
 20
7.971138394138331
 30
0.0
 11
11.6644654376404
 21
8.763099999991255
 31
0.0
  0
LINE
  5
21046
  8
0
  6
CONTINUOUS
 10
11.07208458256261
 20
7.497199935833273
 30
0.0
 11
12.12126590876355
 21
8.546381262034211
 31
0.0
  0
LINE
  5
21047
  8
0
  6
CONTINUOUS
 10
11.27166533333774
 20
7.023261477528216
 30
0.0
 11
12.32085164573666
 21
8.072447789927136
 31
0.0
  0
LINE
  5
21048
  8
0
  6
CONTINUOUS
 10
11.47124608411287
 20
6.549323019223158
 30
0.0
 11
12.52043738270977
 21
7.59851431782006
 31
0.0
  0
LINE
  5
21049
  8
0
  6
CONTINUOUS
 10
11.670826834888
 20
6.075384560918101
 30
0.0
 11
12.72002311968288
 21
7.124580845712984
 31
0.0
  0
LINE
  5
2104A
  8
0
  6
CONTINUOUS
 10
11.87040758566313
 20
5.601446102613043
 30
0.0
 11
12.91960885665599
 21
6.650647373605907
 31
0.0
  0
LINE
  5
2104B
  8
0
  6
CONTINUOUS
 10
12.06998833643825
 20
5.127507644307986
 30
0.0
 11
13.1191945936291
 21
6.176713901498832
 31
0.0
  0
LINE
  5
2104C
  8
0
  6
CONTINUOUS
 10
12.26956908721338
 20
4.65356918600293
 30
0.0
 11
13.31878033060221
 21
5.702780429391757
 31
0.0
  0
LINE
  5
2104D
  8
0
  6
CONTINUOUS
 10
12.46914983798851
 20
4.179630727697873
 30
0.0
 11
13.51836606757532
 21
5.228846957284683
 31
0.0
  0
LINE
  5
2104E
  8
0
  6
CONTINUOUS
 10
12.66873058876364
 20
3.705692269392816
 30
0.0
 11
13.71795180454843
 21
4.754913485177607
 31
0.0
  0
LINE
  5
2104F
  8
0
  6
CONTINUOUS
 10
12.86831133953877
 20
3.231753811087759
 30
0.0
 11
13.91753754152154
 21
4.280980013070531
 31
0.0
  0
LINE
  5
21050
  8
0
  6
CONTINUOUS
 10
13.0678920903139
 20
2.757815352782702
 30
0.0
 11
14.11712327849465
 21
3.807046540963456
 31
0.0
  0
LINE
  5
21051
  8
0
  6
CONTINUOUS
 10
13.26747284108903
 20
2.283876894477644
 30
0.0
 11
14.31670901546777
 21
3.333113068856379
 31
0.0
  0
LINE
  5
21052
  8
0
  6
CONTINUOUS
 10
16.36767838827179
 20
8.751678487061342
 30
0.0
 11
16.50332410898388
 21
8.887324207773432
 31
0.0
  0
LINE
  5
21053
  8
0
  6
CONTINUOUS
 10
15.96190732182191
 20
7.67238821153127
 30
0.0
 11
16.68735328004734
 21
8.397834169756699
 31
0.0
  0
LINE
  5
21054
  8
0
  6
CONTINUOUS
 10
15.55613625537202
 20
6.593097936001196
 30
0.0
 11
16.87138245111079
 21
7.908344131739965
 31
0.0
  0
LINE
  5
21055
  8
0
  6
CONTINUOUS
 10
15.15036518892213
 20
5.513807660471122
 30
0.0
 11
17.05541162217424
 21
7.418854093723231
 31
0.0
  0
LINE
  5
21056
  8
0
  6
CONTINUOUS
 10
14.74459412247225
 20
4.434517384941048
 30
0.0
 11
17.2394407932377
 21
6.929364055706499
 31
0.0
  0
LINE
  5
21057
  8
0
  6
CONTINUOUS
 10
14.33882305602236
 20
3.355227109410975
 30
0.0
 11
17.42346996430115
 21
6.439874017689766
 31
0.0
  0
LINE
  5
21058
  8
0
  6
CONTINUOUS
 10
13.46705359186416
 20
1.809938436172586
 30
0.0
 11
16.0819338255367
 21
4.424818669845129
 31
0.0
  0
LINE
  5
21059
  8
0
  6
CONTINUOUS
 10
16.63283254238972
 20
4.975717386698149
 30
0.0
 11
17.60749913536461
 21
5.950383979673033
 31
0.0
  0
LINE
  5
2105A
  8
0
  6
CONTINUOUS
 10
13.66663434263929
 20
1.335999977867529
 30
0.0
 11
15.67604797733754
 21
3.345413612565779
 31
0.0
  0
LINE
  5
2105B
  8
0
  6
CONTINUOUS
 10
13.86621509341442
 20
0.8620615195624723
 30
0.0
 11
15.27016212913838
 21
2.26600855528643
 31
0.0
  0
LINE
  5
2105C
  8
0
  6
CONTINUOUS
 10
16.81682257348267
 20
4.486188208710908
 30
0.0
 11
17.79152830642806
 21
5.460893941656299
 31
0.0
  0
LINE
  5
2105D
  8
0
  6
CONTINUOUS
 10
17.00081260457561
 20
3.996659030723667
 30
0.0
 11
17.97555747749151
 21
4.971403903639565
 31
0.0
  0
LINE
  5
2105E
  8
0
  6
CONTINUOUS
 10
20.74362343514722
 20
8.412989070375462
 30
0.0
 11
21.09373436476302
 21
8.763099999991256
 31
0.0
  0
LINE
  5
2105F
  8
0
  6
CONTINUOUS
 10
20.25401257174777
 20
7.249858997895826
 30
0.0
 11
21.7672535738432
 21
8.763099999991255
 31
0.0
  0
LINE
  5
21060
  8
0
  6
CONTINUOUS
 10
14.06579584418955
 20
0.3881230612574149
 30
0.0
 11
14.86427628093921
 21
1.186603498007082
 31
0.0
  0
LINE
  5
21061
  8
0
  6
CONTINUOUS
 10
14.26537659496467
 20
-0.0858153970476412
 30
0.0
 11
14.45839043274005
 21
0.1071984407277329
 31
0.0
  0
LINE
  5
21062
  8
0
  6
CONTINUOUS
 10
17.18480263566856
 20
3.507129852736426
 30
0.0
 11
18.15958664855496
 21
4.481913865622833
 31
0.0
  0
LINE
  5
21063
  8
0
  6
CONTINUOUS
 10
17.3687926667615
 20
3.017600674749186
 30
0.0
 11
18.34361581961842
 21
3.9924238276061
 31
0.0
  0
LINE
  5
21064
  8
0
  6
CONTINUOUS
 10
19.76440170834832
 20
6.086728925416191
 30
0.0
 11
22.33924590259489
 21
8.661573119662755
 31
0.0
  0
LINE
  5
21065
  8
0
  6
CONTINUOUS
 10
19.27479084494887
 20
4.923598852936555
 30
0.0
 11
21.84929622842713
 21
7.498104236414807
 31
0.0
  0
LINE
  5
21066
  8
0
  6
CONTINUOUS
 10
17.55278269785445
 20
2.528071496761945
 30
0.0
 11
18.52764499068187
 21
3.502933789589366
 31
0.0
  0
LINE
  5
21067
  8
0
  6
CONTINUOUS
 10
18.78517998154942
 20
3.760468780456919
 30
0.0
 11
21.35934655425936
 21
6.33463535316686
 31
0.0
  0
LINE
  5
21068
  8
0
  6
CONTINUOUS
 10
17.73677272894739
 20
2.038542318774704
 30
0.0
 11
20.8693968800916
 21
5.171166469918914
 31
0.0
  0
LINE
  5
21069
  8
0
  6
CONTINUOUS
 10
17.92076276004034
 20
1.549013140787464
 30
0.0
 11
20.37944720592384
 21
4.007697586670968
 31
0.0
  0
LINE
  5
2106A
  8
0
  6
CONTINUOUS
 10
18.10475279113329
 20
1.059483962800223
 30
0.0
 11
19.88949753175608
 21
2.84422870342302
 31
0.0
  0
LINE
  5
2106B
  8
0
  6
CONTINUOUS
 10
18.28874282222623
 20
0.5699547848129822
 30
0.0
 11
19.39954785758832
 21
1.680759820175074
 31
0.0
  0
LINE
  5
2106C
  8
0
  6
CONTINUOUS
 10
18.47273285331918
 20
0.0804256068257416
 30
0.0
 11
18.90959818342056
 21
0.517290936927127
 31
0.0
  0
LINE
  5
2106D
  8
0
  6
CONTINUOUS
 10
14.3590401358224
 20
-0.1570118376323384
 30
0.0
 11
14.24903296539946
 21
-0.0470046672093929
 31
0.0
  0
LINE
  5
2106E
  8
0
  6
CONTINUOUS
 10
14.54309291258661
 20
0.332454594683643
 30
0.0
 11
13.75908329123172
 21
1.116464216038529
 31
0.0
  0
LINE
  5
2106F
  8
0
  6
CONTINUOUS
 10
14.72714568935081
 20
0.8219210269996244
 30
0.0
 11
13.26913361706399
 21
2.27993309928645
 31
0.0
  0
LINE
  5
21070
  8
0
  6
CONTINUOUS
 10
14.91119846611502
 20
1.311387459315606
 30
0.0
 11
12.77918394289625
 21
3.443401982534371
 31
0.0
  0
LINE
  5
21071
  8
0
  6
CONTINUOUS
 10
15.09525124287922
 20
1.800853891631587
 30
0.0
 11
12.28923426872852
 21
4.606870865782293
 31
0.0
  0
LINE
  5
21072
  8
0
  6
CONTINUOUS
 10
15.27930401964343
 20
2.290320323947569
 30
0.0
 11
11.79928459456078
 21
5.770339749030213
 31
0.0
  0
LINE
  5
21073
  8
0
  6
CONTINUOUS
 10
15.46335679640763
 20
2.77978675626355
 30
0.0
 11
14.48885470994921
 21
3.754288842721972
 31
0.0
  0
LINE
  5
21074
  8
0
  6
CONTINUOUS
 10
13.88507249233704
 20
4.358071060334137
 30
0.0
 11
11.30933492039305
 21
6.933808632278135
 31
0.0
  0
LINE
  5
21075
  8
0
  6
CONTINUOUS
 10
18.75840522805855
 20
0.1582575336928151
 30
0.0
 11
18.25383727664818
 21
0.6628254851031863
 31
0.0
  0
LINE
  5
21076
  8
0
  6
CONTINUOUS
 10
15.64740957317184
 20
3.269253188579531
 30
0.0
 11
14.67288388101266
 21
4.243778880738705
 31
0.0
  0
LINE
  5
21077
  8
0
  6
CONTINUOUS
 10
13.39509276772158
 20
5.521569994029786
 30
0.0
 11
10.81938524622531
 21
8.097277515526056
 31
0.0
  0
LINE
  5
21078
  8
0
  6
CONTINUOUS
 10
18.95798597883369
 20
0.6321959919978686
 30
0.0
 11
17.84825644852853
 21
1.741925522303024
 31
0.0
  0
LINE
  5
21079
  8
0
  6
CONTINUOUS
 10
19.15756672960882
 20
1.106134450302922
 30
0.0
 11
17.44267562040888
 21
2.821025559502861
 31
0.0
  0
LINE
  5
2107A
  8
0
  6
CONTINUOUS
 10
15.83146234993604
 20
3.758719620895513
 30
0.0
 11
14.85691305207612
 21
4.733268918755439
 31
0.0
  0
LINE
  5
2107B
  8
0
  6
CONTINUOUS
 10
16.01551512670025
 20
4.248186053211494
 30
0.0
 11
15.04094222313957
 21
5.222758956772172
 31
0.0
  0
LINE
  5
2107C
  8
0
  6
CONTINUOUS
 10
12.90511304310612
 20
6.685068927725435
 30
0.0
 11
10.8270819708403
 21
8.763099999991255
 31
0.0
  0
LINE
  5
2107D
  8
0
  6
CONTINUOUS
 10
12.41513331849066
 20
7.848567861421083
 30
0.0
 11
11.50060117992049
 21
8.763099999991255
 31
0.0
  0
LINE
  5
2107E
  8
0
  6
CONTINUOUS
 10
19.35714748038395
 20
1.580072908607975
 30
0.0
 11
17.03709479228923
 21
3.900125596702697
 31
0.0
  0
LINE
  5
2107F
  8
0
  6
CONTINUOUS
 10
19.55672823115909
 20
2.054011366913028
 30
0.0
 11
16.63151396416958
 21
4.979225633902534
 31
0.0
  0
LINE
  5
21080
  8
0
  6
CONTINUOUS
 10
16.19956790346445
 20
4.737652485527476
 30
0.0
 11
15.22497139420302
 21
5.712248994788904
 31
0.0
  0
LINE
  5
21081
  8
0
  6
CONTINUOUS
 10
16.38362068022866
 20
5.227118917843457
 30
0.0
 11
15.40900056526648
 21
6.201739032805637
 31
0.0
  0
LINE
  5
21082
  8
0
  6
CONTINUOUS
 10
19.75630898193422
 20
2.527949825218081
 30
0.0
 11
18.70774536448286
 21
3.576513442669441
 31
0.0
  0
LINE
  5
21083
  8
0
  6
CONTINUOUS
 10
19.95588973270936
 20
3.001888283523134
 30
0.0
 11
18.90726987211446
 21
4.050508144118028
 31
0.0
  0
LINE
  5
21084
  8
0
  6
CONTINUOUS
 10
20.15547048348449
 20
3.475826741828186
 30
0.0
 11
19.10679437974606
 21
4.524502845566614
 31
0.0
  0
LINE
  5
21085
  8
0
  6
CONTINUOUS
 10
20.35505123425962
 20
3.94976520013324
 30
0.0
 11
19.30631888737766
 21
4.998497547015201
 31
0.0
  0
LINE
  5
21086
  8
0
  6
CONTINUOUS
 10
20.55463198503475
 20
4.423703658438292
 30
0.0
 11
19.50584339500926
 21
5.472492248463787
 31
0.0
  0
LINE
  5
21087
  8
0
  6
CONTINUOUS
 10
18.37481191085755
 20
3.909446896294752
 30
0.0
 11
15.59302973632993
 21
6.691229070822371
 31
0.0
  0
LINE
  5
21088
  8
0
  6
CONTINUOUS
 10
17.96904084440766
 20
4.988737171824825
 30
0.0
 11
15.77705890739338
 21
7.180719108839104
 31
0.0
  0
LINE
  5
21089
  8
0
  6
CONTINUOUS
 10
17.56326977795777
 20
6.068027447354899
 30
0.0
 11
15.96108807845684
 21
7.670209146855838
 31
0.0
  0
LINE
  5
2108A
  8
0
  6
CONTINUOUS
 10
17.15749871150789
 20
7.147317722884972
 30
0.0
 11
16.14511724952029
 21
8.15969918487257
 31
0.0
  0
LINE
  5
2108B
  8
0
  6
CONTINUOUS
 10
16.751727645058
 20
8.226607998415046
 30
0.0
 11
16.32914642058374
 21
8.649189222889303
 31
0.0
  0
LINE
  5
2108C
  8
0
  6
CONTINUOUS
 10
20.75421273580989
 20
4.897642116743345
 30
0.0
 11
19.70536790264086
 21
5.946486949912374
 31
0.0
  0
LINE
  5
2108D
  8
0
  6
CONTINUOUS
 10
20.95379348658502
 20
5.371580575048398
 30
0.0
 11
19.90489241027246
 21
6.42048165136096
 31
0.0
  0
LINE
  5
2108E
  8
0
  6
CONTINUOUS
 10
21.15337423736015
 20
5.845519033353452
 30
0.0
 11
20.10441691790406
 21
6.894476352809547
 31
0.0
  0
LINE
  5
2108F
  8
0
  6
CONTINUOUS
 10
21.35295498813529
 20
6.319457491658505
 30
0.0
 11
20.30394142553566
 21
7.368471054258134
 31
0.0
  0
LINE
  5
21090
  8
0
  6
CONTINUOUS
 10
21.55253573891042
 20
6.793395949963558
 30
0.0
 11
20.50346593316726
 21
7.842465755706721
 31
0.0
  0
LINE
  5
21091
  8
0
  6
CONTINUOUS
 10
21.75211648968556
 20
7.267334408268612
 30
0.0
 11
20.70299044079886
 21
8.316460457155308
 31
0.0
  0
LINE
  5
21092
  8
0
  6
CONTINUOUS
 10
21.95169724046069
 20
7.741272866573663
 30
0.0
 11
20.9298701070431
 21
8.763099999991256
 31
0.0
  0
LINE
  5
21093
  8
0
  6
CONTINUOUS
 10
22.15127799123582
 20
8.215211324878716
 30
0.0
 11
21.60338931612328
 21
8.763099999991256
 31
0.0
  0
LINE
  5
21094
  8
0
  6
CONTINUOUS
 10
22.35085874201096
 20
8.689149783183769
 30
0.0
 11
22.27690852520347
 21
8.763099999991255
 31
0.0
  0
ENDBLK
  5
21186
  8
0
  0
BLOCK
  8
0
  2
*X53
 70
     1
 10
0.0
 20
0.0
 30
0.0
  3
*X53
  1

  0
LINE
  5
21096
  8
0
  6
CONTINUOUS
 10
23.19462913593892
 20
8.169917934846424
 30
0.0
 11
23.70775465517246
 21
8.683043454079957
 31
0.0
  0
LINE
  5
21097
  8
0
  6
CONTINUOUS
 10
22.64923161835078
 20
6.951001208178088
 30
0.0
 11
23.9159364069932
 21
8.217705996820516
 31
0.0
  0
LINE
  5
21098
  8
0
  6
CONTINUOUS
 10
22.10383410076263
 20
5.732084481509751
 30
0.0
 11
24.12411815881395
 21
7.752368539561078
 31
0.0
  0
LINE
  5
21099
  8
0
  6
CONTINUOUS
 10
21.55843658317447
 20
4.513167754841414
 30
0.0
 11
24.3322999106347
 21
7.287031082301639
 31
0.0
  0
LINE
  5
2109A
  8
0
  6
CONTINUOUS
 10
21.01303906558632
 20
3.294251028173077
 30
0.0
 11
24.54048166245544
 21
6.821693625042199
 31
0.0
  0
LINE
  5
2109B
  8
0
  6
CONTINUOUS
 10
20.46764154799817
 20
2.075334301504738
 30
0.0
 11
23.28571549467848
 21
4.89340824818505
 31
0.0
  0
LINE
  5
2109C
  8
0
  6
CONTINUOUS
 10
19.92224403041002
 20
0.8564175748364002
 30
0.0
 11
22.74075865492779
 21
3.674932199354171
 31
0.0
  0
LINE
  5
2109D
  8
0
  6
CONTINUOUS
 10
23.67305085490148
 20
5.280743608408048
 30
0.0
 11
24.74866341427619
 21
6.356356167782759
 31
0.0
  0
LINE
  5
2109E
  8
0
  6
CONTINUOUS
 10
23.88118970842314
 20
4.815363252849522
 30
0.0
 11
24.95684516609694
 21
5.89101871052332
 31
0.0
  0
LINE
  5
2109F
  8
0
  6
CONTINUOUS
 10
19.73925852647308
 20
-0.0000871381807288
 30
0.0
 11
23.4103456646501
 21
3.670999999996297
 31
0.0
  0
LINE
  5
210A0
  8
0
  6
CONTINUOUS
 10
24.0893285619448
 20
4.349982897290997
 30
0.0
 11
25.16502691791769
 21
5.42568125326388
 31
0.0
  0
LINE
  5
210A1
  8
0
  6
CONTINUOUS
 10
20.41282099582748
 20
-0.0000438779065108
 30
0.0
 11
21.64944178675636
 21
1.236576913022366
 31
0.0
  0
LINE
  5
210A2
  8
0
  6
CONTINUOUS
 10
22.78126487373161
 20
2.36839999999762
 30
0.0
 11
24.08386487373029
 21
3.670999999996297
 31
0.0
  0
LINE
  5
210A3
  8
0
  6
CONTINUOUS
 10
24.29746741546646
 20
3.884602541732471
 30
0.0
 11
25.37320866973843
 21
4.960343796004441
 31
0.0
  0
LINE
  5
210A4
  8
0
  6
CONTINUOUS
 10
21.08638346518189
 20
-0.0000006176322938
 30
0.0
 11
21.10379033335899
 21
0.0174062505448083
 31
0.0
  0
LINE
  5
210A5
  8
0
  6
CONTINUOUS
 10
23.4547840828118
 20
2.36839999999762
 30
0.0
 11
25.58139042155918
 21
4.495006338745002
 31
0.0
  0
LINE
  5
210A6
  8
0
  6
CONTINUOUS
 10
29.30199999996933
 20
8.215615917155148
 30
0.0
 11
29.84948408280543
 21
8.763099999991255
 31
0.0
  0
LINE
  5
210A7
  8
0
  6
CONTINUOUS
 10
24.12830329189199
 20
2.36839999999762
 30
0.0
 11
25.78957217337993
 21
4.029668881485562
 31
0.0
  0
LINE
  5
210A8
  8
0
  6
CONTINUOUS
 10
29.30199999996933
 20
7.54209670807496
 30
0.0
 11
30.52300329188562
 21
8.763099999991255
 31
0.0
  0
LINE
  5
210A9
  8
0
  6
CONTINUOUS
 10
24.80182250097217
 20
2.36839999999762
 30
0.0
 11
25.99775392520067
 21
3.564331424226122
 31
0.0
  0
LINE
  5
210AA
  8
0
  6
CONTINUOUS
 10
29.30199999996933
 20
6.868577498994774
 30
0.0
 11
30.74199999996926
 21
8.308577498994712
 31
0.0
  0
LINE
  5
210AB
  8
0
  6
CONTINUOUS
 10
25.13028238392013
 20
2.023340673865392
 30
0.0
 11
26.20593567702142
 21
3.098993966966683
 31
0.0
  0
LINE
  5
210AC
  8
0
  6
CONTINUOUS
 10
25.33838066033617
 20
1.557919741201244
 30
0.0
 11
26.41411742884217
 21
2.633656509707244
 31
0.0
  0
LINE
  5
210AD
  8
0
  6
CONTINUOUS
 10
25.54647893675221
 20
1.092498808537098
 30
0.0
 11
26.62229918066291
 21
2.168319052447804
 31
0.0
  0
LINE
  5
210AE
  8
0
  6
CONTINUOUS
 10
25.75457721316825
 20
0.62707787587295
 30
0.0
 11
26.83048093248366
 21
1.702981595188365
 31
0.0
  0
LINE
  5
210AF
  8
0
  6
CONTINUOUS
 10
29.30199999996933
 20
6.195058289914587
 30
0.0
 11
30.74199999996926
 21
7.635058289914522
 31
0.0
  0
LINE
  5
210B0
  8
0
  6
CONTINUOUS
 10
29.30199999996933
 20
5.521539080834401
 30
0.0
 11
30.74199999996926
 21
6.961539080834331
 31
0.0
  0
LINE
  5
210B1
  8
0
  6
CONTINUOUS
 10
29.30199999996933
 20
4.848019871754214
 30
0.0
 11
30.74199999996925
 21
6.288019871754143
 31
0.0
  0
LINE
  5
210B2
  8
0
  6
CONTINUOUS
 10
29.30199999996933
 20
4.174500662674028
 30
0.0
 11
30.74199999996925
 21
5.614500662673953
 31
0.0
  0
LINE
  5
210B3
  8
0
  6
CONTINUOUS
 10
25.96267548958429
 20
0.1616569432088024
 30
0.0
 11
27.18411854636669
 21
1.383099999991207
 31
0.0
  0
LINE
  5
210B4
  8
0
  6
CONTINUOUS
 10
29.30199999996933
 20
3.500981453593841
 30
0.0
 11
30.74199999996925
 21
4.940981453593762
 31
0.0
  0
LINE
  5
210B5
  8
0
  6
CONTINUOUS
 10
26.50763775544691
 20
0.0330999999912356
 30
0.0
 11
27.85763775544689
 21
1.383099999991223
 31
0.0
  0
LINE
  5
210B6
  8
0
  6
CONTINUOUS
 10
29.30199999996933
 20
2.827462244513656
 30
0.0
 11
30.74199999996925
 21
4.267462244513574
 31
0.0
  0
LINE
  5
210B7
  8
0
  6
CONTINUOUS
 10
27.18115696452709
 20
0.0330999999912356
 30
0.0
 11
28.54526759058215
 21
1.397210626046295
 31
0.0
  0
LINE
  5
210B8
  8
0
  6
CONTINUOUS
 10
29.2878893739142
 20
2.139832409378348
 30
0.0
 11
30.74199999996924
 21
3.593943035433383
 31
0.0
  0
LINE
  5
210B9
  8
0
  6
CONTINUOUS
 10
27.85467617360728
 20
0.0330999999912356
 30
0.0
 11
30.74199999996924
 21
2.920423826353195
 31
0.0
  0
LINE
  5
210BA
  8
0
  6
CONTINUOUS
 10
28.53704681883833
 20
0.0419514361420976
 30
0.0
 11
30.73314856381836
 21
2.23805318112213
 31
0.0
  0
LINE
  5
210BB
  8
0
  6
CONTINUOUS
 10
29.45996618203888
 20
0.291351590262467
 30
0.0
 11
30.48374840969798
 21
1.315133817921562
 31
0.0
  0
LINE
  5
210BC
  8
0
  6
CONTINUOUS
 10
19.59027867740337
 20
-0.0000967065718083
 30
0.0
 11
19.55485265190471
 21
0.035329318926844
 31
0.0
  0
LINE
  5
210BD
  8
0
  6
CONTINUOUS
 10
20.26375463176586
 20
-0.0000534518541091
 30
0.0
 11
19.76305575737534
 21
0.5006454225364014
 31
0.0
  0
LINE
  5
210BE
  8
0
  6
CONTINUOUS
 10
20.93723058612834
 20
-0.0000101971364099
 30
0.0
 11
19.97125886284597
 21
0.965961526145958
 31
0.0
  0
LINE
  5
210BF
  8
0
  6
CONTINUOUS
 10
21.25514828313686
 20
0.355591314935257
 30
0.0
 11
20.1794619683166
 21
1.431277629755512
 31
0.0
  0
LINE
  5
210C0
  8
0
  6
CONTINUOUS
 10
21.46338838394921
 20
0.8208704232030986
 30
0.0
 11
20.38766507378723
 21
1.896593733365069
 31
0.0
  0
LINE
  5
210C1
  8
0
  6
CONTINUOUS
 10
21.67162848476155
 20
1.28614953147094
 30
0.0
 11
20.59586817925786
 21
2.361909836974626
 31
0.0
  0
LINE
  5
210C2
  8
0
  6
CONTINUOUS
 10
21.8798685855739
 20
1.751428639738782
 30
0.0
 11
20.80407128472849
 21
2.827225940584183
 31
0.0
  0
LINE
  5
210C3
  8
0
  6
CONTINUOUS
 10
22.08810868638624
 20
2.216707748006623
 30
0.0
 11
21.01227439019912
 21
3.292542044193739
 31
0.0
  0
LINE
  5
210C4
  8
0
  6
CONTINUOUS
 10
22.60993564347543
 20
2.36839999999762
 30
0.0
 11
21.22047749566975
 21
3.757858147803296
 31
0.0
  0
LINE
  5
210C5
  8
0
  6
CONTINUOUS
 10
23.28345485255561
 20
2.36839999999762
 30
0.0
 11
21.42868060114038
 21
4.223174251412853
 31
0.0
  0
LINE
  5
210C6
  8
0
  6
CONTINUOUS
 10
26.29227406164219
 20
0.0330999999912356
 30
0.0
 11
25.80009199592872
 21
0.5252820657046957
 31
0.0
  0
LINE
  5
210C7
  8
0
  6
CONTINUOUS
 10
23.9569740616358
 20
2.36839999999762
 30
0.0
 11
21.63688370661101
 21
4.688490355022409
 31
0.0
  0
LINE
  5
210C8
  8
0
  6
CONTINUOUS
 10
26.96579327072237
 20
0.0330999999912356
 30
0.0
 11
25.2554132311971
 21
1.743480039516508
 31
0.0
  0
LINE
  5
210C9
  8
0
  6
CONTINUOUS
 10
24.63049327071599
 20
2.36839999999762
 30
0.0
 11
23.32789327071731
 21
3.670999999996297
 31
0.0
  0
LINE
  5
210CA
  8
0
  6
CONTINUOUS
 10
22.92098674744635
 20
4.077906523267254
 30
0.0
 11
21.84508681208164
 21
5.153806458631966
 31
0.0
  0
LINE
  5
210CB
  8
0
  6
CONTINUOUS
 10
27.63931247980256
 20
0.0330999999912356
 30
0.0
 11
24.0014124797975
 21
3.670999999996297
 31
0.0
  0
LINE
  5
210CC
  8
0
  6
CONTINUOUS
 10
23.129125600968
 20
4.5432868788258
 30
0.0
 11
22.05328991755227
 21
5.619122562241522
 31
0.0
  0
LINE
  5
210CD
  8
0
  6
CONTINUOUS
 10
28.31283168888275
 20
0.0330999999912356
 30
0.0
 11
24.16488385994816
 21
4.181047828925828
 31
0.0
  0
LINE
  5
210CE
  8
0
  6
CONTINUOUS
 10
23.33726445448964
 20
5.008667234384345
 30
0.0
 11
22.2614930230229
 21
6.084438665851079
 31
0.0
  0
LINE
  5
210CF
  8
0
  6
CONTINUOUS
 10
28.92337750139541
 20
0.0960733965587588
 30
0.0
 11
27.63635089796295
 21
1.383099999991217
 31
0.0
  0
LINE
  5
210D0
  8
0
  6
CONTINUOUS
 10
26.43704649509776
 20
2.582404402856405
 30
0.0
 11
23.61992702019732
 21
5.399523877756844
 31
0.0
  0
LINE
  5
210D1
  8
0
  6
CONTINUOUS
 10
23.54540330801128
 20
5.47404758994289
 30
0.0
 11
22.46969612849353
 21
6.549754769460635
 31
0.0
  0
LINE
  5
210D2
  8
0
  6
CONTINUOUS
 10
29.42088916767058
 20
0.2720809393637778
 30
0.0
 11
28.30987010704312
 21
1.383099999991234
 31
0.0
  0
LINE
  5
210D3
  8
0
  6
CONTINUOUS
 10
25.89179548232307
 20
3.801174624711282
 30
0.0
 11
22.67789923396416
 21
7.015070873070191
 31
0.0
  0
LINE
  5
210D4
  8
0
  6
CONTINUOUS
 10
29.83893364644151
 20
0.527555669673029
 30
0.0
 11
28.85619976405965
 21
1.510289552054886
 31
0.0
  0
LINE
  5
210D5
  8
0
  6
CONTINUOUS
 10
25.34654446954838
 20
5.01994484656616
 30
0.0
 11
22.88610233943479
 21
7.480386976679748
 31
0.0
  0
LINE
  5
210D6
  8
0
  6
CONTINUOUS
 10
30.18040261952632
 20
0.8596059056684049
 30
0.0
 11
29.18745395369615
 21
1.852554571498581
 31
0.0
  0
LINE
  5
210D7
  8
0
  6
CONTINUOUS
 10
24.80129345677369
 20
6.238715068421037
 30
0.0
 11
23.09430544490542
 21
7.945703080289305
 31
0.0
  0
LINE
  5
210D8
  8
0
  6
CONTINUOUS
 10
30.45555813616515
 20
1.257969598109762
 30
0.0
 11
29.30199999996933
 21
2.411527734305588
 31
0.0
  0
LINE
  5
210D9
  8
0
  6
CONTINUOUS
 10
24.256042443999
 20
7.457485290275915
 30
0.0
 11
23.30250855037605
 21
8.411019183898862
 31
0.0
  0
LINE
  5
210DA
  8
0
  6
CONTINUOUS
 10
30.65144941570831
 20
1.735597527646789
 30
0.0
 11
29.30199999996933
 21
3.085046943385775
 31
0.0
  0
LINE
  5
210DB
  8
0
  6
CONTINUOUS
 10
23.71079143122431
 20
8.676255512130794
 30
0.0
 11
23.51071165584668
 21
8.876335287508416
 31
0.0
  0
LINE
  5
210DC
  8
0
  6
CONTINUOUS
 10
30.73864552656466
 20
2.321920625870631
 30
0.0
 11
29.30199999996933
 21
3.758566152465961
 31
0.0
  0
LINE
  5
210DD
  8
0
  6
CONTINUOUS
 10
30.74199999996924
 20
2.992085361546236
 30
0.0
 11
29.30199999996933
 21
4.432085361546148
 31
0.0
  0
LINE
  5
210DE
  8
0
  6
CONTINUOUS
 10
30.74199999996924
 20
3.665604570626419
 30
0.0
 11
29.30199999996933
 21
5.105604570626333
 31
0.0
  0
LINE
  5
210DF
  8
0
  6
CONTINUOUS
 10
30.74199999996925
 20
4.339123779706602
 30
0.0
 11
29.30199999996933
 21
5.77912377970652
 31
0.0
  0
LINE
  5
210E0
  8
0
  6
CONTINUOUS
 10
30.74199999996925
 20
5.012642988786785
 30
0.0
 11
29.30199999996933
 21
6.452642988786707
 31
0.0
  0
LINE
  5
210E1
  8
0
  6
CONTINUOUS
 10
30.74199999996925
 20
5.68616219786697
 30
0.0
 11
29.30199999996933
 21
7.126162197866894
 31
0.0
  0
LINE
  5
210E2
  8
0
  6
CONTINUOUS
 10
30.74199999996925
 20
6.359681406947153
 30
0.0
 11
29.30199999996933
 21
7.799681406947081
 31
0.0
  0
LINE
  5
210E3
  8
0
  6
CONTINUOUS
 10
30.74199999996926
 20
7.033200616027337
 30
0.0
 11
29.30199999996933
 21
8.473200616027269
 31
0.0
  0
LINE
  5
210E4
  8
0
  6
CONTINUOUS
 10
30.74199999996926
 20
7.706719825107518
 30
0.0
 11
29.68561982508552
 21
8.763099999991255
 31
0.0
  0
LINE
  5
210E5
  8
0
  6
CONTINUOUS
 10
30.74199999996926
 20
8.380239034187703
 30
0.0
 11
30.35913903416571
 21
8.763099999991255
 31
0.0
  0
ENDBLK
  5
21188
  8
0
  0
BLOCK
  8
0
  2
*X54
 70
     1
 10
0.0
 20
0.0
 30
0.0
  3
*X54
  1

  0
LINE
  5
210E7
  8
0
  6
CONTINUOUS
 10
31.64199999996833
 20
8.5350582899136
 30
0.0
 11
31.87004171004599
 21
8.763099999991255
 31
0.0
  0
LINE
  5
210E8
  8
0
  6
CONTINUOUS
 10
31.64199999996833
 20
7.861539080833413
 30
0.0
 11
32.54356091912618
 21
8.763099999991255
 31
0.0
  0
LINE
  5
210E9
  8
0
  6
CONTINUOUS
 10
31.64199999996833
 20
7.188019871753227
 30
0.0
 11
33.08199999996839
 21
8.628019871753281
 31
0.0
  0
LINE
  5
210EA
  8
0
  6
CONTINUOUS
 10
31.64199999996833
 20
6.514500662673041
 30
0.0
 11
33.08199999996839
 21
7.954500662673095
 31
0.0
  0
LINE
  5
210EB
  8
0
  6
CONTINUOUS
 10
31.64199999996833
 20
5.840981453592855
 30
0.0
 11
33.08199999996839
 21
7.28098145359291
 31
0.0
  0
LINE
  5
210EC
  8
0
  6
CONTINUOUS
 10
31.64199999996833
 20
5.167462244512668
 30
0.0
 11
33.08199999996839
 21
6.607462244512723
 31
0.0
  0
LINE
  5
210ED
  8
0
  6
CONTINUOUS
 10
31.64199999996833
 20
4.493943035432482
 30
0.0
 11
33.08199999996839
 21
5.933943035432536
 31
0.0
  0
LINE
  5
210EE
  8
0
  6
CONTINUOUS
 10
31.64199999996833
 20
3.820423826352294
 30
0.0
 11
33.08199999996839
 21
5.260423826352349
 31
0.0
  0
LINE
  5
210EF
  8
0
  6
CONTINUOUS
 10
31.64199999996833
 20
3.146904617272108
 30
0.0
 11
33.08199999996839
 21
4.586904617272163
 31
0.0
  0
LINE
  5
210F0
  8
0
  6
CONTINUOUS
 10
36.23199999996837
 20
8.410423826352327
 30
0.0
 11
36.58467617360729
 21
8.763099999991255
 31
0.0
  0
LINE
  5
210F1
  8
0
  6
CONTINUOUS
 10
36.23199999996837
 20
7.73690461727214
 30
0.0
 11
37.25819538268748
 21
8.763099999991255
 31
0.0
  0
LINE
  5
210F2
  8
0
  6
CONTINUOUS
 10
31.64245318187395
 20
2.473838590097533
 30
0.0
 11
33.08199999996839
 21
3.913385408191976
 31
0.0
  0
LINE
  5
210F3
  8
0
  6
CONTINUOUS
 10
36.23199999996837
 20
7.063385408191953
 30
0.0
 11
37.67199999996831
 21
8.503385408191894
 31
0.0
  0
LINE
  5
210F4
  8
0
  6
CONTINUOUS
 10
31.71454007775861
 20
1.872406276902012
 30
0.0
 11
33.08199999996839
 21
3.239866199111789
 31
0.0
  0
LINE
  5
210F5
  8
0
  6
CONTINUOUS
 10
36.23199999996837
 20
6.389866199111767
 30
0.0
 11
37.67199999996831
 21
7.829866199111708
 31
0.0
  0
LINE
  5
210F6
  8
0
  6
CONTINUOUS
 10
31.89137743526572
 20
1.375724425328935
 30
0.0
 11
33.08199999996839
 21
2.566346990031603
 31
0.0
  0
LINE
  5
210F7
  8
0
  6
CONTINUOUS
 10
36.23199999996837
 20
5.71634699003158
 30
0.0
 11
37.67199999996831
 21
7.156346990031522
 31
0.0
  0
LINE
  5
210F8
  8
0
  6
CONTINUOUS
 10
32.14187615611716
 20
0.9527039371001833
 30
0.0
 11
33.19010715495784
 21
2.000934935940872
 31
0.0
  0
LINE
  5
210F9
  8
0
  6
CONTINUOUS
 10
36.23199999996837
 20
5.042827780951393
 30
0.0
 11
37.67199999996831
 21
6.482827780951334
 31
0.0
  0
LINE
  5
210FA
  8
0
  6
CONTINUOUS
 10
32.45360634899608
 20
0.5909149208989124
 30
0.0
 11
33.47398867460512
 21
1.611297246507967
 31
0.0
  0
LINE
  5
210FB
  8
0
  6
CONTINUOUS
 10
36.23199999996837
 20
4.369308571871207
 30
0.0
 11
37.67199999996831
 21
5.809308571871148
 31
0.0
  0
LINE
  5
210FC
  8
0
  6
CONTINUOUS
 10
32.83268796462238
 20
0.296477327445035
 30
0.0
 11
33.89485240336604
 21
1.358641766188692
 31
0.0
  0
LINE
  5
210FD
  8
0
  6
CONTINUOUS
 10
36.23199999996837
 20
3.695789362791021
 30
0.0
 11
37.67199999996831
 21
5.135789362790963
 31
0.0
  0
LINE
  5
210FE
  8
0
  6
CONTINUOUS
 10
33.26779879508795
 20
0.0580689488304138
 30
0.0
 11
34.43024232456766
 21
1.220512478310136
 31
0.0
  0
LINE
  5
210FF
  8
0
  6
CONTINUOUS
 10
36.23199999996837
 20
3.022270153710834
 30
0.0
 11
37.67199999996831
 21
4.462270153710776
 31
0.0
  0
LINE
  5
21100
  8
0
  6
CONTINUOUS
 10
33.76860229595987
 20
-0.1146467593778464
 30
0.0
 11
35.1531201138478
 21
1.269871058510077
 31
0.0
  0
LINE
  5
21101
  8
0
  6
CONTINUOUS
 10
36.21926099594037
 20
2.336011940602655
 30
0.0
 11
37.67199999996831
 21
3.788750944630589
 31
0.0
  0
LINE
  5
21102
  8
0
  6
CONTINUOUS
 10
34.33665674311174
 20
-0.2201115213061664
 30
0.0
 11
37.67199999996831
 21
3.115231735550402
 31
0.0
  0
LINE
  5
21103
  8
0
  6
CONTINUOUS
 10
35.01199180569318
 20
-0.2182956678049122
 30
0.0
 11
37.66953193979786
 21
2.439244466299766
 31
0.0
  0
LINE
  5
21104
  8
0
  6
CONTINUOUS
 10
35.9093392486654
 20
0.0055325660871235
 30
0.0
 11
37.52393194428191
 21
1.620125261703632
 31
0.0
  0
LINE
  5
21105
  8
0
  6
CONTINUOUS
 10
32.56334917037493
 20
0.4972169820603449
 30
0.0
 11
32.24097481447853
 21
0.8195913379567479
 31
0.0
  0
LINE
  5
21106
  8
0
  6
CONTINUOUS
 10
33.87806167241977
 20
-0.1439763109042991
 30
0.0
 11
31.68194999643856
 21
2.052135365076909
 31
0.0
  0
LINE
  5
21107
  8
0
  6
CONTINUOUS
 10
34.6438134951692
 20
-0.2362089245735399
 30
0.0
 11
31.64199999996833
 21
2.765604570627322
 31
0.0
  0
LINE
  5
21108
  8
0
  6
CONTINUOUS
 10
35.26034813768996
 20
-0.1792243580141184
 30
0.0
 11
31.64199999996833
 21
3.439123779707508
 31
0.0
  0
LINE
  5
21109
  8
0
  6
CONTINUOUS
 10
35.79355560089346
 20
-0.0389126121374295
 30
0.0
 11
34.54600650718248
 21
1.208636481573547
 31
0.0
  0
LINE
  5
2110A
  8
0
  6
CONTINUOUS
 10
33.08199999996839
 20
2.672642988787641
 30
0.0
 11
31.64199999996833
 21
4.112642988787695
 31
0.0
  0
LINE
  5
2110B
  8
0
  6
CONTINUOUS
 10
36.26091969424284
 20
0.1672425035933776
 30
0.0
 11
35.15707210996673
 21
1.271090087869486
 31
0.0
  0
LINE
  5
2110C
  8
0
  6
CONTINUOUS
 10
33.08199999996839
 20
3.346162197867827
 30
0.0
 11
31.64199999996833
 21
4.786162197867881
 31
0.0
  0
LINE
  5
2110D
  8
0
  6
CONTINUOUS
 10
36.67116280062191
 20
0.430518606294497
 30
0.0
 11
35.63776098265718
 21
1.463920424259221
 31
0.0
  0
LINE
  5
2110E
  8
0
  6
CONTINUOUS
 10
33.08199999996839
 20
4.019681406948013
 30
0.0
 11
31.64199999996833
 21
5.459681406948068
 31
0.0
  0
LINE
  5
2110F
  8
0
  6
CONTINUOUS
 10
37.01762752504177
 20
0.7575730909548111
 30
0.0
 11
35.99425444172113
 21
1.780946174275458
 31
0.0
  0
LINE
  5
21110
  8
0
  6
CONTINUOUS
 10
33.08199999996839
 20
4.6932006160282
 30
0.0
 11
31.64199999996833
 21
6.133200616028255
 31
0.0
  0
LINE
  5
21111
  8
0
  6
CONTINUOUS
 10
37.30070982608557
 20
1.148009998991207
 30
0.0
 11
36.20493601160601
 21
2.243783813470765
 31
0.0
  0
LINE
  5
21112
  8
0
  6
CONTINUOUS
 10
33.08199999996839
 20
5.366719825108387
 30
0.0
 11
31.64199999996833
 21
6.806719825108441
 31
0.0
  0
LINE
  5
21113
  8
0
  6
CONTINUOUS
 10
37.51890498518586
 20
1.603334048971095
 30
0.0
 11
36.23199999996837
 21
2.890239034188595
 31
0.0
  0
LINE
  5
21114
  8
0
  6
CONTINUOUS
 10
33.08199999996839
 20
6.040239034188573
 30
0.0
 11
31.64199999996833
 21
7.480239034188628
 31
0.0
  0
LINE
  5
21115
  8
0
  6
CONTINUOUS
 10
37.64877435688007
 20
2.146983886357076
 30
0.0
 11
36.23199999996837
 21
3.563758243268782
 31
0.0
  0
LINE
  5
21116
  8
0
  6
CONTINUOUS
 10
33.08199999996839
 20
6.713758243268759
 30
0.0
 11
31.64199999996833
 21
8.153758243268815
 31
0.0
  0
LINE
  5
21117
  8
0
  6
CONTINUOUS
 10
37.67199999996831
 20
2.797277452349027
 30
0.0
 11
36.23199999996837
 21
4.237277452348969
 31
0.0
  0
LINE
  5
21118
  8
0
  6
CONTINUOUS
 10
37.67199999996831
 20
3.470796661429214
 30
0.0
 11
36.23199999996837
 21
4.910796661429155
 31
0.0
  0
LINE
  5
21119
  8
0
  6
CONTINUOUS
 10
37.67199999996831
 20
4.1443158705094
 30
0.0
 11
36.23199999996837
 21
5.584315870509341
 31
0.0
  0
LINE
  5
2111A
  8
0
  6
CONTINUOUS
 10
33.08199999996839
 20
7.387277452348947
 30
0.0
 11
31.70617745232608
 21
8.763099999991255
 31
0.0
  0
LINE
  5
2111B
  8
0
  6
CONTINUOUS
 10
33.08199999996839
 20
8.060796661429134
 30
0.0
 11
32.37969666140626
 21
8.763099999991255
 31
0.0
  0
LINE
  5
2111C
  8
0
  6
CONTINUOUS
 10
33.08199999996839
 20
8.73431587050932
 30
0.0
 11
33.05321587048645
 21
8.763099999991255
 31
0.0
  0
LINE
  5
2111D
  8
0
  6
CONTINUOUS
 10
37.67199999996831
 20
4.817835079589587
 30
0.0
 11
36.23199999996837
 21
6.257835079589528
 31
0.0
  0
LINE
  5
2111E
  8
0
  6
CONTINUOUS
 10
37.67199999996831
 20
5.491354288669773
 30
0.0
 11
36.23199999996837
 21
6.931354288669715
 31
0.0
  0
LINE
  5
2111F
  8
0
  6
CONTINUOUS
 10
37.67199999996831
 20
6.164873497749959
 30
0.0
 11
36.23199999996837
 21
7.6048734977499
 31
0.0
  0
LINE
  5
21120
  8
0
  6
CONTINUOUS
 10
37.67199999996831
 20
6.838392706830145
 30
0.0
 11
36.23199999996837
 21
8.278392706830086
 31
0.0
  0
LINE
  5
21121
  8
0
  6
CONTINUOUS
 10
37.67199999996831
 20
7.511911915910333
 30
0.0
 11
36.42081191588738
 21
8.763099999991255
 31
0.0
  0
LINE
  5
21122
  8
0
  6
CONTINUOUS
 10
37.67199999996831
 20
8.18543112499052
 30
0.0
 11
37.09433112496757
 21
8.763099999991255
 31
0.0
  0
ENDBLK
  5
2118A
  8
0
  0
BLOCK
  8
0
  2
*X55
 70
     1
 10
0.0
 20
0.0
 30
0.0
  3
*X55
  1

  0
LINE
  5
21124
  8
0
  6
CONTINUOUS
 10
38.60499999996136
 20
8.762866199104765
 30
0.0
 11
38.71672554182345
 21
8.874591740966855
 31
0.0
  0
LINE
  5
21125
  8
0
  6
CONTINUOUS
 10
38.60499999996136
 20
8.089346990024577
 30
0.0
 11
39.03418785440363
 21
8.518534844466847
 31
0.0
  0
LINE
  5
21126
  8
0
  6
CONTINUOUS
 10
38.60499999996136
 20
7.41582778094439
 30
0.0
 11
39.35165016698382
 21
8.16247794796684
 31
0.0
  0
LINE
  5
21127
  8
0
  6
CONTINUOUS
 10
38.60499999996136
 20
6.742308571864204
 30
0.0
 11
39.66911247956399
 21
7.806421051466834
 31
0.0
  0
LINE
  5
21128
  8
0
  6
CONTINUOUS
 10
38.60499999996136
 20
6.068789362784018
 30
0.0
 11
39.98657479214418
 21
7.450364154966827
 31
0.0
  0
LINE
  5
21129
  8
0
  6
CONTINUOUS
 10
38.60499999996136
 20
5.395270153703832
 30
0.0
 11
40.30403710472435
 21
7.09430725846682
 31
0.0
  0
LINE
  5
2112A
  8
0
  6
CONTINUOUS
 10
38.60499999996136
 20
4.721750944623645
 30
0.0
 11
40.62149941730453
 21
6.738250361966813
 31
0.0
  0
LINE
  5
2112B
  8
0
  6
CONTINUOUS
 10
38.60499999996136
 20
4.048231735543458
 30
0.0
 11
40.93896172988471
 21
6.382193465466806
 31
0.0
  0
LINE
  5
2112C
  8
0
  6
CONTINUOUS
 10
38.60499999996136
 20
3.374712526463272
 30
0.0
 11
40.02599999995994
 21
4.795712526461843
 31
0.0
  0
LINE
  5
2112D
  8
0
  6
CONTINUOUS
 10
38.60499999996136
 20
2.701193317383085
 30
0.0
 11
40.02599999995994
 21
4.122193317381657
 31
0.0
  0
LINE
  5
2112E
  8
0
  6
CONTINUOUS
 10
40.28339754687704
 20
5.053110073378947
 30
0.0
 11
41.25642404246489
 21
6.026136568966799
 31
0.0
  0
LINE
  5
2112F
  8
0
  6
CONTINUOUS
 10
40.60085985945722
 20
4.697053176878939
 30
0.0
 11
41.57388635504507
 21
5.670079672466793
 31
0.0
  0
LINE
  5
21130
  8
0
  6
CONTINUOUS
 10
43.57899999995641
 20
8.348712526458318
 30
0.0
 11
43.99338747348935
 21
8.763099999991255
 31
0.0
  0
LINE
  5
21131
  8
0
  6
CONTINUOUS
 10
43.57899999995641
 20
7.675193317378131
 30
0.0
 11
44.66690668256953
 21
8.763099999991255
 31
0.0
  0
LINE
  5
21132
  8
0
  6
CONTINUOUS
 10
38.60499999996136
 20
2.027674108302898
 30
0.0
 11
40.02599999995994
 21
3.44867410830147
 31
0.0
  0
LINE
  5
21133
  8
0
  6
CONTINUOUS
 10
38.60499999996136
 20
1.354154899222712
 30
0.0
 11
40.02599999995994
 21
2.775154899221284
 31
0.0
  0
LINE
  5
21134
  8
0
  6
CONTINUOUS
 10
38.60499999996136
 20
0.6806356901425255
 30
0.0
 11
40.02599999995994
 21
2.101635690141098
 31
0.0
  0
LINE
  5
21135
  8
0
  6
CONTINUOUS
 10
38.60499999996136
 20
0.0071164810623383
 30
0.0
 11
40.02599999995994
 21
1.428116481060911
 31
0.0
  0
LINE
  5
21136
  8
0
  6
CONTINUOUS
 10
40.9183221720374
 20
4.340996280378933
 30
0.0
 11
41.89134866762525
 21
5.314022775966786
 31
0.0
  0
LINE
  5
21137
  8
0
  6
CONTINUOUS
 10
41.23578448461758
 20
3.984939383878926
 30
0.0
 11
42.20881098020543
 21
4.957965879466778
 31
0.0
  0
LINE
  5
21138
  8
0
  6
CONTINUOUS
 10
41.55324679719776
 20
3.628882487378919
 30
0.0
 11
42.52627329278561
 21
4.601908982966772
 31
0.0
  0
LINE
  5
21139
  8
0
  6
CONTINUOUS
 10
41.87070910977793
 20
3.272825590878912
 30
0.0
 11
42.84373560536579
 21
4.245852086466765
 31
0.0
  0
LINE
  5
2113A
  8
0
  6
CONTINUOUS
 10
43.57899999995641
 20
7.001674108297943
 30
0.0
 11
44.99999999995498
 21
8.422674108296516
 31
0.0
  0
LINE
  5
2113B
  8
0
  6
CONTINUOUS
 10
43.57899999995641
 20
6.328154899217758
 30
0.0
 11
44.99999999995498
 21
7.749154899216329
 31
0.0
  0
LINE
  5
2113C
  8
0
  6
CONTINUOUS
 10
43.57899999995641
 20
5.654635690137571
 30
0.0
 11
44.99999999995498
 21
7.075635690136142
 31
0.0
  0
LINE
  5
2113D
  8
0
  6
CONTINUOUS
 10
43.57899999995641
 20
4.981116481057384
 30
0.0
 11
44.99999999995498
 21
6.402116481055955
 31
0.0
  0
LINE
  5
2113E
  8
0
  6
CONTINUOUS
 10
39.27140272797921
 20
-0.0000000000000009
 30
0.0
 11
40.02599999995994
 21
0.7545972719807246
 31
0.0
  0
LINE
  5
2113F
  8
0
  6
CONTINUOUS
 10
39.9449219370594
 20
-0.0000000000000009
 30
0.0
 11
40.02599999995994
 21
0.0810780629005379
 31
0.0
  0
LINE
  5
21140
  8
0
  6
CONTINUOUS
 10
42.18817142235812
 20
2.916768694378905
 30
0.0
 11
43.16119791794597
 21
3.889795189966758
 31
0.0
  0
LINE
  5
21141
  8
0
  6
CONTINUOUS
 10
42.50563373493829
 20
2.560711797878898
 30
0.0
 11
43.47866023052615
 21
3.533738293466751
 31
0.0
  0
LINE
  5
21142
  8
0
  6
CONTINUOUS
 10
43.57899999995641
 20
4.307597271977198
 30
0.0
 11
44.99999999995498
 21
5.728597271975769
 31
0.0
  0
LINE
  5
21143
  8
0
  6
CONTINUOUS
 10
43.57899999995641
 20
3.634078062897011
 30
0.0
 11
44.99999999995498
 21
5.055078062895582
 31
0.0
  0
LINE
  5
21144
  8
0
  6
CONTINUOUS
 10
42.82309604751848
 20
2.204654901378891
 30
0.0
 11
44.99999999995498
 21
4.381558853815395
 31
0.0
  0
LINE
  5
21145
  8
0
  6
CONTINUOUS
 10
43.14055836009865
 20
1.848598004878885
 30
0.0
 11
44.99999999995498
 21
3.70803964473521
 31
0.0
  0
LINE
  5
21146
  8
0
  6
CONTINUOUS
 10
43.45802067267883
 20
1.492541108378878
 30
0.0
 11
44.99999999995498
 21
3.034520435655023
 31
0.0
  0
LINE
  5
21147
  8
0
  6
CONTINUOUS
 10
43.77548298525902
 20
1.136484211878871
 30
0.0
 11
44.99999999995498
 21
2.361001226574837
 31
0.0
  0
LINE
  5
21148
  8
0
  6
CONTINUOUS
 10
44.09294529783919
 20
0.7804273153788639
 30
0.0
 11
44.99999999995498
 21
1.687482017494649
 31
0.0
  0
LINE
  5
21149
  8
0
  6
CONTINUOUS
 10
44.41040761041938
 20
0.4243704188788566
 30
0.0
 11
44.99999999995498
 21
1.013962808414463
 31
0.0
  0
LINE
  5
2114A
  8
0
  6
CONTINUOUS
 10
44.72786992299955
 20
0.0683135223788494
 30
0.0
 11
44.99999999995498
 21
0.340443599334276
 31
0.0
  0
LINE
  5
2114B
  8
0
  6
CONTINUOUS
 10
39.12223903415696
 20
-0.0000000000000009
 30
0.0
 11
38.60499999996136
 21
0.5172390341955961
 31
0.0
  0
LINE
  5
2114C
  8
0
  6
CONTINUOUS
 10
39.79575824323715
 20
-0.0000000000000009
 30
0.0
 11
38.60499999996136
 21
1.190758243275783
 31
0.0
  0
LINE
  5
2114D
  8
0
  6
CONTINUOUS
 10
40.02599999995994
 20
0.443277452357397
 30
0.0
 11
38.60499999996136
 21
1.864277452355969
 31
0.0
  0
LINE
  5
2114E
  8
0
  6
CONTINUOUS
 10
40.02599999995994
 20
1.116796661437583
 30
0.0
 11
38.60499999996136
 21
2.537796661436155
 31
0.0
  0
LINE
  5
2114F
  8
0
  6
CONTINUOUS
 10
40.02599999995994
 20
1.79031587051777
 30
0.0
 11
38.60499999996136
 21
3.211315870516341
 31
0.0
  0
LINE
  5
21150
  8
0
  6
CONTINUOUS
 10
40.02599999995994
 20
2.463835079597956
 30
0.0
 11
38.60499999996136
 21
3.884835079596527
 31
0.0
  0
LINE
  5
21151
  8
0
  6
CONTINUOUS
 10
40.02599999995994
 20
3.137354288678143
 30
0.0
 11
38.60499999996136
 21
4.558354288676714
 31
0.0
  0
LINE
  5
21152
  8
0
  6
CONTINUOUS
 10
40.02599999995994
 20
3.810873497758329
 30
0.0
 11
38.60499999996136
 21
5.2318734977569
 31
0.0
  0
LINE
  5
21153
  8
0
  6
CONTINUOUS
 10
40.02599999995994
 20
4.484392706838515
 30
0.0
 11
38.60499999996136
 21
5.905392706837086
 31
0.0
  0
LINE
  5
21154
  8
0
  6
CONTINUOUS
 10
44.99999999995498
 20
0.183911915923658
 30
0.0
 11
41.53858364506288
 21
3.64532827081576
 31
0.0
  0
LINE
  5
21155
  8
0
  6
CONTINUOUS
 10
40.02599999995994
 20
5.157911915918703
 30
0.0
 11
38.60499999996136
 21
6.578911915917274
 31
0.0
  0
LINE
  5
21156
  8
0
  6
CONTINUOUS
 10
44.99999999995498
 20
0.8574311250038447
 30
0.0
 11
38.60499999996136
 21
7.25243112499746
 31
0.0
  0
LINE
  5
21157
  8
0
  6
CONTINUOUS
 10
44.99999999995498
 20
1.530950334084031
 30
0.0
 11
38.60499999996136
 21
7.925950334077647
 31
0.0
  0
LINE
  5
21158
  8
0
  6
CONTINUOUS
 10
44.99999999995498
 20
2.204469543164218
 30
0.0
 11
43.57899999995641
 21
3.625469543162789
 31
0.0
  0
LINE
  5
21159
  8
0
  6
CONTINUOUS
 10
41.89876730984767
 20
5.305702233271528
 30
0.0
 11
38.60499999996136
 21
8.599469543157834
 31
0.0
  0
LINE
  5
2115A
  8
0
  6
CONTINUOUS
 10
44.99999999995498
 20
2.877988752244405
 30
0.0
 11
43.57899999995641
 21
4.298988752242975
 31
0.0
  0
LINE
  5
2115B
  8
0
  6
CONTINUOUS
 10
44.99999999995498
 20
3.551507961324591
 30
0.0
 11
43.57899999995641
 21
4.972507961323163
 31
0.0
  0
LINE
  5
2115C
  8
0
  6
CONTINUOUS
 10
44.99999999995498
 20
4.225027170404777
 30
0.0
 11
43.57899999995641
 21
5.646027170403348
 31
0.0
  0
LINE
  5
2115D
  8
0
  6
CONTINUOUS
 10
44.99999999995498
 20
4.898546379484964
 30
0.0
 11
43.57899999995641
 21
6.319546379483535
 31
0.0
  0
LINE
  5
2115E
  8
0
  6
CONTINUOUS
 10
44.99999999995498
 20
5.572065588565151
 30
0.0
 11
43.57899999995641
 21
6.993065588563722
 31
0.0
  0
LINE
  5
2115F
  8
0
  6
CONTINUOUS
 10
44.99999999995498
 20
6.245584797645336
 30
0.0
 11
43.57899999995641
 21
7.666584797643908
 31
0.0
  0
LINE
  5
21160
  8
0
  6
CONTINUOUS
 10
44.99999999995498
 20
6.919104006725522
 30
0.0
 11
43.57899999995641
 21
8.340104006724093
 31
0.0
  0
LINE
  5
21161
  8
0
  6
CONTINUOUS
 10
44.99999999995498
 20
7.592623215805709
 30
0.0
 11
43.82952321576943
 21
8.763099999991255
 31
0.0
  0
LINE
  5
21162
  8
0
  6
CONTINUOUS
 10
44.99999999995498
 20
8.266142424885896
 30
0.0
 11
44.50304242484962
 21
8.763099999991255
 31
0.0
  0
ENDBLK
  5
2118C
  8
0
  0
BLOCK
  8
0
  2
*X56
 70
     1
 10
0.0
 20
0.0
 30
0.0
  3
*X56
  1

  0
LINE
  5
21164
  8
0
  6
CONTINUOUS
 10
0.0
 20
8.548461116714023
 30
0.0
 11
0.2146388832772324
 21
8.763099999991255
 31
0.0
  0
LINE
  5
21165
  8
0
  6
CONTINUOUS
 10
-0.0000000000000002
 20
7.874941907633837
 30
0.0
 11
0.8881580923574184
 21
8.763099999991255
 31
0.0
  0
LINE
  5
21166
  8
0
  6
CONTINUOUS
 10
0.0
 20
7.20142269855365
 30
0.0
 11
1.420999999998572
 21
8.622422698552223
 31
0.0
  0
LINE
  5
21167
  8
0
  6
CONTINUOUS
 10
-0.0000000000000001
 20
6.527903489473465
 30
0.0
 11
1.420999999998571
 21
7.948903489472036
 31
0.0
  0
LINE
  5
21168
  8
0
  6
CONTINUOUS
 10
-0.0000000000000002
 20
5.854384280393278
 30
0.0
 11
1.420999999998571
 21
7.275384280391849
 31
0.0
  0
LINE
  5
21169
  8
0
  6
CONTINUOUS
 10
-0.0000000000000002
 20
5.180865071313091
 30
0.0
 11
1.420999999998571
 21
6.601865071311663
 31
0.0
  0
LINE
  5
2116A
  8
0
  6
CONTINUOUS
 10
0.0
 20
4.507345862232905
 30
0.0
 11
1.420999999998571
 21
5.928345862231477
 31
0.0
  0
LINE
  5
2116B
  8
0
  6
CONTINUOUS
 10
-0.0000000000000003
 20
3.833826653152718
 30
0.0
 11
1.420999999998571
 21
5.25482665315129
 31
0.0
  0
LINE
  5
2116C
  8
0
  6
CONTINUOUS
 10
-0.0000000000000002
 20
3.160307444072532
 30
0.0
 11
1.420999999998571
 21
4.581307444071103
 31
0.0
  0
LINE
  5
2116D
  8
0
  6
CONTINUOUS
 10
-0.0000000000000001
 20
2.486788234992345
 30
0.0
 11
1.420999999998571
 21
3.907788234990917
 31
0.0
  0
LINE
  5
2116E
  8
0
  6
CONTINUOUS
 10
-0.0000000000000006
 20
1.813269025912159
 30
0.0
 11
1.420999999998571
 21
3.234269025910731
 31
0.0
  0
LINE
  5
2116F
  8
0
  6
CONTINUOUS
 10
0.0
 20
1.139749816831973
 30
0.0
 11
1.420999999998571
 21
2.560749816830544
 31
0.0
  0
LINE
  5
21170
  8
0
  6
CONTINUOUS
 10
0.0000000000000002
 20
0.466230607751787
 30
0.0
 11
1.420999999998571
 21
1.887230607750358
 31
0.0
  0
LINE
  5
21171
  8
0
  6
CONTINUOUS
 10
0.2072886013284003
 20
-0.0000000000000009
 30
0.0
 11
1.420999999998571
 21
1.213711398670171
 31
0.0
  0
LINE
  5
21172
  8
0
  6
CONTINUOUS
 10
0.8808078104085864
 20
-0.0000000000000009
 30
0.0
 11
1.420999999998571
 21
0.5401921895899839
 31
0.0
  0
LINE
  5
21173
  8
0
  6
CONTINUOUS
 10
0.0581249075061505
 20
-0.0000000000000009
 30
0.0
 11
-0.0000000000000002
 21
0.0581249075061496
 31
0.0
  0
LINE
  5
21174
  8
0
  6
CONTINUOUS
 10
0.7316441165863372
 20
-0.0000000000000009
 30
0.0
 11
-0.0000000000000002
 21
0.7316441165863363
 31
0.0
  0
LINE
  5
21175
  8
0
  6
CONTINUOUS
 10
1.405163325666523
 20
-0.0000000000000009
 30
0.0
 11
-0.0000000000000002
 21
1.405163325666523
 31
0.0
  0
LINE
  5
21176
  8
0
  6
CONTINUOUS
 10
1.420999999998572
 20
0.6576825347481381
 30
0.0
 11
-0.0000000000000001
 21
2.07868253474671
 31
0.0
  0
LINE
  5
21177
  8
0
  6
CONTINUOUS
 10
1.420999999998571
 20
1.331201743828324
 30
0.0
 11
-0.0000000000000001
 21
2.752201743826896
 31
0.0
  0
LINE
  5
21178
  8
0
  6
CONTINUOUS
 10
1.420999999998571
 20
2.004720952908511
 30
0.0
 11
-0.0000000000000002
 21
3.425720952907082
 31
0.0
  0
LINE
  5
21179
  8
0
  6
CONTINUOUS
 10
1.420999999998571
 20
2.678240161988697
 30
0.0
 11
-0.0000000000000001
 21
4.099240161987269
 31
0.0
  0
LINE
  5
2117A
  8
0
  6
CONTINUOUS
 10
1.420999999998572
 20
3.351759371068884
 30
0.0
 11
0.0
 21
4.772759371067455
 31
0.0
  0
LINE
  5
2117B
  8
0
  6
CONTINUOUS
 10
1.420999999998571
 20
4.02527858014907
 30
0.0
 11
-0.0000000000000003
 21
5.446278580147642
 31
0.0
  0
LINE
  5
2117C
  8
0
  6
CONTINUOUS
 10
1.420999999998571
 20
4.698797789229257
 30
0.0
 11
0.0
 21
6.119797789227828
 31
0.0
  0
LINE
  5
2117D
  8
0
  6
CONTINUOUS
 10
1.420999999998571
 20
5.372316998309444
 30
0.0
 11
-0.0000000000000001
 21
6.793316998308015
 31
0.0
  0
LINE
  5
2117E
  8
0
  6
CONTINUOUS
 10
1.420999999998572
 20
6.045836207389629
 30
0.0
 11
-0.0000000000000004
 21
7.466836207388202
 31
0.0
  0
LINE
  5
2117F
  8
0
  6
CONTINUOUS
 10
1.420999999998571
 20
6.719355416469816
 30
0.0
 11
0.0
 21
8.140355416468388
 31
0.0
  0
LINE
  5
21180
  8
0
  6
CONTINUOUS
 10
1.420999999998571
 20
7.392874625550003
 30
0.0
 11
0.0507746255573185
 21
8.763099999991255
 31
0.0
  0
LINE
  5
21181
  8
0
  6
CONTINUOUS
 10
1.420999999998571
 20
8.06639383463019
 30
0.0
 11
0.7242938346375052
 21
8.763099999991255
 31
0.0
  0
LINE
  5
21182
  8
0
  6
CONTINUOUS
 10
1.420999999998571
 20
8.739913043710375
 30
0.0
 11
1.397813043717691
 21
8.763099999991255
 31
0.0
  0
ENDBLK
  5
2118E
  8
0
  0
ENDSEC
  0
SECTION
  2
ENTITIES
  0
LINE
  5
1D8CA
  8
01
 10
713.016241615365
 20
-650.6713303512659
 30
0.0
 11
713.016241615365
 21
-672.8213303512673
 31
0.0
  0
LINE
  5
1D90A
  8
01
 10
713.016241615365
 20
-653.1713303512665
 30
0.0
 11
713.016241615365
 21
-670.8213303512659
 31
0.0
  0
TEXT
  5
1DB93
  8
1TEXT
 10
447.8632647054001
 20
-515.3272375149052
 30
0.0
 40
4.0
  1
表面処理
 72
     1
 11
457.1299313720667
 21
-515.3272375149052
 31
0.0
  0
LINE
  5
1DB94
  8
1DIM
 10
439.7299313720666
 20
-509.8272375149052
 30
0.0
 11
509.7299313720666
 21
-509.8272375149052
 31
0.0
  0
LINE
  5
1DB95
  8
1DIM
 10
439.7299313720666
 20
-523.8272375149052
 30
0.0
 11
509.7299313720666
 21
-523.8272375149052
 31
0.0
  0
LINE
  5
1DB96
  8
1DIM
 10
439.7299313720666
 20
-516.8272375149052
 30
0.0
 11
509.7299313720666
 21
-516.8272375149052
 31
0.0
  0
LINE
  5
1DB97
  8
1DIM
 10
474.7299313720666
 20
-509.8272375149052
 30
0.0
 11
474.7299313720662
 21
-523.8272375149052
 31
0.0
  0
TEXT
  5
1DB98
  8
1TEXT
 10
485.2632647054
 20
-515.3272375149052
 30
0.0
 40
4.0
  1
コード
 72
     1
 11
492.1299313720667
 21
-515.3272375149052
 31
0.0
  0
LINE
  5
1DB99
  8
1DIM
 10
439.7299313720667
 20
-523.8272375149052
 30
0.0
 11
439.7299313720666
 21
-509.8272375149052
 31
0.0
  0
LINE
  5
1DB9A
  8
1DIM
 10
509.7299313720664
 20
-523.8272375149052
 30
0.0
 11
509.7299313720666
 21
-509.8272375149052
 31
0.0
  0
TEXT
  5
1DB9B
  8
1TEXT
 10
439.7299313720666
 20
-504.8272375149052
 30
0.0
 40
8.0
  1
SC-481-X
  0
TEXT
  5
1DB9C
  8
1TEXT
 10
447.6632647054001
 20
-522.1625261744294
 30
0.0
 40
4.0
  1
クローム
 72
     1
 11
457.1299313720667
 21
-522.1625261744294
 31
0.0
  0
TEXT
  5
1DB9D
  8
1TEXT
 10
477.9632647054003
 20
-522.5415944985544
 30
0.0
 40
4.0
  1
SC-481-XC
 41
0.85
 72
     1
 11
492.1299313720669
 21
-522.5415944985544
 31
0.0
  0
LINE
  5
1DBA4
  8
01
 10
725.516241615365
 20
-618.5931567659845
 30
0.0
 11
725.516241615365
 21
-693.0495039365483
 31
0.0
  0
LINE
  5
1DBA5
  8
01
 10
734.516241615365
 20
-618.5931567659845
 30
0.0
 11
734.516241615365
 21
-693.0495039365483
 31
0.0
  0
LINE
  5
1DBA6
  8
01
 10
713.016241615365
 20
-618.5931567659845
 30
0.0
 11
713.016241615365
 21
-693.0495039365483
 31
0.0
  0
ARC
  5
1F703
  8
01
 10
471.5787533402274
 20
-655.8213303512663
 30
0.0
 40
28.56251019032048
 50
159.8382819383015
 51
200.1617183847808
  0
ARC
  5
1F704
  8
01
 10
445.7051767299954
 20
-665.321330424213
 30
0.0
 40
1.0
 50
200.1617183847808
 51
270.0
  0
ARC
  5
1F705
  8
01
 10
445.7051766764278
 20
-646.321330424213
 30
0.0
 40
1.0
 50
90.0
 51
159.8382819383015
  0
ARC
  5
1F706
  8
01
 10
-614.4537314250454
 20
-655.8213303512664
 30
0.0
 40
28.56251019031991
 50
159.8382819382909
 51
200.1617183847808
210
0.0
220
0.0
230
-1.0
  0
ARC
  5
1F707
  8
01
 10
640.3273080352773
 20
-665.321330424213
 30
0.0
 40
1.0
 50
270.0
 51
339.8382816152192
  0
ARC
  5
1F708
  8
01
 10
640.3273080888448
 20
-646.321330424213
 30
0.0
 40
1.0
 50
20.16171806169851
 51
90.0
  0
LINE
  5
1F709
  8
01
 10
640.3273080888448
 20
-645.321330424213
 30
0.0
 11
445.7051766764278
 21
-645.321330424213
 31
0.0
  0
LINE
  5
1F70A
  8
01
 10
445.7051767299956
 20
-666.321330424213
 30
0.0
 11
640.3273080352773
 21
-666.321330424213
 31
0.0
  0
POLYLINE
  5
1F70B
  8
1HATCH
 66
     1
 10
0.0
 20
0.0
 30
0.0
  0
VERTEX
  5
20D83
  8
1HATCH
 10
447.8162416153652
 20
-591.04453960563
 30
0.0
  0
VERTEX
  5
20D84
  8
1HATCH
 10
447.8173828398014
 20
-591.1417162588779
 30
0.0
  0
VERTEX
  5
20D85
  8
1HATCH
 10
447.8207950704888
 20
-591.2389029785677
 30
0.0
  0
VERTEX
  5
20D86
  8
1HATCH
 10
447.8264611434961
 20
-591.3360412522027
 30
0.0
  0
VERTEX
  5
20D87
  8
1HATCH
 10
447.8343638948918
 20
-591.4330725672866
 30
0.0
  0
VERTEX
  5
20D88
  8
1HATCH
 10
447.8444861607446
 20
-591.5299384113223
 30
0.0
  0
VERTEX
  5
20D89
  8
1HATCH
 10
447.8568107771227
 20
-591.6265802718135
 30
0.0
  0
VERTEX
  5
20D8A
  8
1HATCH
 10
447.871320580095
 20
-591.7229396362635
 30
0.0
  0
VERTEX
  5
20D8B
  8
1HATCH
 10
447.88799840573
 20
-591.8189579921758
 30
0.0
  0
VERTEX
  5
20D8C
  8
1HATCH
 10
447.9068270900962
 20
-591.9145768270537
 30
0.0
  0
VERTEX
  5
20D8D
  8
1HATCH
 10
447.927789469262
 20
-592.0097376284006
 30
0.0
  0
VERTEX
  5
20D8E
  8
1HATCH
 10
447.9508680300597
 20
-592.1043831335593
 30
0.0
  0
VERTEX
  5
20D8F
  8
1HATCH
 10
447.9760418770673
 20
-592.1984681841977
 30
0.0
  0
VERTEX
  5
20D90
  8
1HATCH
 10
448.0032882166261
 20
-592.2919544153493
 30
0.0
  0
VERTEX
  5
20D91
  8
1HATCH
 10
448.0325842340546
 20
-592.3848035372818
 30
0.0
  0
VERTEX
  5
20D92
  8
1HATCH
 10
448.0639071146712
 20
-592.4769772602626
 30
0.0
  0
VERTEX
  5
20D93
  8
1HATCH
 10
448.0972340437946
 20
-592.56843729456
 30
0.0
  0
VERTEX
  5
20D94
  8
1HATCH
 10
448.1325422067433
 20
-592.6591453504416
 30
0.0
  0
VERTEX
  5
20D95
  8
1HATCH
 10
448.1698087888357
 20
-592.7490631381752
 30
0.0
  0
VERTEX
  5
20D96
  8
1HATCH
 10
448.2090109753905
 20
-592.8381523680288
 30
0.0
  0
VERTEX
  5
20D97
  8
1HATCH
 10
448.2501259517263
 20
-592.92637475027
 30
0.0
  0
VERTEX
  5
20D98
  8
1HATCH
 10
448.2931308451778
 20
-593.0136920364098
 30
0.0
  0
VERTEX
  5
20D99
  8
1HATCH
 10
448.3380008976695
 20
-593.1000673190287
 30
0.0
  0
VERTEX
  5
20D9A
  8
1HATCH
 10
448.3847090961223
 20
-593.1854652946633
 30
0.0
  0
VERTEX
  5
20D9B
  8
1HATCH
 10
448.4332282948117
 20
-593.2698507542003
 30
0.0
  0
VERTEX
  5
20D9C
  8
1HATCH
 10
448.4835313480132
 20
-593.3531884885255
 30
0.0
  0
VERTEX
  5
20D9D
  8
1HATCH
 10
448.5355911100023
 20
-593.4354432885248
 30
0.0
  0
VERTEX
  5
20D9E
  8
1HATCH
 10
448.5893804350544
 20
-593.5165799450843
 30
0.0
  0
VERTEX
  5
20D9F
  8
1HATCH
 10
448.6448721774452
 20
-593.5965632490903
 30
0.0
  0
VERTEX
  5
20DA0
  8
1HATCH
 10
448.70203919145
 20
-593.6753579914288
 30
0.0
  0
VERTEX
  5
20DA1
  8
1HATCH
 10
448.7608543313444
 20
-593.7529289629857
 30
0.0
  0
VERTEX
  5
20DA2
  8
1HATCH
 10
448.8212904499958
 20
-593.829240957213
 30
0.0
  0
VERTEX
  5
20DA3
  8
1HATCH
 10
448.8833196906157
 20
-593.9042600607087
 30
0.0
  0
VERTEX
  5
20DA4
  8
1HATCH
 10
448.9469123365673
 20
-593.9779557491152
 30
0.0
  0
VERTEX
  5
20DA5
  8
1HATCH
 10
449.012038370245
 20
-594.0502980465048
 30
0.0
  0
VERTEX
  5
20DA6
  8
1HATCH
 10
449.0786677740435
 20
-594.1212569769494
 30
0.0
  0
VERTEX
  5
20DA7
  8
1HATCH
 10
449.1467705303572
 20
-594.1908025645212
 30
0.0
  0
VERTEX
  5
20DA8
  8
1HATCH
 10
449.216316621581
 20
-594.2589048332921
 30
0.0
  0
VERTEX
  5
20DA9
  8
1HATCH
 10
449.2872760301092
 20
-594.3255338073346
 30
0.0
  0
VERTEX
  5
20DAA
  8
1HATCH
 10
449.3596187383366
 20
-594.3906595107203
 30
0.0
  0
VERTEX
  5
20DAB
  8
1HATCH
 10
449.4333147286575
 20
-594.4542519675216
 30
0.0
  0
VERTEX
  5
20DAC
  8
1HATCH
 10
449.5083339834669
 20
-594.5162812018103
 30
0.0
  0
VERTEX
  5
20DAD
  8
1HATCH
 10
449.5846459446037
 20
-594.5767175301864
 30
0.0
  0
VERTEX
  5
20DAE
  8
1HATCH
 10
449.6622167124145
 20
-594.635533077537
 30
0.0
  0
VERTEX
  5
20DAF
  8
1HATCH
 10
449.7410111118526
 20
-594.6927006589428
 30
0.0
  0
VERTEX
  5
20DB0
  8
1HATCH
 10
449.8209939653357
 20
-594.7481930908566
 30
0.0
  0
VERTEX
  5
20DB1
  8
1HATCH
 10
449.9021300952816
 20
-594.8019831897313
 30
0.0
  0
VERTEX
  5
20DB2
  8
1HATCH
 10
449.9843843241081
 20
-594.85404377202
 30
0.0
  0
VERTEX
  5
20DB3
  8
1HATCH
 10
450.0677214742327
 20
-594.9043476541754
 30
0.0
  0
VERTEX
  5
20DB4
  8
1HATCH
 10
450.1521063680731
 20
-594.9528676526504
 30
0.0
  0
VERTEX
  5
20DB5
  8
1HATCH
 10
450.2375038280474
 20
-594.9995765838978
 30
0.0
  0
VERTEX
  5
20DB6
  8
1HATCH
 10
450.3238786765731
 20
-595.0444472643708
 30
0.0
  0
VERTEX
  5
20DB7
  8
1HATCH
 10
450.4111956402078
 20
-595.0874526447514
 30
0.0
  0
VERTEX
  5
20DB8
  8
1HATCH
 10
450.4994178170273
 20
-595.1285679560258
 30
0.0
  0
VERTEX
  5
20DB9
  8
1HATCH
 10
450.588506944144
 20
-595.1677703348879
 30
0.0
  0
VERTEX
  5
20DBA
  8
1HATCH
 10
450.6784247168542
 20
-595.2050369765848
 30
0.0
  0
VERTEX
  5
20DBB
  8
1HATCH
 10
450.7691328304547
 20
-595.2403450763628
 30
0.0
  0
VERTEX
  5
20DBC
  8
1HATCH
 10
450.8605929802418
 20
-595.2736718294694
 30
0.0
  0
VERTEX
  5
20DBD
  8
1HATCH
 10
450.9527668615124
 20
-595.3049944311512
 30
0.0
  0
VERTEX
  5
20DBE
  8
1HATCH
 10
451.0456161695627
 20
-595.334290076655
 30
0.0
  0
VERTEX
  5
20DBF
  8
1HATCH
 10
451.1391025996893
 20
-595.3615359612276
 30
0.0
  0
VERTEX
  5
20DC0
  8
1HATCH
 10
451.233187847189
 20
-595.3867092801161
 30
0.0
  0
VERTEX
  5
20DC1
  8
1HATCH
 10
451.3278335320875
 20
-595.4097872496635
 30
0.0
  0
VERTEX
  5
20DC2
  8
1HATCH
 10
451.4229944852596
 20
-595.4307489890473
 30
0.0
  0
VERTEX
  5
20DC3
  8
1HATCH
 10
451.5186134449105
 20
-595.4495770067252
 30
0.0
  0
VERTEX
  5
20DC4
  8
1HATCH
 10
451.6146319011512
 20
-595.4662541609657
 30
0.0
  0
VERTEX
  5
20DC5
  8
1HATCH
 10
451.7109913440926
 20
-595.4807633100369
 30
0.0
  0
VERTEX
  5
20DC6
  8
1HATCH
 10
451.8076332638454
 20
-595.4930873122071
 30
0.0
  0
VERTEX
  5
20DC7
  8
1HATCH
 10
451.9044991505209
 20
-595.5032090257447
 30
0.0
  0
VERTEX
  5
20DC8
  8
1HATCH
 10
452.0015304942297
 20
-595.5111113089182
 30
0.0
  0
VERTEX
  5
20DC9
  8
1HATCH
 10
452.0986687850829
 20
-595.5167770199955
 30
0.0
  0
VERTEX
  5
20DCA
  8
1HATCH
 10
452.1958555131914
 20
-595.5201890172452
 30
0.0
  0
VERTEX
  5
20DCB
  8
1HATCH
 10
452.2930321686661
 20
-595.5213301589357
 30
0.0
  0
SEQEND
  5
2118F
  8
1HATCH
  0
POLYLINE
  5
1F70C
  8
01
 66
     1
 10
0.0
 20
0.0
 30
0.0
  0
VERTEX
  5
20DCC
  8
01
 10
452.3069576818859
 20
-592.8213309894525
 30
0.0
  0
VERTEX
  5
20DCD
  8
01
 10
452.2375960437523
 20
-592.8198345030538
 30
0.0
  0
VERTEX
  5
20DCE
  8
01
 10
452.1681912533654
 20
-592.8153799413247
 30
0.0
  0
VERTEX
  5
20DCF
  8
01
 10
452.0988656095037
 20
-592.8080196504652
 30
0.0
  0
VERTEX
  5
20DD0
  8
01
 10
452.0297414109459
 20
-592.7978059766755
 30
0.0
  0
VERTEX
  5
20DD1
  8
01
 10
451.9609409564707
 20
-592.7847912661555
 30
0.0
  0
VERTEX
  5
20DD2
  8
01
 10
451.8925865448567
 20
-592.7690278651056
 30
0.0
  0
VERTEX
  5
20DD3
  8
01
 10
451.8248004748825
 20
-592.7505681197258
 30
0.0
  0
VERTEX
  5
20DD4
  8
01
 10
451.7577050453268
 20
-592.7294643762165
 30
0.0
  0
VERTEX
  5
20DD5
  8
01
 10
451.6914225549684
 20
-592.7057689807773
 30
0.0
  0
VERTEX
  5
20DD6
  8
01
 10
451.6260753025856
 20
-592.6795342796087
 30
0.0
  0
VERTEX
  5
20DD7
  8
01
 10
451.5617855869574
 20
-592.6508126189107
 30
0.0
  0
VERTEX
  5
20DD8
  8
01
 10
451.4986757068623
 20
-592.6196563448835
 30
0.0
  0
VERTEX
  5
20DD9
  8
01
 10
451.4368679610789
 20
-592.5861178037272
 30
0.0
  0
VERTEX
  5
20DDA
  8
01
 10
451.3764816630909
 20
-592.5502499231117
 30
0.0
  0
VERTEX
  5
20DDB
  8
01
 10
451.3176020461952
 20
-592.5121122687767
 30
0.0
  0
VERTEX
  5
20DDC
  8
01
 10
451.2602926491269
 20
-592.4717686320853
 30
0.0
  0
VERTEX
  5
20DDD
  8
01
 10
451.2046166619687
 20
-592.4292828723098
 30
0.0
  0
VERTEX
  5
20DDE
  8
01
 10
451.1506372748037
 20
-592.384718848723
 30
0.0
  0
VERTEX
  5
20DDF
  8
01
 10
451.0984176777146
 20
-592.3381404205973
 30
0.0
  0
VERTEX
  5
20DE0
  8
01
 10
451.0480210607845
 20
-592.2896114472054
 30
0.0
  0
VERTEX
  5
20DE1
  8
01
 10
450.9995106140961
 20
-592.2391957878199
 30
0.0
  0
VERTEX
  5
20DE2
  8
01
 10
450.9529495277324
 20
-592.1869573017132
 30
0.0
  0
VERTEX
  5
20DE3
  8
01
 10
450.9084009917763
 20
-592.1329598481581
 30
0.0
  0
VERTEX
  5
20DE4
  8
01
 10
450.8659281963106
 20
-592.0772672864272
 30
0.0
  0
VERTEX
  5
20DE5
  8
01
 10
450.8255943314184
 20
-592.019943475793
 30
0.0
  0
VERTEX
  5
20DE6
  8
01
 10
450.7874625871823
 20
-591.961052275528
 30
0.0
  0
VERTEX
  5
20DE7
  8
01
 10
450.7515960960245
 20
-591.9006578755374
 30
0.0
  0
VERTEX
  5
20DE8
  8
01
 10
450.7180543048539
 20
-591.8388455987823
 30
0.0
  0
VERTEX
  5
20DE9
  8
01
 10
450.6868908142353
 20
-591.7757342916751
 30
0.0
  0
VERTEX
  5
20DEA
  8
01
 10
450.6581587058523
 20
-591.7114457759385
 30
0.0
  0
VERTEX
  5
20DEB
  8
01
 10
450.6319110613883
 20
-591.6461018732953
 30
0.0
  0
VERTEX
  5
20DEC
  8
01
 10
450.608200962527
 20
-591.5798244054679
 30
0.0
  0
VERTEX
  5
20DED
  8
01
 10
450.5870814909521
 20
-591.5127351941788
 30
0.0
  0
VERTEX
  5
20DEE
  8
01
 10
450.5686057283469
 20
-591.4449560611508
 30
0.0
  0
VERTEX
  5
20DEF
  8
01
 10
450.5528267563953
 20
-591.3766088281067
 30
0.0
  0
VERTEX
  5
20DF0
  8
01
 10
450.5397976567809
 20
-591.3078153167687
 30
0.0
  0
VERTEX
  5
20DF1
  8
01
 10
450.529571511187
 20
-591.2386973488597
 30
0.0
  0
VERTEX
  5
20DF2
  8
01
 10
450.5222014012975
 20
-591.1693767461022
 30
0.0
  0
VERTEX
  5
20DF3
  8
01
 10
450.5177404087958
 20
-591.0999753302189
 30
0.0
  0
VERTEX
  5
20DF4
  8
01
 10
450.5162416153655
 20
-591.0306149229322
 30
0.0
  0
SEQEND
  5
21190
  8
01
  0
POLYLINE
  5
1F70D
  8
1HATCH
 66
     1
 10
0.0
 20
0.0
 30
0.0
  0
VERTEX
  5
20DF5
  8
1HATCH
 10
633.7394511050599
 20
-595.521330158936
 30
0.0
  0
VERTEX
  5
20DF6
  8
1HATCH
 10
633.83662775965
 20
-595.5201890172683
 30
0.0
  0
VERTEX
  5
20DF7
  8
1HATCH
 10
633.9338144868746
 20
-595.5167770200846
 30
0.0
  0
VERTEX
  5
20DF8
  8
1HATCH
 10
634.0309527768455
 20
-595.5111113091148
 30
0.0
  0
VERTEX
  5
20DF9
  8
1HATCH
 10
634.1279841196749
 20
-595.5032090260883
 30
0.0
  0
VERTEX
  5
20DFA
  8
1HATCH
 10
634.224850005475
 20
-595.4930873127349
 30
0.0
  0
VERTEX
  5
20DFB
  8
1HATCH
 10
634.3214919243577
 20
-595.4807633107841
 30
0.0
  0
VERTEX
  5
20DFC
  8
1HATCH
 10
634.4178513664353
 20
-595.4662541619659
 30
0.0
  0
VERTEX
  5
20DFD
  8
1HATCH
 10
634.51386982182
 20
-595.4495770080094
 30
0.0
  0
VERTEX
  5
20DFE
  8
1HATCH
 10
634.6094887806236
 20
-595.4307489906445
 30
0.0
  0
VERTEX
  5
20DFF
  8
1HATCH
 10
634.7046497329583
 20
-595.4097872516008
 30
0.0
  0
VERTEX
  5
20E00
  8
1HATCH
 10
634.7992954170304
 20
-595.3867092824186
 30
0.0
  0
VERTEX
  5
20E01
  8
1HATCH
 10
634.893380663715
 20
-595.3615359639189
 30
0.0
  0
VERTEX
  5
20E02
  8
1HATCH
 10
634.9868670930377
 20
-595.3342900797567
 30
0.0
  0
VERTEX
  5
20E03
  8
1HATCH
 10
635.0797164002948
 20
-595.304994434684
 30
0.0
  0
VERTEX
  5
20E04
  8
1HATCH
 10
635.1718902807828
 20
-595.2736718334522
 30
0.0
  0
VERTEX
  5
20E05
  8
1HATCH
 10
635.2633504297978
 20
-595.2403450808133
 30
0.0
  0
VERTEX
  5
20E06
  8
1HATCH
 10
635.3540585426362
 20
-595.2050369815187
 30
0.0
  0
VERTEX
  5
20E07
  8
1HATCH
 10
635.4439763145942
 20
-595.1677703403202
 30
0.0
  0
VERTEX
  5
20E08
  8
1HATCH
 10
635.5330654409685
 20
-595.1285679619695
 30
0.0
  0
VERTEX
  5
20E09
  8
1HATCH
 10
635.6212876170549
 20
-595.0874526512182
 30
0.0
  0
VERTEX
  5
20E0A
  8
1HATCH
 10
635.7086045799657
 20
-595.0444472713709
 30
0.0
  0
VERTEX
  5
20E0B
  8
1HATCH
 10
635.7949794277764
 20
-594.9995765914406
 30
0.0
  0
VERTEX
  5
20E0C
  8
1HATCH
 10
635.8803768870442
 20
-594.9528676607445
 30
0.0
  0
VERTEX
  5
20E0D
  8
1HATCH
 10
635.9647617801864
 20
-594.9043476628287
 30
0.0
  0
VERTEX
  5
20E0E
  8
1HATCH
 10
636.0480989296206
 20
-594.8540437812405
 30
0.0
  0
VERTEX
  5
20E0F
  8
1HATCH
 10
636.1303531577638
 20
-594.8019831995259
 30
0.0
  0
VERTEX
  5
20E10
  8
1HATCH
 10
636.2114892870337
 20
-594.7481931012318
 30
0.0
  0
VERTEX
  5
20E11
  8
1HATCH
 10
636.2914721398474
 20
-594.6927006699046
 30
0.0
  0
VERTEX
  5
20E12
  8
1HATCH
 10
636.3702665386224
 20
-594.6355330890909
 30
0.0
  0
VERTEX
  5
20E13
  8
1HATCH
 10
636.447837305776
 20
-594.5767175423375
 30
0.0
  0
VERTEX
  5
20E14
  8
1HATCH
 10
636.5241492662612
 20
-594.5162812145629
 30
0.0
  0
VERTEX
  5
20E15
  8
1HATCH
 10
636.5991685204241
 20
-594.4542519808797
 30
0.0
  0
VERTEX
  5
20E16
  8
1HATCH
 10
636.6728645101039
 20
-594.3906595246882
 30
0.0
  0
VERTEX
  5
20E17
  8
1HATCH
 10
636.7452072176948
 20
-594.3255338219165
 30
0.0
  0
VERTEX
  5
20E18
  8
1HATCH
 10
636.8161666255916
 20
-594.2589048484924
 30
0.0
  0
VERTEX
  5
20E19
  8
1HATCH
 10
636.8857127161883
 20
-594.1908025803441
 30
0.0
  0
VERTEX
  5
20E1A
  8
1HATCH
 10
636.9538154718799
 20
-594.1212569933997
 30
0.0
  0
VERTEX
  5
20E1B
  8
1HATCH
 10
637.0204448750604
 20
-594.050298063587
 30
0.0
  0
VERTEX
  5
20E1C
  8
1HATCH
 10
637.0855709081246
 20
-593.9779557668342
 30
0.0
  0
VERTEX
  5
20E1D
  8
1HATCH
 10
637.1491635534667
 20
-593.9042600790693
 30
0.0
  0
VERTEX
  5
20E1E
  8
1HATCH
 10
637.2111927934814
 20
-593.8292409762204
 30
0.0
  0
VERTEX
  5
20E1F
  8
1HATCH
 10
637.2716289115313
 20
-593.7529289826447
 30
0.0
  0
VERTEX
  5
20E20
  8
1HATCH
 10
637.3304440508286
 20
-593.6753580117452
 30
0.0
  0
VERTEX
  5
20E21
  8
1HATCH
 10
637.3876110642412
 20
-593.5965632700699
 30
0.0
  0
VERTEX
  5
20E22
  8
1HATCH
 10
637.4431028060453
 20
-593.5165799667332
 30
0.0
  0
VERTEX
  5
20E23
  8
1HATCH
 10
637.4968921305167
 20
-593.4354433108496
 30
0.0
  0
VERTEX
  5
20E24
  8
1HATCH
 10
637.5489518919316
 20
-593.3531885115332
 30
0.0
  0
VERTEX
  5
20E25
  8
1HATCH
 10
637.5992549445658
 20
-593.2698507778985
 30
0.0
  0
VERTEX
  5
20E26
  8
1HATCH
 10
637.6477741426958
 20
-593.1854653190596
 30
0.0
  0
VERTEX
  5
20E27
  8
1HATCH
 10
637.6944823405971
 20
-593.100067344131
 30
0.0
  0
VERTEX
  5
20E28
  8
1HATCH
 10
637.7393523925463
 20
-593.0136920622273
 30
0.0
  0
VERTEX
  5
20E29
  8
1HATCH
 10
637.7823572854643
 20
-592.9263747768113
 30
0.0
  0
VERTEX
  5
20E2A
  8
1HATCH
 10
637.823472261277
 20
-592.8381523953032
 30
0.0
  0
VERTEX
  5
20E2B
  8
1HATCH
 10
637.8626744473204
 20
-592.7490631661921
 30
0.0
  0
VERTEX
  5
20E2C
  8
1HATCH
 10
637.8999410289147
 20
-592.6591453792106
 30
0.0
  0
VERTEX
  5
20E2D
  8
1HATCH
 10
637.9352491913799
 20
-592.5684373240913
 30
0.0
  0
VERTEX
  5
20E2E
  8
1HATCH
 10
637.9685761200359
 20
-592.4769772905662
 30
0.0
  0
VERTEX
  5
20E2F
  8
1HATCH
 10
637.9998990002028
 20
-592.384803568368
 30
0.0
  0
VERTEX
  5
20E30
  8
1HATCH
 10
638.0291950172005
 20
-592.2919544472289
 30
0.0
  0
VERTEX
  5
20E31
  8
1HATCH
 10
638.0564413563492
 20
-592.1984682168816
 30
0.0
  0
VERTEX
  5
20E32
  8
1HATCH
 10
638.0816152029686
 20
-592.1043831670581
 30
0.0
  0
VERTEX
  5
20E33
  8
1HATCH
 10
638.1046937634014
 20
-592.0097376627258
 30
0.0
  0
VERTEX
  5
20E34
  8
1HATCH
 10
638.1256561422275
 20
-591.9145768622164
 30
0.0
  0
VERTEX
  5
20E35
  8
1HATCH
 10
638.144484826281
 20
-591.8189580281861
 30
0.0
  0
VERTEX
  5
20E36
  8
1HATCH
 10
638.1611626516324
 20
-591.72293967313
 30
0.0
  0
VERTEX
  5
20E37
  8
1HATCH
 10
638.1756724543523
 20
-591.6265803095437
 30
0.0
  0
VERTEX
  5
20E38
  8
1HATCH
 10
638.1879970705114
 20
-591.5299384499226
 30
0.0
  0
VERTEX
  5
20E39
  8
1HATCH
 10
638.1981193361802
 20
-591.4330726067622
 30
0.0
  0
VERTEX
  5
20E3A
  8
1HATCH
 10
638.2060220874292
 20
-591.3360412925579
 30
0.0
  0
VERTEX
  5
20E3B
  8
1HATCH
 10
638.2116881603293
 20
-591.2389030198052
 30
0.0
  0
VERTEX
  5
20E3C
  8
1HATCH
 10
638.2151003909511
 20
-591.1417163009994
 30
0.0
  0
VERTEX
  5
20E3D
  8
1HATCH
 10
638.2162416153649
 20
-591.0445396486359
 30
0.0
  0
SEQEND
  5
21191
  8
1HATCH
  0
POLYLINE
  5
1F70E
  8
1HATCH
 66
     1
 10
0.0
 20
0.0
 30
0.0
  0
VERTEX
  5
20E3E
  8
1HATCH
 10
638.2162416153652
 20
-567.0981206692416
 30
0.0
  0
VERTEX
  5
20E3F
  8
1HATCH
 10
638.2151004736969
 20
-567.0009440146519
 30
0.0
  0
VERTEX
  5
20E40
  8
1HATCH
 10
638.2116884765117
 20
-566.903757287429
 30
0.0
  0
VERTEX
  5
20E41
  8
1HATCH
 10
638.2060227655394
 20
-566.8066189974605
 30
0.0
  0
VERTEX
  5
20E42
  8
1HATCH
 10
638.1981204825099
 20
-566.709587654634
 30
0.0
  0
VERTEX
  5
20E43
  8
1HATCH
 10
638.1879987691532
 20
-566.6127217688373
 30
0.0
  0
VERTEX
  5
20E44
  8
1HATCH
 10
638.1756747671991
 20
-566.516079849958
 30
0.0
  0
VERTEX
  5
20E45
  8
1HATCH
 10
638.1611656183773
 20
-566.4197204078839
 30
0.0
  0
VERTEX
  5
20E46
  8
1HATCH
 10
638.1444884644178
 20
-566.3237019525025
 30
0.0
  0
VERTEX
  5
20E47
  8
1HATCH
 10
638.1256604470504
 20
-566.2280829937014
 30
0.0
  0
VERTEX
  5
20E48
  8
1HATCH
 10
638.1046987080049
 20
-566.1329220413685
 30
0.0
  0
VERTEX
  5
20E49
  8
1HATCH
 10
638.0816207388218
 20
-566.0382763572971
 30
0.0
  0
VERTEX
  5
20E4A
  8
1HATCH
 10
638.0564474203221
 20
-565.9441911106125
 30
0.0
  0
VERTEX
  5
20E4B
  8
1HATCH
 10
638.0292015361608
 20
-565.8507046812889
 30
0.0
  0
VERTEX
  5
20E4C
  8
1HATCH
 10
637.9999058910896
 20
-565.7578553740303
 30
0.0
  0
VERTEX
  5
20E4D
  8
1HATCH
 10
637.9685832898599
 20
-565.6656814935403
 30
0.0
  0
VERTEX
  5
20E4E
  8
1HATCH
 10
637.9352565372233
 20
-565.5742213445229
 30
0.0
  0
VERTEX
  5
20E4F
  8
1HATCH
 10
637.8999484379314
 20
-565.4835132316821
 30
0.0
  0
VERTEX
  5
20E50
  8
1HATCH
 10
637.8626817967355
 20
-565.3935954597213
 30
0.0
  0
VERTEX
  5
20E51
  8
1HATCH
 10
637.8234794183874
 20
-565.3045063333445
 30
0.0
  0
VERTEX
  5
20E52
  8
1HATCH
 10
637.7823641076385
 20
-565.2162841572556
 30
0.0
  0
VERTEX
  5
20E53
  8
1HATCH
 10
637.7393587277933
 20
-565.1289671943427
 30
0.0
  0
VERTEX
  5
20E54
  8
1HATCH
 10
637.6944880478646
 20
-565.0425923465303
 30
0.0
  0
VERTEX
  5
20E55
  8
1HATCH
 10
637.6477791171698
 20
-564.9571948872613
 30
0.0
  0
VERTEX
  5
20E56
  8
1HATCH
 10
637.5992591192551
 20
-564.872809994118
 30
0.0
  0
VERTEX
  5
20E57
  8
1HATCH
 10
637.5489552376674
 20
-564.7894728446832
 30
0.0
  0
VERTEX
  5
20E58
  8
1HATCH
 10
637.4968946559534
 20
-564.7072186165395
 30
0.0
  0
VERTEX
  5
20E59
  8
1HATCH
 10
637.4431045576595
 20
-564.6260824872694
 30
0.0
  0
VERTEX
  5
20E5A
  8
1HATCH
 10
637.3876121263324
 20
-564.5460996344555
 30
0.0
  0
VERTEX
  5
20E5B
  8
1HATCH
 10
637.3304445455188
 20
-564.4673052356803
 30
0.0
  0
VERTEX
  5
20E5C
  8
1HATCH
 10
637.2716289987653
 20
-564.3897344685267
 30
0.0
  0
VERTEX
  5
20E5D
  8
1HATCH
 10
637.2111926709908
 20
-564.3134225080414
 30
0.0
  0
VERTEX
  5
20E5E
  8
1HATCH
 10
637.1491634373077
 20
-564.2384032538786
 30
0.0
  0
VERTEX
  5
20E5F
  8
1HATCH
 10
637.0855709811163
 20
-564.1647072641988
 30
0.0
  0
VERTEX
  5
20E60
  8
1HATCH
 10
637.0204452783446
 20
-564.0923645566078
 30
0.0
  0
VERTEX
  5
20E61
  8
1HATCH
 10
636.9538163049207
 20
-564.0214051487109
 30
0.0
  0
VERTEX
  5
20E62
  8
1HATCH
 10
636.8857140367725
 20
-563.9518590581139
 30
0.0
  0
VERTEX
  5
20E63
  8
1HATCH
 10
636.8161684498282
 20
-563.8837563024223
 30
0.0
  0
VERTEX
  5
20E64
  8
1HATCH
 10
636.7452095200156
 20
-563.8171268992415
 30
0.0
  0
VERTEX
  5
20E65
  8
1HATCH
 10
636.6728672232628
 20
-563.7520008661775
 30
0.0
  0
VERTEX
  5
20E66
  8
1HATCH
 10
636.5991715354979
 20
-563.6884082208354
 30
0.0
  0
VERTEX
  5
20E67
  8
1HATCH
 10
636.5241524326489
 20
-563.6263789808207
 30
0.0
  0
VERTEX
  5
20E68
  8
1HATCH
 10
636.4478404390733
 20
-563.565942862771
 30
0.0
  0
VERTEX
  5
20E69
  8
1HATCH
 10
636.3702694681735
 20
-563.5071277234738
 30
0.0
  0
VERTEX
  5
20E6A
  8
1HATCH
 10
636.2914747264979
 20
-563.4499607100613
 30
0.0
  0
VERTEX
  5
20E6B
  8
1HATCH
 10
636.2114914231607
 20
-563.3944689682578
 30
0.0
  0
VERTEX
  5
20E6C
  8
1HATCH
 10
636.1303547672765
 20
-563.340679643787
 30
0.0
  0
VERTEX
  5
20E6D
  8
1HATCH
 10
636.0480999679593
 20
-563.2886198823729
 30
0.0
  0
VERTEX
  5
20E6E
  8
1HATCH
 10
635.9647622343235
 20
-563.2383168297396
 30
0.0
  0
VERTEX
  5
20E6F
  8
1HATCH
 10
635.8803767754835
 20
-563.1897976316111
 30
0.0
  0
VERTEX
  5
20E70
  8
1HATCH
 10
635.7949788005534
 20
-563.1430894337113
 30
0.0
  0
VERTEX
  5
20E71
  8
1HATCH
 10
635.7086035186474
 20
-563.0982193817641
 30
0.0
  0
VERTEX
  5
20E72
  8
1HATCH
 10
635.6212862332293
 20
-563.0552144888483
 30
0.0
  0
VERTEX
  5
20E73
  8
1HATCH
 10
635.5330638517186
 20
-563.0140995130382
 30
0.0
  0
VERTEX
  5
20E74
  8
1HATCH
 10
635.4439746226049
 20
-562.9748973269974
 30
0.0
  0
VERTEX
  5
20E75
  8
1HATCH
 10
635.3540568356208
 20
-562.937630745406
 30
0.0
  0
VERTEX
  5
20E76
  8
1HATCH
 10
635.2633487804987
 20
-562.9023225829433
 30
0.0
  0
VERTEX
  5
20E77
  8
1HATCH
 10
635.1718887469715
 20
-562.8689956542895
 30
0.0
  0
VERTEX
  5
20E78
  8
1HATCH
 10
635.0797150247712
 20
-562.8376727741246
 30
0.0
  0
VERTEX
  5
20E79
  8
1HATCH
 10
634.9868659036308
 20
-562.8083767571281
 30
0.0
  0
VERTEX
  5
20E7A
  8
1HATCH
 10
634.8933796732827
 20
-562.7811304179803
 30
0.0
  0
VERTEX
  5
20E7B
  8
1HATCH
 10
634.7992946234593
 20
-562.7559565713608
 30
0.0
  0
VERTEX
  5
20E7C
  8
1HATCH
 10
634.7046491191284
 20
-562.7328780109269
 30
0.0
  0
VERTEX
  5
20E7D
  8
1HATCH
 10
634.609488318621
 20
-562.7119156320988
 30
0.0
  0
VERTEX
  5
20E7E
  8
1HATCH
 10
634.5138694845932
 20
-562.6930869480425
 30
0.0
  0
VERTEX
  5
20E7F
  8
1HATCH
 10
634.4178511295404
 20
-562.6764091226878
 30
0.0
  0
VERTEX
  5
20E80
  8
1HATCH
 10
634.3214917659577
 20
-562.6618993199643
 30
0.0
  0
VERTEX
  5
20E81
  8
1HATCH
 10
634.2248499063403
 20
-562.6495747038015
 30
0.0
  0
VERTEX
  5
20E82
  8
1HATCH
 10
634.1279840631835
 20
-562.6394524381293
 30
0.0
  0
VERTEX
  5
20E83
  8
1HATCH
 10
634.0309527489823
 20
-562.631549686877
 30
0.0
  0
VERTEX
  5
20E84
  8
1HATCH
 10
633.9338144762321
 20
-562.6258836139743
 30
0.0
  0
VERTEX
  5
20E85
  8
1HATCH
 10
633.836627757428
 20
-562.622471383351
 30
0.0
  0
VERTEX
  5
20E86
  8
1HATCH
 10
633.7394511050651
 20
-562.6213301589366
 30
0.0
  0
SEQEND
  5
21192
  8
1HATCH
  0
POLYLINE
  5
1F70F
  8
1HATCH
 66
     1
 10
0.0
 20
0.0
 30
0.0
  0
VERTEX
  5
20E87
  8
1HATCH
 10
447.8162416153652
 20
-567.098120712242
 30
0.0
  0
VERTEX
  5
20E88
  8
1HATCH
 10
447.8176808319081
 20
-566.9887850151712
 30
0.0
  0
VERTEX
  5
20E89
  8
1HATCH
 10
447.8219837594103
 20
-566.8794514515338
 30
0.0
  0
VERTEX
  5
20E8A
  8
1HATCH
 10
447.8291283146819
 20
-566.7702035623153
 30
0.0
  0
VERTEX
  5
20E8B
  8
1HATCH
 10
447.839092414533
 20
-566.6611248885008
 30
0.0
  0
VERTEX
  5
20E8C
  8
1HATCH
 10
447.8518539757736
 20
-566.5522989710757
 30
0.0
  0
VERTEX
  5
20E8D
  8
1HATCH
 10
447.8673909152139
 20
-566.4438093510254
 30
0.0
  0
VERTEX
  5
20E8E
  8
1HATCH
 10
447.8856811496642
 20
-566.3357395693348
 30
0.0
  0
VERTEX
  5
20E8F
  8
1HATCH
 10
447.9067025959345
 20
-566.2281731669893
 30
0.0
  0
VERTEX
  5
20E90
  8
1HATCH
 10
447.9304329474668
 20
-566.121193138279
 30
0.0
  0
VERTEX
  5
20E91
  8
1HATCH
 10
447.9568444447102
 20
-566.0148691312364
 30
0.0
  0
VERTEX
  5
20E92
  8
1HATCH
 10
447.9859036938425
 20
-565.9092570039601
 30
0.0
  0
VERTEX
  5
20E93
  8
1HATCH
 10
448.0175770414069
 20
-565.8044119790877
 30
0.0
  0
VERTEX
  5
20E94
  8
1HATCH
 10
448.0518308339457
 20
-565.7003892792567
 30
0.0
  0
VERTEX
  5
20E95
  8
1HATCH
 10
448.0886314180017
 20
-565.5972441271048
 30
0.0
  0
VERTEX
  5
20E96
  8
1HATCH
 10
448.1279451401177
 20
-565.4950317452697
 30
0.0
  0
VERTEX
  5
20E97
  8
1HATCH
 10
448.1697383468362
 20
-565.3938073563888
 30
0.0
  0
VERTEX
  5
20E98
  8
1HATCH
 10
448.2139773847001
 20
-565.2936261831001
 30
0.0
  0
VERTEX
  5
20E99
  8
1HATCH
 10
448.2606286002519
 20
-565.1945434480408
 30
0.0
  0
VERTEX
  5
20E9A
  8
1HATCH
 10
448.3096583400344
 20
-565.0966143738488
 30
0.0
  0
VERTEX
  5
20E9B
  8
1HATCH
 10
448.3610329505903
 20
-564.9998941831616
 30
0.0
  0
VERTEX
  5
20E9C
  8
1HATCH
 10
448.4147187784623
 20
-564.904438098617
 30
0.0
  0
VERTEX
  5
20E9D
  8
1HATCH
 10
448.4706817085862
 20
-564.8103007575459
 30
0.0
  0
VERTEX
  5
20E9E
  8
1HATCH
 10
448.5288834684399
 20
-564.7175315257215
 30
0.0
  0
VERTEX
  5
20E9F
  8
1HATCH
 10
448.5892835841252
 20
-564.6261769776244
 30
0.0
  0
VERTEX
  5
20EA0
  8
1HATCH
 10
448.6518415616586
 20
-564.5362836622669
 30
0.0
  0
VERTEX
  5
20EA1
  8
1HATCH
 10
448.7165169070561
 20
-564.4478981286619
 30
0.0
  0
VERTEX
  5
20EA2
  8
1HATCH
 10
448.7832691263343
 20
-564.3610669258217
 30
0.0
  0
VERTEX
  5
20EA3
  8
1HATCH
 10
448.8520577255094
 20
-564.2758366027589
 30
0.0
  0
VERTEX
  5
20EA4
  8
1HATCH
 10
448.9228422105976
 20
-564.1922537084861
 30
0.0
  0
VERTEX
  5
20EA5
  8
1HATCH
 10
448.9955820876153
 20
-564.1103647920157
 30
0.0
  0
VERTEX
  5
20EA6
  8
1HATCH
 10
449.0702368625787
 20
-564.0302164023603
 30
0.0
  0
VERTEX
  5
20EA7
  8
1HATCH
 10
449.1467660415042
 20
-563.9518550885325
 30
0.0
  0
VERTEX
  5
20EA8
  8
1HATCH
 10
449.2251283971103
 20
-563.8753266802
 30
0.0
  0
VERTEX
  5
20EA9
  8
1HATCH
 10
449.3052785519366
 20
-563.8006729358201
 30
0.0
  0
VERTEX
  5
20EAA
  8
1HATCH
 10
449.3871696700975
 20
-563.7279341831758
 30
0.0
  0
VERTEX
  5
20EAB
  8
1HATCH
 10
449.4707549141075
 20
-563.6571507484799
 30
0.0
  0
VERTEX
  5
20EAC
  8
1HATCH
 10
449.5559874464812
 20
-563.5883629579456
 30
0.0
  0
VERTEX
  5
20EAD
  8
1HATCH
 10
449.6428204297328
 20
-563.5216111377863
 30
0.0
  0
VERTEX
  5
20EAE
  8
1HATCH
 10
449.7312070263767
 20
-563.4569356142148
 30
0.0
  0
VERTEX
  5
20EAF
  8
1HATCH
 10
449.8211003989275
 20
-563.3943767134444
 30
0.0
  0
VERTEX
  5
20EB0
  8
1HATCH
 10
449.9124537098995
 20
-563.3339747616883
 30
0.0
  0
VERTEX
  5
20EB1
  8
1HATCH
 10
450.0052201218072
 20
-563.2757700851596
 30
0.0
  0
VERTEX
  5
20EB2
  8
1HATCH
 10
450.0993527971648
 20
-563.2198030100712
 30
0.0
  0
VERTEX
  5
20EB3
  8
1HATCH
 10
450.1948039935987
 20
-563.1661131365859
 30
0.0
  0
VERTEX
  5
20EB4
  8
1HATCH
 10
450.2915204732545
 20
-563.1147356554864
 30
0.0
  0
VERTEX
  5
20EB5
  8
1HATCH
 10
450.3894469349016
 20
-563.0657041019746
 30
0.0
  0
VERTEX
  5
20EB6
  8
1HATCH
 10
450.4885280736257
 20
-563.0190520082971
 30
0.0
  0
VERTEX
  5
20EB7
  8
1HATCH
 10
450.5887085845123
 20
-562.9748129067004
 30
0.0
  0
VERTEX
  5
20EB8
  8
1HATCH
 10
450.6899331626473
 20
-562.9330203294307
 30
0.0
  0
VERTEX
  5
20EB9
  8
1HATCH
 10
450.7921465031163
 20
-562.8937078087348
 30
0.0
  0
VERTEX
  5
20EBA
  8
1HATCH
 10
450.8952933010049
 20
-562.8569088768589
 30
0.0
  0
VERTEX
  5
20EBB
  8
1HATCH
 10
450.9993182513988
 20
-562.8226570660493
 30
0.0
  0
VERTEX
  5
20EBC
  8
1HATCH
 10
451.1041660493838
 20
-562.7909859085527
 30
0.0
  0
VERTEX
  5
20EBD
  8
1HATCH
 10
451.2097813900454
 20
-562.7619289366154
 30
0.0
  0
VERTEX
  5
20EBE
  8
1HATCH
 10
451.3161089684692
 20
-562.7355196824838
 30
0.0
  0
VERTEX
  5
20EBF
  8
1HATCH
 10
451.4230925934013
 20
-562.7117913220058
 30
0.0
  0
VERTEX
  5
20EC0
  8
1HATCH
 10
451.5306613583694
 20
-562.6907711140157
 30
0.0
  0
VERTEX
  5
20EC1
  8
1HATCH
 10
451.6387322367268
 20
-562.672481443806
 30
0.0
  0
VERTEX
  5
20EC2
  8
1HATCH
 10
451.7472218406276
 20
-562.6569445514303
 30
0.0
  0
VERTEX
  5
20EC3
  8
1HATCH
 10
451.8560467822257
 20
-562.644182676942
 30
0.0
  0
VERTEX
  5
20EC4
  8
1HATCH
 10
451.9651236736751
 20
-562.6342180603949
 30
0.0
  0
VERTEX
  5
20EC5
  8
1HATCH
 10
452.0743691271299
 20
-562.6270729418426
 30
0.0
  0
VERTEX
  5
20EC6
  8
1HATCH
 10
452.1836997547439
 20
-562.6227695613384
 30
0.0
  0
VERTEX
  5
20EC7
  8
1HATCH
 10
452.2930321686713
 20
-562.6213301589362
 30
0.0
  0
SEQEND
  5
21193
  8
1HATCH
  0
POLYLINE
  5
1F710
  8
01
 66
     1
 10
0.0
 20
0.0
 30
0.0
  0
VERTEX
  5
20EC8
  8
01
 10
452.3069576818859
 20
-565.3213309894525
 30
0.0
  0
VERTEX
  5
20EC9
  8
01
 10
452.2375972126628
 20
-565.3228297725839
 30
0.0
  0
VERTEX
  5
20ECA
  8
01
 10
452.1681957362916
 20
-565.327290735518
 30
0.0
  0
VERTEX
  5
20ECB
  8
01
 10
452.0988750725734
 20
-565.3346607985642
 30
0.0
  0
VERTEX
  5
20ECC
  8
01
 10
452.0297570413093
 20
-565.3448868820321
 30
0.0
  0
VERTEX
  5
20ECD
  8
01
 10
451.9609634623005
 20
-565.3579159062316
 30
0.0
  0
VERTEX
  5
20ECE
  8
01
 10
451.892616155348
 20
-565.3736947914718
 30
0.0
  0
VERTEX
  5
20ECF
  8
01
 10
451.824836940253
 20
-565.3921704580628
 30
0.0
  0
VERTEX
  5
20ED0
  8
01
 10
451.7577476368167
 20
-565.4132898263138
 30
0.0
  0
VERTEX
  5
20ED1
  8
01
 10
451.6914700648401
 20
-565.4369998165346
 30
0.0
  0
VERTEX
  5
20ED2
  8
01
 10
451.6261260441243
 20
-565.4632473490345
 30
0.0
  0
VERTEX
  5
20ED3
  8
01
 10
451.5618373944706
 20
-565.4919793441236
 30
0.0
  0
VERTEX
  5
20ED4
  8
01
 10
451.4987259356799
 20
-565.5231427221112
 30
0.0
  0
VERTEX
  5
20ED5
  8
01
 10
451.4369134875535
 20
-565.5566844033067
 30
0.0
  0
VERTEX
  5
20ED6
  8
01
 10
451.376518896088
 20
-565.5925507892789
 30
0.0
  0
VERTEX
  5
20ED7
  8
01
 10
451.3176274908114
 20
-565.6306824350896
 30
0.0
  0
VERTEX
  5
20ED8
  8
01
 10
451.2603034679078
 20
-565.6710162093672
 30
0.0
  0
VERTEX
  5
20ED9
  8
01
 10
451.204610692721
 20
-565.713488923029
 30
0.0
  0
VERTEX
  5
20EDA
  8
01
 10
451.150613030595
 20
-565.7580373869927
 30
0.0
  0
VERTEX
  5
20EDB
  8
01
 10
451.0983743468737
 20
-565.8045984121761
 30
0.0
  0
VERTEX
  5
20EDC
  8
01
 10
451.0479585069011
 20
-565.8531088094962
 30
0.0
  0
VERTEX
  5
20EDD
  8
01
 10
450.9994293760211
 20
-565.903505389871
 30
0.0
  0
VERTEX
  5
20EDE
  8
01
 10
450.9528508195776
 20
-565.955724964218
 30
0.0
  0
VERTEX
  5
20EDF
  8
01
 10
450.9082867029145
 20
-566.0097043434547
 30
0.0
  0
VERTEX
  5
20EE0
  8
01
 10
450.8658008913757
 20
-566.0653803384986
 30
0.0
  0
VERTEX
  5
20EE1
  8
01
 10
450.8254572503052
 20
-566.1226897602673
 30
0.0
  0
VERTEX
  5
20EE2
  8
01
 10
450.787319645047
 20
-566.1815694196785
 30
0.0
  0
VERTEX
  5
20EE3
  8
01
 10
450.751451872986
 20
-566.2419557792354
 30
0.0
  0
VERTEX
  5
20EE4
  8
01
 10
450.7179135002491
 20
-566.303763608451
 30
0.0
  0
VERTEX
  5
20EE5
  8
01
 10
450.6867574445565
 20
-566.3668735915118
 30
0.0
  0
VERTEX
  5
20EE6
  8
01
 10
450.6580360410776
 20
-566.4311634259593
 30
0.0
  0
VERTEX
  5
20EE7
  8
01
 10
450.6318016249821
 20
-566.496510809336
 30
0.0
  0
VERTEX
  5
20EE8
  8
01
 10
450.6081065314398
 20
-566.5627934391837
 30
0.0
  0
VERTEX
  5
20EE9
  8
01
 10
450.5870030956201
 20
-566.6298890130445
 30
0.0
  0
VERTEX
  5
20EEA
  8
01
 10
450.5685436526928
 20
-566.6976752284605
 30
0.0
  0
VERTEX
  5
20EEB
  8
01
 10
450.5527805378272
 20
-566.7660297829741
 30
0.0
  0
VERTEX
  5
20EEC
  8
01
 10
450.5397660861934
 20
-566.8348303741268
 30
0.0
  0
VERTEX
  5
20EED
  8
01
 10
450.5295526329606
 20
-566.903954699461
 30
0.0
  0
VERTEX
  5
20EEE
  8
01
 10
450.5221925132986
 20
-566.9732804565185
 30
0.0
  0
VERTEX
  5
20EEF
  8
01
 10
450.5177380623771
 20
-567.0426853428418
 30
0.0
  0
VERTEX
  5
20EF0
  8
01
 10
450.5162416153655
 20
-567.1120470559727
 30
0.0
  0
SEQEND
  5
21194
  8
01
  0
LINE
  5
1F711
  8
01
 10
450.5162416153655
 20
-567.1120470559731
 30
0.0
 11
450.5162416153655
 21
-591.0306149229318
 31
0.0
  0
LINE
  5
1F712
  8
01
 10
635.5162416153653
 20
-591.0213309894525
 30
0.0
 11
635.5162416153653
 21
-567.1213309894524
 31
0.0
  0
ARC
  5
1F713
  8
01
 10
633.7162416153653
 20
-591.0213309894525
 30
0.0
 40
1.8
 50
270.0
 51
0.0
  0
ARC
  5
1F714
  8
01
 10
633.7162416153653
 20
-567.1213309894524
 30
0.0
 40
1.8
 50
0.0
 51
90.0
  0
LINE
  5
1F715
  8
01
 10
452.3069576818859
 20
-592.8213309894525
 30
0.0
 11
633.7162416153653
 21
-592.8213309894525
 31
0.0
  0
LINE
  5
1F716
  8
1HATCH
 10
447.8162416153652
 20
-591.04453960563
 30
0.0
 11
447.8162416153652
 21
-567.098120712242
 31
0.0
  0
LINE
  5
1F717
  8
1HATCH
 10
633.7394511050599
 20
-595.521330158936
 30
0.0
 11
452.2930321686713
 21
-595.521330158936
 31
0.0
  0
LINE
  5
1F718
  8
1HATCH
 10
638.2162416153652
 20
-567.0981206692416
 30
0.0
 11
638.2162416153652
 21
-591.0445396486307
 31
0.0
  0
POLYLINE
  5
1F719
  8
1HATCH
 66
     1
 10
0.0
 20
0.0
 30
0.0
  0
VERTEX
  5
20EF1
  8
1HATCH
 10
446.6850652229057
 20
-598.321330158936
 30
0.0
  0
VERTEX
  5
20EF2
  8
1HATCH
 10
446.6443340696596
 20
-598.320772845121
 30
0.0
  0
VERTEX
  5
20EF3
  8
1HATCH
 10
446.6036172017614
 20
-598.3191092366868
 30
0.0
  0
VERTEX
  5
20EF4
  8
1HATCH
 10
446.5629478669982
 20
-598.316351833147
 30
0.0
  0
VERTEX
  5
20EF5
  8
1HATCH
 10
446.522359313157
 20
-598.3125131340153
 30
0.0
  0
VERTEX
  5
20EF6
  8
1HATCH
 10
446.4818847880251
 20
-598.3076056388054
 30
0.0
  0
VERTEX
  5
20EF7
  8
1HATCH
 10
446.4415565388865
 20
-598.3016419748268
 30
0.0
  0
VERTEX
  5
20EF8
  8
1HATCH
 10
446.4014005026764
 20
-598.2946355754209
 30
0.0
  0
VERTEX
  5
20EF9
  8
1HATCH
 10
446.3614401626908
 20
-598.2866001873365
 30
0.0
  0
VERTEX
  5
20EFA
  8
1HATCH
 10
446.3216989967453
 20
-598.2775495580225
 30
0.0
  0
VERTEX
  5
20EFB
  8
1HATCH
 10
446.2822004826556
 20
-598.2674974349279
 30
0.0
  0
VERTEX
  5
20EFC
  8
1HATCH
 10
446.2429680982378
 20
-598.2564575655013
 30
0.0
  0
VERTEX
  5
20EFD
  8
1HATCH
 10
446.2040253213075
 20
-598.2444436971914
 30
0.0
  0
VERTEX
  5
20EFE
  8
1HATCH
 10
446.1653956296807
 20
-598.2314695774472
 30
0.0
  0
VERTEX
  5
20EFF
  8
1HATCH
 10
446.1271024953217
 20
-598.2175489544163
 30
0.0
  0
VERTEX
  5
20F00
  8
1HATCH
 10
446.0891677509111
 20
-598.2026957719913
 30
0.0
  0
VERTEX
  5
20F01
  8
1HATCH
 10
446.0516093531713
 20
-598.1869244368896
 30
0.0
  0
VERTEX
  5
20F02
  8
1HATCH
 10
446.0144446987569
 20
-598.1702494227052
 30
0.0
  0
VERTEX
  5
20F03
  8
1HATCH
 10
445.9776911843226
 20
-598.1526852030324
 30
0.0
  0
VERTEX
  5
20F04
  8
1HATCH
 10
445.941366206523
 20
-598.1342462514655
 30
0.0
  0
VERTEX
  5
20F05
  8
1HATCH
 10
445.9054871620126
 20
-598.1149470415985
 30
0.0
  0
VERTEX
  5
20F06
  8
1HATCH
 10
445.8700714474462
 20
-598.094802047026
 30
0.0
  0
VERTEX
  5
20F07
  8
1HATCH
 10
445.8351364594782
 20
-598.0738257413419
 30
0.0
  0
VERTEX
  5
20F08
  8
1HATCH
 10
445.8006995947634
 20
-598.0520325981405
 30
0.0
  0
VERTEX
  5
20F09
  8
1HATCH
 10
445.7667782499564
 20
-598.0294370910163
 30
0.0
  0
VERTEX
  5
20F0A
  8
1HATCH
 10
445.7333898217118
 20
-598.0060536935633
 30
0.0
  0
VERTEX
  5
20F0B
  8
1HATCH
 10
445.7005517066841
 20
-597.9818968793758
 30
0.0
  0
VERTEX
  5
20F0C
  8
1HATCH
 10
445.6682813015281
 20
-597.956981122048
 30
0.0
  0
VERTEX
  5
20F0D
  8
1HATCH
 10
445.6365960028983
 20
-597.9313208951742
 30
0.0
  0
VERTEX
  5
20F0E
  8
1HATCH
 10
445.6055132074493
 20
-597.9049306723485
 30
0.0
  0
VERTEX
  5
20F0F
  8
1HATCH
 10
445.5750503118359
 20
-597.8778249271653
 30
0.0
  0
VERTEX
  5
20F10
  8
1HATCH
 10
445.5452247127125
 20
-597.8500181332188
 30
0.0
  0
VERTEX
  5
20F11
  8
1HATCH
 10
445.5160538067338
 20
-597.8215247641032
 30
0.0
  0
VERTEX
  5
20F12
  8
1HATCH
 10
445.4875548604037
 20
-597.7923594228203
 30
0.0
  0
VERTEX
  5
20F13
  8
1HATCH
 10
445.4597434623624
 20
-597.7625383806566
 30
0.0
  0
VERTEX
  5
20F14
  8
1HATCH
 10
445.4326340349569
 20
-597.7320790685329
 30
0.0
  0
VERTEX
  5
20F15
  8
1HATCH
 10
445.4062409769585
 20
-597.7009989408112
 30
0.0
  0
VERTEX
  5
20F16
  8
1HATCH
 10
445.380578687139
 20
-597.6693154518531
 30
0.0
  0
VERTEX
  5
20F17
  8
1HATCH
 10
445.3556615642698
 20
-597.6370460560202
 30
0.0
  0
VERTEX
  5
20F18
  8
1HATCH
 10
445.3315040071226
 20
-597.6042082076743
 30
0.0
  0
VERTEX
  5
20F19
  8
1HATCH
 10
445.3081204144688
 20
-597.5708193611773
 30
0.0
  0
VERTEX
  5
20F1A
  8
1HATCH
 10
445.2855251850799
 20
-597.5368969708908
 30
0.0
  0
VERTEX
  5
20F1B
  8
1HATCH
 10
445.2637327177276
 20
-597.5024584911765
 30
0.0
  0
VERTEX
  5
20F1C
  8
1HATCH
 10
445.2427574111836
 20
-597.4675213763963
 30
0.0
  0
VERTEX
  5
20F1D
  8
1HATCH
 10
445.2226136642191
 20
-597.4321030809118
 30
0.0
  0
VERTEX
  5
20F1E
  8
1HATCH
 10
445.2033158756058
 20
-597.3962210590848
 30
0.0
  0
VERTEX
  5
20F1F
  8
1HATCH
 10
445.1848784441154
 20
-597.359892765277
 30
0.0
  0
VERTEX
  5
20F20
  8
1HATCH
 10
445.1673157685192
 20
-597.32313565385
 30
0.0
  0
VERTEX
  5
20F21
  8
1HATCH
 10
445.150642247589
 20
-597.2859671791657
 30
0.0
  0
VERTEX
  5
20F22
  8
1HATCH
 10
445.1348722800961
 20
-597.248404795586
 30
0.0
  0
VERTEX
  5
20F23
  8
1HATCH
 10
445.1200202647119
 20
-597.210465958493
 30
0.0
  0
VERTEX
  5
20F24
  8
1HATCH
 10
445.1061004748985
 20
-597.1721693972105
 30
0.0
  0
VERTEX
  5
20F25
  8
1HATCH
 10
445.0931268145389
 20
-597.133537601339
 30
0.0
  0
VERTEX
  5
20F26
  8
1HATCH
 10
445.0811131196594
 20
-597.0945937508928
 30
0.0
  0
VERTEX
  5
20F27
  8
1HATCH
 10
445.0700732262862
 20
-597.0553610258863
 30
0.0
  0
VERTEX
  5
20F28
  8
1HATCH
 10
445.0600209704451
 20
-597.0158626063337
 30
0.0
  0
VERTEX
  5
20F29
  8
1HATCH
 10
445.0509701881622
 20
-596.9761216722494
 30
0.0
  0
VERTEX
  5
20F2A
  8
1HATCH
 10
445.0429347154638
 20
-596.9361614036475
 30
0.0
  0
VERTEX
  5
20F2B
  8
1HATCH
 10
445.0359283883757
 20
-596.8960049805424
 30
0.0
  0
VERTEX
  5
20F2C
  8
1HATCH
 10
445.0299650275981
 20
-596.8556756951583
 30
0.0
  0
VERTEX
  5
20F2D
  8
1HATCH
 10
445.0250578853273
 20
-596.8152010020167
 30
0.0
  0
VERTEX
  5
20F2E
  8
1HATCH
 10
445.0212194906688
 20
-596.7746136497507
 30
0.0
  0
VERTEX
  5
20F2F
  8
1HATCH
 10
445.0184623259225
 20
-596.7339467296792
 30
0.0
  0
VERTEX
  5
20F30
  8
1HATCH
 10
445.016798873388
 20
-596.6932333331214
 30
0.0
  0
VERTEX
  5
20F31
  8
1HATCH
 10
445.0162416153655
 20
-596.6525065513957
 30
0.0
  0
SEQEND
  5
21195
  8
1HATCH
  0
LINE
  5
1F71A
  8
1HATCH
 10
445.0162416153655
 20
-596.6525065513956
 30
0.0
 11
445.0162416153655
 21
-561.4901537664764
 31
0.0
  0
POLYLINE
  5
1F71B
  8
1HATCH
 66
     1
 10
0.0
 20
0.0
 30
0.0
  0
VERTEX
  5
20F32
  8
1HATCH
 10
446.6850652229057
 20
-559.8213301589362
 30
0.0
  0
VERTEX
  5
20F33
  8
1HATCH
 10
446.6443340696597
 20
-559.8218874727512
 30
0.0
  0
VERTEX
  5
20F34
  8
1HATCH
 10
446.6036172017616
 20
-559.8235510811854
 30
0.0
  0
VERTEX
  5
20F35
  8
1HATCH
 10
446.5629478669984
 20
-559.8263084847252
 30
0.0
  0
VERTEX
  5
20F36
  8
1HATCH
 10
446.5223593131572
 20
-559.830147183857
 30
0.0
  0
VERTEX
  5
20F37
  8
1HATCH
 10
446.4818847880252
 20
-559.8350546790668
 30
0.0
  0
VERTEX
  5
20F38
  8
1HATCH
 10
446.4415565388865
 20
-559.8410183430454
 30
0.0
  0
VERTEX
  5
20F39
  8
1HATCH
 10
446.4014005026766
 20
-559.8480247424513
 30
0.0
  0
VERTEX
  5
20F3A
  8
1HATCH
 10
446.3614401626909
 20
-559.8560601305358
 30
0.0
  0
VERTEX
  5
20F3B
  8
1HATCH
 10
446.3216989967453
 20
-559.8651107598496
 30
0.0
  0
VERTEX
  5
20F3C
  8
1HATCH
 10
446.2822004826557
 20
-559.8751628829443
 30
0.0
  0
VERTEX
  5
20F3D
  8
1HATCH
 10
446.2429680982379
 20
-559.886202752371
 30
0.0
  0
VERTEX
  5
20F3E
  8
1HATCH
 10
446.2040253213076
 20
-559.8982166206808
 30
0.0
  0
VERTEX
  5
20F3F
  8
1HATCH
 10
446.1653956296807
 20
-559.911190740425
 30
0.0
  0
VERTEX
  5
20F40
  8
1HATCH
 10
446.1271024953218
 20
-559.9251113634559
 30
0.0
  0
VERTEX
  5
20F41
  8
1HATCH
 10
446.0891677509111
 20
-559.9399645458809
 30
0.0
  0
VERTEX
  5
20F42
  8
1HATCH
 10
446.0516093531714
 20
-559.9557358809826
 30
0.0
  0
VERTEX
  5
20F43
  8
1HATCH
 10
446.014444698757
 20
-559.9724108951671
 30
0.0
  0
VERTEX
  5
20F44
  8
1HATCH
 10
445.9776911843227
 20
-559.9899751148398
 30
0.0
  0
VERTEX
  5
20F45
  8
1HATCH
 10
445.941366206523
 20
-560.0084140664068
 30
0.0
  0
VERTEX
  5
20F46
  8
1HATCH
 10
445.9054871620127
 20
-560.0277132762736
 30
0.0
  0
VERTEX
  5
20F47
  8
1HATCH
 10
445.8700714474462
 20
-560.0478582708463
 30
0.0
  0
VERTEX
  5
20F48
  8
1HATCH
 10
445.8351364594783
 20
-560.0688345765303
 30
0.0
  0
VERTEX
  5
20F49
  8
1HATCH
 10
445.8006995947635
 20
-560.0906277197316
 30
0.0
  0
VERTEX
  5
20F4A
  8
1HATCH
 10
445.7667782499565
 20
-560.1132232268559
 30
0.0
  0
VERTEX
  5
20F4B
  8
1HATCH
 10
445.7333898217119
 20
-560.1366066243089
 30
0.0
  0
VERTEX
  5
20F4C
  8
1HATCH
 10
445.7005517066842
 20
-560.1607634384965
 30
0.0
  0
VERTEX
  5
20F4D
  8
1HATCH
 10
445.6682813015282
 20
-560.1856791958243
 30
0.0
  0
VERTEX
  5
20F4E
  8
1HATCH
 10
445.6365960028984
 20
-560.2113394226981
 30
0.0
  0
VERTEX
  5
20F4F
  8
1HATCH
 10
445.6055132074495
 20
-560.2377296455237
 30
0.0
  0
VERTEX
  5
20F50
  8
1HATCH
 10
445.575050311836
 20
-560.2648353907069
 30
0.0
  0
VERTEX
  5
20F51
  8
1HATCH
 10
445.5452247127126
 20
-560.2926421846535
 30
0.0
  0
VERTEX
  5
20F52
  8
1HATCH
 10
445.5160538067339
 20
-560.3211355537691
 30
0.0
  0
VERTEX
  5
20F53
  8
1HATCH
 10
445.4875548604038
 20
-560.350300895052
 30
0.0
  0
VERTEX
  5
20F54
  8
1HATCH
 10
445.4597434623626
 20
-560.3801219372157
 30
0.0
  0
VERTEX
  5
20F55
  8
1HATCH
 10
445.432634034957
 20
-560.4105812493393
 30
0.0
  0
VERTEX
  5
20F56
  8
1HATCH
 10
445.4062409769587
 20
-560.441661377061
 30
0.0
  0
VERTEX
  5
20F57
  8
1HATCH
 10
445.3805786871391
 20
-560.4733448660191
 30
0.0
  0
VERTEX
  5
20F58
  8
1HATCH
 10
445.35566156427
 20
-560.5056142618521
 30
0.0
  0
VERTEX
  5
20F59
  8
1HATCH
 10
445.3315040071226
 20
-560.5384521101979
 30
0.0
  0
VERTEX
  5
20F5A
  8
1HATCH
 10
445.3081204144688
 20
-560.5718409566949
 30
0.0
  0
VERTEX
  5
20F5B
  8
1HATCH
 10
445.28552518508
 20
-560.6057633469813
 30
0.0
  0
VERTEX
  5
20F5C
  8
1HATCH
 10
445.2637327177278
 20
-560.6402018266956
 30
0.0
  0
VERTEX
  5
20F5D
  8
1HATCH
 10
445.2427574111836
 20
-560.6751389414758
 30
0.0
  0
VERTEX
  5
20F5E
  8
1HATCH
 10
445.2226136642191
 20
-560.7105572369603
 30
0.0
  0
VERTEX
  5
20F5F
  8
1HATCH
 10
445.2033158756059
 20
-560.7464392587874
 30
0.0
  0
VERTEX
  5
20F60
  8
1HATCH
 10
445.1848784441154
 20
-560.7827675525953
 30
0.0
  0
VERTEX
  5
20F61
  8
1HATCH
 10
445.1673157685192
 20
-560.8195246640222
 30
0.0
  0
VERTEX
  5
20F62
  8
1HATCH
 10
445.150642247589
 20
-560.8566931387064
 30
0.0
  0
VERTEX
  5
20F63
  8
1HATCH
 10
445.1348722800961
 20
-560.8942555222862
 30
0.0
  0
VERTEX
  5
20F64
  8
1HATCH
 10
445.120020264712
 20
-560.9321943593791
 30
0.0
  0
VERTEX
  5
20F65
  8
1HATCH
 10
445.1061004748985
 20
-560.9704909206616
 30
0.0
  0
VERTEX
  5
20F66
  8
1HATCH
 10
445.0931268145389
 20
-561.0091227165332
 30
0.0
  0
VERTEX
  5
20F67
  8
1HATCH
 10
445.0811131196595
 20
-561.0480665669793
 30
0.0
  0
VERTEX
  5
20F68
  8
1HATCH
 10
445.0700732262862
 20
-561.0872992919859
 30
0.0
  0
VERTEX
  5
20F69
  8
1HATCH
 10
445.0600209704451
 20
-561.1267977115384
 30
0.0
  0
VERTEX
  5
20F6A
  8
1HATCH
 10
445.0509701881622
 20
-561.1665386456227
 30
0.0
  0
VERTEX
  5
20F6B
  8
1HATCH
 10
445.0429347154638
 20
-561.2064989142247
 30
0.0
  0
VERTEX
  5
20F6C
  8
1HATCH
 10
445.0359283883757
 20
-561.2466553373296
 30
0.0
  0
VERTEX
  5
20F6D
  8
1HATCH
 10
445.0299650275981
 20
-561.2869846227138
 30
0.0
  0
VERTEX
  5
20F6E
  8
1HATCH
 10
445.0250578853273
 20
-561.3274593158554
 30
0.0
  0
VERTEX
  5
20F6F
  8
1HATCH
 10
445.0212194906688
 20
-561.3680466681215
 30
0.0
  0
VERTEX
  5
20F70
  8
1HATCH
 10
445.0184623259225
 20
-561.4087135881928
 30
0.0
  0
VERTEX
  5
20F71
  8
1HATCH
 10
445.016798873388
 20
-561.4494269847509
 30
0.0
  0
VERTEX
  5
20F72
  8
1HATCH
 10
445.0162416153655
 20
-561.4901537664763
 30
0.0
  0
SEQEND
  5
21196
  8
1HATCH
  0
POLYLINE
  5
1F71C
  8
1HATCH
 66
     1
 10
0.0
 20
0.0
 30
0.0
  0
VERTEX
  5
20F73
  8
1HATCH
 10
641.0162416153653
 20
-561.4901539993143
 30
0.0
  0
VERTEX
  5
20F74
  8
1HATCH
 10
641.0156843022592
 20
-561.4494228383074
 30
0.0
  0
VERTEX
  5
20F75
  8
1HATCH
 10
641.0140206958004
 20
-561.4087059625907
 30
0.0
  0
VERTEX
  5
20F76
  8
1HATCH
 10
641.0112632952785
 20
-561.3680366198975
 30
0.0
  0
VERTEX
  5
20F77
  8
1HATCH
 10
641.0074245999829
 20
-561.3274480579606
 30
0.0
  0
VERTEX
  5
20F78
  8
1HATCH
 10
641.0025171092032
 20
-561.2869735245133
 30
0.0
  0
VERTEX
  5
20F79
  8
1HATCH
 10
640.9965534500357
 20
-561.2466452668051
 30
0.0
  0
VERTEX
  5
20F7A
  8
1HATCH
 10
640.989547055684
 20
-561.2064892217968
 30
0.0
  0
VERTEX
  5
20F7B
  8
1HATCH
 10
640.9815116727918
 20
-561.166528872812
 30
0.0
  0
VERTEX
  5
20F7C
  8
1HATCH
 10
640.9724610487027
 20
-561.1267876976943
 30
0.0
  0
VERTEX
  5
20F7D
  8
1HATCH
 10
640.9624089307604
 20
-561.0872891742872
 30
0.0
  0
VERTEX
  5
20F7E
  8
1HATCH
 10
640.9513690663082
 20
-561.0480567804339
 30
0.0
  0
VERTEX
  5
20F7F
  8
1HATCH
 10
640.9393552026901
 20
-561.0091139939777
 30
0.0
  0
VERTEX
  5
20F80
  8
1HATCH
 10
640.9263810872494
 20
-560.9704842927624
 30
0.0
  0
VERTEX
  5
20F81
  8
1HATCH
 10
640.9124604680287
 20
-560.9321911487809
 30
0.0
  0
VERTEX
  5
20F82
  8
1HATCH
 10
640.8976072888407
 20
-560.8942563947869
 30
0.0
  0
VERTEX
  5
20F83
  8
1HATCH
 10
640.8818359563994
 20
-560.8566979875462
 30
0.0
  0
VERTEX
  5
20F84
  8
1HATCH
 10
640.8651609443087
 20
-560.8195333237319
 30
0.0
  0
VERTEX
  5
20F85
  8
1HATCH
 10
640.847596726173
 20
-560.7827798000167
 30
0.0
  0
VERTEX
  5
20F86
  8
1HATCH
 10
640.8291577755969
 20
-560.7464548130731
 30
0.0
  0
VERTEX
  5
20F87
  8
1HATCH
 10
640.809858566184
 20
-560.7105757595743
 30
0.0
  0
VERTEX
  5
20F88
  8
1HATCH
 10
640.7897135715391
 20
-560.675160036193
 30
0.0
  0
VERTEX
  5
20F89
  8
1HATCH
 10
640.7687372652662
 20
-560.6402250396018
 30
0.0
  0
VERTEX
  5
20F8A
  8
1HATCH
 10
640.7469441209697
 20
-560.6057881664736
 30
0.0
  0
VERTEX
  5
20F8B
  8
1HATCH
 10
640.7243486122541
 20
-560.5718668134812
 30
0.0
  0
VERTEX
  5
20F8C
  8
1HATCH
 10
640.7009652127232
 20
-560.5384783772971
 30
0.0
  0
VERTEX
  5
20F8D
  8
1HATCH
 10
640.6768083959815
 20
-560.5056402545944
 30
0.0
  0
VERTEX
  5
20F8E
  8
1HATCH
 10
640.6518926356334
 20
-560.4733698420458
 30
0.0
  0
VERTEX
  5
20F8F
  8
1HATCH
 10
640.626232405283
 20
-560.4416845363239
 30
0.0
  0
VERTEX
  5
20F90
  8
1HATCH
 10
640.5998421785347
 20
-560.4106017341018
 30
0.0
  0
VERTEX
  5
20F91
  8
1HATCH
 10
640.5727364289927
 20
-560.380138832052
 30
0.0
  0
VERTEX
  5
20F92
  8
1HATCH
 10
640.5449296302611
 20
-560.3503132268473
 30
0.0
  0
VERTEX
  5
20F93
  8
1HATCH
 10
640.5164362559445
 20
-560.3211423151607
 30
0.0
  0
VERTEX
  5
20F94
  8
1HATCH
 10
640.4872709090496
 20
-560.2926433635196
 30
0.0
  0
VERTEX
  5
20F95
  8
1HATCH
 10
640.4574498608591
 20
-560.264831960598
 30
0.0
  0
VERTEX
  5
20F96
  8
1HATCH
 10
640.4269905423159
 20
-560.2377225287543
 30
0.0
  0
VERTEX
  5
20F97
  8
1HATCH
 10
640.3959104078053
 20
-560.2113294667685
 30
0.0
  0
VERTEX
  5
20F98
  8
1HATCH
 10
640.3642269117124
 20
-560.1856671734215
 30
0.0
  0
VERTEX
  5
20F99
  8
1HATCH
 10
640.3319575084223
 20
-560.1607500474938
 30
0.0
  0
VERTEX
  5
20F9A
  8
1HATCH
 10
640.2991196523204
 20
-560.1365924877662
 30
0.0
  0
VERTEX
  5
20F9B
  8
1HATCH
 10
640.2657307977919
 20
-560.1132088930189
 30
0.0
  0
VERTEX
  5
20F9C
  8
1HATCH
 10
640.231808399222
 20
-560.0906136620326
 30
0.0
  0
VERTEX
  5
20F9D
  8
1HATCH
 10
640.197369910996
 20
-560.0688211935881
 30
0.0
  0
VERTEX
  5
20F9E
  8
1HATCH
 10
640.1624327874989
 20
-560.0478458864658
 30
0.0
  0
VERTEX
  5
20F9F
  8
1HATCH
 10
640.127014483116
 20
-560.0277021394463
 30
0.0
  0
VERTEX
  5
20FA0
  8
1HATCH
 10
640.0911324522326
 20
-560.0084043513102
 30
0.0
  0
VERTEX
  5
20FA1
  8
1HATCH
 10
640.0548041492341
 20
-559.9899669208384
 30
0.0
  0
VERTEX
  5
20FA2
  8
1HATCH
 10
640.0180470285054
 20
-559.9724042468107
 30
0.0
  0
VERTEX
  5
20FA3
  8
1HATCH
 10
639.9808785444319
 20
-559.9557307280085
 30
0.0
  0
VERTEX
  5
20FA4
  8
1HATCH
 10
639.9433161513988
 20
-559.9399607632118
 30
0.0
  0
VERTEX
  5
20FA5
  8
1HATCH
 10
639.9053773048119
 20
-559.9251087511012
 30
0.0
  0
VERTEX
  5
20FA6
  8
1HATCH
 10
639.8670807340086
 20
-559.9111889651244
 30
0.0
  0
VERTEX
  5
20FA7
  8
1HATCH
 10
639.828448928616
 20
-559.898215309078
 30
0.0
  0
VERTEX
  5
20FA8
  8
1HATCH
 10
639.7895050686843
 20
-559.886201618887
 30
0.0
  0
VERTEX
  5
20FA9
  8
1HATCH
 10
639.7502723342634
 20
-559.8751617304767
 30
0.0
  0
VERTEX
  5
20FAA
  8
1HATCH
 10
639.7107739054037
 20
-559.8651094797725
 30
0.0
  0
VERTEX
  5
20FAB
  8
1HATCH
 10
639.6710329621553
 20
-559.8560587026994
 30
0.0
  0
VERTEX
  5
20FAC
  8
1HATCH
 10
639.6310726845687
 20
-559.8480232351827
 30
0.0
  0
VERTEX
  5
20FAD
  8
1HATCH
 10
639.590916252694
 20
-559.8410169131475
 30
0.0
  0
VERTEX
  5
20FAE
  8
1HATCH
 10
639.5505869587886
 20
-559.835053557192
 30
0.0
  0
VERTEX
  5
20FAF
  8
1HATCH
 10
639.5101122573617
 20
-559.830146419361
 30
0.0
  0
VERTEX
  5
20FB0
  8
1HATCH
 10
639.4695248969978
 20
-559.8263080285423
 30
0.0
  0
VERTEX
  5
20FB1
  8
1HATCH
 10
639.4288579689672
 20
-559.8235508668134
 30
0.0
  0
VERTEX
  5
20FB2
  8
1HATCH
 10
639.3881445645401
 20
-559.8218874162521
 30
0.0
  0
VERTEX
  5
20FB3
  8
1HATCH
 10
639.3474177749871
 20
-559.8213301589362
 30
0.0
  0
SEQEND
  5
21197
  8
1HATCH
  0
LINE
  5
1F71D
  8
1HATCH
 10
639.347418007825
 20
-598.321330158936
 30
0.0
 11
446.6850652229057
 21
-598.321330158936
 31
0.0
  0
LINE
  5
1F71E
  8
1HATCH
 10
641.0162416153653
 20
-561.4901539993143
 30
0.0
 11
641.0162416153653
 21
-596.6525065513956
 31
0.0
  0
POLYLINE
  5
1F71F
  8
1HATCH
 66
     1
 10
0.0
 20
0.0
 30
0.0
  0
VERTEX
  5
20FB4
  8
1HATCH
 10
639.347418007825
 20
-598.321330158936
 30
0.0
  0
VERTEX
  5
20FB5
  8
1HATCH
 10
639.388149161071
 20
-598.320772845121
 30
0.0
  0
VERTEX
  5
20FB6
  8
1HATCH
 10
639.4288660289692
 20
-598.3191092366868
 30
0.0
  0
VERTEX
  5
20FB7
  8
1HATCH
 10
639.4695353637323
 20
-598.316351833147
 30
0.0
  0
VERTEX
  5
20FB8
  8
1HATCH
 10
639.5101239175734
 20
-598.3125131340153
 30
0.0
  0
VERTEX
  5
20FB9
  8
1HATCH
 10
639.5505984427054
 20
-598.3076056388054
 30
0.0
  0
VERTEX
  5
20FBA
  8
1HATCH
 10
639.5909266918441
 20
-598.3016419748268
 30
0.0
  0
VERTEX
  5
20FBB
  8
1HATCH
 10
639.631082728054
 20
-598.2946355754209
 30
0.0
  0
VERTEX
  5
20FBC
  8
1HATCH
 10
639.6710430680397
 20
-598.2866001873365
 30
0.0
  0
VERTEX
  5
20FBD
  8
1HATCH
 10
639.7107842339852
 20
-598.2775495580225
 30
0.0
  0
VERTEX
  5
20FBE
  8
1HATCH
 10
639.7502827480748
 20
-598.2674974349279
 30
0.0
  0
VERTEX
  5
20FBF
  8
1HATCH
 10
639.7895151324926
 20
-598.256457565501
 30
0.0
  0
VERTEX
  5
20FC0
  8
1HATCH
 10
639.8284579094229
 20
-598.2444436971913
 30
0.0
  0
VERTEX
  5
20FC1
  8
1HATCH
 10
639.8670876010498
 20
-598.2314695774471
 30
0.0
  0
VERTEX
  5
20FC2
  8
1HATCH
 10
639.9053807354088
 20
-598.2175489544162
 30
0.0
  0
VERTEX
  5
20FC3
  8
1HATCH
 10
639.9433154798194
 20
-598.2026957719913
 30
0.0
  0
VERTEX
  5
20FC4
  8
1HATCH
 10
639.9808738775591
 20
-598.1869244368896
 30
0.0
  0
VERTEX
  5
20FC5
  8
1HATCH
 10
640.0180385319735
 20
-598.1702494227052
 30
0.0
  0
VERTEX
  5
20FC6
  8
1HATCH
 10
640.0547920464079
 20
-598.1526852030323
 30
0.0
  0
VERTEX
  5
20FC7
  8
1HATCH
 10
640.0911170242075
 20
-598.1342462514655
 30
0.0
  0
VERTEX
  5
20FC8
  8
1HATCH
 10
640.1269960687179
 20
-598.1149470415985
 30
0.0
  0
VERTEX
  5
20FC9
  8
1HATCH
 10
640.1624117832844
 20
-598.0948020470258
 30
0.0
  0
VERTEX
  5
20FCA
  8
1HATCH
 10
640.1973467712523
 20
-598.0738257413418
 30
0.0
  0
VERTEX
  5
20FCB
  8
1HATCH
 10
640.2317836359671
 20
-598.0520325981405
 30
0.0
  0
VERTEX
  5
20FCC
  8
1HATCH
 10
640.2657049807741
 20
-598.0294370910162
 30
0.0
  0
VERTEX
  5
20FCD
  8
1HATCH
 10
640.2990934090188
 20
-598.0060536935633
 30
0.0
  0
VERTEX
  5
20FCE
  8
1HATCH
 10
640.3319315240465
 20
-597.9818968793757
 30
0.0
  0
VERTEX
  5
20FCF
  8
1HATCH
 10
640.3642019292025
 20
-597.956981122048
 30
0.0
  0
VERTEX
  5
20FD0
  8
1HATCH
 10
640.3958872278323
 20
-597.931320895174
 30
0.0
  0
VERTEX
  5
20FD1
  8
1HATCH
 10
640.4269700232811
 20
-597.9049306723483
 30
0.0
  0
VERTEX
  5
20FD2
  8
1HATCH
 10
640.4574329188947
 20
-597.8778249271651
 30
0.0
  0
VERTEX
  5
20FD3
  8
1HATCH
 10
640.487258518018
 20
-597.8500181332187
 30
0.0
  0
VERTEX
  5
20FD4
  8
1HATCH
 10
640.5164294239968
 20
-597.821524764103
 30
0.0
  0
VERTEX
  5
20FD5
  8
1HATCH
 10
640.5449283703268
 20
-597.7923594228203
 30
0.0
  0
VERTEX
  5
20FD6
  8
1HATCH
 10
640.5727397683681
 20
-597.7625383806565
 30
0.0
  0
VERTEX
  5
20FD7
  8
1HATCH
 10
640.5998491957737
 20
-597.7320790685329
 30
0.0
  0
VERTEX
  5
20FD8
  8
1HATCH
 10
640.6262422537719
 20
-597.700998940811
 30
0.0
  0
VERTEX
  5
20FD9
  8
1HATCH
 10
640.6519045435915
 20
-597.6693154518529
 30
0.0
  0
VERTEX
  5
20FDA
  8
1HATCH
 10
640.6768216664607
 20
-597.63704605602
 30
0.0
  0
VERTEX
  5
20FDB
  8
1HATCH
 10
640.700979223608
 20
-597.6042082076742
 30
0.0
  0
VERTEX
  5
20FDC
  8
1HATCH
 10
640.7243628162618
 20
-597.5708193611772
 30
0.0
  0
VERTEX
  5
20FDD
  8
1HATCH
 10
640.7469580456504
 20
-597.5368969708907
 30
0.0
  0
VERTEX
  5
20FDE
  8
1HATCH
 10
640.7687505130028
 20
-597.5024584911764
 30
0.0
  0
VERTEX
  5
20FDF
  8
1HATCH
 10
640.7897258195469
 20
-597.4675213763962
 30
0.0
  0
VERTEX
  5
20FE0
  8
1HATCH
 10
640.8098695665115
 20
-597.4321030809117
 30
0.0
  0
VERTEX
  5
20FE1
  8
1HATCH
 10
640.8291673551246
 20
-597.3962210590846
 30
0.0
  0
VERTEX
  5
20FE2
  8
1HATCH
 10
640.8476047866151
 20
-597.3598927652769
 30
0.0
  0
VERTEX
  5
20FE3
  8
1HATCH
 10
640.8651674622113
 20
-597.3231356538499
 30
0.0
  0
VERTEX
  5
20FE4
  8
1HATCH
 10
640.8818409831415
 20
-597.2859671791657
 30
0.0
  0
VERTEX
  5
20FE5
  8
1HATCH
 10
640.8976109506344
 20
-597.2484047955859
 30
0.0
  0
VERTEX
  5
20FE6
  8
1HATCH
 10
640.9124629660186
 20
-597.2104659584929
 30
0.0
  0
VERTEX
  5
20FE7
  8
1HATCH
 10
640.9263827558322
 20
-597.1721693972104
 30
0.0
  0
VERTEX
  5
20FE8
  8
1HATCH
 10
640.9393564161916
 20
-597.1335376013391
 30
0.0
  0
VERTEX
  5
20FE9
  8
1HATCH
 10
640.951370111071
 20
-597.0945937508928
 30
0.0
  0
VERTEX
  5
20FEA
  8
1HATCH
 10
640.9624100044443
 20
-597.0553610258863
 30
0.0
  0
VERTEX
  5
20FEB
  8
1HATCH
 10
640.9724622602854
 20
-597.0158626063337
 30
0.0
  0
VERTEX
  5
20FEC
  8
1HATCH
 10
640.9815130425683
 20
-596.9761216722493
 30
0.0
  0
VERTEX
  5
20FED
  8
1HATCH
 10
640.9895485152668
 20
-596.9361614036476
 30
0.0
  0
VERTEX
  5
20FEE
  8
1HATCH
 10
640.996554842355
 20
-596.8960049805426
 30
0.0
  0
VERTEX
  5
20FEF
  8
1HATCH
 10
641.0025182031326
 20
-596.8556756951583
 30
0.0
  0
VERTEX
  5
20FF0
  8
1HATCH
 10
641.0074253454034
 20
-596.8152010020167
 30
0.0
  0
VERTEX
  5
20FF1
  8
1HATCH
 10
641.0112637400618
 20
-596.7746136497508
 30
0.0
  0
VERTEX
  5
20FF2
  8
1HATCH
 10
641.0140209048083
 20
-596.7339467296794
 30
0.0
  0
VERTEX
  5
20FF3
  8
1HATCH
 10
641.0156843573427
 20
-596.6932333331214
 30
0.0
  0
VERTEX
  5
20FF4
  8
1HATCH
 10
641.0162416153653
 20
-596.6525065513957
 30
0.0
  0
SEQEND
  5
21198
  8
1HATCH
  0
LINE
  5
1F720
  8
1HATCH
 10
616.0162416368655
 20
-559.8213301589362
 30
0.0
 11
639.3474177749871
 21
-559.8213301589362
 31
0.0
  0
LINE
  5
1F721
  8
1HATCH
 10
446.6850652229057
 20
-559.8213301589362
 30
0.0
 11
470.0162416368655
 21
-559.8213301589362
 31
0.0
  0
LINE
  5
1F722
  8
1HATCH
 10
452.2930321686713
 20
-562.6213301589362
 30
0.0
 11
470.0162416368655
 21
-562.6213301589362
 31
0.0
  0
LINE
  5
1F723
  8
1HATCH
 10
616.0162416368655
 20
-562.6213301589362
 30
0.0
 11
633.7394511050599
 21
-562.6213301589362
 31
0.0
  0
LINE
  5
1F724
  8
01
 10
616.0162416368655
 20
-559.8213301589362
 30
0.0
 11
616.0162416368655
 21
-562.6213301589362
 31
0.0
  0
LINE
  5
1F725
  8
01
 10
633.7162416153653
 20
-565.3213309894525
 30
0.0
 11
616.0162416368655
 21
-565.3213309894525
 31
0.0
  0
LINE
  5
1F726
  8
01
 10
470.0162416368655
 20
-565.3213309894525
 30
0.0
 11
452.3069576818859
 21
-565.3213309894525
 31
0.0
  0
LINE
  5
1F727
  8
01
 10
616.0162416368655
 20
-562.6213301589362
 30
0.0
 11
616.0162416368655
 21
-565.3213309894525
 31
0.0
  0
LINE
  5
1F728
  8
01
 10
470.0162416368655
 20
-559.0538759742462
 30
0.0
 11
470.0162416368655
 21
-565.3213309894525
 31
0.0
  0
LINE
  5
1F729
  8
01
 10
616.0162416368655
 20
-559.8213301589362
 30
0.0
 11
616.0162416368655
 21
-559.0538759742462
 31
0.0
  0
LINE
  5
1F72A
  8
01
 10
618.0162416368655
 20
-555.8213303512664
 30
0.0
 11
618.0162416368655
 21
-559.0538759742462
 31
0.0
  0
LINE
  5
1F72B
  8
01
 10
618.0162416368655
 20
-559.0538759742462
 30
0.0
 11
616.0162416368655
 21
-559.0538759742462
 31
0.0
  0
LINE
  5
1F72C
  8
01
 10
468.0162416368655
 20
-555.8213303512664
 30
0.0
 11
468.0162416368655
 21
-559.0538759742462
 31
0.0
  0
LINE
  5
1F72D
  8
01
 10
470.0162416368655
 20
-559.0538759742462
 30
0.0
 11
468.0162416368655
 21
-559.0538759742462
 31
0.0
  0
LINE
  5
1F72E
  8
01
 10
618.0162416368655
 20
-555.8213303512664
 30
0.0
 11
468.0162416368655
 21
-555.8213303512664
 31
0.0
  0
LINE
  5
1F72F
  8
01
 10
447.0162399140684
 20
-600.3213310768751
 30
0.0
 11
639.0162433166623
 21
-600.3213310768751
 31
0.0
  0
LINE
  5
1F730
  8
01
 10
643.0162416153653
 20
-561.8213293755784
 30
0.0
 11
643.0162416153653
 21
-596.3213327781723
 31
0.0
  0
ARC
  5
1F731
  8
01
 10
-639.0162256091779
 20
-596.3213150706877
 30
0.0
 40
4.000015238955783
 50
180.0002536400665
 51
269.999746359712
210
0.0
220
0.0
230
-1.0
  0
LINE
  5
1F732
  8
01
 10
447.0162399140684
 20
-557.8213310768754
 30
0.0
 11
468.0162416368655
 21
-557.8213310768754
 31
0.0
  0
LINE
  5
1F733
  8
01
 10
618.0162416368655
 20
-557.8213310768754
 30
0.0
 11
639.0162433166622
 21
-557.8213310768754
 31
0.0
  0
ARC
  5
1F734
  8
01
 10
-639.0162256091788
 20
-561.8213470830622
 30
0.0
 40
4.000015238954952
 50
90.00025364005346
 51
179.9997463597186
210
0.0
220
0.0
230
-1.0
  0
LINE
  5
1F735
  8
01
 10
443.0162416153655
 20
-561.8213293755782
 30
0.0
 11
443.0162416153655
 21
-596.3213327781721
 31
0.0
  0
ARC
  5
1F736
  8
01
 10
-447.0162576215519
 20
-561.8213470830622
 30
0.0
 40
4.000015238955123
 50
0.0002536400599727
 51
89.99974635972508
210
0.0
220
0.0
230
-1.0
  0
ARC
  5
1F737
  8
01
 10
447.0162576215528
 20
-596.3213150706883
 30
0.0
 40
4.000015238955499
 50
180.0002536400534
 51
269.999746359712
  0
LINE
  5
1F745
  8
01
 10
470.2162416368656
 20
-565.3213373538306
 30
0.0
 11
615.8162416368655
 21
-565.3213309894525
 31
0.0
  0
LINE
  5
1F746
  8
01
 10
470.9688833401935
 20
-562.5950568696398
 30
0.0
 11
615.2995140642763
 21
-562.5950505607475
 31
0.0
  0
LINE
  5
1F747
  8
01
 10
615.816241517696
 20
-562.5950505381606
 30
0.0
 11
615.8162416368655
 21
-565.3213309894525
 31
0.0
  0
LINE
  5
1F748
  8
01
 10
470.9688832295922
 20
-560.0647945965865
 30
0.0
 11
615.2995139536749
 21
-560.0647882876942
 31
0.0
  0
LINE
  5
1F749
  8
01
 10
615.8162414070948
 20
-560.0647882651074
 30
0.0
 11
615.816241517696
 21
-562.5950505381606
 31
0.0
  0
LINE
  5
1F74A
  8
01
 10
470.2162413733208
 20
-559.2921362385118
 30
0.0
 11
615.8162413733207
 21
-559.2921298741337
 31
0.0
  0
LINE
  5
1F74B
  8
01
 10
615.8162413733207
 20
-559.2921298741337
 30
0.0
 11
615.8162414070948
 21
-560.0647882651074
 31
0.0
  0
LINE
  5
1F74C
  8
01
 10
470.2162413733208
 20
-559.2921362385118
 30
0.0
 11
470.2162416368656
 21
-565.3213373538306
 31
0.0
  0
LINE
  5
1F758
  8
1CENTER
 10
493.0162426614874
 20
-651.8249128565848
 30
0.0
 11
493.0162377644708
 21
-657.651318415124
 31
0.0
  0
LINE
  5
1F759
  8
1CENTER
 10
496.1406951334743
 20
-655.0051540866507
 30
0.0
 11
489.7358557806454
 21
-655.0051529667933
 31
0.0
  0
LINE
  5
1F75A
  8
1CENTER
 10
543.0162440872011
 20
-653.4572660917592
 30
0.0
 11
543.0162391901846
 21
-659.2836716502984
 31
0.0
  0
LINE
  5
1F75B
  8
1CENTER
 10
546.1406965591881
 20
-656.6375073218252
 30
0.0
 11
539.735857206359
 21
-656.6375062019677
 31
0.0
  0
LINE
  5
1F75C
  8
1CENTER
 10
593.0162426614872
 20
-651.8249128565848
 30
0.0
 11
593.0162377644708
 21
-657.651318415124
 31
0.0
  0
LINE
  5
1F75D
  8
1CENTER
 10
596.1406951334743
 20
-655.0051540866507
 30
0.0
 11
589.7358557806454
 21
-655.0051529667933
 31
0.0
  0
LINE
  5
1F76B
  8
1CENTER
 10
493.0162418942167
 20
-570.0930210698433
 30
0.0
 11
493.0162418942167
 21
-549.0822700571598
 31
0.0
  0
LINE
  5
1F76C
  8
1CENTER
 10
543.0162433199305
 20
-570.0930210698433
 30
0.0
 11
543.0162433199305
 21
-549.0822700571598
 31
0.0
  0
LINE
  5
1F76D
  8
1CENTER
 10
593.0162418942166
 20
-570.0930210698433
 30
0.0
 11
593.0162418942166
 21
-549.0822700571598
 31
0.0
  0
LINE
  5
1F86D
  8
1PHANTOM
 10
737.5562619145275
 20
-647.7057187362766
 30
0.0
 11
732.0628640890308
 21
-648.1088853710257
 31
0.0
  0
LINE
  5
1F86E
  8
01
  6
BYBLOCK
 10
732.0628640890308
 20
-648.1088853710257
 30
0.0
 11
713.0162416494617
 21
-655.0412890023349
 31
0.0
  0
LINE
  5
1F86F
  8
1PHANTOM
 10
713.0278555568483
 20
-655.0370618857428
 30
0.0
 11
708.8524563557202
 21
-656.5567829111321
 31
0.0
  0
LINE
  5
1F870
  8
1PHANTOM
 10
737.5562619145275
 20
-647.7057187362766
 30
0.0
 11
733.0889179595928
 21
-650.9279656208155
 31
0.0
  0
LINE
  5
1F871
  8
1PHANTOM
 10
709.1080971466887
 20
-654.3353322051353
 30
0.0
 11
711.5022228446641
 21
-660.9131861213116
 31
0.0
  0
LINE
  5
1F872
  8
1PHANTOM
 10
733.0889179595928
 20
-650.9279656208155
 30
0.0
 11
712.8855266126851
 21
-658.2813987023198
 31
0.0
  0
LINE
  5
1F873
  8
1PHANTOM
 10
712.8855266126851
 20
-658.2813987023201
 30
0.0
 11
709.878510226281
 21
-659.3758631609219
 31
0.0
  0
LINE
  5
1F874
  8
1PHANTOM
 10
709.1080971466887
 20
-654.3353322051353
 30
0.0
 11
707.1347393633249
 21
-655.053575699837
 31
0.0
  0
LINE
  5
1F875
  8
1PHANTOM
 10
708.1684054012891
 20
-654.6773547535905
 30
0.0
 11
710.5625302238756
 21
-661.2552062646382
 31
0.0
  0
ARC
  5
1F876
  8
1PHANTOM
 10
707.6477695783132
 20
-656.4631146310157
 30
0.0
 40
1.5
 50
109.9999999999892
 51
199.9998666844637
  0
LINE
  5
1F877
  8
1PHANTOM
 10
711.5022228446641
 20
-660.9131861213116
 30
0.0
 11
709.5288716207161
 21
-661.6314272285813
 31
0.0
  0
LINE
  5
1F878
  8
1PHANTOM
 10
706.2382294534222
 20
-656.9761415662947
 30
0.0
 11
707.6063012808366
 21
-660.7349152326815
 31
0.0
  0
ARC
  5
1F879
  8
1PHANTOM
 10
709.0158414057279
 20
-660.2218882974023
 30
0.0
 40
1.5
 50
199.9998666844707
 51
289.9999999999893
  0
LINE
  5
1F87A
  8
1CENTER
 10
740.3385955905429
 20
-646.6929825739423
 30
0.0
 11
705.9165357168157
 21
-659.2215877701065
 31
0.0
  0
LINE
  5
1F87B
  8
1PHANTOM
 10
735.2086130997155
 20
-647.3955884241655
 30
0.0
 11
736.6315210341057
 21
-648.9659656736771
 31
0.0
  0
LINE
  5
1F87C
  8
1PHANTOM
 10
736.6315210341057
 20
-648.9659656736771
 30
0.0
 11
736.7232864288982
 21
-648.3065349462086
 31
0.0
  0
LINE
  5
1F87D
  8
1PHANTOM
 10
713.8497567915109
 20
-654.2058254145809
 30
0.0
 11
715.9695827155521
 21
-657.6909829663075
 31
0.0
  0
LINE
  5
1F87E
  8
1PHANTOM
 10
724.3743141443173
 20
-650.3751998093323
 30
0.0
 11
726.4941400683625
 21
-653.8603573610576
 31
0.0
  0
LINE
  5
1F87F
  8
1PHANTOM
 10
727.3813305308323
 20
-649.2807353506903
 30
0.0
 11
729.5011564548776
 21
-652.7658929024155
 31
0.0
  0
LINE
  5
1F880
  8
1PHANTOM
 10
729.5011564548776
 20
-652.7658929024155
 30
0.0
 11
729.4241167385293
 21
-652.2618441797847
 31
0.0
  0
LINE
  5
1F881
  8
1PHANTOM
 10
728.9618784404382
 20
-649.2375518440001
 30
0.0
 11
728.8848387240897
 21
-648.7335031213693
 31
0.0
  0
LINE
  5
1F882
  8
1PHANTOM
 10
726.4941400683625
 20
-653.8603573610576
 30
0.0
 11
726.4171003520142
 21
-653.3563086384268
 31
0.0
  0
LINE
  5
1F883
  8
1PHANTOM
 10
727.9976482616202
 20
-653.3131251317366
 30
0.0
 11
727.9206085452716
 21
-652.8090764091057
 31
0.0
  0
LINE
  5
1F884
  8
1PHANTOM
 10
727.4583702471808
 20
-649.7847840733209
 30
0.0
 11
727.3813305308323
 21
-649.2807353506903
 31
0.0
  0
LINE
  5
1F885
  8
1PHANTOM
 10
725.9548620539234
 20
-650.3320163026419
 30
0.0
 11
725.8778223375749
 21
-649.8279675800113
 31
0.0
  0
LINE
  5
1F886
  8
1PHANTOM
 10
725.8778223375749
 20
-649.8279675800113
 30
0.0
 11
727.9976482616202
 21
-653.3131251317366
 31
0.0
  0
LINE
  5
1F887
  8
1PHANTOM
 10
735.2828833956718
 20
-649.9387043358513
 30
0.0
 11
735.2659160811537
 21
-649.3577204179364
 31
0.0
  0
LINE
  5
1F888
  8
1PHANTOM
 10
732.5081728413926
 20
-651.6714284437735
 30
0.0
 11
732.4311331250441
 21
-651.1673797211429
 31
0.0
  0
LINE
  5
1F889
  8
1PHANTOM
 10
731.0046646481352
 20
-652.2186606730945
 30
0.0
 11
730.9276249317865
 21
-651.7146119504639
 31
0.0
  0
LINE
  5
1F88A
  8
1PHANTOM
 10
733.934245757238
 20
-650.9114429980254
 30
0.0
 11
733.8721946116394
 21
-650.3629966421001
 31
0.0
  0
LINE
  5
1F88B
  8
1PHANTOM
 10
733.6043649777156
 20
-647.9957528899099
 30
0.0
 11
733.5502345555996
 21
-647.5173147810274
 31
0.0
  0
LINE
  5
1F88C
  8
1PHANTOM
 10
730.4653866336959
 20
-648.6903196146791
 30
0.0
 11
730.3883469173473
 21
-648.1862708920482
 31
0.0
  0
LINE
  5
1F88D
  8
1PHANTOM
 10
731.9688948269533
 20
-648.1430873853581
 30
0.0
 11
731.8918551106048
 21
-647.6390386627272
 31
0.0
  0
LINE
  5
1F88E
  8
1PHANTOM
 10
735.2226719777346
 20
-647.8769835220407
 30
0.0
 11
735.2086130997155
 21
-647.3955884241655
 31
0.0
  0
LINE
  5
1F88F
  8
1PHANTOM
 10
733.5502345555996
 20
-647.5173147810274
 30
0.0
 11
735.2828833956718
 21
-649.9387043358513
 31
0.0
  0
LINE
  5
1F890
  8
1PHANTOM
 10
730.3883469173473
 20
-648.1862708920482
 30
0.0
 11
732.5081728413926
 21
-651.6714284437735
 31
0.0
  0
LINE
  5
1F891
  8
1PHANTOM
 10
731.8918551106048
 20
-647.6390386627272
 30
0.0
 11
733.934245757238
 21
-650.9114429980254
 31
0.0
  0
LINE
  5
1F892
  8
1PHANTOM
 10
728.8848387240897
 20
-648.7335031213693
 30
0.0
 11
731.0046646481352
 21
-652.2186606730945
 31
0.0
  0
LINE
  5
1F893
  8
1PHANTOM
 10
716.856773178026
 20
-653.1113609559388
 30
0.0
 11
718.9765991020671
 21
-656.5965185076657
 31
0.0
  0
LINE
  5
1F894
  8
1PHANTOM
 10
718.9765991020671
 20
-656.5965185076657
 30
0.0
 11
718.899559385719
 21
-656.0924697850346
 31
0.0
  0
LINE
  5
1F895
  8
1PHANTOM
 10
718.4373210876355
 20
-653.0681774492473
 30
0.0
 11
718.3602813712874
 21
-652.5641287266162
 31
0.0
  0
LINE
  5
1F896
  8
1PHANTOM
 10
717.4730909088095
 20
-657.1437507369867
 30
0.0
 11
717.3960511924614
 21
-656.6397020143556
 31
0.0
  0
LINE
  5
1F897
  8
1PHANTOM
 10
715.9695827155521
 20
-657.6909829663075
 30
0.0
 11
715.892542999204
 21
-657.1869342436767
 31
0.0
  0
LINE
  5
1F898
  8
1PHANTOM
 10
716.933812894374
 20
-653.6154096785697
 30
0.0
 11
716.856773178026
 21
-653.1113609559388
 31
0.0
  0
LINE
  5
1F899
  8
1PHANTOM
 10
715.4303047011164
 20
-654.1626419078907
 30
0.0
 11
715.3532649847683
 21
-653.6585931852599
 31
0.0
  0
LINE
  5
1F89A
  8
1PHANTOM
 10
715.3532649847683
 20
-653.6585931852599
 30
0.0
 11
717.4730909088095
 21
-657.1437507369867
 31
0.0
  0
LINE
  5
1F89B
  8
1PHANTOM
 10
723.4871236818436
 20
-654.954821819701
 30
0.0
 11
723.4100839654956
 21
-654.4507730970702
 31
0.0
  0
LINE
  5
1F89C
  8
1PHANTOM
 10
724.9906318751054
 20
-654.4075895903786
 30
0.0
 11
724.9135921587566
 21
-653.9035408677478
 31
0.0
  0
LINE
  5
1F89D
  8
1PHANTOM
 10
720.4801072953286
 20
-656.0492862783431
 30
0.0
 11
720.4030675789808
 21
-655.5452375557122
 31
0.0
  0
LINE
  5
1F89E
  8
1PHANTOM
 10
721.983615488586
 20
-655.502054049022
 30
0.0
 11
721.9065757722382
 21
-654.9980053263912
 31
0.0
  0
LINE
  5
1F89F
  8
1PHANTOM
 10
724.4513538606658
 20
-650.879248531963
 30
0.0
 11
724.3743141443173
 21
-650.3751998093323
 31
0.0
  0
LINE
  5
1F8A0
  8
1PHANTOM
 10
722.9478456674079
 20
-651.4264807612842
 30
0.0
 11
722.8708059510599
 21
-650.9224320386531
 31
0.0
  0
LINE
  5
1F8A1
  8
1PHANTOM
 10
719.9408292808929
 20
-652.5209452199263
 30
0.0
 11
719.8637895645448
 21
-652.0168964972952
 31
0.0
  0
LINE
  5
1F8A2
  8
1PHANTOM
 10
721.4443374741505
 20
-651.9737129906052
 30
0.0
 11
721.3672977578025
 21
-651.4696642679742
 31
0.0
  0
LINE
  5
1F8A3
  8
1PHANTOM
 10
721.3672977578025
 20
-651.4696642679742
 30
0.0
 11
723.4871236818436
 21
-654.954821819701
 31
0.0
  0
LINE
  5
1F8A4
  8
1PHANTOM
 10
722.8708059510599
 20
-650.9224320386531
 30
0.0
 11
724.9906318751054
 21
-654.4075895903786
 31
0.0
  0
LINE
  5
1F8A5
  8
1PHANTOM
 10
719.8637895645448
 20
-652.0168964972952
 30
0.0
 11
721.983615488586
 21
-655.502054049022
 31
0.0
  0
LINE
  5
1F8A6
  8
1PHANTOM
 10
718.3602813712874
 20
-652.5641287266162
 30
0.0
 11
720.4801072953286
 21
-656.0492862783431
 31
0.0
  0
LINE
  5
1F8A7
  8
1PHANTOM
 10
709.4162719280827
 20
-656.3515708251762
 30
0.0
 11
709.3392322117346
 21
-655.8475221025451
 31
0.0
  0
LINE
  5
1F8A8
  8
1PHANTOM
 10
709.3392322117346
 20
-655.8475221025451
 30
0.0
 11
711.4590581357758
 21
-659.3326796542719
 31
0.0
  0
LINE
  5
1F8A9
  8
1PHANTOM
 10
711.4590581357758
 20
-659.3326796542719
 30
0.0
 11
711.3820184194277
 21
-658.8286309316411
 31
0.0
  0
LINE
  5
1F8AA
  8
1PHANTOM
 10
710.9197801213398
 20
-655.8043385958551
 30
0.0
 11
710.842740404992
 21
-655.3002898732243
 31
0.0
  0
LINE
  5
1F8AB
  8
1PHANTOM
 10
712.4232883145972
 20
-655.2571063665341
 30
0.0
 11
712.3462485982494
 21
-654.7530576439033
 31
0.0
  0
LINE
  5
1F8AC
  8
1PHANTOM
 10
712.3462485982494
 20
-654.7530576439033
 30
0.0
 11
713.0170108074113
 21
-655.8558425245676
 31
0.0
  0
LINE
  5
1F8AD
  8
1PHANTOM
 10
713.0170108074111
 20
-655.8558425245676
 30
0.0
 11
714.4660745222906
 21
-658.2382151956301
 31
0.0
  0
LINE
  5
1F8AE
  8
1PHANTOM
 10
712.9625663290332
 20
-658.7854474249511
 30
0.0
 11
712.8855266126851
 21
-658.2813987023201
 31
0.0
  0
LINE
  5
1F8AF
  8
1PHANTOM
 10
714.4660745222906
 20
-658.2382151956301
 30
0.0
 11
714.3890348059425
 21
-657.734166472999
 31
0.0
  0
LINE
  5
1F8B0
  8
1PHANTOM
 10
710.842740404992
 20
-655.3002898732243
 30
0.0
 11
712.9625663290332
 21
-658.7854474249511
 31
0.0
  0
LINE
  5
1F8B1
  8
1PHANTOM
 10
713.926796507859
 20
-654.7098741372117
 30
0.0
 11
713.8497567915109
 21
-654.2058254145809
 31
0.0
  0
LINE
  5
1F8B2
  8
01
 10
671.2034079727706
 20
-645.3213298426958
 30
0.0
 11
708.3273024793415
 21
-645.3213314654333
 31
0.0
  0
LINE
  5
1F8B3
  8
01
 10
713.0162412618484
 20
-666.3213316703934
 30
0.0
 11
671.2051754185992
 21
-666.3213298427731
 31
0.0
  0
ARC
  5
1F8B4
  8
01
 10
682.453736238864
 20
-655.8213303344633
 30
0.0
 40
28.5625
 50
339.8382714944373
 51
20.16172349660334
  0
ARC
  5
1F8B5
  8
01
 10
708.3273016051133
 20
-665.3213314654333
 30
0.0
 40
1.0
 50
269.9999974955215
 51
339.8382714944373
  0
ARC
  5
1F8B6
  8
01
 10
708.32730243563
 20
-646.3213314654333
 30
0.0
 40
1.0
 50
20.16172349660334
 51
89.99999749551827
  0
LINE
  5
1F8B7
  8
1PHANTOM
 10
711.5022365123275
 20
-650.7294779331028
 30
0.0
 11
709.1080952215208
 21
-657.3073261739526
 31
0.0
  0
ARC
  5
1F8B8
  8
01
 10
697.0787416153647
 20
-655.8213309737425
 30
0.0
 40
28.5625
 50
159.8382714944373
 51
200.1617234966103
  0
ARC
  5
1F8B9
  8
01
 10
671.2051754185992
 20
-665.3213298427731
 30
0.0
 40
1.0
 50
200.1617234966103
 51
269.9999974955182
  0
ARC
  5
1F8BA
  8
01
 10
671.2051762491154
 20
-646.3213298427731
 30
0.0
 40
1.0
 50
89.99999749551827
 51
159.8382714944373
  0
LINE
  5
1F8BB
  8
01
 10
709.7836909786887
 20
-647.5213315290935
 30
0.0
 11
713.0162419781694
 21
-647.5213316703928
 31
0.0
  0
LINE
  5
1F8BC
  8
01
 10
713.0162419781694
 20
-647.5213316703928
 30
0.0
 11
713.0162411563953
 21
-666.3213316703927
 31
0.0
  0
LINE
  5
1F8BE
  8
1PHANTOM
 10
710.562543747778
 20
-650.3874577374515
 30
0.0
 11
711.5022363685638
 21
-650.729477880777
 31
0.0
  0
LINE
  5
1F8BF
  8
1PHANTOM
 10
708.1683874391944
 20
-656.9653005122775
 30
0.0
 11
709.1080953652844
 21
-657.3073262262783
 31
0.0
  0
LINE
  5
1F8C1
  8
1CENTER
 10
705.0449475174516
 20
-655.8213309737425
 30
0.0
 11
714.0830740618453
 21
-655.8213309737425
 31
0.0
  0
LINE
  5
20C00
  8
1DIM
 10
439.7299313720666
 20
-537.8272375149052
 30
0.0
 11
509.7299313720666
 21
-537.8272375149052
 31
0.0
  0
LINE
  5
20C01
  8
1DIM
 10
439.7299313720666
 20
-530.8272375149052
 30
0.0
 11
509.7299313720666
 21
-530.8272375149052
 31
0.0
  0
LINE
  5
20C02
  8
1DIM
 10
474.7299313720664
 20
-530.8272375149052
 30
0.0
 11
474.7299313720662
 21
-537.8272375149052
 31
0.0
  0
LINE
  5
20C04
  8
1DIM
 10
439.7299313720666
 20
-537.8272375149052
 30
0.0
 11
439.7299313720666
 21
-530.8272375149052
 31
0.0
  0
LINE
  5
20C05
  8
1DIM
 10
509.7299313720664
 20
-537.8272375149052
 30
0.0
 11
509.7299313720665
 21
-530.8272375149052
 31
0.0
  0
TEXT
  5
20C06
  8
1TEXT
 10
440.8632647054001
 20
-536.1625261744294
 30
0.0
 40
4.0
  1
マットブラック
 72
     1
 11
457.1299313720667
 21
-536.1625261744294
 31
0.0
  0
TEXT
  5
20C07
  8
1TEXT
 10
477.729931372067
 20
-536.5415944985544
 30
0.0
 40
4.0
  1
SC-481-003
 41
0.8
 72
     1
 11
492.1299313720669
 21
-536.5415944985544
 31
0.0
  0
LINE
  5
20C45
  8
1DIM
 10
439.7299313720666
 20
-530.8272375149052
 30
0.0
 11
509.7299313720666
 21
-530.8272375149052
 31
0.0
  0
LINE
  5
20C46
  8
1DIM
 10
439.7299313720666
 20
-523.8272375149052
 30
0.0
 11
509.7299313720666
 21
-523.8272375149052
 31
0.0
  0
LINE
  5
20C47
  8
1DIM
 10
474.7299313720664
 20
-523.8272375149052
 30
0.0
 11
474.7299313720662
 21
-530.8272375149052
 31
0.0
  0
LINE
  5
20C48
  8
1DIM
 10
439.7299313720666
 20
-530.8272375149052
 30
0.0
 11
439.7299313720666
 21
-523.8272375149052
 31
0.0
  0
LINE
  5
20C49
  8
1DIM
 10
509.7299313720664
 20
-530.8272375149052
 30
0.0
 11
509.7299313720665
 21
-523.8272375149052
 31
0.0
  0
TEXT
  5
20C4A
  8
1TEXT
 10
440.3832647054001
 20
-529.1625261744294
 30
0.0
 40
4.0
  1
セラミックホワイト
 41
0.8
 72
     1
 11
457.1299313720667
 21
-529.1625261744294
 31
0.0
  0
TEXT
  5
20C4B
  8
1TEXT
 10
478.2632647054003
 20
-529.5415944985544
 30
0.0
 40
4.0
  1
SC-481-001
 41
0.8
 72
     1
 11
492.1299313720669
 21
-529.5415944985544
 31
0.0
  0
TEXT
  5
20C66
  8
01
  6
CONTINUOUS
 10
719.7537571261875
 20
-611.3902613041472
 30
0.0
 40
3.5
  1
PB
  0
TEXT
  5
20C67
  8
01
  6
CONTINUOUS
 10
732.8891752713527
 20
-611.3902613041472
 30
0.0
 40
3.5
  1
合板9mm以上
  0
SOLID
  5
20C68
  8
1DIM
 10
619.3574119567671
 20
-644.2416461972541
 30
0.0
 11
619.6389620890939
 21
-646.2495905774842
 31
0.0
 12
618.7214056784399
 22
-644.4414972877508
 32
0.0
 13
618.7214056784399
 23
-644.4414972877508
 33
0.0
1001
ACAD
1000
DSTYLE
1002
{
1070
    45
1040
0.5
1002
}
  0
LINE
  5
20C69
  8
1DIM
 10
619.0394088176034
 20
-644.3415717425025
 30
0.0
 11
614.807722625075
 21
-630.8746500476129
 31
0.0
1001
ACAD
1000
DSTYLE
1002
{
1070
    45
1040
0.5
1002
}
  0
LINE
  5
20C6A
  8
1DIM
 10
614.807722625075
 20
-630.8746500476129
 30
0.0
 11
567.5410559584084
 21
-630.8746500476129
 31
0.0
1001
ACAD
1000
DSTYLE
1002
{
1070
    45
1040
0.5
1002
}
  0
TEXT
  5
20C6B
  8
1DIM
  6
CONTINUOUS
 10
567.3077226250749
 20
-624.3413167142795
 30
0.0
 40
3.5
  1
材質：亜鉛ダイキャスト
  0
TEXT
  5
20C6C
  8
1DIM
  6
CONTINUOUS
 10
575.007722625075
 20
-630.1746500476129
 30
0.0
 40
3.5
  1
仕上げ：各種仕上げ
  0
LINE
  5
20C6D
  8
1DIM
 10
493.5188819540467
 20
-592.8213309894525
 30
0.0
 11
520.3954509128357
 21
-592.8213309894525
 31
0.0
1001
ACAD
1000
DSTYLE
1002
{
1070
    45
1040
0.5
1002
}
  0
LINE
  5
20C6E
  8
1DIM
 10
493.0162418942167
 20
-565.321336357211
 30
0.0
 11
520.3954509128357
 21
-565.321336357211
 31
0.0
1001
ACAD
1000
DSTYLE
1002
{
1070
    45
1040
0.5
1002
}
  0
LINE
  5
20C6F
  8
1DIM
 10
519.3954509128357
 20
-590.8213309894525
 30
0.0
 11
519.3954509128357
 21
-567.321336357211
 31
0.0
1001
ACAD
1000
DSTYLE
1002
{
1070
    45
1040
0.5
1002
}
  0
LINE
  5
20C73
  8
1DIM
 10
668.5162416153647
 20
-655.8213309737425
 30
0.0
 11
668.5162416153647
 21
-712.4213303512677
 31
0.0
1001
ACAD
1000
DSTYLE
1002
{
1070
    45
1040
0.5
1002
}
  0
LINE
  5
20C74
  8
1DIM
 10
713.016241615365
 20
-693.0495039365483
 30
0.0
 11
713.016241615365
 21
-712.4213303512677
 31
0.0
1001
ACAD
1000
DSTYLE
1002
{
1070
    45
1040
0.5
1002
}
  0
LINE
  5
20C75
  8
1DIM
 10
670.5162416153647
 20
-711.4213303512677
 30
0.0
 11
711.016241615365
 21
-711.4213303512677
 31
0.0
1001
ACAD
1000
DSTYLE
1002
{
1070
    45
1040
0.5
1002
}
  0
LINE
  5
20C79
  8
1DIM
 10
737.5560914877268
 20
-647.7057312440909
 30
0.0
 11
755.516241615365
 21
-647.7057312440909
 31
0.0
1001
ACAD
1000
DSTYLE
1002
{
1070
    45
1040
0.5
1070
   271
1070
     0
1002
}
  0
LINE
  5
20C7A
  8
1DIM
 10
708.3273021979884
 20
-645.3213314654333
 30
0.0
 11
755.516241615365
 21
-645.3213314654333
 31
0.0
1001
ACAD
1000
DSTYLE
1002
{
1070
    45
1040
0.5
1070
   271
1070
     0
1002
}
  0
LINE
  5
20C7B
  8
1DIM
 10
754.516241615365
 20
-649.7057312440909
 30
0.0
 11
754.516241615365
 21
-651.7057312440909
 31
0.0
1001
ACAD
1000
DSTYLE
1002
{
1070
    45
1040
0.5
1070
   271
1070
     0
1002
}
  0
LINE
  5
20C7C
  8
1DIM
 10
754.516241615365
 20
-643.3213314654333
 30
0.0
 11
754.516241615365
 21
-637.5879981321
 31
0.0
1001
ACAD
1000
DSTYLE
1002
{
1070
    45
1040
0.5
1070
   271
1070
     0
1002
}
  0
LINE
  5
20C7D
  8
1DIM
 10
754.516241615365
 20
-647.7057312440909
 30
0.0
 11
754.516241615365
 21
-645.3213314654333
 31
0.0
1001
ACAD
1000
DSTYLE
1002
{
1070
    45
1040
0.5
1070
   271
1070
     0
1002
}
  0
LINE
  5
20C81
  8
1DIM
 10
713.0162411563953
 20
-666.321331879439
 30
0.0
 11
765.516241615365
 21
-666.321331879439
 31
0.0
1001
ACAD
1000
DSTYLE
1002
{
1070
    45
1040
0.5
1002
}
  0
LINE
  5
20C82
  8
1DIM
 10
708.32730243563
 20
-645.3213314654333
 30
0.0
 11
765.516241615365
 21
-645.3213314654333
 31
0.0
1001
ACAD
1000
DSTYLE
1002
{
1070
    45
1040
0.5
1002
}
  0
LINE
  5
20C83
  8
1DIM
 10
764.516241615365
 20
-664.321331879439
 30
0.0
 11
764.516241615365
 21
-647.3213314654333
 31
0.0
1001
ACAD
1000
DSTYLE
1002
{
1070
    45
1040
0.5
1002
}
  0
SOLID
  5
20C87
  8
1DIM
 10
716.6708479197653
 20
-624.9354292138315
 30
0.0
 11
715.9299131930724
 21
-626.8227889680627
 31
0.0
 12
716.0186807169501
 22
-624.797145505403
 32
0.0
 13
716.0186807169501
 23
-624.797145505403
 33
0.0
1001
ACAD
1000
DSTYLE
1002
{
1070
    45
1040
0.5
1002
}
  0
LINE
  5
20C88
  8
1DIM
 10
716.3447643183576
 20
-624.8662873596172
 30
0.0
 11
719.0537571261874
 21
-612.0902613041472
 31
0.0
1001
ACAD
1000
DSTYLE
1002
{
1070
    45
1040
0.5
1002
}
  0
SOLID
  5
20C89
  8
1DIM
 10
729.8062660649305
 20
-624.9354292138315
 30
0.0
 11
729.0653313382376
 21
-626.8227889680627
 31
0.0
 12
729.1540988621153
 22
-624.797145505403
 32
0.0
 13
729.1540988621153
 23
-624.797145505403
 33
0.0
1001
ACAD
1000
DSTYLE
1002
{
1070
    45
1040
0.5
1002
}
  0
LINE
  5
20C8A
  8
1DIM
 10
729.4801824635229
 20
-624.8662873596172
 30
0.0
 11
732.1891752713526
 21
-612.0902613041472
 31
0.0
1001
ACAD
1000
DSTYLE
1002
{
1070
    45
1040
0.5
1002
}
  0
LINE
  5
20C8B
  8
1DIM
 10
737.5562283006956
 20
-663.9370271540203
 30
0.0
 11
755.516241615365
 21
-663.9370271540203
 31
0.0
1001
ACAD
1000
DSTYLE
1002
{
1070
    45
1040
0.5
1002
}
  0
LINE
  5
20C8C
  8
1DIM
 10
737.5560914877265
 20
-647.7057312440909
 30
0.0
 11
755.516241615365
 21
-647.7057312440909
 31
0.0
1001
ACAD
1000
DSTYLE
1002
{
1070
    45
1040
0.5
1002
}
  0
LINE
  5
20C8D
  8
1DIM
 10
754.516241615365
 20
-661.9370271540203
 30
0.0
 11
754.516241615365
 21
-649.7057312440909
 31
0.0
1001
ACAD
1000
DSTYLE
1002
{
1070
    45
1040
0.5
1002
}
  0
LINE
  5
20C91
  8
1DIM
 10
593.0162377644708
 20
-657.6513184384199
 30
0.0
 11
593.0162377644708
 21
-692.4213303512677
 31
0.0
1001
ACAD
1000
DSTYLE
1002
{
1070
    45
1040
0.5
1002
}
  0
LINE
  5
20C92
  8
1DIM
 10
643.0162416153653
 20
-655.8213303512662
 30
0.0
 11
643.0162416153653
 21
-692.4213303512677
 31
0.0
1001
ACAD
1000
DSTYLE
1002
{
1070
    45
1040
0.5
1002
}
  0
LINE
  5
20C93
  8
1DIM
 10
595.0162377644708
 20
-691.4213303512677
 30
0.0
 11
641.0162416153653
 21
-691.4213303512677
 31
0.0
1001
ACAD
1000
DSTYLE
1002
{
1070
    45
1040
0.5
1002
}
  0
LINE
  5
20C97
  8
1DIM
 10
543.0162391901846
 20
-659.2836716502984
 30
0.0
 11
543.0162391901846
 21
-692.4213303512677
 31
0.0
1001
ACAD
1000
DSTYLE
1002
{
1070
    45
1040
0.5
1002
}
  0
LINE
  5
20C98
  8
1DIM
 10
593.0162377644708
 20
-657.651318415124
 30
0.0
 11
593.0162377644708
 21
-692.4213303512677
 31
0.0
1001
ACAD
1000
DSTYLE
1002
{
1070
    45
1040
0.5
1002
}
  0
LINE
  5
20C99
  8
1DIM
 10
545.0162391901846
 20
-691.4213303512677
 30
0.0
 11
591.0162377644708
 21
-691.4213303512677
 31
0.0
1001
ACAD
1000
DSTYLE
1002
{
1070
    45
1040
0.5
1002
}
  0
LINE
  5
20C9D
  8
1DIM
 10
543.0162391901846
 20
-659.2836716502984
 30
0.0
 11
543.0162391901846
 21
-692.4213303512677
 31
0.0
1001
ACAD
1000
DSTYLE
1002
{
1070
    45
1040
0.5
1002
}
  0
LINE
  5
20C9E
  8
1DIM
 10
493.0162377644708
 20
-657.651318415124
 30
0.0
 11
493.0162377644708
 21
-692.4213303512677
 31
0.0
1001
ACAD
1000
DSTYLE
1002
{
1070
    45
1040
0.5
1002
}
  0
LINE
  5
20C9F
  8
1DIM
 10
541.0162391901846
 20
-691.4213303512677
 30
0.0
 11
495.0162377644708
 21
-691.4213303512677
 31
0.0
1001
ACAD
1000
DSTYLE
1002
{
1070
    45
1040
0.5
1002
}
  0
LINE
  5
20CA3
  8
1DIM
 10
443.0162431499069
 20
-655.8213303512663
 30
0.0
 11
443.0162431499069
 21
-712.4213303512677
 31
0.0
1001
ACAD
1000
DSTYLE
1002
{
1070
    45
1040
0.5
1002
}
  0
LINE
  5
20CA4
  8
1DIM
 10
643.0162416153653
 20
-655.8213303512664
 30
0.0
 11
643.0162416153653
 21
-712.4213303512677
 31
0.0
1001
ACAD
1000
DSTYLE
1002
{
1070
    45
1040
0.5
1002
}
  0
LINE
  5
20CA5
  8
1DIM
 10
445.0162431499069
 20
-711.4213303512677
 30
0.0
 11
641.0162416153653
 21
-711.4213303512677
 31
0.0
1001
ACAD
1000
DSTYLE
1002
{
1070
    45
1040
0.5
1002
}
  0
SOLID
  5
20CA9
  8
1DIM
 10
559.9950477390438
 20
-567.1548128471857
 30
0.0
 11
559.1337563195161
 21
-565.3192507529598
 31
0.0
 12
560.5438088820615
 22
-566.7762555168401
 32
0.0
 13
560.5438088820615
 23
-566.7762555168401
 33
0.0
  0
LINE
  5
20CAA
  8
1DIM
 10
560.2694283105527
 20
-566.9655341820129
 30
0.0
 11
574.2318512702511
 21
-587.2056261534663
 31
0.0
  0
LINE
  5
20CAB
  8
1DIM
 10
574.2318512702511
 20
-587.2056261534663
 30
0.0
 11
613.9151846035845
 21
-587.2056261534663
 31
0.0
  0
TEXT
  5
20CAC
  8
1DIM
  6
CONTINUOUS
 10
576.6985179369178
 20
-580.6722928201328
 30
0.0
 40
3.5
  1
材質：ABS樹脂
  0
TEXT
  5
20CAD
  8
1DIM
  6
CONTINUOUS
 10
576.8151846035845
 20
-586.5056261534662
 30
0.0
 40
3.5
  1
仕上げ：各種仕上げ
  0
LINE
  5
20CAE
  8
1DIM
 10
443.0162416153655
 20
-596.3213327781721
 30
0.0
 11
443.0162416153655
 21
-580.1535508530527
 31
0.0
  0
LINE
  5
20CAF
  8
1DIM
 10
450.5162416153655
 20
-591.0306149229315
 30
0.0
 11
450.5162416153655
 21
-580.1535508530527
 31
0.0
  0
LINE
  5
20CB0
  8
1DIM
 10
445.0162416153655
 20
-581.1535508530527
 30
0.0
 11
448.5162416153655
 21
-581.1535508530527
 31
0.0
  0
LINE
  5
20CB1
  8
1DIM
 10
450.5162416153655
 20
-581.1535508530527
 30
0.0
 11
461.2495749486989
 21
-581.1535508530527
 31
0.0
  0
LINE
  5
20CB5
  8
1DIM
 10
618.0162416368655
 20
-555.8213303512664
 30
0.0
 11
656.7379057723309
 21
-555.8213303512664
 31
0.0
1001
ACAD
1000
DSTYLE
1002
{
1070
   271
1070
     1
1002
}
  0
LINE
  5
20CB6
  8
1DIM
 10
633.7162416153653
 20
-565.3213309894525
 30
0.0
 11
656.7379057723309
 21
-565.3213309894525
 31
0.0
1001
ACAD
1000
DSTYLE
1002
{
1070
   271
1070
     1
1002
}
  0
LINE
  5
20CB7
  8
1DIM
 10
655.7379057723309
 20
-557.8213303512664
 30
0.0
 11
655.7379057723309
 21
-563.3213309894525
 31
0.0
1001
ACAD
1000
DSTYLE
1002
{
1070
   271
1070
     1
1002
}
  0
LINE
  5
20CBB
  8
1DIM
 10
633.7162416153653
 20
-592.8213309894525
 30
0.0
 11
656.7379057723308
 21
-592.8213309894525
 31
0.0
  0
LINE
  5
20CBC
  8
1DIM
 10
639.0162433166623
 20
-600.3213310768751
 30
0.0
 11
656.7379057723308
 21
-600.3213310768751
 31
0.0
  0
LINE
  5
20CBD
  8
1DIM
 10
655.7379057723308
 20
-594.8213309894525
 30
0.0
 11
655.7379057723308
 21
-598.3213310768751
 31
0.0
  0
LINE
  5
20CC1
  8
1DIM
 10
618.0162416368655
 20
-555.8213303512664
 30
0.0
 11
663.4268004153938
 21
-555.8213303512664
 31
0.0
1001
ACAD
1000
DSTYLE
1002
{
1070
   271
1070
     1
1002
}
  0
LINE
  5
20CC2
  8
1DIM
 10
639.0162433166623
 20
-600.3213310768751
 30
0.0
 11
663.4268004153938
 21
-600.3213310768751
 31
0.0
1001
ACAD
1000
DSTYLE
1002
{
1070
   271
1070
     1
1002
}
  0
LINE
  5
20CC3
  8
1DIM
 10
662.4268004153938
 20
-557.8213303512664
 30
0.0
 11
662.4268004153938
 21
-598.3213310768751
 31
0.0
1001
ACAD
1000
DSTYLE
1002
{
1070
   271
1070
     1
1002
}
  0
LINE
  5
20CC7
  8
1DIM
 10
546.1406965426179
 20
-656.6375073218252
 30
0.0
 11
663.4268004153938
 21
-656.6375073218252
 31
0.0
1001
ACAD
1000
DSTYLE
1002
{
1070
   271
1070
     0
1002
}
  0
LINE
  5
20CC8
  8
1DIM
 10
640.3273080888448
 20
-645.321330424213
 30
0.0
 11
663.4268004153938
 21
-645.321330424213
 31
0.0
1001
ACAD
1000
DSTYLE
1002
{
1070
   271
1070
     0
1002
}
  0
LINE
  5
20CC9
  8
1DIM
 10
662.4268004153938
 20
-654.6375073218252
 30
0.0
 11
662.4268004153938
 21
-647.321330424213
 31
0.0
1001
ACAD
1000
DSTYLE
1002
{
1070
   271
1070
     0
1002
}
  0
LINE
  5
20CCD
  8
1DIM
 10
596.1406951334743
 20
-655.0051540866507
 30
0.0
 11
656.7379057723308
 21
-655.0051540866507
 31
0.0
1001
ACAD
1000
DSTYLE
1002
{
1070
   271
1070
     0
1002
}
  0
LINE
  5
20CCE
  8
1DIM
 10
640.3273080888448
 20
-645.321330424213
 30
0.0
 11
656.7379057723308
 21
-645.321330424213
 31
0.0
1001
ACAD
1000
DSTYLE
1002
{
1070
   271
1070
     0
1002
}
  0
LINE
  5
20CCF
  8
1DIM
 10
655.7379057723308
 20
-653.0051540866507
 30
0.0
 11
655.7379057723308
 21
-647.321330424213
 31
0.0
1001
ACAD
1000
DSTYLE
1002
{
1070
   271
1070
     0
1002
}
  0
LINE
  5
20CD4
  8
1CENTER
 10
740.3385938091399
 20
-664.9496758574749
 30
0.0
 11
705.9165339354139
 21
-652.4210706613075
 31
0.0
  0
LINE
  5
20CD5
  8
0
 10
735.9571728937271
 20
-662.1904139817284
 30
0.0
 11
736.037764571417
 21
-664.3080203372679
 31
0.0
  0
LINE
  5
20CD6
  8
0
 10
736.037764571417
 20
-664.3080203372679
 30
0.0
 11
736.5319348432319
 21
-663.8618527516393
 31
0.0
  0
LINE
  5
20CD7
  8
0
 10
715.2178037509826
 20
-653.6781499925701
 30
0.0
 11
714.6014685284184
 21
-657.7105334071306
 31
0.0
  0
LINE
  5
20CD8
  8
0
 10
725.7423611037887
 20
-657.5087755978196
 30
0.0
 11
725.1260258812285
 21
-661.5411590123816
 31
0.0
  0
LINE
  5
20CD9
  8
0
 10
728.7493774903036
 20
-658.6032400564619
 30
0.0
 11
728.1330422677435
 21
-662.6356234710239
 31
0.0
  0
LINE
  5
20CDA
  8
0
 10
728.1330422677435
 20
-662.6356234710239
 30
0.0
 11
728.3980226947207
 21
-662.1999795728688
 31
0.0
  0
LINE
  5
20CDB
  8
0
 10
729.9879052565838
 20
-659.5861161839382
 30
0.0
 11
730.252885683561
 21
-659.150472285783
 31
0.0
  0
LINE
  5
20CDC
  8
0
 10
725.1260258812285
 20
-661.5411590123816
 30
0.0
 11
725.3910063082058
 21
-661.1055151142265
 31
0.0
  0
LINE
  5
20CDD
  8
0
 10
726.6295340744861
 20
-662.0883912417028
 30
0.0
 11
726.8945145014632
 21
-661.6527473435476
 31
0.0
  0
LINE
  5
20CDE
  8
0
 10
728.4843970633265
 20
-659.0388839546171
 30
0.0
 11
728.7493774903036
 21
-658.6032400564619
 31
0.0
  0
LINE
  5
20CDF
  8
0
 10
726.9808888700691
 20
-658.4916517252959
 30
0.0
 11
727.2458692970462
 21
-658.0560078271408
 31
0.0
  0
LINE
  5
20CE0
  8
0
 10
727.2458692970462
 20
-658.0560078271408
 30
0.0
 11
726.6295340744861
 21
-662.0883912417028
 31
0.0
  0
LINE
  5
20CE1
  8
0
 10
734.379383843205
 20
-664.1862938200912
 30
0.0
 11
734.7398353900668
 21
-663.7303279386891
 31
0.0
  0
LINE
  5
20CE2
  8
0
 10
731.1400586542583
 20
-663.7300879296662
 30
0.0
 11
731.4050390812355
 21
-663.294444031511
 31
0.0
  0
LINE
  5
20CE3
  8
0
 10
729.6365504610009
 20
-663.182855700345
 30
0.0
 11
729.9015308879779
 21
-662.7472118021899
 31
0.0
  0
LINE
  5
20CE4
  8
0
 10
732.7210031149931
 20
-664.0645673029145
 30
0.0
 11
733.0260037018849
 21
-663.6045473120515
 31
0.0
  0
LINE
  5
20CE5
  8
0
 10
734.3424692521305
 20
-661.6189758199849
 30
0.0
 11
734.6085370314564
 21
-661.217676600656
 31
0.0
  0
LINE
  5
20CE6
  8
0
 10
731.4914134498413
 20
-660.1333484132593
 30
0.0
 11
731.7563938768184
 21
-659.6977045151042
 31
0.0
  0
LINE
  5
20CE7
  8
0
 10
732.9949216430987
 20
-660.6805806425805
 30
0.0
 11
733.2599020700758
 21
-660.2449367444253
 31
0.0
  0
LINE
  5
20CE8
  8
0
 10
735.6585078148322
 20
-662.5682208939972
 30
0.0
 11
735.9571728937271
 21
-662.1904139817284
 31
0.0
  0
LINE
  5
20CE9
  8
0
 10
734.6085370314564
 20
-661.217676600656
 30
0.0
 11
734.379383843205
 21
-664.1862938200912
 31
0.0
  0
LINE
  5
20CEA
  8
0
 10
731.7563938768184
 20
-659.6977045151042
 30
0.0
 11
731.1400586542583
 21
-663.7300879296662
 31
0.0
  0
LINE
  5
20CEB
  8
0
 10
733.2599020700758
 20
-660.2449367444253
 30
0.0
 11
732.7210031149931
 21
-664.0645673029145
 31
0.0
  0
LINE
  5
20CEC
  8
0
 10
730.252885683561
 20
-659.150472285783
 30
0.0
 11
729.6365504610009
 21
-663.182855700345
 31
0.0
  0
LINE
  5
20CED
  8
0
 10
718.2248201374974
 20
-654.7726144512123
 30
0.0
 11
717.6084849149333
 21
-658.8049978657729
 31
0.0
  0
LINE
  5
20CEE
  8
0
 10
717.6084849149333
 20
-658.8049978657729
 30
0.0
 11
717.873465341911
 21
-658.3693539676179
 31
0.0
  0
LINE
  5
20CEF
  8
0
 10
719.4633479037813
 20
-655.7554905786899
 30
0.0
 11
719.7283283307589
 21
-655.319846680535
 31
0.0
  0
LINE
  5
20CF0
  8
0
 10
716.1049767216757
 20
-658.2577656364517
 30
0.0
 11
716.3699571486534
 21
-657.8221217382967
 31
0.0
  0
LINE
  5
20CF1
  8
0
 10
714.6014685284184
 20
-657.7105334071306
 30
0.0
 11
714.8664489553961
 21
-657.2748895089757
 31
0.0
  0
LINE
  5
20CF2
  8
0
 10
717.9598397105198
 20
-655.2082583493673
 30
0.0
 11
718.2248201374974
 21
-654.7726144512123
 31
0.0
  0
LINE
  5
20CF3
  8
0
 10
716.4563315172622
 20
-654.6610261200461
 30
0.0
 11
716.7213119442399
 21
-654.2253822218912
 31
0.0
  0
LINE
  5
20CF4
  8
0
 10
716.7213119442399
 20
-654.2253822218912
 30
0.0
 11
716.1049767216757
 21
-658.2577656364517
 31
0.0
  0
LINE
  5
20CF5
  8
0
 10
722.1190094947096
 20
-660.4466945537379
 30
0.0
 11
722.3839899216873
 21
-660.0110506555828
 31
0.0
  0
LINE
  5
20CF6
  8
0
 10
723.6225176879713
 20
-660.9939267830605
 30
0.0
 11
723.8874981149484
 21
-660.5582828849053
 31
0.0
  0
LINE
  5
20CF7
  8
0
 10
719.1119931081948
 20
-659.3522300950955
 30
0.0
 11
719.3769735351725
 21
-658.9165861969406
 31
0.0
  0
LINE
  5
20CF8
  8
0
 10
720.6155013014521
 20
-659.8994623244166
 30
0.0
 11
720.8804817284298
 21
-659.4638184262617
 31
0.0
  0
LINE
  5
20CF9
  8
0
 10
725.4773806768115
 20
-657.9444194959747
 30
0.0
 11
725.7423611037887
 21
-657.5087755978196
 31
0.0
  0
LINE
  5
20CFA
  8
0
 10
723.9738724835536
 20
-657.3971872666534
 30
0.0
 11
724.2388529105314
 21
-656.9615433684985
 31
0.0
  0
LINE
  5
20CFB
  8
0
 10
720.9668560970387
 20
-656.302722808011
 30
0.0
 11
721.2318365240163
 21
-655.8670789098561
 31
0.0
  0
LINE
  5
20CFC
  8
0
 10
722.4703642902962
 20
-656.8499550373323
 30
0.0
 11
722.7353447172738
 21
-656.4143111391774
 31
0.0
  0
LINE
  5
20CFD
  8
0
 10
722.7353447172738
 20
-656.4143111391774
 30
0.0
 11
722.1190094947096
 21
-660.4466945537379
 31
0.0
  0
LINE
  5
20CFE
  8
0
 10
724.2388529105314
 20
-656.9615433684985
 30
0.0
 11
723.6225176879713
 21
-660.9939267830605
 31
0.0
  0
LINE
  5
20CFF
  8
0
 10
721.2318365240163
 20
-655.8670789098561
 30
0.0
 11
720.6155013014521
 21
-659.8994623244166
 31
0.0
  0
LINE
  5
20D00
  8
0
 10
719.7283283307589
 20
-655.319846680535
 30
0.0
 11
719.1119931081948
 21
-659.3522300950955
 31
0.0
  0
LINE
  5
20D01
  8
0
 10
708.8524161824732
 20
-655.0859605917299
 30
0.0
 11
709.8784831718663
 21
-652.2668851168046
 31
0.0
  0
LINE
  5
20D02
  8
0
 10
710.4422987442288
 20
-652.4720972027601
 30
0.0
 11
710.7072791712064
 21
-652.0364533046052
 31
0.0
  0
LINE
  5
20D03
  8
0
 10
710.7072791712064
 20
-652.0364533046052
 30
0.0
 11
710.0909439486422
 21
-656.0688367191657
 31
0.0
  0
LINE
  5
20D04
  8
0
 10
710.0909439486422
 20
-656.0688367191657
 30
0.0
 11
710.3559243756199
 21
-655.6331928210108
 31
0.0
  0
LINE
  5
20D05
  8
0
 10
711.945806937486
 20
-653.0193294320812
 30
0.0
 11
712.2107873644637
 21
-652.5836855339263
 31
0.0
  0
LINE
  5
20D06
  8
0
 10
713.4493151307435
 20
-653.5665616614024
 30
0.0
 11
713.714295557721
 21
-653.1309177632475
 31
0.0
  0
LINE
  5
20D07
  8
0
 10
713.714295557721
 20
-653.1309177632475
 30
0.0
 11
713.0979603351569
 21
-657.163301177808
 31
0.0
  0
LINE
  5
20D08
  8
0
 10
711.5944521418995
 20
-656.6160689484868
 30
0.0
 11
711.8594325688772
 21
-656.1804250503319
 31
0.0
  0
LINE
  5
20D09
  8
0
 10
713.0979603351569
 20
-657.163301177808
 30
0.0
 11
713.3629407621346
 21
-656.7276572796529
 31
0.0
  0
LINE
  5
20D0A
  8
0
 10
712.2107873644637
 20
-652.5836855339263
 30
0.0
 11
711.5944521418995
 21
-656.6160689484868
 31
0.0
  0
LINE
  5
20D0B
  8
0
 10
714.952823324005
 20
-654.113793890725
 30
0.0
 11
715.2178037509826
 21
-653.6781499925701
 31
0.0
  0
LINE
  5
20D0C
  8
0
  6
BYBLOCK
 10
519.9313492928358
 20
-590.8213309894525
 30
0.0
 11
519.3954509128357
 21
-592.8213309894525
 31
0.0
  0
LINE
  5
20D0D
  8
0
  6
BYBLOCK
 10
519.3954509128357
 20
-592.8213309894525
 30
0.0
 11
518.8595525328357
 21
-590.8213309894525
 31
0.0
  0
LINE
  5
20D0E
  8
0
  6
BYBLOCK
 10
519.3954509128357
 20
-592.8213309894525
 30
0.0
 11
519.3954509128357
 21
-590.8213309894525
 31
0.0
  0
LINE
  5
20D0F
  8
0
  6
BYBLOCK
 10
518.8595525328357
 20
-567.321336357211
 30
0.0
 11
519.3954509128357
 21
-565.321336357211
 31
0.0
  0
LINE
  5
20D10
  8
0
  6
BYBLOCK
 10
519.3954509128357
 20
-565.321336357211
 30
0.0
 11
519.9313492928358
 21
-567.321336357211
 31
0.0
  0
LINE
  5
20D11
  8
0
  6
BYBLOCK
 10
519.3954509128357
 20
-565.321336357211
 30
0.0
 11
519.3954509128357
 21
-567.321336357211
 31
0.0
  0
TEXT
  5
20D12
  8
1DIM
  6
CONTINUOUS
 10
518.6954509128359
 20
-584.0815631444609
 30
0.0
 40
3.5
  1
27.5
 50
90.0
1001
ACAD
1000
DSTYLE
1002
{
1070
    45
1040
0.5
1002
}
  0
LINE
  5
20D13
  8
0
  6
BYBLOCK
 10
670.5162416153647
 20
-711.9572287312677
 30
0.0
 11
668.5162416153647
 21
-711.4213303512677
 31
0.0
  0
LINE
  5
20D14
  8
0
  6
BYBLOCK
 10
668.5162416153647
 20
-711.4213303512677
 30
0.0
 11
670.5162416153647
 21
-710.8854319712676
 31
0.0
  0
LINE
  5
20D15
  8
0
  6
BYBLOCK
 10
668.5162416153647
 20
-711.4213303512677
 30
0.0
 11
670.5162416153647
 21
-711.4213303512677
 31
0.0
  0
LINE
  5
20D16
  8
0
  6
BYBLOCK
 10
711.016241615365
 20
-710.8854319712676
 30
0.0
 11
713.016241615365
 21
-711.4213303512677
 31
0.0
  0
LINE
  5
20D17
  8
0
  6
BYBLOCK
 10
713.016241615365
 20
-711.4213303512677
 30
0.0
 11
711.016241615365
 21
-711.9572287312677
 31
0.0
  0
LINE
  5
20D18
  8
0
  6
BYBLOCK
 10
713.016241615365
 20
-711.4213303512677
 30
0.0
 11
711.016241615365
 21
-711.4213303512677
 31
0.0
  0
TEXT
  5
20D19
  8
1DIM
  6
CONTINUOUS
 10
685.5162416153648
 20
-710.7213303512677
 30
0.0
 40
3.5
  1
44.5
1001
ACAD
1000
DSTYLE
1002
{
1070
    45
1040
0.5
1002
}
  0
LINE
  5
20D1A
  8
0
  6
BYBLOCK
 10
753.9803432353649
 20
-649.7057312440909
 30
0.0
 11
754.516241615365
 21
-647.7057312440909
 31
0.0
  0
LINE
  5
20D1B
  8
0
  6
BYBLOCK
 10
754.516241615365
 20
-647.7057312440909
 30
0.0
 11
755.052139995365
 21
-649.7057312440909
 31
0.0
  0
LINE
  5
20D1C
  8
0
  6
BYBLOCK
 10
754.516241615365
 20
-647.7057312440909
 30
0.0
 11
754.516241615365
 21
-649.7057312440909
 31
0.0
  0
LINE
  5
20D1D
  8
0
  6
BYBLOCK
 10
755.052139995365
 20
-643.3213314654333
 30
0.0
 11
754.516241615365
 21
-645.3213314654333
 31
0.0
  0
LINE
  5
20D1E
  8
0
  6
BYBLOCK
 10
754.516241615365
 20
-645.3213314654333
 30
0.0
 11
753.9803432353649
 21
-643.3213314654333
 31
0.0
  0
LINE
  5
20D1F
  8
0
  6
BYBLOCK
 10
754.516241615365
 20
-645.3213314654333
 30
0.0
 11
754.516241615365
 21
-643.3213314654333
 31
0.0
  0
TEXT
  5
20D20
  8
1DIM
  6
CONTINUOUS
 10
753.816241615365
 20
-640.6213314654332
 30
0.0
 40
3.5
  1
3
 50
90.0
1001
ACAD
1000
DSTYLE
1002
{
1070
    45
1040
0.5
1070
   271
1070
     0
1002
}
  0
LINE
  5
20D21
  8
0
  6
BYBLOCK
 10
765.052139995365
 20
-664.321331879439
 30
0.0
 11
764.516241615365
 21
-666.321331879439
 31
0.0
  0
LINE
  5
20D22
  8
0
  6
BYBLOCK
 10
764.516241615365
 20
-666.321331879439
 30
0.0
 11
763.9803432353649
 21
-664.321331879439
 31
0.0
  0
LINE
  5
20D23
  8
0
  6
BYBLOCK
 10
764.516241615365
 20
-666.321331879439
 30
0.0
 11
764.516241615365
 21
-664.321331879439
 31
0.0
  0
LINE
  5
20D24
  8
0
  6
BYBLOCK
 10
763.9803432353649
 20
-647.3213314654333
 30
0.0
 11
764.516241615365
 21
-645.3213314654333
 31
0.0
  0
LINE
  5
20D25
  8
0
  6
BYBLOCK
 10
764.516241615365
 20
-645.3213314654333
 30
0.0
 11
765.052139995365
 21
-647.3213314654333
 31
0.0
  0
LINE
  5
20D26
  8
0
  6
BYBLOCK
 10
764.516241615365
 20
-645.3213314654333
 30
0.0
 11
764.516241615365
 21
-647.3213314654333
 31
0.0
  0
TEXT
  5
20D27
  8
1DIM
  6
CONTINUOUS
 10
763.816241615365
 20
-658.1546650057693
 30
0.0
 40
3.5
  1
21
 50
90.0
1001
ACAD
1000
DSTYLE
1002
{
1070
    45
1040
0.5
1002
}
  0
LINE
  5
20D28
  8
0
  6
BYBLOCK
 10
755.052139995365
 20
-661.9370271540203
 30
0.0
 11
754.516241615365
 21
-663.9370271540203
 31
0.0
  0
LINE
  5
20D29
  8
0
  6
BYBLOCK
 10
754.516241615365
 20
-663.9370271540203
 30
0.0
 11
753.9803432353649
 21
-661.9370271540203
 31
0.0
  0
LINE
  5
20D2A
  8
0
  6
BYBLOCK
 10
754.516241615365
 20
-663.9370271540203
 30
0.0
 11
754.516241615365
 21
-661.9370271540203
 31
0.0
  0
LINE
  5
20D2B
  8
0
  6
BYBLOCK
 10
753.9803432353649
 20
-649.7057312440909
 30
0.0
 11
754.516241615365
 21
-647.7057312440909
 31
0.0
  0
LINE
  5
20D2C
  8
0
  6
BYBLOCK
 10
754.516241615365
 20
-647.7057312440909
 30
0.0
 11
755.052139995365
 21
-649.7057312440909
 31
0.0
  0
LINE
  5
20D2D
  8
0
  6
BYBLOCK
 10
754.516241615365
 20
-647.7057312440909
 30
0.0
 11
754.516241615365
 21
-649.7057312440909
 31
0.0
  0
TEXT
  5
20D2E
  8
1DIM
  6
CONTINUOUS
 10
753.816241615365
 20
-659.9047125323888
 30
0.0
 40
3.5
  1
P16
 50
90.0
1001
ACAD
1000
DSTYLE
1002
{
1070
    45
1040
0.5
1002
}
  0
LINE
  5
20D2F
  8
0
  6
BYBLOCK
 10
595.0162377644708
 20
-691.9572287312677
 30
0.0
 11
593.0162377644708
 21
-691.4213303512677
 31
0.0
  0
LINE
  5
20D30
  8
0
  6
BYBLOCK
 10
593.0162377644708
 20
-691.4213303512677
 30
0.0
 11
595.0162377644708
 21
-690.8854319712676
 31
0.0
  0
LINE
  5
20D31
  8
0
  6
BYBLOCK
 10
593.0162377644708
 20
-691.4213303512677
 30
0.0
 11
595.0162377644708
 21
-691.4213303512677
 31
0.0
  0
LINE
  5
20D32
  8
0
  6
BYBLOCK
 10
641.0162416153653
 20
-690.8854319712676
 30
0.0
 11
643.0162416153653
 21
-691.4213303512677
 31
0.0
  0
LINE
  5
20D33
  8
0
  6
BYBLOCK
 10
643.0162416153653
 20
-691.4213303512677
 30
0.0
 11
641.0162416153653
 21
-691.9572287312677
 31
0.0
  0
LINE
  5
20D34
  8
0
  6
BYBLOCK
 10
643.0162416153653
 20
-691.4213303512677
 30
0.0
 11
641.0162416153653
 21
-691.4213303512677
 31
0.0
  0
TEXT
  5
20D35
  8
1DIM
  6
CONTINUOUS
 10
615.3061702454736
 20
-690.7213303512677
 30
0.0
 40
3.5
  1
50
1001
ACAD
1000
DSTYLE
1002
{
1070
    45
1040
0.5
1002
}
  0
LINE
  5
20D36
  8
0
  6
BYBLOCK
 10
545.0162391901846
 20
-691.9572287312677
 30
0.0
 11
543.0162391901846
 21
-691.4213303512677
 31
0.0
  0
LINE
  5
20D37
  8
0
  6
BYBLOCK
 10
543.0162391901846
 20
-691.4213303512677
 30
0.0
 11
545.0162391901846
 21
-690.8854319712676
 31
0.0
  0
LINE
  5
20D38
  8
0
  6
BYBLOCK
 10
543.0162391901846
 20
-691.4213303512677
 30
0.0
 11
545.0162391901846
 21
-691.4213303512677
 31
0.0
  0
LINE
  5
20D39
  8
0
  6
BYBLOCK
 10
591.0162377644708
 20
-690.8854319712676
 30
0.0
 11
593.0162377644708
 21
-691.4213303512677
 31
0.0
  0
LINE
  5
20D3A
  8
0
  6
BYBLOCK
 10
593.0162377644708
 20
-691.4213303512677
 30
0.0
 11
591.0162377644708
 21
-691.9572287312677
 31
0.0
  0
LINE
  5
20D3B
  8
0
  6
BYBLOCK
 10
593.0162377644708
 20
-691.4213303512677
 30
0.0
 11
591.0162377644708
 21
-691.4213303512677
 31
0.0
  0
TEXT
  5
20D3C
  8
1DIM
  6
CONTINUOUS
 10
563.5561690328833
 20
-690.7213303512677
 30
0.0
 40
3.5
  1
P50
1001
ACAD
1000
DSTYLE
1002
{
1070
    45
1040
0.5
1002
}
  0
LINE
  5
20D3D
  8
0
  6
BYBLOCK
 10
541.0162391901846
 20
-690.8854319712676
 30
0.0
 11
543.0162391901846
 21
-691.4213303512677
 31
0.0
  0
LINE
  5
20D3E
  8
0
  6
BYBLOCK
 10
543.0162391901846
 20
-691.4213303512677
 30
0.0
 11
541.0162391901846
 21
-691.9572287312677
 31
0.0
  0
LINE
  5
20D3F
  8
0
  6
BYBLOCK
 10
543.0162391901846
 20
-691.4213303512677
 30
0.0
 11
541.0162391901846
 21
-691.4213303512677
 31
0.0
  0
LINE
  5
20D40
  8
0
  6
BYBLOCK
 10
495.0162377644708
 20
-691.9572287312677
 30
0.0
 11
493.0162377644708
 21
-691.4213303512677
 31
0.0
  0
LINE
  5
20D41
  8
0
  6
BYBLOCK
 10
493.0162377644708
 20
-691.4213303512677
 30
0.0
 11
495.0162377644708
 21
-690.8854319712676
 31
0.0
  0
LINE
  5
20D42
  8
0
  6
BYBLOCK
 10
493.0162377644708
 20
-691.4213303512677
 30
0.0
 11
495.0162377644708
 21
-691.4213303512677
 31
0.0
  0
TEXT
  5
20D43
  8
1DIM
  6
CONTINUOUS
 10
513.5561690328833
 20
-690.7213303512677
 30
0.0
 40
3.5
  1
P50
1001
ACAD
1000
DSTYLE
1002
{
1070
    45
1040
0.5
1002
}
  0
LINE
  5
20D44
  8
0
  6
BYBLOCK
 10
445.0162431499069
 20
-711.9572287312677
 30
0.0
 11
443.0162431499069
 21
-711.4213303512677
 31
0.0
  0
LINE
  5
20D45
  8
0
  6
BYBLOCK
 10
443.0162431499069
 20
-711.4213303512677
 30
0.0
 11
445.0162431499069
 21
-710.8854319712676
 31
0.0
  0
LINE
  5
20D46
  8
0
  6
BYBLOCK
 10
443.0162431499069
 20
-711.4213303512677
 30
0.0
 11
445.0162431499069
 21
-711.4213303512677
 31
0.0
  0
LINE
  5
20D47
  8
0
  6
BYBLOCK
 10
641.0162416153653
 20
-710.8854319712676
 30
0.0
 11
643.0162416153653
 21
-711.4213303512677
 31
0.0
  0
LINE
  5
20D48
  8
0
  6
BYBLOCK
 10
643.0162416153653
 20
-711.4213303512677
 30
0.0
 11
641.0162416153653
 21
-711.9572287312677
 31
0.0
  0
LINE
  5
20D49
  8
0
  6
BYBLOCK
 10
643.0162416153653
 20
-711.4213303512677
 30
0.0
 11
641.0162416153653
 21
-711.4213303512677
 31
0.0
  0
TEXT
  5
20D4A
  8
1DIM
  6
CONTINUOUS
 10
538.8599923826362
 20
-710.7213303512676
 30
0.0
 40
3.5
  1
200
1001
ACAD
1000
DSTYLE
1002
{
1070
    45
1040
0.5
1002
}
  0
LINE
  5
20D4B
  8
0
  6
BYBLOCK
 10
445.0162416153655
 20
-581.6894492330528
 30
0.0
 11
443.0162416153655
 21
-581.1535508530527
 31
0.0
  0
LINE
  5
20D4C
  8
0
  6
BYBLOCK
 10
443.0162416153655
 20
-581.1535508530527
 30
0.0
 11
445.0162416153655
 21
-580.6176524730527
 31
0.0
  0
LINE
  5
20D4D
  8
0
  6
BYBLOCK
 10
443.0162416153655
 20
-581.1535508530527
 30
0.0
 11
445.0162416153655
 21
-581.1535508530527
 31
0.0
  0
LINE
  5
20D4E
  8
0
  6
BYBLOCK
 10
448.5162416153655
 20
-580.6176524730527
 30
0.0
 11
450.5162416153655
 21
-581.1535508530527
 31
0.0
  0
LINE
  5
20D4F
  8
0
  6
BYBLOCK
 10
450.5162416153655
 20
-581.1535508530527
 30
0.0
 11
448.5162416153655
 21
-581.6894492330528
 31
0.0
  0
LINE
  5
20D50
  8
0
  6
BYBLOCK
 10
450.5162416153655
 20
-581.1535508530527
 30
0.0
 11
448.5162416153655
 21
-581.1535508530527
 31
0.0
  0
TEXT
  5
20D51
  8
1DIM
  6
CONTINUOUS
 10
453.3829082820322
 20
-580.4535508530528
 30
0.0
 40
3.5
  1
7.5
  0
LINE
  5
20D52
  8
0
  6
BYBLOCK
 10
655.2020073923309
 20
-557.8213303512664
 30
0.0
 11
655.7379057723309
 21
-555.8213303512664
 31
0.0
  0
LINE
  5
20D53
  8
0
  6
BYBLOCK
 10
655.7379057723309
 20
-555.8213303512664
 30
0.0
 11
656.273804152331
 21
-557.8213303512664
 31
0.0
  0
LINE
  5
20D54
  8
0
  6
BYBLOCK
 10
655.7379057723309
 20
-555.8213303512664
 30
0.0
 11
655.7379057723309
 21
-557.8213303512664
 31
0.0
  0
LINE
  5
20D55
  8
0
  6
BYBLOCK
 10
656.273804152331
 20
-563.3213309894525
 30
0.0
 11
655.7379057723309
 21
-565.3213309894525
 31
0.0
  0
LINE
  5
20D56
  8
0
  6
BYBLOCK
 10
655.7379057723309
 20
-565.3213309894525
 30
0.0
 11
655.2020073923309
 21
-563.3213309894525
 31
0.0
  0
LINE
  5
20D57
  8
0
  6
BYBLOCK
 10
655.7379057723309
 20
-565.3213309894525
 30
0.0
 11
655.7379057723309
 21
-563.3213309894525
 31
0.0
  0
TEXT
  5
20D58
  8
1DIM
  6
CONTINUOUS
 10
655.0379057723311
 20
-564.0729510407298
 30
0.0
 40
3.5
  1
9.5
 50
90.0
1001
ACAD
1000
DSTYLE
1002
{
1070
   271
1070
     1
1002
}
  0
LINE
  5
20D59
  8
0
  6
BYBLOCK
 10
655.2020073923308
 20
-594.8213309894525
 30
0.0
 11
655.7379057723308
 21
-592.8213309894525
 31
0.0
  0
LINE
  5
20D5A
  8
0
  6
BYBLOCK
 10
655.7379057723308
 20
-592.8213309894525
 30
0.0
 11
656.2738041523309
 21
-594.8213309894525
 31
0.0
  0
LINE
  5
20D5B
  8
0
  6
BYBLOCK
 10
655.7379057723308
 20
-592.8213309894525
 30
0.0
 11
655.7379057723308
 21
-594.8213309894525
 31
0.0
  0
LINE
  5
20D5C
  8
0
  6
BYBLOCK
 10
656.2738041523309
 20
-598.3213310768751
 30
0.0
 11
655.7379057723308
 21
-600.3213310768751
 31
0.0
  0
LINE
  5
20D5D
  8
0
  6
BYBLOCK
 10
655.7379057723308
 20
-600.3213310768751
 30
0.0
 11
655.2020073923308
 21
-598.3213310768751
 31
0.0
  0
LINE
  5
20D5E
  8
0
  6
BYBLOCK
 10
655.7379057723308
 20
-600.3213310768751
 30
0.0
 11
655.7379057723308
 21
-598.3213310768751
 31
0.0
  0
TEXT
  5
20D5F
  8
1DIM
  6
CONTINUOUS
 10
655.037905772331
 20
-600.0713310331638
 30
0.0
 40
3.5
  1
7.5
 50
90.0
  0
LINE
  5
20D60
  8
0
  6
BYBLOCK
 10
661.8909020353938
 20
-557.8213303512664
 30
0.0
 11
662.4268004153938
 21
-555.8213303512664
 31
0.0
  0
LINE
  5
20D61
  8
0
  6
BYBLOCK
 10
662.4268004153938
 20
-555.8213303512664
 30
0.0
 11
662.9626987953939
 21
-557.8213303512664
 31
0.0
  0
LINE
  5
20D62
  8
0
  6
BYBLOCK
 10
662.4268004153938
 20
-555.8213303512664
 30
0.0
 11
662.4268004153938
 21
-557.8213303512664
 31
0.0
  0
LINE
  5
20D63
  8
0
  6
BYBLOCK
 10
662.9626987953939
 20
-598.3213310768751
 30
0.0
 11
662.4268004153938
 21
-600.3213310768751
 31
0.0
  0
LINE
  5
20D64
  8
0
  6
BYBLOCK
 10
662.4268004153938
 20
-600.3213310768751
 30
0.0
 11
661.8909020353938
 21
-598.3213310768751
 31
0.0
  0
LINE
  5
20D65
  8
0
  6
BYBLOCK
 10
662.4268004153938
 20
-600.3213310768751
 30
0.0
 11
662.4268004153938
 21
-598.3213310768751
 31
0.0
  0
TEXT
  5
20D66
  8
1DIM
  6
CONTINUOUS
 10
661.726800415394
 20
-583.3213307140707
 30
0.0
 40
3.5
  1
44.5
 50
90.0
1001
ACAD
1000
DSTYLE
1002
{
1070
   271
1070
     1
1002
}
  0
LINE
  5
20D67
  8
0
  6
BYBLOCK
 10
662.9626987953939
 20
-654.6375073218252
 30
0.0
 11
662.4268004153938
 21
-656.6375073218252
 31
0.0
  0
LINE
  5
20D68
  8
0
  6
BYBLOCK
 10
662.4268004153938
 20
-656.6375073218252
 30
0.0
 11
661.8909020353938
 21
-654.6375073218252
 31
0.0
  0
LINE
  5
20D69
  8
0
  6
BYBLOCK
 10
662.4268004153938
 20
-656.6375073218252
 30
0.0
 11
662.4268004153938
 21
-654.6375073218252
 31
0.0
  0
LINE
  5
20D6A
  8
0
  6
BYBLOCK
 10
661.8909020353938
 20
-647.321330424213
 30
0.0
 11
662.4268004153938
 21
-645.321330424213
 31
0.0
  0
LINE
  5
20D6B
  8
0
  6
BYBLOCK
 10
662.4268004153938
 20
-645.321330424213
 30
0.0
 11
662.9626987953939
 21
-647.321330424213
 31
0.0
  0
LINE
  5
20D6C
  8
0
  6
BYBLOCK
 10
662.4268004153938
 20
-645.321330424213
 30
0.0
 11
662.4268004153938
 21
-647.321330424213
 31
0.0
  0
TEXT
  5
20D6D
  8
1DIM
  6
CONTINUOUS
 10
661.726800415394
 20
-655.0627522063522
 30
0.0
 40
3.5
  1
11.5
 50
90.0
1001
ACAD
1000
DSTYLE
1002
{
1070
   271
1070
     0
1002
}
  0
LINE
  5
20D6E
  8
0
  6
BYBLOCK
 10
656.2738041523309
 20
-653.0051540866507
 30
0.0
 11
655.7379057723308
 21
-655.0051540866507
 31
0.0
  0
LINE
  5
20D6F
  8
0
  6
BYBLOCK
 10
655.7379057723308
 20
-655.0051540866507
 30
0.0
 11
655.2020073923308
 21
-653.0051540866507
 31
0.0
  0
LINE
  5
20D70
  8
0
  6
BYBLOCK
 10
655.7379057723308
 20
-655.0051540866507
 30
0.0
 11
655.7379057723308
 21
-653.0051540866507
 31
0.0
  0
LINE
  5
20D71
  8
0
  6
BYBLOCK
 10
655.2020073923308
 20
-647.321330424213
 30
0.0
 11
655.7379057723308
 21
-645.321330424213
 31
0.0
  0
LINE
  5
20D72
  8
0
  6
BYBLOCK
 10
655.7379057723308
 20
-645.321330424213
 30
0.0
 11
656.2738041523309
 21
-647.321330424213
 31
0.0
  0
LINE
  5
20D73
  8
0
  6
BYBLOCK
 10
655.7379057723308
 20
-645.321330424213
 30
0.0
 11
655.7379057723308
 21
-647.321330424213
 31
0.0
  0
TEXT
  5
20D74
  8
1DIM
  6
CONTINUOUS
 10
655.0379057723309
 20
-652.2778255887649
 30
0.0
 40
3.5
  1
10
 50
90.0
1001
ACAD
1000
DSTYLE
1002
{
1070
   271
1070
     0
1002
}
  0
LINE
  5
20D75
  8
0
 10
737.5562283006956
 20
-663.9370271540201
 30
0.0
 11
733.0888909051762
 21
-660.7147826569127
 31
0.0
  0
LINE
  5
20D76
  8
0
 10
733.0888909051762
 20
-660.7147826569127
 30
0.0
 11
709.8784831718663
 21
-652.2668851168046
 31
0.0
  0
LINE
  5
20D77
  8
0
 10
709.8784831718663
 20
-652.2668851168046
 30
0.0
 11
710.5625437477779
 21
-650.3874577374513
 31
0.0
  0
LINE
  5
20D78
  8
0
 10
710.5625437477779
 20
-650.3874577374513
 30
0.0
 11
709.5288785852027
 21
-650.0112343860758
 31
0.0
  0
ARC
  5
20D79
  8
0
 10
709.0158483702141
 20
-651.4207733172547
 30
0.0
 40
1.5
 50
69.99999999999703
 51
159.9998666844675
  0
LINE
  5
20D7A
  8
0
 10
707.6063106327551
 20
-650.9077398225594
 30
0.0
 11
706.2382213135643
 21
-654.6665071224601
 31
0.0
  0
ARC
  5
20D7B
  8
0
 10
707.6477590510233
 20
-655.1795406171553
 30
0.0
 40
1.5
 50
159.9998666844675
 51
249.999999999997
  0
LINE
  5
20D7C
  8
0
 10
707.1347288360347
 20
-656.5890795483342
 30
0.0
 11
708.168387439194
 21
-656.9653005122774
 31
0.0
  0
LINE
  5
20D7D
  8
0
 10
708.168387439194
 20
-656.9653005122774
 30
0.0
 11
708.8524161824732
 21
-655.0859605917299
 31
0.0
  0
LINE
  5
20D7E
  8
0
 10
708.8524161824732
 20
-655.0859605917299
 30
0.0
 11
732.0628239157841
 21
-663.5338581318387
 31
0.0
  0
LINE
  5
20D7F
  8
0
 10
732.0628239157841
 20
-663.5338581318387
 30
0.0
 11
737.5562283006956
 21
-663.9370271540201
 31
0.0
  0
VIEWPORT
  5
57
 67
     1
  8
0
 10
0.0
 20
0.0
 30
0.0
 40
554.3757649938801
 41
297.0000000000001
 68
     1
 69
     1
1001
ACAD
1000
MVIEW
1002
{
1070
    16
1010
0.0
1020
0.0
1030
0.0
1010
0.0
1020
0.0
1030
1.0
1040
0.0
1040
297.0000000000001
1040
-3.793326267291746
1040
12.66555830253066
1040
50.0
1040
0.0
1040
0.0
1070
     0
1070
   100
1070
     0
1070
     1
1070
     0
1070
     0
1070
     0
1070
     0
1040
0.0
1040
0.0
1040
0.0
1040
10.0
1040
10.0
1040
10.0
1040
10.0
1070
     0
1002
{
1002
}
1002
}
  0
ENDSEC
  0
EOF
