  0
SECTION
  2
HEADER
  9
$ACADVER
  1
AC1012
  9
$DWGCODEPAGE
  3
ansi_932
  9
$INSBASE
 10
0.0
 20
0.0
 30
0.0
  9
$EXTMIN
 10
-246.4841898859991
 20
-673.9970953695911
 30
0.0
  9
$EXTMAX
 10
95.40142981082302
 20
-385.0750347399842
 30
0.0
  9
$LIMMIN
 10
0.0
 20
0.0
  9
$LIMMAX
 10
420.0
 20
297.0
  9
$ORTHOMODE
 70
     0
  9
$REGENMODE
 70
     1
  9
$FILLMODE
 70
     1
  9
$QTEXTMODE
 70
     0
  9
$MIRRTEXT
 70
     0
  9
$DRAGMODE
 70
     2
  9
$LTSCALE
 40
0.5
  9
$OSMODE
 70
  2175
  9
$ATTMODE
 70
     1
  9
$TEXTSIZE
 40
4.0
  9
$TRACEWID
 40
1.0
  9
$TEXTSTYLE
  7
STANDARD
  9
$CLAYER
  8
1TEXT
  9
$CELTYPE
  6
BYLAYER
  9
$CECOLOR
 62
   256
  9
$CELTSCALE
 40
1.0
  9
$DELOBJ
 70
     1
  9
$DISPSILH
 70
     0
  9
$DIMSCALE
 40
1.0
  9
$DIMASZ
 40
2.0
  9
$DIMEXO
 40
0.0
  9
$DIMDLI
 40
7.0
  9
$DIMRND
 40
0.0
  9
$DIMDLE
 40
0.0
  9
$DIMEXE
 40
1.0
  9
$DIMTP
 40
0.0
  9
$DIMTM
 40
0.0
  9
$DIMTXT
 40
3.5
  9
$DIMCEN
 40
0.0
  9
$DIMTSZ
 40
0.0
  9
$DIMTOL
 70
     0
  9
$DIMLIM
 70
     0
  9
$DIMTIH
 70
     0
  9
$DIMTOH
 70
     0
  9
$DIMSE1
 70
     0
  9
$DIMSE2
 70
     0
  9
$DIMTAD
 70
     1
  9
$DIMZIN
 70
     8
  9
$DIMBLK
  1

  9
$DIMASO
 70
     1
  9
$DIMSHO
 70
     1
  9
$DIMPOST
  1
 
  9
$DIMAPOST
  1

  9
$DIMALT
 70
     0
  9
$DIMALTD
 70
     2
  9
$DIMALTF
 40
25.4
  9
$DIMLFAC
 40
1.0
  9
$DIMTOFL
 70
     1
  9
$DIMTVP
 40
0.0
  9
$DIMTIX
 70
     0
  9
$DIMSOXD
 70
     0
  9
$DIMSAH
 70
     1
  9
$DIMBLK1
  1
OPEN30
  9
$DIMBLK2
  1
OPEN30
  9
$DIMSTYLE
  2
NEWX10
  9
$DIMCLRD
 70
   256
  9
$DIMCLRE
 70
   256
  9
$DIMCLRT
 70
   201
  9
$DIMTFAC
 40
0.7
  9
$DIMGAP
 40
0.7
  9
$DIMJUST
 70
     0
  9
$DIMSD1
 70
     0
  9
$DIMSD2
 70
     0
  9
$DIMTOLJ
 70
     1
  9
$DIMTZIN
 70
     8
  9
$DIMALTZ
 70
     0
  9
$DIMALTTZ
 70
     0
  9
$DIMFIT
 70
     2
  9
$DIMUPT
 70
     0
  9
$DIMUNIT
 70
     2
  9
$DIMDEC
 70
     2
  9
$DIMTDEC
 70
     4
  9
$DIMALTU
 70
     2
  9
$DIMALTTD
 70
     2
  9
$DIMTXSTY
  7
STANDARD
  9
$DIMAUNIT
 70
     0
  9
$LUNITS
 70
     2
  9
$LUPREC
 70
     4
  9
$SKETCHINC
 40
1.0
  9
$FILLETRAD
 40
0.0
  9
$AUNITS
 70
     0
  9
$AUPREC
 70
     2
  9
$MENU
  1
acad
  9
$ELEVATION
 40
0.0
  9
$PELEVATION
 40
0.0
  9
$THICKNESS
 40
0.0
  9
$LIMCHECK
 70
     0
  9
$CHAMFERA
 40
1.0
  9
$CHAMFERB
 40
1.0
  9
$CHAMFERC
 40
20.0
  9
$CHAMFERD
 40
0.0
  9
$SKPOLY
 70
     0
  9
$TDCREATE
 40
2453033.732663484
  9
$TDUPDATE
 40
2459111.688780069
  9
$TDINDWG
 40
2.2109628009
  9
$TDUSRTIMER
 40
2.2109628009
  9
$USRTIMER
 70
     1
  9
$ANGBASE
 50
0.0
  9
$ANGDIR
 70
     0
  9
$PDMODE
 70
     0
  9
$PDSIZE
 40
0.0
  9
$PLINEWID
 40
0.0
  9
$COORDS
 70
     2
  9
$SPLFRAME
 70
     0
  9
$SPLINETYPE
 70
     6
  9
$SPLINESEGS
 70
     8
  9
$ATTDIA
 70
     0
  9
$ATTREQ
 70
     1
  9
$HANDLING
 70
     1
  9
$HANDSEED
  5
20495
  9
$SURFTAB1
 70
     6
  9
$SURFTAB2
 70
     6
  9
$SURFTYPE
 70
     6
  9
$SURFU
 70
     6
  9
$SURFV
 70
     6
  9
$UCSNAME
  2

  9
$UCSORG
 10
0.0
 20
0.0
 30
0.0
  9
$UCSXDIR
 10
1.0
 20
0.0
 30
0.0
  9
$UCSYDIR
 10
0.0
 20
1.0
 30
0.0
  9
$PUCSNAME
  2

  9
$PUCSORG
 10
0.0
 20
0.0
 30
0.0
  9
$PUCSXDIR
 10
1.0
 20
0.0
 30
0.0
  9
$PUCSYDIR
 10
0.0
 20
1.0
 30
0.0
  9
$USERI1
 70
     0
  9
$USERI2
 70
     0
  9
$USERI3
 70
     0
  9
$USERI4
 70
     0
  9
$USERI5
 70
     0
  9
$USERR1
 40
0.0
  9
$USERR2
 40
0.0
  9
$USERR3
 40
0.0
  9
$USERR4
 40
0.0
  9
$USERR5
 40
0.0
  9
$WORLDVIEW
 70
     1
  9
$SHADEDGE
 70
     3
  9
$SHADEDIF
 70
    70
  9
$TILEMODE
 70
     1
  9
$MAXACTVP
 70
    48
  9
$PINSBASE
 10
0.0
 20
0.0
 30
0.0
  9
$PLIMCHECK
 70
     0
  9
$PEXTMIN
 10
1.000000000000000E+20
 20
1.000000000000000E+20
 30
1.000000000000000E+20
  9
$PEXTMAX
 10
-1.000000000000000E+20
 20
-1.000000000000000E+20
 30
-1.000000000000000E+20
  9
$PLIMMIN
 10
0.0
 20
0.0
  9
$PLIMMAX
 10
420.0
 20
297.0
  9
$UNITMODE
 70
     0
  9
$VISRETAIN
 70
     1
  9
$PLINEGEN
 70
     0
  9
$PSLTSCALE
 70
     1
  9
$TREEDEPTH
 70
  3020
  9
$PICKSTYLE
 70
     1
  9
$CMLSTYLE
  2
STANDARD
  9
$CMLJUST
 70
     0
  9
$CMLSCALE
 40
20.0
  9
$SAVEIMAGES
 70
     1
  0
ENDSEC
  0
SECTION
  2
CLASSES
  0
CLASS
  1
DICTIONARYVAR
  2
AcDbDictionaryVar
  3
ObjectDBX Classes
 90
        0
280
     0
281
     0
  0
CLASS
  1
IDBUFFER
  2
AcDbIdBuffer
  3
ObjectDBX Classes
 90
    32768
280
     0
281
     0
  0
CLASS
  1
LWPOLYLINE
  2
AcDbPolyline
  3
ObjectDBX Classes
 90
    32768
280
     0
281
     1
  0
CLASS
  1
ACDBDICTIONARYWDFLT
  2
AcDbDictionaryWithDefault
  3
ObjectDBX Classes
 90
    32768
280
     0
281
     0
  0
CLASS
  1
ACDBPLACEHOLDER
  2
AcDbPlaceHolder
  3
ObjectDBX Classes
 90
        0
280
     0
281
     0
  0
CLASS
  1
LAYOUT
  2
AcDbLayout
  3
ObjectDBX Classes
 90
        0
280
     0
281
     0
  0
CLASS
  1
TABLESTYLE
  2
AcDbTableStyle
  3
ObjectDBX Classes
 90
     4095
280
     0
281
     0
  0
CLASS
  1
SORTENTSTABLE
  2
AcDbSortentsTable
  3
ObjectDBX Classes
 90
    32768
280
     0
281
     0
  0
CLASS
  1
DIMASSOC
  2
AcDbDimAssoc
  3
"AcDbDimAssoc|Product Desc:     AcDim ARX App For Dimension|Company:          Autodesk, Inc.|WEB Address:      www.autodesk.com"
 90
        0
280
     0
281
     0
  0
CLASS
  1
MATERIAL
  2
AcDbMaterial
  3
ObjectDBX Classes
 90
     1153
280
     0
281
     0
  0
CLASS
  1
VISUALSTYLE
  2
AcDbVisualStyle
  3
ObjectDBX Classes
 90
     4095
280
     0
281
     0
  0
CLASS
  1
SCALE
  2
AcDbScale
  3
ObjectDBX Classes
 90
     1153
280
     0
281
     0
  0
CLASS
  1
MLEADERSTYLE
  2
AcDbMLeaderStyle
  3
ACDB_MLEADERSTYLE_CLASS
 90
     4095
280
     0
281
     0
  0
CLASS
  1
CELLSTYLEMAP
  2
AcDbCellStyleMap
  3
ObjectDBX Classes
 90
     1152
280
     0
281
     0
  0
CLASS
  1
EXACXREFPANELOBJECT
  2
ExAcXREFPanelObject
  3
EXAC_ESW
 90
     1025
280
     1
281
     0
  0
CLASS
  1
NPOCOLLECTION
  2
AcDbImpNonPersistentObjectsCollection
  3
ObjectDBX Classes
 90
     1153
280
     1
281
     0
  0
CLASS
  1
SUN
  2
AcDbSun
  3
SCENEOE
 90
     1153
280
     0
281
     0
  0
CLASS
  1
XRECORD
  2
AcDbXrecord
  3
ObjectDBX Classes
 90
    32768
280
     0
281
     0
  0
CLASS
  1
HATCH
  2
AcDbHatch
  3
ObjectDBX Classes
 90
    32768
280
     0
281
     1
  0
ENDSEC
  0
SECTION
  2
TABLES
  0
TABLE
  2
VPORT
  5
8
330
0
100
AcDbSymbolTable
 70
     1
  0
VPORT
  5
19DC2
330
8
100
AcDbSymbolTableRecord
100
AcDbViewportTableRecord
  2
*ACTIVE
 70
     0
 10
0.0
 20
0.0
 11
1.0
 21
1.0
 12
-75.54138003758804
 22
-529.5360650547876
 13
0.0
 23
0.0
 14
10.0
 24
10.0
 15
10.0
 25
10.0
 16
0.0
 26
0.0
 36
1.0
 17
0.0
 27
0.0
 37
0.0
 40
310.2110545707359
 41
1.803066037735849
 42
50.0
 43
0.0
 44
0.0
 50
0.0
 51
0.0
 71
    16
 72
   100
 73
     1
 74
     1
 75
     0
 76
     0
 77
     0
 78
     0
  0
ENDTAB
  0
TABLE
  2
LTYPE
  5
5
330
0
100
AcDbSymbolTable
 70
     3
  0
LTYPE
  5
12
330
5
100
AcDbSymbolTableRecord
100
AcDbLinetypeTableRecord
  2
BYBLOCK
 70
     0
  3

 72
    65
 73
     0
 40
0.0
  0
LTYPE
  5
13
330
5
100
AcDbSymbolTableRecord
100
AcDbLinetypeTableRecord
  2
BYLAYER
 70
     0
  3

 72
    65
 73
     0
 40
0.0
  0
LTYPE
  5
14
330
5
100
AcDbSymbolTableRecord
100
AcDbLinetypeTableRecord
  2
CONTINUOUS
 70
     0
  3
Solid line
 72
    65
 73
     0
 40
0.0
  0
LTYPE
  5
26
330
5
100
AcDbSymbolTableRecord
100
AcDbLinetypeTableRecord
  2
CENTER2
 70
     0
  3
Center (.5x) ___ _ ___ _ ___ _ ___ _ ___ _ ___
 72
    65
 73
     4
 40
28.575
 49
19.05
 74
     0
 49
-3.175
 74
     0
 49
3.175
 74
     0
 49
-3.175
 74
     0
  0
LTYPE
  5
100
330
5
100
AcDbSymbolTableRecord
100
AcDbLinetypeTableRecord
  2
PHANTOM2
 70
     0
  3
Phantom (0.5x) ___ _ _ ___ _ _ ___ _ _ ___ _ _
 72
    65
 73
     6
 40
31.75
 49
15.875
 74
     0
 49
-3.175
 74
     0
 49
3.175
 74
     0
 49
-3.175
 74
     0
 49
3.175
 74
     0
 49
-3.175
 74
     0
  0
ENDTAB
  0
TABLE
  2
LAYER
  5
2
102
{ACAD_XDICTIONARY
360
18FE8
102
}
330
0
100
AcDbSymbolTable
 70
     7
  0
LAYER
  5
E
102
{ACAD_XDICTIONARY
360
1A20A
102
}
330
2
100
AcDbSymbolTableRecord
100
AcDbLayerTableRecord
  2
0
 70
     0
 62
     7
  6
CONTINUOUS
  0
LAYER
  5
29
102
{ACAD_XDICTIONARY
360
1A20C
102
}
330
2
100
AcDbSymbolTableRecord
100
AcDbLayerTableRecord
  2
1CENTER
 70
     0
 62
     7
  6
CENTER2
  0
LAYER
  5
31
102
{ACAD_XDICTIONARY
360
1A20E
102
}
330
2
100
AcDbSymbolTableRecord
100
AcDbLayerTableRecord
  2
1TEXT
 70
     0
 62
     7
  6
CONTINUOUS
  0
LAYER
  5
101
102
{ACAD_XDICTIONARY
360
1A218
102
}
330
2
100
AcDbSymbolTableRecord
100
AcDbLayerTableRecord
  2
1DIM
 70
     0
 62
     7
  6
CONTINUOUS
  0
LAYER
  5
103
102
{ACAD_XDICTIONARY
360
1A21C
102
}
330
2
100
AcDbSymbolTableRecord
100
AcDbLayerTableRecord
  2
1PHANTOM
 70
     0
 62
     7
  6
PHANTOM2
  0
LAYER
  5
25F
102
{ACAD_XDICTIONARY
360
1A220
102
}
330
2
100
AcDbSymbolTableRecord
100
AcDbLayerTableRecord
  2
01
 70
     0
 62
     1
  6
CONTINUOUS
  0
LAYER
  5
26D
102
{ACAD_XDICTIONARY
360
1A23C
102
}
330
2
100
AcDbSymbolTableRecord
100
AcDbLayerTableRecord
  2
1HATCH
 70
     0
 62
     7
  6
CONTINUOUS
  0
ENDTAB
  0
TABLE
  2
STYLE
  5
3
330
0
100
AcDbSymbolTable
 70
     1
  0
STYLE
  5
F
330
3
100
AcDbSymbolTableRecord
100
AcDbTextStyleTableRecord
  2
STANDARD
 70
     0
 40
0.0
 41
1.0
 50
0.0
 71
     0
 42
4.0
  3
txt.shx
  4
extfont.shx
  0
ENDTAB
  0
TABLE
  2
VIEW
  5
6
330
0
100
AcDbSymbolTable
 70
     0
  0
ENDTAB
  0
TABLE
  2
UCS
  5
7
330
0
100
AcDbSymbolTable
 70
     0
  0
ENDTAB
  0
TABLE
  2
APPID
  5
9
330
0
100
AcDbSymbolTable
 70
    14
  0
APPID
  5
10
330
9
100
AcDbSymbolTableRecord
100
AcDbRegAppTableRecord
  2
ACAD
 70
     0
  0
APPID
  5
21
330
9
100
AcDbSymbolTableRecord
100
AcDbRegAppTableRecord
  2
DRAWINGVARIABLESXDATA
 70
     0
  0
APPID
  5
64
330
9
100
AcDbSymbolTableRecord
100
AcDbRegAppTableRecord
  2
CONTENTTABDATA
 70
     0
  0
APPID
  5
65
330
9
100
AcDbSymbolTableRecord
100
AcDbRegAppTableRecord
  2
CONTENTCURRENTTAB
 70
     0
  0
APPID
  5
66
330
9
100
AcDbSymbolTableRecord
100
AcDbRegAppTableRecord
  2
CONTENTBLOCKDESCRIPTION
 70
     0
  0
APPID
  5
67
330
9
100
AcDbSymbolTableRecord
100
AcDbRegAppTableRecord
  2
CONTENTBLOCKICON
 70
     0
  0
APPID
  5
68
330
9
100
AcDbSymbolTableRecord
100
AcDbRegAppTableRecord
  2
CONTENTLONGBLOCKNAME
 70
     0
  0
APPID
  5
5A9
330
9
100
AcDbSymbolTableRecord
100
AcDbRegAppTableRecord
  2
ACAD_PSEXT
 70
     0
  0
APPID
  5
18AC
330
9
100
AcDbSymbolTableRecord
100
AcDbRegAppTableRecord
  2
ACAD_DSTYLE_DIMTEXT_FILL
 70
     0
  0
APPID
  5
19E1A
330
9
100
AcDbSymbolTableRecord
100
AcDbRegAppTableRecord
  2
ACAD_MLEADERVER
 70
     0
  0
APPID
  5
1A2FA
330
9
100
AcDbSymbolTableRecord
100
AcDbRegAppTableRecord
  2
ACAD_DSTYLE_DIMRADIAL_EXTE
 70
     0
  0
APPID
  5
1DD1D
330
9
100
AcDbSymbolTableRecord
100
AcDbRegAppTableRecord
  2
ACADANNOTATIVE
 70
     0
  0
APPID
  5
1F7FB
330
9
100
AcDbSymbolTableRecord
100
AcDbRegAppTableRecord
  2
ACAD_EXEMPT_FROM_CAD_STAND
 70
     0
  0
APPID
  5
1F903
330
9
100
AcDbSymbolTableRecord
100
AcDbRegAppTableRecord
  2
ACDBBLOCKREPETAG
 70
     0
  0
ENDTAB
  0
TABLE
  2
DIMSTYLE
  5
A
330
0
100
AcDbSymbolTable
 70
     1
  0
DIMSTYLE
105
48
330
A
100
AcDbSymbolTableRecord
100
AcDbDimStyleTableRecord
  2
NEWX10
 70
     0
  3
 
  4

  5

  6
OPEN30
  7
OPEN30
 40
1.0
 41
2.0
 42
0.0
 43
7.0
 44
1.0
 45
0.0
 46
0.0
 47
0.0
 48
0.0
140
3.5
141
0.0
142
0.0
143
25.4
144
1.0
145
0.0
146
0.7
147
0.7
 71
     0
 72
     0
 73
     0
 74
     0
 75
     0
 76
     0
 77
     1
 78
     8
170
     0
171
     2
172
     1
173
     1
174
     0
175
     0
176
   256
177
   256
178
   201
179
     2
270
     2
271
     2
272
     4
273
     2
274
     2
340
F
275
     0
280
     0
281
     0
282
     0
283
     1
284
     8
285
     0
286
     0
287
     2
288
     0
  0
ENDTAB
  0
TABLE
  2
BLOCK_RECORD
  5
1
330
0
100
AcDbSymbolTable
 70
     8
  0
BLOCK_RECORD
  5
18
102
{ACAD_XDICTIONARY
360
6E9
102
}
330
1
100
AcDbSymbolTableRecord
100
AcDbBlockTableRecord
  2
*MODEL_SPACE
  0
BLOCK_RECORD
  5
15
102
{ACAD_XDICTIONARY
360
59B
102
}
330
1
100
AcDbSymbolTableRecord
100
AcDbBlockTableRecord
  2
*PAPER_SPACE
  0
BLOCK_RECORD
  5
42
330
1
100
AcDbSymbolTableRecord
100
AcDbBlockTableRecord
  2
_OPEN30
  0
BLOCK_RECORD
  5
1F954
330
1
100
AcDbSymbolTableRecord
100
AcDbBlockTableRecord
  2
A3WAKUKAWAJUN2017_HYOUDAI_
  0
BLOCK_RECORD
  5
202F5
330
1
100
AcDbSymbolTableRecord
100
AcDbBlockTableRecord
  2
*X43
  0
BLOCK_RECORD
  5
20343
330
1
100
AcDbSymbolTableRecord
100
AcDbBlockTableRecord
  2
*X44
  0
BLOCK_RECORD
  5
20395
330
1
100
AcDbSymbolTableRecord
100
AcDbBlockTableRecord
  2
*X45
  0
BLOCK_RECORD
  5
203E6
330
1
100
AcDbSymbolTableRecord
100
AcDbBlockTableRecord
  2
*X46
  0
BLOCK_RECORD
  5
20423
330
1
100
AcDbSymbolTableRecord
100
AcDbBlockTableRecord
  2
*X47
  0
BLOCK_RECORD
  5
20463
330
1
100
AcDbSymbolTableRecord
100
AcDbBlockTableRecord
  2
*X48
  0
ENDTAB
  0
ENDSEC
  0
SECTION
  2
BLOCKS
  0
BLOCK
  5
19
330
18
100
AcDbEntity
  8
0
100
AcDbBlockBegin
  2
*MODEL_SPACE
 70
     0
 10
0.0
 20
0.0
 30
0.0
  3
*MODEL_SPACE
  1

  0
ENDBLK
  5
1A
330
18
100
AcDbEntity
  8
0
100
AcDbBlockEnd
  0
BLOCK
  5
16
330
15
100
AcDbEntity
 67
     1
  8
0
100
AcDbBlockBegin
  2
*PAPER_SPACE
 70
     0
 10
0.0
 20
0.0
 30
0.0
  3
*PAPER_SPACE
  1

  0
ENDBLK
  5
17
330
15
100
AcDbEntity
 67
     1
  8
0
100
AcDbBlockEnd
  0
BLOCK
  5
43
330
42
100
AcDbEntity
  8
0
100
AcDbBlockBegin
  2
_OPEN30
 70
     0
 10
0.0
 20
0.0
 30
0.0
  3
_OPEN30
  1

  0
LINE
  5
44
330
42
100
AcDbEntity
  8
0
  6
BYBLOCK
 62
     0
100
AcDbLine
 10
-1.0
 20
0.26794919
 30
0.0
 11
0.0
 21
0.0
 31
0.0
  0
LINE
  5
45
330
42
100
AcDbEntity
  8
0
  6
BYBLOCK
 62
     0
100
AcDbLine
 10
0.0
 20
0.0
 30
0.0
 11
-1.0
 21
-0.26794919
 31
0.0
  0
LINE
  5
46
330
42
100
AcDbEntity
  8
0
  6
BYBLOCK
 62
     0
100
AcDbLine
 10
0.0
 20
0.0
 30
0.0
 11
-1.0
 21
0.0
 31
0.0
  0
ENDBLK
  5
47
330
42
100
AcDbEntity
  8
0
100
AcDbBlockEnd
  0
BLOCK
  5
20053
330
1F954
100
AcDbEntity
  8
0
100
AcDbBlockBegin
  2
A3WAKUKAWAJUN2017_HYOUDAI_
 70
     0
 10
0.0
 20
0.0
 30
0.0
  3
A3WAKUKAWAJUN2017_HYOUDAI_
  1

  0
LINE
  5
1F956
330
1F954
100
AcDbEntity
  8
0
100
AcDbLine
 10
13.26299999998673
 20
-0.0001000000000317
 30
0.0
 11
9.236999999990758
 21
8.999899999990987
 31
0.0
1001
ACAD
1000
ASC_BOUNDS
1002
{
1070
    19
1005
1F997
1002
}
  0
LINE
  5
1F957
330
1F954
100
AcDbEntity
  8
0
100
AcDbLine
 10
5.657999999994331
 20
0.9999999999989768
 30
0.0
 11
9.236999999990758
 21
8.999999999991019
 31
0.0
1001
ACAD
1000
ASC_BOUNDS
1002
{
1070
    19
1005
1F997
1002
}
  0
LINE
  5
1F958
330
1F954
100
AcDbEntity
  8
0
100
AcDbLine
 10
18.59199999998134
 20
-0.2368999999997641
 30
0.0
 11
16.46099999998353
 21
5.432899999994561
 31
0.0
1001
ACAD
1000
ASC_BOUNDS
1002
{
1070
    19
1005
1F998
1002
}
  0
LINE
  5
1F959
330
1F954
100
AcDbEntity
  8
0
100
AcDbLine
 10
18.59199999998134
 20
-0.2368999999997641
 30
0.0
 11
22.38199999997767
 21
8.763099999991255
 31
0.0
1001
ACAD
1000
ASC_BOUNDS
1002
{
1070
    19
1005
1F998
1002
}
  0
LINE
  5
1F95A
330
1F954
100
AcDbEntity
  8
0
100
AcDbLine
 10
14.32899999998563
 20
-0.2368999999997641
 30
0.0
 11
16.46099999998353
 21
5.432899999994561
 31
0.0
1001
ACAD
1000
ASC_BOUNDS
1002
{
1070
    19
1005
1F998
1002
}
  0
LINE
  5
1F95B
330
1F954
100
AcDbEntity
  8
0
100
AcDbLine
 10
14.32899999998563
 20
-0.2368999999997641
 30
0.0
 11
10.53899999998941
 21
8.763099999991255
 31
0.0
1001
ACAD
1000
ASC_BOUNDS
1002
{
1070
    19
1005
1F998
1002
}
  0
LINE
  5
1F95C
330
1F954
100
AcDbEntity
  8
0
100
AcDbLine
 10
19.53899999998043
 20
-0.0001000000000317
 30
0.0
 11
23.56599999997638
 21
8.999899999990987
 31
0.0
1001
ACAD
1000
ASC_BOUNDS
1002
{
1070
    19
1005
1F999
1002
}
  0
LINE
  5
1F95D
330
1F954
100
AcDbEntity
  8
0
100
AcDbLine
 10
26.97358892824991
 20
1.383099999991202
 30
0.0
 11
23.56599999997638
 21
8.999899999990987
 31
0.0
1001
ACAD
1000
ASC_BOUNDS
1002
{
1070
    19
1005
1F999
1002
}
  0
LINE
  5
1F95E
330
1F954
100
AcDbEntity
  8
0
100
AcDbLine
 10
5.657999999994331
 20
0.9999999999989768
 30
0.0
 11
3.181999999996833
 21
4.668599999995308
 31
0.0
1001
ACAD
1000
ASC_BOUNDS
1002
{
1070
    19
1005
1F997
1002
}
  0
LINE
  5
1F95F
330
1F954
100
AcDbEntity
  8
0
100
AcDbLine
 10
4.617999999995391
 20
-0.0001000000000317
 30
0.0
 11
1.420999999998571
 21
4.736799999995242
 31
0.0
1001
ACAD
1000
ASC_BOUNDS
1002
{
1070
    19
1005
1F997
1002
}
  0
LINE
  5
1F960
330
1F954
100
AcDbEntity
  8
0
100
AcDbLine
 10
1.420999999998571
 20
8.763099999991255
 30
0.0
 11
1.420999999998571
 21
0.0
 31
0.0
1001
ACAD
1000
ASC_BOUNDS
1002
{
1070
    19
1005
1F99C
1002
}
  0
LINE
  5
1F961
330
1F954
100
AcDbEntity
  8
0
100
AcDbLine
 10
0.0
 20
8.763099999991255
 30
0.0
 11
0.0
 21
0.0
 31
0.0
1001
ACAD
1000
ASC_BOUNDS
1002
{
1070
    19
1005
1F99C
1002
}
  0
LINE
  5
1F962
330
1F954
100
AcDbEntity
  8
0
100
AcDbLine
 10
6.766999999993232
 20
-0.0001000000000317
 30
0.0
 11
7.826999999992154
 21
2.368399999997621
 31
0.0
1001
ACAD
1000
ASC_BOUNDS
1002
{
1070
    19
1005
1F997
1002
}
  0
LINE
  5
1F963
330
1F954
100
AcDbEntity
  8
0
100
AcDbLine
 10
0.0
 20
0.0
 30
0.0
 11
1.420999999998571
 21
0.0
 31
0.0
1001
ACAD
1000
ASC_BOUNDS
1002
{
1070
    19
1005
1F99C
1002
}
  0
LINE
  5
1F964
330
1F954
100
AcDbEntity
  8
0
100
AcDbLine
 10
4.617999999995391
 20
0.0
 30
0.0
 11
6.766999999993232
 21
0.0
 31
0.0
1001
ACAD
1000
ASC_BOUNDS
1002
{
1070
    19
1005
1F997
1002
}
  0
LINE
  5
1F965
330
1F954
100
AcDbEntity
  8
0
100
AcDbLine
 10
11.70599999998831
 20
-0.0001000000000317
 30
0.0
 11
10.64699999998936
 21
2.368399999997621
 31
0.0
1001
ACAD
1000
ASC_BOUNDS
1002
{
1070
    19
1005
1F997
1002
}
  0
LINE
  5
1F966
330
1F954
100
AcDbEntity
  8
0
100
AcDbLine
 10
7.826999999992154
 20
2.368399999997621
 30
0.0
 11
10.64699999998936
 21
2.368399999997621
 31
0.0
1001
ACAD
1000
ASC_BOUNDS
1002
{
1070
    19
1005
1F997
1002
}
  0
LINE
  5
1F967
330
1F954
100
AcDbEntity
  8
0
100
AcDbLine
 10
11.70599999998831
 20
0.0
 30
0.0
 11
13.26299999998673
 21
0.0
 31
0.0
1001
ACAD
1000
ASC_BOUNDS
1002
{
1070
    19
1005
1F997
1002
}
  0
LINE
  5
1F968
330
1F954
100
AcDbEntity
  8
0
100
AcDbLine
 10
22.15599999997789
 20
2.368399999997621
 30
0.0
 11
24.97599999997499
 21
2.368399999997621
 31
0.0
1001
ACAD
1000
ASC_BOUNDS
1002
{
1070
    19
1005
1F999
1002
}
  0
LINE
  5
1F969
330
1F954
100
AcDbEntity
  8
0
100
AcDbLine
 10
19.53899999998043
 20
0.0
 30
0.0
 11
21.09599999997886
 21
0.0
 31
0.0
1001
ACAD
1000
ASC_BOUNDS
1002
{
1070
    19
1005
1F999
1002
}
  0
LINE
  5
1F96A
330
1F954
100
AcDbEntity
  8
0
100
AcDbLine
 10
21.09599999997886
 20
-0.0001000000000317
 30
0.0
 11
22.15599999997789
 21
2.368399999997621
 31
0.0
1001
ACAD
1000
ASC_BOUNDS
1002
{
1070
    19
1005
1F999
1002
}
  0
LINE
  5
1F96B
330
1F954
100
AcDbEntity
  8
0
100
AcDbLine
 10
26.02015566812236
 20
0.0330999999912365
 30
0.0
 11
24.97599999997499
 21
2.368399999997621
 31
0.0
1001
ACAD
1000
ASC_BOUNDS
1002
{
1070
    19
1005
1F999
1002
}
  0
LINE
  5
1F96C
330
1F954
100
AcDbEntity
  8
0
100
AcDbLine
 10
14.32399999998563
 20
3.315799999996671
 30
0.0
 11
16.46099999998353
 21
8.999899999990987
 31
0.0
1001
ACAD
1000
ASC_BOUNDS
1002
{
1070
    19
1005
1F998
1002
}
  0
LINE
  5
1F96D
330
1F954
100
AcDbEntity
  8
0
100
AcDbLine
 10
6.432999999993513
 20
8.763099999991255
 30
0.0
 11
3.181999999996833
 21
4.668599999995308
 31
0.0
1001
ACAD
1000
ASC_BOUNDS
1002
{
1070
    19
1005
1F997
1002
}
  0
LINE
  5
1F96E
330
1F954
100
AcDbEntity
  8
0
100
AcDbLine
 10
4.617999999995391
 20
8.763099999991255
 30
0.0
 11
1.420999999998571
 21
4.736799999995242
 31
0.0
1001
ACAD
1000
ASC_BOUNDS
1002
{
1070
    19
1005
1F997
1002
}
  0
LINE
  5
1F96F
330
1F954
100
AcDbEntity
  8
0
100
AcDbLine
 10
0.0
 20
8.763099999991255
 30
0.0
 11
1.420999999998571
 21
8.763099999991255
 31
0.0
1001
ACAD
1000
ASC_BOUNDS
1002
{
1070
    19
1005
1F99C
1002
}
  0
LINE
  5
1F970
330
1F954
100
AcDbEntity
  8
0
100
AcDbLine
 10
4.617999999995391
 20
8.763099999991255
 30
0.0
 11
6.432999999993513
 21
8.763099999991255
 31
0.0
1001
ACAD
1000
ASC_BOUNDS
1002
{
1070
    19
1005
1F997
1002
}
  0
LINE
  5
1F971
330
1F954
100
AcDbEntity
  8
0
100
AcDbLine
 10
14.32399999998563
 20
3.315799999996671
 30
0.0
 11
12.02999999998792
 21
8.763099999991255
 31
0.0
1001
ACAD
1000
ASC_BOUNDS
1002
{
1070
    19
1005
1F998
1002
}
  0
LINE
  5
1F972
330
1F954
100
AcDbEntity
  8
0
100
AcDbLine
 10
10.06399999998996
 20
3.670999999996297
 30
0.0
 11
9.236999999990758
 21
5.5200999999945
 31
0.0
1001
ACAD
1000
ASC_BOUNDS
1002
{
1070
    19
1005
1F997
1002
}
  0
LINE
  5
1F973
330
1F954
100
AcDbEntity
  8
0
100
AcDbLine
 10
8.409999999991555
 20
3.670999999996297
 30
0.0
 11
9.236999999990758
 21
5.5200999999945
 31
0.0
1001
ACAD
1000
ASC_BOUNDS
1002
{
1070
    19
1005
1F997
1002
}
  0
LINE
  5
1F974
330
1F954
100
AcDbEntity
  8
0
100
AcDbLine
 10
8.409999999991555
 20
3.670999999996297
 30
0.0
 11
10.06399999998996
 21
3.670999999996297
 31
0.0
1001
ACAD
1000
ASC_BOUNDS
1002
{
1070
    19
1005
1F997
1002
}
  0
LINE
  5
1F975
330
1F954
100
AcDbEntity
  8
0
100
AcDbLine
 10
10.53899999998941
 20
8.763099999991255
 30
0.0
 11
12.02999999998792
 21
8.763099999991255
 31
0.0
1001
ACAD
1000
ASC_BOUNDS
1002
{
1070
    19
1005
1F998
1002
}
  0
LINE
  5
1F976
330
1F954
100
AcDbEntity
  8
0
100
AcDbLine
 10
22.7389999999773
 20
3.670999999996297
 30
0.0
 11
23.56599999997638
 21
5.5200999999945
 31
0.0
1001
ACAD
1000
ASC_BOUNDS
1002
{
1070
    19
1005
1F999
1002
}
  0
LINE
  5
1F977
330
1F954
100
AcDbEntity
  8
0
100
AcDbLine
 10
22.7389999999773
 20
3.670999999996297
 30
0.0
 11
24.39299999997559
 21
3.670999999996297
 31
0.0
1001
ACAD
1000
ASC_BOUNDS
1002
{
1070
    19
1005
1F999
1002
}
  0
LINE
  5
1F978
330
1F954
100
AcDbEntity
  8
0
100
AcDbLine
 10
18.59799999998143
 20
3.315799999996671
 30
0.0
 11
20.89099999997916
 21
8.763099999991255
 31
0.0
1001
ACAD
1000
ASC_BOUNDS
1002
{
1070
    19
1005
1F998
1002
}
  0
LINE
  5
1F979
330
1F954
100
AcDbEntity
  8
0
100
AcDbLine
 10
18.59799999998143
 20
3.315799999996671
 30
0.0
 11
16.46099999998353
 21
8.999899999990987
 31
0.0
1001
ACAD
1000
ASC_BOUNDS
1002
{
1070
    19
1005
1F998
1002
}
  0
LINE
  5
1F97A
330
1F954
100
AcDbEntity
  8
0
100
AcDbLine
 10
20.89099999997916
 20
8.763099999991255
 30
0.0
 11
22.38199999997767
 21
8.763099999991255
 31
0.0
1001
ACAD
1000
ASC_BOUNDS
1002
{
1070
    19
1005
1F998
1002
}
  0
LINE
  5
1F97B
330
1F954
100
AcDbEntity
  8
0
100
AcDbLine
 10
24.39299999997559
 20
3.670999999996297
 30
0.0
 11
23.56599999997638
 21
5.5200999999945
 31
0.0
1001
ACAD
1000
ASC_BOUNDS
1002
{
1070
    19
1005
1F999
1002
}
  0
LINE
  5
1F97C
330
1F954
100
AcDbEntity
  8
0
100
AcDbLine
 10
44.99999999995498
 20
-0.2368999999997641
 30
0.0
 11
40.02599999995994
 21
5.341799999994635
 31
0.0
1001
ACAD
1000
ASC_BOUNDS
1002
{
1070
    19
1005
1F99B
1002
}
  0
LINE
  5
1F97D
330
1F954
100
AcDbEntity
  8
0
100
AcDbLine
 10
40.02599999995994
 20
5.341799999994635
 30
0.0
 11
40.02599999995994
 21
0.0
 31
0.0
1001
ACAD
1000
ASC_BOUNDS
1002
{
1070
    19
1005
1F99B
1002
}
  0
LINE
  5
1F97E
330
1F954
100
AcDbEntity
  8
0
100
AcDbLine
 10
38.60499999996136
 20
8.999999999991019
 30
0.0
 11
38.60499999996136
 21
0.0
 31
0.0
1001
ACAD
1000
ASC_BOUNDS
1002
{
1070
    19
1005
1F99B
1002
}
  0
LINE
  5
1F97F
330
1F954
100
AcDbEntity
  8
0
100
AcDbLine
 10
44.99999999995498
 20
8.763099999991255
 30
0.0
 11
44.99999999995498
 21
-0.2368999999997641
 31
0.0
1001
ACAD
1000
ASC_BOUNDS
1002
{
1070
    19
1005
1F99B
1002
}
  0
LINE
  5
1F980
330
1F954
100
AcDbEntity
  8
0
100
AcDbLine
 10
38.60499999996136
 20
0.0
 30
0.0
 11
40.02599999995994
 21
0.0
 31
0.0
1001
ACAD
1000
ASC_BOUNDS
1002
{
1070
    19
1005
1F99B
1002
}
  0
LINE
  5
1F981
330
1F954
100
AcDbEntity
  8
0
100
AcDbLine
 10
43.57899999995641
 20
3.421199999996588
 30
0.0
 11
38.60499999996136
 21
8.999899999990987
 31
0.0
1001
ACAD
1000
ASC_BOUNDS
1002
{
1070
    19
1005
1F99B
1002
}
  0
LINE
  5
1F982
330
1F954
100
AcDbEntity
  8
0
100
AcDbLine
 10
43.57899999995641
 20
8.763099999991255
 30
0.0
 11
43.57899999995641
 21
3.421199999996588
 31
0.0
1001
ACAD
1000
ASC_BOUNDS
1002
{
1070
    19
1005
1F99B
1002
}
  0
LINE
  5
1F983
330
1F954
100
AcDbEntity
  8
0
100
AcDbLine
 10
43.57899999995641
 20
8.763099999991255
 30
0.0
 11
44.99999999995498
 21
8.763099999991255
 31
0.0
1001
ACAD
1000
ASC_BOUNDS
1002
{
1070
    19
1005
1F99B
1002
}
  0
LINE
  5
1F984
330
1F954
100
AcDbEntity
  8
0
100
AcDbLine
 10
37.67199999996831
 20
8.763099999991255
 30
0.0
 11
36.23199999996837
 21
8.763099999991255
 31
0.0
  0
LINE
  5
1F985
330
1F954
100
AcDbEntity
  8
0
100
AcDbLine
 10
31.64199999996833
 20
8.763099999991255
 30
0.0
 11
31.64199999996833
 21
2.481619422925121
 31
0.0
  0
LINE
  5
1F986
330
1F954
100
AcDbEntity
  8
0
100
AcDbLine
 10
37.67199999996831
 20
8.763099999991255
 30
0.0
 11
37.67199999996831
 21
2.481619422925121
 31
0.0
  0
LINE
  5
1F987
330
1F954
100
AcDbEntity
  8
0
100
AcDbLine
 10
36.23199999996837
 20
8.763099999991255
 30
0.0
 11
36.23199999996837
 21
2.481619422925064
 31
0.0
  0
LINE
  5
1F988
330
1F954
100
AcDbEntity
  8
0
100
AcDbLine
 10
33.08199999996839
 20
8.763099999991255
 30
0.0
 11
33.08199999996839
 21
2.481619422925121
 31
0.0
  0
ARC
  5
1F989
330
1F954
100
AcDbEntity
  8
0
100
AcDbCircle
 10
34.65699999996832
 20
3.183099999991214
 30
0.0
 40
3.420000000000007
100
AcDbArc
 50
240.0000000000255
 51
299.9999999999766
  0
ARC
  5
1F98A
330
1F954
100
AcDbEntity
  8
0
100
AcDbCircle
 10
34.65699999996832
 20
3.183099999991214
 30
0.0
 40
1.97999999999999
100
AcDbArc
 50
240.000000000026
 51
299.9999999999703
  0
LINE
  5
1F98B
330
1F954
100
AcDbEntity
  8
0
100
AcDbLine
 10
33.08199999996828
 20
8.763099999991255
 30
0.0
 11
31.64199999996833
 21
8.763099999991255
 31
0.0
  0
ARC
  5
1F98C
330
1F954
100
AcDbEntity
  8
0
100
AcDbCircle
 10
35.06199999996829
 20
2.481619422925064
 30
0.0
 40
1.17
100
AcDbArc
 50
299.9999999999699
 51
0.0
  0
ARC
  5
1F98D
330
1F954
100
AcDbEntity
  8
0
100
AcDbCircle
 10
34.25199999996835
 20
2.481619422925121
 30
0.0
 40
1.17
100
AcDbArc
 50
180.0
 51
240.0000000000238
  0
ARC
  5
1F98E
330
1F954
100
AcDbEntity
  8
0
100
AcDbCircle
 10
35.06199999996841
 20
2.481619422925121
 30
0.0
 40
2.61
100
AcDbArc
 50
299.9999999999756
 51
0.0
  0
ARC
  5
1F98F
330
1F954
100
AcDbEntity
  8
0
100
AcDbCircle
 10
34.25199999996835
 20
2.481619422925121
 30
0.0
 40
2.61
100
AcDbArc
 50
180.0
 51
240.0000000000244
  0
LINE
  5
1F990
330
1F954
100
AcDbEntity
  8
0
100
AcDbLine
 10
29.30199999996933
 20
8.763099999991255
 30
0.0
 11
30.74199999996927
 21
8.763099999991255
 31
0.0
1001
ACAD
1000
ASC_BOUNDS
1002
{
1070
    19
1005
1F999
1002
}
  0
LINE
  5
1F991
330
1F954
100
AcDbEntity
  8
0
100
AcDbLine
 10
30.74199999996927
 20
8.763099999991255
 30
0.0
 11
30.74199999996927
 21
2.373099999991211
 31
0.0
1001
ACAD
1000
ASC_BOUNDS
1002
{
1070
    19
1005
1F999
1002
}
  0
LINE
  5
1F992
330
1F954
100
AcDbEntity
  8
0
100
AcDbLine
 10
26.02015566812236
 20
0.0330999999912365
 30
0.0
 11
28.40199999996923
 21
0.0330999999912365
 31
0.0
1001
ACAD
1000
ASC_BOUNDS
1002
{
1070
    19
1005
1F999
1002
}
  0
LINE
  5
1F993
330
1F954
100
AcDbEntity
  8
0
100
AcDbLine
 10
29.30199999996933
 20
8.763099999991255
 30
0.0
 11
29.30199999996933
 21
2.283099999991236
 31
0.0
1001
ACAD
1000
ASC_BOUNDS
1002
{
1070
    19
1005
1F999
1002
}
  0
LINE
  5
1F994
330
1F954
100
AcDbEntity
  8
0
100
AcDbLine
 10
26.97358892824991
 20
1.383099999991202
 30
0.0
 11
28.40199999996923
 21
1.383099999991202
 31
0.0
1001
ACAD
1000
ASC_BOUNDS
1002
{
1070
    19
1005
1F999
1002
}
  0
ARC
  5
1F995
330
1F954
100
AcDbEntity
  8
0
100
AcDbCircle
 10
28.40199999996923
 20
2.283099999991236
 30
0.0
 40
0.9
100
AcDbArc
 50
270.0
 51
0.0
1001
ACAD
1000
ASC_BOUNDS
1002
{
1070
    19
1005
1F999
1002
}
  0
ARC
  5
1F996
330
1F954
100
AcDbEntity
  8
0
100
AcDbCircle
 10
28.40199999996923
 20
2.373099999991211
 30
0.0
 40
2.34
100
AcDbArc
 50
270.0
 51
0.0
1001
ACAD
1000
ASC_BOUNDS
1002
{
1070
    19
1005
1F999
1002
}
  0
INSERT
  5
1F997
330
1F954
100
AcDbEntity
  8
0
100
AcDbBlockReference
  2
*X43
 10
0.0
 20
0.0
 30
0.0
1001
ACAD
1000
HATCH
1002
{
1070
    19
1000
ANSI37
1040
0.15
1040
0.0
1000
ASC_BOUNDS
1070
     2
1070
     2
1070
    12
1005
1F956
1005
1F957
1005
1F95E
1005
1F96D
1005
1F970
1005
1F96E
1005
1F95F
1005
1F964
1005
1F962
1005
1F966
1005
1F965
1005
1F967
1070
     2
1070
     3
1005
1F972
1005
1F974
1005
1F973
1000
ASC_SEEDPOINT
1011
3.614004224891801
1021
2.996669441146025
1031
0.0
1000
R14_HATCH_DATA
1000
1F997
1011
1.0
1021
0.0
1031
0.0
1011
0.0
1021
1.0
1031
0.0
1011
0.0
1021
0.0
1031
1.0
1040
0.0
1010
0.0
1020
0.0
1030
1.0
1000
ANSI37
1070
     0
1070
     1
1071
        2
1071
        7
1070
     0
1070
     1
1071
       17
1040
13.26299999998673
1040
-0.0001000000000317
1040
9.236999999990758
1040
8.999899999990987
1040
9.236999999990758
1040
8.999999999991019
1040
5.657999999994331
1040
0.9999999999989768
1040
3.181999999996833
1040
4.668599999995308
1040
6.432999999993513
1040
8.763099999991255
1040
4.617999999995391
1040
8.763099999991255
1040
1.420999999998571
1040
4.736799999995242
1040
4.617999999995391
1040
-0.0001000000000317
1040
4.617999999995391
1040
0.0
1040
6.766999999993232
1040
0.0
1040
6.766999999993232
1040
-0.0001000000000317
1040
7.826999999992154
1040
2.368399999997621
1040
10.64699999998936
1040
2.368399999997621
1040
11.70599999998831
1040
-0.0001000000000317
1040
11.70599999998831
1040
0.0
1040
13.26299999998673
1040
0.0
1071
       12
1005
1F956
1005
1F957
1005
1F95E
1005
1F96D
1005
1F970
1005
1F96E
1005
1F95F
1005
1F964
1005
1F962
1005
1F966
1005
1F965
1005
1F967
1071
       22
1070
     0
1070
     1
1071
        3
1040
9.236999999990758
1040
5.5200999999945
1040
10.06399999998996
1040
3.670999999996297
1040
8.409999999991555
1040
3.670999999996297
1071
        3
1005
1F972
1005
1F974
1005
1F973
1070
     0
1070
     1
1040
0.0
1040
0.15
1070
     0
1070
     2
1040
0.7853981633974483
1040
49.29960901727088
1040
-10.17736998311392
1040
-0.3367596045400932
1040
0.3367596045400932
1070
     0
1040
2.356194490192345
1040
49.29960901727088
1040
-10.17736998311392
1040
-0.3367596045400932
1040
-0.3367596045400932
1070
     0
1040
0.0110235143455945
1071
        2
1040
3.614004224891801
1040
2.996669441146025
1040
0.0
1040
3.614004224891801
1040
2.996669441146025
1040
0.0
1002
}
  0
INSERT
  5
1F998
330
1F954
100
AcDbEntity
  8
0
100
AcDbBlockReference
  2
*X44
 10
0.0
 20
0.0
 30
0.0
1001
ACAD
1000
HATCH
1002
{
1070
    19
1000
ANSI37
1040
0.15
1040
0.0
1000
ASC_BOUNDS
1070
     1
1070
     2
1070
    10
1005
1F958
1005
1F959
1005
1F97A
1005
1F978
1005
1F979
1005
1F96C
1005
1F971
1005
1F975
1005
1F95B
1005
1F95A
1000
ASC_SEEDPOINT
1011
14.73245321214324
1021
2.798246178283421
1031
0.0
1000
R14_HATCH_DATA
1000
1F998
1011
1.0
1021
0.0
1031
0.0
1011
0.0
1021
1.0
1031
0.0
1011
0.0
1021
0.0
1031
1.0
1040
0.0
1010
0.0
1020
0.0
1030
1.0
1000
ANSI37
1070
     0
1070
     1
1071
        1
1071
        7
1070
     0
1070
     1
1071
       10
1040
16.46099999998353
1040
5.432899999994561
1040
18.59199999998134
1040
-0.2368999999997641
1040
22.38199999997767
1040
8.763099999991255
1040
20.89099999997916
1040
8.763099999991255
1040
18.59799999998143
1040
3.315799999996671
1040
16.46099999998353
1040
8.999899999990987
1040
14.32399999998563
1040
3.315799999996671
1040
12.02999999998792
1040
8.763099999991255
1040
10.53899999998941
1040
8.763099999991255
1040
14.32899999998563
1040
-0.2368999999997641
1071
       10
1005
1F958
1005
1F959
1005
1F97A
1005
1F978
1005
1F979
1005
1F96C
1005
1F971
1005
1F975
1005
1F95B
1005
1F95A
1070
     0
1070
     1
1040
0.0
1040
0.15
1070
     0
1070
     2
1040
0.7853981633974483
1040
49.29960901727088
1040
-10.17736998311392
1040
-0.3367596045400932
1040
0.3367596045400932
1070
     0
1040
2.356194490192345
1040
49.29960901727088
1040
-10.17736998311392
1040
-0.3367596045400932
1040
-0.3367596045400932
1070
     0
1040
0.0110235143455945
1071
        1
1040
14.73245321214324
1040
2.798246178283421
1040
0.0
1002
}
  0
INSERT
  5
1F999
330
1F954
100
AcDbEntity
  8
0
100
AcDbBlockReference
  2
*X45
 10
0.0
 20
0.0
 30
0.0
1001
ACAD
1000
HATCH
1002
{
1070
    19
1000
ANSI37
1040
0.15
1040
0.0
1000
ASC_BOUNDS
1070
     2
1070
     2
1070
    13
1005
1F95C
1005
1F969
1005
1F96A
1005
1F968
1005
1F96B
1005
1F992
1005
1F996
1005
1F991
1005
1F990
1005
1F993
1005
1F995
1005
1F994
1005
1F95D
1070
     2
1070
     3
1005
1F976
1005
1F97B
1005
1F977
1000
ASC_SEEDPOINT
1011
21.97929957367762
1021
3.294304244259308
1031
0.0
1000
R14_HATCH_DATA
1000
1F999
1011
1.0
1021
0.0
1031
0.0
1011
0.0
1021
1.0
1031
0.0
1011
0.0
1021
0.0
1031
1.0
1040
0.0
1010
0.0
1020
0.0
1030
1.0
1000
ANSI37
1070
     0
1070
     1
1071
        2
1071
        7
1070
     1
1070
     1
1071
       15
1040
23.56599999997638
1040
8.999899999990987
1040
0.0
1040
19.53899999998043
1040
-0.0001000000000317
1040
0.0
1040
19.53899999998043
1040
0.0
1040
0.0
1040
21.09599999997886
1040
0.0
1040
0.0
1040
21.09599999997886
1040
-0.0001000000000317
1040
0.0
1040
22.15599999997789
1040
2.368399999997621
1040
0.0
1040
24.97599999997499
1040
2.368399999997621
1040
0.0
1040
26.02015566812236
1040
0.0330999999912365
1040
0.0
1040
28.40199999996923
1040
0.0330999999912365
1040
0.414213562373095
1040
30.74199999996923
1040
2.373099999991211
1040
0.0
1040
30.74199999996927
1040
8.763099999991255
1040
0.0
1040
29.30199999996933
1040
8.763099999991255
1040
0.0
1040
29.30199999996933
1040
2.283099999991236
1040
-0.414213562373095
1040
28.40199999996923
1040
1.383099999991237
1040
0.0
1040
26.97358892824991
1040
1.383099999991202
1040
0.0
1071
       13
1005
1F95C
1005
1F969
1005
1F96A
1005
1F968
1005
1F96B
1005
1F992
1005
1F996
1005
1F991
1005
1F990
1005
1F993
1005
1F995
1005
1F994
1005
1F95D
1071
       22
1070
     0
1070
     1
1071
        3
1040
22.7389999999773
1040
3.670999999996297
1040
23.56599999997638
1040
5.5200999999945
1040
24.39299999997559
1040
3.670999999996297
1071
        3
1005
1F976
1005
1F97B
1005
1F977
1070
     0
1070
     1
1040
0.0
1040
0.15
1070
     0
1070
     2
1040
0.7853981633974483
1040
49.29960901727088
1040
-10.17736998311392
1040
-0.3367596045400932
1040
0.3367596045400932
1070
     0
1040
2.356194490192345
1040
49.29960901727088
1040
-10.17736998311392
1040
-0.3367596045400932
1040
-0.3367596045400932
1070
     0
1040
0.0110235143455945
1071
        2
1040
21.97929957367762
1040
3.294304244259308
1040
0.0
1040
21.97929957367762
1040
3.294304244259308
1040
0.0
1002
}
  0
INSERT
  5
1F99A
330
1F954
100
AcDbEntity
  8
0
100
AcDbBlockReference
  2
*X46
 10
0.0
 20
0.0
 30
0.0
1001
ACAD
1000
HATCH
1002
{
1070
    19
1000
ANSI37
1040
0.15
1040
0.0
1000
R14_HATCH_DATA
1000
1F99A
1011
1.0
1021
0.0
1031
0.0
1011
0.0
1021
1.0
1031
0.0
1011
0.0
1021
0.0
1031
1.0
1040
0.0
1010
0.0
1020
0.0
1030
1.0
1000
ANSI37
1070
     0
1070
     1
1071
        1
1071
        7
1070
     1
1070
     1
1071
       12
1040
31.64199999996833
1040
2.481619422925121
1040
0.2679491924310942
1040
32.94699999997067
1040
0.2212931190493919
1040
0.2679491924301353
1040
36.36699999995983
1040
0.2212931190459813
1040
0.2679491924321411
1040
37.67199999996831
1040
2.481619422928361
1040
0.0
1040
37.67199999996831
1040
8.763099999991255
1040
0.0
1040
36.23199999996837
1040
8.763099999991255
1040
0.0
1040
36.23199999996837
1040
2.481619422925064
1040
-0.2679491924310291
1040
35.64699999996708
1040
1.468369700498386
1040
-0.267949192430519
1040
33.66699999997093
1040
1.468369700497703
1040
-0.267949192431809
1040
33.08199999996839
1040
2.481619422926997
1040
0.0
1040
33.08199999996839
1040
8.763099999991255
1040
0.0
1040
31.64199999996833
1040
8.763099999991255
1040
0.0
1071
        0
1070
     0
1070
     1
1040
0.0
1040
0.15
1070
     0
1070
     2
1040
0.7853981633974483
1040
49.29960901727088
1040
-10.17736998311392
1040
-0.3367596045400932
1040
0.3367596045400932
1070
     0
1040
2.356194490192345
1040
49.29960901727088
1040
-10.17736998311392
1040
-0.3367596045400932
1040
-0.3367596045400932
1070
     0
1040
0.0110235143455945
1071
        1
1040
32.30357378967278
1040
3.988785755459219
1040
0.0
1002
}
  0
INSERT
  5
1F99B
330
1F954
100
AcDbEntity
  8
0
100
AcDbBlockReference
  2
*X47
 10
0.0
 20
0.0
 30
0.0
1001
ACAD
1000
HATCH
1002
{
1070
    19
1000
ANSI37
1040
0.15
1040
0.0
1000
ASC_BOUNDS
1070
     1
1070
     2
1070
     8
1005
1F97C
1005
1F97F
1005
1F983
1005
1F982
1005
1F981
1005
1F97E
1005
1F980
1005
1F97D
1000
ASC_SEEDPOINT
1011
39.74896370716704
1021
4.484843821435049
1031
0.0
1000
R14_HATCH_DATA
1000
1F99B
1011
1.0
1021
0.0
1031
0.0
1011
0.0
1021
1.0
1031
0.0
1011
0.0
1021
0.0
1031
1.0
1040
0.0
1010
0.0
1020
0.0
1030
1.0
1000
ANSI37
1070
     0
1070
     1
1071
        1
1071
        7
1070
     0
1070
     1
1071
        9
1040
40.02599999995994
1040
5.341799999994635
1040
44.99999999995498
1040
-0.2368999999997641
1040
44.99999999995498
1040
8.763099999991255
1040
43.57899999995641
1040
8.763099999991255
1040
43.57899999995641
1040
3.421199999996588
1040
38.60499999996136
1040
8.999899999990987
1040
38.60499999996136
1040
8.999999999991019
1040
38.60499999996136
1040
0.0
1040
40.02599999995994
1040
0.0
1071
        8
1005
1F97C
1005
1F97F
1005
1F983
1005
1F982
1005
1F981
1005
1F97E
1005
1F980
1005
1F97D
1070
     0
1070
     1
1040
0.0
1040
0.15
1070
     0
1070
     2
1040
0.7853981633974483
1040
49.29960901727088
1040
-10.17736998311392
1040
-0.3367596045400932
1040
0.3367596045400932
1070
     0
1040
2.356194490192345
1040
49.29960901727088
1040
-10.17736998311392
1040
-0.3367596045400932
1040
-0.3367596045400932
1070
     0
1040
0.0110235143455945
1071
        1
1040
39.74896370716704
1040
4.484843821435049
1040
0.0
1002
}
  0
INSERT
  5
1F99C
330
1F954
100
AcDbEntity
  8
0
100
AcDbBlockReference
  2
*X48
 10
0.0
 20
0.0
 30
0.0
1001
ACAD
1000
HATCH
1002
{
1070
    19
1000
ANSI37
1040
0.15
1040
0.0
1000
ASC_BOUNDS
1070
     1
1070
     2
1070
     4
1005
1F960
1005
1F96F
1005
1F961
1005
1F963
1000
ASC_SEEDPOINT
1011
1.079051535452663
1021
4.148538732891836
1031
0.0
1000
R14_HATCH_DATA
1000
1F99C
1011
1.0
1021
0.0
1031
0.0
1011
0.0
1021
1.0
1031
0.0
1011
0.0
1021
0.0
1031
1.0
1040
0.0
1010
0.0
1020
0.0
1030
1.0
1000
ANSI37
1070
     0
1070
     1
1071
        1
1071
        7
1070
     0
1070
     1
1071
        4
1040
1.420999999998571
1040
0.0
1040
1.420999999998571
1040
8.763099999991255
1040
0.0
1040
8.763099999991255
1040
0.0
1040
0.0
1071
        4
1005
1F960
1005
1F96F
1005
1F961
1005
1F963
1070
     0
1070
     1
1040
0.0
1040
0.15
1070
     0
1070
     2
1040
0.7853981633974483
1040
49.29960901727088
1040
-10.17736998311392
1040
-0.3367596045400932
1040
0.3367596045400932
1070
     0
1040
2.356194490192345
1040
49.29960901727088
1040
-10.17736998311392
1040
-0.3367596045400932
1040
-0.3367596045400932
1070
     0
1040
0.0053004257112761
1071
        1
1040
1.079051535452663
1040
4.148538732891836
1040
0.0
1002
}
  0
ENDBLK
  5
20054
330
1F954
100
AcDbEntity
  8
0
100
AcDbBlockEnd
  0
BLOCK
  5
20483
330
202F5
100
AcDbEntity
  8
0
100
AcDbBlockBegin
  2
*X43
 70
     1
 10
0.0
 20
0.0
 30
0.0
  3
*X43
  1

  0
LINE
  5
202F6
330
202F5
100
AcDbEntity
  8
0
  6
CONTINUOUS
100
AcDbLine
 10
3.418023043697893
 20
7.251849696850613
 30
0.0
 11
4.929273346838536
 21
8.763099999991255
 31
0.0
  0
LINE
  5
202F7
330
202F5
100
AcDbEntity
  8
0
  6
CONTINUOUS
100
AcDbLine
 10
1.483656411257782
 20
4.643963855330318
 30
0.0
 11
5.60279255591872
 21
8.763099999991255
 31
0.0
  0
LINE
  5
202F8
330
202F5
100
AcDbEntity
  8
0
  6
CONTINUOUS
100
AcDbLine
 10
1.755053947328235
 20
4.241842182320584
 30
0.0
 11
6.276311764998907
 21
8.763099999991255
 31
0.0
  0
LINE
  5
202F9
330
202F5
100
AcDbEntity
  8
0
  6
CONTINUOUS
100
AcDbLine
 10
2.026451483398688
 20
3.839720509310849
 30
0.0
 11
4.441040904851878
 21
6.254309930764039
 31
0.0
  0
LINE
  5
202FA
330
202F5
100
AcDbEntity
  8
0
  6
CONTINUOUS
100
AcDbLine
 10
2.297849019469139
 20
3.437598836301114
 30
0.0
 11
3.321765168359338
 21
4.461514985191313
 31
0.0
  0
LINE
  5
202FB
330
202F5
100
AcDbEntity
  8
0
  6
CONTINUOUS
100
AcDbLine
 10
2.569246555539591
 20
3.03547716329138
 30
0.0
 11
3.593163397972743
 21
4.059394005724531
 31
0.0
  0
LINE
  5
202FC
330
202F5
100
AcDbEntity
  8
0
  6
CONTINUOUS
100
AcDbLine
 10
2.840644091610043
 20
2.633355490281646
 30
0.0
 11
3.864561627586149
 21
3.657273026257751
 31
0.0
  0
LINE
  5
202FD
330
202F5
100
AcDbEntity
  8
0
  6
CONTINUOUS
100
AcDbLine
 10
3.112041627680496
 20
2.231233817271911
 30
0.0
 11
4.135959857199554
 21
3.25515204679097
 31
0.0
  0
LINE
  5
202FE
330
202F5
100
AcDbEntity
  8
0
  6
CONTINUOUS
100
AcDbLine
 10
3.383439163750948
 20
1.829112144262177
 30
0.0
 11
4.40735808681296
 21
2.853031067324189
 31
0.0
  0
LINE
  5
202FF
330
202F5
100
AcDbEntity
  8
0
  6
CONTINUOUS
100
AcDbLine
 10
3.654836699821399
 20
1.426990471252442
 30
0.0
 11
4.678756316426365
 21
2.450910087857407
 31
0.0
  0
LINE
  5
20300
330
202F5
100
AcDbEntity
  8
0
  6
CONTINUOUS
100
AcDbLine
 10
3.926234235891853
 20
1.024868798242709
 30
0.0
 11
4.95015454603977
 21
2.048789108390626
 31
0.0
  0
LINE
  5
20301
330
202F5
100
AcDbEntity
  8
0
  6
CONTINUOUS
100
AcDbLine
 10
4.197631771962304
 20
0.6227471252329737
 30
0.0
 11
5.221552775653176
 21
1.646668128923846
 31
0.0
  0
LINE
  5
20302
330
202F5
100
AcDbEntity
  8
0
  6
CONTINUOUS
100
AcDbLine
 10
8.715877546767851
 20
7.835069736359266
 30
0.0
 11
9.435953450375058
 21
8.555145639966472
 31
0.0
  0
LINE
  5
20303
330
202F5
100
AcDbEntity
  8
0
  6
CONTINUOUS
100
AcDbLine
 10
8.170620868422267
 20
6.616293848933497
 30
0.0
 11
9.644120833743461
 21
8.08979381425469
 31
0.0
  0
LINE
  5
20304
330
202F5
100
AcDbEntity
  8
0
  6
CONTINUOUS
100
AcDbLine
 10
7.625364190076684
 20
5.397517961507727
 30
0.0
 11
9.852288217111864
 21
7.624441988542907
 31
0.0
  0
LINE
  5
20305
330
202F5
100
AcDbEntity
  8
0
  6
CONTINUOUS
100
AcDbLine
 10
7.080107511731101
 20
4.178742074081957
 30
0.0
 11
10.06045560048027
 21
7.159090162831124
 31
0.0
  0
LINE
  5
20306
330
202F5
100
AcDbEntity
  8
0
  6
CONTINUOUS
100
AcDbLine
 10
6.534850833385518
 20
2.959966186656187
 30
0.0
 11
10.26862298384867
 21
6.693738337119342
 31
0.0
  0
LINE
  5
20307
330
202F5
100
AcDbEntity
  8
0
  6
CONTINUOUS
100
AcDbLine
 10
4.469029308032756
 20
0.2206254522232385
 30
0.0
 11
5.492951005266582
 21
1.244547149457064
 31
0.0
  0
LINE
  5
20308
330
202F5
100
AcDbEntity
  8
0
  6
CONTINUOUS
100
AcDbLine
 10
5.989594155039935
 20
1.741190299230417
 30
0.0
 11
8.806950407233131
 21
4.558546551423613
 31
0.0
  0
LINE
  5
20309
330
202F5
100
AcDbEntity
  8
0
  6
CONTINUOUS
100
AcDbLine
 10
9.401251593263643
 20
5.152847737454126
 30
0.0
 11
10.47679036721708
 21
6.228386511407559
 31
0.0
  0
LINE
  5
2030A
330
202F5
100
AcDbEntity
  8
0
  6
CONTINUOUS
100
AcDbLine
 10
4.921837203428691
 20
-0.0000858614610131
 30
0.0
 11
8.592923064886001
 21
3.670999999996297
 31
0.0
  0
LINE
  5
2030B
330
202F5
100
AcDbEntity
  8
0
  6
CONTINUOUS
100
AcDbLine
 10
9.609390446785305
 20
4.6874673818956
 30
0.0
 11
10.68495775058548
 21
5.763034685695775
 31
0.0
  0
LINE
  5
2030C
330
202F5
100
AcDbEntity
  8
0
  6
CONTINUOUS
100
AcDbLine
 10
5.595387755019432
 20
-0.0000545189504582
 30
0.0
 11
7.716137258923768
 21
2.120694984953879
 31
0.0
  0
LINE
  5
2030D
330
202F5
100
AcDbEntity
  8
0
  6
CONTINUOUS
100
AcDbLine
 10
6.268938306610172
 20
-0.000023176439905
 30
0.0
 11
7.170485805526503
 21
0.9015243224764267
 31
0.0
  0
LINE
  5
2030E
330
202F5
100
AcDbEntity
  8
0
  6
CONTINUOUS
100
AcDbLine
 10
7.963842273967511
 20
2.368399999997621
 30
0.0
 11
9.266442273966188
 21
3.670999999996297
 31
0.0
  0
LINE
  5
2030F
330
202F5
100
AcDbEntity
  8
0
  6
CONTINUOUS
100
AcDbLine
 10
8.637361483047696
 20
2.368399999997621
 30
0.0
 11
9.939961483046375
 21
3.670999999996297
 31
0.0
  0
LINE
  5
20310
330
202F5
100
AcDbEntity
  8
0
  6
CONTINUOUS
100
AcDbLine
 10
9.817529300306965
 20
4.222087026337075
 30
0.0
 11
10.89312513395388
 21
5.297682859983993
 31
0.0
  0
LINE
  5
20311
330
202F5
100
AcDbEntity
  8
0
  6
CONTINUOUS
100
AcDbLine
 10
10.02566815382863
 20
3.756706670778549
 30
0.0
 11
11.10129251732229
 21
4.832331034272211
 31
0.0
  0
LINE
  5
20312
330
202F5
100
AcDbEntity
  8
0
  6
CONTINUOUS
100
AcDbLine
 10
9.310880692127883
 20
2.368399999997621
 30
0.0
 11
11.30945990069069
 21
4.366979208560428
 31
0.0
  0
LINE
  5
20313
330
202F5
100
AcDbEntity
  8
0
  6
CONTINUOUS
100
AcDbLine
 10
9.98439990120807
 20
2.36839999999762
 30
0.0
 11
11.5176272840591
 21
3.901627382848645
 31
0.0
  0
LINE
  5
20314
330
202F5
100
AcDbEntity
  8
0
  6
CONTINUOUS
100
AcDbLine
 10
10.65037369446246
 20
2.36085458417182
 30
0.0
 11
11.7257946674275
 21
3.436275557136862
 31
0.0
  0
LINE
  5
20315
330
202F5
100
AcDbEntity
  8
0
  6
CONTINUOUS
100
AcDbLine
 10
10.85847197087848
 20
1.895433651507656
 30
0.0
 11
11.9339620507959
 21
2.97092373142508
 31
0.0
  0
LINE
  5
20316
330
202F5
100
AcDbEntity
  8
0
  6
CONTINUOUS
100
AcDbLine
 10
11.0665702472945
 20
1.430012718843491
 30
0.0
 11
12.14212943416431
 21
2.505571905713296
 31
0.0
  0
LINE
  5
20317
330
202F5
100
AcDbEntity
  8
0
  6
CONTINUOUS
100
AcDbLine
 10
11.27466852371052
 20
0.9645917861793256
 30
0.0
 11
12.35029681753271
 21
2.040220080001513
 31
0.0
  0
LINE
  5
20318
330
202F5
100
AcDbEntity
  8
0
  6
CONTINUOUS
100
AcDbLine
 10
11.48276680012654
 20
0.4991708535151611
 30
0.0
 11
12.55846420090111
 21
1.57486825428973
 31
0.0
  0
LINE
  5
20319
330
202F5
100
AcDbEntity
  8
0
  6
CONTINUOUS
100
AcDbLine
 10
11.69086507654257
 20
0.0337499208509957
 30
0.0
 11
12.76663158426952
 21
1.109516428577947
 31
0.0
  0
LINE
  5
2031A
330
202F5
100
AcDbEntity
  8
0
  6
CONTINUOUS
100
AcDbLine
 10
12.33057447873954
 20
-0.0000598860322123
 30
0.0
 11
12.97479896763792
 21
0.6441646028661663
 31
0.0
  0
LINE
  5
2031B
330
202F5
100
AcDbEntity
  8
0
  6
CONTINUOUS
100
AcDbLine
 10
13.00413694809395
 20
-0.0000166257579952
 30
0.0
 11
13.18296635100632
 21
0.1788127771543824
 31
0.0
  0
LINE
  5
2031C
330
202F5
100
AcDbEntity
  8
0
  6
CONTINUOUS
100
AcDbLine
 10
4.772852165289667
 20
-0.000092794222212
 30
0.0
 11
4.296495091028902
 21
0.4762642800385528
 31
0.0
  0
LINE
  5
2031D
330
202F5
100
AcDbEntity
  8
0
  6
CONTINUOUS
100
AcDbLine
 10
5.446340034776103
 20
-0.0000614546284616
 30
0.0
 11
2.898195908335625
 21
2.548082671812017
 31
0.0
  0
LINE
  5
2031E
330
202F5
100
AcDbEntity
  8
0
  6
CONTINUOUS
100
AcDbLine
 10
6.119827904262539
 20
-0.0000301150347113
 30
0.0
 11
1.499896725642348
 21
4.61990106358548
 31
0.0
  0
LINE
  5
2031F
330
202F5
100
AcDbEntity
  8
0
  6
CONTINUOUS
100
AcDbLine
 10
6.775136745476159
 20
0.0181802528318542
 30
0.0
 11
5.699826040202669
 21
1.093490958105344
 31
0.0
  0
LINE
  5
20320
330
202F5
100
AcDbEntity
  8
0
  6
CONTINUOUS
100
AcDbLine
 10
6.983376846288489
 20
0.4834593610997118
 30
0.0
 11
5.908008617934405
 21
1.558827589453796
 31
0.0
  0
LINE
  5
20321
330
202F5
100
AcDbEntity
  8
0
  6
CONTINUOUS
100
AcDbLine
 10
5.377063484962296
 20
1.416253513345719
 30
0.0
 11
1.702276957014131
 21
5.091040041293883
 31
0.0
  0
LINE
  5
20322
330
202F5
100
AcDbEntity
  8
0
  6
CONTINUOUS
100
AcDbLine
 10
3.978745891735324
 20
3.488090315652877
 30
0.0
 11
2.000373521109399
 21
5.466462686278803
 31
0.0
  0
LINE
  5
20323
330
202F5
100
AcDbEntity
  8
0
  6
CONTINUOUS
100
AcDbLine
 10
7.191616947100819
 20
0.948738469367568
 30
0.0
 11
6.11619119566614
 21
2.024164220802247
 31
0.0
  0
LINE
  5
20324
330
202F5
100
AcDbEntity
  8
0
  6
CONTINUOUS
100
AcDbLine
 10
7.399857047913149
 20
1.414017577635424
 30
0.0
 11
6.324373773397875
 21
2.489500852150698
 31
0.0
  0
LINE
  5
20325
330
202F5
100
AcDbEntity
  8
0
  6
CONTINUOUS
100
AcDbLine
 10
7.608097148725479
 20
1.879296685903281
 30
0.0
 11
6.53255635112961
 21
2.95483748349915
 31
0.0
  0
LINE
  5
20326
330
202F5
100
AcDbEntity
  8
0
  6
CONTINUOUS
100
AcDbLine
 10
7.816337249537808
 20
2.344575794171138
 30
0.0
 11
6.740738928861345
 21
3.420174114847601
 31
0.0
  0
LINE
  5
20327
330
202F5
100
AcDbEntity
  8
0
  6
CONTINUOUS
100
AcDbLine
 10
3.310241080789734
 20
4.830114335678653
 30
0.0
 11
2.298470085204666
 21
5.84188533126372
 31
0.0
  0
LINE
  5
20328
330
202F5
100
AcDbEntity
  8
0
  6
CONTINUOUS
100
AcDbLine
 10
3.60832983563551
 20
5.205544789913063
 30
0.0
 11
2.596566649299935
 21
6.217307976248638
 31
0.0
  0
LINE
  5
20329
330
202F5
100
AcDbEntity
  8
0
  6
CONTINUOUS
100
AcDbLine
 10
3.906418590481286
 20
5.580975244147473
 30
0.0
 11
2.894663213395203
 21
6.592730621233557
 31
0.0
  0
LINE
  5
2032A
330
202F5
100
AcDbEntity
  8
0
  6
CONTINUOUS
100
AcDbLine
 10
4.204507345327062
 20
5.956405698381884
 30
0.0
 11
3.192759777490472
 21
6.968153266218474
 31
0.0
  0
LINE
  5
2032B
330
202F5
100
AcDbEntity
  8
0
  6
CONTINUOUS
100
AcDbLine
 10
8.466032252791512
 20
2.368399999997621
 30
0.0
 11
6.948921506593081
 21
3.885510746196053
 31
0.0
  0
LINE
  5
2032C
330
202F5
100
AcDbEntity
  8
0
  6
CONTINUOUS
100
AcDbLine
 10
9.139551461871699
 20
2.36839999999762
 30
0.0
 11
7.157104084324816
 21
4.350847377544504
 31
0.0
  0
LINE
  5
2032D
330
202F5
100
AcDbEntity
  8
0
  6
CONTINUOUS
100
AcDbLine
 10
4.502596100172839
 20
6.331836152616295
 30
0.0
 11
3.49085634158574
 21
7.343575911203393
 31
0.0
  0
LINE
  5
2032E
330
202F5
100
AcDbEntity
  8
0
  6
CONTINUOUS
100
AcDbLine
 10
4.800684855018615
 20
6.707266606850705
 30
0.0
 11
3.788952905681008
 21
7.718998556188312
 31
0.0
  0
LINE
  5
2032F
330
202F5
100
AcDbEntity
  8
0
  6
CONTINUOUS
100
AcDbLine
 10
12.18154012887317
 20
-0.0000694579236642
 30
0.0
 11
11.32140332908496
 21
0.8600673418645499
 31
0.0
  0
LINE
  5
20330
330
202F5
100
AcDbEntity
  8
0
  6
CONTINUOUS
100
AcDbLine
 10
12.85501608323566
 20
-0.0000262032059659
 30
0.0
 11
10.77672456435345
 21
2.078265315676246
 31
0.0
  0
LINE
  5
20331
330
202F5
100
AcDbEntity
  8
0
  6
CONTINUOUS
100
AcDbLine
 10
9.813070670951886
 20
2.36839999999762
 30
0.0
 11
8.51047067095321
 21
3.670999999996297
 31
0.0
  0
LINE
  5
20332
330
202F5
100
AcDbEntity
  8
0
  6
CONTINUOUS
100
AcDbLine
 10
10.48658988003207
 20
2.36839999999762
 30
0.0
 11
9.183989880033396
 21
3.670999999996297
 31
0.0
  0
LINE
  5
20333
330
202F5
100
AcDbEntity
  8
0
  6
CONTINUOUS
100
AcDbLine
 10
8.441048632286794
 20
3.740422038662712
 30
0.0
 11
7.365286662056551
 21
4.816184008892956
 31
0.0
  0
LINE
  5
20334
330
202F5
100
AcDbEntity
  8
0
  6
CONTINUOUS
100
AcDbLine
 10
8.649187485808454
 20
4.205802394221237
 30
0.0
 11
7.573469239788285
 21
5.281520640241407
 31
0.0
  0
LINE
  5
20335
330
202F5
100
AcDbEntity
  8
0
  6
CONTINUOUS
100
AcDbLine
 10
5.098773609864391
 20
7.082697061085115
 30
0.0
 11
4.087049469776277
 21
8.09442120117323
 31
0.0
  0
LINE
  5
20336
330
202F5
100
AcDbEntity
  8
0
  6
CONTINUOUS
100
AcDbLine
 10
5.396862364710167
 20
7.458127515319526
 30
0.0
 11
4.385146033871544
 21
8.469843846158149
 31
0.0
  0
LINE
  5
20337
330
202F5
100
AcDbEntity
  8
0
  6
CONTINUOUS
100
AcDbLine
 10
13.04801363231285
 20
0.4804954567970334
 30
0.0
 11
9.85750908911358
 21
3.670999999996297
 31
0.0
  0
LINE
  5
20338
330
202F5
100
AcDbEntity
  8
0
  6
CONTINUOUS
100
AcDbLine
 10
8.857326339330116
 20
4.671182749779763
 30
0.0
 11
7.781651817520021
 21
5.746857271589858
 31
0.0
  0
LINE
  5
20339
330
202F5
100
AcDbEntity
  8
0
  6
CONTINUOUS
100
AcDbLine
 10
5.694951119555943
 20
7.833557969553937
 30
0.0
 11
4.765409089118624
 21
8.763099999991255
 31
0.0
  0
LINE
  5
2033A
330
202F5
100
AcDbEntity
  8
0
  6
CONTINUOUS
100
AcDbLine
 10
12.50286117236978
 20
1.699167125820288
 30
0.0
 11
9.68611877250287
 21
4.515909525687196
 31
0.0
  0
LINE
  5
2033B
330
202F5
100
AcDbEntity
  8
0
  6
CONTINUOUS
100
AcDbLine
 10
9.065465192851777
 20
5.136563105338288
 30
0.0
 11
7.989834395251757
 21
6.21219390293831
 31
0.0
  0
LINE
  5
2033C
330
202F5
100
AcDbEntity
  8
0
  6
CONTINUOUS
100
AcDbLine
 10
5.993039874401719
 20
8.208988423788346
 30
0.0
 11
5.43892829819881
 21
8.763099999991255
 31
0.0
  0
LINE
  5
2033D
330
202F5
100
AcDbEntity
  8
0
  6
CONTINUOUS
100
AcDbLine
 10
11.95770871242671
 20
2.917838794843543
 30
0.0
 11
8.19801697298349
 21
6.677530534286761
 31
0.0
  0
LINE
  5
2033E
330
202F5
100
AcDbEntity
  8
0
  6
CONTINUOUS
100
AcDbLine
 10
6.291128629247495
 20
8.584418878022756
 30
0.0
 11
6.112447507278997
 21
8.763099999991255
 31
0.0
  0
LINE
  5
2033F
330
202F5
100
AcDbEntity
  8
0
  6
CONTINUOUS
100
AcDbLine
 10
11.41255625248364
 20
4.136510463866797
 30
0.0
 11
8.406199550715227
 21
7.142867165635211
 31
0.0
  0
LINE
  5
20340
330
202F5
100
AcDbEntity
  8
0
  6
CONTINUOUS
100
AcDbLine
 10
10.86740379254057
 20
5.355182132890051
 30
0.0
 11
8.614382128446962
 21
7.608203796983664
 31
0.0
  0
LINE
  5
20341
330
202F5
100
AcDbEntity
  8
0
  6
CONTINUOUS
100
AcDbLine
 10
10.3222513325975
 20
6.573853801913305
 30
0.0
 11
8.822564706178696
 21
8.073540428332114
 31
0.0
  0
LINE
  5
20342
330
202F5
100
AcDbEntity
  8
0
  6
CONTINUOUS
100
AcDbLine
 10
9.777098872654436
 20
7.792525470936562
 30
0.0
 11
9.030747283910433
 21
8.538877059680566
 31
0.0
  0
ENDBLK
  5
20484
330
202F5
100
AcDbEntity
  8
0
100
AcDbBlockEnd
  0
BLOCK
  5
20485
330
20343
100
AcDbEntity
  8
0
100
AcDbBlockBegin
  2
*X44
 70
     1
 10
0.0
 20
0.0
 30
0.0
  3
*X44
  1

  0
LINE
  5
20344
330
20343
100
AcDbEntity
  8
0
  6
CONTINUOUS
100
AcDbLine
 10
10.67292308101235
 20
8.445076852443387
 30
0.0
 11
10.99094622856022
 21
8.763099999991255
 31
0.0
  0
LINE
  5
20345
330
20343
100
AcDbEntity
  8
0
  6
CONTINUOUS
100
AcDbLine
 10
10.87250383178748
 20
7.971138394138331
 30
0.0
 11
11.6644654376404
 21
8.763099999991255
 31
0.0
  0
LINE
  5
20346
330
20343
100
AcDbEntity
  8
0
  6
CONTINUOUS
100
AcDbLine
 10
11.07208458256261
 20
7.497199935833273
 30
0.0
 11
12.12126590876355
 21
8.546381262034211
 31
0.0
  0
LINE
  5
20347
330
20343
100
AcDbEntity
  8
0
  6
CONTINUOUS
100
AcDbLine
 10
11.27166533333774
 20
7.023261477528216
 30
0.0
 11
12.32085164573666
 21
8.072447789927136
 31
0.0
  0
LINE
  5
20348
330
20343
100
AcDbEntity
  8
0
  6
CONTINUOUS
100
AcDbLine
 10
11.47124608411287
 20
6.549323019223158
 30
0.0
 11
12.52043738270977
 21
7.59851431782006
 31
0.0
  0
LINE
  5
20349
330
20343
100
AcDbEntity
  8
0
  6
CONTINUOUS
100
AcDbLine
 10
11.670826834888
 20
6.075384560918101
 30
0.0
 11
12.72002311968288
 21
7.124580845712984
 31
0.0
  0
LINE
  5
2034A
330
20343
100
AcDbEntity
  8
0
  6
CONTINUOUS
100
AcDbLine
 10
11.87040758566313
 20
5.601446102613043
 30
0.0
 11
12.91960885665599
 21
6.650647373605907
 31
0.0
  0
LINE
  5
2034B
330
20343
100
AcDbEntity
  8
0
  6
CONTINUOUS
100
AcDbLine
 10
12.06998833643825
 20
5.127507644307986
 30
0.0
 11
13.1191945936291
 21
6.176713901498832
 31
0.0
  0
LINE
  5
2034C
330
20343
100
AcDbEntity
  8
0
  6
CONTINUOUS
100
AcDbLine
 10
12.26956908721338
 20
4.65356918600293
 30
0.0
 11
13.31878033060221
 21
5.702780429391757
 31
0.0
  0
LINE
  5
2034D
330
20343
100
AcDbEntity
  8
0
  6
CONTINUOUS
100
AcDbLine
 10
12.46914983798851
 20
4.179630727697873
 30
0.0
 11
13.51836606757532
 21
5.228846957284683
 31
0.0
  0
LINE
  5
2034E
330
20343
100
AcDbEntity
  8
0
  6
CONTINUOUS
100
AcDbLine
 10
12.66873058876364
 20
3.705692269392816
 30
0.0
 11
13.71795180454843
 21
4.754913485177607
 31
0.0
  0
LINE
  5
2034F
330
20343
100
AcDbEntity
  8
0
  6
CONTINUOUS
100
AcDbLine
 10
12.86831133953877
 20
3.231753811087759
 30
0.0
 11
13.91753754152154
 21
4.280980013070531
 31
0.0
  0
LINE
  5
20350
330
20343
100
AcDbEntity
  8
0
  6
CONTINUOUS
100
AcDbLine
 10
13.0678920903139
 20
2.757815352782702
 30
0.0
 11
14.11712327849465
 21
3.807046540963456
 31
0.0
  0
LINE
  5
20351
330
20343
100
AcDbEntity
  8
0
  6
CONTINUOUS
100
AcDbLine
 10
13.26747284108903
 20
2.283876894477644
 30
0.0
 11
14.31670901546777
 21
3.333113068856379
 31
0.0
  0
LINE
  5
20352
330
20343
100
AcDbEntity
  8
0
  6
CONTINUOUS
100
AcDbLine
 10
16.36767838827179
 20
8.751678487061342
 30
0.0
 11
16.50332410898388
 21
8.887324207773432
 31
0.0
  0
LINE
  5
20353
330
20343
100
AcDbEntity
  8
0
  6
CONTINUOUS
100
AcDbLine
 10
15.96190732182191
 20
7.67238821153127
 30
0.0
 11
16.68735328004734
 21
8.397834169756699
 31
0.0
  0
LINE
  5
20354
330
20343
100
AcDbEntity
  8
0
  6
CONTINUOUS
100
AcDbLine
 10
15.55613625537202
 20
6.593097936001196
 30
0.0
 11
16.87138245111079
 21
7.908344131739965
 31
0.0
  0
LINE
  5
20355
330
20343
100
AcDbEntity
  8
0
  6
CONTINUOUS
100
AcDbLine
 10
15.15036518892213
 20
5.513807660471122
 30
0.0
 11
17.05541162217424
 21
7.418854093723231
 31
0.0
  0
LINE
  5
20356
330
20343
100
AcDbEntity
  8
0
  6
CONTINUOUS
100
AcDbLine
 10
14.74459412247225
 20
4.434517384941048
 30
0.0
 11
17.2394407932377
 21
6.929364055706499
 31
0.0
  0
LINE
  5
20357
330
20343
100
AcDbEntity
  8
0
  6
CONTINUOUS
100
AcDbLine
 10
14.33882305602236
 20
3.355227109410975
 30
0.0
 11
17.42346996430115
 21
6.439874017689766
 31
0.0
  0
LINE
  5
20358
330
20343
100
AcDbEntity
  8
0
  6
CONTINUOUS
100
AcDbLine
 10
13.46705359186416
 20
1.809938436172586
 30
0.0
 11
16.0819338255367
 21
4.424818669845129
 31
0.0
  0
LINE
  5
20359
330
20343
100
AcDbEntity
  8
0
  6
CONTINUOUS
100
AcDbLine
 10
16.63283254238972
 20
4.975717386698149
 30
0.0
 11
17.60749913536461
 21
5.950383979673033
 31
0.0
  0
LINE
  5
2035A
330
20343
100
AcDbEntity
  8
0
  6
CONTINUOUS
100
AcDbLine
 10
13.66663434263929
 20
1.335999977867529
 30
0.0
 11
15.67604797733754
 21
3.345413612565779
 31
0.0
  0
LINE
  5
2035B
330
20343
100
AcDbEntity
  8
0
  6
CONTINUOUS
100
AcDbLine
 10
13.86621509341442
 20
0.8620615195624723
 30
0.0
 11
15.27016212913838
 21
2.26600855528643
 31
0.0
  0
LINE
  5
2035C
330
20343
100
AcDbEntity
  8
0
  6
CONTINUOUS
100
AcDbLine
 10
16.81682257348267
 20
4.486188208710908
 30
0.0
 11
17.79152830642806
 21
5.460893941656299
 31
0.0
  0
LINE
  5
2035D
330
20343
100
AcDbEntity
  8
0
  6
CONTINUOUS
100
AcDbLine
 10
17.00081260457561
 20
3.996659030723667
 30
0.0
 11
17.97555747749151
 21
4.971403903639565
 31
0.0
  0
LINE
  5
2035E
330
20343
100
AcDbEntity
  8
0
  6
CONTINUOUS
100
AcDbLine
 10
20.74362343514722
 20
8.412989070375462
 30
0.0
 11
21.09373436476302
 21
8.763099999991256
 31
0.0
  0
LINE
  5
2035F
330
20343
100
AcDbEntity
  8
0
  6
CONTINUOUS
100
AcDbLine
 10
20.25401257174777
 20
7.249858997895826
 30
0.0
 11
21.7672535738432
 21
8.763099999991255
 31
0.0
  0
LINE
  5
20360
330
20343
100
AcDbEntity
  8
0
  6
CONTINUOUS
100
AcDbLine
 10
14.06579584418955
 20
0.3881230612574149
 30
0.0
 11
14.86427628093921
 21
1.186603498007082
 31
0.0
  0
LINE
  5
20361
330
20343
100
AcDbEntity
  8
0
  6
CONTINUOUS
100
AcDbLine
 10
14.26537659496467
 20
-0.0858153970476412
 30
0.0
 11
14.45839043274005
 21
0.1071984407277329
 31
0.0
  0
LINE
  5
20362
330
20343
100
AcDbEntity
  8
0
  6
CONTINUOUS
100
AcDbLine
 10
17.18480263566856
 20
3.507129852736426
 30
0.0
 11
18.15958664855496
 21
4.481913865622833
 31
0.0
  0
LINE
  5
20363
330
20343
100
AcDbEntity
  8
0
  6
CONTINUOUS
100
AcDbLine
 10
17.3687926667615
 20
3.017600674749186
 30
0.0
 11
18.34361581961842
 21
3.9924238276061
 31
0.0
  0
LINE
  5
20364
330
20343
100
AcDbEntity
  8
0
  6
CONTINUOUS
100
AcDbLine
 10
19.76440170834832
 20
6.086728925416191
 30
0.0
 11
22.33924590259489
 21
8.661573119662755
 31
0.0
  0
LINE
  5
20365
330
20343
100
AcDbEntity
  8
0
  6
CONTINUOUS
100
AcDbLine
 10
19.27479084494887
 20
4.923598852936555
 30
0.0
 11
21.84929622842713
 21
7.498104236414807
 31
0.0
  0
LINE
  5
20366
330
20343
100
AcDbEntity
  8
0
  6
CONTINUOUS
100
AcDbLine
 10
17.55278269785445
 20
2.528071496761945
 30
0.0
 11
18.52764499068187
 21
3.502933789589366
 31
0.0
  0
LINE
  5
20367
330
20343
100
AcDbEntity
  8
0
  6
CONTINUOUS
100
AcDbLine
 10
18.78517998154942
 20
3.760468780456919
 30
0.0
 11
21.35934655425936
 21
6.33463535316686
 31
0.0
  0
LINE
  5
20368
330
20343
100
AcDbEntity
  8
0
  6
CONTINUOUS
100
AcDbLine
 10
17.73677272894739
 20
2.038542318774704
 30
0.0
 11
20.8693968800916
 21
5.171166469918914
 31
0.0
  0
LINE
  5
20369
330
20343
100
AcDbEntity
  8
0
  6
CONTINUOUS
100
AcDbLine
 10
17.92076276004034
 20
1.549013140787464
 30
0.0
 11
20.37944720592384
 21
4.007697586670968
 31
0.0
  0
LINE
  5
2036A
330
20343
100
AcDbEntity
  8
0
  6
CONTINUOUS
100
AcDbLine
 10
18.10475279113329
 20
1.059483962800223
 30
0.0
 11
19.88949753175608
 21
2.84422870342302
 31
0.0
  0
LINE
  5
2036B
330
20343
100
AcDbEntity
  8
0
  6
CONTINUOUS
100
AcDbLine
 10
18.28874282222623
 20
0.5699547848129822
 30
0.0
 11
19.39954785758832
 21
1.680759820175074
 31
0.0
  0
LINE
  5
2036C
330
20343
100
AcDbEntity
  8
0
  6
CONTINUOUS
100
AcDbLine
 10
18.47273285331918
 20
0.0804256068257416
 30
0.0
 11
18.90959818342056
 21
0.517290936927127
 31
0.0
  0
LINE
  5
2036D
330
20343
100
AcDbEntity
  8
0
  6
CONTINUOUS
100
AcDbLine
 10
14.3590401358224
 20
-0.1570118376323384
 30
0.0
 11
14.24903296539946
 21
-0.0470046672093929
 31
0.0
  0
LINE
  5
2036E
330
20343
100
AcDbEntity
  8
0
  6
CONTINUOUS
100
AcDbLine
 10
14.54309291258661
 20
0.332454594683643
 30
0.0
 11
13.75908329123172
 21
1.116464216038529
 31
0.0
  0
LINE
  5
2036F
330
20343
100
AcDbEntity
  8
0
  6
CONTINUOUS
100
AcDbLine
 10
14.72714568935081
 20
0.8219210269996244
 30
0.0
 11
13.26913361706399
 21
2.27993309928645
 31
0.0
  0
LINE
  5
20370
330
20343
100
AcDbEntity
  8
0
  6
CONTINUOUS
100
AcDbLine
 10
14.91119846611502
 20
1.311387459315606
 30
0.0
 11
12.77918394289625
 21
3.443401982534371
 31
0.0
  0
LINE
  5
20371
330
20343
100
AcDbEntity
  8
0
  6
CONTINUOUS
100
AcDbLine
 10
15.09525124287922
 20
1.800853891631587
 30
0.0
 11
12.28923426872852
 21
4.606870865782293
 31
0.0
  0
LINE
  5
20372
330
20343
100
AcDbEntity
  8
0
  6
CONTINUOUS
100
AcDbLine
 10
15.27930401964343
 20
2.290320323947569
 30
0.0
 11
11.79928459456078
 21
5.770339749030213
 31
0.0
  0
LINE
  5
20373
330
20343
100
AcDbEntity
  8
0
  6
CONTINUOUS
100
AcDbLine
 10
15.46335679640763
 20
2.77978675626355
 30
0.0
 11
14.48885470994921
 21
3.754288842721972
 31
0.0
  0
LINE
  5
20374
330
20343
100
AcDbEntity
  8
0
  6
CONTINUOUS
100
AcDbLine
 10
13.88507249233704
 20
4.358071060334137
 30
0.0
 11
11.30933492039305
 21
6.933808632278135
 31
0.0
  0
LINE
  5
20375
330
20343
100
AcDbEntity
  8
0
  6
CONTINUOUS
100
AcDbLine
 10
18.75840522805855
 20
0.1582575336928151
 30
0.0
 11
18.25383727664818
 21
0.6628254851031863
 31
0.0
  0
LINE
  5
20376
330
20343
100
AcDbEntity
  8
0
  6
CONTINUOUS
100
AcDbLine
 10
15.64740957317184
 20
3.269253188579531
 30
0.0
 11
14.67288388101266
 21
4.243778880738705
 31
0.0
  0
LINE
  5
20377
330
20343
100
AcDbEntity
  8
0
  6
CONTINUOUS
100
AcDbLine
 10
13.39509276772158
 20
5.521569994029786
 30
0.0
 11
10.81938524622531
 21
8.097277515526056
 31
0.0
  0
LINE
  5
20378
330
20343
100
AcDbEntity
  8
0
  6
CONTINUOUS
100
AcDbLine
 10
18.95798597883369
 20
0.6321959919978686
 30
0.0
 11
17.84825644852853
 21
1.741925522303024
 31
0.0
  0
LINE
  5
20379
330
20343
100
AcDbEntity
  8
0
  6
CONTINUOUS
100
AcDbLine
 10
19.15756672960882
 20
1.106134450302922
 30
0.0
 11
17.44267562040888
 21
2.821025559502861
 31
0.0
  0
LINE
  5
2037A
330
20343
100
AcDbEntity
  8
0
  6
CONTINUOUS
100
AcDbLine
 10
15.83146234993604
 20
3.758719620895513
 30
0.0
 11
14.85691305207612
 21
4.733268918755439
 31
0.0
  0
LINE
  5
2037B
330
20343
100
AcDbEntity
  8
0
  6
CONTINUOUS
100
AcDbLine
 10
16.01551512670025
 20
4.248186053211494
 30
0.0
 11
15.04094222313957
 21
5.222758956772172
 31
0.0
  0
LINE
  5
2037C
330
20343
100
AcDbEntity
  8
0
  6
CONTINUOUS
100
AcDbLine
 10
12.90511304310612
 20
6.685068927725435
 30
0.0
 11
10.8270819708403
 21
8.763099999991255
 31
0.0
  0
LINE
  5
2037D
330
20343
100
AcDbEntity
  8
0
  6
CONTINUOUS
100
AcDbLine
 10
12.41513331849066
 20
7.848567861421083
 30
0.0
 11
11.50060117992049
 21
8.763099999991255
 31
0.0
  0
LINE
  5
2037E
330
20343
100
AcDbEntity
  8
0
  6
CONTINUOUS
100
AcDbLine
 10
19.35714748038395
 20
1.580072908607975
 30
0.0
 11
17.03709479228923
 21
3.900125596702697
 31
0.0
  0
LINE
  5
2037F
330
20343
100
AcDbEntity
  8
0
  6
CONTINUOUS
100
AcDbLine
 10
19.55672823115909
 20
2.054011366913028
 30
0.0
 11
16.63151396416958
 21
4.979225633902534
 31
0.0
  0
LINE
  5
20380
330
20343
100
AcDbEntity
  8
0
  6
CONTINUOUS
100
AcDbLine
 10
16.19956790346445
 20
4.737652485527476
 30
0.0
 11
15.22497139420302
 21
5.712248994788904
 31
0.0
  0
LINE
  5
20381
330
20343
100
AcDbEntity
  8
0
  6
CONTINUOUS
100
AcDbLine
 10
16.38362068022866
 20
5.227118917843457
 30
0.0
 11
15.40900056526648
 21
6.201739032805637
 31
0.0
  0
LINE
  5
20382
330
20343
100
AcDbEntity
  8
0
  6
CONTINUOUS
100
AcDbLine
 10
19.75630898193422
 20
2.527949825218081
 30
0.0
 11
18.70774536448286
 21
3.576513442669441
 31
0.0
  0
LINE
  5
20383
330
20343
100
AcDbEntity
  8
0
  6
CONTINUOUS
100
AcDbLine
 10
19.95588973270936
 20
3.001888283523134
 30
0.0
 11
18.90726987211446
 21
4.050508144118028
 31
0.0
  0
LINE
  5
20384
330
20343
100
AcDbEntity
  8
0
  6
CONTINUOUS
100
AcDbLine
 10
20.15547048348449
 20
3.475826741828186
 30
0.0
 11
19.10679437974606
 21
4.524502845566614
 31
0.0
  0
LINE
  5
20385
330
20343
100
AcDbEntity
  8
0
  6
CONTINUOUS
100
AcDbLine
 10
20.35505123425962
 20
3.94976520013324
 30
0.0
 11
19.30631888737766
 21
4.998497547015201
 31
0.0
  0
LINE
  5
20386
330
20343
100
AcDbEntity
  8
0
  6
CONTINUOUS
100
AcDbLine
 10
20.55463198503475
 20
4.423703658438292
 30
0.0
 11
19.50584339500926
 21
5.472492248463787
 31
0.0
  0
LINE
  5
20387
330
20343
100
AcDbEntity
  8
0
  6
CONTINUOUS
100
AcDbLine
 10
18.37481191085755
 20
3.909446896294752
 30
0.0
 11
15.59302973632993
 21
6.691229070822371
 31
0.0
  0
LINE
  5
20388
330
20343
100
AcDbEntity
  8
0
  6
CONTINUOUS
100
AcDbLine
 10
17.96904084440766
 20
4.988737171824825
 30
0.0
 11
15.77705890739338
 21
7.180719108839104
 31
0.0
  0
LINE
  5
20389
330
20343
100
AcDbEntity
  8
0
  6
CONTINUOUS
100
AcDbLine
 10
17.56326977795777
 20
6.068027447354899
 30
0.0
 11
15.96108807845684
 21
7.670209146855838
 31
0.0
  0
LINE
  5
2038A
330
20343
100
AcDbEntity
  8
0
  6
CONTINUOUS
100
AcDbLine
 10
17.15749871150789
 20
7.147317722884972
 30
0.0
 11
16.14511724952029
 21
8.15969918487257
 31
0.0
  0
LINE
  5
2038B
330
20343
100
AcDbEntity
  8
0
  6
CONTINUOUS
100
AcDbLine
 10
16.751727645058
 20
8.226607998415046
 30
0.0
 11
16.32914642058374
 21
8.649189222889303
 31
0.0
  0
LINE
  5
2038C
330
20343
100
AcDbEntity
  8
0
  6
CONTINUOUS
100
AcDbLine
 10
20.75421273580989
 20
4.897642116743345
 30
0.0
 11
19.70536790264086
 21
5.946486949912374
 31
0.0
  0
LINE
  5
2038D
330
20343
100
AcDbEntity
  8
0
  6
CONTINUOUS
100
AcDbLine
 10
20.95379348658502
 20
5.371580575048398
 30
0.0
 11
19.90489241027246
 21
6.42048165136096
 31
0.0
  0
LINE
  5
2038E
330
20343
100
AcDbEntity
  8
0
  6
CONTINUOUS
100
AcDbLine
 10
21.15337423736015
 20
5.845519033353452
 30
0.0
 11
20.10441691790406
 21
6.894476352809547
 31
0.0
  0
LINE
  5
2038F
330
20343
100
AcDbEntity
  8
0
  6
CONTINUOUS
100
AcDbLine
 10
21.35295498813529
 20
6.319457491658505
 30
0.0
 11
20.30394142553566
 21
7.368471054258134
 31
0.0
  0
LINE
  5
20390
330
20343
100
AcDbEntity
  8
0
  6
CONTINUOUS
100
AcDbLine
 10
21.55253573891042
 20
6.793395949963558
 30
0.0
 11
20.50346593316726
 21
7.842465755706721
 31
0.0
  0
LINE
  5
20391
330
20343
100
AcDbEntity
  8
0
  6
CONTINUOUS
100
AcDbLine
 10
21.75211648968556
 20
7.267334408268612
 30
0.0
 11
20.70299044079886
 21
8.316460457155308
 31
0.0
  0
LINE
  5
20392
330
20343
100
AcDbEntity
  8
0
  6
CONTINUOUS
100
AcDbLine
 10
21.95169724046069
 20
7.741272866573663
 30
0.0
 11
20.9298701070431
 21
8.763099999991256
 31
0.0
  0
LINE
  5
20393
330
20343
100
AcDbEntity
  8
0
  6
CONTINUOUS
100
AcDbLine
 10
22.15127799123582
 20
8.215211324878716
 30
0.0
 11
21.60338931612328
 21
8.763099999991256
 31
0.0
  0
LINE
  5
20394
330
20343
100
AcDbEntity
  8
0
  6
CONTINUOUS
100
AcDbLine
 10
22.35085874201096
 20
8.689149783183769
 30
0.0
 11
22.27690852520347
 21
8.763099999991255
 31
0.0
  0
ENDBLK
  5
20486
330
20343
100
AcDbEntity
  8
0
100
AcDbBlockEnd
  0
BLOCK
  5
20487
330
20395
100
AcDbEntity
  8
0
100
AcDbBlockBegin
  2
*X45
 70
     1
 10
0.0
 20
0.0
 30
0.0
  3
*X45
  1

  0
LINE
  5
20396
330
20395
100
AcDbEntity
  8
0
  6
CONTINUOUS
100
AcDbLine
 10
23.19462913593892
 20
8.169917934846424
 30
0.0
 11
23.70775465517246
 21
8.683043454079957
 31
0.0
  0
LINE
  5
20397
330
20395
100
AcDbEntity
  8
0
  6
CONTINUOUS
100
AcDbLine
 10
22.64923161835078
 20
6.951001208178088
 30
0.0
 11
23.9159364069932
 21
8.217705996820516
 31
0.0
  0
LINE
  5
20398
330
20395
100
AcDbEntity
  8
0
  6
CONTINUOUS
100
AcDbLine
 10
22.10383410076263
 20
5.732084481509751
 30
0.0
 11
24.12411815881395
 21
7.752368539561078
 31
0.0
  0
LINE
  5
20399
330
20395
100
AcDbEntity
  8
0
  6
CONTINUOUS
100
AcDbLine
 10
21.55843658317447
 20
4.513167754841414
 30
0.0
 11
24.3322999106347
 21
7.287031082301639
 31
0.0
  0
LINE
  5
2039A
330
20395
100
AcDbEntity
  8
0
  6
CONTINUOUS
100
AcDbLine
 10
21.01303906558632
 20
3.294251028173077
 30
0.0
 11
24.54048166245544
 21
6.821693625042199
 31
0.0
  0
LINE
  5
2039B
330
20395
100
AcDbEntity
  8
0
  6
CONTINUOUS
100
AcDbLine
 10
20.46764154799817
 20
2.075334301504738
 30
0.0
 11
23.28571549467848
 21
4.89340824818505
 31
0.0
  0
LINE
  5
2039C
330
20395
100
AcDbEntity
  8
0
  6
CONTINUOUS
100
AcDbLine
 10
19.92224403041002
 20
0.8564175748364002
 30
0.0
 11
22.74075865492779
 21
3.674932199354171
 31
0.0
  0
LINE
  5
2039D
330
20395
100
AcDbEntity
  8
0
  6
CONTINUOUS
100
AcDbLine
 10
23.67305085490148
 20
5.280743608408048
 30
0.0
 11
24.74866341427619
 21
6.356356167782759
 31
0.0
  0
LINE
  5
2039E
330
20395
100
AcDbEntity
  8
0
  6
CONTINUOUS
100
AcDbLine
 10
23.88118970842314
 20
4.815363252849522
 30
0.0
 11
24.95684516609694
 21
5.89101871052332
 31
0.0
  0
LINE
  5
2039F
330
20395
100
AcDbEntity
  8
0
  6
CONTINUOUS
100
AcDbLine
 10
19.73925852647308
 20
-0.0000871381807288
 30
0.0
 11
23.4103456646501
 21
3.670999999996297
 31
0.0
  0
LINE
  5
203A0
330
20395
100
AcDbEntity
  8
0
  6
CONTINUOUS
100
AcDbLine
 10
24.0893285619448
 20
4.349982897290997
 30
0.0
 11
25.16502691791769
 21
5.42568125326388
 31
0.0
  0
LINE
  5
203A1
330
20395
100
AcDbEntity
  8
0
  6
CONTINUOUS
100
AcDbLine
 10
20.41282099582748
 20
-0.0000438779065108
 30
0.0
 11
21.64944178675636
 21
1.236576913022366
 31
0.0
  0
LINE
  5
203A2
330
20395
100
AcDbEntity
  8
0
  6
CONTINUOUS
100
AcDbLine
 10
22.78126487373161
 20
2.36839999999762
 30
0.0
 11
24.08386487373029
 21
3.670999999996297
 31
0.0
  0
LINE
  5
203A3
330
20395
100
AcDbEntity
  8
0
  6
CONTINUOUS
100
AcDbLine
 10
24.29746741546646
 20
3.884602541732471
 30
0.0
 11
25.37320866973843
 21
4.960343796004441
 31
0.0
  0
LINE
  5
203A4
330
20395
100
AcDbEntity
  8
0
  6
CONTINUOUS
100
AcDbLine
 10
21.08638346518189
 20
-0.0000006176322938
 30
0.0
 11
21.10379033335899
 21
0.0174062505448083
 31
0.0
  0
LINE
  5
203A5
330
20395
100
AcDbEntity
  8
0
  6
CONTINUOUS
100
AcDbLine
 10
23.4547840828118
 20
2.36839999999762
 30
0.0
 11
25.58139042155918
 21
4.495006338745002
 31
0.0
  0
LINE
  5
203A6
330
20395
100
AcDbEntity
  8
0
  6
CONTINUOUS
100
AcDbLine
 10
29.30199999996933
 20
8.215615917155148
 30
0.0
 11
29.84948408280543
 21
8.763099999991255
 31
0.0
  0
LINE
  5
203A7
330
20395
100
AcDbEntity
  8
0
  6
CONTINUOUS
100
AcDbLine
 10
24.12830329189199
 20
2.36839999999762
 30
0.0
 11
25.78957217337993
 21
4.029668881485562
 31
0.0
  0
LINE
  5
203A8
330
20395
100
AcDbEntity
  8
0
  6
CONTINUOUS
100
AcDbLine
 10
29.30199999996933
 20
7.54209670807496
 30
0.0
 11
30.52300329188562
 21
8.763099999991255
 31
0.0
  0
LINE
  5
203A9
330
20395
100
AcDbEntity
  8
0
  6
CONTINUOUS
100
AcDbLine
 10
24.80182250097217
 20
2.36839999999762
 30
0.0
 11
25.99775392520067
 21
3.564331424226122
 31
0.0
  0
LINE
  5
203AA
330
20395
100
AcDbEntity
  8
0
  6
CONTINUOUS
100
AcDbLine
 10
29.30199999996933
 20
6.868577498994774
 30
0.0
 11
30.74199999996926
 21
8.308577498994712
 31
0.0
  0
LINE
  5
203AB
330
20395
100
AcDbEntity
  8
0
  6
CONTINUOUS
100
AcDbLine
 10
25.13028238392013
 20
2.023340673865392
 30
0.0
 11
26.20593567702142
 21
3.098993966966683
 31
0.0
  0
LINE
  5
203AC
330
20395
100
AcDbEntity
  8
0
  6
CONTINUOUS
100
AcDbLine
 10
25.33838066033617
 20
1.557919741201244
 30
0.0
 11
26.41411742884217
 21
2.633656509707244
 31
0.0
  0
LINE
  5
203AD
330
20395
100
AcDbEntity
  8
0
  6
CONTINUOUS
100
AcDbLine
 10
25.54647893675221
 20
1.092498808537098
 30
0.0
 11
26.62229918066291
 21
2.168319052447804
 31
0.0
  0
LINE
  5
203AE
330
20395
100
AcDbEntity
  8
0
  6
CONTINUOUS
100
AcDbLine
 10
25.75457721316825
 20
0.62707787587295
 30
0.0
 11
26.83048093248366
 21
1.702981595188365
 31
0.0
  0
LINE
  5
203AF
330
20395
100
AcDbEntity
  8
0
  6
CONTINUOUS
100
AcDbLine
 10
29.30199999996933
 20
6.195058289914587
 30
0.0
 11
30.74199999996926
 21
7.635058289914522
 31
0.0
  0
LINE
  5
203B0
330
20395
100
AcDbEntity
  8
0
  6
CONTINUOUS
100
AcDbLine
 10
29.30199999996933
 20
5.521539080834401
 30
0.0
 11
30.74199999996926
 21
6.961539080834331
 31
0.0
  0
LINE
  5
203B1
330
20395
100
AcDbEntity
  8
0
  6
CONTINUOUS
100
AcDbLine
 10
29.30199999996933
 20
4.848019871754214
 30
0.0
 11
30.74199999996925
 21
6.288019871754143
 31
0.0
  0
LINE
  5
203B2
330
20395
100
AcDbEntity
  8
0
  6
CONTINUOUS
100
AcDbLine
 10
29.30199999996933
 20
4.174500662674028
 30
0.0
 11
30.74199999996925
 21
5.614500662673953
 31
0.0
  0
LINE
  5
203B3
330
20395
100
AcDbEntity
  8
0
  6
CONTINUOUS
100
AcDbLine
 10
25.96267548958429
 20
0.1616569432088024
 30
0.0
 11
27.18411854636669
 21
1.383099999991207
 31
0.0
  0
LINE
  5
203B4
330
20395
100
AcDbEntity
  8
0
  6
CONTINUOUS
100
AcDbLine
 10
29.30199999996933
 20
3.500981453593841
 30
0.0
 11
30.74199999996925
 21
4.940981453593762
 31
0.0
  0
LINE
  5
203B5
330
20395
100
AcDbEntity
  8
0
  6
CONTINUOUS
100
AcDbLine
 10
26.50763775544691
 20
0.0330999999912356
 30
0.0
 11
27.85763775544689
 21
1.383099999991223
 31
0.0
  0
LINE
  5
203B6
330
20395
100
AcDbEntity
  8
0
  6
CONTINUOUS
100
AcDbLine
 10
29.30199999996933
 20
2.827462244513656
 30
0.0
 11
30.74199999996925
 21
4.267462244513574
 31
0.0
  0
LINE
  5
203B7
330
20395
100
AcDbEntity
  8
0
  6
CONTINUOUS
100
AcDbLine
 10
27.18115696452709
 20
0.0330999999912356
 30
0.0
 11
28.55073879889363
 21
1.402681834357775
 31
0.0
  0
LINE
  5
203B8
330
20395
100
AcDbEntity
  8
0
  6
CONTINUOUS
100
AcDbLine
 10
29.28241816560272
 20
2.134361201066866
 30
0.0
 11
30.74199999996924
 21
3.593943035433383
 31
0.0
  0
LINE
  5
203B9
330
20395
100
AcDbEntity
  8
0
  6
CONTINUOUS
100
AcDbLine
 10
27.85467617360728
 20
0.0330999999912356
 30
0.0
 11
30.74199999996924
 21
2.920423826353195
 31
0.0
  0
LINE
  5
203BA
330
20395
100
AcDbEntity
  8
0
  6
CONTINUOUS
100
AcDbLine
 10
28.53897559587887
 20
0.0438802131826428
 30
0.0
 11
30.73121978677781
 21
2.236124404081585
 31
0.0
  0
LINE
  5
203BB
330
20395
100
AcDbEntity
  8
0
  6
CONTINUOUS
100
AcDbLine
 10
29.45140055588722
 20
0.2827859641107988
 30
0.0
 11
30.49231403584965
 21
1.323699444073236
 31
0.0
  0
LINE
  5
203BC
330
20395
100
AcDbEntity
  8
0
  6
CONTINUOUS
100
AcDbLine
 10
19.59027867740337
 20
-0.0000967065718083
 30
0.0
 11
19.55485265190471
 21
0.035329318926844
 31
0.0
  0
LINE
  5
203BD
330
20395
100
AcDbEntity
  8
0
  6
CONTINUOUS
100
AcDbLine
 10
20.26375463176586
 20
-0.0000534518541091
 30
0.0
 11
19.76305575737534
 21
0.5006454225364014
 31
0.0
  0
LINE
  5
203BE
330
20395
100
AcDbEntity
  8
0
  6
CONTINUOUS
100
AcDbLine
 10
20.93723058612834
 20
-0.0000101971364099
 30
0.0
 11
19.97125886284597
 21
0.965961526145958
 31
0.0
  0
LINE
  5
203BF
330
20395
100
AcDbEntity
  8
0
  6
CONTINUOUS
100
AcDbLine
 10
21.25514828313686
 20
0.355591314935257
 30
0.0
 11
20.1794619683166
 21
1.431277629755512
 31
0.0
  0
LINE
  5
203C0
330
20395
100
AcDbEntity
  8
0
  6
CONTINUOUS
100
AcDbLine
 10
21.46338838394921
 20
0.8208704232030986
 30
0.0
 11
20.38766507378723
 21
1.896593733365069
 31
0.0
  0
LINE
  5
203C1
330
20395
100
AcDbEntity
  8
0
  6
CONTINUOUS
100
AcDbLine
 10
21.67162848476155
 20
1.28614953147094
 30
0.0
 11
20.59586817925786
 21
2.361909836974626
 31
0.0
  0
LINE
  5
203C2
330
20395
100
AcDbEntity
  8
0
  6
CONTINUOUS
100
AcDbLine
 10
21.8798685855739
 20
1.751428639738782
 30
0.0
 11
20.80407128472849
 21
2.827225940584183
 31
0.0
  0
LINE
  5
203C3
330
20395
100
AcDbEntity
  8
0
  6
CONTINUOUS
100
AcDbLine
 10
22.08810868638624
 20
2.216707748006623
 30
0.0
 11
21.01227439019912
 21
3.292542044193739
 31
0.0
  0
LINE
  5
203C4
330
20395
100
AcDbEntity
  8
0
  6
CONTINUOUS
100
AcDbLine
 10
22.60993564347543
 20
2.36839999999762
 30
0.0
 11
21.22047749566975
 21
3.757858147803296
 31
0.0
  0
LINE
  5
203C5
330
20395
100
AcDbEntity
  8
0
  6
CONTINUOUS
100
AcDbLine
 10
23.28345485255561
 20
2.36839999999762
 30
0.0
 11
21.42868060114038
 21
4.223174251412853
 31
0.0
  0
LINE
  5
203C6
330
20395
100
AcDbEntity
  8
0
  6
CONTINUOUS
100
AcDbLine
 10
26.29227406164219
 20
0.0330999999912356
 30
0.0
 11
25.80009199592872
 21
0.5252820657046957
 31
0.0
  0
LINE
  5
203C7
330
20395
100
AcDbEntity
  8
0
  6
CONTINUOUS
100
AcDbLine
 10
23.9569740616358
 20
2.36839999999762
 30
0.0
 11
21.63688370661101
 21
4.688490355022409
 31
0.0
  0
LINE
  5
203C8
330
20395
100
AcDbEntity
  8
0
  6
CONTINUOUS
100
AcDbLine
 10
26.96579327072237
 20
0.0330999999912356
 30
0.0
 11
25.2554132311971
 21
1.743480039516508
 31
0.0
  0
LINE
  5
203C9
330
20395
100
AcDbEntity
  8
0
  6
CONTINUOUS
100
AcDbLine
 10
24.63049327071599
 20
2.36839999999762
 30
0.0
 11
23.32789327071731
 21
3.670999999996297
 31
0.0
  0
LINE
  5
203CA
330
20395
100
AcDbEntity
  8
0
  6
CONTINUOUS
100
AcDbLine
 10
22.92098674744635
 20
4.077906523267254
 30
0.0
 11
21.84508681208164
 21
5.153806458631966
 31
0.0
  0
LINE
  5
203CB
330
20395
100
AcDbEntity
  8
0
  6
CONTINUOUS
100
AcDbLine
 10
27.63931247980256
 20
0.0330999999912356
 30
0.0
 11
24.0014124797975
 21
3.670999999996297
 31
0.0
  0
LINE
  5
203CC
330
20395
100
AcDbEntity
  8
0
  6
CONTINUOUS
100
AcDbLine
 10
23.129125600968
 20
4.5432868788258
 30
0.0
 11
22.05328991755227
 21
5.619122562241522
 31
0.0
  0
LINE
  5
203CD
330
20395
100
AcDbEntity
  8
0
  6
CONTINUOUS
100
AcDbLine
 10
28.31283168888275
 20
0.0330999999912356
 30
0.0
 11
24.16488385994816
 21
4.181047828925828
 31
0.0
  0
LINE
  5
203CE
330
20395
100
AcDbEntity
  8
0
  6
CONTINUOUS
100
AcDbLine
 10
23.33726445448964
 20
5.008667234384345
 30
0.0
 11
22.2614930230229
 21
6.084438665851079
 31
0.0
  0
LINE
  5
203CF
330
20395
100
AcDbEntity
  8
0
  6
CONTINUOUS
100
AcDbLine
 10
28.92085740005492
 20
0.0985934978992438
 30
0.0
 11
27.63635089796295
 21
1.383099999991217
 31
0.0
  0
LINE
  5
203D0
330
20395
100
AcDbEntity
  8
0
  6
CONTINUOUS
100
AcDbLine
 10
26.43704649509776
 20
2.582404402856405
 30
0.0
 11
23.61992702019732
 21
5.399523877756844
 31
0.0
  0
LINE
  5
203D1
330
20395
100
AcDbEntity
  8
0
  6
CONTINUOUS
100
AcDbLine
 10
23.54540330801128
 20
5.47404758994289
 30
0.0
 11
22.46969612849353
 21
6.549754769460635
 31
0.0
  0
LINE
  5
203D2
330
20395
100
AcDbEntity
  8
0
  6
CONTINUOUS
100
AcDbLine
 10
29.42225615078443
 20
0.2707139562499279
 30
0.0
 11
28.30987010704312
 21
1.383099999991234
 31
0.0
  0
LINE
  5
203D3
330
20395
100
AcDbEntity
  8
0
  6
CONTINUOUS
100
AcDbLine
 10
25.89179548232307
 20
3.801174624711282
 30
0.0
 11
22.67789923396416
 21
7.015070873070191
 31
0.0
  0
LINE
  5
203D4
330
20395
100
AcDbEntity
  8
0
  6
CONTINUOUS
100
AcDbLine
 10
29.83624534690007
 20
0.5302439692144705
 30
0.0
 11
28.85811781497101
 21
1.508371501143527
 31
0.0
  0
LINE
  5
203D5
330
20395
100
AcDbEntity
  8
0
  6
CONTINUOUS
100
AcDbLine
 10
25.34654446954838
 20
5.01994484656616
 30
0.0
 11
22.88610233943479
 21
7.480386976679748
 31
0.0
  0
LINE
  5
203D6
330
20395
100
AcDbEntity
  8
0
  6
CONTINUOUS
100
AcDbLine
 10
30.17865975401872
 20
0.8613487711760022
 30
0.0
 11
29.18888744090175
 21
1.851121084292977
 31
0.0
  0
LINE
  5
203D7
330
20395
100
AcDbEntity
  8
0
  6
CONTINUOUS
100
AcDbLine
 10
24.80129345677369
 20
6.238715068421037
 30
0.0
 11
23.09430544490542
 21
7.945703080289305
 31
0.0
  0
LINE
  5
203D8
330
20395
100
AcDbEntity
  8
0
  6
CONTINUOUS
100
AcDbLine
 10
30.45496647202376
 20
1.258561262251155
 30
0.0
 11
29.30199999996933
 21
2.411527734305588
 31
0.0
  0
LINE
  5
203D9
330
20395
100
AcDbEntity
  8
0
  6
CONTINUOUS
100
AcDbLine
 10
24.256042443999
 20
7.457485290275915
 30
0.0
 11
23.30250855037605
 21
8.411019183898862
 31
0.0
  0
LINE
  5
203DA
330
20395
100
AcDbEntity
  8
0
  6
CONTINUOUS
100
AcDbLine
 10
30.64868582078271
 20
1.738361122572387
 30
0.0
 11
29.30199999996933
 21
3.085046943385775
 31
0.0
  0
LINE
  5
203DB
330
20395
100
AcDbEntity
  8
0
  6
CONTINUOUS
100
AcDbLine
 10
23.71079143122431
 20
8.676255512130794
 30
0.0
 11
23.51071165584668
 21
8.876335287508416
 31
0.0
  0
LINE
  5
203DC
330
20395
100
AcDbEntity
  8
0
  6
CONTINUOUS
100
AcDbLine
 10
30.73802122914428
 20
2.322544923291007
 30
0.0
 11
29.30199999996933
 21
3.758566152465961
 31
0.0
  0
LINE
  5
203DD
330
20395
100
AcDbEntity
  8
0
  6
CONTINUOUS
100
AcDbLine
 10
30.74199999996924
 20
2.992085361546236
 30
0.0
 11
29.30199999996933
 21
4.432085361546148
 31
0.0
  0
LINE
  5
203DE
330
20395
100
AcDbEntity
  8
0
  6
CONTINUOUS
100
AcDbLine
 10
30.74199999996924
 20
3.665604570626419
 30
0.0
 11
29.30199999996933
 21
5.105604570626333
 31
0.0
  0
LINE
  5
203DF
330
20395
100
AcDbEntity
  8
0
  6
CONTINUOUS
100
AcDbLine
 10
30.74199999996925
 20
4.339123779706602
 30
0.0
 11
29.30199999996933
 21
5.77912377970652
 31
0.0
  0
LINE
  5
203E0
330
20395
100
AcDbEntity
  8
0
  6
CONTINUOUS
100
AcDbLine
 10
30.74199999996925
 20
5.012642988786785
 30
0.0
 11
29.30199999996933
 21
6.452642988786707
 31
0.0
  0
LINE
  5
203E1
330
20395
100
AcDbEntity
  8
0
  6
CONTINUOUS
100
AcDbLine
 10
30.74199999996925
 20
5.68616219786697
 30
0.0
 11
29.30199999996933
 21
7.126162197866894
 31
0.0
  0
LINE
  5
203E2
330
20395
100
AcDbEntity
  8
0
  6
CONTINUOUS
100
AcDbLine
 10
30.74199999996925
 20
6.359681406947153
 30
0.0
 11
29.30199999996933
 21
7.799681406947081
 31
0.0
  0
LINE
  5
203E3
330
20395
100
AcDbEntity
  8
0
  6
CONTINUOUS
100
AcDbLine
 10
30.74199999996926
 20
7.033200616027337
 30
0.0
 11
29.30199999996933
 21
8.473200616027269
 31
0.0
  0
LINE
  5
203E4
330
20395
100
AcDbEntity
  8
0
  6
CONTINUOUS
100
AcDbLine
 10
30.74199999996926
 20
7.706719825107518
 30
0.0
 11
29.68561982508552
 21
8.763099999991255
 31
0.0
  0
LINE
  5
203E5
330
20395
100
AcDbEntity
  8
0
  6
CONTINUOUS
100
AcDbLine
 10
30.74199999996926
 20
8.380239034187703
 30
0.0
 11
30.35913903416571
 21
8.763099999991255
 31
0.0
  0
ENDBLK
  5
20488
330
20395
100
AcDbEntity
  8
0
100
AcDbBlockEnd
  0
BLOCK
  5
20489
330
203E6
100
AcDbEntity
  8
0
100
AcDbBlockBegin
  2
*X46
 70
     1
 10
0.0
 20
0.0
 30
0.0
  3
*X46
  1

  0
LINE
  5
203E7
330
203E6
100
AcDbEntity
  8
0
  6
CONTINUOUS
100
AcDbLine
 10
31.64199999996833
 20
8.535058289913598
 30
0.0
 11
31.87004171004599
 21
8.763099999991255
 31
0.0
  0
LINE
  5
203E8
330
203E6
100
AcDbEntity
  8
0
  6
CONTINUOUS
100
AcDbLine
 10
31.64199999996833
 20
7.861539080833412
 30
0.0
 11
32.54356091912618
 21
8.763099999991255
 31
0.0
  0
LINE
  5
203E9
330
203E6
100
AcDbEntity
  8
0
  6
CONTINUOUS
100
AcDbLine
 10
31.64199999996833
 20
7.188019871753226
 30
0.0
 11
33.08199999996839
 21
8.628019871753281
 31
0.0
  0
LINE
  5
203EA
330
203E6
100
AcDbEntity
  8
0
  6
CONTINUOUS
100
AcDbLine
 10
31.64199999996833
 20
6.51450066267304
 30
0.0
 11
33.08199999996839
 21
7.954500662673095
 31
0.0
  0
LINE
  5
203EB
330
203E6
100
AcDbEntity
  8
0
  6
CONTINUOUS
100
AcDbLine
 10
31.64199999996833
 20
5.840981453592853
 30
0.0
 11
33.08199999996839
 21
7.280981453592908
 31
0.0
  0
LINE
  5
203EC
330
203E6
100
AcDbEntity
  8
0
  6
CONTINUOUS
100
AcDbLine
 10
31.64199999996833
 20
5.167462244512667
 30
0.0
 11
33.08199999996839
 21
6.607462244512721
 31
0.0
  0
LINE
  5
203ED
330
203E6
100
AcDbEntity
  8
0
  6
CONTINUOUS
100
AcDbLine
 10
31.64199999996833
 20
4.493943035432481
 30
0.0
 11
33.08199999996839
 21
5.933943035432535
 31
0.0
  0
LINE
  5
203EE
330
203E6
100
AcDbEntity
  8
0
  6
CONTINUOUS
100
AcDbLine
 10
31.64199999996833
 20
3.820423826352293
 30
0.0
 11
33.08199999996839
 21
5.260423826352348
 31
0.0
  0
LINE
  5
203EF
330
203E6
100
AcDbEntity
  8
0
  6
CONTINUOUS
100
AcDbLine
 10
31.64199999996833
 20
3.146904617272106
 30
0.0
 11
33.08199999996839
 21
4.586904617272161
 31
0.0
  0
LINE
  5
203F0
330
203E6
100
AcDbEntity
  8
0
  6
CONTINUOUS
100
AcDbLine
 10
36.23199999996837
 20
8.410423826352325
 30
0.0
 11
36.5846761736073
 21
8.763099999991255
 31
0.0
  0
LINE
  5
203F1
330
203E6
100
AcDbEntity
  8
0
  6
CONTINUOUS
100
AcDbLine
 10
36.23199999996837
 20
7.73690461727214
 30
0.0
 11
37.25819538268748
 21
8.763099999991255
 31
0.0
  0
LINE
  5
203F2
330
203E6
100
AcDbEntity
  8
0
  6
CONTINUOUS
100
AcDbLine
 10
31.64257403601376
 20
2.473959444237348
 30
0.0
 11
33.08199999996839
 21
3.913385408191974
 31
0.0
  0
LINE
  5
203F3
330
203E6
100
AcDbEntity
  8
0
  6
CONTINUOUS
100
AcDbLine
 10
36.23199999996837
 20
7.063385408191953
 30
0.0
 11
37.67199999996831
 21
8.503385408191894
 31
0.0
  0
LINE
  5
203F4
330
203E6
100
AcDbEntity
  8
0
  6
CONTINUOUS
100
AcDbLine
 10
31.72013636841932
 20
1.87800256756272
 30
0.0
 11
33.08199999996839
 21
3.239866199111788
 31
0.0
  0
LINE
  5
203F5
330
203E6
100
AcDbEntity
  8
0
  6
CONTINUOUS
100
AcDbLine
 10
36.23199999996837
 20
6.389866199111767
 30
0.0
 11
37.67199999996831
 21
7.829866199111708
 31
0.0
  0
LINE
  5
203F6
330
203E6
100
AcDbEntity
  8
0
  6
CONTINUOUS
100
AcDbLine
 10
31.89042734314753
 20
1.374774333210744
 30
0.0
 11
33.08199999996839
 21
2.566346990031601
 31
0.0
  0
LINE
  5
203F7
330
203E6
100
AcDbEntity
  8
0
  6
CONTINUOUS
100
AcDbLine
 10
36.23199999996837
 20
5.71634699003158
 30
0.0
 11
37.67199999996831
 21
7.156346990031521
 31
0.0
  0
LINE
  5
203F8
330
203E6
100
AcDbEntity
  8
0
  6
CONTINUOUS
100
AcDbLine
 10
32.14210568064475
 20
0.952933461627778
 30
0.0
 11
33.18745552475986
 21
1.998283305742888
 31
0.0
  0
LINE
  5
203F9
330
203E6
100
AcDbEntity
  8
0
  6
CONTINUOUS
100
AcDbLine
 10
36.23199999996837
 20
5.042827780951393
 30
0.0
 11
37.67199999996831
 21
6.482827780951334
 31
0.0
  0
LINE
  5
203FA
330
203E6
100
AcDbEntity
  8
0
  6
CONTINUOUS
100
AcDbLine
 10
32.45820639400955
 20
0.5955149659123915
 30
0.0
 11
33.47242681921943
 21
1.60973539112227
 31
0.0
  0
LINE
  5
203FB
330
203E6
100
AcDbEntity
  8
0
  6
CONTINUOUS
100
AcDbLine
 10
36.23199999996837
 20
4.369308571871207
 30
0.0
 11
37.67199999996831
 21
5.809308571871147
 31
0.0
  0
LINE
  5
203FC
330
203E6
100
AcDbEntity
  8
0
  6
CONTINUOUS
100
AcDbLine
 10
32.83432456621412
 20
0.2981139290367771
 30
0.0
 11
33.89722476612215
 21
1.361014128944803
 31
0.0
  0
LINE
  5
203FD
330
203E6
100
AcDbEntity
  8
0
  6
CONTINUOUS
100
AcDbLine
 10
36.23199999996837
 20
3.69578936279102
 30
0.0
 11
37.67199999996831
 21
5.135789362790962
 31
0.0
  0
LINE
  5
203FE
330
203E6
100
AcDbEntity
  8
0
  6
CONTINUOUS
100
AcDbLine
 10
33.2711633111245
 20
0.0614334648669672
 30
0.0
 11
34.43247338014423
 21
1.222743533886696
 31
0.0
  0
LINE
  5
203FF
330
203E6
100
AcDbEntity
  8
0
  6
CONTINUOUS
100
AcDbLine
 10
36.23199999996837
 20
3.022270153710834
 30
0.0
 11
37.67199999996831
 21
4.462270153710775
 31
0.0
  0
LINE
  5
20400
330
203E6
100
AcDbEntity
  8
0
  6
CONTINUOUS
100
AcDbLine
 10
33.76515245874577
 20
-0.1180965965919523
 30
0.0
 11
35.1587445516215
 21
1.27549549628378
 31
0.0
  0
LINE
  5
20401
330
203E6
100
AcDbEntity
  8
0
  6
CONTINUOUS
100
AcDbLine
 10
36.21639478609585
 20
2.333145730758136
 30
0.0
 11
37.67199999996831
 21
3.788750944630588
 31
0.0
  0
LINE
  5
20402
330
203E6
100
AcDbEntity
  8
0
  6
CONTINUOUS
100
AcDbLine
 10
34.34060583368432
 20
-0.2161624307335863
 30
0.0
 11
37.67199999996831
 21
3.115231735550401
 31
0.0
  0
LINE
  5
20403
330
203E6
100
AcDbEntity
  8
0
  6
CONTINUOUS
100
AcDbLine
 10
35.01698193613905
 20
-0.2133055373590427
 30
0.0
 11
37.66876712070525
 21
2.438479647207154
 31
0.0
  0
LINE
  5
20404
330
203E6
100
AcDbEntity
  8
0
  6
CONTINUOUS
100
AcDbLine
 10
35.90743367693304
 20
0.0036269943547609
 30
0.0
 11
37.51723902192366
 21
1.613432339345381
 31
0.0
  0
LINE
  5
20405
330
203E6
100
AcDbEntity
  8
0
  6
CONTINUOUS
100
AcDbLine
 10
32.55309425579761
 20
0.5074718966376706
 30
0.0
 11
32.27784730925847
 21
0.7827188431768102
 31
0.0
  0
LINE
  5
20406
330
203E6
100
AcDbEntity
  8
0
  6
CONTINUOUS
100
AcDbLine
 10
33.87496468909684
 20
-0.1408793275813673
 30
0.0
 11
31.67993083278052
 21
2.054154528734943
 31
0.0
  0
LINE
  5
20407
330
203E6
100
AcDbEntity
  8
0
  6
CONTINUOUS
100
AcDbLine
 10
34.64362813207632
 20
-0.2360235614806649
 30
0.0
 11
31.64199999996833
 21
2.765604570627322
 31
0.0
  0
LINE
  5
20408
330
203E6
100
AcDbEntity
  8
0
  6
CONTINUOUS
100
AcDbLine
 10
35.25801106796118
 20
-0.1768872882853429
 30
0.0
 11
31.64199999996833
 21
3.439123779707508
 31
0.0
  0
LINE
  5
20409
330
203E6
100
AcDbEntity
  8
0
  6
CONTINUOUS
100
AcDbLine
 10
35.79065650332146
 20
-0.0360135145654361
 30
0.0
 11
34.54143210838231
 21
1.213210880373721
 31
0.0
  0
LINE
  5
2040A
330
203E6
100
AcDbEntity
  8
0
  6
CONTINUOUS
100
AcDbLine
 10
33.08199999996839
 20
2.67264298878764
 30
0.0
 11
31.64199999996833
 21
4.112642988787695
 31
0.0
  0
LINE
  5
2040B
330
203E6
100
AcDbEntity
  8
0
  6
CONTINUOUS
100
AcDbLine
 10
36.25975597779143
 20
0.1684062200447833
 30
0.0
 11
35.15395110240023
 21
1.274211095435983
 31
0.0
  0
LINE
  5
2040C
330
203E6
100
AcDbEntity
  8
0
  6
CONTINUOUS
100
AcDbLine
 10
33.08199999996839
 20
3.346162197867826
 30
0.0
 11
31.64199999996833
 21
4.786162197867881
 31
0.0
  0
LINE
  5
2040D
330
203E6
100
AcDbEntity
  8
0
  6
CONTINUOUS
100
AcDbLine
 10
36.67226329638774
 20
0.4294181105286579
 30
0.0
 11
35.63766478748767
 21
1.464016619428737
 31
0.0
  0
LINE
  5
2040E
330
203E6
100
AcDbEntity
  8
0
  6
CONTINUOUS
100
AcDbLine
 10
33.08199999996839
 20
4.019681406948012
 30
0.0
 11
31.64199999996833
 21
5.459681406948068
 31
0.0
  0
LINE
  5
2040F
330
203E6
100
AcDbEntity
  8
0
  6
CONTINUOUS
100
AcDbLine
 10
37.01677749710036
 20
0.7584231188962329
 30
0.0
 11
35.99563422741351
 21
1.779566388583076
 31
0.0
  0
LINE
  5
20410
330
203E6
100
AcDbEntity
  8
0
  6
CONTINUOUS
100
AcDbLine
 10
33.08199999996839
 20
4.693200616028199
 30
0.0
 11
31.64199999996833
 21
6.133200616028255
 31
0.0
  0
LINE
  5
20411
330
203E6
100
AcDbEntity
  8
0
  6
CONTINUOUS
100
AcDbLine
 10
37.29859977568887
 20
1.1501200493879
 30
0.0
 11
36.20680593341555
 21
2.241913891661226
 31
0.0
  0
LINE
  5
20412
330
203E6
100
AcDbEntity
  8
0
  6
CONTINUOUS
100
AcDbLine
 10
33.08199999996839
 20
5.366719825108386
 30
0.0
 11
31.64199999996833
 21
6.80671982510844
 31
0.0
  0
LINE
  5
20413
330
203E6
100
AcDbEntity
  8
0
  6
CONTINUOUS
100
AcDbLine
 10
37.5148623517228
 20
1.607376682434161
 30
0.0
 11
36.23199999996837
 21
2.890239034188594
 31
0.0
  0
LINE
  5
20414
330
203E6
100
AcDbEntity
  8
0
  6
CONTINUOUS
100
AcDbLine
 10
33.08199999996839
 20
6.040239034188573
 30
0.0
 11
31.64199999996833
 21
7.480239034188627
 31
0.0
  0
LINE
  5
20415
330
203E6
100
AcDbEntity
  8
0
  6
CONTINUOUS
100
AcDbLine
 10
37.64705163358367
 20
2.148706609653477
 30
0.0
 11
36.23199999996837
 21
3.56375824326878
 31
0.0
  0
LINE
  5
20416
330
203E6
100
AcDbEntity
  8
0
  6
CONTINUOUS
100
AcDbLine
 10
33.08199999996839
 20
6.713758243268758
 30
0.0
 11
31.64199999996833
 21
8.153758243268815
 31
0.0
  0
LINE
  5
20417
330
203E6
100
AcDbEntity
  8
0
  6
CONTINUOUS
100
AcDbLine
 10
37.67199999996831
 20
2.797277452349026
 30
0.0
 11
36.23199999996837
 21
4.237277452348967
 31
0.0
  0
LINE
  5
20418
330
203E6
100
AcDbEntity
  8
0
  6
CONTINUOUS
100
AcDbLine
 10
37.67199999996831
 20
3.470796661429213
 30
0.0
 11
36.23199999996837
 21
4.910796661429154
 31
0.0
  0
LINE
  5
20419
330
203E6
100
AcDbEntity
  8
0
  6
CONTINUOUS
100
AcDbLine
 10
37.67199999996831
 20
4.144315870509399
 30
0.0
 11
36.23199999996837
 21
5.58431587050934
 31
0.0
  0
LINE
  5
2041A
330
203E6
100
AcDbEntity
  8
0
  6
CONTINUOUS
100
AcDbLine
 10
33.08199999996839
 20
7.387277452348945
 30
0.0
 11
31.70617745232608
 21
8.763099999991255
 31
0.0
  0
LINE
  5
2041B
330
203E6
100
AcDbEntity
  8
0
  6
CONTINUOUS
100
AcDbLine
 10
33.08199999996839
 20
8.060796661429132
 30
0.0
 11
32.37969666140626
 21
8.763099999991255
 31
0.0
  0
LINE
  5
2041C
330
203E6
100
AcDbEntity
  8
0
  6
CONTINUOUS
100
AcDbLine
 10
33.08199999996839
 20
8.734315870509318
 30
0.0
 11
33.05321587048645
 21
8.763099999991255
 31
0.0
  0
LINE
  5
2041D
330
203E6
100
AcDbEntity
  8
0
  6
CONTINUOUS
100
AcDbLine
 10
37.67199999996831
 20
4.817835079589585
 30
0.0
 11
36.23199999996837
 21
6.257835079589526
 31
0.0
  0
LINE
  5
2041E
330
203E6
100
AcDbEntity
  8
0
  6
CONTINUOUS
100
AcDbLine
 10
37.67199999996831
 20
5.491354288669771
 30
0.0
 11
36.23199999996837
 21
6.931354288669713
 31
0.0
  0
LINE
  5
2041F
330
203E6
100
AcDbEntity
  8
0
  6
CONTINUOUS
100
AcDbLine
 10
37.67199999996831
 20
6.164873497749958
 30
0.0
 11
36.23199999996837
 21
7.6048734977499
 31
0.0
  0
LINE
  5
20420
330
203E6
100
AcDbEntity
  8
0
  6
CONTINUOUS
100
AcDbLine
 10
37.67199999996831
 20
6.838392706830144
 30
0.0
 11
36.23199999996837
 21
8.278392706830086
 31
0.0
  0
LINE
  5
20421
330
203E6
100
AcDbEntity
  8
0
  6
CONTINUOUS
100
AcDbLine
 10
37.67199999996831
 20
7.511911915910332
 30
0.0
 11
36.42081191588738
 21
8.763099999991255
 31
0.0
  0
LINE
  5
20422
330
203E6
100
AcDbEntity
  8
0
  6
CONTINUOUS
100
AcDbLine
 10
37.67199999996831
 20
8.185431124990519
 30
0.0
 11
37.09433112496757
 21
8.763099999991255
 31
0.0
  0
ENDBLK
  5
2048A
330
203E6
100
AcDbEntity
  8
0
100
AcDbBlockEnd
  0
BLOCK
  5
2048B
330
20423
100
AcDbEntity
  8
0
100
AcDbBlockBegin
  2
*X47
 70
     1
 10
0.0
 20
0.0
 30
0.0
  3
*X47
  1

  0
LINE
  5
20424
330
20423
100
AcDbEntity
  8
0
  6
CONTINUOUS
100
AcDbLine
 10
38.60499999996136
 20
8.762866199104765
 30
0.0
 11
38.71672554182345
 21
8.874591740966855
 31
0.0
  0
LINE
  5
20425
330
20423
100
AcDbEntity
  8
0
  6
CONTINUOUS
100
AcDbLine
 10
38.60499999996136
 20
8.089346990024577
 30
0.0
 11
39.03418785440363
 21
8.518534844466847
 31
0.0
  0
LINE
  5
20426
330
20423
100
AcDbEntity
  8
0
  6
CONTINUOUS
100
AcDbLine
 10
38.60499999996136
 20
7.41582778094439
 30
0.0
 11
39.35165016698382
 21
8.16247794796684
 31
0.0
  0
LINE
  5
20427
330
20423
100
AcDbEntity
  8
0
  6
CONTINUOUS
100
AcDbLine
 10
38.60499999996136
 20
6.742308571864204
 30
0.0
 11
39.66911247956399
 21
7.806421051466834
 31
0.0
  0
LINE
  5
20428
330
20423
100
AcDbEntity
  8
0
  6
CONTINUOUS
100
AcDbLine
 10
38.60499999996136
 20
6.068789362784018
 30
0.0
 11
39.98657479214418
 21
7.450364154966827
 31
0.0
  0
LINE
  5
20429
330
20423
100
AcDbEntity
  8
0
  6
CONTINUOUS
100
AcDbLine
 10
38.60499999996136
 20
5.395270153703832
 30
0.0
 11
40.30403710472435
 21
7.09430725846682
 31
0.0
  0
LINE
  5
2042A
330
20423
100
AcDbEntity
  8
0
  6
CONTINUOUS
100
AcDbLine
 10
38.60499999996136
 20
4.721750944623645
 30
0.0
 11
40.62149941730453
 21
6.738250361966813
 31
0.0
  0
LINE
  5
2042B
330
20423
100
AcDbEntity
  8
0
  6
CONTINUOUS
100
AcDbLine
 10
38.60499999996136
 20
4.048231735543458
 30
0.0
 11
40.93896172988471
 21
6.382193465466806
 31
0.0
  0
LINE
  5
2042C
330
20423
100
AcDbEntity
  8
0
  6
CONTINUOUS
100
AcDbLine
 10
38.60499999996136
 20
3.374712526463272
 30
0.0
 11
40.02599999995994
 21
4.795712526461843
 31
0.0
  0
LINE
  5
2042D
330
20423
100
AcDbEntity
  8
0
  6
CONTINUOUS
100
AcDbLine
 10
38.60499999996136
 20
2.701193317383085
 30
0.0
 11
40.02599999995994
 21
4.122193317381657
 31
0.0
  0
LINE
  5
2042E
330
20423
100
AcDbEntity
  8
0
  6
CONTINUOUS
100
AcDbLine
 10
40.28339754687704
 20
5.053110073378947
 30
0.0
 11
41.25642404246489
 21
6.026136568966799
 31
0.0
  0
LINE
  5
2042F
330
20423
100
AcDbEntity
  8
0
  6
CONTINUOUS
100
AcDbLine
 10
40.60085985945722
 20
4.697053176878939
 30
0.0
 11
41.57388635504507
 21
5.670079672466793
 31
0.0
  0
LINE
  5
20430
330
20423
100
AcDbEntity
  8
0
  6
CONTINUOUS
100
AcDbLine
 10
43.57899999995641
 20
8.348712526458318
 30
0.0
 11
43.99338747348935
 21
8.763099999991255
 31
0.0
  0
LINE
  5
20431
330
20423
100
AcDbEntity
  8
0
  6
CONTINUOUS
100
AcDbLine
 10
43.57899999995641
 20
7.675193317378131
 30
0.0
 11
44.66690668256953
 21
8.763099999991255
 31
0.0
  0
LINE
  5
20432
330
20423
100
AcDbEntity
  8
0
  6
CONTINUOUS
100
AcDbLine
 10
38.60499999996136
 20
2.027674108302898
 30
0.0
 11
40.02599999995994
 21
3.44867410830147
 31
0.0
  0
LINE
  5
20433
330
20423
100
AcDbEntity
  8
0
  6
CONTINUOUS
100
AcDbLine
 10
38.60499999996136
 20
1.354154899222712
 30
0.0
 11
40.02599999995994
 21
2.775154899221284
 31
0.0
  0
LINE
  5
20434
330
20423
100
AcDbEntity
  8
0
  6
CONTINUOUS
100
AcDbLine
 10
38.60499999996136
 20
0.6806356901425255
 30
0.0
 11
40.02599999995994
 21
2.101635690141098
 31
0.0
  0
LINE
  5
20435
330
20423
100
AcDbEntity
  8
0
  6
CONTINUOUS
100
AcDbLine
 10
38.60499999996136
 20
0.0071164810623383
 30
0.0
 11
40.02599999995994
 21
1.428116481060911
 31
0.0
  0
LINE
  5
20436
330
20423
100
AcDbEntity
  8
0
  6
CONTINUOUS
100
AcDbLine
 10
40.9183221720374
 20
4.340996280378933
 30
0.0
 11
41.89134866762525
 21
5.314022775966786
 31
0.0
  0
LINE
  5
20437
330
20423
100
AcDbEntity
  8
0
  6
CONTINUOUS
100
AcDbLine
 10
41.23578448461758
 20
3.984939383878926
 30
0.0
 11
42.20881098020543
 21
4.957965879466778
 31
0.0
  0
LINE
  5
20438
330
20423
100
AcDbEntity
  8
0
  6
CONTINUOUS
100
AcDbLine
 10
41.55324679719776
 20
3.628882487378919
 30
0.0
 11
42.52627329278561
 21
4.601908982966772
 31
0.0
  0
LINE
  5
20439
330
20423
100
AcDbEntity
  8
0
  6
CONTINUOUS
100
AcDbLine
 10
41.87070910977793
 20
3.272825590878912
 30
0.0
 11
42.84373560536579
 21
4.245852086466765
 31
0.0
  0
LINE
  5
2043A
330
20423
100
AcDbEntity
  8
0
  6
CONTINUOUS
100
AcDbLine
 10
43.57899999995641
 20
7.001674108297943
 30
0.0
 11
44.99999999995498
 21
8.422674108296516
 31
0.0
  0
LINE
  5
2043B
330
20423
100
AcDbEntity
  8
0
  6
CONTINUOUS
100
AcDbLine
 10
43.57899999995641
 20
6.328154899217758
 30
0.0
 11
44.99999999995498
 21
7.749154899216329
 31
0.0
  0
LINE
  5
2043C
330
20423
100
AcDbEntity
  8
0
  6
CONTINUOUS
100
AcDbLine
 10
43.57899999995641
 20
5.654635690137571
 30
0.0
 11
44.99999999995498
 21
7.075635690136142
 31
0.0
  0
LINE
  5
2043D
330
20423
100
AcDbEntity
  8
0
  6
CONTINUOUS
100
AcDbLine
 10
43.57899999995641
 20
4.981116481057384
 30
0.0
 11
44.99999999995498
 21
6.402116481055955
 31
0.0
  0
LINE
  5
2043E
330
20423
100
AcDbEntity
  8
0
  6
CONTINUOUS
100
AcDbLine
 10
39.27140272797921
 20
-0.0000000000000009
 30
0.0
 11
40.02599999995994
 21
0.7545972719807246
 31
0.0
  0
LINE
  5
2043F
330
20423
100
AcDbEntity
  8
0
  6
CONTINUOUS
100
AcDbLine
 10
39.9449219370594
 20
-0.0000000000000009
 30
0.0
 11
40.02599999995994
 21
0.0810780629005379
 31
0.0
  0
LINE
  5
20440
330
20423
100
AcDbEntity
  8
0
  6
CONTINUOUS
100
AcDbLine
 10
42.18817142235812
 20
2.916768694378905
 30
0.0
 11
43.16119791794597
 21
3.889795189966758
 31
0.0
  0
LINE
  5
20441
330
20423
100
AcDbEntity
  8
0
  6
CONTINUOUS
100
AcDbLine
 10
42.50563373493829
 20
2.560711797878898
 30
0.0
 11
43.47866023052615
 21
3.533738293466751
 31
0.0
  0
LINE
  5
20442
330
20423
100
AcDbEntity
  8
0
  6
CONTINUOUS
100
AcDbLine
 10
43.57899999995641
 20
4.307597271977198
 30
0.0
 11
44.99999999995498
 21
5.728597271975769
 31
0.0
  0
LINE
  5
20443
330
20423
100
AcDbEntity
  8
0
  6
CONTINUOUS
100
AcDbLine
 10
43.57899999995641
 20
3.634078062897011
 30
0.0
 11
44.99999999995498
 21
5.055078062895582
 31
0.0
  0
LINE
  5
20444
330
20423
100
AcDbEntity
  8
0
  6
CONTINUOUS
100
AcDbLine
 10
42.82309604751848
 20
2.204654901378891
 30
0.0
 11
44.99999999995498
 21
4.381558853815395
 31
0.0
  0
LINE
  5
20445
330
20423
100
AcDbEntity
  8
0
  6
CONTINUOUS
100
AcDbLine
 10
43.14055836009865
 20
1.848598004878885
 30
0.0
 11
44.99999999995498
 21
3.70803964473521
 31
0.0
  0
LINE
  5
20446
330
20423
100
AcDbEntity
  8
0
  6
CONTINUOUS
100
AcDbLine
 10
43.45802067267883
 20
1.492541108378878
 30
0.0
 11
44.99999999995498
 21
3.034520435655023
 31
0.0
  0
LINE
  5
20447
330
20423
100
AcDbEntity
  8
0
  6
CONTINUOUS
100
AcDbLine
 10
43.77548298525902
 20
1.136484211878871
 30
0.0
 11
44.99999999995498
 21
2.361001226574837
 31
0.0
  0
LINE
  5
20448
330
20423
100
AcDbEntity
  8
0
  6
CONTINUOUS
100
AcDbLine
 10
44.09294529783919
 20
0.7804273153788639
 30
0.0
 11
44.99999999995498
 21
1.687482017494649
 31
0.0
  0
LINE
  5
20449
330
20423
100
AcDbEntity
  8
0
  6
CONTINUOUS
100
AcDbLine
 10
44.41040761041938
 20
0.4243704188788566
 30
0.0
 11
44.99999999995498
 21
1.013962808414463
 31
0.0
  0
LINE
  5
2044A
330
20423
100
AcDbEntity
  8
0
  6
CONTINUOUS
100
AcDbLine
 10
44.72786992299955
 20
0.0683135223788494
 30
0.0
 11
44.99999999995498
 21
0.340443599334276
 31
0.0
  0
LINE
  5
2044B
330
20423
100
AcDbEntity
  8
0
  6
CONTINUOUS
100
AcDbLine
 10
39.12223903415696
 20
-0.0000000000000009
 30
0.0
 11
38.60499999996136
 21
0.5172390341955961
 31
0.0
  0
LINE
  5
2044C
330
20423
100
AcDbEntity
  8
0
  6
CONTINUOUS
100
AcDbLine
 10
39.79575824323715
 20
-0.0000000000000009
 30
0.0
 11
38.60499999996136
 21
1.190758243275783
 31
0.0
  0
LINE
  5
2044D
330
20423
100
AcDbEntity
  8
0
  6
CONTINUOUS
100
AcDbLine
 10
40.02599999995994
 20
0.443277452357397
 30
0.0
 11
38.60499999996136
 21
1.864277452355969
 31
0.0
  0
LINE
  5
2044E
330
20423
100
AcDbEntity
  8
0
  6
CONTINUOUS
100
AcDbLine
 10
40.02599999995994
 20
1.116796661437583
 30
0.0
 11
38.60499999996136
 21
2.537796661436155
 31
0.0
  0
LINE
  5
2044F
330
20423
100
AcDbEntity
  8
0
  6
CONTINUOUS
100
AcDbLine
 10
40.02599999995994
 20
1.79031587051777
 30
0.0
 11
38.60499999996136
 21
3.211315870516341
 31
0.0
  0
LINE
  5
20450
330
20423
100
AcDbEntity
  8
0
  6
CONTINUOUS
100
AcDbLine
 10
40.02599999995994
 20
2.463835079597956
 30
0.0
 11
38.60499999996136
 21
3.884835079596527
 31
0.0
  0
LINE
  5
20451
330
20423
100
AcDbEntity
  8
0
  6
CONTINUOUS
100
AcDbLine
 10
40.02599999995994
 20
3.137354288678143
 30
0.0
 11
38.60499999996136
 21
4.558354288676714
 31
0.0
  0
LINE
  5
20452
330
20423
100
AcDbEntity
  8
0
  6
CONTINUOUS
100
AcDbLine
 10
40.02599999995994
 20
3.810873497758329
 30
0.0
 11
38.60499999996136
 21
5.2318734977569
 31
0.0
  0
LINE
  5
20453
330
20423
100
AcDbEntity
  8
0
  6
CONTINUOUS
100
AcDbLine
 10
40.02599999995994
 20
4.484392706838515
 30
0.0
 11
38.60499999996136
 21
5.905392706837086
 31
0.0
  0
LINE
  5
20454
330
20423
100
AcDbEntity
  8
0
  6
CONTINUOUS
100
AcDbLine
 10
44.99999999995498
 20
0.183911915923658
 30
0.0
 11
41.53858364506288
 21
3.64532827081576
 31
0.0
  0
LINE
  5
20455
330
20423
100
AcDbEntity
  8
0
  6
CONTINUOUS
100
AcDbLine
 10
40.02599999995994
 20
5.157911915918703
 30
0.0
 11
38.60499999996136
 21
6.578911915917274
 31
0.0
  0
LINE
  5
20456
330
20423
100
AcDbEntity
  8
0
  6
CONTINUOUS
100
AcDbLine
 10
44.99999999995498
 20
0.8574311250038447
 30
0.0
 11
38.60499999996136
 21
7.25243112499746
 31
0.0
  0
LINE
  5
20457
330
20423
100
AcDbEntity
  8
0
  6
CONTINUOUS
100
AcDbLine
 10
44.99999999995498
 20
1.530950334084031
 30
0.0
 11
38.60499999996136
 21
7.925950334077647
 31
0.0
  0
LINE
  5
20458
330
20423
100
AcDbEntity
  8
0
  6
CONTINUOUS
100
AcDbLine
 10
44.99999999995498
 20
2.204469543164218
 30
0.0
 11
43.57899999995641
 21
3.625469543162789
 31
0.0
  0
LINE
  5
20459
330
20423
100
AcDbEntity
  8
0
  6
CONTINUOUS
100
AcDbLine
 10
41.89876730984767
 20
5.305702233271528
 30
0.0
 11
38.60499999996136
 21
8.599469543157834
 31
0.0
  0
LINE
  5
2045A
330
20423
100
AcDbEntity
  8
0
  6
CONTINUOUS
100
AcDbLine
 10
44.99999999995498
 20
2.877988752244405
 30
0.0
 11
43.57899999995641
 21
4.298988752242975
 31
0.0
  0
LINE
  5
2045B
330
20423
100
AcDbEntity
  8
0
  6
CONTINUOUS
100
AcDbLine
 10
44.99999999995498
 20
3.551507961324591
 30
0.0
 11
43.57899999995641
 21
4.972507961323163
 31
0.0
  0
LINE
  5
2045C
330
20423
100
AcDbEntity
  8
0
  6
CONTINUOUS
100
AcDbLine
 10
44.99999999995498
 20
4.225027170404777
 30
0.0
 11
43.57899999995641
 21
5.646027170403348
 31
0.0
  0
LINE
  5
2045D
330
20423
100
AcDbEntity
  8
0
  6
CONTINUOUS
100
AcDbLine
 10
44.99999999995498
 20
4.898546379484964
 30
0.0
 11
43.57899999995641
 21
6.319546379483535
 31
0.0
  0
LINE
  5
2045E
330
20423
100
AcDbEntity
  8
0
  6
CONTINUOUS
100
AcDbLine
 10
44.99999999995498
 20
5.572065588565151
 30
0.0
 11
43.57899999995641
 21
6.993065588563722
 31
0.0
  0
LINE
  5
2045F
330
20423
100
AcDbEntity
  8
0
  6
CONTINUOUS
100
AcDbLine
 10
44.99999999995498
 20
6.245584797645336
 30
0.0
 11
43.57899999995641
 21
7.666584797643908
 31
0.0
  0
LINE
  5
20460
330
20423
100
AcDbEntity
  8
0
  6
CONTINUOUS
100
AcDbLine
 10
44.99999999995498
 20
6.919104006725522
 30
0.0
 11
43.57899999995641
 21
8.340104006724093
 31
0.0
  0
LINE
  5
20461
330
20423
100
AcDbEntity
  8
0
  6
CONTINUOUS
100
AcDbLine
 10
44.99999999995498
 20
7.592623215805709
 30
0.0
 11
43.82952321576943
 21
8.763099999991255
 31
0.0
  0
LINE
  5
20462
330
20423
100
AcDbEntity
  8
0
  6
CONTINUOUS
100
AcDbLine
 10
44.99999999995498
 20
8.266142424885896
 30
0.0
 11
44.50304242484962
 21
8.763099999991255
 31
0.0
  0
ENDBLK
  5
2048C
330
20423
100
AcDbEntity
  8
0
100
AcDbBlockEnd
  0
BLOCK
  5
2048D
330
20463
100
AcDbEntity
  8
0
100
AcDbBlockBegin
  2
*X48
 70
     1
 10
0.0
 20
0.0
 30
0.0
  3
*X48
  1

  0
LINE
  5
20464
330
20463
100
AcDbEntity
  8
0
  6
CONTINUOUS
100
AcDbLine
 10
0.0
 20
8.548461116714023
 30
0.0
 11
0.2146388832772324
 21
8.763099999991255
 31
0.0
  0
LINE
  5
20465
330
20463
100
AcDbEntity
  8
0
  6
CONTINUOUS
100
AcDbLine
 10
-0.0000000000000002
 20
7.874941907633837
 30
0.0
 11
0.8881580923574184
 21
8.763099999991255
 31
0.0
  0
LINE
  5
20466
330
20463
100
AcDbEntity
  8
0
  6
CONTINUOUS
100
AcDbLine
 10
0.0
 20
7.20142269855365
 30
0.0
 11
1.420999999998572
 21
8.622422698552223
 31
0.0
  0
LINE
  5
20467
330
20463
100
AcDbEntity
  8
0
  6
CONTINUOUS
100
AcDbLine
 10
-0.0000000000000001
 20
6.527903489473465
 30
0.0
 11
1.420999999998571
 21
7.948903489472036
 31
0.0
  0
LINE
  5
20468
330
20463
100
AcDbEntity
  8
0
  6
CONTINUOUS
100
AcDbLine
 10
-0.0000000000000002
 20
5.854384280393278
 30
0.0
 11
1.420999999998571
 21
7.275384280391849
 31
0.0
  0
LINE
  5
20469
330
20463
100
AcDbEntity
  8
0
  6
CONTINUOUS
100
AcDbLine
 10
-0.0000000000000002
 20
5.180865071313091
 30
0.0
 11
1.420999999998571
 21
6.601865071311663
 31
0.0
  0
LINE
  5
2046A
330
20463
100
AcDbEntity
  8
0
  6
CONTINUOUS
100
AcDbLine
 10
0.0
 20
4.507345862232905
 30
0.0
 11
1.420999999998571
 21
5.928345862231477
 31
0.0
  0
LINE
  5
2046B
330
20463
100
AcDbEntity
  8
0
  6
CONTINUOUS
100
AcDbLine
 10
-0.0000000000000003
 20
3.833826653152718
 30
0.0
 11
1.420999999998571
 21
5.25482665315129
 31
0.0
  0
LINE
  5
2046C
330
20463
100
AcDbEntity
  8
0
  6
CONTINUOUS
100
AcDbLine
 10
-0.0000000000000002
 20
3.160307444072532
 30
0.0
 11
1.420999999998571
 21
4.581307444071103
 31
0.0
  0
LINE
  5
2046D
330
20463
100
AcDbEntity
  8
0
  6
CONTINUOUS
100
AcDbLine
 10
-0.0000000000000001
 20
2.486788234992345
 30
0.0
 11
1.420999999998571
 21
3.907788234990917
 31
0.0
  0
LINE
  5
2046E
330
20463
100
AcDbEntity
  8
0
  6
CONTINUOUS
100
AcDbLine
 10
-0.0000000000000006
 20
1.813269025912159
 30
0.0
 11
1.420999999998571
 21
3.234269025910731
 31
0.0
  0
LINE
  5
2046F
330
20463
100
AcDbEntity
  8
0
  6
CONTINUOUS
100
AcDbLine
 10
0.0
 20
1.139749816831973
 30
0.0
 11
1.420999999998571
 21
2.560749816830544
 31
0.0
  0
LINE
  5
20470
330
20463
100
AcDbEntity
  8
0
  6
CONTINUOUS
100
AcDbLine
 10
0.0000000000000002
 20
0.466230607751787
 30
0.0
 11
1.420999999998571
 21
1.887230607750358
 31
0.0
  0
LINE
  5
20471
330
20463
100
AcDbEntity
  8
0
  6
CONTINUOUS
100
AcDbLine
 10
0.2072886013284003
 20
-0.0000000000000009
 30
0.0
 11
1.420999999998571
 21
1.213711398670171
 31
0.0
  0
LINE
  5
20472
330
20463
100
AcDbEntity
  8
0
  6
CONTINUOUS
100
AcDbLine
 10
0.8808078104085864
 20
-0.0000000000000009
 30
0.0
 11
1.420999999998571
 21
0.5401921895899839
 31
0.0
  0
LINE
  5
20473
330
20463
100
AcDbEntity
  8
0
  6
CONTINUOUS
100
AcDbLine
 10
0.0581249075061505
 20
-0.0000000000000009
 30
0.0
 11
-0.0000000000000002
 21
0.0581249075061496
 31
0.0
  0
LINE
  5
20474
330
20463
100
AcDbEntity
  8
0
  6
CONTINUOUS
100
AcDbLine
 10
0.7316441165863372
 20
-0.0000000000000009
 30
0.0
 11
-0.0000000000000002
 21
0.7316441165863363
 31
0.0
  0
LINE
  5
20475
330
20463
100
AcDbEntity
  8
0
  6
CONTINUOUS
100
AcDbLine
 10
1.405163325666523
 20
-0.0000000000000009
 30
0.0
 11
-0.0000000000000002
 21
1.405163325666523
 31
0.0
  0
LINE
  5
20476
330
20463
100
AcDbEntity
  8
0
  6
CONTINUOUS
100
AcDbLine
 10
1.420999999998572
 20
0.6576825347481381
 30
0.0
 11
-0.0000000000000001
 21
2.07868253474671
 31
0.0
  0
LINE
  5
20477
330
20463
100
AcDbEntity
  8
0
  6
CONTINUOUS
100
AcDbLine
 10
1.420999999998571
 20
1.331201743828324
 30
0.0
 11
-0.0000000000000001
 21
2.752201743826896
 31
0.0
  0
LINE
  5
20478
330
20463
100
AcDbEntity
  8
0
  6
CONTINUOUS
100
AcDbLine
 10
1.420999999998571
 20
2.004720952908511
 30
0.0
 11
-0.0000000000000002
 21
3.425720952907082
 31
0.0
  0
LINE
  5
20479
330
20463
100
AcDbEntity
  8
0
  6
CONTINUOUS
100
AcDbLine
 10
1.420999999998571
 20
2.678240161988697
 30
0.0
 11
-0.0000000000000001
 21
4.099240161987269
 31
0.0
  0
LINE
  5
2047A
330
20463
100
AcDbEntity
  8
0
  6
CONTINUOUS
100
AcDbLine
 10
1.420999999998572
 20
3.351759371068884
 30
0.0
 11
0.0
 21
4.772759371067455
 31
0.0
  0
LINE
  5
2047B
330
20463
100
AcDbEntity
  8
0
  6
CONTINUOUS
100
AcDbLine
 10
1.420999999998571
 20
4.02527858014907
 30
0.0
 11
-0.0000000000000003
 21
5.446278580147642
 31
0.0
  0
LINE
  5
2047C
330
20463
100
AcDbEntity
  8
0
  6
CONTINUOUS
100
AcDbLine
 10
1.420999999998571
 20
4.698797789229257
 30
0.0
 11
0.0
 21
6.119797789227828
 31
0.0
  0
LINE
  5
2047D
330
20463
100
AcDbEntity
  8
0
  6
CONTINUOUS
100
AcDbLine
 10
1.420999999998571
 20
5.372316998309444
 30
0.0
 11
-0.0000000000000001
 21
6.793316998308015
 31
0.0
  0
LINE
  5
2047E
330
20463
100
AcDbEntity
  8
0
  6
CONTINUOUS
100
AcDbLine
 10
1.420999999998572
 20
6.045836207389629
 30
0.0
 11
-0.0000000000000004
 21
7.466836207388202
 31
0.0
  0
LINE
  5
2047F
330
20463
100
AcDbEntity
  8
0
  6
CONTINUOUS
100
AcDbLine
 10
1.420999999998571
 20
6.719355416469816
 30
0.0
 11
0.0
 21
8.140355416468388
 31
0.0
  0
LINE
  5
20480
330
20463
100
AcDbEntity
  8
0
  6
CONTINUOUS
100
AcDbLine
 10
1.420999999998571
 20
7.392874625550003
 30
0.0
 11
0.0507746255573185
 21
8.763099999991255
 31
0.0
  0
LINE
  5
20481
330
20463
100
AcDbEntity
  8
0
  6
CONTINUOUS
100
AcDbLine
 10
1.420999999998571
 20
8.06639383463019
 30
0.0
 11
0.7242938346375052
 21
8.763099999991255
 31
0.0
  0
LINE
  5
20482
330
20463
100
AcDbEntity
  8
0
  6
CONTINUOUS
100
AcDbLine
 10
1.420999999998571
 20
8.739913043710375
 30
0.0
 11
1.397813043717691
 21
8.763099999991255
 31
0.0
  0
ENDBLK
  5
2048E
330
20463
100
AcDbEntity
  8
0
100
AcDbBlockEnd
  0
ENDSEC
  0
SECTION
  2
ENTITIES
  0
LINE
  5
1E769
330
18
100
AcDbEntity
  8
1PHANTOM
100
AcDbLine
 10
69.23420802196593
 20
-574.7869925184166
 30
0.0
 11
69.41697216459393
 21
-574.2352430546132
 31
0.0
  0
LINE
  5
1E76A
330
18
100
AcDbEntity
  8
1CENTER
100
AcDbLine
 10
75.09512568650685
 20
-573.4661671391293
 30
0.0
 11
38.46393468605193
 21
-573.4661671391293
 31
0.0
  0
LINE
  5
1E76B
330
18
100
AcDbEntity
  8
1PHANTOM
100
AcDbLine
 10
70.0342136415206
 20
-572.3718433251343
 30
0.0
 11
70.83420907557156
 21
-574.3341784140096
 31
0.0
  0
LINE
  5
1E76C
330
18
100
AcDbEntity
  8
1PHANTOM
100
AcDbLine
 10
70.83420907557156
 20
-574.3341784140096
 30
0.0
 11
71.14597893182368
 21
-573.7459018389673
 31
0.0
  0
LINE
  5
1E76D
330
18
100
AcDbEntity
  8
1PHANTOM
100
AcDbLine
 10
47.6342157487306
 20
-571.4662136750273
 30
0.0
 11
48.43420644154885
 21
-575.4662136750273
 31
0.0
  0
LINE
  5
1E76E
330
18
100
AcDbEntity
  8
1PHANTOM
100
AcDbLine
 10
58.83421574873496
 20
-571.4662136750273
 30
0.0
 11
59.63420644155754
 21
-575.4662136750273
 31
0.0
  0
LINE
  5
1E76F
330
18
100
AcDbEntity
  8
1PHANTOM
100
AcDbLine
 10
62.03421574873501
 20
-571.4662136750273
 30
0.0
 11
62.83420644155758
 21
-575.4662136750273
 31
0.0
  0
LINE
  5
1E770
330
18
100
AcDbEntity
  8
1PHANTOM
100
AcDbLine
 10
62.83420644155758
 20
-575.4662136750273
 30
0.0
 11
62.93420760495469
 21
-574.9662136750273
 31
0.0
  0
LINE
  5
1E771
330
18
100
AcDbEntity
  8
1PHANTOM
100
AcDbLine
 10
63.53421458533781
 20
-571.9662136750273
 30
0.0
 11
63.63421574873492
 21
-571.4662136750273
 31
0.0
  0
LINE
  5
1E772
330
18
100
AcDbEntity
  8
1PHANTOM
100
AcDbLine
 10
59.63420644155754
 20
-575.4662136750273
 30
0.0
 11
59.73420760495465
 21
-574.9662136750273
 31
0.0
  0
LINE
  5
1E773
330
18
100
AcDbEntity
  8
1PHANTOM
100
AcDbLine
 10
61.23420644155767
 20
-575.4662136750273
 30
0.0
 11
61.33420760495478
 21
-574.9662136750273
 31
0.0
  0
LINE
  5
1E774
330
18
100
AcDbEntity
  8
1PHANTOM
100
AcDbLine
 10
61.9342145853379
 20
-571.9662136750273
 30
0.0
 11
62.03421574873501
 21
-571.4662136750273
 31
0.0
  0
LINE
  5
1E775
330
18
100
AcDbEntity
  8
1PHANTOM
100
AcDbLine
 10
60.33421458533799
 20
-571.9662136750273
 30
0.0
 11
60.4342157487351
 21
-571.4662136750273
 31
0.0
  0
LINE
  5
1E776
330
18
100
AcDbEntity
  8
1PHANTOM
100
AcDbLine
 10
60.4342157487351
 20
-571.4662136750273
 30
0.0
 11
61.23420644155767
 21
-575.4662136750273
 31
0.0
  0
LINE
  5
1E777
330
18
100
AcDbEntity
  8
1PHANTOM
100
AcDbLine
 10
66.03420644155763
 20
-575.4662136750273
 30
0.0
 11
66.13420760495474
 21
-574.9662136750273
 31
0.0
  0
LINE
  5
1E778
330
18
100
AcDbEntity
  8
1PHANTOM
100
AcDbLine
 10
64.43420644155749
 20
-575.4662136750273
 30
0.0
 11
64.5342076049546
 21
-574.9662136750273
 31
0.0
  0
LINE
  5
1E779
330
18
100
AcDbEntity
  8
1PHANTOM
100
AcDbLine
 10
67.63420696836029
 20
-575.2398066228232
 30
0.0
 11
67.76347766599015
 21
-574.7032128875521
 31
0.0
  0
LINE
  5
1E77A
330
18
100
AcDbEntity
  8
1PHANTOM
100
AcDbLine
 10
68.32144518277478
 20
-572.3871282722359
 30
0.0
 11
68.43421469512482
 21
-571.9190298170859
 31
0.0
  0
LINE
  5
1E77B
330
18
100
AcDbEntity
  8
1PHANTOM
100
AcDbLine
 10
65.13421458533794
 20
-571.9662136750273
 30
0.0
 11
65.23421574873505
 21
-571.4662136750273
 31
0.0
  0
LINE
  5
1E77C
330
18
100
AcDbEntity
  8
1PHANTOM
100
AcDbLine
 10
66.73421458533785
 20
-571.9662136750273
 30
0.0
 11
66.83421574873496
 21
-571.4662136750273
 31
0.0
  0
LINE
  5
1E77D
330
18
100
AcDbEntity
  8
1PHANTOM
100
AcDbLine
 10
69.88277784508018
 20
-572.8290151657654
 30
0.0
 11
70.0342136415206
 21
-572.3718433251343
 31
0.0
  0
LINE
  5
1E77E
330
18
100
AcDbEntity
  8
1PHANTOM
100
AcDbLine
 10
68.43421469512482
 20
-571.9190298170859
 30
0.0
 11
69.23420802196593
 21
-574.7869925184166
 31
0.0
  0
LINE
  5
1E77F
330
18
100
AcDbEntity
  8
1PHANTOM
100
AcDbLine
 10
65.23421574873505
 20
-571.4662136750273
 30
0.0
 11
66.03420644155763
 21
-575.4662136750273
 31
0.0
  0
LINE
  5
1E780
330
18
100
AcDbEntity
  8
1PHANTOM
100
AcDbLine
 10
66.83421574873496
 20
-571.4662136750273
 30
0.0
 11
67.63420696836029
 21
-575.2398066228232
 31
0.0
  0
LINE
  5
1E781
330
18
100
AcDbEntity
  8
1PHANTOM
100
AcDbLine
 10
63.63421574873492
 20
-571.4662136750273
 30
0.0
 11
64.43420644155749
 21
-575.4662136750273
 31
0.0
  0
LINE
  5
1E782
330
18
100
AcDbEntity
  8
1PHANTOM
100
AcDbLine
 10
50.83421574873064
 20
-571.4662136750273
 30
0.0
 11
51.6342064415489
 21
-575.4662136750273
 31
0.0
  0
LINE
  5
1E783
330
18
100
AcDbEntity
  8
1PHANTOM
100
AcDbLine
 10
51.6342064415489
 20
-575.4662136750273
 30
0.0
 11
51.73420760494646
 21
-574.9662136750273
 31
0.0
  0
LINE
  5
1E784
330
18
100
AcDbEntity
  8
1PHANTOM
100
AcDbLine
 10
52.33421458533731
 20
-571.9662136750273
 30
0.0
 11
52.43421574873487
 21
-571.4662136750273
 31
0.0
  0
LINE
  5
1E785
330
18
100
AcDbEntity
  8
1PHANTOM
100
AcDbLine
 10
50.03420644154876
 20
-575.4662136750273
 30
0.0
 11
50.13420760494633
 21
-574.9662136750273
 31
0.0
  0
LINE
  5
1E786
330
18
100
AcDbEntity
  8
1PHANTOM
100
AcDbLine
 10
48.43420644154885
 20
-575.4662136750273
 30
0.0
 11
48.53420760494642
 21
-574.9662136750273
 31
0.0
  0
LINE
  5
1E787
330
18
100
AcDbEntity
  8
1PHANTOM
100
AcDbLine
 10
50.73421458533285
 20
-571.9662136750273
 30
0.0
 11
50.83421574873064
 21
-571.4662136750273
 31
0.0
  0
LINE
  5
1E788
330
18
100
AcDbEntity
  8
1PHANTOM
100
AcDbLine
 10
49.13421458533271
 20
-571.9662136750273
 30
0.0
 11
49.23421574873051
 21
-571.4662136750273
 31
0.0
  0
LINE
  5
1E789
330
18
100
AcDbEntity
  8
1PHANTOM
100
AcDbLine
 10
49.23421574873051
 20
-571.4662136750273
 30
0.0
 11
50.03420644154876
 21
-575.4662136750273
 31
0.0
  0
LINE
  5
1E78A
330
18
100
AcDbEntity
  8
1PHANTOM
100
AcDbLine
 10
56.43420644155317
 20
-575.4662136750273
 30
0.0
 11
56.53420760495096
 21
-574.9662136750273
 31
0.0
  0
LINE
  5
1E78B
330
18
100
AcDbEntity
  8
1PHANTOM
100
AcDbLine
 10
58.03420644155763
 20
-575.4662136750273
 30
0.0
 11
58.13420760495474
 21
-574.9662136750273
 31
0.0
  0
LINE
  5
1E78C
330
18
100
AcDbEntity
  8
1PHANTOM
100
AcDbLine
 10
53.23420644155313
 20
-575.4662136750273
 30
0.0
 11
53.33420760495092
 21
-574.9662136750273
 31
0.0
  0
LINE
  5
1E78D
330
18
100
AcDbEntity
  8
1PHANTOM
100
AcDbLine
 10
54.83420644155304
 20
-575.4662136750273
 30
0.0
 11
54.93420760495083
 21
-574.9662136750273
 31
0.0
  0
LINE
  5
1E78E
330
18
100
AcDbEntity
  8
1PHANTOM
100
AcDbLine
 10
58.73421458533785
 20
-571.9662136750273
 30
0.0
 11
58.83421574873496
 21
-571.4662136750273
 31
0.0
  0
LINE
  5
1E78F
330
18
100
AcDbEntity
  8
1PHANTOM
100
AcDbLine
 10
57.13421458533726
 20
-571.9662136750273
 30
0.0
 11
57.23421574873505
 21
-571.4662136750273
 31
0.0
  0
LINE
  5
1E790
330
18
100
AcDbEntity
  8
1PHANTOM
100
AcDbLine
 10
53.93421458533722
 20
-571.9662136750273
 30
0.0
 11
54.03421574873478
 21
-571.4662136750273
 31
0.0
  0
LINE
  5
1E791
330
18
100
AcDbEntity
  8
1PHANTOM
100
AcDbLine
 10
55.53421458533735
 20
-571.9662136750273
 30
0.0
 11
55.63421574873492
 21
-571.4662136750273
 31
0.0
  0
LINE
  5
1E792
330
18
100
AcDbEntity
  8
1PHANTOM
100
AcDbLine
 10
55.63421574873492
 20
-571.4662136750273
 30
0.0
 11
56.43420644155317
 21
-575.4662136750273
 31
0.0
  0
LINE
  5
1E793
330
18
100
AcDbEntity
  8
1PHANTOM
100
AcDbLine
 10
57.23421574873505
 20
-571.4662136750273
 30
0.0
 11
58.03420644155763
 21
-575.4662136750273
 31
0.0
  0
LINE
  5
1E794
330
18
100
AcDbEntity
  8
1PHANTOM
100
AcDbLine
 10
54.03421574873478
 20
-571.4662136750273
 30
0.0
 11
54.83420644155304
 21
-575.4662136750273
 31
0.0
  0
LINE
  5
1E795
330
18
100
AcDbEntity
  8
1PHANTOM
100
AcDbLine
 10
52.43421574873487
 20
-571.4662136750273
 30
0.0
 11
53.23420644155313
 21
-575.4662136750273
 31
0.0
  0
LINE
  5
1E796
330
18
100
AcDbEntity
  8
1PHANTOM
100
AcDbLine
 10
42.13420760506024
 20
-574.9662136750273
 30
0.0
 11
42.13421458544481
 21
-571.9662136750273
 31
0.0
  0
LINE
  5
1E797
330
18
100
AcDbEntity
  8
1PHANTOM
100
AcDbLine
 10
42.73421458532876
 20
-571.9662136750273
 30
0.0
 11
42.83421574872632
 21
-571.4662136750273
 31
0.0
  0
LINE
  5
1E798
330
18
100
AcDbEntity
  8
1PHANTOM
100
AcDbLine
 10
42.83421574872632
 20
-571.4662136750273
 30
0.0
 11
43.63420644154458
 21
-575.4662136750273
 31
0.0
  0
LINE
  5
1E799
330
18
100
AcDbEntity
  8
1PHANTOM
100
AcDbLine
 10
43.63420644154458
 20
-575.4662136750273
 30
0.0
 11
43.73420760494237
 21
-574.9662136750273
 31
0.0
  0
LINE
  5
1E79A
330
18
100
AcDbEntity
  8
1PHANTOM
100
AcDbLine
 10
44.33421458532867
 20
-571.9662136750273
 30
0.0
 11
44.43421574872623
 21
-571.4662136750273
 31
0.0
  0
LINE
  5
1E79B
330
18
100
AcDbEntity
  8
1PHANTOM
100
AcDbLine
 10
45.93421458532858
 20
-571.9662136750273
 30
0.0
 11
46.03421574872614
 21
-571.4662136750273
 31
0.0
  0
LINE
  5
1E79C
330
18
100
AcDbEntity
  8
1PHANTOM
100
AcDbLine
 10
46.03421574872614
 20
-571.4662136750273
 30
0.0
 11
46.8342064415444
 21
-575.4662136750273
 31
0.0
  0
LINE
  5
1E79D
330
18
100
AcDbEntity
  8
1PHANTOM
100
AcDbLine
 10
45.23420644154449
 20
-575.4662136750273
 30
0.0
 11
45.33420760494228
 21
-574.9662136750273
 31
0.0
  0
LINE
  5
1E79E
330
18
100
AcDbEntity
  8
1PHANTOM
100
AcDbLine
 10
46.8342064415444
 20
-575.4662136750273
 30
0.0
 11
46.93420760494219
 21
-574.9662136750273
 31
0.0
  0
LINE
  5
1E79F
330
18
100
AcDbEntity
  8
1PHANTOM
100
AcDbLine
 10
44.43421574872623
 20
-571.4662136750273
 30
0.0
 11
45.23420644154449
 21
-575.4662136750273
 31
0.0
  0
LINE
  5
1E7A0
330
18
100
AcDbEntity
  8
1PHANTOM
100
AcDbLine
 10
47.5342145853328
 20
-571.9662136750273
 30
0.0
 11
47.6342157487306
 21
-571.4662136750273
 31
0.0
  0
LINE
  5
1E7BA
330
18
100
AcDbEntity
  8
01
100
AcDbLine
 10
-246.4841898859988
 20
-413.0359493311303
 30
0.0
 11
-246.4841898859988
 21
-508.6359493311343
 31
0.0
  0
LINE
  5
1E7BB
330
18
100
AcDbEntity
  8
01
100
AcDbLine
 10
-246.4841898859988
 20
-413.0359493311303
 30
0.0
 11
-96.48418988599883
 21
-413.0359493311303
 31
0.0
  0
ARC
  5
1E7C1
330
18
100
AcDbEntity
  8
01
100
AcDbCircle
 10
-245.4841898859988
 20
-508.6359493311306
 30
0.0
 40
1.0
100
AcDbArc
 50
180.0000000002215
 51
236.5862473471641
  0
LINE
  5
1E7C9
330
18
100
AcDbEntity
  8
01
100
AcDbLine
 10
47.1342110953608
 20
-552.2661663741801
 30
0.0
 11
47.1342110953608
 21
-550.7661663741801
 31
0.0
  0
LINE
  5
1E7CA
330
18
100
AcDbEntity
  8
01
100
AcDbLine
 10
47.1342110953608
 20
-552.2661668550054
 30
0.0
 11
47.1342110953608
 21
-585.9661668550054
 31
0.0
  0
ARC
  5
1E7D0
330
18
100
AcDbEntity
  8
01
100
AcDbCircle
 10
40.07809186871668
 20
-597.8625098925409
 30
0.0
 40
14.00000000000001
210
0.0
220
0.0
230
-1.0
100
AcDbArc
 50
239.7384512419563
 51
261.735913683964
  0
LINE
  5
1E7D2
330
18
100
AcDbEntity
  8
01
100
AcDbLine
 10
47.1342110953608
 20
-550.7661663741801
 30
0.0
 11
46.91289044144332
 21
-550.7661663741801
 31
0.0
  0
ARC
  5
1E7D3
330
18
100
AcDbEntity
  8
01
100
AcDbCircle
 10
46.91289044144332
 20
-555.7661663741801
 30
0.0
 40
4.999999999999995
100
AcDbArc
 50
90.0000000000391
 51
104.402877621804
  0
LINE
  5
1E7D4
330
18
100
AcDbEntity
  8
01
100
AcDbLine
 10
47.13421109536057
 20
-585.9661668550054
 30
0.0
 11
44.97993850193438
 21
-585.9661668550054
 31
0.0
  0
ARC
  5
1E7D5
330
18
100
AcDbEntity
  8
01
100
AcDbCircle
 10
57.68783658586585
 20
-765.4268952296802
 30
0.0
 40
180.0
100
AcDbArc
 50
94.85988490355368
 51
120.2615487571967
  0
ARC
  5
1E7D6
330
18
100
AcDbEntity
  8
01
100
AcDbCircle
 10
-44.97993850193438
 20
-615.9661668550054
 30
0.0
 40
30.0
210
0.0
220
0.0
230
-1.0
100
AcDbArc
 50
85.14011509604101
 51
90.0
  0
ARC
  5
1E7D7
330
18
100
AcDbEntity
  8
01
100
AcDbCircle
 10
-95.41690436626618
 20
-744.6374471429281
 30
0.0
 40
200.0000000000001
210
0.0
220
0.0
230
-1.0
100
AcDbArc
 50
43.81079878857857
 51
72.72861791209608
  0
ARC
  5
1E7D8
330
18
100
AcDbEntity
  8
01
100
AcDbCircle
 10
47.46578890463957
 20
-607.5661665490256
 30
0.0
 40
1.999999999999975
210
0.0
220
0.0
230
-1.0
100
AcDbArc
 50
297.0008966329858
 51
43.81079878840145
  0
LINE
  5
1E7D9
330
18
100
AcDbEntity
  8
01
100
AcDbLine
 10
-48.37379779109165
 20
-609.3481653880051
 30
0.0
 11
-46.43415407388147
 21
-610.3365014594171
 31
0.0
  0
ARC
  5
1E7DA
330
18
100
AcDbEntity
  8
01
100
AcDbCircle
 10
40.07809186871668
 20
-597.8625095865609
 30
0.0
 40
14.00000000000001
210
0.0
220
0.0
230
-1.0
100
AcDbArc
 50
261.735913683964
 51
297.000896632782
  0
ARC
  5
1E7DD
330
18
100
AcDbEntity
  8
01
100
AcDbCircle
 10
-95.41690436625709
 20
-744.6374469680509
 30
0.0
 40
199.9999999999669
210
0.0
220
0.0
230
-1.0
100
AcDbArc
 50
72.72861791257442
 51
75.59712237819598
  0
LINE
  5
1E7E1
330
18
100
AcDbEntity
  8
01
100
AcDbLine
 10
-246.4841898859991
 20
-551.7661663741801
 30
0.0
 11
-246.4841898859991
 21
-610.8625132238901
 31
0.0
  0
ARC
  5
1E7E3
330
18
100
AcDbEntity
  8
01
100
AcDbCircle
 10
-245.4841898859991
 20
-551.7661663741801
 30
0.0
 40
1.0
100
AcDbArc
 50
120.0000000000151
 51
179.9999999997916
  0
LINE
  5
1E7E4
330
18
100
AcDbEntity
  8
01
100
AcDbLine
 10
-237.4841898859991
 20
-611.8625132238863
 30
0.0
 11
-245.4841898859991
 21
-611.8625132238863
 31
0.0
  0
ARC
  5
1E7E5
330
18
100
AcDbEntity
  8
01
100
AcDbCircle
 10
237.4841898859991
 20
-610.8625132238863
 30
0.0
 40
1.0
210
0.0
220
0.0
230
-1.0
100
AcDbArc
 50
180.0
 51
269.9999999997655
  0
ARC
  5
1E7E6
330
18
100
AcDbEntity
  8
01
100
AcDbCircle
 10
245.4841898859991
 20
-610.8625132238863
 30
0.0
 40
1.0
210
0.0
220
0.0
230
-1.0
100
AcDbArc
 50
270.0
 51
359.9999999997655
  0
ARC
  5
1E7F5
330
18
100
AcDbEntity
  8
01
100
AcDbCircle
 10
244.9841898859988
 20
-416.1159493311303
 30
0.0
 40
1.0
210
0.0
220
0.0
230
-1.0
100
AcDbArc
 50
0.0000000002214684
 51
90.0
  0
LINE
  5
1E7F7
330
18
100
AcDbEntity
  8
01
100
AcDbLine
 10
-245.9841898859988
 20
-416.1159493311264
 30
0.0
 11
-245.9841898859992
 21
-510.0359493311303
 31
0.0
  0
LINE
  5
1E7F9
330
18
100
AcDbEntity
  8
01
100
AcDbLine
 10
-96.98418988599883
 20
-416.1159493311303
 30
0.0
 11
-96.98418988599882
 21
-510.0359493311303
 31
0.0
  0
ARC
  5
1E7FA
330
18
100
AcDbEntity
  8
01
100
AcDbCircle
 10
97.98418988599883
 20
-416.1159493311303
 30
0.0
 40
0.9999999999999822
210
0.0
220
0.0
230
-1.0
100
AcDbArc
 50
90.0000000002345
 51
180.0
  0
LINE
  5
1E7FB
330
18
100
AcDbEntity
  8
01
100
AcDbLine
 10
-244.9841898859988
 20
-415.1159493311303
 30
0.0
 11
-97.98418988599883
 21
-415.1159493311303
 31
0.0
  0
LINE
  5
1E80D
330
18
100
AcDbEntity
  8
01
100
AcDbLine
 10
-96.98418988599929
 20
-568.0237725247748
 30
0.0
 11
-96.98418988599929
 21
-540.3316873682256
 31
0.0
  0
LINE
  5
1E80E
330
18
100
AcDbEntity
  8
01
100
AcDbLine
 10
-98.98418988599929
 20
-569.0237725247748
 30
0.0
 11
-97.98418988599929
 21
-569.0237725247748
 31
0.0
  0
LINE
  5
1E80F
330
18
100
AcDbEntity
  8
01
100
AcDbLine
 10
-243.9841898859993
 20
-569.0237724810636
 30
0.0
 11
-98.98418988599929
 21
-569.0237724810636
 31
0.0
  0
LINE
  5
1E810
330
18
100
AcDbEntity
  8
01
100
AcDbLine
 10
-243.9841898859993
 20
-569.0237725247748
 30
0.0
 11
-244.9841898859993
 21
-569.0237725247748
 31
0.0
  0
LINE
  5
1E812
330
18
100
AcDbEntity
  8
01
100
AcDbLine
 10
-245.9841898859993
 20
-568.0237725247748
 30
0.0
 11
-245.9841898859993
 21
-540.3316873682256
 31
0.0
  0
ARC
  5
1E813
330
18
100
AcDbEntity
  8
01
100
AcDbCircle
 10
-97.98418988599929
 20
-568.0237725247748
 30
0.0
 40
1.000000000000007
100
AcDbArc
 50
270.0000000002215
 51
0.0
  0
ARC
  5
1E814
330
18
100
AcDbEntity
  8
01
100
AcDbCircle
 10
244.9841898859993
 20
-568.0237725247748
 30
0.0
 40
1.0
210
0.0
220
0.0
230
-1.0
100
AcDbArc
 50
270.0000000002215
 51
0.0
  0
LINE
  5
1E81A
330
18
100
AcDbEntity
  8
01
100
AcDbLine
 10
-97.98418988600312
 20
-539.3316873682256
 30
0.0
 11
-244.9841898860032
 21
-539.3316873682256
 31
0.0
  0
ARC
  5
1E81E
330
18
100
AcDbEntity
  8
01
100
AcDbCircle
 10
244.9841898860032
 20
-540.3316873682256
 30
0.0
 40
0.9999999999999858
210
0.0
220
0.0
230
-1.0
100
AcDbArc
 50
0.0
 51
89.99999999977852
  0
ARC
  5
1E81F
330
18
100
AcDbEntity
  8
01
100
AcDbCircle
 10
-97.98418988600312
 20
-540.3316873682256
 30
0.0
 40
1.0
100
AcDbArc
 50
0.0
 51
89.99999999977852
  0
LINE
  5
1E84F
330
18
100
AcDbEntity
  8
01
100
AcDbLine
 10
-125.9841898859993
 20
-577.9661669543609
 30
0.0
 11
-136.9841898859993
 21
-577.9661669543609
 31
0.0
  0
ARC
  5
1E850
330
18
100
AcDbEntity
  8
01
100
AcDbCircle
 10
125.9835106795006
 20
-573.4661668356277
 30
0.0
 40
4.500000169991101
210
0.0
220
0.0
230
-1.0
100
AcDbArc
 50
89.99135207454196
 51
270.008647924989
  0
LINE
  5
1E851
330
18
100
AcDbEntity
  8
01
100
AcDbLine
 10
-136.9841898859993
 20
-568.9661667168946
 30
0.0
 11
-125.9841898859993
 21
-568.9661667168946
 31
0.0
  0
ARC
  5
1E852
330
18
100
AcDbEntity
  8
01
100
AcDbCircle
 10
136.984869092498
 20
-573.4661668356277
 30
0.0
 40
4.500000169991083
210
0.0
220
0.0
230
-1.0
100
AcDbArc
 50
269.9913520745681
 51
90.00864792498905
  0
ARC
  5
1E853
330
18
100
AcDbEntity
  8
01
100
AcDbCircle
 10
165.9844403624575
 20
-577.4661669331665
 30
0.0
 40
4.500000106008883
210
0.0
220
0.0
230
-1.0
100
AcDbArc
 50
90.00318916523057
 51
269.9968108343265
  0
ARC
  5
1E854
330
18
100
AcDbEntity
  8
01
100
AcDbCircle
 10
-136.9841898859993
 20
-573.4661671391293
 30
0.0
 40
2.25
100
AcDbArc
 50
90.0
 51
269.9999999995571
  0
LINE
  5
1E855
330
18
100
AcDbEntity
  8
01
100
AcDbLine
 10
-125.9841898859993
 20
-571.2161671391293
 30
0.0
 11
-136.9841898859993
 21
-571.2161671391293
 31
0.0
  0
ARC
  5
1E856
330
18
100
AcDbEntity
  8
01
100
AcDbCircle
 10
-125.9841898859993
 20
-573.4661671391293
 30
0.0
 40
2.25
100
AcDbArc
 50
270.0
 51
89.99999999955706
  0
LINE
  5
1E857
330
18
100
AcDbEntity
  8
01
100
AcDbLine
 10
-136.9841898859993
 20
-575.7161671391293
 30
0.0
 11
-125.9841898859993
 21
-575.7161671391293
 31
0.0
  0
ARC
  5
1E858
330
18
100
AcDbEntity
  8
01
100
AcDbCircle
 10
-165.9841898859993
 20
-577.4661671391293
 30
0.0
 40
2.25
100
AcDbArc
 50
270.0
 51
89.99999999955706
  0
LINE
  5
1E85D
330
18
100
AcDbEntity
  8
01
100
AcDbLine
 10
-216.9841898859993
 20
-577.9661669543609
 30
0.0
 11
-205.9841898859993
 21
-577.9661669543609
 31
0.0
  0
ARC
  5
1E85E
330
18
100
AcDbEntity
  8
01
100
AcDbCircle
 10
-216.984869092498
 20
-573.4661668356277
 30
0.0
 40
4.500000169991105
100
AcDbArc
 50
89.99135207454196
 51
270.008647924989
  0
LINE
  5
1E85F
330
18
100
AcDbEntity
  8
01
100
AcDbLine
 10
-205.9841898859993
 20
-568.9661667168946
 30
0.0
 11
-216.9841898859993
 21
-568.9661667168946
 31
0.0
  0
ARC
  5
1E860
330
18
100
AcDbEntity
  8
01
100
AcDbCircle
 10
-205.9835106795006
 20
-573.4661668356277
 30
0.0
 40
4.500000169991083
100
AcDbArc
 50
269.9913520745681
 51
90.00864792498905
  0
ARC
  5
1E861
330
18
100
AcDbEntity
  8
01
100
AcDbCircle
 10
-176.9839394095413
 20
-577.4661669331665
 30
0.0
 40
4.500000106008883
100
AcDbArc
 50
90.00318916523057
 51
269.9968108343265
  0
ARC
  5
1E862
330
18
100
AcDbEntity
  8
01
100
AcDbCircle
 10
205.9841898859993
 20
-573.4661671391293
 30
0.0
 40
2.25
210
0.0
220
0.0
230
-1.0
100
AcDbArc
 50
90.0
 51
269.9999999995571
  0
LINE
  5
1E863
330
18
100
AcDbEntity
  8
01
100
AcDbLine
 10
-216.9841898859993
 20
-571.2161671391293
 30
0.0
 11
-205.9841898859993
 21
-571.2161671391293
 31
0.0
  0
ARC
  5
1E864
330
18
100
AcDbEntity
  8
01
100
AcDbCircle
 10
216.9841898859993
 20
-573.4661671391293
 30
0.0
 40
2.25
210
0.0
220
0.0
230
-1.0
100
AcDbArc
 50
270.0
 51
89.99999999955706
  0
LINE
  5
1E865
330
18
100
AcDbEntity
  8
01
100
AcDbLine
 10
-205.9841898859993
 20
-575.7161671391293
 30
0.0
 11
-216.9841898859993
 21
-575.7161671391293
 31
0.0
  0
ARC
  5
1E866
330
18
100
AcDbEntity
  8
01
100
AcDbCircle
 10
176.9841898859993
 20
-577.4661671391293
 30
0.0
 40
2.25
210
0.0
220
0.0
230
-1.0
100
AcDbArc
 50
270.0
 51
89.99999999955706
  0
LINE
  5
1E868
330
18
100
AcDbEntity
  8
01
100
AcDbLine
 10
-165.9841898859993
 20
-572.9661668341284
 30
0.0
 11
-176.9841898859993
 21
-572.9661668341284
 31
0.0
  0
LINE
  5
1E869
330
18
100
AcDbEntity
  8
01
100
AcDbLine
 10
-176.9841898859993
 20
-581.9661670322043
 30
0.0
 11
-165.9841898859993
 21
-581.9661670322043
 31
0.0
  0
LINE
  5
1E86A
330
18
100
AcDbEntity
  8
01
100
AcDbLine
 10
-106.4841898859994
 20
-585.9661672498808
 30
0.0
 11
-236.4841898859992
 21
-585.9661672498808
 31
0.0
  0
LINE
  5
1E86B
330
18
100
AcDbEntity
  8
01
100
AcDbLine
 10
-165.9841898859993
 20
-575.2161671391293
 30
0.0
 11
-176.9841898859993
 21
-575.2161671391293
 31
0.0
  0
LINE
  5
1E86C
330
18
100
AcDbEntity
  8
01
100
AcDbLine
 10
-176.9841898859993
 20
-579.7161671391293
 30
0.0
 11
-165.9841898859993
 21
-579.7161671391293
 31
0.0
  0
LINE
  5
1E88F
330
18
100
AcDbEntity
  8
1CENTER
100
AcDbLine
 10
-160.2047140670868
 20
-577.4661671391293
 30
0.0
 11
-182.6185702157165
 21
-577.4661671391293
 31
0.0
  0
LINE
  5
1E890
330
18
100
AcDbEntity
  8
1CENTER
100
AcDbLine
 10
-222.8789333736916
 20
-573.4661671391293
 30
0.0
 11
-200.2959182730813
 21
-573.4661671391293
 31
0.0
  0
LINE
  5
1E891
330
18
100
AcDbEntity
  8
1CENTER
100
AcDbLine
 10
-120.5364202946378
 20
-573.4661671391293
 30
0.0
 11
-142.4427943658886
 21
-573.4661671391293
 31
0.0
  0
LINE
  5
1E89B
330
18
100
AcDbEntity
  8
01
100
AcDbLine
 10
35.13422174969537
 20
-547.2425000464714
 30
0.0
 11
37.58562920649769
 21
-546.5856473981015
 31
0.0
  0
ARC
  5
1E89D
330
18
100
AcDbEntity
  8
01
100
AcDbCircle
 10
-35.13422174969537
 20
-547.2425000464714
 30
0.0
 40
4.0
210
0.0
220
0.0
230
-1.0
100
AcDbArc
 50
0.0000000008858735
 51
15.02049336965918
  0
LINE
  5
1E89E
330
18
100
AcDbEntity
  8
01
100
AcDbLine
 10
31.13422174969537
 20
-547.2425000464714
 30
0.0
 11
31.13422174969537
 21
-555.2496526164136
 31
0.0
  0
LINE
  5
1E939
330
18
100
AcDbEntity
  8
01
100
AcDbLine
 10
-236.4841898859991
 20
-610.8625132238863
 30
0.0
 11
-236.4841898859992
 21
-569.4663395570997
 31
0.0
  0
LINE
  5
1E98A
330
18
100
AcDbEntity
  8
01
100
AcDbLine
 10
-206.9841898860002
 20
-600.7728767099647
 30
0.0
 11
-206.9841898860002
 21
-599.9970966849655
 31
0.0
  0
LINE
  5
1E98B
330
18
100
AcDbEntity
  8
01
100
AcDbLine
 10
-211.9841898860002
 20
-604.066166386242
 30
0.0
 11
-231.484189886
 21
-604.066166386242
 31
0.0
  0
LINE
  5
1E98C
330
18
100
AcDbEntity
  8
01
100
AcDbLine
 10
-208.9841898860002
 20
-604.0661665173757
 30
0.0
 11
-211.9841898860002
 21
-604.0661665173757
 31
0.0
  0
ARC
  5
1E98D
330
18
100
AcDbEntity
  8
01
100
AcDbCircle
 10
208.9841898860002
 20
-602.0661665173757
 30
0.0
 40
1.999999999999998
210
0.0
220
0.0
230
-1.0
100
AcDbArc
 50
180.0000000002084
 51
270.0
  0
LINE
  5
1E98E
330
18
100
AcDbEntity
  8
01
100
AcDbLine
 10
-206.9841898860002
 20
-602.0661665173757
 30
0.0
 11
-206.9841898860002
 21
-600.7728767099652
 31
0.0
  0
LINE
  5
1E98F
330
18
100
AcDbEntity
  8
01
100
AcDbLine
 10
-208.9841898860002
 20
-597.9970966905212
 30
0.0
 11
-231.484189886
 21
-597.997096690684
 31
0.0
  0
ARC
  5
1E990
330
18
100
AcDbEntity
  8
01
100
AcDbCircle
 10
-208.9841898860002
 20
-599.9970966849655
 30
0.0
 40
1.999999999999943
100
AcDbArc
 50
0.0
 51
89.9999999997655
  0
LINE
  5
1E9A4
330
18
100
AcDbEntity
  8
01
100
AcDbLine
 10
-96.48418988599951
 20
-551.7661663741801
 30
0.0
 11
-96.48418988599951
 21
-610.8625132238901
 31
0.0
  0
ARC
  5
1E9A6
330
18
100
AcDbEntity
  8
01
100
AcDbCircle
 10
-97.48418988599951
 20
-551.7661663741801
 30
0.0
 40
1.0
100
AcDbArc
 50
0.0000000002084408
 51
59.99999999998495
  0
LINE
  5
1E9A7
330
18
100
AcDbEntity
  8
01
100
AcDbLine
 10
-105.4841898859995
 20
-611.8625132238863
 30
0.0
 11
-97.48418988599951
 21
-611.8625132238863
 31
0.0
  0
ARC
  5
1E9A9
330
18
100
AcDbEntity
  8
01
100
AcDbCircle
 10
97.48418988599951
 20
-610.8625132238863
 30
0.0
 40
1.0
210
0.0
220
0.0
230
-1.0
100
AcDbArc
 50
180.0000000002345
 51
270.0
  0
LINE
  5
1E9DC
330
18
100
AcDbEntity
  8
01
100
AcDbLine
 10
-106.4841898859995
 20
-610.8625132238863
 30
0.0
 11
-106.4841898859993
 21
-569.4663395570992
 31
0.0
  0
LINE
  5
1E9FC
330
18
100
AcDbEntity
  8
01
100
AcDbLine
 10
-135.9841898859984
 20
-600.7728767099647
 30
0.0
 11
-135.9841898859984
 21
-599.9970966849655
 31
0.0
  0
LINE
  5
1E9FD
330
18
100
AcDbEntity
  8
01
100
AcDbLine
 10
-130.9841898859984
 20
-604.066166386242
 30
0.0
 11
-111.4841898859986
 21
-604.066166386242
 31
0.0
  0
LINE
  5
1E9FE
330
18
100
AcDbEntity
  8
01
100
AcDbLine
 10
-133.9841898859984
 20
-604.0661665173757
 30
0.0
 11
-130.9841898859984
 21
-604.0661665173757
 31
0.0
  0
ARC
  5
1E9FF
330
18
100
AcDbEntity
  8
01
100
AcDbCircle
 10
133.9841898859984
 20
-602.0661665173757
 30
0.0
 40
1.999999999999998
210
0.0
220
0.0
230
-1.0
100
AcDbArc
 50
270.0
 51
359.9999999997916
  0
LINE
  5
1EA00
330
18
100
AcDbEntity
  8
01
100
AcDbLine
 10
-135.9841898859984
 20
-602.0661665173757
 30
0.0
 11
-135.9841898859984
 21
-600.7728767099652
 31
0.0
  0
LINE
  5
1EA01
330
18
100
AcDbEntity
  8
01
100
AcDbLine
 10
-133.9841898859984
 20
-597.9970966905212
 30
0.0
 11
-111.4841898859986
 21
-597.997096690684
 31
0.0
  0
ARC
  5
1EA02
330
18
100
AcDbEntity
  8
01
100
AcDbCircle
 10
-133.9841898859984
 20
-599.9970966849655
 30
0.0
 40
1.999999999999943
100
AcDbArc
 50
90.0000000002345
 51
180.0
  0
LINE
  5
1EA0D
330
18
100
AcDbEntity
  8
01
100
AcDbLine
 10
-96.48418988599883
 20
-413.0359493311303
 30
0.0
 11
-96.48418988599883
 21
-508.6359493311343
 31
0.0
  0
ARC
  5
1EA11
330
18
100
AcDbEntity
  8
01
100
AcDbCircle
 10
-97.48418988599883
 20
-508.6359493311306
 30
0.0
 40
1.0
100
AcDbArc
 50
303.4137526528358
 51
359.9999999997785
  0
ARC
  5
1EA90
330
18
100
AcDbEntity
  8
01
100
AcDbCircle
 10
126.7615561398156
 20
-607.2400579639575
 30
0.0
 40
109.8983695573739
210
0.0
220
0.0
230
-1.0
100
AcDbArc
 50
3.912140881429514
 51
5.199484364776273
  0
ARC
  5
1EA95
330
18
100
AcDbEntity
  8
01
100
AcDbCircle
 10
-236.4194101823373
 20
-607.2415286526934
 30
0.0
 40
1.996625690307919
100
AcDbArc
 50
269.9546377342718
 51
320.2397892788135
  0
LINE
  5
1EA96
330
18
100
AcDbEntity
  8
01
100
AcDbLine
 10
-234.8845483782388
 20
-608.5185225405085
 30
0.0
 11
-231.7623754491287
 21
-604.7719149362506
 31
0.0
  0
ARC
  5
1EA97
330
18
100
AcDbEntity
  8
01
100
AcDbCircle
 10
-232.6854437595694
 20
-604.0032581889018
 30
0.0
 40
1.201202855884155
100
AcDbArc
 50
320.2151998738558
 51
359.9792311498981
  0
ARC
  5
1EA9A
330
18
100
AcDbEntity
  8
01
100
AcDbCircle
 10
231.9842402276213
 20
-597.8693427982985
 30
0.0
 40
0.4999992450203569
210
0.0
220
0.0
230
-1.0
100
AcDbArc
 50
93.02661398588877
 51
179.9999133653463
  0
LINE
  5
1EA9F
330
18
100
AcDbEntity
  8
01
100
AcDbLine
 10
-236.3056772273717
 20
-604.4202972875069
 30
0.0
 11
-231.9344891230908
 21
-603.983178477079
 31
0.0
  0
ARC
  5
1EAA0
330
18
100
AcDbEntity
  8
01
100
AcDbCircle
 10
-231.9842409826015
 20
-603.4856598819738
 30
0.0
 40
0.4999999999999986
100
AcDbArc
 50
275.7105931374971
 51
359.9999999997916
  0
ARC
  5
1EAA1
330
18
100
AcDbEntity
  8
01
100
AcDbCircle
 10
179.849501714556
 20
-602.3552108884255
 30
0.0
 40
56.58621249644618
210
0.0
220
0.0
230
-1.0
100
AcDbArc
 50
5.145085372291475
 51
7.48791222138905
  0
SPLINE
  5
1EAA2
330
18
100
AcDbEntity
  8
01
100
AcDbSpline
210
0.0
220
0.0
230
1.0
 70
     8
 71
     3
 72
    14
 73
    10
 74
     0
 42
0.0000000001
 43
0.0000000001
 40
0.0
 40
0.0
 40
0.0
 40
0.0
 40
0.444856401011353
 40
0.889526961779115
 40
1.333680607051164
 40
1.778381640602916
 40
2.222951063292882
 40
2.667676046127791
 40
3.112544482608245
 40
3.112544482608245
 40
3.112544482608245
 40
3.112544482608245
 10
-235.6154703166217
 20
-593.2106547991157
 30
0.0
 10
-235.6049402018621
 20
-593.2226952502465
 30
0.0
 10
-235.5822819620794
 20
-593.2797782950229
 30
0.0
 10
-235.5347969293493
 20
-593.4592901788592
 30
0.0
 10
-235.4631659483748
 20
-593.7225062721491
 30
0.0
 10
-235.3575133018048
 20
-594.0510369787389
 30
0.0
 10
-235.2148770902568
 20
-594.4238170177614
 30
0.0
 10
-235.0350394083898
 20
-594.8164033626858
 30
0.0
 10
-234.8913268739866
 20
-595.077031494478
 30
0.0
 10
-234.8147280328558
 20
-595.2040054566437
 30
0.0
  0
SPLINE
  5
1EAA3
330
18
100
AcDbEntity
  8
01
100
AcDbSpline
210
0.0
220
0.0
230
1.0
 70
     8
 71
     3
 72
    10
 73
     6
 74
     0
 42
0.0000000001
 43
0.0000000001
 40
0.0
 40
0.0
 40
0.0
 40
0.0
 40
1.270339148957633
 40
2.541770100544106
 40
2.913948766342715
 40
2.913948766342715
 40
2.913948766342715
 40
2.913948766342715
 10
-234.8147275565429
 20
-595.2040062462388
 30
0.0
 10
-234.5959969004757
 20
-595.5665855332063
 30
0.0
 10
-234.0588255498683
 20
-596.2365327767684
 30
0.0
 10
-233.2745793549275
 20
-596.8241777044877
 30
0.0
 10
-232.7895100890796
 20
-597.0831797468923
 30
0.0
 10
-232.6778083372328
 20
-597.1380090381422
 30
0.0
  0
LINE
  5
1EAA4
330
18
100
AcDbEntity
  8
01
100
AcDbLine
 10
-236.4842409826015
 20
-593.3033836987652
 30
0.0
 11
-236.4842409826015
 21
-593.2040212394245
 31
0.0
  0
SPLINE
  5
1EAA5
330
18
100
AcDbEntity
  8
01
100
AcDbSpline
210
0.0
220
0.0
230
1.0
 70
     8
 71
     3
 72
    16
 73
    12
 74
     0
 42
0.0000000001
 43
0.0000000001
 40
0.0
 40
0.0
 40
0.0
 40
0.0
 40
0.0033690722699181
 40
0.0101072168097542
 40
0.0182408470370792
 40
0.0288828023922813
 40
0.0444659088056038
 40
0.0657550559586502
 40
0.0929895336030846
 40
0.1151462786699537
 40
0.1262246512033883
 40
0.1262246512033883
 40
0.1262246512033883
 40
0.1262246512033883
 10
-235.6154703160023
 20
-593.2106547991157
 30
0.0
 10
-235.616209622563
 20
-593.2098094536736
 30
0.0
 10
-235.6185481822549
 20
-593.2073789244541
 30
0.0
 10
-235.623727185256
 20
-593.2036241058163
 30
0.0
 10
-235.6330613371852
 20
-593.2043272891633
 30
0.0
 10
-235.6413365239009
 20
-593.2130549715434
 30
0.0
 10
-235.6490835783766
 20
-593.2267744527285
 30
0.0
 10
-235.6568439076395
 20
-593.2468033428295
 30
0.0
 10
-235.6635192975232
 20
-593.2693875018203
 30
0.0
 10
-235.668355746925
 20
-593.2889661287181
 30
0.0
 10
-235.670782302896
 20
-593.2997756965528
 30
0.0
 10
-235.671569083841
 20
-593.3033836987652
 30
0.0
  0
SPLINE
  5
1EAA6
330
18
100
AcDbEntity
  8
01
100
AcDbSpline
210
0.0
220
0.0
230
1.0
 70
     8
 71
     3
 72
    10
 73
     6
 74
     0
 42
0.0000000001
 43
0.0000000001
 40
0.0
 40
0.0
 40
0.0
 40
0.0
 40
0.5670498529668133
 40
1.134099705933627
 40
1.70114955890044
 40
1.70114955890044
 40
1.70114955890044
 40
1.70114955890044
 10
-235.9531683023729
 20
-594.9810641516137
 30
0.0
 10
-235.9279687666703
 20
-594.7937348555856
 30
0.0
 10
-235.8747053770244
 20
-594.419461571601
 30
0.0
 10
-235.7831319932407
 20
-593.8594312885216
 30
0.0
 10
-235.711840704776
 20
-593.4880603846173
 30
0.0
 10
-235.671569083841
 20
-593.3033836987652
 30
0.0
  0
LINE
  5
1EAA8
330
18
100
AcDbEntity
  8
01
100
AcDbLine
 10
-236.4842409826015
 20
-593.204017289178
 30
0.0
 11
-235.6270994599899
 21
-593.204017289178
 31
0.0
  0
SPLINE
  5
1EAA9
330
18
100
AcDbEntity
  8
01
100
AcDbSpline
210
0.0
220
0.0
230
1.0
 70
     8
 71
     3
 72
    24
 73
    20
 74
     0
 42
0.0000000001
 43
0.0000000001
 40
0.0
 40
0.0
 40
0.0
 40
0.0
 40
0.2892576527506364
 40
0.7161795891479389
 40
0.8538085122336323
 40
1.125074831710193
 40
1.410273228451008
 40
1.688648835876597
 40
1.830888525025743
 40
2.040639118880572
 40
2.224923152278406
 40
2.392600532735851
 40
2.644757243564413
 40
2.737335988538392
 40
2.843550547160244
 40
2.910494609187247
 40
2.978241852011212
 40
3.068402699338418
 40
3.161701000039376
 40
3.161701000039376
 40
3.161701000039376
 40
3.161701000039376
 10
-231.9578430941788
 20
-597.3692665568433
 30
0.0
 10
-231.9598326095052
 20
-597.3691612271859
 30
0.0
 10
-231.9699025144346
 20
-597.368500065661
 30
0.0
 10
-231.9908924512647
 20
-597.3663784695887
 30
0.0
 10
-232.0257915717766
 20
-597.3613254485381
 30
0.0
 10
-232.0629765084223
 20
-597.3549483937154
 30
0.0
 10
-232.1075936498532
 20
-597.3457784370053
 30
0.0
 10
-232.1604583139606
 20
-597.3329659826627
 30
0.0
 10
-232.2051504149968
 20
-597.3207642320754
 30
0.0
 10
-232.2444136272597
 20
-597.3092638302592
 30
0.0
 10
-232.309114905358
 20
-597.2885842919368
 30
0.0
 10
-232.4114743248906
 20
-597.2525819292259
 30
0.0
 10
-232.5041693734402
 20
-597.2159495134688
 30
0.0
 10
-232.5725074973197
 20
-597.1867962247875
 30
0.0
 10
-232.6050844910392
 20
-597.172328576125
 30
0.0
 10
-232.6235423483558
 20
-597.1638946530779
 30
0.0
 10
-232.6377568650901
 20
-597.1573766103702
 30
0.0
 10
-232.6578619328266
 20
-597.1475498315617
 30
0.0
 10
-232.6664131495045
 20
-597.1442091110312
 30
0.0
 10
-232.6778389116553
 20
-597.138071326312
 30
0.0
  0
LINE
  5
1EAAB
330
18
100
AcDbEntity
  8
01
100
AcDbLine
 10
-235.75309277206
 20
-593.2494706484122
 30
0.0
 11
-235.5029905609408
 21
-593.2494706484122
 31
0.0
  0
LINE
  5
1EAAC
330
18
100
AcDbEntity
  8
01
100
AcDbLine
 10
-231.9578403596124
 20
-597.3700409931766
 30
0.0
 11
-231.9578403596124
 21
-597.3692665568433
 31
0.0
  0
ARC
  5
1EAB0
330
18
100
AcDbEntity
  8
01
100
AcDbCircle
 10
216.2068747287854
 20
-607.2680715274796
 30
0.0
 40
109.8983695573739
210
0.0
220
0.0
230
-1.0
100
AcDbArc
 50
174.8005156352237
 51
176.0878591185705
  0
ARC
  5
1EAB5
330
18
100
AcDbEntity
  8
01
100
AcDbCircle
 10
-106.5490206862637
 20
-607.2695422162155
 30
0.0
 40
1.996625690307919
100
AcDbArc
 50
219.7602107211937
 51
270.0453622657282
  0
LINE
  5
1EAB6
330
18
100
AcDbEntity
  8
01
100
AcDbLine
 10
-108.0838824903622
 20
-608.5465361040306
 30
0.0
 11
-111.2060554194722
 21
-604.7999284997727
 31
0.0
  0
ARC
  5
1EAB7
330
18
100
AcDbEntity
  8
01
100
AcDbCircle
 10
-110.2829871090316
 20
-604.0312717524239
 30
0.0
 40
1.201202855884155
100
AcDbArc
 50
180.0207688501019
 51
219.7848001261441
  0
ARC
  5
1EABA
330
18
100
AcDbEntity
  8
01
100
AcDbCircle
 10
110.9841906409797
 20
-597.8973563618206
 30
0.0
 40
0.4999992450203569
210
0.0
220
0.0
230
-1.0
100
AcDbArc
 50
0.0000866346536663
 51
86.97338601411123
  0
LINE
  5
1EABF
330
18
100
AcDbEntity
  8
01
100
AcDbLine
 10
-106.6627536412293
 20
-604.448310851029
 30
0.0
 11
-111.0339417455102
 21
-604.0111920406011
 31
0.0
  0
ARC
  5
1EAC0
330
18
100
AcDbEntity
  8
01
100
AcDbCircle
 10
-110.9841898859995
 20
-603.5136734454959
 30
0.0
 40
0.4999999999999986
100
AcDbArc
 50
180.0000000002084
 51
264.2894068625029
  0
ARC
  5
1EAC1
330
18
100
AcDbEntity
  8
01
100
AcDbCircle
 10
163.118929154045
 20
-602.3832244519476
 30
0.0
 40
56.58621249644618
210
0.0
220
0.0
230
-1.0
100
AcDbArc
 50
172.5120877786109
 51
174.8549146277085
  0
SPLINE
  5
1EAC2
330
18
100
AcDbEntity
  8
01
100
AcDbSpline
210
0.0
220
0.0
230
1.0
 70
     8
 71
     3
 72
    14
 73
    10
 74
     0
 42
0.0000000001
 43
0.0000000001
 40
0.0
 40
0.0
 40
0.0
 40
0.0
 40
0.444856401011353
 40
0.889526961779115
 40
1.333680607051164
 40
1.778381640602916
 40
2.222951063292882
 40
2.667676046127791
 40
3.112544482608245
 40
3.112544482608245
 40
3.112544482608245
 40
3.112544482608245
 10
-107.3529605519793
 20
-593.2386683626378
 30
0.0
 10
-107.3634906667389
 20
-593.2507088137686
 30
0.0
 10
-107.3861489065216
 20
-593.307791858545
 30
0.0
 10
-107.4336339392516
 20
-593.4873037423813
 30
0.0
 10
-107.5052649202262
 20
-593.7505198356712
 30
0.0
 10
-107.6109175667962
 20
-594.079050542261
 30
0.0
 10
-107.7535537783442
 20
-594.4518305812835
 30
0.0
 10
-107.9333914602112
 20
-594.8444169262079
 30
0.0
 10
-108.0771039946144
 20
-595.1050450580001
 30
0.0
 10
-108.1537028357452
 20
-595.2320190201658
 30
0.0
  0
SPLINE
  5
1EAC3
330
18
100
AcDbEntity
  8
01
100
AcDbSpline
210
0.0
220
0.0
230
1.0
 70
     8
 71
     3
 72
    10
 73
     6
 74
     0
 42
0.0000000001
 43
0.0000000001
 40
0.0
 40
0.0
 40
0.0
 40
0.0
 40
1.270339148957633
 40
2.541770100544106
 40
2.913948766342715
 40
2.913948766342715
 40
2.913948766342715
 40
2.913948766342715
 10
-108.153703312058
 20
-595.2320198097609
 30
0.0
 10
-108.3724339681253
 20
-595.5945990967284
 30
0.0
 10
-108.9096053187327
 20
-596.2645463402905
 30
0.0
 10
-109.6938515136735
 20
-596.8521912680098
 30
0.0
 10
-110.1789207795214
 20
-597.1111933104144
 30
0.0
 10
-110.2906225313682
 20
-597.1660226016643
 30
0.0
  0
LINE
  5
1EAC4
330
18
100
AcDbEntity
  8
01
100
AcDbLine
 10
-106.4841898859995
 20
-593.3313972622873
 30
0.0
 11
-106.4841898859995
 21
-593.2320348029466
 31
0.0
  0
SPLINE
  5
1EAC5
330
18
100
AcDbEntity
  8
01
100
AcDbSpline
210
0.0
220
0.0
230
1.0
 70
     8
 71
     3
 72
    16
 73
    12
 74
     0
 42
0.0000000001
 43
0.0000000001
 40
0.0
 40
0.0
 40
0.0
 40
0.0
 40
0.0033690722699181
 40
0.0101072168097542
 40
0.0182408470370792
 40
0.0288828023922813
 40
0.0444659088056038
 40
0.0657550559586502
 40
0.0929895336030846
 40
0.1151462786699537
 40
0.1262246512033883
 40
0.1262246512033883
 40
0.1262246512033883
 40
0.1262246512033883
 10
-107.3529605525987
 20
-593.2386683626378
 30
0.0
 10
-107.352221246038
 20
-593.2378230171958
 30
0.0
 10
-107.3498826863461
 20
-593.2353924879762
 30
0.0
 10
-107.344703683345
 20
-593.2316376693384
 30
0.0
 10
-107.3353695314158
 20
-593.2323408526854
 30
0.0
 10
-107.3270943447001
 20
-593.2410685350656
 30
0.0
 10
-107.3193472902244
 20
-593.2547880162506
 30
0.0
 10
-107.3115869609614
 20
-593.2748169063516
 30
0.0
 10
-107.3049115710778
 20
-593.2974010653425
 30
0.0
 10
-107.3000751216759
 20
-593.3169796922402
 30
0.0
 10
-107.297648565705
 20
-593.327789260075
 30
0.0
 10
-107.29686178476
 20
-593.3313972622873
 30
0.0
  0
SPLINE
  5
1EAC6
330
18
100
AcDbEntity
  8
01
100
AcDbSpline
210
0.0
220
0.0
230
1.0
 70
     8
 71
     3
 72
    10
 73
     6
 74
     0
 42
0.0000000001
 43
0.0000000001
 40
0.0
 40
0.0
 40
0.0
 40
0.0
 40
0.5670498529668133
 40
1.134099705933627
 40
1.70114955890044
 40
1.70114955890044
 40
1.70114955890044
 40
1.70114955890044
 10
-107.0152625662281
 20
-595.0090777151358
 30
0.0
 10
-107.0404621019306
 20
-594.8217484191077
 30
0.0
 10
-107.0937254915766
 20
-594.4474751351231
 30
0.0
 10
-107.1852988753603
 20
-593.8874448520437
 30
0.0
 10
-107.256590163825
 20
-593.5160739481394
 30
0.0
 10
-107.29686178476
 20
-593.3313972622873
 30
0.0
  0
LINE
  5
1EAC8
330
18
100
AcDbEntity
  8
01
100
AcDbLine
 10
-106.4841898859995
 20
-593.2320308527001
 30
0.0
 11
-107.341331408611
 21
-593.2320308527001
 31
0.0
  0
SPLINE
  5
1EAC9
330
18
100
AcDbEntity
  8
01
100
AcDbSpline
210
0.0
220
0.0
230
1.0
 70
     8
 71
     3
 72
    24
 73
    20
 74
     0
 42
0.0000000001
 43
0.0000000001
 40
0.0
 40
0.0
 40
0.0
 40
0.0
 40
0.2892576527506364
 40
0.7161795891479389
 40
0.8538085122336323
 40
1.125074831710193
 40
1.410273228451008
 40
1.688648835876597
 40
1.830888525025743
 40
2.040639118880572
 40
2.224923152278406
 40
2.392600532735851
 40
2.644757243564413
 40
2.737335988538392
 40
2.843550547160244
 40
2.910494609187247
 40
2.978241852011212
 40
3.068402699338418
 40
3.161701000039376
 40
3.161701000039376
 40
3.161701000039376
 40
3.161701000039376
 10
-111.0105877744222
 20
-597.3972801203654
 30
0.0
 10
-111.0085982590958
 20
-597.397174790708
 30
0.0
 10
-110.9985283541664
 20
-597.3965136291831
 30
0.0
 10
-110.9775384173363
 20
-597.3943920331108
 30
0.0
 10
-110.9426392968244
 20
-597.3893390120602
 30
0.0
 10
-110.9054543601787
 20
-597.3829619572375
 30
0.0
 10
-110.8608372187477
 20
-597.3737920005274
 30
0.0
 10
-110.8079725546404
 20
-597.3609795461848
 30
0.0
 10
-110.7632804536042
 20
-597.3487777955975
 30
0.0
 10
-110.7240172413412
 20
-597.3372773937813
 30
0.0
 10
-110.659315963243
 20
-597.3165978554589
 30
0.0
 10
-110.5569565437104
 20
-597.280595492748
 30
0.0
 10
-110.4642614951608
 20
-597.2439630769909
 30
0.0
 10
-110.3959233712812
 20
-597.2148097883096
 30
0.0
 10
-110.3633463775618
 20
-597.2003421396471
 30
0.0
 10
-110.3448885202451
 20
-597.1919082166
 30
0.0
 10
-110.3306740035109
 20
-597.1853901738923
 30
0.0
 10
-110.3105689357744
 20
-597.1755633950838
 30
0.0
 10
-110.3020177190965
 20
-597.1722226745533
 30
0.0
 10
-110.2905919569457
 20
-597.1660848898341
 30
0.0
  0
LINE
  5
1EACC
330
18
100
AcDbEntity
  8
01
100
AcDbLine
 10
-111.0105905089886
 20
-597.3980545566988
 30
0.0
 11
-111.0105905089886
 21
-597.3972801203654
 31
0.0
  0
ARC
  5
1EACD
330
18
100
AcDbEntity
  8
01
100
AcDbCircle
 10
45.11441369040574
 20
-587.2704436055699
 30
0.0
 40
27.5
210
0.0
220
0.0
230
-1.0
100
AcDbArc
 50
45.14855417831279
 51
65.34926152108268
  0
LINE
  5
1EACE
330
18
100
AcDbEntity
  8
01
100
AcDbLine
 10
-67.04346384298259
 20
-568.9332307200052
 30
0.0
 11
-64.50936752879508
 21
-567.7746551986661
 31
0.0
  0
ARC
  5
1EACF
330
18
100
AcDbEntity
  8
01
100
AcDbCircle
 10
-22.42228572535578
 20
-746.0100016426272
 30
0.0
 40
200.0000000000001
210
0.0
220
0.0
230
-1.0
100
AcDbArc
 50
66.73198055554396
 51
93.7288881294364
  0
ARC
  5
1EAD2
330
18
100
AcDbEntity
  8
01
100
AcDbCircle
 10
-22.42228529088993
 20
-746.0100014807888
 30
0.0
 40
200.0000000000001
210
0.0
220
0.0
230
-1.0
100
AcDbArc
 50
93.72888813032253
 51
96.17810694622516
  0
ARC
  5
1EAD8
330
18
100
AcDbEntity
  8
01
100
AcDbCircle
 10
-41.46123294385734
 20
-540.5067873302025
 30
0.0
 40
0.9999999999999939
210
0.0
220
0.0
230
-1.0
100
AcDbArc
 50
92.29132946237384
 51
155.430369606679
  0
ARC
  5
1EAD9
330
18
100
AcDbEntity
  8
01
100
AcDbCircle
 10
44.05379638457686
 20
-546.1773762028497
 30
0.0
 40
1.0
100
AcDbArc
 50
263.8221161848563
 51
24.56963039246185
  0
LINE
  5
1EADA
330
18
100
AcDbEntity
  8
01
100
AcDbLine
 10
42.37068957464862
 20
-540.090988536662
 30
0.0
 11
44.96325301536831
 21
-545.7615774093096
 31
0.0
  0
ARC
  5
1EADB
330
18
100
AcDbEntity
  8
01
100
AcDbCircle
 10
32.7054849261807
 20
-759.3316873682256
 30
0.0
 40
220.0
100
AcDbArc
 50
87.70867053812488
 51
113.6852369925743
  0
ARC
  5
1EADC
330
18
100
AcDbEntity
  8
01
100
AcDbCircle
 10
-43.93519779584258
 20
-585.4723433849272
 30
0.0
 40
30.0
100
AcDbArc
 50
113.0290216517027
 51
143.7494790456022
  0
ARC
  5
1EADD
330
18
100
AcDbEntity
  8
01
100
AcDbCircle
 10
67.32193540273767
 20
-568.3241509406417
 30
0.0
 40
1.0
210
0.0
220
0.0
230
-1.0
100
AcDbArc
 50
344.9358354199663
 51
36.25052095472446
  0
ARC
  5
1EADF
330
18
100
AcDbEntity
  8
01
100
AcDbCircle
 10
67.4592668363581
 20
-568.0237725247748
 30
0.0
 40
1.0
210
0.0
220
0.0
230
-1.0
100
AcDbArc
 50
245.4303696068354
 51
325.9249037940754
  0
ARC
  5
1EAE1
330
18
100
AcDbEntity
  8
01
100
AcDbCircle
 10
79.8629292523944
 20
-543.97378969632
 30
0.0
 40
30.0000000000004
210
0.0
220
0.0
230
-1.0
100
AcDbArc
 50
216.8499236219226
 51
219.1967057689245
  0
ARC
  5
1EAE3
330
18
100
AcDbEntity
  8
01
100
AcDbCircle
 10
79.86293231156662
 20
-543.973790638089
 30
0.0
 40
30.20000000000014
210
0.0
220
0.0
230
-1.0
100
AcDbArc
 50
219.9644961827211
 51
236.1560967418824
  0
ARC
  5
1EAE4
330
18
100
AcDbEntity
  8
01
100
AcDbCircle
 10
-63.32204599244008
 20
-568.6413620584285
 30
0.0
 40
0.4999999999999999
100
AcDbArc
 50
250.32906403084
 51
303.8439032581176
  0
ARC
  5
1EAE5
330
18
100
AcDbEntity
  8
01
100
AcDbCircle
 10
-57.09958694801219
 20
-563.05048080854
 30
0.0
 40
0.4999999999999999
100
AcDbArc
 50
320.0355038172789
 51
13.55021416489808
  0
LINE
  5
1EAE6
330
18
100
AcDbEntity
  8
01
100
AcDbLine
 10
-66.23061792896544
 20
-570.6975635312617
 30
0.0
 11
-67.03782803264137
 21
-568.9306540571264
 31
0.0
  0
LINE
  5
1EAE8
330
18
100
AcDbEntity
  8
01
100
AcDbLine
 10
-119.984186071302
 20
-570.6975635312623
 30
0.0
 11
-119.984186071302
 21
-569.3613748395148
 31
0.0
  0
LINE
  5
1EAEA
330
18
100
AcDbEntity
  8
01
100
AcDbLine
 10
-120.984186071302
 20
-569.3613748395148
 30
0.0
 11
-120.984186071302
 21
-570.6975635312623
 31
0.0
  0
LINE
  5
1EAEB
330
18
100
AcDbEntity
  8
01
100
AcDbLine
 10
-117.984186071302
 20
-570.6975635312623
 30
0.0
 11
-117.984186071302
 21
-569.3613748395148
 31
0.0
  0
LINE
  5
1EAED
330
18
100
AcDbEntity
  8
01
100
AcDbLine
 10
-118.984186071302
 20
-569.3613748395148
 30
0.0
 11
-118.984186071302
 21
-570.6975635312623
 31
0.0
  0
LINE
  5
1EAEE
330
18
100
AcDbEntity
  8
01
100
AcDbLine
 10
-115.984186071302
 20
-570.6975635312623
 30
0.0
 11
-115.984186071302
 21
-569.3613748395148
 31
0.0
  0
LINE
  5
1EAF0
330
18
100
AcDbEntity
  8
01
100
AcDbLine
 10
-116.984186071302
 20
-569.3613748395148
 30
0.0
 11
-116.984186071302
 21
-570.6975635312623
 31
0.0
  0
LINE
  5
1EAF1
330
18
100
AcDbEntity
  8
01
100
AcDbLine
 10
-113.984186071302
 20
-570.6975635312623
 30
0.0
 11
-113.984186071302
 21
-569.3613748395148
 31
0.0
  0
LINE
  5
1EAF3
330
18
100
AcDbEntity
  8
01
100
AcDbLine
 10
-114.984186071302
 20
-569.3613748395148
 30
0.0
 11
-114.984186071302
 21
-570.6975635312623
 31
0.0
  0
LINE
  5
1EAF4
330
18
100
AcDbEntity
  8
01
100
AcDbLine
 10
-109.4841898859988
 20
-570.6975635312624
 30
0.0
 11
-109.4841898859988
 21
-569.3613748395148
 31
0.0
  0
LINE
  5
1EAF6
330
18
100
AcDbEntity
  8
01
100
AcDbLine
 10
-112.984186071302
 20
-569.3613748395148
 30
0.0
 11
-112.984186071302
 21
-570.6975635312623
 31
0.0
  0
LINE
  5
1EAF8
330
18
100
AcDbEntity
  8
01
100
AcDbLine
 10
-112.984186071302
 20
-569.3613748395148
 30
0.0
 11
-111.984186071302
 21
-569.3613748395148
 31
0.0
  0
LINE
  5
1EAFA
330
18
100
AcDbEntity
  8
01
100
AcDbLine
 10
-114.984186071302
 20
-569.3613748395148
 30
0.0
 11
-113.984186071302
 21
-569.3613748395148
 31
0.0
  0
LINE
  5
1EAFC
330
18
100
AcDbEntity
  8
01
100
AcDbLine
 10
-116.984186071302
 20
-569.3613748395148
 30
0.0
 11
-115.984186071302
 21
-569.3613748395148
 31
0.0
  0
LINE
  5
1EAFE
330
18
100
AcDbEntity
  8
01
100
AcDbLine
 10
-118.984186071302
 20
-569.3613748395148
 30
0.0
 11
-117.984186071302
 21
-569.3613748395148
 31
0.0
  0
LINE
  5
1EB00
330
18
100
AcDbEntity
  8
01
100
AcDbLine
 10
-120.984186071302
 20
-569.3613748395148
 30
0.0
 11
-119.984186071302
 21
-569.3613748395148
 31
0.0
  0
LINE
  5
1EB01
330
18
100
AcDbEntity
  8
01
100
AcDbLine
 10
-139.984186071302
 20
-570.6975635312623
 30
0.0
 11
-139.984186071302
 21
-569.3613748395148
 31
0.0
  0
LINE
  5
1EB03
330
18
100
AcDbEntity
  8
01
100
AcDbLine
 10
-140.984186071302
 20
-569.3613748395148
 30
0.0
 11
-140.984186071302
 21
-570.6975635312623
 31
0.0
  0
LINE
  5
1EB04
330
18
100
AcDbEntity
  8
01
100
AcDbLine
 10
-137.984186071302
 20
-570.6975635312623
 30
0.0
 11
-137.984186071302
 21
-569.3613748395148
 31
0.0
  0
LINE
  5
1EB06
330
18
100
AcDbEntity
  8
01
100
AcDbLine
 10
-138.984186071302
 20
-569.3613748395148
 30
0.0
 11
-138.984186071302
 21
-570.6975635312623
 31
0.0
  0
LINE
  5
1EB07
330
18
100
AcDbEntity
  8
01
100
AcDbLine
 10
-135.984186071302
 20
-570.6975635312623
 30
0.0
 11
-135.984186071302
 21
-569.3613748395148
 31
0.0
  0
LINE
  5
1EB09
330
18
100
AcDbEntity
  8
01
100
AcDbLine
 10
-136.984186071302
 20
-569.3613748395148
 30
0.0
 11
-136.984186071302
 21
-570.6975635312624
 31
0.0
  0
LINE
  5
1EB0A
330
18
100
AcDbEntity
  8
01
100
AcDbLine
 10
-133.984186071302
 20
-570.6975635312623
 30
0.0
 11
-133.984186071302
 21
-569.3613748395148
 31
0.0
  0
LINE
  5
1EB0C
330
18
100
AcDbEntity
  8
01
100
AcDbLine
 10
-134.984186071302
 20
-569.3613748395148
 30
0.0
 11
-134.984186071302
 21
-570.6975635312623
 31
0.0
  0
LINE
  5
1EB0D
330
18
100
AcDbEntity
  8
01
100
AcDbLine
 10
-131.984186071302
 20
-570.6975635312623
 30
0.0
 11
-131.984186071302
 21
-569.3613748395148
 31
0.0
  0
LINE
  5
1EB0F
330
18
100
AcDbEntity
  8
01
100
AcDbLine
 10
-132.984186071302
 20
-569.3613748395148
 30
0.0
 11
-132.984186071302
 21
-570.6975635312623
 31
0.0
  0
LINE
  5
1EB10
330
18
100
AcDbEntity
  8
01
100
AcDbLine
 10
-129.984186071302
 20
-570.6975635312623
 30
0.0
 11
-129.984186071302
 21
-569.3613748395148
 31
0.0
  0
LINE
  5
1EB12
330
18
100
AcDbEntity
  8
01
100
AcDbLine
 10
-130.984186071302
 20
-569.3613748395148
 30
0.0
 11
-130.984186071302
 21
-570.6975635312623
 31
0.0
  0
LINE
  5
1EB13
330
18
100
AcDbEntity
  8
01
100
AcDbLine
 10
-127.984186071302
 20
-570.6975635312623
 30
0.0
 11
-127.984186071302
 21
-569.3613748395148
 31
0.0
  0
LINE
  5
1EB15
330
18
100
AcDbEntity
  8
01
100
AcDbLine
 10
-128.984186071302
 20
-569.3613748395148
 30
0.0
 11
-128.984186071302
 21
-570.6975635312623
 31
0.0
  0
LINE
  5
1EB16
330
18
100
AcDbEntity
  8
01
100
AcDbLine
 10
-125.984186071302
 20
-570.6975635312624
 30
0.0
 11
-125.984186071302
 21
-569.3613748395148
 31
0.0
  0
LINE
  5
1EB18
330
18
100
AcDbEntity
  8
01
100
AcDbLine
 10
-126.984186071302
 20
-569.3613748395148
 30
0.0
 11
-126.984186071302
 21
-570.6975635312623
 31
0.0
  0
LINE
  5
1EB19
330
18
100
AcDbEntity
  8
01
100
AcDbLine
 10
-123.984186071302
 20
-570.6975635312623
 30
0.0
 11
-123.984186071302
 21
-569.3613748395148
 31
0.0
  0
LINE
  5
1EB1B
330
18
100
AcDbEntity
  8
01
100
AcDbLine
 10
-124.984186071302
 20
-569.3613748395148
 30
0.0
 11
-124.984186071302
 21
-570.6975635312623
 31
0.0
  0
LINE
  5
1EB1C
330
18
100
AcDbEntity
  8
01
100
AcDbLine
 10
-121.984186071302
 20
-570.6975635312623
 30
0.0
 11
-121.984186071302
 21
-569.3613748395148
 31
0.0
  0
LINE
  5
1EB1E
330
18
100
AcDbEntity
  8
01
100
AcDbLine
 10
-122.984186071302
 20
-569.3613748395148
 30
0.0
 11
-122.984186071302
 21
-570.6975635312623
 31
0.0
  0
LINE
  5
1EB20
330
18
100
AcDbEntity
  8
01
100
AcDbLine
 10
-122.984186071302
 20
-569.3613748395148
 30
0.0
 11
-121.984186071302
 21
-569.3613748395148
 31
0.0
  0
LINE
  5
1EB22
330
18
100
AcDbEntity
  8
01
100
AcDbLine
 10
-124.984186071302
 20
-569.3613748395148
 30
0.0
 11
-123.984186071302
 21
-569.3613748395148
 31
0.0
  0
LINE
  5
1EB24
330
18
100
AcDbEntity
  8
01
100
AcDbLine
 10
-126.984186071302
 20
-569.3613748395148
 30
0.0
 11
-125.984186071302
 21
-569.3613748395148
 31
0.0
  0
LINE
  5
1EB26
330
18
100
AcDbEntity
  8
01
100
AcDbLine
 10
-127.984186071302
 20
-569.3613748395148
 30
0.0
 11
-128.984186071302
 21
-569.3613748395148
 31
0.0
  0
LINE
  5
1EB28
330
18
100
AcDbEntity
  8
01
100
AcDbLine
 10
-129.984186071302
 20
-569.3613748395148
 30
0.0
 11
-130.984186071302
 21
-569.3613748395148
 31
0.0
  0
LINE
  5
1EB2A
330
18
100
AcDbEntity
  8
01
100
AcDbLine
 10
-131.984186071302
 20
-569.3613748395148
 30
0.0
 11
-132.984186071302
 21
-569.3613748395148
 31
0.0
  0
LINE
  5
1EB2C
330
18
100
AcDbEntity
  8
01
100
AcDbLine
 10
-133.984186071302
 20
-569.3613748395148
 30
0.0
 11
-134.984186071302
 21
-569.3613748395148
 31
0.0
  0
LINE
  5
1EB2E
330
18
100
AcDbEntity
  8
01
100
AcDbLine
 10
-135.984186071302
 20
-569.3613748395148
 30
0.0
 11
-136.984186071302
 21
-569.3613748395148
 31
0.0
  0
LINE
  5
1EB30
330
18
100
AcDbEntity
  8
01
100
AcDbLine
 10
-137.984186071302
 20
-569.3613748395148
 30
0.0
 11
-138.984186071302
 21
-569.3613748395148
 31
0.0
  0
LINE
  5
1EB32
330
18
100
AcDbEntity
  8
01
100
AcDbLine
 10
-139.984186071302
 20
-569.3613748395148
 30
0.0
 11
-140.984186071302
 21
-569.3613748395148
 31
0.0
  0
LINE
  5
1EB33
330
18
100
AcDbEntity
  8
01
100
AcDbLine
 10
-159.984186071302
 20
-570.6975635312623
 30
0.0
 11
-159.984186071302
 21
-569.3613748395148
 31
0.0
  0
LINE
  5
1EB35
330
18
100
AcDbEntity
  8
01
100
AcDbLine
 10
-160.984186071302
 20
-569.3613748395148
 30
0.0
 11
-160.984186071302
 21
-570.6975635312623
 31
0.0
  0
LINE
  5
1EB36
330
18
100
AcDbEntity
  8
01
100
AcDbLine
 10
-157.984186071302
 20
-570.6975635312623
 30
0.0
 11
-157.984186071302
 21
-569.3613748395148
 31
0.0
  0
LINE
  5
1EB38
330
18
100
AcDbEntity
  8
01
100
AcDbLine
 10
-158.984186071302
 20
-569.3613748395148
 30
0.0
 11
-158.984186071302
 21
-570.6975635312623
 31
0.0
  0
LINE
  5
1EB39
330
18
100
AcDbEntity
  8
01
100
AcDbLine
 10
-155.984186071302
 20
-570.6975635312623
 30
0.0
 11
-155.984186071302
 21
-569.3613748395148
 31
0.0
  0
LINE
  5
1EB3B
330
18
100
AcDbEntity
  8
01
100
AcDbLine
 10
-156.984186071302
 20
-569.3613748395148
 30
0.0
 11
-156.984186071302
 21
-570.6975635312623
 31
0.0
  0
LINE
  5
1EB3C
330
18
100
AcDbEntity
  8
01
100
AcDbLine
 10
-153.984186071302
 20
-570.6975635312623
 30
0.0
 11
-153.984186071302
 21
-569.3613748395148
 31
0.0
  0
LINE
  5
1EB3E
330
18
100
AcDbEntity
  8
01
100
AcDbLine
 10
-154.984186071302
 20
-569.3613748395148
 30
0.0
 11
-154.984186071302
 21
-570.6975635312623
 31
0.0
  0
LINE
  5
1EB3F
330
18
100
AcDbEntity
  8
01
100
AcDbLine
 10
-151.984186071302
 20
-570.6975635312623
 30
0.0
 11
-151.984186071302
 21
-569.3613748395148
 31
0.0
  0
LINE
  5
1EB41
330
18
100
AcDbEntity
  8
01
100
AcDbLine
 10
-152.984186071302
 20
-569.3613748395148
 30
0.0
 11
-152.984186071302
 21
-570.6975635312623
 31
0.0
  0
LINE
  5
1EB42
330
18
100
AcDbEntity
  8
01
100
AcDbLine
 10
-149.984186071302
 20
-570.6975635312623
 30
0.0
 11
-149.984186071302
 21
-569.3613748395148
 31
0.0
  0
LINE
  5
1EB44
330
18
100
AcDbEntity
  8
01
100
AcDbLine
 10
-150.984186071302
 20
-569.3613748395148
 30
0.0
 11
-150.984186071302
 21
-570.6975635312623
 31
0.0
  0
LINE
  5
1EB45
330
18
100
AcDbEntity
  8
01
100
AcDbLine
 10
-147.984186071302
 20
-570.6975635312623
 30
0.0
 11
-147.984186071302
 21
-569.3613748395148
 31
0.0
  0
LINE
  5
1EB47
330
18
100
AcDbEntity
  8
01
100
AcDbLine
 10
-148.984186071302
 20
-569.3613748395148
 30
0.0
 11
-148.984186071302
 21
-570.6975635312623
 31
0.0
  0
LINE
  5
1EB48
330
18
100
AcDbEntity
  8
01
100
AcDbLine
 10
-145.984186071302
 20
-570.6975635312623
 30
0.0
 11
-145.984186071302
 21
-569.3613748395148
 31
0.0
  0
LINE
  5
1EB4A
330
18
100
AcDbEntity
  8
01
100
AcDbLine
 10
-146.984186071302
 20
-569.3613748395148
 30
0.0
 11
-146.984186071302
 21
-570.6975635312623
 31
0.0
  0
LINE
  5
1EB4B
330
18
100
AcDbEntity
  8
01
100
AcDbLine
 10
-143.984186071302
 20
-570.6975635312623
 30
0.0
 11
-143.984186071302
 21
-569.3613748395148
 31
0.0
  0
LINE
  5
1EB4D
330
18
100
AcDbEntity
  8
01
100
AcDbLine
 10
-144.984186071302
 20
-569.3613748395148
 30
0.0
 11
-144.984186071302
 21
-570.6975635312623
 31
0.0
  0
LINE
  5
1EB4E
330
18
100
AcDbEntity
  8
01
100
AcDbLine
 10
-141.984186071302
 20
-570.6975635312623
 30
0.0
 11
-141.984186071302
 21
-569.3613748395148
 31
0.0
  0
LINE
  5
1EB50
330
18
100
AcDbEntity
  8
01
100
AcDbLine
 10
-142.984186071302
 20
-569.3613748395148
 30
0.0
 11
-142.984186071302
 21
-570.6975635312623
 31
0.0
  0
LINE
  5
1EB52
330
18
100
AcDbEntity
  8
01
100
AcDbLine
 10
-141.984186071302
 20
-569.3613748395148
 30
0.0
 11
-142.984186071302
 21
-569.3613748395148
 31
0.0
  0
LINE
  5
1EB54
330
18
100
AcDbEntity
  8
01
100
AcDbLine
 10
-143.984186071302
 20
-569.3613748395148
 30
0.0
 11
-144.984186071302
 21
-569.3613748395148
 31
0.0
  0
LINE
  5
1EB56
330
18
100
AcDbEntity
  8
01
100
AcDbLine
 10
-145.984186071302
 20
-569.3613748395148
 30
0.0
 11
-146.984186071302
 21
-569.3613748395148
 31
0.0
  0
LINE
  5
1EB58
330
18
100
AcDbEntity
  8
01
100
AcDbLine
 10
-147.984186071302
 20
-569.3613748395148
 30
0.0
 11
-148.984186071302
 21
-569.3613748395148
 31
0.0
  0
LINE
  5
1EB5A
330
18
100
AcDbEntity
  8
01
100
AcDbLine
 10
-149.984186071302
 20
-569.3613748395148
 30
0.0
 11
-150.984186071302
 21
-569.3613748395148
 31
0.0
  0
LINE
  5
1EB5C
330
18
100
AcDbEntity
  8
01
100
AcDbLine
 10
-151.984186071302
 20
-569.3613748395148
 30
0.0
 11
-152.984186071302
 21
-569.3613748395148
 31
0.0
  0
LINE
  5
1EB5E
330
18
100
AcDbEntity
  8
01
100
AcDbLine
 10
-153.984186071302
 20
-569.3613748395148
 30
0.0
 11
-154.984186071302
 21
-569.3613748395148
 31
0.0
  0
LINE
  5
1EB60
330
18
100
AcDbEntity
  8
01
100
AcDbLine
 10
-155.984186071302
 20
-569.3613748395148
 30
0.0
 11
-156.984186071302
 21
-569.3613748395148
 31
0.0
  0
LINE
  5
1EB62
330
18
100
AcDbEntity
  8
01
100
AcDbLine
 10
-157.984186071302
 20
-569.3613748395148
 30
0.0
 11
-158.984186071302
 21
-569.3613748395148
 31
0.0
  0
LINE
  5
1EB64
330
18
100
AcDbEntity
  8
01
100
AcDbLine
 10
-159.984186071302
 20
-569.3613748395148
 30
0.0
 11
-160.984186071302
 21
-569.3613748395148
 31
0.0
  0
LINE
  5
1EB65
330
18
100
AcDbEntity
  8
01
100
AcDbLine
 10
-179.984186071302
 20
-570.6975635312623
 30
0.0
 11
-179.984186071302
 21
-569.3613748395148
 31
0.0
  0
LINE
  5
1EB67
330
18
100
AcDbEntity
  8
01
100
AcDbLine
 10
-180.984186071302
 20
-569.3613748395148
 30
0.0
 11
-180.984186071302
 21
-570.6975635312623
 31
0.0
  0
LINE
  5
1EB68
330
18
100
AcDbEntity
  8
01
100
AcDbLine
 10
-177.984186071302
 20
-570.6975635312623
 30
0.0
 11
-177.984186071302
 21
-569.3613748395148
 31
0.0
  0
LINE
  5
1EB6A
330
18
100
AcDbEntity
  8
01
100
AcDbLine
 10
-178.984186071302
 20
-569.3613748395148
 30
0.0
 11
-178.984186071302
 21
-570.6975635312623
 31
0.0
  0
LINE
  5
1EB6B
330
18
100
AcDbEntity
  8
01
100
AcDbLine
 10
-175.984186071302
 20
-570.6975635312623
 30
0.0
 11
-175.984186071302
 21
-569.3613748395148
 31
0.0
  0
LINE
  5
1EB6D
330
18
100
AcDbEntity
  8
01
100
AcDbLine
 10
-176.984186071302
 20
-569.3613748395148
 30
0.0
 11
-176.984186071302
 21
-570.6975635312623
 31
0.0
  0
LINE
  5
1EB6E
330
18
100
AcDbEntity
  8
01
100
AcDbLine
 10
-173.984186071302
 20
-570.6975635312623
 30
0.0
 11
-173.984186071302
 21
-569.3613748395148
 31
0.0
  0
LINE
  5
1EB70
330
18
100
AcDbEntity
  8
01
100
AcDbLine
 10
-174.984186071302
 20
-569.3613748395148
 30
0.0
 11
-174.984186071302
 21
-570.6975635312623
 31
0.0
  0
LINE
  5
1EB71
330
18
100
AcDbEntity
  8
01
100
AcDbLine
 10
-171.984186071302
 20
-570.6975635312623
 30
0.0
 11
-171.984186071302
 21
-569.3613748395148
 31
0.0
  0
LINE
  5
1EB73
330
18
100
AcDbEntity
  8
01
100
AcDbLine
 10
-172.984186071302
 20
-569.3613748395148
 30
0.0
 11
-172.984186071302
 21
-570.6975635312623
 31
0.0
  0
LINE
  5
1EB74
330
18
100
AcDbEntity
  8
01
100
AcDbLine
 10
-169.984186071302
 20
-570.6975635312623
 30
0.0
 11
-169.984186071302
 21
-569.3613748395148
 31
0.0
  0
LINE
  5
1EB76
330
18
100
AcDbEntity
  8
01
100
AcDbLine
 10
-170.984186071302
 20
-569.3613748395148
 30
0.0
 11
-170.984186071302
 21
-570.6975635312623
 31
0.0
  0
LINE
  5
1EB77
330
18
100
AcDbEntity
  8
01
100
AcDbLine
 10
-167.984186071302
 20
-570.6975635312623
 30
0.0
 11
-167.984186071302
 21
-569.3613748395148
 31
0.0
  0
LINE
  5
1EB79
330
18
100
AcDbEntity
  8
01
100
AcDbLine
 10
-168.984186071302
 20
-569.3613748395148
 30
0.0
 11
-168.984186071302
 21
-570.6975635312623
 31
0.0
  0
LINE
  5
1EB7A
330
18
100
AcDbEntity
  8
01
100
AcDbLine
 10
-165.984186071302
 20
-570.6975635312623
 30
0.0
 11
-165.984186071302
 21
-569.3613748395148
 31
0.0
  0
LINE
  5
1EB7C
330
18
100
AcDbEntity
  8
01
100
AcDbLine
 10
-166.984186071302
 20
-569.3613748395148
 30
0.0
 11
-166.984186071302
 21
-570.6975635312623
 31
0.0
  0
LINE
  5
1EB7D
330
18
100
AcDbEntity
  8
01
100
AcDbLine
 10
-163.984186071302
 20
-570.6975635312623
 30
0.0
 11
-163.984186071302
 21
-569.3613748395148
 31
0.0
  0
LINE
  5
1EB7F
330
18
100
AcDbEntity
  8
01
100
AcDbLine
 10
-164.984186071302
 20
-569.3613748395148
 30
0.0
 11
-164.984186071302
 21
-570.6975635312623
 31
0.0
  0
LINE
  5
1EB80
330
18
100
AcDbEntity
  8
01
100
AcDbLine
 10
-161.984186071302
 20
-570.6975635312623
 30
0.0
 11
-161.984186071302
 21
-569.3613748395148
 31
0.0
  0
LINE
  5
1EB82
330
18
100
AcDbEntity
  8
01
100
AcDbLine
 10
-162.984186071302
 20
-569.3613748395148
 30
0.0
 11
-162.984186071302
 21
-570.6975635312623
 31
0.0
  0
LINE
  5
1EB84
330
18
100
AcDbEntity
  8
01
100
AcDbLine
 10
-161.984186071302
 20
-569.3613748395148
 30
0.0
 11
-162.984186071302
 21
-569.3613748395148
 31
0.0
  0
LINE
  5
1EB86
330
18
100
AcDbEntity
  8
01
100
AcDbLine
 10
-163.984186071302
 20
-569.3613748395148
 30
0.0
 11
-164.984186071302
 21
-569.3613748395148
 31
0.0
  0
LINE
  5
1EB88
330
18
100
AcDbEntity
  8
01
100
AcDbLine
 10
-165.984186071302
 20
-569.3613748395148
 30
0.0
 11
-166.984186071302
 21
-569.3613748395148
 31
0.0
  0
LINE
  5
1EB8A
330
18
100
AcDbEntity
  8
01
100
AcDbLine
 10
-167.984186071302
 20
-569.3613748395148
 30
0.0
 11
-168.984186071302
 21
-569.3613748395148
 31
0.0
  0
LINE
  5
1EB8C
330
18
100
AcDbEntity
  8
01
100
AcDbLine
 10
-169.984186071302
 20
-569.3613748395148
 30
0.0
 11
-170.984186071302
 21
-569.3613748395148
 31
0.0
  0
LINE
  5
1EB8E
330
18
100
AcDbEntity
  8
01
100
AcDbLine
 10
-171.984186071302
 20
-569.3613748395148
 30
0.0
 11
-172.984186071302
 21
-569.3613748395148
 31
0.0
  0
LINE
  5
1EB90
330
18
100
AcDbEntity
  8
01
100
AcDbLine
 10
-173.984186071302
 20
-569.3613748395148
 30
0.0
 11
-174.984186071302
 21
-569.3613748395148
 31
0.0
  0
LINE
  5
1EB92
330
18
100
AcDbEntity
  8
01
100
AcDbLine
 10
-175.984186071302
 20
-569.3613748395148
 30
0.0
 11
-176.984186071302
 21
-569.3613748395148
 31
0.0
  0
LINE
  5
1EB94
330
18
100
AcDbEntity
  8
01
100
AcDbLine
 10
-177.984186071302
 20
-569.3613748395148
 30
0.0
 11
-178.984186071302
 21
-569.3613748395148
 31
0.0
  0
LINE
  5
1EB96
330
18
100
AcDbEntity
  8
01
100
AcDbLine
 10
-179.984186071302
 20
-569.3613748395148
 30
0.0
 11
-180.984186071302
 21
-569.3613748395148
 31
0.0
  0
LINE
  5
1EB97
330
18
100
AcDbEntity
  8
01
100
AcDbLine
 10
-209.984186071302
 20
-570.6975635312623
 30
0.0
 11
-209.984186071302
 21
-569.3613748395148
 31
0.0
  0
LINE
  5
1EB99
330
18
100
AcDbEntity
  8
01
100
AcDbLine
 10
-210.984186071302
 20
-569.3613748395148
 30
0.0
 11
-210.984186071302
 21
-570.6975635312623
 31
0.0
  0
LINE
  5
1EB9A
330
18
100
AcDbEntity
  8
01
100
AcDbLine
 10
-207.984186071302
 20
-570.6975635312623
 30
0.0
 11
-207.984186071302
 21
-569.3613748395148
 31
0.0
  0
LINE
  5
1EB9C
330
18
100
AcDbEntity
  8
01
100
AcDbLine
 10
-208.984186071302
 20
-569.3613748395148
 30
0.0
 11
-208.984186071302
 21
-570.6975635312623
 31
0.0
  0
LINE
  5
1EB9D
330
18
100
AcDbEntity
  8
01
100
AcDbLine
 10
-205.984186071302
 20
-570.6975635312624
 30
0.0
 11
-205.984186071302
 21
-569.3613748395148
 31
0.0
  0
LINE
  5
1EB9F
330
18
100
AcDbEntity
  8
01
100
AcDbLine
 10
-206.984186071302
 20
-569.3613748395148
 30
0.0
 11
-206.984186071302
 21
-570.6975635312623
 31
0.0
  0
LINE
  5
1EBA0
330
18
100
AcDbEntity
  8
01
100
AcDbLine
 10
-203.984186071302
 20
-570.6975635312623
 30
0.0
 11
-203.984186071302
 21
-569.3613748395148
 31
0.0
  0
LINE
  5
1EBA2
330
18
100
AcDbEntity
  8
01
100
AcDbLine
 10
-204.984186071302
 20
-569.3613748395148
 30
0.0
 11
-204.984186071302
 21
-570.6975635312623
 31
0.0
  0
LINE
  5
1EBA3
330
18
100
AcDbEntity
  8
01
100
AcDbLine
 10
-201.984186071302
 20
-570.6975635312623
 30
0.0
 11
-201.984186071302
 21
-569.3613748395148
 31
0.0
  0
LINE
  5
1EBA5
330
18
100
AcDbEntity
  8
01
100
AcDbLine
 10
-202.984186071302
 20
-569.3613748395148
 30
0.0
 11
-202.984186071302
 21
-570.6975635312623
 31
0.0
  0
LINE
  5
1EBA6
330
18
100
AcDbEntity
  8
01
100
AcDbLine
 10
-199.984186071302
 20
-570.6975635312623
 30
0.0
 11
-199.984186071302
 21
-569.3613748395148
 31
0.0
  0
LINE
  5
1EBA8
330
18
100
AcDbEntity
  8
01
100
AcDbLine
 10
-200.984186071302
 20
-569.3613748395148
 30
0.0
 11
-200.984186071302
 21
-570.6975635312623
 31
0.0
  0
LINE
  5
1EBA9
330
18
100
AcDbEntity
  8
01
100
AcDbLine
 10
-197.984186071302
 20
-570.6975635312623
 30
0.0
 11
-197.984186071302
 21
-569.3613748395148
 31
0.0
  0
LINE
  5
1EBAB
330
18
100
AcDbEntity
  8
01
100
AcDbLine
 10
-198.984186071302
 20
-569.3613748395148
 30
0.0
 11
-198.984186071302
 21
-570.6975635312623
 31
0.0
  0
LINE
  5
1EBAC
330
18
100
AcDbEntity
  8
01
100
AcDbLine
 10
-195.984186071302
 20
-570.6975635312623
 30
0.0
 11
-195.984186071302
 21
-569.3613748395148
 31
0.0
  0
LINE
  5
1EBAE
330
18
100
AcDbEntity
  8
01
100
AcDbLine
 10
-196.984186071302
 20
-569.3613748395148
 30
0.0
 11
-196.984186071302
 21
-570.6975635312623
 31
0.0
  0
LINE
  5
1EBAF
330
18
100
AcDbEntity
  8
01
100
AcDbLine
 10
-193.984186071302
 20
-570.6975635312623
 30
0.0
 11
-193.984186071302
 21
-569.3613748395148
 31
0.0
  0
LINE
  5
1EBB1
330
18
100
AcDbEntity
  8
01
100
AcDbLine
 10
-194.984186071302
 20
-569.3613748395148
 30
0.0
 11
-194.984186071302
 21
-570.6975635312623
 31
0.0
  0
LINE
  5
1EBB2
330
18
100
AcDbEntity
  8
01
100
AcDbLine
 10
-191.984186071302
 20
-570.6975635312623
 30
0.0
 11
-191.984186071302
 21
-569.3613748395148
 31
0.0
  0
LINE
  5
1EBB4
330
18
100
AcDbEntity
  8
01
100
AcDbLine
 10
-192.984186071302
 20
-569.3613748395148
 30
0.0
 11
-192.984186071302
 21
-570.6975635312623
 31
0.0
  0
LINE
  5
1EBB5
330
18
100
AcDbEntity
  8
01
100
AcDbLine
 10
-189.984186071302
 20
-570.6975635312623
 30
0.0
 11
-189.984186071302
 21
-569.3613748395148
 31
0.0
  0
LINE
  5
1EBB7
330
18
100
AcDbEntity
  8
01
100
AcDbLine
 10
-190.984186071302
 20
-569.3613748395148
 30
0.0
 11
-190.984186071302
 21
-570.6975635312623
 31
0.0
  0
LINE
  5
1EBB8
330
18
100
AcDbEntity
  8
01
100
AcDbLine
 10
-187.984186071302
 20
-570.6975635312623
 30
0.0
 11
-187.984186071302
 21
-569.3613748395148
 31
0.0
  0
LINE
  5
1EBBA
330
18
100
AcDbEntity
  8
01
100
AcDbLine
 10
-188.984186071302
 20
-569.3613748395148
 30
0.0
 11
-188.984186071302
 21
-570.6975635312623
 31
0.0
  0
LINE
  5
1EBBB
330
18
100
AcDbEntity
  8
01
100
AcDbLine
 10
-185.984186071302
 20
-570.6975635312623
 30
0.0
 11
-185.984186071302
 21
-569.3613748395148
 31
0.0
  0
LINE
  5
1EBBD
330
18
100
AcDbEntity
  8
01
100
AcDbLine
 10
-186.984186071302
 20
-569.3613748395148
 30
0.0
 11
-186.984186071302
 21
-570.6975635312623
 31
0.0
  0
LINE
  5
1EBBE
330
18
100
AcDbEntity
  8
01
100
AcDbLine
 10
-183.984186071302
 20
-570.6975635312623
 30
0.0
 11
-183.984186071302
 21
-569.3613748395148
 31
0.0
  0
LINE
  5
1EBC0
330
18
100
AcDbEntity
  8
01
100
AcDbLine
 10
-184.984186071302
 20
-569.3613748395148
 30
0.0
 11
-184.984186071302
 21
-570.6975635312623
 31
0.0
  0
LINE
  5
1EBC1
330
18
100
AcDbEntity
  8
01
100
AcDbLine
 10
-181.984186071302
 20
-570.6975635312623
 30
0.0
 11
-181.984186071302
 21
-569.3613748395148
 31
0.0
  0
LINE
  5
1EBC3
330
18
100
AcDbEntity
  8
01
100
AcDbLine
 10
-182.984186071302
 20
-569.3613748395148
 30
0.0
 11
-182.984186071302
 21
-570.6975635312623
 31
0.0
  0
LINE
  5
1EBC5
330
18
100
AcDbEntity
  8
01
100
AcDbLine
 10
-181.984186071302
 20
-569.3613748395148
 30
0.0
 11
-182.984186071302
 21
-569.3613748395148
 31
0.0
  0
LINE
  5
1EBC7
330
18
100
AcDbEntity
  8
01
100
AcDbLine
 10
-183.984186071302
 20
-569.3613748395148
 30
0.0
 11
-184.984186071302
 21
-569.3613748395148
 31
0.0
  0
LINE
  5
1EBC9
330
18
100
AcDbEntity
  8
01
100
AcDbLine
 10
-185.984186071302
 20
-569.3613748395148
 30
0.0
 11
-186.984186071302
 21
-569.3613748395148
 31
0.0
  0
LINE
  5
1EBCB
330
18
100
AcDbEntity
  8
01
100
AcDbLine
 10
-187.984186071302
 20
-569.3613748395148
 30
0.0
 11
-188.984186071302
 21
-569.3613748395148
 31
0.0
  0
LINE
  5
1EBCD
330
18
100
AcDbEntity
  8
01
100
AcDbLine
 10
-189.984186071302
 20
-569.3613748395148
 30
0.0
 11
-190.984186071302
 21
-569.3613748395148
 31
0.0
  0
LINE
  5
1EBCF
330
18
100
AcDbEntity
  8
01
100
AcDbLine
 10
-191.984186071302
 20
-569.3613748395148
 30
0.0
 11
-192.984186071302
 21
-569.3613748395148
 31
0.0
  0
LINE
  5
1EBD1
330
18
100
AcDbEntity
  8
01
100
AcDbLine
 10
-193.984186071302
 20
-569.3613748395148
 30
0.0
 11
-194.984186071302
 21
-569.3613748395148
 31
0.0
  0
LINE
  5
1EBD3
330
18
100
AcDbEntity
  8
01
100
AcDbLine
 10
-195.984186071302
 20
-569.3613748395148
 30
0.0
 11
-196.984186071302
 21
-569.3613748395148
 31
0.0
  0
LINE
  5
1EBD5
330
18
100
AcDbEntity
  8
01
100
AcDbLine
 10
-197.984186071302
 20
-569.3613748395148
 30
0.0
 11
-198.984186071302
 21
-569.3613748395148
 31
0.0
  0
LINE
  5
1EBD7
330
18
100
AcDbEntity
  8
01
100
AcDbLine
 10
-199.984186071302
 20
-569.3613748395148
 30
0.0
 11
-200.984186071302
 21
-569.3613748395148
 31
0.0
  0
LINE
  5
1EBD9
330
18
100
AcDbEntity
  8
01
100
AcDbLine
 10
-201.984186071302
 20
-569.3613748395148
 30
0.0
 11
-202.984186071302
 21
-569.3613748395148
 31
0.0
  0
LINE
  5
1EBDB
330
18
100
AcDbEntity
  8
01
100
AcDbLine
 10
-203.984186071302
 20
-569.3613748395148
 30
0.0
 11
-204.984186071302
 21
-569.3613748395148
 31
0.0
  0
LINE
  5
1EBDD
330
18
100
AcDbEntity
  8
01
100
AcDbLine
 10
-205.984186071302
 20
-569.3613748395148
 30
0.0
 11
-206.984186071302
 21
-569.3613748395148
 31
0.0
  0
LINE
  5
1EBDF
330
18
100
AcDbEntity
  8
01
100
AcDbLine
 10
-207.984186071302
 20
-569.3613748395148
 30
0.0
 11
-208.984186071302
 21
-569.3613748395148
 31
0.0
  0
LINE
  5
1EBE1
330
18
100
AcDbEntity
  8
01
100
AcDbLine
 10
-209.984186071302
 20
-569.3613748395148
 30
0.0
 11
-210.984186071302
 21
-569.3613748395148
 31
0.0
  0
LINE
  5
1EBE2
330
18
100
AcDbEntity
  8
01
100
AcDbLine
 10
-229.984186071302
 20
-570.6975635312623
 30
0.0
 11
-229.984186071302
 21
-569.3613748395148
 31
0.0
  0
LINE
  5
1EBE4
330
18
100
AcDbEntity
  8
01
100
AcDbLine
 10
-233.4841898859993
 20
-569.3613748395148
 30
0.0
 11
-233.4841898859993
 21
-570.6975635312624
 31
0.0
  0
LINE
  5
1EBE5
330
18
100
AcDbEntity
  8
01
100
AcDbLine
 10
-227.984186071302
 20
-570.6975635312623
 30
0.0
 11
-227.984186071302
 21
-569.3613748395148
 31
0.0
  0
LINE
  5
1EBE7
330
18
100
AcDbEntity
  8
01
100
AcDbLine
 10
-228.984186071302
 20
-569.3613748395148
 30
0.0
 11
-228.984186071302
 21
-570.6975635312623
 31
0.0
  0
LINE
  5
1EBE8
330
18
100
AcDbEntity
  8
01
100
AcDbLine
 10
-225.984186071302
 20
-570.6975635312623
 30
0.0
 11
-225.984186071302
 21
-569.3613748395148
 31
0.0
  0
LINE
  5
1EBEA
330
18
100
AcDbEntity
  8
01
100
AcDbLine
 10
-226.984186071302
 20
-569.3613748395148
 30
0.0
 11
-226.984186071302
 21
-570.6975635312623
 31
0.0
  0
LINE
  5
1EBEB
330
18
100
AcDbEntity
  8
01
100
AcDbLine
 10
-223.984186071302
 20
-570.6975635312623
 30
0.0
 11
-223.984186071302
 21
-569.3613748395148
 31
0.0
  0
LINE
  5
1EBED
330
18
100
AcDbEntity
  8
01
100
AcDbLine
 10
-224.984186071302
 20
-569.3613748395148
 30
0.0
 11
-224.984186071302
 21
-570.6975635312623
 31
0.0
  0
LINE
  5
1EBEE
330
18
100
AcDbEntity
  8
01
100
AcDbLine
 10
-221.984186071302
 20
-570.6975635312623
 30
0.0
 11
-221.984186071302
 21
-569.3613748395148
 31
0.0
  0
LINE
  5
1EBF0
330
18
100
AcDbEntity
  8
01
100
AcDbLine
 10
-222.984186071302
 20
-569.3613748395148
 30
0.0
 11
-222.984186071302
 21
-570.6975635312623
 31
0.0
  0
LINE
  5
1EBF1
330
18
100
AcDbEntity
  8
01
100
AcDbLine
 10
-219.984186071302
 20
-570.6975635312623
 30
0.0
 11
-219.984186071302
 21
-569.3613748395148
 31
0.0
  0
LINE
  5
1EBF3
330
18
100
AcDbEntity
  8
01
100
AcDbLine
 10
-220.984186071302
 20
-569.3613748395148
 30
0.0
 11
-220.984186071302
 21
-570.6975635312623
 31
0.0
  0
LINE
  5
1EBF4
330
18
100
AcDbEntity
  8
01
100
AcDbLine
 10
-217.984186071302
 20
-570.6975635312623
 30
0.0
 11
-217.984186071302
 21
-569.3613748395148
 31
0.0
  0
LINE
  5
1EBF6
330
18
100
AcDbEntity
  8
01
100
AcDbLine
 10
-218.984186071302
 20
-569.3613748395148
 30
0.0
 11
-218.984186071302
 21
-570.6975635312623
 31
0.0
  0
LINE
  5
1EBF7
330
18
100
AcDbEntity
  8
01
100
AcDbLine
 10
-215.984186071302
 20
-570.6975635312623
 30
0.0
 11
-215.984186071302
 21
-569.3613748395148
 31
0.0
  0
LINE
  5
1EBF9
330
18
100
AcDbEntity
  8
01
100
AcDbLine
 10
-216.984186071302
 20
-569.3613748395148
 30
0.0
 11
-216.984186071302
 21
-570.6975635312624
 31
0.0
  0
LINE
  5
1EBFA
330
18
100
AcDbEntity
  8
01
100
AcDbLine
 10
-213.984186071302
 20
-570.6975635312623
 30
0.0
 11
-213.984186071302
 21
-569.3613748395148
 31
0.0
  0
LINE
  5
1EBFC
330
18
100
AcDbEntity
  8
01
100
AcDbLine
 10
-214.984186071302
 20
-569.3613748395148
 30
0.0
 11
-214.984186071302
 21
-570.6975635312623
 31
0.0
  0
LINE
  5
1EBFD
330
18
100
AcDbEntity
  8
01
100
AcDbLine
 10
-211.984186071302
 20
-570.6975635312623
 30
0.0
 11
-211.984186071302
 21
-569.3613748395148
 31
0.0
  0
LINE
  5
1EBFF
330
18
100
AcDbEntity
  8
01
100
AcDbLine
 10
-212.984186071302
 20
-569.3613748395148
 30
0.0
 11
-212.984186071302
 21
-570.6975635312623
 31
0.0
  0
LINE
  5
1EC01
330
18
100
AcDbEntity
  8
01
100
AcDbLine
 10
-211.984186071302
 20
-569.3613748395148
 30
0.0
 11
-212.984186071302
 21
-569.3613748395148
 31
0.0
  0
LINE
  5
1EC03
330
18
100
AcDbEntity
  8
01
100
AcDbLine
 10
-213.984186071302
 20
-569.3613748395148
 30
0.0
 11
-214.984186071302
 21
-569.3613748395148
 31
0.0
  0
LINE
  5
1EC05
330
18
100
AcDbEntity
  8
01
100
AcDbLine
 10
-215.984186071302
 20
-569.3613748395148
 30
0.0
 11
-216.984186071302
 21
-569.3613748395148
 31
0.0
  0
LINE
  5
1EC07
330
18
100
AcDbEntity
  8
01
100
AcDbLine
 10
-217.984186071302
 20
-569.3613748395148
 30
0.0
 11
-218.984186071302
 21
-569.3613748395148
 31
0.0
  0
LINE
  5
1EC09
330
18
100
AcDbEntity
  8
01
100
AcDbLine
 10
-219.984186071302
 20
-569.3613748395148
 30
0.0
 11
-220.984186071302
 21
-569.3613748395148
 31
0.0
  0
LINE
  5
1EC0B
330
18
100
AcDbEntity
  8
01
100
AcDbLine
 10
-221.984186071302
 20
-569.3613748395148
 30
0.0
 11
-222.984186071302
 21
-569.3613748395148
 31
0.0
  0
LINE
  5
1EC0D
330
18
100
AcDbEntity
  8
01
100
AcDbLine
 10
-223.984186071302
 20
-569.3613748395148
 30
0.0
 11
-224.984186071302
 21
-569.3613748395148
 31
0.0
  0
LINE
  5
1EC0F
330
18
100
AcDbEntity
  8
01
100
AcDbLine
 10
-225.984186071302
 20
-569.3613748395148
 30
0.0
 11
-226.984186071302
 21
-569.3613748395148
 31
0.0
  0
LINE
  5
1EC11
330
18
100
AcDbEntity
  8
01
100
AcDbLine
 10
-227.984186071302
 20
-569.3613748395148
 30
0.0
 11
-228.984186071302
 21
-569.3613748395148
 31
0.0
  0
LINE
  5
1EC13
330
18
100
AcDbEntity
  8
01
100
AcDbLine
 10
-229.984186071302
 20
-569.3613748395148
 30
0.0
 11
-230.984186071302
 21
-569.3613748395148
 31
0.0
  0
LINE
  5
1EC15
330
18
100
AcDbEntity
  8
01
100
AcDbLine
 10
-243.6841898859993
 20
-569.4663395570997
 30
0.0
 11
-234.9841898859993
 21
-569.4663395570997
 31
0.0
  0
LINE
  5
1EC16
330
18
100
AcDbEntity
  8
01
100
AcDbLine
 10
-107.9841898859986
 20
-569.4663395570992
 30
0.0
 11
-99.28418988599901
 21
-569.4663395570994
 31
0.0
  0
LINE
  5
1EC19
330
18
100
AcDbEntity
  8
01
100
AcDbLine
 10
-107.9841898859988
 20
-570.6975635312624
 30
0.0
 11
-109.4841898859988
 21
-570.6975635312624
 31
0.0
  0
LINE
  5
1EC1A
330
18
100
AcDbEntity
  8
01
100
AcDbLine
 10
-113.984186071302
 20
-570.6975635312624
 30
0.0
 11
-112.984186071302
 21
-570.6975635312624
 31
0.0
  0
LINE
  5
1EC1B
330
18
100
AcDbEntity
  8
01
100
AcDbLine
 10
-114.984186071302
 20
-570.6975635312624
 30
0.0
 11
-115.984186071302
 21
-570.6975635312624
 31
0.0
  0
LINE
  5
1EC1C
330
18
100
AcDbEntity
  8
01
100
AcDbLine
 10
-117.984186071302
 20
-570.6975635312624
 30
0.0
 11
-116.984186071302
 21
-570.6975635312624
 31
0.0
  0
LINE
  5
1EC1D
330
18
100
AcDbEntity
  8
01
100
AcDbLine
 10
-119.984186071302
 20
-570.6975635312624
 30
0.0
 11
-118.984186071302
 21
-570.6975635312624
 31
0.0
  0
LINE
  5
1EC1E
330
18
100
AcDbEntity
  8
01
100
AcDbLine
 10
-121.984186071302
 20
-570.6975635312624
 30
0.0
 11
-120.984186071302
 21
-570.6975635312624
 31
0.0
  0
LINE
  5
1EC1F
330
18
100
AcDbEntity
  8
01
100
AcDbLine
 10
-123.984186071302
 20
-570.6975635312624
 30
0.0
 11
-122.984186071302
 21
-570.6975635312624
 31
0.0
  0
LINE
  5
1EC20
330
18
100
AcDbEntity
  8
01
100
AcDbLine
 10
-125.984186071302
 20
-570.6975635312624
 30
0.0
 11
-124.984186071302
 21
-570.6975635312624
 31
0.0
  0
LINE
  5
1EC21
330
18
100
AcDbEntity
  8
01
100
AcDbLine
 10
-127.984186071302
 20
-570.6975635312624
 30
0.0
 11
-126.984186071302
 21
-570.6975635312624
 31
0.0
  0
LINE
  5
1EC22
330
18
100
AcDbEntity
  8
01
100
AcDbLine
 10
-129.984186071302
 20
-570.6975635312624
 30
0.0
 11
-128.984186071302
 21
-570.6975635312624
 31
0.0
  0
LINE
  5
1EC23
330
18
100
AcDbEntity
  8
01
100
AcDbLine
 10
-130.984186071302
 20
-570.6975635312624
 30
0.0
 11
-131.984186071302
 21
-570.6975635312624
 31
0.0
  0
LINE
  5
1EC24
330
18
100
AcDbEntity
  8
01
100
AcDbLine
 10
-133.984186071302
 20
-570.6975635312624
 30
0.0
 11
-132.984186071302
 21
-570.6975635312624
 31
0.0
  0
LINE
  5
1EC25
330
18
100
AcDbEntity
  8
01
100
AcDbLine
 10
-134.984186071302
 20
-570.6975635312624
 30
0.0
 11
-135.984186071302
 21
-570.6975635312624
 31
0.0
  0
LINE
  5
1EC26
330
18
100
AcDbEntity
  8
01
100
AcDbLine
 10
-136.984186071302
 20
-570.6975635312624
 30
0.0
 11
-137.984186071302
 21
-570.6975635312624
 31
0.0
  0
LINE
  5
1EC27
330
18
100
AcDbEntity
  8
01
100
AcDbLine
 10
-138.984186071302
 20
-570.6975635312624
 30
0.0
 11
-139.984186071302
 21
-570.6975635312624
 31
0.0
  0
LINE
  5
1EC28
330
18
100
AcDbEntity
  8
01
100
AcDbLine
 10
-140.984186071302
 20
-570.6975635312624
 30
0.0
 11
-141.984186071302
 21
-570.6975635312624
 31
0.0
  0
LINE
  5
1EC29
330
18
100
AcDbEntity
  8
01
100
AcDbLine
 10
-142.984186071302
 20
-570.6975635312624
 30
0.0
 11
-143.984186071302
 21
-570.6975635312624
 31
0.0
  0
LINE
  5
1EC2A
330
18
100
AcDbEntity
  8
01
100
AcDbLine
 10
-145.984186071302
 20
-570.6975635312624
 30
0.0
 11
-144.984186071302
 21
-570.6975635312624
 31
0.0
  0
LINE
  5
1EC2B
330
18
100
AcDbEntity
  8
01
100
AcDbLine
 10
-146.984186071302
 20
-570.6975635312624
 30
0.0
 11
-147.984186071302
 21
-570.6975635312624
 31
0.0
  0
LINE
  5
1EC2C
330
18
100
AcDbEntity
  8
01
100
AcDbLine
 10
-148.984186071302
 20
-570.6975635312624
 30
0.0
 11
-149.984186071302
 21
-570.6975635312624
 31
0.0
  0
LINE
  5
1EC2D
330
18
100
AcDbEntity
  8
01
100
AcDbLine
 10
-151.984186071302
 20
-570.6975635312624
 30
0.0
 11
-150.984186071302
 21
-570.6975635312624
 31
0.0
  0
LINE
  5
1EC2E
330
18
100
AcDbEntity
  8
01
100
AcDbLine
 10
-152.984186071302
 20
-570.6975635312624
 30
0.0
 11
-153.984186071302
 21
-570.6975635312624
 31
0.0
  0
LINE
  5
1EC2F
330
18
100
AcDbEntity
  8
01
100
AcDbLine
 10
-155.984186071302
 20
-570.6975635312624
 30
0.0
 11
-154.984186071302
 21
-570.6975635312624
 31
0.0
  0
LINE
  5
1EC30
330
18
100
AcDbEntity
  8
01
100
AcDbLine
 10
-156.984186071302
 20
-570.6975635312624
 30
0.0
 11
-157.984186071302
 21
-570.6975635312624
 31
0.0
  0
LINE
  5
1EC31
330
18
100
AcDbEntity
  8
01
100
AcDbLine
 10
-158.984186071302
 20
-570.6975635312624
 30
0.0
 11
-159.984186071302
 21
-570.6975635312624
 31
0.0
  0
LINE
  5
1EC32
330
18
100
AcDbEntity
  8
01
100
AcDbLine
 10
-161.984186071302
 20
-570.6975635312624
 30
0.0
 11
-160.984186071302
 21
-570.6975635312624
 31
0.0
  0
LINE
  5
1EC33
330
18
100
AcDbEntity
  8
01
100
AcDbLine
 10
-162.984186071302
 20
-570.6975635312624
 30
0.0
 11
-163.984186071302
 21
-570.6975635312624
 31
0.0
  0
LINE
  5
1EC34
330
18
100
AcDbEntity
  8
01
100
AcDbLine
 10
-165.984186071302
 20
-570.6975635312624
 30
0.0
 11
-164.984186071302
 21
-570.6975635312624
 31
0.0
  0
LINE
  5
1EC35
330
18
100
AcDbEntity
  8
01
100
AcDbLine
 10
-166.984186071302
 20
-570.6975635312624
 30
0.0
 11
-167.984186071302
 21
-570.6975635312624
 31
0.0
  0
LINE
  5
1EC36
330
18
100
AcDbEntity
  8
01
100
AcDbLine
 10
-168.984186071302
 20
-570.6975635312624
 30
0.0
 11
-169.984186071302
 21
-570.6975635312624
 31
0.0
  0
LINE
  5
1EC37
330
18
100
AcDbEntity
  8
01
100
AcDbLine
 10
-171.984186071302
 20
-570.6975635312624
 30
0.0
 11
-170.984186071302
 21
-570.6975635312624
 31
0.0
  0
LINE
  5
1EC38
330
18
100
AcDbEntity
  8
01
100
AcDbLine
 10
-173.984186071302
 20
-570.6975635312624
 30
0.0
 11
-172.984186071302
 21
-570.6975635312624
 31
0.0
  0
LINE
  5
1EC39
330
18
100
AcDbEntity
  8
01
100
AcDbLine
 10
-175.984186071302
 20
-570.6975635312624
 30
0.0
 11
-174.984186071302
 21
-570.6975635312624
 31
0.0
  0
LINE
  5
1EC3A
330
18
100
AcDbEntity
  8
01
100
AcDbLine
 10
-177.984186071302
 20
-570.6975635312624
 30
0.0
 11
-176.984186071302
 21
-570.6975635312624
 31
0.0
  0
LINE
  5
1EC3B
330
18
100
AcDbEntity
  8
01
100
AcDbLine
 10
-179.984186071302
 20
-570.6975635312624
 30
0.0
 11
-178.984186071302
 21
-570.6975635312624
 31
0.0
  0
LINE
  5
1EC3C
330
18
100
AcDbEntity
  8
01
100
AcDbLine
 10
-180.984186071302
 20
-570.6975635312624
 30
0.0
 11
-181.984186071302
 21
-570.6975635312624
 31
0.0
  0
LINE
  5
1EC3D
330
18
100
AcDbEntity
  8
01
100
AcDbLine
 10
-182.984186071302
 20
-570.6975635312624
 30
0.0
 11
-183.984186071302
 21
-570.6975635312624
 31
0.0
  0
LINE
  5
1EC3E
330
18
100
AcDbEntity
  8
01
100
AcDbLine
 10
-185.984186071302
 20
-570.6975635312624
 30
0.0
 11
-184.984186071302
 21
-570.6975635312624
 31
0.0
  0
LINE
  5
1EC3F
330
18
100
AcDbEntity
  8
01
100
AcDbLine
 10
-186.984186071302
 20
-570.6975635312624
 30
0.0
 11
-187.984186071302
 21
-570.6975635312624
 31
0.0
  0
LINE
  5
1EC40
330
18
100
AcDbEntity
  8
01
100
AcDbLine
 10
-188.984186071302
 20
-570.6975635312624
 30
0.0
 11
-189.984186071302
 21
-570.6975635312624
 31
0.0
  0
LINE
  5
1EC41
330
18
100
AcDbEntity
  8
01
100
AcDbLine
 10
-190.984186071302
 20
-570.6975635312624
 30
0.0
 11
-191.984186071302
 21
-570.6975635312624
 31
0.0
  0
LINE
  5
1EC42
330
18
100
AcDbEntity
  8
01
100
AcDbLine
 10
-193.984186071302
 20
-570.6975635312624
 30
0.0
 11
-192.984186071302
 21
-570.6975635312624
 31
0.0
  0
LINE
  5
1EC43
330
18
100
AcDbEntity
  8
01
100
AcDbLine
 10
-194.984186071302
 20
-570.6975635312624
 30
0.0
 11
-195.984186071302
 21
-570.6975635312624
 31
0.0
  0
LINE
  5
1EC44
330
18
100
AcDbEntity
  8
01
100
AcDbLine
 10
-196.984186071302
 20
-570.6975635312624
 30
0.0
 11
-197.984186071302
 21
-570.6975635312624
 31
0.0
  0
LINE
  5
1EC45
330
18
100
AcDbEntity
  8
01
100
AcDbLine
 10
-198.984186071302
 20
-570.6975635312624
 30
0.0
 11
-199.984186071302
 21
-570.6975635312624
 31
0.0
  0
LINE
  5
1EC46
330
18
100
AcDbEntity
  8
01
100
AcDbLine
 10
-200.984186071302
 20
-570.6975635312624
 30
0.0
 11
-201.984186071302
 21
-570.6975635312624
 31
0.0
  0
LINE
  5
1EC47
330
18
100
AcDbEntity
  8
01
100
AcDbLine
 10
-203.984186071302
 20
-570.6975635312624
 30
0.0
 11
-202.984186071302
 21
-570.6975635312624
 31
0.0
  0
LINE
  5
1EC48
330
18
100
AcDbEntity
  8
01
100
AcDbLine
 10
-205.984186071302
 20
-570.6975635312624
 30
0.0
 11
-204.984186071302
 21
-570.6975635312624
 31
0.0
  0
LINE
  5
1EC49
330
18
100
AcDbEntity
  8
01
100
AcDbLine
 10
-206.984186071302
 20
-570.6975635312624
 30
0.0
 11
-207.984186071302
 21
-570.6975635312624
 31
0.0
  0
LINE
  5
1EC4A
330
18
100
AcDbEntity
  8
01
100
AcDbLine
 10
-209.984186071302
 20
-570.6975635312624
 30
0.0
 11
-208.984186071302
 21
-570.6975635312624
 31
0.0
  0
LINE
  5
1EC4B
330
18
100
AcDbEntity
  8
01
100
AcDbLine
 10
-210.984186071302
 20
-570.6975635312624
 30
0.0
 11
-211.984186071302
 21
-570.6975635312624
 31
0.0
  0
LINE
  5
1EC4C
330
18
100
AcDbEntity
  8
01
100
AcDbLine
 10
-213.984186071302
 20
-570.6975635312624
 30
0.0
 11
-212.984186071302
 21
-570.6975635312624
 31
0.0
  0
LINE
  5
1EC4D
330
18
100
AcDbEntity
  8
01
100
AcDbLine
 10
-215.984186071302
 20
-570.6975635312624
 30
0.0
 11
-214.984186071302
 21
-570.6975635312624
 31
0.0
  0
LINE
  5
1EC4E
330
18
100
AcDbEntity
  8
01
100
AcDbLine
 10
-217.984186071302
 20
-570.6975635312624
 30
0.0
 11
-216.984186071302
 21
-570.6975635312624
 31
0.0
  0
LINE
  5
1EC4F
330
18
100
AcDbEntity
  8
01
100
AcDbLine
 10
-219.984186071302
 20
-570.6975635312624
 30
0.0
 11
-218.984186071302
 21
-570.6975635312624
 31
0.0
  0
LINE
  5
1EC50
330
18
100
AcDbEntity
  8
01
100
AcDbLine
 10
-221.984186071302
 20
-570.6975635312624
 30
0.0
 11
-220.984186071302
 21
-570.6975635312624
 31
0.0
  0
LINE
  5
1EC51
330
18
100
AcDbEntity
  8
01
100
AcDbLine
 10
-222.984186071302
 20
-570.6975635312624
 30
0.0
 11
-223.984186071302
 21
-570.6975635312624
 31
0.0
  0
LINE
  5
1EC52
330
18
100
AcDbEntity
  8
01
100
AcDbLine
 10
-225.984186071302
 20
-570.6975635312624
 30
0.0
 11
-224.984186071302
 21
-570.6975635312624
 31
0.0
  0
LINE
  5
1EC53
330
18
100
AcDbEntity
  8
01
100
AcDbLine
 10
-226.984186071302
 20
-570.6975635312624
 30
0.0
 11
-227.984186071302
 21
-570.6975635312624
 31
0.0
  0
LINE
  5
1EC54
330
18
100
AcDbEntity
  8
01
100
AcDbLine
 10
-228.984186071302
 20
-570.6975635312624
 30
0.0
 11
-229.984186071302
 21
-570.6975635312624
 31
0.0
  0
LINE
  5
1EC55
330
18
100
AcDbEntity
  8
01
100
AcDbLine
 10
-233.4841898859992
 20
-570.6975635312624
 30
0.0
 11
-234.9841898859992
 21
-570.6975635312624
 31
0.0
  0
LINE
  5
1EC56
330
18
100
AcDbEntity
  8
01
100
AcDbLine
 10
-107.9841898859988
 20
-570.6975635312624
 30
0.0
 11
-107.9841898859986
 21
-569.4663395570992
 31
0.0
  0
LINE
  5
1EC57
330
18
100
AcDbEntity
  8
01
100
AcDbLine
 10
-234.9841898859993
 20
-569.4663395570997
 30
0.0
 11
-234.9841898859993
 21
-570.6975635312624
 31
0.0
  0
LINE
  5
1EC58
330
18
100
AcDbEntity
  8
01
100
AcDbLine
 10
-231.9841898859993
 20
-570.6975635312624
 30
0.0
 11
-231.9841898859993
 21
-569.3613748395148
 31
0.0
  0
LINE
  5
1EC5B
330
18
100
AcDbEntity
  8
01
100
AcDbLine
 10
-231.9841898859993
 20
-569.3613748395148
 30
0.0
 11
-233.4841898859993
 21
-569.3613748395148
 31
0.0
  0
LINE
  5
1EC5C
330
18
100
AcDbEntity
  8
01
100
AcDbLine
 10
-231.9841898859992
 20
-570.6975635312624
 30
0.0
 11
-230.9841860713017
 21
-570.6975635312624
 31
0.0
  0
LINE
  5
1EC5D
330
18
100
AcDbEntity
  8
01
100
AcDbLine
 10
-230.984186071302
 20
-569.3613748395148
 30
0.0
 11
-230.9841860713018
 21
-570.6975635312624
 31
0.0
  0
LINE
  5
1EC5F
330
18
100
AcDbEntity
  8
01
100
AcDbLine
 10
-110.9841898859988
 20
-569.3613748395148
 30
0.0
 11
-110.9841898859988
 21
-570.6975635312624
 31
0.0
  0
LINE
  5
1EC61
330
18
100
AcDbEntity
  8
01
100
AcDbLine
 10
-110.9841898859988
 20
-569.3613748395148
 30
0.0
 11
-109.4841898859988
 21
-569.3613748395148
 31
0.0
  0
LINE
  5
1EC62
330
18
100
AcDbEntity
  8
01
100
AcDbLine
 10
-111.984186071302
 20
-569.3613748395148
 30
0.0
 11
-111.984186071302
 21
-570.6975635312627
 31
0.0
  0
LINE
  5
1EC63
330
18
100
AcDbEntity
  8
01
100
AcDbLine
 10
-110.9841898859988
 20
-570.6975635312624
 30
0.0
 11
-111.984186071302
 21
-570.6975635312626
 31
0.0
  0
LINE
  5
1EC64
330
18
100
AcDbEntity
  8
01
100
AcDbLine
 10
-243.6841898859993
 20
-569.0237724810636
 30
0.0
 11
-243.6841898859993
 21
-569.4663395570997
 31
0.0
  0
LINE
  5
1EC65
330
18
100
AcDbEntity
  8
01
100
AcDbLine
 10
-99.28418988599901
 20
-569.0237724810636
 30
0.0
 11
-99.28418988599901
 21
-569.4663395570994
 31
0.0
  0
CIRCLE
  5
1ECEF
330
18
100
AcDbEntity
  8
1PHANTOM
100
AcDbCircle
 10
-30.56580214843136
 20
-616.4970953695912
 30
0.0
 40
18.5
  0
LINE
  5
1ECF0
330
18
100
AcDbEntity
  8
1PHANTOM
100
AcDbLine
 10
-228.4841898859993
 20
-558.9970953695912
 30
0.0
 11
-228.4841898859993
 21
-673.9970953695881
 31
0.0
  0
LINE
  5
1ECF1
330
18
100
AcDbEntity
  8
1PHANTOM
100
AcDbLine
 10
-114.4841898859999
 20
-558.9970953695912
 30
0.0
 11
-114.4841898859999
 21
-673.9970953695881
 31
0.0
  0
CIRCLE
  5
1ECF3
330
18
100
AcDbEntity
  8
1PHANTOM
100
AcDbCircle
 10
-30.56580214843136
 20
-616.4970953695912
 30
0.0
 40
57.5
  0
LINE
  5
1ECFC
330
18
100
AcDbEntity
  8
1PHANTOM
100
AcDbLine
 10
-114.4841898859999
 20
-558.9970953695912
 30
0.0
 11
-228.4841898859993
 21
-558.9970953695912
 31
0.0
  0
LINE
  5
1ECFD
330
18
100
AcDbEntity
  8
1PHANTOM
100
AcDbLine
 10
-228.4841898859993
 20
-673.9970953695881
 30
0.0
 11
-114.4841898859999
 21
-673.9970953695881
 31
0.0
  0
LINE
  5
1ED23
330
18
100
AcDbEntity
  8
1CENTER
100
AcDbLine
 10
-171.4841898859993
 20
-572.2150266681485
 30
0.0
 11
-171.4841898859993
 21
-583.0262613030704
 31
0.0
  0
ARC
  5
1ED28
330
18
100
AcDbEntity
  8
01
100
AcDbCircle
 10
-105.4841898859995
 20
-610.8625132238863
 30
0.0
 40
1.0
100
AcDbArc
 50
179.9999999999998
 51
270.0
  0
LINE
  5
1ED29
330
18
100
AcDbEntity
  8
01
100
AcDbLine
 10
-106.5490206862637
 20
-609.2661679065235
 30
0.0
 11
-106.4841898859995
 21
-609.2661679065235
 31
0.0
  0
LINE
  5
1ED2A
330
18
100
AcDbEntity
  8
01
100
AcDbLine
 10
-106.6627536412293
 20
-604.448310851029
 30
0.0
 11
-106.4841898859995
 21
-604.448310851029
 31
0.0
  0
LINE
  5
1ED2B
330
18
100
AcDbEntity
  8
01
100
AcDbLine
 10
-111.4841898859995
 20
-597.8973556057917
 30
0.0
 11
-111.4841898859996
 21
-604.0317071702107
 31
0.0
  0
LINE
  5
1ED2C
330
18
100
AcDbEntity
  8
01
100
AcDbLine
 10
-231.4842409826015
 20
-597.8693420422696
 30
0.0
 11
-231.4842409826015
 21
-604.0028227707313
 31
0.0
  0
LINE
  5
1ED2D
330
18
100
AcDbEntity
  8
01
100
AcDbLine
 10
-236.3056772273717
 20
-604.4202972875069
 30
0.0
 11
-236.4841898859991
 21
-604.420297287507
 31
0.0
  0
LINE
  5
1ED2E
330
18
100
AcDbEntity
  8
01
100
AcDbLine
 10
-236.4194101823373
 20
-609.2381543430014
 30
0.0
 11
-236.4841898859991
 21
-609.2381543430014
 31
0.0
  0
LINE
  5
1ED3D
330
18
100
AcDbEntity
  8
01
100
AcDbLine
 10
35.13422174969538
 20
-553.9387366686572
 30
0.0
 11
35.13422174969537
 21
-547.2425000464714
 31
0.0
  0
LINE
  5
1ED63
330
18
100
AcDbEntity
  8
1PHANTOM
100
AcDbLine
 10
42.13421923914298
 20
-569.9661671391293
 30
0.0
 11
43.13421109536081
 21
-569.9661671391294
 31
0.0
  0
LINE
  5
1ED64
330
18
100
AcDbEntity
  8
1PHANTOM
100
AcDbLine
 10
42.13420295157872
 20
-576.9661671391293
 30
0.0
 11
43.1342110953608
 21
-576.9661671391293
 31
0.0
  0
LINE
  5
1EDA3
330
18
100
AcDbEntity
  8
1PHANTOM
100
AcDbLine
 10
69.23420802196593
 20
-578.7869925184166
 30
0.0
 11
69.41697216459393
 21
-578.2352430546132
 31
0.0
  0
LINE
  5
1EDA4
330
18
100
AcDbEntity
  8
1CENTER
100
AcDbLine
 10
75.09512568650685
 20
-577.4661671391293
 30
0.0
 11
38.46393468605193
 21
-577.4661671391293
 31
0.0
  0
LINE
  5
1EDA5
330
18
100
AcDbEntity
  8
1PHANTOM
100
AcDbLine
 10
70.0342136415206
 20
-576.3718433251343
 30
0.0
 11
70.83420907557156
 21
-578.3341784140096
 31
0.0
  0
LINE
  5
1EDA6
330
18
100
AcDbEntity
  8
1PHANTOM
100
AcDbLine
 10
70.83420907557156
 20
-578.3341784140096
 30
0.0
 11
71.14597893182368
 21
-577.7459018389673
 31
0.0
  0
LINE
  5
1EDA7
330
18
100
AcDbEntity
  8
1PHANTOM
100
AcDbLine
 10
47.6342157487306
 20
-575.4662136750273
 30
0.0
 11
48.43420644154885
 21
-579.4662136750273
 31
0.0
  0
LINE
  5
1EDA8
330
18
100
AcDbEntity
  8
1PHANTOM
100
AcDbLine
 10
58.83421574873496
 20
-575.4662136750273
 30
0.0
 11
59.63420644155754
 21
-579.4662136750273
 31
0.0
  0
LINE
  5
1EDA9
330
18
100
AcDbEntity
  8
1PHANTOM
100
AcDbLine
 10
62.03421574873501
 20
-575.4662136750273
 30
0.0
 11
62.83420644155758
 21
-579.4662136750273
 31
0.0
  0
LINE
  5
1EDAA
330
18
100
AcDbEntity
  8
1PHANTOM
100
AcDbLine
 10
62.83420644155758
 20
-579.4662136750273
 30
0.0
 11
62.93420760495469
 21
-578.9662136750273
 31
0.0
  0
LINE
  5
1EDAB
330
18
100
AcDbEntity
  8
1PHANTOM
100
AcDbLine
 10
63.53421458533781
 20
-575.9662136750273
 30
0.0
 11
63.63421574873492
 21
-575.4662136750273
 31
0.0
  0
LINE
  5
1EDAC
330
18
100
AcDbEntity
  8
1PHANTOM
100
AcDbLine
 10
59.63420644155754
 20
-579.4662136750273
 30
0.0
 11
59.73420760495465
 21
-578.9662136750273
 31
0.0
  0
LINE
  5
1EDAD
330
18
100
AcDbEntity
  8
1PHANTOM
100
AcDbLine
 10
61.23420644155767
 20
-579.4662136750273
 30
0.0
 11
61.33420760495478
 21
-578.9662136750273
 31
0.0
  0
LINE
  5
1EDAE
330
18
100
AcDbEntity
  8
1PHANTOM
100
AcDbLine
 10
61.9342145853379
 20
-575.9662136750273
 30
0.0
 11
62.03421574873501
 21
-575.4662136750273
 31
0.0
  0
LINE
  5
1EDAF
330
18
100
AcDbEntity
  8
1PHANTOM
100
AcDbLine
 10
60.33421458533799
 20
-575.9662136750273
 30
0.0
 11
60.4342157487351
 21
-575.4662136750273
 31
0.0
  0
LINE
  5
1EDB0
330
18
100
AcDbEntity
  8
1PHANTOM
100
AcDbLine
 10
60.4342157487351
 20
-575.4662136750273
 30
0.0
 11
61.23420644155767
 21
-579.4662136750273
 31
0.0
  0
LINE
  5
1EDB1
330
18
100
AcDbEntity
  8
1PHANTOM
100
AcDbLine
 10
66.03420644155763
 20
-579.4662136750273
 30
0.0
 11
66.13420760495474
 21
-578.9662136750273
 31
0.0
  0
LINE
  5
1EDB2
330
18
100
AcDbEntity
  8
1PHANTOM
100
AcDbLine
 10
64.43420644155749
 20
-579.4662136750273
 30
0.0
 11
64.5342076049546
 21
-578.9662136750273
 31
0.0
  0
LINE
  5
1EDB3
330
18
100
AcDbEntity
  8
1PHANTOM
100
AcDbLine
 10
67.63420696836029
 20
-579.2398066228232
 30
0.0
 11
67.76347766599015
 21
-578.7032128875521
 31
0.0
  0
LINE
  5
1EDB4
330
18
100
AcDbEntity
  8
1PHANTOM
100
AcDbLine
 10
68.32144518277478
 20
-576.3871282722359
 30
0.0
 11
68.43421469512482
 21
-575.9190298170859
 31
0.0
  0
LINE
  5
1EDB5
330
18
100
AcDbEntity
  8
1PHANTOM
100
AcDbLine
 10
65.13421458533794
 20
-575.9662136750273
 30
0.0
 11
65.23421574873505
 21
-575.4662136750273
 31
0.0
  0
LINE
  5
1EDB6
330
18
100
AcDbEntity
  8
1PHANTOM
100
AcDbLine
 10
66.73421458533785
 20
-575.9662136750273
 30
0.0
 11
66.83421574873496
 21
-575.4662136750273
 31
0.0
  0
LINE
  5
1EDB7
330
18
100
AcDbEntity
  8
1PHANTOM
100
AcDbLine
 10
69.88277784508018
 20
-576.8290151657654
 30
0.0
 11
70.0342136415206
 21
-576.3718433251343
 31
0.0
  0
LINE
  5
1EDB8
330
18
100
AcDbEntity
  8
1PHANTOM
100
AcDbLine
 10
68.43421469512482
 20
-575.9190298170859
 30
0.0
 11
69.23420802196593
 21
-578.7869925184166
 31
0.0
  0
LINE
  5
1EDB9
330
18
100
AcDbEntity
  8
1PHANTOM
100
AcDbLine
 10
65.23421574873505
 20
-575.4662136750273
 30
0.0
 11
66.03420644155763
 21
-579.4662136750273
 31
0.0
  0
LINE
  5
1EDBA
330
18
100
AcDbEntity
  8
1PHANTOM
100
AcDbLine
 10
66.83421574873496
 20
-575.4662136750273
 30
0.0
 11
67.63420696836029
 21
-579.2398066228232
 31
0.0
  0
LINE
  5
1EDBB
330
18
100
AcDbEntity
  8
1PHANTOM
100
AcDbLine
 10
63.63421574873492
 20
-575.4662136750273
 30
0.0
 11
64.43420644155749
 21
-579.4662136750273
 31
0.0
  0
LINE
  5
1EDBC
330
18
100
AcDbEntity
  8
1PHANTOM
100
AcDbLine
 10
50.83421574873064
 20
-575.4662136750273
 30
0.0
 11
51.6342064415489
 21
-579.4662136750273
 31
0.0
  0
LINE
  5
1EDBD
330
18
100
AcDbEntity
  8
1PHANTOM
100
AcDbLine
 10
51.6342064415489
 20
-579.4662136750273
 30
0.0
 11
51.73420760494646
 21
-578.9662136750273
 31
0.0
  0
LINE
  5
1EDBE
330
18
100
AcDbEntity
  8
1PHANTOM
100
AcDbLine
 10
52.33421458533731
 20
-575.9662136750273
 30
0.0
 11
52.43421574873487
 21
-575.4662136750273
 31
0.0
  0
LINE
  5
1EDBF
330
18
100
AcDbEntity
  8
1PHANTOM
100
AcDbLine
 10
50.03420644154876
 20
-579.4662136750273
 30
0.0
 11
50.13420760494633
 21
-578.9662136750273
 31
0.0
  0
LINE
  5
1EDC0
330
18
100
AcDbEntity
  8
1PHANTOM
100
AcDbLine
 10
48.43420644154885
 20
-579.4662136750273
 30
0.0
 11
48.53420760494642
 21
-578.9662136750273
 31
0.0
  0
LINE
  5
1EDC1
330
18
100
AcDbEntity
  8
1PHANTOM
100
AcDbLine
 10
50.73421458533285
 20
-575.9662136750273
 30
0.0
 11
50.83421574873064
 21
-575.4662136750273
 31
0.0
  0
LINE
  5
1EDC2
330
18
100
AcDbEntity
  8
1PHANTOM
100
AcDbLine
 10
49.13421458533271
 20
-575.9662136750273
 30
0.0
 11
49.23421574873051
 21
-575.4662136750273
 31
0.0
  0
LINE
  5
1EDC3
330
18
100
AcDbEntity
  8
1PHANTOM
100
AcDbLine
 10
49.23421574873051
 20
-575.4662136750273
 30
0.0
 11
50.03420644154876
 21
-579.4662136750273
 31
0.0
  0
LINE
  5
1EDC4
330
18
100
AcDbEntity
  8
1PHANTOM
100
AcDbLine
 10
56.43420644155317
 20
-579.4662136750273
 30
0.0
 11
56.53420760495096
 21
-578.9662136750273
 31
0.0
  0
LINE
  5
1EDC5
330
18
100
AcDbEntity
  8
1PHANTOM
100
AcDbLine
 10
58.03420644155763
 20
-579.4662136750273
 30
0.0
 11
58.13420760495474
 21
-578.9662136750273
 31
0.0
  0
LINE
  5
1EDC6
330
18
100
AcDbEntity
  8
1PHANTOM
100
AcDbLine
 10
53.23420644155313
 20
-579.4662136750273
 30
0.0
 11
53.33420760495092
 21
-578.9662136750273
 31
0.0
  0
LINE
  5
1EDC7
330
18
100
AcDbEntity
  8
1PHANTOM
100
AcDbLine
 10
54.83420644155304
 20
-579.4662136750273
 30
0.0
 11
54.93420760495083
 21
-578.9662136750273
 31
0.0
  0
LINE
  5
1EDC8
330
18
100
AcDbEntity
  8
1PHANTOM
100
AcDbLine
 10
58.73421458533785
 20
-575.9662136750273
 30
0.0
 11
58.83421574873496
 21
-575.4662136750273
 31
0.0
  0
LINE
  5
1EDC9
330
18
100
AcDbEntity
  8
1PHANTOM
100
AcDbLine
 10
57.13421458533726
 20
-575.9662136750273
 30
0.0
 11
57.23421574873505
 21
-575.4662136750273
 31
0.0
  0
LINE
  5
1EDCA
330
18
100
AcDbEntity
  8
1PHANTOM
100
AcDbLine
 10
53.93421458533722
 20
-575.9662136750273
 30
0.0
 11
54.03421574873478
 21
-575.4662136750273
 31
0.0
  0
LINE
  5
1EDCB
330
18
100
AcDbEntity
  8
1PHANTOM
100
AcDbLine
 10
55.53421458533735
 20
-575.9662136750273
 30
0.0
 11
55.63421574873492
 21
-575.4662136750273
 31
0.0
  0
LINE
  5
1EDCC
330
18
100
AcDbEntity
  8
1PHANTOM
100
AcDbLine
 10
55.63421574873492
 20
-575.4662136750273
 30
0.0
 11
56.43420644155317
 21
-579.4662136750273
 31
0.0
  0
LINE
  5
1EDCD
330
18
100
AcDbEntity
  8
1PHANTOM
100
AcDbLine
 10
57.23421574873505
 20
-575.4662136750273
 30
0.0
 11
58.03420644155763
 21
-579.4662136750273
 31
0.0
  0
LINE
  5
1EDCE
330
18
100
AcDbEntity
  8
1PHANTOM
100
AcDbLine
 10
54.03421574873478
 20
-575.4662136750273
 30
0.0
 11
54.83420644155304
 21
-579.4662136750273
 31
0.0
  0
LINE
  5
1EDCF
330
18
100
AcDbEntity
  8
1PHANTOM
100
AcDbLine
 10
52.43421574873487
 20
-575.4662136750273
 30
0.0
 11
53.23420644155313
 21
-579.4662136750273
 31
0.0
  0
LINE
  5
1EDD0
330
18
100
AcDbEntity
  8
1PHANTOM
100
AcDbLine
 10
42.13420760506024
 20
-578.9662136750273
 30
0.0
 11
42.13421458544481
 21
-575.9662136750273
 31
0.0
  0
LINE
  5
1EDD1
330
18
100
AcDbEntity
  8
1PHANTOM
100
AcDbLine
 10
42.73421458532876
 20
-575.9662136750273
 30
0.0
 11
42.83421574872632
 21
-575.4662136750273
 31
0.0
  0
LINE
  5
1EDD2
330
18
100
AcDbEntity
  8
1PHANTOM
100
AcDbLine
 10
42.83421574872632
 20
-575.4662136750273
 30
0.0
 11
43.63420644154458
 21
-579.4662136750273
 31
0.0
  0
LINE
  5
1EDD3
330
18
100
AcDbEntity
  8
1PHANTOM
100
AcDbLine
 10
43.63420644154458
 20
-579.4662136750273
 30
0.0
 11
43.73420760494237
 21
-578.9662136750273
 31
0.0
  0
LINE
  5
1EDD4
330
18
100
AcDbEntity
  8
1PHANTOM
100
AcDbLine
 10
44.33421458532867
 20
-575.9662136750273
 30
0.0
 11
44.43421574872623
 21
-575.4662136750273
 31
0.0
  0
LINE
  5
1EDD5
330
18
100
AcDbEntity
  8
1PHANTOM
100
AcDbLine
 10
45.93421458532858
 20
-575.9662136750273
 30
0.0
 11
46.03421574872614
 21
-575.4662136750273
 31
0.0
  0
LINE
  5
1EDD6
330
18
100
AcDbEntity
  8
1PHANTOM
100
AcDbLine
 10
46.03421574872614
 20
-575.4662136750273
 30
0.0
 11
46.8342064415444
 21
-579.4662136750273
 31
0.0
  0
LINE
  5
1EDD7
330
18
100
AcDbEntity
  8
1PHANTOM
100
AcDbLine
 10
45.23420644154449
 20
-579.4662136750273
 30
0.0
 11
45.33420760494228
 21
-578.9662136750273
 31
0.0
  0
LINE
  5
1EDD8
330
18
100
AcDbEntity
  8
1PHANTOM
100
AcDbLine
 10
46.8342064415444
 20
-579.4662136750273
 30
0.0
 11
46.93420760494219
 21
-578.9662136750273
 31
0.0
  0
LINE
  5
1EDD9
330
18
100
AcDbEntity
  8
1PHANTOM
100
AcDbLine
 10
44.43421574872623
 20
-575.4662136750273
 30
0.0
 11
45.23420644154449
 21
-579.4662136750273
 31
0.0
  0
LINE
  5
1EDDA
330
18
100
AcDbEntity
  8
1PHANTOM
100
AcDbLine
 10
47.5342145853328
 20
-575.9662136750273
 30
0.0
 11
47.6342157487306
 21
-575.4662136750273
 31
0.0
  0
LINE
  5
1EDDB
330
18
100
AcDbEntity
  8
1PHANTOM
100
AcDbLine
 10
42.13421923914298
 20
-573.9661671391293
 30
0.0
 11
43.13421109536081
 21
-573.9661671391294
 31
0.0
  0
LINE
  5
1EDDC
330
18
100
AcDbEntity
  8
1PHANTOM
100
AcDbLine
 10
42.13420295157872
 20
-580.9661671391293
 30
0.0
 11
43.1342110953608
 21
-580.9661671391293
 31
0.0
  0
LINE
  5
1EDDD
330
18
100
AcDbEntity
  8
1PHANTOM
100
AcDbLine
 10
43.13421109536081
 20
-569.9661671391294
 30
0.0
 11
43.1342110953608
 21
-580.9661671391293
 31
0.0
  0
TEXT
  5
1EE02
330
18
100
AcDbEntity
  8
1TEXT
100
AcDbText
 10
-61.67750386413894
 20
-430.9729747827178
 30
0.0
 40
8.0
  1
SC-603-X
100
AcDbText
  0
LINE
  5
1EE03
330
18
100
AcDbEntity
  8
1DIM
100
AcDbLine
 10
-63.0386476162027
 20
-458.9059076777378
 30
0.0
 11
-5.03864761620224
 21
-458.9059076777376
 31
0.0
  0
LINE
  5
1EE04
330
18
100
AcDbEntity
  8
1DIM
100
AcDbLine
 10
-63.03864761620258
 20
-437.9059076777378
 30
0.0
 11
-5.038647616202752
 21
-437.905907677738
 31
0.0
  0
LINE
  5
1EE05
330
18
100
AcDbEntity
  8
1DIM
100
AcDbLine
 10
-63.03864761620275
 20
-444.9059076777378
 30
0.0
 11
-5.038647616202582
 21
-444.9059076777377
 31
0.0
  0
LINE
  5
1EE06
330
18
100
AcDbEntity
  8
1DIM
100
AcDbLine
 10
-63.03864761620275
 20
-451.9059076777378
 30
0.0
 11
-5.038647616202412
 21
-451.9059076777379
 31
0.0
  0
LINE
  5
1EE07
330
18
100
AcDbEntity
  8
1DIM
100
AcDbLine
 10
-63.03864761620275
 20
-437.9059076777381
 30
0.0
 11
-63.03864761620224
 21
-458.9059076777371
 31
0.0
  0
TEXT
  5
1EE08
330
18
100
AcDbEntity
  8
1TEXT
100
AcDbText
 10
-25.63974520027693
 20
-443.4059076777346
 30
0.0
 40
4.0
  1
コード
 72
     1
 11
-18.77307853361026
 21
-443.4059076777346
 31
0.0
100
AcDbText
  0
TEXT
  5
1EE09
330
18
100
AcDbEntity
  8
1TEXT
100
AcDbText
 10
-30.09093053041063
 20
-450.4059076777351
 30
0.0
 40
4.0
  1
SC-603-XC
 41
0.6
 72
     1
 11
-19.8825971970773
 21
-450.4059076777351
 31
0.0
100
AcDbText
  0
TEXT
  5
1EE0A
330
18
100
AcDbEntity
  8
1TEXT
100
AcDbText
 10
-30.09093053041041
 20
-457.4059076777351
 30
0.0
 40
4.0
  1
SC-603-XN
 41
0.6
 72
     1
 11
-19.88259719707708
 21
-457.4059076777351
 31
0.0
100
AcDbText
  0
LINE
  5
1EE0E
330
18
100
AcDbEntity
  8
1DIM
100
AcDbLine
 10
-5.038647616202752
 20
-437.905907677732
 30
0.0
 11
-5.03864761620224
 21
-458.905907677731
 31
0.0
  0
LINE
  5
1EE36
330
18
100
AcDbEntity
  8
01
100
AcDbLine
 10
56.13374758774773
 20
-637.0069477858435
 30
0.0
 11
56.13374758774773
 21
-523.1172127947207
 31
0.0
  0
LINE
  5
1EE37
330
18
100
AcDbEntity
  8
01
100
AcDbLine
 10
65.13374758774727
 20
-637.0069477858435
 30
0.0
 11
65.13374758774773
 21
-523.1172127947207
 31
0.0
  0
LINE
  5
1EE38
330
18
100
AcDbEntity
  8
01
100
AcDbLine
 10
47.1342110953608
 20
-550.7661663741801
 30
0.0
 11
47.1342110953608
 21
-523.8457732844631
 31
0.0
  0
LINE
  5
1EE39
330
18
100
AcDbEntity
  8
01
100
AcDbLine
 10
47.1342110953608
 20
-585.9661668550054
 30
0.0
 11
47.1342110953608
 21
-637.1531254103725
 31
0.0
  0
LINE
  5
1EE3A
330
18
100
AcDbEntity
  8
1CENTER
100
AcDbLine
 10
-211.4841898859993
 20
-568.1151128441663
 30
0.0
 11
-211.4841898859993
 21
-578.7817926673804
 31
0.0
  0
LINE
  5
1EE3B
330
18
100
AcDbEntity
  8
1CENTER
100
AcDbLine
 10
-131.4841898859993
 20
-568.3460190597309
 30
0.0
 11
-131.4841898859993
 21
-579.2060615671874
 31
0.0
  0
LINE
  5
1F26B
330
18
100
AcDbEntity
  8
1DIM
100
AcDbLine
 10
-34.03864761620275
 20
-437.9059076777382
 30
0.0
 11
-34.03864761620224
 21
-458.9059076777372
 31
0.0
  0
TEXT
  5
1F273
330
18
100
AcDbEntity
  8
1TEXT
100
AcDbText
 10
-56.45208669162579
 20
-450.2168212893045
 30
0.0
 40
3.5
  1
クローム
 72
     1
 11
-48.16875335829246
 21
-450.2168212893045
 31
0.0
100
AcDbText
  0
TEXT
  5
1F2FE
330
18
100
AcDbEntity
  8
1TEXT
100
AcDbText
 10
-59.01875335829206
 20
-457.2168212893045
 30
0.0
 40
3.5
  1
サテンニッケル
 41
0.75
 72
     1
 11
-48.16875335829207
 21
-457.2168212893045
 31
0.0
100
AcDbText
  0
TEXT
  5
1F36B
330
18
100
AcDbEntity
  8
1TEXT
100
AcDbText
 10
-57.72638180733635
 20
-443.4059076777346
 30
0.0
 40
4.0
  1
表面処理
 72
     1
 11
-48.45971514066969
 21
-443.4059076777346
 31
0.0
100
AcDbText
  0
LINE
  5
1F36D
330
18
100
AcDbEntity
  8
01
100
AcDbLine
 10
-244.9841898859988
 20
-414.6159493311303
 30
0.0
 11
-97.98418988599474
 21
-414.6159493311303
 31
0.0
  0
ARC
  5
1F36F
330
18
100
AcDbEntity
  8
01
100
AcDbCircle
 10
244.9841898859988
 20
-415.6159493311303
 30
0.0
 40
1.0
210
0.0
220
0.0
230
-1.0
100
AcDbArc
 50
0.0000000002214684
 51
90.0
  0
ARC
  5
1F370
330
18
100
AcDbEntity
  8
01
100
AcDbCircle
 10
97.98418988599883
 20
-415.6159493311303
 30
0.0
 40
0.9999999999999822
210
0.0
220
0.0
230
-1.0
100
AcDbArc
 50
90.0000000002345
 51
180.0
  0
LINE
  5
1F376
330
18
100
AcDbEntity
  8
01
100
AcDbLine
 10
-243.9841898859993
 20
-512.0359493311303
 30
0.0
 11
-98.98418988599883
 21
-512.0359493311303
 31
0.0
  0
ARC
  5
1F379
330
18
100
AcDbEntity
  8
01
100
AcDbCircle
 10
-98.98418988599883
 20
-510.0359493311303
 30
0.0
 40
2.0
100
AcDbArc
 50
270.0
 51
0.0
  0
ARC
  5
1F37A
330
18
100
AcDbEntity
  8
01
100
AcDbCircle
 10
-243.9841898859993
 20
-510.0359493311303
 30
0.0
 40
2.0
100
AcDbArc
 50
180.0
 51
270.0
  0
ARC
  5
1F56A
330
18
100
AcDbEntity
  8
01
100
AcDbCircle
 10
79.8629292523944
 20
-543.97378969632
 30
0.0
 40
30.0000000000004
210
0.0
220
0.0
230
-1.0
100
AcDbArc
 50
236.9238994196509
 51
242.9729967068838
  0
LINE
  5
1F5A4
330
18
100
AcDbEntity
  8
1PHANTOM
100
AcDbLine
 10
-130.163364506712
 20
-390.9359524045252
 30
0.0
 11
-130.7151139705154
 21
-390.7531882618972
 31
0.0
  0
LINE
  5
1F5A5
330
18
100
AcDbEntity
  8
1CENTER
100
AcDbLine
 10
-131.4841898859993
 20
-385.0750347399842
 30
0.0
 11
-131.4841898859993
 21
-421.7062257404392
 31
0.0
  0
LINE
  5
1F5A6
330
18
100
AcDbEntity
  8
1PHANTOM
100
AcDbLine
 10
-132.5785136999943
 20
-390.1359467849705
 30
0.0
 11
-130.616178611119
 21
-389.3359513509195
 31
0.0
  0
LINE
  5
1F5A7
330
18
100
AcDbEntity
  8
1PHANTOM
100
AcDbLine
 10
-130.616178611119
 20
-389.3359513509195
 30
0.0
 11
-131.2044551861613
 21
-389.0241814946674
 31
0.0
  0
LINE
  5
1F5A8
330
18
100
AcDbEntity
  8
1PHANTOM
100
AcDbLine
 10
-133.4841433501012
 20
-412.5359446777605
 30
0.0
 11
-129.4841433501012
 21
-411.7359539849422
 31
0.0
  0
LINE
  5
1F5A9
330
18
100
AcDbEntity
  8
1PHANTOM
100
AcDbLine
 10
-133.4841433501012
 20
-401.3359446777561
 30
0.0
 11
-129.4841433501012
 21
-400.5359539849335
 31
0.0
  0
LINE
  5
1F5AA
330
18
100
AcDbEntity
  8
1PHANTOM
100
AcDbLine
 10
-133.4841433501012
 20
-398.1359446777561
 30
0.0
 11
-129.4841433501012
 21
-397.3359539849335
 31
0.0
  0
LINE
  5
1F5AB
330
18
100
AcDbEntity
  8
1PHANTOM
100
AcDbLine
 10
-129.4841433501012
 20
-397.3359539849335
 30
0.0
 11
-129.9841433501012
 21
-397.2359528215364
 31
0.0
  0
LINE
  5
1F5AC
330
18
100
AcDbEntity
  8
1PHANTOM
100
AcDbLine
 10
-132.9841433501012
 20
-396.6359458411533
 30
0.0
 11
-133.4841433501012
 21
-396.5359446777562
 31
0.0
  0
LINE
  5
1F5AD
330
18
100
AcDbEntity
  8
1PHANTOM
100
AcDbLine
 10
-129.4841433501012
 20
-400.5359539849335
 30
0.0
 11
-129.9841433501012
 21
-400.4359528215364
 31
0.0
  0
LINE
  5
1F5AE
330
18
100
AcDbEntity
  8
1PHANTOM
100
AcDbLine
 10
-129.4841433501012
 20
-398.9359539849334
 30
0.0
 11
-129.9841433501012
 21
-398.8359528215363
 31
0.0
  0
LINE
  5
1F5AF
330
18
100
AcDbEntity
  8
1PHANTOM
100
AcDbLine
 10
-132.9841433501012
 20
-398.2359458411532
 30
0.0
 11
-133.4841433501012
 21
-398.1359446777561
 31
0.0
  0
LINE
  5
1F5B0
330
18
100
AcDbEntity
  8
1PHANTOM
100
AcDbLine
 10
-132.9841433501012
 20
-399.8359458411531
 30
0.0
 11
-133.4841433501012
 21
-399.735944677756
 31
0.0
  0
LINE
  5
1F5B1
330
18
100
AcDbEntity
  8
1PHANTOM
100
AcDbLine
 10
-133.4841433501012
 20
-399.735944677756
 30
0.0
 11
-129.4841433501012
 21
-398.9359539849334
 31
0.0
  0
LINE
  5
1F5B2
330
18
100
AcDbEntity
  8
1PHANTOM
100
AcDbLine
 10
-129.4841433501012
 20
-394.1359539849335
 30
0.0
 11
-129.9841433501012
 21
-394.0359528215363
 31
0.0
  0
LINE
  5
1F5B3
330
18
100
AcDbEntity
  8
1PHANTOM
100
AcDbLine
 10
-129.4841433501012
 20
-395.7359539849336
 30
0.0
 11
-129.9841433501012
 21
-395.6359528215365
 31
0.0
  0
LINE
  5
1F5B4
330
18
100
AcDbEntity
  8
1PHANTOM
100
AcDbLine
 10
-129.7105504023054
 20
-392.5359534581308
 30
0.0
 11
-130.2471441375765
 21
-392.4066827605009
 31
0.0
  0
LINE
  5
1F5B5
330
18
100
AcDbEntity
  8
1PHANTOM
100
AcDbLine
 10
-132.5632287528927
 20
-391.8487152437163
 30
0.0
 11
-133.0313272080427
 21
-391.7359457313663
 31
0.0
  0
LINE
  5
1F5B6
330
18
100
AcDbEntity
  8
1PHANTOM
100
AcDbLine
 10
-132.9841433501012
 20
-395.0359458411531
 30
0.0
 11
-133.4841433501012
 21
-394.935944677756
 31
0.0
  0
LINE
  5
1F5B7
330
18
100
AcDbEntity
  8
1PHANTOM
100
AcDbLine
 10
-132.9841433501012
 20
-393.4359458411532
 30
0.0
 11
-133.4841433501012
 21
-393.3359446777561
 31
0.0
  0
LINE
  5
1F5B8
330
18
100
AcDbEntity
  8
1PHANTOM
100
AcDbLine
 10
-132.1213418593632
 20
-390.2873825814109
 30
0.0
 11
-132.5785136999943
 21
-390.1359467849705
 31
0.0
  0
LINE
  5
1F5B9
330
18
100
AcDbEntity
  8
1PHANTOM
100
AcDbLine
 10
-133.0313272080427
 20
-391.7359457313663
 30
0.0
 11
-130.163364506712
 21
-390.9359524045252
 31
0.0
  0
LINE
  5
1F5BA
330
18
100
AcDbEntity
  8
1PHANTOM
100
AcDbLine
 10
-133.4841433501012
 20
-394.935944677756
 30
0.0
 11
-129.4841433501012
 21
-394.1359539849335
 31
0.0
  0
LINE
  5
1F5BB
330
18
100
AcDbEntity
  8
1PHANTOM
100
AcDbLine
 10
-133.4841433501012
 20
-393.3359446777561
 30
0.0
 11
-129.7105504023054
 21
-392.5359534581308
 31
0.0
  0
LINE
  5
1F5BC
330
18
100
AcDbEntity
  8
1PHANTOM
100
AcDbLine
 10
-133.4841433501012
 20
-396.5359446777562
 30
0.0
 11
-129.4841433501012
 21
-395.7359539849336
 31
0.0
  0
LINE
  5
1F5BD
330
18
100
AcDbEntity
  8
1PHANTOM
100
AcDbLine
 10
-133.4841433501012
 20
-409.3359446777604
 30
0.0
 11
-129.4841433501012
 21
-408.5359539849422
 31
0.0
  0
LINE
  5
1F5BE
330
18
100
AcDbEntity
  8
1PHANTOM
100
AcDbLine
 10
-129.4841433501012
 20
-408.5359539849422
 30
0.0
 11
-129.9841433501012
 21
-408.4359528215446
 31
0.0
  0
LINE
  5
1F5BF
330
18
100
AcDbEntity
  8
1PHANTOM
100
AcDbLine
 10
-132.9841433501012
 20
-407.8359458411538
 30
0.0
 11
-133.4841433501012
 21
-407.7359446777562
 31
0.0
  0
LINE
  5
1F5C0
330
18
100
AcDbEntity
  8
1PHANTOM
100
AcDbLine
 10
-129.4841433501012
 20
-410.1359539849423
 30
0.0
 11
-129.9841433501012
 21
-410.0359528215448
 31
0.0
  0
LINE
  5
1F5C1
330
18
100
AcDbEntity
  8
1PHANTOM
100
AcDbLine
 10
-129.4841433501012
 20
-411.7359539849422
 30
0.0
 11
-129.9841433501012
 21
-411.6359528215447
 31
0.0
  0
LINE
  5
1F5C2
330
18
100
AcDbEntity
  8
1PHANTOM
100
AcDbLine
 10
-132.9841433501012
 20
-409.4359458411582
 30
0.0
 11
-133.4841433501012
 21
-409.3359446777604
 31
0.0
  0
LINE
  5
1F5C3
330
18
100
AcDbEntity
  8
1PHANTOM
100
AcDbLine
 10
-132.9841433501012
 20
-411.0359458411584
 30
0.0
 11
-133.4841433501012
 21
-410.9359446777606
 31
0.0
  0
LINE
  5
1F5C4
330
18
100
AcDbEntity
  8
1PHANTOM
100
AcDbLine
 10
-133.4841433501012
 20
-410.9359446777606
 30
0.0
 11
-129.4841433501012
 21
-410.1359539849423
 31
0.0
  0
LINE
  5
1F5C5
330
18
100
AcDbEntity
  8
1PHANTOM
100
AcDbLine
 10
-129.4841433501012
 20
-403.7359539849379
 30
0.0
 11
-129.9841433501012
 21
-403.6359528215401
 31
0.0
  0
LINE
  5
1F5C6
330
18
100
AcDbEntity
  8
1PHANTOM
100
AcDbLine
 10
-129.4841433501012
 20
-402.1359539849335
 30
0.0
 11
-129.9841433501012
 21
-402.0359528215363
 31
0.0
  0
LINE
  5
1F5C7
330
18
100
AcDbEntity
  8
1PHANTOM
100
AcDbLine
 10
-129.4841433501012
 20
-406.935953984938
 30
0.0
 11
-129.9841433501012
 21
-406.8359528215402
 31
0.0
  0
LINE
  5
1F5C8
330
18
100
AcDbEntity
  8
1PHANTOM
100
AcDbLine
 10
-129.4841433501012
 20
-405.335953984938
 30
0.0
 11
-129.9841433501012
 21
-405.2359528215403
 31
0.0
  0
LINE
  5
1F5C9
330
18
100
AcDbEntity
  8
1PHANTOM
100
AcDbLine
 10
-132.9841433501012
 20
-401.4359458411532
 30
0.0
 11
-133.4841433501012
 21
-401.3359446777561
 31
0.0
  0
LINE
  5
1F5CA
330
18
100
AcDbEntity
  8
1PHANTOM
100
AcDbLine
 10
-132.9841433501012
 20
-403.0359458411538
 30
0.0
 11
-133.4841433501012
 21
-402.935944677756
 31
0.0
  0
LINE
  5
1F5CB
330
18
100
AcDbEntity
  8
1PHANTOM
100
AcDbLine
 10
-132.9841433501012
 20
-406.2359458411539
 30
0.0
 11
-133.4841433501012
 21
-406.1359446777563
 31
0.0
  0
LINE
  5
1F5CC
330
18
100
AcDbEntity
  8
1PHANTOM
100
AcDbLine
 10
-132.9841433501012
 20
-404.6359458411537
 30
0.0
 11
-133.4841433501012
 21
-404.5359446777562
 31
0.0
  0
LINE
  5
1F5CD
330
18
100
AcDbEntity
  8
1PHANTOM
100
AcDbLine
 10
-133.4841433501012
 20
-404.5359446777562
 30
0.0
 11
-129.4841433501012
 21
-403.7359539849379
 31
0.0
  0
LINE
  5
1F5CE
330
18
100
AcDbEntity
  8
1PHANTOM
100
AcDbLine
 10
-133.4841433501012
 20
-402.935944677756
 30
0.0
 11
-129.4841433501012
 21
-402.1359539849335
 31
0.0
  0
LINE
  5
1F5CF
330
18
100
AcDbEntity
  8
1PHANTOM
100
AcDbLine
 10
-133.4841433501012
 20
-406.1359446777563
 30
0.0
 11
-129.4841433501012
 21
-405.335953984938
 31
0.0
  0
LINE
  5
1F5D0
330
18
100
AcDbEntity
  8
1PHANTOM
100
AcDbLine
 10
-133.4841433501012
 20
-407.7359446777562
 30
0.0
 11
-129.4841433501012
 21
-406.935953984938
 31
0.0
  0
LINE
  5
1F5D1
330
18
100
AcDbEntity
  8
1PHANTOM
100
AcDbLine
 10
-129.9841433501012
 20
-418.0359528214308
 30
0.0
 11
-132.9841433501012
 21
-418.0359458410463
 31
0.0
  0
LINE
  5
1F5D2
330
18
100
AcDbEntity
  8
1PHANTOM
100
AcDbLine
 10
-132.9841433501012
 20
-417.4359458411623
 30
0.0
 11
-133.4841433501012
 21
-417.3359446777648
 31
0.0
  0
LINE
  5
1F5D3
330
18
100
AcDbEntity
  8
1PHANTOM
100
AcDbLine
 10
-133.4841433501012
 20
-417.3359446777648
 30
0.0
 11
-129.4841433501012
 21
-416.5359539849465
 31
0.0
  0
LINE
  5
1F5D4
330
18
100
AcDbEntity
  8
1PHANTOM
100
AcDbLine
 10
-129.4841433501012
 20
-416.5359539849465
 30
0.0
 11
-129.9841433501012
 21
-416.4359528215487
 31
0.0
  0
LINE
  5
1F5D5
330
18
100
AcDbEntity
  8
1PHANTOM
100
AcDbLine
 10
-132.9841433501012
 20
-415.8359458411624
 30
0.0
 11
-133.4841433501012
 21
-415.7359446777648
 31
0.0
  0
LINE
  5
1F5D6
330
18
100
AcDbEntity
  8
1PHANTOM
100
AcDbLine
 10
-132.9841433501012
 20
-414.2359458411625
 30
0.0
 11
-133.4841433501012
 21
-414.1359446777649
 31
0.0
  0
LINE
  5
1F5D7
330
18
100
AcDbEntity
  8
1PHANTOM
100
AcDbLine
 10
-133.4841433501012
 20
-414.1359446777649
 30
0.0
 11
-129.4841433501012
 21
-413.3359539849467
 31
0.0
  0
LINE
  5
1F5D8
330
18
100
AcDbEntity
  8
1PHANTOM
100
AcDbLine
 10
-129.4841433501012
 20
-414.9359539849466
 30
0.0
 11
-129.9841433501012
 21
-414.8359528215488
 31
0.0
  0
LINE
  5
1F5D9
330
18
100
AcDbEntity
  8
1PHANTOM
100
AcDbLine
 10
-129.4841433501012
 20
-413.3359539849467
 30
0.0
 11
-129.9841433501012
 21
-413.2359528215489
 31
0.0
  0
LINE
  5
1F5DA
330
18
100
AcDbEntity
  8
1PHANTOM
100
AcDbLine
 10
-133.4841433501012
 20
-415.7359446777648
 30
0.0
 11
-129.4841433501012
 21
-414.9359539849466
 31
0.0
  0
LINE
  5
1F5DB
330
18
100
AcDbEntity
  8
1PHANTOM
100
AcDbLine
 10
-132.9841433501012
 20
-412.6359458411583
 30
0.0
 11
-133.4841433501012
 21
-412.5359446777605
 31
0.0
  0
LINE
  5
1F5DC
330
18
100
AcDbEntity
  8
1PHANTOM
100
AcDbLine
 10
-134.9841898859993
 20
-418.0359411873481
 30
0.0
 11
-134.9841898859992
 21
-417.0359493311303
 31
0.0
  0
LINE
  5
1F5DD
330
18
100
AcDbEntity
  8
1PHANTOM
100
AcDbLine
 10
-127.9841898859993
 20
-418.0359574749124
 30
0.0
 11
-127.9841898859993
 21
-417.0359493311303
 31
0.0
  0
LINE
  5
1F5EC
330
18
100
AcDbEntity
  8
1PHANTOM
100
AcDbLine
 10
-170.163364506712
 20
-390.9359524045252
 30
0.0
 11
-170.7151139705154
 21
-390.7531882618972
 31
0.0
  0
LINE
  5
1F5ED
330
18
100
AcDbEntity
  8
1CENTER
100
AcDbLine
 10
-171.4841898859993
 20
-385.0750347399842
 30
0.0
 11
-171.4841898859993
 21
-421.7062257404392
 31
0.0
  0
LINE
  5
1F5EE
330
18
100
AcDbEntity
  8
1PHANTOM
100
AcDbLine
 10
-172.5785136999943
 20
-390.1359467849705
 30
0.0
 11
-170.616178611119
 21
-389.3359513509195
 31
0.0
  0
LINE
  5
1F5EF
330
18
100
AcDbEntity
  8
1PHANTOM
100
AcDbLine
 10
-170.616178611119
 20
-389.3359513509195
 30
0.0
 11
-171.2044551861613
 21
-389.0241814946674
 31
0.0
  0
LINE
  5
1F5F0
330
18
100
AcDbEntity
  8
1PHANTOM
100
AcDbLine
 10
-173.4841433501012
 20
-412.5359446777605
 30
0.0
 11
-169.4841433501012
 21
-411.7359539849422
 31
0.0
  0
LINE
  5
1F5F1
330
18
100
AcDbEntity
  8
1PHANTOM
100
AcDbLine
 10
-173.4841433501012
 20
-401.3359446777561
 30
0.0
 11
-169.4841433501012
 21
-400.5359539849335
 31
0.0
  0
LINE
  5
1F5F2
330
18
100
AcDbEntity
  8
1PHANTOM
100
AcDbLine
 10
-173.4841433501012
 20
-398.1359446777561
 30
0.0
 11
-169.4841433501012
 21
-397.3359539849335
 31
0.0
  0
LINE
  5
1F5F3
330
18
100
AcDbEntity
  8
1PHANTOM
100
AcDbLine
 10
-169.4841433501012
 20
-397.3359539849335
 30
0.0
 11
-169.9841433501012
 21
-397.2359528215364
 31
0.0
  0
LINE
  5
1F5F4
330
18
100
AcDbEntity
  8
1PHANTOM
100
AcDbLine
 10
-172.9841433501012
 20
-396.6359458411533
 30
0.0
 11
-173.4841433501012
 21
-396.5359446777562
 31
0.0
  0
LINE
  5
1F5F5
330
18
100
AcDbEntity
  8
1PHANTOM
100
AcDbLine
 10
-169.4841433501012
 20
-400.5359539849335
 30
0.0
 11
-169.9841433501012
 21
-400.4359528215364
 31
0.0
  0
LINE
  5
1F5F6
330
18
100
AcDbEntity
  8
1PHANTOM
100
AcDbLine
 10
-169.4841433501012
 20
-398.9359539849334
 30
0.0
 11
-169.9841433501012
 21
-398.8359528215363
 31
0.0
  0
LINE
  5
1F5F7
330
18
100
AcDbEntity
  8
1PHANTOM
100
AcDbLine
 10
-172.9841433501012
 20
-398.2359458411532
 30
0.0
 11
-173.4841433501012
 21
-398.1359446777561
 31
0.0
  0
LINE
  5
1F5F8
330
18
100
AcDbEntity
  8
1PHANTOM
100
AcDbLine
 10
-172.9841433501012
 20
-399.8359458411531
 30
0.0
 11
-173.4841433501012
 21
-399.735944677756
 31
0.0
  0
LINE
  5
1F5F9
330
18
100
AcDbEntity
  8
1PHANTOM
100
AcDbLine
 10
-173.4841433501012
 20
-399.735944677756
 30
0.0
 11
-169.4841433501012
 21
-398.9359539849334
 31
0.0
  0
LINE
  5
1F5FA
330
18
100
AcDbEntity
  8
1PHANTOM
100
AcDbLine
 10
-169.4841433501012
 20
-394.1359539849335
 30
0.0
 11
-169.9841433501012
 21
-394.0359528215363
 31
0.0
  0
LINE
  5
1F5FB
330
18
100
AcDbEntity
  8
1PHANTOM
100
AcDbLine
 10
-169.4841433501012
 20
-395.7359539849336
 30
0.0
 11
-169.9841433501012
 21
-395.6359528215365
 31
0.0
  0
LINE
  5
1F5FC
330
18
100
AcDbEntity
  8
1PHANTOM
100
AcDbLine
 10
-169.7105504023054
 20
-392.5359534581308
 30
0.0
 11
-170.2471441375765
 21
-392.4066827605009
 31
0.0
  0
LINE
  5
1F5FD
330
18
100
AcDbEntity
  8
1PHANTOM
100
AcDbLine
 10
-172.5632287528927
 20
-391.8487152437163
 30
0.0
 11
-173.0313272080427
 21
-391.7359457313663
 31
0.0
  0
LINE
  5
1F5FE
330
18
100
AcDbEntity
  8
1PHANTOM
100
AcDbLine
 10
-172.9841433501012
 20
-395.0359458411531
 30
0.0
 11
-173.4841433501012
 21
-394.935944677756
 31
0.0
  0
LINE
  5
1F5FF
330
18
100
AcDbEntity
  8
1PHANTOM
100
AcDbLine
 10
-172.9841433501012
 20
-393.4359458411532
 30
0.0
 11
-173.4841433501012
 21
-393.3359446777561
 31
0.0
  0
LINE
  5
1F600
330
18
100
AcDbEntity
  8
1PHANTOM
100
AcDbLine
 10
-172.1213418593632
 20
-390.2873825814109
 30
0.0
 11
-172.5785136999943
 21
-390.1359467849705
 31
0.0
  0
LINE
  5
1F601
330
18
100
AcDbEntity
  8
1PHANTOM
100
AcDbLine
 10
-173.0313272080427
 20
-391.7359457313663
 30
0.0
 11
-170.163364506712
 21
-390.9359524045252
 31
0.0
  0
LINE
  5
1F602
330
18
100
AcDbEntity
  8
1PHANTOM
100
AcDbLine
 10
-173.4841433501012
 20
-394.935944677756
 30
0.0
 11
-169.4841433501012
 21
-394.1359539849335
 31
0.0
  0
LINE
  5
1F603
330
18
100
AcDbEntity
  8
1PHANTOM
100
AcDbLine
 10
-173.4841433501012
 20
-393.3359446777561
 30
0.0
 11
-169.7105504023054
 21
-392.5359534581308
 31
0.0
  0
LINE
  5
1F604
330
18
100
AcDbEntity
  8
1PHANTOM
100
AcDbLine
 10
-173.4841433501012
 20
-396.5359446777562
 30
0.0
 11
-169.4841433501012
 21
-395.7359539849336
 31
0.0
  0
LINE
  5
1F605
330
18
100
AcDbEntity
  8
1PHANTOM
100
AcDbLine
 10
-173.4841433501012
 20
-409.3359446777604
 30
0.0
 11
-169.4841433501012
 21
-408.5359539849422
 31
0.0
  0
LINE
  5
1F606
330
18
100
AcDbEntity
  8
1PHANTOM
100
AcDbLine
 10
-169.4841433501012
 20
-408.5359539849422
 30
0.0
 11
-169.9841433501012
 21
-408.4359528215446
 31
0.0
  0
LINE
  5
1F607
330
18
100
AcDbEntity
  8
1PHANTOM
100
AcDbLine
 10
-172.9841433501012
 20
-407.8359458411538
 30
0.0
 11
-173.4841433501012
 21
-407.7359446777562
 31
0.0
  0
LINE
  5
1F608
330
18
100
AcDbEntity
  8
1PHANTOM
100
AcDbLine
 10
-169.4841433501012
 20
-410.1359539849423
 30
0.0
 11
-169.9841433501012
 21
-410.0359528215448
 31
0.0
  0
LINE
  5
1F609
330
18
100
AcDbEntity
  8
1PHANTOM
100
AcDbLine
 10
-169.4841433501012
 20
-411.7359539849422
 30
0.0
 11
-169.9841433501012
 21
-411.6359528215447
 31
0.0
  0
LINE
  5
1F60A
330
18
100
AcDbEntity
  8
1PHANTOM
100
AcDbLine
 10
-172.9841433501012
 20
-409.4359458411582
 30
0.0
 11
-173.4841433501012
 21
-409.3359446777604
 31
0.0
  0
LINE
  5
1F60B
330
18
100
AcDbEntity
  8
1PHANTOM
100
AcDbLine
 10
-172.9841433501012
 20
-411.0359458411584
 30
0.0
 11
-173.4841433501012
 21
-410.9359446777606
 31
0.0
  0
LINE
  5
1F60C
330
18
100
AcDbEntity
  8
1PHANTOM
100
AcDbLine
 10
-173.4841433501012
 20
-410.9359446777606
 30
0.0
 11
-169.4841433501012
 21
-410.1359539849423
 31
0.0
  0
LINE
  5
1F60D
330
18
100
AcDbEntity
  8
1PHANTOM
100
AcDbLine
 10
-169.4841433501012
 20
-403.7359539849379
 30
0.0
 11
-169.9841433501012
 21
-403.6359528215401
 31
0.0
  0
LINE
  5
1F60E
330
18
100
AcDbEntity
  8
1PHANTOM
100
AcDbLine
 10
-169.4841433501012
 20
-402.1359539849335
 30
0.0
 11
-169.9841433501012
 21
-402.0359528215363
 31
0.0
  0
LINE
  5
1F60F
330
18
100
AcDbEntity
  8
1PHANTOM
100
AcDbLine
 10
-169.4841433501012
 20
-406.935953984938
 30
0.0
 11
-169.9841433501012
 21
-406.8359528215402
 31
0.0
  0
LINE
  5
1F610
330
18
100
AcDbEntity
  8
1PHANTOM
100
AcDbLine
 10
-169.4841433501012
 20
-405.335953984938
 30
0.0
 11
-169.9841433501012
 21
-405.2359528215403
 31
0.0
  0
LINE
  5
1F611
330
18
100
AcDbEntity
  8
1PHANTOM
100
AcDbLine
 10
-172.9841433501012
 20
-401.4359458411532
 30
0.0
 11
-173.4841433501012
 21
-401.3359446777561
 31
0.0
  0
LINE
  5
1F612
330
18
100
AcDbEntity
  8
1PHANTOM
100
AcDbLine
 10
-172.9841433501012
 20
-403.0359458411538
 30
0.0
 11
-173.4841433501012
 21
-402.935944677756
 31
0.0
  0
LINE
  5
1F613
330
18
100
AcDbEntity
  8
1PHANTOM
100
AcDbLine
 10
-172.9841433501012
 20
-406.2359458411539
 30
0.0
 11
-173.4841433501012
 21
-406.1359446777563
 31
0.0
  0
LINE
  5
1F614
330
18
100
AcDbEntity
  8
1PHANTOM
100
AcDbLine
 10
-172.9841433501012
 20
-404.6359458411537
 30
0.0
 11
-173.4841433501012
 21
-404.5359446777562
 31
0.0
  0
LINE
  5
1F615
330
18
100
AcDbEntity
  8
1PHANTOM
100
AcDbLine
 10
-173.4841433501012
 20
-404.5359446777562
 30
0.0
 11
-169.4841433501012
 21
-403.7359539849379
 31
0.0
  0
LINE
  5
1F616
330
18
100
AcDbEntity
  8
1PHANTOM
100
AcDbLine
 10
-173.4841433501012
 20
-402.935944677756
 30
0.0
 11
-169.4841433501012
 21
-402.1359539849335
 31
0.0
  0
LINE
  5
1F617
330
18
100
AcDbEntity
  8
1PHANTOM
100
AcDbLine
 10
-173.4841433501012
 20
-406.1359446777563
 30
0.0
 11
-169.4841433501012
 21
-405.335953984938
 31
0.0
  0
LINE
  5
1F618
330
18
100
AcDbEntity
  8
1PHANTOM
100
AcDbLine
 10
-173.4841433501012
 20
-407.7359446777562
 30
0.0
 11
-169.4841433501012
 21
-406.935953984938
 31
0.0
  0
LINE
  5
1F619
330
18
100
AcDbEntity
  8
1PHANTOM
100
AcDbLine
 10
-169.9841433501012
 20
-418.0359528214308
 30
0.0
 11
-172.9841433501012
 21
-418.0359458410463
 31
0.0
  0
LINE
  5
1F61A
330
18
100
AcDbEntity
  8
1PHANTOM
100
AcDbLine
 10
-172.9841433501012
 20
-417.4359458411623
 30
0.0
 11
-173.4841433501012
 21
-417.3359446777648
 31
0.0
  0
LINE
  5
1F61B
330
18
100
AcDbEntity
  8
1PHANTOM
100
AcDbLine
 10
-173.4841433501012
 20
-417.3359446777648
 30
0.0
 11
-169.4841433501012
 21
-416.5359539849465
 31
0.0
  0
LINE
  5
1F61C
330
18
100
AcDbEntity
  8
1PHANTOM
100
AcDbLine
 10
-169.4841433501012
 20
-416.5359539849465
 30
0.0
 11
-169.9841433501012
 21
-416.4359528215487
 31
0.0
  0
LINE
  5
1F61D
330
18
100
AcDbEntity
  8
1PHANTOM
100
AcDbLine
 10
-172.9841433501012
 20
-415.8359458411624
 30
0.0
 11
-173.4841433501012
 21
-415.7359446777648
 31
0.0
  0
LINE
  5
1F61E
330
18
100
AcDbEntity
  8
1PHANTOM
100
AcDbLine
 10
-172.9841433501012
 20
-414.2359458411625
 30
0.0
 11
-173.4841433501012
 21
-414.1359446777649
 31
0.0
  0
LINE
  5
1F61F
330
18
100
AcDbEntity
  8
1PHANTOM
100
AcDbLine
 10
-173.4841433501012
 20
-414.1359446777649
 30
0.0
 11
-169.4841433501012
 21
-413.3359539849467
 31
0.0
  0
LINE
  5
1F620
330
18
100
AcDbEntity
  8
1PHANTOM
100
AcDbLine
 10
-169.4841433501012
 20
-414.9359539849466
 30
0.0
 11
-169.9841433501012
 21
-414.8359528215488
 31
0.0
  0
LINE
  5
1F621
330
18
100
AcDbEntity
  8
1PHANTOM
100
AcDbLine
 10
-169.4841433501012
 20
-413.3359539849467
 30
0.0
 11
-169.9841433501012
 21
-413.2359528215489
 31
0.0
  0
LINE
  5
1F622
330
18
100
AcDbEntity
  8
1PHANTOM
100
AcDbLine
 10
-173.4841433501012
 20
-415.7359446777648
 30
0.0
 11
-169.4841433501012
 21
-414.9359539849466
 31
0.0
  0
LINE
  5
1F623
330
18
100
AcDbEntity
  8
1PHANTOM
100
AcDbLine
 10
-172.9841433501012
 20
-412.6359458411583
 30
0.0
 11
-173.4841433501012
 21
-412.5359446777605
 31
0.0
  0
LINE
  5
1F624
330
18
100
AcDbEntity
  8
1PHANTOM
100
AcDbLine
 10
-174.9841898859993
 20
-418.0359411873481
 30
0.0
 11
-174.9841898859992
 21
-417.0359493311303
 31
0.0
  0
LINE
  5
1F625
330
18
100
AcDbEntity
  8
1PHANTOM
100
AcDbLine
 10
-167.9841898859993
 20
-418.0359574749124
 30
0.0
 11
-167.9841898859993
 21
-417.0359493311303
 31
0.0
  0
LINE
  5
1F627
330
18
100
AcDbEntity
  8
1PHANTOM
100
AcDbLine
 10
-210.163364506712
 20
-390.9359524045252
 30
0.0
 11
-210.7151139705154
 21
-390.7531882618972
 31
0.0
  0
LINE
  5
1F628
330
18
100
AcDbEntity
  8
1CENTER
100
AcDbLine
 10
-211.4841898859993
 20
-385.0750347399842
 30
0.0
 11
-211.4841898859993
 21
-421.7062257404392
 31
0.0
  0
LINE
  5
1F629
330
18
100
AcDbEntity
  8
1PHANTOM
100
AcDbLine
 10
-212.5785136999943
 20
-390.1359467849705
 30
0.0
 11
-210.616178611119
 21
-389.3359513509195
 31
0.0
  0
LINE
  5
1F62A
330
18
100
AcDbEntity
  8
1PHANTOM
100
AcDbLine
 10
-210.616178611119
 20
-389.3359513509195
 30
0.0
 11
-211.2044551861613
 21
-389.0241814946674
 31
0.0
  0
LINE
  5
1F62B
330
18
100
AcDbEntity
  8
1PHANTOM
100
AcDbLine
 10
-213.4841433501012
 20
-412.5359446777605
 30
0.0
 11
-209.4841433501012
 21
-411.7359539849422
 31
0.0
  0
LINE
  5
1F62C
330
18
100
AcDbEntity
  8
1PHANTOM
100
AcDbLine
 10
-213.4841433501012
 20
-401.3359446777561
 30
0.0
 11
-209.4841433501012
 21
-400.5359539849335
 31
0.0
  0
LINE
  5
1F62D
330
18
100
AcDbEntity
  8
1PHANTOM
100
AcDbLine
 10
-213.4841433501012
 20
-398.1359446777561
 30
0.0
 11
-209.4841433501012
 21
-397.3359539849335
 31
0.0
  0
LINE
  5
1F62E
330
18
100
AcDbEntity
  8
1PHANTOM
100
AcDbLine
 10
-209.4841433501012
 20
-397.3359539849335
 30
0.0
 11
-209.9841433501012
 21
-397.2359528215364
 31
0.0
  0
LINE
  5
1F62F
330
18
100
AcDbEntity
  8
1PHANTOM
100
AcDbLine
 10
-212.9841433501012
 20
-396.6359458411533
 30
0.0
 11
-213.4841433501012
 21
-396.5359446777562
 31
0.0
  0
LINE
  5
1F630
330
18
100
AcDbEntity
  8
1PHANTOM
100
AcDbLine
 10
-209.4841433501012
 20
-400.5359539849335
 30
0.0
 11
-209.9841433501012
 21
-400.4359528215364
 31
0.0
  0
LINE
  5
1F631
330
18
100
AcDbEntity
  8
1PHANTOM
100
AcDbLine
 10
-209.4841433501012
 20
-398.9359539849334
 30
0.0
 11
-209.9841433501012
 21
-398.8359528215363
 31
0.0
  0
LINE
  5
1F632
330
18
100
AcDbEntity
  8
1PHANTOM
100
AcDbLine
 10
-212.9841433501012
 20
-398.2359458411532
 30
0.0
 11
-213.4841433501012
 21
-398.1359446777561
 31
0.0
  0
LINE
  5
1F633
330
18
100
AcDbEntity
  8
1PHANTOM
100
AcDbLine
 10
-212.9841433501012
 20
-399.8359458411531
 30
0.0
 11
-213.4841433501012
 21
-399.735944677756
 31
0.0
  0
LINE
  5
1F634
330
18
100
AcDbEntity
  8
1PHANTOM
100
AcDbLine
 10
-213.4841433501012
 20
-399.735944677756
 30
0.0
 11
-209.4841433501012
 21
-398.9359539849334
 31
0.0
  0
LINE
  5
1F635
330
18
100
AcDbEntity
  8
1PHANTOM
100
AcDbLine
 10
-209.4841433501012
 20
-394.1359539849335
 30
0.0
 11
-209.9841433501012
 21
-394.0359528215363
 31
0.0
  0
LINE
  5
1F636
330
18
100
AcDbEntity
  8
1PHANTOM
100
AcDbLine
 10
-209.4841433501012
 20
-395.7359539849336
 30
0.0
 11
-209.9841433501012
 21
-395.6359528215365
 31
0.0
  0
LINE
  5
1F637
330
18
100
AcDbEntity
  8
1PHANTOM
100
AcDbLine
 10
-209.7105504023054
 20
-392.5359534581308
 30
0.0
 11
-210.2471441375765
 21
-392.4066827605009
 31
0.0
  0
LINE
  5
1F638
330
18
100
AcDbEntity
  8
1PHANTOM
100
AcDbLine
 10
-212.5632287528927
 20
-391.8487152437163
 30
0.0
 11
-213.0313272080427
 21
-391.7359457313663
 31
0.0
  0
LINE
  5
1F639
330
18
100
AcDbEntity
  8
1PHANTOM
100
AcDbLine
 10
-212.9841433501012
 20
-395.0359458411531
 30
0.0
 11
-213.4841433501012
 21
-394.935944677756
 31
0.0
  0
LINE
  5
1F63A
330
18
100
AcDbEntity
  8
1PHANTOM
100
AcDbLine
 10
-212.9841433501012
 20
-393.4359458411532
 30
0.0
 11
-213.4841433501012
 21
-393.3359446777561
 31
0.0
  0
LINE
  5
1F63B
330
18
100
AcDbEntity
  8
1PHANTOM
100
AcDbLine
 10
-212.1213418593632
 20
-390.2873825814109
 30
0.0
 11
-212.5785136999943
 21
-390.1359467849705
 31
0.0
  0
LINE
  5
1F63C
330
18
100
AcDbEntity
  8
1PHANTOM
100
AcDbLine
 10
-213.0313272080427
 20
-391.7359457313663
 30
0.0
 11
-210.163364506712
 21
-390.9359524045252
 31
0.0
  0
LINE
  5
1F63D
330
18
100
AcDbEntity
  8
1PHANTOM
100
AcDbLine
 10
-213.4841433501012
 20
-394.935944677756
 30
0.0
 11
-209.4841433501012
 21
-394.1359539849335
 31
0.0
  0
LINE
  5
1F63E
330
18
100
AcDbEntity
  8
1PHANTOM
100
AcDbLine
 10
-213.4841433501012
 20
-393.3359446777561
 30
0.0
 11
-209.7105504023054
 21
-392.5359534581308
 31
0.0
  0
LINE
  5
1F63F
330
18
100
AcDbEntity
  8
1PHANTOM
100
AcDbLine
 10
-213.4841433501012
 20
-396.5359446777562
 30
0.0
 11
-209.4841433501012
 21
-395.7359539849336
 31
0.0
  0
LINE
  5
1F640
330
18
100
AcDbEntity
  8
1PHANTOM
100
AcDbLine
 10
-213.4841433501012
 20
-409.3359446777604
 30
0.0
 11
-209.4841433501012
 21
-408.5359539849422
 31
0.0
  0
LINE
  5
1F641
330
18
100
AcDbEntity
  8
1PHANTOM
100
AcDbLine
 10
-209.4841433501012
 20
-408.5359539849422
 30
0.0
 11
-209.9841433501012
 21
-408.4359528215446
 31
0.0
  0
LINE
  5
1F642
330
18
100
AcDbEntity
  8
1PHANTOM
100
AcDbLine
 10
-212.9841433501012
 20
-407.8359458411538
 30
0.0
 11
-213.4841433501012
 21
-407.7359446777562
 31
0.0
  0
LINE
  5
1F643
330
18
100
AcDbEntity
  8
1PHANTOM
100
AcDbLine
 10
-209.4841433501012
 20
-410.1359539849423
 30
0.0
 11
-209.9841433501012
 21
-410.0359528215448
 31
0.0
  0
LINE
  5
1F644
330
18
100
AcDbEntity
  8
1PHANTOM
100
AcDbLine
 10
-209.4841433501012
 20
-411.7359539849422
 30
0.0
 11
-209.9841433501012
 21
-411.6359528215447
 31
0.0
  0
LINE
  5
1F645
330
18
100
AcDbEntity
  8
1PHANTOM
100
AcDbLine
 10
-212.9841433501012
 20
-409.4359458411582
 30
0.0
 11
-213.4841433501012
 21
-409.3359446777604
 31
0.0
  0
LINE
  5
1F646
330
18
100
AcDbEntity
  8
1PHANTOM
100
AcDbLine
 10
-212.9841433501012
 20
-411.0359458411584
 30
0.0
 11
-213.4841433501012
 21
-410.9359446777606
 31
0.0
  0
LINE
  5
1F647
330
18
100
AcDbEntity
  8
1PHANTOM
100
AcDbLine
 10
-213.4841433501012
 20
-410.9359446777606
 30
0.0
 11
-209.4841433501012
 21
-410.1359539849423
 31
0.0
  0
LINE
  5
1F648
330
18
100
AcDbEntity
  8
1PHANTOM
100
AcDbLine
 10
-209.4841433501012
 20
-403.7359539849379
 30
0.0
 11
-209.9841433501012
 21
-403.6359528215401
 31
0.0
  0
LINE
  5
1F649
330
18
100
AcDbEntity
  8
1PHANTOM
100
AcDbLine
 10
-209.4841433501012
 20
-402.1359539849335
 30
0.0
 11
-209.9841433501012
 21
-402.0359528215363
 31
0.0
  0
LINE
  5
1F64A
330
18
100
AcDbEntity
  8
1PHANTOM
100
AcDbLine
 10
-209.4841433501012
 20
-406.935953984938
 30
0.0
 11
-209.9841433501012
 21
-406.8359528215402
 31
0.0
  0
LINE
  5
1F64B
330
18
100
AcDbEntity
  8
1PHANTOM
100
AcDbLine
 10
-209.4841433501012
 20
-405.335953984938
 30
0.0
 11
-209.9841433501012
 21
-405.2359528215403
 31
0.0
  0
LINE
  5
1F64C
330
18
100
AcDbEntity
  8
1PHANTOM
100
AcDbLine
 10
-212.9841433501012
 20
-401.4359458411532
 30
0.0
 11
-213.4841433501012
 21
-401.3359446777561
 31
0.0
  0
LINE
  5
1F64D
330
18
100
AcDbEntity
  8
1PHANTOM
100
AcDbLine
 10
-212.9841433501012
 20
-403.0359458411538
 30
0.0
 11
-213.4841433501012
 21
-402.935944677756
 31
0.0
  0
LINE
  5
1F64E
330
18
100
AcDbEntity
  8
1PHANTOM
100
AcDbLine
 10
-212.9841433501012
 20
-406.2359458411539
 30
0.0
 11
-213.4841433501012
 21
-406.1359446777563
 31
0.0
  0
LINE
  5
1F64F
330
18
100
AcDbEntity
  8
1PHANTOM
100
AcDbLine
 10
-212.9841433501012
 20
-404.6359458411537
 30
0.0
 11
-213.4841433501012
 21
-404.5359446777562
 31
0.0
  0
LINE
  5
1F650
330
18
100
AcDbEntity
  8
1PHANTOM
100
AcDbLine
 10
-213.4841433501012
 20
-404.5359446777562
 30
0.0
 11
-209.4841433501012
 21
-403.7359539849379
 31
0.0
  0
LINE
  5
1F651
330
18
100
AcDbEntity
  8
1PHANTOM
100
AcDbLine
 10
-213.4841433501012
 20
-402.935944677756
 30
0.0
 11
-209.4841433501012
 21
-402.1359539849335
 31
0.0
  0
LINE
  5
1F652
330
18
100
AcDbEntity
  8
1PHANTOM
100
AcDbLine
 10
-213.4841433501012
 20
-406.1359446777563
 30
0.0
 11
-209.4841433501012
 21
-405.335953984938
 31
0.0
  0
LINE
  5
1F653
330
18
100
AcDbEntity
  8
1PHANTOM
100
AcDbLine
 10
-213.4841433501012
 20
-407.7359446777562
 30
0.0
 11
-209.4841433501012
 21
-406.935953984938
 31
0.0
  0
LINE
  5
1F654
330
18
100
AcDbEntity
  8
1PHANTOM
100
AcDbLine
 10
-209.9841433501012
 20
-418.0359528214308
 30
0.0
 11
-212.9841433501012
 21
-418.0359458410463
 31
0.0
  0
LINE
  5
1F655
330
18
100
AcDbEntity
  8
1PHANTOM
100
AcDbLine
 10
-212.9841433501012
 20
-417.4359458411623
 30
0.0
 11
-213.4841433501012
 21
-417.3359446777648
 31
0.0
  0
LINE
  5
1F656
330
18
100
AcDbEntity
  8
1PHANTOM
100
AcDbLine
 10
-213.4841433501012
 20
-417.3359446777648
 30
0.0
 11
-209.4841433501012
 21
-416.5359539849465
 31
0.0
  0
LINE
  5
1F657
330
18
100
AcDbEntity
  8
1PHANTOM
100
AcDbLine
 10
-209.4841433501012
 20
-416.5359539849465
 30
0.0
 11
-209.9841433501012
 21
-416.4359528215487
 31
0.0
  0
LINE
  5
1F658
330
18
100
AcDbEntity
  8
1PHANTOM
100
AcDbLine
 10
-212.9841433501012
 20
-415.8359458411624
 30
0.0
 11
-213.4841433501012
 21
-415.7359446777648
 31
0.0
  0
LINE
  5
1F659
330
18
100
AcDbEntity
  8
1PHANTOM
100
AcDbLine
 10
-212.9841433501012
 20
-414.2359458411625
 30
0.0
 11
-213.4841433501012
 21
-414.1359446777649
 31
0.0
  0
LINE
  5
1F65A
330
18
100
AcDbEntity
  8
1PHANTOM
100
AcDbLine
 10
-213.4841433501012
 20
-414.1359446777649
 30
0.0
 11
-209.4841433501012
 21
-413.3359539849467
 31
0.0
  0
LINE
  5
1F65B
330
18
100
AcDbEntity
  8
1PHANTOM
100
AcDbLine
 10
-209.4841433501012
 20
-414.9359539849466
 30
0.0
 11
-209.9841433501012
 21
-414.8359528215488
 31
0.0
  0
LINE
  5
1F65C
330
18
100
AcDbEntity
  8
1PHANTOM
100
AcDbLine
 10
-209.4841433501012
 20
-413.3359539849467
 30
0.0
 11
-209.9841433501012
 21
-413.2359528215489
 31
0.0
  0
LINE
  5
1F65D
330
18
100
AcDbEntity
  8
1PHANTOM
100
AcDbLine
 10
-213.4841433501012
 20
-415.7359446777648
 30
0.0
 11
-209.4841433501012
 21
-414.9359539849466
 31
0.0
  0
LINE
  5
1F65E
330
18
100
AcDbEntity
  8
1PHANTOM
100
AcDbLine
 10
-212.9841433501012
 20
-412.6359458411583
 30
0.0
 11
-213.4841433501012
 21
-412.5359446777605
 31
0.0
  0
LINE
  5
1F65F
330
18
100
AcDbEntity
  8
1PHANTOM
100
AcDbLine
 10
-214.9841898859993
 20
-418.0359411873481
 30
0.0
 11
-214.9841898859992
 21
-417.0359493311303
 31
0.0
  0
LINE
  5
1F660
330
18
100
AcDbEntity
  8
1PHANTOM
100
AcDbLine
 10
-207.9841898859993
 20
-418.0359574749124
 30
0.0
 11
-207.9841898859993
 21
-417.0359493311303
 31
0.0
  0
LINE
  5
1F661
330
18
100
AcDbEntity
  8
1PHANTOM
100
AcDbLine
 10
-134.9841898859992
 20
-417.0359493311303
 30
0.0
 11
-127.9841898859993
 21
-417.0359493311303
 31
0.0
  0
LINE
  5
1F662
330
18
100
AcDbEntity
  8
1PHANTOM
100
AcDbLine
 10
-174.9841898859992
 20
-417.0359493311303
 30
0.0
 11
-167.9841898859993
 21
-417.0359493311303
 31
0.0
  0
LINE
  5
1F663
330
18
100
AcDbEntity
  8
1PHANTOM
100
AcDbLine
 10
-214.9841898859992
 20
-417.0359493311303
 30
0.0
 11
-207.9841898859993
 21
-417.0359493311303
 31
0.0
  0
LINE
  5
2022A
330
18
100
AcDbEntity
  8
1PHANTOM
100
AcDbLine
 10
72.13421109519841
 20
-573.4662136750273
 30
0.0
 11
66.83421458533662
 21
-571.9662136750273
 31
0.0
  0
LINE
  5
2022B
330
18
100
AcDbEntity
  8
1PHANTOM
100
AcDbLine
 10
66.83421458533662
 20
-571.9662136750273
 30
0.0
 11
42.13421458544481
 21
-571.9662136750273
 31
0.0
  0
LINE
  5
2022C
330
18
100
AcDbEntity
  8
1PHANTOM
100
AcDbLine
 10
42.13421458544481
 20
-571.9662136750273
 30
0.0
 11
42.13421923914298
 21
-569.9661671391293
 31
0.0
  0
LINE
  5
2022D
330
18
100
AcDbEntity
  8
1PHANTOM
100
AcDbLine
 10
42.13421923914298
 20
-569.9661671391293
 30
0.0
 11
41.0342157489476
 21
-569.9661671391293
 31
0.0
  0
ARC
  5
2022E
330
18
100
AcDbEntity
  8
1PHANTOM
100
AcDbCircle
 10
41.0342157489476
 20
-571.4661671391293
 30
0.0
 40
1.5
100
AcDbArc
 50
90.0
 51
179.9998666844749
  0
LINE
  5
2022F
330
18
100
AcDbEntity
  8
1PHANTOM
100
AcDbLine
 10
39.53421574895169
 20
-571.466163648937
 30
0.0
 11
39.53420644177204
 21
-575.466163648937
 31
0.0
  0
ARC
  5
20230
330
18
100
AcDbEntity
  8
1PHANTOM
100
AcDbCircle
 10
41.03420644176795
 20
-575.4661671391293
 30
0.0
 40
1.5
100
AcDbArc
 50
179.9998666844749
 51
270.0
  0
LINE
  5
20231
330
18
100
AcDbEntity
  8
1PHANTOM
100
AcDbLine
 10
41.03420644176795
 20
-576.9661671391293
 30
0.0
 11
42.13420295157853
 21
-576.9661671391293
 31
0.0
  0
LINE
  5
20232
330
18
100
AcDbEntity
  8
1PHANTOM
100
AcDbLine
 10
42.13420295157853
 20
-576.9661671391293
 30
0.0
 11
42.13420760506024
 21
-574.9662136750273
 31
0.0
  0
LINE
  5
20233
330
18
100
AcDbEntity
  8
1PHANTOM
100
AcDbLine
 10
42.13420760506024
 20
-574.9662136750273
 30
0.0
 11
66.83420760495297
 21
-574.9662136750273
 31
0.0
  0
LINE
  5
20234
330
18
100
AcDbEntity
  8
1PHANTOM
100
AcDbLine
 10
66.83420760495297
 20
-574.9662136750273
 30
0.0
 11
72.13421109519841
 21
-573.4662136750273
 31
0.0
  0
LINE
  5
20235
330
18
100
AcDbEntity
  8
1PHANTOM
100
AcDbLine
 10
72.13421109519841
 20
-577.4662136750273
 30
0.0
 11
66.83421458533662
 21
-575.9662136750273
 31
0.0
  0
LINE
  5
20236
330
18
100
AcDbEntity
  8
1PHANTOM
100
AcDbLine
 10
66.83421458533662
 20
-575.9662136750273
 30
0.0
 11
42.13421458544481
 21
-575.9662136750273
 31
0.0
  0
LINE
  5
20237
330
18
100
AcDbEntity
  8
1PHANTOM
100
AcDbLine
 10
42.13421458544481
 20
-575.9662136750273
 30
0.0
 11
42.13421923914298
 21
-573.9661671391293
 31
0.0
  0
LINE
  5
20238
330
18
100
AcDbEntity
  8
1PHANTOM
100
AcDbLine
 10
42.13421923914298
 20
-573.9661671391293
 30
0.0
 11
41.0342157489476
 21
-573.9661671391293
 31
0.0
  0
ARC
  5
20239
330
18
100
AcDbEntity
  8
1PHANTOM
100
AcDbCircle
 10
41.0342157489476
 20
-575.4661671391293
 30
0.0
 40
1.5
100
AcDbArc
 50
90.0
 51
179.9998666844749
  0
LINE
  5
2023A
330
18
100
AcDbEntity
  8
1PHANTOM
100
AcDbLine
 10
39.53421574895169
 20
-575.466163648937
 30
0.0
 11
39.53420644177204
 21
-579.466163648937
 31
0.0
  0
ARC
  5
2023B
330
18
100
AcDbEntity
  8
1PHANTOM
100
AcDbCircle
 10
41.03420644176795
 20
-579.4661671391293
 30
0.0
 40
1.5
100
AcDbArc
 50
179.9998666844749
 51
270.0
  0
LINE
  5
2023C
330
18
100
AcDbEntity
  8
1PHANTOM
100
AcDbLine
 10
41.03420644176795
 20
-580.9661671391293
 30
0.0
 11
42.13420295157853
 21
-580.9661671391293
 31
0.0
  0
LINE
  5
2023D
330
18
100
AcDbEntity
  8
1PHANTOM
100
AcDbLine
 10
42.13420295157853
 20
-580.9661671391293
 30
0.0
 11
42.13420760506024
 21
-578.9662136750273
 31
0.0
  0
LINE
  5
2023E
330
18
100
AcDbEntity
  8
1PHANTOM
100
AcDbLine
 10
42.13420760506024
 20
-578.9662136750273
 30
0.0
 11
66.83420760495297
 21
-578.9662136750273
 31
0.0
  0
LINE
  5
2023F
330
18
100
AcDbEntity
  8
1PHANTOM
100
AcDbLine
 10
66.83420760495297
 20
-578.9662136750273
 30
0.0
 11
72.13421109519841
 21
-577.4662136750273
 31
0.0
  0
SOLID
  5
20240
330
18
100
AcDbEntity
  8
1DIM
100
AcDbTrace
 10
31.32031497077846
 20
-551.1190787048167
 30
0.0
 11
32.98313801182121
 21
-552.2793074086887
 31
0.0
 12
31.03390690687635
 22
-551.721087729148
 32
0.0
 13
31.03390690687635
 23
-551.721087729148
 33
0.0
1001
ACAD
1000
DSTYLE
1002
{
1070
    40
1040
1.0
1002
}
  0
LINE
  5
20241
330
18
100
AcDbEntity
  8
1DIM
100
AcDbLine
 10
31.1771109388274
 20
-551.4200832169823
 30
0.0
 11
-0.2591551951021769
 21
-536.464161036693
 31
0.0
1001
ACAD
1000
DSTYLE
1002
{
1070
    40
1040
1.0
1002
}
  0
LINE
  5
20242
330
18
100
AcDbEntity
  8
1DIM
100
AcDbLine
 10
-0.2591551951021769
 20
-536.464161036693
 30
0.0
 11
-35.27582186176885
 21
-536.464161036693
 31
0.0
1001
ACAD
1000
DSTYLE
1002
{
1070
    40
1040
1.0
1002
}
  0
TEXT
  5
20243
330
18
100
AcDbEntity
  8
1DIM
  6
CONTINUOUS
100
AcDbText
 10
-35.85915519510216
 20
-535.7641610366929
 30
0.0
 40
3.5
  1
材質：ステンレス
100
AcDbText
  0
SOLID
  5
20244
330
18
100
AcDbEntity
  8
1DIM
100
AcDbTrace
 10
-45.67340025821316
 20
-551.6822100365248
 30
0.0
 11
-45.89857420557132
 21
-553.6972553969429
 31
0.0
 12
-46.33910004793567
 22
-551.7181020190259
 32
0.0
 13
-46.33910004793567
 23
-551.7181020190259
 33
0.0
1001
ACAD
1000
DSTYLE
1002
{
1070
    40
1040
1.0
1002
}
  0
LINE
  5
20245
330
18
100
AcDbEntity
  8
1DIM
100
AcDbLine
 10
-46.00625015307442
 20
-551.7001560277754
 30
0.0
 11
-48.7589266597483
 21
-500.6454066387118
 31
0.0
1001
ACAD
1000
DSTYLE
1002
{
1070
    40
1040
1.0
1002
}
  0
LINE
  5
20246
330
18
100
AcDbEntity
  8
1DIM
100
AcDbLine
 10
-48.7589266597483
 20
-500.6454066387118
 30
0.0
 11
-1.492259993081618
 21
-500.6454066387118
 31
0.0
1001
ACAD
1000
DSTYLE
1002
{
1070
    40
1040
1.0
1002
}
  0
TEXT
  5
20247
330
18
100
AcDbEntity
  8
1DIM
  6
CONTINUOUS
100
AcDbText
 10
-46.29225999308163
 20
-494.1120733053785
 30
0.0
 40
3.5
  1
材質：亜鉛ダイキャスト
100
AcDbText
  0
TEXT
  5
20248
330
18
100
AcDbEntity
  8
1DIM
  6
CONTINUOUS
100
AcDbText
 10
-46.17559332641496
 20
-499.9454066387118
 30
0.0
 40
3.5
  1
仕上げ：各種メッキ
100
AcDbText
  0
SOLID
  5
20249
330
18
100
AcDbEntity
  8
1DIM
100
AcDbTrace
 10
-18.58168719617604
 20
-592.015271800028
 30
0.0
 11
-17.67781201692235
 21
-593.830243086699
 31
0.0
 12
-19.12146841459617
 22
-592.4065270628492
 32
0.0
 13
-19.12146841459617
 23
-592.4065270628492
 33
0.0
1001
ACAD
1000
DSTYLE
1002
{
1070
    40
1040
1.0
1002
}
  0
LINE
  5
2024A
330
18
100
AcDbEntity
  8
1DIM
100
AcDbLine
 10
-18.85157780538611
 20
-592.2108994314386
 30
0.0
 11
-24.24454261730891
 21
-584.770689947518
 31
0.0
1001
ACAD
1000
DSTYLE
1002
{
1070
    40
1040
1.0
1002
}
  0
LINE
  5
2024B
330
18
100
AcDbEntity
  8
1DIM
100
AcDbLine
 10
-24.24454261730891
 20
-584.770689947518
 30
0.0
 11
-77.22787595064226
 21
-584.770689947518
 31
0.0
1001
ACAD
1000
DSTYLE
1002
{
1070
    40
1040
1.0
1002
}
  0
TEXT
  5
2024C
330
18
100
AcDbEntity
  8
1DIM
  6
CONTINUOUS
100
AcDbText
 10
-68.66402411082117
 20
-578.2373566141846
 30
0.0
 40
3.5
  1
材質：亜鉛ダイキャスト
100
AcDbText
  0
TEXT
  5
2024D
330
18
100
AcDbEntity
  8
1DIM
  6
CONTINUOUS
100
AcDbText
 10
-68.5473574441545
 20
-584.070689947518
 30
0.0
 40
3.5
  1
仕上げ：各種メッキ
100
AcDbText
  0
SOLID
  5
2024E
330
18
100
AcDbEntity
  8
1DIM
100
AcDbTrace
 10
-223.2686998631735
 20
-606.1458286750055
 30
0.0
 11
-223.4752579410904
 21
-604.1287900359214
 31
0.0
 12
-222.6256904709255
 22
-605.9698077503252
 32
0.0
 13
-222.6256904709255
 23
-605.9698077503252
 33
0.0
1001
ACAD
1000
DSTYLE
1002
{
1070
    40
1040
1.0
1002
}
  0
LINE
  5
2024F
330
18
100
AcDbEntity
  8
1DIM
100
AcDbLine
 10
-222.9471951670495
 20
-606.0578182126653
 30
0.0
 11
-213.8828299063959
 21
-639.1701996409129
 31
0.0
1001
ACAD
1000
DSTYLE
1002
{
1070
    40
1040
1.0
1002
}
  0
LINE
  5
20250
330
18
100
AcDbEntity
  8
1DIM
100
AcDbLine
 10
-213.8828299063959
 20
-639.1701996409129
 30
0.0
 11
-166.6161632397292
 21
-639.1701996409129
 31
0.0
1001
ACAD
1000
DSTYLE
1002
{
1070
    40
1040
1.0
1002
}
  0
TEXT
  5
20251
330
18
100
AcDbEntity
  8
1DIM
  6
CONTINUOUS
100
AcDbText
 10
-211.4161632397292
 20
-632.6368663075795
 30
0.0
 40
3.5
  1
材質：亜鉛ダイキャスト
100
AcDbText
  0
TEXT
  5
20252
330
18
100
AcDbEntity
  8
1DIM
  6
CONTINUOUS
100
AcDbText
 10
-211.2994965730626
 20
-638.4701996409128
 30
0.0
 40
3.5
  1
仕上げ：クローム
100
AcDbText
  0
SOLID
  5
20253
330
18
100
AcDbEntity
  8
1DIM
100
AcDbTrace
 10
-60.95944011567369
 20
-565.3896132563134
 30
0.0
 11
-61.19438652983172
 21
-567.4035425732422
 31
0.0
 12
-61.62530618679429
 22
-565.4222754634475
 32
0.0
 13
-61.62530618679429
 23
-565.4222754634475
 33
0.0
1001
ACAD
1000
DSTYLE
1002
{
1070
    40
1040
1.0
1002
}
  0
LINE
  5
20254
330
18
100
AcDbEntity
  8
1DIM
100
AcDbLine
 10
-61.29237315123399
 20
-565.4059443598804
 30
0.0
 11
-65.3963830655061
 21
-481.7397993796156
 31
0.0
1001
ACAD
1000
DSTYLE
1002
{
1070
    40
1040
1.0
1002
}
  0
LINE
  5
20255
330
18
100
AcDbEntity
  8
1DIM
100
AcDbLine
 10
-65.3963830655061
 20
-481.7397993796156
 30
0.0
 11
-3.863049732172747
 21
-481.7397993796156
 31
0.0
1001
ACAD
1000
DSTYLE
1002
{
1070
    40
1040
1.0
1002
}
  0
TEXT
  5
20256
330
18
100
AcDbEntity
  8
1DIM
  6
CONTINUOUS
100
AcDbText
 10
-62.92971639883943
 20
-475.2064660462823
 30
0.0
 40
3.5
  1
材質：ABS樹脂＋エラストマー
100
AcDbText
1001
ACADANNOTATIVE
1000
AnnotativeData
1002
{
1070
     1
1070
     0
1002
}
  0
TEXT
  5
20257
330
18
100
AcDbEntity
  8
1DIM
  6
CONTINUOUS
100
AcDbText
 10
-62.81304973217276
 20
-481.0397993796156
 30
0.0
 40
3.5
  1
仕上げ：グレー
100
AcDbText
1001
ACADANNOTATIVE
1000
AnnotativeData
1002
{
1070
     1
1070
     0
1002
}
  0
SOLID
  5
20258
330
18
100
AcDbEntity
  8
1DIM
100
AcDbTrace
 10
-233.2884892477772
 20
-608.8866974537962
 30
0.0
 11
-233.3495196985139
 21
-606.8600286611234
 31
0.0
 12
-232.6344902042475
 22
-608.757354129629
 32
0.0
 13
-232.6344902042475
 23
-608.757354129629
 33
0.0
1001
ACAD
1000
DSTYLE
1002
{
1070
    40
1040
1.0
1002
}
  0
LINE
  5
20259
330
18
100
AcDbEntity
  8
1DIM
100
AcDbLine
 10
-232.9614897260123
 20
-608.8220257917126
 30
0.0
 11
-223.312889001427
 21
-657.6082749925104
 31
0.0
1001
ACAD
1000
DSTYLE
1002
{
1070
    40
1040
1.0
1002
}
  0
LINE
  5
2025A
330
18
100
AcDbEntity
  8
1DIM
100
AcDbLine
 10
-223.312889001427
 20
-657.6082749925104
 30
0.0
 11
-179.4295556680937
 21
-657.6082749925104
 31
0.0
1001
ACAD
1000
DSTYLE
1002
{
1070
    40
1040
1.0
1002
}
  0
TEXT
  5
2025B
330
18
100
AcDbEntity
  8
1DIM
  6
CONTINUOUS
100
AcDbText
 10
-220.8462223347603
 20
-651.074941659177
 30
0.0
 40
3.5
  1
材質：ポリアセタール
100
AcDbText
  0
TEXT
  5
2025C
330
18
100
AcDbEntity
  8
1DIM
  6
CONTINUOUS
100
AcDbText
 10
-220.7295556680937
 20
-656.9082749925103
 30
0.0
 40
3.5
  1
仕上げ：グレー
100
AcDbText
  0
TEXT
  5
2025D
330
18
100
AcDbEntity
  8
1DIM
  6
CONTINUOUS
100
AcDbText
 10
61.28788127382563
 20
-497.1189470057285
 30
0.0
 40
3.5
  1
合板9mm以上
100
AcDbText
  0
SOLID
  5
2025E
330
18
100
AcDbEntity
  8
1DIM
100
AcDbTrace
 10
60.87238013203386
 20
-525.1823827392171
 30
0.0
 11
60.68207890379085
 21
-527.2010200403786
 31
0.0
 12
60.2074004004008
 22
-525.2297789517417
 32
0.0
 13
60.2074004004008
 23
-525.2297789517417
 33
0.0
  0
LINE
  5
2025F
330
18
100
AcDbEntity
  8
1DIM
100
AcDbLine
 10
60.53989026621733
 20
-525.2060808454794
 30
0.0
 11
58.58788127382563
 21
-497.8189470057285
 31
0.0
  0
LINE
  5
20260
330
18
100
AcDbEntity
  8
1DIM
100
AcDbLine
 10
58.58788127382563
 20
-497.8189470057285
 30
0.0
 11
90.72121460715896
 21
-497.8189470057285
 31
0.0
  0
SOLID
  5
20261
330
18
100
AcDbEntity
  8
1HATCH
100
AcDbTrace
 10
51.8893260207066
 20
-525.199389927174
 30
0.0
 11
52.01522664681465
 21
-527.2230648376913
 31
0.0
 12
51.23980446195011
 22
-525.3496103956695
 32
0.0
 13
51.23980446195011
 23
-525.3496103956695
 33
0.0
  0
LINE
  5
20262
330
18
100
AcDbEntity
  8
1HATCH
100
AcDbLine
 10
51.56456524132836
 20
-525.2745001614218
 30
0.0
 11
46.57863226497106
 21
-503.7163796796085
 31
0.0
  0
LINE
  5
20263
330
18
100
AcDbEntity
  8
1HATCH
100
AcDbLine
 10
46.57863226497106
 20
-503.7163796796085
 30
0.0
 11
38.04529893163772
 21
-503.7163796796085
 31
0.0
  0
TEXT
  5
20264
330
18
100
AcDbEntity
  8
1HATCH
  6
CONTINUOUS
100
AcDbText
 10
38.04529893163772
 20
-503.0163796796085
 30
0.0
 40
3.5
  1
PB
100
AcDbText
  0
LINE
  5
20265
330
18
100
AcDbEntity
  8
1DIM
100
AcDbLine
 10
-211.4841898859993
 20
-578.7817926673804
 30
0.0
 11
-211.4841898859993
 21
-594.8593116425614
 31
0.0
  0
LINE
  5
20266
330
18
100
AcDbEntity
  8
1DIM
100
AcDbLine
 10
-171.4841898859993
 20
-583.0262613030704
 30
0.0
 11
-171.4841898859993
 21
-594.8593116425614
 31
0.0
  0
LINE
  5
20267
330
18
100
AcDbEntity
  8
1DIM
100
AcDbLine
 10
-209.4841898859993
 20
-593.8593116425614
 30
0.0
 11
-173.4841898859993
 21
-593.8593116425614
 31
0.0
  0
LINE
  5
2026B
330
18
100
AcDbEntity
  8
1DIM
100
AcDbLine
 10
-171.4841898859993
 20
-583.0262613030704
 30
0.0
 11
-171.4841898859993
 21
-594.8593116425614
 31
0.0
  0
LINE
  5
2026C
330
18
100
AcDbEntity
  8
1DIM
100
AcDbLine
 10
-131.4841898859993
 20
-579.2060615671874
 30
0.0
 11
-131.4841898859993
 21
-594.8593116425614
 31
0.0
  0
LINE
  5
2026D
330
18
100
AcDbEntity
  8
1DIM
100
AcDbLine
 10
-169.4841898859993
 20
-593.8593116425614
 30
0.0
 11
-133.4841898859993
 21
-593.8593116425614
 31
0.0
  0
LINE
  5
20271
330
18
100
AcDbEntity
  8
1DIM
100
AcDbLine
 10
75.09512568650685
 20
-577.4661671391293
 30
0.0
 11
86.20467318520515
 21
-577.4661671391293
 31
0.0
  0
LINE
  5
20272
330
18
100
AcDbEntity
  8
1DIM
100
AcDbLine
 10
75.09512568650683
 20
-573.4661671391293
 30
0.0
 11
86.20467318520515
 21
-573.4661671391293
 31
0.0
  0
LINE
  5
20273
330
18
100
AcDbEntity
  8
1DIM
100
AcDbLine
 10
85.20467318520515
 20
-573.4661671391293
 30
0.0
 11
85.20467318520515
 21
-562.232833805796
 31
0.0
  0
LINE
  5
20274
330
18
100
AcDbEntity
  8
1DIM
100
AcDbLine
 10
85.20467318520515
 20
-577.4661671391293
 30
0.0
 11
85.20467318520515
 21
-573.4661671391293
 31
0.0
  0
LINE
  5
20275
330
18
100
AcDbEntity
  8
1DIM
100
AcDbLine
 10
85.20467318520515
 20
-579.4661671391293
 30
0.0
 11
85.20467318520515
 21
-581.4661671391293
 31
0.0
  0
LINE
  5
20276
330
18
100
AcDbEntity
  8
1DIM
100
AcDbLine
 10
85.20467318520515
 20
-571.4661671391293
 30
0.0
 11
85.20467318520515
 21
-569.4661671391293
 31
0.0
  0
LINE
  5
2027A
330
18
100
AcDbEntity
  8
1DIM
100
AcDbLine
 10
-68.28757077628757
 20
-568.5840515473138
 30
0.0
 11
-68.28757077628757
 21
-515.7683778956496
 31
0.0
1001
ACAD
1000
DSTYLE
1002
{
1070
   271
1070
     0
1002
}
  0
LINE
  5
2027B
330
18
100
AcDbEntity
  8
1DIM
100
AcDbLine
 10
47.13374758774773
 20
-523.8457732844631
 30
0.0
 11
47.13374758774773
 21
-515.7683778956496
 31
0.0
1001
ACAD
1000
DSTYLE
1002
{
1070
   271
1070
     0
1002
}
  0
LINE
  5
2027C
330
18
100
AcDbEntity
  8
1DIM
100
AcDbLine
 10
-66.28757077628757
 20
-516.7683778956496
 30
0.0
 11
45.13374758774773
 21
-516.7683778956496
 31
0.0
1001
ACAD
1000
DSTYLE
1002
{
1070
   271
1070
     0
1002
}
  0
LINE
  5
20280
330
18
100
AcDbEntity
  8
1DIM
100
AcDbLine
 10
-246.4841898859991
 20
-551.7661663741765
 30
0.0
 11
-246.4841898859991
 21
-534.3520867773937
 31
0.0
  0
LINE
  5
20281
330
18
100
AcDbEntity
  8
1DIM
100
AcDbLine
 10
-96.48418988599951
 20
-551.7661663741801
 30
0.0
 11
-96.48418988599951
 21
-534.3520867773937
 31
0.0
  0
LINE
  5
20282
330
18
100
AcDbEntity
  8
1DIM
100
AcDbLine
 10
-244.4841898859991
 20
-535.3520867773937
 30
0.0
 11
-98.48418988599951
 21
-535.3520867773937
 31
0.0
  0
LINE
  5
20286
330
18
100
AcDbEntity
  8
1DIM
100
AcDbLine
 10
-96.48418988599883
 20
-413.0359493311303
 30
0.0
 11
-86.74710973146895
 21
-413.0359493311303
 31
0.0
1001
ACAD
1000
DSTYLE
1002
{
1070
   271
1070
     0
1002
}
  0
LINE
  5
20287
330
18
100
AcDbEntity
  8
1DIM
100
AcDbLine
 10
-98.98418988599883
 20
-512.0359493311303
 30
0.0
 11
-86.74710973146898
 21
-512.0359493311303
 31
0.0
1001
ACAD
1000
DSTYLE
1002
{
1070
   271
1070
     0
1002
}
  0
LINE
  5
20288
330
18
100
AcDbEntity
  8
1DIM
100
AcDbLine
 10
-87.74710973146895
 20
-415.0359493311303
 30
0.0
 11
-87.74710973146898
 21
-510.0359493311303
 31
0.0
1001
ACAD
1000
DSTYLE
1002
{
1070
   271
1070
     0
1002
}
  0
LINE
  5
2028C
330
18
100
AcDbEntity
  8
1PHANTOM
100
AcDbLine
 10
-131.4841433501012
 20
-388.0359493312927
 30
0.0
 11
-132.9841433501013
 21
-393.3359458411543
 31
0.0
  0
LINE
  5
2028D
330
18
100
AcDbEntity
  8
1PHANTOM
100
AcDbLine
 10
-132.9841433501012
 20
-393.3359458411545
 30
0.0
 11
-132.9841433501012
 21
-418.0359458410463
 31
0.0
  0
LINE
  5
2028E
330
18
100
AcDbEntity
  8
1PHANTOM
100
AcDbLine
 10
-134.9841898859993
 20
-418.0359411873481
 30
0.0
 11
-132.9841433501012
 21
-418.0359458410462
 31
0.0
  0
LINE
  5
2028F
330
18
100
AcDbEntity
  8
1PHANTOM
100
AcDbLine
 10
-134.9841898859993
 20
-418.0359411873481
 30
0.0
 11
-134.9841898859994
 21
-419.1359446775435
 31
0.0
  0
ARC
  5
20290
330
18
100
AcDbEntity
  8
1PHANTOM
100
AcDbCircle
 10
-133.4841898859993
 20
-419.1359446775435
 30
0.0
 40
1.5
100
AcDbArc
 50
180.0
 51
269.999866684475
  0
LINE
  5
20291
330
18
100
AcDbEntity
  8
1PHANTOM
100
AcDbLine
 10
-133.4841933761916
 20
-420.6359446775394
 30
0.0
 11
-129.4841933761915
 21
-420.635953984719
 31
0.0
  0
ARC
  5
20292
330
18
100
AcDbEntity
  8
1PHANTOM
100
AcDbCircle
 10
-129.4841898859993
 20
-419.1359539847231
 30
0.0
 40
1.5
100
AcDbArc
 50
269.999866684475
 51
0.0
  0
LINE
  5
20293
330
18
100
AcDbEntity
  8
1PHANTOM
100
AcDbLine
 10
-127.9841898859993
 20
-418.0359574749125
 30
0.0
 11
-127.9841898859993
 21
-419.1359539847231
 31
0.0
  0
LINE
  5
20294
330
18
100
AcDbEntity
  8
1PHANTOM
100
AcDbLine
 10
-129.9841433501012
 20
-418.0359528214308
 30
0.0
 11
-127.9841898859993
 21
-418.0359574749124
 31
0.0
  0
LINE
  5
20295
330
18
100
AcDbEntity
  8
1PHANTOM
100
AcDbLine
 10
-129.9841433501012
 20
-393.3359528215381
 30
0.0
 11
-129.9841433501012
 21
-418.0359528214308
 31
0.0
  0
LINE
  5
20296
330
18
100
AcDbEntity
  8
1PHANTOM
100
AcDbLine
 10
-131.4841433501012
 20
-388.0359493312927
 30
0.0
 11
-129.9841433501012
 21
-393.3359528215379
 31
0.0
  0
LINE
  5
20297
330
18
100
AcDbEntity
  8
1PHANTOM
100
AcDbLine
 10
-171.4841433501012
 20
-388.0359493312927
 30
0.0
 11
-172.9841433501013
 21
-393.3359458411543
 31
0.0
  0
LINE
  5
20298
330
18
100
AcDbEntity
  8
1PHANTOM
100
AcDbLine
 10
-172.9841433501012
 20
-393.3359458411545
 30
0.0
 11
-172.9841433501012
 21
-418.0359458410463
 31
0.0
  0
LINE
  5
20299
330
18
100
AcDbEntity
  8
1PHANTOM
100
AcDbLine
 10
-174.9841898859993
 20
-418.0359411873481
 30
0.0
 11
-172.9841433501012
 21
-418.0359458410462
 31
0.0
  0
LINE
  5
2029A
330
18
100
AcDbEntity
  8
1PHANTOM
100
AcDbLine
 10
-174.9841898859993
 20
-418.0359411873481
 30
0.0
 11
-174.9841898859994
 21
-419.1359446775435
 31
0.0
  0
ARC
  5
2029B
330
18
100
AcDbEntity
  8
1PHANTOM
100
AcDbCircle
 10
-173.4841898859993
 20
-419.1359446775435
 30
0.0
 40
1.5
100
AcDbArc
 50
180.0
 51
269.999866684475
  0
LINE
  5
2029C
330
18
100
AcDbEntity
  8
1PHANTOM
100
AcDbLine
 10
-173.4841933761916
 20
-420.6359446775394
 30
0.0
 11
-169.4841933761915
 21
-420.635953984719
 31
0.0
  0
ARC
  5
2029D
330
18
100
AcDbEntity
  8
1PHANTOM
100
AcDbCircle
 10
-169.4841898859993
 20
-419.1359539847231
 30
0.0
 40
1.5
100
AcDbArc
 50
269.999866684475
 51
0.0
  0
LINE
  5
2029E
330
18
100
AcDbEntity
  8
1PHANTOM
100
AcDbLine
 10
-167.9841898859993
 20
-418.0359574749125
 30
0.0
 11
-167.9841898859993
 21
-419.1359539847231
 31
0.0
  0
LINE
  5
2029F
330
18
100
AcDbEntity
  8
1PHANTOM
100
AcDbLine
 10
-169.9841433501012
 20
-418.0359528214308
 30
0.0
 11
-167.9841898859993
 21
-418.0359574749124
 31
0.0
  0
LINE
  5
202A0
330
18
100
AcDbEntity
  8
1PHANTOM
100
AcDbLine
 10
-169.9841433501012
 20
-393.3359528215381
 30
0.0
 11
-169.9841433501012
 21
-418.0359528214308
 31
0.0
  0
LINE
  5
202A1
330
18
100
AcDbEntity
  8
1PHANTOM
100
AcDbLine
 10
-171.4841433501012
 20
-388.0359493312927
 30
0.0
 11
-169.9841433501012
 21
-393.3359528215379
 31
0.0
  0
LINE
  5
202A2
330
18
100
AcDbEntity
  8
1PHANTOM
100
AcDbLine
 10
-211.4841433501012
 20
-388.0359493312927
 30
0.0
 11
-212.9841433501013
 21
-393.3359458411543
 31
0.0
  0
LINE
  5
202A3
330
18
100
AcDbEntity
  8
1PHANTOM
100
AcDbLine
 10
-212.9841433501012
 20
-393.3359458411545
 30
0.0
 11
-212.9841433501012
 21
-418.0359458410463
 31
0.0
  0
LINE
  5
202A4
330
18
100
AcDbEntity
  8
1PHANTOM
100
AcDbLine
 10
-214.9841898859993
 20
-418.0359411873481
 30
0.0
 11
-212.9841433501012
 21
-418.0359458410462
 31
0.0
  0
LINE
  5
202A5
330
18
100
AcDbEntity
  8
1PHANTOM
100
AcDbLine
 10
-214.9841898859993
 20
-418.0359411873481
 30
0.0
 11
-214.9841898859994
 21
-419.1359446775435
 31
0.0
  0
ARC
  5
202A6
330
18
100
AcDbEntity
  8
1PHANTOM
100
AcDbCircle
 10
-213.4841898859993
 20
-419.1359446775435
 30
0.0
 40
1.5
100
AcDbArc
 50
180.0
 51
269.999866684475
  0
LINE
  5
202A7
330
18
100
AcDbEntity
  8
1PHANTOM
100
AcDbLine
 10
-213.4841933761916
 20
-420.6359446775394
 30
0.0
 11
-209.4841933761915
 21
-420.635953984719
 31
0.0
  0
ARC
  5
202A8
330
18
100
AcDbEntity
  8
1PHANTOM
100
AcDbCircle
 10
-209.4841898859993
 20
-419.1359539847231
 30
0.0
 40
1.5
100
AcDbArc
 50
269.999866684475
 51
0.0
  0
LINE
  5
202A9
330
18
100
AcDbEntity
  8
1PHANTOM
100
AcDbLine
 10
-207.9841898859993
 20
-418.0359574749125
 30
0.0
 11
-207.9841898859993
 21
-419.1359539847231
 31
0.0
  0
LINE
  5
202AA
330
18
100
AcDbEntity
  8
1PHANTOM
100
AcDbLine
 10
-209.9841433501012
 20
-418.0359528214308
 30
0.0
 11
-207.9841898859993
 21
-418.0359574749124
 31
0.0
  0
LINE
  5
202AB
330
18
100
AcDbEntity
  8
1PHANTOM
100
AcDbLine
 10
-209.9841433501012
 20
-393.3359528215381
 30
0.0
 11
-209.9841433501012
 21
-418.0359528214308
 31
0.0
  0
LINE
  5
202AC
330
18
100
AcDbEntity
  8
1PHANTOM
100
AcDbLine
 10
-211.4841433501012
 20
-388.0359493312927
 30
0.0
 11
-209.9841433501012
 21
-393.3359528215379
 31
0.0
  0
LINE
  5
202AD
330
18
100
AcDbEntity
  8
1DIM
100
AcDbLine
 10
47.1342110953608
 20
-550.7661663741801
 30
0.0
 11
77.81377612077722
 21
-550.7661663741801
 31
0.0
1001
ACAD
1000
DSTYLE
1002
{
1070
    45
1040
0.5
1002
}
  0
LINE
  5
202AE
330
18
100
AcDbEntity
  8
1DIM
100
AcDbLine
 10
75.09512568650683
 20
-573.4661671391293
 30
0.0
 11
77.81377612077722
 21
-573.4661671391293
 31
0.0
1001
ACAD
1000
DSTYLE
1002
{
1070
    45
1040
0.5
1002
}
  0
LINE
  5
202AF
330
18
100
AcDbEntity
  8
1DIM
100
AcDbLine
 10
76.81377612077722
 20
-552.7661663741801
 30
0.0
 11
76.81377612077722
 21
-571.4661671391293
 31
0.0
1001
ACAD
1000
DSTYLE
1002
{
1070
    45
1040
0.5
1002
}
  0
LINE
  5
202B3
330
18
100
AcDbEntity
  8
1DIM
100
AcDbLine
 10
47.1342110953608
 20
-585.9661668550054
 30
0.0
 11
95.40142981082302
 21
-585.9661668550054
 31
0.0
1001
ACAD
1000
DSTYLE
1002
{
1070
    45
1040
0.5
1002
}
  0
LINE
  5
202B4
330
18
100
AcDbEntity
  8
1DIM
100
AcDbLine
 10
47.1342110953608
 20
-550.7661663741801
 30
0.0
 11
95.40142981082302
 21
-550.7661663741801
 31
0.0
1001
ACAD
1000
DSTYLE
1002
{
1070
    45
1040
0.5
1002
}
  0
LINE
  5
202B5
330
18
100
AcDbEntity
  8
1DIM
100
AcDbLine
 10
94.40142981082302
 20
-583.9661668550054
 30
0.0
 11
94.40142981082302
 21
-552.7661663741801
 31
0.0
1001
ACAD
1000
DSTYLE
1002
{
1070
    45
1040
0.5
1002
}
  0
LINE
  5
202B9
330
18
100
AcDbEntity
  8
0
  6
BYBLOCK
100
AcDbLine
 10
-209.4841898859993
 20
-594.3952100225614
 30
0.0
 11
-211.4841898859993
 21
-593.8593116425614
 31
0.0
  0
LINE
  5
202BA
330
18
100
AcDbEntity
  8
0
  6
BYBLOCK
100
AcDbLine
 10
-211.4841898859993
 20
-593.8593116425614
 30
0.0
 11
-209.4841898859993
 21
-593.3234132625613
 31
0.0
  0
LINE
  5
202BB
330
18
100
AcDbEntity
  8
0
  6
BYBLOCK
100
AcDbLine
 10
-211.4841898859993
 20
-593.8593116425614
 30
0.0
 11
-209.4841898859993
 21
-593.8593116425614
 31
0.0
  0
LINE
  5
202BC
330
18
100
AcDbEntity
  8
0
  6
BYBLOCK
100
AcDbLine
 10
-173.4841898859993
 20
-593.3234132625613
 30
0.0
 11
-171.4841898859993
 21
-593.8593116425614
 31
0.0
  0
LINE
  5
202BD
330
18
100
AcDbEntity
  8
0
  6
BYBLOCK
100
AcDbLine
 10
-171.4841898859993
 20
-593.8593116425614
 30
0.0
 11
-173.4841898859993
 21
-594.3952100225614
 31
0.0
  0
LINE
  5
202BE
330
18
100
AcDbEntity
  8
0
  6
BYBLOCK
100
AcDbLine
 10
-171.4841898859993
 20
-593.8593116425614
 30
0.0
 11
-173.4841898859993
 21
-593.8593116425614
 31
0.0
  0
TEXT
  5
202BF
330
18
100
AcDbEntity
  8
1DIM
  6
CONTINUOUS
100
AcDbText
 10
-195.9321065526659
 20
-593.1593116425613
 30
0.0
 40
3.5
  1
P40
100
AcDbText
  0
LINE
  5
202C0
330
18
100
AcDbEntity
  8
0
  6
BYBLOCK
100
AcDbLine
 10
-169.4841898859993
 20
-594.3952100225614
 30
0.0
 11
-171.4841898859993
 21
-593.8593116425614
 31
0.0
  0
LINE
  5
202C1
330
18
100
AcDbEntity
  8
0
  6
BYBLOCK
100
AcDbLine
 10
-171.4841898859993
 20
-593.8593116425614
 30
0.0
 11
-169.4841898859993
 21
-593.3234132625613
 31
0.0
  0
LINE
  5
202C2
330
18
100
AcDbEntity
  8
0
  6
BYBLOCK
100
AcDbLine
 10
-171.4841898859993
 20
-593.8593116425614
 30
0.0
 11
-169.4841898859993
 21
-593.8593116425614
 31
0.0
  0
LINE
  5
202C3
330
18
100
AcDbEntity
  8
0
  6
BYBLOCK
100
AcDbLine
 10
-133.4841898859993
 20
-593.3234132625613
 30
0.0
 11
-131.4841898859993
 21
-593.8593116425614
 31
0.0
  0
LINE
  5
202C4
330
18
100
AcDbEntity
  8
0
  6
BYBLOCK
100
AcDbLine
 10
-131.4841898859993
 20
-593.8593116425614
 30
0.0
 11
-133.4841898859993
 21
-594.3952100225614
 31
0.0
  0
LINE
  5
202C5
330
18
100
AcDbEntity
  8
0
  6
BYBLOCK
100
AcDbLine
 10
-131.4841898859993
 20
-593.8593116425614
 30
0.0
 11
-133.4841898859993
 21
-593.8593116425614
 31
0.0
  0
TEXT
  5
202C6
330
18
100
AcDbEntity
  8
1DIM
  6
CONTINUOUS
100
AcDbText
 10
-155.9321065526659
 20
-593.1593116425613
 30
0.0
 40
3.5
  1
P40
100
AcDbText
  0
LINE
  5
202C7
330
18
100
AcDbEntity
  8
0
  6
BYBLOCK
100
AcDbLine
 10
84.66877480520515
 20
-579.4661671391293
 30
0.0
 11
85.20467318520515
 21
-577.4661671391293
 31
0.0
  0
LINE
  5
202C8
330
18
100
AcDbEntity
  8
0
  6
BYBLOCK
100
AcDbLine
 10
85.20467318520515
 20
-577.4661671391293
 30
0.0
 11
85.74057156520516
 21
-579.4661671391293
 31
0.0
  0
LINE
  5
202C9
330
18
100
AcDbEntity
  8
0
  6
BYBLOCK
100
AcDbLine
 10
85.20467318520515
 20
-577.4661671391293
 30
0.0
 11
85.20467318520515
 21
-579.4661671391293
 31
0.0
  0
LINE
  5
202CA
330
18
100
AcDbEntity
  8
0
  6
BYBLOCK
100
AcDbLine
 10
85.74057156520516
 20
-571.4661671391293
 30
0.0
 11
85.20467318520515
 21
-573.4661671391293
 31
0.0
  0
LINE
  5
202CB
330
18
100
AcDbEntity
  8
0
  6
BYBLOCK
100
AcDbLine
 10
85.20467318520515
 20
-573.4661671391293
 30
0.0
 11
84.66877480520515
 21
-571.4661671391293
 31
0.0
  0
LINE
  5
202CC
330
18
100
AcDbEntity
  8
0
  6
BYBLOCK
100
AcDbLine
 10
85.20467318520515
 20
-573.4661671391293
 30
0.0
 11
85.20467318520515
 21
-571.4661671391293
 31
0.0
  0
TEXT
  5
202CD
330
18
100
AcDbEntity
  8
1DIM
  6
CONTINUOUS
100
AcDbText
 10
84.50467318520515
 20
-568.7661671391294
 30
0.0
 40
3.5
  1
P4
 50
90.0
100
AcDbText
  0
LINE
  5
202CE
330
18
100
AcDbEntity
  8
0
  6
BYBLOCK
100
AcDbLine
 10
-66.28757077628757
 20
-517.3042762756496
 30
0.0
 11
-68.28757077628757
 21
-516.7683778956496
 31
0.0
  0
LINE
  5
202CF
330
18
100
AcDbEntity
  8
0
  6
BYBLOCK
100
AcDbLine
 10
-68.28757077628757
 20
-516.7683778956496
 30
0.0
 11
-66.28757077628757
 21
-516.2324795156495
 31
0.0
  0
LINE
  5
202D0
330
18
100
AcDbEntity
  8
0
  6
BYBLOCK
100
AcDbLine
 10
-68.28757077628757
 20
-516.7683778956496
 30
0.0
 11
-66.28757077628757
 21
-516.7683778956496
 31
0.0
  0
LINE
  5
202D1
330
18
100
AcDbEntity
  8
0
  6
BYBLOCK
100
AcDbLine
 10
45.13374758774773
 20
-516.2324795156495
 30
0.0
 11
47.13374758774773
 21
-516.7683778956496
 31
0.0
  0
LINE
  5
202D2
330
18
100
AcDbEntity
  8
0
  6
BYBLOCK
100
AcDbLine
 10
47.13374758774773
 20
-516.7683778956496
 30
0.0
 11
45.13374758774773
 21
-517.3042762756496
 31
0.0
  0
LINE
  5
202D3
330
18
100
AcDbEntity
  8
0
  6
BYBLOCK
100
AcDbLine
 10
47.13374758774773
 20
-516.7683778956496
 30
0.0
 11
45.13374758774773
 21
-516.7683778956496
 31
0.0
  0
TEXT
  5
202D4
330
18
100
AcDbEntity
  8
1DIM
  6
CONTINUOUS
100
AcDbText
 10
-33.96690493443599
 20
-516.0683778956496
 30
0.0
 40
3.5
  1
115 （ペーパー付き最大値）
100
AcDbText
1001
ACAD
1000
DSTYLE
1002
{
1070
   271
1070
     0
1002
}
  0
LINE
  5
202D5
330
18
100
AcDbEntity
  8
0
  6
BYBLOCK
100
AcDbLine
 10
-244.4841898859991
 20
-535.8879851573937
 30
0.0
 11
-246.4841898859991
 21
-535.3520867773937
 31
0.0
  0
LINE
  5
202D6
330
18
100
AcDbEntity
  8
0
  6
BYBLOCK
100
AcDbLine
 10
-246.4841898859991
 20
-535.3520867773937
 30
0.0
 11
-244.4841898859991
 21
-534.8161883973936
 31
0.0
  0
LINE
  5
202D7
330
18
100
AcDbEntity
  8
0
  6
BYBLOCK
100
AcDbLine
 10
-246.4841898859991
 20
-535.3520867773937
 30
0.0
 11
-244.4841898859991
 21
-535.3520867773937
 31
0.0
  0
LINE
  5
202D8
330
18
100
AcDbEntity
  8
0
  6
BYBLOCK
100
AcDbLine
 10
-98.48418988599951
 20
-534.8161883973936
 30
0.0
 11
-96.48418988599951
 21
-535.3520867773937
 31
0.0
  0
LINE
  5
202D9
330
18
100
AcDbEntity
  8
0
  6
BYBLOCK
100
AcDbLine
 10
-96.48418988599951
 20
-535.3520867773937
 30
0.0
 11
-98.48418988599951
 21
-535.8879851573937
 31
0.0
  0
LINE
  5
202DA
330
18
100
AcDbEntity
  8
0
  6
BYBLOCK
100
AcDbLine
 10
-96.48418988599951
 20
-535.3520867773937
 30
0.0
 11
-98.48418988599951
 21
-535.3520867773937
 31
0.0
  0
TEXT
  5
202DB
330
18
100
AcDbEntity
  8
1DIM
  6
CONTINUOUS
100
AcDbText
 10
-175.3609259971104
 20
-534.6520867773937
 30
0.0
 40
3.5
  1
150
100
AcDbText
  0
LINE
  5
202DC
330
18
100
AcDbEntity
  8
0
  6
BYBLOCK
100
AcDbLine
 10
-88.28300811146896
 20
-415.0359493311303
 30
0.0
 11
-87.74710973146895
 21
-413.0359493311303
 31
0.0
  0
LINE
  5
202DD
330
18
100
AcDbEntity
  8
0
  6
BYBLOCK
100
AcDbLine
 10
-87.74710973146895
 20
-413.0359493311303
 30
0.0
 11
-87.21121135146895
 21
-415.0359493311303
 31
0.0
  0
LINE
  5
202DE
330
18
100
AcDbEntity
  8
0
  6
BYBLOCK
100
AcDbLine
 10
-87.74710973146895
 20
-413.0359493311303
 30
0.0
 11
-87.74710973146895
 21
-415.0359493311303
 31
0.0
  0
LINE
  5
202DF
330
18
100
AcDbEntity
  8
0
  6
BYBLOCK
100
AcDbLine
 10
-87.21121135146898
 20
-510.0359493311303
 30
0.0
 11
-87.74710973146898
 21
-512.0359493311303
 31
0.0
  0
LINE
  5
202E0
330
18
100
AcDbEntity
  8
0
  6
BYBLOCK
100
AcDbLine
 10
-87.74710973146898
 20
-512.0359493311303
 30
0.0
 11
-88.28300811146899
 21
-510.0359493311303
 31
0.0
  0
LINE
  5
202E1
330
18
100
AcDbEntity
  8
0
  6
BYBLOCK
100
AcDbLine
 10
-87.74710973146898
 20
-512.0359493311303
 30
0.0
 11
-87.74710973146898
 21
-510.0359493311303
 31
0.0
  0
TEXT
  5
202E2
330
18
100
AcDbEntity
  8
1DIM
  6
CONTINUOUS
100
AcDbText
 10
-88.44710973146891
 20
-483.1847277649092
 30
0.0
 40
3.5
  1
99 （ペーパー無し最小値）
 50
90.0
100
AcDbText
1001
ACAD
1000
DSTYLE
1002
{
1070
   271
1070
     0
1002
}
  0
LINE
  5
202E3
330
18
100
AcDbEntity
  8
0
  6
BYBLOCK
100
AcDbLine
 10
76.27787774077721
 20
-552.7661663741801
 30
0.0
 11
76.81377612077722
 21
-550.7661663741801
 31
0.0
  0
LINE
  5
202E4
330
18
100
AcDbEntity
  8
0
  6
BYBLOCK
100
AcDbLine
 10
76.81377612077722
 20
-550.7661663741801
 30
0.0
 11
77.34967450077723
 21
-552.7661663741801
 31
0.0
  0
LINE
  5
202E5
330
18
100
AcDbEntity
  8
0
  6
BYBLOCK
100
AcDbLine
 10
76.81377612077722
 20
-550.7661663741801
 30
0.0
 11
76.81377612077722
 21
-552.7661663741801
 31
0.0
  0
LINE
  5
202E6
330
18
100
AcDbEntity
  8
0
  6
BYBLOCK
100
AcDbLine
 10
77.34967450077723
 20
-571.4661671391293
 30
0.0
 11
76.81377612077722
 21
-573.4661671391293
 31
0.0
  0
LINE
  5
202E7
330
18
100
AcDbEntity
  8
0
  6
BYBLOCK
100
AcDbLine
 10
76.81377612077722
 20
-573.4661671391293
 30
0.0
 11
76.27787774077721
 21
-571.4661671391293
 31
0.0
  0
LINE
  5
202E8
330
18
100
AcDbEntity
  8
0
  6
BYBLOCK
100
AcDbLine
 10
76.81377612077722
 20
-573.4661671391293
 30
0.0
 11
76.81377612077722
 21
-571.4661671391293
 31
0.0
  0
TEXT
  5
202E9
330
18
100
AcDbEntity
  8
1DIM
  6
CONTINUOUS
100
AcDbText
 10
76.11377612077735
 20
-567.3661667566547
 30
0.0
 40
3.5
  1
22.5
 50
90.0
100
AcDbText
1001
ACAD
1000
DSTYLE
1002
{
1070
    45
1040
0.5
1002
}
  0
LINE
  5
202EA
330
18
100
AcDbEntity
  8
0
  6
BYBLOCK
100
AcDbLine
 10
94.93732819082302
 20
-583.9661668550054
 30
0.0
 11
94.40142981082302
 21
-585.9661668550054
 31
0.0
  0
LINE
  5
202EB
330
18
100
AcDbEntity
  8
0
  6
BYBLOCK
100
AcDbLine
 10
94.40142981082302
 20
-585.9661668550054
 30
0.0
 11
93.86553143082301
 21
-583.9661668550054
 31
0.0
  0
LINE
  5
202EC
330
18
100
AcDbEntity
  8
0
  6
BYBLOCK
100
AcDbLine
 10
94.40142981082302
 20
-585.9661668550054
 30
0.0
 11
94.40142981082302
 21
-583.9661668550054
 31
0.0
  0
LINE
  5
202ED
330
18
100
AcDbEntity
  8
0
  6
BYBLOCK
100
AcDbLine
 10
93.86553143082301
 20
-552.7661663741801
 30
0.0
 11
94.40142981082302
 21
-550.7661663741801
 31
0.0
  0
LINE
  5
202EE
330
18
100
AcDbEntity
  8
0
  6
BYBLOCK
100
AcDbLine
 10
94.40142981082302
 20
-550.7661663741801
 30
0.0
 11
94.93732819082302
 21
-552.7661663741801
 31
0.0
  0
LINE
  5
202EF
330
18
100
AcDbEntity
  8
0
  6
BYBLOCK
100
AcDbLine
 10
94.40142981082302
 20
-550.7661663741801
 30
0.0
 11
94.40142981082302
 21
-552.7661663741801
 31
0.0
  0
TEXT
  5
202F0
330
18
100
AcDbEntity
  8
1DIM
  6
CONTINUOUS
100
AcDbText
 10
93.70142981082313
 20
-571.2828332812594
 30
0.0
 40
3.5
  1
35
 50
90.0
100
AcDbText
1001
ACAD
1000
DSTYLE
1002
{
1070
    45
1040
0.5
1002
}
  0
VIEWPORT
  5
57
330
15
100
AcDbEntity
 67
     1
  8
0
100
AcDbViewport
 68
     1
 10
0.0
 20
0.0
 30
0.0
 40
535.5106132075472
 41
297.0
 68
     1
 69
     1
1001
ACAD
1000
MVIEW
1002
{
1070
    16
1010
0.0
1020
0.0
1030
0.0
1010
0.0
1020
0.0
1030
1.0
1040
0.0
1040
297.0
1040
-6.195605912212642
1040
23.67940872896961
1040
50.0
1040
0.0
1040
0.0
1070
    16
1070
   100
1070
     0
1070
     1
1070
     0
1070
     0
1070
     0
1070
     0
1040
0.0
1040
0.0
1040
0.0
1040
10.0
1040
10.0
1040
10.0
1040
10.0
1070
     0
1002
{
1002
}
1002
}
  0
ENDSEC
  0
SECTION
  2
OBJECTS
  0
DICTIONARY
  5
C
330
0
100
AcDbDictionary
  3
ACAD_COLOR
350
2D0
  3
ACAD_GROUP
350
D
  3
ACAD_LAYOUT
350
2D1
  3
ACAD_MATERIAL
350
2CF
  3
ACAD_MLEADERSTYLE
350
19E18
  3
ACAD_MLINESTYLE
350
1B
  3
ACAD_PLOTSETTINGS
350
2D2
  3
ACAD_SCALELIST
350
19DF6
  3
ACAD_VISUALSTYLE
350
19DE5
  3
ACDBHEADERROUNDTRIPXREC
350
202F1
  3
ACDBVARIABLEDICTIONARY
350
37
  3
CONTENTDICTIONARY
350
D8
  3
DRAWINGVARIABLESDICT
350
20
  3
DWGPROPS
350
202F4
1001
ACAD
1000
TREAT_AS_HARD
1070
     0
  0
DICTIONARY
  5
18FE8
330
2
100
AcDbDictionary
  3
ACAD_LAYERSTATES
360
18FE9
1001
ACAD
1000
TREAT_AS_HARD
1070
     1
  0
DICTIONARY
  5
1A20A
330
E
100
AcDbDictionary
  3
ADSK_XREC_LAYER_RECONCILED
360
1A20B
1001
ACAD
1000
TREAT_AS_HARD
1070
     1
  0
DICTIONARY
  5
1A20C
330
29
100
AcDbDictionary
  3
ADSK_XREC_LAYER_RECONCILED
360
1A20D
1001
ACAD
1000
TREAT_AS_HARD
1070
     1
  0
DICTIONARY
  5
1A20E
330
31
100
AcDbDictionary
  3
ADSK_XREC_LAYER_RECONCILED
360
1A20F
1001
ACAD
1000
TREAT_AS_HARD
1070
     1
  0
DICTIONARY
  5
1A218
330
101
100
AcDbDictionary
  3
ADSK_XREC_LAYER_RECONCILED
360
1A219
1001
ACAD
1000
TREAT_AS_HARD
1070
     1
  0
DICTIONARY
  5
1A21C
330
103
100
AcDbDictionary
  3
ADSK_XREC_LAYER_RECONCILED
360
1A21D
1001
ACAD
1000
TREAT_AS_HARD
1070
     1
  0
DICTIONARY
  5
1A220
330
25F
100
AcDbDictionary
  3
ADSK_XREC_LAYER_RECONCILED
360
1A221
1001
ACAD
1000
TREAT_AS_HARD
1070
     1
  0
DICTIONARY
  5
1A23C
330
26D
100
AcDbDictionary
  3
ADSK_XREC_LAYER_RECONCILED
360
1A23D
1001
ACAD
1000
TREAT_AS_HARD
1070
     1
  0
DICTIONARY
  5
6E9
330
18
100
AcDbDictionary
  3
ACAD_SORTENTS
360
6EA
1001
ACAD
1000
TREAT_AS_HARD
1070
     1
  0
DICTIONARY
  5
59B
330
15
100
AcDbDictionary
  3
ACAD_SORTENTS
360
59C
1001
ACAD
1000
TREAT_AS_HARD
1070
     1
  0
DICTIONARY
  5
2D0
102
{ACAD_REACTORS
330
C
102
}
330
C
100
AcDbDictionary
1001
ACAD
1000
TREAT_AS_HARD
1070
     0
  0
DICTIONARY
  5
D
102
{ACAD_REACTORS
330
C
102
}
330
C
100
AcDbDictionary
1001
ACAD
1000
TREAT_AS_HARD
1070
     0
  0
DICTIONARY
  5
2D1
102
{ACAD_REACTORS
330
C
102
}
330
C
100
AcDbDictionary
1001
ACAD
1000
TREAT_AS_HARD
1070
     0
  0
DICTIONARY
  5
2CF
102
{ACAD_REACTORS
330
C
102
}
330
C
100
AcDbDictionary
  3
BYBLOCK
350
19DD5
  3
BYLAYER
350
19DCD
  3
GLOBAL
350
19DDD
1001
ACAD
1000
TREAT_AS_HARD
1070
     0
  0
DICTIONARY
  5
19E18
102
{ACAD_REACTORS
330
C
102
}
330
C
100
AcDbDictionary
  3
STANDARD
350
19E19
1001
ACAD
1000
TREAT_AS_HARD
1070
     0
  0
DICTIONARY
  5
1B
102
{ACAD_REACTORS
330
C
102
}
330
C
100
AcDbDictionary
  3
STANDARD
350
1C
1001
ACAD
1000
TREAT_AS_HARD
1070
     0
  0
DICTIONARY
  5
2D2
102
{ACAD_REACTORS
330
C
102
}
330
C
100
AcDbDictionary
1001
ACAD
1000
TREAT_AS_HARD
1070
     0
  0
DICTIONARY
  5
19DF6
102
{ACAD_REACTORS
330
C
102
}
330
C
100
AcDbDictionary
  3
A0
350
19DF7
  3
A1
350
19DF8
  3
A2
350
19DF9
  3
A3
350
19DFA
  3
A4
350
19DFB
  3
A5
350
19DFC
  3
A6
350
19DFD
  3
A7
350
19DFE
  3
A8
350
19DFF
  3
A9
350
19E00
  3
B0
350
19E01
  3
B1
350
19E02
  3
B2
350
19E03
  3
B3
350
19E04
  3
B4
350
19E05
  3
B5
350
19E06
  3
B6
350
19E07
  3
B7
350
19E08
  3
B8
350
19E09
  3
B9
350
19E0A
  3
C0
350
19E0B
  3
C1
350
19E0C
  3
C2
350
19E0D
  3
C3
350
19E0E
  3
C4
350
19E0F
  3
C5
350
19E10
  3
C6
350
19E11
  3
C7
350
19E12
  3
C8
350
19E13
  3
C9
350
19E14
  3
D0
350
19E15
  3
D1
350
19E16
  3
D2
350
19E17
1001
ACAD
1000
TREAT_AS_HARD
1070
     0
  0
DICTIONARY
  5
19DE5
102
{ACAD_REACTORS
330
C
102
}
330
C
100
AcDbDictionary
  3
2DWIREFRAME
350
19DEB
  3
3D_HIDDEN
350
19DED
  3
3DWIREFRAME
350
19DEC
  3
BASIC
350
19DEA
  3
BRIGHTEN
350
19DF1
  3
COLORCHANGE
350
19DF5
  3
CONCEPTUAL
350
19DEE
  3
DIM
350
19DF0
  3
EDGECOLOROFF
350
1F6A7
  3
FACEPATTERN
350
19DF4
  3
FLAT
350
19DE6
  3
FLATWITHEDGES
350
19DE7
  3
GOURAUD
350
19DE8
  3
GOURAUDWITHEDGES
350
19DE9
  3
HIDDEN
350
1F8D5
  3
JITTEROFF
350
1F6A5
  3
LINEPATTERN
350
19DF3
  3
MODELING
350
1F8DB
  3
OVERHANGOFF
350
1F6A6
  3
REALISTIC
350
19DEF
  3
SHADED
350
1F8DA
  3
SHADED_WITH_EDGES
350
1F8D9
  3
SHADES_OF_GRAY
350
1F8D6
  3
SKETCHY
350
1F8D7
  3
THICKEN
350
19DF2
  3
WIREFRAME
350
1F8D4
  3
X-RAY
350
1F8D8
1001
ACAD
1000
TREAT_AS_HARD
1070
     0
  0
DICTIONARY
  5
202F1
102
{ACAD_REACTORS
330
C
102
}
330
C
100
AcDbDictionary
  3
COLORDICT
350
202F2
  3
MATERIALDICT
350
202F3
1001
ACAD
1000
TREAT_AS_HARD
1070
     0
  0
DICTIONARY
  5
37
102
{ACAD_REACTORS
330
C
102
}
330
C
100
AcDbDictionary
  3
CANNOSCALE
350
1AC1A
  3
CMLEADERSTYLE
350
1AC19
  3
CTABLESTYLE
350
4F1
  3
DIMADEC
350
38
  3
DIMASSOC
350
408
  3
HIDETEXT
350
1891
  3
INDEXCTL
350
1AC1C
  3
INTERSECTIONCOLOR
350
1895
  3
INTERSECTIONDISPLAY
350
1894
  3
MSLTSCALE
350
20110
  3
OBSCOLOR
350
1892
  3
OBSLTYPE
350
1893
  3
PROJECTNAME
350
409
  3
SORTENTS
350
1AC1B
  3
XCLIPFRAME
350
1F8D3
1001
ACAD
1000
TREAT_AS_HARD
1070
     0
  0
DICTIONARY
  5
D8
102
{ACAD_REACTORS
330
C
102
}
330
C
100
AcDbDictionary
1001
CONTENTTABDATA
1070
    11
1000
Child
1000
D:\ACLT\TABset\CHILDREN.dwg
1070
     0
1070
     0
1070
     1
1000
PK
1000
D:\ACLT\TABset\PK.dwg
1070
     0
1070
     0
1070
     1
1000
Lev1
1000
D:\ACLT\TABset\Lever01.dwg
1070
     0
1070
     0
1070
     1
1000
Lev2
1000
D:\ACLT\TABset\Lever02.dwg
1070
     0
1070
     0
1070
     1
1000
L3
1000
D:\Aclt\TABset\Lever03.dwg
1070
     0
1070
     0
1070
     1
1000
Form
1000
D:\ACLT\FORMAT
1070
     1
1070
     0
1070
     1
1000
Jnt
1000
D:\ACLT\TABset\JOINTPARTS.dwg
1070
     0
1070
     0
1070
     1
1000
ISO
1000
D:\ACLT\TABset\Isome01.dwg
1070
     0
1070
     0
1070
     1
1000
R
1000
D:\ACLT\TABset\REGION.dwg
1070
     0
1070
     0
1070
     1
1000
std
1000
D:\ACLT\TABset\std_sym_all.dwg
1070
     0
1070
     0
1070
     1
1000
丸
1000
D:\Aclt\TABset\MARU.dwg
1070
     0
1070
     0
1070
     1
1001
CONTENTCURRENTTAB
1070
     0
1001
ACAD
1000
TREAT_AS_HARD
1070
     0
  0
DICTIONARY
  5
20
102
{ACAD_REACTORS
330
C
102
}
330
C
100
AcDbDictionary
1001
DRAWINGVARIABLESXDATA
1000
POLARANG
1000
0.261799387799149410000000
1000
POLARMODE
1000
1
1000
POLARSTYLE
1000
1
1001
ACAD
1000
TREAT_AS_HARD
1070
     0
  0
XRECORD
  5
202F4
102
{ACAD_REACTORS
330
C
102
}
330
C
100
AcDbXrecord
  1
DWGPROPS COOKIE
  2

  3

  4

  6

  7

  8
3684
  9

300
=
301
=
302
=
303
=
304
=
305
=
306
=
307
=
308
=
309
=
 40
0.0
 41
2453033.357663484
 42
2459111.313780069
  1

 90
        0
  0
DICTIONARY
  5
18FE9
102
{ACAD_REACTORS
330
18FE8
102
}
330
18FE8
100
AcDbDictionary
1001
ACAD
1000
TREAT_AS_HARD
1070
     0
  0
ACAD_PROXY_OBJECT
  5
1A20B
102
{ACAD_REACTORS
330
1A20A
102
}
330
1A20A
100
AcDbZombieObject
 90
      499
 91
      517
 93
       34
310
40C8804040
  0
ACAD_PROXY_OBJECT
  5
1A20D
102
{ACAD_REACTORS
330
1A20C
102
}
330
1A20C
100
AcDbZombieObject
 90
      499
 91
      517
 93
       34
310
40C8804040
  0
ACAD_PROXY_OBJECT
  5
1A20F
102
{ACAD_REACTORS
330
1A20E
102
}
330
1A20E
100
AcDbZombieObject
 90
      499
 91
      517
 93
       34
310
40C8804040
  0
ACAD_PROXY_OBJECT
  5
1A219
102
{ACAD_REACTORS
330
1A218
102
}
330
1A218
100
AcDbZombieObject
 90
      499
 91
      517
 93
       34
310
40C8804040
  0
ACAD_PROXY_OBJECT
  5
1A21D
102
{ACAD_REACTORS
330
1A21C
102
}
330
1A21C
100
AcDbZombieObject
 90
      499
 91
      517
 93
       34
310
40C8804040
  0
ACAD_PROXY_OBJECT
  5
1A221
102
{ACAD_REACTORS
330
1A220
102
}
330
1A220
100
AcDbZombieObject
 90
      499
 91
      517
 93
       34
310
40C8804040
  0
ACAD_PROXY_OBJECT
  5
1A23D
102
{ACAD_REACTORS
330
1A23C
102
}
330
1A23C
100
AcDbZombieObject
 90
      499
 91
      517
 93
       34
310
40C8804040
  0
SORTENTSTABLE
  5
6EA
102
{ACAD_REACTORS
330
6E9
102
}
330
6E9
100
AcDbSortentsTable
330
18
331
0
  5
99AB
331
0
  5
AB53
331
0
  5
AB54
331
0
  5
ECB5
331
0
  5
1D11E
331
1E769
  5
1E774
331
1E76A
  5
1E775
331
1E76B
  5
1E776
331
1E76C
  5
1E777
331
1E76D
  5
1E778
331
1E76E
  5
1E779
331
1E76F
  5
1E77A
331
1E770
  5
1E77B
331
1E771
  5
1E77C
331
1E772
  5
1E77D
331
1E773
  5
1E77E
331
1E774
  5
1E77F
331
1E775
  5
1E780
331
1E776
  5
1E781
331
1E777
  5
1E782
331
1E778
  5
1E783
331
1E779
  5
1E784
331
1E77A
  5
1E785
331
1E77B
  5
1E786
331
1E77C
  5
1E787
331
1E77D
  5
1E788
331
1E77E
  5
1E789
331
1E77F
  5
1E78A
331
1E780
  5
1E78B
331
1E781
  5
1E78C
331
1E782
  5
1E78D
331
1E783
  5
1E78E
331
1E784
  5
1E78F
331
1E785
  5
1E790
331
1E786
  5
1E791
331
1E787
  5
1E792
331
1E788
  5
1E793
331
1E789
  5
1E794
331
1E78A
  5
1E795
331
1E78B
  5
1E796
331
1E78C
  5
1E797
331
1E78D
  5
1E798
331
1E78E
  5
1E799
331
1E78F
  5
1E79A
331
1E790
  5
1E79B
331
1E791
  5
1E79C
331
1E792
  5
1E79D
331
1E793
  5
1E79E
331
1E794
  5
1E79F
331
1E795
  5
1E7A0
331
1E796
  5
1E7BA
331
1E797
  5
1E7BB
331
1E798
  5
1E7C9
331
1E799
  5
1E7CA
331
1E79A
  5
1E7D3
331
1E79B
  5
1E7D4
331
1E79C
  5
1E7D5
331
1E79D
  5
1E7D6
331
1E79E
  5
1E7D7
331
1E79F
  5
1E7D8
331
1E7A0
  5
1E7D9
331
1E7BA
  5
1E7DA
331
1E7BB
  5
1E7DD
331
1E7C1
  5
1E7E4
331
1E7C9
  5
1E7E5
331
1E7CA
  5
1E7E6
331
1E7D0
  5
1E7F5
331
1E7D2
  5
1E7F7
331
1E7D3
  5
1E7F9
331
1E7D4
  5
1E7FA
331
1E7D5
  5
1E7FB
331
1E7D6
  5
1E7FC
331
1E7D7
  5
1E7FD
331
1E7D8
  5
1E7FE
331
1E7D9
  5
1E80D
331
1E7DA
  5
1E80E
331
1E7DD
  5
1E813
331
1E7E1
  5
1E814
331
1E7E3
  5
1E81A
331
1E7E4
  5
1E81E
331
1E7E5
  5
1E81F
331
1E7E6
  5
1E84F
331
1E7F5
  5
1E850
331
1E7F7
  5
1E851
331
1E7F9
  5
1E852
331
1E7FA
  5
1E853
331
1E7FB
  5
1E854
331
1E80D
  5
1E855
331
1E80E
  5
1E856
331
1E80F
  5
1E857
331
1E810
  5
1E858
331
1E812
  5
1E85D
331
1E813
  5
1E85E
331
1E814
  5
1E85F
331
1E81A
  5
1E860
331
1E81E
  5
1E861
331
1E81F
  5
1E862
331
1E84F
  5
1E863
331
1E850
  5
1E864
331
1E851
  5
1E865
331
1E852
  5
1E866
331
1E853
  5
1E868
331
1E854
  5
1E869
331
1E855
  5
1E86A
331
1E856
  5
1E86B
331
1E857
  5
1E86C
331
1E858
  5
1E889
331
1E85D
  5
1E88A
331
1E85E
  5
1E88C
331
1E85F
  5
1E88F
331
1E860
  5
1E892
331
1E861
  5
1E89F
331
1E862
  5
1E8A0
331
1E863
  5
1E8A1
331
1E864
  5
1E952
331
1E865
  5
1E967
331
1E866
  5
1E968
331
1E868
  5
1E990
331
1E869
  5
1E991
331
1E86A
  5
1E992
331
1E86B
  5
1E9A5
331
1E86C
  5
1E9A7
331
1E88F
  5
1E9FE
331
1E890
  5
1E9FF
331
1E891
  5
1EA00
331
1E89B
  5
1EA02
331
1E89D
  5
1EA03
331
1E89E
  5
1EA0E
331
1E939
  5
1EA0F
331
1E98A
  5
1EA10
331
1E98B
  5
1EA11
331
1E98C
  5
1EA12
331
1E98D
  5
1EA78
331
1E98E
  5
1EA9C
331
1E98F
  5
1EAA1
331
1E990
  5
1EAA2
331
1E9A4
  5
1EAA3
331
1E9A6
  5
1EAA4
331
1E9A7
  5
1EAA5
331
1E9A9
  5
1EAA7
331
1E9DC
  5
1EAA8
331
1E9FC
  5
1EAAA
331
1E9FD
  5
1EAAB
331
1E9FE
  5
1EAAD
331
1E9FF
  5
1EAAE
331
1EA00
  5
1EAB3
331
1EA01
  5
1EAB7
331
1EA02
  5
1EAB8
331
1EA0D
  5
1EAB9
331
1EA11
  5
1EABC
331
1EA90
  5
1EAC1
331
1EA95
  5
1EAC2
331
1EA96
  5
1EAC3
331
1EA97
  5
1EAC4
331
1EA9A
  5
1EAC5
331
1EA9F
  5
1EAC6
331
1EAA0
  5
1EAC7
331
1EAA1
  5
1EAC8
331
1EAA2
  5
1EACA
331
1EAA3
  5
1EACB
331
1EAA4
  5
1EACE
331
1EAA5
  5
1EACF
331
1EAA6
  5
1EAD0
331
1EAA8
  5
1EAD1
331
1EAA9
  5
1EAD4
331
1EAAB
  5
1EADA
331
1EAAC
  5
1EADB
331
1EAB0
  5
1EADC
331
1EAB5
  5
1EADD
331
1EAB6
  5
1EADE
331
1EAB7
  5
1EADF
331
1EABA
  5
1EAE1
331
1EABF
  5
1EAE3
331
1EAC0
  5
1EAE5
331
1EAC1
  5
1EAE6
331
1EAC2
  5
1EAE7
331
1EAC3
  5
1EAE8
331
1EAC4
  5
1EAEA
331
1EAC5
  5
1EAEC
331
1EAC6
  5
1EAED
331
1EAC8
  5
1EAEF
331
1EAC9
  5
1EAF0
331
1EACC
  5
1EAF2
331
1EACD
  5
1EAF3
331
1EACE
  5
1EAF5
331
1EACF
  5
1EAF6
331
1EAD2
  5
1EAF8
331
1EAD8
  5
1EAFA
331
1EAD9
  5
1EAFC
331
1EADA
  5
1EAFE
331
1EADB
  5
1EB00
331
1EADC
  5
1EB02
331
1EADD
  5
1EB03
331
1EADF
  5
1EB05
331
1EAE1
  5
1EB06
331
1EAE3
  5
1EB09
331
1EAE4
  5
1EB0B
331
1EAE5
  5
1EB0C
331
1EAE6
  5
1EB0E
331
1EAE8
  5
1EB0F
331
1EAEA
  5
1EB11
331
1EAEB
  5
1EB12
331
1EAED
  5
1EB14
331
1EAEE
  5
1EB15
331
1EAF0
  5
1EB17
331
1EAF1
  5
1EB18
331
1EAF3
  5
1EB1A
331
1EAF4
  5
1EB1B
331
1EAF6
  5
1EB1D
331
1EAF8
  5
1EB1E
331
1EAFA
  5
1EB20
331
1EAFC
  5
1EB22
331
1EAFE
  5
1EB24
331
1EB00
  5
1EB26
331
1EB01
  5
1EB28
331
1EB03
  5
1EB2A
331
1EB04
  5
1EB2C
331
1EB06
  5
1EB2E
331
1EB07
  5
1EB30
331
1EB09
  5
1EB32
331
1EB0A
  5
1EB34
331
1EB0C
  5
1EB35
331
1EB0D
  5
1EB37
331
1EB0F
  5
1EB38
331
1EB10
  5
1EB3A
331
1EB12
  5
1EB3B
331
1EB13
  5
1EB3D
331
1EB15
  5
1EB3E
331
1EB16
  5
1EB40
331
1EB18
  5
1EB41
331
1EB19
  5
1EB43
331
1EB1B
  5
1EB44
331
1EB1C
  5
1EB46
331
1EB1E
  5
1EB47
331
1EB20
  5
1EB49
331
1EB22
  5
1EB4A
331
1EB24
  5
1EB4C
331
1EB26
  5
1EB4D
331
1EB28
  5
1EB4F
331
1EB2A
  5
1EB50
331
1EB2C
  5
1EB52
331
1EB2E
  5
1EB54
331
1EB30
  5
1EB56
331
1EB32
  5
1EB58
331
1EB33
  5
1EB5A
331
1EB35
  5
1EB5C
331
1EB36
  5
1EB5E
331
1EB38
  5
1EB60
331
1EB39
  5
1EB62
331
1EB3B
  5
1EB64
331
1EB3C
  5
1EB66
331
1EB3E
  5
1EB67
331
1EB3F
  5
1EB69
331
1EB41
  5
1EB6A
331
1EB42
  5
1EB6C
331
1EB44
  5
1EB6D
331
1EB45
  5
1EB6F
331
1EB47
  5
1EB70
331
1EB48
  5
1EB72
331
1EB4A
  5
1EB73
331
1EB4B
  5
1EB75
331
1EB4D
  5
1EB76
331
1EB4E
  5
1EB78
331
1EB50
  5
1EB79
331
1EB52
  5
1EB7B
331
1EB54
  5
1EB7C
331
1EB56
  5
1EB7E
331
1EB58
  5
1EB7F
331
1EB5A
  5
1EB81
331
1EB5C
  5
1EB82
331
1EB5E
  5
1EB84
331
1EB60
  5
1EB86
331
1EB62
  5
1EB88
331
1EB64
  5
1EB8A
331
1EB65
  5
1EB8C
331
1EB67
  5
1EB8E
331
1EB68
  5
1EB90
331
1EB6A
  5
1EB92
331
1EB6B
  5
1EB94
331
1EB6D
  5
1EB96
331
1EB6E
  5
1EB98
331
1EB70
  5
1EB99
331
1EB71
  5
1EB9B
331
1EB73
  5
1EB9C
331
1EB74
  5
1EB9E
331
1EB76
  5
1EB9F
331
1EB77
  5
1EBA1
331
1EB79
  5
1EBA2
331
1EB7A
  5
1EBA4
331
1EB7C
  5
1EBA5
331
1EB7D
  5
1EBA7
331
1EB7F
  5
1EBA8
331
1EB80
  5
1EBAA
331
1EB82
  5
1EBAB
331
1EB84
  5
1EBAD
331
1EB86
  5
1EBAE
331
1EB88
  5
1EBB0
331
1EB8A
  5
1EBB1
331
1EB8C
  5
1EBB3
331
1EB8E
  5
1EBB4
331
1EB90
  5
1EBB6
331
1EB92
  5
1EBB7
331
1EB94
  5
1EBB9
331
1EB96
  5
1EBBA
331
1EB97
  5
1EBBC
331
1EB99
  5
1EBBD
331
1EB9A
  5
1EBBF
331
1EB9C
  5
1EBC0
331
1EB9D
  5
1EBC2
331
1EB9F
  5
1EBC3
331
1EBA0
  5
1EBC5
331
1EBA2
  5
1EBC7
331
1EBA3
  5
1EBC9
331
1EBA5
  5
1EBCB
331
1EBA6
  5
1EBCD
331
1EBA8
  5
1EBCF
331
1EBA9
  5
1EBD1
331
1EBAB
  5
1EBD3
331
1EBAC
  5
1EBD5
331
1EBAE
  5
1EBD7
331
1EBAF
  5
1EBD9
331
1EBB1
  5
1EBDB
331
1EBB2
  5
1EBDD
331
1EBB4
  5
1EBDF
331
1EBB5
  5
1EBE1
331
1EBB7
  5
1EBE3
331
1EBB8
  5
1EBE4
331
1EBBA
  5
1EBE6
331
1EBBB
  5
1EBE7
331
1EBBD
  5
1EBE9
331
1EBBE
  5
1EBEA
331
1EBC0
  5
1EBEC
331
1EBC1
  5
1EBED
331
1EBC3
  5
1EBEF
331
1EBC5
  5
1EBF0
331
1EBC7
  5
1EBF2
331
1EBC9
  5
1EBF3
331
1EBCB
  5
1EBF5
331
1EBCD
  5
1EBF6
331
1EBCF
  5
1EBF8
331
1EBD1
  5
1EBF9
331
1EBD3
  5
1EBFB
331
1EBD5
  5
1EBFC
331
1EBD7
  5
1EBFE
331
1EBD9
  5
1EBFF
331
1EBDB
  5
1EC01
331
1EBDD
  5
1EC03
331
1EBDF
  5
1EC05
331
1EBE1
  5
1EC07
331
1EBE2
  5
1EC09
331
1EBE4
  5
1EC0B
331
1EBE5
  5
1EC0D
331
1EBE7
  5
1EC0F
331
1EBE8
  5
1EC11
331
1EBEA
  5
1EC13
331
1EBEB
  5
1EC15
331
1EBED
  5
1EC17
331
1EBEE
  5
1EC18
331
1EBF0
  5
1EC1B
331
1EBF1
  5
1EC1C
331
1EBF3
  5
1EC1D
331
1EBF4
  5
1EC1E
331
1EBF6
  5
1EC1F
331
1EBF7
  5
1EC20
331
1EBF9
  5
1EC21
331
1EBFA
  5
1EC22
331
1EBFC
  5
1EC23
331
1EBFD
  5
1EC24
331
1EBFF
  5
1EC25
331
1EC01
  5
1EC26
331
1EC03
  5
1EC27
331
1EC05
  5
1EC28
331
1EC07
  5
1EC29
331
1EC09
  5
1EC2A
331
1EC0B
  5
1EC2B
331
1EC0D
  5
1EC2C
331
1EC0F
  5
1EC2D
331
1EC11
  5
1EC2E
331
1EC13
  5
1EC2F
331
1EC15
  5
1EC30
331
1EC16
  5
1EC31
331
1EC19
  5
1EC32
331
1EC1A
  5
1EC33
331
1EC1B
  5
1EC34
331
1EC1C
  5
1EC35
331
1EC1D
  5
1EC36
331
1EC1E
  5
1EC37
331
1EC1F
  5
1EC38
331
1EC20
  5
1EC39
331
1EC21
  5
1EC3A
331
1EC22
  5
1EC3B
331
1EC23
  5
1EC3C
331
1EC24
  5
1EC3D
331
1EC25
  5
1EC3E
331
1EC26
  5
1EC3F
331
1EC27
  5
1EC40
331
1EC28
  5
1EC41
331
1EC29
  5
1EC42
331
1EC2A
  5
1EC43
331
1EC2B
  5
1EC44
331
1EC2C
  5
1EC45
331
1EC2D
  5
1EC46
331
1EC2E
  5
1EC47
331
1EC2F
  5
1EC48
331
1EC30
  5
1EC49
331
1EC31
  5
1EC4A
331
1EC32
  5
1EC4B
331
1EC33
  5
1EC4C
331
1EC34
  5
1EC4D
331
1EC35
  5
1EC4E
331
1EC36
  5
1EC4F
331
1EC37
  5
1EC50
331
1EC38
  5
1EC51
331
1EC39
  5
1EC52
331
1EC3A
  5
1EC53
331
1EC3B
  5
1EC54
331
1EC3C
  5
1EC55
331
1EC3D
  5
1EC56
331
1EC3E
  5
1EC57
331
1EC3F
  5
1EC58
331
1EC40
  5
1EC59
331
1EC41
  5
1EC5A
331
1EC42
  5
1EC5D
331
1EC43
  5
1EC5E
331
1EC44
  5
1EC5F
331
1EC45
  5
1EC61
331
1EC46
  5
1EC63
331
1EC47
  5
1EC64
331
1EC48
  5
1EC65
331
1EC49
  5
1EC66
331
1EC4A
  5
1EC67
331
1EC4B
  5
1ECEF
331
1EC4C
  5
1ECF0
331
1EC4D
  5
1ECF1
331
1EC4E
  5
1ECF2
331
1EC4F
  5
1ECFC
331
1EC50
  5
1ECFD
331
1EC51
  5
1ED1A
331
1EC52
  5
1ED1D
331
1EC53
  5
1ED29
331
1EC54
  5
1ED2A
331
1EC55
  5
1ED2C
331
1EC56
  5
1ED2D
331
1EC57
  5
1ED2F
331
1EC58
  5
1ED3B
331
1EC5B
  5
1ED3C
331
1EC5C
  5
1ED3D
331
1EC5D
  5
1ED59
331
1EC5F
  5
1ED5A
331
1EC61
  5
1ED63
331
1EC62
  5
1ED64
331
1EC63
  5
1EDA2
331
1EC64
  5
1EDA3
331
1EC65
  5
1EDA4
331
1ECEF
  5
1EDA5
331
1ECF0
  5
1EDA6
331
1ECF1
  5
1EDA7
331
1ECF3
  5
1EDA9
331
1ECFC
  5
1EDAA
331
1ECFD
  5
1EDAB
331
1ED23
  5
1E9F9
331
1ED28
  5
1EAA6
331
1ED29
  5
1EDAC
331
1ED2A
  5
1EDAD
331
1ED2B
  5
1EDAE
331
1ED2C
  5
1EDAF
331
1ED2D
  5
1EDB0
331
1ED2E
  5
1EDB1
331
1ED3D
  5
1EA01
331
1ED63
  5
1EDB2
331
1ED64
  5
1EDB3
331
0
  5
1EDA8
331
1EDA3
  5
1EDBF
331
1EDA4
  5
1EDC0
331
1EDA5
  5
1EDC1
331
1EDA6
  5
1EDC2
331
1EDA7
  5
1EDC3
331
1EDA8
  5
1EDC4
331
1EDA9
  5
1EDC5
331
1EDAA
  5
1EDC6
331
1EDAB
  5
1EDC7
331
1EDAC
  5
1EDC8
331
1EDAD
  5
1EDC9
331
1EDAE
  5
1EDCA
331
1EDAF
  5
1EDCB
331
1EDB0
  5
1EDCC
331
1EDB1
  5
1EDCD
331
1EDB2
  5
1EDCE
331
1EDB3
  5
1EDCF
331
1EDB4
  5
1EDD0
331
1EDB5
  5
1EDD1
331
1EDB6
  5
1EDD2
331
1EDB7
  5
1EDD3
331
1EDB8
  5
1EDD4
331
1EDB9
  5
1EDD5
331
1EDBA
  5
1EDD6
331
1EDBB
  5
1EDD7
331
1EDBC
  5
1EDD8
331
1EDBD
  5
1EDD9
331
1EDBE
  5
1EDDA
331
1EDBF
  5
1EDDB
331
1EDC0
  5
1EDDC
331
1EDC1
  5
1EDDD
331
1EDC2
  5
1EE02
331
1EDC3
  5
1EE03
331
1EDC4
  5
1EE04
331
1EDC5
  5
1EE05
331
1EDC6
  5
1EE06
331
1EDC7
  5
1EE07
331
1EDC8
  5
1EE08
331
1EDC9
  5
1EE09
331
1EDCA
  5
1EE0B
331
1EDCB
  5
1EE0C
331
1EDCC
  5
1EE10
331
1EDCD
  5
1EE1E
331
1EDCE
  5
1EE1F
331
1EDCF
  5
1EE20
331
1EDD0
  5
1EE21
331
1EDD1
  5
1EE22
331
1EDD2
  5
1EE64
331
1EDD3
  5
1EE8C
331
1EDD4
  5
1EEDA
331
1EDD5
  5
1EEDB
331
1EDD6
  5
1F36D
331
1EDD7
  5
1F36F
331
1EDD8
  5
1F370
331
1EDD9
  5
1F376
331
1EDDA
  5
1F379
331
1EDDB
  5
1F37A
331
1EDDC
  5
1F37B
331
1EDDD
  5
1F4FF
331
1EE02
  5
1F5A5
331
1EE03
  5
1F5A6
331
1EE04
  5
1F5A7
331
1EE05
  5
1F5A8
331
1EE06
  5
1F5A9
331
1EE07
  5
1F5AA
331
1EE08
  5
1F5AB
331
1EE09
  5
1F5AC
331
1EE0A
  5
1F5AD
331
1EE0E
  5
1F5AE
331
0
  5
1EE23
331
0
  5
1EE24
331
0
  5
1EE25
331
0
  5
1EE26
331
0
  5
1EE27
331
0
  5
1EE32
331
0
  5
1EE33
331
0
  5
1EE34
331
0
  5
1EE35
331
0
  5
1EE36
331
0
  5
1EE37
331
0
  5
1EE38
331
0
  5
1EE39
331
0
  5
1EE3A
331
0
  5
1EE3B
331
0
  5
1EE3C
331
1EE36
  5
1F5D4
331
1EE37
  5
1F5D5
331
1EE38
  5
1F5D6
331
1EE39
  5
1F5D7
331
1EE3A
  5
1E9AA
331
1EE3B
  5
1E9DD
331
0
  5
1EEDC
331
0
  5
1EEDD
331
0
  5
1EEDE
331
0
  5
1F1A3
331
0
  5
1F1A6
331
0
  5
1F1AB
331
0
  5
1F1AC
331
0
  5
1F34E
331
0
  5
1F36C
331
1F26B
  5
1F62D
331
1F273
  5
1F62E
331
1F2FE
  5
1F62F
331
1F36B
  5
1F630
331
1F36D
  5
1E7E3
331
1F36F
  5
1F631
331
1F370
  5
1F632
331
1F376
  5
1E7E1
331
1F379
  5
1F633
331
1F37A
  5
1F634
331
0
  5
1F500
331
0
  5
1F50A
331
0
  5
1F56A
331
0
  5
1F56B
331
1F56A
  5
1EB08
331
0
  5
1F5A4
331
1F5A4
  5
1F64A
331
1F5A5
  5
1F64B
331
1F5A6
  5
1F64C
331
1F5A7
  5
1F64D
331
1F5A8
  5
1F64E
331
1F5A9
  5
1F64F
331
1F5AA
  5
1F650
331
1F5AB
  5
1F651
331
1F5AC
  5
1F652
331
1F5AD
  5
1F653
331
1F5AE
  5
1F654
331
1F5AF
  5
1F655
331
1F5B0
  5
1F656
331
1F5B1
  5
1F657
331
1F5B2
  5
1F658
331
1F5B3
  5
1F659
331
1F5B4
  5
1F65A
331
1F5B5
  5
1F65B
331
1F5B6
  5
1F65C
331
1F5B7
  5
1F65D
331
1F5B8
  5
1F65E
331
1F5B9
  5
1F65F
331
1F5BA
  5
1F660
331
1F5BB
  5
1F661
331
1F5BC
  5
1F662
331
1F5BD
  5
1F663
331
1F5BE
  5
2022A
331
1F5BF
  5
2022B
331
1F5C0
  5
2022C
331
1F5C1
  5
2022D
331
1F5C2
  5
2022E
331
1F5C3
  5
2022F
331
1F5C4
  5
20230
331
1F5C5
  5
20231
331
1F5C6
  5
20232
331
1F5C7
  5
20233
331
1F5C8
  5
20234
331
1F5C9
  5
20235
331
1F5CA
  5
20236
331
1F5CB
  5
20237
331
1F5CC
  5
20238
331
1F5CD
  5
20239
331
1F5CE
  5
2023A
331
1F5CF
  5
2023B
331
1F5D0
  5
2023C
331
1F5D1
  5
2023D
331
1F5D2
  5
2023E
331
1F5D3
  5
2023F
331
1F5D4
  5
20240
331
1F5D5
  5
20241
331
1F5D6
  5
20242
331
1F5D7
  5
20243
331
1F5D8
  5
20244
331
1F5D9
  5
20245
331
1F5DA
  5
20246
331
1F5DB
  5
20247
331
1F5DC
  5
20248
331
1F5DD
  5
20249
331
1F5EC
  5
20255
331
1F5ED
  5
20256
331
1F5EE
  5
20257
331
1F5EF
  5
20258
331
1F5F0
  5
20259
331
1F5F1
  5
2025A
331
1F5F2
  5
2025B
331
1F5F3
  5
2025C
331
1F5F4
  5
2025D
331
1F5F5
  5
2025E
331
1F5F6
  5
2025F
331
1F5F7
  5
20260
331
1F5F8
  5
20261
331
1F5F9
  5
20262
331
1F5FA
  5
20263
331
1F5FB
  5
20264
331
1F5FC
  5
20265
331
1F5FD
  5
20266
331
1F5FE
  5
20267
331
1F5FF
  5
20268
331
1F600
  5
20269
331
1F601
  5
2026A
331
1F602
  5
2026B
331
1F603
  5
2026C
331
1F604
  5
2026D
331
1F605
  5
2026E
331
1F606
  5
2026F
331
1F607
  5
20270
331
1F608
  5
20271
331
1F609
  5
20272
331
1F60A
  5
20273
331
1F60B
  5
20274
331
1F60C
  5
20275
331
1F60D
  5
20276
331
1F60E
  5
20277
331
1F60F
  5
20278
331
1F610
  5
20279
331
1F611
  5
2027A
331
1F612
  5
2027B
331
1F613
  5
2027C
331
1F614
  5
2027D
331
1F615
  5
2027E
331
1F616
  5
2027F
331
1F617
  5
20280
331
1F618
  5
20281
331
1F619
  5
20282
331
1F61A
  5
20283
331
1F61B
  5
20284
331
1F61C
  5
20285
331
1F61D
  5
20286
331
1F61E
  5
20287
331
1F61F
  5
20288
331
1F620
  5
20289
331
1F621
  5
2028A
331
1F622
  5
2028B
331
1F623
  5
2028C
331
1F624
  5
2028D
331
1F625
  5
2028E
331
1F627
  5
2029A
331
1F628
  5
2029B
331
1F629
  5
2029C
331
1F62A
  5
2029D
331
1F62B
  5
2029E
331
1F62C
  5
2029F
331
1F62D
  5
202A0
331
1F62E
  5
202A1
331
1F62F
  5
202A2
331
1F630
  5
202A3
331
1F631
  5
202A4
331
1F632
  5
202A5
331
1F633
  5
202A6
331
1F634
  5
202A7
331
1F635
  5
202A8
331
1F636
  5
202A9
331
1F637
  5
202AA
331
1F638
  5
202AB
331
1F639
  5
202AC
331
1F63A
  5
202AD
331
1F63B
  5
202AE
331
1F63C
  5
202AF
331
1F63D
  5
202B3
331
1F63E
  5
202B4
331
1F63F
  5
202B5
331
1F640
  5
202B9
331
1F641
  5
202BA
331
1F642
  5
202BB
331
1F643
  5
202BC
331
1F644
  5
202BD
331
1F645
  5
202BE
331
1F646
  5
202BF
331
1F647
  5
202C0
331
1F648
  5
202C1
331
1F649
  5
202C2
331
1F64A
  5
202C3
331
1F64B
  5
202C4
331
1F64C
  5
202C5
331
1F64D
  5
202C6
331
1F64E
  5
202C7
331
1F64F
  5
202C8
331
1F650
  5
202C9
331
1F651
  5
202CA
331
1F652
  5
202CB
331
1F653
  5
202CC
331
1F654
  5
202CD
331
1F655
  5
202CE
331
1F656
  5
202CF
331
1F657
  5
202D0
331
1F658
  5
202D1
331
1F659
  5
202D2
331
1F65A
  5
202D3
331
1F65B
  5
202D4
331
1F65C
  5
202D5
331
1F65D
  5
202D6
331
1F65E
  5
202D7
331
1F65F
  5
202D8
331
1F660
  5
202D9
331
1F661
  5
202DA
331
1F662
  5
202DB
331
1F663
  5
202DC
331
2022A
  5
1E769
331
2022B
  5
1E76A
331
2022C
  5
1E76B
331
2022D
  5
1E76C
331
2022E
  5
1E76D
331
2022F
  5
1E76E
331
20230
  5
1E76F
331
20231
  5
1E770
331
20232
  5
1E771
331
20233
  5
1E772
331
20234
  5
1E773
331
20235
  5
1EDB4
331
20236
  5
1EDB5
331
20237
  5
1EDB6
331
20238
  5
1EDB7
331
20239
  5
1EDB8
331
2023A
  5
1EDB9
331
2023B
  5
1EDBA
331
2023C
  5
1EDBB
331
2023D
  5
1EDBC
331
2023E
  5
1EDBD
331
2023F
  5
1EDBE
331
20240
  5
1F5AF
331
20241
  5
1F5B0
331
20242
  5
1F5B1
331
20243
  5
1F5B2
331
20244
  5
1F5B3
331
20245
  5
1F5B4
331
20246
  5
1F5B5
331
20247
  5
1F5B6
331
20248
  5
1F5B7
331
20249
  5
1F5B8
331
2024A
  5
1F5B9
331
2024B
  5
1F5BA
331
2024C
  5
1F5BB
331
2024D
  5
1F5BC
331
2024E
  5
1F5BD
331
2024F
  5
1F5BE
331
20250
  5
1F5BF
331
20251
  5
1F5C0
331
20252
  5
1F5C1
331
20253
  5
1F5C2
331
20254
  5
1F5C3
331
20255
  5
1F5C4
331
20256
  5
1F5C5
331
20257
  5
1F5C6
331
20258
  5
1F5C7
331
20259
  5
1F5C8
331
2025A
  5
1F5C9
331
2025B
  5
1F5CA
331
2025C
  5
1F5CB
331
2025D
  5
1F5CC
331
2025E
  5
1F5CD
331
2025F
  5
1F5CE
331
20260
  5
1F5CF
331
20261
  5
1F5D0
331
20262
  5
1F5D1
331
20263
  5
1F5D2
331
20264
  5
1F5D3
331
20265
  5
1F5D8
331
20266
  5
1F5D9
331
20267
  5
1F5DA
331
0
  5
1F5DB
331
0
  5
1F5DC
331
0
  5
1F5DD
331
2026B
  5
1F5F5
331
2026C
  5
1F5F6
331
2026D
  5
1F5FA
331
0
  5
1F5EE
331
0
  5
1F5EF
331
0
  5
1F5F0
331
20271
  5
1F608
331
20272
  5
1F609
331
20273
  5
1F60A
331
20274
  5
1F60B
331
20275
  5
1F60C
331
20276
  5
1F60D
331
0
  5
1F5F7
331
0
  5
1F5F8
331
0
  5
1F5F9
331
2027A
  5
1F618
331
2027B
  5
1F619
331
2027C
  5
1F61A
331
0
  5
1F5FD
331
0
  5
1F5FE
331
0
  5
1F5FF
331
20280
  5
1F622
331
20281
  5
1F623
331
20282
  5
1F624
331
0
  5
1F603
331
0
  5
1F604
331
0
  5
1F605
331
20286
  5
1F635
331
20287
  5
1F636
331
20288
  5
1F637
331
0
  5
1F611
331
0
  5
1F612
331
0
  5
1F613
331
2028C
  5
1F63F
331
2028D
  5
1F640
331
2028E
  5
1F641
331
2028F
  5
1F642
331
20290
  5
1F643
331
20291
  5
1F644
331
20292
  5
1F645
331
20293
  5
1F646
331
20294
  5
1F647
331
20295
  5
1F648
331
20296
  5
1F649
331
20297
  5
2024A
331
20298
  5
2024B
331
20299
  5
2024C
331
2029A
  5
2024D
331
2029B
  5
2024E
331
2029C
  5
2024F
331
2029D
  5
20250
331
2029E
  5
20251
331
2029F
  5
20252
331
202A0
  5
20253
331
202A1
  5
20254
331
202A2
  5
2028F
331
202A3
  5
20290
331
202A4
  5
20291
331
202A5
  5
20292
331
202A6
  5
20293
331
202A7
  5
20294
331
202A8
  5
20295
331
202A9
  5
20296
331
202AA
  5
20297
331
202AB
  5
20298
331
202AC
  5
20299
331
202AD
  5
202DD
331
202AE
  5
202DE
331
202AF
  5
202DF
331
202B3
  5
202E7
331
202B4
  5
202E8
331
202B5
  5
202E9
331
202B9
  5
1F5E3
331
202BA
  5
1F5EC
331
202BB
  5
1F5ED
331
202BC
  5
1F5F1
331
202BD
  5
1F5F2
331
202BE
  5
1F5F3
331
202BF
  5
1F5F4
331
202C0
  5
1F5FB
331
202C1
  5
1F5FC
331
202C2
  5
1F600
331
202C3
  5
1F601
331
202C4
  5
1F602
331
202C5
  5
1F606
331
202C6
  5
1F607
331
202C7
  5
1F60E
331
202C8
  5
1F60F
331
202C9
  5
1F610
331
202CA
  5
1F614
331
202CB
  5
1F615
331
202CC
  5
1F616
331
202CD
  5
1F617
331
202CE
  5
1F61B
331
202CF
  5
1F61C
331
202D0
  5
1F61D
331
202D1
  5
1F61E
331
202D2
  5
1F61F
331
202D3
  5
1F620
331
202D4
  5
1F621
331
202D5
  5
1F625
331
202D6
  5
1F627
331
202D7
  5
1F628
331
202D8
  5
1F629
331
202D9
  5
1F62A
331
202DA
  5
1F62B
331
202DB
  5
1F62C
331
202DC
  5
1F638
331
202DD
  5
1F639
331
202DE
  5
1F63A
331
202DF
  5
1F63B
331
202E0
  5
1F63C
331
202E1
  5
1F63D
331
202E2
  5
1F63E
331
202E3
  5
202E0
331
202E4
  5
202E1
331
202E5
  5
202E2
331
202E6
  5
202E3
331
202E7
  5
202E4
331
202E8
  5
202E5
331
202E9
  5
202E6
  0
SORTENTSTABLE
  5
59C
102
{ACAD_REACTORS
330
59B
102
}
330
59B
100
AcDbSortentsTable
330
15
331
57
  5
57
331
0
  5
70
  0
MATERIAL
  5
19DD5
102
{ACAD_REACTORS
330
2CF
102
}
102
{ACAD_XDICTIONARY
360
2048F
102
}
330
2CF
100
AcDbMaterial
  1
BYBLOCK
 72
     0
 73
     2
 43
0.0208333333333333
 43
0.0
 43
0.0
 43
0.0
 43
0.0
 43
0.0208333333333333
 43
0.0
 43
0.0
 43
0.0
 43
0.0
 43
1.0
 43
0.0
 43
0.0
 43
0.0
 43
0.0
 43
1.0
 77
     0
 78
     2
 47
0.0208333333333333
 47
0.0
 47
0.0
 47
0.0
 47
0.0
 47
0.0208333333333333
 47
0.0
 47
0.0
 47
0.0
 47
0.0
 47
1.0
 47
0.0
 47
0.0
 47
0.0
 47
0.0
 47
1.0
171
     0
172
     2
 49
0.0208333333333333
 49
0.0
 49
0.0
 49
0.0
 49
0.0
 49
0.0208333333333333
 49
0.0
 49
0.0
 49
0.0
 49
0.0
 49
1.0
 49
0.0
 49
0.0
 49
0.0
 49
0.0
 49
1.0
175
     0
176
     2
142
0.0208333333333333
142
0.0
142
0.0
142
0.0
142
0.0
142
0.0208333333333333
142
0.0
142
0.0
142
0.0
142
0.0
142
1.0
142
0.0
142
0.0
142
0.0
142
0.0
142
1.0
179
     0
270
     2
144
0.0208333333333333
144
0.0
144
0.0
144
0.0
144
0.0
144
0.0208333333333333
144
0.0
144
0.0
144
0.0
144
0.0
144
1.0
144
0.0
144
0.0
144
0.0
144
0.0
144
1.0
274
     2
147
0.0208333333333333
147
0.0
147
0.0
147
0.0
147
0.0
147
0.0208333333333333
147
0.0
147
0.0
147
0.0
147
0.0
147
1.0
147
0.0
147
0.0
147
0.0
147
0.0
147
1.0
  0
MATERIAL
  5
19DCD
102
{ACAD_REACTORS
330
2CF
102
}
102
{ACAD_XDICTIONARY
360
20491
102
}
330
2CF
100
AcDbMaterial
  1
BYLAYER
 72
     0
 73
     2
 43
0.0208333333333333
 43
0.0
 43
0.0
 43
0.0
 43
0.0
 43
0.0208333333333333
 43
0.0
 43
0.0
 43
0.0
 43
0.0
 43
1.0
 43
0.0
 43
0.0
 43
0.0
 43
0.0
 43
1.0
 77
     0
 78
     2
 47
0.0208333333333333
 47
0.0
 47
0.0
 47
0.0
 47
0.0
 47
0.0208333333333333
 47
0.0
 47
0.0
 47
0.0
 47
0.0
 47
1.0
 47
0.0
 47
0.0
 47
0.0
 47
0.0
 47
1.0
171
     0
172
     2
 49
0.0208333333333333
 49
0.0
 49
0.0
 49
0.0
 49
0.0
 49
0.0208333333333333
 49
0.0
 49
0.0
 49
0.0
 49
0.0
 49
1.0
 49
0.0
 49
0.0
 49
0.0
 49
0.0
 49
1.0
175
     0
176
     2
142
0.0208333333333333
142
0.0
142
0.0
142
0.0
142
0.0
142
0.0208333333333333
142
0.0
142
0.0
142
0.0
142
0.0
142
1.0
142
0.0
142
0.0
142
0.0
142
0.0
142
1.0
179
     0
270
     2
144
0.0208333333333333
144
0.0
144
0.0
144
0.0
144
0.0
144
0.0208333333333333
144
0.0
144
0.0
144
0.0
144
0.0
144
1.0
144
0.0
144
0.0
144
0.0
144
0.0
144
1.0
274
     2
147
0.0208333333333333
147
0.0
147
0.0
147
0.0
147
0.0
147
0.0208333333333333
147
0.0
147
0.0
147
0.0
147
0.0
147
1.0
147
0.0
147
0.0
147
0.0
147
0.0
147
1.0
  0
MATERIAL
  5
19DDD
102
{ACAD_REACTORS
330
2CF
102
}
102
{ACAD_XDICTIONARY
360
20493
102
}
330
2CF
100
AcDbMaterial
  1
GLOBAL
 72
     0
 73
     2
 43
0.0208333333333333
 43
0.0
 43
0.0
 43
0.0
 43
0.0
 43
0.0208333333333333
 43
0.0
 43
0.0
 43
0.0
 43
0.0
 43
1.0
 43
0.0
 43
0.0
 43
0.0
 43
0.0
 43
1.0
 77
     0
 78
     2
 47
0.0208333333333333
 47
0.0
 47
0.0
 47
0.0
 47
0.0
 47
0.0208333333333333
 47
0.0
 47
0.0
 47
0.0
 47
0.0
 47
1.0
 47
0.0
 47
0.0
 47
0.0
 47
0.0
 47
1.0
171
     0
172
     2
 49
0.0208333333333333
 49
0.0
 49
0.0
 49
0.0
 49
0.0
 49
0.0208333333333333
 49
0.0
 49
0.0
 49
0.0
 49
0.0
 49
1.0
 49
0.0
 49
0.0
 49
0.0
 49
0.0
 49
1.0
175
     0
176
     2
142
0.0208333333333333
142
0.0
142
0.0
142
0.0
142
0.0
142
0.0208333333333333
142
0.0
142
0.0
142
0.0
142
0.0
142
1.0
142
0.0
142
0.0
142
0.0
142
0.0
142
1.0
179
     0
270
     2
144
0.0208333333333333
144
0.0
144
0.0
144
0.0
144
0.0
144
0.0208333333333333
144
0.0
144
0.0
144
0.0
144
0.0
144
1.0
144
0.0
144
0.0
144
0.0
144
0.0
144
1.0
274
     2
147
0.0208333333333333
147
0.0
147
0.0
147
0.0
147
0.0
147
0.0208333333333333
147
0.0
147
0.0
147
0.0
147
0.0
147
1.0
147
0.0
147
0.0
147
0.0
147
0.0
147
1.0
  0
ACAD_PROXY_OBJECT
  5
19E19
102
{ACAD_REACTORS
330
19E18
102
}
330
19E18
100
AcDbZombieObject
 90
      499
 91
      512
 93
      610
310
40901902A4063FBFFFFFE000000000000002040AD7A3703D0AD73F4214DD185B99185C990000000000000104090141901A00000000000004100000000000000041025764000000000000300FC0
340
12
340
0
340
F
340
0
 94
        0
1001
ACAD_MLEADERVER
1070
     2
  0
MLINESTYLE
  5
1C
102
{ACAD_REACTORS
330
1B
102
}
330
1B
100
AcDbMlineStyle
  2
STANDARD
 70
     0
  3

 62
   256
 51
90.0
 52
90.0
 71
     2
 49
0.5
 62
   256
  6
BYLAYER
 49
-0.5
 62
   256
  6
BYLAYER
  0
ACAD_PROXY_OBJECT
  5
19DF7
102
{ACAD_REACTORS
330
19DF6
102
}
330
19DF6
100
AcDbZombieObject
 90
      499
 91
      511
 93
       41
310
903313A31580
  0
ACAD_PROXY_OBJECT
  5
19DF8
102
{ACAD_REACTORS
330
19DF6
102
}
330
19DF6
100
AcDbZombieObject
 90
      499
 91
      511
 93
      105
310
903313A324000000000000004000
  0
ACAD_PROXY_OBJECT
  5
19DF9
102
{ACAD_REACTORS
330
19DF6
102
}
330
19DF6
100
AcDbZombieObject
 90
      499
 91
      511
 93
      105
310
903313A344000000000000104000
  0
ACAD_PROXY_OBJECT
  5
19DFA
102
{ACAD_REACTORS
330
19DF6
102
}
330
19DF6
100
AcDbZombieObject
 90
      499
 91
      511
 93
      105
310
903313A354000000000000144000
  0
ACAD_PROXY_OBJECT
  5
19DFB
102
{ACAD_REACTORS
330
19DF6
102
}
330
19DF6
100
AcDbZombieObject
 90
      499
 91
      511
 93
      105
310
903313A384000000000000204000
  0
ACAD_PROXY_OBJECT
  5
19DFC
102
{ACAD_REACTORS
330
19DF6
102
}
330
19DF6
100
AcDbZombieObject
 90
      499
 91
      511
 93
      113
310
904313A31304000000000000244000
  0
ACAD_PROXY_OBJECT
  5
19DFD
102
{ACAD_REACTORS
330
19DF6
102
}
330
19DF6
100
AcDbZombieObject
 90
      499
 91
      511
 93
      113
310
904313A31364000000000000304000
  0
ACAD_PROXY_OBJECT
  5
19DFE
102
{ACAD_REACTORS
330
19DF6
102
}
330
19DF6
100
AcDbZombieObject
 90
      499
 91
      511
 93
      113
310
904313A32304000000000000344000
  0
ACAD_PROXY_OBJECT
  5
19DFF
102
{ACAD_REACTORS
330
19DF6
102
}
330
19DF6
100
AcDbZombieObject
 90
      499
 91
      511
 93
      113
310
904313A333040000000000003E4000
  0
ACAD_PROXY_OBJECT
  5
19E00
102
{ACAD_REACTORS
330
19DF6
102
}
330
19DF6
100
AcDbZombieObject
 90
      499
 91
      511
 93
      113
310
904313A34304000000000000444000
  0
ACAD_PROXY_OBJECT
  5
19E01
102
{ACAD_REACTORS
330
19DF6
102
}
330
19DF6
100
AcDbZombieObject
 90
      499
 91
      511
 93
      113
310
904313A35304000000000000494000
  0
ACAD_PROXY_OBJECT
  5
19E02
102
{ACAD_REACTORS
330
19DF6
102
}
330
19DF6
100
AcDbZombieObject
 90
      499
 91
      511
 93
      121
310
905313A3130304000000000000594000
  0
ACAD_PROXY_OBJECT
  5
19E03
102
{ACAD_REACTORS
330
19DF6
102
}
330
19DF6
100
AcDbZombieObject
 90
      499
 91
      511
 93
      105
310
903323A310000000000000010100
  0
ACAD_PROXY_OBJECT
  5
19E04
102
{ACAD_REACTORS
330
19DF6
102
}
330
19DF6
100
AcDbZombieObject
 90
      499
 91
      511
 93
      105
310
903343A310000000000000410100
  0
ACAD_PROXY_OBJECT
  5
19E05
102
{ACAD_REACTORS
330
19DF6
102
}
330
19DF6
100
AcDbZombieObject
 90
      499
 91
      511
 93
      105
310
903383A310000000000000810100
  0
ACAD_PROXY_OBJECT
  5
19E06
102
{ACAD_REACTORS
330
19DF6
102
}
330
19DF6
100
AcDbZombieObject
 90
      499
 91
      511
 93
      113
310
90431303A310000000000000910100
  0
ACAD_PROXY_OBJECT
  5
19E07
102
{ACAD_REACTORS
330
19DF6
102
}
330
19DF6
100
AcDbZombieObject
 90
      499
 91
      511
 93
      121
310
9053130303A310000000000001650100
  0
ACAD_PROXY_OBJECT
  5
19E08
102
{ACAD_REACTORS
330
19DF6
102
}
330
19DF6
100
AcDbZombieObject
 90
      499
 91
      511
 93
      257
310
90E312F31323822203D2031272D3022000000000000200FC000000000000284000
  0
ACAD_PROXY_OBJECT
  5
19E09
102
{ACAD_REACTORS
330
19DF6
102
}
330
19DF6
100
AcDbZombieObject
 90
      499
 91
      511
 93
      249
310
90D312F363422203D2031272D3022000000000000240FC000000000000284000
  0
ACAD_PROXY_OBJECT
  5
19E0A
102
{ACAD_REACTORS
330
19DF6
102
}
330
19DF6
100
AcDbZombieObject
 90
      499
 91
      511
 93
      249
310
90D312F333222203D2031272D3022000000000000280FC000000000000284000
  0
ACAD_PROXY_OBJECT
  5
19E0B
102
{ACAD_REACTORS
330
19DF6
102
}
330
19DF6
100
AcDbZombieObject
 90
      499
 91
      511
 93
      249
310
90D312F313622203D2031272D30220000000000002C0FC000000000000284000
  0
ACAD_PROXY_OBJECT
  5
19E0C
102
{ACAD_REACTORS
330
19DF6
102
}
330
19DF6
100
AcDbZombieObject
 90
      499
 91
      511
 93
      249
310
90D332F333222203D2031272D30220000000000002E0FC000000000000284000
  0
ACAD_PROXY_OBJECT
  5
19E0D
102
{ACAD_REACTORS
330
19DF6
102
}
330
19DF6
100
AcDbZombieObject
 90
      499
 91
      511
 93
      241
310
90C312F3822203D2031272D3022000000000000300FC000000000000284000
  0
ACAD_PROXY_OBJECT
  5
19E0E
102
{ACAD_REACTORS
330
19DF6
102
}
330
19DF6
100
AcDbZombieObject
 90
      499
 91
      511
 93
      249
310
90D332F313622203D2031272D3022000000000000320FC000000000000284000
  0
ACAD_PROXY_OBJECT
  5
19E0F
102
{ACAD_REACTORS
330
19DF6
102
}
330
19DF6
100
AcDbZombieObject
 90
      499
 91
      511
 93
      241
310
90C312F3422203D2031272D3022000000000000340FC000000000000284000
  0
ACAD_PROXY_OBJECT
  5
19E10
102
{ACAD_REACTORS
330
19DF6
102
}
330
19DF6
100
AcDbZombieObject
 90
      499
 91
      511
 93
      241
310
90C332F3822203D2031272D3022000000000000360FC000000000000284000
  0
ACAD_PROXY_OBJECT
  5
19E11
102
{ACAD_REACTORS
330
19DF6
102
}
330
19DF6
100
AcDbZombieObject
 90
      499
 91
      511
 93
      241
310
90C312F3222203D2031272D3022000000000000380FC000000000000284000
  0
ACAD_PROXY_OBJECT
  5
19E12
102
{ACAD_REACTORS
330
19DF6
102
}
330
19DF6
100
AcDbZombieObject
 90
      499
 91
      511
 93
      241
310
90C332F3422203D2031272D30220000000000003A0FC000000000000284000
  0
ACAD_PROXY_OBJECT
  5
19E13
102
{ACAD_REACTORS
330
19DF6
102
}
330
19DF6
100
AcDbZombieObject
 90
      499
 91
      511
 93
      161
310
90A3122203D2031272D30224000000000000284000
  0
ACAD_PROXY_OBJECT
  5
19E14
102
{ACAD_REACTORS
330
19DF6
102
}
330
19DF6
100
AcDbZombieObject
 90
      499
 91
      511
 93
      257
310
90E312D312F3222203D2031272D30220000000000003E0FC000000000000284000
  0
ACAD_PROXY_OBJECT
  5
19E15
102
{ACAD_REACTORS
330
19DF6
102
}
330
19DF6
100
AcDbZombieObject
 90
      499
 91
      511
 93
      225
310
90A3322203D2031272D302200000000000002100000000000000284000
  0
ACAD_PROXY_OBJECT
  5
19E16
102
{ACAD_REACTORS
330
19DF6
102
}
330
19DF6
100
AcDbZombieObject
 90
      499
 91
      511
 93
      225
310
90A3622203D2031272D302200000000000006100000000000000284000
  0
ACAD_PROXY_OBJECT
  5
19E17
102
{ACAD_REACTORS
330
19DF6
102
}
330
19DF6
100
AcDbZombieObject
 90
      499
 91
      511
 93
      249
310
90D31272D3022203D2031272D30220000000000000A100000000000000284000
  0
ACAD_PROXY_OBJECT
  5
19DEB
102
{ACAD_REACTORS
330
19DE5
102
}
330
19DE5
100
AcDbZombieObject
 90
      499
 91
      510
 93
      436
310
42CC9915DA5C99599C985B595049028333333333333E3BF0000000000000FB0107901411070040501600405405064090741402480A0340
1001
ACAD
1000
AcDbSavedByObjectVersion
1070
     0
  0
ACAD_PROXY_OBJECT
  5
19DED
102
{ACAD_REACTORS
330
19DE5
102
}
330
19DE5
100
AcDbZombieObject
 90
      499
 91
      510
 93
      500
310
424CD108121A5919195B90640502408333333333333E3BF0000000000000FB01079024090700405020000000000001110200405405064090740C02480A0340
1001
ACAD
1000
AcDbSavedByObjectVersion
1070
     0
  0
ACAD_PROXY_OBJECT
  5
19DEC
102
{ACAD_REACTORS
330
19DE5
102
}
330
19DE5
100
AcDbZombieObject
 90
      499
 91
      510
 93
      436
310
42CCD915DA5C99599C985B595059028333333333333E3BF0000000000000FB0107901411070040501600405405064090741402480A0340
1001
ACAD
1000
AcDbSavedByObjectVersion
1070
     0
  0
ACAD_PROXY_OBJECT
  5
19DEA
102
{ACAD_REACTORS
330
19DE5
102
}
330
19DE5
100
AcDbZombieObject
 90
      499
 91
      510
 93
      388
310
4150985CDA58D07406404333333333333E3BF0000000000000FB0107A41107004050150841D405064090741402480A0350
1001
ACAD
1000
AcDbSavedByObjectVersion
1070
     0
  0
ACAD_PROXY_OBJECT
  5
19DF1
102
{ACAD_REACTORS
330
19DE5
102
}
330
19DE5
100
AcDbZombieObject
 90
      499
 91
      510
 93
      428
310
42109C9A59DA1D195B90C409028333333333333E3BF0000000000000FB010790141107004050150841D405064090741402480A029950
1001
ACAD
1000
AcDbSavedByObjectVersion
1070
     0
  0
ACAD_PROXY_OBJECT
  5
19DF5
102
{ACAD_REACTORS
330
19DE5
102
}
330
19DE5
100
AcDbZombieObject
 90
      499
 91
      510
 93
      452
310
42D0DBDB1BDC90DA185B99D95104090240C333333333333E3BF0000000000000FB0108901411070040501508421405064090741402480A0350
1001
ACAD
1000
AcDbSavedByObjectVersion
1070
     0
  0
ACAD_PROXY_OBJECT
  5
19DEE
102
{ACAD_REACTORS
330
19DE5
102
}
330
19DE5
100
AcDbZombieObject
 90
      499
 91
      510
 93
      500
310
4290DBDB98D95C1D1D585B10940D028333333333333E3BF0000000000000FB0107902409070040501000000000000111010841D405064090740C02480A0340
1001
ACAD
1000
AcDbSavedByObjectVersion
1070
     0
  0
ACAD_PROXY_OBJECT
  5
19DF0
102
{ACAD_REACTORS
330
19DE5
102
}
330
19DE5
100
AcDbZombieObject
 90
      499
 91
      510
 93
      412
310
40D11A5B50B409028333333333333E3BF0000000000000FB010790141107004050150841D405064090741402480A02677FFFFFD0
1001
ACAD
1000
AcDbSavedByObjectVersion
1070
     0
  0
ACAD_PROXY_OBJECT
  5
1F6A7
102
{ACAD_REACTORS
330
19DE5
102
}
330
19DE5
100
AcDbZombieObject
 90
      499
 91
      510
 93
      452
310
43115919D950DBDB1BDC93D999916409028333333333333E3BF0000000000000FB010790141107004050150841D405064090741402480A0350
1001
ACAD
1000
AcDbSavedByObjectVersion
1070
     0
  0
ACAD_PROXY_OBJECT
  5
19DF4
102
{ACAD_REACTORS
330
19DE5
102
}
330
19DE5
100
AcDbZombieObject
 90
      499
 91
      510
 93
      444
310
42D19858D95C185D1D195C9B90F409028333333333333E3BF0000000000000FB010790141107004050150841D405064090741402480A0350
1001
ACAD
1000
AcDbSavedByObjectVersion
1070
     0
  0
ACAD_PROXY_OBJECT
  5
19DE6
102
{ACAD_REACTORS
330
19DE5
102
}
330
19DE5
100
AcDbZombieObject
 90
      499
 91
      510
 93
      388
310
41119B185D240901404333333333333E3BF0000000000000F9010740A41107004050150841D405064090741402480A1B50
1001
ACAD
1000
AcDbSavedByObjectVersion
1070
     0
  0
ACAD_PROXY_OBJECT
  5
19DE7
102
{ACAD_REACTORS
330
19DE5
102
}
330
19DE5
100
AcDbZombieObject
 90
      499
 91
      510
 93
      476
310
43519B185D15DA5D1A115919D95CD0140901404333333333333E3BF0000000000000F9010740901411070040501600405405064090741402480A1B50
1001
ACAD
1000
AcDbSavedByObjectVersion
1070
     0
  0
ACAD_PROXY_OBJECT
  5
19DE8
102
{ACAD_REACTORS
330
19DE5
102
}
330
19DE5
100
AcDbZombieObject
 90
      499
 91
      510
 93
      412
310
41D1DBDD5C985D5910240902404333333333333E3BF0000000000000F9010740A411070040501641D405064090741402480A1B50
1001
ACAD
1000
AcDbSavedByObjectVersion
1070
     0
  0
ACAD_PROXY_OBJECT
  5
19DE9
102
{ACAD_REACTORS
330
19DE5
102
}
330
19DE5
100
AcDbZombieObject
 90
      499
 91
      510
 93
      500
310
4411DBDD5C985D5915DA5D1A115919D95CD0340902404333333333333E3BF0000000000000F9010740901411070040501600405405064090741402480A1B50
1001
ACAD
1000
AcDbSavedByObjectVersion
1070
     0
  0
ACAD_PROXY_OBJECT
  5
1F8D5
102
{ACAD_REACTORS
330
19DE5
102
}
330
19DE5
100
AcDbZombieObject
 90
      499
 91
      510
 93
      476
310
41921A5919195B90640502408333333333333E33F0000000000000F901079024090700405020000000000001110200405405064090740C02480A0340
1001
ACAD
1000
AcDbSavedByObjectVersion
1070
     0
  0
ACAD_PROXY_OBJECT
  5
1F6A5
102
{ACAD_REACTORS
330
19DE5
102
}
330
19DE5
100
AcDbZombieObject
 90
      499
 91
      510
 93
      428
310
42529A5D1D195C93D999914409028333333333333E3BF0000000000000FB010790141107004050150A41D405064090741402480A0350
1001
ACAD
1000
AcDbSavedByObjectVersion
1070
     0
  0
ACAD_PROXY_OBJECT
  5
19DF3
102
{ACAD_REACTORS
330
19DE5
102
}
330
19DE5
100
AcDbZombieObject
 90
      499
 91
      510
 93
      444
310
42D31A5B995C185D1D195C9B90E409028333333333333E3BF0000000000000FB010790141107004050750841D405064090741402483A0350
1001
ACAD
1000
AcDbSavedByObjectVersion
1070
     0
  0
ACAD_PROXY_OBJECT
  5
1F8DB
102
{ACAD_REACTORS
330
19DE5
102
}
330
19DE5
100
AcDbZombieObject
 90
      499
 91
      510
 93
      484
310
42135BD9195B1A5B99D0A409038333333333333E33F0000000000000F901074090290700405010000000000201990108421405064090741402480A1B40
1001
ACAD
1000
AcDbSavedByObjectVersion
1070
     0
  0
ACAD_PROXY_OBJECT
  5
1F6A6
102
{ACAD_REACTORS
330
19DE5
102
}
330
19DE5
100
AcDbZombieObject
 90
      499
 91
      510
 93
      444
310
42D3DD995C9A185B99D3D999915409028333333333333E3BF0000000000000FB010790141107004050150941D405064090741402480A0350
1001
ACAD
1000
AcDbSavedByObjectVersion
1070
     0
  0
ACAD_PROXY_OBJECT
  5
19DEF
102
{ACAD_REACTORS
330
19DE5
102
}
330
19DE5
100
AcDbZombieObject
 90
      499
 91
      510
 93
      420
310
425499585B1A5CDD1A58D08409028333333333333E3BF0000000000000FB01079019070040501508421405064090741402480A1B40
1001
ACAD
1000
AcDbSavedByObjectVersion
1070
     0
  0
ACAD_PROXY_OBJECT
  5
1F8DA
102
{ACAD_REACTORS
330
19DE5
102
}
330
19DE5
100
AcDbZombieObject
 90
      499
 91
      510
 93
      420
310
4194DA1859195911B40902404333333333333E33F0000000000000F9010740A41107004050150800405405064090840C02480A0B40
1001
ACAD
1000
AcDbSavedByObjectVersion
1070
     0
  0
ACAD_PROXY_OBJECT
  5
1F8D9
102
{ACAD_REACTORS
330
19DE5
102
}
330
19DE5
100
AcDbZombieObject
 90
      499
 91
      510
 93
      516
310
4454DA18591959081DDA5D1A08195919D95CD1A40902404333333333333E33F0000000000000F901074090142907004050250800405405064090740C02480A0B40
1001
ACAD
1000
AcDbSavedByObjectVersion
1070
     0
  0
ACAD_PROXY_OBJECT
  5
1F8D6
102
{ACAD_REACTORS
330
19DE5
102
}
330
19DE5
100
AcDbZombieObject
 90
      499
 91
      510
 93
      532
310
4394DA1859195CC81BD98811DC985E5174090240C333333333333E33F0000000000000F901079024090741D01000000000000111010841D405064090740C02480A0340
1001
ACAD
1000
AcDbSavedByObjectVersion
1070
     0
  0
ACAD_PROXY_OBJECT
  5
1F8D7
102
{ACAD_REACTORS
330
19DE5
102
}
330
19DE5
100
AcDbZombieObject
 90
      499
 91
      510
 93
      476
310
41D4DAD95D18DA1E51840502408333333333333E33F0000000000000F901079024090741D01000000000000111010B41D405064090741802480A0340
1001
ACAD
1000
AcDbSavedByObjectVersion
1070
     0
  0
ACAD_PROXY_OBJECT
  5
19DF2
102
{ACAD_REACTORS
330
19DE5
102
}
330
19DE5
100
AcDbZombieObject
 90
      499
 91
      510
 93
      412
310
41D51A1A58DAD95B90D409028333333333333E3BF0000000000000FB010790141107004050150C41D405064090741402480A0350
1001
ACAD
1000
AcDbSavedByObjectVersion
1070
     0
  0
ACAD_PROXY_OBJECT
  5
1F8D4
102
{ACAD_REACTORS
330
19DE5
102
}
330
19DE5
100
AcDbZombieObject
 90
      499
 91
      510
 93
      420
310
4255DA5C99599C985B595059028333333333333E33F0000000000000F90107901411070040501600405405064090740C02480A0340
1001
ACAD
1000
AcDbSavedByObjectVersion
1070
     0
  0
ACAD_PROXY_OBJECT
  5
1F8D8
102
{ACAD_REACTORS
330
19DE5
102
}
330
19DE5
100
AcDbZombieObject
 90
      499
 91
      510
 93
      404
310
41560B54985E51940902404000000000000E03F0000000000000F9010740501907004050150841D405064090740C02480A1B40
1001
ACAD
1000
AcDbSavedByObjectVersion
1070
     0
  0
XRECORD
  5
202F2
102
{ACAD_REACTORS
330
202F1
102
}
330
202F1
100
AcDbXrecord
340
2D0
  0
XRECORD
  5
202F3
102
{ACAD_REACTORS
330
202F1
102
}
330
202F1
100
AcDbXrecord
340
2CF
  0
DICTIONARYVAR
  5
1AC1A
102
{ACAD_REACTORS
330
37
102
}
330
37
100
DictionaryVariables
280
     0
  1
1:1
  0
DICTIONARYVAR
  5
1AC19
102
{ACAD_REACTORS
330
37
102
}
330
37
100
DictionaryVariables
280
     0
  1
Standard
  0
DICTIONARYVAR
  5
4F1
102
{ACAD_REACTORS
330
37
102
}
330
37
100
DictionaryVariables
280
     0
  1
Standard
  0
DICTIONARYVAR
  5
38
102
{ACAD_REACTORS
330
37
102
}
330
37
100
DictionaryVariables
280
     0
  1
-1
  0
DICTIONARYVAR
  5
408
102
{ACAD_REACTORS
330
37
102
}
330
37
100
DictionaryVariables
280
     0
  1
2
  0
DICTIONARYVAR
  5
1891
102
{ACAD_REACTORS
330
37
102
}
330
37
100
DictionaryVariables
280
     0
  1
1
  0
DICTIONARYVAR
  5
1AC1C
102
{ACAD_REACTORS
330
37
102
}
330
37
100
DictionaryVariables
280
     0
  1
0
  0
DICTIONARYVAR
  5
1895
102
{ACAD_REACTORS
330
37
102
}
330
37
100
DictionaryVariables
280
     0
  1
8
  0
DICTIONARYVAR
  5
1894
102
{ACAD_REACTORS
330
37
102
}
330
37
100
DictionaryVariables
280
     0
  1
1
  0
DICTIONARYVAR
  5
20110
102
{ACAD_REACTORS
330
37
102
}
330
37
100
DictionaryVariables
280
     0
  1
0
  0
DICTIONARYVAR
  5
1892
102
{ACAD_REACTORS
330
37
102
}
330
37
100
DictionaryVariables
280
     0
  1
8
  0
DICTIONARYVAR
  5
1893
102
{ACAD_REACTORS
330
37
102
}
330
37
100
DictionaryVariables
280
     0
  1
2
  0
DICTIONARYVAR
  5
409
102
{ACAD_REACTORS
330
37
102
}
330
37
100
DictionaryVariables
280
     0
  1

  0
DICTIONARYVAR
  5
1AC1B
102
{ACAD_REACTORS
330
37
102
}
330
37
100
DictionaryVariables
280
     0
  1
127
  0
DICTIONARYVAR
  5
1F8D3
102
{ACAD_REACTORS
330
37
102
}
330
37
100
DictionaryVariables
280
     0
  1
2
  0
DICTIONARY
  5
2048F
330
19DD5
100
AcDbDictionary
  3
ACAD_XREC_ROUNDTRIP
360
20490
1001
ACAD
1000
TREAT_AS_HARD
1070
     1
  0
DICTIONARY
  5
20491
330
19DCD
100
AcDbDictionary
  3
ACAD_XREC_ROUNDTRIP
360
20492
1001
ACAD
1000
TREAT_AS_HARD
1070
     1
  0
DICTIONARY
  5
20493
330
19DDD
100
AcDbDictionary
  3
ACAD_XREC_ROUNDTRIP
360
20494
1001
ACAD
1000
TREAT_AS_HARD
1070
     1
  0
XRECORD
  5
20490
102
{ACAD_REACTORS
330
2048F
102
}
330
2048F
100
AcDbXrecord
102
MATERIAL
148
0.0
149
0.0
149
0.0
 93
        0
 94
      127
282
     0
 72
     0
 77
     0
171
     0
175
     0
179
     0
273
     0
  0
XRECORD
  5
20492
102
{ACAD_REACTORS
330
20491
102
}
330
20491
100
AcDbXrecord
102
MATERIAL
148
0.0
149
0.0
149
0.0
 93
        0
 94
      127
282
     0
 72
     0
 77
     0
171
     0
175
     0
179
     0
273
     0
  0
XRECORD
  5
20494
102
{ACAD_REACTORS
330
20493
102
}
330
20493
100
AcDbXrecord
102
MATERIAL
148
0.0
149
0.0
149
0.0
 93
        0
 94
      127
282
     0
 72
     0
 77
     0
171
     0
175
     0
179
     0
273
     0
  0
ENDSEC
  0
EOF
