  0
SECTION
  2
HEADER
  9
$ACADVER
  1
AC1009
  9
$INSBASE
 10
0.0
 20
0.0
 30
0.0
  9
$EXTMIN
 10
390.016241615365
 20
-702.42133035126756
 30
0.0
  9
$EXTMAX
 10
765.51624161536495
 20
-502.39053543396329
 30
0.0
  9
$LIMMIN
 10
0.0
 20
0.0
  9
$LIMMAX
 10
420.0
 20
297.0
  9
$ORTHOMODE
 70
     0
  9
$REGENMODE
 70
     1
  9
$FILLMODE
 70
     1
  9
$QTEXTMODE
 70
     0
  9
$MIRRTEXT
 70
     0
  9
$DRAGMODE
 70
     2
  9
$LTSCALE
 40
0.5
  9
$OSMODE
 70
  2175
  9
$ATTMODE
 70
     1
  9
$TEXTSIZE
 40
4.0
  9
$TRACEWID
 40
1.0
  9
$TEXTSTYLE
  7
STANDARD
  9
$CLAYER
  8
1TEXT
  9
$CELTYPE
  6
BYLAYER
  9
$CECOLOR
 62
   256
  9
$DIMSCALE
 40
1.0
  9
$DIMASZ
 40
2.0
  9
$DIMEXO
 40
0.0
  9
$DIMDLI
 40
7.0
  9
$DIMRND
 40
0.0
  9
$DIMDLE
 40
0.0
  9
$DIMEXE
 40
1.0
  9
$DIMTP
 40
0.0
  9
$DIMTM
 40
0.0
  9
$DIMTXT
 40
3.5
  9
$DIMCEN
 40
0.0
  9
$DIMTSZ
 40
0.0
  9
$DIMTOL
 70
     0
  9
$DIMLIM
 70
     0
  9
$DIMTIH
 70
     0
  9
$DIMTOH
 70
     0
  9
$DIMSE1
 70
     0
  9
$DIMSE2
 70
     0
  9
$DIMTAD
 70
     1
  9
$DIMZIN
 70
     8
  9
$DIMBLK
  1

  9
$DIMASO
 70
     1
  9
$DIMSHO
 70
     1
  9
$DIMPOST
  1
 
  9
$DIMAPOST
  1

  9
$DIMALT
 70
     0
  9
$DIMALTD
 70
     2
  9
$DIMALTF
 40
25.399999999999999
  9
$DIMLFAC
 40
1.0
  9
$DIMTOFL
 70
     1
  9
$DIMTVP
 40
0.0
  9
$DIMTIX
 70
     0
  9
$DIMSOXD
 70
     0
  9
$DIMSAH
 70
     1
  9
$DIMBLK1
  1
OPEN30
  9
$DIMBLK2
  1
OPEN30
  9
$DIMSTYLE
  2
NEWX10
  9
$DIMCLRD
 70
   256
  9
$DIMCLRE
 70
   256
  9
$DIMCLRT
 70
   201
  9
$DIMTFAC
 40
0.7
  9
$DIMGAP
 40
0.7
  9
$LUNITS
 70
     2
  9
$LUPREC
 70
     4
  9
$SKETCHINC
 40
1.0
  9
$FILLETRAD
 40
2.0
  9
$AUNITS
 70
     0
  9
$AUPREC
 70
     2
  9
$MENU
  1
acad
  9
$ELEVATION
 40
0.0
  9
$PELEVATION
 40
0.0
  9
$THICKNESS
 40
0.0
  9
$LIMCHECK
 70
     0
  9
$BLIPMODE
 70
     0
  9
$CHAMFERA
 40
1.0
  9
$CHAMFERB
 40
1.0
  9
$SKPOLY
 70
     0
  9
$TDCREATE
 40
2453033.7326634838
  9
$TDUPDATE
 40
2456567.3953036349
  9
$TDINDWG
 40
2.5829173495000002
  9
$TDUSRTIMER
 40
2.5829173495000002
  9
$USRTIMER
 70
     1
  9
$ANGBASE
 50
0.0
  9
$ANGDIR
 70
     0
  9
$PDMODE
 70
     0
  9
$PDSIZE
 40
0.0
  9
$PLINEWID
 40
0.0
  9
$COORDS
 70
     0
  9
$SPLFRAME
 70
     0
  9
$SPLINETYPE
 70
     6
  9
$SPLINESEGS
 70
     8
  9
$ATTDIA
 70
     0
  9
$ATTREQ
 70
     1
  9
$HANDLING
 70
     1
  9
$HANDSEED
  5
20701
  9
$SURFTAB1
 70
     6
  9
$SURFTAB2
 70
     6
  9
$SURFTYPE
 70
     6
  9
$SURFU
 70
     6
  9
$SURFV
 70
     6
  9
$UCSNAME
  2

  9
$UCSORG
 10
0.0
 20
0.0
 30
0.0
  9
$UCSXDIR
 10
1.0
 20
0.0
 30
0.0
  9
$UCSYDIR
 10
0.0
 20
1.0
 30
0.0
  9
$PUCSNAME
  2

  9
$PUCSORG
 10
0.0
 20
0.0
 30
0.0
  9
$PUCSXDIR
 10
1.0
 20
0.0
 30
0.0
  9
$PUCSYDIR
 10
0.0
 20
1.0
 30
0.0
  9
$USERI1
 70
     0
  9
$USERI2
 70
     0
  9
$USERI3
 70
     0
  9
$USERI4
 70
     0
  9
$USERI5
 70
     0
  9
$USERR1
 40
0.0
  9
$USERR2
 40
0.0
  9
$USERR3
 40
0.0
  9
$USERR4
 40
0.0
  9
$USERR5
 40
0.0
  9
$WORLDVIEW
 70
     1
  9
$SHADEDGE
 70
     3
  9
$SHADEDIF
 70
    70
  9
$TILEMODE
 70
     1
  9
$MAXACTVP
 70
    48
  9
$PLIMCHECK
 70
     0
  9
$PEXTMIN
 10
1.0000000000000000E+020
 20
1.0000000000000000E+020
 30
1.0000000000000000E+020
  9
$PEXTMAX
 10
-1.0000000000000000E+020
 20
-1.0000000000000000E+020
 30
-1.0000000000000000E+020
  9
$PLIMMIN
 10
0.0
 20
0.0
  9
$PLIMMAX
 10
420.0
 20
297.0
  9
$UNITMODE
 70
     0
  9
$VISRETAIN
 70
     1
  9
$PLINEGEN
 70
     0
  9
$PSLTSCALE
 70
     1
  0
ENDSEC
  0
SECTION
  2
TABLES
  0
TABLE
  2
VPORT
 70
     1
  0
VPORT
  2
*ACTIVE
 70
     0
 10
0.0
 20
0.0
 11
1.0
 21
1.0
 12
577.76992783672358
 22
-602.4120956337315
 13
0.0
 23
0.0
 14
10.0
 24
10.0
 15
10.0
 25
10.0
 16
0.0
 26
0.0
 36
1.0
 17
0.0
 27
0.0
 37
0.0
 40
212.16237034396849
 41
2.1771217712177111
 42
50.0
 43
0.0
 44
0.0
 50
0.0
 51
0.0
 71
     0
 72
   100
 73
     1
 74
     1
 75
     0
 76
     0
 77
     0
 78
     0
  0
ENDTAB
  0
TABLE
  2
LTYPE
 70
    18
  0
LTYPE
  2
CONTINUOUS
 70
     0
  3
Solid line
 72
    65
 73
     0
 40
0.0
  0
LTYPE
  2
CENTER2
 70
     0
  3
Center (.5x) ___ _ ___ _ ___ _ ___ _ ___ _ ___
 72
    65
 73
     4
 40
28.574999999999999
 49
19.050000000000001
 49
-3.1749999999999989
 49
3.1749999999999989
 49
-3.1749999999999989
  0
LTYPE
  2
PHANTOM2
 70
     0
  3
Phantom (.5x) ___ _ _ ___ _ _ ___ _ _ ___ _ _
 72
    65
 73
     6
 40
31.75
 49
15.875
 49
-3.1749999999999989
 49
3.1749999999999989
 49
-3.1749999999999989
 49
3.1749999999999989
 49
-3.1749999999999989
  0
ENDTAB
  0
TABLE
  2
LAYER
 70
    44
  0
LAYER
  2
0
 70
     0
 62
     7
  6
CONTINUOUS
  0
LAYER
  2
1CENTER
 70
     0
 62
     7
  6
CENTER2
  0
LAYER
  2
1TEXT
 70
     0
 62
     7
  6
CONTINUOUS
  0
LAYER
  2
1DIM
 70
     0
 62
     7
  6
CONTINUOUS
  0
LAYER
  2
1PHANTOM
 70
     0
 62
     7
  6
PHANTOM2
  0
LAYER
  2
01
 70
     0
 62
     1
  6
CONTINUOUS
  0
LAYER
  2
1HATCH
 70
     0
 62
     7
  6
CONTINUOUS
  0
ENDTAB
  0
TABLE
  2
STYLE
 70
    24
  0
STYLE
  2
STANDARD
 70
     0
 40
0.0
 41
1.0
 50
0.0
 71
     0
 42
4.0
  3
txt.shx
  4
extfont.shx
  0
ENDTAB
  0
TABLE
  2
VIEW
 70
     7
  0
ENDTAB
  0
TABLE
  2
UCS
 70
     0
  0
ENDTAB
  0
TABLE
  2
APPID
 70
    13
  0
APPID
  2
ACAD
 70
     0
  0
APPID
  2
DRAWINGVARIABLESXDATA
 70
     0
  0
APPID
  2
CONTENTTABDATA
 70
     0
  0
APPID
  2
CONTENTCURRENTTAB
 70
     0
  0
APPID
  2
CONTENTBLOCKDESCRIPTION
 70
     0
  0
APPID
  2
CONTENTBLOCKICON
 70
     0
  0
APPID
  2
CONTENTLONGBLOCKNAME
 70
     0
  0
APPID
  2
ACAD_PSEXT
 70
     0
  0
APPID
  2
ACAD_DSTYLE_DIMTEXT_FILL
 70
     0
  0
APPID
  2
ACAD_MLEADERVER
 70
     0
  0
APPID
  2
ACAD_DSTYLE_DIMRADIAL_EXTENSION
 70
     0
  0
APPID
  2
ACADANNOTATIVE
 70
     0
  0
APPID
  2
ACAD_EXEMPT_FROM_CAD_STANDARDS
 70
     0
  0
ENDTAB
  0
TABLE
  2
DIMSTYLE
 70
    10
  0
DIMSTYLE
  2
NEWX10
 70
     0
  3
 
  4

  5

  6
OPEN30
  7
OPEN30
 40
1.0
 41
2.0
 42
0.0
 43
7.0
 44
1.0
 45
0.0
 46
0.0
 47
0.0
 48
0.0
140
3.5
141
0.0
142
0.0
143
25.399999999999999
144
1.0
145
0.0
146
0.7
147
0.7
 71
     0
 72
     0
 73
     0
 74
     0
 75
     0
 76
     0
 77
     1
 78
     8
170
     0
171
     2
172
     1
173
     1
174
     0
175
     0
176
   256
177
   256
178
   201
  0
ENDTAB
  0
ENDSEC
  0
SECTION
  2
BLOCKS
  0
BLOCK
  8
0
  2
$MODEL_SPACE
 70
     0
 10
0.0
 20
0.0
 30
0.0
  3
$MODEL_SPACE
  1

  0
ENDBLK
  5
1A
  8
0
  0
BLOCK
 67
     1
  8
0
  2
$PAPER_SPACE
 70
     0
 10
0.0
 20
0.0
 30
0.0
  3
$PAPER_SPACE
  1

  0
ENDBLK
  5
17
 67
     1
  8
0
  0
BLOCK
  8
0
  2
_OPEN30
 70
     0
 10
0.0
 20
0.0
 30
0.0
  3
_OPEN30
  1

  0
LINE
  5
44
  8
0
  6
BYBLOCK
 62
     0
 10
-1.0
 20
0.26794919
 30
0.0
 11
0.0
 21
0.0
 31
0.0
  0
LINE
  5
45
  8
0
  6
BYBLOCK
 62
     0
 10
0.0
 20
0.0
 30
0.0
 11
-1.0
 21
-0.26794919
 31
0.0
  0
LINE
  5
46
  8
0
  6
BYBLOCK
 62
     0
 10
0.0
 20
0.0
 30
0.0
 11
-1.0
 21
0.0
 31
0.0
  0
ENDBLK
  5
47
  8
0
  0
BLOCK
  8
0
  2
*U48
 70
     1
 10
0.0
 20
0.0
 30
0.0
  3
*U48
  1

  0
POLYLINE
  5
206EF
  8
1DIM
 66
     1
 10
0.0
 20
0.0
 30
0.0
  0
VERTEX
  5
206F0
  8
1DIM
 10
108.81306880874951
 20
62.01780483087029
 30
0.0
  0
VERTEX
  5
206F1
  8
1DIM
 10
93.901575353915248
 20
25.00743866055091
 30
0.0
  0
VERTEX
  5
206F2
  8
1DIM
 10
52.234908687248577
 20
25.00743866055091
 30
0.0
  0
SEQEND
  5
206F3
  8
1DIM
  0
ENDBLK
  5
206F5
  8
0
  0
BLOCK
  8
0
  2
*U49
 70
     1
 10
0.0
 20
0.0
 30
0.0
  3
*U49
  1

  0
TEXT
  5
206F7
  8
1DIM
 62
   201
 10
59.001575353915257
 20
38.290771993884242
 30
0.0
 40
3.5
  1
両面に刻印のこと
  0
TEXT
  5
206F8
  8
1DIM
 62
   201
 10
52.234908687248577
 20
32.457438660550913
 30
0.0
 40
3.5
  1
社名刻印（版下参照）
  0
TEXT
  5
206F9
  8
1DIM
 62
   201
 10
59.234908687248577
 20
26.624105327217571
 30
0.0
 40
3.5
  1
刻印幅10/凹0.2
  0
ENDBLK
  5
206FB
  8
0
  0
ENDSEC
  0
SECTION
  2
ENTITIES
  0
LINE
  5
1D8CA
  8
01
 10
713.01624161536495
 20
-650.67133035126585
 30
0.0
 11
713.01624161536495
 21
-672.82133035126719
 31
0.0
  0
LINE
  5
1D90A
  8
01
 10
713.01624161536495
 20
-653.17133035126653
 30
0.0
 11
713.01624161536495
 21
-670.82133035126594
 31
0.0
  0
TEXT
  5
1DB93
  8
1TEXT
 10
682.17694592237251
 20
-530.75756351465077
 30
0.0
 40
4.0
  1
表面処理
 72
     1
 11
691.24361258903923
 21
-530.75756351465077
 31
0.0
  0
LINE
  5
1DB94
  8
1DIM
 10
673.84361258903914
 20
-525.25756351465077
 30
0.0
 11
743.84361258903914
 21
-525.25756351465077
 31
0.0
  0
LINE
  5
1DB95
  8
1DIM
 10
673.84361258903914
 20
-539.25756351465077
 30
0.0
 11
743.84361258903914
 21
-539.25756351465077
 31
0.0
  0
LINE
  5
1DB96
  8
1DIM
 10
673.84361258903914
 20
-532.25756351465088
 30
0.0
 11
743.84361258903914
 21
-532.25756351465088
 31
0.0
  0
LINE
  5
1DB97
  8
1DIM
 10
708.84361258903914
 20
-525.25756351465077
 30
0.0
 11
708.8436125890388
 21
-539.25756351465077
 31
0.0
  0
TEXT
  5
1DB98
  8
1TEXT
 10
719.44361258903916
 20
-530.75756351465077
 30
0.0
 40
4.0
  1
コード
 72
     1
 11
726.24361258903923
 21
-530.75756351465077
 31
0.0
  0
LINE
  5
1DB99
  8
1DIM
 10
673.84361258903914
 20
-539.25756351465077
 30
0.0
 11
673.84361258903914
 21
-525.25756351465077
 31
0.0
  0
LINE
  5
1DB9A
  8
1DIM
 10
743.84361258903903
 20
-539.25756351465077
 30
0.0
 11
743.84361258903914
 21
-525.25756351465077
 31
0.0
  0
TEXT
  5
1DB9B
  8
1TEXT
 10
673.84361258903914
 20
-520.25756351465088
 30
0.0
 40
8.0
  1
SC-610-XC
  0
TEXT
  5
1DB9C
  8
1TEXT
 10
681.91027925570586
 20
-537.59285217417516
 30
0.0
 40
4.0
  1
クローム
 72
     1
 11
691.24361258903923
 21
-537.59285217417516
 31
0.0
  0
TEXT
  5
1DB9D
  8
1TEXT
 10
712.36027925570613
 20
-537.97192049830005
 30
0.0
 40
4.0
  1
SC-610-XC
 41
0.85
 72
     1
 11
726.24361258903946
 21
-537.97192049830005
 31
0.0
  0
LINE
  5
1DBA4
  8
01
 10
725.51624161536495
 20
-618.59315676598453
 30
0.0
 11
725.51624161536495
 21
-693.04950393654815
 31
0.0
  0
LINE
  5
1DBA5
  8
01
 10
734.51624161536495
 20
-618.59315676598453
 30
0.0
 11
734.51624161536495
 21
-693.04950393654815
 31
0.0
  0
LINE
  5
1DBA6
  8
01
 10
713.01624161536495
 20
-618.59315676598453
 30
0.0
 11
713.01624161536495
 21
-693.04950393654815
 31
0.0
  0
LINE
  5
1E7B5
  8
01
 10
520.51765983303994
 20
-538.8213303512664
 30
0.0
 11
519.51766013303995
 21
-537.8213303512664
 31
0.0
  0
LINE
  5
1E7B6
  8
01
 10
523.81765998303979
 20
-538.8213303512664
 30
0.0
 11
523.81765998303979
 21
-537.8213303512664
 31
0.0
  0
LINE
  5
1E7B7
  8
01
 10
523.81765998303979
 20
-537.8213303512664
 30
0.0
 11
516.21765998303999
 21
-537.8213303512664
 31
0.0
  0
LINE
  5
1E7B8
  8
01
 10
523.81765998303979
 20
-538.8213303512664
 30
0.0
 11
516.21765998303999
 21
-538.8213303512664
 31
0.0
  0
LINE
  5
1E7B9
  8
01
 10
516.21765998303999
 20
-538.8213303512664
 30
0.0
 11
516.21765998303999
 21
-537.8213303512664
 31
0.0
  0
LINE
  5
1E9D4
  8
01
 10
480.51482310389861
 20
-538.8213303512664
 30
0.0
 11
479.51482340389862
 21
-537.8213303512664
 31
0.0
  0
LINE
  5
1E9D5
  8
01
 10
483.81482325389851
 20
-538.8213303512664
 30
0.0
 11
483.81482325389851
 21
-537.8213303512664
 31
0.0
  0
LINE
  5
1E9D6
  8
01
 10
483.81482325389851
 20
-537.8213303512664
 30
0.0
 11
476.21482325389871
 21
-537.8213303512664
 31
0.0
  0
LINE
  5
1E9D7
  8
01
 10
483.81482325389851
 20
-538.8213303512664
 30
0.0
 11
476.21482325389871
 21
-538.8213303512664
 31
0.0
  0
LINE
  5
1E9D8
  8
01
 10
476.21482325389871
 20
-538.8213303512664
 30
0.0
 11
476.21482325389871
 21
-537.8213303512664
 31
0.0
  0
LINE
  5
1EBEF
  8
01
 10
710.01624161536495
 20
-656.32133020126628
 30
0.0
 11
711.01624161536495
 21
-655.3213305012664
 31
0.0
  0
LINE
  5
1EBF0
  8
01
 10
710.01624161536495
 20
-659.62133035126635
 30
0.0
 11
711.01624161536495
 21
-659.62133035126635
 31
0.0
  0
LINE
  5
1EBF1
  8
01
 10
711.01624161536495
 20
-659.62133035126635
 30
0.0
 11
711.01624161536495
 21
-652.02133035126644
 31
0.0
  0
LINE
  5
1EBF2
  8
01
 10
710.01624161536495
 20
-659.62133035126635
 30
0.0
 11
710.01624161536495
 21
-652.02133035126644
 31
0.0
  0
LINE
  5
1EBF3
  8
01
 10
710.01624161536495
 20
-652.02133035126644
 30
0.0
 11
711.01624161536495
 21
-652.02133035126644
 31
0.0
  0
LINE
  5
1FFB2
  8
01
 10
600.01624161536483
 20
-535.8213303512664
 30
0.0
 11
400.016241615365
 21
-535.8213303512664
 31
0.0
  0
LINE
  5
1FFB3
  8
01
 10
589.01624161536483
 20
-539.8213303512664
 30
0.0
 11
411.016241615365
 21
-539.8213303512664
 31
0.0
  0
ARC
  5
1FFB4
  8
01
 10
589.01624161536483
 20
-545.82133035126628
 30
0.0
 40
6.0
 50
0.0
 51
90.0
  0
ARC
  5
1FFB5
  8
01
 10
400.016241615365
 20
-545.82133035126628
 30
0.0
 40
10.0
 50
90.0
 51
180.0
  0
LINE
  5
1FFB6
  8
01
 10
600.01624161536483
 20
-600.8213303512664
 30
0.0
 11
400.016241615365
 21
-600.8213303512664
 31
0.0
  0
LINE
  5
1FFB7
  8
01
 10
589.01624161536483
 20
-596.8213303512664
 30
0.0
 11
411.016241615365
 21
-596.8213303512664
 31
0.0
  0
ARC
  5
1FFB8
  8
01
 10
411.016241615365
 20
-590.82133035126628
 30
0.0
 40
6.0
 50
180.0
 51
270.0
  0
ARC
  5
1FFB9
  8
01
 10
600.01624161536483
 20
-590.82133035126628
 30
0.0
 40
10.0
 50
270.0
 51
0.0
  0
LINE
  5
1FFBA
  8
01
 10
390.01624161536512
 20
-545.82133035126628
 30
0.0
 11
390.01624161536512
 21
-590.82133035126628
 31
0.0
  0
LINE
  5
1FFBB
  8
01
 10
405.016241615365
 20
-545.82133035126628
 30
0.0
 11
405.016241615365
 21
-590.82133035126628
 31
0.0
  0
ARC
  5
1FFBC
  8
01
 10
411.016241615365
 20
-545.82133035126628
 30
0.0
 40
6.0
 50
90.0
 51
180.0
  0
ARC
  5
1FFBD
  8
01
 10
400.016241615365
 20
-590.82133035126628
 30
0.0
 40
10.0
 50
180.0
 51
270.0
  0
LINE
  5
1FFBE
  8
01
 10
610.01624161536483
 20
-545.82133035126628
 30
0.0
 11
610.01624161536483
 21
-590.82133035126628
 31
0.0
  0
LINE
  5
1FFBF
  8
01
 10
595.01624161536483
 20
-545.82133035126628
 30
0.0
 11
595.01624161536483
 21
-590.82133035126628
 31
0.0
  0
ARC
  5
1FFC0
  8
01
 10
589.01624161536483
 20
-590.82133035126628
 30
0.0
 40
6.0
 50
270.0
 51
0.0
  0
ARC
  5
1FFC1
  8
01
 10
600.01624161536483
 20
-545.82133035126628
 30
0.0
 40
10.0
 50
0.0
 51
90.0
  0
LINE
  5
1FFC4
  8
01
 10
609.01624161536483
 20
-642.8213303512598
 30
0.0
 11
391.01624161536489
 21
-642.82133035126469
 31
0.0
  0
ARC
  5
1FFC5
  8
01
 10
609.01624161536483
 20
-641.82133035126458
 30
0.0
 40
1.0
 50
270.0
 51
0.0
  0
LINE
  5
1FFC6
  8
01
 10
390.016241615365
 20
-636.82133035126458
 30
0.0
 11
390.016241615365
 21
-641.82133035126458
 31
0.0
  0
ARC
  5
1FFC7
  8
01
 10
391.01624161536489
 20
-641.82133035126458
 30
0.0
 40
1.0
 50
180.0
 51
270.0
  0
LINE
  5
1FFC8
  8
01
 10
610.01624161536483
 20
-636.82133035126458
 30
0.0
 11
610.01624161536483
 21
-641.82133035126458
 31
0.0
  0
ARC
  5
1FFC9
  8
01
 10
609.01624161536483
 20
-636.82133035126458
 30
0.0
 40
1.0
 50
0.0
 51
90.0
  0
LINE
  5
1FFCA
  8
01
 10
526.51624161536495
 20
-665.82133035126458
 30
0.0
 11
473.51624161536489
 21
-665.82133035126458
 31
0.0
  0
LINE
  5
1FFCB
  8
01
 10
526.51624161536495
 20
-642.82133035126469
 30
0.0
 11
526.51624161536495
 21
-665.82133035126287
 31
0.0
  0
LINE
  5
1FFCD
  8
01
 10
473.51624161536489
 20
-642.82133035126469
 30
0.0
 11
473.51624161536489
 21
-665.82133035126287
 31
0.0
  0
LINE
  5
1FFCF
  8
01
 10
391.01624161536489
 20
-635.82133035126469
 30
0.0
 11
609.01624161536483
 21
-635.82133035126469
 31
0.0
  0
ARC
  5
1FFD0
  8
01
 10
391.01624161536489
 20
-636.82133035126458
 30
0.0
 40
1.0
 50
90.0
 51
180.0
  0
LINE
  5
1FFD2
  8
01
 10
609.01624161536483
 20
-672.82133035126469
 30
0.0
 11
391.01624161536512
 21
-672.82133035126469
 31
0.0
  0
ARC
  5
1FFD3
  8
01
 10
391.01624161536512
 20
-671.82133035126469
 30
0.0
 40
1.0
 50
180.0
 51
270.0
  0
LINE
  5
1FFD4
  8
01
 10
609.01624161536483
 20
-665.82133035126458
 30
0.0
 11
391.01624161536512
 21
-665.82133035126458
 31
0.0
  0
ARC
  5
1FFD5
  8
01
 10
609.01624161536483
 20
-666.82133035126458
 30
0.0
 40
1.0
 50
0.0
 51
90.0
  0
LINE
  5
1FFD6
  8
01
 10
390.01624161536512
 20
-666.82133035126458
 30
0.0
 11
390.01624161536512
 21
-671.82133035126469
 31
0.0
  0
ARC
  5
1FFD7
  8
01
 10
391.01624161536512
 20
-666.82133035126458
 30
0.0
 40
1.0
 50
90.0
 51
180.0
  0
LINE
  5
1FFD8
  8
01
 10
610.01624161536483
 20
-666.82133035126458
 30
0.0
 11
610.01624161536483
 21
-671.82133035126469
 31
0.0
  0
ARC
  5
1FFD9
  8
01
 10
609.01624161536483
 20
-671.82133035126469
 30
0.0
 40
1.0
 50
270.0
 51
0.0
  0
LINE
  5
20015
  8
01
 10
524.26624161536495
 20
-665.82133035126458
 30
0.0
 11
475.76624161536489
 21
-665.82133035126458
 31
0.0
  0
LINE
  5
20019
  8
1PHANTOM
 10
478.76624161536489
 20
-643.8213303512664
 30
0.0
 11
521.26624161536495
 21
-643.8213303512664
 31
0.0
  0
ARC
  5
2001A
  8
1PHANTOM
 10
521.26624161536495
 20
-646.82133035126651
 30
0.0
 40
3.0
 50
0.0
 51
90.0
  0
LINE
  5
2001B
  8
1PHANTOM
 10
475.76624161536489
 20
-646.82133035126651
 30
0.0
 11
475.76624161536489
 21
-665.82133035126458
 31
0.0
  0
ARC
  5
2001C
  8
1PHANTOM
 10
478.76624161536489
 20
-646.82133035126651
 30
0.0
 40
3.0
 50
90.0
 51
180.0
  0
LINE
  5
2001D
  8
1PHANTOM
 10
524.26624161536495
 20
-646.82133035126651
 30
0.0
 11
524.26624161536495
 21
-665.82133035126651
 31
0.0
  0
LINE
  5
20044
  8
1CENTER
 10
500.01624161536489
 20
-634.42526679686569
 30
0.0
 11
500.01624161536489
 21
-674.62016463125917
 31
0.0
  0
LINE
  5
20056
  8
01
 10
649.01624161536495
 20
-635.8213303512664
 30
0.0
 11
712.01624161536495
 21
-635.8213303512664
 31
0.0
  0
ARC
  5
20057
  8
01
 10
649.01624161536495
 20
-636.82133035126628
 30
0.0
 40
1.0
 50
90.0
 51
180.0
  0
LINE
  5
20058
  8
01
 10
649.01624161536495
 20
-642.82133035126446
 30
0.0
 11
713.01624161536495
 21
-642.82133035126446
 31
0.0
  0
LINE
  5
20059
  8
01
 10
713.01624161536495
 20
-664.8213303512664
 30
0.0
 11
713.01624161536495
 21
-636.82133035126628
 31
0.0
  0
ARC
  5
2005A
  8
01
 10
712.01624161536495
 20
-636.82133035126628
 30
0.0
 40
1.0
 50
0.0
 51
90.0
  0
ARC
  5
2005B
  8
01
 10
712.01624161536495
 20
-664.8213303512664
 30
0.0
 40
1.0
 50
270.0
 51
0.0
  0
LINE
  5
2005C
  8
01
 10
648.01624161536495
 20
-641.82133035126446
 30
0.0
 11
648.01624161536495
 21
-636.82133035126628
 31
0.0
  0
ARC
  5
2005D
  8
01
 10
649.01624161536495
 20
-641.82133035126446
 30
0.0
 40
1.0
 50
180.0
 51
270.0
  0
LINE
  5
2005E
  8
01
 10
693.01624161536495
 20
-665.82133035126628
 30
0.0
 11
693.01624161536495
 21
-642.82133035126446
 31
0.0
  0
LINE
  5
2005F
  8
01
 10
693.01624161536495
 20
-665.82133035126628
 30
0.0
 11
712.01624161536495
 21
-665.82133035126628
 31
0.0
  0
LINE
  5
20060
  8
01
 10
649.01624161536904
 20
-665.82133035126628
 30
0.0
 11
712.01624161536495
 21
-665.82133035126628
 31
0.0
  0
ARC
  5
20061
  8
01
 10
677.01624161536904
 20
-666.8213303512664
 30
0.0
 40
1.0
 50
0.0
 51
90.0
  0
ARC
  5
20062
  8
01
 10
694.01624161536904
 20
-666.8213303512664
 30
0.0
 40
1.0
 50
90.0
 51
180.0
  0
LINE
  5
20063
  8
01
 10
649.01624161536904
 20
-672.8213303512681
 30
0.0
 11
712.01624161536495
 21
-672.8213303512681
 31
0.0
  0
ARC
  5
20064
  8
01
 10
712.01624161536495
 20
-671.82133035126822
 30
0.0
 40
1.0
 50
270.0
 51
0.0
  0
ARC
  5
20065
  8
01
 10
649.01624161536904
 20
-671.82133035126822
 30
0.0
 40
1.0
 50
180.0
 51
270.0
  0
LINE
  5
20066
  8
01
 10
693.01624161536904
 20
-666.8213303512664
 30
0.0
 11
693.01624161536904
 21
-671.82133035126822
 31
0.0
  0
ARC
  5
20067
  8
01
 10
694.01624161536904
 20
-671.82133035126822
 30
0.0
 40
1.0
 50
180.0
 51
270.0
  0
LINE
  5
20068
  8
01
 10
648.01624161536904
 20
-666.8213303512664
 30
0.0
 11
648.01624161536904
 21
-671.82133035126822
 31
0.0
  0
ARC
  5
20069
  8
01
 10
649.01624161536904
 20
-666.8213303512664
 30
0.0
 40
1.0
 50
90.0
 51
180.0
  0
LINE
  5
2006A
  8
01
 10
678.01624161536904
 20
-666.8213303512664
 30
0.0
 11
678.01624161536904
 21
-671.82133035126822
 31
0.0
  0
ARC
  5
2006B
  8
01
 10
677.01624161536904
 20
-671.82133035126822
 30
0.0
 40
1.0
 50
270.0
 51
0.0
  0
LINE
  5
2006C
  8
01
 10
713.01624161536495
 20
-671.82133035126822
 30
0.0
 11
713.01624161536495
 21
-666.8213303512664
 31
0.0
  0
ARC
  5
2006D
  8
01
 10
712.01624161536495
 20
-666.8213303512664
 30
0.0
 40
1.0
 50
0.0
 51
90.0
  0
LINE
  5
201B9
  8
1CENTER
 10
517.09265997993555
 20
-655.82133035126628
 30
0.0
 11
522.94265997993557
 21
-655.82133035126628
 31
0.0
  0
LINE
  5
201BA
  8
1CENTER
 10
520.0176599799355
 20
-658.74633035126624
 30
0.0
 11
520.0176599799355
 21
-652.89633035126622
 31
0.0
  0
LINE
  5
201BB
  8
1CENTER
 10
520.0176599799355
 20
-675.1524806969062
 30
0.0
 11
520.0176599799355
 21
-663.68237659960084
 31
0.0
  0
LINE
  5
201BD
  8
1CENTER
 10
482.93982325079418
 20
-655.82133035126628
 30
0.0
 11
477.08982325079421
 21
-655.82133035126628
 31
0.0
  0
LINE
  5
201BE
  8
1CENTER
 10
480.01482325079422
 20
-658.74633035126624
 30
0.0
 11
480.01482325079422
 21
-652.89633035126622
 31
0.0
  0
LINE
  5
201BF
  8
1CENTER
 10
480.01482325079422
 20
-675.1524806969062
 30
0.0
 11
480.01482325079422
 21
-663.68237659960084
 31
0.0
  0
LINE
  5
20289
  8
1PHANTOM
 10
524.51624161536495
 20
-555.8213303512664
 30
0.0
 11
410.01624161536489
 21
-555.8213303512664
 31
0.0
  0
LINE
  5
2028A
  8
1PHANTOM
 10
473.51624161536489
 20
-535.8213303512664
 30
0.0
 11
473.51624161536489
 21
-553.82133035126628
 31
0.0
  0
LINE
  5
2028B
  8
1PHANTOM
 10
526.51624161536495
 20
-535.8213303512664
 30
0.0
 11
526.51624161536495
 21
-553.82133035126628
 31
0.0
  0
ARC
  5
2028C
  8
1PHANTOM
 10
524.51624161536495
 20
-553.82133035126628
 30
0.0
 40
2.0
 50
270.0
 51
0.0
  0
ARC
  5
2028D
  8
1PHANTOM
 10
475.51624161536489
 20
-553.82133035126628
 30
0.0
 40
2.0
 50
180.0
 51
270.0
  0
LINE
  5
20471
  8
1PHANTOM
 10
605.01624161536483
 20
-570.82133035126628
 30
0.0
 11
600.01624161536483
 21
-570.82133035126628
 31
0.0
  0
ARC
  5
20472
  8
1PHANTOM
 10
605.01624161536483
 20
-575.8213303512664
 30
0.0
 40
5.0
 50
0.0
 51
90.0
  0
LINE
  5
20473
  8
1PHANTOM
 10
590.01624161536483
 20
-585.8213303512664
 30
0.0
 11
410.01624161536489
 21
-585.8213303512664
 31
0.0
  0
ARC
  5
20474
  8
1PHANTOM
 10
410.01624161536489
 20
-580.8213303512664
 30
0.0
 40
5.0
 50
180.0
 51
270.0
  0
ARC
  5
20477
  8
1PHANTOM
 10
410.01624161536489
 20
-560.8213303512664
 30
0.0
 40
5.0
 50
90.0
 51
180.0
  0
LINE
  5
20478
  8
1PHANTOM
 10
595.01624161536483
 20
-575.8213303512664
 30
0.0
 11
595.01624161536483
 21
-580.8213303512664
 31
0.0
  0
ARC
  5
20479
  8
1PHANTOM
 10
600.01624161536483
 20
-575.8213303512664
 30
0.0
 40
5.0
 50
90.0
 51
180.0
  0
ARC
  5
2047A
  8
1PHANTOM
 10
590.01624161536483
 20
-580.8213303512664
 30
0.0
 40
5.0
 50
270.0
 51
0.0
  0
TEXT
  5
204FC
  8
01
 10
732.88917527135266
 20
-611.3902613041472
 30
0.0
 40
3.5
  1
合板9mm以上
  0
TEXT
  5
204FD
  8
01
 10
719.75375712618745
 20
-611.3902613041472
 30
0.0
 40
3.5
  1
PB
  0
TEXT
  5
204FE
  8
1DIM
 10
597.92236240661168
 20
-691.43897441207196
 30
0.0
 40
3.5
  1
材質：亜鉛ダイキャスト
  0
TEXT
  5
204FF
  8
1DIM
 10
610.05569573994512
 20
-697.27230774540544
 30
0.0
 40
3.5
  1
仕上げ：クローム
  0
SOLID
  5
20500
  8
1DIM
 10
672.48037368067526
 20
-670.69977750898602
 30
0.0
 11
674.14081101064551
 21
-669.536137107336
 31
0.0
 12
672.94752393688441
 22
-671.17539824294124
 32
0.0
 13
672.94752393688441
 23
-671.17539824294124
 33
0.0
1001
ACAD
1000
DSTYLE
1002
{
1070
    45
1040
0.5
1002
}
  0
LINE
  5
20502
  8
1DIM
 10
609.01624161536483
 20
-642.82133035126469
 30
0.0
 11
618.68165114249814
 21
-642.82133035126469
 31
0.0
  0
LINE
  5
20503
  8
1DIM
 10
609.01624161536483
 20
-635.8213303512664
 30
0.0
 11
618.68165114249814
 21
-635.8213303512664
 31
0.0
  0
LINE
  5
20504
  8
1DIM
 10
617.68165114249814
 20
-640.82133035126458
 30
0.0
 11
617.68165114249814
 21
-637.8213303512664
 31
0.0
  0
LINE
  5
20508
  8
1DIM
 10
609.01624161536483
 20
-665.82133035126458
 30
0.0
 11
618.68165114249814
 21
-665.82133035126458
 31
0.0
  0
LINE
  5
20509
  8
1DIM
 10
609.01624161536483
 20
-642.82133035126469
 30
0.0
 11
618.68165114249814
 21
-642.82133035126469
 31
0.0
  0
LINE
  5
2050A
  8
1DIM
 10
617.68165114249814
 20
-663.82133035126469
 30
0.0
 11
617.68165114249814
 21
-644.82133035126458
 31
0.0
  0
LINE
  5
2050E
  8
1DIM
 10
693.01624161536495
 20
-642.82133035126446
 30
0.0
 11
693.01624161536495
 21
-614.82133035126628
 31
0.0
  0
LINE
  5
2050F
  8
1DIM
 10
713.01624161536495
 20
-618.59315676598453
 30
0.0
 11
713.01624161536495
 21
-614.82133035126628
 31
0.0
  0
LINE
  5
20510
  8
1DIM
 10
695.01624161536495
 20
-615.82133035126617
 30
0.0
 11
711.01624161536495
 21
-615.82133035126617
 31
0.0
  0
LINE
  5
20514
  8
1DIM
 10
609.01624161536483
 20
-665.82133035126458
 30
0.0
 11
618.68165114249814
 21
-665.82133035126458
 31
0.0
  0
LINE
  5
20515
  8
1DIM
 10
609.01624161536483
 20
-672.82133035126469
 30
0.0
 11
618.68165114249814
 21
-672.82133035126469
 31
0.0
  0
LINE
  5
20516
  8
1DIM
 10
617.68165114249814
 20
-667.82133035126469
 30
0.0
 11
617.68165114249814
 21
-670.82133035126458
 31
0.0
  0
LINE
  5
2051A
  8
1DIM
 10
609.01624161536483
 20
-635.8213303512664
 30
0.0
 11
629.52138658400816
 21
-635.8213303512664
 31
0.0
  0
LINE
  5
2051B
  8
1DIM
 10
609.01624161536483
 20
-672.82133035126469
 30
0.0
 11
629.52138658400816
 21
-672.82133035126469
 31
0.0
  0
LINE
  5
2051C
  8
1DIM
 10
628.52138658400816
 20
-637.8213303512664
 30
0.0
 11
628.52138658400816
 21
-670.82133035126458
 31
0.0
  0
LINE
  5
20520
  8
1DIM
 10
390.016241615365
 20
-636.82133035126458
 30
0.0
 11
390.016241615365
 21
-614.82133035126628
 31
0.0
  0
LINE
  5
20521
  8
1DIM
 10
610.01624161536483
 20
-636.82133035126458
 30
0.0
 11
610.01624161536483
 21
-614.82133035126628
 31
0.0
  0
LINE
  5
20522
  8
1DIM
 10
392.016241615365
 20
-615.82133035126617
 30
0.0
 11
608.01624161536483
 21
-615.82133035126617
 31
0.0
  0
LINE
  5
20526
  8
1DIM
 10
480.01482325079422
 20
-658.74633035126624
 30
0.0
 11
480.01482325079422
 21
-702.42133035126756
 31
0.0
  0
LINE
  5
20527
  8
1DIM
 10
520.0176599799355
 20
-658.74633035126624
 30
0.0
 11
520.0176599799355
 21
-702.42133035126756
 31
0.0
  0
LINE
  5
20528
  8
1DIM
 10
482.01482325079428
 20
-701.42133035126767
 30
0.0
 11
518.01765997993562
 21
-701.42133035126767
 31
0.0
  0
LINE
  5
2052C
  8
0
 10
745.0162416152026
 20
-655.82137688405999
 30
0.0
 11
739.71624510534093
 21
-654.32137688405987
 31
0.0
  0
LINE
  5
2052D
  8
0
 10
739.71624510534093
 20
-654.32137688405987
 30
0.0
 11
710.01624510544889
 21
-654.32137688406021
 31
0.0
  0
LINE
  5
2052E
  8
0
 10
745.0162416152026
 20
-655.82137688405999
 30
0.0
 11
739.71623812495727
 21
-657.32137688405999
 31
0.0
  0
LINE
  5
2052F
  8
0
 10
710.01624975914717
 20
-652.32133034816218
 30
0.0
 11
710.01623347158272
 21
-659.32133034816195
 31
0.0
  0
LINE
  5
20530
  8
0
 10
739.71623812495727
 20
-657.32137688405999
 30
0.0
 11
710.01623812506432
 21
-657.32137688406021
 31
0.0
  0
LINE
  5
20531
  8
0
 10
710.01624975914717
 20
-652.32133034816218
 30
0.0
 11
708.91624626895168
 21
-652.32133034816195
 31
0.0
  0
ARC
  5
20532
  8
0
 10
708.91624626895168
 20
-653.82133034816195
 30
0.0
 40
1.5
 50
90.0
 51
179.9998666844684
  0
LINE
  5
20533
  8
0
 10
710.01623347158272
 20
-659.32133034816195
 30
0.0
 11
708.91623696177214
 21
-659.32133034816195
 31
0.0
  0
LINE
  5
20534
  8
0
 10
707.41624626895577
 20
-653.82132685796955
 30
0.0
 11
707.41623696177624
 21
-657.82132685796967
 31
0.0
  0
ARC
  5
20535
  8
0
 10
708.91623696177214
 20
-657.82133034816206
 30
0.0
 40
1.5
 50
179.9998666844684
 51
270.0
  0
LINE
  5
20536
  8
1CENTER
 10
746.44703653266799
 20
-655.82133034816195
 30
0.0
 11
706.34596520605612
 21
-655.82133034816195
 31
0.0
  0
LINE
  5
20537
  8
0
 10
742.91624416152479
 20
-654.72700653416689
 30
0.0
 11
743.71623959557564
 21
-656.68934162304242
 31
0.0
  0
LINE
  5
20538
  8
0
 10
743.71623959557564
 20
-656.68934162304242
 30
0.0
 11
744.02800945182776
 21
-656.10106504800001
 31
0.0
  0
LINE
  5
20539
  8
0
 10
720.51624626873468
 20
-653.82137688405987
 30
0.0
 11
721.31623696155305
 21
-657.82137688405987
 31
0.0
  0
LINE
  5
2053A
  8
0
 10
731.71624626873916
 20
-653.82137688405987
 30
0.0
 11
732.51623696156173
 21
-657.82137688405987
 31
0.0
  0
LINE
  5
2053B
  8
0
 10
734.9162462687392
 20
-653.82137688405987
 30
0.0
 11
735.71623696156166
 21
-657.82137688405987
 31
0.0
  0
LINE
  5
2053C
  8
0
 10
735.71623696156166
 20
-657.82137688405987
 30
0.0
 11
735.816238124959
 21
-657.32137688405999
 31
0.0
  0
LINE
  5
2053D
  8
0
 10
736.41624510534189
 20
-654.32137688405987
 30
0.0
 11
736.51624626873922
 21
-653.82137688405987
 31
0.0
  0
LINE
  5
2053E
  8
0
 10
732.51623696156173
 20
-657.82137688405987
 30
0.0
 11
732.61623812495895
 21
-657.32137688405999
 31
0.0
  0
LINE
  5
2053F
  8
0
 10
734.11623696156175
 20
-657.82137688405987
 30
0.0
 11
734.21623812495898
 21
-657.32137688405999
 31
0.0
  0
LINE
  5
20540
  8
0
 10
734.81624510534198
 20
-654.32137688405987
 30
0.0
 11
734.9162462687392
 21
-653.82137688405987
 31
0.0
  0
LINE
  5
20541
  8
0
 10
733.21624510534207
 20
-654.32137688405987
 30
0.0
 11
733.31624626873929
 21
-653.82137688405987
 31
0.0
  0
LINE
  5
20542
  8
0
 10
733.31624626873929
 20
-653.82137688405987
 30
0.0
 11
734.11623696156175
 21
-657.82137688405987
 31
0.0
  0
LINE
  5
20543
  8
0
 10
742.11623854197012
 20
-657.14215572744922
 30
0.0
 11
742.29900268459801
 21
-656.59040626364595
 31
0.0
  0
LINE
  5
20544
  8
0
 10
738.91623696156182
 20
-657.82137688405987
 30
0.0
 11
739.01623812495893
 21
-657.32137688405999
 31
0.0
  0
LINE
  5
20545
  8
0
 10
737.31623696156169
 20
-657.82137688405987
 30
0.0
 11
737.4162381249588
 21
-657.32137688405999
 31
0.0
  0
LINE
  5
20546
  8
0
 10
740.51623748836437
 20
-657.59496983185591
 30
0.0
 11
740.64550818599434
 21
-657.05837609658477
 31
0.0
  0
LINE
  5
20547
  8
0
 10
741.20347570277897
 20
-654.74229148126869
 30
0.0
 11
741.31624521512902
 21
-654.27419302611872
 31
0.0
  0
LINE
  5
20548
  8
0
 10
738.01624510534214
 20
-654.32137688405987
 30
0.0
 11
738.11624626873925
 21
-653.82137688405987
 31
0.0
  0
LINE
  5
20549
  8
0
 10
739.61624510534205
 20
-654.32137688405987
 30
0.0
 11
739.71624626873916
 21
-653.82137688405987
 31
0.0
  0
LINE
  5
2054A
  8
0
 10
742.76480836508438
 20
-655.18417837479797
 30
0.0
 11
742.91624416152479
 21
-654.72700653416689
 31
0.0
  0
LINE
  5
2054B
  8
0
 10
741.31624521512902
 20
-654.27419302611872
 30
0.0
 11
742.11623854197012
 21
-657.14215572744922
 31
0.0
  0
LINE
  5
2054C
  8
0
 10
738.11624626873925
 20
-653.82137688405987
 30
0.0
 11
738.91623696156182
 21
-657.82137688405987
 31
0.0
  0
LINE
  5
2054D
  8
0
 10
739.71624626873916
 20
-653.82137688405987
 30
0.0
 11
740.51623748836437
 21
-657.59496983185591
 31
0.0
  0
LINE
  5
2054E
  8
0
 10
736.51624626873922
 20
-653.82137688405987
 30
0.0
 11
737.31623696156169
 21
-657.82137688405987
 31
0.0
  0
LINE
  5
2054F
  8
0
 10
723.71624626873484
 20
-653.82137688405987
 30
0.0
 11
724.51623696155298
 21
-657.82137688405987
 31
0.0
  0
LINE
  5
20550
  8
0
 10
724.51623696155298
 20
-657.82137688405987
 30
0.0
 11
724.61623812495066
 21
-657.32137688405999
 31
0.0
  0
LINE
  5
20551
  8
0
 10
725.2162451053415
 20
-654.32137688405987
 30
0.0
 11
725.31624626873918
 21
-653.82137688405987
 31
0.0
  0
LINE
  5
20552
  8
0
 10
722.91623696155295
 20
-657.82137688405987
 30
0.0
 11
723.01623812495063
 21
-657.32137688405999
 31
0.0
  0
LINE
  5
20553
  8
0
 10
721.31623696155305
 20
-657.82137688405987
 30
0.0
 11
721.41623812495072
 21
-657.32137688405999
 31
0.0
  0
LINE
  5
20554
  8
0
 10
723.61624510533704
 20
-654.32137688405987
 30
0.0
 11
723.71624626873484
 21
-653.82137688405987
 31
0.0
  0
LINE
  5
20555
  8
0
 10
722.01624510533691
 20
-654.32137688405987
 30
0.0
 11
722.11624626873459
 21
-653.82137688405987
 31
0.0
  0
LINE
  5
20556
  8
0
 10
722.11624626873459
 20
-653.82137688405987
 30
0.0
 11
722.91623696155295
 21
-657.82137688405987
 31
0.0
  0
LINE
  5
20557
  8
0
 10
729.31623696155748
 20
-657.82137688405987
 30
0.0
 11
729.41623812495504
 21
-657.32137688405999
 31
0.0
  0
LINE
  5
20558
  8
0
 10
730.91623696156182
 20
-657.82137688405987
 30
0.0
 11
731.01623812495893
 21
-657.32137688405999
 31
0.0
  0
LINE
  5
20559
  8
0
 10
726.11623696155743
 20
-657.82137688405987
 30
0.0
 11
726.21623812495511
 21
-657.32137688405999
 31
0.0
  0
LINE
  5
2055A
  8
0
 10
727.71623696155734
 20
-657.82137688405987
 30
0.0
 11
727.81623812495502
 21
-657.32137688405999
 31
0.0
  0
LINE
  5
2055B
  8
0
 10
731.61624510534205
 20
-654.32137688405987
 30
0.0
 11
731.71624626873916
 21
-653.82137688405987
 31
0.0
  0
LINE
  5
2055C
  8
0
 10
730.01624510534145
 20
-654.32137688405987
 30
0.0
 11
730.11624626873925
 21
-653.82137688405987
 31
0.0
  0
LINE
  5
2055D
  8
0
 10
726.81624510534141
 20
-654.32137688405987
 30
0.0
 11
726.91624626873909
 21
-653.82137688405987
 31
0.0
  0
LINE
  5
2055E
  8
0
 10
728.41624510534155
 20
-654.32137688405987
 30
0.0
 11
728.51624626873922
 21
-653.82137688405987
 31
0.0
  0
LINE
  5
2055F
  8
0
 10
728.51624626873922
 20
-653.82137688405987
 30
0.0
 11
729.31623696155748
 21
-657.82137688405987
 31
0.0
  0
LINE
  5
20560
  8
0
 10
730.11624626873925
 20
-653.82137688405987
 30
0.0
 11
730.91623696156182
 21
-657.82137688405987
 31
0.0
  0
LINE
  5
20561
  8
0
 10
726.91624626873909
 20
-653.82137688405987
 30
0.0
 11
727.71623696155734
 21
-657.82137688405987
 31
0.0
  0
LINE
  5
20562
  8
0
 10
725.31624626873918
 20
-653.82137688405987
 30
0.0
 11
726.11623696155743
 21
-657.82137688405987
 31
0.0
  0
LINE
  5
20563
  8
0
 10
715.61624510533295
 20
-654.32137688405987
 30
0.0
 11
715.71624626873063
 21
-653.82137688405987
 31
0.0
  0
LINE
  5
20564
  8
0
 10
715.71624626873063
 20
-653.82137688405987
 30
0.0
 11
716.51623696154877
 21
-657.82137688405987
 31
0.0
  0
LINE
  5
20565
  8
0
 10
716.51623696154877
 20
-657.82137688405987
 30
0.0
 11
716.61623812494645
 21
-657.32137688405999
 31
0.0
  0
LINE
  5
20566
  8
0
 10
717.21624510533286
 20
-654.32137688405987
 30
0.0
 11
717.31624626873054
 21
-653.82137688405987
 31
0.0
  0
LINE
  5
20567
  8
0
 10
718.81624510533277
 20
-654.32137688405987
 30
0.0
 11
718.91624626873045
 21
-653.82137688405987
 31
0.0
  0
LINE
  5
20568
  8
0
 10
718.91624626873045
 20
-653.82137688405987
 30
0.0
 11
719.7162369615487
 21
-657.82137688405987
 31
0.0
  0
LINE
  5
20569
  8
0
 10
718.11623696154879
 20
-657.82137688405987
 30
0.0
 11
718.21623812494636
 21
-657.32137688405999
 31
0.0
  0
LINE
  5
2056A
  8
0
 10
719.7162369615487
 20
-657.82137688405987
 30
0.0
 11
719.81623812494627
 21
-657.32137688405999
 31
0.0
  0
LINE
  5
2056B
  8
0
 10
717.31624626873054
 20
-653.82137688405987
 30
0.0
 11
718.11623696154879
 21
-657.82137688405987
 31
0.0
  0
LINE
  5
2056C
  8
0
 10
720.416245105337
 20
-654.32137688405987
 30
0.0
 11
720.51624626873468
 21
-653.82137688405987
 31
0.0
  0
LINE
  5
2056D
  8
0
 10
714.01624510533304
 20
-654.32137688405987
 30
0.0
 11
714.11624626873072
 21
-653.82137688405987
 31
0.0
  0
LINE
  5
2056E
  8
0
 10
714.11624626873072
 20
-653.82137688405987
 30
0.0
 11
714.91623696154886
 21
-657.82137688405987
 31
0.0
  0
LINE
  5
2056F
  8
0
 10
714.91623696154886
 20
-657.82137688405987
 30
0.0
 11
715.01623812494665
 21
-657.32137688405999
 31
0.0
  0
LINE
  5
20570
  8
0
 10
712.41624510533313
 20
-654.32137688405987
 30
0.0
 11
712.51624626873081
 21
-653.82137688405987
 31
0.0
  0
LINE
  5
20571
  8
0
 10
712.51624626873081
 20
-653.82137688405987
 30
0.0
 11
713.31623696154895
 21
-657.82137688405987
 31
0.0
  0
LINE
  5
20572
  8
0
 10
713.31623696154895
 20
-657.82137688405987
 30
0.0
 11
713.41623812494674
 21
-657.32137688405999
 31
0.0
  0
LINE
  5
20573
  8
0
 10
710.81624510533322
 20
-654.32137688405987
 30
0.0
 11
710.9162462687309
 21
-653.82137688405987
 31
0.0
  0
LINE
  5
20574
  8
0
 10
710.9162462687309
 20
-653.82137688405987
 30
0.0
 11
711.71623696154904
 21
-657.82137688405987
 31
0.0
  0
LINE
  5
20575
  8
0
 10
711.71623696154904
 20
-657.82137688405987
 30
0.0
 11
711.81623812494684
 21
-657.32137688405999
 31
0.0
  0
LINE
  5
20576
  8
0
 10
480.0148697866922
 20
-503.82133035142868
 30
0.0
 11
478.51486978669209
 21
-509.12132686129041
 31
0.0
  0
LINE
  5
20577
  8
0
 10
478.51486978669209
 20
-509.12132686129041
 30
0.0
 11
478.51486978669237
 21
-538.82132686118234
 31
0.0
  0
LINE
  5
20578
  8
0
 10
480.0148697866922
 20
-503.82133035142868
 30
0.0
 11
481.51486978669232
 21
-509.12133384167402
 31
0.0
  0
LINE
  5
20579
  8
0
 10
476.51482325079439
 20
-538.82132220748406
 30
0.0
 11
483.51482325079422
 21
-538.82133849504862
 31
0.0
  0
LINE
  5
2057A
  8
0
 10
481.51486978669232
 20
-509.12133384167402
 30
0.0
 11
481.51486978669237
 21
-538.82133384156703
 31
0.0
  0
LINE
  5
2057B
  8
0
 10
476.51482325079439
 20
-538.82132220748406
 30
0.0
 11
476.51482325079422
 21
-539.92132569767955
 31
0.0
  0
ARC
  5
2057C
  8
0
 10
478.01482325079428
 20
-539.92132569767955
 30
0.0
 40
1.5
 50
180.0
 51
269.99986668446837
  0
LINE
  5
2057D
  8
0
 10
483.51482325079422
 20
-538.82133849504862
 30
0.0
 11
483.51482325079422
 21
-539.9213350048592
 31
0.0
  0
LINE
  5
2057E
  8
0
 10
478.01481976060188
 20
-541.42132569767546
 30
0.0
 11
482.01481976060188
 21
-541.42133500485511
 31
0.0
  0
ARC
  5
2057F
  8
0
 10
482.01482325079428
 20
-539.9213350048592
 30
0.0
 40
1.5
 50
269.99986668446837
 51
0.0
  0
LINE
  5
20580
  8
1CENTER
 10
480.01482325079422
 20
-502.39053543396329
 30
0.0
 11
480.01482325079422
 21
-542.49160676057522
 31
0.0
  0
LINE
  5
20581
  8
0
 10
478.92049943679922
 20
-505.9213278051065
 30
0.0
 11
480.88283452567458
 21
-505.12133237105547
 31
0.0
  0
LINE
  5
20582
  8
0
 10
480.88283452567458
 20
-505.12133237105547
 30
0.0
 11
480.29455795063222
 21
-504.80956251480342
 31
0.0
  0
LINE
  5
20583
  8
0
 10
478.0148697866922
 20
-528.32132569789655
 30
0.0
 11
482.0148697866922
 21
-527.52133500507819
 31
0.0
  0
LINE
  5
20584
  8
0
 10
478.0148697866922
 20
-517.12132569789219
 30
0.0
 11
482.0148697866922
 21
-516.3213350050695
 31
0.0
  0
LINE
  5
20585
  8
0
 10
478.0148697866922
 20
-513.92132569789214
 30
0.0
 11
482.0148697866922
 21
-513.12133500506945
 31
0.0
  0
LINE
  5
20586
  8
0
 10
482.0148697866922
 20
-513.12133500506945
 30
0.0
 11
481.5148697866922
 21
-513.02133384167234
 31
0.0
  0
LINE
  5
20587
  8
0
 10
478.51486978669209
 20
-512.42132686128934
 30
0.0
 11
478.0148697866922
 21
-512.32132569789212
 31
0.0
  0
LINE
  5
20588
  8
0
 10
482.0148697866922
 20
-516.3213350050695
 30
0.0
 11
481.5148697866922
 21
-516.22133384167239
 31
0.0
  0
LINE
  5
20589
  8
0
 10
482.0148697866922
 20
-514.72133500506936
 30
0.0
 11
481.5148697866922
 21
-514.62133384167225
 31
0.0
  0
LINE
  5
2058A
  8
0
 10
478.51486978669209
 20
-514.02132686128925
 30
0.0
 11
478.0148697866922
 21
-513.92132569789214
 31
0.0
  0
LINE
  5
2058B
  8
0
 10
478.51486978669209
 20
-515.62132686128916
 30
0.0
 11
478.0148697866922
 21
-515.52132569789205
 31
0.0
  0
LINE
  5
2058C
  8
0
 10
478.0148697866922
 20
-515.52132569789205
 30
0.0
 11
482.0148697866922
 21
-514.72133500506936
 31
0.0
  0
LINE
  5
2058D
  8
0
 10
481.33564863008138
 20
-506.72133342466122
 30
0.0
 11
480.7838991662781
 21
-506.53856928203322
 31
0.0
  0
LINE
  5
2058E
  8
0
 10
482.0148697866922
 20
-509.92133500506952
 30
0.0
 11
481.5148697866922
 21
-509.82133384167241
 31
0.0
  0
LINE
  5
2058F
  8
0
 10
482.0148697866922
 20
-511.52133500506949
 30
0.0
 11
481.5148697866922
 21
-511.42133384167249
 31
0.0
  0
LINE
  5
20590
  8
0
 10
481.78846273448818
 20
-508.32133447826681
 30
0.0
 11
481.25186899921698
 21
-508.19206378063689
 31
0.0
  0
LINE
  5
20591
  8
0
 10
478.93578438390091
 20
-507.63409626385231
 30
0.0
 11
478.46768592875088
 21
-507.52132675150227
 31
0.0
  0
LINE
  5
20592
  8
0
 10
478.51486978669209
 20
-510.82132686128921
 30
0.0
 11
478.0148697866922
 21
-510.7213256978921
 31
0.0
  0
LINE
  5
20593
  8
0
 10
478.51486978669209
 20
-509.22132686128919
 30
0.0
 11
478.0148697866922
 21
-509.12132569789219
 31
0.0
  0
LINE
  5
20594
  8
0
 10
479.37767127743018
 20
-506.07276360154691
 30
0.0
 11
478.92049943679922
 21
-505.9213278051065
 31
0.0
  0
LINE
  5
20595
  8
0
 10
478.46768592875088
 20
-507.52132675150227
 30
0.0
 11
481.33564863008138
 21
-506.72133342466122
 31
0.0
  0
LINE
  5
20596
  8
0
 10
478.0148697866922
 20
-510.7213256978921
 30
0.0
 11
482.0148697866922
 21
-509.92133500506952
 31
0.0
  0
LINE
  5
20597
  8
0
 10
478.0148697866922
 20
-509.12132569789219
 30
0.0
 11
481.78846273448818
 21
-508.32133447826681
 31
0.0
  0
LINE
  5
20598
  8
0
 10
478.0148697866922
 20
-512.32132569789212
 30
0.0
 11
482.0148697866922
 21
-511.52133500506949
 31
0.0
  0
LINE
  5
20599
  8
0
 10
478.0148697866922
 20
-525.12132569789651
 30
0.0
 11
482.0148697866922
 21
-524.32133500507825
 31
0.0
  0
LINE
  5
2059A
  8
0
 10
482.0148697866922
 20
-524.32133500507825
 30
0.0
 11
481.5148697866922
 21
-524.22133384168058
 31
0.0
  0
LINE
  5
2059B
  8
0
 10
478.51486978669209
 20
-523.62132686128984
 30
0.0
 11
478.0148697866922
 21
-523.52132569789205
 31
0.0
  0
LINE
  5
2059C
  8
0
 10
482.0148697866922
 20
-525.92133500507828
 30
0.0
 11
481.5148697866922
 21
-525.82133384168071
 31
0.0
  0
LINE
  5
2059D
  8
0
 10
482.0148697866922
 20
-527.52133500507819
 30
0.0
 11
481.5148697866922
 21
-527.42133384168062
 31
0.0
  0
LINE
  5
2059E
  8
0
 10
478.51486978669209
 20
-525.22132686129407
 30
0.0
 11
478.0148697866922
 21
-525.12132569789651
 31
0.0
  0
LINE
  5
2059F
  8
0
 10
478.51486978669209
 20
-526.82132686129432
 30
0.0
 11
478.0148697866922
 21
-526.72132569789665
 31
0.0
  0
LINE
  5
205A0
  8
0
 10
478.0148697866922
 20
-526.72132569789665
 30
0.0
 11
482.0148697866922
 21
-525.92133500507828
 31
0.0
  0
LINE
  5
205A1
  8
0
 10
482.0148697866922
 20
-519.52133500507375
 30
0.0
 11
481.5148697866922
 21
-519.42133384167607
 31
0.0
  0
LINE
  5
205A2
  8
0
 10
482.0148697866922
 20
-517.92133500506941
 30
0.0
 11
481.5148697866922
 21
-517.82133384167241
 31
0.0
  0
LINE
  5
205A3
  8
0
 10
482.0148697866922
 20
-522.72133500507391
 30
0.0
 11
481.5148697866922
 21
-522.62133384167623
 31
0.0
  0
LINE
  5
205A4
  8
0
 10
482.0148697866922
 20
-521.121335005074
 30
0.0
 11
481.5148697866922
 21
-521.02133384167632
 31
0.0
  0
LINE
  5
205A5
  8
0
 10
478.51486978669209
 20
-517.22132686128919
 30
0.0
 11
478.0148697866922
 21
-517.12132569789219
 31
0.0
  0
LINE
  5
205A6
  8
0
 10
478.51486978669209
 20
-518.82132686128989
 30
0.0
 11
478.0148697866922
 21
-518.72132569789198
 31
0.0
  0
LINE
  5
205A7
  8
0
 10
478.51486978669209
 20
-522.02132686128994
 30
0.0
 11
478.0148697866922
 21
-521.92132569789214
 31
0.0
  0
LINE
  5
205A8
  8
0
 10
478.51486978669209
 20
-520.4213268612898
 30
0.0
 11
478.0148697866922
 21
-520.32132569789212
 31
0.0
  0
LINE
  5
205A9
  8
0
 10
478.0148697866922
 20
-520.32132569789212
 30
0.0
 11
482.0148697866922
 21
-519.52133500507375
 31
0.0
  0
LINE
  5
205AA
  8
0
 10
478.0148697866922
 20
-518.72132569789198
 30
0.0
 11
482.0148697866922
 21
-517.92133500506941
 31
0.0
  0
LINE
  5
205AB
  8
0
 10
478.0148697866922
 20
-521.92132569789214
 30
0.0
 11
482.0148697866922
 21
-521.121335005074
 31
0.0
  0
LINE
  5
205AC
  8
0
 10
478.0148697866922
 20
-523.52132569789205
 30
0.0
 11
482.0148697866922
 21
-522.72133500507391
 31
0.0
  0
LINE
  5
205AD
  8
0
 10
478.51486978669209
 20
-533.22132686129828
 30
0.0
 11
478.0148697866922
 21
-533.1213256979006
 31
0.0
  0
LINE
  5
205AE
  8
0
 10
478.0148697866922
 20
-533.1213256979006
 30
0.0
 11
482.0148697866922
 21
-532.32133500508235
 31
0.0
  0
LINE
  5
205AF
  8
0
 10
482.0148697866922
 20
-532.32133500508235
 30
0.0
 11
481.5148697866922
 21
-532.22133384168467
 31
0.0
  0
LINE
  5
205B0
  8
0
 10
478.51486978669209
 20
-531.62132686129837
 30
0.0
 11
478.0148697866922
 21
-531.52132569790069
 31
0.0
  0
LINE
  5
205B1
  8
0
 10
478.51486978669209
 20
-530.02132686129846
 30
0.0
 11
478.0148697866922
 21
-529.92132569790078
 31
0.0
  0
LINE
  5
205B2
  8
0
 10
478.0148697866922
 20
-529.92132569790078
 30
0.0
 11
482.0148697866922
 21
-529.12133500508264
 31
0.0
  0
LINE
  5
205B3
  8
0
 10
482.0148697866922
 20
-530.72133500508255
 30
0.0
 11
481.5148697866922
 21
-530.62133384168476
 31
0.0
  0
LINE
  5
205B4
  8
0
 10
482.0148697866922
 20
-529.12133500508264
 30
0.0
 11
481.5148697866922
 21
-529.02133384168485
 31
0.0
  0
LINE
  5
205B5
  8
0
 10
478.0148697866922
 20
-531.52132569790069
 30
0.0
 11
482.0148697866922
 21
-530.72133500508255
 31
0.0
  0
LINE
  5
205B6
  8
0
 10
478.51486978669209
 20
-528.42132686129423
 30
0.0
 11
478.0148697866922
 21
-528.32132569789655
 31
0.0
  0
LINE
  5
205B7
  8
0
 10
478.51486978669209
 20
-534.82132686129819
 30
0.0
 11
478.0148697866922
 21
-534.72132569790062
 31
0.0
  0
LINE
  5
205B8
  8
0
 10
478.0148697866922
 20
-534.72132569790062
 30
0.0
 11
482.0148697866922
 21
-533.92133500508226
 31
0.0
  0
LINE
  5
205B9
  8
0
 10
482.0148697866922
 20
-533.92133500508226
 30
0.0
 11
481.5148697866922
 21
-533.82133384168469
 31
0.0
  0
LINE
  5
205BA
  8
0
 10
478.51486978669209
 20
-536.4213268612981
 30
0.0
 11
478.0148697866922
 21
-536.32132569790053
 31
0.0
  0
LINE
  5
205BB
  8
0
 10
478.0148697866922
 20
-536.32132569790053
 30
0.0
 11
482.0148697866922
 21
-535.52133500508216
 31
0.0
  0
LINE
  5
205BC
  8
0
 10
482.0148697866922
 20
-535.52133500508216
 30
0.0
 11
481.5148697866922
 21
-535.4213338416846
 31
0.0
  0
LINE
  5
205BD
  8
0
 10
478.51486978669209
 20
-538.02132686129812
 30
0.0
 11
478.0148697866922
 21
-537.92132569790044
 31
0.0
  0
LINE
  5
205BE
  8
0
 10
478.0148697866922
 20
-537.92132569790044
 30
0.0
 11
482.0148697866922
 21
-537.12133500508219
 31
0.0
  0
LINE
  5
205BF
  8
0
 10
482.0148697866922
 20
-537.12133500508219
 30
0.0
 11
481.5148697866922
 21
-537.02133384168451
 31
0.0
  0
LINE
  5
205C0
  8
0
 10
520.01770651583354
 20
-503.82133035142868
 30
0.0
 11
518.51770651583354
 21
-509.12132686129041
 31
0.0
  0
LINE
  5
205C1
  8
0
 10
518.51770651583354
 20
-509.12132686129041
 30
0.0
 11
518.51770651583365
 21
-538.82132686118234
 31
0.0
  0
LINE
  5
205C2
  8
0
 10
520.01770651583354
 20
-503.82133035142868
 30
0.0
 11
521.51770651583365
 21
-509.12133384167402
 31
0.0
  0
LINE
  5
205C3
  8
0
 10
516.51765997993573
 20
-538.82132220748406
 30
0.0
 11
523.51765997993562
 21
-538.82133849504862
 31
0.0
  0
LINE
  5
205C4
  8
0
 10
521.51770651583365
 20
-509.12133384167402
 30
0.0
 11
521.51770651583377
 21
-538.82133384156703
 31
0.0
  0
LINE
  5
205C5
  8
0
 10
516.51765997993573
 20
-538.82132220748406
 30
0.0
 11
516.51765997993562
 21
-539.92132569767955
 31
0.0
  0
ARC
  5
205C6
  8
0
 10
518.01765997993562
 20
-539.92132569767955
 30
0.0
 40
1.5
 50
180.0
 51
269.99986668446837
  0
LINE
  5
205C7
  8
0
 10
523.51765997993562
 20
-538.82133849504862
 30
0.0
 11
523.51765997993562
 21
-539.9213350048592
 31
0.0
  0
LINE
  5
205C8
  8
0
 10
518.01765648974322
 20
-541.42132569767546
 30
0.0
 11
522.01765648974322
 21
-541.42133500485511
 31
0.0
  0
ARC
  5
205C9
  8
0
 10
522.01765997993562
 20
-539.9213350048592
 30
0.0
 40
1.5
 50
269.99986668446837
 51
0.0
  0
LINE
  5
205CA
  8
1CENTER
 10
520.0176599799355
 20
-502.39053543396329
 30
0.0
 11
520.0176599799355
 21
-542.49160676057522
 31
0.0
  0
LINE
  5
205CB
  8
0
 10
518.92333616594055
 20
-505.9213278051065
 30
0.0
 11
520.88567125481586
 21
-505.12133237105547
 31
0.0
  0
LINE
  5
205CC
  8
0
 10
520.88567125481586
 20
-505.12133237105547
 30
0.0
 11
520.29739467977345
 21
-504.80956251480342
 31
0.0
  0
LINE
  5
205CD
  8
0
 10
518.01770651583354
 20
-528.32132569789655
 30
0.0
 11
522.01770651583354
 21
-527.52133500507819
 31
0.0
  0
LINE
  5
205CE
  8
0
 10
518.01770651583354
 20
-517.12132569789219
 30
0.0
 11
522.01770651583354
 21
-516.3213350050695
 31
0.0
  0
LINE
  5
205CF
  8
0
 10
518.01770651583354
 20
-513.92132569789214
 30
0.0
 11
522.01770651583354
 21
-513.12133500506945
 31
0.0
  0
LINE
  5
205D0
  8
0
 10
522.01770651583354
 20
-513.12133500506945
 30
0.0
 11
521.51770651583354
 21
-513.02133384167234
 31
0.0
  0
LINE
  5
205D1
  8
0
 10
518.51770651583354
 20
-512.42132686128934
 30
0.0
 11
518.01770651583354
 21
-512.32132569789212
 31
0.0
  0
LINE
  5
205D2
  8
0
 10
522.01770651583354
 20
-516.3213350050695
 30
0.0
 11
521.51770651583354
 21
-516.22133384167239
 31
0.0
  0
LINE
  5
205D3
  8
0
 10
522.01770651583354
 20
-514.72133500506936
 30
0.0
 11
521.51770651583354
 21
-514.62133384167225
 31
0.0
  0
LINE
  5
205D4
  8
0
 10
518.51770651583354
 20
-514.02132686128925
 30
0.0
 11
518.01770651583354
 21
-513.92132569789214
 31
0.0
  0
LINE
  5
205D5
  8
0
 10
518.51770651583354
 20
-515.62132686128916
 30
0.0
 11
518.01770651583354
 21
-515.52132569789205
 31
0.0
  0
LINE
  5
205D6
  8
0
 10
518.01770651583354
 20
-515.52132569789205
 30
0.0
 11
522.01770651583354
 21
-514.72133500506936
 31
0.0
  0
LINE
  5
205D7
  8
0
 10
521.33848535922266
 20
-506.72133342466122
 30
0.0
 11
520.7867358954195
 21
-506.53856928203322
 31
0.0
  0
LINE
  5
205D8
  8
0
 10
522.01770651583354
 20
-509.92133500506952
 30
0.0
 11
521.51770651583354
 21
-509.82133384167241
 31
0.0
  0
LINE
  5
205D9
  8
0
 10
522.01770651583354
 20
-511.52133500506949
 30
0.0
 11
521.51770651583354
 21
-511.42133384167249
 31
0.0
  0
LINE
  5
205DA
  8
0
 10
521.79129946362957
 20
-508.32133447826681
 30
0.0
 11
521.25470572835843
 21
-508.19206378063689
 31
0.0
  0
LINE
  5
205DB
  8
0
 10
518.93862111304225
 20
-507.63409626385231
 30
0.0
 11
518.47052265789216
 21
-507.52132675150227
 31
0.0
  0
LINE
  5
205DC
  8
0
 10
518.51770651583354
 20
-510.82132686128921
 30
0.0
 11
518.01770651583354
 21
-510.7213256978921
 31
0.0
  0
LINE
  5
205DD
  8
0
 10
518.51770651583354
 20
-509.22132686128919
 30
0.0
 11
518.01770651583354
 21
-509.12132569789219
 31
0.0
  0
LINE
  5
205DE
  8
0
 10
519.38050800657163
 20
-506.07276360154691
 30
0.0
 11
518.92333616594055
 21
-505.9213278051065
 31
0.0
  0
LINE
  5
205DF
  8
0
 10
518.47052265789216
 20
-507.52132675150227
 30
0.0
 11
521.33848535922266
 21
-506.72133342466122
 31
0.0
  0
LINE
  5
205E0
  8
0
 10
518.01770651583354
 20
-510.7213256978921
 30
0.0
 11
522.01770651583354
 21
-509.92133500506952
 31
0.0
  0
LINE
  5
205E1
  8
0
 10
518.01770651583354
 20
-509.12132569789219
 30
0.0
 11
521.79129946362957
 21
-508.32133447826681
 31
0.0
  0
LINE
  5
205E2
  8
0
 10
518.01770651583354
 20
-512.32132569789212
 30
0.0
 11
522.01770651583354
 21
-511.52133500506949
 31
0.0
  0
LINE
  5
205E3
  8
0
 10
518.01770651583354
 20
-525.12132569789651
 30
0.0
 11
522.01770651583354
 21
-524.32133500507825
 31
0.0
  0
LINE
  5
205E4
  8
0
 10
522.01770651583354
 20
-524.32133500507825
 30
0.0
 11
521.51770651583354
 21
-524.22133384168058
 31
0.0
  0
LINE
  5
205E5
  8
0
 10
518.51770651583354
 20
-523.62132686128984
 30
0.0
 11
518.01770651583354
 21
-523.52132569789205
 31
0.0
  0
LINE
  5
205E6
  8
0
 10
522.01770651583354
 20
-525.92133500507828
 30
0.0
 11
521.51770651583354
 21
-525.82133384168071
 31
0.0
  0
LINE
  5
205E7
  8
0
 10
522.01770651583354
 20
-527.52133500507819
 30
0.0
 11
521.51770651583354
 21
-527.42133384168062
 31
0.0
  0
LINE
  5
205E8
  8
0
 10
518.51770651583354
 20
-525.22132686129407
 30
0.0
 11
518.01770651583354
 21
-525.12132569789651
 31
0.0
  0
LINE
  5
205E9
  8
0
 10
518.51770651583354
 20
-526.82132686129432
 30
0.0
 11
518.01770651583354
 21
-526.72132569789665
 31
0.0
  0
LINE
  5
205EA
  8
0
 10
518.01770651583354
 20
-526.72132569789665
 30
0.0
 11
522.01770651583354
 21
-525.92133500507828
 31
0.0
  0
LINE
  5
205EB
  8
0
 10
522.01770651583354
 20
-519.52133500507375
 30
0.0
 11
521.51770651583354
 21
-519.42133384167607
 31
0.0
  0
LINE
  5
205EC
  8
0
 10
522.01770651583354
 20
-517.92133500506941
 30
0.0
 11
521.51770651583354
 21
-517.82133384167241
 31
0.0
  0
LINE
  5
205ED
  8
0
 10
522.01770651583354
 20
-522.72133500507391
 30
0.0
 11
521.51770651583354
 21
-522.62133384167623
 31
0.0
  0
LINE
  5
205EE
  8
0
 10
522.01770651583354
 20
-521.121335005074
 30
0.0
 11
521.51770651583354
 21
-521.02133384167632
 31
0.0
  0
LINE
  5
205EF
  8
0
 10
518.51770651583354
 20
-517.22132686128919
 30
0.0
 11
518.01770651583354
 21
-517.12132569789219
 31
0.0
  0
LINE
  5
205F0
  8
0
 10
518.51770651583354
 20
-518.82132686128989
 30
0.0
 11
518.01770651583354
 21
-518.72132569789198
 31
0.0
  0
LINE
  5
205F1
  8
0
 10
518.51770651583354
 20
-522.02132686128994
 30
0.0
 11
518.01770651583354
 21
-521.92132569789214
 31
0.0
  0
LINE
  5
205F2
  8
0
 10
518.51770651583354
 20
-520.4213268612898
 30
0.0
 11
518.01770651583354
 21
-520.32132569789212
 31
0.0
  0
LINE
  5
205F3
  8
0
 10
518.01770651583354
 20
-520.32132569789212
 30
0.0
 11
522.01770651583354
 21
-519.52133500507375
 31
0.0
  0
LINE
  5
205F4
  8
0
 10
518.01770651583354
 20
-518.72132569789198
 30
0.0
 11
522.01770651583354
 21
-517.92133500506941
 31
0.0
  0
LINE
  5
205F5
  8
0
 10
518.01770651583354
 20
-521.92132569789214
 30
0.0
 11
522.01770651583354
 21
-521.121335005074
 31
0.0
  0
LINE
  5
205F6
  8
0
 10
518.01770651583354
 20
-523.52132569789205
 30
0.0
 11
522.01770651583354
 21
-522.72133500507391
 31
0.0
  0
LINE
  5
205F7
  8
0
 10
518.51770651583354
 20
-533.22132686129828
 30
0.0
 11
518.01770651583354
 21
-533.1213256979006
 31
0.0
  0
LINE
  5
205F8
  8
0
 10
518.01770651583354
 20
-533.1213256979006
 30
0.0
 11
522.01770651583354
 21
-532.32133500508235
 31
0.0
  0
LINE
  5
205F9
  8
0
 10
522.01770651583354
 20
-532.32133500508235
 30
0.0
 11
521.51770651583354
 21
-532.22133384168467
 31
0.0
  0
LINE
  5
205FA
  8
0
 10
518.51770651583354
 20
-531.62132686129837
 30
0.0
 11
518.01770651583354
 21
-531.52132569790069
 31
0.0
  0
LINE
  5
205FB
  8
0
 10
518.51770651583354
 20
-530.02132686129846
 30
0.0
 11
518.01770651583354
 21
-529.92132569790078
 31
0.0
  0
LINE
  5
205FC
  8
0
 10
518.01770651583354
 20
-529.92132569790078
 30
0.0
 11
522.01770651583354
 21
-529.12133500508264
 31
0.0
  0
LINE
  5
205FD
  8
0
 10
522.01770651583354
 20
-530.72133500508255
 30
0.0
 11
521.51770651583354
 21
-530.62133384168476
 31
0.0
  0
LINE
  5
205FE
  8
0
 10
522.01770651583354
 20
-529.12133500508264
 30
0.0
 11
521.51770651583354
 21
-529.02133384168485
 31
0.0
  0
LINE
  5
205FF
  8
0
 10
518.01770651583354
 20
-531.52132569790069
 30
0.0
 11
522.01770651583354
 21
-530.72133500508255
 31
0.0
  0
LINE
  5
20600
  8
0
 10
518.51770651583354
 20
-528.42132686129423
 30
0.0
 11
518.01770651583354
 21
-528.32132569789655
 31
0.0
  0
LINE
  5
20601
  8
0
 10
518.51770651583354
 20
-534.82132686129819
 30
0.0
 11
518.01770651583354
 21
-534.72132569790062
 31
0.0
  0
LINE
  5
20602
  8
0
 10
518.01770651583354
 20
-534.72132569790062
 30
0.0
 11
522.01770651583354
 21
-533.92133500508226
 31
0.0
  0
LINE
  5
20603
  8
0
 10
522.01770651583354
 20
-533.92133500508226
 30
0.0
 11
521.51770651583354
 21
-533.82133384168469
 31
0.0
  0
LINE
  5
20604
  8
0
 10
518.51770651583354
 20
-536.4213268612981
 30
0.0
 11
518.01770651583354
 21
-536.32132569790053
 31
0.0
  0
LINE
  5
20605
  8
0
 10
518.01770651583354
 20
-536.32132569790053
 30
0.0
 11
522.01770651583354
 21
-535.52133500508216
 31
0.0
  0
LINE
  5
20606
  8
0
 10
522.01770651583354
 20
-535.52133500508216
 30
0.0
 11
521.51770651583354
 21
-535.4213338416846
 31
0.0
  0
LINE
  5
20607
  8
0
 10
518.51770651583354
 20
-538.02132686129812
 30
0.0
 11
518.01770651583354
 21
-537.92132569790044
 31
0.0
  0
LINE
  5
20608
  8
0
 10
518.01770651583354
 20
-537.92132569790044
 30
0.0
 11
522.01770651583354
 21
-537.12133500508219
 31
0.0
  0
LINE
  5
20609
  8
0
 10
522.01770651583354
 20
-537.12133500508219
 30
0.0
 11
521.51770651583354
 21
-537.02133384168451
 31
0.0
  0
LINE
  5
2060B
  8
1HATCH
 10
701.66647429464626
 20
-664.82134105526495
 30
0.0
 11
701.66626627907317
 21
-670.17135280471564
 31
0.0
  0
LINE
  5
2060C
  8
1HATCH
 10
698.3664742947027
 20
-664.8213196487518
 30
0.0
 11
698.36626627944986
 21
-670.17129696153631
 31
0.0
  0
LINE
  5
2060D
  8
1HATCH
 10
702.01647162511688
 20
-665.17134431276747
 30
0.0
 11
698.01647162520408
 21
-665.17131639122886
 31
0.0
  0
LINE
  5
2060E
  8
0
 10
704.0162444072522
 20
-672.52135827263896
 30
0.0
 11
696.01624440742535
 21
-672.52130242956162
 31
0.0
  0
LINE
  5
2060F
  8
1HATCH
 10
701.66626627907317
 20
-670.17135280471564
 30
0.0
 11
702.01626302156785
 21
-670.52135361908734
 31
0.0
  0
LINE
  5
20610
  8
1HATCH
 10
698.36626627944986
 20
-670.17129696153631
 30
0.0
 11
698.01626302191448
 21
-670.52129777592302
 31
0.0
  0
LINE
  5
20611
  8
1CENTER
 10
700.01649255056918
 20
-662.85984519264593
 30
0.0
 11
700.01622356157156
 21
-674.76108159452485
 31
0.0
  0
SOLID
  5
20612
  8
1DIM
 10
729.80626606493036
 20
-624.93542921383153
 30
0.0
 11
729.06533133823746
 21
-626.8227889680627
 31
0.0
 12
729.15409886211535
 22
-624.79714550540302
 32
0.0
 13
729.15409886211535
 23
-624.79714550540302
 33
0.0
1001
ACAD
1000
DSTYLE
1002
{
1070
    45
1040
0.5
1002
}
  0
SOLID
  5
20614
  8
1DIM
 10
716.67084791976515
 20
-624.93542921383153
 30
0.0
 11
715.92991319307225
 21
-626.8227889680627
 31
0.0
 12
716.01868071695014
 22
-624.79714550540302
 32
0.0
 13
716.01868071695014
 23
-624.79714550540302
 33
0.0
1001
ACAD
1000
DSTYLE
1002
{
1070
    45
1040
0.5
1002
}
  0
LINE
  5
20616
  8
1DIM
 10
526.51624161536495
 20
-535.8213303512664
 30
0.0
 11
526.51624161536495
 21
-519.82133035126628
 31
0.0
  0
LINE
  5
20617
  8
1DIM
 10
473.51624161536489
 20
-535.8213303512664
 30
0.0
 11
473.51624161536489
 21
-519.82133035126628
 31
0.0
  0
LINE
  5
20618
  8
1DIM
 10
524.51624161536495
 20
-520.82133035126628
 30
0.0
 11
475.51624161536489
 21
-520.82133035126628
 31
0.0
  0
LINE
  5
2061C
  8
1DIM
 10
712.01624161536495
 20
-672.8213303512681
 30
0.0
 11
765.51624161536495
 21
-672.8213303512681
 31
0.0
  0
LINE
  5
2061D
  8
1DIM
 10
712.01624161536495
 20
-635.8213303512664
 30
0.0
 11
765.51624161536495
 21
-635.8213303512664
 31
0.0
  0
LINE
  5
2061E
  8
1DIM
 10
764.51624161536495
 20
-670.82133035126822
 30
0.0
 11
764.51624161536495
 21
-637.8213303512664
 31
0.0
  0
LINE
  5
20622
  8
1DIM
 10
746.44703653266799
 20
-655.82133034816195
 30
0.0
 11
755.51624161536495
 21
-655.82133034816195
 31
0.0
  0
LINE
  5
20623
  8
1DIM
 10
712.01624161536495
 20
-635.8213303512664
 30
0.0
 11
755.51624161536495
 21
-635.8213303512664
 31
0.0
  0
LINE
  5
20624
  8
1DIM
 10
754.51624161536495
 20
-653.82133034816195
 30
0.0
 11
754.51624161536495
 21
-637.8213303512664
 31
0.0
  0
LINE
  5
20628
  8
1DIM
 10
713.01624161536495
 20
-693.04950393654815
 30
0.0
 11
713.01624161536495
 21
-702.42133035126756
 31
0.0
  0
LINE
  5
20629
  8
1DIM
 10
700.01622356157156
 20
-674.76108159452485
 30
0.0
 11
700.01622356157156
 21
-702.42133035126756
 31
0.0
  0
LINE
  5
2062A
  8
1DIM
 10
711.01624161536495
 20
-701.42133035126767
 30
0.0
 11
702.01622356157168
 21
-701.42133035126767
 31
0.0
  0
LINE
  5
2062E
  8
1DIM
 10
648.01624161536495
 20
-636.82133035126628
 30
0.0
 11
648.01624161536495
 21
-604.82133035126617
 31
0.0
  0
LINE
  5
2062F
  8
1DIM
 10
713.01624161536495
 20
-618.59315676598453
 30
0.0
 11
713.01624161536495
 21
-604.82133035126617
 31
0.0
  0
LINE
  5
20630
  8
1DIM
 10
650.01624161536495
 20
-605.82133035126628
 30
0.0
 11
711.01624161536495
 21
-605.82133035126628
 31
0.0
  0
TEXT
  5
20634
  8
1DIM
 10
617.50563813632471
 20
-595.16374883343371
 30
0.0
 40
3.5
  1
材質：亜鉛ダイキャスト
  0
TEXT
  5
20635
  8
1DIM
 10
629.63897146965803
 20
-600.99708216676697
 30
0.0
 40
3.5
  1
仕上げ：クローム
  0
SOLID
  5
20636
  8
1DIM
 10
692.98097465829085
 20
-648.06635785401215
 30
0.0
 11
693.72408674035842
 21
-649.95286137762309
 31
0.0
 12
692.4093038983126
 22
-648.40934034136444
 32
0.0
 13
692.4093038983126
 23
-648.40934034136444
 33
0.0
1001
ACAD
1000
DSTYLE
1002
{
1070
    45
1040
0.5
1002
}
  0
LINE
  5
20638
  8
1DIM
 10
692.69513927830155
 20
-648.23784909768835
 30
0.0
 11
664.77230480299124
 21
-601.69708216676713
 31
0.0
1001
ACAD
1000
DSTYLE
1002
{
1070
    45
1040
0.5
1002
}
  0
LINE
  5
20639
  8
1DIM
 10
664.77230480299124
 20
-601.69708216676713
 30
0.0
 11
662.07230480299131
 21
-601.69708216676713
 31
0.0
1001
ACAD
1000
DSTYLE
1002
{
1070
    45
1040
0.5
1002
}
  0
TEXT
  5
2063A
  8
1DIM
 10
677.59957494869832
 20
-605.12133035126624
 30
0.0
 40
3.5
  1
65
  0
LINE
  5
2063B
  8
0
  6
BYBLOCK
 10
711.01624161536495
 20
-605.28543197126623
 30
0.0
 11
713.01624161536495
 21
-605.82133035126628
 31
0.0
  0
LINE
  5
2063C
  8
0
  6
BYBLOCK
 10
713.01624161536495
 20
-605.82133035126628
 30
0.0
 11
711.01624161536495
 21
-606.35722873126633
 31
0.0
  0
LINE
  5
2063D
  8
0
  6
BYBLOCK
 10
713.01624161536495
 20
-605.82133035126628
 30
0.0
 11
711.01624161536495
 21
-605.82133035126628
 31
0.0
  0
LINE
  5
2063E
  8
0
  6
BYBLOCK
 10
650.01624161536495
 20
-606.35722873126633
 30
0.0
 11
648.01624161536495
 21
-605.82133035126628
 31
0.0
  0
LINE
  5
2063F
  8
0
  6
BYBLOCK
 10
648.01624161536495
 20
-605.82133035126628
 30
0.0
 11
650.01624161536495
 21
-605.28543197126623
 31
0.0
  0
LINE
  5
20640
  8
0
  6
BYBLOCK
 10
648.01624161536495
 20
-605.82133035126628
 30
0.0
 11
650.01624161536495
 21
-605.82133035126628
 31
0.0
  0
TEXT
  5
20641
  8
1DIM
 10
704.18289925513488
 20
-700.72133035126762
 30
0.0
 40
3.5
  1
13
  0
LINE
  5
20642
  8
0
  6
BYBLOCK
 10
702.01622356157168
 20
-701.95722873126761
 30
0.0
 11
700.01622356157156
 21
-701.42133035126767
 31
0.0
  0
LINE
  5
20643
  8
0
  6
BYBLOCK
 10
700.01622356157156
 20
-701.42133035126767
 30
0.0
 11
702.01622356157168
 21
-700.88543197126762
 31
0.0
  0
LINE
  5
20644
  8
0
  6
BYBLOCK
 10
700.01622356157156
 20
-701.42133035126767
 30
0.0
 11
702.01622356157168
 21
-701.42133035126767
 31
0.0
  0
LINE
  5
20645
  8
0
  6
BYBLOCK
 10
711.01624161536495
 20
-700.88543197126762
 30
0.0
 11
713.01624161536495
 21
-701.42133035126767
 31
0.0
  0
LINE
  5
20646
  8
0
  6
BYBLOCK
 10
713.01624161536495
 20
-701.42133035126767
 30
0.0
 11
711.01624161536495
 21
-701.95722873126761
 31
0.0
  0
LINE
  5
20647
  8
0
  6
BYBLOCK
 10
713.01624161536495
 20
-701.42133035126767
 30
0.0
 11
711.01624161536495
 21
-701.42133035126767
 31
0.0
  0
TEXT
  5
20648
  8
1DIM
 10
753.81624161536502
 20
-648.44633034971412
 30
0.0
 40
3.5
  1
20
 50
90.0
  0
LINE
  5
20649
  8
0
  6
BYBLOCK
 10
753.98034323536478
 20
-637.8213303512664
 30
0.0
 11
754.51624161536495
 21
-635.8213303512664
 31
0.0
  0
LINE
  5
2064A
  8
0
  6
BYBLOCK
 10
754.51624161536495
 20
-635.8213303512664
 30
0.0
 11
755.052139995365
 21
-637.8213303512664
 31
0.0
  0
LINE
  5
2064B
  8
0
  6
BYBLOCK
 10
754.51624161536495
 20
-635.8213303512664
 30
0.0
 11
754.51624161536495
 21
-637.8213303512664
 31
0.0
  0
LINE
  5
2064C
  8
0
  6
BYBLOCK
 10
755.052139995365
 20
-653.82133034816195
 30
0.0
 11
754.51624161536495
 21
-655.82133034816195
 31
0.0
  0
LINE
  5
2064D
  8
0
  6
BYBLOCK
 10
754.51624161536495
 20
-655.82133034816195
 30
0.0
 11
753.98034323536478
 21
-653.82133034816195
 31
0.0
  0
LINE
  5
2064E
  8
0
  6
BYBLOCK
 10
754.51624161536495
 20
-655.82133034816195
 30
0.0
 11
754.51624161536495
 21
-653.82133034816195
 31
0.0
  0
TEXT
  5
2064F
  8
1DIM
 10
763.81624161536502
 20
-657.23799701793382
 30
0.0
 40
3.5
  1
37
 50
90.0
  0
LINE
  5
20650
  8
0
  6
BYBLOCK
 10
763.9803432353649
 20
-637.8213303512664
 30
0.0
 11
764.51624161536495
 21
-635.8213303512664
 31
0.0
  0
LINE
  5
20651
  8
0
  6
BYBLOCK
 10
764.51624161536495
 20
-635.8213303512664
 30
0.0
 11
765.052139995365
 21
-637.8213303512664
 31
0.0
  0
LINE
  5
20652
  8
0
  6
BYBLOCK
 10
764.51624161536495
 20
-635.8213303512664
 30
0.0
 11
764.51624161536495
 21
-637.8213303512664
 31
0.0
  0
LINE
  5
20653
  8
0
  6
BYBLOCK
 10
765.052139995365
 20
-670.82133035126822
 30
0.0
 11
764.51624161536495
 21
-672.8213303512681
 31
0.0
  0
LINE
  5
20654
  8
0
  6
BYBLOCK
 10
764.51624161536495
 20
-672.8213303512681
 30
0.0
 11
763.9803432353649
 21
-670.82133035126822
 31
0.0
  0
LINE
  5
20655
  8
0
  6
BYBLOCK
 10
764.51624161536495
 20
-672.8213303512681
 30
0.0
 11
764.51624161536495
 21
-670.82133035126822
 31
0.0
  0
TEXT
  5
20656
  8
1DIM
 10
497.0995749486982
 20
-520.12133035126635
 30
0.0
 40
3.5
  1
53
  0
LINE
  5
20657
  8
0
  6
BYBLOCK
 10
475.51624161536489
 20
-521.35722873126645
 30
0.0
 11
473.51624161536489
 21
-520.82133035126628
 31
0.0
  0
LINE
  5
20658
  8
0
  6
BYBLOCK
 10
473.51624161536489
 20
-520.82133035126628
 30
0.0
 11
475.51624161536489
 21
-520.28543197126635
 31
0.0
  0
LINE
  5
20659
  8
0
  6
BYBLOCK
 10
473.51624161536489
 20
-520.82133035126628
 30
0.0
 11
475.51624161536489
 21
-520.82133035126628
 31
0.0
  0
LINE
  5
2065A
  8
0
  6
BYBLOCK
 10
524.51624161536495
 20
-520.28543197126635
 30
0.0
 11
526.51624161536495
 21
-520.82133035126628
 31
0.0
  0
LINE
  5
2065B
  8
0
  6
BYBLOCK
 10
526.51624161536495
 20
-520.82133035126628
 30
0.0
 11
524.51624161536495
 21
-521.35722873126645
 31
0.0
  0
LINE
  5
2065C
  8
0
  6
BYBLOCK
 10
526.51624161536495
 20
-520.82133035126628
 30
0.0
 11
524.51624161536495
 21
-520.82133035126628
 31
0.0
  0
LINE
  5
2065D
  8
1DIM
 10
716.34476431835765
 20
-624.86628735961722
 30
0.0
 11
719.05375712618741
 21
-612.09026130414725
 31
0.0
1001
ACAD
1000
DSTYLE
1002
{
1070
    45
1040
0.5
1002
}
  0
LINE
  5
2065E
  8
1DIM
 10
729.48018246352285
 20
-624.86628735961722
 30
0.0
 11
732.18917527135261
 21
-612.09026130414725
 31
0.0
1001
ACAD
1000
DSTYLE
1002
{
1070
    45
1040
0.5
1002
}
  0
LINE
  5
2065F
  8
0
 10
702.01647162511688
 20
-665.17134431276747
 30
0.0
 11
702.01626302156785
 21
-670.52135361908734
 31
0.0
  0
LINE
  5
20660
  8
0
 10
701.66647429463978
 20
-664.82134186964322
 30
0.0
 11
702.01647162511688
 21
-665.17134431276747
 31
0.0
  0
LINE
  5
20661
  8
0
 10
704.0162444072522
 20
-672.52135827263896
 30
0.0
 11
702.01626302156785
 21
-670.52135361908734
 31
0.0
  0
LINE
  5
20662
  8
0
 10
701.66647429463978
 20
-664.82134186964322
 30
0.0
 11
698.36647429470941
 21
-664.82131883437364
 31
0.0
  0
LINE
  5
20663
  8
0
 10
704.0162444072522
 20
-672.52135827263896
 30
0.0
 11
704.01624161509835
 21
-672.82135827262698
 31
0.0
  0
LINE
  5
20664
  8
0
 10
698.36647429470941
 20
-664.82131883437364
 30
0.0
 11
698.01647162520408
 21
-665.17131639122886
 31
0.0
  0
LINE
  5
20665
  8
0
 10
704.01624161509835
 20
-672.82135827262698
 30
0.0
 11
696.0162416152715
 21
-672.82130242954929
 31
0.0
  0
LINE
  5
20666
  8
0
 10
698.01647162520408
 20
-665.17131639122886
 30
0.0
 11
698.01626302191448
 21
-670.52129777592302
 31
0.0
  0
LINE
  5
20667
  8
0
 10
696.01624440742535
 20
-672.52130242956162
 30
0.0
 11
696.0162416152715
 21
-672.82130242954929
 31
0.0
  0
LINE
  5
20668
  8
0
 10
696.01624440742535
 20
-672.52130242956162
 30
0.0
 11
698.01626302191448
 21
-670.52129777592302
 31
0.0
  0
TEXT
  5
20669
  8
1DIM
 10
495.64124161536489
 20
-700.72133035126762
 30
0.0
 40
3.5
  1
P40
  0
LINE
  5
2066A
  8
0
  6
BYBLOCK
 10
518.01765997993562
 20
-700.88543197126762
 30
0.0
 11
520.0176599799355
 21
-701.42133035126767
 31
0.0
  0
LINE
  5
2066B
  8
0
  6
BYBLOCK
 10
520.0176599799355
 20
-701.42133035126767
 30
0.0
 11
518.01765997993562
 21
-701.95722873126761
 31
0.0
  0
LINE
  5
2066C
  8
0
  6
BYBLOCK
 10
520.0176599799355
 20
-701.42133035126767
 30
0.0
 11
518.01765997993562
 21
-701.42133035126767
 31
0.0
  0
LINE
  5
2066D
  8
0
  6
BYBLOCK
 10
482.01482325079428
 20
-701.95722873126761
 30
0.0
 11
480.01482325079422
 21
-701.42133035126767
 31
0.0
  0
LINE
  5
2066E
  8
0
  6
BYBLOCK
 10
480.01482325079422
 20
-701.42133035126767
 30
0.0
 11
482.01482325079428
 21
-700.88543197126762
 31
0.0
  0
LINE
  5
2066F
  8
0
  6
BYBLOCK
 10
480.01482325079422
 20
-701.42133035126767
 30
0.0
 11
482.01482325079428
 21
-701.42133035126767
 31
0.0
  0
TEXT
  5
20670
  8
1DIM
 10
495.64124161536478
 20
-615.12133035126624
 30
0.0
 40
3.5
  1
220
  0
LINE
  5
20671
  8
0
  6
BYBLOCK
 10
608.01624161536483
 20
-615.28543197126623
 30
0.0
 11
610.01624161536483
 21
-615.82133035126617
 31
0.0
  0
LINE
  5
20672
  8
0
  6
BYBLOCK
 10
610.01624161536483
 20
-615.82133035126617
 30
0.0
 11
608.01624161536483
 21
-616.35722873126633
 31
0.0
  0
LINE
  5
20673
  8
0
  6
BYBLOCK
 10
610.01624161536483
 20
-615.82133035126617
 30
0.0
 11
608.01624161536483
 21
-615.82133035126617
 31
0.0
  0
LINE
  5
20674
  8
0
  6
BYBLOCK
 10
392.016241615365
 20
-616.35722873126633
 30
0.0
 11
390.016241615365
 21
-615.82133035126617
 31
0.0
  0
LINE
  5
20675
  8
0
  6
BYBLOCK
 10
390.016241615365
 20
-615.82133035126617
 30
0.0
 11
392.016241615365
 21
-615.28543197126623
 31
0.0
  0
LINE
  5
20676
  8
0
  6
BYBLOCK
 10
390.016241615365
 20
-615.82133035126617
 30
0.0
 11
392.016241615365
 21
-615.82133035126617
 31
0.0
  0
TEXT
  5
20677
  8
1DIM
 10
627.82138658400834
 20
-657.23799701793212
 30
0.0
 40
3.5
  1
37
 50
90.0
  0
LINE
  5
20678
  8
0
  6
BYBLOCK
 10
629.05728496400832
 20
-670.82133035126458
 30
0.0
 11
628.52138658400816
 21
-672.82133035126469
 31
0.0
  0
LINE
  5
20679
  8
0
  6
BYBLOCK
 10
628.52138658400816
 20
-672.82133035126469
 30
0.0
 11
627.98548820400822
 21
-670.82133035126458
 31
0.0
  0
LINE
  5
2067A
  8
0
  6
BYBLOCK
 10
628.52138658400816
 20
-672.82133035126469
 30
0.0
 11
628.52138658400816
 21
-670.82133035126458
 31
0.0
  0
LINE
  5
2067B
  8
0
  6
BYBLOCK
 10
627.98548820400822
 20
-637.8213303512664
 30
0.0
 11
628.52138658400816
 21
-635.8213303512664
 31
0.0
  0
LINE
  5
2067C
  8
0
  6
BYBLOCK
 10
628.52138658400816
 20
-635.8213303512664
 30
0.0
 11
629.05728496400832
 21
-637.8213303512664
 31
0.0
  0
LINE
  5
2067D
  8
0
  6
BYBLOCK
 10
628.52138658400816
 20
-635.8213303512664
 30
0.0
 11
628.52138658400816
 21
-637.8213303512664
 31
0.0
  0
TEXT
  5
2067E
  8
1DIM
 10
616.98165114249821
 20
-670.48799701793121
 30
0.0
 40
3.5
  1
7
 50
90.0
  0
LINE
  5
2067F
  8
0
  6
BYBLOCK
 10
618.21754952249808
 20
-670.82133035126458
 30
0.0
 11
617.68165114249814
 21
-672.82133035126469
 31
0.0
  0
LINE
  5
20680
  8
0
  6
BYBLOCK
 10
617.68165114249814
 20
-672.82133035126469
 30
0.0
 11
617.14575276249809
 21
-670.82133035126458
 31
0.0
  0
LINE
  5
20681
  8
0
  6
BYBLOCK
 10
617.68165114249814
 20
-672.82133035126469
 30
0.0
 11
617.68165114249814
 21
-670.82133035126458
 31
0.0
  0
LINE
  5
20682
  8
0
  6
BYBLOCK
 10
617.14575276249809
 20
-667.82133035126469
 30
0.0
 11
617.68165114249814
 21
-665.82133035126458
 31
0.0
  0
LINE
  5
20683
  8
0
  6
BYBLOCK
 10
617.68165114249814
 20
-665.82133035126458
 30
0.0
 11
618.21754952249808
 21
-667.82133035126469
 31
0.0
  0
LINE
  5
20684
  8
0
  6
BYBLOCK
 10
617.68165114249814
 20
-665.82133035126458
 30
0.0
 11
617.68165114249814
 21
-667.82133035126469
 31
0.0
  0
TEXT
  5
20685
  8
1DIM
 10
700.39124161536495
 20
-615.12133035126624
 30
0.0
 40
3.5
  1
20
  0
LINE
  5
20686
  8
0
  6
BYBLOCK
 10
711.01624161536495
 20
-615.28543197126623
 30
0.0
 11
713.01624161536495
 21
-615.82133035126617
 31
0.0
  0
LINE
  5
20687
  8
0
  6
BYBLOCK
 10
713.01624161536495
 20
-615.82133035126617
 30
0.0
 11
711.01624161536495
 21
-616.35722873126633
 31
0.0
  0
LINE
  5
20688
  8
0
  6
BYBLOCK
 10
713.01624161536495
 20
-615.82133035126617
 30
0.0
 11
711.01624161536495
 21
-615.82133035126617
 31
0.0
  0
LINE
  5
20689
  8
0
  6
BYBLOCK
 10
695.01624161536495
 20
-616.35722873126633
 30
0.0
 11
693.01624161536495
 21
-615.82133035126617
 31
0.0
  0
LINE
  5
2068A
  8
0
  6
BYBLOCK
 10
693.01624161536495
 20
-615.82133035126617
 30
0.0
 11
695.01624161536495
 21
-615.28543197126623
 31
0.0
  0
LINE
  5
2068B
  8
0
  6
BYBLOCK
 10
693.01624161536495
 20
-615.82133035126617
 30
0.0
 11
695.01624161536495
 21
-615.82133035126617
 31
0.0
  0
TEXT
  5
2068C
  8
1DIM
 10
616.98165114249821
 20
-657.23799701793121
 30
0.0
 40
3.5
  1
23
 50
90.0
  0
LINE
  5
2068D
  8
0
  6
BYBLOCK
 10
617.14575276249809
 20
-644.82133035126458
 30
0.0
 11
617.68165114249814
 21
-642.82133035126469
 31
0.0
  0
LINE
  5
2068E
  8
0
  6
BYBLOCK
 10
617.68165114249814
 20
-642.82133035126469
 30
0.0
 11
618.21754952249808
 21
-644.82133035126458
 31
0.0
  0
LINE
  5
2068F
  8
0
  6
BYBLOCK
 10
617.68165114249814
 20
-642.82133035126469
 30
0.0
 11
617.68165114249814
 21
-644.82133035126458
 31
0.0
  0
LINE
  5
20690
  8
0
  6
BYBLOCK
 10
618.21754952249808
 20
-663.82133035126469
 30
0.0
 11
617.68165114249814
 21
-665.82133035126458
 31
0.0
  0
LINE
  5
20691
  8
0
  6
BYBLOCK
 10
617.68165114249814
 20
-665.82133035126458
 30
0.0
 11
617.14575276249809
 21
-663.82133035126469
 31
0.0
  0
LINE
  5
20692
  8
0
  6
BYBLOCK
 10
617.68165114249814
 20
-665.82133035126458
 30
0.0
 11
617.68165114249814
 21
-663.82133035126469
 31
0.0
  0
TEXT
  5
20693
  8
1DIM
 10
616.98165114249821
 20
-640.48799701793212
 30
0.0
 40
3.5
  1
7
 50
90.0
  0
LINE
  5
20694
  8
0
  6
BYBLOCK
 10
617.14575276249809
 20
-637.8213303512664
 30
0.0
 11
617.68165114249814
 21
-635.8213303512664
 31
0.0
  0
LINE
  5
20695
  8
0
  6
BYBLOCK
 10
617.68165114249814
 20
-635.8213303512664
 30
0.0
 11
618.21754952249808
 21
-637.8213303512664
 31
0.0
  0
LINE
  5
20696
  8
0
  6
BYBLOCK
 10
617.68165114249814
 20
-635.8213303512664
 30
0.0
 11
617.68165114249814
 21
-637.8213303512664
 31
0.0
  0
LINE
  5
20697
  8
0
  6
BYBLOCK
 10
618.21754952249808
 20
-640.82133035126458
 30
0.0
 11
617.68165114249814
 21
-642.82133035126469
 31
0.0
  0
LINE
  5
20698
  8
0
  6
BYBLOCK
 10
617.68165114249814
 20
-642.82133035126469
 30
0.0
 11
617.14575276249809
 21
-640.82133035126458
 31
0.0
  0
LINE
  5
20699
  8
0
  6
BYBLOCK
 10
617.68165114249814
 20
-642.82133035126469
 30
0.0
 11
617.68165114249814
 21
-640.82133035126458
 31
0.0
  0
LINE
  5
2069A
  8
1DIM
 10
672.71394880877983
 20
-670.93758787596369
 30
0.0
 11
645.18902907327845
 21
-697.97230774540537
 31
0.0
1001
ACAD
1000
DSTYLE
1002
{
1070
    45
1040
0.5
1002
}
  0
LINE
  5
2069B
  8
1DIM
 10
645.18902907327845
 20
-697.97230774540537
 30
0.0
 11
642.4890290732784
 21
-697.97230774540537
 31
0.0
1001
ACAD
1000
DSTYLE
1002
{
1070
    45
1040
0.5
1002
}
  0
VIEWPORT
  5
57
 67
     1
  8
0
 10
84.038254629564904
 20
10.09248672500371
 30
0.0
 40
615.96530791767884
 41
282.92643804354401
 68
     1
 69
     1
1001
ACAD
1000
MVIEW
1002
{
1070
    16
1010
0.0
1020
0.0
1030
0.0
1010
0.0
1020
0.0
1030
1.0
1040
0.0
1040
282.92643804354401
1040
84.038254629564904
1040
10.09248672500371
1040
50.0
1040
0.0
1040
0.0
1070
     0
1070
   100
1070
     1
1070
     1
1070
     0
1070
     0
1070
     0
1070
     0
1040
0.0
1040
0.0
1040
0.0
1040
10.0
1040
10.0
1040
10.0
1040
10.0
1070
     0
1002
{
1002
}
1002
}
  0
ENDSEC
  0
EOF
