  0
SECTION
  2
HEADER
  9
$ACADVER
  1
AC1009
  9
$INSBASE
 10
0.0
 20
0.0
 30
0.0
  9
$EXTMIN
 10
393.01624161536489
 20
-712.42133035126756
 30
0.0
  9
$EXTMAX
 10
765.51624161536495
 20
-480.02544149097611
 30
0.0
  9
$LIMMIN
 10
0.0
 20
0.0
  9
$LIMMAX
 10
420.0
 20
297.0
  9
$ORTHOMODE
 70
     0
  9
$REGENMODE
 70
     1
  9
$FILLMODE
 70
     1
  9
$QTEXTMODE
 70
     0
  9
$MIRRTEXT
 70
     0
  9
$DRAGMODE
 70
     2
  9
$LTSCALE
 40
0.5
  9
$OSMODE
 70
  2175
  9
$ATTMODE
 70
     1
  9
$TEXTSIZE
 40
4.0
  9
$TRACEWID
 40
1.0
  9
$TEXTSTYLE
  7
STANDARD
  9
$CLAYER
  8
1TEXT
  9
$CELTYPE
  6
BYLAYER
  9
$CECOLOR
 62
   256
  9
$DIMSCALE
 40
1.0
  9
$DIMASZ
 40
2.0
  9
$DIMEXO
 40
0.0
  9
$DIMDLI
 40
7.0
  9
$DIMRND
 40
0.0
  9
$DIMDLE
 40
0.0
  9
$DIMEXE
 40
1.0
  9
$DIMTP
 40
0.0
  9
$DIMTM
 40
0.0
  9
$DIMTXT
 40
3.5
  9
$DIMCEN
 40
0.0
  9
$DIMTSZ
 40
0.0
  9
$DIMTOL
 70
     0
  9
$DIMLIM
 70
     0
  9
$DIMTIH
 70
     0
  9
$DIMTOH
 70
     0
  9
$DIMSE1
 70
     0
  9
$DIMSE2
 70
     0
  9
$DIMTAD
 70
     1
  9
$DIMZIN
 70
     8
  9
$DIMBLK
  1

  9
$DIMASO
 70
     1
  9
$DIMSHO
 70
     1
  9
$DIMPOST
  1
 
  9
$DIMAPOST
  1

  9
$DIMALT
 70
     0
  9
$DIMALTD
 70
     2
  9
$DIMALTF
 40
25.399999999999999
  9
$DIMLFAC
 40
1.0
  9
$DIMTOFL
 70
     1
  9
$DIMTVP
 40
0.0
  9
$DIMTIX
 70
     0
  9
$DIMSOXD
 70
     0
  9
$DIMSAH
 70
     1
  9
$DIMBLK1
  1
OPEN30
  9
$DIMBLK2
  1
OPEN30
  9
$DIMSTYLE
  2
NEWX10
  9
$DIMCLRD
 70
   256
  9
$DIMCLRE
 70
   256
  9
$DIMCLRT
 70
   201
  9
$DIMTFAC
 40
0.7
  9
$DIMGAP
 40
0.7
  9
$LUNITS
 70
     2
  9
$LUPREC
 70
     4
  9
$SKETCHINC
 40
1.0
  9
$FILLETRAD
 40
1.0
  9
$AUNITS
 70
     0
  9
$AUPREC
 70
     2
  9
$MENU
  1
acad
  9
$ELEVATION
 40
0.0
  9
$PELEVATION
 40
0.0
  9
$THICKNESS
 40
0.0
  9
$LIMCHECK
 70
     0
  9
$BLIPMODE
 70
     0
  9
$CHAMFERA
 40
1.0
  9
$CHAMFERB
 40
1.0
  9
$SKPOLY
 70
     0
  9
$TDCREATE
 40
2453033.7326634838
  9
$TDUPDATE
 40
2456610.721379838
  9
$TDINDWG
 40
2.3673393519000001
  9
$TDUSRTIMER
 40
2.3673393519000001
  9
$USRTIMER
 70
     1
  9
$ANGBASE
 50
0.0
  9
$ANGDIR
 70
     0
  9
$PDMODE
 70
     0
  9
$PDSIZE
 40
0.0
  9
$PLINEWID
 40
0.0
  9
$COORDS
 70
     0
  9
$SPLFRAME
 70
     0
  9
$SPLINETYPE
 70
     6
  9
$SPLINESEGS
 70
     8
  9
$ATTDIA
 70
     0
  9
$ATTREQ
 70
     1
  9
$HANDLING
 70
     1
  9
$HANDSEED
  5
1FD04
  9
$SURFTAB1
 70
     6
  9
$SURFTAB2
 70
     6
  9
$SURFTYPE
 70
     6
  9
$SURFU
 70
     6
  9
$SURFV
 70
     6
  9
$UCSNAME
  2

  9
$UCSORG
 10
0.0
 20
0.0
 30
0.0
  9
$UCSXDIR
 10
1.0
 20
0.0
 30
0.0
  9
$UCSYDIR
 10
0.0
 20
1.0
 30
0.0
  9
$PUCSNAME
  2

  9
$PUCSORG
 10
0.0
 20
0.0
 30
0.0
  9
$PUCSXDIR
 10
1.0
 20
0.0
 30
0.0
  9
$PUCSYDIR
 10
0.0
 20
1.0
 30
0.0
  9
$USERI1
 70
     0
  9
$USERI2
 70
     0
  9
$USERI3
 70
     0
  9
$USERI4
 70
     0
  9
$USERI5
 70
     0
  9
$USERR1
 40
0.0
  9
$USERR2
 40
0.0
  9
$USERR3
 40
0.0
  9
$USERR4
 40
0.0
  9
$USERR5
 40
0.0
  9
$WORLDVIEW
 70
     1
  9
$SHADEDGE
 70
     3
  9
$SHADEDIF
 70
    70
  9
$TILEMODE
 70
     1
  9
$MAXACTVP
 70
    48
  9
$PLIMCHECK
 70
     0
  9
$PEXTMIN
 10
1.0000000000000000E+020
 20
1.0000000000000000E+020
 30
1.0000000000000000E+020
  9
$PEXTMAX
 10
-1.0000000000000000E+020
 20
-1.0000000000000000E+020
 30
-1.0000000000000000E+020
  9
$PLIMMIN
 10
0.0
 20
0.0
  9
$PLIMMAX
 10
420.0
 20
297.0
  9
$UNITMODE
 70
     0
  9
$VISRETAIN
 70
     1
  9
$PLINEGEN
 70
     0
  9
$PSLTSCALE
 70
     1
  0
ENDSEC
  0
SECTION
  2
TABLES
  0
TABLE
  2
VPORT
 70
     1
  0
VPORT
  2
*ACTIVE
 70
     0
 10
0.0
 20
0.0
 11
1.0
 21
1.0
 12
579.25923632243507
 22
-596.20140889509855
 13
0.0
 23
0.0
 14
10.0
 24
10.0
 15
10.0
 25
10.0
 16
0.0
 26
0.0
 36
1.0
 17
0.0
 27
0.0
 37
0.0
 40
246.5423350426054
 41
2.1771217712177111
 42
50.0
 43
0.0
 44
0.0
 50
0.0
 51
0.0
 71
     0
 72
   100
 73
     1
 74
     1
 75
     0
 76
     0
 77
     0
 78
     0
  0
ENDTAB
  0
TABLE
  2
LTYPE
 70
    18
  0
LTYPE
  2
CONTINUOUS
 70
     0
  3
Solid line
 72
    65
 73
     0
 40
0.0
  0
LTYPE
  2
CENTER2
 70
     0
  3
Center (.5x) ___ _ ___ _ ___ _ ___ _ ___ _ ___
 72
    65
 73
     4
 40
28.574999999999999
 49
19.050000000000001
 49
-3.1749999999999989
 49
3.1749999999999989
 49
-3.1749999999999989
  0
LTYPE
  2
PHANTOM2
 70
     0
  3
Phantom (.5x) ___ _ _ ___ _ _ ___ _ _ ___ _ _
 72
    65
 73
     6
 40
31.75
 49
15.875
 49
-3.1749999999999989
 49
3.1749999999999989
 49
-3.1749999999999989
 49
3.1749999999999989
 49
-3.1749999999999989
  0
ENDTAB
  0
TABLE
  2
LAYER
 70
    44
  0
LAYER
  2
0
 70
     0
 62
     7
  6
CONTINUOUS
  0
LAYER
  2
1CENTER
 70
     0
 62
     7
  6
CENTER2
  0
LAYER
  2
1TEXT
 70
     0
 62
     7
  6
CONTINUOUS
  0
LAYER
  2
1DIM
 70
     0
 62
     7
  6
CONTINUOUS
  0
LAYER
  2
1PHANTOM
 70
     0
 62
     7
  6
PHANTOM2
  0
LAYER
  2
01
 70
     0
 62
     1
  6
CONTINUOUS
  0
ENDTAB
  0
TABLE
  2
STYLE
 70
    24
  0
STYLE
  2
STANDARD
 70
     0
 40
0.0
 41
1.0
 50
0.0
 71
     0
 42
4.0
  3
txt.shx
  4
extfont.shx
  0
ENDTAB
  0
TABLE
  2
VIEW
 70
     7
  0
ENDTAB
  0
TABLE
  2
UCS
 70
     0
  0
ENDTAB
  0
TABLE
  2
APPID
 70
    13
  0
APPID
  2
ACAD
 70
     0
  0
APPID
  2
DRAWINGVARIABLESXDATA
 70
     0
  0
APPID
  2
CONTENTTABDATA
 70
     0
  0
APPID
  2
CONTENTCURRENTTAB
 70
     0
  0
APPID
  2
CONTENTBLOCKDESCRIPTION
 70
     0
  0
APPID
  2
CONTENTBLOCKICON
 70
     0
  0
APPID
  2
CONTENTLONGBLOCKNAME
 70
     0
  0
APPID
  2
ACAD_PSEXT
 70
     0
  0
APPID
  2
ACAD_DSTYLE_DIMTEXT_FILL
 70
     0
  0
APPID
  2
ACAD_MLEADERVER
 70
     0
  0
APPID
  2
ACAD_DSTYLE_DIMRADIAL_EXTENSION
 70
     0
  0
APPID
  2
ACADANNOTATIVE
 70
     0
  0
APPID
  2
ACAD_EXEMPT_FROM_CAD_STANDARDS
 70
     0
  0
ENDTAB
  0
TABLE
  2
DIMSTYLE
 70
    10
  0
DIMSTYLE
  2
NEWX10
 70
     0
  3
 
  4

  5

  6
OPEN30
  7
OPEN30
 40
1.0
 41
2.0
 42
0.0
 43
7.0
 44
1.0
 45
0.0
 46
0.0
 47
0.0
 48
0.0
140
3.5
141
0.0
142
0.0
143
25.399999999999999
144
1.0
145
0.0
146
0.7
147
0.7
 71
     0
 72
     0
 73
     0
 74
     0
 75
     0
 76
     0
 77
     1
 78
     8
170
     0
171
     2
172
     1
173
     1
174
     0
175
     0
176
   256
177
   256
178
   201
  0
ENDTAB
  0
ENDSEC
  0
SECTION
  2
BLOCKS
  0
BLOCK
  8
0
  2
$MODEL_SPACE
 70
     0
 10
0.0
 20
0.0
 30
0.0
  3
$MODEL_SPACE
  1

  0
ENDBLK
  5
1A
  8
0
  0
BLOCK
 67
     1
  8
0
  2
$PAPER_SPACE
 70
     0
 10
0.0
 20
0.0
 30
0.0
  3
$PAPER_SPACE
  1

  0
ENDBLK
  5
17
 67
     1
  8
0
  0
BLOCK
  8
0
  2
_OPEN30
 70
     0
 10
0.0
 20
0.0
 30
0.0
  3
_OPEN30
  1

  0
LINE
  5
44
  8
0
  6
BYBLOCK
 62
     0
 10
-1.0
 20
0.26794919
 30
0.0
 11
0.0
 21
0.0
 31
0.0
  0
LINE
  5
45
  8
0
  6
BYBLOCK
 62
     0
 10
0.0
 20
0.0
 30
0.0
 11
-1.0
 21
-0.26794919
 31
0.0
  0
LINE
  5
46
  8
0
  6
BYBLOCK
 62
     0
 10
0.0
 20
0.0
 30
0.0
 11
-1.0
 21
0.0
 31
0.0
  0
ENDBLK
  5
47
  8
0
  0
BLOCK
  8
0
  2
*U42
 70
     1
 10
0.0
 20
0.0
 30
0.0
  3
*U42
  1

  0
TEXT
  5
1FCFD
  8
1TEXT
 62
   201
 10
312.76214345407118
 20
-609.32133035126606
 30
0.0
 40
3.5
  1
100
 50
90.0
  0
ENDBLK
  5
1FCFF
  8
0
  0
BLOCK
  8
0
  2
*U43
 70
     1
 10
0.0
 20
0.0
 30
0.0
  3
*U43
  1

  0
TEXT
  5
1FD01
  8
1DIM
 62
   201
 10
753.81624161536502
 20
-659.90466368459977
 30
0.0
 40
3.5
  1
P18
 50
90.0
  0
ENDBLK
  5
1FD03
  8
0
  0
ENDSEC
  0
SECTION
  2
ENTITIES
  0
LINE
  5
1D8CA
  8
01
 10
713.01624161536495
 20
-650.67133035126585
 30
0.0
 11
713.01624161536495
 21
-672.82133035126719
 31
0.0
  0
LINE
  5
1D90A
  8
01
 10
713.01624161536495
 20
-653.17133035126653
 30
0.0
 11
713.01624161536495
 21
-670.82133035126594
 31
0.0
  0
TEXT
  5
1DB93
  8
1TEXT
 10
432.94164828386391
 20
-498.52544149097599
 30
0.0
 40
4.0
  1
表面処理
 72
     1
 11
442.00831495053052
 21
-498.52544149097599
 31
0.0
  0
LINE
  5
1DB94
  8
1DIM
 10
424.60831495053043
 20
-493.02544149097599
 30
0.0
 11
494.60831495053043
 21
-493.02544149097599
 31
0.0
  0
LINE
  5
1DB95
  8
1DIM
 10
424.60831495053043
 20
-507.02544149097611
 30
0.0
 11
494.60831495053043
 21
-507.02544149097611
 31
0.0
  0
LINE
  5
1DB96
  8
1DIM
 10
424.60831495053043
 20
-500.02544149097599
 30
0.0
 11
494.60831495053043
 21
-500.02544149097599
 31
0.0
  0
LINE
  5
1DB97
  8
1DIM
 10
459.60831495053048
 20
-493.02544149097599
 30
0.0
 11
459.60831495052997
 21
-507.02544149097599
 31
0.0
  0
TEXT
  5
1DB98
  8
1TEXT
 10
470.20831495053051
 20
-498.52544149097599
 30
0.0
 40
4.0
  1
コード
 72
     1
 11
477.00831495053052
 21
-498.52544149097599
 31
0.0
  0
LINE
  5
1DB99
  8
1DIM
 10
424.60831495053048
 20
-507.02544149097599
 30
0.0
 11
424.60831495053043
 21
-493.02544149097599
 31
0.0
  0
LINE
  5
1DB9A
  8
1DIM
 10
494.60831495053031
 20
-507.02544149097599
 30
0.0
 11
494.60831495053043
 21
-493.02544149097599
 31
0.0
  0
TEXT
  5
1DB9B
  8
1TEXT
 10
424.60831495053043
 20
-488.02544149097599
 30
0.0
 40
8.0
  1
SC-611-X
  0
TEXT
  5
1DB9C
  8
1TEXT
 10
432.67498161719732
 20
-505.36073015050027
 30
0.0
 40
4.0
  1
クローム
 72
     1
 11
442.00831495053052
 21
-505.36073015050027
 31
0.0
  0
TEXT
  5
1DB9D
  8
1TEXT
 10
463.40831495053078
 20
-505.73979847462527
 30
0.0
 40
4.0
  1
SC-611-XC
 41
0.85
 72
     1
 11
477.0083149505308
 21
-505.73979847462527
 31
0.0
  0
LINE
  5
1DBA4
  8
01
 10
725.51624161536495
 20
-618.59315676598453
 30
0.0
 11
725.51624161536495
 21
-693.04950393654815
 31
0.0
  0
LINE
  5
1DBA5
  8
01
 10
734.51624161536495
 20
-618.59315676598453
 30
0.0
 11
734.51624161536495
 21
-693.04950393654815
 31
0.0
  0
LINE
  5
1DBA6
  8
01
 10
713.01624161536495
 20
-618.59315676598453
 30
0.0
 11
713.01624161536495
 21
-693.04950393654815
 31
0.0
  0
LINE
  5
1E9EB
  8
1PHANTOM
 10
421.51624146846962
 20
-558.82133035126685
 30
0.0
 11
420.51624176846963
 21
-557.82133035126685
 31
0.0
  0
LINE
  5
1E9EC
  8
1PHANTOM
 10
424.81624161846958
 20
-558.82133035126685
 30
0.0
 11
424.81624161846958
 21
-557.82133035126685
 31
0.0
  0
LINE
  5
1E9ED
  8
1PHANTOM
 10
424.81624161846958
 20
-557.82133035126685
 30
0.0
 11
417.21624161846961
 21
-557.82133035126685
 31
0.0
  0
LINE
  5
1E9EE
  8
1PHANTOM
 10
424.81624161846958
 20
-558.82133035126685
 30
0.0
 11
417.21624161846961
 21
-558.82133035126685
 31
0.0
  0
LINE
  5
1E9EF
  8
1PHANTOM
 10
417.21624161846961
 20
-558.82133035126685
 30
0.0
 11
417.21624161846961
 21
-557.82133035126685
 31
0.0
  0
LINE
  5
1EBEF
  8
1PHANTOM
 10
710.01624161536495
 20
-656.32133020437072
 30
0.0
 11
711.01624161536495
 21
-655.32133050437074
 31
0.0
  0
LINE
  5
1EBF0
  8
1PHANTOM
 10
710.01624161536495
 20
-659.62133035437068
 30
0.0
 11
711.01624161536495
 21
-659.62133035437068
 31
0.0
  0
LINE
  5
1EBF1
  8
1PHANTOM
 10
711.01624161536495
 20
-659.62133035437068
 30
0.0
 11
711.01624161536495
 21
-652.02133035437066
 31
0.0
  0
LINE
  5
1EBF2
  8
1PHANTOM
 10
710.01624161536495
 20
-659.62133035437068
 30
0.0
 11
710.01624161536495
 21
-652.02133035437066
 31
0.0
  0
LINE
  5
1EBF3
  8
1PHANTOM
 10
710.01624161536495
 20
-652.02133035437066
 30
0.0
 11
711.01624161536495
 21
-652.02133035437066
 31
0.0
  0
LINE
  5
1F68B
  8
01
 10
643.01624161536529
 20
-648.3213303512664
 30
0.0
 11
643.01624161536529
 21
-663.3213303512664
 31
0.0
  0
ARC
  5
1F68C
  8
01
 10
638.01624161536529
 20
-648.3213303512664
 30
0.0
 40
5.0
 50
0.0
 51
90.0
  0
LINE
  5
1F68D
  8
01
 10
393.01624161536512
 20
-648.3213303512664
 30
0.0
 11
393.01624161536512
 21
-663.3213303512664
 31
0.0
  0
ARC
  5
1F68E
  8
01
 10
398.01624161536512
 20
-663.3213303512664
 30
0.0
 40
5.0
 50
180.0
 51
270.0
  0
LINE
  5
1F68F
  8
01
 10
398.01624161536512
 20
-668.3213303512664
 30
0.0
 11
638.01624161536529
 21
-668.3213303512664
 31
0.0
  0
ARC
  5
1F690
  8
01
 10
638.01624161536529
 20
-663.3213303512664
 30
0.0
 40
5.0
 50
270.0
 51
0.0
  0
LINE
  5
1F691
  8
01
 10
398.01624161536512
 20
-643.3213303512664
 30
0.0
 11
638.01624161536529
 21
-643.3213303512664
 31
0.0
  0
ARC
  5
1F692
  8
01
 10
398.01624161536512
 20
-648.3213303512664
 30
0.0
 40
5.0
 50
90.0
 51
180.0
  0
LINE
  5
1F693
  8
01
 10
403.01624161536489
 20
-585.91774051278003
 30
0.0
 11
633.0162416153654
 21
-585.91774051278003
 31
0.0
  0
ARC
  5
1F694
  8
01
 10
633.0162416153654
 20
-582.91774051278003
 30
0.0
 40
3.0
 50
270.0
 51
0.0
  0
LINE
  5
1F695
  8
01
 10
641.0162416153654
 20
-572.91774051278003
 30
0.0
 11
637.0162416153654
 21
-572.91774051278003
 31
0.0
  0
ARC
  5
1F696
  8
01
 10
637.0162416153654
 20
-573.91774051278003
 30
0.0
 40
1.0
 50
90.0
 51
180.0
  0
LINE
  5
1F697
  8
01
 10
643.01624161536517
 20
-591.91774051278003
 30
0.0
 11
643.01624161536529
 21
-574.91774051278003
 31
0.0
  0
ARC
  5
1F698
  8
01
 10
641.0162416153654
 20
-574.91774051278003
 30
0.0
 40
2.0
 50
0.0
 51
90.0
  0
ARC
  5
1F699
  8
01
 10
642.01624161536506
 20
-591.91774051278003
 30
0.0
 40
1.0
 50
270.0
 51
0.0
  0
LINE
  5
1F69A
  8
01
 10
636.0162416153654
 20
-582.91774051278003
 30
0.0
 11
636.0162416153654
 21
-573.91774051278003
 31
0.0
  0
LINE
  5
1F69B
  8
01
 10
444.51624161536557
 20
-585.91774051278003
 30
0.0
 11
444.71624161536539
 21
-585.5713303512664
 31
0.0
  0
LINE
  5
1F69C
  8
01
 10
461.51624161536557
 20
-585.91774051278003
 30
0.0
 11
461.3162416153653
 21
-585.5713303512664
 31
0.0
  0
ARC
  5
1F69D
  8
01
 10
403.01624161536489
 20
-582.91774051278003
 30
0.0
 40
3.0
 50
180.0
 51
270.0
  0
LINE
  5
1F69E
  8
01
 10
395.01624161536489
 20
-572.91774051278003
 30
0.0
 11
399.01624161536489
 21
-572.91774051278003
 31
0.0
  0
ARC
  5
1F69F
  8
01
 10
399.01624161536489
 20
-573.91774051278003
 30
0.0
 40
1.0
 50
0.0
 51
90.0
  0
LINE
  5
1F6A0
  8
01
 10
393.01624161536517
 20
-591.91774051278003
 30
0.0
 11
393.01624161536489
 21
-574.91774051278003
 31
0.0
  0
ARC
  5
1F6A1
  8
01
 10
395.01624161536489
 20
-574.91774051278003
 30
0.0
 40
2.0
 50
90.0
 51
180.0
  0
ARC
  5
1F6A2
  8
01
 10
394.01624161536517
 20
-591.91774051278003
 30
0.0
 40
1.0
 50
180.0
 51
270.0
  0
LINE
  5
1F6A3
  8
01
 10
400.01624161536489
 20
-582.91774051278003
 30
0.0
 11
400.01624161536489
 21
-573.91774051278003
 31
0.0
  0
LINE
  5
1F6A5
  8
01
 10
394.01624161536517
 20
-592.91774051278003
 30
0.0
 11
642.01624161536506
 21
-592.91774051278003
 31
0.0
  0
LINE
  5
1F6A7
  8
01
 10
675.9198314538545
 20
-644.32133035126617
 30
0.0
 11
675.9198314538545
 21
-667.32133035126606
 31
0.0
  0
ARC
  5
1F6A8
  8
01
 10
676.91983145385439
 20
-667.32133035126606
 30
0.0
 40
1.0
 50
180.0
 51
270.0
  0
LINE
  5
1F6B8
  8
01
 10
676.91983145385439
 20
-643.32133035126606
 30
0.0
 11
690.9198314538545
 21
-643.32133035126606
 31
0.0
  0
ARC
  5
1F6B9
  8
01
 10
676.91983145385439
 20
-644.32133035126617
 30
0.0
 40
1.0
 50
90.0
 51
180.0
  0
LINE
  5
1F6BA
  8
01
 10
676.91983145385439
 20
-668.32133035126606
 30
0.0
 11
690.9198314538545
 21
-668.32133035126606
 31
0.0
  0
ARC
  5
1F6BC
  8
01
 10
690.9198314538545
 20
-663.32133035126606
 30
0.0
 40
5.0
 50
270.0
 51
0.0
  0
ARC
  5
1F6BD
  8
01
 10
690.9198314538545
 20
-648.32133035126617
 30
0.0
 40
5.0
 50
0.0
 51
90.0
  0
LINE
  5
1F6C3
  8
01
 10
695.24995847277569
 20
-645.82133035126435
 30
0.0
 11
713.01624161536495
 21
-645.82133035126435
 31
0.0
  0
LINE
  5
1F6C5
  8
01
 10
695.24995847277728
 20
-665.82133035126526
 30
0.0
 11
713.01624161536495
 21
-665.82133035126435
 31
0.0
  0
LINE
  5
1F6C8
  8
01
 10
713.01624161536495
 20
-645.82133035126435
 30
0.0
 11
713.01624161536495
 21
-665.82133035126435
 31
0.0
  0
LINE
  5
1F6E1
  8
1PHANTOM
 10
711.01624161536472
 20
-647.57133035126606
 30
0.0
 11
713.01624161536495
 21
-647.57133035126606
 31
0.0
  0
LINE
  5
1F6E2
  8
1PHANTOM
 10
711.01624161536472
 20
-664.07133035126606
 30
0.0
 11
713.01624161536495
 21
-664.07133035126606
 31
0.0
  0
LINE
  5
1F6E3
  8
01
 10
713.01624161536495
 20
-664.07133035126606
 30
0.0
 11
713.01624161536495
 21
-647.57133035126606
 31
0.0
  0
LINE
  5
1F6E9
  8
1PHANTOM
 10
710.01624161536472
 20
-663.07133035126617
 30
0.0
 11
710.01624161536199
 21
-648.5713303512664
 31
0.0
  0
ARC
  5
1F6EA
  8
1PHANTOM
 10
711.01624161536472
 20
-663.07133035126617
 30
0.0
 40
1.0
 50
180.0
 51
270.0
  0
ARC
  5
1F6EC
  8
1PHANTOM
 10
711.01624161536472
 20
-648.57133035126606
 30
0.0
 40
1.0
 50
90.0
 51
180.0
  0
LINE
  5
1F6EF
  8
1PHANTOM
 10
689.51624161536427
 20
-661.82133035126617
 30
0.0
 11
689.51624161536427
 21
-649.82133035126606
 31
0.0
  0
LINE
  5
1F6F2
  8
1PHANTOM
 10
689.51624161536427
 20
-661.82133035126617
 30
0.0
 11
710.01624161536472
 21
-661.82133035126617
 31
0.0
  0
LINE
  5
1F6FC
  8
1PHANTOM
 10
689.51624161536427
 20
-649.82133035126606
 30
0.0
 11
710.01624161536472
 21
-649.82133035126606
 31
0.0
  0
CIRCLE
  5
1F70D
  8
1PHANTOM
 10
421.01624161536529
 20
-655.8213303512664
 30
0.0
 40
2.25
  0
CIRCLE
  5
1F70E
  8
1PHANTOM
 10
467.016241615365
 20
-655.8213303512664
 30
0.0
 40
2.25
  0
CIRCLE
  5
1F70F
  8
1PHANTOM
 10
485.016241615365
 20
-655.8213303512664
 30
0.0
 40
2.25
  0
LINE
  5
1F71A
  8
01
 10
415.51624161536438
 20
-555.8213303512664
 30
0.0
 11
490.5162416153654
 21
-555.8213303512664
 31
0.0
  0
LINE
  5
1F71B
  8
01
 10
416.51624161536449
 20
-562.8213303512664
 30
0.0
 11
440.01624161536489
 21
-562.8213303512664
 31
0.0
  0
ARC
  5
1F71C
  8
01
 10
440.01624161536489
 20
-565.82133035126628
 30
0.0
 40
3.0
 50
0.0
 51
90.0
  0
LINE
  5
1F71D
  8
01
 10
466.0162416153658
 20
-562.8213303512664
 30
0.0
 11
489.51624161536529
 21
-562.8213303512664
 31
0.0
  0
ARC
  5
1F71E
  8
01
 10
489.51624161536529
 20
-561.82133035126628
 30
0.0
 40
1.0
 50
270.0
 51
0.0
  0
ARC
  5
1F71F
  8
01
 10
466.0162416153658
 20
-565.82133035126628
 30
0.0
 40
3.0
 50
90.0
 51
180.0
  0
LINE
  5
1F720
  8
01
 10
415.51624161536438
 20
-561.82133035126628
 30
0.0
 11
415.51624161536438
 21
-555.8213303512664
 31
0.0
  0
ARC
  5
1F721
  8
01
 10
416.51624161536449
 20
-561.82133035126628
 30
0.0
 40
1.0
 50
180.0
 51
270.0
  0
LINE
  5
1F722
  8
01
 10
490.5162416153654
 20
-561.82133035126628
 30
0.0
 11
490.5162416153654
 21
-555.8213303512664
 31
0.0
  0
LINE
  5
1F723
  8
01
 10
443.01624161536489
 20
-585.5713303512664
 30
0.0
 11
463.01624161536557
 21
-585.5713303512664
 31
0.0
  0
LINE
  5
1F724
  8
01
 10
443.01624161536489
 20
-585.5713303512664
 30
0.0
 11
443.01624161536489
 21
-565.82133035126628
 31
0.0
  0
LINE
  5
1F725
  8
01
 10
463.01624161536557
 20
-585.5713303512664
 30
0.0
 11
463.0162416153658
 21
-565.82133035126628
 31
0.0
  0
LINE
  5
1F730
  8
1PHANTOM
 10
702.01624161536506
 20
-655.8213303512664
 30
0.0
 11
697.01624161536517
 21
-655.82133035126628
 31
0.0
  0
LINE
  5
1F731
  8
1PHANTOM
 10
704.51624161536506
 20
-665.0713303512664
 30
0.0
 11
694.51624161536506
 21
-665.07133035126617
 31
0.0
  0
LINE
  5
1F732
  8
1PHANTOM
 10
701.61624161536531
 20
-655.42133035126676
 30
0.0
 11
701.61624161536531
 21
-662.17133035126676
 31
0.0
  0
LINE
  5
1F733
  8
1PHANTOM
 10
697.41624161536515
 20
-655.42133035126665
 30
0.0
 11
697.41624161536515
 21
-662.17133035126665
 31
0.0
  0
LINE
  5
1F734
  8
1PHANTOM
 10
701.61624161536531
 20
-655.42133035126676
 30
0.0
 11
697.41624161536515
 21
-655.42133035126665
 31
0.0
  0
LINE
  5
1F735
  8
1PHANTOM
 10
702.01624161536506
 20
-662.5713303512664
 30
0.0
 11
701.61624161536531
 21
-662.17133035126676
 31
0.0
  0
LINE
  5
1F736
  8
1PHANTOM
 10
697.01624161536517
 20
-662.57133035126628
 30
0.0
 11
697.41624161536515
 21
-662.17133035126665
 31
0.0
  0
LINE
  5
1F746
  8
1CENTER
 10
699.5162416153654
 20
-653.78617194934907
 30
0.0
 11
699.5162416153654
 21
-666.85749155519136
 31
0.0
  0
LINE
  5
1F89D
  8
01
 10
695.9198314538545
 20
-648.32133035126617
 30
0.0
 11
695.9198314538545
 21
-663.32133035126606
 31
0.0
  0
LINE
  5
1F89E
  8
01
 10
706.01624161536495
 20
-664.82133035126469
 30
0.0
 11
706.01624161536495
 21
-646.82133035126435
 31
0.0
  0
ARC
  5
1F89F
  8
01
 10
707.01624161536495
 20
-646.82133035126435
 30
0.0
 40
1.0
 50
90.0
 51
180.0
  0
ARC
  5
1F8A0
  8
01
 10
707.01624161536495
 20
-664.82133035126469
 30
0.0
 40
1.0
 50
180.0
 51
270.00000000000369
  0
LINE
  5
1F8D7
  8
1CENTER
 10
418.09124161536528
 20
-655.82133035126628
 30
0.0
 11
423.9412416153653
 21
-655.82133035126628
 31
0.0
  0
LINE
  5
1F8D8
  8
1CENTER
 10
421.01624161536529
 20
-658.74633035126624
 30
0.0
 11
421.01624161536529
 21
-652.89633035126622
 31
0.0
  0
LINE
  5
1F8D9
  8
1CENTER
 10
436.09124161536528
 20
-655.82133035126628
 30
0.0
 11
441.9412416153653
 21
-655.82133035126628
 31
0.0
  0
LINE
  5
1F8DA
  8
1CENTER
 10
439.01624161536517
 20
-660.95045547382392
 30
0.0
 11
439.01624161536517
 21
-650.69220522870864
 31
0.0
  0
LINE
  5
1F8DB
  8
1CENTER
 10
464.09124161536511
 20
-655.82133035126628
 30
0.0
 11
469.94124161536507
 21
-655.82133035126628
 31
0.0
  0
LINE
  5
1F8DC
  8
1CENTER
 10
467.01624161536512
 20
-658.74633035126624
 30
0.0
 11
467.01624161536512
 21
-652.89633035126622
 31
0.0
  0
LINE
  5
1F8DD
  8
1CENTER
 10
482.09124161536499
 20
-655.82133035126628
 30
0.0
 11
487.94124161536502
 21
-655.82133035126628
 31
0.0
  0
LINE
  5
1F8DE
  8
1CENTER
 10
485.016241615365
 20
-658.74633035126624
 30
0.0
 11
485.016241615365
 21
-652.89633035126622
 31
0.0
  0
LINE
  5
1F956
  8
1PHANTOM
 10
415.516241615365
 20
-650.3213303512689
 30
0.0
 11
415.51624161536517
 21
-661.32133035126878
 31
0.0
  0
ARC
  5
1F957
  8
1PHANTOM
 10
420.016241615365
 20
-650.3213303512689
 30
0.0
 40
4.5
 50
90.0
 51
180.0
  0
LINE
  5
1F958
  8
1PHANTOM
 10
490.516241615365
 20
-650.3213303512689
 30
0.0
 11
490.51624161536517
 21
-661.32133035126878
 31
0.0
  0
ARC
  5
1F959
  8
1PHANTOM
 10
486.01624161536517
 20
-661.32133035126878
 30
0.0
 40
4.5
 50
270.0
 51
0.0
  0
LINE
  5
1F95A
  8
1PHANTOM
 10
486.016241615365
 20
-645.8213303512689
 30
0.0
 11
420.016241615365
 21
-645.8213303512689
 31
0.0
  0
ARC
  5
1F95B
  8
1PHANTOM
 10
486.016241615365
 20
-650.3213303512689
 30
0.0
 40
4.5
 50
0.0
 51
90.0
  0
LINE
  5
1F95C
  8
1PHANTOM
 10
486.01624161536517
 20
-665.82133035126878
 30
0.0
 11
420.01624161536517
 21
-665.82133035126878
 31
0.0
  0
ARC
  5
1F95D
  8
1PHANTOM
 10
420.01624161536517
 20
-661.32133035126878
 30
0.0
 40
4.5
 50
180.0
 51
270.0
  0
LINE
  5
1F962
  8
1PHANTOM
 10
443.016241615365
 20
-664.82133035126515
 30
0.0
 11
443.01624161536552
 21
-646.82133035126515
 31
0.0
  0
ARC
  5
1F963
  8
1PHANTOM
 10
444.01624161536512
 20
-664.82133035126515
 30
0.0
 40
1.0
 50
180.0
 51
270.0
  0
LINE
  5
1F964
  8
1PHANTOM
 10
463.016241615365
 20
-664.82133035126515
 30
0.0
 11
463.01624161536529
 21
-646.82133035126515
 31
0.0
  0
ARC
  5
1F965
  8
1PHANTOM
 10
444.01624161536552
 20
-646.82133035126515
 30
0.0
 40
1.0
 50
90.0
 51
180.0
  0
ARC
  5
1F966
  8
1PHANTOM
 10
462.01624161536529
 20
-646.82133035126515
 30
0.0
 40
1.0
 50
0.0
 51
90.0
  0
ARC
  5
1F967
  8
1PHANTOM
 10
462.016241615365
 20
-664.82133035126515
 30
0.0
 40
1.0
 50
270.0
 51
0.0
  0
LINE
  5
1F992
  8
1PHANTOM
 10
439.51624146846962
 20
-558.82133035126685
 30
0.0
 11
438.51624176846951
 21
-557.82133035126685
 31
0.0
  0
LINE
  5
1F993
  8
1PHANTOM
 10
442.81624161846952
 20
-558.82133035126685
 30
0.0
 11
442.81624161846952
 21
-557.82133035126685
 31
0.0
  0
LINE
  5
1F994
  8
1PHANTOM
 10
442.81624161846952
 20
-557.82133035126685
 30
0.0
 11
435.21624161846961
 21
-557.82133035126685
 31
0.0
  0
LINE
  5
1F995
  8
1PHANTOM
 10
442.81624161846952
 20
-558.82133035126685
 30
0.0
 11
435.21624161846961
 21
-558.82133035126685
 31
0.0
  0
LINE
  5
1F996
  8
1PHANTOM
 10
435.21624161846961
 20
-558.82133035126685
 30
0.0
 11
435.21624161846961
 21
-557.82133035126685
 31
0.0
  0
LINE
  5
1F999
  8
1PHANTOM
 10
467.51624146846939
 20
-558.82133035126685
 30
0.0
 11
466.5162417684694
 21
-557.82133035126685
 31
0.0
  0
LINE
  5
1F99A
  8
1PHANTOM
 10
470.81624161846941
 20
-558.82133035126685
 30
0.0
 11
470.81624161846941
 21
-557.82133035126685
 31
0.0
  0
LINE
  5
1F99B
  8
1PHANTOM
 10
470.81624161846941
 20
-557.82133035126685
 30
0.0
 11
463.21624161846938
 21
-557.82133035126685
 31
0.0
  0
LINE
  5
1F99C
  8
1PHANTOM
 10
470.81624161846941
 20
-558.82133035126685
 30
0.0
 11
463.21624161846938
 21
-558.82133035126685
 31
0.0
  0
LINE
  5
1F99D
  8
1PHANTOM
 10
463.21624161846938
 20
-558.82133035126685
 30
0.0
 11
463.21624161846938
 21
-557.82133035126685
 31
0.0
  0
LINE
  5
1F9A0
  8
1PHANTOM
 10
485.51624146846927
 20
-558.82133035126685
 30
0.0
 11
484.5162417684694
 21
-557.82133035126685
 31
0.0
  0
LINE
  5
1F9A1
  8
1PHANTOM
 10
488.81624161846929
 20
-558.82133035126685
 30
0.0
 11
488.81624161846929
 21
-557.82133035126685
 31
0.0
  0
LINE
  5
1F9A2
  8
1PHANTOM
 10
488.81624161846929
 20
-557.82133035126685
 30
0.0
 11
481.21624161846938
 21
-557.82133035126685
 31
0.0
  0
LINE
  5
1F9A3
  8
1PHANTOM
 10
488.81624161846929
 20
-558.82133035126685
 30
0.0
 11
481.21624161846938
 21
-558.82133035126685
 31
0.0
  0
LINE
  5
1F9A4
  8
1PHANTOM
 10
481.21624161846938
 20
-558.82133035126685
 30
0.0
 11
481.21624161846938
 21
-557.82133035126685
 31
0.0
  0
ARC
  5
1FA31
  8
1PHANTOM
 10
439.01624161536478
 20
-653.82133035126628
 30
0.0
 40
2.25
 50
0.0
 51
180.0
  0
ARC
  5
1FA32
  8
1PHANTOM
 10
439.01624161536478
 20
-657.82133035126628
 30
0.0
 40
2.25
 50
180.0
 51
0.0
  0
LINE
  5
1FA33
  8
1PHANTOM
 10
436.76624161536478
 20
-657.82133035126628
 30
0.0
 11
436.76624161536478
 21
-653.82133035126628
 31
0.0
  0
LINE
  5
1FA34
  8
1PHANTOM
 10
441.26624161536478
 20
-657.82133035126628
 30
0.0
 11
441.26624161536478
 21
-653.82133035126628
 31
0.0
  0
TEXT
  5
1FA7D
  8
01
 10
732.88917527135266
 20
-611.3902613041472
 30
0.0
 40
3.5
  1
合板9mm以上
  0
TEXT
  5
1FA7E
  8
01
 10
719.75375712618745
 20
-611.3902613041472
 30
0.0
 40
3.5
  1
PB
  0
TEXT
  5
1FA7F
  8
1DIM
 10
504.37995163457498
 20
-560.54046520407485
 30
0.0
 40
3.5
  1
材質：亜鉛ダイキャスト
  0
TEXT
  5
1FA80
  8
1DIM
 10
504.37995163457498
 20
-566.37379853740822
 30
0.0
 40
3.5
  1
仕上げ：クローム
  0
SOLID
  5
1FA81
  8
1DIM
 10
462.98165697183867
 20
-577.70539884359926
 30
0.0
 11
460.96095671169081
 21
-577.87237659585833
 31
0.0
 12
462.81827498407108
 22
-577.05906242151127
 32
0.0
 13
462.81827498407108
 23
-577.05906242151127
 33
0.0
1001
ACAD
1000
DSTYLE
1002
{
1070
    45
1040
0.5
1002
}
  0
LINE
  5
1FA83
  8
0
 10
485.01628815126298
 20
-523.82133035142908
 30
0.0
 11
483.51628815126293
 21
-529.12132686129075
 31
0.0
  0
LINE
  5
1FA84
  8
0
 10
483.51628815126293
 20
-529.12132686129075
 30
0.0
 11
483.51628815126321
 21
-558.8213268611828
 31
0.0
  0
LINE
  5
1FA85
  8
0
 10
485.01628815126298
 20
-523.82133035142908
 30
0.0
 11
486.51628815126298
 21
-529.12133384167453
 31
0.0
  0
LINE
  5
1FA86
  8
0
 10
481.51624161536512
 20
-558.82132220748463
 30
0.0
 11
488.516241615365
 21
-558.82133849504896
 31
0.0
  0
LINE
  5
1FA87
  8
0
 10
486.51628815126298
 20
-529.12133384167453
 30
0.0
 11
486.51628815126321
 21
-558.82133384156737
 31
0.0
  0
LINE
  5
1FA88
  8
0
 10
481.51624161536512
 20
-558.82132220748463
 30
0.0
 11
481.51624161536512
 21
-559.92132569768
 31
0.0
  0
ARC
  5
1FA89
  8
0
 10
483.016241615365
 20
-559.92132569768
 30
0.0
 40
1.5
 50
180.0
 51
269.99986668446837
  0
LINE
  5
1FA8A
  8
0
 10
488.516241615365
 20
-558.82133849504896
 30
0.0
 11
488.516241615365
 21
-559.92133500485966
 31
0.0
  0
LINE
  5
1FA8B
  8
0
 10
483.01623812517261
 20
-561.42132569767591
 30
0.0
 11
487.01623812517261
 21
-561.42133500485545
 31
0.0
  0
ARC
  5
1FA8C
  8
0
 10
487.016241615365
 20
-559.92133500485966
 30
0.0
 40
1.5
 50
269.99986668446837
 51
0.0
  0
LINE
  5
1FA8D
  8
1CENTER
 10
485.016241615365
 20
-522.39053543396369
 30
0.0
 11
485.016241615365
 21
-562.49160676057568
 31
0.0
  0
LINE
  5
1FA8E
  8
0
 10
483.92191780136989
 20
-525.92132780510701
 30
0.0
 11
485.88425289024542
 21
-525.12133237105604
 31
0.0
  0
LINE
  5
1FA8F
  8
0
 10
485.88425289024542
 20
-525.12133237105604
 30
0.0
 11
485.29597631520289
 21
-524.80956251480393
 31
0.0
  0
LINE
  5
1FA90
  8
0
 10
483.01628815126293
 20
-548.3213256978969
 30
0.0
 11
487.01628815126293
 21
-547.52133500507875
 31
0.0
  0
LINE
  5
1FA91
  8
0
 10
483.01628815126293
 20
-537.12132569789264
 30
0.0
 11
487.01628815126293
 21
-536.32133500506995
 31
0.0
  0
LINE
  5
1FA92
  8
0
 10
483.01628815126293
 20
-533.9213256978926
 30
0.0
 11
487.01628815126293
 21
-533.12133500507002
 31
0.0
  0
LINE
  5
1FA93
  8
0
 10
487.01628815126293
 20
-533.12133500507002
 30
0.0
 11
486.51628815126293
 21
-533.0213338416728
 31
0.0
  0
LINE
  5
1FA94
  8
0
 10
483.51628815126293
 20
-532.4213268612898
 30
0.0
 11
483.01628815126293
 21
-532.32132569789258
 31
0.0
  0
LINE
  5
1FA95
  8
0
 10
487.01628815126293
 20
-536.32133500506995
 30
0.0
 11
486.51628815126293
 21
-536.22133384167284
 31
0.0
  0
LINE
  5
1FA96
  8
0
 10
487.01628815126293
 20
-534.72133500506993
 30
0.0
 11
486.51628815126293
 21
-534.62133384167282
 31
0.0
  0
LINE
  5
1FA97
  8
0
 10
483.51628815126293
 20
-534.02132686128971
 30
0.0
 11
483.01628815126293
 21
-533.9213256978926
 31
0.0
  0
LINE
  5
1FA98
  8
0
 10
483.51628815126293
 20
-535.62132686128962
 30
0.0
 11
483.01628815126293
 21
-535.52132569789251
 31
0.0
  0
LINE
  5
1FA99
  8
0
 10
483.01628815126293
 20
-535.52132569789251
 30
0.0
 11
487.01628815126293
 21
-534.72133500506993
 31
0.0
  0
LINE
  5
1FA9A
  8
0
 10
486.33706699465222
 20
-526.72133342466157
 30
0.0
 11
485.78531753084889
 21
-526.53856928203368
 31
0.0
  0
LINE
  5
1FA9B
  8
0
 10
487.01628815126293
 20
-529.92133500506986
 30
0.0
 11
486.51628815126293
 21
-529.82133384167275
 31
0.0
  0
LINE
  5
1FA9C
  8
0
 10
487.01628815126293
 20
-531.52133500507
 30
0.0
 11
486.51628815126293
 21
-531.42133384167289
 31
0.0
  0
LINE
  5
1FA9D
  8
0
 10
486.78988109905902
 20
-528.32133447826732
 30
0.0
 11
486.25328736378788
 21
-528.19206378063745
 31
0.0
  0
LINE
  5
1FA9E
  8
0
 10
483.93720274847158
 20
-527.63409626385283
 30
0.0
 11
483.46910429332172
 21
-527.52132675150267
 31
0.0
  0
LINE
  5
1FA9F
  8
0
 10
483.51628815126293
 20
-530.82132686128955
 30
0.0
 11
483.01628815126293
 21
-530.72132569789255
 31
0.0
  0
LINE
  5
1FAA0
  8
0
 10
483.51628815126293
 20
-529.22132686128975
 30
0.0
 11
483.01628815126293
 21
-529.12132569789264
 31
0.0
  0
LINE
  5
1FAA1
  8
0
 10
484.37908964200102
 20
-526.07276360154742
 30
0.0
 11
483.92191780136989
 21
-525.92132780510701
 31
0.0
  0
LINE
  5
1FAA2
  8
0
 10
483.46910429332172
 20
-527.52132675150267
 30
0.0
 11
486.33706699465222
 21
-526.72133342466157
 31
0.0
  0
LINE
  5
1FAA3
  8
0
 10
483.01628815126293
 20
-530.72132569789255
 30
0.0
 11
487.01628815126293
 21
-529.92133500506986
 31
0.0
  0
LINE
  5
1FAA4
  8
0
 10
483.01628815126293
 20
-529.12132569789264
 30
0.0
 11
486.78988109905902
 21
-528.32133447826732
 31
0.0
  0
LINE
  5
1FAA5
  8
0
 10
483.01628815126293
 20
-532.32132569789258
 30
0.0
 11
487.01628815126293
 21
-531.52133500507
 31
0.0
  0
LINE
  5
1FAA6
  8
0
 10
483.01628815126293
 20
-545.12132569789685
 30
0.0
 11
487.01628815126293
 21
-544.32133500507871
 31
0.0
  0
LINE
  5
1FAA7
  8
0
 10
487.01628815126293
 20
-544.32133500507871
 30
0.0
 11
486.51628815126293
 21
-544.22133384168103
 31
0.0
  0
LINE
  5
1FAA8
  8
0
 10
483.51628815126293
 20
-543.62132686129019
 30
0.0
 11
483.01628815126293
 21
-543.52132569789262
 31
0.0
  0
LINE
  5
1FAA9
  8
0
 10
487.01628815126293
 20
-545.92133500507884
 30
0.0
 11
486.51628815126293
 21
-545.82133384168105
 31
0.0
  0
LINE
  5
1FAAA
  8
0
 10
487.01628815126293
 20
-547.52133500507875
 30
0.0
 11
486.51628815126293
 21
-547.42133384168096
 31
0.0
  0
LINE
  5
1FAAB
  8
0
 10
483.51628815126293
 20
-545.22132686129464
 30
0.0
 11
483.01628815126293
 21
-545.12132569789685
 31
0.0
  0
LINE
  5
1FAAC
  8
0
 10
483.51628815126293
 20
-546.82132686129478
 30
0.0
 11
483.01628815126293
 21
-546.7213256978971
 31
0.0
  0
LINE
  5
1FAAD
  8
0
 10
483.01628815126293
 20
-546.7213256978971
 30
0.0
 11
487.01628815126293
 21
-545.92133500507884
 31
0.0
  0
LINE
  5
1FAAE
  8
0
 10
487.01628815126293
 20
-539.52133500507432
 30
0.0
 11
486.51628815126293
 21
-539.42133384167664
 31
0.0
  0
LINE
  5
1FAAF
  8
0
 10
487.01628815126293
 20
-537.92133500506986
 30
0.0
 11
486.51628815126293
 21
-537.82133384167275
 31
0.0
  0
LINE
  5
1FAB0
  8
0
 10
487.01628815126293
 20
-542.72133500507437
 30
0.0
 11
486.51628815126293
 21
-542.62133384167669
 31
0.0
  0
LINE
  5
1FAB1
  8
0
 10
487.01628815126293
 20
-541.12133500507446
 30
0.0
 11
486.51628815126293
 21
-541.02133384167678
 31
0.0
  0
LINE
  5
1FAB2
  8
0
 10
483.51628815126293
 20
-537.22132686128975
 30
0.0
 11
483.01628815126293
 21
-537.12132569789264
 31
0.0
  0
LINE
  5
1FAB3
  8
0
 10
483.51628815126293
 20
-538.82132686129034
 30
0.0
 11
483.01628815126293
 21
-538.72132569789255
 31
0.0
  0
LINE
  5
1FAB4
  8
0
 10
483.51628815126293
 20
-542.02132686129028
 30
0.0
 11
483.01628815126293
 21
-541.92132569789271
 31
0.0
  0
LINE
  5
1FAB5
  8
0
 10
483.51628815126293
 20
-540.42132686129025
 30
0.0
 11
483.01628815126293
 21
-540.32132569789258
 31
0.0
  0
LINE
  5
1FAB6
  8
0
 10
483.01628815126293
 20
-540.32132569789258
 30
0.0
 11
487.01628815126293
 21
-539.52133500507432
 31
0.0
  0
LINE
  5
1FAB7
  8
0
 10
483.01628815126293
 20
-538.72132569789255
 30
0.0
 11
487.01628815126293
 21
-537.92133500506986
 31
0.0
  0
LINE
  5
1FAB8
  8
0
 10
483.01628815126293
 20
-541.92132569789271
 30
0.0
 11
487.01628815126293
 21
-541.12133500507446
 31
0.0
  0
LINE
  5
1FAB9
  8
0
 10
483.01628815126293
 20
-543.52132569789262
 30
0.0
 11
487.01628815126293
 21
-542.72133500507437
 31
0.0
  0
LINE
  5
1FABA
  8
0
 10
483.51628815126293
 20
-553.22132686129885
 30
0.0
 11
483.01628815126293
 21
-553.12132569790106
 31
0.0
  0
LINE
  5
1FABB
  8
0
 10
483.01628815126293
 20
-553.12132569790106
 30
0.0
 11
487.01628815126293
 21
-552.32133500508291
 31
0.0
  0
LINE
  5
1FABC
  8
0
 10
487.01628815126293
 20
-552.32133500508291
 30
0.0
 11
486.51628815126293
 21
-552.22133384168524
 31
0.0
  0
LINE
  5
1FABD
  8
0
 10
483.51628815126293
 20
-551.62132686129894
 30
0.0
 11
483.01628815126293
 21
-551.52132569790115
 31
0.0
  0
LINE
  5
1FABE
  8
0
 10
483.51628815126293
 20
-550.02132686129903
 30
0.0
 11
483.01628815126293
 21
-549.92132569790135
 31
0.0
  0
LINE
  5
1FABF
  8
0
 10
483.01628815126293
 20
-549.92132569790135
 30
0.0
 11
487.01628815126293
 21
-549.1213350050831
 31
0.0
  0
LINE
  5
1FAC0
  8
0
 10
487.01628815126293
 20
-550.72133500508301
 30
0.0
 11
486.51628815126293
 21
-550.62133384168533
 31
0.0
  0
LINE
  5
1FAC1
  8
0
 10
487.01628815126293
 20
-549.1213350050831
 30
0.0
 11
486.51628815126293
 21
-549.02133384168542
 31
0.0
  0
LINE
  5
1FAC2
  8
0
 10
483.01628815126293
 20
-551.52132569790115
 30
0.0
 11
487.01628815126293
 21
-550.72133500508301
 31
0.0
  0
LINE
  5
1FAC3
  8
0
 10
483.51628815126293
 20
-548.42132686129457
 30
0.0
 11
483.01628815126293
 21
-548.3213256978969
 31
0.0
  0
LINE
  5
1FAC4
  8
0
 10
483.51628815126293
 20
-554.82132686129864
 30
0.0
 11
483.01628815126293
 21
-554.72132569790097
 31
0.0
  0
LINE
  5
1FAC5
  8
0
 10
483.01628815126293
 20
-554.72132569790097
 30
0.0
 11
487.01628815126293
 21
-553.92133500508282
 31
0.0
  0
LINE
  5
1FAC6
  8
0
 10
487.01628815126293
 20
-553.92133500508282
 30
0.0
 11
486.51628815126293
 21
-553.82133384168515
 31
0.0
  0
LINE
  5
1FAC7
  8
0
 10
483.51628815126293
 20
-556.42132686129855
 30
0.0
 11
483.01628815126293
 21
-556.32132569790087
 31
0.0
  0
LINE
  5
1FAC8
  8
0
 10
483.01628815126293
 20
-556.32132569790087
 30
0.0
 11
487.01628815126293
 21
-555.52133500508273
 31
0.0
  0
LINE
  5
1FAC9
  8
0
 10
487.01628815126293
 20
-555.52133500508273
 30
0.0
 11
486.51628815126293
 21
-555.42133384168505
 31
0.0
  0
LINE
  5
1FACA
  8
0
 10
483.51628815126293
 20
-558.02132686129846
 30
0.0
 11
483.01628815126293
 21
-557.92132569790078
 31
0.0
  0
LINE
  5
1FACB
  8
0
 10
483.01628815126293
 20
-557.92132569790078
 30
0.0
 11
487.01628815126293
 21
-557.12133500508264
 31
0.0
  0
LINE
  5
1FACC
  8
0
 10
487.01628815126293
 20
-557.12133500508264
 30
0.0
 11
486.51628815126293
 21
-557.02133384168485
 31
0.0
  0
LINE
  5
1FACD
  8
0
 10
467.01628815126298
 20
-523.82133035142908
 30
0.0
 11
465.51628815126298
 21
-529.12132686129075
 31
0.0
  0
LINE
  5
1FACE
  8
0
 10
465.51628815126298
 20
-529.12132686129075
 30
0.0
 11
465.51628815126321
 21
-558.8213268611828
 31
0.0
  0
LINE
  5
1FACF
  8
0
 10
467.01628815126298
 20
-523.82133035142908
 30
0.0
 11
468.5162881512631
 21
-529.12133384167453
 31
0.0
  0
LINE
  5
1FAD0
  8
0
 10
463.51624161536517
 20
-558.82132220748463
 30
0.0
 11
470.51624161536512
 21
-558.82133849504896
 31
0.0
  0
LINE
  5
1FAD1
  8
0
 10
468.5162881512631
 20
-529.12133384167453
 30
0.0
 11
468.51628815126321
 21
-558.82133384156737
 31
0.0
  0
LINE
  5
1FAD2
  8
0
 10
463.51624161536517
 20
-558.82132220748463
 30
0.0
 11
463.51624161536512
 21
-559.92132569768
 31
0.0
  0
ARC
  5
1FAD3
  8
0
 10
465.01624161536512
 20
-559.92132569768
 30
0.0
 40
1.5
 50
180.0
 51
269.99986668446837
  0
LINE
  5
1FAD4
  8
0
 10
470.51624161536512
 20
-558.82133849504896
 30
0.0
 11
470.51624161536512
 21
-559.92133500485966
 31
0.0
  0
LINE
  5
1FAD5
  8
0
 10
465.01623812517261
 20
-561.42132569767591
 30
0.0
 11
469.01623812517272
 21
-561.42133500485545
 31
0.0
  0
ARC
  5
1FAD6
  8
0
 10
469.01624161536512
 20
-559.92133500485966
 30
0.0
 40
1.5
 50
269.99986668446837
 51
0.0
  0
LINE
  5
1FAD7
  8
1CENTER
 10
467.01624161536512
 20
-522.39053543396369
 30
0.0
 11
467.01624161536512
 21
-562.49160676057568
 31
0.0
  0
LINE
  5
1FAD8
  8
0
 10
465.92191780137
 20
-525.92132780510701
 30
0.0
 11
467.88425289024542
 21
-525.12133237105604
 31
0.0
  0
LINE
  5
1FAD9
  8
0
 10
467.88425289024542
 20
-525.12133237105604
 30
0.0
 11
467.29597631520301
 21
-524.80956251480393
 31
0.0
  0
LINE
  5
1FADA
  8
0
 10
465.01628815126298
 20
-548.3213256978969
 30
0.0
 11
469.01628815126298
 21
-547.52133500507875
 31
0.0
  0
LINE
  5
1FADB
  8
0
 10
465.01628815126298
 20
-537.12132569789264
 30
0.0
 11
469.01628815126298
 21
-536.32133500506995
 31
0.0
  0
LINE
  5
1FADC
  8
0
 10
465.01628815126298
 20
-533.9213256978926
 30
0.0
 11
469.01628815126298
 21
-533.12133500507002
 31
0.0
  0
LINE
  5
1FADD
  8
0
 10
469.01628815126298
 20
-533.12133500507002
 30
0.0
 11
468.51628815126298
 21
-533.0213338416728
 31
0.0
  0
LINE
  5
1FADE
  8
0
 10
465.51628815126298
 20
-532.4213268612898
 30
0.0
 11
465.01628815126298
 21
-532.32132569789258
 31
0.0
  0
LINE
  5
1FADF
  8
0
 10
469.01628815126298
 20
-536.32133500506995
 30
0.0
 11
468.51628815126298
 21
-536.22133384167284
 31
0.0
  0
LINE
  5
1FAE0
  8
0
 10
469.01628815126298
 20
-534.72133500506993
 30
0.0
 11
468.51628815126298
 21
-534.62133384167282
 31
0.0
  0
LINE
  5
1FAE1
  8
0
 10
465.51628815126298
 20
-534.02132686128971
 30
0.0
 11
465.01628815126298
 21
-533.9213256978926
 31
0.0
  0
LINE
  5
1FAE2
  8
0
 10
465.51628815126298
 20
-535.62132686128962
 30
0.0
 11
465.01628815126298
 21
-535.52132569789251
 31
0.0
  0
LINE
  5
1FAE3
  8
0
 10
465.01628815126298
 20
-535.52132569789251
 30
0.0
 11
469.01628815126298
 21
-534.72133500506993
 31
0.0
  0
LINE
  5
1FAE4
  8
0
 10
468.33706699465228
 20
-526.72133342466157
 30
0.0
 11
467.785317530849
 21
-526.53856928203368
 31
0.0
  0
LINE
  5
1FAE5
  8
0
 10
469.01628815126298
 20
-529.92133500506986
 30
0.0
 11
468.51628815126298
 21
-529.82133384167275
 31
0.0
  0
LINE
  5
1FAE6
  8
0
 10
469.01628815126298
 20
-531.52133500507
 30
0.0
 11
468.51628815126298
 21
-531.42133384167289
 31
0.0
  0
LINE
  5
1FAE7
  8
0
 10
468.78988109905902
 20
-528.32133447826732
 30
0.0
 11
468.25328736378788
 21
-528.19206378063745
 31
0.0
  0
LINE
  5
1FAE8
  8
0
 10
465.93720274847169
 20
-527.63409626385283
 30
0.0
 11
465.46910429332172
 21
-527.52132675150267
 31
0.0
  0
LINE
  5
1FAE9
  8
0
 10
465.51628815126298
 20
-530.82132686128955
 30
0.0
 11
465.01628815126298
 21
-530.72132569789255
 31
0.0
  0
LINE
  5
1FAEA
  8
0
 10
465.51628815126298
 20
-529.22132686128975
 30
0.0
 11
465.01628815126298
 21
-529.12132569789264
 31
0.0
  0
LINE
  5
1FAEB
  8
0
 10
466.37908964200108
 20
-526.07276360154742
 30
0.0
 11
465.92191780137
 21
-525.92132780510701
 31
0.0
  0
LINE
  5
1FAEC
  8
0
 10
465.46910429332172
 20
-527.52132675150267
 30
0.0
 11
468.33706699465228
 21
-526.72133342466157
 31
0.0
  0
LINE
  5
1FAED
  8
0
 10
465.01628815126298
 20
-530.72132569789255
 30
0.0
 11
469.01628815126298
 21
-529.92133500506986
 31
0.0
  0
LINE
  5
1FAEE
  8
0
 10
465.01628815126298
 20
-529.12132569789264
 30
0.0
 11
468.78988109905902
 21
-528.32133447826732
 31
0.0
  0
LINE
  5
1FAEF
  8
0
 10
465.01628815126298
 20
-532.32132569789258
 30
0.0
 11
469.01628815126298
 21
-531.52133500507
 31
0.0
  0
LINE
  5
1FAF0
  8
0
 10
465.01628815126298
 20
-545.12132569789685
 30
0.0
 11
469.01628815126298
 21
-544.32133500507871
 31
0.0
  0
LINE
  5
1FAF1
  8
0
 10
469.01628815126298
 20
-544.32133500507871
 30
0.0
 11
468.51628815126298
 21
-544.22133384168103
 31
0.0
  0
LINE
  5
1FAF2
  8
0
 10
465.51628815126298
 20
-543.62132686129019
 30
0.0
 11
465.01628815126298
 21
-543.52132569789262
 31
0.0
  0
LINE
  5
1FAF3
  8
0
 10
469.01628815126298
 20
-545.92133500507884
 30
0.0
 11
468.51628815126298
 21
-545.82133384168105
 31
0.0
  0
LINE
  5
1FAF4
  8
0
 10
469.01628815126298
 20
-547.52133500507875
 30
0.0
 11
468.51628815126298
 21
-547.42133384168096
 31
0.0
  0
LINE
  5
1FAF5
  8
0
 10
465.51628815126298
 20
-545.22132686129464
 30
0.0
 11
465.01628815126298
 21
-545.12132569789685
 31
0.0
  0
LINE
  5
1FAF6
  8
0
 10
465.51628815126298
 20
-546.82132686129478
 30
0.0
 11
465.01628815126298
 21
-546.7213256978971
 31
0.0
  0
LINE
  5
1FAF7
  8
0
 10
465.01628815126298
 20
-546.7213256978971
 30
0.0
 11
469.01628815126298
 21
-545.92133500507884
 31
0.0
  0
LINE
  5
1FAF8
  8
0
 10
469.01628815126298
 20
-539.52133500507432
 30
0.0
 11
468.51628815126298
 21
-539.42133384167664
 31
0.0
  0
LINE
  5
1FAF9
  8
0
 10
469.01628815126298
 20
-537.92133500506986
 30
0.0
 11
468.51628815126298
 21
-537.82133384167275
 31
0.0
  0
LINE
  5
1FAFA
  8
0
 10
469.01628815126298
 20
-542.72133500507437
 30
0.0
 11
468.51628815126298
 21
-542.62133384167669
 31
0.0
  0
LINE
  5
1FAFB
  8
0
 10
469.01628815126298
 20
-541.12133500507446
 30
0.0
 11
468.51628815126298
 21
-541.02133384167678
 31
0.0
  0
LINE
  5
1FAFC
  8
0
 10
465.51628815126298
 20
-537.22132686128975
 30
0.0
 11
465.01628815126298
 21
-537.12132569789264
 31
0.0
  0
LINE
  5
1FAFD
  8
0
 10
465.51628815126298
 20
-538.82132686129034
 30
0.0
 11
465.01628815126298
 21
-538.72132569789255
 31
0.0
  0
LINE
  5
1FAFE
  8
0
 10
465.51628815126298
 20
-542.02132686129028
 30
0.0
 11
465.01628815126298
 21
-541.92132569789271
 31
0.0
  0
LINE
  5
1FAFF
  8
0
 10
465.51628815126298
 20
-540.42132686129025
 30
0.0
 11
465.01628815126298
 21
-540.32132569789258
 31
0.0
  0
LINE
  5
1FB00
  8
0
 10
465.01628815126298
 20
-540.32132569789258
 30
0.0
 11
469.01628815126298
 21
-539.52133500507432
 31
0.0
  0
LINE
  5
1FB01
  8
0
 10
465.01628815126298
 20
-538.72132569789255
 30
0.0
 11
469.01628815126298
 21
-537.92133500506986
 31
0.0
  0
LINE
  5
1FB02
  8
0
 10
465.01628815126298
 20
-541.92132569789271
 30
0.0
 11
469.01628815126298
 21
-541.12133500507446
 31
0.0
  0
LINE
  5
1FB03
  8
0
 10
465.01628815126298
 20
-543.52132569789262
 30
0.0
 11
469.01628815126298
 21
-542.72133500507437
 31
0.0
  0
LINE
  5
1FB04
  8
0
 10
465.51628815126298
 20
-553.22132686129885
 30
0.0
 11
465.01628815126298
 21
-553.12132569790106
 31
0.0
  0
LINE
  5
1FB05
  8
0
 10
465.01628815126298
 20
-553.12132569790106
 30
0.0
 11
469.01628815126298
 21
-552.32133500508291
 31
0.0
  0
LINE
  5
1FB06
  8
0
 10
469.01628815126298
 20
-552.32133500508291
 30
0.0
 11
468.51628815126298
 21
-552.22133384168524
 31
0.0
  0
LINE
  5
1FB07
  8
0
 10
465.51628815126298
 20
-551.62132686129894
 30
0.0
 11
465.01628815126298
 21
-551.52132569790115
 31
0.0
  0
LINE
  5
1FB08
  8
0
 10
465.51628815126298
 20
-550.02132686129903
 30
0.0
 11
465.01628815126298
 21
-549.92132569790135
 31
0.0
  0
LINE
  5
1FB09
  8
0
 10
465.01628815126298
 20
-549.92132569790135
 30
0.0
 11
469.01628815126298
 21
-549.1213350050831
 31
0.0
  0
LINE
  5
1FB0A
  8
0
 10
469.01628815126298
 20
-550.72133500508301
 30
0.0
 11
468.51628815126298
 21
-550.62133384168533
 31
0.0
  0
LINE
  5
1FB0B
  8
0
 10
469.01628815126298
 20
-549.1213350050831
 30
0.0
 11
468.51628815126298
 21
-549.02133384168542
 31
0.0
  0
LINE
  5
1FB0C
  8
0
 10
465.01628815126298
 20
-551.52132569790115
 30
0.0
 11
469.01628815126298
 21
-550.72133500508301
 31
0.0
  0
LINE
  5
1FB0D
  8
0
 10
465.51628815126298
 20
-548.42132686129457
 30
0.0
 11
465.01628815126298
 21
-548.3213256978969
 31
0.0
  0
LINE
  5
1FB0E
  8
0
 10
465.51628815126298
 20
-554.82132686129864
 30
0.0
 11
465.01628815126298
 21
-554.72132569790097
 31
0.0
  0
LINE
  5
1FB0F
  8
0
 10
465.01628815126298
 20
-554.72132569790097
 30
0.0
 11
469.01628815126298
 21
-553.92133500508282
 31
0.0
  0
LINE
  5
1FB10
  8
0
 10
469.01628815126298
 20
-553.92133500508282
 30
0.0
 11
468.51628815126298
 21
-553.82133384168515
 31
0.0
  0
LINE
  5
1FB11
  8
0
 10
465.51628815126298
 20
-556.42132686129855
 30
0.0
 11
465.01628815126298
 21
-556.32132569790087
 31
0.0
  0
LINE
  5
1FB12
  8
0
 10
465.01628815126298
 20
-556.32132569790087
 30
0.0
 11
469.01628815126298
 21
-555.52133500508273
 31
0.0
  0
LINE
  5
1FB13
  8
0
 10
469.01628815126298
 20
-555.52133500508273
 30
0.0
 11
468.51628815126298
 21
-555.42133384168505
 31
0.0
  0
LINE
  5
1FB14
  8
0
 10
465.51628815126298
 20
-558.02132686129846
 30
0.0
 11
465.01628815126298
 21
-557.92132569790078
 31
0.0
  0
LINE
  5
1FB15
  8
0
 10
465.01628815126298
 20
-557.92132569790078
 30
0.0
 11
469.01628815126298
 21
-557.12133500508264
 31
0.0
  0
LINE
  5
1FB16
  8
0
 10
469.01628815126298
 20
-557.12133500508264
 30
0.0
 11
468.51628815126298
 21
-557.02133384168485
 31
0.0
  0
LINE
  5
1FB17
  8
0
 10
439.0162881512631
 20
-523.82133035142908
 30
0.0
 11
437.51628815126321
 21
-529.12132686129075
 31
0.0
  0
LINE
  5
1FB18
  8
0
 10
437.51628815126321
 20
-529.12132686129075
 30
0.0
 11
437.51628815126338
 21
-558.8213268611828
 31
0.0
  0
LINE
  5
1FB19
  8
0
 10
439.0162881512631
 20
-523.82133035142908
 30
0.0
 11
440.51628815126332
 21
-529.12133384167453
 31
0.0
  0
LINE
  5
1FB1A
  8
0
 10
435.51624161536529
 20
-558.82132220748463
 30
0.0
 11
442.51624161536529
 21
-558.82133849504896
 31
0.0
  0
LINE
  5
1FB1B
  8
0
 10
440.51628815126332
 20
-529.12133384167453
 30
0.0
 11
440.51628815126338
 21
-558.82133384156737
 31
0.0
  0
LINE
  5
1FB1C
  8
0
 10
435.51624161536529
 20
-558.82132220748463
 30
0.0
 11
435.51624161536517
 21
-559.92132569768
 31
0.0
  0
ARC
  5
1FB1D
  8
0
 10
437.01624161536529
 20
-559.92132569768
 30
0.0
 40
1.5
 50
180.0
 51
269.99986668446837
  0
LINE
  5
1FB1E
  8
0
 10
442.51624161536529
 20
-558.82133849504896
 30
0.0
 11
442.51624161536529
 21
-559.92133500485966
 31
0.0
  0
LINE
  5
1FB1F
  8
0
 10
437.01623812517289
 20
-561.42132569767591
 30
0.0
 11
441.01623812517289
 21
-561.42133500485545
 31
0.0
  0
ARC
  5
1FB20
  8
0
 10
441.01624161536517
 20
-559.92133500485966
 30
0.0
 40
1.5
 50
269.99986668446837
 51
0.0
  0
LINE
  5
1FB21
  8
1CENTER
 10
439.01624161536517
 20
-522.39053543396369
 30
0.0
 11
439.01624161536517
 21
-562.49160676057568
 31
0.0
  0
LINE
  5
1FB22
  8
0
 10
437.92191780137023
 20
-525.92132780510701
 30
0.0
 11
439.88425289024559
 21
-525.12133237105604
 31
0.0
  0
LINE
  5
1FB23
  8
0
 10
439.88425289024559
 20
-525.12133237105604
 30
0.0
 11
439.29597631520318
 21
-524.80956251480393
 31
0.0
  0
LINE
  5
1FB24
  8
0
 10
437.01628815126321
 20
-548.3213256978969
 30
0.0
 11
441.01628815126321
 21
-547.52133500507875
 31
0.0
  0
LINE
  5
1FB25
  8
0
 10
437.01628815126321
 20
-537.12132569789264
 30
0.0
 11
441.01628815126321
 21
-536.32133500506995
 31
0.0
  0
LINE
  5
1FB26
  8
0
 10
437.01628815126321
 20
-533.9213256978926
 30
0.0
 11
441.01628815126321
 21
-533.12133500507002
 31
0.0
  0
LINE
  5
1FB27
  8
0
 10
441.01628815126321
 20
-533.12133500507002
 30
0.0
 11
440.51628815126321
 21
-533.0213338416728
 31
0.0
  0
LINE
  5
1FB28
  8
0
 10
437.51628815126321
 20
-532.4213268612898
 30
0.0
 11
437.01628815126321
 21
-532.32132569789258
 31
0.0
  0
LINE
  5
1FB29
  8
0
 10
441.01628815126321
 20
-536.32133500506995
 30
0.0
 11
440.51628815126321
 21
-536.22133384167284
 31
0.0
  0
LINE
  5
1FB2A
  8
0
 10
441.01628815126321
 20
-534.72133500506993
 30
0.0
 11
440.51628815126321
 21
-534.62133384167282
 31
0.0
  0
LINE
  5
1FB2B
  8
0
 10
437.51628815126321
 20
-534.02132686128971
 30
0.0
 11
437.01628815126321
 21
-533.9213256978926
 31
0.0
  0
LINE
  5
1FB2C
  8
0
 10
437.51628815126321
 20
-535.62132686128962
 30
0.0
 11
437.01628815126321
 21
-535.52132569789251
 31
0.0
  0
LINE
  5
1FB2D
  8
0
 10
437.01628815126321
 20
-535.52132569789251
 30
0.0
 11
441.01628815126321
 21
-534.72133500506993
 31
0.0
  0
LINE
  5
1FB2E
  8
0
 10
440.33706699465239
 20
-526.72133342466157
 30
0.0
 11
439.78531753084911
 21
-526.53856928203368
 31
0.0
  0
LINE
  5
1FB2F
  8
0
 10
441.01628815126321
 20
-529.92133500506986
 30
0.0
 11
440.51628815126321
 21
-529.82133384167275
 31
0.0
  0
LINE
  5
1FB30
  8
0
 10
441.01628815126321
 20
-531.52133500507
 30
0.0
 11
440.51628815126321
 21
-531.42133384167289
 31
0.0
  0
LINE
  5
1FB31
  8
0
 10
440.78988109905919
 20
-528.32133447826732
 30
0.0
 11
440.2532873637881
 21
-528.19206378063745
 31
0.0
  0
LINE
  5
1FB32
  8
0
 10
437.93720274847192
 20
-527.63409626385283
 30
0.0
 11
437.46910429332189
 21
-527.52132675150267
 31
0.0
  0
LINE
  5
1FB33
  8
0
 10
437.51628815126321
 20
-530.82132686128955
 30
0.0
 11
437.01628815126321
 21
-530.72132569789255
 31
0.0
  0
LINE
  5
1FB34
  8
0
 10
437.51628815126321
 20
-529.22132686128975
 30
0.0
 11
437.01628815126321
 21
-529.12132569789264
 31
0.0
  0
LINE
  5
1FB35
  8
0
 10
438.3790896420013
 20
-526.07276360154742
 30
0.0
 11
437.92191780137023
 21
-525.92132780510701
 31
0.0
  0
LINE
  5
1FB36
  8
0
 10
437.46910429332189
 20
-527.52132675150267
 30
0.0
 11
440.33706699465239
 21
-526.72133342466157
 31
0.0
  0
LINE
  5
1FB37
  8
0
 10
437.01628815126321
 20
-530.72132569789255
 30
0.0
 11
441.01628815126321
 21
-529.92133500506986
 31
0.0
  0
LINE
  5
1FB38
  8
0
 10
437.01628815126321
 20
-529.12132569789264
 30
0.0
 11
440.78988109905919
 21
-528.32133447826732
 31
0.0
  0
LINE
  5
1FB39
  8
0
 10
437.01628815126321
 20
-532.32132569789258
 30
0.0
 11
441.01628815126321
 21
-531.52133500507
 31
0.0
  0
LINE
  5
1FB3A
  8
0
 10
437.01628815126321
 20
-545.12132569789685
 30
0.0
 11
441.01628815126321
 21
-544.32133500507871
 31
0.0
  0
LINE
  5
1FB3B
  8
0
 10
441.01628815126321
 20
-544.32133500507871
 30
0.0
 11
440.51628815126321
 21
-544.22133384168103
 31
0.0
  0
LINE
  5
1FB3C
  8
0
 10
437.51628815126321
 20
-543.62132686129019
 30
0.0
 11
437.01628815126321
 21
-543.52132569789262
 31
0.0
  0
LINE
  5
1FB3D
  8
0
 10
441.01628815126321
 20
-545.92133500507884
 30
0.0
 11
440.51628815126321
 21
-545.82133384168105
 31
0.0
  0
LINE
  5
1FB3E
  8
0
 10
441.01628815126321
 20
-547.52133500507875
 30
0.0
 11
440.51628815126321
 21
-547.42133384168096
 31
0.0
  0
LINE
  5
1FB3F
  8
0
 10
437.51628815126321
 20
-545.22132686129464
 30
0.0
 11
437.01628815126321
 21
-545.12132569789685
 31
0.0
  0
LINE
  5
1FB40
  8
0
 10
437.51628815126321
 20
-546.82132686129478
 30
0.0
 11
437.01628815126321
 21
-546.7213256978971
 31
0.0
  0
LINE
  5
1FB41
  8
0
 10
437.01628815126321
 20
-546.7213256978971
 30
0.0
 11
441.01628815126321
 21
-545.92133500507884
 31
0.0
  0
LINE
  5
1FB42
  8
0
 10
441.01628815126321
 20
-539.52133500507432
 30
0.0
 11
440.51628815126321
 21
-539.42133384167664
 31
0.0
  0
LINE
  5
1FB43
  8
0
 10
441.01628815126321
 20
-537.92133500506986
 30
0.0
 11
440.51628815126321
 21
-537.82133384167275
 31
0.0
  0
LINE
  5
1FB44
  8
0
 10
441.01628815126321
 20
-542.72133500507437
 30
0.0
 11
440.51628815126321
 21
-542.62133384167669
 31
0.0
  0
LINE
  5
1FB45
  8
0
 10
441.01628815126321
 20
-541.12133500507446
 30
0.0
 11
440.51628815126321
 21
-541.02133384167678
 31
0.0
  0
LINE
  5
1FB46
  8
0
 10
437.51628815126321
 20
-537.22132686128975
 30
0.0
 11
437.01628815126321
 21
-537.12132569789264
 31
0.0
  0
LINE
  5
1FB47
  8
0
 10
437.51628815126321
 20
-538.82132686129034
 30
0.0
 11
437.01628815126321
 21
-538.72132569789255
 31
0.0
  0
LINE
  5
1FB48
  8
0
 10
437.51628815126321
 20
-542.02132686129028
 30
0.0
 11
437.01628815126321
 21
-541.92132569789271
 31
0.0
  0
LINE
  5
1FB49
  8
0
 10
437.51628815126321
 20
-540.42132686129025
 30
0.0
 11
437.01628815126321
 21
-540.32132569789258
 31
0.0
  0
LINE
  5
1FB4A
  8
0
 10
437.01628815126321
 20
-540.32132569789258
 30
0.0
 11
441.01628815126321
 21
-539.52133500507432
 31
0.0
  0
LINE
  5
1FB4B
  8
0
 10
437.01628815126321
 20
-538.72132569789255
 30
0.0
 11
441.01628815126321
 21
-537.92133500506986
 31
0.0
  0
LINE
  5
1FB4C
  8
0
 10
437.01628815126321
 20
-541.92132569789271
 30
0.0
 11
441.01628815126321
 21
-541.12133500507446
 31
0.0
  0
LINE
  5
1FB4D
  8
0
 10
437.01628815126321
 20
-543.52132569789262
 30
0.0
 11
441.01628815126321
 21
-542.72133500507437
 31
0.0
  0
LINE
  5
1FB4E
  8
0
 10
437.51628815126321
 20
-553.22132686129885
 30
0.0
 11
437.01628815126321
 21
-553.12132569790106
 31
0.0
  0
LINE
  5
1FB4F
  8
0
 10
437.01628815126321
 20
-553.12132569790106
 30
0.0
 11
441.01628815126321
 21
-552.32133500508291
 31
0.0
  0
LINE
  5
1FB50
  8
0
 10
441.01628815126321
 20
-552.32133500508291
 30
0.0
 11
440.51628815126321
 21
-552.22133384168524
 31
0.0
  0
LINE
  5
1FB51
  8
0
 10
437.51628815126321
 20
-551.62132686129894
 30
0.0
 11
437.01628815126321
 21
-551.52132569790115
 31
0.0
  0
LINE
  5
1FB52
  8
0
 10
437.51628815126321
 20
-550.02132686129903
 30
0.0
 11
437.01628815126321
 21
-549.92132569790135
 31
0.0
  0
LINE
  5
1FB53
  8
0
 10
437.01628815126321
 20
-549.92132569790135
 30
0.0
 11
441.01628815126321
 21
-549.1213350050831
 31
0.0
  0
LINE
  5
1FB54
  8
0
 10
441.01628815126321
 20
-550.72133500508301
 30
0.0
 11
440.51628815126321
 21
-550.62133384168533
 31
0.0
  0
LINE
  5
1FB55
  8
0
 10
441.01628815126321
 20
-549.1213350050831
 30
0.0
 11
440.51628815126321
 21
-549.02133384168542
 31
0.0
  0
LINE
  5
1FB56
  8
0
 10
437.01628815126321
 20
-551.52132569790115
 30
0.0
 11
441.01628815126321
 21
-550.72133500508301
 31
0.0
  0
LINE
  5
1FB57
  8
0
 10
437.51628815126321
 20
-548.42132686129457
 30
0.0
 11
437.01628815126321
 21
-548.3213256978969
 31
0.0
  0
LINE
  5
1FB58
  8
0
 10
437.51628815126321
 20
-554.82132686129864
 30
0.0
 11
437.01628815126321
 21
-554.72132569790097
 31
0.0
  0
LINE
  5
1FB59
  8
0
 10
437.01628815126321
 20
-554.72132569790097
 30
0.0
 11
441.01628815126321
 21
-553.92133500508282
 31
0.0
  0
LINE
  5
1FB5A
  8
0
 10
441.01628815126321
 20
-553.92133500508282
 30
0.0
 11
440.51628815126321
 21
-553.82133384168515
 31
0.0
  0
LINE
  5
1FB5B
  8
0
 10
437.51628815126321
 20
-556.42132686129855
 30
0.0
 11
437.01628815126321
 21
-556.32132569790087
 31
0.0
  0
LINE
  5
1FB5C
  8
0
 10
437.01628815126321
 20
-556.32132569790087
 30
0.0
 11
441.01628815126321
 21
-555.52133500508273
 31
0.0
  0
LINE
  5
1FB5D
  8
0
 10
441.01628815126321
 20
-555.52133500508273
 30
0.0
 11
440.51628815126321
 21
-555.42133384168505
 31
0.0
  0
LINE
  5
1FB5E
  8
0
 10
437.51628815126321
 20
-558.02132686129846
 30
0.0
 11
437.01628815126321
 21
-557.92132569790078
 31
0.0
  0
LINE
  5
1FB5F
  8
0
 10
437.01628815126321
 20
-557.92132569790078
 30
0.0
 11
441.01628815126321
 21
-557.12133500508264
 31
0.0
  0
LINE
  5
1FB60
  8
0
 10
441.01628815126321
 20
-557.12133500508264
 30
0.0
 11
440.51628815126321
 21
-557.02133384168485
 31
0.0
  0
LINE
  5
1FB61
  8
1DIM
 10
421.01624161536529
 20
-658.74633035126624
 30
0.0
 11
421.01624161536529
 21
-702.42133035126756
 31
0.0
  0
LINE
  5
1FB62
  8
1DIM
 10
393.01624161536512
 20
-655.8213303512664
 30
0.0
 11
393.01624161536512
 21
-702.42133035126756
 31
0.0
  0
LINE
  5
1FB63
  8
1DIM
 10
419.01624161536517
 20
-701.42133035126767
 30
0.0
 11
395.01624161536512
 21
-701.42133035126767
 31
0.0
  0
LINE
  5
1FB67
  8
1PHANTOM
 10
704.51624161536506
 20
-665.42133035126665
 30
0.0
 11
694.51624161536506
 21
-665.42133035126665
 31
0.0
  0
LINE
  5
1FB68
  8
1PHANTOM
 10
704.51624161536506
 20
-665.0713303512664
 30
0.0
 11
704.51624161536506
 21
-665.42133035126665
 31
0.0
  0
LINE
  5
1FB69
  8
1PHANTOM
 10
694.51624161536506
 20
-665.07133035126617
 30
0.0
 11
694.51624161536506
 21
-665.42133035126665
 31
0.0
  0
LINE
  5
1FB6A
  8
1PHANTOM
 10
704.51624161536506
 20
-665.0713303512664
 30
0.0
 11
702.01624161536506
 21
-662.5713303512664
 31
0.0
  0
LINE
  5
1FB6B
  8
1PHANTOM
 10
694.51624161536506
 20
-665.07133035126617
 30
0.0
 11
697.01624161536517
 21
-662.57133035126628
 31
0.0
  0
LINE
  5
1FB6C
  8
1PHANTOM
 10
702.01624161536506
 20
-655.8213303512664
 30
0.0
 11
702.01624161536506
 21
-662.5713303512664
 31
0.0
  0
LINE
  5
1FB6D
  8
1PHANTOM
 10
697.01624161536517
 20
-655.82133035126628
 30
0.0
 11
697.01624161536517
 21
-662.57133035126628
 31
0.0
  0
LINE
  5
1FB6E
  8
1PHANTOM
 10
701.61624161536531
 20
-655.42133035126676
 30
0.0
 11
702.01624161536506
 21
-655.8213303512664
 31
0.0
  0
LINE
  5
1FB6F
  8
1PHANTOM
 10
697.01624161536517
 20
-655.82133035126628
 30
0.0
 11
697.41624161536515
 21
-655.42133035126665
 31
0.0
  0
LINE
  5
1FB70
  8
1PHANTOM
 10
701.61624161536531
 20
-655.42133035126676
 30
0.0
 11
697.41624161536515
 21
-655.42133035126665
 31
0.0
  0
LINE
  5
1FB71
  8
1DIM
 10
393.01624161536512
 20
-655.82133035126628
 30
0.0
 11
393.01624161536512
 21
-712.42133035126756
 31
0.0
  0
LINE
  5
1FB72
  8
1DIM
 10
643.01624161536529
 20
-655.8213303512664
 30
0.0
 11
643.01624161536529
 21
-712.42133035126756
 31
0.0
  0
LINE
  5
1FB73
  8
1DIM
 10
395.01624161536512
 20
-711.42133035126756
 30
0.0
 11
641.01624161536529
 21
-711.42133035126756
 31
0.0
  0
LINE
  5
1FB77
  8
1DIM
 10
439.01624161536517
 20
-655.8213303512664
 30
0.0
 11
439.01624161536517
 21
-702.42133035126756
 31
0.0
  0
LINE
  5
1FB78
  8
1DIM
 10
421.01624161536529
 20
-655.82133035126606
 30
0.0
 11
421.01624161536529
 21
-702.42133035126756
 31
0.0
  0
LINE
  5
1FB79
  8
1DIM
 10
437.01624161536529
 20
-701.42133035126767
 30
0.0
 11
423.01624161536517
 21
-701.42133035126767
 31
0.0
  0
LINE
  5
1FB7D
  8
1DIM
 10
467.01624161536512
 20
-655.8213303512664
 30
0.0
 11
467.01624161536512
 21
-702.42133035126756
 31
0.0
  0
LINE
  5
1FB7E
  8
1DIM
 10
485.016241615365
 20
-655.8213303512664
 30
0.0
 11
485.016241615365
 21
-702.42133035126756
 31
0.0
  0
LINE
  5
1FB7F
  8
1DIM
 10
469.01624161536512
 20
-701.42133035126767
 30
0.0
 11
483.016241615365
 21
-701.42133035126767
 31
0.0
  0
LINE
  5
1FB83
  8
1DIM
 10
439.01624161536517
 20
-655.8213303512664
 30
0.0
 11
439.01624161536517
 21
-702.42133035126756
 31
0.0
  0
LINE
  5
1FB84
  8
1DIM
 10
467.01624161536512
 20
-655.8213303512664
 30
0.0
 11
467.01624161536512
 21
-702.42133035126756
 31
0.0
  0
LINE
  5
1FB85
  8
1DIM
 10
441.01624161536517
 20
-701.42133035126767
 30
0.0
 11
465.01624161536512
 21
-701.42133035126767
 31
0.0
  0
LINE
  5
1FB89
  8
0
 10
745.0162416152026
 20
-655.82137688716432
 30
0.0
 11
739.71624510534093
 21
-654.32137688716432
 31
0.0
  0
LINE
  5
1FB8A
  8
0
 10
739.71624510534093
 20
-654.32137688716432
 30
0.0
 11
710.01624510544889
 21
-654.32137688716455
 31
0.0
  0
LINE
  5
1FB8B
  8
0
 10
745.0162416152026
 20
-655.82137688716432
 30
0.0
 11
739.71623812495727
 21
-657.32137688716443
 31
0.0
  0
LINE
  5
1FB8C
  8
0
 10
710.01624975914717
 20
-652.3213303512664
 30
0.0
 11
710.01623347158272
 21
-659.3213303512664
 31
0.0
  0
LINE
  5
1FB8D
  8
0
 10
739.71623812495727
 20
-657.32137688716443
 30
0.0
 11
710.01623812506432
 21
-657.32137688716455
 31
0.0
  0
LINE
  5
1FB8E
  8
0
 10
710.01624975914717
 20
-652.3213303512664
 30
0.0
 11
708.91624626895168
 21
-652.3213303512664
 31
0.0
  0
ARC
  5
1FB8F
  8
0
 10
708.91624626895168
 20
-653.82133035126628
 30
0.0
 40
1.5
 50
90.0
 51
179.9998666844684
  0
LINE
  5
1FB90
  8
0
 10
710.01623347158272
 20
-659.3213303512664
 30
0.0
 11
708.91623696177214
 21
-659.3213303512664
 31
0.0
  0
LINE
  5
1FB91
  8
0
 10
707.41624626895577
 20
-653.82132686107389
 30
0.0
 11
707.41623696177624
 21
-657.82132686107389
 31
0.0
  0
ARC
  5
1FB92
  8
0
 10
708.91623696177214
 20
-657.82133035126628
 30
0.0
 40
1.5
 50
179.9998666844684
 51
270.0
  0
LINE
  5
1FB93
  8
1CENTER
 10
746.44703653266799
 20
-655.8213303512664
 30
0.0
 11
706.34596520605612
 21
-655.8213303512664
 31
0.0
  0
LINE
  5
1FB94
  8
0
 10
742.91624416152479
 20
-654.72700653727134
 30
0.0
 11
743.71623959557564
 21
-656.68934162614676
 31
0.0
  0
LINE
  5
1FB95
  8
0
 10
743.71623959557564
 20
-656.68934162614676
 30
0.0
 11
744.02800945182776
 21
-656.10106505110434
 31
0.0
  0
LINE
  5
1FB96
  8
0
 10
720.51624626873468
 20
-653.82137688716432
 30
0.0
 11
721.31623696155305
 21
-657.82137688716432
 31
0.0
  0
LINE
  5
1FB97
  8
0
 10
731.71624626873916
 20
-653.82137688716432
 30
0.0
 11
732.51623696156173
 21
-657.82137688716432
 31
0.0
  0
LINE
  5
1FB98
  8
0
 10
734.9162462687392
 20
-653.82137688716432
 30
0.0
 11
735.71623696156166
 21
-657.82137688716432
 31
0.0
  0
LINE
  5
1FB99
  8
0
 10
735.71623696156166
 20
-657.82137688716432
 30
0.0
 11
735.816238124959
 21
-657.32137688716432
 31
0.0
  0
LINE
  5
1FB9A
  8
0
 10
736.41624510534189
 20
-654.32137688716432
 30
0.0
 11
736.51624626873922
 21
-653.82137688716432
 31
0.0
  0
LINE
  5
1FB9B
  8
0
 10
732.51623696156173
 20
-657.82137688716432
 30
0.0
 11
732.61623812495895
 21
-657.32137688716432
 31
0.0
  0
LINE
  5
1FB9C
  8
0
 10
734.11623696156175
 20
-657.82137688716432
 30
0.0
 11
734.21623812495898
 21
-657.32137688716432
 31
0.0
  0
LINE
  5
1FB9D
  8
0
 10
734.81624510534198
 20
-654.32137688716432
 30
0.0
 11
734.9162462687392
 21
-653.82137688716432
 31
0.0
  0
LINE
  5
1FB9E
  8
0
 10
733.21624510534207
 20
-654.32137688716432
 30
0.0
 11
733.31624626873929
 21
-653.82137688716432
 31
0.0
  0
LINE
  5
1FB9F
  8
0
 10
733.31624626873929
 20
-653.82137688716432
 30
0.0
 11
734.11623696156175
 21
-657.82137688716432
 31
0.0
  0
LINE
  5
1FBA0
  8
0
 10
742.11623854197012
 20
-657.14215573055355
 30
0.0
 11
742.29900268459801
 21
-656.59040626675016
 31
0.0
  0
LINE
  5
1FBA1
  8
0
 10
738.91623696156182
 20
-657.82137688716432
 30
0.0
 11
739.01623812495893
 21
-657.32137688716432
 31
0.0
  0
LINE
  5
1FBA2
  8
0
 10
737.31623696156169
 20
-657.82137688716432
 30
0.0
 11
737.4162381249588
 21
-657.32137688716432
 31
0.0
  0
LINE
  5
1FBA3
  8
0
 10
740.51623748836437
 20
-657.59496983496035
 30
0.0
 11
740.64550818599434
 21
-657.05837609968921
 31
0.0
  0
LINE
  5
1FBA4
  8
0
 10
741.20347570277897
 20
-654.74229148437303
 30
0.0
 11
741.31624521512902
 21
-654.27419302922306
 31
0.0
  0
LINE
  5
1FBA5
  8
0
 10
738.01624510534214
 20
-654.32137688716432
 30
0.0
 11
738.11624626873925
 21
-653.82137688716432
 31
0.0
  0
LINE
  5
1FBA6
  8
0
 10
739.61624510534205
 20
-654.32137688716432
 30
0.0
 11
739.71624626873916
 21
-653.82137688716432
 31
0.0
  0
LINE
  5
1FBA7
  8
0
 10
742.76480836508438
 20
-655.18417837790241
 30
0.0
 11
742.91624416152479
 21
-654.72700653727134
 31
0.0
  0
LINE
  5
1FBA8
  8
0
 10
741.31624521512902
 20
-654.27419302922306
 30
0.0
 11
742.11623854197012
 21
-657.14215573055355
 31
0.0
  0
LINE
  5
1FBA9
  8
0
 10
738.11624626873925
 20
-653.82137688716432
 30
0.0
 11
738.91623696156182
 21
-657.82137688716432
 31
0.0
  0
LINE
  5
1FBAA
  8
0
 10
739.71624626873916
 20
-653.82137688716432
 30
0.0
 11
740.51623748836437
 21
-657.59496983496035
 31
0.0
  0
LINE
  5
1FBAB
  8
0
 10
736.51624626873922
 20
-653.82137688716432
 30
0.0
 11
737.31623696156169
 21
-657.82137688716432
 31
0.0
  0
LINE
  5
1FBAC
  8
0
 10
723.71624626873484
 20
-653.82137688716432
 30
0.0
 11
724.51623696155298
 21
-657.82137688716432
 31
0.0
  0
LINE
  5
1FBAD
  8
0
 10
724.51623696155298
 20
-657.82137688716432
 30
0.0
 11
724.61623812495066
 21
-657.32137688716432
 31
0.0
  0
LINE
  5
1FBAE
  8
0
 10
725.2162451053415
 20
-654.32137688716432
 30
0.0
 11
725.31624626873918
 21
-653.82137688716432
 31
0.0
  0
LINE
  5
1FBAF
  8
0
 10
722.91623696155295
 20
-657.82137688716432
 30
0.0
 11
723.01623812495063
 21
-657.32137688716432
 31
0.0
  0
LINE
  5
1FBB0
  8
0
 10
721.31623696155305
 20
-657.82137688716432
 30
0.0
 11
721.41623812495072
 21
-657.32137688716432
 31
0.0
  0
LINE
  5
1FBB1
  8
0
 10
723.61624510533704
 20
-654.32137688716432
 30
0.0
 11
723.71624626873484
 21
-653.82137688716432
 31
0.0
  0
LINE
  5
1FBB2
  8
0
 10
722.01624510533691
 20
-654.32137688716432
 30
0.0
 11
722.11624626873459
 21
-653.82137688716432
 31
0.0
  0
LINE
  5
1FBB3
  8
0
 10
722.11624626873459
 20
-653.82137688716432
 30
0.0
 11
722.91623696155295
 21
-657.82137688716432
 31
0.0
  0
LINE
  5
1FBB4
  8
0
 10
729.31623696155748
 20
-657.82137688716432
 30
0.0
 11
729.41623812495504
 21
-657.32137688716432
 31
0.0
  0
LINE
  5
1FBB5
  8
0
 10
730.91623696156182
 20
-657.82137688716432
 30
0.0
 11
731.01623812495893
 21
-657.32137688716432
 31
0.0
  0
LINE
  5
1FBB6
  8
0
 10
726.11623696155743
 20
-657.82137688716432
 30
0.0
 11
726.21623812495511
 21
-657.32137688716432
 31
0.0
  0
LINE
  5
1FBB7
  8
0
 10
727.71623696155734
 20
-657.82137688716432
 30
0.0
 11
727.81623812495502
 21
-657.32137688716432
 31
0.0
  0
LINE
  5
1FBB8
  8
0
 10
731.61624510534205
 20
-654.32137688716432
 30
0.0
 11
731.71624626873916
 21
-653.82137688716432
 31
0.0
  0
LINE
  5
1FBB9
  8
0
 10
730.01624510534145
 20
-654.32137688716432
 30
0.0
 11
730.11624626873925
 21
-653.82137688716432
 31
0.0
  0
LINE
  5
1FBBA
  8
0
 10
726.81624510534141
 20
-654.32137688716432
 30
0.0
 11
726.91624626873909
 21
-653.82137688716432
 31
0.0
  0
LINE
  5
1FBBB
  8
0
 10
728.41624510534155
 20
-654.32137688716432
 30
0.0
 11
728.51624626873922
 21
-653.82137688716432
 31
0.0
  0
LINE
  5
1FBBC
  8
0
 10
728.51624626873922
 20
-653.82137688716432
 30
0.0
 11
729.31623696155748
 21
-657.82137688716432
 31
0.0
  0
LINE
  5
1FBBD
  8
0
 10
730.11624626873925
 20
-653.82137688716432
 30
0.0
 11
730.91623696156182
 21
-657.82137688716432
 31
0.0
  0
LINE
  5
1FBBE
  8
0
 10
726.91624626873909
 20
-653.82137688716432
 30
0.0
 11
727.71623696155734
 21
-657.82137688716432
 31
0.0
  0
LINE
  5
1FBBF
  8
0
 10
725.31624626873918
 20
-653.82137688716432
 30
0.0
 11
726.11623696155743
 21
-657.82137688716432
 31
0.0
  0
LINE
  5
1FBC0
  8
0
 10
715.61624510533295
 20
-654.32137688716432
 30
0.0
 11
715.71624626873063
 21
-653.82137688716432
 31
0.0
  0
LINE
  5
1FBC1
  8
0
 10
715.71624626873063
 20
-653.82137688716432
 30
0.0
 11
716.51623696154877
 21
-657.82137688716432
 31
0.0
  0
LINE
  5
1FBC2
  8
0
 10
716.51623696154877
 20
-657.82137688716432
 30
0.0
 11
716.61623812494645
 21
-657.32137688716432
 31
0.0
  0
LINE
  5
1FBC3
  8
0
 10
717.21624510533286
 20
-654.32137688716432
 30
0.0
 11
717.31624626873054
 21
-653.82137688716432
 31
0.0
  0
LINE
  5
1FBC4
  8
0
 10
718.81624510533277
 20
-654.32137688716432
 30
0.0
 11
718.91624626873045
 21
-653.82137688716432
 31
0.0
  0
LINE
  5
1FBC5
  8
0
 10
718.91624626873045
 20
-653.82137688716432
 30
0.0
 11
719.7162369615487
 21
-657.82137688716432
 31
0.0
  0
LINE
  5
1FBC6
  8
0
 10
718.11623696154879
 20
-657.82137688716432
 30
0.0
 11
718.21623812494636
 21
-657.32137688716432
 31
0.0
  0
LINE
  5
1FBC7
  8
0
 10
719.7162369615487
 20
-657.82137688716432
 30
0.0
 11
719.81623812494627
 21
-657.32137688716432
 31
0.0
  0
LINE
  5
1FBC8
  8
0
 10
717.31624626873054
 20
-653.82137688716432
 30
0.0
 11
718.11623696154879
 21
-657.82137688716432
 31
0.0
  0
LINE
  5
1FBC9
  8
0
 10
720.416245105337
 20
-654.32137688716432
 30
0.0
 11
720.51624626873468
 21
-653.82137688716432
 31
0.0
  0
LINE
  5
1FBCA
  8
0
 10
714.01624510533304
 20
-654.32137688716432
 30
0.0
 11
714.11624626873072
 21
-653.82137688716432
 31
0.0
  0
LINE
  5
1FBCB
  8
0
 10
714.11624626873072
 20
-653.82137688716432
 30
0.0
 11
714.91623696154886
 21
-657.82137688716432
 31
0.0
  0
LINE
  5
1FBCC
  8
0
 10
714.91623696154886
 20
-657.82137688716432
 30
0.0
 11
715.01623812494665
 21
-657.32137688716432
 31
0.0
  0
LINE
  5
1FBCD
  8
0
 10
712.41624510533313
 20
-654.32137688716432
 30
0.0
 11
712.51624626873081
 21
-653.82137688716432
 31
0.0
  0
LINE
  5
1FBCE
  8
0
 10
712.51624626873081
 20
-653.82137688716432
 30
0.0
 11
713.31623696154895
 21
-657.82137688716432
 31
0.0
  0
LINE
  5
1FBCF
  8
0
 10
713.31623696154895
 20
-657.82137688716432
 30
0.0
 11
713.41623812494674
 21
-657.32137688716432
 31
0.0
  0
LINE
  5
1FBD0
  8
0
 10
710.81624510533322
 20
-654.32137688716432
 30
0.0
 11
710.9162462687309
 21
-653.82137688716432
 31
0.0
  0
LINE
  5
1FBD1
  8
0
 10
710.9162462687309
 20
-653.82137688716432
 30
0.0
 11
711.71623696154904
 21
-657.82137688716432
 31
0.0
  0
LINE
  5
1FBD2
  8
0
 10
711.71623696154904
 20
-657.82137688716432
 30
0.0
 11
711.81623812494684
 21
-657.32137688716432
 31
0.0
  0
LINE
  5
1FBD3
  8
0
 10
421.01628815126321
 20
-523.82133035142908
 30
0.0
 11
419.51628815126321
 21
-529.12132686129075
 31
0.0
  0
LINE
  5
1FBD4
  8
0
 10
419.51628815126321
 20
-529.12132686129075
 30
0.0
 11
419.51628815126338
 21
-558.8213268611828
 31
0.0
  0
LINE
  5
1FBD5
  8
0
 10
421.01628815126321
 20
-523.82133035142908
 30
0.0
 11
422.51628815126332
 21
-529.12133384167453
 31
0.0
  0
LINE
  5
1FBD6
  8
0
 10
417.5162416153654
 20
-558.82132220748463
 30
0.0
 11
424.51624161536517
 21
-558.82133849504896
 31
0.0
  0
LINE
  5
1FBD7
  8
0
 10
422.51628815126332
 20
-529.12133384167453
 30
0.0
 11
422.51628815126338
 21
-558.82133384156737
 31
0.0
  0
LINE
  5
1FBD8
  8
0
 10
417.5162416153654
 20
-558.82132220748463
 30
0.0
 11
417.51624161536529
 21
-559.92132569768
 31
0.0
  0
ARC
  5
1FBD9
  8
0
 10
419.01624161536517
 20
-559.92132569768
 30
0.0
 40
1.5
 50
180.0
 51
269.99986668446837
  0
LINE
  5
1FBDA
  8
0
 10
424.51624161536517
 20
-558.82133849504896
 30
0.0
 11
424.51624161536517
 21
-559.92133500485966
 31
0.0
  0
LINE
  5
1FBDB
  8
0
 10
419.01623812517278
 20
-561.42132569767591
 30
0.0
 11
423.01623812517278
 21
-561.42133500485545
 31
0.0
  0
ARC
  5
1FBDC
  8
0
 10
423.01624161536517
 20
-559.92133500485966
 30
0.0
 40
1.5
 50
269.99986668446837
 51
0.0
  0
LINE
  5
1FBDD
  8
1CENTER
 10
421.01624161536529
 20
-522.39053543396369
 30
0.0
 11
421.01624161536529
 21
-562.49160676057568
 31
0.0
  0
LINE
  5
1FBDE
  8
0
 10
419.92191780137023
 20
-525.92132780510701
 30
0.0
 11
421.88425289024559
 21
-525.12133237105604
 31
0.0
  0
LINE
  5
1FBDF
  8
0
 10
421.88425289024559
 20
-525.12133237105604
 30
0.0
 11
421.29597631520318
 21
-524.80956251480393
 31
0.0
  0
LINE
  5
1FBE0
  8
0
 10
419.01628815126321
 20
-548.3213256978969
 30
0.0
 11
423.0162881512631
 21
-547.52133500507875
 31
0.0
  0
LINE
  5
1FBE1
  8
0
 10
419.01628815126321
 20
-537.12132569789264
 30
0.0
 11
423.0162881512631
 21
-536.32133500506995
 31
0.0
  0
LINE
  5
1FBE2
  8
0
 10
419.01628815126321
 20
-533.9213256978926
 30
0.0
 11
423.0162881512631
 21
-533.12133500507002
 31
0.0
  0
LINE
  5
1FBE3
  8
0
 10
423.0162881512631
 20
-533.12133500507002
 30
0.0
 11
422.5162881512631
 21
-533.0213338416728
 31
0.0
  0
LINE
  5
1FBE4
  8
0
 10
419.51628815126321
 20
-532.4213268612898
 30
0.0
 11
419.01628815126321
 21
-532.32132569789258
 31
0.0
  0
LINE
  5
1FBE5
  8
0
 10
423.0162881512631
 20
-536.32133500506995
 30
0.0
 11
422.5162881512631
 21
-536.22133384167284
 31
0.0
  0
LINE
  5
1FBE6
  8
0
 10
423.0162881512631
 20
-534.72133500506993
 30
0.0
 11
422.5162881512631
 21
-534.62133384167282
 31
0.0
  0
LINE
  5
1FBE7
  8
0
 10
419.51628815126321
 20
-534.02132686128971
 30
0.0
 11
419.01628815126321
 21
-533.9213256978926
 31
0.0
  0
LINE
  5
1FBE8
  8
0
 10
419.51628815126321
 20
-535.62132686128962
 30
0.0
 11
419.01628815126321
 21
-535.52132569789251
 31
0.0
  0
LINE
  5
1FBE9
  8
0
 10
419.01628815126321
 20
-535.52132569789251
 30
0.0
 11
423.0162881512631
 21
-534.72133500506993
 31
0.0
  0
LINE
  5
1FBEA
  8
0
 10
422.33706699465239
 20
-526.72133342466157
 30
0.0
 11
421.78531753084923
 21
-526.53856928203368
 31
0.0
  0
LINE
  5
1FBEB
  8
0
 10
423.0162881512631
 20
-529.92133500506986
 30
0.0
 11
422.5162881512631
 21
-529.82133384167275
 31
0.0
  0
LINE
  5
1FBEC
  8
0
 10
423.0162881512631
 20
-531.52133500507
 30
0.0
 11
422.5162881512631
 21
-531.42133384167289
 31
0.0
  0
LINE
  5
1FBED
  8
0
 10
422.78988109905919
 20
-528.32133447826732
 30
0.0
 11
422.2532873637881
 21
-528.19206378063745
 31
0.0
  0
LINE
  5
1FBEE
  8
0
 10
419.9372027484718
 20
-527.63409626385283
 30
0.0
 11
419.46910429332189
 21
-527.52132675150267
 31
0.0
  0
LINE
  5
1FBEF
  8
0
 10
419.51628815126321
 20
-530.82132686128955
 30
0.0
 11
419.01628815126321
 21
-530.72132569789255
 31
0.0
  0
LINE
  5
1FBF0
  8
0
 10
419.51628815126321
 20
-529.22132686128975
 30
0.0
 11
419.01628815126321
 21
-529.12132569789264
 31
0.0
  0
LINE
  5
1FBF1
  8
0
 10
420.3790896420013
 20
-526.07276360154742
 30
0.0
 11
419.92191780137023
 21
-525.92132780510701
 31
0.0
  0
LINE
  5
1FBF2
  8
0
 10
419.46910429332189
 20
-527.52132675150267
 30
0.0
 11
422.33706699465239
 21
-526.72133342466157
 31
0.0
  0
LINE
  5
1FBF3
  8
0
 10
419.01628815126321
 20
-530.72132569789255
 30
0.0
 11
423.0162881512631
 21
-529.92133500506986
 31
0.0
  0
LINE
  5
1FBF4
  8
0
 10
419.01628815126321
 20
-529.12132569789264
 30
0.0
 11
422.78988109905919
 21
-528.32133447826732
 31
0.0
  0
LINE
  5
1FBF5
  8
0
 10
419.01628815126321
 20
-532.32132569789258
 30
0.0
 11
423.0162881512631
 21
-531.52133500507
 31
0.0
  0
LINE
  5
1FBF6
  8
0
 10
419.01628815126321
 20
-545.12132569789685
 30
0.0
 11
423.0162881512631
 21
-544.32133500507871
 31
0.0
  0
LINE
  5
1FBF7
  8
0
 10
423.0162881512631
 20
-544.32133500507871
 30
0.0
 11
422.5162881512631
 21
-544.22133384168103
 31
0.0
  0
LINE
  5
1FBF8
  8
0
 10
419.51628815126321
 20
-543.62132686129019
 30
0.0
 11
419.01628815126321
 21
-543.52132569789262
 31
0.0
  0
LINE
  5
1FBF9
  8
0
 10
423.0162881512631
 20
-545.92133500507884
 30
0.0
 11
422.5162881512631
 21
-545.82133384168105
 31
0.0
  0
LINE
  5
1FBFA
  8
0
 10
423.0162881512631
 20
-547.52133500507875
 30
0.0
 11
422.5162881512631
 21
-547.42133384168096
 31
0.0
  0
LINE
  5
1FBFB
  8
0
 10
419.51628815126321
 20
-545.22132686129464
 30
0.0
 11
419.01628815126321
 21
-545.12132569789685
 31
0.0
  0
LINE
  5
1FBFC
  8
0
 10
419.51628815126321
 20
-546.82132686129478
 30
0.0
 11
419.01628815126321
 21
-546.7213256978971
 31
0.0
  0
LINE
  5
1FBFD
  8
0
 10
419.01628815126321
 20
-546.7213256978971
 30
0.0
 11
423.0162881512631
 21
-545.92133500507884
 31
0.0
  0
LINE
  5
1FBFE
  8
0
 10
423.0162881512631
 20
-539.52133500507432
 30
0.0
 11
422.5162881512631
 21
-539.42133384167664
 31
0.0
  0
LINE
  5
1FBFF
  8
0
 10
423.0162881512631
 20
-537.92133500506986
 30
0.0
 11
422.5162881512631
 21
-537.82133384167275
 31
0.0
  0
LINE
  5
1FC00
  8
0
 10
423.0162881512631
 20
-542.72133500507437
 30
0.0
 11
422.5162881512631
 21
-542.62133384167669
 31
0.0
  0
LINE
  5
1FC01
  8
0
 10
423.0162881512631
 20
-541.12133500507446
 30
0.0
 11
422.5162881512631
 21
-541.02133384167678
 31
0.0
  0
LINE
  5
1FC02
  8
0
 10
419.51628815126321
 20
-537.22132686128975
 30
0.0
 11
419.01628815126321
 21
-537.12132569789264
 31
0.0
  0
LINE
  5
1FC03
  8
0
 10
419.51628815126321
 20
-538.82132686129034
 30
0.0
 11
419.01628815126321
 21
-538.72132569789255
 31
0.0
  0
LINE
  5
1FC04
  8
0
 10
419.51628815126321
 20
-542.02132686129028
 30
0.0
 11
419.01628815126321
 21
-541.92132569789271
 31
0.0
  0
LINE
  5
1FC05
  8
0
 10
419.51628815126321
 20
-540.42132686129025
 30
0.0
 11
419.01628815126321
 21
-540.32132569789258
 31
0.0
  0
LINE
  5
1FC06
  8
0
 10
419.01628815126321
 20
-540.32132569789258
 30
0.0
 11
423.0162881512631
 21
-539.52133500507432
 31
0.0
  0
LINE
  5
1FC07
  8
0
 10
419.01628815126321
 20
-538.72132569789255
 30
0.0
 11
423.0162881512631
 21
-537.92133500506986
 31
0.0
  0
LINE
  5
1FC08
  8
0
 10
419.01628815126321
 20
-541.92132569789271
 30
0.0
 11
423.0162881512631
 21
-541.12133500507446
 31
0.0
  0
LINE
  5
1FC09
  8
0
 10
419.01628815126321
 20
-543.52132569789262
 30
0.0
 11
423.0162881512631
 21
-542.72133500507437
 31
0.0
  0
LINE
  5
1FC0A
  8
0
 10
419.51628815126321
 20
-553.22132686129885
 30
0.0
 11
419.01628815126321
 21
-553.12132569790106
 31
0.0
  0
LINE
  5
1FC0B
  8
0
 10
419.01628815126321
 20
-553.12132569790106
 30
0.0
 11
423.0162881512631
 21
-552.32133500508291
 31
0.0
  0
LINE
  5
1FC0C
  8
0
 10
423.0162881512631
 20
-552.32133500508291
 30
0.0
 11
422.5162881512631
 21
-552.22133384168524
 31
0.0
  0
LINE
  5
1FC0D
  8
0
 10
419.51628815126321
 20
-551.62132686129894
 30
0.0
 11
419.01628815126321
 21
-551.52132569790115
 31
0.0
  0
LINE
  5
1FC0E
  8
0
 10
419.51628815126321
 20
-550.02132686129903
 30
0.0
 11
419.01628815126321
 21
-549.92132569790135
 31
0.0
  0
LINE
  5
1FC0F
  8
0
 10
419.01628815126321
 20
-549.92132569790135
 30
0.0
 11
423.0162881512631
 21
-549.1213350050831
 31
0.0
  0
LINE
  5
1FC10
  8
0
 10
423.0162881512631
 20
-550.72133500508301
 30
0.0
 11
422.5162881512631
 21
-550.62133384168533
 31
0.0
  0
LINE
  5
1FC11
  8
0
 10
423.0162881512631
 20
-549.1213350050831
 30
0.0
 11
422.5162881512631
 21
-549.02133384168542
 31
0.0
  0
LINE
  5
1FC12
  8
0
 10
419.01628815126321
 20
-551.52132569790115
 30
0.0
 11
423.0162881512631
 21
-550.72133500508301
 31
0.0
  0
LINE
  5
1FC13
  8
0
 10
419.51628815126321
 20
-548.42132686129457
 30
0.0
 11
419.01628815126321
 21
-548.3213256978969
 31
0.0
  0
LINE
  5
1FC14
  8
0
 10
419.51628815126321
 20
-554.82132686129864
 30
0.0
 11
419.01628815126321
 21
-554.72132569790097
 31
0.0
  0
LINE
  5
1FC15
  8
0
 10
419.01628815126321
 20
-554.72132569790097
 30
0.0
 11
423.0162881512631
 21
-553.92133500508282
 31
0.0
  0
LINE
  5
1FC16
  8
0
 10
423.0162881512631
 20
-553.92133500508282
 30
0.0
 11
422.5162881512631
 21
-553.82133384168515
 31
0.0
  0
LINE
  5
1FC17
  8
0
 10
419.51628815126321
 20
-556.42132686129855
 30
0.0
 11
419.01628815126321
 21
-556.32132569790087
 31
0.0
  0
LINE
  5
1FC18
  8
0
 10
419.01628815126321
 20
-556.32132569790087
 30
0.0
 11
423.0162881512631
 21
-555.52133500508273
 31
0.0
  0
LINE
  5
1FC19
  8
0
 10
423.0162881512631
 20
-555.52133500508273
 30
0.0
 11
422.5162881512631
 21
-555.42133384168505
 31
0.0
  0
LINE
  5
1FC1A
  8
0
 10
419.51628815126321
 20
-558.02132686129846
 30
0.0
 11
419.01628815126321
 21
-557.92132569790078
 31
0.0
  0
LINE
  5
1FC1B
  8
0
 10
419.01628815126321
 20
-557.92132569790078
 30
0.0
 11
423.0162881512631
 21
-557.12133500508264
 31
0.0
  0
LINE
  5
1FC1C
  8
0
 10
423.0162881512631
 20
-557.12133500508264
 30
0.0
 11
422.5162881512631
 21
-557.02133384168485
 31
0.0
  0
SOLID
  5
1FC1D
  8
1DIM
 10
729.80626606493036
 20
-624.93542921383153
 30
0.0
 11
729.06533133823746
 21
-626.8227889680627
 31
0.0
 12
729.15409886211535
 22
-624.79714550540302
 32
0.0
 13
729.15409886211535
 23
-624.79714550540302
 33
0.0
1001
ACAD
1000
DSTYLE
1002
{
1070
    45
1040
0.5
1002
}
  0
SOLID
  5
1FC1F
  8
1DIM
 10
716.67084791976515
 20
-624.93542921383153
 30
0.0
 11
715.92991319307225
 21
-626.8227889680627
 31
0.0
 12
716.01868071695014
 22
-624.79714550540302
 32
0.0
 13
716.01868071695014
 23
-624.79714550540302
 33
0.0
1001
ACAD
1000
DSTYLE
1002
{
1070
    45
1040
0.5
1002
}
  0
LINE
  5
1FC21
  8
1DIM
 10
490.5162416153654
 20
-555.8213303512664
 30
0.0
 11
490.5162416153654
 21
-519.82133035126628
 31
0.0
  0
LINE
  5
1FC22
  8
1DIM
 10
415.51624161536438
 20
-555.8213303512664
 30
0.0
 11
415.51624161536438
 21
-519.82133035126628
 31
0.0
  0
LINE
  5
1FC23
  8
1DIM
 10
488.51624161536529
 20
-520.82133035126628
 30
0.0
 11
417.51624161536449
 21
-520.82133035126628
 31
0.0
  0
LINE
  5
1FC27
  8
1DIM
 10
690.9198314538545
 20
-668.32133035126606
 30
0.0
 11
765.51624161536495
 21
-668.32133035126606
 31
0.0
  0
LINE
  5
1FC28
  8
1DIM
 10
690.9198314538545
 20
-643.32133035126606
 30
0.0
 11
765.51624161536495
 21
-643.32133035126606
 31
0.0
  0
LINE
  5
1FC29
  8
1DIM
 10
764.51624161536495
 20
-666.32133035126606
 30
0.0
 11
764.51624161536495
 21
-645.32133035126606
 31
0.0
  0
LINE
  5
1FC2D
  8
1DIM
 10
746.44703653266799
 20
-655.8213303512664
 30
0.0
 11
755.51624161536495
 21
-655.8213303512664
 31
0.0
  0
LINE
  5
1FC2E
  8
1DIM
 10
690.9198314538545
 20
-643.32133035126606
 30
0.0
 11
755.51624161536495
 21
-643.32133035126606
 31
0.0
  0
LINE
  5
1FC2F
  8
1DIM
 10
754.51624161536495
 20
-653.82133035126628
 30
0.0
 11
754.51624161536495
 21
-645.32133035126606
 31
0.0
  0
LINE
  5
1FC33
  8
1DIM
 10
713.01624161536495
 20
-693.04950393654815
 30
0.0
 11
713.01624161536495
 21
-702.42133035126756
 31
0.0
  0
LINE
  5
1FC34
  8
1DIM
 10
699.5162416153654
 20
-666.85749155519136
 30
0.0
 11
699.5162416153654
 21
-702.42133035126756
 31
0.0
  0
LINE
  5
1FC35
  8
1DIM
 10
711.01624161536495
 20
-701.42133035126767
 30
0.0
 11
701.51624161536529
 21
-701.42133035126767
 31
0.0
  0
LINE
  5
1FC39
  8
1DIM
 10
675.9198314538545
 20
-655.8213303512664
 30
0.0
 11
675.9198314538545
 21
-712.42133035126756
 31
0.0
  0
LINE
  5
1FC3A
  8
1DIM
 10
713.01624161536495
 20
-693.04950393654815
 30
0.0
 11
713.01624161536495
 21
-712.42133035126756
 31
0.0
  0
LINE
  5
1FC3B
  8
1DIM
 10
677.9198314538545
 20
-711.42133035126756
 30
0.0
 11
711.01624161536495
 21
-711.42133035126756
 31
0.0
  0
LINE
  5
1FC3F
  8
1DIM
 10
534.71889851481183
 20
-592.91774051278003
 30
0.0
 11
545.24583078632452
 21
-592.91774051278003
 31
0.0
  0
LINE
  5
1FC40
  8
1DIM
 10
534.71889851481183
 20
-585.91774051278003
 30
0.0
 11
545.24583078632452
 21
-585.91774051278003
 31
0.0
  0
LINE
  5
1FC41
  8
1DIM
 10
544.24583078632452
 20
-587.91774051278003
 30
0.0
 11
544.24583078632452
 21
-590.91774051278003
 31
0.0
  0
LINE
  5
1FC42
  8
1DIM
 10
544.24583078632452
 20
-592.91774051278003
 30
0.0
 11
544.24583078632452
 21
-598.65107384611338
 31
0.0
  0
TEXT
  5
1FC46
  8
1DIM
 10
558.04029607472239
 20
-599.64550169499364
 30
0.0
 40
3.5
  1
材質：亜鉛ダイキャスト
  0
TEXT
  5
1FC47
  8
1DIM
 10
570.17362940805572
 20
-605.47883502832701
 30
0.0
 40
3.5
  1
仕上げ：クローム
  0
SOLID
  5
1FC48
  8
1DIM
 10
609.20716488763071
 20
-592.99736082099275
 30
0.0
 11
610.13820220540777
 21
-591.19617215124777
 31
0.0
 12
609.84166052742785
 22
-593.2019573202856
 32
0.0
 13
609.84166052742785
 23
-593.2019573202856
 33
0.0
1001
ACAD
1000
DSTYLE
1002
{
1070
    45
1040
0.5
1002
}
  0
LINE
  5
1FC4A
  8
1DIM
 10
535.43068276584404
 20
-668.3213303512664
 30
0.0
 11
545.24583078632452
 21
-668.3213303512664
 31
0.0
  0
LINE
  5
1FC4B
  8
1DIM
 10
535.43068276584404
 20
-643.3213303512664
 30
0.0
 11
545.24583078632452
 21
-643.3213303512664
 31
0.0
  0
LINE
  5
1FC4C
  8
1DIM
 10
544.24583078632452
 20
-666.32133035126628
 30
0.0
 11
544.24583078632452
 21
-645.32133035126628
 31
0.0
  0
LINE
  5
1FC4D
  8
1DIM
 10
544.24583078632452
 20
-643.3213303512664
 30
0.0
 11
544.24583078632452
 21
-634.25466368459956
 31
0.0
  0
TEXT
  5
1FC51
  8
1DIM
 10
543.54583078632447
 20
-640.70466368459961
 30
0.0
 40
3.5
  1
25
 50
90.0
  0
LINE
  5
1FC52
  8
0
  6
BYBLOCK
 10
543.70993240632436
 20
-645.32133035126628
 30
0.0
 11
544.24583078632452
 21
-643.3213303512664
 31
0.0
  0
LINE
  5
1FC53
  8
0
  6
BYBLOCK
 10
544.24583078632452
 20
-643.3213303512664
 30
0.0
 11
544.78172916632457
 21
-645.32133035126628
 31
0.0
  0
LINE
  5
1FC54
  8
0
  6
BYBLOCK
 10
544.24583078632452
 20
-643.3213303512664
 30
0.0
 11
544.24583078632452
 21
-645.32133035126628
 31
0.0
  0
LINE
  5
1FC55
  8
0
  6
BYBLOCK
 10
544.78172916632457
 20
-666.32133035126628
 30
0.0
 11
544.24583078632452
 21
-668.3213303512664
 31
0.0
  0
LINE
  5
1FC56
  8
0
  6
BYBLOCK
 10
544.24583078632452
 20
-668.3213303512664
 30
0.0
 11
543.70993240632436
 21
-666.32133035126628
 31
0.0
  0
LINE
  5
1FC57
  8
0
  6
BYBLOCK
 10
544.24583078632452
 20
-668.3213303512664
 30
0.0
 11
544.24583078632452
 21
-666.32133035126628
 31
0.0
  0
LINE
  5
1FC58
  8
1DIM
 10
609.52441270752922
 20
-593.09965907063906
 30
0.0
 11
605.30696274138904
 21
-606.17883502832694
 31
0.0
1001
ACAD
1000
DSTYLE
1002
{
1070
    45
1040
0.5
1002
}
  0
LINE
  5
1FC59
  8
1DIM
 10
605.30696274138904
 20
-606.17883502832694
 30
0.0
 11
602.606962741389
 21
-606.17883502832694
 31
0.0
1001
ACAD
1000
DSTYLE
1002
{
1070
    45
1040
0.5
1002
}
  0
TEXT
  5
1FC5A
  8
1DIM
 10
543.54583078632447
 20
-597.95107384611322
 30
0.0
 40
3.5
  1
7
 50
90.0
  0
LINE
  5
1FC5B
  8
0
  6
BYBLOCK
 10
544.78172916632457
 20
-590.91774051278003
 30
0.0
 11
544.24583078632452
 21
-592.91774051278003
 31
0.0
  0
LINE
  5
1FC5C
  8
0
  6
BYBLOCK
 10
544.24583078632452
 20
-592.91774051278003
 30
0.0
 11
543.70993240632436
 21
-590.91774051278003
 31
0.0
  0
LINE
  5
1FC5D
  8
0
  6
BYBLOCK
 10
544.24583078632452
 20
-592.91774051278003
 30
0.0
 11
544.24583078632452
 21
-590.91774051278003
 31
0.0
  0
LINE
  5
1FC5E
  8
0
  6
BYBLOCK
 10
543.70993240632436
 20
-587.91774051278003
 30
0.0
 11
544.24583078632452
 21
-585.91774051278003
 31
0.0
  0
LINE
  5
1FC5F
  8
0
  6
BYBLOCK
 10
544.24583078632452
 20
-585.91774051278003
 30
0.0
 11
544.78172916632457
 21
-587.91774051278003
 31
0.0
  0
LINE
  5
1FC60
  8
0
  6
BYBLOCK
 10
544.24583078632452
 20
-585.91774051278003
 30
0.0
 11
544.24583078632452
 21
-587.91774051278003
 31
0.0
  0
TEXT
  5
1FC61
  8
1DIM
 10
691.55136986794309
 20
-710.72133035126762
 30
0.0
 40
3.5
  1
37
  0
LINE
  5
1FC62
  8
0
  6
BYBLOCK
 10
711.01624161536495
 20
-710.88543197126762
 30
0.0
 11
713.01624161536495
 21
-711.42133035126756
 31
0.0
  0
LINE
  5
1FC63
  8
0
  6
BYBLOCK
 10
713.01624161536495
 20
-711.42133035126756
 30
0.0
 11
711.01624161536495
 21
-711.95722873126772
 31
0.0
  0
LINE
  5
1FC64
  8
0
  6
BYBLOCK
 10
713.01624161536495
 20
-711.42133035126756
 30
0.0
 11
711.01624161536495
 21
-711.42133035126756
 31
0.0
  0
LINE
  5
1FC65
  8
0
  6
BYBLOCK
 10
677.9198314538545
 20
-711.95722873126772
 30
0.0
 11
675.9198314538545
 21
-711.42133035126756
 31
0.0
  0
LINE
  5
1FC66
  8
0
  6
BYBLOCK
 10
675.9198314538545
 20
-711.42133035126756
 30
0.0
 11
677.9198314538545
 21
-710.88543197126762
 31
0.0
  0
LINE
  5
1FC67
  8
0
  6
BYBLOCK
 10
675.9198314538545
 20
-711.42133035126756
 30
0.0
 11
677.9198314538545
 21
-711.42133035126756
 31
0.0
  0
TEXT
  5
1FC68
  8
1DIM
 10
701.59957494869855
 20
-700.72133035126762
 30
0.0
 40
3.5
  1
13.5
  0
LINE
  5
1FC69
  8
0
  6
BYBLOCK
 10
701.51624161536529
 20
-701.95722873126761
 30
0.0
 11
699.5162416153654
 21
-701.42133035126767
 31
0.0
  0
LINE
  5
1FC6A
  8
0
  6
BYBLOCK
 10
699.5162416153654
 20
-701.42133035126767
 30
0.0
 11
701.51624161536529
 21
-700.88543197126762
 31
0.0
  0
LINE
  5
1FC6B
  8
0
  6
BYBLOCK
 10
699.5162416153654
 20
-701.42133035126767
 30
0.0
 11
701.51624161536529
 21
-701.42133035126767
 31
0.0
  0
LINE
  5
1FC6C
  8
0
  6
BYBLOCK
 10
711.01624161536495
 20
-700.88543197126762
 30
0.0
 11
713.01624161536495
 21
-701.42133035126767
 31
0.0
  0
LINE
  5
1FC6D
  8
0
  6
BYBLOCK
 10
713.01624161536495
 20
-701.42133035126767
 30
0.0
 11
711.01624161536495
 21
-701.95722873126761
 31
0.0
  0
LINE
  5
1FC6E
  8
0
  6
BYBLOCK
 10
713.01624161536495
 20
-701.42133035126767
 30
0.0
 11
711.01624161536495
 21
-701.42133035126767
 31
0.0
  0
TEXT
  5
1FC6F
  8
1DIM
 10
753.81624161536502
 20
-651.90466368459954
 30
0.0
 40
3.5
  1
13
 50
90.0
  0
LINE
  5
1FC70
  8
0
  6
BYBLOCK
 10
753.98034323536478
 20
-645.32133035126606
 30
0.0
 11
754.51624161536495
 21
-643.32133035126606
 31
0.0
  0
LINE
  5
1FC71
  8
0
  6
BYBLOCK
 10
754.51624161536495
 20
-643.32133035126606
 30
0.0
 11
755.052139995365
 21
-645.32133035126606
 31
0.0
  0
LINE
  5
1FC72
  8
0
  6
BYBLOCK
 10
754.51624161536495
 20
-643.32133035126606
 30
0.0
 11
754.51624161536495
 21
-645.32133035126606
 31
0.0
  0
LINE
  5
1FC73
  8
0
  6
BYBLOCK
 10
755.052139995365
 20
-653.82133035126628
 30
0.0
 11
754.51624161536495
 21
-655.8213303512664
 31
0.0
  0
LINE
  5
1FC74
  8
0
  6
BYBLOCK
 10
754.51624161536495
 20
-655.8213303512664
 30
0.0
 11
753.98034323536478
 21
-653.82133035126628
 31
0.0
  0
LINE
  5
1FC75
  8
0
  6
BYBLOCK
 10
754.51624161536495
 20
-655.8213303512664
 30
0.0
 11
754.51624161536495
 21
-653.82133035126628
 31
0.0
  0
TEXT
  5
1FC76
  8
1DIM
 10
763.81624161536502
 20
-658.73799701793268
 30
0.0
 40
3.5
  1
25
 50
90.0
  0
LINE
  5
1FC77
  8
0
  6
BYBLOCK
 10
763.9803432353649
 20
-645.32133035126606
 30
0.0
 11
764.51624161536495
 21
-643.32133035126606
 31
0.0
  0
LINE
  5
1FC78
  8
0
  6
BYBLOCK
 10
764.51624161536495
 20
-643.32133035126606
 30
0.0
 11
765.052139995365
 21
-645.32133035126606
 31
0.0
  0
LINE
  5
1FC79
  8
0
  6
BYBLOCK
 10
764.51624161536495
 20
-643.32133035126606
 30
0.0
 11
764.51624161536495
 21
-645.32133035126606
 31
0.0
  0
LINE
  5
1FC7A
  8
0
  6
BYBLOCK
 10
765.052139995365
 20
-666.32133035126606
 30
0.0
 11
764.51624161536495
 21
-668.32133035126606
 31
0.0
  0
LINE
  5
1FC7B
  8
0
  6
BYBLOCK
 10
764.51624161536495
 20
-668.32133035126606
 30
0.0
 11
763.9803432353649
 21
-666.32133035126606
 31
0.0
  0
LINE
  5
1FC7C
  8
0
  6
BYBLOCK
 10
764.51624161536495
 20
-668.32133035126606
 30
0.0
 11
764.51624161536495
 21
-666.32133035126606
 31
0.0
  0
TEXT
  5
1FC7D
  8
1DIM
 10
450.0995749486982
 20
-520.12133035126635
 30
0.0
 40
3.5
  1
75
  0
LINE
  5
1FC7E
  8
0
  6
BYBLOCK
 10
417.51624161536449
 20
-521.35722873126645
 30
0.0
 11
415.51624161536438
 21
-520.82133035126628
 31
0.0
  0
LINE
  5
1FC7F
  8
0
  6
BYBLOCK
 10
415.51624161536438
 20
-520.82133035126628
 30
0.0
 11
417.51624161536449
 21
-520.28543197126635
 31
0.0
  0
LINE
  5
1FC80
  8
0
  6
BYBLOCK
 10
415.51624161536438
 20
-520.82133035126628
 30
0.0
 11
417.51624161536449
 21
-520.82133035126628
 31
0.0
  0
LINE
  5
1FC81
  8
0
  6
BYBLOCK
 10
488.51624161536529
 20
-520.28543197126635
 30
0.0
 11
490.5162416153654
 21
-520.82133035126628
 31
0.0
  0
LINE
  5
1FC82
  8
0
  6
BYBLOCK
 10
490.5162416153654
 20
-520.82133035126628
 30
0.0
 11
488.51624161536529
 21
-521.35722873126645
 31
0.0
  0
LINE
  5
1FC83
  8
0
  6
BYBLOCK
 10
490.5162416153654
 20
-520.82133035126628
 30
0.0
 11
488.51624161536529
 21
-520.82133035126628
 31
0.0
  0
LINE
  5
1FC84
  8
1DIM
 10
716.34476431835765
 20
-624.86628735961722
 30
0.0
 11
719.05375712618741
 21
-612.09026130414725
 31
0.0
1001
ACAD
1000
DSTYLE
1002
{
1070
    45
1040
0.5
1002
}
  0
LINE
  5
1FC85
  8
1DIM
 10
729.48018246352285
 20
-624.86628735961722
 30
0.0
 11
732.18917527135261
 21
-612.09026130414725
 31
0.0
1001
ACAD
1000
DSTYLE
1002
{
1070
    45
1040
0.5
1002
}
  0
TEXT
  5
1FC86
  8
1DIM
 10
448.34957494869838
 20
-700.72133035126762
 30
0.0
 40
3.5
  1
P28
  0
LINE
  5
1FC87
  8
0
  6
BYBLOCK
 10
465.01624161536512
 20
-700.88543197126762
 30
0.0
 11
467.01624161536512
 21
-701.42133035126767
 31
0.0
  0
LINE
  5
1FC88
  8
0
  6
BYBLOCK
 10
467.01624161536512
 20
-701.42133035126767
 30
0.0
 11
465.01624161536512
 21
-701.95722873126761
 31
0.0
  0
LINE
  5
1FC89
  8
0
  6
BYBLOCK
 10
467.01624161536512
 20
-701.42133035126767
 30
0.0
 11
465.01624161536512
 21
-701.42133035126767
 31
0.0
  0
LINE
  5
1FC8A
  8
0
  6
BYBLOCK
 10
441.01624161536517
 20
-701.95722873126761
 30
0.0
 11
439.01624161536517
 21
-701.42133035126767
 31
0.0
  0
LINE
  5
1FC8B
  8
0
  6
BYBLOCK
 10
439.01624161536517
 20
-701.42133035126767
 30
0.0
 11
441.01624161536517
 21
-700.88543197126762
 31
0.0
  0
LINE
  5
1FC8C
  8
0
  6
BYBLOCK
 10
439.01624161536517
 20
-701.42133035126767
 30
0.0
 11
441.01624161536517
 21
-701.42133035126767
 31
0.0
  0
TEXT
  5
1FC8D
  8
1DIM
 10
471.93290828203169
 20
-700.72133035126762
 30
0.0
 40
3.5
  1
P18
  0
LINE
  5
1FC8E
  8
0
  6
BYBLOCK
 10
483.016241615365
 20
-700.88543197126762
 30
0.0
 11
485.016241615365
 21
-701.42133035126767
 31
0.0
  0
LINE
  5
1FC8F
  8
0
  6
BYBLOCK
 10
485.016241615365
 20
-701.42133035126767
 30
0.0
 11
483.016241615365
 21
-701.95722873126761
 31
0.0
  0
LINE
  5
1FC90
  8
0
  6
BYBLOCK
 10
485.016241615365
 20
-701.42133035126767
 30
0.0
 11
483.016241615365
 21
-701.42133035126767
 31
0.0
  0
LINE
  5
1FC91
  8
0
  6
BYBLOCK
 10
469.01624161536512
 20
-701.95722873126761
 30
0.0
 11
467.01624161536512
 21
-701.42133035126767
 31
0.0
  0
LINE
  5
1FC92
  8
0
  6
BYBLOCK
 10
467.01624161536512
 20
-701.42133035126767
 30
0.0
 11
469.01624161536512
 21
-700.88543197126762
 31
0.0
  0
LINE
  5
1FC93
  8
0
  6
BYBLOCK
 10
467.01624161536512
 20
-701.42133035126767
 30
0.0
 11
469.01624161536512
 21
-701.42133035126767
 31
0.0
  0
TEXT
  5
1FC94
  8
1DIM
 10
425.93290828203192
 20
-700.72133035126762
 30
0.0
 40
3.5
  1
P18
  0
LINE
  5
1FC95
  8
0
  6
BYBLOCK
 10
423.01624161536517
 20
-701.95722873126761
 30
0.0
 11
421.01624161536529
 21
-701.42133035126767
 31
0.0
  0
LINE
  5
1FC96
  8
0
  6
BYBLOCK
 10
421.01624161536529
 20
-701.42133035126767
 30
0.0
 11
423.01624161536517
 21
-700.88543197126762
 31
0.0
  0
LINE
  5
1FC97
  8
0
  6
BYBLOCK
 10
421.01624161536529
 20
-701.42133035126767
 30
0.0
 11
423.01624161536517
 21
-701.42133035126767
 31
0.0
  0
LINE
  5
1FC98
  8
0
  6
BYBLOCK
 10
437.01624161536529
 20
-700.88543197126762
 30
0.0
 11
439.01624161536517
 21
-701.42133035126767
 31
0.0
  0
LINE
  5
1FC99
  8
0
  6
BYBLOCK
 10
439.01624161536517
 20
-701.42133035126767
 30
0.0
 11
437.01624161536529
 21
-701.95722873126761
 31
0.0
  0
LINE
  5
1FC9A
  8
0
  6
BYBLOCK
 10
439.01624161536517
 20
-701.42133035126767
 30
0.0
 11
437.01624161536529
 21
-701.42133035126767
 31
0.0
  0
TEXT
  5
1FC9B
  8
1DIM
 10
513.64124161536506
 20
-710.72133035126762
 30
0.0
 40
3.5
  1
250
  0
LINE
  5
1FC9C
  8
0
  6
BYBLOCK
 10
641.01624161536529
 20
-710.88543197126762
 30
0.0
 11
643.01624161536529
 21
-711.42133035126756
 31
0.0
  0
LINE
  5
1FC9D
  8
0
  6
BYBLOCK
 10
643.01624161536529
 20
-711.42133035126756
 30
0.0
 11
641.01624161536529
 21
-711.95722873126772
 31
0.0
  0
LINE
  5
1FC9E
  8
0
  6
BYBLOCK
 10
643.01624161536529
 20
-711.42133035126756
 30
0.0
 11
641.01624161536529
 21
-711.42133035126756
 31
0.0
  0
LINE
  5
1FC9F
  8
0
  6
BYBLOCK
 10
395.01624161536512
 20
-711.95722873126772
 30
0.0
 11
393.01624161536512
 21
-711.42133035126756
 31
0.0
  0
LINE
  5
1FCA0
  8
0
  6
BYBLOCK
 10
393.01624161536512
 20
-711.42133035126756
 30
0.0
 11
395.01624161536512
 21
-710.88543197126762
 31
0.0
  0
LINE
  5
1FCA1
  8
0
  6
BYBLOCK
 10
393.01624161536512
 20
-711.42133035126756
 30
0.0
 11
395.01624161536512
 21
-711.42133035126756
 31
0.0
  0
TEXT
  5
1FCA2
  8
1DIM
 10
404.09957494869849
 20
-700.72133035126762
 30
0.0
 40
3.5
  1
28
  0
LINE
  5
1FCA3
  8
0
  6
BYBLOCK
 10
395.01624161536512
 20
-701.95722873126761
 30
0.0
 11
393.01624161536512
 21
-701.42133035126767
 31
0.0
  0
LINE
  5
1FCA4
  8
0
  6
BYBLOCK
 10
393.01624161536512
 20
-701.42133035126767
 30
0.0
 11
395.01624161536512
 21
-700.88543197126762
 31
0.0
  0
LINE
  5
1FCA5
  8
0
  6
BYBLOCK
 10
393.01624161536512
 20
-701.42133035126767
 30
0.0
 11
395.01624161536512
 21
-701.42133035126767
 31
0.0
  0
LINE
  5
1FCA6
  8
0
  6
BYBLOCK
 10
419.01624161536517
 20
-700.88543197126762
 30
0.0
 11
421.01624161536529
 21
-701.42133035126767
 31
0.0
  0
LINE
  5
1FCA7
  8
0
  6
BYBLOCK
 10
421.01624161536529
 20
-701.42133035126767
 30
0.0
 11
419.01624161536517
 21
-701.95722873126761
 31
0.0
  0
LINE
  5
1FCA8
  8
0
  6
BYBLOCK
 10
421.01624161536529
 20
-701.42133035126767
 30
0.0
 11
419.01624161536517
 21
-701.42133035126767
 31
0.0
  0
LINE
  5
1FCA9
  8
1DIM
 10
462.89996597795488
 20
-577.38223063255543
 30
0.0
 11
503.67995163457499
 21
-567.07379853740815
 31
0.0
1001
ACAD
1000
DSTYLE
1002
{
1070
    45
1040
0.5
1002
}
  0
LINE
  5
1FCAA
  8
1DIM
 10
503.67995163457499
 20
-567.07379853740815
 30
0.0
 11
504.37995163457498
 21
-567.07379853740815
 31
0.0
1001
ACAD
1000
DSTYLE
1002
{
1070
    45
1040
0.5
1002
}
  0
VIEWPORT
  5
57
 67
     1
  8
0
 10
84.038254629564904
 20
10.09248672500371
 30
0.0
 40
615.6268866108453
 41
282.7709936805748
 68
     1
 69
     1
1001
ACAD
1000
MVIEW
1002
{
1070
    16
1010
0.0
1020
0.0
1030
0.0
1010
0.0
1020
0.0
1030
1.0
1040
0.0
1040
282.7709936805748
1040
84.038254629564904
1040
10.09248672500371
1040
50.0
1040
0.0
1040
0.0
1070
     0
1070
   100
1070
     1
1070
     1
1070
     0
1070
     0
1070
     0
1070
     0
1040
0.0
1040
0.0
1040
0.0
1040
10.0
1040
10.0
1040
10.0
1040
10.0
1070
     0
1002
{
1002
}
1002
}
  0
ENDSEC
  0
EOF
