  0
SECTION
  2
HEADER
  9
$ACADVER
  1
AC1009
  9
$INSBASE
 10
0.0
 20
0.0
 30
0.0
  9
$EXTMIN
 10
387.1960951290842
 20
-764.94166075862904
 30
0.0
  9
$EXTMAX
 10
732.88754429013704
 20
-481.25221974208642
 30
0.0
  9
$LIMMIN
 10
0.0
 20
0.0
  9
$LIMMAX
 10
420.0
 20
297.0
  9
$ORTHOMODE
 70
     0
  9
$REGENMODE
 70
     1
  9
$FILLMODE
 70
     1
  9
$QTEXTMODE
 70
     0
  9
$MIRRTEXT
 70
     0
  9
$DRAGMODE
 70
     2
  9
$LTSCALE
 40
0.5
  9
$OSMODE
 70
    55
  9
$ATTMODE
 70
     1
  9
$TEXTSIZE
 40
4.0
  9
$TRACEWID
 40
1.0
  9
$TEXTSTYLE
  7
STANDARD
  9
$CLAYER
  8
1TEXT
  9
$CELTYPE
  6
BYLAYER
  9
$CECOLOR
 62
   256
  9
$DIMSCALE
 40
1.0
  9
$DIMASZ
 40
2.0
  9
$DIMEXO
 40
0.0
  9
$DIMDLI
 40
7.0
  9
$DIMRND
 40
0.0
  9
$DIMDLE
 40
0.0
  9
$DIMEXE
 40
1.0
  9
$DIMTP
 40
0.0
  9
$DIMTM
 40
0.0
  9
$DIMTXT
 40
3.5
  9
$DIMCEN
 40
0.0
  9
$DIMTSZ
 40
0.0
  9
$DIMTOL
 70
     0
  9
$DIMLIM
 70
     0
  9
$DIMTIH
 70
     0
  9
$DIMTOH
 70
     0
  9
$DIMSE1
 70
     0
  9
$DIMSE2
 70
     0
  9
$DIMTAD
 70
     1
  9
$DIMZIN
 70
     8
  9
$DIMBLK
  1

  9
$DIMASO
 70
     1
  9
$DIMSHO
 70
     1
  9
$DIMPOST
  1
 
  9
$DIMAPOST
  1

  9
$DIMALT
 70
     0
  9
$DIMALTD
 70
     2
  9
$DIMALTF
 40
25.399999999999999
  9
$DIMLFAC
 40
1.0
  9
$DIMTOFL
 70
     1
  9
$DIMTVP
 40
0.0
  9
$DIMTIX
 70
     0
  9
$DIMSOXD
 70
     0
  9
$DIMSAH
 70
     1
  9
$DIMBLK1
  1
OPEN30
  9
$DIMBLK2
  1
OPEN30
  9
$DIMSTYLE
  2
NEWX10
  9
$DIMCLRD
 70
   256
  9
$DIMCLRE
 70
   256
  9
$DIMCLRT
 70
   201
  9
$DIMTFAC
 40
0.7
  9
$DIMGAP
 40
0.7
  9
$LUNITS
 70
     2
  9
$LUPREC
 70
     4
  9
$SKETCHINC
 40
1.0
  9
$FILLETRAD
 40
0.0
  9
$AUNITS
 70
     0
  9
$AUPREC
 70
     2
  9
$MENU
  1
acad
  9
$ELEVATION
 40
0.0
  9
$PELEVATION
 40
0.0
  9
$THICKNESS
 40
0.0
  9
$LIMCHECK
 70
     0
  9
$BLIPMODE
 70
     0
  9
$CHAMFERA
 40
1.0
  9
$CHAMFERB
 40
1.0
  9
$SKPOLY
 70
     0
  9
$TDCREATE
 40
2453033.7326634838
  9
$TDUPDATE
 40
2457634.6906888308
  9
$TDINDWG
 40
2.6076334375000001
  9
$TDUSRTIMER
 40
2.6076334375000001
  9
$USRTIMER
 70
     1
  9
$ANGBASE
 50
0.0
  9
$ANGDIR
 70
     0
  9
$PDMODE
 70
     0
  9
$PDSIZE
 40
0.0
  9
$PLINEWID
 40
0.0
  9
$COORDS
 70
     0
  9
$SPLFRAME
 70
     0
  9
$SPLINETYPE
 70
     6
  9
$SPLINESEGS
 70
     8
  9
$ATTDIA
 70
     0
  9
$ATTREQ
 70
     1
  9
$HANDLING
 70
     1
  9
$HANDSEED
  5
218BA
  9
$SURFTAB1
 70
     6
  9
$SURFTAB2
 70
     6
  9
$SURFTYPE
 70
     6
  9
$SURFU
 70
     6
  9
$SURFV
 70
     6
  9
$UCSNAME
  2

  9
$UCSORG
 10
0.0
 20
0.0
 30
0.0
  9
$UCSXDIR
 10
1.0
 20
0.0
 30
0.0
  9
$UCSYDIR
 10
0.0
 20
1.0
 30
0.0
  9
$PUCSNAME
  2

  9
$PUCSORG
 10
0.0
 20
0.0
 30
0.0
  9
$PUCSXDIR
 10
1.0
 20
0.0
 30
0.0
  9
$PUCSYDIR
 10
0.0
 20
1.0
 30
0.0
  9
$USERI1
 70
     0
  9
$USERI2
 70
     0
  9
$USERI3
 70
     0
  9
$USERI4
 70
     0
  9
$USERI5
 70
     0
  9
$USERR1
 40
0.0
  9
$USERR2
 40
0.0
  9
$USERR3
 40
0.0
  9
$USERR4
 40
0.0
  9
$USERR5
 40
0.0
  9
$WORLDVIEW
 70
     1
  9
$SHADEDGE
 70
     3
  9
$SHADEDIF
 70
    70
  9
$TILEMODE
 70
     1
  9
$MAXACTVP
 70
    48
  9
$PLIMCHECK
 70
     0
  9
$PEXTMIN
 10
1.0000000000000000E+020
 20
1.0000000000000000E+020
 30
1.0000000000000000E+020
  9
$PEXTMAX
 10
-1.0000000000000000E+020
 20
-1.0000000000000000E+020
 30
-1.0000000000000000E+020
  9
$PLIMMIN
 10
0.0
 20
0.0
  9
$PLIMMAX
 10
420.0
 20
297.0
  9
$UNITMODE
 70
     0
  9
$VISRETAIN
 70
     1
  9
$PLINEGEN
 70
     0
  9
$PSLTSCALE
 70
     1
  0
ENDSEC
  0
SECTION
  2
TABLES
  0
TABLE
  2
VPORT
 70
     1
  0
VPORT
  2
*ACTIVE
 70
     0
 10
0.0
 20
0.0
 11
1.0
 21
1.0
 12
560.04905377842556
 22
-623.10853867350215
 13
0.0
 23
0.0
 14
10.0
 24
10.0
 15
10.0
 25
10.0
 16
0.0
 26
0.0
 36
1.0
 17
0.0
 27
0.0
 37
0.0
 40
300.89866444465167
 41
2.1885143570536818
 42
50.0
 43
0.0
 44
0.0
 50
0.0
 51
0.0
 71
     0
 72
   100
 73
     1
 74
     1
 75
     0
 76
     0
 77
     0
 78
     0
  0
ENDTAB
  0
TABLE
  2
LTYPE
 70
    19
  0
LTYPE
  2
CONTINUOUS
 70
     0
  3
Solid line
 72
    65
 73
     0
 40
0.0
  0
LTYPE
  2
CENTER2
 70
     0
  3
Center (.5x) ___ _ ___ _ ___ _ ___ _ ___ _ ___
 72
    65
 73
     4
 40
28.574999999999999
 49
19.050000000000001
 49
-3.1749999999999989
 49
3.1749999999999989
 49
-3.1749999999999989
  0
LTYPE
  2
PHANTOM2
 70
     0
  3
Phantom (.5x) ___ _ _ ___ _ _ ___ _ _ ___ _ _
 72
    65
 73
     6
 40
31.75
 49
15.875
 49
-3.1749999999999989
 49
3.1749999999999989
 49
-3.1749999999999989
 49
3.1749999999999989
 49
-3.1749999999999989
  0
ENDTAB
  0
TABLE
  2
LAYER
 70
    45
  0
LAYER
  2
0
 70
     0
 62
     7
  6
CONTINUOUS
  0
LAYER
  2
1CENTER
 70
     0
 62
     7
  6
CENTER2
  0
LAYER
  2
1TEXT
 70
     0
 62
     7
  6
CONTINUOUS
  0
LAYER
  2
1DIM
 70
     0
 62
     7
  6
CONTINUOUS
  0
LAYER
  2
1PHANTOM
 70
     0
 62
     7
  6
PHANTOM2
  0
LAYER
  2
01
 70
     0
 62
     1
  6
CONTINUOUS
  0
ENDTAB
  0
TABLE
  2
STYLE
 70
    24
  0
STYLE
  2
STANDARD
 70
     0
 40
0.0
 41
1.0
 50
0.0
 71
     0
 42
4.0
  3
txt.shx
  4
extfont.shx
  0
ENDTAB
  0
TABLE
  2
VIEW
 70
     7
  0
ENDTAB
  0
TABLE
  2
UCS
 70
     0
  0
ENDTAB
  0
TABLE
  2
APPID
 70
    13
  0
APPID
  2
ACAD
 70
     0
  0
APPID
  2
DRAWINGVARIABLESXDATA
 70
     0
  0
APPID
  2
CONTENTTABDATA
 70
     0
  0
APPID
  2
CONTENTCURRENTTAB
 70
     0
  0
APPID
  2
CONTENTBLOCKDESCRIPTION
 70
     0
  0
APPID
  2
CONTENTBLOCKICON
 70
     0
  0
APPID
  2
CONTENTLONGBLOCKNAME
 70
     0
  0
APPID
  2
ACAD_PSEXT
 70
     0
  0
APPID
  2
ACAD_DSTYLE_DIMTEXT_FILL
 70
     0
  0
APPID
  2
ACAD_MLEADERVER
 70
     0
  0
APPID
  2
ACAD_DSTYLE_DIMRADIAL_EXTENSION
 70
     0
  0
APPID
  2
ACADANNOTATIVE
 70
     0
  0
APPID
  2
ACAD_EXEMPT_FROM_CAD_STANDARDS
 70
     0
  0
ENDTAB
  0
TABLE
  2
DIMSTYLE
 70
    10
  0
DIMSTYLE
  2
NEWX10
 70
     0
  3
 
  4

  5

  6
OPEN30
  7
OPEN30
 40
1.0
 41
2.0
 42
0.0
 43
7.0
 44
1.0
 45
0.0
 46
0.0
 47
0.0
 48
0.0
140
3.5
141
0.0
142
0.0
143
25.399999999999999
144
1.0
145
0.0
146
0.7
147
0.7
 71
     0
 72
     0
 73
     0
 74
     0
 75
     0
 76
     0
 77
     1
 78
     8
170
     0
171
     2
172
     1
173
     1
174
     0
175
     0
176
   256
177
   256
178
   201
  0
ENDTAB
  0
ENDSEC
  0
SECTION
  2
BLOCKS
  0
BLOCK
  8
0
  2
$MODEL_SPACE
 70
     0
 10
0.0
 20
0.0
 30
0.0
  3
$MODEL_SPACE
  1

  0
ENDBLK
  5
1A
  8
0
  0
BLOCK
 67
     1
  8
0
  2
$PAPER_SPACE
 70
     0
 10
0.0
 20
0.0
 30
0.0
  3
$PAPER_SPACE
  1

  0
ENDBLK
  5
17
 67
     1
  8
0
  0
BLOCK
  8
0
  2
_OPEN30
 70
     0
 10
0.0
 20
0.0
 30
0.0
  3
_OPEN30
  1

  0
LINE
  5
44
  8
0
  6
BYBLOCK
 62
     0
 10
-1.0
 20
0.26794919
 30
0.0
 11
0.0
 21
0.0
 31
0.0
  0
LINE
  5
45
  8
0
  6
BYBLOCK
 62
     0
 10
0.0
 20
0.0
 30
0.0
 11
-1.0
 21
-0.26794919
 31
0.0
  0
LINE
  5
46
  8
0
  6
BYBLOCK
 62
     0
 10
0.0
 20
0.0
 30
0.0
 11
-1.0
 21
0.0
 31
0.0
  0
ENDBLK
  5
47
  8
0
  0
ENDSEC
  0
SECTION
  2
ENTITIES
  0
LINE
  5
1D8CA
  8
01
 10
668.85331781727621
 20
-650.67133035126585
 30
0.0
 11
668.85331781727621
 21
-672.82133035126719
 31
0.0
  0
LINE
  5
1D90A
  8
01
 10
668.85331781727621
 20
-653.17133035126653
 30
0.0
 11
668.85331781727621
 21
-670.82133035126594
 31
0.0
  0
TEXT
  5
1DB93
  8
1TEXT
 10
638.01402212428377
 20
-552.50387501025739
 30
0.0
 40
4.0
  1
表面処理
 72
     1
 11
647.08068879095038
 21
-552.50387501025739
 31
0.0
  0
LINE
  5
1DB94
  8
1DIM
 10
629.6806887909504
 20
-547.00387501025727
 30
0.0
 11
699.6806887909504
 21
-547.00387501025727
 31
0.0
  0
LINE
  5
1DB95
  8
1DIM
 10
629.6806887909504
 20
-561.00387501025739
 30
0.0
 11
699.6806887909504
 21
-561.00387501025739
 31
0.0
  0
LINE
  5
1DB96
  8
1DIM
 10
629.6806887909504
 20
-554.00387501025727
 30
0.0
 11
699.6806887909504
 21
-554.00387501025727
 31
0.0
  0
LINE
  5
1DB97
  8
1DIM
 10
664.68068879095028
 20
-547.00387501025727
 30
0.0
 11
664.68068879094994
 21
-561.00387501025739
 31
0.0
  0
TEXT
  5
1DB98
  8
1TEXT
 10
675.28068879095053
 20
-552.50387501025739
 30
0.0
 40
4.0
  1
コード
 72
     1
 11
682.08068879095049
 21
-552.50387501025739
 31
0.0
  0
LINE
  5
1DB99
  8
1DIM
 10
629.6806887909504
 20
-561.00387501025739
 30
0.0
 11
629.6806887909504
 21
-547.00387501025727
 31
0.0
  0
LINE
  5
1DB9A
  8
1DIM
 10
699.68068879095017
 20
-561.00387501025739
 30
0.0
 11
699.6806887909504
 21
-547.00387501025727
 31
0.0
  0
TEXT
  5
1DB9B
  8
1TEXT
 10
629.6806887909504
 20
-542.00387501025727
 30
0.0
 40
8.0
  1
SC-618-X
  0
TEXT
  5
1DB9C
  8
1TEXT
 10
637.747355457617
 20
-559.33916366978156
 30
0.0
 40
4.0
  1
クローム
 72
     1
 11
647.08068879095038
 21
-559.33916366978156
 31
0.0
  0
TEXT
  5
1DB9D
  8
1TEXT
 10
667.91402212428409
 20
-559.71823199390656
 30
0.0
 40
4.0
  1
SC-618-XC
 41
0.85
 72
     1
 11
682.0806887909506
 21
-559.71823199390656
 31
0.0
  0
LINE
  5
1DBA4
  8
01
 10
681.35331781727621
 20
-591.8526719825818
 30
0.0
 11
681.35331781727609
 21
-719.78998871994952
 31
0.0
  0
LINE
  5
1DBA5
  8
01
 10
690.35331781727621
 20
-591.8526719825818
 30
0.0
 11
690.35331781727609
 21
-719.78998871994952
 31
0.0
  0
LINE
  5
1DBA6
  8
01
 10
668.85331781727621
 20
-591.8526719825818
 30
0.0
 11
668.85331781727621
 21
-719.78998871994952
 31
0.0
  0
LINE
  5
1E9CD
  8
01
 10
665.85331781727621
 20
-628.32133020437016
 30
0.0
 11
666.85331781727609
 21
-627.32133050437028
 31
0.0
  0
LINE
  5
1E9CE
  8
01
 10
665.85331781727621
 20
-631.62133035437023
 30
0.0
 11
666.85331781727609
 21
-631.62133035437023
 31
0.0
  0
LINE
  5
1E9CF
  8
01
 10
666.85331781727609
 20
-631.62133035437023
 30
0.0
 11
666.85331781727609
 21
-624.02133035437032
 31
0.0
  0
LINE
  5
1E9D0
  8
01
 10
665.85331781727621
 20
-631.62133035437023
 30
0.0
 11
665.85331781727621
 21
-624.02133035437032
 31
0.0
  0
LINE
  5
1E9D1
  8
01
 10
665.85331781727621
 20
-624.02133035437032
 30
0.0
 11
666.85331781727609
 21
-624.02133035437032
 31
0.0
  0
LINE
  5
1E9D4
  8
01
 10
451.76577954289002
 20
-517.68301465938953
 30
0.0
 11
450.76577984289003
 21
-516.68301465938953
 31
0.0
  0
LINE
  5
1E9D5
  8
01
 10
455.06577969288992
 20
-517.68301465938953
 30
0.0
 11
455.06577969288992
 21
-516.68301465938953
 31
0.0
  0
LINE
  5
1E9D6
  8
01
 10
455.06577969288992
 20
-516.68301465938953
 30
0.0
 11
447.46577969289012
 21
-516.68301465938953
 31
0.0
  0
LINE
  5
1E9D7
  8
01
 10
455.06577969288992
 20
-517.68301465938953
 30
0.0
 11
447.46577969289012
 21
-517.68301465938953
 31
0.0
  0
LINE
  5
1E9D8
  8
01
 10
447.46577969289012
 20
-517.68301465938953
 30
0.0
 11
447.46577969289012
 21
-516.68301465938953
 31
0.0
  0
LINE
  5
1EBEF
  8
01
 10
665.85331781727621
 20
-684.32133020437016
 30
0.0
 11
666.85331781727609
 21
-683.32133050437017
 31
0.0
  0
LINE
  5
1EBF0
  8
01
 10
665.85331781727621
 20
-687.62133035437023
 30
0.0
 11
666.85331781727609
 21
-687.62133035437023
 31
0.0
  0
LINE
  5
1EBF1
  8
01
 10
666.85331781727609
 20
-687.62133035437023
 30
0.0
 11
666.85331781727609
 21
-680.02133035437032
 31
0.0
  0
LINE
  5
1EBF2
  8
01
 10
665.85331781727621
 20
-687.62133035437023
 30
0.0
 11
665.85331781727621
 21
-680.02133035437032
 31
0.0
  0
LINE
  5
1EBF3
  8
01
 10
665.85331781727621
 20
-680.02133035437032
 30
0.0
 11
666.85331781727609
 21
-680.02133035437032
 31
0.0
  0
LINE
  5
2022D
  8
01
 10
448.66624161536549
 20
-645.8213303512656
 30
0.0
 11
449.26624161536489
 21
-645.82133035126571
 31
0.0
  0
LINE
  5
2022E
  8
01
 10
449.26624161536489
 20
-665.82133035126617
 30
0.0
 11
448.66624161536589
 21
-665.82133035126617
 31
0.0
  0
LINE
  5
2022F
  8
01
 10
556.6162416153644
 20
-700.82133035126731
 30
0.0
 11
556.6162416153644
 21
-610.82133035126719
 31
0.0
  0
LINE
  5
20230
  8
01
 10
452.91624161536458
 20
-708.17133035126722
 30
0.0
 11
549.26624161536404
 21
-708.17133035126722
 31
0.0
  0
ARC
  5
20231
  8
01
 10
452.91624161536458
 20
-707.17133035126722
 30
0.0
 40
1.0
 50
180.0
 51
270.0
  0
ARC
  5
20232
  8
01
 10
549.26624161536404
 20
-610.82133035126765
 30
0.0
 40
7.3500000000003629
 50
0.0
 51
90.0
  0
ARC
  5
20233
  8
01
 10
549.26624161536495
 20
-700.82133035126765
 30
0.0
 40
7.3499999999995671
 50
269.99999999997391
 51
0.0
  0
LINE
  5
20236
  8
01
 10
451.91624161536458
 20
-604.4713303512674
 30
0.0
 11
451.91624161536458
 21
-707.17133035126722
 31
0.0
  0
ARC
  5
20237
  8
01
 10
452.91624161536458
 20
-604.4713303512674
 30
0.0
 40
1.0
 50
90.0
 51
180.0
  0
LINE
  5
20238
  8
01
 10
549.26624161536404
 20
-603.4713303512674
 30
0.0
 11
452.91624161536458
 21
-603.4713303512674
 31
0.0
  0
ARC
  5
2030D
  8
01
 10
549.26624161536495
 20
-700.8213303512664
 30
0.0
 40
7.5000000000001128
 50
270.0
 51
0.0
  0
LINE
  5
2030E
  8
01
 10
452.76624161536489
 20
-708.3213303512664
 30
0.0
 11
549.26624161536495
 21
-708.3213303512664
 31
0.0
  0
ARC
  5
2030F
  8
01
 10
452.76624161536489
 20
-707.32133035126628
 30
0.0
 40
1.0
 50
180.0
 51
270.0
  0
LINE
  5
20311
  8
01
 10
451.76624161536489
 20
-604.3213303512664
 30
0.0
 11
451.76624161536489
 21
-707.32133035126628
 31
0.0
  0
ARC
  5
20312
  8
01
 10
452.76624161536489
 20
-604.3213303512664
 30
0.0
 40
1.0
 50
90.0
 51
180.0
  0
LINE
  5
20313
  8
01
 10
549.26624161536495
 20
-603.32133035126628
 30
0.0
 11
452.76624161536489
 21
-603.32133035126628
 31
0.0
  0
ARC
  5
20314
  8
01
 10
549.26624161536495
 20
-610.82133035126594
 30
0.0
 40
7.4999999999995453
 50
0.0
 51
90.0
  0
LINE
  5
20315
  8
01
 10
556.76624161536495
 20
-700.8213303512664
 30
0.0
 11
556.76624161536495
 21
-610.8213303512664
 31
0.0
  0
ARC
  5
20316
  8
01
 10
549.26624161536404
 20
-700.82133035126594
 30
0.0
 40
10.00000000000068
 50
270.0
 51
0.0
  0
LINE
  5
20317
  8
01
 10
559.26624161536495
 20
-610.8213303512664
 30
0.0
 11
559.26624161536495
 21
-700.8213303512664
 31
0.0
  0
ARC
  5
20318
  8
01
 10
549.26624161536313
 20
-610.8213303512664
 30
0.0
 40
10.00000000000159
 50
0.0
 51
90.0
  0
LINE
  5
20319
  8
01
 10
450.76624161536489
 20
-600.8213303512664
 30
0.0
 11
549.26624161536495
 21
-600.82133035126503
 31
0.0
  0
ARC
  5
2031A
  8
01
 10
450.76624161536489
 20
-602.3213303512664
 30
0.0
 40
1.5
 50
90.0
 51
180.0
  0
LINE
  5
2031B
  8
01
 10
449.26624161536489
 20
-709.3213303512664
 30
0.0
 11
449.26624161536301
 21
-602.3213303512664
 31
0.0
  0
ARC
  5
2031D
  8
01
 10
450.76624161536489
 20
-709.3213303512664
 30
0.0
 40
1.5
 50
180.0
 51
270.0
  0
LINE
  5
2031E
  8
01
 10
549.26624161536495
 20
-710.8213303512664
 30
0.0
 11
450.76624161536489
 21
-710.8213303512664
 31
0.0
  0
LINE
  5
20357
  8
01
 10
447.16624161536458
 20
-600.8213303512664
 30
0.0
 11
416.26624161536489
 21
-600.8213303512664
 31
0.0
  0
ARC
  5
20358
  8
01
 10
447.16624161536458
 20
-602.3213303512664
 30
0.0
 40
1.5
 50
0.0
 51
90.0
  0
LINE
  5
20359
  8
01
 10
406.26624161536489
 20
-610.8213303512664
 30
0.0
 11
406.26624161536489
 21
-700.8213303512664
 31
0.0
  0
LINE
  5
2035A
  8
01
 10
416.26624161536489
 20
-710.8213303512664
 30
0.0
 11
447.16624161536458
 21
-710.8213303512664
 31
0.0
  0
ARC
  5
2035B
  8
01
 10
416.26624161536489
 20
-610.8213303512664
 30
0.0
 40
10.0
 50
90.0
 51
180.0
  0
ARC
  5
2035C
  8
01
 10
416.26624161536489
 20
-700.82133035126537
 30
0.0
 40
10.000000000000449
 50
180.0
 51
270.0
  0
LINE
  5
2035E
  8
01
 10
448.6662416153668
 20
-709.32133035126617
 30
0.0
 11
448.66624161536453
 21
-602.3213303512664
 31
0.0
  0
ARC
  5
2035F
  8
01
 10
447.16624161536458
 20
-709.3213303512664
 30
0.0
 40
1.5
 50
270.0
 51
0.0000000000032569
  0
LINE
  5
20ADC
  8
1PHANTOM
 10
408.01577968978842
 20
-616.32133035126628
 30
0.0
 11
408.01577968978842
 21
-627.67133035126585
 31
0.0
  0
ARC
  5
20ADD
  8
1PHANTOM
 10
408.51577968978842
 20
-627.67133035126585
 30
0.0
 40
0.5
 50
180.0
 51
270.0
  0
LINE
  5
20ADE
  8
1PHANTOM
 10
408.01577968978842
 20
-683.97129917340794
 30
0.0
 11
408.01577968978842
 21
-695.32133035126731
 31
0.0
  0
ARC
  5
20ADF
  8
1PHANTOM
 10
408.51577968978842
 20
-695.32133035126731
 30
0.0
 40
0.5
 50
180.0
 51
270.0
  0
LINE
  5
20AE5
  8
1PHANTOM
 10
423.01577968978791
 20
-627.67133035126585
 30
0.0
 11
423.01577968978893
 21
-616.32133035126628
 31
0.0
  0
ARC
  5
20AE6
  8
1PHANTOM
 10
422.5157796897883
 20
-616.32133035126628
 30
0.0
 40
0.5
 50
0.0
 51
90.0
  0
LINE
  5
20AE7
  8
1PHANTOM
 10
423.0157796897883
 20
-695.32133035126628
 30
0.0
 11
423.01577968978893
 21
-683.97132927616826
 31
0.0
  0
ARC
  5
20AE8
  8
1PHANTOM
 10
422.5157796897883
 20
-695.32133035126628
 30
0.0
 40
0.5
 50
270.0
 51
0.0
  0
LINE
  5
20AE9
  8
1PHANTOM
 10
423.51577968978842
 20
-628.17133035126585
 30
0.0
 11
423.51577968978842
 21
-683.47133142636415
 31
0.0
  0
LINE
  5
20AEA
  8
1PHANTOM
 10
408.5157807648871
 20
-683.47129917340897
 30
0.0
 11
423.51577968978842
 21
-683.47133142636415
 31
0.0
  0
ARC
  5
20AEB
  8
1PHANTOM
 10
422.51577968978881
 20
-683.97132927616826
 30
0.0
 40
0.5
 50
0.0
 51
89.99987680276611
  0
ARC
  5
20AEC
  8
1PHANTOM
 10
408.51577968978842
 20
-683.97129917340794
 30
0.0
 40
0.5
 50
89.99987680276611
 51
180.0
  0
LINE
  5
20AED
  8
1PHANTOM
 10
423.51577968978842
 20
-628.17133035126585
 30
0.0
 11
408.51577968978842
 21
-628.17133035126585
 31
0.0
  0
ARC
  5
20AEE
  8
1PHANTOM
 10
422.5157796897883
 20
-627.67133035126585
 30
0.0
 40
0.5
 50
270.0
 51
0.0
  0
LINE
  5
20AF5
  8
1PHANTOM
 10
479.76577968978842
 20
-625.8213303512664
 30
0.0
 11
479.76577968978842
 21
-685.8213303512664
 31
0.0
  0
LINE
  5
20AF6
  8
1PHANTOM
 10
442.76577968978842
 20
-618.3213303512664
 30
0.0
 11
442.76577968978842
 21
-693.3213303512664
 31
0.0
  0
ARC
  5
20AF7
  8
1PHANTOM
 10
443.76577968978842
 20
-618.3213303512664
 30
0.0
 40
1.0
 50
90.0
 51
180.0
  0
LINE
  5
20AF8
  8
1PHANTOM
 10
481.26577968978842
 20
-625.8213303512664
 30
0.0
 11
481.26577968978842
 21
-685.8213303512664
 31
0.0
  0
ARC
  5
20B12
  8
1PHANTOM
 10
471.26577968979018
 20
-625.82133035126446
 30
0.0
 40
9.9999999999986358
 50
0.0
 51
90.000000000026048
  0
ARC
  5
20B13
  8
1PHANTOM
 10
471.26577968978842
 20
-685.8213303512664
 30
0.0
 40
10.000000000000229
 50
270.0
 51
0.0
  0
LINE
  5
20B14
  8
1PHANTOM
 10
423.0157796897883
 20
-615.82133035126628
 30
0.0
 11
471.26577968978893
 21
-615.82133035126628
 31
0.0
  0
LINE
  5
20B15
  8
1PHANTOM
 10
408.51577968978842
 20
-615.82133035126628
 30
0.0
 11
423.0157796897883
 21
-615.82133035126628
 31
0.0
  0
ARC
  5
20B16
  8
1PHANTOM
 10
408.51577968978842
 20
-616.32133035126628
 30
0.0
 40
0.5
 50
90.0
 51
180.0
  0
ARC
  5
20B17
  8
1PHANTOM
 10
471.26577968978842
 20
-685.82133035126685
 30
0.0
 40
8.4999999999997726
 50
270.0
 51
0.0
  0
ARC
  5
20B18
  8
1PHANTOM
 10
471.26577968978842
 20
-625.82133035126594
 30
0.0
 40
8.4999999999997726
 50
0.0
 51
90.0
  0
CIRCLE
  5
20B19
  8
1PHANTOM
 10
451.26577968978802
 20
-683.8213303512664
 30
0.0
 40
2.5
  0
CIRCLE
  5
20B1A
  8
1PHANTOM
 10
451.26577968978802
 20
-627.82133035126594
 30
0.0
 40
2.5
  0
LINE
  5
20B1B
  8
1PHANTOM
 10
408.51577968978842
 20
-695.82133035126731
 30
0.0
 11
423.0157796897883
 21
-695.8213303512664
 31
0.0
  0
LINE
  5
20B1C
  8
1PHANTOM
 10
423.0157796897883
 20
-695.8213303512664
 30
0.0
 11
471.26577968978893
 21
-695.8213303512664
 31
0.0
  0
LINE
  5
20B1D
  8
1PHANTOM
 10
443.76577968978842
 20
-617.3213303512664
 30
0.0
 11
471.26577968978933
 21
-617.3213303512664
 31
0.0
  0
LINE
  5
20B1E
  8
1PHANTOM
 10
471.26577968978842
 20
-694.32133035126628
 30
0.0
 11
443.76577968978842
 21
-694.32133035126628
 31
0.0
  0
ARC
  5
20B1F
  8
1PHANTOM
 10
443.76577968978842
 20
-693.3213303512664
 30
0.0
 40
1.0
 50
180.0
 51
270.0
  0
LINE
  5
20B3A
  8
1CENTER
 10
454.51577968978557
 20
-627.82133035126594
 30
0.0
 11
448.01577968978569
 21
-627.82133035126594
 31
0.0
  0
LINE
  5
20B3B
  8
1CENTER
 10
451.26577968978557
 20
-631.07133035126594
 30
0.0
 11
451.26577968978557
 21
-624.57133035126594
 31
0.0
  0
LINE
  5
20B3C
  8
1CENTER
 10
454.51577968978557
 20
-683.82133035126594
 30
0.0
 11
448.01577968978569
 21
-683.82133035126594
 31
0.0
  0
LINE
  5
20B3D
  8
1CENTER
 10
451.26577968978557
 20
-687.07133035126594
 30
0.0
 11
451.26577968978557
 21
-680.57133035126594
 31
0.0
  0
ARC
  5
20F95
  8
1PHANTOM
 10
471.26567641813381
 20
-625.82143362292163
 30
0.0
 40
8.3501032722937616
 50
0.0007086175876589
 51
89.999291382412352
  0
ARC
  5
20F96
  8
1PHANTOM
 10
444.26582580299458
 20
-618.82137646447291
 30
0.0
 40
1.3500461139935009
 50
90.001957038409714
 51
179.99804296159019
  0
LINE
  5
20F97
  8
1PHANTOM
 10
444.2657796897883
 20
-617.47133035126672
 30
0.0
 11
471.26577968978881
 21
-617.47133035126672
 31
0.0
  0
LINE
  5
20F98
  8
1PHANTOM
 10
479.61577968978912
 20
-625.82133035126662
 30
0.0
 11
479.61577968978861
 21
-685.82133035126662
 31
0.0
  0
LINE
  5
20F99
  8
1PHANTOM
 10
442.91577968978839
 20
-618.82133035126662
 30
0.0
 11
442.91577968978828
 21
-692.82133035126606
 31
0.0
  0
ARC
  5
20F9A
  8
1PHANTOM
 10
471.26567641813239
 20
-685.8212270796098
 30
0.0
 40
8.3501032722951258
 50
270.00070861758758
 51
359.99929138241242
  0
ARC
  5
20F9B
  8
1PHANTOM
 10
444.26582580298953
 20
-692.82128423806569
 30
0.0
 40
1.3500461139884989
 50
180.00195703817519
 51
269.99804296179872
  0
LINE
  5
20F9C
  8
1PHANTOM
 10
444.2657796897883
 20
-694.17133035126653
 30
0.0
 11
471.2657796897887
 21
-694.17133035126653
 31
0.0
  0
LINE
  5
20FA4
  8
1PHANTOM
 10
408.51577968978842
 20
-628.32133035126685
 30
0.0
 11
422.51577968978881
 21
-628.32133035126685
 31
0.0
  0
LINE
  5
20FA5
  8
1PHANTOM
 10
408.51577968978842
 20
-683.32133035126594
 30
0.0
 11
422.51577968978881
 21
-683.32133035126594
 31
0.0
  0
LINE
  5
20FA6
  8
1PHANTOM
 10
408.01577968978842
 20
-682.82133035126594
 30
0.0
 11
408.01577968978842
 21
-628.82133035126685
 31
0.0
  0
LINE
  5
20FA7
  8
1PHANTOM
 10
423.01577968978893
 20
-682.82133035126594
 30
0.0
 11
423.01577968978893
 21
-628.82133035126685
 31
0.0
  0
ARC
  5
20FA8
  8
1PHANTOM
 10
408.51577968978842
 20
-682.82133035126594
 30
0.0
 40
0.5
 50
180.0
 51
270.0
  0
ARC
  5
20FA9
  8
1PHANTOM
 10
422.51577968978881
 20
-682.82133035126594
 30
0.0
 40
0.5
 50
270.0
 51
0.0
  0
ARC
  5
20FAA
  8
1PHANTOM
 10
422.51577968978881
 20
-628.82133035126685
 30
0.0
 40
0.5
 50
0.0
 51
90.0
  0
ARC
  5
20FAB
  8
1PHANTOM
 10
408.51577968978842
 20
-628.82133035126685
 30
0.0
 40
0.5
 50
90.0
 51
180.0
  0
LINE
  5
20FAC
  8
01
 10
481.26624161536489
 20
-522.43301465939044
 30
0.0
 11
481.26624161536398
 21
-514.68301465938953
 31
0.0
  0
LINE
  5
20FAD
  8
01
 10
416.26624161536489
 20
-516.93301465938953
 30
0.0
 11
416.26624161536489
 21
-514.68301465938953
 31
0.0
  0
ARC
  5
20FAE
  8
01
 10
415.76624161536489
 20
-516.93301465938953
 30
0.0
 40
0.5
 50
270.0
 51
0.0
  0
LINE
  5
20FAF
  8
01
 10
415.76624161536489
 20
-517.43301465938953
 30
0.0
 11
415.51624161536398
 21
-517.43301465938953
 31
0.0
  0
LINE
  5
20FB0
  8
01
 10
423.01624161536489
 20
-523.98068010850386
 30
0.0
 11
423.01624161536489
 21
-523.43301465939044
 31
0.0
  0
ARC
  5
20FB1
  8
01
 10
423.51624161536489
 20
-523.43301465939044
 30
0.0
 40
0.5
 50
90.0
 51
180.0
  0
LINE
  5
20FB2
  8
01
 10
423.51624161536489
 20
-522.93301465939044
 30
0.0
 11
480.76624161536489
 21
-522.93301465939044
 31
0.0
  0
ARC
  5
20FB3
  8
01
 10
480.76624161536489
 20
-522.43301465939044
 30
0.0
 40
0.5
 50
270.0
 51
0.0
  0
ARC
  5
20FB4
  8
01
 10
424.01624161536489
 20
-522.43301465939044
 30
0.0
 40
0.5
 50
180.0
 51
270.0
  0
LINE
  5
20FB5
  8
01
 10
481.26624161536398
 20
-514.68301465938953
 30
0.0
 11
416.26624161536489
 21
-514.68301465938953
 31
0.0
  0
LINE
  5
20FB6
  8
01
 10
423.51624161536489
 20
-522.43301465939044
 30
0.0
 11
423.51624161536489
 21
-514.68301465939044
 31
0.0
  0
ARC
  5
20FB7
  8
01
 10
443.91624542983169
 20
-522.93301049345598
 30
0.0
 40
1.0000041659557519
 50
180.00023868942631
 51
269.9996026737345
  0
ARC
  5
20FB8
  8
01
 10
478.61624209891448
 20
-522.93301426833841
 30
0.0
 40
1.0000003910523549
 50
270.00029852572811
 51
359.99997759438241
  0
LINE
  5
20FB9
  8
01
 10
478.61624730917413
 20
-523.93301465937725
 30
0.0
 11
443.91623849515111
 21
-523.93301465938771
 31
0.0
  0
LINE
  5
20FBA
  8
01
 10
448.76624161536489
 20
-533.68301465939521
 30
0.0
 11
449.26624161536489
 21
-533.68301465939521
 31
0.0
  0
LINE
  5
20FBB
  8
01
 10
449.26624161536489
 20
-524.68301465939521
 30
0.0
 11
448.76624161536489
 21
-524.68301465939521
 31
0.0
  0
LINE
  5
20FBC
  8
01
 10
449.76624161536489
 20
-524.18301465939521
 30
0.0
 11
558.76624161536495
 21
-524.18301465939521
 31
0.0
  0
ARC
  5
20FBD
  8
01
 10
558.76624161536495
 20
-524.68301465939521
 30
0.0
 40
0.5
 50
0.0
 51
90.0
  0
LINE
  5
20FBE
  8
01
 10
449.76624161536489
 20
-534.1830146593951
 30
0.0
 11
558.76624161536495
 21
-534.1830146593951
 31
0.0
  0
ARC
  5
20FBF
  8
01
 10
449.76624161536489
 20
-533.68301465939521
 30
0.0
 40
0.5
 50
180.0
 51
270.0
  0
LINE
  5
20FC0
  8
01
 10
449.26624161536489
 20
-533.68301465939521
 30
0.0
 11
449.26624161536489
 21
-524.68301465939521
 31
0.0
  0
ARC
  5
20FC1
  8
01
 10
449.76624161536489
 20
-524.68301465939521
 30
0.0
 40
0.5
 50
90.0
 51
180.0
  0
LINE
  5
20FC2
  8
01
 10
559.26624161536495
 20
-533.68301465939521
 30
0.0
 11
559.26624161536495
 21
-524.68301465939521
 31
0.0
  0
ARC
  5
20FC3
  8
01
 10
558.76624161536495
 20
-533.68301465939521
 30
0.0
 40
0.5
 50
270.0
 51
0.0
  0
LINE
  5
20FC4
  8
01
 10
448.76624161536489
 20
-533.68301465939521
 30
0.0
 11
448.76624161536489
 21
-524.68301465939521
 31
0.0
  0
LINE
  5
20FC5
  8
01
 10
449.26624161536489
 20
-524.68301465939521
 30
0.0
 11
449.26624161536489
 21
-533.68301465939521
 31
0.0
  0
ARC
  5
20FC6
  8
01
 10
415.51624161536398
 20
-524.93301465939521
 30
0.0
 40
7.4999999999997797
 50
8.9892993451628076
 51
171.01070065483719
  0
LINE
  5
20FC7
  8
01
 10
406.26624161536398
 20
-533.68301465939521
 30
0.0
 11
406.26624161536398
 21
-524.68301465939521
 31
0.0
  0
ARC
  5
20FC8
  8
01
 10
406.76624161536398
 20
-533.68301465939521
 30
0.0
 40
0.5
 50
180.0
 51
270.0
  0
LINE
  5
20FC9
  8
01
 10
448.66624161536453
 20
-524.68301465939521
 30
0.0
 11
448.66624161536453
 21
-533.68301465939521
 31
0.0
  0
ARC
  5
20FCA
  8
01
 10
448.16624161536453
 20
-524.68301465939521
 30
0.0
 40
0.5
 50
0.0
 51
90.0
  0
ARC
  5
20FCB
  8
01
 10
423.41798193000488
 20
-523.68301465939555
 30
0.0
 40
0.5
 50
188.98929934516281
 51
270.0
  0
ARC
  5
20FCC
  8
01
 10
407.6145013007249
 20
-523.68301465939555
 30
0.0
 40
0.5
 50
270.0
 51
351.01070065483719
  0
LINE
  5
20FCD
  8
01
 10
406.76624161536398
 20
-524.18301465939521
 30
0.0
 11
448.16624161536453
 21
-524.18301465939521
 31
0.0
  0
ARC
  5
20FCE
  8
01
 10
406.76624161536398
 20
-524.68301465939521
 30
0.0
 40
0.5
 50
90.0
 51
180.0
  0
LINE
  5
20FCF
  8
01
 10
406.76624161536398
 20
-534.1830146593951
 30
0.0
 11
448.16624161536453
 21
-534.1830146593951
 31
0.0
  0
ARC
  5
20FD0
  8
01
 10
448.16624161536453
 20
-533.68301465939521
 30
0.0
 40
0.5
 50
270.0
 51
0.0
  0
LINE
  5
20FD2
  8
01
 10
649.85331781727064
 20
-710.82133035126583
 30
0.0
 11
658.85331781727064
 21
-710.82133035126594
 31
0.0
  0
LINE
  5
20FD3
  8
01
 10
649.85331781727064
 20
-600.82133035126435
 30
0.0
 11
658.85331781727064
 21
-600.82133035126435
 31
0.0
  0
LINE
  5
20FD4
  8
01
 10
649.35331781727064
 20
-601.32133035126435
 30
0.0
 11
649.35331781727064
 21
-710.32133035126583
 31
0.0
  0
LINE
  5
20FD5
  8
01
 10
659.35331781727064
 20
-601.32133035126435
 30
0.0
 11
659.35331781727064
 21
-710.32133035126594
 31
0.0
  0
ARC
  5
20FD6
  8
01
 10
649.85331781727064
 20
-710.32133035126583
 30
0.0
 40
0.5
 50
180.0
 51
270.0
  0
ARC
  5
20FD8
  8
01
 10
658.85331781727064
 20
-601.32133035126435
 30
0.0
 40
0.5
 50
0.0
 51
90.0
  0
ARC
  5
20FD9
  8
01
 10
649.85331781727064
 20
-601.32133035126435
 30
0.0
 40
0.5
 50
90.0
 51
180.0
  0
ARC
  5
20FDA
  8
01
 10
658.85331781727064
 20
-710.32133035126594
 30
0.0
 40
0.5
 50
270.0
 51
0.0
  0
LINE
  5
20FDB
  8
01
 10
668.85331781727621
 20
-615.82133035126537
 30
0.0
 11
668.85331781727621
 21
-695.82133035126606
 31
0.0
  0
LINE
  5
20FDC
  8
01
 10
661.10331781727518
 20
-615.82133035126537
 30
0.0
 11
668.85331781727621
 21
-615.82133035126537
 31
0.0
  0
LINE
  5
20FDD
  8
01
 10
661.1033178172753
 20
-695.82133035126606
 30
0.0
 11
668.85331781727621
 21
-695.82133035126606
 31
0.0
  0
LINE
  5
20FDE
  8
01
 10
660.6033178172753
 20
-616.32133035126526
 30
0.0
 11
660.6033178172753
 21
-695.32133035126606
 31
0.0
  0
ARC
  5
20FDF
  8
01
 10
661.1033178172753
 20
-695.32133035126606
 30
0.0
 40
0.5
 50
180.0
 51
270.0
  0
ARC
  5
20FE0
  8
01
 10
661.1033178172753
 20
-616.32133035126526
 30
0.0
 40
0.5
 50
90.0
 51
180.0
  0
LINE
  5
20FE1
  8
01
 10
659.6033178172886
 20
-618.47133035126615
 30
0.0
 11
659.6033178172886
 21
-693.17133035126574
 31
0.0
  0
ARC
  5
20FED
  8
01
 10
660.6033178172886
 20
-618.47133035126615
 30
0.0
 40
1.0
 50
90.0
 51
180.0
  0
ARC
  5
20FEE
  8
01
 10
660.6033178172886
 20
-693.17133035126574
 30
0.0
 40
1.0
 50
180.0
 51
270.0
  0
CIRCLE
  5
21339
  8
1PHANTOM
 10
504.26624161536171
 20
-655.82133035126708
 30
0.0
 40
50.0
  0
LINE
  5
2143B
  8
1CENTER
 10
643.97615443859763
 20
-655.82133035126515
 30
0.0
 11
696.01385610375564
 21
-655.82133035126515
 31
0.0
  0
LINE
  5
21467
  8
1DIM
 10
643.97615443859763
 20
-655.82133035126515
 30
0.0
 11
634.34515529972953
 21
-655.82133035126515
 31
0.0
  0
LINE
  5
21469
  8
1DIM
 10
635.34515529972953
 20
-657.82133035126515
 30
0.0
 11
635.34515529972953
 21
-764.94166075862904
 31
0.0
  0
TEXT
  5
216B6
  8
01
 10
690.56846354556285
 20
-581.45897161320579
 30
0.0
 40
3.5
  1
合板9mm以上
  0
TEXT
  5
216B7
  8
01
 10
677.43304540039765
 20
-581.45897161320579
 30
0.0
 40
3.5
  1
PB
  0
LINE
  5
216B8
  8
1DIM
 10
451.26577968978557
 20
-687.07133035126594
 30
0.0
 11
451.26577968978557
 21
-725.12407162975978
 31
0.0
  0
LINE
  5
216BB
  8
1DIM
 10
387.1960951290842
 20
-744.34960154755277
 30
0.0
 11
387.1960951290842
 21
-723.12407162975967
 31
0.0
  0
LINE
  5
216BC
  8
1DIM
 10
449.26577968978569
 20
-724.12407162975967
 30
0.0
 11
389.1960951290842
 21
-724.12407162975967
 31
0.0
  0
TEXT
  5
216C0
  8
1DIM
 10
634.64515529972959
 20
-728.64816222161346
 30
0.0
 40
3.5
  1
高さ1400mm程度
 50
90.0
  0
LINE
  5
216C1
  8
0
  6
BYBLOCK
 10
634.80925691972936
 20
-657.82133035126515
 30
0.0
 11
635.34515529972953
 21
-655.82133035126515
 31
0.0
  0
LINE
  5
216C2
  8
0
  6
BYBLOCK
 10
635.34515529972953
 20
-655.82133035126515
 30
0.0
 11
635.88105367972946
 21
-657.82133035126515
 31
0.0
  0
LINE
  5
216C3
  8
0
  6
BYBLOCK
 10
635.34515529972953
 20
-655.82133035126515
 30
0.0
 11
635.34515529972953
 21
-657.82133035126515
 31
0.0
  0
LINE
  5
216C4
  8
1DIM
 10
668.85331781727621
 20
-719.78998871994952
 30
0.0
 11
668.85331781727621
 21
-726.80927109859965
 31
0.0
  0
LINE
  5
216C5
  8
1DIM
 10
659.6033178172886
 20
-693.17133035126574
 30
0.0
 11
659.6033178172886
 21
-726.80927109859965
 31
0.0
  0
LINE
  5
216C6
  8
1DIM
 10
666.85331781727609
 20
-725.80927109859965
 30
0.0
 11
661.6033178172886
 21
-725.80927109859965
 31
0.0
  0
TEXT
  5
216CA
  8
1DIM
 10
540.57253599148521
 20
-578.59815593160238
 30
0.0
 40
3.5
  1
裏面：拡大鏡
  0
SOLID
  5
216CB
  8
1DIM
 10
521.2424783332068
 20
-607.20330117927074
 30
0.0
 11
519.91645758097809
 21
-608.73717864366279
 31
0.0
 12
520.67332776355374
 22
-606.85615269013658
 32
0.0
 13
520.67332776355374
 23
-606.85615269013658
 33
0.0
  0
LINE
  5
216CD
  8
1DIM
 10
459.8416567092346
 20
-637.64287453350539
 30
0.0
 11
548.6908265214887
 21
-673.99978616902865
 31
0.0
  0
LINE
  5
216CE
  8
1DIM
 10
550.54185089257749
 20
-674.75722182810205
 30
0.0
 11
601.51822004165729
 21
-695.61665532161885
 31
0.0
  0
LINE
  5
216D2
  8
1DIM
 10
549.26624161536495
 20
-708.17133035126722
 30
0.0
 11
572.46875948969773
 21
-708.17133035126722
 31
0.0
  0
LINE
  5
216D3
  8
1DIM
 10
549.26624161536404
 20
-603.4713303512674
 30
0.0
 11
572.46875948969773
 21
-603.4713303512674
 31
0.0
  0
LINE
  5
216D4
  8
1DIM
 10
571.46875948969773
 20
-706.17133035126722
 30
0.0
 11
571.46875948969773
 21
-605.4713303512674
 31
0.0
  0
LINE
  5
216D8
  8
1DIM
 10
451.91624161536458
 20
-604.4713303512674
 30
0.0
 11
451.91624161536458
 21
-592.4753876766722
 31
0.0
  0
LINE
  5
216D9
  8
1DIM
 10
556.6162416153644
 20
-610.82133035126765
 30
0.0
 11
556.6162416153644
 21
-592.4753876766722
 31
0.0
  0
LINE
  5
216DA
  8
1DIM
 10
453.91624161536453
 20
-593.4753876766722
 30
0.0
 11
554.61624161536429
 21
-593.4753876766722
 31
0.0
  0
LINE
  5
216DE
  8
1DIM
 10
451.26577968978557
 20
-624.57133035126594
 30
0.0
 11
451.26577968978557
 21
-592.4753876766722
 31
0.0
  0
LINE
  5
216DF
  8
1DIM
 10
406.26624161536489
 20
-610.8213303512664
 30
0.0
 11
406.26624161536489
 21
-592.4753876766722
 31
0.0
  0
LINE
  5
216E0
  8
1DIM
 10
449.26577968978569
 20
-593.4753876766722
 30
0.0
 11
408.26624161536489
 21
-593.4753876766722
 31
0.0
  0
LINE
  5
216E4
  8
1DIM
 10
668.85331781727621
 20
-615.82133035126537
 30
0.0
 11
721.61076555429645
 21
-615.82133035126537
 31
0.0
  0
LINE
  5
216E5
  8
1DIM
 10
668.85331781727621
 20
-695.82133035126606
 30
0.0
 11
721.61076555429645
 21
-695.82133035126606
 31
0.0
  0
LINE
  5
216E6
  8
1DIM
 10
720.61076555429645
 20
-617.82133035126526
 30
0.0
 11
720.61076555429645
 21
-693.82133035126606
 31
0.0
  0
LINE
  5
216EA
  8
1DIM
 10
549.26624161536495
 20
-600.82133035126503
 30
0.0
 11
584.42681083880314
 21
-600.82133035126503
 31
0.0
  0
LINE
  5
216EB
  8
1DIM
 10
549.26624161536495
 20
-710.8213303512664
 30
0.0
 11
584.42681083880314
 21
-710.8213303512664
 31
0.0
  0
LINE
  5
216EC
  8
1DIM
 10
583.42681083880314
 20
-602.82133035126503
 30
0.0
 11
583.42681083880314
 21
-708.8213303512664
 31
0.0
  0
LINE
  5
216F0
  8
1DIM
 10
406.26624161536489
 20
-610.8213303512664
 30
0.0
 11
406.26624161536489
 21
-583.47313838051014
 31
0.0
  0
LINE
  5
216F1
  8
1DIM
 10
559.26624161536472
 20
-610.8213303512664
 30
0.0
 11
559.26624161536472
 21
-583.47313838051014
 31
0.0
  0
LINE
  5
216F2
  8
1DIM
 10
408.26624161536489
 20
-584.47313838051014
 30
0.0
 11
557.26624161536461
 21
-584.47313838051014
 31
0.0
  0
LINE
  5
216F6
  8
1DIM
 10
702.28411273457925
 20
-683.82133035126594
 30
0.0
 11
711.35331781727621
 21
-683.82133035126594
 31
0.0
  0
LINE
  5
216F7
  8
1DIM
 10
702.28411273457925
 20
-627.82133035126594
 30
0.0
 11
711.35331781727621
 21
-627.82133035126594
 31
0.0
  0
LINE
  5
216F8
  8
1DIM
 10
710.35331781727621
 20
-681.82133035126594
 30
0.0
 11
710.35331781727621
 21
-629.82133035126594
 31
0.0
  0
LINE
  5
216FC
  8
0
 10
700.85331781711386
 20
-683.82137688716375
 30
0.0
 11
695.55332130725219
 21
-682.32137688716386
 31
0.0
  0
LINE
  5
216FD
  8
0
 10
695.55332130725219
 20
-682.32137688716386
 30
0.0
 11
665.85332130736015
 21
-682.32137688716398
 31
0.0
  0
LINE
  5
216FE
  8
0
 10
700.85331781711386
 20
-683.82137688716375
 30
0.0
 11
695.55331432686853
 21
-685.32137688716398
 31
0.0
  0
LINE
  5
216FF
  8
0
 10
665.85332596105843
 20
-680.32133035126606
 30
0.0
 11
665.85330967349398
 21
-687.32133035126594
 31
0.0
  0
LINE
  5
21700
  8
0
 10
695.55331432686853
 20
-685.32137688716398
 30
0.0
 11
665.85331432697558
 21
-685.32137688716409
 31
0.0
  0
LINE
  5
21701
  8
0
 10
665.85332596105843
 20
-680.32133035126606
 30
0.0
 11
664.75332247086305
 21
-680.32133035126594
 31
0.0
  0
ARC
  5
21702
  8
0
 10
664.75332247086305
 20
-681.82133035126594
 30
0.0
 40
1.5
 50
90.0
 51
179.9998666844684
  0
LINE
  5
21703
  8
0
 10
665.85330967349398
 20
-687.32133035126594
 30
0.0
 11
664.7533131636834
 21
-687.32133035126594
 31
0.0
  0
LINE
  5
21704
  8
0
 10
663.25332247086715
 20
-681.82132686107354
 30
0.0
 11
663.25331316368749
 21
-685.82132686107354
 31
0.0
  0
ARC
  5
21705
  8
0
 10
664.7533131636834
 20
-685.82133035126594
 30
0.0
 40
1.5
 50
179.9998666844684
 51
270.0
  0
LINE
  5
21706
  8
1CENTER
 10
702.28411273457925
 20
-683.82133035126594
 30
0.0
 11
662.18304140796727
 21
-683.82133035126594
 31
0.0
  0
LINE
  5
21707
  8
0
 10
698.75332036343605
 20
-682.72700653727077
 30
0.0
 11
699.55331579748702
 21
-684.6893416261463
 31
0.0
  0
LINE
  5
21708
  8
0
 10
699.55331579748702
 20
-684.6893416261463
 30
0.0
 11
699.86508565373913
 21
-684.10106505110377
 31
0.0
  0
LINE
  5
21709
  8
0
 10
676.35332247064605
 20
-681.82137688716375
 30
0.0
 11
677.1533131634643
 21
-685.82137688716375
 31
0.0
  0
LINE
  5
2170A
  8
0
 10
687.5533224706503
 20
-681.82137688716375
 30
0.0
 11
688.35331316347288
 21
-685.82137688716375
 31
0.0
  0
LINE
  5
2170B
  8
0
 10
690.75332247065035
 20
-681.82137688716375
 30
0.0
 11
691.55331316347304
 21
-685.82137688716375
 31
0.0
  0
LINE
  5
2170C
  8
0
 10
691.55331316347304
 20
-685.82137688716375
 30
0.0
 11
691.65331432687015
 21
-685.32137688716375
 31
0.0
  0
LINE
  5
2170D
  8
0
 10
692.25332130725315
 20
-682.32137688716386
 30
0.0
 11
692.35332247065037
 21
-681.82137688716375
 31
0.0
  0
LINE
  5
2170E
  8
0
 10
688.35331316347288
 20
-685.82137688716375
 30
0.0
 11
688.45331432687021
 21
-685.32137688716375
 31
0.0
  0
LINE
  5
2170F
  8
0
 10
689.95331316347313
 20
-685.82137688716375
 30
0.0
 11
690.05331432687024
 21
-685.32137688716375
 31
0.0
  0
LINE
  5
21710
  8
0
 10
690.65332130725335
 20
-682.32137688716386
 30
0.0
 11
690.75332247065035
 21
-681.82137688716375
 31
0.0
  0
LINE
  5
21711
  8
0
 10
689.05332130725344
 20
-682.32137688716386
 30
0.0
 11
689.15332247065055
 21
-681.82137688716375
 31
0.0
  0
LINE
  5
21712
  8
0
 10
689.15332247065055
 20
-681.82137688716375
 30
0.0
 11
689.95331316347313
 21
-685.82137688716375
 31
0.0
  0
LINE
  5
21713
  8
0
 10
697.95331474388138
 20
-685.14215573055299
 30
0.0
 11
698.13607888650927
 21
-684.59040626674982
 31
0.0
  0
LINE
  5
21714
  8
0
 10
694.75331316347297
 20
-685.82137688716375
 30
0.0
 11
694.85331432687019
 21
-685.32137688716375
 31
0.0
  0
LINE
  5
21715
  8
0
 10
693.15331316347294
 20
-685.82137688716375
 30
0.0
 11
693.25331432687005
 21
-685.32137688716375
 31
0.0
  0
LINE
  5
21716
  8
0
 10
696.35331369027574
 20
-685.5949698349599
 30
0.0
 11
696.48258438790549
 21
-685.05837609968876
 31
0.0
  0
LINE
  5
21717
  8
0
 10
697.04055190469023
 20
-682.74229148437246
 30
0.0
 11
697.15332141704027
 21
-682.2741930292226
 31
0.0
  0
LINE
  5
21718
  8
0
 10
693.8533213072534
 20
-682.32137688716386
 30
0.0
 11
693.95332247065039
 21
-681.82137688716375
 31
0.0
  0
LINE
  5
21719
  8
0
 10
695.4533213072533
 20
-682.32137688716386
 30
0.0
 11
695.55332247065041
 21
-681.82137688716375
 31
0.0
  0
LINE
  5
2171A
  8
0
 10
698.60188456699564
 20
-683.18417837790184
 30
0.0
 11
698.75332036343605
 21
-682.72700653727077
 31
0.0
  0
LINE
  5
2171B
  8
0
 10
697.15332141704027
 20
-682.2741930292226
 30
0.0
 11
697.95331474388138
 21
-685.14215573055299
 31
0.0
  0
LINE
  5
2171C
  8
0
 10
693.95332247065039
 20
-681.82137688716375
 30
0.0
 11
694.75331316347297
 21
-685.82137688716375
 31
0.0
  0
LINE
  5
2171D
  8
0
 10
695.55332247065041
 20
-681.82137688716375
 30
0.0
 11
696.35331369027574
 21
-685.5949698349599
 31
0.0
  0
LINE
  5
2171E
  8
0
 10
692.35332247065037
 20
-681.82137688716375
 30
0.0
 11
693.15331316347294
 21
-685.82137688716375
 31
0.0
  0
LINE
  5
2171F
  8
0
 10
679.55332247064609
 20
-681.82137688716375
 30
0.0
 11
680.35331316346435
 21
-685.82137688716375
 31
0.0
  0
LINE
  5
21720
  8
0
 10
680.35331316346435
 20
-685.82137688716375
 30
0.0
 11
680.45331432686203
 21
-685.32137688716375
 31
0.0
  0
LINE
  5
21721
  8
0
 10
681.05332130725276
 20
-682.32137688716386
 30
0.0
 11
681.15332247065044
 21
-681.82137688716375
 31
0.0
  0
LINE
  5
21722
  8
0
 10
678.75331316346421
 20
-685.82137688716375
 30
0.0
 11
678.85331432686189
 21
-685.32137688716375
 31
0.0
  0
LINE
  5
21723
  8
0
 10
677.1533131634643
 20
-685.82137688716375
 30
0.0
 11
677.25331432686198
 21
-685.32137688716375
 31
0.0
  0
LINE
  5
21724
  8
0
 10
679.45332130724842
 20
-682.32137688716386
 30
0.0
 11
679.55332247064609
 21
-681.82137688716375
 31
0.0
  0
LINE
  5
21725
  8
0
 10
677.85332130724817
 20
-682.32137688716386
 30
0.0
 11
677.95332247064584
 21
-681.82137688716375
 31
0.0
  0
LINE
  5
21726
  8
0
 10
677.95332247064584
 20
-681.82137688716375
 30
0.0
 11
678.75331316346421
 21
-685.82137688716375
 31
0.0
  0
LINE
  5
21727
  8
0
 10
685.15331316346874
 20
-685.82137688716375
 30
0.0
 11
685.25331432686642
 21
-685.32137688716375
 31
0.0
  0
LINE
  5
21728
  8
0
 10
686.75331316347297
 20
-685.82137688716375
 30
0.0
 11
686.85331432687019
 21
-685.32137688716375
 31
0.0
  0
LINE
  5
21729
  8
0
 10
681.95331316346858
 20
-685.82137688716375
 30
0.0
 11
682.05331432686626
 21
-685.32137688716375
 31
0.0
  0
LINE
  5
2172A
  8
0
 10
683.5533131634686
 20
-685.82137688716375
 30
0.0
 11
683.65331432686617
 21
-685.32137688716375
 31
0.0
  0
LINE
  5
2172B
  8
0
 10
687.4533213072533
 20
-682.32137688716386
 30
0.0
 11
687.5533224706503
 21
-681.82137688716375
 31
0.0
  0
LINE
  5
2172C
  8
0
 10
685.85332130725271
 20
-682.32137688716386
 30
0.0
 11
685.95332247065039
 21
-681.82137688716375
 31
0.0
  0
LINE
  5
2172D
  8
0
 10
682.65332130725267
 20
-682.32137688716386
 30
0.0
 11
682.75332247065035
 21
-681.82137688716375
 31
0.0
  0
LINE
  5
2172E
  8
0
 10
684.2533213072528
 20
-682.32137688716386
 30
0.0
 11
684.35332247065037
 21
-681.82137688716375
 31
0.0
  0
LINE
  5
2172F
  8
0
 10
684.35332247065037
 20
-681.82137688716375
 30
0.0
 11
685.15331316346874
 21
-685.82137688716375
 31
0.0
  0
LINE
  5
21730
  8
0
 10
685.95332247065039
 20
-681.82137688716375
 30
0.0
 11
686.75331316347297
 21
-685.82137688716375
 31
0.0
  0
LINE
  5
21731
  8
0
 10
682.75332247065035
 20
-681.82137688716375
 30
0.0
 11
683.5533131634686
 21
-685.82137688716375
 31
0.0
  0
LINE
  5
21732
  8
0
 10
681.15332247065044
 20
-681.82137688716375
 30
0.0
 11
681.95331316346858
 21
-685.82137688716375
 31
0.0
  0
LINE
  5
21733
  8
0
 10
671.45332130724421
 20
-682.32137688716386
 30
0.0
 11
671.55332247064189
 21
-681.82137688716375
 31
0.0
  0
LINE
  5
21734
  8
0
 10
671.55332247064189
 20
-681.82137688716375
 30
0.0
 11
672.35331316346014
 21
-685.82137688716375
 31
0.0
  0
LINE
  5
21735
  8
0
 10
672.35331316346014
 20
-685.82137688716375
 30
0.0
 11
672.45331432685782
 21
-685.32137688716375
 31
0.0
  0
LINE
  5
21736
  8
0
 10
673.053321307244
 20
-682.32137688716386
 30
0.0
 11
673.15332247064168
 21
-681.82137688716375
 31
0.0
  0
LINE
  5
21737
  8
0
 10
674.65332130724403
 20
-682.32137688716386
 30
0.0
 11
674.75332247064159
 21
-681.82137688716375
 31
0.0
  0
LINE
  5
21738
  8
0
 10
674.75332247064159
 20
-681.82137688716375
 30
0.0
 11
675.55331316345985
 21
-685.82137688716375
 31
0.0
  0
LINE
  5
21739
  8
0
 10
673.95331316346005
 20
-685.82137688716375
 30
0.0
 11
674.05331432685773
 21
-685.32137688716375
 31
0.0
  0
LINE
  5
2173A
  8
0
 10
675.55331316345985
 20
-685.82137688716375
 30
0.0
 11
675.65331432685764
 21
-685.32137688716375
 31
0.0
  0
LINE
  5
2173B
  8
0
 10
673.15332247064168
 20
-681.82137688716375
 30
0.0
 11
673.95331316346005
 21
-685.82137688716375
 31
0.0
  0
LINE
  5
2173C
  8
0
 10
676.25332130724826
 20
-682.32137688716386
 30
0.0
 11
676.35332247064605
 21
-681.82137688716375
 31
0.0
  0
LINE
  5
2173D
  8
0
 10
669.8533213072443
 20
-682.32137688716386
 30
0.0
 11
669.95332247064198
 21
-681.82137688716375
 31
0.0
  0
LINE
  5
2173E
  8
0
 10
669.95332247064198
 20
-681.82137688716375
 30
0.0
 11
670.75331316346023
 21
-685.82137688716375
 31
0.0
  0
LINE
  5
2173F
  8
0
 10
670.75331316346023
 20
-685.82137688716375
 30
0.0
 11
670.85331432685791
 21
-685.32137688716375
 31
0.0
  0
LINE
  5
21740
  8
0
 10
668.25332130724439
 20
-682.32137688716386
 30
0.0
 11
668.35332247064207
 21
-681.82137688716375
 31
0.0
  0
LINE
  5
21741
  8
0
 10
668.35332247064207
 20
-681.82137688716375
 30
0.0
 11
669.15331316346033
 21
-685.82137688716375
 31
0.0
  0
LINE
  5
21742
  8
0
 10
669.15331316346033
 20
-685.82137688716375
 30
0.0
 11
669.253314326858
 21
-685.32137688716375
 31
0.0
  0
LINE
  5
21743
  8
0
 10
666.65332130724448
 20
-682.32137688716386
 30
0.0
 11
666.75332247064216
 21
-681.82137688716375
 31
0.0
  0
LINE
  5
21744
  8
0
 10
666.75332247064216
 20
-681.82137688716375
 30
0.0
 11
667.55331316346042
 21
-685.82137688716375
 31
0.0
  0
LINE
  5
21745
  8
0
 10
667.55331316346042
 20
-685.82137688716375
 30
0.0
 11
667.65331432685809
 21
-685.32137688716375
 31
0.0
  0
LINE
  5
21746
  8
0
 10
451.2658262256835
 20
-482.68301465955187
 30
0.0
 11
449.76582622568361
 21
-487.98301116941349
 31
0.0
  0
LINE
  5
21747
  8
0
 10
449.76582622568361
 20
-487.98301116941349
 30
0.0
 11
449.76582622568378
 21
-517.68301116930536
 31
0.0
  0
LINE
  5
21748
  8
0
 10
451.2658262256835
 20
-482.68301465955187
 30
0.0
 11
452.76582622568372
 21
-487.9830181497972
 31
0.0
  0
LINE
  5
21749
  8
0
 10
447.76577968978569
 20
-517.6830065156073
 30
0.0
 11
454.76577968978569
 21
-517.68302280317175
 31
0.0
  0
LINE
  5
2174A
  8
0
 10
452.76582622568372
 20
-487.9830181497972
 30
0.0
 11
452.76582622568378
 21
-517.68301814969016
 31
0.0
  0
LINE
  5
2174B
  8
0
 10
447.76577968978569
 20
-517.6830065156073
 30
0.0
 11
447.76577968978557
 21
-518.78301000580257
 31
0.0
  0
ARC
  5
2174C
  8
0
 10
449.26577968978569
 20
-518.78301000580257
 30
0.0
 40
1.5
 50
180.0
 51
269.99986668446837
  0
LINE
  5
2174D
  8
0
 10
454.76577968978569
 20
-517.68302280317175
 30
0.0
 11
454.76577968978569
 21
-518.78301931298233
 31
0.0
  0
LINE
  5
2174E
  8
0
 10
449.26577619959329
 20
-520.28301000579859
 30
0.0
 11
453.26577619959329
 21
-520.28301931297824
 31
0.0
  0
ARC
  5
2174F
  8
0
 10
453.26577968978569
 20
-518.78301931298233
 30
0.0
 40
1.5
 50
269.99986668446837
 51
0.0
  0
LINE
  5
21750
  8
1CENTER
 10
451.26577968978557
 20
-481.25221974208642
 30
0.0
 11
451.26577968978557
 21
-521.35329106869835
 31
0.0
  0
LINE
  5
21751
  8
0
 10
450.17145587579063
 20
-484.78301211322969
 30
0.0
 11
452.13379096466599
 21
-483.98301667917872
 31
0.0
  0
LINE
  5
21752
  8
0
 10
452.13379096466599
 20
-483.98301667917872
 30
0.0
 11
451.54551438962358
 21
-483.67124682292661
 31
0.0
  0
LINE
  5
21753
  8
0
 10
449.26582622568361
 20
-507.18301000601957
 30
0.0
 11
453.26582622568361
 21
-506.38301931320137
 31
0.0
  0
LINE
  5
21754
  8
0
 10
449.26582622568361
 20
-495.98301000601532
 30
0.0
 11
453.26582622568361
 21
-495.18301931319269
 31
0.0
  0
LINE
  5
21755
  8
0
 10
449.26582622568361
 20
-492.78301000601527
 30
0.0
 11
453.26582622568361
 21
-491.9830193131927
 31
0.0
  0
LINE
  5
21756
  8
0
 10
453.26582622568361
 20
-491.9830193131927
 30
0.0
 11
452.76582622568361
 21
-491.88301814979548
 31
0.0
  0
LINE
  5
21757
  8
0
 10
449.76582622568361
 20
-491.28301116941242
 30
0.0
 11
449.26582622568361
 21
-491.18301000601519
 31
0.0
  0
LINE
  5
21758
  8
0
 10
453.26582622568361
 20
-495.18301931319269
 30
0.0
 11
452.76582622568361
 21
-495.08301814979552
 31
0.0
  0
LINE
  5
21759
  8
0
 10
453.26582622568361
 20
-493.58301931319261
 30
0.0
 11
452.76582622568361
 21
-493.4830181497955
 31
0.0
  0
LINE
  5
2175A
  8
0
 10
449.76582622568361
 20
-492.88301116941233
 30
0.0
 11
449.26582622568361
 21
-492.78301000601527
 31
0.0
  0
LINE
  5
2175B
  8
0
 10
449.76582622568361
 20
-494.48301116941218
 30
0.0
 11
449.26582622568361
 21
-494.38301000601518
 31
0.0
  0
LINE
  5
2175C
  8
0
 10
449.26582622568361
 20
-494.38301000601518
 30
0.0
 11
453.26582622568361
 21
-493.58301931319261
 31
0.0
  0
LINE
  5
2175D
  8
0
 10
452.58660506907279
 20
-485.58301773278441
 30
0.0
 11
452.03485560526951
 21
-485.4002535901563
 31
0.0
  0
LINE
  5
2175E
  8
0
 10
453.26582622568361
 20
-488.7830193131926
 30
0.0
 11
452.76582622568361
 21
-488.68301814979549
 31
0.0
  0
LINE
  5
2175F
  8
0
 10
453.26582622568361
 20
-490.38301931319262
 30
0.0
 11
452.76582622568361
 21
-490.28301814979562
 31
0.0
  0
LINE
  5
21760
  8
0
 10
453.03941917347959
 20
-487.18301878638988
 30
0.0
 11
452.5028254382085
 21
-487.05374808876007
 31
0.0
  0
LINE
  5
21761
  8
0
 10
450.18674082289232
 20
-486.4957805719755
 30
0.0
 11
449.71864236774229
 21
-486.3830110596254
 31
0.0
  0
LINE
  5
21762
  8
0
 10
449.76582622568361
 20
-489.68301116941228
 30
0.0
 11
449.26582622568361
 21
-489.58301000601517
 31
0.0
  0
LINE
  5
21763
  8
0
 10
449.76582622568361
 20
-488.08301116941237
 30
0.0
 11
449.26582622568361
 21
-487.98301000601532
 31
0.0
  0
LINE
  5
21764
  8
0
 10
450.6286277164217
 20
-484.9344479096701
 30
0.0
 11
450.17145587579063
 21
-484.78301211322969
 31
0.0
  0
LINE
  5
21765
  8
0
 10
449.71864236774229
 20
-486.3830110596254
 30
0.0
 11
452.58660506907279
 21
-485.58301773278441
 31
0.0
  0
LINE
  5
21766
  8
0
 10
449.26582622568361
 20
-489.58301000601517
 30
0.0
 11
453.26582622568361
 21
-488.7830193131926
 31
0.0
  0
LINE
  5
21767
  8
0
 10
449.26582622568361
 20
-487.98301000601532
 30
0.0
 11
453.03941917347959
 21
-487.18301878638988
 31
0.0
  0
LINE
  5
21768
  8
0
 10
449.26582622568361
 20
-491.18301000601519
 30
0.0
 11
453.26582622568361
 21
-490.38301931319262
 31
0.0
  0
LINE
  5
21769
  8
0
 10
449.26582622568361
 20
-503.98301000601958
 30
0.0
 11
453.26582622568361
 21
-503.18301931320133
 31
0.0
  0
LINE
  5
2176A
  8
0
 10
453.26582622568361
 20
-503.18301931320133
 30
0.0
 11
452.76582622568361
 21
-503.08301814980359
 31
0.0
  0
LINE
  5
2176B
  8
0
 10
449.76582622568361
 20
-502.48301116941298
 30
0.0
 11
449.26582622568361
 21
-502.3830100060153
 31
0.0
  0
LINE
  5
2176C
  8
0
 10
453.26582622568361
 20
-504.78301931320152
 30
0.0
 11
452.76582622568361
 21
-504.68301814980379
 31
0.0
  0
LINE
  5
2176D
  8
0
 10
453.26582622568361
 20
-506.38301931320137
 30
0.0
 11
452.76582622568361
 21
-506.28301814980369
 31
0.0
  0
LINE
  5
2176E
  8
0
 10
449.76582622568361
 20
-504.08301116941732
 30
0.0
 11
449.26582622568361
 21
-503.98301000601958
 31
0.0
  0
LINE
  5
2176F
  8
0
 10
449.76582622568361
 20
-505.6830111694174
 30
0.0
 11
449.26582622568361
 21
-505.58301000601972
 31
0.0
  0
LINE
  5
21770
  8
0
 10
449.26582622568361
 20
-505.58301000601972
 30
0.0
 11
453.26582622568361
 21
-504.78301931320152
 31
0.0
  0
LINE
  5
21771
  8
0
 10
453.26582622568361
 20
-498.383019313197
 30
0.0
 11
452.76582622568361
 21
-498.28301814979932
 31
0.0
  0
LINE
  5
21772
  8
0
 10
453.26582622568361
 20
-496.7830193131926
 30
0.0
 11
452.76582622568361
 21
-496.68301814979549
 31
0.0
  0
LINE
  5
21773
  8
0
 10
453.26582622568361
 20
-501.58301931319698
 30
0.0
 11
452.76582622568361
 21
-501.48301814979931
 31
0.0
  0
LINE
  5
21774
  8
0
 10
453.26582622568361
 20
-499.98301931319708
 30
0.0
 11
452.76582622568361
 21
-499.8830181497994
 31
0.0
  0
LINE
  5
21775
  8
0
 10
449.76582622568361
 20
-496.08301116941237
 30
0.0
 11
449.26582622568361
 21
-495.98301000601532
 31
0.0
  0
LINE
  5
21776
  8
0
 10
449.76582622568361
 20
-497.68301116941302
 30
0.0
 11
449.26582622568361
 21
-497.58301000601517
 31
0.0
  0
LINE
  5
21777
  8
0
 10
449.76582622568361
 20
-500.88301116941301
 30
0.0
 11
449.26582622568361
 21
-500.78301000601539
 31
0.0
  0
LINE
  5
21778
  8
0
 10
449.76582622568361
 20
-499.28301116941287
 30
0.0
 11
449.26582622568361
 21
-499.18301000601519
 31
0.0
  0
LINE
  5
21779
  8
0
 10
449.26582622568361
 20
-499.18301000601519
 30
0.0
 11
453.26582622568361
 21
-498.383019313197
 31
0.0
  0
LINE
  5
2177A
  8
0
 10
449.26582622568361
 20
-497.58301000601517
 30
0.0
 11
453.26582622568361
 21
-496.7830193131926
 31
0.0
  0
LINE
  5
2177B
  8
0
 10
449.26582622568361
 20
-500.78301000601539
 30
0.0
 11
453.26582622568361
 21
-499.98301931319708
 31
0.0
  0
LINE
  5
2177C
  8
0
 10
449.26582622568361
 20
-502.3830100060153
 30
0.0
 11
453.26582622568361
 21
-501.58301931319698
 31
0.0
  0
LINE
  5
2177D
  8
0
 10
449.76582622568361
 20
-512.08301116942152
 30
0.0
 11
449.26582622568361
 21
-511.98301000602379
 31
0.0
  0
LINE
  5
2177E
  8
0
 10
449.26582622568361
 20
-511.98301000602379
 30
0.0
 11
453.26582622568361
 21
-511.18301931320559
 31
0.0
  0
LINE
  5
2177F
  8
0
 10
453.26582622568361
 20
-511.18301931320559
 30
0.0
 11
452.76582622568361
 21
-511.08301814980791
 31
0.0
  0
LINE
  5
21780
  8
0
 10
449.76582622568361
 20
-510.48301116942162
 30
0.0
 11
449.26582622568361
 21
-510.38301000602388
 31
0.0
  0
LINE
  5
21781
  8
0
 10
449.76582622568361
 20
-508.88301116942171
 30
0.0
 11
449.26582622568361
 21
-508.78301000602403
 31
0.0
  0
LINE
  5
21782
  8
0
 10
449.26582622568361
 20
-508.78301000602403
 30
0.0
 11
453.26582622568361
 21
-507.98301931320577
 31
0.0
  0
LINE
  5
21783
  8
0
 10
453.26582622568361
 20
-509.58301931320568
 30
0.0
 11
452.76582622568361
 21
-509.483018149808
 31
0.0
  0
LINE
  5
21784
  8
0
 10
453.26582622568361
 20
-507.98301931320577
 30
0.0
 11
452.76582622568361
 21
-507.88301814980809
 31
0.0
  0
LINE
  5
21785
  8
0
 10
449.26582622568361
 20
-510.38301000602388
 30
0.0
 11
453.26582622568361
 21
-509.58301931320568
 31
0.0
  0
LINE
  5
21786
  8
0
 10
449.76582622568361
 20
-507.28301116941731
 30
0.0
 11
449.26582622568361
 21
-507.18301000601957
 31
0.0
  0
LINE
  5
21787
  8
0
 10
449.76582622568361
 20
-513.68301116942143
 30
0.0
 11
449.26582622568361
 21
-513.58301000602376
 31
0.0
  0
LINE
  5
21788
  8
0
 10
449.26582622568361
 20
-513.58301000602376
 30
0.0
 11
453.26582622568361
 21
-512.78301931320539
 31
0.0
  0
LINE
  5
21789
  8
0
 10
453.26582622568361
 20
-512.78301931320539
 30
0.0
 11
452.76582622568361
 21
-512.68301814980771
 31
0.0
  0
LINE
  5
2178A
  8
0
 10
449.76582622568361
 20
-515.28301116942134
 30
0.0
 11
449.26582622568361
 21
-515.18301000602355
 31
0.0
  0
LINE
  5
2178B
  8
0
 10
449.26582622568361
 20
-515.18301000602355
 30
0.0
 11
453.26582622568361
 21
-514.3830193132053
 31
0.0
  0
LINE
  5
2178C
  8
0
 10
453.26582622568361
 20
-514.3830193132053
 30
0.0
 11
452.76582622568361
 21
-514.28301814980773
 31
0.0
  0
LINE
  5
2178D
  8
0
 10
449.76582622568361
 20
-516.88301116942125
 30
0.0
 11
449.26582622568361
 21
-516.78301000602357
 31
0.0
  0
LINE
  5
2178E
  8
0
 10
449.26582622568361
 20
-516.78301000602357
 30
0.0
 11
453.26582622568361
 21
-515.9830193132052
 31
0.0
  0
LINE
  5
2178F
  8
0
 10
453.26582622568361
 20
-515.9830193132052
 30
0.0
 11
452.76582622568361
 21
-515.88301814980764
 31
0.0
  0
LINE
  5
21790
  8
0
 10
700.85331781711386
 20
-627.82137688716375
 30
0.0
 11
695.55332130725219
 21
-626.32137688716375
 31
0.0
  0
LINE
  5
21791
  8
0
 10
695.55332130725219
 20
-626.32137688716375
 30
0.0
 11
665.85332130736015
 21
-626.32137688716409
 31
0.0
  0
LINE
  5
21792
  8
0
 10
700.85331781711386
 20
-627.82137688716375
 30
0.0
 11
695.55331432686853
 21
-629.32137688716386
 31
0.0
  0
LINE
  5
21793
  8
0
 10
665.85332596105843
 20
-624.32133035126606
 30
0.0
 11
665.85330967349398
 21
-631.32133035126594
 31
0.0
  0
LINE
  5
21794
  8
0
 10
695.55331432686853
 20
-629.32137688716386
 30
0.0
 11
665.85331432697558
 21
-629.32137688716398
 31
0.0
  0
LINE
  5
21795
  8
0
 10
665.85332596105843
 20
-624.32133035126606
 30
0.0
 11
664.75332247086305
 21
-624.32133035126594
 31
0.0
  0
ARC
  5
21796
  8
0
 10
664.75332247086305
 20
-625.82133035126594
 30
0.0
 40
1.5
 50
90.0
 51
179.9998666844684
  0
LINE
  5
21797
  8
0
 10
665.85330967349398
 20
-631.32133035126594
 30
0.0
 11
664.7533131636834
 21
-631.32133035126594
 31
0.0
  0
LINE
  5
21798
  8
0
 10
663.25332247086715
 20
-625.82132686107354
 30
0.0
 11
663.25331316368749
 21
-629.82132686107354
 31
0.0
  0
ARC
  5
21799
  8
0
 10
664.7533131636834
 20
-629.82133035126594
 30
0.0
 40
1.5
 50
179.9998666844684
 51
270.0
  0
LINE
  5
2179A
  8
1CENTER
 10
702.28411273457925
 20
-627.82133035126594
 30
0.0
 11
662.18304140796727
 21
-627.82133035126594
 31
0.0
  0
LINE
  5
2179B
  8
0
 10
698.75332036343605
 20
-626.72700653727077
 30
0.0
 11
699.55331579748702
 21
-628.6893416261463
 31
0.0
  0
LINE
  5
2179C
  8
0
 10
699.55331579748702
 20
-628.6893416261463
 30
0.0
 11
699.86508565373913
 21
-628.10106505110389
 31
0.0
  0
LINE
  5
2179D
  8
0
 10
676.35332247064605
 20
-625.82137688716375
 30
0.0
 11
677.1533131634643
 21
-629.82137688716375
 31
0.0
  0
LINE
  5
2179E
  8
0
 10
687.5533224706503
 20
-625.82137688716375
 30
0.0
 11
688.35331316347288
 21
-629.82137688716375
 31
0.0
  0
LINE
  5
2179F
  8
0
 10
690.75332247065035
 20
-625.82137688716375
 30
0.0
 11
691.55331316347304
 21
-629.82137688716375
 31
0.0
  0
LINE
  5
217A0
  8
0
 10
691.55331316347304
 20
-629.82137688716375
 30
0.0
 11
691.65331432687015
 21
-629.32137688716375
 31
0.0
  0
LINE
  5
217A1
  8
0
 10
692.25332130725315
 20
-626.32137688716375
 30
0.0
 11
692.35332247065037
 21
-625.82137688716375
 31
0.0
  0
LINE
  5
217A2
  8
0
 10
688.35331316347288
 20
-629.82137688716375
 30
0.0
 11
688.45331432687021
 21
-629.32137688716375
 31
0.0
  0
LINE
  5
217A3
  8
0
 10
689.95331316347313
 20
-629.82137688716375
 30
0.0
 11
690.05331432687024
 21
-629.32137688716375
 31
0.0
  0
LINE
  5
217A4
  8
0
 10
690.65332130725335
 20
-626.32137688716375
 30
0.0
 11
690.75332247065035
 21
-625.82137688716375
 31
0.0
  0
LINE
  5
217A5
  8
0
 10
689.05332130725344
 20
-626.32137688716375
 30
0.0
 11
689.15332247065055
 21
-625.82137688716375
 31
0.0
  0
LINE
  5
217A6
  8
0
 10
689.15332247065055
 20
-625.82137688716375
 30
0.0
 11
689.95331316347313
 21
-629.82137688716375
 31
0.0
  0
LINE
  5
217A7
  8
0
 10
697.95331474388138
 20
-629.1421557305531
 30
0.0
 11
698.13607888650927
 21
-628.59040626674982
 31
0.0
  0
LINE
  5
217A8
  8
0
 10
694.75331316347297
 20
-629.82137688716375
 30
0.0
 11
694.85331432687019
 21
-629.32137688716375
 31
0.0
  0
LINE
  5
217A9
  8
0
 10
693.15331316347294
 20
-629.82137688716375
 30
0.0
 11
693.25331432687005
 21
-629.32137688716375
 31
0.0
  0
LINE
  5
217AA
  8
0
 10
696.35331369027574
 20
-629.59496983495978
 30
0.0
 11
696.48258438790549
 21
-629.05837609968864
 31
0.0
  0
LINE
  5
217AB
  8
0
 10
697.04055190469023
 20
-626.74229148437246
 30
0.0
 11
697.15332141704027
 21
-626.2741930292226
 31
0.0
  0
LINE
  5
217AC
  8
0
 10
693.8533213072534
 20
-626.32137688716375
 30
0.0
 11
693.95332247065039
 21
-625.82137688716375
 31
0.0
  0
LINE
  5
217AD
  8
0
 10
695.4533213072533
 20
-626.32137688716375
 30
0.0
 11
695.55332247065041
 21
-625.82137688716375
 31
0.0
  0
LINE
  5
217AE
  8
0
 10
698.60188456699564
 20
-627.18417837790184
 30
0.0
 11
698.75332036343605
 21
-626.72700653727077
 31
0.0
  0
LINE
  5
217AF
  8
0
 10
697.15332141704027
 20
-626.2741930292226
 30
0.0
 11
697.95331474388138
 21
-629.1421557305531
 31
0.0
  0
LINE
  5
217B0
  8
0
 10
693.95332247065039
 20
-625.82137688716375
 30
0.0
 11
694.75331316347297
 21
-629.82137688716375
 31
0.0
  0
LINE
  5
217B1
  8
0
 10
695.55332247065041
 20
-625.82137688716375
 30
0.0
 11
696.35331369027574
 21
-629.59496983495978
 31
0.0
  0
LINE
  5
217B2
  8
0
 10
692.35332247065037
 20
-625.82137688716375
 30
0.0
 11
693.15331316347294
 21
-629.82137688716375
 31
0.0
  0
LINE
  5
217B3
  8
0
 10
679.55332247064609
 20
-625.82137688716375
 30
0.0
 11
680.35331316346435
 21
-629.82137688716375
 31
0.0
  0
LINE
  5
217B4
  8
0
 10
680.35331316346435
 20
-629.82137688716375
 30
0.0
 11
680.45331432686203
 21
-629.32137688716375
 31
0.0
  0
LINE
  5
217B5
  8
0
 10
681.05332130725276
 20
-626.32137688716375
 30
0.0
 11
681.15332247065044
 21
-625.82137688716375
 31
0.0
  0
LINE
  5
217B6
  8
0
 10
678.75331316346421
 20
-629.82137688716375
 30
0.0
 11
678.85331432686189
 21
-629.32137688716375
 31
0.0
  0
LINE
  5
217B7
  8
0
 10
677.1533131634643
 20
-629.82137688716375
 30
0.0
 11
677.25331432686198
 21
-629.32137688716375
 31
0.0
  0
LINE
  5
217B8
  8
0
 10
679.45332130724842
 20
-626.32137688716375
 30
0.0
 11
679.55332247064609
 21
-625.82137688716375
 31
0.0
  0
LINE
  5
217B9
  8
0
 10
677.85332130724817
 20
-626.32137688716375
 30
0.0
 11
677.95332247064584
 21
-625.82137688716375
 31
0.0
  0
LINE
  5
217BA
  8
0
 10
677.95332247064584
 20
-625.82137688716375
 30
0.0
 11
678.75331316346421
 21
-629.82137688716375
 31
0.0
  0
LINE
  5
217BB
  8
0
 10
685.15331316346874
 20
-629.82137688716375
 30
0.0
 11
685.25331432686642
 21
-629.32137688716375
 31
0.0
  0
LINE
  5
217BC
  8
0
 10
686.75331316347297
 20
-629.82137688716375
 30
0.0
 11
686.85331432687019
 21
-629.32137688716375
 31
0.0
  0
LINE
  5
217BD
  8
0
 10
681.95331316346858
 20
-629.82137688716375
 30
0.0
 11
682.05331432686626
 21
-629.32137688716375
 31
0.0
  0
LINE
  5
217BE
  8
0
 10
683.5533131634686
 20
-629.82137688716375
 30
0.0
 11
683.65331432686617
 21
-629.32137688716375
 31
0.0
  0
LINE
  5
217BF
  8
0
 10
687.4533213072533
 20
-626.32137688716375
 30
0.0
 11
687.5533224706503
 21
-625.82137688716375
 31
0.0
  0
LINE
  5
217C0
  8
0
 10
685.85332130725271
 20
-626.32137688716375
 30
0.0
 11
685.95332247065039
 21
-625.82137688716375
 31
0.0
  0
LINE
  5
217C1
  8
0
 10
682.65332130725267
 20
-626.32137688716375
 30
0.0
 11
682.75332247065035
 21
-625.82137688716375
 31
0.0
  0
LINE
  5
217C2
  8
0
 10
684.2533213072528
 20
-626.32137688716375
 30
0.0
 11
684.35332247065037
 21
-625.82137688716375
 31
0.0
  0
LINE
  5
217C3
  8
0
 10
684.35332247065037
 20
-625.82137688716375
 30
0.0
 11
685.15331316346874
 21
-629.82137688716375
 31
0.0
  0
LINE
  5
217C4
  8
0
 10
685.95332247065039
 20
-625.82137688716375
 30
0.0
 11
686.75331316347297
 21
-629.82137688716375
 31
0.0
  0
LINE
  5
217C5
  8
0
 10
682.75332247065035
 20
-625.82137688716375
 30
0.0
 11
683.5533131634686
 21
-629.82137688716375
 31
0.0
  0
LINE
  5
217C6
  8
0
 10
681.15332247065044
 20
-625.82137688716375
 30
0.0
 11
681.95331316346858
 21
-629.82137688716375
 31
0.0
  0
LINE
  5
217C7
  8
0
 10
671.45332130724421
 20
-626.32137688716375
 30
0.0
 11
671.55332247064189
 21
-625.82137688716375
 31
0.0
  0
LINE
  5
217C8
  8
0
 10
671.55332247064189
 20
-625.82137688716375
 30
0.0
 11
672.35331316346014
 21
-629.82137688716375
 31
0.0
  0
LINE
  5
217C9
  8
0
 10
672.35331316346014
 20
-629.82137688716375
 30
0.0
 11
672.45331432685782
 21
-629.32137688716375
 31
0.0
  0
LINE
  5
217CA
  8
0
 10
673.053321307244
 20
-626.32137688716375
 30
0.0
 11
673.15332247064168
 21
-625.82137688716375
 31
0.0
  0
LINE
  5
217CB
  8
0
 10
674.65332130724403
 20
-626.32137688716375
 30
0.0
 11
674.75332247064159
 21
-625.82137688716375
 31
0.0
  0
LINE
  5
217CC
  8
0
 10
674.75332247064159
 20
-625.82137688716375
 30
0.0
 11
675.55331316345985
 21
-629.82137688716375
 31
0.0
  0
LINE
  5
217CD
  8
0
 10
673.95331316346005
 20
-629.82137688716375
 30
0.0
 11
674.05331432685773
 21
-629.32137688716375
 31
0.0
  0
LINE
  5
217CE
  8
0
 10
675.55331316345985
 20
-629.82137688716375
 30
0.0
 11
675.65331432685764
 21
-629.32137688716375
 31
0.0
  0
LINE
  5
217CF
  8
0
 10
673.15332247064168
 20
-625.82137688716375
 30
0.0
 11
673.95331316346005
 21
-629.82137688716375
 31
0.0
  0
LINE
  5
217D0
  8
0
 10
676.25332130724826
 20
-626.32137688716375
 30
0.0
 11
676.35332247064605
 21
-625.82137688716375
 31
0.0
  0
LINE
  5
217D1
  8
0
 10
669.8533213072443
 20
-626.32137688716375
 30
0.0
 11
669.95332247064198
 21
-625.82137688716375
 31
0.0
  0
LINE
  5
217D2
  8
0
 10
669.95332247064198
 20
-625.82137688716375
 30
0.0
 11
670.75331316346023
 21
-629.82137688716375
 31
0.0
  0
LINE
  5
217D3
  8
0
 10
670.75331316346023
 20
-629.82137688716375
 30
0.0
 11
670.85331432685791
 21
-629.32137688716375
 31
0.0
  0
LINE
  5
217D4
  8
0
 10
668.25332130724439
 20
-626.32137688716375
 30
0.0
 11
668.35332247064207
 21
-625.82137688716375
 31
0.0
  0
LINE
  5
217D5
  8
0
 10
668.35332247064207
 20
-625.82137688716375
 30
0.0
 11
669.15331316346033
 21
-629.82137688716375
 31
0.0
  0
LINE
  5
217D6
  8
0
 10
669.15331316346033
 20
-629.82137688716375
 30
0.0
 11
669.253314326858
 21
-629.32137688716375
 31
0.0
  0
LINE
  5
217D7
  8
0
 10
666.65332130724448
 20
-626.32137688716375
 30
0.0
 11
666.75332247064216
 21
-625.82137688716375
 31
0.0
  0
LINE
  5
217D8
  8
0
 10
666.75332247064216
 20
-625.82137688716375
 30
0.0
 11
667.55331316346042
 21
-629.82137688716375
 31
0.0
  0
LINE
  5
217D9
  8
0
 10
667.55331316346042
 20
-629.82137688716375
 30
0.0
 11
667.65331432685809
 21
-629.32137688716375
 31
0.0
  0
SOLID
  5
217DA
  8
1DIM
 10
687.48555433914066
 20
-595.00413952289
 30
0.0
 11
686.74461961244776
 21
-596.89149927712117
 31
0.0
 12
686.83338713632565
 22
-594.8658558144615
 32
0.0
 13
686.83338713632565
 23
-594.8658558144615
 33
0.0
1001
ACAD
1000
DSTYLE
1002
{
1070
    45
1040
0.5
1002
}
  0
SOLID
  5
217DC
  8
1DIM
 10
674.35013619397546
 20
-595.00413952289
 30
0.0
 11
673.60920146728256
 21
-596.89149927712117
 31
0.0
 12
673.69796899116045
 22
-594.8658558144615
 32
0.0
 13
673.69796899116045
 23
-594.8658558144615
 33
0.0
1001
ACAD
1000
DSTYLE
1002
{
1070
    45
1040
0.5
1002
}
  0
LINE
  5
217DE
  8
1DIM
 10
481.26624161536398
 20
-514.68301465938953
 30
0.0
 11
481.26624161536398
 21
-498.68301465938953
 31
0.0
  0
LINE
  5
217DF
  8
1DIM
 10
416.26624161536489
 20
-514.68301465938953
 30
0.0
 11
416.26624161536489
 21
-498.68301465938953
 31
0.0
  0
LINE
  5
217E0
  8
1DIM
 10
479.26624161536398
 20
-499.68301465938953
 30
0.0
 11
418.26624161536489
 21
-499.68301465938953
 31
0.0
  0
LINE
  5
217E4
  8
1DIM
 10
658.85331781727064
 20
-710.82133035126594
 30
0.0
 11
732.88754429013704
 21
-710.82133035126594
 31
0.0
  0
LINE
  5
217E5
  8
1DIM
 10
658.85331781727064
 20
-600.82133035126435
 30
0.0
 11
732.88754429013704
 21
-600.82133035126435
 31
0.0
  0
LINE
  5
217E6
  8
1DIM
 10
731.88754429013704
 20
-708.82133035126594
 30
0.0
 11
731.88754429013704
 21
-602.82133035126435
 31
0.0
  0
LINE
  5
217EA
  8
1DIM
 10
702.28411273457925
 20
-627.82133035126594
 30
0.0
 11
711.35331781727621
 21
-627.82133035126594
 31
0.0
  0
LINE
  5
217EB
  8
1DIM
 10
658.85331781727064
 20
-600.82133035126435
 30
0.0
 11
711.35331781727621
 21
-600.82133035126435
 31
0.0
  0
LINE
  5
217EC
  8
1DIM
 10
710.35331781727621
 20
-625.82133035126594
 30
0.0
 11
710.35331781727621
 21
-602.82133035126435
 31
0.0
  0
LINE
  5
217F0
  8
1DIM
 10
649.35331781727064
 20
-601.32133035126435
 30
0.0
 11
649.35331781727064
 21
-585.28085538567984
 31
0.0
  0
LINE
  5
217F1
  8
1DIM
 10
668.85331781727621
 20
-615.82133035126537
 30
0.0
 11
668.85331781727621
 21
-585.28085538567984
 31
0.0
  0
LINE
  5
217F2
  8
1DIM
 10
651.35331781727064
 20
-586.28085538567984
 30
0.0
 11
666.85331781727609
 21
-586.28085538567984
 31
0.0
  0
TEXT
  5
217F6
  8
1DIM
 10
589.835633714746
 20
-583.0947447403247
 30
0.0
 40
3.5
  1
材質：亜鉛ダイキャスト
  0
TEXT
  5
217F7
  8
1DIM
 10
598.00230038141274
 20
-588.92807807365818
 30
0.0
 40
3.5
  1
仕上げ：各種メッキ
  0
SOLID
  5
217F8
  8
1DIM
 10
662.72762854132282
 20
-618.20992458441015
 30
0.0
 11
663.79963222214155
 21
-619.93094730925213
 31
0.0
 12
662.22740515385067
 22
-618.65062970926192
 32
0.0
 13
662.22740515385067
 23
-618.65062970926192
 33
0.0
1001
ACAD
1000
DSTYLE
1002
{
1070
    45
1040
0.5
1002
}
  0
TEXT
  5
217FA
  8
1DIM
 10
600.2694811698484
 20
-606.30044507161972
 30
0.0
 40
3.5
  1
材質：ステンレス
  0
TEXT
  5
217FB
  8
1DIM
 10
595.60281450318166
 20
-612.13377840495298
 30
0.0
 40
3.5
  1
仕上げ：各種仕上げ
  0
SOLID
  5
217FC
  8
1DIM
 10
655.43788579125248
 20
-641.65468786195675
 30
0.0
 11
656.29838972935841
 21
-643.49061925599494
 31
0.0
 12
654.88896230875935
 22
-642.0330097550742
 32
0.0
 13
654.88896230875935
 23
-642.0330097550742
 33
0.0
1001
ACAD
1000
DSTYLE
1002
{
1070
    45
1040
0.5
1002
}
  0
LINE
  5
217FE
  8
1DIM
 10
655.16342405000603
 20
-641.84384880851542
 30
0.0
 11
635.1694811698485
 21
-612.83377840495314
 31
0.0
1001
ACAD
1000
DSTYLE
1002
{
1070
    45
1040
0.5
1002
}
  0
LINE
  5
217FF
  8
1DIM
 10
635.1694811698485
 20
-612.83377840495314
 30
0.0
 11
632.46948116984845
 21
-612.83377840495314
 31
0.0
1001
ACAD
1000
DSTYLE
1002
{
1070
    45
1040
0.5
1002
}
  0
LINE
  5
21800
  8
1DIM
 10
662.4775168475868
 20
-618.43027714683603
 30
0.0
 11
637.10230038141265
 21
-589.62807807365823
 31
0.0
1001
ACAD
1000
DSTYLE
1002
{
1070
    45
1040
0.5
1002
}
  0
LINE
  5
21801
  8
1DIM
 10
637.10230038141265
 20
-589.62807807365823
 30
0.0
 11
634.40230038141272
 21
-589.62807807365823
 31
0.0
1001
ACAD
1000
DSTYLE
1002
{
1070
    45
1040
0.5
1002
}
  0
TEXT
  5
21802
  8
1DIM
 10
654.43665115060674
 20
-585.5808553856798
 30
0.0
 40
3.5
  1
19.5
  0
LINE
  5
21803
  8
0
  6
BYBLOCK
 10
666.85331781727609
 20
-585.74495700567979
 30
0.0
 11
668.85331781727621
 21
-586.28085538567984
 31
0.0
  0
LINE
  5
21804
  8
0
  6
BYBLOCK
 10
668.85331781727621
 20
-586.28085538567984
 30
0.0
 11
666.85331781727609
 21
-586.81675376567978
 31
0.0
  0
LINE
  5
21805
  8
0
  6
BYBLOCK
 10
668.85331781727621
 20
-586.28085538567984
 30
0.0
 11
666.85331781727609
 21
-586.28085538567984
 31
0.0
  0
LINE
  5
21806
  8
0
  6
BYBLOCK
 10
651.35331781727064
 20
-586.81675376567978
 30
0.0
 11
649.35331781727064
 21
-586.28085538567984
 31
0.0
  0
LINE
  5
21807
  8
0
  6
BYBLOCK
 10
649.35331781727064
 20
-586.28085538567984
 30
0.0
 11
651.35331781727064
 21
-585.74495700567979
 31
0.0
  0
LINE
  5
21808
  8
0
  6
BYBLOCK
 10
649.35331781727064
 20
-586.28085538567984
 30
0.0
 11
651.35331781727064
 21
-586.28085538567984
 31
0.0
  0
TEXT
  5
21809
  8
1DIM
 10
709.65331781727616
 20
-617.23799701793155
 30
0.0
 40
3.5
  1
27
 50
90.0
  0
LINE
  5
2180A
  8
0
  6
BYBLOCK
 10
709.81741943727604
 20
-602.82133035126435
 30
0.0
 11
710.35331781727621
 21
-600.82133035126435
 31
0.0
  0
LINE
  5
2180B
  8
0
  6
BYBLOCK
 10
710.35331781727621
 20
-600.82133035126435
 30
0.0
 11
710.88921619727626
 21
-602.82133035126435
 31
0.0
  0
LINE
  5
2180C
  8
0
  6
BYBLOCK
 10
710.35331781727621
 20
-600.82133035126435
 30
0.0
 11
710.35331781727621
 21
-602.82133035126435
 31
0.0
  0
LINE
  5
2180D
  8
0
  6
BYBLOCK
 10
710.88921619727626
 20
-625.82133035126594
 30
0.0
 11
710.35331781727621
 21
-627.82133035126594
 31
0.0
  0
LINE
  5
2180E
  8
0
  6
BYBLOCK
 10
710.35331781727621
 20
-627.82133035126594
 30
0.0
 11
709.81741943727604
 21
-625.82133035126594
 31
0.0
  0
LINE
  5
2180F
  8
0
  6
BYBLOCK
 10
710.35331781727621
 20
-627.82133035126594
 30
0.0
 11
710.35331781727621
 21
-625.82133035126594
 31
0.0
  0
TEXT
  5
21810
  8
1DIM
 10
731.18754429013723
 20
-659.0296636845984
 30
0.0
 40
3.5
  1
110
 50
90.0
  0
LINE
  5
21811
  8
0
  6
BYBLOCK
 10
731.35164591013711
 20
-602.82133035126435
 30
0.0
 11
731.88754429013704
 21
-600.82133035126435
 31
0.0
  0
LINE
  5
21812
  8
0
  6
BYBLOCK
 10
731.88754429013704
 20
-600.82133035126435
 30
0.0
 11
732.42344267013721
 21
-602.82133035126435
 31
0.0
  0
LINE
  5
21813
  8
0
  6
BYBLOCK
 10
731.88754429013704
 20
-600.82133035126435
 30
0.0
 11
731.88754429013704
 21
-602.82133035126435
 31
0.0
  0
LINE
  5
21814
  8
0
  6
BYBLOCK
 10
732.42344267013721
 20
-708.82133035126594
 30
0.0
 11
731.88754429013704
 21
-710.82133035126594
 31
0.0
  0
LINE
  5
21815
  8
0
  6
BYBLOCK
 10
731.88754429013704
 20
-710.82133035126594
 30
0.0
 11
731.35164591013711
 21
-708.82133035126594
 31
0.0
  0
LINE
  5
21816
  8
0
  6
BYBLOCK
 10
731.88754429013704
 20
-710.82133035126594
 30
0.0
 11
731.88754429013704
 21
-708.82133035126594
 31
0.0
  0
TEXT
  5
21817
  8
1DIM
 10
437.62158095836111
 20
-498.98301465938948
 30
0.0
 40
3.5
  1
65
  0
LINE
  5
21818
  8
0
  6
BYBLOCK
 10
418.26624161536489
 20
-500.21891303938952
 30
0.0
 11
416.26624161536489
 21
-499.68301465938953
 31
0.0
  0
LINE
  5
21819
  8
0
  6
BYBLOCK
 10
416.26624161536489
 20
-499.68301465938953
 30
0.0
 11
418.26624161536489
 21
-499.14711627938948
 31
0.0
  0
LINE
  5
2181A
  8
0
  6
BYBLOCK
 10
416.26624161536489
 20
-499.68301465938953
 30
0.0
 11
418.26624161536489
 21
-499.68301465938953
 31
0.0
  0
LINE
  5
2181B
  8
0
  6
BYBLOCK
 10
479.26624161536398
 20
-499.14711627938948
 30
0.0
 11
481.26624161536398
 21
-499.68301465938953
 31
0.0
  0
LINE
  5
2181C
  8
0
  6
BYBLOCK
 10
481.26624161536398
 20
-499.68301465938953
 30
0.0
 11
479.26624161536398
 21
-500.21891303938952
 31
0.0
  0
LINE
  5
2181D
  8
0
  6
BYBLOCK
 10
481.26624161536398
 20
-499.68301465938953
 30
0.0
 11
479.26624161536398
 21
-499.68301465938953
 31
0.0
  0
LINE
  5
2181E
  8
1DIM
 10
674.02405259256795
 20
-594.93499766867569
 30
0.0
 11
676.7330454003976
 21
-582.15897161320584
 31
0.0
1001
ACAD
1000
DSTYLE
1002
{
1070
    45
1040
0.5
1002
}
  0
LINE
  5
2181F
  8
1DIM
 10
687.15947073773305
 20
-594.93499766867569
 30
0.0
 11
689.86846354556292
 21
-582.15897161320584
 31
0.0
1001
ACAD
1000
DSTYLE
1002
{
1070
    45
1040
0.5
1002
}
  0
TEXT
  5
21820
  8
1DIM
 10
709.65331781727616
 20
-660.48799701793234
 30
0.0
 40
3.5
  1
P56
 50
90.0
  0
LINE
  5
21821
  8
0
  6
BYBLOCK
 10
709.81741943727604
 20
-629.82133035126594
 30
0.0
 11
710.35331781727621
 21
-627.82133035126594
 31
0.0
  0
LINE
  5
21822
  8
0
  6
BYBLOCK
 10
710.35331781727621
 20
-627.82133035126594
 30
0.0
 11
710.88921619727626
 21
-629.82133035126594
 31
0.0
  0
LINE
  5
21823
  8
0
  6
BYBLOCK
 10
710.35331781727621
 20
-627.82133035126594
 30
0.0
 11
710.35331781727621
 21
-629.82133035126594
 31
0.0
  0
LINE
  5
21824
  8
0
  6
BYBLOCK
 10
710.88921619727626
 20
-681.82133035126594
 30
0.0
 11
710.35331781727621
 21
-683.82133035126594
 31
0.0
  0
LINE
  5
21825
  8
0
  6
BYBLOCK
 10
710.35331781727621
 20
-683.82133035126594
 30
0.0
 11
709.81741943727604
 21
-681.82133035126594
 31
0.0
  0
LINE
  5
21826
  8
0
  6
BYBLOCK
 10
710.35331781727621
 20
-683.82133035126594
 30
0.0
 11
710.35331781727621
 21
-681.82133035126594
 31
0.0
  0
TEXT
  5
21827
  8
1DIM
 10
478.68290828203152
 20
-583.77313838051009
 30
0.0
 40
3.5
  1
153
  0
LINE
  5
21828
  8
0
  6
BYBLOCK
 10
557.26624161536461
 20
-583.93724000051009
 30
0.0
 11
559.26624161536472
 21
-584.47313838051014
 31
0.0
  0
LINE
  5
21829
  8
0
  6
BYBLOCK
 10
559.26624161536472
 20
-584.47313838051014
 30
0.0
 11
557.26624161536461
 21
-585.00903676051007
 31
0.0
  0
LINE
  5
2182A
  8
0
  6
BYBLOCK
 10
559.26624161536472
 20
-584.47313838051014
 30
0.0
 11
557.26624161536461
 21
-584.47313838051014
 31
0.0
  0
LINE
  5
2182B
  8
0
  6
BYBLOCK
 10
408.26624161536489
 20
-585.00903676051007
 30
0.0
 11
406.26624161536489
 21
-584.47313838051014
 31
0.0
  0
LINE
  5
2182C
  8
0
  6
BYBLOCK
 10
406.26624161536489
 20
-584.47313838051014
 30
0.0
 11
408.26624161536489
 21
-583.93724000051009
 31
0.0
  0
LINE
  5
2182D
  8
0
  6
BYBLOCK
 10
406.26624161536489
 20
-584.47313838051014
 30
0.0
 11
408.26624161536489
 21
-584.47313838051014
 31
0.0
  0
TEXT
  5
2182E
  8
1DIM
 10
582.72681083880309
 20
-659.02966368459886
 30
0.0
 40
3.5
  1
110
 50
90.0
  0
LINE
  5
2182F
  8
0
  6
BYBLOCK
 10
583.96270921880307
 20
-708.8213303512664
 30
0.0
 11
583.42681083880314
 21
-710.8213303512664
 31
0.0
  0
LINE
  5
21830
  8
0
  6
BYBLOCK
 10
583.42681083880314
 20
-710.8213303512664
 30
0.0
 11
582.89091245880297
 21
-708.8213303512664
 31
0.0
  0
LINE
  5
21831
  8
0
  6
BYBLOCK
 10
583.42681083880314
 20
-710.8213303512664
 30
0.0
 11
583.42681083880314
 21
-708.8213303512664
 31
0.0
  0
LINE
  5
21832
  8
0
  6
BYBLOCK
 10
582.89091245880297
 20
-602.82133035126503
 30
0.0
 11
583.42681083880314
 21
-600.82133035126503
 31
0.0
  0
LINE
  5
21833
  8
0
  6
BYBLOCK
 10
583.42681083880314
 20
-600.82133035126503
 30
0.0
 11
583.96270921880307
 21
-602.82133035126503
 31
0.0
  0
LINE
  5
21834
  8
0
  6
BYBLOCK
 10
583.42681083880314
 20
-600.82133035126503
 30
0.0
 11
583.42681083880314
 21
-602.82133035126503
 31
0.0
  0
TEXT
  5
21835
  8
1DIM
 10
719.91076555429652
 20
-658.4463303512656
 30
0.0
 40
3.5
  1
80
 50
90.0
  0
LINE
  5
21836
  8
0
  6
BYBLOCK
 10
721.14666393429638
 20
-693.82133035126606
 30
0.0
 11
720.61076555429645
 21
-695.82133035126606
 31
0.0
  0
LINE
  5
21837
  8
0
  6
BYBLOCK
 10
720.61076555429645
 20
-695.82133035126606
 30
0.0
 11
720.0748671742964
 21
-693.82133035126606
 31
0.0
  0
LINE
  5
21838
  8
0
  6
BYBLOCK
 10
720.61076555429645
 20
-695.82133035126606
 30
0.0
 11
720.61076555429645
 21
-693.82133035126606
 31
0.0
  0
LINE
  5
21839
  8
0
  6
BYBLOCK
 10
720.0748671742964
 20
-617.82133035126526
 30
0.0
 11
720.61076555429645
 21
-615.82133035126537
 31
0.0
  0
LINE
  5
2183A
  8
0
  6
BYBLOCK
 10
720.61076555429645
 20
-615.82133035126537
 30
0.0
 11
721.14666393429638
 21
-617.82133035126526
 31
0.0
  0
LINE
  5
2183B
  8
0
  6
BYBLOCK
 10
720.61076555429645
 20
-615.82133035126537
 30
0.0
 11
720.61076555429645
 21
-617.82133035126526
 31
0.0
  0
TEXT
  5
2183C
  8
1DIM
 10
425.8493439859086
 20
-592.77538767667215
 30
0.0
 40
3.5
  1
45
  0
LINE
  5
2183D
  8
0
  6
BYBLOCK
 10
408.26624161536489
 20
-594.01128605667225
 30
0.0
 11
406.26624161536489
 21
-593.4753876766722
 31
0.0
  0
LINE
  5
2183E
  8
0
  6
BYBLOCK
 10
406.26624161536489
 20
-593.4753876766722
 30
0.0
 11
408.26624161536489
 21
-592.93948929667215
 31
0.0
  0
LINE
  5
2183F
  8
0
  6
BYBLOCK
 10
406.26624161536489
 20
-593.4753876766722
 30
0.0
 11
408.26624161536489
 21
-593.4753876766722
 31
0.0
  0
LINE
  5
21840
  8
0
  6
BYBLOCK
 10
449.26577968978569
 20
-592.93948929667215
 30
0.0
 11
451.26577968978557
 21
-593.4753876766722
 31
0.0
  0
LINE
  5
21841
  8
0
  6
BYBLOCK
 10
451.26577968978557
 20
-593.4753876766722
 30
0.0
 11
449.26577968978569
 21
-594.01128605667225
 31
0.0
  0
LINE
  5
21842
  8
0
  6
BYBLOCK
 10
451.26577968978557
 20
-593.4753876766722
 30
0.0
 11
449.26577968978569
 21
-593.4753876766722
 31
0.0
  0
TEXT
  5
21843
  8
1DIM
 10
498.14124161536438
 20
-592.77538767667215
 30
0.0
 40
3.5
  1
104.5
  0
LINE
  5
21844
  8
0
  6
BYBLOCK
 10
554.61624161536429
 20
-592.93948929667215
 30
0.0
 11
556.6162416153644
 21
-593.4753876766722
 31
0.0
  0
LINE
  5
21845
  8
0
  6
BYBLOCK
 10
556.6162416153644
 20
-593.4753876766722
 30
0.0
 11
554.61624161536429
 21
-594.01128605667225
 31
0.0
  0
LINE
  5
21846
  8
0
  6
BYBLOCK
 10
556.6162416153644
 20
-593.4753876766722
 30
0.0
 11
554.61624161536429
 21
-593.4753876766722
 31
0.0
  0
LINE
  5
21847
  8
0
  6
BYBLOCK
 10
453.91624161536453
 20
-594.01128605667225
 30
0.0
 11
451.91624161536458
 21
-593.4753876766722
 31
0.0
  0
LINE
  5
21848
  8
0
  6
BYBLOCK
 10
451.91624161536458
 20
-593.4753876766722
 30
0.0
 11
453.91624161536453
 21
-592.93948929667215
 31
0.0
  0
LINE
  5
21849
  8
0
  6
BYBLOCK
 10
451.91624161536458
 20
-593.4753876766722
 30
0.0
 11
453.91624161536453
 21
-593.4753876766722
 31
0.0
  0
TEXT
  5
2184A
  8
1DIM
 10
570.76875948969769
 20
-661.94633035126719
 30
0.0
 40
3.5
  1
104.5
 50
90.0
  0
LINE
  5
2184B
  8
0
  6
BYBLOCK
 10
570.93286110969757
 20
-605.4713303512674
 30
0.0
 11
571.46875948969773
 21
-603.4713303512674
 31
0.0
  0
LINE
  5
2184C
  8
0
  6
BYBLOCK
 10
571.46875948969773
 20
-603.4713303512674
 30
0.0
 11
572.00465786969778
 21
-605.4713303512674
 31
0.0
  0
LINE
  5
2184D
  8
0
  6
BYBLOCK
 10
571.46875948969773
 20
-603.4713303512674
 30
0.0
 11
571.46875948969773
 21
-605.4713303512674
 31
0.0
  0
LINE
  5
2184E
  8
0
  6
BYBLOCK
 10
572.00465786969778
 20
-706.17133035126722
 30
0.0
 11
571.46875948969773
 21
-708.17133035126722
 31
0.0
  0
LINE
  5
2184F
  8
0
  6
BYBLOCK
 10
571.46875948969773
 20
-708.17133035126722
 30
0.0
 11
570.93286110969757
 21
-706.17133035126722
 31
0.0
  0
LINE
  5
21850
  8
0
  6
BYBLOCK
 10
571.46875948969773
 20
-708.17133035126722
 30
0.0
 11
571.46875948969773
 21
-706.17133035126722
 31
0.0
  0
TEXT
  5
21851
  8
1DIM
 10
590.64632588961649
 20
-690.41155890964637
 30
0.0
 40
3.5
  1
\U+2205100
 50
337.7457153396337
  0
LINE
  5
21852
  8
0
  6
BYBLOCK
 10
548.89378079281471
 20
-673.50380568812523
 30
0.0
 11
550.54185089257749
 21
-674.75722182810205
 31
0.0
  0
LINE
  5
21853
  8
0
  6
BYBLOCK
 10
550.54185089257749
 20
-674.75722182810205
 30
0.0
 11
548.48787225016304
 21
-674.49576664993197
 31
0.0
  0
LINE
  5
21854
  8
0
  6
BYBLOCK
 10
550.54185089257749
 20
-674.75722182810205
 30
0.0
 11
548.6908265214887
 21
-673.99978616902865
 31
0.0
  0
LINE
  5
21855
  8
0
  6
BYBLOCK
 10
459.63870243790882
 20
-638.13885501440893
 30
0.0
 11
457.99063233814587
 21
-636.885438874432
 31
0.0
  0
LINE
  5
21856
  8
0
  6
BYBLOCK
 10
457.99063233814587
 20
-636.885438874432
 30
0.0
 11
460.04461098056038
 21
-637.14689405260197
 31
0.0
  0
LINE
  5
21857
  8
0
  6
BYBLOCK
 10
457.99063233814587
 20
-636.885438874432
 30
0.0
 11
459.84165670923448
 21
-637.64287453350539
 31
0.0
  0
LINE
  5
21858
  8
1DIM
 10
520.95790304838033
 20
-607.02972693470372
 30
0.0
 11
537.87253599148505
 21
-579.29815593160242
 31
0.0
  0
LINE
  5
21859
  8
1DIM
 10
537.87253599148505
 20
-579.29815593160242
 30
0.0
 11
540.57253599148521
 21
-579.29815593160242
 31
0.0
  0
TEXT
  5
2185A
  8
1DIM
 10
663.06165115061583
 20
-725.10927109859972
 30
0.0
 40
3.5
  1
9
  0
LINE
  5
2185B
  8
0
  6
BYBLOCK
 10
661.6033178172886
 20
-726.34516947859981
 30
0.0
 11
659.6033178172886
 21
-725.80927109859965
 31
0.0
  0
LINE
  5
2185C
  8
0
  6
BYBLOCK
 10
659.6033178172886
 20
-725.80927109859965
 30
0.0
 11
661.6033178172886
 21
-725.27337271859972
 31
0.0
  0
LINE
  5
2185D
  8
0
  6
BYBLOCK
 10
659.6033178172886
 20
-725.80927109859965
 30
0.0
 11
661.6033178172886
 21
-725.80927109859965
 31
0.0
  0
LINE
  5
2185E
  8
0
  6
BYBLOCK
 10
666.85331781727609
 20
-725.27337271859972
 30
0.0
 11
668.85331781727621
 21
-725.80927109859965
 31
0.0
  0
LINE
  5
2185F
  8
0
  6
BYBLOCK
 10
668.85331781727621
 20
-725.80927109859965
 30
0.0
 11
666.85331781727609
 21
-726.34516947859981
 31
0.0
  0
LINE
  5
21860
  8
0
  6
BYBLOCK
 10
668.85331781727621
 20
-725.80927109859965
 30
0.0
 11
666.85331781727609
 21
-725.80927109859965
 31
0.0
  0
TEXT
  5
21861
  8
1DIM
 10
396.83093740943502
 20
-717.59073829642648
 30
0.0
 40
3.5
  1
洗面カウンター端部から
  0
TEXT
  5
21862
  8
1DIM
 10
407.91427074276822
 20
-723.42407162975985
 30
0.0
 40
3.5
  1
100mm以下
  0
LINE
  5
21863
  8
0
  6
BYBLOCK
 10
389.1960951290842
 20
-724.65997000975983
 30
0.0
 11
387.1960951290842
 21
-724.12407162975967
 31
0.0
  0
LINE
  5
21864
  8
0
  6
BYBLOCK
 10
387.1960951290842
 20
-724.12407162975967
 30
0.0
 11
389.1960951290842
 21
-723.58817324975973
 31
0.0
  0
LINE
  5
21865
  8
0
  6
BYBLOCK
 10
387.1960951290842
 20
-724.12407162975967
 30
0.0
 11
389.1960951290842
 21
-724.12407162975967
 31
0.0
  0
LINE
  5
21866
  8
0
  6
BYBLOCK
 10
449.26577968978569
 20
-723.58817324975973
 30
0.0
 11
451.26577968978557
 21
-724.12407162975967
 31
0.0
  0
LINE
  5
21867
  8
0
  6
BYBLOCK
 10
451.26577968978557
 20
-724.12407162975967
 30
0.0
 11
449.26577968978569
 21
-724.65997000975983
 31
0.0
  0
LINE
  5
21868
  8
0
  6
BYBLOCK
 10
451.26577968978557
 20
-724.12407162975967
 30
0.0
 11
449.26577968978569
 21
-724.12407162975967
 31
0.0
  0
VIEWPORT
  5
57
 67
     1
  8
0
 10
-12.71820606546885
 20
10.09248672500371
 30
0.0
 40
618.5435342488455
 41
282.63170047537102
 68
     1
 69
     1
1001
ACAD
1000
MVIEW
1002
{
1070
    16
1010
0.0
1020
0.0
1030
0.0
1010
0.0
1020
0.0
1030
1.0
1040
0.0
1040
282.63170047537102
1040
-12.71820606546885
1040
10.09248672500371
1040
50.0
1040
0.0
1040
0.0
1070
     0
1070
   100
1070
     1
1070
     1
1070
     0
1070
     0
1070
     0
1070
     0
1040
0.0
1040
0.0
1040
0.0
1040
10.0
1040
10.0
1040
10.0
1040
10.0
1070
     0
1002
{
1002
}
1002
}
  0
ENDSEC
  0
EOF
