  0
SECTION
  2
HEADER
  9
$ACADVER
  1
AC1012
  9
$DWGCODEPAGE
  3
ansi_932
  9
$INSBASE
 10
0.0
 20
0.0
 30
0.0
  9
$EXTMIN
 10
142.0162652188039
 20
-725.821279972878
 30
0.0
  9
$EXTMAX
 10
845.1353612717918
 20
-460.025441490976
 30
0.0
  9
$LIMMIN
 10
0.0
 20
0.0
  9
$LIMMAX
 10
420.0
 20
297.0
  9
$ORTHOMODE
 70
     0
  9
$REGENMODE
 70
     1
  9
$FILLMODE
 70
     1
  9
$QTEXTMODE
 70
     0
  9
$MIRRTEXT
 70
     0
  9
$DRAGMODE
 70
     2
  9
$LTSCALE
 40
0.5
  9
$OSMODE
 70
 14463
  9
$ATTMODE
 70
     1
  9
$TEXTSIZE
 40
4.0
  9
$TRACEWID
 40
1.0
  9
$TEXTSTYLE
  7
STANDARD
  9
$CLAYER
  8
1TEXT
  9
$CELTYPE
  6
BYLAYER
  9
$CECOLOR
 62
   256
  9
$CELTSCALE
 40
1.0
  9
$DELOBJ
 70
     1
  9
$DISPSILH
 70
     0
  9
$DIMSCALE
 40
1.0
  9
$DIMASZ
 40
2.0
  9
$DIMEXO
 40
0.0
  9
$DIMDLI
 40
7.0
  9
$DIMRND
 40
0.0
  9
$DIMDLE
 40
0.0
  9
$DIMEXE
 40
1.0
  9
$DIMTP
 40
0.0
  9
$DIMTM
 40
0.0
  9
$DIMTXT
 40
3.5
  9
$DIMCEN
 40
0.0
  9
$DIMTSZ
 40
0.0
  9
$DIMTOL
 70
     0
  9
$DIMLIM
 70
     0
  9
$DIMTIH
 70
     0
  9
$DIMTOH
 70
     0
  9
$DIMSE1
 70
     0
  9
$DIMSE2
 70
     0
  9
$DIMTAD
 70
     1
  9
$DIMZIN
 70
     8
  9
$DIMBLK
  1

  9
$DIMASO
 70
     1
  9
$DIMSHO
 70
     1
  9
$DIMPOST
  1
 
  9
$DIMAPOST
  1

  9
$DIMALT
 70
     0
  9
$DIMALTD
 70
     2
  9
$DIMALTF
 40
25.4
  9
$DIMLFAC
 40
1.0
  9
$DIMTOFL
 70
     1
  9
$DIMTVP
 40
0.0
  9
$DIMTIX
 70
     0
  9
$DIMSOXD
 70
     0
  9
$DIMSAH
 70
     1
  9
$DIMBLK1
  1
OPEN30
  9
$DIMBLK2
  1
OPEN30
  9
$DIMSTYLE
  2
NEWX10
  9
$DIMCLRD
 70
   256
  9
$DIMCLRE
 70
   256
  9
$DIMCLRT
 70
   201
  9
$DIMTFAC
 40
0.7
  9
$DIMGAP
 40
0.7
  9
$DIMJUST
 70
     0
  9
$DIMSD1
 70
     0
  9
$DIMSD2
 70
     0
  9
$DIMTOLJ
 70
     1
  9
$DIMTZIN
 70
     8
  9
$DIMALTZ
 70
     0
  9
$DIMALTTZ
 70
     0
  9
$DIMFIT
 70
     2
  9
$DIMUPT
 70
     0
  9
$DIMUNIT
 70
     2
  9
$DIMDEC
 70
     2
  9
$DIMTDEC
 70
     4
  9
$DIMALTU
 70
     2
  9
$DIMALTTD
 70
     2
  9
$DIMTXSTY
  7
STANDARD
  9
$DIMAUNIT
 70
     0
  9
$LUNITS
 70
     2
  9
$LUPREC
 70
     4
  9
$SKETCHINC
 40
1.0
  9
$FILLETRAD
 40
0.0
  9
$AUNITS
 70
     0
  9
$AUPREC
 70
     2
  9
$MENU
  1
acad
  9
$ELEVATION
 40
0.0
  9
$PELEVATION
 40
0.0
  9
$THICKNESS
 40
0.0
  9
$LIMCHECK
 70
     0
  9
$CHAMFERA
 40
1.0
  9
$CHAMFERB
 40
1.0
  9
$CHAMFERC
 40
20.0
  9
$CHAMFERD
 40
0.0
  9
$SKPOLY
 70
     0
  9
$TDCREATE
 40
2453033.732663484
  9
$TDUPDATE
 40
2458095.379386817
  9
$TDINDWG
 40
2.3813472569
  9
$TDUSRTIMER
 40
2.3813472569
  9
$USRTIMER
 70
     1
  9
$ANGBASE
 50
0.0
  9
$ANGDIR
 70
     0
  9
$PDMODE
 70
     0
  9
$PDSIZE
 40
0.0
  9
$PLINEWID
 40
0.0
  9
$COORDS
 70
     2
  9
$SPLFRAME
 70
     0
  9
$SPLINETYPE
 70
     6
  9
$SPLINESEGS
 70
     8
  9
$ATTDIA
 70
     0
  9
$ATTREQ
 70
     1
  9
$HANDLING
 70
     1
  9
$HANDSEED
  5
2230D
  9
$SURFTAB1
 70
     6
  9
$SURFTAB2
 70
     6
  9
$SURFTYPE
 70
     6
  9
$SURFU
 70
     6
  9
$SURFV
 70
     6
  9
$UCSNAME
  2

  9
$UCSORG
 10
0.0
 20
0.0
 30
0.0
  9
$UCSXDIR
 10
1.0
 20
0.0
 30
0.0
  9
$UCSYDIR
 10
0.0
 20
1.0
 30
0.0
  9
$PUCSNAME
  2

  9
$PUCSORG
 10
0.0
 20
0.0
 30
0.0
  9
$PUCSXDIR
 10
1.0
 20
0.0
 30
0.0
  9
$PUCSYDIR
 10
0.0
 20
1.0
 30
0.0
  9
$USERI1
 70
     0
  9
$USERI2
 70
     0
  9
$USERI3
 70
     0
  9
$USERI4
 70
     0
  9
$USERI5
 70
     0
  9
$USERR1
 40
0.0
  9
$USERR2
 40
0.0
  9
$USERR3
 40
0.0
  9
$USERR4
 40
0.0
  9
$USERR5
 40
0.0
  9
$WORLDVIEW
 70
     1
  9
$SHADEDGE
 70
     3
  9
$SHADEDIF
 70
    70
  9
$TILEMODE
 70
     1
  9
$MAXACTVP
 70
    48
  9
$PINSBASE
 10
0.0
 20
0.0
 30
0.0
  9
$PLIMCHECK
 70
     0
  9
$PEXTMIN
 10
1.000000000000000E+20
 20
1.000000000000000E+20
 30
1.000000000000000E+20
  9
$PEXTMAX
 10
-1.000000000000000E+20
 20
-1.000000000000000E+20
 30
-1.000000000000000E+20
  9
$PLIMMIN
 10
0.0
 20
0.0
  9
$PLIMMAX
 10
420.0
 20
297.0
  9
$UNITMODE
 70
     0
  9
$VISRETAIN
 70
     1
  9
$PLINEGEN
 70
     0
  9
$PSLTSCALE
 70
     1
  9
$TREEDEPTH
 70
  3020
  9
$PICKSTYLE
 70
     1
  9
$CMLSTYLE
  2
STANDARD
  9
$CMLJUST
 70
     0
  9
$CMLSCALE
 40
20.0
  9
$SAVEIMAGES
 70
     1
  0
ENDSEC
  0
SECTION
  2
CLASSES
  0
CLASS
  1
DICTIONARYVAR
  2
AcDbDictionaryVar
  3
ObjectDBX Classes
 90
        0
280
     0
281
     0
  0
CLASS
  1
IDBUFFER
  2
AcDbIdBuffer
  3
ObjectDBX Classes
 90
    32768
280
     0
281
     0
  0
CLASS
  1
LWPOLYLINE
  2
AcDbPolyline
  3
ObjectDBX Classes
 90
    32768
280
     0
281
     1
  0
CLASS
  1
ACDBDICTIONARYWDFLT
  2
AcDbDictionaryWithDefault
  3
ObjectDBX Classes
 90
    32768
280
     0
281
     0
  0
CLASS
  1
ACDBPLACEHOLDER
  2
AcDbPlaceHolder
  3
ObjectDBX Classes
 90
        0
280
     0
281
     0
  0
CLASS
  1
LAYOUT
  2
AcDbLayout
  3
ObjectDBX Classes
 90
        0
280
     0
281
     0
  0
CLASS
  1
TABLESTYLE
  2
AcDbTableStyle
  3
ObjectDBX Classes
 90
     4095
280
     0
281
     0
  0
CLASS
  1
SORTENTSTABLE
  2
AcDbSortentsTable
  3
ObjectDBX Classes
 90
    32768
280
     0
281
     0
  0
CLASS
  1
DIMASSOC
  2
AcDbDimAssoc
  3
"AcDbDimAssoc|Product Desc:     AcDim ARX App For Dimension|Company:          Autodesk, Inc.|WEB Address:      www.autodesk.com"
 90
        0
280
     0
281
     0
  0
CLASS
  1
MATERIAL
  2
AcDbMaterial
  3
ObjectDBX Classes
 90
     1153
280
     0
281
     0
  0
CLASS
  1
VISUALSTYLE
  2
AcDbVisualStyle
  3
ObjectDBX Classes
 90
     4095
280
     0
281
     0
  0
CLASS
  1
SCALE
  2
AcDbScale
  3
ObjectDBX Classes
 90
     1153
280
     0
281
     0
  0
CLASS
  1
MLEADERSTYLE
  2
AcDbMLeaderStyle
  3
ACDB_MLEADERSTYLE_CLASS
 90
     4095
280
     0
281
     0
  0
CLASS
  1
CELLSTYLEMAP
  2
AcDbCellStyleMap
  3
ObjectDBX Classes
 90
     1152
280
     0
281
     0
  0
CLASS
  1
EXACXREFPANELOBJECT
  2
ExAcXREFPanelObject
  3
EXAC_ESW
 90
     1025
280
     1
281
     0
  0
CLASS
  1
NPOCOLLECTION
  2
AcDbImpNonPersistentObjectsCollection
  3
ObjectDBX Classes
 90
     1153
280
     1
281
     0
  0
CLASS
  1
SUN
  2
AcDbSun
  3
SCENEOE
 90
     1153
280
     0
281
     0
  0
CLASS
  1
RASTERVARIABLES
  2
AcDbRasterVariables
  3
ISM
 90
    32768
280
     0
281
     0
  0
CLASS
  1
XRECORD
  2
AcDbXrecord
  3
ObjectDBX Classes
 90
    32768
280
     0
281
     0
  0
CLASS
  1
HATCH
  2
AcDbHatch
  3
ObjectDBX Classes
 90
    32768
280
     0
281
     1
  0
ENDSEC
  0
SECTION
  2
TABLES
  0
TABLE
  2
VPORT
  5
8
330
0
100
AcDbSymbolTable
 70
     1
  0
VPORT
  5
19DC2
330
8
100
AcDbSymbolTableRecord
100
AcDbViewportTableRecord
  2
*ACTIVE
 70
     0
 10
0.0
 20
0.0
 11
1.0
 21
1.0
 12
493.5758132452979
 22
-592.923360731927
 13
0.0
 23
0.0
 14
10.0
 24
10.0
 15
10.0
 25
10.0
 16
0.0
 26
0.0
 36
1.0
 17
0.0
 27
0.0
 37
0.0
 40
337.9594909905102
 41
2.233782129742962
 42
50.0
 43
0.0
 44
0.0
 50
0.0
 51
0.0
 71
    16
 72
   100
 73
     1
 74
     1
 75
     0
 76
     0
 77
     0
 78
     0
1001
ACAD_NAV_VCDISPLAY
1070
     3
  0
ENDTAB
  0
TABLE
  2
LTYPE
  5
5
330
0
100
AcDbSymbolTable
 70
     3
  0
LTYPE
  5
12
330
5
100
AcDbSymbolTableRecord
100
AcDbLinetypeTableRecord
  2
BYBLOCK
 70
     0
  3

 72
    65
 73
     0
 40
0.0
  0
LTYPE
  5
13
330
5
100
AcDbSymbolTableRecord
100
AcDbLinetypeTableRecord
  2
BYLAYER
 70
     0
  3

 72
    65
 73
     0
 40
0.0
  0
LTYPE
  5
14
330
5
100
AcDbSymbolTableRecord
100
AcDbLinetypeTableRecord
  2
CONTINUOUS
 70
     0
  3
Solid line
 72
    65
 73
     0
 40
0.0
  0
LTYPE
  5
26
330
5
100
AcDbSymbolTableRecord
100
AcDbLinetypeTableRecord
  2
CENTER2
 70
     0
  3
Center (.5x) ___ _ ___ _ ___ _ ___ _ ___ _ ___
 72
    65
 73
     4
 40
28.575
 49
19.05
 74
     0
 49
-3.175
 74
     0
 49
3.175
 74
     0
 49
-3.175
 74
     0
  0
LTYPE
  5
100
330
5
100
AcDbSymbolTableRecord
100
AcDbLinetypeTableRecord
  2
PHANTOM2
 70
     0
  3
Phantom (0.5x) ___ _ _ ___ _ _ ___ _ _ ___ _ _
 72
    65
 73
     6
 40
31.75
 49
15.875
 74
     0
 49
-3.175
 74
     0
 49
3.175
 74
     0
 49
-3.175
 74
     0
 49
3.175
 74
     0
 49
-3.175
 74
     0
  0
ENDTAB
  0
TABLE
  2
LAYER
  5
2
102
{ACAD_XDICTIONARY
360
18FE8
102
}
330
0
100
AcDbSymbolTable
 70
     8
  0
LAYER
  5
E
102
{ACAD_XDICTIONARY
360
1A20A
102
}
330
2
100
AcDbSymbolTableRecord
100
AcDbLayerTableRecord
  2
0
 70
     0
 62
     7
  6
CONTINUOUS
  0
LAYER
  5
29
102
{ACAD_XDICTIONARY
360
1A20C
102
}
330
2
100
AcDbSymbolTableRecord
100
AcDbLayerTableRecord
  2
1CENTER
 70
     0
 62
     7
  6
CENTER2
  0
LAYER
  5
31
102
{ACAD_XDICTIONARY
360
1A20E
102
}
330
2
100
AcDbSymbolTableRecord
100
AcDbLayerTableRecord
  2
1TEXT
 70
     0
 62
     7
  6
CONTINUOUS
  0
LAYER
  5
101
102
{ACAD_XDICTIONARY
360
1A218
102
}
330
2
100
AcDbSymbolTableRecord
100
AcDbLayerTableRecord
  2
1DIM
 70
     0
 62
     7
  6
CONTINUOUS
  0
LAYER
  5
103
102
{ACAD_XDICTIONARY
360
1A21C
102
}
330
2
100
AcDbSymbolTableRecord
100
AcDbLayerTableRecord
  2
1PHANTOM
 70
     0
 62
     7
  6
PHANTOM2
  0
LAYER
  5
25F
102
{ACAD_XDICTIONARY
360
1A220
102
}
330
2
100
AcDbSymbolTableRecord
100
AcDbLayerTableRecord
  2
01
 70
     0
 62
     1
  6
CONTINUOUS
  0
LAYER
  5
26A
102
{ACAD_XDICTIONARY
360
1A236
102
}
330
2
100
AcDbSymbolTableRecord
100
AcDbLayerTableRecord
  2
1DIM1
 70
     0
 62
     7
  6
CONTINUOUS
  0
LAYER
  5
26D
102
{ACAD_XDICTIONARY
360
1A23C
102
}
330
2
100
AcDbSymbolTableRecord
100
AcDbLayerTableRecord
  2
1HATCH
 70
     0
 62
     7
  6
CONTINUOUS
  0
ENDTAB
  0
TABLE
  2
STYLE
  5
3
330
0
100
AcDbSymbolTable
 70
     1
  0
STYLE
  5
F
330
3
100
AcDbSymbolTableRecord
100
AcDbTextStyleTableRecord
  2
STANDARD
 70
     0
 40
0.0
 41
1.0
 50
0.0
 71
     0
 42
4.0
  3
txt.shx
  4
extfont.shx
  0
ENDTAB
  0
TABLE
  2
VIEW
  5
6
330
0
100
AcDbSymbolTable
 70
     0
  0
ENDTAB
  0
TABLE
  2
UCS
  5
7
330
0
100
AcDbSymbolTable
 70
     0
  0
ENDTAB
  0
TABLE
  2
APPID
  5
9
330
0
100
AcDbSymbolTable
 70
    20
  0
APPID
  5
10
330
9
100
AcDbSymbolTableRecord
100
AcDbRegAppTableRecord
  2
ACAD
 70
     0
  0
APPID
  5
21
330
9
100
AcDbSymbolTableRecord
100
AcDbRegAppTableRecord
  2
DRAWINGVARIABLESXDATA
 70
     0
  0
APPID
  5
64
330
9
100
AcDbSymbolTableRecord
100
AcDbRegAppTableRecord
  2
CONTENTTABDATA
 70
     0
  0
APPID
  5
65
330
9
100
AcDbSymbolTableRecord
100
AcDbRegAppTableRecord
  2
CONTENTCURRENTTAB
 70
     0
  0
APPID
  5
66
330
9
100
AcDbSymbolTableRecord
100
AcDbRegAppTableRecord
  2
CONTENTBLOCKDESCRIPTION
 70
     0
  0
APPID
  5
67
330
9
100
AcDbSymbolTableRecord
100
AcDbRegAppTableRecord
  2
CONTENTBLOCKICON
 70
     0
  0
APPID
  5
68
330
9
100
AcDbSymbolTableRecord
100
AcDbRegAppTableRecord
  2
CONTENTLONGBLOCKNAME
 70
     0
  0
APPID
  5
5A9
330
9
100
AcDbSymbolTableRecord
100
AcDbRegAppTableRecord
  2
ACAD_PSEXT
 70
     0
  0
APPID
  5
18AC
330
9
100
AcDbSymbolTableRecord
100
AcDbRegAppTableRecord
  2
ACAD_DSTYLE_DIMTEXT_FILL
 70
     0
  0
APPID
  5
19E1A
330
9
100
AcDbSymbolTableRecord
100
AcDbRegAppTableRecord
  2
ACAD_MLEADERVER
 70
     0
  0
APPID
  5
1A2FA
330
9
100
AcDbSymbolTableRecord
100
AcDbRegAppTableRecord
  2
ACAD_DSTYLE_DIMRADIAL_EXTE
 70
     0
  0
APPID
  5
1DBC1
330
9
100
AcDbSymbolTableRecord
100
AcDbRegAppTableRecord
  2
ACADANNOTATIVE
 70
     0
  0
APPID
  5
1E991
330
9
100
AcDbSymbolTableRecord
100
AcDbRegAppTableRecord
  2
ACAD_EXEMPT_FROM_CAD_STAND
 70
     0
  0
APPID
  5
202C7
330
9
100
AcDbSymbolTableRecord
100
AcDbRegAppTableRecord
  2
ACDBBLOCKREPETAG
 70
     0
  0
APPID
  5
20AA7
330
9
100
AcDbSymbolTableRecord
100
AcDbRegAppTableRecord
  2
ACAD_OBJECT_CHANGE_GUID
 70
     0
  0
APPID
  5
20B32
330
9
100
AcDbSymbolTableRecord
100
AcDbRegAppTableRecord
  2
ACAD_NAV_VCDISPLAY
 70
     0
  0
APPID
  5
20BBB
330
9
100
AcDbSymbolTableRecord
100
AcDbRegAppTableRecord
  2
ACLAYERTOOLS
 70
     0
  0
APPID
  5
21F78
330
9
100
AcDbSymbolTableRecord
100
AcDbRegAppTableRecord
  2
ACAD_DIMASSOC_CALC_DIMLFAC
 70
     0
  0
APPID
  5
21F79
330
9
100
AcDbSymbolTableRecord
100
AcDbRegAppTableRecord
  2
ACAD_DIMASSOC_DIMLFAC
 70
     0
  0
APPID
  5
21F7A
330
9
100
AcDbSymbolTableRecord
100
AcDbRegAppTableRecord
  2
ACAD_DIMASSOC_OVERRIDDEN_D
 70
     0
  0
ENDTAB
  0
TABLE
  2
DIMSTYLE
  5
A
330
0
100
AcDbSymbolTable
 70
     1
  0
DIMSTYLE
105
48
330
A
100
AcDbSymbolTableRecord
100
AcDbDimStyleTableRecord
  2
NEWX10
 70
     0
  3
 
  4

  5

  6
OPEN30
  7
OPEN30
 40
1.0
 41
2.0
 42
0.0
 43
7.0
 44
1.0
 45
0.0
 46
0.0
 47
0.0
 48
0.0
140
3.5
141
0.0
142
0.0
143
25.4
144
1.0
145
0.0
146
0.7
147
0.7
 71
     0
 72
     0
 73
     0
 74
     0
 75
     0
 76
     0
 77
     1
 78
     8
170
     0
171
     2
172
     1
173
     1
174
     0
175
     0
176
   256
177
   256
178
   201
179
     2
270
     2
271
     2
272
     4
273
     2
274
     2
340
F
275
     0
280
     0
281
     0
282
     0
283
     1
284
     8
285
     0
286
     0
287
     2
288
     0
  0
ENDTAB
  0
TABLE
  2
BLOCK_RECORD
  5
1
330
0
100
AcDbSymbolTable
 70
     8
  0
BLOCK_RECORD
  5
18
102
{ACAD_XDICTIONARY
360
6E9
102
}
330
1
100
AcDbSymbolTableRecord
100
AcDbBlockTableRecord
  2
*MODEL_SPACE
  0
BLOCK_RECORD
  5
15
102
{ACAD_XDICTIONARY
360
59B
102
}
330
1
100
AcDbSymbolTableRecord
100
AcDbBlockTableRecord
  2
*PAPER_SPACE
  0
BLOCK_RECORD
  5
42
330
1
100
AcDbSymbolTableRecord
100
AcDbBlockTableRecord
  2
_OPEN30
  0
BLOCK_RECORD
  5
20316
330
1
100
AcDbSymbolTableRecord
100
AcDbBlockTableRecord
  2
A3WAKUKAWAJUN2017_HYOUDAI_
  0
BLOCK_RECORD
  5
2216D
330
1
100
AcDbSymbolTableRecord
100
AcDbBlockTableRecord
  2
*X24
  0
BLOCK_RECORD
  5
221BB
330
1
100
AcDbSymbolTableRecord
100
AcDbBlockTableRecord
  2
*X25
  0
BLOCK_RECORD
  5
2220D
330
1
100
AcDbSymbolTableRecord
100
AcDbBlockTableRecord
  2
*X26
  0
BLOCK_RECORD
  5
2225E
330
1
100
AcDbSymbolTableRecord
100
AcDbBlockTableRecord
  2
*X27
  0
BLOCK_RECORD
  5
2229B
330
1
100
AcDbSymbolTableRecord
100
AcDbBlockTableRecord
  2
*X28
  0
BLOCK_RECORD
  5
222DB
330
1
100
AcDbSymbolTableRecord
100
AcDbBlockTableRecord
  2
*X29
  0
ENDTAB
  0
ENDSEC
  0
SECTION
  2
BLOCKS
  0
BLOCK
  5
19
330
18
100
AcDbEntity
  8
0
100
AcDbBlockBegin
  2
*MODEL_SPACE
 70
     0
 10
0.0
 20
0.0
 30
0.0
  3
*MODEL_SPACE
  1

  0
ENDBLK
  5
1A
330
18
100
AcDbEntity
  8
0
100
AcDbBlockEnd
  0
BLOCK
  5
16
330
15
100
AcDbEntity
 67
     1
  8
0
100
AcDbBlockBegin
  2
*PAPER_SPACE
 70
     0
 10
0.0
 20
0.0
 30
0.0
  3
*PAPER_SPACE
  1

  0
ENDBLK
  5
17
330
15
100
AcDbEntity
 67
     1
  8
0
100
AcDbBlockEnd
  0
BLOCK
  5
43
330
42
100
AcDbEntity
  8
0
100
AcDbBlockBegin
  2
_OPEN30
 70
     0
 10
0.0
 20
0.0
 30
0.0
  3
_OPEN30
  1

  0
LINE
  5
44
330
42
100
AcDbEntity
  8
0
  6
BYBLOCK
 62
     0
100
AcDbLine
 10
-1.0
 20
0.26794919
 30
0.0
 11
0.0
 21
0.0
 31
0.0
  0
LINE
  5
45
330
42
100
AcDbEntity
  8
0
  6
BYBLOCK
 62
     0
100
AcDbLine
 10
0.0
 20
0.0
 30
0.0
 11
-1.0
 21
-0.26794919
 31
0.0
  0
LINE
  5
46
330
42
100
AcDbEntity
  8
0
  6
BYBLOCK
 62
     0
100
AcDbLine
 10
0.0
 20
0.0
 30
0.0
 11
-1.0
 21
0.0
 31
0.0
  0
ENDBLK
  5
47
330
42
100
AcDbEntity
  8
0
100
AcDbBlockEnd
  0
BLOCK
  5
20A15
330
20316
100
AcDbEntity
  8
0
100
AcDbBlockBegin
  2
A3WAKUKAWAJUN2017_HYOUDAI_
 70
     0
 10
0.0
 20
0.0
 30
0.0
  3
A3WAKUKAWAJUN2017_HYOUDAI_
  1

  0
LINE
  5
20318
330
20316
100
AcDbEntity
  8
0
100
AcDbLine
 10
13.26299999998673
 20
-0.0001000000000317
 30
0.0
 11
9.236999999990758
 21
8.999899999990987
 31
0.0
1001
ACAD
1000
ASC_BOUNDS
1002
{
1070
    19
1005
20359
1002
}
  0
LINE
  5
20319
330
20316
100
AcDbEntity
  8
0
100
AcDbLine
 10
5.657999999994331
 20
0.9999999999989768
 30
0.0
 11
9.236999999990758
 21
8.999999999991019
 31
0.0
1001
ACAD
1000
ASC_BOUNDS
1002
{
1070
    19
1005
20359
1002
}
  0
LINE
  5
2031A
330
20316
100
AcDbEntity
  8
0
100
AcDbLine
 10
18.59199999998134
 20
-0.2368999999997641
 30
0.0
 11
16.46099999998353
 21
5.432899999994561
 31
0.0
1001
ACAD
1000
ASC_BOUNDS
1002
{
1070
    19
1005
2035A
1002
}
  0
LINE
  5
2031B
330
20316
100
AcDbEntity
  8
0
100
AcDbLine
 10
18.59199999998134
 20
-0.2368999999997641
 30
0.0
 11
22.38199999997767
 21
8.763099999991255
 31
0.0
1001
ACAD
1000
ASC_BOUNDS
1002
{
1070
    19
1005
2035A
1002
}
  0
LINE
  5
2031C
330
20316
100
AcDbEntity
  8
0
100
AcDbLine
 10
14.32899999998563
 20
-0.2368999999997641
 30
0.0
 11
16.46099999998353
 21
5.432899999994561
 31
0.0
1001
ACAD
1000
ASC_BOUNDS
1002
{
1070
    19
1005
2035A
1002
}
  0
LINE
  5
2031D
330
20316
100
AcDbEntity
  8
0
100
AcDbLine
 10
14.32899999998563
 20
-0.2368999999997641
 30
0.0
 11
10.53899999998941
 21
8.763099999991255
 31
0.0
1001
ACAD
1000
ASC_BOUNDS
1002
{
1070
    19
1005
2035A
1002
}
  0
LINE
  5
2031E
330
20316
100
AcDbEntity
  8
0
100
AcDbLine
 10
19.53899999998043
 20
-0.0001000000000317
 30
0.0
 11
23.56599999997638
 21
8.999899999990987
 31
0.0
1001
ACAD
1000
ASC_BOUNDS
1002
{
1070
    19
1005
2035B
1002
}
  0
LINE
  5
2031F
330
20316
100
AcDbEntity
  8
0
100
AcDbLine
 10
26.97358892824991
 20
1.383099999991202
 30
0.0
 11
23.56599999997638
 21
8.999899999990987
 31
0.0
1001
ACAD
1000
ASC_BOUNDS
1002
{
1070
    19
1005
2035B
1002
}
  0
LINE
  5
20320
330
20316
100
AcDbEntity
  8
0
100
AcDbLine
 10
5.657999999994331
 20
0.9999999999989768
 30
0.0
 11
3.181999999996833
 21
4.668599999995308
 31
0.0
1001
ACAD
1000
ASC_BOUNDS
1002
{
1070
    19
1005
20359
1002
}
  0
LINE
  5
20321
330
20316
100
AcDbEntity
  8
0
100
AcDbLine
 10
4.617999999995391
 20
-0.0001000000000317
 30
0.0
 11
1.420999999998571
 21
4.736799999995242
 31
0.0
1001
ACAD
1000
ASC_BOUNDS
1002
{
1070
    19
1005
20359
1002
}
  0
LINE
  5
20322
330
20316
100
AcDbEntity
  8
0
100
AcDbLine
 10
1.420999999998571
 20
8.763099999991255
 30
0.0
 11
1.420999999998571
 21
0.0
 31
0.0
1001
ACAD
1000
ASC_BOUNDS
1002
{
1070
    19
1005
2035E
1002
}
  0
LINE
  5
20323
330
20316
100
AcDbEntity
  8
0
100
AcDbLine
 10
0.0
 20
8.763099999991255
 30
0.0
 11
0.0
 21
0.0
 31
0.0
1001
ACAD
1000
ASC_BOUNDS
1002
{
1070
    19
1005
2035E
1002
}
  0
LINE
  5
20324
330
20316
100
AcDbEntity
  8
0
100
AcDbLine
 10
6.766999999993232
 20
-0.0001000000000317
 30
0.0
 11
7.826999999992154
 21
2.368399999997621
 31
0.0
1001
ACAD
1000
ASC_BOUNDS
1002
{
1070
    19
1005
20359
1002
}
  0
LINE
  5
20325
330
20316
100
AcDbEntity
  8
0
100
AcDbLine
 10
0.0
 20
0.0
 30
0.0
 11
1.420999999998571
 21
0.0
 31
0.0
1001
ACAD
1000
ASC_BOUNDS
1002
{
1070
    19
1005
2035E
1002
}
  0
LINE
  5
20326
330
20316
100
AcDbEntity
  8
0
100
AcDbLine
 10
4.617999999995391
 20
0.0
 30
0.0
 11
6.766999999993232
 21
0.0
 31
0.0
1001
ACAD
1000
ASC_BOUNDS
1002
{
1070
    19
1005
20359
1002
}
  0
LINE
  5
20327
330
20316
100
AcDbEntity
  8
0
100
AcDbLine
 10
11.70599999998831
 20
-0.0001000000000317
 30
0.0
 11
10.64699999998936
 21
2.368399999997621
 31
0.0
1001
ACAD
1000
ASC_BOUNDS
1002
{
1070
    19
1005
20359
1002
}
  0
LINE
  5
20328
330
20316
100
AcDbEntity
  8
0
100
AcDbLine
 10
7.826999999992154
 20
2.368399999997621
 30
0.0
 11
10.64699999998936
 21
2.368399999997621
 31
0.0
1001
ACAD
1000
ASC_BOUNDS
1002
{
1070
    19
1005
20359
1002
}
  0
LINE
  5
20329
330
20316
100
AcDbEntity
  8
0
100
AcDbLine
 10
11.70599999998831
 20
0.0
 30
0.0
 11
13.26299999998673
 21
0.0
 31
0.0
1001
ACAD
1000
ASC_BOUNDS
1002
{
1070
    19
1005
20359
1002
}
  0
LINE
  5
2032A
330
20316
100
AcDbEntity
  8
0
100
AcDbLine
 10
22.15599999997789
 20
2.368399999997621
 30
0.0
 11
24.97599999997499
 21
2.368399999997621
 31
0.0
1001
ACAD
1000
ASC_BOUNDS
1002
{
1070
    19
1005
2035B
1002
}
  0
LINE
  5
2032B
330
20316
100
AcDbEntity
  8
0
100
AcDbLine
 10
19.53899999998043
 20
0.0
 30
0.0
 11
21.09599999997886
 21
0.0
 31
0.0
1001
ACAD
1000
ASC_BOUNDS
1002
{
1070
    19
1005
2035B
1002
}
  0
LINE
  5
2032C
330
20316
100
AcDbEntity
  8
0
100
AcDbLine
 10
21.09599999997886
 20
-0.0001000000000317
 30
0.0
 11
22.15599999997789
 21
2.368399999997621
 31
0.0
1001
ACAD
1000
ASC_BOUNDS
1002
{
1070
    19
1005
2035B
1002
}
  0
LINE
  5
2032D
330
20316
100
AcDbEntity
  8
0
100
AcDbLine
 10
26.02015566812236
 20
0.0330999999912365
 30
0.0
 11
24.97599999997499
 21
2.368399999997621
 31
0.0
1001
ACAD
1000
ASC_BOUNDS
1002
{
1070
    19
1005
2035B
1002
}
  0
LINE
  5
2032E
330
20316
100
AcDbEntity
  8
0
100
AcDbLine
 10
14.32399999998563
 20
3.315799999996671
 30
0.0
 11
16.46099999998353
 21
8.999899999990987
 31
0.0
1001
ACAD
1000
ASC_BOUNDS
1002
{
1070
    19
1005
2035A
1002
}
  0
LINE
  5
2032F
330
20316
100
AcDbEntity
  8
0
100
AcDbLine
 10
6.432999999993513
 20
8.763099999991255
 30
0.0
 11
3.181999999996833
 21
4.668599999995308
 31
0.0
1001
ACAD
1000
ASC_BOUNDS
1002
{
1070
    19
1005
20359
1002
}
  0
LINE
  5
20330
330
20316
100
AcDbEntity
  8
0
100
AcDbLine
 10
4.617999999995391
 20
8.763099999991255
 30
0.0
 11
1.420999999998571
 21
4.736799999995242
 31
0.0
1001
ACAD
1000
ASC_BOUNDS
1002
{
1070
    19
1005
20359
1002
}
  0
LINE
  5
20331
330
20316
100
AcDbEntity
  8
0
100
AcDbLine
 10
0.0
 20
8.763099999991255
 30
0.0
 11
1.420999999998571
 21
8.763099999991255
 31
0.0
1001
ACAD
1000
ASC_BOUNDS
1002
{
1070
    19
1005
2035E
1002
}
  0
LINE
  5
20332
330
20316
100
AcDbEntity
  8
0
100
AcDbLine
 10
4.617999999995391
 20
8.763099999991255
 30
0.0
 11
6.432999999993513
 21
8.763099999991255
 31
0.0
1001
ACAD
1000
ASC_BOUNDS
1002
{
1070
    19
1005
20359
1002
}
  0
LINE
  5
20333
330
20316
100
AcDbEntity
  8
0
100
AcDbLine
 10
14.32399999998563
 20
3.315799999996671
 30
0.0
 11
12.02999999998792
 21
8.763099999991255
 31
0.0
1001
ACAD
1000
ASC_BOUNDS
1002
{
1070
    19
1005
2035A
1002
}
  0
LINE
  5
20334
330
20316
100
AcDbEntity
  8
0
100
AcDbLine
 10
10.06399999998996
 20
3.670999999996297
 30
0.0
 11
9.236999999990758
 21
5.5200999999945
 31
0.0
1001
ACAD
1000
ASC_BOUNDS
1002
{
1070
    19
1005
20359
1002
}
  0
LINE
  5
20335
330
20316
100
AcDbEntity
  8
0
100
AcDbLine
 10
8.409999999991555
 20
3.670999999996297
 30
0.0
 11
9.236999999990758
 21
5.5200999999945
 31
0.0
1001
ACAD
1000
ASC_BOUNDS
1002
{
1070
    19
1005
20359
1002
}
  0
LINE
  5
20336
330
20316
100
AcDbEntity
  8
0
100
AcDbLine
 10
8.409999999991555
 20
3.670999999996297
 30
0.0
 11
10.06399999998996
 21
3.670999999996297
 31
0.0
1001
ACAD
1000
ASC_BOUNDS
1002
{
1070
    19
1005
20359
1002
}
  0
LINE
  5
20337
330
20316
100
AcDbEntity
  8
0
100
AcDbLine
 10
10.53899999998941
 20
8.763099999991255
 30
0.0
 11
12.02999999998792
 21
8.763099999991255
 31
0.0
1001
ACAD
1000
ASC_BOUNDS
1002
{
1070
    19
1005
2035A
1002
}
  0
LINE
  5
20338
330
20316
100
AcDbEntity
  8
0
100
AcDbLine
 10
22.7389999999773
 20
3.670999999996297
 30
0.0
 11
23.56599999997638
 21
5.5200999999945
 31
0.0
1001
ACAD
1000
ASC_BOUNDS
1002
{
1070
    19
1005
2035B
1002
}
  0
LINE
  5
20339
330
20316
100
AcDbEntity
  8
0
100
AcDbLine
 10
22.7389999999773
 20
3.670999999996297
 30
0.0
 11
24.39299999997559
 21
3.670999999996297
 31
0.0
1001
ACAD
1000
ASC_BOUNDS
1002
{
1070
    19
1005
2035B
1002
}
  0
LINE
  5
2033A
330
20316
100
AcDbEntity
  8
0
100
AcDbLine
 10
18.59799999998143
 20
3.315799999996671
 30
0.0
 11
20.89099999997916
 21
8.763099999991255
 31
0.0
1001
ACAD
1000
ASC_BOUNDS
1002
{
1070
    19
1005
2035A
1002
}
  0
LINE
  5
2033B
330
20316
100
AcDbEntity
  8
0
100
AcDbLine
 10
18.59799999998143
 20
3.315799999996671
 30
0.0
 11
16.46099999998353
 21
8.999899999990987
 31
0.0
1001
ACAD
1000
ASC_BOUNDS
1002
{
1070
    19
1005
2035A
1002
}
  0
LINE
  5
2033C
330
20316
100
AcDbEntity
  8
0
100
AcDbLine
 10
20.89099999997916
 20
8.763099999991255
 30
0.0
 11
22.38199999997767
 21
8.763099999991255
 31
0.0
1001
ACAD
1000
ASC_BOUNDS
1002
{
1070
    19
1005
2035A
1002
}
  0
LINE
  5
2033D
330
20316
100
AcDbEntity
  8
0
100
AcDbLine
 10
24.39299999997559
 20
3.670999999996297
 30
0.0
 11
23.56599999997638
 21
5.5200999999945
 31
0.0
1001
ACAD
1000
ASC_BOUNDS
1002
{
1070
    19
1005
2035B
1002
}
  0
LINE
  5
2033E
330
20316
100
AcDbEntity
  8
0
100
AcDbLine
 10
44.99999999995498
 20
-0.2368999999997641
 30
0.0
 11
40.02599999995994
 21
5.341799999994635
 31
0.0
1001
ACAD
1000
ASC_BOUNDS
1002
{
1070
    19
1005
2035D
1002
}
  0
LINE
  5
2033F
330
20316
100
AcDbEntity
  8
0
100
AcDbLine
 10
40.02599999995994
 20
5.341799999994635
 30
0.0
 11
40.02599999995994
 21
0.0
 31
0.0
1001
ACAD
1000
ASC_BOUNDS
1002
{
1070
    19
1005
2035D
1002
}
  0
LINE
  5
20340
330
20316
100
AcDbEntity
  8
0
100
AcDbLine
 10
38.60499999996136
 20
8.999999999991019
 30
0.0
 11
38.60499999996136
 21
0.0
 31
0.0
1001
ACAD
1000
ASC_BOUNDS
1002
{
1070
    19
1005
2035D
1002
}
  0
LINE
  5
20341
330
20316
100
AcDbEntity
  8
0
100
AcDbLine
 10
44.99999999995498
 20
8.763099999991255
 30
0.0
 11
44.99999999995498
 21
-0.2368999999997641
 31
0.0
1001
ACAD
1000
ASC_BOUNDS
1002
{
1070
    19
1005
2035D
1002
}
  0
LINE
  5
20342
330
20316
100
AcDbEntity
  8
0
100
AcDbLine
 10
38.60499999996136
 20
0.0
 30
0.0
 11
40.02599999995994
 21
0.0
 31
0.0
1001
ACAD
1000
ASC_BOUNDS
1002
{
1070
    19
1005
2035D
1002
}
  0
LINE
  5
20343
330
20316
100
AcDbEntity
  8
0
100
AcDbLine
 10
43.57899999995641
 20
3.421199999996588
 30
0.0
 11
38.60499999996136
 21
8.999899999990987
 31
0.0
1001
ACAD
1000
ASC_BOUNDS
1002
{
1070
    19
1005
2035D
1002
}
  0
LINE
  5
20344
330
20316
100
AcDbEntity
  8
0
100
AcDbLine
 10
43.57899999995641
 20
8.763099999991255
 30
0.0
 11
43.57899999995641
 21
3.421199999996588
 31
0.0
1001
ACAD
1000
ASC_BOUNDS
1002
{
1070
    19
1005
2035D
1002
}
  0
LINE
  5
20345
330
20316
100
AcDbEntity
  8
0
100
AcDbLine
 10
43.57899999995641
 20
8.763099999991255
 30
0.0
 11
44.99999999995498
 21
8.763099999991255
 31
0.0
1001
ACAD
1000
ASC_BOUNDS
1002
{
1070
    19
1005
2035D
1002
}
  0
LINE
  5
20346
330
20316
100
AcDbEntity
  8
0
100
AcDbLine
 10
37.67199999996831
 20
8.763099999991255
 30
0.0
 11
36.23199999996837
 21
8.763099999991255
 31
0.0
  0
LINE
  5
20347
330
20316
100
AcDbEntity
  8
0
100
AcDbLine
 10
31.64199999996833
 20
8.763099999991255
 30
0.0
 11
31.64199999996833
 21
2.481619422925121
 31
0.0
  0
LINE
  5
20348
330
20316
100
AcDbEntity
  8
0
100
AcDbLine
 10
37.67199999996831
 20
8.763099999991255
 30
0.0
 11
37.67199999996831
 21
2.481619422925121
 31
0.0
  0
LINE
  5
20349
330
20316
100
AcDbEntity
  8
0
100
AcDbLine
 10
36.23199999996837
 20
8.763099999991255
 30
0.0
 11
36.23199999996837
 21
2.481619422925064
 31
0.0
  0
LINE
  5
2034A
330
20316
100
AcDbEntity
  8
0
100
AcDbLine
 10
33.08199999996839
 20
8.763099999991255
 30
0.0
 11
33.08199999996839
 21
2.481619422925121
 31
0.0
  0
ARC
  5
2034B
330
20316
100
AcDbEntity
  8
0
100
AcDbCircle
 10
34.65699999996832
 20
3.183099999991214
 30
0.0
 40
3.420000000000007
100
AcDbArc
 50
240.0000000000255
 51
299.9999999999766
  0
ARC
  5
2034C
330
20316
100
AcDbEntity
  8
0
100
AcDbCircle
 10
34.65699999996832
 20
3.183099999991214
 30
0.0
 40
1.97999999999999
100
AcDbArc
 50
240.000000000026
 51
299.9999999999703
  0
LINE
  5
2034D
330
20316
100
AcDbEntity
  8
0
100
AcDbLine
 10
33.08199999996828
 20
8.763099999991255
 30
0.0
 11
31.64199999996833
 21
8.763099999991255
 31
0.0
  0
ARC
  5
2034E
330
20316
100
AcDbEntity
  8
0
100
AcDbCircle
 10
35.06199999996829
 20
2.481619422925064
 30
0.0
 40
1.17
100
AcDbArc
 50
299.9999999999699
 51
0.0
  0
ARC
  5
2034F
330
20316
100
AcDbEntity
  8
0
100
AcDbCircle
 10
34.25199999996835
 20
2.481619422925121
 30
0.0
 40
1.17
100
AcDbArc
 50
180.0
 51
240.0000000000238
  0
ARC
  5
20350
330
20316
100
AcDbEntity
  8
0
100
AcDbCircle
 10
35.06199999996841
 20
2.481619422925121
 30
0.0
 40
2.61
100
AcDbArc
 50
299.9999999999756
 51
0.0
  0
ARC
  5
20351
330
20316
100
AcDbEntity
  8
0
100
AcDbCircle
 10
34.25199999996835
 20
2.481619422925121
 30
0.0
 40
2.61
100
AcDbArc
 50
180.0
 51
240.0000000000244
  0
LINE
  5
20352
330
20316
100
AcDbEntity
  8
0
100
AcDbLine
 10
29.30199999996933
 20
8.763099999991255
 30
0.0
 11
30.74199999996927
 21
8.763099999991255
 31
0.0
1001
ACAD
1000
ASC_BOUNDS
1002
{
1070
    19
1005
2035B
1002
}
  0
LINE
  5
20353
330
20316
100
AcDbEntity
  8
0
100
AcDbLine
 10
30.74199999996927
 20
8.763099999991255
 30
0.0
 11
30.74199999996927
 21
2.373099999991211
 31
0.0
1001
ACAD
1000
ASC_BOUNDS
1002
{
1070
    19
1005
2035B
1002
}
  0
LINE
  5
20354
330
20316
100
AcDbEntity
  8
0
100
AcDbLine
 10
26.02015566812236
 20
0.0330999999912365
 30
0.0
 11
28.40199999996923
 21
0.0330999999912365
 31
0.0
1001
ACAD
1000
ASC_BOUNDS
1002
{
1070
    19
1005
2035B
1002
}
  0
LINE
  5
20355
330
20316
100
AcDbEntity
  8
0
100
AcDbLine
 10
29.30199999996933
 20
8.763099999991255
 30
0.0
 11
29.30199999996933
 21
2.283099999991236
 31
0.0
1001
ACAD
1000
ASC_BOUNDS
1002
{
1070
    19
1005
2035B
1002
}
  0
LINE
  5
20356
330
20316
100
AcDbEntity
  8
0
100
AcDbLine
 10
26.97358892824991
 20
1.383099999991202
 30
0.0
 11
28.40199999996923
 21
1.383099999991202
 31
0.0
1001
ACAD
1000
ASC_BOUNDS
1002
{
1070
    19
1005
2035B
1002
}
  0
ARC
  5
20357
330
20316
100
AcDbEntity
  8
0
100
AcDbCircle
 10
28.40199999996923
 20
2.283099999991236
 30
0.0
 40
0.9
100
AcDbArc
 50
270.0
 51
0.0
1001
ACAD
1000
ASC_BOUNDS
1002
{
1070
    19
1005
2035B
1002
}
  0
ARC
  5
20358
330
20316
100
AcDbEntity
  8
0
100
AcDbCircle
 10
28.40199999996923
 20
2.373099999991211
 30
0.0
 40
2.34
100
AcDbArc
 50
270.0
 51
0.0
1001
ACAD
1000
ASC_BOUNDS
1002
{
1070
    19
1005
2035B
1002
}
  0
INSERT
  5
20359
330
20316
100
AcDbEntity
  8
0
100
AcDbBlockReference
  2
*X24
 10
0.0
 20
0.0
 30
0.0
1001
ACAD
1000
HATCH
1002
{
1070
    19
1000
ANSI37
1040
0.15
1040
0.0
1000
ASC_BOUNDS
1070
     2
1070
     2
1070
    12
1005
20318
1005
20319
1005
20320
1005
2032F
1005
20332
1005
20330
1005
20321
1005
20326
1005
20324
1005
20328
1005
20327
1005
20329
1070
     2
1070
     3
1005
20334
1005
20336
1005
20335
1000
ASC_SEEDPOINT
1011
3.614004224891801
1021
2.996669441146025
1031
0.0
1000
R14_HATCH_DATA
1000
20359
1011
1.0
1021
0.0
1031
0.0
1011
0.0
1021
1.0
1031
0.0
1011
0.0
1021
0.0
1031
1.0
1040
0.0
1010
0.0
1020
0.0
1030
1.0
1000
ANSI37
1070
     0
1070
     1
1071
        2
1071
        7
1070
     0
1070
     1
1071
       17
1040
13.26299999998673
1040
-0.0001000000000317
1040
9.236999999990758
1040
8.999899999990987
1040
9.236999999990758
1040
8.999999999991019
1040
5.657999999994331
1040
0.9999999999989768
1040
3.181999999996833
1040
4.668599999995308
1040
6.432999999993513
1040
8.763099999991255
1040
4.617999999995391
1040
8.763099999991255
1040
1.420999999998571
1040
4.736799999995242
1040
4.617999999995391
1040
-0.0001000000000317
1040
4.617999999995391
1040
0.0
1040
6.766999999993232
1040
0.0
1040
6.766999999993232
1040
-0.0001000000000317
1040
7.826999999992154
1040
2.368399999997621
1040
10.64699999998936
1040
2.368399999997621
1040
11.70599999998831
1040
-0.0001000000000317
1040
11.70599999998831
1040
0.0
1040
13.26299999998673
1040
0.0
1071
       12
1005
20318
1005
20319
1005
20320
1005
2032F
1005
20332
1005
20330
1005
20321
1005
20326
1005
20324
1005
20328
1005
20327
1005
20329
1071
       22
1070
     0
1070
     1
1071
        3
1040
9.236999999990758
1040
5.5200999999945
1040
10.06399999998996
1040
3.670999999996297
1040
8.409999999991555
1040
3.670999999996297
1071
        3
1005
20334
1005
20336
1005
20335
1070
     0
1070
     1
1040
0.0
1040
0.15
1070
     0
1070
     2
1040
0.7853981633974483
1040
49.29960901727088
1040
-10.17736998311392
1040
-0.3367596045400932
1040
0.3367596045400932
1070
     0
1040
2.356194490192345
1040
49.29960901727088
1040
-10.17736998311392
1040
-0.3367596045400932
1040
-0.3367596045400932
1070
     0
1040
0.0110235143455945
1071
        2
1040
3.614004224891801
1040
2.996669441146025
1040
0.0
1040
3.614004224891801
1040
2.996669441146025
1040
0.0
1002
}
  0
INSERT
  5
2035A
330
20316
100
AcDbEntity
  8
0
100
AcDbBlockReference
  2
*X25
 10
0.0
 20
0.0
 30
0.0
1001
ACAD
1000
HATCH
1002
{
1070
    19
1000
ANSI37
1040
0.15
1040
0.0
1000
ASC_BOUNDS
1070
     1
1070
     2
1070
    10
1005
2031A
1005
2031B
1005
2033C
1005
2033A
1005
2033B
1005
2032E
1005
20333
1005
20337
1005
2031D
1005
2031C
1000
ASC_SEEDPOINT
1011
14.73245321214324
1021
2.798246178283421
1031
0.0
1000
R14_HATCH_DATA
1000
2035A
1011
1.0
1021
0.0
1031
0.0
1011
0.0
1021
1.0
1031
0.0
1011
0.0
1021
0.0
1031
1.0
1040
0.0
1010
0.0
1020
0.0
1030
1.0
1000
ANSI37
1070
     0
1070
     1
1071
        1
1071
        7
1070
     0
1070
     1
1071
       10
1040
16.46099999998353
1040
5.432899999994561
1040
18.59199999998134
1040
-0.2368999999997641
1040
22.38199999997767
1040
8.763099999991255
1040
20.89099999997916
1040
8.763099999991255
1040
18.59799999998143
1040
3.315799999996671
1040
16.46099999998353
1040
8.999899999990987
1040
14.32399999998563
1040
3.315799999996671
1040
12.02999999998792
1040
8.763099999991255
1040
10.53899999998941
1040
8.763099999991255
1040
14.32899999998563
1040
-0.2368999999997641
1071
       10
1005
2031A
1005
2031B
1005
2033C
1005
2033A
1005
2033B
1005
2032E
1005
20333
1005
20337
1005
2031D
1005
2031C
1070
     0
1070
     1
1040
0.0
1040
0.15
1070
     0
1070
     2
1040
0.7853981633974483
1040
49.29960901727088
1040
-10.17736998311392
1040
-0.3367596045400932
1040
0.3367596045400932
1070
     0
1040
2.356194490192345
1040
49.29960901727088
1040
-10.17736998311392
1040
-0.3367596045400932
1040
-0.3367596045400932
1070
     0
1040
0.0110235143455945
1071
        1
1040
14.73245321214324
1040
2.798246178283421
1040
0.0
1002
}
  0
INSERT
  5
2035B
330
20316
100
AcDbEntity
  8
0
100
AcDbBlockReference
  2
*X26
 10
0.0
 20
0.0
 30
0.0
1001
ACAD
1000
HATCH
1002
{
1070
    19
1000
ANSI37
1040
0.15
1040
0.0
1000
ASC_BOUNDS
1070
     2
1070
     2
1070
    13
1005
2031E
1005
2032B
1005
2032C
1005
2032A
1005
2032D
1005
20354
1005
20358
1005
20353
1005
20352
1005
20355
1005
20357
1005
20356
1005
2031F
1070
     2
1070
     3
1005
20338
1005
2033D
1005
20339
1000
ASC_SEEDPOINT
1011
21.97929957367762
1021
3.294304244259308
1031
0.0
1000
R14_HATCH_DATA
1000
2035B
1011
1.0
1021
0.0
1031
0.0
1011
0.0
1021
1.0
1031
0.0
1011
0.0
1021
0.0
1031
1.0
1040
0.0
1010
0.0
1020
0.0
1030
1.0
1000
ANSI37
1070
     0
1070
     1
1071
        2
1071
        7
1070
     1
1070
     1
1071
       15
1040
23.56599999997638
1040
8.999899999990987
1040
0.0
1040
19.53899999998043
1040
-0.0001000000000317
1040
0.0
1040
19.53899999998043
1040
0.0
1040
0.0
1040
21.09599999997886
1040
0.0
1040
0.0
1040
21.09599999997886
1040
-0.0001000000000317
1040
0.0
1040
22.15599999997789
1040
2.368399999997621
1040
0.0
1040
24.97599999997499
1040
2.368399999997621
1040
0.0
1040
26.02015566812236
1040
0.0330999999912365
1040
0.0
1040
28.40199999996923
1040
0.0330999999912365
1040
0.414213562373095
1040
30.74199999996923
1040
2.373099999991211
1040
0.0
1040
30.74199999996927
1040
8.763099999991255
1040
0.0
1040
29.30199999996933
1040
8.763099999991255
1040
0.0
1040
29.30199999996933
1040
2.283099999991236
1040
-0.414213562373095
1040
28.40199999996923
1040
1.383099999991237
1040
0.0
1040
26.97358892824991
1040
1.383099999991202
1040
0.0
1071
       13
1005
2031E
1005
2032B
1005
2032C
1005
2032A
1005
2032D
1005
20354
1005
20358
1005
20353
1005
20352
1005
20355
1005
20357
1005
20356
1005
2031F
1071
       22
1070
     0
1070
     1
1071
        3
1040
22.7389999999773
1040
3.670999999996297
1040
23.56599999997638
1040
5.5200999999945
1040
24.39299999997559
1040
3.670999999996297
1071
        3
1005
20338
1005
2033D
1005
20339
1070
     0
1070
     1
1040
0.0
1040
0.15
1070
     0
1070
     2
1040
0.7853981633974483
1040
49.29960901727088
1040
-10.17736998311392
1040
-0.3367596045400932
1040
0.3367596045400932
1070
     0
1040
2.356194490192345
1040
49.29960901727088
1040
-10.17736998311392
1040
-0.3367596045400932
1040
-0.3367596045400932
1070
     0
1040
0.0110235143455945
1071
        2
1040
21.97929957367762
1040
3.294304244259308
1040
0.0
1040
21.97929957367762
1040
3.294304244259308
1040
0.0
1002
}
  0
INSERT
  5
2035C
330
20316
100
AcDbEntity
  8
0
100
AcDbBlockReference
  2
*X27
 10
0.0
 20
0.0
 30
0.0
1001
ACAD
1000
HATCH
1002
{
1070
    19
1000
ANSI37
1040
0.15
1040
0.0
1000
R14_HATCH_DATA
1000
2035C
1011
1.0
1021
0.0
1031
0.0
1011
0.0
1021
1.0
1031
0.0
1011
0.0
1021
0.0
1031
1.0
1040
0.0
1010
0.0
1020
0.0
1030
1.0
1000
ANSI37
1070
     0
1070
     1
1071
        1
1071
        7
1070
     1
1070
     1
1071
       12
1040
31.64199999996833
1040
2.481619422925121
1040
0.2679491924310942
1040
32.94699999997067
1040
0.2212931190493919
1040
0.2679491924301353
1040
36.36699999995983
1040
0.2212931190459813
1040
0.2679491924321411
1040
37.67199999996831
1040
2.481619422928361
1040
0.0
1040
37.67199999996831
1040
8.763099999991255
1040
0.0
1040
36.23199999996837
1040
8.763099999991255
1040
0.0
1040
36.23199999996837
1040
2.481619422925064
1040
-0.2679491924310291
1040
35.64699999996708
1040
1.468369700498386
1040
-0.267949192430519
1040
33.66699999997093
1040
1.468369700497703
1040
-0.267949192431809
1040
33.08199999996839
1040
2.481619422926997
1040
0.0
1040
33.08199999996839
1040
8.763099999991255
1040
0.0
1040
31.64199999996833
1040
8.763099999991255
1040
0.0
1071
        0
1070
     0
1070
     1
1040
0.0
1040
0.15
1070
     0
1070
     2
1040
0.7853981633974483
1040
49.29960901727088
1040
-10.17736998311392
1040
-0.3367596045400932
1040
0.3367596045400932
1070
     0
1040
2.356194490192345
1040
49.29960901727088
1040
-10.17736998311392
1040
-0.3367596045400932
1040
-0.3367596045400932
1070
     0
1040
0.0110235143455945
1071
        1
1040
32.30357378967278
1040
3.988785755459219
1040
0.0
1002
}
  0
INSERT
  5
2035D
330
20316
100
AcDbEntity
  8
0
100
AcDbBlockReference
  2
*X28
 10
0.0
 20
0.0
 30
0.0
1001
ACAD
1000
HATCH
1002
{
1070
    19
1000
ANSI37
1040
0.15
1040
0.0
1000
ASC_BOUNDS
1070
     1
1070
     2
1070
     8
1005
2033E
1005
20341
1005
20345
1005
20344
1005
20343
1005
20340
1005
20342
1005
2033F
1000
ASC_SEEDPOINT
1011
39.74896370716704
1021
4.484843821435049
1031
0.0
1000
R14_HATCH_DATA
1000
2035D
1011
1.0
1021
0.0
1031
0.0
1011
0.0
1021
1.0
1031
0.0
1011
0.0
1021
0.0
1031
1.0
1040
0.0
1010
0.0
1020
0.0
1030
1.0
1000
ANSI37
1070
     0
1070
     1
1071
        1
1071
        7
1070
     0
1070
     1
1071
        9
1040
40.02599999995994
1040
5.341799999994635
1040
44.99999999995498
1040
-0.2368999999997641
1040
44.99999999995498
1040
8.763099999991255
1040
43.57899999995641
1040
8.763099999991255
1040
43.57899999995641
1040
3.421199999996588
1040
38.60499999996136
1040
8.999899999990987
1040
38.60499999996136
1040
8.999999999991019
1040
38.60499999996136
1040
0.0
1040
40.02599999995994
1040
0.0
1071
        8
1005
2033E
1005
20341
1005
20345
1005
20344
1005
20343
1005
20340
1005
20342
1005
2033F
1070
     0
1070
     1
1040
0.0
1040
0.15
1070
     0
1070
     2
1040
0.7853981633974483
1040
49.29960901727088
1040
-10.17736998311392
1040
-0.3367596045400932
1040
0.3367596045400932
1070
     0
1040
2.356194490192345
1040
49.29960901727088
1040
-10.17736998311392
1040
-0.3367596045400932
1040
-0.3367596045400932
1070
     0
1040
0.0110235143455945
1071
        1
1040
39.74896370716704
1040
4.484843821435049
1040
0.0
1002
}
  0
INSERT
  5
2035E
330
20316
100
AcDbEntity
  8
0
100
AcDbBlockReference
  2
*X29
 10
0.0
 20
0.0
 30
0.0
1001
ACAD
1000
HATCH
1002
{
1070
    19
1000
ANSI37
1040
0.15
1040
0.0
1000
ASC_BOUNDS
1070
     1
1070
     2
1070
     4
1005
20322
1005
20331
1005
20323
1005
20325
1000
ASC_SEEDPOINT
1011
1.079051535452663
1021
4.148538732891836
1031
0.0
1000
R14_HATCH_DATA
1000
2035E
1011
1.0
1021
0.0
1031
0.0
1011
0.0
1021
1.0
1031
0.0
1011
0.0
1021
0.0
1031
1.0
1040
0.0
1010
0.0
1020
0.0
1030
1.0
1000
ANSI37
1070
     0
1070
     1
1071
        1
1071
        7
1070
     0
1070
     1
1071
        4
1040
1.420999999998571
1040
0.0
1040
1.420999999998571
1040
8.763099999991255
1040
0.0
1040
8.763099999991255
1040
0.0
1040
0.0
1071
        4
1005
20322
1005
20331
1005
20323
1005
20325
1070
     0
1070
     1
1040
0.0
1040
0.15
1070
     0
1070
     2
1040
0.7853981633974483
1040
49.29960901727088
1040
-10.17736998311392
1040
-0.3367596045400932
1040
0.3367596045400932
1070
     0
1040
2.356194490192345
1040
49.29960901727088
1040
-10.17736998311392
1040
-0.3367596045400932
1040
-0.3367596045400932
1070
     0
1040
0.0053004257112761
1071
        1
1040
1.079051535452663
1040
4.148538732891836
1040
0.0
1002
}
  0
ENDBLK
  5
20A16
330
20316
100
AcDbEntity
  8
0
100
AcDbBlockEnd
  0
BLOCK
  5
222FB
330
2216D
100
AcDbEntity
  8
0
100
AcDbBlockBegin
  2
*X24
 70
     1
 10
0.0
 20
0.0
 30
0.0
  3
*X24
  1

  0
LINE
  5
2216E
330
2216D
100
AcDbEntity
  8
0
  6
CONTINUOUS
100
AcDbLine
 10
3.418023043697893
 20
7.251849696850613
 30
0.0
 11
4.929273346838536
 21
8.763099999991255
 31
0.0
  0
LINE
  5
2216F
330
2216D
100
AcDbEntity
  8
0
  6
CONTINUOUS
100
AcDbLine
 10
1.483656411257782
 20
4.643963855330318
 30
0.0
 11
5.60279255591872
 21
8.763099999991255
 31
0.0
  0
LINE
  5
22170
330
2216D
100
AcDbEntity
  8
0
  6
CONTINUOUS
100
AcDbLine
 10
1.755053947328235
 20
4.241842182320584
 30
0.0
 11
6.276311764998907
 21
8.763099999991255
 31
0.0
  0
LINE
  5
22171
330
2216D
100
AcDbEntity
  8
0
  6
CONTINUOUS
100
AcDbLine
 10
2.026451483398688
 20
3.839720509310849
 30
0.0
 11
4.441040904851878
 21
6.254309930764039
 31
0.0
  0
LINE
  5
22172
330
2216D
100
AcDbEntity
  8
0
  6
CONTINUOUS
100
AcDbLine
 10
2.297849019469139
 20
3.437598836301114
 30
0.0
 11
3.321765168359338
 21
4.461514985191313
 31
0.0
  0
LINE
  5
22173
330
2216D
100
AcDbEntity
  8
0
  6
CONTINUOUS
100
AcDbLine
 10
2.569246555539591
 20
3.03547716329138
 30
0.0
 11
3.593163397972743
 21
4.059394005724531
 31
0.0
  0
LINE
  5
22174
330
2216D
100
AcDbEntity
  8
0
  6
CONTINUOUS
100
AcDbLine
 10
2.840644091610043
 20
2.633355490281646
 30
0.0
 11
3.864561627586149
 21
3.657273026257751
 31
0.0
  0
LINE
  5
22175
330
2216D
100
AcDbEntity
  8
0
  6
CONTINUOUS
100
AcDbLine
 10
3.112041627680496
 20
2.231233817271911
 30
0.0
 11
4.135959857199554
 21
3.25515204679097
 31
0.0
  0
LINE
  5
22176
330
2216D
100
AcDbEntity
  8
0
  6
CONTINUOUS
100
AcDbLine
 10
3.383439163750948
 20
1.829112144262177
 30
0.0
 11
4.40735808681296
 21
2.853031067324189
 31
0.0
  0
LINE
  5
22177
330
2216D
100
AcDbEntity
  8
0
  6
CONTINUOUS
100
AcDbLine
 10
3.654836699821399
 20
1.426990471252442
 30
0.0
 11
4.678756316426365
 21
2.450910087857407
 31
0.0
  0
LINE
  5
22178
330
2216D
100
AcDbEntity
  8
0
  6
CONTINUOUS
100
AcDbLine
 10
3.926234235891853
 20
1.024868798242709
 30
0.0
 11
4.95015454603977
 21
2.048789108390626
 31
0.0
  0
LINE
  5
22179
330
2216D
100
AcDbEntity
  8
0
  6
CONTINUOUS
100
AcDbLine
 10
4.197631771962304
 20
0.6227471252329737
 30
0.0
 11
5.221552775653176
 21
1.646668128923846
 31
0.0
  0
LINE
  5
2217A
330
2216D
100
AcDbEntity
  8
0
  6
CONTINUOUS
100
AcDbLine
 10
8.715877546767851
 20
7.835069736359266
 30
0.0
 11
9.435953450375058
 21
8.555145639966472
 31
0.0
  0
LINE
  5
2217B
330
2216D
100
AcDbEntity
  8
0
  6
CONTINUOUS
100
AcDbLine
 10
8.170620868422267
 20
6.616293848933497
 30
0.0
 11
9.644120833743461
 21
8.08979381425469
 31
0.0
  0
LINE
  5
2217C
330
2216D
100
AcDbEntity
  8
0
  6
CONTINUOUS
100
AcDbLine
 10
7.625364190076684
 20
5.397517961507727
 30
0.0
 11
9.852288217111864
 21
7.624441988542907
 31
0.0
  0
LINE
  5
2217D
330
2216D
100
AcDbEntity
  8
0
  6
CONTINUOUS
100
AcDbLine
 10
7.080107511731101
 20
4.178742074081957
 30
0.0
 11
10.06045560048027
 21
7.159090162831124
 31
0.0
  0
LINE
  5
2217E
330
2216D
100
AcDbEntity
  8
0
  6
CONTINUOUS
100
AcDbLine
 10
6.534850833385518
 20
2.959966186656187
 30
0.0
 11
10.26862298384867
 21
6.693738337119342
 31
0.0
  0
LINE
  5
2217F
330
2216D
100
AcDbEntity
  8
0
  6
CONTINUOUS
100
AcDbLine
 10
4.469029308032756
 20
0.2206254522232385
 30
0.0
 11
5.492951005266582
 21
1.244547149457064
 31
0.0
  0
LINE
  5
22180
330
2216D
100
AcDbEntity
  8
0
  6
CONTINUOUS
100
AcDbLine
 10
5.989594155039935
 20
1.741190299230417
 30
0.0
 11
8.806950407233131
 21
4.558546551423613
 31
0.0
  0
LINE
  5
22181
330
2216D
100
AcDbEntity
  8
0
  6
CONTINUOUS
100
AcDbLine
 10
9.401251593263643
 20
5.152847737454126
 30
0.0
 11
10.47679036721708
 21
6.228386511407559
 31
0.0
  0
LINE
  5
22182
330
2216D
100
AcDbEntity
  8
0
  6
CONTINUOUS
100
AcDbLine
 10
4.921837203428691
 20
-0.0000858614610131
 30
0.0
 11
8.592923064886001
 21
3.670999999996297
 31
0.0
  0
LINE
  5
22183
330
2216D
100
AcDbEntity
  8
0
  6
CONTINUOUS
100
AcDbLine
 10
9.609390446785305
 20
4.6874673818956
 30
0.0
 11
10.68495775058548
 21
5.763034685695775
 31
0.0
  0
LINE
  5
22184
330
2216D
100
AcDbEntity
  8
0
  6
CONTINUOUS
100
AcDbLine
 10
5.595387755019432
 20
-0.0000545189504582
 30
0.0
 11
7.716137258923768
 21
2.120694984953879
 31
0.0
  0
LINE
  5
22185
330
2216D
100
AcDbEntity
  8
0
  6
CONTINUOUS
100
AcDbLine
 10
6.268938306610172
 20
-0.000023176439905
 30
0.0
 11
7.170485805526503
 21
0.9015243224764267
 31
0.0
  0
LINE
  5
22186
330
2216D
100
AcDbEntity
  8
0
  6
CONTINUOUS
100
AcDbLine
 10
7.963842273967511
 20
2.368399999997621
 30
0.0
 11
9.266442273966188
 21
3.670999999996297
 31
0.0
  0
LINE
  5
22187
330
2216D
100
AcDbEntity
  8
0
  6
CONTINUOUS
100
AcDbLine
 10
8.637361483047696
 20
2.368399999997621
 30
0.0
 11
9.939961483046375
 21
3.670999999996297
 31
0.0
  0
LINE
  5
22188
330
2216D
100
AcDbEntity
  8
0
  6
CONTINUOUS
100
AcDbLine
 10
9.817529300306965
 20
4.222087026337075
 30
0.0
 11
10.89312513395388
 21
5.297682859983993
 31
0.0
  0
LINE
  5
22189
330
2216D
100
AcDbEntity
  8
0
  6
CONTINUOUS
100
AcDbLine
 10
10.02566815382863
 20
3.756706670778549
 30
0.0
 11
11.10129251732229
 21
4.832331034272211
 31
0.0
  0
LINE
  5
2218A
330
2216D
100
AcDbEntity
  8
0
  6
CONTINUOUS
100
AcDbLine
 10
9.310880692127883
 20
2.368399999997621
 30
0.0
 11
11.30945990069069
 21
4.366979208560428
 31
0.0
  0
LINE
  5
2218B
330
2216D
100
AcDbEntity
  8
0
  6
CONTINUOUS
100
AcDbLine
 10
9.98439990120807
 20
2.36839999999762
 30
0.0
 11
11.5176272840591
 21
3.901627382848645
 31
0.0
  0
LINE
  5
2218C
330
2216D
100
AcDbEntity
  8
0
  6
CONTINUOUS
100
AcDbLine
 10
10.65037369446246
 20
2.36085458417182
 30
0.0
 11
11.7257946674275
 21
3.436275557136862
 31
0.0
  0
LINE
  5
2218D
330
2216D
100
AcDbEntity
  8
0
  6
CONTINUOUS
100
AcDbLine
 10
10.85847197087848
 20
1.895433651507656
 30
0.0
 11
11.9339620507959
 21
2.97092373142508
 31
0.0
  0
LINE
  5
2218E
330
2216D
100
AcDbEntity
  8
0
  6
CONTINUOUS
100
AcDbLine
 10
11.0665702472945
 20
1.430012718843491
 30
0.0
 11
12.14212943416431
 21
2.505571905713296
 31
0.0
  0
LINE
  5
2218F
330
2216D
100
AcDbEntity
  8
0
  6
CONTINUOUS
100
AcDbLine
 10
11.27466852371052
 20
0.9645917861793256
 30
0.0
 11
12.35029681753271
 21
2.040220080001513
 31
0.0
  0
LINE
  5
22190
330
2216D
100
AcDbEntity
  8
0
  6
CONTINUOUS
100
AcDbLine
 10
11.48276680012654
 20
0.4991708535151611
 30
0.0
 11
12.55846420090111
 21
1.57486825428973
 31
0.0
  0
LINE
  5
22191
330
2216D
100
AcDbEntity
  8
0
  6
CONTINUOUS
100
AcDbLine
 10
11.69086507654257
 20
0.0337499208509957
 30
0.0
 11
12.76663158426952
 21
1.109516428577947
 31
0.0
  0
LINE
  5
22192
330
2216D
100
AcDbEntity
  8
0
  6
CONTINUOUS
100
AcDbLine
 10
12.33057447873954
 20
-0.0000598860322123
 30
0.0
 11
12.97479896763792
 21
0.6441646028661663
 31
0.0
  0
LINE
  5
22193
330
2216D
100
AcDbEntity
  8
0
  6
CONTINUOUS
100
AcDbLine
 10
13.00413694809395
 20
-0.0000166257579952
 30
0.0
 11
13.18296635100632
 21
0.1788127771543824
 31
0.0
  0
LINE
  5
22194
330
2216D
100
AcDbEntity
  8
0
  6
CONTINUOUS
100
AcDbLine
 10
4.772852165289667
 20
-0.000092794222212
 30
0.0
 11
4.296495091028902
 21
0.4762642800385528
 31
0.0
  0
LINE
  5
22195
330
2216D
100
AcDbEntity
  8
0
  6
CONTINUOUS
100
AcDbLine
 10
5.446340034776103
 20
-0.0000614546284616
 30
0.0
 11
2.898195908335625
 21
2.548082671812017
 31
0.0
  0
LINE
  5
22196
330
2216D
100
AcDbEntity
  8
0
  6
CONTINUOUS
100
AcDbLine
 10
6.119827904262539
 20
-0.0000301150347113
 30
0.0
 11
1.499896725642348
 21
4.61990106358548
 31
0.0
  0
LINE
  5
22197
330
2216D
100
AcDbEntity
  8
0
  6
CONTINUOUS
100
AcDbLine
 10
6.775136745476159
 20
0.0181802528318542
 30
0.0
 11
5.699826040202669
 21
1.093490958105344
 31
0.0
  0
LINE
  5
22198
330
2216D
100
AcDbEntity
  8
0
  6
CONTINUOUS
100
AcDbLine
 10
6.983376846288489
 20
0.4834593610997118
 30
0.0
 11
5.908008617934405
 21
1.558827589453796
 31
0.0
  0
LINE
  5
22199
330
2216D
100
AcDbEntity
  8
0
  6
CONTINUOUS
100
AcDbLine
 10
5.377063484962296
 20
1.416253513345719
 30
0.0
 11
1.702276957014131
 21
5.091040041293883
 31
0.0
  0
LINE
  5
2219A
330
2216D
100
AcDbEntity
  8
0
  6
CONTINUOUS
100
AcDbLine
 10
3.978745891735324
 20
3.488090315652877
 30
0.0
 11
2.000373521109399
 21
5.466462686278803
 31
0.0
  0
LINE
  5
2219B
330
2216D
100
AcDbEntity
  8
0
  6
CONTINUOUS
100
AcDbLine
 10
7.191616947100819
 20
0.948738469367568
 30
0.0
 11
6.11619119566614
 21
2.024164220802247
 31
0.0
  0
LINE
  5
2219C
330
2216D
100
AcDbEntity
  8
0
  6
CONTINUOUS
100
AcDbLine
 10
7.399857047913149
 20
1.414017577635424
 30
0.0
 11
6.324373773397875
 21
2.489500852150698
 31
0.0
  0
LINE
  5
2219D
330
2216D
100
AcDbEntity
  8
0
  6
CONTINUOUS
100
AcDbLine
 10
7.608097148725479
 20
1.879296685903281
 30
0.0
 11
6.53255635112961
 21
2.95483748349915
 31
0.0
  0
LINE
  5
2219E
330
2216D
100
AcDbEntity
  8
0
  6
CONTINUOUS
100
AcDbLine
 10
7.816337249537808
 20
2.344575794171138
 30
0.0
 11
6.740738928861345
 21
3.420174114847601
 31
0.0
  0
LINE
  5
2219F
330
2216D
100
AcDbEntity
  8
0
  6
CONTINUOUS
100
AcDbLine
 10
3.310241080789734
 20
4.830114335678653
 30
0.0
 11
2.298470085204666
 21
5.84188533126372
 31
0.0
  0
LINE
  5
221A0
330
2216D
100
AcDbEntity
  8
0
  6
CONTINUOUS
100
AcDbLine
 10
3.60832983563551
 20
5.205544789913063
 30
0.0
 11
2.596566649299935
 21
6.217307976248638
 31
0.0
  0
LINE
  5
221A1
330
2216D
100
AcDbEntity
  8
0
  6
CONTINUOUS
100
AcDbLine
 10
3.906418590481286
 20
5.580975244147473
 30
0.0
 11
2.894663213395203
 21
6.592730621233557
 31
0.0
  0
LINE
  5
221A2
330
2216D
100
AcDbEntity
  8
0
  6
CONTINUOUS
100
AcDbLine
 10
4.204507345327062
 20
5.956405698381884
 30
0.0
 11
3.192759777490472
 21
6.968153266218474
 31
0.0
  0
LINE
  5
221A3
330
2216D
100
AcDbEntity
  8
0
  6
CONTINUOUS
100
AcDbLine
 10
8.466032252791512
 20
2.368399999997621
 30
0.0
 11
6.948921506593081
 21
3.885510746196053
 31
0.0
  0
LINE
  5
221A4
330
2216D
100
AcDbEntity
  8
0
  6
CONTINUOUS
100
AcDbLine
 10
9.139551461871699
 20
2.36839999999762
 30
0.0
 11
7.157104084324816
 21
4.350847377544504
 31
0.0
  0
LINE
  5
221A5
330
2216D
100
AcDbEntity
  8
0
  6
CONTINUOUS
100
AcDbLine
 10
4.502596100172839
 20
6.331836152616295
 30
0.0
 11
3.49085634158574
 21
7.343575911203393
 31
0.0
  0
LINE
  5
221A6
330
2216D
100
AcDbEntity
  8
0
  6
CONTINUOUS
100
AcDbLine
 10
4.800684855018615
 20
6.707266606850705
 30
0.0
 11
3.788952905681008
 21
7.718998556188312
 31
0.0
  0
LINE
  5
221A7
330
2216D
100
AcDbEntity
  8
0
  6
CONTINUOUS
100
AcDbLine
 10
12.18154012887317
 20
-0.0000694579236642
 30
0.0
 11
11.32140332908496
 21
0.8600673418645499
 31
0.0
  0
LINE
  5
221A8
330
2216D
100
AcDbEntity
  8
0
  6
CONTINUOUS
100
AcDbLine
 10
12.85501608323566
 20
-0.0000262032059659
 30
0.0
 11
10.77672456435345
 21
2.078265315676246
 31
0.0
  0
LINE
  5
221A9
330
2216D
100
AcDbEntity
  8
0
  6
CONTINUOUS
100
AcDbLine
 10
9.813070670951886
 20
2.36839999999762
 30
0.0
 11
8.51047067095321
 21
3.670999999996297
 31
0.0
  0
LINE
  5
221AA
330
2216D
100
AcDbEntity
  8
0
  6
CONTINUOUS
100
AcDbLine
 10
10.48658988003207
 20
2.36839999999762
 30
0.0
 11
9.183989880033396
 21
3.670999999996297
 31
0.0
  0
LINE
  5
221AB
330
2216D
100
AcDbEntity
  8
0
  6
CONTINUOUS
100
AcDbLine
 10
8.441048632286794
 20
3.740422038662712
 30
0.0
 11
7.365286662056551
 21
4.816184008892956
 31
0.0
  0
LINE
  5
221AC
330
2216D
100
AcDbEntity
  8
0
  6
CONTINUOUS
100
AcDbLine
 10
8.649187485808454
 20
4.205802394221237
 30
0.0
 11
7.573469239788285
 21
5.281520640241407
 31
0.0
  0
LINE
  5
221AD
330
2216D
100
AcDbEntity
  8
0
  6
CONTINUOUS
100
AcDbLine
 10
5.098773609864391
 20
7.082697061085115
 30
0.0
 11
4.087049469776277
 21
8.09442120117323
 31
0.0
  0
LINE
  5
221AE
330
2216D
100
AcDbEntity
  8
0
  6
CONTINUOUS
100
AcDbLine
 10
5.396862364710167
 20
7.458127515319526
 30
0.0
 11
4.385146033871544
 21
8.469843846158149
 31
0.0
  0
LINE
  5
221AF
330
2216D
100
AcDbEntity
  8
0
  6
CONTINUOUS
100
AcDbLine
 10
13.04801363231285
 20
0.4804954567970334
 30
0.0
 11
9.85750908911358
 21
3.670999999996297
 31
0.0
  0
LINE
  5
221B0
330
2216D
100
AcDbEntity
  8
0
  6
CONTINUOUS
100
AcDbLine
 10
8.857326339330116
 20
4.671182749779763
 30
0.0
 11
7.781651817520021
 21
5.746857271589858
 31
0.0
  0
LINE
  5
221B1
330
2216D
100
AcDbEntity
  8
0
  6
CONTINUOUS
100
AcDbLine
 10
5.694951119555943
 20
7.833557969553937
 30
0.0
 11
4.765409089118624
 21
8.763099999991255
 31
0.0
  0
LINE
  5
221B2
330
2216D
100
AcDbEntity
  8
0
  6
CONTINUOUS
100
AcDbLine
 10
12.50286117236978
 20
1.699167125820288
 30
0.0
 11
9.68611877250287
 21
4.515909525687196
 31
0.0
  0
LINE
  5
221B3
330
2216D
100
AcDbEntity
  8
0
  6
CONTINUOUS
100
AcDbLine
 10
9.065465192851777
 20
5.136563105338288
 30
0.0
 11
7.989834395251757
 21
6.21219390293831
 31
0.0
  0
LINE
  5
221B4
330
2216D
100
AcDbEntity
  8
0
  6
CONTINUOUS
100
AcDbLine
 10
5.993039874401719
 20
8.208988423788346
 30
0.0
 11
5.43892829819881
 21
8.763099999991255
 31
0.0
  0
LINE
  5
221B5
330
2216D
100
AcDbEntity
  8
0
  6
CONTINUOUS
100
AcDbLine
 10
11.95770871242671
 20
2.917838794843543
 30
0.0
 11
8.19801697298349
 21
6.677530534286761
 31
0.0
  0
LINE
  5
221B6
330
2216D
100
AcDbEntity
  8
0
  6
CONTINUOUS
100
AcDbLine
 10
6.291128629247495
 20
8.584418878022756
 30
0.0
 11
6.112447507278997
 21
8.763099999991255
 31
0.0
  0
LINE
  5
221B7
330
2216D
100
AcDbEntity
  8
0
  6
CONTINUOUS
100
AcDbLine
 10
11.41255625248364
 20
4.136510463866797
 30
0.0
 11
8.406199550715227
 21
7.142867165635211
 31
0.0
  0
LINE
  5
221B8
330
2216D
100
AcDbEntity
  8
0
  6
CONTINUOUS
100
AcDbLine
 10
10.86740379254057
 20
5.355182132890051
 30
0.0
 11
8.614382128446962
 21
7.608203796983664
 31
0.0
  0
LINE
  5
221B9
330
2216D
100
AcDbEntity
  8
0
  6
CONTINUOUS
100
AcDbLine
 10
10.3222513325975
 20
6.573853801913305
 30
0.0
 11
8.822564706178696
 21
8.073540428332114
 31
0.0
  0
LINE
  5
221BA
330
2216D
100
AcDbEntity
  8
0
  6
CONTINUOUS
100
AcDbLine
 10
9.777098872654436
 20
7.792525470936562
 30
0.0
 11
9.030747283910433
 21
8.538877059680566
 31
0.0
  0
ENDBLK
  5
222FC
330
2216D
100
AcDbEntity
  8
0
100
AcDbBlockEnd
  0
BLOCK
  5
222FD
330
221BB
100
AcDbEntity
  8
0
100
AcDbBlockBegin
  2
*X25
 70
     1
 10
0.0
 20
0.0
 30
0.0
  3
*X25
  1

  0
LINE
  5
221BC
330
221BB
100
AcDbEntity
  8
0
  6
CONTINUOUS
100
AcDbLine
 10
10.67292308101235
 20
8.445076852443387
 30
0.0
 11
10.99094622856022
 21
8.763099999991255
 31
0.0
  0
LINE
  5
221BD
330
221BB
100
AcDbEntity
  8
0
  6
CONTINUOUS
100
AcDbLine
 10
10.87250383178748
 20
7.971138394138331
 30
0.0
 11
11.6644654376404
 21
8.763099999991255
 31
0.0
  0
LINE
  5
221BE
330
221BB
100
AcDbEntity
  8
0
  6
CONTINUOUS
100
AcDbLine
 10
11.07208458256261
 20
7.497199935833273
 30
0.0
 11
12.12126590876355
 21
8.546381262034211
 31
0.0
  0
LINE
  5
221BF
330
221BB
100
AcDbEntity
  8
0
  6
CONTINUOUS
100
AcDbLine
 10
11.27166533333774
 20
7.023261477528216
 30
0.0
 11
12.32085164573666
 21
8.072447789927136
 31
0.0
  0
LINE
  5
221C0
330
221BB
100
AcDbEntity
  8
0
  6
CONTINUOUS
100
AcDbLine
 10
11.47124608411287
 20
6.549323019223158
 30
0.0
 11
12.52043738270977
 21
7.59851431782006
 31
0.0
  0
LINE
  5
221C1
330
221BB
100
AcDbEntity
  8
0
  6
CONTINUOUS
100
AcDbLine
 10
11.670826834888
 20
6.075384560918101
 30
0.0
 11
12.72002311968288
 21
7.124580845712984
 31
0.0
  0
LINE
  5
221C2
330
221BB
100
AcDbEntity
  8
0
  6
CONTINUOUS
100
AcDbLine
 10
11.87040758566313
 20
5.601446102613043
 30
0.0
 11
12.91960885665599
 21
6.650647373605907
 31
0.0
  0
LINE
  5
221C3
330
221BB
100
AcDbEntity
  8
0
  6
CONTINUOUS
100
AcDbLine
 10
12.06998833643825
 20
5.127507644307986
 30
0.0
 11
13.1191945936291
 21
6.176713901498832
 31
0.0
  0
LINE
  5
221C4
330
221BB
100
AcDbEntity
  8
0
  6
CONTINUOUS
100
AcDbLine
 10
12.26956908721338
 20
4.65356918600293
 30
0.0
 11
13.31878033060221
 21
5.702780429391757
 31
0.0
  0
LINE
  5
221C5
330
221BB
100
AcDbEntity
  8
0
  6
CONTINUOUS
100
AcDbLine
 10
12.46914983798851
 20
4.179630727697873
 30
0.0
 11
13.51836606757532
 21
5.228846957284683
 31
0.0
  0
LINE
  5
221C6
330
221BB
100
AcDbEntity
  8
0
  6
CONTINUOUS
100
AcDbLine
 10
12.66873058876364
 20
3.705692269392816
 30
0.0
 11
13.71795180454843
 21
4.754913485177607
 31
0.0
  0
LINE
  5
221C7
330
221BB
100
AcDbEntity
  8
0
  6
CONTINUOUS
100
AcDbLine
 10
12.86831133953877
 20
3.231753811087759
 30
0.0
 11
13.91753754152154
 21
4.280980013070531
 31
0.0
  0
LINE
  5
221C8
330
221BB
100
AcDbEntity
  8
0
  6
CONTINUOUS
100
AcDbLine
 10
13.0678920903139
 20
2.757815352782702
 30
0.0
 11
14.11712327849465
 21
3.807046540963456
 31
0.0
  0
LINE
  5
221C9
330
221BB
100
AcDbEntity
  8
0
  6
CONTINUOUS
100
AcDbLine
 10
13.26747284108903
 20
2.283876894477644
 30
0.0
 11
14.31670901546777
 21
3.333113068856379
 31
0.0
  0
LINE
  5
221CA
330
221BB
100
AcDbEntity
  8
0
  6
CONTINUOUS
100
AcDbLine
 10
16.36767838827179
 20
8.751678487061342
 30
0.0
 11
16.50332410898388
 21
8.887324207773432
 31
0.0
  0
LINE
  5
221CB
330
221BB
100
AcDbEntity
  8
0
  6
CONTINUOUS
100
AcDbLine
 10
15.96190732182191
 20
7.67238821153127
 30
0.0
 11
16.68735328004734
 21
8.397834169756699
 31
0.0
  0
LINE
  5
221CC
330
221BB
100
AcDbEntity
  8
0
  6
CONTINUOUS
100
AcDbLine
 10
15.55613625537202
 20
6.593097936001196
 30
0.0
 11
16.87138245111079
 21
7.908344131739965
 31
0.0
  0
LINE
  5
221CD
330
221BB
100
AcDbEntity
  8
0
  6
CONTINUOUS
100
AcDbLine
 10
15.15036518892213
 20
5.513807660471122
 30
0.0
 11
17.05541162217424
 21
7.418854093723231
 31
0.0
  0
LINE
  5
221CE
330
221BB
100
AcDbEntity
  8
0
  6
CONTINUOUS
100
AcDbLine
 10
14.74459412247225
 20
4.434517384941048
 30
0.0
 11
17.2394407932377
 21
6.929364055706499
 31
0.0
  0
LINE
  5
221CF
330
221BB
100
AcDbEntity
  8
0
  6
CONTINUOUS
100
AcDbLine
 10
14.33882305602236
 20
3.355227109410975
 30
0.0
 11
17.42346996430115
 21
6.439874017689766
 31
0.0
  0
LINE
  5
221D0
330
221BB
100
AcDbEntity
  8
0
  6
CONTINUOUS
100
AcDbLine
 10
13.46705359186416
 20
1.809938436172586
 30
0.0
 11
16.0819338255367
 21
4.424818669845129
 31
0.0
  0
LINE
  5
221D1
330
221BB
100
AcDbEntity
  8
0
  6
CONTINUOUS
100
AcDbLine
 10
16.63283254238972
 20
4.975717386698149
 30
0.0
 11
17.60749913536461
 21
5.950383979673033
 31
0.0
  0
LINE
  5
221D2
330
221BB
100
AcDbEntity
  8
0
  6
CONTINUOUS
100
AcDbLine
 10
13.66663434263929
 20
1.335999977867529
 30
0.0
 11
15.67604797733754
 21
3.345413612565779
 31
0.0
  0
LINE
  5
221D3
330
221BB
100
AcDbEntity
  8
0
  6
CONTINUOUS
100
AcDbLine
 10
13.86621509341442
 20
0.8620615195624723
 30
0.0
 11
15.27016212913838
 21
2.26600855528643
 31
0.0
  0
LINE
  5
221D4
330
221BB
100
AcDbEntity
  8
0
  6
CONTINUOUS
100
AcDbLine
 10
16.81682257348267
 20
4.486188208710908
 30
0.0
 11
17.79152830642806
 21
5.460893941656299
 31
0.0
  0
LINE
  5
221D5
330
221BB
100
AcDbEntity
  8
0
  6
CONTINUOUS
100
AcDbLine
 10
17.00081260457561
 20
3.996659030723667
 30
0.0
 11
17.97555747749151
 21
4.971403903639565
 31
0.0
  0
LINE
  5
221D6
330
221BB
100
AcDbEntity
  8
0
  6
CONTINUOUS
100
AcDbLine
 10
20.74362343514722
 20
8.412989070375462
 30
0.0
 11
21.09373436476302
 21
8.763099999991256
 31
0.0
  0
LINE
  5
221D7
330
221BB
100
AcDbEntity
  8
0
  6
CONTINUOUS
100
AcDbLine
 10
20.25401257174777
 20
7.249858997895826
 30
0.0
 11
21.7672535738432
 21
8.763099999991255
 31
0.0
  0
LINE
  5
221D8
330
221BB
100
AcDbEntity
  8
0
  6
CONTINUOUS
100
AcDbLine
 10
14.06579584418955
 20
0.3881230612574149
 30
0.0
 11
14.86427628093921
 21
1.186603498007082
 31
0.0
  0
LINE
  5
221D9
330
221BB
100
AcDbEntity
  8
0
  6
CONTINUOUS
100
AcDbLine
 10
14.26537659496467
 20
-0.0858153970476412
 30
0.0
 11
14.45839043274005
 21
0.1071984407277329
 31
0.0
  0
LINE
  5
221DA
330
221BB
100
AcDbEntity
  8
0
  6
CONTINUOUS
100
AcDbLine
 10
17.18480263566856
 20
3.507129852736426
 30
0.0
 11
18.15958664855496
 21
4.481913865622833
 31
0.0
  0
LINE
  5
221DB
330
221BB
100
AcDbEntity
  8
0
  6
CONTINUOUS
100
AcDbLine
 10
17.3687926667615
 20
3.017600674749186
 30
0.0
 11
18.34361581961842
 21
3.9924238276061
 31
0.0
  0
LINE
  5
221DC
330
221BB
100
AcDbEntity
  8
0
  6
CONTINUOUS
100
AcDbLine
 10
19.76440170834832
 20
6.086728925416191
 30
0.0
 11
22.33924590259489
 21
8.661573119662755
 31
0.0
  0
LINE
  5
221DD
330
221BB
100
AcDbEntity
  8
0
  6
CONTINUOUS
100
AcDbLine
 10
19.27479084494887
 20
4.923598852936555
 30
0.0
 11
21.84929622842713
 21
7.498104236414807
 31
0.0
  0
LINE
  5
221DE
330
221BB
100
AcDbEntity
  8
0
  6
CONTINUOUS
100
AcDbLine
 10
17.55278269785445
 20
2.528071496761945
 30
0.0
 11
18.52764499068187
 21
3.502933789589366
 31
0.0
  0
LINE
  5
221DF
330
221BB
100
AcDbEntity
  8
0
  6
CONTINUOUS
100
AcDbLine
 10
18.78517998154942
 20
3.760468780456919
 30
0.0
 11
21.35934655425936
 21
6.33463535316686
 31
0.0
  0
LINE
  5
221E0
330
221BB
100
AcDbEntity
  8
0
  6
CONTINUOUS
100
AcDbLine
 10
17.73677272894739
 20
2.038542318774704
 30
0.0
 11
20.8693968800916
 21
5.171166469918914
 31
0.0
  0
LINE
  5
221E1
330
221BB
100
AcDbEntity
  8
0
  6
CONTINUOUS
100
AcDbLine
 10
17.92076276004034
 20
1.549013140787464
 30
0.0
 11
20.37944720592384
 21
4.007697586670968
 31
0.0
  0
LINE
  5
221E2
330
221BB
100
AcDbEntity
  8
0
  6
CONTINUOUS
100
AcDbLine
 10
18.10475279113329
 20
1.059483962800223
 30
0.0
 11
19.88949753175608
 21
2.84422870342302
 31
0.0
  0
LINE
  5
221E3
330
221BB
100
AcDbEntity
  8
0
  6
CONTINUOUS
100
AcDbLine
 10
18.28874282222623
 20
0.5699547848129822
 30
0.0
 11
19.39954785758832
 21
1.680759820175074
 31
0.0
  0
LINE
  5
221E4
330
221BB
100
AcDbEntity
  8
0
  6
CONTINUOUS
100
AcDbLine
 10
18.47273285331918
 20
0.0804256068257416
 30
0.0
 11
18.90959818342056
 21
0.517290936927127
 31
0.0
  0
LINE
  5
221E5
330
221BB
100
AcDbEntity
  8
0
  6
CONTINUOUS
100
AcDbLine
 10
14.3590401358224
 20
-0.1570118376323384
 30
0.0
 11
14.24903296539946
 21
-0.0470046672093929
 31
0.0
  0
LINE
  5
221E6
330
221BB
100
AcDbEntity
  8
0
  6
CONTINUOUS
100
AcDbLine
 10
14.54309291258661
 20
0.332454594683643
 30
0.0
 11
13.75908329123172
 21
1.116464216038529
 31
0.0
  0
LINE
  5
221E7
330
221BB
100
AcDbEntity
  8
0
  6
CONTINUOUS
100
AcDbLine
 10
14.72714568935081
 20
0.8219210269996244
 30
0.0
 11
13.26913361706399
 21
2.27993309928645
 31
0.0
  0
LINE
  5
221E8
330
221BB
100
AcDbEntity
  8
0
  6
CONTINUOUS
100
AcDbLine
 10
14.91119846611502
 20
1.311387459315606
 30
0.0
 11
12.77918394289625
 21
3.443401982534371
 31
0.0
  0
LINE
  5
221E9
330
221BB
100
AcDbEntity
  8
0
  6
CONTINUOUS
100
AcDbLine
 10
15.09525124287922
 20
1.800853891631587
 30
0.0
 11
12.28923426872852
 21
4.606870865782293
 31
0.0
  0
LINE
  5
221EA
330
221BB
100
AcDbEntity
  8
0
  6
CONTINUOUS
100
AcDbLine
 10
15.27930401964343
 20
2.290320323947569
 30
0.0
 11
11.79928459456078
 21
5.770339749030213
 31
0.0
  0
LINE
  5
221EB
330
221BB
100
AcDbEntity
  8
0
  6
CONTINUOUS
100
AcDbLine
 10
15.46335679640763
 20
2.77978675626355
 30
0.0
 11
14.48885470994921
 21
3.754288842721972
 31
0.0
  0
LINE
  5
221EC
330
221BB
100
AcDbEntity
  8
0
  6
CONTINUOUS
100
AcDbLine
 10
13.88507249233704
 20
4.358071060334137
 30
0.0
 11
11.30933492039305
 21
6.933808632278135
 31
0.0
  0
LINE
  5
221ED
330
221BB
100
AcDbEntity
  8
0
  6
CONTINUOUS
100
AcDbLine
 10
18.75840522805855
 20
0.1582575336928151
 30
0.0
 11
18.25383727664818
 21
0.6628254851031863
 31
0.0
  0
LINE
  5
221EE
330
221BB
100
AcDbEntity
  8
0
  6
CONTINUOUS
100
AcDbLine
 10
15.64740957317184
 20
3.269253188579531
 30
0.0
 11
14.67288388101266
 21
4.243778880738705
 31
0.0
  0
LINE
  5
221EF
330
221BB
100
AcDbEntity
  8
0
  6
CONTINUOUS
100
AcDbLine
 10
13.39509276772158
 20
5.521569994029786
 30
0.0
 11
10.81938524622531
 21
8.097277515526056
 31
0.0
  0
LINE
  5
221F0
330
221BB
100
AcDbEntity
  8
0
  6
CONTINUOUS
100
AcDbLine
 10
18.95798597883369
 20
0.6321959919978686
 30
0.0
 11
17.84825644852853
 21
1.741925522303024
 31
0.0
  0
LINE
  5
221F1
330
221BB
100
AcDbEntity
  8
0
  6
CONTINUOUS
100
AcDbLine
 10
19.15756672960882
 20
1.106134450302922
 30
0.0
 11
17.44267562040888
 21
2.821025559502861
 31
0.0
  0
LINE
  5
221F2
330
221BB
100
AcDbEntity
  8
0
  6
CONTINUOUS
100
AcDbLine
 10
15.83146234993604
 20
3.758719620895513
 30
0.0
 11
14.85691305207612
 21
4.733268918755439
 31
0.0
  0
LINE
  5
221F3
330
221BB
100
AcDbEntity
  8
0
  6
CONTINUOUS
100
AcDbLine
 10
16.01551512670025
 20
4.248186053211494
 30
0.0
 11
15.04094222313957
 21
5.222758956772172
 31
0.0
  0
LINE
  5
221F4
330
221BB
100
AcDbEntity
  8
0
  6
CONTINUOUS
100
AcDbLine
 10
12.90511304310612
 20
6.685068927725435
 30
0.0
 11
10.8270819708403
 21
8.763099999991255
 31
0.0
  0
LINE
  5
221F5
330
221BB
100
AcDbEntity
  8
0
  6
CONTINUOUS
100
AcDbLine
 10
12.41513331849066
 20
7.848567861421083
 30
0.0
 11
11.50060117992049
 21
8.763099999991255
 31
0.0
  0
LINE
  5
221F6
330
221BB
100
AcDbEntity
  8
0
  6
CONTINUOUS
100
AcDbLine
 10
19.35714748038395
 20
1.580072908607975
 30
0.0
 11
17.03709479228923
 21
3.900125596702697
 31
0.0
  0
LINE
  5
221F7
330
221BB
100
AcDbEntity
  8
0
  6
CONTINUOUS
100
AcDbLine
 10
19.55672823115909
 20
2.054011366913028
 30
0.0
 11
16.63151396416958
 21
4.979225633902534
 31
0.0
  0
LINE
  5
221F8
330
221BB
100
AcDbEntity
  8
0
  6
CONTINUOUS
100
AcDbLine
 10
16.19956790346445
 20
4.737652485527476
 30
0.0
 11
15.22497139420302
 21
5.712248994788904
 31
0.0
  0
LINE
  5
221F9
330
221BB
100
AcDbEntity
  8
0
  6
CONTINUOUS
100
AcDbLine
 10
16.38362068022866
 20
5.227118917843457
 30
0.0
 11
15.40900056526648
 21
6.201739032805637
 31
0.0
  0
LINE
  5
221FA
330
221BB
100
AcDbEntity
  8
0
  6
CONTINUOUS
100
AcDbLine
 10
19.75630898193422
 20
2.527949825218081
 30
0.0
 11
18.70774536448286
 21
3.576513442669441
 31
0.0
  0
LINE
  5
221FB
330
221BB
100
AcDbEntity
  8
0
  6
CONTINUOUS
100
AcDbLine
 10
19.95588973270936
 20
3.001888283523134
 30
0.0
 11
18.90726987211446
 21
4.050508144118028
 31
0.0
  0
LINE
  5
221FC
330
221BB
100
AcDbEntity
  8
0
  6
CONTINUOUS
100
AcDbLine
 10
20.15547048348449
 20
3.475826741828186
 30
0.0
 11
19.10679437974606
 21
4.524502845566614
 31
0.0
  0
LINE
  5
221FD
330
221BB
100
AcDbEntity
  8
0
  6
CONTINUOUS
100
AcDbLine
 10
20.35505123425962
 20
3.94976520013324
 30
0.0
 11
19.30631888737766
 21
4.998497547015201
 31
0.0
  0
LINE
  5
221FE
330
221BB
100
AcDbEntity
  8
0
  6
CONTINUOUS
100
AcDbLine
 10
20.55463198503475
 20
4.423703658438292
 30
0.0
 11
19.50584339500926
 21
5.472492248463787
 31
0.0
  0
LINE
  5
221FF
330
221BB
100
AcDbEntity
  8
0
  6
CONTINUOUS
100
AcDbLine
 10
18.37481191085755
 20
3.909446896294752
 30
0.0
 11
15.59302973632993
 21
6.691229070822371
 31
0.0
  0
LINE
  5
22200
330
221BB
100
AcDbEntity
  8
0
  6
CONTINUOUS
100
AcDbLine
 10
17.96904084440766
 20
4.988737171824825
 30
0.0
 11
15.77705890739338
 21
7.180719108839104
 31
0.0
  0
LINE
  5
22201
330
221BB
100
AcDbEntity
  8
0
  6
CONTINUOUS
100
AcDbLine
 10
17.56326977795777
 20
6.068027447354899
 30
0.0
 11
15.96108807845684
 21
7.670209146855838
 31
0.0
  0
LINE
  5
22202
330
221BB
100
AcDbEntity
  8
0
  6
CONTINUOUS
100
AcDbLine
 10
17.15749871150789
 20
7.147317722884972
 30
0.0
 11
16.14511724952029
 21
8.15969918487257
 31
0.0
  0
LINE
  5
22203
330
221BB
100
AcDbEntity
  8
0
  6
CONTINUOUS
100
AcDbLine
 10
16.751727645058
 20
8.226607998415046
 30
0.0
 11
16.32914642058374
 21
8.649189222889303
 31
0.0
  0
LINE
  5
22204
330
221BB
100
AcDbEntity
  8
0
  6
CONTINUOUS
100
AcDbLine
 10
20.75421273580989
 20
4.897642116743345
 30
0.0
 11
19.70536790264086
 21
5.946486949912374
 31
0.0
  0
LINE
  5
22205
330
221BB
100
AcDbEntity
  8
0
  6
CONTINUOUS
100
AcDbLine
 10
20.95379348658502
 20
5.371580575048398
 30
0.0
 11
19.90489241027246
 21
6.42048165136096
 31
0.0
  0
LINE
  5
22206
330
221BB
100
AcDbEntity
  8
0
  6
CONTINUOUS
100
AcDbLine
 10
21.15337423736015
 20
5.845519033353452
 30
0.0
 11
20.10441691790406
 21
6.894476352809547
 31
0.0
  0
LINE
  5
22207
330
221BB
100
AcDbEntity
  8
0
  6
CONTINUOUS
100
AcDbLine
 10
21.35295498813529
 20
6.319457491658505
 30
0.0
 11
20.30394142553566
 21
7.368471054258134
 31
0.0
  0
LINE
  5
22208
330
221BB
100
AcDbEntity
  8
0
  6
CONTINUOUS
100
AcDbLine
 10
21.55253573891042
 20
6.793395949963558
 30
0.0
 11
20.50346593316726
 21
7.842465755706721
 31
0.0
  0
LINE
  5
22209
330
221BB
100
AcDbEntity
  8
0
  6
CONTINUOUS
100
AcDbLine
 10
21.75211648968556
 20
7.267334408268612
 30
0.0
 11
20.70299044079886
 21
8.316460457155308
 31
0.0
  0
LINE
  5
2220A
330
221BB
100
AcDbEntity
  8
0
  6
CONTINUOUS
100
AcDbLine
 10
21.95169724046069
 20
7.741272866573663
 30
0.0
 11
20.9298701070431
 21
8.763099999991256
 31
0.0
  0
LINE
  5
2220B
330
221BB
100
AcDbEntity
  8
0
  6
CONTINUOUS
100
AcDbLine
 10
22.15127799123582
 20
8.215211324878716
 30
0.0
 11
21.60338931612328
 21
8.763099999991256
 31
0.0
  0
LINE
  5
2220C
330
221BB
100
AcDbEntity
  8
0
  6
CONTINUOUS
100
AcDbLine
 10
22.35085874201096
 20
8.689149783183769
 30
0.0
 11
22.27690852520347
 21
8.763099999991255
 31
0.0
  0
ENDBLK
  5
222FE
330
221BB
100
AcDbEntity
  8
0
100
AcDbBlockEnd
  0
BLOCK
  5
222FF
330
2220D
100
AcDbEntity
  8
0
100
AcDbBlockBegin
  2
*X26
 70
     1
 10
0.0
 20
0.0
 30
0.0
  3
*X26
  1

  0
LINE
  5
2220E
330
2220D
100
AcDbEntity
  8
0
  6
CONTINUOUS
100
AcDbLine
 10
23.19462913593892
 20
8.169917934846424
 30
0.0
 11
23.70775465517246
 21
8.683043454079957
 31
0.0
  0
LINE
  5
2220F
330
2220D
100
AcDbEntity
  8
0
  6
CONTINUOUS
100
AcDbLine
 10
22.64923161835078
 20
6.951001208178088
 30
0.0
 11
23.9159364069932
 21
8.217705996820516
 31
0.0
  0
LINE
  5
22210
330
2220D
100
AcDbEntity
  8
0
  6
CONTINUOUS
100
AcDbLine
 10
22.10383410076263
 20
5.732084481509751
 30
0.0
 11
24.12411815881395
 21
7.752368539561078
 31
0.0
  0
LINE
  5
22211
330
2220D
100
AcDbEntity
  8
0
  6
CONTINUOUS
100
AcDbLine
 10
21.55843658317447
 20
4.513167754841414
 30
0.0
 11
24.3322999106347
 21
7.287031082301639
 31
0.0
  0
LINE
  5
22212
330
2220D
100
AcDbEntity
  8
0
  6
CONTINUOUS
100
AcDbLine
 10
21.01303906558632
 20
3.294251028173077
 30
0.0
 11
24.54048166245544
 21
6.821693625042199
 31
0.0
  0
LINE
  5
22213
330
2220D
100
AcDbEntity
  8
0
  6
CONTINUOUS
100
AcDbLine
 10
20.46764154799817
 20
2.075334301504738
 30
0.0
 11
23.28571549467848
 21
4.89340824818505
 31
0.0
  0
LINE
  5
22214
330
2220D
100
AcDbEntity
  8
0
  6
CONTINUOUS
100
AcDbLine
 10
19.92224403041002
 20
0.8564175748364002
 30
0.0
 11
22.74075865492779
 21
3.674932199354171
 31
0.0
  0
LINE
  5
22215
330
2220D
100
AcDbEntity
  8
0
  6
CONTINUOUS
100
AcDbLine
 10
23.67305085490148
 20
5.280743608408048
 30
0.0
 11
24.74866341427619
 21
6.356356167782759
 31
0.0
  0
LINE
  5
22216
330
2220D
100
AcDbEntity
  8
0
  6
CONTINUOUS
100
AcDbLine
 10
23.88118970842314
 20
4.815363252849522
 30
0.0
 11
24.95684516609694
 21
5.89101871052332
 31
0.0
  0
LINE
  5
22217
330
2220D
100
AcDbEntity
  8
0
  6
CONTINUOUS
100
AcDbLine
 10
19.73925852647308
 20
-0.0000871381807288
 30
0.0
 11
23.4103456646501
 21
3.670999999996297
 31
0.0
  0
LINE
  5
22218
330
2220D
100
AcDbEntity
  8
0
  6
CONTINUOUS
100
AcDbLine
 10
24.0893285619448
 20
4.349982897290997
 30
0.0
 11
25.16502691791769
 21
5.42568125326388
 31
0.0
  0
LINE
  5
22219
330
2220D
100
AcDbEntity
  8
0
  6
CONTINUOUS
100
AcDbLine
 10
20.41282099582748
 20
-0.0000438779065108
 30
0.0
 11
21.64944178675636
 21
1.236576913022366
 31
0.0
  0
LINE
  5
2221A
330
2220D
100
AcDbEntity
  8
0
  6
CONTINUOUS
100
AcDbLine
 10
22.78126487373161
 20
2.36839999999762
 30
0.0
 11
24.08386487373029
 21
3.670999999996297
 31
0.0
  0
LINE
  5
2221B
330
2220D
100
AcDbEntity
  8
0
  6
CONTINUOUS
100
AcDbLine
 10
24.29746741546646
 20
3.884602541732471
 30
0.0
 11
25.37320866973843
 21
4.960343796004441
 31
0.0
  0
LINE
  5
2221C
330
2220D
100
AcDbEntity
  8
0
  6
CONTINUOUS
100
AcDbLine
 10
21.08638346518189
 20
-0.0000006176322938
 30
0.0
 11
21.10379033335899
 21
0.0174062505448083
 31
0.0
  0
LINE
  5
2221D
330
2220D
100
AcDbEntity
  8
0
  6
CONTINUOUS
100
AcDbLine
 10
23.4547840828118
 20
2.36839999999762
 30
0.0
 11
25.58139042155918
 21
4.495006338745002
 31
0.0
  0
LINE
  5
2221E
330
2220D
100
AcDbEntity
  8
0
  6
CONTINUOUS
100
AcDbLine
 10
29.30199999996933
 20
8.215615917155148
 30
0.0
 11
29.84948408280543
 21
8.763099999991255
 31
0.0
  0
LINE
  5
2221F
330
2220D
100
AcDbEntity
  8
0
  6
CONTINUOUS
100
AcDbLine
 10
24.12830329189199
 20
2.36839999999762
 30
0.0
 11
25.78957217337993
 21
4.029668881485562
 31
0.0
  0
LINE
  5
22220
330
2220D
100
AcDbEntity
  8
0
  6
CONTINUOUS
100
AcDbLine
 10
29.30199999996933
 20
7.54209670807496
 30
0.0
 11
30.52300329188562
 21
8.763099999991255
 31
0.0
  0
LINE
  5
22221
330
2220D
100
AcDbEntity
  8
0
  6
CONTINUOUS
100
AcDbLine
 10
24.80182250097217
 20
2.36839999999762
 30
0.0
 11
25.99775392520067
 21
3.564331424226122
 31
0.0
  0
LINE
  5
22222
330
2220D
100
AcDbEntity
  8
0
  6
CONTINUOUS
100
AcDbLine
 10
29.30199999996933
 20
6.868577498994774
 30
0.0
 11
30.74199999996926
 21
8.308577498994712
 31
0.0
  0
LINE
  5
22223
330
2220D
100
AcDbEntity
  8
0
  6
CONTINUOUS
100
AcDbLine
 10
25.13028238392013
 20
2.023340673865392
 30
0.0
 11
26.20593567702142
 21
3.098993966966683
 31
0.0
  0
LINE
  5
22224
330
2220D
100
AcDbEntity
  8
0
  6
CONTINUOUS
100
AcDbLine
 10
25.33838066033617
 20
1.557919741201244
 30
0.0
 11
26.41411742884217
 21
2.633656509707244
 31
0.0
  0
LINE
  5
22225
330
2220D
100
AcDbEntity
  8
0
  6
CONTINUOUS
100
AcDbLine
 10
25.54647893675221
 20
1.092498808537098
 30
0.0
 11
26.62229918066291
 21
2.168319052447804
 31
0.0
  0
LINE
  5
22226
330
2220D
100
AcDbEntity
  8
0
  6
CONTINUOUS
100
AcDbLine
 10
25.75457721316825
 20
0.62707787587295
 30
0.0
 11
26.83048093248366
 21
1.702981595188365
 31
0.0
  0
LINE
  5
22227
330
2220D
100
AcDbEntity
  8
0
  6
CONTINUOUS
100
AcDbLine
 10
29.30199999996933
 20
6.195058289914587
 30
0.0
 11
30.74199999996926
 21
7.635058289914522
 31
0.0
  0
LINE
  5
22228
330
2220D
100
AcDbEntity
  8
0
  6
CONTINUOUS
100
AcDbLine
 10
29.30199999996933
 20
5.521539080834401
 30
0.0
 11
30.74199999996926
 21
6.961539080834331
 31
0.0
  0
LINE
  5
22229
330
2220D
100
AcDbEntity
  8
0
  6
CONTINUOUS
100
AcDbLine
 10
29.30199999996933
 20
4.848019871754214
 30
0.0
 11
30.74199999996925
 21
6.288019871754143
 31
0.0
  0
LINE
  5
2222A
330
2220D
100
AcDbEntity
  8
0
  6
CONTINUOUS
100
AcDbLine
 10
29.30199999996933
 20
4.174500662674028
 30
0.0
 11
30.74199999996925
 21
5.614500662673953
 31
0.0
  0
LINE
  5
2222B
330
2220D
100
AcDbEntity
  8
0
  6
CONTINUOUS
100
AcDbLine
 10
25.96267548958429
 20
0.1616569432088024
 30
0.0
 11
27.18411854636669
 21
1.383099999991207
 31
0.0
  0
LINE
  5
2222C
330
2220D
100
AcDbEntity
  8
0
  6
CONTINUOUS
100
AcDbLine
 10
29.30199999996933
 20
3.500981453593841
 30
0.0
 11
30.74199999996925
 21
4.940981453593762
 31
0.0
  0
LINE
  5
2222D
330
2220D
100
AcDbEntity
  8
0
  6
CONTINUOUS
100
AcDbLine
 10
26.50763775544691
 20
0.0330999999912356
 30
0.0
 11
27.85763775544689
 21
1.383099999991223
 31
0.0
  0
LINE
  5
2222E
330
2220D
100
AcDbEntity
  8
0
  6
CONTINUOUS
100
AcDbLine
 10
29.30199999996933
 20
2.827462244513656
 30
0.0
 11
30.74199999996925
 21
4.267462244513574
 31
0.0
  0
LINE
  5
2222F
330
2220D
100
AcDbEntity
  8
0
  6
CONTINUOUS
100
AcDbLine
 10
27.18115696452709
 20
0.0330999999912356
 30
0.0
 11
28.55073879889363
 21
1.402681834357775
 31
0.0
  0
LINE
  5
22230
330
2220D
100
AcDbEntity
  8
0
  6
CONTINUOUS
100
AcDbLine
 10
29.28241816560272
 20
2.134361201066866
 30
0.0
 11
30.74199999996924
 21
3.593943035433383
 31
0.0
  0
LINE
  5
22231
330
2220D
100
AcDbEntity
  8
0
  6
CONTINUOUS
100
AcDbLine
 10
27.85467617360728
 20
0.0330999999912356
 30
0.0
 11
30.74199999996924
 21
2.920423826353195
 31
0.0
  0
LINE
  5
22232
330
2220D
100
AcDbEntity
  8
0
  6
CONTINUOUS
100
AcDbLine
 10
28.53897559587887
 20
0.0438802131826428
 30
0.0
 11
30.73121978677781
 21
2.236124404081585
 31
0.0
  0
LINE
  5
22233
330
2220D
100
AcDbEntity
  8
0
  6
CONTINUOUS
100
AcDbLine
 10
29.45140055588722
 20
0.2827859641107988
 30
0.0
 11
30.49231403584965
 21
1.323699444073236
 31
0.0
  0
LINE
  5
22234
330
2220D
100
AcDbEntity
  8
0
  6
CONTINUOUS
100
AcDbLine
 10
19.59027867740337
 20
-0.0000967065718083
 30
0.0
 11
19.55485265190471
 21
0.035329318926844
 31
0.0
  0
LINE
  5
22235
330
2220D
100
AcDbEntity
  8
0
  6
CONTINUOUS
100
AcDbLine
 10
20.26375463176586
 20
-0.0000534518541091
 30
0.0
 11
19.76305575737534
 21
0.5006454225364014
 31
0.0
  0
LINE
  5
22236
330
2220D
100
AcDbEntity
  8
0
  6
CONTINUOUS
100
AcDbLine
 10
20.93723058612834
 20
-0.0000101971364099
 30
0.0
 11
19.97125886284597
 21
0.965961526145958
 31
0.0
  0
LINE
  5
22237
330
2220D
100
AcDbEntity
  8
0
  6
CONTINUOUS
100
AcDbLine
 10
21.25514828313686
 20
0.355591314935257
 30
0.0
 11
20.1794619683166
 21
1.431277629755512
 31
0.0
  0
LINE
  5
22238
330
2220D
100
AcDbEntity
  8
0
  6
CONTINUOUS
100
AcDbLine
 10
21.46338838394921
 20
0.8208704232030986
 30
0.0
 11
20.38766507378723
 21
1.896593733365069
 31
0.0
  0
LINE
  5
22239
330
2220D
100
AcDbEntity
  8
0
  6
CONTINUOUS
100
AcDbLine
 10
21.67162848476155
 20
1.28614953147094
 30
0.0
 11
20.59586817925786
 21
2.361909836974626
 31
0.0
  0
LINE
  5
2223A
330
2220D
100
AcDbEntity
  8
0
  6
CONTINUOUS
100
AcDbLine
 10
21.8798685855739
 20
1.751428639738782
 30
0.0
 11
20.80407128472849
 21
2.827225940584183
 31
0.0
  0
LINE
  5
2223B
330
2220D
100
AcDbEntity
  8
0
  6
CONTINUOUS
100
AcDbLine
 10
22.08810868638624
 20
2.216707748006623
 30
0.0
 11
21.01227439019912
 21
3.292542044193739
 31
0.0
  0
LINE
  5
2223C
330
2220D
100
AcDbEntity
  8
0
  6
CONTINUOUS
100
AcDbLine
 10
22.60993564347543
 20
2.36839999999762
 30
0.0
 11
21.22047749566975
 21
3.757858147803296
 31
0.0
  0
LINE
  5
2223D
330
2220D
100
AcDbEntity
  8
0
  6
CONTINUOUS
100
AcDbLine
 10
23.28345485255561
 20
2.36839999999762
 30
0.0
 11
21.42868060114038
 21
4.223174251412853
 31
0.0
  0
LINE
  5
2223E
330
2220D
100
AcDbEntity
  8
0
  6
CONTINUOUS
100
AcDbLine
 10
26.29227406164219
 20
0.0330999999912356
 30
0.0
 11
25.80009199592872
 21
0.5252820657046957
 31
0.0
  0
LINE
  5
2223F
330
2220D
100
AcDbEntity
  8
0
  6
CONTINUOUS
100
AcDbLine
 10
23.9569740616358
 20
2.36839999999762
 30
0.0
 11
21.63688370661101
 21
4.688490355022409
 31
0.0
  0
LINE
  5
22240
330
2220D
100
AcDbEntity
  8
0
  6
CONTINUOUS
100
AcDbLine
 10
26.96579327072237
 20
0.0330999999912356
 30
0.0
 11
25.2554132311971
 21
1.743480039516508
 31
0.0
  0
LINE
  5
22241
330
2220D
100
AcDbEntity
  8
0
  6
CONTINUOUS
100
AcDbLine
 10
24.63049327071599
 20
2.36839999999762
 30
0.0
 11
23.32789327071731
 21
3.670999999996297
 31
0.0
  0
LINE
  5
22242
330
2220D
100
AcDbEntity
  8
0
  6
CONTINUOUS
100
AcDbLine
 10
22.92098674744635
 20
4.077906523267254
 30
0.0
 11
21.84508681208164
 21
5.153806458631966
 31
0.0
  0
LINE
  5
22243
330
2220D
100
AcDbEntity
  8
0
  6
CONTINUOUS
100
AcDbLine
 10
27.63931247980256
 20
0.0330999999912356
 30
0.0
 11
24.0014124797975
 21
3.670999999996297
 31
0.0
  0
LINE
  5
22244
330
2220D
100
AcDbEntity
  8
0
  6
CONTINUOUS
100
AcDbLine
 10
23.129125600968
 20
4.5432868788258
 30
0.0
 11
22.05328991755227
 21
5.619122562241522
 31
0.0
  0
LINE
  5
22245
330
2220D
100
AcDbEntity
  8
0
  6
CONTINUOUS
100
AcDbLine
 10
28.31283168888275
 20
0.0330999999912356
 30
0.0
 11
24.16488385994816
 21
4.181047828925828
 31
0.0
  0
LINE
  5
22246
330
2220D
100
AcDbEntity
  8
0
  6
CONTINUOUS
100
AcDbLine
 10
23.33726445448964
 20
5.008667234384345
 30
0.0
 11
22.2614930230229
 21
6.084438665851079
 31
0.0
  0
LINE
  5
22247
330
2220D
100
AcDbEntity
  8
0
  6
CONTINUOUS
100
AcDbLine
 10
28.92085740005492
 20
0.0985934978992438
 30
0.0
 11
27.63635089796295
 21
1.383099999991217
 31
0.0
  0
LINE
  5
22248
330
2220D
100
AcDbEntity
  8
0
  6
CONTINUOUS
100
AcDbLine
 10
26.43704649509776
 20
2.582404402856405
 30
0.0
 11
23.61992702019732
 21
5.399523877756844
 31
0.0
  0
LINE
  5
22249
330
2220D
100
AcDbEntity
  8
0
  6
CONTINUOUS
100
AcDbLine
 10
23.54540330801128
 20
5.47404758994289
 30
0.0
 11
22.46969612849353
 21
6.549754769460635
 31
0.0
  0
LINE
  5
2224A
330
2220D
100
AcDbEntity
  8
0
  6
CONTINUOUS
100
AcDbLine
 10
29.42225615078443
 20
0.2707139562499279
 30
0.0
 11
28.30987010704312
 21
1.383099999991234
 31
0.0
  0
LINE
  5
2224B
330
2220D
100
AcDbEntity
  8
0
  6
CONTINUOUS
100
AcDbLine
 10
25.89179548232307
 20
3.801174624711282
 30
0.0
 11
22.67789923396416
 21
7.015070873070191
 31
0.0
  0
LINE
  5
2224C
330
2220D
100
AcDbEntity
  8
0
  6
CONTINUOUS
100
AcDbLine
 10
29.83624534690007
 20
0.5302439692144705
 30
0.0
 11
28.85811781497101
 21
1.508371501143527
 31
0.0
  0
LINE
  5
2224D
330
2220D
100
AcDbEntity
  8
0
  6
CONTINUOUS
100
AcDbLine
 10
25.34654446954838
 20
5.01994484656616
 30
0.0
 11
22.88610233943479
 21
7.480386976679748
 31
0.0
  0
LINE
  5
2224E
330
2220D
100
AcDbEntity
  8
0
  6
CONTINUOUS
100
AcDbLine
 10
30.17865975401872
 20
0.8613487711760022
 30
0.0
 11
29.18888744090175
 21
1.851121084292977
 31
0.0
  0
LINE
  5
2224F
330
2220D
100
AcDbEntity
  8
0
  6
CONTINUOUS
100
AcDbLine
 10
24.80129345677369
 20
6.238715068421037
 30
0.0
 11
23.09430544490542
 21
7.945703080289305
 31
0.0
  0
LINE
  5
22250
330
2220D
100
AcDbEntity
  8
0
  6
CONTINUOUS
100
AcDbLine
 10
30.45496647202376
 20
1.258561262251155
 30
0.0
 11
29.30199999996933
 21
2.411527734305588
 31
0.0
  0
LINE
  5
22251
330
2220D
100
AcDbEntity
  8
0
  6
CONTINUOUS
100
AcDbLine
 10
24.256042443999
 20
7.457485290275915
 30
0.0
 11
23.30250855037605
 21
8.411019183898862
 31
0.0
  0
LINE
  5
22252
330
2220D
100
AcDbEntity
  8
0
  6
CONTINUOUS
100
AcDbLine
 10
30.64868582078271
 20
1.738361122572387
 30
0.0
 11
29.30199999996933
 21
3.085046943385775
 31
0.0
  0
LINE
  5
22253
330
2220D
100
AcDbEntity
  8
0
  6
CONTINUOUS
100
AcDbLine
 10
23.71079143122431
 20
8.676255512130794
 30
0.0
 11
23.51071165584668
 21
8.876335287508416
 31
0.0
  0
LINE
  5
22254
330
2220D
100
AcDbEntity
  8
0
  6
CONTINUOUS
100
AcDbLine
 10
30.73802122914428
 20
2.322544923291007
 30
0.0
 11
29.30199999996933
 21
3.758566152465961
 31
0.0
  0
LINE
  5
22255
330
2220D
100
AcDbEntity
  8
0
  6
CONTINUOUS
100
AcDbLine
 10
30.74199999996924
 20
2.992085361546236
 30
0.0
 11
29.30199999996933
 21
4.432085361546148
 31
0.0
  0
LINE
  5
22256
330
2220D
100
AcDbEntity
  8
0
  6
CONTINUOUS
100
AcDbLine
 10
30.74199999996924
 20
3.665604570626419
 30
0.0
 11
29.30199999996933
 21
5.105604570626333
 31
0.0
  0
LINE
  5
22257
330
2220D
100
AcDbEntity
  8
0
  6
CONTINUOUS
100
AcDbLine
 10
30.74199999996925
 20
4.339123779706602
 30
0.0
 11
29.30199999996933
 21
5.77912377970652
 31
0.0
  0
LINE
  5
22258
330
2220D
100
AcDbEntity
  8
0
  6
CONTINUOUS
100
AcDbLine
 10
30.74199999996925
 20
5.012642988786785
 30
0.0
 11
29.30199999996933
 21
6.452642988786707
 31
0.0
  0
LINE
  5
22259
330
2220D
100
AcDbEntity
  8
0
  6
CONTINUOUS
100
AcDbLine
 10
30.74199999996925
 20
5.68616219786697
 30
0.0
 11
29.30199999996933
 21
7.126162197866894
 31
0.0
  0
LINE
  5
2225A
330
2220D
100
AcDbEntity
  8
0
  6
CONTINUOUS
100
AcDbLine
 10
30.74199999996925
 20
6.359681406947153
 30
0.0
 11
29.30199999996933
 21
7.799681406947081
 31
0.0
  0
LINE
  5
2225B
330
2220D
100
AcDbEntity
  8
0
  6
CONTINUOUS
100
AcDbLine
 10
30.74199999996926
 20
7.033200616027337
 30
0.0
 11
29.30199999996933
 21
8.473200616027269
 31
0.0
  0
LINE
  5
2225C
330
2220D
100
AcDbEntity
  8
0
  6
CONTINUOUS
100
AcDbLine
 10
30.74199999996926
 20
7.706719825107518
 30
0.0
 11
29.68561982508552
 21
8.763099999991255
 31
0.0
  0
LINE
  5
2225D
330
2220D
100
AcDbEntity
  8
0
  6
CONTINUOUS
100
AcDbLine
 10
30.74199999996926
 20
8.380239034187703
 30
0.0
 11
30.35913903416571
 21
8.763099999991255
 31
0.0
  0
ENDBLK
  5
22300
330
2220D
100
AcDbEntity
  8
0
100
AcDbBlockEnd
  0
BLOCK
  5
22301
330
2225E
100
AcDbEntity
  8
0
100
AcDbBlockBegin
  2
*X27
 70
     1
 10
0.0
 20
0.0
 30
0.0
  3
*X27
  1

  0
LINE
  5
2225F
330
2225E
100
AcDbEntity
  8
0
  6
CONTINUOUS
100
AcDbLine
 10
31.64199999996833
 20
8.535058289913598
 30
0.0
 11
31.87004171004599
 21
8.763099999991255
 31
0.0
  0
LINE
  5
22260
330
2225E
100
AcDbEntity
  8
0
  6
CONTINUOUS
100
AcDbLine
 10
31.64199999996833
 20
7.861539080833412
 30
0.0
 11
32.54356091912618
 21
8.763099999991255
 31
0.0
  0
LINE
  5
22261
330
2225E
100
AcDbEntity
  8
0
  6
CONTINUOUS
100
AcDbLine
 10
31.64199999996833
 20
7.188019871753226
 30
0.0
 11
33.08199999996839
 21
8.628019871753281
 31
0.0
  0
LINE
  5
22262
330
2225E
100
AcDbEntity
  8
0
  6
CONTINUOUS
100
AcDbLine
 10
31.64199999996833
 20
6.51450066267304
 30
0.0
 11
33.08199999996839
 21
7.954500662673095
 31
0.0
  0
LINE
  5
22263
330
2225E
100
AcDbEntity
  8
0
  6
CONTINUOUS
100
AcDbLine
 10
31.64199999996833
 20
5.840981453592853
 30
0.0
 11
33.08199999996839
 21
7.280981453592908
 31
0.0
  0
LINE
  5
22264
330
2225E
100
AcDbEntity
  8
0
  6
CONTINUOUS
100
AcDbLine
 10
31.64199999996833
 20
5.167462244512667
 30
0.0
 11
33.08199999996839
 21
6.607462244512721
 31
0.0
  0
LINE
  5
22265
330
2225E
100
AcDbEntity
  8
0
  6
CONTINUOUS
100
AcDbLine
 10
31.64199999996833
 20
4.493943035432481
 30
0.0
 11
33.08199999996839
 21
5.933943035432535
 31
0.0
  0
LINE
  5
22266
330
2225E
100
AcDbEntity
  8
0
  6
CONTINUOUS
100
AcDbLine
 10
31.64199999996833
 20
3.820423826352293
 30
0.0
 11
33.08199999996839
 21
5.260423826352348
 31
0.0
  0
LINE
  5
22267
330
2225E
100
AcDbEntity
  8
0
  6
CONTINUOUS
100
AcDbLine
 10
31.64199999996833
 20
3.146904617272106
 30
0.0
 11
33.08199999996839
 21
4.586904617272161
 31
0.0
  0
LINE
  5
22268
330
2225E
100
AcDbEntity
  8
0
  6
CONTINUOUS
100
AcDbLine
 10
36.23199999996837
 20
8.410423826352325
 30
0.0
 11
36.5846761736073
 21
8.763099999991255
 31
0.0
  0
LINE
  5
22269
330
2225E
100
AcDbEntity
  8
0
  6
CONTINUOUS
100
AcDbLine
 10
36.23199999996837
 20
7.73690461727214
 30
0.0
 11
37.25819538268748
 21
8.763099999991255
 31
0.0
  0
LINE
  5
2226A
330
2225E
100
AcDbEntity
  8
0
  6
CONTINUOUS
100
AcDbLine
 10
31.64257403601376
 20
2.473959444237348
 30
0.0
 11
33.08199999996839
 21
3.913385408191974
 31
0.0
  0
LINE
  5
2226B
330
2225E
100
AcDbEntity
  8
0
  6
CONTINUOUS
100
AcDbLine
 10
36.23199999996837
 20
7.063385408191953
 30
0.0
 11
37.67199999996831
 21
8.503385408191894
 31
0.0
  0
LINE
  5
2226C
330
2225E
100
AcDbEntity
  8
0
  6
CONTINUOUS
100
AcDbLine
 10
31.72013636841932
 20
1.87800256756272
 30
0.0
 11
33.08199999996839
 21
3.239866199111788
 31
0.0
  0
LINE
  5
2226D
330
2225E
100
AcDbEntity
  8
0
  6
CONTINUOUS
100
AcDbLine
 10
36.23199999996837
 20
6.389866199111767
 30
0.0
 11
37.67199999996831
 21
7.829866199111708
 31
0.0
  0
LINE
  5
2226E
330
2225E
100
AcDbEntity
  8
0
  6
CONTINUOUS
100
AcDbLine
 10
31.89042734314753
 20
1.374774333210744
 30
0.0
 11
33.08199999996839
 21
2.566346990031601
 31
0.0
  0
LINE
  5
2226F
330
2225E
100
AcDbEntity
  8
0
  6
CONTINUOUS
100
AcDbLine
 10
36.23199999996837
 20
5.71634699003158
 30
0.0
 11
37.67199999996831
 21
7.156346990031521
 31
0.0
  0
LINE
  5
22270
330
2225E
100
AcDbEntity
  8
0
  6
CONTINUOUS
100
AcDbLine
 10
32.14210568064475
 20
0.952933461627778
 30
0.0
 11
33.18745552475986
 21
1.998283305742888
 31
0.0
  0
LINE
  5
22271
330
2225E
100
AcDbEntity
  8
0
  6
CONTINUOUS
100
AcDbLine
 10
36.23199999996837
 20
5.042827780951393
 30
0.0
 11
37.67199999996831
 21
6.482827780951334
 31
0.0
  0
LINE
  5
22272
330
2225E
100
AcDbEntity
  8
0
  6
CONTINUOUS
100
AcDbLine
 10
32.45820639400955
 20
0.5955149659123915
 30
0.0
 11
33.47242681921943
 21
1.60973539112227
 31
0.0
  0
LINE
  5
22273
330
2225E
100
AcDbEntity
  8
0
  6
CONTINUOUS
100
AcDbLine
 10
36.23199999996837
 20
4.369308571871207
 30
0.0
 11
37.67199999996831
 21
5.809308571871147
 31
0.0
  0
LINE
  5
22274
330
2225E
100
AcDbEntity
  8
0
  6
CONTINUOUS
100
AcDbLine
 10
32.83432456621412
 20
0.2981139290367771
 30
0.0
 11
33.89722476612215
 21
1.361014128944803
 31
0.0
  0
LINE
  5
22275
330
2225E
100
AcDbEntity
  8
0
  6
CONTINUOUS
100
AcDbLine
 10
36.23199999996837
 20
3.69578936279102
 30
0.0
 11
37.67199999996831
 21
5.135789362790962
 31
0.0
  0
LINE
  5
22276
330
2225E
100
AcDbEntity
  8
0
  6
CONTINUOUS
100
AcDbLine
 10
33.2711633111245
 20
0.0614334648669672
 30
0.0
 11
34.43247338014423
 21
1.222743533886696
 31
0.0
  0
LINE
  5
22277
330
2225E
100
AcDbEntity
  8
0
  6
CONTINUOUS
100
AcDbLine
 10
36.23199999996837
 20
3.022270153710834
 30
0.0
 11
37.67199999996831
 21
4.462270153710775
 31
0.0
  0
LINE
  5
22278
330
2225E
100
AcDbEntity
  8
0
  6
CONTINUOUS
100
AcDbLine
 10
33.76515245874577
 20
-0.1180965965919523
 30
0.0
 11
35.1587445516215
 21
1.27549549628378
 31
0.0
  0
LINE
  5
22279
330
2225E
100
AcDbEntity
  8
0
  6
CONTINUOUS
100
AcDbLine
 10
36.21639478609585
 20
2.333145730758136
 30
0.0
 11
37.67199999996831
 21
3.788750944630588
 31
0.0
  0
LINE
  5
2227A
330
2225E
100
AcDbEntity
  8
0
  6
CONTINUOUS
100
AcDbLine
 10
34.34060583368432
 20
-0.2161624307335863
 30
0.0
 11
37.67199999996831
 21
3.115231735550401
 31
0.0
  0
LINE
  5
2227B
330
2225E
100
AcDbEntity
  8
0
  6
CONTINUOUS
100
AcDbLine
 10
35.01698193613905
 20
-0.2133055373590427
 30
0.0
 11
37.66876712070525
 21
2.438479647207154
 31
0.0
  0
LINE
  5
2227C
330
2225E
100
AcDbEntity
  8
0
  6
CONTINUOUS
100
AcDbLine
 10
35.90743367693304
 20
0.0036269943547609
 30
0.0
 11
37.51723902192366
 21
1.613432339345381
 31
0.0
  0
LINE
  5
2227D
330
2225E
100
AcDbEntity
  8
0
  6
CONTINUOUS
100
AcDbLine
 10
32.55309425579761
 20
0.5074718966376706
 30
0.0
 11
32.27784730925847
 21
0.7827188431768102
 31
0.0
  0
LINE
  5
2227E
330
2225E
100
AcDbEntity
  8
0
  6
CONTINUOUS
100
AcDbLine
 10
33.87496468909684
 20
-0.1408793275813673
 30
0.0
 11
31.67993083278052
 21
2.054154528734943
 31
0.0
  0
LINE
  5
2227F
330
2225E
100
AcDbEntity
  8
0
  6
CONTINUOUS
100
AcDbLine
 10
34.64362813207632
 20
-0.2360235614806649
 30
0.0
 11
31.64199999996833
 21
2.765604570627322
 31
0.0
  0
LINE
  5
22280
330
2225E
100
AcDbEntity
  8
0
  6
CONTINUOUS
100
AcDbLine
 10
35.25801106796118
 20
-0.1768872882853429
 30
0.0
 11
31.64199999996833
 21
3.439123779707508
 31
0.0
  0
LINE
  5
22281
330
2225E
100
AcDbEntity
  8
0
  6
CONTINUOUS
100
AcDbLine
 10
35.79065650332146
 20
-0.0360135145654361
 30
0.0
 11
34.54143210838231
 21
1.213210880373721
 31
0.0
  0
LINE
  5
22282
330
2225E
100
AcDbEntity
  8
0
  6
CONTINUOUS
100
AcDbLine
 10
33.08199999996839
 20
2.67264298878764
 30
0.0
 11
31.64199999996833
 21
4.112642988787695
 31
0.0
  0
LINE
  5
22283
330
2225E
100
AcDbEntity
  8
0
  6
CONTINUOUS
100
AcDbLine
 10
36.25975597779143
 20
0.1684062200447833
 30
0.0
 11
35.15395110240023
 21
1.274211095435983
 31
0.0
  0
LINE
  5
22284
330
2225E
100
AcDbEntity
  8
0
  6
CONTINUOUS
100
AcDbLine
 10
33.08199999996839
 20
3.346162197867826
 30
0.0
 11
31.64199999996833
 21
4.786162197867881
 31
0.0
  0
LINE
  5
22285
330
2225E
100
AcDbEntity
  8
0
  6
CONTINUOUS
100
AcDbLine
 10
36.67226329638774
 20
0.4294181105286579
 30
0.0
 11
35.63766478748767
 21
1.464016619428737
 31
0.0
  0
LINE
  5
22286
330
2225E
100
AcDbEntity
  8
0
  6
CONTINUOUS
100
AcDbLine
 10
33.08199999996839
 20
4.019681406948012
 30
0.0
 11
31.64199999996833
 21
5.459681406948068
 31
0.0
  0
LINE
  5
22287
330
2225E
100
AcDbEntity
  8
0
  6
CONTINUOUS
100
AcDbLine
 10
37.01677749710036
 20
0.7584231188962329
 30
0.0
 11
35.99563422741351
 21
1.779566388583076
 31
0.0
  0
LINE
  5
22288
330
2225E
100
AcDbEntity
  8
0
  6
CONTINUOUS
100
AcDbLine
 10
33.08199999996839
 20
4.693200616028199
 30
0.0
 11
31.64199999996833
 21
6.133200616028255
 31
0.0
  0
LINE
  5
22289
330
2225E
100
AcDbEntity
  8
0
  6
CONTINUOUS
100
AcDbLine
 10
37.29859977568887
 20
1.1501200493879
 30
0.0
 11
36.20680593341555
 21
2.241913891661226
 31
0.0
  0
LINE
  5
2228A
330
2225E
100
AcDbEntity
  8
0
  6
CONTINUOUS
100
AcDbLine
 10
33.08199999996839
 20
5.366719825108386
 30
0.0
 11
31.64199999996833
 21
6.80671982510844
 31
0.0
  0
LINE
  5
2228B
330
2225E
100
AcDbEntity
  8
0
  6
CONTINUOUS
100
AcDbLine
 10
37.5148623517228
 20
1.607376682434161
 30
0.0
 11
36.23199999996837
 21
2.890239034188594
 31
0.0
  0
LINE
  5
2228C
330
2225E
100
AcDbEntity
  8
0
  6
CONTINUOUS
100
AcDbLine
 10
33.08199999996839
 20
6.040239034188573
 30
0.0
 11
31.64199999996833
 21
7.480239034188627
 31
0.0
  0
LINE
  5
2228D
330
2225E
100
AcDbEntity
  8
0
  6
CONTINUOUS
100
AcDbLine
 10
37.64705163358367
 20
2.148706609653477
 30
0.0
 11
36.23199999996837
 21
3.56375824326878
 31
0.0
  0
LINE
  5
2228E
330
2225E
100
AcDbEntity
  8
0
  6
CONTINUOUS
100
AcDbLine
 10
33.08199999996839
 20
6.713758243268758
 30
0.0
 11
31.64199999996833
 21
8.153758243268815
 31
0.0
  0
LINE
  5
2228F
330
2225E
100
AcDbEntity
  8
0
  6
CONTINUOUS
100
AcDbLine
 10
37.67199999996831
 20
2.797277452349026
 30
0.0
 11
36.23199999996837
 21
4.237277452348967
 31
0.0
  0
LINE
  5
22290
330
2225E
100
AcDbEntity
  8
0
  6
CONTINUOUS
100
AcDbLine
 10
37.67199999996831
 20
3.470796661429213
 30
0.0
 11
36.23199999996837
 21
4.910796661429154
 31
0.0
  0
LINE
  5
22291
330
2225E
100
AcDbEntity
  8
0
  6
CONTINUOUS
100
AcDbLine
 10
37.67199999996831
 20
4.144315870509399
 30
0.0
 11
36.23199999996837
 21
5.58431587050934
 31
0.0
  0
LINE
  5
22292
330
2225E
100
AcDbEntity
  8
0
  6
CONTINUOUS
100
AcDbLine
 10
33.08199999996839
 20
7.387277452348945
 30
0.0
 11
31.70617745232608
 21
8.763099999991255
 31
0.0
  0
LINE
  5
22293
330
2225E
100
AcDbEntity
  8
0
  6
CONTINUOUS
100
AcDbLine
 10
33.08199999996839
 20
8.060796661429132
 30
0.0
 11
32.37969666140626
 21
8.763099999991255
 31
0.0
  0
LINE
  5
22294
330
2225E
100
AcDbEntity
  8
0
  6
CONTINUOUS
100
AcDbLine
 10
33.08199999996839
 20
8.734315870509318
 30
0.0
 11
33.05321587048645
 21
8.763099999991255
 31
0.0
  0
LINE
  5
22295
330
2225E
100
AcDbEntity
  8
0
  6
CONTINUOUS
100
AcDbLine
 10
37.67199999996831
 20
4.817835079589585
 30
0.0
 11
36.23199999996837
 21
6.257835079589526
 31
0.0
  0
LINE
  5
22296
330
2225E
100
AcDbEntity
  8
0
  6
CONTINUOUS
100
AcDbLine
 10
37.67199999996831
 20
5.491354288669771
 30
0.0
 11
36.23199999996837
 21
6.931354288669713
 31
0.0
  0
LINE
  5
22297
330
2225E
100
AcDbEntity
  8
0
  6
CONTINUOUS
100
AcDbLine
 10
37.67199999996831
 20
6.164873497749958
 30
0.0
 11
36.23199999996837
 21
7.6048734977499
 31
0.0
  0
LINE
  5
22298
330
2225E
100
AcDbEntity
  8
0
  6
CONTINUOUS
100
AcDbLine
 10
37.67199999996831
 20
6.838392706830144
 30
0.0
 11
36.23199999996837
 21
8.278392706830086
 31
0.0
  0
LINE
  5
22299
330
2225E
100
AcDbEntity
  8
0
  6
CONTINUOUS
100
AcDbLine
 10
37.67199999996831
 20
7.511911915910332
 30
0.0
 11
36.42081191588738
 21
8.763099999991255
 31
0.0
  0
LINE
  5
2229A
330
2225E
100
AcDbEntity
  8
0
  6
CONTINUOUS
100
AcDbLine
 10
37.67199999996831
 20
8.185431124990519
 30
0.0
 11
37.09433112496757
 21
8.763099999991255
 31
0.0
  0
ENDBLK
  5
22302
330
2225E
100
AcDbEntity
  8
0
100
AcDbBlockEnd
  0
BLOCK
  5
22303
330
2229B
100
AcDbEntity
  8
0
100
AcDbBlockBegin
  2
*X28
 70
     1
 10
0.0
 20
0.0
 30
0.0
  3
*X28
  1

  0
LINE
  5
2229C
330
2229B
100
AcDbEntity
  8
0
  6
CONTINUOUS
100
AcDbLine
 10
38.60499999996136
 20
8.762866199104765
 30
0.0
 11
38.71672554182345
 21
8.874591740966855
 31
0.0
  0
LINE
  5
2229D
330
2229B
100
AcDbEntity
  8
0
  6
CONTINUOUS
100
AcDbLine
 10
38.60499999996136
 20
8.089346990024577
 30
0.0
 11
39.03418785440363
 21
8.518534844466847
 31
0.0
  0
LINE
  5
2229E
330
2229B
100
AcDbEntity
  8
0
  6
CONTINUOUS
100
AcDbLine
 10
38.60499999996136
 20
7.41582778094439
 30
0.0
 11
39.35165016698382
 21
8.16247794796684
 31
0.0
  0
LINE
  5
2229F
330
2229B
100
AcDbEntity
  8
0
  6
CONTINUOUS
100
AcDbLine
 10
38.60499999996136
 20
6.742308571864204
 30
0.0
 11
39.66911247956399
 21
7.806421051466834
 31
0.0
  0
LINE
  5
222A0
330
2229B
100
AcDbEntity
  8
0
  6
CONTINUOUS
100
AcDbLine
 10
38.60499999996136
 20
6.068789362784018
 30
0.0
 11
39.98657479214418
 21
7.450364154966827
 31
0.0
  0
LINE
  5
222A1
330
2229B
100
AcDbEntity
  8
0
  6
CONTINUOUS
100
AcDbLine
 10
38.60499999996136
 20
5.395270153703832
 30
0.0
 11
40.30403710472435
 21
7.09430725846682
 31
0.0
  0
LINE
  5
222A2
330
2229B
100
AcDbEntity
  8
0
  6
CONTINUOUS
100
AcDbLine
 10
38.60499999996136
 20
4.721750944623645
 30
0.0
 11
40.62149941730453
 21
6.738250361966813
 31
0.0
  0
LINE
  5
222A3
330
2229B
100
AcDbEntity
  8
0
  6
CONTINUOUS
100
AcDbLine
 10
38.60499999996136
 20
4.048231735543458
 30
0.0
 11
40.93896172988471
 21
6.382193465466806
 31
0.0
  0
LINE
  5
222A4
330
2229B
100
AcDbEntity
  8
0
  6
CONTINUOUS
100
AcDbLine
 10
38.60499999996136
 20
3.374712526463272
 30
0.0
 11
40.02599999995994
 21
4.795712526461843
 31
0.0
  0
LINE
  5
222A5
330
2229B
100
AcDbEntity
  8
0
  6
CONTINUOUS
100
AcDbLine
 10
38.60499999996136
 20
2.701193317383085
 30
0.0
 11
40.02599999995994
 21
4.122193317381657
 31
0.0
  0
LINE
  5
222A6
330
2229B
100
AcDbEntity
  8
0
  6
CONTINUOUS
100
AcDbLine
 10
40.28339754687704
 20
5.053110073378947
 30
0.0
 11
41.25642404246489
 21
6.026136568966799
 31
0.0
  0
LINE
  5
222A7
330
2229B
100
AcDbEntity
  8
0
  6
CONTINUOUS
100
AcDbLine
 10
40.60085985945722
 20
4.697053176878939
 30
0.0
 11
41.57388635504507
 21
5.670079672466793
 31
0.0
  0
LINE
  5
222A8
330
2229B
100
AcDbEntity
  8
0
  6
CONTINUOUS
100
AcDbLine
 10
43.57899999995641
 20
8.348712526458318
 30
0.0
 11
43.99338747348935
 21
8.763099999991255
 31
0.0
  0
LINE
  5
222A9
330
2229B
100
AcDbEntity
  8
0
  6
CONTINUOUS
100
AcDbLine
 10
43.57899999995641
 20
7.675193317378131
 30
0.0
 11
44.66690668256953
 21
8.763099999991255
 31
0.0
  0
LINE
  5
222AA
330
2229B
100
AcDbEntity
  8
0
  6
CONTINUOUS
100
AcDbLine
 10
38.60499999996136
 20
2.027674108302898
 30
0.0
 11
40.02599999995994
 21
3.44867410830147
 31
0.0
  0
LINE
  5
222AB
330
2229B
100
AcDbEntity
  8
0
  6
CONTINUOUS
100
AcDbLine
 10
38.60499999996136
 20
1.354154899222712
 30
0.0
 11
40.02599999995994
 21
2.775154899221284
 31
0.0
  0
LINE
  5
222AC
330
2229B
100
AcDbEntity
  8
0
  6
CONTINUOUS
100
AcDbLine
 10
38.60499999996136
 20
0.6806356901425255
 30
0.0
 11
40.02599999995994
 21
2.101635690141098
 31
0.0
  0
LINE
  5
222AD
330
2229B
100
AcDbEntity
  8
0
  6
CONTINUOUS
100
AcDbLine
 10
38.60499999996136
 20
0.0071164810623383
 30
0.0
 11
40.02599999995994
 21
1.428116481060911
 31
0.0
  0
LINE
  5
222AE
330
2229B
100
AcDbEntity
  8
0
  6
CONTINUOUS
100
AcDbLine
 10
40.9183221720374
 20
4.340996280378933
 30
0.0
 11
41.89134866762525
 21
5.314022775966786
 31
0.0
  0
LINE
  5
222AF
330
2229B
100
AcDbEntity
  8
0
  6
CONTINUOUS
100
AcDbLine
 10
41.23578448461758
 20
3.984939383878926
 30
0.0
 11
42.20881098020543
 21
4.957965879466778
 31
0.0
  0
LINE
  5
222B0
330
2229B
100
AcDbEntity
  8
0
  6
CONTINUOUS
100
AcDbLine
 10
41.55324679719776
 20
3.628882487378919
 30
0.0
 11
42.52627329278561
 21
4.601908982966772
 31
0.0
  0
LINE
  5
222B1
330
2229B
100
AcDbEntity
  8
0
  6
CONTINUOUS
100
AcDbLine
 10
41.87070910977793
 20
3.272825590878912
 30
0.0
 11
42.84373560536579
 21
4.245852086466765
 31
0.0
  0
LINE
  5
222B2
330
2229B
100
AcDbEntity
  8
0
  6
CONTINUOUS
100
AcDbLine
 10
43.57899999995641
 20
7.001674108297943
 30
0.0
 11
44.99999999995498
 21
8.422674108296516
 31
0.0
  0
LINE
  5
222B3
330
2229B
100
AcDbEntity
  8
0
  6
CONTINUOUS
100
AcDbLine
 10
43.57899999995641
 20
6.328154899217758
 30
0.0
 11
44.99999999995498
 21
7.749154899216329
 31
0.0
  0
LINE
  5
222B4
330
2229B
100
AcDbEntity
  8
0
  6
CONTINUOUS
100
AcDbLine
 10
43.57899999995641
 20
5.654635690137571
 30
0.0
 11
44.99999999995498
 21
7.075635690136142
 31
0.0
  0
LINE
  5
222B5
330
2229B
100
AcDbEntity
  8
0
  6
CONTINUOUS
100
AcDbLine
 10
43.57899999995641
 20
4.981116481057384
 30
0.0
 11
44.99999999995498
 21
6.402116481055955
 31
0.0
  0
LINE
  5
222B6
330
2229B
100
AcDbEntity
  8
0
  6
CONTINUOUS
100
AcDbLine
 10
39.27140272797921
 20
-0.0000000000000009
 30
0.0
 11
40.02599999995994
 21
0.7545972719807246
 31
0.0
  0
LINE
  5
222B7
330
2229B
100
AcDbEntity
  8
0
  6
CONTINUOUS
100
AcDbLine
 10
39.9449219370594
 20
-0.0000000000000009
 30
0.0
 11
40.02599999995994
 21
0.0810780629005379
 31
0.0
  0
LINE
  5
222B8
330
2229B
100
AcDbEntity
  8
0
  6
CONTINUOUS
100
AcDbLine
 10
42.18817142235812
 20
2.916768694378905
 30
0.0
 11
43.16119791794597
 21
3.889795189966758
 31
0.0
  0
LINE
  5
222B9
330
2229B
100
AcDbEntity
  8
0
  6
CONTINUOUS
100
AcDbLine
 10
42.50563373493829
 20
2.560711797878898
 30
0.0
 11
43.47866023052615
 21
3.533738293466751
 31
0.0
  0
LINE
  5
222BA
330
2229B
100
AcDbEntity
  8
0
  6
CONTINUOUS
100
AcDbLine
 10
43.57899999995641
 20
4.307597271977198
 30
0.0
 11
44.99999999995498
 21
5.728597271975769
 31
0.0
  0
LINE
  5
222BB
330
2229B
100
AcDbEntity
  8
0
  6
CONTINUOUS
100
AcDbLine
 10
43.57899999995641
 20
3.634078062897011
 30
0.0
 11
44.99999999995498
 21
5.055078062895582
 31
0.0
  0
LINE
  5
222BC
330
2229B
100
AcDbEntity
  8
0
  6
CONTINUOUS
100
AcDbLine
 10
42.82309604751848
 20
2.204654901378891
 30
0.0
 11
44.99999999995498
 21
4.381558853815395
 31
0.0
  0
LINE
  5
222BD
330
2229B
100
AcDbEntity
  8
0
  6
CONTINUOUS
100
AcDbLine
 10
43.14055836009865
 20
1.848598004878885
 30
0.0
 11
44.99999999995498
 21
3.70803964473521
 31
0.0
  0
LINE
  5
222BE
330
2229B
100
AcDbEntity
  8
0
  6
CONTINUOUS
100
AcDbLine
 10
43.45802067267883
 20
1.492541108378878
 30
0.0
 11
44.99999999995498
 21
3.034520435655023
 31
0.0
  0
LINE
  5
222BF
330
2229B
100
AcDbEntity
  8
0
  6
CONTINUOUS
100
AcDbLine
 10
43.77548298525902
 20
1.136484211878871
 30
0.0
 11
44.99999999995498
 21
2.361001226574837
 31
0.0
  0
LINE
  5
222C0
330
2229B
100
AcDbEntity
  8
0
  6
CONTINUOUS
100
AcDbLine
 10
44.09294529783919
 20
0.7804273153788639
 30
0.0
 11
44.99999999995498
 21
1.687482017494649
 31
0.0
  0
LINE
  5
222C1
330
2229B
100
AcDbEntity
  8
0
  6
CONTINUOUS
100
AcDbLine
 10
44.41040761041938
 20
0.4243704188788566
 30
0.0
 11
44.99999999995498
 21
1.013962808414463
 31
0.0
  0
LINE
  5
222C2
330
2229B
100
AcDbEntity
  8
0
  6
CONTINUOUS
100
AcDbLine
 10
44.72786992299955
 20
0.0683135223788494
 30
0.0
 11
44.99999999995498
 21
0.340443599334276
 31
0.0
  0
LINE
  5
222C3
330
2229B
100
AcDbEntity
  8
0
  6
CONTINUOUS
100
AcDbLine
 10
39.12223903415696
 20
-0.0000000000000009
 30
0.0
 11
38.60499999996136
 21
0.5172390341955961
 31
0.0
  0
LINE
  5
222C4
330
2229B
100
AcDbEntity
  8
0
  6
CONTINUOUS
100
AcDbLine
 10
39.79575824323715
 20
-0.0000000000000009
 30
0.0
 11
38.60499999996136
 21
1.190758243275783
 31
0.0
  0
LINE
  5
222C5
330
2229B
100
AcDbEntity
  8
0
  6
CONTINUOUS
100
AcDbLine
 10
40.02599999995994
 20
0.443277452357397
 30
0.0
 11
38.60499999996136
 21
1.864277452355969
 31
0.0
  0
LINE
  5
222C6
330
2229B
100
AcDbEntity
  8
0
  6
CONTINUOUS
100
AcDbLine
 10
40.02599999995994
 20
1.116796661437583
 30
0.0
 11
38.60499999996136
 21
2.537796661436155
 31
0.0
  0
LINE
  5
222C7
330
2229B
100
AcDbEntity
  8
0
  6
CONTINUOUS
100
AcDbLine
 10
40.02599999995994
 20
1.79031587051777
 30
0.0
 11
38.60499999996136
 21
3.211315870516341
 31
0.0
  0
LINE
  5
222C8
330
2229B
100
AcDbEntity
  8
0
  6
CONTINUOUS
100
AcDbLine
 10
40.02599999995994
 20
2.463835079597956
 30
0.0
 11
38.60499999996136
 21
3.884835079596527
 31
0.0
  0
LINE
  5
222C9
330
2229B
100
AcDbEntity
  8
0
  6
CONTINUOUS
100
AcDbLine
 10
40.02599999995994
 20
3.137354288678143
 30
0.0
 11
38.60499999996136
 21
4.558354288676714
 31
0.0
  0
LINE
  5
222CA
330
2229B
100
AcDbEntity
  8
0
  6
CONTINUOUS
100
AcDbLine
 10
40.02599999995994
 20
3.810873497758329
 30
0.0
 11
38.60499999996136
 21
5.2318734977569
 31
0.0
  0
LINE
  5
222CB
330
2229B
100
AcDbEntity
  8
0
  6
CONTINUOUS
100
AcDbLine
 10
40.02599999995994
 20
4.484392706838515
 30
0.0
 11
38.60499999996136
 21
5.905392706837086
 31
0.0
  0
LINE
  5
222CC
330
2229B
100
AcDbEntity
  8
0
  6
CONTINUOUS
100
AcDbLine
 10
44.99999999995498
 20
0.183911915923658
 30
0.0
 11
41.53858364506288
 21
3.64532827081576
 31
0.0
  0
LINE
  5
222CD
330
2229B
100
AcDbEntity
  8
0
  6
CONTINUOUS
100
AcDbLine
 10
40.02599999995994
 20
5.157911915918703
 30
0.0
 11
38.60499999996136
 21
6.578911915917274
 31
0.0
  0
LINE
  5
222CE
330
2229B
100
AcDbEntity
  8
0
  6
CONTINUOUS
100
AcDbLine
 10
44.99999999995498
 20
0.8574311250038447
 30
0.0
 11
38.60499999996136
 21
7.25243112499746
 31
0.0
  0
LINE
  5
222CF
330
2229B
100
AcDbEntity
  8
0
  6
CONTINUOUS
100
AcDbLine
 10
44.99999999995498
 20
1.530950334084031
 30
0.0
 11
38.60499999996136
 21
7.925950334077647
 31
0.0
  0
LINE
  5
222D0
330
2229B
100
AcDbEntity
  8
0
  6
CONTINUOUS
100
AcDbLine
 10
44.99999999995498
 20
2.204469543164218
 30
0.0
 11
43.57899999995641
 21
3.625469543162789
 31
0.0
  0
LINE
  5
222D1
330
2229B
100
AcDbEntity
  8
0
  6
CONTINUOUS
100
AcDbLine
 10
41.89876730984767
 20
5.305702233271528
 30
0.0
 11
38.60499999996136
 21
8.599469543157834
 31
0.0
  0
LINE
  5
222D2
330
2229B
100
AcDbEntity
  8
0
  6
CONTINUOUS
100
AcDbLine
 10
44.99999999995498
 20
2.877988752244405
 30
0.0
 11
43.57899999995641
 21
4.298988752242975
 31
0.0
  0
LINE
  5
222D3
330
2229B
100
AcDbEntity
  8
0
  6
CONTINUOUS
100
AcDbLine
 10
44.99999999995498
 20
3.551507961324591
 30
0.0
 11
43.57899999995641
 21
4.972507961323163
 31
0.0
  0
LINE
  5
222D4
330
2229B
100
AcDbEntity
  8
0
  6
CONTINUOUS
100
AcDbLine
 10
44.99999999995498
 20
4.225027170404777
 30
0.0
 11
43.57899999995641
 21
5.646027170403348
 31
0.0
  0
LINE
  5
222D5
330
2229B
100
AcDbEntity
  8
0
  6
CONTINUOUS
100
AcDbLine
 10
44.99999999995498
 20
4.898546379484964
 30
0.0
 11
43.57899999995641
 21
6.319546379483535
 31
0.0
  0
LINE
  5
222D6
330
2229B
100
AcDbEntity
  8
0
  6
CONTINUOUS
100
AcDbLine
 10
44.99999999995498
 20
5.572065588565151
 30
0.0
 11
43.57899999995641
 21
6.993065588563722
 31
0.0
  0
LINE
  5
222D7
330
2229B
100
AcDbEntity
  8
0
  6
CONTINUOUS
100
AcDbLine
 10
44.99999999995498
 20
6.245584797645336
 30
0.0
 11
43.57899999995641
 21
7.666584797643908
 31
0.0
  0
LINE
  5
222D8
330
2229B
100
AcDbEntity
  8
0
  6
CONTINUOUS
100
AcDbLine
 10
44.99999999995498
 20
6.919104006725522
 30
0.0
 11
43.57899999995641
 21
8.340104006724093
 31
0.0
  0
LINE
  5
222D9
330
2229B
100
AcDbEntity
  8
0
  6
CONTINUOUS
100
AcDbLine
 10
44.99999999995498
 20
7.592623215805709
 30
0.0
 11
43.82952321576943
 21
8.763099999991255
 31
0.0
  0
LINE
  5
222DA
330
2229B
100
AcDbEntity
  8
0
  6
CONTINUOUS
100
AcDbLine
 10
44.99999999995498
 20
8.266142424885896
 30
0.0
 11
44.50304242484962
 21
8.763099999991255
 31
0.0
  0
ENDBLK
  5
22304
330
2229B
100
AcDbEntity
  8
0
100
AcDbBlockEnd
  0
BLOCK
  5
22305
330
222DB
100
AcDbEntity
  8
0
100
AcDbBlockBegin
  2
*X29
 70
     1
 10
0.0
 20
0.0
 30
0.0
  3
*X29
  1

  0
LINE
  5
222DC
330
222DB
100
AcDbEntity
  8
0
  6
CONTINUOUS
100
AcDbLine
 10
0.0
 20
8.548461116714023
 30
0.0
 11
0.2146388832772324
 21
8.763099999991255
 31
0.0
  0
LINE
  5
222DD
330
222DB
100
AcDbEntity
  8
0
  6
CONTINUOUS
100
AcDbLine
 10
-0.0000000000000002
 20
7.874941907633837
 30
0.0
 11
0.8881580923574184
 21
8.763099999991255
 31
0.0
  0
LINE
  5
222DE
330
222DB
100
AcDbEntity
  8
0
  6
CONTINUOUS
100
AcDbLine
 10
0.0
 20
7.20142269855365
 30
0.0
 11
1.420999999998572
 21
8.622422698552223
 31
0.0
  0
LINE
  5
222DF
330
222DB
100
AcDbEntity
  8
0
  6
CONTINUOUS
100
AcDbLine
 10
-0.0000000000000001
 20
6.527903489473465
 30
0.0
 11
1.420999999998571
 21
7.948903489472036
 31
0.0
  0
LINE
  5
222E0
330
222DB
100
AcDbEntity
  8
0
  6
CONTINUOUS
100
AcDbLine
 10
-0.0000000000000002
 20
5.854384280393278
 30
0.0
 11
1.420999999998571
 21
7.275384280391849
 31
0.0
  0
LINE
  5
222E1
330
222DB
100
AcDbEntity
  8
0
  6
CONTINUOUS
100
AcDbLine
 10
-0.0000000000000002
 20
5.180865071313091
 30
0.0
 11
1.420999999998571
 21
6.601865071311663
 31
0.0
  0
LINE
  5
222E2
330
222DB
100
AcDbEntity
  8
0
  6
CONTINUOUS
100
AcDbLine
 10
0.0
 20
4.507345862232905
 30
0.0
 11
1.420999999998571
 21
5.928345862231477
 31
0.0
  0
LINE
  5
222E3
330
222DB
100
AcDbEntity
  8
0
  6
CONTINUOUS
100
AcDbLine
 10
-0.0000000000000003
 20
3.833826653152718
 30
0.0
 11
1.420999999998571
 21
5.25482665315129
 31
0.0
  0
LINE
  5
222E4
330
222DB
100
AcDbEntity
  8
0
  6
CONTINUOUS
100
AcDbLine
 10
-0.0000000000000002
 20
3.160307444072532
 30
0.0
 11
1.420999999998571
 21
4.581307444071103
 31
0.0
  0
LINE
  5
222E5
330
222DB
100
AcDbEntity
  8
0
  6
CONTINUOUS
100
AcDbLine
 10
-0.0000000000000001
 20
2.486788234992345
 30
0.0
 11
1.420999999998571
 21
3.907788234990917
 31
0.0
  0
LINE
  5
222E6
330
222DB
100
AcDbEntity
  8
0
  6
CONTINUOUS
100
AcDbLine
 10
-0.0000000000000006
 20
1.813269025912159
 30
0.0
 11
1.420999999998571
 21
3.234269025910731
 31
0.0
  0
LINE
  5
222E7
330
222DB
100
AcDbEntity
  8
0
  6
CONTINUOUS
100
AcDbLine
 10
0.0
 20
1.139749816831973
 30
0.0
 11
1.420999999998571
 21
2.560749816830544
 31
0.0
  0
LINE
  5
222E8
330
222DB
100
AcDbEntity
  8
0
  6
CONTINUOUS
100
AcDbLine
 10
0.0000000000000002
 20
0.466230607751787
 30
0.0
 11
1.420999999998571
 21
1.887230607750358
 31
0.0
  0
LINE
  5
222E9
330
222DB
100
AcDbEntity
  8
0
  6
CONTINUOUS
100
AcDbLine
 10
0.2072886013284003
 20
-0.0000000000000009
 30
0.0
 11
1.420999999998571
 21
1.213711398670171
 31
0.0
  0
LINE
  5
222EA
330
222DB
100
AcDbEntity
  8
0
  6
CONTINUOUS
100
AcDbLine
 10
0.8808078104085864
 20
-0.0000000000000009
 30
0.0
 11
1.420999999998571
 21
0.5401921895899839
 31
0.0
  0
LINE
  5
222EB
330
222DB
100
AcDbEntity
  8
0
  6
CONTINUOUS
100
AcDbLine
 10
0.0581249075061505
 20
-0.0000000000000009
 30
0.0
 11
-0.0000000000000002
 21
0.0581249075061496
 31
0.0
  0
LINE
  5
222EC
330
222DB
100
AcDbEntity
  8
0
  6
CONTINUOUS
100
AcDbLine
 10
0.7316441165863372
 20
-0.0000000000000009
 30
0.0
 11
-0.0000000000000002
 21
0.7316441165863363
 31
0.0
  0
LINE
  5
222ED
330
222DB
100
AcDbEntity
  8
0
  6
CONTINUOUS
100
AcDbLine
 10
1.405163325666523
 20
-0.0000000000000009
 30
0.0
 11
-0.0000000000000002
 21
1.405163325666523
 31
0.0
  0
LINE
  5
222EE
330
222DB
100
AcDbEntity
  8
0
  6
CONTINUOUS
100
AcDbLine
 10
1.420999999998572
 20
0.6576825347481381
 30
0.0
 11
-0.0000000000000001
 21
2.07868253474671
 31
0.0
  0
LINE
  5
222EF
330
222DB
100
AcDbEntity
  8
0
  6
CONTINUOUS
100
AcDbLine
 10
1.420999999998571
 20
1.331201743828324
 30
0.0
 11
-0.0000000000000001
 21
2.752201743826896
 31
0.0
  0
LINE
  5
222F0
330
222DB
100
AcDbEntity
  8
0
  6
CONTINUOUS
100
AcDbLine
 10
1.420999999998571
 20
2.004720952908511
 30
0.0
 11
-0.0000000000000002
 21
3.425720952907082
 31
0.0
  0
LINE
  5
222F1
330
222DB
100
AcDbEntity
  8
0
  6
CONTINUOUS
100
AcDbLine
 10
1.420999999998571
 20
2.678240161988697
 30
0.0
 11
-0.0000000000000001
 21
4.099240161987269
 31
0.0
  0
LINE
  5
222F2
330
222DB
100
AcDbEntity
  8
0
  6
CONTINUOUS
100
AcDbLine
 10
1.420999999998572
 20
3.351759371068884
 30
0.0
 11
0.0
 21
4.772759371067455
 31
0.0
  0
LINE
  5
222F3
330
222DB
100
AcDbEntity
  8
0
  6
CONTINUOUS
100
AcDbLine
 10
1.420999999998571
 20
4.02527858014907
 30
0.0
 11
-0.0000000000000003
 21
5.446278580147642
 31
0.0
  0
LINE
  5
222F4
330
222DB
100
AcDbEntity
  8
0
  6
CONTINUOUS
100
AcDbLine
 10
1.420999999998571
 20
4.698797789229257
 30
0.0
 11
0.0
 21
6.119797789227828
 31
0.0
  0
LINE
  5
222F5
330
222DB
100
AcDbEntity
  8
0
  6
CONTINUOUS
100
AcDbLine
 10
1.420999999998571
 20
5.372316998309444
 30
0.0
 11
-0.0000000000000001
 21
6.793316998308015
 31
0.0
  0
LINE
  5
222F6
330
222DB
100
AcDbEntity
  8
0
  6
CONTINUOUS
100
AcDbLine
 10
1.420999999998572
 20
6.045836207389629
 30
0.0
 11
-0.0000000000000004
 21
7.466836207388202
 31
0.0
  0
LINE
  5
222F7
330
222DB
100
AcDbEntity
  8
0
  6
CONTINUOUS
100
AcDbLine
 10
1.420999999998571
 20
6.719355416469816
 30
0.0
 11
0.0
 21
8.140355416468388
 31
0.0
  0
LINE
  5
222F8
330
222DB
100
AcDbEntity
  8
0
  6
CONTINUOUS
100
AcDbLine
 10
1.420999999998571
 20
7.392874625550003
 30
0.0
 11
0.0507746255573185
 21
8.763099999991255
 31
0.0
  0
LINE
  5
222F9
330
222DB
100
AcDbEntity
  8
0
  6
CONTINUOUS
100
AcDbLine
 10
1.420999999998571
 20
8.06639383463019
 30
0.0
 11
0.7242938346375052
 21
8.763099999991255
 31
0.0
  0
LINE
  5
222FA
330
222DB
100
AcDbEntity
  8
0
  6
CONTINUOUS
100
AcDbLine
 10
1.420999999998571
 20
8.739913043710375
 30
0.0
 11
1.397813043717691
 21
8.763099999991255
 31
0.0
  0
ENDBLK
  5
22306
330
222DB
100
AcDbEntity
  8
0
100
AcDbBlockEnd
  0
ENDSEC
  0
SECTION
  2
ENTITIES
  0
TEXT
  5
1DB93
330
18
100
AcDbEntity
  8
1TEXT
100
AcDbText
 10
521.5039948787517
 20
-478.525441490976
 30
0.0
 40
4.0
  1
表面処理
 72
     1
 11
530.7706615454183
 21
-478.525441490976
 31
0.0
100
AcDbText
  0
LINE
  5
1DB94
330
18
100
AcDbEntity
  8
1DIM
100
AcDbLine
 10
513.3706615454182
 20
-473.025441490976
 30
0.0
 11
583.3706615454182
 21
-473.025441490976
 31
0.0
  0
LINE
  5
1DB95
330
18
100
AcDbEntity
  8
1DIM
100
AcDbLine
 10
513.3706615454182
 20
-487.025441490976
 30
0.0
 11
583.3706615454182
 21
-487.025441490976
 31
0.0
  0
LINE
  5
1DB96
330
18
100
AcDbEntity
  8
1DIM
100
AcDbLine
 10
513.3706615454182
 20
-480.025441490976
 30
0.0
 11
583.3706615454182
 21
-480.025441490976
 31
0.0
  0
LINE
  5
1DB97
330
18
100
AcDbEntity
  8
1DIM
100
AcDbLine
 10
548.3706615454182
 20
-473.025441490976
 30
0.0
 11
548.3706615454178
 21
-487.025441490976
 31
0.0
  0
TEXT
  5
1DB98
330
18
100
AcDbEntity
  8
1TEXT
100
AcDbText
 10
558.9039948787516
 20
-478.525441490976
 30
0.0
 40
4.0
  1
コード
 72
     1
 11
565.7706615454183
 21
-478.525441490976
 31
0.0
100
AcDbText
  0
LINE
  5
1DB99
330
18
100
AcDbEntity
  8
1DIM
100
AcDbLine
 10
513.3706615454182
 20
-487.025441490976
 30
0.0
 11
513.3706615454182
 21
-473.025441490976
 31
0.0
  0
LINE
  5
1DB9A
330
18
100
AcDbEntity
  8
1DIM
100
AcDbLine
 10
583.370661545418
 20
-487.025441490976
 30
0.0
 11
583.3706615454182
 21
-473.025441490976
 31
0.0
  0
TEXT
  5
1DB9B
330
18
100
AcDbEntity
  8
1TEXT
100
AcDbText
 10
513.3706615454182
 20
-468.025441490976
 30
0.0
 40
8.0
  1
SC-641-X
100
AcDbText
  0
TEXT
  5
1DB9C
330
18
100
AcDbEntity
  8
1TEXT
100
AcDbText
 10
521.3039948787516
 20
-485.3607301505003
 30
0.0
 40
4.0
  1
クローム
 72
     1
 11
530.7706615454183
 21
-485.3607301505003
 31
0.0
100
AcDbText
  0
TEXT
  5
1DB9D
330
18
100
AcDbEntity
  8
1TEXT
100
AcDbText
 10
551.5921893231963
 20
-485.7397984746253
 30
0.0
 40
4.0
  1
SC-641-XC
 41
0.85
 72
     1
 11
565.7706615454185
 21
-485.7397984746253
 31
0.0
100
AcDbText
  0
LINE
  5
20E39
330
18
100
AcDbEntity
  8
01
100
AcDbLine
 10
142.0162652188039
 20
-639.8212805242209
 30
0.0
 11
142.0162652188039
 21
-628.8212805838256
 31
0.0
  0
ARC
  5
20E3A
330
18
100
AcDbEntity
  8
01
100
AcDbCircle
 10
150.0162657448857
 20
-628.8212806325872
 30
0.0
 40
8.0
100
AcDbArc
 50
90.0
 51
180.0
  0
ARC
  5
20E3B
330
18
100
AcDbEntity
  8
01
100
AcDbCircle
 10
654.0162512907593
 20
-639.8212806325873
 30
0.0
 40
8.0
100
AcDbArc
 50
270.0
 51
0.0
  0
LINE
  5
20E3C
330
18
100
AcDbEntity
  8
01
100
AcDbLine
 10
662.0162652188039
 20
-628.8212805838257
 30
0.0
 11
662.0162652188039
 21
-639.821280524221
 31
0.0
  0
LINE
  5
20E3D
330
18
100
AcDbEntity
  8
01
100
AcDbLine
 10
654.0162512907593
 20
-647.821279972878
 30
0.0
 11
150.0162665301061
 21
-647.821279972878
 31
0.0
  0
ARC
  5
20E3E
330
18
100
AcDbEntity
  8
01
100
AcDbCircle
 10
654.0162512907593
 20
-628.8212806325873
 30
0.0
 40
8.0
100
AcDbArc
 50
0.0
 51
90.0
  0
ARC
  5
20E3F
330
18
100
AcDbEntity
  8
01
100
AcDbCircle
 10
150.0162657448857
 20
-639.8212806325872
 30
0.0
 40
8.0
100
AcDbArc
 50
180.0
 51
270.0
  0
LINE
  5
20E40
330
18
100
AcDbEntity
  8
01
100
AcDbLine
 10
150.0162665301061
 20
-620.821280203846
 30
0.0
 11
654.0162512907593
 21
-620.821280203846
 31
0.0
  0
LINE
  5
20E6F
330
18
100
AcDbEntity
  8
1CENTER
100
AcDbLine
 10
614.8231807314353
 20
-634.3212308353441
 30
0.0
 11
639.2093270564076
 21
-634.3212308353441
 31
0.0
  0
LINE
  5
20E70
330
18
100
AcDbEntity
  8
1CENTER
100
AcDbLine
 10
618.0162538914349
 20
-637.5143039953446
 30
0.0
 11
618.0162538914349
 21
-631.1281576753454
 31
0.0
  0
LINE
  5
20E71
330
18
100
AcDbEntity
  8
1CENTER
100
AcDbLine
 10
636.016253896408
 20
-637.5143039953446
 30
0.0
 11
636.016253896408
 21
-631.1281576753454
 31
0.0
  0
LINE
  5
20E72
330
18
100
AcDbEntity
  8
1CENTER
100
AcDbLine
 10
627.016253896408
 20
-653.6388683329644
 30
0.0
 11
627.016253896408
 21
-615.861788692969
 31
0.0
  0
LINE
  5
20E73
330
18
100
AcDbEntity
  8
1CENTER
100
AcDbLine
 10
186.0162616450114
 20
-637.5143039953481
 30
0.0
 11
186.0162616450114
 21
-631.1281576753489
 31
0.0
  0
LINE
  5
20E74
330
18
100
AcDbEntity
  8
1CENTER
100
AcDbLine
 10
164.8231884800387
 20
-634.3212308353476
 30
0.0
 11
189.2093348050114
 21
-634.3212308353476
 31
0.0
  0
LINE
  5
20E75
330
18
100
AcDbEntity
  8
1CENTER
100
AcDbLine
 10
168.0162616400387
 20
-637.5143039953481
 30
0.0
 11
168.0162616400387
 21
-631.1281576753489
 31
0.0
  0
LINE
  5
20E76
330
18
100
AcDbEntity
  8
1CENTER
100
AcDbLine
 10
177.0162616400387
 20
-653.6388683329644
 30
0.0
 11
177.0162616400387
 21
-615.861788692969
 31
0.0
  0
LINE
  5
21049
330
18
100
AcDbEntity
  8
1PHANTOM
100
AcDbLine
 10
181.5162616400387
 20
-624.0712308328119
 30
0.0
 11
181.5162616400387
 21
-624.2381023030783
 31
0.0
  0
LINE
  5
2104A
330
18
100
AcDbEntity
  8
1PHANTOM
100
AcDbLine
 10
181.5162616400387
 20
-624.5712308328119
 30
0.0
 11
181.5162616400387
 21
-644.0712308328119
 31
0.0
  0
ARC
  5
2104B
330
18
100
AcDbEntity
  8
1PHANTOM
100
AcDbCircle
 10
181.0162616400387
 20
-644.0712308328119
 30
0.0
 40
0.5
100
AcDbArc
 50
270.0
 51
0.0
  0
ARC
  5
2104C
330
18
100
AcDbEntity
  8
1PHANTOM
100
AcDbCircle
 10
181.0162616400387
 20
-624.5712308328119
 30
0.0
 40
0.5
100
AcDbArc
 50
0.0
 51
90.0
  0
LINE
  5
2104D
330
18
100
AcDbEntity
  8
1PHANTOM
100
AcDbLine
 10
181.5162616400387
 20
-644.4530620254926
 30
0.0
 11
181.5162616400387
 21
-644.5712308328119
 31
0.0
  0
LINE
  5
2104E
330
18
100
AcDbEntity
  8
1PHANTOM
100
AcDbLine
 10
176.5162616400387
 20
-624.0712308328119
 30
0.0
 11
177.5162616400387
 21
-624.0712308328119
 31
0.0
  0
LINE
  5
2104F
330
18
100
AcDbEntity
  8
1PHANTOM
100
AcDbLine
 10
176.5162616400387
 20
-644.5712308328119
 30
0.0
 11
173.0162616400387
 21
-644.5712308328119
 31
0.0
  0
LINE
  5
21050
330
18
100
AcDbEntity
  8
1PHANTOM
100
AcDbLine
 10
172.6575969730575
 20
-644.5712308328119
 30
0.0
 11
172.5162616400387
 21
-644.5712308328119
 31
0.0
  0
LINE
  5
21051
330
18
100
AcDbEntity
  8
1PHANTOM
100
AcDbLine
 10
177.5162616400387
 20
-624.0712308328119
 30
0.0
 11
181.0162616400387
 21
-624.0712308328119
 31
0.0
  0
LINE
  5
21052
330
18
100
AcDbEntity
  8
1PHANTOM
100
AcDbLine
 10
181.3373253924948
 20
-624.0712308328119
 30
0.0
 11
181.5162616400387
 21
-624.0712308328119
 31
0.0
  0
LINE
  5
21053
330
18
100
AcDbEntity
  8
1PHANTOM
100
AcDbLine
 10
172.5162616400387
 20
-624.0712308328119
 30
0.0
 11
172.6915178504702
 21
-624.0712308328119
 31
0.0
  0
LINE
  5
21054
330
18
100
AcDbEntity
  8
1PHANTOM
100
AcDbLine
 10
173.0162616400387
 20
-624.0712308328119
 30
0.0
 11
176.5162616400387
 21
-624.0712308328119
 31
0.0
  0
LINE
  5
21055
330
18
100
AcDbEntity
  8
1PHANTOM
100
AcDbLine
 10
177.5162616400387
 20
-644.5712308328119
 30
0.0
 11
176.5162616400387
 21
-644.5712308328119
 31
0.0
  0
LINE
  5
21056
330
18
100
AcDbEntity
  8
1PHANTOM
100
AcDbLine
 10
181.5162616400387
 20
-644.5712308328119
 30
0.0
 11
181.3933785110216
 21
-644.5712308328119
 31
0.0
  0
LINE
  5
21057
330
18
100
AcDbEntity
  8
1PHANTOM
100
AcDbLine
 10
181.0162616400387
 20
-644.5712308328119
 30
0.0
 11
177.5162616400387
 21
-644.5712308328119
 31
0.0
  0
LINE
  5
21058
330
18
100
AcDbEntity
  8
1PHANTOM
100
AcDbLine
 10
172.5162616400387
 20
-644.5712308328119
 30
0.0
 11
172.5162616400387
 21
-644.4225551195967
 31
0.0
  0
LINE
  5
21059
330
18
100
AcDbEntity
  8
1PHANTOM
100
AcDbLine
 10
172.5162616400387
 20
-644.0712308328119
 30
0.0
 11
172.5162616400387
 21
-624.5712308328119
 31
0.0
  0
ARC
  5
2105A
330
18
100
AcDbEntity
  8
1PHANTOM
100
AcDbCircle
 10
173.0162616400387
 20
-644.0712308328119
 30
0.0
 40
0.5
100
AcDbArc
 50
180.0
 51
270.0
  0
ARC
  5
2105B
330
18
100
AcDbEntity
  8
1PHANTOM
100
AcDbCircle
 10
173.0162616400387
 20
-624.5712308328119
 30
0.0
 40
0.5
100
AcDbArc
 50
90.0
 51
180.0
  0
LINE
  5
2105C
330
18
100
AcDbEntity
  8
1PHANTOM
100
AcDbLine
 10
172.5162616400387
 20
-624.2677221476523
 30
0.0
 11
172.5162616400387
 21
-624.0712308328119
 31
0.0
  0
ARC
  5
2105D
330
18
100
AcDbEntity
  8
1PHANTOM
100
AcDbCircle
 10
188.0162616400387
 20
-626.0712308328119
 30
0.0
 40
3.0
100
AcDbArc
 50
0.0
 51
90.0
  0
LINE
  5
2105E
330
18
100
AcDbEntity
  8
1PHANTOM
100
AcDbLine
 10
163.0162616400387
 20
-642.5712308328119
 30
0.0
 11
163.0162616400387
 21
-626.0712308328119
 31
0.0
  0
ARC
  5
2105F
330
18
100
AcDbEntity
  8
1PHANTOM
100
AcDbCircle
 10
166.0162616400387
 20
-626.0712308328119
 30
0.0
 40
3.0
100
AcDbArc
 50
90.0
 51
180.0
  0
CIRCLE
  5
21060
330
18
100
AcDbEntity
  8
1PHANTOM
100
AcDbCircle
 10
168.0162616400387
 20
-634.3212308328119
 30
0.0
 40
2.249999999999986
  0
LINE
  5
21061
330
18
100
AcDbEntity
  8
1PHANTOM
100
AcDbLine
 10
183.7662616400387
 20
-632.8212308328119
 30
0.0
 11
183.7662616400387
 21
-635.8212308328119
 31
0.0
  0
ARC
  5
21062
330
18
100
AcDbEntity
  8
1PHANTOM
100
AcDbCircle
 10
186.0162616400387
 20
-635.8212308328119
 30
0.0
 40
2.25
100
AcDbArc
 50
180.0
 51
0.0
  0
LINE
  5
21063
330
18
100
AcDbEntity
  8
1PHANTOM
100
AcDbLine
 10
188.2662616400387
 20
-635.8212308328119
 30
0.0
 11
188.2662616400387
 21
-632.8212308328119
 31
0.0
  0
ARC
  5
21064
330
18
100
AcDbEntity
  8
1PHANTOM
100
AcDbCircle
 10
186.0162616400387
 20
-632.8212308328119
 30
0.0
 40
2.25
100
AcDbArc
 50
0.0
 51
180.0
  0
ARC
  5
21065
330
18
100
AcDbEntity
  8
1PHANTOM
100
AcDbCircle
 10
188.0162616400387
 20
-642.5712308328119
 30
0.0
 40
3.000000000000014
100
AcDbArc
 50
270.0
 51
0.0
  0
LINE
  5
21066
330
18
100
AcDbEntity
  8
1PHANTOM
100
AcDbLine
 10
188.0162616400387
 20
-645.5712308328119
 30
0.0
 11
166.0162616400387
 21
-645.5712308328119
 31
0.0
  0
ARC
  5
21067
330
18
100
AcDbEntity
  8
1PHANTOM
100
AcDbCircle
 10
166.0162616400387
 20
-642.5712308328119
 30
0.0
 40
3.000000000000014
100
AcDbArc
 50
180.0
 51
270.0
  0
LINE
  5
21068
330
18
100
AcDbEntity
  8
1PHANTOM
100
AcDbLine
 10
166.0162616400387
 20
-623.0712308328119
 30
0.0
 11
188.0162616400387
 21
-623.0712308328119
 31
0.0
  0
LINE
  5
21069
330
18
100
AcDbEntity
  8
1PHANTOM
100
AcDbLine
 10
191.0162616400387
 20
-626.0712308328119
 30
0.0
 11
191.0162616400387
 21
-642.5712308328119
 31
0.0
  0
LINE
  5
2106A
330
18
100
AcDbEntity
  8
1PHANTOM
100
AcDbLine
 10
631.516253896408
 20
-624.0712308328084
 30
0.0
 11
631.516253896408
 21
-624.2381023030748
 31
0.0
  0
LINE
  5
2106B
330
18
100
AcDbEntity
  8
1PHANTOM
100
AcDbLine
 10
631.516253896408
 20
-624.5712308328084
 30
0.0
 11
631.516253896408
 21
-644.0712308328084
 31
0.0
  0
ARC
  5
2106C
330
18
100
AcDbEntity
  8
1PHANTOM
100
AcDbCircle
 10
631.016253896408
 20
-644.0712308328084
 30
0.0
 40
0.5
100
AcDbArc
 50
270.0
 51
0.0
  0
ARC
  5
2106D
330
18
100
AcDbEntity
  8
1PHANTOM
100
AcDbCircle
 10
631.016253896408
 20
-624.5712308328084
 30
0.0
 40
0.5
100
AcDbArc
 50
0.0
 51
90.0
  0
LINE
  5
2106E
330
18
100
AcDbEntity
  8
1PHANTOM
100
AcDbLine
 10
631.516253896408
 20
-644.4530620254891
 30
0.0
 11
631.516253896408
 21
-644.5712308328084
 31
0.0
  0
LINE
  5
2106F
330
18
100
AcDbEntity
  8
1PHANTOM
100
AcDbLine
 10
626.516253896408
 20
-624.0712308328084
 30
0.0
 11
627.516253896408
 21
-624.0712308328084
 31
0.0
  0
LINE
  5
21070
330
18
100
AcDbEntity
  8
1PHANTOM
100
AcDbLine
 10
626.516253896408
 20
-644.5712308328084
 30
0.0
 11
623.016253896408
 21
-644.5712308328084
 31
0.0
  0
LINE
  5
21071
330
18
100
AcDbEntity
  8
1PHANTOM
100
AcDbLine
 10
622.6575892294268
 20
-644.5712308328084
 30
0.0
 11
622.516253896408
 21
-644.5712308328084
 31
0.0
  0
LINE
  5
21072
330
18
100
AcDbEntity
  8
1PHANTOM
100
AcDbLine
 10
627.516253896408
 20
-624.0712308328084
 30
0.0
 11
631.016253896408
 21
-624.0712308328084
 31
0.0
  0
LINE
  5
21073
330
18
100
AcDbEntity
  8
1PHANTOM
100
AcDbLine
 10
631.3373176488641
 20
-624.0712308328084
 30
0.0
 11
631.516253896408
 21
-624.0712308328084
 31
0.0
  0
LINE
  5
21074
330
18
100
AcDbEntity
  8
1PHANTOM
100
AcDbLine
 10
622.516253896408
 20
-624.0712308328084
 30
0.0
 11
622.6915101068395
 21
-624.0712308328084
 31
0.0
  0
LINE
  5
21075
330
18
100
AcDbEntity
  8
1PHANTOM
100
AcDbLine
 10
623.016253896408
 20
-624.0712308328084
 30
0.0
 11
626.516253896408
 21
-624.0712308328084
 31
0.0
  0
LINE
  5
21076
330
18
100
AcDbEntity
  8
1PHANTOM
100
AcDbLine
 10
627.516253896408
 20
-644.5712308328084
 30
0.0
 11
626.516253896408
 21
-644.5712308328084
 31
0.0
  0
LINE
  5
21077
330
18
100
AcDbEntity
  8
1PHANTOM
100
AcDbLine
 10
631.516253896408
 20
-644.5712308328084
 30
0.0
 11
631.3933707673909
 21
-644.5712308328084
 31
0.0
  0
LINE
  5
21078
330
18
100
AcDbEntity
  8
1PHANTOM
100
AcDbLine
 10
631.016253896408
 20
-644.5712308328084
 30
0.0
 11
627.516253896408
 21
-644.5712308328084
 31
0.0
  0
LINE
  5
21079
330
18
100
AcDbEntity
  8
1PHANTOM
100
AcDbLine
 10
622.516253896408
 20
-644.5712308328084
 30
0.0
 11
622.516253896408
 21
-644.4225551195932
 31
0.0
  0
LINE
  5
2107A
330
18
100
AcDbEntity
  8
1PHANTOM
100
AcDbLine
 10
622.516253896408
 20
-644.0712308328084
 30
0.0
 11
622.516253896408
 21
-624.5712308328084
 31
0.0
  0
ARC
  5
2107B
330
18
100
AcDbEntity
  8
1PHANTOM
100
AcDbCircle
 10
623.016253896408
 20
-644.0712308328084
 30
0.0
 40
0.5
100
AcDbArc
 50
180.0
 51
270.0
  0
ARC
  5
2107C
330
18
100
AcDbEntity
  8
1PHANTOM
100
AcDbCircle
 10
623.016253896408
 20
-624.5712308328084
 30
0.0
 40
0.5
100
AcDbArc
 50
90.0
 51
180.0
  0
LINE
  5
2107D
330
18
100
AcDbEntity
  8
1PHANTOM
100
AcDbLine
 10
622.516253896408
 20
-624.2677221476488
 30
0.0
 11
622.516253896408
 21
-624.0712308328084
 31
0.0
  0
ARC
  5
2107E
330
18
100
AcDbEntity
  8
1PHANTOM
100
AcDbCircle
 10
638.016253896408
 20
-626.0712308328084
 30
0.0
 40
3.0
100
AcDbArc
 50
0.0
 51
90.0
  0
LINE
  5
2107F
330
18
100
AcDbEntity
  8
1PHANTOM
100
AcDbLine
 10
613.016253896408
 20
-642.5712308328084
 30
0.0
 11
613.016253896408
 21
-626.0712308328084
 31
0.0
  0
ARC
  5
21080
330
18
100
AcDbEntity
  8
1PHANTOM
100
AcDbCircle
 10
616.016253896408
 20
-626.0712308328084
 30
0.0
 40
3.0
100
AcDbArc
 50
90.0
 51
180.0
  0
CIRCLE
  5
21081
330
18
100
AcDbEntity
  8
1PHANTOM
100
AcDbCircle
 10
618.016253896408
 20
-634.3212308328084
 30
0.0
 40
2.249999999999986
  0
LINE
  5
21082
330
18
100
AcDbEntity
  8
1PHANTOM
100
AcDbLine
 10
633.766253896408
 20
-632.8212308328084
 30
0.0
 11
633.766253896408
 21
-635.8212308328084
 31
0.0
  0
ARC
  5
21083
330
18
100
AcDbEntity
  8
1PHANTOM
100
AcDbCircle
 10
636.016253896408
 20
-635.8212308328084
 30
0.0
 40
2.25
100
AcDbArc
 50
180.0
 51
0.0
  0
LINE
  5
21084
330
18
100
AcDbEntity
  8
1PHANTOM
100
AcDbLine
 10
638.266253896408
 20
-635.8212308328084
 30
0.0
 11
638.266253896408
 21
-632.8212308328084
 31
0.0
  0
ARC
  5
21085
330
18
100
AcDbEntity
  8
1PHANTOM
100
AcDbCircle
 10
636.016253896408
 20
-632.8212308328084
 30
0.0
 40
2.25
100
AcDbArc
 50
0.0
 51
180.0
  0
ARC
  5
21086
330
18
100
AcDbEntity
  8
1PHANTOM
100
AcDbCircle
 10
638.016253896408
 20
-642.5712308328084
 30
0.0
 40
3.000000000000014
100
AcDbArc
 50
270.0
 51
0.0
  0
LINE
  5
21087
330
18
100
AcDbEntity
  8
1PHANTOM
100
AcDbLine
 10
638.016253896408
 20
-645.5712308328084
 30
0.0
 11
616.016253896408
 21
-645.5712308328084
 31
0.0
  0
ARC
  5
21088
330
18
100
AcDbEntity
  8
1PHANTOM
100
AcDbCircle
 10
616.016253896408
 20
-642.5712308328084
 30
0.0
 40
3.000000000000014
100
AcDbArc
 50
180.0
 51
270.0
  0
LINE
  5
21089
330
18
100
AcDbEntity
  8
1PHANTOM
100
AcDbLine
 10
616.016253896408
 20
-623.0712308328084
 30
0.0
 11
638.016253896408
 21
-623.0712308328084
 31
0.0
  0
LINE
  5
2108A
330
18
100
AcDbEntity
  8
1PHANTOM
100
AcDbLine
 10
641.016253896408
 20
-626.0712308328084
 30
0.0
 11
641.016253896408
 21
-642.5712308328084
 31
0.0
  0
LINE
  5
21373
330
18
100
AcDbEntity
  8
01
100
AcDbLine
 10
142.5162657448857
 20
-570.8213305002779
 30
0.0
 11
661.5159783333568
 21
-570.8213305002779
 31
0.0
  0
ARC
  5
21374
330
18
100
AcDbEntity
  8
01
100
AcDbCircle
 10
661.5162512907593
 20
-571.3213304257722
 30
0.0
 40
0.5000000000000568
100
AcDbArc
 50
0.0
 51
90.0
  0
ARC
  5
21375
330
18
100
AcDbEntity
  8
01
100
AcDbCircle
 10
142.5162657448857
 20
-571.3213304257721
 30
0.0
 40
0.5
100
AcDbArc
 50
90.0
 51
180.0
  0
LINE
  5
21376
330
18
100
AcDbEntity
  8
01
100
AcDbLine
 10
662.0162652188039
 20
-571.3213296509118
 30
0.0
 11
662.0162652188039
 21
-575.3213303065629
 31
0.0
  0
LINE
  5
21377
330
18
100
AcDbEntity
  8
01
100
AcDbLine
 10
142.0162652188039
 20
-575.3213303065628
 30
0.0
 11
142.0162652188039
 21
-571.3213296509117
 31
0.0
  0
ARC
  5
21378
330
18
100
AcDbEntity
  8
01
100
AcDbCircle
 10
661.5162512907593
 20
-575.3213304257722
 30
0.0
 40
0.5
100
AcDbArc
 50
270.0
 51
0.0
  0
LINE
  5
21379
330
18
100
AcDbEntity
  8
01
100
AcDbLine
 10
661.5162512907593
 20
-575.8213313198418
 30
0.0
 11
142.5162657448857
 21
-575.8213313198418
 31
0.0
  0
ARC
  5
2137A
330
18
100
AcDbEntity
  8
01
100
AcDbCircle
 10
142.5162657448857
 20
-575.3213304257721
 30
0.0
 40
0.5
100
AcDbArc
 50
180.0
 51
270.0
  0
LINE
  5
2137B
330
18
100
AcDbEntity
  8
01
100
AcDbLine
 10
193.0162661277748
 20
-535.8213303512663
 30
0.0
 11
193.0162661277748
 21
-569.8213303363651
 31
0.0
  0
LINE
  5
2137C
330
18
100
AcDbEntity
  8
01
100
AcDbLine
 10
161.0162664705015
 20
-569.8213303363651
 30
0.0
 11
161.0162664705015
 21
-535.8213303512663
 31
0.0
  0
LINE
  5
2137D
330
18
100
AcDbEntity
  8
01
100
AcDbLine
 10
161.0162664705015
 20
-535.8213303512663
 30
0.0
 11
193.0162661277748
 21
-535.8213303512663
 31
0.0
  0
ARC
  5
2137E
330
18
100
AcDbEntity
  8
01
100
AcDbCircle
 10
192.0162657448857
 20
-569.8213304257721
 30
0.0
 40
1.000000000000028
100
AcDbArc
 50
270.0
 51
0.0
  0
ARC
  5
2137F
330
18
100
AcDbEntity
  8
01
100
AcDbCircle
 10
162.0162657448857
 20
-569.8213304257721
 30
0.0
 40
1.000000000000028
100
AcDbArc
 50
180.0
 51
270.0
  0
LINE
  5
21380
330
18
100
AcDbEntity
  8
01
100
AcDbLine
 10
643.0162416153646
 20
-535.8213303512664
 30
0.0
 11
643.0162416153646
 21
-569.8213303363652
 31
0.0
  0
LINE
  5
21381
330
18
100
AcDbEntity
  8
01
100
AcDbLine
 10
611.0162661724783
 20
-569.8213303363652
 30
0.0
 11
611.0162661724783
 21
-535.8213303512664
 31
0.0
  0
LINE
  5
21382
330
18
100
AcDbEntity
  8
01
100
AcDbLine
 10
611.0162661724783
 20
-535.8213303512664
 30
0.0
 11
643.0162416153646
 21
-535.8213303512664
 31
0.0
  0
ARC
  5
21383
330
18
100
AcDbEntity
  8
01
100
AcDbCircle
 10
642.0162512907593
 20
-569.8213304257722
 30
0.0
 40
1.000000000000028
100
AcDbArc
 50
270.0
 51
0.0
  0
ARC
  5
21384
330
18
100
AcDbEntity
  8
01
100
AcDbCircle
 10
612.0162512907593
 20
-569.8213304257722
 30
0.0
 40
1.000000000000028
100
AcDbArc
 50
180.0
 51
270.0
  0
LINE
  5
2138A
330
18
100
AcDbEntity
  8
1PHANTOM
100
AcDbLine
 10
637.5163039200099
 20
-539.3213303512664
 30
0.0
 11
638.2662538939214
 21
-539.3213303512664
 31
0.0
  0
LINE
  5
2138B
330
18
100
AcDbEntity
  8
1PHANTOM
100
AcDbLine
 10
637.5163039200099
 20
-539.3213303512664
 30
0.0
 11
638.2663039200118
 21
-539.3213303512664
 31
0.0
  0
LINE
  5
2138C
330
18
100
AcDbEntity
  8
1PHANTOM
100
AcDbLine
 10
636.0163039200118
 20
-505.3213303513205
 30
0.0
 11
634.5163039200118
 21
-510.6213268611825
 31
0.0
  0
LINE
  5
2138D
330
18
100
AcDbEntity
  8
1PHANTOM
100
AcDbLine
 10
634.5163039200118
 20
-510.6213268611825
 30
0.0
 11
634.5163039200118
 21
-539.3213303512664
 31
0.0
  0
LINE
  5
2138E
330
18
100
AcDbEntity
  8
1PHANTOM
100
AcDbLine
 10
634.5163039200118
 20
-539.3213303512664
 30
0.0
 11
634.5163039200118
 21
-540.3213268610741
 31
0.0
  0
LINE
  5
2138F
330
18
100
AcDbEntity
  8
1PHANTOM
100
AcDbLine
 10
636.0163039200118
 20
-505.3213303513205
 30
0.0
 11
637.5163039200118
 21
-510.6213338415662
 31
0.0
  0
LINE
  5
21390
330
18
100
AcDbEntity
  8
1PHANTOM
100
AcDbLine
 10
632.5162573841146
 20
-540.3213222073762
 30
0.0
 11
634.5163039200118
 21
-540.3213268610741
 31
0.0
  0
LINE
  5
21391
330
18
100
AcDbEntity
  8
1PHANTOM
100
AcDbLine
 10
637.5163039200118
 20
-510.6213338415662
 30
0.0
 11
637.5163039200118
 21
-539.3213303512664
 31
0.0
  0
LINE
  5
21392
330
18
100
AcDbEntity
  8
1PHANTOM
100
AcDbLine
 10
637.5163039200118
 20
-539.3213303512664
 30
0.0
 11
637.5163039200118
 21
-540.3213338414587
 31
0.0
  0
LINE
  5
21393
330
18
100
AcDbEntity
  8
1PHANTOM
100
AcDbLine
 10
632.5162573841146
 20
-540.3213222073762
 30
0.0
 11
632.5162573841146
 21
-541.4213256975715
 31
0.0
  0
LINE
  5
21394
330
18
100
AcDbEntity
  8
1PHANTOM
100
AcDbLine
 10
637.5163039200118
 20
-540.3213338414587
 30
0.0
 11
639.5162573841146
 21
-540.3213384949402
 31
0.0
  0
ARC
  5
21395
330
18
100
AcDbEntity
  8
1PHANTOM
100
AcDbCircle
 10
634.0162573841146
 20
-541.4213256975715
 30
0.0
 40
1.5
100
AcDbArc
 50
180.0
 51
269.999866684475
  0
LINE
  5
21396
330
18
100
AcDbEntity
  8
1PHANTOM
100
AcDbLine
 10
639.5162573841146
 20
-540.3213384949402
 30
0.0
 11
639.5162573841146
 21
-541.421335004751
 31
0.0
  0
LINE
  5
21397
330
18
100
AcDbEntity
  8
1PHANTOM
100
AcDbLine
 10
634.0162538939214
 20
-542.9213256975675
 30
0.0
 11
638.0162538939214
 21
-542.9213350047469
 31
0.0
  0
ARC
  5
21398
330
18
100
AcDbEntity
  8
1PHANTOM
100
AcDbCircle
 10
638.0162573841146
 20
-541.421335004751
 30
0.0
 40
1.5
100
AcDbArc
 50
269.999866684475
 51
0.0
  0
LINE
  5
21399
330
18
100
AcDbEntity
  8
1PHANTOM
100
AcDbLine
 10
634.9219335701193
 20
-507.4213278049986
 30
0.0
 11
636.8842686589953
 21
-506.6213323709474
 31
0.0
  0
LINE
  5
2139A
330
18
100
AcDbEntity
  8
1PHANTOM
100
AcDbLine
 10
636.8842686589953
 20
-506.6213323709474
 30
0.0
 11
636.2959920839523
 21
-506.3095625146955
 31
0.0
  0
LINE
  5
2139B
330
18
100
AcDbEntity
  8
1PHANTOM
100
AcDbLine
 10
634.0163039200118
 20
-534.8213256977886
 30
0.0
 11
638.0163039200118
 21
-534.0213350049701
 31
0.0
  0
LINE
  5
2139C
330
18
100
AcDbEntity
  8
1PHANTOM
100
AcDbLine
 10
634.0163039200118
 20
-523.6213256977842
 30
0.0
 11
638.0163039200118
 21
-522.8213350049616
 31
0.0
  0
LINE
  5
2139D
330
18
100
AcDbEntity
  8
1PHANTOM
100
AcDbLine
 10
634.0163039200118
 20
-515.4213256977839
 30
0.0
 11
638.0163039200118
 21
-514.6213350049613
 31
0.0
  0
LINE
  5
2139E
330
18
100
AcDbEntity
  8
1PHANTOM
100
AcDbLine
 10
638.0163039200118
 20
-514.6213350049613
 30
0.0
 11
637.5163039200118
 21
-514.521333841564
 31
0.0
  0
LINE
  5
2139F
330
18
100
AcDbEntity
  8
1PHANTOM
100
AcDbLine
 10
634.5163039200118
 20
-513.9213268611813
 30
0.0
 11
634.0163039200118
 21
-513.821325697784
 31
0.0
  0
LINE
  5
213A0
330
18
100
AcDbEntity
  8
1PHANTOM
100
AcDbLine
 10
638.0163039200118
 20
-522.8213350049616
 30
0.0
 11
637.5163039200118
 21
-522.7213338415643
 31
0.0
  0
LINE
  5
213A1
330
18
100
AcDbEntity
  8
1PHANTOM
100
AcDbLine
 10
638.0163039200118
 20
-516.2213350049612
 30
0.0
 11
637.5163039200118
 21
-516.1213338415644
 31
0.0
  0
LINE
  5
213A2
330
18
100
AcDbEntity
  8
1PHANTOM
100
AcDbLine
 10
634.5163039200118
 20
-515.5213268611813
 30
0.0
 11
634.0163039200118
 21
-515.4213256977839
 31
0.0
  0
LINE
  5
213A3
330
18
100
AcDbEntity
  8
1PHANTOM
100
AcDbLine
 10
634.5163039200118
 20
-517.1213268611812
 30
0.0
 11
634.0163039200118
 21
-517.0213256977838
 31
0.0
  0
LINE
  5
213A4
330
18
100
AcDbEntity
  8
1PHANTOM
100
AcDbLine
 10
634.0163039200118
 20
-517.0213256977838
 30
0.0
 11
638.0163039200118
 21
-516.2213350049612
 31
0.0
  0
LINE
  5
213A5
330
18
100
AcDbEntity
  8
1PHANTOM
100
AcDbLine
 10
637.3370827634019
 20
-508.2213334245532
 30
0.0
 11
636.7853332995976
 21
-508.0385692819252
 31
0.0
  0
LINE
  5
213A6
330
18
100
AcDbEntity
  8
1PHANTOM
100
AcDbLine
 10
638.0163039200118
 20
-511.4213350049615
 30
0.0
 11
637.5163039200118
 21
-511.3213338415642
 31
0.0
  0
LINE
  5
213A7
330
18
100
AcDbEntity
  8
1PHANTOM
100
AcDbLine
 10
638.0163039200118
 20
-513.0213350049614
 30
0.0
 11
637.5163039200118
 21
-512.9213338415645
 31
0.0
  0
LINE
  5
213A8
330
18
100
AcDbEntity
  8
1PHANTOM
100
AcDbLine
 10
637.7898968678085
 20
-509.8213344781586
 30
0.0
 11
637.2533031325358
 21
-509.692063780529
 31
0.0
  0
LINE
  5
213A9
330
18
100
AcDbEntity
  8
1PHANTOM
100
AcDbLine
 10
634.9372185172208
 20
-509.1340962637444
 30
0.0
 11
634.4691200620703
 21
-509.0213267513943
 31
0.0
  0
LINE
  5
213AA
330
18
100
AcDbEntity
  8
1PHANTOM
100
AcDbLine
 10
634.5163039200118
 20
-512.321326861181
 30
0.0
 11
634.0163039200118
 21
-512.2213256977841
 31
0.0
  0
LINE
  5
213AB
330
18
100
AcDbEntity
  8
1PHANTOM
100
AcDbLine
 10
634.5163039200118
 20
-510.7213268611811
 30
0.0
 11
634.0163039200118
 21
-510.6213256977842
 31
0.0
  0
LINE
  5
213AC
330
18
100
AcDbEntity
  8
1PHANTOM
100
AcDbLine
 10
635.3791054107489
 20
-507.5727636014387
 30
0.0
 11
634.9219335701193
 21
-507.4213278049986
 31
0.0
  0
LINE
  5
213AD
330
18
100
AcDbEntity
  8
1PHANTOM
100
AcDbLine
 10
634.4691200620703
 20
-509.0213267513943
 30
0.0
 11
637.3370827634019
 21
-508.2213334245532
 31
0.0
  0
LINE
  5
213AE
330
18
100
AcDbEntity
  8
1PHANTOM
100
AcDbLine
 10
634.0163039200118
 20
-512.2213256977841
 30
0.0
 11
638.0163039200118
 21
-511.4213350049615
 31
0.0
  0
LINE
  5
213AF
330
18
100
AcDbEntity
  8
1PHANTOM
100
AcDbLine
 10
634.0163039200118
 20
-510.6213256977842
 30
0.0
 11
637.7898968678085
 21
-509.8213344781586
 31
0.0
  0
LINE
  5
213B0
330
18
100
AcDbEntity
  8
1PHANTOM
100
AcDbLine
 10
634.0163039200118
 20
-513.821325697784
 30
0.0
 11
638.0163039200118
 21
-513.0213350049614
 31
0.0
  0
LINE
  5
213B1
330
18
100
AcDbEntity
  8
1PHANTOM
100
AcDbLine
 10
634.0163039200118
 20
-531.6213256977883
 30
0.0
 11
638.0163039200118
 21
-530.8213350049703
 31
0.0
  0
LINE
  5
213B2
330
18
100
AcDbEntity
  8
1PHANTOM
100
AcDbLine
 10
638.0163039200118
 20
-530.8213350049703
 30
0.0
 11
637.5163039200118
 21
-530.7213338415725
 31
0.0
  0
LINE
  5
213B3
330
18
100
AcDbEntity
  8
1PHANTOM
100
AcDbLine
 10
634.5163039200118
 20
-530.1213268611816
 30
0.0
 11
634.0163039200118
 21
-530.0213256977838
 31
0.0
  0
LINE
  5
213B4
330
18
100
AcDbEntity
  8
1PHANTOM
100
AcDbLine
 10
638.0163039200118
 20
-532.4213350049702
 30
0.0
 11
637.5163039200118
 21
-532.3213338415724
 31
0.0
  0
LINE
  5
213B5
330
18
100
AcDbEntity
  8
1PHANTOM
100
AcDbLine
 10
638.0163039200118
 20
-534.0213350049701
 30
0.0
 11
637.5163039200118
 21
-533.9213338415727
 31
0.0
  0
LINE
  5
213B6
330
18
100
AcDbEntity
  8
1PHANTOM
100
AcDbLine
 10
634.5163039200118
 20
-531.7213268611861
 30
0.0
 11
634.0163039200118
 21
-531.6213256977883
 31
0.0
  0
LINE
  5
213B7
330
18
100
AcDbEntity
  8
1PHANTOM
100
AcDbLine
 10
634.5163039200118
 20
-533.321326861186
 30
0.0
 11
634.0163039200118
 21
-533.2213256977886
 31
0.0
  0
LINE
  5
213B8
330
18
100
AcDbEntity
  8
1PHANTOM
100
AcDbLine
 10
634.0163039200118
 20
-533.2213256977886
 30
0.0
 11
638.0163039200118
 21
-532.4213350049702
 31
0.0
  0
LINE
  5
213B9
330
18
100
AcDbEntity
  8
1PHANTOM
100
AcDbLine
 10
638.0163039200118
 20
-526.021335004966
 30
0.0
 11
637.5163039200118
 21
-525.9213338415682
 31
0.0
  0
LINE
  5
213BA
330
18
100
AcDbEntity
  8
1PHANTOM
100
AcDbLine
 10
638.0163039200118
 20
-524.4213350049615
 30
0.0
 11
637.5163039200118
 21
-524.3213338415642
 31
0.0
  0
LINE
  5
213BB
330
18
100
AcDbEntity
  8
1PHANTOM
100
AcDbLine
 10
638.0163039200118
 20
-529.2213350049658
 30
0.0
 11
637.5163039200118
 21
-529.121333841568
 31
0.0
  0
LINE
  5
213BC
330
18
100
AcDbEntity
  8
1PHANTOM
100
AcDbLine
 10
638.0163039200118
 20
-527.6213350049659
 30
0.0
 11
637.5163039200118
 21
-527.5213338415681
 31
0.0
  0
LINE
  5
213BD
330
18
100
AcDbEntity
  8
1PHANTOM
100
AcDbLine
 10
634.5163039200118
 20
-523.7213268611811
 30
0.0
 11
634.0163039200118
 21
-523.6213256977842
 31
0.0
  0
LINE
  5
213BE
330
18
100
AcDbEntity
  8
1PHANTOM
100
AcDbLine
 10
634.5163039200118
 20
-525.3213268611819
 30
0.0
 11
634.0163039200118
 21
-525.2213256977841
 31
0.0
  0
LINE
  5
213BF
330
18
100
AcDbEntity
  8
1PHANTOM
100
AcDbLine
 10
634.5163039200118
 20
-528.5213268611817
 30
0.0
 11
634.0163039200118
 21
-528.4213256977844
 31
0.0
  0
LINE
  5
213C0
330
18
100
AcDbEntity
  8
1PHANTOM
100
AcDbLine
 10
634.5163039200118
 20
-526.9213268611818
 30
0.0
 11
634.0163039200118
 21
-526.821325697784
 31
0.0
  0
LINE
  5
213C1
330
18
100
AcDbEntity
  8
1PHANTOM
100
AcDbLine
 10
634.0163039200118
 20
-526.821325697784
 30
0.0
 11
638.0163039200118
 21
-526.021335004966
 31
0.0
  0
LINE
  5
213C2
330
18
100
AcDbEntity
  8
1PHANTOM
100
AcDbLine
 10
634.0163039200118
 20
-525.2213256977841
 30
0.0
 11
638.0163039200118
 21
-524.4213350049615
 31
0.0
  0
LINE
  5
213C3
330
18
100
AcDbEntity
  8
1PHANTOM
100
AcDbLine
 10
634.0163039200118
 20
-528.4213256977844
 30
0.0
 11
638.0163039200118
 21
-527.6213350049659
 31
0.0
  0
LINE
  5
213C4
330
18
100
AcDbEntity
  8
1PHANTOM
100
AcDbLine
 10
634.0163039200118
 20
-530.0213256977838
 30
0.0
 11
638.0163039200118
 21
-529.2213350049658
 31
0.0
  0
LINE
  5
213C5
330
18
100
AcDbEntity
  8
1PHANTOM
100
AcDbLine
 10
637.5163039200118
 20
-540.3213338414587
 30
0.0
 11
634.5163039200118
 21
-540.3213268610741
 31
0.0
  0
LINE
  5
213C6
330
18
100
AcDbEntity
  8
1PHANTOM
100
AcDbLine
 10
634.5163039200118
 20
-534.9213268611863
 30
0.0
 11
634.0163039200118
 21
-534.8213256977886
 31
0.0
  0
LINE
  5
213C7
330
18
100
AcDbEntity
  8
1PHANTOM
100
AcDbLine
 10
634.0163039200118
 20
-522.0213256977843
 30
0.0
 11
638.0163039200118
 21
-521.2213350049617
 31
0.0
  0
LINE
  5
213C8
330
18
100
AcDbEntity
  8
1PHANTOM
100
AcDbLine
 10
638.0163039200118
 20
-521.2213350049617
 30
0.0
 11
637.5163039200118
 21
-521.1213338415644
 31
0.0
  0
LINE
  5
213C9
330
18
100
AcDbEntity
  8
1PHANTOM
100
AcDbLine
 10
634.5163039200118
 20
-522.1213268611812
 30
0.0
 11
634.0163039200118
 21
-522.0213256977843
 31
0.0
  0
LINE
  5
213CA
330
18
100
AcDbEntity
  8
1PHANTOM
100
AcDbLine
 10
634.0163039200118
 20
-520.4213256977844
 30
0.0
 11
638.0163039200118
 21
-519.6213350049618
 31
0.0
  0
LINE
  5
213CB
330
18
100
AcDbEntity
  8
1PHANTOM
100
AcDbLine
 10
638.0163039200118
 20
-519.6213350049618
 30
0.0
 11
637.5163039200118
 21
-519.5213338415645
 31
0.0
  0
LINE
  5
213CC
330
18
100
AcDbEntity
  8
1PHANTOM
100
AcDbLine
 10
634.5163039200118
 20
-520.5213268611813
 30
0.0
 11
634.0163039200118
 21
-520.4213256977844
 31
0.0
  0
LINE
  5
213CD
330
18
100
AcDbEntity
  8
1PHANTOM
100
AcDbLine
 10
634.0163039200118
 20
-518.8213256977845
 30
0.0
 11
638.0163039200118
 21
-518.0213350049619
 31
0.0
  0
LINE
  5
213CE
330
18
100
AcDbEntity
  8
1PHANTOM
100
AcDbLine
 10
638.0163039200118
 20
-518.0213350049619
 30
0.0
 11
637.5163039200118
 21
-517.9213338415645
 31
0.0
  0
LINE
  5
213CF
330
18
100
AcDbEntity
  8
1PHANTOM
100
AcDbLine
 10
634.5163039200118
 20
-518.9213268611813
 30
0.0
 11
634.0163039200118
 21
-518.8213256977845
 31
0.0
  0
LINE
  5
213D0
330
18
100
AcDbEntity
  8
1PHANTOM
100
AcDbLine
 10
632.2163039200125
 20
-540.3213303512664
 30
0.0
 11
639.816303920011
 21
-540.3213303512664
 31
0.0
  0
LINE
  5
213D1
330
18
100
AcDbEntity
  8
1PHANTOM
100
AcDbLine
 10
639.816303920011
 20
-540.3213303512664
 30
0.0
 11
639.816303920011
 21
-539.3213303512664
 31
0.0
  0
LINE
  5
213D2
330
18
100
AcDbEntity
  8
1PHANTOM
100
AcDbLine
 10
639.816303920011
 20
-539.3213303512664
 30
0.0
 11
632.2163039200125
 21
-539.3213303512664
 31
0.0
  0
LINE
  5
213D3
330
18
100
AcDbEntity
  8
1PHANTOM
100
AcDbLine
 10
632.2163039200125
 20
-539.3213303512664
 30
0.0
 11
632.2163039200125
 21
-540.3213303512664
 31
0.0
  0
LINE
  5
213D4
330
18
100
AcDbEntity
  8
1PHANTOM
100
AcDbLine
 10
634.0163039200118
 20
-536.4213256977885
 30
0.0
 11
638.0163039200118
 21
-535.62133500497
 31
0.0
  0
LINE
  5
213D5
330
18
100
AcDbEntity
  8
1PHANTOM
100
AcDbLine
 10
638.0163039200118
 20
-535.62133500497
 30
0.0
 11
637.5163039200118
 21
-535.5213338415722
 31
0.0
  0
LINE
  5
213D6
330
18
100
AcDbEntity
  8
1PHANTOM
100
AcDbLine
 10
634.5163039200118
 20
-536.5213268611858
 30
0.0
 11
634.0163039200118
 21
-536.4213256977885
 31
0.0
  0
LINE
  5
213D7
330
18
100
AcDbEntity
  8
1PHANTOM
100
AcDbLine
 10
634.0163039200118
 20
-538.0213256977884
 30
0.0
 11
638.0163039200118
 21
-537.2213350049699
 31
0.0
  0
LINE
  5
213D8
330
18
100
AcDbEntity
  8
1PHANTOM
100
AcDbLine
 10
638.0163039200118
 20
-537.2213350049699
 30
0.0
 11
637.5163039200118
 21
-537.1213338415726
 31
0.0
  0
LINE
  5
213D9
330
18
100
AcDbEntity
  8
1PHANTOM
100
AcDbLine
 10
634.5163039200118
 20
-538.1213268611862
 30
0.0
 11
634.0163039200118
 21
-538.0213256977884
 31
0.0
  0
LINE
  5
213DA
330
18
100
AcDbEntity
  8
1PHANTOM
100
AcDbLine
 10
634.0163039200118
 20
-539.6213256977883
 30
0.0
 11
638.0163039200118
 21
-538.8213350049698
 31
0.0
  0
LINE
  5
213DB
330
18
100
AcDbEntity
  8
1PHANTOM
100
AcDbLine
 10
638.0163039200118
 20
-538.8213350049698
 30
0.0
 11
637.5163039200118
 21
-538.721333841572
 31
0.0
  0
LINE
  5
213DC
330
18
100
AcDbEntity
  8
1PHANTOM
100
AcDbLine
 10
634.5163039200118
 20
-539.7213268611856
 30
0.0
 11
634.0163039200118
 21
-539.6213256977883
 31
0.0
  0
LINE
  5
213DD
330
18
100
AcDbEntity
  8
1CENTER
100
AcDbLine
 10
636.0162538939214
 20
-544.3598284607363
 30
0.0
 11
636.0162538939214
 21
-504.4160676401464
 31
0.0
  0
LINE
  5
213DE
330
18
100
AcDbEntity
  8
1PHANTOM
100
AcDbLine
 10
619.5163039200099
 20
-539.3213303512664
 30
0.0
 11
620.2662538939214
 21
-539.3213303512664
 31
0.0
  0
LINE
  5
213DF
330
18
100
AcDbEntity
  8
1PHANTOM
100
AcDbLine
 10
619.5163039200099
 20
-539.3213303512664
 30
0.0
 11
620.2663039200118
 21
-539.3213303512664
 31
0.0
  0
LINE
  5
213E0
330
18
100
AcDbEntity
  8
1PHANTOM
100
AcDbLine
 10
618.0163039200118
 20
-505.3213303513205
 30
0.0
 11
616.5163039200118
 21
-510.6213268611825
 31
0.0
  0
LINE
  5
213E1
330
18
100
AcDbEntity
  8
1PHANTOM
100
AcDbLine
 10
616.5163039200118
 20
-510.6213268611825
 30
0.0
 11
616.5163039200118
 21
-539.3213303512664
 31
0.0
  0
LINE
  5
213E2
330
18
100
AcDbEntity
  8
1PHANTOM
100
AcDbLine
 10
616.5163039200118
 20
-539.3213303512664
 30
0.0
 11
616.5163039200118
 21
-540.3213268610741
 31
0.0
  0
LINE
  5
213E3
330
18
100
AcDbEntity
  8
1PHANTOM
100
AcDbLine
 10
618.0163039200118
 20
-505.3213303513205
 30
0.0
 11
619.5163039200118
 21
-510.6213338415662
 31
0.0
  0
LINE
  5
213E4
330
18
100
AcDbEntity
  8
1PHANTOM
100
AcDbLine
 10
614.5162573841146
 20
-540.3213222073762
 30
0.0
 11
616.5163039200118
 21
-540.3213268610741
 31
0.0
  0
LINE
  5
213E5
330
18
100
AcDbEntity
  8
1PHANTOM
100
AcDbLine
 10
619.5163039200118
 20
-510.6213338415662
 30
0.0
 11
619.5163039200118
 21
-539.3213303512664
 31
0.0
  0
LINE
  5
213E6
330
18
100
AcDbEntity
  8
1PHANTOM
100
AcDbLine
 10
619.5163039200118
 20
-539.3213303512664
 30
0.0
 11
619.5163039200118
 21
-540.3213338414587
 31
0.0
  0
LINE
  5
213E7
330
18
100
AcDbEntity
  8
1PHANTOM
100
AcDbLine
 10
614.5162573841146
 20
-540.3213222073762
 30
0.0
 11
614.5162573841146
 21
-541.4213256975715
 31
0.0
  0
LINE
  5
213E8
330
18
100
AcDbEntity
  8
1PHANTOM
100
AcDbLine
 10
619.5163039200118
 20
-540.3213338414587
 30
0.0
 11
621.5162573841146
 21
-540.3213384949402
 31
0.0
  0
ARC
  5
213E9
330
18
100
AcDbEntity
  8
1PHANTOM
100
AcDbCircle
 10
616.0162573841146
 20
-541.4213256975715
 30
0.0
 40
1.5
100
AcDbArc
 50
180.0
 51
269.999866684475
  0
LINE
  5
213EA
330
18
100
AcDbEntity
  8
1PHANTOM
100
AcDbLine
 10
621.5162573841146
 20
-540.3213384949402
 30
0.0
 11
621.5162573841146
 21
-541.421335004751
 31
0.0
  0
LINE
  5
213EB
330
18
100
AcDbEntity
  8
1PHANTOM
100
AcDbLine
 10
616.0162538939214
 20
-542.9213256975675
 30
0.0
 11
620.0162538939214
 21
-542.9213350047469
 31
0.0
  0
ARC
  5
213EC
330
18
100
AcDbEntity
  8
1PHANTOM
100
AcDbCircle
 10
620.0162573841146
 20
-541.421335004751
 30
0.0
 40
1.5
100
AcDbArc
 50
269.999866684475
 51
0.0
  0
LINE
  5
213ED
330
18
100
AcDbEntity
  8
1PHANTOM
100
AcDbLine
 10
616.9219335701193
 20
-507.4213278049986
 30
0.0
 11
618.8842686589953
 21
-506.6213323709474
 31
0.0
  0
LINE
  5
213EE
330
18
100
AcDbEntity
  8
1PHANTOM
100
AcDbLine
 10
618.8842686589953
 20
-506.6213323709474
 30
0.0
 11
618.2959920839523
 21
-506.3095625146955
 31
0.0
  0
LINE
  5
213EF
330
18
100
AcDbEntity
  8
1PHANTOM
100
AcDbLine
 10
616.0163039200118
 20
-534.8213256977886
 30
0.0
 11
620.0163039200118
 21
-534.0213350049701
 31
0.0
  0
LINE
  5
213F0
330
18
100
AcDbEntity
  8
1PHANTOM
100
AcDbLine
 10
616.0163039200118
 20
-523.6213256977842
 30
0.0
 11
620.0163039200118
 21
-522.8213350049616
 31
0.0
  0
LINE
  5
213F1
330
18
100
AcDbEntity
  8
1PHANTOM
100
AcDbLine
 10
616.0163039200118
 20
-515.4213256977839
 30
0.0
 11
620.0163039200118
 21
-514.6213350049613
 31
0.0
  0
LINE
  5
213F2
330
18
100
AcDbEntity
  8
1PHANTOM
100
AcDbLine
 10
620.0163039200118
 20
-514.6213350049613
 30
0.0
 11
619.5163039200118
 21
-514.521333841564
 31
0.0
  0
LINE
  5
213F3
330
18
100
AcDbEntity
  8
1PHANTOM
100
AcDbLine
 10
616.5163039200118
 20
-513.9213268611813
 30
0.0
 11
616.0163039200118
 21
-513.821325697784
 31
0.0
  0
LINE
  5
213F4
330
18
100
AcDbEntity
  8
1PHANTOM
100
AcDbLine
 10
620.0163039200118
 20
-522.8213350049616
 30
0.0
 11
619.5163039200118
 21
-522.7213338415643
 31
0.0
  0
LINE
  5
213F5
330
18
100
AcDbEntity
  8
1PHANTOM
100
AcDbLine
 10
620.0163039200118
 20
-516.2213350049612
 30
0.0
 11
619.5163039200118
 21
-516.1213338415644
 31
0.0
  0
LINE
  5
213F6
330
18
100
AcDbEntity
  8
1PHANTOM
100
AcDbLine
 10
616.5163039200118
 20
-515.5213268611813
 30
0.0
 11
616.0163039200118
 21
-515.4213256977839
 31
0.0
  0
LINE
  5
213F7
330
18
100
AcDbEntity
  8
1PHANTOM
100
AcDbLine
 10
616.5163039200118
 20
-517.1213268611812
 30
0.0
 11
616.0163039200118
 21
-517.0213256977838
 31
0.0
  0
LINE
  5
213F8
330
18
100
AcDbEntity
  8
1PHANTOM
100
AcDbLine
 10
616.0163039200118
 20
-517.0213256977838
 30
0.0
 11
620.0163039200118
 21
-516.2213350049612
 31
0.0
  0
LINE
  5
213F9
330
18
100
AcDbEntity
  8
1PHANTOM
100
AcDbLine
 10
619.3370827634019
 20
-508.2213334245532
 30
0.0
 11
618.7853332995976
 21
-508.0385692819252
 31
0.0
  0
LINE
  5
213FA
330
18
100
AcDbEntity
  8
1PHANTOM
100
AcDbLine
 10
620.0163039200118
 20
-511.4213350049615
 30
0.0
 11
619.5163039200118
 21
-511.3213338415642
 31
0.0
  0
LINE
  5
213FB
330
18
100
AcDbEntity
  8
1PHANTOM
100
AcDbLine
 10
620.0163039200118
 20
-513.0213350049614
 30
0.0
 11
619.5163039200118
 21
-512.9213338415645
 31
0.0
  0
LINE
  5
213FC
330
18
100
AcDbEntity
  8
1PHANTOM
100
AcDbLine
 10
619.7898968678085
 20
-509.8213344781586
 30
0.0
 11
619.2533031325358
 21
-509.692063780529
 31
0.0
  0
LINE
  5
213FD
330
18
100
AcDbEntity
  8
1PHANTOM
100
AcDbLine
 10
616.9372185172208
 20
-509.1340962637444
 30
0.0
 11
616.4691200620703
 21
-509.0213267513943
 31
0.0
  0
LINE
  5
213FE
330
18
100
AcDbEntity
  8
1PHANTOM
100
AcDbLine
 10
616.5163039200118
 20
-512.321326861181
 30
0.0
 11
616.0163039200118
 21
-512.2213256977841
 31
0.0
  0
LINE
  5
213FF
330
18
100
AcDbEntity
  8
1PHANTOM
100
AcDbLine
 10
616.5163039200118
 20
-510.7213268611811
 30
0.0
 11
616.0163039200118
 21
-510.6213256977842
 31
0.0
  0
LINE
  5
21400
330
18
100
AcDbEntity
  8
1PHANTOM
100
AcDbLine
 10
617.3791054107489
 20
-507.5727636014387
 30
0.0
 11
616.9219335701193
 21
-507.4213278049986
 31
0.0
  0
LINE
  5
21401
330
18
100
AcDbEntity
  8
1PHANTOM
100
AcDbLine
 10
616.4691200620703
 20
-509.0213267513943
 30
0.0
 11
619.3370827634019
 21
-508.2213334245532
 31
0.0
  0
LINE
  5
21402
330
18
100
AcDbEntity
  8
1PHANTOM
100
AcDbLine
 10
616.0163039200118
 20
-512.2213256977841
 30
0.0
 11
620.0163039200118
 21
-511.4213350049615
 31
0.0
  0
LINE
  5
21403
330
18
100
AcDbEntity
  8
1PHANTOM
100
AcDbLine
 10
616.0163039200118
 20
-510.6213256977842
 30
0.0
 11
619.7898968678085
 21
-509.8213344781586
 31
0.0
  0
LINE
  5
21404
330
18
100
AcDbEntity
  8
1PHANTOM
100
AcDbLine
 10
616.0163039200118
 20
-513.821325697784
 30
0.0
 11
620.0163039200118
 21
-513.0213350049614
 31
0.0
  0
LINE
  5
21405
330
18
100
AcDbEntity
  8
1PHANTOM
100
AcDbLine
 10
616.0163039200118
 20
-531.6213256977883
 30
0.0
 11
620.0163039200118
 21
-530.8213350049703
 31
0.0
  0
LINE
  5
21406
330
18
100
AcDbEntity
  8
1PHANTOM
100
AcDbLine
 10
620.0163039200118
 20
-530.8213350049703
 30
0.0
 11
619.5163039200118
 21
-530.7213338415725
 31
0.0
  0
LINE
  5
21407
330
18
100
AcDbEntity
  8
1PHANTOM
100
AcDbLine
 10
616.5163039200118
 20
-530.1213268611816
 30
0.0
 11
616.0163039200118
 21
-530.0213256977838
 31
0.0
  0
LINE
  5
21408
330
18
100
AcDbEntity
  8
1PHANTOM
100
AcDbLine
 10
620.0163039200118
 20
-532.4213350049702
 30
0.0
 11
619.5163039200118
 21
-532.3213338415724
 31
0.0
  0
LINE
  5
21409
330
18
100
AcDbEntity
  8
1PHANTOM
100
AcDbLine
 10
620.0163039200118
 20
-534.0213350049701
 30
0.0
 11
619.5163039200118
 21
-533.9213338415727
 31
0.0
  0
LINE
  5
2140A
330
18
100
AcDbEntity
  8
1PHANTOM
100
AcDbLine
 10
616.5163039200118
 20
-531.7213268611861
 30
0.0
 11
616.0163039200118
 21
-531.6213256977883
 31
0.0
  0
LINE
  5
2140B
330
18
100
AcDbEntity
  8
1PHANTOM
100
AcDbLine
 10
616.5163039200118
 20
-533.321326861186
 30
0.0
 11
616.0163039200118
 21
-533.2213256977886
 31
0.0
  0
LINE
  5
2140C
330
18
100
AcDbEntity
  8
1PHANTOM
100
AcDbLine
 10
616.0163039200118
 20
-533.2213256977886
 30
0.0
 11
620.0163039200118
 21
-532.4213350049702
 31
0.0
  0
LINE
  5
2140D
330
18
100
AcDbEntity
  8
1PHANTOM
100
AcDbLine
 10
620.0163039200118
 20
-526.021335004966
 30
0.0
 11
619.5163039200118
 21
-525.9213338415682
 31
0.0
  0
LINE
  5
2140E
330
18
100
AcDbEntity
  8
1PHANTOM
100
AcDbLine
 10
620.0163039200118
 20
-524.4213350049615
 30
0.0
 11
619.5163039200118
 21
-524.3213338415642
 31
0.0
  0
LINE
  5
2140F
330
18
100
AcDbEntity
  8
1PHANTOM
100
AcDbLine
 10
620.0163039200118
 20
-529.2213350049658
 30
0.0
 11
619.5163039200118
 21
-529.121333841568
 31
0.0
  0
LINE
  5
21410
330
18
100
AcDbEntity
  8
1PHANTOM
100
AcDbLine
 10
620.0163039200118
 20
-527.6213350049659
 30
0.0
 11
619.5163039200118
 21
-527.5213338415681
 31
0.0
  0
LINE
  5
21411
330
18
100
AcDbEntity
  8
1PHANTOM
100
AcDbLine
 10
616.5163039200118
 20
-523.7213268611811
 30
0.0
 11
616.0163039200118
 21
-523.6213256977842
 31
0.0
  0
LINE
  5
21412
330
18
100
AcDbEntity
  8
1PHANTOM
100
AcDbLine
 10
616.5163039200118
 20
-525.3213268611819
 30
0.0
 11
616.0163039200118
 21
-525.2213256977841
 31
0.0
  0
LINE
  5
21413
330
18
100
AcDbEntity
  8
1PHANTOM
100
AcDbLine
 10
616.5163039200118
 20
-528.5213268611817
 30
0.0
 11
616.0163039200118
 21
-528.4213256977844
 31
0.0
  0
LINE
  5
21414
330
18
100
AcDbEntity
  8
1PHANTOM
100
AcDbLine
 10
616.5163039200118
 20
-526.9213268611818
 30
0.0
 11
616.0163039200118
 21
-526.821325697784
 31
0.0
  0
LINE
  5
21415
330
18
100
AcDbEntity
  8
1PHANTOM
100
AcDbLine
 10
616.0163039200118
 20
-526.821325697784
 30
0.0
 11
620.0163039200118
 21
-526.021335004966
 31
0.0
  0
LINE
  5
21416
330
18
100
AcDbEntity
  8
1PHANTOM
100
AcDbLine
 10
616.0163039200118
 20
-525.2213256977841
 30
0.0
 11
620.0163039200118
 21
-524.4213350049615
 31
0.0
  0
LINE
  5
21417
330
18
100
AcDbEntity
  8
1PHANTOM
100
AcDbLine
 10
616.0163039200118
 20
-528.4213256977844
 30
0.0
 11
620.0163039200118
 21
-527.6213350049659
 31
0.0
  0
LINE
  5
21418
330
18
100
AcDbEntity
  8
1PHANTOM
100
AcDbLine
 10
616.0163039200118
 20
-530.0213256977838
 30
0.0
 11
620.0163039200118
 21
-529.2213350049658
 31
0.0
  0
LINE
  5
21419
330
18
100
AcDbEntity
  8
1PHANTOM
100
AcDbLine
 10
619.5163039200118
 20
-540.3213338414587
 30
0.0
 11
616.5163039200118
 21
-540.3213268610741
 31
0.0
  0
LINE
  5
2141A
330
18
100
AcDbEntity
  8
1PHANTOM
100
AcDbLine
 10
616.5163039200118
 20
-534.9213268611863
 30
0.0
 11
616.0163039200118
 21
-534.8213256977886
 31
0.0
  0
LINE
  5
2141B
330
18
100
AcDbEntity
  8
1PHANTOM
100
AcDbLine
 10
616.0163039200118
 20
-522.0213256977843
 30
0.0
 11
620.0163039200118
 21
-521.2213350049617
 31
0.0
  0
LINE
  5
2141C
330
18
100
AcDbEntity
  8
1PHANTOM
100
AcDbLine
 10
620.0163039200118
 20
-521.2213350049617
 30
0.0
 11
619.5163039200118
 21
-521.1213338415644
 31
0.0
  0
LINE
  5
2141D
330
18
100
AcDbEntity
  8
1PHANTOM
100
AcDbLine
 10
616.5163039200118
 20
-522.1213268611812
 30
0.0
 11
616.0163039200118
 21
-522.0213256977843
 31
0.0
  0
LINE
  5
2141E
330
18
100
AcDbEntity
  8
1PHANTOM
100
AcDbLine
 10
616.0163039200118
 20
-520.4213256977844
 30
0.0
 11
620.0163039200118
 21
-519.6213350049618
 31
0.0
  0
LINE
  5
2141F
330
18
100
AcDbEntity
  8
1PHANTOM
100
AcDbLine
 10
620.0163039200118
 20
-519.6213350049618
 30
0.0
 11
619.5163039200118
 21
-519.5213338415645
 31
0.0
  0
LINE
  5
21420
330
18
100
AcDbEntity
  8
1PHANTOM
100
AcDbLine
 10
616.5163039200118
 20
-520.5213268611813
 30
0.0
 11
616.0163039200118
 21
-520.4213256977844
 31
0.0
  0
LINE
  5
21421
330
18
100
AcDbEntity
  8
1PHANTOM
100
AcDbLine
 10
616.0163039200118
 20
-518.8213256977845
 30
0.0
 11
620.0163039200118
 21
-518.0213350049619
 31
0.0
  0
LINE
  5
21422
330
18
100
AcDbEntity
  8
1PHANTOM
100
AcDbLine
 10
620.0163039200118
 20
-518.0213350049619
 30
0.0
 11
619.5163039200118
 21
-517.9213338415645
 31
0.0
  0
LINE
  5
21423
330
18
100
AcDbEntity
  8
1PHANTOM
100
AcDbLine
 10
616.5163039200118
 20
-518.9213268611813
 30
0.0
 11
616.0163039200118
 21
-518.8213256977845
 31
0.0
  0
LINE
  5
21424
330
18
100
AcDbEntity
  8
1PHANTOM
100
AcDbLine
 10
614.2163039200125
 20
-540.3213303512664
 30
0.0
 11
621.816303920011
 21
-540.3213303512664
 31
0.0
  0
LINE
  5
21425
330
18
100
AcDbEntity
  8
1PHANTOM
100
AcDbLine
 10
621.816303920011
 20
-540.3213303512664
 30
0.0
 11
621.816303920011
 21
-539.3213303512664
 31
0.0
  0
LINE
  5
21426
330
18
100
AcDbEntity
  8
1PHANTOM
100
AcDbLine
 10
621.816303920011
 20
-539.3213303512664
 30
0.0
 11
614.2163039200125
 21
-539.3213303512664
 31
0.0
  0
LINE
  5
21427
330
18
100
AcDbEntity
  8
1PHANTOM
100
AcDbLine
 10
614.2163039200125
 20
-539.3213303512664
 30
0.0
 11
614.2163039200125
 21
-540.3213303512664
 31
0.0
  0
LINE
  5
21428
330
18
100
AcDbEntity
  8
1PHANTOM
100
AcDbLine
 10
616.0163039200118
 20
-536.4213256977885
 30
0.0
 11
620.0163039200118
 21
-535.62133500497
 31
0.0
  0
LINE
  5
21429
330
18
100
AcDbEntity
  8
1PHANTOM
100
AcDbLine
 10
620.0163039200118
 20
-535.62133500497
 30
0.0
 11
619.5163039200118
 21
-535.5213338415722
 31
0.0
  0
LINE
  5
2142A
330
18
100
AcDbEntity
  8
1PHANTOM
100
AcDbLine
 10
616.5163039200118
 20
-536.5213268611858
 30
0.0
 11
616.0163039200118
 21
-536.4213256977885
 31
0.0
  0
LINE
  5
2142B
330
18
100
AcDbEntity
  8
1PHANTOM
100
AcDbLine
 10
616.0163039200118
 20
-538.0213256977884
 30
0.0
 11
620.0163039200118
 21
-537.2213350049699
 31
0.0
  0
LINE
  5
2142C
330
18
100
AcDbEntity
  8
1PHANTOM
100
AcDbLine
 10
620.0163039200118
 20
-537.2213350049699
 30
0.0
 11
619.5163039200118
 21
-537.1213338415726
 31
0.0
  0
LINE
  5
2142D
330
18
100
AcDbEntity
  8
1PHANTOM
100
AcDbLine
 10
616.5163039200118
 20
-538.1213268611862
 30
0.0
 11
616.0163039200118
 21
-538.0213256977884
 31
0.0
  0
LINE
  5
2142E
330
18
100
AcDbEntity
  8
1PHANTOM
100
AcDbLine
 10
616.0163039200118
 20
-539.6213256977883
 30
0.0
 11
620.0163039200118
 21
-538.8213350049698
 31
0.0
  0
LINE
  5
2142F
330
18
100
AcDbEntity
  8
1PHANTOM
100
AcDbLine
 10
620.0163039200118
 20
-538.8213350049698
 30
0.0
 11
619.5163039200118
 21
-538.721333841572
 31
0.0
  0
LINE
  5
21430
330
18
100
AcDbEntity
  8
1PHANTOM
100
AcDbLine
 10
616.5163039200118
 20
-539.7213268611856
 30
0.0
 11
616.0163039200118
 21
-539.6213256977883
 31
0.0
  0
LINE
  5
21431
330
18
100
AcDbEntity
  8
1CENTER
100
AcDbLine
 10
618.0162538939214
 20
-544.3598284607363
 30
0.0
 11
618.0162538939214
 21
-504.4160676401464
 31
0.0
  0
LINE
  5
21432
330
18
100
AcDbEntity
  8
1PHANTOM
100
AcDbLine
 10
187.5163116711035
 20
-539.3213303512664
 30
0.0
 11
188.266261645015
 21
-539.3213303512664
 31
0.0
  0
LINE
  5
21433
330
18
100
AcDbEntity
  8
1PHANTOM
100
AcDbLine
 10
187.5163116711035
 20
-539.3213303512664
 30
0.0
 11
188.2663116711053
 21
-539.3213303512664
 31
0.0
  0
LINE
  5
21434
330
18
100
AcDbEntity
  8
1PHANTOM
100
AcDbLine
 10
186.0163116711053
 20
-505.3213303513205
 30
0.0
 11
184.5163116711053
 21
-510.6213268611825
 31
0.0
  0
LINE
  5
21435
330
18
100
AcDbEntity
  8
1PHANTOM
100
AcDbLine
 10
184.5163116711053
 20
-510.6213268611825
 30
0.0
 11
184.5163116711053
 21
-539.3213303512664
 31
0.0
  0
LINE
  5
21436
330
18
100
AcDbEntity
  8
1PHANTOM
100
AcDbLine
 10
184.5163116711053
 20
-539.3213303512664
 30
0.0
 11
184.5163116711053
 21
-540.3213268610741
 31
0.0
  0
LINE
  5
21437
330
18
100
AcDbEntity
  8
1PHANTOM
100
AcDbLine
 10
186.0163116711053
 20
-505.3213303513205
 30
0.0
 11
187.5163116711053
 21
-510.6213338415662
 31
0.0
  0
LINE
  5
21438
330
18
100
AcDbEntity
  8
1PHANTOM
100
AcDbLine
 10
182.5162651352082
 20
-540.3213222073762
 30
0.0
 11
184.5163116711053
 21
-540.3213268610741
 31
0.0
  0
LINE
  5
21439
330
18
100
AcDbEntity
  8
1PHANTOM
100
AcDbLine
 10
187.5163116711053
 20
-510.6213338415662
 30
0.0
 11
187.5163116711053
 21
-539.3213303512664
 31
0.0
  0
LINE
  5
2143A
330
18
100
AcDbEntity
  8
1PHANTOM
100
AcDbLine
 10
187.5163116711053
 20
-539.3213303512664
 30
0.0
 11
187.5163116711053
 21
-540.3213338414587
 31
0.0
  0
LINE
  5
2143B
330
18
100
AcDbEntity
  8
1PHANTOM
100
AcDbLine
 10
182.5162651352082
 20
-540.3213222073762
 30
0.0
 11
182.5162651352082
 21
-541.4213256975715
 31
0.0
  0
LINE
  5
2143C
330
18
100
AcDbEntity
  8
1PHANTOM
100
AcDbLine
 10
187.5163116711053
 20
-540.3213338414587
 30
0.0
 11
189.5162651352082
 21
-540.3213384949402
 31
0.0
  0
ARC
  5
2143D
330
18
100
AcDbEntity
  8
1PHANTOM
100
AcDbCircle
 10
184.0162651352082
 20
-541.4213256975715
 30
0.0
 40
1.5
100
AcDbArc
 50
180.0
 51
269.999866684475
  0
LINE
  5
2143E
330
18
100
AcDbEntity
  8
1PHANTOM
100
AcDbLine
 10
189.5162651352082
 20
-540.3213384949402
 30
0.0
 11
189.5162651352082
 21
-541.421335004751
 31
0.0
  0
LINE
  5
2143F
330
18
100
AcDbEntity
  8
1PHANTOM
100
AcDbLine
 10
184.016261645015
 20
-542.9213256975675
 30
0.0
 11
188.016261645015
 21
-542.9213350047469
 31
0.0
  0
ARC
  5
21440
330
18
100
AcDbEntity
  8
1PHANTOM
100
AcDbCircle
 10
188.0162651352082
 20
-541.421335004751
 30
0.0
 40
1.5
100
AcDbArc
 50
269.999866684475
 51
0.0
  0
LINE
  5
21441
330
18
100
AcDbEntity
  8
1PHANTOM
100
AcDbLine
 10
184.9219413212129
 20
-507.4213278049986
 30
0.0
 11
186.8842764100889
 21
-506.6213323709474
 31
0.0
  0
LINE
  5
21442
330
18
100
AcDbEntity
  8
1PHANTOM
100
AcDbLine
 10
186.8842764100889
 20
-506.6213323709474
 30
0.0
 11
186.2959998350459
 21
-506.3095625146955
 31
0.0
  0
LINE
  5
21443
330
18
100
AcDbEntity
  8
1PHANTOM
100
AcDbLine
 10
184.0163116711053
 20
-534.8213256977886
 30
0.0
 11
188.0163116711053
 21
-534.0213350049701
 31
0.0
  0
LINE
  5
21444
330
18
100
AcDbEntity
  8
1PHANTOM
100
AcDbLine
 10
184.0163116711053
 20
-523.6213256977842
 30
0.0
 11
188.0163116711053
 21
-522.8213350049616
 31
0.0
  0
LINE
  5
21445
330
18
100
AcDbEntity
  8
1PHANTOM
100
AcDbLine
 10
184.0163116711053
 20
-515.4213256977839
 30
0.0
 11
188.0163116711053
 21
-514.6213350049613
 31
0.0
  0
LINE
  5
21446
330
18
100
AcDbEntity
  8
1PHANTOM
100
AcDbLine
 10
188.0163116711053
 20
-514.6213350049613
 30
0.0
 11
187.5163116711053
 21
-514.521333841564
 31
0.0
  0
LINE
  5
21447
330
18
100
AcDbEntity
  8
1PHANTOM
100
AcDbLine
 10
184.5163116711053
 20
-513.9213268611813
 30
0.0
 11
184.0163116711053
 21
-513.821325697784
 31
0.0
  0
LINE
  5
21448
330
18
100
AcDbEntity
  8
1PHANTOM
100
AcDbLine
 10
188.0163116711053
 20
-522.8213350049616
 30
0.0
 11
187.5163116711053
 21
-522.7213338415643
 31
0.0
  0
LINE
  5
21449
330
18
100
AcDbEntity
  8
1PHANTOM
100
AcDbLine
 10
188.0163116711053
 20
-516.2213350049612
 30
0.0
 11
187.5163116711053
 21
-516.1213338415644
 31
0.0
  0
LINE
  5
2144A
330
18
100
AcDbEntity
  8
1PHANTOM
100
AcDbLine
 10
184.5163116711053
 20
-515.5213268611813
 30
0.0
 11
184.0163116711053
 21
-515.4213256977839
 31
0.0
  0
LINE
  5
2144B
330
18
100
AcDbEntity
  8
1PHANTOM
100
AcDbLine
 10
184.5163116711053
 20
-517.1213268611812
 30
0.0
 11
184.0163116711053
 21
-517.0213256977838
 31
0.0
  0
LINE
  5
2144C
330
18
100
AcDbEntity
  8
1PHANTOM
100
AcDbLine
 10
184.0163116711053
 20
-517.0213256977838
 30
0.0
 11
188.0163116711053
 21
-516.2213350049612
 31
0.0
  0
LINE
  5
2144D
330
18
100
AcDbEntity
  8
1PHANTOM
100
AcDbLine
 10
187.3370905144955
 20
-508.2213334245532
 30
0.0
 11
186.7853410506912
 21
-508.0385692819252
 31
0.0
  0
LINE
  5
2144E
330
18
100
AcDbEntity
  8
1PHANTOM
100
AcDbLine
 10
188.0163116711053
 20
-511.4213350049615
 30
0.0
 11
187.5163116711053
 21
-511.3213338415642
 31
0.0
  0
LINE
  5
2144F
330
18
100
AcDbEntity
  8
1PHANTOM
100
AcDbLine
 10
188.0163116711053
 20
-513.0213350049614
 30
0.0
 11
187.5163116711053
 21
-512.9213338415645
 31
0.0
  0
LINE
  5
21450
330
18
100
AcDbEntity
  8
1PHANTOM
100
AcDbLine
 10
187.789904618902
 20
-509.8213344781586
 30
0.0
 11
187.2533108836294
 21
-509.692063780529
 31
0.0
  0
LINE
  5
21451
330
18
100
AcDbEntity
  8
1PHANTOM
100
AcDbLine
 10
184.9372262683144
 20
-509.1340962637444
 30
0.0
 11
184.4691278131638
 21
-509.0213267513943
 31
0.0
  0
LINE
  5
21452
330
18
100
AcDbEntity
  8
1PHANTOM
100
AcDbLine
 10
184.5163116711053
 20
-512.321326861181
 30
0.0
 11
184.0163116711053
 21
-512.2213256977841
 31
0.0
  0
LINE
  5
21453
330
18
100
AcDbEntity
  8
1PHANTOM
100
AcDbLine
 10
184.5163116711053
 20
-510.7213268611811
 30
0.0
 11
184.0163116711053
 21
-510.6213256977842
 31
0.0
  0
LINE
  5
21454
330
18
100
AcDbEntity
  8
1PHANTOM
100
AcDbLine
 10
185.3791131618425
 20
-507.5727636014387
 30
0.0
 11
184.9219413212129
 21
-507.4213278049986
 31
0.0
  0
LINE
  5
21455
330
18
100
AcDbEntity
  8
1PHANTOM
100
AcDbLine
 10
184.4691278131638
 20
-509.0213267513943
 30
0.0
 11
187.3370905144955
 21
-508.2213334245532
 31
0.0
  0
LINE
  5
21456
330
18
100
AcDbEntity
  8
1PHANTOM
100
AcDbLine
 10
184.0163116711053
 20
-512.2213256977841
 30
0.0
 11
188.0163116711053
 21
-511.4213350049615
 31
0.0
  0
LINE
  5
21457
330
18
100
AcDbEntity
  8
1PHANTOM
100
AcDbLine
 10
184.0163116711053
 20
-510.6213256977842
 30
0.0
 11
187.789904618902
 21
-509.8213344781586
 31
0.0
  0
LINE
  5
21458
330
18
100
AcDbEntity
  8
1PHANTOM
100
AcDbLine
 10
184.0163116711053
 20
-513.821325697784
 30
0.0
 11
188.0163116711053
 21
-513.0213350049614
 31
0.0
  0
LINE
  5
21459
330
18
100
AcDbEntity
  8
1PHANTOM
100
AcDbLine
 10
184.0163116711053
 20
-531.6213256977883
 30
0.0
 11
188.0163116711053
 21
-530.8213350049703
 31
0.0
  0
LINE
  5
2145A
330
18
100
AcDbEntity
  8
1PHANTOM
100
AcDbLine
 10
188.0163116711053
 20
-530.8213350049703
 30
0.0
 11
187.5163116711053
 21
-530.7213338415725
 31
0.0
  0
LINE
  5
2145B
330
18
100
AcDbEntity
  8
1PHANTOM
100
AcDbLine
 10
184.5163116711053
 20
-530.1213268611816
 30
0.0
 11
184.0163116711053
 21
-530.0213256977838
 31
0.0
  0
LINE
  5
2145C
330
18
100
AcDbEntity
  8
1PHANTOM
100
AcDbLine
 10
188.0163116711053
 20
-532.4213350049702
 30
0.0
 11
187.5163116711053
 21
-532.3213338415724
 31
0.0
  0
LINE
  5
2145D
330
18
100
AcDbEntity
  8
1PHANTOM
100
AcDbLine
 10
188.0163116711053
 20
-534.0213350049701
 30
0.0
 11
187.5163116711053
 21
-533.9213338415727
 31
0.0
  0
LINE
  5
2145E
330
18
100
AcDbEntity
  8
1PHANTOM
100
AcDbLine
 10
184.5163116711053
 20
-531.7213268611861
 30
0.0
 11
184.0163116711053
 21
-531.6213256977883
 31
0.0
  0
LINE
  5
2145F
330
18
100
AcDbEntity
  8
1PHANTOM
100
AcDbLine
 10
184.5163116711053
 20
-533.321326861186
 30
0.0
 11
184.0163116711053
 21
-533.2213256977886
 31
0.0
  0
LINE
  5
21460
330
18
100
AcDbEntity
  8
1PHANTOM
100
AcDbLine
 10
184.0163116711053
 20
-533.2213256977886
 30
0.0
 11
188.0163116711053
 21
-532.4213350049702
 31
0.0
  0
LINE
  5
21461
330
18
100
AcDbEntity
  8
1PHANTOM
100
AcDbLine
 10
188.0163116711053
 20
-526.021335004966
 30
0.0
 11
187.5163116711053
 21
-525.9213338415682
 31
0.0
  0
LINE
  5
21462
330
18
100
AcDbEntity
  8
1PHANTOM
100
AcDbLine
 10
188.0163116711053
 20
-524.4213350049615
 30
0.0
 11
187.5163116711053
 21
-524.3213338415642
 31
0.0
  0
LINE
  5
21463
330
18
100
AcDbEntity
  8
1PHANTOM
100
AcDbLine
 10
188.0163116711053
 20
-529.2213350049658
 30
0.0
 11
187.5163116711053
 21
-529.121333841568
 31
0.0
  0
LINE
  5
21464
330
18
100
AcDbEntity
  8
1PHANTOM
100
AcDbLine
 10
188.0163116711053
 20
-527.6213350049659
 30
0.0
 11
187.5163116711053
 21
-527.5213338415681
 31
0.0
  0
LINE
  5
21465
330
18
100
AcDbEntity
  8
1PHANTOM
100
AcDbLine
 10
184.5163116711053
 20
-523.7213268611811
 30
0.0
 11
184.0163116711053
 21
-523.6213256977842
 31
0.0
  0
LINE
  5
21466
330
18
100
AcDbEntity
  8
1PHANTOM
100
AcDbLine
 10
184.5163116711053
 20
-525.3213268611819
 30
0.0
 11
184.0163116711053
 21
-525.2213256977841
 31
0.0
  0
LINE
  5
21467
330
18
100
AcDbEntity
  8
1PHANTOM
100
AcDbLine
 10
184.5163116711053
 20
-528.5213268611817
 30
0.0
 11
184.0163116711053
 21
-528.4213256977844
 31
0.0
  0
LINE
  5
21468
330
18
100
AcDbEntity
  8
1PHANTOM
100
AcDbLine
 10
184.5163116711053
 20
-526.9213268611818
 30
0.0
 11
184.0163116711053
 21
-526.821325697784
 31
0.0
  0
LINE
  5
21469
330
18
100
AcDbEntity
  8
1PHANTOM
100
AcDbLine
 10
184.0163116711053
 20
-526.821325697784
 30
0.0
 11
188.0163116711053
 21
-526.021335004966
 31
0.0
  0
LINE
  5
2146A
330
18
100
AcDbEntity
  8
1PHANTOM
100
AcDbLine
 10
184.0163116711053
 20
-525.2213256977841
 30
0.0
 11
188.0163116711053
 21
-524.4213350049615
 31
0.0
  0
LINE
  5
2146B
330
18
100
AcDbEntity
  8
1PHANTOM
100
AcDbLine
 10
184.0163116711053
 20
-528.4213256977844
 30
0.0
 11
188.0163116711053
 21
-527.6213350049659
 31
0.0
  0
LINE
  5
2146C
330
18
100
AcDbEntity
  8
1PHANTOM
100
AcDbLine
 10
184.0163116711053
 20
-530.0213256977838
 30
0.0
 11
188.0163116711053
 21
-529.2213350049658
 31
0.0
  0
LINE
  5
2146D
330
18
100
AcDbEntity
  8
1PHANTOM
100
AcDbLine
 10
187.5163116711053
 20
-540.3213338414587
 30
0.0
 11
184.5163116711053
 21
-540.3213268610741
 31
0.0
  0
LINE
  5
2146E
330
18
100
AcDbEntity
  8
1PHANTOM
100
AcDbLine
 10
184.5163116711053
 20
-534.9213268611863
 30
0.0
 11
184.0163116711053
 21
-534.8213256977886
 31
0.0
  0
LINE
  5
2146F
330
18
100
AcDbEntity
  8
1PHANTOM
100
AcDbLine
 10
184.0163116711053
 20
-522.0213256977843
 30
0.0
 11
188.0163116711053
 21
-521.2213350049617
 31
0.0
  0
LINE
  5
21470
330
18
100
AcDbEntity
  8
1PHANTOM
100
AcDbLine
 10
188.0163116711053
 20
-521.2213350049617
 30
0.0
 11
187.5163116711053
 21
-521.1213338415644
 31
0.0
  0
LINE
  5
21471
330
18
100
AcDbEntity
  8
1PHANTOM
100
AcDbLine
 10
184.5163116711053
 20
-522.1213268611812
 30
0.0
 11
184.0163116711053
 21
-522.0213256977843
 31
0.0
  0
LINE
  5
21472
330
18
100
AcDbEntity
  8
1PHANTOM
100
AcDbLine
 10
184.0163116711053
 20
-520.4213256977844
 30
0.0
 11
188.0163116711053
 21
-519.6213350049618
 31
0.0
  0
LINE
  5
21473
330
18
100
AcDbEntity
  8
1PHANTOM
100
AcDbLine
 10
188.0163116711053
 20
-519.6213350049618
 30
0.0
 11
187.5163116711053
 21
-519.5213338415645
 31
0.0
  0
LINE
  5
21474
330
18
100
AcDbEntity
  8
1PHANTOM
100
AcDbLine
 10
184.5163116711053
 20
-520.5213268611813
 30
0.0
 11
184.0163116711053
 21
-520.4213256977844
 31
0.0
  0
LINE
  5
21475
330
18
100
AcDbEntity
  8
1PHANTOM
100
AcDbLine
 10
184.0163116711053
 20
-518.8213256977845
 30
0.0
 11
188.0163116711053
 21
-518.0213350049619
 31
0.0
  0
LINE
  5
21476
330
18
100
AcDbEntity
  8
1PHANTOM
100
AcDbLine
 10
188.0163116711053
 20
-518.0213350049619
 30
0.0
 11
187.5163116711053
 21
-517.9213338415645
 31
0.0
  0
LINE
  5
21477
330
18
100
AcDbEntity
  8
1PHANTOM
100
AcDbLine
 10
184.5163116711053
 20
-518.9213268611813
 30
0.0
 11
184.0163116711053
 21
-518.8213256977845
 31
0.0
  0
LINE
  5
21478
330
18
100
AcDbEntity
  8
1PHANTOM
100
AcDbLine
 10
182.216311671106
 20
-540.3213303512664
 30
0.0
 11
189.8163116711046
 21
-540.3213303512664
 31
0.0
  0
LINE
  5
21479
330
18
100
AcDbEntity
  8
1PHANTOM
100
AcDbLine
 10
189.8163116711046
 20
-540.3213303512664
 30
0.0
 11
189.8163116711046
 21
-539.3213303512664
 31
0.0
  0
LINE
  5
2147A
330
18
100
AcDbEntity
  8
1PHANTOM
100
AcDbLine
 10
189.8163116711046
 20
-539.3213303512664
 30
0.0
 11
182.216311671106
 21
-539.3213303512664
 31
0.0
  0
LINE
  5
2147B
330
18
100
AcDbEntity
  8
1PHANTOM
100
AcDbLine
 10
182.216311671106
 20
-539.3213303512664
 30
0.0
 11
182.216311671106
 21
-540.3213303512664
 31
0.0
  0
LINE
  5
2147C
330
18
100
AcDbEntity
  8
1PHANTOM
100
AcDbLine
 10
184.0163116711053
 20
-536.4213256977885
 30
0.0
 11
188.0163116711053
 21
-535.62133500497
 31
0.0
  0
LINE
  5
2147D
330
18
100
AcDbEntity
  8
1PHANTOM
100
AcDbLine
 10
188.0163116711053
 20
-535.62133500497
 30
0.0
 11
187.5163116711053
 21
-535.5213338415722
 31
0.0
  0
LINE
  5
2147E
330
18
100
AcDbEntity
  8
1PHANTOM
100
AcDbLine
 10
184.5163116711053
 20
-536.5213268611858
 30
0.0
 11
184.0163116711053
 21
-536.4213256977885
 31
0.0
  0
LINE
  5
2147F
330
18
100
AcDbEntity
  8
1PHANTOM
100
AcDbLine
 10
184.0163116711053
 20
-538.0213256977884
 30
0.0
 11
188.0163116711053
 21
-537.2213350049699
 31
0.0
  0
LINE
  5
21480
330
18
100
AcDbEntity
  8
1PHANTOM
100
AcDbLine
 10
188.0163116711053
 20
-537.2213350049699
 30
0.0
 11
187.5163116711053
 21
-537.1213338415726
 31
0.0
  0
LINE
  5
21481
330
18
100
AcDbEntity
  8
1PHANTOM
100
AcDbLine
 10
184.5163116711053
 20
-538.1213268611862
 30
0.0
 11
184.0163116711053
 21
-538.0213256977884
 31
0.0
  0
LINE
  5
21482
330
18
100
AcDbEntity
  8
1PHANTOM
100
AcDbLine
 10
184.0163116711053
 20
-539.6213256977883
 30
0.0
 11
188.0163116711053
 21
-538.8213350049698
 31
0.0
  0
LINE
  5
21483
330
18
100
AcDbEntity
  8
1PHANTOM
100
AcDbLine
 10
188.0163116711053
 20
-538.8213350049698
 30
0.0
 11
187.5163116711053
 21
-538.721333841572
 31
0.0
  0
LINE
  5
21484
330
18
100
AcDbEntity
  8
1PHANTOM
100
AcDbLine
 10
184.5163116711053
 20
-539.7213268611856
 30
0.0
 11
184.0163116711053
 21
-539.6213256977883
 31
0.0
  0
LINE
  5
21485
330
18
100
AcDbEntity
  8
1CENTER
100
AcDbLine
 10
186.016261645015
 20
-544.3598284607363
 30
0.0
 11
186.016261645015
 21
-504.4160676401464
 31
0.0
  0
LINE
  5
21486
330
18
100
AcDbEntity
  8
1PHANTOM
100
AcDbLine
 10
169.5163116711035
 20
-539.3213303512664
 30
0.0
 11
170.266261645015
 21
-539.3213303512664
 31
0.0
  0
LINE
  5
21487
330
18
100
AcDbEntity
  8
1PHANTOM
100
AcDbLine
 10
169.5163116711035
 20
-539.3213303512664
 30
0.0
 11
170.2663116711053
 21
-539.3213303512664
 31
0.0
  0
LINE
  5
21488
330
18
100
AcDbEntity
  8
1PHANTOM
100
AcDbLine
 10
168.0163116711053
 20
-505.3213303513205
 30
0.0
 11
166.5163116711053
 21
-510.6213268611825
 31
0.0
  0
LINE
  5
21489
330
18
100
AcDbEntity
  8
1PHANTOM
100
AcDbLine
 10
166.5163116711053
 20
-510.6213268611825
 30
0.0
 11
166.5163116711053
 21
-539.3213303512664
 31
0.0
  0
LINE
  5
2148A
330
18
100
AcDbEntity
  8
1PHANTOM
100
AcDbLine
 10
166.5163116711053
 20
-539.3213303512664
 30
0.0
 11
166.5163116711053
 21
-540.3213268610741
 31
0.0
  0
LINE
  5
2148B
330
18
100
AcDbEntity
  8
1PHANTOM
100
AcDbLine
 10
168.0163116711053
 20
-505.3213303513205
 30
0.0
 11
169.5163116711053
 21
-510.6213338415662
 31
0.0
  0
LINE
  5
2148C
330
18
100
AcDbEntity
  8
1PHANTOM
100
AcDbLine
 10
164.5162651352082
 20
-540.3213222073762
 30
0.0
 11
166.5163116711053
 21
-540.3213268610741
 31
0.0
  0
LINE
  5
2148D
330
18
100
AcDbEntity
  8
1PHANTOM
100
AcDbLine
 10
169.5163116711053
 20
-510.6213338415662
 30
0.0
 11
169.5163116711053
 21
-539.3213303512664
 31
0.0
  0
LINE
  5
2148E
330
18
100
AcDbEntity
  8
1PHANTOM
100
AcDbLine
 10
169.5163116711053
 20
-539.3213303512664
 30
0.0
 11
169.5163116711053
 21
-540.3213338414587
 31
0.0
  0
LINE
  5
2148F
330
18
100
AcDbEntity
  8
1PHANTOM
100
AcDbLine
 10
164.5162651352082
 20
-540.3213222073762
 30
0.0
 11
164.5162651352082
 21
-541.4213256975715
 31
0.0
  0
LINE
  5
21490
330
18
100
AcDbEntity
  8
1PHANTOM
100
AcDbLine
 10
169.5163116711053
 20
-540.3213338414587
 30
0.0
 11
171.5162651352082
 21
-540.3213384949402
 31
0.0
  0
ARC
  5
21491
330
18
100
AcDbEntity
  8
1PHANTOM
100
AcDbCircle
 10
166.0162651352082
 20
-541.4213256975715
 30
0.0
 40
1.5
100
AcDbArc
 50
180.0
 51
269.999866684475
  0
LINE
  5
21492
330
18
100
AcDbEntity
  8
1PHANTOM
100
AcDbLine
 10
171.5162651352082
 20
-540.3213384949402
 30
0.0
 11
171.5162651352082
 21
-541.421335004751
 31
0.0
  0
LINE
  5
21493
330
18
100
AcDbEntity
  8
1PHANTOM
100
AcDbLine
 10
166.016261645015
 20
-542.9213256975675
 30
0.0
 11
170.016261645015
 21
-542.9213350047469
 31
0.0
  0
ARC
  5
21494
330
18
100
AcDbEntity
  8
1PHANTOM
100
AcDbCircle
 10
170.0162651352082
 20
-541.421335004751
 30
0.0
 40
1.5
100
AcDbArc
 50
269.999866684475
 51
0.0
  0
LINE
  5
21495
330
18
100
AcDbEntity
  8
1PHANTOM
100
AcDbLine
 10
166.9219413212129
 20
-507.4213278049986
 30
0.0
 11
168.8842764100889
 21
-506.6213323709474
 31
0.0
  0
LINE
  5
21496
330
18
100
AcDbEntity
  8
1PHANTOM
100
AcDbLine
 10
168.8842764100889
 20
-506.6213323709474
 30
0.0
 11
168.2959998350459
 21
-506.3095625146955
 31
0.0
  0
LINE
  5
21497
330
18
100
AcDbEntity
  8
1PHANTOM
100
AcDbLine
 10
166.0163116711053
 20
-534.8213256977886
 30
0.0
 11
170.0163116711053
 21
-534.0213350049701
 31
0.0
  0
LINE
  5
21498
330
18
100
AcDbEntity
  8
1PHANTOM
100
AcDbLine
 10
166.0163116711053
 20
-523.6213256977842
 30
0.0
 11
170.0163116711053
 21
-522.8213350049616
 31
0.0
  0
LINE
  5
21499
330
18
100
AcDbEntity
  8
1PHANTOM
100
AcDbLine
 10
166.0163116711053
 20
-515.4213256977839
 30
0.0
 11
170.0163116711053
 21
-514.6213350049613
 31
0.0
  0
LINE
  5
2149A
330
18
100
AcDbEntity
  8
1PHANTOM
100
AcDbLine
 10
170.0163116711053
 20
-514.6213350049613
 30
0.0
 11
169.5163116711053
 21
-514.521333841564
 31
0.0
  0
LINE
  5
2149B
330
18
100
AcDbEntity
  8
1PHANTOM
100
AcDbLine
 10
166.5163116711053
 20
-513.9213268611813
 30
0.0
 11
166.0163116711053
 21
-513.821325697784
 31
0.0
  0
LINE
  5
2149C
330
18
100
AcDbEntity
  8
1PHANTOM
100
AcDbLine
 10
170.0163116711053
 20
-522.8213350049616
 30
0.0
 11
169.5163116711053
 21
-522.7213338415643
 31
0.0
  0
LINE
  5
2149D
330
18
100
AcDbEntity
  8
1PHANTOM
100
AcDbLine
 10
170.0163116711053
 20
-516.2213350049612
 30
0.0
 11
169.5163116711053
 21
-516.1213338415644
 31
0.0
  0
LINE
  5
2149E
330
18
100
AcDbEntity
  8
1PHANTOM
100
AcDbLine
 10
166.5163116711053
 20
-515.5213268611813
 30
0.0
 11
166.0163116711053
 21
-515.4213256977839
 31
0.0
  0
LINE
  5
2149F
330
18
100
AcDbEntity
  8
1PHANTOM
100
AcDbLine
 10
166.5163116711053
 20
-517.1213268611812
 30
0.0
 11
166.0163116711053
 21
-517.0213256977838
 31
0.0
  0
LINE
  5
214A0
330
18
100
AcDbEntity
  8
1PHANTOM
100
AcDbLine
 10
166.0163116711053
 20
-517.0213256977838
 30
0.0
 11
170.0163116711053
 21
-516.2213350049612
 31
0.0
  0
LINE
  5
214A1
330
18
100
AcDbEntity
  8
1PHANTOM
100
AcDbLine
 10
169.3370905144955
 20
-508.2213334245532
 30
0.0
 11
168.7853410506912
 21
-508.0385692819252
 31
0.0
  0
LINE
  5
214A2
330
18
100
AcDbEntity
  8
1PHANTOM
100
AcDbLine
 10
170.0163116711053
 20
-511.4213350049615
 30
0.0
 11
169.5163116711053
 21
-511.3213338415642
 31
0.0
  0
LINE
  5
214A3
330
18
100
AcDbEntity
  8
1PHANTOM
100
AcDbLine
 10
170.0163116711053
 20
-513.0213350049614
 30
0.0
 11
169.5163116711053
 21
-512.9213338415645
 31
0.0
  0
LINE
  5
214A4
330
18
100
AcDbEntity
  8
1PHANTOM
100
AcDbLine
 10
169.789904618902
 20
-509.8213344781586
 30
0.0
 11
169.2533108836294
 21
-509.692063780529
 31
0.0
  0
LINE
  5
214A5
330
18
100
AcDbEntity
  8
1PHANTOM
100
AcDbLine
 10
166.9372262683144
 20
-509.1340962637444
 30
0.0
 11
166.4691278131638
 21
-509.0213267513943
 31
0.0
  0
LINE
  5
214A6
330
18
100
AcDbEntity
  8
1PHANTOM
100
AcDbLine
 10
166.5163116711053
 20
-512.321326861181
 30
0.0
 11
166.0163116711053
 21
-512.2213256977841
 31
0.0
  0
LINE
  5
214A7
330
18
100
AcDbEntity
  8
1PHANTOM
100
AcDbLine
 10
166.5163116711053
 20
-510.7213268611811
 30
0.0
 11
166.0163116711053
 21
-510.6213256977842
 31
0.0
  0
LINE
  5
214A8
330
18
100
AcDbEntity
  8
1PHANTOM
100
AcDbLine
 10
167.3791131618425
 20
-507.5727636014387
 30
0.0
 11
166.9219413212129
 21
-507.4213278049986
 31
0.0
  0
LINE
  5
214A9
330
18
100
AcDbEntity
  8
1PHANTOM
100
AcDbLine
 10
166.4691278131638
 20
-509.0213267513943
 30
0.0
 11
169.3370905144955
 21
-508.2213334245532
 31
0.0
  0
LINE
  5
214AA
330
18
100
AcDbEntity
  8
1PHANTOM
100
AcDbLine
 10
166.0163116711053
 20
-512.2213256977841
 30
0.0
 11
170.0163116711053
 21
-511.4213350049615
 31
0.0
  0
LINE
  5
214AB
330
18
100
AcDbEntity
  8
1PHANTOM
100
AcDbLine
 10
166.0163116711053
 20
-510.6213256977842
 30
0.0
 11
169.789904618902
 21
-509.8213344781586
 31
0.0
  0
LINE
  5
214AC
330
18
100
AcDbEntity
  8
1PHANTOM
100
AcDbLine
 10
166.0163116711053
 20
-513.821325697784
 30
0.0
 11
170.0163116711053
 21
-513.0213350049614
 31
0.0
  0
LINE
  5
214AD
330
18
100
AcDbEntity
  8
1PHANTOM
100
AcDbLine
 10
166.0163116711053
 20
-531.6213256977883
 30
0.0
 11
170.0163116711053
 21
-530.8213350049703
 31
0.0
  0
LINE
  5
214AE
330
18
100
AcDbEntity
  8
1PHANTOM
100
AcDbLine
 10
170.0163116711053
 20
-530.8213350049703
 30
0.0
 11
169.5163116711053
 21
-530.7213338415725
 31
0.0
  0
LINE
  5
214AF
330
18
100
AcDbEntity
  8
1PHANTOM
100
AcDbLine
 10
166.5163116711053
 20
-530.1213268611816
 30
0.0
 11
166.0163116711053
 21
-530.0213256977838
 31
0.0
  0
LINE
  5
214B0
330
18
100
AcDbEntity
  8
1PHANTOM
100
AcDbLine
 10
170.0163116711053
 20
-532.4213350049702
 30
0.0
 11
169.5163116711053
 21
-532.3213338415724
 31
0.0
  0
LINE
  5
214B1
330
18
100
AcDbEntity
  8
1PHANTOM
100
AcDbLine
 10
170.0163116711053
 20
-534.0213350049701
 30
0.0
 11
169.5163116711053
 21
-533.9213338415727
 31
0.0
  0
LINE
  5
214B2
330
18
100
AcDbEntity
  8
1PHANTOM
100
AcDbLine
 10
166.5163116711053
 20
-531.7213268611861
 30
0.0
 11
166.0163116711053
 21
-531.6213256977883
 31
0.0
  0
LINE
  5
214B3
330
18
100
AcDbEntity
  8
1PHANTOM
100
AcDbLine
 10
166.5163116711053
 20
-533.321326861186
 30
0.0
 11
166.0163116711053
 21
-533.2213256977886
 31
0.0
  0
LINE
  5
214B4
330
18
100
AcDbEntity
  8
1PHANTOM
100
AcDbLine
 10
166.0163116711053
 20
-533.2213256977886
 30
0.0
 11
170.0163116711053
 21
-532.4213350049702
 31
0.0
  0
LINE
  5
214B5
330
18
100
AcDbEntity
  8
1PHANTOM
100
AcDbLine
 10
170.0163116711053
 20
-526.021335004966
 30
0.0
 11
169.5163116711053
 21
-525.9213338415682
 31
0.0
  0
LINE
  5
214B6
330
18
100
AcDbEntity
  8
1PHANTOM
100
AcDbLine
 10
170.0163116711053
 20
-524.4213350049615
 30
0.0
 11
169.5163116711053
 21
-524.3213338415642
 31
0.0
  0
LINE
  5
214B7
330
18
100
AcDbEntity
  8
1PHANTOM
100
AcDbLine
 10
170.0163116711053
 20
-529.2213350049658
 30
0.0
 11
169.5163116711053
 21
-529.121333841568
 31
0.0
  0
LINE
  5
214B8
330
18
100
AcDbEntity
  8
1PHANTOM
100
AcDbLine
 10
170.0163116711053
 20
-527.6213350049659
 30
0.0
 11
169.5163116711053
 21
-527.5213338415681
 31
0.0
  0
LINE
  5
214B9
330
18
100
AcDbEntity
  8
1PHANTOM
100
AcDbLine
 10
166.5163116711053
 20
-523.7213268611811
 30
0.0
 11
166.0163116711053
 21
-523.6213256977842
 31
0.0
  0
LINE
  5
214BA
330
18
100
AcDbEntity
  8
1PHANTOM
100
AcDbLine
 10
166.5163116711053
 20
-525.3213268611819
 30
0.0
 11
166.0163116711053
 21
-525.2213256977841
 31
0.0
  0
LINE
  5
214BB
330
18
100
AcDbEntity
  8
1PHANTOM
100
AcDbLine
 10
166.5163116711053
 20
-528.5213268611817
 30
0.0
 11
166.0163116711053
 21
-528.4213256977844
 31
0.0
  0
LINE
  5
214BC
330
18
100
AcDbEntity
  8
1PHANTOM
100
AcDbLine
 10
166.5163116711053
 20
-526.9213268611818
 30
0.0
 11
166.0163116711053
 21
-526.821325697784
 31
0.0
  0
LINE
  5
214BD
330
18
100
AcDbEntity
  8
1PHANTOM
100
AcDbLine
 10
166.0163116711053
 20
-526.821325697784
 30
0.0
 11
170.0163116711053
 21
-526.021335004966
 31
0.0
  0
LINE
  5
214BE
330
18
100
AcDbEntity
  8
1PHANTOM
100
AcDbLine
 10
166.0163116711053
 20
-525.2213256977841
 30
0.0
 11
170.0163116711053
 21
-524.4213350049615
 31
0.0
  0
LINE
  5
214BF
330
18
100
AcDbEntity
  8
1PHANTOM
100
AcDbLine
 10
166.0163116711053
 20
-528.4213256977844
 30
0.0
 11
170.0163116711053
 21
-527.6213350049659
 31
0.0
  0
LINE
  5
214C0
330
18
100
AcDbEntity
  8
1PHANTOM
100
AcDbLine
 10
166.0163116711053
 20
-530.0213256977838
 30
0.0
 11
170.0163116711053
 21
-529.2213350049658
 31
0.0
  0
LINE
  5
214C1
330
18
100
AcDbEntity
  8
1PHANTOM
100
AcDbLine
 10
169.5163116711053
 20
-540.3213338414587
 30
0.0
 11
166.5163116711053
 21
-540.3213268610741
 31
0.0
  0
LINE
  5
214C2
330
18
100
AcDbEntity
  8
1PHANTOM
100
AcDbLine
 10
166.5163116711053
 20
-534.9213268611863
 30
0.0
 11
166.0163116711053
 21
-534.8213256977886
 31
0.0
  0
LINE
  5
214C3
330
18
100
AcDbEntity
  8
1PHANTOM
100
AcDbLine
 10
166.0163116711053
 20
-522.0213256977843
 30
0.0
 11
170.0163116711053
 21
-521.2213350049617
 31
0.0
  0
LINE
  5
214C4
330
18
100
AcDbEntity
  8
1PHANTOM
100
AcDbLine
 10
170.0163116711053
 20
-521.2213350049617
 30
0.0
 11
169.5163116711053
 21
-521.1213338415644
 31
0.0
  0
LINE
  5
214C5
330
18
100
AcDbEntity
  8
1PHANTOM
100
AcDbLine
 10
166.5163116711053
 20
-522.1213268611812
 30
0.0
 11
166.0163116711053
 21
-522.0213256977843
 31
0.0
  0
LINE
  5
214C6
330
18
100
AcDbEntity
  8
1PHANTOM
100
AcDbLine
 10
166.0163116711053
 20
-520.4213256977844
 30
0.0
 11
170.0163116711053
 21
-519.6213350049618
 31
0.0
  0
LINE
  5
214C7
330
18
100
AcDbEntity
  8
1PHANTOM
100
AcDbLine
 10
170.0163116711053
 20
-519.6213350049618
 30
0.0
 11
169.5163116711053
 21
-519.5213338415645
 31
0.0
  0
LINE
  5
214C8
330
18
100
AcDbEntity
  8
1PHANTOM
100
AcDbLine
 10
166.5163116711053
 20
-520.5213268611813
 30
0.0
 11
166.0163116711053
 21
-520.4213256977844
 31
0.0
  0
LINE
  5
214C9
330
18
100
AcDbEntity
  8
1PHANTOM
100
AcDbLine
 10
166.0163116711053
 20
-518.8213256977845
 30
0.0
 11
170.0163116711053
 21
-518.0213350049619
 31
0.0
  0
LINE
  5
214CA
330
18
100
AcDbEntity
  8
1PHANTOM
100
AcDbLine
 10
170.0163116711053
 20
-518.0213350049619
 30
0.0
 11
169.5163116711053
 21
-517.9213338415645
 31
0.0
  0
LINE
  5
214CB
330
18
100
AcDbEntity
  8
1PHANTOM
100
AcDbLine
 10
166.5163116711053
 20
-518.9213268611813
 30
0.0
 11
166.0163116711053
 21
-518.8213256977845
 31
0.0
  0
LINE
  5
214CC
330
18
100
AcDbEntity
  8
1PHANTOM
100
AcDbLine
 10
164.216311671106
 20
-540.3213303512664
 30
0.0
 11
171.8163116711046
 21
-540.3213303512664
 31
0.0
  0
LINE
  5
214CD
330
18
100
AcDbEntity
  8
1PHANTOM
100
AcDbLine
 10
171.8163116711046
 20
-540.3213303512664
 30
0.0
 11
171.8163116711046
 21
-539.3213303512664
 31
0.0
  0
LINE
  5
214CE
330
18
100
AcDbEntity
  8
1PHANTOM
100
AcDbLine
 10
171.8163116711046
 20
-539.3213303512664
 30
0.0
 11
164.216311671106
 21
-539.3213303512664
 31
0.0
  0
LINE
  5
214CF
330
18
100
AcDbEntity
  8
1PHANTOM
100
AcDbLine
 10
164.216311671106
 20
-539.3213303512664
 30
0.0
 11
164.216311671106
 21
-540.3213303512664
 31
0.0
  0
LINE
  5
214D0
330
18
100
AcDbEntity
  8
1PHANTOM
100
AcDbLine
 10
166.0163116711053
 20
-536.4213256977885
 30
0.0
 11
170.0163116711053
 21
-535.62133500497
 31
0.0
  0
LINE
  5
214D1
330
18
100
AcDbEntity
  8
1PHANTOM
100
AcDbLine
 10
170.0163116711053
 20
-535.62133500497
 30
0.0
 11
169.5163116711053
 21
-535.5213338415722
 31
0.0
  0
LINE
  5
214D2
330
18
100
AcDbEntity
  8
1PHANTOM
100
AcDbLine
 10
166.5163116711053
 20
-536.5213268611858
 30
0.0
 11
166.0163116711053
 21
-536.4213256977885
 31
0.0
  0
LINE
  5
214D3
330
18
100
AcDbEntity
  8
1PHANTOM
100
AcDbLine
 10
166.0163116711053
 20
-538.0213256977884
 30
0.0
 11
170.0163116711053
 21
-537.2213350049699
 31
0.0
  0
LINE
  5
214D4
330
18
100
AcDbEntity
  8
1PHANTOM
100
AcDbLine
 10
170.0163116711053
 20
-537.2213350049699
 30
0.0
 11
169.5163116711053
 21
-537.1213338415726
 31
0.0
  0
LINE
  5
214D5
330
18
100
AcDbEntity
  8
1PHANTOM
100
AcDbLine
 10
166.5163116711053
 20
-538.1213268611862
 30
0.0
 11
166.0163116711053
 21
-538.0213256977884
 31
0.0
  0
LINE
  5
214D6
330
18
100
AcDbEntity
  8
1PHANTOM
100
AcDbLine
 10
166.0163116711053
 20
-539.6213256977883
 30
0.0
 11
170.0163116711053
 21
-538.8213350049698
 31
0.0
  0
LINE
  5
214D7
330
18
100
AcDbEntity
  8
1PHANTOM
100
AcDbLine
 10
170.0163116711053
 20
-538.8213350049698
 30
0.0
 11
169.5163116711053
 21
-538.721333841572
 31
0.0
  0
LINE
  5
214D8
330
18
100
AcDbEntity
  8
1PHANTOM
100
AcDbLine
 10
166.5163116711053
 20
-539.7213268611856
 30
0.0
 11
166.0163116711053
 21
-539.6213256977883
 31
0.0
  0
LINE
  5
214D9
330
18
100
AcDbEntity
  8
1CENTER
100
AcDbLine
 10
168.016261645015
 20
-544.3598284607363
 30
0.0
 11
168.016261645015
 21
-504.4160676401464
 31
0.0
  0
LINE
  5
214DA
330
18
100
AcDbEntity
  8
1PHANTOM
 48
0.6
100
AcDbLine
 10
163.0162616425253
 20
-538.8213303512663
 30
0.0
 11
163.0162616425253
 21
-535.8213303512663
 31
0.0
  0
LINE
  5
214DB
330
18
100
AcDbEntity
  8
1PHANTOM
 48
0.6
100
AcDbLine
 10
191.0162616425253
 20
-535.8213303512663
 30
0.0
 11
191.0162616425253
 21
-538.8213303512663
 31
0.0
  0
LINE
  5
214DC
330
18
100
AcDbEntity
  8
1PHANTOM
100
AcDbLine
 10
191.0162616425253
 20
-535.8213303512663
 30
0.0
 11
163.0162616425253
 21
-535.8213303512663
 31
0.0
  0
LINE
  5
214DD
330
18
100
AcDbEntity
  8
1PHANTOM
 48
0.6
100
AcDbLine
 10
191.0162616425253
 20
-538.8213303512663
 30
0.0
 11
190.5162616425253
 21
-539.3213303512663
 31
0.0
  0
LINE
  5
214DE
330
18
100
AcDbEntity
  8
1PHANTOM
 48
0.6
100
AcDbLine
 10
190.5162616425253
 20
-539.3213303512663
 30
0.0
 11
188.0162616425253
 21
-539.3213303512663
 31
0.0
  0
LINE
  5
214DF
330
18
100
AcDbEntity
  8
1PHANTOM
 48
0.6
100
AcDbLine
 10
166.0162616425253
 20
-539.3213303512663
 30
0.0
 11
163.5162616425253
 21
-539.3213303512663
 31
0.0
  0
LINE
  5
214E0
330
18
100
AcDbEntity
  8
1PHANTOM
 48
0.6
100
AcDbLine
 10
163.5162616425253
 20
-539.3213303512663
 30
0.0
 11
163.0162616425253
 21
-538.8213303512663
 31
0.0
  0
LINE
  5
214E1
330
18
100
AcDbEntity
  8
1PHANTOM
 48
0.6
100
AcDbLine
 10
188.0162616425253
 20
-539.3213303512663
 30
0.0
 11
182.0162616425253
 21
-539.3213303512663
 31
0.0
  0
ARC
  5
214E2
330
18
100
AcDbEntity
  8
1PHANTOM
 48
0.6
100
AcDbCircle
 10
182.0162616425253
 20
-539.8213303512663
 30
0.0
 40
0.5
100
AcDbArc
 50
90.0
 51
180.0
  0
LINE
  5
214E3
330
18
100
AcDbEntity
  8
1PHANTOM
 48
0.6
100
AcDbLine
 10
172.0162616425253
 20
-539.3213303512663
 30
0.0
 11
166.0162616425253
 21
-539.3213303512663
 31
0.0
  0
LINE
  5
214E4
330
18
100
AcDbEntity
  8
1PHANTOM
 48
0.6
100
AcDbLine
 10
172.5162616425253
 20
-553.3213303512663
 30
0.0
 11
172.5162616425253
 21
-539.8213303512663
 31
0.0
  0
ARC
  5
214E5
330
18
100
AcDbEntity
  8
1PHANTOM
 48
0.6
100
AcDbCircle
 10
172.0162616425253
 20
-539.8213303512663
 30
0.0
 40
0.5
100
AcDbArc
 50
0.0
 51
90.0
  0
LINE
  5
214E6
330
18
100
AcDbEntity
  8
1PHANTOM
 48
0.6
100
AcDbLine
 10
181.5162616425253
 20
-539.8213303512663
 30
0.0
 11
181.5162616425253
 21
-553.3213303512663
 31
0.0
  0
ARC
  5
214E7
330
18
100
AcDbEntity
  8
1PHANTOM
 48
0.6
100
AcDbCircle
 10
177.5162616425253
 20
-553.3213303512663
 30
0.0
 40
4.0
100
AcDbArc
 50
270.0
 51
0.0
  0
ARC
  5
214E8
330
18
100
AcDbEntity
  8
1PHANTOM
 48
0.6
100
AcDbCircle
 10
176.5162616425253
 20
-553.3213303512663
 30
0.0
 40
4.000000000000014
100
AcDbArc
 50
180.0
 51
270.0
  0
LINE
  5
214E9
330
18
100
AcDbEntity
  8
1PHANTOM
 48
0.6
100
AcDbLine
 10
177.5162616425253
 20
-557.3213303512663
 30
0.0
 11
176.5162616425253
 21
-557.3213303512663
 31
0.0
  0
CIRCLE
  5
214EA
330
18
100
AcDbEntity
  8
1PHANTOM
 48
0.6
100
AcDbCircle
 10
177.0162616425253
 20
-553.8213303512663
 30
0.0
 40
2.0
  0
LINE
  5
214EB
330
18
100
AcDbEntity
  8
1PHANTOM
 48
0.6
100
AcDbLine
 10
613.0162538988945
 20
-538.8213303512664
 30
0.0
 11
613.0162538988945
 21
-535.8213303512664
 31
0.0
  0
LINE
  5
214EC
330
18
100
AcDbEntity
  8
1PHANTOM
 48
0.6
100
AcDbLine
 10
641.0162538988945
 20
-535.8213303512664
 30
0.0
 11
641.0162538988945
 21
-538.8213303512664
 31
0.0
  0
LINE
  5
214ED
330
18
100
AcDbEntity
  8
1PHANTOM
100
AcDbLine
 10
641.0162538988945
 20
-535.8213303512664
 30
0.0
 11
613.0162538988945
 21
-535.8213303512664
 31
0.0
  0
LINE
  5
214EE
330
18
100
AcDbEntity
  8
1PHANTOM
 48
0.6
100
AcDbLine
 10
641.0162538988945
 20
-538.8213303512664
 30
0.0
 11
640.5162538988945
 21
-539.3213303512664
 31
0.0
  0
LINE
  5
214EF
330
18
100
AcDbEntity
  8
1PHANTOM
 48
0.6
100
AcDbLine
 10
640.5162538988945
 20
-539.3213303512664
 30
0.0
 11
638.0162538988945
 21
-539.3213303512664
 31
0.0
  0
LINE
  5
214F0
330
18
100
AcDbEntity
  8
1PHANTOM
 48
0.6
100
AcDbLine
 10
616.0162538988945
 20
-539.3213303512664
 30
0.0
 11
613.5162538988945
 21
-539.3213303512664
 31
0.0
  0
LINE
  5
214F1
330
18
100
AcDbEntity
  8
1PHANTOM
 48
0.6
100
AcDbLine
 10
613.5162538988945
 20
-539.3213303512664
 30
0.0
 11
613.0162538988945
 21
-538.8213303512664
 31
0.0
  0
LINE
  5
214F2
330
18
100
AcDbEntity
  8
1PHANTOM
 48
0.6
100
AcDbLine
 10
638.0162538988945
 20
-539.3213303512664
 30
0.0
 11
632.0162538988945
 21
-539.3213303512664
 31
0.0
  0
ARC
  5
214F3
330
18
100
AcDbEntity
  8
1PHANTOM
 48
0.6
100
AcDbCircle
 10
632.0162538988945
 20
-539.8213303512664
 30
0.0
 40
0.5
100
AcDbArc
 50
90.0
 51
180.0
  0
LINE
  5
214F4
330
18
100
AcDbEntity
  8
1PHANTOM
 48
0.6
100
AcDbLine
 10
622.0162538988945
 20
-539.3213303512664
 30
0.0
 11
616.0162538988945
 21
-539.3213303512664
 31
0.0
  0
LINE
  5
214F5
330
18
100
AcDbEntity
  8
1PHANTOM
 48
0.6
100
AcDbLine
 10
622.5162538988945
 20
-553.3213303512664
 30
0.0
 11
622.5162538988945
 21
-539.8213303512664
 31
0.0
  0
ARC
  5
214F6
330
18
100
AcDbEntity
  8
1PHANTOM
 48
0.6
100
AcDbCircle
 10
622.0162538988945
 20
-539.8213303512664
 30
0.0
 40
0.5
100
AcDbArc
 50
0.0
 51
90.0
  0
LINE
  5
214F7
330
18
100
AcDbEntity
  8
1PHANTOM
 48
0.6
100
AcDbLine
 10
631.5162538988945
 20
-539.8213303512664
 30
0.0
 11
631.5162538988945
 21
-553.3213303512664
 31
0.0
  0
ARC
  5
214F8
330
18
100
AcDbEntity
  8
1PHANTOM
 48
0.6
100
AcDbCircle
 10
627.5162538988945
 20
-553.3213303512664
 30
0.0
 40
4.0
100
AcDbArc
 50
270.0
 51
0.0
  0
ARC
  5
214F9
330
18
100
AcDbEntity
  8
1PHANTOM
 48
0.6
100
AcDbCircle
 10
626.5162538988945
 20
-553.3213303512664
 30
0.0
 40
4.000000000000014
100
AcDbArc
 50
180.0
 51
270.0
  0
LINE
  5
214FA
330
18
100
AcDbEntity
  8
1PHANTOM
 48
0.6
100
AcDbLine
 10
627.5162538988945
 20
-557.3213303512664
 30
0.0
 11
626.5162538988945
 21
-557.3213303512664
 31
0.0
  0
CIRCLE
  5
214FB
330
18
100
AcDbEntity
  8
1PHANTOM
 48
0.6
100
AcDbCircle
 10
627.0162538988945
 20
-553.8213303512664
 30
0.0
 40
2.0
  0
LINE
  5
21D95
330
18
100
AcDbEntity
  8
01
100
AcDbLine
 10
807.3138327708535
 20
-597.0931070473052
 30
0.0
 11
807.3138327708535
 21
-671.549454217869
 31
0.0
  0
LINE
  5
21D96
330
18
100
AcDbEntity
  8
01
100
AcDbLine
 10
816.3138327708535
 20
-597.0931070473052
 30
0.0
 11
816.3138327708535
 21
-671.549454217869
 31
0.0
  0
LINE
  5
21D97
330
18
100
AcDbEntity
  8
01
100
AcDbLine
 10
794.8138327708535
 20
-597.0931070473052
 30
0.0
 11
794.8138327708535
 21
-671.549454217869
 31
0.0
  0
LINE
  5
21D9C
330
18
100
AcDbEntity
  8
1PHANTOM
 48
0.6
100
AcDbLine
 10
794.8138327708535
 20
-645.5712806325871
 30
0.0
 11
791.8138327708535
 21
-645.5712806325871
 31
0.0
  0
LINE
  5
21D9D
330
18
100
AcDbEntity
  8
1PHANTOM
 48
0.6
100
AcDbLine
 10
791.3138327708535
 20
-645.0712806325871
 30
0.0
 11
791.8138327708535
 21
-645.5712806325871
 31
0.0
  0
LINE
  5
21D9E
330
18
100
AcDbEntity
  8
1PHANTOM
100
AcDbLine
 10
791.3138327708535
 20
-635.8213306586756
 30
0.0
 11
791.3138327708535
 21
-636.5712806325871
 31
0.0
  0
LINE
  5
21D9F
330
18
100
AcDbEntity
  8
1PHANTOM
 48
0.6
100
AcDbLine
 10
791.8138327708535
 20
-623.0712806325871
 30
0.0
 11
791.3138327708535
 21
-623.5712806325871
 31
0.0
  0
LINE
  5
21DA0
330
18
100
AcDbEntity
  8
1PHANTOM
 48
0.6
100
AcDbLine
 10
791.8138327708535
 20
-623.0712806325871
 30
0.0
 11
794.8138327708535
 21
-623.0712806325871
 31
0.0
  0
LINE
  5
21DA1
330
18
100
AcDbEntity
  8
1PHANTOM
 48
0.6
100
AcDbLine
 10
777.3138327708535
 20
-624.0712806325871
 30
0.0
 11
790.8138327708535
 21
-624.0712806325871
 31
0.0
  0
ARC
  5
21DA2
330
18
100
AcDbEntity
  8
1PHANTOM
 48
0.6
100
AcDbCircle
 10
790.8138327708535
 20
-623.5712806325871
 30
0.0
 40
0.5
100
AcDbArc
 50
270.0
 51
0.0
  0
LINE
  5
21DA3
330
18
100
AcDbEntity
  8
1PHANTOM
 48
0.6
100
AcDbLine
 10
790.8138327708535
 20
-644.5712806325871
 30
0.0
 11
777.3138327708535
 21
-644.5712806325871
 31
0.0
  0
ARC
  5
21DA4
330
18
100
AcDbEntity
  8
1PHANTOM
 48
0.6
100
AcDbCircle
 10
790.8138327708535
 20
-645.0712806325871
 30
0.0
 40
0.5
100
AcDbArc
 50
0.0
 51
90.0
  0
LINE
  5
21DA5
330
18
100
AcDbEntity
  8
1PHANTOM
 48
0.6
100
AcDbLine
 10
773.8138327708535
 20
-624.0712806325871
 30
0.0
 11
777.3138327708535
 21
-624.0712806325871
 31
0.0
  0
ARC
  5
21DA6
330
18
100
AcDbEntity
  8
1PHANTOM
 48
0.6
100
AcDbCircle
 10
773.8138327708535
 20
-624.5712806325871
 30
0.0
 40
0.5000000000001137
100
AcDbArc
 50
90.0
 51
180.0
  0
LINE
  5
21DA7
330
18
100
AcDbEntity
  8
1PHANTOM
 48
0.6
100
AcDbLine
 10
777.3138327708535
 20
-644.5712806325871
 30
0.0
 11
773.8138327708535
 21
-644.5712806325871
 31
0.0
  0
ARC
  5
21DA8
330
18
100
AcDbEntity
  8
1PHANTOM
 48
0.6
100
AcDbCircle
 10
773.8138327708535
 20
-644.0712806325871
 30
0.0
 40
0.5000000000001137
100
AcDbArc
 50
180.0
 51
270.0
  0
LINE
  5
21DA9
330
18
100
AcDbEntity
  8
1PHANTOM
 48
0.6
100
AcDbLine
 10
773.3138327708535
 20
-644.0712806325871
 30
0.0
 11
773.3138327708535
 21
-624.5712806325871
 31
0.0
  0
LINE
  5
21DAA
330
18
100
AcDbEntity
  8
01
100
AcDbLine
 10
759.8138327708535
 20
-629.0712806325871
 30
0.0
 11
759.8138327708535
 21
-622.3212806325871
 31
0.0
  0
ARC
  5
21DAB
330
18
100
AcDbEntity
  8
01
100
AcDbCircle
 10
760.8138327708535
 20
-622.3212806325871
 30
0.0
 40
1.0
100
AcDbArc
 50
90.0
 51
180.0
  0
LINE
  5
21DAC
330
18
100
AcDbEntity
  8
01
100
AcDbLine
 10
760.8138327708535
 20
-621.3212806325871
 30
0.0
 11
794.8138327708535
 21
-621.3212806325871
 31
0.0
  0
ARC
  5
21DAD
330
18
100
AcDbEntity
  8
01
100
AcDbCircle
 10
760.8138327708535
 20
-646.3212806325871
 30
0.0
 40
1.0
100
AcDbArc
 50
180.0
 51
270.0
  0
LINE
  5
21DAE
330
18
100
AcDbEntity
  8
01
100
AcDbLine
 10
759.8138327708535
 20
-646.3212806325871
 30
0.0
 11
759.8138327708535
 21
-639.5712806325871
 31
0.0
  0
LINE
  5
21DAF
330
18
100
AcDbEntity
  8
01
100
AcDbLine
 10
794.8138327708535
 20
-647.3212806325871
 30
0.0
 11
760.8138327708535
 21
-647.3212806325871
 31
0.0
  0
LINE
  5
21DB0
330
18
100
AcDbEntity
  8
01
100
AcDbLine
 10
755.3138327708535
 20
-620.8212806325871
 30
0.0
 11
759.3138327708535
 21
-620.8212806325871
 31
0.0
  0
LINE
  5
21DB1
330
18
100
AcDbEntity
  8
01
100
AcDbLine
 10
759.8138327708535
 20
-621.3212806325871
 30
0.0
 11
759.8138327708535
 21
-647.3212806325871
 31
0.0
  0
LINE
  5
21DB2
330
18
100
AcDbEntity
  8
01
100
AcDbLine
 10
754.8138327708535
 20
-621.3212806325871
 30
0.0
 11
754.8138327708535
 21
-647.3212806325871
 31
0.0
  0
ARC
  5
21DB3
330
18
100
AcDbEntity
  8
01
100
AcDbCircle
 10
759.3138327708535
 20
-621.3212806325871
 30
0.0
 40
0.5000000000001137
100
AcDbArc
 50
0.0
 51
90.0
  0
ARC
  5
21DB4
330
18
100
AcDbEntity
  8
01
100
AcDbCircle
 10
759.3138327708535
 20
-647.3212806325871
 30
0.0
 40
0.5000000000001137
100
AcDbArc
 50
270.0
 51
0.0
  0
LINE
  5
21DB5
330
18
100
AcDbEntity
  8
01
100
AcDbLine
 10
759.3138327708535
 20
-647.8212806325871
 30
0.0
 11
755.3138327708535
 21
-647.8212806325871
 31
0.0
  0
ARC
  5
21DB6
330
18
100
AcDbEntity
  8
01
100
AcDbCircle
 10
755.3138327708535
 20
-647.3212806325871
 30
0.0
 40
0.5
100
AcDbArc
 50
180.0
 51
270.0
  0
ARC
  5
21DB7
330
18
100
AcDbEntity
  8
01
100
AcDbCircle
 10
755.3138327708535
 20
-621.3212806325871
 30
0.0
 40
0.5
100
AcDbArc
 50
90.0
 51
180.0
  0
LINE
  5
21DB8
330
18
100
AcDbEntity
  8
1PHANTOM
100
AcDbLine
 10
791.3138327708535
 20
-635.8213306586756
 30
0.0
 11
791.3138327708535
 21
-636.5713306586774
 31
0.0
  0
LINE
  5
21DB9
330
18
100
AcDbEntity
  8
1PHANTOM
100
AcDbLine
 10
825.3138327707994
 20
-634.3213306586774
 30
0.0
 11
820.0138362609374
 21
-632.8213306586774
 31
0.0
  0
LINE
  5
21DBA
330
18
100
AcDbEntity
  8
1PHANTOM
100
AcDbLine
 10
820.0138362609374
 20
-632.8213306586774
 30
0.0
 11
791.3138327708535
 21
-632.8213306586774
 31
0.0
  0
LINE
  5
21DBB
330
18
100
AcDbEntity
  8
1PHANTOM
100
AcDbLine
 10
791.3138327708535
 20
-632.8213306586774
 30
0.0
 11
790.3138362610458
 21
-632.8213306586774
 31
0.0
  0
LINE
  5
21DBC
330
18
100
AcDbEntity
  8
1PHANTOM
100
AcDbLine
 10
825.3138327707994
 20
-634.3213306586774
 30
0.0
 11
820.0138292805538
 21
-635.8213306586774
 31
0.0
  0
LINE
  5
21DBD
330
18
100
AcDbEntity
  8
1PHANTOM
100
AcDbLine
 10
790.3138409147438
 20
-630.8212841227803
 30
0.0
 11
790.3138362610458
 21
-632.8213306586774
 31
0.0
  0
LINE
  5
21DBE
330
18
100
AcDbEntity
  8
1PHANTOM
100
AcDbLine
 10
820.0138292805538
 20
-635.8213306586774
 30
0.0
 11
791.3138327708535
 21
-635.8213306586774
 31
0.0
  0
LINE
  5
21DBF
330
18
100
AcDbEntity
  8
1PHANTOM
100
AcDbLine
 10
791.3138327708535
 20
-635.8213306586774
 30
0.0
 11
790.3138292806613
 21
-635.8213306586774
 31
0.0
  0
LINE
  5
21DC0
330
18
100
AcDbEntity
  8
1PHANTOM
100
AcDbLine
 10
790.3138409147438
 20
-630.8212841227803
 30
0.0
 11
789.2138374245484
 21
-630.8212841227803
 31
0.0
  0
LINE
  5
21DC1
330
18
100
AcDbEntity
  8
1PHANTOM
100
AcDbLine
 10
790.3138292806613
 20
-635.8213306586774
 30
0.0
 11
790.3138246271798
 21
-637.8212841227803
 31
0.0
  0
ARC
  5
21DC2
330
18
100
AcDbEntity
  8
1PHANTOM
100
AcDbCircle
 10
789.2138374245484
 20
-632.3212841227803
 30
0.0
 40
1.5
100
AcDbArc
 50
90.0
 51
179.9998666844749
  0
LINE
  5
21DC3
330
18
100
AcDbEntity
  8
1PHANTOM
100
AcDbLine
 10
790.3138246271798
 20
-637.8212841227803
 30
0.0
 11
789.213828117369
 21
-637.8212841227803
 31
0.0
  0
LINE
  5
21DC4
330
18
100
AcDbEntity
  8
1PHANTOM
100
AcDbLine
 10
787.7138374245525
 20
-632.3212806325871
 30
0.0
 11
787.713828117373
 21
-636.3212806325871
 31
0.0
  0
ARC
  5
21DC5
330
18
100
AcDbEntity
  8
1PHANTOM
100
AcDbCircle
 10
789.213828117369
 20
-636.3212841227803
 30
0.0
 40
1.5
100
AcDbArc
 50
179.9998666844749
 51
270.0
  0
LINE
  5
21DC6
330
18
100
AcDbEntity
  8
1PHANTOM
100
AcDbLine
 10
823.2138353171214
 20
-633.226960308785
 30
0.0
 11
824.0138307511726
 21
-635.189295397661
 31
0.0
  0
LINE
  5
21DC7
330
18
100
AcDbEntity
  8
1PHANTOM
100
AcDbLine
 10
824.0138307511726
 20
-635.189295397661
 30
0.0
 11
824.3256006074245
 21
-634.601018822618
 31
0.0
  0
LINE
  5
21DC8
330
18
100
AcDbEntity
  8
1PHANTOM
100
AcDbLine
 10
795.8138374243314
 20
-632.3213306586774
 30
0.0
 11
796.6138281171499
 21
-636.3213306586774
 31
0.0
  0
LINE
  5
21DC9
330
18
100
AcDbEntity
  8
1PHANTOM
100
AcDbLine
 10
807.0138374243357
 20
-632.3213306586774
 30
0.0
 11
807.8138281171583
 21
-636.3213306586774
 31
0.0
  0
LINE
  5
21DCA
330
18
100
AcDbEntity
  8
1PHANTOM
100
AcDbLine
 10
815.213837424336
 20
-632.3213306586774
 30
0.0
 11
816.0138281171586
 21
-636.3213306586774
 31
0.0
  0
LINE
  5
21DCB
330
18
100
AcDbEntity
  8
1PHANTOM
100
AcDbLine
 10
816.0138281171586
 20
-636.3213306586774
 30
0.0
 11
816.1138292805559
 21
-635.8213306586774
 31
0.0
  0
LINE
  5
21DCC
330
18
100
AcDbEntity
  8
1PHANTOM
100
AcDbLine
 10
816.7138362609386
 20
-632.8213306586774
 30
0.0
 11
816.8138374243359
 21
-632.3213306586774
 31
0.0
  0
LINE
  5
21DCD
330
18
100
AcDbEntity
  8
1PHANTOM
100
AcDbLine
 10
807.8138281171583
 20
-636.3213306586774
 30
0.0
 11
807.9138292805557
 21
-635.8213306586774
 31
0.0
  0
LINE
  5
21DCE
330
18
100
AcDbEntity
  8
1PHANTOM
100
AcDbLine
 10
814.4138281171587
 20
-636.3213306586774
 30
0.0
 11
814.5138292805556
 21
-635.8213306586774
 31
0.0
  0
LINE
  5
21DCF
330
18
100
AcDbEntity
  8
1PHANTOM
100
AcDbLine
 10
815.1138362609387
 20
-632.8213306586774
 30
0.0
 11
815.213837424336
 21
-632.3213306586774
 31
0.0
  0
LINE
  5
21DD0
330
18
100
AcDbEntity
  8
1PHANTOM
100
AcDbLine
 10
813.5138362609388
 20
-632.8213306586774
 30
0.0
 11
813.6138374243361
 21
-632.3213306586774
 31
0.0
  0
LINE
  5
21DD1
330
18
100
AcDbEntity
  8
1PHANTOM
100
AcDbLine
 10
813.6138374243361
 20
-632.3213306586774
 30
0.0
 11
814.4138281171587
 21
-636.3213306586774
 31
0.0
  0
LINE
  5
21DD2
330
18
100
AcDbEntity
  8
1PHANTOM
100
AcDbLine
 10
822.4138296975667
 20
-635.6421095020676
 30
0.0
 11
822.5965938401947
 21
-635.0903600382633
 31
0.0
  0
LINE
  5
21DD3
330
18
100
AcDbEntity
  8
1PHANTOM
100
AcDbLine
 10
819.2138281171584
 20
-636.3213306586774
 30
0.0
 11
819.3138292805558
 21
-635.8213306586774
 31
0.0
  0
LINE
  5
21DD4
330
18
100
AcDbEntity
  8
1PHANTOM
100
AcDbLine
 10
817.6138281171585
 20
-636.3213306586774
 30
0.0
 11
817.7138292805554
 21
-635.8213306586774
 31
0.0
  0
LINE
  5
21DD5
330
18
100
AcDbEntity
  8
1PHANTOM
100
AcDbLine
 10
820.8138286439613
 20
-636.0949236064741
 30
0.0
 11
820.9430993415909
 21
-635.5583298712015
 31
0.0
  0
LINE
  5
21DD6
330
18
100
AcDbEntity
  8
1PHANTOM
100
AcDbLine
 10
821.5010668583756
 20
-633.2422452558865
 30
0.0
 11
821.6138363707256
 21
-632.7741468007359
 31
0.0
  0
LINE
  5
21DD7
330
18
100
AcDbEntity
  8
1PHANTOM
100
AcDbLine
 10
818.313836260939
 20
-632.8213306586774
 30
0.0
 11
818.4138374243358
 21
-632.3213306586774
 31
0.0
  0
LINE
  5
21DD8
330
18
100
AcDbEntity
  8
1PHANTOM
100
AcDbLine
 10
819.9138362609389
 20
-632.8213306586774
 30
0.0
 11
820.0138374243357
 21
-632.3213306586774
 31
0.0
  0
LINE
  5
21DD9
330
18
100
AcDbEntity
  8
1PHANTOM
100
AcDbLine
 10
823.0623995206812
 20
-633.6841321494146
 30
0.0
 11
823.2138353171214
 21
-633.226960308785
 31
0.0
  0
LINE
  5
21DDA
330
18
100
AcDbEntity
  8
1PHANTOM
100
AcDbLine
 10
821.6138363707256
 20
-632.7741468007359
 30
0.0
 11
822.4138296975667
 21
-635.6421095020676
 31
0.0
  0
LINE
  5
21DDB
330
18
100
AcDbEntity
  8
1PHANTOM
100
AcDbLine
 10
818.4138374243358
 20
-632.3213306586774
 30
0.0
 11
819.2138281171584
 21
-636.3213306586774
 31
0.0
  0
LINE
  5
21DDC
330
18
100
AcDbEntity
  8
1PHANTOM
100
AcDbLine
 10
820.0138374243357
 20
-632.3213306586774
 30
0.0
 11
820.8138286439613
 21
-636.0949236064741
 31
0.0
  0
LINE
  5
21DDD
330
18
100
AcDbEntity
  8
1PHANTOM
100
AcDbLine
 10
816.8138374243359
 20
-632.3213306586774
 30
0.0
 11
817.6138281171585
 21
-636.3213306586774
 31
0.0
  0
LINE
  5
21DDE
330
18
100
AcDbEntity
  8
1PHANTOM
100
AcDbLine
 10
799.0138374243317
 20
-632.3213306586774
 30
0.0
 11
799.8138281171497
 21
-636.3213306586774
 31
0.0
  0
LINE
  5
21DDF
330
18
100
AcDbEntity
  8
1PHANTOM
100
AcDbLine
 10
799.8138281171497
 20
-636.3213306586774
 30
0.0
 11
799.9138292805475
 21
-635.8213306586774
 31
0.0
  0
LINE
  5
21DE0
330
18
100
AcDbEntity
  8
1PHANTOM
100
AcDbLine
 10
800.5138362609383
 20
-632.8213306586774
 30
0.0
 11
800.6138374243361
 21
-632.3213306586774
 31
0.0
  0
LINE
  5
21DE1
330
18
100
AcDbEntity
  8
1PHANTOM
100
AcDbLine
 10
798.2138281171498
 20
-636.3213306586774
 30
0.0
 11
798.3138292805476
 21
-635.8213306586774
 31
0.0
  0
LINE
  5
21DE2
330
18
100
AcDbEntity
  8
1PHANTOM
100
AcDbLine
 10
796.6138281171499
 20
-636.3213306586774
 30
0.0
 11
796.7138292805472
 21
-635.8213306586774
 31
0.0
  0
LINE
  5
21DE3
330
18
100
AcDbEntity
  8
1PHANTOM
100
AcDbLine
 10
798.9138362609339
 20
-632.8213306586774
 30
0.0
 11
799.0138374243317
 21
-632.3213306586774
 31
0.0
  0
LINE
  5
21DE4
330
18
100
AcDbEntity
  8
1PHANTOM
100
AcDbLine
 10
797.313836260934
 20
-632.8213306586774
 30
0.0
 11
797.4138374243313
 21
-632.3213306586774
 31
0.0
  0
LINE
  5
21DE5
330
18
100
AcDbEntity
  8
1PHANTOM
100
AcDbLine
 10
797.4138374243313
 20
-632.3213306586774
 30
0.0
 11
798.2138281171498
 21
-636.3213306586774
 31
0.0
  0
LINE
  5
21DE6
330
18
100
AcDbEntity
  8
1PHANTOM
100
AcDbLine
 10
804.613828117154
 20
-636.3213306586774
 30
0.0
 11
804.7138292805517
 21
-635.8213306586774
 31
0.0
  0
LINE
  5
21DE7
330
18
100
AcDbEntity
  8
1PHANTOM
100
AcDbLine
 10
806.2138281171584
 20
-636.3213306586774
 30
0.0
 11
806.3138292805558
 21
-635.8213306586774
 31
0.0
  0
LINE
  5
21DE8
330
18
100
AcDbEntity
  8
1PHANTOM
100
AcDbLine
 10
801.4138281171541
 20
-636.3213306586774
 30
0.0
 11
801.5138292805519
 21
-635.8213306586774
 31
0.0
  0
LINE
  5
21DE9
330
18
100
AcDbEntity
  8
1PHANTOM
100
AcDbLine
 10
803.013828117154
 20
-636.3213306586774
 30
0.0
 11
803.1138292805518
 21
-635.8213306586774
 31
0.0
  0
LINE
  5
21DEA
330
18
100
AcDbEntity
  8
1PHANTOM
100
AcDbLine
 10
806.9138362609389
 20
-632.8213306586774
 30
0.0
 11
807.0138374243357
 21
-632.3213306586774
 31
0.0
  0
LINE
  5
21DEB
330
18
100
AcDbEntity
  8
1PHANTOM
100
AcDbLine
 10
805.313836260938
 20
-632.8213306586774
 30
0.0
 11
805.4138374243358
 21
-632.3213306586774
 31
0.0
  0
LINE
  5
21DEC
330
18
100
AcDbEntity
  8
1PHANTOM
100
AcDbLine
 10
802.1138362609382
 20
-632.8213306586774
 30
0.0
 11
802.2138374243356
 21
-632.3213306586774
 31
0.0
  0
LINE
  5
21DED
330
18
100
AcDbEntity
  8
1PHANTOM
100
AcDbLine
 10
803.7138362609381
 20
-632.8213306586774
 30
0.0
 11
803.8138374243359
 21
-632.3213306586774
 31
0.0
  0
LINE
  5
21DEE
330
18
100
AcDbEntity
  8
1PHANTOM
100
AcDbLine
 10
803.8138374243359
 20
-632.3213306586774
 30
0.0
 11
804.613828117154
 21
-636.3213306586774
 31
0.0
  0
LINE
  5
21DEF
330
18
100
AcDbEntity
  8
1PHANTOM
100
AcDbLine
 10
805.4138374243358
 20
-632.3213306586774
 30
0.0
 11
806.2138281171584
 21
-636.3213306586774
 31
0.0
  0
LINE
  5
21DF0
330
18
100
AcDbEntity
  8
1PHANTOM
100
AcDbLine
 10
802.2138374243356
 20
-632.3213306586774
 30
0.0
 11
803.013828117154
 21
-636.3213306586774
 31
0.0
  0
LINE
  5
21DF1
330
18
100
AcDbEntity
  8
1PHANTOM
100
AcDbLine
 10
800.6138374243361
 20
-632.3213306586774
 30
0.0
 11
801.4138281171541
 21
-636.3213306586774
 31
0.0
  0
LINE
  5
21DF2
330
18
100
AcDbEntity
  8
1PHANTOM
100
AcDbLine
 10
790.3138292806613
 20
-635.8213306586774
 30
0.0
 11
790.3138362610458
 21
-632.8213306586774
 31
0.0
  0
LINE
  5
21DF3
330
18
100
AcDbEntity
  8
1PHANTOM
100
AcDbLine
 10
795.7138362609336
 20
-632.8213306586774
 30
0.0
 11
795.8138374243314
 21
-632.3213306586774
 31
0.0
  0
LINE
  5
21DF4
330
18
100
AcDbEntity
  8
1PHANTOM
100
AcDbLine
 10
808.6138374243357
 20
-632.3213306586774
 30
0.0
 11
809.4138281171582
 21
-636.3213306586774
 31
0.0
  0
LINE
  5
21DF5
330
18
100
AcDbEntity
  8
1PHANTOM
100
AcDbLine
 10
809.4138281171582
 20
-636.3213306586774
 30
0.0
 11
809.5138292805556
 21
-635.8213306586774
 31
0.0
  0
LINE
  5
21DF6
330
18
100
AcDbEntity
  8
1PHANTOM
100
AcDbLine
 10
808.5138362609388
 20
-632.8213306586774
 30
0.0
 11
808.6138374243357
 21
-632.3213306586774
 31
0.0
  0
LINE
  5
21DF7
330
18
100
AcDbEntity
  8
1PHANTOM
100
AcDbLine
 10
810.2138374243356
 20
-632.3213306586774
 30
0.0
 11
811.0138281171581
 21
-636.3213306586774
 31
0.0
  0
LINE
  5
21DF8
330
18
100
AcDbEntity
  8
1PHANTOM
100
AcDbLine
 10
811.0138281171581
 20
-636.3213306586774
 30
0.0
 11
811.1138292805555
 21
-635.8213306586774
 31
0.0
  0
LINE
  5
21DF9
330
18
100
AcDbEntity
  8
1PHANTOM
100
AcDbLine
 10
810.1138362609387
 20
-632.8213306586774
 30
0.0
 11
810.2138374243356
 21
-632.3213306586774
 31
0.0
  0
LINE
  5
21DFA
330
18
100
AcDbEntity
  8
1PHANTOM
100
AcDbLine
 10
811.8138374243355
 20
-632.3213306586774
 30
0.0
 11
812.613828117158
 21
-636.3213306586774
 31
0.0
  0
LINE
  5
21DFB
330
18
100
AcDbEntity
  8
1PHANTOM
100
AcDbLine
 10
812.613828117158
 20
-636.3213306586774
 30
0.0
 11
812.7138292805554
 21
-635.8213306586774
 31
0.0
  0
LINE
  5
21DFC
330
18
100
AcDbEntity
  8
1PHANTOM
100
AcDbLine
 10
811.7138362609386
 20
-632.8213306586774
 30
0.0
 11
811.8138374243355
 21
-632.3213306586774
 31
0.0
  0
LINE
  5
21DFD
330
18
100
AcDbEntity
  8
1PHANTOM
100
AcDbLine
 10
790.3138327708535
 20
-630.5213306586782
 30
0.0
 11
790.3138327708535
 21
-638.1213306586767
 31
0.0
  0
LINE
  5
21DFE
330
18
100
AcDbEntity
  8
1PHANTOM
100
AcDbLine
 10
790.3138327708535
 20
-638.1213306586767
 30
0.0
 11
791.3138327708535
 21
-638.1213306586767
 31
0.0
  0
LINE
  5
21DFF
330
18
100
AcDbEntity
  8
1PHANTOM
100
AcDbLine
 10
791.3138327708535
 20
-638.1213306586767
 30
0.0
 11
791.3138327708535
 21
-630.5213306586782
 31
0.0
  0
LINE
  5
21E00
330
18
100
AcDbEntity
  8
1PHANTOM
100
AcDbLine
 10
791.3138327708535
 20
-630.5213306586782
 30
0.0
 11
790.3138327708535
 21
-630.5213306586782
 31
0.0
  0
LINE
  5
21E01
330
18
100
AcDbEntity
  8
1PHANTOM
100
AcDbLine
 10
794.2138374243315
 20
-632.3213306586774
 30
0.0
 11
795.01382811715
 21
-636.3213306586774
 31
0.0
  0
LINE
  5
21E02
330
18
100
AcDbEntity
  8
1PHANTOM
100
AcDbLine
 10
795.01382811715
 20
-636.3213306586774
 30
0.0
 11
795.1138292805477
 21
-635.8213306586774
 31
0.0
  0
LINE
  5
21E03
330
18
100
AcDbEntity
  8
1PHANTOM
100
AcDbLine
 10
794.1138362609341
 20
-632.8213306586774
 30
0.0
 11
794.2138374243315
 21
-632.3213306586774
 31
0.0
  0
LINE
  5
21E04
330
18
100
AcDbEntity
  8
1PHANTOM
100
AcDbLine
 10
792.6138374243316
 20
-632.3213306586774
 30
0.0
 11
793.41382811715
 21
-636.3213306586774
 31
0.0
  0
LINE
  5
21E05
330
18
100
AcDbEntity
  8
1PHANTOM
100
AcDbLine
 10
793.41382811715
 20
-636.3213306586774
 30
0.0
 11
793.5138292805474
 21
-635.8213306586774
 31
0.0
  0
LINE
  5
21E06
330
18
100
AcDbEntity
  8
1PHANTOM
100
AcDbLine
 10
792.5138362609338
 20
-632.8213306586774
 30
0.0
 11
792.6138374243316
 21
-632.3213306586774
 31
0.0
  0
LINE
  5
21E07
330
18
100
AcDbEntity
  8
1PHANTOM
100
AcDbLine
 10
791.0138374243317
 20
-632.3213306586774
 30
0.0
 11
791.8138281171501
 21
-636.3213306586774
 31
0.0
  0
LINE
  5
21E08
330
18
100
AcDbEntity
  8
1PHANTOM
100
AcDbLine
 10
791.8138281171501
 20
-636.3213306586774
 30
0.0
 11
791.9138292805479
 21
-635.8213306586774
 31
0.0
  0
LINE
  5
21E09
330
18
100
AcDbEntity
  8
1PHANTOM
100
AcDbLine
 10
790.9138362609343
 20
-632.8213306586774
 30
0.0
 11
791.0138374243317
 21
-632.3213306586774
 31
0.0
  0
LINE
  5
21E0A
330
18
100
AcDbEntity
  8
1CENTER
100
AcDbLine
 10
786.2753346613837
 20
-634.3212806325871
 30
0.0
 11
826.2190954819736
 21
-634.3212806325871
 31
0.0
  0
LINE
  5
21E0B
330
18
100
AcDbEntity
  8
01
100
AcDbLine
 10
807.3138327708535
 20
-597.0931070473052
 30
0.0
 11
807.3138327708535
 21
-671.549454217869
 31
0.0
  0
LINE
  5
21E0C
330
18
100
AcDbEntity
  8
01
100
AcDbLine
 10
816.3138327708535
 20
-597.0931070473052
 30
0.0
 11
816.3138327708535
 21
-671.549454217869
 31
0.0
  0
LINE
  5
21E0D
330
18
100
AcDbEntity
  8
01
100
AcDbLine
 10
794.8138327708535
 20
-597.0931070473052
 30
0.0
 11
794.8138327708535
 21
-671.549454217869
 31
0.0
  0
LINE
  5
21E0E
330
18
100
AcDbEntity
  8
1CENTER
100
AcDbLine
 10
776.8138327708535
 20
-625.8502951506134
 30
0.0
 11
776.8138327708535
 21
-645.5960884557717
 31
0.0
  0
LINE
  5
21E15
330
18
100
AcDbEntity
  8
1PHANTOM
100
AcDbLine
 10
778.4638327708535
 20
-626.3712806425873
 30
0.0
 11
775.1638327708537
 21
-626.3712806425873
 31
0.0
  0
LINE
  5
21E16
330
18
100
AcDbEntity
  8
1PHANTOM
100
AcDbLine
 10
775.1638327708537
 20
-626.3712806425873
 30
0.0
 11
774.8138327708535
 21
-626.7212806425877
 31
0.0
  0
LINE
  5
21E17
330
18
100
AcDbEntity
  8
1PHANTOM
100
AcDbLine
 10
778.8138327708535
 20
-626.7212806425877
 30
0.0
 11
778.4638327708535
 21
-626.3712806425873
 31
0.0
  0
LINE
  5
21E18
330
18
100
AcDbEntity
  8
1PHANTOM
100
AcDbLine
 10
774.8138327708535
 20
-626.7212806425877
 30
0.0
 11
774.8138327708535
 21
-645.0712804685144
 31
0.0
  0
LINE
  5
21E19
330
18
100
AcDbEntity
  8
1PHANTOM
100
AcDbLine
 10
778.8138327708535
 20
-626.7212806425877
 30
0.0
 11
778.8138327708535
 21
-645.0712804685144
 31
0.0
  0
LINE
  5
21E1A
330
18
100
AcDbEntity
  8
1PHANTOM
100
AcDbLine
 10
774.8138327708535
 20
-645.0712804685144
 30
0.0
 11
773.8138327708535
 21
-646.0712805425873
 31
0.0
  0
LINE
  5
21E1B
330
18
100
AcDbEntity
  8
1PHANTOM
100
AcDbLine
 10
778.8138327708535
 20
-645.0712804685144
 30
0.0
 11
779.8138327708535
 21
-646.0712806325872
 31
0.0
  0
LINE
  5
21E1C
330
18
100
AcDbEntity
  8
1PHANTOM
100
AcDbLine
 10
773.8138327708535
 20
-646.0712805425873
 30
0.0
 11
773.8138327708535
 21
-646.3712806425873
 31
0.0
  0
LINE
  5
21E1D
330
18
100
AcDbEntity
  8
1PHANTOM
100
AcDbLine
 10
779.8138327708535
 20
-646.0712806325872
 30
0.0
 11
779.8138327708535
 21
-646.3712806425873
 31
0.0
  0
LINE
  5
21E1E
330
18
100
AcDbEntity
  8
1PHANTOM
100
AcDbLine
 10
779.8138327708535
 20
-646.3712806425873
 30
0.0
 11
773.8138327708535
 21
-646.3712806425873
 31
0.0
  0
LINE
  5
21E1F
330
18
100
AcDbEntity
  8
1HATCH
100
AcDbLine
 10
778.8138327708535
 20
-626.7212806425877
 30
0.0
 11
774.8138327708535
 21
-626.7212806425877
 31
0.0
  0
LINE
  5
21E20
330
18
100
AcDbEntity
  8
1HATCH
100
AcDbLine
 10
775.1638327708536
 20
-626.3712806425873
 30
0.0
 11
775.1638327708536
 21
-644.7212806425877
 31
0.0
  0
LINE
  5
21E21
330
18
100
AcDbEntity
  8
1HATCH
100
AcDbLine
 10
778.4638327708535
 20
-626.3712806425873
 30
0.0
 11
778.4638327708535
 21
-644.7212806425877
 31
0.0
  0
LINE
  5
21E22
330
18
100
AcDbEntity
  8
1HATCH
100
AcDbLine
 10
778.4638327708535
 20
-644.7212806425877
 30
0.0
 11
778.8138327708535
 21
-645.0712804685144
 31
0.0
  0
LINE
  5
21E23
330
18
100
AcDbEntity
  8
1HATCH
100
AcDbLine
 10
774.8138327708535
 20
-645.0712804685144
 30
0.0
 11
775.1638327708536
 21
-644.7212806425877
 31
0.0
  0
LINE
  5
21E24
330
18
100
AcDbEntity
  8
01
100
AcDbLine
 10
794.8138327708535
 20
-621.3212806325871
 30
0.0
 11
794.8138327708535
 21
-647.3212806325871
 31
0.0
  0
TEXT
  5
220B1
330
18
100
AcDbEntity
  8
01
  6
CONTINUOUS
100
AcDbText
 10
801.551348281676
 20
-589.8902115854679
 30
0.0
 40
3.5
  1
PB
100
AcDbText
  0
TEXT
  5
220B2
330
18
100
AcDbEntity
  8
01
  6
CONTINUOUS
100
AcDbText
 10
814.6867664268412
 20
-589.8902115854679
 30
0.0
 40
3.5
  1
合板9mm以上
100
AcDbText
  0
TEXT
  5
220B3
330
18
100
AcDbEntity
  8
01
  6
CONTINUOUS
100
AcDbText
 10
801.551348281676
 20
-589.8902115854679
 30
0.0
 40
3.5
  1
PB
100
AcDbText
  0
TEXT
  5
220B4
330
18
100
AcDbEntity
  8
01
  6
CONTINUOUS
100
AcDbText
 10
814.6867664268412
 20
-589.8902115854679
 30
0.0
 40
3.5
  1
合板9mm以上
100
AcDbText
  0
LINE
  5
220B5
330
18
100
AcDbEntity
  8
1DIM
100
AcDbLine
 10
544.2458307863245
 20
-647.821279972878
 30
0.0
 11
543.2458307863245
 21
-647.821279972878
 31
0.0
1001
ACAD
1000
DSTYLE
1002
{
1070
    45
1040
0.5
1002
}
  0
LINE
  5
220B6
330
18
100
AcDbEntity
  8
1DIM
100
AcDbLine
 10
544.2458307863245
 20
-620.821280203846
 30
0.0
 11
543.2458307863245
 21
-620.821280203846
 31
0.0
1001
ACAD
1000
DSTYLE
1002
{
1070
    45
1040
0.5
1002
}
  0
LINE
  5
220B7
330
18
100
AcDbEntity
  8
1DIM
100
AcDbLine
 10
544.2458307863245
 20
-645.821279972878
 30
0.0
 11
544.2458307863245
 21
-622.821280203846
 31
0.0
1001
ACAD
1000
DSTYLE
1002
{
1070
    45
1040
0.5
1002
}
  0
SOLID
  5
220BB
330
18
100
AcDbEntity
  8
1DIM
100
AcDbTrace
 10
609.9878841901967
 20
-543.7128461877685
 30
0.0
 11
611.1021486252437
 21
-542.0188786910612
 31
0.0
 12
610.5975095639963
 22
-543.9826634371509
 32
0.0
 13
610.5975095639963
 23
-543.9826634371509
 33
0.0
1001
ACAD
1000
DSTYLE
1002
{
1070
    45
1040
0.5
1002
}
  0
LINE
  5
220BC
330
18
100
AcDbEntity
  8
1DIM
100
AcDbLine
 10
610.2926968770965
 20
-543.8477548124597
 30
0.0
 11
603.1811583565524
 21
-559.9155723400631
 31
0.0
1001
ACAD
1000
DSTYLE
1002
{
1070
    45
1040
0.5
1002
}
  0
LINE
  5
220BD
330
18
100
AcDbEntity
  8
1DIM
100
AcDbLine
 10
603.1811583565524
 20
-559.9155723400631
 30
0.0
 11
567.697825023219
 21
-559.9155723400631
 31
0.0
1001
ACAD
1000
DSTYLE
1002
{
1070
    45
1040
0.5
1002
}
  0
TEXT
  5
220BE
330
18
100
AcDbEntity
  8
1DIM
  6
CONTINUOUS
100
AcDbText
 10
580.1811583565523
 20
-553.3822390067297
 30
0.0
 40
3.5
  1
材質：真鍮
100
AcDbText
  0
TEXT
  5
220BF
330
18
100
AcDbEntity
  8
1DIM
  6
CONTINUOUS
100
AcDbText
 10
567.5811583565524
 20
-559.2155723400631
 30
0.0
 40
3.5
  1
仕上げ：クローム
100
AcDbText
  0
LINE
  5
220C0
330
18
100
AcDbEntity
  8
1DIM
100
AcDbLine
 10
544.2458307863245
 20
-575.8213313198418
 30
0.0
 11
543.2458307863245
 21
-575.8213313198418
 31
0.0
1001
ACAD
1000
DSTYLE
1002
{
1070
    45
1040
0.5
1002
}
  0
LINE
  5
220C1
330
18
100
AcDbEntity
  8
1DIM
100
AcDbLine
 10
544.2458307863245
 20
-570.8213305002779
 30
0.0
 11
543.2458307863245
 21
-570.8213305002779
 31
0.0
1001
ACAD
1000
DSTYLE
1002
{
1070
    45
1040
0.5
1002
}
  0
LINE
  5
220C2
330
18
100
AcDbEntity
  8
1DIM
100
AcDbLine
 10
544.2458307863245
 20
-577.8213313198418
 30
0.0
 11
544.2458307863245
 21
-579.8213313198418
 31
0.0
1001
ACAD
1000
DSTYLE
1002
{
1070
    45
1040
0.5
1002
}
  0
LINE
  5
220C3
330
18
100
AcDbEntity
  8
1DIM
100
AcDbLine
 10
544.2458307863245
 20
-568.8213305002779
 30
0.0
 11
544.2458307863245
 21
-563.0879971669445
 31
0.0
1001
ACAD
1000
DSTYLE
1002
{
1070
    45
1040
0.5
1002
}
  0
LINE
  5
220C4
330
18
100
AcDbEntity
  8
1DIM
100
AcDbLine
 10
544.2458307863245
 20
-575.8213313198418
 30
0.0
 11
544.2458307863245
 21
-570.8213305002779
 31
0.0
1001
ACAD
1000
DSTYLE
1002
{
1070
    45
1040
0.5
1002
}
  0
LINE
  5
220C8
330
18
100
AcDbEntity
  8
1DIM1
100
AcDbLine
 10
177.0162616400387
 20
-653.6388683329644
 30
0.0
 11
177.0162616400387
 21
-700.821279972878
 31
0.0
1001
ACAD
1000
DSTYLE
1002
{
1070
    40
1040
3.0
1070
    45
1040
0.5
1002
}
  0
LINE
  5
220C9
330
18
100
AcDbEntity
  8
1DIM1
100
AcDbLine
 10
627.016253896408
 20
-653.6388683329644
 30
0.0
 11
627.016253896408
 21
-700.821279972878
 31
0.0
1001
ACAD
1000
DSTYLE
1002
{
1070
    40
1040
3.0
1070
    45
1040
0.5
1002
}
  0
LINE
  5
220CA
330
18
100
AcDbEntity
  8
1DIM1
100
AcDbLine
 10
183.0162616400387
 20
-697.821279972878
 30
0.0
 11
621.016253896408
 21
-697.821279972878
 31
0.0
1001
ACAD
1000
DSTYLE
1002
{
1070
    40
1040
3.0
1070
    45
1040
0.5
1002
}
  0
LINE
  5
220CE
330
18
100
AcDbEntity
  8
1DIM1
100
AcDbLine
 10
142.0162652188039
 20
-639.8212805242209
 30
0.0
 11
142.0162652188039
 21
-725.821279972878
 31
0.0
1001
ACAD
1000
DSTYLE
1002
{
1070
    40
1040
3.0
1070
    45
1040
0.5
1002
}
  0
LINE
  5
220CF
330
18
100
AcDbEntity
  8
1DIM1
100
AcDbLine
 10
662.0162652188039
 20
-634.3212806325871
 30
0.0
 11
662.0162652188039
 21
-725.821279972878
 31
0.0
1001
ACAD
1000
DSTYLE
1002
{
1070
    40
1040
3.0
1070
    45
1040
0.5
1002
}
  0
LINE
  5
220D0
330
18
100
AcDbEntity
  8
1DIM1
100
AcDbLine
 10
148.0162652188039
 20
-722.821279972878
 30
0.0
 11
656.0162652188039
 21
-722.821279972878
 31
0.0
1001
ACAD
1000
DSTYLE
1002
{
1070
    40
1040
3.0
1070
    45
1040
0.5
1002
}
  0
LINE
  5
220D4
330
18
100
AcDbEntity
  8
1DIM
100
AcDbLine
 10
618.0162538914349
 20
-637.5143039953446
 30
0.0
 11
618.0162538914349
 21
-658.8744236594239
 31
0.0
1001
ACAD
1000
DSTYLE
1002
{
1070
    45
1040
0.5
1002
}
  0
LINE
  5
220D5
330
18
100
AcDbEntity
  8
1DIM
100
AcDbLine
 10
636.016253896408
 20
-637.5143039953446
 30
0.0
 11
636.016253896408
 21
-658.8744236594239
 31
0.0
1001
ACAD
1000
DSTYLE
1002
{
1070
    45
1040
0.5
1002
}
  0
LINE
  5
220D6
330
18
100
AcDbEntity
  8
1DIM
100
AcDbLine
 10
620.0162538914349
 20
-657.8744236594239
 30
0.0
 11
634.016253896408
 21
-657.8744236594239
 31
0.0
1001
ACAD
1000
DSTYLE
1002
{
1070
    45
1040
0.5
1002
}
  0
LINE
  5
220DA
330
18
100
AcDbEntity
  8
1DIM
100
AcDbLine
 10
643.0162416153646
 20
-535.8213303512664
 30
0.0
 11
643.0162416153646
 21
-499.8213303512664
 31
0.0
1001
ACAD
1000
DSTYLE
1002
{
1070
    45
1040
0.5
1002
}
  0
LINE
  5
220DB
330
18
100
AcDbEntity
  8
1DIM
100
AcDbLine
 10
611.0162661724783
 20
-535.8213303512664
 30
0.0
 11
611.0162661724783
 21
-499.8213303512664
 31
0.0
1001
ACAD
1000
DSTYLE
1002
{
1070
    45
1040
0.5
1002
}
  0
LINE
  5
220DC
330
18
100
AcDbEntity
  8
1DIM
100
AcDbLine
 10
641.0162416153646
 20
-500.8213303512664
 30
0.0
 11
613.0162661724783
 21
-500.8213303512664
 31
0.0
1001
ACAD
1000
DSTYLE
1002
{
1070
    45
1040
0.5
1002
}
  0
SOLID
  5
220E0
330
18
100
AcDbEntity
  8
1DIM
100
AcDbTrace
 10
609.9878841901967
 20
-577.3007792012725
 30
0.0
 11
611.1021486252437
 21
-575.6068117045652
 31
0.0
 12
610.5975095639963
 22
-577.5705964506549
 32
0.0
 13
610.5975095639963
 23
-577.5705964506549
 33
0.0
1001
ACAD
1000
DSTYLE
1002
{
1070
    45
1040
0.5
1002
}
  0
LINE
  5
220E1
330
18
100
AcDbEntity
  8
1DIM
100
AcDbLine
 10
610.2926968770965
 20
-577.4356878259637
 30
0.0
 11
603.1811583565524
 21
-593.5035053535671
 31
0.0
1001
ACAD
1000
DSTYLE
1002
{
1070
    45
1040
0.5
1002
}
  0
LINE
  5
220E2
330
18
100
AcDbEntity
  8
1DIM
100
AcDbLine
 10
603.1811583565524
 20
-593.5035053535671
 30
0.0
 11
567.697825023219
 21
-593.5035053535671
 31
0.0
1001
ACAD
1000
DSTYLE
1002
{
1070
    45
1040
0.5
1002
}
  0
TEXT
  5
220E3
330
18
100
AcDbEntity
  8
1DIM
  6
CONTINUOUS
100
AcDbText
 10
580.1811583565523
 20
-586.9701720202337
 30
0.0
 40
3.5
  1
材質：真鍮
100
AcDbText
  0
TEXT
  5
220E4
330
18
100
AcDbEntity
  8
1DIM
  6
CONTINUOUS
100
AcDbText
 10
567.5811583565524
 20
-592.8035053535671
 30
0.0
 40
3.5
  1
仕上げ：クローム
100
AcDbText
  0
LINE
  5
220E5
330
18
100
AcDbEntity
  8
1DIM1
100
AcDbLine
 10
186.0162616450114
 20
-637.5143039953481
 30
0.0
 11
186.0162616450114
 21
-675.821279972878
 31
0.0
1001
ACAD
1000
DSTYLE
1002
{
1070
    40
1040
3.0
1070
    45
1040
0.5
1002
}
  0
LINE
  5
220E6
330
18
100
AcDbEntity
  8
1DIM1
100
AcDbLine
 10
618.0162538914349
 20
-637.5143039953446
 30
0.0
 11
618.0162538914349
 21
-675.821279972878
 31
0.0
1001
ACAD
1000
DSTYLE
1002
{
1070
    40
1040
3.0
1070
    45
1040
0.5
1002
}
  0
LINE
  5
220E7
330
18
100
AcDbEntity
  8
1DIM1
100
AcDbLine
 10
192.0162616450114
 20
-672.821279972878
 30
0.0
 11
612.0162538914349
 21
-672.821279972878
 31
0.0
1001
ACAD
1000
DSTYLE
1002
{
1070
    40
1040
3.0
1070
    45
1040
0.5
1002
}
  0
SOLID
  5
220EB
330
18
100
AcDbEntity
  8
1DIM
100
AcDbTrace
 10
798.4684390752539
 20
-603.4353794951522
 30
0.0
 11
797.727504348561
 21
-605.3227392493834
 31
0.0
 12
797.8162718724387
 22
-603.2970957867237
 32
0.0
 13
797.8162718724387
 23
-603.2970957867237
 33
0.0
1001
ACAD
1000
DSTYLE
1002
{
1070
    45
1040
0.5
1002
}
  0
LINE
  5
220EC
330
18
100
AcDbEntity
  8
1DIM
100
AcDbLine
 10
798.1423554738462
 20
-603.3662376409379
 30
0.0
 11
800.851348281676
 21
-590.590211585468
 31
0.0
1001
ACAD
1000
DSTYLE
1002
{
1070
    45
1040
0.5
1002
}
  0
SOLID
  5
220ED
330
18
100
AcDbEntity
  8
1DIM
100
AcDbTrace
 10
811.6038572204191
 20
-603.4353794951522
 30
0.0
 11
810.8629224937262
 21
-605.3227392493834
 31
0.0
 12
810.9516900176039
 22
-603.2970957867237
 32
0.0
 13
810.9516900176039
 23
-603.2970957867237
 33
0.0
1001
ACAD
1000
DSTYLE
1002
{
1070
    45
1040
0.5
1002
}
  0
LINE
  5
220EE
330
18
100
AcDbEntity
  8
1DIM
100
AcDbLine
 10
811.2777736190114
 20
-603.3662376409379
 30
0.0
 11
813.9867664268412
 21
-590.590211585468
 31
0.0
1001
ACAD
1000
DSTYLE
1002
{
1070
    45
1040
0.5
1002
}
  0
SOLID
  5
220EF
330
18
100
AcDbEntity
  8
1DIM
100
AcDbTrace
 10
798.2119964102519
 20
-603.3538871591364
 30
0.0
 11
797.7275043485612
 21
-605.3227392493834
 31
0.0
 12
797.5472610262967
 22
-603.3031790358988
 32
0.0
 13
797.5472610262967
 23
-603.3031790358988
 33
0.0
1001
ACAD
1000
DSTYLE
1002
{
1070
    45
1040
0.5
1002
}
  0
LINE
  5
220F0
330
18
100
AcDbEntity
  8
1DIM
100
AcDbLine
 10
797.8796287182744
 20
-603.3285330975176
 30
0.0
 11
798.851348281676
 21
-590.590211585468
 31
0.0
1001
ACAD
1000
DSTYLE
1002
{
1070
    45
1040
0.5
1002
}
  0
LINE
  5
220F1
330
18
100
AcDbEntity
  8
1DIM
100
AcDbLine
 10
798.851348281676
 20
-590.590211585468
 30
0.0
 11
801.551348281676
 21
-590.590211585468
 31
0.0
1001
ACAD
1000
DSTYLE
1002
{
1070
    45
1040
0.5
1002
}
  0
SOLID
  5
220F2
330
18
100
AcDbEntity
  8
1DIM
100
AcDbTrace
 10
811.3474145554171
 20
-603.3538871591364
 30
0.0
 11
810.8629224937264
 21
-605.3227392493834
 31
0.0
 12
810.6826791714619
 22
-603.3031790358988
 32
0.0
 13
810.6826791714619
 23
-603.3031790358988
 33
0.0
1001
ACAD
1000
DSTYLE
1002
{
1070
    45
1040
0.5
1002
}
  0
LINE
  5
220F3
330
18
100
AcDbEntity
  8
1DIM
100
AcDbLine
 10
811.0150468634396
 20
-603.3285330975176
 30
0.0
 11
811.9867664268412
 21
-590.590211585468
 31
0.0
1001
ACAD
1000
DSTYLE
1002
{
1070
    45
1040
0.5
1002
}
  0
LINE
  5
220F4
330
18
100
AcDbEntity
  8
1DIM
100
AcDbLine
 10
811.9867664268412
 20
-590.590211585468
 30
0.0
 11
814.6867664268412
 21
-590.590211585468
 31
0.0
1001
ACAD
1000
DSTYLE
1002
{
1070
    45
1040
0.5
1002
}
  0
LINE
  5
220F5
330
18
100
AcDbEntity
  8
1DIM
100
AcDbLine
 10
776.8138327708535
 20
-645.5960884557717
 30
0.0
 11
776.8138327708535
 21
-658.3212806325871
 31
0.0
1001
ACAD
1000
DSTYLE
1002
{
1070
    45
1040
0.5
1002
}
  0
LINE
  5
220F6
330
18
100
AcDbEntity
  8
1DIM
100
AcDbLine
 10
794.8138327708535
 20
-657.3212806325871
 30
0.0
 11
794.8138327708535
 21
-656.3212806325871
 31
0.0
1001
ACAD
1000
DSTYLE
1002
{
1070
    45
1040
0.5
1002
}
  0
LINE
  5
220F7
330
18
100
AcDbEntity
  8
1DIM
100
AcDbLine
 10
778.8138327708535
 20
-657.3212806325871
 30
0.0
 11
792.8138327708535
 21
-657.3212806325871
 31
0.0
1001
ACAD
1000
DSTYLE
1002
{
1070
    45
1040
0.5
1002
}
  0
LINE
  5
220FB
330
18
100
AcDbEntity
  8
1DIM
100
AcDbLine
 10
754.8138327708535
 20
-647.3212806325871
 30
0.0
 11
754.8138327708535
 21
-668.3212806325871
 31
0.0
1001
ACAD
1000
DSTYLE
1002
{
1070
    45
1040
0.5
1002
}
  0
LINE
  5
220FC
330
18
100
AcDbEntity
  8
1DIM
100
AcDbLine
 10
794.8138327708535
 20
-657.3212806325871
 30
0.0
 11
794.8138327708535
 21
-668.3212806325871
 31
0.0
1001
ACAD
1000
DSTYLE
1002
{
1070
    45
1040
0.5
1002
}
  0
LINE
  5
220FD
330
18
100
AcDbEntity
  8
1DIM
100
AcDbLine
 10
756.8138327708535
 20
-667.3212806325871
 30
0.0
 11
792.8138327708535
 21
-667.3212806325871
 31
0.0
1001
ACAD
1000
DSTYLE
1002
{
1070
    45
1040
0.5
1002
}
  0
LINE
  5
22101
330
18
100
AcDbEntity
  8
1DIM
100
AcDbLine
 10
826.219095481974
 20
-634.3212806325871
 30
0.0
 11
835.8138246270715
 21
-634.3212806325871
 31
0.0
1001
ACAD
1000
DSTYLE
1002
{
1070
    45
1040
0.5
1070
   271
1070
     0
1002
}
  0
LINE
  5
22102
330
18
100
AcDbEntity
  8
1DIM
100
AcDbLine
 10
794.8138327708535
 20
-621.3212806325871
 30
0.0
 11
835.8138246270715
 21
-621.3212806325871
 31
0.0
1001
ACAD
1000
DSTYLE
1002
{
1070
    45
1040
0.5
1070
   271
1070
     0
1002
}
  0
LINE
  5
22103
330
18
100
AcDbEntity
  8
1DIM
100
AcDbLine
 10
834.8138246270715
 20
-632.3212806325871
 30
0.0
 11
834.8138246270715
 21
-623.3212806325871
 31
0.0
1001
ACAD
1000
DSTYLE
1002
{
1070
    45
1040
0.5
1070
   271
1070
     0
1002
}
  0
LINE
  5
22107
330
18
100
AcDbEntity
  8
1DIM
100
AcDbLine
 10
794.8138327708535
 20
-621.3212806325871
 30
0.0
 11
845.1353612717918
 21
-621.3212806325871
 31
0.0
1001
ACAD
1000
DSTYLE
1002
{
1070
    45
1040
0.5
1070
   271
1070
     0
1002
}
  0
LINE
  5
22108
330
18
100
AcDbEntity
  8
1DIM
100
AcDbLine
 10
759.3138327708535
 20
-620.8212806325871
 30
0.0
 11
845.1353612717918
 21
-620.8212806325872
 31
0.0
1001
ACAD
1000
DSTYLE
1002
{
1070
    45
1040
0.5
1070
   271
1070
     0
1002
}
  0
LINE
  5
22109
330
18
100
AcDbEntity
  8
1DIM
100
AcDbLine
 10
844.1353612717918
 20
-623.3212806325871
 30
0.0
 11
844.1353612717918
 21
-625.3212806325871
 31
0.0
1001
ACAD
1000
DSTYLE
1002
{
1070
    45
1040
0.5
1070
   271
1070
     0
1002
}
  0
LINE
  5
2210A
330
18
100
AcDbEntity
  8
1DIM
100
AcDbLine
 10
844.1353612717918
 20
-618.8212806325872
 30
0.0
 11
844.1353612717918
 21
-614.5879472992539
 31
0.0
1001
ACAD
1000
DSTYLE
1002
{
1070
    45
1040
0.5
1070
   271
1070
     0
1002
}
  0
LINE
  5
2210B
330
18
100
AcDbEntity
  8
1DIM
100
AcDbLine
 10
844.1353612717918
 20
-621.3212806325871
 30
0.0
 11
844.1353612717918
 21
-620.8212806325872
 31
0.0
1001
ACAD
1000
DSTYLE
1002
{
1070
    45
1040
0.5
1070
   271
1070
     0
1002
}
  0
LINE
  5
2210F
330
18
100
AcDbEntity
  8
1DIM
100
AcDbLine
 10
794.8138327708535
 20
-647.3212806325871
 30
0.0
 11
845.1353612717918
 21
-647.3212806325871
 31
0.0
1001
ACAD
1000
DSTYLE
1002
{
1070
    45
1040
0.5
1070
   271
1070
     0
1002
}
  0
LINE
  5
22110
330
18
100
AcDbEntity
  8
1DIM
100
AcDbLine
 10
794.8138327708535
 20
-621.3212806325871
 30
0.0
 11
845.1353612717918
 21
-621.3212806325871
 31
0.0
1001
ACAD
1000
DSTYLE
1002
{
1070
    45
1040
0.5
1070
   271
1070
     0
1002
}
  0
LINE
  5
22111
330
18
100
AcDbEntity
  8
1DIM
100
AcDbLine
 10
844.1353612717918
 20
-645.3212806325871
 30
0.0
 11
844.1353612717918
 21
-623.3212806325871
 31
0.0
1001
ACAD
1000
DSTYLE
1002
{
1070
    45
1040
0.5
1070
   271
1070
     0
1002
}
  0
LINE
  5
22115
330
18
100
AcDbEntity
  8
0
  6
BYBLOCK
100
AcDbLine
 10
544.7817291663246
 20
-645.821279972878
 30
0.0
 11
544.2458307863245
 21
-647.821279972878
 31
0.0
  0
LINE
  5
22116
330
18
100
AcDbEntity
  8
0
  6
BYBLOCK
100
AcDbLine
 10
544.2458307863245
 20
-647.821279972878
 30
0.0
 11
543.7099324063245
 21
-645.821279972878
 31
0.0
  0
LINE
  5
22117
330
18
100
AcDbEntity
  8
0
  6
BYBLOCK
100
AcDbLine
 10
544.2458307863245
 20
-647.821279972878
 30
0.0
 11
544.2458307863245
 21
-645.821279972878
 31
0.0
  0
LINE
  5
22118
330
18
100
AcDbEntity
  8
0
  6
BYBLOCK
100
AcDbLine
 10
543.7099324063245
 20
-622.821280203846
 30
0.0
 11
544.2458307863245
 21
-620.821280203846
 31
0.0
  0
LINE
  5
22119
330
18
100
AcDbEntity
  8
0
  6
BYBLOCK
100
AcDbLine
 10
544.2458307863245
 20
-620.821280203846
 30
0.0
 11
544.7817291663246
 21
-622.821280203846
 31
0.0
  0
LINE
  5
2211A
330
18
100
AcDbEntity
  8
0
  6
BYBLOCK
100
AcDbLine
 10
544.2458307863245
 20
-620.821280203846
 30
0.0
 11
544.2458307863245
 21
-622.821280203846
 31
0.0
  0
TEXT
  5
2211B
330
18
100
AcDbEntity
  8
1DIM
  6
CONTINUOUS
100
AcDbText
 10
543.5458307863246
 20
-635.916845906131
 30
0.0
 40
3.5
  1
27
 50
90.0
100
AcDbText
1001
ACAD
1000
DSTYLE
1002
{
1070
    45
1040
0.5
1002
}
  0
LINE
  5
2211C
330
18
100
AcDbEntity
  8
0
  6
BYBLOCK
100
AcDbLine
 10
543.7099324063245
 20
-577.8213313198418
 30
0.0
 11
544.2458307863245
 21
-575.8213313198418
 31
0.0
  0
LINE
  5
2211D
330
18
100
AcDbEntity
  8
0
  6
BYBLOCK
100
AcDbLine
 10
544.2458307863245
 20
-575.8213313198418
 30
0.0
 11
544.7817291663246
 21
-577.8213313198418
 31
0.0
  0
LINE
  5
2211E
330
18
100
AcDbEntity
  8
0
  6
BYBLOCK
100
AcDbLine
 10
544.2458307863245
 20
-575.8213313198418
 30
0.0
 11
544.2458307863245
 21
-577.8213313198418
 31
0.0
  0
LINE
  5
2211F
330
18
100
AcDbEntity
  8
0
  6
BYBLOCK
100
AcDbLine
 10
544.7817291663246
 20
-568.8213305002779
 30
0.0
 11
544.2458307863245
 21
-570.8213305002779
 31
0.0
  0
LINE
  5
22120
330
18
100
AcDbEntity
  8
0
  6
BYBLOCK
100
AcDbLine
 10
544.2458307863245
 20
-570.8213305002779
 30
0.0
 11
543.7099324063245
 21
-568.8213305002779
 31
0.0
  0
LINE
  5
22121
330
18
100
AcDbEntity
  8
0
  6
BYBLOCK
100
AcDbLine
 10
544.2458307863245
 20
-570.8213305002779
 30
0.0
 11
544.2458307863245
 21
-568.8213305002779
 31
0.0
  0
TEXT
  5
22122
330
18
100
AcDbEntity
  8
1DIM
  6
CONTINUOUS
100
AcDbText
 10
543.5458307863247
 20
-566.1213305002776
 30
0.0
 40
3.5
  1
5
 50
90.0
100
AcDbText
1001
ACAD
1000
DSTYLE
1002
{
1070
    45
1040
0.5
1002
}
  0
LINE
  5
22123
330
18
100
AcDbEntity
  8
0
  6
BYBLOCK
100
AcDbLine
 10
183.0162616400387
 20
-699.428975112878
 30
0.0
 11
177.0162616400387
 21
-697.821279972878
 31
0.0
  0
LINE
  5
22124
330
18
100
AcDbEntity
  8
0
  6
BYBLOCK
100
AcDbLine
 10
177.0162616400387
 20
-697.821279972878
 30
0.0
 11
183.0162616400387
 21
-696.2135848328779
 31
0.0
  0
LINE
  5
22125
330
18
100
AcDbEntity
  8
0
  6
BYBLOCK
100
AcDbLine
 10
177.0162616400387
 20
-697.821279972878
 30
0.0
 11
183.0162616400387
 21
-697.821279972878
 31
0.0
  0
LINE
  5
22126
330
18
100
AcDbEntity
  8
0
  6
BYBLOCK
100
AcDbLine
 10
621.016253896408
 20
-696.2135848328779
 30
0.0
 11
627.016253896408
 21
-697.821279972878
 31
0.0
  0
LINE
  5
22127
330
18
100
AcDbEntity
  8
0
  6
BYBLOCK
100
AcDbLine
 10
627.016253896408
 20
-697.821279972878
 30
0.0
 11
621.016253896408
 21
-699.428975112878
 31
0.0
  0
LINE
  5
22128
330
18
100
AcDbEntity
  8
0
  6
BYBLOCK
100
AcDbLine
 10
627.016253896408
 20
-697.821279972878
 30
0.0
 11
621.016253896408
 21
-697.821279972878
 31
0.0
  0
TEXT
  5
22129
330
18
100
AcDbEntity
  8
1DIM1
  6
CONTINUOUS
100
AcDbText
 10
383.38604943489
 20
-695.7212799728779
 30
0.0
 40
10.5
  1
P450
100
AcDbText
1001
ACAD
1000
DSTYLE
1002
{
1070
    40
1040
3.0
1070
    45
1040
0.5
1002
}
  0
LINE
  5
2212A
330
18
100
AcDbEntity
  8
0
  6
BYBLOCK
100
AcDbLine
 10
148.0162652188039
 20
-724.428975112878
 30
0.0
 11
142.0162652188039
 21
-722.821279972878
 31
0.0
  0
LINE
  5
2212B
330
18
100
AcDbEntity
  8
0
  6
BYBLOCK
100
AcDbLine
 10
142.0162652188039
 20
-722.821279972878
 30
0.0
 11
148.0162652188039
 21
-721.2135848328779
 31
0.0
  0
LINE
  5
2212C
330
18
100
AcDbEntity
  8
0
  6
BYBLOCK
100
AcDbLine
 10
142.0162652188039
 20
-722.821279972878
 30
0.0
 11
148.0162652188039
 21
-722.821279972878
 31
0.0
  0
LINE
  5
2212D
330
18
100
AcDbEntity
  8
0
  6
BYBLOCK
100
AcDbLine
 10
656.0162652188039
 20
-721.2135848328779
 30
0.0
 11
662.0162652188039
 21
-722.821279972878
 31
0.0
  0
LINE
  5
2212E
330
18
100
AcDbEntity
  8
0
  6
BYBLOCK
100
AcDbLine
 10
662.0162652188039
 20
-722.821279972878
 30
0.0
 11
656.0162652188039
 21
-724.428975112878
 31
0.0
  0
LINE
  5
2212F
330
18
100
AcDbEntity
  8
0
  6
BYBLOCK
100
AcDbLine
 10
662.0162652188039
 20
-722.821279972878
 30
0.0
 11
656.0162652188039
 21
-722.821279972878
 31
0.0
  0
TEXT
  5
22130
330
18
100
AcDbEntity
  8
1DIM1
  6
CONTINUOUS
100
AcDbText
 10
388.6360568854706
 20
-720.7212799728779
 30
0.0
 40
10.5
  1
520
100
AcDbText
1001
ACAD
1000
DSTYLE
1002
{
1070
    40
1040
3.0
1070
    45
1040
0.5
1002
}
  0
LINE
  5
22131
330
18
100
AcDbEntity
  8
0
  6
BYBLOCK
100
AcDbLine
 10
620.0162538914349
 20
-658.4103220394239
 30
0.0
 11
618.0162538914349
 21
-657.8744236594239
 31
0.0
  0
LINE
  5
22132
330
18
100
AcDbEntity
  8
0
  6
BYBLOCK
100
AcDbLine
 10
618.0162538914349
 20
-657.8744236594239
 30
0.0
 11
620.0162538914349
 21
-657.3385252794238
 31
0.0
  0
LINE
  5
22133
330
18
100
AcDbEntity
  8
0
  6
BYBLOCK
100
AcDbLine
 10
618.0162538914349
 20
-657.8744236594239
 30
0.0
 11
620.0162538914349
 21
-657.8744236594239
 31
0.0
  0
LINE
  5
22134
330
18
100
AcDbEntity
  8
0
  6
BYBLOCK
100
AcDbLine
 10
634.016253896408
 20
-657.3385252794238
 30
0.0
 11
636.016253896408
 21
-657.8744236594239
 31
0.0
  0
LINE
  5
22135
330
18
100
AcDbEntity
  8
0
  6
BYBLOCK
100
AcDbLine
 10
636.016253896408
 20
-657.8744236594239
 30
0.0
 11
634.016253896408
 21
-658.4103220394239
 31
0.0
  0
LINE
  5
22136
330
18
100
AcDbEntity
  8
0
  6
BYBLOCK
100
AcDbLine
 10
636.016253896408
 20
-657.8744236594239
 30
0.0
 11
634.016253896408
 21
-657.8744236594239
 31
0.0
  0
TEXT
  5
22137
330
18
100
AcDbEntity
  8
1DIM
  6
CONTINUOUS
100
AcDbText
 10
623.7998571633276
 20
-657.1744236594238
 30
0.0
 40
3.5
  1
P18
100
AcDbText
1001
ACAD
1000
DSTYLE
1002
{
1070
    45
1040
0.5
1002
}
  0
LINE
  5
22138
330
18
100
AcDbEntity
  8
0
  6
BYBLOCK
100
AcDbLine
 10
641.0162416153646
 20
-500.2854319712664
 30
0.0
 11
643.0162416153646
 21
-500.8213303512664
 31
0.0
  0
LINE
  5
22139
330
18
100
AcDbEntity
  8
0
  6
BYBLOCK
100
AcDbLine
 10
643.0162416153646
 20
-500.8213303512664
 30
0.0
 11
641.0162416153646
 21
-501.3572287312664
 31
0.0
  0
LINE
  5
2213A
330
18
100
AcDbEntity
  8
0
  6
BYBLOCK
100
AcDbLine
 10
643.0162416153646
 20
-500.8213303512664
 30
0.0
 11
641.0162416153646
 21
-500.8213303512664
 31
0.0
  0
LINE
  5
2213B
330
18
100
AcDbEntity
  8
0
  6
BYBLOCK
100
AcDbLine
 10
613.0162661724783
 20
-501.3572287312664
 30
0.0
 11
611.0162661724783
 21
-500.8213303512664
 31
0.0
  0
LINE
  5
2213C
330
18
100
AcDbEntity
  8
0
  6
BYBLOCK
100
AcDbLine
 10
611.0162661724783
 20
-500.8213303512664
 30
0.0
 11
613.0162661724783
 21
-500.2854319712664
 31
0.0
  0
LINE
  5
2213D
330
18
100
AcDbEntity
  8
0
  6
BYBLOCK
100
AcDbLine
 10
611.0162661724783
 20
-500.8213303512664
 30
0.0
 11
613.0162661724783
 21
-500.8213303512664
 31
0.0
  0
TEXT
  5
2213E
330
18
100
AcDbEntity
  8
1DIM
  6
CONTINUOUS
100
AcDbText
 10
624.0995872272548
 20
-500.1213303512664
 30
0.0
 40
3.5
  1
32
100
AcDbText
1001
ACAD
1000
DSTYLE
1002
{
1070
    45
1040
0.5
1002
}
  0
LINE
  5
2213F
330
18
100
AcDbEntity
  8
0
  6
BYBLOCK
100
AcDbLine
 10
192.0162616450114
 20
-674.428975112878
 30
0.0
 11
186.0162616450114
 21
-672.821279972878
 31
0.0
  0
LINE
  5
22140
330
18
100
AcDbEntity
  8
0
  6
BYBLOCK
100
AcDbLine
 10
186.0162616450114
 20
-672.821279972878
 30
0.0
 11
192.0162616450114
 21
-671.2135848328779
 31
0.0
  0
LINE
  5
22141
330
18
100
AcDbEntity
  8
0
  6
BYBLOCK
100
AcDbLine
 10
186.0162616450114
 20
-672.821279972878
 30
0.0
 11
192.0162616450114
 21
-672.821279972878
 31
0.0
  0
LINE
  5
22142
330
18
100
AcDbEntity
  8
0
  6
BYBLOCK
100
AcDbLine
 10
612.0162538914349
 20
-671.2135848328779
 30
0.0
 11
618.0162538914349
 21
-672.821279972878
 31
0.0
  0
LINE
  5
22143
330
18
100
AcDbEntity
  8
0
  6
BYBLOCK
100
AcDbLine
 10
618.0162538914349
 20
-672.821279972878
 30
0.0
 11
612.0162538914349
 21
-674.428975112878
 31
0.0
  0
LINE
  5
22144
330
18
100
AcDbEntity
  8
0
  6
BYBLOCK
100
AcDbLine
 10
618.0162538914349
 20
-672.821279972878
 30
0.0
 11
612.0162538914349
 21
-672.821279972878
 31
0.0
  0
TEXT
  5
22145
330
18
100
AcDbEntity
  8
1DIM1
  6
CONTINUOUS
100
AcDbText
 10
388.0162577682231
 20
-670.7212799728779
 30
0.0
 40
10.5
  1
432
100
AcDbText
1001
ACAD
1000
DSTYLE
1002
{
1070
    40
1040
3.0
1070
    45
1040
0.5
1002
}
  0
LINE
  5
22146
330
18
100
AcDbEntity
  8
0
  6
BYBLOCK
100
AcDbLine
 10
778.8138327708535
 20
-657.8571790125872
 30
0.0
 11
776.8138327708535
 21
-657.3212806325871
 31
0.0
  0
LINE
  5
22147
330
18
100
AcDbEntity
  8
0
  6
BYBLOCK
100
AcDbLine
 10
776.8138327708535
 20
-657.3212806325871
 30
0.0
 11
778.8138327708535
 21
-656.785382252587
 31
0.0
  0
LINE
  5
22148
330
18
100
AcDbEntity
  8
0
  6
BYBLOCK
100
AcDbLine
 10
776.8138327708535
 20
-657.3212806325871
 30
0.0
 11
778.8138327708535
 21
-657.3212806325871
 31
0.0
  0
LINE
  5
22149
330
18
100
AcDbEntity
  8
0
  6
BYBLOCK
100
AcDbLine
 10
792.8138327708535
 20
-656.785382252587
 30
0.0
 11
794.8138327708535
 21
-657.3212806325871
 31
0.0
  0
LINE
  5
2214A
330
18
100
AcDbEntity
  8
0
  6
BYBLOCK
100
AcDbLine
 10
794.8138327708535
 20
-657.3212806325871
 30
0.0
 11
792.8138327708535
 21
-657.8571790125872
 31
0.0
  0
LINE
  5
2214B
330
18
100
AcDbEntity
  8
0
  6
BYBLOCK
100
AcDbLine
 10
794.8138327708535
 20
-657.3212806325871
 30
0.0
 11
792.8138327708535
 21
-657.3212806325871
 31
0.0
  0
TEXT
  5
2214C
330
18
100
AcDbEntity
  8
1DIM
  6
CONTINUOUS
100
AcDbText
 10
783.4804994375202
 20
-656.6212806325871
 30
0.0
 40
3.5
  1
18
100
AcDbText
1001
ACAD
1000
DSTYLE
1002
{
1070
    45
1040
0.5
1002
}
  0
LINE
  5
2214D
330
18
100
AcDbEntity
  8
0
  6
BYBLOCK
100
AcDbLine
 10
756.8138327708535
 20
-667.8571790125872
 30
0.0
 11
754.8138327708535
 21
-667.3212806325871
 31
0.0
  0
LINE
  5
2214E
330
18
100
AcDbEntity
  8
0
  6
BYBLOCK
100
AcDbLine
 10
754.8138327708535
 20
-667.3212806325871
 30
0.0
 11
756.8138327708535
 21
-666.785382252587
 31
0.0
  0
LINE
  5
2214F
330
18
100
AcDbEntity
  8
0
  6
BYBLOCK
100
AcDbLine
 10
754.8138327708535
 20
-667.3212806325871
 30
0.0
 11
756.8138327708535
 21
-667.3212806325871
 31
0.0
  0
LINE
  5
22150
330
18
100
AcDbEntity
  8
0
  6
BYBLOCK
100
AcDbLine
 10
792.8138327708535
 20
-666.785382252587
 30
0.0
 11
794.8138327708535
 21
-667.3212806325871
 31
0.0
  0
LINE
  5
22151
330
18
100
AcDbEntity
  8
0
  6
BYBLOCK
100
AcDbLine
 10
794.8138327708535
 20
-667.3212806325871
 30
0.0
 11
792.8138327708535
 21
-667.8571790125872
 31
0.0
  0
LINE
  5
22152
330
18
100
AcDbEntity
  8
0
  6
BYBLOCK
100
AcDbLine
 10
794.8138327708535
 20
-667.3212806325871
 30
0.0
 11
792.8138327708535
 21
-667.3212806325871
 31
0.0
  0
TEXT
  5
22153
330
18
100
AcDbEntity
  8
1DIM
  6
CONTINUOUS
100
AcDbText
 10
772.1159161041869
 20
-666.6212806325871
 30
0.0
 40
3.5
  1
40
100
AcDbText
1001
ACAD
1000
DSTYLE
1002
{
1070
    45
1040
0.5
1002
}
  0
LINE
  5
22154
330
18
100
AcDbEntity
  8
0
  6
BYBLOCK
100
AcDbLine
 10
835.3497230070716
 20
-632.3212806325871
 30
0.0
 11
834.8138246270715
 21
-634.3212806325871
 31
0.0
  0
LINE
  5
22155
330
18
100
AcDbEntity
  8
0
  6
BYBLOCK
100
AcDbLine
 10
834.8138246270715
 20
-634.3212806325871
 30
0.0
 11
834.2779262470715
 21
-632.3212806325871
 31
0.0
  0
LINE
  5
22156
330
18
100
AcDbEntity
  8
0
  6
BYBLOCK
100
AcDbLine
 10
834.8138246270715
 20
-634.3212806325871
 30
0.0
 11
834.8138246270715
 21
-632.3212806325871
 31
0.0
  0
LINE
  5
22157
330
18
100
AcDbEntity
  8
0
  6
BYBLOCK
100
AcDbLine
 10
834.2779262470715
 20
-623.3212806325871
 30
0.0
 11
834.8138246270715
 21
-621.3212806325871
 31
0.0
  0
LINE
  5
22158
330
18
100
AcDbEntity
  8
0
  6
BYBLOCK
100
AcDbLine
 10
834.8138246270715
 20
-621.3212806325871
 30
0.0
 11
835.3497230070716
 21
-623.3212806325871
 31
0.0
  0
LINE
  5
22159
330
18
100
AcDbEntity
  8
0
  6
BYBLOCK
100
AcDbLine
 10
834.8138246270715
 20
-621.3212806325871
 30
0.0
 11
834.8138246270715
 21
-623.3212806325871
 31
0.0
  0
TEXT
  5
2215A
330
18
100
AcDbEntity
  8
1DIM
  6
CONTINUOUS
100
AcDbText
 10
834.1138246270716
 20
-630.1546139659202
 30
0.0
 40
3.5
  1
13
 50
90.0
100
AcDbText
1001
ACAD
1000
DSTYLE
1002
{
1070
    45
1040
0.5
1070
   271
1070
     0
1002
}
  0
LINE
  5
2215B
330
18
100
AcDbEntity
  8
0
  6
BYBLOCK
100
AcDbLine
 10
843.5994628917917
 20
-623.3212806325871
 30
0.0
 11
844.1353612717918
 21
-621.3212806325871
 31
0.0
  0
LINE
  5
2215C
330
18
100
AcDbEntity
  8
0
  6
BYBLOCK
100
AcDbLine
 10
844.1353612717918
 20
-621.3212806325871
 30
0.0
 11
844.6712596517918
 21
-623.3212806325871
 31
0.0
  0
LINE
  5
2215D
330
18
100
AcDbEntity
  8
0
  6
BYBLOCK
100
AcDbLine
 10
844.1353612717918
 20
-621.3212806325871
 30
0.0
 11
844.1353612717918
 21
-623.3212806325871
 31
0.0
  0
LINE
  5
2215E
330
18
100
AcDbEntity
  8
0
  6
BYBLOCK
100
AcDbLine
 10
844.6712596517918
 20
-618.8212806325872
 30
0.0
 11
844.1353612717918
 21
-620.8212806325872
 31
0.0
  0
LINE
  5
2215F
330
18
100
AcDbEntity
  8
0
  6
BYBLOCK
100
AcDbLine
 10
844.1353612717918
 20
-620.8212806325872
 30
0.0
 11
843.5994628917917
 21
-618.8212806325872
 31
0.0
  0
LINE
  5
22160
330
18
100
AcDbEntity
  8
0
  6
BYBLOCK
100
AcDbLine
 10
844.1353612717918
 20
-620.8212806325872
 30
0.0
 11
844.1353612717918
 21
-618.8212806325872
 31
0.0
  0
TEXT
  5
22161
330
18
100
AcDbEntity
  8
1DIM
  6
CONTINUOUS
100
AcDbText
 10
843.4353612717919
 20
-616.2879472992537
 30
0.0
 40
3.5
  1
1
 50
90.0
100
AcDbText
1001
ACAD
1000
DSTYLE
1002
{
1070
    45
1040
0.5
1070
   271
1070
     0
1002
}
  0
LINE
  5
22162
330
18
100
AcDbEntity
  8
0
  6
BYBLOCK
100
AcDbLine
 10
844.6712596517918
 20
-645.3212806325871
 30
0.0
 11
844.1353612717918
 21
-647.3212806325871
 31
0.0
  0
LINE
  5
22163
330
18
100
AcDbEntity
  8
0
  6
BYBLOCK
100
AcDbLine
 10
844.1353612717918
 20
-647.3212806325871
 30
0.0
 11
843.5994628917917
 21
-645.3212806325871
 31
0.0
  0
LINE
  5
22164
330
18
100
AcDbEntity
  8
0
  6
BYBLOCK
100
AcDbLine
 10
844.1353612717918
 20
-647.3212806325871
 30
0.0
 11
844.1353612717918
 21
-645.3212806325871
 31
0.0
  0
LINE
  5
22165
330
18
100
AcDbEntity
  8
0
  6
BYBLOCK
100
AcDbLine
 10
843.5994628917917
 20
-623.3212806325871
 30
0.0
 11
844.1353612717918
 21
-621.3212806325871
 31
0.0
  0
LINE
  5
22166
330
18
100
AcDbEntity
  8
0
  6
BYBLOCK
100
AcDbLine
 10
844.1353612717918
 20
-621.3212806325871
 30
0.0
 11
844.6712596517918
 21
-623.3212806325871
 31
0.0
  0
LINE
  5
22167
330
18
100
AcDbEntity
  8
0
  6
BYBLOCK
100
AcDbLine
 10
844.1353612717918
 20
-621.3212806325871
 30
0.0
 11
844.1353612717918
 21
-623.3212806325871
 31
0.0
  0
TEXT
  5
22168
330
18
100
AcDbEntity
  8
1DIM
  6
CONTINUOUS
100
AcDbText
 10
843.4353612717919
 20
-637.2379472992535
 30
0.0
 40
3.5
  1
26
 50
90.0
100
AcDbText
1001
ACAD
1000
DSTYLE
1002
{
1070
    45
1040
0.5
1070
   271
1070
     0
1002
}
  0
VIEWPORT
  5
57
330
15
100
AcDbEntity
 67
     1
  8
0
100
AcDbViewport
 68
     1
 10
0.0
 20
0.0
 30
0.0
 40
663.4332925336597
 41
297.0
 68
     1
 69
     1
1001
ACAD
1000
MVIEW
1002
{
1070
    16
1010
0.0
1020
0.0
1030
0.0
1010
0.0
1020
0.0
1030
1.0
1040
0.0
1040
297.0
1040
-4.171999999925333
1040
12.83903210976956
1040
50.0
1040
0.0
1040
0.0
1070
    16
1070
   100
1070
     0
1070
     1
1070
     0
1070
     0
1070
     0
1070
     0
1040
0.0
1040
0.0
1040
0.0
1040
10.0
1040
10.0
1040
10.0
1040
10.0
1070
     0
1002
{
1002
}
1002
}
  0
ENDSEC
  0
SECTION
  2
OBJECTS
  0
DICTIONARY
  5
C
330
0
100
AcDbDictionary
  3
ACAD_CIP_PREVIOUS_PRODUCT_INFO
350
20B28
  3
ACAD_COLOR
350
2D0
  3
ACAD_GROUP
350
D
  3
ACAD_IMAGE_VARS
350
21F9D
  3
ACAD_LAYOUT
350
2D1
  3
ACAD_MATERIAL
350
2CF
  3
ACAD_MLEADERSTYLE
350
19E18
  3
ACAD_MLINESTYLE
350
1B
  3
ACAD_PLOTSETTINGS
350
2D2
  3
ACAD_SCALELIST
350
19DF6
  3
ACAD_VISUALSTYLE
350
19DE5
  3
ACDBHEADERROUNDTRIPXREC
350
22169
  3
ACDBVARIABLEDICTIONARY
350
37
  3
CONTENTDICTIONARY
350
D8
  3
DRAWINGVARIABLESDICT
350
20
  3
DWGPROPS
350
2216C
1001
ACAD
1000
TREAT_AS_HARD
1070
     0
  0
DICTIONARY
  5
18FE8
330
2
100
AcDbDictionary
  3
ACAD_LAYERSTATES
360
18FE9
1001
ACAD
1000
TREAT_AS_HARD
1070
     1
  0
DICTIONARY
  5
1A20A
330
E
100
AcDbDictionary
  3
ADSK_XREC_LAYER_RECONCILED
360
1A20B
1001
ACAD
1000
TREAT_AS_HARD
1070
     1
  0
DICTIONARY
  5
1A20C
330
29
100
AcDbDictionary
  3
ADSK_XREC_LAYER_RECONCILED
360
1A20D
1001
ACAD
1000
TREAT_AS_HARD
1070
     1
  0
DICTIONARY
  5
1A20E
330
31
100
AcDbDictionary
  3
ADSK_XREC_LAYER_RECONCILED
360
1A20F
1001
ACAD
1000
TREAT_AS_HARD
1070
     1
  0
DICTIONARY
  5
1A218
330
101
100
AcDbDictionary
  3
ADSK_XREC_LAYER_RECONCILED
360
1A219
1001
ACAD
1000
TREAT_AS_HARD
1070
     1
  0
DICTIONARY
  5
1A21C
330
103
100
AcDbDictionary
  3
ADSK_XREC_LAYER_RECONCILED
360
1A21D
1001
ACAD
1000
TREAT_AS_HARD
1070
     1
  0
DICTIONARY
  5
1A220
330
25F
100
AcDbDictionary
  3
ADSK_XREC_LAYER_RECONCILED
360
1A221
1001
ACAD
1000
TREAT_AS_HARD
1070
     1
  0
DICTIONARY
  5
1A236
330
26A
100
AcDbDictionary
  3
ADSK_XREC_LAYER_RECONCILED
360
1A237
1001
ACAD
1000
TREAT_AS_HARD
1070
     1
  0
DICTIONARY
  5
1A23C
330
26D
100
AcDbDictionary
  3
ADSK_XREC_LAYER_RECONCILED
360
1A23D
1001
ACAD
1000
TREAT_AS_HARD
1070
     1
  0
DICTIONARY
  5
6E9
330
18
100
AcDbDictionary
  3
ACAD_SORTENTS
360
6EA
1001
ACAD
1000
TREAT_AS_HARD
1070
     1
  0
DICTIONARY
  5
59B
330
15
100
AcDbDictionary
  3
ACAD_SORTENTS
360
59C
1001
ACAD
1000
TREAT_AS_HARD
1070
     1
  0
XRECORD
  5
20B28
102
{ACAD_REACTORS
330
C
102
}
330
C
100
AcDbXrecord
300
ACDLT
300
2012
300
ACDLT_F_S
  0
DICTIONARY
  5
2D0
102
{ACAD_REACTORS
330
C
102
}
330
C
100
AcDbDictionary
1001
ACAD
1000
TREAT_AS_HARD
1070
     0
  0
DICTIONARY
  5
D
102
{ACAD_REACTORS
330
C
102
}
330
C
100
AcDbDictionary
1001
ACAD
1000
TREAT_AS_HARD
1070
     0
  0
RASTERVARIABLES
  5
21F9D
102
{ACAD_REACTORS
330
C
102
}
330
C
100
AcDbRasterVariables
 90
        0
 70
     1
 71
     1
 72
     0
  0
DICTIONARY
  5
2D1
102
{ACAD_REACTORS
330
C
102
}
330
C
100
AcDbDictionary
1001
ACAD
1000
TREAT_AS_HARD
1070
     0
  0
DICTIONARY
  5
2CF
102
{ACAD_REACTORS
330
C
102
}
330
C
100
AcDbDictionary
  3
BYBLOCK
350
19DD5
  3
BYLAYER
350
19DCD
  3
GLOBAL
350
19DDD
1001
ACAD
1000
TREAT_AS_HARD
1070
     0
  0
DICTIONARY
  5
19E18
102
{ACAD_REACTORS
330
C
102
}
330
C
100
AcDbDictionary
  3
STANDARD
350
19E19
1001
ACAD
1000
TREAT_AS_HARD
1070
     0
  0
DICTIONARY
  5
1B
102
{ACAD_REACTORS
330
C
102
}
330
C
100
AcDbDictionary
  3
STANDARD
350
1C
1001
ACAD
1000
TREAT_AS_HARD
1070
     0
  0
DICTIONARY
  5
2D2
102
{ACAD_REACTORS
330
C
102
}
330
C
100
AcDbDictionary
1001
ACAD
1000
TREAT_AS_HARD
1070
     0
  0
DICTIONARY
  5
19DF6
102
{ACAD_REACTORS
330
C
102
}
330
C
100
AcDbDictionary
  3
A0
350
19DF7
  3
A1
350
19DF8
  3
A2
350
19DF9
  3
A3
350
19DFA
  3
A4
350
19DFB
  3
A5
350
19DFC
  3
A6
350
19DFD
  3
A7
350
19DFE
  3
A8
350
19DFF
  3
A9
350
19E00
  3
B0
350
19E01
  3
B1
350
19E02
  3
B2
350
19E03
  3
B3
350
19E04
  3
B4
350
19E05
  3
B5
350
19E06
  3
B6
350
19E07
  3
B7
350
19E08
  3
B8
350
19E09
  3
B9
350
19E0A
  3
C0
350
19E0B
  3
C1
350
19E0C
  3
C2
350
19E0D
  3
C3
350
19E0E
  3
C4
350
19E0F
  3
C5
350
19E10
  3
C6
350
19E11
  3
C7
350
19E12
  3
C8
350
19E13
  3
C9
350
19E14
  3
D0
350
19E15
  3
D1
350
19E16
  3
D2
350
19E17
1001
ACAD
1000
TREAT_AS_HARD
1070
     0
  0
DICTIONARY
  5
19DE5
102
{ACAD_REACTORS
330
C
102
}
330
C
100
AcDbDictionary
  3
2DWIREFRAME
350
19DEB
  3
3D_HIDDEN
350
19DED
  3
3DWIREFRAME
350
19DEC
  3
BASIC
350
19DEA
  3
BRIGHTEN
350
19DF1
  3
COLORCHANGE
350
19DF5
  3
CONCEPTUAL
350
19DEE
  3
DIM
350
19DF0
  3
EDGECOLOROFF
350
1E02A
  3
FACEPATTERN
350
19DF4
  3
FLAT
350
19DE6
  3
FLATWITHEDGES
350
19DE7
  3
GOURAUD
350
19DE8
  3
GOURAUDWITHEDGES
350
19DE9
  3
HIDDEN
350
1F381
  3
JITTEROFF
350
1E028
  3
LINEPATTERN
350
19DF3
  3
MODELING
350
1F387
  3
OVERHANGOFF
350
1E029
  3
REALISTIC
350
19DEF
  3
SHADED
350
1F386
  3
SHADED_WITH_EDGES
350
1F385
  3
SHADES_OF_GRAY
350
1F382
  3
SKETCHY
350
1F383
  3
THICKEN
350
19DF2
  3
WIREFRAME
350
1F380
  3
X-RAY
350
1F384
1001
ACAD
1000
TREAT_AS_HARD
1070
     0
  0
DICTIONARY
  5
22169
102
{ACAD_REACTORS
330
C
102
}
330
C
100
AcDbDictionary
  3
COLORDICT
350
2216A
  3
MATERIALDICT
350
2216B
1001
ACAD
1000
TREAT_AS_HARD
1070
     0
  0
DICTIONARY
  5
37
102
{ACAD_REACTORS
330
C
102
}
330
C
100
AcDbDictionary
  3
CANNOSCALE
350
20A45
  3
CMLEADERSTYLE
350
1AC19
  3
CTABLESTYLE
350
4F1
  3
DIMADEC
350
38
  3
DIMASSOC
350
408
  3
HIDETEXT
350
1891
  3
INDEXCTL
350
1AC1C
  3
INTERSECTIONCOLOR
350
1895
  3
INTERSECTIONDISPLAY
350
1894
  3
MSLTSCALE
350
20A9B
  3
OBSCOLOR
350
1892
  3
OBSLTYPE
350
1893
  3
PROJECTNAME
350
409
  3
SORTENTS
350
1AC1B
  3
XCLIPFRAME
350
21F9C
1001
ACAD
1000
TREAT_AS_HARD
1070
     0
  0
DICTIONARY
  5
D8
102
{ACAD_REACTORS
330
C
102
}
330
C
100
AcDbDictionary
1001
CONTENTTABDATA
1070
    11
1000
Child
1000
D:\ACLT\TABset\CHILDREN.dwg
1070
     0
1070
     0
1070
     1
1000
PK
1000
D:\ACLT\TABset\PK.dwg
1070
     0
1070
     0
1070
     1
1000
Lev1
1000
D:\ACLT\TABset\Lever01.dwg
1070
     0
1070
     0
1070
     1
1000
Lev2
1000
D:\ACLT\TABset\Lever02.dwg
1070
     0
1070
     0
1070
     1
1000
L3
1000
D:\Aclt\TABset\Lever03.dwg
1070
     0
1070
     0
1070
     1
1000
Form
1000
D:\ACLT\FORMAT
1070
     1
1070
     0
1070
     1
1000
Jnt
1000
D:\ACLT\TABset\JOINTPARTS.dwg
1070
     0
1070
     0
1070
     1
1000
ISO
1000
D:\ACLT\TABset\Isome01.dwg
1070
     0
1070
     0
1070
     1
1000
R
1000
D:\ACLT\TABset\REGION.dwg
1070
     0
1070
     0
1070
     1
1000
std
1000
D:\ACLT\TABset\std_sym_all.dwg
1070
     0
1070
     0
1070
     1
1000
丸
1000
D:\Aclt\TABset\MARU.dwg
1070
     0
1070
     0
1070
     1
1001
CONTENTCURRENTTAB
1070
     0
1001
ACAD
1000
TREAT_AS_HARD
1070
     0
  0
DICTIONARY
  5
20
102
{ACAD_REACTORS
330
C
102
}
330
C
100
AcDbDictionary
1001
DRAWINGVARIABLESXDATA
1000
POLARANG
1000
0.261799387799149410000000
1000
POLARMODE
1000
1
1000
POLARSTYLE
1000
1
1001
ACAD
1000
TREAT_AS_HARD
1070
     0
  0
XRECORD
  5
2216C
102
{ACAD_REACTORS
330
C
102
}
330
C
100
AcDbXrecord
  1
DWGPROPS COOKIE
  2

  3

  4

  6

  7

  8
3684
  9

300
=
301
=
302
=
303
=
304
=
305
=
306
=
307
=
308
=
309
=
 40
0.0
 41
2453033.357663484
 42
2458095.004386817
  1

 90
        0
  0
DICTIONARY
  5
18FE9
102
{ACAD_REACTORS
330
18FE8
102
}
330
18FE8
100
AcDbDictionary
1001
ACAD
1000
TREAT_AS_HARD
1070
     0
  0
ACAD_PROXY_OBJECT
  5
1A20B
102
{ACAD_REACTORS
330
1A20A
102
}
330
1A20A
100
AcDbZombieObject
 90
      499
 91
      518
 93
       34
310
40C8804040
  0
ACAD_PROXY_OBJECT
  5
1A20D
102
{ACAD_REACTORS
330
1A20C
102
}
330
1A20C
100
AcDbZombieObject
 90
      499
 91
      518
 93
       34
310
40C8804040
  0
ACAD_PROXY_OBJECT
  5
1A20F
102
{ACAD_REACTORS
330
1A20E
102
}
330
1A20E
100
AcDbZombieObject
 90
      499
 91
      518
 93
       34
310
40C8804040
  0
ACAD_PROXY_OBJECT
  5
1A219
102
{ACAD_REACTORS
330
1A218
102
}
330
1A218
100
AcDbZombieObject
 90
      499
 91
      518
 93
       34
310
40C8804040
  0
ACAD_PROXY_OBJECT
  5
1A21D
102
{ACAD_REACTORS
330
1A21C
102
}
330
1A21C
100
AcDbZombieObject
 90
      499
 91
      518
 93
       34
310
40C8804040
  0
ACAD_PROXY_OBJECT
  5
1A221
102
{ACAD_REACTORS
330
1A220
102
}
330
1A220
100
AcDbZombieObject
 90
      499
 91
      518
 93
       34
310
40C8804040
  0
ACAD_PROXY_OBJECT
  5
1A237
102
{ACAD_REACTORS
330
1A236
102
}
330
1A236
100
AcDbZombieObject
 90
      499
 91
      518
 93
       34
310
40C8804040
  0
ACAD_PROXY_OBJECT
  5
1A23D
102
{ACAD_REACTORS
330
1A23C
102
}
330
1A23C
100
AcDbZombieObject
 90
      499
 91
      518
 93
       34
310
40C8804040
  0
SORTENTSTABLE
  5
6EA
102
{ACAD_REACTORS
330
6E9
102
}
330
6E9
100
AcDbSortentsTable
330
18
331
0
  5
99AB
331
0
  5
AB53
331
0
  5
AB54
331
0
  5
ECB5
331
0
  5
1D523
331
1DB93
  5
21056
331
1DB94
  5
21057
331
1DB95
  5
21058
331
1DB96
  5
21059
331
1DB97
  5
2105A
331
1DB98
  5
2105B
331
1DB99
  5
2105C
331
1DB9A
  5
2105D
331
1DB9B
  5
2105E
331
1DB9C
  5
2105F
331
1DB9D
  5
21060
331
20E39
  5
21061
331
20E3A
  5
21062
331
20E3B
  5
21063
331
20E3C
  5
21064
331
20E3D
  5
21065
331
20E3E
  5
21069
331
20E3F
  5
2106A
331
20E40
  5
2106B
331
20E6F
  5
2106F
331
20E70
  5
21070
331
20E71
  5
21071
331
20E72
  5
21072
331
20E73
  5
21073
331
20E74
  5
21074
331
20E75
  5
21075
331
20E76
  5
21076
331
0
  5
2104E
331
0
  5
2104F
331
21049
  5
210AD
331
2104A
  5
21373
331
2104B
  5
21374
331
2104C
  5
21375
331
2104D
  5
21376
331
2104E
  5
21377
331
2104F
  5
21378
331
21050
  5
2137A
331
21051
  5
2137B
331
21052
  5
2137C
331
21053
  5
2137D
331
21054
  5
2137E
331
21055
  5
2137F
331
21056
  5
21380
331
21057
  5
21381
331
21058
  5
21382
331
21059
  5
21383
331
2105A
  5
21384
331
2105B
  5
21389
331
2105C
  5
2138A
331
2105D
  5
2138B
331
2105E
  5
2138C
331
2105F
  5
2138D
331
21060
  5
2138E
331
21061
  5
2138F
331
21062
  5
21391
331
21063
  5
21392
331
21064
  5
21393
331
21065
  5
21394
331
21066
  5
21395
331
21067
  5
21396
331
21068
  5
21397
331
21069
  5
21398
331
2106A
  5
21399
331
2106B
  5
2139A
331
2106C
  5
2139B
331
2106D
  5
2139C
331
2106E
  5
2139D
331
2106F
  5
2139E
331
21070
  5
2139F
331
21071
  5
213A0
331
21072
  5
213A4
331
21073
  5
213A5
331
21074
  5
213A6
331
21075
  5
213A7
331
21076
  5
213A8
331
21077
  5
213A9
331
21078
  5
213AA
331
21079
  5
213AB
331
2107A
  5
213AC
331
2107B
  5
213AD
331
2107C
  5
213AE
331
2107D
  5
213AF
331
2107E
  5
213B0
331
2107F
  5
213B1
331
21080
  5
213B2
331
21081
  5
213B3
331
21082
  5
213B4
331
21083
  5
213B5
331
21084
  5
213B6
331
21085
  5
213B7
331
21086
  5
213B8
331
21087
  5
213BC
331
21088
  5
213BD
331
21089
  5
213BE
331
2108A
  5
213BF
331
0
  5
21379
331
21373
  5
213CA
331
21374
  5
213CB
331
21375
  5
213CC
331
21376
  5
213CD
331
21377
  5
213CE
331
21378
  5
213CF
331
21379
  5
213D0
331
2137A
  5
213D1
331
2137B
  5
213D2
331
2137C
  5
213D3
331
2137D
  5
213D4
331
2137E
  5
213D5
331
2137F
  5
213D6
331
21380
  5
213D7
331
21381
  5
213D8
331
21382
  5
213D9
331
21383
  5
213DA
331
21384
  5
213DB
331
0
  5
21390
331
2138A
  5
213E6
331
2138B
  5
213E7
331
2138C
  5
213E8
331
2138D
  5
213E9
331
2138E
  5
213EA
331
2138F
  5
213EB
331
21390
  5
213EC
331
21391
  5
213ED
331
21392
  5
213EE
331
21393
  5
213EF
331
21394
  5
213F0
331
21395
  5
213F1
331
21396
  5
213F2
331
21397
  5
213F3
331
21398
  5
213F4
331
21399
  5
213F5
331
2139A
  5
213F6
331
2139B
  5
213F7
331
2139C
  5
213F8
331
2139D
  5
213F9
331
2139E
  5
213FA
331
2139F
  5
213FB
331
213A0
  5
213FC
331
213A1
  5
213FD
331
213A2
  5
213FE
331
213A3
  5
213FF
331
213A4
  5
21400
331
213A5
  5
21401
331
213A6
  5
21402
331
213A7
  5
21403
331
213A8
  5
21404
331
213A9
  5
21405
331
213AA
  5
21406
331
213AB
  5
21407
331
213AC
  5
21408
331
213AD
  5
21409
331
213AE
  5
2140A
331
213AF
  5
2140B
331
213B0
  5
2140C
331
213B1
  5
2140D
331
213B2
  5
2140E
331
213B3
  5
2140F
331
213B4
  5
21410
331
213B5
  5
21411
331
213B6
  5
21412
331
213B7
  5
21413
331
213B8
  5
21414
331
213B9
  5
21415
331
213BA
  5
21416
331
213BB
  5
21417
331
213BC
  5
21418
331
213BD
  5
21419
331
213BE
  5
2141A
331
213BF
  5
2141B
331
213C0
  5
2141C
331
213C1
  5
2141D
331
213C2
  5
2141E
331
213C3
  5
2141F
331
213C4
  5
21420
331
213C5
  5
21421
331
213C6
  5
21422
331
213C7
  5
21423
331
213C8
  5
21424
331
213C9
  5
21425
331
213CA
  5
21426
331
213CB
  5
21427
331
213CC
  5
21428
331
213CD
  5
21429
331
213CE
  5
2142A
331
213CF
  5
2142B
331
213D0
  5
2142C
331
213D1
  5
2142D
331
213D2
  5
2142E
331
213D3
  5
2142F
331
213D4
  5
21430
331
213D5
  5
21431
331
213D6
  5
21432
331
213D7
  5
21433
331
213D8
  5
21434
331
213D9
  5
21435
331
213DA
  5
21436
331
213DB
  5
21437
331
213DC
  5
21438
331
213DD
  5
21439
331
213DE
  5
2143A
331
213DF
  5
2143B
331
213E0
  5
2143C
331
213E1
  5
2143D
331
213E2
  5
2143E
331
213E3
  5
2143F
331
213E4
  5
21440
331
213E5
  5
21441
331
213E6
  5
21442
331
213E7
  5
21443
331
213E8
  5
21444
331
213E9
  5
21445
331
213EA
  5
21446
331
213EB
  5
21447
331
213EC
  5
21448
331
213ED
  5
21449
331
213EE
  5
2144A
331
213EF
  5
2144B
331
213F0
  5
2144C
331
213F1
  5
2144D
331
213F2
  5
2144E
331
213F3
  5
2144F
331
213F4
  5
21450
331
213F5
  5
21451
331
213F6
  5
21452
331
213F7
  5
21453
331
213F8
  5
21454
331
213F9
  5
21455
331
213FA
  5
21456
331
213FB
  5
21457
331
213FC
  5
21458
331
213FD
  5
21459
331
213FE
  5
2145A
331
213FF
  5
2145B
331
21400
  5
2145C
331
21401
  5
2145D
331
21402
  5
2145E
331
21403
  5
2145F
331
21404
  5
21460
331
21405
  5
21461
331
21406
  5
21462
331
21407
  5
21463
331
21408
  5
21464
331
21409
  5
21465
331
2140A
  5
21466
331
2140B
  5
21467
331
2140C
  5
21468
331
2140D
  5
21469
331
2140E
  5
2146A
331
2140F
  5
2146B
331
21410
  5
2146C
331
21411
  5
2146D
331
21412
  5
2146E
331
21413
  5
2146F
331
21414
  5
21470
331
21415
  5
21471
331
21416
  5
21472
331
21417
  5
21473
331
21418
  5
21474
331
21419
  5
21475
331
2141A
  5
21476
331
2141B
  5
21477
331
2141C
  5
21478
331
2141D
  5
21479
331
2141E
  5
2147A
331
2141F
  5
2147B
331
21420
  5
2147C
331
21421
  5
2147D
331
21422
  5
2147E
331
21423
  5
2147F
331
21424
  5
21480
331
21425
  5
21481
331
21426
  5
21482
331
21427
  5
21483
331
21428
  5
21484
331
21429
  5
21485
331
2142A
  5
21486
331
2142B
  5
21487
331
2142C
  5
21488
331
2142D
  5
21489
331
2142E
  5
2148A
331
2142F
  5
2148B
331
21430
  5
2148C
331
21431
  5
2148D
331
21432
  5
2148E
331
21433
  5
2148F
331
21434
  5
21490
331
21435
  5
21491
331
21436
  5
21492
331
21437
  5
21493
331
21438
  5
21494
331
21439
  5
21495
331
2143A
  5
21496
331
2143B
  5
21497
331
2143C
  5
21498
331
2143D
  5
21499
331
2143E
  5
2149A
331
2143F
  5
2149B
331
21440
  5
2149C
331
21441
  5
2149D
331
21442
  5
2149E
331
21443
  5
2149F
331
21444
  5
214A0
331
21445
  5
214A1
331
21446
  5
214A2
331
21447
  5
214A3
331
21448
  5
214A4
331
21449
  5
214A5
331
2144A
  5
214A6
331
2144B
  5
214A7
331
2144C
  5
214A8
331
2144D
  5
214A9
331
2144E
  5
214AA
331
2144F
  5
214AB
331
21450
  5
214AC
331
21451
  5
214AD
331
21452
  5
214AE
331
21453
  5
214AF
331
21454
  5
214B0
331
21455
  5
214B1
331
21456
  5
214B2
331
21457
  5
214B3
331
21458
  5
214B4
331
21459
  5
214B5
331
2145A
  5
214B6
331
2145B
  5
214B7
331
2145C
  5
214B8
331
2145D
  5
214B9
331
2145E
  5
214BA
331
2145F
  5
214BB
331
21460
  5
214BC
331
21461
  5
214BD
331
21462
  5
214BE
331
21463
  5
214BF
331
21464
  5
214C0
331
21465
  5
214C1
331
21466
  5
214C2
331
21467
  5
214C3
331
21468
  5
214C4
331
21469
  5
214C5
331
2146A
  5
214C6
331
2146B
  5
214C7
331
2146C
  5
214C8
331
2146D
  5
214C9
331
2146E
  5
214CA
331
2146F
  5
214CB
331
21470
  5
214CC
331
21471
  5
214CD
331
21472
  5
214CE
331
21473
  5
214CF
331
21474
  5
214D0
331
21475
  5
214D1
331
21476
  5
214D2
331
21477
  5
214D3
331
21478
  5
214D4
331
21479
  5
214D5
331
2147A
  5
214D6
331
2147B
  5
214D7
331
2147C
  5
214D8
331
2147D
  5
214D9
331
2147E
  5
214DA
331
2147F
  5
214DB
331
21480
  5
214DC
331
21481
  5
214DD
331
21482
  5
214DE
331
21483
  5
214DF
331
21484
  5
214E0
331
21485
  5
214E1
331
21486
  5
214E2
331
21487
  5
214E3
331
21488
  5
214E4
331
21489
  5
214E5
331
2148A
  5
214E6
331
2148B
  5
214E7
331
2148C
  5
214E8
331
2148D
  5
214E9
331
2148E
  5
214EA
331
2148F
  5
214EB
331
21490
  5
214EC
331
21491
  5
214ED
331
21492
  5
214EE
331
21493
  5
214EF
331
21494
  5
214F0
331
21495
  5
214F1
331
21496
  5
214F2
331
21497
  5
214F3
331
21498
  5
214F4
331
21499
  5
214F5
331
2149A
  5
214F6
331
2149B
  5
214F7
331
2149C
  5
214F8
331
2149D
  5
214F9
331
2149E
  5
214FA
331
2149F
  5
214FB
331
214A0
  5
21555
331
214A1
  5
21556
331
214A2
  5
21643
331
214A3
  5
21674
331
214A4
  5
21675
331
214A5
  5
21676
331
214A6
  5
21677
331
214A7
  5
21D95
331
214A8
  5
21D96
331
214A9
  5
21D97
331
214AA
  5
21D9A
331
214AB
  5
21D9D
331
214AC
  5
21D9E
331
214AD
  5
21D9F
331
214AE
  5
21DA0
331
214AF
  5
21DA1
331
214B0
  5
21DA2
331
214B1
  5
21DA3
331
214B2
  5
21DA4
331
214B3
  5
21DA5
331
214B4
  5
21DA6
331
214B5
  5
21DA7
331
214B6
  5
21DA8
331
214B7
  5
21DA9
331
214B8
  5
21DAA
331
214B9
  5
21DAB
331
214BA
  5
21DAC
331
214BB
  5
21DAD
331
214BC
  5
21DAE
331
214BD
  5
21DAF
331
214BE
  5
21DB0
331
214BF
  5
21DB1
331
214C0
  5
21DB2
331
214C1
  5
21DB3
331
214C2
  5
21DB4
331
214C3
  5
21DB5
331
214C4
  5
21DB6
331
214C5
  5
21DB7
331
214C6
  5
21DB8
331
214C7
  5
21DB9
331
214C8
  5
21DBA
331
214C9
  5
21DBB
331
214CA
  5
21DBC
331
214CB
  5
21DBD
331
214CC
  5
21DBE
331
214CD
  5
21DBF
331
214CE
  5
21DC0
331
214CF
  5
21DC1
331
214D0
  5
21DC2
331
214D1
  5
21DC3
331
214D2
  5
21DC4
331
214D3
  5
21DC5
331
214D4
  5
21DC6
331
214D5
  5
21DC7
331
214D6
  5
21DC8
331
214D7
  5
21DC9
331
214D8
  5
21DCA
331
214D9
  5
21DCB
331
214DA
  5
21DCF
331
214DB
  5
21DD0
331
214DC
  5
21DD1
331
214DD
  5
21DD2
331
214DE
  5
21DD3
331
214DF
  5
21DD4
331
214E0
  5
21DD5
331
214E1
  5
21DD6
331
214E2
  5
21DD7
331
214E3
  5
21DD8
331
214E4
  5
21DD9
331
214E5
  5
21DDA
331
214E6
  5
21DDB
331
214E7
  5
21DDC
331
214E8
  5
21DDD
331
214E9
  5
21DDE
331
214EA
  5
21DDF
331
214EB
  5
21DE0
331
214EC
  5
21DE1
331
214ED
  5
21DE2
331
214EE
  5
21DE3
331
214EF
  5
21DE4
331
214F0
  5
21DE5
331
214F1
  5
21DE6
331
214F2
  5
21DE7
331
214F3
  5
21DE8
331
214F4
  5
21DE9
331
214F5
  5
21DEA
331
214F6
  5
21DEB
331
214F7
  5
21DEC
331
214F8
  5
21DED
331
214F9
  5
21DEE
331
214FA
  5
21DEF
331
214FB
  5
21DF0
331
0
  5
21678
331
0
  5
21679
331
0
  5
2167A
331
21D95
  5
21E00
331
21D96
  5
21E01
331
21D97
  5
21E02
331
0
  5
21D9C
331
21D9C
  5
21E09
331
21D9D
  5
21E0A
331
21D9E
  5
21E0B
331
21D9F
  5
21E0C
331
21DA0
  5
21E0D
331
21DA1
  5
21E0E
331
21DA2
  5
21E0F
331
21DA3
  5
21E11
331
21DA4
  5
21E14
331
21DA5
  5
21E16
331
21DA6
  5
21E19
331
21DA7
  5
21E1A
331
21DA8
  5
21E1B
331
21DA9
  5
21E1C
331
21DAA
  5
21E1D
331
21DAB
  5
21E1E
331
21DAC
  5
21E1F
331
21DAD
  5
21E20
331
21DAE
  5
21E21
331
21DAF
  5
21E22
331
21DB0
  5
21E23
331
21DB1
  5
21E24
331
21DB2
  5
21E25
331
21DB3
  5
21E26
331
21DB4
  5
21E27
331
21DB5
  5
220B1
331
21DB6
  5
220B5
331
21DB7
  5
220B6
331
21DB8
  5
220B7
331
21DB9
  5
220B8
331
21DBA
  5
220B9
331
21DBB
  5
220BA
331
21DBC
  5
220BB
331
21DBD
  5
220BC
331
21DBE
  5
220BD
331
21DBF
  5
220BE
331
21DC0
  5
220BF
331
21DC1
  5
220C0
331
21DC2
  5
220C1
331
21DC3
  5
220C2
331
21DC4
  5
220C3
331
21DC5
  5
220C4
331
21DC6
  5
220C5
331
21DC7
  5
220C6
331
21DC8
  5
220C7
331
21DC9
  5
220C8
331
21DCA
  5
220C9
331
21DCB
  5
220CA
331
21DCC
  5
220CB
331
21DCD
  5
220CC
331
21DCE
  5
220CD
331
21DCF
  5
220CE
331
21DD0
  5
220CF
331
21DD1
  5
220D0
331
21DD2
  5
220D1
331
21DD3
  5
220D2
331
21DD4
  5
220D3
331
21DD5
  5
220D4
331
21DD6
  5
220D5
331
21DD7
  5
220D6
331
21DD8
  5
220D7
331
21DD9
  5
220D8
331
21DDA
  5
220D9
331
21DDB
  5
220DA
331
21DDC
  5
220DB
331
21DDD
  5
220DC
331
21DDE
  5
220DD
331
21DDF
  5
220DE
331
21DE0
  5
220DF
331
21DE1
  5
220E0
331
21DE2
  5
220E1
331
21DE3
  5
220E2
331
21DE4
  5
220E3
331
21DE5
  5
220E4
331
21DE6
  5
220E5
331
21DE7
  5
220E6
331
21DE8
  5
220E7
331
21DE9
  5
220EB
331
21DEA
  5
220EC
331
21DEB
  5
220ED
331
21DEC
  5
220F1
331
21DED
  5
220F2
331
21DEE
  5
220F3
331
21DEF
  5
220F4
331
21DF0
  5
220F5
331
21DF1
  5
220F6
331
21DF2
  5
220F7
331
21DF3
  5
220F8
331
21DF4
  5
220F9
331
21DF5
  5
220FA
331
21DF6
  5
220FB
331
21DF7
  5
220FC
331
21DF8
  5
220FD
331
21DF9
  5
220FE
331
21DFA
  5
220FF
331
21DFB
  5
22100
331
21DFC
  5
22101
331
21DFD
  5
22102
331
21DFE
  5
22103
331
21DFF
  5
22107
331
21E00
  5
22108
331
21E01
  5
22109
331
21E02
  5
2210A
331
21E03
  5
2210B
331
21E04
  5
2210F
331
21E05
  5
22110
331
21E06
  5
22111
331
21E07
  5
22115
331
21E08
  5
22116
331
21E09
  5
22117
331
21E0A
  5
22118
331
21E0B
  5
22119
331
21E0C
  5
2211A
331
21E0D
  5
2211B
331
21E0E
  5
2211C
331
0
  5
21E13
331
0
  5
21E15
331
0
  5
21E17
331
0
  5
21E18
331
21E15
  5
22139
331
21E16
  5
2213A
331
21E17
  5
2213B
331
21E18
  5
2213C
331
21E19
  5
2213D
331
21E1A
  5
2213E
331
21E1B
  5
2213F
331
21E1C
  5
22140
331
21E1D
  5
22141
331
21E1E
  5
22142
331
21E1F
  5
22143
331
21E20
  5
22144
331
21E21
  5
22145
331
21E22
  5
22146
331
21E23
  5
22147
331
21E24
  5
22148
331
0
  5
220B2
331
0
  5
220B3
331
0
  5
220B4
331
220B1
  5
21E05
331
220B2
  5
21E08
331
220B3
  5
22120
331
220B4
  5
22124
331
220B5
  5
1DB97
331
220B6
  5
1DB98
331
220B7
  5
1DB99
331
0
  5
1DB9A
331
0
  5
1DB9B
331
0
  5
1DB9C
331
220BB
  5
20E3B
331
220BC
  5
20E3C
331
220BD
  5
20E3D
331
220BE
  5
20E76
331
220BF
  5
20EE2
331
220C0
  5
20EE3
331
220C1
  5
20EE5
331
220C2
  5
21049
331
220C3
  5
2104A
331
220C4
  5
2104B
331
0
  5
20E73
331
0
  5
20E74
331
0
  5
20E75
331
220C8
  5
21077
331
220C9
  5
21078
331
220CA
  5
21079
331
0
  5
21066
331
0
  5
21067
331
0
  5
21068
331
220CE
  5
21081
331
220CF
  5
21082
331
220D0
  5
21083
331
0
  5
2106C
331
0
  5
2106D
331
0
  5
2106E
331
220D4
  5
213C0
331
220D5
  5
213C1
331
220D6
  5
213C2
331
0
  5
213A1
331
0
  5
213A2
331
0
  5
213A3
331
220DA
  5
213DC
331
220DB
  5
213DD
331
220DC
  5
213DE
331
0
  5
213B9
331
0
  5
213BA
331
0
  5
213BB
331
220E0
  5
21DF1
331
220E1
  5
21DF2
331
220E2
  5
21DF3
331
220E3
  5
21DF4
331
220E4
  5
21DF5
331
220E5
  5
21DF6
331
220E6
  5
21DF7
331
220E7
  5
21DF8
331
0
  5
21DCC
331
0
  5
21DCD
331
0
  5
21DCE
331
220EB
  5
21E03
331
220EC
  5
21E04
331
220ED
  5
21E06
331
220EE
  5
21E07
331
220EF
  5
2211D
331
220F0
  5
2211E
331
220F1
  5
2211F
331
220F2
  5
22121
331
220F3
  5
22122
331
220F4
  5
22123
331
220F5
  5
22125
331
220F6
  5
22126
331
220F7
  5
22127
331
0
  5
220E8
331
0
  5
220E9
331
0
  5
220EA
331
220FB
  5
2212F
331
220FC
  5
22130
331
220FD
  5
22131
331
0
  5
220EE
331
0
  5
220EF
331
0
  5
220F0
331
22101
  5
22149
331
22102
  5
2214A
331
22103
  5
2214B
331
22107
  5
22153
331
22108
  5
22154
331
22109
  5
22155
331
2210A
  5
22156
331
2210B
  5
22157
331
2210F
  5
2215F
331
22110
  5
22160
331
22111
  5
22161
331
22115
  5
1DB9D
331
22116
  5
1DB9E
331
22117
  5
1DB9F
331
22118
  5
1DBA0
331
22119
  5
1DBA1
331
2211A
  5
20E39
331
2211B
  5
20E3A
331
2211C
  5
2104C
331
2211D
  5
21050
331
2211E
  5
21051
331
2211F
  5
21052
331
22120
  5
21053
331
22121
  5
21054
331
22122
  5
21055
331
22123
  5
2107A
331
22124
  5
2107B
331
22125
  5
2107C
331
22126
  5
2107D
331
22127
  5
2107E
331
22128
  5
2107F
331
22129
  5
21080
331
2212A
  5
21084
331
2212B
  5
21085
331
2212C
  5
21086
331
2212D
  5
21087
331
2212E
  5
21088
331
2212F
  5
21089
331
22130
  5
2108A
331
22131
  5
213C3
331
22132
  5
213C4
331
22133
  5
213C5
331
22134
  5
213C6
331
22135
  5
213C7
331
22136
  5
213C8
331
22137
  5
213C9
331
22138
  5
213DF
331
22139
  5
213E0
331
2213A
  5
213E1
331
2213B
  5
213E2
331
2213C
  5
213E3
331
2213D
  5
213E4
331
2213E
  5
213E5
331
2213F
  5
21DF9
331
22140
  5
21DFA
331
22141
  5
21DFB
331
22142
  5
21DFC
331
22143
  5
21DFD
331
22144
  5
21DFE
331
22145
  5
21DFF
331
22146
  5
22128
331
22147
  5
22129
331
22148
  5
2212A
331
22149
  5
2212B
331
2214A
  5
2212C
331
2214B
  5
2212D
331
2214C
  5
2212E
331
2214D
  5
22132
331
2214E
  5
22133
331
2214F
  5
22134
331
22150
  5
22135
331
22151
  5
22136
331
22152
  5
22137
331
22153
  5
22138
331
22154
  5
2214C
331
22155
  5
2214D
331
22156
  5
2214E
331
22157
  5
2214F
331
22158
  5
22150
331
22159
  5
22151
331
2215A
  5
22152
331
2215B
  5
22158
331
2215C
  5
22159
331
2215D
  5
2215A
331
2215E
  5
2215B
331
2215F
  5
2215C
331
22160
  5
2215D
331
22161
  5
2215E
  0
SORTENTSTABLE
  5
59C
102
{ACAD_REACTORS
330
59B
102
}
330
59B
100
AcDbSortentsTable
330
15
331
57
  5
57
331
0
  5
70
  0
MATERIAL
  5
19DD5
102
{ACAD_REACTORS
330
2CF
102
}
102
{ACAD_XDICTIONARY
360
22307
102
}
330
2CF
100
AcDbMaterial
  1
BYBLOCK
 72
     0
 73
     2
 43
0.0208333333333333
 43
0.0
 43
0.0
 43
0.0
 43
0.0
 43
0.0208333333333333
 43
0.0
 43
0.0
 43
0.0
 43
0.0
 43
1.0
 43
0.0
 43
0.0
 43
0.0
 43
0.0
 43
1.0
 77
     0
 78
     2
 47
0.0208333333333333
 47
0.0
 47
0.0
 47
0.0
 47
0.0
 47
0.0208333333333333
 47
0.0
 47
0.0
 47
0.0
 47
0.0
 47
1.0
 47
0.0
 47
0.0
 47
0.0
 47
0.0
 47
1.0
171
     0
172
     2
 49
0.0208333333333333
 49
0.0
 49
0.0
 49
0.0
 49
0.0
 49
0.0208333333333333
 49
0.0
 49
0.0
 49
0.0
 49
0.0
 49
1.0
 49
0.0
 49
0.0
 49
0.0
 49
0.0
 49
1.0
175
     0
176
     2
142
0.0208333333333333
142
0.0
142
0.0
142
0.0
142
0.0
142
0.0208333333333333
142
0.0
142
0.0
142
0.0
142
0.0
142
1.0
142
0.0
142
0.0
142
0.0
142
0.0
142
1.0
179
     0
270
     2
144
0.0208333333333333
144
0.0
144
0.0
144
0.0
144
0.0
144
0.0208333333333333
144
0.0
144
0.0
144
0.0
144
0.0
144
1.0
144
0.0
144
0.0
144
0.0
144
0.0
144
1.0
274
     2
147
0.0208333333333333
147
0.0
147
0.0
147
0.0
147
0.0
147
0.0208333333333333
147
0.0
147
0.0
147
0.0
147
0.0
147
1.0
147
0.0
147
0.0
147
0.0
147
0.0
147
1.0
  0
MATERIAL
  5
19DCD
102
{ACAD_REACTORS
330
2CF
102
}
102
{ACAD_XDICTIONARY
360
22309
102
}
330
2CF
100
AcDbMaterial
  1
BYLAYER
 72
     0
 73
     2
 43
0.0208333333333333
 43
0.0
 43
0.0
 43
0.0
 43
0.0
 43
0.0208333333333333
 43
0.0
 43
0.0
 43
0.0
 43
0.0
 43
1.0
 43
0.0
 43
0.0
 43
0.0
 43
0.0
 43
1.0
 77
     0
 78
     2
 47
0.0208333333333333
 47
0.0
 47
0.0
 47
0.0
 47
0.0
 47
0.0208333333333333
 47
0.0
 47
0.0
 47
0.0
 47
0.0
 47
1.0
 47
0.0
 47
0.0
 47
0.0
 47
0.0
 47
1.0
171
     0
172
     2
 49
0.0208333333333333
 49
0.0
 49
0.0
 49
0.0
 49
0.0
 49
0.0208333333333333
 49
0.0
 49
0.0
 49
0.0
 49
0.0
 49
1.0
 49
0.0
 49
0.0
 49
0.0
 49
0.0
 49
1.0
175
     0
176
     2
142
0.0208333333333333
142
0.0
142
0.0
142
0.0
142
0.0
142
0.0208333333333333
142
0.0
142
0.0
142
0.0
142
0.0
142
1.0
142
0.0
142
0.0
142
0.0
142
0.0
142
1.0
179
     0
270
     2
144
0.0208333333333333
144
0.0
144
0.0
144
0.0
144
0.0
144
0.0208333333333333
144
0.0
144
0.0
144
0.0
144
0.0
144
1.0
144
0.0
144
0.0
144
0.0
144
0.0
144
1.0
274
     2
147
0.0208333333333333
147
0.0
147
0.0
147
0.0
147
0.0
147
0.0208333333333333
147
0.0
147
0.0
147
0.0
147
0.0
147
1.0
147
0.0
147
0.0
147
0.0
147
0.0
147
1.0
  0
MATERIAL
  5
19DDD
102
{ACAD_REACTORS
330
2CF
102
}
102
{ACAD_XDICTIONARY
360
2230B
102
}
330
2CF
100
AcDbMaterial
  1
GLOBAL
 72
     0
 73
     2
 43
0.0208333333333333
 43
0.0
 43
0.0
 43
0.0
 43
0.0
 43
0.0208333333333333
 43
0.0
 43
0.0
 43
0.0
 43
0.0
 43
1.0
 43
0.0
 43
0.0
 43
0.0
 43
0.0
 43
1.0
 77
     0
 78
     2
 47
0.0208333333333333
 47
0.0
 47
0.0
 47
0.0
 47
0.0
 47
0.0208333333333333
 47
0.0
 47
0.0
 47
0.0
 47
0.0
 47
1.0
 47
0.0
 47
0.0
 47
0.0
 47
0.0
 47
1.0
171
     0
172
     2
 49
0.0208333333333333
 49
0.0
 49
0.0
 49
0.0
 49
0.0
 49
0.0208333333333333
 49
0.0
 49
0.0
 49
0.0
 49
0.0
 49
1.0
 49
0.0
 49
0.0
 49
0.0
 49
0.0
 49
1.0
175
     0
176
     2
142
0.0208333333333333
142
0.0
142
0.0
142
0.0
142
0.0
142
0.0208333333333333
142
0.0
142
0.0
142
0.0
142
0.0
142
1.0
142
0.0
142
0.0
142
0.0
142
0.0
142
1.0
179
     0
270
     2
144
0.0208333333333333
144
0.0
144
0.0
144
0.0
144
0.0
144
0.0208333333333333
144
0.0
144
0.0
144
0.0
144
0.0
144
1.0
144
0.0
144
0.0
144
0.0
144
0.0
144
1.0
274
     2
147
0.0208333333333333
147
0.0
147
0.0
147
0.0
147
0.0
147
0.0208333333333333
147
0.0
147
0.0
147
0.0
147
0.0
147
1.0
147
0.0
147
0.0
147
0.0
147
0.0
147
1.0
  0
ACAD_PROXY_OBJECT
  5
19E19
102
{ACAD_REACTORS
330
19E18
102
}
330
19E18
100
AcDbZombieObject
 90
      499
 91
      512
 93
      610
310
40901902A4063FBFFFFFE000000000000002040AD7A3703D0AD73F4214DD185B99185C990000000000000104090141901A00000000000004100000000000000041025764000000000000300FC0
340
12
340
0
340
F
340
0
 94
        0
1001
ACAD_MLEADERVER
1070
     2
  0
MLINESTYLE
  5
1C
102
{ACAD_REACTORS
330
1B
102
}
330
1B
100
AcDbMlineStyle
  2
STANDARD
 70
     0
  3

 62
   256
 51
90.0
 52
90.0
 71
     2
 49
0.5
 62
   256
  6
BYLAYER
 49
-0.5
 62
   256
  6
BYLAYER
  0
ACAD_PROXY_OBJECT
  5
19DF7
102
{ACAD_REACTORS
330
19DF6
102
}
330
19DF6
100
AcDbZombieObject
 90
      499
 91
      511
 93
       41
310
903313A31580
  0
ACAD_PROXY_OBJECT
  5
19DF8
102
{ACAD_REACTORS
330
19DF6
102
}
330
19DF6
100
AcDbZombieObject
 90
      499
 91
      511
 93
      105
310
903313A324000000000000004000
  0
ACAD_PROXY_OBJECT
  5
19DF9
102
{ACAD_REACTORS
330
19DF6
102
}
330
19DF6
100
AcDbZombieObject
 90
      499
 91
      511
 93
      105
310
903313A344000000000000104000
  0
ACAD_PROXY_OBJECT
  5
19DFA
102
{ACAD_REACTORS
330
19DF6
102
}
330
19DF6
100
AcDbZombieObject
 90
      499
 91
      511
 93
      105
310
903313A354000000000000144000
  0
ACAD_PROXY_OBJECT
  5
19DFB
102
{ACAD_REACTORS
330
19DF6
102
}
330
19DF6
100
AcDbZombieObject
 90
      499
 91
      511
 93
      105
310
903313A384000000000000204000
  0
ACAD_PROXY_OBJECT
  5
19DFC
102
{ACAD_REACTORS
330
19DF6
102
}
330
19DF6
100
AcDbZombieObject
 90
      499
 91
      511
 93
      113
310
904313A31304000000000000244000
  0
ACAD_PROXY_OBJECT
  5
19DFD
102
{ACAD_REACTORS
330
19DF6
102
}
330
19DF6
100
AcDbZombieObject
 90
      499
 91
      511
 93
      113
310
904313A31364000000000000304000
  0
ACAD_PROXY_OBJECT
  5
19DFE
102
{ACAD_REACTORS
330
19DF6
102
}
330
19DF6
100
AcDbZombieObject
 90
      499
 91
      511
 93
      113
310
904313A32304000000000000344000
  0
ACAD_PROXY_OBJECT
  5
19DFF
102
{ACAD_REACTORS
330
19DF6
102
}
330
19DF6
100
AcDbZombieObject
 90
      499
 91
      511
 93
      113
310
904313A333040000000000003E4000
  0
ACAD_PROXY_OBJECT
  5
19E00
102
{ACAD_REACTORS
330
19DF6
102
}
330
19DF6
100
AcDbZombieObject
 90
      499
 91
      511
 93
      113
310
904313A34304000000000000444000
  0
ACAD_PROXY_OBJECT
  5
19E01
102
{ACAD_REACTORS
330
19DF6
102
}
330
19DF6
100
AcDbZombieObject
 90
      499
 91
      511
 93
      113
310
904313A35304000000000000494000
  0
ACAD_PROXY_OBJECT
  5
19E02
102
{ACAD_REACTORS
330
19DF6
102
}
330
19DF6
100
AcDbZombieObject
 90
      499
 91
      511
 93
      121
310
905313A3130304000000000000594000
  0
ACAD_PROXY_OBJECT
  5
19E03
102
{ACAD_REACTORS
330
19DF6
102
}
330
19DF6
100
AcDbZombieObject
 90
      499
 91
      511
 93
      105
310
903323A310000000000000010100
  0
ACAD_PROXY_OBJECT
  5
19E04
102
{ACAD_REACTORS
330
19DF6
102
}
330
19DF6
100
AcDbZombieObject
 90
      499
 91
      511
 93
      105
310
903343A310000000000000410100
  0
ACAD_PROXY_OBJECT
  5
19E05
102
{ACAD_REACTORS
330
19DF6
102
}
330
19DF6
100
AcDbZombieObject
 90
      499
 91
      511
 93
      105
310
903383A310000000000000810100
  0
ACAD_PROXY_OBJECT
  5
19E06
102
{ACAD_REACTORS
330
19DF6
102
}
330
19DF6
100
AcDbZombieObject
 90
      499
 91
      511
 93
      113
310
90431303A310000000000000910100
  0
ACAD_PROXY_OBJECT
  5
19E07
102
{ACAD_REACTORS
330
19DF6
102
}
330
19DF6
100
AcDbZombieObject
 90
      499
 91
      511
 93
      121
310
9053130303A310000000000001650100
  0
ACAD_PROXY_OBJECT
  5
19E08
102
{ACAD_REACTORS
330
19DF6
102
}
330
19DF6
100
AcDbZombieObject
 90
      499
 91
      511
 93
      257
310
90E312F31323822203D2031272D3022000000000000200FC000000000000284000
  0
ACAD_PROXY_OBJECT
  5
19E09
102
{ACAD_REACTORS
330
19DF6
102
}
330
19DF6
100
AcDbZombieObject
 90
      499
 91
      511
 93
      249
310
90D312F363422203D2031272D3022000000000000240FC000000000000284000
  0
ACAD_PROXY_OBJECT
  5
19E0A
102
{ACAD_REACTORS
330
19DF6
102
}
330
19DF6
100
AcDbZombieObject
 90
      499
 91
      511
 93
      249
310
90D312F333222203D2031272D3022000000000000280FC000000000000284000
  0
ACAD_PROXY_OBJECT
  5
19E0B
102
{ACAD_REACTORS
330
19DF6
102
}
330
19DF6
100
AcDbZombieObject
 90
      499
 91
      511
 93
      249
310
90D312F313622203D2031272D30220000000000002C0FC000000000000284000
  0
ACAD_PROXY_OBJECT
  5
19E0C
102
{ACAD_REACTORS
330
19DF6
102
}
330
19DF6
100
AcDbZombieObject
 90
      499
 91
      511
 93
      249
310
90D332F333222203D2031272D30220000000000002E0FC000000000000284000
  0
ACAD_PROXY_OBJECT
  5
19E0D
102
{ACAD_REACTORS
330
19DF6
102
}
330
19DF6
100
AcDbZombieObject
 90
      499
 91
      511
 93
      241
310
90C312F3822203D2031272D3022000000000000300FC000000000000284000
  0
ACAD_PROXY_OBJECT
  5
19E0E
102
{ACAD_REACTORS
330
19DF6
102
}
330
19DF6
100
AcDbZombieObject
 90
      499
 91
      511
 93
      249
310
90D332F313622203D2031272D3022000000000000320FC000000000000284000
  0
ACAD_PROXY_OBJECT
  5
19E0F
102
{ACAD_REACTORS
330
19DF6
102
}
330
19DF6
100
AcDbZombieObject
 90
      499
 91
      511
 93
      241
310
90C312F3422203D2031272D3022000000000000340FC000000000000284000
  0
ACAD_PROXY_OBJECT
  5
19E10
102
{ACAD_REACTORS
330
19DF6
102
}
330
19DF6
100
AcDbZombieObject
 90
      499
 91
      511
 93
      241
310
90C332F3822203D2031272D3022000000000000360FC000000000000284000
  0
ACAD_PROXY_OBJECT
  5
19E11
102
{ACAD_REACTORS
330
19DF6
102
}
330
19DF6
100
AcDbZombieObject
 90
      499
 91
      511
 93
      241
310
90C312F3222203D2031272D3022000000000000380FC000000000000284000
  0
ACAD_PROXY_OBJECT
  5
19E12
102
{ACAD_REACTORS
330
19DF6
102
}
330
19DF6
100
AcDbZombieObject
 90
      499
 91
      511
 93
      241
310
90C332F3422203D2031272D30220000000000003A0FC000000000000284000
  0
ACAD_PROXY_OBJECT
  5
19E13
102
{ACAD_REACTORS
330
19DF6
102
}
330
19DF6
100
AcDbZombieObject
 90
      499
 91
      511
 93
      161
310
90A3122203D2031272D30224000000000000284000
  0
ACAD_PROXY_OBJECT
  5
19E14
102
{ACAD_REACTORS
330
19DF6
102
}
330
19DF6
100
AcDbZombieObject
 90
      499
 91
      511
 93
      257
310
90E312D312F3222203D2031272D30220000000000003E0FC000000000000284000
  0
ACAD_PROXY_OBJECT
  5
19E15
102
{ACAD_REACTORS
330
19DF6
102
}
330
19DF6
100
AcDbZombieObject
 90
      499
 91
      511
 93
      225
310
90A3322203D2031272D302200000000000002100000000000000284000
  0
ACAD_PROXY_OBJECT
  5
19E16
102
{ACAD_REACTORS
330
19DF6
102
}
330
19DF6
100
AcDbZombieObject
 90
      499
 91
      511
 93
      225
310
90A3622203D2031272D302200000000000006100000000000000284000
  0
ACAD_PROXY_OBJECT
  5
19E17
102
{ACAD_REACTORS
330
19DF6
102
}
330
19DF6
100
AcDbZombieObject
 90
      499
 91
      511
 93
      249
310
90D31272D3022203D2031272D30220000000000000A100000000000000284000
  0
ACAD_PROXY_OBJECT
  5
19DEB
102
{ACAD_REACTORS
330
19DE5
102
}
330
19DE5
100
AcDbZombieObject
 90
      499
 91
      510
 93
      436
310
42CC9915DA5C99599C985B595049028333333333333E3BF0000000000000FB0107901411070040501600405405064090741402480A0340
1001
ACAD
1000
AcDbSavedByObjectVersion
1070
     0
  0
ACAD_PROXY_OBJECT
  5
19DED
102
{ACAD_REACTORS
330
19DE5
102
}
330
19DE5
100
AcDbZombieObject
 90
      499
 91
      510
 93
      500
310
424CD108121A5919195B90640502408333333333333E3BF0000000000000FB01079024090700405020000000000001110200405405064090740C02480A0340
1001
ACAD
1000
AcDbSavedByObjectVersion
1070
     0
  0
ACAD_PROXY_OBJECT
  5
19DEC
102
{ACAD_REACTORS
330
19DE5
102
}
330
19DE5
100
AcDbZombieObject
 90
      499
 91
      510
 93
      436
310
42CCD915DA5C99599C985B595059028333333333333E3BF0000000000000FB0107901411070040501600405405064090741402480A0340
1001
ACAD
1000
AcDbSavedByObjectVersion
1070
     0
  0
ACAD_PROXY_OBJECT
  5
19DEA
102
{ACAD_REACTORS
330
19DE5
102
}
330
19DE5
100
AcDbZombieObject
 90
      499
 91
      510
 93
      388
310
4150985CDA58D07406404333333333333E3BF0000000000000FB0107A41107004050150841D405064090741402480A0350
1001
ACAD
1000
AcDbSavedByObjectVersion
1070
     0
  0
ACAD_PROXY_OBJECT
  5
19DF1
102
{ACAD_REACTORS
330
19DE5
102
}
330
19DE5
100
AcDbZombieObject
 90
      499
 91
      510
 93
      428
310
42109C9A59DA1D195B90C409028333333333333E3BF0000000000000FB010790141107004050150841D405064090741402480A029950
1001
ACAD
1000
AcDbSavedByObjectVersion
1070
     0
  0
ACAD_PROXY_OBJECT
  5
19DF5
102
{ACAD_REACTORS
330
19DE5
102
}
330
19DE5
100
AcDbZombieObject
 90
      499
 91
      510
 93
      452
310
42D0DBDB1BDC90DA185B99D95104090240C333333333333E3BF0000000000000FB0108901411070040501508421405064090741402480A0350
1001
ACAD
1000
AcDbSavedByObjectVersion
1070
     0
  0
ACAD_PROXY_OBJECT
  5
19DEE
102
{ACAD_REACTORS
330
19DE5
102
}
330
19DE5
100
AcDbZombieObject
 90
      499
 91
      510
 93
      500
310
4290DBDB98D95C1D1D585B10940D028333333333333E3BF0000000000000FB0107902409070040501000000000000111010841D405064090740C02480A0340
1001
ACAD
1000
AcDbSavedByObjectVersion
1070
     0
  0
ACAD_PROXY_OBJECT
  5
19DF0
102
{ACAD_REACTORS
330
19DE5
102
}
330
19DE5
100
AcDbZombieObject
 90
      499
 91
      510
 93
      412
310
40D11A5B50B409028333333333333E3BF0000000000000FB010790141107004050150841D405064090741402480A02677FFFFFD0
1001
ACAD
1000
AcDbSavedByObjectVersion
1070
     0
  0
ACAD_PROXY_OBJECT
  5
1E02A
102
{ACAD_REACTORS
330
19DE5
102
}
330
19DE5
100
AcDbZombieObject
 90
      499
 91
      510
 93
      452
310
43115919D950DBDB1BDC93D999916409028333333333333E3BF0000000000000FB010790141107004050150841D405064090741402480A0350
1001
ACAD
1000
AcDbSavedByObjectVersion
1070
     0
  0
ACAD_PROXY_OBJECT
  5
19DF4
102
{ACAD_REACTORS
330
19DE5
102
}
330
19DE5
100
AcDbZombieObject
 90
      499
 91
      510
 93
      444
310
42D19858D95C185D1D195C9B90F409028333333333333E3BF0000000000000FB010790141107004050150841D405064090741402480A0350
1001
ACAD
1000
AcDbSavedByObjectVersion
1070
     0
  0
ACAD_PROXY_OBJECT
  5
19DE6
102
{ACAD_REACTORS
330
19DE5
102
}
330
19DE5
100
AcDbZombieObject
 90
      499
 91
      510
 93
      388
310
41119B185D240901404333333333333E3BF0000000000000F9010740A41107004050150841D405064090741402480A1B50
1001
ACAD
1000
AcDbSavedByObjectVersion
1070
     0
  0
ACAD_PROXY_OBJECT
  5
19DE7
102
{ACAD_REACTORS
330
19DE5
102
}
330
19DE5
100
AcDbZombieObject
 90
      499
 91
      510
 93
      476
310
43519B185D15DA5D1A115919D95CD0140901404333333333333E3BF0000000000000F9010740901411070040501600405405064090741402480A1B50
1001
ACAD
1000
AcDbSavedByObjectVersion
1070
     0
  0
ACAD_PROXY_OBJECT
  5
19DE8
102
{ACAD_REACTORS
330
19DE5
102
}
330
19DE5
100
AcDbZombieObject
 90
      499
 91
      510
 93
      412
310
41D1DBDD5C985D5910240902404333333333333E3BF0000000000000F9010740A411070040501641D405064090741402480A1B50
1001
ACAD
1000
AcDbSavedByObjectVersion
1070
     0
  0
ACAD_PROXY_OBJECT
  5
19DE9
102
{ACAD_REACTORS
330
19DE5
102
}
330
19DE5
100
AcDbZombieObject
 90
      499
 91
      510
 93
      500
310
4411DBDD5C985D5915DA5D1A115919D95CD0340902404333333333333E3BF0000000000000F9010740901411070040501600405405064090741402480A1B50
1001
ACAD
1000
AcDbSavedByObjectVersion
1070
     0
  0
ACAD_PROXY_OBJECT
  5
1F381
102
{ACAD_REACTORS
330
19DE5
102
}
330
19DE5
100
AcDbZombieObject
 90
      499
 91
      510
 93
      476
310
41921A5919195B90640502408333333333333E3BF0000000000000FB01079024090700405020000000000001110200405405064090740C02480A0340
1001
ACAD
1000
AcDbSavedByObjectVersion
1070
     0
  0
ACAD_PROXY_OBJECT
  5
1E028
102
{ACAD_REACTORS
330
19DE5
102
}
330
19DE5
100
AcDbZombieObject
 90
      499
 91
      510
 93
      428
310
42529A5D1D195C93D999914409028333333333333E3BF0000000000000FB010790141107004050150A41D405064090741402480A0350
1001
ACAD
1000
AcDbSavedByObjectVersion
1070
     0
  0
ACAD_PROXY_OBJECT
  5
19DF3
102
{ACAD_REACTORS
330
19DE5
102
}
330
19DE5
100
AcDbZombieObject
 90
      499
 91
      510
 93
      444
310
42D31A5B995C185D1D195C9B90E409028333333333333E3BF0000000000000FB010790141107004050750841D405064090741402483A0350
1001
ACAD
1000
AcDbSavedByObjectVersion
1070
     0
  0
ACAD_PROXY_OBJECT
  5
1F387
102
{ACAD_REACTORS
330
19DE5
102
}
330
19DE5
100
AcDbZombieObject
 90
      499
 91
      510
 93
      484
310
42135BD9195B1A5B99D0A409028333333333333E3BF0000000000000F901074090290700405010000000000201990108421405064090741402480A1B40
1001
ACAD
1000
AcDbSavedByObjectVersion
1070
     0
  0
ACAD_PROXY_OBJECT
  5
1E029
102
{ACAD_REACTORS
330
19DE5
102
}
330
19DE5
100
AcDbZombieObject
 90
      499
 91
      510
 93
      444
310
42D3DD995C9A185B99D3D999915409028333333333333E3BF0000000000000FB010790141107004050150941D405064090741402480A0350
1001
ACAD
1000
AcDbSavedByObjectVersion
1070
     0
  0
ACAD_PROXY_OBJECT
  5
19DEF
102
{ACAD_REACTORS
330
19DE5
102
}
330
19DE5
100
AcDbZombieObject
 90
      499
 91
      510
 93
      420
310
425499585B1A5CDD1A58D08409028333333333333E3BF0000000000000FB01079019070040501508421405064090741402480A1B40
1001
ACAD
1000
AcDbSavedByObjectVersion
1070
     0
  0
ACAD_PROXY_OBJECT
  5
1F386
102
{ACAD_REACTORS
330
19DE5
102
}
330
19DE5
100
AcDbZombieObject
 90
      499
 91
      510
 93
      420
310
4194DA1859195911B40902404333333333333E3BF0000000000000F9010740A41107004050150800405405064090840C02480A0B40
1001
ACAD
1000
AcDbSavedByObjectVersion
1070
     0
  0
ACAD_PROXY_OBJECT
  5
1F385
102
{ACAD_REACTORS
330
19DE5
102
}
330
19DE5
100
AcDbZombieObject
 90
      499
 91
      510
 93
      516
310
4454DA18591959081DDA5D1A08195919D95CD1A40902404333333333333E3BF0000000000000F901074090142907004050250800405405064090740C02480A0B40
1001
ACAD
1000
AcDbSavedByObjectVersion
1070
     0
  0
ACAD_PROXY_OBJECT
  5
1F382
102
{ACAD_REACTORS
330
19DE5
102
}
330
19DE5
100
AcDbZombieObject
 90
      499
 91
      510
 93
      532
310
4394DA1859195CC81BD98811DC985E5174090240C333333333333E3BF0000000000000FB01079024090741D01000000000000111010841D405064090740C02480A0340
1001
ACAD
1000
AcDbSavedByObjectVersion
1070
     0
  0
ACAD_PROXY_OBJECT
  5
1F383
102
{ACAD_REACTORS
330
19DE5
102
}
330
19DE5
100
AcDbZombieObject
 90
      499
 91
      510
 93
      476
310
41D4DAD95D18DA1E51840502408333333333333E3BF0000000000000FB01079024090741D01000000000000111010B41D405064090741802480A0340
1001
ACAD
1000
AcDbSavedByObjectVersion
1070
     0
  0
ACAD_PROXY_OBJECT
  5
19DF2
102
{ACAD_REACTORS
330
19DE5
102
}
330
19DE5
100
AcDbZombieObject
 90
      499
 91
      510
 93
      412
310
41D51A1A58DAD95B90D409028333333333333E3BF0000000000000FB010790141107004050150C41D405064090741402480A0350
1001
ACAD
1000
AcDbSavedByObjectVersion
1070
     0
  0
ACAD_PROXY_OBJECT
  5
1F380
102
{ACAD_REACTORS
330
19DE5
102
}
330
19DE5
100
AcDbZombieObject
 90
      499
 91
      510
 93
      420
310
4255DA5C99599C985B595059028333333333333E3BF0000000000000FB0107901411070040501600405405064090740C02480A0340
1001
ACAD
1000
AcDbSavedByObjectVersion
1070
     0
  0
ACAD_PROXY_OBJECT
  5
1F384
102
{ACAD_REACTORS
330
19DE5
102
}
330
19DE5
100
AcDbZombieObject
 90
      499
 91
      510
 93
      404
310
41560B54985E51940902404000000000000E03F0000000000000FB010740501907004050150841D405064090740C02480A1B40
1001
ACAD
1000
AcDbSavedByObjectVersion
1070
     0
  0
XRECORD
  5
2216A
102
{ACAD_REACTORS
330
22169
102
}
330
22169
100
AcDbXrecord
340
2D0
  0
XRECORD
  5
2216B
102
{ACAD_REACTORS
330
22169
102
}
330
22169
100
AcDbXrecord
340
2CF
  0
DICTIONARYVAR
  5
20A45
102
{ACAD_REACTORS
330
37
102
}
330
37
100
DictionaryVariables
280
     0
  1
1:1
  0
DICTIONARYVAR
  5
1AC19
102
{ACAD_REACTORS
330
37
102
}
330
37
100
DictionaryVariables
280
     0
  1
Standard
  0
DICTIONARYVAR
  5
4F1
102
{ACAD_REACTORS
330
37
102
}
330
37
100
DictionaryVariables
280
     0
  1
Standard
  0
DICTIONARYVAR
  5
38
102
{ACAD_REACTORS
330
37
102
}
330
37
100
DictionaryVariables
280
     0
  1
-1
  0
DICTIONARYVAR
  5
408
102
{ACAD_REACTORS
330
37
102
}
330
37
100
DictionaryVariables
280
     0
  1
2
  0
DICTIONARYVAR
  5
1891
102
{ACAD_REACTORS
330
37
102
}
330
37
100
DictionaryVariables
280
     0
  1
1
  0
DICTIONARYVAR
  5
1AC1C
102
{ACAD_REACTORS
330
37
102
}
330
37
100
DictionaryVariables
280
     0
  1
0
  0
DICTIONARYVAR
  5
1895
102
{ACAD_REACTORS
330
37
102
}
330
37
100
DictionaryVariables
280
     0
  1
8
  0
DICTIONARYVAR
  5
1894
102
{ACAD_REACTORS
330
37
102
}
330
37
100
DictionaryVariables
280
     0
  1
1
  0
DICTIONARYVAR
  5
20A9B
102
{ACAD_REACTORS
330
37
102
}
330
37
100
DictionaryVariables
280
     0
  1
0
  0
DICTIONARYVAR
  5
1892
102
{ACAD_REACTORS
330
37
102
}
330
37
100
DictionaryVariables
280
     0
  1
8
  0
DICTIONARYVAR
  5
1893
102
{ACAD_REACTORS
330
37
102
}
330
37
100
DictionaryVariables
280
     0
  1
2
  0
DICTIONARYVAR
  5
409
102
{ACAD_REACTORS
330
37
102
}
330
37
100
DictionaryVariables
280
     0
  1

  0
DICTIONARYVAR
  5
1AC1B
102
{ACAD_REACTORS
330
37
102
}
330
37
100
DictionaryVariables
280
     0
  1
127
  0
DICTIONARYVAR
  5
21F9C
102
{ACAD_REACTORS
330
37
102
}
330
37
100
DictionaryVariables
280
     0
  1
2
  0
DICTIONARY
  5
22307
330
19DD5
100
AcDbDictionary
  3
ACAD_XREC_ROUNDTRIP
360
22308
1001
ACAD
1000
TREAT_AS_HARD
1070
     1
  0
DICTIONARY
  5
22309
330
19DCD
100
AcDbDictionary
  3
ACAD_XREC_ROUNDTRIP
360
2230A
1001
ACAD
1000
TREAT_AS_HARD
1070
     1
  0
DICTIONARY
  5
2230B
330
19DDD
100
AcDbDictionary
  3
ACAD_XREC_ROUNDTRIP
360
2230C
1001
ACAD
1000
TREAT_AS_HARD
1070
     1
  0
XRECORD
  5
22308
102
{ACAD_REACTORS
330
22307
102
}
330
22307
100
AcDbXrecord
102
MATERIAL
148
0.0
149
0.0
149
0.0
 93
        0
 94
      127
282
     0
 72
     0
 77
     0
171
     0
175
     0
179
     0
273
     0
  0
XRECORD
  5
2230A
102
{ACAD_REACTORS
330
22309
102
}
330
22309
100
AcDbXrecord
102
MATERIAL
148
0.0
149
0.0
149
0.0
 93
        0
 94
      127
282
     0
 72
     0
 77
     0
171
     0
175
     0
179
     0
273
     0
  0
XRECORD
  5
2230C
102
{ACAD_REACTORS
330
2230B
102
}
330
2230B
100
AcDbXrecord
102
MATERIAL
148
0.0
149
0.0
149
0.0
 93
        0
 94
      127
282
     0
 72
     0
 77
     0
171
     0
175
     0
179
     0
273
     0
  0
ENDSEC
  0
EOF
