  0
SECTION
  2
HEADER
  9
$ACADVER
  1
AC1015
  9
$ACADMAINTVER
 70
    20
  9
$DWGCODEPAGE
  3
ANSI_932
  9
$INSBASE
 10
0.0
 20
0.0
 30
0.0
  9
$EXTMIN
 10
135.8810947663668
 20
-734.4213303512677
 30
0.0
  9
$EXTMAX
 10
793.8810867089233
 20
-460.025441490976
 30
0.0
  9
$LIMMIN
 10
0.0
 20
0.0
  9
$LIMMAX
 10
420.0
 20
297.0
  9
$ORTHOMODE
 70
     0
  9
$REGENMODE
 70
     1
  9
$FILLMODE
 70
     1
  9
$QTEXTMODE
 70
     0
  9
$MIRRTEXT
 70
     0
  9
$LTSCALE
 40
0.5
  9
$ATTMODE
 70
     1
  9
$TEXTSIZE
 40
4.0
  9
$TRACEWID
 40
1.0
  9
$TEXTSTYLE
  7
STANDARD
  9
$CLAYER
  8
1TEXT
  9
$CELTYPE
  6
BYLAYER
  9
$CECOLOR
 62
   256
  9
$CELTSCALE
 40
1.0
  9
$DISPSILH
 70
     0
  9
$DIMSCALE
 40
1.0
  9
$DIMASZ
 40
2.0
  9
$DIMEXO
 40
0.0
  9
$DIMDLI
 40
7.0
  9
$DIMRND
 40
0.0
  9
$DIMDLE
 40
0.0
  9
$DIMEXE
 40
1.0
  9
$DIMTP
 40
0.0
  9
$DIMTM
 40
0.0
  9
$DIMTXT
 40
3.5
  9
$DIMCEN
 40
0.0
  9
$DIMTSZ
 40
0.0
  9
$DIMTOL
 70
     0
  9
$DIMLIM
 70
     0
  9
$DIMTIH
 70
     0
  9
$DIMTOH
 70
     0
  9
$DIMSE1
 70
     0
  9
$DIMSE2
 70
     0
  9
$DIMTAD
 70
     1
  9
$DIMZIN
 70
     8
  9
$DIMBLK
  1

  9
$DIMASO
 70
     1
  9
$DIMSHO
 70
     1
  9
$DIMPOST
  1
 
  9
$DIMAPOST
  1

  9
$DIMALT
 70
     0
  9
$DIMALTD
 70
     2
  9
$DIMALTF
 40
25.4
  9
$DIMLFAC
 40
1.0
  9
$DIMTOFL
 70
     1
  9
$DIMTVP
 40
0.0
  9
$DIMTIX
 70
     0
  9
$DIMSOXD
 70
     0
  9
$DIMSAH
 70
     1
  9
$DIMBLK1
  1
OPEN30
  9
$DIMBLK2
  1
OPEN30
  9
$DIMSTYLE
  2
NEWX10
  9
$DIMCLRD
 70
   256
  9
$DIMCLRE
 70
   256
  9
$DIMCLRT
 70
   201
  9
$DIMTFAC
 40
0.7
  9
$DIMGAP
 40
0.7
  9
$DIMJUST
 70
     0
  9
$DIMSD1
 70
     0
  9
$DIMSD2
 70
     0
  9
$DIMTOLJ
 70
     1
  9
$DIMTZIN
 70
     8
  9
$DIMALTZ
 70
     0
  9
$DIMALTTZ
 70
     0
  9
$DIMUPT
 70
     0
  9
$DIMDEC
 70
     2
  9
$DIMTDEC
 70
     4
  9
$DIMALTU
 70
     2
  9
$DIMALTTD
 70
     2
  9
$DIMTXSTY
  7
STANDARD
  9
$DIMAUNIT
 70
     0
  9
$DIMADEC
 70
     1
  9
$DIMALTRND
 40
0.0
  9
$DIMAZIN
 70
     2
  9
$DIMDSEP
 70
    46
  9
$DIMATFIT
 70
     3
  9
$DIMFRAC
 70
     0
  9
$DIMLDRBLK
  1
OPEN30
  9
$DIMLUNIT
 70
     2
  9
$DIMLWD
 70
    -2
  9
$DIMLWE
 70
    -2
  9
$DIMTMOVE
 70
     0
  9
$LUNITS
 70
     2
  9
$LUPREC
 70
     4
  9
$SKETCHINC
 40
1.0
  9
$FILLETRAD
 40
0.0
  9
$AUNITS
 70
     0
  9
$AUPREC
 70
     2
  9
$MENU
  1
acad
  9
$ELEVATION
 40
0.0
  9
$PELEVATION
 40
0.0
  9
$THICKNESS
 40
0.0
  9
$LIMCHECK
 70
     0
  9
$CHAMFERA
 40
1.0
  9
$CHAMFERB
 40
1.0
  9
$CHAMFERC
 40
20.0
  9
$CHAMFERD
 40
0.0
  9
$SKPOLY
 70
     0
  9
$TDCREATE
 40
2453033.732663484
  9
$TDUCREATE
 40
2453033.357663484
  9
$TDUPDATE
 40
2457631.720903137
  9
$TDUUPDATE
 40
2457631.345903137
  9
$TDINDWG
 40
2.6135897685
  9
$TDUSRTIMER
 40
2.6135897685
  9
$USRTIMER
 70
     1
  9
$ANGBASE
 50
0.0
  9
$ANGDIR
 70
     0
  9
$PDMODE
 70
     0
  9
$PDSIZE
 40
0.0
  9
$PLINEWID
 40
0.0
  9
$SPLFRAME
 70
     0
  9
$SPLINETYPE
 70
     6
  9
$SPLINESEGS
 70
     8
  9
$HANDSEED
  5
24F5B
  9
$SURFTAB1
 70
     6
  9
$SURFTAB2
 70
     6
  9
$SURFTYPE
 70
     6
  9
$SURFU
 70
     6
  9
$SURFV
 70
     6
  9
$UCSBASE
  2

  9
$UCSNAME
  2

  9
$UCSORG
 10
0.0
 20
0.0
 30
0.0
  9
$UCSXDIR
 10
1.0
 20
0.0
 30
0.0
  9
$UCSYDIR
 10
0.0
 20
1.0
 30
0.0
  9
$UCSORTHOREF
  2

  9
$UCSORTHOVIEW
 70
     0
  9
$UCSORGTOP
 10
0.0
 20
0.0
 30
0.0
  9
$UCSORGBOTTOM
 10
0.0
 20
0.0
 30
0.0
  9
$UCSORGLEFT
 10
0.0
 20
0.0
 30
0.0
  9
$UCSORGRIGHT
 10
0.0
 20
0.0
 30
0.0
  9
$UCSORGFRONT
 10
0.0
 20
0.0
 30
0.0
  9
$UCSORGBACK
 10
0.0
 20
0.0
 30
0.0
  9
$PUCSBASE
  2

  9
$PUCSNAME
  2

  9
$PUCSORG
 10
0.0
 20
0.0
 30
0.0
  9
$PUCSXDIR
 10
1.0
 20
0.0
 30
0.0
  9
$PUCSYDIR
 10
0.0
 20
1.0
 30
0.0
  9
$PUCSORTHOREF
  2

  9
$PUCSORTHOVIEW
 70
     0
  9
$PUCSORGTOP
 10
0.0
 20
0.0
 30
0.0
  9
$PUCSORGBOTTOM
 10
0.0
 20
0.0
 30
0.0
  9
$PUCSORGLEFT
 10
0.0
 20
0.0
 30
0.0
  9
$PUCSORGRIGHT
 10
0.0
 20
0.0
 30
0.0
  9
$PUCSORGFRONT
 10
0.0
 20
0.0
 30
0.0
  9
$PUCSORGBACK
 10
0.0
 20
0.0
 30
0.0
  9
$USERI1
 70
     0
  9
$USERI2
 70
     0
  9
$USERI3
 70
     0
  9
$USERI4
 70
     0
  9
$USERI5
 70
     0
  9
$USERR1
 40
0.0
  9
$USERR2
 40
0.0
  9
$USERR3
 40
0.0
  9
$USERR4
 40
0.0
  9
$USERR5
 40
0.0
  9
$WORLDVIEW
 70
     1
  9
$SHADEDGE
 70
     3
  9
$SHADEDIF
 70
    70
  9
$TILEMODE
 70
     1
  9
$MAXACTVP
 70
    48
  9
$PINSBASE
 10
0.0
 20
0.0
 30
0.0
  9
$PLIMCHECK
 70
     0
  9
$PEXTMIN
 10
1.000000000000000E+20
 20
1.000000000000000E+20
 30
1.000000000000000E+20
  9
$PEXTMAX
 10
-1.000000000000000E+20
 20
-1.000000000000000E+20
 30
-1.000000000000000E+20
  9
$PLIMMIN
 10
0.0
 20
0.0
  9
$PLIMMAX
 10
420.0
 20
297.0
  9
$UNITMODE
 70
     0
  9
$VISRETAIN
 70
     1
  9
$PLINEGEN
 70
     0
  9
$PSLTSCALE
 70
     1
  9
$TREEDEPTH
 70
  3020
  9
$CMLSTYLE
  2
STANDARD
  9
$CMLJUST
 70
     0
  9
$CMLSCALE
 40
20.0
  9
$PROXYGRAPHICS
 70
     1
  9
$MEASUREMENT
 70
     1
  9
$CELWEIGHT
370
    -1
  9
$ENDCAPS
280
     0
  9
$JOINSTYLE
280
     0
  9
$LWDISPLAY
290
     0
  9
$INSUNITS
 70
     0
  9
$HYPERLINKBASE
  1

  9
$STYLESHEET
  1

  9
$XEDIT
290
     1
  9
$CEPSNTYPE
380
     0
  9
$PSTYLEMODE
290
     1
  9
$FINGERPRINTGUID
  2
{7FF825AD-D9F8-4ECB-8BCF-6AF9BEBE9593}
  9
$VERSIONGUID
  2
{83E98E99-FF5F-4534-9BD4-1EE388CF28A6}
  9
$EXTNAMES
290
     1
  9
$PSVPSCALE
 40
0.0
  9
$OLESTARTUP
290
     0
  0
ENDSEC
  0
SECTION
  2
CLASSES
  0
CLASS
  1
DICTIONARYVAR
  2
AcDbDictionaryVar
  3
ObjectDBX Classes
 90
        0
280
     0
281
     0
  0
CLASS
  1
IDBUFFER
  2
AcDbIdBuffer
  3
ObjectDBX Classes
 90
    32768
280
     0
281
     0
  0
CLASS
  1
ACDBDICTIONARYWDFLT
  2
AcDbDictionaryWithDefault
  3
ObjectDBX Classes
 90
        0
280
     0
281
     0
  0
CLASS
  1
ACDBPLACEHOLDER
  2
AcDbPlaceHolder
  3
ObjectDBX Classes
 90
        0
280
     0
281
     0
  0
CLASS
  1
LAYOUT
  2
AcDbLayout
  3
ObjectDBX Classes
 90
        0
280
     0
281
     0
  0
CLASS
  1
TABLESTYLE
  2
AcDbTableStyle
  3
ObjectDBX Classes
 90
     4095
280
     0
281
     0
  0
CLASS
  1
SORTENTSTABLE
  2
AcDbSortentsTable
  3
ObjectDBX Classes
 90
        0
280
     0
281
     0
  0
CLASS
  1
DIMASSOC
  2
AcDbDimAssoc
  3
"AcDbDimAssoc|Product Desc:     AcDim ARX App For Dimension|Company:          Autodesk, Inc.|WEB Address:      www.autodesk.com"
 90
    32768
280
     0
281
     0
  0
CLASS
  1
MATERIAL
  2
AcDbMaterial
  3
ObjectDBX Classes
 90
     1153
280
     0
281
     0
  0
CLASS
  1
VISUALSTYLE
  2
AcDbVisualStyle
  3
ObjectDBX Classes
 90
     4095
280
     0
281
     0
  0
CLASS
  1
SCALE
  2
AcDbScale
  3
ObjectDBX Classes
 90
     1153
280
     0
281
     0
  0
CLASS
  1
MLEADERSTYLE
  2
AcDbMLeaderStyle
  3
ACDB_MLEADERSTYLE_CLASS
 90
     4095
280
     0
281
     0
  0
CLASS
  1
CELLSTYLEMAP
  2
AcDbCellStyleMap
  3
ObjectDBX Classes
 90
     1152
280
     0
281
     0
  0
CLASS
  1
EXACXREFPANELOBJECT
  2
ExAcXREFPanelObject
  3
EXAC_ESW
 90
    33793
280
     0
281
     0
  0
CLASS
  1
NPOCOLLECTION
  2
AcDbImpNonPersistentObjectsCollection
  3
ObjectDBX Classes
 90
     1153
280
     0
281
     0
  0
CLASS
  1
AEC_REFEDIT_STATUS_TRACKER
  2
AecDbRefEditStatusTracker
  3
AecArchBase60|Product Desc: Autodesk Architectural Desktop 2007 |Company: Autodesk,Inc. |WEB Address: www.autodesk.com
 90
      129
280
     0
281
     0
  0
ENDSEC
  0
SECTION
  2
TABLES
  0
TABLE
  2
VPORT
  5
8
102
{ACAD_XDICTIONARY
360
1ABDC
102
}
330
0
100
AcDbSymbolTable
 70
     1
  0
VPORT
  5
19DC2
330
8
100
AcDbSymbolTableRecord
100
AcDbViewportTableRecord
  2
*Active
 70
     0
 10
0.0
 20
0.0
 11
1.0
 21
1.0
 12
464.8679164019375
 22
-597.2153475859609
 13
0.0
 23
0.0
 14
10.0
 24
10.0
 15
10.0
 25
10.0
 16
0.0
 26
0.0
 36
1.0
 17
0.0
 27
0.0
 37
0.0
 40
292.08432997341
 41
2.727605118829981
 42
50.0
 43
0.0
 44
0.0
 50
0.0
 51
0.0
 71
     0
 72
  1000
 73
     1
 74
     1
 75
     0
 76
     0
 77
     0
 78
     0
281
     0
 65
     1
110
0.0
120
0.0
130
0.0
111
1.0
121
0.0
131
0.0
112
0.0
122
1.0
132
0.0
 79
     0
146
0.0
1001
ACAD_NAV_VCDISPLAY
1070
     3
  0
ENDTAB
  0
TABLE
  2
LTYPE
  5
5
330
0
100
AcDbSymbolTable
 70
    11
  0
LTYPE
  5
12
330
5
100
AcDbSymbolTableRecord
100
AcDbLinetypeTableRecord
  2
BYBLOCK
 70
     0
  3

 72
    65
 73
     0
 40
0.0
  0
LTYPE
  5
13
330
5
100
AcDbSymbolTableRecord
100
AcDbLinetypeTableRecord
  2
BYLAYER
 70
     0
  3

 72
    65
 73
     0
 40
0.0
  0
LTYPE
  5
14
330
5
100
AcDbSymbolTableRecord
100
AcDbLinetypeTableRecord
  2
CONTINUOUS
 70
     0
  3
Solid line
 72
    65
 73
     0
 40
0.0
  0
ENDTAB
  0
TABLE
  2
LAYER
  5
2
102
{ACAD_XDICTIONARY
360
18FE8
102
}
330
0
100
AcDbSymbolTable
 70
    34
  0
LAYER
  5
E
102
{ACAD_XDICTIONARY
360
1A20A
102
}
330
2
100
AcDbSymbolTableRecord
100
AcDbLayerTableRecord
  2
0
 70
     0
 62
     7
  6
CONTINUOUS
370
    -3
390
2CE
  0
LAYER
  5
31
102
{ACAD_XDICTIONARY
360
1A20E
102
}
330
2
100
AcDbSymbolTableRecord
100
AcDbLayerTableRecord
  2
1TEXT
 70
     0
 62
     7
  6
CONTINUOUS
370
    -3
390
2CE
  0
LAYER
  5
24E80
330
2
100
AcDbSymbolTableRecord
100
AcDbLayerTableRecord
  2
01
 70
     0
 62
     1
  6
CONTINUOUS
370
    -3
390
2CE
  0
ENDTAB
  0
TABLE
  2
STYLE
  5
3
330
0
100
AcDbSymbolTable
 70
     4
  0
STYLE
  5
F
330
3
100
AcDbSymbolTableRecord
100
AcDbTextStyleTableRecord
  2
STANDARD
 70
     0
 40
0.0
 41
1.0
 50
0.0
 71
     0
 42
4.0
  3
romans.shx
  4
extfont2.shx
  0
ENDTAB
  0
TABLE
  2
VIEW
  5
6
330
0
100
AcDbSymbolTable
 70
     5
  0
ENDTAB
  0
TABLE
  2
UCS
  5
7
330
0
100
AcDbSymbolTable
 70
     5
  0
UCS
  5
2101D
330
7
100
AcDbSymbolTableRecord
100
AcDbUCSTableRecord
  2
U
 70
     0
 10
0.0
 20
0.0
 30
0.0
 11
1.0
 21
0.0
 31
0.0
 12
0.0
 22
0.0000000000000002
 32
1.0
 79
     0
146
0.0
  0
UCS
  5
2101E
330
7
100
AcDbSymbolTableRecord
100
AcDbUCSTableRecord
  2
L
 70
     0
 10
0.0
 20
0.0
 30
0.0
 11
-0.0000000000000002
 21
-1.0
 31
0.0000000000000002
 12
0.0
 22
0.0000000000000002
 32
1.0
 79
     0
146
0.0
  0
UCS
  5
2101F
330
7
100
AcDbSymbolTableRecord
100
AcDbUCSTableRecord
  2
R
 70
     0
 10
0.0
 20
0.0
 30
0.0
 11
0.0000000000000003
 21
1.0
 31
-0.0000000000000002
 12
0.0
 22
0.0000000000000002
 32
1.0
 79
     0
146
0.0
  0
UCS
  5
21020
330
7
100
AcDbSymbolTableRecord
100
AcDbUCSTableRecord
  2
ISOME
 70
     0
 10
0.0
 20
0.0
 30
0.0
 11
0.7071450863198266
 21
-0.7070684729403536
 31
-0.0000383082461947
 12
0.4082704059428735
 22
0.4082704077401152
 32
0.8164744636514736
 79
     0
146
0.0
  0
UCS
  5
21021
330
7
100
AcDbSymbolTableRecord
100
AcDbUCSTableRecord
  2
PERSPECTIVE
 70
     0
 10
0.0
 20
0.0
 30
0.0
 11
0.8191477691768962
 21
-0.5735823260466403
 31
-0.0004974931557765
 12
0.1584844715982971
 22
0.225502028986108
 32
0.961265575782966
 79
     0
146
0.0
  0
ENDTAB
  0
TABLE
  2
APPID
  5
9
330
0
100
AcDbSymbolTable
 70
    15
  0
APPID
  5
10
330
9
100
AcDbSymbolTableRecord
100
AcDbRegAppTableRecord
  2
ACAD
 70
     0
  0
APPID
  5
21
330
9
100
AcDbSymbolTableRecord
100
AcDbRegAppTableRecord
  2
DRAWINGVARIABLESXDATA
 70
     0
  0
APPID
  5
64
330
9
100
AcDbSymbolTableRecord
100
AcDbRegAppTableRecord
  2
CONTENTTABDATA
 70
     0
  0
APPID
  5
65
330
9
100
AcDbSymbolTableRecord
100
AcDbRegAppTableRecord
  2
CONTENTCURRENTTAB
 70
     0
  0
APPID
  5
66
330
9
100
AcDbSymbolTableRecord
100
AcDbRegAppTableRecord
  2
CONTENTBLOCKDESCRIPTION
 70
     0
  0
APPID
  5
67
330
9
100
AcDbSymbolTableRecord
100
AcDbRegAppTableRecord
  2
CONTENTBLOCKICON
 70
     0
  0
APPID
  5
68
330
9
100
AcDbSymbolTableRecord
100
AcDbRegAppTableRecord
  2
CONTENTLONGBLOCKNAME
 70
     0
  0
APPID
  5
5A9
330
9
100
AcDbSymbolTableRecord
100
AcDbRegAppTableRecord
  2
ACAD_PSEXT
 70
     0
  0
APPID
  5
18AC
330
9
100
AcDbSymbolTableRecord
100
AcDbRegAppTableRecord
  2
ACAD_DSTYLE_DIMTEXT_FILL
 70
     0
  0
APPID
  5
19E1A
330
9
100
AcDbSymbolTableRecord
100
AcDbRegAppTableRecord
  2
ACAD_MLEADERVER
 70
     0
  0
APPID
  5
1A2FA
330
9
100
AcDbSymbolTableRecord
100
AcDbRegAppTableRecord
  2
ACAD_DSTYLE_DIMRADIAL_EXTENSION
 70
     0
  0
APPID
  5
1DBC1
330
9
100
AcDbSymbolTableRecord
100
AcDbRegAppTableRecord
  2
AcadAnnotative
 70
     0
  0
APPID
  5
1E991
330
9
100
AcDbSymbolTableRecord
100
AcDbRegAppTableRecord
  2
ACAD_EXEMPT_FROM_CAD_STANDARDS
 70
     0
  0
APPID
  5
1F3E8
330
9
100
AcDbSymbolTableRecord
100
AcDbRegAppTableRecord
  2
ACAD_NAV_VCDISPLAY
 70
     0
  0
APPID
  5
226B3
330
9
100
AcDbSymbolTableRecord
100
AcDbRegAppTableRecord
  2
AcLayerTools
 70
     0
  0
ENDTAB
  0
TABLE
  2
DIMSTYLE
  5
A
330
0
100
AcDbSymbolTable
 70
     1
100
AcDbDimStyleTable
 71
     1
340
48
  0
DIMSTYLE
105
48
102
{ACAD_REACTORS
330
2148A
330
2148C
330
222E4
330
222E8
330
222EA
330
222EC
102
}
330
A
100
AcDbSymbolTableRecord
100
AcDbDimStyleTableRecord
  2
NEWX10
 70
     0
  3
 
 41
2.0
 42
0.0
 43
7.0
 44
1.0
 73
     0
 74
     0
 77
     1
 78
     8
 79
     2
140
3.5
141
0.0
146
0.7
147
0.7
172
     1
173
     1
176
   256
177
   256
178
   201
179
     1
271
     2
284
     8
340
F
341
42
343
42
344
42
  0
ENDTAB
  0
TABLE
  2
BLOCK_RECORD
  5
1
330
0
100
AcDbSymbolTable
 70
    11
  0
BLOCK_RECORD
  5
18
102
{ACAD_XDICTIONARY
360
6E9
102
}
330
1
100
AcDbSymbolTableRecord
100
AcDbBlockTableRecord
  2
*MODEL_SPACE
340
2D3
  0
BLOCK_RECORD
  5
15
102
{ACAD_XDICTIONARY
360
59B
102
}
330
1
100
AcDbSymbolTableRecord
100
AcDbBlockTableRecord
  2
*PAPER_SPACE
340
2D4
  0
BLOCK_RECORD
  5
42
330
1
100
AcDbSymbolTableRecord
100
AcDbBlockTableRecord
  2
_OPEN30
340
0
310
2800000020000000200000000100080000000000000400000000000000000000000000000000000000000000000080000080000000808000800000008000800080800000C0C0C000C0DCC000F0CAA6000020400000206000002080000020A0000020C0000020E00000400000004020000040400000406000004080000040A0
310
000040C0000040E00000600000006020000060400000606000006080000060A0000060C0000060E00000800000008020000080400000806000008080000080A0000080C0000080E00000A0000000A0200000A0400000A0600000A0800000A0A00000A0C00000A0E00000C0000000C0200000C0400000C0600000C0800000C0
310
A00000C0C00000C0E00000E0000000E0200000E0400000E0600000E0800000E0A00000E0C00000E0E00040000000400020004000400040006000400080004000A0004000C0004000E00040200000402020004020400040206000402080004020A0004020C0004020E000404000004040200040404000404060004040800040
310
40A0004040C0004040E00040600000406020004060400040606000406080004060A0004060C0004060E00040800000408020004080400040806000408080004080A0004080C0004080E00040A0000040A0200040A0400040A0600040A0800040A0A00040A0C00040A0E00040C0000040C0200040C0400040C0600040C08000
310
40C0A00040C0C00040C0E00040E0000040E0200040E0400040E0600040E0800040E0A00040E0C00040E0E00080000000800020008000400080006000800080008000A0008000C0008000E00080200000802020008020400080206000802080008020A0008020C0008020E00080400000804020008040400080406000804080
310
008040A0008040C0008040E00080600000806020008060400080606000806080008060A0008060C0008060E00080800000808020008080400080806000808080008080A0008080C0008080E00080A0000080A0200080A0400080A0600080A0800080A0A00080A0C00080A0E00080C0000080C0200080C0400080C0600080C0
310
800080C0A00080C0C00080C0E00080E0000080E0200080E0400080E0600080E0800080E0A00080E0C00080E0E000C0000000C0002000C0004000C0006000C0008000C000A000C000C000C000E000C0200000C0202000C0204000C0206000C0208000C020A000C020C000C020E000C0400000C0402000C0404000C0406000C0
310
408000C040A000C040C000C040E000C0600000C0602000C0604000C0606000C0608000C060A000C060C000C060E000C0800000C0802000C0804000C0806000C0808000C080A000C080C000C080E000C0A00000C0A02000C0A04000C0A06000C0A08000C0A0A000C0A0C000C0A0E000C0C00000C0C02000C0C04000C0C06000
310
C0C08000C0C0A000F0FBFF00A4A0A000808080000000FF0000FF000000FFFF00FF000000FF00FF00FFFF0000FFFFFF0051515151515151515151515151515151515151515151515151515151515151515151515151515151515151515151515151515151515151515151515151515151515151515151515151515151515151
310
51515151515151515151515151515151515151515151515151515151515151515151515151515151515151515151515151515151515151515151515151515151515151515151515151515151515151515151515151515151515151515151515151515151515151515151515151515151515151515151515151515151515151
310
515151515151515151515151515151515151515151515151515151515151515151515151515151515151515151515151515151FFFF5151515151515151515151515151515151515151515151515151515151515151FFFFFFFF5151515151515151515151515151515151515151515151515151515151515151FFFFFFFF5151
310
515151515151515151515151515151515151515151515151515151515151FFFFFF5151515151515151515151515151515151515151515151515151515151515151FFFFFFFF5151515151515151515151515151515151515151515151515151515151515151FFFFFF5151515151515151515151515151515151515151515151
310
515151515151515151FFFFFFFF5151515151515151515151515151515151515151515151515151515151515151FFFFFFFF51515151FFFFFFFFFFFFFFFFFFFFFFFFFFFFFFFFFFFFFFFFFFFFFFFFFFFFFFFFFFFF51515151515151515151515151515151515151515151515151FFFFFFFF515151515151515151515151515151
310
515151515151515151FFFFFFFF515151515151515151515151515151515151515151515151FFFFFFFF515151515151515151515151515151515151515151515151FFFFFFFF515151515151515151515151515151515151515151515151FFFFFFFF515151515151515151515151515151515151515151515151FFFFFFFF5151
310
5151515151515151515151515151515151515151515151FFFFFF5151515151515151515151515151515151515151515151515151515151515151515151515151515151515151515151515151515151515151515151515151515151515151515151515151515151515151515151515151515151515151515151515151515151
310
51515151515151515151515151515151515151515151515151515151515151515151515151515151515151515151515151515151515151515151515151515151515151515151515151515151515151515151515151515151515151515151515151515151515151515151515151515151515151515151515151515151515151
310
5151515151515151515151515151515151515151515151515151515151515151515151515151515151515151515151515151515151515151
  0
ENDTAB
  0
ENDSEC
  0
SECTION
  2
BLOCKS
  0
BLOCK
  5
19
330
18
100
AcDbEntity
  8
0
100
AcDbBlockBegin
  2
*MODEL_SPACE
 70
     0
 10
0.0
 20
0.0
 30
0.0
  3
*MODEL_SPACE
  1

  0
ENDBLK
  5
1A
330
18
100
AcDbEntity
  8
0
100
AcDbBlockEnd
  0
BLOCK
  5
16
330
15
100
AcDbEntity
 67
     1
  8
0
100
AcDbBlockBegin
  2
*PAPER_SPACE
 70
     0
 10
0.0
 20
0.0
 30
0.0
  3
*PAPER_SPACE
  1

  0
ENDBLK
  5
17
330
15
100
AcDbEntity
 67
     1
  8
0
100
AcDbBlockEnd
  0
BLOCK
  5
43
330
42
100
AcDbEntity
  8
0
100
AcDbBlockBegin
  2
_OPEN30
 70
     0
 10
0.0
 20
0.0
 30
0.0
  3
_OPEN30
  1

  0
LINE
  5
44
330
42
100
AcDbEntity
  8
0
  6
ByBlock
 62
     0
100
AcDbLine
 10
-1.0
 20
0.26794919
 30
0.0
 11
0.0
 21
0.0
 31
0.0
  0
LINE
  5
45
330
42
100
AcDbEntity
  8
0
  6
ByBlock
 62
     0
100
AcDbLine
 10
0.0
 20
0.0
 30
0.0
 11
-1.0
 21
-0.26794919
 31
0.0
  0
LINE
  5
46
330
42
100
AcDbEntity
  8
0
  6
ByBlock
 62
     0
100
AcDbLine
 10
0.0
 20
0.0
 30
0.0
 11
-1.0
 21
0.0
 31
0.0
  0
ENDBLK
  5
47
330
42
100
AcDbEntity
  8
0
100
AcDbBlockEnd
  0
ENDSEC
  0
SECTION
  2
ENTITIES
  0
ARC
  5
20AC2
330
18
100
AcDbEntity
  8
01
100
AcDbCircle
 10
685.3810957115694
 20
-655.8213304376065
 30
0.0
 40
5.999999110408504
100
AcDbArc
 50
179.9999991755123
 51
206.8490995359376
  0
ARC
  5
20AC3
330
18
100
AcDbEntity
  8
01
100
AcDbCircle
 10
685.3810957115694
 20
-655.8213302649262
 30
0.0
 40
5.999999110408568
100
AcDbArc
 50
153.1509004640041
 51
180.0000008244095
  0
SPLINE
  5
20AC4
330
18
100
AcDbEntity
  8
01
100
AcDbSpline
210
0.0
220
0.0
230
1.0
 70
     8
 71
     3
 72
    78
 73
    74
 74
     0
 42
0.0000000001
 43
0.0000000001
 40
0.0
 40
0.0
 40
0.0
 40
0.0
 40
5.122430034756253
 40
10.2399509738991
 40
15.35167447859566
 40
20.45797624489444
 40
20.68732799285383
 40
20.91666790859326
 40
21.0313380650761
 40
21.14600532531696
 40
21.2033377923541
 40
21.26066953427419
 40
21.28794565641963
 40
21.31522140806218
 40
21.32797450529603
 40
21.34259626491209
 40
21.36601141934266
 40
21.37313031113968
 40
21.38498438577213
 40
21.41001210912366
 40
21.58673028196605
 40
21.76271771415175
 40
21.93798909724449
 40
22.11257064371098
 40
22.25004988855741
 40
22.52390860440653
 40
22.79657674984248
 40
23.34043783481002
 40
23.61326295500667
 40
24.16734042782172
 40
24.82246600079943
 40
25.28485971026953
 40
25.5859110368135
 40
25.79993803283123
 40
25.94388417899701
 40
26.09549876939718
 40
26.13401872078513
 40
26.16813510260554
 40
26.22771112750504
 40
26.28552823855567
 40
26.34414397269175
 40
26.46391387811313
 40
26.58757436924233
 40
26.84942685077223
 40
26.95089561903471
 40
27.16574180439077
 40
27.65887193853213
 40
28.10988732369949
 40
28.888304943652
 40
29.75101245268529
 40
30.82699995646495
 40
31.18808283281254
 40
32.27699678065459
 40
34.41776121657309
 40
35.76204925900451
 40
37.48655207093314
 40
39.32080296985964
 40
41.6129892165599
 40
44.28868321074366
 40
46.21923664765158
 40
48.14530621629375
 40
48.91431960184856
 40
49.29850250208446
 40
51.17576509072963
 40
52.2832864364108
 40
53.02044749575914
 40
53.75772674708041
 40
55.23814310547721
 40
55.98093592666329
 40
60.48081721302606
 40
64.97534759477774
 40
69.46496312784041
 40
78.02707848691079
 40
78.02707848691079
 40
78.02707848691079
 40
78.02707848691079
 10
680.0279018338734
 20
-653.1114770156343
 30
0.0
 10
680.0579232798282
 20
-653.0521708457051
 30
0.0
 10
680.1192105764677
 20
-652.9306465110064
 30
0.0
 10
680.2111676200417
 20
-652.7469060098944
 30
0.0
 10
680.3071913135605
 20
-652.5534934948039
 30
0.0
 10
680.3721904817185
 20
-652.4214833486246
 30
0.0
 10
680.408038898765
 20
-652.3483485212643
 30
0.0
 10
680.4117237279198
 20
-652.3408281216632
 30
0.0
 10
680.4146941356572
 20
-652.3347639987248
 30
0.0
 10
680.4164376769164
 20
-652.3312038721075
 30
0.0
 10
680.4180999180094
 20
-652.3278092869229
 30
0.0
 10
680.4185248867553
 20
-652.3269411425697
 30
0.0
 10
680.4202010258197
 20
-652.3235180784702
 30
0.0
 10
680.4190988918136
 20
-652.3257680278463
 30
0.0
 10
680.4229241469685
 20
-652.3179572281576
 30
0.0
 10
680.4182216792074
 20
-652.3275635417656
 30
0.0
 10
680.4205522781718
 20
-652.3227907654952
 30
0.0
 10
680.4271250341354
 20
-652.3093899467347
 30
0.0
 10
680.4334638349593
 20
-652.2965007099717
 30
0.0
 10
680.4652043240068
 20
-652.2322454477205
 30
0.0
 10
680.5218684006709
 20
-652.1204045058837
 30
0.0
 10
680.6042832915265
 20
-651.9646759390882
 30
0.0
 10
680.6890561557403
 20
-651.8113020098805
 30
0.0
 10
680.7702317551148
 20
-651.670601772854
 30
0.0
 10
680.8705814502546
 20
-651.5031878984857
 30
0.0
 10
680.9919668804501
 20
-651.3105670050015
 30
0.0
 10
681.1942407043608
 20
-651.0102823965296
 30
0.0
 10
681.4090376105319
 20
-650.7216868154671
 30
0.0
 10
681.6927629905132
 20
-650.3771385574534
 30
0.0
 10
682.0119337044508
 20
-650.0277328715026
 30
0.0
 10
682.3806786780452
 20
-649.6818483947829
 30
0.0
 10
682.6853070101261
 20
-649.4329592237098
 30
0.0
 10
682.8868862296614
 20
-649.2824750023876
 30
0.0
 10
683.0181243201852
 20
-649.1901475817883
 30
0.0
 10
683.1170286121706
 20
-649.1233054816382
 30
0.0
 10
683.1801054981735
 20
-649.082069893451
 30
0.0
 10
683.2208754010959
 20
-649.0559283259833
 30
0.0
 10
683.2481621289295
 20
-649.0385711458623
 30
0.0
 10
683.2841101362575
 20
-649.0159976212642
 30
0.0
 10
683.3260040494607
 20
-648.9901763217415
 30
0.0
 10
683.3817481825932
 20
-648.9564258565403
 30
0.0
 10
683.4524271488482
 20
-648.9148040188572
 30
0.0
 10
683.5688514903869
 20
-648.8487706788799
 30
0.0
 10
683.677948296922
 20
-648.790526458006
 30
0.0
 10
683.8034885348539
 20
-648.7269997616647
 30
0.0
 10
683.9740737387966
 20
-648.6447581505524
 30
0.0
 10
684.2012657566566
 20
-648.5464624136782
 30
0.0
 10
684.5082472888044
 20
-648.4294227637863
 30
0.0
 10
684.8433682510614
 20
-648.3202755744193
 30
0.0
 10
685.2444296442391
 20
-648.2101578404388
 30
0.0
 10
685.5741318098718
 20
-648.133987558104
 30
0.0
 10
685.942279283776
 20
-648.0572984181288
 30
0.0
 10
686.4781709588452
 20
-647.9566565249004
 30
0.0
 10
687.2240763613973
 20
-647.8409350259783
 30
0.0
 10
688.1767452701248
 20
-647.7147864521533
 30
0.0
 10
689.1616470403852
 20
-647.5991194250061
 30
0.0
 10
690.4599279633122
 20
-647.4632649450711
 30
0.0
 10
692.1283095466216
 20
-647.3069382643532
 30
0.0
 10
693.9974696644968
 20
-647.1492391373637
 30
0.0
 10
695.8991609138216
 20
-647.0000839803667
 30
0.0
 10
697.3119233528806
 20
-646.89442637759
 30
0.0
 10
698.2771611851591
 20
-646.8240229158935
 30
0.0
 10
699.2364507838121
 20
-646.7547008820954
 30
0.0
 10
700.3221511359708
 20
-646.6775504370059
 30
0.0
 10
701.5409668937946
 20
-646.5921603921876
 30
0.0
 10
702.3926165731956
 20
-646.5328320751948
 30
0.0
 10
703.3709952625769
 20
-646.4649163033134
 30
0.0
 10
704.3532898896984
 20
-646.3972175068099
 30
0.0
 10
706.5876578137459
 20
-646.2440338703934
 30
0.0
 10
709.8265343885524
 20
-646.0230364815531
 30
0.0
 10
714.3100852526195
 20
-645.7162660589717
 30
0.0
 10
720.1449488623811
 20
-645.3170175236758
 30
0.0
 10
724.48508820981
 20
-645.0197582236129
 30
0.0
 10
727.3323117599261
 20
-644.8246728666378
 30
0.0
  0
SPLINE
  5
20AC5
330
18
100
AcDbEntity
  8
01
100
AcDbSpline
210
0.0
220
0.0
230
1.0
 70
     8
 71
     3
 72
    78
 73
    74
 74
     0
 42
0.0000000001
 43
0.0000000001
 40
0.0
 40
0.0
 40
0.0
 40
0.0
 40
5.122430034756201
 40
10.239950973899
 40
15.35167447859556
 40
20.4579762448943
 40
20.68732799285429
 40
20.91666790859429
 40
21.03133806507745
 40
21.14600532531856
 40
21.20333779235442
 40
21.26066953427328
 40
21.28794565642074
 40
21.31522140806542
 40
21.32797450530047
 40
21.34259626491717
 40
21.36601141934594
 40
21.37313031114393
 40
21.3849843857813
 40
21.41001210912374
 40
21.58673028196613
 40
21.76271771415179
 40
21.93798909724451
 40
22.11257064371103
 40
22.2500498885522
 40
22.52390860439098
 40
22.7965767498166
 40
23.34043783476326
 40
23.61326295494928
 40
24.16734042774102
 40
24.82246600071902
 40
25.28485971019328
 40
25.58591103673933
 40
25.79993803275702
 40
25.94388417892243
 40
26.09549876931748
 40
26.13401872071423
 40
26.16813510254376
 40
26.22771112745014
 40
26.28552823850059
 40
26.34414397263669
 40
26.46391387805835
 40
26.58757436918747
 40
26.84942685071633
 40
26.95089561898923
 40
27.16574180436838
 40
27.65887193856983
 40
28.10988732380455
 40
28.8883049439071
 40
29.75101245311923
 40
30.8269999570685
 40
31.18808283347302
 40
32.27699678148627
 40
34.41776121773842
 40
35.76204926037768
 40
37.48655207235471
 40
39.32080297112795
 40
41.61298921763523
 40
44.28868321162067
 40
46.21923664850409
 40
48.14530621712157
 40
48.91431960266644
 40
49.29850250289737
 40
51.17576509152851
 40
52.28328643720557
 40
53.02044749655117
 40
53.75772674787238
 40
55.23814310626976
 40
55.9809359274558
 40
60.48081721381904
 40
64.97534759556979
 40
69.46496312863157
 40
78.02710184733554
 40
78.02710184733554
 40
78.02710184733554
 40
78.02710184733554
 10
680.0279018338734
 20
-658.5311836868984
 30
0.0
 10
680.0579232798282
 20
-658.5904898568275
 30
0.0
 10
680.1192105764677
 20
-658.7120141915264
 30
0.0
 10
680.2111676200412
 20
-658.8957546926383
 30
0.0
 10
680.307191313561
 20
-659.0891672077293
 30
0.0
 10
680.3721904817177
 20
-659.2211773539063
 30
0.0
 10
680.408038898765
 20
-659.2943121812684
 30
0.0
 10
680.4117237279193
 20
-659.3018325808686
 30
0.0
 10
680.4146941356576
 20
-659.3078967038088
 30
0.0
 10
680.4164376769145
 20
-659.3114568304206
 30
0.0
 10
680.4180999180126
 20
-659.3148514156153
 30
0.0
 10
680.4185248867662
 20
-659.3157195599849
 30
0.0
 10
680.4202010258242
 20
-659.3191426240707
 30
0.0
 10
680.4190988918109
 20
-659.3168926746809
 30
0.0
 10
680.4229241469703
 20
-659.3247034743788
 30
0.0
 10
680.4182216792088
 20
-659.315097160769
 30
0.0
 10
680.4205522781741
 20
-659.3198699370421
 30
0.0
 10
680.4271250341372
 20
-659.3332707558026
 30
0.0
 10
680.4334638349611
 20
-659.3461599925647
 30
0.0
 10
680.4652043240077
 20
-659.410415254814
 30
0.0
 10
680.5218684006714
 20
-659.522256196649
 30
0.0
 10
680.6042832915265
 20
-659.6779847634441
 30
0.0
 10
680.6890561557403
 20
-659.8313586926522
 30
0.0
 10
680.7702317551139
 20
-659.9720589296773
 30
0.0
 10
680.870581450251
 20
-660.1394728040411
 30
0.0
 10
680.9919668804415
 20
-660.3320936975181
 30
0.0
 10
681.1942407043435
 20
-660.6323783059785
 30
0.0
 10
681.4090376105061
 20
-660.920973887032
 30
0.0
 10
681.692762990474
 20
-661.2655221450339
 30
0.0
 10
682.0119337044026
 20
-661.614927830981
 30
0.0
 10
682.3806786779925
 20
-661.9608123077039
 30
0.0
 10
682.685307010078
 20
-662.2097014787857
 30
0.0
 10
682.8868862296149
 20
-662.360185700111
 30
0.0
 10
683.0181243201433
 20
-662.4525131207153
 30
0.0
 10
683.1170286121242
 20
-662.5193552208636
 30
0.0
 10
683.1801054981371
 20
-662.5605908090586
 30
0.0
 10
683.2208754010545
 20
-662.5867323765231
 30
0.0
 10
683.2481621288863
 20
-662.6040895566432
 30
0.0
 10
683.2841101362156
 20
-662.6266630812422
 30
0.0
 10
683.3260040494216
 20
-662.6524843807672
 30
0.0
 10
683.3817481825546
 20
-662.6862348459687
 30
0.0
 10
683.4524271488099
 20
-662.7278566836528
 30
0.0
 10
683.5688514903487
 20
-662.793890023632
 30
0.0
 10
683.6779482968869
 20
-662.8521342445085
 30
0.0
 10
683.8034885348271
 20
-662.9156609408553
 30
0.0
 10
683.9740737387911
 20
-662.9979025519776
 30
0.0
 10
684.2012657566803
 20
-663.0961982888646
 30
0.0
 10
684.5082472888726
 20
-663.213237938771
 30
0.0
 10
684.8433682511841
 20
-663.3223851281506
 30
0.0
 10
685.2444296444256
 20
-663.4325028621417
 30
0.0
 10
685.5741318101165
 20
-663.5086731444832
 30
0.0
 10
685.9422792840847
 20
-663.585362284464
 30
0.0
 10
686.4781709592563
 20
-663.6860041777024
 30
0.0
 10
687.2240763619717
 20
-663.8017256766377
 30
0.0
 10
688.1767452708833
 20
-663.9278742504736
 30
0.0
 10
689.1616470412465
 20
-664.0435412776212
 30
0.0
 10
690.459927964198
 20
-664.1793957575489
 30
0.0
 10
692.1283095474601
 20
-664.3357224382532
 30
0.0
 10
693.9974696652872
 20
-664.4934215652327
 30
0.0
 10
695.8991609145856
 20
-664.6425767222247
 30
0.0
 10
697.3119233536523
 20
-664.748234325
 30
0.0
 10
698.277161185933
 20
-664.8186377866948
 30
0.0
 10
699.2364507845897
 20
-664.8879598204928
 30
0.0
 10
700.3221511367529
 20
-664.9651102655814
 30
0.0
 10
701.5409668945786
 20
-665.0505003103996
 30
0.0
 10
702.3926165739823
 20
-665.1098286273925
 30
0.0
 10
703.3709952633645
 20
-665.1777443992739
 30
0.0
 10
704.3532898904878
 20
-665.2454431957774
 30
0.0
 10
706.5876578145372
 20
-665.398626832193
 30
0.0
 10
709.8265343893423
 20
-665.6196242210333
 30
0.0
 10
714.3100852534095
 20
-665.9263946436147
 30
0.0
 10
720.1449566312221
 20
-666.3256437104377
 30
0.0
 10
724.4851037463259
 20
-666.6229035430265
 30
0.0
 10
727.3323350645702
 20
-666.8179894326769
 30
0.0
  0
LINE
  5
20ACA
330
18
100
AcDbEntity
  8
01
100
AcDbLine
 10
614.3810956405981
 20
-626.3931762767835
 30
0.0
 11
614.3810956405981
 21
-642.6213303512659
 31
0.0
  0
LINE
  5
20ACB
330
18
100
AcDbEntity
  8
01
100
AcDbLine
 10
608.429176339281
 20
-636.8213304955981
 30
0.0
 11
620.9699646025937
 21
-636.8213304955981
 31
0.0
  0
LINE
  5
20ACC
330
18
100
AcDbEntity
  8
01
100
AcDbLine
 10
607.8791960618604
 20
-674.8213301756387
 30
0.0
 11
621.7228545334846
 21
-674.8213301756387
 31
0.0
  0
LINE
  5
20ACE
330
18
100
AcDbEntity
  8
01
100
AcDbLine
 10
728.1810948527055
 20
-644.8213303512663
 30
0.0
 11
728.1810948527055
 21
-666.8213303512664
 31
0.0
  0
SPLINE
  5
20AD1
330
18
100
AcDbEntity
  8
01
100
AcDbSpline
210
0.0
220
0.0
230
1.0
 70
     8
 71
     3
 72
    57
 73
    53
 74
     0
 42
0.0000000001
 43
0.0000000001
 40
-63.37192871080969
 40
-63.37192871080969
 40
-63.37192871080969
 40
-63.37192871080969
 40
-44.2946990026463
 40
-44.2946990026463
 40
-43.10237214588609
 40
-43.10237214588609
 40
-42.506208717506
 40
-42.506208717506
 40
-41.91004528912579
 40
-41.91004528912579
 40
-39.5253915756054
 40
-39.5253915756054
 40
-38.33306471884519
 40
-38.33306471884519
 40
-37.7369012904651
 40
-37.7369012904651
 40
-37.140737862085
 40
-37.140737862085
 40
-34.7560841485646
 40
-34.7560841485646
 40
-29.9867767215237
 40
-29.9867767215237
 40
-26.793561125388
 40
-25.2174692944829
 40
-23.6413774635777
 40
-22.06528563267251
 40
-22.06528563267251
 40
-18.9131019708621
 40
-18.9131019708621
 40
-15.7609183090518
 40
-15.7609183090518
 40
-12.6087346472414
 40
-12.6087346472414
 40
-11.8206887317888
 40
-11.8206887317888
 40
-11.0326428163362
 40
-11.0326428163362
 40
-10.2445969008837
 40
-10.2445969008837
 40
-9.85057394315736
 40
-9.85057394315736
 40
-9.45655098543107
 40
-9.45655098543107
 40
-9.062528027704781
 40
-9.062528027704781
 40
-8.668505069978479
 40
-8.668505069978479
 40
-7.880459154525889
 40
-7.880459154525889
 40
-6.304367323620709
 40
-6.304367323620709
 40
-0.2418022084392562
 40
-0.2418022084392562
 40
-0.2418022084392562
 40
-0.2418022084392562
 10
625.3810956405977
 20
-550.8213303512664
 30
0.0
 10
624.6098864921449
 20
-558.1828650083834
 30
0.0
 10
623.8387060377389
 20
-565.5441582329301
 30
0.0
 10
623.0192932366507
 20
-573.3657837200821
 30
0.0
 10
622.9711144477668
 20
-573.8257944673494
 30
0.0
 10
622.8987631249637
 20
-574.5160837355108
 30
0.0
 10
622.8747827838059
 20
-574.7460441664493
 30
0.0
 10
622.8261918147945
 20
-575.2061650679015
 30
0.0
 10
622.7987753945375
 20
-575.4358686598261
 30
0.0
 10
622.6476912538036
 20
-576.582352613786
 30
0.0
 10
622.4804053829042
 20
-577.4936840437671
 30
0.0
 10
622.1613479502301
 20
-578.8441900513005
 30
0.0
 10
622.0435940489513
 20
-579.2918384143131
 30
0.0
 10
621.8502282544157
 20
-579.9581140747222
 30
0.0
 10
621.7829048740753
 20
-580.1796105654057
 30
0.0
 10
621.6428352231213
 20
-580.6203803790895
 30
0.0
 10
621.5699785346022
 20
-580.8399950794449
 30
0.0
 10
621.1920747684488
 20
-581.9329462687765
 30
0.0
 10
620.8454121069324
 20
-582.7922085957371
 30
0.0
 10
619.6790504129616
 20
-585.3104680922769
 30
0.0
 10
618.7301408980137
 20
-586.9114548673201
 30
0.0
 10
616.8984943121293
 20
-589.3949337844754
 30
0.0
 10
615.6871467241297
 20
-590.8193529847185
 30
0.0
 10
613.9480177922795
 20
-592.4987005456073
 30
0.0
 10
612.4177663447307
 20
-593.786048039461
 30
0.0
 10
611.369457773026
 20
-594.5426614848952
 30
0.0
 10
609.7441581431111
 20
-595.6337887409952
 30
0.0
 10
608.6104871889228
 20
-596.2824429127749
 30
0.0
 10
606.2613021269525
 20
-597.4138063476334
 30
0.0
 10
605.0465894126708
 20
-597.895681934001
 30
0.0
 10
602.5608722261494
 20
-598.6825495210102
 30
0.0
 10
601.2900410789852
 20
-598.9874554988516
 30
0.0
 10
599.6825252482794
 20
-599.2540341718149
 30
0.0
 10
599.3600199503925
 20
-599.3016539259246
 30
0.0
 10
598.7137375252985
 20
-599.3853635349355
 30
0.0
 10
598.3896660847088
 20
-599.4214958745451
 30
0.0
 10
597.7407315482517
 20
-599.4821866560944
 30
0.0
 10
597.4157290860993
 20
-599.5067657412034
 30
0.0
 10
596.9276173313259
 20
-599.5349611657371
 30
0.0
 10
596.7649910579551
 20
-599.5429065092762
 30
0.0
 10
596.4393131302512
 20
-599.5559159002612
 30
0.0
 10
596.2763687147161
 20
-599.5609811800093
 30
0.0
 10
595.9505830579072
 20
-599.5681762481765
 30
0.0
 10
595.7876015529389
 20
-599.5704088669515
 30
0.0
 10
595.4617361452391
 20
-599.5715918948758
 30
0.0
 10
595.2987763722656
 20
-599.5712539403605
 30
0.0
 10
594.8099733088237
 20
-599.5713622879152
 30
0.0
 10
594.4840021782655
 20
-599.5713210259889
 30
0.0
 10
593.5062976612575
 20
-599.5713342187555
 30
0.0
 10
592.8545441298628
 20
-599.5713293059991
 30
0.0
 10
589.6954688246904
 20
-599.5713308981621
 30
0.0
 10
587.188333057038
 20
-599.5713301733306
 30
0.0
 10
584.681095659146
 20
-599.5713303283382
 30
0.0
  0
SPLINE
  5
20AD2
330
18
100
AcDbEntity
  8
01
100
AcDbSpline
210
0.0
220
0.0
230
1.0
 70
     8
 71
     3
 72
    57
 73
    53
 74
     0
 42
0.0000000001
 43
0.0000000001
 40
0.3950786668702424
 40
0.3950786668702424
 40
0.3950786668702424
 40
0.3950786668702424
 40
6.304367323620709
 40
6.304367323620709
 40
7.880459154525889
 40
7.880459154525889
 40
8.668505069978479
 40
8.668505069978479
 40
9.062528027704781
 40
9.062528027704781
 40
9.45655098543107
 40
9.45655098543107
 40
9.85057394315736
 40
9.85057394315736
 40
10.2445969008837
 40
10.2445969008837
 40
11.0326428163362
 40
11.0326428163362
 40
11.8206887317888
 40
11.8206887317888
 40
12.6087346472414
 40
12.6087346472414
 40
15.7609183090518
 40
15.7609183090518
 40
18.9131019708621
 40
18.9131019708621
 40
22.06528563267251
 40
22.06528563267251
 40
23.6413774635777
 40
25.2174692944829
 40
26.793561125388
 40
29.9867767215237
 40
29.9867767215237
 40
34.7560841485646
 40
34.7560841485646
 40
37.140737862085
 40
37.140737862085
 40
37.7369012904651
 40
37.7369012904651
 40
38.33306471884519
 40
38.33306471884519
 40
39.5253915756054
 40
39.5253915756054
 40
41.91004528912579
 40
41.91004528912579
 40
42.506208717506
 40
42.506208717506
 40
43.10237214588609
 40
43.10237214588609
 40
44.2946990026463
 40
44.2946990026463
 40
63.37192871080969
 40
63.37192871080969
 40
63.37192871080969
 40
63.37192871080969
 10
584.6810956405951
 20
-586.0713303512626
 30
0.0
 10
586.1768139499612
 20
-586.0713303512509
 30
0.0
 10
587.6724443150191
 20
-586.0713303513229
 30
0.0
 10
589.5671857154174
 20
-586.0713303511517
 30
0.0
 10
589.9660162357593
 20
-586.0713303516904
 30
0.0
 10
590.5644377045127
 20
-586.0713303502438
 30
0.0
 10
590.7639010309265
 20
-586.0713303547686
 30
0.0
 10
591.0631201830969
 20
-586.0713303428872
 30
0.0
 10
591.1628404137535
 20
-586.071330379947
 30
0.0
 10
591.3622849676588
 20
-586.0713302502172
 30
0.0
 10
591.4620203370467
 20
-586.0713306672116
 30
0.0
 10
591.6615344451874
 20
-586.071329248105
 30
0.0
 10
591.7611883176272
 20
-586.0713337979837
 30
0.0
 10
591.9607172707973
 20
-586.0713183175407
 30
0.0
 10
592.0603965818125
 20
-586.0713679492127
 30
0.0
 10
592.3596211556567
 20
-586.0711146505621
 30
0.0
 10
592.5590675736392
 20
-586.0719515641674
 30
0.0
 10
592.9579759431179
 20
-586.069180759453
 30
0.0
 10
593.1574298823214
 20
-586.0625361148358
 30
0.0
 10
593.5557107264738
 20
-586.0406554056367
 30
0.0
 10
593.7546403836957
 20
-586.025060879374
 30
0.0
 10
594.746844072626
 20
-585.9244614828037
 30
0.0
 10
595.5331911435508
 20
-585.7706140642121
 30
0.0
 10
597.0644348839649
 20
-585.3216395052363
 30
0.0
 10
597.8093510945981
 20
-585.0264024972832
 30
0.0
 10
599.2323083524751
 20
-584.3048832885474
 30
0.0
 10
599.9111800689132
 20
-583.8776042728913
 30
0.0
 10
600.8599153570283
 20
-583.1517930923555
 30
0.0
 10
601.4783509492444
 20
-582.6283771531875
 30
0.0
 10
602.2934097763317
 20
-581.8098858418834
 30
0.0
 10
603.4428269827066
 20
-580.4036940071283
 30
0.0
 10
604.1064138011123
 20
-579.2611928536541
 30
0.0
 10
605.0271599988285
 20
-577.2385768041219
 30
0.0
 10
605.3890460261644
 20
-575.9445282885276
 30
0.0
 10
605.6271721110855
 20
-573.9648673073721
 30
0.0
 10
605.6559122984808
 20
-573.299020556934
 30
0.0
 10
605.6280033122337
 20
-572.4688143829943
 30
0.0
 10
605.6192035671264
 20
-572.3028451929153
 30
0.0
 10
605.5954694899218
 20
-571.9714386067776
 30
0.0
 10
605.5798918856124
 20
-571.8059811077539
 30
0.0
 10
605.527397832321
 20
-571.3103736403204
 30
0.0
 10
605.4929883246694
 20
-570.9798336982258
 30
0.0
 10
605.3890579210372
 20
-569.9884459878663
 30
0.0
 10
605.3198507010773
 20
-569.3275538495044
 30
0.0
 10
605.2332877386496
 20
-568.5013531457825
 30
0.0
 10
605.2159819216193
 20
-568.3361516038912
 30
0.0
 10
605.1813546699066
 20
-568.0056217493643
 30
0.0
 10
605.1640538994242
 20
-567.8404771736288
 30
0.0
 10
605.1121106497475
 20
-567.3446555182372
 30
0.0
 10
605.0774998881296
 20
-567.0142799672251
 30
0.0
 10
604.4889537670341
 20
-561.3963397546013
 30
0.0
 10
603.9350174645177
 20
-556.1087659373741
 30
0.0
 10
603.3810956405976
 20
-550.8213303512664
 30
0.0
  0
LINE
  5
20AF1
330
18
100
AcDbEntity
  8
01
100
AcDbLine
 10
584.3810956405981
 20
-655.8213303512664
 30
0.0
 11
584.3810956405981
 21
-649.0720141022625
 31
0.0
  0
SPLINE
  5
20AF2
330
18
100
AcDbEntity
  8
01
100
AcDbSpline
210
0.0
220
0.0
230
1.0
 70
     8
 71
     3
 72
    13
 73
     9
 74
     0
 42
0.0000000001
 43
0.0000000001
 40
1.586412154456594
 40
1.586412154456594
 40
1.586412154456594
 40
1.586412154456594
 40
2.0
 40
3.0
 40
4.0
 40
5.0
 40
6.0
 40
7.0
 40
7.0
 40
7.0
 40
7.0
 10
606.0625248288996
 20
-648.6319514254071
 30
0.0
 10
606.5110467237822
 20
-648.1120961093172
 30
0.0
 10
608.2027856459371
 20
-646.4785698206431
 30
0.0
 10
611.8200462439634
 20
-644.7499648453311
 30
0.0
 10
616.8724818180534
 20
-644.7126596963396
 30
0.0
 10
621.4857033380066
 20
-646.9419303552419
 30
0.0
 10
624.6034685026087
 20
-650.8322645110724
 30
0.0
 10
625.3810956405981
 20
-654.1794258547759
 30
0.0
 10
625.3810956405981
 20
-655.8213303512664
 30
0.0
  0
SPLINE
  5
20AF3
330
18
100
AcDbEntity
  8
01
100
AcDbSpline
210
0.0
220
0.0
230
1.0
 70
     8
 71
     3
 72
    13
 73
     9
 74
     0
 42
0.0000000001
 43
0.0000000001
 40
-7.0
 40
-7.0
 40
-7.0
 40
-7.0
 40
-6.0
 40
-5.0
 40
-4.0
 40
-3.0
 40
-2.0
 40
-1.586416664032823
 40
-1.586416664032823
 40
-1.586416664032823
 40
-1.586416664032823
 10
625.3810956405981
 20
-655.8213303512664
 30
0.0
 10
625.3810956405981
 20
-657.4632348477571
 30
0.0
 10
624.6034685026087
 20
-660.8103961914605
 30
0.0
 10
621.4857033380066
 20
-664.700730347291
 30
0.0
 10
616.8724818180534
 20
-666.9300010061934
 30
0.0
 10
611.8200462439634
 20
-666.8926958572019
 30
0.0
 10
608.2027924044695
 20
-665.1640941116359
 30
0.0
 10
606.511057517634
 20
-663.5305750156407
 30
0.0
 10
606.0625395003606
 20
-663.0107262819178
 30
0.0
  0
LINE
  5
20AF4
330
18
100
AcDbEntity
  8
01
100
AcDbLine
 10
584.3810956405981
 20
-655.8213303512664
 30
0.0
 11
584.3810956405981
 21
-662.5706466002703
 31
0.0
  0
SPLINE
  5
20AF5
330
18
100
AcDbEntity
  8
01
100
AcDbSpline
210
0.0
220
0.0
230
1.0
 70
     8
 71
     3
 72
    48
 73
    44
 74
     0
 42
0.0000000001
 43
0.0000000001
 40
13.14945237183253
 40
13.14945237183253
 40
13.14945237183253
 40
13.14945237183253
 40
13.53185180816065
 40
14.87058132475667
 40
15.80006297183353
 40
16.10595583278971
 40
17.73552425741779
 40
18.5683727779251
 40
18.98373997714957
 40
19.39843078705007
 40
20.01855859967355
 40
20.430742763758
 40
21.07934799202203
 40
21.52176791695355
 40
22.40681154933251
 40
23.07143777684046
 40
23.95850688625163
 40
25.08620875588503
 40
26.2956398432316
 40
28.11306688661182
 40
30.02564913727649
 40
32.03305477958371
 40
32.70274595714983
 40
33.37266637355431
 40
34.04273703138854
 40
34.37786034633078
 40
34.5596819498728
 40
34.74135376200865
 40
34.92510505429419
 40
35.1094563248762
 40
35.47952843105808
 40
35.84904795436965
 40
36.21840376323176
 40
36.58722726164266
 40
36.77156250645086
 40
36.95363296511285
 40
37.13447314177482
 40
37.31556467447795
 40
38.04037122753202
 40
38.76595660682133
 40
40.21948431983889
 40
42.30380031166087
 40
45.78390298459162
 40
45.78390298459162
 40
45.78390298459162
 40
45.78390298459162
 10
610.5750943134052
 20
-663.4930403726675
 30
0.0
 10
610.5750976113994
 20
-663.4930291967746
 30
0.0
 10
610.5598933774248
 20
-663.4884878021523
 30
0.0
 10
610.436421267508
 20
-663.4569883208094
 30
0.0
 10
610.2166240382947
 20
-663.4131765176054
 30
0.0
 10
609.9119542671745
 20
-663.3590958890138
 30
0.0
 10
609.5408432377288
 20
-663.302423025711
 30
0.0
 10
609.0739776706477
 20
-663.2454938498238
 30
0.0
 10
608.7823610988542
 20
-663.2137455899226
 30
0.0
 10
608.5153048606597
 20
-663.1868524239048
 30
0.0
 10
608.2287086678765
 20
-663.1605472256894
 30
0.0
 10
607.8761137313257
 20
-663.130759274243
 30
0.0
 10
607.5437834634293
 20
-663.1046789258111
 30
0.0
 10
607.0949369618891
 20
-663.0721122765944
 30
0.0
 10
606.6269413383978
 20
-663.0416905321119
 30
0.0
 10
606.025392530826
 20
-663.0080713552574
 30
0.0
 10
605.3319715767383
 20
-662.9743244088001
 30
0.0
 10
604.4594913860418
 20
-662.9389397143077
 30
0.0
 10
603.2810661345873
 20
-662.9006074721607
 30
0.0
 10
601.8094101958885
 20
-662.8650572858025
 30
0.0
 10
600.0202417607418
 20
-662.8357196535684
 30
0.0
 10
598.5393519760799
 20
-662.820036901571
 30
0.0
 10
597.4433482834028
 20
-662.8113916081713
 30
0.0
 10
596.7812314006676
 20
-662.8069014581619
 30
0.0
 10
596.2267299049516
 20
-662.8037314339676
 30
0.0
 10
595.8327202541885
 20
-662.8016366217141
 30
0.0
 10
595.6006203546543
 20
-662.800494867678
 30
0.0
 10
595.41884413483
 20
-662.7997459268442
 30
0.0
 10
595.23556467691
 20
-662.7989394516494
 30
0.0
 10
594.9895742412025
 20
-662.7972058928754
 30
0.0
 10
594.6815804051224
 20
-662.7936637603802
 30
0.0
 10
594.31200894264
 20
-662.7865149408848
 30
0.0
 10
593.9429725045051
 20
-662.7767287641376
 30
0.0
 10
593.6356940411059
 20
-662.7663653254742
 30
0.0
 10
593.3909995582061
 20
-662.7565548545114
 30
0.0
 10
593.2086977567695
 20
-662.7487518656367
 30
0.0
 10
593.027600596791
 20
-662.7411061463369
 30
0.0
 10
592.6656976811012
 20
-662.7263575499587
 30
0.0
 10
592.1223845428307
 20
-662.7053368675699
 30
0.0
 10
591.1551210889582
 20
-662.6717483555733
 30
0.0
 10
589.734721905831
 20
-662.6302573942137
 30
0.0
 10
587.3959590837338
 20
-662.5833542457344
 30
0.0
 10
585.5411176168884
 20
-662.5704973732431
 30
0.0
 10
584.3810956405981
 20
-662.5706466002704
 30
0.0
  0
SPLINE
  5
20AF6
330
18
100
AcDbEntity
  8
01
100
AcDbSpline
210
0.0
220
0.0
230
1.0
 70
     8
 71
     3
 72
    46
 73
    42
 74
     0
 42
0.0000000001
 43
0.0000000001
 40
0.0
 40
0.0
 40
0.0
 40
0.0
 40
3.506758159459278
 40
5.007739836144732
 40
7.259454583658703
 40
7.821228445946343
 40
8.382538457047601
 40
8.662982524269629
 40
8.943719410188124
 40
9.228544097421027
 40
9.514149197727057
 40
9.937471694558595
 40
10.36124739322494
 40
10.57341739164576
 40
10.7849945101192
 40
10.99594528654776
 40
11.20456431356692
 40
11.62157008133392
 40
12.0388445717314
 40
12.4559786580955
 40
12.87306901620707
 40
13.70698089174469
 40
15.78990322602189
 40
18.2631402590464
 40
19.97379054834018
 40
20.99844642446429
 40
22.0034098825045
 40
22.97073096120222
 40
24.25829073174723
 40
24.90183261391716
 40
25.5467851032044
 40
26.19406244946404
 40
26.51863537382251
 40
27.0975659439741
 40
28.1152051545275
 40
29.39695678769221
 40
29.91463211715302
 40
30.43761734341119
 40
30.96639487021484
 40
31.97443019377982
 40
32.63495890505732
 40
32.63495890505732
 40
32.63495890505732
 40
32.63495890505732
 10
584.3810956405981
 20
-649.0720141022625
 30
0.0
 10
585.5500014990938
 20
-649.0721644721261
 30
0.0
 10
587.2192799062785
 20
-649.0604981962726
 30
0.0
 10
589.6385795245195
 20
-649.0150094132734
 30
0.0
 10
591.0760534645804
 20
-648.9742441211344
 30
0.0
 10
592.2001051502546
 20
-648.9342729877683
 30
0.0
 10
592.6675290842029
 20
-648.9161846187564
 30
0.0
 10
593.0412989958694
 20
-648.9010638483103
 30
0.0
 10
593.3230416768391
 20
-648.8889398555188
 30
0.0
 10
593.6064082148154
 20
-648.8773519580177
 30
0.0
 10
593.9373677212301
 20
-648.8661438840986
 30
0.0
 10
594.3147428145001
 20
-648.855939007369
 30
0.0
 10
594.6677628618093
 20
-648.8493254173931
 30
0.0
 10
594.9502600582936
 20
-648.8459185128078
 30
0.0
 10
595.1617880884485
 20
-648.8441587353332
 30
0.0
 10
595.3722068074006
 20
-648.8430661494955
 30
0.0
 10
595.650313198926
 20
-648.8420008490025
 30
0.0
 10
595.9966508643845
 20
-648.8401483614154
 30
0.0
 10
596.4115544907776
 20
-648.83791393979
 30
0.0
 10
596.8253055298709
 20
-648.8354019693353
 30
0.0
 10
597.3752170859333
 20
-648.8317511008431
 30
0.0
 10
598.4683809223628
 20
-648.8233836652587
 30
0.0
 10
600.2078741281751
 20
-648.8050239857689
 30
0.0
 10
602.151175258219
 20
-648.7712432209396
 30
0.0
 10
603.6782509543075
 20
-648.7301780103596
 30
0.0
 10
604.7235421344488
 20
-648.6935293904687
 30
0.0
 10
605.5258957875197
 20
-648.659463553128
 30
0.0
 10
606.3603865671137
 20
-648.6173881687967
 30
0.0
 10
607.0486195498118
 20
-648.5743889849709
 30
0.0
 10
607.6310163344896
 20
-648.5314275782712
 30
0.0
 10
608.0525450129942
 20
-648.4974965134831
 30
0.0
 10
608.3801896622161
 20
-648.4684420907167
 30
0.0
 10
608.6759389160387
 20
-648.439920950344
 30
0.0
 10
609.0199326600266
 20
-648.4038307511164
 30
0.0
 10
609.489590156454
 20
-648.3467265794851
 30
0.0
 10
609.8720864509781
 20
-648.2897056712247
 30
0.0
 10
610.1331023951042
 20
-648.2446606411988
 30
0.0
 10
610.2804409473009
 20
-648.2168397680586
 30
0.0
 10
610.4397068799261
 20
-648.1838518570314
 30
0.0
 10
610.5495423800947
 20
-648.1571688673727
 30
0.0
 10
610.5749732159041
 20
-648.1495838951866
 30
0.0
 10
610.5749743354275
 20
-648.1495876439185
 30
0.0
  0
LINE
  5
20AF7
330
18
100
AcDbEntity
  8
01
100
AcDbLine
 10
584.3810956405985
 20
-599.3213303512663
 30
0.0
 11
194.3768996258779
 21
-599.3213303512663
 31
0.0
  0
LINE
  5
20AF9
330
18
100
AcDbEntity
  8
01
100
AcDbLine
 10
584.3810956405977
 20
-586.3213303512663
 30
0.0
 11
194.3768996297539
 21
-586.3213303512663
 31
0.0
  0
LINE
  5
20AFB
330
18
100
AcDbEntity
  8
01
100
AcDbLine
 10
584.3810956405977
 20
-586.3713303512583
 30
0.0
 11
584.3810956405985
 21
-599.2713303283381
 31
0.0
  0
LINE
  5
20AFE
330
18
100
AcDbEntity
  8
01
100
AcDbLine
 10
584.3810956405985
 20
-662.3213303512663
 30
0.0
 11
194.3810956405977
 21
-662.3213303512663
 31
0.0
  0
LINE
  5
20AFF
330
18
100
AcDbEntity
  8
01
100
AcDbLine
 10
584.3810956405977
 20
-649.3213303512663
 30
0.0
 11
194.3810956405976
 21
-649.3213303512663
 31
0.0
  0
SPLINE
  5
20B02
330
18
100
AcDbEntity
  8
01
100
AcDbSpline
210
0.0
220
0.0
230
1.0
 70
    24
 71
     3
 72
    14
 73
    10
 74
     0
 42
0.0000000001
 43
0.0000000001
 40
-6.340638642633495
 40
-6.340638642633495
 40
-6.340638642633495
 40
-6.340638642633495
 40
-6.0
 40
-5.0
 40
-4.0
 40
-3.0
 40
-2.0
 40
-1.0
 40
-0.6711314518385495
 40
-0.6711314518385495
 40
-0.6711314518385495
 40
-0.6711314518385495
 10
194.3810956405981
 20
-599.2713303283383
 30
0.0
 10
194.3810956405981
 20
-599.1699328599792
 30
0.0
 10
194.3810956405981
 20
-598.6736591997576
 30
0.0
 10
194.3810956405981
 20
-597.1809762219382
 30
0.0
 10
194.3810956405976
 20
-594.3501358035805
 30
0.0
 10
194.3810956405981
 20
-591.2497776093887
 30
0.0
 10
194.3810956405976
 20
-588.4907945168574
 30
0.0
 10
194.3810956405976
 20
-586.9595168147644
 30
0.0
 10
194.3810956405981
 20
-586.469017655101
 30
0.0
 10
194.3810956405981
 20
-586.3713303512648
 30
0.0
  0
SPLINE
  5
20B03
330
18
100
AcDbEntity
  8
01
100
AcDbSpline
210
0.0
220
0.0
230
1.0
 70
     8
 71
     3
 72
    57
 73
    53
 74
     0
 42
0.0000000001
 43
0.0000000001
 40
-63.37192871080969
 40
-63.37192871080969
 40
-63.37192871080969
 40
-63.37192871080969
 40
-44.2946990026463
 40
-44.2946990026463
 40
-43.10237214588609
 40
-43.10237214588609
 40
-42.506208717506
 40
-42.506208717506
 40
-41.91004528912579
 40
-41.91004528912579
 40
-39.5253915756054
 40
-39.5253915756054
 40
-38.33306471884519
 40
-38.33306471884519
 40
-37.7369012904651
 40
-37.7369012904651
 40
-37.140737862085
 40
-37.140737862085
 40
-34.7560841485646
 40
-34.7560841485646
 40
-29.9867767215237
 40
-29.9867767215237
 40
-26.793561125388
 40
-25.2174692944829
 40
-23.6413774635777
 40
-22.06528563267251
 40
-22.06528563267251
 40
-18.9131019708621
 40
-18.9131019708621
 40
-15.7609183090518
 40
-15.7609183090518
 40
-12.6087346472414
 40
-12.6087346472414
 40
-11.8206887317888
 40
-11.8206887317888
 40
-11.0326428163362
 40
-11.0326428163362
 40
-10.2445969008837
 40
-10.2445969008837
 40
-9.85057394315736
 40
-9.85057394315736
 40
-9.45655098543107
 40
-9.45655098543107
 40
-9.062528027704781
 40
-9.062528027704781
 40
-8.668505069978479
 40
-8.668505069978479
 40
-7.880459154525889
 40
-7.880459154525889
 40
-6.304367323620709
 40
-6.304367323620709
 40
-0.2418022084384277
 40
-0.2418022084384277
 40
-0.2418022084384277
 40
-0.2418022084384277
 10
153.3810956405981
 20
-550.8213303512664
 30
0.0
 10
154.1523047890508
 20
-558.1828650083834
 30
0.0
 10
154.9234852434568
 20
-565.5441582329301
 30
0.0
 10
155.7428980445451
 20
-573.3657837200821
 30
0.0
 10
155.791076833429
 20
-573.8257944673494
 30
0.0
 10
155.8634281562321
 20
-574.5160837355108
 30
0.0
 10
155.8874084973898
 20
-574.7460441664493
 30
0.0
 10
155.9359994664013
 20
-575.2061650679015
 30
0.0
 10
155.9634158866582
 20
-575.4358686598261
 30
0.0
 10
156.1145000273922
 20
-576.582352613786
 30
0.0
 10
156.2817858982915
 20
-577.4936840437671
 30
0.0
 10
156.6008433309656
 20
-578.8441900513005
 30
0.0
 10
156.7185972322444
 20
-579.2918384143131
 30
0.0
 10
156.9119630267799
 20
-579.9581140747222
 30
0.0
 10
156.9792864071204
 20
-580.1796105654057
 30
0.0
 10
157.1193560580744
 20
-580.6203803790895
 30
0.0
 10
157.1922127465935
 20
-580.8399950794449
 30
0.0
 10
157.5701165127469
 20
-581.9329462687765
 30
0.0
 10
157.9167791742633
 20
-582.7922085957371
 30
0.0
 10
159.0831408682342
 20
-585.3104680922769
 30
0.0
 10
160.0320503831821
 20
-586.9114548673201
 30
0.0
 10
161.8636969690664
 20
-589.3949337844754
 30
0.0
 10
163.075044557066
 20
-590.8193529847185
 30
0.0
 10
164.8141734889162
 20
-592.4987005456073
 30
0.0
 10
166.3444249364651
 20
-593.786048039461
 30
0.0
 10
167.3927335081697
 20
-594.5426614848952
 30
0.0
 10
169.0180331380846
 20
-595.6337887409952
 30
0.0
 10
170.151704092273
 20
-596.2824429127749
 30
0.0
 10
172.5008891542433
 20
-597.4138063476334
 30
0.0
 10
173.7156018685249
 20
-597.895681934001
 30
0.0
 10
176.2013190550464
 20
-598.6825495210102
 30
0.0
 10
177.4721502022106
 20
-598.9874554988516
 30
0.0
 10
179.0796660329164
 20
-599.2540341718149
 30
0.0
 10
179.4021713308033
 20
-599.3016539259246
 30
0.0
 10
180.0484537558972
 20
-599.3853635349355
 30
0.0
 10
180.3725251964869
 20
-599.4214958745451
 30
0.0
 10
181.021459732944
 20
-599.4821866560944
 30
0.0
 10
181.3464621950965
 20
-599.5067657412034
 30
0.0
 10
181.8345739498699
 20
-599.5349611657371
 30
0.0
 10
181.9972002232406
 20
-599.5429065092762
 30
0.0
 10
182.3228781509446
 20
-599.5559159002612
 30
0.0
 10
182.4858225664796
 20
-599.5609811800093
 30
0.0
 10
182.8116082232885
 20
-599.5681762481765
 30
0.0
 10
182.9745897282568
 20
-599.5704088669515
 30
0.0
 10
183.3004551359566
 20
-599.5715918948758
 30
0.0
 10
183.4634149089301
 20
-599.5712539403605
 30
0.0
 10
183.952217972372
 20
-599.5713622879152
 30
0.0
 10
184.2781891029302
 20
-599.5713210259889
 30
0.0
 10
185.2558936199383
 20
-599.5713342187555
 30
0.0
 10
185.907647151333
 20
-599.5713293059991
 30
0.0
 10
189.0667224565057
 20
-599.5713308981621
 30
0.0
 10
191.5738582241582
 20
-599.5713301733306
 30
0.0
 10
194.081095622051
 20
-599.5713303283382
 30
0.0
  0
SPLINE
  5
20B04
330
18
100
AcDbEntity
  8
01
100
AcDbSpline
210
0.0
220
0.0
230
1.0
 70
     8
 71
     3
 72
    57
 73
    53
 74
     0
 42
0.0000000001
 43
0.0000000001
 40
0.3950786668710202
 40
0.3950786668710202
 40
0.3950786668710202
 40
0.3950786668710202
 40
6.304367323620709
 40
6.304367323620709
 40
7.880459154525889
 40
7.880459154525889
 40
8.668505069978479
 40
8.668505069978479
 40
9.062528027704781
 40
9.062528027704781
 40
9.45655098543107
 40
9.45655098543107
 40
9.85057394315736
 40
9.85057394315736
 40
10.2445969008837
 40
10.2445969008837
 40
11.0326428163362
 40
11.0326428163362
 40
11.8206887317888
 40
11.8206887317888
 40
12.6087346472414
 40
12.6087346472414
 40
15.7609183090518
 40
15.7609183090518
 40
18.9131019708621
 40
18.9131019708621
 40
22.06528563267251
 40
22.06528563267251
 40
23.6413774635777
 40
25.2174692944829
 40
26.793561125388
 40
29.9867767215237
 40
29.9867767215237
 40
34.7560841485646
 40
34.7560841485646
 40
37.140737862085
 40
37.140737862085
 40
37.7369012904651
 40
37.7369012904651
 40
38.33306471884519
 40
38.33306471884519
 40
39.5253915756054
 40
39.5253915756054
 40
41.91004528912579
 40
41.91004528912579
 40
42.506208717506
 40
42.506208717506
 40
43.10237214588609
 40
43.10237214588609
 40
44.2946990026463
 40
44.2946990026463
 40
63.37192871080969
 40
63.37192871080969
 40
63.37192871080969
 40
63.37192871080969
 10
194.0810956406002
 20
-586.0713303512628
 30
0.0
 10
192.5853773312341
 20
-586.0713303512508
 30
0.0
 10
191.0897469661762
 20
-586.0713303513229
 30
0.0
 10
189.1950055657784
 20
-586.0713303511517
 30
0.0
 10
188.7961750454364
 20
-586.0713303516904
 30
0.0
 10
188.1977535766831
 20
-586.0713303502438
 30
0.0
 10
187.9982902502691
 20
-586.0713303547686
 30
0.0
 10
187.6990710980989
 20
-586.0713303428872
 30
0.0
 10
187.5993508674422
 20
-586.071330379947
 30
0.0
 10
187.3999063135369
 20
-586.0713302502172
 30
0.0
 10
187.300170944149
 20
-586.0713306672116
 30
0.0
 10
187.1006568360084
 20
-586.071329248105
 30
0.0
 10
187.0010029635685
 20
-586.0713337979837
 30
0.0
 10
186.8014740103984
 20
-586.0713183175407
 30
0.0
 10
186.7017946993832
 20
-586.0713679492127
 30
0.0
 10
186.402570125539
 20
-586.0711146505621
 30
0.0
 10
186.2031237075565
 20
-586.0719515641674
 30
0.0
 10
185.8042153380778
 20
-586.069180759453
 30
0.0
 10
185.6047613988743
 20
-586.0625361148358
 30
0.0
 10
185.2064805547219
 20
-586.0406554056367
 30
0.0
 10
185.0075508975
 20
-586.025060879374
 30
0.0
 10
184.0153472085697
 20
-585.9244614828037
 30
0.0
 10
183.2290001376449
 20
-585.7706140642121
 30
0.0
 10
181.6977563972308
 20
-585.3216395052363
 30
0.0
 10
180.9528401865976
 20
-585.0264024972832
 30
0.0
 10
179.5298829287206
 20
-584.3048832885474
 30
0.0
 10
178.8510112122825
 20
-583.8776042728913
 30
0.0
 10
177.9022759241674
 20
-583.1517930923555
 30
0.0
 10
177.2838403319514
 20
-582.6283771531875
 30
0.0
 10
176.468781504864
 20
-581.8098858418834
 30
0.0
 10
175.3193642984891
 20
-580.4036940071283
 30
0.0
 10
174.6557774800834
 20
-579.2611928536541
 30
0.0
 10
173.7350312823672
 20
-577.2385768041219
 30
0.0
 10
173.3731452550313
 20
-575.9445282885276
 30
0.0
 10
173.1350191701102
 20
-573.9648673073721
 30
0.0
 10
173.106278982715
 20
-573.299020556934
 30
0.0
 10
173.134187968962
 20
-572.4688143829943
 30
0.0
 10
173.1429877140693
 20
-572.3028451929153
 30
0.0
 10
173.1667217912739
 20
-571.9714386067776
 30
0.0
 10
173.1822993955833
 20
-571.8059811077539
 30
0.0
 10
173.2347934488747
 20
-571.3103736403204
 30
0.0
 10
173.2692029565263
 20
-570.9798336982258
 30
0.0
 10
173.3731333601584
 20
-569.9884459878663
 30
0.0
 10
173.4423405801184
 20
-569.3275538495044
 30
0.0
 10
173.5289035425461
 20
-568.5013531457825
 30
0.0
 10
173.5462093595764
 20
-568.3361516038912
 30
0.0
 10
173.5808366112891
 20
-568.0056217493643
 30
0.0
 10
173.5981373817716
 20
-567.8404771736288
 30
0.0
 10
173.6500806314483
 20
-567.3446555182372
 30
0.0
 10
173.6846913930661
 20
-567.0142799672251
 30
0.0
 10
174.2732375141617
 20
-561.3963397546013
 30
0.0
 10
174.827173816678
 20
-556.1087659373741
 30
0.0
 10
175.3810956405981
 20
-550.8213303512664
 30
0.0
  0
LINE
  5
20B08
330
18
100
AcDbEntity
  8
01
100
AcDbLine
 10
628.6352225895815
 20
-548.3213303512624
 30
0.0
 11
600.1269704400773
 21
-548.3213303512662
 31
0.0
  0
ARC
  5
20B0B
330
18
100
AcDbEntity
  8
01
100
AcDbCircle
 10
-611.3374989613502
 20
-509.9672937518073
 30
0.0
 40
40.0
210
0.0
220
0.0
230
-1.0
100
AcDbArc
 50
286.7053197237321
 51
308.8355499941069
  0
ARC
  5
20B0C
330
18
100
AcDbEntity
  8
01
100
AcDbCircle
 10
586.8810965148294
 20
-540.3463059045064
 30
0.0
 40
1.0
100
AcDbArc
 50
180.0
 51
231.164450005893
  0
ARC
  5
20B0D
330
18
100
AcDbEntity
  8
01
100
AcDbCircle
 10
600.1269704400773
 20
-547.3213303512664
 30
0.0
 40
1.0
100
AcDbArc
 50
253.2946802762678
 51
270.0
  0
LINE
  5
20B0F
330
18
100
AcDbEntity
  8
01
100
AcDbLine
 10
585.8810965148294
 20
-540.3463059045064
 30
0.0
 11
585.8810965148294
 21
-535.8213303512664
 31
0.0
  0
LINE
  5
20B11
330
18
100
AcDbEntity
  8
01
100
AcDbLine
 10
642.8810965148294
 20
-540.3463059045058
 30
0.0
 11
642.8810965148294
 21
-535.8213303512664
 31
0.0
  0
ARC
  5
20B13
330
18
100
AcDbEntity
  8
01
100
AcDbCircle
 10
617.4246940683087
 20
-509.9672937518073
 30
0.0
 40
40.0
100
AcDbArc
 50
286.7053197237256
 51
308.8355499941069
  0
ARC
  5
20B14
330
18
100
AcDbEntity
  8
01
100
AcDbCircle
 10
641.8810965148294
 20
-540.3463059045058
 30
0.0
 40
1.0
100
AcDbArc
 50
308.8355499941069
 51
0.0
  0
ARC
  5
20B15
330
18
100
AcDbEntity
  8
01
100
AcDbCircle
 10
628.6352225895815
 20
-547.3213303512661
 30
0.0
 40
1.0
100
AcDbArc
 50
270.0
 51
286.7053197237321
  0
LINE
  5
20B17
330
18
100
AcDbEntity
  8
01
100
AcDbLine
 10
642.8810965148294
 20
-535.8213303512664
 30
0.0
 11
585.8810965148294
 21
-535.8213303512664
 31
0.0
  0
LINE
  5
20B23
330
18
100
AcDbEntity
  8
01
100
AcDbLine
 10
150.1269686916138
 20
-548.3213303512664
 30
0.0
 11
178.6352208411189
 21
-548.3213303512664
 31
0.0
  0
ARC
  5
20B24
330
18
100
AcDbEntity
  8
01
100
AcDbCircle
 10
-167.424692319846
 20
-509.9672937518073
 30
0.0
 40
40.0
210
0.0
220
0.0
230
-1.0
100
AcDbArc
 50
231.164450005893
 51
253.2946802762678
  0
ARC
  5
20B25
330
18
100
AcDbEntity
  8
01
100
AcDbCircle
 10
191.8810947663659
 20
-540.3463059045064
 30
0.0
 40
1.0
100
AcDbArc
 50
308.8355499940898
 51
0.0
  0
ARC
  5
20B26
330
18
100
AcDbEntity
  8
01
100
AcDbCircle
 10
178.6352208411189
 20
-547.3213303512664
 30
0.0
 40
1.0
100
AcDbArc
 50
270.0
 51
286.7053197237321
  0
LINE
  5
20B27
330
18
100
AcDbEntity
  8
01
100
AcDbLine
 10
192.8810947663668
 20
-540.3463059045064
 30
0.0
 11
192.8810947663659
 21
-535.8213303512664
 31
0.0
  0
LINE
  5
20B28
330
18
100
AcDbEntity
  8
01
100
AcDbLine
 10
135.8810947663668
 20
-540.3463059045058
 30
0.0
 11
135.8810947663668
 21
-535.8213303512664
 31
0.0
  0
ARC
  5
20B29
330
18
100
AcDbEntity
  8
01
100
AcDbCircle
 10
161.3374972128875
 20
-509.9672937518073
 30
0.0
 40
40.0
100
AcDbArc
 50
231.164450005893
 51
253.2946802762678
  0
ARC
  5
20B2A
330
18
100
AcDbEntity
  8
01
100
AcDbCircle
 10
136.8810947663668
 20
-540.3463059045058
 30
0.0
 40
1.0
100
AcDbArc
 50
180.0
 51
231.1644500059096
  0
ARC
  5
20B2B
330
18
100
AcDbEntity
  8
01
100
AcDbCircle
 10
150.1269686916138
 20
-547.3213303512661
 30
0.0
 40
1.0
100
AcDbArc
 50
253.2946802762678
 51
270.0
  0
LINE
  5
20B31
330
18
100
AcDbEntity
  8
01
100
AcDbLine
 10
135.8810947663668
 20
-535.8213303512664
 30
0.0
 11
192.8810947663659
 21
-535.8213303512664
 31
0.0
  0
LINE
  5
20B32
330
18
100
AcDbEntity
  8
01
100
AcDbLine
 10
136.4153463382826
 20
-540.8213303512665
 30
0.0
 11
191.9861448830928
 21
-540.8213303512663
 31
0.0
  0
ARC
  5
20B33
330
18
100
AcDbEntity
  8
01
100
AcDbCircle
 10
584.6810956405978
 20
-599.2713303283383
 30
0.0
 40
0.3
100
AcDbArc
 50
179.9999999999739
 51
270.0000035423607
  0
ARC
  5
20B34
330
18
100
AcDbEntity
  8
01
100
AcDbCircle
 10
584.6810956405983
 20
-586.3713303512609
 30
0.0
 40
0.3
100
AcDbArc
 50
90.00000000061229
 51
179.9999999995179
  0
ARC
  5
20B35
330
18
100
AcDbEntity
  8
01
100
AcDbCircle
 10
194.0810956405984
 20
-586.371330351263
 30
0.0
 40
0.3
100
AcDbArc
 50
359.9999999996092
 51
89.99999999964826
  0
ARC
  5
20B36
330
18
100
AcDbEntity
  8
01
100
AcDbCircle
 10
194.0810956405984
 20
-599.2713303283387
 30
0.0
 40
0.3
100
AcDbArc
 50
269.9999964577174
 51
0.0000000000651378
  0
LINE
  5
20B37
330
18
100
AcDbEntity
  8
01
100
AcDbLine
 10
728.1810948527055
 20
-666.8213302649264
 30
0.0
 11
728.1810948527055
 21
-644.8213302649264
 31
0.0
  0
LINE
  5
20B38
330
18
100
AcDbEntity
  8
01
100
AcDbLine
 10
730.3810948527053
 20
-670.0754572139105
 30
0.0
 11
730.3810948527053
 21
-641.5672050644059
 31
0.0
  0
ARC
  5
20B39
330
18
100
AcDbEntity
  8
01
100
AcDbCircle
 10
-768.7351314521643
 20
-652.7777335856789
 30
0.0
 40
40.0
210
0.0
220
0.0
230
-1.0
100
AcDbArc
 50
16.70531972373269
 51
38.83554999410917
  0
ARC
  5
20B3A
330
18
100
AcDbEntity
  8
01
100
AcDbCircle
 10
731.3810948527053
 20
-641.5672050644059
 30
0.0
 40
1.0
100
AcDbArc
 50
163.2946802762672
 51
180.0
  0
ARC
  5
20B3B
330
18
100
AcDbEntity
  8
01
100
AcDbCircle
 10
738.3561192994654
 20
-628.3213311391587
 30
0.0
 40
1.0
100
AcDbArc
 50
90.0
 51
141.1644500058908
  0
LINE
  5
20B3C
330
18
100
AcDbEntity
  8
01
100
AcDbLine
 10
738.3561192994654
 20
-627.3213311391587
 30
0.0
 11
742.8810948527053
 21
-627.3213311391587
 31
0.0
  0
LINE
  5
20B3D
330
18
100
AcDbEntity
  8
01
100
AcDbLine
 10
738.3561192994658
 20
-684.3213311391582
 30
0.0
 11
742.8810948527053
 21
-684.3213311391582
 31
0.0
  0
ARC
  5
20B3E
330
18
100
AcDbEntity
  8
01
100
AcDbCircle
 10
768.7351314521643
 20
-658.8649286926375
 30
0.0
 40
40.0
100
AcDbArc
 50
196.7053197237327
 51
218.8355499941092
  0
ARC
  5
20B3F
330
18
100
AcDbEntity
  8
01
100
AcDbCircle
 10
731.3810948527053
 20
-670.0754572139105
 30
0.0
 40
1.0
100
AcDbArc
 50
180.0
 51
196.7053197237327
  0
ARC
  5
20B40
330
18
100
AcDbEntity
  8
01
100
AcDbCircle
 10
738.3561192994658
 20
-683.3213311391582
 30
0.0
 40
1.0
100
AcDbArc
 50
218.8355499941092
 51
270.0
  0
LINE
  5
20B41
330
18
100
AcDbEntity
  8
01
100
AcDbLine
 10
742.8810948527053
 20
-684.3213311391582
 30
0.0
 11
742.8810948527053
 21
-627.3213311391587
 31
0.0
  0
LINE
  5
20B42
330
18
100
AcDbEntity
  8
01
100
AcDbLine
 10
737.8810948527053
 20
-628.1447912168887
 30
0.0
 11
737.8810948527117
 21
-682.8587280076049
 31
0.0
  0
LINE
  5
20B43
330
18
100
AcDbEntity
  8
01
100
AcDbLine
 10
728.1810948527055
 20
-644.1213302649262
 30
0.0
 11
728.1810948527055
 21
-667.5213302649263
 31
0.0
  0
LINE
  5
20B44
330
18
100
AcDbEntity
  8
01
100
AcDbLine
 10
729.6810948527055
 20
-642.6213302649261
 30
0.0
 11
730.3810948527052
 21
-642.6213302649261
 31
0.0
  0
LINE
  5
20B45
330
18
100
AcDbEntity
  8
01
100
AcDbLine
 10
729.6810948527055
 20
-669.0213302649262
 30
0.0
 11
730.3810948527052
 21
-669.0213302649262
 31
0.0
  0
LINE
  5
20B46
330
18
100
AcDbEntity
  8
01
100
AcDbLine
 10
728.1810948527055
 20
-644.1213302649262
 30
0.0
 11
729.6810948527055
 21
-642.6213302649261
 31
0.0
  0
LINE
  5
20B47
330
18
100
AcDbEntity
  8
01
100
AcDbLine
 10
728.1810948527055
 20
-667.5213302649263
 30
0.0
 11
729.6810948527055
 21
-669.0213302649262
 31
0.0
  0
ARC
  5
20B48
330
18
100
AcDbEntity
  8
01
100
AcDbCircle
 10
614.3810956405981
 20
-655.8213303512664
 30
0.0
 40
28.4999992121077
100
AcDbArc
 50
193.7214785067048
 51
166.2785179175795
  0
ARC
  5
20B4E
330
18
100
AcDbEntity
  8
01
100
AcDbCircle
 10
614.3810956405981
 20
-655.8213303512664
 30
0.0
 40
13.2000000000005
100
AcDbArc
 50
212.4364712352489
 51
147.5635306531432
  0
LINE
  5
20B4F
330
18
100
AcDbEntity
  8
01
100
AcDbLine
 10
164.3810956405976
 20
-626.3931762767835
 30
0.0
 11
164.3810956405976
 21
-642.6213303512659
 31
0.0
  0
LINE
  5
20B50
330
18
100
AcDbEntity
  8
01
100
AcDbLine
 10
170.3330149419147
 20
-636.8213304955981
 30
0.0
 11
157.7922266786021
 21
-636.8213304955981
 31
0.0
  0
LINE
  5
20B51
330
18
100
AcDbEntity
  8
01
100
AcDbLine
 10
170.8829952193354
 20
-674.8213301756387
 30
0.0
 11
157.0393367477112
 21
-674.8213301756387
 31
0.0
  0
LINE
  5
20B52
330
18
100
AcDbEntity
  8
01
100
AcDbLine
 10
194.3810956405976
 20
-655.8213303512664
 30
0.0
 11
194.3810956405976
 21
-649.0720141022625
 31
0.0
  0
SPLINE
  5
20B53
330
18
100
AcDbEntity
  8
01
100
AcDbSpline
210
0.0
220
0.0
230
1.0
 70
     8
 71
     3
 72
    13
 73
     9
 74
     0
 42
0.0000000001
 43
0.0000000001
 40
1.586412154456594
 40
1.586412154456594
 40
1.586412154456594
 40
1.586412154456594
 40
2.0
 40
3.0
 40
4.0
 40
5.0
 40
6.0
 40
7.0
 40
7.0
 40
7.0
 40
7.0
 10
172.6996664522961
 20
-648.6319514254071
 30
0.0
 10
172.2511445574135
 20
-648.1120961093172
 30
0.0
 10
170.5594056352587
 20
-646.4785698206431
 30
0.0
 10
166.9421450372323
 20
-644.7499648453311
 30
0.0
 10
161.8897094631423
 20
-644.7126596963396
 30
0.0
 10
157.2764879431892
 20
-646.9419303552419
 30
0.0
 10
154.158722778587
 20
-650.8322645110724
 30
0.0
 10
153.3810956405976
 20
-654.1794258547759
 30
0.0
 10
153.3810956405976
 20
-655.8213303512664
 30
0.0
  0
SPLINE
  5
20B54
330
18
100
AcDbEntity
  8
01
100
AcDbSpline
210
0.0
220
0.0
230
1.0
 70
     8
 71
     3
 72
    13
 73
     9
 74
     0
 42
0.0000000001
 43
0.0000000001
 40
-7.0
 40
-7.0
 40
-7.0
 40
-7.0
 40
-6.0
 40
-5.0
 40
-4.0
 40
-3.0
 40
-2.0
 40
-1.586416664032823
 40
-1.586416664032823
 40
-1.586416664032823
 40
-1.586416664032823
 10
153.3810956405976
 20
-655.8213303512664
 30
0.0
 10
153.3810956405976
 20
-657.4632348477571
 30
0.0
 10
154.158722778587
 20
-660.8103961914605
 30
0.0
 10
157.2764879431892
 20
-664.700730347291
 30
0.0
 10
161.8897094631423
 20
-666.9300010061934
 30
0.0
 10
166.9421450372323
 20
-666.8926958572019
 30
0.0
 10
170.5593988767263
 20
-665.1640941116359
 30
0.0
 10
172.2511337635618
 20
-663.5305750156407
 30
0.0
 10
172.6996517808351
 20
-663.0107262819178
 30
0.0
  0
LINE
  5
20B55
330
18
100
AcDbEntity
  8
01
100
AcDbLine
 10
194.3810956405976
 20
-655.8213303512664
 30
0.0
 11
194.3810956405976
 21
-662.5706466002703
 31
0.0
  0
SPLINE
  5
20B56
330
18
100
AcDbEntity
  8
01
100
AcDbSpline
210
0.0
220
0.0
230
1.0
 70
     8
 71
     3
 72
    48
 73
    44
 74
     0
 42
0.0000000001
 43
0.0000000001
 40
13.14945237183253
 40
13.14945237183253
 40
13.14945237183253
 40
13.14945237183253
 40
13.53185180816065
 40
14.87058132475667
 40
15.80006297183353
 40
16.10595583278971
 40
17.73552425741779
 40
18.5683727779251
 40
18.98373997714957
 40
19.39843078705007
 40
20.01855859967355
 40
20.430742763758
 40
21.07934799202203
 40
21.52176791695355
 40
22.40681154933251
 40
23.07143777684046
 40
23.95850688625163
 40
25.08620875588503
 40
26.2956398432316
 40
28.11306688661182
 40
30.02564913727649
 40
32.03305477958371
 40
32.70274595714983
 40
33.37266637355431
 40
34.04273703138854
 40
34.37786034633078
 40
34.5596819498728
 40
34.74135376200865
 40
34.92510505429419
 40
35.1094563248762
 40
35.47952843105808
 40
35.84904795436965
 40
36.21840376323176
 40
36.58722726164266
 40
36.77156250645086
 40
36.95363296511285
 40
37.13447314177482
 40
37.31556467447795
 40
38.04037122753202
 40
38.76595660682133
 40
40.21948431983889
 40
42.30380031166087
 40
45.78390298459162
 40
45.78390298459162
 40
45.78390298459162
 40
45.78390298459162
 10
168.1870969677906
 20
-663.4930403726675
 30
0.0
 10
168.1870936697963
 20
-663.4930291967746
 30
0.0
 10
168.2022979037709
 20
-663.4884878021523
 30
0.0
 10
168.3257700136877
 20
-663.4569883208094
 30
0.0
 10
168.545567242901
 20
-663.4131765176054
 30
0.0
 10
168.8502370140212
 20
-663.3590958890138
 30
0.0
 10
169.2213480434669
 20
-663.302423025711
 30
0.0
 10
169.6882136105481
 20
-663.2454938498238
 30
0.0
 10
169.9798301823415
 20
-663.2137455899226
 30
0.0
 10
170.246886420536
 20
-663.1868524239048
 30
0.0
 10
170.5334826133193
 20
-663.1605472256894
 30
0.0
 10
170.88607754987
 20
-663.130759274243
 30
0.0
 10
171.2184078177664
 20
-663.1046789258111
 30
0.0
 10
171.6672543193066
 20
-663.0721122765944
 30
0.0
 10
172.1352499427979
 20
-663.0416905321119
 30
0.0
 10
172.7367987503697
 20
-663.0080713552574
 30
0.0
 10
173.4302197044575
 20
-662.9743244088001
 30
0.0
 10
174.302699895154
 20
-662.9389397143077
 30
0.0
 10
175.4811251466084
 20
-662.9006074721607
 30
0.0
 10
176.9527810853072
 20
-662.8650572858025
 30
0.0
 10
178.7419495204539
 20
-662.8357196535684
 30
0.0
 10
180.2228393051158
 20
-662.820036901571
 30
0.0
 10
181.318842997793
 20
-662.8113916081713
 30
0.0
 10
181.980959880528
 20
-662.8069014581619
 30
0.0
 10
182.5354613762441
 20
-662.8037314339676
 30
0.0
 10
182.9294710270072
 20
-662.8016366217141
 30
0.0
 10
183.1615709265414
 20
-662.800494867678
 30
0.0
 10
183.3433471463657
 20
-662.7997459268442
 30
0.0
 10
183.5266266042857
 20
-662.7989394516494
 30
0.0
 10
183.7726170399932
 20
-662.7972058928754
 30
0.0
 10
184.0806108760734
 20
-662.7936637603802
 30
0.0
 10
184.4501823385557
 20
-662.7865149408848
 30
0.0
 10
184.8192187766907
 20
-662.7767287641376
 30
0.0
 10
185.1264972400898
 20
-662.7663653254742
 30
0.0
 10
185.3711917229897
 20
-662.7565548545114
 30
0.0
 10
185.5534935244262
 20
-662.7487518656367
 30
0.0
 10
185.7345906844047
 20
-662.7411061463369
 30
0.0
 10
186.0964936000945
 20
-662.7263575499587
 30
0.0
 10
186.6398067383651
 20
-662.7053368675699
 30
0.0
 10
187.6070701922375
 20
-662.6717483555733
 30
0.0
 10
189.0274693753648
 20
-662.6302573942137
 30
0.0
 10
191.3662321974619
 20
-662.5833542457344
 30
0.0
 10
193.2210736643072
 20
-662.5704973732431
 30
0.0
 10
194.3810956405976
 20
-662.5706466002704
 30
0.0
  0
SPLINE
  5
20B57
330
18
100
AcDbEntity
  8
01
100
AcDbSpline
210
0.0
220
0.0
230
1.0
 70
     8
 71
     3
 72
    46
 73
    42
 74
     0
 42
0.0000000001
 43
0.0000000001
 40
0.0
 40
0.0
 40
0.0
 40
0.0
 40
3.506758159459278
 40
5.007739836144732
 40
7.259454583658703
 40
7.821228445946343
 40
8.382538457047601
 40
8.662982524269629
 40
8.943719410188124
 40
9.228544097421027
 40
9.514149197727057
 40
9.937471694558595
 40
10.36124739322494
 40
10.57341739164576
 40
10.7849945101192
 40
10.99594528654776
 40
11.20456431356692
 40
11.62157008133392
 40
12.0388445717314
 40
12.4559786580955
 40
12.87306901620707
 40
13.70698089174469
 40
15.78990322602189
 40
18.2631402590464
 40
19.97379054834018
 40
20.99844642446429
 40
22.0034098825045
 40
22.97073096120222
 40
24.25829073174723
 40
24.90183261391716
 40
25.5467851032044
 40
26.19406244946404
 40
26.51863537382251
 40
27.0975659439741
 40
28.1152051545275
 40
29.39695678769221
 40
29.91463211715302
 40
30.43761734341119
 40
30.96639487021484
 40
31.97443019377982
 40
32.63495890505732
 40
32.63495890505732
 40
32.63495890505732
 40
32.63495890505732
 10
194.3810956405976
 20
-649.0720141022625
 30
0.0
 10
193.2121897821019
 20
-649.0721644721261
 30
0.0
 10
191.5429113749172
 20
-649.0604981962726
 30
0.0
 10
189.1236117566762
 20
-649.0150094132734
 30
0.0
 10
187.6861378166153
 20
-648.9742441211344
 30
0.0
 10
186.5620861309411
 20
-648.9342729877683
 30
0.0
 10
186.0946621969928
 20
-648.9161846187564
 30
0.0
 10
185.7208922853264
 20
-648.9010638483103
 30
0.0
 10
185.4391496043566
 20
-648.8889398555188
 30
0.0
 10
185.1557830663804
 20
-648.8773519580177
 30
0.0
 10
184.8248235599657
 20
-648.8661438840986
 30
0.0
 10
184.4474484666956
 20
-648.855939007369
 30
0.0
 10
184.0944284193864
 20
-648.8493254173931
 30
0.0
 10
183.8119312229022
 20
-648.8459185128078
 30
0.0
 10
183.6004031927472
 20
-648.8441587353332
 30
0.0
 10
183.3899844737951
 20
-648.8430661494955
 30
0.0
 10
183.1118780822697
 20
-648.8420008490025
 30
0.0
 10
182.7655404168112
 20
-648.8401483614154
 30
0.0
 10
182.3506367904182
 20
-648.83791393979
 30
0.0
 10
181.9368857513249
 20
-648.8354019693353
 30
0.0
 10
181.3869741952625
 20
-648.8317511008431
 30
0.0
 10
180.2938103588329
 20
-648.8233836652587
 30
0.0
 10
178.5543171530206
 20
-648.8050239857689
 30
0.0
 10
176.6110160229767
 20
-648.7712432209396
 30
0.0
 10
175.0839403268882
 20
-648.7301780103596
 30
0.0
 10
174.0386491467469
 20
-648.6935293904687
 30
0.0
 10
173.236295493676
 20
-648.659463553128
 30
0.0
 10
172.401804714082
 20
-648.6173881687967
 30
0.0
 10
171.7135717313839
 20
-648.5743889849709
 30
0.0
 10
171.1311749467062
 20
-648.5314275782712
 30
0.0
 10
170.7096462682015
 20
-648.4974965134831
 30
0.0
 10
170.3820016189796
 20
-648.4684420907167
 30
0.0
 10
170.086252365157
 20
-648.439920950344
 30
0.0
 10
169.742258621169
 20
-648.4038307511164
 30
0.0
 10
169.2726011247417
 20
-648.3467265794851
 30
0.0
 10
168.8901048302176
 20
-648.2897056712247
 30
0.0
 10
168.6290888860916
 20
-648.2446606411988
 30
0.0
 10
168.4817503338948
 20
-648.2168397680586
 30
0.0
 10
168.3224844012696
 20
-648.1838518570314
 30
0.0
 10
168.212648901101
 20
-648.1571688673727
 30
0.0
 10
168.1872180652916
 20
-648.1495838951866
 30
0.0
 10
168.1872169457682
 20
-648.1495876439185
 30
0.0
  0
ARC
  5
20B58
330
18
100
AcDbEntity
  8
01
100
AcDbCircle
 10
164.3810956405976
 20
-655.8213303512664
 30
0.0
 40
28.4999992121077
100
AcDbArc
 50
13.72148208240631
 51
346.2785214932952
  0
ARC
  5
20B5E
330
18
100
AcDbEntity
  8
01
100
AcDbCircle
 10
164.3810956405976
 20
-655.8213303512664
 30
0.0
 40
13.2000000000005
100
AcDbArc
 50
32.43646934687131
 51
327.5635287647511
  0
LINE
  5
21487
102
{ACAD_REACTORS
330
214AA
102
}
330
18
100
AcDbEntity
  8
01
100
AcDbLine
 10
755.3810948527053
 20
-618.5931567659845
 30
0.0
 11
755.3810948527053
 21
-693.0495039365482
 31
0.0
  0
LINE
  5
21488
102
{ACAD_REACTORS
330
214AA
102
}
330
18
100
AcDbEntity
  8
01
100
AcDbLine
 10
764.3810948527053
 20
-618.5931567659845
 30
0.0
 11
764.3810948527053
 21
-693.0495039365482
 31
0.0
  0
LINE
  5
21489
102
{ACAD_REACTORS
330
214AA
102
}
330
18
100
AcDbEntity
  8
01
100
AcDbLine
 10
742.8810948527053
 20
-618.5931567659845
 30
0.0
 11
742.8810948527053
 21
-693.0495039365482
 31
0.0
  0
LINE
  5
217DD
330
18
100
AcDbEntity
  8
01
100
AcDbLine
 10
586.415346338283
 20
-540.8213303512665
 30
0.0
 11
641.9861448830933
 21
-540.8213303512663
 31
0.0
  0
TEXT
  5
219B6
330
18
100
AcDbEntity
  8
01
100
AcDbText
 10
513.2355147827587
 20
-468.025441490976
 30
0.0
 40
8.0
  1
SC-661-X
100
AcDbText
  0
LINE
  5
22C2F
330
18
100
AcDbEntity
  8
01
100
AcDbLine
 10
164.3810956405976
 20
-669.0213303512669
 30
0.0
 11
164.3810956405976
 21
-687.8566963830137
 31
0.0
  0
LINE
  5
22C31
330
18
100
AcDbEntity
  8
01
100
AcDbLine
 10
614.3810956405981
 20
-669.0213303512669
 30
0.0
 11
614.3810956405981
 21
-687.8566963830137
 31
0.0
  0
LINE
  5
244E1
330
18
100
AcDbEntity
  8
01
100
AcDbLine
 10
727.332311759926
 20
-644.8246728666378
 30
0.0
 11
728.1810948527053
 21
-644.8246728648983
 31
0.0
  0
LINE
  5
244E2
330
18
100
AcDbEntity
  8
01
100
AcDbLine
 10
728.1810948527053
 20
-666.8179894326781
 30
0.0
 11
727.3323350645702
 21
-666.8179894326769
 31
0.0
  0
LINE
  5
2453F
330
18
100
AcDbEntity
  8
01
100
AcDbLine
 10
603.3844382411843
 20
-550.8213303512654
 30
0.0
 11
603.3844382405695
 21
-550.5213303512664
 31
0.0
  0
LINE
  5
24540
330
18
100
AcDbEntity
  8
01
100
AcDbLine
 10
625.3777548083493
 20
-550.5213303512664
 30
0.0
 11
625.3777548083489
 21
-550.8213303512654
 31
0.0
  0
LINE
  5
24541
330
18
100
AcDbEntity
  8
01
100
AcDbLine
 10
153.3844364927208
 20
-550.8213303512654
 30
0.0
 11
153.384436492106
 21
-550.5213303512664
 31
0.0
  0
LINE
  5
24542
330
18
100
AcDbEntity
  8
01
100
AcDbLine
 10
175.3777530598858
 20
-550.5213303512664
 30
0.0
 11
175.3777530598853
 21
-550.8213303512654
 31
0.0
  0
LINE
  5
24545
330
18
100
AcDbEntity
  8
01
370
    15
100
AcDbLine
 10
601.2310965148294
 20
-549.0213303512661
 30
0.0
 11
603.0196607118296
 21
-550.5213303512662
 31
0.0
  0
LINE
  5
24546
330
18
100
AcDbEntity
  8
01
370
    15
100
AcDbLine
 10
625.7425323178294
 20
-550.5213303512662
 30
0.0
 11
627.5310965148295
 21
-549.0213303512661
 31
0.0
  0
LINE
  5
24547
330
18
100
AcDbEntity
  8
01
370
    15
100
AcDbLine
 10
627.5310965148295
 20
-549.0213303512661
 30
0.0
 11
627.5310965148291
 21
-548.3213303512664
 31
0.0
  0
LINE
  5
24548
330
18
100
AcDbEntity
  8
01
370
    15
100
AcDbLine
 10
601.2310965148294
 20
-548.3213303512664
 30
0.0
 11
601.2310965148294
 21
-549.0213303512661
 31
0.0
  0
LINE
  5
24549
330
18
100
AcDbEntity
  8
01
370
    15
100
AcDbLine
 10
627.5310965148295
 20
-549.0213303512661
 30
0.0
 11
601.2310965148294
 21
-549.0213303512661
 31
0.0
  0
LINE
  5
2454A
330
18
100
AcDbEntity
  8
01
370
    15
100
AcDbLine
 10
625.7425323178294
 20
-550.5213303512662
 30
0.0
 11
603.0196607118296
 21
-550.5213303512662
 31
0.0
  0
LINE
  5
2454B
330
18
100
AcDbEntity
  8
01
370
    15
100
AcDbLine
 10
151.2310947663659
 20
-549.0213303512661
 30
0.0
 11
153.019658963366
 21
-550.5213303512662
 31
0.0
  0
LINE
  5
2454C
330
18
100
AcDbEntity
  8
01
370
    15
100
AcDbLine
 10
175.7425305693658
 20
-550.5213303512662
 30
0.0
 11
177.531094766366
 21
-549.0213303512661
 31
0.0
  0
LINE
  5
2454D
330
18
100
AcDbEntity
  8
01
370
    15
100
AcDbLine
 10
177.531094766366
 20
-549.0213303512661
 30
0.0
 11
177.5310947663655
 21
-548.3213303512664
 31
0.0
  0
LINE
  5
2454E
330
18
100
AcDbEntity
  8
01
370
    15
100
AcDbLine
 10
151.2310947663659
 20
-548.3213303512664
 30
0.0
 11
151.2310947663659
 21
-549.0213303512661
 31
0.0
  0
LINE
  5
2454F
330
18
100
AcDbEntity
  8
01
370
    15
100
AcDbLine
 10
177.531094766366
 20
-549.0213303512661
 30
0.0
 11
151.2310947663659
 21
-549.0213303512661
 31
0.0
  0
LINE
  5
24550
330
18
100
AcDbEntity
  8
01
370
    15
100
AcDbLine
 10
175.7425305693658
 20
-550.5213303512662
 30
0.0
 11
153.019658963366
 21
-550.5213303512662
 31
0.0
  0
LINE
  5
2479C
330
18
100
AcDbEntity
  8
01
100
AcDbLine
 10
771.3420013000692
 20
-674.8213301756386
 30
0.0
 11
735.2208713528844
 21
-674.8213301756386
 31
0.0
  0
LINE
  5
2479D
330
18
100
AcDbEntity
  8
01
100
AcDbLine
 10
771.3420013000692
 20
-636.8213304955979
 30
0.0
 11
735.1974140954007
 21
-636.8213304955979
 31
0.0
  0
LINE
  5
247B2
330
18
100
AcDbEntity
  8
01
100
AcDbLine
 10
614.3810956405981
 20
-543.2800977654334
 30
0.0
 11
614.3810956405981
 21
-504.5663617651358
 31
0.0
  0
LINE
  5
247B3
330
18
100
AcDbEntity
  8
01
370
    15
100
AcDbLine
 10
612.1311456666884
 20
-539.3213303512664
 30
0.0
 11
616.6311456666884
 21
-539.3213303512664
 31
0.0
  0
LINE
  5
247B4
330
18
100
AcDbEntity
  8
01
370
    15
100
AcDbLine
 10
612.1311456666884
 20
-539.3213303512664
 30
0.0
 11
616.6311456666884
 21
-539.3213303512664
 31
0.0
  0
LINE
  5
247B5
330
18
100
AcDbEntity
  8
01
370
    15
100
AcDbLine
 10
612.7040446574741
 20
-539.3213303512664
 30
0.0
 11
616.0581466237239
 21
-539.3213303512664
 31
0.0
  0
LINE
  5
247B6
330
18
100
AcDbEntity
  8
01
370
    15
100
AcDbLine
 10
612.1310956405981
 20
-539.3213303512664
 30
0.0
 11
616.6310956405981
 21
-539.3213303512664
 31
0.0
  0
LINE
  5
247B7
330
18
100
AcDbEntity
  8
01
370
    15
100
AcDbLine
 10
612.1311456666884
 20
-539.3213303512664
 30
0.0
 11
612.8811456666884
 21
-539.3213303512664
 31
0.0
  0
LINE
  5
247B8
330
18
100
AcDbEntity
  8
01
370
    15
100
AcDbLine
 10
613.8811398501951
 20
-539.3213303512664
 30
0.0
 11
616.6311456666884
 21
-539.3213303512664
 31
0.0
  0
LINE
  5
247B9
330
18
100
AcDbEntity
  8
01
100
AcDbLine
 10
614.3811456666884
 20
-505.3213303513207
 30
0.0
 11
612.8811456666884
 21
-510.6213268611822
 31
0.0
  0
LINE
  5
247BA
330
18
100
AcDbEntity
  8
01
100
AcDbLine
 10
612.8811456666884
 20
-510.6213268611821
 30
0.0
 11
612.8811456666884
 21
-539.3213303512664
 31
0.0
  0
LINE
  5
247BB
330
18
100
AcDbEntity
  8
01
100
AcDbLine
 10
612.8811456666884
 20
-539.3213303512664
 30
0.0
 11
612.8811456666884
 21
-540.3213268610739
 31
0.0
  0
LINE
  5
247BC
330
18
100
AcDbEntity
  8
01
100
AcDbLine
 10
614.3811456666884
 20
-505.3213303513207
 30
0.0
 11
615.8811456666884
 21
-510.6213338415659
 31
0.0
  0
LINE
  5
247BD
330
18
100
AcDbEntity
  8
01
100
AcDbLine
 10
610.8810991307895
 20
-540.3213222073757
 30
0.0
 11
612.8811456666884
 21
-540.3213268610739
 31
0.0
  0
LINE
  5
247BE
330
18
100
AcDbEntity
  8
01
100
AcDbLine
 10
615.8811456666884
 20
-510.6213338415657
 30
0.0
 11
615.8811456666884
 21
-539.3213303512664
 31
0.0
  0
LINE
  5
247BF
330
18
100
AcDbEntity
  8
01
100
AcDbLine
 10
615.8811456666866
 20
-539.3213303512664
 30
0.0
 11
615.8811456666884
 21
-540.3213338414587
 31
0.0
  0
LINE
  5
247C0
330
18
100
AcDbEntity
  8
01
100
AcDbLine
 10
610.8810991307895
 20
-540.3213222073757
 30
0.0
 11
610.8810991307895
 21
-541.4213256975711
 31
0.0
  0
LINE
  5
247C1
330
18
100
AcDbEntity
  8
01
100
AcDbLine
 10
615.8811456666884
 20
-540.3213338414587
 30
0.0
 11
617.8810991307894
 21
-540.3213384949402
 31
0.0
  0
ARC
  5
247C2
330
18
100
AcDbEntity
  8
01
100
AcDbCircle
 10
612.3810991307895
 20
-541.4213256975711
 30
0.0
 40
1.5
100
AcDbArc
 50
180.0
 51
269.9998666844749
  0
LINE
  5
247C3
330
18
100
AcDbEntity
  8
01
100
AcDbLine
 10
617.8810991307894
 20
-540.3213384949402
 30
0.0
 11
617.8810991307894
 21
-541.4213350047507
 31
0.0
  0
LINE
  5
247C4
330
18
100
AcDbEntity
  8
01
100
AcDbLine
 10
612.3810956405981
 20
-542.9213256975669
 30
0.0
 11
616.3810956405981
 21
-542.9213350047466
 31
0.0
  0
ARC
  5
247C5
330
18
100
AcDbEntity
  8
01
100
AcDbCircle
 10
616.3810991307895
 20
-541.4213350047507
 30
0.0
 40
1.5
100
AcDbArc
 50
269.9998666844749
 51
0.0
  0
LINE
  5
247C6
330
18
100
AcDbEntity
  8
01
100
AcDbLine
 10
613.2867753167942
 20
-507.421327804998
 30
0.0
 11
615.2491104056702
 21
-506.6213323709473
 31
0.0
  0
LINE
  5
247C7
330
18
100
AcDbEntity
  8
01
100
AcDbLine
 10
615.2491104056702
 20
-506.6213323709473
 30
0.0
 11
614.6608338306272
 21
-506.3095625146949
 31
0.0
  0
LINE
  5
247C8
330
18
100
AcDbEntity
  8
01
100
AcDbLine
 10
612.3811456666884
 20
-534.8213256977881
 30
0.0
 11
616.3811456666884
 21
-534.02133500497
 31
0.0
  0
LINE
  5
247C9
330
18
100
AcDbEntity
  8
01
100
AcDbLine
 10
612.3811456666884
 20
-523.6213256977837
 30
0.0
 11
616.3811456666884
 21
-522.8213350049611
 31
0.0
  0
LINE
  5
247CA
330
18
100
AcDbEntity
  8
01
100
AcDbLine
 10
612.3811456666884
 20
-515.4213256977839
 30
0.0
 11
616.3811456666884
 21
-514.6213350049613
 31
0.0
  0
LINE
  5
247CB
330
18
100
AcDbEntity
  8
01
100
AcDbLine
 10
616.3811456666884
 20
-514.6213350049613
 30
0.0
 11
615.8811456666884
 21
-514.521333841564
 31
0.0
  0
LINE
  5
247CC
330
18
100
AcDbEntity
  8
01
100
AcDbLine
 10
612.8811456666884
 20
-513.9213268611809
 30
0.0
 11
612.3811456666884
 21
-513.8213256977837
 31
0.0
  0
LINE
  5
247CD
330
18
100
AcDbEntity
  8
01
100
AcDbLine
 10
616.3811456666884
 20
-522.8213350049611
 30
0.0
 11
615.8811456666884
 21
-522.721333841564
 31
0.0
  0
LINE
  5
247CE
330
18
100
AcDbEntity
  8
01
100
AcDbLine
 10
616.3811456666884
 20
-516.2213350049612
 30
0.0
 11
615.8811456666884
 21
-516.1213338415639
 31
0.0
  0
LINE
  5
247CF
330
18
100
AcDbEntity
  8
01
100
AcDbLine
 10
612.8811456666884
 20
-515.5213268611808
 30
0.0
 11
612.3811456666884
 21
-515.4213256977839
 31
0.0
  0
LINE
  5
247D0
330
18
100
AcDbEntity
  8
01
100
AcDbLine
 10
612.8811456666884
 20
-517.1213268611807
 30
0.0
 11
612.3811456666884
 21
-517.0213256977838
 31
0.0
  0
LINE
  5
247D1
330
18
100
AcDbEntity
  8
01
100
AcDbLine
 10
612.3811456666884
 20
-517.0213256977838
 30
0.0
 11
616.3811456666884
 21
-516.2213350049612
 31
0.0
  0
LINE
  5
247D2
330
18
100
AcDbEntity
  8
01
100
AcDbLine
 10
615.7019245100768
 20
-508.2213334245527
 30
0.0
 11
615.1501750462743
 21
-508.0385692819247
 31
0.0
  0
LINE
  5
247D3
330
18
100
AcDbEntity
  8
01
100
AcDbLine
 10
616.3811456666884
 20
-511.421335004961
 30
0.0
 11
615.8811456666884
 21
-511.3213338415642
 31
0.0
  0
LINE
  5
247D4
330
18
100
AcDbEntity
  8
01
100
AcDbLine
 10
616.3811456666884
 20
-513.0213350049611
 30
0.0
 11
615.8811456666884
 21
-512.9213338415641
 31
0.0
  0
LINE
  5
247D5
330
18
100
AcDbEntity
  8
01
100
AcDbLine
 10
616.1547386144833
 20
-509.8213344781586
 30
0.0
 11
615.6181448792144
 21
-509.6920637805285
 31
0.0
  0
LINE
  5
247D6
330
18
100
AcDbEntity
  8
01
100
AcDbLine
 10
613.3020602638975
 20
-509.1340962637438
 30
0.0
 11
612.8339618087469
 21
-509.0213267513938
 31
0.0
  0
LINE
  5
247D7
330
18
100
AcDbEntity
  8
01
100
AcDbLine
 10
612.8811456666884
 20
-512.3213268611809
 30
0.0
 11
612.3811456666884
 21
-512.2213256977836
 31
0.0
  0
LINE
  5
247D8
330
18
100
AcDbEntity
  8
01
100
AcDbLine
 10
612.8811456666884
 20
-510.721326861181
 30
0.0
 11
612.3811456666884
 21
-510.6213256977837
 31
0.0
  0
LINE
  5
247D9
330
18
100
AcDbEntity
  8
01
100
AcDbLine
 10
613.7439471574274
 20
-507.5727636014387
 30
0.0
 11
613.2867753167942
 21
-507.421327804998
 31
0.0
  0
LINE
  5
247DA
330
18
100
AcDbEntity
  8
01
100
AcDbLine
 10
612.8339618087469
 20
-509.0213267513938
 30
0.0
 11
615.7019245100768
 21
-508.2213334245527
 31
0.0
  0
LINE
  5
247DB
330
18
100
AcDbEntity
  8
01
100
AcDbLine
 10
612.3811456666884
 20
-512.2213256977836
 30
0.0
 11
616.3811456666884
 21
-511.421335004961
 31
0.0
  0
LINE
  5
247DC
330
18
100
AcDbEntity
  8
01
100
AcDbLine
 10
612.3811456666884
 20
-510.6213256977837
 30
0.0
 11
616.1547386144833
 21
-509.8213344781586
 31
0.0
  0
LINE
  5
247DD
330
18
100
AcDbEntity
  8
01
100
AcDbLine
 10
612.3811456666884
 20
-513.8213256977837
 30
0.0
 11
616.3811456666884
 21
-513.0213350049611
 31
0.0
  0
LINE
  5
247DE
330
18
100
AcDbEntity
  8
01
100
AcDbLine
 10
612.3811456666884
 20
-531.6213256977882
 30
0.0
 11
616.3811456666884
 21
-530.8213350049697
 31
0.0
  0
LINE
  5
247DF
330
18
100
AcDbEntity
  8
01
100
AcDbLine
 10
616.3811456666884
 20
-530.8213350049697
 30
0.0
 11
615.8811456666884
 21
-530.7213338415722
 31
0.0
  0
LINE
  5
247E0
330
18
100
AcDbEntity
  8
01
100
AcDbLine
 10
612.8811456666884
 20
-530.1213268611816
 30
0.0
 11
612.3811456666884
 21
-530.0213256977838
 31
0.0
  0
LINE
  5
247E1
330
18
100
AcDbEntity
  8
01
100
AcDbLine
 10
616.3811456666884
 20
-532.4213350049701
 30
0.0
 11
615.8811456666884
 21
-532.3213338415723
 31
0.0
  0
LINE
  5
247E2
330
18
100
AcDbEntity
  8
01
100
AcDbLine
 10
616.3811456666884
 20
-534.02133500497
 30
0.0
 11
615.8811456666884
 21
-533.9213338415722
 31
0.0
  0
LINE
  5
247E3
330
18
100
AcDbEntity
  8
01
100
AcDbLine
 10
612.8811456666884
 20
-531.7213268611858
 30
0.0
 11
612.3811456666884
 21
-531.6213256977882
 31
0.0
  0
LINE
  5
247E4
330
18
100
AcDbEntity
  8
01
100
AcDbLine
 10
612.8811456666884
 20
-533.3213268611859
 30
0.0
 11
612.3811456666884
 21
-533.2213256977881
 31
0.0
  0
LINE
  5
247E5
330
18
100
AcDbEntity
  8
01
100
AcDbLine
 10
612.3811456666884
 20
-533.2213256977881
 30
0.0
 11
616.3811456666884
 21
-532.4213350049701
 31
0.0
  0
LINE
  5
247E6
330
18
100
AcDbEntity
  8
01
100
AcDbLine
 10
616.3811456666884
 20
-526.0213350049655
 30
0.0
 11
615.8811456666884
 21
-525.9213338415677
 31
0.0
  0
LINE
  5
247E7
330
18
100
AcDbEntity
  8
01
100
AcDbLine
 10
616.3811456666884
 20
-524.421335004961
 30
0.0
 11
615.8811456666884
 21
-524.3213338415642
 31
0.0
  0
LINE
  5
247E8
330
18
100
AcDbEntity
  8
01
100
AcDbLine
 10
616.3811456666884
 20
-529.2213350049656
 30
0.0
 11
615.8811456666884
 21
-529.121333841568
 31
0.0
  0
LINE
  5
247E9
330
18
100
AcDbEntity
  8
01
100
AcDbLine
 10
616.3811456666884
 20
-527.6213350049657
 30
0.0
 11
615.8811456666884
 21
-527.5213338415681
 31
0.0
  0
LINE
  5
247EA
330
18
100
AcDbEntity
  8
01
100
AcDbLine
 10
612.8811456666884
 20
-523.721326861181
 30
0.0
 11
612.3811456666884
 21
-523.6213256977837
 31
0.0
  0
LINE
  5
247EB
330
18
100
AcDbEntity
  8
01
100
AcDbLine
 10
612.8811456666884
 20
-525.3213268611814
 30
0.0
 11
612.3811456666884
 21
-525.2213256977836
 31
0.0
  0
LINE
  5
247EC
330
18
100
AcDbEntity
  8
01
100
AcDbLine
 10
612.8811456666884
 20
-528.5213268611816
 30
0.0
 11
612.3811456666884
 21
-528.4213256977839
 31
0.0
  0
LINE
  5
247ED
330
18
100
AcDbEntity
  8
01
100
AcDbLine
 10
612.8811456666884
 20
-526.9213268611813
 30
0.0
 11
612.3811456666884
 21
-526.8213256977837
 31
0.0
  0
LINE
  5
247EE
330
18
100
AcDbEntity
  8
01
100
AcDbLine
 10
612.3811456666884
 20
-526.8213256977837
 30
0.0
 11
616.3811456666884
 21
-526.0213350049655
 31
0.0
  0
LINE
  5
247EF
330
18
100
AcDbEntity
  8
01
100
AcDbLine
 10
612.3811456666884
 20
-525.2213256977836
 30
0.0
 11
616.3811456666884
 21
-524.421335004961
 31
0.0
  0
LINE
  5
247F0
330
18
100
AcDbEntity
  8
01
100
AcDbLine
 10
612.3811456666884
 20
-528.4213256977839
 30
0.0
 11
616.3811456666884
 21
-527.6213350049657
 31
0.0
  0
LINE
  5
247F1
330
18
100
AcDbEntity
  8
01
100
AcDbLine
 10
612.3811456666884
 20
-530.0213256977838
 30
0.0
 11
616.3811456666884
 21
-529.2213350049656
 31
0.0
  0
LINE
  5
247F2
330
18
100
AcDbEntity
  8
01
100
AcDbLine
 10
615.8811456666884
 20
-540.3213338414587
 30
0.0
 11
612.8811456666884
 21
-540.3213268610739
 31
0.0
  0
LINE
  5
247F3
330
18
100
AcDbEntity
  8
01
100
AcDbLine
 10
612.8811456666884
 20
-534.9213268611858
 30
0.0
 11
612.3811456666884
 21
-534.8213256977881
 31
0.0
  0
LINE
  5
247F4
330
18
100
AcDbEntity
  8
01
100
AcDbLine
 10
612.3811456666884
 20
-522.0213256977838
 30
0.0
 11
616.3811456666884
 21
-521.2213350049612
 31
0.0
  0
LINE
  5
247F5
330
18
100
AcDbEntity
  8
01
100
AcDbLine
 10
616.3811456666884
 20
-521.2213350049612
 30
0.0
 11
615.8811456666884
 21
-521.1213338415641
 31
0.0
  0
LINE
  5
247F6
330
18
100
AcDbEntity
  8
01
100
AcDbLine
 10
612.8811456666884
 20
-522.1213268611811
 30
0.0
 11
612.3811456666884
 21
-522.0213256977838
 31
0.0
  0
LINE
  5
247F7
330
18
100
AcDbEntity
  8
01
100
AcDbLine
 10
612.3811456666884
 20
-520.4213256977839
 30
0.0
 11
616.3811456666884
 21
-519.6213350049613
 31
0.0
  0
LINE
  5
247F8
330
18
100
AcDbEntity
  8
01
100
AcDbLine
 10
616.3811456666884
 20
-519.6213350049613
 30
0.0
 11
615.8811456666884
 21
-519.5213338415642
 31
0.0
  0
LINE
  5
247F9
330
18
100
AcDbEntity
  8
01
100
AcDbLine
 10
612.8811456666884
 20
-520.5213268611812
 30
0.0
 11
612.3811456666884
 21
-520.4213256977839
 31
0.0
  0
LINE
  5
247FA
330
18
100
AcDbEntity
  8
01
100
AcDbLine
 10
612.3811456666884
 20
-518.821325697784
 30
0.0
 11
616.3811456666884
 21
-518.0213350049614
 31
0.0
  0
LINE
  5
247FB
330
18
100
AcDbEntity
  8
01
100
AcDbLine
 10
616.3811456666884
 20
-518.0213350049614
 30
0.0
 11
615.8811456666884
 21
-517.9213338415642
 31
0.0
  0
LINE
  5
247FC
330
18
100
AcDbEntity
  8
01
100
AcDbLine
 10
612.8811456666884
 20
-518.9213268611813
 30
0.0
 11
612.3811456666884
 21
-518.821325697784
 31
0.0
  0
LINE
  5
247FD
330
18
100
AcDbEntity
  8
01
100
AcDbLine
 10
610.5811456666873
 20
-540.3213303512663
 30
0.0
 11
618.1811456666895
 21
-540.3213303512663
 31
0.0
  0
LINE
  5
247FE
330
18
100
AcDbEntity
  8
01
100
AcDbLine
 10
618.1811456666895
 20
-540.3213303512663
 30
0.0
 11
618.1811456666895
 21
-539.3213303512664
 31
0.0
  0
LINE
  5
247FF
330
18
100
AcDbEntity
  8
01
100
AcDbLine
 10
610.5811456666873
 20
-539.3213303512664
 30
0.0
 11
610.5811456666873
 21
-540.3213303512663
 31
0.0
  0
LINE
  5
24800
330
18
100
AcDbEntity
  8
01
100
AcDbLine
 10
612.3811456666884
 20
-536.421325697788
 30
0.0
 11
616.3811456666884
 21
-535.6213350049699
 31
0.0
  0
LINE
  5
24801
330
18
100
AcDbEntity
  8
01
100
AcDbLine
 10
616.3811456666884
 20
-535.6213350049699
 30
0.0
 11
615.8811456666884
 21
-535.5213338415722
 31
0.0
  0
LINE
  5
24802
330
18
100
AcDbEntity
  8
01
100
AcDbLine
 10
612.8811456666884
 20
-536.5213268611857
 30
0.0
 11
612.3811456666884
 21
-536.421325697788
 31
0.0
  0
LINE
  5
24803
330
18
100
AcDbEntity
  8
01
100
AcDbLine
 10
612.3811456666884
 20
-538.0213256977879
 30
0.0
 11
616.3811456666884
 21
-537.2213350049698
 31
0.0
  0
LINE
  5
24804
330
18
100
AcDbEntity
  8
01
100
AcDbLine
 10
616.3811456666884
 20
-537.2213350049698
 30
0.0
 11
615.8811456666884
 21
-537.1213338415721
 31
0.0
  0
LINE
  5
24805
330
18
100
AcDbEntity
  8
01
100
AcDbLine
 10
612.8811456666884
 20
-538.1213268611857
 30
0.0
 11
612.3811456666884
 21
-538.0213256977879
 31
0.0
  0
LINE
  5
24806
330
18
100
AcDbEntity
  8
01
100
AcDbLine
 10
612.3811456666884
 20
-539.6213256977878
 30
0.0
 11
616.3811456666884
 21
-538.8213350049698
 31
0.0
  0
LINE
  5
24807
330
18
100
AcDbEntity
  8
01
100
AcDbLine
 10
616.3811456666884
 20
-538.8213350049698
 30
0.0
 11
615.8811456666884
 21
-538.721333841572
 31
0.0
  0
LINE
  5
24808
330
18
100
AcDbEntity
  8
01
100
AcDbLine
 10
612.8811456666884
 20
-539.7213268611856
 30
0.0
 11
612.3811456666884
 21
-539.6213256977878
 31
0.0
  0
LINE
  5
24809
330
18
100
AcDbEntity
  8
01
100
AcDbLine
 10
610.5811456666873
 20
-539.3213303512664
 30
0.0
 11
618.1811456666895
 21
-539.3213303512664
 31
0.0
  0
LINE
  5
2480A
330
18
100
AcDbEntity
  8
01
370
    15
100
AcDbLine
 10
739.3810948527053
 20
-672.5713802017289
 30
0.0
 11
739.3810948527053
 21
-677.0713802017289
 31
0.0
  0
LINE
  5
2480B
330
18
100
AcDbEntity
  8
01
370
    15
100
AcDbLine
 10
739.3810948527053
 20
-672.5713802017289
 30
0.0
 11
739.3810948527053
 21
-677.0713802017289
 31
0.0
  0
LINE
  5
2480C
330
18
100
AcDbEntity
  8
01
370
    15
100
AcDbLine
 10
739.3810948527053
 20
-673.1442791925147
 30
0.0
 11
739.3810948527053
 21
-676.4983811587645
 31
0.0
  0
LINE
  5
2480D
330
18
100
AcDbEntity
  8
01
370
    15
100
AcDbLine
 10
739.3810948527053
 20
-672.5713301756386
 30
0.0
 11
739.3810948527053
 21
-677.0713301756386
 31
0.0
  0
LINE
  5
2480E
330
18
100
AcDbEntity
  8
01
370
    15
100
AcDbLine
 10
739.3810948527053
 20
-672.5713802017289
 30
0.0
 11
739.3810948527053
 21
-673.321380201729
 31
0.0
  0
LINE
  5
2480F
330
18
100
AcDbEntity
  8
01
370
    15
100
AcDbLine
 10
739.3810948527053
 20
-674.3213743852357
 30
0.0
 11
739.3810948527053
 21
-677.0713802017289
 31
0.0
  0
LINE
  5
24810
330
18
100
AcDbEntity
  8
01
100
AcDbLine
 10
773.3810948526512
 20
-674.8213802017289
 30
0.0
 11
768.0810983427897
 21
-673.321380201729
 31
0.0
  0
LINE
  5
24811
330
18
100
AcDbEntity
  8
01
100
AcDbLine
 10
768.0810983427897
 20
-673.321380201729
 30
0.0
 11
739.3810948527053
 21
-673.321380201729
 31
0.0
  0
LINE
  5
24812
330
18
100
AcDbEntity
  8
01
100
AcDbLine
 10
739.3810948527053
 20
-673.321380201729
 30
0.0
 11
738.3810983428978
 21
-673.321380201729
 31
0.0
  0
LINE
  5
24813
330
18
100
AcDbEntity
  8
01
100
AcDbLine
 10
773.3810948526512
 20
-674.8213802017289
 30
0.0
 11
768.081091362406
 21
-676.321380201729
 31
0.0
  0
LINE
  5
24814
330
18
100
AcDbEntity
  8
01
100
AcDbLine
 10
738.381102996596
 20
-671.32133366583
 30
0.0
 11
738.3810983428978
 21
-673.321380201729
 31
0.0
  0
LINE
  5
24815
330
18
100
AcDbEntity
  8
01
100
AcDbLine
 10
768.081091362406
 20
-676.321380201729
 30
0.0
 11
739.3810948527053
 21
-676.321380201729
 31
0.0
  0
LINE
  5
24816
330
18
100
AcDbEntity
  8
01
100
AcDbLine
 10
739.3810948527053
 20
-676.3213802017271
 30
0.0
 11
738.381091362513
 21
-676.321380201729
 31
0.0
  0
LINE
  5
24817
330
18
100
AcDbEntity
  8
01
100
AcDbLine
 10
738.381102996596
 20
-671.32133366583
 30
0.0
 11
737.2810995064006
 21
-671.32133366583
 31
0.0
  0
LINE
  5
24818
330
18
100
AcDbEntity
  8
01
100
AcDbLine
 10
738.381091362513
 20
-676.321380201729
 30
0.0
 11
738.3810867090316
 21
-678.32133366583
 31
0.0
  0
ARC
  5
24819
330
18
100
AcDbEntity
  8
01
100
AcDbCircle
 10
737.2810995064006
 20
-672.82133366583
 30
0.0
 40
1.5
100
AcDbArc
 50
90.0
 51
179.9998666844749
  0
LINE
  5
2481A
330
18
100
AcDbEntity
  8
01
100
AcDbLine
 10
738.3810867090316
 20
-678.32133366583
 30
0.0
 11
737.281090199221
 21
-678.32133366583
 31
0.0
  0
LINE
  5
2481B
330
18
100
AcDbEntity
  8
01
100
AcDbLine
 10
735.7810995064047
 20
-672.8213301756386
 30
0.0
 11
735.7810901992251
 21
-676.8213301756386
 31
0.0
  0
ARC
  5
2481C
330
18
100
AcDbEntity
  8
01
100
AcDbCircle
 10
737.281090199221
 20
-676.82133366583
 30
0.0
 40
1.5
100
AcDbArc
 50
179.9998666844749
 51
270.0
  0
LINE
  5
2481D
330
18
100
AcDbEntity
  8
01
100
AcDbLine
 10
771.2810973989737
 20
-673.7270098518347
 30
0.0
 11
772.0810928330243
 21
-675.6893449407107
 31
0.0
  0
LINE
  5
2481E
330
18
100
AcDbEntity
  8
01
100
AcDbLine
 10
772.0810928330243
 20
-675.6893449407107
 30
0.0
 11
772.3928626892767
 21
-675.1010683656677
 31
0.0
  0
LINE
  5
2481F
330
18
100
AcDbEntity
  8
01
100
AcDbLine
 10
743.8810995061836
 20
-672.821380201729
 30
0.0
 11
744.6810901990017
 21
-676.821380201729
 31
0.0
  0
LINE
  5
24820
330
18
100
AcDbEntity
  8
01
100
AcDbLine
 10
755.081099506188
 20
-672.821380201729
 30
0.0
 11
755.8810901990105
 21
-676.821380201729
 31
0.0
  0
LINE
  5
24821
330
18
100
AcDbEntity
  8
01
100
AcDbLine
 10
763.2810995061878
 20
-672.821380201729
 30
0.0
 11
764.0810901990104
 21
-676.821380201729
 31
0.0
  0
LINE
  5
24822
330
18
100
AcDbEntity
  8
01
100
AcDbLine
 10
764.0810901990104
 20
-676.821380201729
 30
0.0
 11
764.1810913624077
 21
-676.321380201729
 31
0.0
  0
LINE
  5
24823
330
18
100
AcDbEntity
  8
01
100
AcDbLine
 10
764.7810983427908
 20
-673.321380201729
 30
0.0
 11
764.881099506188
 21
-672.821380201729
 31
0.0
  0
LINE
  5
24824
330
18
100
AcDbEntity
  8
01
100
AcDbLine
 10
755.8810901990105
 20
-676.821380201729
 30
0.0
 11
755.9810913624077
 21
-676.321380201729
 31
0.0
  0
LINE
  5
24825
330
18
100
AcDbEntity
  8
01
100
AcDbLine
 10
762.4810901990104
 20
-676.821380201729
 30
0.0
 11
762.5810913624079
 21
-676.321380201729
 31
0.0
  0
LINE
  5
24826
330
18
100
AcDbEntity
  8
01
100
AcDbLine
 10
763.1810983427909
 20
-673.321380201729
 30
0.0
 11
763.2810995061878
 21
-672.821380201729
 31
0.0
  0
LINE
  5
24827
330
18
100
AcDbEntity
  8
01
100
AcDbLine
 10
761.581098342791
 20
-673.321380201729
 30
0.0
 11
761.6810995061879
 21
-672.821380201729
 31
0.0
  0
LINE
  5
24828
330
18
100
AcDbEntity
  8
01
100
AcDbLine
 10
761.6810995061879
 20
-672.821380201729
 30
0.0
 11
762.4810901990104
 21
-676.821380201729
 31
0.0
  0
LINE
  5
24829
330
18
100
AcDbEntity
  8
01
100
AcDbLine
 10
770.481091779419
 20
-676.1421590451172
 30
0.0
 11
770.6638559220469
 21
-675.5904095813148
 31
0.0
  0
LINE
  5
2482A
330
18
100
AcDbEntity
  8
01
100
AcDbLine
 10
767.2810901990106
 20
-676.821380201729
 30
0.0
 11
767.3810913624075
 21
-676.321380201729
 31
0.0
  0
LINE
  5
2482B
330
18
100
AcDbEntity
  8
01
100
AcDbLine
 10
765.6810901990105
 20
-676.821380201729
 30
0.0
 11
765.7810913624076
 21
-676.321380201729
 31
0.0
  0
LINE
  5
2482C
330
18
100
AcDbEntity
  8
01
100
AcDbLine
 10
768.881090725813
 20
-676.5949731495238
 30
0.0
 11
769.0103614234431
 21
-676.0583794142548
 31
0.0
  0
LINE
  5
2482D
330
18
100
AcDbEntity
  8
01
100
AcDbLine
 10
769.5683289402278
 20
-673.7422947989379
 30
0.0
 11
769.6810984525779
 21
-673.2741963437875
 31
0.0
  0
LINE
  5
2482E
330
18
100
AcDbEntity
  8
01
100
AcDbLine
 10
766.3810983427907
 20
-673.321380201729
 30
0.0
 11
766.4810995061881
 21
-672.821380201729
 31
0.0
  0
LINE
  5
2482F
330
18
100
AcDbEntity
  8
01
100
AcDbLine
 10
767.9810983427906
 20
-673.321380201729
 30
0.0
 11
768.081099506188
 21
-672.821380201729
 31
0.0
  0
LINE
  5
24830
330
18
100
AcDbEntity
  8
01
100
AcDbLine
 10
771.129661602533
 20
-674.1841816924679
 30
0.0
 11
771.2810973989737
 21
-673.7270098518347
 31
0.0
  0
LINE
  5
24831
330
18
100
AcDbEntity
  8
01
100
AcDbLine
 10
769.6810984525779
 20
-673.2741963437875
 30
0.0
 11
770.481091779419
 21
-676.1421590451172
 31
0.0
  0
LINE
  5
24832
330
18
100
AcDbEntity
  8
01
100
AcDbLine
 10
766.4810995061881
 20
-672.821380201729
 30
0.0
 11
767.2810901990106
 21
-676.821380201729
 31
0.0
  0
LINE
  5
24833
330
18
100
AcDbEntity
  8
01
100
AcDbLine
 10
768.081099506188
 20
-672.821380201729
 30
0.0
 11
768.881090725813
 21
-676.5949731495238
 31
0.0
  0
LINE
  5
24834
330
18
100
AcDbEntity
  8
01
100
AcDbLine
 10
764.881099506188
 20
-672.821380201729
 30
0.0
 11
765.6810901990105
 21
-676.821380201729
 31
0.0
  0
LINE
  5
24835
330
18
100
AcDbEntity
  8
01
100
AcDbLine
 10
747.0810995061834
 20
-672.821380201729
 30
0.0
 11
747.8810901990019
 21
-676.821380201729
 31
0.0
  0
LINE
  5
24836
330
18
100
AcDbEntity
  8
01
100
AcDbLine
 10
747.8810901990019
 20
-676.821380201729
 30
0.0
 11
747.9810913623995
 21
-676.321380201729
 31
0.0
  0
LINE
  5
24837
330
18
100
AcDbEntity
  8
01
100
AcDbLine
 10
748.5810983427901
 20
-673.321380201729
 30
0.0
 11
748.6810995061879
 21
-672.821380201729
 31
0.0
  0
LINE
  5
24838
330
18
100
AcDbEntity
  8
01
100
AcDbLine
 10
746.2810901990016
 20
-676.821380201729
 30
0.0
 11
746.3810913623993
 21
-676.321380201729
 31
0.0
  0
LINE
  5
24839
330
18
100
AcDbEntity
  8
01
100
AcDbLine
 10
744.6810901990017
 20
-676.821380201729
 30
0.0
 11
744.7810913623994
 21
-676.321380201729
 31
0.0
  0
LINE
  5
2483A
330
18
100
AcDbEntity
  8
01
100
AcDbLine
 10
746.9810983427858
 20
-673.321380201729
 30
0.0
 11
747.0810995061834
 21
-672.821380201729
 31
0.0
  0
LINE
  5
2483B
330
18
100
AcDbEntity
  8
01
100
AcDbLine
 10
745.3810983427858
 20
-673.321380201729
 30
0.0
 11
745.4810995061835
 21
-672.821380201729
 31
0.0
  0
LINE
  5
2483C
330
18
100
AcDbEntity
  8
01
100
AcDbLine
 10
745.4810995061835
 20
-672.821380201729
 30
0.0
 11
746.2810901990016
 21
-676.821380201729
 31
0.0
  0
LINE
  5
2483D
330
18
100
AcDbEntity
  8
01
100
AcDbLine
 10
752.6810901990062
 20
-676.821380201729
 30
0.0
 11
752.781091362404
 21
-676.321380201729
 31
0.0
  0
LINE
  5
2483E
330
18
100
AcDbEntity
  8
01
100
AcDbLine
 10
754.2810901990106
 20
-676.821380201729
 30
0.0
 11
754.3810913624075
 21
-676.321380201729
 31
0.0
  0
LINE
  5
2483F
330
18
100
AcDbEntity
  8
01
100
AcDbLine
 10
749.4810901990062
 20
-676.821380201729
 30
0.0
 11
749.5810913624037
 21
-676.321380201729
 31
0.0
  0
LINE
  5
24840
330
18
100
AcDbEntity
  8
01
100
AcDbLine
 10
751.0810901990061
 20
-676.821380201729
 30
0.0
 11
751.1810913624036
 21
-676.321380201729
 31
0.0
  0
LINE
  5
24841
330
18
100
AcDbEntity
  8
01
100
AcDbLine
 10
754.9810983427907
 20
-673.321380201729
 30
0.0
 11
755.081099506188
 21
-672.821380201729
 31
0.0
  0
LINE
  5
24842
330
18
100
AcDbEntity
  8
01
100
AcDbLine
 10
753.3810983427903
 20
-673.321380201729
 30
0.0
 11
753.4810995061881
 21
-672.821380201729
 31
0.0
  0
LINE
  5
24843
330
18
100
AcDbEntity
  8
01
100
AcDbLine
 10
750.18109834279
 20
-673.321380201729
 30
0.0
 11
750.2810995061878
 21
-672.821380201729
 31
0.0
  0
LINE
  5
24844
330
18
100
AcDbEntity
  8
01
100
AcDbLine
 10
751.7810983427904
 20
-673.321380201729
 30
0.0
 11
751.881099506188
 21
-672.821380201729
 31
0.0
  0
LINE
  5
24845
330
18
100
AcDbEntity
  8
01
100
AcDbLine
 10
751.881099506188
 20
-672.821380201729
 30
0.0
 11
752.6810901990062
 21
-676.821380201729
 31
0.0
  0
LINE
  5
24846
330
18
100
AcDbEntity
  8
01
100
AcDbLine
 10
753.4810995061881
 20
-672.821380201729
 30
0.0
 11
754.2810901990106
 21
-676.821380201729
 31
0.0
  0
LINE
  5
24847
330
18
100
AcDbEntity
  8
01
100
AcDbLine
 10
750.2810995061878
 20
-672.821380201729
 30
0.0
 11
751.0810901990061
 21
-676.821380201729
 31
0.0
  0
LINE
  5
24848
330
18
100
AcDbEntity
  8
01
100
AcDbLine
 10
748.6810995061879
 20
-672.821380201729
 30
0.0
 11
749.4810901990062
 21
-676.821380201729
 31
0.0
  0
LINE
  5
24849
330
18
100
AcDbEntity
  8
01
100
AcDbLine
 10
738.381091362513
 20
-676.321380201729
 30
0.0
 11
738.3810983428978
 21
-673.321380201729
 31
0.0
  0
LINE
  5
2484A
330
18
100
AcDbEntity
  8
01
100
AcDbLine
 10
743.7810983427858
 20
-673.321380201729
 30
0.0
 11
743.8810995061836
 21
-672.821380201729
 31
0.0
  0
LINE
  5
2484B
330
18
100
AcDbEntity
  8
01
100
AcDbLine
 10
756.6810995061879
 20
-672.821380201729
 30
0.0
 11
757.4810901990105
 21
-676.821380201729
 31
0.0
  0
LINE
  5
2484C
330
18
100
AcDbEntity
  8
01
100
AcDbLine
 10
757.4810901990105
 20
-676.821380201729
 30
0.0
 11
757.5810913624076
 21
-676.321380201729
 31
0.0
  0
LINE
  5
2484D
330
18
100
AcDbEntity
  8
01
100
AcDbLine
 10
756.5810983427906
 20
-673.321380201729
 30
0.0
 11
756.6810995061879
 21
-672.821380201729
 31
0.0
  0
LINE
  5
2484E
330
18
100
AcDbEntity
  8
01
100
AcDbLine
 10
758.2810995061878
 20
-672.821380201729
 30
0.0
 11
759.0810901990104
 21
-676.821380201729
 31
0.0
  0
LINE
  5
2484F
330
18
100
AcDbEntity
  8
01
100
AcDbLine
 10
759.0810901990104
 20
-676.821380201729
 30
0.0
 11
759.1810913624075
 21
-676.321380201729
 31
0.0
  0
LINE
  5
24850
330
18
100
AcDbEntity
  8
01
100
AcDbLine
 10
758.1810983427905
 20
-673.321380201729
 30
0.0
 11
758.2810995061878
 21
-672.821380201729
 31
0.0
  0
LINE
  5
24851
330
18
100
AcDbEntity
  8
01
100
AcDbLine
 10
759.8810995061877
 20
-672.821380201729
 30
0.0
 11
760.6810901990103
 21
-676.821380201729
 31
0.0
  0
LINE
  5
24852
330
18
100
AcDbEntity
  8
01
100
AcDbLine
 10
760.6810901990103
 20
-676.821380201729
 30
0.0
 11
760.7810913624074
 21
-676.321380201729
 31
0.0
  0
LINE
  5
24853
330
18
100
AcDbEntity
  8
01
100
AcDbLine
 10
759.7810983427904
 20
-673.321380201729
 30
0.0
 11
759.8810995061877
 21
-672.821380201729
 31
0.0
  0
LINE
  5
24854
330
18
100
AcDbEntity
  8
01
100
AcDbLine
 10
738.3810948527053
 20
-671.0213802017278
 30
0.0
 11
738.3810948527053
 21
-678.62138020173
 31
0.0
  0
LINE
  5
24855
330
18
100
AcDbEntity
  8
01
100
AcDbLine
 10
738.3810948527053
 20
-678.62138020173
 30
0.0
 11
739.3810948527053
 21
-678.62138020173
 31
0.0
  0
LINE
  5
24856
330
18
100
AcDbEntity
  8
01
100
AcDbLine
 10
739.3810948527053
 20
-671.0213802017278
 30
0.0
 11
738.3810948527053
 21
-671.0213802017278
 31
0.0
  0
LINE
  5
24857
330
18
100
AcDbEntity
  8
01
100
AcDbLine
 10
742.2810995061837
 20
-672.821380201729
 30
0.0
 11
743.0810901990017
 21
-676.821380201729
 31
0.0
  0
LINE
  5
24858
330
18
100
AcDbEntity
  8
01
100
AcDbLine
 10
743.0810901990017
 20
-676.821380201729
 30
0.0
 11
743.1810913623995
 21
-676.321380201729
 31
0.0
  0
LINE
  5
24859
330
18
100
AcDbEntity
  8
01
100
AcDbLine
 10
742.1810983427859
 20
-673.321380201729
 30
0.0
 11
742.2810995061837
 21
-672.821380201729
 31
0.0
  0
LINE
  5
2485A
330
18
100
AcDbEntity
  8
01
100
AcDbLine
 10
740.6810995061838
 20
-672.821380201729
 30
0.0
 11
741.4810901990018
 21
-676.821380201729
 31
0.0
  0
LINE
  5
2485B
330
18
100
AcDbEntity
  8
01
100
AcDbLine
 10
741.4810901990018
 20
-676.821380201729
 30
0.0
 11
741.5810913623996
 21
-676.321380201729
 31
0.0
  0
LINE
  5
2485C
330
18
100
AcDbEntity
  8
01
100
AcDbLine
 10
740.581098342786
 20
-673.321380201729
 30
0.0
 11
740.6810995061838
 21
-672.821380201729
 31
0.0
  0
LINE
  5
2485D
330
18
100
AcDbEntity
  8
01
100
AcDbLine
 10
739.0810995061839
 20
-672.821380201729
 30
0.0
 11
739.8810901990019
 21
-676.821380201729
 31
0.0
  0
LINE
  5
2485E
330
18
100
AcDbEntity
  8
01
100
AcDbLine
 10
739.8810901990019
 20
-676.821380201729
 30
0.0
 11
739.9810913623997
 21
-676.321380201729
 31
0.0
  0
LINE
  5
2485F
330
18
100
AcDbEntity
  8
01
100
AcDbLine
 10
738.9810983427861
 20
-673.321380201729
 30
0.0
 11
739.0810995061839
 21
-672.821380201729
 31
0.0
  0
LINE
  5
24860
330
18
100
AcDbEntity
  8
01
100
AcDbLine
 10
739.3810948527053
 20
-671.0213802017278
 30
0.0
 11
739.3810948527053
 21
-678.62138020173
 31
0.0
  0
LINE
  5
24861
330
18
100
AcDbEntity
  8
01
370
    15
100
AcDbLine
 10
739.3810948527053
 20
-634.5713805216883
 30
0.0
 11
739.3810948527053
 21
-639.0713805216883
 31
0.0
  0
LINE
  5
24862
330
18
100
AcDbEntity
  8
01
370
    15
100
AcDbLine
 10
739.3810948527053
 20
-634.5713805216883
 30
0.0
 11
739.3810948527053
 21
-639.0713805216883
 31
0.0
  0
LINE
  5
24863
330
18
100
AcDbEntity
  8
01
370
    15
100
AcDbLine
 10
739.3810948527053
 20
-635.1442795124739
 30
0.0
 11
739.3810948527053
 21
-638.4983814787237
 31
0.0
  0
LINE
  5
24864
330
18
100
AcDbEntity
  8
01
370
    15
100
AcDbLine
 10
739.3810948527053
 20
-634.5713304955979
 30
0.0
 11
739.3810948527053
 21
-639.071330495598
 31
0.0
  0
LINE
  5
24865
330
18
100
AcDbEntity
  8
01
370
    15
100
AcDbLine
 10
739.3810948527053
 20
-634.5713805216883
 30
0.0
 11
739.3810948527053
 21
-635.3213805216882
 31
0.0
  0
LINE
  5
24866
330
18
100
AcDbEntity
  8
01
370
    15
100
AcDbLine
 10
739.3810948527053
 20
-636.321374705195
 30
0.0
 11
739.3810948527053
 21
-639.0713805216883
 31
0.0
  0
LINE
  5
24867
330
18
100
AcDbEntity
  8
01
100
AcDbLine
 10
773.3810948526512
 20
-636.8213805216883
 30
0.0
 11
768.0810983427897
 21
-635.3213805216882
 31
0.0
  0
LINE
  5
24868
330
18
100
AcDbEntity
  8
01
100
AcDbLine
 10
768.0810983427897
 20
-635.3213805216882
 30
0.0
 11
739.3810948527053
 21
-635.3213805216882
 31
0.0
  0
LINE
  5
24869
330
18
100
AcDbEntity
  8
01
100
AcDbLine
 10
739.3810948527053
 20
-635.3213805216882
 30
0.0
 11
738.3810983428978
 21
-635.3213805216882
 31
0.0
  0
LINE
  5
2486A
330
18
100
AcDbEntity
  8
01
100
AcDbLine
 10
773.3810948526512
 20
-636.8213805216883
 30
0.0
 11
768.081091362406
 21
-638.3213805216882
 31
0.0
  0
LINE
  5
2486B
330
18
100
AcDbEntity
  8
01
100
AcDbLine
 10
738.381102996596
 20
-633.3213339857893
 30
0.0
 11
738.3810983428978
 21
-635.3213805216882
 31
0.0
  0
LINE
  5
2486C
330
18
100
AcDbEntity
  8
01
100
AcDbLine
 10
768.081091362406
 20
-638.3213805216882
 30
0.0
 11
739.3810948527053
 21
-638.3213805216882
 31
0.0
  0
LINE
  5
2486D
330
18
100
AcDbEntity
  8
01
100
AcDbLine
 10
739.3810948527053
 20
-638.3213805216865
 30
0.0
 11
738.381091362513
 21
-638.3213805216882
 31
0.0
  0
LINE
  5
2486E
330
18
100
AcDbEntity
  8
01
100
AcDbLine
 10
738.381102996596
 20
-633.3213339857893
 30
0.0
 11
737.2810995064006
 21
-633.3213339857893
 31
0.0
  0
LINE
  5
2486F
330
18
100
AcDbEntity
  8
01
100
AcDbLine
 10
738.381091362513
 20
-638.3213805216882
 30
0.0
 11
738.3810867090316
 21
-640.3213339857893
 31
0.0
  0
ARC
  5
24870
330
18
100
AcDbEntity
  8
01
100
AcDbCircle
 10
737.2810995064006
 20
-634.8213339857893
 30
0.0
 40
1.5
100
AcDbArc
 50
90.0
 51
179.9998666844749
  0
LINE
  5
24871
330
18
100
AcDbEntity
  8
01
100
AcDbLine
 10
738.3810867090316
 20
-640.3213339857893
 30
0.0
 11
737.281090199221
 21
-640.3213339857893
 31
0.0
  0
LINE
  5
24872
330
18
100
AcDbEntity
  8
01
100
AcDbLine
 10
735.7810995064047
 20
-634.8213304955979
 30
0.0
 11
735.7810901992251
 21
-638.8213304955979
 31
0.0
  0
ARC
  5
24873
330
18
100
AcDbEntity
  8
01
100
AcDbCircle
 10
737.281090199221
 20
-638.8213339857893
 30
0.0
 40
1.5
100
AcDbArc
 50
179.9998666844749
 51
270.0
  0
LINE
  5
24874
330
18
100
AcDbEntity
  8
01
100
AcDbLine
 10
771.2810973989737
 20
-635.727010171794
 30
0.0
 11
772.0810928330243
 21
-637.68934526067
 31
0.0
  0
LINE
  5
24875
330
18
100
AcDbEntity
  8
01
100
AcDbLine
 10
772.0810928330243
 20
-637.68934526067
 30
0.0
 11
772.3928626892767
 21
-637.101068685627
 31
0.0
  0
LINE
  5
24876
330
18
100
AcDbEntity
  8
01
100
AcDbLine
 10
743.8810995061836
 20
-634.8213805216882
 30
0.0
 11
744.6810901990017
 21
-638.8213805216882
 31
0.0
  0
LINE
  5
24877
330
18
100
AcDbEntity
  8
01
100
AcDbLine
 10
755.081099506188
 20
-634.8213805216882
 30
0.0
 11
755.8810901990105
 21
-638.8213805216882
 31
0.0
  0
LINE
  5
24878
330
18
100
AcDbEntity
  8
01
100
AcDbLine
 10
763.2810995061878
 20
-634.8213805216882
 30
0.0
 11
764.0810901990104
 21
-638.8213805216882
 31
0.0
  0
LINE
  5
24879
330
18
100
AcDbEntity
  8
01
100
AcDbLine
 10
764.0810901990104
 20
-638.8213805216882
 30
0.0
 11
764.1810913624077
 21
-638.3213805216882
 31
0.0
  0
LINE
  5
2487A
330
18
100
AcDbEntity
  8
01
100
AcDbLine
 10
764.7810983427908
 20
-635.3213805216882
 30
0.0
 11
764.881099506188
 21
-634.8213805216882
 31
0.0
  0
LINE
  5
2487B
330
18
100
AcDbEntity
  8
01
100
AcDbLine
 10
755.8810901990105
 20
-638.8213805216882
 30
0.0
 11
755.9810913624077
 21
-638.3213805216882
 31
0.0
  0
LINE
  5
2487C
330
18
100
AcDbEntity
  8
01
100
AcDbLine
 10
762.4810901990104
 20
-638.8213805216882
 30
0.0
 11
762.5810913624079
 21
-638.3213805216882
 31
0.0
  0
LINE
  5
2487D
330
18
100
AcDbEntity
  8
01
100
AcDbLine
 10
763.1810983427909
 20
-635.3213805216882
 30
0.0
 11
763.2810995061878
 21
-634.8213805216882
 31
0.0
  0
LINE
  5
2487E
330
18
100
AcDbEntity
  8
01
100
AcDbLine
 10
761.581098342791
 20
-635.3213805216882
 30
0.0
 11
761.6810995061879
 21
-634.8213805216882
 31
0.0
  0
LINE
  5
2487F
330
18
100
AcDbEntity
  8
01
100
AcDbLine
 10
761.6810995061879
 20
-634.8213805216882
 30
0.0
 11
762.4810901990104
 21
-638.8213805216882
 31
0.0
  0
LINE
  5
24880
330
18
100
AcDbEntity
  8
01
100
AcDbLine
 10
770.481091779419
 20
-638.1421593650766
 30
0.0
 11
770.6638559220469
 21
-637.5904099012741
 31
0.0
  0
LINE
  5
24881
330
18
100
AcDbEntity
  8
01
100
AcDbLine
 10
767.2810901990106
 20
-638.8213805216882
 30
0.0
 11
767.3810913624075
 21
-638.3213805216882
 31
0.0
  0
LINE
  5
24882
330
18
100
AcDbEntity
  8
01
100
AcDbLine
 10
765.6810901990105
 20
-638.8213805216882
 30
0.0
 11
765.7810913624076
 21
-638.3213805216882
 31
0.0
  0
LINE
  5
24883
330
18
100
AcDbEntity
  8
01
100
AcDbLine
 10
768.881090725813
 20
-638.5949734694832
 30
0.0
 11
769.0103614234431
 21
-638.0583797342142
 31
0.0
  0
LINE
  5
24884
330
18
100
AcDbEntity
  8
01
100
AcDbLine
 10
769.5683289402278
 20
-635.7422951188973
 30
0.0
 11
769.6810984525779
 21
-635.2741966637467
 31
0.0
  0
LINE
  5
24885
330
18
100
AcDbEntity
  8
01
100
AcDbLine
 10
766.3810983427907
 20
-635.3213805216882
 30
0.0
 11
766.4810995061881
 21
-634.8213805216882
 31
0.0
  0
LINE
  5
24886
330
18
100
AcDbEntity
  8
01
100
AcDbLine
 10
767.9810983427906
 20
-635.3213805216882
 30
0.0
 11
768.081099506188
 21
-634.8213805216882
 31
0.0
  0
LINE
  5
24887
330
18
100
AcDbEntity
  8
01
100
AcDbLine
 10
771.129661602533
 20
-636.1841820124273
 30
0.0
 11
771.2810973989737
 21
-635.727010171794
 31
0.0
  0
LINE
  5
24888
330
18
100
AcDbEntity
  8
01
100
AcDbLine
 10
769.6810984525779
 20
-635.2741966637467
 30
0.0
 11
770.481091779419
 21
-638.1421593650766
 31
0.0
  0
LINE
  5
24889
330
18
100
AcDbEntity
  8
01
100
AcDbLine
 10
766.4810995061881
 20
-634.8213805216882
 30
0.0
 11
767.2810901990106
 21
-638.8213805216882
 31
0.0
  0
LINE
  5
2488A
330
18
100
AcDbEntity
  8
01
100
AcDbLine
 10
768.081099506188
 20
-634.8213805216882
 30
0.0
 11
768.881090725813
 21
-638.5949734694832
 31
0.0
  0
LINE
  5
2488B
330
18
100
AcDbEntity
  8
01
100
AcDbLine
 10
764.881099506188
 20
-634.8213805216882
 30
0.0
 11
765.6810901990105
 21
-638.8213805216882
 31
0.0
  0
LINE
  5
2488C
330
18
100
AcDbEntity
  8
01
100
AcDbLine
 10
747.0810995061834
 20
-634.8213805216882
 30
0.0
 11
747.8810901990019
 21
-638.8213805216882
 31
0.0
  0
LINE
  5
2488D
330
18
100
AcDbEntity
  8
01
100
AcDbLine
 10
747.8810901990019
 20
-638.8213805216882
 30
0.0
 11
747.9810913623995
 21
-638.3213805216882
 31
0.0
  0
LINE
  5
2488E
330
18
100
AcDbEntity
  8
01
100
AcDbLine
 10
748.5810983427901
 20
-635.3213805216882
 30
0.0
 11
748.6810995061879
 21
-634.8213805216882
 31
0.0
  0
LINE
  5
2488F
330
18
100
AcDbEntity
  8
01
100
AcDbLine
 10
746.2810901990016
 20
-638.8213805216882
 30
0.0
 11
746.3810913623993
 21
-638.3213805216882
 31
0.0
  0
LINE
  5
24890
330
18
100
AcDbEntity
  8
01
100
AcDbLine
 10
744.6810901990017
 20
-638.8213805216882
 30
0.0
 11
744.7810913623994
 21
-638.3213805216882
 31
0.0
  0
LINE
  5
24891
330
18
100
AcDbEntity
  8
01
100
AcDbLine
 10
746.9810983427858
 20
-635.3213805216882
 30
0.0
 11
747.0810995061834
 21
-634.8213805216882
 31
0.0
  0
LINE
  5
24892
330
18
100
AcDbEntity
  8
01
100
AcDbLine
 10
745.3810983427858
 20
-635.3213805216882
 30
0.0
 11
745.4810995061835
 21
-634.8213805216882
 31
0.0
  0
LINE
  5
24893
330
18
100
AcDbEntity
  8
01
100
AcDbLine
 10
745.4810995061835
 20
-634.8213805216882
 30
0.0
 11
746.2810901990016
 21
-638.8213805216882
 31
0.0
  0
LINE
  5
24894
330
18
100
AcDbEntity
  8
01
100
AcDbLine
 10
752.6810901990062
 20
-638.8213805216882
 30
0.0
 11
752.781091362404
 21
-638.3213805216882
 31
0.0
  0
LINE
  5
24895
330
18
100
AcDbEntity
  8
01
100
AcDbLine
 10
754.2810901990106
 20
-638.8213805216882
 30
0.0
 11
754.3810913624075
 21
-638.3213805216882
 31
0.0
  0
LINE
  5
24896
330
18
100
AcDbEntity
  8
01
100
AcDbLine
 10
749.4810901990062
 20
-638.8213805216882
 30
0.0
 11
749.5810913624037
 21
-638.3213805216882
 31
0.0
  0
LINE
  5
24897
330
18
100
AcDbEntity
  8
01
100
AcDbLine
 10
751.0810901990061
 20
-638.8213805216882
 30
0.0
 11
751.1810913624036
 21
-638.3213805216882
 31
0.0
  0
LINE
  5
24898
330
18
100
AcDbEntity
  8
01
100
AcDbLine
 10
754.9810983427907
 20
-635.3213805216882
 30
0.0
 11
755.081099506188
 21
-634.8213805216882
 31
0.0
  0
LINE
  5
24899
330
18
100
AcDbEntity
  8
01
100
AcDbLine
 10
753.3810983427903
 20
-635.3213805216882
 30
0.0
 11
753.4810995061881
 21
-634.8213805216882
 31
0.0
  0
LINE
  5
2489A
330
18
100
AcDbEntity
  8
01
100
AcDbLine
 10
750.18109834279
 20
-635.3213805216882
 30
0.0
 11
750.2810995061878
 21
-634.8213805216882
 31
0.0
  0
LINE
  5
2489B
330
18
100
AcDbEntity
  8
01
100
AcDbLine
 10
751.7810983427904
 20
-635.3213805216882
 30
0.0
 11
751.881099506188
 21
-634.8213805216882
 31
0.0
  0
LINE
  5
2489C
330
18
100
AcDbEntity
  8
01
100
AcDbLine
 10
751.881099506188
 20
-634.8213805216882
 30
0.0
 11
752.6810901990062
 21
-638.8213805216882
 31
0.0
  0
LINE
  5
2489D
330
18
100
AcDbEntity
  8
01
100
AcDbLine
 10
753.4810995061881
 20
-634.8213805216882
 30
0.0
 11
754.2810901990106
 21
-638.8213805216882
 31
0.0
  0
LINE
  5
2489E
330
18
100
AcDbEntity
  8
01
100
AcDbLine
 10
750.2810995061878
 20
-634.8213805216882
 30
0.0
 11
751.0810901990061
 21
-638.8213805216882
 31
0.0
  0
LINE
  5
2489F
330
18
100
AcDbEntity
  8
01
100
AcDbLine
 10
748.6810995061879
 20
-634.8213805216882
 30
0.0
 11
749.4810901990062
 21
-638.8213805216882
 31
0.0
  0
LINE
  5
248A0
330
18
100
AcDbEntity
  8
01
100
AcDbLine
 10
738.381091362513
 20
-638.3213805216882
 30
0.0
 11
738.3810983428978
 21
-635.3213805216882
 31
0.0
  0
LINE
  5
248A1
330
18
100
AcDbEntity
  8
01
100
AcDbLine
 10
743.7810983427858
 20
-635.3213805216882
 30
0.0
 11
743.8810995061836
 21
-634.8213805216882
 31
0.0
  0
LINE
  5
248A2
330
18
100
AcDbEntity
  8
01
100
AcDbLine
 10
756.6810995061879
 20
-634.8213805216882
 30
0.0
 11
757.4810901990105
 21
-638.8213805216882
 31
0.0
  0
LINE
  5
248A3
330
18
100
AcDbEntity
  8
01
100
AcDbLine
 10
757.4810901990105
 20
-638.8213805216882
 30
0.0
 11
757.5810913624076
 21
-638.3213805216882
 31
0.0
  0
LINE
  5
248A4
330
18
100
AcDbEntity
  8
01
100
AcDbLine
 10
756.5810983427906
 20
-635.3213805216882
 30
0.0
 11
756.6810995061879
 21
-634.8213805216882
 31
0.0
  0
LINE
  5
248A5
330
18
100
AcDbEntity
  8
01
100
AcDbLine
 10
758.2810995061878
 20
-634.8213805216882
 30
0.0
 11
759.0810901990104
 21
-638.8213805216882
 31
0.0
  0
LINE
  5
248A6
330
18
100
AcDbEntity
  8
01
100
AcDbLine
 10
759.0810901990104
 20
-638.8213805216882
 30
0.0
 11
759.1810913624075
 21
-638.3213805216882
 31
0.0
  0
LINE
  5
248A7
330
18
100
AcDbEntity
  8
01
100
AcDbLine
 10
758.1810983427905
 20
-635.3213805216882
 30
0.0
 11
758.2810995061878
 21
-634.8213805216882
 31
0.0
  0
LINE
  5
248A8
330
18
100
AcDbEntity
  8
01
100
AcDbLine
 10
759.8810995061877
 20
-634.8213805216882
 30
0.0
 11
760.6810901990103
 21
-638.8213805216882
 31
0.0
  0
LINE
  5
248A9
330
18
100
AcDbEntity
  8
01
100
AcDbLine
 10
760.6810901990103
 20
-638.8213805216882
 30
0.0
 11
760.7810913624074
 21
-638.3213805216882
 31
0.0
  0
LINE
  5
248AA
330
18
100
AcDbEntity
  8
01
100
AcDbLine
 10
759.7810983427904
 20
-635.3213805216882
 30
0.0
 11
759.8810995061877
 21
-634.8213805216882
 31
0.0
  0
LINE
  5
248AB
330
18
100
AcDbEntity
  8
01
100
AcDbLine
 10
738.3810948527053
 20
-633.0213805216872
 30
0.0
 11
738.3810948527053
 21
-640.6213805216894
 31
0.0
  0
LINE
  5
248AC
330
18
100
AcDbEntity
  8
01
100
AcDbLine
 10
738.3810948527053
 20
-640.6213805216894
 30
0.0
 11
739.3810948527053
 21
-640.6213805216894
 31
0.0
  0
LINE
  5
248AD
330
18
100
AcDbEntity
  8
01
100
AcDbLine
 10
739.3810948527053
 20
-633.0213805216872
 30
0.0
 11
738.3810948527053
 21
-633.0213805216872
 31
0.0
  0
LINE
  5
248AE
330
18
100
AcDbEntity
  8
01
100
AcDbLine
 10
742.2810995061837
 20
-634.8213805216882
 30
0.0
 11
743.0810901990017
 21
-638.8213805216882
 31
0.0
  0
LINE
  5
248AF
330
18
100
AcDbEntity
  8
01
100
AcDbLine
 10
743.0810901990017
 20
-638.8213805216882
 30
0.0
 11
743.1810913623995
 21
-638.3213805216882
 31
0.0
  0
LINE
  5
248B0
330
18
100
AcDbEntity
  8
01
100
AcDbLine
 10
742.1810983427859
 20
-635.3213805216882
 30
0.0
 11
742.2810995061837
 21
-634.8213805216882
 31
0.0
  0
LINE
  5
248B1
330
18
100
AcDbEntity
  8
01
100
AcDbLine
 10
740.6810995061838
 20
-634.8213805216882
 30
0.0
 11
741.4810901990018
 21
-638.8213805216882
 31
0.0
  0
LINE
  5
248B2
330
18
100
AcDbEntity
  8
01
100
AcDbLine
 10
741.4810901990018
 20
-638.8213805216882
 30
0.0
 11
741.5810913623996
 21
-638.3213805216882
 31
0.0
  0
LINE
  5
248B3
330
18
100
AcDbEntity
  8
01
100
AcDbLine
 10
740.581098342786
 20
-635.3213805216882
 30
0.0
 11
740.6810995061838
 21
-634.8213805216882
 31
0.0
  0
LINE
  5
248B4
330
18
100
AcDbEntity
  8
01
100
AcDbLine
 10
739.0810995061839
 20
-634.8213805216882
 30
0.0
 11
739.8810901990019
 21
-638.8213805216882
 31
0.0
  0
LINE
  5
248B5
330
18
100
AcDbEntity
  8
01
100
AcDbLine
 10
739.8810901990019
 20
-638.8213805216882
 30
0.0
 11
739.9810913623997
 21
-638.3213805216882
 31
0.0
  0
LINE
  5
248B6
330
18
100
AcDbEntity
  8
01
100
AcDbLine
 10
738.9810983427861
 20
-635.3213805216882
 30
0.0
 11
739.0810995061839
 21
-634.8213805216882
 31
0.0
  0
LINE
  5
248B7
330
18
100
AcDbEntity
  8
01
100
AcDbLine
 10
739.3810948527053
 20
-633.0213805216872
 30
0.0
 11
739.3810948527053
 21
-640.6213805216894
 31
0.0
  0
LINE
  5
24928
330
18
100
AcDbEntity
  8
01
100
AcDbLine
 10
164.3810956405976
 20
-543.2800977654334
 30
0.0
 11
164.3810956405976
 21
-504.5663617651358
 31
0.0
  0
LINE
  5
24929
330
18
100
AcDbEntity
  8
01
370
    15
100
AcDbLine
 10
162.1311456666879
 20
-539.3213303512664
 30
0.0
 11
166.631145666688
 21
-539.3213303512664
 31
0.0
  0
LINE
  5
2492A
330
18
100
AcDbEntity
  8
01
370
    15
100
AcDbLine
 10
162.1311456666879
 20
-539.3213303512664
 30
0.0
 11
166.631145666688
 21
-539.3213303512664
 31
0.0
  0
LINE
  5
2492B
330
18
100
AcDbEntity
  8
01
370
    15
100
AcDbLine
 10
162.7040446574737
 20
-539.3213303512664
 30
0.0
 11
166.0581466237234
 21
-539.3213303512664
 31
0.0
  0
LINE
  5
2492C
330
18
100
AcDbEntity
  8
01
370
    15
100
AcDbLine
 10
162.1310956405976
 20
-539.3213303512664
 30
0.0
 11
166.6310956405976
 21
-539.3213303512664
 31
0.0
  0
LINE
  5
2492D
330
18
100
AcDbEntity
  8
01
370
    15
100
AcDbLine
 10
162.1311456666879
 20
-539.3213303512664
 30
0.0
 11
162.881145666688
 21
-539.3213303512664
 31
0.0
  0
LINE
  5
2492E
330
18
100
AcDbEntity
  8
01
370
    15
100
AcDbLine
 10
163.8811398501947
 20
-539.3213303512664
 30
0.0
 11
166.631145666688
 21
-539.3213303512664
 31
0.0
  0
LINE
  5
2492F
330
18
100
AcDbEntity
  8
01
100
AcDbLine
 10
164.3811456666879
 20
-505.3213303513207
 30
0.0
 11
162.881145666688
 21
-510.6213268611822
 31
0.0
  0
LINE
  5
24930
330
18
100
AcDbEntity
  8
01
100
AcDbLine
 10
162.881145666688
 20
-510.6213268611821
 30
0.0
 11
162.881145666688
 21
-539.3213303512664
 31
0.0
  0
LINE
  5
24931
330
18
100
AcDbEntity
  8
01
100
AcDbLine
 10
162.881145666688
 20
-539.3213303512664
 30
0.0
 11
162.881145666688
 21
-540.3213268610739
 31
0.0
  0
LINE
  5
24932
330
18
100
AcDbEntity
  8
01
100
AcDbLine
 10
164.3811456666879
 20
-505.3213303513207
 30
0.0
 11
165.881145666688
 21
-510.6213338415659
 31
0.0
  0
LINE
  5
24933
330
18
100
AcDbEntity
  8
01
100
AcDbLine
 10
160.881099130789
 20
-540.3213222073757
 30
0.0
 11
162.881145666688
 21
-540.3213268610739
 31
0.0
  0
LINE
  5
24934
330
18
100
AcDbEntity
  8
01
100
AcDbLine
 10
165.881145666688
 20
-510.6213338415657
 30
0.0
 11
165.881145666688
 21
-539.3213303512664
 31
0.0
  0
LINE
  5
24935
330
18
100
AcDbEntity
  8
01
100
AcDbLine
 10
165.8811456666861
 20
-539.3213303512664
 30
0.0
 11
165.881145666688
 21
-540.3213338414587
 31
0.0
  0
LINE
  5
24936
330
18
100
AcDbEntity
  8
01
100
AcDbLine
 10
160.881099130789
 20
-540.3213222073757
 30
0.0
 11
160.881099130789
 21
-541.4213256975711
 31
0.0
  0
LINE
  5
24937
330
18
100
AcDbEntity
  8
01
100
AcDbLine
 10
165.881145666688
 20
-540.3213338414587
 30
0.0
 11
167.881099130789
 21
-540.3213384949402
 31
0.0
  0
ARC
  5
24938
330
18
100
AcDbEntity
  8
01
100
AcDbCircle
 10
162.381099130789
 20
-541.4213256975711
 30
0.0
 40
1.5
100
AcDbArc
 50
180.0
 51
269.9998666844749
  0
LINE
  5
24939
330
18
100
AcDbEntity
  8
01
100
AcDbLine
 10
167.881099130789
 20
-540.3213384949402
 30
0.0
 11
167.881099130789
 21
-541.4213350047507
 31
0.0
  0
LINE
  5
2493A
330
18
100
AcDbEntity
  8
01
100
AcDbLine
 10
162.3810956405976
 20
-542.9213256975669
 30
0.0
 11
166.3810956405976
 21
-542.9213350047466
 31
0.0
  0
ARC
  5
2493B
330
18
100
AcDbEntity
  8
01
100
AcDbCircle
 10
166.381099130789
 20
-541.4213350047507
 30
0.0
 40
1.5
100
AcDbArc
 50
269.9998666844749
 51
0.0
  0
LINE
  5
2493C
330
18
100
AcDbEntity
  8
01
100
AcDbLine
 10
163.2867753167937
 20
-507.421327804998
 30
0.0
 11
165.2491104056697
 21
-506.6213323709473
 31
0.0
  0
LINE
  5
2493D
330
18
100
AcDbEntity
  8
01
100
AcDbLine
 10
165.2491104056697
 20
-506.6213323709473
 30
0.0
 11
164.6608338306267
 21
-506.3095625146949
 31
0.0
  0
LINE
  5
2493E
330
18
100
AcDbEntity
  8
01
100
AcDbLine
 10
162.381145666688
 20
-534.8213256977881
 30
0.0
 11
166.381145666688
 21
-534.02133500497
 31
0.0
  0
LINE
  5
2493F
330
18
100
AcDbEntity
  8
01
100
AcDbLine
 10
162.381145666688
 20
-523.6213256977837
 30
0.0
 11
166.381145666688
 21
-522.8213350049611
 31
0.0
  0
LINE
  5
24940
330
18
100
AcDbEntity
  8
01
100
AcDbLine
 10
162.381145666688
 20
-515.4213256977839
 30
0.0
 11
166.381145666688
 21
-514.6213350049613
 31
0.0
  0
LINE
  5
24941
330
18
100
AcDbEntity
  8
01
100
AcDbLine
 10
166.381145666688
 20
-514.6213350049613
 30
0.0
 11
165.881145666688
 21
-514.521333841564
 31
0.0
  0
LINE
  5
24942
330
18
100
AcDbEntity
  8
01
100
AcDbLine
 10
162.881145666688
 20
-513.9213268611809
 30
0.0
 11
162.381145666688
 21
-513.8213256977837
 31
0.0
  0
LINE
  5
24943
330
18
100
AcDbEntity
  8
01
100
AcDbLine
 10
166.381145666688
 20
-522.8213350049611
 30
0.0
 11
165.881145666688
 21
-522.721333841564
 31
0.0
  0
LINE
  5
24944
330
18
100
AcDbEntity
  8
01
100
AcDbLine
 10
166.381145666688
 20
-516.2213350049612
 30
0.0
 11
165.881145666688
 21
-516.1213338415639
 31
0.0
  0
LINE
  5
24945
330
18
100
AcDbEntity
  8
01
100
AcDbLine
 10
162.881145666688
 20
-515.5213268611808
 30
0.0
 11
162.381145666688
 21
-515.4213256977839
 31
0.0
  0
LINE
  5
24946
330
18
100
AcDbEntity
  8
01
100
AcDbLine
 10
162.881145666688
 20
-517.1213268611807
 30
0.0
 11
162.381145666688
 21
-517.0213256977838
 31
0.0
  0
LINE
  5
24947
330
18
100
AcDbEntity
  8
01
100
AcDbLine
 10
162.381145666688
 20
-517.0213256977838
 30
0.0
 11
166.381145666688
 21
-516.2213350049612
 31
0.0
  0
LINE
  5
24948
330
18
100
AcDbEntity
  8
01
100
AcDbLine
 10
165.7019245100763
 20
-508.2213334245527
 30
0.0
 11
165.1501750462738
 21
-508.0385692819247
 31
0.0
  0
LINE
  5
24949
330
18
100
AcDbEntity
  8
01
100
AcDbLine
 10
166.381145666688
 20
-511.421335004961
 30
0.0
 11
165.881145666688
 21
-511.3213338415642
 31
0.0
  0
LINE
  5
2494A
330
18
100
AcDbEntity
  8
01
100
AcDbLine
 10
166.381145666688
 20
-513.0213350049611
 30
0.0
 11
165.881145666688
 21
-512.9213338415641
 31
0.0
  0
LINE
  5
2494B
330
18
100
AcDbEntity
  8
01
100
AcDbLine
 10
166.1547386144829
 20
-509.8213344781586
 30
0.0
 11
165.6181448792139
 21
-509.6920637805285
 31
0.0
  0
LINE
  5
2494C
330
18
100
AcDbEntity
  8
01
100
AcDbLine
 10
163.302060263897
 20
-509.1340962637438
 30
0.0
 11
162.8339618087465
 21
-509.0213267513938
 31
0.0
  0
LINE
  5
2494D
330
18
100
AcDbEntity
  8
01
100
AcDbLine
 10
162.881145666688
 20
-512.3213268611809
 30
0.0
 11
162.381145666688
 21
-512.2213256977836
 31
0.0
  0
LINE
  5
2494E
330
18
100
AcDbEntity
  8
01
100
AcDbLine
 10
162.881145666688
 20
-510.721326861181
 30
0.0
 11
162.381145666688
 21
-510.6213256977837
 31
0.0
  0
LINE
  5
2494F
330
18
100
AcDbEntity
  8
01
100
AcDbLine
 10
163.743947157427
 20
-507.5727636014387
 30
0.0
 11
163.2867753167937
 21
-507.421327804998
 31
0.0
  0
LINE
  5
24950
330
18
100
AcDbEntity
  8
01
100
AcDbLine
 10
162.8339618087465
 20
-509.0213267513938
 30
0.0
 11
165.7019245100763
 21
-508.2213334245527
 31
0.0
  0
LINE
  5
24951
330
18
100
AcDbEntity
  8
01
100
AcDbLine
 10
162.381145666688
 20
-512.2213256977836
 30
0.0
 11
166.381145666688
 21
-511.421335004961
 31
0.0
  0
LINE
  5
24952
330
18
100
AcDbEntity
  8
01
100
AcDbLine
 10
162.381145666688
 20
-510.6213256977837
 30
0.0
 11
166.1547386144829
 21
-509.8213344781586
 31
0.0
  0
LINE
  5
24953
330
18
100
AcDbEntity
  8
01
100
AcDbLine
 10
162.381145666688
 20
-513.8213256977837
 30
0.0
 11
166.381145666688
 21
-513.0213350049611
 31
0.0
  0
LINE
  5
24954
330
18
100
AcDbEntity
  8
01
100
AcDbLine
 10
162.381145666688
 20
-531.6213256977882
 30
0.0
 11
166.381145666688
 21
-530.8213350049697
 31
0.0
  0
LINE
  5
24955
330
18
100
AcDbEntity
  8
01
100
AcDbLine
 10
166.381145666688
 20
-530.8213350049697
 30
0.0
 11
165.881145666688
 21
-530.7213338415722
 31
0.0
  0
LINE
  5
24956
330
18
100
AcDbEntity
  8
01
100
AcDbLine
 10
162.881145666688
 20
-530.1213268611816
 30
0.0
 11
162.381145666688
 21
-530.0213256977838
 31
0.0
  0
LINE
  5
24957
330
18
100
AcDbEntity
  8
01
100
AcDbLine
 10
166.381145666688
 20
-532.4213350049701
 30
0.0
 11
165.881145666688
 21
-532.3213338415723
 31
0.0
  0
LINE
  5
24958
330
18
100
AcDbEntity
  8
01
100
AcDbLine
 10
166.381145666688
 20
-534.02133500497
 30
0.0
 11
165.881145666688
 21
-533.9213338415722
 31
0.0
  0
LINE
  5
24959
330
18
100
AcDbEntity
  8
01
100
AcDbLine
 10
162.881145666688
 20
-531.7213268611858
 30
0.0
 11
162.381145666688
 21
-531.6213256977882
 31
0.0
  0
LINE
  5
2495A
330
18
100
AcDbEntity
  8
01
100
AcDbLine
 10
162.881145666688
 20
-533.3213268611859
 30
0.0
 11
162.381145666688
 21
-533.2213256977881
 31
0.0
  0
LINE
  5
2495B
330
18
100
AcDbEntity
  8
01
100
AcDbLine
 10
162.381145666688
 20
-533.2213256977881
 30
0.0
 11
166.381145666688
 21
-532.4213350049701
 31
0.0
  0
LINE
  5
2495C
330
18
100
AcDbEntity
  8
01
100
AcDbLine
 10
166.381145666688
 20
-526.0213350049655
 30
0.0
 11
165.881145666688
 21
-525.9213338415677
 31
0.0
  0
LINE
  5
2495D
330
18
100
AcDbEntity
  8
01
100
AcDbLine
 10
166.381145666688
 20
-524.421335004961
 30
0.0
 11
165.881145666688
 21
-524.3213338415642
 31
0.0
  0
LINE
  5
2495E
330
18
100
AcDbEntity
  8
01
100
AcDbLine
 10
166.381145666688
 20
-529.2213350049656
 30
0.0
 11
165.881145666688
 21
-529.121333841568
 31
0.0
  0
LINE
  5
2495F
330
18
100
AcDbEntity
  8
01
100
AcDbLine
 10
166.381145666688
 20
-527.6213350049657
 30
0.0
 11
165.881145666688
 21
-527.5213338415681
 31
0.0
  0
LINE
  5
24960
330
18
100
AcDbEntity
  8
01
100
AcDbLine
 10
162.881145666688
 20
-523.721326861181
 30
0.0
 11
162.381145666688
 21
-523.6213256977837
 31
0.0
  0
LINE
  5
24961
330
18
100
AcDbEntity
  8
01
100
AcDbLine
 10
162.881145666688
 20
-525.3213268611814
 30
0.0
 11
162.381145666688
 21
-525.2213256977836
 31
0.0
  0
LINE
  5
24962
330
18
100
AcDbEntity
  8
01
100
AcDbLine
 10
162.881145666688
 20
-528.5213268611816
 30
0.0
 11
162.381145666688
 21
-528.4213256977839
 31
0.0
  0
LINE
  5
24963
330
18
100
AcDbEntity
  8
01
100
AcDbLine
 10
162.881145666688
 20
-526.9213268611813
 30
0.0
 11
162.381145666688
 21
-526.8213256977837
 31
0.0
  0
LINE
  5
24964
330
18
100
AcDbEntity
  8
01
100
AcDbLine
 10
162.381145666688
 20
-526.8213256977837
 30
0.0
 11
166.381145666688
 21
-526.0213350049655
 31
0.0
  0
LINE
  5
24965
330
18
100
AcDbEntity
  8
01
100
AcDbLine
 10
162.381145666688
 20
-525.2213256977836
 30
0.0
 11
166.381145666688
 21
-524.421335004961
 31
0.0
  0
LINE
  5
24966
330
18
100
AcDbEntity
  8
01
100
AcDbLine
 10
162.381145666688
 20
-528.4213256977839
 30
0.0
 11
166.381145666688
 21
-527.6213350049657
 31
0.0
  0
LINE
  5
24967
330
18
100
AcDbEntity
  8
01
100
AcDbLine
 10
162.381145666688
 20
-530.0213256977838
 30
0.0
 11
166.381145666688
 21
-529.2213350049656
 31
0.0
  0
LINE
  5
24968
330
18
100
AcDbEntity
  8
01
100
AcDbLine
 10
165.881145666688
 20
-540.3213338414587
 30
0.0
 11
162.881145666688
 21
-540.3213268610739
 31
0.0
  0
LINE
  5
24969
330
18
100
AcDbEntity
  8
01
100
AcDbLine
 10
162.881145666688
 20
-534.9213268611858
 30
0.0
 11
162.381145666688
 21
-534.8213256977881
 31
0.0
  0
LINE
  5
2496A
330
18
100
AcDbEntity
  8
01
100
AcDbLine
 10
162.381145666688
 20
-522.0213256977838
 30
0.0
 11
166.381145666688
 21
-521.2213350049612
 31
0.0
  0
LINE
  5
2496B
330
18
100
AcDbEntity
  8
01
100
AcDbLine
 10
166.381145666688
 20
-521.2213350049612
 30
0.0
 11
165.881145666688
 21
-521.1213338415641
 31
0.0
  0
LINE
  5
2496C
330
18
100
AcDbEntity
  8
01
100
AcDbLine
 10
162.881145666688
 20
-522.1213268611811
 30
0.0
 11
162.381145666688
 21
-522.0213256977838
 31
0.0
  0
LINE
  5
2496D
330
18
100
AcDbEntity
  8
01
100
AcDbLine
 10
162.381145666688
 20
-520.4213256977839
 30
0.0
 11
166.381145666688
 21
-519.6213350049613
 31
0.0
  0
LINE
  5
2496E
330
18
100
AcDbEntity
  8
01
100
AcDbLine
 10
166.381145666688
 20
-519.6213350049613
 30
0.0
 11
165.881145666688
 21
-519.5213338415642
 31
0.0
  0
LINE
  5
2496F
330
18
100
AcDbEntity
  8
01
100
AcDbLine
 10
162.881145666688
 20
-520.5213268611812
 30
0.0
 11
162.381145666688
 21
-520.4213256977839
 31
0.0
  0
LINE
  5
24970
330
18
100
AcDbEntity
  8
01
100
AcDbLine
 10
162.381145666688
 20
-518.821325697784
 30
0.0
 11
166.381145666688
 21
-518.0213350049614
 31
0.0
  0
LINE
  5
24971
330
18
100
AcDbEntity
  8
01
100
AcDbLine
 10
166.381145666688
 20
-518.0213350049614
 30
0.0
 11
165.881145666688
 21
-517.9213338415642
 31
0.0
  0
LINE
  5
24972
330
18
100
AcDbEntity
  8
01
100
AcDbLine
 10
162.881145666688
 20
-518.9213268611813
 30
0.0
 11
162.381145666688
 21
-518.821325697784
 31
0.0
  0
LINE
  5
24973
330
18
100
AcDbEntity
  8
01
100
AcDbLine
 10
160.5811456666869
 20
-540.3213303512663
 30
0.0
 11
168.181145666689
 21
-540.3213303512663
 31
0.0
  0
LINE
  5
24974
330
18
100
AcDbEntity
  8
01
100
AcDbLine
 10
168.181145666689
 20
-540.3213303512663
 30
0.0
 11
168.181145666689
 21
-539.3213303512664
 31
0.0
  0
LINE
  5
24975
330
18
100
AcDbEntity
  8
01
100
AcDbLine
 10
160.5811456666869
 20
-539.3213303512664
 30
0.0
 11
160.5811456666869
 21
-540.3213303512663
 31
0.0
  0
LINE
  5
24976
330
18
100
AcDbEntity
  8
01
100
AcDbLine
 10
162.381145666688
 20
-536.421325697788
 30
0.0
 11
166.381145666688
 21
-535.6213350049699
 31
0.0
  0
LINE
  5
24977
330
18
100
AcDbEntity
  8
01
100
AcDbLine
 10
166.381145666688
 20
-535.6213350049699
 30
0.0
 11
165.881145666688
 21
-535.5213338415722
 31
0.0
  0
LINE
  5
24978
330
18
100
AcDbEntity
  8
01
100
AcDbLine
 10
162.881145666688
 20
-536.5213268611857
 30
0.0
 11
162.381145666688
 21
-536.421325697788
 31
0.0
  0
LINE
  5
24979
330
18
100
AcDbEntity
  8
01
100
AcDbLine
 10
162.381145666688
 20
-538.0213256977879
 30
0.0
 11
166.381145666688
 21
-537.2213350049698
 31
0.0
  0
LINE
  5
2497A
330
18
100
AcDbEntity
  8
01
100
AcDbLine
 10
166.381145666688
 20
-537.2213350049698
 30
0.0
 11
165.881145666688
 21
-537.1213338415721
 31
0.0
  0
LINE
  5
2497B
330
18
100
AcDbEntity
  8
01
100
AcDbLine
 10
162.881145666688
 20
-538.1213268611857
 30
0.0
 11
162.381145666688
 21
-538.0213256977879
 31
0.0
  0
LINE
  5
2497C
330
18
100
AcDbEntity
  8
01
100
AcDbLine
 10
162.381145666688
 20
-539.6213256977878
 30
0.0
 11
166.381145666688
 21
-538.8213350049698
 31
0.0
  0
LINE
  5
2497D
330
18
100
AcDbEntity
  8
01
100
AcDbLine
 10
166.381145666688
 20
-538.8213350049698
 30
0.0
 11
165.881145666688
 21
-538.721333841572
 31
0.0
  0
LINE
  5
2497E
330
18
100
AcDbEntity
  8
01
100
AcDbLine
 10
162.881145666688
 20
-539.7213268611856
 30
0.0
 11
162.381145666688
 21
-539.6213256977878
 31
0.0
  0
LINE
  5
2497F
330
18
100
AcDbEntity
  8
01
100
AcDbLine
 10
160.5811456666869
 20
-539.3213303512664
 30
0.0
 11
168.181145666689
 21
-539.3213303512664
 31
0.0
  0
LINE
  5
24B1A
330
18
100
AcDbEntity
  8
01
100
AcDbLine
 10
513.2355147827587
 20
-473.025441490976
 30
0.0
 11
583.2355147827587
 21
-473.025441490976
 31
0.0
  0
LINE
  5
24B1B
330
18
100
AcDbEntity
  8
01
100
AcDbLine
 10
513.2355147827587
 20
-487.025441490976
 30
0.0
 11
583.2355147827587
 21
-487.0254414909759
 31
0.0
  0
LINE
  5
24B1C
330
18
100
AcDbEntity
  8
01
100
AcDbLine
 10
513.2355147827587
 20
-480.025441490976
 30
0.0
 11
583.2355147827587
 21
-480.0254414909759
 31
0.0
  0
TEXT
  5
24B1E
330
18
100
AcDbEntity
  8
01
100
AcDbText
 10
558.9688481160917
 20
-478.525441490976
 30
0.0
 40
4.0
  1
コード
 72
     1
 11
565.6355147827583
 21
-478.525441490976
 31
0.0
100
AcDbText
  0
LINE
  5
24B23
330
18
100
AcDbEntity
  8
01
100
AcDbLine
 10
513.2355147827587
 20
-487.025441490976
 30
0.0
 11
513.2355147827587
 21
-473.025441490976
 31
0.0
  0
LINE
  5
24B24
330
18
100
AcDbEntity
  8
01
100
AcDbLine
 10
583.2355147827587
 20
-487.025441490976
 30
0.0
 11
583.2355147827587
 21
-473.025441490976
 31
0.0
  0
LINE
  5
24B86
330
18
100
AcDbEntity
  8
01
100
AcDbLine
 10
548.2355147827587
 20
-487.025441490976
 30
0.0
 11
548.2355147827587
 21
-473.025441490976
 31
0.0
  0
TEXT
  5
24B87
330
18
100
AcDbEntity
  8
01
100
AcDbText
 10
521.5688481160916
 20
-478.525441490976
 30
0.0
 40
4.0
  1
表面処理
 72
     1
 11
530.6355147827583
 21
-478.525441490976
 31
0.0
100
AcDbText
  0
TEXT
  5
24B89
330
18
100
AcDbEntity
  8
01
100
AcDbText
 10
553.6259909732355
 20
-485.7397984746254
 30
0.0
 40
4.0
  1
SC-661-XC
 41
0.65
 72
     1
 11
565.6355147827593
 21
-485.7397984746254
 31
0.0
100
AcDbText
  0
TEXT
  5
24C2D
330
18
100
AcDbEntity
  8
01
100
AcDbText
 10
521.5688481160916
 20
-485.3607301505004
 30
0.0
 40
4.0
  1
クローム
 72
     1
 11
530.6355147827583
 21
-485.3607301505004
 31
0.0
100
AcDbText
  0
TEXT
  5
24E94
330
18
100
AcDbEntity
  8
01
100
AcDbText
 10
659.2092325265855
 20
-558.3244529905203
 30
0.0
 40
3.5
  1
材質：真鍮
100
AcDbText
  0
TEXT
  5
24E95
330
18
100
AcDbEntity
  8
01
100
AcDbText
 10
646.6092325265856
 20
-564.1577863238537
 30
0.0
 40
3.5
  1
仕上げ：クローム
100
AcDbText
  0
TEXT
  5
24E9A
330
18
100
AcDbEntity
  8
01
100
AcDbText
 10
554.7983316074292
 20
-545.9878508441684
 30
0.0
 40
3.5
  1
材質：真鍮
100
AcDbText
  0
TEXT
  5
24E9B
330
18
100
AcDbEntity
  8
01
100
AcDbText
 10
542.1983316074292
 20
-551.8211841775019
 30
0.0
 40
3.5
  1
仕上げ：クローム
100
AcDbText
  0
TEXT
  5
24E9E
330
18
100
AcDbEntity
  8
01
100
AcDbText
 10
559.0004529515385
 20
-565.9517290297277
 30
0.0
 40
3.5
  1
材質：真鍮
100
AcDbText
  0
TEXT
  5
24E9F
330
18
100
AcDbEntity
  8
01
100
AcDbText
 10
546.4004529515387
 20
-571.7850623630611
 30
0.0
 40
3.5
  1
仕上げ：クローム
100
AcDbText
  0
TEXT
  5
24EA2
330
18
100
AcDbEntity
  8
01
100
AcDbText
 10
527.2098859806889
 20
-628.1143068649258
 30
0.0
 40
3.5
  1
材質：ステンレス
100
AcDbText
  0
TEXT
  5
24EA3
330
18
100
AcDbEntity
  8
01
100
AcDbText
 10
527.2098859806889
 20
-633.9476401982592
 30
0.0
 40
3.5
  1
仕上げ：鏡面
100
AcDbText
  0
LINE
  5
24EA6
330
18
100
AcDbEntity
  8
01
100
AcDbLine
 10
642.8810965148294
 20
-535.8213303512664
 30
0.0
 11
642.8810965148294
 21
-499.8213303512663
 31
0.0
  0
LINE
  5
24EA7
330
18
100
AcDbEntity
  8
01
100
AcDbLine
 10
585.8810965148294
 20
-535.8213303512664
 30
0.0
 11
585.8810965148294
 21
-499.8213303512663
 31
0.0
  0
LINE
  5
24EA8
330
18
100
AcDbEntity
  8
01
100
AcDbLine
 10
640.8810965148294
 20
-500.8213303512664
 30
0.0
 11
587.8810965148294
 21
-500.8213303512664
 31
0.0
  0
LINE
  5
24EAC
330
18
100
AcDbEntity
  8
01
100
AcDbLine
 10
135.88109642849
 20
-655.8213303512664
 30
0.0
 11
135.88109642849
 21
-734.4213303512677
 31
0.0
  0
LINE
  5
24EAD
330
18
100
AcDbEntity
  8
01
100
AcDbLine
 10
642.8810948527058
 20
-655.8213303512661
 30
0.0
 11
642.8810948527058
 21
-734.4213303512677
 31
0.0
  0
LINE
  5
24EAE
330
18
100
AcDbEntity
  8
01
100
AcDbLine
 10
141.8810964284899
 20
-731.4213303512676
 30
0.0
 11
636.8810948527058
 21
-731.4213303512676
 31
0.0
  0
LINE
  5
24EB2
330
18
100
AcDbEntity
  8
01
100
AcDbLine
 10
679.3810966011608
 20
-655.8213302649262
 30
0.0
 11
679.3810966011608
 21
-702.4213303512676
 31
0.0
  0
LINE
  5
24EB3
330
18
100
AcDbEntity
  8
01
100
AcDbLine
 10
742.8810948527053
 20
-693.0495039365482
 30
0.0
 11
742.8810948527053
 21
-702.4213303512676
 31
0.0
  0
LINE
  5
24EB4
330
18
100
AcDbEntity
  8
01
100
AcDbLine
 10
681.3810966011608
 20
-701.4213303512677
 30
0.0
 11
740.8810948527054
 21
-701.4213303512677
 31
0.0
  0
LINE
  5
24EB8
330
18
100
AcDbEntity
  8
01
100
AcDbLine
 10
534.5837517521523
 20
-599.3213303512663
 30
0.0
 11
545.110684023665
 21
-599.3213303512663
 31
0.0
  0
LINE
  5
24EB9
330
18
100
AcDbEntity
  8
01
100
AcDbLine
 10
534.5837517521523
 20
-586.3213303512663
 30
0.0
 11
545.110684023665
 21
-586.3213303512663
 31
0.0
  0
LINE
  5
24EBA
330
18
100
AcDbEntity
  8
01
100
AcDbLine
 10
544.110684023665
 20
-597.3213303512664
 30
0.0
 11
544.110684023665
 21
-588.3213303512664
 31
0.0
  0
LINE
  5
24EBB
330
18
100
AcDbEntity
  8
01
100
AcDbLine
 10
544.110684023665
 20
-586.3213303512663
 30
0.0
 11
544.110684023665
 21
-573.2546636845996
 31
0.0
  0
LINE
  5
24EBF
330
18
100
AcDbEntity
  8
01
100
AcDbLine
 10
164.3810956405976
 20
-687.8566963830137
 30
0.0
 11
164.3810956405976
 21
-704.4213303512677
 31
0.0
  0
LINE
  5
24EC0
330
18
100
AcDbEntity
  8
01
100
AcDbLine
 10
614.3810956405981
 20
-687.8566963830137
 30
0.0
 11
614.3810956405981
 21
-704.4213303512677
 31
0.0
  0
LINE
  5
24EC1
330
18
100
AcDbEntity
  8
01
100
AcDbLine
 10
170.3810956405976
 20
-701.4213303512677
 30
0.0
 11
608.3810956405981
 21
-701.4213303512677
 31
0.0
  0
LINE
  5
24EC5
330
18
100
AcDbEntity
  8
01
100
AcDbLine
 10
771.3420013000692
 20
-674.8213301756387
 30
0.0
 11
783.8810867089233
 21
-674.8213301756387
 31
0.0
  0
LINE
  5
24EC6
330
18
100
AcDbEntity
  8
01
100
AcDbLine
 10
771.3420013000692
 20
-636.8213304955981
 30
0.0
 11
783.8810867089233
 21
-636.8213304955981
 31
0.0
  0
LINE
  5
24EC7
330
18
100
AcDbEntity
  8
01
100
AcDbLine
 10
782.8810867089234
 20
-672.8213301756388
 30
0.0
 11
782.8810867089234
 21
-638.821330495598
 31
0.0
  0
LINE
  5
24ECB
330
18
100
AcDbEntity
  8
01
100
AcDbLine
 10
742.8810948527053
 20
-684.3213311391582
 30
0.0
 11
793.8810867089233
 21
-684.3213311391584
 31
0.0
  0
LINE
  5
24ECC
330
18
100
AcDbEntity
  8
01
100
AcDbLine
 10
742.8810948527053
 20
-627.3213303512664
 30
0.0
 11
793.8810867089233
 21
-627.3213303512664
 31
0.0
  0
LINE
  5
24ECD
330
18
100
AcDbEntity
  8
01
100
AcDbLine
 10
792.8810867089233
 20
-682.3213311391583
 30
0.0
 11
792.8810867089233
 21
-629.3213303512665
 31
0.0
  0
LINE
  5
24ED1
330
18
100
AcDbEntity
  8
01
100
AcDbLine
 10
771.3420013000696
 20
-636.8213304955981
 30
0.0
 11
783.8810867089233
 21
-636.8213304955981
 31
0.0
  0
LINE
  5
24ED2
330
18
100
AcDbEntity
  8
01
100
AcDbLine
 10
742.8810948527053
 20
-627.3213303512664
 30
0.0
 11
783.8810867089233
 21
-627.3213303512664
 31
0.0
  0
LINE
  5
24ED3
330
18
100
AcDbEntity
  8
01
100
AcDbLine
 10
782.8810867089234
 20
-634.821330495598
 30
0.0
 11
782.8810867089234
 21
-629.3213303512665
 31
0.0
  0
TEXT
  5
24ED7
330
18
100
AcDbEntity
  8
01
100
AcDbText
 10
762.754028508693
 20
-611.3902613041472
 30
0.0
 40
3.5
  1
合板9mm以上
100
AcDbText
  0
TEXT
  5
24EDA
330
18
100
AcDbEntity
  8
01
100
AcDbText
 10
748.9519436968612
 20
-611.3902613041472
 30
0.0
 40
3.5
  1
PB
100
AcDbText
  0
LINE
  5
24EDD
330
18
100
AcDbEntity
  8
01
100
AcDbLine
 10
745.9468908001261
 20
-624.8285828161969
 30
0.0
 11
746.9186103635278
 21
-612.0902613041472
 31
0.0
1001
ACAD
1000
DSTYLE
1002
{
1070
    45
1040
0.5
1002
}
  0
LINE
  5
24EDE
330
18
100
AcDbEntity
  8
01
100
AcDbLine
 10
746.9186103635278
 20
-612.0902613041472
 30
0.0
 11
749.6186103635278
 21
-612.0902613041472
 31
0.0
1001
ACAD
1000
DSTYLE
1002
{
1070
    45
1040
0.5
1002
}
  0
LINE
  5
24EDF
330
18
100
AcDbEntity
  8
01
  6
ByBlock
100
AcDbLine
 10
746.4812367232116
 20
-624.8693444178408
 30
0.0
 11
745.7947664304129
 21
-626.8227889680627
 31
0.0
  0
LINE
  5
24EE0
330
18
100
AcDbEntity
  8
01
  6
ByBlock
100
AcDbLine
 10
745.7947664304129
 20
-626.8227889680627
 30
0.0
 11
745.4125448770406
 21
-624.7878212145529
 31
0.0
  0
LINE
  5
24EE1
330
18
100
AcDbEntity
  8
01
  6
ByBlock
100
AcDbLine
 10
745.7947664304129
 20
-626.8227889680627
 30
0.0
 11
745.9468908001261
 21
-624.8285828161969
 31
0.0
  0
LINE
  5
24EE2
330
18
100
AcDbEntity
  8
01
100
AcDbLine
 10
759.0823089452913
 20
-624.8285828161969
 30
0.0
 11
760.054028508693
 21
-612.0902613041472
 31
0.0
1001
ACAD
1000
DSTYLE
1002
{
1070
    45
1040
0.5
1002
}
  0
LINE
  5
24EE3
330
18
100
AcDbEntity
  8
01
100
AcDbLine
 10
760.054028508693
 20
-612.0902613041472
 30
0.0
 11
762.754028508693
 21
-612.0902613041472
 31
0.0
1001
ACAD
1000
DSTYLE
1002
{
1070
    45
1040
0.5
1002
}
  0
LINE
  5
24EE4
330
18
100
AcDbEntity
  8
01
  6
ByBlock
100
AcDbLine
 10
759.6166548683768
 20
-624.8693444178408
 30
0.0
 11
758.9301845755782
 21
-626.8227889680627
 31
0.0
  0
LINE
  5
24EE5
330
18
100
AcDbEntity
  8
01
  6
ByBlock
100
AcDbLine
 10
758.9301845755782
 20
-626.8227889680627
 30
0.0
 11
758.5479630222058
 21
-624.7878212145529
 31
0.0
  0
LINE
  5
24EE6
330
18
100
AcDbEntity
  8
01
  6
ByBlock
100
AcDbLine
 10
758.9301845755782
 20
-626.8227889680627
 30
0.0
 11
759.0823089452913
 21
-624.8285828161969
 31
0.0
  0
TEXT
  5
24EE7
330
18
100
AcDbEntity
  8
01
100
AcDbText
 10
782.1810867089234
 20
-635.6546637567654
 30
0.0
 40
3.5
  1
10
 50
90.0
100
AcDbText
  0
LINE
  5
24EE8
330
18
100
AcDbEntity
  8
01
  6
ByBlock
100
AcDbLine
 10
782.3451883289233
 20
-629.3213303512665
 30
0.0
 11
782.8810867089234
 21
-627.3213303512664
 31
0.0
  0
LINE
  5
24EE9
330
18
100
AcDbEntity
  8
01
  6
ByBlock
100
AcDbLine
 10
782.8810867089234
 20
-627.3213303512664
 30
0.0
 11
783.4169850889233
 21
-629.3213303512665
 31
0.0
  0
LINE
  5
24EEA
330
18
100
AcDbEntity
  8
01
  6
ByBlock
100
AcDbLine
 10
782.8810867089234
 20
-627.3213303512664
 30
0.0
 11
782.8810867089234
 21
-629.3213303512665
 31
0.0
  0
LINE
  5
24EEB
330
18
100
AcDbEntity
  8
01
  6
ByBlock
100
AcDbLine
 10
783.4169850889233
 20
-634.821330495598
 30
0.0
 11
782.8810867089234
 21
-636.8213304955981
 31
0.0
  0
LINE
  5
24EEC
330
18
100
AcDbEntity
  8
01
  6
ByBlock
100
AcDbLine
 10
782.8810867089234
 20
-636.8213304955981
 30
0.0
 11
782.3451883289233
 21
-634.821330495598
 31
0.0
  0
LINE
  5
24EED
330
18
100
AcDbEntity
  8
01
  6
ByBlock
100
AcDbLine
 10
782.8810867089234
 20
-636.8213304955981
 30
0.0
 11
782.8810867089234
 21
-634.821330495598
 31
0.0
  0
TEXT
  5
24EEE
330
18
100
AcDbEntity
  8
01
100
AcDbText
 10
792.1810867089234
 20
-661.3546640785456
 30
0.0
 40
3.5
  1
\U+03C657
 50
90.0
100
AcDbText
  0
LINE
  5
24EEF
330
18
100
AcDbEntity
  8
01
  6
ByBlock
100
AcDbLine
 10
792.3451883289232
 20
-629.3213303512665
 30
0.0
 11
792.8810867089233
 21
-627.3213303512664
 31
0.0
  0
LINE
  5
24EF0
330
18
100
AcDbEntity
  8
01
  6
ByBlock
100
AcDbLine
 10
792.8810867089233
 20
-627.3213303512664
 30
0.0
 11
793.4169850889234
 21
-629.3213303512665
 31
0.0
  0
LINE
  5
24EF1
330
18
100
AcDbEntity
  8
01
  6
ByBlock
100
AcDbLine
 10
792.8810867089233
 20
-627.3213303512664
 30
0.0
 11
792.8810867089233
 21
-629.3213303512665
 31
0.0
  0
LINE
  5
24EF2
330
18
100
AcDbEntity
  8
01
  6
ByBlock
100
AcDbLine
 10
793.4169850889234
 20
-682.3213311391583
 30
0.0
 11
792.8810867089233
 21
-684.3213311391584
 31
0.0
  0
LINE
  5
24EF3
330
18
100
AcDbEntity
  8
01
  6
ByBlock
100
AcDbLine
 10
792.8810867089233
 20
-684.3213311391584
 30
0.0
 11
792.3451883289232
 21
-682.3213311391583
 31
0.0
  0
LINE
  5
24EF4
330
18
100
AcDbEntity
  8
01
  6
ByBlock
100
AcDbLine
 10
792.8810867089233
 20
-684.3213311391584
 30
0.0
 11
792.8810867089233
 21
-682.3213311391583
 31
0.0
  0
TEXT
  5
24EF5
330
18
100
AcDbEntity
  8
01
100
AcDbText
 10
782.1810867089234
 20
-660.9879970022848
 30
0.0
 40
3.5
  1
P38
 50
90.0
100
AcDbText
  0
LINE
  5
24EF6
330
18
100
AcDbEntity
  8
01
  6
ByBlock
100
AcDbLine
 10
782.3451883289233
 20
-638.821330495598
 30
0.0
 11
782.8810867089234
 21
-636.8213304955981
 31
0.0
  0
LINE
  5
24EF7
330
18
100
AcDbEntity
  8
01
  6
ByBlock
100
AcDbLine
 10
782.8810867089234
 20
-636.8213304955981
 30
0.0
 11
783.4169850889233
 21
-638.821330495598
 31
0.0
  0
LINE
  5
24EF8
330
18
100
AcDbEntity
  8
01
  6
ByBlock
100
AcDbLine
 10
782.8810867089234
 20
-636.8213304955981
 30
0.0
 11
782.8810867089234
 21
-638.821330495598
 31
0.0
  0
LINE
  5
24EF9
330
18
100
AcDbEntity
  8
01
  6
ByBlock
100
AcDbLine
 10
783.4169850889233
 20
-672.8213301756388
 30
0.0
 11
782.8810867089234
 21
-674.8213301756387
 31
0.0
  0
LINE
  5
24EFA
330
18
100
AcDbEntity
  8
01
  6
ByBlock
100
AcDbLine
 10
782.8810867089234
 20
-674.8213301756387
 30
0.0
 11
782.3451883289233
 21
-672.8213301756388
 31
0.0
  0
LINE
  5
24EFB
330
18
100
AcDbEntity
  8
01
  6
ByBlock
100
AcDbLine
 10
782.8810867089234
 20
-674.8213301756387
 30
0.0
 11
782.8810867089234
 21
-672.8213301756388
 31
0.0
  0
TEXT
  5
24EFC
330
18
100
AcDbEntity
  8
01
100
AcDbText
 10
368.8810956405979
 20
-699.3213303512676
 30
0.0
 40
10.5
  1
P450
100
AcDbText
  0
LINE
  5
24EFD
330
18
100
AcDbEntity
  8
01
  6
ByBlock
100
AcDbLine
 10
608.3810956405981
 20
-699.8136352112676
 30
0.0
 11
614.3810956405981
 21
-701.4213303512677
 31
0.0
  0
LINE
  5
24EFE
330
18
100
AcDbEntity
  8
01
  6
ByBlock
100
AcDbLine
 10
614.3810956405981
 20
-701.4213303512677
 30
0.0
 11
608.3810956405981
 21
-703.0290254912677
 31
0.0
  0
LINE
  5
24EFF
330
18
100
AcDbEntity
  8
01
  6
ByBlock
100
AcDbLine
 10
614.3810956405981
 20
-701.4213303512677
 30
0.0
 11
608.3810956405981
 21
-701.4213303512677
 31
0.0
  0
LINE
  5
24F00
330
18
100
AcDbEntity
  8
01
  6
ByBlock
100
AcDbLine
 10
170.3810956405976
 20
-703.0290254912677
 30
0.0
 11
164.3810956405976
 21
-701.4213303512677
 31
0.0
  0
LINE
  5
24F01
330
18
100
AcDbEntity
  8
01
  6
ByBlock
100
AcDbLine
 10
164.3810956405976
 20
-701.4213303512677
 30
0.0
 11
170.3810956405976
 21
-699.8136352112676
 31
0.0
  0
LINE
  5
24F02
330
18
100
AcDbEntity
  8
01
  6
ByBlock
100
AcDbLine
 10
164.3810956405976
 20
-701.4213303512677
 30
0.0
 11
170.3810956405976
 21
-701.4213303512677
 31
0.0
  0
TEXT
  5
24F03
330
18
100
AcDbEntity
  8
01
100
AcDbText
 10
543.410684023665
 20
-584.3213303512664
 30
0.0
 40
3.5
  1
\U+03C613
 50
90.0
100
AcDbText
  0
LINE
  5
24F04
330
18
100
AcDbEntity
  8
01
  6
ByBlock
100
AcDbLine
 10
543.5747856436649
 20
-588.3213303512664
 30
0.0
 11
544.110684023665
 21
-586.3213303512663
 31
0.0
  0
LINE
  5
24F05
330
18
100
AcDbEntity
  8
01
  6
ByBlock
100
AcDbLine
 10
544.110684023665
 20
-586.3213303512663
 30
0.0
 11
544.6465824036651
 21
-588.3213303512664
 31
0.0
  0
LINE
  5
24F06
330
18
100
AcDbEntity
  8
01
  6
ByBlock
100
AcDbLine
 10
544.110684023665
 20
-586.3213303512663
 30
0.0
 11
544.110684023665
 21
-588.3213303512664
 31
0.0
  0
LINE
  5
24F07
330
18
100
AcDbEntity
  8
01
  6
ByBlock
100
AcDbLine
 10
544.6465824036651
 20
-597.3213303512664
 30
0.0
 11
544.110684023665
 21
-599.3213303512663
 31
0.0
  0
LINE
  5
24F08
330
18
100
AcDbEntity
  8
01
  6
ByBlock
100
AcDbLine
 10
544.110684023665
 20
-599.3213303512663
 30
0.0
 11
543.5747856436649
 21
-597.3213303512664
 31
0.0
  0
LINE
  5
24F09
330
18
100
AcDbEntity
  8
01
  6
ByBlock
100
AcDbLine
 10
544.110684023665
 20
-599.3213303512663
 30
0.0
 11
544.110684023665
 21
-597.3213303512664
 31
0.0
  0
TEXT
  5
24F0A
330
18
100
AcDbEntity
  8
01
100
AcDbText
 10
705.2144290602665
 20
-700.7213303512676
 30
0.0
 40
3.5
  1
63.5
100
AcDbText
  0
LINE
  5
24F0B
330
18
100
AcDbEntity
  8
01
  6
ByBlock
100
AcDbLine
 10
740.8810948527054
 20
-700.8854319712676
 30
0.0
 11
742.8810948527053
 21
-701.4213303512677
 31
0.0
  0
LINE
  5
24F0C
330
18
100
AcDbEntity
  8
01
  6
ByBlock
100
AcDbLine
 10
742.8810948527053
 20
-701.4213303512677
 30
0.0
 11
740.8810948527054
 21
-701.9572287312676
 31
0.0
  0
LINE
  5
24F0D
330
18
100
AcDbEntity
  8
01
  6
ByBlock
100
AcDbLine
 10
742.8810948527053
 20
-701.4213303512677
 30
0.0
 11
740.8810948527054
 21
-701.4213303512677
 31
0.0
  0
LINE
  5
24F0E
330
18
100
AcDbEntity
  8
01
  6
ByBlock
100
AcDbLine
 10
681.3810966011608
 20
-701.9572287312676
 30
0.0
 11
679.3810966011608
 21
-701.4213303512677
 31
0.0
  0
LINE
  5
24F0F
330
18
100
AcDbEntity
  8
01
  6
ByBlock
100
AcDbLine
 10
679.3810966011608
 20
-701.4213303512677
 30
0.0
 11
681.3810966011608
 21
-700.8854319712676
 31
0.0
  0
LINE
  5
24F10
330
18
100
AcDbEntity
  8
01
  6
ByBlock
100
AcDbLine
 10
679.3810966011608
 20
-701.4213303512677
 30
0.0
 11
681.3810966011608
 21
-701.4213303512677
 31
0.0
  0
TEXT
  5
24F11
330
18
100
AcDbEntity
  8
01
100
AcDbText
 10
374.3810956405979
 20
-729.3213303512676
 30
0.0
 40
10.5
  1
507
100
AcDbText
  0
LINE
  5
24F12
330
18
100
AcDbEntity
  8
01
  6
ByBlock
100
AcDbLine
 10
636.8810948527058
 20
-729.8136352112676
 30
0.0
 11
642.8810948527058
 21
-731.4213303512676
 31
0.0
  0
LINE
  5
24F13
330
18
100
AcDbEntity
  8
01
  6
ByBlock
100
AcDbLine
 10
642.8810948527058
 20
-731.4213303512676
 30
0.0
 11
636.8810948527058
 21
-733.0290254912677
 31
0.0
  0
LINE
  5
24F14
330
18
100
AcDbEntity
  8
01
  6
ByBlock
100
AcDbLine
 10
642.8810948527058
 20
-731.4213303512676
 30
0.0
 11
636.8810948527058
 21
-731.4213303512676
 31
0.0
  0
LINE
  5
24F15
330
18
100
AcDbEntity
  8
01
  6
ByBlock
100
AcDbLine
 10
141.8810964284899
 20
-733.0290254912677
 30
0.0
 11
135.88109642849
 21
-731.4213303512676
 31
0.0
  0
LINE
  5
24F16
330
18
100
AcDbEntity
  8
01
  6
ByBlock
100
AcDbLine
 10
135.88109642849
 20
-731.4213303512676
 30
0.0
 11
141.8810964284899
 21
-729.8136352112676
 31
0.0
  0
LINE
  5
24F17
330
18
100
AcDbEntity
  8
01
  6
ByBlock
100
AcDbLine
 10
135.88109642849
 20
-731.4213303512676
 30
0.0
 11
141.8810964284899
 21
-731.4213303512676
 31
0.0
  0
TEXT
  5
24F18
330
18
100
AcDbEntity
  8
01
100
AcDbText
 10
608.847763181496
 20
-500.1213303512663
 30
0.0
 40
3.5
  1
\U+03C657
100
AcDbText
  0
LINE
  5
24F19
330
18
100
AcDbEntity
  8
01
  6
ByBlock
100
AcDbLine
 10
587.8810965148294
 20
-501.3572287312664
 30
0.0
 11
585.8810965148294
 21
-500.8213303512664
 31
0.0
  0
LINE
  5
24F1A
330
18
100
AcDbEntity
  8
01
  6
ByBlock
100
AcDbLine
 10
585.8810965148294
 20
-500.8213303512664
 30
0.0
 11
587.8810965148294
 21
-500.2854319712664
 31
0.0
  0
LINE
  5
24F1B
330
18
100
AcDbEntity
  8
01
  6
ByBlock
100
AcDbLine
 10
585.8810965148294
 20
-500.8213303512664
 30
0.0
 11
587.8810965148294
 21
-500.8213303512664
 31
0.0
  0
LINE
  5
24F1C
330
18
100
AcDbEntity
  8
01
  6
ByBlock
100
AcDbLine
 10
640.8810965148294
 20
-500.2854319712664
 30
0.0
 11
642.8810965148294
 21
-500.8213303512664
 31
0.0
  0
LINE
  5
24F1D
330
18
100
AcDbEntity
  8
01
  6
ByBlock
100
AcDbLine
 10
642.8810965148294
 20
-500.8213303512664
 30
0.0
 11
640.8810965148294
 21
-501.3572287312664
 31
0.0
  0
LINE
  5
24F1E
330
18
100
AcDbEntity
  8
01
  6
ByBlock
100
AcDbLine
 10
642.8810965148294
 20
-500.8213303512664
 30
0.0
 11
640.8810965148294
 21
-500.8213303512664
 31
0.0
  0
LINE
  5
24F1F
330
18
100
AcDbEntity
  8
01
100
AcDbLine
 10
521.3743582692274
 20
-646.7758887532719
 30
0.0
 11
524.5098859806888
 21
-634.6476401982592
 31
0.0
1001
ACAD
1000
DSTYLE
1002
{
1070
    45
1040
0.5
1002
}
  0
LINE
  5
24F20
330
18
100
AcDbEntity
  8
01
100
AcDbLine
 10
524.5098859806888
 20
-634.6476401982592
 30
0.0
 11
527.2098859806889
 21
-634.6476401982592
 31
0.0
1001
ACAD
1000
DSTYLE
1002
{
1070
    45
1040
0.5
1002
}
  0
LINE
  5
24F21
330
18
100
AcDbEntity
  8
01
  6
ByBlock
100
AcDbLine
 10
521.8931979145918
 20
-646.9100248635656
 30
0.0
 11
520.8737554859395
 21
-648.7122246883215
 31
0.0
  0
LINE
  5
24F22
330
18
100
AcDbEntity
  8
01
  6
ByBlock
100
AcDbLine
 10
520.8737554859395
 20
-648.7122246883215
 30
0.0
 11
520.8555186238631
 21
-646.6417526429782
 31
0.0
  0
LINE
  5
24F23
330
18
100
AcDbEntity
  8
01
  6
ByBlock
100
AcDbLine
 10
520.8737554859395
 20
-648.7122246883215
 30
0.0
 11
521.3743582692274
 21
-646.7758887532719
 31
0.0
  0
LINE
  5
24F24
330
18
100
AcDbEntity
  8
01
100
AcDbLine
 10
588.5520735800439
 20
-583.9407632678203
 30
0.0
 11
581.7671196182053
 21
-572.4850623630612
 31
0.0
1001
ACAD
1000
DSTYLE
1002
{
1070
    45
1040
0.5
1002
}
  0
LINE
  5
24F25
330
18
100
AcDbEntity
  8
01
100
AcDbLine
 10
581.7671196182053
 20
-572.4850623630612
 30
0.0
 11
579.0671196182053
 21
-572.4850623630612
 31
0.0
1001
ACAD
1000
DSTYLE
1002
{
1070
    45
1040
0.5
1002
}
  0
LINE
  5
24F26
330
18
100
AcDbEntity
  8
01
  6
ByBlock
100
AcDbLine
 10
589.0131661251983
 20
-583.6676685251216
 30
0.0
 11
589.5712770443229
 21
-585.6615840889408
 31
0.0
  0
LINE
  5
24F27
330
18
100
AcDbEntity
  8
01
  6
ByBlock
100
AcDbLine
 10
589.5712770443229
 20
-585.6615840889408
 30
0.0
 11
588.0909810348895
 21
-584.2138580105191
 31
0.0
  0
LINE
  5
24F28
330
18
100
AcDbEntity
  8
01
  6
ByBlock
100
AcDbLine
 10
589.5712770443229
 20
-585.6615840889408
 30
0.0
 11
588.5520735800439
 21
-583.9407632678203
 31
0.0
  0
LINE
  5
24F29
330
18
100
AcDbEntity
  8
01
100
AcDbLine
 10
585.4685887504802
 20
-543.209933004946
 30
0.0
 11
577.5649982740959
 21
-552.5211841775019
 31
0.0
1001
ACAD
1000
DSTYLE
1002
{
1070
    45
1040
0.5
1002
}
  0
LINE
  5
24F2A
330
18
100
AcDbEntity
  8
01
100
AcDbLine
 10
577.5649982740959
 20
-552.5211841775019
 30
0.0
 11
574.8649982740959
 21
-552.5211841775019
 31
0.0
1001
ACAD
1000
DSTYLE
1002
{
1070
    45
1040
0.5
1002
}
  0
LINE
  5
24F2B
330
18
100
AcDbEntity
  8
01
  6
ByBlock
100
AcDbLine
 10
585.0600292073534
 20
-542.8631388680194
 30
0.0
 11
586.762842101
 21
-541.6851680182453
 31
0.0
  0
LINE
  5
24F2C
330
18
100
AcDbEntity
  8
01
  6
ByBlock
100
AcDbLine
 10
586.762842101
 20
-541.6851680182453
 30
0.0
 11
585.877148293607
 21
-543.5567271418725
 31
0.0
  0
LINE
  5
24F2D
330
18
100
AcDbEntity
  8
01
  6
ByBlock
100
AcDbLine
 10
586.762842101
 20
-541.6851680182453
 30
0.0
 11
585.4685887504802
 21
-543.209933004946
 31
0.0
  0
LINE
  5
24F2E
330
18
100
AcDbEntity
  8
01
100
AcDbLine
 10
628.0199358729647
 20
-551.1958361522225
 30
0.0
 11
639.7092325265855
 21
-564.8577863238537
 31
0.0
1001
ACAD
1000
DSTYLE
1002
{
1070
    45
1040
0.5
1002
}
  0
LINE
  5
24F2F
330
18
100
AcDbEntity
  8
01
100
AcDbLine
 10
639.7092325265855
 20
-564.8577863238537
 30
0.0
 11
642.4092325265855
 21
-564.8577863238537
 31
0.0
1001
ACAD
1000
DSTYLE
1002
{
1070
    45
1040
0.5
1002
}
  0
LINE
  5
24F30
330
18
100
AcDbEntity
  8
01
  6
ByBlock
100
AcDbLine
 10
627.6127431696188
 20
-551.5442341660349
 30
0.0
 11
626.7196967723635
 21
-549.676172281076
 31
0.0
  0
LINE
  5
24F31
330
18
100
AcDbEntity
  8
01
  6
ByBlock
100
AcDbLine
 10
626.7196967723635
 20
-549.676172281076
 30
0.0
 11
628.4271285763107
 21
-550.84743813841
 31
0.0
  0
LINE
  5
24F32
330
18
100
AcDbEntity
  8
01
  6
ByBlock
100
AcDbLine
 10
626.7196967723635
 20
-549.676172281076
 30
0.0
 11
628.0199358729647
 21
-551.1958361522225
 31
0.0
  0
VIEWPORT
  5
57
102
{ACAD_XDICTIONARY
360
24F53
102
}
330
15
100
AcDbEntity
 67
     1
  8
0
100
AcDbViewport
 10
76.33003802142292
 20
10.083731670551
 30
0.0
 40
770.6398794426081
 41
282.5335214846559
 68
     1
 69
     1
 12
76.33003802142292
 22
10.083731670551
 13
0.0
 23
0.0
 14
10.0
 24
10.0
 15
10.0
 25
10.0
 16
0.0
 26
0.0
 36
1.0
 17
0.0
 27
0.0
 37
0.0
 42
50.0
 43
0.0
 44
0.0
 45
282.5335214846559
 50
0.0
 51
0.0
 72
  1000
 90
    32800
  1

281
     0
 71
     1
 74
     0
110
0.0
120
0.0
130
0.0
111
1.0
121
0.0
131
0.0
112
0.0
122
1.0
132
0.0
 79
     0
146
0.0
  0
ENDSEC
  0
SECTION
  2
OBJECTS
  0
DICTIONARY
  5
C
330
0
100
AcDbDictionary
281
     1
  3
ACAD_CIP_PREVIOUS_PRODUCT_INFO
350
1F398
  3
ACAD_COLOR
350
2D0
  3
ACAD_GROUP
350
D
  3
ACAD_LAYOUT
350
2D1
  3
ACAD_MATERIAL
350
2CF
  3
ACAD_MLEADERSTYLE
350
19E18
  3
ACAD_MLINESTYLE
350
1B
  3
ACAD_PLOTSETTINGS
350
2D2
  3
ACAD_PLOTSTYLENAME
350
2CD
  3
ACAD_SCALELIST
350
19DF6
  3
ACAD_TABLESTYLE
350
4D6
  3
ACAD_VISUALSTYLE
350
19DE5
  3
ACDB_RECOMPOSE_DATA
350
24F51
  3
ACDBVARIABLEDICTIONARY
350
37
  3
CONTENTDICTIONARY
350
D8
  3
DRAWINGVARIABLESDICT
350
20
  3
DWGPROPS
350
24F52
  0
DICTIONARY
  5
1ABDC
330
8
100
AcDbDictionary
280
     1
281
     1
  0
DICTIONARY
  5
18FE8
330
2
100
AcDbDictionary
280
     1
281
     1
  3
ACAD_LAYERSTATES
360
18FE9
  0
DICTIONARY
  5
1A20A
330
E
100
AcDbDictionary
280
     1
281
     1
  3
ADSK_XREC_LAYER_RECONCILED
360
1A20B
  0
DICTIONARY
  5
1A20E
330
31
100
AcDbDictionary
280
     1
281
     1
  3
ADSK_XREC_LAYER_RECONCILED
360
1A20F
  0
DICTIONARY
  5
6E9
330
18
100
AcDbDictionary
280
     1
281
     1
  3
ACAD_SORTENTS
360
6EA
  0
DICTIONARY
  5
59B
330
15
100
AcDbDictionary
280
     1
281
     1
  3
ACAD_SORTENTS
360
59C
  0
DICTIONARY
  5
24F53
330
57
100
AcDbDictionary
280
     1
281
     1
  3
ACAD_XREC_ROUNDTRIP
360
24F54
  0
XRECORD
  5
1F398
102
{ACAD_REACTORS
330
C
102
}
330
C
100
AcDbXrecord
280
     1
300
ACDLT
300
2012
300
ACDLT_F_S
  0
DICTIONARY
  5
2D0
102
{ACAD_REACTORS
330
C
102
}
330
C
100
AcDbDictionary
281
     1
  0
DICTIONARY
  5
D
102
{ACAD_REACTORS
330
C
102
}
330
C
100
AcDbDictionary
281
     1
  3
*A1
350
214AA
  0
DICTIONARY
  5
2D1
102
{ACAD_REACTORS
330
C
102
}
330
C
100
AcDbDictionary
281
     1
  3
Model
350
2D3
  3
レイアウト1
350
2D4
  0
DICTIONARY
  5
2CF
102
{ACAD_REACTORS
330
C
102
}
330
C
100
AcDbDictionary
281
     1
  3
ByBlock
350
19DD5
  3
ByLayer
350
19DCD
  3
Global
350
19DDD
  0
DICTIONARY
  5
19E18
102
{ACAD_REACTORS
330
C
102
}
330
C
100
AcDbDictionary
281
     1
  3
Standard
350
19E19
  0
DICTIONARY
  5
1B
102
{ACAD_REACTORS
330
C
102
}
330
C
100
AcDbDictionary
281
     1
  3
STANDARD
350
1C
  0
DICTIONARY
  5
2D2
102
{ACAD_REACTORS
330
C
102
}
330
C
100
AcDbDictionary
281
     1
  0
ACDBDICTIONARYWDFLT
  5
2CD
102
{ACAD_REACTORS
330
C
102
}
330
C
100
AcDbDictionary
281
     1
  3
Normal
350
2CE
100
AcDbDictionaryWithDefault
340
2CE
  0
DICTIONARY
  5
19DF6
102
{ACAD_REACTORS
330
C
102
}
330
C
100
AcDbDictionary
281
     1
  3
A0
350
19DF7
  3
A1
350
19DF8
  3
A2
350
19DF9
  3
A3
350
19DFA
  3
A4
350
19DFB
  3
A5
350
19DFC
  3
A6
350
19DFD
  3
A7
350
19DFE
  3
A8
350
19DFF
  3
A9
350
19E00
  3
B0
350
19E01
  3
B1
350
19E02
  3
B2
350
19E03
  3
B3
350
19E04
  3
B4
350
19E05
  3
B5
350
19E06
  3
B6
350
19E07
  3
B7
350
19E08
  3
B8
350
19E09
  3
B9
350
19E0A
  3
C0
350
19E0B
  3
C1
350
19E0C
  3
C2
350
19E0D
  3
C3
350
19E0E
  3
C4
350
19E0F
  3
C5
350
19E10
  3
C6
350
19E11
  3
C7
350
19E12
  3
C8
350
19E13
  3
C9
350
19E14
  3
D0
350
19E15
  3
D1
350
19E16
  3
D2
350
19E17
  0
DICTIONARY
  5
4D6
102
{ACAD_REACTORS
330
C
102
}
330
C
100
AcDbDictionary
281
     1
  3
Standard
350
4D7
  0
DICTIONARY
  5
19DE5
102
{ACAD_REACTORS
330
C
102
}
330
C
100
AcDbDictionary
281
     1
  3
2dWireframe
350
19DEB
  3
3D Hidden
350
19DED
  3
3dWireframe
350
19DEC
  3
Basic
350
19DEA
  3
Brighten
350
19DF1
  3
ColorChange
350
19DF5
  3
Conceptual
350
19DEE
  3
Dim
350
19DF0
  3
EdgeColorOff
350
1E02A
  3
Facepattern
350
19DF4
  3
Flat
350
19DE6
  3
FlatWithEdges
350
19DE7
  3
Gouraud
350
19DE8
  3
GouraudWithEdges
350
19DE9
  3
Hidden
350
1F382
  3
JitterOff
350
1E028
  3
Linepattern
350
19DF3
  3
OverhangOff
350
1E029
  3
Realistic
350
19DEF
  3
Shaded
350
1F387
  3
Shaded with edges
350
1F386
  3
Shades of Gray
350
1F383
  3
Sketchy
350
1F384
  3
Thicken
350
19DF2
  3
Wireframe
350
1F381
  3
X-Ray
350
1F385
  0
XRECORD
  5
24F51
102
{ACAD_REACTORS
330
C
102
}
330
C
100
AcDbXrecord
280
     1
 90
        1
330
4D7
  0
DICTIONARY
  5
37
102
{ACAD_REACTORS
330
C
102
}
330
C
100
AcDbDictionary
281
     1
  3
CANNOSCALE
350
1AC1A
  3
CMLEADERSTYLE
350
1AC19
  3
CTABLESTYLE
350
4F1
  3
DIMADEC
350
38
  3
DIMASSOC
350
408
  3
HIDETEXT
350
1891
  3
INDEXCTL
350
1AC1C
  3
INTERSECTIONCOLOR
350
1895
  3
INTERSECTIONDISPLAY
350
1894
  3
LAYEREVAL
350
21470
  3
LAYERNOTIFY
350
21471
  3
OBSCOLOR
350
1892
  3
OBSLTYPE
350
1893
  3
PROJECTNAME
350
409
  3
SORTENTS
350
1AC1B
  3
XCLIPFRAME
350
24F4F
  0
DICTIONARY
  5
D8
102
{ACAD_REACTORS
330
C
102
}
330
C
100
AcDbDictionary
281
     1
1001
CONTENTTABDATA
1070
    11
1000
Child
1000
D:\ACLT\TABset\CHILDREN.dwg
1070
     0
1070
     0
1070
     1
1000
PK
1000
D:\ACLT\TABset\PK.dwg
1070
     0
1070
     0
1070
     1
1000
Lev1
1000
D:\ACLT\TABset\Lever01.dwg
1070
     0
1070
     0
1070
     1
1000
Lev2
1000
D:\ACLT\TABset\Lever02.dwg
1070
     0
1070
     0
1070
     1
1000
L3
1000
D:\Aclt\TABset\Lever03.dwg
1070
     0
1070
     0
1070
     1
1000
Form
1000
D:\ACLT\FORMAT
1070
     1
1070
     0
1070
     1
1000
Jnt
1000
D:\ACLT\TABset\JOINTPARTS.dwg
1070
     0
1070
     0
1070
     1
1000
ISO
1000
D:\ACLT\TABset\Isome01.dwg
1070
     0
1070
     0
1070
     1
1000
R
1000
D:\ACLT\TABset\REGION.dwg
1070
     0
1070
     0
1070
     1
1000
std
1000
D:\ACLT\TABset\std_sym_all.dwg
1070
     0
1070
     0
1070
     1
1000
丸
1000
D:\Aclt\TABset\MARU.dwg
1070
     0
1070
     0
1070
     1
1001
CONTENTCURRENTTAB
1070
     0
  0
DICTIONARY
  5
20
102
{ACAD_REACTORS
330
C
102
}
330
C
100
AcDbDictionary
281
     1
1001
DRAWINGVARIABLESXDATA
1000
POLARANG
1000
0.261799387799149410000000
1000
POLARMODE
1000
1
1000
POLARSTYLE
1000
1
  0
XRECORD
  5
24F52
102
{ACAD_REACTORS
330
C
102
}
330
C
100
AcDbXrecord
280
     1
  1
DWGPROPS COOKIE
  2

  3

  4

  6

  7

  8
3684
  9

300
=
301
=
302
=
303
=
304
=
305
=
306
=
307
=
308
=
309
=
 40
2.613589594907407
 41
2453033.732663484
 42
2457631.720903137
  1

 90
        0
  0
DICTIONARY
  5
18FE9
102
{ACAD_REACTORS
330
18FE8
102
}
330
18FE8
100
AcDbDictionary
281
     1
  3
_LAYISO_STATE
350
2428B
1001
AcLayerTools
1000
2D3
1000
0
  0
XRECORD
  5
1A20B
102
{ACAD_REACTORS
330
1A20A
102
}
330
1A20A
100
AcDbXrecord
280
     1
290
     1
  0
XRECORD
  5
1A20F
102
{ACAD_REACTORS
330
1A20E
102
}
330
1A20E
100
AcDbXrecord
280
     1
290
     1
  0
SORTENTSTABLE
  5
6EA
102
{ACAD_REACTORS
330
6E9
102
}
330
6E9
100
AcDbSortentsTable
330
18
331
24931
  5
24EDA
331
24950
  5
24EF9
331
24867
  5
24974
331
2482C
  5
24939
331
247B3
  5
24850
331
24F13
  5
24807
331
2488E
  5
24EA7
331
24853
  5
24960
331
247DA
  5
24877
331
24F32
  5
24836
331
24EB9
  5
247E3
331
24977
  5
24F20
331
247F9
  5
24896
331
24EE0
  5
244EC
331
20B4E
  5
20B64
331
21489
  5
214D5
331
248B5
  5
24ECE
331
24820
  5
2492D
331
24F07
  5
247E9
331
24847
  5
24954
331
247CE
  5
2486B
331
20B24
  5
20B38
331
20AF5
  5
20B0D
331
2494C
  5
24EF5
331
24863
  5
24970
331
24828
  5
24935
331
24973
  5
24F1C
331
2488A
  5
24EA3
331
2484F
  5
2495C
331
247D6
  5
24873
331
24F2E
  5
24837
331
247F5
  5
24892
331
248B1
  5
24ECA
331
2481C
  5
24929
331
24967
  5
24F10
331
2487E
  5
24E95
331
24843
  5
24950
331
247CA
  5
24867
331
24F03
  5
247EF
331
20AF1
  5
20B07
331
24948
  5
24EF1
331
24886
  5
24E9F
331
2484B
  5
24958
331
247D2
  5
2486F
331
24F2A
  5
2482F
331
2496F
  5
24F18
331
248AD
  5
24EC6
331
247F1
  5
2488E
331
24818
  5
248B5
331
2454F
  5
2484B
331
24EFF
  5
247E0
331
20B46
  5
20B60
331
24944
  5
24EED
331
24963
  5
24F0C
331
2487A
  5
24B87
331
2483F
  5
2494C
331
247C6
  5
24863
331
24F26
  5
24822
331
24ECC
  5
247BC
331
20B14
  5
20B2F
331
20B28
  5
20B3C
331
24882
  5
24E9B
331
2496B
  5
24F14
331
247ED
  5
2488A
331
20B42
  5
20B59
331
248A9
  5
24EC2
331
24940
  5
24EE9
331
24814
  5
248B1
331
2454B
  5
24847
331
24876
  5
24B1E
331
2483B
  5
24948
331
247C2
  5
2485F
331
24F22
  5
2481A
331
24EFB
  5
247D0
331
2495F
  5
24F08
331
2489D
  5
24EB6
331
2453F
  5
2483D
331
24EEF
  5
247C4
331
20AC5
  5
20ADC
331
20B3F
  5
20B54
331
20AD1
  5
20B03
331
248A5
  5
24EBE
331
247E9
  5
24886
331
24810
  5
248AD
331
24547
  5
24843
331
24EF7
  5
247D2
331
2493C
  5
24EE5
331
247BE
  5
2485B
331
24F1E
  5
24812
331
24872
  5
2497F
331
24837
  5
24944
331
24EA7
  5
2480B
331
24B24
  5
24F2E
331
2495B
  5
24F04
331
24899
  5
24EB2
331
2485E
  5
2496B
331
247E5
  5
24882
331
24804
  5
248A1
331
24EEB
  5
247B4
331
20B3B
  5
20B50
331
20B0C
  5
20B28
331
248A1
  5
24EBA
331
2480C
  5
248A9
331
24EF3
  5
247C2
331
24938
  5
24EE1
331
247BA
  5
24857
331
2486E
  5
2497B
331
24833
  5
24940
331
24EA3
  5
2481F
331
24F1A
  5
24814
331
24957
  5
24F00
331
24895
  5
24EAE
331
2485A
  5
24967
331
247E1
  5
2487E
331
24EC0
  5
247D6
331
20B37
  5
20B4C
331
20B08
  5
20B21
331
2497E
  5
24F27
331
24B87
  5
24F30
331
2492C
  5
24ED5
331
24800
  5
2489D
331
24827
  5
24934
331
24F0E
  5
247F6
331
24EE7
  5
247BA
331
20B55
  5
20BB5
331
24808
  5
248A5
331
24934
  5
24EDD
331
247B6
  5
24853
331
2486A
  5
24977
331
2482F
  5
2493C
331
24E9F
  5
24828
331
24F16
  5
24804
331
20B04
  5
20B20
331
24B1C
  5
24F2B
331
24953
  5
24EFC
331
24891
  5
24EAA
331
24856
  5
24963
331
247DD
  5
2487A
331
2497A
  5
24F23
331
24928
  5
24ED1
331
247FC
  5
24899
331
24823
  5
24930
331
24F0A
  5
247FC
331
24EE3
  5
2454B
331
20B27
  5
20B3B
331
20B51
  5
20B6A
331
20B33
  5
20B48
331
24930
  5
24ED9
331
247B2
  5
2484F
331
2494F
  5
24EF8
331
24866
  5
24973
331
2482B
  5
24938
331
24E9B
  5
24831
331
24F12
  5
24806
331
24976
  5
24F1F
331
2488D
  5
24EA6
331
24852
  5
2495F
331
247D9
  5
24876
331
24F31
  5
24835
331
24EB8
  5
247E2
331
247F8
  5
24895
331
24EDF
  5
244E2
331
248B4
  5
24ECD
331
2481F
  5
2492C
331
24F06
  5
247EE
331
24846
  5
24953
331
247CD
  5
2486A
331
20B23
  5
20B37
331
20AF4
  5
20B0C
331
21488
  5
214B6
331
24862
  5
2496F
331
2494B
  5
24EF4
331
24972
  5
24F1B
331
24889
  5
24EA2
331
2484E
  5
2495B
331
247D5
  5
24872
331
248B0
  5
24EC9
331
247F4
  5
24891
331
24F2D
  5
2482D
331
24EB4
  5
247F2
331
2481B
  5
24928
331
24F02
  5
247DD
331
20B2B
  5
20B3F
331
24947
  5
24EF0
331
24966
  5
24F0F
331
2487D
  5
24E94
331
24842
  5
2494F
331
247C9
  5
24866
331
20B17
  5
20B31
331
24885
  5
24E9E
331
2484A
  5
24957
331
247D1
  5
2486E
331
24F29
  5
2482E
331
2496E
  5
24F17
331
248AC
  5
24EC5
331
247F0
  5
2488D
331
24817
  5
248B4
331
2454E
  5
2484A
331
24EFE
  5
247DF
331
24ED7
  5
2454C
331
24943
  5
24EEC
331
247C5
  5
24862
331
24F25
  5
24826
331
24962
  5
24F0B
331
24879
  5
24B86
331
2483E
  5
2494B
331
24EAE
  5
247FF
331
24ECB
  5
247BB
331
20B13
  5
20B2C
331
20B45
  5
20B5F
331
24881
  5
24E9A
331
2496A
  5
24F13
331
248A8
  5
24EC1
331
247EC
  5
24889
331
24813
  5
248B0
331
2454A
  5
24846
331
24EFA
  5
247CF
331
24ED3
  5
2479C
331
2493F
  5
24EE8
331
24875
  5
24B1C
331
2483A
  5
24947
331
247C1
  5
2485E
331
24F21
  5
24819
331
2495E
  5
24F07
331
24EC7
  5
247CA
331
20B3E
  5
20B53
331
20B0F
  5
20B2A
331
2489C
  5
24EB5
331
24807
  5
248A4
331
24EEE
  5
247C7
331
20AC4
  5
20ADA
331
22C2F
  5
20B68
331
20B41
  5
20B58
331
247E8
  5
24885
331
248A4
  5
24EBD
331
2480F
  5
248AC
331
24546
  5
24842
331
24EF6
  5
247D1
331
2493B
  5
24EE4
331
247BD
  5
2485A
331
24F1D
  5
24811
331
24871
  5
2497E
331
24836
  5
24943
331
24EA6
  5
2480A
331
24B23
  5
24F2D
331
2495A
  5
24F03
331
24898
  5
24EB1
331
2485D
  5
2496A
331
247E4
  5
24881
331
20B3A
  5
20B4F
331
20B0B
  5
20B23
331
20ACC
  5
20B00
331
24803
  5
248A0
331
24EEA
  5
247B9
331
2492F
  5
24ED8
331
20AFF
  5
20B1B
331
20B58
  5
20BB8
331
21487
  5
214B5
331
248A0
  5
24EB9
331
24937
  5
24EE0
331
2480B
  5
248A8
331
24542
  5
24840
331
247B9
  5
24856
331
2486D
  5
2497A
331
24832
  5
2493F
331
24EA2
  5
2481E
331
24F19
  5
24813
331
24EF2
  5
247C1
331
24956
  5
24EFF
331
24894
  5
24EAD
331
24859
  5
24966
331
247E0
  5
2487D
331
24EBF
  5
247D5
331
2497D
  5
24F26
331
24B86
  5
24F2F
331
247FF
  5
2489C
331
24EE6
  5
24549
331
2492B
  5
24ED4
331
2479D
  5
2484E
331
24826
  5
24933
331
24F0D
  5
247FB
331
20AFB
  5
20B17
331
20B54
  5
20BB4
331
20B36
  5
20B4B
331
24933
  5
24EDC
331
247B5
  5
24852
331
24869
  5
24976
331
2482E
  5
2493B
331
24E9E
  5
24827
331
24F15
  5
24803
331
20B03
  5
20B1F
331
24952
  5
24EFB
331
24B1B
  5
24F2A
331
24890
  5
24EA9
331
24855
  5
24962
331
247DC
  5
24879
331
24EBB
  5
247E5
331
24979
  5
24F22
331
247FB
  5
24898
331
244E2
  5
2483C
331
24EE2
  5
2454A
331
248B7
  5
24ED0
331
24822
  5
2492F
331
24F09
  5
247EB
331
219B6
  5
2454E
331
20B26
  5
20B3A
331
20AF7
  5
20B0F
331
20B50
  5
20B69
331
20B32
  5
20B47
331
2494E
  5
24EF7
331
24865
  5
24972
331
2482A
  5
24937
331
24975
  5
24F1E
331
2488C
  5
24EA5
331
24851
  5
2495E
331
247D8
  5
24875
331
24F30
  5
24834
331
24E9A
  5
24830
331
24F11
  5
24809
331
247F7
  5
24894
331
24EDE
  5
24541
331
248B3
  5
24ECC
331
2481E
  5
2492B
331
24845
  5
24952
331
247CC
  5
24869
331
24F05
  5
247ED
331
20AF3
  5
20B0B
331
24861
  5
2496E
331
2494A
  5
24EF3
331
24888
  5
24EA1
331
2484D
  5
2495A
331
247D4
  5
24871
331
24F2C
  5
2482C
331
24EB3
  5
247F1
331
20B2A
  5
20B3E
331
24971
  5
24F1A
331
248AF
  5
24EC8
331
247F3
  5
24890
331
24946
  5
24EEF
331
2481A
  5
248B7
331
24965
  5
24F0E
331
2487C
  5
24C2D
331
24841
  5
2494E
331
247C8
  5
24865
331
24F01
  5
247DC
331
24EDA
  5
24542
331
20B48
  5
20B63
331
24884
  5
24E9D
331
24849
  5
24956
331
247D0
  5
2486D
331
24F28
  5
24824
331
2496D
  5
24F16
331
248AB
  5
24EC4
331
247EF
  5
2488C
331
24942
  5
24EEB
331
24816
  5
248B3
331
2454D
  5
24849
331
247C4
  5
24861
331
24F24
  5
24825
331
24961
  5
24F0A
331
24878
  5
24B24
331
2483D
  5
2494A
331
2489F
  5
24EB8
331
24EAD
  5
247FE
331
24EFD
  5
247DE
331
20B44
  5
20B5E
331
24880
  5
24E99
331
24969
  5
24F12
331
248A7
  5
24EC0
331
247EB
  5
24888
331
2493E
  5
24EE7
331
24812
  5
248AF
331
24549
  5
24845
331
24874
  5
24B1B
331
24839
  5
24946
331
247C0
  5
2485D
331
24F20
  5
2481D
331
24EF9
  5
247CE
331
24ED2
  5
24550
331
2495D
  5
24F06
331
247E7
  5
24884
331
24EC6
  5
247C9
331
2489B
  5
24EB4
331
24806
  5
248A3
331
24EED
  5
247B6
331
20AC3
  5
20AD9
331
20B3D
  5
20B52
331
20B40
  5
20B57
331
248A3
  5
24EBC
331
24C2D
  5
24F32
331
2493A
  5
24EE3
331
2480E
  5
248AB
331
24545
  5
24841
331
24870
  5
2497D
331
24835
  5
24942
331
247BC
  5
24859
331
24F1C
  5
24810
331
24EF5
  5
247D4
331
24959
  5
24F02
331
24897
  5
24EB0
331
2485C
  5
24969
331
247E3
  5
24880
331
24B89
  5
24F31
331
24802
  5
2489F
331
24EE9
  5
247B8
331
20B57
  5
20BB7
331
20B39
  5
20B4E
331
2492E
  5
24ED7
331
20AFE
  5
20B19
331
20ACB
  5
20AFF
331
24936
  5
24EDF
331
2480A
  5
248A7
331
24541
  5
2483F
331
2486C
  5
24979
331
24831
  5
2493E
331
247B8
  5
24855
331
24F18
  5
24816
331
24EF1
  5
247C6
331
24B1E
  5
24F2C
331
24955
  5
24EFE
331
24893
  5
24EAC
331
24858
  5
24965
331
247DF
  5
2487C
331
2497C
  5
24F25
331
2492A
  5
24ED3
331
247FE
  5
2489B
331
2479C
  5
2484D
331
24825
  5
24932
331
24E95
  5
2483A
331
24F0C
  5
247FA
331
24EE5
  5
24548
331
20B53
  5
20B97
331
20B35
  5
20B4A
331
24932
  5
24EDB
331
24868
  5
24975
331
2482D
  5
2493A
331
247B4
  5
24851
331
24F14
  5
24808
331
20B02
  5
20B1D
331
24951
  5
24EFA
331
24B1A
  5
24F29
331
2488F
  5
24EA8
331
24854
  5
24961
331
247DB
  5
24878
331
24EBA
  5
247E4
331
24978
  5
24F21
331
247FA
  5
24897
331
244E1
  5
2483B
331
24EE1
  5
2453F
331
20B4F
  5
20B67
331
20B31
  5
20B45
331
248B6
  5
24ECF
331
24821
  5
2492E
331
24F08
  5
247EA
331
20AF6
  5
20B0E
331
247CF
  5
2486C
331
20B25
  5
20B39
331
2494D
  5
24EF6
331
24864
  5
24971
331
24829
  5
24936
331
24974
  5
24F1D
331
2488B
  5
24EA4
331
24850
  5
2495D
331
247D7
  5
24874
331
24F2F
  5
24838
331
24F10
  5
247F8
331
247F6
  5
24893
331
24EDD
  5
24540
331
248B2
  5
24ECB
331
2481D
  5
2492A
331
2487F
  5
24E96
331
24844
  5
24951
331
247CB
  5
24868
331
24F04
  5
247EC
331
20AF2
  5
20B0A
331
24860
  5
2496D
331
24949
  5
24EF2
331
24887
  5
24EA0
331
2484C
  5
24959
331
247D3
  5
24870
331
24F2B
  5
2482B
331
24EB2
  5
247F0
331
24970
  5
24F19
331
248AE
  5
24EC7
331
247F2
  5
2488F
331
24819
  5
248B6
331
24550
  5
2484C
331
24F00
  5
247DB
331
20B47
  5
20B61
331
24945
  5
24EEE
331
24964
  5
24F0D
331
2487B
  5
24B89
331
24840
  5
2494D
331
247C7
  5
24864
331
24F27
  5
24823
331
24ECD
  5
247BD
331
217DD
  5
2454D
331
20B15
  5
20B30
331
20B29
  5
20B3D
331
24883
  5
24E9C
331
24848
  5
24955
331
2496C
  5
24F15
331
247EE
  5
2488B
331
20B43
  5
20B5A
331
248AA
  5
24EC3
331
24815
  5
248B2
331
2454C
  5
24848
331
24EFC
  5
247E1
331
24941
  5
24EEA
331
247C3
  5
24860
331
24F23
  5
2481B
331
24960
  5
24F09
331
24877
  5
24B23
331
2483C
  5
24949
331
2489E
  5
24EB7
331
24EAC
  5
247FD
331
20B5E
  5
20BB9
331
20B11
  5
20B2B
331
20AD2
  5
20B05
331
24968
  5
24F11
331
24ED1
  5
2454F
331
247EA
  5
24887
331
22C31
  5
20AFD
331
248A6
  5
24EBF
331
24811
  5
248AE
331
24548
  5
24844
331
24EF8
  5
247D3
331
20ACE
  5
20B02
331
2493D
  5
24EE6
331
247BF
  5
2485C
331
24F1F
  5
2481C
331
24873
  5
24B1A
331
24838
  5
24945
331
24EA8
  5
2480C
331
2495C
  5
24F05
331
2485F
  5
2496C
331
247E6
  5
24883
331
24EC5
  5
247C8
331
20B3C
  5
20B51
331
2489A
  5
24EB3
331
24805
  5
248A2
331
24EEC
  5
247B5
331
20AC2
  5
20AD8
331
20B0D
  5
20B29
331
248A2
  5
24EBB
331
24939
  5
24EE2
331
2480D
  5
248AA
331
2486F
  5
2497C
331
24834
  5
24941
331
247BB
  5
24858
331
24F1B
  5
24815
331
24EF4
  5
247C3
331
24958
  5
24F01
331
24896
  5
24EAF
331
2485B
  5
24968
331
247E2
  5
2487F
331
24EC1
  5
247D7
331
2497F
  5
24F28
331
2492D
  5
24ED6
331
24801
  5
2489E
331
24F0F
  5
247F7
331
24EE8
  5
247B7
331
20B56
  5
20BB6
331
20B38
  5
20B4D
331
20ACA
  5
20ADD
331
24935
  5
24EDE
331
24809
  5
248A6
331
24540
  5
2483E
331
2486B
  5
24978
331
24830
  5
2493D
331
247B7
  5
24854
331
24F17
  5
24805
331
24EF0
  5
247C5
331
24954
  5
24EFD
331
24892
  5
24EAB
331
24857
  5
24964
331
247DE
  5
2487B
331
2497B
  5
24F24
331
247FD
  5
2489A
331
24EE4
  5
24547
331
20B52
  5
20B72
331
24929
  5
24ED2
331
24824
  5
24931
331
24E94
  5
24839
331
24F0B
  5
247F9
331
20AF9
  5
20B10
331
20B34
  5
20B49
  0
SORTENTSTABLE
  5
59C
102
{ACAD_REACTORS
330
59B
102
}
330
59B
100
AcDbSortentsTable
330
15
331
57
  5
57
  0
XRECORD
  5
24F54
102
{ACAD_REACTORS
330
24F53
102
}
330
24F53
100
AcDbXrecord
280
     1
102
SHADEPLOT
 70
     0
  0
GROUP
  5
214AA
102
{ACAD_REACTORS
330
D
102
}
330
D
100
AcDbGroup
300

 70
     1
 71
     1
340
21489
340
21488
340
21487
  0
LAYOUT
  5
2D3
102
{ACAD_XDICTIONARY
360
1E441
102
}
102
{ACAD_REACTORS
330
2D1
102
}
330
2D1
100
AcDbPlotSettings
  1

  2
EPSON LP-9600S
  4
A4
  6

 40
5.873749732971191
 41
5.873747825622558
 42
5.873748779296875
 43
5.873748779296875
 44
209.9733276367187
 45
297.0106506347656
 46
0.0
 47
0.0
 48
0.0
 49
0.0
140
0.0
141
0.0
142
1.0
143
14.39645349335178
 70
 11952
 72
     1
 73
     1
 74
     0
  7
A3for2004.ctb
 75
     0
147
0.0694615517955027
148
1927.839108383867
149
3094.661789558366
100
AcDbLayout
  1
Model
 70
     1
 71
     0
 10
0.0
 20
0.0
 11
12.0
 21
9.0
 12
0.0
 22
0.0
 32
0.0
 14
0.0
 24
0.0
 34
0.0
 15
0.0
 25
0.0
 35
0.0
146
0.0
 13
0.0
 23
0.0
 33
0.0
 16
1.0
 26
0.0
 36
0.0
 17
0.0
 27
1.0
 37
0.0
 76
     0
330
18
331
19DC2
1001
ACAD_PSEXT
1000
EPSON LP-9600S
1000
EPSON LP-9600S
1000
172.16.5.152:raw
1000

1070
     0
  0
LAYOUT
  5
2D4
102
{ACAD_XDICTIONARY
360
1E041
102
}
102
{ACAD_REACTORS
330
2D1
102
}
330
2D1
100
AcDbPlotSettings
  1

  2
EPSON LP-9600S
  4
A3
  6

 40
5.873749732971191
 41
5.873747825622558
 42
5.873748779296875
 43
5.873748779296875
 44
297.0106506347656
 45
419.9466552734374
 46
0.0
 47
0.0
 48
0.0
 49
0.0
140
0.0
141
0.0
142
1.0
143
0.9876218188428531
 70
   688
 72
     1
 73
     1
 74
     1
  7
A3for2004.ctb
 75
     0
147
1.012533320873418
148
214.291403832631
149
130.1739883871544
100
AcDbLayout
  1
レイアウト1
 70
     1
 71
     1
 10
0.0
 20
0.0
 11
420.0
 21
297.0
 12
0.0
 22
0.0
 32
0.0
 14
1.000000000000000E+20
 24
1.000000000000000E+20
 34
1.000000000000000E+20
 15
-1.000000000000000E+20
 25
-1.000000000000000E+20
 35
-1.000000000000000E+20
146
0.0
 13
0.0
 23
0.0
 33
0.0
 16
1.0
 26
0.0
 36
0.0
 17
0.0
 27
1.0
 37
0.0
 76
     0
330
15
331
57
1001
ACAD_PSEXT
1000
EPSON LP-9600S
1000
EPSON LP-9600S
1000
172.16.5.152:raw
1000

1070
     0
  0
MATERIAL
  5
19DD5
102
{ACAD_XDICTIONARY
360
19DD6
102
}
102
{ACAD_REACTORS
330
2CF
102
}
330
2CF
100
AcDbMaterial
  1
ByBlock
 72
     0
 43
0.0208333333333333
 43
0.0
 43
0.0
 43
0.0
 43
0.0
 43
0.0208333333333333
 43
0.0
 43
0.0
 43
0.0
 43
0.0
 43
1.0
 43
0.0
 43
0.0
 43
0.0
 43
0.0
 43
1.0
 77
     0
 47
0.0208333333333333
 47
0.0
 47
0.0
 47
0.0
 47
0.0
 47
0.0208333333333333
 47
0.0
 47
0.0
 47
0.0
 47
0.0
 47
1.0
 47
0.0
 47
0.0
 47
0.0
 47
0.0
 47
1.0
171
     0
 49
0.0208333333333333
 49
0.0
 49
0.0
 49
0.0
 49
0.0
 49
0.0208333333333333
 49
0.0
 49
0.0
 49
0.0
 49
0.0
 49
1.0
 49
0.0
 49
0.0
 49
0.0
 49
0.0
 49
1.0
175
     0
142
0.0208333333333333
142
0.0
142
0.0
142
0.0
142
0.0
142
0.0208333333333333
142
0.0
142
0.0
142
0.0
142
0.0
142
1.0
142
0.0
142
0.0
142
0.0
142
0.0
142
1.0
179
     0
144
0.0208333333333333
144
0.0
144
0.0
144
0.0
144
0.0
144
0.0208333333333333
144
0.0
144
0.0
144
0.0
144
0.0
144
1.0
144
0.0
144
0.0
144
0.0
144
0.0
144
1.0
147
0.0208333333333333
147
0.0
147
0.0
147
0.0
147
0.0
147
0.0208333333333333
147
0.0
147
0.0
147
0.0
147
0.0
147
1.0
147
0.0
147
0.0
147
0.0
147
0.0
147
1.0
  0
MATERIAL
  5
19DCD
102
{ACAD_XDICTIONARY
360
19DCE
102
}
102
{ACAD_REACTORS
330
2CF
102
}
330
2CF
100
AcDbMaterial
  1
ByLayer
 72
     0
 43
0.0208333333333333
 43
0.0
 43
0.0
 43
0.0
 43
0.0
 43
0.0208333333333333
 43
0.0
 43
0.0
 43
0.0
 43
0.0
 43
1.0
 43
0.0
 43
0.0
 43
0.0
 43
0.0
 43
1.0
 77
     0
 47
0.0208333333333333
 47
0.0
 47
0.0
 47
0.0
 47
0.0
 47
0.0208333333333333
 47
0.0
 47
0.0
 47
0.0
 47
0.0
 47
1.0
 47
0.0
 47
0.0
 47
0.0
 47
0.0
 47
1.0
171
     0
 49
0.0208333333333333
 49
0.0
 49
0.0
 49
0.0
 49
0.0
 49
0.0208333333333333
 49
0.0
 49
0.0
 49
0.0
 49
0.0
 49
1.0
 49
0.0
 49
0.0
 49
0.0
 49
0.0
 49
1.0
175
     0
142
0.0208333333333333
142
0.0
142
0.0
142
0.0
142
0.0
142
0.0208333333333333
142
0.0
142
0.0
142
0.0
142
0.0
142
1.0
142
0.0
142
0.0
142
0.0
142
0.0
142
1.0
179
     0
144
0.0208333333333333
144
0.0
144
0.0
144
0.0
144
0.0
144
0.0208333333333333
144
0.0
144
0.0
144
0.0
144
0.0
144
1.0
144
0.0
144
0.0
144
0.0
144
0.0
144
1.0
147
0.0208333333333333
147
0.0
147
0.0
147
0.0
147
0.0
147
0.0208333333333333
147
0.0
147
0.0
147
0.0
147
0.0
147
1.0
147
0.0
147
0.0
147
0.0
147
0.0
147
1.0
  0
MATERIAL
  5
19DDD
102
{ACAD_XDICTIONARY
360
19DDE
102
}
102
{ACAD_REACTORS
330
2CF
102
}
330
2CF
100
AcDbMaterial
  1
Global
 72
     0
 43
0.0208333333333333
 43
0.0
 43
0.0
 43
0.0
 43
0.0
 43
0.0208333333333333
 43
0.0
 43
0.0
 43
0.0
 43
0.0
 43
1.0
 43
0.0
 43
0.0
 43
0.0
 43
0.0
 43
1.0
 77
     0
 47
0.0208333333333333
 47
0.0
 47
0.0
 47
0.0
 47
0.0
 47
0.0208333333333333
 47
0.0
 47
0.0
 47
0.0
 47
0.0
 47
1.0
 47
0.0
 47
0.0
 47
0.0
 47
0.0
 47
1.0
171
     0
 49
0.0208333333333333
 49
0.0
 49
0.0
 49
0.0
 49
0.0
 49
0.0208333333333333
 49
0.0
 49
0.0
 49
0.0
 49
0.0
 49
1.0
 49
0.0
 49
0.0
 49
0.0
 49
0.0
 49
1.0
175
     0
142
0.0208333333333333
142
0.0
142
0.0
142
0.0
142
0.0
142
0.0208333333333333
142
0.0
142
0.0
142
0.0
142
0.0
142
1.0
142
0.0
142
0.0
142
0.0
142
0.0
142
1.0
179
     0
144
0.0208333333333333
144
0.0
144
0.0
144
0.0
144
0.0
144
0.0208333333333333
144
0.0
144
0.0
144
0.0
144
0.0
144
1.0
144
0.0
144
0.0
144
0.0
144
0.0
144
1.0
147
0.0208333333333333
147
0.0
147
0.0
147
0.0
147
0.0
147
0.0208333333333333
147
0.0
147
0.0
147
0.0
147
0.0
147
1.0
147
0.0
147
0.0
147
0.0
147
0.0
147
1.0
  0
MLEADERSTYLE
  5
19E19
102
{ACAD_REACTORS
330
19E18
102
}
330
19E18
100
AcDbMLeaderStyle
170
     2
171
     1
172
     0
 90
        2
 40
0.0
 41
0.0
173
     1
 91
-1056964608
340
12
 92
       -2
290
     1
 42
2.0
291
     1
 43
0.36
  3
Standard
 44
4.0
300

342
F
174
     1
178
     6
175
     1
176
     0
 93
-1056964608
 45
4.0
292
     0
297
     0
 46
4.0
 94
-1056964608
 47
1.0
 49
1.0
140
1.0
293
     1
141
0.0
294
     1
177
     0
142
1.0
295
     0
296
     0
143
0.125
1001
ACAD_MLEADERVER
1070
     2
  0
MLINESTYLE
  5
1C
102
{ACAD_REACTORS
330
1B
102
}
330
1B
100
AcDbMlineStyle
  2
STANDARD
 70
     0
  3

 62
   256
 51
90.0
 52
90.0
 71
     2
 49
0.5
 62
   256
  6
BYLAYER
 49
-0.5
 62
   256
  6
BYLAYER
  0
ACDBPLACEHOLDER
  5
2CE
102
{ACAD_REACTORS
330
2CD
102
}
330
2CD
  0
SCALE
  5
19DF7
102
{ACAD_REACTORS
330
19DF6
102
}
330
19DF6
100
AcDbScale
 70
     0
300
1:1
140
1.0
141
1.0
290
     1
  0
SCALE
  5
19DF8
102
{ACAD_REACTORS
330
19DF6
102
}
330
19DF6
100
AcDbScale
 70
     0
300
1:2
140
1.0
141
2.0
290
     0
  0
SCALE
  5
19DF9
102
{ACAD_REACTORS
330
19DF6
102
}
330
19DF6
100
AcDbScale
 70
     0
300
1:4
140
1.0
141
4.0
290
     0
  0
SCALE
  5
19DFA
102
{ACAD_REACTORS
330
19DF6
102
}
330
19DF6
100
AcDbScale
 70
     0
300
1:5
140
1.0
141
5.0
290
     0
  0
SCALE
  5
19DFB
102
{ACAD_REACTORS
330
19DF6
102
}
330
19DF6
100
AcDbScale
 70
     0
300
1:8
140
1.0
141
8.0
290
     0
  0
SCALE
  5
19DFC
102
{ACAD_REACTORS
330
19DF6
102
}
330
19DF6
100
AcDbScale
 70
     0
300
1:10
140
1.0
141
10.0
290
     0
  0
SCALE
  5
19DFD
102
{ACAD_REACTORS
330
19DF6
102
}
330
19DF6
100
AcDbScale
 70
     0
300
1:16
140
1.0
141
16.0
290
     0
  0
SCALE
  5
19DFE
102
{ACAD_REACTORS
330
19DF6
102
}
330
19DF6
100
AcDbScale
 70
     0
300
1:20
140
1.0
141
20.0
290
     0
  0
SCALE
  5
19DFF
102
{ACAD_REACTORS
330
19DF6
102
}
330
19DF6
100
AcDbScale
 70
     0
300
1:30
140
1.0
141
30.0
290
     0
  0
SCALE
  5
19E00
102
{ACAD_REACTORS
330
19DF6
102
}
330
19DF6
100
AcDbScale
 70
     0
300
1:40
140
1.0
141
40.0
290
     0
  0
SCALE
  5
19E01
102
{ACAD_REACTORS
330
19DF6
102
}
330
19DF6
100
AcDbScale
 70
     0
300
1:50
140
1.0
141
50.0
290
     0
  0
SCALE
  5
19E02
102
{ACAD_REACTORS
330
19DF6
102
}
330
19DF6
100
AcDbScale
 70
     0
300
1:100
140
1.0
141
100.0
290
     0
  0
SCALE
  5
19E03
102
{ACAD_REACTORS
330
19DF6
102
}
330
19DF6
100
AcDbScale
 70
     0
300
2:1
140
2.0
141
1.0
290
     0
  0
SCALE
  5
19E04
102
{ACAD_REACTORS
330
19DF6
102
}
330
19DF6
100
AcDbScale
 70
     0
300
4:1
140
4.0
141
1.0
290
     0
  0
SCALE
  5
19E05
102
{ACAD_REACTORS
330
19DF6
102
}
330
19DF6
100
AcDbScale
 70
     0
300
8:1
140
8.0
141
1.0
290
     0
  0
SCALE
  5
19E06
102
{ACAD_REACTORS
330
19DF6
102
}
330
19DF6
100
AcDbScale
 70
     0
300
10:1
140
10.0
141
1.0
290
     0
  0
SCALE
  5
19E07
102
{ACAD_REACTORS
330
19DF6
102
}
330
19DF6
100
AcDbScale
 70
     0
300
100:1
140
100.0
141
1.0
290
     0
  0
SCALE
  5
19E08
102
{ACAD_REACTORS
330
19DF6
102
}
330
19DF6
100
AcDbScale
 70
     0
300
1/128" = 1'-0"
140
0.0078125
141
12.0
290
     0
  0
SCALE
  5
19E09
102
{ACAD_REACTORS
330
19DF6
102
}
330
19DF6
100
AcDbScale
 70
     0
300
1/64" = 1'-0"
140
0.015625
141
12.0
290
     0
  0
SCALE
  5
19E0A
102
{ACAD_REACTORS
330
19DF6
102
}
330
19DF6
100
AcDbScale
 70
     0
300
1/32" = 1'-0"
140
0.03125
141
12.0
290
     0
  0
SCALE
  5
19E0B
102
{ACAD_REACTORS
330
19DF6
102
}
330
19DF6
100
AcDbScale
 70
     0
300
1/16" = 1'-0"
140
0.0625
141
12.0
290
     0
  0
SCALE
  5
19E0C
102
{ACAD_REACTORS
330
19DF6
102
}
330
19DF6
100
AcDbScale
 70
     0
300
3/32" = 1'-0"
140
0.09375
141
12.0
290
     0
  0
SCALE
  5
19E0D
102
{ACAD_REACTORS
330
19DF6
102
}
330
19DF6
100
AcDbScale
 70
     0
300
1/8" = 1'-0"
140
0.125
141
12.0
290
     0
  0
SCALE
  5
19E0E
102
{ACAD_REACTORS
330
19DF6
102
}
330
19DF6
100
AcDbScale
 70
     0
300
3/16" = 1'-0"
140
0.1875
141
12.0
290
     0
  0
SCALE
  5
19E0F
102
{ACAD_REACTORS
330
19DF6
102
}
330
19DF6
100
AcDbScale
 70
     0
300
1/4" = 1'-0"
140
0.25
141
12.0
290
     0
  0
SCALE
  5
19E10
102
{ACAD_REACTORS
330
19DF6
102
}
330
19DF6
100
AcDbScale
 70
     0
300
3/8" = 1'-0"
140
0.375
141
12.0
290
     0
  0
SCALE
  5
19E11
102
{ACAD_REACTORS
330
19DF6
102
}
330
19DF6
100
AcDbScale
 70
     0
300
1/2" = 1'-0"
140
0.5
141
12.0
290
     0
  0
SCALE
  5
19E12
102
{ACAD_REACTORS
330
19DF6
102
}
330
19DF6
100
AcDbScale
 70
     0
300
3/4" = 1'-0"
140
0.75
141
12.0
290
     0
  0
SCALE
  5
19E13
102
{ACAD_REACTORS
330
19DF6
102
}
330
19DF6
100
AcDbScale
 70
     0
300
1" = 1'-0"
140
1.0
141
12.0
290
     0
  0
SCALE
  5
19E14
102
{ACAD_REACTORS
330
19DF6
102
}
330
19DF6
100
AcDbScale
 70
     0
300
1-1/2" = 1'-0"
140
1.5
141
12.0
290
     0
  0
SCALE
  5
19E15
102
{ACAD_REACTORS
330
19DF6
102
}
330
19DF6
100
AcDbScale
 70
     0
300
3" = 1'-0"
140
3.0
141
12.0
290
     0
  0
SCALE
  5
19E16
102
{ACAD_REACTORS
330
19DF6
102
}
330
19DF6
100
AcDbScale
 70
     0
300
6" = 1'-0"
140
6.0
141
12.0
290
     0
  0
SCALE
  5
19E17
102
{ACAD_REACTORS
330
19DF6
102
}
330
19DF6
100
AcDbScale
 70
     0
300
1'-0" = 1'-0"
140
12.0
141
12.0
290
     0
  0
TABLESTYLE
  5
4D7
102
{ACAD_XDICTIONARY
360
1ABD4
102
}
102
{ACAD_REACTORS
330
4D6
102
}
330
4D6
100
AcDbTableStyle
  3
Standard
 70
     0
 71
     0
 40
1.5
 41
1.5
280
     0
281
     0
  7
STANDARD
140
4.5
170
     2
 62
     0
 63
     7
283
     0
274
    -2
284
     1
 64
     0
275
    -2
285
     1
 65
     0
276
    -2
286
     1
 66
     0
277
    -2
287
     1
 67
     0
278
    -2
288
     1
 68
     0
279
    -2
289
     1
 69
     0
  7
STANDARD
140
6.0
170
     5
 62
     0
 63
     7
283
     0
274
    -2
284
     1
 64
     0
275
    -2
285
     1
 65
     0
276
    -2
286
     1
 66
     0
277
    -2
287
     1
 67
     0
278
    -2
288
     1
 68
     0
279
    -2
289
     1
 69
     0
  7
STANDARD
140
4.5
170
     5
 62
     0
 63
     7
283
     0
274
    -2
284
     1
 64
     0
275
    -2
285
     1
 65
     0
276
    -2
286
     1
 66
     0
277
    -2
287
     1
 67
     0
278
    -2
288
     1
 68
     0
279
    -2
289
     1
 69
     0
1001
ACAD
1000
AcRTDxfName
1000
TABLESTYLE
1000
AcRTDxfName
1000
TABLESTYLE
1000
AcRTDxfName
1000
TABLESTYLE
1000
AcRTDxfName
1000
TABLESTYLE
1000
AcRTDxfName
1000
TABLESTYLE
  0
VISUALSTYLE
  5
19DEB
102
{ACAD_XDICTIONARY
360
24E15
102
}
102
{ACAD_REACTORS
330
19DE5
102
}
330
19DE5
100
AcDbVisualStyle
  2
2dWireframe
 70
     4
 71
     0
 72
     2
 73
     0
 90
        0
 40
-0.6
 41
-30.0
 62
     5
 63
     7
 74
     1
 91
        4
 64
     7
 65
   257
 75
     1
175
     1
 42
1.0
 92
        0
 66
   257
 43
1.0
 76
     1
 77
     6
 78
     2
 67
     7
 79
     5
170
     0
171
     0
290
     0
174
     0
 93
        1
 44
0.0
173
     0
291
     0
 45
0.0
1001
ACAD
1000
AcDbSavedByObjectVersion
1070
     0
  0
VISUALSTYLE
  5
19DED
102
{ACAD_XDICTIONARY
360
24E19
102
}
102
{ACAD_REACTORS
330
19DE5
102
}
330
19DE5
100
AcDbVisualStyle
  2
3D Hidden
 70
     6
 71
     1
 72
     2
 73
     2
 90
        0
 40
-0.6
 41
-30.0
 62
     5
 63
     7
 74
     2
 91
        2
 64
     7
 65
   257
 75
     2
175
     1
 42
40.0
 92
        0
 66
   257
 43
1.0
 76
     1
 77
     6
 78
     2
 67
     7
 79
     3
170
     0
171
     0
290
     0
174
     0
 93
        1
 44
0.0
173
     0
291
     0
 45
0.0
1001
ACAD
1000
AcDbSavedByObjectVersion
1070
     0
  0
VISUALSTYLE
  5
19DEC
102
{ACAD_XDICTIONARY
360
24E17
102
}
102
{ACAD_REACTORS
330
19DE5
102
}
330
19DE5
100
AcDbVisualStyle
  2
3dWireframe
 70
     5
 71
     0
 72
     2
 73
     0
 90
        0
 40
-0.6
 41
-30.0
 62
     5
 63
     7
 74
     1
 91
        4
 64
     7
 65
   257
 75
     1
175
     1
 42
1.0
 92
        0
 66
   257
 43
1.0
 76
     1
 77
     6
 78
     2
 67
     7
 79
     5
170
     0
171
     0
290
     0
174
     0
 93
        1
 44
0.0
173
     0
291
     0
 45
0.0
1001
ACAD
1000
AcDbSavedByObjectVersion
1070
     0
  0
VISUALSTYLE
  5
19DEA
102
{ACAD_XDICTIONARY
360
24E13
102
}
102
{ACAD_REACTORS
330
19DE5
102
}
330
19DE5
100
AcDbVisualStyle
  2
Basic
 70
     7
 71
     1
 72
     0
 73
     1
 90
        0
 40
-0.6
 41
-30.0
 62
     5
 63
     7
 74
     0
 91
        4
 64
     7
 65
   257
 75
     1
175
     1
 42
1.0
 92
        8
 66
     7
 43
1.0
 76
     1
 77
     6
 78
     2
 67
     7
 79
     5
170
     0
171
     0
290
     0
174
     0
 93
        1
 44
0.0
173
     0
291
     1
 45
0.0
1001
ACAD
1000
AcDbSavedByObjectVersion
1070
     0
  0
VISUALSTYLE
  5
19DF1
102
{ACAD_XDICTIONARY
360
24E21
102
}
102
{ACAD_REACTORS
330
19DE5
102
}
330
19DE5
100
AcDbVisualStyle
  2
Brighten
 70
    12
 71
     2
 72
     2
 73
     0
 90
        0
 40
-0.6
 41
-30.0
 62
     5
 63
     7
 74
     1
 91
        4
 64
     7
 65
   257
 75
     1
175
     1
 42
1.0
 92
        8
 66
     7
 43
1.0
 76
     1
 77
     6
 78
     2
 67
     7
 79
     5
170
     0
171
     0
290
     0
174
     0
 93
        1
 44
50.0
173
     0
291
     1
 45
0.0
1001
ACAD
1000
AcDbSavedByObjectVersion
1070
     0
  0
VISUALSTYLE
  5
19DF5
102
{ACAD_XDICTIONARY
360
24E29
102
}
102
{ACAD_REACTORS
330
19DE5
102
}
330
19DE5
100
AcDbVisualStyle
  2
ColorChange
 70
    16
 71
     2
 72
     2
 73
     3
 90
        0
 40
-0.6
 41
-30.0
 62
     5
 63
     8
 74
     1
 91
        4
 64
     7
 65
   257
 75
     1
175
     1
 42
1.0
 92
        8
 66
     8
 43
1.0
 76
     1
 77
     6
 78
     2
 67
     7
 79
     5
170
     0
171
     0
290
     0
174
     0
 93
        1
 44
0.0
173
     0
291
     1
 45
0.0
1001
ACAD
1000
AcDbSavedByObjectVersion
1070
     0
  0
VISUALSTYLE
  5
19DEE
102
{ACAD_XDICTIONARY
360
24E1B
102
}
102
{ACAD_REACTORS
330
19DE5
102
}
330
19DE5
100
AcDbVisualStyle
  2
Conceptual
 70
     9
 71
     3
 72
     2
 73
     0
 90
        0
 40
-0.6
 41
-30.0
 62
     5
 63
     7
 74
     2
 91
        2
 64
     7
 65
   257
 75
     1
175
     1
 42
40.0
 92
        8
 66
     7
 43
1.0
 76
     1
 77
     6
 78
     2
 67
     7
 79
     3
170
     0
171
     0
290
     0
174
     0
 93
        1
 44
0.0
173
     0
291
     0
 45
0.0
1001
ACAD
1000
AcDbSavedByObjectVersion
1070
     0
  0
VISUALSTYLE
  5
19DF0
102
{ACAD_XDICTIONARY
360
24E1F
102
}
102
{ACAD_REACTORS
330
19DE5
102
}
330
19DE5
100
AcDbVisualStyle
  2
Dim
 70
    11
 71
     2
 72
     2
 73
     0
 90
        0
 40
-0.6
 41
-30.0
 62
     5
 63
     7
 74
     1
 91
        4
 64
     7
 65
   257
 75
     1
175
     1
 42
1.0
 92
        8
 66
     7
 43
1.0
 76
     1
 77
     6
 78
     2
 67
     7
 79
     5
170
     0
171
     0
290
     0
174
     0
 93
        1
 44
-50.0
173
     0
291
     1
 45
0.0
1001
ACAD
1000
AcDbSavedByObjectVersion
1070
     0
  0
VISUALSTYLE
  5
1E02A
102
{ACAD_XDICTIONARY
360
24E30
102
}
102
{ACAD_REACTORS
330
19DE5
102
}
330
19DE5
100
AcDbVisualStyle
  2
EdgeColorOff
 70
    22
 71
     2
 72
     2
 73
     0
 90
        0
 40
-0.6
 41
-30.0
 62
     5
 63
     7
 74
     1
 91
        4
 64
     7
 65
   257
 75
     1
175
     1
 42
1.0
 92
        8
 66
     7
 43
1.0
 76
     1
 77
     6
 78
     2
 67
     7
 79
     5
170
     0
171
     0
290
     0
174
     0
 93
        1
 44
0.0
173
     0
291
     1
 45
0.0
1001
ACAD
1000
AcDbSavedByObjectVersion
1070
     0
  0
VISUALSTYLE
  5
19DF4
102
{ACAD_XDICTIONARY
360
24E27
102
}
102
{ACAD_REACTORS
330
19DE5
102
}
330
19DE5
100
AcDbVisualStyle
  2
Facepattern
 70
    15
 71
     2
 72
     2
 73
     0
 90
        0
 40
-0.6
 41
-30.0
 62
     5
 63
     7
 74
     1
 91
        4
 64
     7
 65
   257
 75
     1
175
     1
 42
1.0
 92
        8
 66
     7
 43
1.0
 76
     1
 77
     6
 78
     2
 67
     7
 79
     5
170
     0
171
     0
290
     0
174
     0
 93
        1
 44
0.0
173
     0
291
     1
 45
0.0
1001
ACAD
1000
AcDbSavedByObjectVersion
1070
     0
  0
VISUALSTYLE
  5
19DE6
102
{ACAD_XDICTIONARY
360
24E0B
102
}
102
{ACAD_REACTORS
330
19DE5
102
}
330
19DE5
100
AcDbVisualStyle
  2
Flat
 70
     0
 71
     2
 72
     1
 73
     1
 90
        2
 40
-0.6
 41
30.0
 62
     5
 63
     7
 74
     0
 91
        4
 64
     7
 65
   257
 75
     1
175
     1
 42
1.0
 92
        8
 66
     7
 43
1.0
 76
     1
 77
     6
 78
     2
 67
     7
 79
     5
170
     0
171
     0
290
     0
174
     0
 93
       13
 44
0.0
173
     0
291
     1
 45
0.0
1001
ACAD
1000
AcDbSavedByObjectVersion
1070
     0
  0
VISUALSTYLE
  5
19DE7
102
{ACAD_XDICTIONARY
360
24E0D
102
}
102
{ACAD_REACTORS
330
19DE5
102
}
330
19DE5
100
AcDbVisualStyle
  2
FlatWithEdges
 70
     1
 71
     2
 72
     1
 73
     1
 90
        2
 40
-0.6
 41
30.0
 62
     5
 63
     7
 74
     1
 91
        4
 64
     7
 65
   257
 75
     1
175
     1
 42
1.0
 92
        0
 66
   257
 43
1.0
 76
     1
 77
     6
 78
     2
 67
     7
 79
     5
170
     0
171
     0
290
     0
174
     0
 93
       13
 44
0.0
173
     0
291
     1
 45
0.0
1001
ACAD
1000
AcDbSavedByObjectVersion
1070
     0
  0
VISUALSTYLE
  5
19DE8
102
{ACAD_XDICTIONARY
360
24E0F
102
}
102
{ACAD_REACTORS
330
19DE5
102
}
330
19DE5
100
AcDbVisualStyle
  2
Gouraud
 70
     2
 71
     2
 72
     2
 73
     1
 90
        2
 40
-0.6
 41
30.0
 62
     5
 63
     7
 74
     0
 91
        4
 64
     7
 65
   257
 75
     1
175
     1
 42
1.0
 92
        0
 66
     7
 43
1.0
 76
     1
 77
     6
 78
     2
 67
     7
 79
     5
170
     0
171
     0
290
     0
174
     0
 93
       13
 44
0.0
173
     0
291
     1
 45
0.0
1001
ACAD
1000
AcDbSavedByObjectVersion
1070
     0
  0
VISUALSTYLE
  5
19DE9
102
{ACAD_XDICTIONARY
360
24E11
102
}
102
{ACAD_REACTORS
330
19DE5
102
}
330
19DE5
100
AcDbVisualStyle
  2
GouraudWithEdges
 70
     3
 71
     2
 72
     2
 73
     1
 90
        2
 40
-0.6
 41
30.0
 62
     5
 63
     7
 74
     1
 91
        4
 64
     7
 65
   257
 75
     1
175
     1
 42
1.0
 92
        0
 66
   257
 43
1.0
 76
     1
 77
     6
 78
     2
 67
     7
 79
     5
170
     0
171
     0
290
     0
174
     0
 93
       13
 44
0.0
173
     0
291
     1
 45
0.0
1001
ACAD
1000
AcDbSavedByObjectVersion
1070
     0
  0
VISUALSTYLE
  5
1F382
102
{ACAD_XDICTIONARY
360
24E34
102
}
102
{ACAD_REACTORS
330
19DE5
102
}
330
19DE5
100
AcDbVisualStyle
  2
Hidden
 70
     6
 71
     1
 72
     2
 73
     2
 90
        0
 40
-0.6
 41
-30.0
 62
     5
 63
     7
 74
     2
 91
        2
 64
     7
 65
   257
 75
     2
175
     1
 42
40.0
 92
        0
 66
   257
 43
1.0
 76
     1
 77
     6
 78
     2
 67
     7
 79
     3
170
     0
171
     0
290
     0
174
     0
 93
        1
 44
0.0
173
     0
291
     0
 45
0.0
1001
ACAD
1000
AcDbSavedByObjectVersion
1070
     0
  0
VISUALSTYLE
  5
1E028
102
{ACAD_XDICTIONARY
360
24E2C
102
}
102
{ACAD_REACTORS
330
19DE5
102
}
330
19DE5
100
AcDbVisualStyle
  2
JitterOff
 70
    20
 71
     2
 72
     2
 73
     0
 90
        0
 40
-0.6
 41
-30.0
 62
     5
 63
     7
 74
     1
 91
        4
 64
     7
 65
   257
 75
     1
175
     1
 42
1.0
 92
       10
 66
     7
 43
1.0
 76
     1
 77
     6
 78
     2
 67
     7
 79
     5
170
     0
171
     0
290
     0
174
     0
 93
        1
 44
0.0
173
     0
291
     1
 45
0.0
1001
ACAD
1000
AcDbSavedByObjectVersion
1070
     0
  0
VISUALSTYLE
  5
19DF3
102
{ACAD_XDICTIONARY
360
24E25
102
}
102
{ACAD_REACTORS
330
19DE5
102
}
330
19DE5
100
AcDbVisualStyle
  2
Linepattern
 70
    14
 71
     2
 72
     2
 73
     0
 90
        0
 40
-0.6
 41
-30.0
 62
     5
 63
     7
 74
     1
 91
        4
 64
     7
 65
   257
 75
     7
175
     7
 42
1.0
 92
        8
 66
     7
 43
1.0
 76
     1
 77
     6
 78
     2
 67
     7
 79
     5
170
     0
171
     0
290
     0
174
     0
 93
        1
 44
0.0
173
     0
291
     1
 45
0.0
1001
ACAD
1000
AcDbSavedByObjectVersion
1070
     0
  0
VISUALSTYLE
  5
1E029
102
{ACAD_XDICTIONARY
360
24E2E
102
}
102
{ACAD_REACTORS
330
19DE5
102
}
330
19DE5
100
AcDbVisualStyle
  2
OverhangOff
 70
    21
 71
     2
 72
     2
 73
     0
 90
        0
 40
-0.6
 41
-30.0
 62
     5
 63
     7
 74
     1
 91
        4
 64
     7
 65
   257
 75
     1
175
     1
 42
1.0
 92
        9
 66
     7
 43
1.0
 76
     1
 77
     6
 78
     2
 67
     7
 79
     5
170
     0
171
     0
290
     0
174
     0
 93
        1
 44
0.0
173
     0
291
     1
 45
0.0
1001
ACAD
1000
AcDbSavedByObjectVersion
1070
     0
  0
VISUALSTYLE
  5
19DEF
102
{ACAD_XDICTIONARY
360
24E1D
102
}
102
{ACAD_REACTORS
330
19DE5
102
}
330
19DE5
100
AcDbVisualStyle
  2
Realistic
 70
     8
 71
     2
 72
     2
 73
     0
 90
        0
 40
-0.6
 41
-30.0
 62
     5
 63
     7
 74
     1
 91
        0
 64
     7
 65
   257
 75
     1
175
     1
 42
1.0
 92
        8
 66
     8
 43
1.0
 76
     1
 77
     6
 78
     2
 67
     7
 79
     5
170
     0
171
     0
290
     0
174
     0
 93
       13
 44
0.0
173
     0
291
     0
 45
0.0
1001
ACAD
1000
AcDbSavedByObjectVersion
1070
     0
  0
VISUALSTYLE
  5
1F387
102
{ACAD_XDICTIONARY
360
24E3E
102
}
102
{ACAD_REACTORS
330
19DE5
102
}
330
19DE5
100
AcDbVisualStyle
  2
Shaded
 70
    27
 71
     2
 72
     2
 73
     1
 90
        2
 40
-0.6
 41
30.0
 62
     5
 63
     7
 74
     0
 91
        4
 64
     7
 65
   257
 75
     1
175
     1
 42
1.0
 92
        8
 66
   257
 43
1.0
 76
     1
 77
     6
 78
     2
 67
     8
 79
     3
170
     0
171
     0
290
     0
174
     0
 93
        5
 44
0.0
173
     0
291
     0
 45
0.0
1001
ACAD
1000
AcDbSavedByObjectVersion
1070
     0
  0
VISUALSTYLE
  5
1F386
102
{ACAD_XDICTIONARY
360
24E3C
102
}
102
{ACAD_REACTORS
330
19DE5
102
}
330
19DE5
100
AcDbVisualStyle
  2
Shaded with edges
 70
    26
 71
     2
 72
     2
 73
     1
 90
        2
 40
-0.6
 41
30.0
 62
     5
 63
     7
 74
     1
 91
       10
 64
     7
 65
   257
 75
     2
175
     1
 42
1.0
 92
        8
 66
   257
 43
1.0
 76
     1
 77
     6
 78
     2
 67
     7
 79
     3
170
     0
171
     0
290
     0
174
     0
 93
        5
 44
0.0
173
     0
291
     0
 45
0.0
1001
ACAD
1000
AcDbSavedByObjectVersion
1070
     0
  0
VISUALSTYLE
  5
1F383
102
{ACAD_XDICTIONARY
360
24E36
102
}
102
{ACAD_REACTORS
330
19DE5
102
}
330
19DE5
100
AcDbVisualStyle
  2
Shades of Gray
 70
    23
 71
     2
 72
     2
 73
     3
 90
        0
 40
-0.6
 41
-30.0
 62
     5
 63
     7
 74
     2
 91
        2
 64
     7
 65
     7
 75
     1
175
     1
 42
40.0
 92
        8
 66
     7
 43
1.0
 76
     1
 77
     6
 78
     2
 67
     7
 79
     3
170
     0
171
     0
290
     0
174
     0
 93
        1
 44
0.0
173
     0
291
     0
 45
0.0
1001
ACAD
1000
AcDbSavedByObjectVersion
1070
     0
  0
VISUALSTYLE
  5
1F384
102
{ACAD_XDICTIONARY
360
24E38
102
}
102
{ACAD_REACTORS
330
19DE5
102
}
330
19DE5
100
AcDbVisualStyle
  2
Sketchy
 70
    24
 71
     1
 72
     2
 73
     2
 90
        0
 40
-0.6
 41
-30.0
 62
     5
 63
     7
 74
     2
 91
        2
 64
     7
 65
     7
 75
     1
175
     1
 42
40.0
 92
       11
 66
     7
 43
1.0
 76
     1
 77
     6
 78
     2
 67
     7
 79
     6
170
     0
171
     0
290
     0
174
     0
 93
        1
 44
0.0
173
     0
291
     0
 45
0.0
1001
ACAD
1000
AcDbSavedByObjectVersion
1070
     0
  0
VISUALSTYLE
  5
19DF2
102
{ACAD_XDICTIONARY
360
24E23
102
}
102
{ACAD_REACTORS
330
19DE5
102
}
330
19DE5
100
AcDbVisualStyle
  2
Thicken
 70
    13
 71
     2
 72
     2
 73
     0
 90
        0
 40
-0.6
 41
-30.0
 62
     5
 63
     7
 74
     1
 91
        4
 64
     7
 65
   257
 75
     1
175
     1
 42
1.0
 92
       12
 66
     7
 43
1.0
 76
     1
 77
     6
 78
     2
 67
     7
 79
     5
170
     0
171
     0
290
     0
174
     0
 93
        1
 44
0.0
173
     0
291
     1
 45
0.0
1001
ACAD
1000
AcDbSavedByObjectVersion
1070
     0
  0
VISUALSTYLE
  5
1F381
102
{ACAD_XDICTIONARY
360
24E32
102
}
102
{ACAD_REACTORS
330
19DE5
102
}
330
19DE5
100
AcDbVisualStyle
  2
Wireframe
 70
     5
 71
     0
 72
     2
 73
     0
 90
        0
 40
-0.6
 41
-30.0
 62
     5
 63
     7
 74
     1
 91
        4
 64
     7
 65
   257
 75
     1
175
     1
 42
1.0
 92
        0
 66
   257
 43
1.0
 76
     1
 77
     6
 78
     2
 67
     7
 79
     3
170
     0
171
     0
290
     0
174
     0
 93
        1
 44
0.0
173
     0
291
     0
 45
0.0
1001
ACAD
1000
AcDbSavedByObjectVersion
1070
     0
  0
VISUALSTYLE
  5
1F385
102
{ACAD_XDICTIONARY
360
24E3A
102
}
102
{ACAD_REACTORS
330
19DE5
102
}
330
19DE5
100
AcDbVisualStyle
  2
X-Ray
 70
    25
 71
     2
 72
     2
 73
     1
 90
        1
 40
0.5
 41
-30.0
 62
     5
 63
     7
 74
     1
 91
        0
 64
     7
 65
   257
 75
     1
175
     1
 42
1.0
 92
        8
 66
     7
 43
1.0
 76
     1
 77
     6
 78
     2
 67
     7
 79
     3
170
     0
171
     0
290
     0
174
     0
 93
       13
 44
0.0
173
     0
291
     0
 45
0.0
1001
ACAD
1000
AcDbSavedByObjectVersion
1070
     0
  0
DICTIONARYVAR
  5
1AC1A
102
{ACAD_REACTORS
330
37
102
}
330
37
100
DictionaryVariables
280
     0
  1
1:1
  0
DICTIONARYVAR
  5
1AC19
102
{ACAD_REACTORS
330
37
102
}
330
37
100
DictionaryVariables
280
     0
  1
STANDARD
  0
DICTIONARYVAR
  5
4F1
102
{ACAD_REACTORS
330
37
102
}
330
37
100
DictionaryVariables
280
     0
  1
STANDARD
  0
DICTIONARYVAR
  5
38
102
{ACAD_REACTORS
330
37
102
}
330
37
100
DictionaryVariables
280
     0
  1
-1
  0
DICTIONARYVAR
  5
408
102
{ACAD_REACTORS
330
37
102
}
330
37
100
DictionaryVariables
280
     0
  1
2
  0
DICTIONARYVAR
  5
1891
102
{ACAD_REACTORS
330
37
102
}
330
37
100
DictionaryVariables
280
     0
  1
1
  0
DICTIONARYVAR
  5
1AC1C
102
{ACAD_REACTORS
330
37
102
}
330
37
100
DictionaryVariables
280
     0
  1
0
  0
DICTIONARYVAR
  5
1895
102
{ACAD_REACTORS
330
37
102
}
330
37
100
DictionaryVariables
280
     0
  1
8
  0
DICTIONARYVAR
  5
1894
102
{ACAD_REACTORS
330
37
102
}
330
37
100
DictionaryVariables
280
     0
  1
1
  0
DICTIONARYVAR
  5
21470
102
{ACAD_REACTORS
330
37
102
}
330
37
100
DictionaryVariables
280
     0
  1
0
  0
DICTIONARYVAR
  5
21471
102
{ACAD_REACTORS
330
37
102
}
330
37
100
DictionaryVariables
280
     0
  1
0
  0
DICTIONARYVAR
  5
1892
102
{ACAD_REACTORS
330
37
102
}
330
37
100
DictionaryVariables
280
     0
  1
120
  0
DICTIONARYVAR
  5
1893
102
{ACAD_REACTORS
330
37
102
}
330
37
100
DictionaryVariables
280
     0
  1
0
  0
DICTIONARYVAR
  5
409
102
{ACAD_REACTORS
330
37
102
}
330
37
100
DictionaryVariables
280
     0
  1

  0
DICTIONARYVAR
  5
1AC1B
102
{ACAD_REACTORS
330
37
102
}
330
37
100
DictionaryVariables
280
     0
  1
127
  0
DICTIONARYVAR
  5
24F4F
102
{ACAD_REACTORS
330
37
102
}
330
37
100
DictionaryVariables
280
     0
  1
2
  0
XRECORD
  5
2428B
102
{ACAD_XDICTIONARY
360
2428C
102
}
102
{ACAD_REACTORS
330
18FE9
102
}
330
18FE9
100
AcDbXrecord
280
     1
 91
      535
301

290
     0
302
0
330
0
 90
        0
 62
   243
370
    -3
331
14
  1
色_243
440
        0
330
0
 90
        9
 62
     8
370
    -3
331
14
  1
色_8
440
        0
330
0
 90
        8
 62
   252
370
    -3
331
14
  1
色_252
440
        0
330
0
 90
        8
 62
   221
370
    -3
331
14
  1
色_221
440
        0
330
0
 90
        8
 62
     8
370
    -3
331
0
  1
色_8
440
        0
330
0
 90
        8
 62
     8
370
    -3
331
14
  1
色_8
440
        0
330
0
 90
        8
 62
     8
370
    -3
331
14
  1
色_8
440
        0
330
0
 90
        8
 62
     8
370
    -3
331
14
  1
色_8
440
        0
330
6DF
 90
        8
 62
   221
370
    -3
331
6E2
  1
色_221
440
        0
330
6DE
 90
        8
 62
     7
370
    -3
331
14
  1
色_7
440
        0
330
6DD
 90
        8
 62
   252
370
    -3
331
14
  1
色_252
440
        0
330
26A
 90
        8
 62
     8
370
    -3
331
14
  1
色_8
440
        0
330
260
 90
        8
 62
     2
370
    -3
331
14
  1
色_2
440
        0
330
0
 90
        8
 62
     1
370
    -3
331
14
  1
色_1
440
        0
330
103
 90
        8
 62
   254
370
    -3
331
100
  1
色_254
440
        0
330
101
 90
        8
 62
     8
370
    -3
331
14
  1
色_8
440
        0
330
60
 90
        0
 62
     7
370
    -3
331
14
  1
色_7
440
        0
330
34
 90
        8
 62
   253
370
    -3
331
14
  1
色_253
440
        0
330
33
 90
        9
 62
     1
370
    -3
331
14
  1
色_1
440
        0
330
31
 90
        8
 62
   201
370
    -3
331
14
  1
色_201
440
        0
330
29
 90
        8
 62
   221
370
    -3
331
14
  1
色_221
440
        0
330
E
 90
        8
 62
     7
370
    -3
331
14
  1
色_7
440
        0
  0
DICTIONARY
  5
1E441
330
2D3
100
AcDbDictionary
280
     1
281
     1
  3
ACAD_XREC_ROUNDTRIP
360
24F55
  3
ADSK_XREC_LAYOUTTHUMBNAIL
360
1E442
  0
DICTIONARY
  5
1E041
330
2D4
100
AcDbDictionary
280
     1
281
     1
  3
ACAD_XREC_ROUNDTRIP
360
24F56
  3
ADSK_XREC_LAYOUTTHUMBNAIL
360
1E042
  0
DICTIONARY
  5
19DD6
330
19DD5
100
AcDbDictionary
280
     1
281
     1
  3
ACAD_XREC_ROUNDTRIP
360
24F59
  3
BUMPTILE
360
19DD8
  3
DIFFUSETILE
360
19DD7
  3
OPACITYTILE
360
19DDB
  3
REFLECTIONTILE
360
19DDA
  3
REFRACTIONTILE
360
19DDC
  3
SPECULARTILE
360
19DD9
  0
DICTIONARY
  5
19DCE
330
19DCD
100
AcDbDictionary
280
     1
281
     1
  3
ACAD_XREC_ROUNDTRIP
360
24F58
  3
BUMPTILE
360
19DD0
  3
DIFFUSETILE
360
19DCF
  3
OPACITYTILE
360
19DD3
  3
REFLECTIONTILE
360
19DD2
  3
REFRACTIONTILE
360
19DD4
  3
SPECULARTILE
360
19DD1
  0
DICTIONARY
  5
19DDE
330
19DDD
100
AcDbDictionary
280
     1
281
     1
  3
ACAD_XREC_ROUNDTRIP
360
24F5A
  3
BUMPTILE
360
19DE0
  3
DIFFUSETILE
360
19DDF
  3
OPACITYTILE
360
19DE3
  3
REFLECTIONTILE
360
19DE2
  3
REFRACTIONTILE
360
19DE4
  3
SPECULARTILE
360
19DE1
  0
DICTIONARY
  5
1ABD4
330
4D7
100
AcDbDictionary
280
     1
281
     1
  3
ACAD_ROUNDTRIP_2008_TABLESTYLE_CELLSTYLEMAP
360
24F50
  3
ACAD_XREC_ROUNDTRIP
360
24F57
  0
DICTIONARY
  5
24E15
330
19DEB
100
AcDbDictionary
280
     1
281
     1
  3
ACAD_XREC_ROUNDTRIP
360
24E16
  0
DICTIONARY
  5
24E19
330
19DED
100
AcDbDictionary
280
     1
281
     1
  3
ACAD_XREC_ROUNDTRIP
360
24E1A
  0
DICTIONARY
  5
24E17
330
19DEC
100
AcDbDictionary
280
     1
281
     1
  3
ACAD_XREC_ROUNDTRIP
360
24E18
  0
DICTIONARY
  5
24E13
330
19DEA
100
AcDbDictionary
280
     1
281
     1
  3
ACAD_XREC_ROUNDTRIP
360
24E14
  0
DICTIONARY
  5
24E21
330
19DF1
100
AcDbDictionary
280
     1
281
     1
  3
ACAD_XREC_ROUNDTRIP
360
24E22
  0
DICTIONARY
  5
24E29
330
19DF5
100
AcDbDictionary
280
     1
281
     1
  3
ACAD_XREC_ROUNDTRIP
360
24E2A
  0
DICTIONARY
  5
24E1B
330
19DEE
100
AcDbDictionary
280
     1
281
     1
  3
ACAD_XREC_ROUNDTRIP
360
24E1C
  0
DICTIONARY
  5
24E1F
330
19DF0
100
AcDbDictionary
280
     1
281
     1
  3
ACAD_XREC_ROUNDTRIP
360
24E20
  0
DICTIONARY
  5
24E30
330
1E02A
100
AcDbDictionary
280
     1
281
     1
  3
ACAD_XREC_ROUNDTRIP
360
24E31
  0
DICTIONARY
  5
24E27
330
19DF4
100
AcDbDictionary
280
     1
281
     1
  3
ACAD_XREC_ROUNDTRIP
360
24E28
  0
DICTIONARY
  5
24E0B
330
19DE6
100
AcDbDictionary
280
     1
281
     1
  3
ACAD_XREC_ROUNDTRIP
360
24E0C
  0
DICTIONARY
  5
24E0D
330
19DE7
100
AcDbDictionary
280
     1
281
     1
  3
ACAD_XREC_ROUNDTRIP
360
24E0E
  0
DICTIONARY
  5
24E0F
330
19DE8
100
AcDbDictionary
280
     1
281
     1
  3
ACAD_XREC_ROUNDTRIP
360
24E10
  0
DICTIONARY
  5
24E11
330
19DE9
100
AcDbDictionary
280
     1
281
     1
  3
ACAD_XREC_ROUNDTRIP
360
24E12
  0
DICTIONARY
  5
24E34
330
1F382
100
AcDbDictionary
280
     1
281
     1
  3
ACAD_XREC_ROUNDTRIP
360
24E35
  0
DICTIONARY
  5
24E2C
330
1E028
100
AcDbDictionary
280
     1
281
     1
  3
ACAD_XREC_ROUNDTRIP
360
24E2D
  0
DICTIONARY
  5
24E25
330
19DF3
100
AcDbDictionary
280
     1
281
     1
  3
ACAD_XREC_ROUNDTRIP
360
24E26
  0
DICTIONARY
  5
24E2E
330
1E029
100
AcDbDictionary
280
     1
281
     1
  3
ACAD_XREC_ROUNDTRIP
360
24E2F
  0
DICTIONARY
  5
24E1D
330
19DEF
100
AcDbDictionary
280
     1
281
     1
  3
ACAD_XREC_ROUNDTRIP
360
24E1E
  0
DICTIONARY
  5
24E3E
330
1F387
100
AcDbDictionary
280
     1
281
     1
  3
ACAD_XREC_ROUNDTRIP
360
24E3F
  0
DICTIONARY
  5
24E3C
330
1F386
100
AcDbDictionary
280
     1
281
     1
  3
ACAD_XREC_ROUNDTRIP
360
24E3D
  0
DICTIONARY
  5
24E36
330
1F383
100
AcDbDictionary
280
     1
281
     1
  3
ACAD_XREC_ROUNDTRIP
360
24E37
  0
DICTIONARY
  5
24E38
330
1F384
100
AcDbDictionary
280
     1
281
     1
  3
ACAD_XREC_ROUNDTRIP
360
24E39
  0
DICTIONARY
  5
24E23
330
19DF2
100
AcDbDictionary
280
     1
281
     1
  3
ACAD_XREC_ROUNDTRIP
360
24E24
  0
DICTIONARY
  5
24E32
330
1F381
100
AcDbDictionary
280
     1
281
     1
  3
ACAD_XREC_ROUNDTRIP
360
24E33
  0
DICTIONARY
  5
24E3A
330
1F385
100
AcDbDictionary
280
     1
281
     1
  3
ACAD_XREC_ROUNDTRIP
360
24E3B
  0
DICTIONARY
  5
2428C
330
2428B
100
AcDbDictionary
280
     1
281
     1
  3
AcadLayerStateAnnoScale
360
2428D
  0
XRECORD
  5
24F55
102
{ACAD_REACTORS
330
1E441
102
}
330
1E441
100
AcDbXrecord
280
     1
102
SHADEPLOT
 70
     0
102
SHADEPLOTRESLEVEL
 70
     2
102
SHADEPLOTCUSTOMDPI
 70
   300
  0
XRECORD
  5
1E442
102
{ACAD_REACTORS
330
1E441
102
}
330
1E441
100
AcDbXrecord
280
     1
310
28000000000100005D0000000100080000000000005D0000000000000000000000010000000000000000000000000000FFFFFF000000000000000000000000000000000000000000000000000000000000000000330000006600000099000000CC000000FF00000000330000333300006633000099330000CC330000FF3300
310
0000660000336600006666000099660000CC660000FF66000000990000339900006699000099990000CC990000FF99000000CC000033CC000066CC000099CC0000CCCC0000FFCC000000FF000033FF000066FF000099FF0000CCFF0000FFFF000000003300330033006600330099003300CC003300FF003300003333003333
310
33006633330099333300CC333300FF33330000663300336633006666330099663300CC663300FF66330000993300339933006699330099993300CC993300FF99330000CC330033CC330066CC330099CC3300CCCC3300FFCC330000FF330033FF330066FF330099FF3300CCFF3300FFFF330000006600330066006600660099
310
006600CC006600FF00660000336600333366006633660099336600CC336600FF33660000666600336666006666660099666600CC666600FF66660000996600339966006699660099996600CC996600FF99660000CC660033CC660066CC660099CC6600CCCC6600FFCC660000FF660033FF660066FF660099FF6600CCFF6600
310
FFFF660000009900330099006600990099009900CC009900FF00990000339900333399006633990099339900CC339900FF33990000669900336699006666990099669900CC669900FF66990000999900339999006699990099999900CC999900FF99990000CC990033CC990066CC990099CC9900CCCC9900FFCC990000FF99
310
0033FF990066FF990099FF9900CCFF9900FFFF99000000CC003300CC006600CC009900CC00CC00CC00FF00CC000033CC003333CC006633CC009933CC00CC33CC00FF33CC000066CC003366CC006666CC009966CC00CC66CC00FF66CC000099CC003399CC006699CC009999CC00CC99CC00FF99CC0000CCCC0033CCCC0066CC
310
CC0099CCCC00CCCCCC00FFCCCC0000FFCC0033FFCC0066FFCC0099FFCC00CCFFCC00FFFFCC000000FF003300FF006600FF009900FF00CC00FF00FF00FF000033FF003333FF006633FF009933FF00CC33FF00FF33FF000066FF003366FF006666FF009966FF00CC66FF00FF66FF000099FF003399FF006699FF009999FF00CC
310
99FF00FF99FF0000CCFF0033CCFF0066CCFF0099CCFF00CCCCFF00FFCCFF0000FFFF0033FFFF0066FFFF0099FFFF00CCFFFF00FFFFFF00000000000D0D0D001A1A1A00282828003535350043434300505050005D5D5D006B6B6B00787878008686860093939300A1A1A100AEAEAE00BBBBBB00C9C9C900D6D6D600E4E4E400
310
F1F1F100FFFFFF0000000000000000000000000000000000000000000000000000000000000000000000000000000000E2E2E2E2E2E2E2E2E2E2E2E2E2E2E2E2E2E2E2E2E2E2E2E2E2E2E2E2E2E2E2E2E2E2E2E2E2E2E2E2E2E2E2E2E2E2E2E2E2E2E2E2E2E2E2E2E2E2E2E2E2E2E2E2E2E2E2E2E2E2E2E2E2E2E2E2E2E2E2
310
E2E2E2E2E2E2E2E2E2E2E2E2E2E2E2E2E2E2E2E2E2E2E2E2E2E2E2E2E2E2E2E2E2E2E2E2E2E2E2E2E2E2E2E2E2E2E2E2E2E2E2E2E2E2E2E2E2E2E2E2E2E2E2E2E2E2E2E2E2E2E2E2E2E2E2E2E2E2E2E2E2E2E2E2E2E2E2E2E2E2E2E2E2E2E2E2E2E2E2E2E2E2E2E2E2E2E2E2E2E2E2E2E2E2E2E2E2E2E2E2E2E2E2E2E2E2E2
310
E2E2E2E2E2E2E2E2E2E2E2E2E2E2E2E2E2E2E2E2E2E2E2E2E2E2E2E2E2E2E2E2E2E2E2E2E2E2E2E2E2E2E2E2E2E2E2E2E2E2E2E2E2E2E2E2E2E2E2E2E2E2E2E2E2E2E2E2E2E2E2E2E2E2E2E2E2E2E2E2E2E2E2E2E2E2E2E2E2E2E2E2E2E2E2E2E2E2E2E2E2E2E2E2E2E2E2E2E2E2E2E2E2E2E2E2E2E2E2E2E2E2E2E2E2E2E2
310
E2E2E2E2E2E2E2E2E2E2E2E2E2E2E2E2E2E2E2E2E2E2E2E2E2E2E2E2E2E2E2E2E2E2E2E2E2E2E2E2E2E2E2E2E2E2E2E2E2E2E2E2E2E2E2E2E2E2E2E2E2E2E2E2E2E2E2E2E2E2E2E2E2E2E2E2E2E2E2E2E2E2E2E2E2E2E2E2E2E2E2E2E2E2E2E2E2E2E2E2E2E2E2E2E2E2E2E2E2E2E2E2E2E2E2E2E2E2E2E2E2E2E2E2E2E2E2
310
E2E2E2E2E2E2E2E2E2E2E2E2E2E2E2E2E2E2E2E2E2E2E2E2E2E2E2E2E2E2E2E2E2E2E2E2E2E2E2E2E2E2E2E2E2E2E2E2E2E2E2E2E2E2E2E2E2E2E2E2E2E2E2E2E2E2E2E2E2E2E2E2E2E2E2E2E2E2E2E2E2E2E2E2E2E2E2E2E2E2E2E2E2E2E2E2E2E2E2E2E2E2E2E2E2E2E2E2E2E2E2E2E2E2E2E2E2E2E2E2E2E2E2E2E2E2E2
310
E2E2E2E2E2E2E2E2E2E2E2E2E2E2E2E2E2E2E2E2E2E2E2E2E2E2E2E2E2E2E2E2E2E2E2E2E2E2E2E2E2E2E2E2E2E2E2E2E2E2E2E2E2E2E2E2E2E2E2E2E2E2E2E2E2E2E2E2E2E2E2E2E2E2E2E2E2E2E2E2E2E2E2E2E2E2E2E2E2E2E2E2E2E2E2E2E2E2E2E2E2E2E2E2E2E2E2E2E2E2E2E2E2E2E2E2E2E2E2E2E2E2E2E2E2E2E2
310
E2E2E2E2E2E2E2E2E2E2E2E2E2E2E2E2E2E2E2E2E2E2E2E2E2E2E2E2E2E2E2E2E2E2E2E2E2E2E2E2E2E2E2E2E2E2E2E2E2E2E2E2E2E2E2E2E2E2E2E2E2E2E2E2E2E2E2E2E2E2E2E2E2E2E2E2BEE2BEE2E2E2E2E2E2E2E2E2E2E2E2E2E2E2E2E2E2E2E2E2E2E2E2E2E2E2E2E2E2E2E2E2E2E2E2E2E2E2E2E2E2E2E2E2E2E2E2
310
E2E2E2E2E2E2E2E2E2E2E2E2E2E2E2E2E2E2E2E2E2E2E2E2E2E2E2E2E2E2E2E2E2E2E2E2E2E2E2E2E2E2E2E2E2E2E2E2E2E2E2E2E2E2E2E2E2E2E2E2E2E2E2E2E2E2E2E2E2E2E2E2E2E2E2E2E2E2E2E2E2E2E2E2E2E2E2E2E2E2E2E2E2E2E2E2E2E2E2E2E2E2E2E2E2E2E2E2E2E2BEBEE2E2E2E2E2E2E2E2E2E2E2E2E2E2E2
310
E2E2E2E2E2E2E2E2E2E2E2E2E2E2E2E2E2E2E2E2E2E2E2E2E2E2E2E2E2E2E2E2E2E2E2E2E2E2E2E2E2E2E2E2E2E2E2E2E2E2E2E2E2E2E2E2E2E2E2E2E2E2E2E2E2E2E2E2E2E2E2E2E2E2E2E2E2E2BEBEBEBEBEBEBEBEBEBEBEBEBEBEBEBEBEBEBEBEBEBEBEBEBEBEBEBEBEBEBEBEBEBEBEBEBEBEBEBEBEBEBEBEBEBEBEBEBE
310
BEBEBEBEBEBEBEBEBEBEBEBEBEBEBEBEBEBEBEBEBEBEBEBEBEBEBEBEBEBEBEBEBEBEBEBEBEBEBEBEBEBEBEBEBEBEBEBEBEBEBEBEBEBEBEBEBEBEBEBEBEBEBEBEBEBEBEBEBEBEBEBEBEBEBEBEBEBEBEBEBEBEBEBEBEBEBEBEBEBEBEBEBEBEBEBEBEBEBEBEBEBEBEBEBEBEBEBEBEBEBEBEBEBEE2E2E2E2E2E2E2E2E2E2E2E2E2
310
E2E2E2E2E2E2E2E2E2E2E2E2E2E2E2E2E2E2E2E2E2E2E2E2E2E2E2E2E2E2E2E2E2E2E2E2E2E2E2E2E2E2E2E2E2E2E2E2E2E2E2E2E2E2E2E2E2E2E2E2E2E2E2E2E2E2E2E2E2E2E2E2E2E2E2E2E2E2E2E2BEE2E2E2E2E2E2E2E2E2E2E2E2E2E2E2E2E2E2E2E2E2E2E2E2E2E2E2E2E2E2E2E2E2E2E2E2E2E2E2E2E2E2E2E2E2E2
310
E2E2E2E2E2E2E2E2E2E2E2E2E2E2E2E2E2E2E2E2E2E2E2E2E2E2E2E2E2E2BEE2BEBEBEBEE2E2BEE2E2E2E2E2E2E2E2E2E2E2E2E2E2E2E2E2E2E2E2E2E2E2E2E2E2E2E2E2E2E2E2E2E2E2E2E2E2E2E2E2E2E2E2E2E2E2E2E2E2E2E2E2E2E2E2E2E2E2E2E2E2E2E2E2E2E2E2E2E2E2E2E2E2E2E2BEE2E2E2E2E2E2E2E2E2E2E2
310
E2E2E2E2E2E2E2E2E2E2E2E2E2E2E2E2E2E2E2E2E2E2E2E2E2E2E2E2E2E2E2E2E2E2E2E2E2E2E2E2E2E2E2E2E2E2E2E2E2E2E2E2E2E2E2E2E2E2E2E2E2E2E2E2E2E2E2E2E2E2E2E2E2E2E2E2E2E2E2E2E2E2BEE2E2E2E2E2E2E2E2E2E2E2E2E2E2E2E2E2E2E2E2E2E2E2E2E2E2E2E2E2E2E2E2E2E2E2E2E2E2E2E2E2E2E2E2
310
E2E2E2E2E2E2E2E2E2E2E2E2E2E2E2E2E2E2E2E2E2E2E2E2E2E2E2E2E2E2E2E2BEE2BEBEE2BEE2E2BEE2E2E2E2E2E2E2E2E2E2E2E2E2E2E2E2E2E2E2E2E2E2E2E2E2E2E2E2E2E2E2E2E2E2E2E2E2E2E2E2E2E2E2E2E2E2E2E2E2E2E2E2E2E2E2E2E2E2E2E2E2E2E2E2E2E2E2E2E2E2E2E2E2E2E2E2BEE2E2E2E2E2E2E2E2E2
310
E2E2E2E2E2E2E2E2E2E2E2E2E2E2E2E2E2E2E2E2E2E2E2E2E2E2E2E2E2E2E2E2E2E2E2E2E2E2E2E2E2E2E2E2E2E2E2E2E2E2E2E2E2E2E2E2E2E2E2E2E2E2E2E2E2E2E2E2E2E2E2E2E2E2E2E2E2E2E2E2E2E2E2E2BEE2E2E2E2E2E2E2E2E2E2E2E2E2E2E2E2E2E2E2E2E2E2E2E2E2E2E2E2E2E2E2E2E2E2E2E2E2E2E2E2E2E2
310
E2E2E2E2E2E2E2E2E2E2E2E2E2E2E2E2E2E2E2E2E2E2E2E2E2E2E2E2E2E2E2E2E2E2BEBEE2BEE2BEE2E2E2BEE2E2E2E2E2E2E2E2E2E2E2E2E2E2E2E2E2E2E2E2E2E2E2E2E2E2E2E2E2E2E2E2E2E2E2E2E2E2E2E2E2E2E2E2E2E2E2E2E2E2E2E2E2E2E2E2E2E2E2E2E2E2E2E2E2E2E2E2E2E2E2E2E2E2E2BEE2E2E2E2E2E2E2
310
E2E2E2E2E2E2E2E2E2E2E2E2E2E2E2E2E2E2E2E2E2E2E2E2E2E2E2E2E2E2E2E2E2E2E2E2E2E2E2E2E2E2E2E2E2E2E2E2E2E2E2E2E2E2E2E2E2E2E2E2E2E2E2E2E2E2E2E2E2E2E2E2E2E2E2E2E2E2E2E2E2E2E2E2E2E2BEE2E2E2E2E2E2E2E2E2E2E2E2E2E2E2E2E2E2E2E2E2E2E2E2E2E2E2E2E2E2E2E2E2E2E2E2E2E2E2E2
310
E2E2E2E2E2E2E2E2E2E2E2E2E2E2E2E2E2E2E2E2E2E2E2E2E2E2E2E2E2E2E2E2E2E2E2E2BEBEBEE2BEBEBEBEBEBEE2E2E2E2E2E2E2E2E2E2E2E2E2E2E2E2E2E2E2E2E2E2E2E2E2E2E2E2E2E2E2E2E2E2E2E2E2E2E2E2E2E2E2E2E2E2E2E2E2E2E2E2E2E2E2E2E2E2E2E2E2E2E2E2E2E2E2E2E2E2E2E2E2E2E2BEE2E2E2E2E2
310
E2E2E2E2E2E2E2E2E2E2E2E2E2E2E2E2E2E2E2E2E2E2E2E2E2E2E2E2E2E2E2E2E2E2E2E2E2E2E2E2E2E2E2E2E2E2E2E2E2E2E2E2E2E2E2E2E2E2E2E2E2E2E2E2E2E2E2E2E2E2E2E2E2E2E2E2E2E2E2E2E2E2E2E2E2E2E2E2BEE2E2E2E2E2E2E2E2E2E2E2E2E2E2E2E2E2E2E2E2E2E2E2E2E2E2E2E2E2E2E2E2E2E2E2E2E2E2
310
E2E2E2E2E2E2E2E2E2E2E2E2E2E2E2E2E2E2E2E2E2E2E2E2E2E2E2E2E2E2E2E2E2E2E2E2E2E2E2E2E2E2E2E2E2E2E2E2E2E2E2E2E2E2E2E2E2E2E2E2E2E2E2E2E2E2E2E2E2E2E2E2E2E2E2E2E2E2E2E2E2E2E2E2E2E2E2E2E2E2E2E2E2E2E2E2E2E2E2E2E2E2E2E2E2E2E2E2E2E2E2E2E2E2E2E2E2E2E2E2E2E2E2BEE2E2E2
310
E2E2E2E2E2E2E2E2E2E2E2E2E2E2E2E2E2E2E2E2E2E2E2E2E2E2E2E2E2E2E2E2E2E2E2E2E2E2E2E2E2E2E2E2E2E2E2E2E2E2E2E2E2E2E2E2E2E2E2E2E2E2E2E2E2E2E2E2E2E2E2E2E2E2E2E2E2E2E2E2E2E2E2E2E2E2E2E2E2E2BEE2E2E2E2E2E2E2E2E2E2E2E2E2E2E2E2E2E2E2E2E2E2E2E2E2E2E2E2E2E2E2E2E2E2E2E2
310
E2E2E2E2E2E2E2E2E2E2E2E2E2E2E2E2E2E2E2E2E2E2E2E2E2E2E2E2E2E2E2E2E2E2E2E2E2E2E2E2E2E2E2E2E2E2E2E2E2E2E2E2E2E2E2E2E2E2E2E2E2E2E2E2E2E2E2E2E2E2E2E2E2E2E2E2E2E2E2E2E2E2E2E2E2E2E2E2E2E2E2E2E2E2E2E2E2E2E2E2E2E2E2E2E2E2E2E2E2E2E2E2E2E2E2E2E2E2E2E2E2E2E2E2E2BEE2
310
E2E2E2E2E2E2E2E2E2E2E2E2E2E2E2E2E2E2E2E2E2E2E2E2E2E2E2E2E2E2E2E2E2E2E2E2E2E2E2E2E2E2E2E2E2E2E2E2E2E2E2E2E2E2E2E2E2E2E2E2E2E2E2E2E2E2E2E2E2E2E2E2E2E2E2E2E2E2E2E2E2E2E2E2E2E2E2E2E2E2E2E2BEE2E2E2E2E2E2E2E2E2E2E2E2E2E2E2E2E2E2E2E2E2E2E2E2E2E2E2E2E2E2E2E2E2E2
310
E2E2E2E2E2E2E2E2E2E2E2E2E2E2E2E2E2E2E2E2E2E2E2E2E2E2E2E2E2E2E2E2E2E2E2E2E2E2E2E2E2E2E2E2E2E2E2E2E2E2E2E2E2E2E2E2E2E2E2E2E2E2E2E2E2E2E2E2E2E2E2E2E2E2E2E2E2E2E2E2E2E2E2E2E2E2E2E2E2E2E2E2E2E2E2E2E2E2E2E2E2E2E2E2E2E2E2E2E2E2E2E2E2E2E2E2E2E2E2E2E2E2E2E2E2E2E2
310
BEE2E2E2E2E2E2E2E2E2E2E2E2E2E2E2E2E2E2E2E2E2E2E2E2E2E2E2E2E2E2E2E2E2E2E2E2E2E2E2E2E2E2E2E2E2E2E2E2E2E2E2E2E2E2E2E2E2E2E2E2E2E2E2E2E2E2E2E2E2E2E2E2E2E2E2E2E2E2E2E2E2E2E2E2E2E2E2E2E2E2E2E2E2BEE2E2E2E2E2E2E2E2BEE2E2E2E2E2E2E2E2E2E2E2E2E2E2E2E2E2E2E2E2E2E2E2
310
E2E2E2E2E2E2E2E2E2E2E2E2E2E2E2E2E2E2E2E2E2E2E2E2E2E2E2E2E2E2E2E2E2E2E2E2E2E2E2E2E2E2E2E2E2E2E2E2E2E2E2E2E2E2E2E2E2E2E2E2E2E2E2E2E2E2E2E2E2E2E2E2E2E2E2E2E2E2E2E2E2E2E2E2E2E2E2E2E2E2E2E2E2E2E2E2E2E2E2E2E2E2E2E2E2E2E2E2E2E2E2E2E2E2E2E2E2E2E2E2BEE2E2E2E2E2E2
310
E2E2BEE2E2E2E2E2E2E2E2E2E2E2E2E2E2E2E2E2E2E2E2E2E2E2E2E2E2E2E2E2E2E2E2E2E2E2E2E2E2E2E2E2E2E2E2E2E2E2E2E2E2E2E2E2E2E2E2E2E2E2E2E2E2E2E2E2E2E2E2E2E2E2E2E2E2E2E2E2E2E2E2E2E2E2E2E2E2E2E2E2E2E2E2E2BEE2E2E2E2E2E2E2E2BEBEBEBEBEBEBEBEBEBEBEBEBEBEBEBEBEBEBEBEBEBE
310
BEBEBEBEBEBEBEBEBEBEBEBEBEBEBEBEBEBEBEBEBEBEBEBEBEBEBEBEBEBEBEBEBEBEBEBEBEBEBEBEBEBEBEBEBEBEBEBEBEBEBEBEBEBEBEBEBEBEBEBEBEBEBEBEBEBEBEBEBEBEBEBEBEBEBEBEBEBEBEBEBEBEBEBEBEBEBEBEBEBEBEBEBEBEBEBEBEBEBEBEBEBEBEBEBEBEBEBEBEBEBEBEBEBEBEBEBEBEBEBEBEBEBEE2E2E2E2
310
E2E2E2E2BEE2E2E2E2E2E2E2E2E2E2E2BEBEBEBEBEBEBEBEBEBEBEBEBEBEBEBEBEBEBEBEBEE2E2E2E2E2E2E2E2E2E2E2E2E2E2E2E2E2E2E2E2E2E2E2E2E2E2E2E2E2E2E2E2E2E2E2E2E2E2E2E2E2E2E2E2E2E2E2E2E2E2E2E2E2E2E2E2E2E2E2E2E2BEE2E2E2E2E2E2E2E2BEBEBEE2E2E2E2E2E2E2E2E2E2E2E2E2E2E2E2E2
310
E2E2E2E2E2E2E2E2E2E2E2E2E2E2E2E2E2E2E2E2E2E2E2E2E2E2E2E2E2E2E2E2E2E2E2E2E2E2E2E2E2E2E2E2E2E2BEE2E2E2E2BEE2BEBEBEBEBEBEE2E2E2E2E2E2E2E2E2E2E2E2E2E2E2E2E2E2E2E2E2E2E2E2E2E2E2E2E2E2E2E2E2E2E2E2E2E2E2E2E2E2E2E2E2E2E2E2E2E2E2E2E2E2E2E2E2E2E2E2E2E2E2BEBEBEE2E2
310
E2E2E2E2E2E2BEE2E2E2E2E2E2E2E2E2E2E2BEE2E2E2E2E2E2E2E2BEBEBEBEE2E2E2E2E2E2E2BEE2E2E2E2E2E2E2E2E2E2E2E2E2E2E2E2E2E2E2E2E2E2E2E2E2E2E2E2E2E2E2E2E2E2E2E2E2E2E2E2E2E2E2E2E2E2E2E2E2E2E2E2E2E2E2E2E2E2E2E2E2BEE2E2E2E2E2E2E2E2BEE2E2E2E2E2E2E2E2E2E2E2E2E2E2E2E2E2
310
E2E2E2E2E2E2E2E2E2E2E2E2E2E2E2E2E2E2E2E2E2E2E2E2E2E2E2E2E2E2E2E2E2E2E2E2E2E2E2E2E2E2E2E2E2E2E2E2BEBEBEE2BEBEBEE2E2BEBEE2BEE2E2E2E2E2E2E2E2E2E2E2E2E2E2E2E2E2E2E2E2E2E2E2E2E2E2E2E2E2E2E2E2E2E2E2E2E2E2E2E2E2E2E2E2E2E2E2E2E2E2E2E2E2E2E2E2E2E2E2E2E2E2E2E2E2BE
310
E2E2E2E2E2E2E2E2BEE2E2E2E2E2E2E2E2E2E2E2BEE2E2E2E2E2E2E2E2BEBEBEBEE2E2E2E2E2E2E2BEE2E2E2E2E2E2E2E2E2E2E2E2E2E2E2E2E2E2E2E2E2E2E2E2E2E2E2E2E2E2E2E2E2E2E2E2E2E2E2E2E2E2E2E2E2E2E2E2E2E2E2E2E2E2E2E2E2E2E2E2E2BEE2E2E2E2E2E2E2E2BEE2E2E2E2E2E2E2E2E2E2E2E2E2E2E2
310
E2E2E2E2E2E2E2E2E2E2E2E2E2E2E2E2E2E2E2E2E2E2E2E2E2E2E2E2E2E2E2E2E2E2E2E2E2E2E2E2E2E2E2E2E2E2E2E2E2E2BEE2BEBEE2BEE2BEBEBEBEE2BEE2E2E2E2E2E2E2E2E2E2E2E2E2E2E2E2E2E2E2E2E2E2E2E2E2E2E2E2E2E2E2E2E2E2E2E2E2E2E2E2E2E2E2E2E2E2E2E2E2E2E2E2E2E2E2E2E2E2E2E2E2E2E2E2
310
E2BEE2E2E2E2E2E2E2E2BEE2E2E2E2E2E2E2E2E2E2E2BEE2E2E2E2E2E2E2E2E2E2E2E2E2E2E2E2E2E2E2BEE2E2E2BEE2E2BEE2E2E2E2E2E2E2E2E2E2E2E2E2E2E2E2E2E2E2E2E2E2E2E2E2E2E2E2E2E2E2E2E2E2E2E2E2E2E2E2E2E2E2E2E2E2E2E2E2E2E2E2E2E2BEE2E2E2E2E2E2E2E2BEE2E2E2E2E2E2E2E2E2E2E2E2E2
310
E2E2E2E2E2E2E2E2E2E2E2E2E2E2E2E2E2E2E2E2E2E2E2E2E2E2E2E2E2E2E2E2E2E2E2E2E2E2E2E2E2E2E2E2E2E2E2E2E2E2E2E2BEBEBEBEE2BEE2BEBEBEBEBEBEE2E2E2E2E2E2E2E2E2E2E2E2E2E2E2E2E2E2E2E2E2E2E2E2E2E2E2E2E2E2E2E2E2E2E2E2E2E2E2E2E2E2E2E2E2E2E2E2E2E2E2E2E2E2E2E2E2E2E2E2E2E2
310
E2E2E2BEE2E2E2E2E2E2E2E2BEE2E2E2E2E2E2E2E2E2E2E2BEE2E2E2E2E2E2E2E2E2E2E2E2E2E2E2E2E2E2E2BEE2E2E2BEE2E2BEE2E2E2E2E2E2E2E2E2E2E2E2E2E2E2E2E2E2E2E2E2E2E2E2E2E2E2E2E2E2E2E2E2E2E2E2E2E2E2E2E2E2E2E2E2E2E2E2E2E2E2E2E2E2BEE2E2E2E2E2E2E2E2BEE2E2E2E2E2E2E2E2E2E2E2
310
E2E2E2E2E2E2E2E2E2E2E2E2E2E2E2E2E2E2E2E2E2E2E2E2E2E2E2E2E2E2E2E2E2E2E2E2E2E2E2E2E2E2E2E2E2E2E2E2E2E2E2E2E2E2E2E2E2E2E2E2E2E2E2E2E2E2E2E2E2E2E2E2E2E2E2E2E2E2E2E2E2E2E2E2E2E2E2E2E2E2E2E2E2E2E2E2E2E2E2E2E2E2E2E2E2E2E2E2E2E2E2E2E2E2E2E2E2E2E2E2E2E2E2E2E2E2E2
310
E2E2E2E2E2BEE2E2E2E2E2E2E2E2BEE2E2E2E2E2E2E2E2E2E2E2BEE2E2E2E2E2E2E2E2E2E2E2E2E2E2E2E2E2E2E2BEE2E2E2BEE2E2BEE2E2E2E2E2E2E2E2E2E2E2E2E2E2E2E2E2E2E2E2E2E2E2E2E2E2E2E2E2E2E2E2E2E2E2E2E2E2E2E2E2E2E2E2E2E2E2E2E2E2E2E2E2E2BEE2E2E2E2E2E2BEBEBEBEBEE2E2E2E2E2E2E2
310
E2E2E2E2E2E2E2E2E2E2E2E2E2E2E2E2E2E2E2E2E2E2E2E2E2E2E2E2E2E2E2E2E2E2E2E2E2E2E2E2E2E2E2E2E2E2E2E2E2E2E2E2E2E2E2E2E2E2E2E2E2E2E2E2E2E2E2E2E2E2E2E2E2E2E2E2E2E2E2E2E2E2E2E2E2E2E2E2E2E2E2E2E2E2E2E2E2E2E2E2E2E2E2E2E2E2E2E2E2E2E2E2E2E2E2E2E2E2E2E2E2E2E2E2E2E2E2
310
E2E2E2E2E2BEBEBEBEBEE2E2E2E2E2E2BEE2E2E2E2E2E2E2E2E2E2E2BEE2E2E2E2E2E2E2E2E2E2E2E2E2E2E2E2E2E2BEBEBEBEBEBEBEBEBEBEBEBEBEBEBEBEBEBEBEE2E2E2E2E2E2E2E2E2E2E2E2E2E2E2E2E2E2E2E2E2E2E2E2E2E2E2E2E2E2E2E2E2E2E2E2E2E2E2E2E2E2E2E2BEE2E2E2E2BEBEE2E2BEE2E2BEE2E2E2E2
310
E2E2E2E2E2E2E2E2E2E2E2E2E2E2E2E2E2E2E2E2E2E2E2E2E2E2E2E2E2E2E2E2E2E2E2E2E2E2E2E2E2E2E2E2E2E2E2E2E2E2E2E2E2E2E2E2E2E2E2E2E2E2E2E2E2E2E2E2E2E2E2E2E2E2E2E2E2E2E2E2E2E2E2E2E2E2E2E2E2E2E2E2E2E2E2E2E2E2E2E2E2E2E2E2E2E2E2E2E2E2E2E2E2E2E2E2E2E2E2E2E2E2E2E2E2E2E2
310
E2E2E2E2E2BEBEE2E2BEE2E2BEE2E2E2E2E2BEE2E2E2E2E2E2E2E2E2E2E2BEE2E2E2E2E2E2E2E2E2E2E2E2E2E2E2E2E2E2BEBEE2E2E2BEE2E2BEE2E2E2E2E2E2E2E2BEE2E2E2E2E2E2E2E2E2E2E2E2E2E2E2E2E2E2E2E2E2E2E2E2E2E2E2E2E2E2E2E2E2E2E2E2E2E2E2E2E2E2E2E2E2BEE2E2E2BEE2E2E2E2BEE2E2E2BEBE
310
E2E2E2E2E2E2E2E2E2E2E2E2E2E2E2E2E2E2E2E2E2E2E2E2E2E2E2E2E2E2E2E2E2E2E2E2E2E2E2E2E2E2E2E2E2E2E2E2E2E2E2E2E2E2E2E2E2E2E2E2E2E2E2E2E2E2E2E2E2E2E2E2E2E2E2E2E2E2E2E2E2E2E2E2E2E2E2E2E2E2E2E2E2E2E2E2E2E2E2E2E2E2E2E2E2E2E2E2E2E2E2E2E2E2E2E2E2E2E2E2E2E2E2E2E2E2E2
310
E2E2E2E2E2E2BEE2E2E2E2BEE2E2E2BEBEE2E2E2BEE2E2E2E2E2E2E2E2E2E2E2BEE2E2E2E2E2E2E2E2E2E2E2E2E2E2E2E2E2BEBEBEBEBEBEBEBEBEBEBEBEBEE2E2E2E2E2BEE2E2E2E2E2E2E2E2E2E2E2E2E2E2E2E2E2E2E2E2E2E2E2E2E2E2E2E2E2E2E2E2E2E2E2E2E2E2E2E2E2E2E2E2E2BEE2E2BEE2E2E2BEBEBEBEBEE2
310
E2E2BEE2E2E2E2E2E2E2E2E2E2E2E2E2E2E2E2E2E2E2E2E2E2E2E2E2E2E2E2E2E2E2E2E2E2E2E2E2E2E2E2E2E2E2E2E2E2E2E2E2E2E2E2E2E2E2E2E2E2E2E2E2E2E2E2E2E2E2E2E2E2E2E2E2E2E2E2E2E2E2E2E2E2E2E2E2E2E2E2E2E2E2E2E2E2E2E2E2E2E2E2E2E2E2E2E2E2E2E2E2E2E2E2E2E2E2E2E2E2E2E2E2E2E2E2
310
E2E2E2E2E2E2E2BEE2E2E2BEBEBEBEBEBEE2E2BEE2E2BEE2E2E2E2E2E2E2E2E2E2E2BEE2E2E2E2E2E2E2E2E2E2E2E2E2E2E2E2E2BEBEBEBEBEBEBEBEBEBEBEBEBEBEBEBEBEE2BEE2E2E2E2E2E2E2E2E2E2E2E2E2E2E2E2E2E2E2E2E2E2E2E2E2E2E2E2E2E2E2E2E2E2E2E2E2E2E2E2E2E2E2E2E2BEE2E2BEE2E2E2E2E2BEE2
310
E2E2E2E2E2BEE2E2E2E2E2E2E2E2E2E2E2E2E2E2E2E2E2E2E2E2E2E2E2E2E2E2E2E2E2E2E2E2E2E2E2E2E2E2E2E2E2E2E2E2E2E2E2E2E2E2E2E2E2E2E2E2E2E2E2E2E2E2E2E2E2E2E2E2E2E2E2E2E2E2E2E2E2E2E2E2E2E2E2E2E2E2E2E2E2E2E2E2E2E2E2E2E2E2E2E2E2E2E2E2E2E2E2E2E2E2E2E2E2E2E2E2E2E2E2E2E2
310
E2E2E2E2E2E2E2E2E2BEE2E2E2E2E2BEE2E2E2E2E2E2BEE2BEE2E2E2E2E2E2E2E2E2E2E2BEE2E2E2E2E2E2E2E2E2E2E2E2E2E2E2BEBEBEBEBEE2E2E2BEE2E2BEE2E2E2E2E2BEE2E2BEE2E2E2E2E2E2E2E2E2E2E2E2E2E2E2E2E2E2E2E2E2E2E2E2E2E2E2E2E2E2E2E2E2E2E2E2E2E2E2E2E2E2E2E2E2BEE2BEE2E2E2E2E2BE
310
BEBEBEE2E2E2E2BEE2E2E2E2E2E2E2E2E2E2E2E2E2E2E2E2E2E2E2E2E2E2E2E2E2E2E2E2E2E2E2E2E2E2E2E2E2E2E2E2E2E2E2E2E2E2E2E2E2E2E2E2E2E2E2E2E2E2E2E2E2E2E2E2E2E2E2E2E2E2E2E2E2E2E2E2E2E2E2E2E2E2E2E2E2E2E2E2E2E2E2E2E2E2E2E2E2E2E2E2E2E2E2E2E2E2E2E2E2E2E2E2E2E2E2E2E2E2E2
310
E2E2E2E2E2E2E2E2E2E2BEE2E2E2E2E2BEBEBEBEE2E2E2E2BEE2BEE2E2E2E2E2E2E2E2E2E2E2BEE2E2E2E2E2E2E2E2BEBEBEBEBEBEBEBEE2BEBEBEE2E2E2BEE2E2BEE2E2E2E2E2BEE2E2BEE2E2E2E2E2E2E2E2E2E2E2E2E2E2E2E2E2E2E2E2E2E2E2E2E2E2E2E2E2E2E2E2E2E2E2E2E2E2E2E2E2E2E2E2E2BEE2BEE2E2E2BE
310
BEBEE2E2BEBEBEBEBEBEBEBEBEBEBEBEBEBEBEBEBEBEBEBEBEBEBEBEBEBEBEBEBEBEBEBEBEBEBEBEBEBEBEBEBEBEBEBEBEBEBEBEBEBEBEBEBEBEBEBEBEBEBEBEBEBEBEBEBEBEBEBEBEBEBEBEBEBEBEBEBEBEBEBEBEBEBEBEBEBEBEBEBEBEBEBEBEBEBEBEBEBEBEBEBEBEBEBEBEBEBEBEBEBEBEBEBEBEBEBEBEBEBEBEBEBEBE
310
BEBEBEBEBEBEBEBEBEBEBEBEBEBEBEBEBEBEBEE2BEBEBEE2E2E2E2BEBEE2E2E2E2E2E2E2E2E2E2E2BEBEBEBEBEBEBEBEBEE2E2E2E2E2E2E2BEE2E2BEBEE2E2E2BEE2E2BEE2E2E2E2E2BEE2E2BEE2E2E2E2E2E2E2E2E2E2E2E2E2E2E2E2E2E2E2E2E2E2E2E2E2E2E2E2E2E2E2E2E2E2E2E2E2E2E2E2E2E2E2E2E2BEBEE2E2E2
310
E2BEE2E2E2E2E2BEE2E2E2E2BEE2BEE2E2E2E2E2E2E2E2E2E2E2E2E2E2E2E2E2E2E2E2E2E2E2E2E2E2E2E2E2E2E2E2E2E2E2E2E2E2E2E2E2E2E2E2E2E2E2E2E2E2E2E2E2E2E2E2E2E2E2E2E2E2E2E2E2E2E2E2E2E2E2E2E2E2E2E2E2E2E2E2E2E2E2E2E2E2E2E2E2E2E2E2E2E2E2E2E2E2E2E2E2E2E2E2E2E2E2E2E2E2E2E2
310
E2E2E2E2E2E2E2E2E2E2E2E2BEBEE2E2E2E2BEE2E2E2E2E2BEBEE2E2E2BEBEE2E2E2E2E2E2E2E2E2E2E2BEBEE2E2E2E2E2E2E2E2E2E2E2E2E2E2BEE2E2BEBEE2E2E2BEE2E2BEE2E2E2E2BEBEE2E2BEE2E2E2E2E2E2E2E2E2E2E2E2E2E2E2E2E2E2E2E2E2E2E2E2E2E2E2E2E2E2E2E2E2E2E2E2E2E2E2E2E2E2E2E2E2BEBEE2
310
E2E2BEBEE2E2E2E2E2E2E2E2E2E2E2E2BEE2E2E2E2E2E2E2E2E2E2E2E2E2E2E2E2E2E2E2E2E2E2E2E2E2E2E2E2E2E2E2E2E2E2E2E2E2E2E2E2E2E2E2E2E2E2E2E2E2E2E2E2E2E2E2E2E2E2E2E2E2E2E2E2E2E2E2E2E2E2E2E2E2E2E2E2E2E2E2E2E2E2E2E2E2E2E2E2E2E2E2E2E2E2E2E2E2E2E2E2E2E2E2E2E2E2E2E2E2E2
310
E2E2E2E2E2E2E2E2E2E2E2E2E2E2BEE2E2E2E2E2E2E2E2E2E2E2E2BEE2E2E2BEBEE2E2E2E2E2E2E2E2E2E2E2BEE2E2E2E2E2E2E2E2E2E2E2E2E2E2E2BEE2E2BEBEE2E2E2BEE2E2BEE2E2E2E2BEBEE2BEBEE2E2E2E2E2E2E2E2E2E2E2E2E2E2E2E2E2E2E2E2E2E2E2E2E2E2E2E2E2E2E2E2E2E2E2E2E2E2E2E2E2E2E2E2E2BE
310
BEE2E2E2BEBEE2E2E2E2E2E2E2E2E2E2E2E2BEE2E2E2E2E2E2E2E2E2E2E2E2E2E2E2E2E2E2E2E2E2E2E2E2E2E2E2E2E2E2E2E2E2E2E2E2E2E2E2E2E2E2E2E2E2E2E2E2E2E2E2E2E2E2E2E2E2E2E2E2E2E2E2E2E2E2E2E2E2E2E2E2E2E2E2E2E2E2E2E2E2E2E2E2E2E2E2E2E2E2E2E2E2E2E2E2E2E2E2E2E2E2E2E2E2E2E2E2
310
E2E2E2E2E2E2E2E2E2E2E2E2E2E2E2E2BEE2E2E2E2E2E2E2E2E2E2E2E2BEE2E2E2BEBEE2E2E2E2E2E2E2E2E2E2E2BEBEE2E2E2E2E2E2E2E2E2E2E2E2E2E2BEE2E2BEBEE2E2E2BEE2E2BEE2E2E2E2BEBEE2BEBEE2E2E2E2E2E2E2E2E2E2E2E2E2E2E2E2E2E2E2E2E2E2E2E2E2E2E2E2E2E2E2E2E2E2E2E2E2E2E2E2E2E2E2E2
310
E2E2BEE2E2E2BEBEE2E2E2E2E2E2E2E2E2E2E2E2BEE2E2E2E2E2E2E2E2E2E2E2E2E2E2E2E2E2E2E2E2E2E2E2E2E2E2E2E2E2E2E2E2E2E2E2E2E2E2E2E2E2E2E2E2E2E2E2E2E2E2E2E2E2E2E2E2E2E2E2E2E2E2E2E2E2E2E2E2E2E2E2E2E2E2E2E2E2E2E2E2E2E2E2E2E2E2E2E2E2E2E2E2E2E2E2E2E2E2E2E2E2E2E2E2E2E2
310
E2E2E2E2E2E2E2E2E2E2E2E2E2E2E2E2E2E2BEE2E2E2E2E2E2E2E2E2E2E2BEBEE2E2E2BEE2E2E2E2E2E2E2E2E2E2E2E2BEBEE2E2E2E2E2E2E2E2E2E2E2E2E2E2BEE2E2BEBEE2E2E2BEE2E2BEE2E2E2E2BEBEE2BEBEE2E2E2E2E2E2E2E2E2E2E2E2E2E2E2E2E2E2E2E2E2E2E2E2E2E2E2E2E2E2E2E2E2E2E2E2E2E2E2E2E2E2
310
E2E2E2E2BEE2E2E2E2BEBEE2E2E2BEBEBEBEBEBEBEBEBEBEBEBEBEBEBEBEBEBEBEBEBEBEBEBEBEBEBEBEBEBEBEBEBEBEBEBEBEBEBEBEBEBEBEBEBEBEBEBEBEBEBEBEBEBEBEBEBEBEBEBEBEBEBEBEBEBEBEBEBEBEBEBEBEBEBEBEBEBEBEBEBEBEBEBEBEBEBEBEBEBEBEBEBEBEBEBEBEBEBEBEBEBEBEBEBEBEBEBEBEBEBEBEBE
310
BEBEBEBEBEBEBEBEBEBEBEBEBEBEBEBEBEBEBEBEBEBEBEBEBEBEBEBEBEE2E2BEBEE2E2E2E2BEE2E2E2E2E2E2E2E2E2E2E2E2E2BEBEBEBEBEBEBEBEE2E2E2E2E2E2E2BEE2E2BEBEE2E2E2BEE2E2BEE2E2E2E2E2BEE2E2BEE2E2E2E2E2E2E2E2E2E2E2E2E2E2E2E2E2E2E2E2E2E2E2E2E2E2E2E2E2E2E2E2E2E2E2E2E2E2E2E2
310
E2E2E2E2E2E2E2BEE2E2E2BEBEBEBEBEBEE2E2E2E2E2BEE2E2E2E2E2E2E2E2E2E2E2E2E2E2E2E2E2E2E2E2E2E2E2E2E2E2E2E2E2E2E2E2E2E2E2E2E2E2E2E2E2E2E2E2E2E2E2E2E2E2E2E2E2E2E2E2E2E2E2E2E2E2E2E2E2E2E2E2E2E2E2E2E2E2E2E2E2E2E2E2E2E2E2E2E2E2E2E2E2E2E2E2E2E2E2E2E2E2E2E2E2E2E2E2
310
E2E2BEE2E2E2E2E2E2E2E2E2E2E2E2E2E2E2E2E2E2E2E2E2BEE2E2E2E2BEBEBEBEBEBEE2E2E2E2BEE2E2E2E2E2E2E2E2E2E2E2E2E2E2E2E2E2E2E2E2E2BEBEBEBEBEBEBEBEE2BEBEBEE2E2E2BEE2E2BEE2E2E2E2E2BEE2E2BEE2E2E2E2E2E2E2E2E2E2E2E2E2E2E2E2E2E2E2E2E2E2E2E2E2E2E2E2E2E2E2E2E2E2E2E2E2E2
310
E2E2E2E2E2E2E2E2E2BEE2E2E2E2E2BEBEBEE2E2E2E2E2BEE2E2E2E2E2E2E2E2E2E2E2E2E2E2E2E2E2E2E2E2E2E2E2E2E2E2E2E2E2E2E2E2E2E2E2E2E2E2E2E2E2E2E2E2E2E2E2E2E2E2E2E2E2E2E2E2E2E2E2E2E2E2E2E2E2E2E2E2E2E2E2E2E2E2E2E2E2E2E2E2E2E2E2E2E2E2E2E2E2E2E2E2E2E2E2E2E2E2E2E2E2E2E2
310
E2E2E2E2E2BEE2E2E2E2E2E2E2E2E2E2E2E2E2E2E2E2E2E2E2E2BEE2E2E2E2E2BEBEBEE2E2E2E2E2BEE2E2E2E2E2E2E2E2E2E2E2E2E2E2E2E2E2E2E2E2E2E2E2E2E2E2E2E2E2BEBEBEBEBEE2E2E2BEE2E2BEE2E2E2E2E2BEE2E2BEE2E2E2E2E2E2E2E2E2E2E2E2E2E2E2E2E2E2E2E2E2E2E2E2E2E2E2E2E2E2E2E2E2E2E2E2
310
E2E2E2E2E2E2E2E2E2E2E2E2BEE2E2E2E2E2BEE2E2E2E2E2E2BEE2E2E2E2E2E2E2E2E2E2E2E2E2E2E2E2E2E2E2E2E2E2E2E2E2E2E2E2E2E2E2E2E2E2E2E2E2E2E2E2E2E2E2E2E2E2E2E2E2E2E2E2E2E2E2E2E2E2E2E2E2E2E2E2E2E2E2E2E2E2E2E2E2E2E2E2E2E2E2E2E2E2E2E2E2E2E2E2E2E2E2E2E2E2E2E2E2E2E2E2E2
310
E2E2E2E2E2E2E2BEE2E2E2E2E2E2E2E2E2E2E2E2E2E2E2E2E2E2E2E2E2BEE2E2E2E2E2BEE2E2E2E2E2E2BEE2E2E2E2E2E2E2E2E2E2E2E2E2E2E2E2E2E2E2E2E2E2E2E2E2E2E2E2E2E2E2BEBEBEBEBEBEBEBEBEBEBEBEBEE2E2BEE2E2BEE2E2E2E2E2E2E2E2E2E2E2E2E2E2E2E2E2E2E2E2E2E2E2E2E2E2E2E2E2E2E2E2E2E2
310
E2E2E2E2E2E2E2E2E2E2E2E2E2E2BEE2E2E2BEBEBEBEBEE2E2E2BEE2E2E2E2E2E2E2E2E2E2E2E2E2E2E2E2E2E2E2E2E2E2E2E2E2E2E2E2E2E2E2E2E2E2E2E2E2E2E2E2E2E2E2E2E2E2E2E2E2E2E2E2E2E2E2E2E2E2E2E2E2E2E2E2E2E2E2E2E2E2E2E2E2E2E2E2E2E2E2E2E2E2E2E2E2E2E2E2E2E2E2E2E2E2E2E2E2E2E2E2
310
E2E2E2E2E2E2E2E2E2BEBEE2E2E2E2BEBEBEE2E2E2E2E2E2E2E2E2E2E2E2E2BEE2E2E2BEBEBEBEBEE2E2E2BEE2E2E2E2E2E2E2E2E2E2E2E2E2E2E2E2E2E2E2E2E2E2E2E2E2E2E2E2E2E2E2E2BEBEBEBEBEBEBEBEBEBEBEBEBEBEBEBEBEE2BEE2E2E2E2E2E2E2E2E2E2E2E2E2E2E2E2E2E2E2E2E2E2E2E2E2E2E2E2E2E2E2E2
310
E2E2E2E2E2E2E2E2E2E2E2E2E2E2E2E2E2BEBEE2E2E2BEE2E2E2E2BEE2E2E2E2E2E2E2E2E2E2E2E2E2E2E2E2E2E2E2E2E2E2E2E2E2E2E2E2E2E2E2E2E2E2E2E2E2E2E2E2E2E2E2E2E2E2E2E2E2E2E2E2E2E2E2E2E2E2E2E2E2E2E2E2E2E2E2E2E2E2E2E2E2E2E2E2E2E2E2E2E2E2E2E2E2E2E2E2E2E2E2E2E2E2E2E2E2E2E2
310
E2E2E2E2E2E2E2E2E2E2E2BEBEBEBEBEBEBEBEBEE2E2E2E2E2E2E2E2E2E2E2E2E2E2BEBEE2E2E2BEE2E2E2E2BEE2E2E2E2E2E2E2E2E2E2E2E2E2E2E2E2E2E2E2E2E2E2E2E2E2E2E2E2E2E2E2E2E2E2BEBEE2E2E2BEE2E2BEE2E2E2E2BEBEE2E2BEE2E2E2E2E2E2E2E2E2E2E2E2E2E2E2E2E2E2E2E2E2E2E2E2E2E2E2E2E2E2
310
E2E2E2E2E2E2E2E2E2E2E2E2E2E2E2E2E2E2E2E2E2BEE2E2BEE2E2BEBEE2E2E2E2E2E2E2E2E2E2E2E2E2E2E2E2E2E2E2E2E2E2E2E2E2E2E2E2E2E2E2E2E2E2E2E2E2E2E2E2E2E2E2E2E2E2E2E2E2E2E2E2E2E2E2E2E2E2E2E2E2E2E2E2E2E2E2E2E2E2E2E2E2E2E2E2E2E2E2E2E2E2E2E2E2E2E2E2E2E2E2E2E2E2E2E2E2E2
310
E2E2E2E2E2E2E2E2E2E2E2E2E2BEBEBEBEBEE2BEBEE2BEE2BEE2E2E2E2E2E2E2E2E2E2E2E2E2BEE2E2BEE2E2BEBEE2E2E2E2E2E2E2E2E2E2E2E2E2E2E2E2E2E2E2E2E2E2E2E2E2E2E2E2E2E2E2E2E2E2E2BEBEE2E2E2BEE2E2BEE2E2E2E2BEBEE2E2BEBEE2E2E2E2E2E2E2E2E2E2E2E2E2E2E2E2E2E2E2E2E2E2E2E2E2E2E2
310
E2E2E2E2E2E2E2E2E2E2E2E2E2E2E2E2E2E2E2E2E2E2E2E2BEBEBEBEBEE2E2E2E2E2E2E2E2E2E2E2E2E2E2E2E2E2E2E2E2E2E2E2E2E2E2E2E2E2E2E2E2E2E2E2E2E2E2E2E2E2E2E2E2E2E2E2E2E2E2E2E2E2E2E2E2E2E2E2E2E2E2E2E2E2E2E2E2E2E2E2E2E2E2E2E2E2E2E2E2E2E2E2E2E2E2E2E2E2E2E2E2E2E2E2E2E2E2
310
E2E2E2E2E2E2E2E2E2E2E2E2E2E2E2BEBEBEBEBEBEBEBEE2BEBEBEE2E2E2E2E2E2E2E2E2E2E2E2E2E2BEBEBEBEBEE2E2E2E2E2E2E2E2E2E2E2E2E2E2E2E2E2E2E2E2E2E2E2E2E2E2E2E2E2E2E2E2E2E2E2E2E2BEBEBEBEBEBEBEBEBEBEBEBEBEBEBEBEBEBEBEE2E2E2E2E2E2E2E2E2E2E2E2E2E2E2E2E2E2E2E2E2E2E2E2E2
310
E2E2E2E2E2E2E2E2E2E2E2E2E2E2E2E2E2E2E2E2E2E2E2E2E2E2E2E2E2E2E2E2E2E2E2E2E2E2E2E2E2E2E2E2E2E2E2E2E2E2E2E2E2E2E2E2E2E2E2E2E2E2E2E2E2E2E2E2E2E2E2E2E2E2E2E2E2E2E2E2E2E2E2E2E2E2E2E2E2E2E2E2E2E2E2E2E2E2E2E2E2E2E2E2E2E2E2E2E2E2E2E2E2E2E2E2E2E2E2E2E2E2E2E2E2E2E2
310
E2E2E2E2E2E2E2E2E2E2E2E2E2E2E2E2E2E2E2E2E2E2BEE2E2E2E2BEE2E2E2E2E2E2E2E2E2E2E2E2E2E2E2E2E2E2E2E2E2E2E2E2E2E2E2E2E2E2E2E2E2E2E2E2E2E2E2E2E2E2E2E2E2E2E2E2E2E2E2E2E2E2E2E2E2E2BEBEE2E2BEE2BEBEE2E2E2E2E2E2E2E2E2E2E2E2E2E2E2E2E2E2E2E2E2E2E2E2E2E2E2E2E2E2E2E2E2
310
E2E2E2E2E2E2E2E2E2E2E2E2E2E2E2E2E2E2E2E2E2E2E2E2E2E2E2E2E2E2E2E2E2E2E2E2E2E2E2E2E2E2E2E2E2E2E2E2E2E2E2E2E2E2E2E2E2E2E2E2E2E2E2E2E2E2E2E2E2E2E2E2E2E2E2E2E2E2E2E2E2E2E2E2E2E2E2E2E2E2E2E2E2E2E2E2E2E2E2E2E2E2E2E2E2E2E2E2E2E2E2E2E2E2E2E2E2E2E2E2E2E2E2E2E2E2E2
310
E2E2E2E2E2E2E2E2E2E2E2E2E2E2E2E2E2E2E2E2E2E2E2E2E2E2E2E2E2E2E2E2E2E2E2E2E2E2E2E2E2E2E2E2E2E2E2E2E2E2E2E2E2E2E2E2E2E2E2E2E2E2E2E2E2E2E2E2E2E2E2E2E2E2E2E2E2E2E2E2E2E2E2E2E2E2E2E2BEE2BEE2BEE2BEBEE2E2E2E2E2E2E2E2E2E2E2E2E2E2E2E2E2E2E2E2E2E2E2E2E2E2E2E2E2E2E2
310
E2E2E2E2E2E2E2E2E2E2E2E2E2E2E2E2E2E2E2E2E2E2E2E2E2E2E2E2E2E2E2E2E2E2E2E2E2E2E2E2E2E2E2E2E2E2E2E2E2E2E2E2E2E2E2E2E2E2E2E2E2E2E2E2E2E2E2E2E2E2E2E2E2E2E2E2E2E2E2E2E2E2E2E2E2E2E2E2E2E2E2E2E2E2E2E2E2E2E2E2E2E2E2E2E2E2E2E2E2E2E2E2E2E2E2E2E2E2E2E2E2E2E2E2E2E2E2
310
E2E2E2E2E2E2E2E2E2E2E2E2E2E2E2E2E2E2E2E2E2E2E2E2E2E2E2E2E2E2E2E2E2E2E2E2E2E2E2E2E2E2E2E2E2E2E2E2E2E2E2E2E2E2E2E2E2E2E2E2E2E2E2E2E2E2E2E2E2E2E2E2E2E2E2E2E2E2E2E2E2E2E2E2E2E2E2E2E2E2E2E2BEE2E2E2BEE2E2E2E2E2E2E2E2E2E2E2E2E2E2E2E2E2E2E2E2E2E2E2E2E2E2E2E2E2E2
310
E2E2E2E2E2E2E2E2E2E2E2E2E2E2E2E2E2E2E2E2E2E2E2E2E2E2E2E2E2E2E2E2E2E2E2E2E2E2E2E2E2E2E2E2E2E2E2E2E2E2E2E2E2E2E2E2E2E2E2E2E2E2E2E2E2E2E2E2E2E2E2E2E2E2E2E2E2E2E2E2E2E2E2E2E2E2E2E2E2E2E2E2E2E2E2E2E2E2E2E2E2E2E2E2E2E2E2E2E2E2E2E2E2E2E2E2E2E2E2E2E2E2E2E2E2E2E2
310
E2E2E2E2E2E2E2E2E2E2E2E2E2E2E2E2E2E2E2E2E2E2E2E2E2E2E2E2E2E2E2E2E2E2E2E2E2E2E2E2E2E2E2E2E2E2E2E2E2E2E2E2E2E2E2E2E2E2E2E2E2E2E2E2E2E2E2E2E2E2E2E2E2E2E2E2E2E2E2E2E2E2E2E2E2E2E2E2E2E2E2E2E2E2BEBEE2E2BEBEE2E2E2E2E2E2E2E2E2E2E2E2E2E2E2E2E2E2E2E2E2E2E2E2E2E2E2
310
E2E2E2E2E2E2E2E2E2E2E2E2E2E2E2E2E2E2E2E2E2E2E2E2E2E2E2E2E2E2E2E2E2E2E2E2E2E2E2E2E2E2E2E2E2E2E2E2E2E2E2E2E2E2E2E2E2E2E2E2E2E2E2E2E2E2E2E2E2E2E2E2E2E2E2E2E2E2E2E2E2E2E2E2E2E2E2E2E2E2E2E2E2E2E2E2E2E2E2E2E2E2E2E2E2E2E2E2E2E2E2E2E2E2E2E2E2E2E2E2E2E2E2E2E2E2E2
310
E2E2E2E2E2E2E2E2E2E2E2E2E2E2E2E2E2E2E2E2E2E2E2E2E2E2E2E2E2E2E2E2E2E2E2E2E2E2E2E2E2E2E2E2E2E2E2E2E2E2E2E2E2E2E2E2E2E2E2E2E2E2E2E2E2E2E2E2E2E2E2E2E2E2E2E2E2E2E2E2E2E2E2E2E2E2E2E2E2E2E2E2E2E2E2E2E2BEBEBEE2BEBEBEBEBEBEBEBEBEBEE2E2E2E2E2E2E2E2E2E2E2E2E2E2E2E2
310
E2E2E2E2E2E2E2E2E2E2E2E2E2E2E2E2E2E2E2E2E2E2E2E2E2E2E2E2E2E2E2E2E2E2E2E2E2E2E2E2E2E2E2E2E2E2E2E2E2E2E2E2E2E2E2E2E2E2E2E2E2E2E2E2E2E2E2E2E2E2E2E2E2E2E2E2E2E2E2E2E2E2E2E2E2E2E2E2E2E2E2E2E2E2E2E2E2E2E2E2E2E2E2E2E2E2E2E2E2E2E2E2E2E2E2E2E2E2E2E2E2E2E2E2E2E2E2
310
E2E2E2E2E2E2E2E2E2E2E2E2E2E2E2E2E2E2E2E2E2E2E2E2E2E2E2E2E2E2E2E2E2E2E2E2E2E2E2E2E2E2E2E2E2E2E2E2E2E2E2E2E2E2E2E2E2E2E2E2E2E2E2E2E2E2E2E2E2E2E2E2E2E2E2E2E2E2E2E2E2E2E2E2E2E2E2E2E2E2E2E2E2E2E2E2E2E2E2BEBEE2E2BEBEBEBEE2E2E2BEBEBEE2E2E2E2E2E2E2E2E2E2E2E2E2E2
310
E2E2E2E2E2E2E2E2E2E2E2E2E2E2E2E2E2E2E2E2E2E2E2E2E2E2E2E2E2E2E2E2E2E2E2E2E2E2E2E2E2E2E2E2E2E2E2E2E2E2E2E2E2E2E2E2E2E2E2E2E2E2E2E2E2E2E2E2E2E2E2E2E2E2E2E2E2E2E2E2E2E2E2E2E2E2E2E2E2E2E2E2E2E2E2E2E2E2E2E2E2E2E2E2E2E2E2E2E2E2E2E2E2E2E2E2E2E2E2E2E2E2E2E2E2E2E2
310
E2E2E2E2E2E2E2E2E2E2E2E2E2E2E2E2E2E2E2E2E2E2E2E2E2E2E2E2E2E2E2E2E2E2E2E2E2E2E2E2E2E2E2E2E2E2E2E2E2E2E2E2E2E2E2E2E2E2E2E2E2E2E2E2E2E2E2E2E2E2E2E2E2E2E2E2E2E2E2E2E2E2E2E2E2E2E2E2E2E2E2E2E2E2E2E2E2E2E2E2E2E2E2E2E2E2E2E2E2E2E2E2E2E2E2E2E2E2E2E2E2E2E2E2E2E2E2
310
E2E2E2E2E2E2E2E2E2E2E2E2E2E2E2E2E2E2E2E2E2E2E2E2E2E2E2E2E2E2E2E2E2E2E2E2E2E2E2E2E2E2E2E2E2E2BEBEBEBEBEBEBEBEBEBEBEBEBEBEBEBEBEBEBEBEBEBEBEBEBEBEBEBEBEBEBEBEBEBEBEBEBEBEBEBEBEBEBEBEBEBEBEBEBEBEBEBEBEBEBEBEBEBEBEBEBEBEBEBEBEBEBEBEBEBEBEBEBEBEBEBEBEBEBEBEBE
310
BEBEBEBEBEBEBEBEBEBEBEBEBEBEBEBEBEBEBEBEBEBEBEBEBEBEBEBEBEBEBEBEBEBEBEBEBEBEBEBEBEBEBEBEBEBEBEBEBEBEBEBEBEBEBEBEE2E2E2E2E2E2E2E2E2E2E2E2E2E2E2E2E2E2E2E2E2E2E2E2E2E2E2E2E2E2E2E2E2E2E2E2E2E2E2E2E2E2E2E2E2E2E2E2E2E2E2E2E2E2E2E2E2E2E2E2E2E2E2E2E2E2E2E2E2E2E2
310
E2E2E2E2E2E2E2E2E2E2E2E2E2E2E2E2E2E2E2E2E2E2E2E2E2E2E2E2E2E2E2E2E2E2E2E2E2E2E2E2E2E2E2E2E2E2BEBEBEE2E2E2E2E2BEE2E2E2E2E2E2E2E2E2E2E2E2E2E2E2E2E2E2E2E2E2E2E2E2E2E2E2E2E2E2E2E2E2E2E2E2E2E2E2E2E2E2E2E2E2E2E2E2E2E2E2E2E2E2E2E2E2E2E2E2E2E2E2E2E2E2E2E2E2E2E2E2
310
E2E2E2E2E2E2E2E2E2E2E2E2E2E2E2E2E2E2E2E2E2E2E2E2E2E2E2E2E2E2E2E2E2E2E2E2E2E2E2BEE2E2E2E2E2E2E2E2E2E2E2E2BEE2E2E2E2E2BEBEBEE2E2E2E2E2E2E2E2E2E2E2E2E2E2E2E2E2E2E2E2E2E2E2E2E2E2E2E2E2E2E2E2E2E2E2E2E2E2E2E2E2E2E2E2E2E2E2E2E2E2E2E2E2E2E2E2E2E2E2E2E2E2E2E2E2E2
310
E2E2E2E2E2E2E2E2E2E2E2E2E2E2E2E2E2E2E2E2E2E2E2E2E2E2E2E2E2E2E2E2E2E2E2E2E2E2E2E2E2E2E2E2E2E2E2BEE2E2E2E2E2E2E2E2BEE2E2E2E2E2E2E2E2E2E2E2E2E2E2E2E2E2E2E2E2E2E2E2E2E2E2E2E2E2E2E2E2E2E2E2E2E2E2E2E2E2E2E2E2E2E2E2E2E2E2E2E2E2E2E2E2E2E2E2E2E2E2E2E2E2E2E2E2E2E2
310
E2E2E2E2E2E2E2E2E2E2E2E2E2E2E2E2E2E2E2E2E2E2E2E2E2E2E2E2E2E2E2E2E2E2E2E2E2E2E2E2E2BEE2E2E2E2E2E2E2E2E2E2E2E2BEE2E2E2E2E2E2E2BEBEE2E2E2E2E2E2E2E2E2E2E2E2E2E2E2E2E2E2E2E2E2E2E2E2E2E2E2E2E2E2E2E2E2E2E2E2E2E2E2E2E2E2E2E2E2E2E2E2E2E2E2E2E2E2E2E2E2E2E2E2E2E2E2
310
E2E2E2E2E2E2E2E2E2E2E2E2E2E2E2E2E2E2E2E2E2E2E2E2E2E2E2E2E2E2E2E2E2E2E2E2E2E2E2E2E2E2E2E2E2E2E2E2BEE2E2E2E2E2E2E2E2E2BEE2E2E2E2E2E2E2E2E2E2E2E2E2E2E2E2E2E2E2E2E2E2E2E2E2E2E2E2E2E2E2E2E2E2E2E2E2E2E2E2E2E2E2E2E2E2E2E2E2E2E2E2E2E2E2E2E2E2E2E2E2E2E2E2E2E2E2E2
310
E2E2E2E2E2E2E2E2E2E2E2E2E2E2E2E2E2E2E2E2E2E2E2E2E2E2E2E2E2E2E2E2E2E2E2E2E2E2E2E2E2E2E2BEE2E2E2E2E2E2E2E2E2E2E2E2BEE2E2E2E2E2E2E2E2BEBEE2E2E2E2E2E2E2E2E2E2E2E2E2E2E2E2E2E2E2E2E2E2E2E2E2E2E2E2E2E2E2E2E2E2E2E2E2E2E2E2E2E2E2E2E2E2E2E2E2E2E2E2E2E2E2E2E2E2E2E2
310
E2E2E2E2E2E2E2E2E2E2E2E2E2E2E2E2E2E2E2E2E2E2E2E2E2E2E2E2E2E2E2E2E2E2E2E2E2E2E2E2E2E2E2E2E2E2E2E2E2BEE2E2E2E2E2E2E2E2E2E2BEBEBEBEBEBEBEBEBEBEBEBEBEBEBEBEBEBEBEBEBEBEBEBEBEBEBEBEBEBEBEBEBEBEBEBEBEBEBEBEBEBEBEBEBEBEBEBEBEBEBEBEBEBEBEBEBEBEBEBEBEBEBEBEBEBEBE
310
BEBEBEBEBEBEBEBEBEBEBEBEBEBEBEBEBEBEBEBEBEBEBEBEBEBEBEBEBEBEBEBEBEBEBEBEBEBEBEBEBEBEBEBEBEBEBEBEBEBEBEBEBEBEBEBEBEBEBEE2E2E2E2E2E2E2E2E2BEBEE2E2E2E2E2E2E2E2E2E2E2E2E2E2E2E2E2E2E2E2E2E2E2E2E2E2E2E2E2E2E2E2E2E2E2E2E2E2E2E2E2E2E2E2E2E2E2E2E2E2E2E2E2E2E2E2E2
310
E2E2E2E2E2E2E2E2E2E2E2E2E2E2E2E2E2E2E2E2E2E2E2E2E2E2E2E2E2E2E2E2E2E2E2E2E2E2E2E2E2E2E2E2E2E2E2E2E2E2E2BEE2E2E2E2E2BEBEBEBEBEBEE2E2E2E2E2E2E2E2E2E2E2E2E2E2E2E2E2E2E2E2E2E2E2E2E2E2E2E2E2E2E2E2E2E2E2E2E2E2E2E2E2E2E2E2E2E2E2E2E2E2E2E2E2E2E2E2E2E2E2E2E2E2E2E2
310
E2E2E2E2E2E2E2E2E2E2E2E2E2E2E2E2E2E2E2E2E2E2E2E2E2E2E2E2E2E2E2E2E2E2E2E2E2E2E2E2E2E2E2E2E2E2BEBEE2E2E2E2E2E2E2E2E2E2E2E2BEBEBEBEBEBEE2E2E2E2E2BEE2E2E2E2E2E2E2E2E2E2E2E2E2E2E2E2E2E2E2E2E2E2E2E2E2E2E2E2E2E2E2E2E2E2E2E2E2E2E2E2E2E2E2E2E2E2E2E2E2E2E2E2E2E2E2
310
E2E2E2E2E2E2E2E2E2E2E2E2E2E2E2E2E2E2E2E2E2E2E2E2E2E2E2E2E2E2E2E2E2E2E2E2E2E2E2E2E2E2E2E2E2E2E2E2E2E2E2E2BEE2E2E2E2E2BEE2E2E2E2E2E2E2E2E2E2E2E2E2E2E2E2E2E2E2E2E2E2E2E2E2E2E2E2E2E2E2E2E2E2E2E2E2E2E2E2E2E2E2E2E2E2E2E2E2E2E2E2E2E2E2E2E2E2E2E2E2E2E2E2E2E2E2E2
310
E2E2E2E2E2E2E2E2E2E2E2E2E2E2E2E2E2E2E2E2E2E2E2E2E2E2E2E2E2E2E2E2E2E2E2E2E2E2E2E2E2E2E2E2E2E2E2E2BEBEE2E2E2E2E2E2E2E2E2E2E2E2E2BEE2E2E2BEBEE2E2E2E2BEBEE2E2E2E2E2E2E2E2E2E2E2E2E2E2E2E2E2E2E2E2E2E2E2E2E2E2E2E2E2E2E2E2E2E2E2E2E2E2E2E2E2E2E2E2E2E2E2E2E2E2E2E2
310
E2E2E2E2E2E2E2E2E2E2E2E2E2E2E2E2E2E2E2E2E2E2E2E2E2E2E2E2E2E2E2E2E2E2E2E2E2E2E2E2E2E2E2E2E2E2E2E2E2E2E2E2E2E2BEE2E2E2E2BEBEE2E2E2E2E2E2E2E2E2E2E2E2E2E2E2E2E2E2E2E2E2E2E2E2E2E2E2E2E2E2E2E2E2E2E2E2E2E2E2E2E2E2E2E2E2E2E2E2E2E2E2E2E2E2E2E2E2E2E2E2E2E2E2E2E2E2
310
E2E2E2E2E2E2E2E2E2E2E2E2E2E2E2E2E2E2E2E2E2E2E2E2E2E2E2E2E2E2E2E2E2E2E2E2E2E2E2E2E2E2E2E2E2E2E2E2E2E2BEBEE2E2E2E2E2E2E2E2E2E2E2E2BEE2E2E2E2E2BEE2E2E2E2E2BEE2E2E2E2E2E2E2E2E2E2E2E2E2E2E2E2E2E2E2E2E2E2E2E2E2E2E2E2E2E2E2E2E2E2E2E2E2E2E2E2E2E2E2E2E2E2E2E2E2E2
310
E2E2E2E2E2E2E2E2E2E2E2E2E2E2E2E2E2E2E2E2E2E2E2E2E2E2E2E2E2E2E2E2E2E2E2E2E2E2E2E2E2E2E2E2E2E2E2E2E2E2E2E2E2E2E2E2BEE2E2E2E2BEE2E2E2E2E2E2E2E2E2E2E2E2E2E2E2E2E2E2E2E2E2E2E2E2E2E2E2E2E2E2E2E2E2E2E2E2E2E2E2E2E2E2E2E2E2E2E2E2E2E2E2E2E2E2E2E2E2E2E2E2E2E2E2E2E2
310
E2E2E2E2E2E2E2E2E2E2E2E2E2E2E2E2E2E2E2E2E2E2E2E2E2E2E2E2E2E2E2E2E2E2E2E2E2E2E2E2E2E2E2E2E2E2E2E2E2E2E2E2BEBEE2E2E2E2E2E2E2E2E2E2E2E2BEE2E2E2E2E2BEBEE2E2E2E2BEE2E2E2E2E2E2E2E2E2E2E2E2E2E2E2E2E2E2E2E2E2E2E2E2E2E2E2E2E2E2E2E2E2E2E2E2E2E2E2E2E2E2E2E2E2E2E2E2
310
E2E2E2E2E2E2E2E2E2E2E2E2E2E2E2E2E2E2E2E2E2E2E2E2E2E2E2E2E2E2E2E2E2E2E2E2E2E2E2E2E2E2E2E2E2E2E2E2E2E2E2E2E2E2E2E2E2E2BEE2E2E2E2BEE2E2E2E2E2E2E2E2E2E2E2E2E2E2E2E2E2E2E2E2E2E2E2E2E2E2E2E2E2E2E2E2E2E2E2E2E2E2E2E2E2E2E2E2E2E2E2E2E2E2E2E2E2E2E2E2E2E2E2E2E2E2E2
310
E2E2E2E2E2E2E2E2E2E2E2E2E2E2E2E2E2E2E2E2E2E2E2E2E2E2E2E2E2E2E2E2E2E2E2E2E2E2E2E2E2E2E2E2E2E2E2E2E2E2E2E2E2E2E2BEBEBEBEBEBEBEBEBEE2BEBEBEE2E2E2E2E2E2BEBEE2E2E2E2BEE2E2E2E2E2E2E2E2E2E2E2E2E2E2E2E2E2E2E2E2E2E2E2E2E2E2E2E2E2E2E2E2E2E2E2E2E2E2E2E2E2E2E2E2E2E2
310
E2E2E2E2E2E2E2E2E2E2E2E2E2E2E2E2E2E2E2E2E2E2E2E2E2E2E2E2E2E2E2E2E2E2E2E2E2E2E2E2E2E2E2E2E2E2E2E2E2E2E2E2E2E2E2E2E2E2E2BEE2E2E2E2E2BEE2E2E2E2E2E2E2E2E2E2E2E2E2E2E2E2E2E2E2E2E2E2E2E2E2E2E2E2E2E2E2E2E2E2E2E2E2E2E2E2E2E2E2E2E2E2E2E2E2E2E2E2E2E2E2E2E2E2E2E2E2
310
E2E2E2E2E2E2E2E2E2E2E2E2E2E2E2E2E2E2E2E2E2E2E2E2E2E2E2E2E2E2E2E2E2E2E2E2E2E2E2E2E2E2E2E2E2E2E2E2E2E2E2E2E2E2E2E2E2E2BEBEBEBEBEBEBEBEBEBEBEE2E2E2E2E2E2E2BEE2E2E2E2E2BEE2E2E2E2E2E2E2E2E2E2E2E2E2E2E2E2E2E2E2E2E2E2E2E2E2E2E2E2E2E2E2E2E2E2E2E2E2E2E2E2E2E2E2E2
310
E2E2E2E2E2E2E2E2E2E2E2E2E2E2E2E2E2E2E2E2E2E2E2E2E2E2E2E2E2E2E2E2E2E2E2E2E2E2E2E2E2E2E2E2E2E2E2E2E2E2E2E2E2E2E2E2E2E2E2E2E2BEE2E2E2E2E2BEE2E2E2E2E2E2E2E2E2E2E2E2E2E2E2E2E2E2E2E2E2E2E2E2E2E2E2E2E2E2E2E2E2E2E2E2E2E2E2E2E2E2E2E2E2E2E2E2E2E2E2E2E2E2E2E2E2E2E2
310
E2E2E2E2E2E2E2E2E2E2E2E2E2E2E2E2E2E2E2E2E2E2E2E2E2E2E2E2E2E2E2E2E2E2E2E2E2E2E2E2E2E2E2E2E2E2E2E2E2E2E2E2E2E2E2E2E2E2E2E2E2E2E2E2BEBEBEBEBEBEBEE2E2E2E2E2E2E2BEE2E2E2E2E2BEE2E2E2E2BEBEE2BEBEBEE2E2E2BEE2E2BEBEE2E2E2E2E2E2E2E2E2E2E2E2E2E2E2E2E2E2E2E2E2E2E2E2
310
E2E2E2E2E2E2E2E2E2E2E2E2E2E2E2E2E2E2E2E2E2E2E2E2E2E2E2E2E2E2E2E2E2E2E2E2E2E2E2E2E2E2E2E2E2E2E2E2E2E2E2E2E2E2E2E2E2E2E2E2E2E2E2BEE2E2E2E2E2BEE2E2E2E2E2E2E2E2E2E2E2E2E2E2E2E2E2E2E2E2E2E2E2E2E2E2E2E2E2E2E2E2E2E2E2E2E2E2E2E2E2E2E2E2E2E2E2E2E2E2E2E2E2E2E2E2E2
310
E2E2E2E2E2E2E2E2E2E2E2E2E2E2E2E2E2E2E2E2E2E2E2E2E2E2E2E2E2E2E2E2E2E2E2E2E2E2E2E2E2E2E2E2E2E2E2E2E2E2E2E2E2E2E2E2E2E2E2E2E2E2E2E2E2E2BEBEBEBEBEBEBEE2E2E2E2E2E2E2BEE2E2E2E2E2BEE2E2E2BEE2E2E2BEBEBEBEBEBEBEBEBEBEBEE2E2E2E2E2E2E2E2E2E2E2E2E2E2E2E2E2E2E2E2E2E2
310
E2E2E2E2E2E2E2E2E2E2E2E2E2E2E2E2E2E2E2E2E2E2E2E2E2E2E2E2E2E2E2E2E2E2E2E2E2E2E2E2E2E2E2E2E2E2E2E2E2E2E2E2E2E2E2E2E2E2E2E2E2E2E2E2E2BEE2E2E2E2E2BEE2E2E2E2E2E2E2E2E2E2E2E2E2E2E2E2E2E2E2E2E2E2E2E2E2E2E2E2E2E2E2E2E2E2E2E2E2E2E2E2E2E2E2E2E2E2E2E2E2E2E2E2E2E2E2
310
E2E2E2E2E2E2E2E2E2E2E2E2E2E2E2E2E2E2E2E2E2E2E2E2E2E2E2E2E2E2E2E2E2E2E2E2E2E2E2E2E2E2E2E2E2E2E2E2E2E2E2E2E2E2E2E2E2E2E2E2E2E2E2E2E2E2E2E2E2E2E2E2E2E2E2E2E2E2E2E2E2E2BEE2E2E2E2E2BEE2E2E2BEE2E2E2BEE2BEE2BEBEBEBEBEBEBEE2E2E2E2E2E2E2E2E2E2E2E2E2E2E2E2E2E2E2E2
310
E2E2E2E2E2E2E2E2E2E2E2E2E2E2E2E2E2E2E2E2E2E2E2E2E2E2E2E2E2E2E2E2E2E2E2E2E2E2E2E2E2E2E2E2E2E2E2E2E2E2E2E2E2E2E2E2E2E2E2E2E2E2E2E2E2E2E2BEE2E2E2E2E2E2BEE2E2E2E2E2E2E2E2E2E2E2E2E2E2E2E2E2E2E2E2E2E2E2E2E2E2E2E2E2E2E2E2E2E2E2E2E2E2E2E2E2E2E2E2E2E2E2E2E2E2E2E2
310
E2E2E2E2E2E2E2E2E2E2E2E2E2E2E2E2E2E2E2E2E2E2E2E2E2E2E2E2E2E2E2E2E2E2E2E2E2E2E2E2E2E2E2E2E2E2E2E2E2E2E2E2E2E2E2E2E2E2E2E2E2E2E2E2E2E2E2E2E2E2E2E2E2E2E2E2E2E2E2E2E2E2E2E2BEE2E2E2E2E2E2BEE2BEE2E2E2E2E2E2E2E2BEBEBEBEBEBEBEE2E2E2E2E2E2E2E2E2E2E2E2E2E2E2E2E2E2
310
E2E2E2E2E2E2E2E2E2E2E2E2E2E2E2E2E2E2E2E2E2E2E2E2E2E2E2E2E2E2E2E2E2E2E2E2E2E2E2E2E2E2E2E2E2E2E2E2E2E2E2E2E2E2E2E2E2E2E2E2E2E2E2E2E2E2E2E2E2BEE2E2E2E2E2E2BEE2E2E2E2E2E2E2E2E2E2E2E2E2E2E2E2E2E2E2E2E2E2E2E2E2E2E2E2E2E2E2E2E2E2E2E2E2E2E2E2E2E2E2E2E2E2E2E2E2E2
310
E2E2E2E2E2E2E2E2E2E2E2E2E2E2E2E2E2E2E2E2E2E2E2E2E2E2E2E2E2E2E2E2E2E2E2E2E2E2E2E2E2E2E2E2E2E2E2E2E2E2E2E2E2E2E2E2E2E2E2E2E2E2E2E2E2E2BEBEBEBEE2BEBEE2E2BEBEBEBEE2E2E2E2E2E2E2BEE2E2E2E2E2E2BEBEE2E2E2E2E2E2E2E2E2E2E2E2E2E2E2E2E2E2E2E2E2E2E2E2E2E2E2E2E2E2E2E2
310
E2E2E2E2E2E2E2E2E2E2E2E2E2E2E2E2E2E2E2E2E2E2E2E2E2E2E2E2E2E2E2E2E2E2E2E2E2E2E2E2E2E2E2E2E2E2E2E2E2E2E2E2E2E2E2E2E2E2E2E2E2E2E2E2E2E2E2E2E2E2BEBEBEBEBEBEBEBEBEBEE2E2E2E2E2E2E2E2E2E2E2E2E2E2E2E2E2E2E2E2E2E2E2E2E2E2E2E2E2E2E2E2E2E2E2E2E2E2E2E2E2E2E2E2E2E2E2
310
E2E2E2E2E2E2E2E2E2E2E2E2E2E2E2E2E2E2E2E2E2E2E2E2E2E2E2E2E2E2E2E2E2E2E2E2E2E2E2E2E2E2E2E2E2E2E2E2E2E2E2E2E2E2E2E2E2E2E2E2E2E2E2E2E2E2E2E2BEBEBEBEBEBEBEBEBEBEBEE2E2BEE2E2E2E2E2BEBEBEBEBEBEBEBEBEBEE2E2E2E2E2E2E2E2E2E2E2E2E2E2E2E2E2E2E2E2E2E2E2E2E2E2E2E2E2E2
310
E2E2E2E2E2E2E2E2E2E2E2E2E2E2E2E2E2E2E2E2E2E2E2E2E2E2E2E2E2E2E2E2E2E2E2E2E2E2E2E2E2E2E2E2E2E2E2E2E2E2E2E2E2E2E2E2E2E2E2E2E2E2E2E2E2E2E2E2E2E2E2BEBEE2E2E2E2E2E2E2BEBEE2E2E2E2E2E2E2E2E2E2E2E2E2E2E2E2E2E2E2E2E2E2E2E2E2E2E2E2E2E2E2E2E2E2E2E2E2E2E2E2E2E2E2E2E2
310
E2E2E2E2E2E2E2E2E2E2E2E2E2E2E2E2E2E2E2E2E2E2E2E2E2E2E2E2E2E2E2E2E2E2E2E2E2E2E2E2E2E2E2E2E2E2E2E2E2E2E2E2E2E2E2E2E2E2E2E2E2E2E2E2E2E2E2E2E2E2E2E2E2E2BEBEBEBEBEBEBEBEE2BEE2E2E2E2BEBEE2E2E2E2E2E2E2BEBEE2E2E2E2E2E2E2E2E2E2E2E2E2E2E2E2E2E2E2E2E2E2E2E2E2E2E2E2
310
E2E2E2E2E2E2E2E2E2E2E2E2E2E2E2E2E2E2E2E2E2E2E2E2E2E2E2E2E2E2E2E2E2E2E2E2E2E2E2E2E2E2E2E2E2E2E2E2E2E2E2E2E2E2E2E2E2E2E2E2E2E2E2E2E2E2E2E2E2E2E2BEBEE2E2E2E2E2BEBEE2E2E2E2BEBEE2E2E2E2E2E2E2E2E2E2E2E2E2E2E2E2E2E2E2E2E2E2E2E2E2E2E2E2E2E2E2E2E2E2E2E2E2E2E2E2E2
310
E2E2E2E2E2E2E2E2E2E2E2E2E2E2E2E2E2E2E2E2E2E2E2E2E2E2E2E2E2E2E2E2E2E2E2E2E2E2E2E2E2E2E2E2E2E2E2E2E2E2E2E2E2E2E2E2E2E2E2E2E2E2E2E2E2E2E2E2E2E2E2E2E2E2E2E2BEBEBEBEBEBEBEBEE2E2BEBEBEBEE2E2E2E2E2BEBEE2E2E2E2BEBEE2E2E2E2E2E2E2E2E2E2E2E2E2E2E2E2E2E2E2E2E2E2E2E2
310
E2E2E2E2E2E2E2E2E2E2E2E2E2E2E2E2E2E2E2E2E2E2E2E2E2E2E2E2E2E2E2E2E2E2E2E2E2E2E2E2E2E2E2E2E2E2E2E2E2E2E2E2E2E2E2E2E2E2E2E2E2E2E2E2E2E2E2E2E2E2E2BEBEBEBEBEBEBEBEBEBEBEBEBEBEBEBEBEBEBEE2E2E2E2E2E2E2E2E2E2E2E2E2E2E2E2E2E2E2E2E2E2E2E2E2E2E2E2E2E2E2E2E2E2E2E2E2
310
E2E2E2E2E2E2E2E2E2E2E2E2E2E2E2E2E2E2E2E2E2E2E2E2E2E2E2E2E2E2E2E2E2E2E2E2E2E2E2E2E2E2E2E2E2E2E2E2E2E2E2E2E2E2E2E2E2E2E2E2E2E2E2E2E2E2E2E2E2E2E2E2E2E2E2E2E2E2E2E2E2E2E2E2E2E2E2E2BEBEBEBEBEBEBEBEBEBEBEBEBEBEBEBEBEBEBEE2E2E2E2E2E2E2E2E2E2E2E2E2E2E2E2E2E2E2E2
310
E2E2E2E2E2E2E2E2E2E2E2E2E2E2E2E2E2E2E2E2E2E2E2E2E2E2E2E2E2E2E2E2E2E2E2E2E2E2E2E2E2E2E2E2E2E2E2E2E2E2E2E2E2E2E2E2E2E2E2E2E2E2E2E2E2E2E2E2E2E2E2E2E2BEBEBEBEBEBEBEBEBEBEBEBEBEBEBEBEBEBEBEE2E2E2E2E2E2E2E2E2E2E2E2E2E2E2E2E2E2E2E2E2E2E2E2E2E2E2E2E2E2E2E2E2E2E2
310
E2E2E2E2E2E2E2E2E2E2E2E2E2E2E2E2E2E2E2E2E2E2E2E2E2E2E2E2E2E2E2E2E2E2E2E2E2E2E2E2E2E2E2E2E2E2E2E2E2E2E2E2E2E2E2E2E2E2E2E2E2E2E2E2E2E2E2E2E2E2E2E2E2E2E2E2E2E2E2E2E2E2E2E2E2E2E2E2E2E2BEBEBEBEBEBEBEBEBEBEBEBEBEBEBEBEBEBEBEE2E2E2E2E2E2E2E2E2E2E2E2E2E2E2E2E2E2
310
E2E2E2E2E2E2E2E2E2E2E2E2E2E2E2E2E2E2E2E2E2E2E2E2E2E2E2E2E2E2E2E2E2E2E2E2E2E2E2E2E2E2E2E2E2E2E2E2E2E2E2E2E2E2E2E2E2E2E2E2E2E2E2E2E2E2E2E2E2E2E2E2E2E2E2E2E2E2E2E2E2E2E2E2BEBEE2E2E2E2E2E2E2E2E2E2E2E2E2E2E2E2E2E2E2E2E2E2E2E2E2E2E2E2E2E2E2E2E2E2E2E2E2E2E2E2E2
310
E2E2E2E2E2E2E2E2E2E2E2E2E2E2E2E2E2E2E2E2E2E2E2E2E2E2E2E2E2E2E2E2E2E2E2E2E2E2E2E2E2E2E2E2E2E2E2E2E2E2E2E2E2E2E2E2E2E2E2E2E2E2E2E2E2E2E2E2E2E2E2E2E2E2E2E2E2E2E2E2E2E2E2E2E2E2E2E2E2E2E2E2BEE2E2E2E2E2E2E2E2BEBEE2E2E2E2E2E2E2BEE2E2E2E2E2E2E2E2E2E2E2E2E2E2E2E2
310
E2E2E2E2E2E2E2E2E2E2E2E2E2E2E2E2E2E2E2E2E2E2E2E2E2E2E2E2E2E2E2E2E2E2E2E2E2E2E2E2E2E2E2E2E2E2E2E2E2E2E2E2E2E2E2E2E2E2E2E2E2E2E2E2E2E2E2E2E2E2E2E2E2E2E2E2E2E2E2E2E2E2E2E2E2E2BEBEE2E2E2E2E2E2E2E2E2E2E2E2E2E2E2E2E2E2E2E2E2E2E2E2E2E2E2E2E2E2E2E2E2E2E2E2E2E2E2
310
E2E2E2E2E2E2E2E2E2E2E2E2E2E2E2E2E2E2E2E2E2E2E2E2E2E2E2E2E2E2E2E2E2E2E2E2E2E2E2E2E2E2E2E2E2E2E2E2E2E2E2E2E2E2E2E2E2E2E2E2E2E2E2E2E2E2E2E2E2E2E2E2E2E2E2E2E2E2E2E2E2E2E2E2E2E2E2E2E2E2E2E2E2E2BEE2E2E2E2E2E2E2E2BEBEE2E2E2E2E2E2E2BEE2E2E2E2E2E2E2E2E2E2E2E2E2E2
310
E2E2E2E2E2E2E2E2E2E2E2E2E2E2E2E2E2E2E2E2E2E2E2E2E2E2E2E2E2E2E2E2E2E2E2E2E2E2E2E2E2E2E2E2E2E2E2E2E2E2E2E2E2E2E2E2E2E2E2E2E2E2E2E2E2E2E2E2E2E2E2E2E2E2E2E2E2E2E2E2E2E2E2E2E2E2E2E2BEBEE2E2E2E2E2E2E2E2E2E2E2E2E2E2E2E2E2E2E2E2E2E2E2E2E2E2E2E2E2E2E2E2E2E2E2E2E2
310
E2E2E2E2E2E2E2E2E2E2E2E2E2E2E2E2E2E2E2E2E2E2E2E2E2E2E2E2E2E2E2E2E2E2E2E2E2E2E2E2E2E2E2E2E2E2E2E2E2E2E2E2E2E2E2E2E2E2E2E2E2E2E2E2E2E2E2E2E2E2E2E2E2E2E2E2E2E2E2E2E2E2E2E2E2E2E2E2E2E2E2E2E2E2E2E2BEE2E2E2E2E2E2E2E2BEBEE2E2E2E2E2E2E2BEE2E2E2E2E2E2E2E2E2E2E2E2
310
E2E2E2E2E2E2E2E2E2E2E2E2E2E2E2E2E2E2E2E2E2E2E2E2E2E2E2E2E2E2E2E2E2E2E2E2E2E2E2E2E2E2E2E2E2E2E2E2E2E2E2E2E2E2E2E2E2E2E2E2E2E2E2E2E2E2E2E2E2E2E2E2E2E2E2E2E2E2E2E2E2E2E2E2E2E2E2E2E2E2BEBEE2E2E2E2E2E2E2E2E2E2E2E2E2E2E2E2E2E2E2E2E2E2E2E2E2E2E2E2E2E2E2E2E2E2E2
310
E2E2E2E2E2E2E2E2E2E2E2E2E2E2E2E2E2E2E2E2E2E2E2E2E2E2E2E2E2E2E2E2E2E2E2E2E2E2E2E2E2E2E2E2E2E2E2E2E2E2E2E2E2E2E2E2E2E2E2E2E2E2E2E2E2E2E2E2E2E2E2E2E2E2E2E2E2E2E2E2E2E2E2E2E2E2E2E2E2E2E2E2E2E2E2E2E2E2BEE2E2E2E2E2E2E2E2BEBEE2E2E2E2E2E2E2BEE2E2E2E2E2E2E2E2E2E2
310
E2E2E2E2E2E2E2E2E2E2E2E2E2E2E2E2E2E2E2E2E2E2E2E2E2E2E2E2E2E2E2E2E2E2E2E2E2E2E2E2E2E2E2E2E2E2E2E2E2E2E2E2E2E2E2E2E2E2E2E2E2E2E2E2E2E2E2E2E2E2E2E2E2E2E2E2E2E2E2E2E2E2E2E2E2E2E2E2E2E2E2E2BEBEE2E2E2E2E2E2E2E2E2E2E2E2E2E2E2E2E2E2E2E2E2E2E2E2E2E2E2E2E2E2E2E2E2
310
E2E2E2E2E2E2E2E2E2E2E2E2E2E2E2E2E2E2E2E2E2E2E2E2E2E2E2E2E2E2E2E2E2E2E2E2E2E2E2E2E2E2E2E2E2E2E2E2E2E2E2E2E2E2E2E2E2E2E2E2E2E2E2E2E2E2E2E2E2E2E2E2E2E2E2E2E2E2E2E2E2E2E2E2E2E2E2E2E2E2E2E2E2E2E2E2E2E2E2E2BEE2E2E2E2E2E2E2E2BEBEE2E2E2E2E2E2E2BEE2E2E2E2E2E2E2E2
310
E2E2E2E2E2E2E2E2E2E2E2E2E2E2E2E2E2E2E2E2E2E2E2E2E2E2E2E2E2E2E2E2E2E2E2E2E2E2E2E2E2E2E2E2E2E2E2E2E2E2E2E2E2E2E2E2E2E2E2E2E2E2E2E2E2E2E2E2E2E2E2E2E2E2E2E2E2E2E2E2E2E2E2E2E2E2E2E2E2E2E2E2E2E2BEBEE2E2E2E2E2E2E2E2E2E2E2E2E2E2E2E2E2E2E2E2E2E2E2E2E2E2E2E2E2E2E2
310
E2E2E2E2E2E2E2E2E2E2E2E2E2E2E2E2E2E2E2E2E2E2E2E2E2E2E2E2E2E2E2E2E2E2E2E2E2E2E2E2E2E2E2E2E2E2E2E2E2E2E2E2E2E2E2E2E2E2E2E2E2E2E2E2E2E2E2E2E2E2E2E2E2E2E2E2E2E2E2E2E2E2E2E2E2E2E2E2E2E2E2E2E2E2E2E2E2E2E2E2E2E2BEE2E2E2E2E2E2E2E2BEBEE2E2E2E2E2E2E2BEE2E2E2E2E2E2
310
E2E2E2E2E2E2E2E2E2E2E2E2E2E2E2E2E2E2E2E2E2E2E2E2E2E2E2E2E2E2E2E2E2E2E2E2E2E2E2E2E2E2E2E2E2E2E2E2E2E2E2E2E2E2E2E2E2E2E2E2E2E2E2E2E2E2E2E2E2E2E2E2E2E2E2E2E2E2E2E2E2E2E2E2E2E2E2E2E2E2E2E2E2E2E2E2BEBEE2E2E2E2E2E2E2E2E2E2E2E2E2E2E2E2E2E2E2E2E2E2E2E2E2E2E2E2E2
310
E2E2E2E2E2E2E2E2E2E2E2E2E2E2E2E2E2E2E2E2E2E2E2E2E2E2E2E2E2E2E2E2E2E2E2E2E2E2E2E2E2E2E2E2E2E2E2E2E2E2E2E2E2E2E2E2E2E2E2E2E2E2E2E2E2E2E2E2E2E2E2E2E2E2E2E2E2E2E2E2E2E2E2E2E2E2E2E2E2E2E2E2E2E2E2E2E2E2E2E2E2E2E2E2BEE2E2E2E2E2E2E2E2BEBEE2E2E2E2E2E2E2BEE2E2E2E2
310
E2E2E2E2E2E2E2E2E2E2E2E2E2E2E2E2E2E2E2E2E2E2E2E2E2E2E2E2E2E2E2E2E2E2E2E2E2E2E2E2E2E2E2E2E2E2E2E2E2E2E2E2E2E2E2E2E2E2E2E2E2E2E2E2E2E2E2E2E2E2E2E2E2E2E2E2E2E2E2E2E2E2E2E2E2E2E2E2E2E2E2E2E2E2E2E2E2E2BEBEE2E2E2E2E2E2E2E2E2E2E2E2E2E2E2E2E2E2E2E2E2E2E2E2E2E2E2
310
E2E2E2E2E2E2E2E2E2E2E2E2E2E2E2E2E2E2E2E2E2E2E2E2E2E2E2E2E2E2E2E2E2E2E2E2E2E2E2E2E2E2E2E2E2E2E2E2E2E2E2E2E2E2E2E2E2E2E2E2E2E2E2E2E2E2E2E2E2E2E2E2E2E2E2E2E2E2E2E2E2E2E2E2E2E2E2E2E2E2E2E2E2E2E2E2E2E2E2E2E2E2E2E2E2E2BEE2E2E2E2E2E2E2E2BEBEE2E2E2E2E2E2E2BEE2E2
310
E2E2E2E2E2E2E2E2E2E2E2E2E2E2E2E2E2E2E2E2E2E2E2E2E2E2E2E2E2E2E2E2E2E2E2E2E2E2E2E2E2E2E2E2E2E2E2E2E2E2E2E2E2E2E2E2E2E2E2E2E2E2E2E2E2E2E2E2E2E2E2E2E2E2E2E2E2E2E2E2E2E2E2E2E2E2E2E2E2E2E2E2E2E2E2E2E2E2E2E2BEBEE2E2E2E2E2E2E2E2E2E2E2E2E2E2E2E2E2E2E2E2E2E2E2E2E2
310
E2E2E2E2E2E2E2E2E2E2E2E2E2E2E2E2E2E2E2E2E2E2E2E2E2E2E2E2E2E2E2E2E2E2E2E2E2E2E2E2E2E2E2E2E2E2E2E2E2E2E2E2E2E2E2E2E2E2E2E2E2E2E2E2E2E2E2E2E2E2E2E2E2E2E2E2E2E2E2E2E2E2E2E2E2E2E2E2E2E2E2E2E2E2E2E2E2E2E2E2E2E2E2E2E2E2E2E2BEE2E2E2E2E2E2E2E2BEBEE2E2E2E2E2E2E2BE
310
E2E2E2E2E2E2E2E2E2E2E2E2E2E2E2E2E2E2E2E2E2E2E2E2E2E2E2E2E2E2E2E2E2E2E2E2E2E2E2E2E2E2E2E2E2E2E2E2E2E2E2E2E2E2E2E2E2E2E2E2E2E2E2E2E2E2E2E2E2E2E2E2E2E2E2E2E2E2E2E2E2E2E2E2E2E2E2E2E2E2E2E2E2E2E2E2E2E2E2E2E2E2BEBEE2E2E2E2E2E2E2E2E2E2E2E2E2E2E2E2E2E2E2E2E2E2E2
310
E2E2E2E2E2E2E2E2E2E2E2E2E2E2E2E2E2E2E2E2E2E2E2E2E2E2E2E2E2E2E2E2E2E2E2E2E2E2E2E2E2E2E2E2E2E2E2E2E2E2E2E2E2E2E2E2E2E2E2E2E2E2E2E2E2E2E2E2E2E2E2E2E2E2E2E2E2E2E2E2E2E2E2E2E2E2E2E2E2E2E2E2E2E2E2E2E2E2E2E2E2E2E2E2E2E2E2E2E2E2BEE2E2E2E2E2E2E2E2BEBEE2E2E2E2E2E2
310
E2BEE2E2E2E2E2E2E2E2E2E2E2E2E2E2E2E2E2E2E2E2E2E2E2E2E2E2E2E2E2E2E2E2E2E2E2E2E2E2E2E2E2E2E2E2E2E2E2E2E2E2E2E2E2E2E2E2E2E2E2E2E2E2E2E2E2E2E2E2E2E2E2E2E2E2E2E2E2E2E2E2E2E2E2E2E2E2E2E2E2E2E2E2E2E2E2E2E2E2E2E2E2E2E2E2E2E2E2E2E2E2E2E2E2E2E2E2E2E2E2E2E2E2E2E2E2
310
E2E2E2E2E2E2E2E2E2E2E2E2E2E2E2E2E2E2E2E2E2E2E2E2E2E2E2E2E2E2E2E2E2E2E2E2E2E2E2E2E2E2E2E2E2E2E2E2E2E2E2E2E2E2E2E2E2E2E2E2E2E2E2E2E2E2E2E2E2E2E2E2E2E2E2E2E2E2E2E2E2E2E2E2E2E2E2E2E2E2E2E2E2E2E2E2E2E2E2E2E2E2E2E2E2E2E2E2E2E2E2E2BEBEBEBEBEBEBEBEBEBEBEBEBEBEBE
310
BEBEBEBEE2E2E2E2E2E2E2E2E2E2E2E2E2E2E2E2E2E2E2E2E2E2E2E2E2E2E2E2E2E2E2E2E2E2E2E2E2E2E2E2E2E2E2E2E2E2E2E2E2E2E2E2E2E2E2E2E2E2E2E2E2E2E2E2E2E2E2E2E2E2E2E2E2E2E2E2E2E2E2E2E2E2E2E2E2E2E2E2E2E2E2E2E2E2E2E2E2E2E2E2E2E2E2E2E2E2E2E2E2E2E2E2E2E2E2E2E2E2E2E2E2E2E2
310
E2E2E2E2E2E2E2E2E2E2E2E2E2E2E2E2E2E2E2E2E2E2E2E2E2E2E2E2E2E2E2E2E2E2E2E2E2E2E2E2E2E2E2E2E2E2E2E2E2E2E2E2E2E2E2E2E2E2E2E2E2E2E2E2E2E2E2E2E2E2E2E2E2E2E2E2E2E2E2E2E2E2E2E2E2E2E2E2E2E2E2E2E2E2E2E2E2E2E2E2E2E2E2E2E2E2E2E2E2E2E2E2E2E2BEBEE2E2E2E2E2E2BEBEBEE2E2
310
E2E2E2E2E2BEE2E2E2E2E2E2E2E2E2E2E2E2E2E2E2E2E2E2E2E2E2E2E2E2E2E2E2E2E2E2E2E2E2E2E2E2E2E2E2E2E2E2E2E2E2E2E2E2E2E2E2E2E2E2E2E2E2E2E2E2E2E2E2E2E2E2E2E2E2E2E2E2E2E2E2E2E2E2E2E2E2E2E2E2E2E2E2E2E2E2E2E2E2E2E2E2E2E2E2E2E2E2E2E2E2E2E2E2E2E2E2E2E2E2E2E2E2E2E2E2E2
310
E2E2E2E2E2E2E2E2E2E2E2E2E2E2E2E2E2E2E2E2E2E2E2E2E2E2E2E2E2E2E2E2E2E2E2E2E2E2E2E2E2E2E2E2E2E2E2E2E2E2E2E2E2E2E2E2E2E2E2E2E2E2E2E2E2E2E2E2E2E2E2E2E2E2E2E2E2E2E2E2E2E2E2E2E2E2E2E2E2E2E2E2E2E2E2E2E2E2E2E2E2E2E2E2E2E2E2E2E2E2E2E2E2E2E2E2E2E2E2E2E2E2E2E2BEBEBE
310
BEE2E2E2E2E2E2E2E2E2E2E2E2E2E2E2E2E2E2E2E2E2E2E2E2E2E2E2E2E2E2E2E2E2E2E2E2E2E2E2E2E2E2E2E2E2E2E2E2E2E2E2E2E2E2E2E2E2E2E2E2E2E2E2E2E2E2E2E2E2E2E2E2E2E2E2E2E2E2E2E2E2E2E2E2E2E2E2E2E2E2E2E2E2E2E2E2E2E2E2E2E2E2E2E2E2E2E2E2E2E2E2E2E2E2E2E2E2E2E2E2E2E2E2E2E2E2
310
E2E2E2E2E2E2E2E2E2E2E2E2E2E2E2E2E2E2E2E2E2E2E2E2E2E2E2E2E2E2E2E2E2E2E2E2E2E2E2E2E2E2E2E2E2E2E2E2E2E2E2E2E2E2E2E2E2E2E2E2E2E2E2E2E2E2E2E2E2E2E2E2E2E2E2E2E2E2E2E2E2E2E2E2E2E2E2E2E2E2E2E2E2E2E2E2E2E2E2E2E2E2E2E2E2E2E2E2E2E2E2E2E2E2E2E2E2E2E2E2E2E2E2E2E2E2E2
310
E2E2E2E2E2E2E2E2E2E2E2E2E2E2E2E2E2E2E2E2E2E2E2E2E2E2E2E2E2E2E2E2E2E2E2E2E2E2E2E2E2E2E2E2E2E2E2E2E2E2E2E2E2E2E2E2E2E2E2E2E2E2E2E2E2E2E2E2E2E2E2E2E2E2E2E2E2E2E2E2E2E2E2E2E2E2E2E2E2E2E2E2E2E2E2E2E2E2E2E2E2E2E2E2E2E2E2E2E2E2E2E2E2E2E2E2E2E2E2E2E2E2E2E2E2E2E2
310
E2E2E2E2E2E2E2E2E2E2E2E2E2E2E2E2E2E2E2E2E2E2E2E2E2E2E2E2E2E2E2E2E2E2E2E2E2E2E2E2E2E2E2E2E2E2E2E2E2E2E2E2E2E2E2E2E2E2E2E2E2E2E2E2E2E2E2E2E2E2E2E2E2E2E2E2E2E2E2E2E2E2E2E2E2E2E2E2E2E2E2E2E2E2E2E2E2E2E2E2E2E2E2E2E2E2E2E2E2E2E2E2E2E2E2E2E2E2E2E2E2E2E2E2E2E2E2
310
E2E2E2E2E2E2E2E2E2E2E2E2E2E2E2E2E2E2E2E2E2E2E2E2E2E2E2E2E2E2E2E2E2E2E2E2E2E2E2E2E2E2E2E2E2E2E2E2E2E2E2E2E2E2E2E2E2E2E2E2E2E2E2E2E2E2E2E2E2E2E2E2E2E2E2E2E2E2E2E2E2E2E2E2E2E2E2E2E2E2E2E2E2E2E2E2E2E2E2E2E2E2E2E2E2E2E2E2E2E2E2E2E2E2E2E2E2E2E2E2E2E2E2E2E2E2E2
310
E2E2E2E2E2E2E2E2E2E2E2E2E2E2E2E2E2E2E2E2E2E2E2E2E2E2E2E2E2E2E2E2E2E2E2E2E2E2E2E2E2E2E2E2E2E2E2E2E2E2E2E2E2E2E2E2E2E2E2E2E2E2E2E2E2E2E2E2E2E2E2E2E2E2E2E2E2E2E2E2E2E2E2E2E2E2E2E2E2E2E2E2E2E2E2E2E2E2E2BEBEBEBEBEBEBEBEBEBEBEBEBEBEBEBEBEBEBEBEBEBEBEE2E2E2E2E2
310
E2E2E2E2E2E2E2E2E2E2E2E2E2E2E2E2E2E2E2E2E2E2E2E2E2E2E2E2E2E2E2E2E2E2E2E2E2E2E2E2E2E2E2E2E2E2E2E2E2E2E2E2E2E2E2E2E2E2E2E2E2E2E2E2E2E2E2E2E2E2E2E2E2E2E2E2E2E2E2E2E2E2E2E2E2E2E2E2E2E2E2E2E2E2E2E2E2E2E2E2E2E2E2E2E2E2E2E2E2E2E2E2E2E2E2E2E2E2E2E2E2E2E2E2E2E2E2
310
E2E2E2E2E2E2E2E2E2E2E2E2E2E2E2E2E2E2E2E2E2E2E2E2E2E2E2E2E2E2E2E2E2E2E2E2E2E2E2E2E2E2E2E2E2E2E2E2E2E2E2E2E2E2E2E2E2E2E2E2E2E2E2E2E2E2E2E2E2E2E2E2E2E2E2E2E2E2E2E2E2E2E2E2E2E2E2E2E2E2E2E2E2E2E2E2E2E2E2E2E2BEE2E2BEBEBEBEBEBEBEE2BEE2BEBEBEBEBEBEBEBEE2BEE2E2E2
310
E2E2E2E2E2E2E2E2E2E2E2E2E2E2E2E2E2E2E2E2E2E2E2E2E2E2E2E2E2E2E2E2E2E2E2E2E2E2E2E2E2E2E2E2E2E2E2E2E2E2E2E2E2E2E2E2E2E2E2E2E2E2E2E2E2E2E2E2E2E2E2E2E2E2E2E2E2E2E2E2E2E2E2E2E2E2E2E2E2E2E2E2E2E2E2E2E2E2E2E2E2E2E2E2E2E2E2E2E2E2E2E2E2E2E2E2E2E2E2E2E2E2E2E2E2E2E2
310
E2E2E2E2E2E2E2E2E2E2E2E2E2E2E2E2E2E2E2E2E2E2E2E2E2E2E2E2E2E2E2E2E2E2E2E2E2E2E2E2E2E2E2E2E2E2E2E2E2E2E2E2E2E2E2E2E2E2E2E2E2E2E2E2E2E2E2E2E2E2E2E2E2E2E2E2E2E2E2E2E2E2E2E2E2E2E2E2E2E2E2E2E2E2E2E2E2E2E2E2E2E2E2BEBEBEBEBEBEBEBEBEBEBEBEBEBEBEBEBEBEBEBEBEBEBEE2
310
E2E2E2E2E2E2E2E2E2E2E2E2E2E2E2E2E2E2E2E2E2E2E2E2E2E2E2E2E2E2E2E2E2E2E2E2E2E2E2E2E2E2E2E2E2E2E2E2E2E2E2E2E2E2E2E2E2E2E2E2E2E2E2E2E2E2E2E2E2E2E2E2E2E2E2E2E2E2E2E2E2E2E2E2E2E2E2E2E2E2E2E2E2E2E2E2E2E2E2E2E2E2E2E2E2E2E2E2E2E2E2E2E2E2E2E2E2E2E2E2E2E2E2E2E2E2E2
310
E2E2E2E2E2E2E2E2E2E2E2E2E2E2E2E2E2E2E2E2E2E2E2E2E2E2E2E2E2E2E2E2E2E2E2E2E2E2E2E2E2E2E2E2E2E2E2E2E2E2E2E2E2E2E2E2E2E2E2E2E2E2E2E2E2E2E2E2E2E2E2E2E2E2E2E2E2E2E2E2E2E2E2E2E2E2E2E2E2E2E2E2E2E2E2E2E2E2E2E2E2E2E2E2E2BEE2E2BEBEBEBEBEBEE2E2BEE2E2E2BEBEBEBEBEE2E2
310
BEE2E2E2E2E2E2E2E2E2E2E2E2E2E2E2E2E2E2E2E2E2E2E2E2E2E2E2E2E2E2E2E2E2E2E2E2E2E2E2E2E2E2E2E2E2E2E2E2E2E2E2E2E2E2E2E2E2E2E2E2E2E2E2E2E2E2E2E2E2E2E2E2E2E2E2E2E2E2E2E2E2E2E2E2E2E2E2E2E2E2E2E2E2E2E2E2E2E2E2E2E2E2E2E2E2E2E2E2E2E2E2E2E2E2E2E2E2E2E2E2E2E2E2E2E2E2
310
E2E2E2E2E2E2E2E2E2E2E2E2E2E2E2E2E2E2E2E2E2E2E2E2E2E2E2E2E2E2E2E2E2E2E2E2E2E2E2E2E2E2E2E2E2E2E2E2E2E2E2E2E2E2E2E2E2E2E2E2E2E2E2E2E2E2E2E2E2E2E2E2E2E2E2E2E2E2E2E2E2E2E2E2E2E2E2E2E2E2E2E2E2E2E2E2E2E2E2E2E2E2E2E2E2E2E2BEBEBEBEBEBEBEBEBEBEBEBEBEBEBEBEBEBEBEBE
310
BEBEBEE2E2E2E2E2E2E2E2E2E2E2E2E2E2E2E2E2E2E2E2E2E2E2E2E2E2E2E2E2E2E2E2E2E2E2E2E2E2E2E2E2E2E2E2E2E2E2E2E2E2E2E2E2E2E2E2E2E2E2E2E2E2E2E2E2E2E2E2E2E2E2E2E2E2E2E2E2E2E2E2E2E2E2E2E2E2E2E2E2E2E2E2E2E2E2E2E2E2E2E2E2E2E2E2E2E2E2E2E2E2E2E2E2E2E2E2E2E2E2E2E2E2E2E2
310
E2E2E2E2E2E2E2E2E2E2E2E2E2E2E2E2E2E2E2E2E2E2E2E2E2E2E2E2E2E2E2E2E2E2E2E2E2E2E2E2E2E2E2E2E2E2E2E2E2E2E2E2E2E2E2E2E2E2E2E2E2E2E2E2E2E2E2E2E2E2E2E2E2E2E2E2E2E2E2E2E2E2E2E2E2E2E2E2E2E2E2E2E2E2E2E2E2E2E2E2E2E2E2E2E2E2E2E2E2E2E2E2E2E2E2E2E2E2E2E2E2E2E2E2E2E2E2
310
E2E2E2E2E2E2E2E2E2E2E2E2E2E2E2E2E2E2E2E2E2E2E2E2E2E2E2E2E2E2E2E2E2E2E2E2E2E2E2E2E2E2E2E2E2E2E2E2E2E2E2E2E2E2E2E2E2E2E2E2E2E2E2E2E2E2E2E2E2E2E2E2E2E2E2E2E2E2E2E2E2E2E2E2E2E2E2E2E2E2E2E2E2E2E2E2E2E2E2E2E2E2E2E2E2E2E2E2E2E2E2E2E2E2E2E2E2E2E2E2E2E2E2E2E2E2E2
310
E2E2E2E2E2E2E2E2E2E2E2E2E2E2E2E2E2E2E2E2E2E2E2E2E2E2E2E2E2E2E2E2E2E2E2E2E2E2E2E2E2E2E2E2E2E2E2E2E2E2E2E2E2E2E2E2E2E2E2E2E2E2E2E2E2E2E2E2E2E2E2E2E2E2E2E2E2E2E2E2E2E2E2E2E2E2E2E2E2E2E2E2E2E2E2E2E2E2E2E2E2E2E2E2E2E2E2E2E2E2E2BEBEBEBEBEBEE2E2E2BEBEBEBEBEBEE2
310
E2E2E2BEE2BEE2E2E2E2E2E2E2E2E2E2E2E2E2E2E2E2E2E2E2E2E2E2E2E2E2E2E2E2E2E2E2E2E2E2E2E2E2E2E2E2E2E2E2E2E2E2E2E2E2E2E2E2E2E2E2E2E2E2E2E2E2E2E2E2E2E2E2E2E2E2E2E2E2E2E2E2E2E2E2E2E2E2E2E2E2E2E2E2E2E2E2E2E2E2E2E2E2E2E2E2E2E2E2E2E2E2E2E2E2E2E2E2E2E2E2E2E2E2E2E2E2
310
E2E2E2E2E2E2E2E2E2E2E2E2E2E2E2E2E2E2E2E2E2E2E2E2E2E2E2E2E2E2E2E2E2E2E2E2E2E2E2E2E2E2E2E2E2E2E2E2E2E2E2E2E2E2E2E2E2E2E2E2E2E2E2E2E2E2E2E2E2E2E2E2E2E2E2E2E2E2E2E2E2E2E2E2E2E2E2E2E2E2E2E2E2E2E2E2E2E2E2E2E2E2E2E2E2E2E2E2E2E2E2E2E2BEBEBEBEE2BEBEBEBEBEBEBEBEBE
310
BEE2BEBEBEE2BEE2E2E2E2E2E2E2E2E2E2E2E2E2E2E2E2E2E2E2E2E2E2E2E2E2E2E2E2E2E2E2E2E2E2E2E2E2E2E2E2E2E2E2E2E2E2E2E2E2E2E2E2E2E2E2E2E2E2E2E2E2E2E2E2E2E2E2E2E2E2E2E2E2E2E2E2E2E2E2E2E2E2E2E2E2E2E2E2E2E2E2E2E2E2E2E2E2E2E2E2E2E2E2E2E2E2E2E2E2E2E2E2E2E2E2E2E2E2E2E2
310
E2E2E2E2E2E2E2E2E2E2E2E2E2E2E2E2E2E2E2E2E2E2E2E2E2E2E2E2E2E2E2E2E2E2E2E2E2E2E2E2E2E2E2E2E2E2E2E2E2E2E2E2E2E2E2E2E2E2E2E2E2E2E2E2E2E2E2E2E2E2E2E2E2E2E2E2E2E2E2E2E2E2E2E2E2E2E2E2E2E2E2E2E2E2E2E2E2E2E2E2E2E2E2E2E2E2E2E2E2E2E2E2E2E2E2BEBEBEBEBEBEE2E2E2BEBEBE
310
BEBEBEE2E2E2E2BEE2BEE2E2E2E2E2E2E2E2E2E2E2E2E2E2E2E2E2E2E2E2E2E2E2E2E2E2E2E2E2E2E2E2E2E2E2E2E2E2E2E2E2E2E2E2E2E2E2E2E2E2E2E2E2E2E2E2E2E2E2E2E2E2E2E2E2E2E2E2E2E2E2E2E2E2E2E2E2E2E2E2E2E2E2E2E2E2E2E2E2E2E2E2E2E2E2E2E2E2E2E2E2E2E2E2E2E2E2E2E2E2E2E2E2E2E2E2E2
310
E2E2E2E2E2E2E2E2E2E2E2E2E2E2E2E2E2E2E2E2E2E2E2E2E2E2E2E2E2E2E2E2E2E2E2E2E2E2E2E2E2E2E2E2E2E2E2E2E2E2E2E2E2E2E2E2E2E2E2E2E2E2E2E2E2E2E2E2E2E2E2E2E2E2E2E2E2E2E2E2E2E2E2E2E2E2E2E2E2E2E2E2E2E2E2E2E2E2E2E2E2E2E2E2E2E2E2E2E2E2E2E2E2E2E2E2E2E2E2E2E2E2E2E2E2E2E2
310
E2E2E2E2E2E2E2E2E2E2E2E2E2E2E2E2E2E2E2E2E2E2E2E2E2E2E2E2E2E2E2E2E2E2E2E2E2E2E2E2E2E2E2E2E2E2E2E2E2E2E2E2E2E2E2E2E2E2E2E2E2E2E2E2E2E2E2E2E2E2E2E2E2E2E2E2E2E2E2E2E2E2E2E2E2E2E2E2E2E2E2E2E2E2E2E2E2E2E2E2E2E2E2E2E2E2E2E2E2E2E2E2E2E2E2E2E2E2E2E2E2E2E2E2E2E2E2
310
E2E2E2E2E2E2E2E2E2E2E2E2E2E2E2E2E2E2E2E2E2E2E2E2E2E2E2E2E2E2E2E2E2E2E2E2E2E2E2E2E2E2E2E2E2E2E2E2E2E2E2E2E2E2E2E2E2E2E2E2E2E2E2E2E2E2E2E2E2E2E2E2E2E2E2E2E2E2E2E2E2E2E2E2E2E2E2E2E2E2E2E2E2E2E2E2E2E2E2E2E2E2E2E2E2E2E2E2E2E2E2E2E2E2E2E2E2E2E2E2E2E2E2E2E2E2E2
310
E2E2E2E2E2E2E2E2E2E2E2E2E2E2E2E2E2E2E2E2E2E2E2E2E2E2E2E2E2E2E2E2E2E2E2E2E2E2E2E2E2E2E2E2E2E2E2E2E2E2E2E2E2E2E2E2E2E2E2E2E2E2E2E2E2E2E2E2E2E2E2E2E2E2E2E2E2E2E2E2E2E2E2E2E2E2E2E2E2E2E2E2E2E2E2E2E2E2E2E2E2E2E2E2E2E2E2E2E2E2E2E2E2E2E2E2E2E2E2E2E2E2E2E2E2E2E2
310
E2E2E2E2E2E2E2E2E2E2E2E2E2E2E2E2E2E2E2E2E2E2E2E2E2E2E2E2E2E2E2E2E2E2E2E2E2E2E2E2E2E2E2E2E2E2E2E2E2E2E2E2E2E2E2E2E2E2E2E2E2E2E2E2E2E2E2E2E2E2E2E2E2E2E2E2E2E2E2E2E2E2E2E2E2E2E2E2E2E2E2E2E2E2E2E2E2E2E2E2E2E2E2E2E2E2E2E2E2E2E2E2E2E2E2E2E2E2E2E2E2E2E2E2E2E2E2
310
E2E2E2E2E2E2E2E2E2E2E2E2E2E2E2E2E2E2E2E2E2E2E2E2E2E2E2E2E2E2E2E2E2E2E2E2E2E2E2E2E2E2E2E2E2E2E2E2E2E2E2E2E2E2E2E2E2E2E2E2E2E2E2E2E2E2E2E2E2E2E2E2E2E2E2E2E2E2E2E2E2E2E2E2E2E2E2E2E2E2E2E2E2E2E2E2E2E2E2E2E2E2E2E2E2E2E2
  0
XRECORD
  5
24F56
102
{ACAD_REACTORS
330
1E041
102
}
330
1E041
100
AcDbXrecord
280
     1
102
SHADEPLOT
 70
     0
102
SHADEPLOTRESLEVEL
 70
     2
102
SHADEPLOTCUSTOMDPI
 70
   300
  0
XRECORD
  5
1E042
102
{ACAD_REACTORS
330
1E041
102
}
330
1E041
100
AcDbXrecord
280
     1
310
28000000B40000007F00000001000800000000004C590000000000000000000000010000000000003F3F3F0000000000FFFFFF000000000000000000000000000000000000000000000000000000000000000000330000006600000099000000CC000000FF00000000330000333300006633000099330000CC330000FF3300
310
0000660000336600006666000099660000CC660000FF66000000990000339900006699000099990000CC990000FF99000000CC000033CC000066CC000099CC0000CCCC0000FFCC000000FF000033FF000066FF000099FF0000CCFF0000FFFF000000003300330033006600330099003300CC003300FF003300003333003333
310
33006633330099333300CC333300FF33330000663300336633006666330099663300CC663300FF66330000993300339933006699330099993300CC993300FF99330000CC330033CC330066CC330099CC3300CCCC3300FFCC330000FF330033FF330066FF330099FF3300CCFF3300FFFF330000006600330066006600660099
310
006600CC006600FF00660000336600333366006633660099336600CC336600FF33660000666600336666006666660099666600CC666600FF66660000996600339966006699660099996600CC996600FF99660000CC660033CC660066CC660099CC6600CCCC6600FFCC660000FF660033FF660066FF660099FF6600CCFF6600
310
FFFF660000009900330099006600990099009900CC009900FF00990000339900333399006633990099339900CC339900FF33990000669900336699006666990099669900CC669900FF66990000999900339999006699990099999900CC999900FF99990000CC990033CC990066CC990099CC9900CCCC9900FFCC990000FF99
310
0033FF990066FF990099FF9900CCFF9900FFFF99000000CC003300CC006600CC009900CC00CC00CC00FF00CC000033CC003333CC006633CC009933CC00CC33CC00FF33CC000066CC003366CC006666CC009966CC00CC66CC00FF66CC000099CC003399CC006699CC009999CC00CC99CC00FF99CC0000CCCC0033CCCC0066CC
310
CC0099CCCC00CCCCCC00FFCCCC0000FFCC0033FFCC0066FFCC0099FFCC00CCFFCC00FFFFCC000000FF003300FF006600FF009900FF00CC00FF00FF00FF000033FF003333FF006633FF009933FF00CC33FF00FF33FF000066FF003366FF006666FF009966FF00CC66FF00FF66FF000099FF003399FF006699FF009999FF00CC
310
99FF00FF99FF0000CCFF0033CCFF0066CCFF0099CCFF00CCCCFF00FFCCFF0000FFFF0033FFFF0066FFFF0099FFFF00CCFFFF00FFFFFF00000000000D0D0D001A1A1A00282828003535350043434300505050005D5D5D006B6B6B00787878008686860093939300A1A1A100AEAEAE00BBBBBB00C9C9C900D6D6D600E4E4E400
310
F1F1F100FFFFFF0000000000000000000000000000000000000000000000000000000000000000000000000000000000E7E7E7E7E7E7E7E7E7E7E7E7E7E7E7E7E7E7E7E7E7E7E7E7E7E7E7E7E7E7E7E7E7E7E7E7E7E7E7E7E7E7E7E7E7E7E7E7E7E7E7E7E7E7E7E7E7E7E7E7E7E7E7E7E7E7E7E7E7E7E7E7E7E7E7E7E7E7E7
310
E7E7E7E7E7E7E7E7E7E7E7E7E7E7E7E7E7E7E7E7E7E7E7E7E7E7E7E7E7E7E7E7E7E7E7E7E7E7E7E7E7E7E7E7E7E7E7E7E7E7E7E7E7E7E7E7E7E7E7E7E7E7E7E7E7E7E7E7E7E7E7E7E7E7E7E7E7E7E7E7E7E7E7E7E7E7E7E7E7E7E7E7E7E7E7E7E7E7E7E7E7E7E7E7E7E7E7E7E7E7E7E7E7E7E7E7E7E7E7E7E7E7E7E7E7E7E7
310
E7E7E7E7E7E7E7E7E7E7E7E7E7E7E7E7E7E7E7E7E7E7E7E7E7E7E7E7E7E7E7E7E7E7E7E7E7E7E7E7E7E7E7E7E7E7E7E7E7E7E7E7E7E7E7E7E7E7E7E7E7E7E7E7E7E7E7E7E7E7E7E7E7E7E7E7E7E7E7E7E7E7E7E7E7E7E7E7E7E7E7E7E7E7E7E7E7E7E7E7E7E7E7E7E7E7E7E7E7E7E7E7E7E7E7E7E7E7E7E7E7E7E7E7E7E7E7
310
E7E7E7E7E7E7E7E7E7E7E7E7E7E7E7E7E7E7E7E7E7E7E7E7E7E7E7E7E7E7E7E7E7E7E7E7E7E7E7E7E7E7E7E7E7E7E7E7E7E7E7E7E7E7E7E7E7E7E7E7E7E7E7E7E7E7E7E7E7E7E7E7E7E7E7E7E7E7E7E7E7E7E7E7E7E7E7E7E7E7E7E7E7E7E7E7E7E7E7E7E7E7E7E7E7E7E7E7E7E7E7E7E7E7E7E7E7E7E7E7E7E7E7E7E7E7E7
310
E7E7E7E7E7E7E7E7E7E7E7E7E7E7E7E7E7E7E7E7E7E7E7E7E7E7E7E7E7E7E7E7E7E7E7E7E7E7E7E7E7E7E7E7E7E7E7E7E7E7E7E7E7E7E7E7E7E7E7E7E7E7E7E7E7E7E7E7E7E7E7E7E7E7E7E7E7E7E7E7E7E7E7E7E7E7E7E7E7E7E7E7E7E7E7E7E7E7E7E7E7E7E7E7E7E7E7E7E7E7E7E7E7E7E7E7E7E7E7E7E7E7E7E7E7E7E7
310
E7E7E7E7E7E7E7E7E7E7E7E7E7E7E7E7E7E7E7E7E7E7E7E7E7E7E7E7E7E7E7E7E7E7E7E7E7E7E7E7E7E7E7E7E7E7E7E7E7E7E7E7E7E7E7E7E7E7E7E7E7E7E7E7E7E7E7E7E7E7E7E7E7E7E7E7E7E7E7E7E7E7E7E7E7E7E7E7E7E7E7E7E7E7E7E7E7E7E7E7E7E7E7E7E7E7E7E7E7E7E7E7E7E7E7E7E7E7E7E7E7E7E7E7E7E7E7
310
E7E7E7E7E7E7E7E7E7E7E7E7E7E7E7E7E7E7E7E7E7E7E7E7E7E7E7E7E7E7E7E7E7E7E7E7E7E7E7E7E7E7E7E7E7E7E7E7E7E7E7E7E7E7E7E7E7E7E7E7E7E7E7E7E7E7E7E7E7E7E7E7E7E7E7E7E7E7E7E7E7E7E7E7E7E7E7E7E7E7E7E7E7E7E7E7E7E7E7E7E7E7E7E7E7E7E7E7E7E7E7E7E7E7E7E7E7E7E7E7E7E7E7E7E7E7E7
310
E7E7E7E7E7E7E7E7E7E7E7E7E7E7E7E7E7E7E7E7E7E7E7E7E7E7E7E7E7E7E7E7E7E7E7E7E7E7E7E7E7E7E7E7E7E7E7E7E7E7E7E7E7E7E7E7E7E7E7E7E7E7E7E7E7E7E7E7E7E7E7E7E7E7E7E7E7E7E7E7E7E7E7E7E7E7E7E7E7E7E7E7E7E7E7E7E7E7E7E7E7E7E7E7E7E7E7E7E7E7E7E7E7E7E7E7E7E7E7E7E7E7E7E7E7E7E7
310
E7E7E7E7E7E7E7E7E7E7E7E7E7E7E7E7E7E7E7E7E7E7E7E7E7E7E7E7E7E7E7E7E7E7E7E7E7E7E7E7E7E7E7E7E7E7E7E7E7E7E7E7E7E7E7E7E7E7E7E7E7E7E7E7E7E7E7E7E7E7E7E7E7E7E7E7E7E7E7E7E7E7E7E7E7E7E7E7E7E7E7E7E7E7E7E7E7E7E7E7E7E7E7E7E7E7E7E7E7E7E7E7E7E7E7E7E7E7E7E7E7E7E7E7E7E7E7
310
E7E7E7E7E7E7E7E7E7E7E7E7E7E7E7E7E7E7E7E7E7E7E7E7E7E7E7E7E7E7E7E7E7E7E7E7E7E7E7E7E7E7E7E7E7E7E7E7E7E7E7E7E7E7E7E7E7E7E7E7E7E7E7E7E7E7E7E7E7E7E7E7E7E7E7E7E7E7E7E7E7E7E7E7E7E7E7E7E7E7E7E7E7E7E7E7E7E7E7E7E7E7E7E7E7E7E7E7E7E7E7E7E7E7E7E7E7E7E7E7E7E7E7E7E7E7E7
310
E7E7E7E7E7E7E7E7E7E7E7E7E7E7E7E7E7E7E7E7E7E7E7E7E7E7E7E7E7E7E7E7E7E7E7E7E7E7E7E7E7E7E7E7E7E7E7E7E7E7E7E7E7E7E7E7E7E7E7E7E7E7E7E7E7E7E7E7E7E7E7E7E7E7E7E7E7E7E7E7E7E7E7E7E7E7E7E7E7E7E7E7E7E7E7E7E7E7E7E7E7E7E7E7E7E7E7E7E7E7E7E7E7E7E7E7E7E7E7E7E7E7E7E7E7E7E7
310
E7E7E7E7E7E7E7E7E7E7E7E7E7E7E7E7E7E7E7E7E7E7E7E7E7E7E7E7E7E7E7E7E7E7E7E7E7E7E7E7E7E7E7E7E7E7E7E7E7E7E7E7E7E7E7E7E7E7E7E7E7E7E7E7E7E7E7E7E7E7E7E7E7E7E7E7E7E7E7E7E7E7E7E7E7E7E7E7E7E7E7E7E7E7E7E7E7E7E7E7E7E7E7E7E7E7E7E7E7E7E7E7E7E7E7E7E7E7E7E7E7E7E7E7E7E7E7
310
E7E7E7E7E7E7E7E7E7E7E7E7E7E7E7E7E7E7E7E7E7E7E7E7E7E7E7E7E7E7E7E7E7E7E7E7E7E7E7E7E7E7E7E7E7E7E7E7E7E7E7E7E7E7E7E7E7E7E7E7E7E7E7E7E7E7E7E7E7E7E7E7E7E7E7E7E7E7E7E7E7E7E7E7E7E7E7E7E7E7E7E7E7E7E7E7E7E7E7E7E7E7E7E7E7E7E7E7E7E7E7E7E7E7E7E7E7E7E7E7E7E7E7E7E7E7E7
310
E7E7E7E7E7E7E7E7E7E7E7E7E7E7E7E7E7E7E7E7E7E7E7E7E7E7E7E7E7E7E7E7E7E7E7E7E7E7E7E7E7E7E7E7E7E7E7E7E7E7E7E7E7E7E7E7E7E7E7E7E7E7E7E7E7E7E7E7E7E7E7E7E7E7E7E7E7E7E7E7E7E7E7E7E7E7E7E7E7E7E7E7E7E7E7E7E7E7E7E7E7E7E7E7E7E7E7E7E7E7E7E7E7E7E7E7E7E7E7E7E7E7E7E7E7E7E7
310
E7E7E7E7E7E7E7E7E7E7E7E7E7E7E7E7E7E7E7E7E7E7E7E7E7E7E7E7E7E7E7E7E7E7E7E7E7E7E7E7E7E7E7E7E7E7E7E7E7E7E7E7E7E7E7E7E7E7E7E7E7E7E7E7E7E7E7E7E7E7E7E7E7E7E7E7E7E7E7E7E7E7E7E7E7E7E7E7E7E7E7E7E7E7E7E7E7E7E7E7E7E7E7E7E7E7E7E7E7E7E7E7E7E7E7E7E7E7E7E7E7E7E7E7E7E7E7
310
E7E7E7E7E7E7E7E7E7E7E7E7E7E7E7E7E7E7E7E7E7E7E7E7E7E7E7E7E7E7E7E7E7E7E7E7E7E7E7E7E7E7E7E7E7E7E7E7E7E7E7E7E7E7E7E7E7E7E7E7E7E7E7E7E7E7E7E7E7E7E7E7E7E7E7E7E7E7E7E7E7E7E7E7E7E7E7E7E7E7E7E7E7E7E7E7E7E7E7E7E7E7E7E7E7E7E7E7E7E7E7E7E7E7E7E7E7E7E7E7E7E7E7E7E7E7E7
310
E7E7E7E7E7E7E7E7E7E7E7E7E7E7E7E7E7E7E7E7E7E7E7E7E7E7E7E7E7E7E7E7E7E7E7E7E7E7E7E7E7E7E7E7E7E7E7E7E7E7E7E7E7E7E7E7E7E7E7E7E7E7E7E7E7E7E7E7E7E7E7E7E7E7E7E7E7E7E7E7E7E7E7E7E7E7E7E7E7E7E7E7E7E7E7E7E7E7E7E7E7E7E7E7E7E7E7E7E7E7E7E7E7E7E7E7E7E7E7E7E7E7E7E7E7E7E7
310
E7E7E7E7E7E7E7E7E7E7E7E7E7E7E7E7E7E7E7E7E7E7E7E7E7E7E7E7E7E7E7E7E7E7E7E7E7E7E7E7E7E7E7E7E7E7E7E7E7E7E7E7E7E7E7E7E7E7E7E7E7E7E7E7E7E7E7E7E7E7E7E7E7E7E7E7E7E7E7E7E7E7E7E7E7E7E7E7E7E7E7E7E7E7E7E7E7E7E7E7E7E7E7E7E7E7E7E7E7E7E7E7E7E7E7E7E7E7E7E7E7E7E7E7E7E7E7
310
E7E7E7E7E7E7E7E7E7E7E7E7E7E7E7E7E7E7E7E7E7E7E7E7E7E7E7E7E7E7E7E7E7E7E7E7E7E7E7E7E7E7E7E7E7E7E7E7E7E7E7E7E7E7E7E7E7E7E7E7E7E7E7E7E7E7E7E7E7E7E7E7E7E7E7E7E7E7E7E7E7E7E7E7E7E7E7E7E7E7E7E7E7E7E7E7E7E7E7E7E7E7E7E7E7E7E7E7E7E7E7E7E7E7E7E7E7E7E7E7E7E7E7E7E7E7E7
310
E7E7E7E7E7E7E7E7E7E7E7E7E7E7E7E7E7E7E7E7E7E7E7E7E7E7E7E7E7E7E7E7E7E7E7E7E7E7E7E7E7E7E7E7E7E7E7E7E7E7E7E7E7E7E7E7E7E7E7E7E7E7E7E7E7E7E7E7E7E7E7E7E7E7E7E7E7E7E7E7E7E7E7E7E7E7E7E7E7E7E7E7E7E7E7E7E7E7E7E7E7E7E7E7E7E7E7E7E7E7E7E7E7E7E7E7E7E7E7E7E7E7E7E7E7E7E7
310
E7E7E7E7E7E7E7E7E7E7E7E7E7E7E7E7E7E7E7E7E7E7E7E7E7E7E7E7E7E7E7E7E7E7E7E7E7E7E7E7E7E7E7E7E7E7E7E7E7E7E7E7E7E7E7E7E7E7E7E7E7E7E7E7E7E7E7E7E7E7E7E7E7E7E7E7E7E7E7E7E7E7E7E7E7E7E7E7E7E7E7E7E7E7E7E7E7E7E7E7E7E7E7E7E7E7E7E7E7E7E7E7E7E7E7E7E7E7E7E7E7E7E7E7E7E7E7
310
E7E7E7E7E7E7E7E7E7E7E7E7E7E7E7E7E7E7E7E7E7E7E7E7E7E7E7E7E7E7E7E7E7E7E7E7E7E7E7E7E7E7E7E7E7E7E7E7E7E7E7E7E7E7E7E7E7E7E7E7E7E7E7E7E7E7E7E7E7E7E7E7E7E7E7E7E7E7E7E7E7E7E7E7E7E7E7E7E7E7E7E7E7E7E7E7E7E7E7E7E7E7E7E7E7E7E7E7E7E7E7E7E7E7E7E7E7E7E7E7E7E7E7E7E7E7E7
310
E7E7E7E7E7E7E7E7E7E7E7E7E7E7E7E7E7E7E7E7E7E7E7E7E7E7E7E7E7E7E7E7E7E7E7E7E7E7E7E7E7E7E7E7E7E7E7E7E7E7E7E7E7E7E7E7E7E7E7E7E7E7E7E7E7E7E7E7E7E7E7E7E7E7E7E7E7E7E7E7E7E7E7E7E7E7E7E7E7E7E7E7E7E7E7E7E7E7E7E7E7E7E7E7E7E7E7E7E7E7E7E7E7E7E7E7E7E7E7E7E7E7E7E7E7E7E7
310
E7E7E7E7E7E7E7E7E7E7E7E7E7E7E7E7E7E7E7E7E7E7E7E7E7E7E7E7E7E7E7E7E7E7E7E7E7E7E7E7E7E7E7E7E7E7E7E7E7E7E7E7E7E7E7E7E7E7E7E7E7E7E7E7E7E7E7E7E7E7E7E7E7E7E7E7E7E7E7E7E7E7E7E7E7E7E7E7E7E7E7E7E7E7E7E7E7E7E7E7E7E7E7E7E7E7E7E7E7E7E7E7E7E7E7E7E7E7E7E7E7E7E7E7E7E7E7
310
E7E7E7E7E7E7E7E7E7E7E7E7E7E7E7E7E7E7E7E7E7E7E7E7E7E7E7E7E7E7E7E7E7E7E7E7E7E7E7E7E7E7E7E7E7E7E7E7E7E7E7E7E7E7E7E7E7E7E7E7E7E7E7E7E7E7E7E7E7E7E7E7E7E7E7E7E7E7E7E7E7E7E7E7E7E7E7E7E7E7E7E7E7E7E7E7E7E7E7E7E7E7E7E7E7E7E7E7E7E7E7E7E7E7E7E7E7E7E7E7E7E7E7E7E7E7E7
310
E7E7E7E7E7E7E7E7E7E7E7E7E7E7E7E7E7E7E7E7E7E7E7E7E7E7E7E7E7E7E7E7E7E7E7E7E7E7E7E7E7E7E7E7E7E7E7E7E7E7E7E7E7E7E7E7E7E7E7E7E7E7E7E7E7E7E7E7E7E7E7E7E7E7E7E7E7E7E7E7E7E7E7E7E7E7E7E7E7E7E7E7E7E7E7E7E7E7E7E7E7E7E7E7E7E7E7E7E7E7E7E7E7E7E7E7E7E7E7E7E7E7E7E7E7E7E7
310
E7E7E7E7E7E7E7E7E7E7E7E7E7E7E7E7E7E7E7E7E7E7E7E7E7E7E7E7E7E7E7E7E7E7E7E7E7E7E7E7E7E7E7E7E7E7E7E7E7E7E7E7E7E7E7E7E7E7E7E7E7E7E7E7E7E7E7E7E7E7E7E7E7E7E7E7E7E7E7E7E7E7E7E7E7E7E7E7E7E7E7E7E7E7E7E7E7E7E7E7E7E7E7E7E7E7E7E7E7E7E7E7E7E7E7E7E7E7E7E7E7E7E7E7E7E7E7
310
E7E7E7E7E7E7E7E7E7E7E7E7E7E7E7E7E7E7E7E7E7E7E7E7E7E7E7E7E7E7E7E7E7E7E7E7E7E7E7E7E7E7E7E7E7E7E7E7E7E7E7E7E7E7E7E7E7E7E7E7E7E7E7E7E7E7E7E7E7E7E7E7E7E7E7E7E7E7E7E7E7E7E7E7E7E7E7E7E7E7E7E7E7E7E7E7E7E7E7E7E7E7E7E7E7E7E7E7E7E7E7E7E7E7E7E7E7E7E7E7E7E7E7E7E7E7E7
310
E7E7E7E7E7E7E7E7E7E7E7E7E7E7E7E7E7E7E7E7E7E7E7E7E7E7E7E7E7E7E7E7E7E7E7E7E7E7E7E7E7E7E7E7E7E7E7E7E7E7E7E7E7E7E7E7E7E7E7E7E7E7E7E7E7E7E7E7E7E7E7E7E7E7E7E7E7E7E7E7E7E7E7E7E7E7E7E7E7E7E7E7E7E7E7E7E7E7E7E7E7E7E7E7E7E7E7E7E7E7E7E7E7E7E7E7E7E7E7E7E7E7E7E7E7E7E7
310
E7E7E7E7E7E7E7E7E7E7E7E7E7E7E7E7E7E7E7E7E7E7E7E7E7E7E7E7E7E7E7E7E7E7E7E7E7E7E7E7E7E7E7E7E7E7E7E7E7E7E7E7E7E7E7E7E7E7E7E7E7E7E7E7E7E7E7E7E7E7E7E7E7E7E7E7E7E7E7E7E7E7E7E7E7E7E7E7E7E7E7E7E7E7E7E7E7E7E7E7E7E7E7E7E7E7E7E7E7E7E7E7E7E7E7E7E7E7E7E7E7E7E7E7E7E7E7
310
E7E7E7E7E7E7E7E7E7E7E7E7E7E7E7E7E7E7E7E7E7E7E7E7E7E7E7E7E7E7E7E7E7E7E7E7E7E7E7E7E7E7E7E7E7E7E7E7E7E7E7E7E7E7E7E7E7E7E7E7E7E7E7E7E7E7E7E7E7E7E7E7E7E7E7E7E7E7E7E7E7E7E7E7E7E7E7E7E7E7E7E7E7E7E7E7E7E7E7E7E7E7E7E7E7E7E7E7E7E7E7E7E7E7E7E7E7E7E7E7E7E7E7E7E7E7E7
310
E7E7E7E7E7E7E7E7E7E7E7E7E7E7E7E7E7E7E7E7E7E7E7E7E7E7E7E7E7E7E7E7E7E7E7E7E7E7E7E7E7E7E7E7E7E7E7E7E7E7E7E7E7E7E7E7E7E7E7E7E7E7E7E7E7E7E7E7E7E7E7E7E7E7E7E7E7E7E7E7E7E7E7E7E7E7E7E7E7E7E7E7E7E7E7E7E7E7E7E7E7E7E7E7E7E7E7E7E7E7E7E7E7E7E7E7E7E7E7E7E7E7E7E7E7E7E7
310
E7E7E7E7E7E7E7E7E7E7E7E7E7E7E7E7E7E7E7E7E7E7E7E7E7E7E7E7E7E7E7E7E7E7E7E7E7E7E7E7E7E7E7E7E7E7E7E7E7E7E7E7E7E7E7E7E7E7E7E7E7E7E7E7E7E7E7E7E7E7E7E7E7E7E7E7E7E7E7E7E7E7E7E7E7E7E7E7E7E7E7E7E7E7E7E7E7E7E7E7E7E7E7E7E7E7E7E7E7E7E7E7E7E7E7E7E7E7E7E7E7E7E7E7E7E7E7
310
E7E7E7E7E7E7E7E7E7E7E7E7E7E7E7E7E7E7E7E7E7E7E7E7E7E7E7E7E7E7E7E7E7E7E7E7E7E7E7E7E7E7E7E7E7E7E7E7E7E7E7E7E7E7E7E7E7E7E7E7E7E7E7E7E7E7E7E7E7E7E7E7E7E7E7E7E7E7E7E7E7E7E7E7E7E7E7E7E7E7E7E7E7E7E7E7E7E7E7E7E7E7E7E7E7E7E7E7E7E7E7E7E7E7E7E7E7E7E7E7E7E7E7E7E7E7E7
310
E7E7E7E7E7E7E7E7E7E7E7E7E7E7E7E7E7E7E7E7E7E7E7E7E7E7E7E7E7E7E7E7E7E7E7E7E7E7E7E7E7E7E7E7E7E7E7E7E7E7E7E7E7E7E7E7E7E7E7E7E7E7E7E7E7E7E7E7E7E7E7E7E7E7E7E7E7E7E7E7E7E7E7E7E7E7E7E7E7E7E7E7E7E7E7E7E7E7E7E7E7E7E7E7E7E7E7E7E7E7E7E7E7E7E7E7E7E7E7E7E7E7E7E7E7E7E7
310
E7E7E7E7E7E7E7E7E7E7E7E7E7E7E7E7E7E7E7E7E7E7E7E7E7E7E7E7E7E7E7E7E7E7E7E7E7E7E7E7E7E7E7E7E7E7E7E7E7E7E7E7E7E7E7E7E7E7E7E7E7E7E7E7E7E7E7E7E7E7E7E7E7E7E7E7E7E7E7E7E7E7E7E7E7E7E7E7E7E7E7E7E7E7E7E7E7E7E7E7E7E7E7E7E7E7E7E7E7E7E7E7E7E7E7E7E7E7E7E7E7E7E7E7E7E7E7
310
E7E7E7E7E7E7E7E7E7E7E7E7E7E7E7E7E7E7E7E7E7E7E7E7E7E7E7E7E7E7E7E7E7E7E7E7E7E7E7E7E7E7E7E7E7E7E7E7E7E7E7E7E7E7E7E7E7E7E7E7E7E7E7E7E7E7E7E7E7E7E7E7E7E7E7E7E7E7E7E7E7E7E7E7E7E7E7E7E7E7E7E7E7E7E7E7E7E7E7E7E7E7E7E7E7E7E7E7E7E7E7E7E7E7E7E7E7E7E7E7E7E7E7E7E7E7E7
310
E7E7E7E7E7E7E7E7E7E7E7E7E7E7E7E7E7E7E7E7E7E7E7E7E7E7E7E7E7E7E7E7E7E7E7E7E7E7E7E7E7E7E7E7E7E7E7E7E7E7E7E7E7E7E7E7E7E7E7E7E7E7E7E7E7E7E7E7E7E7E7E7E7E7E7E7E7E7E7E7E7E7E7E7E7E7E7E7E7E7E7E7E7E7E7E7E7E7E7E7E7E7E7E7E7E7E7E7E7E7E7E7E7E7E7E7E7E7E7E7E7E7E7E7E7E7E7
310
E7E7E7E7E7E7E7E7E7E7E7E7E7E7E7E7E7E7E7E7E7E7E7E7E7E7E7E7E7E7E7E7E7E7E7E7E7E7E7E7E7E7E7E7E7E7E7E7E7E7E7E7E7E7E7E7E7E7E7E7E7E7E7E7E7E7E7E7E7E7E7E7E7E7E7E7E7E7E7E7E7E7E7E7E7E7E7E7E7E7E7E7E7E7E7E7E7E7E7E7E7E7E7E7E7E7E7E7E7E7E7E7E7E7E7E7E7E7E7E7E7E7E7E7E7E7E7
310
E7E7E7E7E7E7E7E7E7E7E7E7E7E7E7E7E7E7E7E7E7E7E7E7E7E7E7E7E7E7E7E7E7E7E7E7E7E7E7E7E7E7E7E7E7E7E7E7E7E7E7E7E7E7E7E7E7E7E7E7E7E7E7E7E7E7E7E7E7E7E7E7E7E7E7E7E7E7E7E7E7E7E7E7E7E7E7E7E7E7E7E7E7E7E7E7E7E7E7E7E7E7E7E7E7E7E7E7E7E7E7E7E7E7E7E7E7E7E7E7E7E7E7E7E7E7E7
310
E7E7E7E7E7E7E7E7E7E7E7E7E7E7E7E7E7E7E7E7E7E7E7E7E7E7E7E7E7E7E7E7E7E7E7E7E7E7E7E7E7E7E7E7E7E7E7E7E7E7E7E7E7E7E7E7E7E7E7E7E7E7E7E7E7E7E7E7E7E7E7E7E7E7E7E7E7E7E7E7E7E7E7E7E7E7E7E7E7E7E7E7E7E7E7E7E7E7E7E7E7E7E7E7E7E7E7E7E7E7E7E7E7E7E7E7E7E7E7E7E7E7E7E7E7E7E7
310
E7E7E7E7E7E7E7E7E7E7E7E7E7E7E7E7E7E7E7E7E7E7E7E7E7E7E7E7E7E7E7E7E7E7E7E7E7E7E7E7E7E7E7E7E7E7E7E7E7E7E7E7E7E7E7E7E7E7E7E7E7E7E7E7E7E7E7E7E7E7E7E7E7E7E7E7E7E7E7E7E7E7E7E7E7E7E7E7E7E7E7E7E7E7E7E7E7E7E7E7E7E7E7E7E7E7E7E7E7E7E7E7E7E7E7E7E7E7E7E7E7E7E7E7E7E7E7
310
E7E7E7E7E7E7E7E7E7E7E7E7E7E7E7E7E7E7E7E7E7E7E7E7E7E7E7E7E7E7E7E7E7E7E7E7E7E7E7E7E7E7E7E7E7E7E7E7E7E7E7E7E7E7E7E7E7E7E7E7E7E7E7E7E7E7E7E7E7E7E7E7E7E7E7E7E7E7E7E7E7E7E7E7E7E7E7E7E7E7E7E7E7E7E7E7E7E7E7E7E7E7E7E7E7E7E7E7E7E7E7E7E7E7E7E7E7E7E7E7E7E7E7E7E7E7E7
310
E7E7E7E7E7E7E7E7E7E7E7E7E7E7E7E7E7E7E7E7E7E7E7E7E7E7E7E7E7E7E7E7E7E7E7E7E7E7E7E7E7E7E7E7E7E7E7E7E7E7E7E7E7E7E7E7E7E7E7E7E7E7E7E7E7E7E7E7E7E7E7E7E7E7E7E7E7E7E7E7E7E7E7E7E7E7E7E7E7E7E7E7E7E7E7E7E7E7E7E7E7E7E7E7E7E7E7E7E7E7E7E7E7E7E7E7E7E7E7E7E7E7E7E7E7E7E7
310
E7E7E7E7E7E7E7E7E7E7E7E7E7E7E7E7E7E7E7E7E7E7E7E7E7E7E7E7E7E7E7E7E7E7E7E7E7E7E7E7E7E7E7E7E7E7E7E7E7E7E7E7E7E7E7E7E7E7E7E7E7E7E7E7E7E7E7E7E7E7E7E7E7E7E7E7E7E7E7E7E7E7E7E7E7E7E7E7E7E7E7E7E7E7E7E7E7E7E7E7E7E7E7E7E7E7E7E7E7E7E7E7E7E7E7E7E7E7E7E7E7E7E7E7E7E7E7
310
E7E7E7E7E7E7E7E7E7E7E7E7E7E7E7E7E7E7E7E7E7E7E7E7E7E7E7E7E7E7E7E7E7E7E7E7E7E7E7E7E7E7E7E7E7E7E7E7E7E7E7E7E7E7E7E7E7E7E7E7E7E7E7E7E7E7E7E7E7E7E7E7E7E7E7E7E7E7E7E7E7E7E7E7E7E7E7E7E7E7E7E7E7E7E7E7E7E7E7E7E7E7E7E7E7E7E7E7E7E7E7E7E7E7E7E7E7E7E7E7E7E7E7E7E7E7E7
310
E7E7E7E7E7E7E7E7E7E7E7E7E7E7E7E7E7E7E7E7E7E7E7E7E7E7E7E7E7E7E7E7E7E7E7E7E7E7E7E7E7E7E7E7E7E7E7E7E7E7E7E7E7E7E7E7E7E7E7E7E7E7E7E7E7E7E7E7E7E7E7E7E7E7E7E7E7E7E7E7E7E7E7E7E7E7E7E7E7E7E7E7E7E7E7E7E7E7E7E7E7E7E7E7E7E7E7E7E7E7E7E7E7E7E7E7E7E7E7E7E7E7E7E7E7E7E7
310
E7E7E7E7E7E7E7E7E7E7E7E7E7E7E7E7E7E7E7E7E7E7E7E7E7E7E7E7E7E7E7E7E7E7E7E7E7E7E7E7E7E7E7E7E7E7E7E7E7E7E7E7E7E7E7E7E7E7E7E7E7E7E7E7E7E7E7E7E7E7E7E7E7E7E7E7E7E7E7E7E7E7E7E7E7E7E7E7E7E7E7E7E7E7E7E7E7E7E7E7E7E7E7E7E7E7E7E7E7E7E7E7E7E7E7E7E7E7E7E7E7E7E7E7E7E7E7
310
E7E7E7E7E7E7E7E7E7E7E7E7E7E7E7E7E7E7E7E7E7E7E7E7E7E7E7E7E7E7E7E7E7E7E7E7E7E7E7E7E7E7E7E7E7E7E7E7E7E7E7E7E7E7E7E7E7E7E7E7E7E7E7E7E7E7E7E7E7E7E7E7E7E7E7E7E7E7E7E7E7E7E7E7E7E7E7E7E7E7E7E7E7E7E7E7E7E7E7E7E7E7E7E7E7E7E7E7E7E7E7E7E7E7E7E7E7E7E7E7E7E7E7E7E7E7E7
310
E7E7E7E7E7E7E7E7E7E7E7E7E7E7E7E7E7E7E7E7E7E7E7E7E7E7E7E7E7E7E7E7E7E7E7E7E7E7E7E7E7E7E7E7E7E7E7E7E7E7E7E7E7E7E7E7E7E7E7E7E7E7E7E7E7E7E7E7E7E7E7E7E7E7E7E7E7E7E7E7E7E7E7E7E7E7E7E7E7E7E7E7E7E7E7E7E7E7E7E7E7E7E7E7E7E7E7E7E7E7E7E7E7E7E7E7E7E7E7E7E7E7E7E7E7E7E7
310
E7E7E7E7E7E7E7E7E7E7E7E7E7E7E7E7E7E7E7E7E7E7E7E7E7E7E7E7E7E7E7E7E7E7E7E7E7E7E7E7E7E7E7E7E7E7E7E7E7E7E7E7E7E7E7E7E7E7E7E7E7E7E7E7E7E7E7E7E7E7E7E7E7E7E7E7E7E7E7E7E7E7E7E7E7E7E7E7E7E7E7E7E7E7E7E7E7E7E7E7E7E7E7E7E7E7E7E7E7E7E7E7E7E7E7E7E7E7E7E7E7E7E7E7E7E7E7
310
E7E7E7E7E7E7E7E7E7E7E7E7E7E7E7E7E7E7E7E7E7E7E7E7E7E7E7E7E7E7E7E7E7E7E7E7E7E7E7E7E7E7E7E7E7E7E7E7E7E7E7E7E7E7E7E7E7E7E7E7E7E7E7E7E7E7E7E7E7E7E7E7E7E7E7E7E7E7E7E7E7E7E7E7E7E7E7E7E7E7E7E7E7E7E7E7E7E7E7E7E7E7E7E7E7E7E7E7E7E7E7E7E7E7E7E7E7E7E7E7E7E7E7E7E7E7E7
310
E7E7E7E7E7E7E7E7E7E7E7E7E7E7E7E7E7E7E7E7E7E7E7E7E7E7E7E7E7E7E7E7E7E7E7E7E7E7E7E7E7E7E7E7E7E7E7E7E7E7E7E7E7E7E7E7E7E7E7E7E7E7E7E7E7E7E7E7E7E7E7E7E7E7E7E7E7E7E7E7E7E7E7E7E7E7E7E7E7E7E7E7E7E7E7E7E7E7E7E7E7E7E7E7E7E7E7E7E7E7E7E7E7E7E7E7E7E7E7E7E7E7E7E7E7E7E7
310
E7E7E7E7E7E7E7E7E7E7E7E7E7E7E7E7E7E7E7E7E7E7E7E7E7E7E7E7E7E7E7E7E7E7E7E7E7E7E7E7E7E7E7E7E7E7E7E7E7E7E7E7E7E7E7E7E7E7E7E7E7E7E7E7E7E7E7E7E7E7E7E7E7E7E7E7E7E7E7E7E7E7E7E7E7E7E7E7E7E7E7E7E7E7E7E7E7E7E7E7E7E7E7E7E7E7E7E7E7E7E7E7E7E7E7E7E7E7E7E7E7E7E7E7E7E7E7
310
E7E7E7E7E7E7E7E7E7E7E7E7E7E7E7E7E7E7E7E7E7E7E7E7E7E7E7E7E7E7E7E7E7E7E7E7E7E7E7E7E7E7E7E7E7E7E7E7E7E7E7E7E7E7E7E7E7E7E7E7E7E7E7E7E7E7E7E7E7E7E7E7E7E7E7E7E7E7E7E7E7E7E7E7E7E7E7E7E7E7E7E7E7E7E7E7E7E7E7E7E7E7E7E7E7E7E7E7E7E7E7E7E7E7E7E7E7E7E7E7E7E7E7E7E7E7E7
310
E7E7E7E7E7E7E7E7E7E7E7E7E7E7E7E7E7E7E7E7E7E7E7E7E7E7E7E7E7E7E7E7E7E7E7E7E7E7E7E7E7E7E7E7E7E7E7E7E7E7E7E7E7E7E7E7E7E7E7E7E7E7E7E7E7E7E7E7E7E7E7E7E7E7E7E7E7E7E7E7E7E7E7E7E7E7E7E7E7E7E7E7E7E7E7E7E7E7E7E7E7E7E7E7E7E7E7E7E7E7E7E7E7E7E7E7E7E7E7E7E7E7E7E7E7E7E7
310
E7E7E7E7E7E7E7E7E7E7E7E7E7E7E7E7E7E7E7E7E7E7E7E7E7E7E7E7E7E7E7E7E7E7E7E7E7E7E7E7E7E7E7E7E7E7E7E7E7E7E7E7E7E7E7E7E7E7E7E7E7E7E7E7E7E7E7E7E7E7E7E7E7E7E7E7E7E7E7E7E7E7E7E7E7E7E7E7E7E7E7E7E7E7E7E7E7E7E7E7E7E7E7E7E7E7E7E7E7E7E7E7E7E7E7E7E7E7E7E7E7E7E7E7E7E7E7
310
E7E7E7E7E7E7E7E7E7E7E7E7E7E7E7E7E7E7E7E7E7E7E7E7E7E7E7E7E7E7E7E7E7E7E7E7E7E7E7E7E7E7E7E7E7E7E7E7E7E7E7E7E7E7E7E7E7E7E7E7E7E7E7E7E7E7E7E7E7E7E7E7E7E7E7E7E7E7E7E7E7E7E7E7E7E7E7E7E7E7E7E7E7E7E7E7E7E7E7E7E7E7E7E7E7E7E7E7E7E7E7E7E7E7E7E7E7E7E7E7E7E7E7E7E7E7E7
310
E7E7E7E7E7E7E7E7E7E7E7E7E7E7E7E7E7E7E7E7E7E7E7E7E7E7E7E7E7E7E7E7E7E7E7E7E7E7E7E7E7E7E7E7E7E7E7E7E7E7E7E7E7E7E7E7E7E7E7E7E7E7E7E7E7E7E7E7E7E7E7E7E7E7E7E7E7E7E7E7E7E7E7E7E7E7E7E7E7E7E7E7E7E7E7E7E7E7E7E7E7E7E7E7E7E7E7E7E7E7E7E7E7E7E7E7E7E7E7E7E7E7E7E7E7E7E7
310
E7E7E7E7E7E7E7E7E7E7E7E7E7E7E7E7E7E7E7E7E7E7E7E7E7E7E7E7E7E7E7E7E7E7E7E7E7E7E7E7E7E7E7E7E7E7E7E7E7E7E7E7E7E7E7E7E7E7E7E7E7E7E7E7E7E7E7E7E7E7E7E7E7E7E7E7E7E7E7E7E7E7E7E7E7E7E7E7E7E7E7E7E7E7E7E7E7E7E7E7E7E7E7E7E7E7E7E7E7E7E7E7E7E7E7E7E7E7E7E7E7E7E7E7E7E7E7
310
E7E7E7E7E7E7E7E7E7E7E7E7E7E7E7E7E7E7E7E7E7E7E7E7E7E7E7E7E7E7E7E7E7E7E7E7E7E7E7E7E7E7E7E7E7E7E7E7E7E7E7E7E7E7E7E7E7E7E7E7E7E7E7E7E7E7E7E7E7E7E7E7E7E7E7E7E7E7E7E7E7E7E7E7E7E7E7E7E7E7E7E7E7E7E7E7E7E7E7E7E7E7E7E7E7E7E7E7E7E7E7E7E7E7E7E7E7E7E7E7E7E7E7E7E7E7E7
310
E7E7E7E7E7E7E7E7E7E7E7E7E7E7E7E7E7E7E7E7E7E7E7E7E7E7E7E7E7E7E7E7E7E7E7E7E7E7E7E7E7E7E7E7E7E7E7E7E7E7E7E7E7E7E7E7E7E7E7E7E7E7E7E7E7E7E7E7E7E7E7E7E7E7E7E7E7E7E7E7E7E7E7E7E7E7E7E7E7E7E7E7E7E7E7E7E7E7E7E7E7E7E7E7E7E7E7E7E7E7E7E7E7E7E7E7E7E7E7E7E7E7E7E7E7E7E7
310
E7E7E7E7E7E7E7E7E7E7E7E7E7E7E7E7E7E7E7E7E7E7E7E7E7E7E7E7E7E7E7E7E7E7E7E7E7E7E7E7E7E7E7E7E7E7E7E7E7E7E7E7E7E7E7E7E7E7E7E7E7E7E7E7E7E7E7E7E7E7E7E7E7E7E7E7E7E7E7E7E7E7E7E7E7E7E7E7E7E7E7E7E7E7E7E7E7E7E7E7E7E7E7E7E7E7E7E7E7E7E7E7E7E7E7E7E7E7E7E7E7E7E7E7E7E7E7
310
E7E7E7E7E7E7E7E7E7E7E7E7E7E7E7E7E7E7E7E7E7E7E7E7E7E7E7E7E7E7E7E7E7E7E7E7E7E7E7E7E7E7E7E7E7E7E7E7E7E7E7E7E7E7E7E7E7E7E7E7E7E7E7E7E7E7E7E7E7E7E7E7E7E7E7E7E7E7E7E7E7E7E7E7E7E7E7E7E7E7E7E7E7E7E7E7E7E7E7E7E7E7E7E7E7E7E7E7E7E7E7E7E7E7E7E7E7E7E7E7E7E7E7E7E7E7E7
310
E7E7E7E7E7E7E7E7E7E7E7E7E7E7E7E7E7E7E7E7E7E7E7E7E7E7E7E7E7E7E7E7E7E7E7E7E7E7E7E7E7E7E7E7E7E7E7E7E7E7E7E7E7E7E7E7E7E7E7E7E7E7E7E7E7E7E7E7E7E7E7E7E7E7E7E7E7E7E7E7E7E7E7E7E7E7E7E7E7E7E7E7E7E7E7E7E7E7E7E7E7E7E7E7E7E7E7E7E7E7E7E7E7E7E7E7E7E7E7E7E7E7E7E7E7E7E7
310
E7E7E7E7E7E7E7E7E7E7E7E7E7E7E7E7E7E7E7E7E7E7E7E7E7E7E7E7E7E7E7E7E7E7E7E7E7E7E7E7E7E7E7E7E7E7E7E7E7E7E7E7E7E7E7E7E7E7E7E7E7E7E7E7E7E7E7E7E7E7E7E7E7E7E7E7E7E7E7E7E7E7E7E7E7E7E7E7E7E7E7E7E7E7E7E7E7E7E7E7E7E7E7E7E7E7E7E7E7E7E7E7E7E7E7E7E7E7E7E7E7E7E7E7E7E7E7
310
E7E7E7E7E7E7E7E7E7E7E7E7E7E7E7E7E7E7E7E7E7E7E7E7E7E7E7E7E7E7E7E7E7E7E7E7E7E7E7E7E7E7E7E7E7E7E7E7E7E7E7E7E7E7E7E7E7E7E7E7E7E7E7E7E7E7E7E7E7E7E7E7E7E7E7E7E7E7E7E7E7E7E7E7E7E7E7E7E7E7E7E7E7E7E7E7E7E7E7E7E7E7E7E7E7E7E7E7E7E7E7E7E7E7E7E7E7E7E7E7E7E7E7E7E7E7E7
310
E7E7E7E7E7E7E7E7E7E7E7E7E7E7E7E7E7E7E7E7E7E7E7E7E7E7E7E7E7E7E7E7E7E7E7E7E7E7E7E7E7E7E7E7E7E7E7E7E7E7E7E7E7E7E7E7E7E7E7E7E7E7E7E7E7E7E7E7E7E7E7E7E7E7E7E7E7E7E7E7E7E7E7E7E7E7E7E7E7E7E7E7E7E7E7E7E7E7E7E7E7E7E7E7E7E7E7E7E7E7E7E7E7E7E7E7E7E7E7E7E7E7E7E7E7E7E7
310
E7E7E7E7E7E7E7E7E7E7E7E7E7E7E7E7E7E7E7E7E7E7E7E7E7E7E7E7E7E7E7E7E7E7E7E7E7E7E7E7E7E7E7E7E7E7E7E7E7E7E7E7E7E7E7E7E7E7E7E7E7E7E7E7E7E7E7E7E7E7E7E7E7E7E7E7E7E7E7E7E7E7E7E7E7E7E7E7E7E7E7E7E7E7E7E7E7E7E7E7E7E7E7E7E7E7E7E7E7E7E7E7E7E7E7E7E7E7E7E7E7E7E7E7E7E7E7
310
E7E7E7E7E7E7E7E7E7E7E7E7E7E7E7E7E7E7E7E7E7E7E7E7E7E7E7E7E7E7E7E7E7E7E7E7E7E7E7E7E7E7E7E7E7E7E7E7E7E7E7E7E7E7E7E7E7E7E7E7E7E7E7E7E7E7E7E7E7E7E7E7E7E7E7E7E7E7E7E7E7E7E7E7E7E7E7E7E7E7E7E7E7E7E7E7E7E7E7E7E7E7E7E7E7E7E7E7E7E7E7E7E7E7E7E7E7E7E7E7E7E7E7E7E7E7E7
310
E7E7E7E7E7E7E7E7E7E7E7E7E7E7E7E7E7E7E7E7E7E7E7E7E7E7E7E7E7E7E7E7E7E7E7E7E7E7E7E7E7E7E7E7E7E7E7E7E7E7E7E7E7E7E7E7E7E7E7E7E7E7E7E7E7E7E7E7E7E7E7E7E7E7E7E7E7E7E7E7E7E7E7E7E7E7E7E7E7E7E7E7E7E7E7E7E7E7E7E7E7E7E7E7E7E7E7E7E7E7E7E7E7E7E7E7E7E7E7E7E7E7E7E7E7E7E7
310
E7E7E7E7E7E7E7E7E7E7E7E7E7E7E7E7E7E7E7E7E7E7E7E7E7E7E7E7E7E7E7E7E7E7E7E7E7E7E7E7E7E7E7E7E7E7E7E7E7E7E7E7E7E7E7E7E7E7E7E7E7E7E7E7E7E7E7E7E7E7E7E7E7E7E7E7E7E7E7E7E7E7E7E7E7E7E7E7E7E7E7E7E7E7E7E7E7E7E7E7E7E7E7E7E7E7E7E7E7E7E7E7E7E7E7E7E7E7E7E7E7E7E7E7E7E7E7
310
E7E7E7E7E7E7E7E7E7E7E7E7E7E7E7E7E7E7E7E7E7E7E7E7E7E7E7E7E7E7E7E7E7E7E7E7E7E7E7E7E7E7E7E7E7E7E7E7E7E7E7E7E7E7E7E7E7E7E7E7E7E7E7E7E7E7E7E7E7E7E7E7E7E7E7E7E7E7E7E7E7E7E7E7E7E7E7E7E7E7E7E7E7E7E7E7E7E7E7E7E7E7E7E7E7E7E7E7E7E7E7E7E7E7E7E7E7E7E7E7E7E7E7E7E7E7E7
310
E7E7E7E7E7E7E7E7E7E7E7E7E7E7E7E7E7E7E7E7E7E7E7E7E7E7E7E7E7E7E7E7E7E7E7E7E7E7E7E7E7E7E7E7E7E7E7E7E7E7E7E7E7E7E7E7E7E7E7E7E7E7E7E7E7E7E7E7E7E7E7E7E7E7E7E7E7E7E7E7E7E7E7E7E7E7E7E7E7E7E7E7E7E7E7E7E7E7E7E7E7E7E7E7E7E7E7E7E7E7E7E7E7E7E7E7E7E7E7E7E7E7E7E7E7E7E7
310
E7E7E7E7E7E7E7E7E7E7E7E7E7E7E7E7E7E7E7E7E7E7E7E7E7E7E7E7E7E7E7E7E7E7E7E7E7E7E7E7E7E7E7E7E7E7E7E7E7E7E7E7E7E7E7E7E7E7E7E7E7E7E7E7E7E7E7E7E7E7E7E7E7E7E7E7E7E7E7E7E7E7E7E7E7E7E7E7E7E7E7E7E7E7E7E7E7E7E7E7E7E7E7E7E7E7E7E7E7E7E7E7E7E7E7E7E7E7E7E7E7E7E7E7E7E7E7
310
E7E7E7E7E7E7E7E7E7E7E7E7E7E7E7E7E7E7E7E7E7E7E7E7E7E7E7E7E7E7E7E7E7E7E7E7E7E7E7E7E7E7E7E7E7E7E7E7E7E7E7E7E7E7E7E7E7E7E7E7E7E7E7E7E7E7E7E7E7E7E7E7E7E7E7E7E7E7E7E7E7E7E7E7E7E7E7E7E7E7E7E7E7E7E7E7E7E7E7E7E7E7E7E7E7E7E7E7E7E7E7E7E7E7E7E7E7E7E7E7E7E7E7E7E7E7E7
310
E7E7E7E7E7E7E7E7E7E7E7E7E7E7E7E7E7E7E7E7E7E7E7E7E7E7E7E7E7E7E7E7E7E7E7E7E7E7E7E7E7E7E7E7E7E7E7E7E7E7E7E7E7E7E7E7E7E7E7E7E7E7E7E7E7E7E7E7E7E7E7E7E7E7E7E7E7E7E7E7E7E7E7E7E7E7E7E7E7E7E7E7E7E7E7E7E7E7E7E7E7E7E7E7E7E7E7E7E7E7E7E7E7E7E7E7E7E7E7E7E7E7E7E7E7E7E7
310
E7E7E7E7E7E7E7E7E7E7E7E7E7E7E7E7E7E7E7E7E7E7E7E7E7E7E7E7E7E7E7E7E7E7E7E7E7E7E7E7E7E7E7E7E7E7E7E7E7E7E7E7E7E7E7E7E7E7E7E7E7E7E7E7E7E7E7E7E7E7E7E7E7E7E7E7E7E7E7E7E7E7E7E7E7E7E7E7E7E7E7E7E7E7E7E7E7E7E7E7E7E7E7E7E7E7E7E7E7E7E7E7E7E7E7E7E7E7E7E7E7E7E7E7E7E7E7
310
E7E7E7E7E7E7E7E7E7E7E7E7E7E7E7E7E7E7E7E7E7E7E7E7E7E7E7E7E7E7E7E7E7E7E7E7E7E7E7E7E7E7E7E7E7E7E7E7E7E7E7E7E7E7E7E7E7E7E7E7E7E7E7E7E7E7E7E7E7E7E7E7E7E7E7E7E7E7E7E7E7E7E7E7E7E7E7E7E7E7E7E7E7E7E7E7E7E7E7E7E7E7E7E7E7E7E7E7E7E7E7E7E7E7E7E7E7E7E7E7E7E7E7E7E7E7E7
310
E7E7E7E7E7E7E7E7E7E7E7E7E7E7E7E7E7E7E7E7E7E7E7E7E7E7E7E7E7E7E7E7E7E7E7E7E7E7E7E7E7E7E7E7E7E7E7E7E7E7E7E7E7E7E7E7E7E7E7E7E7E7E7E7E7E7E7E7E7E7E7E7E7E7E7E7E7E7E7E7E7E7E7E7E7E7E7E7E7E7E7E7E7E7E7E7E7E7E7E7E7E7E7E7E7E7E7E7E7E7E7E7E7E7E7E7E7E7E7E7E7E7E7E7E7E7E7
310
E7E7E7E7E7E7E7E7E7E7E7E7E7E7E7E7E7E7E7E7E7E7E7E7E7E7E7E7E7E7E7E7E7E7E7E7E7E7E7E7E7E7E7E7E7E7E7E7E7E7E7E7E7E7E7E7E7E7E7E7E7E7E7E7E7E7E7E7E7E7E7E7E7E7E7E7E7E7E7E7E7E7E7E7E7E7E7E7E7E7E7E7E7E7E7E7E7E7E7E7E7E7E7E7E7E7E7E7E7E7E7E7E7E7E7E7E7E7E7E7E7E7E7E7E7E7E7
310
E7E7E7E7E7E7E7E7E7E7E7E7E7E7E7E7E7E7E7E7E7E7E7E7E7E7E7E7E7E7E7E7E7E7E7E7E7E7E7E7E7E7E7E7E7E7E7E7E7E7E7E7E7E7E7E7E7E7E7E7E7E7E7E7E7E7E7E7E7E7E7E7E7E7E7E7E7E7E7E7E7E7E7E7E7E7E7E7E7E7E7E7E7E7E7E7E7E7E7E7E7E7E7E7E7E7E7E7E7E7E7E7E7E7E7E7E7E7E7E7E7E7E7E7E7E7E7
310
E7E7E7E7E7E7E7E7E7E7E7E7E7E7E7E7E7E7E7E7E7E7E7E7E7E7E7E7E7E7E7E7E7E7E7E7E7E7E7E7E7E7E7E7E7E7E7E7E7E7E7E7E7E7E7E7E7E7E7E7E7E7E7E7E7E7E7E7E7E7E7E7E7E7E7E7E7E7E7E7E7E7E7E7E7E7E7E7E7E7E7E7E7E7E7E7E7E7E7E7E7E7E7E7E7E7E7E7E7E7E7E7E7E7E7E7E7E7E7E7E7E7E7E7E7E7E7
310
E7E7E7E7E7E7E7E7E7E7E7E7E7E7E7E7E7E7E7E7E7E7E7E7E7E7E7E7E7E7E7E7E7E7E7E7E7E7E7E7E7E7E7E7E7E7E7E7E7E7E7E7E7E7E7E7E7E7E7E7E7E7E7E7E7E7E7E7E7E7E7E7E7E7E7E7E7E7E7E7E7E7E7E7E7E7E7E7E7E7E7E7E7E7E7E7E7E7E7E7E7E7E7E7E7E7E7E7E7E7E7E7E7E7E7E7E7E7E7E7E7E7E7E7E7E7E7
310
E7E7E7E7E7E7E7E7E7E7E7E7E7E7E7E7E7E7E7E7E7E7E7E7E7E7E7E7E7E7E7E7E7E7E7E7E7E7E7E7E7E7E7E7E7E7E7E7E7E7E7E7E7E7E7E7E7E7E7E7E7E7E7E7E7E7E7E7E7E7E7E7E7E7E7E7E7E7E7E7E7E7E7E7E7E7E7E7E7E7E7E7E7E7E7E7E7E7E7E7E7E7E7E7E7E7E7E7E7E7E7E7E7E7E7E7E7E7E7E7E7E7E7E7E7E7E7
310
E7E7E7E7E7E7E7E7E7E7E7E7E7E7E7E7E7E7E7E7E7E7E7E7E7E7E7E7E7E7E7E7E7E7E7E7E7E7E7E7E7E7E7E7E7E7E7E7E7E7E7E7E7E7E7E7E7E7E7E7E7E7E7E7E7E7E7E7E7E7E7E7E7E7E7E7E7E7E7E7E7E7E7E7E7E7E7E7E7E7E7E7E7E7E7E7E7E7E7E7E7E7E7E7E7E7E7E7E7E7E7E7E7E7E7E7E7E7E7E7E7E7E7E7E7E7E7
310
E7E7E7E7E7E7E7E7E7E7E7E7E7E7E7E7E7E7E7E7E7E7E7E7E7E7E7E7E7E7E7E7E7E7E7E7E7E7E7E7E7E7E7E7E7E7E7E7E7E7E7E7E7E7E7E7E7E7E7E7E7E7E7E7E7E7E7E7E7E7E7E7E7E7E7E7E7E7E7E7E7E7E7E7E7E7E7E7E7E7E7E7E7E7E7E7E7E7E7E7E7E7E7E7E7E7E7E7E7E7E7E7E7E7E7E7E7E7E7E7E7E7E7E7E7E7E7
310
E7E7E7E7E7E7E7E7E7E7E7E7E7E7E7E7E7E7E7E7E7E7E7E7E7E7E7E7E7E7E7E7E7E7E7E7E7E7E7E7E7E7E7E7E7E7E7E7E7E7E7E7E7E7E7E7E7E7E7E7E7E7E7E7E7E7E7E7E7E7E7E7E7E7E7E7E7E7E7E7E7E7E7E7E7E7E7E7E7E7E7E7E7E7E7E7E7E7E7E7E7E7E7E7E7E7E7E7E7E7E7E7E7E7E7E7E7E7E7E7E7E7E7E7E7E7E7
310
E7E7E7E7E7E7E7E7E7E7E7E7E7E7E7E7E7E7E7E7E7E7E7E7E7E7E7E7E7E7E7E7E7E7E7E7E7E7E7E7E7E7E7E7E7E7E7E7E7E7E7E7E7E7E7E7E7E7E7E7E7E7E7E7E7E7E7E7E7E7E7E7E7E7E7E7E7E7E7E7E7E7E7E7E7E7E7E7E7E7E7E7E7E7E7E7E7E7E7E7E7E7E7E7E7E7E7E7E7E7E7E7E7E7E7E7E7E7E7E7E7E7E7E7E7E7E7
310
E7E7E7E7E7E7E7E7E7E7E7E7E7E7E7E7E7E7E7E7E7E7E7E7E7E7E7E7E7E7E7E7E7E7E7E7E7E7E7E7E7E7E7E7E7E7E7E7E7E7E7E7E7E7E7E7E7E7E7E7E7E7E7E7E7E7E7E7E7E7E7E7E7E7E7E7E7E7E7E7E7E7E7E7E7E7E7E7E7E7E7E7E7E7E7E7E7E7E7E7E7E7E7E7E7E7E7E7E7E7E7E7E7E7E7E7E7E7E7E7E7E7E7E7E7E7E7
310
E7E7E7E7E7E7E7E7E7E7E7E7E7E7E7E7E7E7E7E7E7E7E7E7E7E7E7E7E7E7E7E7E7E7E7E7E7E7E7E7E7E7E7E7E7E7E7E7E7E7E7E7E7E7E7E7E7E7E7E7E7E7E7E7E7E7E7E7E7E7E7E7E7E7E7E7E7E7E7E7E7E7E7E7E7E7E7E7E7E7E7E7E7E7E7E7E7E7E7E7E7E7E7E7E7E7E7E7E7E7E7E7E7E7E7E7E7E7E7E7E7E7E7E7E7E7E7
310
E7E7E7E7E7E7E7E7E7E7E7E7E7E7E7E7E7E7E7E7E7E7E7E7E7E7E7E7E7E7E7E7E7E7E7E7E7E7E7E7E7E7E7E7E7E7E7E7E7E7E7E7E7E7E7E7E7E7E7E7E7E7E7E7E7E7E7E7E7E7E7E7E7E7E7E7E7E7E7E7E7E7E7E7E7E7E7E7E7E7E7E7E7E7E7E7E7E7E7E7E7E7E7E7E7E7E7E7E7E7E7E7E7E7E7E7E7E7E7E7E7E7E7E7E7E7E7
310
E7E7E7E7E7E7E7E7E7E7E7E7E7E7E7E7E7E7E7E7E7E7E7E7E7E7E7E7E7E7E7E7E7E7E7E7E7E7E7E7E7E7E7E7E7E7E7E7E7E7E7E7E7E7E7E7E7E7E7E7E7E7E7E7E7E7E7E7E7E7E7E7E7E7E7E7E7E7E7E7E7E7E7E7E7E7E7E7E7E7E7E7E7E7E7E7E7E7E7E7E7E7E7E7E7E7E7E7E7E7E7E7E7E7E7E7E7E7E7E7E7E7E7E7E7E7E7
310
E7E7E7E7E7E7E7E7E7E7E7E7E7E7E7E7E7E7E7E7E7E7E7E7E7E7E7E7E7E7E7E7E7E7E7E7E7E7E7E7E7E7E7E7E7E7E7E7E7E7E7E7E7E7E7E7E7E7E7E7E7E7E7E7E7E7E7E7E7E7E7E7E7E7E7E7E7E7E7E7E7E7E7E7E7E7E7E7E7E7E7E7E7E7E7E7E7E7E7E7E7E7E7E7E7E7E7E7E7E7E7E7E7E7E7E7E7E7E7E7E7E7E7E7E7E7E7
310
E7E7E7E7E7E7E7E7E7E7E7E7E7E7E7E7E7E7E7E7E7E7E7E7E7E7E7E7E7E7E7E7E7E7E7E7E7E7E7E7E7E7E7E7E7E7E7E7E7E7E7E7E7E7E7E7E7E7E7E7E7E7E7E7E7E7E7E7E7E7E7E7E7E7E7E7E7E7E7E7E7E7E7E7E7E7E7E7E7E7E7E7E7E7E7E7E7E7E7E7E7E7E7E7E7E7E7E7E7E7E7E7E7E7E7E7E7E7E7E7E7E7E7E7E7E7E7
310
E7E7E7E7E7E7E7E7E7E7E7E7E7E7E7E7E7E7E7E7E7E7E7E7E7E7E7E7E7E7E7E7E7E7E7E7E7E7E7E7E7E7E7E7E7E7E7E7E7E7E7E7E7E7E7E7E7E7E7E7E7E7E7E7E7E7E7E7E7E7E7E7E7E7E7E7E7E7E7E7E7E7E7E7E7E7E7E7E7E7E7E7E7E7E7E7E7E7E7E7E7E7E7E7E7E7E7E7E7E7E7E7E7E7E7E7E7E7E7E7E7E7E7E7E7E7E7
310
E7E7E7E7E7E7E7E7E7E7E7E7E7E7E7E7E7E7E7E7E7E7E7E7E7E7E7E7E7E7E7E7E7E7E7E7E7E7E7E7E7E7E7E7E7E7E7E7E7E7E7E7E7E7E7E7E7E7E7E7E7E7E7E7E7E7E7E7E7E7E7E7E7E7E7E7E7E7E7E7E7E7E7E7E7E7E7E7E7E7E7E7E7E7E7E7E7E7E7E7E7E7E7E7E7E7E7E7E7E7E7E7E7E7E7E7E7E7E7E7E7E7E7E7E7E7E7
310
E7E7E7E7E7E7E7E7E7E7E7E7E7E7E7E7E7E7E7E7E7E7E7E7E7E7E7E7E7E7E7E7E7E7E7E7E7E7E7E7E7E7E7E7E7E7E7E7E7E7E7E7E7E7E7E7E7E7E7E7E7E7E7E7E7E7E7E7E7E7E7E7E7E7E7E7E7E7E7E7E7E7E7E7E7E7E7E7E7E7E7E7E7E7E7E7E7E7E7E7E7E7E7E7E7E7E7E7E7E7E7E7E7E7E7E7E7E7E7E7E7E7E7E7E7E7E7
310
E7E7E7E7E7E7E7E7E7E7E7E7E7E7E7E7E7E7E7E7E7E7E7E7E7E7E7E7E7E7E7E7E7E7E7E7E7E7E7E7E7E7E7E7E7E7E7E7E7E7E7E7E7E7E7E7E7E7E7E7E7E7E7E7E7E7E7E7E7E7E7E7E7E7E7E7E7E7E7E7E7E7E7E7E7E7E7E7E7E7E7E7E7E7E7E7E7E7E7E7E7E7E7E7E7E7E7E7E7E7E7E7E7E7E7E7E7E7E7E7E7E7E7E7E7E7E7
310
E7E7E7E7E7E7E7E7E7E7E7E7E7E7E7E7E7E7E7E7E7E7E7E7E7E7E7E7E7E7E7E7E7E7E7E7E7E7E7E7E7E7E7E7E7E7E7E7E7E7E7E7E7E7E7E7E7E7E7E7E7E7E7E7E7E7E7E7E7E7E7E7E7E7E7E7E7E7E7E7E7E7E7E7E7E7E7E7E7E7E7E7E7E7E7E7E7E7E7E7E7E7E7E7E7E7E7E7E7E7E7E7E7E7E7E7E7E7E7E7E7E7E7E7E7E7E7
310
E7E7E7E7E7E7E7E7E7E7E7E7E7E7E7E7E7E7E7E7E7E7E7E7E7E7E7E7E7E7E7E7E7E7E7E7E7E7E7E7E7E7E7E7E7E7E7E7E7E7E7E7E7E7E7E7E7E7E7E7E7E7E7E7E7E7E7E7E7E7E7E7E7E7E7E7E7E7E7E7E7E7E7E7E7E7E7E7E7E7E7E7E7E7E7E7E7E7E7E7E7E7E7E7E7E7E7E7E7E7E7E7E7E7E7E7E7E7E7E7E7E7E7E7E7E7E7
310
E7E7E7E7E7E7E7E7E7E7E7E7E7E7E7E7E7E7E7E7E7E7E7E7E7E7E7E7E7E7E7E7E7E7E7E7E7E7E7E7E7E7E7E7E7E7E7E7E7E7E7E7E7E7E7E7E7E7E7E7E7E7E7E7E7E7E7E7E7E7E7E7E7E7E7E7E7E7E7E7E7E7E7E7E7E7E7E7E7E7E7E7E7E7E7E7E7E7E7E7E7E7E7E7E7E7E7E7E7E7E7E7E7E7E7E7E7E7E7E7E7E7E7E7E7E7E7
310
E7E7E7E7E7E7E7E7E7E7E7E7E7E7E7E7E7E7E7E7E7E7E7E7E7E7E7E7E7E7E7E7E7E7E7E7E7E7E7E7E7E7E7E7E7E7E7E7E7E7E7E7E7E7E7E7E7E7E7E7E7E7E7E7E7E7E7E7E7E7E7E7E7E7E7E7E7E7E7E7E7E7E7E7E7E7E7E7E7E7E7E7E7E7E7E7E7E7E7E7E7E7E7E7E7E7E7E7E7E7E7E7E7E7E7E7E7E7E7E7E7E7E7E7E7E7E7
310
E7E7E7E7E7E7E7E7E7E7E7E7E7E7E7E7E7E7E7E7E7E7E7E7E7E7E7E7E7E7E7E7E7E7E7E7E7E7E7E7E7E7E7E7E7E7E7E7E7E7E7E7E7E7E7E7E7E7E7E7E7E7E7E7E7E7E7E7E7E7E7E7E7E7E7E7E7E7E7E7E7E7E7E7E7E7E7E7E7E7E7E7E7E7E7E7E7E7E7E7E7E7E7E7E7E7E7E7E7E7E7E7E7E7E7E7E7E7E7E7E7E7E7E7E7E7E7
310
E7E7E7E7E7E7E7E7E7E7E7E7E7E7E7E7E7E7E7E7E7E7E7E7E7E7E7E7E7E7E7E7E7E7E7E7E7E7E7E7E7E7E7E7E7E7E7E7E7E7E7E7E7E7E7E7E7E7E7E7E7E7E7E7E7E7E7E7E7E7E7E7E7E7E7E7E7E7E7E7E7E7E7E7E7E7E7E7E7E7E7E7E7E7E7E7E7E7E7E7E7E7E7E7E7E7E7E7E7E7E7E7E7E7E7E7E7E7E7E7E7E7E7E7E7E7E7
310
E7E7E7E7E7E7E7E7E7E7E7E7E7E7E7E7E7E7E7E7E7E7E7E7E7E7E7E7E7E7E7E7E7E7E7E7E7E7E7E7E7E7E7E7E7E7E7E7E7E7E7E7E7E7E7E7E7E7E7E7E7E7E7E7E7E7E7E7E7E7E7E7E7E7E7E7E7E7E7E7E7E7E7E7E7E7E7E7E7E7E7E7E7E7E7E7E7E7E7E7E7E7E7E7E7E7E7E7E7E7E7E7E7E7E7E7E7E7E7E7E7E7E7E7E7E7E7
310
E7E7E7E7E7E7E7E7E7E7E7E7E7E7E7E7E7E7E7E7E7E7E7E7E7E7E7E7E7E7E7E7E7E7E7E7E7E7E7E7E7E7E7E7E7E7E7E7E7E7E7E7E7E7E7E7E7E7E7E7E7E7E7E7E7E7E7E7E7E7E7E7E7E7E7E7E7E7E7E7E7E7E7E7E7E7E7E7E7E7E7E7E7E7E7E7E7E7E7E7E7E7E7E7E7E7E7E7E7E7E7E7E7E7E7E7E7E7E7E7E7E7E7E7E7E7E7
310
E7E7E7E7E7E7E7E7E7E7E7E7E7E7E7E7E7E7E7E7E7E7E7E7E7E7E7E7E7E7E7E7E7E7E7E7E7E7E7E7E7E7E7E7E7E7E7E7E7E7E7E7E7E7E7E7E7E7E7E7E7E7E7E7E7E7E7E7E7E7E7E7E7E7E7E7E7E7E7E7E7E7E7E7E7E7E7E7E7E7E7E7E7E7E7E7E7E7E7E7E7E7E7E7E7E7E7E7E7E7E7E7E7E7E7E7E7E7E7E7E7E7E7E7E7E7E7
310
E7E7E7E7E7E7E7E7E7E7E7E7E7E7E7E7E7E7E7E7E7E7E7E7E7E7E7E7E7E7E7E7E7E7E7E7E7E7E7E7E7E7E7E7E7E7E7E7E7E7E7E7E7E7E7E7E7E7E7E7E7E7E7E7E7E7E7E7E7E7E7E7E7E7E7E7E7E7E7E7E7E7E7E7E7E7E7E7E7E7E7E7E7E7E7E7E7E7E7E7E7E7E7E7E7E7E7E7E7E7E7E7E7E7E7E7E7E7E7E7E7E7E7E7E7E7E7
310
E7E7E7E7E7E7E7E7E7E7E7E7E7E7E7E7E7E7E7E7E7E7E7E7E7E7E7E7E7E7E7E7E7E7E7E7E7E7E7E7E7E7E7E7E7E7E7E7E7E7E7E7E7E7E7E7E7E7E7E7E7E7E7E7E7E7E7E7E7E7E7E7E7E7E7E7E7E7E7E7E7E7E7E7E7E7E7E7E7E7E7E7E7E7E7E7E7E7E7E7E7E7E7E7E7E7E7E7E7E7E7E7E7E7E7E7E7E7E7E7E7E7E7E7E7E7E7
310
E7E7E7E7E7E7E7E7E7E7E7E7E7E7E7E7E7E7E7E7E7E7E7E7E7E7E7E7E7E7E7E7E7E7E7E7E7E7E7E7E7E7E7E7E7E7E7E7E7E7E7E7E7E7E7E7E7E7E7E7E7E7E7E7E7E7E7E7E7E7E7E7E7E7E7E7E7E7E7E7E7E7E7E7E7E7E7E7E7E7E7E7E7E7E7E7E7E7E7E7E7E7E7E7E7E7E7E7E7E7E7E7E7E7E7E7E7E7E7E7E7E7E7E7E7E7E7
310
E7E7E7E7E7E7E7E7E7E7E7E7E7E7E7E7E7E7E7E7E7E7E7E7E7E7E7E7E7E7E7E7E7E7E7E7E7E7E7E7E7E7E7E7E7E7E7E7E7E7E7E7E7E7E7E7E7E7E7E7E7E7E7E7E7E7E7E7E7E7E7E7E7E7E7E7E7E7E7E7E7E7E7E7E7E7E7E7E7E7E7E7E7E7E7E7E7E7E7E7E7E7E7E7E7E7E7E7E7E7E7E7E7E7E7E7E7E7E7E7E7E7E7E7E7E7E7
310
E7E7E7E7E7E7E7E7E7E7E7E7E7E7E7E7E7E7E7E7E7E7E7E7E7E7E7E7E7E7E7E7E7E7E7E7E7E7E7E7E7E7E7E7E7E7E7E7E7E7E7E7E7E7E7E7E7E7E7E7E7E7E7E7E7E7E7E7E7E7E7E7E7E7E7E7E7E7E7E7E7E7E7E7E7E7E7E7E7E7E7E7E7E7E7E7E7E7E7E7E7E7E7E7E7E7E7E7E7E7E7E7E7E7E7E7E7E7E7E7E7E7E7E7E7E7E7
310
E7E7E7E7E7E7E7E7E7E7E7E7E7E7E7E7E7E7E7E7E7E7E7E7E7E7E7E7E7E7E7E7E7E7E7E7E7E7E7E7E7E7E7E7E7E7E7E7E7E7E7E7E7E7E7E7E7E7E7E7E7E7E7E7E7E7E7E7E7E7E7E7E7E7E7E7E7E7E7E7E7E7E7E7E7E7E7E7E7E7E7E7E7E7E7E7E7E7E7E7E7E7E7E7E7E7E7E7E7E7E7E7E7E7E7E7E7E7E7E7E7E7E7E7E7E7E7
310
E7E7E7E7E7E7E7E7E7E7E7E7E7E7E7E7E7E7E7E7E7E7E7E7E7E7E7E7E7E7E7E7E7E7E7E7E7E7E7E7E7E7E7E7E7E7E7E7E7E7E7E7E7E7E7E7E7E7E7E7E7E7E7E7E7E7E7E7E7E7E7E7E7E7E7E7E7E7E7E7E7E7E7E7E7E7E7E7E7E7E7E7E7E7E7E7E7E7E7E7E7E7E7E7E7E7E7E7E7E7E7E7E7E7E7E7E7E7E7E7E7E7E7E7E7E7E7
310
E7E7E7E7E7E7E7E7E7E7E7E7E7E7E7E7E7E7E7E7E7E7E7E7E7E7E7E7E7E7E7E7E7E7E7E7E7E7E7E7E7E7E7E7E7E7E7E7E7E7E7E7E7E7E7E7E7E7E7E7E7E7E7E7E7E7E7E7E7E7E7E7E7E7E7E7E7E7E7E7E7E7E7E7E7E7E7E7E7E7E7E7E7E7E7E7E7E7E7E7E7E7E7E7E7E7E7E7E7E7E7E7E7E7E7E7E7E7E7E7E7E7E7E7E7E7E7
310
E7E7E7E7E7E7E7E7E7E7E7E7E7E7E7E7E7E7E7E7E7E7E7E7E7E7E7E7E7E7E7E7E7E7E7E7E7E7E7E7E7E7E7E7E7E7E7E7E7E7E7E7E7E7E7E7E7E7E7E7E7E7E7E7E7E7E7E7E7E7E7E7E7E7E7E7E7E7E7E7E7E7E7E7E7E7E7E7E7E7E7E7E7E7E7E7E7E7E7E7E7E7E7E7E7E7E7E7E7E7E7E7E7E7E7E7E7E7E7E7E7E7E7E7E7E7E7
310
E7E7E7E7E7E7E7E7E7E7E7E7E7E7E7E7E7E7E7E7E7E7E7E7E7E7E7E7E7E7E7E7E7E7E7E7E7E7E7E7E7E7E7E7E7E7E7E7E7E7E7E7E7E7E7E7E7E7E7E7E7E7E7E7E7E7E7E7E7E7E7E7E7E7E7E7E7E7E7E7E7E7E7E7E7E7E7E7E7E7E7E7E7E7E7E7E7E7E7E7E7E7E7E7E7E7E7E7E7E7E7E7E7E7E7E7E7E7E7E7E7E7E7E7E7E7E7
310
E7E7E7E7E7E7E7E7E7E7E7E7E7E7E7E7E7E7E7E7E7E7E7E7E7E7E7E7E7E7E7E7E7E7E7E7E7E7E7E7E7E7E7E7E7E7E7E7E7E7E7E7E7E7E7E7E7E7E7E7E7E7E7E7E7E7E7E7E7E7E7E7E7E7E7E7E7E7E7E7E7E7E7E7E7E7E7E7E7E7E7E7E7E7E7E7E7E7E7E7E7E7E7E7E7E7E7E7E7E7E7E7E7E7E7E7E7E7E7E7E7E7E7E7E7E7E7
310
E7E7E7E7E7E7E7E7E7E7E7E7E7E7E7E7E7E7E7E7E7E7E7E7E7E7E7E7E7E7E7E7E7E7E7E7E7E7E7E7E7E7E7E7E7E7E7E7E7E7E7E7E7E7E7E7E7E7E7E7E7E7E7E7E7E7E7E7E7E7E7E7E7E7E7E7E7E7E7E7E7E7E7E7E7E7E7E7E7E7E7E7E7E7E7E7E7E7E7E7E7E7E7E7E7E7E7E7E7E7E7E7E7E7E7E7E7E7E7E7E7E7E7E7E7E7E7
310
E7E7E7E7E7E7E7E7E7E7E7E7E7E7E7E7E7E7E7E7E7E7E7E7E7E7E7E7E7E7E7E7E7E7E7E7E7E7E7E7E7E7E7E7E7E7E7E7E7E7E7E7E7E7E7E7E7E7E7E7E7E7E7E7E7E7E7E7E7E7E7E7E7E7E7E7E7E7E7E7E7E7E7E7E7E7E7E7E7E7E7E7E7E7E7E7E7E7E7E7E7E7E7E7E7E7E7E7E7E7E7E7E7E7E7E7E7E7E7E7E7E7E7E7E7E7E7
310
E7E7E7E7E7E7E7E7E7E7E7E7E7E7E7E7E7E7E7E7E7E7E7E7E7E7E7E7E7E7E7E7E7E7E7E7E7E7E7E7E7E7E7E7E7E7E7E7E7E7E7E7E7E7E7E7E7E7E7E7E7E7E7E7E7E7E7E7E7E7E7E7E7E7E7E7E7E7E7E7E7E7E7E7E7E7E7E7E7E7E7E7E7E7E7E7E7E7E7E7E7E7E7E7E7E7E7E7E7E7E7E7E7E7E7E7E7E7E7E7E7E7E7E7E7E7E7
310
E7E7E7E7E7E7E7E7E7E7E7E7E7E7E7E7E7E7E7E7E7E7E7E7E7E7E7E7E7E7E7E7E7E7E7E7E7E7E7E7E7E7E7E7E7E7E7E7E7E7E7E7E7E7E7E7E7E7E7E7E7E7E7E7E7E7E7E7E7E7E7E7E7E7E7E7E7E7E7E7E7E7E7E7E7E7E7E7E7E7E7E7E7E7E7E7E7E7E7E7E7E7E7E7E7E7E7E7E7E7E7E7E7E7E7E7E7E7E7E7E7E7E7E7E7E7E7
310
E7E7E7E7E7E7E7E7E7E7E7E7E7E7E7E7E7E7E7E7E7E7E7E7E7E7E7E7E7E7E7E7E7E7E7E7E7E7E7E7E7E7E7E7E7E7E7E7E7E7E7E7E7E7E7E7E7E7E7E7E7E7E7E7E7E7E7E7E7E7E7E7E7E7E7E7E7E7E7E7E7E7E7E7E7E7E7E7E7E7E7E7E7E7E7E7E7E7E7E7E7E7E7E7E7E7E7E7E7E7E7E7E7E7E7E7E7E7E7E7E7E7E7E7E7E7E7
310
E7E7E7E7E7E7E7E7E7E7E7E7E7E7E7E7E7E7E7E7E7E7E7E7E7E7E7E7E7E7E7E7E7E7E7E7E7E7E7E7E7E7E7E7E7E7E7E7E7E7E7E7E7E7E7E7E7E7E7E7E7E7E7E7E7E7E7E7E7E7E7E7E7E7E7E7E7E7E7E7E7E7E7E7E7E7E7E7E7E7E7E7E7E7E7E7E7E7E7E7E7E7E7E7E7E7E7E7E7E7E7E7E7E7E7E7E7E7E7E7E7E7E7E7E7E7E7
310
E7E7E7E7E7E7E7E7E7E7E7E7E7E7E7E7E7E7E7E7E7E7E7E7E7E7E7E7E7E7E7E7E7E7E7E7E7E7E7E7E7E7E7E7E7E7E7E7E7E7E7E7E7E7E7E7E7E7E7E7E7E7E7E7E7E7E7E7E7E7E7E7E7E7E7E7E7E7E7E7E7E7E7E7E7E7E7E7E7E7E7E7E7E7E7E7E7E7E7E7E7E7E7E7E7E7E7E7E7E7E7E7E7E7E7E7E7E7E7E7E7E7E7E7E7E7E7
310
E7E7E7E7E7E7E7E7E7E7E7E7E7E7E7E7E7E7E7E7E7E7E7E7E7E7E7E7E7E7E7E7E7E7E7E7E7E7E7E7E7E7E7E7E7E7E7E7E7E7E7E7E7E7E7E7E7E7E7E7E7E7E7E7E7E7E7E7E7E7E7E7E7E7E7E7E7E7E7E7E7E7E7E7E7E7E7E7E7E7E7E7E7E7E7E7E7E7E7E7E7E7E7E7E7E7E7E7E7E7E7E7E7E7E7E7E7E7E7E7E7E7E7E7E7E7E7
310
E7E7E7E7E7E7E7E7E7E7E7E7E7E7E7E7E7E7E7E7E7E7E7E7E7E7E7E7E7E7E7E7E7E7E7E7E7E7E7E7E7E7E7E7E7E7E7E7E7E7E7E7E7E7E7E7E7E7E7E7E7E7E7E7E7E7E7E7E7E7E7E7E7E7E7E7E7E7E7E7E7E7E7E7E7E7E7E7E7E7E7E7E7E7E7E7E7E7E7E7E7E7E7E7E7E7E7E7E7E7E7E7E7E7E7E7E7E7E7E7E7E7E7E7E7E7E7
310
E7E7E7E7E7E7E7E7E7E7E7E7E7E7E7E7E7E7E7E7E7E7E7E7E7E7E7E7E7E7E7E7E7E7E7E7E7E7E7E7E7E7E7E7E7E7E7E7E7E7E7E7E7E7E7E7E7E7E7E7E7E7E7E7E7E7E7E7E7E7E7E7E7E7E7E7E7E7E7E7E7E7E7E7E7E7E7E7E7E7E7E7E7E7E7E7E7E7E7E7E7E7E7E7E7E7E7E7E7E7E7E7E7E7E7E7E7E7E7E7E7E7E7E7E7E7E7
310
E7E7E7E7E7E7E7E7E7E7E7E7E7E7E7E7E7E7E7E7E7E7E7E7E7E7E7E7E7E7E7E7E7E7E7E7E7E7E7E7E7E7E7E7E7E7E7E7E7E7E7E7E7E7E7E7E7E7E7E7E7E7E7E7E7E7E7E7E7E7E7E7E7E7E7E7E7E7E7E7E7E7E7E7E7E7E7E7E7E7E7E7E7E7E7E7E7E7E7E7E7E7E7E7E7E7E7E7E7E7E7E7E7E7E7E7E7E7E7E7E7E7E7E7E7E7E7
310
E7E7E7E7E7E7E7E7E7E7E7E7E7E7E7E7E7E7E7E7E7E7E7E7E7E7E7E7E7E7E7E7E7E7E7E7E7E7E7E7E7E7E7E7E7E7E7E7E7E7E7E7E7E7E7E7E7E7E7E7E7E7E7E7E7E7E7E7E7E7E7E7E7E7E7E7E7E7E7E7E7E7E7E7E7E7E7E7E7E7E7E7E7E7E7E7E7E7E7E7E7E7E7E7E7E7E7E7E7E7E7E7E7E7E7E7E7E7E7E7E7E7E7E7E7E7E7
310
E7E7E7E7E7E7E7E7E7E7E7E7E7E7E7E7E7E7E7E7E7E7E7E7E7E7E7E7E7E7E7E7E7E7E7E7E7E7E7E7E7E7E7E7E7E7E7E7E7E7E7E7E7E7E7E7E7E7E7E7E7E7E7E7E7E7E7E7E7E7E7E7E7E7E7E7E7E7E7E7E7E7E7E7E7E7E7E7E7E7E7E7E7E7E7E7E7E7E7E7E7E7E7E7E7E7E7E7E7E7E7E7E7E7E7E7E7E7E7E7E7E7E7E7E7E7E7
310
E7E7E7E7E7E7E7E7E7E7E7E7E7E7E7E7E7E7E7E7E7E7E7E7E7E7E7E7E7E7E7E7E7E7E7E7E7E7E7E7E7E7E7E7E7E7E7E7E7E7E7E7E7E7E7E7E7E7E7E7E7E7E7E7E7E7E7E7E7E7E7E7E7E7E7E7E7E7E7E7E7E7E7E7E7E7E7E7E7E7E7E7E7E7E7E7E7E7E7E7E7E7E7E7E7E7E7E7E7E7E7E7E7E7E7E7E7E7E7E7E7E7E7E7E7E7E7
310
E7E7E7E7E7E7E7E7E7E7E7E7E7E7E7E7E7E7E7E7E7E7E7E7E7E7E7E7E7E7E7E7E7E7E7E7E7E7E7E7E7E7E7E7E7E7E7E7E7E7E7E7E7E7E7E7E7E7E7E7E7E7E7E7E7E7E7E7E7E7E7E7E7E7E7E7E7E7E7E7E7E7E7E7E7E7E7E7E7E7E7E7E7E7E7E7E7E7E7E7E7E7E7E7E7E7E7E7E7E7E7E7E7E7E7E7E7E7E7E7E7E7E7E7E7E7E7
310
E7E7E7E7E7E7E7E7E7E7E7E7E7E7E7E7E7E7E7E7E7E7E7E7E7E7E7E7E7E7E7E7E7E7E7E7E7E7E7E7E7E7E7E7E7E7E7E7E7E7E7E7E7E7E7E7E7E7E7E7E7E7E7E7E7E7E7E7E7E7E7E7E7E7E7E7E7E7E7E7E7E7E7E7E7E7E7E7E7E7E7E7E7E7E7E7E7E7E7E7E7E7E7E7E7E7E7E7E7E7E7E7E7E7E7E7E7E7E7E7E7E7E7E7E7E7E7
310
E7E7E7E7E7E7E7E7E7E7E7E7E7E7E7E7E7E7E7E7E7E7E7E7E7E7E7E7E7E7E7E7E7E7E7E7E7E7E7E7E7E7E7E7E7E7E7E7E7E7E7E7E7E7E7E7E7E7E7E7E7E7E7E7E7E7E7E7E7E7E7E7E7E7E7E7E7E7E7E7E7E7E7E7E7E7E7E7E7E7E7E7E7E7E7E7E7E7E7E7E7E7E7E7E7E7E7E7E7E7E7E7E7E7E7E7E7E7E7E7E7E7E7E7E7E7E7
310
E7E7E7E7E7E7E7E7E7E7E7E7E7E7E7E7E7E7E7E7E7E7E7E7E7E7E7E7E7E7E7E7E7E7E7E7E7E7E7E7E7E7E7E7E7E7E7E7E7E7E7E7E7E7E7E7E7E7E7E7E7E7E7E7E7E7E7E7E7E7E7E7E7E7E7E7E7E7E7E7E7E7E7E7E7E7E7E7E7E7E7E7E7E7E7E7E7E7E7E7E7E7E7E7E7E7E7E7E7E7E7E7E7E7E7E7E7E7E7E7E7E7E7E7E7E7E7
310
E7E7E7E7E7E7E7E7E7E7E7E7E7E7E7E7E7E7E7E7E7E7E7E7E7E7E7E7E7E7E7E7E7E7E7E7E7E7E7E7E7E7E7E7E7E7E7E7E7E7E7E7E7E7E7E7E7E7E7E7E7E7E7E7E7E7E7E7E7E7E7E7E7E7E7E7E7E7E7E7E7E7E7E7E7E7E7E7E7E7E7E7E7E7E7E7E7E7E7E7E7E7E7E7E7E7E7E7E7E7E7E7E7E7E7E7E7E7E7E7E7E7E7E7E7E7E7
310
E7E7E7E7E7E7E7E7E7E7E7E7E7E7E7E7E7E7E7E7E7E7E7E7E7E7E7E7E7E7E7E7E7E7E7E7E7E7E7E7E7E7E7E7E7E7E7E7E7E7E7E7E7E7E7E7E7E7E7E7E7E7E7E7E7E7E7E7E7E7E7E7E7E7E7E7E7E7E7E7E7E7E7E7E7E7E7E7E7E7E7E7E7E7E7E7E7E7E7E7E7E7E7E7E7E7E7E7E7E7E7E7E7E7E7E7E7E7E7E7E7E7E7E7E7E7E7
310
E7E7E7E7E7E7E7E7E7E7E7E7E7E7E7E7E7E7E7E7E7E7E7E7E7E7E7E7E7E7E7E7E7E7E7E7E7E7E7E7E7E7E7E7E7E7E7E7E7E7E7E7E7E7E7E7E7E7E7E7E7E7E7E7E7E7E7E7E7E7E7E7E7E7E7E7E7E7E7E7E7E7E7E7E7E7E7E7E7E7E7E7E7E7E7E7E7E7E7E7E7E7E7E7E7E7E7E7E7E7E7E7E7E7E7E7E7E7E7E7E7E7E7E7E7E7E7
310
E7E7E7E7E7E7E7E7E7E7E7E7E7E7E7E7E7E7E7E7E7E7E7E7E7E7E7E7E7E7E7E7E7E7E7E7E7E7E7E7E7E7E7E7E7E7E7E7E7E7E7E7E7E7E7E7E7E7E7E7E7E7E7E7E7E7E7E7E7E7E7E7E7E7E7E7E7E7E7E7E7E7E7E7E7E7E7E7E7E7E7E7E7E7E7E7E7E7E7E7E7E7E7E7E7E7E7E7E7E7E7E7E7E7E7E7E7E7E7E7E7E7E7E7E7E7E7
310
E7E7E7E7E7E7E7E7E7E7E7E7E7E7E7E7E7E7E7E7E7E7E7E7E7E7E7E7E7E7E7E7E7E7E7E7E7E7E7E7E7E7E7E7E7E7E7E7E7E7E7E7E7E7E7E7E7E7E7E7E7E7E7E7E7E7E7E7E7E7E7E7E7E7E7E7E7E7E7E7E7E7E7E7E7E7E7E7E7E7E7E7E7E7E7E7E7E7E7E7E7E7E7E7E7E7E7E7E7E7E7E7E7E7E7E7E7E7E7E7E7E7E7E7E7E7E7
310
E7E7E7E7E7E7E7E7E7E7E7E7E7E7E7E7E7E7E7E7E7E7E7E7E7E7E7E7E7E7E7E7E7E7E7E7E7E7E7E7E7E7E7E7E7E7E7E7E7E7E7E7E7E7E7E7E7E7E7E7E7E7E7E7E7E7E7E7E7E7E7E7E7E7E7E7E7E7E7E7E7E7E7E7E7E7E7E7E7E7E7E7E7E7E7E7E7E7E7E7E7E7E7E7E7E7E7E7E7E7E7E7E7E7E7E7E7E7E7E7E7E7E7E7E7E7E7
310
E7E7E7E7E7E7E7E7E7E7E7E7E7E7E7E7E7E7E7E7E7E7E7E7E7E7E7E7E7E7E7E7E7E7E7E7E7E7E7E7E7E7E7E7E7E7E7E7E7E7E7E7E7E7E7E7E7E7E7E7E7E7E7E7E7E7E7E7E7E7E7E7E7E7E7E7E7E7E7E7E7E7E7E7E7E7E7E7E7E7E7E7E7E7E7E7E7E7E7E7E7E7E7E7E7E7E7E7E7E7E7E7E7E7E7E7E7E7E7E7E7E7E7E7E7E7E7
310
E7E7E7E7E7E7E7E7E7E7E7E7E7E7E7E7E7E7E7E7E7E7E7E7E7E7E7E7E7E7E7E7E7E7E7E7E7E7E7E7E7E7E7E7E7E7E7E7E7E7E7E7E7E7E7E7E7E7E7E7E7E7E7E7E7E7E7E7E7E7E7E7E7E7E7E7E7E7E7E7E7E7E7E7E7E7E7E7E7E7E7E7E7E7E7E7E7E7E7E7E7E7E7E7E7E7E7E7E7E7E7E7E7E7E7E7E7E7E7E7E7E7E7E7E7E7E7
310
E7E7E7E7E7E7E7E7E7E7E7E7E7E7E7E7E7E7E7E7E7E7E7E7E7E7E7E7E7E7E7E7E7E7E7E7E7E7E7E7E7E7E7E7E7E7E7E7E7E7E7E7E7E7E7E7E7E7E7E7E7E7E7E7E7E7E7E7E7E7E7E7E7E7E7E7E7E7E7E7E7E7E7E7E7E7E7E7E7E7E7E7E7E7E7E7E7E7E7E7E7E7E7E7E7E7E7E7E7E7E7E7E7E7E7E7E7E7E7E7E7E7E7E7E7E7E7
310
E7E7E7E7E7E7E7E7E7E7E7E7E7E7E7E7E7E7E7E7E7E7E7E7E7E7E7E7E7E7E7E7E7E7E7E7E7E7E7E7E7E7E7E7E7E7E7E7E7E7E7E7E7E7E7E7E7E7E7E7E7E7E7E7E7E7E7E7E7E7E7E7E7E7E7E7E7E7E7E7E7E7E7E7E7E7E7E7E7E7E7E7E7E7E7E7E7E7E7E7E7E7E7E7E7E7E7E7E7E7E7E7E7E7E7E7E7E7E7E7E7E7E7E7E7E7E7
310
E7E7E7E7E7E7E7E7E7E7E7E7E7E7E7E7E7E7E7E7E7E7E7E7E7E7E7E7E7E7E7E7E7E7E7E7E7E7E7E7E7E7E7E7E7E7E7E7E7E7E7E7E7E7E7E7E7E7E7E7E7E7E7E7E7E7E7E7E7E7E7E7E7E7E7E7E7E7E7E7E7E7E7E7E7E7E7E7E7E7E7E7E7E7E7E7E7E7E7E7E7E7E7E7E7E7E7E7E7E7E7E7E7E7E7E7E7E7E7E7E7E7E7E7E7E7E7
310
E7E7E7E7E7E7E7E7E7E7E7E7E7E7E7E7E7E7E7E7E7E7E7E7E7E7E7E7E7E7E7E7E7E7E7E7E7E7E7E7E7E7E7E7E7E7E7E7E7E7E7E7E7E7E7E7E7E7E7E7E7E7E7E7E7E7E7E7E7E7E7E7E7E7E7E7E7E7E7E7E7E7E7E7E7E7E7E7E7E7E7E7E7E7E7E7E7E7E7E7E7E7E7E7E7E7E7E7E7E7E7E7E7E7E7E7E7E7E7E7E7E7E7E7E7E7E7
310
E7E7E7E7E7E7E7E7E7E7E7E7E7E7E7E7E7E7E7E7E7E7E7E7E7E7E7E7E7E7E7E7E7E7E7E7E7E7E7E7E7E7E7E7E7E7E7E7E7E7E7E7E7E7E7E7E7E7E7E7E7E7E7E7E7E7E7E7E7E7E7E7E7E7E7E7E7E7E7E7E7E7E7E7E7E7E7E7E7E7E7E7E7E7E7E7E7E7E7E7E7E7E7E7E7E7E7E7E7E7E7E7E7E7E7E7E7E7E7E7E7E7E7E7E7E7E7
310
E7E7E7E7E7E7E7E7E7E7E7E7E7E7E7E7E7E7E7E7E7E7E7E7E7E7E7E7E7E7E7E7E7E7E7E7E7E7E7E7E7E7E7E7E7E7E7E7E7E7E7E7E7E7E7E7E7E7E7E7E7E7E7E7E7E7E7E7E7E7E7E7E7E7E7E7E7E7E7E7E7E7E7E7E7E7E7E7E7E7E7E7E7E7E7E7E7E7E7E7E7E7E7E7E7E7E7E7E7E7E7E7E7E7E7E7E7E7E7E7E7E7E7E7E7E7E7
310
E7E7E7E7E7E7E7E7E7E7E7E7E7E7E7E7E7E7E7E7E7E7E7E7E7E7E7E7E7E7E7E7E7E7E7E7E7E7E7E7E7E7E7E7E7E7E7E7E7E7E7E7E7E7E7E7E7E7E7E7E7E7E7E7E7E7E7E7E7E7E7E7E7E7E7E7E7E7E7E7E7E7E7E7E7E7E7E7E7E7E7E7E7E7E7E7E7E7E7E7E7E7E7E7E7E7E7E7E7E7E7E7E7E7E7E7E7E7E7E7E7E7E7E7E7E7E7
310
E7E7E7E7E7E7E7E7E7E7E7E7E7E7E7E7E7E7E7E7E7E7E7E7E7E7E7E7E7E7E7E7E7E7E7E7E7E7E7E7E7E7E7E7E7E7E7E7E7E7E7E7E7E7E7E7E7E7E7E7E7E7E7E7E7E7E7E7E7E7E7E7E7E7E7E7E7E7E7E7E7E7E7E7E7E7E7E7E7E7E7E7E7E7E7E7E7E7E7E7E7E7E7E7E7E7E7E7E7E7E7E7E7E7E7E7E7E7E7E7E7E7E7E7E7E7E7
310
E7E7E7E7E7E7E7E7E7E7E7E7E7E7E7E7E7E7E7E7E7E7E7E7E7E7E7E7E7E7E7E7E7E7E7E7E7E7E7E7E7E7E7E7E7E7E7E7E7E7E7E7E7E7E7E7E7E7E7E7E7E7E7E7E7E7E7E7E7E7E7E7E7E7E7E7E7E7E7E7E7E7E7E7E7E7E7E7E7E7E7E7E7E7E7E7E7E7E7E7E7E7E7E7E7E7E7E7E7E7E7E7E7E7E7E7E7E7E7E7E7E7E7E7E7E7E7
310
E7E7E7E7E7E7E7E7E7E7E7E7E7E7E7E7E7E7E7E7E7E7E7E7E7E7E7E7E7E7E7E7E7E7E7E7E7E7E7E7E7E7E7E7E7E7E7E7E7E7E7E7E7E7E7E7E7E7E7E7E7E7E7E7E7E7E7E7E7E7E7E7E7E7E7E7E7E7E7E7E7E7E7E7E7E7E7E7E7E7E7E7E7E7E7E7E7E7E7E7E7E7E7E7E7E7E7E7E7E7E7E7E7E7E7E7E7E7E7E7E7E7E7E7E7E7E7
310
E7E7E7E7E7E7E7E7E7E7E7E7E7E7E7E7E7E7E7E7E7E7E7E7E7E7E7E7E7E7E7E7E7E7E7E7E7E7E7E7E7E7E7E7E7E7E7E7E7E7E7E7E7E7E7E7E7E7E7E7E7E7E7E7E7E7E7E7E7E7E7E7E7E7E7E7E7E7E7E7E7E7E7E7E7E7E7E7E7E7E7E7E7E7E7E7E7E7E7E7E7E7E7E7E7E7E7E7E7E7E7E7E7E7E7E7E7E7E7E7E7E7E7E7E7E7E7
310
E7E7E7E7E7E7E7E7E7E7E7E7E7E7E7E7E7E7E7E7E7E7E7E7E7E7E7E7E7E7E7E7E7E7E7E7E7E7E7E7E7E7E7E7E7E7E7E7E7E7E7E7E7E7E7E7E7E7E7E7E7E7E7E7E7E7E7E7E7E7E7E7E7E7E7E7E7E7E7E7E7E7E7E7E7E7E7E7E7E7E7E7E7E7E7E7E7E7E7E7E7E7E7E7E7E7E7E7E7E7E7E7E7E7E7E7E7E7E7E7E7E7E7E7E7E7E7
310
E7E7E7E7E7E7E7E7E7E7E7E7E7E7E7E7E7E7E7E7E7E7E7E7E7E7E7E7E7E7E7E7E7E7E7E7E7E7E7E7E7E7E7E7E7E7E7E7E7E7E7E7E7E7E7E7E7E7E7E7E7E7E7E7E7E7E7E7E7E7E7E7E7E7E7E7E7E7E7E7E7E7E7E7E7E7E7E7E7E7E7E7E7E7E7E7E7E7E7E7E7E7E7E7E7E7E7E7E7E7E7E7E7E7E7E7E7E7E7E7E7E7E7E7E7E7E7
310
E7E7E7E7E7E7E7E7E7E7E7E7E7E7E7E7E7E7E7E7E7E7E7E7E7E7E7E7E7E7E7E7E7E7E7E7E7E7E7E7E7E7E7E7E7E7E7E7E7E7E7E7E7E7E7E7E7E7E7E7E7E7E7E7E7E7E7E7E7E7E7E7E7E7E7E7E7E7E7E7E7E7E7E7E7E7E7E7E7E7E7E7E7E7E7E7E7E7E7E7E7E7E7E7E7E7E7E7E7E7E7E7E7E7E7E7E7E7E7E7E7E7E7E7E7E7E7
310
E7E7E7E7E7E7E7E7E7E7E7E7E7E7E7E7E7E7E7E7E7E7E7E7E7E7E7E7E7E7E7E7E7E7E7E7E7E7E7E7E7E7E7E7E7E7E7E7E7E7E7E7E7E7E7E7E7E7E7E7E7E7E7E7E7E7E7E7E7E7E7E7E7E7E7E7E7E7E7E7E7E7E7E7E7E7E7E7E7E7E7E7E7E7E7E7E7E7E7E7E7E7E7E7E7E7E7E7E7E7E7E7E7E7E7E7E7E7E7E7E7E7E7E7E7E7E7
310
E7E7E7E7E7E7E7E7E7E7E7E7E7E7E7E7E7E7E7E7E7E7E7E7E7E7E7E7E7E7E7E7E7E7E7E7E7E7E7E7E7E7E7E7E7E7E7E7E7E7E7E7E7E7E7E7E7E7E7E7E7E7E7E7E7E7E7E7E7E7E7E7E7E7E7E7E7E7E7E7E7E7E7E7E7E7E7E7E7E7E7E7E7E7E7E7E7E7E7E7E7E7E7E7E7E7E7E7E7E7E7E7E7E7E7E7E7E7E7E7E7E7E7E7E7E7E7
310
E7E7E7E7E7E7E7E7E7E7E7E7E7E7E7E7E7E7E7E7E7E7E7E7E7E7E7E7E7E7E7E7E7E7E7E7E7E7E7E7E7E7E7E7E7E7E7E7E7E7E7E7E7E7E7E7E7E7E7E7E7E7E7E7E7E7E7E7E7E7E7E7E7E7E7E7E7E7E7E7E7E7E7E7E7E7E7E7E7E7E7E7E7E7E7E7E7E7E7E7E7E7E7E7E7E7E7E7E7E7E7E7E7E7E7E7E7E7E7E7E7E7E7E7E7E7E7
310
E7E7E7E7E7E7E7E7E7E7E7E7E7E7E7E7E7E7E7E7E7E7E7E7E7E7E7E7E7E7E7E7E7E7E7E7E7E7E7E7E7E7E7E7E7E7E7E7E7E7E7E7E7E7E7E7E7E7E7E7E7E7E7E7E7E7E7E7E7E7E7E7E7E7E7E7E7E7E7E7E7E7E7E7E7E7E7E7E7E7E7E7E7E7E7E7E7E7E7E7E7E7E7E7E7E7E7E7E7E7E7E7E7E7E7E7E7E7E7E7E7E7E7E7E7E7E7
310
E7E7E7E7E7E7E7E7E7E7E7E7E7E7E7E7E7E7E7E7E7E7E7E7E7E7E7E7E7E7E7E7E7E7E7E7E7E7E7E7E7E7E7E7E7E7E7E7E7E7E7E7E7E7E7E7E7E7E7E7E7E7E7E7E7E7E7E7E7E7E7E7E7E7E7E7E7E7E7E7E7E7E7E7E7E7E7E7E7E7E7E7E7E7E7E7E7E7E7E7E7E7E7E7E7E7E7E7E7E7E7E7E7E7E7E7E7E7E7E7E7E7E7E7E7E7E7
310
E7E7E7E7E7E7E7E7E7E7E7E7E7E7E7E7E7E7E7E7E7E7E7E7E7E7E7E7E7E7E7E7E7E7E7E7E7E7E7E7E7E7E7E7E7E7E7E7E7E7E7E7E7E7E7E7E7E7E7E7E7E7E7E7E7E7E7E7E7E7E7E7E7E7E7E7E7E7E7E7E7E7E7E7E7E7E7E7E7E7E7E7E7E7E7E7E7E7E7E7E7E7E7E7E7E7E7E7E7E7E7E7E7E7E7E7E7E7E7E7E7E7E7E7E7E7E7
310
E7E7E7E7E7E7E7E7E7E7E7E7E7E7E7E7E7E7E7E7E7E7E7E7E7E7E7E7E7E7E7E7E7E7E7E7E7E7E7E7E7E7E7E7E7E7E7E7E7E7E7E7E7E7E7E7E7E7E7E7E7E7E7E7E7E7E7E7E7E7E7E7E7E7E7E7E7E7E7E7E7E7E7E7E7E7E7E7E7E7E7E7E7E7E7E7E7E7E7E7E7E7E7E7E7E7E7E7E7E7E7E7E7E7E7E7E7E7E7E7E7E7E7E7E7E7E7
310
E7E7E7E7E7E7E7E7E7E7E7E7E7E7E7E7E7E7E7E7E7E7E7E7E7E7E7E7E7E7E7E7E7E7E7E7E7E7E7E7E7E7E7E7E7E7E7E7E7E7E7E7E7E7E7E7E7E7E7E7E7E7E7E7E7E7E7E7E7E7E7E7E7E7E7E7E7E7E7E7E7E7E7E7E7E7E7E7E7E7E7E7E7E7E7E7E7E7E7E7E7E7E7E7E7E7E7E7E7E7E7E7E7E7E7E7E7E7E7E7E7E7E7E7E7E7E7
310
E7E7E7E7E7E7E7E7E7E7E7E7E7E7E7E7E7E7E7E7E7E7E7E7E7E7E7E7E7E7E7E7E7E7E7E7E7E7E7E7E7E7E7E7E7E7E7E7E7E7E7E7E7E7E7E7E7E7E7E7E7E7E7E7E7E7E7E7E7E7E7E7E7E7E7E7E7E7E7E7E7E7E7E7E7E7E7E7E7E7E7E7E7E7E7E7E7E7E7E7E7E7E7E7E7E7E7E7E7E7E7E7E7E7E7E7E7E7E7E7E7E7E7E7E7E7E7
310
E7E7E7E7E7E7E7E7E7E7E7E7E7E7E7E7E7E7E7E7E7E7E7E7E7E7E7E7E7E7E7E7E7E7E7E7E7E7E7E7E7E7E7E7E7E7E7E7E7E7E7E7E7E7E7E7E7E7E7E7E7E7E7E7E7E7E7E7E7E7E7E7E7E7E7E7E7E7E7E7E7E7E7E7E7E7E7E7E7E7E7E7E7E7E7E7E7E7E7E7E7E7E7E7E7E7E7E7E7E7E7E7E7E7E7E7E7E7E7E7E7E7E7E7E7E7E7
310
E7E7E7E7E7E7E7E7E7E7E7E7E7E7E7E7E7E7E7E7E7E7E7E7E7E7E7E7E7E7E7E7E7E7E7E7E7E7E7E7E7E7E7E7E7E7E7E7E7E7E7E7E7E7E7E7E7E7E7E7E7E7E7E7E7E7E7E7E7E7E7E7E7E7E7E7E7E7E7E7E7E7E7E7E7E7E7E7E7E7E7E7E7E7E7E7E7E7E7E7E7E7E7E7E7E7E7E7E7E7E7E7E7E7E7E7E7E7E7E7E7E7E7E7E7E7E7
310
E7E7E7E7E7E7E7E7E7E7E7E7E7E7E7E7E7E7E7E7E7E7E7E7E7E7E7E7E7E7E7E7E7E7E7E7E7E7E7E7E7E7E7E7E7E7E7E7E7E7E7E7E7E7E7E7E7E7E7E7E7E7E7E7E7E7E7E7E7E7E7E7E7E7E7E7E7E7E7E7E7E7E7E7E7E7E7E7E7E7E7E7E7E7E7E7E7E7E7E7E7E7E7E7E7E7E7E7E7E7E7E7E7E7E7E7E7E7E7E7E7E7E7E7E7E7E7
310
E7E7E7E7E7E7E7E7E7E7E7E7E7E7E7E7E7E7E7E7E7E7E7E7E7E7E7E7E7E7E7E7E7E7E7E7E7E7E7E7E7E7E7E7E7E7E7E7E7E7E7E7E7E7E7E7E7E7E7E7E7E7E7E7E7E7E7E7E7E7E7E7E7E7E7E7E7E7E7E7E7E7E7E7E7E7E7E7E7E7E7E7E7E7E7E7E7E7E7E7E7E7E7E7E7E7E7E7E7E7E7E7E7E7E7E7E7E7E7E7E7E7E7E7E7E7E7
310
E7E7E7E7E7E7E7E7E7E7E7E7E7E7E7E7E7E7E7E7E7E7E7E7E7E7E7E7E7E7E7E7E7E7E7E7E7E7E7E7E7E7E7E7E7E7E7E7E7E7E7E7E7E7E7E7E7E7E7E7E7E7E7E7E7E7E7E7E7E7E7E7E7E7E7E7E7E7E7E7E7E7E7E7E7E7E7E7E7E7E7E7E7E7E7E7E7E7E7E7E7E7E7E7E7E7E7E7E7E7E7E7E7E7E7E7E7E7E7E7E7E7E7E7E7E7E7
310
E7E7E7E7E7E7E7E7E7E7E7E7E7E7E7E7E7E7E7E7E7E7E7E7E7E7E7E7E7E7E7E7E7E7E7E7E7E7E7E7E7E7E7E7E7E7E7E7E7E7E7E7E7E7E7E7E7E7E7E7E7E7E7E7E7E7E7E7E7E7E7E7E7E7E7E7E7E7E7E7E7E7E7E7E7E7E7E7E7E7E7E7E7E7E7E7E7E7E7E7E7E7E7E7E7E7E7E7E7E7E7E7E7E7E7E7E7E7E7E7E7E7E7E7E7E7E7
310
E7E7E7E7E7E7E7E7E7E7E7E7E7E7E7E7E7E7E7E7E7E7E7E7E7E7E7E7E7E7E7E7E7E7E7E7E7E7E7E7E7E7E7E7E7E7E7E7E7E7E7E7E7E7E7E7E7E7E7E7E7E7E7E7E7E7E7E7E7E7E7E7E7E7E7E7E7E7E7E7E7E7E7E7E7E7E7E7E7E7E7E7E7E7E7E7E7E7E7E7E7E7E7E7E7E7E7E7E7E7E7E7E7E7E7E7E7E7E7E7E7E7E7E7E7E7E7
310
E7E7E7E7E7E7E7E7E7E7E7E7E7E7E7E7E7E7E7E7E7E7E7E7E7E7E7E7E7E7E7E7E7E7E7E7E7E7E7E7E7E7E7E7E7E7E7E7E7E7E7E7E7E7E7E7E7E7E7E7E7E7E7E7E7E7E7E7E7E7E7E7E7E7E7E7E7E7E7E7E7E7E7E7E7E7E7E7E7E7E7E7E7E7E7E7E7E7E7E7E7E7E7E7E7E7E7E7E7E7E7E7E7E7E7E7E7E7E7E7E7E7E7E7E7E7E7
310
E7E7E7E7E7E7E7E7E7E7E7E7E7E7E7E7E7E7E7E7E7E7E7E7E7E7E7E7E7E7E7E7E7E7E7E7E7E7E7E7E7E7E7E7E7E7E7E7E7E7E7E7E7E7E7E7E7E7E7E7E7E7E7E7E7E7E7E7E7E7E7E7E7E7E7E7E7E7E7E7E7E7E7E7E7E7E7E7E7E7E7E7E7E7E7E7E7E7E7E7E7E7E7E7E7E7E7E7E7E7E7E7E7E7E7E7E7E7E7E7E7E7E7E7E7E7E7
310
E7E7E7E7E7E7E7E7E7E7E7E7E7E7E7E7E7E7E7E7E7E7E7E7E7E7E7E7E7E7E7E7E7E7E7E7E7E7E7E7E7E7E7E7E7E7E7E7E7E7E7E7E7E7E7E7E7E7E7E7E7E7E7E7E7E7E7E7E7E7E7E7E7E7E7E7E7E7E7E7E7E7E7E7E7E7E7E7E7E7E7E7E7E7E7E7E7E7E7E7E7E7E7E7E7E7E7E7E7E7E7E7E7E7E7E7E7E7E7E7E7E7E7E7E7E7E7
310
E7E7E7E7E7E7E7E7E7E7E7E7E7E7E7E7E7E7E7E7E7E7E7E7E7E7E7E7E7E7E7E7E7E7E7E7E7E7E7E7E7E7E7E7E7E7E7E7E7E7E7E7E7E7E7E7E7E7E7E7E7E7E7E7E7E7E7E7E7E7E7E7E7E7E7E7E7E7E7E7E7E7E7E7E7E7E7E7E7E7E7E7E7E7E7E7E7E7E7E7E7E7E7E7E7E7E7E7E7E7E7E7E7E7E7E7E7E7E7E7E7E7E7E7E7E7E7
310
E7E7E7E7E7E7E7E7E7E7E7E7E7E7E7E7E7E7E7E7E7E7E7E7E7E7E7E7E7E7E7E7E7E7E7E7E7E7E7E7E7E7E7E7E7E7E7E7E7E7E7E7E7E7E7E7E7E7E7E7E7E7E7E7E7E7E7E7E7E7E7E7E7E7E7E7E7E7E7E7E7E7E7E7E7E7E7E7E7E7E7E7E7E7E7E7E7E7E7E7E7E7E7E7E7E7E7E7E7E7E7E7E7E7E7E7E7E7E7E7E7E7E7E7E7E7E7
310
E7E7E7E7E7E7E7E7E7E7E7E7E7E7E7E7E7E7E7E7E7E7E7E7E7E7E7E7E7E7E7E7E7E7E7E7E7E7E7E7E7E7E7E7E7E7E7E7
  0
XRECORD
  5
24F59
102
{ACAD_REACTORS
330
19DD6
102
}
330
19DD6
100
AcDbXrecord
280
     1
102
MATERIAL
148
0.0
149
0.0
149
0.0
 93
        0
 94
      127
282
     0
 72
     0
 77
     0
171
     0
175
     0
179
     0
273
     0
  0
XRECORD
  5
19DD8
102
{ACAD_REACTORS
330
19DD6
102
}
330
19DD6
100
AcDbXrecord
280
     1
270
     1
271
     1
  0
XRECORD
  5
19DD7
102
{ACAD_REACTORS
330
19DD6
102
}
330
19DD6
100
AcDbXrecord
280
     1
270
     1
271
     1
  0
XRECORD
  5
19DDB
102
{ACAD_REACTORS
330
19DD6
102
}
330
19DD6
100
AcDbXrecord
280
     1
270
     1
271
     1
  0
XRECORD
  5
19DDA
102
{ACAD_REACTORS
330
19DD6
102
}
330
19DD6
100
AcDbXrecord
280
     1
270
     1
271
     1
  0
XRECORD
  5
19DDC
102
{ACAD_REACTORS
330
19DD6
102
}
330
19DD6
100
AcDbXrecord
280
     1
270
     1
271
     1
  0
XRECORD
  5
19DD9
102
{ACAD_REACTORS
330
19DD6
102
}
330
19DD6
100
AcDbXrecord
280
     1
270
     1
271
     1
  0
XRECORD
  5
24F58
102
{ACAD_REACTORS
330
19DCE
102
}
330
19DCE
100
AcDbXrecord
280
     1
102
MATERIAL
148
0.0
149
0.0
149
0.0
 93
        0
 94
      127
282
     0
 72
     0
 77
     0
171
     0
175
     0
179
     0
273
     0
  0
XRECORD
  5
19DD0
102
{ACAD_REACTORS
330
19DCE
102
}
330
19DCE
100
AcDbXrecord
280
     1
270
     1
271
     1
  0
XRECORD
  5
19DCF
102
{ACAD_REACTORS
330
19DCE
102
}
330
19DCE
100
AcDbXrecord
280
     1
270
     1
271
     1
  0
XRECORD
  5
19DD3
102
{ACAD_REACTORS
330
19DCE
102
}
330
19DCE
100
AcDbXrecord
280
     1
270
     1
271
     1
  0
XRECORD
  5
19DD2
102
{ACAD_REACTORS
330
19DCE
102
}
330
19DCE
100
AcDbXrecord
280
     1
270
     1
271
     1
  0
XRECORD
  5
19DD4
102
{ACAD_REACTORS
330
19DCE
102
}
330
19DCE
100
AcDbXrecord
280
     1
270
     1
271
     1
  0
XRECORD
  5
19DD1
102
{ACAD_REACTORS
330
19DCE
102
}
330
19DCE
100
AcDbXrecord
280
     1
270
     1
271
     1
  0
XRECORD
  5
24F5A
102
{ACAD_REACTORS
330
19DDE
102
}
330
19DDE
100
AcDbXrecord
280
     1
102
MATERIAL
148
0.0
149
0.0
149
0.0
 93
        0
 94
      127
282
     0
 72
     0
 77
     0
171
     0
175
     0
179
     0
273
     0
  0
XRECORD
  5
19DE0
102
{ACAD_REACTORS
330
19DDE
102
}
330
19DDE
100
AcDbXrecord
280
     1
270
     1
271
     1
  0
XRECORD
  5
19DDF
102
{ACAD_REACTORS
330
19DDE
102
}
330
19DDE
100
AcDbXrecord
280
     1
270
     1
271
     1
  0
XRECORD
  5
19DE3
102
{ACAD_REACTORS
330
19DDE
102
}
330
19DDE
100
AcDbXrecord
280
     1
270
     1
271
     1
  0
XRECORD
  5
19DE2
102
{ACAD_REACTORS
330
19DDE
102
}
330
19DDE
100
AcDbXrecord
280
     1
270
     1
271
     1
  0
XRECORD
  5
19DE4
102
{ACAD_REACTORS
330
19DDE
102
}
330
19DDE
100
AcDbXrecord
280
     1
270
     1
271
     1
  0
XRECORD
  5
19DE1
102
{ACAD_REACTORS
330
19DDE
102
}
330
19DDE
100
AcDbXrecord
280
     1
270
     1
271
     1
  0
CELLSTYLEMAP
  5
24F50
102
{ACAD_REACTORS
330
1ABD4
102
}
330
1ABD4
100
AcDbCellStyleMap
 90
        3
300
CELLSTYLE
  1
TABLEFORMAT_BEGIN
 90
        5
170
     1
 91
        0
 92
    32768
 62
   257
 93
        1
300
CONTENTFORMAT
  1
CONTENTFORMAT_BEGIN
 90
        0
 91
        0
 92
        4
 93
        0
300

 40
0.0
140
1.0
 94
        5
 62
     0
340
F
144
6.0
309
CONTENTFORMAT_END
171
     1
301
MARGIN
  1
CELLMARGIN_BEGIN
 40
1.5
 40
1.5
 40
1.5
 40
1.5
 40
0.18
 40
0.18
309
CELLMARGIN_END
 94
        6
 95
        1
302
GRIDFORMAT
  1
GRIDFORMAT_BEGIN
 90
        0
 91
        1
 62
     0
 92
       -2
340
0
 93
        0
 40
0.045
309
GRIDFORMAT_END
 95
        2
302
GRIDFORMAT
  1
GRIDFORMAT_BEGIN
 90
        0
 91
        1
 62
     0
 92
       -2
340
0
 93
        0
 40
0.045
309
GRIDFORMAT_END
 95
        4
302
GRIDFORMAT
  1
GRIDFORMAT_BEGIN
 90
        0
 91
        1
 62
     0
 92
       -2
340
0
 93
        0
 40
0.045
309
GRIDFORMAT_END
 95
        8
302
GRIDFORMAT
  1
GRIDFORMAT_BEGIN
 90
        0
 91
        1
 62
     0
 92
       -2
340
0
 93
        0
 40
0.045
309
GRIDFORMAT_END
 95
       16
302
GRIDFORMAT
  1
GRIDFORMAT_BEGIN
 90
        0
 91
        1
 62
     0
 92
       -2
340
0
 93
        0
 40
0.045
309
GRIDFORMAT_END
 95
       32
302
GRIDFORMAT
  1
GRIDFORMAT_BEGIN
 90
        0
 91
        1
 62
     0
 92
       -2
340
0
 93
        0
 40
0.045
309
GRIDFORMAT_END
309
TABLEFORMAT_END
  1
CELLSTYLE_BEGIN
 90
        1
 91
        1
300
_TITLE
309
CELLSTYLE_END
300
CELLSTYLE
  1
TABLEFORMAT_BEGIN
 90
        5
170
     1
 91
        0
 92
        0
 62
   257
 93
        1
300
CONTENTFORMAT
  1
CONTENTFORMAT_BEGIN
 90
        0
 91
        0
 92
        4
 93
        0
300

 40
0.0
140
1.0
 94
        5
 62
     0
340
F
144
4.5
309
CONTENTFORMAT_END
171
     1
301
MARGIN
  1
CELLMARGIN_BEGIN
 40
1.5
 40
1.5
 40
1.5
 40
1.5
 40
0.18
 40
0.18
309
CELLMARGIN_END
 94
        6
 95
        1
302
GRIDFORMAT
  1
GRIDFORMAT_BEGIN
 90
        0
 91
        1
 62
     0
 92
       -2
340
0
 93
        0
 40
0.045
309
GRIDFORMAT_END
 95
        2
302
GRIDFORMAT
  1
GRIDFORMAT_BEGIN
 90
        0
 91
        1
 62
     0
 92
       -2
340
0
 93
        0
 40
0.045
309
GRIDFORMAT_END
 95
        4
302
GRIDFORMAT
  1
GRIDFORMAT_BEGIN
 90
        0
 91
        1
 62
     0
 92
       -2
340
0
 93
        0
 40
0.045
309
GRIDFORMAT_END
 95
        8
302
GRIDFORMAT
  1
GRIDFORMAT_BEGIN
 90
        0
 91
        1
 62
     0
 92
       -2
340
0
 93
        0
 40
0.045
309
GRIDFORMAT_END
 95
       16
302
GRIDFORMAT
  1
GRIDFORMAT_BEGIN
 90
        0
 91
        1
 62
     0
 92
       -2
340
0
 93
        0
 40
0.045
309
GRIDFORMAT_END
 95
       32
302
GRIDFORMAT
  1
GRIDFORMAT_BEGIN
 90
        0
 91
        1
 62
     0
 92
       -2
340
0
 93
        0
 40
0.045
309
GRIDFORMAT_END
309
TABLEFORMAT_END
  1
CELLSTYLE_BEGIN
 90
        2
 91
        1
300
_HEADER
309
CELLSTYLE_END
300
CELLSTYLE
  1
TABLEFORMAT_BEGIN
 90
        5
170
     1
 91
        0
 92
        0
 62
   257
 93
        1
300
CONTENTFORMAT
  1
CONTENTFORMAT_BEGIN
 90
        0
 91
        0
 92
        4
 93
        0
300

 40
0.0
140
1.0
 94
        2
 62
     0
340
F
144
4.5
309
CONTENTFORMAT_END
171
     1
301
MARGIN
  1
CELLMARGIN_BEGIN
 40
1.5
 40
1.5
 40
1.5
 40
1.5
 40
0.18
 40
0.18
309
CELLMARGIN_END
 94
        6
 95
        1
302
GRIDFORMAT
  1
GRIDFORMAT_BEGIN
 90
        0
 91
        1
 62
     0
 92
       -2
340
0
 93
        0
 40
0.045
309
GRIDFORMAT_END
 95
        2
302
GRIDFORMAT
  1
GRIDFORMAT_BEGIN
 90
        0
 91
        1
 62
     0
 92
       -2
340
0
 93
        0
 40
0.045
309
GRIDFORMAT_END
 95
        4
302
GRIDFORMAT
  1
GRIDFORMAT_BEGIN
 90
        0
 91
        1
 62
     0
 92
       -2
340
0
 93
        0
 40
0.045
309
GRIDFORMAT_END
 95
        8
302
GRIDFORMAT
  1
GRIDFORMAT_BEGIN
 90
        0
 91
        1
 62
     0
 92
       -2
340
0
 93
        0
 40
0.045
309
GRIDFORMAT_END
 95
       16
302
GRIDFORMAT
  1
GRIDFORMAT_BEGIN
 90
        0
 91
        1
 62
     0
 92
       -2
340
0
 93
        0
 40
0.045
309
GRIDFORMAT_END
 95
       32
302
GRIDFORMAT
  1
GRIDFORMAT_BEGIN
 90
        0
 91
        1
 62
     0
 92
       -2
340
0
 93
        0
 40
0.045
309
GRIDFORMAT_END
309
TABLEFORMAT_END
  1
CELLSTYLE_BEGIN
 90
        3
 91
        2
300
_DATA
309
CELLSTYLE_END
  0
XRECORD
  5
24F57
102
{ACAD_REACTORS
330
1ABD4
102
}
330
1ABD4
100
AcDbXrecord
280
     1
102
ACAD_ROUNDTRIP_PRE2007_TABLESTYLE
 90
        4
 91
        0
  1

 92
        4
 93
        0
  2

 94
        4
 95
        0
  3

  0
XRECORD
  5
24E16
102
{ACAD_REACTORS
330
24E15
102
}
330
24E15
100
AcDbXrecord
280
     1
102
RTVSPropertyOp28
 70
     1
102
RTVSPropertyOp29
 70
     1
102
RTVSPropertyOp30
 70
     1
102
RTVSPropertyOp31
 70
     1
102
RTVSPropertyOp32
 70
     1
102
RTVSPropertyOp0
 70
     1
102
RTVSPropertyOp1
 70
     1
102
RTVSPropertyOp2
 70
     1
102
RTVSPropertyOp3
 70
     1
102
RTVSPropertyOp4
 70
     1
102
RTVSPropertyOp5
 70
     1
102
RTVSPropertyOp6
 70
     1
102
RTVSPropertyOp7
 70
     1
102
RTVSPropertyOp8
 70
     1
102
RTVSPropertyOp9
 70
     1
102
RTVSPropertyOp10
 70
     1
102
RTVSPropertyOp11
 70
     1
102
RTVSPropertyOp12
 70
     1
102
RTVSPropertyOp13
 70
     1
102
RTVSPropertyOp14
 70
     1
102
RTVSPropertyOp15
 70
     1
102
RTVSPropertyOp16
 70
     1
102
RTVSPropertyOp17
 70
     1
102
RTVSPropertyOp18
 70
     1
102
RTVSPropertyOp19
 70
     1
102
RTVSPropertyOp20
 70
     1
102
RTVSPropertyOp21
 70
     1
102
RTVSPropertyOp22
 70
     1
102
RTVSPropertyOp23
 70
     1
102
RTVSPropertyOp24
 70
     1
102
RTVSPropertyOp25
 70
     1
102
RTVSPropertyOp26
 70
     1
102
RTVSPropertyOp27
 70
     1
  0
XRECORD
  5
24E1A
102
{ACAD_REACTORS
330
24E19
102
}
330
24E19
100
AcDbXrecord
280
     1
102
RTVSPropertyOp28
 70
     1
102
RTVSPropertyOp29
 70
     1
102
RTVSPropertyOp30
 70
     1
102
RTVSPropertyOp31
 70
     1
102
RTVSPropertyOp32
 70
     1
102
RTVSPropertyOp0
 70
     1
102
RTVSPropertyOp1
 70
     1
102
RTVSPropertyOp2
 70
     1
102
RTVSPropertyOp3
 70
     1
102
RTVSPropertyOp4
 70
     1
102
RTVSPropertyOp5
 70
     1
102
RTVSPropertyOp6
 70
     1
102
RTVSPropertyOp7
 70
     1
102
RTVSPropertyOp8
 70
     1
102
RTVSPropertyOp9
 70
     1
102
RTVSPropertyOp10
 70
     1
102
RTVSPropertyOp11
 70
     1
102
RTVSPropertyOp12
 70
     1
102
RTVSPropertyOp13
 70
     1
102
RTVSPropertyOp14
 70
     1
102
RTVSPropertyOp15
 70
     1
102
RTVSPropertyOp16
 70
     1
102
RTVSPropertyOp17
 70
     1
102
RTVSPropertyOp18
 70
     1
102
RTVSPropertyOp19
 70
     1
102
RTVSPropertyOp20
 70
     1
102
RTVSPropertyOp21
 70
     1
102
RTVSPropertyOp22
 70
     1
102
RTVSPropertyOp23
 70
     1
102
RTVSPropertyOp24
 70
     1
102
RTVSPropertyOp25
 70
     1
102
RTVSPropertyOp26
 70
     1
102
RTVSPropertyOp27
 70
     1
  0
XRECORD
  5
24E18
102
{ACAD_REACTORS
330
24E17
102
}
330
24E17
100
AcDbXrecord
280
     1
102
RTVSPropertyOp28
 70
     1
102
RTVSPropertyOp29
 70
     1
102
RTVSPropertyOp30
 70
     1
102
RTVSPropertyOp31
 70
     1
102
RTVSPropertyOp32
 70
     1
102
RTVSPropertyOp0
 70
     1
102
RTVSPropertyOp1
 70
     1
102
RTVSPropertyOp2
 70
     1
102
RTVSPropertyOp3
 70
     1
102
RTVSPropertyOp4
 70
     1
102
RTVSPropertyOp5
 70
     1
102
RTVSPropertyOp6
 70
     1
102
RTVSPropertyOp7
 70
     1
102
RTVSPropertyOp8
 70
     1
102
RTVSPropertyOp9
 70
     1
102
RTVSPropertyOp10
 70
     1
102
RTVSPropertyOp11
 70
     1
102
RTVSPropertyOp12
 70
     1
102
RTVSPropertyOp13
 70
     1
102
RTVSPropertyOp14
 70
     1
102
RTVSPropertyOp15
 70
     1
102
RTVSPropertyOp16
 70
     1
102
RTVSPropertyOp17
 70
     1
102
RTVSPropertyOp18
 70
     1
102
RTVSPropertyOp19
 70
     1
102
RTVSPropertyOp20
 70
     1
102
RTVSPropertyOp21
 70
     1
102
RTVSPropertyOp22
 70
     1
102
RTVSPropertyOp23
 70
     1
102
RTVSPropertyOp24
 70
     1
102
RTVSPropertyOp25
 70
     1
102
RTVSPropertyOp26
 70
     1
102
RTVSPropertyOp27
 70
     1
  0
XRECORD
  5
24E14
102
{ACAD_REACTORS
330
24E13
102
}
330
24E13
100
AcDbXrecord
280
     1
102
RTVSPropertyOp28
 70
     1
102
RTVSPropertyOp29
 70
     1
102
RTVSPropertyOp30
 70
     1
102
RTVSPropertyOp31
 70
     1
102
RTVSPropertyOp32
 70
     1
102
RTVSPropertyOp0
 70
     1
102
RTVSPropertyOp1
 70
     1
102
RTVSPropertyOp2
 70
     1
102
RTVSPropertyOp3
 70
     1
102
RTVSPropertyOp4
 70
     1
102
RTVSPropertyOp5
 70
     1
102
RTVSPropertyOp6
 70
     1
102
RTVSPropertyOp7
 70
     1
102
RTVSPropertyOp8
 70
     1
102
RTVSPropertyOp9
 70
     1
102
RTVSPropertyOp10
 70
     1
102
RTVSPropertyOp11
 70
     1
102
RTVSPropertyOp12
 70
     1
102
RTVSPropertyOp13
 70
     1
102
RTVSPropertyOp14
 70
     1
102
RTVSPropertyOp15
 70
     1
102
RTVSPropertyOp16
 70
     1
102
RTVSPropertyOp17
 70
     1
102
RTVSPropertyOp18
 70
     1
102
RTVSPropertyOp19
 70
     1
102
RTVSPropertyOp20
 70
     1
102
RTVSPropertyOp21
 70
     1
102
RTVSPropertyOp22
 70
     1
102
RTVSPropertyOp23
 70
     1
102
RTVSPropertyOp24
 70
     1
102
RTVSPropertyOp25
 70
     1
102
RTVSPropertyOp26
 70
     1
102
RTVSPropertyOp27
 70
     1
  0
XRECORD
  5
24E22
102
{ACAD_REACTORS
330
24E21
102
}
330
24E21
100
AcDbXrecord
280
     1
102
RTVSPropertyOp28
 70
     1
102
RTVSPropertyOp29
 70
     1
102
RTVSPropertyOp30
 70
     1
102
RTVSPropertyOp31
 70
     1
102
RTVSPropertyOp32
 70
     1
102
RTVSPropertyOp0
 70
     1
102
RTVSPropertyOp1
 70
     1
102
RTVSPropertyOp2
 70
     1
102
RTVSPropertyOp3
 70
     1
102
RTVSPropertyOp4
 70
     1
102
RTVSPropertyOp5
 70
     1
102
RTVSPropertyOp6
 70
     1
102
RTVSPropertyOp7
 70
     1
102
RTVSPropertyOp8
 70
     1
102
RTVSPropertyOp9
 70
     1
102
RTVSPropertyOp10
 70
     1
102
RTVSPropertyOp11
 70
     1
102
RTVSPropertyOp12
 70
     1
102
RTVSPropertyOp13
 70
     1
102
RTVSPropertyOp14
 70
     1
102
RTVSPropertyOp15
 70
     1
102
RTVSPropertyOp16
 70
     1
102
RTVSPropertyOp17
 70
     1
102
RTVSPropertyOp18
 70
     1
102
RTVSPropertyOp19
 70
     1
102
RTVSPropertyOp20
 70
     1
102
RTVSPropertyOp21
 70
     1
102
RTVSPropertyOp22
 70
     1
102
RTVSPropertyOp23
 70
     1
102
RTVSPropertyOp24
 70
     1
102
RTVSPropertyOp25
 70
     1
102
RTVSPropertyOp26
 70
     1
102
RTVSPropertyOp27
 70
     1
  0
XRECORD
  5
24E2A
102
{ACAD_REACTORS
330
24E29
102
}
330
24E29
100
AcDbXrecord
280
     1
102
RTVSPropertyOp28
 70
     1
102
RTVSPropertyOp29
 70
     1
102
RTVSPropertyOp30
 70
     1
102
RTVSPropertyOp31
 70
     1
102
RTVSPropertyOp32
 70
     1
102
RTVSPropertyOp0
 70
     1
102
RTVSPropertyOp1
 70
     1
102
RTVSPropertyOp2
 70
     1
102
RTVSPropertyOp3
 70
     1
102
RTVSPropertyOp4
 70
     1
102
RTVSPropertyOp5
 70
     1
102
RTVSPropertyOp6
 70
     1
102
RTVSPropertyOp7
 70
     1
102
RTVSPropertyOp8
 70
     1
102
RTVSPropertyOp9
 70
     1
102
RTVSPropertyOp10
 70
     1
102
RTVSPropertyOp11
 70
     1
102
RTVSPropertyOp12
 70
     1
102
RTVSPropertyOp13
 70
     1
102
RTVSPropertyOp14
 70
     1
102
RTVSPropertyOp15
 70
     1
102
RTVSPropertyOp16
 70
     1
102
RTVSPropertyOp17
 70
     1
102
RTVSPropertyOp18
 70
     1
102
RTVSPropertyOp19
 70
     1
102
RTVSPropertyOp20
 70
     1
102
RTVSPropertyOp21
 70
     1
102
RTVSPropertyOp22
 70
     1
102
RTVSPropertyOp23
 70
     1
102
RTVSPropertyOp24
 70
     1
102
RTVSPropertyOp25
 70
     1
102
RTVSPropertyOp26
 70
     1
102
RTVSPropertyOp27
 70
     1
  0
XRECORD
  5
24E1C
102
{ACAD_REACTORS
330
24E1B
102
}
330
24E1B
100
AcDbXrecord
280
     1
102
RTVSPropertyOp28
 70
     1
102
RTVSPropertyOp29
 70
     1
102
RTVSPropertyOp30
 70
     1
102
RTVSPropertyOp31
 70
     1
102
RTVSPropertyOp32
 70
     1
102
RTVSPropertyOp0
 70
     1
102
RTVSPropertyOp1
 70
     1
102
RTVSPropertyOp2
 70
     1
102
RTVSPropertyOp3
 70
     1
102
RTVSPropertyOp4
 70
     1
102
RTVSPropertyOp5
 70
     1
102
RTVSPropertyOp6
 70
     1
102
RTVSPropertyOp7
 70
     1
102
RTVSPropertyOp8
 70
     1
102
RTVSPropertyOp9
 70
     1
102
RTVSPropertyOp10
 70
     1
102
RTVSPropertyOp11
 70
     1
102
RTVSPropertyOp12
 70
     1
102
RTVSPropertyOp13
 70
     1
102
RTVSPropertyOp14
 70
     1
102
RTVSPropertyOp15
 70
     1
102
RTVSPropertyOp16
 70
     1
102
RTVSPropertyOp17
 70
     1
102
RTVSPropertyOp18
 70
     1
102
RTVSPropertyOp19
 70
     1
102
RTVSPropertyOp20
 70
     1
102
RTVSPropertyOp21
 70
     1
102
RTVSPropertyOp22
 70
     1
102
RTVSPropertyOp23
 70
     1
102
RTVSPropertyOp24
 70
     1
102
RTVSPropertyOp25
 70
     1
102
RTVSPropertyOp26
 70
     1
102
RTVSPropertyOp27
 70
     1
  0
XRECORD
  5
24E20
102
{ACAD_REACTORS
330
24E1F
102
}
330
24E1F
100
AcDbXrecord
280
     1
102
RTVSPropertyOp28
 70
     1
102
RTVSPropertyOp29
 70
     1
102
RTVSPropertyOp30
 70
     1
102
RTVSPropertyOp31
 70
     1
102
RTVSPropertyOp32
 70
     1
102
RTVSPropertyOp0
 70
     1
102
RTVSPropertyOp1
 70
     1
102
RTVSPropertyOp2
 70
     1
102
RTVSPropertyOp3
 70
     1
102
RTVSPropertyOp4
 70
     1
102
RTVSPropertyOp5
 70
     1
102
RTVSPropertyOp6
 70
     1
102
RTVSPropertyOp7
 70
     1
102
RTVSPropertyOp8
 70
     1
102
RTVSPropertyOp9
 70
     1
102
RTVSPropertyOp10
 70
     1
102
RTVSPropertyOp11
 70
     1
102
RTVSPropertyOp12
 70
     1
102
RTVSPropertyOp13
 70
     1
102
RTVSPropertyOp14
 70
     1
102
RTVSPropertyOp15
 70
     1
102
RTVSPropertyOp16
 70
     1
102
RTVSPropertyOp17
 70
     1
102
RTVSPropertyOp18
 70
     1
102
RTVSPropertyOp19
 70
     1
102
RTVSPropertyOp20
 70
     1
102
RTVSPropertyOp21
 70
     1
102
RTVSPropertyOp22
 70
     1
102
RTVSPropertyOp23
 70
     1
102
RTVSPropertyOp24
 70
     1
102
RTVSPropertyOp25
 70
     1
102
RTVSPropertyOp26
 70
     1
102
RTVSPropertyOp27
 70
     1
  0
XRECORD
  5
24E31
102
{ACAD_REACTORS
330
24E30
102
}
330
24E30
100
AcDbXrecord
280
     1
102
RTVSPropertyOp28
 70
     1
102
RTVSPropertyOp29
 70
     1
102
RTVSPropertyOp30
 70
     1
102
RTVSPropertyOp31
 70
     1
102
RTVSPropertyOp32
 70
     1
102
RTVSPropertyOp0
 70
     0
102
RTVSPropertyOp1
 70
     0
102
RTVSPropertyOp2
 70
     0
102
RTVSPropertyOp3
 70
     0
102
RTVSPropertyOp4
 70
     0
102
RTVSPropertyOp5
 70
     0
102
RTVSPropertyOp6
 70
     0
102
RTVSPropertyOp7
 70
     0
102
RTVSPropertyOp8
 70
     0
102
RTVSPropertyOp9
 70
     0
102
RTVSPropertyOp10
 70
     0
102
RTVSPropertyOp11
 70
     0
102
RTVSPropertyOp12
 70
     0
102
RTVSPropertyOp13
 70
     0
102
RTVSPropertyOp14
 70
     2
102
RTVSPropertyOp15
 70
     0
102
RTVSPropertyOp16
 70
     0
102
RTVSPropertyOp17
 70
     0
102
RTVSPropertyOp18
 70
     0
102
RTVSPropertyOp19
 70
     0
102
RTVSPropertyOp20
 70
     0
102
RTVSPropertyOp21
 70
     0
102
RTVSPropertyOp22
 70
     0
102
RTVSPropertyOp23
 70
     0
102
RTVSPropertyOp24
 70
     0
102
RTVSPropertyOp25
 70
     0
102
RTVSPropertyOp26
 70
     0
102
RTVSPropertyOp27
 70
     0
  0
XRECORD
  5
24E28
102
{ACAD_REACTORS
330
24E27
102
}
330
24E27
100
AcDbXrecord
280
     1
102
RTVSPropertyOp28
 70
     1
102
RTVSPropertyOp29
 70
     1
102
RTVSPropertyOp30
 70
     1
102
RTVSPropertyOp31
 70
     1
102
RTVSPropertyOp32
 70
     1
102
RTVSPropertyOp0
 70
     1
102
RTVSPropertyOp1
 70
     1
102
RTVSPropertyOp2
 70
     1
102
RTVSPropertyOp3
 70
     1
102
RTVSPropertyOp4
 70
     1
102
RTVSPropertyOp5
 70
     1
102
RTVSPropertyOp6
 70
     1
102
RTVSPropertyOp7
 70
     1
102
RTVSPropertyOp8
 70
     1
102
RTVSPropertyOp9
 70
     1
102
RTVSPropertyOp10
 70
     1
102
RTVSPropertyOp11
 70
     1
102
RTVSPropertyOp12
 70
     1
102
RTVSPropertyOp13
 70
     1
102
RTVSPropertyOp14
 70
     1
102
RTVSPropertyOp15
 70
     1
102
RTVSPropertyOp16
 70
     1
102
RTVSPropertyOp17
 70
     1
102
RTVSPropertyOp18
 70
     1
102
RTVSPropertyOp19
 70
     1
102
RTVSPropertyOp20
 70
     1
102
RTVSPropertyOp21
 70
     1
102
RTVSPropertyOp22
 70
     1
102
RTVSPropertyOp23
 70
     1
102
RTVSPropertyOp24
 70
     1
102
RTVSPropertyOp25
 70
     1
102
RTVSPropertyOp26
 70
     1
102
RTVSPropertyOp27
 70
     1
  0
XRECORD
  5
24E0C
102
{ACAD_REACTORS
330
24E0B
102
}
330
24E0B
100
AcDbXrecord
280
     1
102
RTVSPropertyOp28
 70
     1
102
RTVSPropertyOp29
 70
     1
102
RTVSPropertyOp30
 70
     1
102
RTVSPropertyOp31
 70
     1
102
RTVSPropertyOp32
 70
     1
102
RTVSPropertyOp0
 70
     1
102
RTVSPropertyOp1
 70
     1
102
RTVSPropertyOp2
 70
     1
102
RTVSPropertyOp3
 70
     1
102
RTVSPropertyOp4
 70
     1
102
RTVSPropertyOp5
 70
     1
102
RTVSPropertyOp6
 70
     1
102
RTVSPropertyOp7
 70
     1
102
RTVSPropertyOp8
 70
     1
102
RTVSPropertyOp9
 70
     1
102
RTVSPropertyOp10
 70
     1
102
RTVSPropertyOp11
 70
     1
102
RTVSPropertyOp12
 70
     1
102
RTVSPropertyOp13
 70
     1
102
RTVSPropertyOp14
 70
     1
102
RTVSPropertyOp15
 70
     1
102
RTVSPropertyOp16
 70
     1
102
RTVSPropertyOp17
 70
     1
102
RTVSPropertyOp18
 70
     1
102
RTVSPropertyOp19
 70
     1
102
RTVSPropertyOp20
 70
     1
102
RTVSPropertyOp21
 70
     1
102
RTVSPropertyOp22
 70
     1
102
RTVSPropertyOp23
 70
     1
102
RTVSPropertyOp24
 70
     1
102
RTVSPropertyOp25
 70
     1
102
RTVSPropertyOp26
 70
     1
102
RTVSPropertyOp27
 70
     1
  0
XRECORD
  5
24E0E
102
{ACAD_REACTORS
330
24E0D
102
}
330
24E0D
100
AcDbXrecord
280
     1
102
RTVSPropertyOp28
 70
     1
102
RTVSPropertyOp29
 70
     1
102
RTVSPropertyOp30
 70
     1
102
RTVSPropertyOp31
 70
     1
102
RTVSPropertyOp32
 70
     1
102
RTVSPropertyOp0
 70
     1
102
RTVSPropertyOp1
 70
     1
102
RTVSPropertyOp2
 70
     1
102
RTVSPropertyOp3
 70
     1
102
RTVSPropertyOp4
 70
     1
102
RTVSPropertyOp5
 70
     1
102
RTVSPropertyOp6
 70
     1
102
RTVSPropertyOp7
 70
     1
102
RTVSPropertyOp8
 70
     1
102
RTVSPropertyOp9
 70
     1
102
RTVSPropertyOp10
 70
     1
102
RTVSPropertyOp11
 70
     1
102
RTVSPropertyOp12
 70
     1
102
RTVSPropertyOp13
 70
     1
102
RTVSPropertyOp14
 70
     1
102
RTVSPropertyOp15
 70
     1
102
RTVSPropertyOp16
 70
     1
102
RTVSPropertyOp17
 70
     1
102
RTVSPropertyOp18
 70
     1
102
RTVSPropertyOp19
 70
     1
102
RTVSPropertyOp20
 70
     1
102
RTVSPropertyOp21
 70
     1
102
RTVSPropertyOp22
 70
     1
102
RTVSPropertyOp23
 70
     1
102
RTVSPropertyOp24
 70
     1
102
RTVSPropertyOp25
 70
     1
102
RTVSPropertyOp26
 70
     1
102
RTVSPropertyOp27
 70
     1
  0
XRECORD
  5
24E10
102
{ACAD_REACTORS
330
24E0F
102
}
330
24E0F
100
AcDbXrecord
280
     1
102
RTVSPropertyOp28
 70
     1
102
RTVSPropertyOp29
 70
     1
102
RTVSPropertyOp30
 70
     1
102
RTVSPropertyOp31
 70
     1
102
RTVSPropertyOp32
 70
     1
102
RTVSPropertyOp0
 70
     1
102
RTVSPropertyOp1
 70
     1
102
RTVSPropertyOp2
 70
     1
102
RTVSPropertyOp3
 70
     1
102
RTVSPropertyOp4
 70
     1
102
RTVSPropertyOp5
 70
     1
102
RTVSPropertyOp6
 70
     1
102
RTVSPropertyOp7
 70
     1
102
RTVSPropertyOp8
 70
     1
102
RTVSPropertyOp9
 70
     1
102
RTVSPropertyOp10
 70
     1
102
RTVSPropertyOp11
 70
     1
102
RTVSPropertyOp12
 70
     1
102
RTVSPropertyOp13
 70
     1
102
RTVSPropertyOp14
 70
     1
102
RTVSPropertyOp15
 70
     1
102
RTVSPropertyOp16
 70
     1
102
RTVSPropertyOp17
 70
     1
102
RTVSPropertyOp18
 70
     1
102
RTVSPropertyOp19
 70
     1
102
RTVSPropertyOp20
 70
     1
102
RTVSPropertyOp21
 70
     1
102
RTVSPropertyOp22
 70
     1
102
RTVSPropertyOp23
 70
     1
102
RTVSPropertyOp24
 70
     1
102
RTVSPropertyOp25
 70
     1
102
RTVSPropertyOp26
 70
     1
102
RTVSPropertyOp27
 70
     1
  0
XRECORD
  5
24E12
102
{ACAD_REACTORS
330
24E11
102
}
330
24E11
100
AcDbXrecord
280
     1
102
RTVSPropertyOp28
 70
     1
102
RTVSPropertyOp29
 70
     1
102
RTVSPropertyOp30
 70
     1
102
RTVSPropertyOp31
 70
     1
102
RTVSPropertyOp32
 70
     1
102
RTVSPropertyOp0
 70
     1
102
RTVSPropertyOp1
 70
     1
102
RTVSPropertyOp2
 70
     1
102
RTVSPropertyOp3
 70
     1
102
RTVSPropertyOp4
 70
     1
102
RTVSPropertyOp5
 70
     1
102
RTVSPropertyOp6
 70
     1
102
RTVSPropertyOp7
 70
     1
102
RTVSPropertyOp8
 70
     1
102
RTVSPropertyOp9
 70
     1
102
RTVSPropertyOp10
 70
     1
102
RTVSPropertyOp11
 70
     1
102
RTVSPropertyOp12
 70
     1
102
RTVSPropertyOp13
 70
     1
102
RTVSPropertyOp14
 70
     1
102
RTVSPropertyOp15
 70
     1
102
RTVSPropertyOp16
 70
     1
102
RTVSPropertyOp17
 70
     1
102
RTVSPropertyOp18
 70
     1
102
RTVSPropertyOp19
 70
     1
102
RTVSPropertyOp20
 70
     1
102
RTVSPropertyOp21
 70
     1
102
RTVSPropertyOp22
 70
     1
102
RTVSPropertyOp23
 70
     1
102
RTVSPropertyOp24
 70
     1
102
RTVSPropertyOp25
 70
     1
102
RTVSPropertyOp26
 70
     1
102
RTVSPropertyOp27
 70
     1
  0
XRECORD
  5
24E35
102
{ACAD_REACTORS
330
24E34
102
}
330
24E34
100
AcDbXrecord
280
     1
102
RTVSPropertyOp28
 70
     1
102
RTVSPropertyOp29
 70
     1
102
RTVSPropertyOp30
 70
     1
102
RTVSPropertyOp31
 70
     1
102
RTVSPropertyOp32
 70
     1
102
RTVSPropertyOp0
 70
     1
102
RTVSPropertyOp1
 70
     1
102
RTVSPropertyOp2
 70
     1
102
RTVSPropertyOp3
 70
     1
102
RTVSPropertyOp4
 70
     1
102
RTVSPropertyOp5
 70
     1
102
RTVSPropertyOp6
 70
     1
102
RTVSPropertyOp7
 70
     1
102
RTVSPropertyOp8
 70
     1
102
RTVSPropertyOp9
 70
     1
102
RTVSPropertyOp10
 70
     1
102
RTVSPropertyOp11
 70
     1
102
RTVSPropertyOp12
 70
     1
102
RTVSPropertyOp13
 70
     1
102
RTVSPropertyOp14
 70
     1
102
RTVSPropertyOp15
 70
     1
102
RTVSPropertyOp16
 70
     1
102
RTVSPropertyOp17
 70
     1
102
RTVSPropertyOp18
 70
     1
102
RTVSPropertyOp19
 70
     1
102
RTVSPropertyOp20
 70
     1
102
RTVSPropertyOp21
 70
     1
102
RTVSPropertyOp22
 70
     1
102
RTVSPropertyOp23
 70
     1
102
RTVSPropertyOp24
 70
     1
102
RTVSPropertyOp25
 70
     1
102
RTVSPropertyOp26
 70
     1
102
RTVSPropertyOp27
 70
     1
  0
XRECORD
  5
24E2D
102
{ACAD_REACTORS
330
24E2C
102
}
330
24E2C
100
AcDbXrecord
280
     1
102
RTVSPropertyOp28
 70
     1
102
RTVSPropertyOp29
 70
     1
102
RTVSPropertyOp30
 70
     1
102
RTVSPropertyOp31
 70
     1
102
RTVSPropertyOp32
 70
     1
102
RTVSPropertyOp0
 70
     0
102
RTVSPropertyOp1
 70
     0
102
RTVSPropertyOp2
 70
     0
102
RTVSPropertyOp3
 70
     0
102
RTVSPropertyOp4
 70
     0
102
RTVSPropertyOp5
 70
     0
102
RTVSPropertyOp6
 70
     0
102
RTVSPropertyOp7
 70
     0
102
RTVSPropertyOp8
 70
     0
102
RTVSPropertyOp9
 70
     0
102
RTVSPropertyOp10
 70
     0
102
RTVSPropertyOp11
 70
     0
102
RTVSPropertyOp12
 70
     0
102
RTVSPropertyOp13
 70
     0
102
RTVSPropertyOp14
 70
     2
102
RTVSPropertyOp15
 70
     0
102
RTVSPropertyOp16
 70
     0
102
RTVSPropertyOp17
 70
     0
102
RTVSPropertyOp18
 70
     0
102
RTVSPropertyOp19
 70
     0
102
RTVSPropertyOp20
 70
     0
102
RTVSPropertyOp21
 70
     0
102
RTVSPropertyOp22
 70
     0
102
RTVSPropertyOp23
 70
     0
102
RTVSPropertyOp24
 70
     0
102
RTVSPropertyOp25
 70
     0
102
RTVSPropertyOp26
 70
     0
102
RTVSPropertyOp27
 70
     0
  0
XRECORD
  5
24E26
102
{ACAD_REACTORS
330
24E25
102
}
330
24E25
100
AcDbXrecord
280
     1
102
RTVSPropertyOp28
 70
     1
102
RTVSPropertyOp29
 70
     1
102
RTVSPropertyOp30
 70
     1
102
RTVSPropertyOp31
 70
     1
102
RTVSPropertyOp32
 70
     1
102
RTVSPropertyOp0
 70
     1
102
RTVSPropertyOp1
 70
     1
102
RTVSPropertyOp2
 70
     1
102
RTVSPropertyOp3
 70
     1
102
RTVSPropertyOp4
 70
     1
102
RTVSPropertyOp5
 70
     1
102
RTVSPropertyOp6
 70
     1
102
RTVSPropertyOp7
 70
     1
102
RTVSPropertyOp8
 70
     1
102
RTVSPropertyOp9
 70
     1
102
RTVSPropertyOp10
 70
     1
102
RTVSPropertyOp11
 70
     1
102
RTVSPropertyOp12
 70
     1
102
RTVSPropertyOp13
 70
     1
102
RTVSPropertyOp14
 70
     1
102
RTVSPropertyOp15
 70
     1
102
RTVSPropertyOp16
 70
     1
102
RTVSPropertyOp17
 70
     1
102
RTVSPropertyOp18
 70
     1
102
RTVSPropertyOp19
 70
     1
102
RTVSPropertyOp20
 70
     1
102
RTVSPropertyOp21
 70
     1
102
RTVSPropertyOp22
 70
     1
102
RTVSPropertyOp23
 70
     1
102
RTVSPropertyOp24
 70
     1
102
RTVSPropertyOp25
 70
     1
102
RTVSPropertyOp26
 70
     1
102
RTVSPropertyOp27
 70
     1
  0
XRECORD
  5
24E2F
102
{ACAD_REACTORS
330
24E2E
102
}
330
24E2E
100
AcDbXrecord
280
     1
102
RTVSPropertyOp28
 70
     1
102
RTVSPropertyOp29
 70
     1
102
RTVSPropertyOp30
 70
     1
102
RTVSPropertyOp31
 70
     1
102
RTVSPropertyOp32
 70
     1
102
RTVSPropertyOp0
 70
     0
102
RTVSPropertyOp1
 70
     0
102
RTVSPropertyOp2
 70
     0
102
RTVSPropertyOp3
 70
     0
102
RTVSPropertyOp4
 70
     0
102
RTVSPropertyOp5
 70
     0
102
RTVSPropertyOp6
 70
     0
102
RTVSPropertyOp7
 70
     0
102
RTVSPropertyOp8
 70
     0
102
RTVSPropertyOp9
 70
     0
102
RTVSPropertyOp10
 70
     0
102
RTVSPropertyOp11
 70
     0
102
RTVSPropertyOp12
 70
     0
102
RTVSPropertyOp13
 70
     0
102
RTVSPropertyOp14
 70
     2
102
RTVSPropertyOp15
 70
     0
102
RTVSPropertyOp16
 70
     0
102
RTVSPropertyOp17
 70
     0
102
RTVSPropertyOp18
 70
     0
102
RTVSPropertyOp19
 70
     0
102
RTVSPropertyOp20
 70
     0
102
RTVSPropertyOp21
 70
     0
102
RTVSPropertyOp22
 70
     0
102
RTVSPropertyOp23
 70
     0
102
RTVSPropertyOp24
 70
     0
102
RTVSPropertyOp25
 70
     0
102
RTVSPropertyOp26
 70
     0
102
RTVSPropertyOp27
 70
     0
  0
XRECORD
  5
24E1E
102
{ACAD_REACTORS
330
24E1D
102
}
330
24E1D
100
AcDbXrecord
280
     1
102
RTVSPropertyOp28
 70
     1
102
RTVSPropertyOp29
 70
     1
102
RTVSPropertyOp30
 70
     1
102
RTVSPropertyOp31
 70
     1
102
RTVSPropertyOp32
 70
     1
102
RTVSPropertyOp0
 70
     1
102
RTVSPropertyOp1
 70
     1
102
RTVSPropertyOp2
 70
     1
102
RTVSPropertyOp3
 70
     1
102
RTVSPropertyOp4
 70
     1
102
RTVSPropertyOp5
 70
     1
102
RTVSPropertyOp6
 70
     1
102
RTVSPropertyOp7
 70
     1
102
RTVSPropertyOp8
 70
     1
102
RTVSPropertyOp9
 70
     1
102
RTVSPropertyOp10
 70
     1
102
RTVSPropertyOp11
 70
     1
102
RTVSPropertyOp12
 70
     1
102
RTVSPropertyOp13
 70
     1
102
RTVSPropertyOp14
 70
     1
102
RTVSPropertyOp15
 70
     1
102
RTVSPropertyOp16
 70
     1
102
RTVSPropertyOp17
 70
     1
102
RTVSPropertyOp18
 70
     1
102
RTVSPropertyOp19
 70
     1
102
RTVSPropertyOp20
 70
     1
102
RTVSPropertyOp21
 70
     1
102
RTVSPropertyOp22
 70
     1
102
RTVSPropertyOp23
 70
     1
102
RTVSPropertyOp24
 70
     1
102
RTVSPropertyOp25
 70
     1
102
RTVSPropertyOp26
 70
     1
102
RTVSPropertyOp27
 70
     1
  0
XRECORD
  5
24E3F
102
{ACAD_REACTORS
330
24E3E
102
}
330
24E3E
100
AcDbXrecord
280
     1
102
RTVSPropertyOp28
 70
     1
102
RTVSPropertyOp29
 70
     1
102
RTVSPropertyOp30
 70
     1
102
RTVSPropertyOp31
 70
     1
102
RTVSPropertyOp32
 70
     1
102
RTVSPropertyOp0
 70
     1
102
RTVSPropertyOp1
 70
     1
102
RTVSPropertyOp2
 70
     1
102
RTVSPropertyOp3
 70
     1
102
RTVSPropertyOp4
 70
     1
102
RTVSPropertyOp5
 70
     1
102
RTVSPropertyOp6
 70
     1
102
RTVSPropertyOp7
 70
     1
102
RTVSPropertyOp8
 70
     1
102
RTVSPropertyOp9
 70
     1
102
RTVSPropertyOp10
 70
     1
102
RTVSPropertyOp11
 70
     1
102
RTVSPropertyOp12
 70
     1
102
RTVSPropertyOp13
 70
     1
102
RTVSPropertyOp14
 70
     1
102
RTVSPropertyOp15
 70
     1
102
RTVSPropertyOp16
 70
     1
102
RTVSPropertyOp17
 70
     1
102
RTVSPropertyOp18
 70
     1
102
RTVSPropertyOp19
 70
     1
102
RTVSPropertyOp20
 70
     1
102
RTVSPropertyOp21
 70
     1
102
RTVSPropertyOp22
 70
     1
102
RTVSPropertyOp23
 70
     1
102
RTVSPropertyOp24
 70
     1
102
RTVSPropertyOp25
 70
     1
102
RTVSPropertyOp26
 70
     1
102
RTVSPropertyOp27
 70
     1
  0
XRECORD
  5
24E3D
102
{ACAD_REACTORS
330
24E3C
102
}
330
24E3C
100
AcDbXrecord
280
     1
102
RTVSPropertyOp28
 70
     1
102
RTVSPropertyOp29
 70
     1
102
RTVSPropertyOp30
 70
     1
102
RTVSPropertyOp31
 70
     1
102
RTVSPropertyOp32
 70
     1
102
RTVSPropertyOp0
 70
     1
102
RTVSPropertyOp1
 70
     1
102
RTVSPropertyOp2
 70
     1
102
RTVSPropertyOp3
 70
     1
102
RTVSPropertyOp4
 70
     1
102
RTVSPropertyOp5
 70
     1
102
RTVSPropertyOp6
 70
     1
102
RTVSPropertyOp7
 70
     1
102
RTVSPropertyOp8
 70
     1
102
RTVSPropertyOp9
 70
     1
102
RTVSPropertyOp10
 70
     1
102
RTVSPropertyOp11
 70
     1
102
RTVSPropertyOp12
 70
     1
102
RTVSPropertyOp13
 70
     1
102
RTVSPropertyOp14
 70
     1
102
RTVSPropertyOp15
 70
     1
102
RTVSPropertyOp16
 70
     1
102
RTVSPropertyOp17
 70
     1
102
RTVSPropertyOp18
 70
     1
102
RTVSPropertyOp19
 70
     1
102
RTVSPropertyOp20
 70
     1
102
RTVSPropertyOp21
 70
     1
102
RTVSPropertyOp22
 70
     1
102
RTVSPropertyOp23
 70
     1
102
RTVSPropertyOp24
 70
     1
102
RTVSPropertyOp25
 70
     1
102
RTVSPropertyOp26
 70
     1
102
RTVSPropertyOp27
 70
     1
  0
XRECORD
  5
24E37
102
{ACAD_REACTORS
330
24E36
102
}
330
24E36
100
AcDbXrecord
280
     1
102
RTVSPropertyOp28
 70
     1
102
RTVSPropertyOp29
 70
     1
102
RTVSPropertyOp30
 70
     1
102
RTVSPropertyOp31
 70
     1
102
RTVSPropertyOp32
 70
     1
102
RTVSPropertyOp0
 70
     1
102
RTVSPropertyOp1
 70
     1
102
RTVSPropertyOp2
 70
     1
102
RTVSPropertyOp3
 70
     1
102
RTVSPropertyOp4
 70
     1
102
RTVSPropertyOp5
 70
     1
102
RTVSPropertyOp6
 70
     1
102
RTVSPropertyOp7
 70
     1
102
RTVSPropertyOp8
 70
     1
102
RTVSPropertyOp9
 70
     1
102
RTVSPropertyOp10
 70
     1
102
RTVSPropertyOp11
 70
     1
102
RTVSPropertyOp12
 70
     1
102
RTVSPropertyOp13
 70
     1
102
RTVSPropertyOp14
 70
     1
102
RTVSPropertyOp15
 70
     1
102
RTVSPropertyOp16
 70
     1
102
RTVSPropertyOp17
 70
     1
102
RTVSPropertyOp18
 70
     1
102
RTVSPropertyOp19
 70
     1
102
RTVSPropertyOp20
 70
     1
102
RTVSPropertyOp21
 70
     1
102
RTVSPropertyOp22
 70
     1
102
RTVSPropertyOp23
 70
     1
102
RTVSPropertyOp24
 70
     1
102
RTVSPropertyOp25
 70
     1
102
RTVSPropertyOp26
 70
     1
102
RTVSPropertyOp27
 70
     1
  0
XRECORD
  5
24E39
102
{ACAD_REACTORS
330
24E38
102
}
330
24E38
100
AcDbXrecord
280
     1
102
RTVSPropertyOp28
 70
     1
102
RTVSPropertyOp29
 70
     1
102
RTVSPropertyOp30
 70
     1
102
RTVSPropertyOp31
 70
     1
102
RTVSPropertyOp32
 70
     1
102
RTVSPropertyOp0
 70
     1
102
RTVSPropertyOp1
 70
     1
102
RTVSPropertyOp2
 70
     1
102
RTVSPropertyOp3
 70
     1
102
RTVSPropertyOp4
 70
     1
102
RTVSPropertyOp5
 70
     1
102
RTVSPropertyOp6
 70
     1
102
RTVSPropertyOp7
 70
     1
102
RTVSPropertyOp8
 70
     1
102
RTVSPropertyOp9
 70
     1
102
RTVSPropertyOp10
 70
     1
102
RTVSPropertyOp11
 70
     1
102
RTVSPropertyOp12
 70
     1
102
RTVSPropertyOp13
 70
     1
102
RTVSPropertyOp14
 70
     1
102
RTVSPropertyOp15
 70
     1
102
RTVSPropertyOp16
 70
     1
102
RTVSPropertyOp17
 70
     1
102
RTVSPropertyOp18
 70
     1
102
RTVSPropertyOp19
 70
     1
102
RTVSPropertyOp20
 70
     1
102
RTVSPropertyOp21
 70
     1
102
RTVSPropertyOp22
 70
     1
102
RTVSPropertyOp23
 70
     1
102
RTVSPropertyOp24
 70
     1
102
RTVSPropertyOp25
 70
     1
102
RTVSPropertyOp26
 70
     1
102
RTVSPropertyOp27
 70
     1
  0
XRECORD
  5
24E24
102
{ACAD_REACTORS
330
24E23
102
}
330
24E23
100
AcDbXrecord
280
     1
102
RTVSPropertyOp28
 70
     1
102
RTVSPropertyOp29
 70
     1
102
RTVSPropertyOp30
 70
     1
102
RTVSPropertyOp31
 70
     1
102
RTVSPropertyOp32
 70
     1
102
RTVSPropertyOp0
 70
     1
102
RTVSPropertyOp1
 70
     1
102
RTVSPropertyOp2
 70
     1
102
RTVSPropertyOp3
 70
     1
102
RTVSPropertyOp4
 70
     1
102
RTVSPropertyOp5
 70
     1
102
RTVSPropertyOp6
 70
     1
102
RTVSPropertyOp7
 70
     1
102
RTVSPropertyOp8
 70
     1
102
RTVSPropertyOp9
 70
     1
102
RTVSPropertyOp10
 70
     1
102
RTVSPropertyOp11
 70
     1
102
RTVSPropertyOp12
 70
     1
102
RTVSPropertyOp13
 70
     1
102
RTVSPropertyOp14
 70
     1
102
RTVSPropertyOp15
 70
     1
102
RTVSPropertyOp16
 70
     1
102
RTVSPropertyOp17
 70
     1
102
RTVSPropertyOp18
 70
     1
102
RTVSPropertyOp19
 70
     1
102
RTVSPropertyOp20
 70
     1
102
RTVSPropertyOp21
 70
     1
102
RTVSPropertyOp22
 70
     1
102
RTVSPropertyOp23
 70
     1
102
RTVSPropertyOp24
 70
     1
102
RTVSPropertyOp25
 70
     1
102
RTVSPropertyOp26
 70
     1
102
RTVSPropertyOp27
 70
     1
  0
XRECORD
  5
24E33
102
{ACAD_REACTORS
330
24E32
102
}
330
24E32
100
AcDbXrecord
280
     1
102
RTVSPropertyOp28
 70
     1
102
RTVSPropertyOp29
 70
     1
102
RTVSPropertyOp30
 70
     1
102
RTVSPropertyOp31
 70
     1
102
RTVSPropertyOp32
 70
     1
102
RTVSPropertyOp0
 70
     1
102
RTVSPropertyOp1
 70
     1
102
RTVSPropertyOp2
 70
     1
102
RTVSPropertyOp3
 70
     1
102
RTVSPropertyOp4
 70
     1
102
RTVSPropertyOp5
 70
     1
102
RTVSPropertyOp6
 70
     1
102
RTVSPropertyOp7
 70
     1
102
RTVSPropertyOp8
 70
     1
102
RTVSPropertyOp9
 70
     1
102
RTVSPropertyOp10
 70
     1
102
RTVSPropertyOp11
 70
     1
102
RTVSPropertyOp12
 70
     1
102
RTVSPropertyOp13
 70
     1
102
RTVSPropertyOp14
 70
     1
102
RTVSPropertyOp15
 70
     1
102
RTVSPropertyOp16
 70
     1
102
RTVSPropertyOp17
 70
     1
102
RTVSPropertyOp18
 70
     1
102
RTVSPropertyOp19
 70
     1
102
RTVSPropertyOp20
 70
     1
102
RTVSPropertyOp21
 70
     1
102
RTVSPropertyOp22
 70
     1
102
RTVSPropertyOp23
 70
     1
102
RTVSPropertyOp24
 70
     1
102
RTVSPropertyOp25
 70
     1
102
RTVSPropertyOp26
 70
     1
102
RTVSPropertyOp27
 70
     1
  0
XRECORD
  5
24E3B
102
{ACAD_REACTORS
330
24E3A
102
}
330
24E3A
100
AcDbXrecord
280
     1
102
RTVSPropertyOp28
 70
     1
102
RTVSPropertyOp29
 70
     1
102
RTVSPropertyOp30
 70
     1
102
RTVSPropertyOp31
 70
     1
102
RTVSPropertyOp32
 70
     1
102
RTVSPropertyOp0
 70
     1
102
RTVSPropertyOp1
 70
     1
102
RTVSPropertyOp2
 70
     1
102
RTVSPropertyOp3
 70
     1
102
RTVSPropertyOp4
 70
     1
102
RTVSPropertyOp5
 70
     1
102
RTVSPropertyOp6
 70
     1
102
RTVSPropertyOp7
 70
     1
102
RTVSPropertyOp8
 70
     1
102
RTVSPropertyOp9
 70
     1
102
RTVSPropertyOp10
 70
     1
102
RTVSPropertyOp11
 70
     1
102
RTVSPropertyOp12
 70
     1
102
RTVSPropertyOp13
 70
     1
102
RTVSPropertyOp14
 70
     1
102
RTVSPropertyOp15
 70
     1
102
RTVSPropertyOp16
 70
     1
102
RTVSPropertyOp17
 70
     1
102
RTVSPropertyOp18
 70
     1
102
RTVSPropertyOp19
 70
     1
102
RTVSPropertyOp20
 70
     1
102
RTVSPropertyOp21
 70
     1
102
RTVSPropertyOp22
 70
     1
102
RTVSPropertyOp23
 70
     1
102
RTVSPropertyOp24
 70
     1
102
RTVSPropertyOp25
 70
     1
102
RTVSPropertyOp26
 70
     1
102
RTVSPropertyOp27
 70
     1
  0
XRECORD
  5
2428D
102
{ACAD_REACTORS
330
2428C
102
}
330
2428C
100
AcDbXrecord
280
     1
330
19DF7
  0
ENDSEC
  0
EOF
