  0
SECTION
  2
HEADER
  9
$ACADVER
  1
AC1015
  9
$ACADMAINTVER
 70
    20
  9
$DWGCODEPAGE
  3
ANSI_932
  9
$INSBASE
 10
0.0
 20
0.0
 30
0.0
  9
$EXTMIN
 10
-287.7000475631979
 20
-217.1463127903589
 30
0.0
  9
$EXTMAX
 10
96.9089555231689
 20
75.63049690422386
 30
0.0
  9
$LIMMIN
 10
0.0
 20
0.0
  9
$LIMMAX
 10
420.0
 20
297.0
  9
$ORTHOMODE
 70
     0
  9
$REGENMODE
 70
     1
  9
$FILLMODE
 70
     1
  9
$QTEXTMODE
 70
     0
  9
$MIRRTEXT
 70
     0
  9
$LTSCALE
 40
0.5
  9
$ATTMODE
 70
     1
  9
$TEXTSIZE
 40
4.0
  9
$TRACEWID
 40
1.0
  9
$TEXTSTYLE
  7
STANDARD
  9
$CLAYER
  8
1TEXT
  9
$CELTYPE
  6
BYLAYER
  9
$CECOLOR
 62
   256
  9
$CELTSCALE
 40
1.0
  9
$DISPSILH
 70
     0
  9
$DIMSCALE
 40
1.0
  9
$DIMASZ
 40
2.0
  9
$DIMEXO
 40
0.0
  9
$DIMDLI
 40
7.0
  9
$DIMRND
 40
0.0
  9
$DIMDLE
 40
0.0
  9
$DIMEXE
 40
1.0
  9
$DIMTP
 40
0.0
  9
$DIMTM
 40
0.0
  9
$DIMTXT
 40
3.5
  9
$DIMCEN
 40
0.0
  9
$DIMTSZ
 40
0.0
  9
$DIMTOL
 70
     0
  9
$DIMLIM
 70
     0
  9
$DIMTIH
 70
     0
  9
$DIMTOH
 70
     0
  9
$DIMSE1
 70
     0
  9
$DIMSE2
 70
     0
  9
$DIMTAD
 70
     1
  9
$DIMZIN
 70
     8
  9
$DIMBLK
  1

  9
$DIMASO
 70
     1
  9
$DIMSHO
 70
     1
  9
$DIMPOST
  1
 
  9
$DIMAPOST
  1

  9
$DIMALT
 70
     0
  9
$DIMALTD
 70
     2
  9
$DIMALTF
 40
25.4
  9
$DIMLFAC
 40
1.0
  9
$DIMTOFL
 70
     1
  9
$DIMTVP
 40
0.0
  9
$DIMTIX
 70
     0
  9
$DIMSOXD
 70
     0
  9
$DIMSAH
 70
     1
  9
$DIMBLK1
  1
OPEN30
  9
$DIMBLK2
  1
OPEN30
  9
$DIMSTYLE
  2
NEWX10
  9
$DIMCLRD
 70
   256
  9
$DIMCLRE
 70
   256
  9
$DIMCLRT
 70
   201
  9
$DIMTFAC
 40
0.7
  9
$DIMGAP
 40
0.7
  9
$DIMJUST
 70
     0
  9
$DIMSD1
 70
     0
  9
$DIMSD2
 70
     0
  9
$DIMTOLJ
 70
     1
  9
$DIMTZIN
 70
     8
  9
$DIMALTZ
 70
     0
  9
$DIMALTTZ
 70
     0
  9
$DIMUPT
 70
     0
  9
$DIMDEC
 70
     2
  9
$DIMTDEC
 70
     4
  9
$DIMALTU
 70
     2
  9
$DIMALTTD
 70
     2
  9
$DIMTXSTY
  7
STANDARD
  9
$DIMAUNIT
 70
     0
  9
$DIMADEC
 70
     1
  9
$DIMALTRND
 40
0.0
  9
$DIMAZIN
 70
     2
  9
$DIMDSEP
 70
    46
  9
$DIMATFIT
 70
     3
  9
$DIMFRAC
 70
     0
  9
$DIMLDRBLK
  1
OPEN30
  9
$DIMLUNIT
 70
     2
  9
$DIMLWD
 70
    -2
  9
$DIMLWE
 70
    -2
  9
$DIMTMOVE
 70
     0
  9
$LUNITS
 70
     2
  9
$LUPREC
 70
     4
  9
$SKETCHINC
 40
1.0
  9
$FILLETRAD
 40
0.0
  9
$AUNITS
 70
     0
  9
$AUPREC
 70
     2
  9
$MENU
  1
acad
  9
$ELEVATION
 40
0.0
  9
$PELEVATION
 40
0.0
  9
$THICKNESS
 40
0.0
  9
$LIMCHECK
 70
     0
  9
$CHAMFERA
 40
10.0
  9
$CHAMFERB
 40
10.0
  9
$CHAMFERC
 40
20.0
  9
$CHAMFERD
 40
0.0
  9
$SKPOLY
 70
     0
  9
$TDCREATE
 40
2451318.621352917
  9
$TDUCREATE
 40
2451318.246352917
  9
$TDUPDATE
 40
2457631.720958473
  9
$TDUUPDATE
 40
2457631.345958473
  9
$TDINDWG
 40
1.7218935185
  9
$TDUSRTIMER
 40
1.7218935185
  9
$USRTIMER
 70
     1
  9
$ANGBASE
 50
0.0
  9
$ANGDIR
 70
     0
  9
$PDMODE
 70
     0
  9
$PDSIZE
 40
0.0
  9
$PLINEWID
 40
0.0
  9
$SPLFRAME
 70
     0
  9
$SPLINETYPE
 70
     6
  9
$SPLINESEGS
 70
     8
  9
$HANDSEED
  5
17D64
  9
$SURFTAB1
 70
     6
  9
$SURFTAB2
 70
     6
  9
$SURFTYPE
 70
     6
  9
$SURFU
 70
     6
  9
$SURFV
 70
     6
  9
$UCSBASE
  2

  9
$UCSNAME
  2

  9
$UCSORG
 10
0.0
 20
0.0
 30
0.0
  9
$UCSXDIR
 10
1.0
 20
0.0
 30
0.0
  9
$UCSYDIR
 10
0.0
 20
1.0
 30
0.0
  9
$UCSORTHOREF
  2

  9
$UCSORTHOVIEW
 70
     0
  9
$UCSORGTOP
 10
0.0
 20
0.0
 30
0.0
  9
$UCSORGBOTTOM
 10
0.0
 20
0.0
 30
0.0
  9
$UCSORGLEFT
 10
0.0
 20
0.0
 30
0.0
  9
$UCSORGRIGHT
 10
0.0
 20
0.0
 30
0.0
  9
$UCSORGFRONT
 10
0.0
 20
0.0
 30
0.0
  9
$UCSORGBACK
 10
0.0
 20
0.0
 30
0.0
  9
$PUCSBASE
  2

  9
$PUCSNAME
  2

  9
$PUCSORG
 10
0.0
 20
0.0
 30
0.0
  9
$PUCSXDIR
 10
1.0
 20
0.0
 30
0.0
  9
$PUCSYDIR
 10
0.0
 20
1.0
 30
0.0
  9
$PUCSORTHOREF
  2

  9
$PUCSORTHOVIEW
 70
     0
  9
$PUCSORGTOP
 10
0.0
 20
0.0
 30
0.0
  9
$PUCSORGBOTTOM
 10
0.0
 20
0.0
 30
0.0
  9
$PUCSORGLEFT
 10
0.0
 20
0.0
 30
0.0
  9
$PUCSORGRIGHT
 10
0.0
 20
0.0
 30
0.0
  9
$PUCSORGFRONT
 10
0.0
 20
0.0
 30
0.0
  9
$PUCSORGBACK
 10
0.0
 20
0.0
 30
0.0
  9
$USERI1
 70
     0
  9
$USERI2
 70
     0
  9
$USERI3
 70
     0
  9
$USERI4
 70
     0
  9
$USERI5
 70
     0
  9
$USERR1
 40
0.0
  9
$USERR2
 40
0.0
  9
$USERR3
 40
0.0
  9
$USERR4
 40
0.0
  9
$USERR5
 40
0.0
  9
$WORLDVIEW
 70
     1
  9
$SHADEDGE
 70
     3
  9
$SHADEDIF
 70
    70
  9
$TILEMODE
 70
     1
  9
$MAXACTVP
 70
    48
  9
$PINSBASE
 10
0.0
 20
0.0
 30
0.0
  9
$PLIMCHECK
 70
     0
  9
$PEXTMIN
 10
1.000000000000000E+20
 20
1.000000000000000E+20
 30
1.000000000000000E+20
  9
$PEXTMAX
 10
-1.000000000000000E+20
 20
-1.000000000000000E+20
 30
-1.000000000000000E+20
  9
$PLIMMIN
 10
0.0
 20
0.0
  9
$PLIMMAX
 10
420.0
 20
297.0
  9
$UNITMODE
 70
     0
  9
$VISRETAIN
 70
     1
  9
$PLINEGEN
 70
     0
  9
$PSLTSCALE
 70
     1
  9
$TREEDEPTH
 70
  3020
  9
$CMLSTYLE
  2
STANDARD
  9
$CMLJUST
 70
     0
  9
$CMLSCALE
 40
20.0
  9
$PROXYGRAPHICS
 70
     1
  9
$MEASUREMENT
 70
     1
  9
$CELWEIGHT
370
    -1
  9
$ENDCAPS
280
     0
  9
$JOINSTYLE
280
     0
  9
$LWDISPLAY
290
     0
  9
$INSUNITS
 70
     0
  9
$HYPERLINKBASE
  1

  9
$STYLESHEET
  1

  9
$XEDIT
290
     1
  9
$CEPSNTYPE
380
     0
  9
$PSTYLEMODE
290
     1
  9
$FINGERPRINTGUID
  2
{9B37FCAB-1217-4BE8-8923-C9C8FC08264A}
  9
$VERSIONGUID
  2
{CD196125-C924-41DC-AA0E-4A260EEDCB7B}
  9
$EXTNAMES
290
     1
  9
$PSVPSCALE
 40
0.0
  9
$OLESTARTUP
290
     0
  0
ENDSEC
  0
SECTION
  2
CLASSES
  0
CLASS
  1
DICTIONARYVAR
  2
AcDbDictionaryVar
  3
ObjectDBX Classes
 90
        0
280
     0
281
     0
  0
CLASS
  1
IDBUFFER
  2
AcDbIdBuffer
  3
ObjectDBX Classes
 90
    32768
280
     0
281
     0
  0
CLASS
  1
ACDBDICTIONARYWDFLT
  2
AcDbDictionaryWithDefault
  3
ObjectDBX Classes
 90
        0
280
     0
281
     0
  0
CLASS
  1
ACDBPLACEHOLDER
  2
AcDbPlaceHolder
  3
ObjectDBX Classes
 90
        0
280
     0
281
     0
  0
CLASS
  1
LAYOUT
  2
AcDbLayout
  3
ObjectDBX Classes
 90
        0
280
     0
281
     0
  0
CLASS
  1
TABLESTYLE
  2
AcDbTableStyle
  3
ObjectDBX Classes
 90
     4095
280
     0
281
     0
  0
CLASS
  1
SORTENTSTABLE
  2
AcDbSortentsTable
  3
ObjectDBX Classes
 90
        0
280
     0
281
     0
  0
CLASS
  1
MATERIAL
  2
AcDbMaterial
  3
ObjectDBX Classes
 90
     1153
280
     0
281
     0
  0
CLASS
  1
VISUALSTYLE
  2
AcDbVisualStyle
  3
ObjectDBX Classes
 90
     4095
280
     0
281
     0
  0
CLASS
  1
SCALE
  2
AcDbScale
  3
ObjectDBX Classes
 90
     1153
280
     0
281
     0
  0
CLASS
  1
MLEADERSTYLE
  2
AcDbMLeaderStyle
  3
ACDB_MLEADERSTYLE_CLASS
 90
     4095
280
     0
281
     0
  0
CLASS
  1
CELLSTYLEMAP
  2
AcDbCellStyleMap
  3
ObjectDBX Classes
 90
     1152
280
     0
281
     0
  0
CLASS
  1
DIMASSOC
  2
AcDbDimAssoc
  3
"AcDbDimAssoc|Product Desc:     AcDim ARX App For Dimension|Company:          Autodesk, Inc.|WEB Address:      www.autodesk.com"
 90
    32768
280
     0
281
     0
  0
CLASS
  1
AEC_REFEDIT_STATUS_TRACKER
  2
AecDbRefEditStatusTracker
  3
AecArchBase60|Product Desc: Autodesk Architectural Desktop 2007 |Company: Autodesk,Inc. |WEB Address: www.autodesk.com
 90
      129
280
     0
281
     0
  0
CLASS
  1
NPOCOLLECTION
  2
AcDbImpNonPersistentObjectsCollection
  3
ObjectDBX Classes
 90
     1153
280
     0
281
     0
  0
ENDSEC
  0
SECTION
  2
TABLES
  0
TABLE
  2
VPORT
  5
8
102
{ACAD_XDICTIONARY
360
D0ED
102
}
330
0
100
AcDbSymbolTable
 70
     1
  0
VPORT
  5
CFAB
330
8
100
AcDbSymbolTableRecord
100
AcDbViewportTableRecord
  2
*Active
 70
     0
 10
0.0
 20
0.0
 11
1.0
 21
1.0
 12
-95.39776267143201
 22
-70.75002159417635
 13
0.0
 23
0.0
 14
10.0
 24
10.0
 15
10.0
 25
10.0
 16
0.0
 26
0.0
 36
1.0
 17
0.0
 27
0.0
 37
0.0
 40
311.2478241372017
 41
2.541598694942903
 42
50.0
 43
0.0
 44
0.0
 50
0.0
 51
0.0
 71
     0
 72
  1000
 73
     1
 74
     1
 75
     0
 76
     0
 77
     0
 78
     0
281
     0
 65
     1
110
0.0
120
0.0
130
0.0
111
1.0
121
0.0
131
0.0
112
0.0
122
1.0
132
0.0
 79
     0
146
0.0
1001
ACAD_NAV_VCDISPLAY
1070
     3
  0
ENDTAB
  0
TABLE
  2
LTYPE
  5
5
330
0
100
AcDbSymbolTable
 70
    12
  0
LTYPE
  5
12
330
5
100
AcDbSymbolTableRecord
100
AcDbLinetypeTableRecord
  2
BYBLOCK
 70
     0
  3

 72
    65
 73
     0
 40
0.0
  0
LTYPE
  5
13
330
5
100
AcDbSymbolTableRecord
100
AcDbLinetypeTableRecord
  2
BYLAYER
 70
     0
  3

 72
    65
 73
     0
 40
0.0
  0
LTYPE
  5
14
330
5
100
AcDbSymbolTableRecord
100
AcDbLinetypeTableRecord
  2
CONTINUOUS
 70
     0
  3
Solid line
 72
    65
 73
     0
 40
0.0
  0
LTYPE
  5
6A
330
5
100
AcDbSymbolTableRecord
100
AcDbLinetypeTableRecord
  2
XREF1|CENTER2
 70
    48
  3
Center (.5x) ___ _ ___ _ ___ _ ___ _ ___ _ ___
 72
    65
 73
     4
 40
28.575
 49
19.05
 74
     0
 49
-3.174999999999999
 74
     0
 49
3.174999999999999
 74
     0
 49
-3.174999999999999
 74
     0
  0
LTYPE
  5
6A6
330
5
100
AcDbSymbolTableRecord
100
AcDbLinetypeTableRecord
  2
A3WAKUdake|CENTER2
 70
    48
  3
Center (.5x) ___ _ ___ _ ___ _ ___ _ ___ _ ___
 72
    65
 73
     4
 40
28.575
 49
19.05
 74
     0
 49
-3.174999999999999
 74
     0
 49
3.174999999999999
 74
     0
 49
-3.174999999999999
 74
     0
  0
ENDTAB
  0
TABLE
  2
LAYER
  5
2
102
{ACAD_XDICTIONARY
360
D16C
102
}
330
0
100
AcDbSymbolTable
 70
    35
  0
LAYER
  5
E
102
{ACAD_XDICTIONARY
360
D0B5
102
}
330
2
100
AcDbSymbolTableRecord
100
AcDbLayerTableRecord
  2
0
 70
     0
 62
     7
  6
CONTINUOUS
370
    30
390
18B
  0
LAYER
  5
31
102
{ACAD_XDICTIONARY
360
D0B9
102
}
330
2
100
AcDbSymbolTableRecord
100
AcDbLayerTableRecord
  2
1TEXT
 70
     0
 62
     7
  6
CONTINUOUS
370
    25
390
18B
  0
LAYER
  5
6A1
102
{ACAD_XDICTIONARY
360
D0C9
102
}
330
2
100
AcDbSymbolTableRecord
100
AcDbLayerTableRecord
  2
A3WAKUdake|THICK
 70
    48
 62
     7
  6
CONTINUOUS
370
    -3
390
18B
  0
LAYER
  5
6A2
102
{ACAD_XDICTIONARY
360
D0CB
102
}
330
2
100
AcDbSymbolTableRecord
100
AcDbLayerTableRecord
  2
A3WAKUdake|POINT
 70
    48
 62
     7
  6
CONTINUOUS
370
    -3
390
18B
  0
LAYER
  5
6A3
102
{ACAD_XDICTIONARY
360
D0CD
102
}
330
2
100
AcDbSymbolTableRecord
100
AcDbLayerTableRecord
  2
A3WAKUdake|1CENTER
 70
    48
 62
     7
  6
A3WAKUdake|CENTER2
370
    -3
390
18B
  0
LAYER
  5
6A4
102
{ACAD_XDICTIONARY
360
D0CF
102
}
330
2
100
AcDbSymbolTableRecord
100
AcDbLayerTableRecord
  2
A3WAKUdake|0-6
 70
    48
 62
     7
  6
CONTINUOUS
370
    -3
390
18B
  0
LAYER
  5
17C82
330
2
100
AcDbSymbolTableRecord
100
AcDbLayerTableRecord
  2
01
 70
     0
 62
     1
  6
CONTINUOUS
370
    -3
390
18B
  0
ENDTAB
  0
TABLE
  2
STYLE
  5
3
330
0
100
AcDbSymbolTable
 70
     5
  0
STYLE
  5
F
330
3
100
AcDbSymbolTableRecord
100
AcDbTextStyleTableRecord
  2
STANDARD
 70
     0
 40
0.0
 41
1.0
 50
0.0
 71
     0
 42
4.0
  3
romans.shx
  4
extfont2.shx
  0
ENDTAB
  0
TABLE
  2
VIEW
  5
6
330
0
100
AcDbSymbolTable
 70
     5
  0
ENDTAB
  0
TABLE
  2
UCS
  5
7
330
0
100
AcDbSymbolTable
 70
     5
  0
UCS
  5
10DA2
330
7
100
AcDbSymbolTableRecord
100
AcDbUCSTableRecord
  2
U
 70
     0
 10
0.0
 20
0.0
 30
0.0
 11
1.0
 21
0.0
 31
0.0
 12
0.0
 22
0.0000000000000002
 32
1.0
 79
     0
146
0.0
  0
UCS
  5
10DA3
330
7
100
AcDbSymbolTableRecord
100
AcDbUCSTableRecord
  2
L
 70
     0
 10
0.0
 20
0.0
 30
0.0
 11
-0.0000000000000002
 21
-1.0
 31
0.0000000000000002
 12
0.0
 22
0.0000000000000002
 32
1.0
 79
     0
146
0.0
  0
UCS
  5
10DA4
330
7
100
AcDbSymbolTableRecord
100
AcDbUCSTableRecord
  2
R
 70
     0
 10
0.0
 20
0.0
 30
0.0
 11
0.0000000000000003
 21
1.0
 31
-0.0000000000000002
 12
0.0
 22
0.0000000000000002
 32
1.0
 79
     0
146
0.0
  0
UCS
  5
10DA5
330
7
100
AcDbSymbolTableRecord
100
AcDbUCSTableRecord
  2
ISOME
 70
     0
 10
0.0
 20
0.0
 30
0.0
 11
0.7071450863198266
 21
-0.7070684729403536
 31
-0.0000383082461947
 12
0.4082704059428735
 22
0.4082704077401152
 32
0.8164744636514736
 79
     0
146
0.0
  0
UCS
  5
10DA6
330
7
100
AcDbSymbolTableRecord
100
AcDbUCSTableRecord
  2
PERSPECTIVE
 70
     0
 10
0.0
 20
0.0
 30
0.0
 11
0.8191477691768962
 21
-0.5735823260466403
 31
-0.0004974931557765
 12
0.1584844715982971
 22
0.225502028986108
 32
0.961265575782966
 79
     0
146
0.0
  0
ENDTAB
  0
TABLE
  2
APPID
  5
9
330
0
100
AcDbSymbolTable
 70
    18
  0
APPID
  5
10
330
9
100
AcDbSymbolTableRecord
100
AcDbRegAppTableRecord
  2
ACAD
 70
     0
  0
APPID
  5
21
330
9
100
AcDbSymbolTableRecord
100
AcDbRegAppTableRecord
  2
DRAWINGVARIABLESXDATA
 70
     0
  0
APPID
  5
64
330
9
100
AcDbSymbolTableRecord
100
AcDbRegAppTableRecord
  2
CONTENTTABDATA
 70
     0
  0
APPID
  5
65
330
9
100
AcDbSymbolTableRecord
100
AcDbRegAppTableRecord
  2
CONTENTCURRENTTAB
 70
     0
  0
APPID
  5
66
330
9
100
AcDbSymbolTableRecord
100
AcDbRegAppTableRecord
  2
CONTENTBLOCKDESCRIPTION
 70
     0
  0
APPID
  5
67
330
9
100
AcDbSymbolTableRecord
100
AcDbRegAppTableRecord
  2
CONTENTBLOCKICON
 70
     0
  0
APPID
  5
68
330
9
100
AcDbSymbolTableRecord
100
AcDbRegAppTableRecord
  2
CONTENTLONGBLOCKNAME
 70
     0
  0
APPID
  5
2AE
330
9
100
AcDbSymbolTableRecord
100
AcDbRegAppTableRecord
  2
ACAD_PSEXT
 70
     0
  0
APPID
  5
D09F
330
9
100
AcDbSymbolTableRecord
100
AcDbRegAppTableRecord
  2
ACAD_MLEADERVER
 70
     0
  0
APPID
  5
D7D9
330
9
100
AcDbSymbolTableRecord
100
AcDbRegAppTableRecord
  2
ACAD_EXEMPT_FROM_CAD_STANDARDS
 70
     0
  0
APPID
  5
DB3E
330
9
100
AcDbSymbolTableRecord
100
AcDbRegAppTableRecord
  2
AcAecLayerStandard
 70
     0
  0
APPID
  5
F844
330
9
100
AcDbSymbolTableRecord
100
AcDbRegAppTableRecord
  2
AcadAnnotative
 70
     0
  0
APPID
  5
10507
330
9
100
AcDbSymbolTableRecord
100
AcDbRegAppTableRecord
  2
ACAD_NAV_VCDISPLAY
 70
     0
  0
APPID
  5
11F91
330
9
100
AcDbSymbolTableRecord
100
AcDbRegAppTableRecord
  2
ACAD_DSTYLE_DIMRADIAL_EXTENSION
 70
     0
  0
APPID
  5
11F92
330
9
100
AcDbSymbolTableRecord
100
AcDbRegAppTableRecord
  2
AcLayerTools
 70
     0
  0
APPID
  5
11F93
330
9
100
AcDbSymbolTableRecord
100
AcDbRegAppTableRecord
  2
GradientColor1ACI
 70
     0
  0
APPID
  5
11F94
330
9
100
AcDbSymbolTableRecord
100
AcDbRegAppTableRecord
  2
GradientColor2ACI
 70
     0
  0
APPID
  5
15583
330
9
100
AcDbSymbolTableRecord
100
AcDbRegAppTableRecord
  2
ACAD_SPLINE_DATA
 70
     0
  0
ENDTAB
  0
TABLE
  2
DIMSTYLE
  5
A
330
0
100
AcDbSymbolTable
 70
     5
100
AcDbDimStyleTable
 71
     1
340
48
  0
DIMSTYLE
105
48
102
{ACAD_REACTORS
330
FF2A
330
FF2C
330
FF47
330
FF49
330
16FD2
330
1790F
102
}
330
A
100
AcDbSymbolTableRecord
100
AcDbDimStyleTableRecord
  2
NEWX10
 70
     0
  3
 
 41
2.0
 42
0.0
 43
7.0
 44
1.0
 73
     0
 74
     0
 77
     1
 78
     8
 79
     2
140
3.5
141
0.0
146
0.7
147
0.7
172
     1
173
     1
176
   256
177
   256
178
   201
179
     1
271
     2
284
     8
340
F
341
42
343
42
344
42
  0
ENDTAB
  0
TABLE
  2
BLOCK_RECORD
  5
1
330
0
100
AcDbSymbolTable
 70
    11
  0
BLOCK_RECORD
  5
18
102
{ACAD_XDICTIONARY
360
88F
102
}
330
1
100
AcDbSymbolTableRecord
100
AcDbBlockTableRecord
  2
*MODEL_SPACE
340
190
  0
BLOCK_RECORD
  5
15
330
1
100
AcDbSymbolTableRecord
100
AcDbBlockTableRecord
  2
*PAPER_SPACE
340
191
  0
BLOCK_RECORD
  5
42
330
1
100
AcDbSymbolTableRecord
100
AcDbBlockTableRecord
  2
_OPEN30
340
0
310
2800000020000000200000000100080000000000000400000000000000000000000000000000000000000000000080000080000000808000800000008000800080800000C0C0C000C0DCC000F0CAA6000020400000206000002080000020A0000020C0000020E00000400000004020000040400000406000004080000040A0
310
000040C0000040E00000600000006020000060400000606000006080000060A0000060C0000060E00000800000008020000080400000806000008080000080A0000080C0000080E00000A0000000A0200000A0400000A0600000A0800000A0A00000A0C00000A0E00000C0000000C0200000C0400000C0600000C0800000C0
310
A00000C0C00000C0E00000E0000000E0200000E0400000E0600000E0800000E0A00000E0C00000E0E00040000000400020004000400040006000400080004000A0004000C0004000E00040200000402020004020400040206000402080004020A0004020C0004020E000404000004040200040404000404060004040800040
310
40A0004040C0004040E00040600000406020004060400040606000406080004060A0004060C0004060E00040800000408020004080400040806000408080004080A0004080C0004080E00040A0000040A0200040A0400040A0600040A0800040A0A00040A0C00040A0E00040C0000040C0200040C0400040C0600040C08000
310
40C0A00040C0C00040C0E00040E0000040E0200040E0400040E0600040E0800040E0A00040E0C00040E0E00080000000800020008000400080006000800080008000A0008000C0008000E00080200000802020008020400080206000802080008020A0008020C0008020E00080400000804020008040400080406000804080
310
008040A0008040C0008040E00080600000806020008060400080606000806080008060A0008060C0008060E00080800000808020008080400080806000808080008080A0008080C0008080E00080A0000080A0200080A0400080A0600080A0800080A0A00080A0C00080A0E00080C0000080C0200080C0400080C0600080C0
310
800080C0A00080C0C00080C0E00080E0000080E0200080E0400080E0600080E0800080E0A00080E0C00080E0E000C0000000C0002000C0004000C0006000C0008000C000A000C000C000C000E000C0200000C0202000C0204000C0206000C0208000C020A000C020C000C020E000C0400000C0402000C0404000C0406000C0
310
408000C040A000C040C000C040E000C0600000C0602000C0604000C0606000C0608000C060A000C060C000C060E000C0800000C0802000C0804000C0806000C0808000C080A000C080C000C080E000C0A00000C0A02000C0A04000C0A06000C0A08000C0A0A000C0A0C000C0A0E000C0C00000C0C02000C0C04000C0C06000
310
C0C08000C0C0A000F0FBFF00A4A0A000808080000000FF0000FF000000FFFF00FF000000FF00FF00FFFF0000FFFFFF0000000000000000000000000000000000000000000000000000000000000000000000000000000000000000000000000000000000000000000000000000000000000000000000000000000000000000
310
00000000000000000000000000000000000000000000000000000000000000000000000000000000000000000000000000000000000000000000000000000000000000000000000000000000000000000000000000000000000000000000000000000000000000000000000000000000000000000000000000000000000000
310
000000000000000000000000000000000000000000000000000000000000000000000000000000000000000000000000000000FFFF0000000000000000000000000000000000000000000000000000000000000000FFFFFFFF0000000000000000000000000000000000000000000000000000000000000000FFFFFFFF0000
310
000000000000000000000000000000000000000000000000000000000000FFFFFF0000000000000000000000000000000000000000000000000000000000000000FFFFFFFF0000000000000000000000000000000000000000000000000000000000000000FFFFFF0000000000000000000000000000000000000000000000
310
000000000000000000FFFFFFFF0000000000000000000000000000000000000000000000000000000000000000FFFFFFFF00000000FFFFFFFFFFFFFFFFFFFFFFFFFFFFFFFFFFFFFFFFFFFFFFFFFFFFFFFFFFFF00000000000000000000000000000000000000000000000000FFFFFFFF000000000000000000000000000000
310
000000000000000000FFFFFFFF000000000000000000000000000000000000000000000000FFFFFFFF000000000000000000000000000000000000000000000000FFFFFFFF000000000000000000000000000000000000000000000000FFFFFFFF000000000000000000000000000000000000000000000000FFFFFFFF0000
310
0000000000000000000000000000000000000000000000FFFFFF0000000000000000000000000000000000000000000000000000000000000000000000000000000000000000000000000000000000000000000000000000000000000000000000000000000000000000000000000000000000000000000000000000000000
310
00000000000000000000000000000000000000000000000000000000000000000000000000000000000000000000000000000000000000000000000000000000000000000000000000000000000000000000000000000000000000000000000000000000000000000000000000000000000000000000000000000000000000
310
0000000000000000000000000000000000000000000000000000000000000000000000000000000000000000000000000000000000000000
  0
BLOCK_RECORD
  5
5B
330
1
100
AcDbSymbolTableRecord
100
AcDbBlockTableRecord
  2
XREF1
340
0
  0
BLOCK_RECORD
  5
69E
330
1
100
AcDbSymbolTableRecord
100
AcDbBlockTableRecord
  2
A3WAKUdake
340
0
102
{BLKREFS
332
5B
102
}
  0
ENDTAB
  0
ENDSEC
  0
SECTION
  2
BLOCKS
  0
BLOCK
  5
19
330
18
100
AcDbEntity
  8
0
100
AcDbBlockBegin
  2
*MODEL_SPACE
 70
     0
 10
0.0
 20
0.0
 30
0.0
  3
*MODEL_SPACE
  1

  0
ENDBLK
  5
1A
330
18
100
AcDbEntity
  8
0
100
AcDbBlockEnd
  0
BLOCK
  5
16
330
15
100
AcDbEntity
 67
     1
  8
0
100
AcDbBlockBegin
  2
*PAPER_SPACE
 70
     0
 10
0.0
 20
0.0
 30
0.0
  3
*PAPER_SPACE
  1

  0
ENDBLK
  5
17
330
15
100
AcDbEntity
 67
     1
  8
0
100
AcDbBlockEnd
  0
BLOCK
  5
43
330
42
100
AcDbEntity
  8
0
100
AcDbBlockBegin
  2
_OPEN30
 70
     0
 10
0.0
 20
0.0
 30
0.0
  3
_OPEN30
  1

  0
LINE
  5
44
330
42
100
AcDbEntity
  8
0
  6
ByBlock
 62
     0
100
AcDbLine
 10
-1.0
 20
0.26794919
 30
0.0
 11
0.0
 21
0.0
 31
0.0
  0
LINE
  5
45
330
42
100
AcDbEntity
  8
0
  6
ByBlock
 62
     0
100
AcDbLine
 10
0.0
 20
0.0
 30
0.0
 11
-1.0
 21
-0.26794919
 31
0.0
  0
LINE
  5
46
330
42
100
AcDbEntity
  8
0
  6
ByBlock
 62
     0
100
AcDbLine
 10
0.0
 20
0.0
 30
0.0
 11
-1.0
 21
0.0
 31
0.0
  0
ENDBLK
  5
47
330
42
100
AcDbEntity
  8
0
100
AcDbBlockEnd
  0
BLOCK
  5
5C
330
5B
100
AcDbEntity
  8
0
100
AcDbBlockBegin
  2
XREF1
 70
    36
 10
0.0
 20
0.0
 30
0.0
  3
XREF1
  1
D:\ACLT\FORMAT\KAWAJUN(9)図面用.dwg
  0
ENDBLK
  5
5D
330
5B
100
AcDbEntity
  8
0
100
AcDbBlockEnd
  0
BLOCK
  5
69F
330
69E
100
AcDbEntity
  8
0
100
AcDbBlockBegin
  2
A3WAKUdake
 70
    36
 10
0.0
 20
0.0
 30
0.0
  3
A3WAKUdake
  1
D:\ACLT\FORMAT\A3WAKUdake.dwg
  0
ENDBLK
  5
6A0
330
69E
100
AcDbEntity
  8
0
100
AcDbBlockEnd
  0
ENDSEC
  0
SECTION
  2
ENTITIES
  0
LINE
  5
FF2E
330
18
100
AcDbEntity
  8
01
100
AcDbLine
 10
55.54266883228194
 20
-108.6804264368349
 30
0.0
 11
55.54266883228194
 21
-130.8304264368364
 31
0.0
  0
LINE
  5
FF2F
330
18
100
AcDbEntity
  8
01
100
AcDbLine
 10
55.54266883228194
 20
-111.1804264368356
 30
0.0
 11
55.54266883228194
 21
-128.830426436835
 31
0.0
  0
TEXT
  5
FF39
330
18
100
AcDbEntity
  8
01
100
AcDbText
 10
-43.59967439164847
 20
12.16957356316448
 30
0.0
 40
8.0
  1
SC-663-X
100
AcDbText
  0
LINE
  5
FF3E
330
18
100
AcDbEntity
  8
01
100
AcDbLine
 10
68.04266883228194
 20
-76.60225285155366
 30
0.0
 11
68.04266883228194
 21
-151.0586000221174
 31
0.0
  0
LINE
  5
FF3F
330
18
100
AcDbEntity
  8
01
100
AcDbLine
 10
77.04266883228195
 20
-76.60225285155366
 30
0.0
 11
77.04266883228195
 21
-151.0586000221174
 31
0.0
  0
LINE
  5
FF40
330
18
100
AcDbEntity
  8
01
100
AcDbLine
 10
55.54266883228194
 20
-76.60225285155366
 30
0.0
 11
55.54266883228194
 21
-151.0586000221174
 31
0.0
  0
CIRCLE
  5
10261
102
{ACAD_REACTORS
330
10267
102
}
330
18
100
AcDbEntity
  8
01
100
AcDbCircle
 10
-26.45733233055999
 20
-159.6463127903589
 30
0.0
 40
18.5
  0
CIRCLE
  5
10262
102
{ACAD_REACTORS
330
10267
102
}
330
18
100
AcDbEntity
  8
01
100
AcDbCircle
 10
-26.45733233055999
 20
-159.6463127903589
 30
0.0
 40
57.5
  0
LINE
  5
10263
102
{ACAD_REACTORS
330
10268
102
}
330
18
100
AcDbEntity
  8
01
100
AcDbLine
 10
-127.457331167718
 20
-102.1463127903589
 30
0.0
 11
-127.4573311677185
 21
-217.1463127903589
 31
0.0
  0
LINE
  5
10264
102
{ACAD_REACTORS
330
10268
102
}
330
18
100
AcDbEntity
  8
01
100
AcDbLine
 10
-241.457331167718
 20
-102.1463127903589
 30
0.0
 11
-241.4573311677176
 21
-217.1463127903589
 31
0.0
  0
LINE
  5
10265
102
{ACAD_REACTORS
330
10268
102
}
330
18
100
AcDbEntity
  8
01
100
AcDbLine
 10
-127.457331167718
 20
-102.1463127903589
 30
0.0
 11
-241.457331167718
 21
-102.1463127903589
 31
0.0
  0
LINE
  5
10266
102
{ACAD_REACTORS
330
10268
102
}
330
18
100
AcDbEntity
  8
01
100
AcDbLine
 10
-127.4573311677185
 20
-217.1463127903589
 30
0.0
 11
-241.4573311677176
 21
-217.1463127903589
 31
0.0
  0
LINE
  5
109C5
330
18
100
AcDbEntity
  8
01
  6
Continuous
100
AcDbLine
 10
-249.4573691281506
 20
-48.97157429104197
 30
0.0
 11
-249.4573691281506
 21
36.66957368034957
 31
0.0
  0
SPLINE
  5
109C6
330
18
100
AcDbEntity
  8
01
  6
Continuous
100
AcDbSpline
210
0.0
220
0.0
230
1.0
 70
     8
 71
     3
 72
    20
 73
    16
 74
     0
 42
0.0000000001
 43
0.0000000001
 40
0.4762767580809222
 40
0.4762767580809222
 40
0.4762767580809222
 40
0.4762767580809222
 40
1.758122638324543
 40
3.51308632019692
 40
6.310730836529457
 40
8.74400933761464
 40
10.48010976207173
 40
11.6984895359056
 40
12.92361760903044
 40
13.80450595282853
 40
14.84716270394251
 40
15.42866267236622
 40
15.72093093071664
 40
16.0143320570939
 40
16.30897462428179
 40
16.30897462428179
 40
16.30897462428179
 40
16.30897462428179
 10
-262.4706880560647
 20
-37.35233636793294
 30
0.0
 10
-262.4930568686772
 20
-37.77891896265635
 30
0.0
 10
-262.4996747919353
 20
-38.79252344815666
 30
0.0
 10
-262.2948413348307
 20
-40.72965022147321
 30
0.0
 10
-261.6311993013072
 20
-42.97806076321069
 30
0.0
 10
-260.4534245077215
 20
-44.99891723983625
 30
0.0
 10
-259.2448049984754
 20
-46.33540053088483
 30
0.0
 10
-258.167226007274
 20
-47.21842099983894
 30
0.0
 10
-257.2318266045735
 20
-47.81002014880494
 30
0.0
 10
-256.2940589665817
 20
-48.27467773064984
 30
0.0
 10
-255.5167530989614
 20
-48.57371004325784
 30
0.0
 10
-254.9065527679562
 20
-48.75533329887514
 30
0.0
 10
-254.5309212288988
 20
-48.85194194497774
 30
0.0
 10
-254.2451320131335
 20
-48.91371335604446
 30
0.0
 10
-254.0545459741919
 20
-48.95855021506929
 30
0.0
 10
-253.9574382758868
 20
-48.97156212984544
 30
0.0
  0
SPLINE
  5
109C7
330
18
100
AcDbEntity
  8
01
  6
Continuous
100
AcDbSpline
210
0.0
220
0.0
230
1.0
 70
     8
 71
     3
 72
    15
 73
    11
 74
     0
 42
0.0000000001
 43
0.0000000001
 40
0.0
 40
0.0
 40
0.0
 40
0.0
 40
6.313486094663598
 40
17.66181435040024
 40
28.99595252743333
 40
41.57728640661875
 40
55.40600642540426
 40
65.45795565641196
 40
75.50651523826504
 40
82.2143219337355
 40
82.2143219337355
 40
82.2143219337355
 40
82.2143219337355
 10
-262.442365609167
 20
-37.72412261211901
 30
0.0
 10
-262.5709724815727
 20
-36.03746185840248
 30
0.0
 10
-262.9306442829705
 20
-31.26130809758513
 30
0.0
 10
-263.5206760402083
 20
-23.16508022390133
 30
0.0
 10
-264.2378644930926
 20
-12.94871750096092
 30
0.0
 10
-265.0052128789651
 20
-1.634636873122758
 30
0.0
 10
-265.7463091483017
 20
9.649082701939619
 30
0.0
 10
-266.4358341359397
 20
20.39607975905813
 30
0.0
 10
-266.9805881693504
 20
29.026003128664
 30
0.0
 10
-267.3210810372824
 20
34.47897138245242
 30
0.0
 10
-267.4573691281506
 20
36.66957486055697
 30
0.0
  0
LINE
  5
109C8
330
18
100
AcDbEntity
  8
01
  6
Continuous
100
AcDbLine
 10
-249.4573691281506
 20
-48.97157429104197
 30
0.0
 11
-253.9573691281488
 21
-48.97157429104197
 31
0.0
  0
LINE
  5
109C9
330
18
100
AcDbEntity
  8
01
  6
Continuous
100
AcDbLine
 10
-253.95779536921
 20
38.1695733633577
 30
0.0
 11
-269.6573691296757
 21
38.16957473590139
 31
0.0
  0
LINE
  5
109CA
330
18
100
AcDbEntity
  8
01
  6
Continuous
100
AcDbLine
 10
-253.9574909696297
 20
36.66957363734093
 30
0.0
 11
-268.1573691296756
 21
36.66957487874436
 31
0.0
  0
LINE
  5
109CB
330
18
100
AcDbEntity
  8
01
  6
Continuous
100
AcDbLine
 10
-114.9571312290612
 20
38.16957336330176
 30
0.0
 11
-253.957389503103
 21
38.16957336335611
 31
0.0
  0
LINE
  5
109CC
330
18
100
AcDbEntity
  8
01
  6
Continuous
100
AcDbLine
 10
-114.9571312290612
 20
36.66957363734093
 30
0.0
 11
-253.957389503103
 21
36.66957363734093
 31
0.0
  0
LINE
  5
109CD
330
18
100
AcDbEntity
  8
01
  6
Continuous
100
AcDbLine
 10
-99.25734756167948
 20
38.16957473590139
 30
0.0
 11
-114.9571312290612
 21
38.16957336335793
 31
0.0
  0
LINE
  5
109CE
330
18
100
AcDbEntity
  8
01
  6
Continuous
100
AcDbLine
 10
-100.7573475616794
 20
36.66957487874436
 30
0.0
 11
-114.9574154017094
 21
36.66957363734093
 31
0.0
  0
LINE
  5
109CF
330
18
100
AcDbEntity
  8
01
  6
Continuous
100
AcDbLine
 10
-269.657369083698
 20
38.16957473594096
 30
0.0
 11
-269.657369083698
 21
38.66957487878369
 31
0.0
  0
LINE
  5
109D0
330
18
100
AcDbEntity
  8
01
  6
Continuous
100
AcDbLine
 10
-269.657369083698
 20
38.16957473594096
 30
0.0
 11
-268.1573691150465
 21
36.66957487875686
 31
0.0
  0
LINE
  5
109D1
330
18
100
AcDbEntity
  8
01
  6
Continuous
100
AcDbLine
 10
-99.25734756167948
 20
38.16957473590139
 30
0.0
 11
-99.25734756167948
 21
38.66957487874436
 31
0.0
  0
LINE
  5
109D2
330
18
100
AcDbEntity
  8
01
  6
Continuous
100
AcDbLine
 10
-99.25734756167948
 20
38.16957473590139
 30
0.0
 11
-100.7573475616794
 21
36.66957487874436
 31
0.0
  0
LINE
  5
109D3
330
18
100
AcDbEntity
  8
01
  6
Continuous
100
AcDbLine
 10
-279.9573583457162
 20
46.16957487874526
 30
0.0
 11
-114.9573583457162
 21
46.16957260575293
 31
0.0
  0
LINE
  5
109D4
330
18
100
AcDbEntity
  8
01
  6
Continuous
100
AcDbLine
 10
-114.9573583457162
 20
46.16957260575293
 30
0.0
 11
-88.9573583457153
 21
46.16957487874503
 31
0.0
  0
LINE
  5
109D5
330
18
100
AcDbEntity
  8
01
  6
Continuous
100
AcDbLine
 10
-253.9573583457162
 20
38.66957341878481
 30
0.0
 11
-114.9573583457162
 21
38.66957341878481
 31
0.0
  0
LINE
  5
109D6
330
18
100
AcDbEntity
  8
01
  6
Continuous
100
AcDbLine
 10
-114.9573583457162
 20
44.16957260575293
 30
0.0
 11
-253.9573583457162
 21
44.16957260575293
 31
0.0
  0
LINE
  5
109D7
330
18
100
AcDbEntity
  8
01
  6
Continuous
100
AcDbLine
 10
-114.9573583457162
 20
38.66957341878481
 30
0.0
 11
-98.43727496672141
 21
38.66957486301646
 31
0.0
  0
LINE
  5
109D8
330
18
100
AcDbEntity
  8
01
  6
Continuous
100
AcDbLine
 10
-89.06979191938429
 20
44.169574868916
 30
0.0
 11
-114.9573583457162
 21
44.16957260575293
 31
0.0
  0
LINE
  5
109D9
330
18
100
AcDbEntity
  8
01
  6
Continuous
100
AcDbLine
 10
-279.8449246731262
 20
44.16957486891599
 30
0.0
 11
-253.9573583457162
 21
44.16957260575293
 31
0.0
  0
LINE
  5
109DA
330
18
100
AcDbEntity
  8
01
  6
Continuous
100
AcDbLine
 10
-253.9573583457162
 20
38.66957341878481
 30
0.0
 11
-270.4774415582475
 21
38.66957486301645
 31
0.0
  0
LINE
  5
109DB
330
18
100
AcDbEntity
  8
01
  6
Continuous
100
AcDbLine
 10
-88.9573583457153
 20
44.63025462628546
 30
0.0
 11
-88.9573583457153
 21
46.16957487874526
 31
0.0
  0
LINE
  5
109DC
330
18
100
AcDbEntity
  8
01
  6
Continuous
100
AcDbLine
 10
-279.9573583457162
 20
46.16957487874526
 30
0.0
 11
-279.9573583457162
 21
44.63025481687111
 31
0.0
  0
ARC
  5
109DD
330
18
100
AcDbEntity
  8
01
  6
Continuous
100
AcDbCircle
 10
260.2861838566781
 20
66.81901537847204
 30
0.0
 40
29.99920433494971
210
0.0
220
0.0
230
-1.0
100
AcDbArc
 50
290.5749471603222
 51
310.0796020517297
  0
ARC
  5
109DE
330
18
100
AcDbEntity
  8
01
  6
Continuous
100
AcDbCircle
 10
108.6285052662464
 20
66.81896876263351
 30
0.0
 40
29.99915106261955
210
0.0
220
0.0
230
-1.0
100
AcDbArc
 50
229.9203805675877
 51
249.4250711587532
  0
SPLINE
  5
109DF
330
18
100
AcDbEntity
  8
01
  6
Continuous
100
AcDbSpline
210
0.0
220
0.0
230
1.0
 70
     8
 71
     3
 72
    20
 73
    16
 74
     0
 42
0.0000000001
 43
0.0000000001
 40
0.4762767580804463
 40
0.4762767580804463
 40
0.4762767580804463
 40
0.4762767580804463
 40
1.758122638324511
 40
3.513086320196832
 40
6.310730836529395
 40
8.744009337614572
 40
10.48010976207164
 40
11.69848953590557
 40
12.92361760903036
 40
13.80450595282844
 40
14.84716270394242
 40
15.42866267236613
 40
15.72093093071656
 40
16.01433205709375
 40
16.3089746242817
 40
16.3089746242817
 40
16.3089746242817
 40
16.3089746242817
 10
-106.4440394177239
 20
-37.15233640944837
 30
0.0
 10
-106.4216706051123
 20
-37.57891900417178
 30
0.0
 10
-106.4150526818533
 20
-38.59252348967232
 30
0.0
 10
-106.6198861389579
 20
-40.52965026298886
 30
0.0
 10
-107.2835281724823
 20
-42.77806080472657
 30
0.0
 10
-108.461302966068
 20
-44.79891728135192
 30
0.0
 10
-109.6699224753132
 20
-46.13540057240072
 30
0.0
 10
-110.7475014665155
 20
-47.0184210413546
 30
0.0
 10
-111.682900869216
 20
-47.61002019032059
 30
0.0
 10
-112.6206685072078
 20
-48.0746777721655
 30
0.0
 10
-113.3979743748281
 20
-48.37371008477373
 30
0.0
 10
-114.0081747058333
 20
-48.55533334039103
 30
0.0
 10
-114.3838062448898
 20
-48.65194198649362
 30
0.0
 10
-114.669595460656
 20
-48.71371339756013
 30
0.0
 10
-114.8601814995976
 20
-48.75855025658518
 30
0.0
 10
-114.9572891979018
 20
-48.77156217136132
 30
0.0
  0
SPLINE
  5
109E0
330
18
100
AcDbEntity
  8
01
  6
Continuous
100
AcDbSpline
210
0.0
220
0.0
230
1.0
 70
     8
 71
     3
 72
    15
 73
    11
 74
     0
 42
0.0000000001
 43
0.0000000001
 40
0.0
 40
0.0
 40
0.0
 40
0.0
 40
6.313486094663598
 40
17.66181435040023
 40
28.99595252743333
 40
41.57728640661875
 40
55.40600642540425
 40
65.45795565641197
 40
75.50651523826505
 40
82.01016131784859
 40
82.01016131784859
 40
82.01016131784859
 40
82.01016131784859
 10
-106.4723618646215
 20
-37.52412265363489
 30
0.0
 10
-106.3437549922167
 20
-35.83746189991837
 30
0.0
 10
-105.984083190818
 20
-31.06130813910102
 30
0.0
 10
-105.3940514335812
 20
-22.96508026541721
 30
0.0
 10
-104.676862980696
 20
-12.74871754247681
 30
0.0
 10
-103.9095145948234
 20
-1.434636914638417
 30
0.0
 10
-103.1684183254868
 20
9.849082660423732
 30
0.0
 10
-102.4788933378498
 20
20.59607971754247
 30
0.0
 10
-101.9382879171675
 20
29.16028129759218
 30
0.0
 10
-101.6019436096716
 20
34.54610146994935
 30
0.0
 10
-101.4698026929158
 20
36.6695748821561
 30
0.0
  0
LINE
  5
109E1
330
18
100
AcDbEntity
  8
01
  6
Continuous
100
AcDbLine
 10
-119.4573691326489
 20
-48.77157433255786
 30
0.0
 11
-114.9573583456407
 21
-48.77157433255786
 31
0.0
  0
LINE
  5
109E2
330
18
100
AcDbEntity
  8
01
  6
Continuous
100
AcDbLine
 10
-249.157338100804
 20
36.66957363734093
 30
0.0
 11
-249.157338101241
 21
-47.28156682325402
 31
0.0
  0
LINE
  5
109E3
330
18
100
AcDbEntity
  8
01
  6
Continuous
100
AcDbLine
 10
-119.4573691326489
 20
-48.77157433255786
 30
0.0
 11
-119.4573691322188
 21
36.66957363736367
 31
0.0
  0
LINE
  5
109E4
330
18
100
AcDbEntity
  8
01
  6
Continuous
100
AcDbLine
 10
-121.7572787931207
 20
-48.7715743324793
 30
0.0
 11
-247.1573273174009
 21
-48.77157433263642
 31
0.0
  0
SPLINE
  5
109E5
330
18
100
AcDbEntity
  8
01
  6
Continuous
100
AcDbSpline
210
0.0
220
0.0
230
1.0
 70
     8
 71
     3
 72
    12
 73
     8
 74
     0
 42
0.0000000001
 43
0.0000000001
 40
0.0
 40
0.0
 40
0.0
 40
0.0
 40
0.5788495483527823
 40
1.552074703801331
 40
2.00067881078022
 40
2.523114124774513
 40
3.16018084086032
 40
3.16018084086032
 40
3.16018084086032
 40
3.16018084086032
 10
-247.1573273174009
 20
-48.77157485619886
 30
0.0
 10
-247.3496120304673
 20
-48.7715748561991
 30
0.0
 10
-247.8683827876404
 20
-48.7211252799666
 30
0.0
 10
-248.4590101401783
 20
-48.48252235008408
 30
0.0
 10
-248.8691784989324
 20
-48.11675700174487
 30
0.0
 10
-249.0982034561795
 20
-47.75173516411746
 30
0.0
 10
-249.1573273174509
 20
-47.44982693016504
 30
0.0
 10
-249.1573273174564
 20
-47.28156682325402
 30
0.0
  0
LINE
  5
109E6
330
18
100
AcDbEntity
  8
01
  6
Continuous
100
AcDbLine
 10
-119.757289576962
 20
-47.28156629955242
 30
0.0
 11
-119.7572895768957
 21
36.66957363734093
 31
0.0
  0
SPLINE
  5
109E7
330
18
100
AcDbEntity
  8
01
  6
Continuous
100
AcDbSpline
210
0.0
220
0.0
230
1.0
 70
     8
 71
     3
 72
    12
 73
     8
 74
     0
 42
0.0000000001
 43
0.0000000001
 40
0.0
 40
0.0
 40
0.0
 40
0.0
 40
0.578849548352658
 40
1.552074703801214
 40
2.000678810780074
 40
2.52311412477441
 40
3.1601808408603
 40
3.1601808408603
 40
3.1601808408603
 40
3.1601808408603
 10
-121.7572787931207
 20
-48.77157433250227
 30
0.0
 10
-121.5649940800534
 20
-48.77157433250204
 30
0.0
 10
-121.0462233228858
 20
-48.72112475626818
 30
0.0
 10
-120.4555959703688
 20
-48.48252182638407
 30
0.0
 10
-120.0454276116437
 20
-48.11675647804396
 30
0.0
 10
-119.816402654424
 20
-47.75173464041586
 30
0.0
 10
-119.7572787931716
 20
-47.44982640646367
 30
0.0
 10
-119.7572787931771
 20
-47.28156629955242
 30
0.0
  0
ARC
  5
10C06
330
18
100
AcDbEntity
  8
01
100
AcDbCircle
 10
77.56388400117625
 20
-294.382538435052
 30
0.0
 40
169.9999999999875
100
AcDbArc
 50
100.6855582868164
 51
125.5501398434882
  0
SPLINE
  5
10C07
330
18
100
AcDbEntity
  8
01
100
AcDbSpline
210
0.0
220
0.0
230
1.0
 70
    12
 71
     2
 72
     8
 73
     5
 74
     0
 42
0.0000000001
 43
0.0000000001
 40
0.0
 40
0.0
 40
0.0
 40
1.570796326794942
 40
1.570796326794942
 40
3.14159265358979
 40
3.14159265358979
 40
3.14159265358979
 10
-21.27669491869697
 20
-156.0693432627175
 30
0.0
 41
1.0
 10
-30.81008085771559
 20
-163.3573164060366
 30
0.0
 41
0.7071067811865471
 10
-37.49072290575792
 20
-154.6183792952694
 30
0.0
 41
1.0
 10
-44.17136495379859
 20
-145.8794421845031
 30
0.0
 41
0.7071067811865471
 10
-34.63797901478107
 20
-138.5914690411849
 30
0.0
 41
1.0
  0
ARC
  5
10C09
330
18
100
AcDbEntity
  8
01
100
AcDbCircle
 10
-84.83546855148793
 20
-286.3280431405846
 30
0.0
 40
189.9999999999934
210
0.0
220
0.0
230
-1.0
100
AcDbArc
 50
51.0377945024017
 51
78.21893046767461
  0
LINE
  5
10C21
330
18
100
AcDbEntity
  8
01
100
AcDbLine
 10
46.04267007368629
 20
-99.63041546769535
 30
0.0
 11
46.04266759088872
 21
-128.030415467695
 31
0.0
  0
LINE
  5
10C23
330
18
100
AcDbEntity
  8
01
100
AcDbLine
 10
48.0426674597412
 20
-129.5304156425407
 30
0.0
 11
47.54266731686779
 21
-129.5304155988293
 31
0.0
  0
LINE
  5
10C24
330
18
100
AcDbEntity
  8
01
100
AcDbLine
 10
48.0426702048204
 20
-98.13041564254087
 30
0.0
 11
47.54267006194289
 21
-98.13041559882947
 31
0.0
  0
LINE
  5
10C25
330
18
100
AcDbEntity
  8
01
100
AcDbLine
 10
46.04267007368629
 20
-99.63041546769535
 30
0.0
 11
47.54267006194289
 21
-98.13041559882947
 31
0.0
  0
LINE
  5
10C26
330
18
100
AcDbEntity
  8
01
100
AcDbLine
 10
47.54266731686779
 20
-129.5304155988293
 30
0.0
 11
46.04266759087944
 21
-128.030415467695
 31
0.0
  0
LINE
  5
10C2A
330
18
100
AcDbEntity
  8
01
  6
Continuous
100
AcDbLine
 10
55.5426711052743
 20
-87.83042643683586
 30
0.0
 11
55.54266655928962
 21
-139.8304264368356
 31
0.0
  0
ARC
  5
10C2B
330
18
100
AcDbEntity
  8
01
  6
Continuous
100
AcDbCircle
 10
76.19286403994751
 20
-107.5020487366834
 30
0.0
 40
30.00006617934017
100
AcDbArc
 50
139.920674116514
 51
159.4247513839891
  0
LINE
  5
10C2C
330
18
100
AcDbEntity
  8
01
  6
Continuous
100
AcDbLine
 10
55.5426711052743
 20
-87.83042643683586
 30
0.0
 11
54.00335412663769
 21
-87.83042630226448
 31
0.0
  0
ARC
  5
10C2D
330
18
100
AcDbEntity
  8
01
  6
Continuous
100
AcDbCircle
 10
76.19286293345171
 20
-120.1588077475866
 30
0.0
 40
30.00006617933235
100
AcDbArc
 50
200.575238598072
 51
220.0793158655767
  0
LINE
  5
10C2E
330
18
100
AcDbEntity
  8
01
  6
Continuous
100
AcDbLine
 10
54.00334958065344
 20
-139.8304263022642
 30
0.0
 11
55.54266655928962
 21
-139.8304264368356
 31
0.0
  0
LINE
  5
10C31
330
18
100
AcDbEntity
  8
01
100
AcDbLine
 10
48.04267027651333
 20
-97.31034530712538
 30
0.0
 11
48.0426673880465
 21
-130.3505062551926
 31
0.0
  0
ARC
  5
10CE9
330
18
100
AcDbEntity
  8
01
  6
Continuous
100
AcDbCircle
 10
6.382171465322016
 20
-286.6612533089831
 30
0.0
 40
188.2859525936282
210
0.0
220
0.0
230
-1.0
100
AcDbArc
 50
79.51655790577844
 51
102.6969948669724
  0
SPLINE
  5
10CEC
330
18
100
AcDbEntity
  8
01
  6
Continuous
100
AcDbSpline
210
0.0
220
0.0
230
1.0
 70
     8
 71
     3
 72
    12
 73
     8
 74
     0
 42
0.0000000001
 43
0.0000000001
 40
0.0
 40
0.0
 40
0.0
 40
0.0
 40
1.189860337308869
 40
3.5695810119266
 40
7.135884112616591
 40
9.509316185637
 40
10.6960322221472
 40
10.6960322221472
 40
10.6960322221472
 40
10.6960322221472
 10
-40.89286426938878
 20
-100.0393903179564
 30
0.0
 10
-41.28133698778465
 20
-100.1001827620438
 30
0.0
 10
-42.43838389196191
 20
-100.3360536276678
 30
0.0
 10
-44.68676825435467
 20
-101.1280523009694
 30
0.0
 10
-47.02385497703753
 20
-102.6345825460327
 30
0.0
 10
-48.64974488430067
 20
-104.3825612064779
 30
0.0
 10
-49.30793778088455
 20
-105.3597792630478
 30
0.0
 10
-49.50911163350216
 20
-105.6964093469984
 30
0.0
  0
SPLINE
  5
10CED
330
18
100
AcDbEntity
  8
01
  6
Continuous
100
AcDbSpline
210
0.0
220
0.0
230
1.0
 70
     8
 71
     3
 72
    12
 73
     8
 74
     0
 42
0.0000000001
 43
0.0000000001
 40
0.0010085954957911
 40
0.0010085954957911
 40
0.0010085954957911
 40
0.0010085954957911
 40
1.03598314693237
 40
3.10593224980557
 40
6.217647749012909
 40
8.29448758629195
 40
9.332907504931469
 40
9.332907504931469
 40
9.332907504931469
 40
9.332907504931469
 10
-48.19074182258479
 20
-106.4118417039287
 30
0.0
 10
-48.01340057906262
 20
-106.1193536436477
 30
0.0
 10
-47.43341998215004
 20
-105.2709666507943
 30
0.0
 10
-46.00297755600563
 20
-103.7569799911712
 30
0.0
 10
-43.95510004567029
 20
-102.4569195250627
 30
0.0
 10
-41.99055694522183
 20
-101.7741748097193
 30
0.0
 10
-40.9802131412049
 20
-101.5707290888533
 30
0.0
 10
-40.64105794115453
 20
-101.5182581902751
 30
0.0
  0
LINE
  5
10CF8
330
18
100
AcDbEntity
  8
01
  6
Continuous
100
AcDbLine
 10
-49.50911163350216
 20
-105.6964093469984
 30
0.0
 11
-48.19074182258479
 21
-106.4118417039287
 31
0.0
  0
SPLINE
  5
10E03
330
18
100
AcDbEntity
  8
01
  6
Continuous
100
AcDbSpline
210
0.0
220
0.0
230
1.0
 70
    28
 71
     2
 72
     8
 73
     5
 74
     0
 42
0.0000000001
 43
0.0000000001
 40
0.6997427643176484
 40
0.6997427643176484
 40
0.6997427643176484
 40
1.570796326794942
 40
1.570796326794942
 40
3.14159265358979
 40
3.14159265358979
 40
3.14159265358979
 10
-249.4573419501533
 20
-158.7095047722797
 30
0.0
 41
0.855295233740064
 10
-249.4573419501536
 20
-158.7095049534613
 30
0.0
 41
0.8375819466082793
 10
-249.4573419501534
 20
-154.6183940850352
 30
0.0
 41
1.0
 10
-249.4573419501536
 20
-145.8794578503294
 30
0.0
 41
0.7071067811865471
 10
-249.4573419501534
 20
-138.591483456859
 30
0.0
 41
1.0
  0
LINE
  5
10E04
330
18
100
AcDbEntity
  8
01
  6
Continuous
100
AcDbLine
 10
-249.4573419501534
 20
-138.591483456856
 30
0.0
 11
-249.4573419501534
 21
-100.3304164569212
 31
0.0
  0
LINE
  5
10E05
330
18
100
AcDbEntity
  8
01
  6
Continuous
100
AcDbLine
 10
-249.4573419501534
 20
-100.3304164569212
 30
0.0
 11
-253.9573419501516
 21
-100.3304164569212
 31
0.0
  0
ARC
  5
10E06
330
18
100
AcDbEntity
  8
01
  6
Continuous
100
AcDbCircle
 10
253.8799231499646
 20
-113.820573146752
 30
0.0
 40
13.57742236827282
210
0.0
220
0.0
230
-1.0
100
AcDbArc
 50
342.4659501910991
 51
359.9584619109827
  0
SPLINE
  5
10E07
330
18
100
AcDbEntity
  8
01
  6
Continuous
100
AcDbSpline
210
0.0
220
0.0
230
1.0
 70
     8
 71
     9
 72
    35
 73
    25
 74
     0
 42
0.0000000001
 43
0.0000000001
 40
0.5000000000000094
 40
0.5000000000000094
 40
0.5000000000000094
 40
0.5000000000000094
 40
0.5000000000000094
 40
0.5000000000000094
 40
0.5000000000000094
 40
0.5000000000000094
 40
0.5000000000000094
 40
0.5000000000000094
 40
0.625
 40
0.625
 40
0.625
 40
0.625
 40
0.625
 40
0.75
 40
0.75
 40
0.75
 40
0.75
 40
0.75
 40
0.875
 40
0.875
 40
0.875
 40
0.875
 40
0.875
 40
1.0
 40
1.0
 40
1.0
 40
1.0
 40
1.0
 40
1.0
 40
1.0
 40
1.0
 40
1.0
 40
1.0
 10
-267.4573419501534
 20
-113.8304164569191
 30
0.0
 10
-267.4573419501534
 20
-113.2413705076193
 30
0.0
 10
-267.4278367160399
 20
-112.652324558319
 30
0.0
 10
-267.3695377480311
 20
-112.0649676527852
 30
0.0
 10
-267.2829552836351
 20
-111.4808462789741
 30
0.0
 10
-267.168616306138
 20
-110.9014093671977
 30
0.0
 10
-266.8832368449279
 20
-109.7551923530178
 30
0.0
 10
-266.484888003691
 20
-108.6413406620983
 30
0.0
 10
-265.9770984672699
 20
-107.5729958706485
 30
0.0
 10
-265.3679982238322
 20
-106.5610551057744
 30
0.0
 10
-265.041139969648
 20
-106.0693196248445
 30
0.0
 10
-264.3393706825967
 20
-105.1191870206208
 30
0.0
 10
-263.5457007746266
 20
-104.2420252141038
 30
0.0
 10
-262.6682857852851
 20
-103.4486850283339
 30
0.0
 10
-261.718486307905
 20
-102.7465587820435
 30
0.0
 10
-261.2271910244248
 20
-102.4189347754105
 30
0.0
 10
-260.2148520882487
 20
-101.8104657370437
 30
0.0
 10
-259.1461916496468
 20
-101.303451905792
 30
0.0
 10
-258.0324539361512
 20
-100.90498411177
 30
0.0
 10
-256.8863950758435
 20
-100.6190398305344
 30
0.0
 10
-256.3069143593487
 20
-100.5047515251414
 30
0.0
 10
-255.72278857445
 20
-100.4182235978434
 30
0.0
 10
-255.1354338487539
 20
-100.3599407242501
 30
0.0
 10
-254.5463878994536
 20
-100.33041645692
 30
0.0
 10
-253.9573419501534
 20
-100.33041645692
 30
0.0
  0
SPLINE
  5
10E08
330
18
100
AcDbEntity
  8
01
  6
Continuous
100
AcDbSpline
210
0.0
220
0.0
230
1.0
 70
     8
 71
     3
 72
    23
 73
    19
 74
     0
 42
0.0000000001
 43
0.0000000001
 40
0.0
 40
0.0
 40
0.0
 40
0.0
 40
1.060013837296629
 40
2.390923573127008
 40
5.273123211153112
 40
7.566735562780275
 40
9.165887778377172
 40
10.41374939675096
 40
11.26060257040272
 40
12.20205273431921
 40
12.89363436837555
 40
14.47658657232807
 40
15.03334602042632
 40
15.31225166227728
 40
15.87029197736712
 40
16.14910475891938
 40
16.42758071609943
 40
16.70559430825149
 40
16.70559430825149
 40
16.70559430825149
 40
16.70559430825149
 10
-262.4004479328554
 20
-146.3205959424059
 30
0.0
 10
-262.4401601523599
 20
-146.6715864315989
 30
0.0
 10
-262.4999887901562
 20
-147.4669752117655
 30
0.0
 10
-262.4826264523193
 20
-149.2260575698875
 30
0.0
 10
-262.1284787547996
 20
-151.3775904029422
 30
0.0
 10
-261.2895475265262
 20
-153.483245912986
 30
0.0
 10
-260.3709949326561
 20
-154.9346937952642
 30
0.0
 10
-259.5662690522607
 20
-155.8702610720726
 30
0.0
 10
-258.8241839890374
 20
-156.5598879777132
 30
0.0
 10
-258.167123248921
 20
-157.0618036638492
 30
0.0
 10
-257.2633389632677
 20
-157.6342672564361
 30
0.0
 10
-256.4131637593749
 20
-158.03855031673
 30
0.0
 10
-255.6580418703064
 20
-158.3032517535542
 30
0.0
 10
-255.2174085348746
 20
-158.4381076337662
 30
0.0
 10
-254.8605545071672
 20
-158.5314414512266
 30
0.0
 10
-254.5007306965566
 20
-158.6122095381175
 30
0.0
 10
-254.2292492685386
 20
-158.6622495593482
 30
0.0
 10
-254.0488369327144
 20
-158.7001894795834
 30
0.0
 10
-253.9572810826852
 20
-158.709515220709
 30
0.0
  0
SPLINE
  5
10E09
330
18
100
AcDbEntity
  8
01
  6
Continuous
100
AcDbSpline
210
0.0
220
0.0
230
1.0
 70
     8
 71
     3
 72
    16
 73
    12
 74
     0
 42
0.0000000001
 43
0.0000000001
 40
1.204168568669187
 40
1.204168568669187
 40
1.204168568669187
 40
1.204168568669187
 40
12.40926085882099
 40
22.32270216093568
 40
37.16007571856927
 40
47.02016304598424
 40
56.84219576701841
 40
61.73298698111235
 40
71.45644489372468
 40
76.27819323674619
 40
80.39887247925239
 40
80.39887247925239
 40
80.39887247925239
 40
80.39887247925239
 10
-262.4844402981965
 20
-147.5171031950848
 30
0.0
 10
-262.7102510479875
 20
-145.3050141054192
 30
0.0
 10
-263.1350922843734
 20
-141.3185266360634
 30
0.0
 10
-263.8538155002438
 20
-135.1569980406531
 30
0.0
 10
-264.538337481314
 20
-129.9667176820666
 30
0.0
 10
-265.2055662839915
 20
-125.5950538892324
 30
0.0
 10
-265.6653609097851
 20
-122.9735313124221
 30
0.0
 10
-266.1009920966002
 20
-120.7677335040761
 30
0.0
 10
-266.4246149990999
 20
-119.3487622751369
 30
0.0
 10
-266.6860603261924
 20
-118.37128333115
 30
0.0
 10
-266.7875559615089
 20
-118.0340653510537
 30
0.0
 10
-266.8265374066826
 20
-117.91099844248
 30
0.0
  0
LINE
  5
10E0A
330
18
100
AcDbEntity
  8
01
  6
Continuous
100
AcDbLine
 10
-249.4573419501534
 20
-158.7095047722797
 30
0.0
 11
-253.9573419501516
 21
-158.7095047722797
 31
0.0
  0
SPLINE
  5
10E12
330
18
100
AcDbEntity
  8
01
  6
Continuous
100
AcDbSpline
210
0.0
220
0.0
230
1.0
 70
     8
 71
     3
 72
    21
 73
    17
 74
     0
 42
0.0000000001
 43
0.0000000001
 40
0.0
 40
0.0
 40
0.0
 40
0.0
 40
0.7954830976566911
 40
1.592937692550879
 40
2.391561806917478
 40
3.18979602482719
 40
3.987156004075897
 40
4.784208261361029
 40
5.581033476156777
 40
6.377712259532462
 40
7.174946040435624
 40
7.972959424454087
 40
8.771108361431249
 40
9.568709217680174
 40
10.36481803143725
 40
10.72892203235248
 40
10.72892203235248
 40
10.72892203235248
 40
10.72892203235248
 10
-269.6573419057007
 20
-113.8308661652814
 30
0.0
 10
-269.657281918969
 20
-114.1242783056865
 30
0.0
 10
-269.6405222480238
 20
-114.7117902619826
 30
0.0
 10
-269.5661599030531
 20
-115.5897628530093
 30
0.0
 10
-269.4429622984084
 20
-116.4631793773179
 30
0.0
 10
-269.2710172315832
 20
-117.3291189944803
 30
0.0
 10
-269.0504769119656
 20
-118.1838799296723
 30
0.0
 10
-268.7824305882908
 20
-119.0240516846649
 30
0.0
 10
-268.4676549461805
 20
-119.84763609453
 30
0.0
 10
-268.1067925086339
 20
-120.6526380567735
 30
0.0
 10
-267.7009771550132
 20
-121.4359971721152
 30
0.0
 10
-267.2522084290262
 20
-122.1950636401051
 30
0.0
 10
-266.7620112857306
 20
-122.9279085752306
 30
0.0
 10
-266.232343118348
 20
-123.6318449804695
 30
0.0
 10
-265.7669578683184
 20
-124.1835910615583
 30
0.0
 10
-265.4774845959522
 20
-124.4993494886749
 30
0.0
 10
-265.3853381563635
 20
-124.5972670959915
 30
0.0
  0
SPLINE
  5
10E13
330
18
100
AcDbEntity
  8
01
  6
Continuous
100
AcDbSpline
210
0.0
220
0.0
230
1.0
 70
     8
 71
     3
 72
    17
 73
    13
 74
     0
 42
0.0000000001
 43
0.0000000001
 40
0.0
 40
0.0
 40
0.0
 40
0.0
 40
0.7954830976566911
 40
1.592937692550879
 40
2.391561806917478
 40
3.18979602482719
 40
3.987156004075897
 40
4.784208261361029
 40
5.581033476156777
 40
6.377712259532462
 40
7.174946040435624
 40
7.960811521407159
 40
7.960811521407159
 40
7.960811521407159
 40
7.960811521407159
 10
-268.1573419370492
 20
-113.8305595629127
 30
0.0
 10
-268.1572320829831
 20
-114.0957205727092
 30
0.0
 10
-268.142171716005
 20
-114.6268156182765
 30
0.0
 10
-268.0748381680763
 20
-115.4215507759319
 30
0.0
 10
-267.9633089957491
 20
-116.2122448634449
 30
0.0
 10
-267.807783040353
 20
-116.9954448887978
 30
0.0
 10
-267.6084215011055
 20
-117.7681129250892
 30
0.0
 10
-267.3660318429896
 20
-118.5278843607904
 30
0.0
 10
-267.0813876509086
 20
-119.2726132523079
 30
0.0
 10
-266.7552336848979
 20
-120.0001912689373
 30
0.0
 10
-266.3901601047495
 20
-120.7049232995129
 30
0.0
 10
-266.1216652120696
 20
-121.159521277404
 30
0.0
 10
-265.9823044678873
 20
-121.3813699275794
 30
0.0
  0
SPLINE
  5
10E14
330
18
100
AcDbEntity
  8
01
  6
Continuous
100
AcDbSpline
210
0.0
220
0.0
230
1.0
 70
     8
 71
     3
 72
    35
 73
    31
 74
     0
 42
0.0000000001
 43
0.0000000001
 40
0.0
 40
0.0
 40
0.0
 40
0.0
 40
0.7954819772566417
 40
1.592935449122936
 40
2.391558452776483
 40
3.189791581146437
 40
3.987150478210705
 40
4.784201636623552
 40
5.581025734174035
 40
6.377703382347911
 40
7.174936031783781
 40
7.972948302216728
 40
8.77109614608929
 40
9.568695930251797
 40
10.36480366956667
 40
11.1592204013463
 40
11.95382968893142
 40
12.74982344226682
 40
13.54649405815056
 40
14.34340252091361
 40
15.14027296375388
 40
15.93675426720311
 40
16.73257246051524
 40
17.52747178921903
 40
18.32243173275448
 40
19.11812221542588
 40
19.91441930188327
 40
20.71149479908168
 40
21.50632754654706
 40
22.30211872759988
 40
22.30211872759988
 40
22.30211872759988
 40
22.30211872759988
 10
-253.9577681912127
 20
-98.13041642682685
 30
0.0
 10
-254.2511799264461
 20
-98.13047596976742
 30
0.0
 10
-254.8386910968606
 20
-98.14723471031369
 30
0.0
 10
-255.7166625977219
 20
-98.22159554282904
 30
0.0
 10
-256.5900781163749
 20
-98.34479151325025
 30
0.0
 10
-257.4560168225584
 20
-98.51673481567752
 30
0.0
 10
-258.3107769668653
 20
-98.7372732356763
 30
0.0
 10
-259.1509480791132
 20
-99.00531755052327
 30
0.0
 10
-259.9745319806174
 20
-99.32009108696309
 30
0.0
 10
-260.7795335902832
 20
-99.68095134659883
 30
0.0
 10
-261.5628924925417
 20
-100.0867644593792
 30
0.0
 10
-262.3219588977148
 20
-100.5355308812726
 30
0.0
 10
-263.0548039401887
 20
-101.0257256641504
 30
0.0
 10
-263.758740619682
 20
-101.5553914064427
 30
0.0
 10
-264.4317571245214
 20
-102.1230626239434
 30
0.0
 10
-265.0723390787883
 20
-102.7285850873248
 30
0.0
 10
-265.6768809625731
 20
-103.3697862413397
 30
0.0
 10
-266.2435518843998
 20
-104.0432456622978
 30
0.0
 10
-266.7719475490898
 20
-104.7473647923703
 30
0.0
 10
-267.2604920367724
 20
-105.4797360385861
 30
0.0
 10
-267.7077317265024
 20
-106.2380000604704
 30
0.0
 10
-268.1122091051833
 20
-107.0200094832274
 30
0.0
 10
-268.4723254661807
 20
-107.82331260602
 30
0.0
 10
-268.7868386112872
 20
-108.6464669252651
 30
0.0
 10
-269.0537249814401
 20
-109.4861620625448
 30
0.0
 10
-269.2726368532325
 20
-110.3388444626854
 30
0.0
 10
-269.4434294077777
 20
-111.2027026296242
 30
0.0
 10
-269.5661055958057
 20
-112.0719214455392
 30
0.0
 10
-269.6407529357578
 20
-112.9514868976022
 30
0.0
 10
-269.6573419516784
 20
-113.5373254937668
 30
0.0
 10
-269.6573419516784
 20
-113.830416385642
 30
0.0
  0
SPLINE
  5
10E15
330
18
100
AcDbEntity
  8
01
  6
Continuous
100
AcDbSpline
210
0.0
220
0.0
230
1.0
 70
     8
 71
     3
 72
    35
 73
    31
 74
     0
 42
0.0000000001
 43
0.0000000001
 40
0.0
 40
0.0
 40
0.0
 40
0.0
 40
0.7954819772566417
 40
1.592935449122936
 40
2.391558452776483
 40
3.189791581146437
 40
3.987150478210705
 40
4.784201636623552
 40
5.581025734174035
 40
6.377703382347911
 40
7.174936031783781
 40
7.972948302216728
 40
8.77109614608929
 40
9.568695930251797
 40
10.36480366956667
 40
11.1592204013463
 40
11.95382968893142
 40
12.74982344226682
 40
13.54649405815056
 40
14.34340252091361
 40
15.14027296375388
 40
15.93675426720311
 40
16.73257246051524
 40
17.52747178921903
 40
18.32243173275448
 40
19.11812221542588
 40
19.91441930188327
 40
20.71149479908168
 40
21.50632754654706
 40
22.30211872759988
 40
22.30211872759988
 40
22.30211872759988
 40
22.30211872759988
 10
-253.9574637916325
 20
-99.6304164615077
 30
0.0
 10
-254.2226244281286
 20
-99.63052591447979
 30
0.0
 10
-254.7537187482507
 20
-99.64558544006274
 30
0.0
 10
-255.5484528985302
 20
-99.71291761707938
 30
0.0
 10
-256.3391460743545
 20
-99.82444530936675
 30
0.0
 10
-257.1223452982225
 20
-99.97996967317238
 30
0.0
 10
-257.8950126476696
 20
-100.179329502589
 30
0.0
 10
-258.6547835064479
 20
-100.421717345839
 30
0.0
 10
-259.3995119292298
 20
-100.7063596307129
 30
0.0
 10
-260.1270895966312
 20
-101.0325116146824
 30
0.0
 10
-260.8354188134903
 20
-101.3994467249523
 30
0.0
 10
-261.5225342510543
 20
-101.8056639361172
 30
0.0
 10
-262.1861034345269
 20
-102.2495193157377
 30
0.0
 10
-262.8235121024767
 20
-102.7291307319445
 30
0.0
 10
-263.4323047835309
 20
-103.2426632950074
 30
0.0
 10
-264.0103820679836
 20
-103.7891185431864
 30
0.0
 10
-264.5560652348853
 20
-104.3678708682663
 30
0.0
 10
-265.0686850991172
 20
-104.9770615351155
 30
0.0
 10
-265.5470261651129
 20
-105.6144739169762
 30
0.0
 10
-265.9894346918239
 20
-106.2776793536455
 30
0.0
 10
-266.3944165928628
 20
-106.9643061005773
 30
0.0
 10
-266.7604739525917
 20
-107.6720461379055
 30
0.0
 10
-267.0861398005558
 20
-108.398542791837
 30
0.0
 10
-267.3701157826612
 20
-109.1417967852516
 30
0.0
 10
-267.6111208203705
 20
-109.9000288598841
 30
0.0
 10
-267.8090835705956
 20
-110.6710913877722
 30
0.0
 10
-267.9636597469092
 20
-111.4527157502333
 30
0.0
 10
-268.0749129907894
 20
-112.2413837931236
 30
0.0
 10
-268.1422800822014
 20
-113.0348240057297
 30
0.0
 10
-268.1572817352902
 20
-113.5651527310264
 30
0.0
 10
-268.1573419516784
 20
-113.8304164512093
 30
0.0
  0
LINE
  5
10E16
330
18
100
AcDbEntity
  8
01
  6
Continuous
100
AcDbLine
 10
-249.1573313455864
 20
-98.13041638564516
 30
0.0
 11
-253.9573623251057
 21
-98.13041638564516
 31
0.0
  0
LINE
  5
10E18
330
18
100
AcDbEntity
  8
01
  6
Continuous
100
AcDbLine
 10
-249.157334084041
 20
-99.63041645121222
 30
0.0
 11
-253.9573623251057
 21
-99.63041645121222
 31
0.0
  0
LINE
  5
10E22
330
18
100
AcDbEntity
  8
01
  6
Continuous
100
AcDbLine
 10
-253.957331167719
 20
-97.13042650241357
 30
0.0
 11
-249.1573295199684
 21
-97.13042650241357
 31
0.0
  0
ARC
  5
10E24
330
18
100
AcDbEntity
  8
01
  6
Continuous
100
AcDbCircle
 10
-114.9573387009571
 20
-113.8304628533225
 30
0.0
 40
26.00003659132259
100
AcDbArc
 50
291.5891864743117
 51
89.99998339872997
  0
ARC
  5
10E25
330
18
100
AcDbEntity
  8
01
  6
Continuous
100
AcDbCircle
 10
253.9573236349955
 20
-113.8304628536081
 30
0.0
 40
26.00003659160809
210
0.0
220
0.0
230
-1.0
100
AcDbArc
 50
291.5892103052894
 51
89.99998339987639
  0
ARC
  5
10E26
330
18
100
AcDbEntity
  8
01
  6
Continuous
100
AcDbCircle
 10
-253.9573736924916
 20
-113.8304157174783
 30
0.0
 40
16.69998921511885
100
AcDbArc
 50
89.99985410225681
 51
228.0950295406023
  0
LINE
  5
10E5B
330
18
100
AcDbEntity
  8
01
  6
Continuous
100
AcDbLine
 10
-249.1573381008137
 20
-96.87529824740915
 30
0.0
 11
-249.1573381008302
 21
-104.3627410334748
 31
0.0
  0
LINE
  5
10E80
330
18
100
AcDbEntity
  8
01
100
AcDbLine
 10
-240.1757566695991
 20
-118.8304497089526
 30
0.0
 11
-216.0854934586596
 21
-118.8304497089526
 31
0.0
  0
LINE
  5
10E97
330
18
100
AcDbEntity
  8
01
100
AcDbLine
 10
-253.9573311679033
 20
-87.83042626200098
 30
0.0
 11
-114.9573311675291
 21
-87.83042626200098
 31
0.0
  0
LINE
  5
10F5B
330
18
100
AcDbEntity
  8
01
100
AcDbLine
 10
-228.4573311677199
 20
-113.258292545058
 30
0.0
 11
-228.4573311677199
 21
-124.5098015873958
 31
0.0
  0
LINE
  5
10F5C
330
18
100
AcDbEntity
  8
01
100
AcDbLine
 10
-140.457331167718
 20
-124.4424894259913
 30
0.0
 11
-140.457331167718
 21
-113.2582925451971
 31
0.0
  0
SPLINE
  5
10F72
330
18
100
AcDbEntity
  8
01
  6
Continuous
100
AcDbSpline
210
0.0
220
0.0
230
1.0
 70
     8
 71
     3
 72
    13
 73
     9
 74
     0
 42
0.0000000001
 43
0.0000000001
 40
0.0
 40
0.0
 40
0.0
 40
0.0
 40
0.578741079202888
 40
1.10281979025136
 40
1.551394316416627
 40
1.999541596535528
 40
2.52116541764501
 40
3.166470985188387
 40
3.166470985188387
 40
3.166470985188387
 40
3.166470985188387
 10
-247.1573273169243
 20
-106.4118363762247
 30
0.0
 10
-247.3495757625416
 20
-106.4118363762323
 30
0.0
 10
-247.7181299770074
 20
-106.3722843988892
 30
0.0
 10
-248.1938517840455
 20
-106.2175998153352
 30
0.0
 10
-248.5688842390601
 20
-106.0100058683281
 30
0.0
 10
-248.8680428250947
 20
-105.7578549513332
 30
0.0
 10
-249.0980083928718
 20
-105.4385021378173
 30
0.0
 10
-249.1573273169744
 20
-105.2021581169051
 30
0.0
 10
-249.1573273169789
 20
-105.078173390405
 30
0.0
  0
LINE
  5
10F73
330
18
100
AcDbEntity
  8
01
  6
Continuous
100
AcDbLine
 10
-247.1573273169243
 20
-106.4118417064205
 30
0.0
 11
-121.4573311707667
 21
-106.4118417014249
 31
0.0
  0
SPLINE
  5
10F74
330
18
100
AcDbEntity
  8
01
  6
Continuous
100
AcDbSpline
210
0.0
220
0.0
230
1.0
 70
     8
 71
     3
 72
    13
 73
     9
 74
     0
 42
0.0000000001
 43
0.0000000001
 40
0.0
 40
0.0
 40
0.0
 40
0.0
 40
0.5787410792028008
 40
1.102819790251222
 40
1.551394316416506
 40
1.999541596535395
 40
2.521165417644815
 40
3.166470985188373
 40
3.166470985188373
 40
3.166470985188373
 40
3.166470985188373
 10
-121.7572787930158
 20
-106.4118417014263
 30
0.0
 10
-121.5650303473986
 20
-106.4118417014188
 30
0.0
 10
-121.1964761329365
 20
-106.3722897240463
 30
0.0
 10
-120.7207543259102
 20
-106.2176051404547
 30
0.0
 10
-120.3457218709128
 20
-106.0100111934175
 30
0.0
 10
-120.0465632848992
 20
-105.757860276399
 30
0.0
 10
-119.8165977171485
 20
-105.4385074628649
 30
0.0
 10
-119.7572787930659
 20
-105.2021634419479
 30
0.0
 10
-119.7572787930704
 20
-105.0781787154476
 30
0.0
  0
LINE
  5
10F75
330
18
100
AcDbEntity
  8
01
100
AcDbLine
 10
-119.7572895769034
 20
-96.87529824740915
 30
0.0
 11
-249.1573381008137
 21
-96.87529824740915
 31
0.0
  0
SPLINE
  5
12BE5
330
18
100
AcDbEntity
  8
01
  6
Continuous
100
AcDbSpline
210
0.0
220
0.0
230
1.0
 70
    28
 71
     2
 72
     8
 73
     5
 74
     0
 42
0.0000000001
 43
0.0000000001
 40
0.6997427643176484
 40
0.6997427643176484
 40
0.6997427643176484
 40
1.570796326794942
 40
1.570796326794942
 40
3.14159265358979
 40
3.14159265358979
 40
3.14159265358979
 10
-119.4573203852828
 20
-158.7095047722797
 30
0.0
 41
0.855295233740064
 10
-119.4573203852825
 20
-158.7095049534613
 30
0.0
 41
0.8375819466082793
 10
-119.4573203852827
 20
-154.6183940850352
 30
0.0
 41
1.0
 10
-119.4573203852825
 20
-145.8794578503294
 30
0.0
 41
0.7071067811865471
 10
-119.4573203852827
 20
-138.591483456859
 30
0.0
 41
1.0
  0
LINE
  5
12BE6
330
18
100
AcDbEntity
  8
01
  6
Continuous
100
AcDbLine
 10
-119.4573203852827
 20
-138.591483456856
 30
0.0
 11
-119.4573203852827
 21
-100.3304164569212
 31
0.0
  0
LINE
  5
12BE7
330
18
100
AcDbEntity
  8
01
  6
Continuous
100
AcDbLine
 10
-119.4573203852827
 20
-100.3304164569212
 30
0.0
 11
-114.9573203852845
 21
-100.3304164569212
 31
0.0
  0
ARC
  5
12BE8
330
18
100
AcDbEntity
  8
01
  6
Continuous
100
AcDbCircle
 10
115.0347391854715
 20
-113.820573146752
 30
0.0
 40
13.57742236827282
210
0.0
220
0.0
230
-1.0
100
AcDbArc
 50
180.0415380890173
 51
197.5340498089013
  0
SPLINE
  5
12BE9
330
18
100
AcDbEntity
  8
01
  6
Continuous
100
AcDbSpline
210
0.0
220
0.0
230
1.0
 70
     8
 71
     9
 72
    35
 73
    25
 74
     0
 42
0.0000000001
 43
0.0000000001
 40
0.5000000000000094
 40
0.5000000000000094
 40
0.5000000000000094
 40
0.5000000000000094
 40
0.5000000000000094
 40
0.5000000000000094
 40
0.5000000000000094
 40
0.5000000000000094
 40
0.5000000000000094
 40
0.5000000000000094
 40
0.625
 40
0.625
 40
0.625
 40
0.625
 40
0.625
 40
0.75
 40
0.75
 40
0.75
 40
0.75
 40
0.75
 40
0.875
 40
0.875
 40
0.875
 40
0.875
 40
0.875
 40
1.0
 40
1.0
 40
1.0
 40
1.0
 40
1.0
 40
1.0
 40
1.0
 40
1.0
 40
1.0
 40
1.0
 10
-101.4573203852827
 20
-113.8304164569191
 30
0.0
 10
-101.4573203852827
 20
-113.2413705076193
 30
0.0
 10
-101.4868256193962
 20
-112.652324558319
 30
0.0
 10
-101.545124587405
 20
-112.0649676527852
 30
0.0
 10
-101.631707051801
 20
-111.4808462789741
 30
0.0
 10
-101.7460460292981
 20
-110.9014093671977
 30
0.0
 10
-102.0314254905082
 20
-109.7551923530178
 30
0.0
 10
-102.429774331745
 20
-108.6413406620983
 30
0.0
 10
-102.9375638681662
 20
-107.5729958706485
 30
0.0
 10
-103.5466641116039
 20
-106.5610551057744
 30
0.0
 10
-103.873522365788
 20
-106.0693196248445
 30
0.0
 10
-104.5752916528394
 20
-105.1191870206208
 30
0.0
 10
-105.3689615608094
 20
-104.2420252141038
 30
0.0
 10
-106.246376550151
 20
-103.4486850283339
 30
0.0
 10
-107.1961760275311
 20
-102.7465587820435
 30
0.0
 10
-107.6874713110113
 20
-102.4189347754105
 30
0.0
 10
-108.6998102471874
 20
-101.8104657370437
 30
0.0
 10
-109.7684706857893
 20
-101.303451905792
 30
0.0
 10
-110.8822083992849
 20
-100.90498411177
 30
0.0
 10
-112.0282672595925
 20
-100.6190398305344
 30
0.0
 10
-112.6077479760873
 20
-100.5047515251414
 30
0.0
 10
-113.1918737609861
 20
-100.4182235978434
 30
0.0
 10
-113.7792284866822
 20
-100.3599407242501
 30
0.0
 10
-114.3682744359824
 20
-100.33041645692
 30
0.0
 10
-114.9573203852827
 20
-100.33041645692
 30
0.0
  0
SPLINE
  5
12BEA
330
18
100
AcDbEntity
  8
01
  6
Continuous
100
AcDbSpline
210
0.0
220
0.0
230
1.0
 70
     8
 71
     3
 72
    23
 73
    19
 74
     0
 42
0.0000000001
 43
0.0000000001
 40
0.0
 40
0.0
 40
0.0
 40
0.0
 40
1.060013837296629
 40
2.390923573127008
 40
5.273123211153112
 40
7.566735562780275
 40
9.165887778377172
 40
10.41374939675096
 40
11.26060257040272
 40
12.20205273431921
 40
12.89363436837555
 40
14.47658657232807
 40
15.03334602042632
 40
15.31225166227728
 40
15.87029197736712
 40
16.14910475891938
 40
16.42758071609943
 40
16.70559430825149
 40
16.70559430825149
 40
16.70559430825149
 40
16.70559430825149
 10
-106.5142144025807
 20
-146.3205959424059
 30
0.0
 10
-106.4745021830762
 20
-146.6715864315989
 30
0.0
 10
-106.4146735452799
 20
-147.4669752117655
 30
0.0
 10
-106.4320358831168
 20
-149.2260575698875
 30
0.0
 10
-106.7861835806364
 20
-151.3775904029422
 30
0.0
 10
-107.6251148089099
 20
-153.483245912986
 30
0.0
 10
-108.54366740278
 20
-154.9346937952642
 30
0.0
 10
-109.3483932831754
 20
-155.8702610720726
 30
0.0
 10
-110.0904783463987
 20
-156.5598879777132
 30
0.0
 10
-110.747539086515
 20
-157.0618036638492
 30
0.0
 10
-111.6513233721683
 20
-157.6342672564361
 30
0.0
 10
-112.5014985760611
 20
-158.03855031673
 30
0.0
 10
-113.2566204651297
 20
-158.3032517535542
 30
0.0
 10
-113.6972538005615
 20
-158.4381076337662
 30
0.0
 10
-114.0541078282689
 20
-158.5314414512266
 30
0.0
 10
-114.4139316388795
 20
-158.6122095381175
 30
0.0
 10
-114.6854130668975
 20
-158.6622495593482
 30
0.0
 10
-114.8658254027217
 20
-158.7001894795834
 30
0.0
 10
-114.9573812527509
 20
-158.709515220709
 30
0.0
  0
SPLINE
  5
12BEB
330
18
100
AcDbEntity
  8
01
  6
Continuous
100
AcDbSpline
210
0.0
220
0.0
230
1.0
 70
     8
 71
     3
 72
    16
 73
    12
 74
     0
 42
0.0000000001
 43
0.0000000001
 40
1.204168568669187
 40
1.204168568669187
 40
1.204168568669187
 40
1.204168568669187
 40
12.40926085882099
 40
22.32270216093568
 40
37.16007571856927
 40
47.02016304598424
 40
56.84219576701841
 40
61.73298698111235
 40
71.45644489372468
 40
76.27819323674619
 40
80.39887247925239
 40
80.39887247925239
 40
80.39887247925239
 40
80.39887247925239
 10
-106.4302220372395
 20
-147.5171031950848
 30
0.0
 10
-106.2044112874485
 20
-145.3050141054192
 30
0.0
 10
-105.7795700510627
 20
-141.3185266360634
 30
0.0
 10
-105.0608468351923
 20
-135.1569980406531
 30
0.0
 10
-104.3763248541221
 20
-129.9667176820666
 30
0.0
 10
-103.7090960514446
 20
-125.5950538892324
 30
0.0
 10
-103.2493014256509
 20
-122.9735313124221
 30
0.0
 10
-102.8136702388359
 20
-120.7677335040761
 30
0.0
 10
-102.4900473363362
 20
-119.3487622751369
 30
0.0
 10
-102.2286020092437
 20
-118.37128333115
 30
0.0
 10
-102.1271063739271
 20
-118.0340653510537
 30
0.0
 10
-102.0881249287534
 20
-117.91099844248
 30
0.0
  0
LINE
  5
12BEC
330
18
100
AcDbEntity
  8
01
  6
Continuous
100
AcDbLine
 10
-119.4573203852827
 20
-158.7095047722797
 30
0.0
 11
-114.9573203852845
 21
-158.7095047722797
 31
0.0
  0
SPLINE
  5
12BED
330
18
100
AcDbEntity
  8
01
  6
Continuous
100
AcDbSpline
210
0.0
220
0.0
230
1.0
 70
     8
 71
     3
 72
    21
 73
    17
 74
     0
 42
0.0000000001
 43
0.0000000001
 40
0.0
 40
0.0
 40
0.0
 40
0.0
 40
0.7954830976566911
 40
1.592937692550879
 40
2.391561806917478
 40
3.18979602482719
 40
3.987156004075897
 40
4.784208261361029
 40
5.581033476156777
 40
6.377712259532462
 40
7.174946040435624
 40
7.972959424454087
 40
8.771108361431249
 40
9.568709217680174
 40
10.36481803143725
 40
10.72892203235248
 40
10.72892203235248
 40
10.72892203235248
 40
10.72892203235248
 10
-99.25732042973539
 20
-113.8308661652814
 30
0.0
 10
-99.25738041646708
 20
-114.1242783056865
 30
0.0
 10
-99.27414008741232
 20
-114.7117902619826
 30
0.0
 10
-99.34850243238305
 20
-115.5897628530093
 30
0.0
 10
-99.47170003702774
 20
-116.4631793773179
 30
0.0
 10
-99.64364510385292
 20
-117.3291189944803
 30
0.0
 10
-99.86418542347053
 20
-118.1838799296723
 30
0.0
 10
-100.1322317471453
 20
-119.0240516846649
 30
0.0
 10
-100.4470073892556
 20
-119.84763609453
 30
0.0
 10
-100.8078698268022
 20
-120.6526380567735
 30
0.0
 10
-101.2136851804229
 20
-121.4359971721152
 30
0.0
 10
-101.6624539064099
 20
-122.1950636401051
 30
0.0
 10
-102.1526510497055
 20
-122.9279085752306
 30
0.0
 10
-102.6823192170881
 20
-123.6318449804695
 30
0.0
 10
-103.1477044671177
 20
-124.1835910615583
 30
0.0
 10
-103.4371777394839
 20
-124.4993494886749
 30
0.0
 10
-103.5293241790726
 20
-124.5972670959915
 30
0.0
  0
SPLINE
  5
12BEE
330
18
100
AcDbEntity
  8
01
  6
Continuous
100
AcDbSpline
210
0.0
220
0.0
230
1.0
 70
     8
 71
     3
 72
    17
 73
    13
 74
     0
 42
0.0000000001
 43
0.0000000001
 40
0.0
 40
0.0
 40
0.0
 40
0.0
 40
0.7954830976566911
 40
1.592937692550879
 40
2.391561806917478
 40
3.18979602482719
 40
3.987156004075897
 40
4.784208261361029
 40
5.581033476156777
 40
6.377712259532462
 40
7.174946040435624
 40
7.960811521407159
 40
7.960811521407159
 40
7.960811521407159
 40
7.960811521407159
 10
-100.7573203983869
 20
-113.8305595629127
 30
0.0
 10
-100.757430252453
 20
-114.0957205727092
 30
0.0
 10
-100.7724906194311
 20
-114.6268156182765
 30
0.0
 10
-100.8398241673597
 20
-115.4215507759319
 30
0.0
 10
-100.951353339687
 20
-116.2122448634449
 30
0.0
 10
-101.1068792950831
 20
-116.9954448887978
 30
0.0
 10
-101.3062408343306
 20
-117.7681129250892
 30
0.0
 10
-101.5486304924465
 20
-118.5278843607904
 30
0.0
 10
-101.8332746845275
 20
-119.2726132523079
 30
0.0
 10
-102.1594286505382
 20
-120.0001912689373
 30
0.0
 10
-102.5245022306866
 20
-120.7049232995129
 30
0.0
 10
-102.7929971233665
 20
-121.159521277404
 30
0.0
 10
-102.9323578675488
 20
-121.3813699275794
 30
0.0
  0
SPLINE
  5
12BEF
330
18
100
AcDbEntity
  8
01
  6
Continuous
100
AcDbSpline
210
0.0
220
0.0
230
1.0
 70
     8
 71
     3
 72
    35
 73
    31
 74
     0
 42
0.0000000001
 43
0.0000000001
 40
0.0
 40
0.0
 40
0.0
 40
0.0
 40
0.7954819772566417
 40
1.592935449122936
 40
2.391558452776483
 40
3.189791581146437
 40
3.987150478210705
 40
4.784201636623552
 40
5.581025734174035
 40
6.377703382347911
 40
7.174936031783781
 40
7.972948302216728
 40
8.77109614608929
 40
9.568695930251797
 40
10.36480366956667
 40
11.1592204013463
 40
11.95382968893142
 40
12.74982344226682
 40
13.54649405815056
 40
14.34340252091361
 40
15.14027296375388
 40
15.93675426720311
 40
16.73257246051524
 40
17.52747178921903
 40
18.32243173275448
 40
19.11812221542588
 40
19.91441930188327
 40
20.71149479908168
 40
21.50632754654706
 40
22.30211872759988
 40
22.30211872759988
 40
22.30211872759988
 40
22.30211872759988
 10
-114.9568941442234
 20
-98.13041642682685
 30
0.0
 10
-114.66348240899
 20
-98.13047596976742
 30
0.0
 10
-114.0759712385755
 20
-98.14723471031369
 30
0.0
 10
-113.1979997377142
 20
-98.22159554282904
 30
0.0
 10
-112.3245842190612
 20
-98.34479151325025
 30
0.0
 10
-111.4586455128777
 20
-98.51673481567752
 30
0.0
 10
-110.6038853685708
 20
-98.7372732356763
 30
0.0
 10
-109.7637142563229
 20
-99.00531755052327
 30
0.0
 10
-108.9401303548187
 20
-99.32009108696309
 30
0.0
 10
-108.1351287451528
 20
-99.68095134659883
 30
0.0
 10
-107.3517698428944
 20
-100.0867644593792
 30
0.0
 10
-106.5927034377213
 20
-100.5355308812726
 30
0.0
 10
-105.8598583952474
 20
-101.0257256641504
 30
0.0
 10
-105.155921715754
 20
-101.5553914064427
 30
0.0
 10
-104.4829052109147
 20
-102.1230626239434
 30
0.0
 10
-103.8423232566477
 20
-102.7285850873248
 30
0.0
 10
-103.2377813728629
 20
-103.3697862413397
 30
0.0
 10
-102.6711104510362
 20
-104.0432456622978
 30
0.0
 10
-102.1427147863463
 20
-104.7473647923703
 30
0.0
 10
-101.6541702986636
 20
-105.4797360385861
 30
0.0
 10
-101.2069306089337
 20
-106.2380000604704
 30
0.0
 10
-100.8024532302528
 20
-107.0200094832274
 30
0.0
 10
-100.4423368692554
 20
-107.82331260602
 30
0.0
 10
-100.1278237241489
 20
-108.6464669252651
 30
0.0
 10
-99.86093735399606
 20
-109.4861620625448
 30
0.0
 10
-99.64202548220363
 20
-110.3388444626854
 30
0.0
 10
-99.47123292765844
 20
-111.2027026296242
 30
0.0
 10
-99.34855673963046
 20
-112.0719214455392
 30
0.0
 10
-99.27390939967825
 20
-112.9514868976022
 30
0.0
 10
-99.2573203837577
 20
-113.5373254937668
 30
0.0
 10
-99.2573203837577
 20
-113.830416385642
 30
0.0
  0
SPLINE
  5
12BF0
330
18
100
AcDbEntity
  8
01
  6
Continuous
100
AcDbSpline
210
0.0
220
0.0
230
1.0
 70
     8
 71
     3
 72
    35
 73
    31
 74
     0
 42
0.0000000001
 43
0.0000000001
 40
0.0
 40
0.0
 40
0.0
 40
0.0
 40
0.7954819772566417
 40
1.592935449122936
 40
2.391558452776483
 40
3.189791581146437
 40
3.987150478210705
 40
4.784201636623552
 40
5.581025734174035
 40
6.377703382347911
 40
7.174936031783781
 40
7.972948302216728
 40
8.77109614608929
 40
9.568695930251797
 40
10.36480366956667
 40
11.1592204013463
 40
11.95382968893142
 40
12.74982344226682
 40
13.54649405815056
 40
14.34340252091361
 40
15.14027296375388
 40
15.93675426720311
 40
16.73257246051524
 40
17.52747178921903
 40
18.32243173275448
 40
19.11812221542588
 40
19.91441930188327
 40
20.71149479908168
 40
21.50632754654706
 40
22.30211872759988
 40
22.30211872759988
 40
22.30211872759988
 40
22.30211872759988
 10
-114.9571985438036
 20
-99.6304164615077
 30
0.0
 10
-114.6920379073075
 20
-99.63052591447979
 30
0.0
 10
-114.1609435871854
 20
-99.64558544006274
 30
0.0
 10
-113.3662094369059
 20
-99.71291761707938
 30
0.0
 10
-112.5755162610816
 20
-99.82444530936675
 30
0.0
 10
-111.7923170372136
 20
-99.97996967317238
 30
0.0
 10
-111.0196496877664
 20
-100.179329502589
 30
0.0
 10
-110.2598788289882
 20
-100.421717345839
 30
0.0
 10
-109.5151504062063
 20
-100.7063596307129
 30
0.0
 10
-108.7875727388049
 20
-101.0325116146824
 30
0.0
 10
-108.0792435219458
 20
-101.3994467249523
 30
0.0
 10
-107.3921280843818
 20
-101.8056639361172
 30
0.0
 10
-106.7285589009092
 20
-102.2495193157377
 30
0.0
 10
-106.0911502329594
 20
-102.7291307319445
 30
0.0
 10
-105.4823575519052
 20
-103.2426632950074
 30
0.0
 10
-104.9042802674524
 20
-103.7891185431864
 30
0.0
 10
-104.3585971005508
 20
-104.3678708682663
 30
0.0
 10
-103.8459772363188
 20
-104.9770615351155
 30
0.0
 10
-103.3676361703232
 20
-105.6144739169762
 30
0.0
 10
-102.9252276436122
 20
-106.2776793536455
 30
0.0
 10
-102.5202457425733
 20
-106.9643061005773
 30
0.0
 10
-102.1541883828444
 20
-107.6720461379055
 30
0.0
 10
-101.8285225348803
 20
-108.398542791837
 30
0.0
 10
-101.5445465527749
 20
-109.1417967852516
 30
0.0
 10
-101.3035415150656
 20
-109.9000288598841
 30
0.0
 10
-101.1055787648405
 20
-110.6710913877722
 30
0.0
 10
-100.9510025885268
 20
-111.4527157502333
 30
0.0
 10
-100.8397493446467
 20
-112.2413837931236
 30
0.0
 10
-100.7723822532347
 20
-113.0348240057297
 30
0.0
 10
-100.7573806001459
 20
-113.5651527310264
 30
0.0
 10
-100.7573203837577
 20
-113.8304164512093
 30
0.0
  0
LINE
  5
12BF1
330
18
100
AcDbEntity
  8
01
  6
Continuous
100
AcDbLine
 10
-119.7573309898497
 20
-98.13041638564516
 30
0.0
 11
-114.9573000103304
 21
-98.13041638564516
 31
0.0
  0
LINE
  5
12BF2
330
18
100
AcDbEntity
  8
01
  6
Continuous
100
AcDbLine
 10
-119.757328251395
 20
-99.63041645121222
 30
0.0
 11
-114.9573000103304
 21
-99.63041645121222
 31
0.0
  0
LINE
  5
12BF3
330
18
100
AcDbEntity
  8
01
  6
Continuous
100
AcDbLine
 10
-114.9573311677171
 20
-97.13042650241357
 30
0.0
 11
-119.7573328154677
 21
-97.13042650241357
 31
0.0
  0
ARC
  5
12BF4
330
18
100
AcDbEntity
  8
01
  6
Continuous
100
AcDbCircle
 10
-114.9572886429445
 20
-113.8304157174783
 30
0.0
 40
16.69998921511885
100
AcDbArc
 50
311.9049704593988
 51
90.00014589774322
  0
LINE
  5
12BF5
330
18
100
AcDbEntity
  8
01
  6
Continuous
100
AcDbLine
 10
-119.7573242346224
 20
-96.87529824740915
 30
0.0
 11
-119.7573242346043
 21
-105.0781787154476
 31
0.0
  0
LINE
  5
12D4B
330
18
100
AcDbEntity
  8
01
100
AcDbLine
 10
-145.957331167718
 20
-121.0804262838566
 30
0.0
 11
-134.957370767392
 21
-121.0804262838568
 31
0.0
  0
LINE
  5
12D4C
330
18
100
AcDbEntity
  8
01
100
AcDbLine
 10
-145.957331167718
 20
-116.5804262838566
 30
0.0
 11
-134.9573311677199
 21
-116.5804262838566
 31
0.0
  0
LINE
  5
12D4D
330
18
100
AcDbEntity
  8
01
100
AcDbLine
 10
-145.957331167718
 20
-123.8304263931349
 30
0.0
 11
-134.9573311677199
 21
-123.8304263931349
 31
0.0
  0
ARC
  5
12D4E
330
18
100
AcDbEntity
  8
01
100
AcDbCircle
 10
-134.9573311677199
 20
-118.8304497089526
 30
0.0
 40
4.999976684182229
100
AcDbArc
 50
270.0
 51
90.0
  0
ARC
  5
12D4F
330
18
100
AcDbEntity
  8
01
100
AcDbCircle
 10
-145.957331167718
 20
-118.8304497089526
 30
0.0
 40
4.999976684182229
100
AcDbArc
 50
90.0
 51
270.0
  0
ARC
  5
12D50
330
18
100
AcDbEntity
  8
01
100
AcDbCircle
 10
-134.9573311677199
 20
-118.8304497089526
 30
0.0
 40
2.249976574903939
100
AcDbArc
 50
269.9989915921257
 51
90.0
  0
ARC
  5
12D51
330
18
100
AcDbEntity
  8
01
100
AcDbCircle
 10
-145.957331167718
 20
-118.8304497089526
 30
0.0
 40
2.249976574903939
100
AcDbArc
 50
90.0
 51
270.0
  0
LINE
  5
12D52
330
18
100
AcDbEntity
  8
01
100
AcDbLine
 10
-145.957331167718
 20
-113.8304730247704
 30
0.0
 11
-134.9573311677199
 21
-113.8304730247704
 31
0.0
  0
LINE
  5
12D53
330
18
100
AcDbEntity
  8
01
100
AcDbLine
 10
-233.9573311677181
 20
-121.0804262838566
 30
0.0
 11
-222.9573707673921
 21
-121.0804262838568
 31
0.0
  0
LINE
  5
12D54
330
18
100
AcDbEntity
  8
01
100
AcDbLine
 10
-233.9573311677181
 20
-116.5804262838566
 30
0.0
 11
-222.9573311677199
 21
-116.5804262838566
 31
0.0
  0
LINE
  5
12D55
330
18
100
AcDbEntity
  8
01
100
AcDbLine
 10
-233.9573311677181
 20
-123.8304263931349
 30
0.0
 11
-222.9573311677199
 21
-123.8304263931349
 31
0.0
  0
ARC
  5
12D56
330
18
100
AcDbEntity
  8
01
100
AcDbCircle
 10
-222.9573311677199
 20
-118.8304497089526
 30
0.0
 40
4.999976684182229
100
AcDbArc
 50
270.0
 51
90.0
  0
ARC
  5
12D57
330
18
100
AcDbEntity
  8
01
100
AcDbCircle
 10
-233.9573311677181
 20
-118.8304497089526
 30
0.0
 40
4.999976684182229
100
AcDbArc
 50
90.0
 51
270.0
  0
ARC
  5
12D58
330
18
100
AcDbEntity
  8
01
100
AcDbCircle
 10
-222.9573311677199
 20
-118.8304497089526
 30
0.0
 40
2.249976574903939
100
AcDbArc
 50
269.9989915921257
 51
90.0
  0
ARC
  5
12D59
330
18
100
AcDbEntity
  8
01
100
AcDbCircle
 10
-233.9573311677181
 20
-118.8304497089526
 30
0.0
 40
2.249976574903939
100
AcDbArc
 50
90.0
 51
270.0
  0
LINE
  5
12D5A
330
18
100
AcDbEntity
  8
01
100
AcDbLine
 10
-233.9573311677181
 20
-113.8304730247704
 30
0.0
 11
-222.9573311677199
 21
-113.8304730247704
 31
0.0
  0
SPLINE
  5
12D5D
330
18
100
AcDbEntity
  8
01
  6
Continuous
100
AcDbSpline
210
0.0
220
0.0
230
1.0
 70
     8
 71
     3
 72
    13
 73
     9
 74
     0
 42
0.0000000001
 43
0.0000000001
 40
0.0
 40
0.0
 40
0.0
 40
0.0
 40
0.578741079202888
 40
1.10281979025136
 40
1.551394316416627
 40
1.999541596535528
 40
2.52116541764501
 40
3.166470985188387
 40
3.166470985188387
 40
3.166470985188387
 40
3.166470985188387
 10
-247.1573273169243
 20
-105.6964040192945
 30
0.0
 10
-247.3495757625416
 20
-105.696404019302
 30
0.0
 10
-247.7181299770074
 20
-105.6568520419589
 30
0.0
 10
-248.1938517840455
 20
-105.502167458405
 30
0.0
 10
-248.5688842390601
 20
-105.2945735113978
 30
0.0
 10
-248.8680428250947
 20
-105.0424225944029
 30
0.0
 10
-249.0980083928718
 20
-104.723069780887
 30
0.0
 10
-249.1573273169744
 20
-104.4867257599749
 30
0.0
 10
-249.1573273169789
 20
-104.3627410334748
 30
0.0
  0
LINE
  5
12D5E
330
18
100
AcDbEntity
  8
01
  6
Continuous
100
AcDbLine
 10
-247.1573273169243
 20
-105.6964093494903
 30
0.0
 11
-121.4573311707667
 21
-105.6964093444946
 31
0.0
  0
SPLINE
  5
12D5F
330
18
100
AcDbEntity
  8
01
  6
Continuous
100
AcDbSpline
210
0.0
220
0.0
230
1.0
 70
     8
 71
     3
 72
    13
 73
     9
 74
     0
 42
0.0000000001
 43
0.0000000001
 40
0.0
 40
0.0
 40
0.0
 40
0.0
 40
0.5787410792028008
 40
1.102819790251222
 40
1.551394316416506
 40
1.999541596535395
 40
2.521165417644815
 40
3.166470985188373
 40
3.166470985188373
 40
3.166470985188373
 40
3.166470985188373
 10
-121.7572787930158
 20
-105.696409344496
 30
0.0
 10
-121.5650303473986
 20
-105.6964093444885
 30
0.0
 10
-121.1964761329365
 20
-105.6568573671161
 30
0.0
 10
-120.7207543259102
 20
-105.5021727835244
 30
0.0
 10
-120.3457218709128
 20
-105.2945788364873
 30
0.0
 10
-120.0465632848992
 20
-105.0424279194687
 30
0.0
 10
-119.8165977171485
 20
-104.7230751059346
 30
0.0
 10
-119.7572787930659
 20
-104.4867310850177
 30
0.0
 10
-119.7572787930704
 20
-104.3627463585173
 30
0.0
  0
LINE
  5
12D60
330
18
100
AcDbEntity
  8
01
100
AcDbLine
 10
-244.45733116801
 20
-147.9304300921623
 30
0.0
 11
-244.45733116801
 21
-144.1812265016728
 31
0.0
  0
LINE
  5
12D61
330
18
100
AcDbEntity
  8
01
100
AcDbLine
 10
-244.4573311678745
 20
-144.1812265047186
 30
0.0
 11
-244.4573311678745
 21
-142.7063383403907
 31
0.0
  0
SPLINE
  5
12D62
330
18
100
AcDbEntity
  8
01
100
AcDbSpline
210
0.0
220
0.0
230
1.0
 70
     8
 71
     3
 72
    36
 73
    32
 74
     0
 42
0.0000000001
 43
0.0000000001
 40
0.0
 40
0.0
 40
0.0
 40
0.0
 40
0.1825821871556857
 40
0.3651643743113714
 40
0.5477465614670571
 40
0.7303287486227428
 40
0.9129109357784283
 40
1.095493122934114
 40
1.278075310089799
 40
1.460657497245485
 40
1.64323968440117
 40
1.825821871556856
 40
2.011080392399097
 40
2.196338913241338
 40
2.381597434083578
 40
2.566855954925819
 40
2.753491712727031
 40
2.940127470528243
 40
3.126763228329456
 40
3.313398986130668
 40
3.50003474393188
 40
3.686670501733092
 40
3.873306259534304
 40
4.026779671822874
 40
4.180253084111445
 40
4.333726496400015
 40
4.487199908688586
 40
4.67354724000014
 40
4.859894571311695
 40
5.046241902623251
 40
5.232589233934801
 40
5.232589233934801
 40
5.232589233934801
 40
5.232589233934801
 10
-221.95733116797
 20
-142.7311741489826
 30
0.0
 10
-221.9573311679709
 20
-142.7505861973615
 30
0.0
 10
-221.9603255722972
 20
-142.7900467533589
 30
0.0
 10
-221.9736502968557
 20
-142.8509562423634
 30
0.0
 10
-221.995658044579
 20
-142.9133936636623
 30
0.0
 10
-222.0261987205635
 20
-142.9771682945421
 30
0.0
 10
-222.0651222299051
 20
-143.0420894122893
 30
0.0
 10
-222.1122784777011
 20
-143.1079662941907
 30
0.0
 10
-222.1675173690468
 20
-143.174527379704
 30
0.0
 10
-222.2306888090383
 20
-143.2415011082872
 30
0.0
 10
-222.3016427027727
 20
-143.308615919398
 30
0.0
 10
-222.3806129340859
 20
-143.3759275433252
 30
0.0
 10
-222.467577900264
 20
-143.4431575153577
 30
0.0
 10
-222.5624955817269
 20
-143.5099707009127
 30
0.0
 10
-222.6647738572414
 20
-143.5757136007256
 30
0.0
 10
-222.7745126767589
 20
-143.6402174759754
 30
0.0
 10
-222.8916017218393
 20
-143.7031391320194
 30
0.0
 10
-223.0157936546988
 20
-143.7640564858262
 30
0.0
 10
-223.1464912249643
 20
-143.8224073554764
 30
0.0
 10
-223.2833859049919
 20
-143.8777847137568
 30
0.0
 10
-223.4261691607475
 20
-143.9297815298879
 30
0.0
 10
-223.5745324820431
 20
-143.9779907864
 30
0.0
 10
-223.7190677452712
 20
-144.019398505278
 30
0.0
 10
-223.8584900497448
 20
-144.0545032666738
 30
0.0
 10
-223.9915655903991
 20
-144.0839298579373
 30
0.0
 10
-224.1273296585099
 20
-144.1098307491994
 30
0.0
 10
-224.2752981031348
 20
-144.1335749625933
 30
0.0
 10
-224.4357169825201
 20
-144.1539351176333
 30
0.0
 10
-224.608245873192
 20
-144.1695117418145
 30
0.0
 10
-224.7828420514665
 20
-144.1792723346226
 30
0.0
 10
-224.8983544595907
 20
-144.1808059504202
 30
0.0
 10
-224.9574217628982
 20
-144.1812265082836
 30
0.0
  0
LINE
  5
12D63
330
18
100
AcDbEntity
  8
01
100
AcDbLine
 10
-219.9573311678745
 20
-144.6371401535658
 30
0.0
 11
-219.9573311678745
 21
-143.8613596913764
 31
0.0
  0
LINE
  5
12D64
330
18
100
AcDbEntity
  8
01
100
AcDbLine
 10
-221.9573311678745
 20
-142.7311741489826
 30
0.0
 11
-221.9573311678745
 21
-141.8613596913764
 31
0.0
  0
LINE
  5
12D65
330
18
100
AcDbEntity
  8
01
100
AcDbLine
 10
-244.4573311680273
 20
-144.1812265044156
 30
0.0
 11
-241.4573311680273
 21
-144.1812265044156
 31
0.0
  0
LINE
  5
12D66
330
18
100
AcDbEntity
  8
01
100
AcDbLine
 10
-241.4573311680273
 20
-144.1812435608438
 30
0.0
 11
-224.9574217628982
 21
-144.1812435608438
 31
0.0
  0
LINE
  5
12D67
330
18
100
AcDbEntity
  8
01
100
AcDbLine
 10
-224.9573311680109
 20
-147.9304300921623
 30
0.0
 11
-244.45733116801
 21
-147.9304300921623
 31
0.0
  0
LINE
  5
12D68
330
18
100
AcDbEntity
  8
01
100
AcDbLine
 10
-221.95733116796
 20
-147.9304299609767
 30
0.0
 11
-224.9573311680109
 21
-147.9304299609767
 31
0.0
  0
ARC
  5
12D69
330
18
100
AcDbEntity
  8
01
100
AcDbCircle
 10
221.95733116796
 20
-145.9304299609767
 30
0.0
 40
1.999999999999998
210
0.0
220
0.0
230
-1.0
100
AcDbArc
 50
180.0000000002345
 51
270.0
  0
LINE
  5
12D6A
330
18
100
AcDbEntity
  8
01
100
AcDbLine
 10
-219.95733116796
 20
-145.9304299609767
 30
0.0
 11
-219.95733116796
 21
-144.6371401535658
 31
0.0
  0
LINE
  5
12D6B
330
18
100
AcDbEntity
  8
01
100
AcDbLine
 10
-221.9573311678745
 20
-141.8613596969318
 30
0.0
 11
-244.4573311678745
 21
-141.8613596970959
 31
0.0
  0
ARC
  5
12D6C
330
18
100
AcDbEntity
  8
01
100
AcDbCircle
 10
-221.9573311678745
 20
-143.8613596913766
 30
0.0
 40
1.999999999999928
100
AcDbArc
 50
0.0
 51
89.99999999979156
  0
SPLINE
  5
12D6D
330
18
100
AcDbEntity
  8
01
100
AcDbSpline
210
0.0
220
0.0
230
1.0
 70
     8
 71
     3
 72
    36
 73
    32
 74
     0
 42
0.0000000001
 43
0.0000000001
 40
0.0
 40
0.0
 40
0.0
 40
0.0
 40
0.1825821871556857
 40
0.3651643743113714
 40
0.5477465614670571
 40
0.7303287486227428
 40
0.9129109357784283
 40
1.095493122934114
 40
1.278075310089799
 40
1.460657497245485
 40
1.64323968440117
 40
1.825821871556856
 40
2.011080392399097
 40
2.196338913241338
 40
2.381597434083578
 40
2.566855954925819
 40
2.753491712727031
 40
2.940127470528243
 40
3.126763228329456
 40
3.313398986130668
 40
3.50003474393188
 40
3.686670501733092
 40
3.873306259534304
 40
4.026779671822874
 40
4.180253084111445
 40
4.333726496400015
 40
4.487199908688586
 40
4.67354724000014
 40
4.859894571311695
 40
5.046241902623251
 40
5.232589233934801
 40
5.232589233934801
 40
5.232589233934801
 40
5.232589233934801
 10
-146.9573311673897
 20
-142.7311741489826
 30
0.0
 10
-146.9573311673888
 20
-142.7505861973615
 30
0.0
 10
-146.9543367630625
 20
-142.7900467533589
 30
0.0
 10
-146.9410120385049
 20
-142.8509562423634
 30
0.0
 10
-146.9190042907816
 20
-142.9133936636623
 30
0.0
 10
-146.8884636147962
 20
-142.9771682945421
 30
0.0
 10
-146.8495401054546
 20
-143.0420894122893
 30
0.0
 10
-146.8023838576586
 20
-143.1079662941907
 30
0.0
 10
-146.7471449663129
 20
-143.174527379704
 30
0.0
 10
-146.6839735263214
 20
-143.2415011082872
 30
0.0
 10
-146.6130196325879
 20
-143.308615919398
 30
0.0
 10
-146.5340494012738
 20
-143.3759275433252
 30
0.0
 10
-146.4470844350966
 20
-143.4431575153577
 30
0.0
 10
-146.3521667536337
 20
-143.5099707009127
 30
0.0
 10
-146.2498884781183
 20
-143.5757136007256
 30
0.0
 10
-146.1401496586007
 20
-143.6402174759754
 30
0.0
 10
-146.0230606135213
 20
-143.7031391320194
 30
0.0
 10
-145.8988686806618
 20
-143.7640564858262
 30
0.0
 10
-145.7681711103954
 20
-143.8224073554764
 30
0.0
 10
-145.6312764303678
 20
-143.8777847137568
 30
0.0
 10
-145.4884931746122
 20
-143.9297815298879
 30
0.0
 10
-145.3401298533175
 20
-143.9779907864
 30
0.0
 10
-145.1955945900885
 20
-144.019398505278
 30
0.0
 10
-145.0561722856158
 20
-144.0545032666738
 30
0.0
 10
-144.9230967449606
 20
-144.0839298579373
 30
0.0
 10
-144.7873326768507
 20
-144.1098307491994
 30
0.0
 10
-144.6393642322258
 20
-144.1335749625933
 30
0.0
 10
-144.4789453528395
 20
-144.1539351176335
 30
0.0
 10
-144.3064164621677
 20
-144.1695117418145
 30
0.0
 10
-144.1318202838932
 20
-144.1792723346226
 30
0.0
 10
-144.016307875769
 20
-144.1808059504202
 30
0.0
 10
-143.9572405724624
 20
-144.1812265082836
 30
0.0
  0
LINE
  5
12D6E
330
18
100
AcDbEntity
  8
01
100
AcDbLine
 10
-148.9573311674861
 20
-144.6371401535658
 30
0.0
 11
-148.9573311674861
 21
-143.8613596913764
 31
0.0
  0
LINE
  5
12D6F
330
18
100
AcDbEntity
  8
01
100
AcDbLine
 10
-146.9573311674861
 20
-142.7311741489826
 30
0.0
 11
-146.9573311674861
 21
-141.8613596913764
 31
0.0
  0
LINE
  5
12D71
330
18
100
AcDbEntity
  8
01
100
AcDbLine
 10
-124.4573311673333
 20
-144.1812265044156
 30
0.0
 11
-127.4573311673333
 21
-144.1812265044156
 31
0.0
  0
LINE
  5
12D72
330
18
100
AcDbEntity
  8
01
100
AcDbLine
 10
-127.4573311673333
 20
-144.1812435608438
 30
0.0
 11
-143.9572405724624
 21
-144.1812435608438
 31
0.0
  0
LINE
  5
12D73
330
18
100
AcDbEntity
  8
01
100
AcDbLine
 10
-143.9573311673497
 20
-147.9304300921623
 30
0.0
 11
-124.4573311673333
 21
-147.9304300921623
 31
0.0
  0
LINE
  5
12D74
330
18
100
AcDbEntity
  8
01
100
AcDbLine
 10
-146.9573311674006
 20
-147.9304299609767
 30
0.0
 11
-143.9573311673497
 21
-147.9304299609767
 31
0.0
  0
ARC
  5
12D75
330
18
100
AcDbEntity
  8
01
100
AcDbCircle
 10
-146.9573311674006
 20
-145.9304299609767
 30
0.0
 40
2.0
100
AcDbArc
 50
180.0000000002084
 51
270.0
  0
LINE
  5
12D76
330
18
100
AcDbEntity
  8
01
100
AcDbLine
 10
-148.9573311674006
 20
-145.9304299609767
 30
0.0
 11
-148.9573311674006
 21
-144.6371401535658
 31
0.0
  0
LINE
  5
12D78
330
18
100
AcDbEntity
  8
01
100
AcDbLine
 10
-146.9573311674861
 20
-141.861359696932
 30
0.0
 11
-124.4573311674861
 21
-141.8613596970962
 31
0.0
  0
ARC
  5
12D79
330
18
100
AcDbEntity
  8
01
100
AcDbCircle
 10
146.9573311674861
 20
-143.8613596913766
 30
0.0
 40
1.999999999999943
210
0.0
220
0.0
230
-1.0
100
AcDbArc
 50
0.0
 51
89.99999999979156
  0
LINE
  5
12D7A
330
18
100
AcDbEntity
  8
01
  6
Continuous
100
AcDbLine
 10
-249.4570575778019
 20
-153.1304269375195
 30
0.0
 11
-249.3938075476475
 21
-153.1304269369567
 31
0.0
  0
ARC
  5
12D7B
330
18
100
AcDbEntity
  8
01
  6
Continuous
100
AcDbCircle
 10
-249.3922268490845
 20
-151.1338018685688
 30
0.0
 40
1.996625694095557
100
AcDbArc
 50
269.9546397874666
 51
320.2397923582719
  0
LINE
  5
12D7C
330
18
100
AcDbEntity
  8
01
100
AcDbLine
 10
-247.8573649734393
 20
-152.4107956763119
 30
0.0
 11
-244.7351920443301
 21
-148.6641880720541
 31
0.0
  0
ARC
  5
12D7D
330
18
100
AcDbEntity
  8
01
100
AcDbCircle
 10
-245.6584984438263
 20
-147.8954172450116
 30
0.0
 40
1.201458818213341
100
AcDbArc
 50
320.2182848275148
 51
358.3300569221046
  0
LINE
  5
12D7E
330
18
100
AcDbEntity
  8
01
  6
Continuous
100
AcDbLine
 10
-248.457331168171
 20
-134.8228028363624
 30
0.0
 11
-248.4573311681391
 21
-135.621309129932
 31
0.0
  0
LINE
  5
12D7F
330
18
100
AcDbEntity
  8
01
100
AcDbLine
 10
-248.4573311679564
 20
-139.9643746720754
 30
0.0
 11
-248.4573311679582
 21
-139.9284318291248
 31
0.0
  0
SPLINE
  5
12D80
330
18
100
AcDbEntity
  8
01
100
AcDbSpline
210
0.0
220
0.0
230
1.0
 70
     8
 71
     3
 72
    10
 73
     6
 74
     0
 42
0.0000000001
 43
0.0000000001
 40
0.0
 40
0.0
 40
0.0
 40
0.0
 40
0.89733984242364
 40
1.874772937135653
 40
2.962526090527856
 40
2.962526090527856
 40
2.962526090527856
 40
2.962526090527856
 10
-245.4812663462411
 20
-143.149331416855
 30
0.0
 10
-245.5849511990385
 20
-143.2716590780493
 30
0.0
 10
-245.8576259889773
 20
-143.5905809890154
 30
0.0
 10
-246.411426683418
 20
-144.1943890875778
 30
0.0
 10
-246.884196345149
 20
-144.6300785863342
 30
0.0
 10
-247.1612697891209
 20
-144.8344528237586
 30
0.0
  0
ARC
  5
12D81
330
18
100
AcDbEntity
  8
01
100
AcDbCircle
 10
346.0266253833647
 20
-6.815263533936672
 30
0.0
 40
169.7753078306616
210
0.0
220
0.0
230
-1.0
100
AcDbArc
 50
234.3853683947334
 51
234.921611481372
  0
LINE
  5
12D82
330
18
100
AcDbEntity
  8
01
100
AcDbLine
 10
-248.4573309209831
 20
-139.964373872213
 30
0.0
 11
-248.4573063347046
 21
-140.7227075166666
 31
0.0
  0
LINE
  5
12D83
330
18
100
AcDbEntity
  8
01
100
AcDbLine
 10
-248.4573063347046
 20
-140.7227075166666
 30
0.0
 11
-248.4573311655989
 21
-143.9032607802834
 31
0.0
  0
LINE
  5
12D84
330
18
100
AcDbEntity
  8
01
100
AcDbLine
 10
-248.4573311677508
 20
-143.9032607803116
 30
0.0
 11
-248.4573311677244
 21
-145.7536958530103
 31
0.0
  0
LINE
  5
12D85
330
18
100
AcDbEntity
  8
01
  6
Continuous
100
AcDbLine
 10
-248.4573311688504
 20
-139.9284318291248
 30
0.0
 11
-248.4573311690287
 21
-135.621309129932
 31
0.0
  0
LINE
  5
12D86
330
18
100
AcDbEntity
  8
01
100
AcDbLine
 10
-244.4570575778028
 20
-142.7063383403905
 30
0.0
 11
-244.457057577802
 21
-141.7618392539199
 31
0.0
  0
LINE
  5
12D87
330
18
100
AcDbEntity
  8
01
100
AcDbLine
 10
-249.4570575778019
 20
-148.3304269911706
 30
0.0
 11
-244.9073057306508
 21
-147.875451880836
 31
0.0
  0
ARC
  5
12D88
330
18
100
AcDbEntity
  8
01
100
AcDbCircle
 10
-244.9570575778029
 20
-147.3779332844952
 30
0.0
 40
0.4999999999999948
100
AcDbArc
 50
275.7105917141563
 51
359.9999999997915
  0
ARC
  5
12D89
330
18
100
AcDbEntity
  8
01
100
AcDbCircle
 10
244.9570567291361
 20
-141.7618401038645
 30
0.0
 40
0.4999991513346199
210
0.0
220
0.0
230
-1.0
100
AcDbArc
 50
89.97749446242741
 51
179.9999026031293
  0
LINE
  5
12D8A
330
18
100
AcDbEntity
  8
01
100
AcDbLine
 10
-245.4571058873711
 20
-141.2609177648954
 30
0.0
 11
-244.9570849622754
 21
-141.2609021524587
 31
0.0
  0
ARC
  5
12D8B
330
18
100
AcDbEntity
  8
01
  6
Continuous
100
AcDbCircle
 10
245.4573252777658
 20
-138.2609365017248
 30
0.0
 40
3.000005891238116
210
0.0
220
0.0
230
-1.0
100
AcDbArc
 50
269.9958069031339
 51
359.9997840096238
  0
LINE
  5
12D8C
330
18
100
AcDbEntity
  8
01
  6
Continuous
100
AcDbLine
 10
-248.4573311684993
 20
-134.8228038438157
 30
0.0
 11
-249.4570575785195
 21
-134.8228038438154
 31
0.0
  0
LINE
  5
12DA0
330
18
100
AcDbEntity
  8
01
100
AcDbLine
 10
-124.4573311674261
 20
-147.9304300921623
 30
0.0
 11
-124.4573311674261
 21
-144.1812265016728
 31
0.0
  0
LINE
  5
12DA1
330
18
100
AcDbEntity
  8
01
100
AcDbLine
 10
-124.4573311675616
 20
-144.1812265047186
 30
0.0
 11
-124.4573311675616
 21
-142.7063383403907
 31
0.0
  0
LINE
  5
12DA2
330
18
100
AcDbEntity
  8
01
  6
Continuous
100
AcDbLine
 10
-119.4576047576341
 20
-153.1304269375195
 30
0.0
 11
-119.5208547877886
 21
-153.1304269369567
 31
0.0
  0
ARC
  5
12DA3
330
18
100
AcDbEntity
  8
01
  6
Continuous
100
AcDbCircle
 10
-119.5224354863515
 20
-151.1338018685688
 30
0.0
 40
1.996625694095557
100
AcDbArc
 50
219.7602076417282
 51
270.0453602125334
  0
LINE
  5
12DA4
330
18
100
AcDbEntity
  8
01
  6
Continuous
100
AcDbLine
 10
-121.0572973619968
 20
-152.4107956763119
 30
0.0
 11
-124.179470291106
 21
-148.6641880720541
 31
0.0
  0
ARC
  5
12DA5
330
18
100
AcDbEntity
  8
01
100
AcDbCircle
 10
-123.2561638916098
 20
-147.8954172450116
 30
0.0
 40
1.201458818213341
100
AcDbArc
 50
181.6699430778954
 51
219.7817151724853
  0
LINE
  5
12DA6
330
18
100
AcDbEntity
  8
01
  6
Continuous
100
AcDbLine
 10
-120.4573311672651
 20
-134.8228028363624
 30
0.0
 11
-120.4573311672969
 21
-135.621309129932
 31
0.0
  0
LINE
  5
12DA7
330
18
100
AcDbEntity
  8
01
100
AcDbLine
 10
-120.4573311674797
 20
-139.9643746720754
 30
0.0
 11
-120.4573311674779
 21
-139.9284318291248
 31
0.0
  0
SPLINE
  5
12DA8
330
18
100
AcDbEntity
  8
01
100
AcDbSpline
210
0.0
220
0.0
230
1.0
 70
     8
 71
     3
 72
    10
 73
     6
 74
     0
 42
0.0000000001
 43
0.0000000001
 40
0.0
 40
0.0
 40
0.0
 40
0.0
 40
0.89733984242364
 40
1.874772937135653
 40
2.962526090527856
 40
2.962526090527856
 40
2.962526090527856
 40
2.962526090527856
 10
-123.433395989195
 20
-143.149331416855
 30
0.0
 10
-123.3297111363976
 20
-143.2716590780493
 30
0.0
 10
-123.0570363464588
 20
-143.5905809890154
 30
0.0
 10
-122.5032356520181
 20
-144.1943890875778
 30
0.0
 10
-122.0304659902871
 20
-144.6300785863342
 30
0.0
 10
-121.7533925463152
 20
-144.8344528237586
 30
0.0
  0
ARC
  5
12DA9
330
18
100
AcDbEntity
  8
01
100
AcDbCircle
 10
22.88803695207144
 20
-6.815263533936672
 30
0.0
 40
169.7753078306616
210
0.0
220
0.0
230
-1.0
100
AcDbArc
 50
305.0783885186281
 51
305.6146316052667
  0
LINE
  5
12DAA
330
18
100
AcDbEntity
  8
01
100
AcDbLine
 10
-120.457331414453
 20
-139.964373872213
 30
0.0
 11
-120.4573560007314
 21
-140.7227075166666
 31
0.0
  0
LINE
  5
12DAB
330
18
100
AcDbEntity
  8
01
100
AcDbLine
 10
-120.4573560007314
 20
-140.7227075166666
 30
0.0
 11
-120.4573311698371
 21
-143.9032607802834
 31
0.0
  0
LINE
  5
12DAC
330
18
100
AcDbEntity
  8
01
100
AcDbLine
 10
-120.4573311676853
 20
-143.9032607803116
 30
0.0
 11
-120.4573311677117
 21
-145.7536958530103
 31
0.0
  0
LINE
  5
12DAD
330
18
100
AcDbEntity
  8
01
100
AcDbLine
 10
-120.4573311665857
 20
-139.9284318291248
 30
0.0
 11
-120.4573311664074
 21
-135.621309129932
 31
0.0
  0
LINE
  5
12DAE
330
18
100
AcDbEntity
  8
01
100
AcDbLine
 10
-124.4576047576332
 20
-142.7063383403905
 30
0.0
 11
-124.4576047576341
 21
-141.7618392539199
 31
0.0
  0
LINE
  5
12DAF
330
18
100
AcDbEntity
  8
01
100
AcDbLine
 10
-119.4576047576341
 20
-148.3304269911706
 30
0.0
 11
-124.0073566047853
 21
-147.875451880836
 31
0.0
  0
ARC
  5
12DB0
330
18
100
AcDbEntity
  8
01
100
AcDbCircle
 10
-123.9576047576332
 20
-147.3779332844952
 30
0.0
 40
0.4999999999999948
100
AcDbArc
 50
180.0000000002085
 51
264.2894082858437
  0
ARC
  5
12DB1
330
18
100
AcDbEntity
  8
01
100
AcDbCircle
 10
123.9576056063
 20
-141.7618401038645
 30
0.0
 40
0.4999991513346199
210
0.0
220
0.0
230
-1.0
100
AcDbArc
 50
0.0000973968706907
 51
90.02250553757258
  0
LINE
  5
12DB2
330
18
100
AcDbEntity
  8
01
100
AcDbLine
 10
-123.457556448065
 20
-141.2609177648954
 30
0.0
 11
-123.9575773731607
 21
-141.2609021524587
 31
0.0
  0
ARC
  5
12DB3
330
18
100
AcDbEntity
  8
01
100
AcDbCircle
 10
123.4573370576703
 20
-138.2609365017248
 30
0.0
 40
3.000005891238116
210
0.0
220
0.0
230
-1.0
100
AcDbArc
 50
180.0002159903762
 51
270.0041930968661
  0
LINE
  5
12DB4
330
18
100
AcDbEntity
  8
01
  6
Continuous
100
AcDbLine
 10
-120.4573311669368
 20
-134.8228038438157
 30
0.0
 11
-119.4576047569166
 21
-134.8228038438154
 31
0.0
  0
LINE
  5
12DB5
330
18
100
AcDbEntity
  8
01
  6
Continuous
100
AcDbLine
 10
-249.4573311680036
 20
-127.5304164512123
 30
0.0
 11
-119.4573311676416
 21
-127.5304164512123
 31
0.0
  0
LINE
  5
12DB6
330
18
100
AcDbEntity
  8
01
  6
Continuous
100
AcDbLine
 10
-249.457331168
 20
-129.530416385645
 30
0.0
 11
-119.4573311676416
 21
-129.530416385645
 31
0.0
  0
LINE
  5
12DB7
330
18
100
AcDbEntity
  8
01
  6
Continuous
100
AcDbLine
 10
-249.4573311680027
 20
-128.0304164512123
 30
0.0
 11
-119.4573311676416
 21
-128.0304164512123
 31
0.0
  0
LINE
  5
12DB8
330
18
100
AcDbEntity
  8
01
  6
Continuous
100
AcDbLine
 10
-119.4573311676416
 20
-130.5304265024134
 30
0.0
 11
-249.4573311679982
 21
-130.5304265024134
 31
0.0
  0
LINE
  5
12DB9
330
18
100
AcDbEntity
  8
01
  6
Continuous
100
AcDbLine
 10
-248.0140152119087
 20
-139.8304262620009
 30
0.0
 11
-120.8999039844769
 21
-139.8304262620009
 31
0.0
  0
ARC
  5
12DBD
330
18
100
AcDbEntity
  8
01
  6
Continuous
100
AcDbCircle
 10
-6.382165172580943
 20
-286.6611521359283
 30
0.0
 40
189.7858538885191
100
AcDbArc
 50
76.44247795960964
 51
100.4769650824217
  0
TEXT
  5
1710F
330
18
100
AcDbEntity
  8
01
100
AcDbText
 10
-6.117156845798396
 20
-5.544783420484916
 30
0.0
 40
4.0
  1
SC-663-XC
 41
0.65
 72
     1
 11
5.892366963725407
 21
-5.544783420484916
 31
0.0
100
AcDbText
  0
LINE
  5
171D7
330
18
100
AcDbEntity
  8
01
100
AcDbLine
 10
-153.1297745788133
 20
-118.8304497089526
 30
0.0
 11
-128.5823583349641
 21
-118.8304497089526
 31
0.0
  0
ARC
  5
174CA
330
18
100
AcDbEntity
  8
01
  6
Continuous
100
AcDbCircle
 10
-89.95735834571531
 20
44.63025462628546
 30
0.0
 40
1.0
100
AcDbArc
 50
310.0796194324133
 51
0.0
  0
ARC
  5
174CB
330
18
100
AcDbEntity
  8
01
  6
Continuous
100
AcDbCircle
 10
-98.43727505414419
 20
39.66957486301645
 30
0.0
 40
1.0
100
AcDbArc
 50
270.0000050089561
 51
290.5749288412468
  0
ARC
  5
174CC
330
18
100
AcDbEntity
  8
01
  6
Continuous
100
AcDbCircle
 10
-270.4774414708247
 20
39.66957486301643
 30
0.0
 40
1.0
100
AcDbArc
 50
249.4250528396781
 51
269.9999949910431
  0
ARC
  5
174CD
330
18
100
AcDbEntity
  8
01
  6
Continuous
100
AcDbCircle
 10
-278.9573583457162
 20
44.63025481687111
 30
0.0
 40
1.0
100
AcDbArc
 50
180.0
 51
229.9203979482701
  0
ARC
  5
174CE
330
18
100
AcDbEntity
  8
01
  6
Continuous
100
AcDbCircle
 10
54.00335403921489
 20
-88.83042630226446
 30
0.0
 40
1.0
100
AcDbArc
 50
89.99999499104264
 51
139.9206741165138
  0
ARC
  5
174CF
330
18
100
AcDbEntity
  8
01
100
AcDbCircle
 10
49.04267027651333
 20
-97.31034539454826
 30
0.0
 40
1.0
100
AcDbArc
 50
159.4247513839891
 51
179.9999949910374
  0
ARC
  5
174D0
330
18
100
AcDbEntity
  8
01
100
AcDbCircle
 10
49.04266738804648
 20
-130.3505063426155
 30
0.0
 40
1.0
100
AcDbArc
 50
179.9999949910365
 51
200.5752385980721
  0
ARC
  5
174D1
330
18
100
AcDbEntity
  8
01
  6
Continuous
100
AcDbCircle
 10
54.00334966807623
 20
-138.8304263022642
 30
0.0
 40
1.0
100
AcDbArc
 50
220.0793158655758
 51
269.9999949910435
  0
LINE
  5
17699
330
18
100
AcDbEntity
  8
01
100
AcDbLine
 10
79.14266523435211
 20
-121.1512311579349
 30
0.0
 11
79.32542937698011
 21
-120.5994816941315
 31
0.0
  0
LINE
  5
1769A
330
18
100
AcDbEntity
  8
01
100
AcDbLine
 10
85.00358289889303
 20
-119.8304057786476
 30
0.0
 11
48.37239189843788
 21
-119.8304057786476
 31
0.0
  0
LINE
  5
1769B
330
18
100
AcDbEntity
  8
01
100
AcDbLine
 10
79.94267085390678
 20
-118.7360819646523
 30
0.0
 11
80.74266628795752
 21
-120.6984170535278
 31
0.0
  0
LINE
  5
1769C
330
18
100
AcDbEntity
  8
01
100
AcDbLine
 10
80.74266628795752
 20
-120.6984170535278
 30
0.0
 11
81.05443614420986
 21
-120.1101404784853
 31
0.0
  0
LINE
  5
1769D
330
18
100
AcDbEntity
  8
01
100
AcDbLine
 10
57.54267296111677
 20
-117.8304523145456
 30
0.0
 11
58.3426636539348
 21
-121.8304523145456
 31
0.0
  0
LINE
  5
1769E
330
18
100
AcDbEntity
  8
01
100
AcDbLine
 10
68.74267296112114
 20
-117.8304523145456
 30
0.0
 11
69.54266365394372
 21
-121.8304523145456
 31
0.0
  0
LINE
  5
1769F
330
18
100
AcDbEntity
  8
01
100
AcDbLine
 10
71.94267296112096
 20
-117.8304523145456
 30
0.0
 11
72.74266365394353
 21
-121.8304523145456
 31
0.0
  0
LINE
  5
176A0
330
18
100
AcDbEntity
  8
01
100
AcDbLine
 10
72.74266365394353
 20
-121.8304523145456
 30
0.0
 11
72.84266481734087
 21
-121.3304523145456
 31
0.0
  0
LINE
  5
176A1
330
18
100
AcDbEntity
  8
01
100
AcDbLine
 10
73.44267179772399
 20
-118.3304523145456
 30
0.0
 11
73.54267296112087
 21
-117.8304523145456
 31
0.0
  0
LINE
  5
176A2
330
18
100
AcDbEntity
  8
01
100
AcDbLine
 10
69.54266365394372
 20
-121.8304523145456
 30
0.0
 11
69.6426648173406
 21
-121.3304523145456
 31
0.0
  0
LINE
  5
176A3
330
18
100
AcDbEntity
  8
01
100
AcDbLine
 10
71.14266365394363
 20
-121.8304523145456
 30
0.0
 11
71.24266481734096
 21
-121.3304523145456
 31
0.0
  0
LINE
  5
176A4
330
18
100
AcDbEntity
  8
01
100
AcDbLine
 10
71.84267179772408
 20
-118.3304523145456
 30
0.0
 11
71.94267296112096
 21
-117.8304523145456
 31
0.0
  0
LINE
  5
176A5
330
18
100
AcDbEntity
  8
01
100
AcDbLine
 10
70.24267179772417
 20
-118.3304523145456
 30
0.0
 11
70.34267296112105
 21
-117.8304523145456
 31
0.0
  0
LINE
  5
176A6
330
18
100
AcDbEntity
  8
01
100
AcDbLine
 10
70.34267296112105
 20
-117.8304523145456
 30
0.0
 11
71.14266365394363
 21
-121.8304523145456
 31
0.0
  0
LINE
  5
176A7
330
18
100
AcDbEntity
  8
01
100
AcDbLine
 10
75.94266365394381
 20
-121.8304523145456
 30
0.0
 11
76.04266481734069
 21
-121.3304523145456
 31
0.0
  0
LINE
  5
176A8
330
18
100
AcDbEntity
  8
01
100
AcDbLine
 10
74.34266365394345
 20
-121.8304523145456
 30
0.0
 11
74.44266481734079
 21
-121.3304523145456
 31
0.0
  0
LINE
  5
176A9
330
18
100
AcDbEntity
  8
01
100
AcDbLine
 10
77.54266418074625
 20
-121.6040452623414
 30
0.0
 11
77.67193487837634
 21
-121.0674515270706
 31
0.0
  0
LINE
  5
176AA
330
18
100
AcDbEntity
  8
01
100
AcDbLine
 10
78.22990239516096
 20
-118.7513669117542
 30
0.0
 11
78.342671907511
 21
-118.2832684566041
 31
0.0
  0
LINE
  5
176AB
330
18
100
AcDbEntity
  8
01
100
AcDbLine
 10
75.0426717977239
 20
-118.3304523145456
 30
0.0
 11
75.14267296112123
 21
-117.8304523145456
 31
0.0
  0
LINE
  5
176AC
330
18
100
AcDbEntity
  8
01
100
AcDbLine
 10
76.6426717977238
 20
-118.3304523145456
 30
0.0
 11
76.74267296112114
 21
-117.8304523145456
 31
0.0
  0
LINE
  5
176AD
330
18
100
AcDbEntity
  8
01
100
AcDbLine
 10
79.79123505746613
 20
-119.1932538052837
 30
0.0
 11
79.94267085390678
 21
-118.7360819646523
 31
0.0
  0
LINE
  5
176AE
330
18
100
AcDbEntity
  8
01
100
AcDbLine
 10
78.342671907511
 20
-118.2832684566041
 30
0.0
 11
79.14266523435211
 21
-121.1512311579349
 31
0.0
  0
LINE
  5
176AF
330
18
100
AcDbEntity
  8
01
100
AcDbLine
 10
75.14267296112123
 20
-117.8304523145456
 30
0.0
 11
75.94266365394381
 21
-121.8304523145456
 31
0.0
  0
LINE
  5
176B0
330
18
100
AcDbEntity
  8
01
100
AcDbLine
 10
76.74267296112114
 20
-117.8304523145456
 30
0.0
 11
77.54266418074625
 21
-121.6040452623414
 31
0.0
  0
LINE
  5
176B1
330
18
100
AcDbEntity
  8
01
100
AcDbLine
 10
73.54267296112087
 20
-117.8304523145456
 30
0.0
 11
74.34266365394345
 21
-121.8304523145456
 31
0.0
  0
LINE
  5
176B2
330
18
100
AcDbEntity
  8
01
100
AcDbLine
 10
60.74267296111659
 20
-117.8304523145456
 30
0.0
 11
61.54266365393507
 21
-121.8304523145456
 31
0.0
  0
LINE
  5
176B3
330
18
100
AcDbEntity
  8
01
100
AcDbLine
 10
61.54266365393507
 20
-121.8304523145456
 30
0.0
 11
61.64266481733241
 21
-121.3304523145456
 31
0.0
  0
LINE
  5
176B4
330
18
100
AcDbEntity
  8
01
100
AcDbLine
 10
62.24267179772326
 20
-118.3304523145456
 30
0.0
 11
62.34267296112104
 21
-117.8304523145456
 31
0.0
  0
LINE
  5
176B5
330
18
100
AcDbEntity
  8
01
100
AcDbLine
 10
59.94266365393471
 20
-121.8304523145456
 30
0.0
 11
60.0426648173325
 21
-121.3304523145456
 31
0.0
  0
LINE
  5
176B6
330
18
100
AcDbEntity
  8
01
100
AcDbLine
 10
58.3426636539348
 20
-121.8304523145456
 30
0.0
 11
58.44266481733259
 21
-121.3304523145456
 31
0.0
  0
LINE
  5
176B7
330
18
100
AcDbEntity
  8
01
100
AcDbLine
 10
60.6426717977188
 20
-118.3304523145456
 30
0.0
 11
60.74267296111659
 21
-117.8304523145456
 31
0.0
  0
LINE
  5
176B8
330
18
100
AcDbEntity
  8
01
100
AcDbLine
 10
59.04267179771888
 20
-118.3304523145456
 30
0.0
 11
59.14267296111668
 21
-117.8304523145456
 31
0.0
  0
LINE
  5
176B9
330
18
100
AcDbEntity
  8
01
100
AcDbLine
 10
59.14267296111668
 20
-117.8304523145456
 30
0.0
 11
59.94266365393471
 21
-121.8304523145456
 31
0.0
  0
LINE
  5
176BA
330
18
100
AcDbEntity
  8
01
100
AcDbLine
 10
66.34266365393935
 20
-121.8304523145456
 30
0.0
 11
66.44266481733715
 21
-121.3304523145456
 31
0.0
  0
LINE
  5
176BB
330
18
100
AcDbEntity
  8
01
100
AcDbLine
 10
67.94266365394381
 20
-121.8304523145456
 30
0.0
 11
68.04266481734069
 21
-121.3304523145456
 31
0.0
  0
LINE
  5
176BC
330
18
100
AcDbEntity
  8
01
100
AcDbLine
 10
63.14266365393907
 20
-121.8304523145456
 30
0.0
 11
63.24266481733687
 21
-121.3304523145456
 31
0.0
  0
LINE
  5
176BD
330
18
100
AcDbEntity
  8
01
100
AcDbLine
 10
64.74266365393899
 20
-121.8304523145456
 30
0.0
 11
64.84266481733678
 21
-121.3304523145456
 31
0.0
  0
LINE
  5
176BE
330
18
100
AcDbEntity
  8
01
100
AcDbLine
 10
68.6426717977238
 20
-118.3304523145456
 30
0.0
 11
68.74267296112114
 21
-117.8304523145456
 31
0.0
  0
LINE
  5
176BF
330
18
100
AcDbEntity
  8
01
100
AcDbLine
 10
67.04267179772344
 20
-118.3304523145456
 30
0.0
 11
67.14267296112123
 21
-117.8304523145456
 31
0.0
  0
LINE
  5
176C0
330
18
100
AcDbEntity
  8
01
100
AcDbLine
 10
63.84267179772316
 20
-118.3304523145456
 30
0.0
 11
63.94267296112095
 21
-117.8304523145456
 31
0.0
  0
LINE
  5
176C1
330
18
100
AcDbEntity
  8
01
100
AcDbLine
 10
65.44267179772353
 20
-118.3304523145456
 30
0.0
 11
65.54267296112087
 21
-117.8304523145456
 31
0.0
  0
LINE
  5
176C2
330
18
100
AcDbEntity
  8
01
100
AcDbLine
 10
65.54267296112087
 20
-117.8304523145456
 30
0.0
 11
66.34266365393935
 21
-121.8304523145456
 31
0.0
  0
LINE
  5
176C3
330
18
100
AcDbEntity
  8
01
100
AcDbLine
 10
67.14267296112123
 20
-117.8304523145456
 30
0.0
 11
67.94266365394381
 21
-121.8304523145456
 31
0.0
  0
LINE
  5
176C4
330
18
100
AcDbEntity
  8
01
100
AcDbLine
 10
63.94267296112095
 20
-117.8304523145456
 30
0.0
 11
64.74266365393899
 21
-121.8304523145456
 31
0.0
  0
LINE
  5
176C5
330
18
100
AcDbEntity
  8
01
100
AcDbLine
 10
62.34267296112104
 20
-117.8304523145456
 30
0.0
 11
63.14266365393907
 21
-121.8304523145456
 31
0.0
  0
LINE
  5
176C6
330
18
100
AcDbEntity
  8
01
100
AcDbLine
 10
52.04266481744618
 20
-121.3304523145456
 30
0.0
 11
52.04267179783076
 21
-118.3304523145456
 31
0.0
  0
LINE
  5
176C7
330
18
100
AcDbEntity
  8
01
100
AcDbLine
 10
52.6426717977147
 20
-118.3304523145456
 30
0.0
 11
52.7426729611125
 21
-117.8304523145456
 31
0.0
  0
LINE
  5
176C8
330
18
100
AcDbEntity
  8
01
100
AcDbLine
 10
52.7426729611125
 20
-117.8304523145456
 30
0.0
 11
53.54266365393052
 21
-121.8304523145456
 31
0.0
  0
LINE
  5
176C9
330
18
100
AcDbEntity
  8
01
100
AcDbLine
 10
53.54266365393052
 20
-121.8304523145456
 30
0.0
 11
53.64266481732832
 21
-121.3304523145456
 31
0.0
  0
LINE
  5
176CA
330
18
100
AcDbEntity
  8
01
100
AcDbLine
 10
54.24267179771462
 20
-118.3304523145456
 30
0.0
 11
54.3426729611124
 21
-117.8304523145456
 31
0.0
  0
LINE
  5
176CB
330
18
100
AcDbEntity
  8
01
100
AcDbLine
 10
55.84267179771452
 20
-118.3304523145456
 30
0.0
 11
55.94267296111231
 21
-117.8304523145456
 31
0.0
  0
LINE
  5
176CC
330
18
100
AcDbEntity
  8
01
100
AcDbLine
 10
55.94267296111231
 20
-117.8304523145456
 30
0.0
 11
56.74266365393034
 21
-121.8304523145456
 31
0.0
  0
LINE
  5
176CD
330
18
100
AcDbEntity
  8
01
100
AcDbLine
 10
55.14266365393043
 20
-121.8304523145456
 30
0.0
 11
55.24266481732823
 21
-121.3304523145456
 31
0.0
  0
LINE
  5
176CE
330
18
100
AcDbEntity
  8
01
100
AcDbLine
 10
56.74266365393034
 20
-121.8304523145456
 30
0.0
 11
56.84266481732813
 21
-121.3304523145456
 31
0.0
  0
LINE
  5
176CF
330
18
100
AcDbEntity
  8
01
100
AcDbLine
 10
54.3426729611124
 20
-117.8304523145456
 30
0.0
 11
55.14266365393043
 21
-121.8304523145456
 31
0.0
  0
LINE
  5
176D0
330
18
100
AcDbEntity
  8
01
100
AcDbLine
 10
57.44267179771898
 20
-118.3304523145456
 30
0.0
 11
57.54267296111677
 21
-117.8304523145456
 31
0.0
  0
LINE
  5
176D1
330
18
100
AcDbEntity
  8
01
100
AcDbLine
 10
50.51294471704161
 20
-119.8304057786476
 30
0.0
 11
63.04497432749806
 21
-119.8304057786476
 31
0.0
  0
LINE
  5
176D2
330
18
100
AcDbEntity
  8
01
100
AcDbLine
 10
53.0426601639647
 20
-123.6304057786475
 30
0.0
 11
52.0426601639647
 21
-123.6304057786475
 31
0.0
  0
LINE
  5
176D3
330
18
100
AcDbEntity
  8
01
100
AcDbLine
 10
53.0426601639647
 20
-116.0304057786476
 30
0.0
 11
52.0426601639647
 21
-116.0304057786476
 31
0.0
  0
LINE
  5
176D4
330
18
100
AcDbEntity
  8
01
100
AcDbLine
 10
52.0426601639647
 20
-116.0304057786476
 30
0.0
 11
52.0426601639647
 21
-123.6304057786475
 31
0.0
  0
LINE
  5
176D5
330
18
100
AcDbEntity
  8
01
100
AcDbLine
 10
53.0426601639647
 20
-116.0304057786476
 30
0.0
 11
53.0426601639647
 21
-123.6304057786475
 31
0.0
  0
LINE
  5
17719
330
18
100
AcDbEntity
  8
01
100
AcDbLine
 10
-139.1365057884307
 20
69.76957802742035
 30
0.0
 11
-139.6882552522342
 21
69.95234217004835
 31
0.0
  0
LINE
  5
1771A
330
18
100
AcDbEntity
  8
01
100
AcDbLine
 10
-140.457331167718
 20
75.63049569196127
 30
0.0
 11
-140.457331167718
 21
38.99930469150636
 31
0.0
  0
LINE
  5
1771B
330
18
100
AcDbEntity
  8
01
100
AcDbLine
 10
-141.5516549817133
 20
70.56958364697502
 30
0.0
 11
-139.5893198928378
 21
71.36957908102599
 31
0.0
  0
LINE
  5
1771C
330
18
100
AcDbEntity
  8
01
100
AcDbLine
 10
-139.5893198928378
 20
71.36957908102599
 30
0.0
 11
-140.1775964678803
 21
71.6813489372781
 31
0.0
  0
LINE
  5
1771D
330
18
100
AcDbEntity
  8
01
100
AcDbLine
 10
-142.45728463182
 20
48.16958575418503
 30
0.0
 11
-138.45728463182
 21
48.96957644700329
 31
0.0
  0
LINE
  5
1771E
330
18
100
AcDbEntity
  8
01
100
AcDbLine
 10
-142.45728463182
 20
59.36958575418939
 30
0.0
 11
-138.45728463182
 21
60.16957644701196
 31
0.0
  0
LINE
  5
1771F
330
18
100
AcDbEntity
  8
01
100
AcDbLine
 10
-142.45728463182
 20
62.56958575418944
 30
0.0
 11
-138.45728463182
 21
63.36957644701201
 31
0.0
  0
LINE
  5
17720
330
18
100
AcDbEntity
  8
01
100
AcDbLine
 10
-138.45728463182
 20
63.36957644701201
 30
0.0
 11
-138.95728463182
 21
63.46957761040912
 31
0.0
  0
LINE
  5
17721
330
18
100
AcDbEntity
  8
01
100
AcDbLine
 10
-141.95728463182
 20
64.06958459079223
 30
0.0
 11
-142.45728463182
 21
64.16958575418934
 31
0.0
  0
LINE
  5
17722
330
18
100
AcDbEntity
  8
01
100
AcDbLine
 10
-138.45728463182
 20
60.16957644701196
 30
0.0
 11
-138.95728463182
 21
60.26957761040907
 31
0.0
  0
LINE
  5
17723
330
18
100
AcDbEntity
  8
01
100
AcDbLine
 10
-138.45728463182
 20
61.76957644701211
 30
0.0
 11
-138.95728463182
 21
61.86957761040922
 31
0.0
  0
LINE
  5
17724
330
18
100
AcDbEntity
  8
01
100
AcDbLine
 10
-141.95728463182
 20
62.46958459079233
 30
0.0
 11
-142.45728463182
 21
62.56958575418944
 31
0.0
  0
LINE
  5
17725
330
18
100
AcDbEntity
  8
01
100
AcDbLine
 10
-141.95728463182
 20
60.86958459079242
 30
0.0
 11
-142.45728463182
 21
60.96958575418953
 31
0.0
  0
LINE
  5
17726
330
18
100
AcDbEntity
  8
01
100
AcDbLine
 10
-142.45728463182
 20
60.96958575418953
 30
0.0
 11
-138.45728463182
 21
61.76957644701211
 31
0.0
  0
LINE
  5
17727
330
18
100
AcDbEntity
  8
01
100
AcDbLine
 10
-138.45728463182
 20
66.56957644701205
 30
0.0
 11
-138.95728463182
 21
66.66957761040916
 31
0.0
  0
LINE
  5
17728
330
18
100
AcDbEntity
  8
01
100
AcDbLine
 10
-138.45728463182
 20
64.96957644701192
 30
0.0
 11
-138.95728463182
 21
65.06957761040903
 31
0.0
  0
LINE
  5
17729
330
18
100
AcDbEntity
  8
01
100
AcDbLine
 10
-138.6836916840242
 20
68.16957697381472
 30
0.0
 11
-139.220285419295
 21
68.29884767144458
 31
0.0
  0
LINE
  5
1772A
330
18
100
AcDbEntity
  8
01
100
AcDbLine
 10
-141.5363700346114
 20
68.8568151882292
 30
0.0
 11
-142.0044684897615
 21
68.96958470057924
 31
0.0
  0
LINE
  5
1772B
330
18
100
AcDbEntity
  8
01
100
AcDbLine
 10
-141.95728463182
 20
65.66958459079237
 30
0.0
 11
-142.45728463182
 21
65.76958575418948
 31
0.0
  0
LINE
  5
1772C
330
18
100
AcDbEntity
  8
01
100
AcDbLine
 10
-141.95728463182
 20
67.26958459079227
 30
0.0
 11
-142.45728463182
 21
67.36958575418938
 31
0.0
  0
LINE
  5
1772D
330
18
100
AcDbEntity
  8
01
100
AcDbLine
 10
-141.0944831410819
 20
70.4181478505346
 30
0.0
 11
-141.5516549817133
 21
70.56958364697502
 31
0.0
  0
LINE
  5
1772E
330
18
100
AcDbEntity
  8
01
100
AcDbLine
 10
-142.0044684897615
 20
68.96958470057924
 30
0.0
 11
-139.1365057884307
 21
69.76957802742035
 31
0.0
  0
LINE
  5
1772F
330
18
100
AcDbEntity
  8
01
100
AcDbLine
 10
-142.45728463182
 20
65.76958575418948
 30
0.0
 11
-138.45728463182
 21
66.56957644701205
 31
0.0
  0
LINE
  5
17730
330
18
100
AcDbEntity
  8
01
100
AcDbLine
 10
-142.45728463182
 20
67.36958575418938
 30
0.0
 11
-138.6836916840242
 21
68.16957697381472
 31
0.0
  0
LINE
  5
17731
330
18
100
AcDbEntity
  8
01
100
AcDbLine
 10
-142.45728463182
 20
64.16958575418934
 30
0.0
 11
-138.45728463182
 21
64.96957644701192
 31
0.0
  0
LINE
  5
17732
330
18
100
AcDbEntity
  8
01
100
AcDbLine
 10
-142.45728463182
 20
51.36958575418507
 30
0.0
 11
-138.45728463182
 21
52.16957644700332
 31
0.0
  0
LINE
  5
17733
330
18
100
AcDbEntity
  8
01
100
AcDbLine
 10
-138.45728463182
 20
52.16957644700332
 30
0.0
 11
-138.95728463182
 21
52.2695776104009
 31
0.0
  0
LINE
  5
17734
330
18
100
AcDbEntity
  8
01
100
AcDbLine
 10
-141.95728463182
 20
52.86958459079174
 30
0.0
 11
-142.45728463182
 21
52.9695857541893
 31
0.0
  0
LINE
  5
17735
330
18
100
AcDbEntity
  8
01
100
AcDbLine
 10
-138.45728463182
 20
50.56957644700319
 30
0.0
 11
-138.95728463182
 21
50.66957761040075
 31
0.0
  0
LINE
  5
17736
330
18
100
AcDbEntity
  8
01
100
AcDbLine
 10
-138.45728463182
 20
48.96957644700329
 30
0.0
 11
-138.95728463182
 21
49.06957761040085
 31
0.0
  0
LINE
  5
17737
330
18
100
AcDbEntity
  8
01
100
AcDbLine
 10
-141.95728463182
 20
51.26958459078728
 30
0.0
 11
-142.45728463182
 21
51.36958575418507
 31
0.0
  0
LINE
  5
17738
330
18
100
AcDbEntity
  8
01
100
AcDbLine
 10
-141.95728463182
 20
49.66958459078714
 30
0.0
 11
-142.45728463182
 21
49.76958575418493
 31
0.0
  0
LINE
  5
17739
330
18
100
AcDbEntity
  8
01
100
AcDbLine
 10
-142.45728463182
 20
49.76958575418493
 30
0.0
 11
-138.45728463182
 21
50.56957644700319
 31
0.0
  0
LINE
  5
1773A
330
18
100
AcDbEntity
  8
01
100
AcDbLine
 10
-138.45728463182
 20
56.9695764470076
 30
0.0
 11
-138.95728463182
 21
57.06957761040539
 31
0.0
  0
LINE
  5
1773B
330
18
100
AcDbEntity
  8
01
100
AcDbLine
 10
-138.45728463182
 20
58.56957644701206
 30
0.0
 11
-138.95728463182
 21
58.66957761040917
 31
0.0
  0
LINE
  5
1773C
330
18
100
AcDbEntity
  8
01
100
AcDbLine
 10
-138.45728463182
 20
53.76957644700755
 30
0.0
 11
-138.95728463182
 21
53.86957761040535
 31
0.0
  0
LINE
  5
1773D
330
18
100
AcDbEntity
  8
01
100
AcDbLine
 10
-138.45728463182
 20
55.36957644700747
 30
0.0
 11
-138.95728463182
 21
55.46957761040526
 31
0.0
  0
LINE
  5
1773E
330
18
100
AcDbEntity
  8
01
100
AcDbLine
 10
-141.95728463182
 20
59.26958459079228
 30
0.0
 11
-142.45728463182
 21
59.36958575418939
 31
0.0
  0
LINE
  5
1773F
330
18
100
AcDbEntity
  8
01
100
AcDbLine
 10
-141.95728463182
 20
57.6695845907917
 30
0.0
 11
-142.45728463182
 21
57.76958575418948
 31
0.0
  0
LINE
  5
17740
330
18
100
AcDbEntity
  8
01
100
AcDbLine
 10
-141.95728463182
 20
54.46958459079165
 30
0.0
 11
-142.45728463182
 21
54.56958575418921
 31
0.0
  0
LINE
  5
17741
330
18
100
AcDbEntity
  8
01
100
AcDbLine
 10
-141.95728463182
 20
56.06958459079178
 30
0.0
 11
-142.45728463182
 21
56.16958575418935
 31
0.0
  0
LINE
  5
17742
330
18
100
AcDbEntity
  8
01
100
AcDbLine
 10
-142.45728463182
 20
56.16958575418935
 30
0.0
 11
-138.45728463182
 21
56.9695764470076
 31
0.0
  0
LINE
  5
17743
330
18
100
AcDbEntity
  8
01
100
AcDbLine
 10
-142.45728463182
 20
57.76958575418948
 30
0.0
 11
-138.45728463182
 21
58.56957644701206
 31
0.0
  0
LINE
  5
17744
330
18
100
AcDbEntity
  8
01
100
AcDbLine
 10
-142.45728463182
 20
54.56958575418921
 30
0.0
 11
-138.45728463182
 21
55.36957644700747
 31
0.0
  0
LINE
  5
17745
330
18
100
AcDbEntity
  8
01
100
AcDbLine
 10
-142.45728463182
 20
52.9695857541893
 30
0.0
 11
-138.45728463182
 21
53.76957644700755
 31
0.0
  0
LINE
  5
17746
330
18
100
AcDbEntity
  8
01
100
AcDbLine
 10
-138.95728463182
 20
42.66957761051467
 30
0.0
 11
-141.95728463182
 21
42.66958459089924
 31
0.0
  0
LINE
  5
17747
330
18
100
AcDbEntity
  8
01
100
AcDbLine
 10
-141.95728463182
 20
43.26958459078318
 30
0.0
 11
-142.45728463182
 21
43.36958575418075
 31
0.0
  0
LINE
  5
17748
330
18
100
AcDbEntity
  8
01
100
AcDbLine
 10
-142.45728463182
 20
43.36958575418075
 30
0.0
 11
-138.45728463182
 21
44.16957644699901
 31
0.0
  0
LINE
  5
17749
330
18
100
AcDbEntity
  8
01
100
AcDbLine
 10
-138.45728463182
 20
44.16957644699901
 30
0.0
 11
-138.95728463182
 21
44.26957761039679
 31
0.0
  0
LINE
  5
1774A
330
18
100
AcDbEntity
  8
01
100
AcDbLine
 10
-141.95728463182
 20
44.8695845907831
 30
0.0
 11
-142.45728463182
 21
44.96958575418066
 31
0.0
  0
LINE
  5
1774B
330
18
100
AcDbEntity
  8
01
100
AcDbLine
 10
-141.95728463182
 20
46.46958459078301
 30
0.0
 11
-142.45728463182
 21
46.56958575418057
 31
0.0
  0
LINE
  5
1774C
330
18
100
AcDbEntity
  8
01
100
AcDbLine
 10
-142.45728463182
 20
46.56958575418057
 30
0.0
 11
-138.45728463182
 21
47.36957644699883
 31
0.0
  0
LINE
  5
1774D
330
18
100
AcDbEntity
  8
01
100
AcDbLine
 10
-138.45728463182
 20
45.76957644699891
 30
0.0
 11
-138.95728463182
 21
45.86957761039671
 31
0.0
  0
LINE
  5
1774E
330
18
100
AcDbEntity
  8
01
100
AcDbLine
 10
-138.45728463182
 20
47.36957644699883
 30
0.0
 11
-138.95728463182
 21
47.46957761039662
 31
0.0
  0
LINE
  5
1774F
330
18
100
AcDbEntity
  8
01
100
AcDbLine
 10
-142.45728463182
 20
44.96958575418066
 30
0.0
 11
-138.45728463182
 21
45.76957644699891
 31
0.0
  0
LINE
  5
17750
330
18
100
AcDbEntity
  8
01
100
AcDbLine
 10
-141.95728463182
 20
48.06958459078724
 30
0.0
 11
-142.45728463182
 21
48.16958575418503
 31
0.0
  0
LINE
  5
17751
330
18
100
AcDbEntity
  8
01
100
AcDbLine
 10
-140.457331167718
 20
41.1398575101101
 30
0.0
 11
-140.457331167718
 21
53.67188712056655
 31
0.0
  0
LINE
  5
17752
330
18
100
AcDbEntity
  8
01
100
AcDbLine
 10
-136.6573311677181
 20
43.66957295703318
 30
0.0
 11
-136.6573311677181
 21
42.66957295703319
 31
0.0
  0
LINE
  5
17753
330
18
100
AcDbEntity
  8
01
100
AcDbLine
 10
-144.257331167718
 20
43.66957295703318
 30
0.0
 11
-144.257331167718
 21
42.66957295703319
 31
0.0
  0
LINE
  5
17754
330
18
100
AcDbEntity
  8
01
100
AcDbLine
 10
-144.257331167718
 20
42.66957295703319
 30
0.0
 11
-136.6573311677181
 21
42.66957295703319
 31
0.0
  0
LINE
  5
17755
330
18
100
AcDbEntity
  8
01
100
AcDbLine
 10
-144.257331167718
 20
43.66957295703318
 30
0.0
 11
-136.6573311677181
 21
43.66957295703318
 31
0.0
  0
LINE
  5
17757
330
18
100
AcDbEntity
  8
01
100
AcDbLine
 10
-227.1365057884326
 20
69.76957923968294
 30
0.0
 11
-227.688255252236
 21
69.95234338231094
 31
0.0
  0
LINE
  5
17758
330
18
100
AcDbEntity
  8
01
100
AcDbLine
 10
-228.4573311677199
 20
75.63049690422386
 30
0.0
 11
-228.4573311677199
 21
38.99930590376894
 31
0.0
  0
LINE
  5
17759
330
18
100
AcDbEntity
  8
01
100
AcDbLine
 10
-229.5516549817151
 20
70.56958485923761
 30
0.0
 11
-227.5893198928396
 21
71.36958029328858
 31
0.0
  0
LINE
  5
1775A
330
18
100
AcDbEntity
  8
01
100
AcDbLine
 10
-227.5893198928396
 20
71.36958029328858
 30
0.0
 11
-228.1775964678821
 21
71.68135014954069
 31
0.0
  0
LINE
  5
1775B
330
18
100
AcDbEntity
  8
01
100
AcDbLine
 10
-230.4572846318218
 20
48.16958696644761
 30
0.0
 11
-226.4572846318218
 21
48.96957765926586
 31
0.0
  0
LINE
  5
1775C
330
18
100
AcDbEntity
  8
01
100
AcDbLine
 10
-230.4572846318218
 20
59.36958696645198
 30
0.0
 11
-226.4572846318218
 21
60.16957765927455
 31
0.0
  0
LINE
  5
1775D
330
18
100
AcDbEntity
  8
01
100
AcDbLine
 10
-230.4572846318218
 20
62.56958696645202
 30
0.0
 11
-226.4572846318218
 21
63.3695776592746
 31
0.0
  0
LINE
  5
1775E
330
18
100
AcDbEntity
  8
01
100
AcDbLine
 10
-226.4572846318218
 20
63.3695776592746
 30
0.0
 11
-226.9572846318218
 21
63.46957882267171
 31
0.0
  0
LINE
  5
1775F
330
18
100
AcDbEntity
  8
01
100
AcDbLine
 10
-229.9572846318219
 20
64.06958580305482
 30
0.0
 11
-230.4572846318218
 21
64.16958696645193
 31
0.0
  0
LINE
  5
17760
330
18
100
AcDbEntity
  8
01
100
AcDbLine
 10
-226.4572846318218
 20
60.16957765927455
 30
0.0
 11
-226.9572846318218
 21
60.26957882267166
 31
0.0
  0
LINE
  5
17761
330
18
100
AcDbEntity
  8
01
100
AcDbLine
 10
-226.4572846318218
 20
61.76957765927468
 30
0.0
 11
-226.9572846318218
 21
61.86957882267179
 31
0.0
  0
LINE
  5
17762
330
18
100
AcDbEntity
  8
01
100
AcDbLine
 10
-229.9572846318219
 20
62.46958580305491
 30
0.0
 11
-230.4572846318218
 21
62.56958696645202
 31
0.0
  0
LINE
  5
17763
330
18
100
AcDbEntity
  8
01
100
AcDbLine
 10
-229.9572846318219
 20
60.869585803055
 30
0.0
 11
-230.4572846318218
 21
60.96958696645211
 31
0.0
  0
LINE
  5
17764
330
18
100
AcDbEntity
  8
01
100
AcDbLine
 10
-230.4572846318218
 20
60.96958696645211
 30
0.0
 11
-226.4572846318218
 21
61.76957765927468
 31
0.0
  0
LINE
  5
17765
330
18
100
AcDbEntity
  8
01
100
AcDbLine
 10
-226.4572846318218
 20
66.56957765927464
 30
0.0
 11
-226.9572846318218
 21
66.66957882267175
 31
0.0
  0
LINE
  5
17766
330
18
100
AcDbEntity
  8
01
100
AcDbLine
 10
-226.4572846318218
 20
64.96957765927451
 30
0.0
 11
-226.9572846318218
 21
65.06957882267162
 31
0.0
  0
LINE
  5
17767
330
18
100
AcDbEntity
  8
01
100
AcDbLine
 10
-226.683691684026
 20
68.1695781860773
 30
0.0
 11
-227.2202854192968
 21
68.29884888370717
 31
0.0
  0
LINE
  5
17768
330
18
100
AcDbEntity
  8
01
100
AcDbLine
 10
-229.5363700346133
 20
68.85681640049179
 30
0.0
 11
-230.0044684897633
 21
68.96958591284183
 31
0.0
  0
LINE
  5
17769
330
18
100
AcDbEntity
  8
01
100
AcDbLine
 10
-229.9572846318219
 20
65.66958580305495
 30
0.0
 11
-230.4572846318218
 21
65.76958696645206
 31
0.0
  0
LINE
  5
1776A
330
18
100
AcDbEntity
  8
01
100
AcDbLine
 10
-229.9572846318219
 20
67.26958580305486
 30
0.0
 11
-230.4572846318218
 21
67.36958696645197
 31
0.0
  0
LINE
  5
1776B
330
18
100
AcDbEntity
  8
01
100
AcDbLine
 10
-229.0944831410838
 20
70.4181490627972
 30
0.0
 11
-229.5516549817151
 21
70.56958485923761
 31
0.0
  0
LINE
  5
1776C
330
18
100
AcDbEntity
  8
01
100
AcDbLine
 10
-230.0044684897633
 20
68.96958591284183
 30
0.0
 11
-227.1365057884326
 21
69.76957923968294
 31
0.0
  0
LINE
  5
1776D
330
18
100
AcDbEntity
  8
01
100
AcDbLine
 10
-230.4572846318218
 20
65.76958696645206
 30
0.0
 11
-226.4572846318218
 21
66.56957765927464
 31
0.0
  0
LINE
  5
1776E
330
18
100
AcDbEntity
  8
01
100
AcDbLine
 10
-230.4572846318218
 20
67.36958696645197
 30
0.0
 11
-226.683691684026
 21
68.1695781860773
 31
0.0
  0
LINE
  5
1776F
330
18
100
AcDbEntity
  8
01
100
AcDbLine
 10
-230.4572846318218
 20
64.16958696645193
 30
0.0
 11
-226.4572846318218
 21
64.96957765927451
 31
0.0
  0
LINE
  5
17770
330
18
100
AcDbEntity
  8
01
100
AcDbLine
 10
-230.4572846318218
 20
51.36958696644765
 30
0.0
 11
-226.4572846318218
 21
52.16957765926591
 31
0.0
  0
LINE
  5
17771
330
18
100
AcDbEntity
  8
01
100
AcDbLine
 10
-226.4572846318218
 20
52.16957765926591
 30
0.0
 11
-226.9572846318218
 21
52.26957882266347
 31
0.0
  0
LINE
  5
17772
330
18
100
AcDbEntity
  8
01
100
AcDbLine
 10
-229.9572846318219
 20
52.86958580305432
 30
0.0
 11
-230.4572846318218
 21
52.96958696645188
 31
0.0
  0
LINE
  5
17773
330
18
100
AcDbEntity
  8
01
100
AcDbLine
 10
-226.4572846318218
 20
50.56957765926577
 30
0.0
 11
-226.9572846318218
 21
50.66957882266334
 31
0.0
  0
LINE
  5
17774
330
18
100
AcDbEntity
  8
01
100
AcDbLine
 10
-226.4572846318218
 20
48.96957765926586
 30
0.0
 11
-226.9572846318218
 21
49.06957882266343
 31
0.0
  0
LINE
  5
17775
330
18
100
AcDbEntity
  8
01
100
AcDbLine
 10
-229.9572846318219
 20
51.26958580304986
 30
0.0
 11
-230.4572846318218
 21
51.36958696644765
 31
0.0
  0
LINE
  5
17776
330
18
100
AcDbEntity
  8
01
100
AcDbLine
 10
-229.9572846318219
 20
49.66958580304972
 30
0.0
 11
-230.4572846318218
 21
49.76958696644752
 31
0.0
  0
LINE
  5
17777
330
18
100
AcDbEntity
  8
01
100
AcDbLine
 10
-230.4572846318218
 20
49.76958696644752
 30
0.0
 11
-226.4572846318218
 21
50.56957765926577
 31
0.0
  0
LINE
  5
17778
330
18
100
AcDbEntity
  8
01
100
AcDbLine
 10
-226.4572846318218
 20
56.96957765927018
 30
0.0
 11
-226.9572846318218
 21
57.06957882266798
 31
0.0
  0
LINE
  5
17779
330
18
100
AcDbEntity
  8
01
100
AcDbLine
 10
-226.4572846318218
 20
58.56957765927464
 30
0.0
 11
-226.9572846318218
 21
58.66957882267175
 31
0.0
  0
LINE
  5
1777A
330
18
100
AcDbEntity
  8
01
100
AcDbLine
 10
-226.4572846318218
 20
53.76957765927014
 30
0.0
 11
-226.9572846318218
 21
53.86957882266793
 31
0.0
  0
LINE
  5
1777B
330
18
100
AcDbEntity
  8
01
100
AcDbLine
 10
-226.4572846318218
 20
55.36957765927005
 30
0.0
 11
-226.9572846318218
 21
55.46957882266784
 31
0.0
  0
LINE
  5
1777C
330
18
100
AcDbEntity
  8
01
100
AcDbLine
 10
-229.9572846318219
 20
59.26958580305487
 30
0.0
 11
-230.4572846318218
 21
59.36958696645198
 31
0.0
  0
LINE
  5
1777D
330
18
100
AcDbEntity
  8
01
100
AcDbLine
 10
-229.9572846318219
 20
57.66958580305427
 30
0.0
 11
-230.4572846318218
 21
57.76958696645206
 31
0.0
  0
LINE
  5
1777E
330
18
100
AcDbEntity
  8
01
100
AcDbLine
 10
-229.9572846318219
 20
54.46958580305423
 30
0.0
 11
-230.4572846318218
 21
54.56958696645179
 31
0.0
  0
LINE
  5
1777F
330
18
100
AcDbEntity
  8
01
100
AcDbLine
 10
-229.9572846318219
 20
56.06958580305437
 30
0.0
 11
-230.4572846318218
 21
56.16958696645193
 31
0.0
  0
LINE
  5
17780
330
18
100
AcDbEntity
  8
01
100
AcDbLine
 10
-230.4572846318218
 20
56.16958696645193
 30
0.0
 11
-226.4572846318218
 21
56.96957765927018
 31
0.0
  0
LINE
  5
17781
330
18
100
AcDbEntity
  8
01
100
AcDbLine
 10
-230.4572846318218
 20
57.76958696645206
 30
0.0
 11
-226.4572846318218
 21
58.56957765927464
 31
0.0
  0
LINE
  5
17782
330
18
100
AcDbEntity
  8
01
100
AcDbLine
 10
-230.4572846318218
 20
54.56958696645179
 30
0.0
 11
-226.4572846318218
 21
55.36957765927005
 31
0.0
  0
LINE
  5
17783
330
18
100
AcDbEntity
  8
01
100
AcDbLine
 10
-230.4572846318218
 20
52.96958696645188
 30
0.0
 11
-226.4572846318218
 21
53.76957765927014
 31
0.0
  0
LINE
  5
17784
330
18
100
AcDbEntity
  8
01
100
AcDbLine
 10
-226.9572846318218
 20
42.66957882277725
 30
0.0
 11
-229.9572846318219
 21
42.66958580316182
 31
0.0
  0
LINE
  5
17785
330
18
100
AcDbEntity
  8
01
100
AcDbLine
 10
-229.9572846318219
 20
43.26958580304577
 30
0.0
 11
-230.4572846318218
 21
43.36958696644333
 31
0.0
  0
LINE
  5
17786
330
18
100
AcDbEntity
  8
01
100
AcDbLine
 10
-230.4572846318218
 20
43.36958696644333
 30
0.0
 11
-226.4572846318218
 21
44.16957765926158
 31
0.0
  0
LINE
  5
17787
330
18
100
AcDbEntity
  8
01
100
AcDbLine
 10
-226.4572846318218
 20
44.16957765926158
 30
0.0
 11
-226.9572846318218
 21
44.26957882265938
 31
0.0
  0
LINE
  5
17788
330
18
100
AcDbEntity
  8
01
100
AcDbLine
 10
-229.9572846318219
 20
44.86958580304568
 30
0.0
 11
-230.4572846318218
 21
44.96958696644324
 31
0.0
  0
LINE
  5
17789
330
18
100
AcDbEntity
  8
01
100
AcDbLine
 10
-229.9572846318219
 20
46.46958580304558
 30
0.0
 11
-230.4572846318218
 21
46.56958696644315
 31
0.0
  0
LINE
  5
1778A
330
18
100
AcDbEntity
  8
01
100
AcDbLine
 10
-230.4572846318218
 20
46.56958696644315
 30
0.0
 11
-226.4572846318218
 21
47.36957765926141
 31
0.0
  0
LINE
  5
1778B
330
18
100
AcDbEntity
  8
01
100
AcDbLine
 10
-226.4572846318218
 20
45.7695776592615
 30
0.0
 11
-226.9572846318218
 21
45.86957882265929
 31
0.0
  0
LINE
  5
1778C
330
18
100
AcDbEntity
  8
01
100
AcDbLine
 10
-226.4572846318218
 20
47.36957765926141
 30
0.0
 11
-226.9572846318218
 21
47.46957882265919
 31
0.0
  0
LINE
  5
1778D
330
18
100
AcDbEntity
  8
01
100
AcDbLine
 10
-230.4572846318218
 20
44.96958696644324
 30
0.0
 11
-226.4572846318218
 21
45.7695776592615
 31
0.0
  0
LINE
  5
1778E
330
18
100
AcDbEntity
  8
01
100
AcDbLine
 10
-229.9572846318219
 20
48.06958580304982
 30
0.0
 11
-230.4572846318218
 21
48.16958696644761
 31
0.0
  0
LINE
  5
1778F
330
18
100
AcDbEntity
  8
01
100
AcDbLine
 10
-228.4573311677199
 20
41.13985872237267
 30
0.0
 11
-228.4573311677199
 21
53.67188833282913
 31
0.0
  0
LINE
  5
17790
330
18
100
AcDbEntity
  8
01
100
AcDbLine
 10
-224.6573311677199
 20
43.66957416929577
 30
0.0
 11
-224.6573311677199
 21
42.66957416929577
 31
0.0
  0
LINE
  5
17791
330
18
100
AcDbEntity
  8
01
100
AcDbLine
 10
-232.2573311677198
 20
43.66957416929577
 30
0.0
 11
-232.2573311677198
 21
42.66957416929577
 31
0.0
  0
LINE
  5
17792
330
18
100
AcDbEntity
  8
01
100
AcDbLine
 10
-232.2573311677198
 20
42.66957416929577
 30
0.0
 11
-224.6573311677199
 21
42.66957416929577
 31
0.0
  0
LINE
  5
17793
330
18
100
AcDbEntity
  8
01
100
AcDbLine
 10
-232.2573311677198
 20
43.66957416929577
 30
0.0
 11
-224.6573311677199
 21
43.66957416929577
 31
0.0
  0
LINE
  5
178B5
330
18
100
AcDbEntity
  8
01
100
AcDbLine
 10
-46.50763303627513
 20
7.169573563164477
 30
0.0
 11
23.49236696372486
 21
7.169573563164477
 31
0.0
  0
LINE
  5
178B6
330
18
100
AcDbEntity
  8
01
100
AcDbLine
 10
-46.50763303627513
 20
-6.830426436835522
 30
0.0
 11
23.49236696372486
 21
-6.830426436835522
 31
0.0
  0
LINE
  5
178B7
330
18
100
AcDbEntity
  8
01
100
AcDbLine
 10
-46.50763303627513
 20
0.1695735631644784
 30
0.0
 11
23.49236696372486
 21
0.1695735631644783
 31
0.0
  0
TEXT
  5
178B9
330
18
100
AcDbEntity
  8
01
100
AcDbText
 10
-0.7742997029421677
 20
1.669573563164478
 30
0.0
 40
4.0
  1
コード
 72
     1
 11
5.892366963724498
 21
1.669573563164478
 31
0.0
100
AcDbText
  0
LINE
  5
178BE
330
18
100
AcDbEntity
  8
01
100
AcDbLine
 10
-46.50763303627513
 20
-6.830426436835521
 30
0.0
 11
-46.50763303627513
 21
7.169573563164478
 31
0.0
  0
LINE
  5
178BF
330
18
100
AcDbEntity
  8
01
100
AcDbLine
 10
23.49236696372486
 20
-6.830426436835521
 30
0.0
 11
23.49236696372486
 21
7.169573563164478
 31
0.0
  0
TEXT
  5
178C0
330
18
100
AcDbEntity
  8
01
100
AcDbText
 10
-38.17429970294217
 20
1.669573563164478
 30
0.0
 40
4.0
  1
表面処理
 72
     1
 11
-29.1076330362755
 21
1.669573563164478
 31
0.0
100
AcDbText
  0
LINE
  5
178C4
330
18
100
AcDbEntity
  8
01
100
AcDbLine
 10
-11.50763303627514
 20
-6.830426436835521
 30
0.0
 11
-11.50763303627514
 21
7.169573563164478
 31
0.0
  0
TEXT
  5
17912
330
18
100
AcDbEntity
  8
01
100
AcDbText
 10
-38.17429970294217
 20
-5.165715096359916
 30
0.0
 40
4.0
  1
クローム
 72
     1
 11
-29.1076330362755
 21
-5.165715096359916
 31
0.0
100
AcDbText
  0
LINE
  5
17C97
330
18
100
AcDbEntity
  8
01
100
AcDbLine
 10
-228.4573311677199
 20
-124.5098015873958
 30
0.0
 11
-228.4573311677199
 21
-165.0931806406273
 31
0.0
  0
LINE
  5
17C9A
330
18
100
AcDbEntity
  8
01
100
AcDbLine
 10
-140.457331167718
 20
-124.5098027996584
 30
0.0
 11
-140.457331167718
 21
-165.0931806406273
 31
0.0
  0
LINE
  5
17C9B
330
18
100
AcDbEntity
  8
01
100
AcDbLine
 10
-226.4573311677199
 20
-164.0931806406273
 30
0.0
 11
-142.457331167718
 21
-164.0931806406273
 31
0.0
  0
TEXT
  5
17C9F
330
18
100
AcDbEntity
  8
01
100
AcDbText
 10
-67.84855286269536
 20
-37.81062297306053
 30
0.0
 40
3.5
  1
材質：真鍮
100
AcDbText
  0
TEXT
  5
17CA0
330
18
100
AcDbEntity
  8
01
100
AcDbText
 10
-80.44855286269536
 20
-43.64395630639386
 30
0.0
 40
3.5
  1
仕上げ：クローム
100
AcDbText
  0
LINE
  5
17CA3
330
18
100
AcDbEntity
  8
01
100
AcDbLine
 10
-228.4572846318218
 20
72.66958231291543
 30
0.0
 11
-229.9572846318219
 21
67.36958580305364
 31
0.0
  0
LINE
  5
17CA4
330
18
100
AcDbEntity
  8
01
100
AcDbLine
 10
-229.9572846318219
 20
67.36958580305364
 30
0.0
 11
-229.9572846318219
 21
42.66958580316182
 31
0.0
  0
LINE
  5
17CA5
330
18
100
AcDbEntity
  8
01
100
AcDbLine
 10
-228.4572846318218
 20
72.66958231291543
 30
0.0
 11
-226.9572846318218
 21
67.36957882266998
 31
0.0
  0
LINE
  5
17CA6
330
18
100
AcDbEntity
  8
01
100
AcDbLine
 10
-231.9573311677199
 20
42.66959045685999
 30
0.0
 11
-229.9572846318219
 21
42.66958580316182
 31
0.0
  0
LINE
  5
17CA7
330
18
100
AcDbEntity
  8
01
100
AcDbLine
 10
-226.9572846318218
 20
67.36957882266998
 30
0.0
 11
-226.9572846318218
 21
42.66957882277725
 31
0.0
  0
LINE
  5
17CA8
330
18
100
AcDbEntity
  8
01
100
AcDbLine
 10
-231.9573311677199
 20
42.66959045685999
 30
0.0
 11
-231.9573311677199
 21
41.56958696666461
 31
0.0
  0
LINE
  5
17CA9
330
18
100
AcDbEntity
  8
01
100
AcDbLine
 10
-226.9572846318218
 20
42.66957882277725
 30
0.0
 11
-224.9573311677199
 21
42.66957416929554
 31
0.0
  0
ARC
  5
17CAA
330
18
100
AcDbEntity
  8
01
100
AcDbCircle
 10
-230.4573311677199
 20
41.56958696666461
 30
0.0
 40
1.5
100
AcDbArc
 50
180.0
 51
269.9998666844749
  0
LINE
  5
17CAB
330
18
100
AcDbEntity
  8
01
100
AcDbLine
 10
-224.9573311677199
 20
42.66957416929554
 30
0.0
 11
-224.9573311677199
 21
41.56957765948496
 31
0.0
  0
LINE
  5
17CAC
330
18
100
AcDbEntity
  8
01
100
AcDbLine
 10
-230.4573346579122
 20
40.0695869666687
 30
0.0
 11
-226.4573346579122
 21
40.06957765948905
 31
0.0
  0
ARC
  5
17CAD
330
18
100
AcDbEntity
  8
01
100
AcDbCircle
 10
-226.4573311677199
 20
41.56957765948496
 30
0.0
 40
1.5
100
AcDbArc
 50
269.9998666844749
 51
0.0
  0
LINE
  5
17CAE
330
18
100
AcDbEntity
  8
01
100
AcDbLine
 10
-140.45728463182
 20
72.66958110065283
 30
0.0
 11
-141.95728463182
 21
67.36958459079104
 31
0.0
  0
LINE
  5
17CAF
330
18
100
AcDbEntity
  8
01
100
AcDbLine
 10
-141.95728463182
 20
67.36958459079104
 30
0.0
 11
-141.95728463182
 21
42.66958459089924
 31
0.0
  0
LINE
  5
17CB0
330
18
100
AcDbEntity
  8
01
100
AcDbLine
 10
-140.45728463182
 20
72.66958110065283
 30
0.0
 11
-138.95728463182
 21
67.36957761040739
 31
0.0
  0
LINE
  5
17CB1
330
18
100
AcDbEntity
  8
01
100
AcDbLine
 10
-143.957331167718
 20
42.66958924459741
 30
0.0
 11
-141.95728463182
 21
42.66958459089924
 31
0.0
  0
LINE
  5
17CB2
330
18
100
AcDbEntity
  8
01
100
AcDbLine
 10
-138.95728463182
 20
67.36957761040739
 30
0.0
 11
-138.95728463182
 21
42.66957761051467
 31
0.0
  0
LINE
  5
17CB3
330
18
100
AcDbEntity
  8
01
100
AcDbLine
 10
-143.957331167718
 20
42.66958924459741
 30
0.0
 11
-143.957331167718
 21
41.56958575440203
 31
0.0
  0
LINE
  5
17CB4
330
18
100
AcDbEntity
  8
01
100
AcDbLine
 10
-138.95728463182
 20
42.66957761051467
 30
0.0
 11
-136.957331167718
 21
42.66957295703296
 31
0.0
  0
ARC
  5
17CB5
330
18
100
AcDbEntity
  8
01
100
AcDbCircle
 10
-142.457331167718
 20
41.56958575440203
 30
0.0
 40
1.5
100
AcDbArc
 50
180.0
 51
269.9998666844749
  0
LINE
  5
17CB6
330
18
100
AcDbEntity
  8
01
100
AcDbLine
 10
-136.957331167718
 20
42.66957295703296
 30
0.0
 11
-136.957331167718
 21
41.56957644722238
 31
0.0
  0
LINE
  5
17CB7
330
18
100
AcDbEntity
  8
01
100
AcDbLine
 10
-142.4573346579103
 20
40.06958575440612
 30
0.0
 11
-138.4573346579103
 21
40.06957644722647
 31
0.0
  0
ARC
  5
17CB8
330
18
100
AcDbEntity
  8
01
100
AcDbCircle
 10
-138.457331167718
 20
41.56957644722238
 30
0.0
 40
1.5
100
AcDbArc
 50
269.9998666844749
 51
0.0
  0
LINE
  5
17CB9
330
18
100
AcDbEntity
  8
01
100
AcDbLine
 10
82.04266830758436
 20
-119.8304523145456
 30
0.0
 11
76.74267179772281
 21
-118.3304523145456
 31
0.0
  0
LINE
  5
17CBA
330
18
100
AcDbEntity
  8
01
100
AcDbLine
 10
76.74267179772281
 20
-118.3304523145456
 30
0.0
 11
52.04267179783076
 21
-118.3304523145456
 31
0.0
  0
LINE
  5
17CBB
330
18
100
AcDbEntity
  8
01
100
AcDbLine
 10
82.04266830758436
 20
-119.8304523145456
 30
0.0
 11
76.74266481733915
 21
-121.3304523145456
 31
0.0
  0
LINE
  5
17CBC
330
18
100
AcDbEntity
  8
01
100
AcDbLine
 10
52.04267645152915
 20
-116.3304057786476
 30
0.0
 11
52.04267179783076
 21
-118.3304523145456
 31
0.0
  0
LINE
  5
17CBD
330
18
100
AcDbEntity
  8
01
100
AcDbLine
 10
76.74266481733915
 20
-121.3304523145456
 30
0.0
 11
52.04266481744618
 21
-121.3304523145456
 31
0.0
  0
LINE
  5
17CBE
330
18
100
AcDbEntity
  8
01
100
AcDbLine
 10
52.04267645152915
 20
-116.3304057786476
 30
0.0
 11
50.94267296133377
 21
-116.3304057786476
 31
0.0
  0
LINE
  5
17CBF
330
18
100
AcDbEntity
  8
01
100
AcDbLine
 10
52.04266481744618
 20
-121.3304523145456
 30
0.0
 11
52.0426601639647
 21
-123.3304057786476
 31
0.0
  0
ARC
  5
17CC0
330
18
100
AcDbEntity
  8
01
100
AcDbCircle
 10
50.94267296133377
 20
-117.8304057786476
 30
0.0
 40
1.5
100
AcDbArc
 50
90.00000000000003
 51
179.9998666844749
  0
LINE
  5
17CC1
330
18
100
AcDbEntity
  8
01
100
AcDbLine
 10
52.0426601639647
 20
-123.3304057786476
 30
0.0
 11
50.94266365415389
 21
-123.3304057786476
 31
0.0
  0
LINE
  5
17CC2
330
18
100
AcDbEntity
  8
01
100
AcDbLine
 10
49.44267296133787
 20
-117.8304022884553
 30
0.0
 11
49.44266365415799
 21
-121.8304022884553
 31
0.0
  0
ARC
  5
17CC3
330
18
100
AcDbEntity
  8
01
100
AcDbCircle
 10
50.94266365415389
 20
-121.8304057786476
 30
0.0
 40
1.5
100
AcDbArc
 50
179.9998666844749
 51
270.0
  0
TEXT
  5
17CC4
330
18
100
AcDbEntity
  8
01
100
AcDbText
 10
8.775126065121124
 20
-44.20178452249391
 30
0.0
 40
3.5
  1
材質：真鍮
100
AcDbText
  0
TEXT
  5
17CC5
330
18
100
AcDbEntity
  8
01
100
AcDbText
 10
-3.824873934878858
 20
-50.03511785582725
 30
0.0
 40
3.5
  1
仕上げ：クローム
100
AcDbText
  0
LINE
  5
17CC8
330
18
100
AcDbEntity
  8
01
100
AcDbLine
 10
-49.50911163350215
 20
-105.6964093469984
 30
0.0
 11
-49.50911163350215
 21
-59.79052787547619
 31
0.0
  0
LINE
  5
17CC9
330
18
100
AcDbEntity
  8
01
100
AcDbLine
 10
55.54266883228194
 20
-76.60225285155366
 30
0.0
 11
55.54266883228194
 21
-59.79052787547619
 31
0.0
  0
LINE
  5
17CCA
330
18
100
AcDbEntity
  8
01
100
AcDbLine
 10
-47.50911163350215
 20
-60.79052787547619
 30
0.0
 11
53.54266883228195
 21
-60.79052787547619
 31
0.0
  0
LINE
  5
17CCE
330
18
100
AcDbEntity
  8
01
100
AcDbLine
 10
-279.9573602266036
 20
-113.8304628536081
 30
0.0
 11
-279.9573602266036
 21
-59.79052787547619
 31
0.0
  0
LINE
  5
17CCF
330
18
100
AcDbEntity
  8
01
100
AcDbLine
 10
-88.95730210963456
 20
-113.8304628533225
 30
0.0
 11
-88.95730210963456
 21
-59.79052787547619
 31
0.0
  0
LINE
  5
17CD0
330
18
100
AcDbEntity
  8
01
100
AcDbLine
 10
-277.9573602266036
 20
-60.79052787547619
 30
0.0
 11
-90.95730210963457
 21
-60.79052787547619
 31
0.0
  0
TEXT
  5
17CD4
330
18
100
AcDbEntity
  8
01
100
AcDbText
 10
67.70895552316888
 20
-56.05105329016528
 30
0.0
 40
3.5
  1
合板9mm以上
100
AcDbText
  0
TEXT
  5
17CD7
330
18
100
AcDbEntity
  8
01
100
AcDbText
 10
60.02757293363542
 20
-43.8179870051332
 30
0.0
 40
3.5
  1
PB
100
AcDbText
  0
LINE
  5
17CDA
330
18
100
AcDbEntity
  8
01
100
AcDbLine
 10
55.54266655928962
 20
-139.8304264368356
 30
0.0
 11
95.04266883228194
 21
-139.8304264368356
 31
0.0
  0
LINE
  5
17CDB
330
18
100
AcDbEntity
  8
01
100
AcDbLine
 10
55.54266883228194
 20
-87.83042643683566
 30
0.0
 11
95.04266883228195
 21
-87.83042643683566
 31
0.0
  0
LINE
  5
17CDC
330
18
100
AcDbEntity
  8
01
100
AcDbLine
 10
94.04266883228194
 20
-137.8304264368356
 30
0.0
 11
94.04266883228194
 21
-89.83042643683566
 31
0.0
  0
LINE
  5
17CE0
330
18
100
AcDbEntity
  8
01
100
AcDbLine
 10
88.47346322504982
 20
-119.8304057786475
 30
0.0
 11
86.04266883228193
 21
-119.8304057786475
 31
0.0
  0
LINE
  5
17CE1
330
18
100
AcDbEntity
  8
01
100
AcDbLine
 10
55.54266883228194
 20
-87.83042643683566
 30
0.0
 11
88.04266883228194
 21
-87.83042643683566
 31
0.0
  0
LINE
  5
17CE2
330
18
100
AcDbEntity
  8
01
100
AcDbLine
 10
87.04266883228193
 20
-117.8304057786475
 30
0.0
 11
87.04266883228195
 21
-89.83042643683566
 31
0.0
  0
TEXT
  5
17CE6
330
18
100
AcDbEntity
  8
01
100
AcDbText
 10
21.37740853546825
 20
-27.12553813070119
 30
0.0
 40
3.5
  1
材質：真鍮
100
AcDbText
  0
TEXT
  5
17CE7
330
18
100
AcDbEntity
  8
01
100
AcDbText
 10
8.777408535468261
 20
-32.95887146403453
 30
0.0
 40
3.5
  1
仕上げ：クローム
100
AcDbText
  0
TEXT
  5
17CEA
330
18
100
AcDbEntity
  8
01
100
AcDbText
 10
-13.11555617644116
 20
-76.61995819344195
 30
0.0
 40
3.5
  1
材質：ステンレス
100
AcDbText
  0
TEXT
  5
17CEB
330
18
100
AcDbEntity
  8
01
100
AcDbText
 10
-4.715556176441161
 20
-82.45329152677527
 30
0.0
 40
3.5
  1
仕上げ：鏡面
100
AcDbText
  0
LINE
  5
17CEE
330
18
100
AcDbEntity
  8
01
100
AcDbLine
 10
-184.4573311677178
 20
46.16957356316447
 30
0.0
 11
-84.64344147153358
 21
46.16957356316444
 31
0.0
  0
LINE
  5
17CEF
330
18
100
AcDbEntity
  8
01
100
AcDbLine
 10
-114.9573583456407
 20
-48.77157433255786
 30
0.0
 11
-84.6434414715336
 21
-48.77157433255787
 31
0.0
  0
LINE
  5
17CF0
330
18
100
AcDbEntity
  8
01
100
AcDbLine
 10
-85.64344147153358
 20
44.16957356316444
 30
0.0
 11
-85.64344147153361
 21
-46.77157433255787
 31
0.0
  0
TEXT
  5
17CF4
330
18
100
AcDbEntity
  8
01
100
AcDbText
 10
-86.3434414715336
 20
-29.50100038469673
 30
0.0
 40
3.5
  1
95 （ペーパー無し最小値）
 50
90.0
100
AcDbText
  0
LINE
  5
17CF5
330
18
100
AcDbEntity
  8
01
  6
ByBlock
100
AcDbLine
 10
-85.10754309153361
 20
-46.77157433255787
 30
0.0
 11
-85.64344147153361
 21
-48.77157433255787
 31
0.0
  0
LINE
  5
17CF6
330
18
100
AcDbEntity
  8
01
  6
ByBlock
100
AcDbLine
 10
-85.64344147153361
 20
-48.77157433255787
 30
0.0
 11
-86.17933985153362
 21
-46.77157433255787
 31
0.0
  0
LINE
  5
17CF7
330
18
100
AcDbEntity
  8
01
  6
ByBlock
100
AcDbLine
 10
-85.64344147153361
 20
-48.77157433255787
 30
0.0
 11
-85.64344147153361
 21
-46.77157433255787
 31
0.0
  0
LINE
  5
17CF8
330
18
100
AcDbEntity
  8
01
  6
ByBlock
100
AcDbLine
 10
-86.17933985153358
 20
44.16957356316444
 30
0.0
 11
-85.64344147153358
 21
46.16957356316444
 31
0.0
  0
LINE
  5
17CF9
330
18
100
AcDbEntity
  8
01
  6
ByBlock
100
AcDbLine
 10
-85.64344147153358
 20
46.16957356316444
 30
0.0
 11
-85.10754309153357
 21
44.16957356316444
 31
0.0
  0
LINE
  5
17CFA
330
18
100
AcDbEntity
  8
01
  6
ByBlock
100
AcDbLine
 10
-85.64344147153358
 20
46.16957356316444
 30
0.0
 11
-85.64344147153358
 21
44.16957356316444
 31
0.0
  0
LINE
  5
17CFB
330
18
100
AcDbEntity
  8
01
100
AcDbLine
 10
27.66893944412943
 20
-98.16410179666929
 30
0.0
 11
22.25111049022548
 21
-83.15329152677527
 31
0.0
1001
ACAD
1000
DSTYLE
1002
{
1070
    45
1040
0.5
1002
}
  0
LINE
  5
17CFC
330
18
100
AcDbEntity
  8
01
100
AcDbLine
 10
22.25111049022548
 20
-83.15329152677527
 30
0.0
 11
19.55111049022548
 21
-83.15329152677527
 31
0.0
1001
ACAD
1000
DSTYLE
1002
{
1070
    45
1040
0.5
1002
}
  0
LINE
  5
17CFD
330
18
100
AcDbEntity
  8
01
  6
ByBlock
100
AcDbLine
 10
28.17301015709439
 20
-97.98216831976738
 30
0.0
 11
28.34792442968547
 21
-100.0453193251304
 31
0.0
  0
LINE
  5
17CFE
330
18
100
AcDbEntity
  8
01
  6
ByBlock
100
AcDbLine
 10
28.34792442968547
 20
-100.0453193251304
 30
0.0
 11
27.16486873116446
 21
-98.34603527357119
 31
0.0
  0
LINE
  5
17CFF
330
18
100
AcDbEntity
  8
01
  6
ByBlock
100
AcDbLine
 10
28.34792442968547
 20
-100.0453193251304
 30
0.0
 11
27.66893944412943
 21
-98.16410179666929
 31
0.0
  0
LINE
  5
17D00
330
18
100
AcDbEntity
  8
01
100
AcDbLine
 10
50.5050270759337
 20
-89.18906120321834
 30
0.0
 11
44.14407520213491
 21
-33.65887146403454
 31
0.0
1001
ACAD
1000
DSTYLE
1002
{
1070
    45
1040
0.5
1002
}
  0
LINE
  5
17D01
330
18
100
AcDbEntity
  8
01
100
AcDbLine
 10
44.14407520213491
 20
-33.65887146403454
 30
0.0
 11
41.44407520213491
 21
-33.65887146403454
 31
0.0
1001
ACAD
1000
DSTYLE
1002
{
1070
    45
1040
0.5
1002
}
  0
LINE
  5
17D02
330
18
100
AcDbEntity
  8
01
  6
ByBlock
100
AcDbLine
 10
51.03744376774294
 20
-89.12807317185537
 30
0.0
 11
50.73263750969909
 21
-91.1760673658764
 31
0.0
  0
LINE
  5
17D03
330
18
100
AcDbEntity
  8
01
  6
ByBlock
100
AcDbLine
 10
50.73263750969909
 20
-91.1760673658764
 30
0.0
 11
49.97261038412447
 21
-89.25004923458132
 31
0.0
  0
LINE
  5
17D04
330
18
100
AcDbEntity
  8
01
  6
ByBlock
100
AcDbLine
 10
50.73263750969909
 20
-91.1760673658764
 30
0.0
 11
50.50502707593371
 21
-89.18906120321834
 31
0.0
  0
TEXT
  5
17D05
330
18
100
AcDbEntity
  8
01
100
AcDbText
 10
86.34266883228196
 20
-107.1637494410749
 30
0.0
 40
3.5
  1
32
 50
90.0
100
AcDbText
  0
LINE
  5
17D06
330
18
100
AcDbEntity
  8
01
  6
ByBlock
100
AcDbLine
 10
86.50677045228194
 20
-89.83042643683566
 30
0.0
 11
87.04266883228195
 21
-87.83042643683566
 31
0.0
  0
LINE
  5
17D07
330
18
100
AcDbEntity
  8
01
  6
ByBlock
100
AcDbLine
 10
87.04266883228195
 20
-87.83042643683566
 30
0.0
 11
87.57856721228195
 21
-89.83042643683566
 31
0.0
  0
LINE
  5
17D08
330
18
100
AcDbEntity
  8
01
  6
ByBlock
100
AcDbLine
 10
87.04266883228195
 20
-87.83042643683566
 30
0.0
 11
87.04266883228195
 21
-89.83042643683566
 31
0.0
  0
LINE
  5
17D09
330
18
100
AcDbEntity
  8
01
  6
ByBlock
100
AcDbLine
 10
87.57856721228193
 20
-117.8304057786475
 30
0.0
 11
87.04266883228193
 21
-119.8304057786475
 31
0.0
  0
LINE
  5
17D0A
330
18
100
AcDbEntity
  8
01
  6
ByBlock
100
AcDbLine
 10
87.04266883228193
 20
-119.8304057786475
 30
0.0
 11
86.50677045228192
 21
-117.8304057786475
 31
0.0
  0
LINE
  5
17D0B
330
18
100
AcDbEntity
  8
01
  6
ByBlock
100
AcDbLine
 10
87.04266883228193
 20
-119.8304057786475
 30
0.0
 11
87.04266883228193
 21
-117.8304057786475
 31
0.0
  0
TEXT
  5
17D0C
330
18
100
AcDbEntity
  8
01
100
AcDbText
 10
93.34266883228195
 20
-117.1637597701689
 30
0.0
 40
3.5
  1
52
 50
90.0
100
AcDbText
  0
LINE
  5
17D0D
330
18
100
AcDbEntity
  8
01
  6
ByBlock
100
AcDbLine
 10
93.50677045228193
 20
-89.83042643683566
 30
0.0
 11
94.04266883228194
 21
-87.83042643683566
 31
0.0
  0
LINE
  5
17D0E
330
18
100
AcDbEntity
  8
01
  6
ByBlock
100
AcDbLine
 10
94.04266883228194
 20
-87.83042643683566
 30
0.0
 11
94.57856721228194
 21
-89.83042643683566
 31
0.0
  0
LINE
  5
17D0F
330
18
100
AcDbEntity
  8
01
  6
ByBlock
100
AcDbLine
 10
94.04266883228194
 20
-87.83042643683566
 30
0.0
 11
94.04266883228194
 21
-89.83042643683566
 31
0.0
  0
LINE
  5
17D10
330
18
100
AcDbEntity
  8
01
  6
ByBlock
100
AcDbLine
 10
94.57856721228194
 20
-137.8304264368356
 30
0.0
 11
94.04266883228194
 21
-139.8304264368356
 31
0.0
  0
LINE
  5
17D11
330
18
100
AcDbEntity
  8
01
  6
ByBlock
100
AcDbLine
 10
94.04266883228194
 20
-139.8304264368356
 30
0.0
 11
93.50677045228193
 21
-137.8304264368356
 31
0.0
  0
LINE
  5
17D12
330
18
100
AcDbEntity
  8
01
  6
ByBlock
100
AcDbLine
 10
94.04266883228194
 20
-139.8304264368356
 30
0.0
 11
94.04266883228194
 21
-137.8304264368356
 31
0.0
  0
LINE
  5
17D13
330
18
100
AcDbEntity
  8
01
100
AcDbLine
 10
61.64157043308624
 20
-81.93584892981624
 30
0.0
 11
57.99423960030208
 21
-44.51798700513321
 31
0.0
1001
ACAD
1000
DSTYLE
1002
{
1070
    45
1040
0.5
1002
}
  0
LINE
  5
17D14
330
18
100
AcDbEntity
  8
01
100
AcDbLine
 10
57.99423960030208
 20
-44.51798700513321
 30
0.0
 11
60.69423960030208
 21
-44.51798700513321
 31
0.0
1001
ACAD
1000
DSTYLE
1002
{
1070
    45
1040
0.5
1002
}
  0
LINE
  5
17D15
330
18
100
AcDbEntity
  8
01
  6
ByBlock
100
AcDbLine
 10
62.17494089273206
 20
-81.88385829158368
 30
0.0
 11
61.83560213824859
 21
-83.92641460253136
 31
0.0
  0
LINE
  5
17D16
330
18
100
AcDbEntity
  8
01
  6
ByBlock
100
AcDbLine
 10
61.83560213824859
 20
-83.92641460253136
 30
0.0
 11
61.10819997344042
 21
-81.98783956804881
 31
0.0
  0
LINE
  5
17D17
330
18
100
AcDbEntity
  8
01
  6
ByBlock
100
AcDbLine
 10
61.83560213824859
 20
-83.92641460253136
 30
0.0
 11
61.64157043308624
 21
-81.93584892981624
 31
0.0
  0
LINE
  5
17D18
330
18
100
AcDbEntity
  8
01
100
AcDbLine
 10
71.13528663983427
 20
-82.8846733572506
 30
0.0
 11
65.00895552316888
 21
-56.75105329016528
 31
0.0
1001
ACAD
1000
DSTYLE
1002
{
1070
    45
1040
0.5
1002
}
  0
LINE
  5
17D19
330
18
100
AcDbEntity
  8
01
100
AcDbLine
 10
65.00895552316888
 20
-56.75105329016528
 30
0.0
 11
67.70895552316888
 21
-56.75105329016528
 31
0.0
1001
ACAD
1000
DSTYLE
1002
{
1070
    45
1040
0.5
1002
}
  0
LINE
  5
17D1A
330
18
100
AcDbEntity
  8
01
  6
ByBlock
100
AcDbLine
 10
71.65704043663815
 20
-82.76236207728279
 30
0.0
 11
71.59175855515456
 21
-84.83188505363182
 31
0.0
  0
LINE
  5
17D1B
330
18
100
AcDbEntity
  8
01
  6
ByBlock
100
AcDbLine
 10
71.59175855515456
 20
-84.83188505363182
 30
0.0
 11
70.61353284303041
 21
-83.00698463721841
 31
0.0
  0
LINE
  5
17D1C
330
18
100
AcDbEntity
  8
01
  6
ByBlock
100
AcDbLine
 10
71.59175855515456
 20
-84.83188505363182
 30
0.0
 11
71.13528663983427
 21
-82.8846733572506
 31
0.0
  0
TEXT
  5
17D1D
330
18
100
AcDbEntity
  8
01
100
AcDbText
 10
-189.2073311681191
 20
-60.09052787547618
 30
0.0
 40
3.5
  1
191
100
AcDbText
  0
LINE
  5
17D1E
330
18
100
AcDbEntity
  8
01
  6
ByBlock
100
AcDbLine
 10
-90.95730210963457
 20
-60.25462949547619
 30
0.0
 11
-88.95730210963456
 21
-60.79052787547619
 31
0.0
  0
LINE
  5
17D1F
330
18
100
AcDbEntity
  8
01
  6
ByBlock
100
AcDbLine
 10
-88.95730210963456
 20
-60.79052787547619
 30
0.0
 11
-90.95730210963457
 21
-61.32642625547618
 31
0.0
  0
LINE
  5
17D20
330
18
100
AcDbEntity
  8
01
  6
ByBlock
100
AcDbLine
 10
-88.95730210963456
 20
-60.79052787547619
 30
0.0
 11
-90.95730210963457
 21
-60.79052787547619
 31
0.0
  0
LINE
  5
17D21
330
18
100
AcDbEntity
  8
01
  6
ByBlock
100
AcDbLine
 10
-277.9573602266036
 20
-61.32642625547618
 30
0.0
 11
-279.9573602266036
 21
-60.79052787547619
 31
0.0
  0
LINE
  5
17D22
330
18
100
AcDbEntity
  8
01
  6
ByBlock
100
AcDbLine
 10
-279.9573602266036
 20
-60.79052787547619
 30
0.0
 11
-277.9573602266036
 21
-60.25462949547619
 31
0.0
  0
LINE
  5
17D23
330
18
100
AcDbEntity
  8
01
  6
ByBlock
100
AcDbLine
 10
-279.9573602266036
 20
-60.79052787547619
 30
0.0
 11
-277.9573602266036
 21
-60.79052787547619
 31
0.0
  0
TEXT
  5
17D24
330
18
100
AcDbEntity
  8
01
100
AcDbText
 10
-27.09988806727676
 20
-60.09052787547618
 30
0.0
 40
3.5
  1
105 （ペーパー付き最大値）
100
AcDbText
  0
LINE
  5
17D25
330
18
100
AcDbEntity
  8
01
  6
ByBlock
100
AcDbLine
 10
53.54266883228195
 20
-60.25462949547619
 30
0.0
 11
55.54266883228194
 21
-60.79052787547619
 31
0.0
  0
LINE
  5
17D26
330
18
100
AcDbEntity
  8
01
  6
ByBlock
100
AcDbLine
 10
55.54266883228194
 20
-60.79052787547619
 30
0.0
 11
53.54266883228195
 21
-61.32642625547618
 31
0.0
  0
LINE
  5
17D27
330
18
100
AcDbEntity
  8
01
  6
ByBlock
100
AcDbLine
 10
55.54266883228194
 20
-60.79052787547619
 30
0.0
 11
53.54266883228195
 21
-60.79052787547619
 31
0.0
  0
LINE
  5
17D28
330
18
100
AcDbEntity
  8
01
  6
ByBlock
100
AcDbLine
 10
-47.50911163350215
 20
-61.32642625547618
 30
0.0
 11
-49.50911163350215
 21
-60.79052787547619
 31
0.0
  0
LINE
  5
17D29
330
18
100
AcDbEntity
  8
01
  6
ByBlock
100
AcDbLine
 10
-49.50911163350215
 20
-60.79052787547619
 30
0.0
 11
-47.50911163350215
 21
-60.25462949547619
 31
0.0
  0
LINE
  5
17D2A
330
18
100
AcDbEntity
  8
01
  6
ByBlock
100
AcDbLine
 10
-49.50911163350215
 20
-60.79052787547619
 30
0.0
 11
-47.50911163350215
 21
-60.79052787547619
 31
0.0
  0
LINE
  5
17D2B
330
18
100
AcDbEntity
  8
01
100
AcDbLine
 10
46.39179822812286
 20
-96.68981018652376
 30
0.0
 11
31.54179273178779
 21
-50.73511785582725
 31
0.0
1001
ACAD
1000
DSTYLE
1002
{
1070
    45
1040
0.5
1002
}
  0
LINE
  5
17D2C
330
18
100
AcDbEntity
  8
01
100
AcDbLine
 10
31.54179273178779
 20
-50.73511785582725
 30
0.0
 11
28.84179273178779
 21
-50.73511785582725
 31
0.0
1001
ACAD
1000
DSTYLE
1002
{
1070
    45
1040
0.5
1002
}
  0
LINE
  5
17D2D
330
18
100
AcDbEntity
  8
01
  6
ByBlock
100
AcDbLine
 10
46.90173326048983
 20
-96.52502749188769
 30
0.0
 11
47.00677562229247
 21
-98.59291365314357
 31
0.0
  0
LINE
  5
17D2E
330
18
100
AcDbEntity
  8
01
  6
ByBlock
100
AcDbLine
 10
47.00677562229247
 20
-98.59291365314357
 30
0.0
 11
45.88186319575588
 21
-96.85459288115982
 31
0.0
  0
LINE
  5
17D2F
330
18
100
AcDbEntity
  8
01
  6
ByBlock
100
AcDbLine
 10
47.00677562229247
 20
-98.59291365314357
 30
0.0
 11
46.39179822812286
 21
-96.68981018652376
 31
0.0
  0
LINE
  5
17D30
330
18
100
AcDbEntity
  8
01
100
AcDbLine
 10
-104.1530819527147
 20
-30.65135222586859
 30
0.0
 11
-83.14855286269535
 21
-44.34395630639387
 31
0.0
1001
ACAD
1000
DSTYLE
1002
{
1070
    45
1040
0.5
1002
}
  0
LINE
  5
17D31
330
18
100
AcDbEntity
  8
01
100
AcDbLine
 10
-83.14855286269535
 20
-44.34395630639387
 30
0.0
 11
-80.44855286269536
 21
-44.34395630639387
 31
0.0
1001
ACAD
1000
DSTYLE
1002
{
1070
    45
1040
0.5
1002
}
  0
LINE
  5
17D32
330
18
100
AcDbEntity
  8
01
  6
ByBlock
100
AcDbLine
 10
-104.4457359664613
 20
-31.10028507376969
 30
0.0
 11
-105.8285221654696
 21
-29.5591525676175
 31
0.0
  0
LINE
  5
17D33
330
18
100
AcDbEntity
  8
01
  6
ByBlock
100
AcDbLine
 10
-105.8285221654696
 20
-29.5591525676175
 30
0.0
 11
-103.860427938968
 21
-30.20241937796748
 31
0.0
  0
LINE
  5
17D34
330
18
100
AcDbEntity
  8
01
  6
ByBlock
100
AcDbLine
 10
-105.8285221654696
 20
-29.5591525676175
 30
0.0
 11
-104.1530819527147
 21
-30.65135222586859
 31
0.0
  0
TEXT
  5
17D35
330
18
100
AcDbEntity
  8
01
100
AcDbText
 10
-189.6239978343856
 20
-163.3931806406273
 30
0.0
 40
3.5
  1
P88
100
AcDbText
  0
LINE
  5
17D36
330
18
100
AcDbEntity
  8
01
  6
ByBlock
100
AcDbLine
 10
-142.457331167718
 20
-163.5572822606273
 30
0.0
 11
-140.457331167718
 21
-164.0931806406273
 31
0.0
  0
LINE
  5
17D37
330
18
100
AcDbEntity
  8
01
  6
ByBlock
100
AcDbLine
 10
-140.457331167718
 20
-164.0931806406273
 30
0.0
 11
-142.457331167718
 21
-164.6290790206273
 31
0.0
  0
LINE
  5
17D38
330
18
100
AcDbEntity
  8
01
  6
ByBlock
100
AcDbLine
 10
-140.457331167718
 20
-164.0931806406273
 30
0.0
 11
-142.457331167718
 21
-164.0931806406273
 31
0.0
  0
LINE
  5
17D39
330
18
100
AcDbEntity
  8
01
  6
ByBlock
100
AcDbLine
 10
-226.4573311677199
 20
-164.6290790206273
 30
0.0
 11
-228.4573311677199
 21
-164.0931806406273
 31
0.0
  0
LINE
  5
17D3A
330
18
100
AcDbEntity
  8
01
  6
ByBlock
100
AcDbLine
 10
-228.4573311677199
 20
-164.0931806406273
 30
0.0
 11
-226.4573311677199
 21
-163.5572822606273
 31
0.0
  0
LINE
  5
17D3B
330
18
100
AcDbEntity
  8
01
  6
ByBlock
100
AcDbLine
 10
-228.4573311677199
 20
-164.0931806406273
 30
0.0
 11
-226.4573311677199
 21
-164.0931806406273
 31
0.0
  0
VIEWPORT
  5
57
102
{ACAD_XDICTIONARY
360
17D5C
102
}
330
15
100
AcDbEntity
 67
     1
  8
0
100
AcDbViewport
 10
51.93518410097175
 20
10.08916423592872
 30
0.0
 40
682.2776538550601
 41
268.4442887119075
 68
     1
 69
     1
 12
51.93518410097175
 22
10.08916423592872
 13
0.0
 23
0.0
 14
10.0
 24
10.0
 15
10.0
 25
10.0
 16
0.0
 26
0.0
 36
1.0
 17
0.0
 27
0.0
 37
0.0
 42
50.0
 43
0.0
 44
0.0
 45
268.4442887119075
 50
0.0
 51
0.0
 72
  1000
 90
    32800
  1

281
     0
 71
     1
 74
     0
110
0.0
120
0.0
130
0.0
111
1.0
121
0.0
131
0.0
112
0.0
122
1.0
132
0.0
 79
     0
146
0.0
  0
ENDSEC
  0
SECTION
  2
OBJECTS
  0
DICTIONARY
  5
C
330
0
100
AcDbDictionary
281
     1
  3
ACAD_CIP_PREVIOUS_PRODUCT_INFO
350
104B4
  3
ACAD_COLOR
350
18D
  3
ACAD_GROUP
350
D
  3
ACAD_LAYOUT
350
18E
  3
ACAD_MATERIAL
350
18C
  3
ACAD_MLEADERSTYLE
350
D09D
  3
ACAD_MLINESTYLE
350
1B
  3
ACAD_PLOTSETTINGS
350
18F
  3
ACAD_PLOTSTYLENAME
350
18A
  3
ACAD_SCALELIST
350
D07B
  3
ACAD_TABLESTYLE
350
27E
  3
ACAD_VISUALSTYLE
350
D06A
  3
ACDB_RECOMPOSE_DATA
350
17D5A
  3
ACDBVARIABLEDICTIONARY
350
37
  3
CONTENTDICTIONARY
350
D8
  3
DRAWINGVARIABLESDICT
350
20
  3
DWGPROPS
350
17D5B
  0
DICTIONARY
  5
D0ED
330
8
100
AcDbDictionary
280
     1
281
     1
  0
DICTIONARY
  5
D16C
330
2
100
AcDbDictionary
280
     1
281
     1
  3
ACAD_LAYERSTATES
360
D16D
  0
DICTIONARY
  5
D0B5
330
E
100
AcDbDictionary
280
     1
281
     1
  3
ADSK_XREC_LAYER_RECONCILED
360
D0B6
  0
DICTIONARY
  5
D0B9
330
31
100
AcDbDictionary
280
     1
281
     1
  3
ADSK_XREC_LAYER_RECONCILED
360
D0BA
  0
DICTIONARY
  5
D0C9
330
6A1
100
AcDbDictionary
280
     1
281
     1
  3
ADSK_XREC_LAYER_RECONCILED
360
D0CA
  0
DICTIONARY
  5
D0CB
330
6A2
100
AcDbDictionary
280
     1
281
     1
  3
ADSK_XREC_LAYER_RECONCILED
360
D0CC
  0
DICTIONARY
  5
D0CD
330
6A3
100
AcDbDictionary
280
     1
281
     1
  3
ADSK_XREC_LAYER_RECONCILED
360
D0CE
  0
DICTIONARY
  5
D0CF
330
6A4
100
AcDbDictionary
280
     1
281
     1
  3
ADSK_XREC_LAYER_RECONCILED
360
D0D0
  0
DICTIONARY
  5
88F
330
18
100
AcDbDictionary
280
     1
281
     1
  3
ACAD_SORTENTS
360
890
  0
DICTIONARY
  5
17D5C
330
57
100
AcDbDictionary
280
     1
281
     1
  3
ACAD_XREC_ROUNDTRIP
360
17D5D
  0
XRECORD
  5
104B4
102
{ACAD_REACTORS
330
C
102
}
330
C
100
AcDbXrecord
280
     1
300
ACDLT
300
2012
300
ACDLT_F_S
  0
DICTIONARY
  5
18D
102
{ACAD_REACTORS
330
C
102
}
330
C
100
AcDbDictionary
281
     1
  0
DICTIONARY
  5
D
102
{ACAD_REACTORS
330
C
102
}
330
C
100
AcDbDictionary
281
     1
  3
*A1
350
10268
  3
*A2
350
10267
  0
DICTIONARY
  5
18E
102
{ACAD_REACTORS
330
C
102
}
330
C
100
AcDbDictionary
281
     1
  3
Model
350
190
  3
レイアウト1
350
191
  0
DICTIONARY
  5
18C
102
{ACAD_REACTORS
330
C
102
}
330
C
100
AcDbDictionary
281
     1
  3
ByBlock
350
D05A
  3
ByLayer
350
D052
  3
Global
350
D062
  0
DICTIONARY
  5
D09D
102
{ACAD_REACTORS
330
C
102
}
330
C
100
AcDbDictionary
281
     1
  3
Standard
350
D09E
  0
DICTIONARY
  5
1B
102
{ACAD_REACTORS
330
C
102
}
330
C
100
AcDbDictionary
281
     1
  3
STANDARD
350
1C
  0
DICTIONARY
  5
18F
102
{ACAD_REACTORS
330
C
102
}
330
C
100
AcDbDictionary
281
     1
  0
ACDBDICTIONARYWDFLT
  5
18A
102
{ACAD_REACTORS
330
C
102
}
330
C
100
AcDbDictionary
281
     1
  3
Normal
350
18B
100
AcDbDictionaryWithDefault
340
18B
  0
DICTIONARY
  5
D07B
102
{ACAD_REACTORS
330
C
102
}
330
C
100
AcDbDictionary
281
     1
  3
A0
350
D07C
  3
A1
350
D07D
  3
A2
350
D07E
  3
A3
350
D07F
  3
A4
350
D080
  3
A5
350
D081
  3
A6
350
D082
  3
A7
350
D083
  3
A8
350
D084
  3
A9
350
D085
  3
B0
350
D086
  3
B1
350
D087
  3
B2
350
D088
  3
B3
350
D089
  3
B4
350
D08A
  3
B5
350
D08B
  3
B6
350
D08C
  3
B7
350
D08D
  3
B8
350
D08E
  3
B9
350
D08F
  3
C0
350
D090
  3
C1
350
D091
  3
C2
350
D092
  3
C3
350
D093
  3
C4
350
D094
  3
C5
350
D095
  3
C6
350
D096
  3
C7
350
D097
  3
C8
350
D098
  3
C9
350
D099
  3
D0
350
D09A
  3
D1
350
D09B
  3
D2
350
D09C
  0
DICTIONARY
  5
27E
102
{ACAD_REACTORS
330
C
102
}
330
C
100
AcDbDictionary
281
     1
  3
Standard
350
27F
  0
DICTIONARY
  5
D06A
102
{ACAD_REACTORS
330
C
102
}
330
C
100
AcDbDictionary
281
     1
  3
2dWireframe
350
D070
  3
3D Hidden
350
D072
  3
3dWireframe
350
D071
  3
Basic
350
D06F
  3
Brighten
350
D076
  3
ColorChange
350
D07A
  3
Conceptual
350
D073
  3
Dim
350
D075
  3
EdgeColorOff
350
D29F
  3
Facepattern
350
D079
  3
Flat
350
D06B
  3
FlatWithEdges
350
D06C
  3
Gouraud
350
D06D
  3
GouraudWithEdges
350
D06E
  3
Hidden
350
104A8
  3
JitterOff
350
D29D
  3
Linepattern
350
D078
  3
OverhangOff
350
D29E
  3
Realistic
350
D074
  3
Shaded
350
104AD
  3
Shaded with edges
350
104AC
  3
Shades of Gray
350
104A9
  3
Sketchy
350
104AA
  3
Thicken
350
D077
  3
Wireframe
350
104A7
  3
X-Ray
350
104AB
  0
XRECORD
  5
17D5A
102
{ACAD_REACTORS
330
C
102
}
330
C
100
AcDbXrecord
280
     1
 90
        1
330
27F
  0
DICTIONARY
  5
37
102
{ACAD_REACTORS
330
C
102
}
330
C
100
AcDbDictionary
281
     1
  3
CANNOSCALE
350
D118
  3
CMLEADERSTYLE
350
D117
  3
CTABLESTYLE
350
29E
  3
DIMADEC
350
38
  3
DIMASSOC
350
1CE
  3
HIDETEXT
350
704E
  3
INDEXCTL
350
D11A
  3
INTERSECTIONCOLOR
350
7052
  3
INTERSECTIONDISPLAY
350
7051
  3
LAYEREVAL
350
110CC
  3
LAYERNOTIFY
350
110CD
  3
OBSCOLOR
350
704F
  3
OBSLTYPE
350
7050
  3
PROJECTNAME
350
1CF
  3
SORTENTS
350
D119
  3
XCLIPFRAME
350
17D58
  0
DICTIONARY
  5
D8
102
{ACAD_REACTORS
330
C
102
}
330
C
100
AcDbDictionary
281
     1
  0
DICTIONARY
  5
20
102
{ACAD_REACTORS
330
C
102
}
330
C
100
AcDbDictionary
281
     1
1001
DRAWINGVARIABLESXDATA
1000
POLARANG
1000
0.261799387799149410000000
1000
POLARMODE
1000
1
1000
POLARSTYLE
1000
1
  0
XRECORD
  5
17D5B
102
{ACAD_REACTORS
330
C
102
}
330
C
100
AcDbXrecord
280
     1
  1
DWGPROPS COOKIE
  2

  3

  4

  6

  7

  8
3684
  9

300
=
301
=
302
=
303
=
304
=
305
=
306
=
307
=
308
=
309
=
 40
1.721893344907407
 41
2451318.621352917
 42
2457631.720958473
  1

 90
        0
  0
DICTIONARY
  5
D16D
102
{ACAD_REACTORS
330
D16C
102
}
330
D16C
100
AcDbDictionary
281
     1
  3
_LAYISO_STATE
350
171D4
1001
AcLayerTools
1000
190
1000
0
  0
XRECORD
  5
D0B6
102
{ACAD_REACTORS
330
D0B5
102
}
330
D0B5
100
AcDbXrecord
280
     1
290
     1
  0
XRECORD
  5
D0BA
102
{ACAD_REACTORS
330
D0B9
102
}
330
D0B9
100
AcDbXrecord
280
     1
290
     1
  0
XRECORD
  5
D0CA
102
{ACAD_REACTORS
330
D0C9
102
}
330
D0C9
100
AcDbXrecord
280
     1
290
     1
  0
XRECORD
  5
D0CC
102
{ACAD_REACTORS
330
D0CB
102
}
330
D0CB
100
AcDbXrecord
280
     1
290
     1
  0
XRECORD
  5
D0CE
102
{ACAD_REACTORS
330
D0CD
102
}
330
D0CD
100
AcDbXrecord
280
     1
290
     1
  0
XRECORD
  5
D0D0
102
{ACAD_REACTORS
330
D0CF
102
}
330
D0CF
100
AcDbXrecord
280
     1
290
     1
  0
SORTENTSTABLE
  5
890
102
{ACAD_REACTORS
330
88F
102
}
330
88F
100
AcDbSortentsTable
330
18
331
17CD4
  5
10E24
331
17D13
  5
10E08
331
17D1B
  5
10E15
331
17CDC
  5
10C26
331
17D23
  5
10F74
331
10C2A
  5
12D83
331
17784
  5
17D0D
331
17745
  5
17CC4
331
176CE
  5
17789
331
12DAE
  5
17732
331
174CF
  5
12D85
331
12D5F
  5
176B6
331
109CB
  5
12D56
331
FF2F
  5
109DB
331
1778C
  5
17D15
331
1774D
  5
17CCC
331
12DB6
  5
1773A
331
10266
  5
12D4F
331
12D67
  5
176BE
331
109D3
  5
12D60
331
FF3F
  5
109DE
331
17755
  5
17CD4
331
1771E
  5
17C9D
331
1769F
  5
1775A
331
12D6F
  5
176C6
331
12BE8
  5
1710B
331
109DB
  5
12D68
331
1775D
  5
17CE6
331
17726
  5
17CA5
331
176A7
  5
17762
331
17D2B
  5
17743
331
17CB5
  5
178BF
331
17CF4
  5
109C6
331
17D33
  5
17D28
331
17CBD
  5
1774C
331
17CFC
  5
109CD
331
17D3B
  5
17D37
331
17CC5
  5
17746
331
17D04
  5
109D4
331
17D0C
  5
10CFC
331
12BF0
  5
1769E
331
109E3
  5
12D75
331
17765
  5
17CEE
331
1772E
  5
17CAD
331
176AF
  5
1776A
331
12D7F
  5
176D4
331
17CA0
  5
17D2D
331
178C4
  5
17D24
331
1776D
  5
17CF6
331
17736
  5
17CB5
331
176B7
  5
17772
331
12D87
  5
1771E
331
12D50
  5
176A9
331
10E0A
  5
12DAC
331
17775
  5
17CFE
331
17CA8
  5
17CDA
331
1773E
  5
17CBD
331
176BF
  5
1777A
331
10C23
  5
12D7F
331
1777D
  5
17D06
331
176C7
  5
17782
331
12DA7
  5
1772B
331
17D14
  5
10E09
331
17D1C
  5
10E16
331
17D24
  5
12BF4
331
12D58
  5
176B1
331
10E12
  5
12DAD
331
10C2B
  5
12D84
331
17785
  5
17D0E
331
17746
  5
17CC5
331
176CF
  5
1778A
331
12DAF
  5
17733
331
12D60
  5
176B7
331
174D0
  5
12D8A
331
109CC
  5
12D57
331
1778D
  5
17D16
331
1774E
  5
17CCD
331
12DB7
  5
1773B
331
12D68
  5
176BF
331
10E22
  5
12DB3
331
109D4
  5
12D61
331
FF40
  5
109DF
331
1771F
  5
17C9E
331
176A0
  5
1775B
331
12BE9
  5
1710C
331
109DC
  5
12D69
331
178B5
  5
17D1D
331
1775E
  5
17CE7
331
17727
  5
17CA6
331
17D2C
  5
17744
331
17CB6
  5
178C0
331
17CF5
  5
10265
331
17D34
  5
17D29
331
17CBE
  5
1774D
331
17CFD
  5
109C9
331
17D05
  5
10C22
331
17CCE
  5
10E25
331
17D0D
  5
10C33
331
176A8
  5
17763
331
12D78
  5
176CD
331
12BF1
  5
1769F
331
109E4
  5
12D76
331
17766
  5
17CEF
331
1772F
  5
17CAE
331
176B0
  5
1776B
331
12D80
  5
176D5
331
10E03
  5
12DA5
331
1776E
  5
17CF7
331
17737
  5
17CB6
331
176B8
  5
17773
331
1710F
  5
17747
331
12D88
  5
1771F
331
12D51
  5
176AA
331
17776
  5
17CFF
331
17CA9
  5
17CDB
331
1773F
  5
17CBE
331
176C0
  5
1777B
331
171D7
  5
12DB9
331
12DA0
  5
17724
331
10F72
  5
16FD2
331
10C24
  5
12D80
331
1777E
  5
17D07
331
17D15
  5
10E05
331
17D1D
  5
117CA
331
17D25
  5
12BF1
331
17CE6
  5
109D8
331
17CEE
  5
FF2E
331
176C8
  5
17783
331
12DA8
  5
1772C
331
12D59
  5
176B2
331
10E13
  5
12DAE
331
10C2C
  5
12D87
331
109C5
  5
12D50
331
17786
  5
17D0F
331
17747
  5
17CC6
331
176D0
  5
1778B
331
12DB0
  5
17734
331
174D1
  5
12D89
331
12D61
  5
176B8
331
109CD
  5
12D58
331
FF39
  5
109DC
331
1778E
  5
17D17
331
1774F
  5
17CCE
331
17699
  5
17753
331
12DB8
  5
1773C
331
12D69
  5
176C0
331
10CEC
  5
12DA1
331
109D5
  5
12D62
331
17757
  5
17CE0
331
17720
  5
17C9F
331
176A1
  5
1775C
331
12D71
  5
176C7
331
12BEA
  5
1710D
331
10E5B
  5
12DB7
331
109DD
  5
12D6A
331
178B6
  5
17D1E
331
1775F
  5
17CE8
331
17D2D
  5
17740
331
17CB7
  5
178C1
331
17CF6
  5
10266
331
17D35
  5
17D3B
331
17CBF
  5
1774E
331
17CFE
  5
109CA
331
17D06
  5
10C07
331
17CCF
  5
10E26
331
17D0E
  5
10CED
331
17728
  5
17CA7
331
176A9
  5
17764
331
12D79
  5
176CE
331
12BF2
  5
176A0
331
109E5
  5
12D78
331
17C9A
  5
17D30
331
178BE
  5
17D21
331
17767
  5
17CF0
331
17730
  5
17CAF
331
176B1
  5
1776C
331
12D81
  5
17715
331
10E04
  5
12DA6
331
1776F
  5
17CF8
331
17738
  5
17CB7
331
176B9
  5
17774
331
12D89
  5
17720
331
12D52
  5
176AB
331
10F5B
  5
12DBE
331
17777
  5
17D00
331
17CAA
  5
17CDC
331
176C1
  5
1777C
331
12DA1
  5
17725
331
10F73
  5
16FD3
331
10C25
  5
12D81
331
1777F
  5
17D08
331
17CD7
  5
10E0A
331
17D16
  5
10E06
331
17D1E
  5
10F75
331
17D26
  5
12BF2
331
17CE7
  5
109D9
331
17CEF
  5
FF2F
331
17740
  5
17CBF
331
176C9
  5
17784
331
12DA9
  5
1772D
331
12D5A
  5
176B3
331
174CA
  5
12D6F
331
10E14
  5
12DAF
331
10C2D
  5
12D88
331
109C6
  5
12D51
331
17787
  5
17D10
331
17748
  5
17CC7
331
176D1
  5
1778C
331
12DB1
  5
17735
331
10261
  5
12BF5
331
12D62
  5
176B9
331
109CE
  5
12D59
331
1778F
  5
17D18
331
17750
  5
17CCF
331
17719
  5
17922
331
1769A
  5
17754
331
12DB9
  5
1773D
331
12D6A
  5
176C1
331
10E24
  5
12DB4
331
10CED
  5
12DA2
331
109D6
  5
12D63
331
17758
  5
17CE1
331
17721
  5
17CA0
331
176A2
  5
1775D
331
12D72
  5
176C8
331
12BEB
  5
174D1
331
109DE
  5
12D6D
331
178B7
  5
17D1F
331
17CB0
  5
17793
331
17D2E
  5
17741
331
17CB8
  5
178C5
331
17CF7
  5
1087F
331
17D36
  5
17D38
331
17CC0
  5
1774F
331
17CFF
  5
109CB
331
17CC8
  5
12BE8
331
17D07
  5
10C08
331
17D0F
  5
10CF1
331
17760
  5
17CE9
331
17729
  5
17CA8
331
176AA
  5
17765
331
12D7A
  5
176CF
331
12BF3
  5
176A1
331
109E6
  5
12D79
331
17C9B
  5
17D31
331
178BF
  5
17D22
331
17768
  5
17CF1
331
17731
  5
17CB0
331
176B2
  5
1776D
331
12D82
  5
17719
331
12D4B
  5
176A4
331
10E05
  5
12DA7
331
10C06
  5
12D7B
331
17770
  5
17CF9
331
17CA3
  5
17CD5
331
17739
  5
17CB8
331
176BA
  5
17775
331
12D8A
  5
17721
331
12D53
  5
176AC
331
10F5C
  5
12DBD
331
17778
  5
17D01
331
17CAB
  5
17CDD
331
176C2
  5
1777D
331
12DA2
  5
17726
331
10F74
  5
17106
331
10C26
  5
12D82
331
17CD0
  5
10E60
331
17D17
  5
10E07
331
17D1F
  5
10F76
331
17CE0
  5
109E0
331
17D27
  5
12BF3
331
17780
  5
17D09
331
17741
  5
17CC0
331
176CA
  5
17785
331
12DAA
  5
1772E
331
10E15
  5
12DB0
331
174CB
  5
12D6E
331
10C2E
  5
12D8B
331
109C7
  5
12D52
331
17788
  5
17D11
331
17749
  5
17CC8
331
176D2
  5
1778D
331
12DB2
  5
17736
331
10262
  5
12D4B
331
12D63
  5
176BA
331
109CF
  5
12D5A
331
17790
  5
17D19
331
17751
  5
17CD0
331
1771A
  5
17C97
331
1769B
  5
17755
331
12D6B
  5
176C2
331
10E25
  5
12DB5
331
109D7
  5
12D64
331
17759
  5
17CE2
331
17722
  5
17CA1
331
176A3
  5
1775E
331
12D73
  5
176C9
331
12BEC
  5
1769A
331
109DF
  5
12D71
331
17CB1
  5
178B5
331
17CF0
  5
FF39
331
17D2F
  5
17742
331
17CB9
  5
17748
331
17CF8
  5
10262
331
17D37
  5
17D39
331
17CC1
  5
17750
331
17D00
  5
109D6
331
17CC9
  5
12BE9
331
17D08
  5
10C0A
331
17761
  5
17CEA
331
1772A
  5
17CA9
331
176AB
  5
17766
331
12D7B
  5
176D0
331
12BF4
  5
176A2
331
109E7
  5
12D7A
331
178C0
  5
17D23
331
17769
  5
17CF2
331
17732
  5
17CB1
331
176B3
  5
1776E
331
12D83
  5
1771A
331
12D4C
  5
176A5
331
10E06
  5
12DA8
331
10C07
  5
12D7C
331
17771
  5
17CFA
331
17CA4
  5
17CD6
331
1773A
  5
17CB9
331
176BB
  5
17776
331
12D8B
  5
17722
331
12D54
  5
176AD
331
17779
  5
17D02
331
17CAC
  5
17CDE
331
176C3
  5
1777E
331
12DA3
  5
17727
331
10F75
  5
17107
331
17D10
  5
10C2D
331
17D18
  5
10E18
331
17D20
  5
117C9
331
17CE1
  5
109E1
331
17781
  5
17D0A
331
17742
  5
17CC1
331
176CB
  5
17786
331
12DAB
  5
1772F
331
10E16
  5
12DB1
331
174CC
  5
12D6C
331
109C8
  5
12D53
331
17789
  5
17D12
331
1774A
  5
17CC9
331
176D3
  5
1778E
331
12DB3
  5
17737
331
10263
  5
12D4C
331
12D64
  5
176BB
331
109D0
  5
12D5D
331
17791
  5
17D1A
331
17752
  5
17CD1
331
1771B
  5
17C9A
331
1769C
  5
17757
331
12D6C
  5
176C3
331
12BE5
  5
17108
331
10E26
  5
12DB6
331
109D8
  5
12D65
331
1775A
  5
17CE3
331
17723
  5
17CA2
331
176A4
  5
1775F
331
12D74
  5
176CA
331
12BED
  5
1769B
331
17CB2
  5
178B6
331
17D28
  5
12BEE
331
17D30
  5
17D2A
331
17CBA
  5
17749
331
17CF9
  5
10263
331
17D38
  5
17D3A
331
17CC2
  5
17751
331
17D01
  5
109D7
331
17CCA
  5
12BEA
331
17D09
  5
109E6
331
109E0
  5
12D72
331
178B9
  5
17D20
331
17762
  5
17CEB
331
1772B
  5
17CAA
331
176AC
  5
17767
331
12D7C
  5
176D1
331
12BF5
  5
176A3
331
1776A
  5
17CF3
331
17733
  5
17CB2
331
176B4
  5
1776F
331
12D84
  5
1771B
331
12D4D
  5
176A6
331
10E07
  5
12DA9
331
17772
  5
17CFB
331
17CA5
  5
17CD7
331
1773B
  5
17CBA
331
176BC
  5
17777
331
12D8C
  5
17723
331
12D55
  5
176AE
331
1777A
  5
17D03
331
17CAD
  5
17CDF
331
176C4
  5
1777F
331
12DA4
  5
17728
331
17D11
  5
10C2E
331
17D19
  5
10E22
331
17CDA
  5
10C24
331
17D21
  5
10E92
331
17CE2
  5
109E2
331
17CEA
  5
109CE
331
17782
  5
17D0B
331
17743
  5
17CC2
331
176CC
  5
17787
331
12DAC
  5
17730
331
12D5D
  5
176B4
331
174CD
  5
12D6B
331
109C9
  5
12D54
331
1778A
  5
17D13
331
1774B
  5
17CCA
331
176D4
  5
1778F
331
12DB4
  5
17738
331
10264
  5
12D4D
331
12D65
  5
176BC
331
109D1
  5
12D5E
331
17792
  5
17D1B
331
17753
  5
17CD2
331
1771C
  5
17C9B
331
1769D
  5
17758
331
12D6D
  5
176C4
331
12BE6
  5
17109
331
10CF8
  5
12DA3
331
109D9
  5
12D66
331
1775B
  5
17CE4
331
17724
  5
17CA3
331
176A5
  5
17760
331
12D75
  5
176CB
331
12BEE
  5
1769C
331
17CB3
  5
178B7
331
17D29
  5
12BEF
331
17D31
  5
17D2B
331
17CBB
  5
1774A
331
17CFA
  5
10264
331
17D39
  5
17D35
331
17CC3
  5
17752
331
17D02
  5
109D2
331
17D0A
  5
109E7
331
109E1
  5
12D73
331
17763
  5
17CEC
331
1772C
  5
17CAB
331
176AD
  5
17768
331
12D7D
  5
176D2
331
1776B
  5
17CF4
331
17734
  5
17CB3
331
176B5
  5
17770
331
12D85
  5
1771C
331
12D4E
  5
176A7
331
10E97
  5
13157
331
10E08
  5
12DAA
331
10C09
  5
12D7D
331
17773
  5
17CFC
331
17CA6
  5
17CD8
331
1773C
  5
17CBB
331
176BD
  5
17778
331
12D56
  5
176AF
331
10C21
  5
12D7E
331
1777B
  5
17D04
331
17CAE
  5
17791
331
176C5
  5
17780
331
12DA5
  5
17729
331
17D12
  5
10C30
331
17D1A
  5
10E14
331
17CDB
  5
10C25
331
17D22
  5
10E9A
331
17CEB
  5
109CF
331
17912
  5
17D2E
331
17783
  5
17D0C
331
17744
  5
17CC3
331
176CD
  5
17788
331
12DAD
  5
17731
331
174CE
  5
12D86
331
12D5E
  5
176B5
331
10E18
  5
12DB2
331
10C31
  5
12D8C
331
109CA
  5
12D55
331
FF2E
  5
109DA
331
1778B
  5
17D14
331
1774C
  5
17CCB
331
176D5
  5
17790
331
12DB5
  5
17739
331
10265
  5
12D4E
331
12D66
  5
176BD
331
10CE9
  5
12DA0
331
109D2
  5
12D5F
331
FF3E
  5
109DD
331
17793
  5
17D1C
331
17754
  5
17CD3
331
1771D
  5
17C9C
331
1769E
  5
17759
331
12DBD
  5
12DA4
331
12D6E
  5
176C5
331
12BE7
  5
1710A
331
109DA
  5
12D67
331
1775C
  5
17CE5
331
17725
  5
17CA4
331
176A6
  5
17761
331
12D76
  5
176CC
331
12BEF
  5
1769D
331
17C97
  5
17D2F
331
17CB4
  5
178B9
331
17D2A
  5
12BF0
331
17D32
  5
17D27
331
17CBC
  5
1774B
331
17CFB
  5
109CC
331
17D3A
  5
17D36
331
17CC4
  5
17745
331
17D03
  5
109D3
331
17D0B
  5
109E8
331
10E80
  5
12DB8
331
109E2
  5
12D74
331
17764
  5
17CED
331
1772D
  5
17CAC
331
176AE
  5
17769
331
12D7E
  5
176D3
331
17C9F
  5
17D2C
331
1776C
  5
17CF5
331
17735
  5
17CB4
331
176B6
  5
17771
331
12D86
  5
1771D
331
12D4F
  5
176A8
331
10E09
  5
12DAB
331
17774
  5
17CFD
331
17CA7
  5
17CD9
331
1773D
  5
17CBC
331
176BE
  5
17779
331
12D57
  5
176B0
331
1777C
  5
17D05
331
17CAF
  5
17792
331
176C6
  5
17781
331
12DA6
  5
1772A
  0
XRECORD
  5
17D5D
102
{ACAD_REACTORS
330
17D5C
102
}
330
17D5C
100
AcDbXrecord
280
     1
102
SHADEPLOT
 70
     0
  0
GROUP
  5
10268
102
{ACAD_REACTORS
330
D
102
}
330
D
100
AcDbGroup
300

 70
     1
 71
     1
340
10266
340
10264
340
10263
340
10265
  0
GROUP
  5
10267
102
{ACAD_REACTORS
330
D
102
}
330
D
100
AcDbGroup
300

 70
     1
 71
     1
340
10262
340
10261
  0
LAYOUT
  5
190
102
{ACAD_XDICTIONARY
360
D57C
102
}
102
{ACAD_REACTORS
330
18E
102
}
330
18E
100
AcDbPlotSettings
  1

  2
EPSON LP-9600
  4

  6

 40
0.0
 41
0.0
 42
0.0
 43
0.0
 44
0.0
 45
0.0
 46
0.0
 47
0.0
 48
0.0
 49
0.0
140
0.0
141
0.0
142
1.0
143
1.0
 70
  1712
 72
     0
 73
     0
 74
     0
  7
A3for2004.ctb
 75
     0
147
1.0
148
0.0
149
0.0
100
AcDbLayout
  1
Model
 70
     1
 71
     0
 10
0.0
 20
0.0
 11
12.0
 21
9.0
 12
0.0
 22
0.0
 32
0.0
 14
0.0
 24
0.0
 34
0.0
 15
0.0
 25
0.0
 35
0.0
146
0.0
 13
0.0
 23
0.0
 33
0.0
 16
1.0
 26
0.0
 36
0.0
 17
0.0
 27
1.0
 37
0.0
 76
     0
330
18
331
CFAB
  0
LAYOUT
  5
191
102
{ACAD_XDICTIONARY
360
D2AB
102
}
102
{ACAD_REACTORS
330
18E
102
}
330
18E
100
AcDbPlotSettings
  1

  2
RICOH imagio MP C3301 RPCS
  4
A3
  6

 40
5.873749732971191
 41
5.873748779296875
 42
5.873748779296875
 43
5.873748779296875
 44
296.9259948730469
 45
419.9466552734374
 46
0.0
 47
0.0
 48
0.0
 49
0.0
140
0.0
141
0.0
142
1.0
143
0.9996999999999999
 70
   672
 72
     1
 73
     1
 74
     1
  7
A3for2004.ctb
 75
     0
147
1.000329832832872
148
204.291049816057
149
123.1738213178939
100
AcDbLayout
  1
レイアウト1
 70
     1
 71
     1
 10
0.0
 20
0.0
 11
420.0
 21
297.0
 12
0.0
 22
0.0
 32
0.0
 14
1.000000000000000E+20
 24
1.000000000000000E+20
 34
1.000000000000000E+20
 15
-1.000000000000000E+20
 25
-1.000000000000000E+20
 35
-1.000000000000000E+20
146
0.0
 13
0.0
 23
0.0
 33
0.0
 16
1.0
 26
0.0
 36
0.0
 17
0.0
 27
1.0
 37
0.0
 76
     0
330
15
331
57
1001
ACAD_PSEXT
1000
RICOH imagio MP C3301 RPCS
1000
RICOH imagio MP C3301 RPCS
1000
172.16.4.206
1000
RPCS Driver (For Windows)
1070
     0
  0
MATERIAL
  5
D05A
102
{ACAD_XDICTIONARY
360
D05B
102
}
102
{ACAD_REACTORS
330
18C
102
}
330
18C
100
AcDbMaterial
  1
ByBlock
 72
     0
 43
0.0208333333333333
 43
0.0
 43
0.0
 43
0.0
 43
0.0
 43
0.0208333333333333
 43
0.0
 43
0.0
 43
0.0
 43
0.0
 43
1.0
 43
0.0
 43
0.0
 43
0.0
 43
0.0
 43
1.0
 77
     0
 47
0.0208333333333333
 47
0.0
 47
0.0
 47
0.0
 47
0.0
 47
0.0208333333333333
 47
0.0
 47
0.0
 47
0.0
 47
0.0
 47
1.0
 47
0.0
 47
0.0
 47
0.0
 47
0.0
 47
1.0
171
     0
 49
0.0208333333333333
 49
0.0
 49
0.0
 49
0.0
 49
0.0
 49
0.0208333333333333
 49
0.0
 49
0.0
 49
0.0
 49
0.0
 49
1.0
 49
0.0
 49
0.0
 49
0.0
 49
0.0
 49
1.0
175
     0
142
0.0208333333333333
142
0.0
142
0.0
142
0.0
142
0.0
142
0.0208333333333333
142
0.0
142
0.0
142
0.0
142
0.0
142
1.0
142
0.0
142
0.0
142
0.0
142
0.0
142
1.0
179
     0
144
0.0208333333333333
144
0.0
144
0.0
144
0.0
144
0.0
144
0.0208333333333333
144
0.0
144
0.0
144
0.0
144
0.0
144
1.0
144
0.0
144
0.0
144
0.0
144
0.0
144
1.0
147
0.0208333333333333
147
0.0
147
0.0
147
0.0
147
0.0
147
0.0208333333333333
147
0.0
147
0.0
147
0.0
147
0.0
147
1.0
147
0.0
147
0.0
147
0.0
147
0.0
147
1.0
  0
MATERIAL
  5
D052
102
{ACAD_XDICTIONARY
360
D053
102
}
102
{ACAD_REACTORS
330
18C
102
}
330
18C
100
AcDbMaterial
  1
ByLayer
 72
     0
 43
0.0208333333333333
 43
0.0
 43
0.0
 43
0.0
 43
0.0
 43
0.0208333333333333
 43
0.0
 43
0.0
 43
0.0
 43
0.0
 43
1.0
 43
0.0
 43
0.0
 43
0.0
 43
0.0
 43
1.0
 77
     0
 47
0.0208333333333333
 47
0.0
 47
0.0
 47
0.0
 47
0.0
 47
0.0208333333333333
 47
0.0
 47
0.0
 47
0.0
 47
0.0
 47
1.0
 47
0.0
 47
0.0
 47
0.0
 47
0.0
 47
1.0
171
     0
 49
0.0208333333333333
 49
0.0
 49
0.0
 49
0.0
 49
0.0
 49
0.0208333333333333
 49
0.0
 49
0.0
 49
0.0
 49
0.0
 49
1.0
 49
0.0
 49
0.0
 49
0.0
 49
0.0
 49
1.0
175
     0
142
0.0208333333333333
142
0.0
142
0.0
142
0.0
142
0.0
142
0.0208333333333333
142
0.0
142
0.0
142
0.0
142
0.0
142
1.0
142
0.0
142
0.0
142
0.0
142
0.0
142
1.0
179
     0
144
0.0208333333333333
144
0.0
144
0.0
144
0.0
144
0.0
144
0.0208333333333333
144
0.0
144
0.0
144
0.0
144
0.0
144
1.0
144
0.0
144
0.0
144
0.0
144
0.0
144
1.0
147
0.0208333333333333
147
0.0
147
0.0
147
0.0
147
0.0
147
0.0208333333333333
147
0.0
147
0.0
147
0.0
147
0.0
147
1.0
147
0.0
147
0.0
147
0.0
147
0.0
147
1.0
  0
MATERIAL
  5
D062
102
{ACAD_XDICTIONARY
360
D063
102
}
102
{ACAD_REACTORS
330
18C
102
}
330
18C
100
AcDbMaterial
  1
Global
 72
     0
 43
0.0208333333333333
 43
0.0
 43
0.0
 43
0.0
 43
0.0
 43
0.0208333333333333
 43
0.0
 43
0.0
 43
0.0
 43
0.0
 43
1.0
 43
0.0
 43
0.0
 43
0.0
 43
0.0
 43
1.0
 77
     0
 47
0.0208333333333333
 47
0.0
 47
0.0
 47
0.0
 47
0.0
 47
0.0208333333333333
 47
0.0
 47
0.0
 47
0.0
 47
0.0
 47
1.0
 47
0.0
 47
0.0
 47
0.0
 47
0.0
 47
1.0
171
     0
 49
0.0208333333333333
 49
0.0
 49
0.0
 49
0.0
 49
0.0
 49
0.0208333333333333
 49
0.0
 49
0.0
 49
0.0
 49
0.0
 49
1.0
 49
0.0
 49
0.0
 49
0.0
 49
0.0
 49
1.0
175
     0
142
0.0208333333333333
142
0.0
142
0.0
142
0.0
142
0.0
142
0.0208333333333333
142
0.0
142
0.0
142
0.0
142
0.0
142
1.0
142
0.0
142
0.0
142
0.0
142
0.0
142
1.0
179
     0
144
0.0208333333333333
144
0.0
144
0.0
144
0.0
144
0.0
144
0.0208333333333333
144
0.0
144
0.0
144
0.0
144
0.0
144
1.0
144
0.0
144
0.0
144
0.0
144
0.0
144
1.0
147
0.0208333333333333
147
0.0
147
0.0
147
0.0
147
0.0
147
0.0208333333333333
147
0.0
147
0.0
147
0.0
147
0.0
147
1.0
147
0.0
147
0.0
147
0.0
147
0.0
147
1.0
  0
MLEADERSTYLE
  5
D09E
102
{ACAD_REACTORS
330
D09D
102
}
330
D09D
100
AcDbMLeaderStyle
170
     2
171
     1
172
     0
 90
        2
 40
0.0
 41
0.0
173
     1
 91
-1056964608
340
12
 92
       -2
290
     1
 42
2.0
291
     1
 43
0.36
  3
Standard
 44
4.0
300

342
F
174
     1
178
     6
175
     1
176
     0
 93
-1056964608
 45
4.0
292
     0
297
     0
 46
4.0
 94
-1056964608
 47
1.0
 49
1.0
140
1.0
293
     1
141
0.0
294
     1
177
     0
142
1.0
295
     0
296
     0
143
0.125
1001
ACAD_MLEADERVER
1070
     2
  0
MLINESTYLE
  5
1C
102
{ACAD_REACTORS
330
1B
102
}
330
1B
100
AcDbMlineStyle
  2
STANDARD
 70
     0
  3

 62
   256
 51
90.0
 52
90.0
 71
     2
 49
0.5
 62
   256
  6
BYLAYER
 49
-0.5
 62
   256
  6
BYLAYER
  0
ACDBPLACEHOLDER
  5
18B
102
{ACAD_REACTORS
330
18A
102
}
330
18A
  0
SCALE
  5
D07C
102
{ACAD_REACTORS
330
D07B
102
}
330
D07B
100
AcDbScale
 70
     0
300
1:1
140
1.0
141
1.0
290
     1
  0
SCALE
  5
D07D
102
{ACAD_REACTORS
330
D07B
102
}
330
D07B
100
AcDbScale
 70
     0
300
1:2
140
1.0
141
2.0
290
     0
  0
SCALE
  5
D07E
102
{ACAD_REACTORS
330
D07B
102
}
330
D07B
100
AcDbScale
 70
     0
300
1:4
140
1.0
141
4.0
290
     0
  0
SCALE
  5
D07F
102
{ACAD_REACTORS
330
D07B
102
}
330
D07B
100
AcDbScale
 70
     0
300
1:5
140
1.0
141
5.0
290
     0
  0
SCALE
  5
D080
102
{ACAD_REACTORS
330
D07B
102
}
330
D07B
100
AcDbScale
 70
     0
300
1:8
140
1.0
141
8.0
290
     0
  0
SCALE
  5
D081
102
{ACAD_REACTORS
330
D07B
102
}
330
D07B
100
AcDbScale
 70
     0
300
1:10
140
1.0
141
10.0
290
     0
  0
SCALE
  5
D082
102
{ACAD_REACTORS
330
D07B
102
}
330
D07B
100
AcDbScale
 70
     0
300
1:16
140
1.0
141
16.0
290
     0
  0
SCALE
  5
D083
102
{ACAD_REACTORS
330
D07B
102
}
330
D07B
100
AcDbScale
 70
     0
300
1:20
140
1.0
141
20.0
290
     0
  0
SCALE
  5
D084
102
{ACAD_REACTORS
330
D07B
102
}
330
D07B
100
AcDbScale
 70
     0
300
1:30
140
1.0
141
30.0
290
     0
  0
SCALE
  5
D085
102
{ACAD_REACTORS
330
D07B
102
}
330
D07B
100
AcDbScale
 70
     0
300
1:40
140
1.0
141
40.0
290
     0
  0
SCALE
  5
D086
102
{ACAD_REACTORS
330
D07B
102
}
330
D07B
100
AcDbScale
 70
     0
300
1:50
140
1.0
141
50.0
290
     0
  0
SCALE
  5
D087
102
{ACAD_REACTORS
330
D07B
102
}
330
D07B
100
AcDbScale
 70
     0
300
1:100
140
1.0
141
100.0
290
     0
  0
SCALE
  5
D088
102
{ACAD_REACTORS
330
D07B
102
}
330
D07B
100
AcDbScale
 70
     0
300
2:1
140
2.0
141
1.0
290
     0
  0
SCALE
  5
D089
102
{ACAD_REACTORS
330
D07B
102
}
330
D07B
100
AcDbScale
 70
     0
300
4:1
140
4.0
141
1.0
290
     0
  0
SCALE
  5
D08A
102
{ACAD_REACTORS
330
D07B
102
}
330
D07B
100
AcDbScale
 70
     0
300
8:1
140
8.0
141
1.0
290
     0
  0
SCALE
  5
D08B
102
{ACAD_REACTORS
330
D07B
102
}
330
D07B
100
AcDbScale
 70
     0
300
10:1
140
10.0
141
1.0
290
     0
  0
SCALE
  5
D08C
102
{ACAD_REACTORS
330
D07B
102
}
330
D07B
100
AcDbScale
 70
     0
300
100:1
140
100.0
141
1.0
290
     0
  0
SCALE
  5
D08D
102
{ACAD_REACTORS
330
D07B
102
}
330
D07B
100
AcDbScale
 70
     0
300
1/128" = 1'-0"
140
0.0078125
141
12.0
290
     0
  0
SCALE
  5
D08E
102
{ACAD_REACTORS
330
D07B
102
}
330
D07B
100
AcDbScale
 70
     0
300
1/64" = 1'-0"
140
0.015625
141
12.0
290
     0
  0
SCALE
  5
D08F
102
{ACAD_REACTORS
330
D07B
102
}
330
D07B
100
AcDbScale
 70
     0
300
1/32" = 1'-0"
140
0.03125
141
12.0
290
     0
  0
SCALE
  5
D090
102
{ACAD_REACTORS
330
D07B
102
}
330
D07B
100
AcDbScale
 70
     0
300
1/16" = 1'-0"
140
0.0625
141
12.0
290
     0
  0
SCALE
  5
D091
102
{ACAD_REACTORS
330
D07B
102
}
330
D07B
100
AcDbScale
 70
     0
300
3/32" = 1'-0"
140
0.09375
141
12.0
290
     0
  0
SCALE
  5
D092
102
{ACAD_REACTORS
330
D07B
102
}
330
D07B
100
AcDbScale
 70
     0
300
1/8" = 1'-0"
140
0.125
141
12.0
290
     0
  0
SCALE
  5
D093
102
{ACAD_REACTORS
330
D07B
102
}
330
D07B
100
AcDbScale
 70
     0
300
3/16" = 1'-0"
140
0.1875
141
12.0
290
     0
  0
SCALE
  5
D094
102
{ACAD_REACTORS
330
D07B
102
}
330
D07B
100
AcDbScale
 70
     0
300
1/4" = 1'-0"
140
0.25
141
12.0
290
     0
  0
SCALE
  5
D095
102
{ACAD_REACTORS
330
D07B
102
}
330
D07B
100
AcDbScale
 70
     0
300
3/8" = 1'-0"
140
0.375
141
12.0
290
     0
  0
SCALE
  5
D096
102
{ACAD_REACTORS
330
D07B
102
}
330
D07B
100
AcDbScale
 70
     0
300
1/2" = 1'-0"
140
0.5
141
12.0
290
     0
  0
SCALE
  5
D097
102
{ACAD_REACTORS
330
D07B
102
}
330
D07B
100
AcDbScale
 70
     0
300
3/4" = 1'-0"
140
0.75
141
12.0
290
     0
  0
SCALE
  5
D098
102
{ACAD_REACTORS
330
D07B
102
}
330
D07B
100
AcDbScale
 70
     0
300
1" = 1'-0"
140
1.0
141
12.0
290
     0
  0
SCALE
  5
D099
102
{ACAD_REACTORS
330
D07B
102
}
330
D07B
100
AcDbScale
 70
     0
300
1-1/2" = 1'-0"
140
1.5
141
12.0
290
     0
  0
SCALE
  5
D09A
102
{ACAD_REACTORS
330
D07B
102
}
330
D07B
100
AcDbScale
 70
     0
300
3" = 1'-0"
140
3.0
141
12.0
290
     0
  0
SCALE
  5
D09B
102
{ACAD_REACTORS
330
D07B
102
}
330
D07B
100
AcDbScale
 70
     0
300
6" = 1'-0"
140
6.0
141
12.0
290
     0
  0
SCALE
  5
D09C
102
{ACAD_REACTORS
330
D07B
102
}
330
D07B
100
AcDbScale
 70
     0
300
1'-0" = 1'-0"
140
12.0
141
12.0
290
     0
  0
TABLESTYLE
  5
27F
102
{ACAD_XDICTIONARY
360
D0E9
102
}
102
{ACAD_REACTORS
330
27E
102
}
330
27E
100
AcDbTableStyle
  3
Standard
 70
     0
 71
     0
 40
1.5
 41
1.5
280
     0
281
     0
  7
STANDARD
140
4.5
170
     2
 62
     0
 63
     7
283
     0
274
    -2
284
     1
 64
     0
275
    -2
285
     1
 65
     0
276
    -2
286
     1
 66
     0
277
    -2
287
     1
 67
     0
278
    -2
288
     1
 68
     0
279
    -2
289
     1
 69
     0
  7
STANDARD
140
6.0
170
     5
 62
     0
 63
     7
283
     0
274
    -2
284
     1
 64
     0
275
    -2
285
     1
 65
     0
276
    -2
286
     1
 66
     0
277
    -2
287
     1
 67
     0
278
    -2
288
     1
 68
     0
279
    -2
289
     1
 69
     0
  7
STANDARD
140
4.5
170
     5
 62
     0
 63
     7
283
     0
274
    -2
284
     1
 64
     0
275
    -2
285
     1
 65
     0
276
    -2
286
     1
 66
     0
277
    -2
287
     1
 67
     0
278
    -2
288
     1
 68
     0
279
    -2
289
     1
 69
     0
  0
VISUALSTYLE
  5
D070
102
{ACAD_XDICTIONARY
360
17C1A
102
}
102
{ACAD_REACTORS
330
D06A
102
}
330
D06A
100
AcDbVisualStyle
  2
2dWireframe
 70
     4
 71
     0
 72
     2
 73
     0
 90
        0
 40
-0.6
 41
-30.0
 62
     5
 63
     7
 74
     1
 91
        4
 64
     7
 65
   257
 75
     1
175
     1
 42
1.0
 92
        0
 66
   257
 43
1.0
 76
     1
 77
     6
 78
     2
 67
     7
 79
     5
170
     0
171
     0
290
     0
174
     0
 93
        1
 44
0.0
173
     0
291
     0
 45
0.0
1001
ACAD
1000
AcDbSavedByObjectVersion
1070
     0
  0
VISUALSTYLE
  5
D072
102
{ACAD_XDICTIONARY
360
17C1E
102
}
102
{ACAD_REACTORS
330
D06A
102
}
330
D06A
100
AcDbVisualStyle
  2
3D Hidden
 70
     6
 71
     1
 72
     2
 73
     2
 90
        0
 40
-0.6
 41
-30.0
 62
     5
 63
     7
 74
     2
 91
        2
 64
     7
 65
   257
 75
     2
175
     1
 42
40.0
 92
        0
 66
   257
 43
1.0
 76
     1
 77
     6
 78
     2
 67
     7
 79
     3
170
     0
171
     0
290
     0
174
     0
 93
        1
 44
0.0
173
     0
291
     0
 45
0.0
1001
ACAD
1000
AcDbSavedByObjectVersion
1070
     0
  0
VISUALSTYLE
  5
D071
102
{ACAD_XDICTIONARY
360
17C1C
102
}
102
{ACAD_REACTORS
330
D06A
102
}
330
D06A
100
AcDbVisualStyle
  2
3dWireframe
 70
     5
 71
     0
 72
     2
 73
     0
 90
        0
 40
-0.6
 41
-30.0
 62
     5
 63
     7
 74
     1
 91
        4
 64
     7
 65
   257
 75
     1
175
     1
 42
1.0
 92
        0
 66
   257
 43
1.0
 76
     1
 77
     6
 78
     2
 67
     7
 79
     5
170
     0
171
     0
290
     0
174
     0
 93
        1
 44
0.0
173
     0
291
     0
 45
0.0
1001
ACAD
1000
AcDbSavedByObjectVersion
1070
     0
  0
VISUALSTYLE
  5
D06F
102
{ACAD_XDICTIONARY
360
17C18
102
}
102
{ACAD_REACTORS
330
D06A
102
}
330
D06A
100
AcDbVisualStyle
  2
Basic
 70
     7
 71
     1
 72
     0
 73
     1
 90
        0
 40
-0.6
 41
-30.0
 62
     5
 63
     7
 74
     0
 91
        4
 64
     7
 65
   257
 75
     1
175
     1
 42
1.0
 92
        8
 66
     7
 43
1.0
 76
     1
 77
     6
 78
     2
 67
     7
 79
     5
170
     0
171
     0
290
     0
174
     0
 93
        1
 44
0.0
173
     0
291
     1
 45
0.0
1001
ACAD
1000
AcDbSavedByObjectVersion
1070
     0
  0
VISUALSTYLE
  5
D076
102
{ACAD_XDICTIONARY
360
17C26
102
}
102
{ACAD_REACTORS
330
D06A
102
}
330
D06A
100
AcDbVisualStyle
  2
Brighten
 70
    12
 71
     2
 72
     2
 73
     0
 90
        0
 40
-0.6
 41
-30.0
 62
     5
 63
     7
 74
     1
 91
        4
 64
     7
 65
   257
 75
     1
175
     1
 42
1.0
 92
        8
 66
     7
 43
1.0
 76
     1
 77
     6
 78
     2
 67
     7
 79
     5
170
     0
171
     0
290
     0
174
     0
 93
        1
 44
50.0
173
     0
291
     1
 45
0.0
1001
ACAD
1000
AcDbSavedByObjectVersion
1070
     0
  0
VISUALSTYLE
  5
D07A
102
{ACAD_XDICTIONARY
360
17C2E
102
}
102
{ACAD_REACTORS
330
D06A
102
}
330
D06A
100
AcDbVisualStyle
  2
ColorChange
 70
    16
 71
     2
 72
     2
 73
     3
 90
        0
 40
-0.6
 41
-30.0
 62
     5
 63
     8
 74
     1
 91
        4
 64
     7
 65
   257
 75
     1
175
     1
 42
1.0
 92
        8
 66
     8
 43
1.0
 76
     1
 77
     6
 78
     2
 67
     7
 79
     5
170
     0
171
     0
290
     0
174
     0
 93
        1
 44
0.0
173
     0
291
     1
 45
0.0
1001
ACAD
1000
AcDbSavedByObjectVersion
1070
     0
  0
VISUALSTYLE
  5
D073
102
{ACAD_XDICTIONARY
360
17C20
102
}
102
{ACAD_REACTORS
330
D06A
102
}
330
D06A
100
AcDbVisualStyle
  2
Conceptual
 70
     9
 71
     3
 72
     2
 73
     0
 90
        0
 40
-0.6
 41
-30.0
 62
     5
 63
     7
 74
     2
 91
        2
 64
     7
 65
   257
 75
     1
175
     1
 42
40.0
 92
        8
 66
     7
 43
1.0
 76
     1
 77
     6
 78
     2
 67
     7
 79
     3
170
     0
171
     0
290
     0
174
     0
 93
        1
 44
0.0
173
     0
291
     0
 45
0.0
1001
ACAD
1000
AcDbSavedByObjectVersion
1070
     0
  0
VISUALSTYLE
  5
D075
102
{ACAD_XDICTIONARY
360
17C24
102
}
102
{ACAD_REACTORS
330
D06A
102
}
330
D06A
100
AcDbVisualStyle
  2
Dim
 70
    11
 71
     2
 72
     2
 73
     0
 90
        0
 40
-0.6
 41
-30.0
 62
     5
 63
     7
 74
     1
 91
        4
 64
     7
 65
   257
 75
     1
175
     1
 42
1.0
 92
        8
 66
     7
 43
1.0
 76
     1
 77
     6
 78
     2
 67
     7
 79
     5
170
     0
171
     0
290
     0
174
     0
 93
        1
 44
-50.0
173
     0
291
     1
 45
0.0
1001
ACAD
1000
AcDbSavedByObjectVersion
1070
     0
  0
VISUALSTYLE
  5
D29F
102
{ACAD_XDICTIONARY
360
17C34
102
}
102
{ACAD_REACTORS
330
D06A
102
}
330
D06A
100
AcDbVisualStyle
  2
EdgeColorOff
 70
    22
 71
     2
 72
     2
 73
     0
 90
        0
 40
-0.6
 41
-30.0
 62
     5
 63
     7
 74
     1
 91
        4
 64
     7
 65
   257
 75
     1
175
     1
 42
1.0
 92
        8
 66
     7
 43
1.0
 76
     1
 77
     6
 78
     2
 67
     7
 79
     5
170
     0
171
     0
290
     0
174
     0
 93
        1
 44
0.0
173
     0
291
     1
 45
0.0
1001
ACAD
1000
AcDbSavedByObjectVersion
1070
     0
  0
VISUALSTYLE
  5
D079
102
{ACAD_XDICTIONARY
360
17C2C
102
}
102
{ACAD_REACTORS
330
D06A
102
}
330
D06A
100
AcDbVisualStyle
  2
Facepattern
 70
    15
 71
     2
 72
     2
 73
     0
 90
        0
 40
-0.6
 41
-30.0
 62
     5
 63
     7
 74
     1
 91
        4
 64
     7
 65
   257
 75
     1
175
     1
 42
1.0
 92
        8
 66
     7
 43
1.0
 76
     1
 77
     6
 78
     2
 67
     7
 79
     5
170
     0
171
     0
290
     0
174
     0
 93
        1
 44
0.0
173
     0
291
     1
 45
0.0
1001
ACAD
1000
AcDbSavedByObjectVersion
1070
     0
  0
VISUALSTYLE
  5
D06B
102
{ACAD_XDICTIONARY
360
17C10
102
}
102
{ACAD_REACTORS
330
D06A
102
}
330
D06A
100
AcDbVisualStyle
  2
Flat
 70
     0
 71
     2
 72
     1
 73
     1
 90
        2
 40
-0.6
 41
30.0
 62
     5
 63
     7
 74
     0
 91
        4
 64
     7
 65
   257
 75
     1
175
     1
 42
1.0
 92
        8
 66
     7
 43
1.0
 76
     1
 77
     6
 78
     2
 67
     7
 79
     5
170
     0
171
     0
290
     0
174
     0
 93
       13
 44
0.0
173
     0
291
     1
 45
0.0
1001
ACAD
1000
AcDbSavedByObjectVersion
1070
     0
  0
VISUALSTYLE
  5
D06C
102
{ACAD_XDICTIONARY
360
17C12
102
}
102
{ACAD_REACTORS
330
D06A
102
}
330
D06A
100
AcDbVisualStyle
  2
FlatWithEdges
 70
     1
 71
     2
 72
     1
 73
     1
 90
        2
 40
-0.6
 41
30.0
 62
     5
 63
     7
 74
     1
 91
        4
 64
     7
 65
   257
 75
     1
175
     1
 42
1.0
 92
        0
 66
   257
 43
1.0
 76
     1
 77
     6
 78
     2
 67
     7
 79
     5
170
     0
171
     0
290
     0
174
     0
 93
       13
 44
0.0
173
     0
291
     1
 45
0.0
1001
ACAD
1000
AcDbSavedByObjectVersion
1070
     0
  0
VISUALSTYLE
  5
D06D
102
{ACAD_XDICTIONARY
360
17C14
102
}
102
{ACAD_REACTORS
330
D06A
102
}
330
D06A
100
AcDbVisualStyle
  2
Gouraud
 70
     2
 71
     2
 72
     2
 73
     1
 90
        2
 40
-0.6
 41
30.0
 62
     5
 63
     7
 74
     0
 91
        4
 64
     7
 65
   257
 75
     1
175
     1
 42
1.0
 92
        0
 66
     7
 43
1.0
 76
     1
 77
     6
 78
     2
 67
     7
 79
     5
170
     0
171
     0
290
     0
174
     0
 93
       13
 44
0.0
173
     0
291
     1
 45
0.0
1001
ACAD
1000
AcDbSavedByObjectVersion
1070
     0
  0
VISUALSTYLE
  5
D06E
102
{ACAD_XDICTIONARY
360
17C16
102
}
102
{ACAD_REACTORS
330
D06A
102
}
330
D06A
100
AcDbVisualStyle
  2
GouraudWithEdges
 70
     3
 71
     2
 72
     2
 73
     1
 90
        2
 40
-0.6
 41
30.0
 62
     5
 63
     7
 74
     1
 91
        4
 64
     7
 65
   257
 75
     1
175
     1
 42
1.0
 92
        0
 66
   257
 43
1.0
 76
     1
 77
     6
 78
     2
 67
     7
 79
     5
170
     0
171
     0
290
     0
174
     0
 93
       13
 44
0.0
173
     0
291
     1
 45
0.0
1001
ACAD
1000
AcDbSavedByObjectVersion
1070
     0
  0
VISUALSTYLE
  5
104A8
102
{ACAD_XDICTIONARY
360
17C38
102
}
102
{ACAD_REACTORS
330
D06A
102
}
330
D06A
100
AcDbVisualStyle
  2
Hidden
 70
     6
 71
     1
 72
     2
 73
     2
 90
        0
 40
-0.6
 41
-30.0
 62
     5
 63
     7
 74
     2
 91
        2
 64
     7
 65
   257
 75
     2
175
     1
 42
40.0
 92
        0
 66
   257
 43
1.0
 76
     1
 77
     6
 78
     2
 67
     7
 79
     3
170
     0
171
     0
290
     0
174
     0
 93
        1
 44
0.0
173
     0
291
     0
 45
0.0
1001
ACAD
1000
AcDbSavedByObjectVersion
1070
     0
  0
VISUALSTYLE
  5
D29D
102
{ACAD_XDICTIONARY
360
17C30
102
}
102
{ACAD_REACTORS
330
D06A
102
}
330
D06A
100
AcDbVisualStyle
  2
JitterOff
 70
    20
 71
     2
 72
     2
 73
     0
 90
        0
 40
-0.6
 41
-30.0
 62
     5
 63
     7
 74
     1
 91
        4
 64
     7
 65
   257
 75
     1
175
     1
 42
1.0
 92
       10
 66
     7
 43
1.0
 76
     1
 77
     6
 78
     2
 67
     7
 79
     5
170
     0
171
     0
290
     0
174
     0
 93
        1
 44
0.0
173
     0
291
     1
 45
0.0
1001
ACAD
1000
AcDbSavedByObjectVersion
1070
     0
  0
VISUALSTYLE
  5
D078
102
{ACAD_XDICTIONARY
360
17C2A
102
}
102
{ACAD_REACTORS
330
D06A
102
}
330
D06A
100
AcDbVisualStyle
  2
Linepattern
 70
    14
 71
     2
 72
     2
 73
     0
 90
        0
 40
-0.6
 41
-30.0
 62
     5
 63
     7
 74
     1
 91
        4
 64
     7
 65
   257
 75
     7
175
     7
 42
1.0
 92
        8
 66
     7
 43
1.0
 76
     1
 77
     6
 78
     2
 67
     7
 79
     5
170
     0
171
     0
290
     0
174
     0
 93
        1
 44
0.0
173
     0
291
     1
 45
0.0
1001
ACAD
1000
AcDbSavedByObjectVersion
1070
     0
  0
VISUALSTYLE
  5
D29E
102
{ACAD_XDICTIONARY
360
17C32
102
}
102
{ACAD_REACTORS
330
D06A
102
}
330
D06A
100
AcDbVisualStyle
  2
OverhangOff
 70
    21
 71
     2
 72
     2
 73
     0
 90
        0
 40
-0.6
 41
-30.0
 62
     5
 63
     7
 74
     1
 91
        4
 64
     7
 65
   257
 75
     1
175
     1
 42
1.0
 92
        9
 66
     7
 43
1.0
 76
     1
 77
     6
 78
     2
 67
     7
 79
     5
170
     0
171
     0
290
     0
174
     0
 93
        1
 44
0.0
173
     0
291
     1
 45
0.0
1001
ACAD
1000
AcDbSavedByObjectVersion
1070
     0
  0
VISUALSTYLE
  5
D074
102
{ACAD_XDICTIONARY
360
17C22
102
}
102
{ACAD_REACTORS
330
D06A
102
}
330
D06A
100
AcDbVisualStyle
  2
Realistic
 70
     8
 71
     2
 72
     2
 73
     0
 90
        0
 40
-0.6
 41
-30.0
 62
     5
 63
     7
 74
     1
 91
        0
 64
     7
 65
   257
 75
     1
175
     1
 42
1.0
 92
        8
 66
     8
 43
1.0
 76
     1
 77
     6
 78
     2
 67
     7
 79
     5
170
     0
171
     0
290
     0
174
     0
 93
       13
 44
0.0
173
     0
291
     0
 45
0.0
1001
ACAD
1000
AcDbSavedByObjectVersion
1070
     0
  0
VISUALSTYLE
  5
104AD
102
{ACAD_XDICTIONARY
360
17C42
102
}
102
{ACAD_REACTORS
330
D06A
102
}
330
D06A
100
AcDbVisualStyle
  2
Shaded
 70
    27
 71
     2
 72
     2
 73
     1
 90
        2
 40
-0.6
 41
30.0
 62
     5
 63
     7
 74
     0
 91
        4
 64
     7
 65
   257
 75
     1
175
     1
 42
1.0
 92
        8
 66
   257
 43
1.0
 76
     1
 77
     6
 78
     2
 67
     8
 79
     3
170
     0
171
     0
290
     0
174
     0
 93
        5
 44
0.0
173
     0
291
     0
 45
0.0
1001
ACAD
1000
AcDbSavedByObjectVersion
1070
     0
  0
VISUALSTYLE
  5
104AC
102
{ACAD_XDICTIONARY
360
17C40
102
}
102
{ACAD_REACTORS
330
D06A
102
}
330
D06A
100
AcDbVisualStyle
  2
Shaded with edges
 70
    26
 71
     2
 72
     2
 73
     1
 90
        2
 40
-0.6
 41
30.0
 62
     5
 63
     7
 74
     1
 91
       10
 64
     7
 65
   257
 75
     2
175
     1
 42
1.0
 92
        8
 66
   257
 43
1.0
 76
     1
 77
     6
 78
     2
 67
     7
 79
     3
170
     0
171
     0
290
     0
174
     0
 93
        5
 44
0.0
173
     0
291
     0
 45
0.0
1001
ACAD
1000
AcDbSavedByObjectVersion
1070
     0
  0
VISUALSTYLE
  5
104A9
102
{ACAD_XDICTIONARY
360
17C3A
102
}
102
{ACAD_REACTORS
330
D06A
102
}
330
D06A
100
AcDbVisualStyle
  2
Shades of Gray
 70
    23
 71
     2
 72
     2
 73
     3
 90
        0
 40
-0.6
 41
-30.0
 62
     5
 63
     7
 74
     2
 91
        2
 64
     7
 65
     7
 75
     1
175
     1
 42
40.0
 92
        8
 66
     7
 43
1.0
 76
     1
 77
     6
 78
     2
 67
     7
 79
     3
170
     0
171
     0
290
     0
174
     0
 93
        1
 44
0.0
173
     0
291
     0
 45
0.0
1001
ACAD
1000
AcDbSavedByObjectVersion
1070
     0
  0
VISUALSTYLE
  5
104AA
102
{ACAD_XDICTIONARY
360
17C3C
102
}
102
{ACAD_REACTORS
330
D06A
102
}
330
D06A
100
AcDbVisualStyle
  2
Sketchy
 70
    24
 71
     1
 72
     2
 73
     2
 90
        0
 40
-0.6
 41
-30.0
 62
     5
 63
     7
 74
     2
 91
        2
 64
     7
 65
     7
 75
     1
175
     1
 42
40.0
 92
       11
 66
     7
 43
1.0
 76
     1
 77
     6
 78
     2
 67
     7
 79
     6
170
     0
171
     0
290
     0
174
     0
 93
        1
 44
0.0
173
     0
291
     0
 45
0.0
1001
ACAD
1000
AcDbSavedByObjectVersion
1070
     0
  0
VISUALSTYLE
  5
D077
102
{ACAD_XDICTIONARY
360
17C28
102
}
102
{ACAD_REACTORS
330
D06A
102
}
330
D06A
100
AcDbVisualStyle
  2
Thicken
 70
    13
 71
     2
 72
     2
 73
     0
 90
        0
 40
-0.6
 41
-30.0
 62
     5
 63
     7
 74
     1
 91
        4
 64
     7
 65
   257
 75
     1
175
     1
 42
1.0
 92
       12
 66
     7
 43
1.0
 76
     1
 77
     6
 78
     2
 67
     7
 79
     5
170
     0
171
     0
290
     0
174
     0
 93
        1
 44
0.0
173
     0
291
     1
 45
0.0
1001
ACAD
1000
AcDbSavedByObjectVersion
1070
     0
  0
VISUALSTYLE
  5
104A7
102
{ACAD_XDICTIONARY
360
17C36
102
}
102
{ACAD_REACTORS
330
D06A
102
}
330
D06A
100
AcDbVisualStyle
  2
Wireframe
 70
     5
 71
     0
 72
     2
 73
     0
 90
        0
 40
-0.6
 41
-30.0
 62
     5
 63
     7
 74
     1
 91
        4
 64
     7
 65
   257
 75
     1
175
     1
 42
1.0
 92
        0
 66
   257
 43
1.0
 76
     1
 77
     6
 78
     2
 67
     7
 79
     3
170
     0
171
     0
290
     0
174
     0
 93
        1
 44
0.0
173
     0
291
     0
 45
0.0
1001
ACAD
1000
AcDbSavedByObjectVersion
1070
     0
  0
VISUALSTYLE
  5
104AB
102
{ACAD_XDICTIONARY
360
17C3E
102
}
102
{ACAD_REACTORS
330
D06A
102
}
330
D06A
100
AcDbVisualStyle
  2
X-Ray
 70
    25
 71
     2
 72
     2
 73
     1
 90
        1
 40
0.5
 41
-30.0
 62
     5
 63
     7
 74
     1
 91
        0
 64
     7
 65
   257
 75
     1
175
     1
 42
1.0
 92
        8
 66
     7
 43
1.0
 76
     1
 77
     6
 78
     2
 67
     7
 79
     3
170
     0
171
     0
290
     0
174
     0
 93
       13
 44
0.0
173
     0
291
     0
 45
0.0
1001
ACAD
1000
AcDbSavedByObjectVersion
1070
     0
  0
DICTIONARYVAR
  5
D118
102
{ACAD_REACTORS
330
37
102
}
330
37
100
DictionaryVariables
280
     0
  1
1:1
  0
DICTIONARYVAR
  5
D117
102
{ACAD_REACTORS
330
37
102
}
330
37
100
DictionaryVariables
280
     0
  1
STANDARD
  0
DICTIONARYVAR
  5
29E
102
{ACAD_REACTORS
330
37
102
}
330
37
100
DictionaryVariables
280
     0
  1
STANDARD
  0
DICTIONARYVAR
  5
38
102
{ACAD_REACTORS
330
37
102
}
330
37
100
DictionaryVariables
280
     0
  1
-1
  0
DICTIONARYVAR
  5
1CE
102
{ACAD_REACTORS
330
37
102
}
330
37
100
DictionaryVariables
280
     0
  1
2
  0
DICTIONARYVAR
  5
704E
102
{ACAD_REACTORS
330
37
102
}
330
37
100
DictionaryVariables
280
     0
  1
1
  0
DICTIONARYVAR
  5
D11A
102
{ACAD_REACTORS
330
37
102
}
330
37
100
DictionaryVariables
280
     0
  1
0
  0
DICTIONARYVAR
  5
7052
102
{ACAD_REACTORS
330
37
102
}
330
37
100
DictionaryVariables
280
     0
  1
8
  0
DICTIONARYVAR
  5
7051
102
{ACAD_REACTORS
330
37
102
}
330
37
100
DictionaryVariables
280
     0
  1
1
  0
DICTIONARYVAR
  5
110CC
102
{ACAD_REACTORS
330
37
102
}
330
37
100
DictionaryVariables
280
     0
  1
0
  0
DICTIONARYVAR
  5
110CD
102
{ACAD_REACTORS
330
37
102
}
330
37
100
DictionaryVariables
280
     0
  1
0
  0
DICTIONARYVAR
  5
704F
102
{ACAD_REACTORS
330
37
102
}
330
37
100
DictionaryVariables
280
     0
  1
120
  0
DICTIONARYVAR
  5
7050
102
{ACAD_REACTORS
330
37
102
}
330
37
100
DictionaryVariables
280
     0
  1
0
  0
DICTIONARYVAR
  5
1CF
102
{ACAD_REACTORS
330
37
102
}
330
37
100
DictionaryVariables
280
     0
  1

  0
DICTIONARYVAR
  5
D119
102
{ACAD_REACTORS
330
37
102
}
330
37
100
DictionaryVariables
280
     0
  1
127
  0
DICTIONARYVAR
  5
17D58
102
{ACAD_REACTORS
330
37
102
}
330
37
100
DictionaryVariables
280
     0
  1
2
  0
XRECORD
  5
171D4
102
{ACAD_XDICTIONARY
360
171D5
102
}
102
{ACAD_REACTORS
330
D16D
102
}
330
D16D
100
AcDbXrecord
280
     1
 91
      535
301

290
     0
302
1PHANTOM
330
0
 90
        0
 62
   243
370
    -3
331
14
  1
色_243
440
        0
330
0
 90
        8
 62
     8
370
    -3
331
14
  1
色_8
440
        0
330
0
 90
        8
 62
   252
370
    -3
331
14
  1
色_252
440
        0
330
0
 90
        8
 62
   221
370
    -3
331
14
  1
色_221
440
        0
330
0
 90
        8
 62
     8
370
    -3
331
14
  1
色_8
440
        0
330
0
 90
        8
 62
     8
370
    -3
331
14
  1
色_8
440
        0
330
0
 90
        8
 62
     6
370
    -3
331
14
  1
色_6
440
        0
330
EE89
 90
        8
 62
     2
370
    -3
331
14
  1
色_2
440
        0
330
EE87
 90
        8
 62
   254
370
    -3
331
EE86
  1
色_254
440
        0
330
0
 90
        8
 62
     8
370
    -3
331
14
  1
色_8
440
        0
330
0
 90
        8
 62
     3
370
    30
331
14
  1
色_3
440
        0
330
0
 90
        8
 62
     1
370
    30
331
14
  1
色_1
440
        0
330
0
 90
        8
 62
     8
370
    -3
331
0
  1
色_8
440
        0
330
0
 90
        8
 62
     7
370
    30
331
14
  1
色_7
440
        0
330
0
 90
        8
 62
     8
370
    18
331
14
  1
色_8
440
        0
330
0
 90
        8
 62
   221
370
    18
331
0
  1
色_221
440
        0
330
0
 90
        8
 62
     8
370
    -3
331
14
  1
色_8
440
        0
330
0
 90
        8
 62
     4
370
    30
331
14
  1
色_4
440
        0
330
0
 90
        8
 62
     8
370
    -3
331
0
  1
色_8
440
        0
330
6A4
 90
        8
 62
     7
370
    -3
331
14
  1
色_7
440
        0
330
6A3
 90
        8
 62
   221
370
    -3
331
6A6
  1
色_221
440
        0
330
6A2
 90
        8
 62
     7
370
    -3
331
14
  1
色_7
440
        0
330
6A1
 90
        8
 62
   252
370
    -3
331
14
  1
色_252
440
        0
330
270
 90
        0
 62
     7
370
    -3
331
14
  1
色_7
440
        0
330
24E
 90
        8
 62
     8
370
    18
331
14
  1
色_8
440
        0
330
0
 90
        8
 62
     1
370
    30
331
14
  1
色_1
440
        0
330
34
 90
        8
 62
   253
370
    13
331
14
  1
色_253
440
        0
330
33
 90
        8
 62
     1
370
    -3
331
14
  1
色_1
440
        0
330
31
 90
        8
 62
   201
370
    25
331
14
  1
色_201
440
        0
330
29
 90
        8
 62
   221
370
    18
331
14
  1
色_221
440
        0
330
E
 90
        8
 62
     7
370
    30
331
14
  1
色_7
440
        0
  0
DICTIONARY
  5
D57C
330
190
100
AcDbDictionary
280
     1
281
     1
  3
ACAD_XREC_ROUNDTRIP
360
17D5E
  3
ADSK_XREC_LAYOUTTHUMBNAIL
360
D57D
  0
DICTIONARY
  5
D2AB
330
191
100
AcDbDictionary
280
     1
281
     1
  3
ACAD_XREC_ROUNDTRIP
360
17D5F
  3
ADSK_XREC_LAYOUTTHUMBNAIL
360
D2AC
  0
DICTIONARY
  5
D05B
330
D05A
100
AcDbDictionary
280
     1
281
     1
  3
ACAD_XREC_ROUNDTRIP
360
17D62
  3
BUMPTILE
360
D05D
  3
DIFFUSETILE
360
D05C
  3
OPACITYTILE
360
D060
  3
REFLECTIONTILE
360
D05F
  3
REFRACTIONTILE
360
D061
  3
SPECULARTILE
360
D05E
  0
DICTIONARY
  5
D053
330
D052
100
AcDbDictionary
280
     1
281
     1
  3
ACAD_XREC_ROUNDTRIP
360
17D61
  3
BUMPTILE
360
D055
  3
DIFFUSETILE
360
D054
  3
OPACITYTILE
360
D058
  3
REFLECTIONTILE
360
D057
  3
REFRACTIONTILE
360
D059
  3
SPECULARTILE
360
D056
  0
DICTIONARY
  5
D063
330
D062
100
AcDbDictionary
280
     1
281
     1
  3
ACAD_XREC_ROUNDTRIP
360
17D63
  3
BUMPTILE
360
D065
  3
DIFFUSETILE
360
D064
  3
OPACITYTILE
360
D068
  3
REFLECTIONTILE
360
D067
  3
REFRACTIONTILE
360
D069
  3
SPECULARTILE
360
D066
  0
DICTIONARY
  5
D0E9
330
27F
100
AcDbDictionary
280
     1
281
     1
  3
ACAD_ROUNDTRIP_2008_TABLESTYLE_CELLSTYLEMAP
360
17D59
  3
ACAD_XREC_ROUNDTRIP
360
17D60
  0
DICTIONARY
  5
17C1A
330
D070
100
AcDbDictionary
280
     1
281
     1
  3
ACAD_XREC_ROUNDTRIP
360
17C1B
  0
DICTIONARY
  5
17C1E
330
D072
100
AcDbDictionary
280
     1
281
     1
  3
ACAD_XREC_ROUNDTRIP
360
17C1F
  0
DICTIONARY
  5
17C1C
330
D071
100
AcDbDictionary
280
     1
281
     1
  3
ACAD_XREC_ROUNDTRIP
360
17C1D
  0
DICTIONARY
  5
17C18
330
D06F
100
AcDbDictionary
280
     1
281
     1
  3
ACAD_XREC_ROUNDTRIP
360
17C19
  0
DICTIONARY
  5
17C26
330
D076
100
AcDbDictionary
280
     1
281
     1
  3
ACAD_XREC_ROUNDTRIP
360
17C27
  0
DICTIONARY
  5
17C2E
330
D07A
100
AcDbDictionary
280
     1
281
     1
  3
ACAD_XREC_ROUNDTRIP
360
17C2F
  0
DICTIONARY
  5
17C20
330
D073
100
AcDbDictionary
280
     1
281
     1
  3
ACAD_XREC_ROUNDTRIP
360
17C21
  0
DICTIONARY
  5
17C24
330
D075
100
AcDbDictionary
280
     1
281
     1
  3
ACAD_XREC_ROUNDTRIP
360
17C25
  0
DICTIONARY
  5
17C34
330
D29F
100
AcDbDictionary
280
     1
281
     1
  3
ACAD_XREC_ROUNDTRIP
360
17C35
  0
DICTIONARY
  5
17C2C
330
D079
100
AcDbDictionary
280
     1
281
     1
  3
ACAD_XREC_ROUNDTRIP
360
17C2D
  0
DICTIONARY
  5
17C10
330
D06B
100
AcDbDictionary
280
     1
281
     1
  3
ACAD_XREC_ROUNDTRIP
360
17C11
  0
DICTIONARY
  5
17C12
330
D06C
100
AcDbDictionary
280
     1
281
     1
  3
ACAD_XREC_ROUNDTRIP
360
17C13
  0
DICTIONARY
  5
17C14
330
D06D
100
AcDbDictionary
280
     1
281
     1
  3
ACAD_XREC_ROUNDTRIP
360
17C15
  0
DICTIONARY
  5
17C16
330
D06E
100
AcDbDictionary
280
     1
281
     1
  3
ACAD_XREC_ROUNDTRIP
360
17C17
  0
DICTIONARY
  5
17C38
330
104A8
100
AcDbDictionary
280
     1
281
     1
  3
ACAD_XREC_ROUNDTRIP
360
17C39
  0
DICTIONARY
  5
17C30
330
D29D
100
AcDbDictionary
280
     1
281
     1
  3
ACAD_XREC_ROUNDTRIP
360
17C31
  0
DICTIONARY
  5
17C2A
330
D078
100
AcDbDictionary
280
     1
281
     1
  3
ACAD_XREC_ROUNDTRIP
360
17C2B
  0
DICTIONARY
  5
17C32
330
D29E
100
AcDbDictionary
280
     1
281
     1
  3
ACAD_XREC_ROUNDTRIP
360
17C33
  0
DICTIONARY
  5
17C22
330
D074
100
AcDbDictionary
280
     1
281
     1
  3
ACAD_XREC_ROUNDTRIP
360
17C23
  0
DICTIONARY
  5
17C42
330
104AD
100
AcDbDictionary
280
     1
281
     1
  3
ACAD_XREC_ROUNDTRIP
360
17C43
  0
DICTIONARY
  5
17C40
330
104AC
100
AcDbDictionary
280
     1
281
     1
  3
ACAD_XREC_ROUNDTRIP
360
17C41
  0
DICTIONARY
  5
17C3A
330
104A9
100
AcDbDictionary
280
     1
281
     1
  3
ACAD_XREC_ROUNDTRIP
360
17C3B
  0
DICTIONARY
  5
17C3C
330
104AA
100
AcDbDictionary
280
     1
281
     1
  3
ACAD_XREC_ROUNDTRIP
360
17C3D
  0
DICTIONARY
  5
17C28
330
D077
100
AcDbDictionary
280
     1
281
     1
  3
ACAD_XREC_ROUNDTRIP
360
17C29
  0
DICTIONARY
  5
17C36
330
104A7
100
AcDbDictionary
280
     1
281
     1
  3
ACAD_XREC_ROUNDTRIP
360
17C37
  0
DICTIONARY
  5
17C3E
330
104AB
100
AcDbDictionary
280
     1
281
     1
  3
ACAD_XREC_ROUNDTRIP
360
17C3F
  0
DICTIONARY
  5
171D5
330
171D4
100
AcDbDictionary
280
     1
281
     1
  3
AcadLayerStateAnnoScale
360
171D6
  0
XRECORD
  5
17D5E
102
{ACAD_REACTORS
330
D57C
102
}
330
D57C
100
AcDbXrecord
280
     1
102
SHADEPLOT
 70
     0
102
SHADEPLOTRESLEVEL
 70
     2
102
SHADEPLOTCUSTOMDPI
 70
   300
  0
XRECORD
  5
D57D
102
{ACAD_REACTORS
330
D57C
102
}
330
D57C
100
AcDbXrecord
280
     1
310
280000000001000064000000010008000000000000640000000000000000000000010000000000000000000000000000FFFFFF000000000000000000000000000000000000000000000000000000000000000000330000006600000099000000CC000000FF00000000330000333300006633000099330000CC330000FF3300
310
0000660000336600006666000099660000CC660000FF66000000990000339900006699000099990000CC990000FF99000000CC000033CC000066CC000099CC0000CCCC0000FFCC000000FF000033FF000066FF000099FF0000CCFF0000FFFF000000003300330033006600330099003300CC003300FF003300003333003333
310
33006633330099333300CC333300FF33330000663300336633006666330099663300CC663300FF66330000993300339933006699330099993300CC993300FF99330000CC330033CC330066CC330099CC3300CCCC3300FFCC330000FF330033FF330066FF330099FF3300CCFF3300FFFF330000006600330066006600660099
310
006600CC006600FF00660000336600333366006633660099336600CC336600FF33660000666600336666006666660099666600CC666600FF66660000996600339966006699660099996600CC996600FF99660000CC660033CC660066CC660099CC6600CCCC6600FFCC660000FF660033FF660066FF660099FF6600CCFF6600
310
FFFF660000009900330099006600990099009900CC009900FF00990000339900333399006633990099339900CC339900FF33990000669900336699006666990099669900CC669900FF66990000999900339999006699990099999900CC999900FF99990000CC990033CC990066CC990099CC9900CCCC9900FFCC990000FF99
310
0033FF990066FF990099FF9900CCFF9900FFFF99000000CC003300CC006600CC009900CC00CC00CC00FF00CC000033CC003333CC006633CC009933CC00CC33CC00FF33CC000066CC003366CC006666CC009966CC00CC66CC00FF66CC000099CC003399CC006699CC009999CC00CC99CC00FF99CC0000CCCC0033CCCC0066CC
310
CC0099CCCC00CCCCCC00FFCCCC0000FFCC0033FFCC0066FFCC0099FFCC00CCFFCC00FFFFCC000000FF003300FF006600FF009900FF00CC00FF00FF00FF000033FF003333FF006633FF009933FF00CC33FF00FF33FF000066FF003366FF006666FF009966FF00CC66FF00FF66FF000099FF003399FF006699FF009999FF00CC
310
99FF00FF99FF0000CCFF0033CCFF0066CCFF0099CCFF00CCCCFF00FFCCFF0000FFFF0033FFFF0066FFFF0099FFFF00CCFFFF00FFFFFF00000000000D0D0D001A1A1A00282828003535350043434300505050005D5D5D006B6B6B00787878008686860093939300A1A1A100AEAEAE00BBBBBB00C9C9C900D6D6D600E4E4E400
310
F1F1F100FFFFFF0000000000000000000000000000000000000000000000000000000000000000000000000000000000E2E2E2E2E2E2E2E2E2E2E2E2E2E2E2E2E2E2E2E2E2E2E2E2E2E2E2E2E2E2E2E2E2E2E2E2E2E2E2E2E2E2E2E2E2E2E2E2E2E2E2E2E2E2E2E2E2E2E2E2E2E2E2E2E2E2E2E2E2E2E2E2E2E2E2E2E2E2E2
310
E2E2E2E2E2E2E2E2E2E2E2E2E2E2E2E2E2E2E2E2E2E2E2E2E2E2E2E2E2E2E2E2E2E2E2E2E2E2E2E2E2E2E2E2E2E2E2E2E2E2E2E2E2E2E2E2E2E2E2E2E2E2E2E2E2E2E2E2E2E2E2E2E2E2E2E2E2E2E2E2E2E2E2E2E2E2E2E2E2E2E2E2E2E2E2E2E2E2E2E2E2E2E2E2E2E2E2E2E2E2E2E2E2E2E2E2E2E2E2E2E2E2E2E2E2E2E2
310
E2E2E2E2E2E2E2E2E2E2E2E2E2E2E2E2E2E2E2E2E2E2E2E2E2E2E2E2E2E2E2E2E2E2E2E2E2E2E2E2E2E2E2E2E2E2E2E2E2E2E2E2E2E2E2E2E2E2E2E2E2E2E2E2E2E2E2E2E2E2E2E2E2E2E2E2E2E2E2E2E2E2E2E2E2E2E2E2E2E2E2E2E2E2E2E2E2E2E2E2E2E2E2E2E2E2E2E2E2E2E2E2E2E2E2E2E2E2E2E2E2E2E2E2E2E2E2
310
E2E2E2E2E2E2E2E2E2E2E2E2E2E2E2E2E2E2E2E2E2E2E2E2E2E2E2E2E2E2E2E2E2E2E2E2E2E2E2E2E2E2E2E2E2E2E2E2E2E2E2E2E2E2E2E2E2E2E2E2E2E2E2E2E2E2E2E2E2E2E2E2E2E2E2E2E2E2E2E2E2E2E2E2E2E2E2E2E2E2E2E2E2E2E2E2E2E2E2E2E2E2E2E2E2E2E2E2E2E2E2E2E2E2E2E2E2E2E2E2E2E2E2E2E2E2E2
310
E2E2E2E2E2E2E2E2E2E2E2E2E2E2E2E2E2E2E2E2E2E2E2E2E2E2E2E2E2E2E2E2E2E2E2E2E2E2E2E2E2E2E2E2E2E2E2E2E2E2E2E2E2E2E2E2E2E2E2E2E2E2E2E2E2E2E2E2E2E2E2E2E2E2E2E2E2E2E2E2E2E2E2E2E2E2E2E2E2E2E2E2E2E2E2E2E2E2E2E2E2E2E2E2E2E2E2E2E2E2E2E2E2E2E2E2E2E2E2E2E2E2E2E2E2E2E2
310
E2E2E2E2E2E2E2E2E2E2E2E2E2E2E2E2E2E2E2E2E2E2E2E2E2E2E2E2E2E2E2E2E2E2E2E2E2E2E2E2E2E2E2E2E2E2E2E2E2E2E2E2E2E2E2E2E2E2E2E2E2E2E2E2E2E2E2E2E2E2E2E2E2E2E2E2E2E2E2E2E2E2E2E2E2E2E2E2E2E2E2E2E2E2E2E2E2E2E2E2E2E2E2E2E2E2E2E2E2E2E2E2E2E2E2E2E2E2E2E2E2E2E2E2E2E2E2
310
E2E2E2E2E2E2E2E2E2E2E2E2E2E2E2E2E2E2E2E2E2E2E2E2E2E2E2E2E2E2E2E2E2E2E2E2E2E2E2E2E2E2E2E2E2E2E2E2E2E2E2E2E2E2E2E2E2E2E2E2E2E2E2E2E2E2E2E2E2E2E2E2E2E2E2E2E2E2E2E2E2E2E2E2E2E2E2E2E2E2E2E2E2E2E2E2E2E2E2E2E2E2E2E2E2E2E2E2E2E2E2E2E2E2E2E2E2E2E2E2E2E2E2E2E2E2E2
310
E2E2E2E2E2E2E2BEBEBEBEBEBEBEBEBEBEBEBEBEBEBEBEBEBEBEBEBEBEBEBEBEBEBEBEBEBEBEBEBEBEBEBEBEBEE2E2E2E2E2E2E2E2E2E2E2E2E2E2E2E2E2E2E2E2E2E2E2E2E2E2E2E2E2BEBEBEBEBEBEBEE2E2E2E2E2E2E2E2E2E2E2E2E2E2E2E2E2E2E2E2E2E2E2E2E2E2E2E2E2E2E2E2E2E2E2E2E2E2E2E2E2E2E2E2E2E2
310
E2E2E2E2E2E2E2E2E2E2E2E2E2E2E2E2E2E2E2E2E2E2E2E2E2E2E2E2E2E2E2E2E2E2E2E2E2E2E2E2E2E2E2E2E2E2E2E2E2E2E2E2E2E2E2E2E2E2E2E2E2E2E2E2E2E2E2E2E2E2E2E2E2E2E2E2E2E2E2E2E2E2E2E2E2E2E2E2E2E2E2E2E2E2E2E2E2E2E2E2E2E2E2E2E2E2E2E2E2E2E2E2E2E2E2E2E2E2E2E2E2E2E2E2E2E2E2
310
E2E2E2E2E2E2E2E2E2BEE2E2E2E2E2E2E2E2E2E2E2E2E2E2E2E2E2E2E2E2E2E2E2E2E2E2E2E2E2E2E2E2E2E2E2E2BEE2E2E2E2E2E2E2E2E2E2E2E2E2E2E2E2E2E2E2E2E2E2E2E2E2BEBEBEBEE2E2E2E2E2E2E2BEBEBEBEE2E2E2E2E2E2E2E2E2E2E2E2E2E2E2E2E2E2E2E2E2E2E2E2E2E2E2E2E2E2E2E2E2E2E2E2E2E2E2E2
310
E2E2E2E2E2E2E2E2E2E2E2E2E2E2E2E2E2E2E2E2E2E2E2E2E2E2E2E2E2E2E2E2E2E2E2E2E2E2E2E2E2E2E2E2E2E2E2E2E2E2E2E2E2E2E2E2E2E2E2E2E2E2E2E2E2E2E2E2E2E2E2E2E2E2E2E2E2E2E2E2E2E2E2E2E2E2E2E2E2E2E2E2E2E2E2E2E2E2E2E2E2E2E2E2E2E2E2E2E2E2E2E2E2E2E2E2E2E2E2E2E2E2E2E2E2E2E2
310
E2E2E2E2E2E2E2E2E2E2E2BEE2E2E2E2E2E2E2E2E2E2E2E2E2E2E2E2E2E2E2E2E2E2E2E2E2E2E2E2E2E2E2E2E2E2E2E2BEE2E2E2E2E2E2E2E2E2E2E2E2E2E2E2E2E2E2E2E2E2E2E2BEBEE2E2E2E2E2E2E2E2E2E2E2E2E2E2E2BEBEE2E2E2E2E2E2E2E2E2E2E2E2E2E2E2E2E2E2E2E2E2E2E2E2E2E2E2E2E2E2E2E2E2E2E2E2
310
E2E2E2E2E2E2E2E2E2E2E2E2E2E2E2E2E2E2E2E2E2E2E2E2E2E2E2E2E2E2E2E2E2E2E2E2E2E2E2E2E2E2E2E2E2E2E2E2E2E2E2E2E2E2E2E2E2E2E2E2E2E2E2E2E2E2E2E2E2E2E2E2E2E2E2E2E2E2E2E2E2E2E2E2E2E2E2E2E2E2E2E2E2E2E2E2E2E2E2E2E2E2E2E2E2E2E2E2E2E2E2E2E2E2E2E2E2E2E2E2E2E2E2E2E2E2E2
310
E2E2E2E2E2E2E2E2E2E2E2E2E2BEE2E2E2E2E2E2E2E2E2E2E2E2E2E2E2E2E2E2E2E2E2E2E2E2E2E2E2E2E2E2E2E2E2E2E2E2BEE2E2E2E2E2E2E2E2E2E2E2E2E2E2E2E2E2E2E2E2E2E2BEE2E2E2E2E2E2E2E2E2E2E2E2E2E2E2E2E2E2E2BEE2E2E2E2E2E2E2E2E2E2E2E2E2E2E2E2E2E2E2E2E2E2E2E2E2E2E2E2E2E2E2E2E2
310
E2E2E2E2E2E2E2E2E2E2E2E2E2E2E2E2E2E2E2E2E2E2E2E2E2E2E2E2E2E2E2E2E2E2E2E2E2E2E2E2E2E2E2E2E2E2E2E2E2E2E2E2E2E2E2E2E2E2E2E2E2E2E2E2E2E2E2E2E2E2E2E2E2E2E2E2E2E2E2E2E2E2E2E2E2E2E2E2E2E2E2E2E2E2E2E2E2E2E2E2E2E2E2E2E2E2E2E2E2E2E2E2E2E2E2E2E2E2E2E2E2E2E2E2E2E2E2
310
E2E2E2E2E2E2E2E2E2E2E2E2E2E2E2BEE2E2E2E2E2E2E2E2E2E2E2E2E2E2E2E2E2E2E2E2E2E2E2E2E2E2E2E2E2E2E2E2E2E2E2E2BEE2E2E2E2E2E2E2E2E2E2E2E2E2E2E2E2E2E2E2E2BEBEE2E2E2E2E2E2E2E2E2E2E2E2E2E2E2E2E2E2E2E2E2BEBEE2E2E2E2E2E2E2E2E2E2E2E2E2E2E2E2E2E2E2E2E2E2E2E2E2E2E2E2E2
310
E2E2E2E2E2E2E2E2E2E2E2E2E2E2E2E2E2E2E2E2E2E2E2E2E2E2E2E2E2E2E2E2E2E2E2E2E2E2E2E2E2E2E2E2E2E2E2E2E2E2E2E2E2E2E2E2E2E2E2E2E2E2E2E2E2E2E2E2E2E2E2E2E2E2E2E2E2E2E2E2E2E2E2E2E2E2E2E2E2E2E2E2E2E2E2E2E2E2E2E2E2E2E2E2E2E2E2E2E2E2E2E2E2E2E2E2E2E2E2E2E2E2E2E2E2E2E2
310
E2E2E2E2E2E2E2E2E2E2E2E2E2E2E2E2E2BEE2E2E2E2E2E2E2E2E2E2E2E2E2E2E2E2E2E2E2E2E2E2E2E2E2E2E2E2E2E2E2E2E2E2E2E2BEE2E2E2E2E2E2E2E2E2E2E2E2E2E2E2E2E2E2E2BEE2E2E2E2E2E2E2E2E2E2E2E2E2E2E2E2E2E2E2E2E2E2E2E2E2BEE2E2E2E2E2E2E2E2E2E2E2E2E2E2E2E2E2E2E2E2E2E2E2E2E2E2
310
E2E2E2E2E2E2E2E2E2E2E2E2E2E2E2E2E2E2E2E2E2E2E2E2E2E2E2E2E2E2E2E2E2E2E2E2E2E2E2E2E2E2E2E2E2E2E2E2E2E2E2E2E2E2E2E2E2E2E2E2E2E2E2E2E2E2E2E2E2E2E2E2E2E2E2E2E2E2E2E2E2E2E2E2E2E2E2E2E2E2E2E2E2E2E2E2E2E2E2E2E2E2E2E2E2E2E2E2E2E2E2E2E2E2E2E2E2E2E2E2E2E2E2E2E2E2E2
310
E2E2E2E2E2E2E2E2E2E2E2E2E2E2E2E2E2E2E2BEE2E2E2E2E2E2E2E2E2E2E2E2E2E2E2E2E2E2E2E2E2E2E2E2E2E2E2E2E2E2E2E2E2E2E2E2BEE2E2E2E2E2E2E2E2E2E2E2E2E2E2E2E2E2E2BEE2E2E2E2E2E2E2E2E2E2E2E2E2E2E2E2E2E2E2E2E2E2E2E2E2E2E2BEE2E2E2E2E2E2E2E2E2E2E2E2E2E2E2E2E2E2E2E2E2E2E2
310
E2E2E2E2E2E2E2E2E2E2E2E2E2E2E2E2E2E2E2E2E2E2E2E2E2E2E2E2E2E2E2E2E2E2E2E2E2E2E2E2E2E2E2E2E2E2E2E2E2E2E2E2E2E2E2E2E2E2E2E2E2E2E2E2E2E2E2E2E2E2E2E2E2E2E2E2E2E2E2E2E2E2E2E2E2E2E2E2E2E2E2E2E2E2E2E2E2E2E2E2E2E2E2E2E2E2E2E2E2E2E2E2E2E2E2E2E2E2E2E2E2E2E2E2E2E2E2
310
E2E2E2E2E2E2E2E2E2E2E2E2E2E2E2E2E2E2E2E2E2BEE2E2E2E2E2E2E2E2E2E2E2E2E2E2E2E2E2E2E2E2E2E2E2E2E2E2E2E2E2E2E2E2E2E2E2E2BEE2E2E2E2E2E2E2E2E2E2E2E2E2E2E2E2E2E2BEE2E2E2E2E2E2E2E2E2E2E2E2E2E2E2E2E2E2E2E2E2E2E2E2E2E2E2BEE2E2E2E2E2E2E2E2E2E2E2E2E2E2E2E2E2E2E2E2E2
310
E2E2E2E2E2E2E2E2E2E2E2E2E2E2E2E2E2E2E2E2E2E2E2E2E2E2E2E2E2E2E2E2E2E2E2E2E2E2E2E2E2E2E2E2E2E2E2E2E2E2E2E2E2E2E2E2E2E2E2E2E2E2E2E2E2E2E2E2E2E2E2E2E2E2E2E2E2E2E2E2E2E2E2E2E2E2E2E2E2E2E2E2E2E2E2E2E2E2E2E2E2E2E2E2E2E2E2E2E2E2E2E2E2E2E2E2E2E2E2E2E2E2E2E2E2E2E2
310
E2E2E2E2E2E2E2E2E2E2E2E2E2E2E2E2E2E2E2E2E2E2E2BEE2E2E2E2E2E2E2E2E2E2E2E2E2E2E2E2E2E2E2E2E2E2E2E2E2E2E2E2E2E2E2E2E2E2E2E2BEE2E2E2E2E2E2E2E2E2E2E2E2E2E2E2E2E2BEE2E2E2E2E2E2E2E2E2E2E2E2E2E2E2E2E2E2E2E2E2E2E2E2E2E2E2E2E2BEE2E2E2E2E2E2E2E2E2E2E2E2E2E2E2E2E2E2
310
E2E2E2E2E2E2E2E2E2E2E2E2E2E2E2E2E2E2E2E2E2E2E2E2E2E2E2E2E2E2E2E2E2E2E2E2E2E2E2E2E2E2E2E2E2E2E2E2E2E2E2E2E2E2E2E2E2E2E2E2E2E2E2E2E2E2E2E2E2E2E2E2E2E2E2E2E2E2E2E2E2E2E2E2E2E2E2E2E2E2E2E2E2E2E2E2E2E2E2E2E2E2E2E2E2E2E2E2E2E2E2E2E2E2E2E2E2E2E2E2E2E2E2E2E2E2E2
310
E2E2E2E2E2E2E2E2E2E2E2E2E2E2E2E2E2E2E2E2E2E2E2E2E2BEE2E2E2E2E2E2E2E2E2E2E2E2E2E2E2E2E2E2E2E2E2E2E2E2E2E2E2E2E2E2E2E2E2E2E2E2BEE2E2E2E2E2E2E2E2E2E2E2E2E2E2E2E2BEE2E2E2E2E2E2E2E2E2E2E2E2E2E2E2E2E2E2E2E2E2E2E2E2E2E2E2E2E2E2E2BEE2E2E2E2E2E2E2E2E2E2E2E2E2E2E2
310
E2E2E2E2E2E2E2E2E2E2E2E2E2E2E2E2E2E2E2E2E2E2E2E2E2E2E2E2E2E2E2E2E2E2E2E2E2E2E2E2E2E2E2E2E2E2E2E2E2E2E2E2E2E2E2E2E2E2E2E2E2E2E2E2E2E2E2E2E2E2E2E2E2E2E2E2E2E2E2E2E2E2E2E2E2E2E2E2E2E2E2E2E2E2E2E2E2E2E2E2E2E2E2E2E2E2E2E2E2E2E2E2E2E2E2E2E2E2E2E2E2E2E2E2E2E2E2
310
E2E2E2E2E2E2E2E2E2E2E2E2E2E2E2E2E2E2E2E2E2E2E2E2E2E2E2BEE2E2E2E2E2E2E2E2E2E2E2E2E2E2E2E2E2E2E2E2E2E2E2E2E2E2E2E2E2E2E2E2E2E2E2E2BEE2E2E2E2E2E2E2E2E2E2E2E2E2E2E2E2BEE2E2E2E2E2E2E2E2E2E2E2E2E2E2E2E2E2E2E2E2E2E2E2E2E2E2E2E2E2E2E2BEE2E2E2E2E2E2E2E2E2E2E2E2E2
310
E2E2E2E2E2E2E2E2E2E2E2E2E2E2E2E2E2E2E2E2E2E2E2E2E2E2E2E2E2E2E2E2E2E2E2E2E2E2E2E2E2E2E2E2E2E2E2E2E2E2E2E2E2E2E2E2E2E2E2E2E2E2E2E2E2E2E2E2E2E2E2E2E2E2E2E2E2E2E2E2E2E2E2E2E2E2E2E2E2E2E2E2E2E2E2E2E2E2E2E2E2E2E2E2E2E2E2E2E2E2E2E2E2E2E2E2E2E2E2E2E2E2E2E2E2E2E2
310
E2E2E2E2E2E2E2E2E2E2E2E2E2E2E2E2E2E2E2E2E2E2E2E2E2E2E2E2E2BEE2E2E2E2E2E2E2E2E2E2E2E2E2E2E2E2E2E2E2E2E2E2E2E2E2E2E2E2E2E2E2E2E2E2E2E2BEE2E2E2E2E2E2E2E2E2E2E2E2E2E2E2BEE2E2E2E2E2E2E2E2E2E2E2E2E2E2E2E2E2E2E2E2E2E2E2E2E2E2E2E2E2E2E2E2E2BEE2E2E2E2E2E2E2E2E2E2
310
E2E2E2E2E2E2E2E2E2E2E2E2E2E2E2E2E2E2E2E2E2E2E2E2E2E2E2E2E2E2E2E2E2E2E2E2E2E2E2E2E2E2E2E2E2E2E2E2E2E2E2E2E2E2E2E2E2E2E2E2E2E2E2E2E2E2E2E2E2E2E2E2E2E2E2E2E2E2E2E2E2E2E2E2E2E2E2E2E2E2E2E2E2E2E2E2E2E2E2E2E2E2E2E2E2E2E2E2E2E2E2E2E2E2E2E2E2E2E2E2E2E2E2E2E2E2E2
310
E2E2E2E2E2E2E2E2E2E2E2E2E2E2E2E2E2E2E2E2E2E2E2E2E2E2E2E2E2E2E2BEE2E2E2E2E2E2E2E2E2E2E2E2E2E2E2E2E2E2E2E2E2E2E2E2E2E2E2E2E2E2E2E2E2E2E2E2BEE2E2E2E2E2E2E2E2E2E2E2E2E2E2E2BEE2E2E2E2E2E2E2E2E2E2E2E2E2E2E2E2E2E2E2E2E2E2E2E2E2E2E2E2E2E2E2E2E2BEE2E2E2E2E2E2E2E2
310
E2E2E2E2E2E2E2E2E2E2E2E2E2E2E2E2E2E2E2E2E2E2E2E2E2E2E2E2E2E2E2E2E2E2E2E2E2E2E2E2E2E2E2E2E2E2E2E2E2E2E2E2E2E2E2E2E2E2E2E2E2E2E2E2E2E2E2E2E2E2E2E2E2E2E2E2E2E2E2E2E2E2E2E2E2E2E2E2E2E2E2E2E2E2E2E2E2E2E2E2E2E2E2E2E2E2E2E2E2E2E2E2E2E2E2E2E2E2E2E2E2E2E2E2E2E2E2
310
E2E2E2E2E2E2E2E2E2E2E2E2E2E2E2E2E2E2E2E2E2E2E2E2E2E2E2E2E2E2E2E2E2BEE2E2E2E2E2E2E2E2E2E2E2E2E2E2E2E2E2E2E2E2E2E2E2E2E2E2E2E2E2E2E2E2E2E2E2E2BEE2E2E2E2E2E2E2E2E2E2E2E2E2E2E2BEE2E2E2E2E2E2E2E2E2E2E2E2E2E2E2BEBEBEE2E2E2E2E2E2E2E2E2E2E2E2E2E2E2BEE2E2E2E2E2E2
310
E2E2E2E2E2E2E2E2E2E2E2E2E2E2E2E2E2E2E2E2E2E2E2E2E2E2E2E2E2E2E2E2E2E2E2E2E2E2E2E2E2E2E2E2E2E2E2E2E2E2E2E2E2E2E2E2E2E2E2E2E2E2E2E2E2E2E2E2E2E2E2E2E2E2E2E2E2E2E2E2E2E2E2E2E2E2E2E2E2E2E2E2E2E2E2E2E2E2E2E2E2E2E2E2E2E2E2E2E2E2E2E2E2E2E2E2E2E2E2E2E2E2E2E2E2E2E2
310
E2E2E2E2E2E2E2E2E2E2E2E2E2E2E2E2E2E2E2E2E2E2E2E2E2E2E2E2E2E2E2E2E2E2E2BEE2E2E2E2E2E2E2E2E2E2E2E2E2E2E2E2E2E2E2E2E2E2E2E2E2E2E2E2E2E2E2E2E2E2E2E2BEE2E2E2E2E2E2E2E2E2E2E2E2E2E2E2BEE2E2E2E2E2E2E2E2E2E2E2E2BEBEBEE2E2E2BEBEBEE2E2E2E2E2E2E2E2E2E2E2E2BEE2E2E2E2
310
E2E2E2E2E2E2E2E2E2E2E2E2E2E2E2E2E2E2E2E2E2E2E2E2E2E2E2E2E2E2E2E2E2E2E2E2E2E2E2E2E2E2E2E2E2E2E2E2E2E2E2E2E2E2E2E2E2E2E2E2E2E2E2E2E2E2E2E2E2E2E2E2E2E2E2E2E2E2E2E2E2E2E2E2E2E2E2E2E2E2E2E2E2E2E2E2E2E2E2E2E2E2E2E2E2E2E2E2E2E2E2E2E2E2E2E2E2E2E2E2E2E2E2E2E2E2E2
310
E2E2E2E2E2E2E2E2E2E2E2E2E2E2E2E2E2E2E2E2E2E2E2E2E2E2E2E2E2E2E2E2E2E2E2E2E2BEE2E2E2E2E2E2E2E2E2E2E2E2E2E2E2E2E2E2E2E2E2E2E2E2E2E2E2E2E2E2E2E2E2E2E2E2BEE2E2E2E2E2E2E2E2E2E2E2E2E2E2BEE2E2E2E2E2E2E2E2E2E2E2E2E2BEE2E2E2E2E2E2E2BEE2E2E2E2E2E2E2E2E2E2E2E2E2BEE2
310
E2E2E2E2E2E2E2E2E2E2E2E2E2E2E2E2E2E2E2E2E2E2E2E2E2E2E2E2E2E2E2E2E2E2E2E2E2E2E2E2E2E2E2E2E2E2E2E2E2E2E2E2E2E2E2E2E2E2E2E2E2E2E2E2E2E2E2E2E2E2E2E2E2E2E2E2E2E2E2E2E2E2E2E2E2E2E2E2E2E2E2E2E2E2E2E2E2E2E2E2E2E2E2E2E2E2E2E2E2E2E2E2E2E2E2E2E2E2E2E2E2E2E2E2E2E2E2
310
E2E2E2E2E2E2E2E2E2E2E2E2E2E2E2E2E2E2E2E2E2E2E2E2E2E2E2E2E2E2E2E2E2E2E2E2E2E2E2BEE2E2E2E2BEE2E2E2E2E2E2E2E2E2E2E2E2E2E2E2E2E2E2E2E2E2E2E2E2E2E2E2BEE2E2E2BEE2E2E2E2E2E2E2E2E2E2E2E2E2E2BEE2E2E2E2E2E2E2E2E2E2E2E2E2BEE2E2E2E2E2E2E2E2BEE2E2E2E2E2E2E2E2E2E2E2E2
310
BEE2E2E2E2E2E2E2E2E2E2E2E2E2E2E2E2E2E2E2E2E2E2E2E2E2E2E2E2E2E2E2E2E2E2E2E2E2E2E2E2E2E2E2E2E2E2E2E2E2E2E2E2E2E2E2E2E2E2E2E2E2E2E2E2E2E2E2E2E2E2E2E2E2E2E2E2E2E2E2E2E2E2E2E2E2E2E2E2E2E2E2E2E2E2E2E2E2E2E2E2E2E2E2E2E2E2E2E2E2E2E2E2E2E2E2E2E2E2E2E2E2E2E2E2E2E2
310
E2E2E2E2E2E2E2E2E2E2E2E2E2E2E2E2E2E2E2E2E2E2E2E2E2E2E2E2E2E2E2E2E2E2E2E2E2E2E2E2E2BEE2E2E2E2BEBEBEBEBEBEBEBEBEBEBEBEBEBEBEBEBEBEBEBEBEBEBEBEBEBEBEBEBEE2E2E2BEE2E2E2E2E2E2E2E2E2E2E2E2E2E2BEE2E2E2E2E2E2E2E2E2E2E2E2BEE2E2E2E2E2E2E2E2E2BEE2E2E2E2E2E2E2E2E2E2
310
E2E2BEE2E2E2E2E2E2E2E2E2E2E2E2E2E2E2E2E2E2E2E2E2E2E2E2E2E2E2E2E2E2E2E2E2E2E2E2E2E2E2E2E2E2E2E2E2E2E2E2E2E2E2E2E2E2E2E2E2E2E2E2E2E2E2E2E2E2E2E2E2E2E2E2E2E2E2E2E2E2E2E2E2E2E2E2E2E2E2E2E2E2E2E2E2E2E2E2E2E2E2E2E2E2E2E2E2E2E2E2E2E2E2E2E2E2E2E2E2E2E2E2E2E2E2E2
310
E2E2E2E2E2E2E2E2E2E2E2E2E2E2E2E2E2E2E2E2E2E2E2E2E2E2E2E2E2E2E2E2E2E2E2E2E2E2E2E2E2E2E2BEE2E2E2E2BEE2E2E2E2E2E2E2E2E2E2E2BEBEBEBEE2E2E2E2E2E2E2E2E2E2E2E2BEE2E2E2BEE2E2E2E2E2E2E2E2E2E2E2E2E2E2BEE2E2E2E2E2E2E2E2E2E2E2E2BEE2E2E2E2E2E2E2E2E2BEE2E2E2E2E2E2E2E2
310
E2E2E2E2BEE2E2E2E2E2E2E2E2E2E2E2E2E2E2E2E2E2E2E2E2E2E2E2E2E2E2E2E2E2E2E2E2E2E2E2E2E2E2E2E2E2E2E2E2E2E2E2E2E2E2E2E2E2E2E2E2E2E2E2E2E2E2E2E2E2E2E2E2E2E2E2E2E2E2E2E2E2E2E2E2E2E2E2E2E2E2E2E2E2E2E2E2E2E2E2E2E2E2E2E2E2E2E2E2E2E2E2E2E2E2E2E2E2E2E2E2E2E2E2E2E2E2
310
E2E2E2E2E2E2E2E2E2E2E2E2E2E2E2E2E2E2E2E2E2E2E2E2E2E2E2E2E2E2E2E2E2E2E2E2E2E2E2E2BEBEBEBEE2BEE2E2E2E2BEE2E2E2E2E2E2E2E2E2E2E2E2E2E2E2E2E2E2E2E2E2E2E2E2E2E2E2BEE2E2E2BEE2E2BEBEBEBEE2E2E2E2E2E2E2E2BEE2E2E2E2E2E2E2E2E2E2E2E2BEE2BEBEBEBEBEE2E2E2BEE2E2E2E2E2E2
310
E2E2E2E2E2E2BEE2E2E2E2E2E2E2E2E2E2E2E2E2E2E2E2E2E2E2E2E2E2E2E2E2E2E2E2E2E2E2E2E2E2E2E2E2E2E2E2E2E2E2E2E2E2E2E2E2E2E2E2E2E2E2E2E2E2E2E2E2E2E2E2E2E2E2E2E2E2E2E2E2E2E2E2E2E2E2E2E2E2E2E2E2E2E2E2E2E2E2E2E2E2E2E2E2E2E2E2E2E2E2E2E2E2E2E2E2E2E2E2E2E2E2E2E2E2E2E2
310
E2E2E2E2E2E2E2E2E2E2E2E2E2E2E2E2E2E2E2E2E2E2E2E2E2E2E2E2E2E2E2E2E2E2E2E2E2E2E2E2E2BEE2E2E2BEBEBEE2E2E2E2BEE2E2E2E2E2E2E2E2E2E2E2E2E2E2E2E2E2E2E2E2E2E2E2E2E2E2E2BEE2E2E2BEE2BEBEE2E2BEBEE2E2E2E2E2E2E2BEE2E2E2E2E2E2E2E2E2E2E2E2E2BEE2E2E2E2E2BEE2E2BEE2E2E2E2
310
E2E2E2E2E2E2E2E2BEE2E2E2E2E2E2E2E2E2E2E2E2E2E2E2E2E2E2E2E2E2E2E2E2E2E2E2E2E2E2E2E2E2E2E2E2E2E2E2E2E2E2E2E2E2E2E2E2E2E2E2E2E2E2E2E2E2E2E2E2E2E2E2E2E2E2E2E2E2E2E2E2E2E2E2E2E2E2E2E2E2E2E2E2E2E2E2E2E2E2E2E2E2E2E2E2E2E2E2E2E2E2E2E2E2E2E2E2E2E2E2E2E2E2E2E2E2E2
310
E2E2E2E2E2E2E2E2E2E2E2E2E2E2E2E2E2E2E2E2E2E2E2E2E2E2E2E2E2E2E2E2E2E2E2E2E2E2E2E2E2E2E2BEE2E2E2BEE2BEE2E2E2E2BEE2E2E2E2E2E2E2E2E2E2E2E2E2E2E2E2E2E2E2E2E2E2E2E2E2E2E2BEE2E2E2BEE2BEBEE2E2E2BEE2E2E2E2E2E2E2BEE2E2E2E2E2E2E2E2E2E2E2E2E2BEE2E2E2E2E2E2BEBEE2E2E2
310
E2E2E2E2E2E2E2E2E2E2BEE2E2E2E2E2E2E2BEE2E2E2BEE2E2BEE2E2E2E2E2E2E2E2E2E2E2E2E2E2E2E2E2E2E2E2E2E2E2E2E2E2E2E2E2E2E2E2E2E2E2E2E2E2E2E2E2E2E2E2E2E2E2E2E2E2E2E2E2E2E2E2E2E2E2E2E2E2E2E2E2E2E2E2E2E2E2E2E2E2E2E2E2E2E2E2E2E2E2E2E2E2E2E2E2E2E2E2E2E2E2E2E2E2E2E2E2
310
E2E2E2E2E2E2E2E2E2E2E2E2E2E2E2E2E2E2E2E2E2E2E2E2E2E2E2E2E2E2E2E2E2E2E2E2E2E2E2E2E2E2E2E2E2BEE2E2E2BEBEBEBEBEBEBEBEBEBEE2E2E2E2E2E2E2E2E2E2E2E2E2E2E2E2E2E2E2E2E2E2E2BEBEBEBEBEBEBEBEBEBEE2E2E2BEE2E2E2E2E2E2E2E2BEE2E2E2E2E2E2E2E2E2E2E2BEBEBEE2E2E2E2E2BEBEBE
310
BEE2E2E2E2E2E2E2E2E2E2BEE2E2E2E2E2E2E2E2BEE2E2E2BEE2E2BEE2E2E2E2E2E2E2E2E2E2E2E2E2E2E2E2E2E2E2E2E2E2E2E2E2E2E2E2E2E2E2E2E2E2E2E2E2E2E2E2E2E2E2E2E2E2E2E2E2E2E2E2E2E2E2E2E2E2E2E2E2E2E2E2E2E2E2E2E2E2E2E2E2E2E2E2E2E2E2E2E2E2E2E2E2E2E2E2E2E2E2E2E2E2E2E2E2E2E2
310
E2E2E2E2E2E2E2E2E2E2E2E2E2E2E2E2E2E2E2E2E2E2E2E2E2E2E2E2E2E2E2E2E2E2E2E2E2E2E2E2E2E2E2E2E2E2E2BEE2E2E2BEBEBEBEBEBEBEBEBEBEE2E2E2E2E2E2E2E2E2E2E2E2E2E2E2E2E2E2E2E2E2E2BEBEBEBEBEBEBEBEBEBEBEE2E2E2BEE2E2E2E2E2E2E2E2BEE2E2E2E2E2E2E2E2E2E2E2E2BEE2BEBEBEBEBEE2
310
E2E2E2BEE2E2E2E2E2E2E2E2E2BEE2E2E2E2E2E2E2E2BEE2E2E2BEE2E2BEE2E2E2E2E2E2E2E2E2E2E2E2E2E2E2E2E2E2E2E2E2E2E2E2E2E2E2E2E2E2E2E2E2E2E2E2E2E2E2E2E2E2E2E2E2E2E2E2E2E2E2E2E2E2E2E2E2E2E2E2E2E2E2E2E2E2E2E2E2E2E2E2E2E2E2E2E2E2E2E2E2E2E2E2E2E2E2E2E2E2E2E2E2E2E2E2E2
310
E2E2E2E2E2E2E2E2E2E2E2E2E2E2E2E2E2E2E2E2E2E2E2E2E2E2E2E2E2E2E2E2E2E2E2E2E2E2E2E2E2E2E2E2E2E2E2E2BEE2E2E2E2BEBEBEBEBEBEBEBEBEBEE2E2E2E2E2E2E2E2E2E2E2E2E2E2E2E2E2E2E2E2E2E2E2BEBEBEBEBEBEBEBEBEBEE2E2E2BEE2E2E2E2E2E2E2E2BEE2E2E2E2E2E2E2E2E2E2E2E2BEBEE2E2E2E2
310
E2E2E2E2E2E2BEBEE2E2E2E2E2E2E2BEE2E2E2E2E2E2E2E2BEE2E2E2BEE2E2BEE2E2E2E2E2E2E2E2E2E2E2E2E2E2E2E2E2E2E2E2E2E2E2E2E2E2E2E2E2E2E2E2E2E2E2E2E2E2E2E2E2E2E2E2E2E2E2E2E2E2E2E2E2E2E2E2E2E2E2E2E2E2E2E2E2E2E2E2E2E2E2E2E2E2E2E2E2E2E2E2E2E2E2E2E2E2E2E2E2E2E2E2E2E2E2
310
E2E2E2E2E2E2E2E2E2E2E2E2E2E2E2E2E2E2E2E2E2E2E2E2E2E2E2E2E2E2E2E2E2E2E2E2E2E2E2E2E2E2E2E2E2E2E2E2E2E2BEE2E2E2E2BEBEBEBEBEBEBEBEBEBEBEBEBEBEBEBEBEBEBEBEBEBEBEBEBEBEBEBEBEBEBEBEBEBEBEBEBEBEBEBEBEBEBEE2E2E2BEE2E2E2E2E2E2E2E2BEE2E2E2E2E2E2E2E2E2E2E2E2E2BEBEE2
310
E2E2E2E2E2E2E2E2E2E2BEBEE2E2E2E2E2BEE2E2E2E2E2E2E2BEBEBEBEBEBEBEBEBEBEBEBEBEBEBEE2E2E2E2E2E2E2E2E2E2E2E2E2E2E2E2E2E2E2E2E2E2E2E2E2E2E2E2E2E2E2E2E2E2E2E2E2E2E2E2E2E2E2E2E2E2E2E2E2E2E2E2E2E2E2E2E2E2E2E2E2E2E2E2E2E2E2E2E2E2E2E2E2E2E2E2E2E2E2E2E2E2E2E2E2E2E2
310
E2E2E2E2E2E2E2E2E2E2E2E2E2E2E2E2E2E2E2E2E2E2E2E2E2E2E2E2E2E2E2E2E2E2E2E2E2E2E2E2E2E2E2E2E2E2E2E2E2E2E2E2BEE2E2E2E2BEE2BEE2E2E2E2BEE2E2E2E2E2E2E2E2E2E2E2E2E2E2E2E2E2E2E2E2E2E2E2E2E2E2E2BEE2E2E2BEE2BEBEE2E2E2BEE2E2E2E2E2E2E2E2E2BEE2E2E2E2E2E2E2E2E2E2E2E2E2
310
E2BEBEE2E2E2E2E2E2E2E2E2E2E2BEBEE2E2BEE2E2E2E2E2E2E2E2BEBEE2E2E2BEE2E2BEE2E2E2E2E2BEE2E2E2E2E2E2E2E2E2E2E2E2E2E2E2E2E2E2E2E2E2E2E2E2E2E2E2E2E2E2E2E2E2E2E2E2E2E2E2E2E2E2E2E2E2E2E2E2E2E2E2E2E2E2E2E2E2E2E2E2E2E2E2E2E2E2E2E2E2E2E2E2E2E2E2E2E2E2E2E2E2E2E2E2E2
310
E2E2E2E2E2E2E2E2E2E2E2E2E2E2E2E2E2E2E2E2E2E2E2E2E2E2E2E2E2E2E2E2E2E2E2E2E2E2E2E2E2E2E2E2E2E2E2E2E2E2E2E2BEBEBEE2E2E2E2BEBEBEBEBEBEBEBEBEBEBEBEBEBEBEBEBEBEBEBEBEBEBEBEBEBEBEBEBEBEBEBEBEBEBEBEBEBEBEBEBEBEBEE2E2E2E2BEE2E2E2E2E2E2E2E2BEE2E2E2E2E2E2E2E2E2E2E2
310
E2E2E2E2E2BEBEE2E2E2E2E2E2E2E2E2E2E2BEBEBEBEE2E2E2E2E2E2BEE2BEE2E2E2BEE2E2BEE2E2E2E2E2BEE2E2E2E2E2E2E2E2E2E2E2E2E2E2E2E2E2E2E2E2E2E2E2E2E2E2E2E2E2E2E2E2E2E2E2E2E2E2E2E2E2E2E2E2E2E2E2E2E2E2E2E2E2E2E2E2E2E2E2E2E2E2E2E2E2E2E2E2E2E2E2E2E2E2E2E2E2E2E2E2E2E2E2
310
E2E2E2E2E2E2E2E2E2E2E2E2E2E2E2E2E2E2E2E2E2E2E2E2E2E2E2E2E2E2E2E2E2E2E2E2E2E2E2E2E2E2E2E2E2E2E2E2E2E2E2E2E2BEE2E2BEE2E2E2E2BEBEBEBEBEBEBEBEBEBEBEBEBEBEBEBEBEBEBEBEBEBEBEBEBEBEBEBEBEBEBEBEBEBEBEBEBEBEBEBEBEBEBEE2E2E2E2BEBEBEE2E2E2E2E2E2E2BEE2E2E2E2E2E2E2E2
310
E2E2E2E2E2E2E2E2E2BEBEE2E2E2E2E2E2E2E2E2E2BEE2E2BEBEBEBEE2BEBEE2BEE2E2E2BEE2E2BEE2E2E2E2E2BEE2E2E2E2E2E2E2E2E2E2E2E2E2E2E2E2E2E2E2E2E2E2E2E2E2E2E2E2E2E2E2E2E2E2E2E2E2E2E2E2E2E2E2E2E2E2E2E2E2E2E2E2E2E2E2E2E2E2E2E2E2E2E2E2E2E2E2E2E2E2E2E2E2E2E2E2E2E2E2E2E2
310
E2E2E2E2E2E2E2E2E2E2E2E2E2E2E2E2E2E2E2E2E2E2E2E2E2E2E2E2E2E2E2E2E2E2E2E2E2E2E2E2E2E2E2E2E2E2E2E2E2E2E2E2E2E2BEE2E2E2BEE2E2E2E2BEE2BEE2E2E2E2BEE2E2E2E2E2E2E2E2E2E2E2E2E2E2E2E2E2E2E2E2E2E2E2E2E2E2E2BEE2E2E2BEE2E2BEE2E2E2BEBEE2E2BEE2E2E2E2E2E2E2BEE2E2E2E2E2
310
E2E2E2E2E2E2E2E2E2E2E2E2E2BEE2E2E2E2E2E2E2E2BEE2E2E2E2E2E2E2BEBEBEE2BEE2E2E2BEE2E2BEE2E2E2E2E2BEE2E2E2E2E2E2E2E2E2E2E2E2E2E2E2E2E2E2E2E2E2E2E2E2E2E2E2E2E2E2E2E2E2E2E2E2E2E2E2E2E2E2E2E2E2E2E2E2E2E2E2E2E2E2E2E2E2E2E2E2E2E2E2E2E2E2E2E2E2E2E2E2E2E2E2E2E2E2E2
310
E2E2E2E2E2E2E2E2E2E2E2E2E2E2E2E2E2E2E2E2E2E2E2E2E2E2E2E2E2E2E2E2E2E2E2E2E2E2E2E2E2E2E2E2E2E2E2E2E2E2E2E2E2E2E2E2BEE2E2BEBEE2E2E2E2BEE2BEE2E2BEBEBEBEE2E2E2E2E2E2E2E2E2E2E2E2E2E2E2E2E2E2E2E2E2E2E2E2BEBEBEBEBEE2BEE2E2BEE2E2E2E2BEE2E2BEE2E2E2E2E2E2E2BEE2E2E2
310
E2E2E2E2E2E2E2E2E2E2E2E2E2E2E2E2BEBEE2E2E2E2E2E2BEE2E2E2E2E2E2E2E2BEBEBEBEBEBEBEBEBEBEBEBEE2E2E2E2BEE2E2E2E2E2E2E2E2E2E2E2E2E2E2E2E2E2E2E2E2E2E2E2E2E2E2E2E2E2E2E2E2E2E2E2E2E2E2E2E2E2E2E2E2E2E2E2E2E2E2E2E2E2E2E2E2E2E2E2E2E2E2E2E2E2E2E2E2E2E2E2E2E2E2E2E2E2
310
E2E2E2E2E2E2E2E2E2E2E2E2E2E2E2E2E2E2E2E2E2E2E2E2E2E2E2E2E2E2E2E2E2E2E2E2E2E2E2E2E2E2E2E2E2E2E2E2E2E2E2E2E2E2E2E2E2E2BEE2E2BEE2E2E2E2E2BEE2BEBEBEBEBEBEBEBEBEBEE2E2E2E2E2E2E2E2E2E2E2E2E2E2E2E2E2E2E2BEBEBEBEBEBEBEBEBEE2E2BEE2E2E2E2BEBEE2BEE2E2E2E2E2E2E2E2BE
310
E2E2E2E2E2E2E2E2E2E2E2E2E2E2E2E2E2E2E2E2BEBEE2E2E2BEE2E2E2E2E2E2E2E2E2BEBEBEBEBEBEBEBEBEBEBEBEBEBEBEE2BEE2E2E2E2E2E2E2E2E2E2E2E2E2E2E2E2E2E2E2E2E2E2E2E2E2E2E2E2E2E2E2E2E2E2E2E2E2E2E2E2E2E2E2E2E2E2E2E2E2E2E2E2E2E2E2E2E2E2E2E2E2E2E2E2E2E2E2E2E2E2E2E2E2E2E2
310
E2E2E2E2E2E2E2E2E2E2E2E2E2E2E2E2E2E2E2E2E2E2E2E2E2E2E2E2E2E2E2E2E2E2E2E2E2E2E2E2E2E2E2E2E2E2E2E2E2E2E2E2E2E2E2E2E2E2E2BEE2E2BEBEE2E2E2E2E2BEE2BEE2E2BEBEBEBEE2E2E2E2E2E2E2E2E2E2E2E2E2E2E2E2E2E2E2E2E2E2E2E2BEBEBEBEBEE2BEE2E2BEE2E2E2E2BEBEE2E2BEE2E2E2E2E2E2
310
E2E2BEBEE2E2E2E2E2E2E2E2E2E2E2E2E2E2E2E2E2E2E2E2BEBEBEE2E2E2E2E2E2E2E2E2E2BEBEBEBEBEBEBEBEBEBEBEE2E2BEBEBEBEE2E2E2E2E2E2E2E2E2E2E2E2E2E2E2E2E2E2E2E2E2E2E2E2E2E2E2E2E2E2E2E2E2E2E2E2E2E2E2E2E2E2E2E2E2E2E2E2E2E2E2E2E2E2E2E2E2E2E2E2E2E2E2E2E2E2E2E2E2E2E2E2E2
310
E2E2E2E2E2E2E2E2E2E2E2E2E2E2E2E2E2E2E2E2E2E2E2E2E2E2E2E2E2E2E2E2E2E2E2E2E2E2E2E2E2E2E2E2E2E2E2E2E2E2E2E2E2E2E2E2E2E2E2E2E2BEE2E2BEBEE2E2E2E2E2BEE2BEE2E2BEBEBEBEE2E2E2E2E2E2E2E2E2E2E2E2E2E2E2E2E2E2E2E2E2E2E2E2BEBEBEBEBEE2BEE2E2BEE2E2E2E2BEBEE2E2BEBEE2E2E2
310
E2E2E2E2E2E2BEE2E2E2E2E2E2E2E2E2E2E2E2E2E2E2E2E2E2E2BEE2BEBEBEE2E2E2E2E2E2E2E2BEBEE2BEE2E2E2BEE2E2BEE2E2BEBEBEBEE2E2E2E2E2E2E2E2E2E2E2E2E2E2E2E2E2E2E2E2E2E2E2E2E2E2E2E2E2E2E2E2E2E2E2E2E2E2E2E2E2E2E2E2E2E2E2E2E2E2E2E2E2E2E2E2E2E2E2E2E2E2E2E2E2E2E2E2E2E2E2
310
E2E2E2E2E2E2E2E2E2E2E2E2E2E2E2E2E2E2E2E2E2E2E2E2E2E2E2E2E2E2E2E2E2E2E2E2E2E2E2E2E2E2E2E2E2E2E2E2E2E2E2E2E2E2E2E2E2E2E2E2E2E2E2BEE2E2BEBEE2E2E2E2E2BEE2BEE2E2E2E2E2E2E2E2E2E2E2E2E2E2E2E2E2E2E2E2E2E2E2E2E2E2E2E2E2E2E2E2E2E2E2E2BEE2E2BEE2E2E2E2BEBEE2E2BEBEE2
310
E2E2E2E2E2E2E2E2E2BEBEE2E2E2E2E2E2E2E2E2E2E2E2E2E2E2BEBEE2E2E2E2E2BEBEBEE2E2E2E2E2BEBEE2BEE2E2E2BEE2E2BEE2E2BEBEBEBEE2E2E2E2E2E2E2E2E2E2E2E2E2E2E2E2E2E2E2E2E2E2E2E2E2E2E2E2E2E2E2E2E2E2E2E2E2E2E2E2E2E2E2E2E2E2E2E2E2E2E2E2E2E2E2E2E2E2E2E2E2E2E2E2E2E2E2E2E2
310
E2E2E2E2E2E2E2E2E2E2E2E2E2E2E2E2E2E2E2E2E2E2E2E2E2E2E2E2E2E2E2E2E2E2E2E2E2E2E2E2E2E2E2E2E2E2E2E2E2E2E2E2E2E2E2E2E2E2E2E2E2E2E2E2E2BEBEE2E2BEBEE2E2E2E2BEBEBEBEBEBEBEBEBEBEBEBEBEBEBEBEBEBEBEBEBEBEBEBEBEBEBEBEBEBEBEBEBEBEBEBEBEBEBEBEBEBEBEE2E2E2E2BEBEE2BEE2
310
BEE2E2E2E2E2E2E2E2E2E2E2BEBEBEBEBEE2E2E2E2E2E2E2BEBEBEBEE2E2E2E2E2E2E2E2E2E2BEBEE2E2E2BEBEE2BEE2E2E2BEE2E2BEE2BEBEE2E2BEE2E2E2E2E2E2E2E2E2E2E2E2E2E2E2E2E2E2E2E2E2E2E2E2E2E2E2E2E2E2E2E2E2E2E2E2E2E2E2E2E2E2E2E2E2E2E2E2E2E2E2E2E2E2E2E2E2E2E2E2E2E2E2E2E2E2E2
310
E2E2E2E2E2E2E2E2E2E2E2E2E2E2E2E2E2E2E2E2E2E2E2E2E2E2E2E2E2E2E2E2E2E2E2E2E2E2E2E2E2E2E2E2E2E2E2E2E2E2E2E2E2E2E2E2E2E2E2E2E2E2E2E2E2E2E2BEBEE2E2BEBEBEE2E2E2BEE2BEE2E2E2E2E2E2E2E2E2E2E2E2E2E2E2E2E2E2E2E2E2E2E2E2E2E2E2E2E2E2E2E2E2E2E2E2BEE2BEBEE2E2E2BEBEE2E2
310
BEE2BEE2E2E2E2E2E2E2E2E2E2E2BEBEBEE2E2BEBEBEBEBEBEBEE2E2E2E2E2E2E2E2E2E2E2E2E2E2E2E2BEBEBEBEBEE2BEE2E2E2BEE2E2BEE2BEBEE2E2BEE2E2E2E2E2E2E2E2E2E2E2E2E2E2E2E2E2E2E2E2E2E2E2E2E2E2E2E2E2E2E2E2E2E2E2E2E2E2E2E2E2E2E2E2E2E2E2E2E2E2E2E2E2E2E2E2E2E2E2E2E2E2E2E2E2
310
E2E2E2E2E2E2E2E2E2E2E2E2E2E2E2E2E2E2E2E2E2E2E2E2E2E2E2E2E2E2E2E2E2E2E2E2E2E2E2E2E2E2E2E2E2E2E2E2E2E2E2E2E2E2E2E2E2E2E2E2E2E2E2E2E2E2E2E2E2BEE2BEE2E2BEBEBEBEBEBEE2BEBEBEBEBEBEBEBEBEBEBEBEBEBEBEBEBEBEBEBEBEBEBEBEBEBEBEBEBEBEBEBEBEBEBEBEBEBEE2E2BEBEBEBEBEE2
310
E2BEE2E2BEE2E2E2E2E2E2E2E2E2E2E2BEBEBEBEBEBEBEBEBEE2E2E2E2E2E2E2E2E2E2E2E2E2BEBEBEBEBEBEBEE2E2BEBEE2BEE2E2E2BEE2E2BEE2BEBEE2E2BEE2E2E2E2E2E2E2E2E2E2E2E2E2E2E2E2E2E2E2E2E2E2E2E2E2E2E2E2E2E2E2E2E2E2E2E2E2E2E2E2E2E2E2E2E2E2E2E2E2E2E2E2E2E2E2E2E2E2E2E2E2E2E2
310
E2E2E2E2E2E2E2E2E2E2E2E2E2E2E2E2E2E2E2E2E2E2E2E2E2E2E2E2E2E2E2E2E2E2E2E2E2E2E2E2E2E2E2E2E2E2E2E2E2E2E2E2E2E2E2E2E2E2E2E2E2E2E2E2E2E2E2E2E2E2E2BEE2BEE2E2E2E2BEBEBEBEBEBEBEBEBEBEBEBEBEBEBEBEBEBEBEBEBEBEBEBEBEBEBEBEBEBEBEBEBEBEBEBEBEBEBEBEBEBEBEBEBEBEBEBEBE
310
E2E2E2BEE2E2BEE2E2E2E2E2E2E2E2E2E2E2BEE2E2BEBEBEBEBEBEBEBEBEBEBEBEBEBEBEBEBEBEBEBEBEBEBEE2E2E2E2E2BEBEE2BEE2E2E2BEE2E2BEE2E2BEE2E2BEE2E2E2E2E2E2E2E2E2E2E2E2E2E2E2E2E2E2E2E2E2E2E2E2E2E2E2E2E2E2E2E2E2E2E2E2E2E2E2E2E2E2E2E2E2E2E2E2E2E2E2E2E2E2E2E2E2E2E2E2E2
310
E2E2E2E2E2E2E2E2E2E2E2E2E2E2E2E2E2E2E2E2E2E2E2E2E2E2E2E2E2E2E2E2E2E2E2E2E2E2E2E2E2E2E2E2E2E2E2E2E2E2E2E2E2E2E2E2E2E2E2E2E2E2E2E2E2E2E2E2E2E2E2E2E2BEE2E2BEBEE2E2E2E2E2E2E2E2E2E2E2E2E2E2E2E2E2E2E2E2E2E2E2E2E2E2E2E2E2E2E2E2E2E2E2E2E2E2E2E2E2E2E2E2E2E2E2E2E2
310
E2E2E2BEBEE2E2E2BEE2E2E2E2E2E2E2E2E2E2E2BEE2E2E2E2E2E2E2E2E2BEBEBEBEBEBEBEBEBEBEE2E2E2E2E2BEE2E2E2E2E2BEBEE2BEE2E2E2BEE2E2BEE2E2BEE2E2BEE2E2E2E2E2E2E2E2E2E2E2E2E2E2E2E2E2E2E2E2E2E2E2E2E2E2E2E2E2E2E2E2E2E2E2E2E2E2E2E2E2E2E2E2E2E2E2E2E2E2E2E2E2E2E2E2E2E2E2
310
E2E2E2E2E2E2E2E2E2E2E2E2E2E2E2E2E2E2E2E2E2E2E2E2E2E2E2E2E2E2E2E2E2E2E2E2E2E2E2E2E2E2E2E2E2E2E2E2E2E2E2E2E2E2E2E2E2E2E2E2E2E2E2E2E2E2E2E2E2E2E2E2E2E2E2BEE2E2E2E2BEBEE2E2E2E2E2E2E2E2E2E2E2E2E2E2E2E2E2E2E2E2E2E2E2E2E2E2E2E2E2E2E2E2E2E2E2E2E2E2E2E2E2E2E2E2E2
310
E2E2E2BEBEE2E2E2E2E2BEE2E2E2E2E2E2E2E2E2E2E2BEE2E2E2E2E2E2E2E2E2E2E2E2E2E2E2E2E2E2E2E2E2E2E2BEE2E2E2E2E2BEE2E2BEBEE2E2E2BEE2E2BEE2E2BEE2BEBEE2E2E2E2E2E2E2E2E2E2E2E2E2E2E2E2E2E2E2E2E2E2E2E2E2E2E2E2E2E2E2E2E2E2E2E2E2E2E2E2E2E2E2E2E2E2E2E2E2E2E2E2E2E2E2E2E2
310
E2E2E2E2E2E2E2E2E2E2E2E2E2E2E2E2E2E2E2E2E2E2E2E2E2E2E2E2E2E2E2E2E2E2E2E2E2E2E2E2E2E2E2E2E2E2E2E2E2E2E2E2E2E2E2E2E2E2E2E2E2E2E2E2E2E2E2E2E2E2E2E2E2E2E2E2E2BEE2E2E2E2E2E2BEBEBEBEBEBEBEBEBEBEBEBEBEBEBEBEBEBEBEBEBEBEBEBEBEBEBEBEBEBEBEBEBEBEBEBEBEBEBEBEBEBEBE
310
BEBEBEBEBEE2E2E2E2E2E2E2BEE2E2E2E2E2E2E2E2E2E2E2BEE2E2E2E2E2E2E2E2E2E2E2E2E2E2E2E2E2E2E2E2E2E2E2BEE2E2E2E2E2BEE2BEBEBEBEBEBEBEBEBEBEBEBEBEBEBEBEE2E2E2E2E2E2E2E2E2E2E2E2E2E2E2E2E2E2E2E2E2E2E2E2E2E2E2E2E2E2E2E2E2E2E2E2E2E2E2E2E2E2E2E2E2E2E2E2E2E2E2E2E2E2E2
310
E2E2E2E2E2E2E2E2E2E2E2E2E2E2E2E2E2E2E2E2E2E2E2E2E2E2E2E2E2E2E2E2E2E2E2E2E2E2E2E2E2E2E2E2E2E2E2E2E2E2E2E2E2E2E2E2E2E2E2E2E2E2E2E2E2E2E2E2E2E2E2E2E2E2E2E2E2E2E2BEE2E2E2E2E2E2E2E2E2E2E2E2E2E2E2E2E2E2E2E2E2E2E2E2E2E2E2E2E2E2E2E2E2E2E2E2E2E2E2E2E2E2E2E2E2E2E2
310
E2E2E2E2E2E2E2E2E2E2E2E2E2E2BEE2E2E2E2E2E2E2E2E2E2E2BEE2E2E2E2E2E2E2E2E2E2E2E2E2E2E2E2E2E2E2E2E2E2BEE2E2E2E2E2E2BEE2E2BEBEE2BEE2BEBEE2BEE2E2E2E2E2E2E2E2E2E2E2E2E2E2E2E2E2E2E2E2E2E2E2E2E2E2E2E2E2E2E2E2E2E2E2E2E2E2E2E2E2E2E2E2E2E2E2E2E2E2E2E2E2E2E2E2E2E2E2
310
E2E2E2E2E2E2E2E2E2E2E2E2E2E2E2E2E2E2E2E2E2E2E2E2E2E2E2E2E2E2E2E2E2E2E2E2E2E2E2E2E2E2E2E2E2E2E2E2E2E2E2E2E2E2E2E2E2E2E2E2E2E2E2E2E2E2E2E2E2E2E2E2E2E2E2E2E2E2E2E2E2BEE2E2E2E2E2E2E2E2E2E2E2E2E2E2E2E2E2E2E2E2E2E2E2E2E2E2E2E2E2E2E2E2E2E2E2E2E2E2E2E2E2E2E2E2E2
310
E2E2E2E2E2E2E2E2E2E2E2E2E2E2E2E2BEE2E2E2E2E2E2E2E2E2E2E2BEE2E2E2E2E2E2E2E2E2E2E2E2E2E2BEBEBEBEBEBEBEBEBEE2E2E2E2E2BEE2E2E2BEBEE2BEE2BEBEE2BEE2E2E2E2E2E2E2E2E2E2E2E2E2E2E2E2E2E2E2E2E2E2E2E2E2E2E2E2E2E2E2E2E2E2E2E2E2E2E2E2E2E2E2E2E2E2E2E2E2E2E2E2E2E2E2E2E2
310
E2E2E2E2E2E2E2E2E2E2E2E2E2E2E2E2E2E2E2E2E2E2E2E2E2E2E2E2E2E2E2E2E2E2E2E2E2E2E2E2E2E2E2E2E2E2E2E2E2E2E2E2E2E2E2E2E2E2E2E2E2E2E2E2E2E2E2E2E2E2E2E2E2E2E2E2E2E2E2E2E2E2E2BEE2E2E2E2E2E2E2E2E2E2E2E2E2E2E2E2E2E2E2E2E2E2E2E2E2E2E2E2E2E2E2E2E2E2E2E2E2E2E2E2E2E2E2
310
E2E2E2E2E2E2E2E2E2E2E2E2E2E2E2E2E2E2BEE2E2E2E2E2E2E2E2E2E2E2BEE2E2E2E2E2E2E2E2E2E2E2E2E2E2BEE2BEBEBEBEBEBEBEE2E2E2E2E2BEE2E2BEE2BEE2BEE2BEBEE2BEE2E2E2E2E2E2E2E2E2E2E2E2E2E2E2E2E2E2E2E2E2E2E2E2E2E2E2E2E2E2E2E2E2E2E2E2E2E2E2E2E2E2E2E2E2E2E2E2E2E2E2E2E2E2E2
310
E2E2E2E2E2E2E2E2E2E2E2E2E2E2E2E2E2E2E2E2E2E2E2E2E2E2E2E2E2E2E2E2E2E2E2E2E2E2E2E2E2E2E2E2E2E2E2E2E2E2E2E2E2E2E2E2E2E2E2E2E2E2E2E2E2E2E2E2E2E2E2E2E2E2E2E2E2E2E2E2E2E2E2E2E2BEE2E2E2E2E2E2E2E2E2E2E2E2E2E2E2E2E2E2E2E2E2E2E2E2E2E2E2E2E2E2E2E2E2E2E2E2E2E2E2E2E2
310
E2E2E2E2E2E2E2E2E2E2E2E2E2E2E2E2E2E2E2E2BEE2E2E2E2E2E2E2E2E2E2E2BEE2E2E2E2E2E2E2E2E2E2E2BEBEBEBEBEBEBEBEBEE2BEE2E2E2E2E2E2BEE2E2BEE2BEE2BEE2BEBEE2BEE2E2E2E2E2E2E2E2E2E2E2E2E2E2E2E2E2E2E2E2E2E2E2E2E2E2E2E2E2E2E2E2E2E2E2E2E2E2E2E2E2E2E2E2E2E2E2E2E2E2E2E2E2
310
E2E2E2E2E2E2E2E2E2E2E2E2E2E2E2E2E2E2E2E2E2E2E2E2E2E2E2E2E2E2E2E2E2E2E2E2E2E2E2E2E2E2E2E2E2E2E2E2E2E2E2E2E2E2E2E2E2E2E2E2E2E2E2E2E2E2E2E2E2E2E2E2E2E2E2E2E2E2E2E2E2E2E2E2E2E2E2BEE2E2E2E2E2E2E2E2E2E2E2E2E2E2E2E2E2E2E2E2E2E2E2E2E2E2E2E2E2E2E2E2E2E2E2E2E2E2E2
310
E2E2E2E2E2E2E2E2E2E2E2E2E2E2E2E2E2E2E2E2E2E2BEE2E2E2E2E2E2E2E2E2E2E2BEE2E2E2E2E2E2E2E2E2E2E2BEBEBEE2BEBEBEBEBEE2BEE2E2E2E2E2BEE2E2E2BEE2BEE2BEE2BEE2E2E2E2E2E2E2E2E2E2E2E2E2E2E2E2E2E2E2E2E2E2E2E2E2E2E2E2E2E2E2E2E2E2E2E2E2E2E2E2E2E2E2E2E2E2E2E2E2E2E2E2E2E2
310
E2E2E2E2E2E2E2E2E2E2E2E2E2E2E2E2E2E2E2E2E2E2E2E2E2E2E2E2E2E2E2E2E2E2E2E2E2E2E2E2E2E2E2E2E2E2E2E2E2E2E2E2E2E2E2E2E2E2E2E2E2E2E2E2E2E2E2E2E2E2E2E2E2E2E2E2E2E2E2E2E2E2E2E2E2E2E2E2E2BEE2E2E2E2E2E2E2E2E2E2E2E2E2E2E2E2E2E2E2E2E2E2E2E2E2E2E2E2E2E2E2E2E2E2E2E2E2
310
E2E2E2E2E2E2E2E2E2E2E2E2E2E2E2E2E2E2E2E2E2E2E2E2BEE2E2E2E2E2E2E2E2E2E2E2BEE2E2E2E2E2E2E2E2E2E2E2E2E2E2E2E2E2E2E2E2E2E2E2E2E2E2E2BEE2E2E2BEE2BEE2BEE2BEE2E2E2E2E2E2E2E2E2E2E2E2E2E2E2E2E2E2E2E2E2E2E2E2E2E2E2E2E2E2E2E2E2E2E2E2E2E2E2E2E2E2E2E2E2E2E2E2E2E2E2E2
310
E2E2E2E2E2E2E2E2E2E2E2E2E2E2E2E2E2E2E2E2E2E2E2E2E2E2E2E2E2E2E2E2E2E2E2E2E2E2E2E2E2E2E2E2E2E2E2E2E2E2E2E2E2E2E2E2E2E2E2E2E2E2E2E2E2E2E2E2E2E2E2E2E2E2E2E2E2E2E2E2E2E2E2E2E2E2E2E2E2E2E2BEE2E2E2E2E2E2E2E2E2E2E2E2E2E2E2E2E2E2E2E2E2E2E2E2E2E2E2E2E2E2E2E2E2E2E2
310
E2E2E2E2E2E2E2E2E2E2E2E2E2E2E2E2E2E2E2E2E2E2E2E2E2E2BEE2E2E2E2E2E2E2E2E2E2E2BEE2E2E2E2E2E2E2E2E2E2E2E2E2E2E2E2E2E2E2E2E2E2E2E2E2E2E2BEE2E2E2BEE2BEE2BEE2BEE2E2E2E2E2E2E2E2E2E2E2E2E2E2E2E2E2E2E2E2E2E2E2E2E2E2E2E2E2E2E2E2E2E2E2E2E2E2E2E2E2E2E2E2E2E2E2E2E2E2
310
E2E2E2E2E2E2E2E2E2E2E2E2E2E2E2E2E2E2E2E2E2E2E2E2E2E2E2E2E2E2E2E2E2E2E2E2E2E2E2E2E2E2E2E2E2E2E2E2E2E2E2E2E2E2E2E2E2E2E2E2E2E2E2E2E2E2E2E2E2E2E2E2E2E2E2E2E2E2E2E2E2E2E2E2E2E2E2E2E2E2E2E2E2BEBEE2E2E2E2E2E2E2E2E2E2E2E2E2E2E2E2E2E2E2E2E2E2E2E2E2E2E2E2E2E2E2E2
310
E2E2E2E2E2E2E2E2E2E2E2E2E2E2E2E2E2E2E2E2E2E2E2E2E2E2E2BEBEE2E2E2E2E2E2E2E2E2E2E2BEBEE2E2E2E2E2E2E2E2E2E2E2E2E2E2BEE2E2E2E2BEE2E2E2E2E2BEE2E2E2E2BEE2BEE2BEE2BEE2E2E2E2E2E2E2E2E2E2E2E2E2E2E2E2E2E2E2E2E2E2E2E2E2E2E2E2E2E2E2E2E2E2E2E2E2E2E2E2E2E2E2E2E2E2E2E2
310
E2E2E2E2E2E2E2E2E2E2E2E2E2E2E2E2E2E2E2E2E2E2E2E2E2E2E2E2E2E2E2E2E2E2E2E2E2E2E2E2E2E2E2E2E2E2E2E2E2E2E2E2E2E2E2E2E2E2E2E2E2E2E2E2E2E2E2E2E2E2E2E2E2E2E2E2E2E2E2E2E2E2E2E2E2E2E2E2E2E2E2E2E2E2E2BEBEBEBEBEBEBEBEBEBEBEBEBEBEBEBEBEBEBEBEBEBEBEBEBEBEBEBEBEBEBEBE
310
BEBEBEBEBEBEBEBEBEBEBEBEBEBEBEBEBEBEBEBEBEBEBEBEBEBEBEBEBEBEBEE2E2E2E2E2E2E2E2E2E2E2BEBEBEBEBEBEBEBEBEBEBEBEBEBEBEBEBEBEBEBEBEBEBEBEBEBEBEBEBEBEBEBEBEBEBEBEE2BEE2E2E2E2E2E2E2E2E2E2E2E2E2E2E2E2E2E2E2E2E2E2E2E2E2E2E2E2E2E2E2E2E2E2E2E2E2E2E2E2E2E2E2E2E2E2E2
310
E2E2E2E2E2E2E2E2E2E2E2E2E2E2E2E2E2E2E2E2E2E2E2E2E2E2E2E2E2E2E2E2E2E2E2E2E2E2E2E2E2E2E2E2E2E2E2E2E2E2E2E2E2E2E2E2E2E2E2E2E2E2E2E2E2E2E2E2E2E2E2E2E2E2E2E2E2E2E2E2E2E2E2E2E2E2E2E2E2E2E2E2E2E2E2E2E2E2E2E2E2E2E2E2E2E2E2E2E2E2E2E2E2E2E2E2E2E2E2E2E2E2E2E2E2E2E2
310
BEBEBEE2E2E2E2E2E2E2E2E2E2E2E2E2E2E2E2E2E2E2E2E2E2E2E2E2E2E2E2E2E2E2E2E2E2E2E2E2E2E2E2E2E2E2E2E2E2E2E2E2BEBEBEE2E2BEBEE2BEBEE2BEBEBEBEBEBEBEE2BEE2E2E2BEE2E2E2BEE2BEBEBEBEBEBEBEBEBEBEBEE2E2E2E2E2E2E2E2E2E2E2E2E2E2E2E2E2E2E2E2E2E2E2E2E2E2E2E2E2E2E2E2E2E2E2
310
E2E2E2E2E2E2E2E2E2E2E2E2E2E2E2E2E2E2E2E2E2E2E2E2E2E2E2E2E2E2E2E2E2E2E2E2E2E2E2E2E2E2E2E2E2E2E2E2E2E2E2E2E2E2E2E2E2E2E2E2E2E2E2E2E2E2E2E2E2E2E2E2E2E2E2E2E2E2E2E2E2E2E2E2E2E2E2E2E2E2E2E2E2E2E2E2E2E2E2E2E2E2E2E2E2E2E2E2E2E2E2E2E2E2E2E2E2E2E2E2E2E2E2E2E2E2E2
310
E2E2E2E2E2E2E2E2E2E2E2E2E2E2E2E2E2E2E2E2E2E2E2E2E2E2E2E2E2E2E2E2E2E2E2E2E2E2E2E2E2E2E2E2E2E2E2E2E2E2E2E2E2E2E2E2E2E2E2E2E2E2E2E2E2E2E2E2E2E2E2E2BEE2E2E2E2BEE2E2E2BEE2E2BEBEBEBEBEBEBEBEBEBEE2E2E2E2E2E2E2E2E2E2E2E2E2E2E2E2E2E2E2E2E2E2E2E2E2E2E2E2E2E2E2E2E2
310
E2E2E2E2E2E2E2E2E2E2E2E2E2E2E2E2E2E2E2E2E2E2E2E2E2E2E2E2E2E2E2E2E2E2E2E2E2E2E2E2E2E2E2E2E2E2E2E2E2E2E2E2E2E2E2E2E2E2E2E2E2E2E2E2E2E2E2E2E2E2E2E2E2E2E2E2E2E2E2E2E2E2E2E2E2E2E2E2E2E2E2E2E2E2E2E2E2E2E2E2E2E2E2E2E2E2E2E2E2BEBEBEBEBEBEBEBEBEBEBEBEBEBEBEBEBEBE
310
BEBEBEBEBEBEBEBEBEBEBEBEBEBEBEBEBEBEBEBEBEBEBEBEBEBEBEBEBEBEBEBEBEBEBEBEBEBEE2E2E2E2E2E2E2E2E2E2E2E2E2E2E2E2E2E2E2E2E2E2E2E2E2BEBEBEBEE2BEBEBEBEBEBEBEE2E2E2E2BEE2E2E2BEE2E2E2E2E2E2E2E2E2E2E2E2E2E2E2E2E2E2E2E2E2E2E2E2E2E2E2E2E2E2E2E2E2E2E2E2E2E2E2E2E2E2E2
310
E2E2E2E2E2E2E2E2E2E2E2E2E2E2E2E2E2E2E2E2E2E2E2E2E2E2E2E2E2E2E2E2E2E2E2E2E2E2E2E2E2E2E2E2E2E2E2E2E2E2E2E2E2E2E2E2E2E2E2E2E2E2E2E2E2E2E2E2E2E2E2E2E2E2E2E2E2E2E2E2E2E2E2E2E2E2E2E2E2E2E2E2E2E2E2E2E2E2E2E2E2E2E2E2E2E2E2E2E2BEBEBEE2BEE2E2E2E2E2E2E2E2E2E2E2E2E2
310
E2E2E2E2E2E2E2E2E2E2E2E2E2E2E2E2E2E2E2E2E2E2E2E2E2E2E2BEBEE2BEBEE2E2E2E2E2E2BEBEE2E2E2E2E2E2E2E2E2E2E2E2E2E2E2E2E2E2E2E2E2E2E2E2E2BEBEBEBEBEBEBEBEBEBEBEE2E2E2E2E2BEE2E2E2BEE2E2E2E2E2E2E2E2E2E2E2E2E2E2E2E2E2E2E2E2E2E2E2E2E2E2E2E2E2E2E2E2E2E2E2E2E2E2E2E2E2
310
E2E2E2E2E2E2E2E2E2E2E2E2E2E2E2E2E2E2E2E2E2E2E2E2E2E2E2E2E2E2E2E2E2E2E2E2E2E2E2E2E2E2E2E2E2E2E2E2E2E2E2E2E2E2E2E2E2E2E2E2E2E2E2E2E2E2E2E2E2E2E2E2E2E2E2E2E2E2E2E2E2E2E2E2E2E2E2E2E2E2E2E2E2E2E2E2E2E2E2E2E2E2E2E2E2E2E2E2E2E2E2BEE2E2E2BEE2E2E2E2E2E2E2E2E2E2E2
310
E2E2E2E2E2E2E2E2E2E2E2E2E2E2E2E2E2E2E2E2E2E2E2E2E2E2E2E2E2E2BEE2E2BEBEE2E2E2E2E2E2BEBEBEBEBEE2BEBEBEBEE2BEBEE2E2E2E2E2E2E2E2E2E2E2E2E2E2E2E2E2BEBEBEBEBEBEBEBEE2E2E2E2BEE2E2E2BEBEBEBEE2E2E2E2E2E2E2E2E2E2E2E2E2E2E2E2E2E2E2E2E2E2E2E2E2E2E2E2E2E2E2E2E2E2E2E2
310
E2E2E2E2E2E2E2E2E2E2E2E2E2E2E2E2E2E2E2E2E2E2E2E2E2E2E2E2E2E2E2E2E2E2E2E2E2E2E2E2E2E2E2E2E2E2E2E2E2E2E2E2E2E2E2E2E2E2E2E2E2E2E2E2E2E2E2E2E2E2E2E2E2E2E2E2E2E2E2E2E2E2E2E2E2E2E2E2E2E2E2E2E2E2E2E2E2E2E2E2E2E2E2E2E2E2E2E2E2E2E2E2E2BEE2E2E2BEE2E2E2E2E2E2E2E2E2
310
E2E2E2E2E2E2E2E2E2E2E2E2E2E2E2E2E2E2E2E2E2E2E2E2E2E2E2E2E2E2E2E2BEE2E2E2BEE2E2E2E2BEBEBEBEBEBEBEBEBEBEBEBEBEBEE2E2E2E2E2E2E2E2E2E2E2E2E2E2E2E2E2E2BEBEBEBEBEBEBEBEE2E2E2BEE2E2E2E2E2BEBEBEE2E2E2E2E2E2E2E2E2E2E2E2E2E2E2E2E2E2E2E2E2E2E2E2E2E2E2E2E2E2E2E2E2E2
310
E2E2E2E2E2E2E2E2E2E2E2E2E2E2E2E2E2E2E2E2E2E2E2E2E2E2E2E2E2E2E2E2E2E2E2E2E2E2E2E2E2E2E2E2E2E2E2E2E2E2E2E2E2E2E2E2E2E2E2E2E2E2E2E2E2E2E2E2E2E2E2E2E2E2E2E2E2E2E2E2E2E2E2E2E2E2E2E2E2E2E2E2E2E2E2E2E2E2E2E2E2E2E2E2E2E2E2E2E2E2E2E2E2E2E2BEE2E2E2BEE2E2E2E2E2E2E2
310
E2E2E2E2E2E2E2E2E2E2E2E2E2E2E2E2E2E2E2E2E2E2E2E2E2E2E2E2E2E2E2E2E2E2BEE2E2E2BEE2E2E2BEE2E2BEE2E2E2E2BEBEBEBEBEBEBEBEE2E2E2E2E2E2E2E2E2E2E2E2E2E2E2E2E2E2E2E2E2E2E2E2E2E2E2E2BEE2E2E2E2E2E2E2E2E2E2E2E2E2E2E2E2E2E2E2E2E2E2E2E2E2E2E2E2E2E2E2E2E2E2E2E2E2E2E2E2
310
E2E2E2E2E2E2E2E2E2E2E2E2E2E2E2E2E2E2E2E2E2E2E2E2E2E2E2E2E2E2E2E2E2E2E2E2E2E2E2E2E2E2E2E2E2E2E2E2E2E2E2E2E2E2E2E2E2E2E2E2E2E2E2E2E2E2E2E2E2E2E2E2E2E2E2E2E2E2E2E2E2E2E2E2E2E2E2E2E2E2E2E2E2E2E2E2E2E2E2E2E2E2E2E2E2E2E2E2E2E2E2E2E2E2E2E2E2BEE2E2E2BEE2E2E2E2E2
310
E2E2E2E2E2E2E2E2E2E2E2E2E2E2E2E2E2E2E2E2E2E2E2E2E2E2E2E2E2E2E2E2E2E2E2E2BEE2E2E2BEE2BEBEE2E2E2BEE2E2E2E2BEBEBEBEBEBEBEBEE2E2E2E2E2E2E2E2E2E2E2E2E2E2E2E2E2E2E2E2E2E2E2E2E2E2BEBEBEE2E2E2E2E2E2E2E2E2E2E2E2E2E2E2E2E2E2E2E2E2E2E2E2E2E2E2E2E2E2E2E2E2E2E2E2E2E2
310
E2E2E2E2E2E2E2E2E2E2E2E2E2E2E2E2E2E2E2E2E2E2E2E2E2E2E2E2E2E2E2E2E2E2E2E2E2E2E2E2E2E2E2E2E2E2E2E2E2E2E2E2E2E2E2E2E2E2E2E2E2E2E2E2E2E2E2E2E2E2E2E2E2E2E2E2E2E2E2E2E2E2E2E2E2E2E2E2E2E2E2E2E2E2E2E2E2E2E2E2E2E2E2E2E2E2E2E2E2E2E2E2E2E2E2E2E2E2E2BEE2E2E2BEE2E2E2
310
E2E2E2E2E2E2E2E2E2E2E2E2E2E2E2E2E2E2E2E2E2E2E2E2E2E2E2E2E2E2E2E2E2E2E2E2E2E2BEE2E2E2BEBEE2E2E2E2E2BEE2E2E2E2E2E2E2E2E2E2E2E2E2E2E2E2E2E2E2E2E2E2E2E2E2E2E2E2E2BEBEBEBEBEBEBEBEBEBEBEE2E2E2E2E2E2E2E2E2E2E2E2E2E2E2E2E2E2E2E2E2E2E2E2E2E2E2E2E2E2E2E2E2E2E2E2E2
310
E2E2E2E2E2E2E2E2E2E2E2E2E2E2E2E2E2E2E2E2E2E2E2E2E2E2E2E2E2E2E2E2E2E2E2E2E2E2E2E2E2E2E2E2E2E2E2E2E2E2E2E2E2E2E2E2E2E2E2E2E2E2E2E2E2E2E2E2E2E2E2E2E2E2E2E2E2E2E2E2E2E2E2E2E2E2E2E2E2E2E2E2E2E2E2E2E2E2E2E2E2E2E2E2E2E2E2E2E2E2E2E2E2E2E2E2E2E2E2E2BEE2E2E2E2BEE2
310
E2E2E2E2E2E2E2E2E2E2E2E2E2E2E2E2E2E2E2E2E2E2E2E2E2E2E2E2E2E2E2E2E2E2E2E2E2E2E2E2BEE2E2E2BEE2E2E2E2BEBEBEE2E2E2E2E2E2E2E2E2E2E2E2E2E2E2E2E2E2E2E2E2E2E2E2E2E2E2E2E2BEBEBEE2BEBEBEBEBEBEBEBEE2E2E2E2E2E2E2E2E2E2E2E2E2E2E2E2E2E2E2E2E2E2E2E2E2E2E2E2E2E2E2E2E2E2
310
E2E2E2E2E2E2E2E2E2E2E2E2E2E2E2E2E2E2E2E2E2E2E2E2E2E2E2E2E2E2E2E2E2E2E2E2E2E2E2E2E2E2E2E2E2E2E2E2E2E2E2E2E2E2E2E2E2E2E2E2E2E2E2E2E2E2E2E2E2E2E2E2E2E2E2E2E2E2E2E2E2E2E2E2E2E2E2E2E2E2E2E2E2E2E2E2E2E2E2E2E2E2E2E2E2E2E2E2E2E2E2E2E2E2E2E2E2E2E2E2E2E2BEE2E2E2E2
310
BEE2E2E2E2E2E2E2E2E2E2E2E2E2E2E2E2E2E2E2E2E2E2E2E2E2E2E2E2E2E2E2E2E2E2E2E2E2E2E2E2E2BEE2E2E2BEE2E2E2E2BEBEBEE2E2E2E2E2E2E2E2E2E2E2E2E2E2E2E2E2E2E2E2E2E2E2E2E2E2E2E2E2E2E2E2E2BEBEBEBEBEBEBEBEE2E2E2E2E2E2E2E2E2E2E2E2E2E2E2E2E2E2E2E2E2E2E2E2E2E2E2E2E2E2E2E2
310
E2E2E2E2E2E2E2E2E2E2E2E2E2E2E2E2E2E2E2E2E2E2E2E2E2E2E2E2E2E2E2E2E2E2E2E2E2E2E2E2E2E2E2E2E2E2E2E2E2E2E2E2E2E2E2E2E2E2E2E2E2E2E2E2E2E2E2E2E2E2E2E2E2E2E2E2E2E2E2E2E2E2E2E2E2E2E2E2E2E2E2E2E2E2E2E2E2E2E2E2E2E2E2E2E2E2E2E2E2E2E2E2E2E2E2E2E2E2E2E2E2E2E2E2BEE2E2
310
E2E2BEE2E2E2E2E2E2E2E2E2E2E2E2E2E2E2E2E2E2E2E2E2E2E2E2E2E2E2E2E2E2E2E2E2E2E2E2E2E2E2E2E2BEE2E2E2BEE2E2E2E2E2BEBEE2E2E2E2E2E2E2E2E2E2E2E2E2E2E2E2E2E2E2E2E2E2E2E2E2E2E2E2E2E2E2E2E2E2E2E2E2E2E2E2E2E2E2E2E2E2E2E2E2E2E2E2E2E2E2E2E2E2E2E2E2E2E2E2E2E2E2E2E2E2E2
310
E2E2E2E2E2E2E2E2E2E2E2E2E2E2E2E2E2E2E2E2E2E2E2E2E2E2E2E2E2E2E2E2E2E2E2E2E2E2E2E2E2E2E2E2E2E2E2E2E2E2E2E2E2E2E2E2E2E2E2E2E2E2E2E2E2E2E2E2E2E2E2E2E2E2E2E2E2E2E2E2E2E2E2E2E2E2E2E2E2E2E2E2E2E2E2E2E2E2E2E2E2E2E2E2E2E2E2E2E2E2E2E2E2E2E2E2E2E2E2E2E2E2E2E2E2E2BE
310
E2E2E2E2BEE2E2E2E2E2E2E2E2E2E2E2E2E2E2E2E2E2E2E2E2E2E2E2E2E2E2E2E2E2E2E2E2E2E2E2E2E2E2E2E2E2BEE2E2E2BEE2E2E2E2E2E2BEE2E2E2E2E2E2E2E2E2E2E2E2E2E2E2E2E2E2E2E2E2E2E2E2E2E2E2E2E2E2E2E2E2E2E2E2E2E2E2E2E2E2E2E2E2E2E2E2E2E2E2E2E2E2E2E2E2E2E2E2E2E2E2E2E2E2E2E2E2
310
E2E2E2E2E2E2E2E2E2E2E2E2E2E2E2E2E2E2E2E2E2E2E2E2E2E2E2E2E2E2E2E2E2E2E2E2E2E2E2E2E2E2E2E2E2E2E2E2E2E2E2E2E2E2E2E2E2E2E2E2E2E2E2E2E2E2E2E2E2E2E2E2E2E2E2E2E2E2E2E2E2E2E2E2E2E2E2E2E2E2E2E2E2E2E2E2E2E2E2E2E2E2E2E2E2E2E2E2E2E2E2E2E2E2E2E2E2E2E2E2E2E2E2E2E2E2E2
310
E2BEE2E2E2E2BEE2E2E2E2E2E2E2E2E2E2E2E2E2E2E2E2E2E2E2E2E2E2E2E2E2E2E2E2E2E2E2E2E2E2E2E2E2E2E2E2E2BEE2E2E2BEE2E2E2E2E2BEBEE2E2E2E2E2E2E2E2E2E2E2E2E2E2E2E2E2E2E2E2E2E2E2E2E2E2E2E2E2E2E2E2E2E2E2E2E2E2E2E2E2E2E2E2E2E2E2E2E2E2E2E2E2E2E2E2E2E2E2E2E2E2E2E2E2E2E2
310
E2E2E2E2E2E2E2E2E2E2E2E2E2E2E2E2E2E2E2E2E2E2E2E2E2E2E2E2E2E2E2E2E2E2E2E2E2E2E2E2E2E2E2E2E2E2E2E2E2E2E2E2E2E2E2E2E2E2E2E2E2E2E2E2E2E2E2E2E2E2E2E2E2E2E2E2E2E2E2E2E2E2E2E2E2E2E2E2E2E2E2E2E2E2E2E2E2E2E2E2E2E2E2E2E2E2E2E2E2E2E2E2E2E2E2E2E2E2E2E2E2E2E2E2E2E2E2
310
E2E2E2BEE2E2E2E2BEE2E2E2E2E2E2E2E2E2E2E2E2E2E2E2E2E2E2E2E2E2E2E2E2E2E2E2E2E2E2E2E2E2E2E2E2E2E2E2E2E2BEE2E2E2E2BEE2E2E2BEBEBEE2E2E2E2E2E2E2E2E2E2E2E2E2E2E2E2E2E2E2E2E2E2E2E2E2E2E2E2E2E2E2E2E2E2E2E2E2E2E2E2E2E2E2E2E2E2E2E2E2E2E2E2E2E2E2E2E2E2E2E2E2E2E2E2E2
310
E2E2E2E2E2E2E2E2E2E2E2E2E2E2E2E2E2E2E2E2E2E2E2E2E2E2E2E2E2E2E2E2E2E2E2E2E2E2E2E2E2E2E2E2E2E2E2E2E2E2E2E2E2E2E2E2E2E2E2E2E2E2E2E2E2E2E2E2E2E2E2E2E2E2E2E2E2E2E2E2E2E2E2E2E2E2E2E2E2E2E2E2E2E2E2E2E2E2E2E2E2E2E2E2E2E2E2E2E2E2E2E2E2E2E2E2E2E2E2E2E2E2E2E2E2E2E2
310
E2E2E2E2E2BEE2E2E2E2BEE2E2E2E2E2E2E2E2E2E2E2E2E2E2E2E2E2E2E2E2E2E2E2E2E2E2E2E2E2E2E2E2E2E2E2E2E2E2E2E2E2BEE2E2E2E2BEE2E2E2E2BEBEE2E2E2E2E2E2E2E2E2E2E2E2E2E2E2E2E2E2E2E2E2E2E2E2E2E2E2E2E2E2E2E2E2E2E2E2E2E2E2E2E2E2E2E2E2E2E2E2E2E2E2E2E2E2E2E2E2E2E2E2E2E2E2
310
E2E2E2E2E2E2E2E2E2E2E2E2E2E2E2E2E2E2E2E2E2E2E2E2E2E2E2E2E2E2E2E2E2E2E2E2E2E2E2E2E2E2E2E2E2E2E2E2E2E2E2E2E2E2E2E2E2E2E2E2E2E2E2E2E2E2E2E2E2E2E2E2E2E2E2E2E2E2E2E2E2E2E2E2E2E2E2E2E2E2E2E2E2E2E2E2E2E2E2E2E2E2E2E2E2E2E2E2E2E2E2E2E2E2E2E2E2E2E2E2E2E2E2E2E2E2E2
310
E2E2E2E2E2E2E2BEE2E2E2E2BEE2E2E2E2E2E2E2E2E2E2E2E2E2E2E2E2E2E2E2E2E2E2E2E2E2E2E2E2E2E2E2E2E2E2E2E2E2E2E2E2E2BEE2E2E2E2BEE2E2E2BEBEBEE2E2E2E2E2E2E2E2E2E2E2BEBEBEBEBEBEBEBEBEBEBEBEBEBEBEBEBEBEBEBEBEBEBEBEE2E2E2E2E2E2E2E2E2E2E2E2E2E2E2E2E2E2E2E2E2E2E2E2E2E2
310
E2E2E2E2E2E2E2E2E2E2E2E2E2E2E2E2E2E2E2E2E2E2E2E2E2E2E2E2E2E2E2E2E2E2E2E2E2E2E2E2E2E2E2E2E2E2E2E2E2E2E2E2E2E2E2E2E2E2E2E2E2E2E2E2E2E2E2E2E2E2E2E2E2E2E2E2E2E2E2E2E2E2E2E2E2E2E2E2E2E2E2E2E2E2E2E2E2E2E2E2E2E2E2E2E2E2E2E2E2E2E2E2E2E2E2E2E2E2E2E2E2E2E2E2E2E2E2
310
E2E2E2E2E2E2E2E2E2BEE2E2E2E2BEE2E2E2E2E2E2E2E2E2E2E2E2E2E2E2E2E2E2E2E2E2E2E2E2E2E2E2E2E2E2E2E2E2E2E2E2E2E2E2E2E2BEE2E2E2E2BEE2E2E2E2BEBEE2E2E2E2E2E2E2E2E2E2E2BEE2E2BEBEBEBEBEBEE2E2E2BEBEBEBEBEBEBEBEBEBEE2BEE2E2E2E2E2E2E2E2E2E2E2E2E2E2E2E2E2E2E2E2E2E2E2E2
310
E2E2E2E2E2E2E2E2E2E2E2E2E2E2E2E2E2E2E2E2E2E2E2E2E2E2E2E2E2E2E2E2E2E2E2E2E2E2E2E2E2E2E2E2E2E2E2E2E2E2E2E2E2E2E2E2E2E2E2E2E2E2E2E2E2E2E2E2E2E2E2E2E2E2E2E2E2E2E2E2E2E2E2E2E2E2E2E2E2E2E2E2E2E2E2E2E2E2E2E2E2E2E2E2E2E2E2E2E2E2E2E2E2E2E2E2E2E2E2E2E2E2E2E2E2E2E2
310
E2E2E2E2E2E2E2E2E2E2E2BEE2E2E2E2BEE2E2E2E2E2E2E2E2E2E2E2E2E2E2E2E2E2E2E2E2E2E2E2E2E2E2E2E2E2E2E2E2E2E2E2E2E2E2E2E2E2BEE2E2E2E2BEE2E2E2E2BEBEE2E2E2E2E2E2E2E2E2E2E2BEBEBEBEBEBEBEBEBEBEBEBEBEBEBEBEBEBEBEBEBEBEBEBEE2E2E2E2E2E2E2E2E2E2E2E2E2E2E2E2E2E2E2E2E2E2
310
E2E2E2E2E2E2E2E2E2E2E2E2E2E2E2E2E2E2E2E2E2E2E2E2E2E2E2E2E2E2E2E2E2E2E2E2E2E2E2E2E2E2E2E2E2E2E2E2E2E2E2E2E2E2E2E2E2E2E2E2E2E2E2E2E2E2E2E2E2E2E2E2E2E2E2E2E2E2E2E2E2E2E2E2E2E2E2E2E2E2E2E2E2E2E2E2E2E2E2E2E2E2E2E2E2E2E2E2E2E2E2E2E2E2E2E2E2E2E2E2E2E2E2E2E2E2E2
310
E2E2E2E2E2E2E2E2E2E2E2E2E2BEE2E2E2E2BEE2E2E2E2E2E2E2E2E2E2E2E2E2E2E2E2E2E2E2E2E2E2E2E2E2E2E2E2E2E2E2E2E2E2E2E2E2E2E2E2E2BEE2E2E2E2BEE2E2E2BEBEBEE2E2E2E2E2E2E2E2E2E2E2BEE2E2BEBEBEBEBEBEBEE2E2BEE2E2BEBEBEBEBEE2E2E2BEE2E2E2E2E2E2E2E2E2E2E2E2E2E2E2E2E2E2E2E2
310
E2E2E2E2E2E2E2E2E2E2E2E2E2E2E2E2E2E2E2E2E2E2E2E2E2E2E2E2E2E2E2E2E2E2E2E2E2E2E2E2E2E2E2E2E2E2E2E2E2E2E2E2E2E2E2E2E2E2E2E2E2E2E2E2E2E2E2E2E2E2E2E2E2E2E2E2E2E2E2E2E2E2E2E2E2E2E2E2E2E2E2E2E2E2E2E2E2E2E2E2E2E2E2E2E2E2E2E2E2E2E2E2E2E2E2E2E2E2E2E2E2E2E2E2E2E2E2
310
E2E2E2E2E2E2E2E2E2E2E2E2E2E2E2BEE2E2E2E2BEE2E2E2E2E2E2E2E2E2E2E2E2E2E2E2E2E2E2E2E2E2E2E2E2E2E2E2E2E2E2E2E2E2E2E2E2E2E2E2E2E2BEE2E2E2E2BEE2E2E2BEBEBEE2E2E2E2E2E2E2E2E2E2E2BEBEBEBEBEBEBEBEBEBEBEBEBEBEBEBEBEBEBEBEBEBEBEBEE2E2E2E2E2E2E2E2E2E2E2E2E2E2E2E2E2E2
310
E2E2E2E2E2E2E2E2E2E2E2E2E2E2E2E2E2E2E2E2E2E2E2E2E2E2E2E2E2E2E2E2E2E2E2E2E2E2E2E2E2E2E2E2E2E2E2E2E2E2E2E2E2E2E2E2E2E2E2E2E2E2E2E2E2E2E2E2E2E2E2E2E2E2E2E2E2E2E2E2E2E2E2E2E2E2E2E2E2E2E2E2E2E2E2E2E2E2E2E2E2E2E2E2E2E2E2E2E2E2E2E2E2E2E2E2E2E2E2E2E2E2E2E2E2E2E2
310
E2E2E2E2E2E2E2E2E2E2E2E2E2E2E2E2E2BEE2E2E2E2BEE2E2E2E2E2E2E2E2E2E2E2E2E2E2E2E2E2E2E2E2E2E2E2E2E2E2E2E2E2E2E2E2E2E2E2E2E2E2E2E2E2BEE2E2E2E2BEE2E2E2BEBEBEE2E2E2E2E2E2E2E2E2E2E2E2E2E2E2E2E2E2E2E2E2E2E2E2E2E2E2E2E2E2E2E2E2E2E2E2E2E2E2E2E2E2E2E2E2E2E2E2E2E2E2
310
E2E2E2E2E2E2E2E2E2E2E2E2E2E2E2E2E2E2E2E2E2E2E2E2E2E2E2E2E2E2E2E2E2E2E2E2E2E2E2E2E2E2E2E2E2E2E2E2E2E2E2E2E2E2E2E2E2E2E2E2E2E2E2E2E2E2E2E2E2E2E2E2E2E2E2E2E2E2E2E2E2E2E2E2E2E2E2E2E2E2E2E2E2E2E2E2E2E2E2E2E2E2E2E2E2E2E2E2E2E2E2E2E2E2E2E2E2E2E2E2E2E2E2E2E2E2E2
310
E2E2E2E2E2E2E2E2E2E2E2E2E2E2E2E2E2E2BEE2E2E2E2E2BEE2E2E2E2E2E2E2E2E2E2E2E2E2E2E2E2E2E2E2E2E2E2E2E2E2E2E2E2E2E2E2E2E2E2E2E2E2E2E2E2E2BEE2E2E2E2BEE2E2E2BEBEBEE2E2E2E2E2E2E2E2E2E2E2E2E2BEBEBEBEBEE2E2E2BEBEBEBEBEBEBEE2E2E2BEE2BEE2E2E2E2E2E2E2E2E2E2E2E2E2E2E2
310
E2E2E2E2E2E2E2E2E2E2E2E2E2E2E2E2E2E2E2E2E2E2E2E2E2E2E2E2E2E2E2E2E2E2E2E2E2E2E2E2E2E2E2E2E2E2E2E2E2E2E2E2E2E2E2E2E2E2E2E2E2E2E2E2E2E2E2E2E2E2E2E2E2E2E2E2E2E2E2E2E2E2E2E2E2E2E2E2E2E2E2E2E2E2E2E2E2E2E2E2E2E2E2E2E2E2E2E2E2E2E2E2E2E2E2E2E2E2E2E2E2E2E2E2E2E2E2
310
E2E2E2E2E2E2E2E2E2E2E2E2E2E2E2E2E2E2E2E2BEE2E2E2E2E2BEE2E2E2E2E2E2E2E2E2E2E2E2E2E2E2E2E2E2E2E2E2E2E2E2E2E2E2E2E2E2E2E2E2E2E2E2E2E2E2E2E2BEE2E2E2E2BEE2E2E2BEBEBEE2E2E2E2E2E2E2E2E2E2E2E2E2BEBEBEE2E2BEBEBEBEBEBEBEBEE2BEBEBEBEE2BEE2E2E2E2E2E2E2E2E2E2E2E2E2E2
310
E2E2E2E2E2E2E2E2E2E2E2E2E2E2E2E2E2E2E2E2E2E2E2E2E2E2E2E2E2E2E2E2E2E2E2E2E2E2E2E2E2E2E2E2E2E2E2E2E2E2E2E2E2E2E2E2E2E2E2E2E2E2E2E2E2E2E2E2E2E2E2E2E2E2E2E2E2E2E2E2E2E2E2E2E2E2E2E2E2E2E2E2E2E2E2E2E2E2E2E2E2E2E2E2E2E2E2E2E2E2E2E2E2E2E2E2E2E2E2E2E2E2E2E2E2E2E2
310
E2E2E2E2E2E2E2E2E2E2E2E2E2E2E2E2E2E2E2E2E2E2BEE2E2E2E2E2BEE2E2E2E2E2E2E2E2E2E2E2E2E2E2E2E2E2E2E2E2E2E2E2E2E2E2E2E2E2E2E2E2E2E2E2E2E2E2E2E2E2BEE2E2E2E2BEE2E2E2BEBEBEE2E2E2E2E2E2E2E2E2E2E2E2E2BEBEBEBEBEE2E2E2BEBEBEBEBEBEBEE2E2E2BEE2BEE2E2E2E2E2E2E2E2E2E2E2
310
E2E2E2E2E2E2E2E2E2E2E2E2E2E2E2E2E2E2E2E2E2E2E2E2E2E2E2E2E2E2E2E2E2E2E2E2E2E2E2E2E2E2E2E2E2E2E2E2E2E2E2E2E2E2E2E2E2E2E2E2E2E2E2E2E2E2E2E2E2E2E2E2E2E2E2E2E2E2E2E2E2E2E2E2E2E2E2E2E2E2E2E2E2E2E2E2E2E2E2E2E2E2E2E2E2E2E2E2E2E2E2E2E2E2E2E2E2E2E2E2E2E2E2E2E2E2E2
310
E2E2E2E2E2E2E2E2E2E2E2E2E2E2E2E2E2E2E2E2E2E2E2E2BEE2E2E2E2E2BEE2E2E2E2E2E2E2E2E2E2E2E2E2E2E2E2E2E2E2E2E2E2E2E2E2E2E2E2E2E2E2E2E2E2E2E2E2E2E2E2E2BEE2E2E2E2BEE2E2E2BEBEBEE2E2E2E2E2E2E2E2E2E2E2E2E2E2E2E2E2E2E2E2E2E2E2E2E2E2E2E2E2E2E2E2E2E2E2E2E2E2E2E2E2E2E2
310
E2E2E2E2E2E2E2E2E2E2E2E2E2E2E2E2E2E2E2E2E2E2E2E2E2E2E2E2E2E2E2E2E2E2E2E2E2E2E2E2E2E2E2E2E2E2E2E2E2E2E2E2E2E2E2E2E2E2E2E2E2E2E2E2E2E2E2E2E2E2E2E2E2E2E2E2E2E2E2E2E2E2E2E2E2E2E2E2E2E2E2E2E2E2E2E2E2E2E2E2E2E2E2E2E2E2E2E2E2E2E2E2E2E2E2E2E2E2E2E2E2E2E2E2E2E2E2
310
E2E2E2E2E2E2E2E2E2E2E2E2E2E2E2E2E2E2E2E2E2E2E2E2E2E2BEE2E2E2E2E2BEE2E2E2E2E2E2E2E2E2E2E2E2E2E2E2E2E2E2E2E2E2E2E2E2E2E2E2E2E2E2E2E2E2E2E2E2E2E2E2E2E2BEE2E2E2E2BEE2E2E2E2E2BEE2E2E2E2E2E2E2E2E2E2E2E2E2E2E2E2E2E2E2E2E2E2E2E2E2E2E2E2E2E2E2E2E2E2E2E2E2E2E2E2E2
310
E2E2E2E2E2E2E2E2E2E2E2E2E2E2E2E2E2E2E2E2E2E2E2E2E2E2E2E2E2E2E2E2E2E2E2E2E2E2E2E2E2E2E2E2E2E2E2E2E2E2E2E2E2E2E2E2E2E2E2E2E2E2E2E2E2E2E2E2E2E2E2E2E2E2E2E2E2E2E2E2E2E2E2E2E2E2E2E2E2E2E2E2E2E2E2E2E2E2E2E2E2E2E2E2E2E2E2E2E2E2E2E2E2E2E2E2E2E2E2E2E2E2E2E2E2E2E2
310
E2E2E2E2E2E2E2E2E2E2E2E2E2E2E2E2E2E2E2E2E2E2E2E2E2E2E2E2BEE2E2E2E2E2BEE2E2E2E2E2E2E2E2E2E2E2E2E2E2E2E2E2E2E2E2E2E2E2E2E2E2E2E2E2E2E2E2E2E2E2E2E2E2E2E2E2BEE2E2E2E2BEE2E2E2E2E2BEE2E2E2E2E2E2E2E2E2E2E2E2E2E2E2E2E2E2E2E2E2E2E2E2E2E2E2E2E2E2E2E2E2E2E2E2E2E2E2
310
E2E2E2E2E2E2E2E2E2E2E2E2E2E2E2E2E2E2E2E2E2E2E2E2E2E2E2E2E2E2E2E2E2E2E2E2E2E2E2E2E2E2E2E2E2E2E2E2E2E2E2E2E2E2E2E2E2E2E2E2E2E2E2E2E2E2E2E2E2E2E2E2E2E2E2E2E2E2E2E2E2E2E2E2E2E2E2E2E2E2E2E2E2E2E2E2E2E2E2E2E2E2E2E2E2E2E2E2E2E2E2E2E2E2E2E2E2E2E2E2E2E2E2E2E2E2E2
310
E2E2E2E2E2E2E2E2E2E2E2E2E2E2E2E2E2E2E2E2E2E2E2E2E2E2E2E2E2E2BEE2E2E2E2E2BEE2E2E2E2E2E2E2E2E2E2E2E2E2E2E2E2E2E2E2E2E2E2E2E2E2E2E2E2E2E2E2E2E2E2E2E2E2E2E2E2E2BEE2E2E2E2E2BEE2E2E2E2BEE2E2E2E2E2E2E2E2E2E2E2E2E2E2E2E2E2E2E2E2E2E2E2E2E2E2E2E2E2E2E2E2E2E2E2E2E2
310
E2E2E2E2E2E2E2E2E2E2E2E2E2E2E2E2E2E2E2E2E2E2E2E2E2E2E2E2E2E2E2E2E2E2E2E2E2E2E2E2E2E2E2E2E2E2E2E2E2E2E2E2E2E2E2E2E2E2E2E2E2E2E2E2E2E2E2E2E2E2E2E2E2E2E2E2E2E2E2E2E2E2E2E2E2E2E2E2E2E2E2E2E2E2E2E2E2E2E2E2E2E2E2E2E2E2E2E2E2E2E2E2E2E2E2E2E2E2E2E2E2E2E2E2E2E2E2
310
E2E2E2E2E2E2E2E2E2E2E2E2E2E2E2E2E2E2E2E2E2E2E2E2E2E2E2E2E2E2E2E2BEE2E2E2E2E2BEE2E2E2E2E2E2E2E2E2E2E2E2E2E2E2E2E2E2E2E2E2E2E2E2E2E2E2E2E2E2E2E2E2E2E2E2E2E2E2E2E2BEE2E2E2E2E2BEE2E2E2E2BEE2E2E2E2E2E2E2E2E2E2E2E2E2E2E2E2E2E2E2E2E2E2E2E2E2E2E2E2E2E2E2E2E2E2E2
310
E2E2E2E2E2E2E2E2E2E2E2E2E2E2E2E2E2E2E2E2E2E2E2E2E2E2E2E2E2E2E2E2E2E2E2E2E2E2E2E2E2E2E2E2E2E2E2E2E2E2E2E2E2E2E2E2E2E2E2E2E2E2E2E2E2E2E2E2E2E2E2E2E2E2E2E2E2E2E2E2E2E2E2E2E2E2E2E2E2E2E2E2E2E2E2E2E2E2E2E2E2E2E2E2E2E2E2E2E2E2E2E2E2E2E2E2E2E2E2E2E2E2E2E2E2E2E2
310
E2E2E2E2E2E2E2E2E2E2E2E2E2E2E2E2E2E2E2E2E2E2E2E2E2E2E2E2E2E2E2E2BEBEBEBEBEBEBEBEBEBEBEBEBEBEBEBEBEBEBEBEBEBEBEBEBEBEBEBEBEBEBEBEBEBEBEBEBEBEBEBEBEBEBEBEBEBEBEBEBEBEBEBEBEBEBEBEBEBEE2E2E2BEE2E2E2E2E2E2E2E2E2E2E2E2E2E2E2E2E2E2E2E2E2E2E2E2E2E2E2E2E2E2E2E2E2
310
E2E2E2E2E2E2E2E2E2E2E2E2E2E2E2E2E2E2E2E2E2E2E2E2E2E2E2E2E2E2E2E2E2E2E2E2E2E2E2E2E2E2E2E2E2E2E2E2E2E2E2E2E2E2E2E2E2E2E2E2E2E2E2E2E2E2E2E2E2E2E2E2E2E2E2E2E2E2E2E2E2E2E2E2E2E2E2E2E2E2E2E2E2E2E2E2E2E2E2E2E2E2E2E2E2E2E2E2E2E2E2E2E2E2E2E2E2E2E2E2E2E2E2E2E2E2E2
310
E2E2E2E2E2E2E2E2E2E2E2E2E2E2E2E2E2E2E2E2E2E2E2E2E2E2E2E2E2E2E2E2BEBEE2BEE2E2E2E2E2E2E2E2E2E2E2BEBEBEBEE2E2E2E2E2E2E2E2E2E2E2E2E2E2E2E2E2E2E2E2E2E2E2E2E2BEBEBEE2E2E2E2E2E2E2E2E2E2E2E2BEBEBEE2BEE2E2E2E2E2E2E2E2E2E2E2E2E2E2E2E2E2E2E2E2E2E2E2E2E2E2E2E2E2E2E2
310
E2E2E2E2E2E2E2E2E2E2E2E2E2E2E2E2E2E2E2E2E2E2E2E2E2E2E2E2E2E2E2E2E2E2E2E2E2E2E2E2E2E2E2E2E2E2E2E2E2E2E2E2E2E2E2E2E2E2E2E2E2E2E2E2E2E2E2E2E2E2E2E2E2E2E2E2E2E2E2E2E2E2E2E2E2E2E2E2E2E2E2E2E2E2E2E2E2E2E2E2E2E2E2E2E2E2E2E2E2E2E2E2E2E2E2E2E2E2E2E2E2E2E2E2E2E2E2
310
E2E2E2E2E2E2E2E2E2E2E2E2E2E2E2E2E2E2E2E2E2E2E2E2E2E2E2E2E2E2E2E2E2E2BEBEBEBEBEBEBEBEBEBEBEBEBEBEBEBEBEBEBEBEBEBEBEBEBEBEBEBEBEBEBEBEBEBEBEBEBEBEBEBEBEBEBEBEBEBEBEBEBEBEBEBEBEBEBEBEBEBEBEBEBEBEBEBEE2E2E2E2E2E2E2E2E2E2E2E2E2E2E2E2E2E2E2E2E2E2E2E2E2E2E2E2E2
310
E2E2E2E2E2E2E2E2E2E2E2E2E2E2E2E2E2E2E2E2E2E2E2E2E2E2E2E2E2E2E2E2E2E2E2E2E2E2E2E2E2E2E2E2E2E2E2E2E2E2E2E2E2E2E2E2E2E2E2E2E2E2E2E2E2E2E2E2E2E2E2E2E2E2E2E2E2E2E2E2E2E2E2E2E2E2E2E2E2E2E2E2E2E2E2E2E2E2E2E2E2E2E2E2E2E2E2E2E2E2E2E2E2E2E2E2E2E2E2E2E2E2E2E2E2E2E2
310
E2E2E2E2E2E2E2E2E2E2E2E2E2E2E2E2E2E2E2E2E2E2E2E2E2E2E2E2E2E2E2E2E2E2E2E2BEBEBEBEBEBEBEBEBEBEBEBEBEBEBEBEBEBEBEBEBEBEBEBEBEBEBEBEBEBEBEBEBEBEBEBEBEBEBEBEBEBEBEBEBEBEBEBEBEBEBEBEBEBEBEBEBEBEBEBEBEBEBEBEE2E2E2E2E2E2E2E2E2E2E2E2E2E2E2E2E2E2E2E2E2E2E2E2E2E2E2
310
E2E2E2E2E2E2E2E2E2E2E2E2E2E2E2E2E2E2E2E2E2E2E2E2E2E2E2E2E2E2E2E2E2E2E2E2E2E2E2E2E2E2E2E2E2E2E2E2E2E2E2E2E2E2E2E2E2E2E2E2E2E2E2E2E2E2E2E2E2E2E2E2E2E2E2E2E2E2E2E2E2E2E2E2E2E2E2E2E2E2E2E2E2E2E2E2E2E2E2E2E2E2E2E2E2E2E2E2E2E2E2E2E2E2E2E2E2E2E2E2E2E2E2E2E2E2E2
310
E2E2E2E2E2E2E2E2E2E2E2E2E2E2E2E2E2E2E2E2E2E2E2E2E2E2E2E2E2E2E2E2E2E2E2E2E2E2E2E2E2E2E2E2E2E2E2E2E2E2E2E2E2E2BEBEE2E2E2E2E2E2E2E2E2E2E2E2E2E2E2E2E2E2E2E2E2E2E2E2E2E2BEBEBEE2E2E2E2E2E2E2E2E2E2E2E2E2E2E2E2E2E2E2E2E2E2E2E2E2E2E2E2E2E2E2E2E2E2E2E2E2E2E2E2E2E2
310
E2E2E2E2E2E2E2E2E2E2E2E2E2E2E2E2E2E2E2E2E2E2E2E2E2E2E2E2E2E2E2E2E2E2E2E2E2E2E2E2E2E2E2E2E2E2E2E2E2E2E2E2E2E2E2E2E2E2E2E2E2E2E2E2E2E2E2E2E2E2E2E2E2E2E2E2E2E2E2E2E2E2E2E2E2E2E2E2E2E2E2E2E2E2E2E2E2E2E2E2E2E2E2E2E2E2E2E2E2E2E2E2E2E2E2E2E2E2E2E2E2E2E2E2E2E2E2
310
E2E2E2E2E2E2E2E2E2E2E2E2E2E2E2E2E2E2E2E2E2E2E2E2E2E2E2E2E2E2E2E2E2E2E2E2E2E2E2E2E2E2E2E2E2E2E2E2E2E2E2E2E2E2E2E2BEBEE2E2E2E2E2E2E2E2E2E2E2E2E2E2E2E2E2E2E2E2E2E2E2E2E2E2BEBEBEE2E2E2E2E2E2E2E2E2E2E2E2E2E2E2E2E2E2E2E2E2E2E2E2E2E2E2E2E2E2E2E2E2E2E2E2E2E2E2E2
310
E2E2E2E2E2E2E2E2E2E2E2E2E2E2E2E2E2E2E2E2E2E2E2E2E2E2E2E2E2E2E2E2E2E2E2E2E2E2E2E2E2E2E2E2E2E2E2E2E2E2E2E2E2E2E2E2E2E2E2E2E2E2E2E2E2E2E2E2E2E2E2E2E2E2E2E2E2E2E2E2E2E2E2E2E2E2E2E2E2E2E2E2E2E2E2E2E2E2E2E2E2E2E2E2E2E2E2E2E2E2E2E2E2E2E2E2E2E2E2E2E2E2E2E2E2E2E2
310
E2E2E2E2E2E2E2E2E2E2E2E2E2E2E2E2E2E2E2E2E2E2E2E2E2E2E2E2E2E2E2E2E2E2E2E2E2E2E2E2E2E2E2E2E2E2E2E2E2E2E2E2E2E2E2E2E2E2BEBEE2E2E2E2E2E2E2E2E2E2E2E2E2E2E2E2E2E2E2E2E2E2E2E2E2E2BEBEBEE2E2E2E2E2E2E2E2E2E2E2E2E2E2E2E2E2E2E2E2E2E2E2E2E2E2E2E2E2E2E2E2E2E2E2E2E2E2
310
E2E2E2E2E2E2E2E2E2E2E2E2E2E2E2E2E2E2E2E2E2E2E2E2E2E2E2E2E2E2E2E2E2E2E2E2E2E2E2E2E2E2E2E2E2E2E2E2E2E2E2E2E2E2E2E2E2E2E2E2E2E2E2E2E2E2E2E2E2E2E2E2E2E2E2E2E2E2E2E2E2E2E2E2E2E2E2E2E2E2E2E2E2E2E2E2E2E2E2E2E2E2E2E2E2E2E2E2E2E2E2E2E2E2E2E2E2E2E2E2E2E2E2E2E2E2E2
310
E2E2E2E2E2E2E2E2E2E2E2E2E2E2E2E2E2E2E2E2E2E2E2E2E2E2E2E2E2E2E2E2E2E2E2E2E2E2E2E2E2E2E2E2E2E2E2E2E2E2E2E2E2E2E2E2E2E2E2E2BEBEE2E2E2E2E2E2E2E2E2E2E2E2E2E2E2E2E2E2E2E2E2E2E2E2E2E2BEBEBEE2E2E2E2E2E2E2E2E2E2E2E2E2E2E2E2E2E2E2E2E2E2E2E2E2E2E2E2E2E2E2E2E2E2E2E2
310
E2E2E2E2E2E2E2E2E2E2E2E2E2E2E2E2E2E2E2E2E2E2E2E2E2E2E2E2E2E2E2E2E2E2E2E2E2E2E2E2E2E2E2E2E2E2E2E2E2E2E2E2E2E2E2E2E2E2E2E2E2E2E2E2E2E2E2E2E2E2E2E2E2E2E2E2E2E2E2E2E2E2E2E2E2E2E2E2E2E2E2E2E2E2E2E2E2E2E2E2E2E2E2E2E2E2E2E2E2E2E2E2E2E2E2E2E2E2E2E2E2E2E2E2E2E2E2
310
E2E2E2E2E2E2E2E2E2E2E2E2E2E2E2E2E2E2E2E2E2E2E2E2E2E2E2E2E2E2E2E2E2E2E2E2E2E2E2E2E2E2E2E2E2E2E2E2E2E2E2E2E2E2E2E2E2E2E2E2E2E2BEBEE2E2E2E2E2E2E2E2E2E2E2E2E2E2E2E2E2E2E2E2E2E2E2E2E2E2BEBEBEE2E2E2E2E2E2E2E2E2E2E2E2E2E2E2E2E2E2E2E2E2E2E2E2E2E2E2E2E2E2E2E2E2E2
310
E2E2E2E2E2E2E2E2E2E2E2E2E2E2E2E2E2E2E2E2E2E2E2E2E2E2E2E2E2E2E2E2E2E2E2E2E2E2E2E2E2E2E2E2E2E2E2E2E2E2E2E2E2E2E2E2E2E2E2E2E2E2E2E2E2E2E2E2E2E2E2E2E2E2E2E2E2E2E2E2E2E2E2E2E2E2E2E2E2E2E2E2E2E2E2E2E2E2E2E2E2E2E2E2E2E2E2E2E2E2E2E2E2E2E2E2E2E2E2E2E2E2E2E2E2E2E2
310
E2E2E2E2E2E2E2E2E2E2E2E2E2E2E2E2E2E2E2E2E2E2E2E2E2E2E2E2E2E2E2E2E2E2E2E2E2E2E2E2E2E2E2E2E2E2E2E2E2E2E2E2E2E2E2E2E2E2E2E2E2E2E2E2BEBEE2E2E2E2E2E2E2E2E2E2E2E2E2E2E2E2E2E2E2E2E2E2E2E2E2E2BEBEBEE2E2E2E2E2E2E2E2E2E2E2E2E2E2E2E2E2E2E2E2E2E2E2E2E2E2E2E2E2E2E2E2
310
E2E2E2E2E2E2E2E2E2E2E2E2E2E2E2E2E2E2E2E2E2E2E2E2E2E2E2E2E2E2E2E2E2E2E2E2E2E2E2E2E2E2E2E2E2E2E2E2E2E2E2E2E2E2E2E2E2E2E2E2E2E2E2E2E2E2E2E2E2E2E2E2E2E2E2E2E2E2E2E2E2E2E2E2E2E2E2E2E2E2E2E2E2E2E2E2E2E2E2E2E2E2E2E2E2E2E2E2E2E2E2E2E2E2E2E2E2E2E2E2E2E2E2E2E2E2E2
310
E2E2E2E2E2E2E2E2E2E2E2E2E2E2E2E2E2E2E2E2E2E2E2E2E2E2E2E2E2E2E2E2E2E2E2E2E2E2E2E2E2E2E2E2E2E2E2E2E2E2E2E2E2E2E2E2E2E2E2E2E2E2E2E2E2E2BEBEE2E2E2E2E2E2E2E2E2E2E2E2E2E2E2E2E2E2E2E2E2E2E2E2E2E2BEBEBEE2E2E2E2E2E2E2E2E2E2E2E2E2E2E2E2E2E2E2E2E2E2E2E2E2E2E2E2E2E2
310
E2E2E2E2E2E2E2E2E2E2E2E2E2E2E2E2E2E2E2E2E2E2E2E2E2E2E2E2E2E2E2E2E2E2E2E2E2E2E2E2E2E2E2E2E2E2E2E2E2E2E2E2E2E2E2E2E2E2E2E2E2E2E2E2E2E2E2E2E2E2E2E2E2E2E2E2E2E2E2E2E2E2E2E2E2E2E2E2E2E2E2E2E2E2E2E2E2E2E2E2E2E2E2E2E2E2E2E2E2E2E2E2E2E2E2E2E2E2E2E2E2E2E2E2E2E2E2
310
E2E2E2E2E2E2E2E2E2E2E2E2E2E2E2E2E2E2E2E2E2E2E2E2E2E2E2E2E2E2E2E2E2E2E2E2E2E2E2E2E2E2E2E2E2E2E2E2E2E2E2E2E2E2E2E2E2E2E2E2E2E2E2E2E2E2E2E2E2BEE2E2E2E2E2E2E2E2E2E2E2E2E2E2E2E2E2E2E2E2E2E2E2E2E2E2E2BEE2E2E2E2E2E2E2E2E2E2E2E2E2E2E2E2E2E2E2E2E2E2E2E2E2E2E2E2E2
310
E2E2E2E2E2E2E2E2E2E2E2E2E2E2E2E2E2E2E2E2E2E2E2E2E2E2E2E2E2E2E2E2E2E2E2E2E2E2E2E2E2E2E2E2E2E2E2E2E2E2E2E2E2E2E2E2E2E2E2E2E2E2E2E2E2E2E2E2E2E2E2E2E2E2E2E2E2E2E2E2E2E2E2E2E2E2E2E2E2E2E2E2E2E2E2E2E2E2E2E2E2E2E2E2E2E2E2E2E2E2E2E2E2E2E2E2E2E2E2E2E2E2E2E2E2E2E2
310
E2E2E2E2E2E2E2E2E2E2E2E2E2E2E2E2E2E2E2E2E2E2E2E2E2E2E2E2E2E2E2E2E2E2E2E2E2E2E2E2E2E2E2E2E2E2E2E2E2E2E2E2E2E2E2E2E2E2E2E2E2E2E2E2E2E2E2E2E2E2E2BEE2E2E2E2E2E2E2E2E2E2E2E2E2E2E2E2E2E2E2E2E2E2E2E2E2E2E2BEE2E2E2E2E2E2E2E2E2E2E2E2E2E2E2E2E2E2E2E2E2E2E2E2E2E2E2
310
E2E2E2E2E2E2E2E2E2E2E2E2E2E2E2E2E2E2E2E2E2E2E2E2E2E2E2E2E2E2E2E2E2E2E2E2E2E2E2E2E2E2E2E2E2E2E2E2E2E2E2E2E2E2E2E2E2E2E2E2E2E2E2E2E2E2E2E2E2E2E2E2E2E2E2E2E2E2E2E2E2E2E2E2E2E2E2E2E2E2E2E2E2E2E2E2E2E2E2E2E2E2E2E2E2E2E2E2E2E2E2E2E2E2E2E2E2E2E2E2E2E2E2E2E2E2E2
310
E2E2E2E2E2E2E2E2E2E2E2E2E2E2E2E2E2E2E2E2E2E2E2E2E2E2E2E2E2E2E2E2E2E2E2E2E2E2E2E2E2E2E2E2E2E2E2E2E2E2E2E2E2E2E2E2E2E2E2E2E2E2E2E2E2E2E2E2E2E2E2E2E2E2E2E2E2E2E2E2E2E2E2E2E2E2E2E2E2E2E2E2E2E2E2E2E2E2E2E2E2E2E2E2E2E2E2E2E2E2E2E2E2E2E2E2E2E2E2E2E2E2E2E2E2E2E2
310
E2E2E2E2E2E2E2E2E2E2E2E2E2E2E2E2E2E2E2E2E2E2E2E2E2E2E2E2E2E2E2E2E2E2E2E2E2E2E2E2E2E2E2E2E2E2E2E2E2E2E2E2E2E2E2E2E2E2E2E2E2E2E2E2E2E2E2E2E2E2E2E2E2E2E2E2E2E2E2E2E2E2E2E2E2E2E2E2E2E2E2E2E2E2E2E2E2E2E2E2E2E2E2E2E2E2E2E2E2E2E2E2E2E2E2E2E2E2E2E2E2E2E2E2E2E2E2
310
E2E2E2E2E2E2E2E2E2E2E2E2E2E2E2E2E2E2E2E2E2E2E2E2E2E2E2E2E2E2E2E2E2E2E2E2E2E2E2E2E2E2E2E2E2E2E2E2E2E2E2E2E2E2E2E2E2E2E2E2E2E2E2E2E2E2E2E2E2E2E2E2E2E2E2E2E2E2E2E2E2E2E2E2E2E2E2E2E2E2E2E2E2E2E2E2E2E2E2E2E2E2E2E2E2E2E2E2E2E2E2E2E2E2E2E2E2E2E2E2E2E2E2E2E2E2E2
310
E2E2E2E2E2E2E2E2E2E2E2E2E2E2E2E2E2E2E2E2E2E2E2E2E2E2E2E2E2E2E2E2E2E2E2E2E2E2E2E2E2E2E2E2E2E2E2E2E2E2E2E2E2E2E2E2E2E2E2E2E2E2E2E2E2E2E2E2E2E2E2E2E2E2E2E2E2E2E2E2E2E2E2E2E2E2E2E2E2E2E2E2E2E2E2E2E2E2E2E2E2E2E2E2E2E2E2E2E2E2E2E2E2E2E2E2E2E2E2E2E2E2E2E2E2E2E2
310
E2E2E2E2E2E2E2E2E2E2E2E2E2E2E2E2E2E2E2E2E2E2E2E2E2E2E2E2E2E2E2E2E2E2E2E2E2E2E2E2E2E2E2E2E2E2E2E2E2E2E2E2E2E2E2E2E2E2E2E2E2E2E2E2E2E2E2E2E2E2E2E2E2E2E2E2E2E2E2E2E2E2E2E2E2E2E2E2E2E2E2E2E2E2E2E2E2E2E2E2E2E2E2E2E2E2E2E2E2E2E2E2E2E2E2E2E2E2E2E2E2E2E2E2E2E2E2
310
E2E2E2E2E2E2E2E2E2E2E2E2E2E2E2E2E2E2E2E2E2E2E2E2E2E2E2E2E2E2E2E2E2E2E2E2E2E2E2E2E2E2E2E2E2E2E2E2E2E2E2E2E2E2E2E2E2E2E2E2E2E2E2E2E2E2E2E2E2E2E2E2E2E2E2E2E2E2E2E2E2E2E2E2E2E2E2E2E2E2E2E2E2E2E2E2E2E2E2E2E2E2E2E2E2E2E2E2E2E2E2E2E2E2E2E2E2E2E2E2E2
  0
XRECORD
  5
17D5F
102
{ACAD_REACTORS
330
D2AB
102
}
330
D2AB
100
AcDbXrecord
280
     1
102
SHADEPLOT
 70
     1
102
SHADEPLOTRESLEVEL
 70
     2
102
SHADEPLOTCUSTOMDPI
 70
   300
  0
XRECORD
  5
D2AC
102
{ACAD_REACTORS
330
D2AB
102
}
330
D2AB
100
AcDbXrecord
280
     1
310
28000000B40000007F00000001000800000000004C590000000000000000000000010000000000003F3F3F0000000000FFFFFF000000000000000000000000000000000000000000000000000000000000000000330000006600000099000000CC000000FF00000000330000333300006633000099330000CC330000FF3300
310
0000660000336600006666000099660000CC660000FF66000000990000339900006699000099990000CC990000FF99000000CC000033CC000066CC000099CC0000CCCC0000FFCC000000FF000033FF000066FF000099FF0000CCFF0000FFFF000000003300330033006600330099003300CC003300FF003300003333003333
310
33006633330099333300CC333300FF33330000663300336633006666330099663300CC663300FF66330000993300339933006699330099993300CC993300FF99330000CC330033CC330066CC330099CC3300CCCC3300FFCC330000FF330033FF330066FF330099FF3300CCFF3300FFFF330000006600330066006600660099
310
006600CC006600FF00660000336600333366006633660099336600CC336600FF33660000666600336666006666660099666600CC666600FF66660000996600339966006699660099996600CC996600FF99660000CC660033CC660066CC660099CC6600CCCC6600FFCC660000FF660033FF660066FF660099FF6600CCFF6600
310
FFFF660000009900330099006600990099009900CC009900FF00990000339900333399006633990099339900CC339900FF33990000669900336699006666990099669900CC669900FF66990000999900339999006699990099999900CC999900FF99990000CC990033CC990066CC990099CC9900CCCC9900FFCC990000FF99
310
0033FF990066FF990099FF9900CCFF9900FFFF99000000CC003300CC006600CC009900CC00CC00CC00FF00CC000033CC003333CC006633CC009933CC00CC33CC00FF33CC000066CC003366CC006666CC009966CC00CC66CC00FF66CC000099CC003399CC006699CC009999CC00CC99CC00FF99CC0000CCCC0033CCCC0066CC
310
CC0099CCCC00CCCCCC00FFCCCC0000FFCC0033FFCC0066FFCC0099FFCC00CCFFCC00FFFFCC000000FF003300FF006600FF009900FF00CC00FF00FF00FF000033FF003333FF006633FF009933FF00CC33FF00FF33FF000066FF003366FF006666FF009966FF00CC66FF00FF66FF000099FF003399FF006699FF009999FF00CC
310
99FF00FF99FF0000CCFF0033CCFF0066CCFF0099CCFF00CCCCFF00FFCCFF0000FFFF0033FFFF0066FFFF0099FFFF00CCFFFF00FFFFFF00000000000D0D0D001A1A1A00282828003535350043434300505050005D5D5D006B6B6B00787878008686860093939300A1A1A100AEAEAE00BBBBBB00C9C9C900D6D6D600E4E4E400
310
F1F1F100FFFFFF0000000000000000000000000000000000000000000000000000000000000000000000000000000000E7E7E7E7E7E7E7E7E7E7E7E7E7E7E7E7E7E7E7E7E7E7E7E7E7E7E7E7E7E7E7E7E7E7E7E7E7E7E7E7E7E7E7E7E7E7E7E7E7E7E7E7E7E7E7E7E7E7E7E7E7E7E7E7E7E7E7E7E7E7E7E7E7E7E7E7E7E7E7
310
E7E7E7E7E7E7E7E7E7E7E7E7E7E7E7E7E7E7E7E7E7E7E7E7E7E7E7E7E7E7E7E7E7E7E7E7E7E7E7E7E7E7E7E7E7E7E7E7E7E7E7E7E7E7E7E7E7E7E7E7E7E7E7E7E7E7E7E7E7E7E7E7E7E7E7E7E7E7E7E7E7E7E7E7E7E7E7E7E7E7E7E7E7E7E7E7E7E7E7E7E7E7E7E7E7E7E7E7E7E7E7E7E7E7E7E7E7E7E7E7E7E7E7E7E7E7E7
310
E7E7E7E7E7E7E7E7E7E7E7E7E7E7E7E7E7E7E7E7E7E7E7E7E7E7E7E7E7E7E7E7E7E7E7E7E7E7E7E7E7E7E7E7E7E7E7E7E7E7E7E7E7E7E7E7E7E7E7E7E7E7E7E7E7E7E7E7E7E7E7E7E7E7E7E7E7E7E7E7E7E7E7E7E7E7E7E7E7E7E7E7E7E7E7E7E7E7E7E7E7E7E7E7E7E7E7E7E7E7E7E7E7E7E7E7E7E7E7E7E7E7E7E7E7E7E7
310
E7E7E7E7E7E7E7E7E7E7E7E7E7E7E7E7E7E7E7E7E7E7E7E7E7E7E7E7E7E7E7E7E7E7E7E7E7E7E7E7E7E7E7E7E7E7E7E7E7E7E7E7E7E7E7E7E7E7E7E7E7E7E7E7E7E7E7E7E7E7E7E7E7E7E7E7E7E7E7E7E7E7E7E7E7E7E7E7E7E7E7E7E7E7E7E7E7E7E7E7E7E7E7E7E7E7E7E7E7E7E7E7E7E7E7E7E7E7E7E7E7E7E7E7E7E7E7
310
E7E7E7E7E7E7E7E7E7E7E7E7E7E7E7E7E7E7E7E7E7E7E7E7E7E7E7E7E7E7E7E7E7E7E7E7E7E7E7E7E7E7E7E7E7E7E7E7E7E7E7E7E7E7E7E7E7E7E7E7E7E7E7E7E7E7E7E7E7E7E7E7E7E7E7E7E7E7E7E7E7E7E7E7E7E7E7E7E7E7E7E7E7E7E7E7E7E7E7E7E7E7E7E7E7E7E7E7E7E7E7E7E7E7E7E7E7E7E7E7E7E7E7E7E7E7E7
310
E7E7E7E7E7E7E7E7E7E7E7E7E7E7E7E7E7E7E7E7E7E7E7E7E7E7E7E7E7E7E7E7E7E7E7E7E7E7E7E7E7E7E7E7E7E7E7E7E7E7E7E7E7E7E7E7E7E7E7E7E7E7E7E7E7E7E7E7E7E7E7E7E7E7E7E7E7E7E7E7E7E7E7E7E7E7E7E7E7E7E7E7E7E7E7E7E7E7E7E7E7E7E7E7E7E7E7E7E7E7E7E7E7E7E7E7E7E7E7E7E7E7E7E7E7E7E7
310
E7E7E7E7E7E7E7E7E7E7E7E7E7E7E7E7E7E7E7E7E7E7E7E7E7E7E7E7E7E7E7E7E7E7E7E7E7E7E7E7E7E7E7E7E7E7E7E7E7E7E7E7E7E7E7E7E7E7E7E7E7E7E7E7E7E7E7E7E7E7E7E7E7E7E7E7E7E7E7E7E7E7E7E7E7E7E7E7E7E7E7E7E7E7E7E7E7E7E7E7E7E7E7E7E7E7E7E7E7E7E7E7E7E7E7E7E7E7E7E7E7E7E7E7E7E7E7
310
E7E7E7E7E7E7E7E7E7E7E7E7E7E7E7E7E7E7E7E7E7E7E7E7E7E7E7E7E7E7E7E7E7E7E7E7E7E7E7E7E7E7E7E7E7E7E7E7E7E7E7E7E7E7E7E7E7E7E7E7E7E7E7E7E7E7E7E7E7E7E7E7E7E7E7E7E7E7E7E7E7E7E7E7E7E7E7E7E7E7E7E7E7E7E7E7E7E7E7E7E7E7E7E7E7E7E7E7E7E7E7E7E7E7E7E7E7E7E7E7E7E7E7E7E7E7E7
310
E7E7E7E7E7E7E7E7E7E7E7E7E7E7E7E7E7E7E7E7E7E7E7E7E7E7E7E7E7E7E7E7E7E7E7E7E7E7E7E7E7E7E7E7E7E7E7E7E7E7E7E7E7E7E7E7E7E7E7E7E7E7E7E7E7E7E7E7E7E7E7E7E7E7E7E7E7E7E7E7E7E7E7E7E7E7E7E7E7E7E7E7E7E7E7E7E7E7E7E7E7E7E7E7E7E7E7E7E7E7E7E7E7E7E7E7E7E7E7E7E7E7E7E7E7E7E7
310
E7E7E7E7E7E7E7E7E7E7E7E7E7E7E7E7E7E7E7E7E7E7E7E7E7E7E7E7E7E7E7E7E7E7E7E7E7E7E7E7E7E7E7E7E7E7E7E7E7E7E7E7E7E7E7E7E7E7E7E7E7E7E7E7E7E7E7E7E7E7E7E7E7E7E7E7E7E7E7E7E7E7E7E7E7E7E7E7E7E7E7E7E7E7E7E7E7E7E7E7E7E7E7E7E7E7E7E7E7E7E7E7E7E7E7E7E7E7E7E7E7E7E7E7E7E7E7
310
E7E7E7E7E7E7E7E7E7E7E7E7E7E7E7E7E7E7E7E7E7E7E7E7E7E7E7E7E7E7E7E7E7E7E7E7E7E7E7E7E7E7E7E7E7E7E7E7E7E7E7E7E7E7E7E7E7E7E7E7E7E7E7E7E7E7E7E7E7E7E7E7E7E7E7E7E7E7E7E7E7E7E7E7E7E7E7E7E7E7E7E7E7E7E7E7E7E7E7E7E7E7E7E7E7E7E7E7E7E7E7E7E7E7E7E7E7E7E7E7E7E7E7E7E7E7E7
310
E7E7E7E7E7E7E7E7E7E7E7E7E7E7E7E7E7E7E7E7E7E7E7E7E7E7E7E7E7E7E7E7E7E7E7E7E7E7E7E7E7E7E7E7E7E7E7E7E7E7E7E7E7E7E7E7E7E7E7E7E7E7E7E7E7E7E7E7E7E7E7E7E7E7E7E7E7E7E7E7E7E7E7E7E7E7E7E7E7E7E7E7E7E7E7E7E7E7E7E7E7E7E7E7E7E7E7E7E7E7E7E7E7E7E7E7E7E7E7E7E7E7E7E7E7E7E7
310
E7E7E7E7E7E7E7E7E7E7E7E7E7E7E7E7E7E7E7E7E7E7E7E7E7E7E7E7E7E7E7E7E7E7E7E7E7E7E7E7E7E7E7E7E7E7E7E7E7E7E7E7E7E7E7E7E7E7E7E7E7E7E7E7E7E7E7E7E7E7E7E7E7E7E7E7E7E7E7E7E7E7E7E7E7E7E7E7E7E7E7E7E7E7E7E7E7E7E7E7E7E7E7E7E7E7E7E7E7E7E7E7E7E7E7E7E7E7E7E7E7E7E7E7E7E7E7
310
E7E7E7E7E7E7E7E7E7E7E7E7E7E7E7E7E7E7E7E7E7E7E7E7E7E7E7E7E7E7E7E7E7E7E7E7E7E7E7E7E7E7E7E7E7E7E7E7E7E7E7E7E7E7E7E7E7E7E7E7E7E7E7E7E7E7E7E7E7E7E7E7E7E7E7E7E7E7E7E7E7E7E7E7E7E7E7E7E7E7E7E7E7E7E7E7E7E7E7E7E7E7E7E7E7E7E7E7E7E7E7E7E7E7E7E7E7E7E7E7E7E7E7E7E7E7E7
310
E7E7E7E7E7E7E7E7E7E7E7E7E7E7E7E7E7E7E7E7E7E7E7E7E7E7E7E7E7E7E7E7E7E7E7E7E7E7E7E7E7E7E7E7E7E7E7E7E7E7E7E7E7E7E7E7E7E7E7E7E7E7E7E7E7E7E7E7E7E7E7E7E7E7E7E7E7E7E7E7E7E7E7E7E7E7E7E7E7E7E7E7E7E7E7E7E7E7E7E7E7E7E7E7E7E7E7E7E7E7E7E7E7E7E7E7E7E7E7E7E7E7E7E7E7E7E7
310
E7E7E7E7E7E7E7E7E7E7E7E7E7E7E7E7E7E7E7E7E7E7E7E7E7E7E7E7E7E7E7E7E7E7E7E7E7E7E7E7E7E7E7E7E7E7E7E7E7E7E7E7E7E7E7E7E7E7E7E7E7E7E7E7E7E7E7E7E7E7E7E7E7E7E7E7E7E7E7E7E7E7E7E7E7E7E7E7E7E7E7E7E7E7E7E7E7E7E7E7E7E7E7E7E7E7E7E7E7E7E7E7E7E7E7E7E7E7E7E7E7E7E7E7E7E7E7
310
E7E7E7E7E7E7E7E7E7E7E7E7E7E7E7E7E7E7E7E7E7E7E7E7E7E7E7E7E7E7E7E7E7E7E7E7E7E7E7E7E7E7E7E7E7E7E7E7E7E7E7E7E7E7E7E7E7E7E7E7E7E7E7E7E7E7E7E7E7E7E7E7E7E7E7E7E7E7E7E7E7E7E7E7E7E7E7E7E7E7E7E7E7E7E7E7E7E7E7E7E7E7E7E7E7E7E7E7E7E7E7E7E7E7E7E7E7E7E7E7E7E7E7E7E7E7E7
310
E7E7E7E7E7E7E7E7E7E7E7E7E7E7E7E7E7E7E7E7E7E7E7E7E7E7E7E7E7E7E7E7E7E7E7E7E7E7E7E7E7E7E7E7E7E7E7E7E7E7E7E7E7E7E7E7E7E7E7E7E7E7E7E7E7E7E7E7E7E7E7E7E7E7E7E7E7E7E7E7E7E7E7E7E7E7E7E7E7E7E7E7E7E7E7E7E7E7E7E7E7E7E7E7E7E7E7E7E7E7E7E7E7E7E7E7E7E7E7E7E7E7E7E7E7E7E7
310
E7E7E7E7E7E7E7E7E7E7E7E7E7E7E7E7E7E7E7E7E7E7E7E7E7E7E7E7E7E7E7E7E7E7E7E7E7E7E7E7E7E7E7E7E7E7E7E7E7E7E7E7E7E7E7E7E7E7E7E7E7E7E7E7E7E7E7E7E7E7E7E7E7E7E7E7E7E7E7E7E7E7E7E7E7E7E7E7E7E7E7E7E7E7E7E7E7E7E7E7E7E7E7E7E7E7E7E7E7E7E7E7E7E7E7E7E7E7E7E7E7E7E7E7E7E7E7
310
E7E7E7E7E7E7E7E7E7E7E7E7E7E7E7E7E7E7E7E7E7E7E7E7E7E7E7E7E7E7E7E7E7E7E7E7E7E7E7E7E7E7E7E7E7E7E7E7E7E7E7E7E7E7E7E7E7E7E7E7E7E7E7E7E7E7E7E7E7E7E7E7E7E7E7E7E7E7E7E7E7E7E7E7E7E7E7E7E7E7E7E7E7E7E7E7E7E7E7E7E7E7E7E7E7E7E7E7E7E7E7E7E7E7E7E7E7E7E7E7E7E7E7E7E7E7E7
310
E7E7E7E7E7E7E7E7E7E7E7E7E7E7E7E7E7E7E7E7E7E7E7E7E7E7E7E7E7E7E7E7E7E7E7E7E7E7E7E7E7E7E7E7E7E7E7E7E7E7E7E7E7E7E7E7E7E7E7E7E7E7E7E7E7E7E7E7E7E7E7E7E7E7E7E7E7E7E7E7E7E7E7E7E7E7E7E7E7E7E7E7E7E7E7E7E7E7E7E7E7E7E7E7E7E7E7E7E7E7E7E7E7E7E7E7E7E7E7E7E7E7E7E7E7E7E7
310
E7E7E7E7E7E7E7E7E7E7E7E7E7E7E7E7E7E7E7E7E7E7E7E7E7E7E7E7E7E7E7E7E7E7E7E7E7E7E7E7E7E7E7E7E7E7E7E7E7E7E7E7E7E7E7E7E7E7E7E7E7E7E7E7E7E7E7E7E7E7E7E7E7E7E7E7E7E7E7E7E7E7E7E7E7E7E7E7E7E7E7E7E7E7E7E7E7E7E7E7E7E7E7E7E7E7E7E7E7E7E7E7E7E7E7E7E7E7E7E7E7E7E7E7E7E7E7
310
E7E7E7E7E7E7E7E7E7E7E7E7E7E7E7E7E7E7E7E7E7E7E7E7E7E7E7E7E7E7E7E7E7E7E7E7E7E7E7E7E7E7E7E7E7E7E7E7E7E7E7E7E7E7E7E7E7E7E7E7E7E7E7E7E7E7E7E7E7E7E7E7E7E7E7E7E7E7E7E7E7E7E7E7E7E7E7E7E7E7E7E7E7E7E7E7E7E7E7E7E7E7E7E7E7E7E7E7E7E7E7E7E7E7E7E7E7E7E7E7E7E7E7E7E7E7E7
310
E7E7E7E7E7E7E7E7E7E7E7E7E7E7E7E7E7E7E7E7E7E7E7E7E7E7E7E7E7E7E7E7E7E7E7E7E7E7E7E7E7E7E7E7E7E7E7E7E7E7E7E7E7E7E7E7E7E7E7E7E7E7E7E7E7E7E7E7E7E7E7E7E7E7E7E7E7E7E7E7E7E7E7E7E7E7E7E7E7E7E7E7E7E7E7E7E7E7E7E7E7E7E7E7E7E7E7E7E7E7E7E7E7E7E7E7E7E7E7E7E7E7E7E7E7E7E7
310
E7E7E7E7E7E7E7E7E7E7E7E7E7E7E7E7E7E7E7E7E7E7E7E7E7E7E7E7E7E7E7E7E7E7E7E7E7E7E7E7E7E7E7E7E7E7E7E7E7E7E7E7E7E7E7E7E7E7E7E7E7E7E7E7E7E7E7E7E7E7E7E7E7E7E7E7E7E7E7E7E7E7E7E7E7E7E7E7E7E7E7E7E7E7E7E7E7E7E7E7E7E7E7E7E7E7E7E7E7E7E7E7E7E7E7E7E7E7E7E7E7E7E7E7E7E7E7
310
E7E7E7E7E7E7E7E7E7E7E7E7E7E7E7E7E7E7E7E7E7E7E7E7E7E7E7E7E7E7E7E7E7E7E7E7E7E7E7E7E7E7E7E7E7E7E7E7E7E7E7E7E7E7E7E7E7E7E7E7E7E7E7E7E7E7E7E7E7E7E7E7E7E7E7E7E7E7E7E7E7E7E7E7E7E7E7E7E7E7E7E7E7E7E7E7E7E7E7E7E7E7E7E7E7E7E7E7E7E7E7E7E7E7E7E7E7E7E7E7E7E7E7E7E7E7E7
310
E7E7E7E7E7E7E7E7E7E7E7E7E7E7E7E7E7E7E7E7E7E7E7E7E7E7E7E7E7E7E7E7E7E7E7E7E7E7E7E7E7E7E7E7E7E7E7E7E7E7E7E7E7E7E7E7E7E7E7E7E7E7E7E7E7E7E7E7E7E7E7E7E7E7E7E7E7E7E7E7E7E7E7E7E7E7E7E7E7E7E7E7E7E7E7E7E7E7E7E7E7E7E7E7E7E7E7E7E7E7E7E7E7E7E7E7E7E7E7E7E7E7E7E7E7E7E7
310
E7E7E7E7E7E7E7E7E7E7E7E7E7E7E7E7E7E7E7E7E7E7E7E7E7E7E7E7E7E7E7E7E7E7E7E7E7E7E7E7E7E7E7E7E7E7E7E7E7E7E7E7E7E7E7E7E7E7E7E7E7E7E7E7E7E7E7E7E7E7E7E7E7E7E7E7E7E7E7E7E7E7E7E7E7E7E7E7E7E7E7E7E7E7E7E7E7E7E7E7E7E7E7E7E7E7E7E7E7E7E7E7E7E7E7E7E7E7E7E7E7E7E7E7E7E7E7
310
E7E7E7E7E7E7E7E7E7E7E7E7E7E7E7E7E7E7E7E7E7E7E7E7E7E7E7E7E7E7E7E7E7E7E7E7E7E7E7E7E7E7E7E7E7E7E7E7E7E7E7E7E7E7E7E7E7E7E7E7E7E7E7E7E7E7E7E7E7E7E7E7E7E7E7E7E7E7E7E7E7E7E7E7E7E7E7E7E7E7E7E7E7E7E7E7E7E7E7E7E7E7E7E7E7E7E7E7E7E7E7E7E7E7E7E7E7E7E7E7E7E7E7E7E7E7E7
310
E7E7E7E7E7E7E7E7E7E7E7E7E7E7E7E7E7E7E7E7E7E7E7E7E7E7E7E7E7E7E7E7E7E7E7E7E7E7E7E7E7E7E7E7E7E7E7E7E7E7E7E7E7E7E7E7E7E7E7E7E7E7E7E7E7E7E7E7E7E7E7E7E7E7E7E7E7E7E7E7E7E7E7E7E7E7E7E7E7E7E7E7E7E7E7E7E7E7E7E7E7E7E7E7E7E7E7E7E7E7E7E7E7E7E7E7E7E7E7E7E7E7E7E7E7E7E7
310
E7E7E7E7E7E7E7E7E7E7E7E7E7E7E7E7E7E7E7E7E7E7E7E7E7E7E7E7E7E7E7E7E7E7E7E7E7E7E7E7E7E7E7E7E7E7E7E7E7E7E7E7E7E7E7E7E7E7E7E7E7E7E7E7E7E7E7E7E7E7E7E7E7E7E7E7E7E7E7E7E7E7E7E7E7E7E7E7E7E7E7E7E7E7E7E7E7E7E7E7E7E7E7E7E7E7E7E7E7E7E7E7E7E7E7E7E7E7E7E7E7E7E7E7E7E7E7
310
E7E7E7E7E7E7E7E7E7E7E7E7E7E7E7E7E7E7E7E7E7E7E7E7E7E7E7E7E7E7E7E7E7E7E7E7E7E7E7E7E7E7E7E7E7E7E7E7E7E7E7E7E7E7E7E7E7E7E7E7E7E7E7E7E7E7E7E7E7E7E7E7E7E7E7E7E7E7E7E7E7E7E7E7E7E7E7E7E7E7E7E7E7E7E7E7E7E7E7E7E7E7E7E7E7E7E7E7E7E7E7E7E7E7E7E7E7E7E7E7E7E7E7E7E7E7E7
310
E7E7E7E7E7E7E7E7E7E7E7E7E7E7E7E7E7E7E7E7E7E7E7E7E7E7E7E7E7E7E7E7E7E7E7E7E7E7E7E7E7E7E7E7E7E7E7E7E7E7E7E7E7E7E7E7E7E7E7E7E7E7E7E7E7E7E7E7E7E7E7E7E7E7E7E7E7E7E7E7E7E7E7E7E7E7E7E7E7E7E7E7E7E7E7E7E7E7E7E7E7E7E7E7E7E7E7E7E7E7E7E7E7E7E7E7E7E7E7E7E7E7E7E7E7E7E7
310
E7E7E7E7E7E7E7E7E7E7E7E7E7E7E7E7E7E7E7E7E7E7E7E7E7E7E7E7E7E7E7E7E7E7E7E7E7E7E7E7E7E7E7E7E7E7E7E7E7E7E7E7E7E7E7E7E7E7E7E7E7E7E7E7E7E7E7E7E7E7E7E7E7E7E7E7E7E7E7E7E7E7E7E7E7E7E7E7E7E7E7E7E7E7E7E7E7E7E7E7E7E7E7E7E7E7E7E7E7E7E7E7E7E7E7E7E7E7E7E7E7E7E7E7E7E7E7
310
E7E7E7E7E7E7E7E7E7E7E7E7E7E7E7E7E7E7E7E7E7E7E7E7E7E7E7E7E7E7E7E7E7E7E7E7E7E7E7E7E7E7E7E7E7E7E7E7E7E7E7E7E7E7E7E7E7E7E7E7E7E7E7E7E7E7E7E7E7E7E7E7E7E7E7E7E7E7E7E7E7E7E7E7E7E7E7E7E7E7E7E7E7E7E7E7E7E7E7E7E7E7E7E7E7E7E7E7E7E7E7E7E7E7E7E7E7E7E7E7E7E7E7E7E7E7E7
310
E7E7E7E7E7E7E7E7E7E7E7E7E7E7E7E7E7E7E7E7E7E7E7E7E7E7E7E7E7E7E7E7E7E7E7E7E7E7E7E7E7E7E7E7E7E7E7E7E7E7E7E7E7E7E7E7E7E7E7E7E7E7E7E7E7E7E7E7E7E7E7E7E7E7E7E7E7E7E7E7E7E7E7E7E7E7E7E7E7E7E7E7E7E7E7E7E7E7E7E7E7E7E7E7E7E7E7E7E7E7E7E7E7E7E7E7E7E7E7E7E7E7E7E7E7E7E7
310
E7E7E7E7E7E7E7E7E7E7E7E7E7E7E7E7E7E7E7E7E7E7E7E7E7E7E7E7E7E7E7E7E7E7E7E7E7E7E7E7E7E7E7E7E7E7E7E7E7E7E7E7E7E7E7E7E7E7E7E7E7E7E7E7E7E7E7E7E7E7E7E7E7E7E7E7E7E7E7E7E7E7E7E7E7E7E7E7E7E7E7E7E7E7E7E7E7E7E7E7E7E7E7E7E7E7E7E7E7E7E7E7E7E7E7E7E7E7E7E7E7E7E7E7E7E7E7
310
E7E7E7E7E7E7E7E7E7E7E7E7E7E7E7E7E7E7E7E7E7E7E7E7E7E7E7E7E7E7E7E7E7E7E7E7E7E7E7E7E7E7E7E7E7E7E7E7E7E7E7E7E7E7E7E7E7E7E7E7E7E7E7E7E7E7E7E7E7E7E7E7E7E7E7E7E7E7E7E7E7E7E7E7E7E7E7E7E7E7E7E7E7E7E7E7E7E7E7E7E7E7E7E7E7E7E7E7E7E7E7E7E7E7E7E7E7E7E7E7E7E7E7E7E7E7E7
310
E7E7E7E7E7E7E7E7E7E7E7E7E7E7E7E7E7E7E7E7E7E7E7E7E7E7E7E7E7E7E7E7E7E7E7E7E7E7E7E7E7E7E7E7E7E7E7E7E7E7E7E7E7E7E7E7E7E7E7E7E7E7E7E7E7E7E7E7E7E7E7E7E7E7E7E7E7E7E7E7E7E7E7E7E7E7E7E7E7E7E7E7E7E7E7E7E7E7E7E7E7E7E7E7E7E7E7E7E7E7E7E7E7E7E7E7E7E7E7E7E7E7E7E7E7E7E7
310
E7E7E7E7E7E7E7E7E7E7E7E7E7E7E7E7E7E7E7E7E7E7E7E7E7E7E7E7E7E7E7E7E7E7E7E7E7E7E7E7E7E7E7E7E7E7E7E7E7E7E7E7E7E7E7E7E7E7E7E7E7E7E7E7E7E7E7E7E7E7E7E7E7E7E7E7E7E7E7E7E7E7E7E7E7E7E7E7E7E7E7E7E7E7E7E7E7E7E7E7E7E7E7E7E7E7E7E7E7E7E7E7E7E7E7E7E7E7E7E7E7E7E7E7E7E7E7
310
E7E7E7E7E7E7E7E7E7E7E7E7E7E7E7E7E7E7E7E7E7E7E7E7E7E7E7E7E7E7E7E7E7E7E7E7E7E7E7E7E7E7E7E7E7E7E7E7E7E7E7E7E7E7E7E7E7E7E7E7E7E7E7E7E7E7E7E7E7E7E7E7E7E7E7E7E7E7E7E7E7E7E7E7E7E7E7E7E7E7E7E7E7E7E7E7E7E7E7E7E7E7E7E7E7E7E7E7E7E7E7E7E7E7E7E7E7E7E7E7E7E7E7E7E7E7E7
310
E7E7E7E7E7E7E7E7E7E7E7E7E7E7E7E7E7E7E7E7E7E7E7E7E7E7E7E7E7E7E7E7E7E7E7E7E7E7E7E7E7E7E7E7E7E7E7E7E7E7E7E7E7E7E7E7E7E7E7E7E7E7E7E7E7E7E7E7E7E7E7E7E7E7E7E7E7E7E7E7E7E7E7E7E7E7E7E7E7E7E7E7E7E7E7E7E7E7E7E7E7E7E7E7E7E7E7E7E7E7E7E7E7E7E7E7E7E7E7E7E7E7E7E7E7E7E7
310
E7E7E7E7E7E7E7E7E7E7E7E7E7E7E7E7E7E7E7E7E7E7E7E7E7E7E7E7E7E7E7E7E7E7E7E7E7E7E7E7E7E7E7E7E7E7E7E7E7E7E7E7E7E7E7E7E7E7E7E7E7E7E7E7E7E7E7E7E7E7E7E7E7E7E7E7E7E7E7E7E7E7E7E7E7E7E7E7E7E7E7E7E7E7E7E7E7E7E7E7E7E7E7E7E7E7E7E7E7E7E7E7E7E7E7E7E7E7E7E7E7E7E7E7E7E7E7
310
E7E7E7E7E7E7E7E7E7E7E7E7E7E7E7E7E7E7E7E7E7E7E7E7E7E7E7E7E7E7E7E7E7E7E7E7E7E7E7E7E7E7E7E7E7E7E7E7E7E7E7E7E7E7E7E7E7E7E7E7E7E7E7E7E7E7E7E7E7E7E7E7E7E7E7E7E7E7E7E7E7E7E7E7E7E7E7E7E7E7E7E7E7E7E7E7E7E7E7E7E7E7E7E7E7E7E7E7E7E7E7E7E7E7E7E7E7E7E7E7E7E7E7E7E7E7E7
310
E7E7E7E7E7E7E7E7E7E7E7E7E7E7E7E7E7E7E7E7E7E7E7E7E7E7E7E7E7E7E7E7E7E7E7E7E7E7E7E7E7E7E7E7E7E7E7E7E7E7E7E7E7E7E7E7E7E7E7E7E7E7E7E7E7E7E7E7E7E7E7E7E7E7E7E7E7E7E7E7E7E7E7E7E7E7E7E7E7E7E7E7E7E7E7E7E7E7E7E7E7E7E7E7E7E7E7E7E7E7E7E7E7E7E7E7E7E7E7E7E7E7E7E7E7E7E7
310
E7E7E7E7E7E7E7E7E7E7E7E7E7E7E7E7E7E7E7E7E7E7E7E7E7E7E7E7E7E7E7E7E7E7E7E7E7E7E7E7E7E7E7E7E7E7E7E7E7E7E7E7E7E7E7E7E7E7E7E7E7E7E7E7E7E7E7E7E7E7E7E7E7E7E7E7E7E7E7E7E7E7E7E7E7E7E7E7E7E7E7E7E7E7E7E7E7E7E7E7E7E7E7E7E7E7E7E7E7E7E7E7E7E7E7E7E7E7E7E7E7E7E7E7E7E7E7
310
E7E7E7E7E7E7E7E7E7E7E7E7E7E7E7E7E7E7E7E7E7E7E7E7E7E7E7E7E7E7E7E7E7E7E7E7E7E7E7E7E7E7E7E7E7E7E7E7E7E7E7E7E7E7E7E7E7E7E7E7E7E7E7E7E7E7E7E7E7E7E7E7E7E7E7E7E7E7E7E7E7E7E7E7E7E7E7E7E7E7E7E7E7E7E7E7E7E7E7E7E7E7E7E7E7E7E7E7E7E7E7E7E7E7E7E7E7E7E7E7E7E7E7E7E7E7E7
310
E7E7E7E7E7E7E7E7E7E7E7E7E7E7E7E7E7E7E7E7E7E7E7E7E7E7E7E7E7E7E7E7E7E7E7E7E7E7E7E7E7E7E7E7E7E7E7E7E7E7E7E7E7E7E7E7E7E7E7E7E7E7E7E7E7E7E7E7E7E7E7E7E7E7E7E7E7E7E7E7E7E7E7E7E7E7E7E7E7E7E7E7E7E7E7E7E7E7E7E7E7E7E7E7E7E7E7E7E7E7E7E7E7E7E7E7E7E7E7E7E7E7E7E7E7E7E7
310
E7E7E7E7E7E7E7E7E7E7E7E7E7E7E7E7E7E7E7E7E7E7E7E7E7E7E7E7E7E7E7E7E7E7E7E7E7E7E7E7E7E7E7E7E7E7E7E7E7E7E7E7E7E7E7E7E7E7E7E7E7E7E7E7E7E7E7E7E7E7E7E7E7E7E7E7E7E7E7E7E7E7E7E7E7E7E7E7E7E7E7E7E7E7E7E7E7E7E7E7E7E7E7E7E7E7E7E7E7E7E7E7E7E7E7E7E7E7E7E7E7E7E7E7E7E7E7
310
E7E7E7E7E7E7E7E7E7E7E7E7E7E7E7E7E7E7E7E7E7E7E7E7E7E7E7E7E7E7E7E7E7E7E7E7E7E7E7E7E7E7E7E7E7E7E7E7E7E7E7E7E7E7E7E7E7E7E7E7E7E7E7E7E7E7E7E7E7E7E7E7E7E7E7E7E7E7E7E7E7E7E7E7E7E7E7E7E7E7E7E7E7E7E7E7E7E7E7E7E7E7E7E7E7E7E7E7E7E7E7E7E7E7E7E7E7E7E7E7E7E7E7E7E7E7E7
310
E7E7E7E7E7E7E7E7E7E7E7E7E7E7E7E7E7E7E7E7E7E7E7E7E7E7E7E7E7E7E7E7E7E7E7E7E7E7E7E7E7E7E7E7E7E7E7E7E7E7E7E7E7E7E7E7E7E7E7E7E7E7E7E7E7E7E7E7E7E7E7E7E7E7E7E7E7E7E7E7E7E7E7E7E7E7E7E7E7E7E7E7E7E7E7E7E7E7E7E7E7E7E7E7E7E7E7E7E7E7E7E7E7E7E7E7E7E7E7E7E7E7E7E7E7E7E7
310
E7E7E7E7E7E7E7E7E7E7E7E7E7E7E7E7E7E7E7E7E7E7E7E7E7E7E7E7E7E7E7E7E7E7E7E7E7E7E7E7E7E7E7E7E7E7E7E7E7E7E7E7E7E7E7E7E7E7E7E7E7E7E7E7E7E7E7E7E7E7E7E7E7E7E7E7E7E7E7E7E7E7E7E7E7E7E7E7E7E7E7E7E7E7E7E7E7E7E7E7E7E7E7E7E7E7E7E7E7E7E7E7E7E7E7E7E7E7E7E7E7E7E7E7E7E7E7
310
E7E7E7E7E7E7E7E7E7E7E7E7E7E7E7E7E7E7E7E7E7E7E7E7E7E7E7E7E7E7E7E7E7E7E7E7E7E7E7E7E7E7E7E7E7E7E7E7E7E7E7E7E7E7E7E7E7E7E7E7E7E7E7E7E7E7E7E7E7E7E7E7E7E7E7E7E7E7E7E7E7E7E7E7E7E7E7E7E7E7E7E7E7E7E7E7E7E7E7E7E7E7E7E7E7E7E7E7E7E7E7E7E7E7E7E7E7E7E7E7E7E7E7E7E7E7E7
310
E7E7E7E7E7E7E7E7E7E7E7E7E7E7E7E7E7E7E7E7E7E7E7E7E7E7E7E7E7E7E7E7E7E7E7E7E7E7E7E7E7E7E7E7E7E7E7E7E7E7E7E7E7E7E7E7E7E7E7E7E7E7E7E7E7E7E7E7E7E7E7E7E7E7E7E7E7E7E7E7E7E7E7E7E7E7E7E7E7E7E7E7E7E7E7E7E7E7E7E7E7E7E7E7E7E7E7E7E7E7E7E7E7E7E7E7E7E7E7E7E7E7E7E7E7E7E7
310
E7E7E7E7E7E7E7E7E7E7E7E7E7E7E7E7E7E7E7E7E7E7E7E7E7E7E7E7E7E7E7E7E7E7E7E7E7E7E7E7E7E7E7E7E7E7E7E7E7E7E7E7E7E7E7E7E7E7E7E7E7E7E7E7E7E7E7E7E7E7E7E7E7E7E7E7E7E7E7E7E7E7E7E7E7E7E7E7E7E7E7E7E7E7E7E7E7E7E7E7E7E7E7E7E7E7E7E7E7E7E7E7E7E7E7E7E7E7E7E7E7E7E7E7E7E7E7
310
E7E7E7E7E7E7E7E7E7E7E7E7E7E7E7E7E7E7E7E7E7E7E7E7E7E7E7E7E7E7E7E7E7E7E7E7E7E7E7E7E7E7E7E7E7E7E7E7E7E7E7E7E7E7E7E7E7E7E7E7E7E7E7E7E7E7E7E7E7E7E7E7E7E7E7E7E7E7E7E7E7E7E7E7E7E7E7E7E7E7E7E7E7E7E7E7E7E7E7E7E7E7E7E7E7E7E7E7E7E7E7E7E7E7E7E7E7E7E7E7E7E7E7E7E7E7E7
310
E7E7E7E7E7E7E7E7E7E7E7E7E7E7E7E7E7E7E7E7E7E7E7E7E7E7E7E7E7E7E7E7E7E7E7E7E7E7E7E7E7E7E7E7E7E7E7E7E7E7E7E7E7E7E7E7E7E7E7E7E7E7E7E7E7E7E7E7E7E7E7E7E7E7E7E7E7E7E7E7E7E7E7E7E7E7E7E7E7E7E7E7E7E7E7E7E7E7E7E7E7E7E7E7E7E7E7E7E7E7E7E7E7E7E7E7E7E7E7E7E7E7E7E7E7E7E7
310
E7E7E7E7E7E7E7E7E7E7E7E7E7E7E7E7E7E7E7E7E7E7E7E7E7E7E7E7E7E7E7E7E7E7E7E7E7E7E7E7E7E7E7E7E7E7E7E7E7E7E7E7E7E7E7E7E7E7E7E7E7E7E7E7E7E7E7E7E7E7E7E7E7E7E7E7E7E7E7E7E7E7E7E7E7E7E7E7E7E7E7E7E7E7E7E7E7E7E7E7E7E7E7E7E7E7E7E7E7E7E7E7E7E7E7E7E7E7E7E7E7E7E7E7E7E7E7
310
E7E7E7E7E7E7E7E7E7E7E7E7E7E7E7E7E7E7E7E7E7E7E7E7E7E7E7E7E7E7E7E7E7E7E7E7E7E7E7E7E7E7E7E7E7E7E7E7E7E7E7E7E7E7E7E7E7E7E7E7E7E7E7E7E7E7E7E7E7E7E7E7E7E7E7E7E7E7E7E7E7E7E7E7E7E7E7E7E7E7E7E7E7E7E7E7E7E7E7E7E7E7E7E7E7E7E7E7E7E7E7E7E7E7E7E7E7E7E7E7E7E7E7E7E7E7E7
310
E7E7E7E7E7E7E7E7E7E7E7E7E7E7E7E7E7E7E7E7E7E7E7E7E7E7E7E7E7E7E7E7E7E7E7E7E7E7E7E7E7E7E7E7E7E7E7E7E7E7E7E7E7E7E7E7E7E7E7E7E7E7E7E7E7E7E7E7E7E7E7E7E7E7E7E7E7E7E7E7E7E7E7E7E7E7E7E7E7E7E7E7E7E7E7E7E7E7E7E7E7E7E7E7E7E7E7E7E7E7E7E7E7E7E7E7E7E7E7E7E7E7E7E7E7E7E7
310
E7E7E7E7E7E7E7E7E7E7E7E7E7E7E7E7E7E7E7E7E7E7E7E7E7E7E7E7E7E7E7E7E7E7E7E7E7E7E7E7E7E7E7E7E7E7E7E7E7E7E7E7E7E7E7E7E7E7E7E7E7E7E7E7E7E7E7E7E7E7E7E7E7E7E7E7E7E7E7E7E7E7E7E7E7E7E7E7E7E7E7E7E7E7E7E7E7E7E7E7E7E7E7E7E7E7E7E7E7E7E7E7E7E7E7E7E7E7E7E7E7E7E7E7E7E7E7
310
E7E7E7E7E7E7E7E7E7E7E7E7E7E7E7E7E7E7E7E7E7E7E7E7E7E7E7E7E7E7E7E7E7E7E7E7E7E7E7E7E7E7E7E7E7E7E7E7E7E7E7E7E7E7E7E7E7E7E7E7E7E7E7E7E7E7E7E7E7E7E7E7E7E7E7E7E7E7E7E7E7E7E7E7E7E7E7E7E7E7E7E7E7E7E7E7E7E7E7E7E7E7E7E7E7E7E7E7E7E7E7E7E7E7E7E7E7E7E7E7E7E7E7E7E7E7E7
310
E7E7E7E7E7E7E7E7E7E7E7E7E7E7E7E7E7E7E7E7E7E7E7E7E7E7E7E7E7E7E7E7E7E7E7E7E7E7E7E7E7E7E7E7E7E7E7E7E7E7E7E7E7E7E7E7E7E7E7E7E7E7E7E7E7E7E7E7E7E7E7E7E7E7E7E7E7E7E7E7E7E7E7E7E7E7E7E7E7E7E7E7E7E7E7E7E7E7E7E7E7E7E7E7E7E7E7E7E7E7E7E7E7E7E7E7E7E7E7E7E7E7E7E7E7E7E7
310
E7E7E7E7E7E7E7E7E7E7E7E7E7E7E7E7E7E7E7E7E7E7E7E7E7E7E7E7E7E7E7E7E7E7E7E7E7E7E7E7E7E7E7E7E7E7E7E7E7E7E7E7E7E7E7E7E7E7E7E7E7E7E7E7E7E7E7E7E7E7E7E7E7E7E7E7E7E7E7E7E7E7E7E7E7E7E7E7E7E7E7E7E7E7E7E7E7E7E7E7E7E7E7E7E7E7E7E7E7E7E7E7E7E7E7E7E7E7E7E7E7E7E7E7E7E7E7
310
E7E7E7E7E7E7E7E7E7E7E7E7E7E7E7E7E7E7E7E7E7E7E7E7E7E7E7E7E7E7E7E7E7E7E7E7E7E7E7E7E7E7E7E7E7E7E7E7E7E7E7E7E7E7E7E7E7E7E7E7E7E7E7E7E7E7E7E7E7E7E7E7E7E7E7E7E7E7E7E7E7E7E7E7E7E7E7E7E7E7E7E7E7E7E7E7E7E7E7E7E7E7E7E7E7E7E7E7E7E7E7E7E7E7E7E7E7E7E7E7E7E7E7E7E7E7E7
310
E7E7E7E7E7E7E7E7E7E7E7E7E7E7E7E7E7E7E7E7E7E7E7E7E7E7E7E7E7E7E7E7E7E7E7E7E7E7E7E7E7E7E7E7E7E7E7E7E7E7E7E7E7E7E7E7E7E7E7E7E7E7E7E7E7E7E7E7E7E7E7E7E7E7E7E7E7E7E7E7E7E7E7E7E7E7E7E7E7E7E7E7E7E7E7E7E7E7E7E7E7E7E7E7E7E7E7E7E7E7E7E7E7E7E7E7E7E7E7E7E7E7E7E7E7E7E7
310
E7E7E7E7E7E7E7E7E7E7E7E7E7E7E7E7E7E7E7E7E7E7E7E7E7E7E7E7E7E7E7E7E7E7E7E7E7E7E7E7E7E7E7E7E7E7E7E7E7E7E7E7E7E7E7E7E7E7E7E7E7E7E7E7E7E7E7E7E7E7E7E7E7E7E7E7E7E7E7E7E7E7E7E7E7E7E7E7E7E7E7E7E7E7E7E7E7E7E7E7E7E7E7E7E7E7E7E7E7E7E7E7E7E7E7E7E7E7E7E7E7E7E7E7E7E7E7
310
E7E7E7E7E7E7E7E7E7E7E7E7E7E7E7E7E7E7E7E7E7E7E7E7E7E7E7E7E7E7E7E7E7E7E7E7E7E7E7E7E7E7E7E7E7E7E7E7E7E7E7E7E7E7E7E7E7E7E7E7E7E7E7E7E7E7E7E7E7E7E7E7E7E7E7E7E7E7E7E7E7E7E7E7E7E7E7E7E7E7E7E7E7E7E7E7E7E7E7E7E7E7E7E7E7E7E7E7E7E7E7E7E7E7E7E7E7E7E7E7E7E7E7E7E7E7E7
310
E7E7E7E7E7E7E7E7E7E7E7E7E7E7E7E7E7E7E7E7E7E7E7E7E7E7E7E7E7E7E7E7E7E7E7E7E7E7E7E7E7E7E7E7E7E7E7E7E7E7E7E7E7E7E7E7E7E7E7E7E7E7E7E7E7E7E7E7E7E7E7E7E7E7E7E7E7E7E7E7E7E7E7E7E7E7E7E7E7E7E7E7E7E7E7E7E7E7E7E7E7E7E7E7E7E7E7E7E7E7E7E7E7E7E7E7E7E7E7E7E7E7E7E7E7E7E7
310
E7E7E7E7E7E7E7E7E7E7E7E7E7E7E7E7E7E7E7E7E7E7E7E7E7E7E7E7E7E7E7E7E7E7E7E7E7E7E7E7E7E7E7E7E7E7E7E7E7E7E7E7E7E7E7E7E7E7E7E7E7E7E7E7E7E7E7E7E7E7E7E7E7E7E7E7E7E7E7E7E7E7E7E7E7E7E7E7E7E7E7E7E7E7E7E7E7E7E7E7E7E7E7E7E7E7E7E7E7E7E7E7E7E7E7E7E7E7E7E7E7E7E7E7E7E7E7
310
E7E7E7E7E7E7E7E7E7E7E7E7E7E7E7E7E7E7E7E7E7E7E7E7E7E7E7E7E7E7E7E7E7E7E7E7E7E7E7E7E7E7E7E7E7E7E7E7E7E7E7E7E7E7E7E7E7E7E7E7E7E7E7E7E7E7E7E7E7E7E7E7E7E7E7E7E7E7E7E7E7E7E7E7E7E7E7E7E7E7E7E7E7E7E7E7E7E7E7E7E7E7E7E7E7E7E7E7E7E7E7E7E7E7E7E7E7E7E7E7E7E7E7E7E7E7E7
310
E7E7E7E7E7E7E7E7E7E7E7E7E7E7E7E7E7E7E7E7E7E7E7E7E7E7E7E7E7E7E7E7E7E7E7E7E7E7E7E7E7E7E7E7E7E7E7E7E7E7E7E7E7E7E7E7E7E7E7E7E7E7E7E7E7E7E7E7E7E7E7E7E7E7E7E7E7E7E7E7E7E7E7E7E7E7E7E7E7E7E7E7E7E7E7E7E7E7E7E7E7E7E7E7E7E7E7E7E7E7E7E7E7E7E7E7E7E7E7E7E7E7E7E7E7E7E7
310
E7E7E7E7E7E7E7E7E7E7E7E7E7E7E7E7E7E7E7E7E7E7E7E7E7E7E7E7E7E7E7E7E7E7E7E7E7E7E7E7E7E7E7E7E7E7E7E7E7E7E7E7E7E7E7E7E7E7E7E7E7E7E7E7E7E7E7E7E7E7E7E7E7E7E7E7E7E7E7E7E7E7E7E7E7E7E7E7E7E7E7E7E7E7E7E7E7E7E7E7E7E7E7E7E7E7E7E7E7E7E7E7E7E7E7E7E7E7E7E7E7E7E7E7E7E7E7
310
E7E7E7E7E7E7E7E7E7E7E7E7E7E7E7E7E7E7E7E7E7E7E7E7E7E7E7E7E7E7E7E7E7E7E7E7E7E7E7E7E7E7E7E7E7E7E7E7E7E7E7E7E7E7E7E7E7E7E7E7E7E7E7E7E7E7E7E7E7E7E7E7E7E7E7E7E7E7E7E7E7E7E7E7E7E7E7E7E7E7E7E7E7E7E7E7E7E7E7E7E7E7E7E7E7E7E7E7E7E7E7E7E7E7E7E7E7E7E7E7E7E7E7E7E7E7E7
310
E7E7E7E7E7E7E7E7E7E7E7E7E7E7E7E7E7E7E7E7E7E7E7E7E7E7E7E7E7E7E7E7E7E7E7E7E7E7E7E7E7E7E7E7E7E7E7E7E7E7E7E7E7E7E7E7E7E7E7E7E7E7E7E7E7E7E7E7E7E7E7E7E7E7E7E7E7E7E7E7E7E7E7E7E7E7E7E7E7E7E7E7E7E7E7E7E7E7E7E7E7E7E7E7E7E7E7E7E7E7E7E7E7E7E7E7E7E7E7E7E7E7E7E7E7E7E7
310
E7E7E7E7E7E7E7E7E7E7E7E7E7E7E7E7E7E7E7E7E7E7E7E7E7E7E7E7E7E7E7E7E7E7E7E7E7E7E7E7E7E7E7E7E7E7E7E7E7E7E7E7E7E7E7E7E7E7E7E7E7E7E7E7E7E7E7E7E7E7E7E7E7E7E7E7E7E7E7E7E7E7E7E7E7E7E7E7E7E7E7E7E7E7E7E7E7E7E7E7E7E7E7E7E7E7E7E7E7E7E7E7E7E7E7E7E7E7E7E7E7E7E7E7E7E7E7
310
E7E7E7E7E7E7E7E7E7E7E7E7E7E7E7E7E7E7E7E7E7E7E7E7E7E7E7E7E7E7E7E7E7E7E7E7E7E7E7E7E7E7E7E7E7E7E7E7E7E7E7E7E7E7E7E7E7E7E7E7E7E7E7E7E7E7E7E7E7E7E7E7E7E7E7E7E7E7E7E7E7E7E7E7E7E7E7E7E7E7E7E7E7E7E7E7E7E7E7E7E7E7E7E7E7E7E7E7E7E7E7E7E7E7E7E7E7E7E7E7E7E7E7E7E7E7E7
310
E7E7E7E7E7E7E7E7E7E7E7E7E7E7E7E7E7E7E7E7E7E7E7E7E7E7E7E7E7E7E7E7E7E7E7E7E7E7E7E7E7E7E7E7E7E7E7E7E7E7E7E7E7E7E7E7E7E7E7E7E7E7E7E7E7E7E7E7E7E7E7E7E7E7E7E7E7E7E7E7E7E7E7E7E7E7E7E7E7E7E7E7E7E7E7E7E7E7E7E7E7E7E7E7E7E7E7E7E7E7E7E7E7E7E7E7E7E7E7E7E7E7E7E7E7E7E7
310
E7E7E7E7E7E7E7E7E7E7E7E7E7E7E7E7E7E7E7E7E7E7E7E7E7E7E7E7E7E7E7E7E7E7E7E7E7E7E7E7E7E7E7E7E7E7E7E7E7E7E7E7E7E7E7E7E7E7E7E7E7E7E7E7E7E7E7E7E7E7E7E7E7E7E7E7E7E7E7E7E7E7E7E7E7E7E7E7E7E7E7E7E7E7E7E7E7E7E7E7E7E7E7E7E7E7E7E7E7E7E7E7E7E7E7E7E7E7E7E7E7E7E7E7E7E7E7
310
E7E7E7E7E7E7E7E7E7E7E7E7E7E7E7E7E7E7E7E7E7E7E7E7E7E7E7E7E7E7E7E7E7E7E7E7E7E7E7E7E7E7E7E7E7E7E7E7E7E7E7E7E7E7E7E7E7E7E7E7E7E7E7E7E7E7E7E7E7E7E7E7E7E7E7E7E7E7E7E7E7E7E7E7E7E7E7E7E7E7E7E7E7E7E7E7E7E7E7E7E7E7E7E7E7E7E7E7E7E7E7E7E7E7E7E7E7E7E7E7E7E7E7E7E7E7E7
310
E7E7E7E7E7E7E7E7E7E7E7E7E7E7E7E7E7E7E7E7E7E7E7E7E7E7E7E7E7E7E7E7E7E7E7E7E7E7E7E7E7E7E7E7E7E7E7E7E7E7E7E7E7E7E7E7E7E7E7E7E7E7E7E7E7E7E7E7E7E7E7E7E7E7E7E7E7E7E7E7E7E7E7E7E7E7E7E7E7E7E7E7E7E7E7E7E7E7E7E7E7E7E7E7E7E7E7E7E7E7E7E7E7E7E7E7E7E7E7E7E7E7E7E7E7E7E7
310
E7E7E7E7E7E7E7E7E7E7E7E7E7E7E7E7E7E7E7E7E7E7E7E7E7E7E7E7E7E7E7E7E7E7E7E7E7E7E7E7E7E7E7E7E7E7E7E7E7E7E7E7E7E7E7E7E7E7E7E7E7E7E7E7E7E7E7E7E7E7E7E7E7E7E7E7E7E7E7E7E7E7E7E7E7E7E7E7E7E7E7E7E7E7E7E7E7E7E7E7E7E7E7E7E7E7E7E7E7E7E7E7E7E7E7E7E7E7E7E7E7E7E7E7E7E7E7
310
E7E7E7E7E7E7E7E7E7E7E7E7E7E7E7E7E7E7E7E7E7E7E7E7E7E7E7E7E7E7E7E7E7E7E7E7E7E7E7E7E7E7E7E7E7E7E7E7E7E7E7E7E7E7E7E7E7E7E7E7E7E7E7E7E7E7E7E7E7E7E7E7E7E7E7E7E7E7E7E7E7E7E7E7E7E7E7E7E7E7E7E7E7E7E7E7E7E7E7E7E7E7E7E7E7E7E7E7E7E7E7E7E7E7E7E7E7E7E7E7E7E7E7E7E7E7E7
310
E7E7E7E7E7E7E7E7E7E7E7E7E7E7E7E7E7E7E7E7E7E7E7E7E7E7E7E7E7E7E7E7E7E7E7E7E7E7E7E7E7E7E7E7E7E7E7E7E7E7E7E7E7E7E7E7E7E7E7E7E7E7E7E7E7E7E7E7E7E7E7E7E7E7E7E7E7E7E7E7E7E7E7E7E7E7E7E7E7E7E7E7E7E7E7E7E7E7E7E7E7E7E7E7E7E7E7E7E7E7E7E7E7E7E7E7E7E7E7E7E7E7E7E7E7E7E7
310
E7E7E7E7E7E7E7E7E7E7E7E7E7E7E7E7E7E7E7E7E7E7E7E7E7E7E7E7E7E7E7E7E7E7E7E7E7E7E7E7E7E7E7E7E7E7E7E7E7E7E7E7E7E7E7E7E7E7E7E7E7E7E7E7E7E7E7E7E7E7E7E7E7E7E7E7E7E7E7E7E7E7E7E7E7E7E7E7E7E7E7E7E7E7E7E7E7E7E7E7E7E7E7E7E7E7E7E7E7E7E7E7E7E7E7E7E7E7E7E7E7E7E7E7E7E7E7
310
E7E7E7E7E7E7E7E7E7E7E7E7E7E7E7E7E7E7E7E7E7E7E7E7E7E7E7E7E7E7E7E7E7E7E7E7E7E7E7E7E7E7E7E7E7E7E7E7E7E7E7E7E7E7E7E7E7E7E7E7E7E7E7E7E7E7E7E7E7E7E7E7E7E7E7E7E7E7E7E7E7E7E7E7E7E7E7E7E7E7E7E7E7E7E7E7E7E7E7E7E7E7E7E7E7E7E7E7E7E7E7E7E7E7E7E7E7E7E7E7E7E7E7E7E7E7E7
310
E7E7E7E7E7E7E7E7E7E7E7E7E7E7E7E7E7E7E7E7E7E7E7E7E7E7E7E7E7E7E7E7E7E7E7E7E7E7E7E7E7E7E7E7E7E7E7E7E7E7E7E7E7E7E7E7E7E7E7E7E7E7E7E7E7E7E7E7E7E7E7E7E7E7E7E7E7E7E7E7E7E7E7E7E7E7E7E7E7E7E7E7E7E7E7E7E7E7E7E7E7E7E7E7E7E7E7E7E7E7E7E7E7E7E7E7E7E7E7E7E7E7E7E7E7E7E7
310
E7E7E7E7E7E7E7E7E7E7E7E7E7E7E7E7E7E7E7E7E7E7E7E7E7E7E7E7E7E7E7E7E7E7E7E7E7E7E7E7E7E7E7E7E7E7E7E7E7E7E7E7E7E7E7E7E7E7E7E7E7E7E7E7E7E7E7E7E7E7E7E7E7E7E7E7E7E7E7E7E7E7E7E7E7E7E7E7E7E7E7E7E7E7E7E7E7E7E7E7E7E7E7E7E7E7E7E7E7E7E7E7E7E7E7E7E7E7E7E7E7E7E7E7E7E7E7
310
E7E7E7E7E7E7E7E7E7E7E7E7E7E7E7E7E7E7E7E7E7E7E7E7E7E7E7E7E7E7E7E7E7E7E7E7E7E7E7E7E7E7E7E7E7E7E7E7E7E7E7E7E7E7E7E7E7E7E7E7E7E7E7E7E7E7E7E7E7E7E7E7E7E7E7E7E7E7E7E7E7E7E7E7E7E7E7E7E7E7E7E7E7E7E7E7E7E7E7E7E7E7E7E7E7E7E7E7E7E7E7E7E7E7E7E7E7E7E7E7E7E7E7E7E7E7E7
310
E7E7E7E7E7E7E7E7E7E7E7E7E7E7E7E7E7E7E7E7E7E7E7E7E7E7E7E7E7E7E7E7E7E7E7E7E7E7E7E7E7E7E7E7E7E7E7E7E7E7E7E7E7E7E7E7E7E7E7E7E7E7E7E7E7E7E7E7E7E7E7E7E7E7E7E7E7E7E7E7E7E7E7E7E7E7E7E7E7E7E7E7E7E7E7E7E7E7E7E7E7E7E7E7E7E7E7E7E7E7E7E7E7E7E7E7E7E7E7E7E7E7E7E7E7E7E7
310
E7E7E7E7E7E7E7E7E7E7E7E7E7E7E7E7E7E7E7E7E7E7E7E7E7E7E7E7E7E7E7E7E7E7E7E7E7E7E7E7E7E7E7E7E7E7E7E7E7E7E7E7E7E7E7E7E7E7E7E7E7E7E7E7E7E7E7E7E7E7E7E7E7E7E7E7E7E7E7E7E7E7E7E7E7E7E7E7E7E7E7E7E7E7E7E7E7E7E7E7E7E7E7E7E7E7E7E7E7E7E7E7E7E7E7E7E7E7E7E7E7E7E7E7E7E7E7
310
E7E7E7E7E7E7E7E7E7E7E7E7E7E7E7E7E7E7E7E7E7E7E7E7E7E7E7E7E7E7E7E7E7E7E7E7E7E7E7E7E7E7E7E7E7E7E7E7E7E7E7E7E7E7E7E7E7E7E7E7E7E7E7E7E7E7E7E7E7E7E7E7E7E7E7E7E7E7E7E7E7E7E7E7E7E7E7E7E7E7E7E7E7E7E7E7E7E7E7E7E7E7E7E7E7E7E7E7E7E7E7E7E7E7E7E7E7E7E7E7E7E7E7E7E7E7E7
310
E7E7E7E7E7E7E7E7E7E7E7E7E7E7E7E7E7E7E7E7E7E7E7E7E7E7E7E7E7E7E7E7E7E7E7E7E7E7E7E7E7E7E7E7E7E7E7E7E7E7E7E7E7E7E7E7E7E7E7E7E7E7E7E7E7E7E7E7E7E7E7E7E7E7E7E7E7E7E7E7E7E7E7E7E7E7E7E7E7E7E7E7E7E7E7E7E7E7E7E7E7E7E7E7E7E7E7E7E7E7E7E7E7E7E7E7E7E7E7E7E7E7E7E7E7E7E7
310
E7E7E7E7E7E7E7E7E7E7E7E7E7E7E7E7E7E7E7E7E7E7E7E7E7E7E7E7E7E7E7E7E7E7E7E7E7E7E7E7E7E7E7E7E7E7E7E7E7E7E7E7E7E7E7E7E7E7E7E7E7E7E7E7E7E7E7E7E7E7E7E7E7E7E7E7E7E7E7E7E7E7E7E7E7E7E7E7E7E7E7E7E7E7E7E7E7E7E7E7E7E7E7E7E7E7E7E7E7E7E7E7E7E7E7E7E7E7E7E7E7E7E7E7E7E7E7
310
E7E7E7E7E7E7E7E7E7E7E7E7E7E7E7E7E7E7E7E7E7E7E7E7E7E7E7E7E7E7E7E7E7E7E7E7E7E7E7E7E7E7E7E7E7E7E7E7E7E7E7E7E7E7E7E7E7E7E7E7E7E7E7E7E7E7E7E7E7E7E7E7E7E7E7E7E7E7E7E7E7E7E7E7E7E7E7E7E7E7E7E7E7E7E7E7E7E7E7E7E7E7E7E7E7E7E7E7E7E7E7E7E7E7E7E7E7E7E7E7E7E7E7E7E7E7E7
310
E7E7E7E7E7E7E7E7E7E7E7E7E7E7E7E7E7E7E7E7E7E7E7E7E7E7E7E7E7E7E7E7E7E7E7E7E7E7E7E7E7E7E7E7E7E7E7E7E7E7E7E7E7E7E7E7E7E7E7E7E7E7E7E7E7E7E7E7E7E7E7E7E7E7E7E7E7E7E7E7E7E7E7E7E7E7E7E7E7E7E7E7E7E7E7E7E7E7E7E7E7E7E7E7E7E7E7E7E7E7E7E7E7E7E7E7E7E7E7E7E7E7E7E7E7E7E7
310
E7E7E7E7E7E7E7E7E7E7E7E7E7E7E7E7E7E7E7E7E7E7E7E7E7E7E7E7E7E7E7E7E7E7E7E7E7E7E7E7E7E7E7E7E7E7E7E7E7E7E7E7E7E7E7E7E7E7E7E7E7E7E7E7E7E7E7E7E7E7E7E7E7E7E7E7E7E7E7E7E7E7E7E7E7E7E7E7E7E7E7E7E7E7E7E7E7E7E7E7E7E7E7E7E7E7E7E7E7E7E7E7E7E7E7E7E7E7E7E7E7E7E7E7E7E7E7
310
E7E7E7E7E7E7E7E7E7E7E7E7E7E7E7E7E7E7E7E7E7E7E7E7E7E7E7E7E7E7E7E7E7E7E7E7E7E7E7E7E7E7E7E7E7E7E7E7E7E7E7E7E7E7E7E7E7E7E7E7E7E7E7E7E7E7E7E7E7E7E7E7E7E7E7E7E7E7E7E7E7E7E7E7E7E7E7E7E7E7E7E7E7E7E7E7E7E7E7E7E7E7E7E7E7E7E7E7E7E7E7E7E7E7E7E7E7E7E7E7E7E7E7E7E7E7E7
310
E7E7E7E7E7E7E7E7E7E7E7E7E7E7E7E7E7E7E7E7E7E7E7E7E7E7E7E7E7E7E7E7E7E7E7E7E7E7E7E7E7E7E7E7E7E7E7E7E7E7E7E7E7E7E7E7E7E7E7E7E7E7E7E7E7E7E7E7E7E7E7E7E7E7E7E7E7E7E7E7E7E7E7E7E7E7E7E7E7E7E7E7E7E7E7E7E7E7E7E7E7E7E7E7E7E7E7E7E7E7E7E7E7E7E7E7E7E7E7E7E7E7E7E7E7E7E7
310
E7E7E7E7E7E7E7E7E7E7E7E7E7E7E7E7E7E7E7E7E7E7E7E7E7E7E7E7E7E7E7E7E7E7E7E7E7E7E7E7E7E7E7E7E7E7E7E7E7E7E7E7E7E7E7E7E7E7E7E7E7E7E7E7E7E7E7E7E7E7E7E7E7E7E7E7E7E7E7E7E7E7E7E7E7E7E7E7E7E7E7E7E7E7E7E7E7E7E7E7E7E7E7E7E7E7E7E7E7E7E7E7E7E7E7E7E7E7E7E7E7E7E7E7E7E7E7
310
E7E7E7E7E7E7E7E7E7E7E7E7E7E7E7E7E7E7E7E7E7E7E7E7E7E7E7E7E7E7E7E7E7E7E7E7E7E7E7E7E7E7E7E7E7E7E7E7E7E7E7E7E7E7E7E7E7E7E7E7E7E7E7E7E7E7E7E7E7E7E7E7E7E7E7E7E7E7E7E7E7E7E7E7E7E7E7E7E7E7E7E7E7E7E7E7E7E7E7E7E7E7E7E7E7E7E7E7E7E7E7E7E7E7E7E7E7E7E7E7E7E7E7E7E7E7E7
310
E7E7E7E7E7E7E7E7E7E7E7E7E7E7E7E7E7E7E7E7E7E7E7E7E7E7E7E7E7E7E7E7E7E7E7E7E7E7E7E7E7E7E7E7E7E7E7E7E7E7E7E7E7E7E7E7E7E7E7E7E7E7E7E7E7E7E7E7E7E7E7E7E7E7E7E7E7E7E7E7E7E7E7E7E7E7E7E7E7E7E7E7E7E7E7E7E7E7E7E7E7E7E7E7E7E7E7E7E7E7E7E7E7E7E7E7E7E7E7E7E7E7E7E7E7E7E7
310
E7E7E7E7E7E7E7E7E7E7E7E7E7E7E7E7E7E7E7E7E7E7E7E7E7E7E7E7E7E7E7E7E7E7E7E7E7E7E7E7E7E7E7E7E7E7E7E7E7E7E7E7E7E7E7E7E7E7E7E7E7E7E7E7E7E7E7E7E7E7E7E7E7E7E7E7E7E7E7E7E7E7E7E7E7E7E7E7E7E7E7E7E7E7E7E7E7E7E7E7E7E7E7E7E7E7E7E7E7E7E7E7E7E7E7E7E7E7E7E7E7E7E7E7E7E7E7
310
E7E7E7E7E7E7E7E7E7E7E7E7E7E7E7E7E7E7E7E7E7E7E7E7E7E7E7E7E7E7E7E7E7E7E7E7E7E7E7E7E7E7E7E7E7E7E7E7E7E7E7E7E7E7E7E7E7E7E7E7E7E7E7E7E7E7E7E7E7E7E7E7E7E7E7E7E7E7E7E7E7E7E7E7E7E7E7E7E7E7E7E7E7E7E7E7E7E7E7E7E7E7E7E7E7E7E7E7E7E7E7E7E7E7E7E7E7E7E7E7E7E7E7E7E7E7E7
310
E7E7E7E7E7E7E7E7E7E7E7E7E7E7E7E7E7E7E7E7E7E7E7E7E7E7E7E7E7E7E7E7E7E7E7E7E7E7E7E7E7E7E7E7E7E7E7E7E7E7E7E7E7E7E7E7E7E7E7E7E7E7E7E7E7E7E7E7E7E7E7E7E7E7E7E7E7E7E7E7E7E7E7E7E7E7E7E7E7E7E7E7E7E7E7E7E7E7E7E7E7E7E7E7E7E7E7E7E7E7E7E7E7E7E7E7E7E7E7E7E7E7E7E7E7E7E7
310
E7E7E7E7E7E7E7E7E7E7E7E7E7E7E7E7E7E7E7E7E7E7E7E7E7E7E7E7E7E7E7E7E7E7E7E7E7E7E7E7E7E7E7E7E7E7E7E7E7E7E7E7E7E7E7E7E7E7E7E7E7E7E7E7E7E7E7E7E7E7E7E7E7E7E7E7E7E7E7E7E7E7E7E7E7E7E7E7E7E7E7E7E7E7E7E7E7E7E7E7E7E7E7E7E7E7E7E7E7E7E7E7E7E7E7E7E7E7E7E7E7E7E7E7E7E7E7
310
E7E7E7E7E7E7E7E7E7E7E7E7E7E7E7E7E7E7E7E7E7E7E7E7E7E7E7E7E7E7E7E7E7E7E7E7E7E7E7E7E7E7E7E7E7E7E7E7E7E7E7E7E7E7E7E7E7E7E7E7E7E7E7E7E7E7E7E7E7E7E7E7E7E7E7E7E7E7E7E7E7E7E7E7E7E7E7E7E7E7E7E7E7E7E7E7E7E7E7E7E7E7E7E7E7E7E7E7E7E7E7E7E7E7E7E7E7E7E7E7E7E7E7E7E7E7E7
310
E7E7E7E7E7E7E7E7E7E7E7E7E7E7E7E7E7E7E7E7E7E7E7E7E7E7E7E7E7E7E7E7E7E7E7E7E7E7E7E7E7E7E7E7E7E7E7E7E7E7E7E7E7E7E7E7E7E7E7E7E7E7E7E7E7E7E7E7E7E7E7E7E7E7E7E7E7E7E7E7E7E7E7E7E7E7E7E7E7E7E7E7E7E7E7E7E7E7E7E7E7E7E7E7E7E7E7E7E7E7E7E7E7E7E7E7E7E7E7E7E7E7E7E7E7E7E7
310
E7E7E7E7E7E7E7E7E7E7E7E7E7E7E7E7E7E7E7E7E7E7E7E7E7E7E7E7E7E7E7E7E7E7E7E7E7E7E7E7E7E7E7E7E7E7E7E7E7E7E7E7E7E7E7E7E7E7E7E7E7E7E7E7E7E7E7E7E7E7E7E7E7E7E7E7E7E7E7E7E7E7E7E7E7E7E7E7E7E7E7E7E7E7E7E7E7E7E7E7E7E7E7E7E7E7E7E7E7E7E7E7E7E7E7E7E7E7E7E7E7E7E7E7E7E7E7
310
E7E7E7E7E7E7E7E7E7E7E7E7E7E7E7E7E7E7E7E7E7E7E7E7E7E7E7E7E7E7E7E7E7E7E7E7E7E7E7E7E7E7E7E7E7E7E7E7E7E7E7E7E7E7E7E7E7E7E7E7E7E7E7E7E7E7E7E7E7E7E7E7E7E7E7E7E7E7E7E7E7E7E7E7E7E7E7E7E7E7E7E7E7E7E7E7E7E7E7E7E7E7E7E7E7E7E7E7E7E7E7E7E7E7E7E7E7E7E7E7E7E7E7E7E7E7E7
310
E7E7E7E7E7E7E7E7E7E7E7E7E7E7E7E7E7E7E7E7E7E7E7E7E7E7E7E7E7E7E7E7E7E7E7E7E7E7E7E7E7E7E7E7E7E7E7E7E7E7E7E7E7E7E7E7E7E7E7E7E7E7E7E7E7E7E7E7E7E7E7E7E7E7E7E7E7E7E7E7E7E7E7E7E7E7E7E7E7E7E7E7E7E7E7E7E7E7E7E7E7E7E7E7E7E7E7E7E7E7E7E7E7E7E7E7E7E7E7E7E7E7E7E7E7E7E7
310
E7E7E7E7E7E7E7E7E7E7E7E7E7E7E7E7E7E7E7E7E7E7E7E7E7E7E7E7E7E7E7E7E7E7E7E7E7E7E7E7E7E7E7E7E7E7E7E7E7E7E7E7E7E7E7E7E7E7E7E7E7E7E7E7E7E7E7E7E7E7E7E7E7E7E7E7E7E7E7E7E7E7E7E7E7E7E7E7E7E7E7E7E7E7E7E7E7E7E7E7E7E7E7E7E7E7E7E7E7E7E7E7E7E7E7E7E7E7E7E7E7E7E7E7E7E7E7
310
E7E7E7E7E7E7E7E7E7E7E7E7E7E7E7E7E7E7E7E7E7E7E7E7E7E7E7E7E7E7E7E7E7E7E7E7E7E7E7E7E7E7E7E7E7E7E7E7E7E7E7E7E7E7E7E7E7E7E7E7E7E7E7E7E7E7E7E7E7E7E7E7E7E7E7E7E7E7E7E7E7E7E7E7E7E7E7E7E7E7E7E7E7E7E7E7E7E7E7E7E7E7E7E7E7E7E7E7E7E7E7E7E7E7E7E7E7E7E7E7E7E7E7E7E7E7E7
310
E7E7E7E7E7E7E7E7E7E7E7E7E7E7E7E7E7E7E7E7E7E7E7E7E7E7E7E7E7E7E7E7E7E7E7E7E7E7E7E7E7E7E7E7E7E7E7E7E7E7E7E7E7E7E7E7E7E7E7E7E7E7E7E7E7E7E7E7E7E7E7E7E7E7E7E7E7E7E7E7E7E7E7E7E7E7E7E7E7E7E7E7E7E7E7E7E7E7E7E7E7E7E7E7E7E7E7E7E7E7E7E7E7E7E7E7E7E7E7E7E7E7E7E7E7E7E7
310
E7E7E7E7E7E7E7E7E7E7E7E7E7E7E7E7E7E7E7E7E7E7E7E7E7E7E7E7E7E7E7E7E7E7E7E7E7E7E7E7E7E7E7E7E7E7E7E7E7E7E7E7E7E7E7E7E7E7E7E7E7E7E7E7E7E7E7E7E7E7E7E7E7E7E7E7E7E7E7E7E7E7E7E7E7E7E7E7E7E7E7E7E7E7E7E7E7E7E7E7E7E7E7E7E7E7E7E7E7E7E7E7E7E7E7E7E7E7E7E7E7E7E7E7E7E7E7
310
E7E7E7E7E7E7E7E7E7E7E7E7E7E7E7E7E7E7E7E7E7E7E7E7E7E7E7E7E7E7E7E7E7E7E7E7E7E7E7E7E7E7E7E7E7E7E7E7E7E7E7E7E7E7E7E7E7E7E7E7E7E7E7E7E7E7E7E7E7E7E7E7E7E7E7E7E7E7E7E7E7E7E7E7E7E7E7E7E7E7E7E7E7E7E7E7E7E7E7E7E7E7E7E7E7E7E7E7E7E7E7E7E7E7E7E7E7E7E7E7E7E7E7E7E7E7E7
310
E7E7E7E7E7E7E7E7E7E7E7E7E7E7E7E7E7E7E7E7E7E7E7E7E7E7E7E7E7E7E7E7E7E7E7E7E7E7E7E7E7E7E7E7E7E7E7E7E7E7E7E7E7E7E7E7E7E7E7E7E7E7E7E7E7E7E7E7E7E7E7E7E7E7E7E7E7E7E7E7E7E7E7E7E7E7E7E7E7E7E7E7E7E7E7E7E7E7E7E7E7E7E7E7E7E7E7E7E7E7E7E7E7E7E7E7E7E7E7E7E7E7E7E7E7E7E7
310
E7E7E7E7E7E7E7E7E7E7E7E7E7E7E7E7E7E7E7E7E7E7E7E7E7E7E7E7E7E7E7E7E7E7E7E7E7E7E7E7E7E7E7E7E7E7E7E7E7E7E7E7E7E7E7E7E7E7E7E7E7E7E7E7E7E7E7E7E7E7E7E7E7E7E7E7E7E7E7E7E7E7E7E7E7E7E7E7E7E7E7E7E7E7E7E7E7E7E7E7E7E7E7E7E7E7E7E7E7E7E7E7E7E7E7E7E7E7E7E7E7E7E7E7E7E7E7
310
E7E7E7E7E7E7E7E7E7E7E7E7E7E7E7E7E7E7E7E7E7E7E7E7E7E7E7E7E7E7E7E7E7E7E7E7E7E7E7E7E7E7E7E7E7E7E7E7E7E7E7E7E7E7E7E7E7E7E7E7E7E7E7E7E7E7E7E7E7E7E7E7E7E7E7E7E7E7E7E7E7E7E7E7E7E7E7E7E7E7E7E7E7E7E7E7E7E7E7E7E7E7E7E7E7E7E7E7E7E7E7E7E7E7E7E7E7E7E7E7E7E7E7E7E7E7E7
310
E7E7E7E7E7E7E7E7E7E7E7E7E7E7E7E7E7E7E7E7E7E7E7E7E7E7E7E7E7E7E7E7E7E7E7E7E7E7E7E7E7E7E7E7E7E7E7E7E7E7E7E7E7E7E7E7E7E7E7E7E7E7E7E7E7E7E7E7E7E7E7E7E7E7E7E7E7E7E7E7E7E7E7E7E7E7E7E7E7E7E7E7E7E7E7E7E7E7E7E7E7E7E7E7E7E7E7E7E7E7E7E7E7E7E7E7E7E7E7E7E7E7E7E7E7E7E7
310
E7E7E7E7E7E7E7E7E7E7E7E7E7E7E7E7E7E7E7E7E7E7E7E7E7E7E7E7E7E7E7E7E7E7E7E7E7E7E7E7E7E7E7E7E7E7E7E7E7E7E7E7E7E7E7E7E7E7E7E7E7E7E7E7E7E7E7E7E7E7E7E7E7E7E7E7E7E7E7E7E7E7E7E7E7E7E7E7E7E7E7E7E7E7E7E7E7E7E7E7E7E7E7E7E7E7E7E7E7E7E7E7E7E7E7E7E7E7E7E7E7E7E7E7E7E7E7
310
E7E7E7E7E7E7E7E7E7E7E7E7E7E7E7E7E7E7E7E7E7E7E7E7E7E7E7E7E7E7E7E7E7E7E7E7E7E7E7E7E7E7E7E7E7E7E7E7E7E7E7E7E7E7E7E7E7E7E7E7E7E7E7E7E7E7E7E7E7E7E7E7E7E7E7E7E7E7E7E7E7E7E7E7E7E7E7E7E7E7E7E7E7E7E7E7E7E7E7E7E7E7E7E7E7E7E7E7E7E7E7E7E7E7E7E7E7E7E7E7E7E7E7E7E7E7E7
310
E7E7E7E7E7E7E7E7E7E7E7E7E7E7E7E7E7E7E7E7E7E7E7E7E7E7E7E7E7E7E7E7E7E7E7E7E7E7E7E7E7E7E7E7E7E7E7E7E7E7E7E7E7E7E7E7E7E7E7E7E7E7E7E7E7E7E7E7E7E7E7E7E7E7E7E7E7E7E7E7E7E7E7E7E7E7E7E7E7E7E7E7E7E7E7E7E7E7E7E7E7E7E7E7E7E7E7E7E7E7E7E7E7E7E7E7E7E7E7E7E7E7E7E7E7E7E7
310
E7E7E7E7E7E7E7E7E7E7E7E7E7E7E7E7E7E7E7E7E7E7E7E7E7E7E7E7E7E7E7E7E7E7E7E7E7E7E7E7E7E7E7E7E7E7E7E7E7E7E7E7E7E7E7E7E7E7E7E7E7E7E7E7E7E7E7E7E7E7E7E7E7E7E7E7E7E7E7E7E7E7E7E7E7E7E7E7E7E7E7E7E7E7E7E7E7E7E7E7E7E7E7E7E7E7E7E7E7E7E7E7E7E7E7E7E7E7E7E7E7E7E7E7E7E7E7
310
E7E7E7E7E7E7E7E7E7E7E7E7E7E7E7E7E7E7E7E7E7E7E7E7E7E7E7E7E7E7E7E7E7E7E7E7E7E7E7E7E7E7E7E7E7E7E7E7E7E7E7E7E7E7E7E7E7E7E7E7E7E7E7E7E7E7E7E7E7E7E7E7E7E7E7E7E7E7E7E7E7E7E7E7E7E7E7E7E7E7E7E7E7E7E7E7E7E7E7E7E7E7E7E7E7E7E7E7E7E7E7E7E7E7E7E7E7E7E7E7E7E7E7E7E7E7E7
310
E7E7E7E7E7E7E7E7E7E7E7E7E7E7E7E7E7E7E7E7E7E7E7E7E7E7E7E7E7E7E7E7E7E7E7E7E7E7E7E7E7E7E7E7E7E7E7E7E7E7E7E7E7E7E7E7E7E7E7E7E7E7E7E7E7E7E7E7E7E7E7E7E7E7E7E7E7E7E7E7E7E7E7E7E7E7E7E7E7E7E7E7E7E7E7E7E7E7E7E7E7E7E7E7E7E7E7E7E7E7E7E7E7E7E7E7E7E7E7E7E7E7E7E7E7E7E7
310
E7E7E7E7E7E7E7E7E7E7E7E7E7E7E7E7E7E7E7E7E7E7E7E7E7E7E7E7E7E7E7E7E7E7E7E7E7E7E7E7E7E7E7E7E7E7E7E7E7E7E7E7E7E7E7E7E7E7E7E7E7E7E7E7E7E7E7E7E7E7E7E7E7E7E7E7E7E7E7E7E7E7E7E7E7E7E7E7E7E7E7E7E7E7E7E7E7E7E7E7E7E7E7E7E7E7E7E7E7E7E7E7E7E7E7E7E7E7E7E7E7E7E7E7E7E7E7
310
E7E7E7E7E7E7E7E7E7E7E7E7E7E7E7E7E7E7E7E7E7E7E7E7E7E7E7E7E7E7E7E7E7E7E7E7E7E7E7E7E7E7E7E7E7E7E7E7E7E7E7E7E7E7E7E7E7E7E7E7E7E7E7E7E7E7E7E7E7E7E7E7E7E7E7E7E7E7E7E7E7E7E7E7E7E7E7E7E7E7E7E7E7E7E7E7E7E7E7E7E7E7E7E7E7E7E7E7E7E7E7E7E7E7E7E7E7E7E7E7E7E7E7E7E7E7E7
310
E7E7E7E7E7E7E7E7E7E7E7E7E7E7E7E7E7E7E7E7E7E7E7E7E7E7E7E7E7E7E7E7E7E7E7E7E7E7E7E7E7E7E7E7E7E7E7E7E7E7E7E7E7E7E7E7E7E7E7E7E7E7E7E7E7E7E7E7E7E7E7E7E7E7E7E7E7E7E7E7E7E7E7E7E7E7E7E7E7E7E7E7E7E7E7E7E7E7E7E7E7E7E7E7E7E7E7E7E7E7E7E7E7E7E7E7E7E7E7E7E7E7E7E7E7E7E7
310
E7E7E7E7E7E7E7E7E7E7E7E7E7E7E7E7E7E7E7E7E7E7E7E7E7E7E7E7E7E7E7E7E7E7E7E7E7E7E7E7E7E7E7E7E7E7E7E7E7E7E7E7E7E7E7E7E7E7E7E7E7E7E7E7E7E7E7E7E7E7E7E7E7E7E7E7E7E7E7E7E7E7E7E7E7E7E7E7E7E7E7E7E7E7E7E7E7E7E7E7E7E7E7E7E7E7E7E7E7E7E7E7E7E7E7E7E7E7E7E7E7E7E7E7E7E7E7
310
E7E7E7E7E7E7E7E7E7E7E7E7E7E7E7E7E7E7E7E7E7E7E7E7E7E7E7E7E7E7E7E7E7E7E7E7E7E7E7E7E7E7E7E7E7E7E7E7E7E7E7E7E7E7E7E7E7E7E7E7E7E7E7E7E7E7E7E7E7E7E7E7E7E7E7E7E7E7E7E7E7E7E7E7E7E7E7E7E7E7E7E7E7E7E7E7E7E7E7E7E7E7E7E7E7E7E7E7E7E7E7E7E7E7E7E7E7E7E7E7E7E7E7E7E7E7E7
310
E7E7E7E7E7E7E7E7E7E7E7E7E7E7E7E7E7E7E7E7E7E7E7E7E7E7E7E7E7E7E7E7E7E7E7E7E7E7E7E7E7E7E7E7E7E7E7E7E7E7E7E7E7E7E7E7E7E7E7E7E7E7E7E7E7E7E7E7E7E7E7E7E7E7E7E7E7E7E7E7E7E7E7E7E7E7E7E7E7E7E7E7E7E7E7E7E7E7E7E7E7E7E7E7E7E7E7E7E7E7E7E7E7E7E7E7E7E7E7E7E7E7E7E7E7E7E7
310
E7E7E7E7E7E7E7E7E7E7E7E7E7E7E7E7E7E7E7E7E7E7E7E7E7E7E7E7E7E7E7E7E7E7E7E7E7E7E7E7E7E7E7E7E7E7E7E7E7E7E7E7E7E7E7E7E7E7E7E7E7E7E7E7E7E7E7E7E7E7E7E7E7E7E7E7E7E7E7E7E7E7E7E7E7E7E7E7E7E7E7E7E7E7E7E7E7E7E7E7E7E7E7E7E7E7E7E7E7E7E7E7E7E7E7E7E7E7E7E7E7E7E7E7E7E7E7
310
E7E7E7E7E7E7E7E7E7E7E7E7E7E7E7E7E7E7E7E7E7E7E7E7E7E7E7E7E7E7E7E7E7E7E7E7E7E7E7E7E7E7E7E7E7E7E7E7E7E7E7E7E7E7E7E7E7E7E7E7E7E7E7E7E7E7E7E7E7E7E7E7E7E7E7E7E7E7E7E7E7E7E7E7E7E7E7E7E7E7E7E7E7E7E7E7E7E7E7E7E7E7E7E7E7E7E7E7E7E7E7E7E7E7E7E7E7E7E7E7E7E7E7E7E7E7E7
310
E7E7E7E7E7E7E7E7E7E7E7E7E7E7E7E7E7E7E7E7E7E7E7E7E7E7E7E7E7E7E7E7E7E7E7E7E7E7E7E7E7E7E7E7E7E7E7E7E7E7E7E7E7E7E7E7E7E7E7E7E7E7E7E7E7E7E7E7E7E7E7E7E7E7E7E7E7E7E7E7E7E7E7E7E7E7E7E7E7E7E7E7E7E7E7E7E7E7E7E7E7E7E7E7E7E7E7E7E7E7E7E7E7E7E7E7E7E7E7E7E7E7E7E7E7E7E7
310
E7E7E7E7E7E7E7E7E7E7E7E7E7E7E7E7E7E7E7E7E7E7E7E7E7E7E7E7E7E7E7E7E7E7E7E7E7E7E7E7E7E7E7E7E7E7E7E7E7E7E7E7E7E7E7E7E7E7E7E7E7E7E7E7E7E7E7E7E7E7E7E7E7E7E7E7E7E7E7E7E7E7E7E7E7E7E7E7E7E7E7E7E7E7E7E7E7E7E7E7E7E7E7E7E7E7E7E7E7E7E7E7E7E7E7E7E7E7E7E7E7E7E7E7E7E7E7
310
E7E7E7E7E7E7E7E7E7E7E7E7E7E7E7E7E7E7E7E7E7E7E7E7E7E7E7E7E7E7E7E7E7E7E7E7E7E7E7E7E7E7E7E7E7E7E7E7E7E7E7E7E7E7E7E7E7E7E7E7E7E7E7E7E7E7E7E7E7E7E7E7E7E7E7E7E7E7E7E7E7E7E7E7E7E7E7E7E7E7E7E7E7E7E7E7E7E7E7E7E7E7E7E7E7E7E7E7E7E7E7E7E7E7E7E7E7E7E7E7E7E7E7E7E7E7E7
310
E7E7E7E7E7E7E7E7E7E7E7E7E7E7E7E7E7E7E7E7E7E7E7E7E7E7E7E7E7E7E7E7E7E7E7E7E7E7E7E7E7E7E7E7E7E7E7E7E7E7E7E7E7E7E7E7E7E7E7E7E7E7E7E7E7E7E7E7E7E7E7E7E7E7E7E7E7E7E7E7E7E7E7E7E7E7E7E7E7E7E7E7E7E7E7E7E7E7E7E7E7E7E7E7E7E7E7E7E7E7E7E7E7E7E7E7E7E7E7E7E7E7E7E7E7E7E7
310
E7E7E7E7E7E7E7E7E7E7E7E7E7E7E7E7E7E7E7E7E7E7E7E7E7E7E7E7E7E7E7E7E7E7E7E7E7E7E7E7E7E7E7E7E7E7E7E7E7E7E7E7E7E7E7E7E7E7E7E7E7E7E7E7E7E7E7E7E7E7E7E7E7E7E7E7E7E7E7E7E7E7E7E7E7E7E7E7E7E7E7E7E7E7E7E7E7E7E7E7E7E7E7E7E7E7E7E7E7E7E7E7E7E7E7E7E7E7E7E7E7E7E7E7E7E7E7
310
E7E7E7E7E7E7E7E7E7E7E7E7E7E7E7E7E7E7E7E7E7E7E7E7E7E7E7E7E7E7E7E7E7E7E7E7E7E7E7E7E7E7E7E7E7E7E7E7E7E7E7E7E7E7E7E7E7E7E7E7E7E7E7E7E7E7E7E7E7E7E7E7E7E7E7E7E7E7E7E7E7E7E7E7E7E7E7E7E7E7E7E7E7E7E7E7E7E7E7E7E7E7E7E7E7E7E7E7E7E7E7E7E7E7E7E7E7E7E7E7E7E7E7E7E7E7E7
310
E7E7E7E7E7E7E7E7E7E7E7E7E7E7E7E7E7E7E7E7E7E7E7E7E7E7E7E7E7E7E7E7E7E7E7E7E7E7E7E7E7E7E7E7E7E7E7E7E7E7E7E7E7E7E7E7E7E7E7E7E7E7E7E7E7E7E7E7E7E7E7E7E7E7E7E7E7E7E7E7E7E7E7E7E7E7E7E7E7E7E7E7E7E7E7E7E7E7E7E7E7E7E7E7E7E7E7E7E7E7E7E7E7E7E7E7E7E7E7E7E7E7E7E7E7E7E7
310
E7E7E7E7E7E7E7E7E7E7E7E7E7E7E7E7E7E7E7E7E7E7E7E7E7E7E7E7E7E7E7E7E7E7E7E7E7E7E7E7E7E7E7E7E7E7E7E7E7E7E7E7E7E7E7E7E7E7E7E7E7E7E7E7E7E7E7E7E7E7E7E7E7E7E7E7E7E7E7E7E7E7E7E7E7E7E7E7E7E7E7E7E7E7E7E7E7E7E7E7E7E7E7E7E7E7E7E7E7E7E7E7E7E7E7E7E7E7E7E7E7E7E7E7E7E7E7
310
E7E7E7E7E7E7E7E7E7E7E7E7E7E7E7E7E7E7E7E7E7E7E7E7E7E7E7E7E7E7E7E7E7E7E7E7E7E7E7E7E7E7E7E7E7E7E7E7E7E7E7E7E7E7E7E7E7E7E7E7E7E7E7E7E7E7E7E7E7E7E7E7E7E7E7E7E7E7E7E7E7E7E7E7E7E7E7E7E7E7E7E7E7E7E7E7E7E7E7E7E7E7E7E7E7E7E7E7E7E7E7E7E7E7E7E7E7E7E7E7E7E7E7E7E7E7E7
310
E7E7E7E7E7E7E7E7E7E7E7E7E7E7E7E7E7E7E7E7E7E7E7E7E7E7E7E7E7E7E7E7E7E7E7E7E7E7E7E7E7E7E7E7E7E7E7E7E7E7E7E7E7E7E7E7E7E7E7E7E7E7E7E7E7E7E7E7E7E7E7E7E7E7E7E7E7E7E7E7E7E7E7E7E7E7E7E7E7E7E7E7E7E7E7E7E7E7E7E7E7E7E7E7E7E7E7E7E7E7E7E7E7E7E7E7E7E7E7E7E7E7E7E7E7E7E7
310
E7E7E7E7E7E7E7E7E7E7E7E7E7E7E7E7E7E7E7E7E7E7E7E7E7E7E7E7E7E7E7E7E7E7E7E7E7E7E7E7E7E7E7E7E7E7E7E7E7E7E7E7E7E7E7E7E7E7E7E7E7E7E7E7E7E7E7E7E7E7E7E7E7E7E7E7E7E7E7E7E7E7E7E7E7E7E7E7E7E7E7E7E7E7E7E7E7E7E7E7E7E7E7E7E7E7E7E7E7E7E7E7E7E7E7E7E7E7E7E7E7E7E7E7E7E7E7
310
E7E7E7E7E7E7E7E7E7E7E7E7E7E7E7E7E7E7E7E7E7E7E7E7E7E7E7E7E7E7E7E7E7E7E7E7E7E7E7E7E7E7E7E7E7E7E7E7E7E7E7E7E7E7E7E7E7E7E7E7E7E7E7E7E7E7E7E7E7E7E7E7E7E7E7E7E7E7E7E7E7E7E7E7E7E7E7E7E7E7E7E7E7E7E7E7E7E7E7E7E7E7E7E7E7E7E7E7E7E7E7E7E7E7E7E7E7E7E7E7E7E7E7E7E7E7E7
310
E7E7E7E7E7E7E7E7E7E7E7E7E7E7E7E7E7E7E7E7E7E7E7E7E7E7E7E7E7E7E7E7E7E7E7E7E7E7E7E7E7E7E7E7E7E7E7E7E7E7E7E7E7E7E7E7E7E7E7E7E7E7E7E7E7E7E7E7E7E7E7E7E7E7E7E7E7E7E7E7E7E7E7E7E7E7E7E7E7E7E7E7E7E7E7E7E7E7E7E7E7E7E7E7E7E7E7E7E7E7E7E7E7E7E7E7E7E7E7E7E7E7E7E7E7E7E7
310
E7E7E7E7E7E7E7E7E7E7E7E7E7E7E7E7E7E7E7E7E7E7E7E7E7E7E7E7E7E7E7E7E7E7E7E7E7E7E7E7E7E7E7E7E7E7E7E7E7E7E7E7E7E7E7E7E7E7E7E7E7E7E7E7E7E7E7E7E7E7E7E7E7E7E7E7E7E7E7E7E7E7E7E7E7E7E7E7E7E7E7E7E7E7E7E7E7E7E7E7E7E7E7E7E7E7E7E7E7E7E7E7E7E7E7E7E7E7E7E7E7E7E7E7E7E7E7
310
E7E7E7E7E7E7E7E7E7E7E7E7E7E7E7E7E7E7E7E7E7E7E7E7E7E7E7E7E7E7E7E7E7E7E7E7E7E7E7E7E7E7E7E7E7E7E7E7E7E7E7E7E7E7E7E7E7E7E7E7E7E7E7E7E7E7E7E7E7E7E7E7E7E7E7E7E7E7E7E7E7E7E7E7E7E7E7E7E7E7E7E7E7E7E7E7E7E7E7E7E7E7E7E7E7E7E7E7E7E7E7E7E7E7E7E7E7E7E7E7E7E7E7E7E7E7E7
310
E7E7E7E7E7E7E7E7E7E7E7E7E7E7E7E7E7E7E7E7E7E7E7E7E7E7E7E7E7E7E7E7E7E7E7E7E7E7E7E7E7E7E7E7E7E7E7E7E7E7E7E7E7E7E7E7E7E7E7E7E7E7E7E7E7E7E7E7E7E7E7E7E7E7E7E7E7E7E7E7E7E7E7E7E7E7E7E7E7E7E7E7E7E7E7E7E7E7E7E7E7E7E7E7E7E7E7E7E7E7E7E7E7E7E7E7E7E7E7E7E7E7E7E7E7E7E7
310
E7E7E7E7E7E7E7E7E7E7E7E7E7E7E7E7E7E7E7E7E7E7E7E7E7E7E7E7E7E7E7E7E7E7E7E7E7E7E7E7E7E7E7E7E7E7E7E7E7E7E7E7E7E7E7E7E7E7E7E7E7E7E7E7E7E7E7E7E7E7E7E7E7E7E7E7E7E7E7E7E7E7E7E7E7E7E7E7E7E7E7E7E7E7E7E7E7E7E7E7E7E7E7E7E7E7E7E7E7E7E7E7E7E7E7E7E7E7E7E7E7E7E7E7E7E7E7
310
E7E7E7E7E7E7E7E7E7E7E7E7E7E7E7E7E7E7E7E7E7E7E7E7E7E7E7E7E7E7E7E7E7E7E7E7E7E7E7E7E7E7E7E7E7E7E7E7E7E7E7E7E7E7E7E7E7E7E7E7E7E7E7E7E7E7E7E7E7E7E7E7E7E7E7E7E7E7E7E7E7E7E7E7E7E7E7E7E7E7E7E7E7E7E7E7E7E7E7E7E7E7E7E7E7E7E7E7E7E7E7E7E7E7E7E7E7E7E7E7E7E7E7E7E7E7E7
310
E7E7E7E7E7E7E7E7E7E7E7E7E7E7E7E7E7E7E7E7E7E7E7E7E7E7E7E7E7E7E7E7E7E7E7E7E7E7E7E7E7E7E7E7E7E7E7E7E7E7E7E7E7E7E7E7E7E7E7E7E7E7E7E7E7E7E7E7E7E7E7E7E7E7E7E7E7E7E7E7E7E7E7E7E7E7E7E7E7E7E7E7E7E7E7E7E7E7E7E7E7E7E7E7E7E7E7E7E7E7E7E7E7E7E7E7E7E7E7E7E7E7E7E7E7E7E7
310
E7E7E7E7E7E7E7E7E7E7E7E7E7E7E7E7E7E7E7E7E7E7E7E7E7E7E7E7E7E7E7E7E7E7E7E7E7E7E7E7E7E7E7E7E7E7E7E7E7E7E7E7E7E7E7E7E7E7E7E7E7E7E7E7E7E7E7E7E7E7E7E7E7E7E7E7E7E7E7E7E7E7E7E7E7E7E7E7E7E7E7E7E7E7E7E7E7E7E7E7E7E7E7E7E7E7E7E7E7E7E7E7E7E7E7E7E7E7E7E7E7E7E7E7E7E7E7
310
E7E7E7E7E7E7E7E7E7E7E7E7E7E7E7E7E7E7E7E7E7E7E7E7E7E7E7E7E7E7E7E7E7E7E7E7E7E7E7E7E7E7E7E7E7E7E7E7E7E7E7E7E7E7E7E7E7E7E7E7E7E7E7E7E7E7E7E7E7E7E7E7E7E7E7E7E7E7E7E7E7E7E7E7E7E7E7E7E7E7E7E7E7E7E7E7E7E7E7E7E7E7E7E7E7E7E7E7E7E7E7E7E7E7E7E7E7E7E7E7E7E7E7E7E7E7E7
310
E7E7E7E7E7E7E7E7E7E7E7E7E7E7E7E7E7E7E7E7E7E7E7E7E7E7E7E7E7E7E7E7E7E7E7E7E7E7E7E7E7E7E7E7E7E7E7E7E7E7E7E7E7E7E7E7E7E7E7E7E7E7E7E7E7E7E7E7E7E7E7E7E7E7E7E7E7E7E7E7E7E7E7E7E7E7E7E7E7E7E7E7E7E7E7E7E7E7E7E7E7E7E7E7E7E7E7E7E7E7E7E7E7E7E7E7E7E7E7E7E7E7E7E7E7E7E7
310
E7E7E7E7E7E7E7E7E7E7E7E7E7E7E7E7E7E7E7E7E7E7E7E7E7E7E7E7E7E7E7E7E7E7E7E7E7E7E7E7E7E7E7E7E7E7E7E7E7E7E7E7E7E7E7E7E7E7E7E7E7E7E7E7E7E7E7E7E7E7E7E7E7E7E7E7E7E7E7E7E7E7E7E7E7E7E7E7E7E7E7E7E7E7E7E7E7E7E7E7E7E7E7E7E7E7E7E7E7E7E7E7E7E7E7E7E7E7E7E7E7E7E7E7E7E7E7
310
E7E7E7E7E7E7E7E7E7E7E7E7E7E7E7E7E7E7E7E7E7E7E7E7E7E7E7E7E7E7E7E7E7E7E7E7E7E7E7E7E7E7E7E7E7E7E7E7E7E7E7E7E7E7E7E7E7E7E7E7E7E7E7E7E7E7E7E7E7E7E7E7E7E7E7E7E7E7E7E7E7E7E7E7E7E7E7E7E7E7E7E7E7E7E7E7E7E7E7E7E7E7E7E7E7E7E7E7E7E7E7E7E7E7E7E7E7E7E7E7E7E7E7E7E7E7E7
310
E7E7E7E7E7E7E7E7E7E7E7E7E7E7E7E7E7E7E7E7E7E7E7E7E7E7E7E7E7E7E7E7E7E7E7E7E7E7E7E7E7E7E7E7E7E7E7E7E7E7E7E7E7E7E7E7E7E7E7E7E7E7E7E7E7E7E7E7E7E7E7E7E7E7E7E7E7E7E7E7E7E7E7E7E7E7E7E7E7E7E7E7E7E7E7E7E7E7E7E7E7E7E7E7E7E7E7E7E7E7E7E7E7E7E7E7E7E7E7E7E7E7E7E7E7E7E7
310
E7E7E7E7E7E7E7E7E7E7E7E7E7E7E7E7E7E7E7E7E7E7E7E7E7E7E7E7E7E7E7E7E7E7E7E7E7E7E7E7E7E7E7E7E7E7E7E7E7E7E7E7E7E7E7E7E7E7E7E7E7E7E7E7E7E7E7E7E7E7E7E7E7E7E7E7E7E7E7E7E7E7E7E7E7E7E7E7E7E7E7E7E7E7E7E7E7E7E7E7E7E7E7E7E7E7E7E7E7E7E7E7E7E7E7E7E7E7E7E7E7E7E7E7E7E7E7
310
E7E7E7E7E7E7E7E7E7E7E7E7E7E7E7E7E7E7E7E7E7E7E7E7E7E7E7E7E7E7E7E7E7E7E7E7E7E7E7E7E7E7E7E7E7E7E7E7E7E7E7E7E7E7E7E7E7E7E7E7E7E7E7E7E7E7E7E7E7E7E7E7E7E7E7E7E7E7E7E7E7E7E7E7E7E7E7E7E7E7E7E7E7E7E7E7E7E7E7E7E7E7E7E7E7E7E7E7E7E7E7E7E7E7E7E7E7E7E7E7E7E7E7E7E7E7E7
310
E7E7E7E7E7E7E7E7E7E7E7E7E7E7E7E7E7E7E7E7E7E7E7E7E7E7E7E7E7E7E7E7E7E7E7E7E7E7E7E7E7E7E7E7E7E7E7E7E7E7E7E7E7E7E7E7E7E7E7E7E7E7E7E7E7E7E7E7E7E7E7E7E7E7E7E7E7E7E7E7E7E7E7E7E7E7E7E7E7E7E7E7E7E7E7E7E7E7E7E7E7E7E7E7E7E7E7E7E7E7E7E7E7E7E7E7E7E7E7E7E7E7E7E7E7E7E7
310
E7E7E7E7E7E7E7E7E7E7E7E7E7E7E7E7E7E7E7E7E7E7E7E7E7E7E7E7E7E7E7E7E7E7E7E7E7E7E7E7E7E7E7E7E7E7E7E7E7E7E7E7E7E7E7E7E7E7E7E7E7E7E7E7E7E7E7E7E7E7E7E7E7E7E7E7E7E7E7E7E7E7E7E7E7E7E7E7E7E7E7E7E7E7E7E7E7E7E7E7E7E7E7E7E7E7E7E7E7E7E7E7E7E7E7E7E7E7E7E7E7E7E7E7E7E7E7
310
E7E7E7E7E7E7E7E7E7E7E7E7E7E7E7E7E7E7E7E7E7E7E7E7E7E7E7E7E7E7E7E7E7E7E7E7E7E7E7E7E7E7E7E7E7E7E7E7E7E7E7E7E7E7E7E7E7E7E7E7E7E7E7E7E7E7E7E7E7E7E7E7E7E7E7E7E7E7E7E7E7E7E7E7E7E7E7E7E7E7E7E7E7E7E7E7E7E7E7E7E7E7E7E7E7E7E7E7E7E7E7E7E7E7E7E7E7E7E7E7E7E7E7E7E7E7E7
310
E7E7E7E7E7E7E7E7E7E7E7E7E7E7E7E7E7E7E7E7E7E7E7E7E7E7E7E7E7E7E7E7E7E7E7E7E7E7E7E7E7E7E7E7E7E7E7E7E7E7E7E7E7E7E7E7E7E7E7E7E7E7E7E7E7E7E7E7E7E7E7E7E7E7E7E7E7E7E7E7E7E7E7E7E7E7E7E7E7E7E7E7E7E7E7E7E7E7E7E7E7E7E7E7E7E7E7E7E7E7E7E7E7E7E7E7E7E7E7E7E7E7E7E7E7E7E7
310
E7E7E7E7E7E7E7E7E7E7E7E7E7E7E7E7E7E7E7E7E7E7E7E7E7E7E7E7E7E7E7E7E7E7E7E7E7E7E7E7E7E7E7E7E7E7E7E7E7E7E7E7E7E7E7E7E7E7E7E7E7E7E7E7E7E7E7E7E7E7E7E7E7E7E7E7E7E7E7E7E7E7E7E7E7E7E7E7E7E7E7E7E7E7E7E7E7E7E7E7E7E7E7E7E7E7E7E7E7E7E7E7E7E7E7E7E7E7E7E7E7E7E7E7E7E7E7
310
E7E7E7E7E7E7E7E7E7E7E7E7E7E7E7E7E7E7E7E7E7E7E7E7E7E7E7E7E7E7E7E7E7E7E7E7E7E7E7E7E7E7E7E7E7E7E7E7E7E7E7E7E7E7E7E7E7E7E7E7E7E7E7E7E7E7E7E7E7E7E7E7E7E7E7E7E7E7E7E7E7E7E7E7E7E7E7E7E7E7E7E7E7E7E7E7E7E7E7E7E7E7E7E7E7E7E7E7E7E7E7E7E7E7E7E7E7E7E7E7E7E7E7E7E7E7E7
310
E7E7E7E7E7E7E7E7E7E7E7E7E7E7E7E7E7E7E7E7E7E7E7E7E7E7E7E7E7E7E7E7E7E7E7E7E7E7E7E7E7E7E7E7E7E7E7E7E7E7E7E7E7E7E7E7E7E7E7E7E7E7E7E7E7E7E7E7E7E7E7E7E7E7E7E7E7E7E7E7E7E7E7E7E7E7E7E7E7E7E7E7E7E7E7E7E7E7E7E7E7E7E7E7E7E7E7E7E7E7E7E7E7E7E7E7E7E7E7E7E7E7E7E7E7E7E7
310
E7E7E7E7E7E7E7E7E7E7E7E7E7E7E7E7E7E7E7E7E7E7E7E7E7E7E7E7E7E7E7E7E7E7E7E7E7E7E7E7E7E7E7E7E7E7E7E7E7E7E7E7E7E7E7E7E7E7E7E7E7E7E7E7E7E7E7E7E7E7E7E7E7E7E7E7E7E7E7E7E7E7E7E7E7E7E7E7E7E7E7E7E7E7E7E7E7E7E7E7E7E7E7E7E7E7E7E7E7E7E7E7E7E7E7E7E7E7E7E7E7E7E7E7E7E7E7
310
E7E7E7E7E7E7E7E7E7E7E7E7E7E7E7E7E7E7E7E7E7E7E7E7E7E7E7E7E7E7E7E7E7E7E7E7E7E7E7E7E7E7E7E7E7E7E7E7E7E7E7E7E7E7E7E7E7E7E7E7E7E7E7E7E7E7E7E7E7E7E7E7E7E7E7E7E7E7E7E7E7E7E7E7E7E7E7E7E7E7E7E7E7E7E7E7E7E7E7E7E7E7E7E7E7E7E7E7E7E7E7E7E7E7E7E7E7E7E7E7E7E7E7E7E7E7E7
310
E7E7E7E7E7E7E7E7E7E7E7E7E7E7E7E7E7E7E7E7E7E7E7E7E7E7E7E7E7E7E7E7E7E7E7E7E7E7E7E7E7E7E7E7E7E7E7E7E7E7E7E7E7E7E7E7E7E7E7E7E7E7E7E7E7E7E7E7E7E7E7E7E7E7E7E7E7E7E7E7E7E7E7E7E7E7E7E7E7E7E7E7E7E7E7E7E7E7E7E7E7E7E7E7E7E7E7E7E7E7E7E7E7E7E7E7E7E7E7E7E7E7E7E7E7E7E7
310
E7E7E7E7E7E7E7E7E7E7E7E7E7E7E7E7E7E7E7E7E7E7E7E7E7E7E7E7E7E7E7E7E7E7E7E7E7E7E7E7E7E7E7E7E7E7E7E7E7E7E7E7E7E7E7E7E7E7E7E7E7E7E7E7E7E7E7E7E7E7E7E7E7E7E7E7E7E7E7E7E7E7E7E7E7E7E7E7E7E7E7E7E7E7E7E7E7E7E7E7E7E7E7E7E7E7E7E7E7E7E7E7E7E7E7E7E7E7E7E7E7E7E7E7E7E7E7
310
E7E7E7E7E7E7E7E7E7E7E7E7E7E7E7E7E7E7E7E7E7E7E7E7E7E7E7E7E7E7E7E7E7E7E7E7E7E7E7E7E7E7E7E7E7E7E7E7E7E7E7E7E7E7E7E7E7E7E7E7E7E7E7E7E7E7E7E7E7E7E7E7E7E7E7E7E7E7E7E7E7E7E7E7E7E7E7E7E7E7E7E7E7E7E7E7E7E7E7E7E7E7E7E7E7E7E7E7E7E7E7E7E7E7E7E7E7E7E7E7E7E7E7E7E7E7E7
310
E7E7E7E7E7E7E7E7E7E7E7E7E7E7E7E7E7E7E7E7E7E7E7E7E7E7E7E7E7E7E7E7E7E7E7E7E7E7E7E7E7E7E7E7E7E7E7E7E7E7E7E7E7E7E7E7E7E7E7E7E7E7E7E7E7E7E7E7E7E7E7E7E7E7E7E7E7E7E7E7E7E7E7E7E7E7E7E7E7E7E7E7E7E7E7E7E7E7E7E7E7E7E7E7E7E7E7E7E7E7E7E7E7E7E7E7E7E7E7E7E7E7E7E7E7E7E7
310
E7E7E7E7E7E7E7E7E7E7E7E7E7E7E7E7E7E7E7E7E7E7E7E7E7E7E7E7E7E7E7E7E7E7E7E7E7E7E7E7E7E7E7E7E7E7E7E7E7E7E7E7E7E7E7E7E7E7E7E7E7E7E7E7E7E7E7E7E7E7E7E7E7E7E7E7E7E7E7E7E7E7E7E7E7E7E7E7E7E7E7E7E7E7E7E7E7E7E7E7E7E7E7E7E7E7E7E7E7E7E7E7E7E7E7E7E7E7E7E7E7E7E7E7E7E7E7
310
E7E7E7E7E7E7E7E7E7E7E7E7E7E7E7E7E7E7E7E7E7E7E7E7E7E7E7E7E7E7E7E7E7E7E7E7E7E7E7E7E7E7E7E7E7E7E7E7E7E7E7E7E7E7E7E7E7E7E7E7E7E7E7E7E7E7E7E7E7E7E7E7E7E7E7E7E7E7E7E7E7E7E7E7E7E7E7E7E7E7E7E7E7E7E7E7E7E7E7E7E7E7E7E7E7E7E7E7E7E7E7E7E7E7E7E7E7E7E7E7E7E7E7E7E7E7E7
310
E7E7E7E7E7E7E7E7E7E7E7E7E7E7E7E7E7E7E7E7E7E7E7E7E7E7E7E7E7E7E7E7E7E7E7E7E7E7E7E7E7E7E7E7E7E7E7E7E7E7E7E7E7E7E7E7E7E7E7E7E7E7E7E7E7E7E7E7E7E7E7E7E7E7E7E7E7E7E7E7E7E7E7E7E7E7E7E7E7E7E7E7E7E7E7E7E7E7E7E7E7E7E7E7E7E7E7E7E7E7E7E7E7E7E7E7E7E7E7E7E7E7E7E7E7E7E7
310
E7E7E7E7E7E7E7E7E7E7E7E7E7E7E7E7E7E7E7E7E7E7E7E7E7E7E7E7E7E7E7E7E7E7E7E7E7E7E7E7E7E7E7E7E7E7E7E7E7E7E7E7E7E7E7E7E7E7E7E7E7E7E7E7E7E7E7E7E7E7E7E7E7E7E7E7E7E7E7E7E7E7E7E7E7E7E7E7E7E7E7E7E7E7E7E7E7E7E7E7E7E7E7E7E7E7E7E7E7E7E7E7E7E7E7E7E7E7E7E7E7E7E7E7E7E7E7
310
E7E7E7E7E7E7E7E7E7E7E7E7E7E7E7E7E7E7E7E7E7E7E7E7E7E7E7E7E7E7E7E7E7E7E7E7E7E7E7E7E7E7E7E7E7E7E7E7E7E7E7E7E7E7E7E7E7E7E7E7E7E7E7E7E7E7E7E7E7E7E7E7E7E7E7E7E7E7E7E7E7E7E7E7E7E7E7E7E7E7E7E7E7E7E7E7E7E7E7E7E7E7E7E7E7E7E7E7E7E7E7E7E7E7E7E7E7E7E7E7E7E7E7E7E7E7E7
310
E7E7E7E7E7E7E7E7E7E7E7E7E7E7E7E7E7E7E7E7E7E7E7E7E7E7E7E7E7E7E7E7E7E7E7E7E7E7E7E7E7E7E7E7E7E7E7E7E7E7E7E7E7E7E7E7E7E7E7E7E7E7E7E7E7E7E7E7E7E7E7E7E7E7E7E7E7E7E7E7E7E7E7E7E7E7E7E7E7E7E7E7E7E7E7E7E7E7E7E7E7E7E7E7E7E7E7E7E7E7E7E7E7E7E7E7E7E7E7E7E7E7E7E7E7E7E7
310
E7E7E7E7E7E7E7E7E7E7E7E7E7E7E7E7E7E7E7E7E7E7E7E7E7E7E7E7E7E7E7E7E7E7E7E7E7E7E7E7E7E7E7E7E7E7E7E7
  0
XRECORD
  5
17D62
102
{ACAD_REACTORS
330
D05B
102
}
330
D05B
100
AcDbXrecord
280
     1
102
MATERIAL
148
0.0
149
0.0
149
0.0
 93
        0
 94
      127
282
     0
 72
     0
 77
     0
171
     0
175
     0
179
     0
273
     0
  0
XRECORD
  5
D05D
102
{ACAD_REACTORS
330
D05B
102
}
330
D05B
100
AcDbXrecord
280
     1
270
     1
271
     1
  0
XRECORD
  5
D05C
102
{ACAD_REACTORS
330
D05B
102
}
330
D05B
100
AcDbXrecord
280
     1
270
     1
271
     1
  0
XRECORD
  5
D060
102
{ACAD_REACTORS
330
D05B
102
}
330
D05B
100
AcDbXrecord
280
     1
270
     1
271
     1
  0
XRECORD
  5
D05F
102
{ACAD_REACTORS
330
D05B
102
}
330
D05B
100
AcDbXrecord
280
     1
270
     1
271
     1
  0
XRECORD
  5
D061
102
{ACAD_REACTORS
330
D05B
102
}
330
D05B
100
AcDbXrecord
280
     1
270
     1
271
     1
  0
XRECORD
  5
D05E
102
{ACAD_REACTORS
330
D05B
102
}
330
D05B
100
AcDbXrecord
280
     1
270
     1
271
     1
  0
XRECORD
  5
17D61
102
{ACAD_REACTORS
330
D053
102
}
330
D053
100
AcDbXrecord
280
     1
102
MATERIAL
148
0.0
149
0.0
149
0.0
 93
        0
 94
      127
282
     0
 72
     0
 77
     0
171
     0
175
     0
179
     0
273
     0
  0
XRECORD
  5
D055
102
{ACAD_REACTORS
330
D053
102
}
330
D053
100
AcDbXrecord
280
     1
270
     1
271
     1
  0
XRECORD
  5
D054
102
{ACAD_REACTORS
330
D053
102
}
330
D053
100
AcDbXrecord
280
     1
270
     1
271
     1
  0
XRECORD
  5
D058
102
{ACAD_REACTORS
330
D053
102
}
330
D053
100
AcDbXrecord
280
     1
270
     1
271
     1
  0
XRECORD
  5
D057
102
{ACAD_REACTORS
330
D053
102
}
330
D053
100
AcDbXrecord
280
     1
270
     1
271
     1
  0
XRECORD
  5
D059
102
{ACAD_REACTORS
330
D053
102
}
330
D053
100
AcDbXrecord
280
     1
270
     1
271
     1
  0
XRECORD
  5
D056
102
{ACAD_REACTORS
330
D053
102
}
330
D053
100
AcDbXrecord
280
     1
270
     1
271
     1
  0
XRECORD
  5
17D63
102
{ACAD_REACTORS
330
D063
102
}
330
D063
100
AcDbXrecord
280
     1
102
MATERIAL
148
0.0
149
0.0
149
0.0
 93
        0
 94
      127
282
     0
 72
     0
 77
     0
171
     0
175
     0
179
     0
273
     0
  0
XRECORD
  5
D065
102
{ACAD_REACTORS
330
D063
102
}
330
D063
100
AcDbXrecord
280
     1
270
     1
271
     1
  0
XRECORD
  5
D064
102
{ACAD_REACTORS
330
D063
102
}
330
D063
100
AcDbXrecord
280
     1
270
     1
271
     1
  0
XRECORD
  5
D068
102
{ACAD_REACTORS
330
D063
102
}
330
D063
100
AcDbXrecord
280
     1
270
     1
271
     1
  0
XRECORD
  5
D067
102
{ACAD_REACTORS
330
D063
102
}
330
D063
100
AcDbXrecord
280
     1
270
     1
271
     1
  0
XRECORD
  5
D069
102
{ACAD_REACTORS
330
D063
102
}
330
D063
100
AcDbXrecord
280
     1
270
     1
271
     1
  0
XRECORD
  5
D066
102
{ACAD_REACTORS
330
D063
102
}
330
D063
100
AcDbXrecord
280
     1
270
     1
271
     1
  0
CELLSTYLEMAP
  5
17D59
102
{ACAD_REACTORS
330
D0E9
102
}
330
D0E9
100
AcDbCellStyleMap
 90
        3
300
CELLSTYLE
  1
TABLEFORMAT_BEGIN
 90
        5
170
     1
 91
        0
 92
    32768
 62
   257
 93
        1
300
CONTENTFORMAT
  1
CONTENTFORMAT_BEGIN
 90
        0
 91
        0
 92
        4
 93
        0
300

 40
0.0
140
1.0
 94
        5
 62
     0
340
F
144
6.0
309
CONTENTFORMAT_END
171
     1
301
MARGIN
  1
CELLMARGIN_BEGIN
 40
1.5
 40
1.5
 40
1.5
 40
1.5
 40
0.18
 40
0.18
309
CELLMARGIN_END
 94
        6
 95
        1
302
GRIDFORMAT
  1
GRIDFORMAT_BEGIN
 90
        0
 91
        1
 62
     0
 92
       -2
340
0
 93
        0
 40
0.045
309
GRIDFORMAT_END
 95
        2
302
GRIDFORMAT
  1
GRIDFORMAT_BEGIN
 90
        0
 91
        1
 62
     0
 92
       -2
340
0
 93
        0
 40
0.045
309
GRIDFORMAT_END
 95
        4
302
GRIDFORMAT
  1
GRIDFORMAT_BEGIN
 90
        0
 91
        1
 62
     0
 92
       -2
340
0
 93
        0
 40
0.045
309
GRIDFORMAT_END
 95
        8
302
GRIDFORMAT
  1
GRIDFORMAT_BEGIN
 90
        0
 91
        1
 62
     0
 92
       -2
340
0
 93
        0
 40
0.045
309
GRIDFORMAT_END
 95
       16
302
GRIDFORMAT
  1
GRIDFORMAT_BEGIN
 90
        0
 91
        1
 62
     0
 92
       -2
340
0
 93
        0
 40
0.045
309
GRIDFORMAT_END
 95
       32
302
GRIDFORMAT
  1
GRIDFORMAT_BEGIN
 90
        0
 91
        1
 62
     0
 92
       -2
340
0
 93
        0
 40
0.045
309
GRIDFORMAT_END
309
TABLEFORMAT_END
  1
CELLSTYLE_BEGIN
 90
        1
 91
        1
300
_TITLE
309
CELLSTYLE_END
300
CELLSTYLE
  1
TABLEFORMAT_BEGIN
 90
        5
170
     1
 91
        0
 92
        0
 62
   257
 93
        1
300
CONTENTFORMAT
  1
CONTENTFORMAT_BEGIN
 90
        0
 91
        0
 92
        4
 93
        0
300

 40
0.0
140
1.0
 94
        5
 62
     0
340
F
144
4.5
309
CONTENTFORMAT_END
171
     1
301
MARGIN
  1
CELLMARGIN_BEGIN
 40
1.5
 40
1.5
 40
1.5
 40
1.5
 40
0.18
 40
0.18
309
CELLMARGIN_END
 94
        6
 95
        1
302
GRIDFORMAT
  1
GRIDFORMAT_BEGIN
 90
        0
 91
        1
 62
     0
 92
       -2
340
0
 93
        0
 40
0.045
309
GRIDFORMAT_END
 95
        2
302
GRIDFORMAT
  1
GRIDFORMAT_BEGIN
 90
        0
 91
        1
 62
     0
 92
       -2
340
0
 93
        0
 40
0.045
309
GRIDFORMAT_END
 95
        4
302
GRIDFORMAT
  1
GRIDFORMAT_BEGIN
 90
        0
 91
        1
 62
     0
 92
       -2
340
0
 93
        0
 40
0.045
309
GRIDFORMAT_END
 95
        8
302
GRIDFORMAT
  1
GRIDFORMAT_BEGIN
 90
        0
 91
        1
 62
     0
 92
       -2
340
0
 93
        0
 40
0.045
309
GRIDFORMAT_END
 95
       16
302
GRIDFORMAT
  1
GRIDFORMAT_BEGIN
 90
        0
 91
        1
 62
     0
 92
       -2
340
0
 93
        0
 40
0.045
309
GRIDFORMAT_END
 95
       32
302
GRIDFORMAT
  1
GRIDFORMAT_BEGIN
 90
        0
 91
        1
 62
     0
 92
       -2
340
0
 93
        0
 40
0.045
309
GRIDFORMAT_END
309
TABLEFORMAT_END
  1
CELLSTYLE_BEGIN
 90
        2
 91
        1
300
_HEADER
309
CELLSTYLE_END
300
CELLSTYLE
  1
TABLEFORMAT_BEGIN
 90
        5
170
     1
 91
        0
 92
        0
 62
   257
 93
        1
300
CONTENTFORMAT
  1
CONTENTFORMAT_BEGIN
 90
        0
 91
        0
 92
        4
 93
        0
300

 40
0.0
140
1.0
 94
        2
 62
     0
340
F
144
4.5
309
CONTENTFORMAT_END
171
     1
301
MARGIN
  1
CELLMARGIN_BEGIN
 40
1.5
 40
1.5
 40
1.5
 40
1.5
 40
0.18
 40
0.18
309
CELLMARGIN_END
 94
        6
 95
        1
302
GRIDFORMAT
  1
GRIDFORMAT_BEGIN
 90
        0
 91
        1
 62
     0
 92
       -2
340
0
 93
        0
 40
0.045
309
GRIDFORMAT_END
 95
        2
302
GRIDFORMAT
  1
GRIDFORMAT_BEGIN
 90
        0
 91
        1
 62
     0
 92
       -2
340
0
 93
        0
 40
0.045
309
GRIDFORMAT_END
 95
        4
302
GRIDFORMAT
  1
GRIDFORMAT_BEGIN
 90
        0
 91
        1
 62
     0
 92
       -2
340
0
 93
        0
 40
0.045
309
GRIDFORMAT_END
 95
        8
302
GRIDFORMAT
  1
GRIDFORMAT_BEGIN
 90
        0
 91
        1
 62
     0
 92
       -2
340
0
 93
        0
 40
0.045
309
GRIDFORMAT_END
 95
       16
302
GRIDFORMAT
  1
GRIDFORMAT_BEGIN
 90
        0
 91
        1
 62
     0
 92
       -2
340
0
 93
        0
 40
0.045
309
GRIDFORMAT_END
 95
       32
302
GRIDFORMAT
  1
GRIDFORMAT_BEGIN
 90
        0
 91
        1
 62
     0
 92
       -2
340
0
 93
        0
 40
0.045
309
GRIDFORMAT_END
309
TABLEFORMAT_END
  1
CELLSTYLE_BEGIN
 90
        3
 91
        2
300
_DATA
309
CELLSTYLE_END
  0
XRECORD
  5
17D60
102
{ACAD_REACTORS
330
D0E9
102
}
330
D0E9
100
AcDbXrecord
280
     1
102
ACAD_ROUNDTRIP_PRE2007_TABLESTYLE
 90
        4
 91
        0
  1

 92
        4
 93
        0
  2

 94
        4
 95
        0
  3

  0
XRECORD
  5
17C1B
102
{ACAD_REACTORS
330
17C1A
102
}
330
17C1A
100
AcDbXrecord
280
     1
102
RTVSPropertyOp28
 70
     1
102
RTVSPropertyOp29
 70
     1
102
RTVSPropertyOp30
 70
     1
102
RTVSPropertyOp31
 70
     1
102
RTVSPropertyOp32
 70
     1
102
RTVSPropertyOp0
 70
     1
102
RTVSPropertyOp1
 70
     1
102
RTVSPropertyOp2
 70
     1
102
RTVSPropertyOp3
 70
     1
102
RTVSPropertyOp4
 70
     1
102
RTVSPropertyOp5
 70
     1
102
RTVSPropertyOp6
 70
     1
102
RTVSPropertyOp7
 70
     1
102
RTVSPropertyOp8
 70
     1
102
RTVSPropertyOp9
 70
     1
102
RTVSPropertyOp10
 70
     1
102
RTVSPropertyOp11
 70
     1
102
RTVSPropertyOp12
 70
     1
102
RTVSPropertyOp13
 70
     1
102
RTVSPropertyOp14
 70
     1
102
RTVSPropertyOp15
 70
     1
102
RTVSPropertyOp16
 70
     1
102
RTVSPropertyOp17
 70
     1
102
RTVSPropertyOp18
 70
     1
102
RTVSPropertyOp19
 70
     1
102
RTVSPropertyOp20
 70
     1
102
RTVSPropertyOp21
 70
     1
102
RTVSPropertyOp22
 70
     1
102
RTVSPropertyOp23
 70
     1
102
RTVSPropertyOp24
 70
     1
102
RTVSPropertyOp25
 70
     1
102
RTVSPropertyOp26
 70
     1
102
RTVSPropertyOp27
 70
     1
  0
XRECORD
  5
17C1F
102
{ACAD_REACTORS
330
17C1E
102
}
330
17C1E
100
AcDbXrecord
280
     1
102
RTVSPropertyOp28
 70
     1
102
RTVSPropertyOp29
 70
     1
102
RTVSPropertyOp30
 70
     1
102
RTVSPropertyOp31
 70
     1
102
RTVSPropertyOp32
 70
     1
102
RTVSPropertyOp0
 70
     1
102
RTVSPropertyOp1
 70
     1
102
RTVSPropertyOp2
 70
     1
102
RTVSPropertyOp3
 70
     1
102
RTVSPropertyOp4
 70
     1
102
RTVSPropertyOp5
 70
     1
102
RTVSPropertyOp6
 70
     1
102
RTVSPropertyOp7
 70
     1
102
RTVSPropertyOp8
 70
     1
102
RTVSPropertyOp9
 70
     1
102
RTVSPropertyOp10
 70
     1
102
RTVSPropertyOp11
 70
     1
102
RTVSPropertyOp12
 70
     1
102
RTVSPropertyOp13
 70
     1
102
RTVSPropertyOp14
 70
     1
102
RTVSPropertyOp15
 70
     1
102
RTVSPropertyOp16
 70
     1
102
RTVSPropertyOp17
 70
     1
102
RTVSPropertyOp18
 70
     1
102
RTVSPropertyOp19
 70
     1
102
RTVSPropertyOp20
 70
     1
102
RTVSPropertyOp21
 70
     1
102
RTVSPropertyOp22
 70
     1
102
RTVSPropertyOp23
 70
     1
102
RTVSPropertyOp24
 70
     1
102
RTVSPropertyOp25
 70
     1
102
RTVSPropertyOp26
 70
     1
102
RTVSPropertyOp27
 70
     1
  0
XRECORD
  5
17C1D
102
{ACAD_REACTORS
330
17C1C
102
}
330
17C1C
100
AcDbXrecord
280
     1
102
RTVSPropertyOp28
 70
     1
102
RTVSPropertyOp29
 70
     1
102
RTVSPropertyOp30
 70
     1
102
RTVSPropertyOp31
 70
     1
102
RTVSPropertyOp32
 70
     1
102
RTVSPropertyOp0
 70
     1
102
RTVSPropertyOp1
 70
     1
102
RTVSPropertyOp2
 70
     1
102
RTVSPropertyOp3
 70
     1
102
RTVSPropertyOp4
 70
     1
102
RTVSPropertyOp5
 70
     1
102
RTVSPropertyOp6
 70
     1
102
RTVSPropertyOp7
 70
     1
102
RTVSPropertyOp8
 70
     1
102
RTVSPropertyOp9
 70
     1
102
RTVSPropertyOp10
 70
     1
102
RTVSPropertyOp11
 70
     1
102
RTVSPropertyOp12
 70
     1
102
RTVSPropertyOp13
 70
     1
102
RTVSPropertyOp14
 70
     1
102
RTVSPropertyOp15
 70
     1
102
RTVSPropertyOp16
 70
     1
102
RTVSPropertyOp17
 70
     1
102
RTVSPropertyOp18
 70
     1
102
RTVSPropertyOp19
 70
     1
102
RTVSPropertyOp20
 70
     1
102
RTVSPropertyOp21
 70
     1
102
RTVSPropertyOp22
 70
     1
102
RTVSPropertyOp23
 70
     1
102
RTVSPropertyOp24
 70
     1
102
RTVSPropertyOp25
 70
     1
102
RTVSPropertyOp26
 70
     1
102
RTVSPropertyOp27
 70
     1
  0
XRECORD
  5
17C19
102
{ACAD_REACTORS
330
17C18
102
}
330
17C18
100
AcDbXrecord
280
     1
102
RTVSPropertyOp28
 70
     1
102
RTVSPropertyOp29
 70
     1
102
RTVSPropertyOp30
 70
     1
102
RTVSPropertyOp31
 70
     1
102
RTVSPropertyOp32
 70
     1
102
RTVSPropertyOp0
 70
     1
102
RTVSPropertyOp1
 70
     1
102
RTVSPropertyOp2
 70
     1
102
RTVSPropertyOp3
 70
     1
102
RTVSPropertyOp4
 70
     1
102
RTVSPropertyOp5
 70
     1
102
RTVSPropertyOp6
 70
     1
102
RTVSPropertyOp7
 70
     1
102
RTVSPropertyOp8
 70
     1
102
RTVSPropertyOp9
 70
     1
102
RTVSPropertyOp10
 70
     1
102
RTVSPropertyOp11
 70
     1
102
RTVSPropertyOp12
 70
     1
102
RTVSPropertyOp13
 70
     1
102
RTVSPropertyOp14
 70
     1
102
RTVSPropertyOp15
 70
     1
102
RTVSPropertyOp16
 70
     1
102
RTVSPropertyOp17
 70
     1
102
RTVSPropertyOp18
 70
     1
102
RTVSPropertyOp19
 70
     1
102
RTVSPropertyOp20
 70
     1
102
RTVSPropertyOp21
 70
     1
102
RTVSPropertyOp22
 70
     1
102
RTVSPropertyOp23
 70
     1
102
RTVSPropertyOp24
 70
     1
102
RTVSPropertyOp25
 70
     1
102
RTVSPropertyOp26
 70
     1
102
RTVSPropertyOp27
 70
     1
  0
XRECORD
  5
17C27
102
{ACAD_REACTORS
330
17C26
102
}
330
17C26
100
AcDbXrecord
280
     1
102
RTVSPropertyOp28
 70
     1
102
RTVSPropertyOp29
 70
     1
102
RTVSPropertyOp30
 70
     1
102
RTVSPropertyOp31
 70
     1
102
RTVSPropertyOp32
 70
     1
102
RTVSPropertyOp0
 70
     1
102
RTVSPropertyOp1
 70
     1
102
RTVSPropertyOp2
 70
     1
102
RTVSPropertyOp3
 70
     1
102
RTVSPropertyOp4
 70
     1
102
RTVSPropertyOp5
 70
     1
102
RTVSPropertyOp6
 70
     1
102
RTVSPropertyOp7
 70
     1
102
RTVSPropertyOp8
 70
     1
102
RTVSPropertyOp9
 70
     1
102
RTVSPropertyOp10
 70
     1
102
RTVSPropertyOp11
 70
     1
102
RTVSPropertyOp12
 70
     1
102
RTVSPropertyOp13
 70
     1
102
RTVSPropertyOp14
 70
     1
102
RTVSPropertyOp15
 70
     1
102
RTVSPropertyOp16
 70
     1
102
RTVSPropertyOp17
 70
     1
102
RTVSPropertyOp18
 70
     1
102
RTVSPropertyOp19
 70
     1
102
RTVSPropertyOp20
 70
     1
102
RTVSPropertyOp21
 70
     1
102
RTVSPropertyOp22
 70
     1
102
RTVSPropertyOp23
 70
     1
102
RTVSPropertyOp24
 70
     1
102
RTVSPropertyOp25
 70
     1
102
RTVSPropertyOp26
 70
     1
102
RTVSPropertyOp27
 70
     1
  0
XRECORD
  5
17C2F
102
{ACAD_REACTORS
330
17C2E
102
}
330
17C2E
100
AcDbXrecord
280
     1
102
RTVSPropertyOp28
 70
     1
102
RTVSPropertyOp29
 70
     1
102
RTVSPropertyOp30
 70
     1
102
RTVSPropertyOp31
 70
     1
102
RTVSPropertyOp32
 70
     1
102
RTVSPropertyOp0
 70
     1
102
RTVSPropertyOp1
 70
     1
102
RTVSPropertyOp2
 70
     1
102
RTVSPropertyOp3
 70
     1
102
RTVSPropertyOp4
 70
     1
102
RTVSPropertyOp5
 70
     1
102
RTVSPropertyOp6
 70
     1
102
RTVSPropertyOp7
 70
     1
102
RTVSPropertyOp8
 70
     1
102
RTVSPropertyOp9
 70
     1
102
RTVSPropertyOp10
 70
     1
102
RTVSPropertyOp11
 70
     1
102
RTVSPropertyOp12
 70
     1
102
RTVSPropertyOp13
 70
     1
102
RTVSPropertyOp14
 70
     1
102
RTVSPropertyOp15
 70
     1
102
RTVSPropertyOp16
 70
     1
102
RTVSPropertyOp17
 70
     1
102
RTVSPropertyOp18
 70
     1
102
RTVSPropertyOp19
 70
     1
102
RTVSPropertyOp20
 70
     1
102
RTVSPropertyOp21
 70
     1
102
RTVSPropertyOp22
 70
     1
102
RTVSPropertyOp23
 70
     1
102
RTVSPropertyOp24
 70
     1
102
RTVSPropertyOp25
 70
     1
102
RTVSPropertyOp26
 70
     1
102
RTVSPropertyOp27
 70
     1
  0
XRECORD
  5
17C21
102
{ACAD_REACTORS
330
17C20
102
}
330
17C20
100
AcDbXrecord
280
     1
102
RTVSPropertyOp28
 70
     1
102
RTVSPropertyOp29
 70
     1
102
RTVSPropertyOp30
 70
     1
102
RTVSPropertyOp31
 70
     1
102
RTVSPropertyOp32
 70
     1
102
RTVSPropertyOp0
 70
     1
102
RTVSPropertyOp1
 70
     1
102
RTVSPropertyOp2
 70
     1
102
RTVSPropertyOp3
 70
     1
102
RTVSPropertyOp4
 70
     1
102
RTVSPropertyOp5
 70
     1
102
RTVSPropertyOp6
 70
     1
102
RTVSPropertyOp7
 70
     1
102
RTVSPropertyOp8
 70
     1
102
RTVSPropertyOp9
 70
     1
102
RTVSPropertyOp10
 70
     1
102
RTVSPropertyOp11
 70
     1
102
RTVSPropertyOp12
 70
     1
102
RTVSPropertyOp13
 70
     1
102
RTVSPropertyOp14
 70
     1
102
RTVSPropertyOp15
 70
     1
102
RTVSPropertyOp16
 70
     1
102
RTVSPropertyOp17
 70
     1
102
RTVSPropertyOp18
 70
     1
102
RTVSPropertyOp19
 70
     1
102
RTVSPropertyOp20
 70
     1
102
RTVSPropertyOp21
 70
     1
102
RTVSPropertyOp22
 70
     1
102
RTVSPropertyOp23
 70
     1
102
RTVSPropertyOp24
 70
     1
102
RTVSPropertyOp25
 70
     1
102
RTVSPropertyOp26
 70
     1
102
RTVSPropertyOp27
 70
     1
  0
XRECORD
  5
17C25
102
{ACAD_REACTORS
330
17C24
102
}
330
17C24
100
AcDbXrecord
280
     1
102
RTVSPropertyOp28
 70
     1
102
RTVSPropertyOp29
 70
     1
102
RTVSPropertyOp30
 70
     1
102
RTVSPropertyOp31
 70
     1
102
RTVSPropertyOp32
 70
     1
102
RTVSPropertyOp0
 70
     1
102
RTVSPropertyOp1
 70
     1
102
RTVSPropertyOp2
 70
     1
102
RTVSPropertyOp3
 70
     1
102
RTVSPropertyOp4
 70
     1
102
RTVSPropertyOp5
 70
     1
102
RTVSPropertyOp6
 70
     1
102
RTVSPropertyOp7
 70
     1
102
RTVSPropertyOp8
 70
     1
102
RTVSPropertyOp9
 70
     1
102
RTVSPropertyOp10
 70
     1
102
RTVSPropertyOp11
 70
     1
102
RTVSPropertyOp12
 70
     1
102
RTVSPropertyOp13
 70
     1
102
RTVSPropertyOp14
 70
     1
102
RTVSPropertyOp15
 70
     1
102
RTVSPropertyOp16
 70
     1
102
RTVSPropertyOp17
 70
     1
102
RTVSPropertyOp18
 70
     1
102
RTVSPropertyOp19
 70
     1
102
RTVSPropertyOp20
 70
     1
102
RTVSPropertyOp21
 70
     1
102
RTVSPropertyOp22
 70
     1
102
RTVSPropertyOp23
 70
     1
102
RTVSPropertyOp24
 70
     1
102
RTVSPropertyOp25
 70
     1
102
RTVSPropertyOp26
 70
     1
102
RTVSPropertyOp27
 70
     1
  0
XRECORD
  5
17C35
102
{ACAD_REACTORS
330
17C34
102
}
330
17C34
100
AcDbXrecord
280
     1
102
RTVSPropertyOp28
 70
     1
102
RTVSPropertyOp29
 70
     1
102
RTVSPropertyOp30
 70
     1
102
RTVSPropertyOp31
 70
     1
102
RTVSPropertyOp32
 70
     1
102
RTVSPropertyOp0
 70
     0
102
RTVSPropertyOp1
 70
     0
102
RTVSPropertyOp2
 70
     0
102
RTVSPropertyOp3
 70
     0
102
RTVSPropertyOp4
 70
     0
102
RTVSPropertyOp5
 70
     0
102
RTVSPropertyOp6
 70
     0
102
RTVSPropertyOp7
 70
     0
102
RTVSPropertyOp8
 70
     0
102
RTVSPropertyOp9
 70
     0
102
RTVSPropertyOp10
 70
     0
102
RTVSPropertyOp11
 70
     0
102
RTVSPropertyOp12
 70
     0
102
RTVSPropertyOp13
 70
     0
102
RTVSPropertyOp14
 70
     2
102
RTVSPropertyOp15
 70
     0
102
RTVSPropertyOp16
 70
     0
102
RTVSPropertyOp17
 70
     0
102
RTVSPropertyOp18
 70
     0
102
RTVSPropertyOp19
 70
     0
102
RTVSPropertyOp20
 70
     0
102
RTVSPropertyOp21
 70
     0
102
RTVSPropertyOp22
 70
     0
102
RTVSPropertyOp23
 70
     0
102
RTVSPropertyOp24
 70
     0
102
RTVSPropertyOp25
 70
     0
102
RTVSPropertyOp26
 70
     0
102
RTVSPropertyOp27
 70
     0
  0
XRECORD
  5
17C2D
102
{ACAD_REACTORS
330
17C2C
102
}
330
17C2C
100
AcDbXrecord
280
     1
102
RTVSPropertyOp28
 70
     1
102
RTVSPropertyOp29
 70
     1
102
RTVSPropertyOp30
 70
     1
102
RTVSPropertyOp31
 70
     1
102
RTVSPropertyOp32
 70
     1
102
RTVSPropertyOp0
 70
     1
102
RTVSPropertyOp1
 70
     1
102
RTVSPropertyOp2
 70
     1
102
RTVSPropertyOp3
 70
     1
102
RTVSPropertyOp4
 70
     1
102
RTVSPropertyOp5
 70
     1
102
RTVSPropertyOp6
 70
     1
102
RTVSPropertyOp7
 70
     1
102
RTVSPropertyOp8
 70
     1
102
RTVSPropertyOp9
 70
     1
102
RTVSPropertyOp10
 70
     1
102
RTVSPropertyOp11
 70
     1
102
RTVSPropertyOp12
 70
     1
102
RTVSPropertyOp13
 70
     1
102
RTVSPropertyOp14
 70
     1
102
RTVSPropertyOp15
 70
     1
102
RTVSPropertyOp16
 70
     1
102
RTVSPropertyOp17
 70
     1
102
RTVSPropertyOp18
 70
     1
102
RTVSPropertyOp19
 70
     1
102
RTVSPropertyOp20
 70
     1
102
RTVSPropertyOp21
 70
     1
102
RTVSPropertyOp22
 70
     1
102
RTVSPropertyOp23
 70
     1
102
RTVSPropertyOp24
 70
     1
102
RTVSPropertyOp25
 70
     1
102
RTVSPropertyOp26
 70
     1
102
RTVSPropertyOp27
 70
     1
  0
XRECORD
  5
17C11
102
{ACAD_REACTORS
330
17C10
102
}
330
17C10
100
AcDbXrecord
280
     1
102
RTVSPropertyOp28
 70
     1
102
RTVSPropertyOp29
 70
     1
102
RTVSPropertyOp30
 70
     1
102
RTVSPropertyOp31
 70
     1
102
RTVSPropertyOp32
 70
     1
102
RTVSPropertyOp0
 70
     1
102
RTVSPropertyOp1
 70
     1
102
RTVSPropertyOp2
 70
     1
102
RTVSPropertyOp3
 70
     1
102
RTVSPropertyOp4
 70
     1
102
RTVSPropertyOp5
 70
     1
102
RTVSPropertyOp6
 70
     1
102
RTVSPropertyOp7
 70
     1
102
RTVSPropertyOp8
 70
     1
102
RTVSPropertyOp9
 70
     1
102
RTVSPropertyOp10
 70
     1
102
RTVSPropertyOp11
 70
     1
102
RTVSPropertyOp12
 70
     1
102
RTVSPropertyOp13
 70
     1
102
RTVSPropertyOp14
 70
     1
102
RTVSPropertyOp15
 70
     1
102
RTVSPropertyOp16
 70
     1
102
RTVSPropertyOp17
 70
     1
102
RTVSPropertyOp18
 70
     1
102
RTVSPropertyOp19
 70
     1
102
RTVSPropertyOp20
 70
     1
102
RTVSPropertyOp21
 70
     1
102
RTVSPropertyOp22
 70
     1
102
RTVSPropertyOp23
 70
     1
102
RTVSPropertyOp24
 70
     1
102
RTVSPropertyOp25
 70
     1
102
RTVSPropertyOp26
 70
     1
102
RTVSPropertyOp27
 70
     1
  0
XRECORD
  5
17C13
102
{ACAD_REACTORS
330
17C12
102
}
330
17C12
100
AcDbXrecord
280
     1
102
RTVSPropertyOp28
 70
     1
102
RTVSPropertyOp29
 70
     1
102
RTVSPropertyOp30
 70
     1
102
RTVSPropertyOp31
 70
     1
102
RTVSPropertyOp32
 70
     1
102
RTVSPropertyOp0
 70
     1
102
RTVSPropertyOp1
 70
     1
102
RTVSPropertyOp2
 70
     1
102
RTVSPropertyOp3
 70
     1
102
RTVSPropertyOp4
 70
     1
102
RTVSPropertyOp5
 70
     1
102
RTVSPropertyOp6
 70
     1
102
RTVSPropertyOp7
 70
     1
102
RTVSPropertyOp8
 70
     1
102
RTVSPropertyOp9
 70
     1
102
RTVSPropertyOp10
 70
     1
102
RTVSPropertyOp11
 70
     1
102
RTVSPropertyOp12
 70
     1
102
RTVSPropertyOp13
 70
     1
102
RTVSPropertyOp14
 70
     1
102
RTVSPropertyOp15
 70
     1
102
RTVSPropertyOp16
 70
     1
102
RTVSPropertyOp17
 70
     1
102
RTVSPropertyOp18
 70
     1
102
RTVSPropertyOp19
 70
     1
102
RTVSPropertyOp20
 70
     1
102
RTVSPropertyOp21
 70
     1
102
RTVSPropertyOp22
 70
     1
102
RTVSPropertyOp23
 70
     1
102
RTVSPropertyOp24
 70
     1
102
RTVSPropertyOp25
 70
     1
102
RTVSPropertyOp26
 70
     1
102
RTVSPropertyOp27
 70
     1
  0
XRECORD
  5
17C15
102
{ACAD_REACTORS
330
17C14
102
}
330
17C14
100
AcDbXrecord
280
     1
102
RTVSPropertyOp28
 70
     1
102
RTVSPropertyOp29
 70
     1
102
RTVSPropertyOp30
 70
     1
102
RTVSPropertyOp31
 70
     1
102
RTVSPropertyOp32
 70
     1
102
RTVSPropertyOp0
 70
     1
102
RTVSPropertyOp1
 70
     1
102
RTVSPropertyOp2
 70
     1
102
RTVSPropertyOp3
 70
     1
102
RTVSPropertyOp4
 70
     1
102
RTVSPropertyOp5
 70
     1
102
RTVSPropertyOp6
 70
     1
102
RTVSPropertyOp7
 70
     1
102
RTVSPropertyOp8
 70
     1
102
RTVSPropertyOp9
 70
     1
102
RTVSPropertyOp10
 70
     1
102
RTVSPropertyOp11
 70
     1
102
RTVSPropertyOp12
 70
     1
102
RTVSPropertyOp13
 70
     1
102
RTVSPropertyOp14
 70
     1
102
RTVSPropertyOp15
 70
     1
102
RTVSPropertyOp16
 70
     1
102
RTVSPropertyOp17
 70
     1
102
RTVSPropertyOp18
 70
     1
102
RTVSPropertyOp19
 70
     1
102
RTVSPropertyOp20
 70
     1
102
RTVSPropertyOp21
 70
     1
102
RTVSPropertyOp22
 70
     1
102
RTVSPropertyOp23
 70
     1
102
RTVSPropertyOp24
 70
     1
102
RTVSPropertyOp25
 70
     1
102
RTVSPropertyOp26
 70
     1
102
RTVSPropertyOp27
 70
     1
  0
XRECORD
  5
17C17
102
{ACAD_REACTORS
330
17C16
102
}
330
17C16
100
AcDbXrecord
280
     1
102
RTVSPropertyOp28
 70
     1
102
RTVSPropertyOp29
 70
     1
102
RTVSPropertyOp30
 70
     1
102
RTVSPropertyOp31
 70
     1
102
RTVSPropertyOp32
 70
     1
102
RTVSPropertyOp0
 70
     1
102
RTVSPropertyOp1
 70
     1
102
RTVSPropertyOp2
 70
     1
102
RTVSPropertyOp3
 70
     1
102
RTVSPropertyOp4
 70
     1
102
RTVSPropertyOp5
 70
     1
102
RTVSPropertyOp6
 70
     1
102
RTVSPropertyOp7
 70
     1
102
RTVSPropertyOp8
 70
     1
102
RTVSPropertyOp9
 70
     1
102
RTVSPropertyOp10
 70
     1
102
RTVSPropertyOp11
 70
     1
102
RTVSPropertyOp12
 70
     1
102
RTVSPropertyOp13
 70
     1
102
RTVSPropertyOp14
 70
     1
102
RTVSPropertyOp15
 70
     1
102
RTVSPropertyOp16
 70
     1
102
RTVSPropertyOp17
 70
     1
102
RTVSPropertyOp18
 70
     1
102
RTVSPropertyOp19
 70
     1
102
RTVSPropertyOp20
 70
     1
102
RTVSPropertyOp21
 70
     1
102
RTVSPropertyOp22
 70
     1
102
RTVSPropertyOp23
 70
     1
102
RTVSPropertyOp24
 70
     1
102
RTVSPropertyOp25
 70
     1
102
RTVSPropertyOp26
 70
     1
102
RTVSPropertyOp27
 70
     1
  0
XRECORD
  5
17C39
102
{ACAD_REACTORS
330
17C38
102
}
330
17C38
100
AcDbXrecord
280
     1
102
RTVSPropertyOp28
 70
     1
102
RTVSPropertyOp29
 70
     1
102
RTVSPropertyOp30
 70
     1
102
RTVSPropertyOp31
 70
     1
102
RTVSPropertyOp32
 70
     1
102
RTVSPropertyOp0
 70
     1
102
RTVSPropertyOp1
 70
     1
102
RTVSPropertyOp2
 70
     1
102
RTVSPropertyOp3
 70
     1
102
RTVSPropertyOp4
 70
     1
102
RTVSPropertyOp5
 70
     1
102
RTVSPropertyOp6
 70
     1
102
RTVSPropertyOp7
 70
     1
102
RTVSPropertyOp8
 70
     1
102
RTVSPropertyOp9
 70
     1
102
RTVSPropertyOp10
 70
     1
102
RTVSPropertyOp11
 70
     1
102
RTVSPropertyOp12
 70
     1
102
RTVSPropertyOp13
 70
     1
102
RTVSPropertyOp14
 70
     1
102
RTVSPropertyOp15
 70
     1
102
RTVSPropertyOp16
 70
     1
102
RTVSPropertyOp17
 70
     1
102
RTVSPropertyOp18
 70
     1
102
RTVSPropertyOp19
 70
     1
102
RTVSPropertyOp20
 70
     1
102
RTVSPropertyOp21
 70
     1
102
RTVSPropertyOp22
 70
     1
102
RTVSPropertyOp23
 70
     1
102
RTVSPropertyOp24
 70
     1
102
RTVSPropertyOp25
 70
     1
102
RTVSPropertyOp26
 70
     1
102
RTVSPropertyOp27
 70
     1
  0
XRECORD
  5
17C31
102
{ACAD_REACTORS
330
17C30
102
}
330
17C30
100
AcDbXrecord
280
     1
102
RTVSPropertyOp28
 70
     1
102
RTVSPropertyOp29
 70
     1
102
RTVSPropertyOp30
 70
     1
102
RTVSPropertyOp31
 70
     1
102
RTVSPropertyOp32
 70
     1
102
RTVSPropertyOp0
 70
     0
102
RTVSPropertyOp1
 70
     0
102
RTVSPropertyOp2
 70
     0
102
RTVSPropertyOp3
 70
     0
102
RTVSPropertyOp4
 70
     0
102
RTVSPropertyOp5
 70
     0
102
RTVSPropertyOp6
 70
     0
102
RTVSPropertyOp7
 70
     0
102
RTVSPropertyOp8
 70
     0
102
RTVSPropertyOp9
 70
     0
102
RTVSPropertyOp10
 70
     0
102
RTVSPropertyOp11
 70
     0
102
RTVSPropertyOp12
 70
     0
102
RTVSPropertyOp13
 70
     0
102
RTVSPropertyOp14
 70
     2
102
RTVSPropertyOp15
 70
     0
102
RTVSPropertyOp16
 70
     0
102
RTVSPropertyOp17
 70
     0
102
RTVSPropertyOp18
 70
     0
102
RTVSPropertyOp19
 70
     0
102
RTVSPropertyOp20
 70
     0
102
RTVSPropertyOp21
 70
     0
102
RTVSPropertyOp22
 70
     0
102
RTVSPropertyOp23
 70
     0
102
RTVSPropertyOp24
 70
     0
102
RTVSPropertyOp25
 70
     0
102
RTVSPropertyOp26
 70
     0
102
RTVSPropertyOp27
 70
     0
  0
XRECORD
  5
17C2B
102
{ACAD_REACTORS
330
17C2A
102
}
330
17C2A
100
AcDbXrecord
280
     1
102
RTVSPropertyOp28
 70
     1
102
RTVSPropertyOp29
 70
     1
102
RTVSPropertyOp30
 70
     1
102
RTVSPropertyOp31
 70
     1
102
RTVSPropertyOp32
 70
     1
102
RTVSPropertyOp0
 70
     1
102
RTVSPropertyOp1
 70
     1
102
RTVSPropertyOp2
 70
     1
102
RTVSPropertyOp3
 70
     1
102
RTVSPropertyOp4
 70
     1
102
RTVSPropertyOp5
 70
     1
102
RTVSPropertyOp6
 70
     1
102
RTVSPropertyOp7
 70
     1
102
RTVSPropertyOp8
 70
     1
102
RTVSPropertyOp9
 70
     1
102
RTVSPropertyOp10
 70
     1
102
RTVSPropertyOp11
 70
     1
102
RTVSPropertyOp12
 70
     1
102
RTVSPropertyOp13
 70
     1
102
RTVSPropertyOp14
 70
     1
102
RTVSPropertyOp15
 70
     1
102
RTVSPropertyOp16
 70
     1
102
RTVSPropertyOp17
 70
     1
102
RTVSPropertyOp18
 70
     1
102
RTVSPropertyOp19
 70
     1
102
RTVSPropertyOp20
 70
     1
102
RTVSPropertyOp21
 70
     1
102
RTVSPropertyOp22
 70
     1
102
RTVSPropertyOp23
 70
     1
102
RTVSPropertyOp24
 70
     1
102
RTVSPropertyOp25
 70
     1
102
RTVSPropertyOp26
 70
     1
102
RTVSPropertyOp27
 70
     1
  0
XRECORD
  5
17C33
102
{ACAD_REACTORS
330
17C32
102
}
330
17C32
100
AcDbXrecord
280
     1
102
RTVSPropertyOp28
 70
     1
102
RTVSPropertyOp29
 70
     1
102
RTVSPropertyOp30
 70
     1
102
RTVSPropertyOp31
 70
     1
102
RTVSPropertyOp32
 70
     1
102
RTVSPropertyOp0
 70
     0
102
RTVSPropertyOp1
 70
     0
102
RTVSPropertyOp2
 70
     0
102
RTVSPropertyOp3
 70
     0
102
RTVSPropertyOp4
 70
     0
102
RTVSPropertyOp5
 70
     0
102
RTVSPropertyOp6
 70
     0
102
RTVSPropertyOp7
 70
     0
102
RTVSPropertyOp8
 70
     0
102
RTVSPropertyOp9
 70
     0
102
RTVSPropertyOp10
 70
     0
102
RTVSPropertyOp11
 70
     0
102
RTVSPropertyOp12
 70
     0
102
RTVSPropertyOp13
 70
     0
102
RTVSPropertyOp14
 70
     2
102
RTVSPropertyOp15
 70
     0
102
RTVSPropertyOp16
 70
     0
102
RTVSPropertyOp17
 70
     0
102
RTVSPropertyOp18
 70
     0
102
RTVSPropertyOp19
 70
     0
102
RTVSPropertyOp20
 70
     0
102
RTVSPropertyOp21
 70
     0
102
RTVSPropertyOp22
 70
     0
102
RTVSPropertyOp23
 70
     0
102
RTVSPropertyOp24
 70
     0
102
RTVSPropertyOp25
 70
     0
102
RTVSPropertyOp26
 70
     0
102
RTVSPropertyOp27
 70
     0
  0
XRECORD
  5
17C23
102
{ACAD_REACTORS
330
17C22
102
}
330
17C22
100
AcDbXrecord
280
     1
102
RTVSPropertyOp28
 70
     1
102
RTVSPropertyOp29
 70
     1
102
RTVSPropertyOp30
 70
     1
102
RTVSPropertyOp31
 70
     1
102
RTVSPropertyOp32
 70
     1
102
RTVSPropertyOp0
 70
     1
102
RTVSPropertyOp1
 70
     1
102
RTVSPropertyOp2
 70
     1
102
RTVSPropertyOp3
 70
     1
102
RTVSPropertyOp4
 70
     1
102
RTVSPropertyOp5
 70
     1
102
RTVSPropertyOp6
 70
     1
102
RTVSPropertyOp7
 70
     1
102
RTVSPropertyOp8
 70
     1
102
RTVSPropertyOp9
 70
     1
102
RTVSPropertyOp10
 70
     1
102
RTVSPropertyOp11
 70
     1
102
RTVSPropertyOp12
 70
     1
102
RTVSPropertyOp13
 70
     1
102
RTVSPropertyOp14
 70
     1
102
RTVSPropertyOp15
 70
     1
102
RTVSPropertyOp16
 70
     1
102
RTVSPropertyOp17
 70
     1
102
RTVSPropertyOp18
 70
     1
102
RTVSPropertyOp19
 70
     1
102
RTVSPropertyOp20
 70
     1
102
RTVSPropertyOp21
 70
     1
102
RTVSPropertyOp22
 70
     1
102
RTVSPropertyOp23
 70
     1
102
RTVSPropertyOp24
 70
     1
102
RTVSPropertyOp25
 70
     1
102
RTVSPropertyOp26
 70
     1
102
RTVSPropertyOp27
 70
     1
  0
XRECORD
  5
17C43
102
{ACAD_REACTORS
330
17C42
102
}
330
17C42
100
AcDbXrecord
280
     1
102
RTVSPropertyOp28
 70
     1
102
RTVSPropertyOp29
 70
     1
102
RTVSPropertyOp30
 70
     1
102
RTVSPropertyOp31
 70
     1
102
RTVSPropertyOp32
 70
     1
102
RTVSPropertyOp0
 70
     1
102
RTVSPropertyOp1
 70
     1
102
RTVSPropertyOp2
 70
     1
102
RTVSPropertyOp3
 70
     1
102
RTVSPropertyOp4
 70
     1
102
RTVSPropertyOp5
 70
     1
102
RTVSPropertyOp6
 70
     1
102
RTVSPropertyOp7
 70
     1
102
RTVSPropertyOp8
 70
     1
102
RTVSPropertyOp9
 70
     1
102
RTVSPropertyOp10
 70
     1
102
RTVSPropertyOp11
 70
     1
102
RTVSPropertyOp12
 70
     1
102
RTVSPropertyOp13
 70
     1
102
RTVSPropertyOp14
 70
     1
102
RTVSPropertyOp15
 70
     1
102
RTVSPropertyOp16
 70
     1
102
RTVSPropertyOp17
 70
     1
102
RTVSPropertyOp18
 70
     1
102
RTVSPropertyOp19
 70
     1
102
RTVSPropertyOp20
 70
     1
102
RTVSPropertyOp21
 70
     1
102
RTVSPropertyOp22
 70
     1
102
RTVSPropertyOp23
 70
     1
102
RTVSPropertyOp24
 70
     1
102
RTVSPropertyOp25
 70
     1
102
RTVSPropertyOp26
 70
     1
102
RTVSPropertyOp27
 70
     1
  0
XRECORD
  5
17C41
102
{ACAD_REACTORS
330
17C40
102
}
330
17C40
100
AcDbXrecord
280
     1
102
RTVSPropertyOp28
 70
     1
102
RTVSPropertyOp29
 70
     1
102
RTVSPropertyOp30
 70
     1
102
RTVSPropertyOp31
 70
     1
102
RTVSPropertyOp32
 70
     1
102
RTVSPropertyOp0
 70
     1
102
RTVSPropertyOp1
 70
     1
102
RTVSPropertyOp2
 70
     1
102
RTVSPropertyOp3
 70
     1
102
RTVSPropertyOp4
 70
     1
102
RTVSPropertyOp5
 70
     1
102
RTVSPropertyOp6
 70
     1
102
RTVSPropertyOp7
 70
     1
102
RTVSPropertyOp8
 70
     1
102
RTVSPropertyOp9
 70
     1
102
RTVSPropertyOp10
 70
     1
102
RTVSPropertyOp11
 70
     1
102
RTVSPropertyOp12
 70
     1
102
RTVSPropertyOp13
 70
     1
102
RTVSPropertyOp14
 70
     1
102
RTVSPropertyOp15
 70
     1
102
RTVSPropertyOp16
 70
     1
102
RTVSPropertyOp17
 70
     1
102
RTVSPropertyOp18
 70
     1
102
RTVSPropertyOp19
 70
     1
102
RTVSPropertyOp20
 70
     1
102
RTVSPropertyOp21
 70
     1
102
RTVSPropertyOp22
 70
     1
102
RTVSPropertyOp23
 70
     1
102
RTVSPropertyOp24
 70
     1
102
RTVSPropertyOp25
 70
     1
102
RTVSPropertyOp26
 70
     1
102
RTVSPropertyOp27
 70
     1
  0
XRECORD
  5
17C3B
102
{ACAD_REACTORS
330
17C3A
102
}
330
17C3A
100
AcDbXrecord
280
     1
102
RTVSPropertyOp28
 70
     1
102
RTVSPropertyOp29
 70
     1
102
RTVSPropertyOp30
 70
     1
102
RTVSPropertyOp31
 70
     1
102
RTVSPropertyOp32
 70
     1
102
RTVSPropertyOp0
 70
     1
102
RTVSPropertyOp1
 70
     1
102
RTVSPropertyOp2
 70
     1
102
RTVSPropertyOp3
 70
     1
102
RTVSPropertyOp4
 70
     1
102
RTVSPropertyOp5
 70
     1
102
RTVSPropertyOp6
 70
     1
102
RTVSPropertyOp7
 70
     1
102
RTVSPropertyOp8
 70
     1
102
RTVSPropertyOp9
 70
     1
102
RTVSPropertyOp10
 70
     1
102
RTVSPropertyOp11
 70
     1
102
RTVSPropertyOp12
 70
     1
102
RTVSPropertyOp13
 70
     1
102
RTVSPropertyOp14
 70
     1
102
RTVSPropertyOp15
 70
     1
102
RTVSPropertyOp16
 70
     1
102
RTVSPropertyOp17
 70
     1
102
RTVSPropertyOp18
 70
     1
102
RTVSPropertyOp19
 70
     1
102
RTVSPropertyOp20
 70
     1
102
RTVSPropertyOp21
 70
     1
102
RTVSPropertyOp22
 70
     1
102
RTVSPropertyOp23
 70
     1
102
RTVSPropertyOp24
 70
     1
102
RTVSPropertyOp25
 70
     1
102
RTVSPropertyOp26
 70
     1
102
RTVSPropertyOp27
 70
     1
  0
XRECORD
  5
17C3D
102
{ACAD_REACTORS
330
17C3C
102
}
330
17C3C
100
AcDbXrecord
280
     1
102
RTVSPropertyOp28
 70
     1
102
RTVSPropertyOp29
 70
     1
102
RTVSPropertyOp30
 70
     1
102
RTVSPropertyOp31
 70
     1
102
RTVSPropertyOp32
 70
     1
102
RTVSPropertyOp0
 70
     1
102
RTVSPropertyOp1
 70
     1
102
RTVSPropertyOp2
 70
     1
102
RTVSPropertyOp3
 70
     1
102
RTVSPropertyOp4
 70
     1
102
RTVSPropertyOp5
 70
     1
102
RTVSPropertyOp6
 70
     1
102
RTVSPropertyOp7
 70
     1
102
RTVSPropertyOp8
 70
     1
102
RTVSPropertyOp9
 70
     1
102
RTVSPropertyOp10
 70
     1
102
RTVSPropertyOp11
 70
     1
102
RTVSPropertyOp12
 70
     1
102
RTVSPropertyOp13
 70
     1
102
RTVSPropertyOp14
 70
     1
102
RTVSPropertyOp15
 70
     1
102
RTVSPropertyOp16
 70
     1
102
RTVSPropertyOp17
 70
     1
102
RTVSPropertyOp18
 70
     1
102
RTVSPropertyOp19
 70
     1
102
RTVSPropertyOp20
 70
     1
102
RTVSPropertyOp21
 70
     1
102
RTVSPropertyOp22
 70
     1
102
RTVSPropertyOp23
 70
     1
102
RTVSPropertyOp24
 70
     1
102
RTVSPropertyOp25
 70
     1
102
RTVSPropertyOp26
 70
     1
102
RTVSPropertyOp27
 70
     1
  0
XRECORD
  5
17C29
102
{ACAD_REACTORS
330
17C28
102
}
330
17C28
100
AcDbXrecord
280
     1
102
RTVSPropertyOp28
 70
     1
102
RTVSPropertyOp29
 70
     1
102
RTVSPropertyOp30
 70
     1
102
RTVSPropertyOp31
 70
     1
102
RTVSPropertyOp32
 70
     1
102
RTVSPropertyOp0
 70
     1
102
RTVSPropertyOp1
 70
     1
102
RTVSPropertyOp2
 70
     1
102
RTVSPropertyOp3
 70
     1
102
RTVSPropertyOp4
 70
     1
102
RTVSPropertyOp5
 70
     1
102
RTVSPropertyOp6
 70
     1
102
RTVSPropertyOp7
 70
     1
102
RTVSPropertyOp8
 70
     1
102
RTVSPropertyOp9
 70
     1
102
RTVSPropertyOp10
 70
     1
102
RTVSPropertyOp11
 70
     1
102
RTVSPropertyOp12
 70
     1
102
RTVSPropertyOp13
 70
     1
102
RTVSPropertyOp14
 70
     1
102
RTVSPropertyOp15
 70
     1
102
RTVSPropertyOp16
 70
     1
102
RTVSPropertyOp17
 70
     1
102
RTVSPropertyOp18
 70
     1
102
RTVSPropertyOp19
 70
     1
102
RTVSPropertyOp20
 70
     1
102
RTVSPropertyOp21
 70
     1
102
RTVSPropertyOp22
 70
     1
102
RTVSPropertyOp23
 70
     1
102
RTVSPropertyOp24
 70
     1
102
RTVSPropertyOp25
 70
     1
102
RTVSPropertyOp26
 70
     1
102
RTVSPropertyOp27
 70
     1
  0
XRECORD
  5
17C37
102
{ACAD_REACTORS
330
17C36
102
}
330
17C36
100
AcDbXrecord
280
     1
102
RTVSPropertyOp28
 70
     1
102
RTVSPropertyOp29
 70
     1
102
RTVSPropertyOp30
 70
     1
102
RTVSPropertyOp31
 70
     1
102
RTVSPropertyOp32
 70
     1
102
RTVSPropertyOp0
 70
     1
102
RTVSPropertyOp1
 70
     1
102
RTVSPropertyOp2
 70
     1
102
RTVSPropertyOp3
 70
     1
102
RTVSPropertyOp4
 70
     1
102
RTVSPropertyOp5
 70
     1
102
RTVSPropertyOp6
 70
     1
102
RTVSPropertyOp7
 70
     1
102
RTVSPropertyOp8
 70
     1
102
RTVSPropertyOp9
 70
     1
102
RTVSPropertyOp10
 70
     1
102
RTVSPropertyOp11
 70
     1
102
RTVSPropertyOp12
 70
     1
102
RTVSPropertyOp13
 70
     1
102
RTVSPropertyOp14
 70
     1
102
RTVSPropertyOp15
 70
     1
102
RTVSPropertyOp16
 70
     1
102
RTVSPropertyOp17
 70
     1
102
RTVSPropertyOp18
 70
     1
102
RTVSPropertyOp19
 70
     1
102
RTVSPropertyOp20
 70
     1
102
RTVSPropertyOp21
 70
     1
102
RTVSPropertyOp22
 70
     1
102
RTVSPropertyOp23
 70
     1
102
RTVSPropertyOp24
 70
     1
102
RTVSPropertyOp25
 70
     1
102
RTVSPropertyOp26
 70
     1
102
RTVSPropertyOp27
 70
     1
  0
XRECORD
  5
17C3F
102
{ACAD_REACTORS
330
17C3E
102
}
330
17C3E
100
AcDbXrecord
280
     1
102
RTVSPropertyOp28
 70
     1
102
RTVSPropertyOp29
 70
     1
102
RTVSPropertyOp30
 70
     1
102
RTVSPropertyOp31
 70
     1
102
RTVSPropertyOp32
 70
     1
102
RTVSPropertyOp0
 70
     1
102
RTVSPropertyOp1
 70
     1
102
RTVSPropertyOp2
 70
     1
102
RTVSPropertyOp3
 70
     1
102
RTVSPropertyOp4
 70
     1
102
RTVSPropertyOp5
 70
     1
102
RTVSPropertyOp6
 70
     1
102
RTVSPropertyOp7
 70
     1
102
RTVSPropertyOp8
 70
     1
102
RTVSPropertyOp9
 70
     1
102
RTVSPropertyOp10
 70
     1
102
RTVSPropertyOp11
 70
     1
102
RTVSPropertyOp12
 70
     1
102
RTVSPropertyOp13
 70
     1
102
RTVSPropertyOp14
 70
     1
102
RTVSPropertyOp15
 70
     1
102
RTVSPropertyOp16
 70
     1
102
RTVSPropertyOp17
 70
     1
102
RTVSPropertyOp18
 70
     1
102
RTVSPropertyOp19
 70
     1
102
RTVSPropertyOp20
 70
     1
102
RTVSPropertyOp21
 70
     1
102
RTVSPropertyOp22
 70
     1
102
RTVSPropertyOp23
 70
     1
102
RTVSPropertyOp24
 70
     1
102
RTVSPropertyOp25
 70
     1
102
RTVSPropertyOp26
 70
     1
102
RTVSPropertyOp27
 70
     1
  0
XRECORD
  5
171D6
102
{ACAD_REACTORS
330
171D5
102
}
330
171D5
100
AcDbXrecord
280
     1
330
D07C
  0
ENDSEC
  0
EOF
