  0
SECTION
  2
HEADER
  9
$ACADVER
  1
AC1015
  9
$ACADMAINTVER
 70
    20
  9
$DWGCODEPAGE
  3
ANSI_932
  9
$INSBASE
 10
0.0
 20
0.0
 30
0.0
  9
$EXTMIN
 10
-265.9574429398742
 20
-212.7221446578904
 30
0.0
  9
$EXTMAX
 10
97.56688112232902
 20
74.42454214929544
 30
0.0
  9
$LIMMIN
 10
0.0
 20
0.0
  9
$LIMMAX
 10
420.0
 20
297.0
  9
$ORTHOMODE
 70
     0
  9
$REGENMODE
 70
     1
  9
$FILLMODE
 70
     1
  9
$QTEXTMODE
 70
     0
  9
$MIRRTEXT
 70
     0
  9
$LTSCALE
 40
0.5
  9
$ATTMODE
 70
     1
  9
$TEXTSIZE
 40
4.0
  9
$TRACEWID
 40
1.0
  9
$TEXTSTYLE
  7
STANDARD
  9
$CLAYER
  8
1TEXT
  9
$CELTYPE
  6
BYLAYER
  9
$CECOLOR
 62
   256
  9
$CELTSCALE
 40
1.0
  9
$DISPSILH
 70
     0
  9
$DIMSCALE
 40
1.0
  9
$DIMASZ
 40
2.0
  9
$DIMEXO
 40
0.0
  9
$DIMDLI
 40
7.0
  9
$DIMRND
 40
0.0
  9
$DIMDLE
 40
0.0
  9
$DIMEXE
 40
1.0
  9
$DIMTP
 40
0.0
  9
$DIMTM
 40
0.0
  9
$DIMTXT
 40
3.5
  9
$DIMCEN
 40
0.0
  9
$DIMTSZ
 40
0.0
  9
$DIMTOL
 70
     0
  9
$DIMLIM
 70
     0
  9
$DIMTIH
 70
     0
  9
$DIMTOH
 70
     0
  9
$DIMSE1
 70
     0
  9
$DIMSE2
 70
     0
  9
$DIMTAD
 70
     1
  9
$DIMZIN
 70
     8
  9
$DIMBLK
  1

  9
$DIMASO
 70
     1
  9
$DIMSHO
 70
     1
  9
$DIMPOST
  1
 
  9
$DIMAPOST
  1

  9
$DIMALT
 70
     0
  9
$DIMALTD
 70
     2
  9
$DIMALTF
 40
25.4
  9
$DIMLFAC
 40
1.0
  9
$DIMTOFL
 70
     1
  9
$DIMTVP
 40
0.0
  9
$DIMTIX
 70
     0
  9
$DIMSOXD
 70
     0
  9
$DIMSAH
 70
     1
  9
$DIMBLK1
  1
OPEN30
  9
$DIMBLK2
  1
OPEN30
  9
$DIMSTYLE
  2
NEWX10
  9
$DIMCLRD
 70
   256
  9
$DIMCLRE
 70
   256
  9
$DIMCLRT
 70
   201
  9
$DIMTFAC
 40
0.7
  9
$DIMGAP
 40
0.7
  9
$DIMJUST
 70
     0
  9
$DIMSD1
 70
     0
  9
$DIMSD2
 70
     0
  9
$DIMTOLJ
 70
     1
  9
$DIMTZIN
 70
     8
  9
$DIMALTZ
 70
     0
  9
$DIMALTTZ
 70
     0
  9
$DIMUPT
 70
     0
  9
$DIMDEC
 70
     2
  9
$DIMTDEC
 70
     4
  9
$DIMALTU
 70
     2
  9
$DIMALTTD
 70
     2
  9
$DIMTXSTY
  7
STANDARD
  9
$DIMAUNIT
 70
     0
  9
$DIMADEC
 70
     1
  9
$DIMALTRND
 40
0.0
  9
$DIMAZIN
 70
     2
  9
$DIMDSEP
 70
    46
  9
$DIMATFIT
 70
     3
  9
$DIMFRAC
 70
     0
  9
$DIMLDRBLK
  1
OPEN30
  9
$DIMLUNIT
 70
     2
  9
$DIMLWD
 70
    -2
  9
$DIMLWE
 70
    -2
  9
$DIMTMOVE
 70
     0
  9
$LUNITS
 70
     2
  9
$LUPREC
 70
     4
  9
$SKETCHINC
 40
1.0
  9
$FILLETRAD
 40
0.0
  9
$AUNITS
 70
     0
  9
$AUPREC
 70
     2
  9
$MENU
  1
acad
  9
$ELEVATION
 40
0.0
  9
$PELEVATION
 40
0.0
  9
$THICKNESS
 40
0.0
  9
$LIMCHECK
 70
     0
  9
$CHAMFERA
 40
10.0
  9
$CHAMFERB
 40
10.0
  9
$CHAMFERC
 40
20.0
  9
$CHAMFERD
 40
0.0
  9
$SKPOLY
 70
     0
  9
$TDCREATE
 40
2451318.621352917
  9
$TDUCREATE
 40
2451318.246352917
  9
$TDUPDATE
 40
2457631.724888414
  9
$TDUUPDATE
 40
2457631.349888414
  9
$TDINDWG
 40
1.6526122454
  9
$TDUSRTIMER
 40
1.6526122454
  9
$USRTIMER
 70
     1
  9
$ANGBASE
 50
0.0
  9
$ANGDIR
 70
     0
  9
$PDMODE
 70
     0
  9
$PDSIZE
 40
0.0
  9
$PLINEWID
 40
0.0
  9
$SPLFRAME
 70
     0
  9
$SPLINETYPE
 70
     6
  9
$SPLINESEGS
 70
     8
  9
$HANDSEED
  5
17AE4
  9
$SURFTAB1
 70
     6
  9
$SURFTAB2
 70
     6
  9
$SURFTYPE
 70
     6
  9
$SURFU
 70
     6
  9
$SURFV
 70
     6
  9
$UCSBASE
  2

  9
$UCSNAME
  2

  9
$UCSORG
 10
0.0
 20
0.0
 30
0.0
  9
$UCSXDIR
 10
1.0
 20
0.0
 30
0.0
  9
$UCSYDIR
 10
0.0
 20
1.0
 30
0.0
  9
$UCSORTHOREF
  2

  9
$UCSORTHOVIEW
 70
     0
  9
$UCSORGTOP
 10
0.0
 20
0.0
 30
0.0
  9
$UCSORGBOTTOM
 10
0.0
 20
0.0
 30
0.0
  9
$UCSORGLEFT
 10
0.0
 20
0.0
 30
0.0
  9
$UCSORGRIGHT
 10
0.0
 20
0.0
 30
0.0
  9
$UCSORGFRONT
 10
0.0
 20
0.0
 30
0.0
  9
$UCSORGBACK
 10
0.0
 20
0.0
 30
0.0
  9
$PUCSBASE
  2

  9
$PUCSNAME
  2

  9
$PUCSORG
 10
0.0
 20
0.0
 30
0.0
  9
$PUCSXDIR
 10
1.0
 20
0.0
 30
0.0
  9
$PUCSYDIR
 10
0.0
 20
1.0
 30
0.0
  9
$PUCSORTHOREF
  2

  9
$PUCSORTHOVIEW
 70
     0
  9
$PUCSORGTOP
 10
0.0
 20
0.0
 30
0.0
  9
$PUCSORGBOTTOM
 10
0.0
 20
0.0
 30
0.0
  9
$PUCSORGLEFT
 10
0.0
 20
0.0
 30
0.0
  9
$PUCSORGRIGHT
 10
0.0
 20
0.0
 30
0.0
  9
$PUCSORGFRONT
 10
0.0
 20
0.0
 30
0.0
  9
$PUCSORGBACK
 10
0.0
 20
0.0
 30
0.0
  9
$USERI1
 70
     0
  9
$USERI2
 70
     0
  9
$USERI3
 70
     0
  9
$USERI4
 70
     0
  9
$USERI5
 70
     0
  9
$USERR1
 40
0.0
  9
$USERR2
 40
0.0
  9
$USERR3
 40
0.0
  9
$USERR4
 40
0.0
  9
$USERR5
 40
0.0
  9
$WORLDVIEW
 70
     1
  9
$SHADEDGE
 70
     3
  9
$SHADEDIF
 70
    70
  9
$TILEMODE
 70
     1
  9
$MAXACTVP
 70
    48
  9
$PINSBASE
 10
0.0
 20
0.0
 30
0.0
  9
$PLIMCHECK
 70
     0
  9
$PEXTMIN
 10
1.000000000000000E+20
 20
1.000000000000000E+20
 30
1.000000000000000E+20
  9
$PEXTMAX
 10
-1.000000000000000E+20
 20
-1.000000000000000E+20
 30
-1.000000000000000E+20
  9
$PLIMMIN
 10
0.0
 20
0.0
  9
$PLIMMAX
 10
420.0
 20
297.0
  9
$UNITMODE
 70
     0
  9
$VISRETAIN
 70
     1
  9
$PLINEGEN
 70
     0
  9
$PSLTSCALE
 70
     1
  9
$TREEDEPTH
 70
  3020
  9
$CMLSTYLE
  2
STANDARD
  9
$CMLJUST
 70
     0
  9
$CMLSCALE
 40
20.0
  9
$PROXYGRAPHICS
 70
     1
  9
$MEASUREMENT
 70
     1
  9
$CELWEIGHT
370
    -1
  9
$ENDCAPS
280
     0
  9
$JOINSTYLE
280
     0
  9
$LWDISPLAY
290
     0
  9
$INSUNITS
 70
     0
  9
$HYPERLINKBASE
  1

  9
$STYLESHEET
  1

  9
$XEDIT
290
     1
  9
$CEPSNTYPE
380
     0
  9
$PSTYLEMODE
290
     1
  9
$FINGERPRINTGUID
  2
{9B37FCAB-1217-4BE8-8923-C9C8FC08264A}
  9
$VERSIONGUID
  2
{D4A8BDF3-6EC5-4466-8E2E-A57AEBF5110F}
  9
$EXTNAMES
290
     1
  9
$PSVPSCALE
 40
0.0
  9
$OLESTARTUP
290
     0
  0
ENDSEC
  0
SECTION
  2
CLASSES
  0
CLASS
  1
DICTIONARYVAR
  2
AcDbDictionaryVar
  3
ObjectDBX Classes
 90
        0
280
     0
281
     0
  0
CLASS
  1
IDBUFFER
  2
AcDbIdBuffer
  3
ObjectDBX Classes
 90
    32768
280
     0
281
     0
  0
CLASS
  1
ACDBDICTIONARYWDFLT
  2
AcDbDictionaryWithDefault
  3
ObjectDBX Classes
 90
        0
280
     0
281
     0
  0
CLASS
  1
ACDBPLACEHOLDER
  2
AcDbPlaceHolder
  3
ObjectDBX Classes
 90
        0
280
     0
281
     0
  0
CLASS
  1
LAYOUT
  2
AcDbLayout
  3
ObjectDBX Classes
 90
        0
280
     0
281
     0
  0
CLASS
  1
TABLESTYLE
  2
AcDbTableStyle
  3
ObjectDBX Classes
 90
     4095
280
     0
281
     0
  0
CLASS
  1
SORTENTSTABLE
  2
AcDbSortentsTable
  3
ObjectDBX Classes
 90
        0
280
     0
281
     0
  0
CLASS
  1
MATERIAL
  2
AcDbMaterial
  3
ObjectDBX Classes
 90
     1153
280
     0
281
     0
  0
CLASS
  1
VISUALSTYLE
  2
AcDbVisualStyle
  3
ObjectDBX Classes
 90
     4095
280
     0
281
     0
  0
CLASS
  1
SCALE
  2
AcDbScale
  3
ObjectDBX Classes
 90
     1153
280
     0
281
     0
  0
CLASS
  1
MLEADERSTYLE
  2
AcDbMLeaderStyle
  3
ACDB_MLEADERSTYLE_CLASS
 90
     4095
280
     0
281
     0
  0
CLASS
  1
CELLSTYLEMAP
  2
AcDbCellStyleMap
  3
ObjectDBX Classes
 90
     1152
280
     0
281
     0
  0
CLASS
  1
DIMASSOC
  2
AcDbDimAssoc
  3
"AcDbDimAssoc|Product Desc:     AcDim ARX App For Dimension|Company:          Autodesk, Inc.|WEB Address:      www.autodesk.com"
 90
    32768
280
     0
281
     0
  0
CLASS
  1
AEC_REFEDIT_STATUS_TRACKER
  2
AecDbRefEditStatusTracker
  3
AecArchBase60|Product Desc: Autodesk Architectural Desktop 2007 |Company: Autodesk,Inc. |WEB Address: www.autodesk.com
 90
      129
280
     0
281
     0
  0
CLASS
  1
NPOCOLLECTION
  2
AcDbImpNonPersistentObjectsCollection
  3
ObjectDBX Classes
 90
     1153
280
     0
281
     0
  0
ENDSEC
  0
SECTION
  2
TABLES
  0
TABLE
  2
VPORT
  5
8
102
{ACAD_XDICTIONARY
360
D0ED
102
}
330
0
100
AcDbSymbolTable
 70
     1
  0
VPORT
  5
CFAB
330
8
100
AcDbSymbolTableRecord
100
AcDbViewportTableRecord
  2
*Active
 70
     0
 10
0.0
 20
0.0
 11
1.0
 21
1.0
 12
-84.19483814645724
 22
-69.1411247490704
 13
0.0
 23
0.0
 14
10.0
 24
10.0
 15
10.0
 25
10.0
 16
0.0
 26
0.0
 36
1.0
 17
0.0
 27
0.0
 37
0.0
 40
304.6703630387701
 41
2.232073011734028
 42
50.0
 43
0.0
 44
0.0
 50
0.0
 51
0.0
 71
     0
 72
  1000
 73
     1
 74
     1
 75
     0
 76
     0
 77
     0
 78
     0
281
     0
 65
     1
110
0.0
120
0.0
130
0.0
111
1.0
121
0.0
131
0.0
112
0.0
122
1.0
132
0.0
 79
     0
146
0.0
1001
ACAD_NAV_VCDISPLAY
1070
     3
  0
ENDTAB
  0
TABLE
  2
LTYPE
  5
5
330
0
100
AcDbSymbolTable
 70
    12
  0
LTYPE
  5
12
330
5
100
AcDbSymbolTableRecord
100
AcDbLinetypeTableRecord
  2
BYBLOCK
 70
     0
  3

 72
    65
 73
     0
 40
0.0
  0
LTYPE
  5
13
330
5
100
AcDbSymbolTableRecord
100
AcDbLinetypeTableRecord
  2
BYLAYER
 70
     0
  3

 72
    65
 73
     0
 40
0.0
  0
LTYPE
  5
14
330
5
100
AcDbSymbolTableRecord
100
AcDbLinetypeTableRecord
  2
CONTINUOUS
 70
     0
  3
Solid line
 72
    65
 73
     0
 40
0.0
  0
LTYPE
  5
6A
330
5
100
AcDbSymbolTableRecord
100
AcDbLinetypeTableRecord
  2
XREF1|CENTER2
 70
    48
  3
Center (.5x) ___ _ ___ _ ___ _ ___ _ ___ _ ___
 72
    65
 73
     4
 40
28.575
 49
19.05
 74
     0
 49
-3.174999999999999
 74
     0
 49
3.174999999999999
 74
     0
 49
-3.174999999999999
 74
     0
  0
LTYPE
  5
6A6
330
5
100
AcDbSymbolTableRecord
100
AcDbLinetypeTableRecord
  2
A3WAKUdake|CENTER2
 70
    48
  3
Center (.5x) ___ _ ___ _ ___ _ ___ _ ___ _ ___
 72
    65
 73
     4
 40
28.575
 49
19.05
 74
     0
 49
-3.174999999999999
 74
     0
 49
3.174999999999999
 74
     0
 49
-3.174999999999999
 74
     0
  0
ENDTAB
  0
TABLE
  2
LAYER
  5
2
102
{ACAD_XDICTIONARY
360
D16C
102
}
330
0
100
AcDbSymbolTable
 70
    35
  0
LAYER
  5
E
102
{ACAD_XDICTIONARY
360
D0B5
102
}
330
2
100
AcDbSymbolTableRecord
100
AcDbLayerTableRecord
  2
0
 70
     0
 62
     7
  6
CONTINUOUS
370
    30
390
18B
  0
LAYER
  5
31
102
{ACAD_XDICTIONARY
360
D0B9
102
}
330
2
100
AcDbSymbolTableRecord
100
AcDbLayerTableRecord
  2
1TEXT
 70
     0
 62
     7
  6
CONTINUOUS
370
    25
390
18B
  0
LAYER
  5
6A1
102
{ACAD_XDICTIONARY
360
D0C9
102
}
330
2
100
AcDbSymbolTableRecord
100
AcDbLayerTableRecord
  2
A3WAKUdake|THICK
 70
    48
 62
     7
  6
CONTINUOUS
370
    -3
390
18B
  0
LAYER
  5
6A2
102
{ACAD_XDICTIONARY
360
D0CB
102
}
330
2
100
AcDbSymbolTableRecord
100
AcDbLayerTableRecord
  2
A3WAKUdake|POINT
 70
    48
 62
     7
  6
CONTINUOUS
370
    -3
390
18B
  0
LAYER
  5
6A3
102
{ACAD_XDICTIONARY
360
D0CD
102
}
330
2
100
AcDbSymbolTableRecord
100
AcDbLayerTableRecord
  2
A3WAKUdake|1CENTER
 70
    48
 62
     7
  6
A3WAKUdake|CENTER2
370
    -3
390
18B
  0
LAYER
  5
6A4
102
{ACAD_XDICTIONARY
360
D0CF
102
}
330
2
100
AcDbSymbolTableRecord
100
AcDbLayerTableRecord
  2
A3WAKUdake|0-6
 70
    48
 62
     7
  6
CONTINUOUS
370
    -3
390
18B
  0
LAYER
  5
17A16
330
2
100
AcDbSymbolTableRecord
100
AcDbLayerTableRecord
  2
01
 70
     0
 62
     1
  6
CONTINUOUS
370
    -3
390
18B
  0
ENDTAB
  0
TABLE
  2
STYLE
  5
3
330
0
100
AcDbSymbolTable
 70
     5
  0
STYLE
  5
F
330
3
100
AcDbSymbolTableRecord
100
AcDbTextStyleTableRecord
  2
STANDARD
 70
     0
 40
0.0
 41
1.0
 50
0.0
 71
     0
 42
4.0
  3
romans.shx
  4
extfont2.shx
  0
ENDTAB
  0
TABLE
  2
VIEW
  5
6
330
0
100
AcDbSymbolTable
 70
     5
  0
ENDTAB
  0
TABLE
  2
UCS
  5
7
330
0
100
AcDbSymbolTable
 70
     5
  0
UCS
  5
10DA2
330
7
100
AcDbSymbolTableRecord
100
AcDbUCSTableRecord
  2
U
 70
     0
 10
0.0
 20
0.0
 30
0.0
 11
1.0
 21
0.0
 31
0.0
 12
0.0
 22
0.0000000000000002
 32
1.0
 79
     0
146
0.0
  0
UCS
  5
10DA3
330
7
100
AcDbSymbolTableRecord
100
AcDbUCSTableRecord
  2
L
 70
     0
 10
0.0
 20
0.0
 30
0.0
 11
-0.0000000000000002
 21
-1.0
 31
0.0000000000000002
 12
0.0
 22
0.0000000000000002
 32
1.0
 79
     0
146
0.0
  0
UCS
  5
10DA4
330
7
100
AcDbSymbolTableRecord
100
AcDbUCSTableRecord
  2
R
 70
     0
 10
0.0
 20
0.0
 30
0.0
 11
0.0000000000000003
 21
1.0
 31
-0.0000000000000002
 12
0.0
 22
0.0000000000000002
 32
1.0
 79
     0
146
0.0
  0
UCS
  5
10DA5
330
7
100
AcDbSymbolTableRecord
100
AcDbUCSTableRecord
  2
ISOME
 70
     0
 10
0.0
 20
0.0
 30
0.0
 11
0.7071450863198266
 21
-0.7070684729403536
 31
-0.0000383082461947
 12
0.4082704059428735
 22
0.4082704077401152
 32
0.8164744636514736
 79
     0
146
0.0
  0
UCS
  5
10DA6
330
7
100
AcDbSymbolTableRecord
100
AcDbUCSTableRecord
  2
PERSPECTIVE
 70
     0
 10
0.0
 20
0.0
 30
0.0
 11
0.8191477691768962
 21
-0.5735823260466403
 31
-0.0004974931557765
 12
0.1584844715982971
 22
0.225502028986108
 32
0.961265575782966
 79
     0
146
0.0
  0
ENDTAB
  0
TABLE
  2
APPID
  5
9
330
0
100
AcDbSymbolTable
 70
    18
  0
APPID
  5
10
330
9
100
AcDbSymbolTableRecord
100
AcDbRegAppTableRecord
  2
ACAD
 70
     0
  0
APPID
  5
21
330
9
100
AcDbSymbolTableRecord
100
AcDbRegAppTableRecord
  2
DRAWINGVARIABLESXDATA
 70
     0
  0
APPID
  5
64
330
9
100
AcDbSymbolTableRecord
100
AcDbRegAppTableRecord
  2
CONTENTTABDATA
 70
     0
  0
APPID
  5
65
330
9
100
AcDbSymbolTableRecord
100
AcDbRegAppTableRecord
  2
CONTENTCURRENTTAB
 70
     0
  0
APPID
  5
66
330
9
100
AcDbSymbolTableRecord
100
AcDbRegAppTableRecord
  2
CONTENTBLOCKDESCRIPTION
 70
     0
  0
APPID
  5
67
330
9
100
AcDbSymbolTableRecord
100
AcDbRegAppTableRecord
  2
CONTENTBLOCKICON
 70
     0
  0
APPID
  5
68
330
9
100
AcDbSymbolTableRecord
100
AcDbRegAppTableRecord
  2
CONTENTLONGBLOCKNAME
 70
     0
  0
APPID
  5
2AE
330
9
100
AcDbSymbolTableRecord
100
AcDbRegAppTableRecord
  2
ACAD_PSEXT
 70
     0
  0
APPID
  5
D09F
330
9
100
AcDbSymbolTableRecord
100
AcDbRegAppTableRecord
  2
ACAD_MLEADERVER
 70
     0
  0
APPID
  5
D7D9
330
9
100
AcDbSymbolTableRecord
100
AcDbRegAppTableRecord
  2
ACAD_EXEMPT_FROM_CAD_STANDARDS
 70
     0
  0
APPID
  5
DB3E
330
9
100
AcDbSymbolTableRecord
100
AcDbRegAppTableRecord
  2
AcAecLayerStandard
 70
     0
  0
APPID
  5
F844
330
9
100
AcDbSymbolTableRecord
100
AcDbRegAppTableRecord
  2
AcadAnnotative
 70
     0
  0
APPID
  5
10507
330
9
100
AcDbSymbolTableRecord
100
AcDbRegAppTableRecord
  2
ACAD_NAV_VCDISPLAY
 70
     0
  0
APPID
  5
11F91
330
9
100
AcDbSymbolTableRecord
100
AcDbRegAppTableRecord
  2
ACAD_DSTYLE_DIMRADIAL_EXTENSION
 70
     0
  0
APPID
  5
11F92
330
9
100
AcDbSymbolTableRecord
100
AcDbRegAppTableRecord
  2
AcLayerTools
 70
     0
  0
APPID
  5
11F93
330
9
100
AcDbSymbolTableRecord
100
AcDbRegAppTableRecord
  2
GradientColor1ACI
 70
     0
  0
APPID
  5
11F94
330
9
100
AcDbSymbolTableRecord
100
AcDbRegAppTableRecord
  2
GradientColor2ACI
 70
     0
  0
APPID
  5
15583
330
9
100
AcDbSymbolTableRecord
100
AcDbRegAppTableRecord
  2
ACAD_SPLINE_DATA
 70
     0
  0
ENDTAB
  0
TABLE
  2
DIMSTYLE
  5
A
330
0
100
AcDbSymbolTable
 70
     5
100
AcDbDimStyleTable
 71
     1
340
48
  0
DIMSTYLE
105
48
102
{ACAD_REACTORS
330
1648A
330
1648C
330
1657B
330
1657D
330
1657F
330
16581
102
}
330
A
100
AcDbSymbolTableRecord
100
AcDbDimStyleTableRecord
  2
NEWX10
 70
     0
  3
 
 41
2.0
 42
0.0
 43
7.0
 44
1.0
 73
     0
 74
     0
 77
     1
 78
     8
 79
     2
140
3.5
141
0.0
146
0.7
147
0.7
172
     1
173
     1
176
   256
177
   256
178
   201
179
     1
271
     2
284
     8
340
F
341
42
343
42
344
42
  0
ENDTAB
  0
TABLE
  2
BLOCK_RECORD
  5
1
330
0
100
AcDbSymbolTable
 70
    12
  0
BLOCK_RECORD
  5
18
102
{ACAD_XDICTIONARY
360
88F
102
}
330
1
100
AcDbSymbolTableRecord
100
AcDbBlockTableRecord
  2
*MODEL_SPACE
340
190
  0
BLOCK_RECORD
  5
15
330
1
100
AcDbSymbolTableRecord
100
AcDbBlockTableRecord
  2
*PAPER_SPACE
340
191
  0
BLOCK_RECORD
  5
42
330
1
100
AcDbSymbolTableRecord
100
AcDbBlockTableRecord
  2
_OPEN30
340
0
310
2800000020000000200000000100080000000000000400000000000000000000000000000000000000000000000080000080000000808000800000008000800080800000C0C0C000C0DCC000F0CAA6000020400000206000002080000020A0000020C0000020E00000400000004020000040400000406000004080000040A0
310
000040C0000040E00000600000006020000060400000606000006080000060A0000060C0000060E00000800000008020000080400000806000008080000080A0000080C0000080E00000A0000000A0200000A0400000A0600000A0800000A0A00000A0C00000A0E00000C0000000C0200000C0400000C0600000C0800000C0
310
A00000C0C00000C0E00000E0000000E0200000E0400000E0600000E0800000E0A00000E0C00000E0E00040000000400020004000400040006000400080004000A0004000C0004000E00040200000402020004020400040206000402080004020A0004020C0004020E000404000004040200040404000404060004040800040
310
40A0004040C0004040E00040600000406020004060400040606000406080004060A0004060C0004060E00040800000408020004080400040806000408080004080A0004080C0004080E00040A0000040A0200040A0400040A0600040A0800040A0A00040A0C00040A0E00040C0000040C0200040C0400040C0600040C08000
310
40C0A00040C0C00040C0E00040E0000040E0200040E0400040E0600040E0800040E0A00040E0C00040E0E00080000000800020008000400080006000800080008000A0008000C0008000E00080200000802020008020400080206000802080008020A0008020C0008020E00080400000804020008040400080406000804080
310
008040A0008040C0008040E00080600000806020008060400080606000806080008060A0008060C0008060E00080800000808020008080400080806000808080008080A0008080C0008080E00080A0000080A0200080A0400080A0600080A0800080A0A00080A0C00080A0E00080C0000080C0200080C0400080C0600080C0
310
800080C0A00080C0C00080C0E00080E0000080E0200080E0400080E0600080E0800080E0A00080E0C00080E0E000C0000000C0002000C0004000C0006000C0008000C000A000C000C000C000E000C0200000C0202000C0204000C0206000C0208000C020A000C020C000C020E000C0400000C0402000C0404000C0406000C0
310
408000C040A000C040C000C040E000C0600000C0602000C0604000C0606000C0608000C060A000C060C000C060E000C0800000C0802000C0804000C0806000C0808000C080A000C080C000C080E000C0A00000C0A02000C0A04000C0A06000C0A08000C0A0A000C0A0C000C0A0E000C0C00000C0C02000C0C04000C0C06000
310
C0C08000C0C0A000F0FBFF00A4A0A000808080000000FF0000FF000000FFFF00FF000000FF00FF00FFFF0000FFFFFF0000000000000000000000000000000000000000000000000000000000000000000000000000000000000000000000000000000000000000000000000000000000000000000000000000000000000000
310
00000000000000000000000000000000000000000000000000000000000000000000000000000000000000000000000000000000000000000000000000000000000000000000000000000000000000000000000000000000000000000000000000000000000000000000000000000000000000000000000000000000000000
310
000000000000000000000000000000000000000000000000000000000000000000000000000000000000000000000000000000FFFF0000000000000000000000000000000000000000000000000000000000000000FFFFFFFF0000000000000000000000000000000000000000000000000000000000000000FFFFFFFF0000
310
000000000000000000000000000000000000000000000000000000000000FFFFFF0000000000000000000000000000000000000000000000000000000000000000FFFFFFFF0000000000000000000000000000000000000000000000000000000000000000FFFFFF0000000000000000000000000000000000000000000000
310
000000000000000000FFFFFFFF0000000000000000000000000000000000000000000000000000000000000000FFFFFFFF00000000FFFFFFFFFFFFFFFFFFFFFFFFFFFFFFFFFFFFFFFFFFFFFFFFFFFFFFFFFFFF00000000000000000000000000000000000000000000000000FFFFFFFF000000000000000000000000000000
310
000000000000000000FFFFFFFF000000000000000000000000000000000000000000000000FFFFFFFF000000000000000000000000000000000000000000000000FFFFFFFF000000000000000000000000000000000000000000000000FFFFFFFF000000000000000000000000000000000000000000000000FFFFFFFF0000
310
0000000000000000000000000000000000000000000000FFFFFF0000000000000000000000000000000000000000000000000000000000000000000000000000000000000000000000000000000000000000000000000000000000000000000000000000000000000000000000000000000000000000000000000000000000
310
00000000000000000000000000000000000000000000000000000000000000000000000000000000000000000000000000000000000000000000000000000000000000000000000000000000000000000000000000000000000000000000000000000000000000000000000000000000000000000000000000000000000000
310
0000000000000000000000000000000000000000000000000000000000000000000000000000000000000000000000000000000000000000
  0
BLOCK_RECORD
  5
5B
330
1
100
AcDbSymbolTableRecord
100
AcDbBlockTableRecord
  2
XREF1
340
0
  0
BLOCK_RECORD
  5
69E
330
1
100
AcDbSymbolTableRecord
100
AcDbBlockTableRecord
  2
A3WAKUdake
340
0
102
{BLKREFS
332
5B
102
}
  0
ENDTAB
  0
ENDSEC
  0
SECTION
  2
BLOCKS
  0
BLOCK
  5
19
330
18
100
AcDbEntity
  8
0
100
AcDbBlockBegin
  2
*MODEL_SPACE
 70
     0
 10
0.0
 20
0.0
 30
0.0
  3
*MODEL_SPACE
  1

  0
ENDBLK
  5
1A
330
18
100
AcDbEntity
  8
0
100
AcDbBlockEnd
  0
BLOCK
  5
16
330
15
100
AcDbEntity
 67
     1
  8
0
100
AcDbBlockBegin
  2
*PAPER_SPACE
 70
     0
 10
0.0
 20
0.0
 30
0.0
  3
*PAPER_SPACE
  1

  0
ENDBLK
  5
17
330
15
100
AcDbEntity
 67
     1
  8
0
100
AcDbBlockEnd
  0
BLOCK
  5
43
330
42
100
AcDbEntity
  8
0
100
AcDbBlockBegin
  2
_OPEN30
 70
     0
 10
0.0
 20
0.0
 30
0.0
  3
_OPEN30
  1

  0
LINE
  5
44
330
42
100
AcDbEntity
  8
0
  6
ByBlock
 62
     0
100
AcDbLine
 10
-1.0
 20
0.26794919
 30
0.0
 11
0.0
 21
0.0
 31
0.0
  0
LINE
  5
45
330
42
100
AcDbEntity
  8
0
  6
ByBlock
 62
     0
100
AcDbLine
 10
0.0
 20
0.0
 30
0.0
 11
-1.0
 21
-0.26794919
 31
0.0
  0
LINE
  5
46
330
42
100
AcDbEntity
  8
0
  6
ByBlock
 62
     0
100
AcDbLine
 10
0.0
 20
0.0
 30
0.0
 11
-1.0
 21
0.0
 31
0.0
  0
ENDBLK
  5
47
330
42
100
AcDbEntity
  8
0
100
AcDbBlockEnd
  0
BLOCK
  5
5C
330
5B
100
AcDbEntity
  8
0
100
AcDbBlockBegin
  2
XREF1
 70
    36
 10
0.0
 20
0.0
 30
0.0
  3
XREF1
  1
D:\ACLT\FORMAT\KAWAJUN(9)図面用.dwg
  0
ENDBLK
  5
5D
330
5B
100
AcDbEntity
  8
0
100
AcDbBlockEnd
  0
BLOCK
  5
69F
330
69E
100
AcDbEntity
  8
0
100
AcDbBlockBegin
  2
A3WAKUdake
 70
    36
 10
0.0
 20
0.0
 30
0.0
  3
A3WAKUdake
  1
D:\ACLT\FORMAT\A3WAKUdake.dwg
  0
ENDBLK
  5
6A0
330
69E
100
AcDbEntity
  8
0
100
AcDbBlockEnd
  0
ENDSEC
  0
SECTION
  2
ENTITIES
  0
LINE
  5
158D8
330
18
100
AcDbEntity
  8
01
100
AcDbLine
 10
25.07170271800737
 20
-95.53415245382472
 30
0.0
 11
19.87555016416672
 21
-98.53415222669367
 31
0.0
  0
LINE
  5
158D9
330
18
100
AcDbEntity
  8
01
100
AcDbLine
 10
25.87554970990459
 20
-108.9264573343752
 30
0.0
 11
31.07170226374524
 21
-105.9264575615062
 31
0.0
  0
LINE
  5
158DA
330
18
100
AcDbEntity
  8
01
100
AcDbLine
 10
25.87554970990777
 20
-108.9264573343683
 30
0.0
 11
-41.66032379413536
 21
-147.9183081457352
 31
0.0
  0
ARC
  5
158DC
330
18
100
AcDbEntity
  8
01
100
AcDbCircle
 10
28.07154180968633
 20
-100.7303224311791
 30
0.0
 40
6.000129912395127
100
AcDbArc
 50
317.4814680167707
 51
110.8005708765047
  0
LINE
  5
158DD
330
18
100
AcDbEntity
  8
01
100
AcDbLine
 10
31.07170226374524
 20
-105.9264575615062
 30
0.0
 11
31.07310236012495
 21
-105.9256489652197
 31
0.0
  0
ARC
  5
158DF
330
18
100
AcDbEntity
  8
01
100
AcDbCircle
 10
44.6743828194576
 20
-142.7301657400063
 30
0.0
 40
6.000114451436594
210
0.0
220
0.0
230
-1.0
100
AcDbArc
 50
239.8454905426153
 51
60.4760317530681
  0
LINE
  5
158E0
330
18
100
AcDbEntity
  8
01
100
AcDbLine
 10
19.87555016416649
 20
-98.53415222668866
 30
0.0
 11
-47.63116487010961
 21
-137.5091683893856
 31
0.0
  0
ARC
  5
158E4
330
18
100
AcDbEntity
  8
01
100
AcDbCircle
 10
28.07141997695339
 20
-100.7272298885167
 30
0.0
 40
5.997195751042879
100
AcDbArc
 50
110.8099748385785
 51
120.0123495084988
  0
ARC
  5
158E5
330
18
100
AcDbEntity
  8
01
100
AcDbCircle
 10
28.05249439017485
 20
-100.7062473973511
 30
0.0
 40
6.030441545593784
100
AcDbArc
 50
300.0591201076863
 51
317.4351794186731
  0
LINE
  5
15900
330
18
100
AcDbEntity
  8
01
100
AcDbLine
 10
49.89849773358582
 20
-139.8303059617377
 30
0.0
 11
46.96622914697832
 21
-139.8303058335645
 31
0.0
  0
ARC
  5
15902
330
18
100
AcDbEntity
  8
01
100
AcDbCircle
 10
46.96622940924657
 20
-133.8303058335645
 30
0.0
 40
5.999999999999999
100
AcDbArc
 50
209.9999974955132
 51
269.9999974953749
  0
LINE
  5
15904
330
18
100
AcDbEntity
  8
01
100
AcDbLine
 10
41.7700768554048
 20
-136.8303056064314
 30
0.0
 11
25.71372554711206
 21
-109.0198865488883
 31
0.0
  0
LINE
  5
15909
330
18
100
AcDbEntity
  8
01
100
AcDbLine
 10
18.876224732428
 20
-94.3561166674541
 30
0.0
 11
18.37515531983513
 21
-95.488238974826
 31
0.0
  0
LINE
  5
1590B
330
18
100
AcDbEntity
  8
01
100
AcDbLine
 10
18.876224732428
 20
-94.3561166674541
 30
0.0
 11
24.39850031042647
 21
-81.87902134533818
 31
0.0
  0
ARC
  5
1590C
330
18
100
AcDbEntity
  8
01
100
AcDbCircle
 10
61.33860175173845
 20
-80.9998055469299
 30
0.0
 40
27.99999999999984
100
AcDbArc
 50
183.7483842287831
 51
245.8846443365676
  0
LINE
  5
1590D
330
18
100
AcDbEntity
  8
01
100
AcDbLine
 10
19.71372600137852
 20
-98.62758144120434
 30
0.0
 11
18.42356867686726
 21
-96.3929631798136
 31
0.0
  0
ARC
  5
1590E
330
18
100
AcDbEntity
  8
01
100
AcDbCircle
 10
-19.2895941025074
 20
-95.89296321766903
 30
0.0
 40
1.000000000000002
210
0.0
220
0.0
230
-1.0
100
AcDbArc
 50
330.0000025046334
 51
23.8738479349005
  0
LINE
  5
1590F
330
18
100
AcDbEntity
  8
01
100
AcDbLine
 10
49.89849773358582
 20
-139.8303059617377
 30
0.0
 11
49.89849918809273
 21
-106.5560974010558
 31
0.0
  0
CIRCLE
  5
15937
330
18
100
AcDbEntity
  8
01
  6
Continuous
100
AcDbCircle
 10
28.89850005028757
 20
-82.8303050437986
 30
0.0
 40
4.5
  0
LINE
  5
159E5
330
18
100
AcDbEntity
  8
01
100
AcDbLine
 10
-68.2455411517883
 20
-102.7754998854778
 30
0.0
 11
-68.79540631070767
 21
-101.9402464074015
 31
0.0
  0
ARC
  5
159E6
330
18
100
AcDbEntity
  8
01
100
AcDbCircle
 10
34.85415233238996
 20
-259.3854728137263
 30
0.0
 40
187.4999592216895
100
AcDbArc
 50
96.47748414673692
 51
122.4409928394515
  0
ARC
  5
159E7
330
18
100
AcDbEntity
  8
01
100
AcDbCircle
 10
-34.8094936815603
 20
-259.3151233656671
 30
0.0
 40
187.4166319295652
210
0.0
220
0.0
230
-1.0
100
AcDbArc
 50
56.64181308754533
 51
57.55899242797629
  0
SPLINE
  5
159E8
330
18
100
AcDbEntity
  8
01
100
AcDbSpline
210
0.0
220
0.0
230
1.0
 70
     8
 71
     3
 72
    22
 73
    18
 74
     0
 42
0.0000000001
 43
0.0000000001
 40
3.000062800636315
 40
3.000062800636315
 40
3.000062800636315
 40
3.000062800636315
 40
4.210386486059761
 40
12.63115945817929
 40
25.26231425543364
 40
37.89347001566541
 40
50.52462505644892
 40
56.84108975858787
 40
63.1575538937202
 40
69.47401774693382
 40
75.79048233455637
 40
78.94882502400354
 40
82.10716855832098
 40
85.26551101679856
 40
86.84469628660433
 40
87.89748666227852
 40
88.42388185011563
 40
88.42388185011563
 40
88.42388185011563
 40
88.42388185011563
 10
-66.27652357144711
 20
-100.3105843018593
 30
0.0
 10
-65.93603802726466
 20
-100.0941236973992
 30
0.0
 10
-63.2210374545914
 20
-98.38030595454444
 30
0.0
 10
-56.84279428608466
 20
-94.57838938357651
 30
0.0
 10
-46.88567381964026
 20
-89.3735135456397
 30
0.0
 10
-35.31629282935091
 20
-84.28094426991355
 30
0.0
 10
-25.41161629077965
 20
-80.69212670721899
 30
0.0
 10
-17.35860280978591
 20
-78.22431902140604
 30
0.0
 10
-11.25953324856891
 20
-76.57665040958289
 30
0.0
 10
-5.10878771455691
 20
-75.13427497170963
 30
0.0
 10
0.0543953388055343
 20
-74.10470815227444
 30
0.0
 10
4.203680050563434
 20
-73.38514513929775
 30
0.0
 10
7.324356416483169
 20
-72.8978881948384
 30
0.0
 10
9.931296725482297
 20
-72.53479785317748
 30
0.0
 10
11.84632260946364
 20
-72.29396100011545
 30
0.0
 10
12.89152544525927
 20
-72.16760964480855
 30
0.0
 10
13.41460755677099
 20
-72.10864207622757
 30
0.0
 10
13.5889524959432
 20
-72.08884737030212
 30
0.0
  0
ARC
  5
159E9
330
18
100
AcDbEntity
  8
01
100
AcDbCircle
 10
-34.79700764514382
 20
-259.2960922256319
 30
0.0
 40
188.3938705010627
210
0.0
220
0.0
230
-1.0
100
AcDbArc
 50
56.64180448049487
 51
57.55422581500453
  0
LINE
  5
159EA
330
18
100
AcDbEntity
  8
01
100
AcDbLine
 10
27.30085700624659
 20
-70.53203064394771
 30
0.0
 11
27.86492103217438
 21
-75.50011194105343
 31
0.0
  0
LINE
  5
159EB
330
18
100
AcDbEntity
  8
01
100
AcDbLine
 10
24.32000809768601
 20
-70.870469074298
 30
0.0
 11
13.58895249593706
 21
-72.0888473703028
 31
0.0
  0
LINE
  5
159EC
330
18
100
AcDbEntity
  8
01
100
AcDbLine
 10
13.7017653011228
 20
-73.08246362972309
 30
0.0
 11
24.43282090287153
 21
-71.86408533371855
 31
0.0
  0
LINE
  5
159ED
330
18
100
AcDbEntity
  8
01
100
AcDbLine
 10
24.43282090287153
 20
-71.86408533371855
 30
0.0
 11
27.4136698114321
 21
-71.52564690336823
 31
0.0
  0
LINE
  5
159EE
330
18
100
AcDbEntity
  8
01
100
AcDbLine
 10
24.32000809768601
 20
-70.870469074298
 30
0.0
 11
27.30085700624659
 21
-70.53203064394771
 31
0.0
  0
SPLINE
  5
159F0
330
18
100
AcDbEntity
  8
01
100
AcDbSpline
210
0.0
220
0.0
230
1.0
 70
     8
 71
     3
 72
    11
 73
     7
 74
     0
 42
0.0000000001
 43
0.0000000001
 40
0.0
 40
0.0
 40
0.0
 40
0.0
 40
6.07498230527829
 40
10.75762117714848
 40
14.64527667774232
 40
18.33906775355458
 40
18.33906775355458
 40
18.33906775355458
 40
18.33906775355458
 10
21.44787711292497
 20
-65.66939545591907
 30
0.0
 10
21.84183839665525
 20
-65.65029781573034
 30
0.0
 10
22.6183197000023
 20
-65.71554089963083
 30
0.0
 10
23.86796271790263
 20
-66.13760609456611
 30
0.0
 10
25.03989128860008
 20
-66.78254279057043
 30
0.0
 10
25.82973635095277
 20
-67.38470140867324
 30
0.0
 10
26.22731140631981
 20
-67.74022581618869
 30
0.0
  0
SPLINE
  5
159F1
330
18
100
AcDbEntity
  8
01
100
AcDbSpline
210
0.0
220
0.0
230
1.0
 70
     8
 71
     3
 72
    11
 73
     7
 74
     0
 42
0.0000000001
 43
0.0000000001
 40
49.34901319612989
 40
49.34901319612989
 40
49.34901319612989
 40
49.34901319612989
 40
49.53314751626654
 40
67.51544232100141
 40
73.40407131772924
 40
79.29270031445707
 40
79.29270031445707
 40
79.29270031445707
 40
79.29270031445707
 10
18.72249969114182
 20
-68.55013989589562
 30
0.0
 10
18.72162692900201
 20
-68.54249985727588
 30
0.0
 10
18.63893303925465
 20
-67.78823775909543
 30
0.0
 10
18.97554046167011
 20
-66.72750561987172
 30
0.0
 10
20.19309596176277
 20
-65.91136505236417
 30
0.0
 10
20.83672753207361
 20
-65.73061623903956
 30
0.0
 10
21.20018548739677
 20
-65.68935009517545
 30
0.0
  0
SPLINE
  5
159F3
330
18
100
AcDbEntity
  8
01
100
AcDbSpline
210
0.0
220
0.0
230
1.0
 70
     8
 71
     3
 72
    15
 73
    11
 74
     0
 42
0.0000000001
 43
0.0000000001
 40
0.0
 40
0.0
 40
0.0
 40
0.0
 40
6.772596007495842
 40
13.54519201499168
 40
18.04454973311116
 40
22.54390745123064
 40
27.37635666434927
 40
32.2088058774679
 40
40.8707642996462
 40
49.36155633411946
 40
49.36155633411946
 40
49.36155633411946
 40
49.36155633411946
 10
28.2054098421695
 20
-68.27727032492117
 30
0.0
 10
28.91356456490667
 20
-68.46322232436881
 30
0.0
 10
30.23753449757692
 20
-68.8109211912585
 30
0.0
 10
31.74095482281109
 20
-69.11681485710608
 30
0.0
 10
32.85621207728741
 20
-69.21142259456925
 30
0.0
 10
33.69061707720494
 20
-69.15636133229606
 30
0.0
 10
34.38960455020083
 20
-68.94891309124225
 30
0.0
 10
35.08772584864142
 20
-68.49705665132808
 30
0.0
 10
35.58476897500032
 20
-67.70642132596688
 30
0.0
 10
35.65402790364578
 20
-66.98296879237353
 30
0.0
 10
35.61403022922263
 20
-66.63065245905378
 30
0.0
  0
SPLINE
  5
159F5
330
18
100
AcDbEntity
  8
01
100
AcDbSpline
210
0.0
220
0.0
230
1.0
 70
     8
 71
     3
 72
    13
 73
     9
 74
     0
 42
0.0000000001
 43
0.0000000001
 40
0.0
 40
0.0
 40
0.0
 40
0.0
 40
0.2990359285766268
 40
0.4759981331517268
 40
0.7790211513558814
 40
1.020688204224277
 40
1.168331865436691
 40
1.315975526649106
 40
1.315975526649106
 40
1.315975526649106
 40
1.315975526649106
 10
27.21931018288342
 20
-68.03978428411119
 30
0.0
 10
27.30944355355814
 20
-68.06438336033929
 30
0.0
 10
27.45434017616367
 20
-68.10303434824518
 30
0.0
 10
27.67740454859132
 20
-68.16360289300703
 30
0.0
 10
27.87951894164189
 20
-68.21385816336908
 30
0.0
 10
28.04585469696167
 20
-68.25105349158235
 30
0.0
 10
28.14548117896448
 20
-68.26983266885261
 30
0.0
 10
28.18810331428858
 20
-68.27594851377708
 30
0.0
 10
28.20539658221287
 20
-68.2771609198166
 30
0.0
  0
SPLINE
  5
159F7
330
18
100
AcDbEntity
  8
01
100
AcDbSpline
210
0.0
220
0.0
230
1.0
 70
     8
 71
     3
 72
    11
 73
     7
 74
     0
 42
0.0000000001
 43
0.0000000001
 40
0.0
 40
0.0
 40
0.0
 40
0.0
 40
0.2788180717777289
 40
0.565977025784253
 40
0.9924289507456443
 40
1.328127386721143
 40
1.328127386721143
 40
1.328127386721143
 40
1.328127386721143
 10
26.22731140631959
 20
-67.74022581618871
 30
0.0
 10
26.25975114750509
 20
-67.7537481665359
 30
0.0
 10
26.3520342165134
 20
-67.78735520044538
 30
0.0
 10
26.58423088582868
 20
-67.85950483592234
 30
0.0
 10
26.88158572906786
 20
-67.9464430207808
 30
0.0
 10
27.11610516969586
 20
-68.01152913595117
 30
0.0
 10
27.21868111641038
 20
-68.04000720031769
 30
0.0
  0
LINE
  5
159F8
330
18
100
AcDbEntity
  8
01
100
AcDbLine
 10
21.63193913659916
 20
-65.13711744488114
 30
0.0
 11
32.01357569105267
 21
-63.9584113488195
 31
0.0
  0
ARC
  5
159F9
330
18
100
AcDbEntity
  8
01
100
AcDbCircle
 10
21.63273865890528
 20
-69.51127504751477
 30
0.0
 40
3.846324555663104
100
AcDbArc
 50
92.75480350335662
 51
96.45707602781939
  0
ARC
  5
159FA
330
18
100
AcDbEntity
  8
01
100
AcDbCircle
 10
22.10545501042611
 20
-69.31978999711481
 30
0.0
 40
4.209390331387005
100
AcDbArc
 50
92.85321038226193
 51
96.4588944664514
  0
LINE
  5
159FB
330
18
100
AcDbEntity
  8
01
100
AcDbLine
 10
20.11475543531037
 20
-76.38004714073017
 30
0.0
 11
36.0127406210122
 21
-74.57502806158988
 31
0.0
  0
ARC
  5
159FC
330
18
100
AcDbEntity
  8
01
100
AcDbCircle
 10
-35.95637786065186
 20
-74.07815227899988
 30
0.0
 40
0.5000623002001446
210
0.0
220
0.0
230
-1.0
100
AcDbArc
 50
173.5296508701555
 51
263.528357633864
  0
LINE
  5
159FD
330
18
100
AcDbEntity
  8
01
100
AcDbLine
 10
35.61420547190255
 20
-66.63208593857987
 30
0.0
 11
36.4532028028832
 21
-74.02168491452712
 31
0.0
  0
SPLINE
  5
159FE
330
18
100
AcDbEntity
  8
01
100
AcDbSpline
210
0.0
220
0.0
230
1.0
 70
     8
 71
     3
 72
    11
 73
     7
 74
     0
 42
0.0000000001
 43
0.0000000001
 40
0.0
 40
0.0
 40
0.0
 40
0.0
 40
8.499787282990716
 40
15.68544982125053
 40
23.60521614476779
 40
30.05084908624756
 40
30.05084908624756
 40
30.05084908624756
 40
30.05084908624756
 10
35.61403024890933
 20
-66.6306526324621
 30
0.0
 10
35.56628052068618
 20
-66.21005290901442
 30
0.0
 10
35.31654086538356
 20
-65.44872127848487
 30
0.0
 10
34.50174549353392
 20
-64.50447700639981
 30
0.0
 10
33.39191121225054
 20
-63.96429731648686
 30
0.0
 10
32.46117388884341
 20
-63.9075921237816
 30
0.0
 10
32.01357569105267
 20
-63.9584113488195
 30
0.0
  0
SPLINE
  5
159FF
330
18
100
AcDbEntity
  8
01
100
AcDbSpline
210
0.0
220
0.0
230
1.0
 70
     8
 71
     3
 72
    11
 73
     7
 74
     0
 42
0.0000000001
 43
0.0000000001
 40
0.0
 40
0.0
 40
0.0
 40
0.0
 40
8.504601402431447
 40
15.68496859791237
 40
23.60492766472348
 40
30.05088954594571
 40
30.05088954594571
 40
30.05088954594571
 40
30.05088954594571
 10
18.72230457033333
 20
-68.54842667605183
 30
0.0
 10
18.67453827200143
 20
-68.12775332544362
 30
0.0
 10
18.74686219317436
 20
-67.33006897584698
 30
0.0
 10
19.32960092886901
 20
-66.22695327752992
 30
0.0
 10
20.28996944380651
 20
-65.45187744647233
 30
0.0
 10
21.18434288996605
 20
-65.18793644838916
 30
0.0
 10
21.63193913659916
 20
-65.13711744488114
 30
0.0
  0
LINE
  5
15A00
330
18
100
AcDbEntity
  8
01
100
AcDbLine
 10
18.72248426054307
 20
-68.5501416579946
 30
0.0
 11
19.05381515696149
 21
-71.46838986030053
 31
0.0
  0
LINE
  5
15A01
330
18
100
AcDbEntity
  8
01
100
AcDbLine
 10
24.42722683945999
 20
-83.33796267206517
 30
0.0
 11
23.59241208108642
 21
-75.98520235234855
 31
0.0
  0
LINE
  5
15A02
330
18
100
AcDbEntity
  8
01
100
AcDbLine
 10
32.5349584158771
 20
-74.96988710567774
 30
0.0
 11
33.36977317425067
 21
-82.32264742539465
 31
0.0
  0
ARC
  5
15A04
330
18
100
AcDbEntity
  8
01
100
AcDbCircle
 10
20.05838127215725
 20
-75.88322885371406
 30
0.0
 40
0.5000064565419158
100
AcDbArc
 50
186.4782267488673
 51
276.4736849772006
  0
LINE
  5
15A05
330
18
100
AcDbEntity
  8
01
100
AcDbLine
 10
19.16669608485927
 20
-72.46198850563669
 30
0.0
 11
19.56154090300879
 21
-75.93964541361089
 31
0.0
  0
CIRCLE
  5
15A79
102
{ACAD_REACTORS
330
15A7B
102
}
330
18
100
AcDbEntity
  8
01
100
AcDbCircle
 10
-44.67438281945738
 20
-155.2221441524915
 30
0.0
 40
18.5
  0
CIRCLE
  5
15A7A
102
{ACAD_REACTORS
330
15A7B
102
}
330
18
100
AcDbEntity
  8
01
100
AcDbCircle
 10
-44.67438281945738
 20
-155.2221441524915
 30
0.0
 40
57.5
  0
LINE
  5
15A8F
102
{ACAD_REACTORS
330
15A93
102
}
330
18
100
AcDbEntity
  8
01
100
AcDbLine
 10
-136.4573807511221
 20
-97.72214465789042
 30
0.0
 11
-136.4573807511226
 21
-212.7221446578904
 31
0.0
  0
LINE
  5
15A90
102
{ACAD_REACTORS
330
15A93
102
}
330
18
100
AcDbEntity
  8
01
100
AcDbLine
 10
-250.4573807511222
 20
-97.72214465789042
 30
0.0
 11
-250.4573807511217
 21
-212.7221446578904
 31
0.0
  0
LINE
  5
15A91
102
{ACAD_REACTORS
330
15A93
102
}
330
18
100
AcDbEntity
  8
01
100
AcDbLine
 10
-136.4573807511221
 20
-97.72214465789042
 30
0.0
 11
-250.4573807511222
 21
-97.72214465789042
 31
0.0
  0
LINE
  5
15A92
102
{ACAD_REACTORS
330
15A93
102
}
330
18
100
AcDbEntity
  8
01
100
AcDbLine
 10
-136.4573807511226
 20
-212.7221446578904
 30
0.0
 11
-250.4573807511217
 21
-212.7221446578904
 31
0.0
  0
LINE
  5
15D8F
330
18
100
AcDbEntity
  8
01
370
    30
100
AcDbLine
 10
-213.7574429398755
 20
29.66957318652061
 30
0.0
 11
-213.7574429398767
 21
30.35416123594024
 31
0.0
  0
LINE
  5
15D91
330
18
100
AcDbEntity
  8
01
370
    30
100
AcDbLine
 10
-213.7574429398751
 20
30.05432921060577
 30
0.0
 11
-213.457442939874
 21
30.05432921060577
 31
0.0
  0
LINE
  5
15D94
330
18
100
AcDbEntity
  8
01
370
    30
100
AcDbLine
 10
-219.957442939874
 20
30.35416123594013
 30
0.0
 11
-213.7574429398751
 21
30.35416123594013
 31
0.0
  0
LINE
  5
15D95
330
18
100
AcDbEntity
  8
01
370
    30
100
AcDbLine
 10
-261.691014198623
 20
30.35447975741846
 30
0.0
 11
-213.7568017992032
 21
30.35425599653092
 31
0.0
  0
LINE
  5
15D96
330
18
100
AcDbEntity
  8
01
370
    30
100
AcDbLine
 10
-265.956866213472
 20
16.55550885182623
 30
0.0
 11
-265.9568298071345
 21
24.35449967053398
 31
0.0
  0
SPLINE
  5
15D97
330
18
100
AcDbEntity
  8
01
370
    30
100
AcDbSpline
210
0.0
220
0.0
230
1.0
 70
     8
 71
     3
 72
    19
 73
    15
 74
     0
 42
0.0000000001
 43
0.0000000001
 40
0.0
 40
0.0
 40
0.0
 40
0.0
 40
0.8334569248847037
 40
1.402795407337704
 40
1.999601236255484
 40
2.614680025088969
 40
3.021070471610387
 40
3.225648955421172
 40
3.746311524560958
 40
4.472053397212929
 40
5.082244566405297
 40
5.693081841568461
 40
6.131770498714679
 40
6.792091143997744
 40
6.792091143997744
 40
6.792091143997744
 40
6.792091143997744
 10
-261.6888989032978
 20
30.35442922641272
 30
0.0
 10
-261.9595507718327
 20
30.35445315343213
 30
0.0
 10
-262.4200079923733
 20
30.31281871460746
 30
0.0
 10
-263.0584170851935
 20
30.14942349454998
 30
0.0
 10
-263.6039355922651
 20
29.92754043101363
 30
0.0
 10
-264.0674882015817
 20
29.657690681937
 30
0.0
 10
-264.3913306834877
 20
29.41295124991589
 30
0.0
 10
-264.6726574273491
 20
29.16610786303488
 30
0.0
 10
-265.0057099136743
 20
28.81848529106657
 30
0.0
 10
-265.3627582682557
 20
28.31509199292765
 30
0.0
 10
-265.6490576011561
 20
27.73780221284068
 30
0.0
 10
-265.8203641649407
 20
27.21643870935717
 30
0.0
 10
-265.9306347792701
 20
26.6635738955257
 30
0.0
 10
-265.9567583487765
 20
26.30204263643412
 30
0.0
 10
-265.9567595384114
 20
26.08643035352654
 30
0.0
  0
LINE
  5
15D98
330
18
100
AcDbEntity
  8
01
370
    30
100
AcDbLine
 10
-265.956821717444
 20
26.08747872895299
 30
0.0
 11
-265.9568298071342
 21
24.35449967053489
 31
0.0
  0
LINE
  5
15D99
330
18
100
AcDbEntity
  8
01
370
    30
100
AcDbLine
 10
-168.4574429398737
 20
29.0268252778846
 30
0.0
 11
-168.4574429398735
 21
26.77267238074734
 31
0.0
  0
LINE
  5
15D9B
330
18
100
AcDbEntity
  8
01
370
    30
100
AcDbLine
 10
-173.1574429398736
 20
27.34904727977681
 30
0.0
 11
-173.1574429398738
 21
29.0268252778846
 31
0.0
  0
LINE
  5
15D9C
330
18
100
AcDbEntity
  8
01
370
    30
100
AcDbLine
 10
-213.7574429398737
 20
29.02682527788437
 30
0.0
 11
-213.7574429398737
 21
27.34926125578289
 31
0.0
  0
LINE
  5
15D9E
330
18
100
AcDbEntity
  8
01
370
    30
100
AcDbLine
 10
-218.4574429398736
 20
26.77281950442313
 30
0.0
 11
-218.4574429398736
 21
29.02682527788437
 31
0.0
  0
LINE
  5
15D9F
330
18
100
AcDbEntity
  8
01
370
    30
100
AcDbLine
 10
-242.7145667664815
 20
19.2987011043453
 30
0.0
 11
-242.7145664428595
 21
21.10077143838447
 31
0.0
  0
LINE
  5
15DA0
330
18
100
AcDbEntity
  8
01
370
    30
100
AcDbLine
 10
-213.7574429398737
 20
29.02682527788437
 30
0.0
 11
-213.7574429398737
 21
29.66929004867024
 31
0.0
  0
LINE
  5
15DA1
330
18
100
AcDbEntity
  8
01
370
    30
100
AcDbLine
 10
-218.4574429398736
 20
29.02682527788437
 30
0.0
 11
-218.4574429398738
 21
29.66929004867024
 31
0.0
  0
LINE
  5
15DA2
330
18
100
AcDbEntity
  8
01
370
    30
100
AcDbLine
 10
-168.4574429398737
 20
29.0268252778846
 30
0.0
 11
-168.4574429398737
 21
29.66929004867058
 31
0.0
  0
SPLINE
  5
15DA3
330
18
100
AcDbEntity
  8
01
370
    30
100
AcDbSpline
210
0.0
220
0.0
230
1.0
 70
    28
 71
     2
 72
     6
 73
     3
 74
     0
 42
0.0000000001
 43
0.0000000001
 40
25.79512626055367
 40
25.79512626055367
 40
25.79512626055367
 40
28.2743338823081
 40
28.2743338823081
 40
28.2743338823081
 10
-173.1574429398738
 20
29.66929004867046
 30
0.0
 41
0.9694664972313884
 10
-173.1574429398738
 20
29.68357753933486
 30
0.0
 41
0.9473158745327634
 10
-173.1574429398738
 20
29.0268252778846
 30
0.0
 41
1.0
  0
LINE
  5
15DA4
330
18
100
AcDbEntity
  8
01
370
    30
100
AcDbLine
 10
-218.4574429398738
 20
29.66807882884263
 30
0.0
 11
-218.4574429398738
 21
29.66929004867024
 31
0.0
  0
LINE
  5
15DA5
330
18
100
AcDbEntity
  8
01
370
    30
100
AcDbLine
 10
-213.7574429398737
 20
29.66807882884263
 30
0.0
 11
-213.7574429398737
 21
29.66929004867024
 31
0.0
  0
LINE
  5
15DA6
330
18
100
AcDbEntity
  8
01
370
    30
100
AcDbLine
 10
-168.4574429398737
 20
29.66957252603328
 30
0.0
 11
-173.1574429398738
 21
29.66957252603328
 31
0.0
  0
LINE
  5
15DA7
330
18
100
AcDbEntity
  8
01
370
    30
100
AcDbLine
 10
-213.7574429398737
 20
29.66957252603305
 30
0.0
 11
-218.4574429398738
 21
29.66957252603305
 31
0.0
  0
SPLINE
  5
15DA8
330
18
100
AcDbEntity
  8
01
370
    30
100
AcDbSpline
210
0.0
220
0.0
230
1.0
 70
     8
 71
     3
 72
    14
 73
    10
 74
     0
 42
0.0000000001
 43
0.0000000001
 40
0.0
 40
0.0
 40
0.0
 40
0.0
 40
0.24991650877223
 40
0.24991650877223
 40
0.499894913813224
 40
0.499894913813224
 40
0.7499311831886101
 40
0.7499311831886101
 40
1.0
 40
1.0
 40
1.0
 40
1.0
 10
-123.9574429398744
 20
-55.60084764704534
 30
0.0
 10
-123.5647770609844
 20
-55.60084764704534
 30
0.0
 10
-123.1722659329725
 20
-55.55950726669142
 30
0.0
 10
-122.4466135801863
 20
-55.39943247207919
 30
0.0
 10
-122.1137903870944
 20
-55.2807278239231
 30
0.0
 10
-121.5583108122014
 20
-54.98295749571908
 30
0.0
 10
-121.3359579524704
 20
-54.8040227439043
 30
0.0
 10
-121.0354267564703
 20
-54.41217939401401
 30
0.0
 10
-120.9574429398744
 20
-54.19953188647567
 30
0.0
 10
-120.9574429398744
 20
-53.98556501108273
 30
0.0
  0
SPLINE
  5
15DA9
330
18
100
AcDbEntity
  8
01
370
    30
100
AcDbSpline
210
0.0
220
0.0
230
1.0
 70
     8
 71
     3
 72
    10
 73
     6
 74
     0
 42
0.0000000001
 43
0.0000000001
 40
0.0
 40
0.0
 40
0.0
 40
0.0
 40
0.499775101397484
 40
0.499775101397484
 40
1.0
 40
1.0
 40
1.0
 40
1.0
 10
-262.9574429398742
 20
-55.60084764704602
 30
0.0
 10
-263.7528452915053
 20
-55.60084764704602
 30
0.0
 10
-264.5164990730172
 20
-55.43318273250777
 30
0.0
 10
-265.6413498719662
 20
-54.83028044065311
 30
0.0
 10
-265.9574429398747
 20
-54.41950051862876
 30
0.0
 10
-265.9574429398742
 20
-53.98556501108352
 30
0.0
  0
LINE
  5
15DAA
330
18
100
AcDbEntity
  8
01
370
    30
100
AcDbLine
 10
-123.9574429398744
 20
-55.60084764704534
 30
0.0
 11
-262.9574429398744
 21
-55.60084764704602
 31
0.0
  0
LINE
  5
15DAB
330
18
100
AcDbEntity
  8
01
370
    30
100
AcDbLine
 10
-120.9574429398733
 20
16.04013097070802
 30
0.0
 11
-120.9574429398744
 21
-53.98556501108273
 31
0.0
  0
LINE
  5
15DAD
330
18
100
AcDbEntity
  8
01
370
    30
100
AcDbLine
 10
-265.9574429398742
 20
-53.98556501108352
 30
0.0
 11
-265.9574429398735
 21
16.04013097071032
 31
0.0
  0
LINE
  5
15DAE
330
18
100
AcDbEntity
  8
01
370
    30
100
AcDbLine
 10
-262.9574429398733
 20
18.61163280527461
 30
0.0
 11
-242.714573976478
 21
18.61163280527472
 31
0.0
  0
SPLINE
  5
15DAF
330
18
100
AcDbEntity
  8
01
370
    30
100
AcDbSpline
210
0.0
220
0.0
230
1.0
 70
    12
 71
     2
 72
     6
 73
     3
 74
     0
 42
0.0000000001
 43
0.0000000001
 40
0.0
 40
0.0
 40
0.0
 40
4.71238898038467
 40
4.71238898038467
 40
4.71238898038467
 10
-265.9574429398733
 20
16.04013097070736
 30
0.0
 41
1.0
 10
-265.9574429398733
 20
18.61163280527458
 30
0.0
 41
0.707106781186548
 10
-262.9574429398733
 20
18.61163280527461
 30
0.0
 41
1.0
  0
SPLINE
  5
15DB2
330
18
100
AcDbEntity
  8
01
370
    30
100
AcDbSpline
210
0.0
220
0.0
230
1.0
 70
    12
 71
     2
 72
     6
 73
     3
 74
     0
 42
0.0000000001
 43
0.0000000001
 40
0.0
 40
0.0
 40
0.0
 40
4.71238898038467
 40
4.71238898038467
 40
4.71238898038467
 10
-123.9574429398735
 20
18.61163280527529
 30
0.0
 41
1.0
 10
-120.9574429398735
 20
18.61163280527526
 30
0.0
 41
0.707106781186548
 10
-120.9574429398735
 20
16.04013097070805
 30
0.0
 41
1.0
  0
LINE
  5
15DB3
330
18
100
AcDbEntity
  8
01
370
    30
100
AcDbLine
 10
-144.2003084957005
 20
18.61163280527529
 30
0.0
 11
-123.9574429398735
 21
18.61163280527529
 31
0.0
  0
LINE
  5
15DB4
330
18
100
AcDbEntity
  8
01
370
    30
100
AcDbLine
 10
-120.9574429398735
 20
16.55516908308612
 30
0.0
 11
-120.9574429398735
 21
16.04013097070816
 31
0.0
  0
SPLINE
  5
15DB5
330
18
100
AcDbEntity
  8
01
370
    30
100
AcDbSpline
210
0.0
220
0.0
230
1.0
 70
    12
 71
     2
 72
     6
 73
     3
 74
     0
 42
0.0000000001
 43
0.0000000001
 40
-4.71238898038467
 40
-4.71238898038467
 40
-4.71238898038467
 40
0.0
 40
0.0
 40
0.0
 10
-123.9574429398735
 20
19.12667091765337
 30
0.0
 41
1.0
 10
-120.9574429398735
 20
19.12667091765337
 30
0.0
 41
0.707106781186548
 10
-120.9574429398735
 20
16.55516908308612
 30
0.0
 41
1.0
  0
SPLINE
  5
15DB7
330
18
100
AcDbEntity
  8
01
370
    30
100
AcDbSpline
210
0.0
220
0.0
230
1.0
 70
    12
 71
     2
 72
     6
 73
     3
 74
     0
 42
0.0000000001
 43
0.0000000001
 40
0.0
 40
0.0
 40
0.0
 40
4.712388980384689
 40
4.712388980384689
 40
4.712388980384689
 10
-265.9574429398733
 20
16.55516908308544
 30
0.0
 41
1.0
 10
-265.9574429398733
 20
19.12667091765269
 30
0.0
 41
0.707106781186546
 10
-262.9574429398733
 20
19.12667091765269
 30
0.0
 41
1.0
  0
LINE
  5
15DB8
330
18
100
AcDbEntity
  8
01
370
    30
100
AcDbLine
 10
-262.9574429398733
 20
19.12667091765269
 30
0.0
 11
-242.7145859504176
 21
19.12667091765269
 31
0.0
  0
LINE
  5
15DB9
330
18
100
AcDbEntity
  8
01
370
    30
100
AcDbLine
 10
-144.2002965945373
 20
19.12667091765326
 30
0.0
 11
-123.9574429398735
 21
19.12667091765337
 31
0.0
  0
LINE
  5
15DBB
330
18
100
AcDbEntity
  8
01
370
    30
100
AcDbLine
 10
-265.9574429398733
 20
16.55516908308544
 30
0.0
 11
-265.9574429398733
 21
16.04013097070736
 31
0.0
  0
LINE
  5
15DC7
330
18
100
AcDbEntity
  8
01
370
     0
100
AcDbLine
 10
-242.7140312924382
 20
17.46748158829604
 30
0.0
 11
-242.7146376055382
 21
17.50281212732301
 31
0.0
  0
LINE
  5
15DC8
330
18
100
AcDbEntity
  8
01
370
    30
100
AcDbLine
 10
-242.7146376055382
 20
17.50281212732301
 30
0.0
 11
-242.7145641572092
 21
18.78274655462081
 31
0.0
  0
LINE
  5
15DC9
330
18
100
AcDbEntity
  8
01
370
    30
100
AcDbLine
 10
-144.2003182886742
 20
18.78301781171757
 30
0.0
 11
-144.2002451274172
 21
17.5026361865975
 31
0.0
  0
SPLINE
  5
15DCF
330
18
100
AcDbEntity
  8
01
370
     0
100
AcDbSpline
210
0.0
220
0.0
230
1.0
 70
     8
 71
     3
 72
    15
 73
    11
 74
     0
 42
0.0000000001
 43
0.0000000001
 40
0.0
 40
0.0
 40
0.0
 40
0.0
 40
0.0407672523706206
 40
0.0808088077262898
 40
0.159056859076692
 40
0.310235168851517
 40
0.599198730381653
 40
0.87328727204133
 40
1.007732522866799
 40
1.141408608271689
 40
1.141408608271689
 40
1.141408608271689
 40
1.141408608271689
 10
-144.8983296818182
 20
18.10860044136387
 30
0.0
 10
-144.8837903139992
 20
18.10598516002727
 30
0.0
 10
-144.8552232690663
 20
18.10037730955531
 30
0.0
 10
-144.7999701592941
 20
18.08768037032035
 30
0.0
 10
-144.7091591213452
 20
18.0620375932553
 30
0.0
 10
-144.5472969906882
 20
17.99819312040125
 30
0.0
 10
-144.362968622971
 20
17.8747191642754
 30
0.0
 10
-144.2518159493372
 20
17.72521869242718
 30
0.0
 10
-144.2077862467722
 20
17.599860551576
 30
0.0
 10
-144.2002447000191
 20
17.53518897899397
 30
0.0
 10
-144.2002451274172
 20
17.5026361865975
 30
0.0
  0
SPLINE
  5
15DD1
330
18
100
AcDbEntity
  8
01
370
     0
100
AcDbSpline
210
0.0
220
0.0
230
1.0
 70
     8
 71
     3
 72
    19
 73
    15
 74
     0
 42
0.0000000001
 43
0.0000000001
 40
0.0
 40
0.0
 40
0.0
 40
0.0
 40
0.5758729490528479
 40
1.15179456974965
 40
2.303761175006419
 40
4.60816650655924
 40
6.91361700303332
 40
9.220214949161979
 40
11.5280764668876
 40
13.8376711730726
 40
16.1495394233361
 40
17.3065334497684
 40
17.8853499522205
 40
18.4644373054732
 40
18.4644373054732
 40
18.4644373054732
 40
18.4644373054732
 10
-162.45193669434
 20
20.64075945436337
 30
0.0
 10
-162.263979535508
 20
20.61016296924794
 30
0.0
 10
-161.888186971915
 20
20.54896662194261
 30
0.0
 10
-161.1372366575431
 20
20.42654912546248
 30
0.0
 10
-159.824705235495
 20
20.21252620740796
 30
0.0
 10
-157.9551743357442
 20
19.90870893068967
 30
0.0
 10
-155.7234593248861
 20
19.5513421790834
 30
0.0
 10
-153.5061340721991
 20
19.2061486422885
 30
0.0
 10
-151.307356653363
 20
18.87963833601287
 30
0.0
 10
-149.1326186053852
 20
18.57928354217591
 30
0.0
 10
-147.3466830068582
 20
18.35852092128783
 30
0.0
 10
-146.115293525067
 20
18.2251634557885
 30
0.0
 10
-145.4176020805032
 20
18.1559997836909
 30
0.0
 10
-145.0710881231291
 20
18.12398839005885
 30
0.0
 10
-144.8983296818182
 20
18.10860044136387
 30
0.0
  0
SPLINE
  5
15DD4
330
18
100
AcDbEntity
  8
01
370
     0
100
AcDbSpline
210
0.0
220
0.0
230
1.0
 70
     8
 71
     3
 72
    23
 73
    19
 74
     0
 42
0.0000000001
 43
0.0000000001
 40
0.0
 40
0.0
 40
0.0
 40
0.0
 40
1.241680914352
 40
2.48330811811733
 40
4.9663205931386
 40
9.931275908855521
 40
14.8952265639745
 40
19.8586608870944
 40
24.8218693910159
 40
29.7854639051573
 40
39.7131887589389
 40
49.6459346138399
 40
59.5836054563311
 40
69.5263512356572
 40
74.5012540988162
 40
76.98970131139211
 40
78.2341813533794
 40
79.4788702809896
 40
79.4788702809896
 40
79.4788702809896
 40
79.4788702809896
 10
-242.0171983010011
 20
18.49870524099327
 30
0.0
 10
-241.6252014810031
 20
18.63073533838377
 30
0.0
 10
-240.8401168232381
 20
18.89148068072376
 30
0.0
 10
-239.2655588086973
 20
19.40003969404364
 30
0.0
 10
-236.4988715728541
 20
20.25437791554038
 30
0.0
 10
-232.5137910256322
 20
21.36622531545407
 30
0.0
 10
-227.6836389513392
 20
22.50542789395257
 30
0.0
 10
-222.8122293439851
 20
23.43072214532543
 30
0.0
 10
-217.9101384192331
 20
24.12980645657621
 30
0.0
 10
-211.3491349832202
 20
24.76189413500987
 30
0.0
 10
-203.123542411648
 20
25.01683151539663
 30
0.0
 10
-193.258495685116
 20
24.63085352193588
 30
0.0
 10
-183.3956290119431
 20
23.71626105829677
 30
0.0
 10
-175.1816839969531
 20
22.62975754341409
 30
0.0
 10
-169.449214728663
 20
21.76072376884002
 30
0.0
 10
-166.5898021401231
 20
21.30874182084841
 30
0.0
 10
-164.9583844977901
 20
21.04707236702592
 30
0.0
 10
-164.143789338616
 20
20.9154878584838
 30
0.0
 10
-163.7367378468211
 20
20.84947749546126
 30
0.0
  0
SPLINE
  5
15DD6
330
18
100
AcDbEntity
  8
01
370
     0
100
AcDbSpline
210
0.0
220
0.0
230
1.0
 70
     8
 71
     3
 72
    12
 73
     8
 74
     0
 42
0.0000000001
 43
0.0000000001
 40
0.0007435996017663
 40
0.0007435996017663
 40
0.0007435996017663
 40
0.0007435996017663
 40
0.329423760432703
 40
0.329423760432703
 40
0.6583363601676351
 40
0.6583363601676351
 40
1.315975526649109
 40
1.315975526649109
 40
1.315975526649109
 40
1.315975526649109
 10
-242.7146376055382
 20
17.50281212732301
 30
0.0
 10
-242.7146928823081
 20
17.60539750861875
 30
0.0
 10
-242.7007031039861
 20
17.70748041261305
 30
0.0
 10
-242.6447448375232
 20
17.9059806663426
 30
0.0
 10
-242.603093708155
 20
18.00278189948943
 30
0.0
 10
-242.4320928291152
 20
18.2715037073653
 30
0.0
 10
-242.2472300909601
 20
18.42936201329752
 30
0.0
 10
-242.0171983010011
 20
18.49870524099327
 30
0.0
  0
LINE
  5
15DD8
330
18
100
AcDbEntity
  8
01
370
     0
100
AcDbLine
 10
-163.7367378468211
 20
20.84947749546126
 30
0.0
 11
-162.45193669434
 21
20.64075945436337
 31
0.0
  0
LINE
  5
15DD9
330
18
100
AcDbEntity
  8
01
370
    30
100
AcDbLine
 10
-144.2001719776803
 20
21.10070509288647
 30
0.0
 11
-144.2003182886742
 21
18.78301781171757
 31
0.0
  0
LINE
  5
15DDC
330
18
100
AcDbEntity
  8
01
370
    30
100
AcDbLine
 10
-242.7145641572092
 20
18.78274655462081
 30
0.0
 11
-242.7147110538672
 21
21.1009612922856
 31
0.0
  0
ARC
  5
15DE5
330
18
100
AcDbEntity
  8
01
370
    30
100
AcDbCircle
 10
-192.8211618409998
 20
-153.5996112787047
 30
0.0
 40
182.0083492572426
100
AcDbArc
 50
74.74052995688222
 51
80.39919802596331
  0
SPLINE
  5
15DE6
330
18
100
AcDbEntity
  8
01
370
    30
100
AcDbSpline
210
0.0
220
0.0
230
1.0
 70
     8
 71
     3
 72
    15
 73
    11
 74
     0
 42
0.0000000001
 43
0.0000000001
 40
0.0
 40
0.0
 40
0.0
 40
0.0
 40
6.355311240978281
 40
16.36444567209691
 40
25.58263522861079
 40
36.67223312161065
 40
51.46004126051852
 40
62.55336218043043
 40
73.64648722575362
 40
80.50541799467763
 40
80.50541799467763
 40
80.50541799467763
 40
80.50541799467763
 10
-241.9971640985136
 20
21.99167370777246
 30
0.0
 10
-239.9786447424169
 20
22.54278923192913
 30
0.0
 10
-234.7476054753552
 20
23.87325160051381
 30
0.0
 10
-226.4548826356852
 20
25.59283806542846
 30
0.0
 10
-216.5031377929417
 20
27.12073359065431
 30
0.0
 10
-204.8730656364733
 20
28.25939904366754
 30
0.0
 10
-192.5429627689732
 20
28.60641496128591
 30
0.0
 10
-180.2249482101124
 20
28.09831949267499
 30
0.0
 10
-170.6041746429048
 20
27.12502530218063
 30
0.0
 10
-164.708216357714
 20
26.23920794794316
 30
0.0
 10
-162.4653460200261
 20
25.85947497780359
 30
0.0
  0
SPLINE
  5
15DE7
330
18
100
AcDbEntity
  8
01
370
    30
100
AcDbSpline
210
0.0
220
0.0
230
1.0
 70
     8
 71
     3
 72
    11
 73
     7
 74
     0
 42
0.0000000001
 43
0.0000000001
 40
0.0
 40
0.0
 40
0.0
 40
0.0
 40
0.3144654082507251
 40
0.6755113554675385
 40
1.036112596109659
 40
1.255032853766383
 40
1.255032853766383
 40
1.255032853766383
 40
1.255032853766383
 10
-242.7147109228945
 20
21.10100067521802
 30
0.0
 10
-242.7145672924369
 20
21.20193650172467
 30
0.0
 10
-242.6757027175795
 20
21.42078885760196
 30
0.0
 10
-242.4970600887448
 20
21.71353011087416
 30
0.0
 10
-242.247763985049
 20
21.90291100927169
 30
0.0
 10
-242.0673445149755
 20
21.97271057889787
 30
0.0
 10
-241.9972501392272
 20
21.99164948776019
 30
0.0
  0
SPLINE
  5
15DE8
330
18
100
AcDbEntity
  8
01
370
    30
100
AcDbSpline
210
0.0
220
0.0
230
1.0
 70
     8
 71
     3
 72
    11
 73
     7
 74
     0
 42
0.0000000001
 43
0.0000000001
 40
0.0
 40
0.0
 40
0.0
 40
0.0
 40
0.2335206504681004
 40
0.5991565888252108
 40
0.9664791612391836
 40
1.255935317619455
 40
1.255935317619455
 40
1.255935317619455
 40
1.255935317619455
 10
-144.9183002968486
 20
21.99183040504835
 30
0.0
 10
-144.8435461247268
 20
21.97167709247918
 30
0.0
 10
-144.6573137873984
 20
21.89843691230993
 30
0.0
 10
-144.4042189870547
 20
21.69959693150332
 30
0.0
 10
-144.2351609523884
 20
21.40652432955466
 30
0.0
 10
-144.2002405379639
 20
21.19382450914594
 30
0.0
 10
-144.2001720742166
 20
21.10081110368714
 30
0.0
  0
ARC
  5
15DE9
330
18
100
AcDbEntity
  8
01
370
    30
100
AcDbCircle
 10
-207.6630585656317
 20
106.6523707014757
 30
0.0
 40
96.92130014822673
100
AcDbArc
 50
260.0244255827949
 51
260.7963302376493
  0
SPLINE
  5
15DEA
330
18
100
AcDbEntity
  8
01
370
    30
100
AcDbSpline
210
0.0
220
0.0
230
1.0
 70
     8
 71
     3
 72
    11
 73
     7
 74
     0
 42
0.0000000001
 43
0.0000000001
 40
0.0
 40
0.0
 40
0.0
 40
0.0
 40
0.2629892804356865
 40
0.6416614312728373
 40
1.039953802726499
 40
1.322262290549689
 40
1.322262290549689
 40
1.322262290549689
 40
1.322262290549689
 10
-242.7145643695066
 20
17.50256706070371
 30
0.0
 10
-242.7144068941493
 20
17.41531433955032
 30
0.0
 10
-242.6927442549595
 20
17.20203593496427
 30
0.0
 10
-242.5742385291075
 20
16.87374799007597
 30
0.0
 10
-242.3520862887476
 20
16.59375090920383
 30
0.0
 10
-242.1598221629476
 20
16.46894374243806
 30
0.0
 10
-242.0746992707045
 20
16.42994159689368
 30
0.0
  0
SPLINE
  5
15DEB
330
18
100
AcDbEntity
  8
01
370
    30
100
AcDbSpline
210
0.0
220
0.0
230
1.0
 70
     8
 71
     3
 72
    17
 73
    13
 74
     0
 42
0.0000000001
 43
0.0000000001
 40
0.0
 40
0.0
 40
0.0
 40
0.0
 40
0.0566209352125854
 40
0.0990068726444088
 40
0.14180163146829
 40
0.2645774501847621
 40
0.3903257191924065
 40
0.5829930872130978
 40
0.7810041227841014
 40
0.9129641757932983
 40
1.047027844175061
 40
1.236386931755505
 40
1.236386931755505
 40
1.236386931755505
 40
1.236386931755505
 10
-144.9458327206521
 20
16.78439502740224
 30
0.0
 10
-144.9280765064443
 20
16.78821245335388
 30
0.0
 10
-144.8962134653482
 20
16.79526964539713
 30
0.0
 10
-144.8522424649572
 20
16.80676309775407
 30
0.0
 10
-144.7887885941213
 20
16.82511153539639
 30
0.0
 10
-144.7040705946408
 20
16.85495100903444
 30
0.0
 10
-144.5855158400659
 20
16.90918286466007
 30
0.0
 10
-144.4598617637259
 20
16.98808989584921
 30
0.0
 10
-144.3503597309798
 20
17.0934638384503
 30
0.0
 10
-144.2738395092501
 20
17.20665235368341
 30
0.0
 10
-144.2191540445251
 20
17.33203664157002
 30
0.0
 10
-144.2020537684022
 20
17.43067305606286
 30
0.0
 10
-144.2005238505917
 20
17.4879416171986
 30
0.0
  0
SPLINE
  5
15DEC
330
18
100
AcDbEntity
  8
01
370
    30
100
AcDbSpline
210
0.0
220
0.0
230
1.0
 70
     8
 71
     3
 72
    19
 73
    15
 74
     0
 42
0.0000000001
 43
0.0000000001
 40
0.0
 40
0.0
 40
0.0
 40
0.0
 40
4.834589651952572
 40
10.16700060835399
 40
19.50863945543952
 40
27.64961491461693
 40
32.55614164003522
 40
44.20039465978418
 40
52.35793012538327
 40
56.24367251341096
 40
60.83749481369292
 40
68.11148630903687
 40
75.97900902776813
 40
79.47459680957568
 40
79.47459680957568
 40
79.47459680957568
 40
79.47459680957568
 10
-223.1650742085437
 20
10.97883241202925
 30
0.0
 10
-221.5816832764051
 20
10.72240828212665
 30
0.0
 10
-218.2418963579276
 20
10.26456427019621
 30
0.0
 10
-211.8117626009814
 20
9.686368484367051
 30
0.0
 10
-204.2726683591511
 20
9.462925416579253
 30
0.0
 10
-196.8693839468392
 20
9.681352657311492
 30
0.0
 10
-188.7035501344417
 20
10.21889487759614
 30
0.0
 10
-180.5292010689225
 20
11.08214731246715
 30
0.0
 10
-172.6986395357639
 20
12.1346278360424
 30
0.0
 10
-167.2172341158571
 20
12.92998403197765
 30
0.0
 10
-162.0473809859506
 20
13.71563981767718
 30
0.0
 10
-155.6238918728957
 20
14.75361042316757
 30
0.0
 10
-149.6471004937011
 20
15.82832471330351
 30
0.0
 10
-146.048595685347
 20
16.55362419337092
 30
0.0
 10
-144.9460084925142
 20
16.78435772647111
 30
0.0
  0
SPLINE
  5
15DED
330
18
100
AcDbEntity
  8
01
370
    30
100
AcDbSpline
210
0.0
220
0.0
230
1.0
 70
     8
 71
     3
 72
    11
 73
     7
 74
     0
 42
0.0000000001
 43
0.0000000001
 40
0.0
 40
0.0
 40
0.0
 40
0.0
 40
4.241302232195413
 40
8.67808622943037
 40
13.74720235480718
 40
18.46648560893424
 40
18.46648560893424
 40
18.46648560893424
 40
18.46648560893424
 10
-242.0746972768156
 20
16.42994068925276
 30
0.0
 10
-240.8003925157807
 20
15.84649789251824
 30
0.0
 10
-238.1275354008812
 20
14.75170652137234
 30
0.0
 10
-233.7741423139378
 20
13.31004212718943
 30
0.0
 10
-229.1866440704798
 20
12.11031892050499
 30
0.0
 10
-225.9955678535878
 20
11.46774680325569
 30
0.0
 10
-224.4525774167125
 20
11.19635738400433
 30
0.0
  0
LINE
  5
15DEE
330
18
100
AcDbEntity
  8
01
370
    30
100
AcDbLine
 10
-218.9574429398736
 20
26.70429098096401
 30
0.0
 11
-218.9574429398736
 21
29.66957252603669
 31
0.0
  0
LINE
  5
15DEF
330
18
100
AcDbEntity
  8
01
370
    30
100
AcDbLine
 10
-235.4574429398738
 20
23.64630316750294
 30
0.0
 11
-235.4574429398738
 21
28.66957252603658
 31
0.0
  0
LINE
  5
15DF1
330
18
100
AcDbEntity
  8
01
370
    30
100
AcDbLine
 10
-218.9574429398736
 20
29.66957252603669
 30
0.0
 11
-234.4574429398735
 21
29.66957252603669
 31
0.0
  0
ARC
  5
15DF2
330
18
100
AcDbEntity
  8
01
370
    30
100
AcDbCircle
 10
-234.4574429398738
 20
28.66957252603669
 30
0.0
 40
1.0
100
AcDbArc
 50
90.00000000022145
 51
180.0
  0
LINE
  5
15DF3
330
18
100
AcDbEntity
  8
01
370
    30
100
AcDbLine
 10
-218.4574429398736
 20
27.66957252603669
 30
0.0
 11
-218.9574429398736
 21
27.66957252603669
 31
0.0
  0
LINE
  5
15DF4
330
18
100
AcDbEntity
  8
01
370
    30
100
AcDbLine
 10
-213.4574429398738
 20
27.66957252603669
 30
0.0
 11
-213.7574429398737
 21
27.66957252603669
 31
0.0
  0
LINE
  5
15DF5
330
18
100
AcDbEntity
  8
01
370
    30
100
AcDbLine
 10
-173.1574429398736
 20
27.66957252603669
 30
0.0
 11
-173.4574429398738
 21
27.66957252603669
 31
0.0
  0
LINE
  5
15DF6
330
18
100
AcDbEntity
  8
01
370
    30
100
AcDbLine
 10
-167.957442939874
 20
27.66957252603669
 30
0.0
 11
-168.4574429398735
 21
27.66957252603669
 31
0.0
  0
LINE
  5
15DF7
330
18
100
AcDbEntity
  8
01
370
    30
100
AcDbLine
 10
-167.957442939874
 20
29.66957252603669
 30
0.0
 11
-167.957442939874
 21
26.70416301395988
 31
0.0
  0
LINE
  5
15DF9
330
18
100
AcDbEntity
  8
01
370
    30
100
AcDbLine
 10
-151.457442939874
 20
28.66957252603669
 30
0.0
 11
-151.457442939874
 21
23.64645610828853
 31
0.0
  0
ARC
  5
15DFA
330
18
100
AcDbEntity
  8
01
370
    30
100
AcDbCircle
 10
-152.457442939874
 20
28.66957252603669
 30
0.0
 40
1.0
100
AcDbArc
 50
0.0
 51
89.99999999977854
  0
LINE
  5
15DFB
330
18
100
AcDbEntity
  8
01
370
    30
100
AcDbLine
 10
-167.957442939874
 20
29.66957252603669
 30
0.0
 11
-152.457442939874
 21
29.66957252603669
 31
0.0
  0
SPLINE
  5
15DFC
330
18
100
AcDbEntity
  8
01
370
    30
100
AcDbSpline
210
0.0
220
0.0
230
1.0
 70
    11
 71
     3
 72
    23
 73
    19
 74
     0
 42
0.0000000001
 43
0.0000000001
 40
0.0
 40
0.0
 40
0.0
 40
0.0
 40
0.9193657724047627
 40
1.838754902598897
 40
3.666119289910584
 40
5.493358435552704
 40
7.320156148300108
 40
9.147203939747891
 40
10.97448939726103
 40
12.80135041763748
 40
14.62819045539436
 40
16.45546212174267
 40
18.2825590707926
 40
20.10941668366568
 40
21.93665674135357
 40
23.76404126738994
 40
24.68344539061117
 40
25.60280731735539
 40
25.60280731735539
 40
25.60280731735539
 40
25.60280731735539
 10
-183.457442939874
 20
35.96062064046186
 30
0.0
 10
-183.1509876824059
 20
35.96062064046197
 30
0.0
 10
-182.5356066272752
 20
35.91575439466959
 30
0.0
 10
-181.3757307579069
 20
35.65725683043496
 30
0.0
 10
-180.1435206248707
 20
35.04790482172911
 30
0.0
 10
-179.3252564836391
 20
34.07496399967608
 30
0.0
 10
-179.3231559670407
 20
33.10271588919403
 30
0.0
 10
-180.1424963812931
 20
32.32931887271087
 30
0.0
 10
-181.615525941703
 20
31.85112356375743
 30
0.0
 10
-183.4574648579703
 20
31.69110981909165
 30
0.0
 10
-185.299391350796
 20
31.85112632312411
 30
0.0
 10
-186.7724520970932
 20
32.32929577896431
 30
0.0
 10
-187.5919508295737
 20
33.10267510605894
 30
0.0
 10
-187.5897366488079
 20
34.07496729899475
 30
0.0
 10
-186.7713227580373
 20
35.04784349517417
 30
0.0
 10
-185.5392167142299
 20
35.65731350120149
 30
0.0
 10
-184.3792616933483
 20
35.91568676887874
 30
0.0
 10
-183.7638969154554
 20
35.96062064046186
 30
0.0
 10
-183.457442939874
 20
35.96062064046186
 30
0.0
  0
SPLINE
  5
15DFD
330
18
100
AcDbEntity
  8
01
370
    30
100
AcDbSpline
210
0.0
220
0.0
230
1.0
 70
    11
 71
     3
 72
    23
 73
    19
 74
     0
 42
0.0000000001
 43
0.0000000001
 40
0.0
 40
0.0
 40
0.0
 40
0.0
 40
0.9193657724048581
 40
1.838754902598842
 40
3.666119289910601
 40
5.493358435552693
 40
7.320156148300163
 40
9.147203939747909
 40
10.97448939726106
 40
12.8013504176376
 40
14.62819045539439
 40
16.45546212174274
 40
18.28255907079264
 40
20.10941668366573
 40
21.93665674135373
 40
23.76404126739
 40
24.68344539061122
 40
25.60280731735544
 40
25.60280731735544
 40
25.60280731735544
 40
25.60280731735544
 10
-203.457442939874
 20
35.96062064046118
 30
0.0
 10
-203.1509876824059
 20
35.96062064046118
 30
0.0
 10
-202.5356066272752
 20
35.91575439466891
 30
0.0
 10
-201.3757307579069
 20
35.65725683043428
 30
0.0
 10
-200.1435206248707
 20
35.04790482172842
 30
0.0
 10
-199.3252564836391
 20
34.07496399967528
 30
0.0
 10
-199.3231559670407
 20
33.10271588919335
 30
0.0
 10
-200.1424963812929
 20
32.32931887270996
 30
0.0
 10
-201.615525941703
 20
31.85112356375674
 30
0.0
 10
-203.4574648579703
 20
31.69110981909097
 30
0.0
 10
-205.299391350796
 20
31.85112632312343
 30
0.0
 10
-206.7724520970933
 20
32.32929577896352
 30
0.0
 10
-207.5919508295738
 20
33.10267510605826
 30
0.0
 10
-207.589736648808
 20
34.07496729899407
 30
0.0
 10
-206.7713227580373
 20
35.0478434951736
 30
0.0
 10
-205.5392167142299
 20
35.6573135012008
 30
0.0
 10
-204.3792616933483
 20
35.91568676887795
 30
0.0
 10
-203.7638969154555
 20
35.96062064046118
 30
0.0
 10
-203.457442939874
 20
35.96062064046118
 30
0.0
  0
ELLIPSE
  5
15DFE
330
18
100
AcDbEntity
  8
01
370
    30
100
AcDbEllipse
 10
-183.457442939874
 20
32.66800138749949
 30
0.0
 11
4.099999999999999
 21
0.0000000000001573
 31
0.0
210
0.0
220
0.0
230
-1.0
 40
0.5000000378548494
 41
3.368755723171799
 42
4.712388980384689
  0
ELLIPSE
  5
15DFF
330
18
100
AcDbEntity
  8
01
370
    30
100
AcDbEllipse
 10
-183.457442939874
 20
32.66800138749949
 30
0.0
 11
4.099999999999999
 21
0.0000000000001573
 31
0.0
210
0.0
220
0.0
230
-1.0
 40
0.5000000378548494
 41
4.712388980384689
 42
6.055921731401958
  0
ELLIPSE
  5
15E02
330
18
100
AcDbEntity
  8
01
370
    30
100
AcDbEllipse
 10
-203.457442939874
 20
32.66800138749881
 30
0.0
 11
4.099999999999999
 21
0.0000000000001573
 31
0.0
210
0.0
220
0.0
230
-1.0
 40
0.5000000378548494
 41
3.368755723171799
 42
4.712388980384689
  0
ELLIPSE
  5
15E03
330
18
100
AcDbEntity
  8
01
370
    30
100
AcDbEllipse
 10
-203.457442939874
 20
32.66800138749881
 30
0.0
 11
4.099999999999999
 21
0.0000000000001573
 31
0.0
210
0.0
220
0.0
230
-1.0
 40
0.5000000378548494
 41
4.712388980384689
 42
6.055921731401963
  0
LINE
  5
15E0E
330
18
100
AcDbEntity
  8
01
370
    30
100
AcDbLine
 10
-174.457442939874
 20
29.64099320135023
 30
0.0
 11
-212.457442939874
 21
29.64099320134875
 31
0.0
  0
LINE
  5
15E13
330
18
100
AcDbEntity
  8
01
370
    30
100
AcDbLine
 10
-173.4574429398744
 20
46.16957356316524
 30
0.0
 11
-213.4574429398745
 21
46.16957356316371
 31
0.0
  0
ARC
  5
15E15
330
18
100
AcDbEntity
  8
01
370
    30
100
AcDbCircle
 10
-212.4587812356963
 20
28.64233132406167
 30
0.0
 40
0.9986627740044085
100
AcDbArc
 50
89.92321860082533
 51
179.9161341866911
  0
LINE
  5
15E16
330
18
100
AcDbEntity
  8
01
370
    30
100
AcDbLine
 10
-213.4574429398745
 20
46.16957356316371
 30
0.0
 11
-213.457442939874
 21
28.64379310076783
 31
0.0
  0
LINE
  5
15E17
330
18
100
AcDbEntity
  8
01
370
    30
100
AcDbLine
 10
-213.457442939874
 20
28.64379310076783
 30
0.0
 11
-213.4574429398738
 21
27.38192002809052
 31
0.0
  0
ARC
  5
15E18
330
18
100
AcDbEntity
  8
01
370
    30
100
AcDbCircle
 10
-174.4561046439382
 20
28.64233132417684
 30
0.0
 40
0.9986627738909284
100
AcDbArc
 50
0.083865806632257
 51
90.07678140568842
  0
LINE
  5
15E19
330
18
100
AcDbEntity
  8
01
370
    30
100
AcDbLine
 10
-173.4574429398738
 20
27.38170791662952
 30
0.0
 11
-173.457442939874
 21
28.64379310076532
 31
0.0
  0
LINE
  5
15E1A
330
18
100
AcDbEntity
  8
01
370
    30
100
AcDbLine
 10
-173.457442939874
 20
28.64379310076771
 30
0.0
 11
-173.4574429398744
 21
46.16957356316524
 31
0.0
  0
SPLINE
  5
160BF
330
18
100
AcDbEntity
  8
01
  6
Continuous
370
    30
100
AcDbSpline
210
0.0
220
0.0
230
1.0
 70
    28
 71
     2
 72
     8
 73
     5
 74
     0
 42
0.0000000001
 43
0.0000000001
 40
2.410962148266387
 40
2.410962148266387
 40
2.410962148266387
 40
7.06858347057703
 40
7.06858347057703
 40
10.35468670443306
 40
10.35468670443306
 40
10.35468670443306
 10
-165.4573807511153
 20
-108.2237337878515
 30
0.0
 41
0.8683475034177241
 10
-165.4573807511155
 20
-108.2237338106943
 30
0.0
 41
0.807007202109991
 10
-165.4573807511155
 20
-105.9737337878516
 30
0.0
 41
1.0
 10
-165.4573807511153
 20
-104.4907206347737
 30
0.0
 41
0.8638373080655137
 10
-165.4573807511155
 20
-102.8136691376985
 30
0.0
 41
0.8542755579346982
  0
SPLINE
  5
160C5
330
18
100
AcDbEntity
  8
01
  6
Continuous
370
    30
100
AcDbSpline
210
0.0
220
0.0
230
1.0
 70
     8
 71
     3
 72
    15
 73
    11
 74
     0
 42
0.0000000001
 43
0.0000000001
 40
0.0
 40
0.0
 40
0.0
 40
0.0
 40
0.5689392344338052
 40
1.723160435493322
 40
3.338119603946143
 40
4.718233179606644
 40
5.860361247145665
 40
7.367036189064895
 40
8.536258711966635
 40
9.278242419420237
 40
9.278242419420237
 40
9.278242419420237
 40
9.278242419420237
 10
-126.9573807511167
 20
-124.7660682787099
 30
0.0
 10
-127.1469635387263
 20
-124.7660682787099
 30
0.0
 10
-127.7214849300555
 20
-124.7908527899465
 30
0.0
 10
-128.8197219713076
 20
-124.9830768424516
 30
0.0
 10
-130.097928060492
 20
-125.5034878813082
 30
0.0
 10
-131.1942140027306
 20
-126.2979337839361
 30
0.0
 10
-132.0623710006437
 20
-127.2661553951546
 30
0.0
 10
-132.6465240087352
 20
-128.3432989523588
 30
0.0
 10
-132.9151135913791
 20
-129.3952187634948
 30
0.0
 10
-132.9573804041267
 20
-129.9969191747251
 30
0.0
 10
-132.9573807511119
 20
-130.2301348192455
 30
0.0
  0
LINE
  5
160C6
330
18
100
AcDbEntity
  8
01
  6
Continuous
370
    30
100
AcDbLine
 10
-253.9573807511151
 20
-109.7237337878518
 30
0.0
 11
-253.9573807511167
 21
-136.7237337878268
 31
0.0
  0
SPLINE
  5
160C7
330
18
100
AcDbEntity
  8
01
  6
Continuous
370
    30
100
AcDbSpline
210
0.0
220
0.0
230
1.0
 70
     8
 71
     3
 72
    15
 73
    11
 74
     0
 42
0.0000000001
 43
0.0000000001
 40
0.0
 40
0.0
 40
0.0
 40
0.0
 40
0.7875440877533253
 40
1.752978350560488
 40
3.132282739958178
 40
4.382509009329131
 40
5.678294981055191
 40
7.460678923103384
 40
8.593691940247486
 40
9.278269544554053
 40
9.278269544554053
 40
9.278269544554053
 40
9.278269544554053
 10
-120.9573807511155
 20
-130.2301422182854
 30
0.0
 10
-120.9573807511153
 20
-129.9826277150307
 30
0.0
 10
-120.9985552874075
 20
-129.4306850041696
 30
0.0
 10
-121.2340038236177
 20
-128.466074950011
 30
0.0
 10
-121.7411604387287
 20
-127.4332449310632
 30
0.0
 10
-122.5477701660013
 20
-126.4577073956693
 30
0.0
 10
-123.6603841340666
 20
-125.5879368240917
 30
0.0
 10
-124.9430462326788
 20
-125.0235783196951
 30
0.0
 10
-126.1231921360358
 20
-124.7975122020388
 30
0.0
 10
-126.7292931714946
 20
-124.76606827871
 30
0.0
 10
-126.9573807511167
 20
-124.76606827871
 30
0.0
  0
LINE
  5
160C8
330
18
100
AcDbEntity
  8
01
  6
Continuous
370
    30
100
AcDbLine
 10
-132.9573807511172
 20
-136.7237337878268
 30
0.0
 11
-132.9573807511165
 21
-130.2301348192455
 31
0.0
  0
LINE
  5
160C9
330
18
100
AcDbEntity
  8
01
  6
Continuous
370
    30
100
AcDbLine
 10
-120.9573807511165
 20
-130.2301422182854
 30
0.0
 11
-120.9573807511176
 21
-143.7243788089778
 31
0.0
  0
ARC
  5
160CA
330
18
100
AcDbEntity
  8
01
  6
Continuous
370
    30
100
AcDbCircle
 10
-166.9574005204556
 20
-108.2236825334799
 30
0.0
 40
1.500019770450631
100
AcDbArc
 50
270.0007551232384
 51
359.997132503651
  0
LINE
  5
160CB
330
18
100
AcDbEntity
  8
01
  6
Continuous
370
    30
100
AcDbLine
 10
-166.9573807511147
 20
-109.7237337878518
 30
0.0
 11
-253.9573807511151
 21
-109.7237337878518
 31
0.0
  0
LINE
  5
160CD
330
18
100
AcDbEntity
  8
01
  6
Continuous
370
    30
100
AcDbLine
 10
-260.9572284118446
 20
-148.7237337878269
 30
0.0
 11
-125.9574913270505
 21
-148.7237337878269
 31
0.0
  0
LINE
  5
160CE
330
18
100
AcDbEntity
  8
01
  6
Continuous
370
    30
100
AcDbLine
 10
-132.9573807511172
 20
-136.7237337878268
 30
0.0
 11
-253.9573807511167
 21
-136.7237337878268
 31
0.0
  0
LINE
  5
160D0
330
18
100
AcDbEntity
  8
01
  6
Continuous
370
    30
100
AcDbLine
 10
-265.9573807511172
 20
-143.7223580656959
 30
0.0
 11
-265.9573807511149
 21
-101.1831218083428
 31
0.0
  0
SPLINE
  5
160D1
330
18
100
AcDbEntity
  8
01
  6
Continuous
370
    30
100
AcDbSpline
210
0.0
220
0.0
230
1.0
 70
     8
 71
     3
 72
    22
 73
    18
 74
     0
 42
0.0000000001
 43
0.0000000001
 40
0.0
 40
0.0
 40
0.0
 40
0.0
 40
0.8485090928691256
 40
1.972726498503066
 40
2.655109055992546
 40
3.454557790327253
 40
4.075546981097027
 40
5.02670819243296
 40
5.962336483987091
 40
6.505897814682075
 40
7.026662364633766
 40
7.296797646461224
 40
7.563332666965878
 40
7.69507707644463
 40
7.825531966983122
 40
7.954415991192977
 40
8.081415980528632
 40
8.081415980528632
 40
8.081415980528632
 40
8.081415980528632
 10
-265.9573019358984
 20
-143.7223938030763
 30
0.0
 10
-265.9572861688551
 20
-144.0014084645002
 30
0.0
 10
-265.9078339642808
 20
-144.6500518102847
 30
0.0
 10
-265.6805446914106
 20
-145.4964139901482
 30
0.0
 10
-265.3139611737938
 20
-146.2700884455791
 30
0.0
 10
-264.9299225401612
 20
-146.8417503037558
 30
0.0
 10
-264.4101778499394
 20
-147.4171667082696
 30
0.0
 10
-263.7677621965038
 20
-147.9324291184057
 30
0.0
 10
-263.0662681421329
 20
-148.3012039891626
 30
0.0
 10
-262.4566841256108
 20
-148.5161041910703
 30
0.0
 10
-262.0423209896528
 20
-148.6176375936266
 30
0.0
 10
-261.7085030375729
 20
-148.6739446437944
 30
0.0
 10
-261.4958047816706
 20
-148.6989631833691
 30
0.0
 10
-261.3269810824704
 20
-148.7123157327203
 30
0.0
 10
-261.2017556720241
 20
-148.719623170895
 30
0.0
 10
-261.0788536712917
 20
-148.7221237841716
 30
0.0
 10
-260.9957002676547
 20
-148.7262535595628
 30
0.0
 10
-260.9562728842838
 20
-148.7238102677737
 30
0.0
  0
SPLINE
  5
160D2
330
18
100
AcDbEntity
  8
01
  6
Continuous
370
    30
100
AcDbSpline
210
0.0
220
0.0
230
1.0
 70
     8
 71
     3
 72
    17
 73
    13
 74
     0
 42
0.0000000001
 43
0.0000000001
 40
0.0
 40
0.0
 40
0.0
 40
0.0
 40
0.6137965132522431
 40
1.791279201829329
 40
2.855996479664577
 40
3.752890470003735
 40
4.351102204673608
 40
5.28748369575876
 40
5.969456872588416
 40
6.743035860410015
 40
7.373972540013812
 40
8.078365929230271
 40
8.078365929230271
 40
8.078365929230271
 40
8.078365929230271
 10
-120.9573986519385
 20
-143.7237215526561
 30
0.0
 10
-120.9574099807923
 20
-143.9256569535778
 30
0.0
 10
-120.9900376171238
 20
-144.5149884276772
 30
0.0
 10
-121.1981176431511
 20
-145.4346974829382
 30
0.0
 10
-121.6425998485213
 20
-146.3689999359719
 30
0.0
 10
-122.1450049704169
 20
-147.0405576719411
 30
0.0
 10
-122.7124112341721
 20
-147.5987048906086
 30
0.0
 10
-123.3028985158555
 20
-148.0209302099337
 30
0.0
 10
-123.9989416263429
 20
-148.364467245859
 30
0.0
 10
-124.6412885317868
 20
-148.5744322087987
 30
0.0
 10
-125.3075012202032
 20
-148.697951313221
 30
0.0
 10
-125.7342548103479
 20
-148.7237016480623
 30
0.0
 10
-125.9576390304657
 20
-148.7237412170865
 30
0.0
  0
SPLINE
  5
160D3
330
18
100
AcDbEntity
  8
01
  6
Continuous
370
    30
100
AcDbSpline
210
0.0
220
0.0
230
1.0
 70
     8
 71
     3
 72
    10
 73
     6
 74
     0
 42
0.0000000001
 43
0.0000000001
 40
0.0
 40
0.0
 40
0.0
 40
0.0
 40
0.4997905676693891
 40
0.4997905676693891
 40
1.0
 40
1.0
 40
1.0
 40
1.0
 10
-123.9573807511217
 20
-102.8136691377042
 30
0.0
 10
-123.1620184792286
 20
-102.8136691377042
 30
0.0
 10
-122.3983510557677
 20
-102.6391938042027
 30
0.0
 10
-121.2734812709448
 20
-102.0242943497251
 30
0.0
 10
-120.9573807511217
 20
-101.610424071489
 30
0.0
 10
-120.9573807511217
 20
-101.1831218083429
 30
0.0
  0
LINE
  5
160D4
330
18
100
AcDbEntity
  8
01
  6
Continuous
370
    30
100
AcDbLine
 10
-262.9573807511217
 20
-102.813669137696
 30
0.0
 11
-123.9573807511217
 21
-102.8136691377042
 31
0.0
  0
SPLINE
  5
160D5
330
18
100
AcDbEntity
  8
01
  6
Continuous
370
    30
100
AcDbSpline
210
0.0
220
0.0
230
1.0
 70
     8
 71
     3
 72
    10
 73
     6
 74
     0
 42
0.0000000001
 43
0.0000000001
 40
0.0
 40
0.0
 40
0.0
 40
0.0
 40
0.500209432288608
 40
0.500209432288608
 40
1.0
 40
1.0
 40
1.0
 40
1.0
 10
-265.9573807511217
 20
-101.1831218083422
 30
0.0
 10
-265.9573807511943
 20
-101.6104240714758
 30
0.0
 10
-265.6412802312591
 20
-102.0242943497486
 30
0.0
 10
-264.5164104464366
 20
-102.6391938042278
 30
0.0
 10
-263.7527430230659
 20
-102.8136691376817
 30
0.0
 10
-262.9573807511217
 20
-102.813669137696
 30
0.0
  0
LINE
  5
160D7
330
18
100
AcDbEntity
  8
01
  6
Continuous
370
    30
100
AcDbLine
 10
-120.9573807511217
 20
-100.3479800520549
 30
0.0
 11
-120.9573807511217
 21
-101.1831218083429
 31
0.0
  0
SPLINE
  5
160D8
330
18
100
AcDbEntity
  8
01
  6
Continuous
370
    30
100
AcDbSpline
210
0.0
220
0.0
230
1.0
 70
     8
 71
     3
 72
    14
 73
    10
 74
     0
 42
0.0000000001
 43
0.0000000001
 40
0.0
 40
0.0
 40
0.0
 40
0.0
 40
0.24991650877223
 40
0.24991650877223
 40
0.499894913813224
 40
0.499894913813224
 40
0.7499311831886101
 40
0.7499311831886101
 40
1.0
 40
1.0
 40
1.0
 40
1.0
 10
-123.9573807511217
 20
-101.9786317802174
 30
0.0
 10
-123.5647148722316
 20
-101.9786317802174
 30
0.0
 10
-123.1722037442198
 20
-101.9355135238266
 30
0.0
 10
-122.4465513914338
 20
-101.7704278019577
 30
0.0
 10
-122.1137281983417
 20
-101.6485300491986
 30
0.0
 10
-121.5582486234486
 20
-101.3452796856293
 30
0.0
 10
-121.3358957637176
 20
-101.1640780987089
 30
0.0
 10
-121.0353645677178
 20
-100.7706829536387
 30
0.0
 10
-120.9573807511217
 20
-100.5587007820102
 30
0.0
 10
-120.9573807511217
 20
-100.3479800520549
 30
0.0
  0
SPLINE
  5
160D9
330
18
100
AcDbEntity
  8
01
  6
Continuous
370
    30
100
AcDbSpline
210
0.0
220
0.0
230
1.0
 70
     8
 71
     3
 72
    10
 73
     6
 74
     0
 42
0.0000000001
 43
0.0000000001
 40
0.0
 40
0.0
 40
0.0
 40
0.0
 40
0.499775101397484
 40
0.499775101397484
 40
1.0
 40
1.0
 40
1.0
 40
1.0
 10
-262.9573807511217
 20
-101.9786317802168
 30
0.0
 10
-263.7527831027526
 20
-101.9786317802169
 30
0.0
 10
-264.5164368842645
 20
-101.8041444249309
 30
0.0
 10
-265.6412876832135
 20
-101.1892323697143
 30
0.0
 10
-265.9573807511222
 20
-100.7753322145583
 30
0.0
 10
-265.9573807511217
 20
-100.3479800520544
 30
0.0
  0
LINE
  5
160DA
330
18
100
AcDbEntity
  8
01
  6
Continuous
370
    30
100
AcDbLine
 10
-123.9573807511217
 20
-101.9786317802174
 30
0.0
 11
-262.9573807511217
 21
-101.9786317802168
 31
0.0
  0
LINE
  5
160DB
330
18
100
AcDbEntity
  8
01
  6
Continuous
370
    30
100
AcDbLine
 10
-120.9573807511217
 20
-72.09486410689035
 30
0.0
 11
-120.9573807511217
 21
-100.3479800520549
 31
0.0
  0
LINE
  5
160DD
330
18
100
AcDbEntity
  8
01
  6
Continuous
370
    30
100
AcDbLine
 10
-265.9573807511217
 20
-100.3479800520544
 30
0.0
 11
-265.9573807511215
 21
-72.09486410688978
 31
0.0
  0
LINE
  5
160DF
330
18
100
AcDbEntity
  8
01
  6
Continuous
370
    30
100
AcDbLine
 10
-265.9573807511217
 20
-101.1831218083422
 30
0.0
 11
-265.9573807511217
 21
-100.3479800520544
 31
0.0
  0
LINE
  5
160E0
330
18
100
AcDbEntity
  8
01
  6
Continuous
370
    30
100
AcDbLine
 10
-262.9573807511215
 20
-70.53265975689331
 30
0.0
 11
-242.6937494500146
 21
-70.53265975689342
 31
0.0
  0
SPLINE
  5
160E1
330
18
100
AcDbEntity
  8
01
  6
Continuous
370
    30
100
AcDbSpline
210
0.0
220
0.0
230
1.0
 70
    12
 71
     2
 72
     6
 73
     3
 74
     0
 42
0.0000000001
 43
0.0000000001
 40
0.0
 40
0.0
 40
0.0
 40
4.71238898038467
 40
4.71238898038467
 40
4.71238898038467
 10
-265.9573807511215
 20
-70.872269398197
 30
0.0
 41
1.0
 10
-265.9573807511212
 20
-70.53265975689331
 30
0.0
 41
0.707106781186548
 10
-262.9573807511215
 20
-70.53265975689331
 30
0.0
 41
1.0
  0
LINE
  5
160E2
330
18
100
AcDbEntity
  8
01
  6
Continuous
370
    30
100
AcDbLine
 10
-265.9573807511215
 20
-72.09486410688978
 30
0.0
 11
-265.9573807511215
 21
-70.872269398197
 31
0.0
  0
LINE
  5
160E3
330
18
100
AcDbEntity
  8
01
  6
Continuous
370
    30
100
AcDbLine
 10
-120.9573807511217
 20
-70.87226939819768
 30
0.0
 11
-120.9573807511217
 21
-72.09486410689035
 31
0.0
  0
SPLINE
  5
160E4
330
18
100
AcDbEntity
  8
01
  6
Continuous
370
    30
100
AcDbSpline
210
0.0
220
0.0
230
1.0
 70
    12
 71
     2
 72
     6
 73
     3
 74
     0
 42
0.0000000001
 43
0.0000000001
 40
0.0
 40
0.0
 40
0.0
 40
4.71238898038467
 40
4.71238898038467
 40
4.71238898038467
 10
-123.9573807511217
 20
-70.53265975689399
 30
0.0
 41
1.0
 10
-120.9573807511217
 20
-70.53265975689399
 30
0.0
 41
0.707106781186548
 10
-120.9573807511217
 20
-70.87226939819768
 30
0.0
 41
1.0
  0
LINE
  5
160E5
330
18
100
AcDbEntity
  8
01
  6
Continuous
370
    30
100
AcDbLine
 10
-144.2210175012592
 20
-70.53265975689376
 30
0.0
 11
-123.9573807511217
 21
-70.53265975689399
 31
0.0
  0
SPLINE
  5
160E6
330
18
100
AcDbEntity
  8
01
  6
Continuous
370
    30
100
AcDbSpline
210
0.0
220
0.0
230
1.0
 70
     8
 71
     3
 72
     9
 73
     5
 74
     0
 42
0.0000000001
 43
0.0000000001
 40
0.0
 40
0.0
 40
0.0
 40
0.0
 40
0.6305376908696429
 40
1.26107546181878
 40
1.26107546181878
 40
1.26107546181878
 40
1.26107546181878
 10
-144.2002560999224
 20
-70.51002551266336
 30
0.0
 10
-144.2005079528333
 20
-70.53382275422396
 30
0.0
 10
-144.3380138578652
 20
-70.58131955151364
 30
0.0
 10
-144.6962933591664
 20
-70.61053710079048
 30
0.0
 10
-144.8965406676093
 20
-70.61776368496797
 30
0.0
  0
SPLINE
  5
160E7
330
18
100
AcDbEntity
  8
01
  6
Continuous
370
    30
100
AcDbSpline
210
0.0
220
0.0
230
1.0
 70
     8
 71
     3
 72
    15
 73
    11
 74
     0
 42
0.0000000001
 43
0.0000000001
 40
0.0
 40
0.0
 40
0.0
 40
0.0
 40
10.0677451380066
 40
20.1355307145108
 40
30.2032922413079
 40
40.2711191193128
 40
50.3388399652498
 40
60.4065006302228
 40
70.4743806437677
 40
80.5421498034228
 40
80.5421498034228
 40
80.5421498034228
 40
80.5421498034228
 10
-144.8965406676093
 20
-70.61776368496797
 30
0.0
 10
-148.0939322931265
 20
-70.73314506248474
 30
0.0
 10
-154.5532241905073
 20
-70.94099403436374
 30
0.0
 10
-164.3962493876054
 20
-71.18313904664072
 30
0.0
 10
-174.3543694096333
 20
-71.35468860188737
 30
0.0
 10
-184.3879778961943
 20
-71.45511035414577
 30
0.0
 10
-194.4574977535383
 20
-71.48384852889515
 30
0.0
 10
-204.5230662320435
 20
-71.44085993351158
 30
0.0
 10
-214.5448735197224
 20
-71.32631559056372
 30
0.0
 10
-221.1704545355744
 20
-71.20252983323442
 30
0.0
 10
-224.4627635206632
 20
-71.1289110855179
 30
0.0
  0
ARC
  5
160E8
330
18
100
AcDbEntity
  8
01
  6
Continuous
370
    30
100
AcDbCircle
 10
-195.92244766734
 20
1210.82193409023
 30
0.0
 40
1282.268505062736
100
AcDbArc
 50
267.9398524863855
 51
268.7246238323524
  0
SPLINE
  5
160E9
330
18
100
AcDbEntity
  8
01
  6
Continuous
370
    30
100
AcDbSpline
210
0.0
220
0.0
230
1.0
 70
     8
 71
     3
 72
     9
 73
     5
 74
     0
 42
0.0000000001
 43
0.0000000001
 40
0.0
 40
0.0
 40
0.0
 40
0.0
 40
0.6303143513033371
 40
1.260628705286799
 40
1.260628705286799
 40
1.260628705286799
 40
1.260628705286799
 10
-242.0182179895862
 20
-70.61776368497956
 30
0.0
 10
-242.2183980498353
 20
-70.61053996833553
 30
0.0
 10
-242.5765696260885
 20
-70.58133995891004
 30
0.0
 10
-242.7141788371014
 20
-70.53386681596546
 30
0.0
 10
-242.7145019684574
 20
-70.51006133667979
 30
0.0
  0
SPLINE
  5
160F4
330
18
100
AcDbEntity
  8
01
  6
Continuous
370
     0
100
AcDbSpline
210
0.0
220
0.0
230
1.0
 70
     8
 71
     3
 72
    26
 73
    22
 74
     0
 42
0.0000000001
 43
0.0000000001
 40
0.0
 40
0.0
 40
0.0
 40
0.0
 40
0.124930562348571
 40
0.124930562348571
 40
0.187439000415977
 40
0.187439000415977
 40
0.249947438483384
 40
0.249947438483384
 40
0.312504528972444
 40
0.312504528972444
 40
0.375061619461504
 40
0.375061619461504
 40
0.4999148478186691
 40
0.4999148478186691
 40
0.625044512731153
 40
0.625044512731153
 40
0.7499130500746231
 40
0.7499130500746231
 40
0.8749712931051638
 40
0.8749712931051638
 40
1.0
 40
1.0
 40
1.0
 40
1.0
 10
-144.8965406676093
 20
-68.49221255840475
 30
0.0
 10
-148.0303775855234
 20
-68.99030977633211
 30
0.0
 10
-151.2005891238373
 20
-69.4403562974999
 30
0.0
 10
-156.0057332056683
 20
-69.96381634254092
 30
0.0
 10
-157.6164282084044
 20
-70.11290617881039
 30
0.0
 10
-160.8517020653582
 20
-70.35000685617276
 30
0.0
 10
-162.4762714544893
 20
-70.43768549631344
 30
0.0
 10
-165.7369535136104
 20
-70.54587361486293
 30
0.0
 10
-167.3729918467054
 20
-70.56640525083324
 30
0.0
 10
-170.6513101153343
 20
-70.54055754512515
 30
0.0
 10
-172.2936214958242
 20
-70.4947740165451
 30
0.0
 10
-177.2180943404953
 20
-70.26992452671269
 30
0.0
 10
-180.5037331933774
 20
-70.00371983655568
 30
0.0
 10
-187.0804815050103
 20
-69.33771006886153
 30
0.0
 10
-190.3724835659813
 20
-68.93885348578945
 30
0.0
 10
-196.9471854821952
 20
-68.11573921457719
 30
0.0
 10
-200.2302724539922
 20
-67.69036764111277
 30
0.0
 10
-206.7993178006293
 20
-66.90254101561279
 30
0.0
 10
-210.0848219381433
 20
-66.54005415899476
 30
0.0
 10
-216.6449286146724
 20
-65.96996175416226
 30
0.0
 10
-219.9196669854184
 20
-65.76212477088259
 30
0.0
 10
-223.1778992085024
 20
-65.69238156914039
 30
0.0
  0
ARC
  5
160F5
330
18
100
AcDbEntity
  8
01
  6
Continuous
370
     0
100
AcDbCircle
 10
-225.5286023952715
 20
-175.1408111640769
 30
0.0
 40
109.4736705617842
100
AcDbArc
 50
88.7696062161171
 51
89.44215779319529
  0
SPLINE
  5
160F8
330
18
100
AcDbEntity
  8
01
  6
Continuous
370
     0
100
AcDbSpline
210
0.0
220
0.0
230
1.0
 70
     8
 71
     3
 72
    10
 73
     6
 74
     0
 42
0.0000000001
 43
0.0000000001
 40
0.0
 40
0.0
 40
0.0
 40
0.0
 40
0.4998755047232171
 40
0.4998755047232171
 40
1.0
 40
1.0
 40
1.0
 40
1.0
 10
-242.0182179895862
 20
-67.74128139588928
 30
0.0
 10
-242.2433050713153
 20
-67.77284848652064
 30
0.0
 10
-242.4250667761715
 20
-67.8216262948404
 30
0.0
 10
-242.6575833992012
 20
-67.92712064072706
 30
0.0
 10
-242.7142025498144
 20
-67.98458440804612
 30
0.0
 10
-242.7145754167864
 20
-68.04066333760946
 30
0.0
  0
LINE
  5
160F9
330
18
100
AcDbEntity
  8
01
  6
Continuous
370
     0
100
AcDbLine
 10
-242.7145754167864
 20
-68.04066333760946
 30
0.0
 11
-242.7145019684574
 21
-70.51006133667979
 31
0.0
  0
LINE
  5
160FA
330
18
100
AcDbEntity
  8
01
  6
Continuous
370
     0
100
AcDbLine
 10
-144.2002560999224
 20
-70.51002551266336
 30
0.0
 11
-144.2001829386654
 21
-68.04001190265879
 31
0.0
  0
SPLINE
  5
160FB
330
18
100
AcDbEntity
  8
01
  6
Continuous
370
     0
100
AcDbSpline
210
0.0
220
0.0
230
1.0
 70
     8
 71
     3
 72
    10
 73
     6
 74
     0
 42
0.0000000001
 43
0.0000000001
 40
0.0
 40
0.0
 40
0.0
 40
0.0
 40
0.4998303951712
 40
0.4998303951712
 40
1.0
 40
1.0
 40
1.0
 40
1.0
 10
-144.2001829386654
 20
-68.04001190265879
 30
0.0
 10
-144.2004659069093
 20
-68.13900834293682
 30
0.0
 10
-144.2548258655592
 20
-68.23518524478064
 30
0.0
 10
-144.4836277896404
 20
-68.40116761526715
 30
0.0
 10
-144.6661000988224
 20
-68.47005713785112
 30
0.0
 10
-144.8965406676093
 20
-68.49221255840475
 30
0.0
  0
SPLINE
  5
160FC
330
18
100
AcDbEntity
  8
01
  6
Continuous
370
     0
100
AcDbSpline
210
0.0
220
0.0
230
1.0
 70
     8
 71
     3
 72
    14
 73
    10
 74
     0
 42
0.0000000001
 43
0.0000000001
 40
0.0
 40
0.0
 40
0.0
 40
0.0
 40
0.25003264720116
 40
0.25003264720116
 40
0.4999827329063211
 40
0.4999827329063211
 40
0.7499655654525482
 40
0.7499655654525482
 40
1.0
 40
1.0
 40
1.0
 40
1.0
 10
-224.4627635206632
 20
-65.67232924456075
 30
0.0
 10
-225.9615702287094
 20
-65.6578480442179
 30
0.0
 10
-227.4562575093473
 20
-65.67498763476945
 30
0.0
 10
-230.4316890335683
 20
-65.79129792601921
 30
0.0
 10
-231.9127414048223
 20
-65.8900172233281
 30
0.0
 10
-234.8532410440903
 20
-66.19392509852563
 30
0.0
 10
-236.3129411001874
 20
-66.39911934076181
 30
0.0
 10
-239.1981630713162
 20
-66.94989683299971
 30
0.0
 10
-240.6230843985424
 20
-67.2960010950068
 30
0.0
 10
-242.0182179895862
 20
-67.74128139588928
 30
0.0
  0
LINE
  5
16105
330
18
100
AcDbEntity
  8
01
  6
Continuous
370
    30
100
AcDbLine
 10
-144.200255359241
 20
-70.53265975689376
 30
0.0
 11
-144.2002560999224
 21
-70.51002551266336
 31
0.0
  0
LINE
  5
16106
330
18
100
AcDbEntity
  8
01
  6
Continuous
370
    30
100
AcDbLine
 10
-242.7145019684574
 20
-70.51006133667979
 30
0.0
 11
-242.7145027108793
 21
-70.53265975689342
 31
0.0
  0
ARC
  5
16107
330
18
100
AcDbEntity
  8
01
  6
Continuous
370
    30
100
AcDbCircle
 10
-165.8284250865783
 20
-158.0839887126305
 30
0.0
 40
94.15129871240287
100
AcDbArc
 50
87.9931407625048
 51
88.7770348045456
  0
SPLINE
  5
16108
330
18
100
AcDbEntity
  8
01
  6
Continuous
370
    30
100
AcDbSpline
210
0.0
220
0.0
230
1.0
 70
     8
 71
     3
 72
    15
 73
    11
 74
     0
 42
0.0000000001
 43
0.0000000001
 40
0.0
 40
0.0
 40
0.0
 40
0.0
 40
0.2221175776131168
 40
0.3956046748350327
 40
0.5704472517105589
 40
0.8194371917291434
 40
1.012187261557885
 40
1.139810529600786
 40
1.20278985053168
 40
1.271840204795074
 40
1.271840204795074
 40
1.271840204795074
 40
1.271840204795074
 10
-242.7145001933109
 20
-68.03909094767838
 30
0.0
 10
-242.7142776853013
 20
-67.97329045932068
 30
0.0
 10
-242.6978041815876
 20
-67.85550281987949
 30
0.0
 10
-242.6369118531561
 20
-67.69809034542348
 30
0.0
 10
-242.5421781787816
 20
-67.54718895093609
 30
0.0
 10
-242.4116796969508
 20
-67.41544954540884
 30
0.0
 10
-242.2665411046899
 20
-67.3174954204699
 30
0.0
 10
-242.1579163826375
 20
-67.26357482245512
 30
0.0
 10
-242.0811307597367
 20
-67.23221225906176
 30
0.0
 10
-242.0401426741175
 20
-67.21813376902744
 30
0.0
 10
-242.0193060247118
 20
-67.21131385645029
 30
0.0
  0
ARC
  5
16109
330
18
100
AcDbEntity
  8
01
  6
Continuous
370
    30
100
AcDbCircle
 10
-166.0552320242168
 20
-172.2594537069866
 30
0.0
 40
108.3284019914007
100
AcDbArc
 50
88.81713348618657
 51
91.17882841905027
  0
SPLINE
  5
1610A
330
18
100
AcDbEntity
  8
01
  6
Continuous
370
    30
100
AcDbSpline
210
0.0
220
0.0
230
1.0
 70
     8
 71
     3
 72
    11
 73
     7
 74
     0
 42
0.0000000001
 43
0.0000000001
 40
0.0
 40
0.0
 40
0.0
 40
0.0
 40
4.134533838783569
 40
8.456507797774589
 40
13.38556956781184
 40
18.50159389573328
 40
18.50159389573328
 40
18.50159389573328
 40
18.50159389573328
 10
-144.8673837250883
 20
-67.11286241787004
 30
0.0
 10
-146.1107610885037
 20
-66.62559237603457
 30
0.0
 10
-148.715907727121
 20
-65.78727235580757
 30
0.0
 10
-152.9528694974749
 20
-64.8669083804738
 30
0.0
 10
-157.583464535908
 20
-64.25434004524928
 30
0.0
 10
-160.8583521131652
 20
-64.04907838330089
 30
0.0
 10
-162.5313097209207
 20
-63.99043909186823
 30
0.0
  0
SPLINE
  5
1610B
330
18
100
AcDbEntity
  8
01
  6
Continuous
370
    30
100
AcDbSpline
210
0.0
220
0.0
230
1.0
 70
     8
 71
     3
 72
    13
 73
     9
 74
     0
 42
0.0000000001
 43
0.0000000001
 40
0.0
 40
0.0
 40
0.0
 40
0.0
 40
0.2400142536117013
 40
0.4217868346120805
 40
0.5487994396878832
 40
0.7453852204457823
 40
1.019488385940096
 40
1.290722769847086
 40
1.290722769847086
 40
1.290722769847086
 40
1.290722769847086
 10
-144.2001106505756
 20
-68.03976571299907
 30
0.0
 10
-144.2002670145787
 20
-67.96712295586397
 30
0.0
 10
-144.216030973658
 20
-67.83834687114475
 30
0.0
 10
-144.2694558098262
 20
-67.67969522970705
 30
0.0
 10
-144.340360822647
 20
-67.54060691543682
 30
0.0
 10
-144.4498459266131
 20
-67.38886624379623
 30
0.0
 10
-144.6255124881816
 20
-67.2304498178228
 30
0.0
 10
-144.7842589237791
 20
-67.14527877405171
 30
0.0
 10
-144.8674325473403
 20
-67.11284438981173
 30
0.0
  0
SPLINE
  5
1610C
330
18
100
AcDbEntity
  8
01
  6
Continuous
370
    30
100
AcDbSpline
210
0.0
220
0.0
230
1.0
 70
     8
 71
     3
 72
    11
 73
     7
 74
     0
 42
0.0000000001
 43
0.0000000001
 40
0.0
 40
0.0
 40
0.0
 40
0.0
 40
4.065458178308633
 40
7.785190892233167
 40
11.57905322986947
 40
15.56842475835157
 40
15.56842475835157
 40
15.56842475835157
 40
15.56842475835157
 10
-227.1284295702521
 20
-65.12858752836454
 30
0.0
 10
-228.5472137465149
 20
-65.1570045041797
 30
0.0
 10
-231.0726588094119
 20
-65.26360200659681
 30
0.0
 10
-234.788464815721
 20
-65.62302446001322
 30
0.0
 10
-238.4220678049437
 20
-66.21592632551474
 30
0.0
 10
-240.8187921908929
 20
-66.82716401861799
 30
0.0
 10
-242.0189876526963
 20
-67.21121082412506
 30
0.0
  0
LINE
  5
1610D
330
18
100
AcDbEntity
  8
01
  6
Continuous
370
    30
100
AcDbLine
 10
-168.2965636040742
 20
-63.95425754245982
 30
0.0
 11
-227.1284295702521
 21
-65.12858752836454
 31
0.0
  0
CIRCLE
  5
1610E
330
18
100
AcDbEntity
  8
01
  6
Continuous
370
    30
100
AcDbCircle
 10
-180.4573807511212
 20
-119.8303056776071
 30
0.0
 40
4.500000000003501
  0
CIRCLE
  5
1610F
330
18
100
AcDbEntity
  8
01
  6
Continuous
370
    30
100
AcDbCircle
 10
-206.4573807511213
 20
-119.8303056776071
 30
0.0
 40
4.500000000003501
  0
CIRCLE
  5
16110
330
18
100
AcDbEntity
  8
01
  6
Continuous
370
    30
100
AcDbCircle
 10
-180.4573807511217
 20
-119.8303056776225
 30
0.0
 40
2.25
  0
CIRCLE
  5
16111
330
18
100
AcDbEntity
  8
01
  6
Continuous
370
    30
100
AcDbCircle
 10
-206.4573807511217
 20
-119.8303056776225
 30
0.0
 40
2.25
  0
LINE
  5
16113
330
18
100
AcDbEntity
  8
01
  6
Continuous
370
    30
100
AcDbLine
 10
-173.4573807511222
 20
-135.830305677628
 30
0.0
 11
-173.4573807511217
 21
-109.7237337878518
 31
0.0
  0
LINE
  5
16116
330
18
100
AcDbEntity
  8
01
  6
Continuous
370
    30
100
AcDbLine
 10
-213.4573807511217
 20
-109.7237337878518
 30
0.0
 11
-213.4573807511222
 21
-135.830305677628
 31
0.0
  0
ELLIPSE
  5
16118
330
18
100
AcDbEntity
  8
01
  6
Continuous
370
     0
100
AcDbEllipse
 10
-175.4573807511222
 20
-135.830305677628
 30
0.0
 11
-2.000000000000001
 21
0.0000000000000434
 31
0.0
210
0.0
220
0.0
230
1.0
 40
0.4999999999996768
 41
2.036672981583613
 42
3.141592653589836
  0
ELLIPSE
  5
16119
330
18
100
AcDbEntity
  8
01
  6
Continuous
370
     0
100
AcDbEllipse
 10
-211.4573807511222
 20
-135.830305677628
 30
0.0
 11
-1.999999999999997
 21
0.0000000000000434
 31
0.0
210
0.0
220
0.0
230
1.0
 40
0.4999999999996773
 41
0.0000000000000435
 42
1.104919672006271
  0
LINE
  5
1626F
330
18
100
AcDbEntity
  8
01
100
AcDbLine
 10
-212.0387077943749
 20
-119.8303056776071
 30
0.0
 11
-201.0892999907921
 21
-119.8303056776071
 31
0.0
  0
LINE
  5
16270
330
18
100
AcDbEntity
  8
01
100
AcDbLine
 10
-206.4573807511213
 20
-126.4922826867255
 30
0.0
 11
-206.4573807511213
 21
-112.8161567343473
 31
0.0
  0
LINE
  5
16271
330
18
100
AcDbEntity
  8
01
100
AcDbLine
 10
-180.4573807511217
 20
-126.4922826867255
 30
0.0
 11
-180.4573807511217
 21
-112.3798132104675
 31
0.0
  0
LINE
  5
16377
330
18
100
AcDbEntity
  8
01
370
    15
100
AcDbLine
 10
43.39849860784056
 20
-117.5803557036974
 30
0.0
 11
43.39849860784056
 21
-122.0803557036974
 31
0.0
  0
LINE
  5
16378
330
18
100
AcDbEntity
  8
01
370
    15
100
AcDbLine
 10
43.39849860784056
 20
-117.5803557036974
 30
0.0
 11
43.39849860784056
 21
-122.0803557036974
 31
0.0
  0
LINE
  5
16379
330
18
100
AcDbEntity
  8
01
370
    15
100
AcDbLine
 10
43.39849860784056
 20
-118.1532546944831
 30
0.0
 11
43.39849860784056
 21
-121.5073566607329
 31
0.0
  0
LINE
  5
1637A
330
18
100
AcDbEntity
  8
01
370
    15
100
AcDbLine
 10
43.39849860784056
 20
-117.580305677607
 30
0.0
 11
43.39849860784056
 21
-122.0803056776071
 31
0.0
  0
LINE
  5
1637B
330
18
100
AcDbEntity
  8
01
370
    15
100
AcDbLine
 10
43.39849860784056
 20
-117.5803557036974
 30
0.0
 11
43.39849860784056
 21
-118.3303557036974
 31
0.0
  0
LINE
  5
1637C
330
18
100
AcDbEntity
  8
01
370
    15
100
AcDbLine
 10
43.39849860784056
 20
-119.3303498872041
 30
0.0
 11
43.39849860784056
 21
-122.0803557036974
 31
0.0
  0
LINE
  5
1637D
330
18
100
AcDbEntity
  8
01
100
AcDbLine
 10
77.39849860778645
 20
-119.8303557036974
 30
0.0
 11
72.09850209792489
 21
-118.3303557036974
 31
0.0
  0
LINE
  5
1637E
330
18
100
AcDbEntity
  8
01
100
AcDbLine
 10
72.09850209792489
 20
-118.3303557036974
 30
0.0
 11
43.39849860784056
 21
-118.3303557036974
 31
0.0
  0
LINE
  5
1637F
330
18
100
AcDbEntity
  8
01
100
AcDbLine
 10
43.39849860784056
 20
-118.3303557036974
 30
0.0
 11
42.39850209803307
 21
-118.3303557036974
 31
0.0
  0
LINE
  5
16380
330
18
100
AcDbEntity
  8
01
100
AcDbLine
 10
77.39849860778645
 20
-119.8303557036974
 30
0.0
 11
72.09849511754123
 21
-121.3303557036974
 31
0.0
  0
LINE
  5
16381
330
18
100
AcDbEntity
  8
01
100
AcDbLine
 10
42.39850675173125
 20
-116.3303091677984
 30
0.0
 11
42.39850209803307
 21
-118.3303557036974
 31
0.0
  0
LINE
  5
16382
330
18
100
AcDbEntity
  8
01
100
AcDbLine
 10
72.09849511754123
 20
-121.3303557036974
 30
0.0
 11
43.39849860784056
 21
-121.3303557036974
 31
0.0
  0
LINE
  5
16383
330
18
100
AcDbEntity
  8
01
100
AcDbLine
 10
43.39849860784056
 20
-121.3303557036955
 30
0.0
 11
42.39849511764828
 21
-121.3303557036974
 31
0.0
  0
LINE
  5
16384
330
18
100
AcDbEntity
  8
01
100
AcDbLine
 10
42.39850675173125
 20
-116.3303091677984
 30
0.0
 11
41.29850326153587
 21
-116.3303091677984
 31
0.0
  0
LINE
  5
16385
330
18
100
AcDbEntity
  8
01
100
AcDbLine
 10
42.39849511764828
 20
-121.3303557036974
 30
0.0
 11
42.39849046416679
 21
-123.3303091677984
 31
0.0
  0
ARC
  5
16386
330
18
100
AcDbEntity
  8
01
100
AcDbCircle
 10
41.29850326153587
 20
-117.8303091677984
 30
0.0
 40
1.5
100
AcDbArc
 50
90.0
 51
179.9998666844748
  0
LINE
  5
16387
330
18
100
AcDbEntity
  8
01
100
AcDbLine
 10
42.39849046416679
 20
-123.3303091677984
 30
0.0
 11
41.29849395435622
 21
-123.3303091677984
 31
0.0
  0
LINE
  5
16388
330
18
100
AcDbEntity
  8
01
100
AcDbLine
 10
39.79850326153997
 20
-117.8303056776071
 30
0.0
 11
39.79849395436031
 21
-121.830305677607
 31
0.0
  0
ARC
  5
16389
330
18
100
AcDbEntity
  8
01
100
AcDbCircle
 10
41.29849395435622
 20
-121.8303091677984
 30
0.0
 40
1.5
100
AcDbArc
 50
179.9998666844748
 51
270.0
  0
LINE
  5
1638A
330
18
100
AcDbEntity
  8
01
100
AcDbLine
 10
75.29850115410886
 20
-118.7359853538031
 30
0.0
 11
76.0984965881596
 21
-120.6983204426791
 31
0.0
  0
LINE
  5
1638B
330
18
100
AcDbEntity
  8
01
100
AcDbLine
 10
76.0984965881596
 20
-120.6983204426791
 30
0.0
 11
76.41026644441194
 21
-120.1100438676361
 31
0.0
  0
LINE
  5
1638C
330
18
100
AcDbEntity
  8
01
100
AcDbLine
 10
47.89850326131886
 20
-117.8303557036974
 30
0.0
 11
48.69849395413689
 21
-121.8303557036974
 31
0.0
  0
LINE
  5
1638D
330
18
100
AcDbEntity
  8
01
100
AcDbLine
 10
59.09850326132323
 20
-117.8303557036974
 30
0.0
 11
59.8984939541458
 21
-121.8303557036974
 31
0.0
  0
LINE
  5
1638E
330
18
100
AcDbEntity
  8
01
100
AcDbLine
 10
67.29850326132305
 20
-117.8303557036974
 30
0.0
 11
68.09849395414563
 21
-121.8303557036974
 31
0.0
  0
LINE
  5
1638F
330
18
100
AcDbEntity
  8
01
100
AcDbLine
 10
68.09849395414563
 20
-121.8303557036974
 30
0.0
 11
68.19849511754296
 21
-121.3303557036974
 31
0.0
  0
LINE
  5
16390
330
18
100
AcDbEntity
  8
01
100
AcDbLine
 10
68.79850209792607
 20
-118.3303557036974
 30
0.0
 11
68.89850326132318
 21
-117.8303557036974
 31
0.0
  0
LINE
  5
16391
330
18
100
AcDbEntity
  8
01
100
AcDbLine
 10
59.8984939541458
 20
-121.8303557036974
 30
0.0
 11
59.99849511754291
 21
-121.3303557036974
 31
0.0
  0
LINE
  5
16392
330
18
100
AcDbEntity
  8
01
100
AcDbLine
 10
66.49849395414571
 20
-121.8303557036974
 30
0.0
 11
66.59849511754305
 21
-121.3303557036974
 31
0.0
  0
LINE
  5
16393
330
18
100
AcDbEntity
  8
01
100
AcDbLine
 10
67.19850209792617
 20
-118.3303557036974
 30
0.0
 11
67.29850326132305
 21
-117.8303557036974
 31
0.0
  0
LINE
  5
16394
330
18
100
AcDbEntity
  8
01
100
AcDbLine
 10
65.59850209792625
 20
-118.3303557036974
 30
0.0
 11
65.69850326132314
 21
-117.8303557036974
 31
0.0
  0
LINE
  5
16395
330
18
100
AcDbEntity
  8
01
100
AcDbLine
 10
65.69850326132314
 20
-117.8303557036974
 30
0.0
 11
66.49849395414571
 21
-121.8303557036974
 31
0.0
  0
LINE
  5
16396
330
18
100
AcDbEntity
  8
01
100
AcDbLine
 10
74.49849553455419
 20
-121.1511345470857
 30
0.0
 11
74.68125967718219
 21
-120.5993850832832
 31
0.0
  0
LINE
  5
16397
330
18
100
AcDbEntity
  8
01
100
AcDbLine
 10
71.2984939541459
 20
-121.8303557036974
 30
0.0
 11
71.39849511754277
 21
-121.3303557036974
 31
0.0
  0
LINE
  5
16398
330
18
100
AcDbEntity
  8
01
100
AcDbLine
 10
69.69849395414576
 20
-121.8303557036974
 30
0.0
 11
69.79849511754287
 21
-121.3303557036974
 31
0.0
  0
LINE
  5
16399
330
18
100
AcDbEntity
  8
01
100
AcDbLine
 10
72.89849448094833
 20
-121.6039486514923
 30
0.0
 11
73.02776517857842
 21
-121.0673549162233
 31
0.0
  0
LINE
  5
1639A
330
18
100
AcDbEntity
  8
01
100
AcDbLine
 10
73.58573269536305
 20
-118.7512703009064
 30
0.0
 11
73.69850220771309
 21
-118.2831718457559
 31
0.0
  0
LINE
  5
1639B
330
18
100
AcDbEntity
  8
01
100
AcDbLine
 10
70.39850209792598
 20
-118.3303557036974
 30
0.0
 11
70.49850326132332
 21
-117.8303557036974
 31
0.0
  0
LINE
  5
1639C
330
18
100
AcDbEntity
  8
01
100
AcDbLine
 10
71.9985020979259
 20
-118.3303557036974
 30
0.0
 11
72.09850326132323
 21
-117.8303557036974
 31
0.0
  0
LINE
  5
1639D
330
18
100
AcDbEntity
  8
01
100
AcDbLine
 10
75.14706535766823
 20
-119.1931571944364
 30
0.0
 11
75.29850115410886
 21
-118.7359853538031
 31
0.0
  0
LINE
  5
1639E
330
18
100
AcDbEntity
  8
01
100
AcDbLine
 10
73.69850220771309
 20
-118.2831718457559
 30
0.0
 11
74.49849553455419
 21
-121.1511345470857
 31
0.0
  0
LINE
  5
1639F
330
18
100
AcDbEntity
  8
01
100
AcDbLine
 10
70.49850326132332
 20
-117.8303557036974
 30
0.0
 11
71.2984939541459
 21
-121.8303557036974
 31
0.0
  0
LINE
  5
163A0
330
18
100
AcDbEntity
  8
01
100
AcDbLine
 10
72.09850326132323
 20
-117.8303557036974
 30
0.0
 11
72.89849448094833
 21
-121.6039486514923
 31
0.0
  0
LINE
  5
163A1
330
18
100
AcDbEntity
  8
01
100
AcDbLine
 10
68.89850326132318
 20
-117.8303557036974
 30
0.0
 11
69.69849395414576
 21
-121.8303557036974
 31
0.0
  0
LINE
  5
163A2
330
18
100
AcDbEntity
  8
01
100
AcDbLine
 10
51.09850326131868
 20
-117.8303557036974
 30
0.0
 11
51.89849395413716
 21
-121.8303557036974
 31
0.0
  0
LINE
  5
163A3
330
18
100
AcDbEntity
  8
01
100
AcDbLine
 10
51.89849395413716
 20
-121.8303557036974
 30
0.0
 11
51.99849511753473
 21
-121.3303557036974
 31
0.0
  0
LINE
  5
163A4
330
18
100
AcDbEntity
  8
01
100
AcDbLine
 10
52.59850209792535
 20
-118.3303557036974
 30
0.0
 11
52.69850326132313
 21
-117.8303557036974
 31
0.0
  0
LINE
  5
163A5
330
18
100
AcDbEntity
  8
01
100
AcDbLine
 10
50.2984939541368
 20
-121.8303557036974
 30
0.0
 11
50.39849511753459
 21
-121.3303557036974
 31
0.0
  0
LINE
  5
163A6
330
18
100
AcDbEntity
  8
01
100
AcDbLine
 10
48.69849395413689
 20
-121.8303557036974
 30
0.0
 11
48.79849511753469
 21
-121.3303557036974
 31
0.0
  0
LINE
  5
163A7
330
18
100
AcDbEntity
  8
01
100
AcDbLine
 10
50.99850209792112
 20
-118.3303557036974
 30
0.0
 11
51.09850326131868
 21
-117.8303557036974
 31
0.0
  0
LINE
  5
163A8
330
18
100
AcDbEntity
  8
01
100
AcDbLine
 10
49.39850209792098
 20
-118.3303557036974
 30
0.0
 11
49.49850326131877
 21
-117.8303557036974
 31
0.0
  0
LINE
  5
163A9
330
18
100
AcDbEntity
  8
01
100
AcDbLine
 10
49.49850326131877
 20
-117.8303557036974
 30
0.0
 11
50.2984939541368
 21
-121.8303557036974
 31
0.0
  0
LINE
  5
163AA
330
18
100
AcDbEntity
  8
01
100
AcDbLine
 10
56.69849395414144
 20
-121.8303557036974
 30
0.0
 11
56.79849511753923
 21
-121.3303557036974
 31
0.0
  0
LINE
  5
163AB
330
18
100
AcDbEntity
  8
01
100
AcDbLine
 10
58.2984939541459
 20
-121.8303557036974
 30
0.0
 11
58.39849511754278
 21
-121.3303557036974
 31
0.0
  0
LINE
  5
163AC
330
18
100
AcDbEntity
  8
01
100
AcDbLine
 10
53.49849395414139
 20
-121.8303557036974
 30
0.0
 11
53.59849511753896
 21
-121.3303557036974
 31
0.0
  0
LINE
  5
163AD
330
18
100
AcDbEntity
  8
01
100
AcDbLine
 10
55.0984939541413
 20
-121.8303557036974
 30
0.0
 11
55.19849511753887
 21
-121.3303557036974
 31
0.0
  0
LINE
  5
163AE
330
18
100
AcDbEntity
  8
01
100
AcDbLine
 10
58.99850209792589
 20
-118.3303557036974
 30
0.0
 11
59.09850326132323
 21
-117.8303557036974
 31
0.0
  0
LINE
  5
163AF
330
18
100
AcDbEntity
  8
01
100
AcDbLine
 10
57.39850209792553
 20
-118.3303557036974
 30
0.0
 11
57.49850326132332
 21
-117.8303557036974
 31
0.0
  0
LINE
  5
163B0
330
18
100
AcDbEntity
  8
01
100
AcDbLine
 10
54.19850209792525
 20
-118.3303557036974
 30
0.0
 11
54.29850326132305
 21
-117.8303557036974
 31
0.0
  0
LINE
  5
163B1
330
18
100
AcDbEntity
  8
01
100
AcDbLine
 10
55.79850209792562
 20
-118.3303557036974
 30
0.0
 11
55.89850326132318
 21
-117.8303557036974
 31
0.0
  0
LINE
  5
163B2
330
18
100
AcDbEntity
  8
01
100
AcDbLine
 10
55.89850326132318
 20
-117.8303557036974
 30
0.0
 11
56.69849395414144
 21
-121.8303557036974
 31
0.0
  0
LINE
  5
163B3
330
18
100
AcDbEntity
  8
01
100
AcDbLine
 10
57.49850326132332
 20
-117.8303557036974
 30
0.0
 11
58.2984939541459
 21
-121.8303557036974
 31
0.0
  0
LINE
  5
163B4
330
18
100
AcDbEntity
  8
01
100
AcDbLine
 10
54.29850326132305
 20
-117.8303557036974
 30
0.0
 11
55.0984939541413
 21
-121.8303557036974
 31
0.0
  0
LINE
  5
163B5
330
18
100
AcDbEntity
  8
01
100
AcDbLine
 10
52.69850326132313
 20
-117.8303557036974
 30
0.0
 11
53.49849395414139
 21
-121.8303557036974
 31
0.0
  0
LINE
  5
163B6
330
18
100
AcDbEntity
  8
01
100
AcDbLine
 10
42.39849511764828
 20
-121.3303557036974
 30
0.0
 11
42.39850209803307
 21
-118.3303557036974
 31
0.0
  0
LINE
  5
163B7
330
18
100
AcDbEntity
  8
01
100
AcDbLine
 10
47.79850209792107
 20
-118.3303557036974
 30
0.0
 11
47.89850326131886
 21
-117.8303557036974
 31
0.0
  0
LINE
  5
163B8
330
18
100
AcDbEntity
  8
01
100
AcDbLine
 10
60.69850326132314
 20
-117.8303557036974
 30
0.0
 11
61.49849395414571
 21
-121.8303557036974
 31
0.0
  0
LINE
  5
163B9
330
18
100
AcDbEntity
  8
01
100
AcDbLine
 10
61.49849395414571
 20
-121.8303557036974
 30
0.0
 11
61.59849511754282
 21
-121.3303557036974
 31
0.0
  0
LINE
  5
163BA
330
18
100
AcDbEntity
  8
01
100
AcDbLine
 10
60.5985020979258
 20
-118.3303557036974
 30
0.0
 11
60.69850326132314
 21
-117.8303557036974
 31
0.0
  0
LINE
  5
163BB
330
18
100
AcDbEntity
  8
01
100
AcDbLine
 10
62.29850326132305
 20
-117.8303557036974
 30
0.0
 11
63.09849395414563
 21
-121.8303557036974
 31
0.0
  0
LINE
  5
163BC
330
18
100
AcDbEntity
  8
01
100
AcDbLine
 10
63.09849395414563
 20
-121.8303557036974
 30
0.0
 11
63.19849511754274
 21
-121.3303557036974
 31
0.0
  0
LINE
  5
163BD
330
18
100
AcDbEntity
  8
01
100
AcDbLine
 10
62.19850209792571
 20
-118.3303557036974
 30
0.0
 11
62.29850326132305
 21
-117.8303557036974
 31
0.0
  0
LINE
  5
163BE
330
18
100
AcDbEntity
  8
01
100
AcDbLine
 10
63.89850326132296
 20
-117.8303557036974
 30
0.0
 11
64.69849395414553
 21
-121.8303557036974
 31
0.0
  0
LINE
  5
163BF
330
18
100
AcDbEntity
  8
01
100
AcDbLine
 10
64.69849395414553
 20
-121.8303557036974
 30
0.0
 11
64.79849511754264
 21
-121.3303557036974
 31
0.0
  0
LINE
  5
163C0
330
18
100
AcDbEntity
  8
01
100
AcDbLine
 10
63.79850209792562
 20
-118.3303557036974
 30
0.0
 11
63.89850326132296
 21
-117.8303557036974
 31
0.0
  0
LINE
  5
163C1
330
18
100
AcDbEntity
  8
01
100
AcDbLine
 10
42.39849860784056
 20
-116.0303557036963
 30
0.0
 11
42.39849860784056
 21
-123.6303557036985
 31
0.0
  0
LINE
  5
163C2
330
18
100
AcDbEntity
  8
01
100
AcDbLine
 10
42.39849860784056
 20
-123.6303557036985
 30
0.0
 11
43.39849860784056
 21
-123.6303557036985
 31
0.0
  0
LINE
  5
163C3
330
18
100
AcDbEntity
  8
01
100
AcDbLine
 10
43.39849860784056
 20
-116.0303557036963
 30
0.0
 11
42.39849860784056
 21
-116.0303557036963
 31
0.0
  0
LINE
  5
163C4
330
18
100
AcDbEntity
  8
01
100
AcDbLine
 10
46.29850326131895
 20
-117.8303557036974
 30
0.0
 11
47.09849395413698
 21
-121.8303557036974
 31
0.0
  0
LINE
  5
163C5
330
18
100
AcDbEntity
  8
01
100
AcDbLine
 10
47.09849395413698
 20
-121.8303557036974
 30
0.0
 11
47.19849511753477
 21
-121.3303557036974
 31
0.0
  0
LINE
  5
163C6
330
18
100
AcDbEntity
  8
01
100
AcDbLine
 10
46.19850209792116
 20
-118.3303557036974
 30
0.0
 11
46.29850326131895
 21
-117.8303557036974
 31
0.0
  0
LINE
  5
163C7
330
18
100
AcDbEntity
  8
01
100
AcDbLine
 10
44.69850326131904
 20
-117.8303557036974
 30
0.0
 11
45.49849395413708
 21
-121.8303557036974
 31
0.0
  0
LINE
  5
163C8
330
18
100
AcDbEntity
  8
01
100
AcDbLine
 10
45.49849395413708
 20
-121.8303557036974
 30
0.0
 11
45.59849511753486
 21
-121.3303557036974
 31
0.0
  0
LINE
  5
163C9
330
18
100
AcDbEntity
  8
01
100
AcDbLine
 10
44.59850209792125
 20
-118.3303557036974
 30
0.0
 11
44.69850326131904
 21
-117.8303557036974
 31
0.0
  0
LINE
  5
163CA
330
18
100
AcDbEntity
  8
01
100
AcDbLine
 10
43.09850326131914
 20
-117.8303557036974
 30
0.0
 11
43.89849395413716
 21
-121.8303557036974
 31
0.0
  0
LINE
  5
163CB
330
18
100
AcDbEntity
  8
01
100
AcDbLine
 10
43.89849395413716
 20
-121.8303557036974
 30
0.0
 11
43.99849511753496
 21
-121.3303557036974
 31
0.0
  0
LINE
  5
163CC
330
18
100
AcDbEntity
  8
01
100
AcDbLine
 10
42.99850209792134
 20
-118.3303557036974
 30
0.0
 11
43.09850326131914
 21
-117.8303557036974
 31
0.0
  0
LINE
  5
163CD
330
18
100
AcDbEntity
  8
01
100
AcDbLine
 10
38.85423673481023
 20
-119.8303056776071
 30
0.0
 11
77.85747555483635
 21
-119.8303056776071
 31
0.0
  0
LINE
  5
163CE
330
18
100
AcDbEntity
  8
01
100
AcDbLine
 10
43.39849860784056
 20
-116.0303557036963
 30
0.0
 11
43.39849860784056
 21
-123.6303557036985
 31
0.0
  0
LINE
  5
163D0
330
18
100
AcDbEntity
  8
01
100
AcDbLine
 10
-180.4573807511217
 20
35.7108061489979
 30
0.0
 11
-180.4573807511217
 21
74.42454214929544
 31
0.0
  0
LINE
  5
163D1
330
18
100
AcDbEntity
  8
01
100
AcDbLine
 10
-206.4573807511213
 20
35.7108061489979
 30
0.0
 11
-206.4573807511213
 21
74.42454214929544
 31
0.0
  0
LINE
  5
163D3
330
18
100
AcDbEntity
  8
01
370
    15
100
AcDbLine
 10
-182.7073307250314
 20
39.669573563165
 30
0.0
 11
-178.2073307250314
 21
39.669573563165
 31
0.0
  0
LINE
  5
163D4
330
18
100
AcDbEntity
  8
01
370
    15
100
AcDbLine
 10
-182.7073307250314
 20
39.669573563165
 30
0.0
 11
-178.2073307250314
 21
39.669573563165
 31
0.0
  0
LINE
  5
163D5
330
18
100
AcDbEntity
  8
01
370
    15
100
AcDbLine
 10
-182.1344317342457
 20
39.669573563165
 30
0.0
 11
-178.7803297679959
 21
39.669573563165
 31
0.0
  0
LINE
  5
163D6
330
18
100
AcDbEntity
  8
01
370
    15
100
AcDbLine
 10
-182.7073807511217
 20
39.669573563165
 30
0.0
 11
-178.2073807511217
 21
39.669573563165
 31
0.0
  0
LINE
  5
163D7
330
18
100
AcDbEntity
  8
01
370
    15
100
AcDbLine
 10
-182.7073307250314
 20
39.669573563165
 30
0.0
 11
-181.9573307250314
 21
39.669573563165
 31
0.0
  0
LINE
  5
163D8
330
18
100
AcDbEntity
  8
01
370
    15
100
AcDbLine
 10
-180.9573365415247
 20
39.669573563165
 30
0.0
 11
-178.2073307250314
 21
39.669573563165
 31
0.0
  0
LINE
  5
163D9
330
18
100
AcDbEntity
  8
01
100
AcDbLine
 10
-180.4573307250314
 20
73.6695735631106
 30
0.0
 11
-181.9573307250314
 21
68.36957705324905
 31
0.0
  0
LINE
  5
163DA
330
18
100
AcDbEntity
  8
01
100
AcDbLine
 10
-181.9573307250314
 20
68.36957705324931
 30
0.0
 11
-181.9573307250314
 21
39.669573563165
 31
0.0
  0
LINE
  5
163DB
330
18
100
AcDbEntity
  8
01
100
AcDbLine
 10
-181.9573307250314
 20
39.669573563165
 30
0.0
 11
-181.9573307250314
 21
38.66957705335752
 31
0.0
  0
LINE
  5
163DC
330
18
100
AcDbEntity
  8
01
100
AcDbLine
 10
-180.4573307250314
 20
73.6695735631106
 30
0.0
 11
-178.9573307250314
 21
68.36957007286539
 31
0.0
  0
LINE
  5
163DD
330
18
100
AcDbEntity
  8
01
100
AcDbLine
 10
-183.9573772609303
 20
38.66958170705569
 30
0.0
 11
-181.9573307250314
 21
38.66957705335752
 31
0.0
  0
LINE
  5
163DE
330
18
100
AcDbEntity
  8
01
100
AcDbLine
 10
-178.9573307250314
 20
68.36957007286565
 30
0.0
 11
-178.9573307250314
 21
39.669573563165
 31
0.0
  0
LINE
  5
163DF
330
18
100
AcDbEntity
  8
01
100
AcDbLine
 10
-178.9573307250332
 20
39.669573563165
 30
0.0
 11
-178.9573307250314
 21
38.66957007297272
 31
0.0
  0
LINE
  5
163E0
330
18
100
AcDbEntity
  8
01
100
AcDbLine
 10
-183.9573772609303
 20
38.66958170705569
 30
0.0
 11
-183.9573772609303
 21
37.56957821686031
 31
0.0
  0
LINE
  5
163E1
330
18
100
AcDbEntity
  8
01
100
AcDbLine
 10
-178.9573307250314
 20
38.66957007297272
 30
0.0
 11
-176.9573772609303
 21
38.66956541949124
 31
0.0
  0
ARC
  5
163E2
330
18
100
AcDbEntity
  8
01
100
AcDbCircle
 10
-182.4573772609303
 20
37.56957821686031
 30
0.0
 40
1.5
100
AcDbArc
 50
180.0
 51
269.9998666844749
  0
LINE
  5
163E3
330
18
100
AcDbEntity
  8
01
100
AcDbLine
 10
-176.9573772609303
 20
38.66956541949124
 30
0.0
 11
-176.9573772609303
 21
37.56956890968066
 31
0.0
  0
LINE
  5
163E4
330
18
100
AcDbEntity
  8
01
100
AcDbLine
 10
-182.4573807511217
 20
36.0695782168644
 30
0.0
 11
-178.4573807511217
 21
36.06956890968475
 31
0.0
  0
ARC
  5
163E5
330
18
100
AcDbEntity
  8
01
100
AcDbCircle
 10
-178.4573772609303
 20
37.56956890968066
 30
0.0
 40
1.5
100
AcDbArc
 50
269.9998666844749
 51
0.0
  0
LINE
  5
163E6
330
18
100
AcDbEntity
  8
01
100
AcDbLine
 10
-181.5517010749256
 20
71.56957610943329
 30
0.0
 11
-179.5893659860496
 21
72.36957154348402
 31
0.0
  0
LINE
  5
163E7
330
18
100
AcDbEntity
  8
01
100
AcDbLine
 10
-179.5893659860496
 20
72.36957154348402
 30
0.0
 11
-180.1776425610926
 21
72.68134139973636
 31
0.0
  0
LINE
  5
163E8
330
18
100
AcDbEntity
  8
01
100
AcDbLine
 10
-182.4573307250314
 20
44.1695782166433
 30
0.0
 11
-178.4573307250314
 21
44.96956890946132
 31
0.0
  0
LINE
  5
163E9
330
18
100
AcDbEntity
  8
01
100
AcDbLine
 10
-182.4573307250314
 20
55.36957821664767
 30
0.0
 11
-178.4573307250314
 21
56.16956890947024
 31
0.0
  0
LINE
  5
163EA
330
18
100
AcDbEntity
  8
01
100
AcDbLine
 10
-182.4573307250314
 20
63.56957821664749
 30
0.0
 11
-178.4573307250314
 21
64.36956890947005
 31
0.0
  0
LINE
  5
163EB
330
18
100
AcDbEntity
  8
01
100
AcDbLine
 10
-178.4573307250314
 20
64.36956890947005
 30
0.0
 11
-178.9573307250314
 21
64.46957007286738
 31
0.0
  0
LINE
  5
163EC
330
18
100
AcDbEntity
  8
01
100
AcDbLine
 10
-181.9573307250314
 20
65.06957705325049
 30
0.0
 11
-182.4573307250314
 21
65.1695782166476
 31
0.0
  0
LINE
  5
163ED
330
18
100
AcDbEntity
  8
01
100
AcDbLine
 10
-178.4573307250314
 20
56.16956890947024
 30
0.0
 11
-178.9573307250314
 21
56.26957007286735
 31
0.0
  0
LINE
  5
163EE
330
18
100
AcDbEntity
  8
01
100
AcDbLine
 10
-178.4573307250314
 20
62.76956890947015
 30
0.0
 11
-178.9573307250314
 21
62.86957007286749
 31
0.0
  0
LINE
  5
163EF
330
18
100
AcDbEntity
  8
01
100
AcDbLine
 10
-181.9573307250314
 20
63.4695770532506
 30
0.0
 11
-182.4573307250314
 21
63.56957821664749
 31
0.0
  0
LINE
  5
163F0
330
18
100
AcDbEntity
  8
01
100
AcDbLine
 10
-181.9573307250314
 20
61.86957705325069
 30
0.0
 11
-182.4573307250314
 21
61.96957821664757
 31
0.0
  0
LINE
  5
163F1
330
18
100
AcDbEntity
  8
01
100
AcDbLine
 10
-182.4573307250314
 20
61.96957821664757
 30
0.0
 11
-178.4573307250314
 21
62.76956890947015
 31
0.0
  0
LINE
  5
163F2
330
18
100
AcDbEntity
  8
01
100
AcDbLine
 10
-179.1365518816431
 20
70.76957048987861
 30
0.0
 11
-179.6883013454455
 21
70.95233463250662
 31
0.0
  0
LINE
  5
163F3
330
18
100
AcDbEntity
  8
01
100
AcDbLine
 10
-178.4573307250314
 20
67.56956890947032
 30
0.0
 11
-178.9573307250314
 21
67.6695700728672
 31
0.0
  0
LINE
  5
163F4
330
18
100
AcDbEntity
  8
01
100
AcDbLine
 10
-178.4573307250314
 20
65.96956890947018
 30
0.0
 11
-178.9573307250314
 21
66.06957007286729
 31
0.0
  0
LINE
  5
163F5
330
18
100
AcDbEntity
  8
01
100
AcDbLine
 10
-178.6837377772365
 20
69.16956943627275
 30
0.0
 11
-179.2203315125055
 21
69.29884013390284
 31
0.0
  0
LINE
  5
163F6
330
18
100
AcDbEntity
  8
01
100
AcDbLine
 10
-181.5364161278223
 20
69.85680765068747
 30
0.0
 11
-182.0045145829729
 21
69.96957716303751
 31
0.0
  0
LINE
  5
163F7
330
18
100
AcDbEntity
  8
01
100
AcDbLine
 10
-181.9573307250314
 20
66.66957705325041
 30
0.0
 11
-182.4573307250314
 21
66.76957821664775
 31
0.0
  0
LINE
  5
163F8
330
18
100
AcDbEntity
  8
01
100
AcDbLine
 10
-181.9573307250314
 20
68.26957705325032
 30
0.0
 11
-182.4573307250314
 21
68.36957821664765
 31
0.0
  0
LINE
  5
163F9
330
18
100
AcDbEntity
  8
01
100
AcDbLine
 10
-181.0945292342924
 20
71.41814031299265
 30
0.0
 11
-181.5517010749256
 21
71.56957610943329
 31
0.0
  0
LINE
  5
163FA
330
18
100
AcDbEntity
  8
01
100
AcDbLine
 10
-182.0045145829729
 20
69.96957716303751
 30
0.0
 11
-179.1365518816431
 21
70.76957048987861
 31
0.0
  0
LINE
  5
163FB
330
18
100
AcDbEntity
  8
01
100
AcDbLine
 10
-182.4573307250314
 20
66.76957821664775
 30
0.0
 11
-178.4573307250314
 21
67.56956890947032
 31
0.0
  0
LINE
  5
163FC
330
18
100
AcDbEntity
  8
01
100
AcDbLine
 10
-182.4573307250314
 20
68.36957821664765
 30
0.0
 11
-178.6837377772365
 21
69.16956943627275
 31
0.0
  0
LINE
  5
163FD
330
18
100
AcDbEntity
  8
01
100
AcDbLine
 10
-182.4573307250314
 20
65.1695782166476
 30
0.0
 11
-178.4573307250314
 21
65.96956890947018
 31
0.0
  0
LINE
  5
163FE
330
18
100
AcDbEntity
  8
01
100
AcDbLine
 10
-182.4573307250314
 20
47.36957821664312
 30
0.0
 11
-178.4573307250314
 21
48.1695689094616
 31
0.0
  0
LINE
  5
163FF
330
18
100
AcDbEntity
  8
01
100
AcDbLine
 10
-178.4573307250314
 20
48.1695689094616
 30
0.0
 11
-178.9573307250314
 21
48.26957007285916
 31
0.0
  0
LINE
  5
16400
330
18
100
AcDbEntity
  8
01
100
AcDbLine
 10
-181.9573307250314
 20
48.86957705324978
 30
0.0
 11
-182.4573307250314
 21
48.96957821664758
 31
0.0
  0
LINE
  5
16401
330
18
100
AcDbEntity
  8
01
100
AcDbLine
 10
-178.4573307250314
 20
46.56956890946124
 30
0.0
 11
-178.9573307250314
 21
46.66957007285903
 31
0.0
  0
LINE
  5
16402
330
18
100
AcDbEntity
  8
01
100
AcDbLine
 10
-178.4573307250314
 20
44.96956890946132
 30
0.0
 11
-178.9573307250314
 21
45.06957007285912
 31
0.0
  0
LINE
  5
16403
330
18
100
AcDbEntity
  8
01
100
AcDbLine
 10
-181.9573307250314
 20
47.26957705324555
 30
0.0
 11
-182.4573307250314
 21
47.36957821664312
 31
0.0
  0
LINE
  5
16404
330
18
100
AcDbEntity
  8
01
100
AcDbLine
 10
-181.9573307250314
 20
45.66957705324542
 30
0.0
 11
-182.4573307250314
 21
45.76957821664321
 31
0.0
  0
LINE
  5
16405
330
18
100
AcDbEntity
  8
01
100
AcDbLine
 10
-182.4573307250314
 20
45.76957821664321
 30
0.0
 11
-178.4573307250314
 21
46.56956890946124
 31
0.0
  0
LINE
  5
16406
330
18
100
AcDbEntity
  8
01
100
AcDbLine
 10
-178.4573307250314
 20
52.96956890946588
 30
0.0
 11
-178.9573307250314
 21
53.06957007286367
 31
0.0
  0
LINE
  5
16407
330
18
100
AcDbEntity
  8
01
100
AcDbLine
 10
-178.4573307250314
 20
54.56956890947033
 30
0.0
 11
-178.9573307250314
 21
54.66957007286722
 31
0.0
  0
LINE
  5
16408
330
18
100
AcDbEntity
  8
01
100
AcDbLine
 10
-178.4573307250314
 20
49.76956890946583
 30
0.0
 11
-178.9573307250314
 21
49.86957007286339
 31
0.0
  0
LINE
  5
16409
330
18
100
AcDbEntity
  8
01
100
AcDbLine
 10
-178.4573307250314
 20
51.36956890946574
 30
0.0
 11
-178.9573307250314
 21
51.46957007286331
 31
0.0
  0
LINE
  5
1640A
330
18
100
AcDbEntity
  8
01
100
AcDbLine
 10
-181.9573307250314
 20
55.26957705325033
 30
0.0
 11
-182.4573307250314
 21
55.36957821664767
 31
0.0
  0
LINE
  5
1640B
330
18
100
AcDbEntity
  8
01
100
AcDbLine
 10
-181.9573307250314
 20
53.66957705324996
 30
0.0
 11
-182.4573307250314
 21
53.76957821664776
 31
0.0
  0
LINE
  5
1640C
330
18
100
AcDbEntity
  8
01
100
AcDbLine
 10
-181.9573307250314
 20
50.46957705324969
 30
0.0
 11
-182.4573307250314
 21
50.56957821664749
 31
0.0
  0
LINE
  5
1640D
330
18
100
AcDbEntity
  8
01
100
AcDbLine
 10
-181.9573307250314
 20
52.06957705325006
 30
0.0
 11
-182.4573307250314
 21
52.16957821664762
 31
0.0
  0
LINE
  5
1640E
330
18
100
AcDbEntity
  8
01
100
AcDbLine
 10
-182.4573307250314
 20
52.16957821664762
 30
0.0
 11
-178.4573307250314
 21
52.96956890946588
 31
0.0
  0
LINE
  5
1640F
330
18
100
AcDbEntity
  8
01
100
AcDbLine
 10
-182.4573307250314
 20
53.76957821664776
 30
0.0
 11
-178.4573307250314
 21
54.56956890947033
 31
0.0
  0
LINE
  5
16410
330
18
100
AcDbEntity
  8
01
100
AcDbLine
 10
-182.4573307250314
 20
50.56957821664749
 30
0.0
 11
-178.4573307250314
 21
51.36956890946574
 31
0.0
  0
LINE
  5
16411
330
18
100
AcDbEntity
  8
01
100
AcDbLine
 10
-182.4573307250314
 20
48.96957821664758
 30
0.0
 11
-178.4573307250314
 21
49.76956890946583
 31
0.0
  0
LINE
  5
16412
330
18
100
AcDbEntity
  8
01
100
AcDbLine
 10
-178.9573307250314
 20
38.66957007297272
 30
0.0
 11
-181.9573307250314
 21
38.66957705335752
 31
0.0
  0
LINE
  5
16413
330
18
100
AcDbEntity
  8
01
100
AcDbLine
 10
-181.9573307250314
 20
44.06957705324551
 30
0.0
 11
-182.4573307250314
 21
44.1695782166433
 31
0.0
  0
LINE
  5
16414
330
18
100
AcDbEntity
  8
01
100
AcDbLine
 10
-182.4573307250314
 20
56.96957821664757
 30
0.0
 11
-178.4573307250314
 21
57.76956890947015
 31
0.0
  0
LINE
  5
16415
330
18
100
AcDbEntity
  8
01
100
AcDbLine
 10
-178.4573307250314
 20
57.76956890947015
 30
0.0
 11
-178.9573307250314
 21
57.86957007286726
 31
0.0
  0
LINE
  5
16416
330
18
100
AcDbEntity
  8
01
100
AcDbLine
 10
-181.9573307250314
 20
56.86957705325024
 30
0.0
 11
-182.4573307250314
 21
56.96957821664757
 31
0.0
  0
LINE
  5
16417
330
18
100
AcDbEntity
  8
01
100
AcDbLine
 10
-182.4573307250314
 20
58.56957821664749
 30
0.0
 11
-178.4573307250314
 21
59.36956890947006
 31
0.0
  0
LINE
  5
16418
330
18
100
AcDbEntity
  8
01
100
AcDbLine
 10
-178.4573307250314
 20
59.36956890947006
 30
0.0
 11
-178.9573307250314
 21
59.46957007286717
 31
0.0
  0
LINE
  5
16419
330
18
100
AcDbEntity
  8
01
100
AcDbLine
 10
-181.9573307250314
 20
58.46957705325015
 30
0.0
 11
-182.4573307250314
 21
58.56957821664749
 31
0.0
  0
LINE
  5
1641A
330
18
100
AcDbEntity
  8
01
100
AcDbLine
 10
-182.4573307250314
 20
60.16957821664739
 30
0.0
 11
-178.4573307250314
 21
60.96956890946997
 31
0.0
  0
LINE
  5
1641B
330
18
100
AcDbEntity
  8
01
100
AcDbLine
 10
-178.4573307250314
 20
60.96956890946997
 30
0.0
 11
-178.9573307250314
 21
61.06957007286708
 31
0.0
  0
LINE
  5
1641C
330
18
100
AcDbEntity
  8
01
100
AcDbLine
 10
-181.9573307250314
 20
60.06957705325006
 30
0.0
 11
-182.4573307250314
 21
60.16957821664739
 31
0.0
  0
LINE
  5
1641D
330
18
100
AcDbEntity
  8
01
100
AcDbLine
 10
-184.2573307250325
 20
38.669573563165
 30
0.0
 11
-176.6573307250303
 21
38.669573563165
 31
0.0
  0
LINE
  5
1641E
330
18
100
AcDbEntity
  8
01
100
AcDbLine
 10
-176.6573307250303
 20
38.669573563165
 30
0.0
 11
-176.6573307250303
 21
39.669573563165
 31
0.0
  0
LINE
  5
1641F
330
18
100
AcDbEntity
  8
01
100
AcDbLine
 10
-184.2573307250325
 20
39.669573563165
 30
0.0
 11
-184.2573307250325
 21
38.669573563165
 31
0.0
  0
LINE
  5
16420
330
18
100
AcDbEntity
  8
01
100
AcDbLine
 10
-182.4573307250314
 20
42.56957821664339
 30
0.0
 11
-178.4573307250314
 21
43.36956890946142
 31
0.0
  0
LINE
  5
16421
330
18
100
AcDbEntity
  8
01
100
AcDbLine
 10
-178.4573307250314
 20
43.36956890946142
 30
0.0
 11
-178.9573307250314
 21
43.46957007285921
 31
0.0
  0
LINE
  5
16422
330
18
100
AcDbEntity
  8
01
100
AcDbLine
 10
-181.9573307250314
 20
42.4695770532456
 30
0.0
 11
-182.4573307250314
 21
42.56957821664339
 31
0.0
  0
LINE
  5
16423
330
18
100
AcDbEntity
  8
01
100
AcDbLine
 10
-182.4573307250314
 20
40.96957821664348
 30
0.0
 11
-178.4573307250314
 21
41.76956890946151
 31
0.0
  0
LINE
  5
16424
330
18
100
AcDbEntity
  8
01
100
AcDbLine
 10
-178.4573307250314
 20
41.76956890946151
 30
0.0
 11
-178.9573307250314
 21
41.8695700728593
 31
0.0
  0
LINE
  5
16425
330
18
100
AcDbEntity
  8
01
100
AcDbLine
 10
-181.9573307250314
 20
40.86957705324569
 30
0.0
 11
-182.4573307250314
 21
40.96957821664348
 31
0.0
  0
LINE
  5
16426
330
18
100
AcDbEntity
  8
01
100
AcDbLine
 10
-182.4573307250314
 20
39.36957821664357
 30
0.0
 11
-178.4573307250314
 21
40.1695689094616
 31
0.0
  0
LINE
  5
16427
330
18
100
AcDbEntity
  8
01
100
AcDbLine
 10
-178.4573307250314
 20
40.1695689094616
 30
0.0
 11
-178.9573307250314
 21
40.26957007285939
 31
0.0
  0
LINE
  5
16428
330
18
100
AcDbEntity
  8
01
100
AcDbLine
 10
-181.9573307250314
 20
39.26957705324578
 30
0.0
 11
-182.4573307250314
 21
39.36957821664357
 31
0.0
  0
LINE
  5
1642A
330
18
100
AcDbEntity
  8
01
100
AcDbLine
 10
-184.2573307250325
 20
39.669573563165
 30
0.0
 11
-176.6573307250303
 21
39.669573563165
 31
0.0
  0
LINE
  5
1642B
330
18
100
AcDbEntity
  8
01
370
    15
100
AcDbLine
 10
-208.7073307250309
 20
39.66957356316398
 30
0.0
 11
-204.2073307250309
 21
39.66957356316398
 31
0.0
  0
LINE
  5
1642C
330
18
100
AcDbEntity
  8
01
370
    15
100
AcDbLine
 10
-208.7073307250309
 20
39.66957356316398
 30
0.0
 11
-204.2073307250309
 21
39.66957356316398
 31
0.0
  0
LINE
  5
1642D
330
18
100
AcDbEntity
  8
01
370
    15
100
AcDbLine
 10
-208.1344317342452
 20
39.66957356316398
 30
0.0
 11
-204.7803297679954
 21
39.66957356316398
 31
0.0
  0
LINE
  5
1642E
330
18
100
AcDbEntity
  8
01
370
    15
100
AcDbLine
 10
-208.7073807511213
 20
39.66957356316398
 30
0.0
 11
-204.2073807511213
 21
39.66957356316398
 31
0.0
  0
LINE
  5
1642F
330
18
100
AcDbEntity
  8
01
370
    15
100
AcDbLine
 10
-208.7073307250309
 20
39.66957356316398
 30
0.0
 11
-207.9573307250309
 21
39.66957356316398
 31
0.0
  0
LINE
  5
16430
330
18
100
AcDbEntity
  8
01
370
    15
100
AcDbLine
 10
-206.9573365415242
 20
39.66957356316398
 30
0.0
 11
-204.2073307250309
 21
39.66957356316398
 31
0.0
  0
LINE
  5
16431
330
18
100
AcDbEntity
  8
01
100
AcDbLine
 10
-206.4573307250309
 20
73.66957356310958
 30
0.0
 11
-207.9573307250309
 21
68.36957705324802
 31
0.0
  0
LINE
  5
16432
330
18
100
AcDbEntity
  8
01
100
AcDbLine
 10
-207.9573307250309
 20
68.36957705324829
 30
0.0
 11
-207.9573307250309
 21
39.66957356316398
 31
0.0
  0
LINE
  5
16433
330
18
100
AcDbEntity
  8
01
100
AcDbLine
 10
-207.9573307250309
 20
39.66957356316398
 30
0.0
 11
-207.9573307250309
 21
38.66957705335649
 31
0.0
  0
LINE
  5
16434
330
18
100
AcDbEntity
  8
01
100
AcDbLine
 10
-206.4573307250309
 20
73.66957356310958
 30
0.0
 11
-204.9573307250309
 21
68.36957007286436
 31
0.0
  0
LINE
  5
16435
330
18
100
AcDbEntity
  8
01
100
AcDbLine
 10
-209.9573772609299
 20
38.66958170705466
 30
0.0
 11
-207.9573307250309
 21
38.66957705335649
 31
0.0
  0
LINE
  5
16436
330
18
100
AcDbEntity
  8
01
100
AcDbLine
 10
-204.9573307250309
 20
68.36957007286463
 30
0.0
 11
-204.9573307250309
 21
39.66957356316398
 31
0.0
  0
LINE
  5
16437
330
18
100
AcDbEntity
  8
01
100
AcDbLine
 10
-204.9573307250327
 20
39.66957356316398
 30
0.0
 11
-204.9573307250309
 21
38.6695700729717
 31
0.0
  0
LINE
  5
16438
330
18
100
AcDbEntity
  8
01
100
AcDbLine
 10
-209.9573772609299
 20
38.66958170705466
 30
0.0
 11
-209.9573772609299
 21
37.56957821685928
 31
0.0
  0
LINE
  5
16439
330
18
100
AcDbEntity
  8
01
100
AcDbLine
 10
-204.9573307250309
 20
38.6695700729717
 30
0.0
 11
-202.9573772609299
 21
38.66956541949021
 31
0.0
  0
ARC
  5
1643A
330
18
100
AcDbEntity
  8
01
100
AcDbCircle
 10
-208.4573772609299
 20
37.56957821685928
 30
0.0
 40
1.5
100
AcDbArc
 50
180.0
 51
269.9998666844749
  0
LINE
  5
1643B
330
18
100
AcDbEntity
  8
01
100
AcDbLine
 10
-202.9573772609299
 20
38.66956541949021
 30
0.0
 11
-202.9573772609299
 21
37.56956890967963
 31
0.0
  0
LINE
  5
1643C
330
18
100
AcDbEntity
  8
01
100
AcDbLine
 10
-208.4573807511213
 20
36.06957821686338
 30
0.0
 11
-204.4573807511213
 21
36.06956890968373
 31
0.0
  0
ARC
  5
1643D
330
18
100
AcDbEntity
  8
01
100
AcDbCircle
 10
-204.4573772609299
 20
37.56956890967963
 30
0.0
 40
1.5
100
AcDbArc
 50
269.9998666844749
 51
0.0
  0
LINE
  5
1643E
330
18
100
AcDbEntity
  8
01
100
AcDbLine
 10
-207.5517010749252
 20
71.56957610943226
 30
0.0
 11
-205.5893659860492
 21
72.369571543483
 31
0.0
  0
LINE
  5
1643F
330
18
100
AcDbEntity
  8
01
100
AcDbLine
 10
-205.5893659860492
 20
72.369571543483
 30
0.0
 11
-206.1776425610922
 21
72.68134139973534
 31
0.0
  0
LINE
  5
16440
330
18
100
AcDbEntity
  8
01
100
AcDbLine
 10
-208.4573307250309
 20
44.16957821664228
 30
0.0
 11
-204.4573307250309
 21
44.9695689094603
 31
0.0
  0
LINE
  5
16441
330
18
100
AcDbEntity
  8
01
100
AcDbLine
 10
-208.4573307250309
 20
55.36957821664664
 30
0.0
 11
-204.4573307250309
 21
56.16956890946922
 31
0.0
  0
LINE
  5
16442
330
18
100
AcDbEntity
  8
01
100
AcDbLine
 10
-208.4573307250309
 20
63.56957821664646
 30
0.0
 11
-204.4573307250309
 21
64.36956890946902
 31
0.0
  0
LINE
  5
16443
330
18
100
AcDbEntity
  8
01
100
AcDbLine
 10
-204.4573307250309
 20
64.36956890946902
 30
0.0
 11
-204.9573307250309
 21
64.46957007286636
 31
0.0
  0
LINE
  5
16444
330
18
100
AcDbEntity
  8
01
100
AcDbLine
 10
-207.9573307250309
 20
65.06957705324947
 30
0.0
 11
-208.4573307250309
 21
65.16957821664658
 31
0.0
  0
LINE
  5
16445
330
18
100
AcDbEntity
  8
01
100
AcDbLine
 10
-204.4573307250309
 20
56.16956890946922
 30
0.0
 11
-204.9573307250309
 21
56.26957007286633
 31
0.0
  0
LINE
  5
16446
330
18
100
AcDbEntity
  8
01
100
AcDbLine
 10
-204.4573307250309
 20
62.76956890946912
 30
0.0
 11
-204.9573307250309
 21
62.86957007286646
 31
0.0
  0
LINE
  5
16447
330
18
100
AcDbEntity
  8
01
100
AcDbLine
 10
-207.9573307250309
 20
63.46957705324958
 30
0.0
 11
-208.4573307250309
 21
63.56957821664646
 31
0.0
  0
LINE
  5
16448
330
18
100
AcDbEntity
  8
01
100
AcDbLine
 10
-207.9573307250309
 20
61.86957705324967
 30
0.0
 11
-208.4573307250309
 21
61.96957821664655
 31
0.0
  0
LINE
  5
16449
330
18
100
AcDbEntity
  8
01
100
AcDbLine
 10
-208.4573307250309
 20
61.96957821664655
 30
0.0
 11
-204.4573307250309
 21
62.76956890946912
 31
0.0
  0
LINE
  5
1644A
330
18
100
AcDbEntity
  8
01
100
AcDbLine
 10
-205.1365518816426
 20
70.76957048987759
 30
0.0
 11
-205.6883013454451
 21
70.9523346325056
 31
0.0
  0
LINE
  5
1644B
330
18
100
AcDbEntity
  8
01
100
AcDbLine
 10
-204.4573307250309
 20
67.5695689094693
 30
0.0
 11
-204.9573307250309
 21
67.66957007286618
 31
0.0
  0
LINE
  5
1644C
330
18
100
AcDbEntity
  8
01
100
AcDbLine
 10
-204.4573307250309
 20
65.96956890946916
 30
0.0
 11
-204.9573307250309
 21
66.06957007286627
 31
0.0
  0
LINE
  5
1644D
330
18
100
AcDbEntity
  8
01
100
AcDbLine
 10
-204.683737777236
 20
69.16956943627173
 30
0.0
 11
-205.220331512505
 21
69.29884013390182
 31
0.0
  0
LINE
  5
1644E
330
18
100
AcDbEntity
  8
01
100
AcDbLine
 10
-207.5364161278219
 20
69.85680765068645
 30
0.0
 11
-208.0045145829724
 21
69.96957716303649
 31
0.0
  0
LINE
  5
1644F
330
18
100
AcDbEntity
  8
01
100
AcDbLine
 10
-207.9573307250309
 20
66.66957705324938
 30
0.0
 11
-208.4573307250309
 21
66.76957821664672
 31
0.0
  0
LINE
  5
16450
330
18
100
AcDbEntity
  8
01
100
AcDbLine
 10
-207.9573307250309
 20
68.26957705324929
 30
0.0
 11
-208.4573307250309
 21
68.36957821664663
 31
0.0
  0
LINE
  5
16451
330
18
100
AcDbEntity
  8
01
100
AcDbLine
 10
-207.0945292342919
 20
71.41814031299162
 30
0.0
 11
-207.5517010749252
 21
71.56957610943226
 31
0.0
  0
LINE
  5
16452
330
18
100
AcDbEntity
  8
01
100
AcDbLine
 10
-208.0045145829724
 20
69.96957716303649
 30
0.0
 11
-205.1365518816426
 21
70.76957048987759
 31
0.0
  0
LINE
  5
16453
330
18
100
AcDbEntity
  8
01
100
AcDbLine
 10
-208.4573307250309
 20
66.76957821664672
 30
0.0
 11
-204.4573307250309
 21
67.5695689094693
 31
0.0
  0
LINE
  5
16454
330
18
100
AcDbEntity
  8
01
100
AcDbLine
 10
-208.4573307250309
 20
68.36957821664663
 30
0.0
 11
-204.683737777236
 21
69.16956943627173
 31
0.0
  0
LINE
  5
16455
330
18
100
AcDbEntity
  8
01
100
AcDbLine
 10
-208.4573307250309
 20
65.16957821664658
 30
0.0
 11
-204.4573307250309
 21
65.96956890946916
 31
0.0
  0
LINE
  5
16456
330
18
100
AcDbEntity
  8
01
100
AcDbLine
 10
-208.4573307250309
 20
47.36957821664209
 30
0.0
 11
-204.4573307250309
 21
48.16956890946058
 31
0.0
  0
LINE
  5
16457
330
18
100
AcDbEntity
  8
01
100
AcDbLine
 10
-204.4573307250309
 20
48.16956890946058
 30
0.0
 11
-204.9573307250309
 21
48.26957007285814
 31
0.0
  0
LINE
  5
16458
330
18
100
AcDbEntity
  8
01
100
AcDbLine
 10
-207.9573307250309
 20
48.86957705324876
 30
0.0
 11
-208.4573307250309
 21
48.96957821664655
 31
0.0
  0
LINE
  5
16459
330
18
100
AcDbEntity
  8
01
100
AcDbLine
 10
-204.4573307250309
 20
46.56956890946021
 30
0.0
 11
-204.9573307250309
 21
46.66957007285801
 31
0.0
  0
LINE
  5
1645A
330
18
100
AcDbEntity
  8
01
100
AcDbLine
 10
-204.4573307250309
 20
44.9695689094603
 30
0.0
 11
-204.9573307250309
 21
45.0695700728581
 31
0.0
  0
LINE
  5
1645B
330
18
100
AcDbEntity
  8
01
100
AcDbLine
 10
-207.9573307250309
 20
47.26957705324453
 30
0.0
 11
-208.4573307250309
 21
47.36957821664209
 31
0.0
  0
LINE
  5
1645C
330
18
100
AcDbEntity
  8
01
100
AcDbLine
 10
-207.9573307250309
 20
45.6695770532444
 30
0.0
 11
-208.4573307250309
 21
45.76957821664218
 31
0.0
  0
LINE
  5
1645D
330
18
100
AcDbEntity
  8
01
100
AcDbLine
 10
-208.4573307250309
 20
45.76957821664218
 30
0.0
 11
-204.4573307250309
 21
46.56956890946021
 31
0.0
  0
LINE
  5
1645E
330
18
100
AcDbEntity
  8
01
100
AcDbLine
 10
-204.4573307250309
 20
52.96956890946486
 30
0.0
 11
-204.9573307250309
 21
53.06957007286264
 31
0.0
  0
LINE
  5
1645F
330
18
100
AcDbEntity
  8
01
100
AcDbLine
 10
-204.4573307250309
 20
54.56956890946931
 30
0.0
 11
-204.9573307250309
 21
54.6695700728662
 31
0.0
  0
LINE
  5
16460
330
18
100
AcDbEntity
  8
01
100
AcDbLine
 10
-204.4573307250309
 20
49.76956890946481
 30
0.0
 11
-204.9573307250309
 21
49.86957007286237
 31
0.0
  0
LINE
  5
16461
330
18
100
AcDbEntity
  8
01
100
AcDbLine
 10
-204.4573307250309
 20
51.36956890946471
 30
0.0
 11
-204.9573307250309
 21
51.46957007286228
 31
0.0
  0
LINE
  5
16462
330
18
100
AcDbEntity
  8
01
100
AcDbLine
 10
-207.9573307250309
 20
55.26957705324931
 30
0.0
 11
-208.4573307250309
 21
55.36957821664664
 31
0.0
  0
LINE
  5
16463
330
18
100
AcDbEntity
  8
01
100
AcDbLine
 10
-207.9573307250309
 20
53.66957705324894
 30
0.0
 11
-208.4573307250309
 21
53.76957821664674
 31
0.0
  0
LINE
  5
16464
330
18
100
AcDbEntity
  8
01
100
AcDbLine
 10
-207.9573307250309
 20
50.46957705324867
 30
0.0
 11
-208.4573307250309
 21
50.56957821664646
 31
0.0
  0
LINE
  5
16465
330
18
100
AcDbEntity
  8
01
100
AcDbLine
 10
-207.9573307250309
 20
52.06957705324903
 30
0.0
 11
-208.4573307250309
 21
52.1695782166466
 31
0.0
  0
LINE
  5
16466
330
18
100
AcDbEntity
  8
01
100
AcDbLine
 10
-208.4573307250309
 20
52.1695782166466
 30
0.0
 11
-204.4573307250309
 21
52.96956890946486
 31
0.0
  0
LINE
  5
16467
330
18
100
AcDbEntity
  8
01
100
AcDbLine
 10
-208.4573307250309
 20
53.76957821664674
 30
0.0
 11
-204.4573307250309
 21
54.56956890946931
 31
0.0
  0
LINE
  5
16468
330
18
100
AcDbEntity
  8
01
100
AcDbLine
 10
-208.4573307250309
 20
50.56957821664646
 30
0.0
 11
-204.4573307250309
 21
51.36956890946471
 31
0.0
  0
LINE
  5
16469
330
18
100
AcDbEntity
  8
01
100
AcDbLine
 10
-208.4573307250309
 20
48.96957821664655
 30
0.0
 11
-204.4573307250309
 21
49.76956890946481
 31
0.0
  0
LINE
  5
1646A
330
18
100
AcDbEntity
  8
01
100
AcDbLine
 10
-204.9573307250309
 20
38.6695700729717
 30
0.0
 11
-207.9573307250309
 21
38.66957705335649
 31
0.0
  0
LINE
  5
1646B
330
18
100
AcDbEntity
  8
01
100
AcDbLine
 10
-207.9573307250309
 20
44.06957705324448
 30
0.0
 11
-208.4573307250309
 21
44.16957821664228
 31
0.0
  0
LINE
  5
1646C
330
18
100
AcDbEntity
  8
01
100
AcDbLine
 10
-208.4573307250309
 20
56.96957821664655
 30
0.0
 11
-204.4573307250309
 21
57.76956890946912
 31
0.0
  0
LINE
  5
1646D
330
18
100
AcDbEntity
  8
01
100
AcDbLine
 10
-204.4573307250309
 20
57.76956890946912
 30
0.0
 11
-204.9573307250309
 21
57.86957007286623
 31
0.0
  0
LINE
  5
1646E
330
18
100
AcDbEntity
  8
01
100
AcDbLine
 10
-207.9573307250309
 20
56.86957705324921
 30
0.0
 11
-208.4573307250309
 21
56.96957821664655
 31
0.0
  0
LINE
  5
1646F
330
18
100
AcDbEntity
  8
01
100
AcDbLine
 10
-208.4573307250309
 20
58.56957821664646
 30
0.0
 11
-204.4573307250309
 21
59.36956890946904
 31
0.0
  0
LINE
  5
16470
330
18
100
AcDbEntity
  8
01
100
AcDbLine
 10
-204.4573307250309
 20
59.36956890946904
 30
0.0
 11
-204.9573307250309
 21
59.46957007286615
 31
0.0
  0
LINE
  5
16471
330
18
100
AcDbEntity
  8
01
100
AcDbLine
 10
-207.9573307250309
 20
58.46957705324912
 30
0.0
 11
-208.4573307250309
 21
58.56957821664646
 31
0.0
  0
LINE
  5
16472
330
18
100
AcDbEntity
  8
01
100
AcDbLine
 10
-208.4573307250309
 20
60.16957821664637
 30
0.0
 11
-204.4573307250309
 21
60.96956890946895
 31
0.0
  0
LINE
  5
16473
330
18
100
AcDbEntity
  8
01
100
AcDbLine
 10
-204.4573307250309
 20
60.96956890946895
 30
0.0
 11
-204.9573307250309
 21
61.06957007286606
 31
0.0
  0
LINE
  5
16474
330
18
100
AcDbEntity
  8
01
100
AcDbLine
 10
-207.9573307250309
 20
60.06957705324904
 30
0.0
 11
-208.4573307250309
 21
60.16957821664637
 31
0.0
  0
LINE
  5
16475
330
18
100
AcDbEntity
  8
01
100
AcDbLine
 10
-210.257330725032
 20
38.66957356316398
 30
0.0
 11
-202.6573307250298
 21
38.66957356316398
 31
0.0
  0
LINE
  5
16476
330
18
100
AcDbEntity
  8
01
100
AcDbLine
 10
-202.6573307250298
 20
38.66957356316398
 30
0.0
 11
-202.6573307250298
 21
39.66957356316398
 31
0.0
  0
LINE
  5
16477
330
18
100
AcDbEntity
  8
01
100
AcDbLine
 10
-210.257330725032
 20
39.66957356316398
 30
0.0
 11
-210.257330725032
 21
38.66957356316398
 31
0.0
  0
LINE
  5
16478
330
18
100
AcDbEntity
  8
01
100
AcDbLine
 10
-208.4573307250309
 20
42.56957821664236
 30
0.0
 11
-204.4573307250309
 21
43.3695689094604
 31
0.0
  0
LINE
  5
16479
330
18
100
AcDbEntity
  8
01
100
AcDbLine
 10
-204.4573307250309
 20
43.3695689094604
 30
0.0
 11
-204.9573307250309
 21
43.46957007285818
 31
0.0
  0
LINE
  5
1647A
330
18
100
AcDbEntity
  8
01
100
AcDbLine
 10
-207.9573307250309
 20
42.46957705324457
 30
0.0
 11
-208.4573307250309
 21
42.56957821664236
 31
0.0
  0
LINE
  5
1647B
330
18
100
AcDbEntity
  8
01
100
AcDbLine
 10
-208.4573307250309
 20
40.96957821664246
 30
0.0
 11
-204.4573307250309
 21
41.76956890946049
 31
0.0
  0
LINE
  5
1647C
330
18
100
AcDbEntity
  8
01
100
AcDbLine
 10
-204.4573307250309
 20
41.76956890946049
 30
0.0
 11
-204.9573307250309
 21
41.86957007285828
 31
0.0
  0
LINE
  5
1647D
330
18
100
AcDbEntity
  8
01
100
AcDbLine
 10
-207.9573307250309
 20
40.86957705324467
 30
0.0
 11
-208.4573307250309
 21
40.96957821664246
 31
0.0
  0
LINE
  5
1647E
330
18
100
AcDbEntity
  8
01
100
AcDbLine
 10
-208.4573307250309
 20
39.36957821664255
 30
0.0
 11
-204.4573307250309
 21
40.16956890946057
 31
0.0
  0
LINE
  5
1647F
330
18
100
AcDbEntity
  8
01
100
AcDbLine
 10
-204.4573307250309
 20
40.16956890946057
 30
0.0
 11
-204.9573307250309
 21
40.26957007285837
 31
0.0
  0
LINE
  5
16480
330
18
100
AcDbEntity
  8
01
100
AcDbLine
 10
-207.9573307250309
 20
39.26957705324476
 30
0.0
 11
-208.4573307250309
 21
39.36957821664255
 31
0.0
  0
LINE
  5
16481
330
18
100
AcDbEntity
  8
01
100
AcDbLine
 10
-210.257330725032
 20
39.66957356316398
 30
0.0
 11
-202.6573307250298
 21
39.66957356316398
 31
0.0
  0
LINE
  5
16487
330
18
100
AcDbEntity
  8
01
100
AcDbLine
 10
62.39850262245409
 20
-76.60215275106853
 30
0.0
 11
62.39850262245409
 21
-151.0584999216322
 31
0.0
  0
LINE
  5
16488
330
18
100
AcDbEntity
  8
01
100
AcDbLine
 10
71.39850262245409
 20
-76.60215275106853
 30
0.0
 11
71.39850262245409
 21
-151.0584999216322
 31
0.0
  0
LINE
  5
16489
330
18
100
AcDbEntity
  8
01
100
AcDbLine
 10
49.89850262245409
 20
-76.60215275106853
 30
0.0
 11
49.89850262245409
 21
-151.0584999216322
 31
0.0
  0
ARC
  5
16FB6
330
18
100
AcDbEntity
  8
01
370
    30
100
AcDbCircle
 10
-21.02387748585238
 20
-133.6942715082499
 30
0.0
 40
2.000000001761478
100
AcDbArc
 50
300.0000000733495
 51
29.99999992644413
  0
ARC
  5
16FB7
330
18
100
AcDbEntity
  8
01
370
    30
100
AcDbCircle
 10
-25.0238774844072
 20
-126.7660682804667
 30
0.0
 40
2.000000001756751
100
AcDbArc
 50
30.00000007321358
 51
119.9999999265621
  0
LINE
  5
16FB8
330
18
100
AcDbEntity
  8
01
370
    30
100
AcDbLine
 10
-19.29182667730379
 20
-132.6942715070593
 30
0.0
 11
-23.29182667532018
 21
-125.7660682802201
 31
0.0
  0
LINE
  5
16FF3
330
18
100
AcDbEntity
  8
01
100
AcDbLine
 10
-34.65179924610311
 20
7.1696736636496
 30
0.0
 11
35.34820075389689
 21
7.169673663649599
 31
0.0
  0
LINE
  5
16FF4
330
18
100
AcDbEntity
  8
01
100
AcDbLine
 10
-34.65179924610357
 20
-6.830326336350402
 30
0.0
 11
35.34820075389642
 21
-6.830326336350402
 31
0.0
  0
LINE
  5
16FF5
330
18
100
AcDbEntity
  8
01
100
AcDbLine
 10
-34.65179924610334
 20
0.1696736636496006
 30
0.0
 11
35.34820075389666
 21
0.1696736636496006
 31
0.0
  0
LINE
  5
16FF6
330
18
100
AcDbEntity
  8
01
100
AcDbLine
 10
35.34820075389689
 20
7.1696736636496
 30
0.0
 11
35.34820075389643
 21
-6.830326336350402
 31
0.0
  0
TEXT
  5
16FF7
330
18
100
AcDbEntity
  8
01
100
AcDbText
 10
11.08153408723031
 20
1.6696736636496
 30
0.0
 40
4.0
  1
コード
 72
     1
 11
17.74820075389698
 21
1.6696736636496
 31
0.0
100
AcDbText
  0
TEXT
  5
16FFA
330
18
100
AcDbEntity
  8
01
100
AcDbText
 10
-34.65179924610311
 20
12.1696736636496
 30
0.0
 40
8.0
  1
SC-693-X
100
AcDbText
  0
TEXT
  5
16FFC
330
18
100
AcDbEntity
  8
01
100
AcDbText
 10
2.043438849135297
 20
-5.544683319999684
 30
0.0
 40
4.0
  1
SC-693-XC
 41
0.85
 72
     1
 11
17.74820075389721
 21
-5.544683319999684
 31
0.0
100
AcDbText
  0
LINE
  5
17485
330
18
100
AcDbEntity
  8
01
100
AcDbLine
 10
-185.957848802521
 20
-119.8303056776071
 30
0.0
 11
-174.8590728838442
 21
-119.8303056776071
 31
0.0
  0
LINE
  5
1781E
330
18
100
AcDbEntity
  8
01
100
AcDbLine
 10
0.3482007538968901
 20
7.1696736636496
 30
0.0
 11
0.3482007538964353
 21
-6.830326336350402
 31
0.0
  0
LINE
  5
1781F
330
18
100
AcDbEntity
  8
01
100
AcDbLine
 10
-34.65179924610311
 20
7.1696736636496
 30
0.0
 11
-34.65179924610357
 21
-6.830326336350402
 31
0.0
  0
TEXT
  5
17821
330
18
100
AcDbEntity
  8
01
100
AcDbText
 10
-26.31846591277014
 20
1.669673663649604
 30
0.0
 40
4.0
  1
表面処理
 72
     1
 11
-17.25179924610347
 21
1.669673663649604
 31
0.0
100
AcDbText
  0
TEXT
  5
17823
330
18
100
AcDbEntity
  8
01
100
AcDbText
 10
-26.31846591276991
 20
-5.165614995874683
 30
0.0
 40
4.0
  1
クローム
 72
     1
 11
-17.25179924610324
 21
-5.165614995874683
 31
0.0
100
AcDbText
  0
LINE
  5
17A2B
330
18
100
AcDbEntity
  8
01
100
AcDbLine
 10
-213.4574429398745
 20
46.16957356316371
 30
0.0
 11
-213.4574429398745
 21
60.6312109110859
 31
0.0
  0
LINE
  5
17A2E
330
18
100
AcDbEntity
  8
01
100
AcDbLine
 10
-173.4574429398744
 20
46.16957356316524
 30
0.0
 11
-173.4574429398744
 21
60.6312109110859
 31
0.0
  0
LINE
  5
17A2F
330
18
100
AcDbEntity
  8
01
100
AcDbLine
 10
-211.4574429398745
 20
59.6312109110859
 30
0.0
 11
-175.4574429398744
 21
59.6312109110859
 31
0.0
  0
LINE
  5
17A33
330
18
100
AcDbEntity
  8
01
100
AcDbLine
 10
-206.4573807511213
 20
-126.4922826867255
 30
0.0
 11
-206.4573807511213
 21
-162.3919102886226
 31
0.0
  0
LINE
  5
17A34
330
18
100
AcDbEntity
  8
01
100
AcDbLine
 10
-180.4573807511217
 20
-126.4922826867245
 30
0.0
 11
-180.4573807511217
 21
-162.3919102886226
 31
0.0
  0
LINE
  5
17A35
330
18
100
AcDbEntity
  8
01
100
AcDbLine
 10
-204.4573807511213
 20
-161.3919102886226
 30
0.0
 11
-182.4573807511217
 21
-161.3919102886226
 31
0.0
  0
TEXT
  5
17A39
330
18
100
AcDbEntity
  8
01
100
AcDbText
 10
-60.87729205044333
 20
-63.78624047143592
 30
0.0
 40
3.5
  1
材質：ステンレス
100
AcDbText
  0
TEXT
  5
17A3A
330
18
100
AcDbEntity
  8
01
100
AcDbText
 10
-52.47729205044333
 20
-69.61957380476926
 30
0.0
 40
3.5
  1
仕上げ：鏡面
100
AcDbText
  0
TEXT
  5
17A3D
330
18
100
AcDbEntity
  8
01
100
AcDbText
 10
-7.073860117361125
 20
-38.71366166622633
 30
0.0
 40
3.5
  1
材質：真鍮
100
AcDbText
  0
TEXT
  5
17A3E
330
18
100
AcDbEntity
  8
01
100
AcDbText
 10
-19.67386011736111
 20
-44.54699499955967
 30
0.0
 40
3.5
  1
仕上げ：クローム
100
AcDbText
  0
TEXT
  5
17A41
330
18
100
AcDbEntity
  8
01
100
AcDbText
 10
24.88153131309644
 20
-26.58808406319088
 30
0.0
 40
3.5
  1
材質：真鍮
100
AcDbText
  0
TEXT
  5
17A42
330
18
100
AcDbEntity
  8
01
100
AcDbText
 10
12.28153131309646
 20
-32.42141739652421
 30
0.0
 40
3.5
  1
仕上げ：クローム
100
AcDbText
  0
TEXT
  5
17A45
330
18
100
AcDbEntity
  8
01
100
AcDbText
 10
40.33405816053454
 20
-157.4859439660479
 30
0.0
 40
3.5
  1
材質：真鍮
100
AcDbText
  0
TEXT
  5
17A46
330
18
100
AcDbEntity
  8
01
100
AcDbText
 10
27.73405816053455
 20
-163.3192772993812
 30
0.0
 40
3.5
  1
仕上げ：クローム
100
AcDbText
  0
LINE
  5
17A49
330
18
100
AcDbEntity
  8
01
100
AcDbLine
 10
-265.9573807511217
 20
-70.872269398197
 30
0.0
 11
-265.9573807511217
 21
-61.0430719543325
 31
0.0
  0
LINE
  5
17A4A
330
18
100
AcDbEntity
  8
01
100
AcDbLine
 10
-120.9573807511217
 20
-72.09486410689035
 30
0.0
 11
-120.9573807511217
 21
-61.0430719543325
 31
0.0
  0
LINE
  5
17A4B
330
18
100
AcDbEntity
  8
01
100
AcDbLine
 10
-263.9573807511217
 20
-62.0430719543325
 30
0.0
 11
-122.9573807511217
 21
-62.0430719543325
 31
0.0
  0
LINE
  5
17A4F
330
18
100
AcDbEntity
  8
01
100
AcDbLine
 10
-173.4574429398744
 20
46.16957356316524
 30
0.0
 11
-113.3397496961495
 21
46.16957356316523
 31
0.0
  0
LINE
  5
17A50
330
18
100
AcDbEntity
  8
01
100
AcDbLine
 10
-123.9574429398744
 20
-55.60084764704534
 30
0.0
 11
-113.3397496961495
 21
-55.60084764704534
 31
0.0
  0
LINE
  5
17A51
330
18
100
AcDbEntity
  8
01
100
AcDbLine
 10
-114.3397496961495
 20
44.16957356316522
 30
0.0
 11
-114.3397496961495
 21
-53.60084764704534
 31
0.0
  0
LINE
  5
17A55
330
18
100
AcDbEntity
  8
01
100
AcDbLine
 10
-68.79540631070767
 20
-101.9402464074015
 30
0.0
 11
-68.79540631070767
 21
-53.52740271917985
 31
0.0
  0
LINE
  5
17A56
330
18
100
AcDbEntity
  8
01
100
AcDbLine
 10
49.89850262245409
 20
-76.60215275106853
 30
0.0
 11
49.89850262245409
 21
-53.52740271917985
 31
0.0
  0
LINE
  5
17A57
330
18
100
AcDbEntity
  8
01
100
AcDbLine
 10
-66.79540631070768
 20
-54.52740271917985
 30
0.0
 11
47.89850262245408
 21
-54.52740271917985
 31
0.0
  0
LINE
  5
17A5B
330
18
100
AcDbEntity
  8
01
100
AcDbLine
 10
77.85747555483635
 20
-119.8303056776071
 30
0.0
 11
85.10992198172335
 21
-119.8303056776071
 31
0.0
  0
LINE
  5
17A5C
330
18
100
AcDbEntity
  8
01
100
AcDbLine
 10
49.89849918809273
 20
-106.5560974010557
 30
0.0
 11
85.10992198172335
 21
-106.5560974010557
 31
0.0
  0
LINE
  5
17A5D
330
18
100
AcDbEntity
  8
01
100
AcDbLine
 10
84.10992198172335
 20
-117.8303056776071
 30
0.0
 11
84.10992198172335
 21
-108.5560974010557
 31
0.0
  0
LINE
  5
17A61
330
18
100
AcDbEntity
  8
01
100
AcDbLine
 10
49.89850262245409
 20
-139.830305961738
 30
0.0
 11
91.63012964640348
 21
-139.830305961738
 31
0.0
  0
LINE
  5
17A62
330
18
100
AcDbEntity
  8
01
100
AcDbLine
 10
49.89849918809273
 20
-106.5560974010557
 30
0.0
 11
91.63012964640348
 21
-106.5560974010557
 31
0.0
  0
LINE
  5
17A63
330
18
100
AcDbEntity
  8
01
100
AcDbLine
 10
90.63012964640348
 20
-137.830305961738
 30
0.0
 11
90.63012964640348
 21
-108.5560974010557
 31
0.0
  0
TEXT
  5
17A67
330
18
100
AcDbEntity
  8
01
100
AcDbText
 10
68.366881122329
 20
-69.3992572892312
 30
0.0
 40
3.5
  1
合板9mm以上
100
AcDbText
  0
TEXT
  5
17A6A
330
18
100
AcDbEntity
  8
01
100
AcDbText
 10
54.56479631049713
 20
-69.3992572892312
 30
0.0
 40
3.5
  1
PB
100
AcDbText
  0
LINE
  5
17A6D
330
18
100
AcDbEntity
  8
01
100
AcDbLine
 10
51.5597434137619
 20
-82.8375788012809
 30
0.0
 11
52.5314629771638
 21
-70.0992572892312
 31
0.0
1001
ACAD
1000
DSTYLE
1002
{
1070
    45
1040
0.5
1002
}
  0
LINE
  5
17A6E
330
18
100
AcDbEntity
  8
01
100
AcDbLine
 10
52.5314629771638
 20
-70.0992572892312
 30
0.0
 11
55.2314629771638
 21
-70.0992572892312
 31
0.0
1001
ACAD
1000
DSTYLE
1002
{
1070
    45
1040
0.5
1002
}
  0
LINE
  5
17A6F
330
18
100
AcDbEntity
  8
01
  6
ByBlock
100
AcDbLine
 10
52.09408933684735
 20
-82.8783404029248
 30
0.0
 11
51.40761904404872
 21
-84.83178495314669
 31
0.0
  0
LINE
  5
17A70
330
18
100
AcDbEntity
  8
01
  6
ByBlock
100
AcDbLine
 10
51.40761904404872
 20
-84.83178495314669
 30
0.0
 11
51.02539749067644
 21
-82.79681719963699
 31
0.0
  0
LINE
  5
17A71
330
18
100
AcDbEntity
  8
01
  6
ByBlock
100
AcDbLine
 10
51.40761904404872
 20
-84.83178495314669
 30
0.0
 11
51.5597434137619
 21
-82.8375788012809
 31
0.0
  0
LINE
  5
17A72
330
18
100
AcDbEntity
  8
01
100
AcDbLine
 10
64.69516155892709
 20
-82.8375788012809
 30
0.0
 11
65.666881122329
 21
-70.0992572892312
 31
0.0
1001
ACAD
1000
DSTYLE
1002
{
1070
    45
1040
0.5
1002
}
  0
LINE
  5
17A73
330
18
100
AcDbEntity
  8
01
100
AcDbLine
 10
65.666881122329
 20
-70.0992572892312
 30
0.0
 11
68.366881122329
 21
-70.0992572892312
 31
0.0
1001
ACAD
1000
DSTYLE
1002
{
1070
    45
1040
0.5
1002
}
  0
LINE
  5
17A74
330
18
100
AcDbEntity
  8
01
  6
ByBlock
100
AcDbLine
 10
65.22950748201255
 20
-82.8783404029248
 30
0.0
 11
64.54303718921392
 21
-84.83178495314669
 31
0.0
  0
LINE
  5
17A75
330
18
100
AcDbEntity
  8
01
  6
ByBlock
100
AcDbLine
 10
64.54303718921392
 20
-84.83178495314669
 30
0.0
 11
64.16081563584164
 21
-82.79681719963699
 31
0.0
  0
LINE
  5
17A76
330
18
100
AcDbEntity
  8
01
  6
ByBlock
100
AcDbLine
 10
64.54303718921392
 20
-84.83178495314669
 30
0.0
 11
64.69516155892709
 21
-82.8375788012809
 31
0.0
  0
TEXT
  5
17A77
330
18
100
AcDbEntity
  8
01
100
AcDbText
 10
89.93012964640348
 20
-129.0265350147302
 30
0.0
 40
3.5
  1
33.5
 50
90.0
100
AcDbText
  0
LINE
  5
17A78
330
18
100
AcDbEntity
  8
01
  6
ByBlock
100
AcDbLine
 10
90.09423126640347
 20
-108.5560974010557
 30
0.0
 11
90.63012964640348
 21
-106.5560974010557
 31
0.0
  0
LINE
  5
17A79
330
18
100
AcDbEntity
  8
01
  6
ByBlock
100
AcDbLine
 10
90.63012964640348
 20
-106.5560974010557
 30
0.0
 11
91.16602802640349
 21
-108.5560974010557
 31
0.0
  0
LINE
  5
17A7A
330
18
100
AcDbEntity
  8
01
  6
ByBlock
100
AcDbLine
 10
90.63012964640348
 20
-106.5560974010557
 30
0.0
 11
90.63012964640348
 21
-108.5560974010557
 31
0.0
  0
LINE
  5
17A7B
330
18
100
AcDbEntity
  8
01
  6
ByBlock
100
AcDbLine
 10
91.16602802640349
 20
-137.830305961738
 30
0.0
 11
90.63012964640348
 21
-139.830305961738
 31
0.0
  0
LINE
  5
17A7C
330
18
100
AcDbEntity
  8
01
  6
ByBlock
100
AcDbLine
 10
90.63012964640348
 20
-139.830305961738
 30
0.0
 11
90.09423126640347
 21
-137.830305961738
 31
0.0
  0
LINE
  5
17A7D
330
18
100
AcDbEntity
  8
01
  6
ByBlock
100
AcDbLine
 10
90.63012964640348
 20
-139.830305961738
 30
0.0
 11
90.63012964640348
 21
-137.830305961738
 31
0.0
  0
TEXT
  5
17A7E
330
18
100
AcDbEntity
  8
01
100
AcDbText
 10
83.40992198172337
 20
-116.859868205998
 30
0.0
 40
3.5
  1
14
 50
90.0
100
AcDbText
  0
LINE
  5
17A7F
330
18
100
AcDbEntity
  8
01
  6
ByBlock
100
AcDbLine
 10
83.57402360172335
 20
-108.5560974010557
 30
0.0
 11
84.10992198172335
 21
-106.5560974010557
 31
0.0
  0
LINE
  5
17A80
330
18
100
AcDbEntity
  8
01
  6
ByBlock
100
AcDbLine
 10
84.10992198172335
 20
-106.5560974010557
 30
0.0
 11
84.64582036172336
 21
-108.5560974010557
 31
0.0
  0
LINE
  5
17A81
330
18
100
AcDbEntity
  8
01
  6
ByBlock
100
AcDbLine
 10
84.10992198172335
 20
-106.5560974010557
 30
0.0
 11
84.10992198172335
 21
-108.5560974010557
 31
0.0
  0
LINE
  5
17A82
330
18
100
AcDbEntity
  8
01
  6
ByBlock
100
AcDbLine
 10
84.64582036172336
 20
-117.8303056776071
 30
0.0
 11
84.10992198172335
 21
-119.8303056776071
 31
0.0
  0
LINE
  5
17A83
330
18
100
AcDbEntity
  8
01
  6
ByBlock
100
AcDbLine
 10
84.10992198172335
 20
-119.8303056776071
 30
0.0
 11
83.57402360172335
 21
-117.8303056776071
 31
0.0
  0
LINE
  5
17A84
330
18
100
AcDbEntity
  8
01
  6
ByBlock
100
AcDbLine
 10
84.10992198172335
 20
-119.8303056776071
 30
0.0
 11
84.10992198172335
 21
-117.8303056776071
 31
0.0
  0
TEXT
  5
17A85
330
18
100
AcDbEntity
  8
01
100
AcDbText
 10
-39.56511851079346
 20
-53.82740271917985
 30
0.0
 40
3.5
  1
119 （ペーパー付き最大値）
100
AcDbText
  0
LINE
  5
17A86
330
18
100
AcDbEntity
  8
01
  6
ByBlock
100
AcDbLine
 10
47.89850262245408
 20
-53.99150433917985
 30
0.0
 11
49.89850262245409
 21
-54.52740271917985
 31
0.0
  0
LINE
  5
17A87
330
18
100
AcDbEntity
  8
01
  6
ByBlock
100
AcDbLine
 10
49.89850262245409
 20
-54.52740271917985
 30
0.0
 11
47.89850262245408
 21
-55.06330109917985
 31
0.0
  0
LINE
  5
17A88
330
18
100
AcDbEntity
  8
01
  6
ByBlock
100
AcDbLine
 10
49.89850262245409
 20
-54.52740271917985
 30
0.0
 11
47.89850262245408
 21
-54.52740271917985
 31
0.0
  0
LINE
  5
17A89
330
18
100
AcDbEntity
  8
01
  6
ByBlock
100
AcDbLine
 10
-66.79540631070768
 20
-55.06330109917985
 30
0.0
 11
-68.79540631070767
 21
-54.52740271917985
 31
0.0
  0
LINE
  5
17A8A
330
18
100
AcDbEntity
  8
01
  6
ByBlock
100
AcDbLine
 10
-68.79540631070767
 20
-54.52740271917985
 30
0.0
 11
-66.79540631070768
 21
-53.99150433917985
 31
0.0
  0
LINE
  5
17A8B
330
18
100
AcDbEntity
  8
01
  6
ByBlock
100
AcDbLine
 10
-68.79540631070767
 20
-54.52740271917985
 30
0.0
 11
-66.79540631070768
 21
-54.52740271917985
 31
0.0
  0
TEXT
  5
17A8C
330
18
100
AcDbEntity
  8
01
100
AcDbText
 10
-115.0397496961495
 20
-34.83230370860674
 30
0.0
 40
3.5
  1
102 （ペーパー無し最小値）
 50
90.0
100
AcDbText
  0
LINE
  5
17A8D
330
18
100
AcDbEntity
  8
01
  6
ByBlock
100
AcDbLine
 10
-113.8038513161495
 20
-53.60084764704534
 30
0.0
 11
-114.3397496961495
 21
-55.60084764704534
 31
0.0
  0
LINE
  5
17A8E
330
18
100
AcDbEntity
  8
01
  6
ByBlock
100
AcDbLine
 10
-114.3397496961495
 20
-55.60084764704534
 30
0.0
 11
-114.8756480761495
 21
-53.60084764704534
 31
0.0
  0
LINE
  5
17A8F
330
18
100
AcDbEntity
  8
01
  6
ByBlock
100
AcDbLine
 10
-114.3397496961495
 20
-55.60084764704534
 30
0.0
 11
-114.3397496961495
 21
-53.60084764704534
 31
0.0
  0
LINE
  5
17A90
330
18
100
AcDbEntity
  8
01
  6
ByBlock
100
AcDbLine
 10
-114.8756480761495
 20
44.16957356316522
 30
0.0
 11
-114.3397496961495
 21
46.16957356316523
 31
0.0
  0
LINE
  5
17A91
330
18
100
AcDbEntity
  8
01
  6
ByBlock
100
AcDbLine
 10
-114.3397496961495
 20
46.16957356316523
 30
0.0
 11
-113.8038513161494
 21
44.16957356316522
 31
0.0
  0
LINE
  5
17A92
330
18
100
AcDbEntity
  8
01
  6
ByBlock
100
AcDbLine
 10
-114.3397496961495
 20
46.16957356316523
 30
0.0
 11
-114.3397496961495
 21
44.16957356316522
 31
0.0
  0
TEXT
  5
17A93
330
18
100
AcDbEntity
  8
01
100
AcDbText
 10
-198.7073807511217
 20
-61.34307195433249
 30
0.0
 40
3.5
  1
145
100
AcDbText
  0
LINE
  5
17A94
330
18
100
AcDbEntity
  8
01
  6
ByBlock
100
AcDbLine
 10
-122.9573807511217
 20
-61.5071735743325
 30
0.0
 11
-120.9573807511217
 21
-62.0430719543325
 31
0.0
  0
LINE
  5
17A95
330
18
100
AcDbEntity
  8
01
  6
ByBlock
100
AcDbLine
 10
-120.9573807511217
 20
-62.0430719543325
 30
0.0
 11
-122.9573807511217
 21
-62.57897033433249
 31
0.0
  0
LINE
  5
17A96
330
18
100
AcDbEntity
  8
01
  6
ByBlock
100
AcDbLine
 10
-120.9573807511217
 20
-62.0430719543325
 30
0.0
 11
-122.9573807511217
 21
-62.0430719543325
 31
0.0
  0
LINE
  5
17A97
330
18
100
AcDbEntity
  8
01
  6
ByBlock
100
AcDbLine
 10
-263.9573807511217
 20
-62.57897033433249
 30
0.0
 11
-265.9573807511217
 21
-62.0430719543325
 31
0.0
  0
LINE
  5
17A98
330
18
100
AcDbEntity
  8
01
  6
ByBlock
100
AcDbLine
 10
-265.9573807511217
 20
-62.0430719543325
 30
0.0
 11
-263.9573807511217
 21
-61.5071735743325
 31
0.0
  0
LINE
  5
17A99
330
18
100
AcDbEntity
  8
01
  6
ByBlock
100
AcDbLine
 10
-265.9573807511217
 20
-62.0430719543325
 30
0.0
 11
-263.9573807511217
 21
-62.0430719543325
 31
0.0
  0
LINE
  5
17A9A
330
18
100
AcDbEntity
  8
01
100
AcDbLine
 10
10.20031553998139
 20
-120.6082359569948
 30
0.0
 11
20.83405816053453
 21
-164.0192772993812
 31
0.0
1001
ACAD
1000
DSTYLE
1002
{
1070
    45
1040
0.5
1002
}
  0
LINE
  5
17A9B
330
18
100
AcDbEntity
  8
01
100
AcDbLine
 10
20.83405816053453
 20
-164.0192772993812
 30
0.0
 11
23.53405816053453
 21
-164.0192772993812
 31
0.0
1001
ACAD
1000
DSTYLE
1002
{
1070
    45
1040
0.5
1002
}
  0
LINE
  5
17A9C
330
18
100
AcDbEntity
  8
01
  6
ByBlock
100
AcDbLine
 10
9.679805719649072
 20
-120.7357373319844
 30
0.0
 11
9.724473926168002
 21
-118.6656668440509
 31
0.0
  0
LINE
  5
17A9D
330
18
100
AcDbEntity
  8
01
  6
ByBlock
100
AcDbLine
 10
9.724473926168002
 20
-118.6656668440509
 30
0.0
 11
10.72082536031372
 21
-120.4807345820052
 31
0.0
  0
LINE
  5
17A9E
330
18
100
AcDbEntity
  8
01
  6
ByBlock
100
AcDbLine
 10
9.724473926168002
 20
-118.6656668440509
 30
0.0
 11
10.20031553998139
 21
-120.6082359569948
 31
0.0
  0
LINE
  5
17A9F
330
18
100
AcDbEntity
  8
01
100
AcDbLine
 10
40.79695816786489
 20
-97.80833207010815
 30
0.0
 11
47.6481979797631
 21
-33.12141739652421
 31
0.0
1001
ACAD
1000
DSTYLE
1002
{
1070
    45
1040
0.5
1002
}
  0
LINE
  5
17AA0
330
18
100
AcDbEntity
  8
01
100
AcDbLine
 10
47.6481979797631
 20
-33.12141739652421
 30
0.0
 11
44.94819797976311
 21
-33.12141739652421
 31
0.0
1001
ACAD
1000
DSTYLE
1002
{
1070
    45
1040
0.5
1002
}
  0
LINE
  5
17AA1
330
18
100
AcDbEntity
  8
01
  6
ByBlock
100
AcDbLine
 10
41.32987581735662
 20
-97.86477542708514
 30
0.0
 11
40.58630868996579
 21
-99.7972078323067
 31
0.0
  0
LINE
  5
17AA2
330
18
100
AcDbEntity
  8
01
  6
ByBlock
100
AcDbLine
 10
40.58630868996579
 20
-99.7972078323067
 30
0.0
 11
40.26404051837316
 21
-97.75188871313117
 31
0.0
  0
LINE
  5
17AA3
330
18
100
AcDbEntity
  8
01
  6
ByBlock
100
AcDbLine
 10
40.58630868996579
 20
-99.7972078323067
 30
0.0
 11
40.79695816786489
 21
-97.80833207010815
 31
0.0
  0
LINE
  5
17AA4
330
18
100
AcDbEntity
  8
01
100
AcDbLine
 10
24.27556679207295
 20
-62.77103159113781
 30
0.0
 11
15.69280654930554
 21
-45.24699499955967
 31
0.0
1001
ACAD
1000
DSTYLE
1002
{
1070
    45
1040
0.5
1002
}
  0
LINE
  5
17AA5
330
18
100
AcDbEntity
  8
01
100
AcDbLine
 10
15.69280654930554
 20
-45.24699499955967
 30
0.0
 11
12.99280654930554
 21
-45.24699499955967
 31
0.0
1001
ACAD
1000
DSTYLE
1002
{
1070
    45
1040
0.5
1002
}
  0
LINE
  5
17AA6
330
18
100
AcDbEntity
  8
01
  6
ByBlock
100
AcDbLine
 10
24.75684193054084
 20
-62.53531711390031
 30
0.0
 11
25.15526520518438
 21
-64.56717487661624
 31
0.0
  0
LINE
  5
17AA7
330
18
100
AcDbEntity
  8
01
  6
ByBlock
100
AcDbLine
 10
25.15526520518438
 20
-64.56717487661624
 30
0.0
 11
23.79429165360507
 21
-63.0067460683753
 31
0.0
  0
LINE
  5
17AA8
330
18
100
AcDbEntity
  8
01
  6
ByBlock
100
AcDbLine
 10
25.15526520518438
 20
-64.56717487661624
 30
0.0
 11
24.27556679207295
 21
-62.77103159113781
 31
0.0
  0
LINE
  5
17AA9
330
18
100
AcDbEntity
  8
01
100
AcDbLine
 10
-16.35022852169071
 20
-76.17586384613447
 30
0.0
 11
-25.51062538377669
 21
-70.31957380476926
 31
0.0
1001
ACAD
1000
DSTYLE
1002
{
1070
    45
1040
0.5
1002
}
  0
LINE
  5
17AAA
330
18
100
AcDbEntity
  8
01
100
AcDbLine
 10
-25.51062538377669
 20
-70.31957380476926
 30
0.0
 11
-28.21062538377669
 21
-70.31957380476926
 31
0.0
1001
ACAD
1000
DSTYLE
1002
{
1070
    45
1040
0.5
1002
}
  0
LINE
  5
17AAB
330
18
100
AcDbEntity
  8
01
  6
ByBlock
100
AcDbLine
 10
-16.0615730838903
 20
-75.72434960282106
 30
0.0
 11
-14.66515441001525
 21
-77.25314061566084
 31
0.0
  0
LINE
  5
17AAC
330
18
100
AcDbEntity
  8
01
  6
ByBlock
100
AcDbLine
 10
-14.66515441001525
 20
-77.25314061566084
 30
0.0
 11
-16.63888395949111
 21
-76.62737808944789
 31
0.0
  0
LINE
  5
17AAD
330
18
100
AcDbEntity
  8
01
  6
ByBlock
100
AcDbLine
 10
-14.66515441001525
 20
-77.25314061566084
 30
0.0
 11
-16.35022852169071
 21
-76.17586384613447
 31
0.0
  0
TEXT
  5
17AAE
330
18
100
AcDbEntity
  8
01
100
AcDbText
 10
-198.6240474177881
 20
-160.6919102886226
 30
0.0
 40
3.5
  1
P26
100
AcDbText
  0
LINE
  5
17AAF
330
18
100
AcDbEntity
  8
01
  6
ByBlock
100
AcDbLine
 10
-182.4573807511217
 20
-160.8560119086226
 30
0.0
 11
-180.4573807511217
 21
-161.3919102886226
 31
0.0
  0
LINE
  5
17AB0
330
18
100
AcDbEntity
  8
01
  6
ByBlock
100
AcDbLine
 10
-180.4573807511217
 20
-161.3919102886226
 30
0.0
 11
-182.4573807511217
 21
-161.9278086686226
 31
0.0
  0
LINE
  5
17AB1
330
18
100
AcDbEntity
  8
01
  6
ByBlock
100
AcDbLine
 10
-180.4573807511217
 20
-161.3919102886226
 30
0.0
 11
-182.4573807511217
 21
-161.3919102886226
 31
0.0
  0
LINE
  5
17AB2
330
18
100
AcDbEntity
  8
01
  6
ByBlock
100
AcDbLine
 10
-204.4573807511213
 20
-161.9278086686226
 30
0.0
 11
-206.4573807511213
 21
-161.3919102886226
 31
0.0
  0
LINE
  5
17AB3
330
18
100
AcDbEntity
  8
01
  6
ByBlock
100
AcDbLine
 10
-206.4573807511213
 20
-161.3919102886226
 30
0.0
 11
-204.4573807511213
 21
-160.8560119086226
 31
0.0
  0
LINE
  5
17AB4
330
18
100
AcDbEntity
  8
01
  6
ByBlock
100
AcDbLine
 10
-206.4573807511213
 20
-161.3919102886226
 30
0.0
 11
-204.4573807511213
 21
-161.3919102886226
 31
0.0
  0
TEXT
  5
17AB5
330
18
100
AcDbEntity
  8
01
100
AcDbText
 10
-196.7907762732078
 20
60.3312109110859
 30
0.0
 40
3.5
  1
40
100
AcDbText
  0
LINE
  5
17AB6
330
18
100
AcDbEntity
  8
01
  6
ByBlock
100
AcDbLine
 10
-175.4574429398744
 20
60.1671092910859
 30
0.0
 11
-173.4574429398744
 21
59.6312109110859
 31
0.0
  0
LINE
  5
17AB7
330
18
100
AcDbEntity
  8
01
  6
ByBlock
100
AcDbLine
 10
-173.4574429398744
 20
59.6312109110859
 30
0.0
 11
-175.4574429398744
 21
59.0953125310859
 31
0.0
  0
LINE
  5
17AB8
330
18
100
AcDbEntity
  8
01
  6
ByBlock
100
AcDbLine
 10
-173.4574429398744
 20
59.6312109110859
 30
0.0
 11
-175.4574429398744
 21
59.6312109110859
 31
0.0
  0
LINE
  5
17AB9
330
18
100
AcDbEntity
  8
01
  6
ByBlock
100
AcDbLine
 10
-211.4574429398745
 20
59.0953125310859
 30
0.0
 11
-213.4574429398745
 21
59.6312109110859
 31
0.0
  0
LINE
  5
17ABA
330
18
100
AcDbEntity
  8
01
  6
ByBlock
100
AcDbLine
 10
-213.4574429398745
 20
59.6312109110859
 30
0.0
 11
-211.4574429398745
 21
60.1671092910859
 31
0.0
  0
LINE
  5
17ABB
330
18
100
AcDbEntity
  8
01
  6
ByBlock
100
AcDbLine
 10
-213.4574429398745
 20
59.6312109110859
 30
0.0
 11
-211.4574429398745
 21
59.6312109110859
 31
0.0
  0
VIEWPORT
  5
57
102
{ACAD_XDICTIONARY
360
17ADC
102
}
330
15
100
AcDbEntity
 67
     1
  8
0
100
AcDbViewport
 10
10.38998316743493
 20
10.08916423592872
 30
0.0
 40
599.1872519879865
 41
268.4442887119075
 68
     1
 69
     1
 12
10.38998316743493
 22
10.08916423592872
 13
0.0
 23
0.0
 14
10.0
 24
10.0
 15
10.0
 25
10.0
 16
0.0
 26
0.0
 36
1.0
 17
0.0
 27
0.0
 37
0.0
 42
50.0
 43
0.0
 44
0.0
 45
268.4442887119075
 50
0.0
 51
0.0
 72
  1000
 90
    32800
  1

281
     0
 71
     1
 74
     0
110
0.0
120
0.0
130
0.0
111
1.0
121
0.0
131
0.0
112
0.0
122
1.0
132
0.0
 79
     0
146
0.0
  0
ENDSEC
  0
SECTION
  2
OBJECTS
  0
DICTIONARY
  5
C
330
0
100
AcDbDictionary
281
     1
  3
ACAD_CIP_PREVIOUS_PRODUCT_INFO
350
104B4
  3
ACAD_COLOR
350
18D
  3
ACAD_GROUP
350
D
  3
ACAD_LAYOUT
350
18E
  3
ACAD_MATERIAL
350
18C
  3
ACAD_MLEADERSTYLE
350
D09D
  3
ACAD_MLINESTYLE
350
1B
  3
ACAD_PLOTSETTINGS
350
18F
  3
ACAD_PLOTSTYLENAME
350
18A
  3
ACAD_SCALELIST
350
D07B
  3
ACAD_TABLESTYLE
350
27E
  3
ACAD_VISUALSTYLE
350
D06A
  3
ACDB_RECOMPOSE_DATA
350
17ADA
  3
ACDBVARIABLEDICTIONARY
350
37
  3
CONTENTDICTIONARY
350
D8
  3
DRAWINGVARIABLESDICT
350
20
  3
DWGPROPS
350
17ADB
  0
DICTIONARY
  5
D0ED
330
8
100
AcDbDictionary
280
     1
281
     1
  0
DICTIONARY
  5
D16C
330
2
100
AcDbDictionary
280
     1
281
     1
  3
ACAD_LAYERSTATES
360
D16D
  0
DICTIONARY
  5
D0B5
330
E
100
AcDbDictionary
280
     1
281
     1
  3
ADSK_XREC_LAYER_RECONCILED
360
D0B6
  0
DICTIONARY
  5
D0B9
330
31
100
AcDbDictionary
280
     1
281
     1
  3
ADSK_XREC_LAYER_RECONCILED
360
D0BA
  0
DICTIONARY
  5
D0C9
330
6A1
100
AcDbDictionary
280
     1
281
     1
  3
ADSK_XREC_LAYER_RECONCILED
360
D0CA
  0
DICTIONARY
  5
D0CB
330
6A2
100
AcDbDictionary
280
     1
281
     1
  3
ADSK_XREC_LAYER_RECONCILED
360
D0CC
  0
DICTIONARY
  5
D0CD
330
6A3
100
AcDbDictionary
280
     1
281
     1
  3
ADSK_XREC_LAYER_RECONCILED
360
D0CE
  0
DICTIONARY
  5
D0CF
330
6A4
100
AcDbDictionary
280
     1
281
     1
  3
ADSK_XREC_LAYER_RECONCILED
360
D0D0
  0
DICTIONARY
  5
88F
330
18
100
AcDbDictionary
280
     1
281
     1
  3
ACAD_SORTENTS
360
890
  0
DICTIONARY
  5
17ADC
330
57
100
AcDbDictionary
280
     1
281
     1
  3
ACAD_XREC_ROUNDTRIP
360
17ADD
  0
XRECORD
  5
104B4
102
{ACAD_REACTORS
330
C
102
}
330
C
100
AcDbXrecord
280
     1
300
ACDLT
300
2012
300
ACDLT_F_S
  0
DICTIONARY
  5
18D
102
{ACAD_REACTORS
330
C
102
}
330
C
100
AcDbDictionary
281
     1
  0
DICTIONARY
  5
D
102
{ACAD_REACTORS
330
C
102
}
330
C
100
AcDbDictionary
281
     1
  3
*A1
350
15A7B
  3
*A2
350
15A93
  0
DICTIONARY
  5
18E
102
{ACAD_REACTORS
330
C
102
}
330
C
100
AcDbDictionary
281
     1
  3
Model
350
190
  3
レイアウト1
350
191
  0
DICTIONARY
  5
18C
102
{ACAD_REACTORS
330
C
102
}
330
C
100
AcDbDictionary
281
     1
  3
ByBlock
350
D05A
  3
ByLayer
350
D052
  3
Global
350
D062
  0
DICTIONARY
  5
D09D
102
{ACAD_REACTORS
330
C
102
}
330
C
100
AcDbDictionary
281
     1
  3
Standard
350
D09E
  0
DICTIONARY
  5
1B
102
{ACAD_REACTORS
330
C
102
}
330
C
100
AcDbDictionary
281
     1
  3
STANDARD
350
1C
  0
DICTIONARY
  5
18F
102
{ACAD_REACTORS
330
C
102
}
330
C
100
AcDbDictionary
281
     1
  0
ACDBDICTIONARYWDFLT
  5
18A
102
{ACAD_REACTORS
330
C
102
}
330
C
100
AcDbDictionary
281
     1
  3
Normal
350
18B
100
AcDbDictionaryWithDefault
340
18B
  0
DICTIONARY
  5
D07B
102
{ACAD_REACTORS
330
C
102
}
330
C
100
AcDbDictionary
281
     1
  3
A0
350
D07C
  3
A1
350
D07D
  3
A2
350
D07E
  3
A3
350
D07F
  3
A4
350
D080
  3
A5
350
D081
  3
A6
350
D082
  3
A7
350
D083
  3
A8
350
D084
  3
A9
350
D085
  3
B0
350
D086
  3
B1
350
D087
  3
B2
350
D088
  3
B3
350
D089
  3
B4
350
D08A
  3
B5
350
D08B
  3
B6
350
D08C
  3
B7
350
D08D
  3
B8
350
D08E
  3
B9
350
D08F
  3
C0
350
D090
  3
C1
350
D091
  3
C2
350
D092
  3
C3
350
D093
  3
C4
350
D094
  3
C5
350
D095
  3
C6
350
D096
  3
C7
350
D097
  3
C8
350
D098
  3
C9
350
D099
  3
D0
350
D09A
  3
D1
350
D09B
  3
D2
350
D09C
  0
DICTIONARY
  5
27E
102
{ACAD_REACTORS
330
C
102
}
330
C
100
AcDbDictionary
281
     1
  3
Standard
350
27F
  0
DICTIONARY
  5
D06A
102
{ACAD_REACTORS
330
C
102
}
330
C
100
AcDbDictionary
281
     1
  3
2dWireframe
350
D070
  3
3D Hidden
350
D072
  3
3dWireframe
350
D071
  3
Basic
350
D06F
  3
Brighten
350
D076
  3
ColorChange
350
D07A
  3
Conceptual
350
D073
  3
Dim
350
D075
  3
EdgeColorOff
350
D29F
  3
Facepattern
350
D079
  3
Flat
350
D06B
  3
FlatWithEdges
350
D06C
  3
Gouraud
350
D06D
  3
GouraudWithEdges
350
D06E
  3
Hidden
350
104A8
  3
JitterOff
350
D29D
  3
Linepattern
350
D078
  3
OverhangOff
350
D29E
  3
Realistic
350
D074
  3
Shaded
350
104AD
  3
Shaded with edges
350
104AC
  3
Shades of Gray
350
104A9
  3
Sketchy
350
104AA
  3
Thicken
350
D077
  3
Wireframe
350
104A7
  3
X-Ray
350
104AB
  0
XRECORD
  5
17ADA
102
{ACAD_REACTORS
330
C
102
}
330
C
100
AcDbXrecord
280
     1
 90
        1
330
27F
  0
DICTIONARY
  5
37
102
{ACAD_REACTORS
330
C
102
}
330
C
100
AcDbDictionary
281
     1
  3
CANNOSCALE
350
D118
  3
CMLEADERSTYLE
350
D117
  3
CTABLESTYLE
350
29E
  3
DIMADEC
350
38
  3
DIMASSOC
350
1CE
  3
HIDETEXT
350
704E
  3
INDEXCTL
350
D11A
  3
INTERSECTIONCOLOR
350
7052
  3
INTERSECTIONDISPLAY
350
7051
  3
LAYEREVAL
350
110CC
  3
LAYERNOTIFY
350
110CD
  3
OBSCOLOR
350
704F
  3
OBSLTYPE
350
7050
  3
PROJECTNAME
350
1CF
  3
SORTENTS
350
D119
  3
XCLIPFRAME
350
17AD8
  0
DICTIONARY
  5
D8
102
{ACAD_REACTORS
330
C
102
}
330
C
100
AcDbDictionary
281
     1
  0
DICTIONARY
  5
20
102
{ACAD_REACTORS
330
C
102
}
330
C
100
AcDbDictionary
281
     1
1001
DRAWINGVARIABLESXDATA
1000
POLARANG
1000
0.261799387799149410000000
1000
POLARMODE
1000
1
1000
POLARSTYLE
1000
1
  0
XRECORD
  5
17ADB
102
{ACAD_REACTORS
330
C
102
}
330
C
100
AcDbXrecord
280
     1
  1
DWGPROPS COOKIE
  2

  3

  4

  6

  7

  8
3684
  9

300
=
301
=
302
=
303
=
304
=
305
=
306
=
307
=
308
=
309
=
 40
1.652612060185185
 41
2451318.621352917
 42
2457631.724888414
  1

 90
        0
  0
DICTIONARY
  5
D16D
102
{ACAD_REACTORS
330
D16C
102
}
330
D16C
100
AcDbDictionary
281
     1
  3
_LAYISO_STATE
350
17413
1001
AcLayerTools
1000
190
1000
0
  0
XRECORD
  5
D0B6
102
{ACAD_REACTORS
330
D0B5
102
}
330
D0B5
100
AcDbXrecord
280
     1
290
     1
  0
XRECORD
  5
D0BA
102
{ACAD_REACTORS
330
D0B9
102
}
330
D0B9
100
AcDbXrecord
280
     1
290
     1
  0
XRECORD
  5
D0CA
102
{ACAD_REACTORS
330
D0C9
102
}
330
D0C9
100
AcDbXrecord
280
     1
290
     1
  0
XRECORD
  5
D0CC
102
{ACAD_REACTORS
330
D0CB
102
}
330
D0CB
100
AcDbXrecord
280
     1
290
     1
  0
XRECORD
  5
D0CE
102
{ACAD_REACTORS
330
D0CD
102
}
330
D0CD
100
AcDbXrecord
280
     1
290
     1
  0
XRECORD
  5
D0D0
102
{ACAD_REACTORS
330
D0CF
102
}
330
D0CF
100
AcDbXrecord
280
     1
290
     1
  0
SORTENTSTABLE
  5
890
102
{ACAD_REACTORS
330
88F
102
}
330
88F
100
AcDbSortentsTable
330
18
331
15904
  5
15904
331
15DAA
  5
15DAB
331
15DE9
  5
15DEA
331
1590C
  5
1590C
331
15DB2
  5
15DB3
331
15DF1
  5
15DF2
331
160C8
  5
160CA
331
1637E
  5
16380
331
16460
  5
16461
331
163EA
  5
163EB
331
15DF9
  5
15DFA
331
160D0
  5
160D2
331
16107
  5
16109
331
16386
  5
16388
331
163AB
  5
163AD
331
16421
  5
16422
331
163F2
  5
163F3
331
1610F
  5
16111
331
1638E
  5
16390
331
163B3
  5
163B5
331
16468
  5
16469
331
16FF6
  5
17AA7
331
163FA
  5
163FB
331
163BB
  5
163BD
331
16431
  5
16432
331
16470
  5
16471
331
16478
  5
16479
331
16402
  5
16403
331
163C3
  5
163C5
331
16439
  5
1643A
331
17AA3
  5
17A7D
331
17AAB
  5
17A8D
331
17A35
  5
17A96
331
17A74
  5
1781E
331
17AB3
  5
17A9B
331
17A3D
  5
17A89
331
17A7C
  5
17A36
331
17ABB
  5
17AB3
331
17A45
  5
17A77
331
17A84
  5
17A44
331
160D8
  5
160DA
331
159EC
  5
159ED
331
160E0
  5
160E2
331
16396
  5
16398
331
160E8
  5
160F4
331
159FC
  5
159FD
331
158DD
  5
158DD
331
15D9B
  5
15D9C
331
1639E
  5
163A0
331
1640A
  5
1640B
331
163CB
  5
163CD
331
16441
  5
16442
331
16480
  5
16481
331
15E19
  5
15E1B
331
158E5
  5
158E5
331
15DA3
  5
15DA4
331
1626F
  5
16271
331
163A6
  5
163A8
331
16488
  5
16489
331
16412
  5
16413
331
163D3
  5
163D4
331
16449
  5
1644A
331
1641A
  5
1641B
331
163DB
  5
163DC
331
16451
  5
16452
331
163E3
  5
163E4
331
16459
  5
1645A
331
16FB7
  5
17AA2
331
17A8C
  5
17A62
331
17A94
  5
17A6C
331
17A55
  5
17A49
331
17A9C
  5
17A72
331
17A5D
  5
17A3E
331
15DAB
  5
15DAD
331
15A04
  5
15A05
331
15DEA
  5
15DEB
331
1590D
  5
1590D
331
15DB3
  5
15DB4
331
160F8
  5
160FA
331
16377
  5
16379
331
1637F
  5
16381
331
15DF2
  5
15DF3
331
15DBB
  5
15DC7
331
160C9
  5
160CB
331
163EB
  5
163EC
331
163AC
  5
163AE
331
16422
  5
16423
331
16461
  5
16462
331
15DFA
  5
15DFB
331
159E5
  5
159E6
331
160D1
  5
160D3
331
16108
  5
1610A
331
16387
  5
16389
331
163F3
  5
163F4
331
163B4
  5
163B6
331
1642A
  5
1642B
331
16469
  5
1646A
331
1638F
  5
16391
331
16FF7
  5
17AA8
331
163FB
  5
163FC
331
163BC
  5
163BE
331
16432
  5
16433
331
16471
  5
16472
331
16479
  5
1647A
331
16403
  5
16404
331
163C4
  5
163C6
331
1643A
  5
1643B
331
17AA4
  5
17A87
331
17A2E
  5
17AAC
331
17A6D
  5
16FF6
331
17AAC
  5
17A8E
331
17A75
  5
1781F
331
17AB4
  5
17A9C
331
17A3E
  5
17A8A
331
17A7D
  5
17A37
331
17A46
  5
17A78
331
17A85
  5
17A55
331
15E02
  5
15E03
331
159ED
  5
159EE
331
160D9
  5
160DB
331
16110
  5
16113
331
160E1
  5
160E3
331
16118
  5
1611A
331
159F5
  5
159F7
331
15D94
  5
15D95
331
16397
  5
16399
331
1639F
  5
163A1
331
160E9
  5
160F5
331
159FD
  5
159FE
331
15D9C
  5
15D9E
331
1640B
  5
1640C
331
163CC
  5
163CE
331
16442
  5
16443
331
16481
  5
16487
331
163A7
  5
163A9
331
15E1A
  5
15E1C
331
15DA4
  5
15DA5
331
16270
  5
162F5
331
1644A
  5
1644B
331
16489
  5
1648A
331
163D4
  5
163D5
331
16413
  5
16414
331
1641B
  5
1641C
331
163DC
  5
163DD
331
16452
  5
16453
331
163E4
  5
163E5
331
1645A
  5
1645B
331
17A8D
  5
17A5F
331
17A95
  5
17A6D
331
17A56
  5
17A4A
331
17A9D
  5
17A73
331
15A05
  5
15A79
331
15DEB
  5
15DEC
331
1590E
  5
1590E
331
15DB4
  5
15DB5
331
160F9
  5
160FB
331
16378
  5
1637A
331
15DF3
  5
15DF4
331
160CA
  5
160CD
331
16380
  5
16382
331
16FB8
  5
17AA3
331
16462
  5
16463
331
163EC
  5
163ED
331
15DFB
  5
15DFC
331
159E6
  5
159E7
331
160D2
  5
160D4
331
16109
  5
1610B
331
16388
  5
1638A
331
163AD
  5
163AF
331
16423
  5
16424
331
1646A
  5
1646B
331
163F4
  5
163F5
331
163B5
  5
163B7
331
1642B
  5
1642C
331
163FC
  5
163FD
331
163BD
  5
163BF
331
16433
  5
16434
331
16472
  5
16473
331
1647A
  5
1647B
331
163C5
  5
163C7
331
16404
  5
16405
331
1643B
  5
1643C
331
17AA5
  5
17A88
331
1781E
  5
17AB8
331
17A2F
  5
17AAD
331
17A6E
  5
16FF7
331
17AAD
  5
17A8F
331
17A76
  5
17821
331
17AB5
  5
17AB7
331
17A7E
  5
17A48
331
17A86
  5
17A52
331
15E03
  5
15E0E
331
159EE
  5
159F0
331
160DA
  5
160DD
331
16111
  5
16116
331
16390
  5
16392
331
16398
  5
1639A
331
15DD4
  5
15DD6
331
160E2
  5
160E4
331
16119
  5
1611B
331
15D95
  5
15D96
331
163A0
  5
163A2
331
15DDC
  5
15DE5
331
159FE
  5
159FF
331
15E13
  5
15E15
331
158DF
  5
158DF
331
1640C
  5
1640D
331
15DA5
  5
15DA6
331
16271
  5
16378
331
163CD
  5
163CF
331
16443
  5
16444
331
16414
  5
16415
331
163D5
  5
163D6
331
1644B
  5
1644C
331
1641C
  5
1641D
331
163DD
  5
163DE
331
16453
  5
16454
331
163E5
  5
163E6
331
1645B
  5
1645C
331
17A8E
  5
17A60
331
17A4F
  5
17A56
331
17A96
  5
17A6E
331
17A57
  5
17A4B
331
17A9E
  5
17A74
331
17A67
  5
17A2E
331
15DAD
  5
15DAE
331
16379
  5
1637B
331
15DEC
  5
15DED
331
1590F
  5
1590F
331
15DB5
  5
15DB7
331
160FA
  5
160FC
331
160CB
  5
160CE
331
15DF4
  5
15DF5
331
15937
  5
159E5
331
16381
  5
16383
331
16463
  5
16464
331
163ED
  5
163EE
331
15DFC
  5
15DFD
331
159E7
  5
159E8
331
160D3
  5
160D5
331
1610A
  5
1610C
331
16389
  5
1638B
331
163AE
  5
163B0
331
16424
  5
16425
331
1646B
  5
1646C
331
163F5
  5
163F6
331
163B6
  5
163B8
331
1642C
  5
1642D
331
163FD
  5
163FE
331
163BE
  5
163C0
331
16434
  5
16435
331
16473
  5
16474
331
1647B
  5
1647C
331
163C6
  5
163C8
331
16405
  5
16406
331
1643C
  5
1643D
331
17AA6
  5
17A84
331
1781F
  5
17AB9
331
17A6F
  5
16FF2
331
17AAE
  5
17AA0
331
17A77
  5
17A3B
331
17AB6
  5
17AB4
331
17A7F
  5
17A45
331
17A87
  5
17A53
331
160DB
  5
160DF
331
16391
  5
16393
331
16399
  5
1639B
331
160E3
  5
160E5
331
159F7
  5
159F8
331
158D8
  5
158D8
331
15D96
  5
15D97
331
163A1
  5
163A3
331
159FF
  5
15A00
331
158E0
  5
158E0
331
15D9E
  5
15D9F
331
1640D
  5
1640E
331
15DA6
  5
15DA7
331
163CE
  5
163D0
331
16444
  5
16445
331
16415
  5
16416
331
163D6
  5
163D7
331
1644C
  5
1644D
331
1641D
  5
1641E
331
163DE
  5
163DF
331
16454
  5
16455
331
163E6
  5
163E7
331
1645C
  5
1645D
331
17A8F
  5
17A61
331
17A50
  5
17A57
331
17A97
  5
17A69
331
17A9F
  5
17A7E
331
15900
  5
15900
331
15DE5
  5
15DE6
331
15DAE
  5
15DAF
331
15DED
  5
15DEE
331
160FB
  5
16105
331
1637A
  5
1637C
331
15DF5
  5
15DF6
331
15A8F
  5
15A90
331
16382
  5
16384
331
16464
  5
16465
331
163EE
  5
163EF
331
15DFD
  5
15DFE
331
160D4
  5
160D7
331
1610B
  5
1610D
331
1638A
  5
1638C
331
163AF
  5
163B1
331
16425
  5
16426
331
1646C
  5
1646D
331
163F6
  5
163F7
331
163B7
  5
163B9
331
1642D
  5
1642E
331
16FFA
  5
17AA9
331
163FE
  5
163FF
331
163BF
  5
163C1
331
16435
  5
16436
331
16474
  5
16475
331
1647C
  5
1647D
331
163C7
  5
163C9
331
16406
  5
16407
331
1643D
  5
1643E
331
17AA7
  5
17A85
331
17A70
  5
16FF4
331
17AAF
  5
17A9D
331
17A39
  5
17A92
331
17A78
  5
17A38
331
17AB7
  5
17AB5
331
17A41
  5
17A80
331
17A80
  5
17A46
331
159E8
  5
159E9
331
16113
  5
16118
331
159F0
  5
159F1
331
15D8F
  5
15D91
331
16392
  5
16394
331
1639A
  5
1639C
331
15DD6
  5
15DD8
331
160E4
  5
160E6
331
159F8
  5
159F9
331
158D9
  5
158D9
331
15D97
  5
15D98
331
163A2
  5
163A4
331
15E15
  5
15E17
331
15D9F
  5
15DA0
331
15DA7
  5
15DA8
331
1640E
  5
1640F
331
16445
  5
16446
331
16416
  5
16417
331
163D7
  5
163D8
331
1644D
  5
1644E
331
1641E
  5
1641F
331
163DF
  5
163E0
331
16455
  5
16456
331
17A49
  5
17A63
331
17A88
  5
17A54
331
163E7
  5
163E8
331
1645D
  5
1645E
331
17A90
  5
17A5C
331
17A51
  5
17A58
331
17A98
  5
17A6A
331
17A61
  5
17A2F
331
15A00
  5
15A01
331
15DE6
  5
15DE7
331
15909
  5
15909
331
15DAF
  5
15DB2
331
160F4
  5
160F8
331
160C5
  5
160C7
331
15DEE
  5
15DEF
331
15DB7
  5
15DB8
331
160FC
  5
16106
331
1637B
  5
1637D
331
160CD
  5
160D0
331
15DF6
  5
15DF7
331
15A90
  5
15A91
331
16383
  5
16385
331
163A8
  5
163AA
331
163EF
  5
163F0
331
15DFE
  5
15DFF
331
15DC7
  5
15DC8
331
160D5
  5
160D8
331
1610C
  5
1610E
331
1638B
  5
1638D
331
163B0
  5
163B2
331
16426
  5
16427
331
16465
  5
16466
331
16FF3
  5
17AA4
331
163B8
  5
163BA
331
163F7
  5
163F8
331
1642E
  5
1642F
331
1646D
  5
1646E
331
163C0
  5
163C2
331
163FF
  5
16400
331
16436
  5
16437
331
16475
  5
16476
331
17AA0
  5
17A7F
331
1647D
  5
1647E
331
16407
  5
16408
331
1643E
  5
1643F
331
17AA8
  5
17A86
331
17A71
  5
16FF5
331
17AB0
  5
17A9E
331
17A3A
  5
17A93
331
17A79
  5
17A39
331
17AB8
  5
17AB6
331
17A42
  5
17A81
331
17A81
  5
17A47
331
159E9
  5
159EA
331
160DD
  5
160E0
331
159F1
  5
159F3
331
15DCF
  5
15DD1
331
16393
  5
16395
331
1639B
  5
1639D
331
160E5
  5
160E7
331
159F9
  5
159FA
331
158DA
  5
158DA
331
15D98
  5
15D99
331
15E0E
  5
15E13
331
163A3
  5
163A5
331
15E16
  5
15E18
331
15DA0
  5
15DA1
331
163C8
  5
163CA
331
17821
  5
17ABA
331
163D0
  5
163D1
331
1640F
  5
16410
331
16446
  5
16447
331
16417
  5
16418
331
163D8
  5
163D9
331
1644E
  5
1644F
331
1641F
  5
16420
331
163E0
  5
163E1
331
16456
  5
16457
331
17A4A
  5
17A64
331
17A89
  5
17A4F
331
1645E
  5
1645F
331
17A91
  5
17A5D
331
17A99
  5
17A6B
331
17A62
  5
17A30
331
15DA8
  5
15DA9
331
15902
  5
15902
331
15A01
  5
15A02
331
15DE7
  5
15DE8
331
15A79
  5
15A7A
331
160F5
  5
160F9
331
160C6
  5
160C8
331
15DB8
  5
15DB9
331
15DEF
  5
15DF1
331
1637C
  5
1637E
331
163E8
  5
163E9
331
160CE
  5
160D1
331
15DF7
  5
15DF9
331
15A91
  5
15A92
331
16105
  5
16107
331
16384
  5
16386
331
163A9
  5
163AB
331
16466
  5
16467
331
163F0
  5
163F1
331
15DFF
  5
15E02
331
1610D
  5
1610F
331
1638C
  5
1638E
331
163B1
  5
163B3
331
16427
  5
16428
331
16FF4
  5
17AA5
331
1646E
  5
1646F
331
163F8
  5
163F9
331
163B9
  5
163BB
331
1642F
  5
16430
331
16FFC
  5
17AAA
331
16400
  5
16401
331
163C1
  5
163C3
331
16437
  5
16438
331
16476
  5
16477
331
17AA1
  5
17A7B
331
17A2B
  5
17AAB
331
17A6A
  5
16FF8
331
1647E
  5
1647F
331
1643F
  5
16440
331
17AA9
  5
17A90
331
17A33
  5
17A94
331
17A72
  5
17823
331
17AB1
  5
17A9F
331
17A7A
  5
17A3A
331
17AB9
  5
17AB1
331
17A82
  5
17A42
331
159EA
  5
159EB
331
15DC8
  5
15DC9
331
16394
  5
16396
331
15D91
  5
15D94
331
1639C
  5
1639E
331
15DD8
  5
15DD9
331
160E6
  5
160E8
331
159FA
  5
159FB
331
15D99
  5
15D9B
331
16408
  5
16409
331
163A4
  5
163A6
331
15E17
  5
15E19
331
15DA1
  5
15DA2
331
163C9
  5
163CB
331
16410
  5
16411
331
163D1
  5
163D3
331
16447
  5
16448
331
16418
  5
16419
331
163D9
  5
163DA
331
1644F
  5
16450
331
163E1
  5
163E2
331
16457
  5
16458
331
17A4B
  5
17A65
331
17A8A
  5
17A50
331
1645F
  5
16460
331
17A92
  5
17A5E
331
17A9A
  5
17A75
331
17A5B
  5
17A3C
331
17A63
  5
17A31
331
15DA9
  5
15DAA
331
15A02
  5
15A04
331
160BF
  5
160C6
331
15DE8
  5
15DE9
331
1590B
  5
1590B
331
15A7A
  5
15A8F
331
15DB9
  5
15DBB
331
160C7
  5
160C9
331
1637D
  5
1637F
331
163E9
  5
163EA
331
16106
  5
16108
331
15A92
  5
15B72
331
16385
  5
16387
331
163AA
  5
163AC
331
16420
  5
16421
331
16467
  5
16468
331
163F1
  5
163F2
331
160D7
  5
160D9
331
1610E
  5
16110
331
1638D
  5
1638F
331
163B2
  5
163B4
331
16428
  5
1642A
331
16FF5
  5
17AA6
331
163F9
  5
163FA
331
163BA
  5
163BC
331
16430
  5
16431
331
1646F
  5
16470
331
16401
  5
16402
331
163C2
  5
163C4
331
16438
  5
16439
331
16477
  5
16478
331
17AA2
  5
17A7C
331
1647F
  5
16480
331
17AAA
  5
17A91
331
17A34
  5
17A95
331
17A73
  5
17A2B
331
17AB2
  5
17A9A
331
17A7B
  5
17A35
331
17ABA
  5
17AB2
331
17A83
  5
17A43
331
159EB
  5
159EC
331
15DC9
  5
15DCF
331
15DD1
  5
15DD4
331
159F3
  5
159F5
331
160DF
  5
160E1
331
16116
  5
16119
331
16395
  5
16397
331
15DD9
  5
15DDC
331
159FB
  5
159FC
331
160E7
  5
160E9
331
158DC
  5
158DC
331
1639D
  5
1639F
331
16409
  5
1640A
331
163CA
  5
163CC
331
16440
  5
16441
331
15E18
  5
15E1A
331
158E4
  5
158E4
331
15DA2
  5
15DA3
331
163A5
  5
163A7
331
17823
  5
17ABB
331
17485
  5
1627D
331
16411
  5
16412
331
16448
  5
16449
331
16487
  5
16488
331
16419
  5
1641A
331
163DA
  5
163DB
331
16450
  5
16451
331
163E2
  5
163E3
331
16458
  5
16459
331
16FB6
  5
17AA1
331
17A8B
  5
17A51
331
17A93
  5
17A6F
331
17A9B
  5
17A76
331
17A5C
  5
17A3D
  0
XRECORD
  5
17ADD
102
{ACAD_REACTORS
330
17ADC
102
}
330
17ADC
100
AcDbXrecord
280
     1
102
SHADEPLOT
 70
     0
  0
GROUP
  5
15A7B
102
{ACAD_REACTORS
330
D
102
}
330
D
100
AcDbGroup
300

 70
     1
 71
     1
340
15A7A
340
15A79
  0
GROUP
  5
15A93
102
{ACAD_REACTORS
330
D
102
}
330
D
100
AcDbGroup
300

 70
     1
 71
     1
340
15A92
340
15A90
340
15A8F
340
15A91
  0
LAYOUT
  5
190
102
{ACAD_XDICTIONARY
360
D57C
102
}
102
{ACAD_REACTORS
330
18E
102
}
330
18E
100
AcDbPlotSettings
  1

  2
EPSON LP-9600
  4

  6

 40
0.0
 41
0.0
 42
0.0
 43
0.0
 44
0.0
 45
0.0
 46
0.0
 47
0.0
 48
0.0
 49
0.0
140
0.0
141
0.0
142
1.0
143
1.0
 70
  1712
 72
     0
 73
     0
 74
     0
  7
A3for2004.ctb
 75
     0
147
1.0
148
0.0
149
0.0
100
AcDbLayout
  1
Model
 70
     1
 71
     0
 10
0.0
 20
0.0
 11
12.0
 21
9.0
 12
0.0
 22
0.0
 32
0.0
 14
0.0
 24
0.0
 34
0.0
 15
0.0
 25
0.0
 35
0.0
146
0.0
 13
0.0
 23
0.0
 33
0.0
 16
1.0
 26
0.0
 36
0.0
 17
0.0
 27
1.0
 37
0.0
 76
     0
330
18
331
CFAB
  0
LAYOUT
  5
191
102
{ACAD_XDICTIONARY
360
D2AB
102
}
102
{ACAD_REACTORS
330
18E
102
}
330
18E
100
AcDbPlotSettings
  1

  2
RICOH imagio MP C3301 RPCS
  4
A3
  6

 40
5.873749732971191
 41
5.873748779296875
 42
5.873748779296875
 43
5.873748779296875
 44
296.9259948730469
 45
419.9466552734374
 46
0.0
 47
0.0
 48
0.0
 49
0.0
140
0.0
141
0.0
142
1.0
143
0.9996999999999999
 70
   672
 72
     1
 73
     1
 74
     1
  7
A3for2004.ctb
 75
     0
147
1.000329832832872
148
204.291049816057
149
123.1738213178939
100
AcDbLayout
  1
レイアウト1
 70
     1
 71
     1
 10
0.0
 20
0.0
 11
420.0
 21
297.0
 12
0.0
 22
0.0
 32
0.0
 14
1.000000000000000E+20
 24
1.000000000000000E+20
 34
1.000000000000000E+20
 15
-1.000000000000000E+20
 25
-1.000000000000000E+20
 35
-1.000000000000000E+20
146
0.0
 13
0.0
 23
0.0
 33
0.0
 16
1.0
 26
0.0
 36
0.0
 17
0.0
 27
1.0
 37
0.0
 76
     0
330
15
331
57
1001
ACAD_PSEXT
1000
RICOH imagio MP C3301 RPCS
1000
RICOH imagio MP C3301 RPCS
1000
172.16.4.206
1000
RPCS Driver (For Windows)
1070
     0
  0
MATERIAL
  5
D05A
102
{ACAD_XDICTIONARY
360
D05B
102
}
102
{ACAD_REACTORS
330
18C
102
}
330
18C
100
AcDbMaterial
  1
ByBlock
 72
     0
 43
0.0208333333333333
 43
0.0
 43
0.0
 43
0.0
 43
0.0
 43
0.0208333333333333
 43
0.0
 43
0.0
 43
0.0
 43
0.0
 43
1.0
 43
0.0
 43
0.0
 43
0.0
 43
0.0
 43
1.0
 77
     0
 47
0.0208333333333333
 47
0.0
 47
0.0
 47
0.0
 47
0.0
 47
0.0208333333333333
 47
0.0
 47
0.0
 47
0.0
 47
0.0
 47
1.0
 47
0.0
 47
0.0
 47
0.0
 47
0.0
 47
1.0
171
     0
 49
0.0208333333333333
 49
0.0
 49
0.0
 49
0.0
 49
0.0
 49
0.0208333333333333
 49
0.0
 49
0.0
 49
0.0
 49
0.0
 49
1.0
 49
0.0
 49
0.0
 49
0.0
 49
0.0
 49
1.0
175
     0
142
0.0208333333333333
142
0.0
142
0.0
142
0.0
142
0.0
142
0.0208333333333333
142
0.0
142
0.0
142
0.0
142
0.0
142
1.0
142
0.0
142
0.0
142
0.0
142
0.0
142
1.0
179
     0
144
0.0208333333333333
144
0.0
144
0.0
144
0.0
144
0.0
144
0.0208333333333333
144
0.0
144
0.0
144
0.0
144
0.0
144
1.0
144
0.0
144
0.0
144
0.0
144
0.0
144
1.0
147
0.0208333333333333
147
0.0
147
0.0
147
0.0
147
0.0
147
0.0208333333333333
147
0.0
147
0.0
147
0.0
147
0.0
147
1.0
147
0.0
147
0.0
147
0.0
147
0.0
147
1.0
  0
MATERIAL
  5
D052
102
{ACAD_XDICTIONARY
360
D053
102
}
102
{ACAD_REACTORS
330
18C
102
}
330
18C
100
AcDbMaterial
  1
ByLayer
 72
     0
 43
0.0208333333333333
 43
0.0
 43
0.0
 43
0.0
 43
0.0
 43
0.0208333333333333
 43
0.0
 43
0.0
 43
0.0
 43
0.0
 43
1.0
 43
0.0
 43
0.0
 43
0.0
 43
0.0
 43
1.0
 77
     0
 47
0.0208333333333333
 47
0.0
 47
0.0
 47
0.0
 47
0.0
 47
0.0208333333333333
 47
0.0
 47
0.0
 47
0.0
 47
0.0
 47
1.0
 47
0.0
 47
0.0
 47
0.0
 47
0.0
 47
1.0
171
     0
 49
0.0208333333333333
 49
0.0
 49
0.0
 49
0.0
 49
0.0
 49
0.0208333333333333
 49
0.0
 49
0.0
 49
0.0
 49
0.0
 49
1.0
 49
0.0
 49
0.0
 49
0.0
 49
0.0
 49
1.0
175
     0
142
0.0208333333333333
142
0.0
142
0.0
142
0.0
142
0.0
142
0.0208333333333333
142
0.0
142
0.0
142
0.0
142
0.0
142
1.0
142
0.0
142
0.0
142
0.0
142
0.0
142
1.0
179
     0
144
0.0208333333333333
144
0.0
144
0.0
144
0.0
144
0.0
144
0.0208333333333333
144
0.0
144
0.0
144
0.0
144
0.0
144
1.0
144
0.0
144
0.0
144
0.0
144
0.0
144
1.0
147
0.0208333333333333
147
0.0
147
0.0
147
0.0
147
0.0
147
0.0208333333333333
147
0.0
147
0.0
147
0.0
147
0.0
147
1.0
147
0.0
147
0.0
147
0.0
147
0.0
147
1.0
  0
MATERIAL
  5
D062
102
{ACAD_XDICTIONARY
360
D063
102
}
102
{ACAD_REACTORS
330
18C
102
}
330
18C
100
AcDbMaterial
  1
Global
 72
     0
 43
0.0208333333333333
 43
0.0
 43
0.0
 43
0.0
 43
0.0
 43
0.0208333333333333
 43
0.0
 43
0.0
 43
0.0
 43
0.0
 43
1.0
 43
0.0
 43
0.0
 43
0.0
 43
0.0
 43
1.0
 77
     0
 47
0.0208333333333333
 47
0.0
 47
0.0
 47
0.0
 47
0.0
 47
0.0208333333333333
 47
0.0
 47
0.0
 47
0.0
 47
0.0
 47
1.0
 47
0.0
 47
0.0
 47
0.0
 47
0.0
 47
1.0
171
     0
 49
0.0208333333333333
 49
0.0
 49
0.0
 49
0.0
 49
0.0
 49
0.0208333333333333
 49
0.0
 49
0.0
 49
0.0
 49
0.0
 49
1.0
 49
0.0
 49
0.0
 49
0.0
 49
0.0
 49
1.0
175
     0
142
0.0208333333333333
142
0.0
142
0.0
142
0.0
142
0.0
142
0.0208333333333333
142
0.0
142
0.0
142
0.0
142
0.0
142
1.0
142
0.0
142
0.0
142
0.0
142
0.0
142
1.0
179
     0
144
0.0208333333333333
144
0.0
144
0.0
144
0.0
144
0.0
144
0.0208333333333333
144
0.0
144
0.0
144
0.0
144
0.0
144
1.0
144
0.0
144
0.0
144
0.0
144
0.0
144
1.0
147
0.0208333333333333
147
0.0
147
0.0
147
0.0
147
0.0
147
0.0208333333333333
147
0.0
147
0.0
147
0.0
147
0.0
147
1.0
147
0.0
147
0.0
147
0.0
147
0.0
147
1.0
  0
MLEADERSTYLE
  5
D09E
102
{ACAD_REACTORS
330
D09D
102
}
330
D09D
100
AcDbMLeaderStyle
170
     2
171
     1
172
     0
 90
        2
 40
0.0
 41
0.0
173
     1
 91
-1056964608
340
12
 92
       -2
290
     1
 42
2.0
291
     1
 43
0.36
  3
Standard
 44
4.0
300

342
F
174
     1
178
     6
175
     1
176
     0
 93
-1056964608
 45
4.0
292
     0
297
     0
 46
4.0
 94
-1056964608
 47
1.0
 49
1.0
140
1.0
293
     1
141
0.0
294
     1
177
     0
142
1.0
295
     0
296
     0
143
0.125
1001
ACAD_MLEADERVER
1070
     2
  0
MLINESTYLE
  5
1C
102
{ACAD_REACTORS
330
1B
102
}
330
1B
100
AcDbMlineStyle
  2
STANDARD
 70
     0
  3

 62
   256
 51
90.0
 52
90.0
 71
     2
 49
0.5
 62
   256
  6
BYLAYER
 49
-0.5
 62
   256
  6
BYLAYER
  0
ACDBPLACEHOLDER
  5
18B
102
{ACAD_REACTORS
330
18A
102
}
330
18A
  0
SCALE
  5
D07C
102
{ACAD_REACTORS
330
D07B
102
}
330
D07B
100
AcDbScale
 70
     0
300
1:1
140
1.0
141
1.0
290
     1
  0
SCALE
  5
D07D
102
{ACAD_REACTORS
330
D07B
102
}
330
D07B
100
AcDbScale
 70
     0
300
1:2
140
1.0
141
2.0
290
     0
  0
SCALE
  5
D07E
102
{ACAD_REACTORS
330
D07B
102
}
330
D07B
100
AcDbScale
 70
     0
300
1:4
140
1.0
141
4.0
290
     0
  0
SCALE
  5
D07F
102
{ACAD_REACTORS
330
D07B
102
}
330
D07B
100
AcDbScale
 70
     0
300
1:5
140
1.0
141
5.0
290
     0
  0
SCALE
  5
D080
102
{ACAD_REACTORS
330
D07B
102
}
330
D07B
100
AcDbScale
 70
     0
300
1:8
140
1.0
141
8.0
290
     0
  0
SCALE
  5
D081
102
{ACAD_REACTORS
330
D07B
102
}
330
D07B
100
AcDbScale
 70
     0
300
1:10
140
1.0
141
10.0
290
     0
  0
SCALE
  5
D082
102
{ACAD_REACTORS
330
D07B
102
}
330
D07B
100
AcDbScale
 70
     0
300
1:16
140
1.0
141
16.0
290
     0
  0
SCALE
  5
D083
102
{ACAD_REACTORS
330
D07B
102
}
330
D07B
100
AcDbScale
 70
     0
300
1:20
140
1.0
141
20.0
290
     0
  0
SCALE
  5
D084
102
{ACAD_REACTORS
330
D07B
102
}
330
D07B
100
AcDbScale
 70
     0
300
1:30
140
1.0
141
30.0
290
     0
  0
SCALE
  5
D085
102
{ACAD_REACTORS
330
D07B
102
}
330
D07B
100
AcDbScale
 70
     0
300
1:40
140
1.0
141
40.0
290
     0
  0
SCALE
  5
D086
102
{ACAD_REACTORS
330
D07B
102
}
330
D07B
100
AcDbScale
 70
     0
300
1:50
140
1.0
141
50.0
290
     0
  0
SCALE
  5
D087
102
{ACAD_REACTORS
330
D07B
102
}
330
D07B
100
AcDbScale
 70
     0
300
1:100
140
1.0
141
100.0
290
     0
  0
SCALE
  5
D088
102
{ACAD_REACTORS
330
D07B
102
}
330
D07B
100
AcDbScale
 70
     0
300
2:1
140
2.0
141
1.0
290
     0
  0
SCALE
  5
D089
102
{ACAD_REACTORS
330
D07B
102
}
330
D07B
100
AcDbScale
 70
     0
300
4:1
140
4.0
141
1.0
290
     0
  0
SCALE
  5
D08A
102
{ACAD_REACTORS
330
D07B
102
}
330
D07B
100
AcDbScale
 70
     0
300
8:1
140
8.0
141
1.0
290
     0
  0
SCALE
  5
D08B
102
{ACAD_REACTORS
330
D07B
102
}
330
D07B
100
AcDbScale
 70
     0
300
10:1
140
10.0
141
1.0
290
     0
  0
SCALE
  5
D08C
102
{ACAD_REACTORS
330
D07B
102
}
330
D07B
100
AcDbScale
 70
     0
300
100:1
140
100.0
141
1.0
290
     0
  0
SCALE
  5
D08D
102
{ACAD_REACTORS
330
D07B
102
}
330
D07B
100
AcDbScale
 70
     0
300
1/128" = 1'-0"
140
0.0078125
141
12.0
290
     0
  0
SCALE
  5
D08E
102
{ACAD_REACTORS
330
D07B
102
}
330
D07B
100
AcDbScale
 70
     0
300
1/64" = 1'-0"
140
0.015625
141
12.0
290
     0
  0
SCALE
  5
D08F
102
{ACAD_REACTORS
330
D07B
102
}
330
D07B
100
AcDbScale
 70
     0
300
1/32" = 1'-0"
140
0.03125
141
12.0
290
     0
  0
SCALE
  5
D090
102
{ACAD_REACTORS
330
D07B
102
}
330
D07B
100
AcDbScale
 70
     0
300
1/16" = 1'-0"
140
0.0625
141
12.0
290
     0
  0
SCALE
  5
D091
102
{ACAD_REACTORS
330
D07B
102
}
330
D07B
100
AcDbScale
 70
     0
300
3/32" = 1'-0"
140
0.09375
141
12.0
290
     0
  0
SCALE
  5
D092
102
{ACAD_REACTORS
330
D07B
102
}
330
D07B
100
AcDbScale
 70
     0
300
1/8" = 1'-0"
140
0.125
141
12.0
290
     0
  0
SCALE
  5
D093
102
{ACAD_REACTORS
330
D07B
102
}
330
D07B
100
AcDbScale
 70
     0
300
3/16" = 1'-0"
140
0.1875
141
12.0
290
     0
  0
SCALE
  5
D094
102
{ACAD_REACTORS
330
D07B
102
}
330
D07B
100
AcDbScale
 70
     0
300
1/4" = 1'-0"
140
0.25
141
12.0
290
     0
  0
SCALE
  5
D095
102
{ACAD_REACTORS
330
D07B
102
}
330
D07B
100
AcDbScale
 70
     0
300
3/8" = 1'-0"
140
0.375
141
12.0
290
     0
  0
SCALE
  5
D096
102
{ACAD_REACTORS
330
D07B
102
}
330
D07B
100
AcDbScale
 70
     0
300
1/2" = 1'-0"
140
0.5
141
12.0
290
     0
  0
SCALE
  5
D097
102
{ACAD_REACTORS
330
D07B
102
}
330
D07B
100
AcDbScale
 70
     0
300
3/4" = 1'-0"
140
0.75
141
12.0
290
     0
  0
SCALE
  5
D098
102
{ACAD_REACTORS
330
D07B
102
}
330
D07B
100
AcDbScale
 70
     0
300
1" = 1'-0"
140
1.0
141
12.0
290
     0
  0
SCALE
  5
D099
102
{ACAD_REACTORS
330
D07B
102
}
330
D07B
100
AcDbScale
 70
     0
300
1-1/2" = 1'-0"
140
1.5
141
12.0
290
     0
  0
SCALE
  5
D09A
102
{ACAD_REACTORS
330
D07B
102
}
330
D07B
100
AcDbScale
 70
     0
300
3" = 1'-0"
140
3.0
141
12.0
290
     0
  0
SCALE
  5
D09B
102
{ACAD_REACTORS
330
D07B
102
}
330
D07B
100
AcDbScale
 70
     0
300
6" = 1'-0"
140
6.0
141
12.0
290
     0
  0
SCALE
  5
D09C
102
{ACAD_REACTORS
330
D07B
102
}
330
D07B
100
AcDbScale
 70
     0
300
1'-0" = 1'-0"
140
12.0
141
12.0
290
     0
  0
TABLESTYLE
  5
27F
102
{ACAD_XDICTIONARY
360
D0E9
102
}
102
{ACAD_REACTORS
330
27E
102
}
330
27E
100
AcDbTableStyle
  3
Standard
 70
     0
 71
     0
 40
1.5
 41
1.5
280
     0
281
     0
  7
STANDARD
140
4.5
170
     2
 62
     0
 63
     7
283
     0
274
    -2
284
     1
 64
     0
275
    -2
285
     1
 65
     0
276
    -2
286
     1
 66
     0
277
    -2
287
     1
 67
     0
278
    -2
288
     1
 68
     0
279
    -2
289
     1
 69
     0
  7
STANDARD
140
6.0
170
     5
 62
     0
 63
     7
283
     0
274
    -2
284
     1
 64
     0
275
    -2
285
     1
 65
     0
276
    -2
286
     1
 66
     0
277
    -2
287
     1
 67
     0
278
    -2
288
     1
 68
     0
279
    -2
289
     1
 69
     0
  7
STANDARD
140
4.5
170
     5
 62
     0
 63
     7
283
     0
274
    -2
284
     1
 64
     0
275
    -2
285
     1
 65
     0
276
    -2
286
     1
 66
     0
277
    -2
287
     1
 67
     0
278
    -2
288
     1
 68
     0
279
    -2
289
     1
 69
     0
  0
VISUALSTYLE
  5
D070
102
{ACAD_XDICTIONARY
360
179AE
102
}
102
{ACAD_REACTORS
330
D06A
102
}
330
D06A
100
AcDbVisualStyle
  2
2dWireframe
 70
     4
 71
     0
 72
     2
 73
     0
 90
        0
 40
-0.6
 41
-30.0
 62
     5
 63
     7
 74
     1
 91
        4
 64
     7
 65
   257
 75
     1
175
     1
 42
1.0
 92
        0
 66
   257
 43
1.0
 76
     1
 77
     6
 78
     2
 67
     7
 79
     5
170
     0
171
     0
290
     0
174
     0
 93
        1
 44
0.0
173
     0
291
     0
 45
0.0
1001
ACAD
1000
AcDbSavedByObjectVersion
1070
     0
  0
VISUALSTYLE
  5
D072
102
{ACAD_XDICTIONARY
360
179B2
102
}
102
{ACAD_REACTORS
330
D06A
102
}
330
D06A
100
AcDbVisualStyle
  2
3D Hidden
 70
     6
 71
     1
 72
     2
 73
     2
 90
        0
 40
-0.6
 41
-30.0
 62
     5
 63
     7
 74
     2
 91
        2
 64
     7
 65
   257
 75
     2
175
     1
 42
40.0
 92
        0
 66
   257
 43
1.0
 76
     1
 77
     6
 78
     2
 67
     7
 79
     3
170
     0
171
     0
290
     0
174
     0
 93
        1
 44
0.0
173
     0
291
     0
 45
0.0
1001
ACAD
1000
AcDbSavedByObjectVersion
1070
     0
  0
VISUALSTYLE
  5
D071
102
{ACAD_XDICTIONARY
360
179B0
102
}
102
{ACAD_REACTORS
330
D06A
102
}
330
D06A
100
AcDbVisualStyle
  2
3dWireframe
 70
     5
 71
     0
 72
     2
 73
     0
 90
        0
 40
-0.6
 41
-30.0
 62
     5
 63
     7
 74
     1
 91
        4
 64
     7
 65
   257
 75
     1
175
     1
 42
1.0
 92
        0
 66
   257
 43
1.0
 76
     1
 77
     6
 78
     2
 67
     7
 79
     5
170
     0
171
     0
290
     0
174
     0
 93
        1
 44
0.0
173
     0
291
     0
 45
0.0
1001
ACAD
1000
AcDbSavedByObjectVersion
1070
     0
  0
VISUALSTYLE
  5
D06F
102
{ACAD_XDICTIONARY
360
179AC
102
}
102
{ACAD_REACTORS
330
D06A
102
}
330
D06A
100
AcDbVisualStyle
  2
Basic
 70
     7
 71
     1
 72
     0
 73
     1
 90
        0
 40
-0.6
 41
-30.0
 62
     5
 63
     7
 74
     0
 91
        4
 64
     7
 65
   257
 75
     1
175
     1
 42
1.0
 92
        8
 66
     7
 43
1.0
 76
     1
 77
     6
 78
     2
 67
     7
 79
     5
170
     0
171
     0
290
     0
174
     0
 93
        1
 44
0.0
173
     0
291
     1
 45
0.0
1001
ACAD
1000
AcDbSavedByObjectVersion
1070
     0
  0
VISUALSTYLE
  5
D076
102
{ACAD_XDICTIONARY
360
179BA
102
}
102
{ACAD_REACTORS
330
D06A
102
}
330
D06A
100
AcDbVisualStyle
  2
Brighten
 70
    12
 71
     2
 72
     2
 73
     0
 90
        0
 40
-0.6
 41
-30.0
 62
     5
 63
     7
 74
     1
 91
        4
 64
     7
 65
   257
 75
     1
175
     1
 42
1.0
 92
        8
 66
     7
 43
1.0
 76
     1
 77
     6
 78
     2
 67
     7
 79
     5
170
     0
171
     0
290
     0
174
     0
 93
        1
 44
50.0
173
     0
291
     1
 45
0.0
1001
ACAD
1000
AcDbSavedByObjectVersion
1070
     0
  0
VISUALSTYLE
  5
D07A
102
{ACAD_XDICTIONARY
360
179C2
102
}
102
{ACAD_REACTORS
330
D06A
102
}
330
D06A
100
AcDbVisualStyle
  2
ColorChange
 70
    16
 71
     2
 72
     2
 73
     3
 90
        0
 40
-0.6
 41
-30.0
 62
     5
 63
     8
 74
     1
 91
        4
 64
     7
 65
   257
 75
     1
175
     1
 42
1.0
 92
        8
 66
     8
 43
1.0
 76
     1
 77
     6
 78
     2
 67
     7
 79
     5
170
     0
171
     0
290
     0
174
     0
 93
        1
 44
0.0
173
     0
291
     1
 45
0.0
1001
ACAD
1000
AcDbSavedByObjectVersion
1070
     0
  0
VISUALSTYLE
  5
D073
102
{ACAD_XDICTIONARY
360
179B4
102
}
102
{ACAD_REACTORS
330
D06A
102
}
330
D06A
100
AcDbVisualStyle
  2
Conceptual
 70
     9
 71
     3
 72
     2
 73
     0
 90
        0
 40
-0.6
 41
-30.0
 62
     5
 63
     7
 74
     2
 91
        2
 64
     7
 65
   257
 75
     1
175
     1
 42
40.0
 92
        8
 66
     7
 43
1.0
 76
     1
 77
     6
 78
     2
 67
     7
 79
     3
170
     0
171
     0
290
     0
174
     0
 93
        1
 44
0.0
173
     0
291
     0
 45
0.0
1001
ACAD
1000
AcDbSavedByObjectVersion
1070
     0
  0
VISUALSTYLE
  5
D075
102
{ACAD_XDICTIONARY
360
179B8
102
}
102
{ACAD_REACTORS
330
D06A
102
}
330
D06A
100
AcDbVisualStyle
  2
Dim
 70
    11
 71
     2
 72
     2
 73
     0
 90
        0
 40
-0.6
 41
-30.0
 62
     5
 63
     7
 74
     1
 91
        4
 64
     7
 65
   257
 75
     1
175
     1
 42
1.0
 92
        8
 66
     7
 43
1.0
 76
     1
 77
     6
 78
     2
 67
     7
 79
     5
170
     0
171
     0
290
     0
174
     0
 93
        1
 44
-50.0
173
     0
291
     1
 45
0.0
1001
ACAD
1000
AcDbSavedByObjectVersion
1070
     0
  0
VISUALSTYLE
  5
D29F
102
{ACAD_XDICTIONARY
360
179C8
102
}
102
{ACAD_REACTORS
330
D06A
102
}
330
D06A
100
AcDbVisualStyle
  2
EdgeColorOff
 70
    22
 71
     2
 72
     2
 73
     0
 90
        0
 40
-0.6
 41
-30.0
 62
     5
 63
     7
 74
     1
 91
        4
 64
     7
 65
   257
 75
     1
175
     1
 42
1.0
 92
        8
 66
     7
 43
1.0
 76
     1
 77
     6
 78
     2
 67
     7
 79
     5
170
     0
171
     0
290
     0
174
     0
 93
        1
 44
0.0
173
     0
291
     1
 45
0.0
1001
ACAD
1000
AcDbSavedByObjectVersion
1070
     0
  0
VISUALSTYLE
  5
D079
102
{ACAD_XDICTIONARY
360
179C0
102
}
102
{ACAD_REACTORS
330
D06A
102
}
330
D06A
100
AcDbVisualStyle
  2
Facepattern
 70
    15
 71
     2
 72
     2
 73
     0
 90
        0
 40
-0.6
 41
-30.0
 62
     5
 63
     7
 74
     1
 91
        4
 64
     7
 65
   257
 75
     1
175
     1
 42
1.0
 92
        8
 66
     7
 43
1.0
 76
     1
 77
     6
 78
     2
 67
     7
 79
     5
170
     0
171
     0
290
     0
174
     0
 93
        1
 44
0.0
173
     0
291
     1
 45
0.0
1001
ACAD
1000
AcDbSavedByObjectVersion
1070
     0
  0
VISUALSTYLE
  5
D06B
102
{ACAD_XDICTIONARY
360
179A4
102
}
102
{ACAD_REACTORS
330
D06A
102
}
330
D06A
100
AcDbVisualStyle
  2
Flat
 70
     0
 71
     2
 72
     1
 73
     1
 90
        2
 40
-0.6
 41
30.0
 62
     5
 63
     7
 74
     0
 91
        4
 64
     7
 65
   257
 75
     1
175
     1
 42
1.0
 92
        8
 66
     7
 43
1.0
 76
     1
 77
     6
 78
     2
 67
     7
 79
     5
170
     0
171
     0
290
     0
174
     0
 93
       13
 44
0.0
173
     0
291
     1
 45
0.0
1001
ACAD
1000
AcDbSavedByObjectVersion
1070
     0
  0
VISUALSTYLE
  5
D06C
102
{ACAD_XDICTIONARY
360
179A6
102
}
102
{ACAD_REACTORS
330
D06A
102
}
330
D06A
100
AcDbVisualStyle
  2
FlatWithEdges
 70
     1
 71
     2
 72
     1
 73
     1
 90
        2
 40
-0.6
 41
30.0
 62
     5
 63
     7
 74
     1
 91
        4
 64
     7
 65
   257
 75
     1
175
     1
 42
1.0
 92
        0
 66
   257
 43
1.0
 76
     1
 77
     6
 78
     2
 67
     7
 79
     5
170
     0
171
     0
290
     0
174
     0
 93
       13
 44
0.0
173
     0
291
     1
 45
0.0
1001
ACAD
1000
AcDbSavedByObjectVersion
1070
     0
  0
VISUALSTYLE
  5
D06D
102
{ACAD_XDICTIONARY
360
179A8
102
}
102
{ACAD_REACTORS
330
D06A
102
}
330
D06A
100
AcDbVisualStyle
  2
Gouraud
 70
     2
 71
     2
 72
     2
 73
     1
 90
        2
 40
-0.6
 41
30.0
 62
     5
 63
     7
 74
     0
 91
        4
 64
     7
 65
   257
 75
     1
175
     1
 42
1.0
 92
        0
 66
     7
 43
1.0
 76
     1
 77
     6
 78
     2
 67
     7
 79
     5
170
     0
171
     0
290
     0
174
     0
 93
       13
 44
0.0
173
     0
291
     1
 45
0.0
1001
ACAD
1000
AcDbSavedByObjectVersion
1070
     0
  0
VISUALSTYLE
  5
D06E
102
{ACAD_XDICTIONARY
360
179AA
102
}
102
{ACAD_REACTORS
330
D06A
102
}
330
D06A
100
AcDbVisualStyle
  2
GouraudWithEdges
 70
     3
 71
     2
 72
     2
 73
     1
 90
        2
 40
-0.6
 41
30.0
 62
     5
 63
     7
 74
     1
 91
        4
 64
     7
 65
   257
 75
     1
175
     1
 42
1.0
 92
        0
 66
   257
 43
1.0
 76
     1
 77
     6
 78
     2
 67
     7
 79
     5
170
     0
171
     0
290
     0
174
     0
 93
       13
 44
0.0
173
     0
291
     1
 45
0.0
1001
ACAD
1000
AcDbSavedByObjectVersion
1070
     0
  0
VISUALSTYLE
  5
104A8
102
{ACAD_XDICTIONARY
360
179CC
102
}
102
{ACAD_REACTORS
330
D06A
102
}
330
D06A
100
AcDbVisualStyle
  2
Hidden
 70
     6
 71
     1
 72
     2
 73
     2
 90
        0
 40
-0.6
 41
-30.0
 62
     5
 63
     7
 74
     2
 91
        2
 64
     7
 65
   257
 75
     2
175
     1
 42
40.0
 92
        0
 66
   257
 43
1.0
 76
     1
 77
     6
 78
     2
 67
     7
 79
     3
170
     0
171
     0
290
     0
174
     0
 93
        1
 44
0.0
173
     0
291
     0
 45
0.0
1001
ACAD
1000
AcDbSavedByObjectVersion
1070
     0
  0
VISUALSTYLE
  5
D29D
102
{ACAD_XDICTIONARY
360
179C4
102
}
102
{ACAD_REACTORS
330
D06A
102
}
330
D06A
100
AcDbVisualStyle
  2
JitterOff
 70
    20
 71
     2
 72
     2
 73
     0
 90
        0
 40
-0.6
 41
-30.0
 62
     5
 63
     7
 74
     1
 91
        4
 64
     7
 65
   257
 75
     1
175
     1
 42
1.0
 92
       10
 66
     7
 43
1.0
 76
     1
 77
     6
 78
     2
 67
     7
 79
     5
170
     0
171
     0
290
     0
174
     0
 93
        1
 44
0.0
173
     0
291
     1
 45
0.0
1001
ACAD
1000
AcDbSavedByObjectVersion
1070
     0
  0
VISUALSTYLE
  5
D078
102
{ACAD_XDICTIONARY
360
179BE
102
}
102
{ACAD_REACTORS
330
D06A
102
}
330
D06A
100
AcDbVisualStyle
  2
Linepattern
 70
    14
 71
     2
 72
     2
 73
     0
 90
        0
 40
-0.6
 41
-30.0
 62
     5
 63
     7
 74
     1
 91
        4
 64
     7
 65
   257
 75
     7
175
     7
 42
1.0
 92
        8
 66
     7
 43
1.0
 76
     1
 77
     6
 78
     2
 67
     7
 79
     5
170
     0
171
     0
290
     0
174
     0
 93
        1
 44
0.0
173
     0
291
     1
 45
0.0
1001
ACAD
1000
AcDbSavedByObjectVersion
1070
     0
  0
VISUALSTYLE
  5
D29E
102
{ACAD_XDICTIONARY
360
179C6
102
}
102
{ACAD_REACTORS
330
D06A
102
}
330
D06A
100
AcDbVisualStyle
  2
OverhangOff
 70
    21
 71
     2
 72
     2
 73
     0
 90
        0
 40
-0.6
 41
-30.0
 62
     5
 63
     7
 74
     1
 91
        4
 64
     7
 65
   257
 75
     1
175
     1
 42
1.0
 92
        9
 66
     7
 43
1.0
 76
     1
 77
     6
 78
     2
 67
     7
 79
     5
170
     0
171
     0
290
     0
174
     0
 93
        1
 44
0.0
173
     0
291
     1
 45
0.0
1001
ACAD
1000
AcDbSavedByObjectVersion
1070
     0
  0
VISUALSTYLE
  5
D074
102
{ACAD_XDICTIONARY
360
179B6
102
}
102
{ACAD_REACTORS
330
D06A
102
}
330
D06A
100
AcDbVisualStyle
  2
Realistic
 70
     8
 71
     2
 72
     2
 73
     0
 90
        0
 40
-0.6
 41
-30.0
 62
     5
 63
     7
 74
     1
 91
        0
 64
     7
 65
   257
 75
     1
175
     1
 42
1.0
 92
        8
 66
     8
 43
1.0
 76
     1
 77
     6
 78
     2
 67
     7
 79
     5
170
     0
171
     0
290
     0
174
     0
 93
       13
 44
0.0
173
     0
291
     0
 45
0.0
1001
ACAD
1000
AcDbSavedByObjectVersion
1070
     0
  0
VISUALSTYLE
  5
104AD
102
{ACAD_XDICTIONARY
360
179D6
102
}
102
{ACAD_REACTORS
330
D06A
102
}
330
D06A
100
AcDbVisualStyle
  2
Shaded
 70
    27
 71
     2
 72
     2
 73
     1
 90
        2
 40
-0.6
 41
30.0
 62
     5
 63
     7
 74
     0
 91
        4
 64
     7
 65
   257
 75
     1
175
     1
 42
1.0
 92
        8
 66
   257
 43
1.0
 76
     1
 77
     6
 78
     2
 67
     8
 79
     3
170
     0
171
     0
290
     0
174
     0
 93
        5
 44
0.0
173
     0
291
     0
 45
0.0
1001
ACAD
1000
AcDbSavedByObjectVersion
1070
     0
  0
VISUALSTYLE
  5
104AC
102
{ACAD_XDICTIONARY
360
179D4
102
}
102
{ACAD_REACTORS
330
D06A
102
}
330
D06A
100
AcDbVisualStyle
  2
Shaded with edges
 70
    26
 71
     2
 72
     2
 73
     1
 90
        2
 40
-0.6
 41
30.0
 62
     5
 63
     7
 74
     1
 91
       10
 64
     7
 65
   257
 75
     2
175
     1
 42
1.0
 92
        8
 66
   257
 43
1.0
 76
     1
 77
     6
 78
     2
 67
     7
 79
     3
170
     0
171
     0
290
     0
174
     0
 93
        5
 44
0.0
173
     0
291
     0
 45
0.0
1001
ACAD
1000
AcDbSavedByObjectVersion
1070
     0
  0
VISUALSTYLE
  5
104A9
102
{ACAD_XDICTIONARY
360
179CE
102
}
102
{ACAD_REACTORS
330
D06A
102
}
330
D06A
100
AcDbVisualStyle
  2
Shades of Gray
 70
    23
 71
     2
 72
     2
 73
     3
 90
        0
 40
-0.6
 41
-30.0
 62
     5
 63
     7
 74
     2
 91
        2
 64
     7
 65
     7
 75
     1
175
     1
 42
40.0
 92
        8
 66
     7
 43
1.0
 76
     1
 77
     6
 78
     2
 67
     7
 79
     3
170
     0
171
     0
290
     0
174
     0
 93
        1
 44
0.0
173
     0
291
     0
 45
0.0
1001
ACAD
1000
AcDbSavedByObjectVersion
1070
     0
  0
VISUALSTYLE
  5
104AA
102
{ACAD_XDICTIONARY
360
179D0
102
}
102
{ACAD_REACTORS
330
D06A
102
}
330
D06A
100
AcDbVisualStyle
  2
Sketchy
 70
    24
 71
     1
 72
     2
 73
     2
 90
        0
 40
-0.6
 41
-30.0
 62
     5
 63
     7
 74
     2
 91
        2
 64
     7
 65
     7
 75
     1
175
     1
 42
40.0
 92
       11
 66
     7
 43
1.0
 76
     1
 77
     6
 78
     2
 67
     7
 79
     6
170
     0
171
     0
290
     0
174
     0
 93
        1
 44
0.0
173
     0
291
     0
 45
0.0
1001
ACAD
1000
AcDbSavedByObjectVersion
1070
     0
  0
VISUALSTYLE
  5
D077
102
{ACAD_XDICTIONARY
360
179BC
102
}
102
{ACAD_REACTORS
330
D06A
102
}
330
D06A
100
AcDbVisualStyle
  2
Thicken
 70
    13
 71
     2
 72
     2
 73
     0
 90
        0
 40
-0.6
 41
-30.0
 62
     5
 63
     7
 74
     1
 91
        4
 64
     7
 65
   257
 75
     1
175
     1
 42
1.0
 92
       12
 66
     7
 43
1.0
 76
     1
 77
     6
 78
     2
 67
     7
 79
     5
170
     0
171
     0
290
     0
174
     0
 93
        1
 44
0.0
173
     0
291
     1
 45
0.0
1001
ACAD
1000
AcDbSavedByObjectVersion
1070
     0
  0
VISUALSTYLE
  5
104A7
102
{ACAD_XDICTIONARY
360
179CA
102
}
102
{ACAD_REACTORS
330
D06A
102
}
330
D06A
100
AcDbVisualStyle
  2
Wireframe
 70
     5
 71
     0
 72
     2
 73
     0
 90
        0
 40
-0.6
 41
-30.0
 62
     5
 63
     7
 74
     1
 91
        4
 64
     7
 65
   257
 75
     1
175
     1
 42
1.0
 92
        0
 66
   257
 43
1.0
 76
     1
 77
     6
 78
     2
 67
     7
 79
     3
170
     0
171
     0
290
     0
174
     0
 93
        1
 44
0.0
173
     0
291
     0
 45
0.0
1001
ACAD
1000
AcDbSavedByObjectVersion
1070
     0
  0
VISUALSTYLE
  5
104AB
102
{ACAD_XDICTIONARY
360
179D2
102
}
102
{ACAD_REACTORS
330
D06A
102
}
330
D06A
100
AcDbVisualStyle
  2
X-Ray
 70
    25
 71
     2
 72
     2
 73
     1
 90
        1
 40
0.5
 41
-30.0
 62
     5
 63
     7
 74
     1
 91
        0
 64
     7
 65
   257
 75
     1
175
     1
 42
1.0
 92
        8
 66
     7
 43
1.0
 76
     1
 77
     6
 78
     2
 67
     7
 79
     3
170
     0
171
     0
290
     0
174
     0
 93
       13
 44
0.0
173
     0
291
     0
 45
0.0
1001
ACAD
1000
AcDbSavedByObjectVersion
1070
     0
  0
DICTIONARYVAR
  5
D118
102
{ACAD_REACTORS
330
37
102
}
330
37
100
DictionaryVariables
280
     0
  1
1:1
  0
DICTIONARYVAR
  5
D117
102
{ACAD_REACTORS
330
37
102
}
330
37
100
DictionaryVariables
280
     0
  1
STANDARD
  0
DICTIONARYVAR
  5
29E
102
{ACAD_REACTORS
330
37
102
}
330
37
100
DictionaryVariables
280
     0
  1
STANDARD
  0
DICTIONARYVAR
  5
38
102
{ACAD_REACTORS
330
37
102
}
330
37
100
DictionaryVariables
280
     0
  1
-1
  0
DICTIONARYVAR
  5
1CE
102
{ACAD_REACTORS
330
37
102
}
330
37
100
DictionaryVariables
280
     0
  1
2
  0
DICTIONARYVAR
  5
704E
102
{ACAD_REACTORS
330
37
102
}
330
37
100
DictionaryVariables
280
     0
  1
1
  0
DICTIONARYVAR
  5
D11A
102
{ACAD_REACTORS
330
37
102
}
330
37
100
DictionaryVariables
280
     0
  1
0
  0
DICTIONARYVAR
  5
7052
102
{ACAD_REACTORS
330
37
102
}
330
37
100
DictionaryVariables
280
     0
  1
8
  0
DICTIONARYVAR
  5
7051
102
{ACAD_REACTORS
330
37
102
}
330
37
100
DictionaryVariables
280
     0
  1
1
  0
DICTIONARYVAR
  5
110CC
102
{ACAD_REACTORS
330
37
102
}
330
37
100
DictionaryVariables
280
     0
  1
0
  0
DICTIONARYVAR
  5
110CD
102
{ACAD_REACTORS
330
37
102
}
330
37
100
DictionaryVariables
280
     0
  1
0
  0
DICTIONARYVAR
  5
704F
102
{ACAD_REACTORS
330
37
102
}
330
37
100
DictionaryVariables
280
     0
  1
120
  0
DICTIONARYVAR
  5
7050
102
{ACAD_REACTORS
330
37
102
}
330
37
100
DictionaryVariables
280
     0
  1
0
  0
DICTIONARYVAR
  5
1CF
102
{ACAD_REACTORS
330
37
102
}
330
37
100
DictionaryVariables
280
     0
  1

  0
DICTIONARYVAR
  5
D119
102
{ACAD_REACTORS
330
37
102
}
330
37
100
DictionaryVariables
280
     0
  1
127
  0
DICTIONARYVAR
  5
17AD8
102
{ACAD_REACTORS
330
37
102
}
330
37
100
DictionaryVariables
280
     0
  1
2
  0
XRECORD
  5
17413
102
{ACAD_XDICTIONARY
360
17414
102
}
102
{ACAD_REACTORS
330
D16D
102
}
330
D16D
100
AcDbXrecord
280
     1
 91
      535
301

290
     0
302
01
330
0
 90
        0
 62
   243
370
    -3
331
14
  1
色_243
440
        0
330
0
 90
        9
 62
     8
370
    -3
331
14
  1
色_8
440
        0
330
0
 90
        8
 62
   252
370
    -3
331
14
  1
色_252
440
        0
330
0
 90
        8
 62
   221
370
    -3
331
14
  1
色_221
440
        0
330
0
 90
        8
 62
     8
370
    -3
331
14
  1
色_8
440
        0
330
0
 90
        8
 62
     8
370
    -3
331
14
  1
色_8
440
        0
330
0
 90
        8
 62
     6
370
    -3
331
14
  1
色_6
440
        0
330
EE89
 90
        8
 62
     2
370
    -3
331
14
  1
色_2
440
        0
330
EE87
 90
        8
 62
   254
370
    -3
331
EE86
  1
色_254
440
        0
330
0
 90
        8
 62
     8
370
    -3
331
14
  1
色_8
440
        0
330
0
 90
        8
 62
     3
370
    30
331
14
  1
色_3
440
        0
330
0
 90
        8
 62
     1
370
    30
331
14
  1
色_1
440
        0
330
0
 90
        8
 62
     8
370
    -3
331
0
  1
色_8
440
        0
330
0
 90
        8
 62
     7
370
    30
331
14
  1
色_7
440
        0
330
0
 90
        8
 62
     8
370
    18
331
14
  1
色_8
440
        0
330
0
 90
        8
 62
   221
370
    18
331
0
  1
色_221
440
        0
330
0
 90
        8
 62
     8
370
    -3
331
14
  1
色_8
440
        0
330
0
 90
        8
 62
     4
370
    30
331
14
  1
色_4
440
        0
330
0
 90
        8
 62
     8
370
    -3
331
0
  1
色_8
440
        0
330
6A4
 90
        8
 62
     7
370
    -3
331
14
  1
色_7
440
        0
330
6A3
 90
        8
 62
   221
370
    -3
331
6A6
  1
色_221
440
        0
330
6A2
 90
        8
 62
     7
370
    -3
331
14
  1
色_7
440
        0
330
6A1
 90
        8
 62
   252
370
    -3
331
14
  1
色_252
440
        0
330
270
 90
        0
 62
     7
370
    -3
331
14
  1
色_7
440
        0
330
24E
 90
        8
 62
     8
370
    18
331
14
  1
色_8
440
        0
330
0
 90
        8
 62
     1
370
    30
331
14
  1
色_1
440
        0
330
34
 90
        8
 62
   253
370
    13
331
14
  1
色_253
440
        0
330
33
 90
        9
 62
     1
370
    -3
331
14
  1
色_1
440
        0
330
31
 90
        8
 62
   201
370
    25
331
14
  1
色_201
440
        0
330
29
 90
        8
 62
   221
370
    18
331
14
  1
色_221
440
        0
330
E
 90
        8
 62
     7
370
    30
331
14
  1
色_7
440
        0
  0
DICTIONARY
  5
D57C
330
190
100
AcDbDictionary
280
     1
281
     1
  3
ACAD_XREC_ROUNDTRIP
360
17ADE
  3
ADSK_XREC_LAYOUTTHUMBNAIL
360
D57D
  0
DICTIONARY
  5
D2AB
330
191
100
AcDbDictionary
280
     1
281
     1
  3
ACAD_XREC_ROUNDTRIP
360
17ADF
  3
ADSK_XREC_LAYOUTTHUMBNAIL
360
D2AC
  0
DICTIONARY
  5
D05B
330
D05A
100
AcDbDictionary
280
     1
281
     1
  3
ACAD_XREC_ROUNDTRIP
360
17AE2
  3
BUMPTILE
360
D05D
  3
DIFFUSETILE
360
D05C
  3
OPACITYTILE
360
D060
  3
REFLECTIONTILE
360
D05F
  3
REFRACTIONTILE
360
D061
  3
SPECULARTILE
360
D05E
  0
DICTIONARY
  5
D053
330
D052
100
AcDbDictionary
280
     1
281
     1
  3
ACAD_XREC_ROUNDTRIP
360
17AE1
  3
BUMPTILE
360
D055
  3
DIFFUSETILE
360
D054
  3
OPACITYTILE
360
D058
  3
REFLECTIONTILE
360
D057
  3
REFRACTIONTILE
360
D059
  3
SPECULARTILE
360
D056
  0
DICTIONARY
  5
D063
330
D062
100
AcDbDictionary
280
     1
281
     1
  3
ACAD_XREC_ROUNDTRIP
360
17AE3
  3
BUMPTILE
360
D065
  3
DIFFUSETILE
360
D064
  3
OPACITYTILE
360
D068
  3
REFLECTIONTILE
360
D067
  3
REFRACTIONTILE
360
D069
  3
SPECULARTILE
360
D066
  0
DICTIONARY
  5
D0E9
330
27F
100
AcDbDictionary
280
     1
281
     1
  3
ACAD_ROUNDTRIP_2008_TABLESTYLE_CELLSTYLEMAP
360
17AD9
  3
ACAD_XREC_ROUNDTRIP
360
17AE0
  0
DICTIONARY
  5
179AE
330
D070
100
AcDbDictionary
280
     1
281
     1
  3
ACAD_XREC_ROUNDTRIP
360
179AF
  0
DICTIONARY
  5
179B2
330
D072
100
AcDbDictionary
280
     1
281
     1
  3
ACAD_XREC_ROUNDTRIP
360
179B3
  0
DICTIONARY
  5
179B0
330
D071
100
AcDbDictionary
280
     1
281
     1
  3
ACAD_XREC_ROUNDTRIP
360
179B1
  0
DICTIONARY
  5
179AC
330
D06F
100
AcDbDictionary
280
     1
281
     1
  3
ACAD_XREC_ROUNDTRIP
360
179AD
  0
DICTIONARY
  5
179BA
330
D076
100
AcDbDictionary
280
     1
281
     1
  3
ACAD_XREC_ROUNDTRIP
360
179BB
  0
DICTIONARY
  5
179C2
330
D07A
100
AcDbDictionary
280
     1
281
     1
  3
ACAD_XREC_ROUNDTRIP
360
179C3
  0
DICTIONARY
  5
179B4
330
D073
100
AcDbDictionary
280
     1
281
     1
  3
ACAD_XREC_ROUNDTRIP
360
179B5
  0
DICTIONARY
  5
179B8
330
D075
100
AcDbDictionary
280
     1
281
     1
  3
ACAD_XREC_ROUNDTRIP
360
179B9
  0
DICTIONARY
  5
179C8
330
D29F
100
AcDbDictionary
280
     1
281
     1
  3
ACAD_XREC_ROUNDTRIP
360
179C9
  0
DICTIONARY
  5
179C0
330
D079
100
AcDbDictionary
280
     1
281
     1
  3
ACAD_XREC_ROUNDTRIP
360
179C1
  0
DICTIONARY
  5
179A4
330
D06B
100
AcDbDictionary
280
     1
281
     1
  3
ACAD_XREC_ROUNDTRIP
360
179A5
  0
DICTIONARY
  5
179A6
330
D06C
100
AcDbDictionary
280
     1
281
     1
  3
ACAD_XREC_ROUNDTRIP
360
179A7
  0
DICTIONARY
  5
179A8
330
D06D
100
AcDbDictionary
280
     1
281
     1
  3
ACAD_XREC_ROUNDTRIP
360
179A9
  0
DICTIONARY
  5
179AA
330
D06E
100
AcDbDictionary
280
     1
281
     1
  3
ACAD_XREC_ROUNDTRIP
360
179AB
  0
DICTIONARY
  5
179CC
330
104A8
100
AcDbDictionary
280
     1
281
     1
  3
ACAD_XREC_ROUNDTRIP
360
179CD
  0
DICTIONARY
  5
179C4
330
D29D
100
AcDbDictionary
280
     1
281
     1
  3
ACAD_XREC_ROUNDTRIP
360
179C5
  0
DICTIONARY
  5
179BE
330
D078
100
AcDbDictionary
280
     1
281
     1
  3
ACAD_XREC_ROUNDTRIP
360
179BF
  0
DICTIONARY
  5
179C6
330
D29E
100
AcDbDictionary
280
     1
281
     1
  3
ACAD_XREC_ROUNDTRIP
360
179C7
  0
DICTIONARY
  5
179B6
330
D074
100
AcDbDictionary
280
     1
281
     1
  3
ACAD_XREC_ROUNDTRIP
360
179B7
  0
DICTIONARY
  5
179D6
330
104AD
100
AcDbDictionary
280
     1
281
     1
  3
ACAD_XREC_ROUNDTRIP
360
179D7
  0
DICTIONARY
  5
179D4
330
104AC
100
AcDbDictionary
280
     1
281
     1
  3
ACAD_XREC_ROUNDTRIP
360
179D5
  0
DICTIONARY
  5
179CE
330
104A9
100
AcDbDictionary
280
     1
281
     1
  3
ACAD_XREC_ROUNDTRIP
360
179CF
  0
DICTIONARY
  5
179D0
330
104AA
100
AcDbDictionary
280
     1
281
     1
  3
ACAD_XREC_ROUNDTRIP
360
179D1
  0
DICTIONARY
  5
179BC
330
D077
100
AcDbDictionary
280
     1
281
     1
  3
ACAD_XREC_ROUNDTRIP
360
179BD
  0
DICTIONARY
  5
179CA
330
104A7
100
AcDbDictionary
280
     1
281
     1
  3
ACAD_XREC_ROUNDTRIP
360
179CB
  0
DICTIONARY
  5
179D2
330
104AB
100
AcDbDictionary
280
     1
281
     1
  3
ACAD_XREC_ROUNDTRIP
360
179D3
  0
DICTIONARY
  5
17414
330
17413
100
AcDbDictionary
280
     1
281
     1
  3
AcadLayerStateAnnoScale
360
17415
  0
XRECORD
  5
17ADE
102
{ACAD_REACTORS
330
D57C
102
}
330
D57C
100
AcDbXrecord
280
     1
102
SHADEPLOT
 70
     0
102
SHADEPLOTRESLEVEL
 70
     2
102
SHADEPLOTCUSTOMDPI
 70
   300
  0
XRECORD
  5
D57D
102
{ACAD_REACTORS
330
D57C
102
}
330
D57C
100
AcDbXrecord
280
     1
310
280000000001000072000000010008000000000000720000000000000000000000010000000000000000000000000000FFFFFF000000000000000000000000000000000000000000000000000000000000000000330000006600000099000000CC000000FF00000000330000333300006633000099330000CC330000FF3300
310
0000660000336600006666000099660000CC660000FF66000000990000339900006699000099990000CC990000FF99000000CC000033CC000066CC000099CC0000CCCC0000FFCC000000FF000033FF000066FF000099FF0000CCFF0000FFFF000000003300330033006600330099003300CC003300FF003300003333003333
310
33006633330099333300CC333300FF33330000663300336633006666330099663300CC663300FF66330000993300339933006699330099993300CC993300FF99330000CC330033CC330066CC330099CC3300CCCC3300FFCC330000FF330033FF330066FF330099FF3300CCFF3300FFFF330000006600330066006600660099
310
006600CC006600FF00660000336600333366006633660099336600CC336600FF33660000666600336666006666660099666600CC666600FF66660000996600339966006699660099996600CC996600FF99660000CC660033CC660066CC660099CC6600CCCC6600FFCC660000FF660033FF660066FF660099FF6600CCFF6600
310
FFFF660000009900330099006600990099009900CC009900FF00990000339900333399006633990099339900CC339900FF33990000669900336699006666990099669900CC669900FF66990000999900339999006699990099999900CC999900FF99990000CC990033CC990066CC990099CC9900CCCC9900FFCC990000FF99
310
0033FF990066FF990099FF9900CCFF9900FFFF99000000CC003300CC006600CC009900CC00CC00CC00FF00CC000033CC003333CC006633CC009933CC00CC33CC00FF33CC000066CC003366CC006666CC009966CC00CC66CC00FF66CC000099CC003399CC006699CC009999CC00CC99CC00FF99CC0000CCCC0033CCCC0066CC
310
CC0099CCCC00CCCCCC00FFCCCC0000FFCC0033FFCC0066FFCC0099FFCC00CCFFCC00FFFFCC000000FF003300FF006600FF009900FF00CC00FF00FF00FF000033FF003333FF006633FF009933FF00CC33FF00FF33FF000066FF003366FF006666FF009966FF00CC66FF00FF66FF000099FF003399FF006699FF009999FF00CC
310
99FF00FF99FF0000CCFF0033CCFF0066CCFF0099CCFF00CCCCFF00FFCCFF0000FFFF0033FFFF0066FFFF0099FFFF00CCFFFF00FFFFFF00000000000D0D0D001A1A1A00282828003535350043434300505050005D5D5D006B6B6B00787878008686860093939300A1A1A100AEAEAE00BBBBBB00C9C9C900D6D6D600E4E4E400
310
F1F1F100FFFFFF0000000000000000000000000000000000000000000000000000000000000000000000000000000000E2E2E2E2E2E2E2E2E2E2E2E2E2E2E2E2E2E2E2E2E2E2E2E2E2E2E2E2E2E2E2E2E2E2E2E2E2E2E2E2E2E2E2E2E2E2E2E2E2E2E2E2E2E2E2E2E2E2E2E2E2E2E2E2E2E2E2E2E2E2E2E2E2E2E2E2E2E2E2
310
E2E2E2E2E2E2E2E2E2E2E2E2E2E2E2E2E2E2E2E2E2E2E2E2E2E2E2E2E2E2E2E2E2E2E2E2E2E2E2E2E2E2E2E2E2E2E2E2E2E2E2E2E2E2E2E2E2E2E2E2E2E2E2E2E2E2E2E2E2E2E2E2E2E2E2E2E2E2E2E2E2E2E2E2E2E2E2E2E2E2E2E2E2E2E2E2E2E2E2E2E2E2E2E2E2E2E2E2E2E2E2E2E2E2E2E2E2E2E2E2E2E2E2E2E2E2E2
310
E2E2E2E2E2E2E2E2E2E2E2E2E2E2E2E2E2E2E2E2E2E2E2E2E2E2E2E2E2E2E2E2E2E2E2E2E2E2E2E2E2E2E2E2E2E2E2E2E2E2E2E2E2E2E2E2E2E2E2E2E2E2E2E2E2E2E2E2E2E2E2E2E2E2E2E2E2E2E2E2E2E2E2E2E2E2E2E2E2E2E2E2E2E2E2E2E2E2E2E2E2E2E2E2E2E2E2E2E2E2E2E2E2E2E2E2E2E2E2E2E2E2E2E2E2E2E2
310
E2E2E2E2E2E2E2E2E2E2E2E2E2E2E2E2E2E2E2E2E2E2E2E2E2E2E2E2E2E2E2E2E2E2E2E2E2E2E2E2E2E2E2E2E2E2E2E2E2E2E2E2E2E2E2E2E2E2E2E2E2E2E2E2E2E2E2E2E2E2E2E2E2E2E2E2E2E2E2E2E2E2E2E2E2E2E2E2E2E2E2E2E2E2E2E2E2E2E2E2E2E2E2E2E2E2E2E2E2E2E2E2E2E2E2E2E2E2E2E2E2E2E2E2E2E2E2
310
E2E2E2E2E2E2E2E2E2E2E2E2E2E2E2E2E2E2E2E2E2E2E2E2E2E2E2E2E2E2E2E2E2E2E2E2E2E2E2E2E2E2E2E2E2E2E2E2E2E2E2E2E2E2E2E2E2E2E2E2E2E2E2E2E2E2E2E2E2E2E2E2E2E2E2E2E2E2E2E2E2E2E2E2E2E2E2E2E2E2E2E2E2E2E2E2E2E2E2E2E2E2E2E2E2E2E2E2E2E2E2E2E2E2E2E2E2E2E2E2E2E2E2E2E2E2E2
310
E2E2E2E2E2E2E2E2E2E2E2E2E2E2E2E2E2E2E2E2E2E2E2E2E2E2E2E2E2E2E2E2E2E2E2E2E2E2E2E2E2E2E2E2E2E2E2E2E2E2E2E2E2E2E2E2E2E2E2E2E2E2E2E2E2E2E2E2E2E2E2E2E2E2E2E2E2E2E2E2E2E2E2E2E2E2E2E2E2E2E2E2E2E2E2E2E2E2E2E2E2E2E2E2E2E2E2E2E2E2E2E2E2E2E2E2E2E2E2E2E2E2E2E2E2E2E2
310
E2E2E2E2E2E2E2E2E2E2E2E2E2E2E2E2E2E2E2E2E2E2E2E2E2E2E2E2E2E2E2E2E2E2E2E2E2E2E2E2E2E2E2E2E2E2E2E2E2E2E2E2E2E2E2E2E2E2E2E2E2E2E2E2E2E2E2E2E2E2E2E2E2E2E2E2E2E2E2E2E2E2E2E2E2E2E2E2E2E2E2E2E2E2E2E2E2E2E2E2E2E2E2E2E2E2E2E2E2E2E2E2E2E2E2E2E2E2E2BEBEBEBEBEBEBEBE
310
BEBEBEBEBEBEBEBEBEBEBEBEBEBEBEBEBEBEBEBEBEBEBEBEBEBEBEBEBEBEBEBEBEBEBEBEE2E2E2E2E2E2E2E2E2E2E2E2E2E2E2E2E2E2E2E2E2E2E2E2E2E2E2E2E2E2BEBEBEBEBEBEBEE2E2E2E2E2E2E2E2E2E2E2E2E2E2E2E2E2E2E2E2E2E2E2E2E2E2E2E2E2E2E2E2E2E2E2E2E2E2E2E2E2E2E2E2E2E2E2E2E2E2E2E2E2E2
310
E2E2E2E2E2E2E2E2E2E2E2E2E2E2E2E2E2E2E2E2E2E2E2E2E2E2E2E2E2E2E2E2E2E2E2E2E2E2E2E2E2E2E2E2E2E2E2E2E2E2E2E2E2E2E2E2E2E2E2E2E2E2E2E2E2E2E2E2E2E2E2E2E2E2E2E2E2E2E2E2E2E2E2E2E2E2E2E2E2E2E2E2E2E2E2E2E2E2E2E2E2E2E2E2E2E2E2E2E2E2E2E2E2E2E2E2E2E2E2E2E2BEE2E2E2E2E2
310
E2E2E2E2E2E2E2E2E2E2E2E2E2E2E2E2E2E2E2E2E2E2E2E2E2E2E2E2E2E2E2E2E2E2E2E2E2BEE2E2E2E2E2E2E2E2E2E2E2E2E2E2E2E2E2E2E2E2E2E2E2E2E2E2BEBEBEBEE2E2E2E2E2E2E2BEBEBEBEE2E2E2E2E2E2E2E2E2E2E2E2E2E2E2E2E2E2E2E2E2E2E2E2E2E2E2E2E2E2E2E2E2E2E2E2E2E2E2E2E2E2E2E2E2E2E2E2
310
E2E2E2E2E2E2E2E2E2E2E2E2E2E2E2E2E2E2E2E2E2E2E2E2E2E2E2E2E2E2E2E2E2E2E2E2E2E2E2E2E2E2E2E2E2E2E2E2E2E2E2E2E2E2E2E2E2E2E2E2E2E2E2E2E2E2E2E2E2E2E2E2E2E2E2E2E2E2E2E2E2E2E2E2E2E2E2E2E2E2E2E2E2E2E2E2E2E2E2E2E2E2E2E2E2E2E2E2E2E2E2E2E2E2E2E2E2E2E2E2E2E2E2BEE2E2E2
310
E2E2E2E2E2E2E2E2E2E2E2E2E2E2E2E2E2E2E2E2E2E2E2E2E2E2E2E2E2E2E2E2E2E2E2E2E2E2E2BEE2E2E2E2E2E2E2E2E2E2E2E2E2E2E2E2E2E2E2E2E2E2E2E2BEBEE2E2E2E2E2E2E2E2E2E2E2E2E2E2E2BEBEE2E2E2E2E2E2E2E2E2E2E2E2E2E2E2E2E2E2E2E2E2E2E2E2E2E2E2E2E2E2E2E2E2E2E2E2E2E2E2E2E2E2E2E2
310
E2E2E2E2E2E2E2E2E2E2E2E2E2E2E2E2E2E2E2E2E2E2E2E2E2E2E2E2E2E2E2E2E2E2E2E2E2E2E2E2E2E2E2E2E2E2E2E2E2E2E2E2E2E2E2E2E2E2E2E2E2E2E2E2E2E2E2E2E2E2E2E2E2E2E2E2E2E2E2E2E2E2E2E2E2E2E2E2E2E2E2E2E2E2E2E2E2E2E2E2E2E2E2E2E2E2E2E2E2E2E2E2E2E2E2E2E2E2E2E2E2E2E2E2E2BEE2
310
E2E2E2E2E2E2E2E2E2E2E2E2E2E2E2E2E2E2E2E2E2E2E2E2E2E2E2E2E2E2E2E2E2E2E2E2E2E2E2E2E2BEE2E2E2E2E2E2E2E2E2E2E2E2E2E2E2E2E2E2E2E2E2E2E2BEE2E2E2E2E2E2E2E2E2E2E2E2E2E2E2E2E2E2E2BEE2E2E2E2E2E2E2E2E2E2E2E2E2E2E2E2E2E2E2E2E2E2E2E2E2E2E2E2E2E2E2E2E2E2E2E2E2E2E2E2E2
310
E2E2E2E2E2E2E2E2E2E2E2E2E2E2E2E2E2E2E2E2E2E2E2E2E2E2E2E2E2E2E2E2E2E2E2E2E2E2E2E2E2E2E2E2E2E2E2E2E2E2E2E2E2E2E2E2E2E2E2E2E2E2E2E2E2E2E2E2E2E2E2E2E2E2E2E2E2E2E2E2E2E2E2E2E2E2E2E2E2E2E2E2E2E2E2E2E2E2E2E2E2E2E2E2E2E2E2E2E2E2E2E2E2E2E2E2E2E2E2E2E2E2E2E2E2E2E2
310
BEE2E2E2E2E2E2E2E2E2E2E2E2E2E2E2E2E2E2E2E2E2E2E2E2E2E2E2E2E2E2E2E2E2E2E2E2E2E2E2E2E2E2BEE2E2E2E2E2E2E2E2E2E2E2E2E2E2E2E2E2E2E2E2E2BEBEE2E2E2E2E2E2E2E2E2E2E2E2E2E2E2E2E2E2E2E2E2BEBEE2E2E2E2E2E2E2E2E2E2E2E2E2E2E2E2E2E2E2E2E2E2E2E2E2E2E2E2E2E2E2E2E2E2E2E2E2
310
E2E2E2E2E2E2E2E2E2E2E2E2E2E2E2E2E2E2E2E2E2E2E2E2E2E2E2E2E2E2E2E2E2E2E2E2E2E2E2E2E2E2E2E2E2E2E2E2E2E2E2E2E2E2E2E2E2E2E2E2E2E2E2E2E2E2E2E2E2E2E2E2E2E2E2E2E2E2E2E2E2E2E2E2E2E2E2E2E2E2E2E2E2E2E2E2E2E2E2E2E2E2E2E2E2E2E2E2E2E2E2E2E2E2E2E2E2E2E2E2E2E2E2E2E2E2E2
310
E2E2BEE2E2E2E2E2E2E2E2E2E2E2E2E2E2E2E2E2E2E2E2E2E2E2E2E2E2E2E2E2E2E2E2E2E2E2E2E2E2E2E2E2E2BEE2E2E2E2E2E2E2E2E2E2E2E2E2E2E2E2E2E2E2E2BEE2E2E2E2E2E2E2E2E2E2E2E2E2E2E2E2E2E2E2E2E2E2E2E2E2BEE2E2E2E2E2E2E2E2E2E2E2E2E2E2E2E2E2E2E2E2E2E2E2E2E2E2E2E2E2E2E2E2E2E2
310
E2E2E2E2E2E2E2E2E2E2E2E2E2E2E2E2E2E2E2E2E2E2E2E2E2E2E2E2E2E2E2E2E2E2E2E2E2E2E2E2E2E2E2E2E2E2E2E2E2E2E2E2E2E2E2E2E2E2E2E2E2E2E2E2E2E2E2E2E2E2E2E2E2E2E2E2E2E2E2E2E2E2E2E2E2E2E2E2E2E2E2E2E2E2E2E2E2E2E2E2E2E2E2E2E2E2E2E2E2E2E2E2E2E2E2E2E2E2E2E2E2E2E2E2E2E2E2
310
E2E2E2E2BEE2E2E2E2E2E2E2E2E2E2E2E2E2E2E2E2E2E2E2E2E2E2E2E2E2E2E2E2E2E2E2E2E2E2E2E2E2E2E2E2E2E2BEE2E2E2E2E2E2E2E2E2E2E2E2E2E2E2E2E2E2E2BEE2E2E2E2E2E2E2E2E2E2E2E2E2E2E2E2E2E2E2E2E2E2E2E2E2E2E2BEE2E2E2E2E2E2E2E2E2E2E2E2E2E2E2E2E2E2E2E2E2E2E2E2E2E2E2E2E2E2E2
310
E2E2E2E2E2E2E2E2E2E2E2E2E2E2E2E2E2E2E2E2E2E2E2E2E2E2E2E2E2E2E2E2E2E2E2E2E2E2E2E2E2E2E2E2E2E2E2E2E2E2E2E2E2E2E2E2E2E2E2E2E2E2E2E2E2E2E2E2E2E2E2E2E2E2E2E2E2E2E2E2E2E2E2E2E2E2E2E2E2E2E2E2E2E2E2E2E2E2E2E2E2E2E2E2E2E2E2E2E2E2E2E2E2E2E2E2E2E2E2E2E2E2E2E2E2E2E2
310
E2E2E2E2E2E2BEE2E2E2E2E2E2E2E2E2E2E2E2E2E2E2E2E2E2E2E2E2E2E2E2E2E2E2E2E2E2E2E2E2E2E2E2E2E2E2E2E2E2BEE2E2E2E2E2E2E2E2E2E2E2E2E2E2E2E2E2E2BEE2E2E2E2E2E2E2E2E2E2E2E2E2E2E2E2E2E2E2E2E2E2E2E2E2E2E2E2E2BEE2E2E2E2E2E2E2E2E2E2E2E2E2E2E2E2E2E2E2E2E2E2E2E2E2E2E2E2
310
E2E2E2E2E2E2E2E2E2E2E2E2E2E2E2E2E2E2E2E2E2E2E2E2E2E2E2E2E2E2E2E2E2E2E2E2E2E2E2E2E2E2E2E2E2E2E2E2E2E2E2E2E2E2E2E2E2E2E2E2E2E2E2E2E2E2E2E2E2E2E2E2E2E2E2E2E2E2E2E2E2E2E2E2E2E2E2E2E2E2E2E2E2E2E2E2E2E2E2E2E2E2E2E2E2E2E2E2E2E2E2E2E2E2E2E2E2E2E2E2E2E2E2E2E2E2E2
310
E2E2E2E2E2E2E2E2BEE2E2E2E2E2E2E2E2E2E2E2E2E2E2E2E2E2E2E2E2E2E2E2E2E2E2E2E2E2E2E2E2E2E2E2E2E2E2E2E2E2E2BEE2E2E2E2E2E2E2E2E2E2E2E2E2E2E2E2E2BEE2E2E2E2E2E2E2E2E2E2E2E2E2E2E2E2E2E2E2E2E2E2E2E2E2E2E2E2E2E2BEE2E2E2E2E2E2E2E2E2E2E2E2E2E2E2E2E2E2E2E2E2E2E2E2E2E2
310
E2E2E2E2E2E2E2E2E2E2E2E2E2E2E2E2E2E2E2E2E2E2E2E2E2E2E2E2E2E2E2E2E2E2E2E2E2E2E2E2E2E2E2E2E2E2E2E2E2E2E2E2E2E2E2E2E2E2E2E2E2E2E2E2E2E2E2E2E2E2E2E2E2E2E2E2E2E2E2E2E2E2E2E2E2E2E2E2E2E2E2E2E2E2E2E2E2E2E2E2E2E2E2E2E2E2E2E2E2E2E2E2E2E2E2E2E2E2E2E2E2E2E2E2E2E2E2
310
E2E2E2E2E2E2E2E2E2E2BEE2E2E2E2E2E2E2E2E2E2E2E2E2E2E2E2E2E2E2E2E2E2E2E2E2E2E2E2E2E2E2E2E2E2E2E2E2E2E2E2E2E2BEE2E2E2E2E2E2E2E2E2E2E2E2E2E2E2E2E2BEE2E2E2E2E2E2E2E2E2E2E2E2E2E2E2E2E2E2E2E2E2E2E2E2E2E2E2E2E2E2E2BEE2E2E2E2E2E2E2E2E2E2E2E2E2E2E2E2E2E2E2E2E2E2E2
310
E2E2E2E2E2E2E2E2E2E2E2E2E2E2E2E2E2E2E2E2E2E2E2E2E2E2E2E2E2E2E2E2E2E2E2E2E2E2E2E2E2E2E2E2E2E2E2E2E2E2E2E2E2E2E2E2E2E2E2E2E2E2E2E2E2E2E2E2E2E2E2E2E2E2E2E2E2E2E2E2E2E2E2E2E2E2E2E2E2E2E2E2E2E2E2E2E2E2E2E2E2E2E2E2E2E2E2E2E2E2E2E2E2E2E2E2E2E2E2E2E2E2E2E2E2E2E2
310
E2E2E2E2E2E2E2E2E2E2E2E2BEE2E2E2E2E2E2E2E2E2E2E2E2E2E2E2E2E2E2E2E2E2E2E2E2E2E2E2E2E2E2E2E2E2E2E2E2E2E2E2E2E2E2BEE2E2E2E2E2E2E2E2E2E2E2E2E2E2E2E2BEE2E2E2E2E2E2E2E2E2E2E2E2E2E2E2E2E2E2E2E2E2E2E2E2E2E2E2E2E2E2E2E2E2BEE2E2E2E2E2E2E2E2E2E2E2E2E2E2E2E2E2E2E2E2
310
E2E2E2E2E2E2E2E2E2E2E2E2E2E2E2E2E2E2E2E2E2E2E2E2E2E2E2E2E2E2E2E2E2E2E2E2E2E2E2E2E2E2E2E2E2E2E2E2E2E2E2E2E2E2E2E2E2E2E2E2E2E2E2E2E2E2E2E2E2E2E2E2E2E2E2E2E2E2E2E2E2E2E2E2E2E2E2E2E2E2E2E2E2E2E2E2E2E2E2E2E2E2E2E2E2E2E2E2E2E2E2E2E2E2E2E2E2E2E2E2E2E2E2E2E2E2E2
310
E2E2E2E2E2E2E2E2E2E2E2E2E2E2BEE2E2E2E2E2E2E2E2E2E2E2E2E2E2E2E2E2E2E2E2E2E2E2E2E2E2E2E2E2E2E2E2E2E2E2E2E2E2E2E2E2E2BEE2E2E2E2E2E2E2E2E2E2E2E2E2E2E2BEE2E2E2E2E2E2E2E2E2E2E2E2E2E2E2E2E2E2E2E2E2E2E2E2E2E2E2E2E2E2E2E2E2E2E2BEE2E2E2E2E2E2E2E2E2E2E2E2E2E2E2E2E2
310
E2E2E2E2E2E2E2E2E2E2E2E2E2E2E2E2E2E2E2E2E2E2E2E2E2E2E2E2E2E2E2E2E2E2E2E2E2E2E2E2E2E2E2E2E2E2E2E2E2E2E2E2E2E2E2E2E2E2E2E2E2E2E2E2E2E2E2E2E2E2E2E2E2E2E2E2E2E2E2E2E2E2E2E2E2E2E2E2E2E2E2E2E2E2E2E2E2E2E2E2E2E2E2E2E2E2E2E2E2E2E2E2E2E2E2E2E2E2E2E2E2E2E2E2E2E2E2
310
E2E2E2E2E2E2E2E2E2E2E2E2E2E2E2E2BEE2E2E2E2E2E2E2E2E2E2E2E2E2E2E2E2E2E2E2E2E2E2E2E2E2E2E2E2E2E2E2E2E2E2E2E2E2E2E2E2E2E2BEE2E2E2E2E2E2E2E2E2E2E2E2E2E2E2BEE2E2E2E2E2E2E2E2E2E2E2E2E2E2E2E2E2E2E2E2E2E2E2E2E2E2E2E2E2E2E2E2E2E2E2BEE2E2E2E2E2E2E2E2E2E2E2E2E2E2E2
310
E2E2E2E2E2E2E2E2E2E2E2E2E2E2E2E2E2E2E2E2E2E2E2E2E2E2E2E2E2E2E2E2E2E2E2E2E2E2E2E2E2E2E2E2E2E2E2E2E2E2E2E2E2E2E2E2E2E2E2E2E2E2E2E2E2E2E2E2E2E2E2E2E2E2E2E2E2E2E2E2E2E2E2E2E2E2E2E2E2E2E2E2E2E2E2E2E2E2E2E2E2E2E2E2E2E2E2E2E2E2E2E2E2E2E2E2E2E2E2E2E2E2E2E2E2E2E2
310
E2E2E2E2E2E2E2E2E2E2E2E2E2E2E2E2E2E2BEE2E2E2E2E2E2E2E2E2E2E2E2E2E2E2E2E2E2E2E2E2E2E2E2E2E2E2E2E2E2E2E2E2E2E2E2E2E2E2E2E2E2BEE2E2E2E2E2E2E2E2E2E2E2E2E2E2BEE2E2E2E2E2E2E2E2E2E2E2E2E2E2E2E2E2E2E2E2E2E2E2E2E2E2E2E2E2E2E2E2E2E2E2E2E2BEE2E2E2E2E2E2E2E2E2E2E2E2
310
E2E2E2E2E2E2E2E2E2E2E2E2E2E2E2E2E2E2E2E2E2E2E2E2E2E2E2E2E2E2E2E2E2E2E2E2E2E2E2E2E2E2E2E2E2E2E2E2E2E2E2E2E2E2E2E2E2E2E2E2E2E2E2E2E2E2E2E2E2E2E2E2E2E2E2E2E2E2E2E2E2E2E2E2E2E2E2E2E2E2E2E2E2E2E2E2E2E2E2E2E2E2E2E2E2E2E2E2E2E2E2E2E2E2E2E2E2E2E2E2E2E2E2E2E2E2E2
310
E2E2E2E2E2E2E2E2E2E2E2E2E2E2E2E2E2E2E2E2BEE2E2E2E2E2E2E2E2E2E2E2E2E2E2E2E2E2E2E2E2E2E2E2E2E2E2E2E2E2E2E2E2E2E2E2E2E2E2E2E2E2E2BEE2E2E2E2E2E2E2E2E2E2E2E2E2E2BEE2E2E2E2E2E2E2E2E2E2E2E2E2E2E2E2E2E2E2E2E2E2E2E2E2E2E2E2E2E2E2E2E2E2E2E2E2BEE2E2E2E2E2E2E2E2E2E2
310
E2E2E2E2E2E2E2E2E2E2E2E2E2E2E2E2E2E2E2E2E2E2E2E2E2E2E2E2E2E2E2E2E2E2E2E2E2E2E2E2E2E2E2E2E2E2E2E2E2E2E2E2E2E2E2E2E2E2E2E2E2E2E2E2E2E2E2E2E2E2E2E2E2E2E2E2E2E2E2E2E2E2E2E2E2E2E2E2E2E2E2E2E2E2E2E2E2E2E2E2E2E2E2E2E2E2E2E2E2E2E2E2E2E2E2E2E2E2E2E2E2E2E2E2E2E2E2
310
E2E2E2E2E2E2E2E2E2E2E2E2E2E2E2E2E2E2E2E2E2E2BEE2E2E2E2E2E2E2E2E2E2E2E2E2E2E2E2E2E2E2E2E2E2E2E2E2E2E2E2E2E2E2E2E2E2E2E2E2E2E2E2E2E2BEE2E2E2E2E2E2E2E2E2E2E2E2E2BEE2E2E2E2E2E2E2E2E2E2E2E2E2E2E2E2E2E2BEBEBEE2E2E2E2E2E2E2E2E2E2E2E2E2E2E2E2E2E2BEE2E2E2E2E2E2E2
310
E2E2E2E2E2E2E2E2E2E2E2E2E2E2E2E2E2E2E2E2E2E2E2E2E2E2E2E2E2E2E2E2E2E2E2E2E2E2E2E2E2E2E2E2E2E2E2E2E2E2E2E2E2E2E2E2E2E2E2E2E2E2E2E2E2E2E2E2E2E2E2E2E2E2E2E2E2E2E2E2E2E2E2E2E2E2E2E2E2E2E2E2E2E2E2E2E2E2E2E2E2E2E2E2E2E2E2E2E2E2E2E2E2E2E2E2E2E2E2E2E2E2E2E2E2E2E2
310
E2E2E2E2E2E2E2E2E2E2E2E2E2E2E2E2E2E2E2E2E2E2E2E2BEE2E2E2E2E2E2E2E2E2E2E2E2E2E2E2E2E2E2E2E2E2E2E2E2E2E2E2E2E2E2E2E2E2E2E2E2E2E2E2E2E2E2BEE2E2E2E2E2E2E2E2E2E2E2E2E2BEE2E2E2E2E2E2E2E2E2E2E2E2E2E2E2BEBEBEE2E2E2BEBEBEE2E2E2E2E2E2E2E2E2E2E2E2E2E2E2BEE2E2E2E2E2
310
E2E2E2E2E2E2E2E2E2E2E2E2E2E2E2E2E2E2E2E2E2E2E2E2E2E2E2E2E2E2E2E2E2E2E2E2E2E2E2E2E2E2E2E2E2E2E2E2E2E2E2E2E2E2E2E2E2E2E2E2E2E2E2E2E2E2E2E2E2E2E2E2E2E2E2E2E2E2E2E2E2E2E2E2E2E2E2E2E2E2E2E2E2E2E2E2E2E2E2E2E2E2E2E2E2E2E2E2E2E2E2E2E2E2E2E2E2E2E2E2E2E2E2E2E2E2E2
310
E2E2E2E2E2E2E2E2E2E2E2E2E2E2E2E2E2E2E2E2E2E2E2E2E2E2BEE2E2E2E2E2E2E2E2E2E2E2E2E2E2E2E2E2E2E2E2E2E2E2E2E2E2E2E2E2E2E2E2E2E2E2E2E2E2E2E2E2E2BEE2E2E2E2E2E2E2E2E2E2E2E2BEE2E2E2E2E2E2E2E2E2E2E2E2E2E2E2BEE2E2E2E2E2E2E2E2E2BEE2E2E2E2E2E2E2E2E2E2E2E2E2E2E2BEE2E2
310
E2E2E2E2E2E2E2E2E2E2E2E2E2E2E2E2E2E2E2E2E2E2E2E2E2E2E2E2E2E2E2E2E2E2E2E2E2E2E2E2E2E2E2E2E2E2E2E2E2E2E2E2E2E2E2E2E2E2E2E2E2E2E2E2E2E2E2E2E2E2E2E2E2E2E2E2E2E2E2E2E2E2E2E2E2E2E2E2E2E2E2E2E2E2E2E2E2E2E2E2E2E2E2E2E2E2E2E2E2E2E2E2E2E2E2E2E2E2E2E2E2E2E2E2E2E2E2
310
E2E2E2E2E2E2E2E2E2E2E2E2E2E2E2E2E2E2E2E2E2E2E2E2E2E2E2E2BEE2E2E2E2E2E2E2E2E2E2E2E2E2E2E2E2E2E2E2E2E2E2E2E2E2E2E2E2E2E2E2E2E2E2E2E2E2E2E2E2E2E2BEE2E2E2E2E2E2E2E2E2E2E2E2BEE2E2E2E2E2E2E2E2E2E2E2E2E2E2E2BEE2E2E2E2E2E2E2E2E2E2BEE2E2E2E2E2E2E2E2E2E2E2E2E2E2BE
310
E2E2E2BEBEE2E2E2E2E2E2E2E2E2E2E2E2E2E2E2E2E2E2E2E2E2E2E2E2E2E2E2E2E2E2E2E2E2E2E2E2E2E2E2E2E2E2E2E2E2E2E2E2E2E2E2E2E2E2E2E2E2E2E2E2E2E2E2E2E2E2E2E2E2E2E2E2E2E2E2E2E2E2E2E2E2E2E2E2E2E2E2E2E2E2E2E2E2E2E2E2E2E2E2E2E2E2E2E2E2E2E2E2E2E2E2E2E2E2E2E2E2E2E2E2E2E2
310
E2E2E2E2E2E2E2E2E2E2E2E2E2E2E2E2E2E2E2E2E2E2E2E2E2E2E2E2E2E2BEE2E2E2E2E2E2E2E2E2E2E2E2E2E2E2E2BEBEBEBEBEBEBEBEBEBEE2E2E2E2E2E2E2E2E2E2E2E2E2E2E2E2BEE2E2E2E2E2E2E2E2E2E2E2E2BEE2E2E2E2E2E2E2E2E2E2E2E2E2E2BEE2E2E2E2E2E2E2E2E2E2E2BEE2E2E2E2E2E2E2E2E2E2E2E2E2
310
E2BEE2E2E2BEE2BEBEBEBEBEBEBEBEBEBEBEBEBEBEE2E2E2E2E2E2E2E2E2E2E2E2E2E2E2E2E2E2E2E2E2E2E2E2E2E2E2E2E2E2E2E2E2E2E2E2E2E2E2E2E2E2E2E2E2E2E2E2E2E2E2E2E2E2E2E2E2E2E2E2E2E2E2E2E2E2E2E2E2E2E2E2E2E2E2E2E2E2E2E2E2E2E2E2E2E2E2E2E2E2E2E2E2E2E2E2E2E2E2E2E2E2E2E2E2E2
310
E2E2E2E2E2E2E2E2E2E2E2E2E2E2E2E2E2E2E2E2E2E2E2E2E2E2E2E2E2E2E2E2BEE2E2E2E2E2E2E2E2E2E2E2E2E2E2E2E2BEE2E2BEBEBEBEE2E2BEE2E2E2E2E2E2E2E2E2E2E2E2E2E2E2E2BEE2E2E2E2E2E2E2E2E2E2E2E2BEE2E2E2E2E2E2E2E2E2E2E2E2E2BEE2E2E2E2E2E2E2E2E2E2E2E2E2BEE2E2E2E2E2E2E2E2E2E2
310
E2E2E2BEE2E2E2BEE2E2BEE2BEE2E2BEBEBEBEE2E2E2E2E2E2E2E2E2E2E2E2E2E2E2E2E2E2E2E2E2E2E2E2E2E2E2E2E2E2E2E2E2E2E2E2E2E2E2E2E2E2E2E2E2E2E2E2E2E2E2E2E2E2E2E2E2E2E2E2E2E2E2E2E2E2E2E2E2E2E2E2E2E2E2E2E2E2E2E2E2E2E2E2E2E2E2E2E2E2E2E2E2E2E2E2E2E2E2E2E2E2E2E2E2E2E2E2
310
E2E2E2E2E2E2E2E2E2E2E2E2E2E2E2E2E2E2E2E2E2E2E2E2E2E2E2E2E2E2E2E2E2E2BEE2E2E2E2E2E2E2E2E2E2E2E2E2E2E2E2BEE2E2BEBEBEBEE2E2BEE2E2E2E2E2E2E2E2E2E2E2E2E2E2E2E2BEE2E2E2E2E2E2E2E2E2E2E2E2BEE2E2E2E2E2E2E2E2E2E2E2E2E2BEE2E2E2E2E2E2E2E2E2E2E2E2E2BEE2E2E2E2E2E2E2E2
310
E2E2E2E2E2BEE2E2BEE2E2E2E2E2E2E2BEBEBEBEBEBEBEBEBEE2E2E2E2E2E2E2E2E2E2E2E2E2E2E2E2E2E2E2E2E2E2E2E2E2E2E2E2E2E2E2E2E2E2E2E2E2E2E2E2E2E2E2E2E2E2E2E2E2E2E2E2E2E2E2E2E2E2E2E2E2E2E2E2E2E2E2E2E2E2E2E2E2E2E2E2E2E2E2E2E2E2E2E2E2E2E2E2E2E2E2E2E2E2E2E2E2E2E2E2E2E2
310
E2E2E2E2E2E2E2E2E2E2E2E2E2E2E2E2E2E2E2E2E2E2E2E2E2E2E2E2E2E2E2E2E2E2E2E2BEE2E2E2E2E2E2E2E2E2E2E2E2E2E2E2E2BEE2E2E2E2E2E2E2E2BEE2E2E2E2E2E2E2E2E2E2E2E2E2E2E2E2BEE2E2E2E2E2E2E2E2E2E2E2E2BEE2E2E2E2E2E2E2E2E2E2E2E2E2BEE2E2E2E2E2E2E2E2E2E2E2E2E2BEE2E2E2E2E2E2
310
E2E2E2E2E2E2E2BEE2E2BEE2E2E2E2E2E2E2BEBEBEBEBEBEBEBEBEE2E2E2E2E2E2E2E2E2E2E2E2E2E2E2E2E2E2E2E2E2E2E2E2E2E2E2E2E2E2E2E2E2E2E2E2E2E2E2E2E2E2E2E2E2E2E2E2E2E2E2E2E2E2E2E2E2E2E2E2E2E2E2E2E2E2E2E2E2E2E2E2E2E2E2E2E2E2E2E2E2E2E2E2E2E2E2E2E2E2E2E2E2E2E2E2E2E2E2E2
310
E2E2E2E2E2E2E2E2E2E2E2E2E2E2E2E2E2E2E2E2E2E2E2E2E2E2E2E2E2E2E2E2E2E2E2E2E2E2BEE2E2E2E2E2E2E2E2E2E2E2E2E2E2E2E2BEE2E2E2E2E2E2E2E2BEE2E2E2E2E2E2E2E2E2E2E2E2E2E2E2E2BEE2E2E2E2E2E2E2E2E2E2E2E2BEE2E2E2E2E2E2E2E2E2E2E2E2E2BEE2E2E2E2E2E2E2E2E2E2E2E2E2BEE2E2E2E2
310
E2E2E2E2E2E2E2E2E2BEE2E2BEE2E2E2E2E2E2E2E2E2E2E2BEE2E2E2BEE2E2E2BEE2E2E2E2E2E2E2E2E2E2E2E2E2E2E2E2E2E2E2E2E2E2E2E2E2E2E2E2E2E2E2E2E2E2E2E2E2E2E2E2E2E2E2E2E2E2E2E2E2E2E2E2E2E2E2E2E2E2E2E2E2E2E2E2E2E2E2E2E2E2E2E2E2E2E2E2E2E2E2E2E2E2E2E2E2E2E2E2E2E2E2E2E2E2
310
E2E2E2E2E2E2E2E2E2E2E2E2E2E2E2E2E2E2E2E2E2E2E2E2E2E2E2E2E2E2E2E2E2E2E2BEBEBEBEBEBEBEBEBEBEBEBEBEBEBEBEBEBEBEBEBEBEBEBEBEBEBEBEBEBEBEBEBEBEBEBEBEBEBEBEBEBEBEBEBEBEBEBEBEBEBEBEBEBEE2E2E2E2E2E2E2BEE2E2E2E2E2E2E2E2E2E2E2E2E2BEE2E2E2E2E2E2BEBEE2E2E2E2E2BEE2E2
310
E2E2E2E2E2E2E2E2E2E2E2BEE2E2BEE2E2E2E2E2E2E2E2E2E2E2BEE2E2E2BEE2E2E2BEE2E2E2E2E2E2E2E2E2E2E2E2E2E2E2E2E2E2E2E2E2E2E2E2E2E2E2E2E2E2E2E2E2E2E2E2E2E2E2E2E2E2E2E2E2E2E2E2E2E2E2E2E2E2E2E2E2E2E2E2E2E2E2E2E2E2E2E2E2E2E2E2E2E2E2E2E2E2E2E2E2E2E2E2E2E2E2E2E2E2E2E2
310
E2E2E2E2E2E2E2E2E2E2E2E2E2E2E2E2E2E2E2E2E2E2E2E2E2E2E2E2E2E2E2E2E2E2E2E2BEBEE2E2E2E2BEE2E2E2E2E2E2E2E2E2E2E2E2E2E2E2E2BEE2E2E2E2E2E2E2E2BEE2E2E2E2E2E2E2E2E2E2E2E2E2E2E2E2BEE2E2E2E2BEBEE2E2E2E2E2E2BEE2E2E2E2E2E2E2E2E2E2E2E2E2E2BEE2E2E2BEBEE2E2BEBEE2E2BEE2
310
E2E2E2E2E2E2E2E2E2E2E2E2E2BEE2BEE2E2E2E2E2E2E2E2E2E2E2E2BEE2E2E2BEE2E2E2BEE2E2E2E2E2E2E2E2E2E2E2E2E2E2E2E2E2E2E2E2E2E2E2E2E2E2E2E2E2E2E2E2E2E2E2E2E2E2E2E2E2E2E2E2E2E2E2E2E2E2E2E2E2E2E2E2E2E2E2E2E2E2E2E2E2E2E2E2E2E2E2E2E2E2E2E2E2E2E2E2E2E2E2E2E2E2E2E2E2E2
310
E2E2E2E2E2E2E2E2E2E2E2E2E2E2E2E2E2E2E2E2E2E2E2E2E2E2E2E2E2E2E2E2E2E2E2E2E2E2BEE2E2E2E2E2BEE2E2E2E2E2E2E2E2E2E2E2E2E2E2E2E2BEE2E2E2E2E2E2E2E2BEE2E2E2E2E2E2E2E2E2E2E2E2E2E2E2E2BEE2E2E2E2E2BEE2E2E2E2E2E2BEE2E2E2E2E2E2E2E2E2E2E2E2E2E2E2BEE2E2BEE2E2E2E2E2BEBE
310
BEE2E2E2E2E2E2E2E2E2E2E2E2E2E2BEE2BEE2E2E2E2E2E2E2E2E2E2E2E2BEE2E2E2BEE2E2E2BEE2E2E2E2E2E2E2E2E2E2E2E2E2E2E2E2E2E2E2E2E2E2E2E2E2E2E2E2E2E2E2E2E2E2E2E2E2E2E2E2E2E2E2E2E2E2E2E2E2E2E2E2E2E2E2E2E2E2E2E2E2E2E2E2E2E2E2E2E2E2E2E2E2E2E2E2E2E2E2E2E2E2E2E2E2E2E2E2
310
E2E2E2E2E2E2E2E2E2E2E2E2E2E2E2E2E2E2E2E2E2E2E2E2E2E2E2E2E2E2E2E2E2E2E2E2E2E2E2E2BEE2E2E2E2E2BEE2E2E2E2E2E2E2E2E2E2E2E2E2E2E2E2BEE2E2E2E2E2E2E2E2BEE2E2E2E2E2E2E2E2E2E2E2E2E2E2E2E2BEE2E2E2E2E2BEE2E2E2E2E2E2BEE2E2E2E2E2E2E2E2E2E2E2E2E2E2E2BEE2E2E2BEE2E2E2E2
310
E2BEBEBEE2E2E2E2E2E2E2E2E2E2E2E2E2BEE2BEE2E2E2E2E2E2E2E2E2E2E2BEBEBEBEBEBEBEBEBEBEBEBEBEBEBEBEBEE2E2E2E2E2E2E2E2E2E2E2E2E2E2E2E2E2E2E2E2E2E2E2E2E2E2E2E2E2E2E2E2E2E2E2E2E2E2E2E2E2E2E2E2E2E2E2E2E2E2E2E2E2E2E2E2E2E2E2E2E2E2E2E2E2E2E2E2E2E2E2E2E2E2E2E2E2E2E2
310
E2E2E2E2E2E2E2E2E2E2E2E2E2E2E2E2E2E2E2E2E2E2E2E2E2E2E2E2E2E2E2E2E2E2E2E2E2E2E2E2E2E2BEE2E2E2E2BEBEBEBEBEBEBEBEBEBEBEBEBEBEBEBEBEBEBEBEBEBEBEBEBEBEBEBEBEBEBEBEBEBEBEBEBEBEBEBEBEBEBEBEBEBEE2E2E2E2BEE2E2E2E2E2E2E2BEE2E2E2E2E2E2E2E2E2E2E2E2E2E2E2BEBEE2BEE2E2
310
E2BEBEE2E2E2BEE2E2E2E2E2E2E2E2E2E2E2BEE2E2BEE2E2E2E2E2E2E2E2E2BEE2BEBEE2E2E2BEE2E2E2BEE2E2E2E2E2E2BEE2E2E2E2E2E2E2E2E2E2E2E2E2E2E2E2E2E2E2E2E2E2E2E2E2E2E2E2E2E2E2E2E2E2E2E2E2E2E2E2E2E2E2E2E2E2E2E2E2E2E2E2E2E2E2E2E2E2E2E2E2E2E2E2E2E2E2E2E2E2E2E2E2E2E2E2E2
310
E2E2E2E2E2E2E2E2E2E2E2E2E2E2E2E2E2E2E2E2E2E2E2E2E2E2E2E2E2E2E2E2E2E2E2E2E2E2E2E2E2E2E2E2BEE2E2E2E2BEBEE2E2E2E2E2E2E2E2E2E2E2E2E2BEE2E2BEE2E2E2E2E2E2E2E2BEE2E2BEE2E2E2E2E2E2E2E2E2E2E2E2E2BEBEE2E2E2E2BEE2E2E2E2E2E2E2BEE2E2E2E2E2E2E2E2E2E2E2E2E2E2E2E2E2BEBE
310
BEBEBEE2E2E2E2E2E2BEBEE2E2E2E2E2E2E2E2E2BEE2BEE2E2E2E2E2E2E2E2E2BEBEBEE2BEE2E2E2BEE2E2E2BEE2E2E2E2E2E2BEE2E2E2E2E2E2E2E2E2E2E2E2E2E2E2E2E2E2E2E2E2E2E2E2E2E2E2E2E2E2E2E2E2E2E2E2E2E2E2E2E2E2E2E2E2E2E2E2E2E2E2E2E2E2E2E2E2E2E2E2E2E2E2E2E2E2E2E2E2E2E2E2E2E2E2
310
E2E2E2E2E2E2E2E2E2E2E2E2E2E2E2E2E2E2E2E2E2E2E2E2E2E2E2E2E2E2E2E2E2E2E2E2E2E2E2E2E2E2E2E2E2E2BEE2E2E2E2BEBEE2E2E2E2E2E2E2E2E2E2E2E2E2BEE2E2BEE2E2E2E2E2E2E2E2BEE2E2BEE2E2E2E2E2E2E2E2E2E2E2E2E2BEBEE2E2E2E2BEE2E2E2E2E2E2E2E2BEE2E2E2E2E2E2E2E2E2E2E2E2E2E2E2E2
310
E2E2E2E2BEBEE2E2E2E2E2BEBEBEBEE2E2E2E2E2E2BEE2E2BEE2E2E2E2E2E2E2E2E2BEE2E2E2BEE2E2E2BEE2E2E2BEE2E2E2E2E2E2BEE2E2E2E2E2E2E2E2E2E2E2E2E2E2E2E2E2E2E2E2E2E2E2E2E2E2E2E2E2E2E2E2E2E2E2E2E2E2E2E2E2E2E2E2E2E2E2E2E2E2E2E2E2E2E2E2E2E2E2E2E2E2E2E2E2E2E2E2E2E2E2E2E2
310
E2E2E2E2E2E2E2E2E2E2E2E2E2E2E2E2E2E2E2E2E2E2E2E2E2E2E2E2E2E2E2E2E2E2E2E2E2E2E2E2E2E2E2E2E2E2E2E2BEE2E2E2E2BEBEE2E2E2E2E2E2E2E2E2E2E2E2E2BEE2E2BEE2E2E2E2E2E2E2E2BEE2E2BEE2E2E2E2E2E2E2E2E2E2E2E2E2BEBEE2E2E2E2BEE2E2E2E2E2E2E2E2BEE2E2E2E2E2E2E2E2E2E2E2E2E2E2
310
E2E2E2E2E2E2E2E2BEBEE2E2E2BEE2E2E2BEBEE2E2E2E2BEE2E2BEE2E2E2E2E2E2E2E2BEE2E2E2E2BEE2E2E2BEE2E2E2BEE2E2E2E2E2E2BEE2E2E2E2E2E2E2E2E2E2E2E2E2E2E2E2E2E2E2E2E2E2E2E2E2E2E2E2E2E2E2E2E2E2E2E2E2E2E2E2E2E2E2E2E2E2E2E2E2E2E2E2E2E2E2E2E2E2E2E2E2E2E2E2E2E2E2E2E2E2E2
310
E2E2E2E2E2E2E2E2E2E2E2E2E2E2E2E2E2E2E2E2E2E2E2E2E2E2E2E2E2E2E2E2E2E2E2E2E2E2E2E2E2E2E2E2E2E2E2E2E2E2BEE2E2E2E2BEBEE2E2E2E2E2E2E2E2E2E2E2E2E2BEE2E2BEE2E2E2E2E2E2E2E2BEE2E2BEE2E2E2E2E2E2E2E2E2E2E2E2E2BEBEBEE2E2BEBEE2E2E2E2E2E2E2E2E2BEE2E2E2E2E2E2E2E2E2E2E2
310
E2E2E2E2E2E2E2E2E2E2E2E2BEE2BEE2E2E2E2E2E2BEE2E2BEE2E2E2BEE2E2E2E2E2E2E2E2BEE2E2E2E2BEE2E2E2BEE2E2E2BEE2E2E2E2BEBEBEE2E2E2E2E2E2E2E2E2E2E2E2E2E2E2E2E2E2E2E2E2E2E2E2E2E2E2E2E2E2E2E2E2E2E2E2E2E2E2E2E2E2E2E2E2E2E2E2E2E2E2E2E2E2E2E2E2E2E2E2E2E2E2E2E2E2E2E2E2
310
E2E2E2E2E2E2E2E2E2E2E2E2E2E2E2E2E2E2E2E2E2E2E2E2E2E2E2E2E2E2E2E2E2E2E2E2E2E2E2E2E2E2E2E2E2E2E2E2E2E2E2E2BEE2E2E2E2BEBEE2E2E2E2E2E2E2E2E2E2E2E2E2BEE2BEBEBEE2E2E2E2E2E2BEBEBEE2BEE2E2E2E2E2E2E2E2E2E2E2E2E2BEE2BEBEBEBEE2E2E2E2E2E2E2E2E2E2BEE2E2E2E2E2E2E2E2E2
310
E2E2E2E2E2E2E2E2E2E2E2E2E2E2E2BEBEE2E2E2E2E2E2E2BEBEBEE2E2BEE2E2E2E2E2E2E2E2BEE2E2BEE2E2BEE2E2E2BEE2E2E2BEE2E2E2E2BEBEBEE2E2E2E2E2E2E2E2E2E2E2E2E2E2E2E2E2E2E2E2E2E2E2E2E2E2E2E2E2E2E2E2E2E2E2E2E2E2E2E2E2E2E2E2E2E2E2E2E2E2E2E2E2E2E2E2E2E2E2E2E2E2E2E2E2E2E2
310
E2E2E2E2E2E2E2E2E2E2E2E2E2E2E2E2E2E2E2E2E2E2E2E2E2E2E2E2E2E2E2E2E2E2E2E2E2E2E2E2E2E2E2E2E2E2E2E2E2E2E2E2E2E2BEE2E2E2E2BEBEE2E2E2E2E2E2E2E2E2E2E2E2E2BEE2BEBEBEE2E2E2E2E2E2BEBEBEE2BEE2E2E2E2E2E2E2E2E2E2E2E2E2BEE2E2E2E2E2E2E2E2E2E2E2E2E2E2E2E2BEE2E2E2E2E2E2
310
E2E2E2E2E2E2E2E2E2E2E2E2E2E2E2E2E2E2E2BEBEE2E2E2E2E2E2BEBEBEE2BEE2E2E2E2E2E2E2E2BEE2BEBEBEBEBEBEBEBEBEBEBEBEBEBEBEE2E2BEBEBEE2E2E2E2E2E2E2E2E2E2E2E2E2E2E2E2E2E2E2E2E2E2E2E2E2E2E2E2E2E2E2E2E2E2E2E2E2E2E2E2E2E2E2E2E2E2E2E2E2E2E2E2E2E2E2E2E2E2E2E2E2E2E2E2E2
310
E2E2E2E2E2E2E2E2E2E2E2E2E2E2E2E2E2E2E2E2E2E2E2E2E2E2E2E2E2E2E2E2E2E2E2E2E2E2E2E2E2E2E2E2E2E2E2E2E2E2E2E2E2E2E2E2BEE2E2E2E2BEBEE2E2E2E2E2E2E2E2E2E2E2E2E2BEBEBEBEBEBEE2E2E2E2BEBEBEBEBEBEE2E2E2E2E2E2E2E2E2E2E2E2E2BEE2E2E2E2E2E2E2E2E2E2E2E2E2E2E2E2E2BEE2E2E2
310
E2E2E2E2E2E2E2E2E2E2E2E2E2E2E2E2E2E2E2E2E2E2E2BEBEE2E2E2BEE2E2E2BEBEE2E2E2E2E2E2E2BEE2E2BEBEBEBEBEBEBEBEBEBEBEBEBEBEBEBEBEBEBEBEE2E2E2E2E2E2E2E2E2E2E2E2E2E2E2E2E2E2E2E2E2E2E2E2E2E2E2E2E2E2E2E2E2E2E2E2E2E2E2E2E2E2E2E2E2E2E2E2E2E2E2E2E2E2E2E2E2E2E2E2E2E2E2
310
E2E2E2E2E2E2E2E2E2E2E2E2E2E2E2E2E2E2E2E2E2E2E2E2E2E2E2E2E2E2E2E2E2E2E2E2E2E2E2E2E2E2E2E2E2E2E2E2E2E2E2E2E2E2E2E2E2E2BEE2E2E2E2BEBEE2E2E2E2E2E2E2E2E2E2E2E2E2BEBEE2BEE2BEE2E2E2E2BEE2BEE2BEBEE2E2E2E2E2E2E2E2E2E2E2E2E2BEE2E2E2E2E2E2E2E2E2E2E2E2E2E2E2E2E2BEE2
310
E2E2E2E2E2E2E2E2E2E2E2E2E2E2E2E2E2E2E2E2E2E2E2E2E2E2E2BEE2E2BEE2E2E2E2BEBEE2E2E2E2E2E2BEE2E2E2BEE2E2BEE2E2E2BEE2E2E2BEE2E2BEBEBEE2BEE2E2E2E2E2E2E2E2E2E2E2E2E2E2E2E2E2E2E2E2E2E2E2E2E2E2E2E2E2E2E2E2E2E2E2E2E2E2E2E2E2E2E2E2E2E2E2E2E2E2E2E2E2E2E2E2E2E2E2E2E2
310
E2E2E2E2E2E2E2E2E2E2E2E2E2E2E2E2E2E2E2E2E2E2E2E2E2E2E2E2E2E2E2E2E2E2E2E2E2E2E2E2E2E2E2E2E2E2E2E2E2E2E2E2E2E2E2E2E2E2E2E2BEE2E2E2E2BEBEE2E2E2E2E2E2E2E2E2E2E2E2E2BEE2BEBEBEE2E2E2E2E2E2BEBEBEE2BEE2E2E2E2E2E2E2E2E2E2E2E2E2BEE2E2E2E2E2E2E2E2E2E2E2E2E2E2E2E2E2
310
E2BEE2E2E2E2E2E2E2E2E2E2E2E2E2E2E2E2E2E2E2E2E2E2E2E2E2E2E2E2BEBEE2E2E2E2E2E2E2BEBEE2E2E2BEE2E2E2E2E2E2E2BEE2E2E2BEE2E2E2BEE2E2E2BEBEE2BEE2E2E2E2E2E2E2E2E2E2E2E2E2E2E2E2E2E2E2E2E2E2E2E2E2E2E2E2E2E2E2E2E2E2E2E2E2E2E2E2E2E2E2E2E2E2E2E2E2E2E2E2E2E2E2E2E2E2E2
310
E2E2E2E2E2E2E2E2E2E2E2E2E2E2E2E2E2E2E2E2E2E2E2E2E2E2E2E2E2E2E2E2E2E2E2E2E2E2E2E2E2E2E2E2E2E2E2E2E2E2E2E2E2E2E2E2E2E2E2E2E2E2BEE2E2E2E2BEBEBEBEBEBEBEBEBEBEBEBEBEBEBEBEBEBEBEBEBEBEBEBEBEBEBEBEBEBEBEBEBEE2E2E2E2E2E2E2E2E2E2E2BEE2E2E2E2E2E2E2E2E2E2E2E2E2E2E2
310
E2E2E2E2BEE2E2E2E2E2E2E2E2E2E2E2E2E2E2E2E2E2E2E2E2E2E2E2E2E2E2E2BEE2BEBEE2E2E2E2E2E2E2BEBEE2BEE2E2E2E2E2E2E2BEE2E2E2BEE2E2E2BEE2E2BEBEBEE2BEE2E2E2E2E2E2E2E2E2E2E2E2E2E2E2E2E2E2E2E2E2E2E2E2E2E2E2E2E2E2E2E2E2E2E2E2E2E2E2E2E2E2E2E2E2E2E2E2E2E2E2E2E2E2E2E2E2
310
E2E2E2E2E2E2E2E2E2E2E2E2E2E2E2E2E2E2E2E2E2E2E2E2E2E2E2E2E2E2E2E2E2E2E2E2E2E2E2E2E2E2E2E2E2E2E2E2E2E2E2E2E2E2E2E2E2E2E2E2E2E2E2E2BEE2E2E2E2E2BEE2E2E2E2E2E2E2E2E2E2E2E2E2E2E2E2E2E2E2E2E2E2E2E2E2E2E2E2E2E2E2BEE2E2E2E2E2E2E2E2E2E2BEE2E2E2E2E2E2E2E2E2E2E2E2E2
310
E2E2E2E2E2E2E2BEE2E2E2E2E2E2E2E2E2E2E2E2E2E2E2E2E2E2E2E2E2E2E2E2E2BEE2E2E2E2BEE2E2E2E2E2E2E2E2BEE2E2E2E2E2E2E2E2BEE2E2E2BEE2E2E2BEE2E2E2BEBEE2BEE2E2E2E2E2E2E2E2E2E2E2E2E2E2E2E2E2E2E2E2E2E2E2E2E2E2E2E2E2E2E2E2E2E2E2E2E2E2E2E2E2E2E2E2E2E2E2E2E2E2E2E2E2E2E2
310
E2E2E2E2E2E2E2E2E2E2E2E2E2E2E2E2E2E2E2E2E2E2E2E2E2E2E2E2E2E2E2E2E2E2E2E2E2E2E2E2E2E2E2E2E2E2E2E2E2E2E2E2E2E2E2E2E2E2E2E2E2E2E2E2E2E2BEE2E2E2E2E2BEE2E2E2E2E2E2E2E2E2E2E2E2E2E2E2E2E2E2E2E2E2E2E2E2E2E2E2E2E2E2E2BEE2E2E2E2E2E2E2E2E2E2BEE2E2E2E2E2E2E2E2E2E2E2
310
E2E2E2E2E2E2E2E2E2E2BEBEE2E2E2E2E2E2E2E2E2E2E2E2E2E2E2E2E2E2E2E2E2BEBEE2E2E2E2E2E2BEBEE2E2E2E2E2E2E2BEBEE2E2E2E2E2E2BEBEBEBEBEBEBEBEBEBEBEBEBEBEBEBEE2E2E2E2E2E2E2E2E2E2E2E2E2E2E2E2E2E2E2E2E2E2E2E2E2E2E2E2E2E2E2E2E2E2E2E2E2E2E2E2E2E2E2E2E2E2E2E2E2E2E2E2E2
310
E2E2E2E2E2E2E2E2E2E2E2E2E2E2E2E2E2E2E2E2E2E2E2E2E2E2E2E2E2E2E2E2E2E2E2E2E2E2E2E2E2E2E2E2E2E2E2E2E2E2E2E2E2E2E2E2E2E2E2E2E2E2E2E2E2E2E2E2BEBEBEBEBEBEBEBEBEBEBEBEBEBEBEBEBEBEBEBEBEBEBEBEBEBEBEBEBEBEBEBEBEBEBEBEBEBEBEBEBEBEBEBEBEBEBEBEBEBEBEBEBEBEBEBEE2E2E2
310
E2E2E2E2E2E2E2E2E2E2E2E2E2E2BEBEBEE2E2E2E2E2E2E2E2E2E2E2E2E2E2E2E2E2BEE2E2E2E2E2E2E2E2E2E2BEBEE2E2E2E2E2E2BEE2E2E2E2BEBEBEE2E2E2BEE2E2E2BEE2E2E2E2E2E2E2E2E2E2E2E2E2E2E2E2E2E2E2E2E2E2E2E2E2E2E2E2E2E2E2E2E2E2E2E2E2E2E2E2E2E2E2E2E2E2E2E2E2E2E2E2E2E2E2E2E2E2
310
E2E2E2E2E2E2E2E2E2E2E2E2E2E2E2E2E2E2E2E2E2E2E2E2E2E2E2E2E2E2E2E2E2E2E2E2E2E2E2E2E2E2E2E2E2E2E2E2E2E2E2E2E2E2E2E2E2E2E2E2E2E2E2E2E2E2E2E2E2E2BEBEE2E2E2E2BEE2E2E2E2E2E2E2E2E2E2E2E2E2E2E2E2E2E2E2E2E2E2E2E2E2E2E2E2E2E2E2E2E2E2E2E2E2E2E2E2E2E2BEE2E2E2E2E2BEE2
310
E2E2E2E2E2E2E2E2E2E2E2E2E2E2E2E2E2BEBEBEE2E2E2E2E2E2E2E2E2E2E2E2E2E2BEBEE2E2E2E2E2E2E2E2E2E2E2E2E2BEBEE2E2E2E2E2BEE2BEBEE2E2BEE2E2E2BEE2E2E2BEE2E2E2E2E2E2E2E2E2E2E2E2E2E2E2E2E2E2E2E2E2E2E2E2E2E2E2E2E2E2E2E2E2E2E2E2E2E2E2E2E2E2E2E2E2E2E2E2E2E2E2E2E2E2E2E2
310
E2E2E2E2E2E2E2E2E2E2E2E2E2E2E2E2E2E2E2E2E2E2E2E2E2E2E2E2E2E2E2E2E2E2E2E2E2E2E2E2E2E2E2E2E2E2E2E2E2E2E2E2E2E2E2E2E2E2E2E2E2E2E2E2E2E2E2E2E2E2E2E2BEE2E2E2E2E2BEBEBEBEBEBEBEBEBEBEBEBEBEBEBEBEBEBEBEBEBEBEBEBEBEBEBEBEBEBEBEBEBEBEBEBEBEBEBEBEBEBEBEBEE2E2E2E2E2
310
BEE2E2E2E2E2E2E2E2E2E2E2E2E2E2E2E2E2E2BEE2BEBEBEBEE2E2E2E2E2E2E2BEBEBEBEE2E2E2E2E2E2E2E2E2E2E2E2E2E2E2E2BEBEE2E2E2BEBEE2BEBEE2E2BEE2E2E2BEE2E2E2BEE2E2E2E2E2E2E2E2E2E2E2E2E2E2E2E2E2E2E2E2E2E2E2E2E2E2E2E2E2E2E2E2E2E2E2E2E2E2E2E2E2E2E2E2E2E2E2E2E2E2E2E2E2E2
310
E2E2E2E2E2E2E2E2E2E2E2E2E2E2E2E2E2E2E2E2E2E2E2E2E2E2E2E2E2E2E2E2E2E2E2E2E2E2E2E2E2E2E2E2E2E2E2E2E2E2E2E2E2E2E2E2E2E2E2E2E2E2E2E2E2E2E2E2E2E2E2E2E2E2BEE2E2E2E2E2E2E2E2E2E2E2E2E2E2E2E2E2E2E2E2E2E2E2E2E2E2E2E2E2E2E2E2E2E2E2E2E2E2E2E2E2E2E2E2E2E2E2E2E2E2E2E2
310
E2E2BEE2E2E2E2E2E2E2E2E2E2E2E2E2E2E2E2E2E2BEE2E2E2E2BEBEBEBEBEBEBEBEE2E2E2E2E2E2E2E2E2E2E2E2E2E2E2E2E2E2E2E2BEE2BEBEBEE2E2E2BEE2E2E2BEE2E2E2BEE2E2E2BEE2E2E2E2E2E2E2E2E2E2E2E2E2E2E2E2E2E2E2E2E2E2E2E2E2E2E2E2E2E2E2E2E2E2E2E2E2E2E2E2E2E2E2E2E2E2E2E2E2E2E2E2
310
E2E2E2E2E2E2E2E2E2E2E2E2E2E2E2E2E2E2E2E2E2E2E2E2E2E2E2E2E2E2E2E2E2E2E2E2E2E2E2E2E2E2E2E2E2E2E2E2E2E2E2E2E2E2E2E2E2E2E2E2E2E2E2E2E2E2E2E2E2E2E2E2E2E2E2E2BEE2E2E2E2E2E2E2E2E2E2E2E2E2E2E2E2E2E2E2E2E2E2E2E2E2E2E2E2E2E2E2E2E2E2E2E2E2E2E2E2E2E2E2E2E2E2E2E2E2E2
310
E2E2E2E2BEE2E2E2E2E2E2E2E2E2E2E2E2E2E2E2E2E2E2BEE2E2E2E2E2BEBEBEE2E2E2E2E2E2E2E2E2E2E2E2E2E2E2E2E2E2E2E2E2E2E2E2BEE2E2E2E2E2E2BEBEE2E2E2BEE2E2E2BEE2E2E2BEE2E2E2E2E2E2E2E2E2E2E2E2E2E2E2E2E2E2E2E2E2E2E2E2E2E2E2E2E2E2E2E2E2E2E2E2E2E2E2E2E2E2E2E2E2E2E2E2E2E2
310
E2E2E2E2E2E2E2E2E2E2E2E2E2E2E2E2E2E2E2E2E2E2E2E2E2E2E2E2E2E2E2E2E2E2E2E2E2E2E2E2E2E2E2E2E2E2E2E2E2E2E2E2E2E2E2E2E2E2E2E2E2E2E2E2E2E2E2E2E2E2E2E2E2E2E2E2E2E2BEE2E2E2E2E2E2E2E2E2E2E2E2E2E2E2E2E2E2E2E2E2E2E2E2E2E2E2E2E2E2E2E2E2E2E2E2E2E2E2E2E2E2E2E2E2E2E2E2
310
E2E2E2E2E2E2BEE2E2E2E2E2E2E2E2E2E2E2E2E2E2E2E2E2E2BEE2E2E2E2E2E2E2BEBEBEE2E2E2E2E2E2E2E2E2E2E2E2E2E2E2E2E2E2E2E2E2E2E2BEE2BEBEBEE2BEBEE2E2E2BEE2E2E2BEE2E2E2BEE2E2E2E2E2E2E2E2E2E2E2E2E2E2E2E2E2E2E2E2E2E2E2E2E2E2E2E2E2E2E2E2E2E2E2E2E2E2E2E2E2E2E2E2E2E2E2E2
310
E2E2E2E2E2E2E2E2E2E2E2E2E2E2E2E2E2E2E2E2E2E2E2E2E2E2E2E2E2E2E2E2E2E2E2E2E2E2E2E2E2E2E2E2E2E2E2E2E2E2E2E2E2E2E2E2E2E2E2E2E2E2E2E2E2E2E2E2E2E2E2E2E2E2E2E2E2E2E2E2BEE2E2E2E2E2E2E2E2E2E2E2E2E2E2E2E2E2E2E2E2E2E2E2E2E2E2E2E2E2E2E2E2E2E2E2E2E2E2E2E2E2E2E2E2E2E2
310
E2E2E2E2E2E2E2E2BEE2E2E2E2E2E2E2E2E2E2E2E2E2E2E2E2E2E2BEE2E2E2E2E2E2E2E2E2BEBEBEE2E2E2E2E2E2E2E2E2E2E2E2E2E2E2E2E2E2E2E2E2BEE2BEE2BEBEE2E2BEE2E2BEE2E2E2BEE2E2E2BEE2E2E2E2E2E2E2E2E2E2E2E2E2E2E2E2E2E2E2E2E2E2E2E2E2E2E2E2E2E2E2E2E2E2E2E2E2E2E2E2E2E2E2E2E2E2
310
E2E2E2E2E2E2E2E2E2E2E2E2E2E2E2E2E2E2E2E2E2E2E2E2E2E2E2E2E2E2E2E2E2E2E2E2E2E2E2E2E2E2E2E2E2E2E2E2E2E2E2E2E2E2E2E2E2E2E2E2E2E2E2E2E2E2E2E2E2E2E2E2E2E2E2E2E2E2E2E2E2E2BEE2E2E2E2E2E2E2E2E2E2E2E2E2E2E2E2E2E2E2E2E2E2E2E2E2E2E2E2E2E2E2E2E2E2E2E2E2E2E2E2E2E2E2E2
310
E2E2E2E2E2E2E2E2E2E2BEE2E2E2E2E2E2E2E2E2E2E2E2E2E2E2E2E2E2BEE2E2E2E2E2E2E2E2E2E2E2E2BEBEE2E2E2E2E2E2E2E2E2E2E2E2E2E2E2E2E2E2E2E2BEE2E2E2BEE2E2BEE2E2BEBEE2E2BEBEBEE2BEE2E2E2E2E2E2E2E2E2E2E2E2E2E2E2E2E2E2E2E2E2E2E2E2E2E2E2E2E2E2E2E2E2E2E2E2E2E2E2E2E2E2E2E2
310
E2E2E2E2E2E2E2E2E2E2E2E2E2E2E2E2E2E2E2E2E2E2E2E2E2E2E2E2E2E2E2E2E2E2E2E2E2E2E2E2E2E2E2E2E2E2E2E2E2E2E2E2E2E2E2E2E2E2E2E2E2E2E2E2E2E2E2E2E2E2E2E2E2E2E2E2E2E2E2E2E2E2E2E2BEE2E2E2E2E2E2E2E2E2E2E2E2E2E2E2E2E2E2E2E2E2E2E2E2E2E2E2E2E2E2E2E2E2E2E2E2E2E2E2E2E2E2
310
E2E2E2E2E2E2E2E2E2E2E2E2BEE2E2E2E2E2E2E2E2E2E2E2E2E2E2E2E2E2E2BEE2E2E2E2E2E2E2E2E2E2E2E2E2E2BEBEBEE2E2E2E2E2E2E2E2E2E2E2E2E2E2E2E2E2BEE2E2E2BEE2E2BEE2E2BEE2E2E2BEBEE2E2BEE2E2E2E2E2E2E2E2E2E2E2E2E2E2E2E2E2E2E2E2E2E2E2E2E2E2E2E2E2E2E2E2E2E2E2E2E2E2E2E2E2E2
310
E2E2E2E2E2E2E2E2E2E2E2E2E2E2E2E2E2E2E2E2E2E2E2E2E2E2E2E2E2E2E2E2E2E2E2E2E2E2E2E2E2E2E2E2E2E2E2E2E2E2E2E2E2E2E2E2E2E2E2E2E2E2E2E2E2E2E2E2E2E2E2E2E2E2E2E2E2E2E2E2E2E2E2E2E2E2BEE2E2E2E2E2E2E2E2E2E2E2E2E2E2E2E2E2E2E2E2E2E2E2E2E2E2E2E2E2E2E2E2E2E2E2E2E2E2E2E2
310
E2E2E2E2E2E2E2E2E2E2E2E2E2E2BEE2E2E2E2E2E2E2E2E2E2E2E2E2E2E2E2E2E2BEE2E2E2E2E2E2E2E2E2E2E2E2E2E2E2E2E2BEBEBEBEE2E2E2E2E2E2E2E2E2E2E2E2E2BEBEBEBEBEE2E2BEE2E2BEE2E2E2BEBEE2E2BEE2E2E2E2E2E2E2E2E2E2E2E2E2E2E2E2E2E2E2E2E2E2E2E2E2E2E2E2E2E2E2E2E2E2E2E2E2E2E2E2
310
E2E2E2E2E2E2E2E2E2E2E2E2E2E2E2E2E2E2E2E2E2E2E2E2E2E2E2E2E2E2E2E2E2E2E2E2E2E2E2E2E2E2E2E2E2E2E2E2E2E2E2E2E2E2E2E2E2E2E2E2E2E2E2E2E2E2E2E2E2E2E2E2E2E2E2E2E2E2E2E2E2E2E2E2E2E2E2E2BEE2E2E2E2E2E2E2E2E2E2E2E2E2E2E2E2E2E2E2E2E2E2E2E2E2E2E2E2E2E2E2E2E2E2E2E2E2E2
310
E2E2E2E2E2E2E2E2E2E2E2E2E2E2E2E2BEE2E2E2E2E2E2E2E2E2E2E2E2E2E2E2E2E2E2BEE2E2E2E2E2E2E2E2E2E2E2E2E2E2E2E2E2E2E2BEBEBEBEBEBEE2E2E2E2E2E2E2BEBEBEBEBEBEBEBEE2BEE2E2BEBEE2E2BEE2BEE2BEE2E2E2E2E2E2E2E2E2E2E2E2E2E2E2E2E2E2E2E2E2E2E2E2E2E2E2E2E2E2E2E2E2E2E2E2E2E2
310
E2E2E2E2E2E2E2E2E2E2E2E2E2E2E2E2E2E2E2E2E2E2E2E2E2E2E2E2E2E2E2E2E2E2E2E2E2E2E2E2E2E2E2E2E2E2E2E2E2E2E2E2E2E2E2E2E2E2E2E2E2E2E2E2E2E2E2E2E2E2E2E2E2E2E2E2E2E2E2E2E2E2E2E2E2E2E2E2E2E2BEE2E2E2E2E2E2E2E2E2E2E2E2E2E2E2E2E2E2E2E2E2E2E2E2E2E2E2E2E2E2E2E2E2E2E2E2
310
E2E2E2E2E2E2E2E2E2E2E2E2E2E2E2E2E2E2BEE2E2E2E2E2E2E2E2E2E2E2E2E2E2E2E2E2E2BEE2E2E2E2E2E2E2E2E2E2E2E2E2E2E2E2E2BEBEE2E2E2E2E2E2BEBEBEBEBEBEBEBEBEBEE2BEE2E2BEE2BEE2E2BEBEE2E2E2E2BEE2E2E2E2E2E2E2E2E2E2E2E2E2E2E2E2E2E2E2E2E2E2E2E2E2E2E2E2E2E2E2E2E2E2E2E2E2E2
310
E2E2E2E2E2E2E2E2E2E2E2E2E2E2E2E2E2E2E2E2E2E2E2E2E2E2E2E2E2E2E2E2E2E2E2E2E2E2E2E2E2E2E2E2E2E2E2E2E2E2E2E2E2E2E2E2E2E2E2E2E2E2E2E2E2E2E2E2E2E2E2E2E2E2E2E2E2E2E2E2E2E2E2E2E2E2E2E2E2E2E2E2BEBEBEBEBEBEBEBEBEBEBEBEBEBEBEBEBEBEBEBEBEBEBEBEBEBEBEBEBEBEBEBEBEBEBE
310
BEBEBEBEBEBEBEBEBEBEBEBEBEBEBEBEBEBEBEBEBEE2E2E2E2E2E2E2E2E2E2E2E2E2E2E2E2E2E2BEE2E2E2E2E2E2BEBEBEE2E2E2BEBEBEBEBEE2E2E2E2E2E2E2E2E2E2E2E2BEBEE2BEBEBEBEE2BEBEBEE2BEE2E2BEBEBEBEBEE2BEBEBEBEBEBEBEBEBEBEBEBEBEE2E2E2E2E2E2E2E2E2E2E2E2E2E2E2E2E2E2E2E2E2E2E2E2
310
E2E2E2E2E2E2E2E2E2E2E2E2E2E2E2E2E2E2E2E2E2E2E2E2E2E2E2E2E2E2E2E2E2E2E2E2E2E2E2E2E2E2E2E2E2E2E2E2E2E2E2E2E2E2E2E2E2E2E2E2E2E2E2E2E2E2E2E2E2E2E2E2E2E2E2E2E2E2E2E2E2E2E2E2E2E2E2E2E2E2E2E2E2E2BEE2E2E2E2E2E2E2E2BEBEBEE2E2E2E2E2E2E2E2E2E2BEBEBEBEBEBEBEBEBEE2E2
310
E2E2E2E2E2E2E2E2E2E2E2E2BEBEE2E2E2E2E2E2E2E2BEE2E2E2E2E2E2E2E2E2E2E2E2E2E2E2E2E2E2BEE2E2E2E2E2BEBEBEBEBEBEBEBEBEBEE2E2E2E2E2E2E2E2E2E2E2E2E2E2E2E2E2BEBEBEBEBEBEBEE2E2BEE2E2BEE2BEBEBEE2E2BEBEBEBEBEBEBEBEBEBEBEBEE2E2E2E2E2E2E2E2E2E2E2E2E2E2E2E2E2E2E2E2E2E2
310
E2E2E2E2E2E2E2E2E2E2E2E2E2E2E2E2E2E2E2E2E2E2E2E2E2E2E2E2E2E2E2E2E2E2E2E2E2E2E2E2E2E2E2E2E2E2E2E2E2E2E2E2E2E2E2E2E2E2E2E2E2E2E2E2E2E2E2E2E2E2E2E2E2E2E2E2E2E2E2E2E2E2E2E2E2E2E2E2E2E2E2E2E2E2E2E2BEE2E2E2E2E2E2E2E2E2E2BEBEBEBEBEBEBEBEBEBEBEBEBEBEBEBEBEBEBEBE
310
BEBEBEBEBEBEBEE2BEBEBEBEBEBEBEE2E2E2E2E2E2E2E2E2BEE2E2E2E2E2E2E2E2E2E2E2E2E2E2E2E2E2E2BEE2E2E2BEBEBEBEBEBEE2E2E2BEBEBEE2E2E2E2E2E2E2E2E2E2E2E2E2E2E2E2E2BEBEBEBEBEBEBEE2E2E2BEE2BEE2BEBEBEE2E2BEE2BEBEBEE2E2E2BEBEBEE2E2E2E2E2E2E2E2E2E2E2E2E2E2E2E2E2E2E2E2E2
310
E2E2E2E2E2E2E2E2E2E2E2E2E2E2E2E2E2E2E2E2E2E2E2E2E2E2E2E2E2E2E2E2E2E2E2E2E2E2E2E2E2E2E2E2E2E2E2E2E2E2E2E2E2E2E2E2E2E2E2E2E2E2E2E2E2E2E2E2E2E2E2E2E2E2E2E2E2E2E2E2E2E2E2E2E2E2E2E2E2E2E2E2E2E2E2E2E2E2BEBEBEBEBEBEBEBEBEBEBEBEBEBEBEBEBEBEBEBEBEBEBEBEBEBEBEBEBE
310
BEBEBEBEBEBEBEBEBEBEBEBEBEBEBEBEBEBEBEBEBEBEBEBEBEBEBEE2E2E2E2E2E2E2E2E2E2E2E2E2E2E2E2E2E2BEE2E2BEBEBEBEBEBEBEBEBEE2BEBEBEE2E2E2E2E2E2E2E2E2E2E2E2E2E2E2E2E2E2E2BEE2E2E2E2E2E2E2BEE2BEE2E2E2E2E2E2E2E2E2E2E2E2E2E2E2E2E2E2E2E2E2E2E2E2E2E2E2E2E2E2E2E2E2E2E2E2
310
E2E2E2E2E2E2E2E2E2E2E2E2E2E2E2E2E2E2E2E2E2E2E2E2E2E2E2E2E2E2E2E2E2E2E2E2E2E2E2E2E2E2E2E2E2E2E2E2E2E2E2E2E2E2E2E2E2E2E2E2E2E2E2E2E2E2E2E2E2E2E2E2E2E2E2E2E2E2E2E2E2E2E2E2E2E2E2E2E2E2E2E2E2E2E2E2E2E2E2E2BEE2E2E2E2E2E2E2E2E2E2E2E2E2E2E2E2E2E2E2E2E2E2E2E2E2BE
310
BEBEBEE2E2E2E2E2E2E2E2E2E2E2E2E2E2E2E2E2E2E2E2E2E2E2E2E2BEE2E2E2E2E2E2E2E2E2E2E2E2E2E2E2E2E2E2BEE2E2BEBEBEBEE2BEBEBEBEBEBEBEBEE2E2E2E2E2E2E2E2E2E2E2E2E2E2E2E2E2E2E2BEE2E2E2E2E2E2E2BEE2BEE2E2E2E2E2E2E2E2E2E2E2E2E2E2E2E2E2E2E2E2E2E2E2E2E2E2E2E2E2E2E2E2E2E2
310
E2E2E2E2E2E2E2E2E2E2E2E2E2E2E2E2E2E2E2E2E2E2E2E2E2E2E2E2E2E2E2E2E2E2E2E2E2E2E2E2E2E2E2E2E2E2E2E2E2E2E2E2E2E2E2E2E2E2E2E2E2E2E2E2E2E2E2E2E2E2E2E2E2E2E2E2E2E2E2E2E2E2E2E2E2E2E2E2E2E2E2E2E2E2E2E2E2E2E2E2E2E2E2E2E2E2E2E2E2E2E2E2E2E2E2E2E2E2E2E2E2E2E2E2E2E2E2
310
E2BEE2BEBEE2E2E2E2E2E2E2E2E2E2E2E2E2E2E2E2E2E2E2E2E2E2E2E2E2E2E2E2E2E2E2E2E2E2E2E2E2E2E2E2E2E2E2E2BEE2E2E2E2E2E2E2E2E2E2E2E2E2E2E2E2E2E2E2E2E2E2E2E2E2E2E2E2E2E2E2E2E2BEE2E2E2E2E2E2E2E2BEE2BEE2E2E2E2E2E2E2E2E2E2E2E2E2E2E2E2E2E2E2E2E2E2E2E2E2E2E2E2E2E2E2E2
310
E2E2E2E2E2E2E2E2E2E2E2E2E2E2E2E2E2E2E2E2E2E2E2E2E2E2E2E2E2E2E2E2E2E2E2E2E2E2E2E2E2E2E2E2E2E2E2E2E2E2E2E2E2E2E2E2E2E2E2E2E2E2E2E2E2E2E2E2E2E2E2E2E2E2E2E2E2E2E2E2E2E2E2E2E2E2E2E2E2E2E2E2E2E2E2E2E2E2E2E2E2E2E2E2BEBEBEBEBEBEBEBEBEBEBEBEBEBEBEBEBEBEBEBEBEBEBE
310
BEBEBEBEBEBEBEBEBEBEBEBEBEBEBEBEBEBEBEBEBEBEBEBEBEBEBEBEBEBEBEBEBEBEBEBEE2E2E2E2E2E2E2E2E2E2E2E2E2E2E2BEBEBEBEBEBEBEBEBEBEBEBEBEBEBEBEBEBEBEBEBEBEBEBEBEBEBEBEBEBEBEBEBEBEBEBEBEBEBEBEBEBEBEBEBEBEE2E2E2E2E2E2E2E2E2E2E2E2E2E2E2E2E2E2E2E2E2E2E2E2E2E2E2E2E2E2
310
E2E2E2E2E2E2E2E2E2E2E2E2E2E2E2E2E2E2E2E2E2E2E2E2E2E2E2E2E2E2E2E2E2E2E2E2E2E2E2E2E2E2E2E2E2E2E2E2E2E2E2E2E2E2E2E2E2E2E2E2E2E2E2E2E2E2E2E2E2E2E2E2E2E2E2E2E2E2E2E2E2E2E2E2E2E2E2E2E2E2E2E2E2E2E2E2E2E2E2E2E2E2E2E2E2E2BEE2E2E2E2E2E2E2E2E2E2E2E2E2E2E2E2E2E2E2E2
310
E2E2E2E2E2E2E2E2E2E2E2E2E2E2E2E2E2E2E2E2E2E2E2E2E2E2E2E2E2E2E2E2E2E2BEE2BEE2E2E2E2E2E2E2E2E2E2E2E2E2E2E2E2E2E2E2E2E2E2E2E2E2E2E2E2BEBEBEBEE2E2BEBEBEBEBEBEBEBEBEBEBEBEBEBEBEBEE2E2E2E2E2E2E2E2E2BEE2E2E2E2E2E2E2E2E2E2E2E2E2E2E2E2E2E2E2E2E2E2E2E2E2E2E2E2E2E2
310
E2E2E2E2E2E2E2E2E2E2E2E2E2E2E2E2E2E2E2E2E2E2E2E2E2E2E2E2E2E2E2E2E2E2E2E2E2E2E2E2E2E2E2E2E2E2E2E2E2E2E2E2E2E2E2E2E2E2E2E2E2E2E2E2E2E2E2E2E2E2E2E2E2E2E2E2E2E2E2E2E2E2E2E2E2E2E2E2E2E2E2E2E2E2E2E2E2E2E2E2E2E2E2E2E2E2E2E2BEE2E2E2E2E2E2E2E2E2E2E2E2E2E2E2E2E2E2
310
E2E2E2E2E2E2E2E2E2E2E2E2E2E2E2E2E2E2E2E2E2E2E2E2E2E2E2E2E2E2E2E2E2E2E2E2BEE2BEE2E2E2E2E2E2E2E2E2E2E2E2E2E2E2E2E2E2E2E2E2E2E2E2E2E2E2E2E2E2E2E2E2BEBEBEE2BEE2E2E2E2BEBEE2E2E2E2E2BEE2E2E2E2E2E2E2E2E2BEE2E2E2E2E2E2E2E2E2E2E2E2E2E2E2E2E2E2E2E2E2E2E2E2E2E2E2E2
310
E2E2E2E2E2E2E2E2E2E2E2E2E2E2E2E2E2E2E2E2E2E2E2E2E2E2E2E2E2E2E2E2E2E2E2E2E2E2E2E2E2E2E2E2E2E2E2E2E2E2E2E2E2E2E2E2E2E2E2E2E2E2E2E2E2E2E2E2E2E2E2E2E2E2E2E2E2E2E2E2E2E2E2E2E2E2E2E2E2E2E2E2E2E2E2E2E2E2E2E2E2E2E2E2E2E2E2E2E2E2BEE2E2E2E2E2E2E2E2E2E2E2E2E2E2E2E2
310
E2E2E2E2E2E2E2E2E2E2E2E2E2E2E2E2E2E2E2E2E2E2E2E2E2E2E2E2E2E2E2E2E2E2E2E2E2E2BEE2BEE2E2E2E2E2E2E2E2E2E2E2E2E2E2E2E2E2E2E2E2E2E2E2E2E2E2E2E2E2E2E2E2E2E2E2E2E2E2E2E2E2E2E2E2E2E2E2BEBEE2E2E2E2E2E2E2E2E2E2BEE2E2E2E2E2E2E2E2E2E2E2E2E2E2E2E2E2E2E2E2E2E2E2E2E2E2
310
E2E2E2E2E2E2E2E2E2E2E2E2E2E2E2E2E2E2E2E2E2E2E2E2E2E2E2E2E2E2E2E2E2E2E2E2E2E2E2E2E2E2E2E2E2E2E2E2E2E2E2E2E2E2E2E2E2E2E2E2E2E2E2E2E2E2E2E2E2E2E2E2E2E2E2E2E2E2E2E2E2E2E2E2E2E2E2E2E2E2E2E2E2E2E2E2E2E2E2E2E2E2E2E2E2E2E2E2E2E2E2E2BEE2E2E2E2E2E2E2E2E2E2E2E2E2E2
310
E2E2E2E2E2E2E2E2E2E2E2E2E2E2E2E2E2E2E2E2E2E2E2E2E2E2E2E2E2E2E2E2E2E2E2E2E2E2E2E2BEE2BEE2E2E2E2E2E2E2E2E2E2E2E2E2E2E2E2E2E2E2E2E2E2E2E2E2E2E2E2E2E2E2E2E2E2E2BEBEBEBEBEBEBEBEBEBEBEBEBEE2E2E2E2E2E2E2E2E2E2E2E2BEE2E2E2E2E2E2E2E2E2E2E2E2E2E2E2E2E2E2E2E2E2E2E2
310
E2E2E2E2E2E2E2E2E2E2E2E2E2E2E2E2E2E2E2E2E2E2E2E2E2E2E2E2E2E2E2E2E2E2E2E2E2E2E2E2E2E2E2E2E2E2E2E2E2E2E2E2E2E2E2E2E2E2E2E2E2E2E2E2E2E2E2E2E2E2E2E2E2E2E2E2E2E2E2E2E2E2E2E2E2E2E2E2E2E2E2E2E2E2E2E2E2E2E2E2E2E2E2E2E2E2E2E2E2E2E2E2E2E2BEE2E2E2E2E2E2E2E2E2E2E2E2
310
E2E2E2E2E2E2E2E2E2E2E2E2E2E2E2E2E2E2E2E2E2E2E2E2E2E2E2E2E2E2E2E2E2E2E2E2E2E2E2E2E2E2BEE2BEE2E2E2E2E2E2E2E2E2E2E2E2E2E2E2E2E2E2E2E2E2E2E2E2E2E2E2E2E2E2E2E2E2E2E2BEE2BEE2E2BEBEBEBEBEE2E2E2E2E2E2E2E2E2E2E2E2E2E2E2BEE2E2E2E2E2E2E2E2E2E2E2E2E2E2E2E2E2E2E2E2E2
310
E2E2E2E2E2E2E2E2E2E2E2E2E2E2E2E2E2E2E2E2E2E2E2E2E2E2E2E2E2E2E2E2E2E2E2E2E2E2E2E2E2E2E2E2E2E2E2E2E2E2E2E2E2E2E2E2E2E2E2E2E2E2E2E2E2E2E2E2E2E2E2E2E2E2E2E2E2E2E2E2E2E2E2E2E2E2E2E2E2E2E2E2E2E2E2E2E2E2E2E2E2E2E2E2E2E2E2E2E2E2E2E2E2E2E2E2BEE2E2E2E2E2E2E2E2E2E2
310
E2E2E2E2E2E2E2E2E2E2E2E2E2E2E2E2E2E2E2E2E2E2E2E2E2E2E2E2E2E2E2E2E2E2E2E2E2E2E2E2E2E2E2E2BEE2BEE2E2E2E2E2E2E2E2E2E2E2E2E2E2E2E2E2E2E2E2E2E2E2E2E2E2E2E2E2E2E2E2E2E2E2E2E2E2E2BEBEBEBEBEBEBEBEBEE2E2E2E2E2E2E2E2E2E2E2E2BEE2E2E2E2E2E2E2E2E2E2E2E2E2E2E2E2E2E2E2
310
E2E2E2E2E2E2E2E2E2E2E2E2E2E2E2E2E2E2E2E2E2E2E2E2E2E2E2E2E2E2E2E2E2E2E2E2E2E2E2E2E2E2E2E2E2E2E2E2E2E2E2E2E2E2E2E2E2E2E2E2E2E2E2E2E2E2E2E2E2E2E2E2E2E2E2E2E2E2E2E2E2E2E2E2E2E2E2E2E2E2E2E2E2E2E2E2E2E2E2E2E2E2E2E2E2E2E2E2E2E2E2E2E2E2E2E2E2E2BEE2E2E2E2E2E2E2E2
310
E2E2E2E2E2E2E2E2E2E2E2E2E2E2E2E2E2E2E2E2E2E2E2E2E2E2E2E2E2E2E2E2E2E2E2E2E2E2E2E2E2E2E2E2E2E2BEE2BEE2E2E2E2E2E2E2E2E2E2E2E2E2E2E2E2E2E2E2E2E2E2E2E2E2E2E2E2E2E2E2E2E2E2E2E2E2E2E2BEBEBEBEBEBEBEBEBEE2E2E2E2E2E2E2E2E2E2E2E2BEE2E2E2E2E2E2E2E2E2E2E2E2E2E2E2E2E2
310
E2E2E2E2E2E2E2E2E2E2E2E2E2E2E2E2E2E2E2E2E2E2E2E2E2E2E2E2E2E2E2E2E2E2E2E2E2E2E2E2E2E2E2E2E2E2E2E2E2E2E2E2E2E2E2E2E2E2E2E2E2E2E2E2E2E2E2E2E2E2E2E2E2E2E2E2E2E2E2E2E2E2E2E2E2E2E2E2E2E2E2E2E2E2E2E2E2E2E2E2E2E2E2E2E2E2E2E2E2E2E2E2E2E2E2E2E2E2E2E2BEE2E2E2E2E2E2
310
E2E2E2E2E2E2E2E2E2E2E2E2E2E2E2E2E2E2E2E2E2E2E2E2E2E2E2E2E2E2E2E2E2E2E2E2E2E2E2E2E2E2E2E2E2E2E2E2BEBEBEE2E2E2E2E2E2E2E2E2E2E2E2E2E2E2E2E2E2E2E2E2E2E2E2E2E2E2E2E2E2E2E2E2E2E2E2E2E2E2E2E2E2E2E2E2E2E2BEBEBEBEE2BEBEBEBEBEE2E2BEBEE2E2E2E2E2E2E2E2E2E2E2E2E2E2E2
310
E2E2E2E2E2E2E2E2E2E2E2E2E2E2E2E2E2E2E2E2E2E2E2E2E2E2E2E2E2E2E2E2E2E2E2E2E2E2E2E2E2E2E2E2E2E2E2E2E2E2E2E2E2E2E2E2E2E2E2E2E2E2E2E2E2E2E2E2E2E2E2E2E2E2E2E2E2E2E2E2E2E2E2E2E2E2E2E2E2E2E2E2E2E2E2E2E2E2E2E2E2E2E2E2E2E2E2E2E2E2E2E2E2E2E2E2E2E2E2E2E2E2BEE2E2E2E2
310
E2E2E2E2E2E2E2E2E2E2E2E2E2E2E2E2E2E2E2E2E2E2E2E2E2E2E2E2E2E2E2E2E2E2E2E2E2E2E2E2E2E2E2E2E2E2E2E2E2E2BEBEBEE2E2E2E2E2E2E2E2E2E2E2E2E2E2E2E2E2E2E2E2E2E2E2E2E2E2E2E2E2E2E2E2E2E2E2E2E2E2E2E2E2E2E2E2E2E2E2BEBEBEBEBEBEBEBEBEBEBEBEBEE2E2E2E2E2E2E2E2E2E2E2E2E2E2
310
E2E2E2E2E2E2E2E2E2E2E2E2E2E2E2E2E2E2E2E2E2E2E2E2E2E2E2E2E2E2E2E2E2E2E2E2E2E2E2E2E2E2E2E2E2E2E2E2E2E2E2E2E2E2E2E2E2E2E2E2E2E2E2E2E2E2E2E2E2E2E2E2E2E2E2E2E2E2E2E2E2E2E2E2E2E2E2E2E2E2E2E2E2E2E2E2E2E2E2E2E2E2E2E2E2E2E2E2E2E2E2E2E2E2E2E2E2E2E2E2E2E2E2E2BEE2E2
310
E2E2E2E2E2E2E2E2E2E2E2E2E2E2E2E2E2E2E2E2E2E2E2E2E2E2E2E2E2E2E2E2E2E2E2E2E2E2E2E2E2E2E2E2E2E2E2E2E2E2E2E2BEBEBEE2E2E2E2E2E2E2E2E2E2E2E2E2E2E2E2E2E2E2E2E2E2E2E2E2E2E2E2E2E2E2E2E2E2E2E2E2E2E2E2E2E2E2E2E2E2E2E2E2E2E2BEBEBEBEBEBEBEBEBEE2E2E2E2E2E2E2E2E2E2E2E2
310
E2E2E2E2E2E2E2E2E2E2E2E2E2E2E2E2E2E2E2E2E2E2E2E2E2E2E2E2E2E2E2E2E2E2E2E2E2E2E2E2E2E2E2E2E2E2E2E2E2E2E2E2E2E2E2E2E2E2E2E2E2E2E2E2E2E2E2E2E2E2E2E2E2E2E2E2E2E2E2E2E2E2E2E2E2E2E2E2E2E2E2E2E2E2E2E2E2E2E2E2E2E2E2E2E2E2E2E2E2E2E2E2E2E2E2E2E2E2E2E2E2E2E2E2E2E2BE
310
E2E2E2E2E2E2E2E2E2E2E2E2E2E2E2E2E2E2E2E2E2E2E2E2E2E2E2E2E2E2E2E2E2E2E2E2E2E2E2E2E2E2E2E2E2E2E2E2E2E2E2E2E2E2BEBEBEE2E2E2E2E2E2E2E2E2E2E2E2E2E2E2E2E2E2E2E2E2E2E2E2E2E2E2E2E2E2E2E2E2E2E2E2E2E2E2E2E2E2E2E2E2E2E2E2E2E2E2BEBEBEBEBEBEBEBEBEE2E2E2E2E2E2E2E2E2E2
310
E2E2E2E2E2E2E2E2E2E2E2E2E2E2E2E2E2E2E2E2E2E2E2E2E2E2E2E2E2E2E2E2E2E2E2E2E2E2E2E2E2E2E2E2E2E2E2E2E2E2E2E2E2E2E2E2E2E2E2E2E2E2E2E2E2E2E2E2E2E2E2E2E2E2E2E2E2E2E2E2E2E2E2E2E2E2E2E2E2E2E2E2E2E2E2E2E2E2E2E2E2E2E2E2E2E2E2E2E2E2E2E2E2E2E2E2E2E2E2E2E2E2E2E2E2E2E2
310
E2BEE2E2E2E2E2E2E2E2E2E2E2E2E2E2E2E2E2E2E2E2E2E2E2E2E2E2E2E2E2E2E2E2E2E2E2E2E2E2E2E2E2E2E2E2E2E2E2E2E2E2E2E2E2E2BEE2BEE2E2E2E2E2E2E2E2E2E2E2E2E2E2E2E2E2E2E2E2E2E2E2E2E2E2E2E2E2E2E2E2E2E2E2E2E2E2E2E2E2E2E2E2E2E2E2E2E2E2E2E2BEBEBEE2E2BEBEBEE2E2E2E2E2E2E2E2
310
E2E2E2E2E2E2E2E2E2E2E2E2E2E2E2E2E2E2E2E2E2E2E2E2E2E2E2E2E2E2E2E2E2E2E2E2E2E2E2E2E2E2E2E2E2E2E2E2E2E2E2E2E2E2E2E2E2E2E2E2E2E2E2E2E2E2E2E2E2E2E2E2E2E2E2E2E2E2E2E2E2E2E2E2E2E2E2E2E2E2E2E2E2E2E2E2E2E2E2E2E2E2E2E2E2E2E2E2E2E2E2E2E2E2E2E2E2E2E2E2E2E2E2E2E2E2E2
310
E2E2E2BEE2E2E2E2E2E2E2E2E2E2E2E2E2E2E2E2E2E2E2E2E2E2E2E2E2E2E2E2E2E2E2E2E2E2E2E2E2E2E2E2E2E2E2E2E2E2E2E2E2E2E2E2E2E2BEBEBEE2E2E2E2E2E2E2E2E2E2E2E2E2E2E2E2E2E2E2E2E2E2E2E2E2E2E2E2E2E2E2E2E2E2E2E2E2E2E2E2E2E2E2E2E2E2E2E2E2E2E2E2E2E2E2E2E2E2E2E2E2E2E2E2E2E2
310
E2E2E2E2E2E2E2E2E2E2E2E2E2E2E2E2E2E2E2E2E2E2E2E2E2E2E2E2E2E2E2E2E2E2E2E2E2E2E2E2E2E2E2E2E2E2E2E2E2E2E2E2E2E2E2E2E2E2E2E2E2E2E2E2E2E2E2E2E2E2E2E2E2E2E2E2E2E2E2E2E2E2E2E2E2E2E2E2E2E2E2E2E2E2E2E2E2E2E2E2E2E2E2E2E2E2E2E2E2E2E2E2E2E2E2E2E2E2E2E2E2E2E2E2E2E2E2
310
E2E2E2E2E2BEE2E2E2E2E2E2E2E2E2E2E2E2E2E2E2E2E2E2E2E2E2E2E2E2E2E2E2E2E2E2E2E2E2E2E2E2E2E2E2E2E2E2E2E2E2E2E2E2E2E2E2E2E2E2BEBEBEE2E2E2E2E2E2E2E2E2E2E2E2E2E2E2E2E2E2E2E2E2E2E2E2E2E2E2E2E2E2E2E2E2E2E2E2E2E2E2E2E2E2E2E2E2E2E2E2E2E2E2E2E2E2E2E2E2E2E2E2E2E2E2E2
310
E2E2E2E2E2E2E2E2E2E2E2E2E2E2E2E2E2E2E2E2E2E2E2E2E2E2E2E2E2E2E2E2E2E2E2E2E2E2E2E2E2E2E2E2E2E2E2E2E2E2E2E2E2E2E2E2E2E2E2E2E2E2E2E2E2E2E2E2E2E2E2E2E2E2E2E2E2E2E2E2E2E2E2E2E2E2E2E2E2E2E2E2E2E2E2E2E2E2E2E2E2E2E2E2E2E2E2E2E2E2E2E2E2E2E2E2E2E2E2E2E2E2E2E2E2E2E2
310
E2E2E2E2E2E2E2BEE2E2E2E2E2E2E2E2E2E2E2E2E2E2E2E2E2E2E2E2E2E2E2E2E2E2E2E2E2E2E2E2E2E2E2E2E2E2E2E2E2E2E2E2E2E2E2E2E2E2E2E2E2E2BEBEBEE2E2E2E2E2E2E2E2E2E2E2E2E2E2E2E2E2E2E2E2E2E2E2E2E2E2E2E2E2E2E2E2E2E2E2E2E2E2E2E2E2E2E2E2E2E2E2E2E2E2E2E2E2E2E2E2E2E2E2E2E2E2
310
E2E2E2E2E2E2E2E2E2E2E2E2E2E2E2E2E2E2E2E2E2E2E2E2E2E2E2E2E2E2E2E2E2E2E2E2E2E2E2E2E2E2E2E2E2E2E2E2E2E2E2E2E2E2E2E2E2E2E2E2E2E2E2E2E2E2E2E2E2E2E2E2E2E2E2E2E2E2E2E2E2E2E2E2E2E2E2E2E2E2E2E2E2E2E2E2E2E2E2E2E2E2E2E2E2E2E2E2E2E2E2E2E2E2E2E2E2E2E2E2E2E2E2E2E2E2E2
310
E2E2E2E2E2E2E2E2E2BEE2E2E2E2E2E2E2E2E2E2E2E2E2E2E2E2E2E2E2E2E2E2E2E2E2E2E2E2E2E2E2E2E2E2E2E2E2E2E2E2E2E2E2E2E2E2E2E2E2E2E2E2E2E2BEBEBEE2E2E2E2E2E2E2E2E2E2E2E2E2E2E2E2E2E2E2E2E2E2E2E2E2E2E2E2E2E2E2E2E2E2E2E2E2E2E2E2E2E2E2E2E2E2E2E2E2E2E2E2E2E2E2E2E2E2E2E2
310
E2E2E2E2E2E2E2E2E2E2E2E2E2E2E2E2E2E2E2E2E2E2E2E2E2E2E2E2E2E2E2E2E2E2E2E2E2E2E2E2E2E2E2E2E2E2E2E2E2E2E2E2E2E2E2E2E2E2E2E2E2E2E2E2E2E2E2E2E2E2E2E2E2E2E2E2E2E2E2E2E2E2E2E2E2E2E2E2E2E2E2E2E2E2E2E2E2E2E2E2E2E2E2E2E2E2E2E2E2E2E2E2E2E2E2E2E2E2E2E2E2E2E2E2E2E2E2
310
E2E2E2E2E2E2E2E2E2E2E2BEE2E2E2E2E2E2E2E2E2E2E2E2E2E2E2E2E2E2E2E2E2E2E2E2E2E2E2E2E2E2E2E2E2E2E2E2E2E2E2E2E2E2E2E2E2E2E2E2E2E2E2E2E2E2BEBEBEE2E2E2E2E2E2E2E2E2E2E2E2E2E2E2E2E2E2E2E2E2E2E2E2E2E2E2E2E2E2E2E2E2E2E2E2E2E2E2E2E2E2E2E2E2E2E2E2E2E2E2E2E2E2E2E2E2E2
310
E2E2E2E2E2E2E2E2E2E2E2E2E2E2E2E2E2E2E2E2E2E2E2E2E2E2E2E2E2E2E2E2E2E2E2E2E2E2E2E2E2E2E2E2E2E2E2E2E2E2E2E2E2E2E2E2E2E2E2E2E2E2E2E2E2E2E2E2E2E2E2E2E2E2E2E2E2E2E2E2E2E2E2E2E2E2E2E2E2E2E2E2E2E2E2E2E2E2E2E2E2E2E2E2E2E2E2E2E2E2E2E2E2E2E2E2E2E2E2E2E2E2E2E2E2E2E2
310
E2E2E2E2E2E2E2E2E2E2E2E2E2BEE2E2E2E2E2E2E2E2E2E2E2E2E2E2E2E2E2E2E2E2E2E2E2E2E2E2E2E2E2E2E2E2E2E2E2E2E2E2E2E2E2E2E2E2E2E2E2E2E2E2E2E2E2E2BEBEBEE2E2E2E2E2E2E2E2E2E2E2E2E2E2E2E2E2E2E2E2E2E2E2E2E2E2E2E2E2BEBEBEBEBEBEBEBEBEBEBEBEBEBEBEBEBEBEBEBEBEBEBEBEBEBEBE
310
E2E2E2E2E2E2E2E2E2E2E2E2E2E2E2E2E2E2E2E2E2E2E2E2E2E2E2E2E2E2E2E2E2E2E2E2E2E2E2E2E2E2E2E2E2E2E2E2E2E2E2E2E2E2E2E2E2E2E2E2E2E2E2E2E2E2E2E2E2E2E2E2E2E2E2E2E2E2E2E2E2E2E2E2E2E2E2E2E2E2E2E2E2E2E2E2E2E2E2E2E2E2E2E2E2E2E2E2E2E2E2E2E2E2E2E2E2E2E2E2E2E2E2E2E2E2E2
310
E2E2E2E2E2E2E2E2E2E2E2E2E2E2E2BEE2E2E2E2E2E2E2E2E2E2E2E2E2E2E2E2E2E2E2E2E2E2E2E2E2E2E2E2E2E2E2E2E2E2E2E2E2E2E2E2E2E2E2E2E2E2E2E2E2E2E2E2E2E2BEBEBEE2E2E2E2E2E2E2E2E2E2E2E2E2E2E2E2E2E2E2E2E2E2E2E2E2E2E2E2E2BEE2E2BEBEBEBEBEBEBEBEE2E2BEBEBEBEBEBEBEBEBEBEBEBE
310
BEBEE2E2E2E2E2E2E2E2E2E2E2E2E2E2E2E2E2E2E2E2E2E2E2E2E2E2E2E2E2E2E2E2E2E2E2E2E2E2E2E2E2E2E2E2E2E2E2E2E2E2E2E2E2E2E2E2E2E2E2E2E2E2E2E2E2E2E2E2E2E2E2E2E2E2E2E2E2E2E2E2E2E2E2E2E2E2E2E2E2E2E2E2E2E2E2E2E2E2E2E2E2E2E2E2E2E2E2E2E2E2E2E2E2E2E2E2E2E2E2E2E2E2E2E2E2
310
E2E2E2E2E2E2E2E2E2E2E2E2E2E2E2E2E2BEE2E2E2E2E2E2E2E2E2E2E2E2E2E2E2E2E2E2E2E2E2E2E2E2E2E2E2E2E2E2E2E2E2E2E2E2E2E2E2E2E2E2E2E2E2E2E2E2E2E2E2E2E2E2BEBEBEE2E2E2E2E2E2E2E2E2E2E2E2E2E2E2E2E2E2E2E2E2E2E2E2E2E2E2E2E2BEBEBEBEBEBEBEBEBEBEBEBEBEBEBEBEBEBEBEBEBEBEBE
310
BEBEBEBEE2E2E2E2E2E2E2E2E2E2E2E2E2E2E2E2E2E2E2E2E2E2E2E2E2E2E2E2E2E2E2E2E2E2E2E2E2E2E2E2E2E2E2E2E2E2E2E2E2E2E2E2E2E2E2E2E2E2E2E2E2E2E2E2E2E2E2E2E2E2E2E2E2E2E2E2E2E2E2E2E2E2E2E2E2E2E2E2E2E2E2E2E2E2E2E2E2E2E2E2E2E2E2E2E2E2E2E2E2E2E2E2E2E2E2E2E2E2E2E2E2E2E2
310
E2E2E2E2E2E2E2E2E2E2E2E2E2E2E2E2E2E2E2BEE2E2E2E2E2E2E2E2E2E2E2E2E2E2E2E2E2E2E2E2E2E2E2E2E2E2E2E2E2E2E2E2E2E2E2E2E2E2E2E2E2E2E2E2E2E2E2E2E2E2E2E2E2E2BEBEBEE2E2E2E2E2E2E2E2E2E2E2E2E2E2E2E2E2E2E2E2E2E2E2E2E2E2E2E2E2BEE2E2BEBEBEBEBEBEBEBEE2E2BEE2E2E2BEBEBEBE
310
BEBEE2E2E2BEE2E2E2E2E2E2E2E2E2E2E2E2E2E2E2E2E2E2E2E2E2E2E2E2E2E2E2E2E2E2E2E2E2E2E2E2E2E2E2E2E2E2E2E2E2E2E2E2E2E2E2E2E2E2E2E2E2E2E2E2E2E2E2E2E2E2E2E2E2E2E2E2E2E2E2E2E2E2E2E2E2E2E2E2E2E2E2E2E2E2E2E2E2E2E2E2E2E2E2E2E2E2E2E2E2E2E2E2E2E2E2E2E2E2E2E2E2E2E2E2E2
310
E2E2E2E2E2E2E2E2E2E2E2E2E2E2E2E2E2E2E2E2E2BEE2E2E2E2E2E2E2E2E2E2E2E2E2E2E2E2E2E2E2E2E2E2E2E2E2E2E2E2E2E2E2E2E2E2E2E2E2E2E2E2E2E2E2E2E2E2E2E2E2E2E2E2E2E2BEBEBEE2E2E2E2E2E2E2E2E2E2E2E2E2E2E2E2E2E2E2E2E2E2E2E2E2E2E2E2E2BEE2E2BEBEBEBEBEBEBEBEE2E2BEE2E2E2BEBE
310
E2E2BEE2E2E2E2BEE2E2E2E2E2E2E2E2E2E2E2E2E2E2E2E2E2E2E2E2E2E2E2E2E2E2E2E2E2E2E2E2E2E2E2E2E2E2E2E2E2E2E2E2E2E2E2E2E2E2E2E2E2E2E2E2E2E2E2E2E2E2E2E2E2E2E2E2E2E2E2E2E2E2E2E2E2E2E2E2E2E2E2E2E2E2E2E2E2E2E2E2E2E2E2E2E2E2E2E2E2E2E2E2E2E2E2E2E2E2E2E2E2E2E2E2E2E2E2
310
E2E2E2E2E2E2E2E2E2E2E2E2E2E2E2E2E2E2E2E2E2E2E2BEE2E2E2E2E2E2E2E2E2E2E2E2E2E2E2E2E2E2E2E2E2E2E2E2E2E2E2E2E2E2E2E2E2E2E2E2E2E2E2E2E2E2E2E2E2E2E2E2E2E2E2E2E2E2BEBEBEE2E2E2E2E2E2E2E2E2E2E2E2E2E2E2E2E2E2E2E2E2E2E2E2E2E2E2E2E2BEBEBEBEBEBEBEBEBEBEBEBEBEBEBEBEBE
310
BEBEBEBEBEBEBEBEBEBEE2E2E2E2E2E2E2E2E2E2E2E2E2E2E2E2E2E2E2E2E2E2E2E2E2E2E2E2E2E2E2E2E2E2E2E2E2E2E2E2E2E2E2E2E2E2E2E2E2E2E2E2E2E2E2E2E2E2E2E2E2E2E2E2E2E2E2E2E2E2E2E2E2E2E2E2E2E2E2E2E2E2E2E2E2E2E2E2E2E2E2E2E2E2E2E2E2E2E2E2E2E2E2E2E2E2E2E2E2E2E2E2E2E2E2E2E2
310
E2E2E2E2E2E2E2E2E2E2E2E2E2E2E2E2E2E2E2E2E2E2E2E2E2BEE2E2E2E2E2E2E2E2E2E2E2E2E2E2BEBEBEBEBEBEBEBEBEBEBEBEBEBEBEBEBEBEBEE2E2E2E2E2E2E2E2E2E2E2E2E2E2E2E2E2E2E2E2E2BEBEBEE2E2E2E2E2E2E2E2E2E2E2E2E2E2E2E2E2E2E2E2E2E2E2E2E2E2E2E2E2E2E2E2E2E2E2E2E2E2E2E2E2E2E2E2
310
E2E2E2E2E2E2E2E2E2E2E2E2E2E2E2E2E2E2E2E2E2E2E2E2E2E2E2E2E2E2E2E2E2E2E2E2E2E2E2E2E2E2E2E2E2E2E2E2E2E2E2E2E2E2E2E2E2E2E2E2E2E2E2E2E2E2E2E2E2E2E2E2E2E2E2E2E2E2E2E2E2E2E2E2E2E2E2E2E2E2E2E2E2E2E2E2E2E2E2E2E2E2E2E2E2E2E2E2E2E2E2E2E2E2E2E2E2E2E2E2E2E2E2E2E2E2E2
310
E2E2E2E2E2E2E2E2E2E2E2E2E2E2E2E2E2E2E2E2E2E2E2E2E2E2E2BEE2E2E2E2E2E2E2E2E2E2E2BEBEBEE2BEE2E2E2E2E2E2E2E2E2E2E2E2E2E2E2E2E2BEBEBEBEBEBEBEE2E2E2E2E2E2E2E2E2E2E2E2E2E2BEBEBEE2E2E2E2E2E2E2E2E2E2E2E2E2E2E2E2E2E2E2E2E2E2E2E2E2E2E2E2E2E2BEBEBEBEBEBEE2E2E2BEBEBE
310
BEBEBEBEBEBEE2E2E2BEE2BEE2E2E2E2E2E2E2E2E2E2E2E2E2E2E2E2E2E2E2E2E2E2E2E2E2E2E2E2E2E2E2E2E2E2E2E2E2E2E2E2E2E2E2E2E2E2E2E2E2E2E2E2E2E2E2E2E2E2E2E2E2E2E2E2E2E2E2E2E2E2E2E2E2E2E2E2E2E2E2E2E2E2E2E2E2E2E2E2E2E2E2E2E2E2E2E2E2E2E2E2E2E2E2E2E2E2E2E2E2E2E2E2E2E2E2
310
E2E2E2E2E2E2E2E2E2E2E2E2E2E2E2E2E2E2E2E2E2E2E2E2E2E2E2E2E2BEE2E2E2E2E2E2E2E2BEBEBEE2E2E2E2E2E2E2E2E2E2E2E2E2E2E2E2E2E2E2E2E2E2E2E2E2E2E2E2E2BEBEBEBEBEBEE2E2E2E2E2E2E2E2BEBEBEE2E2E2E2E2E2E2E2E2E2E2E2E2E2E2E2E2E2E2E2E2E2E2E2E2E2E2E2E2E2BEBEBEE2E2E2BEBEBEBE
310
BEBEBEBEBEE2BEBEBEBEBEE2BEE2E2E2E2E2E2E2E2E2E2E2E2E2E2E2E2E2E2E2E2E2E2E2E2E2E2E2E2E2E2E2E2E2E2E2E2E2E2E2E2E2E2E2E2E2E2E2E2E2E2E2E2E2E2E2E2E2E2E2E2E2E2E2E2E2E2E2E2E2E2E2E2E2E2E2E2E2E2E2E2E2E2E2E2E2E2E2E2E2E2E2E2E2E2E2E2E2E2E2E2E2E2E2E2E2E2E2E2E2E2E2E2E2E2
310
E2E2E2E2E2E2E2E2E2E2E2E2E2E2E2E2E2E2E2E2E2E2E2E2E2E2E2E2E2E2E2BEBEBEBEBEBEBEBEBEBEBEE2E2E2E2E2E2E2E2E2E2E2E2E2E2E2E2E2E2E2E2E2E2E2E2E2E2E2E2E2E2E2E2BEBEBEBEBEBEBEBEBEBEBEBEBEBEBEE2E2E2E2E2E2E2E2E2E2E2E2E2E2E2E2E2E2E2E2E2E2E2E2E2E2E2E2E2E2BEBEBEBEBEBEE2E2
310
E2BEBEBEBEBEBEE2E2BEE2E2E2E2BEE2E2E2E2E2E2E2E2E2E2E2E2E2E2E2E2E2E2E2E2E2E2E2E2E2E2E2E2E2E2E2E2E2E2E2E2E2E2E2E2E2E2E2E2E2E2E2E2E2E2E2E2E2E2E2E2E2E2E2E2E2E2E2E2E2E2E2E2E2E2E2E2E2E2E2E2E2E2E2E2E2E2E2E2E2E2E2E2E2E2E2E2E2E2E2E2E2E2E2E2E2E2E2E2E2E2E2E2E2E2E2E2
310
E2E2E2E2E2E2E2E2E2E2E2E2E2E2E2E2E2E2E2E2E2E2E2E2E2E2E2E2E2E2E2E2E2BEE2E2E2E2E2E2E2E2BEE2BEBEBEBEBEE2E2E2E2E2E2E2E2E2E2E2E2E2E2E2E2E2E2E2BEBEBEBEBEBEBEBEE2E2E2BEE2E2E2E2E2E2E2E2E2BEBEE2E2E2E2E2E2E2E2E2E2E2E2E2E2E2E2E2E2E2E2E2E2E2E2E2E2E2E2E2E2BEBEE2BEBEE2
310
E2E2E2E2BEE2E2BEE2BEBEBEE2E2E2BEE2BEE2E2E2E2E2E2E2E2E2E2E2E2E2E2E2E2E2E2E2E2E2E2E2E2E2E2E2E2E2E2E2E2E2E2E2E2E2E2E2E2E2E2E2E2E2E2E2E2E2E2E2E2E2E2E2E2E2E2E2E2E2E2E2E2E2E2E2E2E2E2E2E2E2E2E2E2E2E2E2E2E2E2E2E2E2E2E2E2E2E2E2E2E2E2E2E2E2E2E2E2E2E2E2E2E2E2E2E2E2
310
E2E2E2E2E2E2E2E2E2E2E2E2E2E2E2E2E2E2E2E2E2E2E2E2E2E2E2E2E2E2E2E2E2E2E2BEE2E2E2E2E2E2E2E2E2BEBEBEBEE2E2BEBEBEBEBEBEBEBEBEBEBEBEBEBEBEBEBEBEBEE2E2E2E2E2E2E2E2BEBEBEBEE2E2E2E2E2E2E2E2E2E2BEE2E2E2E2E2E2E2E2E2E2E2E2E2E2E2E2E2E2E2E2E2E2E2E2E2E2E2E2E2E2E2E2E2E2
310
E2E2E2E2E2E2E2E2E2E2E2E2E2E2E2E2E2E2E2E2E2E2E2E2E2E2E2E2E2E2E2E2E2E2E2E2E2E2E2E2E2E2E2E2E2E2E2E2E2E2E2E2E2E2E2E2E2E2E2E2E2E2E2E2E2E2E2E2E2E2E2E2E2E2E2E2E2E2E2E2E2E2E2E2E2E2E2E2E2E2E2E2E2E2E2E2E2E2E2E2E2E2E2E2E2E2E2E2E2E2E2E2E2E2E2E2E2E2E2E2E2E2E2E2E2E2E2
310
E2E2E2E2E2E2E2E2E2E2E2E2E2E2E2E2E2E2E2E2E2E2E2E2E2E2E2E2E2E2E2E2E2E2E2E2E2BEE2E2E2E2E2E2E2E2E2E2E2BEE2BEBEBEBEBEBEBEE2E2E2E2E2E2E2E2E2E2E2E2E2BEBEBEBEBEBEBEBEBEBEE2E2E2E2E2E2E2E2E2E2E2E2E2BEE2E2E2E2E2E2E2E2E2E2E2E2E2E2E2E2E2E2E2E2E2E2E2E2E2E2E2E2E2E2E2E2
310
E2E2E2E2E2E2E2E2E2E2E2E2E2E2E2E2E2E2E2E2E2E2E2E2E2E2E2E2E2E2E2E2E2E2E2E2E2E2E2E2E2E2E2E2E2E2E2E2E2E2E2E2E2E2E2E2E2E2E2E2E2E2E2E2E2E2E2E2E2E2E2E2E2E2E2E2E2E2E2E2E2E2E2E2E2E2E2E2E2E2E2E2E2E2E2E2E2E2E2E2E2E2E2E2E2E2E2E2E2E2E2E2E2E2E2E2E2E2E2E2E2E2E2E2E2E2E2
310
E2E2E2E2E2E2E2E2E2E2E2E2E2E2E2E2E2E2E2E2E2E2E2E2E2E2E2E2E2E2E2E2E2E2E2E2E2E2E2E2BEBEBEBEBEBEBEBEBEBEBEBEBEBEBEBEBEBEBEBEBEBEBEBEBEBEBEBEBEBEBEBEBEBEBEBEBEBEBEBEBEBEBEE2E2E2E2E2E2E2E2E2E2E2E2E2BEE2E2E2E2E2E2E2E2E2E2E2E2E2E2E2E2E2E2E2E2E2E2E2E2E2E2E2E2E2E2
310
E2E2E2E2E2E2E2E2E2E2E2E2E2E2E2E2E2E2E2E2E2E2E2E2E2E2E2E2E2E2E2E2E2E2E2E2E2E2E2E2E2E2E2E2E2E2E2E2E2E2E2E2E2E2E2E2E2E2E2E2E2E2E2E2E2E2E2E2E2E2E2E2E2E2E2E2E2E2E2E2E2E2E2E2E2E2E2E2E2E2E2E2E2E2E2E2E2E2E2E2E2E2E2E2E2E2E2E2E2E2E2E2E2E2E2E2E2E2E2E2E2E2E2E2E2E2E2
310
E2E2E2E2E2E2E2E2E2E2E2E2E2E2E2E2E2E2E2E2E2E2E2E2E2E2E2E2E2E2E2E2E2E2E2E2E2E2E2E2E2E2E2E2E2E2E2E2E2E2E2E2E2E2E2E2E2E2E2E2E2BEE2BEBEBEBEE2E2E2E2BEBEBEBEE2BEE2E2E2E2E2E2E2E2E2E2E2E2E2E2E2E2E2E2E2E2E2BEE2E2E2E2E2E2E2E2E2E2E2E2E2E2E2E2E2E2E2E2E2E2E2E2E2E2E2E2
310
E2E2E2E2E2E2E2E2E2E2E2E2E2E2E2E2E2E2E2E2E2E2E2E2E2E2E2E2E2E2E2E2E2E2E2E2E2E2E2E2E2E2E2E2E2E2E2E2E2E2E2E2E2E2E2E2E2E2E2E2E2E2E2E2E2E2E2E2E2E2E2E2E2E2E2E2E2E2E2E2E2E2E2E2E2E2E2E2E2E2E2E2E2E2E2E2E2E2E2E2E2E2E2E2E2E2E2E2E2E2E2E2E2E2E2E2E2E2E2E2E2E2E2E2E2E2E2
310
E2E2E2E2E2E2E2E2E2E2E2E2E2E2E2E2E2E2E2E2E2E2E2E2E2E2E2E2E2E2E2E2E2E2E2E2E2E2E2E2E2E2E2E2E2E2E2E2E2E2E2E2E2E2E2E2E2E2E2E2E2E2E2BEE2BEBEBEBEE2E2E2E2BEBEBEBEE2BEE2E2E2E2E2E2E2E2E2E2E2E2E2E2E2E2E2E2E2E2E2BEE2E2E2E2E2E2E2E2E2E2E2E2E2E2E2E2E2E2E2E2E2E2E2E2E2E2
310
E2E2E2E2E2E2E2E2E2E2E2E2E2E2E2E2E2E2E2E2E2E2E2E2E2E2E2E2E2E2E2E2E2E2E2E2E2E2E2E2E2E2E2E2E2E2E2E2E2E2E2E2E2E2E2E2E2E2E2E2E2E2E2E2E2E2E2E2E2E2E2E2E2E2E2E2E2E2E2E2E2E2E2E2E2E2E2E2E2E2E2E2E2E2E2E2E2E2E2E2E2E2E2E2E2E2E2E2E2E2E2E2E2E2E2E2E2E2E2E2E2E2E2E2E2E2E2
310
E2E2E2E2E2E2E2E2E2E2E2E2E2E2E2E2E2E2E2E2E2E2E2E2E2E2E2E2E2E2E2E2E2E2E2E2E2E2E2E2E2E2E2E2E2E2E2E2E2E2E2E2E2E2E2E2E2E2E2E2E2E2E2E2E2BEBEBEBEBEE2E2E2E2E2E2BEBEBEBEBEE2E2E2E2E2E2E2E2E2E2E2E2E2E2E2E2E2E2E2E2E2BEE2E2E2E2E2E2E2E2E2E2E2E2E2E2E2E2E2E2E2E2E2E2E2E2
310
E2E2E2E2E2E2E2E2E2E2E2E2E2E2E2E2E2E2E2E2E2E2E2E2E2E2E2E2E2E2E2E2E2E2E2E2E2E2E2E2E2E2E2E2E2E2E2E2E2E2E2E2E2E2E2E2E2E2E2E2E2E2E2E2E2E2E2E2E2E2E2E2E2E2E2E2E2E2E2E2E2E2E2E2E2E2E2E2E2E2E2E2E2E2E2E2E2E2E2E2E2E2E2E2E2E2E2E2E2E2E2E2E2E2E2E2E2E2E2E2E2E2E2E2E2E2E2
310
E2E2E2E2E2E2E2E2E2E2E2E2E2E2E2E2E2E2E2E2E2E2E2E2E2E2E2E2E2E2E2E2E2E2E2E2E2E2E2E2E2E2E2E2E2E2E2E2E2E2E2E2E2E2E2E2E2E2E2E2E2E2E2E2E2E2E2BEBEBEBEBEE2E2E2E2E2E2BEBEBEBEBEE2E2E2E2E2E2E2E2E2E2E2E2E2E2E2E2E2E2E2E2E2BEE2E2E2E2E2E2E2E2E2E2E2E2E2E2E2E2E2E2E2E2E2E2
310
E2E2E2E2E2E2E2E2E2E2E2E2E2E2E2E2E2E2E2E2E2E2E2E2E2E2E2E2E2E2E2E2E2E2E2E2E2E2E2E2E2E2E2E2E2E2E2E2E2E2E2E2E2E2E2E2E2E2E2E2E2E2E2E2E2E2E2E2E2E2E2E2E2E2E2E2E2E2E2E2E2E2E2E2E2E2E2E2E2E2E2E2E2E2E2E2E2E2E2E2E2E2E2E2E2E2E2E2E2E2E2E2E2E2E2E2E2E2E2E2E2E2E2E2E2E2E2
310
E2E2E2E2E2E2E2E2E2E2E2E2E2E2E2E2E2E2E2E2E2E2E2E2E2E2E2E2E2E2E2E2E2E2E2E2E2E2E2E2E2E2E2E2E2E2E2E2E2E2E2E2E2E2E2E2E2E2E2E2E2E2E2E2E2E2E2E2E2BEE2BEBEE2E2E2E2E2E2E2E2BEBEE2BEE2E2E2E2E2E2E2E2E2E2E2E2E2E2E2E2E2E2E2E2E2BEE2E2E2E2E2E2E2E2E2E2E2E2E2E2E2E2E2E2E2E2
310
E2E2E2E2E2E2E2E2E2E2E2E2E2E2E2E2E2E2E2E2E2E2E2E2E2E2E2E2E2E2E2E2E2E2E2E2E2E2E2E2E2E2E2E2E2E2E2E2E2E2E2E2E2E2E2E2E2E2E2E2E2E2E2E2E2E2E2E2E2E2E2E2E2E2E2E2E2E2E2E2E2E2E2E2E2E2E2E2E2E2E2E2E2E2E2E2E2E2E2E2E2E2E2E2E2E2E2E2E2E2E2E2E2E2E2E2E2E2E2E2E2E2E2E2E2E2E2
310
E2E2E2E2E2E2E2E2E2E2E2E2E2E2E2E2E2E2E2E2E2E2E2E2E2E2E2E2E2E2E2E2E2E2E2E2E2E2E2E2E2E2E2E2E2E2E2E2E2E2E2E2E2E2E2E2E2E2E2E2E2E2E2E2E2E2E2E2E2E2E2BEBEBEBEBEBEBEBEBEBEBEBEBEBEBEBEBEBEBEBEBEBEBEBEBEBEBEBEBEBEBEBEBEBEBEBEBEBEBEE2E2E2E2E2E2E2E2E2E2E2E2E2E2E2E2E2
310
E2E2E2E2E2E2E2E2E2E2E2E2E2E2E2E2E2E2E2E2E2E2E2E2E2E2E2E2E2E2E2E2E2E2E2E2E2E2E2E2E2E2E2E2E2E2E2E2E2E2E2E2E2E2E2E2E2E2E2E2E2E2E2E2E2E2E2E2E2E2E2E2E2E2E2E2E2E2E2E2E2E2E2E2E2E2E2E2E2E2E2E2E2E2E2E2E2E2E2E2E2E2E2E2E2E2E2E2E2E2E2E2E2E2E2E2E2E2E2E2E2E2E2E2E2E2E2
310
E2E2E2E2E2E2E2E2E2E2E2E2E2E2E2E2E2E2E2E2E2E2E2E2E2E2E2E2E2E2E2E2E2E2E2E2E2E2E2E2E2E2E2E2E2E2E2E2E2E2E2E2E2E2E2E2E2E2E2E2E2E2E2E2E2E2E2E2E2E2E2E2E2BEE2BEBEE2E2E2E2E2E2E2E2BEBEE2BEE2E2E2E2E2E2E2E2E2E2E2E2E2E2E2E2E2E2E2E2E2E2E2E2E2E2E2E2E2E2E2E2E2E2E2E2E2E2
310
E2E2E2E2E2E2E2E2E2E2E2E2E2E2E2E2E2E2E2E2E2E2E2E2E2E2E2E2E2E2E2E2E2E2E2E2E2E2E2E2E2E2E2E2E2E2E2E2E2E2E2E2E2E2E2E2E2E2E2E2E2E2E2E2E2E2E2E2E2E2E2E2E2E2E2E2E2E2E2E2E2E2E2E2E2E2E2E2E2E2E2E2E2E2E2E2E2E2E2E2E2E2E2E2E2E2E2E2E2E2E2E2E2E2E2E2E2E2E2E2E2E2E2E2E2E2E2
310
E2E2E2E2E2E2E2E2E2E2E2E2E2E2E2E2E2E2E2E2E2E2E2E2E2E2E2E2E2E2E2E2E2E2E2E2E2E2E2E2E2E2E2E2E2E2E2E2E2E2E2E2E2E2E2E2E2E2E2E2E2E2E2E2E2E2E2E2E2E2E2E2E2E2E2BEE2BEBEE2E2E2E2E2E2E2E2BEBEE2BEE2E2E2E2E2E2E2E2E2E2E2E2E2E2E2E2E2E2E2E2E2E2E2E2E2E2E2E2E2E2E2E2E2E2E2E2
310
E2E2E2E2E2E2E2E2E2E2E2E2E2E2E2E2E2E2E2E2E2E2E2E2E2E2E2E2E2E2E2E2E2E2E2E2E2E2E2E2E2E2E2E2E2E2E2E2E2E2E2E2E2E2E2E2E2E2E2E2E2E2E2E2E2E2E2E2E2E2E2E2E2E2E2E2E2E2E2E2E2E2E2E2E2E2E2E2E2E2E2E2E2E2E2E2E2E2E2E2E2E2E2E2E2E2E2E2E2E2E2E2E2E2E2E2E2E2E2E2E2E2E2E2E2E2E2
310
E2E2E2E2E2E2E2E2E2E2E2E2E2E2E2E2E2E2E2E2E2E2E2E2E2E2E2E2E2E2E2E2E2E2E2E2E2E2E2E2E2E2E2E2E2E2E2E2E2E2E2E2E2E2E2E2E2E2E2E2E2E2E2E2E2E2E2E2E2E2E2E2E2E2E2E2E2BEE2BEBEE2E2E2E2E2E2E2E2BEBEE2BEE2E2E2E2E2E2E2E2E2E2E2E2E2E2E2E2E2E2E2E2E2E2E2E2E2E2E2E2E2E2E2E2E2E2
310
E2E2E2E2E2E2E2E2E2E2E2E2E2E2E2E2E2E2E2E2E2E2E2E2E2E2E2E2E2E2E2E2E2E2E2E2E2E2E2E2E2E2E2E2E2E2E2E2E2E2E2E2E2E2E2E2E2E2E2E2E2E2E2E2E2E2E2E2E2E2E2E2E2E2E2E2E2E2E2E2E2E2E2E2E2E2E2E2E2E2E2E2E2E2E2E2E2E2E2E2E2E2E2E2E2E2E2E2E2E2E2E2E2E2E2E2E2E2E2E2E2E2E2E2E2E2E2
310
E2E2E2E2E2E2E2E2E2E2E2E2E2E2E2E2E2E2E2E2E2E2E2E2E2E2E2E2E2E2E2E2E2E2E2E2E2E2E2E2E2E2E2E2E2E2E2E2E2E2E2E2E2E2E2E2E2E2E2E2E2E2E2E2E2E2E2E2E2E2E2E2E2E2E2E2E2E2E2BEE2BEBEE2E2E2E2E2E2E2E2BEBEE2BEE2E2E2E2E2E2E2E2E2E2E2E2E2E2E2E2E2E2E2E2E2E2E2E2E2E2E2E2E2E2E2E2
310
E2E2E2E2E2E2E2E2E2E2E2E2E2E2E2E2E2E2E2E2E2E2E2E2E2E2E2E2E2E2E2E2E2E2E2E2E2E2E2E2E2E2E2E2E2E2E2E2E2E2E2E2E2E2E2E2E2E2E2E2E2E2E2E2E2E2E2E2E2E2E2E2E2E2E2E2E2E2E2E2E2E2E2E2E2E2E2E2E2E2E2E2E2E2E2E2E2E2E2E2E2E2E2E2E2E2E2E2E2E2E2E2E2E2E2E2E2E2E2E2E2E2E2E2E2E2E2
310
E2E2E2E2E2E2E2E2E2E2E2E2E2E2E2E2E2E2E2E2E2E2E2E2E2E2E2E2E2E2E2E2E2E2E2E2E2E2E2E2E2E2E2E2E2E2E2E2E2E2E2E2E2E2E2E2E2E2E2E2E2E2E2E2E2E2E2E2E2E2E2E2E2E2E2E2E2E2E2E2E2BEBEBEBEBEBEBEBEBEBEBEBEBEBEBEBEE2E2E2E2E2E2E2E2E2E2E2E2E2E2E2E2E2E2E2E2E2E2E2E2E2E2E2E2E2E2
310
E2E2E2E2E2E2E2E2E2E2E2E2E2E2E2E2E2E2E2E2E2E2E2E2E2E2E2E2E2E2E2E2E2E2E2E2E2E2E2E2E2E2E2E2E2E2E2E2E2E2E2E2E2E2E2E2E2E2E2E2E2E2E2E2E2E2E2E2E2E2E2E2E2E2E2E2E2E2E2E2E2E2E2E2E2E2E2E2E2E2E2E2E2E2E2E2E2E2E2E2E2E2E2E2E2E2E2E2E2E2E2E2E2E2E2E2E2E2E2E2E2E2E2E2E2E2E2
310
E2E2E2E2E2E2E2E2E2E2E2E2E2E2E2E2E2E2E2E2E2E2E2E2E2E2E2E2E2E2E2E2E2E2E2E2E2E2E2E2E2E2E2E2E2E2E2E2E2E2E2E2E2E2E2E2E2E2E2E2E2E2E2E2E2E2E2E2E2E2E2E2E2E2E2E2E2E2E2E2E2E2E2BEE2BEBEE2E2BEBEBEBEE2E2BEBEE2BEE2E2E2E2E2E2E2E2E2E2E2E2E2E2E2E2E2E2E2E2E2E2E2E2E2E2E2E2
310
E2E2E2E2E2E2E2E2E2E2E2E2E2E2E2E2E2E2E2E2E2E2E2E2E2E2E2E2E2E2E2E2E2E2E2E2E2E2E2E2E2E2E2E2E2E2E2E2E2E2E2E2E2E2E2E2E2E2E2E2E2E2E2E2E2E2E2E2E2E2E2E2E2E2E2E2E2E2E2E2E2E2E2E2E2E2E2E2E2E2E2E2E2E2E2E2E2E2E2E2E2E2E2E2E2E2E2E2E2E2E2E2E2E2E2E2E2E2E2E2E2E2E2E2E2E2E2
310
E2E2E2E2E2E2E2E2E2E2E2E2E2E2E2E2E2E2E2E2E2E2E2E2E2E2E2E2E2E2E2E2E2E2E2E2E2E2E2E2E2E2E2E2E2E2E2E2E2E2E2E2E2E2E2E2E2E2E2E2E2E2E2E2E2E2E2E2E2E2E2E2E2E2E2E2E2E2E2E2E2E2E2E2E2E2E2BEBEE2E2E2BEBEBEE2E2BEBEE2E2E2E2E2E2E2E2E2E2E2E2E2E2E2E2E2E2E2E2E2E2E2E2E2E2E2E2
310
E2E2E2E2E2E2E2E2E2E2E2E2E2E2E2E2E2E2E2E2E2E2E2E2E2E2E2E2E2E2E2E2E2E2E2E2E2E2E2E2E2E2E2E2E2E2E2E2E2E2E2E2E2E2E2E2E2E2E2E2E2E2E2E2E2E2E2E2E2E2E2E2E2E2E2E2E2E2E2E2E2E2E2E2E2E2E2E2E2E2E2E2E2E2E2E2E2E2E2E2E2E2E2E2E2E2E2E2E2E2E2E2E2E2E2E2E2E2E2E2E2E2E2E2E2E2E2
310
E2E2E2E2E2E2E2E2E2E2E2E2E2E2E2E2E2E2E2E2E2E2E2E2E2E2E2E2E2E2E2E2E2E2E2E2E2E2E2E2E2E2E2E2E2E2E2E2E2E2E2E2E2E2E2E2E2E2E2E2E2E2E2E2E2E2E2E2E2E2E2E2E2E2E2E2E2E2E2E2E2E2E2E2E2E2E2E2E2BEBEE2E2E2E2E2E2E2E2BEBEE2E2E2E2E2E2E2E2E2E2E2E2E2E2E2E2E2E2E2E2E2E2E2E2E2E2
310
E2E2E2E2E2E2E2E2E2E2E2E2E2E2E2E2E2E2E2E2E2E2E2E2E2E2E2E2E2E2E2E2E2E2E2E2E2E2E2E2E2E2E2E2E2E2E2E2E2E2E2E2E2E2E2E2E2E2E2E2E2E2E2E2E2E2E2E2E2E2E2E2E2E2E2E2E2E2E2E2E2E2E2E2E2E2E2E2E2E2E2E2E2E2E2E2E2E2E2E2E2E2E2E2E2E2E2E2E2E2E2E2E2E2E2E2E2E2E2E2E2E2E2E2E2E2E2
310
E2E2E2E2E2E2E2E2E2E2E2E2E2E2E2E2E2E2E2E2E2E2E2E2E2E2E2E2E2E2E2E2E2E2E2E2E2E2E2E2E2E2E2E2E2E2E2E2E2E2E2E2E2E2E2E2E2E2E2E2E2E2E2E2E2E2E2E2E2E2E2E2E2E2E2E2E2E2E2E2E2E2E2E2E2E2E2E2E2E2E2BEBEE2E2E2E2E2E2E2E2BEBEE2E2E2E2E2E2E2E2E2E2E2E2E2E2E2E2E2E2E2E2E2E2E2E2
310
E2E2E2E2E2E2E2E2E2E2E2E2E2E2E2E2E2E2E2E2E2E2E2E2E2E2E2E2E2E2E2E2E2E2E2E2E2E2E2E2E2E2E2E2E2E2E2E2E2E2E2E2E2E2E2E2E2E2E2E2E2E2E2E2E2E2E2E2E2E2E2E2E2E2E2E2E2E2E2E2E2E2E2E2E2E2E2E2E2E2E2E2E2E2E2E2E2E2E2E2E2E2E2E2E2E2E2E2E2E2E2E2E2E2E2E2E2E2E2E2E2E2E2E2E2E2E2
310
E2E2E2E2E2E2E2E2E2E2E2E2E2E2E2E2E2E2E2E2E2E2E2E2E2E2E2E2E2E2E2E2E2E2E2E2E2E2E2E2E2E2E2E2E2E2E2E2E2E2E2E2E2E2E2E2E2E2E2E2E2E2E2E2E2E2E2E2E2E2E2E2E2E2E2E2E2E2E2E2E2E2E2E2E2E2E2E2E2E2E2E2E2BEBEE2E2E2E2E2E2E2E2BEBEE2E2E2E2E2E2E2E2E2E2E2E2E2E2E2E2E2E2E2E2E2E2
310
E2E2E2E2E2E2E2E2E2E2E2E2E2E2E2E2E2E2E2E2E2E2E2E2E2E2E2E2E2E2E2E2E2E2E2E2E2E2E2E2E2E2E2E2E2E2E2E2E2E2E2E2E2E2E2E2E2E2E2E2E2E2E2E2E2E2E2E2E2E2E2E2E2E2E2E2E2E2E2E2E2E2E2E2E2E2E2E2E2E2E2E2E2E2E2E2E2E2E2E2E2E2E2E2E2E2E2E2E2E2E2E2E2E2E2E2E2E2E2E2E2E2E2E2E2E2E2
310
E2E2E2E2E2E2E2E2E2E2E2E2E2E2E2E2E2E2E2E2E2E2E2E2E2E2E2E2E2E2E2E2E2E2E2E2E2E2E2E2E2E2E2E2E2E2E2E2E2E2E2E2E2E2E2E2E2E2E2E2E2E2E2E2E2E2E2E2E2E2E2E2E2E2E2E2E2E2E2E2E2E2E2E2E2E2E2E2E2E2E2E2E2E2E2E2BEE2E2E2E2E2E2E2E2BEE2E2E2E2E2E2E2E2E2E2E2E2E2E2E2E2E2E2E2E2E2
310
E2E2E2E2E2E2E2E2E2E2E2E2E2E2E2E2E2E2E2E2E2E2E2E2E2E2E2E2E2E2E2E2E2E2E2E2E2E2E2E2E2E2E2E2E2E2E2E2E2E2E2E2E2E2E2E2E2E2E2E2E2E2E2E2E2E2E2E2E2E2E2E2E2E2E2E2E2E2E2E2E2E2E2E2E2E2E2E2E2E2E2E2E2E2E2E2E2E2E2E2E2E2E2E2E2E2E2E2E2E2E2E2E2E2E2E2E2E2E2E2E2E2E2E2E2E2E2
310
E2E2E2E2E2E2E2E2E2E2E2E2E2E2E2E2E2E2E2E2E2E2E2E2E2E2E2E2E2E2E2E2E2E2E2E2E2E2E2E2E2E2E2E2E2E2E2E2E2E2E2E2E2E2E2E2E2E2E2E2E2E2E2E2E2E2E2E2E2E2E2E2E2E2E2E2E2E2E2E2E2E2E2E2E2E2E2E2E2E2E2E2E2E2E2E2E2E2E2E2E2E2E2E2E2E2E2E2E2E2E2E2E2E2E2E2E2E2E2E2E2E2E2E2E2E2E2
310
E2E2E2E2E2E2E2E2E2E2E2E2E2E2E2E2E2E2E2E2E2E2E2E2E2E2E2E2E2E2E2E2E2E2E2E2E2E2E2E2E2E2E2E2E2E2E2E2E2E2E2E2E2E2E2E2E2E2E2E2E2E2E2E2E2E2E2E2E2E2E2E2E2E2E2E2E2E2E2E2E2E2E2E2E2E2E2E2E2E2E2E2E2E2E2E2E2E2E2E2E2E2E2E2E2E2E2E2E2E2E2E2E2E2E2E2E2E2E2E2E2E2E2E2E2E2E2
310
E2E2E2E2E2E2E2E2E2E2E2E2E2E2E2E2E2E2E2E2E2E2E2E2E2E2E2E2E2E2E2E2E2E2E2E2E2E2E2E2E2E2E2E2E2E2E2E2E2E2E2E2E2E2E2E2E2E2E2E2E2E2E2E2E2E2E2E2E2E2E2E2E2E2E2E2E2E2E2E2E2E2E2E2E2E2E2E2E2E2E2E2E2E2E2E2E2E2E2E2E2E2E2E2E2E2E2E2E2E2E2E2E2E2E2E2E2E2E2E2E2E2E2E2E2E2E2
310
E2E2E2E2E2E2E2E2E2E2E2E2E2E2E2E2E2E2E2E2E2E2E2E2E2E2E2E2E2E2E2E2E2E2E2E2E2E2E2E2E2E2E2E2E2E2E2E2E2E2E2E2E2E2E2E2E2E2E2E2E2E2E2E2E2E2E2E2E2E2E2E2E2E2E2E2E2E2E2E2E2E2E2E2E2E2E2E2E2E2E2E2E2E2E2E2E2E2E2E2E2E2E2E2E2E2E2E2E2E2E2E2E2E2E2E2E2E2E2E2E2E2E2E2E2E2E2
310
E2E2E2E2E2E2E2E2E2E2E2E2E2E2E2E2E2E2E2E2E2E2E2E2E2E2E2E2E2E2E2E2E2E2E2E2E2E2E2E2E2E2E2E2E2E2E2E2E2E2E2E2E2E2E2E2E2E2E2E2E2E2E2E2E2E2E2E2E2E2E2E2E2E2E2E2E2E2E2E2E2E2E2E2E2E2E2E2E2E2E2E2E2E2E2E2E2E2E2E2E2E2E2E2E2E2E2E2E2E2E2E2E2E2E2E2E2E2E2E2E2E2E2E2E2E2E2
310
E2E2E2E2E2E2E2E2E2E2E2E2E2E2E2E2E2E2E2E2E2E2E2E2E2E2E2E2E2E2E2E2E2E2E2E2E2E2E2E2E2E2E2E2E2E2E2E2E2E2E2E2E2E2E2E2E2E2E2E2E2E2E2E2E2E2E2E2E2E2E2E2E2E2E2E2E2E2E2E2E2E2E2E2E2E2E2E2E2E2E2E2E2E2E2E2E2E2E2E2E2E2E2E2E2E2E2E2E2E2E2E2E2E2E2E2E2E2E2E2E2E2E2E2E2E2E2
310
E2E2E2E2E2E2E2E2E2E2E2E2E2E2E2E2E2E2E2E2E2E2
  0
XRECORD
  5
17ADF
102
{ACAD_REACTORS
330
D2AB
102
}
330
D2AB
100
AcDbXrecord
280
     1
102
SHADEPLOT
 70
     1
102
SHADEPLOTRESLEVEL
 70
     2
102
SHADEPLOTCUSTOMDPI
 70
   300
  0
XRECORD
  5
D2AC
102
{ACAD_REACTORS
330
D2AB
102
}
330
D2AB
100
AcDbXrecord
280
     1
310
28000000B40000007F00000001000800000000004C590000000000000000000000010000000000003F3F3F0000000000FFFFFF000000000000000000000000000000000000000000000000000000000000000000330000006600000099000000CC000000FF00000000330000333300006633000099330000CC330000FF3300
310
0000660000336600006666000099660000CC660000FF66000000990000339900006699000099990000CC990000FF99000000CC000033CC000066CC000099CC0000CCCC0000FFCC000000FF000033FF000066FF000099FF0000CCFF0000FFFF000000003300330033006600330099003300CC003300FF003300003333003333
310
33006633330099333300CC333300FF33330000663300336633006666330099663300CC663300FF66330000993300339933006699330099993300CC993300FF99330000CC330033CC330066CC330099CC3300CCCC3300FFCC330000FF330033FF330066FF330099FF3300CCFF3300FFFF330000006600330066006600660099
310
006600CC006600FF00660000336600333366006633660099336600CC336600FF33660000666600336666006666660099666600CC666600FF66660000996600339966006699660099996600CC996600FF99660000CC660033CC660066CC660099CC6600CCCC6600FFCC660000FF660033FF660066FF660099FF6600CCFF6600
310
FFFF660000009900330099006600990099009900CC009900FF00990000339900333399006633990099339900CC339900FF33990000669900336699006666990099669900CC669900FF66990000999900339999006699990099999900CC999900FF99990000CC990033CC990066CC990099CC9900CCCC9900FFCC990000FF99
310
0033FF990066FF990099FF9900CCFF9900FFFF99000000CC003300CC006600CC009900CC00CC00CC00FF00CC000033CC003333CC006633CC009933CC00CC33CC00FF33CC000066CC003366CC006666CC009966CC00CC66CC00FF66CC000099CC003399CC006699CC009999CC00CC99CC00FF99CC0000CCCC0033CCCC0066CC
310
CC0099CCCC00CCCCCC00FFCCCC0000FFCC0033FFCC0066FFCC0099FFCC00CCFFCC00FFFFCC000000FF003300FF006600FF009900FF00CC00FF00FF00FF000033FF003333FF006633FF009933FF00CC33FF00FF33FF000066FF003366FF006666FF009966FF00CC66FF00FF66FF000099FF003399FF006699FF009999FF00CC
310
99FF00FF99FF0000CCFF0033CCFF0066CCFF0099CCFF00CCCCFF00FFCCFF0000FFFF0033FFFF0066FFFF0099FFFF00CCFFFF00FFFFFF00000000000D0D0D001A1A1A00282828003535350043434300505050005D5D5D006B6B6B00787878008686860093939300A1A1A100AEAEAE00BBBBBB00C9C9C900D6D6D600E4E4E400
310
F1F1F100FFFFFF0000000000000000000000000000000000000000000000000000000000000000000000000000000000E7E7E7E7E7E7E7E7E7E7E7E7E7E7E7E7E7E7E7E7E7E7E7E7E7E7E7E7E7E7E7E7E7E7E7E7E7E7E7E7E7E7E7E7E7E7E7E7E7E7E7E7E7E7E7E7E7E7E7E7E7E7E7E7E7E7E7E7E7E7E7E7E7E7E7E7E7E7E7
310
E7E7E7E7E7E7E7E7E7E7E7E7E7E7E7E7E7E7E7E7E7E7E7E7E7E7E7E7E7E7E7E7E7E7E7E7E7E7E7E7E7E7E7E7E7E7E7E7E7E7E7E7E7E7E7E7E7E7E7E7E7E7E7E7E7E7E7E7E7E7E7E7E7E7E7E7E7E7E7E7E7E7E7E7E7E7E7E7E7E7E7E7E7E7E7E7E7E7E7E7E7E7E7E7E7E7E7E7E7E7E7E7E7E7E7E7E7E7E7E7E7E7E7E7E7E7E7
310
E7E7E7E7E7E7E7E7E7E7E7E7E7E7E7E7E7E7E7E7E7E7E7E7E7E7E7E7E7E7E7E7E7E7E7E7E7E7E7E7E7E7E7E7E7E7E7E7E7E7E7E7E7E7E7E7E7E7E7E7E7E7E7E7E7E7E7E7E7E7E7E7E7E7E7E7E7E7E7E7E7E7E7E7E7E7E7E7E7E7E7E7E7E7E7E7E7E7E7E7E7E7E7E7E7E7E7E7E7E7E7E7E7E7E7E7E7E7E7E7E7E7E7E7E7E7E7
310
E7E7E7E7E7E7E7E7E7E7E7E7E7E7E7E7E7E7E7E7E7E7E7E7E7E7E7E7E7E7E7E7E7E7E7E7E7E7E7E7E7E7E7E7E7E7E7E7E7E7E7E7E7E7E7E7E7E7E7E7E7E7E7E7E7E7E7E7E7E7E7E7E7E7E7E7E7E7E7E7E7E7E7E7E7E7E7E7E7E7E7E7E7E7E7E7E7E7E7E7E7E7E7E7E7E7E7E7E7E7E7E7E7E7E7E7E7E7E7E7E7E7E7E7E7E7E7
310
E7E7E7E7E7E7E7E7E7E7E7E7E7E7E7E7E7E7E7E7E7E7E7E7E7E7E7E7E7E7E7E7E7E7E7E7E7E7E7E7E7E7E7E7E7E7E7E7E7E7E7E7E7E7E7E7E7E7E7E7E7E7E7E7E7E7E7E7E7E7E7E7E7E7E7E7E7E7E7E7E7E7E7E7E7E7E7E7E7E7E7E7E7E7E7E7E7E7E7E7E7E7E7E7E7E7E7E7E7E7E7E7E7E7E7E7E7E7E7E7E7E7E7E7E7E7E7
310
E7E7E7E7E7E7E7E7E7E7E7E7E7E7E7E7E7E7E7E7E7E7E7E7E7E7E7E7E7E7E7E7E7E7E7E7E7E7E7E7E7E7E7E7E7E7E7E7E7E7E7E7E7E7E7E7E7E7E7E7E7E7E7E7E7E7E7E7E7E7E7E7E7E7E7E7E7E7E7E7E7E7E7E7E7E7E7E7E7E7E7E7E7E7E7E7E7E7E7E7E7E7E7E7E7E7E7E7E7E7E7E7E7E7E7E7E7E7E7E7E7E7E7E7E7E7E7
310
E7E7E7E7E7E7E7E7E7E7E7E7E7E7E7E7E7E7E7E7E7E7E7E7E7E7E7E7E7E7E7E7E7E7E7E7E7E7E7E7E7E7E7E7E7E7E7E7E7E7E7E7E7E7E7E7E7E7E7E7E7E7E7E7E7E7E7E7E7E7E7E7E7E7E7E7E7E7E7E7E7E7E7E7E7E7E7E7E7E7E7E7E7E7E7E7E7E7E7E7E7E7E7E7E7E7E7E7E7E7E7E7E7E7E7E7E7E7E7E7E7E7E7E7E7E7E7
310
E7E7E7E7E7E7E7E7E7E7E7E7E7E7E7E7E7E7E7E7E7E7E7E7E7E7E7E7E7E7E7E7E7E7E7E7E7E7E7E7E7E7E7E7E7E7E7E7E7E7E7E7E7E7E7E7E7E7E7E7E7E7E7E7E7E7E7E7E7E7E7E7E7E7E7E7E7E7E7E7E7E7E7E7E7E7E7E7E7E7E7E7E7E7E7E7E7E7E7E7E7E7E7E7E7E7E7E7E7E7E7E7E7E7E7E7E7E7E7E7E7E7E7E7E7E7E7
310
E7E7E7E7E7E7E7E7E7E7E7E7E7E7E7E7E7E7E7E7E7E7E7E7E7E7E7E7E7E7E7E7E7E7E7E7E7E7E7E7E7E7E7E7E7E7E7E7E7E7E7E7E7E7E7E7E7E7E7E7E7E7E7E7E7E7E7E7E7E7E7E7E7E7E7E7E7E7E7E7E7E7E7E7E7E7E7E7E7E7E7E7E7E7E7E7E7E7E7E7E7E7E7E7E7E7E7E7E7E7E7E7E7E7E7E7E7E7E7E7E7E7E7E7E7E7E7
310
E7E7E7E7E7E7E7E7E7E7E7E7E7E7E7E7E7E7E7E7E7E7E7E7E7E7E7E7E7E7E7E7E7E7E7E7E7E7E7E7E7E7E7E7E7E7E7E7E7E7E7E7E7E7E7E7E7E7E7E7E7E7E7E7E7E7E7E7E7E7E7E7E7E7E7E7E7E7E7E7E7E7E7E7E7E7E7E7E7E7E7E7E7E7E7E7E7E7E7E7E7E7E7E7E7E7E7E7E7E7E7E7E7E7E7E7E7E7E7E7E7E7E7E7E7E7E7
310
E7E7E7E7E7E7E7E7E7E7E7E7E7E7E7E7E7E7E7E7E7E7E7E7E7E7E7E7E7E7E7E7E7E7E7E7E7E7E7E7E7E7E7E7E7E7E7E7E7E7E7E7E7E7E7E7E7E7E7E7E7E7E7E7E7E7E7E7E7E7E7E7E7E7E7E7E7E7E7E7E7E7E7E7E7E7E7E7E7E7E7E7E7E7E7E7E7E7E7E7E7E7E7E7E7E7E7E7E7E7E7E7E7E7E7E7E7E7E7E7E7E7E7E7E7E7E7
310
E7E7E7E7E7E7E7E7E7E7E7E7E7E7E7E7E7E7E7E7E7E7E7E7E7E7E7E7E7E7E7E7E7E7E7E7E7E7E7E7E7E7E7E7E7E7E7E7E7E7E7E7E7E7E7E7E7E7E7E7E7E7E7E7E7E7E7E7E7E7E7E7E7E7E7E7E7E7E7E7E7E7E7E7E7E7E7E7E7E7E7E7E7E7E7E7E7E7E7E7E7E7E7E7E7E7E7E7E7E7E7E7E7E7E7E7E7E7E7E7E7E7E7E7E7E7E7
310
E7E7E7E7E7E7E7E7E7E7E7E7E7E7E7E7E7E7E7E7E7E7E7E7E7E7E7E7E7E7E7E7E7E7E7E7E7E7E7E7E7E7E7E7E7E7E7E7E7E7E7E7E7E7E7E7E7E7E7E7E7E7E7E7E7E7E7E7E7E7E7E7E7E7E7E7E7E7E7E7E7E7E7E7E7E7E7E7E7E7E7E7E7E7E7E7E7E7E7E7E7E7E7E7E7E7E7E7E7E7E7E7E7E7E7E7E7E7E7E7E7E7E7E7E7E7E7
310
E7E7E7E7E7E7E7E7E7E7E7E7E7E7E7E7E7E7E7E7E7E7E7E7E7E7E7E7E7E7E7E7E7E7E7E7E7E7E7E7E7E7E7E7E7E7E7E7E7E7E7E7E7E7E7E7E7E7E7E7E7E7E7E7E7E7E7E7E7E7E7E7E7E7E7E7E7E7E7E7E7E7E7E7E7E7E7E7E7E7E7E7E7E7E7E7E7E7E7E7E7E7E7E7E7E7E7E7E7E7E7E7E7E7E7E7E7E7E7E7E7E7E7E7E7E7E7
310
E7E7E7E7E7E7E7E7E7E7E7E7E7E7E7E7E7E7E7E7E7E7E7E7E7E7E7E7E7E7E7E7E7E7E7E7E7E7E7E7E7E7E7E7E7E7E7E7E7E7E7E7E7E7E7E7E7E7E7E7E7E7E7E7E7E7E7E7E7E7E7E7E7E7E7E7E7E7E7E7E7E7E7E7E7E7E7E7E7E7E7E7E7E7E7E7E7E7E7E7E7E7E7E7E7E7E7E7E7E7E7E7E7E7E7E7E7E7E7E7E7E7E7E7E7E7E7
310
E7E7E7E7E7E7E7E7E7E7E7E7E7E7E7E7E7E7E7E7E7E7E7E7E7E7E7E7E7E7E7E7E7E7E7E7E7E7E7E7E7E7E7E7E7E7E7E7E7E7E7E7E7E7E7E7E7E7E7E7E7E7E7E7E7E7E7E7E7E7E7E7E7E7E7E7E7E7E7E7E7E7E7E7E7E7E7E7E7E7E7E7E7E7E7E7E7E7E7E7E7E7E7E7E7E7E7E7E7E7E7E7E7E7E7E7E7E7E7E7E7E7E7E7E7E7E7
310
E7E7E7E7E7E7E7E7E7E7E7E7E7E7E7E7E7E7E7E7E7E7E7E7E7E7E7E7E7E7E7E7E7E7E7E7E7E7E7E7E7E7E7E7E7E7E7E7E7E7E7E7E7E7E7E7E7E7E7E7E7E7E7E7E7E7E7E7E7E7E7E7E7E7E7E7E7E7E7E7E7E7E7E7E7E7E7E7E7E7E7E7E7E7E7E7E7E7E7E7E7E7E7E7E7E7E7E7E7E7E7E7E7E7E7E7E7E7E7E7E7E7E7E7E7E7E7
310
E7E7E7E7E7E7E7E7E7E7E7E7E7E7E7E7E7E7E7E7E7E7E7E7E7E7E7E7E7E7E7E7E7E7E7E7E7E7E7E7E7E7E7E7E7E7E7E7E7E7E7E7E7E7E7E7E7E7E7E7E7E7E7E7E7E7E7E7E7E7E7E7E7E7E7E7E7E7E7E7E7E7E7E7E7E7E7E7E7E7E7E7E7E7E7E7E7E7E7E7E7E7E7E7E7E7E7E7E7E7E7E7E7E7E7E7E7E7E7E7E7E7E7E7E7E7E7
310
E7E7E7E7E7E7E7E7E7E7E7E7E7E7E7E7E7E7E7E7E7E7E7E7E7E7E7E7E7E7E7E7E7E7E7E7E7E7E7E7E7E7E7E7E7E7E7E7E7E7E7E7E7E7E7E7E7E7E7E7E7E7E7E7E7E7E7E7E7E7E7E7E7E7E7E7E7E7E7E7E7E7E7E7E7E7E7E7E7E7E7E7E7E7E7E7E7E7E7E7E7E7E7E7E7E7E7E7E7E7E7E7E7E7E7E7E7E7E7E7E7E7E7E7E7E7E7
310
E7E7E7E7E7E7E7E7E7E7E7E7E7E7E7E7E7E7E7E7E7E7E7E7E7E7E7E7E7E7E7E7E7E7E7E7E7E7E7E7E7E7E7E7E7E7E7E7E7E7E7E7E7E7E7E7E7E7E7E7E7E7E7E7E7E7E7E7E7E7E7E7E7E7E7E7E7E7E7E7E7E7E7E7E7E7E7E7E7E7E7E7E7E7E7E7E7E7E7E7E7E7E7E7E7E7E7E7E7E7E7E7E7E7E7E7E7E7E7E7E7E7E7E7E7E7E7
310
E7E7E7E7E7E7E7E7E7E7E7E7E7E7E7E7E7E7E7E7E7E7E7E7E7E7E7E7E7E7E7E7E7E7E7E7E7E7E7E7E7E7E7E7E7E7E7E7E7E7E7E7E7E7E7E7E7E7E7E7E7E7E7E7E7E7E7E7E7E7E7E7E7E7E7E7E7E7E7E7E7E7E7E7E7E7E7E7E7E7E7E7E7E7E7E7E7E7E7E7E7E7E7E7E7E7E7E7E7E7E7E7E7E7E7E7E7E7E7E7E7E7E7E7E7E7E7
310
E7E7E7E7E7E7E7E7E7E7E7E7E7E7E7E7E7E7E7E7E7E7E7E7E7E7E7E7E7E7E7E7E7E7E7E7E7E7E7E7E7E7E7E7E7E7E7E7E7E7E7E7E7E7E7E7E7E7E7E7E7E7E7E7E7E7E7E7E7E7E7E7E7E7E7E7E7E7E7E7E7E7E7E7E7E7E7E7E7E7E7E7E7E7E7E7E7E7E7E7E7E7E7E7E7E7E7E7E7E7E7E7E7E7E7E7E7E7E7E7E7E7E7E7E7E7E7
310
E7E7E7E7E7E7E7E7E7E7E7E7E7E7E7E7E7E7E7E7E7E7E7E7E7E7E7E7E7E7E7E7E7E7E7E7E7E7E7E7E7E7E7E7E7E7E7E7E7E7E7E7E7E7E7E7E7E7E7E7E7E7E7E7E7E7E7E7E7E7E7E7E7E7E7E7E7E7E7E7E7E7E7E7E7E7E7E7E7E7E7E7E7E7E7E7E7E7E7E7E7E7E7E7E7E7E7E7E7E7E7E7E7E7E7E7E7E7E7E7E7E7E7E7E7E7E7
310
E7E7E7E7E7E7E7E7E7E7E7E7E7E7E7E7E7E7E7E7E7E7E7E7E7E7E7E7E7E7E7E7E7E7E7E7E7E7E7E7E7E7E7E7E7E7E7E7E7E7E7E7E7E7E7E7E7E7E7E7E7E7E7E7E7E7E7E7E7E7E7E7E7E7E7E7E7E7E7E7E7E7E7E7E7E7E7E7E7E7E7E7E7E7E7E7E7E7E7E7E7E7E7E7E7E7E7E7E7E7E7E7E7E7E7E7E7E7E7E7E7E7E7E7E7E7E7
310
E7E7E7E7E7E7E7E7E7E7E7E7E7E7E7E7E7E7E7E7E7E7E7E7E7E7E7E7E7E7E7E7E7E7E7E7E7E7E7E7E7E7E7E7E7E7E7E7E7E7E7E7E7E7E7E7E7E7E7E7E7E7E7E7E7E7E7E7E7E7E7E7E7E7E7E7E7E7E7E7E7E7E7E7E7E7E7E7E7E7E7E7E7E7E7E7E7E7E7E7E7E7E7E7E7E7E7E7E7E7E7E7E7E7E7E7E7E7E7E7E7E7E7E7E7E7E7
310
E7E7E7E7E7E7E7E7E7E7E7E7E7E7E7E7E7E7E7E7E7E7E7E7E7E7E7E7E7E7E7E7E7E7E7E7E7E7E7E7E7E7E7E7E7E7E7E7E7E7E7E7E7E7E7E7E7E7E7E7E7E7E7E7E7E7E7E7E7E7E7E7E7E7E7E7E7E7E7E7E7E7E7E7E7E7E7E7E7E7E7E7E7E7E7E7E7E7E7E7E7E7E7E7E7E7E7E7E7E7E7E7E7E7E7E7E7E7E7E7E7E7E7E7E7E7E7
310
E7E7E7E7E7E7E7E7E7E7E7E7E7E7E7E7E7E7E7E7E7E7E7E7E7E7E7E7E7E7E7E7E7E7E7E7E7E7E7E7E7E7E7E7E7E7E7E7E7E7E7E7E7E7E7E7E7E7E7E7E7E7E7E7E7E7E7E7E7E7E7E7E7E7E7E7E7E7E7E7E7E7E7E7E7E7E7E7E7E7E7E7E7E7E7E7E7E7E7E7E7E7E7E7E7E7E7E7E7E7E7E7E7E7E7E7E7E7E7E7E7E7E7E7E7E7E7
310
E7E7E7E7E7E7E7E7E7E7E7E7E7E7E7E7E7E7E7E7E7E7E7E7E7E7E7E7E7E7E7E7E7E7E7E7E7E7E7E7E7E7E7E7E7E7E7E7E7E7E7E7E7E7E7E7E7E7E7E7E7E7E7E7E7E7E7E7E7E7E7E7E7E7E7E7E7E7E7E7E7E7E7E7E7E7E7E7E7E7E7E7E7E7E7E7E7E7E7E7E7E7E7E7E7E7E7E7E7E7E7E7E7E7E7E7E7E7E7E7E7E7E7E7E7E7E7
310
E7E7E7E7E7E7E7E7E7E7E7E7E7E7E7E7E7E7E7E7E7E7E7E7E7E7E7E7E7E7E7E7E7E7E7E7E7E7E7E7E7E7E7E7E7E7E7E7E7E7E7E7E7E7E7E7E7E7E7E7E7E7E7E7E7E7E7E7E7E7E7E7E7E7E7E7E7E7E7E7E7E7E7E7E7E7E7E7E7E7E7E7E7E7E7E7E7E7E7E7E7E7E7E7E7E7E7E7E7E7E7E7E7E7E7E7E7E7E7E7E7E7E7E7E7E7E7
310
E7E7E7E7E7E7E7E7E7E7E7E7E7E7E7E7E7E7E7E7E7E7E7E7E7E7E7E7E7E7E7E7E7E7E7E7E7E7E7E7E7E7E7E7E7E7E7E7E7E7E7E7E7E7E7E7E7E7E7E7E7E7E7E7E7E7E7E7E7E7E7E7E7E7E7E7E7E7E7E7E7E7E7E7E7E7E7E7E7E7E7E7E7E7E7E7E7E7E7E7E7E7E7E7E7E7E7E7E7E7E7E7E7E7E7E7E7E7E7E7E7E7E7E7E7E7E7
310
E7E7E7E7E7E7E7E7E7E7E7E7E7E7E7E7E7E7E7E7E7E7E7E7E7E7E7E7E7E7E7E7E7E7E7E7E7E7E7E7E7E7E7E7E7E7E7E7E7E7E7E7E7E7E7E7E7E7E7E7E7E7E7E7E7E7E7E7E7E7E7E7E7E7E7E7E7E7E7E7E7E7E7E7E7E7E7E7E7E7E7E7E7E7E7E7E7E7E7E7E7E7E7E7E7E7E7E7E7E7E7E7E7E7E7E7E7E7E7E7E7E7E7E7E7E7E7
310
E7E7E7E7E7E7E7E7E7E7E7E7E7E7E7E7E7E7E7E7E7E7E7E7E7E7E7E7E7E7E7E7E7E7E7E7E7E7E7E7E7E7E7E7E7E7E7E7E7E7E7E7E7E7E7E7E7E7E7E7E7E7E7E7E7E7E7E7E7E7E7E7E7E7E7E7E7E7E7E7E7E7E7E7E7E7E7E7E7E7E7E7E7E7E7E7E7E7E7E7E7E7E7E7E7E7E7E7E7E7E7E7E7E7E7E7E7E7E7E7E7E7E7E7E7E7E7
310
E7E7E7E7E7E7E7E7E7E7E7E7E7E7E7E7E7E7E7E7E7E7E7E7E7E7E7E7E7E7E7E7E7E7E7E7E7E7E7E7E7E7E7E7E7E7E7E7E7E7E7E7E7E7E7E7E7E7E7E7E7E7E7E7E7E7E7E7E7E7E7E7E7E7E7E7E7E7E7E7E7E7E7E7E7E7E7E7E7E7E7E7E7E7E7E7E7E7E7E7E7E7E7E7E7E7E7E7E7E7E7E7E7E7E7E7E7E7E7E7E7E7E7E7E7E7E7
310
E7E7E7E7E7E7E7E7E7E7E7E7E7E7E7E7E7E7E7E7E7E7E7E7E7E7E7E7E7E7E7E7E7E7E7E7E7E7E7E7E7E7E7E7E7E7E7E7E7E7E7E7E7E7E7E7E7E7E7E7E7E7E7E7E7E7E7E7E7E7E7E7E7E7E7E7E7E7E7E7E7E7E7E7E7E7E7E7E7E7E7E7E7E7E7E7E7E7E7E7E7E7E7E7E7E7E7E7E7E7E7E7E7E7E7E7E7E7E7E7E7E7E7E7E7E7E7
310
E7E7E7E7E7E7E7E7E7E7E7E7E7E7E7E7E7E7E7E7E7E7E7E7E7E7E7E7E7E7E7E7E7E7E7E7E7E7E7E7E7E7E7E7E7E7E7E7E7E7E7E7E7E7E7E7E7E7E7E7E7E7E7E7E7E7E7E7E7E7E7E7E7E7E7E7E7E7E7E7E7E7E7E7E7E7E7E7E7E7E7E7E7E7E7E7E7E7E7E7E7E7E7E7E7E7E7E7E7E7E7E7E7E7E7E7E7E7E7E7E7E7E7E7E7E7E7
310
E7E7E7E7E7E7E7E7E7E7E7E7E7E7E7E7E7E7E7E7E7E7E7E7E7E7E7E7E7E7E7E7E7E7E7E7E7E7E7E7E7E7E7E7E7E7E7E7E7E7E7E7E7E7E7E7E7E7E7E7E7E7E7E7E7E7E7E7E7E7E7E7E7E7E7E7E7E7E7E7E7E7E7E7E7E7E7E7E7E7E7E7E7E7E7E7E7E7E7E7E7E7E7E7E7E7E7E7E7E7E7E7E7E7E7E7E7E7E7E7E7E7E7E7E7E7E7
310
E7E7E7E7E7E7E7E7E7E7E7E7E7E7E7E7E7E7E7E7E7E7E7E7E7E7E7E7E7E7E7E7E7E7E7E7E7E7E7E7E7E7E7E7E7E7E7E7E7E7E7E7E7E7E7E7E7E7E7E7E7E7E7E7E7E7E7E7E7E7E7E7E7E7E7E7E7E7E7E7E7E7E7E7E7E7E7E7E7E7E7E7E7E7E7E7E7E7E7E7E7E7E7E7E7E7E7E7E7E7E7E7E7E7E7E7E7E7E7E7E7E7E7E7E7E7E7
310
E7E7E7E7E7E7E7E7E7E7E7E7E7E7E7E7E7E7E7E7E7E7E7E7E7E7E7E7E7E7E7E7E7E7E7E7E7E7E7E7E7E7E7E7E7E7E7E7E7E7E7E7E7E7E7E7E7E7E7E7E7E7E7E7E7E7E7E7E7E7E7E7E7E7E7E7E7E7E7E7E7E7E7E7E7E7E7E7E7E7E7E7E7E7E7E7E7E7E7E7E7E7E7E7E7E7E7E7E7E7E7E7E7E7E7E7E7E7E7E7E7E7E7E7E7E7E7
310
E7E7E7E7E7E7E7E7E7E7E7E7E7E7E7E7E7E7E7E7E7E7E7E7E7E7E7E7E7E7E7E7E7E7E7E7E7E7E7E7E7E7E7E7E7E7E7E7E7E7E7E7E7E7E7E7E7E7E7E7E7E7E7E7E7E7E7E7E7E7E7E7E7E7E7E7E7E7E7E7E7E7E7E7E7E7E7E7E7E7E7E7E7E7E7E7E7E7E7E7E7E7E7E7E7E7E7E7E7E7E7E7E7E7E7E7E7E7E7E7E7E7E7E7E7E7E7
310
E7E7E7E7E7E7E7E7E7E7E7E7E7E7E7E7E7E7E7E7E7E7E7E7E7E7E7E7E7E7E7E7E7E7E7E7E7E7E7E7E7E7E7E7E7E7E7E7E7E7E7E7E7E7E7E7E7E7E7E7E7E7E7E7E7E7E7E7E7E7E7E7E7E7E7E7E7E7E7E7E7E7E7E7E7E7E7E7E7E7E7E7E7E7E7E7E7E7E7E7E7E7E7E7E7E7E7E7E7E7E7E7E7E7E7E7E7E7E7E7E7E7E7E7E7E7E7
310
E7E7E7E7E7E7E7E7E7E7E7E7E7E7E7E7E7E7E7E7E7E7E7E7E7E7E7E7E7E7E7E7E7E7E7E7E7E7E7E7E7E7E7E7E7E7E7E7E7E7E7E7E7E7E7E7E7E7E7E7E7E7E7E7E7E7E7E7E7E7E7E7E7E7E7E7E7E7E7E7E7E7E7E7E7E7E7E7E7E7E7E7E7E7E7E7E7E7E7E7E7E7E7E7E7E7E7E7E7E7E7E7E7E7E7E7E7E7E7E7E7E7E7E7E7E7E7
310
E7E7E7E7E7E7E7E7E7E7E7E7E7E7E7E7E7E7E7E7E7E7E7E7E7E7E7E7E7E7E7E7E7E7E7E7E7E7E7E7E7E7E7E7E7E7E7E7E7E7E7E7E7E7E7E7E7E7E7E7E7E7E7E7E7E7E7E7E7E7E7E7E7E7E7E7E7E7E7E7E7E7E7E7E7E7E7E7E7E7E7E7E7E7E7E7E7E7E7E7E7E7E7E7E7E7E7E7E7E7E7E7E7E7E7E7E7E7E7E7E7E7E7E7E7E7E7
310
E7E7E7E7E7E7E7E7E7E7E7E7E7E7E7E7E7E7E7E7E7E7E7E7E7E7E7E7E7E7E7E7E7E7E7E7E7E7E7E7E7E7E7E7E7E7E7E7E7E7E7E7E7E7E7E7E7E7E7E7E7E7E7E7E7E7E7E7E7E7E7E7E7E7E7E7E7E7E7E7E7E7E7E7E7E7E7E7E7E7E7E7E7E7E7E7E7E7E7E7E7E7E7E7E7E7E7E7E7E7E7E7E7E7E7E7E7E7E7E7E7E7E7E7E7E7E7
310
E7E7E7E7E7E7E7E7E7E7E7E7E7E7E7E7E7E7E7E7E7E7E7E7E7E7E7E7E7E7E7E7E7E7E7E7E7E7E7E7E7E7E7E7E7E7E7E7E7E7E7E7E7E7E7E7E7E7E7E7E7E7E7E7E7E7E7E7E7E7E7E7E7E7E7E7E7E7E7E7E7E7E7E7E7E7E7E7E7E7E7E7E7E7E7E7E7E7E7E7E7E7E7E7E7E7E7E7E7E7E7E7E7E7E7E7E7E7E7E7E7E7E7E7E7E7E7
310
E7E7E7E7E7E7E7E7E7E7E7E7E7E7E7E7E7E7E7E7E7E7E7E7E7E7E7E7E7E7E7E7E7E7E7E7E7E7E7E7E7E7E7E7E7E7E7E7E7E7E7E7E7E7E7E7E7E7E7E7E7E7E7E7E7E7E7E7E7E7E7E7E7E7E7E7E7E7E7E7E7E7E7E7E7E7E7E7E7E7E7E7E7E7E7E7E7E7E7E7E7E7E7E7E7E7E7E7E7E7E7E7E7E7E7E7E7E7E7E7E7E7E7E7E7E7E7
310
E7E7E7E7E7E7E7E7E7E7E7E7E7E7E7E7E7E7E7E7E7E7E7E7E7E7E7E7E7E7E7E7E7E7E7E7E7E7E7E7E7E7E7E7E7E7E7E7E7E7E7E7E7E7E7E7E7E7E7E7E7E7E7E7E7E7E7E7E7E7E7E7E7E7E7E7E7E7E7E7E7E7E7E7E7E7E7E7E7E7E7E7E7E7E7E7E7E7E7E7E7E7E7E7E7E7E7E7E7E7E7E7E7E7E7E7E7E7E7E7E7E7E7E7E7E7E7
310
E7E7E7E7E7E7E7E7E7E7E7E7E7E7E7E7E7E7E7E7E7E7E7E7E7E7E7E7E7E7E7E7E7E7E7E7E7E7E7E7E7E7E7E7E7E7E7E7E7E7E7E7E7E7E7E7E7E7E7E7E7E7E7E7E7E7E7E7E7E7E7E7E7E7E7E7E7E7E7E7E7E7E7E7E7E7E7E7E7E7E7E7E7E7E7E7E7E7E7E7E7E7E7E7E7E7E7E7E7E7E7E7E7E7E7E7E7E7E7E7E7E7E7E7E7E7E7
310
E7E7E7E7E7E7E7E7E7E7E7E7E7E7E7E7E7E7E7E7E7E7E7E7E7E7E7E7E7E7E7E7E7E7E7E7E7E7E7E7E7E7E7E7E7E7E7E7E7E7E7E7E7E7E7E7E7E7E7E7E7E7E7E7E7E7E7E7E7E7E7E7E7E7E7E7E7E7E7E7E7E7E7E7E7E7E7E7E7E7E7E7E7E7E7E7E7E7E7E7E7E7E7E7E7E7E7E7E7E7E7E7E7E7E7E7E7E7E7E7E7E7E7E7E7E7E7
310
E7E7E7E7E7E7E7E7E7E7E7E7E7E7E7E7E7E7E7E7E7E7E7E7E7E7E7E7E7E7E7E7E7E7E7E7E7E7E7E7E7E7E7E7E7E7E7E7E7E7E7E7E7E7E7E7E7E7E7E7E7E7E7E7E7E7E7E7E7E7E7E7E7E7E7E7E7E7E7E7E7E7E7E7E7E7E7E7E7E7E7E7E7E7E7E7E7E7E7E7E7E7E7E7E7E7E7E7E7E7E7E7E7E7E7E7E7E7E7E7E7E7E7E7E7E7E7
310
E7E7E7E7E7E7E7E7E7E7E7E7E7E7E7E7E7E7E7E7E7E7E7E7E7E7E7E7E7E7E7E7E7E7E7E7E7E7E7E7E7E7E7E7E7E7E7E7E7E7E7E7E7E7E7E7E7E7E7E7E7E7E7E7E7E7E7E7E7E7E7E7E7E7E7E7E7E7E7E7E7E7E7E7E7E7E7E7E7E7E7E7E7E7E7E7E7E7E7E7E7E7E7E7E7E7E7E7E7E7E7E7E7E7E7E7E7E7E7E7E7E7E7E7E7E7E7
310
E7E7E7E7E7E7E7E7E7E7E7E7E7E7E7E7E7E7E7E7E7E7E7E7E7E7E7E7E7E7E7E7E7E7E7E7E7E7E7E7E7E7E7E7E7E7E7E7E7E7E7E7E7E7E7E7E7E7E7E7E7E7E7E7E7E7E7E7E7E7E7E7E7E7E7E7E7E7E7E7E7E7E7E7E7E7E7E7E7E7E7E7E7E7E7E7E7E7E7E7E7E7E7E7E7E7E7E7E7E7E7E7E7E7E7E7E7E7E7E7E7E7E7E7E7E7E7
310
E7E7E7E7E7E7E7E7E7E7E7E7E7E7E7E7E7E7E7E7E7E7E7E7E7E7E7E7E7E7E7E7E7E7E7E7E7E7E7E7E7E7E7E7E7E7E7E7E7E7E7E7E7E7E7E7E7E7E7E7E7E7E7E7E7E7E7E7E7E7E7E7E7E7E7E7E7E7E7E7E7E7E7E7E7E7E7E7E7E7E7E7E7E7E7E7E7E7E7E7E7E7E7E7E7E7E7E7E7E7E7E7E7E7E7E7E7E7E7E7E7E7E7E7E7E7E7
310
E7E7E7E7E7E7E7E7E7E7E7E7E7E7E7E7E7E7E7E7E7E7E7E7E7E7E7E7E7E7E7E7E7E7E7E7E7E7E7E7E7E7E7E7E7E7E7E7E7E7E7E7E7E7E7E7E7E7E7E7E7E7E7E7E7E7E7E7E7E7E7E7E7E7E7E7E7E7E7E7E7E7E7E7E7E7E7E7E7E7E7E7E7E7E7E7E7E7E7E7E7E7E7E7E7E7E7E7E7E7E7E7E7E7E7E7E7E7E7E7E7E7E7E7E7E7E7
310
E7E7E7E7E7E7E7E7E7E7E7E7E7E7E7E7E7E7E7E7E7E7E7E7E7E7E7E7E7E7E7E7E7E7E7E7E7E7E7E7E7E7E7E7E7E7E7E7E7E7E7E7E7E7E7E7E7E7E7E7E7E7E7E7E7E7E7E7E7E7E7E7E7E7E7E7E7E7E7E7E7E7E7E7E7E7E7E7E7E7E7E7E7E7E7E7E7E7E7E7E7E7E7E7E7E7E7E7E7E7E7E7E7E7E7E7E7E7E7E7E7E7E7E7E7E7E7
310
E7E7E7E7E7E7E7E7E7E7E7E7E7E7E7E7E7E7E7E7E7E7E7E7E7E7E7E7E7E7E7E7E7E7E7E7E7E7E7E7E7E7E7E7E7E7E7E7E7E7E7E7E7E7E7E7E7E7E7E7E7E7E7E7E7E7E7E7E7E7E7E7E7E7E7E7E7E7E7E7E7E7E7E7E7E7E7E7E7E7E7E7E7E7E7E7E7E7E7E7E7E7E7E7E7E7E7E7E7E7E7E7E7E7E7E7E7E7E7E7E7E7E7E7E7E7E7
310
E7E7E7E7E7E7E7E7E7E7E7E7E7E7E7E7E7E7E7E7E7E7E7E7E7E7E7E7E7E7E7E7E7E7E7E7E7E7E7E7E7E7E7E7E7E7E7E7E7E7E7E7E7E7E7E7E7E7E7E7E7E7E7E7E7E7E7E7E7E7E7E7E7E7E7E7E7E7E7E7E7E7E7E7E7E7E7E7E7E7E7E7E7E7E7E7E7E7E7E7E7E7E7E7E7E7E7E7E7E7E7E7E7E7E7E7E7E7E7E7E7E7E7E7E7E7E7
310
E7E7E7E7E7E7E7E7E7E7E7E7E7E7E7E7E7E7E7E7E7E7E7E7E7E7E7E7E7E7E7E7E7E7E7E7E7E7E7E7E7E7E7E7E7E7E7E7E7E7E7E7E7E7E7E7E7E7E7E7E7E7E7E7E7E7E7E7E7E7E7E7E7E7E7E7E7E7E7E7E7E7E7E7E7E7E7E7E7E7E7E7E7E7E7E7E7E7E7E7E7E7E7E7E7E7E7E7E7E7E7E7E7E7E7E7E7E7E7E7E7E7E7E7E7E7E7
310
E7E7E7E7E7E7E7E7E7E7E7E7E7E7E7E7E7E7E7E7E7E7E7E7E7E7E7E7E7E7E7E7E7E7E7E7E7E7E7E7E7E7E7E7E7E7E7E7E7E7E7E7E7E7E7E7E7E7E7E7E7E7E7E7E7E7E7E7E7E7E7E7E7E7E7E7E7E7E7E7E7E7E7E7E7E7E7E7E7E7E7E7E7E7E7E7E7E7E7E7E7E7E7E7E7E7E7E7E7E7E7E7E7E7E7E7E7E7E7E7E7E7E7E7E7E7E7
310
E7E7E7E7E7E7E7E7E7E7E7E7E7E7E7E7E7E7E7E7E7E7E7E7E7E7E7E7E7E7E7E7E7E7E7E7E7E7E7E7E7E7E7E7E7E7E7E7E7E7E7E7E7E7E7E7E7E7E7E7E7E7E7E7E7E7E7E7E7E7E7E7E7E7E7E7E7E7E7E7E7E7E7E7E7E7E7E7E7E7E7E7E7E7E7E7E7E7E7E7E7E7E7E7E7E7E7E7E7E7E7E7E7E7E7E7E7E7E7E7E7E7E7E7E7E7E7
310
E7E7E7E7E7E7E7E7E7E7E7E7E7E7E7E7E7E7E7E7E7E7E7E7E7E7E7E7E7E7E7E7E7E7E7E7E7E7E7E7E7E7E7E7E7E7E7E7E7E7E7E7E7E7E7E7E7E7E7E7E7E7E7E7E7E7E7E7E7E7E7E7E7E7E7E7E7E7E7E7E7E7E7E7E7E7E7E7E7E7E7E7E7E7E7E7E7E7E7E7E7E7E7E7E7E7E7E7E7E7E7E7E7E7E7E7E7E7E7E7E7E7E7E7E7E7E7
310
E7E7E7E7E7E7E7E7E7E7E7E7E7E7E7E7E7E7E7E7E7E7E7E7E7E7E7E7E7E7E7E7E7E7E7E7E7E7E7E7E7E7E7E7E7E7E7E7E7E7E7E7E7E7E7E7E7E7E7E7E7E7E7E7E7E7E7E7E7E7E7E7E7E7E7E7E7E7E7E7E7E7E7E7E7E7E7E7E7E7E7E7E7E7E7E7E7E7E7E7E7E7E7E7E7E7E7E7E7E7E7E7E7E7E7E7E7E7E7E7E7E7E7E7E7E7E7
310
E7E7E7E7E7E7E7E7E7E7E7E7E7E7E7E7E7E7E7E7E7E7E7E7E7E7E7E7E7E7E7E7E7E7E7E7E7E7E7E7E7E7E7E7E7E7E7E7E7E7E7E7E7E7E7E7E7E7E7E7E7E7E7E7E7E7E7E7E7E7E7E7E7E7E7E7E7E7E7E7E7E7E7E7E7E7E7E7E7E7E7E7E7E7E7E7E7E7E7E7E7E7E7E7E7E7E7E7E7E7E7E7E7E7E7E7E7E7E7E7E7E7E7E7E7E7E7
310
E7E7E7E7E7E7E7E7E7E7E7E7E7E7E7E7E7E7E7E7E7E7E7E7E7E7E7E7E7E7E7E7E7E7E7E7E7E7E7E7E7E7E7E7E7E7E7E7E7E7E7E7E7E7E7E7E7E7E7E7E7E7E7E7E7E7E7E7E7E7E7E7E7E7E7E7E7E7E7E7E7E7E7E7E7E7E7E7E7E7E7E7E7E7E7E7E7E7E7E7E7E7E7E7E7E7E7E7E7E7E7E7E7E7E7E7E7E7E7E7E7E7E7E7E7E7E7
310
E7E7E7E7E7E7E7E7E7E7E7E7E7E7E7E7E7E7E7E7E7E7E7E7E7E7E7E7E7E7E7E7E7E7E7E7E7E7E7E7E7E7E7E7E7E7E7E7E7E7E7E7E7E7E7E7E7E7E7E7E7E7E7E7E7E7E7E7E7E7E7E7E7E7E7E7E7E7E7E7E7E7E7E7E7E7E7E7E7E7E7E7E7E7E7E7E7E7E7E7E7E7E7E7E7E7E7E7E7E7E7E7E7E7E7E7E7E7E7E7E7E7E7E7E7E7E7
310
E7E7E7E7E7E7E7E7E7E7E7E7E7E7E7E7E7E7E7E7E7E7E7E7E7E7E7E7E7E7E7E7E7E7E7E7E7E7E7E7E7E7E7E7E7E7E7E7E7E7E7E7E7E7E7E7E7E7E7E7E7E7E7E7E7E7E7E7E7E7E7E7E7E7E7E7E7E7E7E7E7E7E7E7E7E7E7E7E7E7E7E7E7E7E7E7E7E7E7E7E7E7E7E7E7E7E7E7E7E7E7E7E7E7E7E7E7E7E7E7E7E7E7E7E7E7E7
310
E7E7E7E7E7E7E7E7E7E7E7E7E7E7E7E7E7E7E7E7E7E7E7E7E7E7E7E7E7E7E7E7E7E7E7E7E7E7E7E7E7E7E7E7E7E7E7E7E7E7E7E7E7E7E7E7E7E7E7E7E7E7E7E7E7E7E7E7E7E7E7E7E7E7E7E7E7E7E7E7E7E7E7E7E7E7E7E7E7E7E7E7E7E7E7E7E7E7E7E7E7E7E7E7E7E7E7E7E7E7E7E7E7E7E7E7E7E7E7E7E7E7E7E7E7E7E7
310
E7E7E7E7E7E7E7E7E7E7E7E7E7E7E7E7E7E7E7E7E7E7E7E7E7E7E7E7E7E7E7E7E7E7E7E7E7E7E7E7E7E7E7E7E7E7E7E7E7E7E7E7E7E7E7E7E7E7E7E7E7E7E7E7E7E7E7E7E7E7E7E7E7E7E7E7E7E7E7E7E7E7E7E7E7E7E7E7E7E7E7E7E7E7E7E7E7E7E7E7E7E7E7E7E7E7E7E7E7E7E7E7E7E7E7E7E7E7E7E7E7E7E7E7E7E7E7
310
E7E7E7E7E7E7E7E7E7E7E7E7E7E7E7E7E7E7E7E7E7E7E7E7E7E7E7E7E7E7E7E7E7E7E7E7E7E7E7E7E7E7E7E7E7E7E7E7E7E7E7E7E7E7E7E7E7E7E7E7E7E7E7E7E7E7E7E7E7E7E7E7E7E7E7E7E7E7E7E7E7E7E7E7E7E7E7E7E7E7E7E7E7E7E7E7E7E7E7E7E7E7E7E7E7E7E7E7E7E7E7E7E7E7E7E7E7E7E7E7E7E7E7E7E7E7E7
310
E7E7E7E7E7E7E7E7E7E7E7E7E7E7E7E7E7E7E7E7E7E7E7E7E7E7E7E7E7E7E7E7E7E7E7E7E7E7E7E7E7E7E7E7E7E7E7E7E7E7E7E7E7E7E7E7E7E7E7E7E7E7E7E7E7E7E7E7E7E7E7E7E7E7E7E7E7E7E7E7E7E7E7E7E7E7E7E7E7E7E7E7E7E7E7E7E7E7E7E7E7E7E7E7E7E7E7E7E7E7E7E7E7E7E7E7E7E7E7E7E7E7E7E7E7E7E7
310
E7E7E7E7E7E7E7E7E7E7E7E7E7E7E7E7E7E7E7E7E7E7E7E7E7E7E7E7E7E7E7E7E7E7E7E7E7E7E7E7E7E7E7E7E7E7E7E7E7E7E7E7E7E7E7E7E7E7E7E7E7E7E7E7E7E7E7E7E7E7E7E7E7E7E7E7E7E7E7E7E7E7E7E7E7E7E7E7E7E7E7E7E7E7E7E7E7E7E7E7E7E7E7E7E7E7E7E7E7E7E7E7E7E7E7E7E7E7E7E7E7E7E7E7E7E7E7
310
E7E7E7E7E7E7E7E7E7E7E7E7E7E7E7E7E7E7E7E7E7E7E7E7E7E7E7E7E7E7E7E7E7E7E7E7E7E7E7E7E7E7E7E7E7E7E7E7E7E7E7E7E7E7E7E7E7E7E7E7E7E7E7E7E7E7E7E7E7E7E7E7E7E7E7E7E7E7E7E7E7E7E7E7E7E7E7E7E7E7E7E7E7E7E7E7E7E7E7E7E7E7E7E7E7E7E7E7E7E7E7E7E7E7E7E7E7E7E7E7E7E7E7E7E7E7E7
310
E7E7E7E7E7E7E7E7E7E7E7E7E7E7E7E7E7E7E7E7E7E7E7E7E7E7E7E7E7E7E7E7E7E7E7E7E7E7E7E7E7E7E7E7E7E7E7E7E7E7E7E7E7E7E7E7E7E7E7E7E7E7E7E7E7E7E7E7E7E7E7E7E7E7E7E7E7E7E7E7E7E7E7E7E7E7E7E7E7E7E7E7E7E7E7E7E7E7E7E7E7E7E7E7E7E7E7E7E7E7E7E7E7E7E7E7E7E7E7E7E7E7E7E7E7E7E7
310
E7E7E7E7E7E7E7E7E7E7E7E7E7E7E7E7E7E7E7E7E7E7E7E7E7E7E7E7E7E7E7E7E7E7E7E7E7E7E7E7E7E7E7E7E7E7E7E7E7E7E7E7E7E7E7E7E7E7E7E7E7E7E7E7E7E7E7E7E7E7E7E7E7E7E7E7E7E7E7E7E7E7E7E7E7E7E7E7E7E7E7E7E7E7E7E7E7E7E7E7E7E7E7E7E7E7E7E7E7E7E7E7E7E7E7E7E7E7E7E7E7E7E7E7E7E7E7
310
E7E7E7E7E7E7E7E7E7E7E7E7E7E7E7E7E7E7E7E7E7E7E7E7E7E7E7E7E7E7E7E7E7E7E7E7E7E7E7E7E7E7E7E7E7E7E7E7E7E7E7E7E7E7E7E7E7E7E7E7E7E7E7E7E7E7E7E7E7E7E7E7E7E7E7E7E7E7E7E7E7E7E7E7E7E7E7E7E7E7E7E7E7E7E7E7E7E7E7E7E7E7E7E7E7E7E7E7E7E7E7E7E7E7E7E7E7E7E7E7E7E7E7E7E7E7E7
310
E7E7E7E7E7E7E7E7E7E7E7E7E7E7E7E7E7E7E7E7E7E7E7E7E7E7E7E7E7E7E7E7E7E7E7E7E7E7E7E7E7E7E7E7E7E7E7E7E7E7E7E7E7E7E7E7E7E7E7E7E7E7E7E7E7E7E7E7E7E7E7E7E7E7E7E7E7E7E7E7E7E7E7E7E7E7E7E7E7E7E7E7E7E7E7E7E7E7E7E7E7E7E7E7E7E7E7E7E7E7E7E7E7E7E7E7E7E7E7E7E7E7E7E7E7E7E7
310
E7E7E7E7E7E7E7E7E7E7E7E7E7E7E7E7E7E7E7E7E7E7E7E7E7E7E7E7E7E7E7E7E7E7E7E7E7E7E7E7E7E7E7E7E7E7E7E7E7E7E7E7E7E7E7E7E7E7E7E7E7E7E7E7E7E7E7E7E7E7E7E7E7E7E7E7E7E7E7E7E7E7E7E7E7E7E7E7E7E7E7E7E7E7E7E7E7E7E7E7E7E7E7E7E7E7E7E7E7E7E7E7E7E7E7E7E7E7E7E7E7E7E7E7E7E7E7
310
E7E7E7E7E7E7E7E7E7E7E7E7E7E7E7E7E7E7E7E7E7E7E7E7E7E7E7E7E7E7E7E7E7E7E7E7E7E7E7E7E7E7E7E7E7E7E7E7E7E7E7E7E7E7E7E7E7E7E7E7E7E7E7E7E7E7E7E7E7E7E7E7E7E7E7E7E7E7E7E7E7E7E7E7E7E7E7E7E7E7E7E7E7E7E7E7E7E7E7E7E7E7E7E7E7E7E7E7E7E7E7E7E7E7E7E7E7E7E7E7E7E7E7E7E7E7E7
310
E7E7E7E7E7E7E7E7E7E7E7E7E7E7E7E7E7E7E7E7E7E7E7E7E7E7E7E7E7E7E7E7E7E7E7E7E7E7E7E7E7E7E7E7E7E7E7E7E7E7E7E7E7E7E7E7E7E7E7E7E7E7E7E7E7E7E7E7E7E7E7E7E7E7E7E7E7E7E7E7E7E7E7E7E7E7E7E7E7E7E7E7E7E7E7E7E7E7E7E7E7E7E7E7E7E7E7E7E7E7E7E7E7E7E7E7E7E7E7E7E7E7E7E7E7E7E7
310
E7E7E7E7E7E7E7E7E7E7E7E7E7E7E7E7E7E7E7E7E7E7E7E7E7E7E7E7E7E7E7E7E7E7E7E7E7E7E7E7E7E7E7E7E7E7E7E7E7E7E7E7E7E7E7E7E7E7E7E7E7E7E7E7E7E7E7E7E7E7E7E7E7E7E7E7E7E7E7E7E7E7E7E7E7E7E7E7E7E7E7E7E7E7E7E7E7E7E7E7E7E7E7E7E7E7E7E7E7E7E7E7E7E7E7E7E7E7E7E7E7E7E7E7E7E7E7
310
E7E7E7E7E7E7E7E7E7E7E7E7E7E7E7E7E7E7E7E7E7E7E7E7E7E7E7E7E7E7E7E7E7E7E7E7E7E7E7E7E7E7E7E7E7E7E7E7E7E7E7E7E7E7E7E7E7E7E7E7E7E7E7E7E7E7E7E7E7E7E7E7E7E7E7E7E7E7E7E7E7E7E7E7E7E7E7E7E7E7E7E7E7E7E7E7E7E7E7E7E7E7E7E7E7E7E7E7E7E7E7E7E7E7E7E7E7E7E7E7E7E7E7E7E7E7E7
310
E7E7E7E7E7E7E7E7E7E7E7E7E7E7E7E7E7E7E7E7E7E7E7E7E7E7E7E7E7E7E7E7E7E7E7E7E7E7E7E7E7E7E7E7E7E7E7E7E7E7E7E7E7E7E7E7E7E7E7E7E7E7E7E7E7E7E7E7E7E7E7E7E7E7E7E7E7E7E7E7E7E7E7E7E7E7E7E7E7E7E7E7E7E7E7E7E7E7E7E7E7E7E7E7E7E7E7E7E7E7E7E7E7E7E7E7E7E7E7E7E7E7E7E7E7E7E7
310
E7E7E7E7E7E7E7E7E7E7E7E7E7E7E7E7E7E7E7E7E7E7E7E7E7E7E7E7E7E7E7E7E7E7E7E7E7E7E7E7E7E7E7E7E7E7E7E7E7E7E7E7E7E7E7E7E7E7E7E7E7E7E7E7E7E7E7E7E7E7E7E7E7E7E7E7E7E7E7E7E7E7E7E7E7E7E7E7E7E7E7E7E7E7E7E7E7E7E7E7E7E7E7E7E7E7E7E7E7E7E7E7E7E7E7E7E7E7E7E7E7E7E7E7E7E7E7
310
E7E7E7E7E7E7E7E7E7E7E7E7E7E7E7E7E7E7E7E7E7E7E7E7E7E7E7E7E7E7E7E7E7E7E7E7E7E7E7E7E7E7E7E7E7E7E7E7E7E7E7E7E7E7E7E7E7E7E7E7E7E7E7E7E7E7E7E7E7E7E7E7E7E7E7E7E7E7E7E7E7E7E7E7E7E7E7E7E7E7E7E7E7E7E7E7E7E7E7E7E7E7E7E7E7E7E7E7E7E7E7E7E7E7E7E7E7E7E7E7E7E7E7E7E7E7E7
310
E7E7E7E7E7E7E7E7E7E7E7E7E7E7E7E7E7E7E7E7E7E7E7E7E7E7E7E7E7E7E7E7E7E7E7E7E7E7E7E7E7E7E7E7E7E7E7E7E7E7E7E7E7E7E7E7E7E7E7E7E7E7E7E7E7E7E7E7E7E7E7E7E7E7E7E7E7E7E7E7E7E7E7E7E7E7E7E7E7E7E7E7E7E7E7E7E7E7E7E7E7E7E7E7E7E7E7E7E7E7E7E7E7E7E7E7E7E7E7E7E7E7E7E7E7E7E7
310
E7E7E7E7E7E7E7E7E7E7E7E7E7E7E7E7E7E7E7E7E7E7E7E7E7E7E7E7E7E7E7E7E7E7E7E7E7E7E7E7E7E7E7E7E7E7E7E7E7E7E7E7E7E7E7E7E7E7E7E7E7E7E7E7E7E7E7E7E7E7E7E7E7E7E7E7E7E7E7E7E7E7E7E7E7E7E7E7E7E7E7E7E7E7E7E7E7E7E7E7E7E7E7E7E7E7E7E7E7E7E7E7E7E7E7E7E7E7E7E7E7E7E7E7E7E7E7
310
E7E7E7E7E7E7E7E7E7E7E7E7E7E7E7E7E7E7E7E7E7E7E7E7E7E7E7E7E7E7E7E7E7E7E7E7E7E7E7E7E7E7E7E7E7E7E7E7E7E7E7E7E7E7E7E7E7E7E7E7E7E7E7E7E7E7E7E7E7E7E7E7E7E7E7E7E7E7E7E7E7E7E7E7E7E7E7E7E7E7E7E7E7E7E7E7E7E7E7E7E7E7E7E7E7E7E7E7E7E7E7E7E7E7E7E7E7E7E7E7E7E7E7E7E7E7E7
310
E7E7E7E7E7E7E7E7E7E7E7E7E7E7E7E7E7E7E7E7E7E7E7E7E7E7E7E7E7E7E7E7E7E7E7E7E7E7E7E7E7E7E7E7E7E7E7E7E7E7E7E7E7E7E7E7E7E7E7E7E7E7E7E7E7E7E7E7E7E7E7E7E7E7E7E7E7E7E7E7E7E7E7E7E7E7E7E7E7E7E7E7E7E7E7E7E7E7E7E7E7E7E7E7E7E7E7E7E7E7E7E7E7E7E7E7E7E7E7E7E7E7E7E7E7E7E7
310
E7E7E7E7E7E7E7E7E7E7E7E7E7E7E7E7E7E7E7E7E7E7E7E7E7E7E7E7E7E7E7E7E7E7E7E7E7E7E7E7E7E7E7E7E7E7E7E7E7E7E7E7E7E7E7E7E7E7E7E7E7E7E7E7E7E7E7E7E7E7E7E7E7E7E7E7E7E7E7E7E7E7E7E7E7E7E7E7E7E7E7E7E7E7E7E7E7E7E7E7E7E7E7E7E7E7E7E7E7E7E7E7E7E7E7E7E7E7E7E7E7E7E7E7E7E7E7
310
E7E7E7E7E7E7E7E7E7E7E7E7E7E7E7E7E7E7E7E7E7E7E7E7E7E7E7E7E7E7E7E7E7E7E7E7E7E7E7E7E7E7E7E7E7E7E7E7E7E7E7E7E7E7E7E7E7E7E7E7E7E7E7E7E7E7E7E7E7E7E7E7E7E7E7E7E7E7E7E7E7E7E7E7E7E7E7E7E7E7E7E7E7E7E7E7E7E7E7E7E7E7E7E7E7E7E7E7E7E7E7E7E7E7E7E7E7E7E7E7E7E7E7E7E7E7E7
310
E7E7E7E7E7E7E7E7E7E7E7E7E7E7E7E7E7E7E7E7E7E7E7E7E7E7E7E7E7E7E7E7E7E7E7E7E7E7E7E7E7E7E7E7E7E7E7E7E7E7E7E7E7E7E7E7E7E7E7E7E7E7E7E7E7E7E7E7E7E7E7E7E7E7E7E7E7E7E7E7E7E7E7E7E7E7E7E7E7E7E7E7E7E7E7E7E7E7E7E7E7E7E7E7E7E7E7E7E7E7E7E7E7E7E7E7E7E7E7E7E7E7E7E7E7E7E7
310
E7E7E7E7E7E7E7E7E7E7E7E7E7E7E7E7E7E7E7E7E7E7E7E7E7E7E7E7E7E7E7E7E7E7E7E7E7E7E7E7E7E7E7E7E7E7E7E7E7E7E7E7E7E7E7E7E7E7E7E7E7E7E7E7E7E7E7E7E7E7E7E7E7E7E7E7E7E7E7E7E7E7E7E7E7E7E7E7E7E7E7E7E7E7E7E7E7E7E7E7E7E7E7E7E7E7E7E7E7E7E7E7E7E7E7E7E7E7E7E7E7E7E7E7E7E7E7
310
E7E7E7E7E7E7E7E7E7E7E7E7E7E7E7E7E7E7E7E7E7E7E7E7E7E7E7E7E7E7E7E7E7E7E7E7E7E7E7E7E7E7E7E7E7E7E7E7E7E7E7E7E7E7E7E7E7E7E7E7E7E7E7E7E7E7E7E7E7E7E7E7E7E7E7E7E7E7E7E7E7E7E7E7E7E7E7E7E7E7E7E7E7E7E7E7E7E7E7E7E7E7E7E7E7E7E7E7E7E7E7E7E7E7E7E7E7E7E7E7E7E7E7E7E7E7E7
310
E7E7E7E7E7E7E7E7E7E7E7E7E7E7E7E7E7E7E7E7E7E7E7E7E7E7E7E7E7E7E7E7E7E7E7E7E7E7E7E7E7E7E7E7E7E7E7E7E7E7E7E7E7E7E7E7E7E7E7E7E7E7E7E7E7E7E7E7E7E7E7E7E7E7E7E7E7E7E7E7E7E7E7E7E7E7E7E7E7E7E7E7E7E7E7E7E7E7E7E7E7E7E7E7E7E7E7E7E7E7E7E7E7E7E7E7E7E7E7E7E7E7E7E7E7E7E7
310
E7E7E7E7E7E7E7E7E7E7E7E7E7E7E7E7E7E7E7E7E7E7E7E7E7E7E7E7E7E7E7E7E7E7E7E7E7E7E7E7E7E7E7E7E7E7E7E7E7E7E7E7E7E7E7E7E7E7E7E7E7E7E7E7E7E7E7E7E7E7E7E7E7E7E7E7E7E7E7E7E7E7E7E7E7E7E7E7E7E7E7E7E7E7E7E7E7E7E7E7E7E7E7E7E7E7E7E7E7E7E7E7E7E7E7E7E7E7E7E7E7E7E7E7E7E7E7
310
E7E7E7E7E7E7E7E7E7E7E7E7E7E7E7E7E7E7E7E7E7E7E7E7E7E7E7E7E7E7E7E7E7E7E7E7E7E7E7E7E7E7E7E7E7E7E7E7E7E7E7E7E7E7E7E7E7E7E7E7E7E7E7E7E7E7E7E7E7E7E7E7E7E7E7E7E7E7E7E7E7E7E7E7E7E7E7E7E7E7E7E7E7E7E7E7E7E7E7E7E7E7E7E7E7E7E7E7E7E7E7E7E7E7E7E7E7E7E7E7E7E7E7E7E7E7E7
310
E7E7E7E7E7E7E7E7E7E7E7E7E7E7E7E7E7E7E7E7E7E7E7E7E7E7E7E7E7E7E7E7E7E7E7E7E7E7E7E7E7E7E7E7E7E7E7E7E7E7E7E7E7E7E7E7E7E7E7E7E7E7E7E7E7E7E7E7E7E7E7E7E7E7E7E7E7E7E7E7E7E7E7E7E7E7E7E7E7E7E7E7E7E7E7E7E7E7E7E7E7E7E7E7E7E7E7E7E7E7E7E7E7E7E7E7E7E7E7E7E7E7E7E7E7E7E7
310
E7E7E7E7E7E7E7E7E7E7E7E7E7E7E7E7E7E7E7E7E7E7E7E7E7E7E7E7E7E7E7E7E7E7E7E7E7E7E7E7E7E7E7E7E7E7E7E7E7E7E7E7E7E7E7E7E7E7E7E7E7E7E7E7E7E7E7E7E7E7E7E7E7E7E7E7E7E7E7E7E7E7E7E7E7E7E7E7E7E7E7E7E7E7E7E7E7E7E7E7E7E7E7E7E7E7E7E7E7E7E7E7E7E7E7E7E7E7E7E7E7E7E7E7E7E7E7
310
E7E7E7E7E7E7E7E7E7E7E7E7E7E7E7E7E7E7E7E7E7E7E7E7E7E7E7E7E7E7E7E7E7E7E7E7E7E7E7E7E7E7E7E7E7E7E7E7E7E7E7E7E7E7E7E7E7E7E7E7E7E7E7E7E7E7E7E7E7E7E7E7E7E7E7E7E7E7E7E7E7E7E7E7E7E7E7E7E7E7E7E7E7E7E7E7E7E7E7E7E7E7E7E7E7E7E7E7E7E7E7E7E7E7E7E7E7E7E7E7E7E7E7E7E7E7E7
310
E7E7E7E7E7E7E7E7E7E7E7E7E7E7E7E7E7E7E7E7E7E7E7E7E7E7E7E7E7E7E7E7E7E7E7E7E7E7E7E7E7E7E7E7E7E7E7E7E7E7E7E7E7E7E7E7E7E7E7E7E7E7E7E7E7E7E7E7E7E7E7E7E7E7E7E7E7E7E7E7E7E7E7E7E7E7E7E7E7E7E7E7E7E7E7E7E7E7E7E7E7E7E7E7E7E7E7E7E7E7E7E7E7E7E7E7E7E7E7E7E7E7E7E7E7E7E7
310
E7E7E7E7E7E7E7E7E7E7E7E7E7E7E7E7E7E7E7E7E7E7E7E7E7E7E7E7E7E7E7E7E7E7E7E7E7E7E7E7E7E7E7E7E7E7E7E7E7E7E7E7E7E7E7E7E7E7E7E7E7E7E7E7E7E7E7E7E7E7E7E7E7E7E7E7E7E7E7E7E7E7E7E7E7E7E7E7E7E7E7E7E7E7E7E7E7E7E7E7E7E7E7E7E7E7E7E7E7E7E7E7E7E7E7E7E7E7E7E7E7E7E7E7E7E7E7
310
E7E7E7E7E7E7E7E7E7E7E7E7E7E7E7E7E7E7E7E7E7E7E7E7E7E7E7E7E7E7E7E7E7E7E7E7E7E7E7E7E7E7E7E7E7E7E7E7E7E7E7E7E7E7E7E7E7E7E7E7E7E7E7E7E7E7E7E7E7E7E7E7E7E7E7E7E7E7E7E7E7E7E7E7E7E7E7E7E7E7E7E7E7E7E7E7E7E7E7E7E7E7E7E7E7E7E7E7E7E7E7E7E7E7E7E7E7E7E7E7E7E7E7E7E7E7E7
310
E7E7E7E7E7E7E7E7E7E7E7E7E7E7E7E7E7E7E7E7E7E7E7E7E7E7E7E7E7E7E7E7E7E7E7E7E7E7E7E7E7E7E7E7E7E7E7E7E7E7E7E7E7E7E7E7E7E7E7E7E7E7E7E7E7E7E7E7E7E7E7E7E7E7E7E7E7E7E7E7E7E7E7E7E7E7E7E7E7E7E7E7E7E7E7E7E7E7E7E7E7E7E7E7E7E7E7E7E7E7E7E7E7E7E7E7E7E7E7E7E7E7E7E7E7E7E7
310
E7E7E7E7E7E7E7E7E7E7E7E7E7E7E7E7E7E7E7E7E7E7E7E7E7E7E7E7E7E7E7E7E7E7E7E7E7E7E7E7E7E7E7E7E7E7E7E7E7E7E7E7E7E7E7E7E7E7E7E7E7E7E7E7E7E7E7E7E7E7E7E7E7E7E7E7E7E7E7E7E7E7E7E7E7E7E7E7E7E7E7E7E7E7E7E7E7E7E7E7E7E7E7E7E7E7E7E7E7E7E7E7E7E7E7E7E7E7E7E7E7E7E7E7E7E7E7
310
E7E7E7E7E7E7E7E7E7E7E7E7E7E7E7E7E7E7E7E7E7E7E7E7E7E7E7E7E7E7E7E7E7E7E7E7E7E7E7E7E7E7E7E7E7E7E7E7E7E7E7E7E7E7E7E7E7E7E7E7E7E7E7E7E7E7E7E7E7E7E7E7E7E7E7E7E7E7E7E7E7E7E7E7E7E7E7E7E7E7E7E7E7E7E7E7E7E7E7E7E7E7E7E7E7E7E7E7E7E7E7E7E7E7E7E7E7E7E7E7E7E7E7E7E7E7E7
310
E7E7E7E7E7E7E7E7E7E7E7E7E7E7E7E7E7E7E7E7E7E7E7E7E7E7E7E7E7E7E7E7E7E7E7E7E7E7E7E7E7E7E7E7E7E7E7E7E7E7E7E7E7E7E7E7E7E7E7E7E7E7E7E7E7E7E7E7E7E7E7E7E7E7E7E7E7E7E7E7E7E7E7E7E7E7E7E7E7E7E7E7E7E7E7E7E7E7E7E7E7E7E7E7E7E7E7E7E7E7E7E7E7E7E7E7E7E7E7E7E7E7E7E7E7E7E7
310
E7E7E7E7E7E7E7E7E7E7E7E7E7E7E7E7E7E7E7E7E7E7E7E7E7E7E7E7E7E7E7E7E7E7E7E7E7E7E7E7E7E7E7E7E7E7E7E7E7E7E7E7E7E7E7E7E7E7E7E7E7E7E7E7E7E7E7E7E7E7E7E7E7E7E7E7E7E7E7E7E7E7E7E7E7E7E7E7E7E7E7E7E7E7E7E7E7E7E7E7E7E7E7E7E7E7E7E7E7E7E7E7E7E7E7E7E7E7E7E7E7E7E7E7E7E7E7
310
E7E7E7E7E7E7E7E7E7E7E7E7E7E7E7E7E7E7E7E7E7E7E7E7E7E7E7E7E7E7E7E7E7E7E7E7E7E7E7E7E7E7E7E7E7E7E7E7E7E7E7E7E7E7E7E7E7E7E7E7E7E7E7E7E7E7E7E7E7E7E7E7E7E7E7E7E7E7E7E7E7E7E7E7E7E7E7E7E7E7E7E7E7E7E7E7E7E7E7E7E7E7E7E7E7E7E7E7E7E7E7E7E7E7E7E7E7E7E7E7E7E7E7E7E7E7E7
310
E7E7E7E7E7E7E7E7E7E7E7E7E7E7E7E7E7E7E7E7E7E7E7E7E7E7E7E7E7E7E7E7E7E7E7E7E7E7E7E7E7E7E7E7E7E7E7E7E7E7E7E7E7E7E7E7E7E7E7E7E7E7E7E7E7E7E7E7E7E7E7E7E7E7E7E7E7E7E7E7E7E7E7E7E7E7E7E7E7E7E7E7E7E7E7E7E7E7E7E7E7E7E7E7E7E7E7E7E7E7E7E7E7E7E7E7E7E7E7E7E7E7E7E7E7E7E7
310
E7E7E7E7E7E7E7E7E7E7E7E7E7E7E7E7E7E7E7E7E7E7E7E7E7E7E7E7E7E7E7E7E7E7E7E7E7E7E7E7E7E7E7E7E7E7E7E7E7E7E7E7E7E7E7E7E7E7E7E7E7E7E7E7E7E7E7E7E7E7E7E7E7E7E7E7E7E7E7E7E7E7E7E7E7E7E7E7E7E7E7E7E7E7E7E7E7E7E7E7E7E7E7E7E7E7E7E7E7E7E7E7E7E7E7E7E7E7E7E7E7E7E7E7E7E7E7
310
E7E7E7E7E7E7E7E7E7E7E7E7E7E7E7E7E7E7E7E7E7E7E7E7E7E7E7E7E7E7E7E7E7E7E7E7E7E7E7E7E7E7E7E7E7E7E7E7E7E7E7E7E7E7E7E7E7E7E7E7E7E7E7E7E7E7E7E7E7E7E7E7E7E7E7E7E7E7E7E7E7E7E7E7E7E7E7E7E7E7E7E7E7E7E7E7E7E7E7E7E7E7E7E7E7E7E7E7E7E7E7E7E7E7E7E7E7E7E7E7E7E7E7E7E7E7E7
310
E7E7E7E7E7E7E7E7E7E7E7E7E7E7E7E7E7E7E7E7E7E7E7E7E7E7E7E7E7E7E7E7E7E7E7E7E7E7E7E7E7E7E7E7E7E7E7E7E7E7E7E7E7E7E7E7E7E7E7E7E7E7E7E7E7E7E7E7E7E7E7E7E7E7E7E7E7E7E7E7E7E7E7E7E7E7E7E7E7E7E7E7E7E7E7E7E7E7E7E7E7E7E7E7E7E7E7E7E7E7E7E7E7E7E7E7E7E7E7E7E7E7E7E7E7E7E7
310
E7E7E7E7E7E7E7E7E7E7E7E7E7E7E7E7E7E7E7E7E7E7E7E7E7E7E7E7E7E7E7E7E7E7E7E7E7E7E7E7E7E7E7E7E7E7E7E7E7E7E7E7E7E7E7E7E7E7E7E7E7E7E7E7E7E7E7E7E7E7E7E7E7E7E7E7E7E7E7E7E7E7E7E7E7E7E7E7E7E7E7E7E7E7E7E7E7E7E7E7E7E7E7E7E7E7E7E7E7E7E7E7E7E7E7E7E7E7E7E7E7E7E7E7E7E7E7
310
E7E7E7E7E7E7E7E7E7E7E7E7E7E7E7E7E7E7E7E7E7E7E7E7E7E7E7E7E7E7E7E7E7E7E7E7E7E7E7E7E7E7E7E7E7E7E7E7E7E7E7E7E7E7E7E7E7E7E7E7E7E7E7E7E7E7E7E7E7E7E7E7E7E7E7E7E7E7E7E7E7E7E7E7E7E7E7E7E7E7E7E7E7E7E7E7E7E7E7E7E7E7E7E7E7E7E7E7E7E7E7E7E7E7E7E7E7E7E7E7E7E7E7E7E7E7E7
310
E7E7E7E7E7E7E7E7E7E7E7E7E7E7E7E7E7E7E7E7E7E7E7E7E7E7E7E7E7E7E7E7E7E7E7E7E7E7E7E7E7E7E7E7E7E7E7E7E7E7E7E7E7E7E7E7E7E7E7E7E7E7E7E7E7E7E7E7E7E7E7E7E7E7E7E7E7E7E7E7E7E7E7E7E7E7E7E7E7E7E7E7E7E7E7E7E7E7E7E7E7E7E7E7E7E7E7E7E7E7E7E7E7E7E7E7E7E7E7E7E7E7E7E7E7E7E7
310
E7E7E7E7E7E7E7E7E7E7E7E7E7E7E7E7E7E7E7E7E7E7E7E7E7E7E7E7E7E7E7E7E7E7E7E7E7E7E7E7E7E7E7E7E7E7E7E7E7E7E7E7E7E7E7E7E7E7E7E7E7E7E7E7E7E7E7E7E7E7E7E7E7E7E7E7E7E7E7E7E7E7E7E7E7E7E7E7E7E7E7E7E7E7E7E7E7E7E7E7E7E7E7E7E7E7E7E7E7E7E7E7E7E7E7E7E7E7E7E7E7E7E7E7E7E7E7
310
E7E7E7E7E7E7E7E7E7E7E7E7E7E7E7E7E7E7E7E7E7E7E7E7E7E7E7E7E7E7E7E7E7E7E7E7E7E7E7E7E7E7E7E7E7E7E7E7E7E7E7E7E7E7E7E7E7E7E7E7E7E7E7E7E7E7E7E7E7E7E7E7E7E7E7E7E7E7E7E7E7E7E7E7E7E7E7E7E7E7E7E7E7E7E7E7E7E7E7E7E7E7E7E7E7E7E7E7E7E7E7E7E7E7E7E7E7E7E7E7E7E7E7E7E7E7E7
310
E7E7E7E7E7E7E7E7E7E7E7E7E7E7E7E7E7E7E7E7E7E7E7E7E7E7E7E7E7E7E7E7E7E7E7E7E7E7E7E7E7E7E7E7E7E7E7E7E7E7E7E7E7E7E7E7E7E7E7E7E7E7E7E7E7E7E7E7E7E7E7E7E7E7E7E7E7E7E7E7E7E7E7E7E7E7E7E7E7E7E7E7E7E7E7E7E7E7E7E7E7E7E7E7E7E7E7E7E7E7E7E7E7E7E7E7E7E7E7E7E7E7E7E7E7E7E7
310
E7E7E7E7E7E7E7E7E7E7E7E7E7E7E7E7E7E7E7E7E7E7E7E7E7E7E7E7E7E7E7E7E7E7E7E7E7E7E7E7E7E7E7E7E7E7E7E7E7E7E7E7E7E7E7E7E7E7E7E7E7E7E7E7E7E7E7E7E7E7E7E7E7E7E7E7E7E7E7E7E7E7E7E7E7E7E7E7E7E7E7E7E7E7E7E7E7E7E7E7E7E7E7E7E7E7E7E7E7E7E7E7E7E7E7E7E7E7E7E7E7E7E7E7E7E7E7
310
E7E7E7E7E7E7E7E7E7E7E7E7E7E7E7E7E7E7E7E7E7E7E7E7E7E7E7E7E7E7E7E7E7E7E7E7E7E7E7E7E7E7E7E7E7E7E7E7E7E7E7E7E7E7E7E7E7E7E7E7E7E7E7E7E7E7E7E7E7E7E7E7E7E7E7E7E7E7E7E7E7E7E7E7E7E7E7E7E7E7E7E7E7E7E7E7E7E7E7E7E7E7E7E7E7E7E7E7E7E7E7E7E7E7E7E7E7E7E7E7E7E7E7E7E7E7E7
310
E7E7E7E7E7E7E7E7E7E7E7E7E7E7E7E7E7E7E7E7E7E7E7E7E7E7E7E7E7E7E7E7E7E7E7E7E7E7E7E7E7E7E7E7E7E7E7E7E7E7E7E7E7E7E7E7E7E7E7E7E7E7E7E7E7E7E7E7E7E7E7E7E7E7E7E7E7E7E7E7E7E7E7E7E7E7E7E7E7E7E7E7E7E7E7E7E7E7E7E7E7E7E7E7E7E7E7E7E7E7E7E7E7E7E7E7E7E7E7E7E7E7E7E7E7E7E7
310
E7E7E7E7E7E7E7E7E7E7E7E7E7E7E7E7E7E7E7E7E7E7E7E7E7E7E7E7E7E7E7E7E7E7E7E7E7E7E7E7E7E7E7E7E7E7E7E7E7E7E7E7E7E7E7E7E7E7E7E7E7E7E7E7E7E7E7E7E7E7E7E7E7E7E7E7E7E7E7E7E7E7E7E7E7E7E7E7E7E7E7E7E7E7E7E7E7E7E7E7E7E7E7E7E7E7E7E7E7E7E7E7E7E7E7E7E7E7E7E7E7E7E7E7E7E7E7
310
E7E7E7E7E7E7E7E7E7E7E7E7E7E7E7E7E7E7E7E7E7E7E7E7E7E7E7E7E7E7E7E7E7E7E7E7E7E7E7E7E7E7E7E7E7E7E7E7E7E7E7E7E7E7E7E7E7E7E7E7E7E7E7E7E7E7E7E7E7E7E7E7E7E7E7E7E7E7E7E7E7E7E7E7E7E7E7E7E7E7E7E7E7E7E7E7E7E7E7E7E7E7E7E7E7E7E7E7E7E7E7E7E7E7E7E7E7E7E7E7E7E7E7E7E7E7E7
310
E7E7E7E7E7E7E7E7E7E7E7E7E7E7E7E7E7E7E7E7E7E7E7E7E7E7E7E7E7E7E7E7E7E7E7E7E7E7E7E7E7E7E7E7E7E7E7E7E7E7E7E7E7E7E7E7E7E7E7E7E7E7E7E7E7E7E7E7E7E7E7E7E7E7E7E7E7E7E7E7E7E7E7E7E7E7E7E7E7E7E7E7E7E7E7E7E7E7E7E7E7E7E7E7E7E7E7E7E7E7E7E7E7E7E7E7E7E7E7E7E7E7E7E7E7E7E7
310
E7E7E7E7E7E7E7E7E7E7E7E7E7E7E7E7E7E7E7E7E7E7E7E7E7E7E7E7E7E7E7E7E7E7E7E7E7E7E7E7E7E7E7E7E7E7E7E7E7E7E7E7E7E7E7E7E7E7E7E7E7E7E7E7E7E7E7E7E7E7E7E7E7E7E7E7E7E7E7E7E7E7E7E7E7E7E7E7E7E7E7E7E7E7E7E7E7E7E7E7E7E7E7E7E7E7E7E7E7E7E7E7E7E7E7E7E7E7E7E7E7E7E7E7E7E7E7
310
E7E7E7E7E7E7E7E7E7E7E7E7E7E7E7E7E7E7E7E7E7E7E7E7E7E7E7E7E7E7E7E7E7E7E7E7E7E7E7E7E7E7E7E7E7E7E7E7E7E7E7E7E7E7E7E7E7E7E7E7E7E7E7E7E7E7E7E7E7E7E7E7E7E7E7E7E7E7E7E7E7E7E7E7E7E7E7E7E7E7E7E7E7E7E7E7E7E7E7E7E7E7E7E7E7E7E7E7E7E7E7E7E7E7E7E7E7E7E7E7E7E7E7E7E7E7E7
310
E7E7E7E7E7E7E7E7E7E7E7E7E7E7E7E7E7E7E7E7E7E7E7E7E7E7E7E7E7E7E7E7E7E7E7E7E7E7E7E7E7E7E7E7E7E7E7E7E7E7E7E7E7E7E7E7E7E7E7E7E7E7E7E7E7E7E7E7E7E7E7E7E7E7E7E7E7E7E7E7E7E7E7E7E7E7E7E7E7E7E7E7E7E7E7E7E7E7E7E7E7E7E7E7E7E7E7E7E7E7E7E7E7E7E7E7E7E7E7E7E7E7E7E7E7E7E7
310
E7E7E7E7E7E7E7E7E7E7E7E7E7E7E7E7E7E7E7E7E7E7E7E7E7E7E7E7E7E7E7E7E7E7E7E7E7E7E7E7E7E7E7E7E7E7E7E7E7E7E7E7E7E7E7E7E7E7E7E7E7E7E7E7E7E7E7E7E7E7E7E7E7E7E7E7E7E7E7E7E7E7E7E7E7E7E7E7E7E7E7E7E7E7E7E7E7E7E7E7E7E7E7E7E7E7E7E7E7E7E7E7E7E7E7E7E7E7E7E7E7E7E7E7E7E7E7
310
E7E7E7E7E7E7E7E7E7E7E7E7E7E7E7E7E7E7E7E7E7E7E7E7E7E7E7E7E7E7E7E7E7E7E7E7E7E7E7E7E7E7E7E7E7E7E7E7E7E7E7E7E7E7E7E7E7E7E7E7E7E7E7E7E7E7E7E7E7E7E7E7E7E7E7E7E7E7E7E7E7E7E7E7E7E7E7E7E7E7E7E7E7E7E7E7E7E7E7E7E7E7E7E7E7E7E7E7E7E7E7E7E7E7E7E7E7E7E7E7E7E7E7E7E7E7E7
310
E7E7E7E7E7E7E7E7E7E7E7E7E7E7E7E7E7E7E7E7E7E7E7E7E7E7E7E7E7E7E7E7E7E7E7E7E7E7E7E7E7E7E7E7E7E7E7E7E7E7E7E7E7E7E7E7E7E7E7E7E7E7E7E7E7E7E7E7E7E7E7E7E7E7E7E7E7E7E7E7E7E7E7E7E7E7E7E7E7E7E7E7E7E7E7E7E7E7E7E7E7E7E7E7E7E7E7E7E7E7E7E7E7E7E7E7E7E7E7E7E7E7E7E7E7E7E7
310
E7E7E7E7E7E7E7E7E7E7E7E7E7E7E7E7E7E7E7E7E7E7E7E7E7E7E7E7E7E7E7E7E7E7E7E7E7E7E7E7E7E7E7E7E7E7E7E7E7E7E7E7E7E7E7E7E7E7E7E7E7E7E7E7E7E7E7E7E7E7E7E7E7E7E7E7E7E7E7E7E7E7E7E7E7E7E7E7E7E7E7E7E7E7E7E7E7E7E7E7E7E7E7E7E7E7E7E7E7E7E7E7E7E7E7E7E7E7E7E7E7E7E7E7E7E7E7
310
E7E7E7E7E7E7E7E7E7E7E7E7E7E7E7E7E7E7E7E7E7E7E7E7E7E7E7E7E7E7E7E7E7E7E7E7E7E7E7E7E7E7E7E7E7E7E7E7E7E7E7E7E7E7E7E7E7E7E7E7E7E7E7E7E7E7E7E7E7E7E7E7E7E7E7E7E7E7E7E7E7E7E7E7E7E7E7E7E7E7E7E7E7E7E7E7E7E7E7E7E7E7E7E7E7E7E7E7E7E7E7E7E7E7E7E7E7E7E7E7E7E7E7E7E7E7E7
310
E7E7E7E7E7E7E7E7E7E7E7E7E7E7E7E7E7E7E7E7E7E7E7E7E7E7E7E7E7E7E7E7E7E7E7E7E7E7E7E7E7E7E7E7E7E7E7E7E7E7E7E7E7E7E7E7E7E7E7E7E7E7E7E7E7E7E7E7E7E7E7E7E7E7E7E7E7E7E7E7E7E7E7E7E7E7E7E7E7E7E7E7E7E7E7E7E7E7E7E7E7E7E7E7E7E7E7E7E7E7E7E7E7E7E7E7E7E7E7E7E7E7E7E7E7E7E7
310
E7E7E7E7E7E7E7E7E7E7E7E7E7E7E7E7E7E7E7E7E7E7E7E7E7E7E7E7E7E7E7E7E7E7E7E7E7E7E7E7E7E7E7E7E7E7E7E7E7E7E7E7E7E7E7E7E7E7E7E7E7E7E7E7E7E7E7E7E7E7E7E7E7E7E7E7E7E7E7E7E7E7E7E7E7E7E7E7E7E7E7E7E7E7E7E7E7E7E7E7E7E7E7E7E7E7E7E7E7E7E7E7E7E7E7E7E7E7E7E7E7E7E7E7E7E7E7
310
E7E7E7E7E7E7E7E7E7E7E7E7E7E7E7E7E7E7E7E7E7E7E7E7E7E7E7E7E7E7E7E7E7E7E7E7E7E7E7E7E7E7E7E7E7E7E7E7E7E7E7E7E7E7E7E7E7E7E7E7E7E7E7E7E7E7E7E7E7E7E7E7E7E7E7E7E7E7E7E7E7E7E7E7E7E7E7E7E7E7E7E7E7E7E7E7E7E7E7E7E7E7E7E7E7E7E7E7E7E7E7E7E7E7E7E7E7E7E7E7E7E7E7E7E7E7E7
310
E7E7E7E7E7E7E7E7E7E7E7E7E7E7E7E7E7E7E7E7E7E7E7E7E7E7E7E7E7E7E7E7E7E7E7E7E7E7E7E7E7E7E7E7E7E7E7E7E7E7E7E7E7E7E7E7E7E7E7E7E7E7E7E7E7E7E7E7E7E7E7E7E7E7E7E7E7E7E7E7E7E7E7E7E7E7E7E7E7E7E7E7E7E7E7E7E7E7E7E7E7E7E7E7E7E7E7E7E7E7E7E7E7E7E7E7E7E7E7E7E7E7E7E7E7E7E7
310
E7E7E7E7E7E7E7E7E7E7E7E7E7E7E7E7E7E7E7E7E7E7E7E7E7E7E7E7E7E7E7E7E7E7E7E7E7E7E7E7E7E7E7E7E7E7E7E7E7E7E7E7E7E7E7E7E7E7E7E7E7E7E7E7E7E7E7E7E7E7E7E7E7E7E7E7E7E7E7E7E7E7E7E7E7E7E7E7E7E7E7E7E7E7E7E7E7E7E7E7E7E7E7E7E7E7E7E7E7E7E7E7E7E7E7E7E7E7E7E7E7E7E7E7E7E7E7
310
E7E7E7E7E7E7E7E7E7E7E7E7E7E7E7E7E7E7E7E7E7E7E7E7E7E7E7E7E7E7E7E7E7E7E7E7E7E7E7E7E7E7E7E7E7E7E7E7E7E7E7E7E7E7E7E7E7E7E7E7E7E7E7E7E7E7E7E7E7E7E7E7E7E7E7E7E7E7E7E7E7E7E7E7E7E7E7E7E7E7E7E7E7E7E7E7E7E7E7E7E7E7E7E7E7E7E7E7E7E7E7E7E7E7E7E7E7E7E7E7E7E7E7E7E7E7E7
310
E7E7E7E7E7E7E7E7E7E7E7E7E7E7E7E7E7E7E7E7E7E7E7E7E7E7E7E7E7E7E7E7E7E7E7E7E7E7E7E7E7E7E7E7E7E7E7E7E7E7E7E7E7E7E7E7E7E7E7E7E7E7E7E7E7E7E7E7E7E7E7E7E7E7E7E7E7E7E7E7E7E7E7E7E7E7E7E7E7E7E7E7E7E7E7E7E7E7E7E7E7E7E7E7E7E7E7E7E7E7E7E7E7E7E7E7E7E7E7E7E7E7E7E7E7E7E7
310
E7E7E7E7E7E7E7E7E7E7E7E7E7E7E7E7E7E7E7E7E7E7E7E7E7E7E7E7E7E7E7E7E7E7E7E7E7E7E7E7E7E7E7E7E7E7E7E7E7E7E7E7E7E7E7E7E7E7E7E7E7E7E7E7E7E7E7E7E7E7E7E7E7E7E7E7E7E7E7E7E7E7E7E7E7E7E7E7E7E7E7E7E7E7E7E7E7E7E7E7E7E7E7E7E7E7E7E7E7E7E7E7E7E7E7E7E7E7E7E7E7E7E7E7E7E7E7
310
E7E7E7E7E7E7E7E7E7E7E7E7E7E7E7E7E7E7E7E7E7E7E7E7E7E7E7E7E7E7E7E7E7E7E7E7E7E7E7E7E7E7E7E7E7E7E7E7E7E7E7E7E7E7E7E7E7E7E7E7E7E7E7E7E7E7E7E7E7E7E7E7E7E7E7E7E7E7E7E7E7E7E7E7E7E7E7E7E7E7E7E7E7E7E7E7E7E7E7E7E7E7E7E7E7E7E7E7E7E7E7E7E7E7E7E7E7E7E7E7E7E7E7E7E7E7E7
310
E7E7E7E7E7E7E7E7E7E7E7E7E7E7E7E7E7E7E7E7E7E7E7E7E7E7E7E7E7E7E7E7E7E7E7E7E7E7E7E7E7E7E7E7E7E7E7E7E7E7E7E7E7E7E7E7E7E7E7E7E7E7E7E7E7E7E7E7E7E7E7E7E7E7E7E7E7E7E7E7E7E7E7E7E7E7E7E7E7E7E7E7E7E7E7E7E7E7E7E7E7E7E7E7E7E7E7E7E7E7E7E7E7E7E7E7E7E7E7E7E7E7E7E7E7E7E7
310
E7E7E7E7E7E7E7E7E7E7E7E7E7E7E7E7E7E7E7E7E7E7E7E7E7E7E7E7E7E7E7E7E7E7E7E7E7E7E7E7E7E7E7E7E7E7E7E7E7E7E7E7E7E7E7E7E7E7E7E7E7E7E7E7E7E7E7E7E7E7E7E7E7E7E7E7E7E7E7E7E7E7E7E7E7E7E7E7E7E7E7E7E7E7E7E7E7E7E7E7E7E7E7E7E7E7E7E7E7E7E7E7E7E7E7E7E7E7E7E7E7E7E7E7E7E7E7
310
E7E7E7E7E7E7E7E7E7E7E7E7E7E7E7E7E7E7E7E7E7E7E7E7E7E7E7E7E7E7E7E7E7E7E7E7E7E7E7E7E7E7E7E7E7E7E7E7E7E7E7E7E7E7E7E7E7E7E7E7E7E7E7E7E7E7E7E7E7E7E7E7E7E7E7E7E7E7E7E7E7E7E7E7E7E7E7E7E7E7E7E7E7E7E7E7E7E7E7E7E7E7E7E7E7E7E7E7E7E7E7E7E7E7E7E7E7E7E7E7E7E7E7E7E7E7E7
310
E7E7E7E7E7E7E7E7E7E7E7E7E7E7E7E7E7E7E7E7E7E7E7E7E7E7E7E7E7E7E7E7E7E7E7E7E7E7E7E7E7E7E7E7E7E7E7E7E7E7E7E7E7E7E7E7E7E7E7E7E7E7E7E7E7E7E7E7E7E7E7E7E7E7E7E7E7E7E7E7E7E7E7E7E7E7E7E7E7E7E7E7E7E7E7E7E7E7E7E7E7E7E7E7E7E7E7E7E7E7E7E7E7E7E7E7E7E7E7E7E7E7E7E7E7E7E7
310
E7E7E7E7E7E7E7E7E7E7E7E7E7E7E7E7E7E7E7E7E7E7E7E7E7E7E7E7E7E7E7E7E7E7E7E7E7E7E7E7E7E7E7E7E7E7E7E7E7E7E7E7E7E7E7E7E7E7E7E7E7E7E7E7E7E7E7E7E7E7E7E7E7E7E7E7E7E7E7E7E7E7E7E7E7E7E7E7E7E7E7E7E7E7E7E7E7E7E7E7E7E7E7E7E7E7E7E7E7E7E7E7E7E7E7E7E7E7E7E7E7E7E7E7E7E7E7
310
E7E7E7E7E7E7E7E7E7E7E7E7E7E7E7E7E7E7E7E7E7E7E7E7E7E7E7E7E7E7E7E7E7E7E7E7E7E7E7E7E7E7E7E7E7E7E7E7E7E7E7E7E7E7E7E7E7E7E7E7E7E7E7E7E7E7E7E7E7E7E7E7E7E7E7E7E7E7E7E7E7E7E7E7E7E7E7E7E7E7E7E7E7E7E7E7E7E7E7E7E7E7E7E7E7E7E7E7E7E7E7E7E7E7E7E7E7E7E7E7E7E7E7E7E7E7E7
310
E7E7E7E7E7E7E7E7E7E7E7E7E7E7E7E7E7E7E7E7E7E7E7E7E7E7E7E7E7E7E7E7E7E7E7E7E7E7E7E7E7E7E7E7E7E7E7E7E7E7E7E7E7E7E7E7E7E7E7E7E7E7E7E7E7E7E7E7E7E7E7E7E7E7E7E7E7E7E7E7E7E7E7E7E7E7E7E7E7E7E7E7E7E7E7E7E7E7E7E7E7E7E7E7E7E7E7E7E7E7E7E7E7E7E7E7E7E7E7E7E7E7E7E7E7E7E7
310
E7E7E7E7E7E7E7E7E7E7E7E7E7E7E7E7E7E7E7E7E7E7E7E7E7E7E7E7E7E7E7E7E7E7E7E7E7E7E7E7E7E7E7E7E7E7E7E7E7E7E7E7E7E7E7E7E7E7E7E7E7E7E7E7E7E7E7E7E7E7E7E7E7E7E7E7E7E7E7E7E7E7E7E7E7E7E7E7E7E7E7E7E7E7E7E7E7E7E7E7E7E7E7E7E7E7E7E7E7E7E7E7E7E7E7E7E7E7E7E7E7E7E7E7E7E7E7
310
E7E7E7E7E7E7E7E7E7E7E7E7E7E7E7E7E7E7E7E7E7E7E7E7E7E7E7E7E7E7E7E7E7E7E7E7E7E7E7E7E7E7E7E7E7E7E7E7E7E7E7E7E7E7E7E7E7E7E7E7E7E7E7E7E7E7E7E7E7E7E7E7E7E7E7E7E7E7E7E7E7E7E7E7E7E7E7E7E7E7E7E7E7E7E7E7E7E7E7E7E7E7E7E7E7E7E7E7E7E7E7E7E7E7E7E7E7E7E7E7E7E7E7E7E7E7E7
310
E7E7E7E7E7E7E7E7E7E7E7E7E7E7E7E7E7E7E7E7E7E7E7E7E7E7E7E7E7E7E7E7E7E7E7E7E7E7E7E7E7E7E7E7E7E7E7E7E7E7E7E7E7E7E7E7E7E7E7E7E7E7E7E7E7E7E7E7E7E7E7E7E7E7E7E7E7E7E7E7E7E7E7E7E7E7E7E7E7E7E7E7E7E7E7E7E7E7E7E7E7E7E7E7E7E7E7E7E7E7E7E7E7E7E7E7E7E7E7E7E7E7E7E7E7E7E7
310
E7E7E7E7E7E7E7E7E7E7E7E7E7E7E7E7E7E7E7E7E7E7E7E7E7E7E7E7E7E7E7E7E7E7E7E7E7E7E7E7E7E7E7E7E7E7E7E7E7E7E7E7E7E7E7E7E7E7E7E7E7E7E7E7E7E7E7E7E7E7E7E7E7E7E7E7E7E7E7E7E7E7E7E7E7E7E7E7E7E7E7E7E7E7E7E7E7E7E7E7E7E7E7E7E7E7E7E7E7E7E7E7E7E7E7E7E7E7E7E7E7E7E7E7E7E7E7
310
E7E7E7E7E7E7E7E7E7E7E7E7E7E7E7E7E7E7E7E7E7E7E7E7E7E7E7E7E7E7E7E7E7E7E7E7E7E7E7E7E7E7E7E7E7E7E7E7E7E7E7E7E7E7E7E7E7E7E7E7E7E7E7E7E7E7E7E7E7E7E7E7E7E7E7E7E7E7E7E7E7E7E7E7E7E7E7E7E7E7E7E7E7E7E7E7E7E7E7E7E7E7E7E7E7E7E7E7E7E7E7E7E7E7E7E7E7E7E7E7E7E7E7E7E7E7E7
310
E7E7E7E7E7E7E7E7E7E7E7E7E7E7E7E7E7E7E7E7E7E7E7E7E7E7E7E7E7E7E7E7E7E7E7E7E7E7E7E7E7E7E7E7E7E7E7E7E7E7E7E7E7E7E7E7E7E7E7E7E7E7E7E7E7E7E7E7E7E7E7E7E7E7E7E7E7E7E7E7E7E7E7E7E7E7E7E7E7E7E7E7E7E7E7E7E7E7E7E7E7E7E7E7E7E7E7E7E7E7E7E7E7E7E7E7E7E7E7E7E7E7E7E7E7E7E7
310
E7E7E7E7E7E7E7E7E7E7E7E7E7E7E7E7E7E7E7E7E7E7E7E7E7E7E7E7E7E7E7E7E7E7E7E7E7E7E7E7E7E7E7E7E7E7E7E7E7E7E7E7E7E7E7E7E7E7E7E7E7E7E7E7E7E7E7E7E7E7E7E7E7E7E7E7E7E7E7E7E7E7E7E7E7E7E7E7E7E7E7E7E7E7E7E7E7E7E7E7E7E7E7E7E7E7E7E7E7E7E7E7E7E7E7E7E7E7E7E7E7E7E7E7E7E7E7
310
E7E7E7E7E7E7E7E7E7E7E7E7E7E7E7E7E7E7E7E7E7E7E7E7E7E7E7E7E7E7E7E7E7E7E7E7E7E7E7E7E7E7E7E7E7E7E7E7E7E7E7E7E7E7E7E7E7E7E7E7E7E7E7E7E7E7E7E7E7E7E7E7E7E7E7E7E7E7E7E7E7E7E7E7E7E7E7E7E7E7E7E7E7E7E7E7E7E7E7E7E7E7E7E7E7E7E7E7E7E7E7E7E7E7E7E7E7E7E7E7E7E7E7E7E7E7E7
310
E7E7E7E7E7E7E7E7E7E7E7E7E7E7E7E7E7E7E7E7E7E7E7E7E7E7E7E7E7E7E7E7E7E7E7E7E7E7E7E7E7E7E7E7E7E7E7E7E7E7E7E7E7E7E7E7E7E7E7E7E7E7E7E7E7E7E7E7E7E7E7E7E7E7E7E7E7E7E7E7E7E7E7E7E7E7E7E7E7E7E7E7E7E7E7E7E7E7E7E7E7E7E7E7E7E7E7E7E7E7E7E7E7E7E7E7E7E7E7E7E7E7E7E7E7E7E7
310
E7E7E7E7E7E7E7E7E7E7E7E7E7E7E7E7E7E7E7E7E7E7E7E7E7E7E7E7E7E7E7E7E7E7E7E7E7E7E7E7E7E7E7E7E7E7E7E7E7E7E7E7E7E7E7E7E7E7E7E7E7E7E7E7E7E7E7E7E7E7E7E7E7E7E7E7E7E7E7E7E7E7E7E7E7E7E7E7E7E7E7E7E7E7E7E7E7E7E7E7E7E7E7E7E7E7E7E7E7E7E7E7E7E7E7E7E7E7E7E7E7E7E7E7E7E7E7
310
E7E7E7E7E7E7E7E7E7E7E7E7E7E7E7E7E7E7E7E7E7E7E7E7E7E7E7E7E7E7E7E7E7E7E7E7E7E7E7E7E7E7E7E7E7E7E7E7E7E7E7E7E7E7E7E7E7E7E7E7E7E7E7E7E7E7E7E7E7E7E7E7E7E7E7E7E7E7E7E7E7E7E7E7E7E7E7E7E7E7E7E7E7E7E7E7E7E7E7E7E7E7E7E7E7E7E7E7E7E7E7E7E7E7E7E7E7E7E7E7E7E7E7E7E7E7E7
310
E7E7E7E7E7E7E7E7E7E7E7E7E7E7E7E7E7E7E7E7E7E7E7E7E7E7E7E7E7E7E7E7E7E7E7E7E7E7E7E7E7E7E7E7E7E7E7E7E7E7E7E7E7E7E7E7E7E7E7E7E7E7E7E7E7E7E7E7E7E7E7E7E7E7E7E7E7E7E7E7E7E7E7E7E7E7E7E7E7E7E7E7E7E7E7E7E7E7E7E7E7E7E7E7E7E7E7E7E7E7E7E7E7E7E7E7E7E7E7E7E7E7E7E7E7E7E7
310
E7E7E7E7E7E7E7E7E7E7E7E7E7E7E7E7E7E7E7E7E7E7E7E7E7E7E7E7E7E7E7E7E7E7E7E7E7E7E7E7E7E7E7E7E7E7E7E7E7E7E7E7E7E7E7E7E7E7E7E7E7E7E7E7E7E7E7E7E7E7E7E7E7E7E7E7E7E7E7E7E7E7E7E7E7E7E7E7E7E7E7E7E7E7E7E7E7E7E7E7E7E7E7E7E7E7E7E7E7E7E7E7E7E7E7E7E7E7E7E7E7E7E7E7E7E7E7
310
E7E7E7E7E7E7E7E7E7E7E7E7E7E7E7E7E7E7E7E7E7E7E7E7E7E7E7E7E7E7E7E7E7E7E7E7E7E7E7E7E7E7E7E7E7E7E7E7E7E7E7E7E7E7E7E7E7E7E7E7E7E7E7E7E7E7E7E7E7E7E7E7E7E7E7E7E7E7E7E7E7E7E7E7E7E7E7E7E7E7E7E7E7E7E7E7E7E7E7E7E7E7E7E7E7E7E7E7E7E7E7E7E7E7E7E7E7E7E7E7E7E7E7E7E7E7E7
310
E7E7E7E7E7E7E7E7E7E7E7E7E7E7E7E7E7E7E7E7E7E7E7E7E7E7E7E7E7E7E7E7E7E7E7E7E7E7E7E7E7E7E7E7E7E7E7E7E7E7E7E7E7E7E7E7E7E7E7E7E7E7E7E7E7E7E7E7E7E7E7E7E7E7E7E7E7E7E7E7E7E7E7E7E7E7E7E7E7E7E7E7E7E7E7E7E7E7E7E7E7E7E7E7E7E7E7E7E7E7E7E7E7E7E7E7E7E7E7E7E7E7E7E7E7E7E7
310
E7E7E7E7E7E7E7E7E7E7E7E7E7E7E7E7E7E7E7E7E7E7E7E7E7E7E7E7E7E7E7E7E7E7E7E7E7E7E7E7E7E7E7E7E7E7E7E7E7E7E7E7E7E7E7E7E7E7E7E7E7E7E7E7E7E7E7E7E7E7E7E7E7E7E7E7E7E7E7E7E7E7E7E7E7E7E7E7E7E7E7E7E7E7E7E7E7E7E7E7E7E7E7E7E7E7E7E7E7E7E7E7E7E7E7E7E7E7E7E7E7E7E7E7E7E7E7
310
E7E7E7E7E7E7E7E7E7E7E7E7E7E7E7E7E7E7E7E7E7E7E7E7E7E7E7E7E7E7E7E7E7E7E7E7E7E7E7E7E7E7E7E7E7E7E7E7E7E7E7E7E7E7E7E7E7E7E7E7E7E7E7E7E7E7E7E7E7E7E7E7E7E7E7E7E7E7E7E7E7E7E7E7E7E7E7E7E7E7E7E7E7E7E7E7E7E7E7E7E7E7E7E7E7E7E7E7E7E7E7E7E7E7E7E7E7E7E7E7E7E7E7E7E7E7E7
310
E7E7E7E7E7E7E7E7E7E7E7E7E7E7E7E7E7E7E7E7E7E7E7E7E7E7E7E7E7E7E7E7E7E7E7E7E7E7E7E7E7E7E7E7E7E7E7E7E7E7E7E7E7E7E7E7E7E7E7E7E7E7E7E7E7E7E7E7E7E7E7E7E7E7E7E7E7E7E7E7E7E7E7E7E7E7E7E7E7E7E7E7E7E7E7E7E7E7E7E7E7E7E7E7E7E7E7E7E7E7E7E7E7E7E7E7E7E7E7E7E7E7E7E7E7E7E7
310
E7E7E7E7E7E7E7E7E7E7E7E7E7E7E7E7E7E7E7E7E7E7E7E7E7E7E7E7E7E7E7E7E7E7E7E7E7E7E7E7E7E7E7E7E7E7E7E7E7E7E7E7E7E7E7E7E7E7E7E7E7E7E7E7E7E7E7E7E7E7E7E7E7E7E7E7E7E7E7E7E7E7E7E7E7E7E7E7E7E7E7E7E7E7E7E7E7E7E7E7E7E7E7E7E7E7E7E7E7E7E7E7E7E7E7E7E7E7E7E7E7E7E7E7E7E7E7
310
E7E7E7E7E7E7E7E7E7E7E7E7E7E7E7E7E7E7E7E7E7E7E7E7E7E7E7E7E7E7E7E7E7E7E7E7E7E7E7E7E7E7E7E7E7E7E7E7E7E7E7E7E7E7E7E7E7E7E7E7E7E7E7E7E7E7E7E7E7E7E7E7E7E7E7E7E7E7E7E7E7E7E7E7E7E7E7E7E7E7E7E7E7E7E7E7E7E7E7E7E7E7E7E7E7E7E7E7E7E7E7E7E7E7E7E7E7E7E7E7E7E7E7E7E7E7E7
310
E7E7E7E7E7E7E7E7E7E7E7E7E7E7E7E7E7E7E7E7E7E7E7E7E7E7E7E7E7E7E7E7E7E7E7E7E7E7E7E7E7E7E7E7E7E7E7E7E7E7E7E7E7E7E7E7E7E7E7E7E7E7E7E7E7E7E7E7E7E7E7E7E7E7E7E7E7E7E7E7E7E7E7E7E7E7E7E7E7E7E7E7E7E7E7E7E7E7E7E7E7E7E7E7E7E7E7E7E7E7E7E7E7E7E7E7E7E7E7E7E7E7E7E7E7E7E7
310
E7E7E7E7E7E7E7E7E7E7E7E7E7E7E7E7E7E7E7E7E7E7E7E7E7E7E7E7E7E7E7E7E7E7E7E7E7E7E7E7E7E7E7E7E7E7E7E7E7E7E7E7E7E7E7E7E7E7E7E7E7E7E7E7E7E7E7E7E7E7E7E7E7E7E7E7E7E7E7E7E7E7E7E7E7E7E7E7E7E7E7E7E7E7E7E7E7E7E7E7E7E7E7E7E7E7E7E7E7E7E7E7E7E7E7E7E7E7E7E7E7E7E7E7E7E7E7
310
E7E7E7E7E7E7E7E7E7E7E7E7E7E7E7E7E7E7E7E7E7E7E7E7E7E7E7E7E7E7E7E7E7E7E7E7E7E7E7E7E7E7E7E7E7E7E7E7E7E7E7E7E7E7E7E7E7E7E7E7E7E7E7E7E7E7E7E7E7E7E7E7E7E7E7E7E7E7E7E7E7E7E7E7E7E7E7E7E7E7E7E7E7E7E7E7E7E7E7E7E7E7E7E7E7E7E7E7E7E7E7E7E7E7E7E7E7E7E7E7E7E7E7E7E7E7E7
310
E7E7E7E7E7E7E7E7E7E7E7E7E7E7E7E7E7E7E7E7E7E7E7E7E7E7E7E7E7E7E7E7E7E7E7E7E7E7E7E7E7E7E7E7E7E7E7E7E7E7E7E7E7E7E7E7E7E7E7E7E7E7E7E7E7E7E7E7E7E7E7E7E7E7E7E7E7E7E7E7E7E7E7E7E7E7E7E7E7E7E7E7E7E7E7E7E7E7E7E7E7E7E7E7E7E7E7E7E7E7E7E7E7E7E7E7E7E7E7E7E7E7E7E7E7E7E7
310
E7E7E7E7E7E7E7E7E7E7E7E7E7E7E7E7E7E7E7E7E7E7E7E7E7E7E7E7E7E7E7E7E7E7E7E7E7E7E7E7E7E7E7E7E7E7E7E7E7E7E7E7E7E7E7E7E7E7E7E7E7E7E7E7E7E7E7E7E7E7E7E7E7E7E7E7E7E7E7E7E7E7E7E7E7E7E7E7E7E7E7E7E7E7E7E7E7E7E7E7E7E7E7E7E7E7E7E7E7E7E7E7E7E7E7E7E7E7E7E7E7E7E7E7E7E7E7
310
E7E7E7E7E7E7E7E7E7E7E7E7E7E7E7E7E7E7E7E7E7E7E7E7E7E7E7E7E7E7E7E7E7E7E7E7E7E7E7E7E7E7E7E7E7E7E7E7E7E7E7E7E7E7E7E7E7E7E7E7E7E7E7E7E7E7E7E7E7E7E7E7E7E7E7E7E7E7E7E7E7E7E7E7E7E7E7E7E7E7E7E7E7E7E7E7E7E7E7E7E7E7E7E7E7E7E7E7E7E7E7E7E7E7E7E7E7E7E7E7E7E7E7E7E7E7E7
310
E7E7E7E7E7E7E7E7E7E7E7E7E7E7E7E7E7E7E7E7E7E7E7E7E7E7E7E7E7E7E7E7E7E7E7E7E7E7E7E7E7E7E7E7E7E7E7E7E7E7E7E7E7E7E7E7E7E7E7E7E7E7E7E7E7E7E7E7E7E7E7E7E7E7E7E7E7E7E7E7E7E7E7E7E7E7E7E7E7E7E7E7E7E7E7E7E7E7E7E7E7E7E7E7E7E7E7E7E7E7E7E7E7E7E7E7E7E7E7E7E7E7E7E7E7E7E7
310
E7E7E7E7E7E7E7E7E7E7E7E7E7E7E7E7E7E7E7E7E7E7E7E7E7E7E7E7E7E7E7E7E7E7E7E7E7E7E7E7E7E7E7E7E7E7E7E7E7E7E7E7E7E7E7E7E7E7E7E7E7E7E7E7E7E7E7E7E7E7E7E7E7E7E7E7E7E7E7E7E7E7E7E7E7E7E7E7E7E7E7E7E7E7E7E7E7E7E7E7E7E7E7E7E7E7E7E7E7E7E7E7E7E7E7E7E7E7E7E7E7E7E7E7E7E7E7
310
E7E7E7E7E7E7E7E7E7E7E7E7E7E7E7E7E7E7E7E7E7E7E7E7E7E7E7E7E7E7E7E7E7E7E7E7E7E7E7E7E7E7E7E7E7E7E7E7E7E7E7E7E7E7E7E7E7E7E7E7E7E7E7E7E7E7E7E7E7E7E7E7E7E7E7E7E7E7E7E7E7E7E7E7E7E7E7E7E7E7E7E7E7E7E7E7E7E7E7E7E7E7E7E7E7E7E7E7E7E7E7E7E7E7E7E7E7E7E7E7E7E7E7E7E7E7E7
310
E7E7E7E7E7E7E7E7E7E7E7E7E7E7E7E7E7E7E7E7E7E7E7E7E7E7E7E7E7E7E7E7E7E7E7E7E7E7E7E7E7E7E7E7E7E7E7E7E7E7E7E7E7E7E7E7E7E7E7E7E7E7E7E7E7E7E7E7E7E7E7E7E7E7E7E7E7E7E7E7E7E7E7E7E7E7E7E7E7E7E7E7E7E7E7E7E7E7E7E7E7E7E7E7E7E7E7E7E7E7E7E7E7E7E7E7E7E7E7E7E7E7E7E7E7E7E7
310
E7E7E7E7E7E7E7E7E7E7E7E7E7E7E7E7E7E7E7E7E7E7E7E7E7E7E7E7E7E7E7E7E7E7E7E7E7E7E7E7E7E7E7E7E7E7E7E7E7E7E7E7E7E7E7E7E7E7E7E7E7E7E7E7E7E7E7E7E7E7E7E7E7E7E7E7E7E7E7E7E7E7E7E7E7E7E7E7E7E7E7E7E7E7E7E7E7E7E7E7E7E7E7E7E7E7E7E7E7E7E7E7E7E7E7E7E7E7E7E7E7E7E7E7E7E7E7
310
E7E7E7E7E7E7E7E7E7E7E7E7E7E7E7E7E7E7E7E7E7E7E7E7E7E7E7E7E7E7E7E7E7E7E7E7E7E7E7E7E7E7E7E7E7E7E7E7E7E7E7E7E7E7E7E7E7E7E7E7E7E7E7E7E7E7E7E7E7E7E7E7E7E7E7E7E7E7E7E7E7E7E7E7E7E7E7E7E7E7E7E7E7E7E7E7E7E7E7E7E7E7E7E7E7E7E7E7E7E7E7E7E7E7E7E7E7E7E7E7E7E7E7E7E7E7E7
310
E7E7E7E7E7E7E7E7E7E7E7E7E7E7E7E7E7E7E7E7E7E7E7E7E7E7E7E7E7E7E7E7E7E7E7E7E7E7E7E7E7E7E7E7E7E7E7E7E7E7E7E7E7E7E7E7E7E7E7E7E7E7E7E7E7E7E7E7E7E7E7E7E7E7E7E7E7E7E7E7E7E7E7E7E7E7E7E7E7E7E7E7E7E7E7E7E7E7E7E7E7E7E7E7E7E7E7E7E7E7E7E7E7E7E7E7E7E7E7E7E7E7E7E7E7E7E7
310
E7E7E7E7E7E7E7E7E7E7E7E7E7E7E7E7E7E7E7E7E7E7E7E7E7E7E7E7E7E7E7E7E7E7E7E7E7E7E7E7E7E7E7E7E7E7E7E7
  0
XRECORD
  5
17AE2
102
{ACAD_REACTORS
330
D05B
102
}
330
D05B
100
AcDbXrecord
280
     1
102
MATERIAL
148
0.0
149
0.0
149
0.0
 93
        0
 94
      127
282
     0
 72
     0
 77
     0
171
     0
175
     0
179
     0
273
     0
  0
XRECORD
  5
D05D
102
{ACAD_REACTORS
330
D05B
102
}
330
D05B
100
AcDbXrecord
280
     1
270
     1
271
     1
  0
XRECORD
  5
D05C
102
{ACAD_REACTORS
330
D05B
102
}
330
D05B
100
AcDbXrecord
280
     1
270
     1
271
     1
  0
XRECORD
  5
D060
102
{ACAD_REACTORS
330
D05B
102
}
330
D05B
100
AcDbXrecord
280
     1
270
     1
271
     1
  0
XRECORD
  5
D05F
102
{ACAD_REACTORS
330
D05B
102
}
330
D05B
100
AcDbXrecord
280
     1
270
     1
271
     1
  0
XRECORD
  5
D061
102
{ACAD_REACTORS
330
D05B
102
}
330
D05B
100
AcDbXrecord
280
     1
270
     1
271
     1
  0
XRECORD
  5
D05E
102
{ACAD_REACTORS
330
D05B
102
}
330
D05B
100
AcDbXrecord
280
     1
270
     1
271
     1
  0
XRECORD
  5
17AE1
102
{ACAD_REACTORS
330
D053
102
}
330
D053
100
AcDbXrecord
280
     1
102
MATERIAL
148
0.0
149
0.0
149
0.0
 93
        0
 94
      127
282
     0
 72
     0
 77
     0
171
     0
175
     0
179
     0
273
     0
  0
XRECORD
  5
D055
102
{ACAD_REACTORS
330
D053
102
}
330
D053
100
AcDbXrecord
280
     1
270
     1
271
     1
  0
XRECORD
  5
D054
102
{ACAD_REACTORS
330
D053
102
}
330
D053
100
AcDbXrecord
280
     1
270
     1
271
     1
  0
XRECORD
  5
D058
102
{ACAD_REACTORS
330
D053
102
}
330
D053
100
AcDbXrecord
280
     1
270
     1
271
     1
  0
XRECORD
  5
D057
102
{ACAD_REACTORS
330
D053
102
}
330
D053
100
AcDbXrecord
280
     1
270
     1
271
     1
  0
XRECORD
  5
D059
102
{ACAD_REACTORS
330
D053
102
}
330
D053
100
AcDbXrecord
280
     1
270
     1
271
     1
  0
XRECORD
  5
D056
102
{ACAD_REACTORS
330
D053
102
}
330
D053
100
AcDbXrecord
280
     1
270
     1
271
     1
  0
XRECORD
  5
17AE3
102
{ACAD_REACTORS
330
D063
102
}
330
D063
100
AcDbXrecord
280
     1
102
MATERIAL
148
0.0
149
0.0
149
0.0
 93
        0
 94
      127
282
     0
 72
     0
 77
     0
171
     0
175
     0
179
     0
273
     0
  0
XRECORD
  5
D065
102
{ACAD_REACTORS
330
D063
102
}
330
D063
100
AcDbXrecord
280
     1
270
     1
271
     1
  0
XRECORD
  5
D064
102
{ACAD_REACTORS
330
D063
102
}
330
D063
100
AcDbXrecord
280
     1
270
     1
271
     1
  0
XRECORD
  5
D068
102
{ACAD_REACTORS
330
D063
102
}
330
D063
100
AcDbXrecord
280
     1
270
     1
271
     1
  0
XRECORD
  5
D067
102
{ACAD_REACTORS
330
D063
102
}
330
D063
100
AcDbXrecord
280
     1
270
     1
271
     1
  0
XRECORD
  5
D069
102
{ACAD_REACTORS
330
D063
102
}
330
D063
100
AcDbXrecord
280
     1
270
     1
271
     1
  0
XRECORD
  5
D066
102
{ACAD_REACTORS
330
D063
102
}
330
D063
100
AcDbXrecord
280
     1
270
     1
271
     1
  0
CELLSTYLEMAP
  5
17AD9
102
{ACAD_REACTORS
330
D0E9
102
}
330
D0E9
100
AcDbCellStyleMap
 90
        3
300
CELLSTYLE
  1
TABLEFORMAT_BEGIN
 90
        5
170
     1
 91
        0
 92
    32768
 62
   257
 93
        1
300
CONTENTFORMAT
  1
CONTENTFORMAT_BEGIN
 90
        0
 91
        0
 92
        4
 93
        0
300

 40
0.0
140
1.0
 94
        5
 62
     0
340
F
144
6.0
309
CONTENTFORMAT_END
171
     1
301
MARGIN
  1
CELLMARGIN_BEGIN
 40
1.5
 40
1.5
 40
1.5
 40
1.5
 40
0.18
 40
0.18
309
CELLMARGIN_END
 94
        6
 95
        1
302
GRIDFORMAT
  1
GRIDFORMAT_BEGIN
 90
        0
 91
        1
 62
     0
 92
       -2
340
0
 93
        0
 40
0.045
309
GRIDFORMAT_END
 95
        2
302
GRIDFORMAT
  1
GRIDFORMAT_BEGIN
 90
        0
 91
        1
 62
     0
 92
       -2
340
0
 93
        0
 40
0.045
309
GRIDFORMAT_END
 95
        4
302
GRIDFORMAT
  1
GRIDFORMAT_BEGIN
 90
        0
 91
        1
 62
     0
 92
       -2
340
0
 93
        0
 40
0.045
309
GRIDFORMAT_END
 95
        8
302
GRIDFORMAT
  1
GRIDFORMAT_BEGIN
 90
        0
 91
        1
 62
     0
 92
       -2
340
0
 93
        0
 40
0.045
309
GRIDFORMAT_END
 95
       16
302
GRIDFORMAT
  1
GRIDFORMAT_BEGIN
 90
        0
 91
        1
 62
     0
 92
       -2
340
0
 93
        0
 40
0.045
309
GRIDFORMAT_END
 95
       32
302
GRIDFORMAT
  1
GRIDFORMAT_BEGIN
 90
        0
 91
        1
 62
     0
 92
       -2
340
0
 93
        0
 40
0.045
309
GRIDFORMAT_END
309
TABLEFORMAT_END
  1
CELLSTYLE_BEGIN
 90
        1
 91
        1
300
_TITLE
309
CELLSTYLE_END
300
CELLSTYLE
  1
TABLEFORMAT_BEGIN
 90
        5
170
     1
 91
        0
 92
        0
 62
   257
 93
        1
300
CONTENTFORMAT
  1
CONTENTFORMAT_BEGIN
 90
        0
 91
        0
 92
        4
 93
        0
300

 40
0.0
140
1.0
 94
        5
 62
     0
340
F
144
4.5
309
CONTENTFORMAT_END
171
     1
301
MARGIN
  1
CELLMARGIN_BEGIN
 40
1.5
 40
1.5
 40
1.5
 40
1.5
 40
0.18
 40
0.18
309
CELLMARGIN_END
 94
        6
 95
        1
302
GRIDFORMAT
  1
GRIDFORMAT_BEGIN
 90
        0
 91
        1
 62
     0
 92
       -2
340
0
 93
        0
 40
0.045
309
GRIDFORMAT_END
 95
        2
302
GRIDFORMAT
  1
GRIDFORMAT_BEGIN
 90
        0
 91
        1
 62
     0
 92
       -2
340
0
 93
        0
 40
0.045
309
GRIDFORMAT_END
 95
        4
302
GRIDFORMAT
  1
GRIDFORMAT_BEGIN
 90
        0
 91
        1
 62
     0
 92
       -2
340
0
 93
        0
 40
0.045
309
GRIDFORMAT_END
 95
        8
302
GRIDFORMAT
  1
GRIDFORMAT_BEGIN
 90
        0
 91
        1
 62
     0
 92
       -2
340
0
 93
        0
 40
0.045
309
GRIDFORMAT_END
 95
       16
302
GRIDFORMAT
  1
GRIDFORMAT_BEGIN
 90
        0
 91
        1
 62
     0
 92
       -2
340
0
 93
        0
 40
0.045
309
GRIDFORMAT_END
 95
       32
302
GRIDFORMAT
  1
GRIDFORMAT_BEGIN
 90
        0
 91
        1
 62
     0
 92
       -2
340
0
 93
        0
 40
0.045
309
GRIDFORMAT_END
309
TABLEFORMAT_END
  1
CELLSTYLE_BEGIN
 90
        2
 91
        1
300
_HEADER
309
CELLSTYLE_END
300
CELLSTYLE
  1
TABLEFORMAT_BEGIN
 90
        5
170
     1
 91
        0
 92
        0
 62
   257
 93
        1
300
CONTENTFORMAT
  1
CONTENTFORMAT_BEGIN
 90
        0
 91
        0
 92
        4
 93
        0
300

 40
0.0
140
1.0
 94
        2
 62
     0
340
F
144
4.5
309
CONTENTFORMAT_END
171
     1
301
MARGIN
  1
CELLMARGIN_BEGIN
 40
1.5
 40
1.5
 40
1.5
 40
1.5
 40
0.18
 40
0.18
309
CELLMARGIN_END
 94
        6
 95
        1
302
GRIDFORMAT
  1
GRIDFORMAT_BEGIN
 90
        0
 91
        1
 62
     0
 92
       -2
340
0
 93
        0
 40
0.045
309
GRIDFORMAT_END
 95
        2
302
GRIDFORMAT
  1
GRIDFORMAT_BEGIN
 90
        0
 91
        1
 62
     0
 92
       -2
340
0
 93
        0
 40
0.045
309
GRIDFORMAT_END
 95
        4
302
GRIDFORMAT
  1
GRIDFORMAT_BEGIN
 90
        0
 91
        1
 62
     0
 92
       -2
340
0
 93
        0
 40
0.045
309
GRIDFORMAT_END
 95
        8
302
GRIDFORMAT
  1
GRIDFORMAT_BEGIN
 90
        0
 91
        1
 62
     0
 92
       -2
340
0
 93
        0
 40
0.045
309
GRIDFORMAT_END
 95
       16
302
GRIDFORMAT
  1
GRIDFORMAT_BEGIN
 90
        0
 91
        1
 62
     0
 92
       -2
340
0
 93
        0
 40
0.045
309
GRIDFORMAT_END
 95
       32
302
GRIDFORMAT
  1
GRIDFORMAT_BEGIN
 90
        0
 91
        1
 62
     0
 92
       -2
340
0
 93
        0
 40
0.045
309
GRIDFORMAT_END
309
TABLEFORMAT_END
  1
CELLSTYLE_BEGIN
 90
        3
 91
        2
300
_DATA
309
CELLSTYLE_END
  0
XRECORD
  5
17AE0
102
{ACAD_REACTORS
330
D0E9
102
}
330
D0E9
100
AcDbXrecord
280
     1
102
ACAD_ROUNDTRIP_PRE2007_TABLESTYLE
 90
        4
 91
        0
  1

 92
        4
 93
        0
  2

 94
        4
 95
        0
  3

  0
XRECORD
  5
179AF
102
{ACAD_REACTORS
330
179AE
102
}
330
179AE
100
AcDbXrecord
280
     1
102
RTVSPropertyOp28
 70
     1
102
RTVSPropertyOp29
 70
     1
102
RTVSPropertyOp30
 70
     1
102
RTVSPropertyOp31
 70
     1
102
RTVSPropertyOp32
 70
     1
102
RTVSPropertyOp0
 70
     1
102
RTVSPropertyOp1
 70
     1
102
RTVSPropertyOp2
 70
     1
102
RTVSPropertyOp3
 70
     1
102
RTVSPropertyOp4
 70
     1
102
RTVSPropertyOp5
 70
     1
102
RTVSPropertyOp6
 70
     1
102
RTVSPropertyOp7
 70
     1
102
RTVSPropertyOp8
 70
     1
102
RTVSPropertyOp9
 70
     1
102
RTVSPropertyOp10
 70
     1
102
RTVSPropertyOp11
 70
     1
102
RTVSPropertyOp12
 70
     1
102
RTVSPropertyOp13
 70
     1
102
RTVSPropertyOp14
 70
     1
102
RTVSPropertyOp15
 70
     1
102
RTVSPropertyOp16
 70
     1
102
RTVSPropertyOp17
 70
     1
102
RTVSPropertyOp18
 70
     1
102
RTVSPropertyOp19
 70
     1
102
RTVSPropertyOp20
 70
     1
102
RTVSPropertyOp21
 70
     1
102
RTVSPropertyOp22
 70
     1
102
RTVSPropertyOp23
 70
     1
102
RTVSPropertyOp24
 70
     1
102
RTVSPropertyOp25
 70
     1
102
RTVSPropertyOp26
 70
     1
102
RTVSPropertyOp27
 70
     1
  0
XRECORD
  5
179B3
102
{ACAD_REACTORS
330
179B2
102
}
330
179B2
100
AcDbXrecord
280
     1
102
RTVSPropertyOp28
 70
     1
102
RTVSPropertyOp29
 70
     1
102
RTVSPropertyOp30
 70
     1
102
RTVSPropertyOp31
 70
     1
102
RTVSPropertyOp32
 70
     1
102
RTVSPropertyOp0
 70
     1
102
RTVSPropertyOp1
 70
     1
102
RTVSPropertyOp2
 70
     1
102
RTVSPropertyOp3
 70
     1
102
RTVSPropertyOp4
 70
     1
102
RTVSPropertyOp5
 70
     1
102
RTVSPropertyOp6
 70
     1
102
RTVSPropertyOp7
 70
     1
102
RTVSPropertyOp8
 70
     1
102
RTVSPropertyOp9
 70
     1
102
RTVSPropertyOp10
 70
     1
102
RTVSPropertyOp11
 70
     1
102
RTVSPropertyOp12
 70
     1
102
RTVSPropertyOp13
 70
     1
102
RTVSPropertyOp14
 70
     1
102
RTVSPropertyOp15
 70
     1
102
RTVSPropertyOp16
 70
     1
102
RTVSPropertyOp17
 70
     1
102
RTVSPropertyOp18
 70
     1
102
RTVSPropertyOp19
 70
     1
102
RTVSPropertyOp20
 70
     1
102
RTVSPropertyOp21
 70
     1
102
RTVSPropertyOp22
 70
     1
102
RTVSPropertyOp23
 70
     1
102
RTVSPropertyOp24
 70
     1
102
RTVSPropertyOp25
 70
     1
102
RTVSPropertyOp26
 70
     1
102
RTVSPropertyOp27
 70
     1
  0
XRECORD
  5
179B1
102
{ACAD_REACTORS
330
179B0
102
}
330
179B0
100
AcDbXrecord
280
     1
102
RTVSPropertyOp28
 70
     1
102
RTVSPropertyOp29
 70
     1
102
RTVSPropertyOp30
 70
     1
102
RTVSPropertyOp31
 70
     1
102
RTVSPropertyOp32
 70
     1
102
RTVSPropertyOp0
 70
     1
102
RTVSPropertyOp1
 70
     1
102
RTVSPropertyOp2
 70
     1
102
RTVSPropertyOp3
 70
     1
102
RTVSPropertyOp4
 70
     1
102
RTVSPropertyOp5
 70
     1
102
RTVSPropertyOp6
 70
     1
102
RTVSPropertyOp7
 70
     1
102
RTVSPropertyOp8
 70
     1
102
RTVSPropertyOp9
 70
     1
102
RTVSPropertyOp10
 70
     1
102
RTVSPropertyOp11
 70
     1
102
RTVSPropertyOp12
 70
     1
102
RTVSPropertyOp13
 70
     1
102
RTVSPropertyOp14
 70
     1
102
RTVSPropertyOp15
 70
     1
102
RTVSPropertyOp16
 70
     1
102
RTVSPropertyOp17
 70
     1
102
RTVSPropertyOp18
 70
     1
102
RTVSPropertyOp19
 70
     1
102
RTVSPropertyOp20
 70
     1
102
RTVSPropertyOp21
 70
     1
102
RTVSPropertyOp22
 70
     1
102
RTVSPropertyOp23
 70
     1
102
RTVSPropertyOp24
 70
     1
102
RTVSPropertyOp25
 70
     1
102
RTVSPropertyOp26
 70
     1
102
RTVSPropertyOp27
 70
     1
  0
XRECORD
  5
179AD
102
{ACAD_REACTORS
330
179AC
102
}
330
179AC
100
AcDbXrecord
280
     1
102
RTVSPropertyOp28
 70
     1
102
RTVSPropertyOp29
 70
     1
102
RTVSPropertyOp30
 70
     1
102
RTVSPropertyOp31
 70
     1
102
RTVSPropertyOp32
 70
     1
102
RTVSPropertyOp0
 70
     1
102
RTVSPropertyOp1
 70
     1
102
RTVSPropertyOp2
 70
     1
102
RTVSPropertyOp3
 70
     1
102
RTVSPropertyOp4
 70
     1
102
RTVSPropertyOp5
 70
     1
102
RTVSPropertyOp6
 70
     1
102
RTVSPropertyOp7
 70
     1
102
RTVSPropertyOp8
 70
     1
102
RTVSPropertyOp9
 70
     1
102
RTVSPropertyOp10
 70
     1
102
RTVSPropertyOp11
 70
     1
102
RTVSPropertyOp12
 70
     1
102
RTVSPropertyOp13
 70
     1
102
RTVSPropertyOp14
 70
     1
102
RTVSPropertyOp15
 70
     1
102
RTVSPropertyOp16
 70
     1
102
RTVSPropertyOp17
 70
     1
102
RTVSPropertyOp18
 70
     1
102
RTVSPropertyOp19
 70
     1
102
RTVSPropertyOp20
 70
     1
102
RTVSPropertyOp21
 70
     1
102
RTVSPropertyOp22
 70
     1
102
RTVSPropertyOp23
 70
     1
102
RTVSPropertyOp24
 70
     1
102
RTVSPropertyOp25
 70
     1
102
RTVSPropertyOp26
 70
     1
102
RTVSPropertyOp27
 70
     1
  0
XRECORD
  5
179BB
102
{ACAD_REACTORS
330
179BA
102
}
330
179BA
100
AcDbXrecord
280
     1
102
RTVSPropertyOp28
 70
     1
102
RTVSPropertyOp29
 70
     1
102
RTVSPropertyOp30
 70
     1
102
RTVSPropertyOp31
 70
     1
102
RTVSPropertyOp32
 70
     1
102
RTVSPropertyOp0
 70
     1
102
RTVSPropertyOp1
 70
     1
102
RTVSPropertyOp2
 70
     1
102
RTVSPropertyOp3
 70
     1
102
RTVSPropertyOp4
 70
     1
102
RTVSPropertyOp5
 70
     1
102
RTVSPropertyOp6
 70
     1
102
RTVSPropertyOp7
 70
     1
102
RTVSPropertyOp8
 70
     1
102
RTVSPropertyOp9
 70
     1
102
RTVSPropertyOp10
 70
     1
102
RTVSPropertyOp11
 70
     1
102
RTVSPropertyOp12
 70
     1
102
RTVSPropertyOp13
 70
     1
102
RTVSPropertyOp14
 70
     1
102
RTVSPropertyOp15
 70
     1
102
RTVSPropertyOp16
 70
     1
102
RTVSPropertyOp17
 70
     1
102
RTVSPropertyOp18
 70
     1
102
RTVSPropertyOp19
 70
     1
102
RTVSPropertyOp20
 70
     1
102
RTVSPropertyOp21
 70
     1
102
RTVSPropertyOp22
 70
     1
102
RTVSPropertyOp23
 70
     1
102
RTVSPropertyOp24
 70
     1
102
RTVSPropertyOp25
 70
     1
102
RTVSPropertyOp26
 70
     1
102
RTVSPropertyOp27
 70
     1
  0
XRECORD
  5
179C3
102
{ACAD_REACTORS
330
179C2
102
}
330
179C2
100
AcDbXrecord
280
     1
102
RTVSPropertyOp28
 70
     1
102
RTVSPropertyOp29
 70
     1
102
RTVSPropertyOp30
 70
     1
102
RTVSPropertyOp31
 70
     1
102
RTVSPropertyOp32
 70
     1
102
RTVSPropertyOp0
 70
     1
102
RTVSPropertyOp1
 70
     1
102
RTVSPropertyOp2
 70
     1
102
RTVSPropertyOp3
 70
     1
102
RTVSPropertyOp4
 70
     1
102
RTVSPropertyOp5
 70
     1
102
RTVSPropertyOp6
 70
     1
102
RTVSPropertyOp7
 70
     1
102
RTVSPropertyOp8
 70
     1
102
RTVSPropertyOp9
 70
     1
102
RTVSPropertyOp10
 70
     1
102
RTVSPropertyOp11
 70
     1
102
RTVSPropertyOp12
 70
     1
102
RTVSPropertyOp13
 70
     1
102
RTVSPropertyOp14
 70
     1
102
RTVSPropertyOp15
 70
     1
102
RTVSPropertyOp16
 70
     1
102
RTVSPropertyOp17
 70
     1
102
RTVSPropertyOp18
 70
     1
102
RTVSPropertyOp19
 70
     1
102
RTVSPropertyOp20
 70
     1
102
RTVSPropertyOp21
 70
     1
102
RTVSPropertyOp22
 70
     1
102
RTVSPropertyOp23
 70
     1
102
RTVSPropertyOp24
 70
     1
102
RTVSPropertyOp25
 70
     1
102
RTVSPropertyOp26
 70
     1
102
RTVSPropertyOp27
 70
     1
  0
XRECORD
  5
179B5
102
{ACAD_REACTORS
330
179B4
102
}
330
179B4
100
AcDbXrecord
280
     1
102
RTVSPropertyOp28
 70
     1
102
RTVSPropertyOp29
 70
     1
102
RTVSPropertyOp30
 70
     1
102
RTVSPropertyOp31
 70
     1
102
RTVSPropertyOp32
 70
     1
102
RTVSPropertyOp0
 70
     1
102
RTVSPropertyOp1
 70
     1
102
RTVSPropertyOp2
 70
     1
102
RTVSPropertyOp3
 70
     1
102
RTVSPropertyOp4
 70
     1
102
RTVSPropertyOp5
 70
     1
102
RTVSPropertyOp6
 70
     1
102
RTVSPropertyOp7
 70
     1
102
RTVSPropertyOp8
 70
     1
102
RTVSPropertyOp9
 70
     1
102
RTVSPropertyOp10
 70
     1
102
RTVSPropertyOp11
 70
     1
102
RTVSPropertyOp12
 70
     1
102
RTVSPropertyOp13
 70
     1
102
RTVSPropertyOp14
 70
     1
102
RTVSPropertyOp15
 70
     1
102
RTVSPropertyOp16
 70
     1
102
RTVSPropertyOp17
 70
     1
102
RTVSPropertyOp18
 70
     1
102
RTVSPropertyOp19
 70
     1
102
RTVSPropertyOp20
 70
     1
102
RTVSPropertyOp21
 70
     1
102
RTVSPropertyOp22
 70
     1
102
RTVSPropertyOp23
 70
     1
102
RTVSPropertyOp24
 70
     1
102
RTVSPropertyOp25
 70
     1
102
RTVSPropertyOp26
 70
     1
102
RTVSPropertyOp27
 70
     1
  0
XRECORD
  5
179B9
102
{ACAD_REACTORS
330
179B8
102
}
330
179B8
100
AcDbXrecord
280
     1
102
RTVSPropertyOp28
 70
     1
102
RTVSPropertyOp29
 70
     1
102
RTVSPropertyOp30
 70
     1
102
RTVSPropertyOp31
 70
     1
102
RTVSPropertyOp32
 70
     1
102
RTVSPropertyOp0
 70
     1
102
RTVSPropertyOp1
 70
     1
102
RTVSPropertyOp2
 70
     1
102
RTVSPropertyOp3
 70
     1
102
RTVSPropertyOp4
 70
     1
102
RTVSPropertyOp5
 70
     1
102
RTVSPropertyOp6
 70
     1
102
RTVSPropertyOp7
 70
     1
102
RTVSPropertyOp8
 70
     1
102
RTVSPropertyOp9
 70
     1
102
RTVSPropertyOp10
 70
     1
102
RTVSPropertyOp11
 70
     1
102
RTVSPropertyOp12
 70
     1
102
RTVSPropertyOp13
 70
     1
102
RTVSPropertyOp14
 70
     1
102
RTVSPropertyOp15
 70
     1
102
RTVSPropertyOp16
 70
     1
102
RTVSPropertyOp17
 70
     1
102
RTVSPropertyOp18
 70
     1
102
RTVSPropertyOp19
 70
     1
102
RTVSPropertyOp20
 70
     1
102
RTVSPropertyOp21
 70
     1
102
RTVSPropertyOp22
 70
     1
102
RTVSPropertyOp23
 70
     1
102
RTVSPropertyOp24
 70
     1
102
RTVSPropertyOp25
 70
     1
102
RTVSPropertyOp26
 70
     1
102
RTVSPropertyOp27
 70
     1
  0
XRECORD
  5
179C9
102
{ACAD_REACTORS
330
179C8
102
}
330
179C8
100
AcDbXrecord
280
     1
102
RTVSPropertyOp28
 70
     1
102
RTVSPropertyOp29
 70
     1
102
RTVSPropertyOp30
 70
     1
102
RTVSPropertyOp31
 70
     1
102
RTVSPropertyOp32
 70
     1
102
RTVSPropertyOp0
 70
     0
102
RTVSPropertyOp1
 70
     0
102
RTVSPropertyOp2
 70
     0
102
RTVSPropertyOp3
 70
     0
102
RTVSPropertyOp4
 70
     0
102
RTVSPropertyOp5
 70
     0
102
RTVSPropertyOp6
 70
     0
102
RTVSPropertyOp7
 70
     0
102
RTVSPropertyOp8
 70
     0
102
RTVSPropertyOp9
 70
     0
102
RTVSPropertyOp10
 70
     0
102
RTVSPropertyOp11
 70
     0
102
RTVSPropertyOp12
 70
     0
102
RTVSPropertyOp13
 70
     0
102
RTVSPropertyOp14
 70
     2
102
RTVSPropertyOp15
 70
     0
102
RTVSPropertyOp16
 70
     0
102
RTVSPropertyOp17
 70
     0
102
RTVSPropertyOp18
 70
     0
102
RTVSPropertyOp19
 70
     0
102
RTVSPropertyOp20
 70
     0
102
RTVSPropertyOp21
 70
     0
102
RTVSPropertyOp22
 70
     0
102
RTVSPropertyOp23
 70
     0
102
RTVSPropertyOp24
 70
     0
102
RTVSPropertyOp25
 70
     0
102
RTVSPropertyOp26
 70
     0
102
RTVSPropertyOp27
 70
     0
  0
XRECORD
  5
179C1
102
{ACAD_REACTORS
330
179C0
102
}
330
179C0
100
AcDbXrecord
280
     1
102
RTVSPropertyOp28
 70
     1
102
RTVSPropertyOp29
 70
     1
102
RTVSPropertyOp30
 70
     1
102
RTVSPropertyOp31
 70
     1
102
RTVSPropertyOp32
 70
     1
102
RTVSPropertyOp0
 70
     1
102
RTVSPropertyOp1
 70
     1
102
RTVSPropertyOp2
 70
     1
102
RTVSPropertyOp3
 70
     1
102
RTVSPropertyOp4
 70
     1
102
RTVSPropertyOp5
 70
     1
102
RTVSPropertyOp6
 70
     1
102
RTVSPropertyOp7
 70
     1
102
RTVSPropertyOp8
 70
     1
102
RTVSPropertyOp9
 70
     1
102
RTVSPropertyOp10
 70
     1
102
RTVSPropertyOp11
 70
     1
102
RTVSPropertyOp12
 70
     1
102
RTVSPropertyOp13
 70
     1
102
RTVSPropertyOp14
 70
     1
102
RTVSPropertyOp15
 70
     1
102
RTVSPropertyOp16
 70
     1
102
RTVSPropertyOp17
 70
     1
102
RTVSPropertyOp18
 70
     1
102
RTVSPropertyOp19
 70
     1
102
RTVSPropertyOp20
 70
     1
102
RTVSPropertyOp21
 70
     1
102
RTVSPropertyOp22
 70
     1
102
RTVSPropertyOp23
 70
     1
102
RTVSPropertyOp24
 70
     1
102
RTVSPropertyOp25
 70
     1
102
RTVSPropertyOp26
 70
     1
102
RTVSPropertyOp27
 70
     1
  0
XRECORD
  5
179A5
102
{ACAD_REACTORS
330
179A4
102
}
330
179A4
100
AcDbXrecord
280
     1
102
RTVSPropertyOp28
 70
     1
102
RTVSPropertyOp29
 70
     1
102
RTVSPropertyOp30
 70
     1
102
RTVSPropertyOp31
 70
     1
102
RTVSPropertyOp32
 70
     1
102
RTVSPropertyOp0
 70
     1
102
RTVSPropertyOp1
 70
     1
102
RTVSPropertyOp2
 70
     1
102
RTVSPropertyOp3
 70
     1
102
RTVSPropertyOp4
 70
     1
102
RTVSPropertyOp5
 70
     1
102
RTVSPropertyOp6
 70
     1
102
RTVSPropertyOp7
 70
     1
102
RTVSPropertyOp8
 70
     1
102
RTVSPropertyOp9
 70
     1
102
RTVSPropertyOp10
 70
     1
102
RTVSPropertyOp11
 70
     1
102
RTVSPropertyOp12
 70
     1
102
RTVSPropertyOp13
 70
     1
102
RTVSPropertyOp14
 70
     1
102
RTVSPropertyOp15
 70
     1
102
RTVSPropertyOp16
 70
     1
102
RTVSPropertyOp17
 70
     1
102
RTVSPropertyOp18
 70
     1
102
RTVSPropertyOp19
 70
     1
102
RTVSPropertyOp20
 70
     1
102
RTVSPropertyOp21
 70
     1
102
RTVSPropertyOp22
 70
     1
102
RTVSPropertyOp23
 70
     1
102
RTVSPropertyOp24
 70
     1
102
RTVSPropertyOp25
 70
     1
102
RTVSPropertyOp26
 70
     1
102
RTVSPropertyOp27
 70
     1
  0
XRECORD
  5
179A7
102
{ACAD_REACTORS
330
179A6
102
}
330
179A6
100
AcDbXrecord
280
     1
102
RTVSPropertyOp28
 70
     1
102
RTVSPropertyOp29
 70
     1
102
RTVSPropertyOp30
 70
     1
102
RTVSPropertyOp31
 70
     1
102
RTVSPropertyOp32
 70
     1
102
RTVSPropertyOp0
 70
     1
102
RTVSPropertyOp1
 70
     1
102
RTVSPropertyOp2
 70
     1
102
RTVSPropertyOp3
 70
     1
102
RTVSPropertyOp4
 70
     1
102
RTVSPropertyOp5
 70
     1
102
RTVSPropertyOp6
 70
     1
102
RTVSPropertyOp7
 70
     1
102
RTVSPropertyOp8
 70
     1
102
RTVSPropertyOp9
 70
     1
102
RTVSPropertyOp10
 70
     1
102
RTVSPropertyOp11
 70
     1
102
RTVSPropertyOp12
 70
     1
102
RTVSPropertyOp13
 70
     1
102
RTVSPropertyOp14
 70
     1
102
RTVSPropertyOp15
 70
     1
102
RTVSPropertyOp16
 70
     1
102
RTVSPropertyOp17
 70
     1
102
RTVSPropertyOp18
 70
     1
102
RTVSPropertyOp19
 70
     1
102
RTVSPropertyOp20
 70
     1
102
RTVSPropertyOp21
 70
     1
102
RTVSPropertyOp22
 70
     1
102
RTVSPropertyOp23
 70
     1
102
RTVSPropertyOp24
 70
     1
102
RTVSPropertyOp25
 70
     1
102
RTVSPropertyOp26
 70
     1
102
RTVSPropertyOp27
 70
     1
  0
XRECORD
  5
179A9
102
{ACAD_REACTORS
330
179A8
102
}
330
179A8
100
AcDbXrecord
280
     1
102
RTVSPropertyOp28
 70
     1
102
RTVSPropertyOp29
 70
     1
102
RTVSPropertyOp30
 70
     1
102
RTVSPropertyOp31
 70
     1
102
RTVSPropertyOp32
 70
     1
102
RTVSPropertyOp0
 70
     1
102
RTVSPropertyOp1
 70
     1
102
RTVSPropertyOp2
 70
     1
102
RTVSPropertyOp3
 70
     1
102
RTVSPropertyOp4
 70
     1
102
RTVSPropertyOp5
 70
     1
102
RTVSPropertyOp6
 70
     1
102
RTVSPropertyOp7
 70
     1
102
RTVSPropertyOp8
 70
     1
102
RTVSPropertyOp9
 70
     1
102
RTVSPropertyOp10
 70
     1
102
RTVSPropertyOp11
 70
     1
102
RTVSPropertyOp12
 70
     1
102
RTVSPropertyOp13
 70
     1
102
RTVSPropertyOp14
 70
     1
102
RTVSPropertyOp15
 70
     1
102
RTVSPropertyOp16
 70
     1
102
RTVSPropertyOp17
 70
     1
102
RTVSPropertyOp18
 70
     1
102
RTVSPropertyOp19
 70
     1
102
RTVSPropertyOp20
 70
     1
102
RTVSPropertyOp21
 70
     1
102
RTVSPropertyOp22
 70
     1
102
RTVSPropertyOp23
 70
     1
102
RTVSPropertyOp24
 70
     1
102
RTVSPropertyOp25
 70
     1
102
RTVSPropertyOp26
 70
     1
102
RTVSPropertyOp27
 70
     1
  0
XRECORD
  5
179AB
102
{ACAD_REACTORS
330
179AA
102
}
330
179AA
100
AcDbXrecord
280
     1
102
RTVSPropertyOp28
 70
     1
102
RTVSPropertyOp29
 70
     1
102
RTVSPropertyOp30
 70
     1
102
RTVSPropertyOp31
 70
     1
102
RTVSPropertyOp32
 70
     1
102
RTVSPropertyOp0
 70
     1
102
RTVSPropertyOp1
 70
     1
102
RTVSPropertyOp2
 70
     1
102
RTVSPropertyOp3
 70
     1
102
RTVSPropertyOp4
 70
     1
102
RTVSPropertyOp5
 70
     1
102
RTVSPropertyOp6
 70
     1
102
RTVSPropertyOp7
 70
     1
102
RTVSPropertyOp8
 70
     1
102
RTVSPropertyOp9
 70
     1
102
RTVSPropertyOp10
 70
     1
102
RTVSPropertyOp11
 70
     1
102
RTVSPropertyOp12
 70
     1
102
RTVSPropertyOp13
 70
     1
102
RTVSPropertyOp14
 70
     1
102
RTVSPropertyOp15
 70
     1
102
RTVSPropertyOp16
 70
     1
102
RTVSPropertyOp17
 70
     1
102
RTVSPropertyOp18
 70
     1
102
RTVSPropertyOp19
 70
     1
102
RTVSPropertyOp20
 70
     1
102
RTVSPropertyOp21
 70
     1
102
RTVSPropertyOp22
 70
     1
102
RTVSPropertyOp23
 70
     1
102
RTVSPropertyOp24
 70
     1
102
RTVSPropertyOp25
 70
     1
102
RTVSPropertyOp26
 70
     1
102
RTVSPropertyOp27
 70
     1
  0
XRECORD
  5
179CD
102
{ACAD_REACTORS
330
179CC
102
}
330
179CC
100
AcDbXrecord
280
     1
102
RTVSPropertyOp28
 70
     1
102
RTVSPropertyOp29
 70
     1
102
RTVSPropertyOp30
 70
     1
102
RTVSPropertyOp31
 70
     1
102
RTVSPropertyOp32
 70
     1
102
RTVSPropertyOp0
 70
     1
102
RTVSPropertyOp1
 70
     1
102
RTVSPropertyOp2
 70
     1
102
RTVSPropertyOp3
 70
     1
102
RTVSPropertyOp4
 70
     1
102
RTVSPropertyOp5
 70
     1
102
RTVSPropertyOp6
 70
     1
102
RTVSPropertyOp7
 70
     1
102
RTVSPropertyOp8
 70
     1
102
RTVSPropertyOp9
 70
     1
102
RTVSPropertyOp10
 70
     1
102
RTVSPropertyOp11
 70
     1
102
RTVSPropertyOp12
 70
     1
102
RTVSPropertyOp13
 70
     1
102
RTVSPropertyOp14
 70
     1
102
RTVSPropertyOp15
 70
     1
102
RTVSPropertyOp16
 70
     1
102
RTVSPropertyOp17
 70
     1
102
RTVSPropertyOp18
 70
     1
102
RTVSPropertyOp19
 70
     1
102
RTVSPropertyOp20
 70
     1
102
RTVSPropertyOp21
 70
     1
102
RTVSPropertyOp22
 70
     1
102
RTVSPropertyOp23
 70
     1
102
RTVSPropertyOp24
 70
     1
102
RTVSPropertyOp25
 70
     1
102
RTVSPropertyOp26
 70
     1
102
RTVSPropertyOp27
 70
     1
  0
XRECORD
  5
179C5
102
{ACAD_REACTORS
330
179C4
102
}
330
179C4
100
AcDbXrecord
280
     1
102
RTVSPropertyOp28
 70
     1
102
RTVSPropertyOp29
 70
     1
102
RTVSPropertyOp30
 70
     1
102
RTVSPropertyOp31
 70
     1
102
RTVSPropertyOp32
 70
     1
102
RTVSPropertyOp0
 70
     0
102
RTVSPropertyOp1
 70
     0
102
RTVSPropertyOp2
 70
     0
102
RTVSPropertyOp3
 70
     0
102
RTVSPropertyOp4
 70
     0
102
RTVSPropertyOp5
 70
     0
102
RTVSPropertyOp6
 70
     0
102
RTVSPropertyOp7
 70
     0
102
RTVSPropertyOp8
 70
     0
102
RTVSPropertyOp9
 70
     0
102
RTVSPropertyOp10
 70
     0
102
RTVSPropertyOp11
 70
     0
102
RTVSPropertyOp12
 70
     0
102
RTVSPropertyOp13
 70
     0
102
RTVSPropertyOp14
 70
     2
102
RTVSPropertyOp15
 70
     0
102
RTVSPropertyOp16
 70
     0
102
RTVSPropertyOp17
 70
     0
102
RTVSPropertyOp18
 70
     0
102
RTVSPropertyOp19
 70
     0
102
RTVSPropertyOp20
 70
     0
102
RTVSPropertyOp21
 70
     0
102
RTVSPropertyOp22
 70
     0
102
RTVSPropertyOp23
 70
     0
102
RTVSPropertyOp24
 70
     0
102
RTVSPropertyOp25
 70
     0
102
RTVSPropertyOp26
 70
     0
102
RTVSPropertyOp27
 70
     0
  0
XRECORD
  5
179BF
102
{ACAD_REACTORS
330
179BE
102
}
330
179BE
100
AcDbXrecord
280
     1
102
RTVSPropertyOp28
 70
     1
102
RTVSPropertyOp29
 70
     1
102
RTVSPropertyOp30
 70
     1
102
RTVSPropertyOp31
 70
     1
102
RTVSPropertyOp32
 70
     1
102
RTVSPropertyOp0
 70
     1
102
RTVSPropertyOp1
 70
     1
102
RTVSPropertyOp2
 70
     1
102
RTVSPropertyOp3
 70
     1
102
RTVSPropertyOp4
 70
     1
102
RTVSPropertyOp5
 70
     1
102
RTVSPropertyOp6
 70
     1
102
RTVSPropertyOp7
 70
     1
102
RTVSPropertyOp8
 70
     1
102
RTVSPropertyOp9
 70
     1
102
RTVSPropertyOp10
 70
     1
102
RTVSPropertyOp11
 70
     1
102
RTVSPropertyOp12
 70
     1
102
RTVSPropertyOp13
 70
     1
102
RTVSPropertyOp14
 70
     1
102
RTVSPropertyOp15
 70
     1
102
RTVSPropertyOp16
 70
     1
102
RTVSPropertyOp17
 70
     1
102
RTVSPropertyOp18
 70
     1
102
RTVSPropertyOp19
 70
     1
102
RTVSPropertyOp20
 70
     1
102
RTVSPropertyOp21
 70
     1
102
RTVSPropertyOp22
 70
     1
102
RTVSPropertyOp23
 70
     1
102
RTVSPropertyOp24
 70
     1
102
RTVSPropertyOp25
 70
     1
102
RTVSPropertyOp26
 70
     1
102
RTVSPropertyOp27
 70
     1
  0
XRECORD
  5
179C7
102
{ACAD_REACTORS
330
179C6
102
}
330
179C6
100
AcDbXrecord
280
     1
102
RTVSPropertyOp28
 70
     1
102
RTVSPropertyOp29
 70
     1
102
RTVSPropertyOp30
 70
     1
102
RTVSPropertyOp31
 70
     1
102
RTVSPropertyOp32
 70
     1
102
RTVSPropertyOp0
 70
     0
102
RTVSPropertyOp1
 70
     0
102
RTVSPropertyOp2
 70
     0
102
RTVSPropertyOp3
 70
     0
102
RTVSPropertyOp4
 70
     0
102
RTVSPropertyOp5
 70
     0
102
RTVSPropertyOp6
 70
     0
102
RTVSPropertyOp7
 70
     0
102
RTVSPropertyOp8
 70
     0
102
RTVSPropertyOp9
 70
     0
102
RTVSPropertyOp10
 70
     0
102
RTVSPropertyOp11
 70
     0
102
RTVSPropertyOp12
 70
     0
102
RTVSPropertyOp13
 70
     0
102
RTVSPropertyOp14
 70
     2
102
RTVSPropertyOp15
 70
     0
102
RTVSPropertyOp16
 70
     0
102
RTVSPropertyOp17
 70
     0
102
RTVSPropertyOp18
 70
     0
102
RTVSPropertyOp19
 70
     0
102
RTVSPropertyOp20
 70
     0
102
RTVSPropertyOp21
 70
     0
102
RTVSPropertyOp22
 70
     0
102
RTVSPropertyOp23
 70
     0
102
RTVSPropertyOp24
 70
     0
102
RTVSPropertyOp25
 70
     0
102
RTVSPropertyOp26
 70
     0
102
RTVSPropertyOp27
 70
     0
  0
XRECORD
  5
179B7
102
{ACAD_REACTORS
330
179B6
102
}
330
179B6
100
AcDbXrecord
280
     1
102
RTVSPropertyOp28
 70
     1
102
RTVSPropertyOp29
 70
     1
102
RTVSPropertyOp30
 70
     1
102
RTVSPropertyOp31
 70
     1
102
RTVSPropertyOp32
 70
     1
102
RTVSPropertyOp0
 70
     1
102
RTVSPropertyOp1
 70
     1
102
RTVSPropertyOp2
 70
     1
102
RTVSPropertyOp3
 70
     1
102
RTVSPropertyOp4
 70
     1
102
RTVSPropertyOp5
 70
     1
102
RTVSPropertyOp6
 70
     1
102
RTVSPropertyOp7
 70
     1
102
RTVSPropertyOp8
 70
     1
102
RTVSPropertyOp9
 70
     1
102
RTVSPropertyOp10
 70
     1
102
RTVSPropertyOp11
 70
     1
102
RTVSPropertyOp12
 70
     1
102
RTVSPropertyOp13
 70
     1
102
RTVSPropertyOp14
 70
     1
102
RTVSPropertyOp15
 70
     1
102
RTVSPropertyOp16
 70
     1
102
RTVSPropertyOp17
 70
     1
102
RTVSPropertyOp18
 70
     1
102
RTVSPropertyOp19
 70
     1
102
RTVSPropertyOp20
 70
     1
102
RTVSPropertyOp21
 70
     1
102
RTVSPropertyOp22
 70
     1
102
RTVSPropertyOp23
 70
     1
102
RTVSPropertyOp24
 70
     1
102
RTVSPropertyOp25
 70
     1
102
RTVSPropertyOp26
 70
     1
102
RTVSPropertyOp27
 70
     1
  0
XRECORD
  5
179D7
102
{ACAD_REACTORS
330
179D6
102
}
330
179D6
100
AcDbXrecord
280
     1
102
RTVSPropertyOp28
 70
     1
102
RTVSPropertyOp29
 70
     1
102
RTVSPropertyOp30
 70
     1
102
RTVSPropertyOp31
 70
     1
102
RTVSPropertyOp32
 70
     1
102
RTVSPropertyOp0
 70
     1
102
RTVSPropertyOp1
 70
     1
102
RTVSPropertyOp2
 70
     1
102
RTVSPropertyOp3
 70
     1
102
RTVSPropertyOp4
 70
     1
102
RTVSPropertyOp5
 70
     1
102
RTVSPropertyOp6
 70
     1
102
RTVSPropertyOp7
 70
     1
102
RTVSPropertyOp8
 70
     1
102
RTVSPropertyOp9
 70
     1
102
RTVSPropertyOp10
 70
     1
102
RTVSPropertyOp11
 70
     1
102
RTVSPropertyOp12
 70
     1
102
RTVSPropertyOp13
 70
     1
102
RTVSPropertyOp14
 70
     1
102
RTVSPropertyOp15
 70
     1
102
RTVSPropertyOp16
 70
     1
102
RTVSPropertyOp17
 70
     1
102
RTVSPropertyOp18
 70
     1
102
RTVSPropertyOp19
 70
     1
102
RTVSPropertyOp20
 70
     1
102
RTVSPropertyOp21
 70
     1
102
RTVSPropertyOp22
 70
     1
102
RTVSPropertyOp23
 70
     1
102
RTVSPropertyOp24
 70
     1
102
RTVSPropertyOp25
 70
     1
102
RTVSPropertyOp26
 70
     1
102
RTVSPropertyOp27
 70
     1
  0
XRECORD
  5
179D5
102
{ACAD_REACTORS
330
179D4
102
}
330
179D4
100
AcDbXrecord
280
     1
102
RTVSPropertyOp28
 70
     1
102
RTVSPropertyOp29
 70
     1
102
RTVSPropertyOp30
 70
     1
102
RTVSPropertyOp31
 70
     1
102
RTVSPropertyOp32
 70
     1
102
RTVSPropertyOp0
 70
     1
102
RTVSPropertyOp1
 70
     1
102
RTVSPropertyOp2
 70
     1
102
RTVSPropertyOp3
 70
     1
102
RTVSPropertyOp4
 70
     1
102
RTVSPropertyOp5
 70
     1
102
RTVSPropertyOp6
 70
     1
102
RTVSPropertyOp7
 70
     1
102
RTVSPropertyOp8
 70
     1
102
RTVSPropertyOp9
 70
     1
102
RTVSPropertyOp10
 70
     1
102
RTVSPropertyOp11
 70
     1
102
RTVSPropertyOp12
 70
     1
102
RTVSPropertyOp13
 70
     1
102
RTVSPropertyOp14
 70
     1
102
RTVSPropertyOp15
 70
     1
102
RTVSPropertyOp16
 70
     1
102
RTVSPropertyOp17
 70
     1
102
RTVSPropertyOp18
 70
     1
102
RTVSPropertyOp19
 70
     1
102
RTVSPropertyOp20
 70
     1
102
RTVSPropertyOp21
 70
     1
102
RTVSPropertyOp22
 70
     1
102
RTVSPropertyOp23
 70
     1
102
RTVSPropertyOp24
 70
     1
102
RTVSPropertyOp25
 70
     1
102
RTVSPropertyOp26
 70
     1
102
RTVSPropertyOp27
 70
     1
  0
XRECORD
  5
179CF
102
{ACAD_REACTORS
330
179CE
102
}
330
179CE
100
AcDbXrecord
280
     1
102
RTVSPropertyOp28
 70
     1
102
RTVSPropertyOp29
 70
     1
102
RTVSPropertyOp30
 70
     1
102
RTVSPropertyOp31
 70
     1
102
RTVSPropertyOp32
 70
     1
102
RTVSPropertyOp0
 70
     1
102
RTVSPropertyOp1
 70
     1
102
RTVSPropertyOp2
 70
     1
102
RTVSPropertyOp3
 70
     1
102
RTVSPropertyOp4
 70
     1
102
RTVSPropertyOp5
 70
     1
102
RTVSPropertyOp6
 70
     1
102
RTVSPropertyOp7
 70
     1
102
RTVSPropertyOp8
 70
     1
102
RTVSPropertyOp9
 70
     1
102
RTVSPropertyOp10
 70
     1
102
RTVSPropertyOp11
 70
     1
102
RTVSPropertyOp12
 70
     1
102
RTVSPropertyOp13
 70
     1
102
RTVSPropertyOp14
 70
     1
102
RTVSPropertyOp15
 70
     1
102
RTVSPropertyOp16
 70
     1
102
RTVSPropertyOp17
 70
     1
102
RTVSPropertyOp18
 70
     1
102
RTVSPropertyOp19
 70
     1
102
RTVSPropertyOp20
 70
     1
102
RTVSPropertyOp21
 70
     1
102
RTVSPropertyOp22
 70
     1
102
RTVSPropertyOp23
 70
     1
102
RTVSPropertyOp24
 70
     1
102
RTVSPropertyOp25
 70
     1
102
RTVSPropertyOp26
 70
     1
102
RTVSPropertyOp27
 70
     1
  0
XRECORD
  5
179D1
102
{ACAD_REACTORS
330
179D0
102
}
330
179D0
100
AcDbXrecord
280
     1
102
RTVSPropertyOp28
 70
     1
102
RTVSPropertyOp29
 70
     1
102
RTVSPropertyOp30
 70
     1
102
RTVSPropertyOp31
 70
     1
102
RTVSPropertyOp32
 70
     1
102
RTVSPropertyOp0
 70
     1
102
RTVSPropertyOp1
 70
     1
102
RTVSPropertyOp2
 70
     1
102
RTVSPropertyOp3
 70
     1
102
RTVSPropertyOp4
 70
     1
102
RTVSPropertyOp5
 70
     1
102
RTVSPropertyOp6
 70
     1
102
RTVSPropertyOp7
 70
     1
102
RTVSPropertyOp8
 70
     1
102
RTVSPropertyOp9
 70
     1
102
RTVSPropertyOp10
 70
     1
102
RTVSPropertyOp11
 70
     1
102
RTVSPropertyOp12
 70
     1
102
RTVSPropertyOp13
 70
     1
102
RTVSPropertyOp14
 70
     1
102
RTVSPropertyOp15
 70
     1
102
RTVSPropertyOp16
 70
     1
102
RTVSPropertyOp17
 70
     1
102
RTVSPropertyOp18
 70
     1
102
RTVSPropertyOp19
 70
     1
102
RTVSPropertyOp20
 70
     1
102
RTVSPropertyOp21
 70
     1
102
RTVSPropertyOp22
 70
     1
102
RTVSPropertyOp23
 70
     1
102
RTVSPropertyOp24
 70
     1
102
RTVSPropertyOp25
 70
     1
102
RTVSPropertyOp26
 70
     1
102
RTVSPropertyOp27
 70
     1
  0
XRECORD
  5
179BD
102
{ACAD_REACTORS
330
179BC
102
}
330
179BC
100
AcDbXrecord
280
     1
102
RTVSPropertyOp28
 70
     1
102
RTVSPropertyOp29
 70
     1
102
RTVSPropertyOp30
 70
     1
102
RTVSPropertyOp31
 70
     1
102
RTVSPropertyOp32
 70
     1
102
RTVSPropertyOp0
 70
     1
102
RTVSPropertyOp1
 70
     1
102
RTVSPropertyOp2
 70
     1
102
RTVSPropertyOp3
 70
     1
102
RTVSPropertyOp4
 70
     1
102
RTVSPropertyOp5
 70
     1
102
RTVSPropertyOp6
 70
     1
102
RTVSPropertyOp7
 70
     1
102
RTVSPropertyOp8
 70
     1
102
RTVSPropertyOp9
 70
     1
102
RTVSPropertyOp10
 70
     1
102
RTVSPropertyOp11
 70
     1
102
RTVSPropertyOp12
 70
     1
102
RTVSPropertyOp13
 70
     1
102
RTVSPropertyOp14
 70
     1
102
RTVSPropertyOp15
 70
     1
102
RTVSPropertyOp16
 70
     1
102
RTVSPropertyOp17
 70
     1
102
RTVSPropertyOp18
 70
     1
102
RTVSPropertyOp19
 70
     1
102
RTVSPropertyOp20
 70
     1
102
RTVSPropertyOp21
 70
     1
102
RTVSPropertyOp22
 70
     1
102
RTVSPropertyOp23
 70
     1
102
RTVSPropertyOp24
 70
     1
102
RTVSPropertyOp25
 70
     1
102
RTVSPropertyOp26
 70
     1
102
RTVSPropertyOp27
 70
     1
  0
XRECORD
  5
179CB
102
{ACAD_REACTORS
330
179CA
102
}
330
179CA
100
AcDbXrecord
280
     1
102
RTVSPropertyOp28
 70
     1
102
RTVSPropertyOp29
 70
     1
102
RTVSPropertyOp30
 70
     1
102
RTVSPropertyOp31
 70
     1
102
RTVSPropertyOp32
 70
     1
102
RTVSPropertyOp0
 70
     1
102
RTVSPropertyOp1
 70
     1
102
RTVSPropertyOp2
 70
     1
102
RTVSPropertyOp3
 70
     1
102
RTVSPropertyOp4
 70
     1
102
RTVSPropertyOp5
 70
     1
102
RTVSPropertyOp6
 70
     1
102
RTVSPropertyOp7
 70
     1
102
RTVSPropertyOp8
 70
     1
102
RTVSPropertyOp9
 70
     1
102
RTVSPropertyOp10
 70
     1
102
RTVSPropertyOp11
 70
     1
102
RTVSPropertyOp12
 70
     1
102
RTVSPropertyOp13
 70
     1
102
RTVSPropertyOp14
 70
     1
102
RTVSPropertyOp15
 70
     1
102
RTVSPropertyOp16
 70
     1
102
RTVSPropertyOp17
 70
     1
102
RTVSPropertyOp18
 70
     1
102
RTVSPropertyOp19
 70
     1
102
RTVSPropertyOp20
 70
     1
102
RTVSPropertyOp21
 70
     1
102
RTVSPropertyOp22
 70
     1
102
RTVSPropertyOp23
 70
     1
102
RTVSPropertyOp24
 70
     1
102
RTVSPropertyOp25
 70
     1
102
RTVSPropertyOp26
 70
     1
102
RTVSPropertyOp27
 70
     1
  0
XRECORD
  5
179D3
102
{ACAD_REACTORS
330
179D2
102
}
330
179D2
100
AcDbXrecord
280
     1
102
RTVSPropertyOp28
 70
     1
102
RTVSPropertyOp29
 70
     1
102
RTVSPropertyOp30
 70
     1
102
RTVSPropertyOp31
 70
     1
102
RTVSPropertyOp32
 70
     1
102
RTVSPropertyOp0
 70
     1
102
RTVSPropertyOp1
 70
     1
102
RTVSPropertyOp2
 70
     1
102
RTVSPropertyOp3
 70
     1
102
RTVSPropertyOp4
 70
     1
102
RTVSPropertyOp5
 70
     1
102
RTVSPropertyOp6
 70
     1
102
RTVSPropertyOp7
 70
     1
102
RTVSPropertyOp8
 70
     1
102
RTVSPropertyOp9
 70
     1
102
RTVSPropertyOp10
 70
     1
102
RTVSPropertyOp11
 70
     1
102
RTVSPropertyOp12
 70
     1
102
RTVSPropertyOp13
 70
     1
102
RTVSPropertyOp14
 70
     1
102
RTVSPropertyOp15
 70
     1
102
RTVSPropertyOp16
 70
     1
102
RTVSPropertyOp17
 70
     1
102
RTVSPropertyOp18
 70
     1
102
RTVSPropertyOp19
 70
     1
102
RTVSPropertyOp20
 70
     1
102
RTVSPropertyOp21
 70
     1
102
RTVSPropertyOp22
 70
     1
102
RTVSPropertyOp23
 70
     1
102
RTVSPropertyOp24
 70
     1
102
RTVSPropertyOp25
 70
     1
102
RTVSPropertyOp26
 70
     1
102
RTVSPropertyOp27
 70
     1
  0
XRECORD
  5
17415
102
{ACAD_REACTORS
330
17414
102
}
330
17414
100
AcDbXrecord
280
     1
330
D07C
  0
ENDSEC
  0
EOF
