  0
SECTION
  2
HEADER
  9
$ACADVER
  1
AC1012
  9
$DWGCODEPAGE
  3
ansi_932
  9
$INSBASE
 10
0.0
 20
0.0
 30
0.0
  9
$EXTMIN
 10
-266.9573317215314
 20
-259.7199091693898
 30
0.0
  9
$EXTMAX
 10
86.55812725731506
 20
60.26261580117725
 30
0.0
  9
$LIMMIN
 10
0.0
 20
0.0
  9
$LIMMAX
 10
420.0
 20
297.0
  9
$ORTHOMODE
 70
     0
  9
$REGENMODE
 70
     1
  9
$FILLMODE
 70
     1
  9
$QTEXTMODE
 70
     0
  9
$MIRRTEXT
 70
     0
  9
$DRAGMODE
 70
     2
  9
$LTSCALE
 40
0.5
  9
$OSMODE
 70
 16383
  9
$ATTMODE
 70
     1
  9
$TEXTSIZE
 40
4.0
  9
$TRACEWID
 40
1.0
  9
$TEXTSTYLE
  7
STANDARD
  9
$CLAYER
  8
1TEXT
  9
$CELTYPE
  6
BYLAYER
  9
$CECOLOR
 62
   256
  9
$CELTSCALE
 40
1.0
  9
$DELOBJ
 70
     1
  9
$DISPSILH
 70
     0
  9
$DIMSCALE
 40
1.0
  9
$DIMASZ
 40
2.0
  9
$DIMEXO
 40
0.0
  9
$DIMDLI
 40
7.0
  9
$DIMRND
 40
0.0
  9
$DIMDLE
 40
0.0
  9
$DIMEXE
 40
1.0
  9
$DIMTP
 40
0.0
  9
$DIMTM
 40
0.0
  9
$DIMTXT
 40
3.5
  9
$DIMCEN
 40
0.0
  9
$DIMTSZ
 40
0.0
  9
$DIMTOL
 70
     0
  9
$DIMLIM
 70
     0
  9
$DIMTIH
 70
     0
  9
$DIMTOH
 70
     0
  9
$DIMSE1
 70
     0
  9
$DIMSE2
 70
     0
  9
$DIMTAD
 70
     1
  9
$DIMZIN
 70
     8
  9
$DIMBLK
  1

  9
$DIMASO
 70
     1
  9
$DIMSHO
 70
     1
  9
$DIMPOST
  1
 
  9
$DIMAPOST
  1

  9
$DIMALT
 70
     0
  9
$DIMALTD
 70
     2
  9
$DIMALTF
 40
25.4
  9
$DIMLFAC
 40
1.0
  9
$DIMTOFL
 70
     1
  9
$DIMTVP
 40
0.0
  9
$DIMTIX
 70
     0
  9
$DIMSOXD
 70
     0
  9
$DIMSAH
 70
     1
  9
$DIMBLK1
  1
OPEN30
  9
$DIMBLK2
  1
OPEN30
  9
$DIMSTYLE
  2
NEWX10
  9
$DIMCLRD
 70
   256
  9
$DIMCLRE
 70
   256
  9
$DIMCLRT
 70
   201
  9
$DIMTFAC
 40
0.7
  9
$DIMGAP
 40
0.7
  9
$DIMJUST
 70
     0
  9
$DIMSD1
 70
     0
  9
$DIMSD2
 70
     0
  9
$DIMTOLJ
 70
     1
  9
$DIMTZIN
 70
     8
  9
$DIMALTZ
 70
     0
  9
$DIMALTTZ
 70
     0
  9
$DIMFIT
 70
     3
  9
$DIMUPT
 70
     0
  9
$DIMUNIT
 70
     2
  9
$DIMDEC
 70
     2
  9
$DIMTDEC
 70
     4
  9
$DIMALTU
 70
     2
  9
$DIMALTTD
 70
     2
  9
$DIMTXSTY
  7
STANDARD
  9
$DIMAUNIT
 70
     0
  9
$LUNITS
 70
     2
  9
$LUPREC
 70
     4
  9
$SKETCHINC
 40
1.0
  9
$FILLETRAD
 40
0.0
  9
$AUNITS
 70
     0
  9
$AUPREC
 70
     2
  9
$MENU
  1
acad
  9
$ELEVATION
 40
0.0
  9
$PELEVATION
 40
0.0
  9
$THICKNESS
 40
0.0
  9
$LIMCHECK
 70
     0
  9
$CHAMFERA
 40
10.0
  9
$CHAMFERB
 40
10.0
  9
$CHAMFERC
 40
20.0
  9
$CHAMFERD
 40
0.0
  9
$SKPOLY
 70
     0
  9
$TDCREATE
 40
2451318.621352917
  9
$TDUPDATE
 40
2458551.697861146
  9
$TDINDWG
 40
1.1572596528
  9
$TDUSRTIMER
 40
1.1572596528
  9
$USRTIMER
 70
     1
  9
$ANGBASE
 50
0.0
  9
$ANGDIR
 70
     0
  9
$PDMODE
 70
     0
  9
$PDSIZE
 40
0.0
  9
$PLINEWID
 40
0.0
  9
$COORDS
 70
     2
  9
$SPLFRAME
 70
     0
  9
$SPLINETYPE
 70
     6
  9
$SPLINESEGS
 70
     8
  9
$ATTDIA
 70
     0
  9
$ATTREQ
 70
     1
  9
$HANDLING
 70
     1
  9
$HANDSEED
  5
163B6
  9
$SURFTAB1
 70
     6
  9
$SURFTAB2
 70
     6
  9
$SURFTYPE
 70
     6
  9
$SURFU
 70
     6
  9
$SURFV
 70
     6
  9
$UCSNAME
  2

  9
$UCSORG
 10
0.0
 20
0.0
 30
0.0
  9
$UCSXDIR
 10
1.0
 20
0.0
 30
0.0
  9
$UCSYDIR
 10
0.0
 20
1.0
 30
0.0
  9
$PUCSNAME
  2

  9
$PUCSORG
 10
0.0
 20
0.0
 30
0.0
  9
$PUCSXDIR
 10
1.0
 20
0.0
 30
0.0
  9
$PUCSYDIR
 10
0.0
 20
1.0
 30
0.0
  9
$USERI1
 70
     0
  9
$USERI2
 70
     0
  9
$USERI3
 70
     0
  9
$USERI4
 70
     0
  9
$USERI5
 70
     0
  9
$USERR1
 40
0.0
  9
$USERR2
 40
0.0
  9
$USERR3
 40
0.0
  9
$USERR4
 40
0.0
  9
$USERR5
 40
0.0
  9
$WORLDVIEW
 70
     1
  9
$SHADEDGE
 70
     3
  9
$SHADEDIF
 70
    70
  9
$TILEMODE
 70
     1
  9
$MAXACTVP
 70
    48
  9
$PINSBASE
 10
0.0
 20
0.0
 30
0.0
  9
$PLIMCHECK
 70
     0
  9
$PEXTMIN
 10
1.000000000000000E+20
 20
1.000000000000000E+20
 30
1.000000000000000E+20
  9
$PEXTMAX
 10
-1.000000000000000E+20
 20
-1.000000000000000E+20
 30
-1.000000000000000E+20
  9
$PLIMMIN
 10
0.0
 20
0.0
  9
$PLIMMAX
 10
420.0
 20
297.0
  9
$UNITMODE
 70
     0
  9
$VISRETAIN
 70
     1
  9
$PLINEGEN
 70
     0
  9
$PSLTSCALE
 70
     1
  9
$TREEDEPTH
 70
  3020
  9
$PICKSTYLE
 70
     1
  9
$CMLSTYLE
  2
STANDARD
  9
$CMLJUST
 70
     0
  9
$CMLSCALE
 40
20.0
  9
$SAVEIMAGES
 70
     1
  0
ENDSEC
  0
SECTION
  2
CLASSES
  0
CLASS
  1
DICTIONARYVAR
  2
AcDbDictionaryVar
  3
ObjectDBX Classes
 90
        0
280
     0
281
     0
  0
CLASS
  1
IDBUFFER
  2
AcDbIdBuffer
  3
ObjectDBX Classes
 90
    32768
280
     0
281
     0
  0
CLASS
  1
LWPOLYLINE
  2
AcDbPolyline
  3
ObjectDBX Classes
 90
    32768
280
     0
281
     1
  0
CLASS
  1
ACDBDICTIONARYWDFLT
  2
AcDbDictionaryWithDefault
  3
ObjectDBX Classes
 90
    32768
280
     0
281
     0
  0
CLASS
  1
ACDBPLACEHOLDER
  2
AcDbPlaceHolder
  3
ObjectDBX Classes
 90
        0
280
     0
281
     0
  0
CLASS
  1
LAYOUT
  2
AcDbLayout
  3
ObjectDBX Classes
 90
        0
280
     0
281
     0
  0
CLASS
  1
TABLESTYLE
  2
AcDbTableStyle
  3
ObjectDBX Classes
 90
     4095
280
     0
281
     0
  0
CLASS
  1
SORTENTSTABLE
  2
AcDbSortentsTable
  3
ObjectDBX Classes
 90
    32768
280
     0
281
     0
  0
CLASS
  1
MATERIAL
  2
AcDbMaterial
  3
ObjectDBX Classes
 90
     1153
280
     0
281
     0
  0
CLASS
  1
VISUALSTYLE
  2
AcDbVisualStyle
  3
ObjectDBX Classes
 90
     4095
280
     0
281
     0
  0
CLASS
  1
SCALE
  2
AcDbScale
  3
ObjectDBX Classes
 90
     1153
280
     0
281
     0
  0
CLASS
  1
MLEADERSTYLE
  2
AcDbMLeaderStyle
  3
ACDB_MLEADERSTYLE_CLASS
 90
     4095
280
     0
281
     0
  0
CLASS
  1
CELLSTYLEMAP
  2
AcDbCellStyleMap
  3
ObjectDBX Classes
 90
     1152
280
     0
281
     0
  0
CLASS
  1
DIMASSOC
  2
AcDbDimAssoc
  3
"AcDbDimAssoc|Product Desc:     AcDim ARX App For Dimension|Company:          Autodesk, Inc.|WEB Address:      www.autodesk.com"
 90
        0
280
     0
281
     0
  0
CLASS
  1
SUN
  2
AcDbSun
  3
SCENEOE
 90
     1153
280
     0
281
     0
  0
CLASS
  1
XRECORD
  2
AcDbXrecord
  3
ObjectDBX Classes
 90
    32768
280
     0
281
     0
  0
CLASS
  1
HATCH
  2
AcDbHatch
  3
ObjectDBX Classes
 90
    32768
280
     0
281
     1
  0
ENDSEC
  0
SECTION
  2
TABLES
  0
TABLE
  2
VPORT
  5
8
330
0
100
AcDbSymbolTable
 70
     1
  0
VPORT
  5
CFAB
330
8
100
AcDbSymbolTableRecord
100
AcDbViewportTableRecord
  2
*ACTIVE
 70
     0
 10
0.0
 20
0.0
 11
1.0
 21
1.0
 12
-90.19960223210816
 22
-99.72864668410625
 13
0.0
 23
0.0
 14
10.0
 24
10.0
 15
10.0
 25
10.0
 16
0.0
 26
0.0
 36
1.0
 17
0.0
 27
0.0
 37
0.0
 40
343.5601847052405
 41
1.803066037735849
 42
50.0
 43
0.0
 44
0.0
 50
0.0
 51
0.0
 71
    16
 72
  1000
 73
     1
 74
     1
 75
     0
 76
     0
 77
     0
 78
     0
1001
ACAD_NAV_VCDISPLAY
1070
     3
  0
ENDTAB
  0
TABLE
  2
LTYPE
  5
5
330
0
100
AcDbSymbolTable
 70
     5
  0
LTYPE
  5
12
330
5
100
AcDbSymbolTableRecord
100
AcDbLinetypeTableRecord
  2
BYBLOCK
 70
     0
  3

 72
    65
 73
     0
 40
0.0
  0
LTYPE
  5
13
330
5
100
AcDbSymbolTableRecord
100
AcDbLinetypeTableRecord
  2
BYLAYER
 70
     0
  3

 72
    65
 73
     0
 40
0.0
  0
LTYPE
  5
14
330
5
100
AcDbSymbolTableRecord
100
AcDbLinetypeTableRecord
  2
CONTINUOUS
 70
     0
  3
Solid line
 72
    65
 73
     0
 40
0.0
  0
LTYPE
  5
6A
330
5
100
AcDbSymbolTableRecord
100
AcDbLinetypeTableRecord
  2
XREF1|CENTER2
 70
    48
  3
Center (.5x) ___ _ ___ _ ___ _ ___ _ ___ _ ___
 72
    65
 73
     4
 40
28.575
 49
19.05
 74
     0
 49
-3.175
 74
     0
 49
3.175
 74
     0
 49
-3.175
 74
     0
  0
LTYPE
  5
6A6
330
5
100
AcDbSymbolTableRecord
100
AcDbLinetypeTableRecord
  2
A3WAKUDAKE|CENTER2
 70
    48
  3
Center (.5x) ___ _ ___ _ ___ _ ___ _ ___ _ ___
 72
    65
 73
     4
 40
28.575
 49
19.05
 74
     0
 49
-3.175
 74
     0
 49
3.175
 74
     0
 49
-3.175
 74
     0
  0
LTYPE
  5
A61B
330
5
100
AcDbSymbolTableRecord
100
AcDbLinetypeTableRecord
  2
CENTER2
 70
     0
  3
Center (.5x) ___ _ ___ _ ___ _ ___ _ ___ _ ___
 72
    65
 73
     4
 40
28.575
 49
19.05
 74
     0
 49
-3.175
 74
     0
 49
3.175
 74
     0
 49
-3.175
 74
     0
  0
LTYPE
  5
EE86
330
5
100
AcDbSymbolTableRecord
100
AcDbLinetypeTableRecord
  2
PHANTOM2
 70
     0
  3
Phantom (0.5x) ___ _ _ ___ _ _ ___ _ _ ___ _ _
 72
    65
 73
     6
 40
31.75
 49
15.875
 74
     0
 49
-3.175
 74
     0
 49
3.175
 74
     0
 49
-3.175
 74
     0
 49
3.175
 74
     0
 49
-3.175
 74
     0
  0
ENDTAB
  0
TABLE
  2
LAYER
  5
2
102
{ACAD_XDICTIONARY
360
D16C
102
}
330
0
100
AcDbSymbolTable
 70
    10
  0
LAYER
  5
E
102
{ACAD_XDICTIONARY
360
D0B5
102
}
330
2
100
AcDbSymbolTableRecord
100
AcDbLayerTableRecord
  2
0
 70
     0
 62
     7
  6
CONTINUOUS
  0
LAYER
  5
29
102
{ACAD_XDICTIONARY
360
D0B7
102
}
330
2
100
AcDbSymbolTableRecord
100
AcDbLayerTableRecord
  2
1CENTER
 70
     0
 62
     7
  6
CENTER2
  0
LAYER
  5
31
102
{ACAD_XDICTIONARY
360
D0B9
102
}
330
2
100
AcDbSymbolTableRecord
100
AcDbLayerTableRecord
  2
1TEXT
 70
     0
 62
     7
  6
CONTINUOUS
  0
LAYER
  5
243
102
{ACAD_XDICTIONARY
360
D0BF
102
}
330
2
100
AcDbSymbolTableRecord
100
AcDbLayerTableRecord
  2
01
 70
     0
 62
     1
  6
CONTINUOUS
  0
LAYER
  5
24E
102
{ACAD_XDICTIONARY
360
D0C5
102
}
330
2
100
AcDbSymbolTableRecord
100
AcDbLayerTableRecord
  2
1DIM
 70
     0
 62
     7
  6
CONTINUOUS
  0
LAYER
  5
6A1
102
{ACAD_XDICTIONARY
360
D0C9
102
}
330
2
100
AcDbSymbolTableRecord
100
AcDbLayerTableRecord
  2
A3WAKUDAKE|THICK
 70
    48
 62
     7
  6
CONTINUOUS
  0
LAYER
  5
6A2
102
{ACAD_XDICTIONARY
360
D0CB
102
}
330
2
100
AcDbSymbolTableRecord
100
AcDbLayerTableRecord
  2
A3WAKUDAKE|POINT
 70
    48
 62
     7
  6
CONTINUOUS
  0
LAYER
  5
6A3
102
{ACAD_XDICTIONARY
360
D0CD
102
}
330
2
100
AcDbSymbolTableRecord
100
AcDbLayerTableRecord
  2
A3WAKUDAKE|1CENTER
 70
    48
 62
     7
  6
A3WAKUDAKE|CENTER2
  0
LAYER
  5
6A4
102
{ACAD_XDICTIONARY
360
D0CF
102
}
330
2
100
AcDbSymbolTableRecord
100
AcDbLayerTableRecord
  2
A3WAKUDAKE|0-6
 70
    48
 62
     7
  6
CONTINUOUS
  0
LAYER
  5
EE87
330
2
100
AcDbSymbolTableRecord
100
AcDbLayerTableRecord
  2
1PHANTOM
 70
     0
 62
     7
  6
PHANTOM2
  0
ENDTAB
  0
TABLE
  2
STYLE
  5
3
330
0
100
AcDbSymbolTable
 70
     3
  0
STYLE
  5
F
330
3
100
AcDbSymbolTableRecord
100
AcDbTextStyleTableRecord
  2
STANDARD
 70
     0
 40
0.0
 41
1.0
 50
0.0
 71
     0
 42
4.0
  3
txt.shx
  4
extfont.shx
  0
STYLE
  5
14F85
330
3
100
AcDbSymbolTableRecord
100
AcDbTextStyleTableRecord
  2
A3WAKUDAKE|STANDARD
 70
    48
 40
0.0
 41
1.0
 50
0.0
 71
     0
 42
4.0
  3
romans.shx
  4
extfont.shx
  0
STYLE
  5
14FAD
330
3
100
AcDbSymbolTableRecord
100
AcDbTextStyleTableRecord
  2
XREF1|STANDARD
 70
    48
 40
0.0
 41
1.0
 50
0.0
 71
     0
 42
4.0
  3
romans.shx
  4
extfont.shx
  0
ENDTAB
  0
TABLE
  2
VIEW
  5
6
330
0
100
AcDbSymbolTable
 70
     0
  0
ENDTAB
  0
TABLE
  2
UCS
  5
7
330
0
100
AcDbSymbolTable
 70
     5
  0
UCS
  5
1351A
330
7
100
AcDbSymbolTableRecord
100
AcDbUCSTableRecord
  2
U
 70
     0
 10
0.0
 20
0.0
 30
0.0
 11
1.0
 21
0.0
 31
0.0
 12
0.0
 22
2.220446049250313E-16
 32
1.0
 79
     0
146
0.0
  0
UCS
  5
1351B
330
7
100
AcDbSymbolTableRecord
100
AcDbUCSTableRecord
  2
L
 70
     0
 10
0.0
 20
0.0
 30
0.0
 11
-2.220446049250313E-16
 21
-1.0
 31
2.220446049250313E-16
 12
0.0
 22
2.220446049250313E-16
 32
1.0
 79
     0
146
0.0
  0
UCS
  5
1351C
330
7
100
AcDbSymbolTableRecord
100
AcDbUCSTableRecord
  2
R
 70
     0
 10
0.0
 20
0.0
 30
0.0
 11
3.445092848397667E-16
 21
1.0
 31
-2.220446049250313E-16
 12
0.0
 22
2.220446049250313E-16
 32
1.0
 79
     0
146
0.0
  0
UCS
  5
1351D
330
7
100
AcDbSymbolTableRecord
100
AcDbUCSTableRecord
  2
ISOME
 70
     0
 10
0.0
 20
0.0
 30
0.0
 11
0.7071450863198265
 21
-0.7070684729403536
 31
-3.830824619466267E-5
 12
0.4082704059428734
 22
0.4082704077401151
 32
0.8164744636514736
 79
     0
146
0.0
  0
UCS
  5
1351E
330
7
100
AcDbSymbolTableRecord
100
AcDbUCSTableRecord
  2
PERSPECTIVE
 70
     0
 10
0.0
 20
0.0
 30
0.0
 11
0.8191477691768964
 21
-0.5735823260466403
 31
-0.0004974931557765462
 12
0.1584844715982971
 22
0.225502028986108
 32
0.961265575782966
 79
     0
146
0.0
  0
ENDTAB
  0
TABLE
  2
APPID
  5
9
330
0
100
AcDbSymbolTable
 70
    17
  0
APPID
  5
10
330
9
100
AcDbSymbolTableRecord
100
AcDbRegAppTableRecord
  2
ACAD
 70
     0
  0
APPID
  5
21
330
9
100
AcDbSymbolTableRecord
100
AcDbRegAppTableRecord
  2
DRAWINGVARIABLESXDATA
 70
     0
  0
APPID
  5
64
330
9
100
AcDbSymbolTableRecord
100
AcDbRegAppTableRecord
  2
CONTENTTABDATA
 70
     0
  0
APPID
  5
65
330
9
100
AcDbSymbolTableRecord
100
AcDbRegAppTableRecord
  2
CONTENTCURRENTTAB
 70
     0
  0
APPID
  5
66
330
9
100
AcDbSymbolTableRecord
100
AcDbRegAppTableRecord
  2
CONTENTBLOCKDESCRIPTION
 70
     0
  0
APPID
  5
67
330
9
100
AcDbSymbolTableRecord
100
AcDbRegAppTableRecord
  2
CONTENTBLOCKICON
 70
     0
  0
APPID
  5
68
330
9
100
AcDbSymbolTableRecord
100
AcDbRegAppTableRecord
  2
CONTENTLONGBLOCKNAME
 70
     0
  0
APPID
  5
2AE
330
9
100
AcDbSymbolTableRecord
100
AcDbRegAppTableRecord
  2
ACAD_PSEXT
 70
     0
  0
APPID
  5
D09F
330
9
100
AcDbSymbolTableRecord
100
AcDbRegAppTableRecord
  2
ACAD_MLEADERVER
 70
     0
  0
APPID
  5
D7D9
330
9
100
AcDbSymbolTableRecord
100
AcDbRegAppTableRecord
  2
ACAD_EXEMPT_FROM_CAD_STAND
 70
     0
  0
APPID
  5
DB3E
330
9
100
AcDbSymbolTableRecord
100
AcDbRegAppTableRecord
  2
ACAECLAYERSTANDARD
 70
     0
  0
APPID
  5
F844
330
9
100
AcDbSymbolTableRecord
100
AcDbRegAppTableRecord
  2
ACADANNOTATIVE
 70
     0
  0
APPID
  5
104BC
330
9
100
AcDbSymbolTableRecord
100
AcDbRegAppTableRecord
  2
ACAD_NAV_VCDISPLAY
 70
     0
  0
APPID
  5
10B7F
330
9
100
AcDbSymbolTableRecord
100
AcDbRegAppTableRecord
  2
GRADIENTCOLOR1ACI
 70
     0
  0
APPID
  5
10B80
330
9
100
AcDbSymbolTableRecord
100
AcDbRegAppTableRecord
  2
GRADIENTCOLOR2ACI
 70
     0
  0
APPID
  5
15046
330
9
100
AcDbSymbolTableRecord
100
AcDbRegAppTableRecord
  2
ACAD_OBJECT_CHANGE_GUID
 70
     0
  0
APPID
  5
158BC
330
9
100
AcDbSymbolTableRecord
100
AcDbRegAppTableRecord
  2
ACDBBLOCKREPETAG
 70
     0
  0
ENDTAB
  0
TABLE
  2
DIMSTYLE
  5
A
330
0
100
AcDbSymbolTable
 70
     1
  0
DIMSTYLE
105
48
102
{ACAD_REACTORS
102
}
330
A
100
AcDbSymbolTableRecord
100
AcDbDimStyleTableRecord
  2
NEWX10
 70
     0
  3
 
  4

  5

  6
OPEN30
  7
OPEN30
 40
1.0
 41
2.0
 42
0.0
 43
7.0
 44
1.0
 45
0.0
 46
0.0
 47
0.0
 48
0.0
140
3.5
141
0.0
142
0.0
143
25.4
144
1.0
145
0.0
146
0.7
147
0.7
 71
     0
 72
     0
 73
     0
 74
     0
 75
     0
 76
     0
 77
     1
 78
     8
170
     0
171
     2
172
     1
173
     1
174
     0
175
     0
176
   256
177
   256
178
   201
179
     1
270
     2
271
     2
272
     4
273
     2
274
     2
340
F
275
     0
280
     0
281
     0
282
     0
283
     1
284
     8
285
     0
286
     0
287
     3
288
     0
  0
ENDTAB
  0
TABLE
  2
BLOCK_RECORD
  5
1
330
0
100
AcDbSymbolTable
 70
    10
  0
BLOCK_RECORD
  5
18
102
{ACAD_XDICTIONARY
360
88F
102
}
330
1
100
AcDbSymbolTableRecord
100
AcDbBlockTableRecord
  2
*MODEL_SPACE
  0
BLOCK_RECORD
  5
15
330
1
100
AcDbSymbolTableRecord
100
AcDbBlockTableRecord
  2
*PAPER_SPACE
  0
BLOCK_RECORD
  5
42
330
1
100
AcDbSymbolTableRecord
100
AcDbBlockTableRecord
  2
_OPEN30
  0
BLOCK_RECORD
  5
5B
330
1
100
AcDbSymbolTableRecord
100
AcDbBlockTableRecord
  2
XREF1
  0
BLOCK_RECORD
  5
69E
330
1
100
AcDbSymbolTableRecord
100
AcDbBlockTableRecord
  2
A3WAKUDAKE
  0
BLOCK_RECORD
  5
1590D
330
1
100
AcDbSymbolTableRecord
100
AcDbBlockTableRecord
  2
A3WAKUKAWAJUN2017_HYOUDAI_
  0
BLOCK_RECORD
  5
16216
330
1
100
AcDbSymbolTableRecord
100
AcDbBlockTableRecord
  2
*X24
  0
BLOCK_RECORD
  5
16264
330
1
100
AcDbSymbolTableRecord
100
AcDbBlockTableRecord
  2
*X25
  0
BLOCK_RECORD
  5
162B6
330
1
100
AcDbSymbolTableRecord
100
AcDbBlockTableRecord
  2
*X26
  0
BLOCK_RECORD
  5
16307
330
1
100
AcDbSymbolTableRecord
100
AcDbBlockTableRecord
  2
*X27
  0
BLOCK_RECORD
  5
16344
330
1
100
AcDbSymbolTableRecord
100
AcDbBlockTableRecord
  2
*X28
  0
BLOCK_RECORD
  5
16384
330
1
100
AcDbSymbolTableRecord
100
AcDbBlockTableRecord
  2
*X29
  0
ENDTAB
  0
ENDSEC
  0
SECTION
  2
BLOCKS
  0
BLOCK
  5
19
330
18
100
AcDbEntity
  8
0
100
AcDbBlockBegin
  2
*MODEL_SPACE
 70
     0
 10
0.0
 20
0.0
 30
0.0
  3
*MODEL_SPACE
  1

  0
ENDBLK
  5
1A
330
18
100
AcDbEntity
  8
0
100
AcDbBlockEnd
  0
BLOCK
  5
16
330
15
100
AcDbEntity
 67
     1
  8
0
100
AcDbBlockBegin
  2
*PAPER_SPACE
 70
     0
 10
0.0
 20
0.0
 30
0.0
  3
*PAPER_SPACE
  1

  0
ENDBLK
  5
17
330
15
100
AcDbEntity
 67
     1
  8
0
100
AcDbBlockEnd
  0
BLOCK
  5
43
330
42
100
AcDbEntity
  8
0
100
AcDbBlockBegin
  2
_OPEN30
 70
     0
 10
0.0
 20
0.0
 30
0.0
  3
_OPEN30
  1

  0
LINE
  5
44
330
42
100
AcDbEntity
  8
0
  6
BYBLOCK
 62
     0
100
AcDbLine
 10
-1.0
 20
0.26794919
 30
0.0
 11
0.0
 21
0.0
 31
0.0
  0
LINE
  5
45
330
42
100
AcDbEntity
  8
0
  6
BYBLOCK
 62
     0
100
AcDbLine
 10
0.0
 20
0.0
 30
0.0
 11
-1.0
 21
-0.26794919
 31
0.0
  0
LINE
  5
46
330
42
100
AcDbEntity
  8
0
  6
BYBLOCK
 62
     0
100
AcDbLine
 10
0.0
 20
0.0
 30
0.0
 11
-1.0
 21
0.0
 31
0.0
  0
ENDBLK
  5
47
330
42
100
AcDbEntity
  8
0
100
AcDbBlockEnd
  0
BLOCK
  5
5C
330
5B
100
AcDbEntity
  8
0
100
AcDbBlockBegin
  2
XREF1
 70
    36
 10
0.0
 20
0.0
 30
0.0
  3
XREF1
  1
D:\ACLT\FORMAT\KAWAJUN(9)図面用.dwg
  0
ENDBLK
  5
5D
330
5B
100
AcDbEntity
  8
0
100
AcDbBlockEnd
  0
BLOCK
  5
69F
330
69E
100
AcDbEntity
  8
0
100
AcDbBlockBegin
  2
A3WAKUDAKE
 70
    36
 10
0.0
 20
0.0
 30
0.0
  3
A3WAKUDAKE
  1
D:\ACLT\FORMAT\A3WAKUdake.dwg
  0
ENDBLK
  5
6A0
330
69E
100
AcDbEntity
  8
0
100
AcDbBlockEnd
  0
BLOCK
  5
1600C
330
1590D
100
AcDbEntity
  8
0
100
AcDbBlockBegin
  2
A3WAKUKAWAJUN2017_HYOUDAI_
 70
     0
 10
0.0
 20
0.0
 30
0.0
  3
A3WAKUKAWAJUN2017_HYOUDAI_
  1

  0
LINE
  5
1590F
330
1590D
100
AcDbEntity
  8
0
100
AcDbLine
 10
13.26299999998673
 20
-0.0001000000000317
 30
0.0
 11
9.236999999990758
 21
8.999899999990987
 31
0.0
1001
ACAD
1000
ASC_BOUNDS
1002
{
1070
    19
1005
15950
1002
}
  0
LINE
  5
15910
330
1590D
100
AcDbEntity
  8
0
100
AcDbLine
 10
5.657999999994331
 20
0.9999999999989768
 30
0.0
 11
9.236999999990758
 21
8.999999999991019
 31
0.0
1001
ACAD
1000
ASC_BOUNDS
1002
{
1070
    19
1005
15950
1002
}
  0
LINE
  5
15911
330
1590D
100
AcDbEntity
  8
0
100
AcDbLine
 10
18.59199999998134
 20
-0.2368999999997641
 30
0.0
 11
16.46099999998353
 21
5.432899999994561
 31
0.0
1001
ACAD
1000
ASC_BOUNDS
1002
{
1070
    19
1005
15951
1002
}
  0
LINE
  5
15912
330
1590D
100
AcDbEntity
  8
0
100
AcDbLine
 10
18.59199999998134
 20
-0.2368999999997641
 30
0.0
 11
22.38199999997767
 21
8.763099999991255
 31
0.0
1001
ACAD
1000
ASC_BOUNDS
1002
{
1070
    19
1005
15951
1002
}
  0
LINE
  5
15913
330
1590D
100
AcDbEntity
  8
0
100
AcDbLine
 10
14.32899999998563
 20
-0.2368999999997641
 30
0.0
 11
16.46099999998353
 21
5.432899999994561
 31
0.0
1001
ACAD
1000
ASC_BOUNDS
1002
{
1070
    19
1005
15951
1002
}
  0
LINE
  5
15914
330
1590D
100
AcDbEntity
  8
0
100
AcDbLine
 10
14.32899999998563
 20
-0.2368999999997641
 30
0.0
 11
10.53899999998941
 21
8.763099999991255
 31
0.0
1001
ACAD
1000
ASC_BOUNDS
1002
{
1070
    19
1005
15951
1002
}
  0
LINE
  5
15915
330
1590D
100
AcDbEntity
  8
0
100
AcDbLine
 10
19.53899999998043
 20
-0.0001000000000317
 30
0.0
 11
23.56599999997638
 21
8.999899999990987
 31
0.0
1001
ACAD
1000
ASC_BOUNDS
1002
{
1070
    19
1005
15952
1002
}
  0
LINE
  5
15916
330
1590D
100
AcDbEntity
  8
0
100
AcDbLine
 10
26.97358892824991
 20
1.383099999991202
 30
0.0
 11
23.56599999997638
 21
8.999899999990987
 31
0.0
1001
ACAD
1000
ASC_BOUNDS
1002
{
1070
    19
1005
15952
1002
}
  0
LINE
  5
15917
330
1590D
100
AcDbEntity
  8
0
100
AcDbLine
 10
5.657999999994331
 20
0.9999999999989768
 30
0.0
 11
3.181999999996833
 21
4.668599999995308
 31
0.0
1001
ACAD
1000
ASC_BOUNDS
1002
{
1070
    19
1005
15950
1002
}
  0
LINE
  5
15918
330
1590D
100
AcDbEntity
  8
0
100
AcDbLine
 10
4.617999999995391
 20
-0.0001000000000317
 30
0.0
 11
1.420999999998571
 21
4.736799999995242
 31
0.0
1001
ACAD
1000
ASC_BOUNDS
1002
{
1070
    19
1005
15950
1002
}
  0
LINE
  5
15919
330
1590D
100
AcDbEntity
  8
0
100
AcDbLine
 10
1.420999999998571
 20
8.763099999991255
 30
0.0
 11
1.420999999998571
 21
0.0
 31
0.0
1001
ACAD
1000
ASC_BOUNDS
1002
{
1070
    19
1005
15955
1002
}
  0
LINE
  5
1591A
330
1590D
100
AcDbEntity
  8
0
100
AcDbLine
 10
0.0
 20
8.763099999991255
 30
0.0
 11
0.0
 21
0.0
 31
0.0
1001
ACAD
1000
ASC_BOUNDS
1002
{
1070
    19
1005
15955
1002
}
  0
LINE
  5
1591B
330
1590D
100
AcDbEntity
  8
0
100
AcDbLine
 10
6.766999999993232
 20
-0.0001000000000317
 30
0.0
 11
7.826999999992154
 21
2.368399999997621
 31
0.0
1001
ACAD
1000
ASC_BOUNDS
1002
{
1070
    19
1005
15950
1002
}
  0
LINE
  5
1591C
330
1590D
100
AcDbEntity
  8
0
100
AcDbLine
 10
0.0
 20
0.0
 30
0.0
 11
1.420999999998571
 21
0.0
 31
0.0
1001
ACAD
1000
ASC_BOUNDS
1002
{
1070
    19
1005
15955
1002
}
  0
LINE
  5
1591D
330
1590D
100
AcDbEntity
  8
0
100
AcDbLine
 10
4.617999999995391
 20
0.0
 30
0.0
 11
6.766999999993232
 21
0.0
 31
0.0
1001
ACAD
1000
ASC_BOUNDS
1002
{
1070
    19
1005
15950
1002
}
  0
LINE
  5
1591E
330
1590D
100
AcDbEntity
  8
0
100
AcDbLine
 10
11.70599999998831
 20
-0.0001000000000317
 30
0.0
 11
10.64699999998936
 21
2.368399999997621
 31
0.0
1001
ACAD
1000
ASC_BOUNDS
1002
{
1070
    19
1005
15950
1002
}
  0
LINE
  5
1591F
330
1590D
100
AcDbEntity
  8
0
100
AcDbLine
 10
7.826999999992154
 20
2.368399999997621
 30
0.0
 11
10.64699999998936
 21
2.368399999997621
 31
0.0
1001
ACAD
1000
ASC_BOUNDS
1002
{
1070
    19
1005
15950
1002
}
  0
LINE
  5
15920
330
1590D
100
AcDbEntity
  8
0
100
AcDbLine
 10
11.70599999998831
 20
0.0
 30
0.0
 11
13.26299999998673
 21
0.0
 31
0.0
1001
ACAD
1000
ASC_BOUNDS
1002
{
1070
    19
1005
15950
1002
}
  0
LINE
  5
15921
330
1590D
100
AcDbEntity
  8
0
100
AcDbLine
 10
22.15599999997789
 20
2.368399999997621
 30
0.0
 11
24.97599999997499
 21
2.368399999997621
 31
0.0
1001
ACAD
1000
ASC_BOUNDS
1002
{
1070
    19
1005
15952
1002
}
  0
LINE
  5
15922
330
1590D
100
AcDbEntity
  8
0
100
AcDbLine
 10
19.53899999998043
 20
0.0
 30
0.0
 11
21.09599999997886
 21
0.0
 31
0.0
1001
ACAD
1000
ASC_BOUNDS
1002
{
1070
    19
1005
15952
1002
}
  0
LINE
  5
15923
330
1590D
100
AcDbEntity
  8
0
100
AcDbLine
 10
21.09599999997886
 20
-0.0001000000000317
 30
0.0
 11
22.15599999997789
 21
2.368399999997621
 31
0.0
1001
ACAD
1000
ASC_BOUNDS
1002
{
1070
    19
1005
15952
1002
}
  0
LINE
  5
15924
330
1590D
100
AcDbEntity
  8
0
100
AcDbLine
 10
26.02015566812236
 20
0.0330999999912365
 30
0.0
 11
24.97599999997499
 21
2.368399999997621
 31
0.0
1001
ACAD
1000
ASC_BOUNDS
1002
{
1070
    19
1005
15952
1002
}
  0
LINE
  5
15925
330
1590D
100
AcDbEntity
  8
0
100
AcDbLine
 10
14.32399999998563
 20
3.315799999996671
 30
0.0
 11
16.46099999998353
 21
8.999899999990987
 31
0.0
1001
ACAD
1000
ASC_BOUNDS
1002
{
1070
    19
1005
15951
1002
}
  0
LINE
  5
15926
330
1590D
100
AcDbEntity
  8
0
100
AcDbLine
 10
6.432999999993513
 20
8.763099999991255
 30
0.0
 11
3.181999999996833
 21
4.668599999995308
 31
0.0
1001
ACAD
1000
ASC_BOUNDS
1002
{
1070
    19
1005
15950
1002
}
  0
LINE
  5
15927
330
1590D
100
AcDbEntity
  8
0
100
AcDbLine
 10
4.617999999995391
 20
8.763099999991255
 30
0.0
 11
1.420999999998571
 21
4.736799999995242
 31
0.0
1001
ACAD
1000
ASC_BOUNDS
1002
{
1070
    19
1005
15950
1002
}
  0
LINE
  5
15928
330
1590D
100
AcDbEntity
  8
0
100
AcDbLine
 10
0.0
 20
8.763099999991255
 30
0.0
 11
1.420999999998571
 21
8.763099999991255
 31
0.0
1001
ACAD
1000
ASC_BOUNDS
1002
{
1070
    19
1005
15955
1002
}
  0
LINE
  5
15929
330
1590D
100
AcDbEntity
  8
0
100
AcDbLine
 10
4.617999999995391
 20
8.763099999991255
 30
0.0
 11
6.432999999993513
 21
8.763099999991255
 31
0.0
1001
ACAD
1000
ASC_BOUNDS
1002
{
1070
    19
1005
15950
1002
}
  0
LINE
  5
1592A
330
1590D
100
AcDbEntity
  8
0
100
AcDbLine
 10
14.32399999998563
 20
3.315799999996671
 30
0.0
 11
12.02999999998792
 21
8.763099999991255
 31
0.0
1001
ACAD
1000
ASC_BOUNDS
1002
{
1070
    19
1005
15951
1002
}
  0
LINE
  5
1592B
330
1590D
100
AcDbEntity
  8
0
100
AcDbLine
 10
10.06399999998996
 20
3.670999999996297
 30
0.0
 11
9.236999999990758
 21
5.5200999999945
 31
0.0
1001
ACAD
1000
ASC_BOUNDS
1002
{
1070
    19
1005
15950
1002
}
  0
LINE
  5
1592C
330
1590D
100
AcDbEntity
  8
0
100
AcDbLine
 10
8.409999999991555
 20
3.670999999996297
 30
0.0
 11
9.236999999990758
 21
5.5200999999945
 31
0.0
1001
ACAD
1000
ASC_BOUNDS
1002
{
1070
    19
1005
15950
1002
}
  0
LINE
  5
1592D
330
1590D
100
AcDbEntity
  8
0
100
AcDbLine
 10
8.409999999991555
 20
3.670999999996297
 30
0.0
 11
10.06399999998996
 21
3.670999999996297
 31
0.0
1001
ACAD
1000
ASC_BOUNDS
1002
{
1070
    19
1005
15950
1002
}
  0
LINE
  5
1592E
330
1590D
100
AcDbEntity
  8
0
100
AcDbLine
 10
10.53899999998941
 20
8.763099999991255
 30
0.0
 11
12.02999999998792
 21
8.763099999991255
 31
0.0
1001
ACAD
1000
ASC_BOUNDS
1002
{
1070
    19
1005
15951
1002
}
  0
LINE
  5
1592F
330
1590D
100
AcDbEntity
  8
0
100
AcDbLine
 10
22.7389999999773
 20
3.670999999996297
 30
0.0
 11
23.56599999997638
 21
5.5200999999945
 31
0.0
1001
ACAD
1000
ASC_BOUNDS
1002
{
1070
    19
1005
15952
1002
}
  0
LINE
  5
15930
330
1590D
100
AcDbEntity
  8
0
100
AcDbLine
 10
22.7389999999773
 20
3.670999999996297
 30
0.0
 11
24.39299999997559
 21
3.670999999996297
 31
0.0
1001
ACAD
1000
ASC_BOUNDS
1002
{
1070
    19
1005
15952
1002
}
  0
LINE
  5
15931
330
1590D
100
AcDbEntity
  8
0
100
AcDbLine
 10
18.59799999998143
 20
3.315799999996671
 30
0.0
 11
20.89099999997916
 21
8.763099999991255
 31
0.0
1001
ACAD
1000
ASC_BOUNDS
1002
{
1070
    19
1005
15951
1002
}
  0
LINE
  5
15932
330
1590D
100
AcDbEntity
  8
0
100
AcDbLine
 10
18.59799999998143
 20
3.315799999996671
 30
0.0
 11
16.46099999998353
 21
8.999899999990987
 31
0.0
1001
ACAD
1000
ASC_BOUNDS
1002
{
1070
    19
1005
15951
1002
}
  0
LINE
  5
15933
330
1590D
100
AcDbEntity
  8
0
100
AcDbLine
 10
20.89099999997916
 20
8.763099999991255
 30
0.0
 11
22.38199999997767
 21
8.763099999991255
 31
0.0
1001
ACAD
1000
ASC_BOUNDS
1002
{
1070
    19
1005
15951
1002
}
  0
LINE
  5
15934
330
1590D
100
AcDbEntity
  8
0
100
AcDbLine
 10
24.39299999997559
 20
3.670999999996297
 30
0.0
 11
23.56599999997638
 21
5.5200999999945
 31
0.0
1001
ACAD
1000
ASC_BOUNDS
1002
{
1070
    19
1005
15952
1002
}
  0
LINE
  5
15935
330
1590D
100
AcDbEntity
  8
0
100
AcDbLine
 10
44.99999999995498
 20
-0.2368999999997641
 30
0.0
 11
40.02599999995994
 21
5.341799999994635
 31
0.0
1001
ACAD
1000
ASC_BOUNDS
1002
{
1070
    19
1005
15954
1002
}
  0
LINE
  5
15936
330
1590D
100
AcDbEntity
  8
0
100
AcDbLine
 10
40.02599999995994
 20
5.341799999994635
 30
0.0
 11
40.02599999995994
 21
0.0
 31
0.0
1001
ACAD
1000
ASC_BOUNDS
1002
{
1070
    19
1005
15954
1002
}
  0
LINE
  5
15937
330
1590D
100
AcDbEntity
  8
0
100
AcDbLine
 10
38.60499999996136
 20
8.999999999991019
 30
0.0
 11
38.60499999996136
 21
0.0
 31
0.0
1001
ACAD
1000
ASC_BOUNDS
1002
{
1070
    19
1005
15954
1002
}
  0
LINE
  5
15938
330
1590D
100
AcDbEntity
  8
0
100
AcDbLine
 10
44.99999999995498
 20
8.763099999991255
 30
0.0
 11
44.99999999995498
 21
-0.2368999999997641
 31
0.0
1001
ACAD
1000
ASC_BOUNDS
1002
{
1070
    19
1005
15954
1002
}
  0
LINE
  5
15939
330
1590D
100
AcDbEntity
  8
0
100
AcDbLine
 10
38.60499999996136
 20
0.0
 30
0.0
 11
40.02599999995994
 21
0.0
 31
0.0
1001
ACAD
1000
ASC_BOUNDS
1002
{
1070
    19
1005
15954
1002
}
  0
LINE
  5
1593A
330
1590D
100
AcDbEntity
  8
0
100
AcDbLine
 10
43.57899999995641
 20
3.421199999996588
 30
0.0
 11
38.60499999996136
 21
8.999899999990987
 31
0.0
1001
ACAD
1000
ASC_BOUNDS
1002
{
1070
    19
1005
15954
1002
}
  0
LINE
  5
1593B
330
1590D
100
AcDbEntity
  8
0
100
AcDbLine
 10
43.57899999995641
 20
8.763099999991255
 30
0.0
 11
43.57899999995641
 21
3.421199999996588
 31
0.0
1001
ACAD
1000
ASC_BOUNDS
1002
{
1070
    19
1005
15954
1002
}
  0
LINE
  5
1593C
330
1590D
100
AcDbEntity
  8
0
100
AcDbLine
 10
43.57899999995641
 20
8.763099999991255
 30
0.0
 11
44.99999999995498
 21
8.763099999991255
 31
0.0
1001
ACAD
1000
ASC_BOUNDS
1002
{
1070
    19
1005
15954
1002
}
  0
LINE
  5
1593D
330
1590D
100
AcDbEntity
  8
0
100
AcDbLine
 10
37.67199999996831
 20
8.763099999991255
 30
0.0
 11
36.23199999996837
 21
8.763099999991255
 31
0.0
  0
LINE
  5
1593E
330
1590D
100
AcDbEntity
  8
0
100
AcDbLine
 10
31.64199999996833
 20
8.763099999991255
 30
0.0
 11
31.64199999996833
 21
2.481619422925121
 31
0.0
  0
LINE
  5
1593F
330
1590D
100
AcDbEntity
  8
0
100
AcDbLine
 10
37.67199999996831
 20
8.763099999991255
 30
0.0
 11
37.67199999996831
 21
2.481619422925121
 31
0.0
  0
LINE
  5
15940
330
1590D
100
AcDbEntity
  8
0
100
AcDbLine
 10
36.23199999996837
 20
8.763099999991255
 30
0.0
 11
36.23199999996837
 21
2.481619422925064
 31
0.0
  0
LINE
  5
15941
330
1590D
100
AcDbEntity
  8
0
100
AcDbLine
 10
33.08199999996839
 20
8.763099999991255
 30
0.0
 11
33.08199999996839
 21
2.481619422925121
 31
0.0
  0
ARC
  5
15942
330
1590D
100
AcDbEntity
  8
0
100
AcDbCircle
 10
34.65699999996832
 20
3.183099999991214
 30
0.0
 40
3.420000000000007
100
AcDbArc
 50
240.0000000000255
 51
299.9999999999766
  0
ARC
  5
15943
330
1590D
100
AcDbEntity
  8
0
100
AcDbCircle
 10
34.65699999996832
 20
3.183099999991214
 30
0.0
 40
1.97999999999999
100
AcDbArc
 50
240.000000000026
 51
299.9999999999703
  0
LINE
  5
15944
330
1590D
100
AcDbEntity
  8
0
100
AcDbLine
 10
33.08199999996828
 20
8.763099999991255
 30
0.0
 11
31.64199999996833
 21
8.763099999991255
 31
0.0
  0
ARC
  5
15945
330
1590D
100
AcDbEntity
  8
0
100
AcDbCircle
 10
35.06199999996829
 20
2.481619422925064
 30
0.0
 40
1.17
100
AcDbArc
 50
299.9999999999699
 51
0.0
  0
ARC
  5
15946
330
1590D
100
AcDbEntity
  8
0
100
AcDbCircle
 10
34.25199999996835
 20
2.481619422925121
 30
0.0
 40
1.17
100
AcDbArc
 50
180.0
 51
240.0000000000238
  0
ARC
  5
15947
330
1590D
100
AcDbEntity
  8
0
100
AcDbCircle
 10
35.06199999996841
 20
2.481619422925121
 30
0.0
 40
2.61
100
AcDbArc
 50
299.9999999999756
 51
0.0
  0
ARC
  5
15948
330
1590D
100
AcDbEntity
  8
0
100
AcDbCircle
 10
34.25199999996835
 20
2.481619422925121
 30
0.0
 40
2.61
100
AcDbArc
 50
180.0
 51
240.0000000000244
  0
LINE
  5
15949
330
1590D
100
AcDbEntity
  8
0
100
AcDbLine
 10
29.30199999996933
 20
8.763099999991255
 30
0.0
 11
30.74199999996927
 21
8.763099999991255
 31
0.0
1001
ACAD
1000
ASC_BOUNDS
1002
{
1070
    19
1005
15952
1002
}
  0
LINE
  5
1594A
330
1590D
100
AcDbEntity
  8
0
100
AcDbLine
 10
30.74199999996927
 20
8.763099999991255
 30
0.0
 11
30.74199999996927
 21
2.373099999991211
 31
0.0
1001
ACAD
1000
ASC_BOUNDS
1002
{
1070
    19
1005
15952
1002
}
  0
LINE
  5
1594B
330
1590D
100
AcDbEntity
  8
0
100
AcDbLine
 10
26.02015566812236
 20
0.0330999999912365
 30
0.0
 11
28.40199999996923
 21
0.0330999999912365
 31
0.0
1001
ACAD
1000
ASC_BOUNDS
1002
{
1070
    19
1005
15952
1002
}
  0
LINE
  5
1594C
330
1590D
100
AcDbEntity
  8
0
100
AcDbLine
 10
29.30199999996933
 20
8.763099999991255
 30
0.0
 11
29.30199999996933
 21
2.283099999991236
 31
0.0
1001
ACAD
1000
ASC_BOUNDS
1002
{
1070
    19
1005
15952
1002
}
  0
LINE
  5
1594D
330
1590D
100
AcDbEntity
  8
0
100
AcDbLine
 10
26.97358892824991
 20
1.383099999991202
 30
0.0
 11
28.40199999996923
 21
1.383099999991202
 31
0.0
1001
ACAD
1000
ASC_BOUNDS
1002
{
1070
    19
1005
15952
1002
}
  0
ARC
  5
1594E
330
1590D
100
AcDbEntity
  8
0
100
AcDbCircle
 10
28.40199999996923
 20
2.283099999991236
 30
0.0
 40
0.9
100
AcDbArc
 50
270.0
 51
0.0
1001
ACAD
1000
ASC_BOUNDS
1002
{
1070
    19
1005
15952
1002
}
  0
ARC
  5
1594F
330
1590D
100
AcDbEntity
  8
0
100
AcDbCircle
 10
28.40199999996923
 20
2.373099999991211
 30
0.0
 40
2.34
100
AcDbArc
 50
270.0
 51
0.0
1001
ACAD
1000
ASC_BOUNDS
1002
{
1070
    19
1005
15952
1002
}
  0
INSERT
  5
15950
330
1590D
100
AcDbEntity
  8
0
100
AcDbBlockReference
  2
*X24
 10
0.0
 20
0.0
 30
0.0
1001
ACAD
1000
HATCH
1002
{
1070
    19
1000
ANSI37
1040
0.15
1040
0.0
1000
ASC_BOUNDS
1070
     2
1070
     2
1070
    12
1005
1590F
1005
15910
1005
15917
1005
15926
1005
15929
1005
15927
1005
15918
1005
1591D
1005
1591B
1005
1591F
1005
1591E
1005
15920
1070
     2
1070
     3
1005
1592B
1005
1592D
1005
1592C
1000
ASC_SEEDPOINT
1011
3.614004224891801
1021
2.996669441146025
1031
0.0
1000
R14_HATCH_DATA
1000
15950
1011
1.0
1021
0.0
1031
0.0
1011
0.0
1021
1.0
1031
0.0
1011
0.0
1021
0.0
1031
1.0
1040
0.0
1010
0.0
1020
0.0
1030
1.0
1000
ANSI37
1070
     0
1070
     1
1071
        2
1071
        7
1070
     0
1070
     1
1071
       17
1040
13.26299999998673
1040
-0.0001000000000317
1040
9.236999999990758
1040
8.999899999990987
1040
9.236999999990758
1040
8.999999999991019
1040
5.657999999994331
1040
0.9999999999989768
1040
3.181999999996833
1040
4.668599999995308
1040
6.432999999993513
1040
8.763099999991255
1040
4.617999999995391
1040
8.763099999991255
1040
1.420999999998571
1040
4.736799999995242
1040
4.617999999995391
1040
-0.0001000000000317
1040
4.617999999995391
1040
0.0
1040
6.766999999993232
1040
0.0
1040
6.766999999993232
1040
-0.0001000000000317
1040
7.826999999992154
1040
2.368399999997621
1040
10.64699999998936
1040
2.368399999997621
1040
11.70599999998831
1040
-0.0001000000000317
1040
11.70599999998831
1040
0.0
1040
13.26299999998673
1040
0.0
1071
       12
1005
1590F
1005
15910
1005
15917
1005
15926
1005
15929
1005
15927
1005
15918
1005
1591D
1005
1591B
1005
1591F
1005
1591E
1005
15920
1071
       22
1070
     0
1070
     1
1071
        3
1040
9.236999999990758
1040
5.5200999999945
1040
10.06399999998996
1040
3.670999999996297
1040
8.409999999991555
1040
3.670999999996297
1071
        3
1005
1592B
1005
1592D
1005
1592C
1070
     0
1070
     1
1040
0.0
1040
0.15
1070
     0
1070
     2
1040
0.7853981633974483
1040
49.29960901727088
1040
-10.17736998311392
1040
-0.3367596045400932
1040
0.3367596045400932
1070
     0
1040
2.356194490192345
1040
49.29960901727088
1040
-10.17736998311392
1040
-0.3367596045400932
1040
-0.3367596045400932
1070
     0
1040
0.0110235143455945
1071
        2
1040
3.614004224891801
1040
2.996669441146025
1040
0.0
1040
3.614004224891801
1040
2.996669441146025
1040
0.0
1002
}
  0
INSERT
  5
15951
330
1590D
100
AcDbEntity
  8
0
100
AcDbBlockReference
  2
*X25
 10
0.0
 20
0.0
 30
0.0
1001
ACAD
1000
HATCH
1002
{
1070
    19
1000
ANSI37
1040
0.15
1040
0.0
1000
ASC_BOUNDS
1070
     1
1070
     2
1070
    10
1005
15911
1005
15912
1005
15933
1005
15931
1005
15932
1005
15925
1005
1592A
1005
1592E
1005
15914
1005
15913
1000
ASC_SEEDPOINT
1011
14.73245321214324
1021
2.798246178283421
1031
0.0
1000
R14_HATCH_DATA
1000
15951
1011
1.0
1021
0.0
1031
0.0
1011
0.0
1021
1.0
1031
0.0
1011
0.0
1021
0.0
1031
1.0
1040
0.0
1010
0.0
1020
0.0
1030
1.0
1000
ANSI37
1070
     0
1070
     1
1071
        1
1071
        7
1070
     0
1070
     1
1071
       10
1040
16.46099999998353
1040
5.432899999994561
1040
18.59199999998134
1040
-0.2368999999997641
1040
22.38199999997767
1040
8.763099999991255
1040
20.89099999997916
1040
8.763099999991255
1040
18.59799999998143
1040
3.315799999996671
1040
16.46099999998353
1040
8.999899999990987
1040
14.32399999998563
1040
3.315799999996671
1040
12.02999999998792
1040
8.763099999991255
1040
10.53899999998941
1040
8.763099999991255
1040
14.32899999998563
1040
-0.2368999999997641
1071
       10
1005
15911
1005
15912
1005
15933
1005
15931
1005
15932
1005
15925
1005
1592A
1005
1592E
1005
15914
1005
15913
1070
     0
1070
     1
1040
0.0
1040
0.15
1070
     0
1070
     2
1040
0.7853981633974483
1040
49.29960901727088
1040
-10.17736998311392
1040
-0.3367596045400932
1040
0.3367596045400932
1070
     0
1040
2.356194490192345
1040
49.29960901727088
1040
-10.17736998311392
1040
-0.3367596045400932
1040
-0.3367596045400932
1070
     0
1040
0.0110235143455945
1071
        1
1040
14.73245321214324
1040
2.798246178283421
1040
0.0
1002
}
  0
INSERT
  5
15952
330
1590D
100
AcDbEntity
  8
0
100
AcDbBlockReference
  2
*X26
 10
0.0
 20
0.0
 30
0.0
1001
ACAD
1000
HATCH
1002
{
1070
    19
1000
ANSI37
1040
0.15
1040
0.0
1000
ASC_BOUNDS
1070
     2
1070
     2
1070
    13
1005
15915
1005
15922
1005
15923
1005
15921
1005
15924
1005
1594B
1005
1594F
1005
1594A
1005
15949
1005
1594C
1005
1594E
1005
1594D
1005
15916
1070
     2
1070
     3
1005
1592F
1005
15934
1005
15930
1000
ASC_SEEDPOINT
1011
21.97929957367762
1021
3.294304244259308
1031
0.0
1000
R14_HATCH_DATA
1000
15952
1011
1.0
1021
0.0
1031
0.0
1011
0.0
1021
1.0
1031
0.0
1011
0.0
1021
0.0
1031
1.0
1040
0.0
1010
0.0
1020
0.0
1030
1.0
1000
ANSI37
1070
     0
1070
     1
1071
        2
1071
        7
1070
     1
1070
     1
1071
       15
1040
23.56599999997638
1040
8.999899999990987
1040
0.0
1040
19.53899999998043
1040
-0.0001000000000317
1040
0.0
1040
19.53899999998043
1040
0.0
1040
0.0
1040
21.09599999997886
1040
0.0
1040
0.0
1040
21.09599999997886
1040
-0.0001000000000317
1040
0.0
1040
22.15599999997789
1040
2.368399999997621
1040
0.0
1040
24.97599999997499
1040
2.368399999997621
1040
0.0
1040
26.02015566812236
1040
0.0330999999912365
1040
0.0
1040
28.40199999996923
1040
0.0330999999912365
1040
0.414213562373095
1040
30.74199999996923
1040
2.373099999991211
1040
0.0
1040
30.74199999996927
1040
8.763099999991255
1040
0.0
1040
29.30199999996933
1040
8.763099999991255
1040
0.0
1040
29.30199999996933
1040
2.283099999991236
1040
-0.414213562373095
1040
28.40199999996923
1040
1.383099999991237
1040
0.0
1040
26.97358892824991
1040
1.383099999991202
1040
0.0
1071
       13
1005
15915
1005
15922
1005
15923
1005
15921
1005
15924
1005
1594B
1005
1594F
1005
1594A
1005
15949
1005
1594C
1005
1594E
1005
1594D
1005
15916
1071
       22
1070
     0
1070
     1
1071
        3
1040
22.7389999999773
1040
3.670999999996297
1040
23.56599999997638
1040
5.5200999999945
1040
24.39299999997559
1040
3.670999999996297
1071
        3
1005
1592F
1005
15934
1005
15930
1070
     0
1070
     1
1040
0.0
1040
0.15
1070
     0
1070
     2
1040
0.7853981633974483
1040
49.29960901727088
1040
-10.17736998311392
1040
-0.3367596045400932
1040
0.3367596045400932
1070
     0
1040
2.356194490192345
1040
49.29960901727088
1040
-10.17736998311392
1040
-0.3367596045400932
1040
-0.3367596045400932
1070
     0
1040
0.0110235143455945
1071
        2
1040
21.97929957367762
1040
3.294304244259308
1040
0.0
1040
21.97929957367762
1040
3.294304244259308
1040
0.0
1002
}
  0
INSERT
  5
15953
330
1590D
100
AcDbEntity
  8
0
100
AcDbBlockReference
  2
*X27
 10
0.0
 20
0.0
 30
0.0
1001
ACAD
1000
HATCH
1002
{
1070
    19
1000
ANSI37
1040
0.15
1040
0.0
1000
R14_HATCH_DATA
1000
15953
1011
1.0
1021
0.0
1031
0.0
1011
0.0
1021
1.0
1031
0.0
1011
0.0
1021
0.0
1031
1.0
1040
0.0
1010
0.0
1020
0.0
1030
1.0
1000
ANSI37
1070
     0
1070
     1
1071
        1
1071
        7
1070
     1
1070
     1
1071
       12
1040
31.64199999996833
1040
2.481619422925121
1040
0.2679491924310942
1040
32.94699999997067
1040
0.2212931190493919
1040
0.2679491924301353
1040
36.36699999995983
1040
0.2212931190459813
1040
0.2679491924321411
1040
37.67199999996831
1040
2.481619422928361
1040
0.0
1040
37.67199999996831
1040
8.763099999991255
1040
0.0
1040
36.23199999996837
1040
8.763099999991255
1040
0.0
1040
36.23199999996837
1040
2.481619422925064
1040
-0.2679491924310291
1040
35.64699999996708
1040
1.468369700498386
1040
-0.267949192430519
1040
33.66699999997093
1040
1.468369700497703
1040
-0.267949192431809
1040
33.08199999996839
1040
2.481619422926997
1040
0.0
1040
33.08199999996839
1040
8.763099999991255
1040
0.0
1040
31.64199999996833
1040
8.763099999991255
1040
0.0
1071
        0
1070
     0
1070
     1
1040
0.0
1040
0.15
1070
     0
1070
     2
1040
0.7853981633974483
1040
49.29960901727088
1040
-10.17736998311392
1040
-0.3367596045400932
1040
0.3367596045400932
1070
     0
1040
2.356194490192345
1040
49.29960901727088
1040
-10.17736998311392
1040
-0.3367596045400932
1040
-0.3367596045400932
1070
     0
1040
0.0110235143455945
1071
        1
1040
32.30357378967278
1040
3.988785755459219
1040
0.0
1002
}
  0
INSERT
  5
15954
330
1590D
100
AcDbEntity
  8
0
100
AcDbBlockReference
  2
*X28
 10
0.0
 20
0.0
 30
0.0
1001
ACAD
1000
HATCH
1002
{
1070
    19
1000
ANSI37
1040
0.15
1040
0.0
1000
ASC_BOUNDS
1070
     1
1070
     2
1070
     8
1005
15935
1005
15938
1005
1593C
1005
1593B
1005
1593A
1005
15937
1005
15939
1005
15936
1000
ASC_SEEDPOINT
1011
39.74896370716704
1021
4.484843821435049
1031
0.0
1000
R14_HATCH_DATA
1000
15954
1011
1.0
1021
0.0
1031
0.0
1011
0.0
1021
1.0
1031
0.0
1011
0.0
1021
0.0
1031
1.0
1040
0.0
1010
0.0
1020
0.0
1030
1.0
1000
ANSI37
1070
     0
1070
     1
1071
        1
1071
        7
1070
     0
1070
     1
1071
        9
1040
40.02599999995994
1040
5.341799999994635
1040
44.99999999995498
1040
-0.2368999999997641
1040
44.99999999995498
1040
8.763099999991255
1040
43.57899999995641
1040
8.763099999991255
1040
43.57899999995641
1040
3.421199999996588
1040
38.60499999996136
1040
8.999899999990987
1040
38.60499999996136
1040
8.999999999991019
1040
38.60499999996136
1040
0.0
1040
40.02599999995994
1040
0.0
1071
        8
1005
15935
1005
15938
1005
1593C
1005
1593B
1005
1593A
1005
15937
1005
15939
1005
15936
1070
     0
1070
     1
1040
0.0
1040
0.15
1070
     0
1070
     2
1040
0.7853981633974483
1040
49.29960901727088
1040
-10.17736998311392
1040
-0.3367596045400932
1040
0.3367596045400932
1070
     0
1040
2.356194490192345
1040
49.29960901727088
1040
-10.17736998311392
1040
-0.3367596045400932
1040
-0.3367596045400932
1070
     0
1040
0.0110235143455945
1071
        1
1040
39.74896370716704
1040
4.484843821435049
1040
0.0
1002
}
  0
INSERT
  5
15955
330
1590D
100
AcDbEntity
  8
0
100
AcDbBlockReference
  2
*X29
 10
0.0
 20
0.0
 30
0.0
1001
ACAD
1000
HATCH
1002
{
1070
    19
1000
ANSI37
1040
0.15
1040
0.0
1000
ASC_BOUNDS
1070
     1
1070
     2
1070
     4
1005
15919
1005
15928
1005
1591A
1005
1591C
1000
ASC_SEEDPOINT
1011
1.079051535452663
1021
4.148538732891836
1031
0.0
1000
R14_HATCH_DATA
1000
15955
1011
1.0
1021
0.0
1031
0.0
1011
0.0
1021
1.0
1031
0.0
1011
0.0
1021
0.0
1031
1.0
1040
0.0
1010
0.0
1020
0.0
1030
1.0
1000
ANSI37
1070
     0
1070
     1
1071
        1
1071
        7
1070
     0
1070
     1
1071
        4
1040
1.420999999998571
1040
0.0
1040
1.420999999998571
1040
8.763099999991255
1040
0.0
1040
8.763099999991255
1040
0.0
1040
0.0
1071
        4
1005
15919
1005
15928
1005
1591A
1005
1591C
1070
     0
1070
     1
1040
0.0
1040
0.15
1070
     0
1070
     2
1040
0.7853981633974483
1040
49.29960901727088
1040
-10.17736998311392
1040
-0.3367596045400932
1040
0.3367596045400932
1070
     0
1040
2.356194490192345
1040
49.29960901727088
1040
-10.17736998311392
1040
-0.3367596045400932
1040
-0.3367596045400932
1070
     0
1040
0.0053004257112761
1071
        1
1040
1.079051535452663
1040
4.148538732891836
1040
0.0
1002
}
  0
ENDBLK
  5
1600D
330
1590D
100
AcDbEntity
  8
0
100
AcDbBlockEnd
  0
BLOCK
  5
163A4
330
16216
100
AcDbEntity
  8
0
100
AcDbBlockBegin
  2
*X24
 70
     1
 10
0.0
 20
0.0
 30
0.0
  3
*X24
  1

  0
LINE
  5
16217
330
16216
100
AcDbEntity
  8
0
  6
CONTINUOUS
100
AcDbLine
 10
3.418023043697893
 20
7.251849696850613
 30
0.0
 11
4.929273346838536
 21
8.763099999991255
 31
0.0
  0
LINE
  5
16218
330
16216
100
AcDbEntity
  8
0
  6
CONTINUOUS
100
AcDbLine
 10
1.483656411257782
 20
4.643963855330318
 30
0.0
 11
5.60279255591872
 21
8.763099999991255
 31
0.0
  0
LINE
  5
16219
330
16216
100
AcDbEntity
  8
0
  6
CONTINUOUS
100
AcDbLine
 10
1.755053947328235
 20
4.241842182320584
 30
0.0
 11
6.276311764998907
 21
8.763099999991255
 31
0.0
  0
LINE
  5
1621A
330
16216
100
AcDbEntity
  8
0
  6
CONTINUOUS
100
AcDbLine
 10
2.026451483398688
 20
3.839720509310849
 30
0.0
 11
4.441040904851878
 21
6.254309930764039
 31
0.0
  0
LINE
  5
1621B
330
16216
100
AcDbEntity
  8
0
  6
CONTINUOUS
100
AcDbLine
 10
2.297849019469139
 20
3.437598836301114
 30
0.0
 11
3.321765168359338
 21
4.461514985191313
 31
0.0
  0
LINE
  5
1621C
330
16216
100
AcDbEntity
  8
0
  6
CONTINUOUS
100
AcDbLine
 10
2.569246555539591
 20
3.03547716329138
 30
0.0
 11
3.593163397972743
 21
4.059394005724531
 31
0.0
  0
LINE
  5
1621D
330
16216
100
AcDbEntity
  8
0
  6
CONTINUOUS
100
AcDbLine
 10
2.840644091610043
 20
2.633355490281646
 30
0.0
 11
3.864561627586149
 21
3.657273026257751
 31
0.0
  0
LINE
  5
1621E
330
16216
100
AcDbEntity
  8
0
  6
CONTINUOUS
100
AcDbLine
 10
3.112041627680496
 20
2.231233817271911
 30
0.0
 11
4.135959857199554
 21
3.25515204679097
 31
0.0
  0
LINE
  5
1621F
330
16216
100
AcDbEntity
  8
0
  6
CONTINUOUS
100
AcDbLine
 10
3.383439163750948
 20
1.829112144262177
 30
0.0
 11
4.40735808681296
 21
2.853031067324189
 31
0.0
  0
LINE
  5
16220
330
16216
100
AcDbEntity
  8
0
  6
CONTINUOUS
100
AcDbLine
 10
3.654836699821399
 20
1.426990471252442
 30
0.0
 11
4.678756316426365
 21
2.450910087857407
 31
0.0
  0
LINE
  5
16221
330
16216
100
AcDbEntity
  8
0
  6
CONTINUOUS
100
AcDbLine
 10
3.926234235891853
 20
1.024868798242709
 30
0.0
 11
4.95015454603977
 21
2.048789108390626
 31
0.0
  0
LINE
  5
16222
330
16216
100
AcDbEntity
  8
0
  6
CONTINUOUS
100
AcDbLine
 10
4.197631771962304
 20
0.6227471252329737
 30
0.0
 11
5.221552775653176
 21
1.646668128923846
 31
0.0
  0
LINE
  5
16223
330
16216
100
AcDbEntity
  8
0
  6
CONTINUOUS
100
AcDbLine
 10
8.715877546767851
 20
7.835069736359266
 30
0.0
 11
9.435953450375058
 21
8.555145639966472
 31
0.0
  0
LINE
  5
16224
330
16216
100
AcDbEntity
  8
0
  6
CONTINUOUS
100
AcDbLine
 10
8.170620868422267
 20
6.616293848933497
 30
0.0
 11
9.644120833743461
 21
8.08979381425469
 31
0.0
  0
LINE
  5
16225
330
16216
100
AcDbEntity
  8
0
  6
CONTINUOUS
100
AcDbLine
 10
7.625364190076684
 20
5.397517961507727
 30
0.0
 11
9.852288217111864
 21
7.624441988542907
 31
0.0
  0
LINE
  5
16226
330
16216
100
AcDbEntity
  8
0
  6
CONTINUOUS
100
AcDbLine
 10
7.080107511731101
 20
4.178742074081957
 30
0.0
 11
10.06045560048027
 21
7.159090162831124
 31
0.0
  0
LINE
  5
16227
330
16216
100
AcDbEntity
  8
0
  6
CONTINUOUS
100
AcDbLine
 10
6.534850833385518
 20
2.959966186656187
 30
0.0
 11
10.26862298384867
 21
6.693738337119342
 31
0.0
  0
LINE
  5
16228
330
16216
100
AcDbEntity
  8
0
  6
CONTINUOUS
100
AcDbLine
 10
4.469029308032756
 20
0.2206254522232385
 30
0.0
 11
5.492951005266582
 21
1.244547149457064
 31
0.0
  0
LINE
  5
16229
330
16216
100
AcDbEntity
  8
0
  6
CONTINUOUS
100
AcDbLine
 10
5.989594155039935
 20
1.741190299230417
 30
0.0
 11
8.806950407233131
 21
4.558546551423613
 31
0.0
  0
LINE
  5
1622A
330
16216
100
AcDbEntity
  8
0
  6
CONTINUOUS
100
AcDbLine
 10
9.401251593263643
 20
5.152847737454126
 30
0.0
 11
10.47679036721708
 21
6.228386511407559
 31
0.0
  0
LINE
  5
1622B
330
16216
100
AcDbEntity
  8
0
  6
CONTINUOUS
100
AcDbLine
 10
4.921837203428691
 20
-0.0000858614610131
 30
0.0
 11
8.592923064886001
 21
3.670999999996297
 31
0.0
  0
LINE
  5
1622C
330
16216
100
AcDbEntity
  8
0
  6
CONTINUOUS
100
AcDbLine
 10
9.609390446785305
 20
4.6874673818956
 30
0.0
 11
10.68495775058548
 21
5.763034685695775
 31
0.0
  0
LINE
  5
1622D
330
16216
100
AcDbEntity
  8
0
  6
CONTINUOUS
100
AcDbLine
 10
5.595387755019432
 20
-0.0000545189504582
 30
0.0
 11
7.716137258923768
 21
2.120694984953879
 31
0.0
  0
LINE
  5
1622E
330
16216
100
AcDbEntity
  8
0
  6
CONTINUOUS
100
AcDbLine
 10
6.268938306610172
 20
-0.000023176439905
 30
0.0
 11
7.170485805526503
 21
0.9015243224764267
 31
0.0
  0
LINE
  5
1622F
330
16216
100
AcDbEntity
  8
0
  6
CONTINUOUS
100
AcDbLine
 10
7.963842273967511
 20
2.368399999997621
 30
0.0
 11
9.266442273966188
 21
3.670999999996297
 31
0.0
  0
LINE
  5
16230
330
16216
100
AcDbEntity
  8
0
  6
CONTINUOUS
100
AcDbLine
 10
8.637361483047696
 20
2.368399999997621
 30
0.0
 11
9.939961483046375
 21
3.670999999996297
 31
0.0
  0
LINE
  5
16231
330
16216
100
AcDbEntity
  8
0
  6
CONTINUOUS
100
AcDbLine
 10
9.817529300306965
 20
4.222087026337075
 30
0.0
 11
10.89312513395388
 21
5.297682859983993
 31
0.0
  0
LINE
  5
16232
330
16216
100
AcDbEntity
  8
0
  6
CONTINUOUS
100
AcDbLine
 10
10.02566815382863
 20
3.756706670778549
 30
0.0
 11
11.10129251732229
 21
4.832331034272211
 31
0.0
  0
LINE
  5
16233
330
16216
100
AcDbEntity
  8
0
  6
CONTINUOUS
100
AcDbLine
 10
9.310880692127883
 20
2.368399999997621
 30
0.0
 11
11.30945990069069
 21
4.366979208560428
 31
0.0
  0
LINE
  5
16234
330
16216
100
AcDbEntity
  8
0
  6
CONTINUOUS
100
AcDbLine
 10
9.98439990120807
 20
2.36839999999762
 30
0.0
 11
11.5176272840591
 21
3.901627382848645
 31
0.0
  0
LINE
  5
16235
330
16216
100
AcDbEntity
  8
0
  6
CONTINUOUS
100
AcDbLine
 10
10.65037369446246
 20
2.36085458417182
 30
0.0
 11
11.7257946674275
 21
3.436275557136862
 31
0.0
  0
LINE
  5
16236
330
16216
100
AcDbEntity
  8
0
  6
CONTINUOUS
100
AcDbLine
 10
10.85847197087848
 20
1.895433651507656
 30
0.0
 11
11.9339620507959
 21
2.97092373142508
 31
0.0
  0
LINE
  5
16237
330
16216
100
AcDbEntity
  8
0
  6
CONTINUOUS
100
AcDbLine
 10
11.0665702472945
 20
1.430012718843491
 30
0.0
 11
12.14212943416431
 21
2.505571905713296
 31
0.0
  0
LINE
  5
16238
330
16216
100
AcDbEntity
  8
0
  6
CONTINUOUS
100
AcDbLine
 10
11.27466852371052
 20
0.9645917861793256
 30
0.0
 11
12.35029681753271
 21
2.040220080001513
 31
0.0
  0
LINE
  5
16239
330
16216
100
AcDbEntity
  8
0
  6
CONTINUOUS
100
AcDbLine
 10
11.48276680012654
 20
0.4991708535151611
 30
0.0
 11
12.55846420090111
 21
1.57486825428973
 31
0.0
  0
LINE
  5
1623A
330
16216
100
AcDbEntity
  8
0
  6
CONTINUOUS
100
AcDbLine
 10
11.69086507654257
 20
0.0337499208509957
 30
0.0
 11
12.76663158426952
 21
1.109516428577947
 31
0.0
  0
LINE
  5
1623B
330
16216
100
AcDbEntity
  8
0
  6
CONTINUOUS
100
AcDbLine
 10
12.33057447873954
 20
-0.0000598860322123
 30
0.0
 11
12.97479896763792
 21
0.6441646028661663
 31
0.0
  0
LINE
  5
1623C
330
16216
100
AcDbEntity
  8
0
  6
CONTINUOUS
100
AcDbLine
 10
13.00413694809395
 20
-0.0000166257579952
 30
0.0
 11
13.18296635100632
 21
0.1788127771543824
 31
0.0
  0
LINE
  5
1623D
330
16216
100
AcDbEntity
  8
0
  6
CONTINUOUS
100
AcDbLine
 10
4.772852165289667
 20
-0.000092794222212
 30
0.0
 11
4.296495091028902
 21
0.4762642800385528
 31
0.0
  0
LINE
  5
1623E
330
16216
100
AcDbEntity
  8
0
  6
CONTINUOUS
100
AcDbLine
 10
5.446340034776103
 20
-0.0000614546284616
 30
0.0
 11
2.898195908335625
 21
2.548082671812017
 31
0.0
  0
LINE
  5
1623F
330
16216
100
AcDbEntity
  8
0
  6
CONTINUOUS
100
AcDbLine
 10
6.119827904262539
 20
-0.0000301150347113
 30
0.0
 11
1.499896725642348
 21
4.61990106358548
 31
0.0
  0
LINE
  5
16240
330
16216
100
AcDbEntity
  8
0
  6
CONTINUOUS
100
AcDbLine
 10
6.775136745476159
 20
0.0181802528318542
 30
0.0
 11
5.699826040202669
 21
1.093490958105344
 31
0.0
  0
LINE
  5
16241
330
16216
100
AcDbEntity
  8
0
  6
CONTINUOUS
100
AcDbLine
 10
6.983376846288489
 20
0.4834593610997118
 30
0.0
 11
5.908008617934405
 21
1.558827589453796
 31
0.0
  0
LINE
  5
16242
330
16216
100
AcDbEntity
  8
0
  6
CONTINUOUS
100
AcDbLine
 10
5.377063484962296
 20
1.416253513345719
 30
0.0
 11
1.702276957014131
 21
5.091040041293883
 31
0.0
  0
LINE
  5
16243
330
16216
100
AcDbEntity
  8
0
  6
CONTINUOUS
100
AcDbLine
 10
3.978745891735324
 20
3.488090315652877
 30
0.0
 11
2.000373521109399
 21
5.466462686278803
 31
0.0
  0
LINE
  5
16244
330
16216
100
AcDbEntity
  8
0
  6
CONTINUOUS
100
AcDbLine
 10
7.191616947100819
 20
0.948738469367568
 30
0.0
 11
6.11619119566614
 21
2.024164220802247
 31
0.0
  0
LINE
  5
16245
330
16216
100
AcDbEntity
  8
0
  6
CONTINUOUS
100
AcDbLine
 10
7.399857047913149
 20
1.414017577635424
 30
0.0
 11
6.324373773397875
 21
2.489500852150698
 31
0.0
  0
LINE
  5
16246
330
16216
100
AcDbEntity
  8
0
  6
CONTINUOUS
100
AcDbLine
 10
7.608097148725479
 20
1.879296685903281
 30
0.0
 11
6.53255635112961
 21
2.95483748349915
 31
0.0
  0
LINE
  5
16247
330
16216
100
AcDbEntity
  8
0
  6
CONTINUOUS
100
AcDbLine
 10
7.816337249537808
 20
2.344575794171138
 30
0.0
 11
6.740738928861345
 21
3.420174114847601
 31
0.0
  0
LINE
  5
16248
330
16216
100
AcDbEntity
  8
0
  6
CONTINUOUS
100
AcDbLine
 10
3.310241080789734
 20
4.830114335678653
 30
0.0
 11
2.298470085204666
 21
5.84188533126372
 31
0.0
  0
LINE
  5
16249
330
16216
100
AcDbEntity
  8
0
  6
CONTINUOUS
100
AcDbLine
 10
3.60832983563551
 20
5.205544789913063
 30
0.0
 11
2.596566649299935
 21
6.217307976248638
 31
0.0
  0
LINE
  5
1624A
330
16216
100
AcDbEntity
  8
0
  6
CONTINUOUS
100
AcDbLine
 10
3.906418590481286
 20
5.580975244147473
 30
0.0
 11
2.894663213395203
 21
6.592730621233557
 31
0.0
  0
LINE
  5
1624B
330
16216
100
AcDbEntity
  8
0
  6
CONTINUOUS
100
AcDbLine
 10
4.204507345327062
 20
5.956405698381884
 30
0.0
 11
3.192759777490472
 21
6.968153266218474
 31
0.0
  0
LINE
  5
1624C
330
16216
100
AcDbEntity
  8
0
  6
CONTINUOUS
100
AcDbLine
 10
8.466032252791512
 20
2.368399999997621
 30
0.0
 11
6.948921506593081
 21
3.885510746196053
 31
0.0
  0
LINE
  5
1624D
330
16216
100
AcDbEntity
  8
0
  6
CONTINUOUS
100
AcDbLine
 10
9.139551461871699
 20
2.36839999999762
 30
0.0
 11
7.157104084324816
 21
4.350847377544504
 31
0.0
  0
LINE
  5
1624E
330
16216
100
AcDbEntity
  8
0
  6
CONTINUOUS
100
AcDbLine
 10
4.502596100172839
 20
6.331836152616295
 30
0.0
 11
3.49085634158574
 21
7.343575911203393
 31
0.0
  0
LINE
  5
1624F
330
16216
100
AcDbEntity
  8
0
  6
CONTINUOUS
100
AcDbLine
 10
4.800684855018615
 20
6.707266606850705
 30
0.0
 11
3.788952905681008
 21
7.718998556188312
 31
0.0
  0
LINE
  5
16250
330
16216
100
AcDbEntity
  8
0
  6
CONTINUOUS
100
AcDbLine
 10
12.18154012887317
 20
-0.0000694579236642
 30
0.0
 11
11.32140332908496
 21
0.8600673418645499
 31
0.0
  0
LINE
  5
16251
330
16216
100
AcDbEntity
  8
0
  6
CONTINUOUS
100
AcDbLine
 10
12.85501608323566
 20
-0.0000262032059659
 30
0.0
 11
10.77672456435345
 21
2.078265315676246
 31
0.0
  0
LINE
  5
16252
330
16216
100
AcDbEntity
  8
0
  6
CONTINUOUS
100
AcDbLine
 10
9.813070670951886
 20
2.36839999999762
 30
0.0
 11
8.51047067095321
 21
3.670999999996297
 31
0.0
  0
LINE
  5
16253
330
16216
100
AcDbEntity
  8
0
  6
CONTINUOUS
100
AcDbLine
 10
10.48658988003207
 20
2.36839999999762
 30
0.0
 11
9.183989880033396
 21
3.670999999996297
 31
0.0
  0
LINE
  5
16254
330
16216
100
AcDbEntity
  8
0
  6
CONTINUOUS
100
AcDbLine
 10
8.441048632286794
 20
3.740422038662712
 30
0.0
 11
7.365286662056551
 21
4.816184008892956
 31
0.0
  0
LINE
  5
16255
330
16216
100
AcDbEntity
  8
0
  6
CONTINUOUS
100
AcDbLine
 10
8.649187485808454
 20
4.205802394221237
 30
0.0
 11
7.573469239788285
 21
5.281520640241407
 31
0.0
  0
LINE
  5
16256
330
16216
100
AcDbEntity
  8
0
  6
CONTINUOUS
100
AcDbLine
 10
5.098773609864391
 20
7.082697061085115
 30
0.0
 11
4.087049469776277
 21
8.09442120117323
 31
0.0
  0
LINE
  5
16257
330
16216
100
AcDbEntity
  8
0
  6
CONTINUOUS
100
AcDbLine
 10
5.396862364710167
 20
7.458127515319526
 30
0.0
 11
4.385146033871544
 21
8.469843846158149
 31
0.0
  0
LINE
  5
16258
330
16216
100
AcDbEntity
  8
0
  6
CONTINUOUS
100
AcDbLine
 10
13.04801363231285
 20
0.4804954567970334
 30
0.0
 11
9.85750908911358
 21
3.670999999996297
 31
0.0
  0
LINE
  5
16259
330
16216
100
AcDbEntity
  8
0
  6
CONTINUOUS
100
AcDbLine
 10
8.857326339330116
 20
4.671182749779763
 30
0.0
 11
7.781651817520021
 21
5.746857271589858
 31
0.0
  0
LINE
  5
1625A
330
16216
100
AcDbEntity
  8
0
  6
CONTINUOUS
100
AcDbLine
 10
5.694951119555943
 20
7.833557969553937
 30
0.0
 11
4.765409089118624
 21
8.763099999991255
 31
0.0
  0
LINE
  5
1625B
330
16216
100
AcDbEntity
  8
0
  6
CONTINUOUS
100
AcDbLine
 10
12.50286117236978
 20
1.699167125820288
 30
0.0
 11
9.68611877250287
 21
4.515909525687196
 31
0.0
  0
LINE
  5
1625C
330
16216
100
AcDbEntity
  8
0
  6
CONTINUOUS
100
AcDbLine
 10
9.065465192851777
 20
5.136563105338288
 30
0.0
 11
7.989834395251757
 21
6.21219390293831
 31
0.0
  0
LINE
  5
1625D
330
16216
100
AcDbEntity
  8
0
  6
CONTINUOUS
100
AcDbLine
 10
5.993039874401719
 20
8.208988423788346
 30
0.0
 11
5.43892829819881
 21
8.763099999991255
 31
0.0
  0
LINE
  5
1625E
330
16216
100
AcDbEntity
  8
0
  6
CONTINUOUS
100
AcDbLine
 10
11.95770871242671
 20
2.917838794843543
 30
0.0
 11
8.19801697298349
 21
6.677530534286761
 31
0.0
  0
LINE
  5
1625F
330
16216
100
AcDbEntity
  8
0
  6
CONTINUOUS
100
AcDbLine
 10
6.291128629247495
 20
8.584418878022756
 30
0.0
 11
6.112447507278997
 21
8.763099999991255
 31
0.0
  0
LINE
  5
16260
330
16216
100
AcDbEntity
  8
0
  6
CONTINUOUS
100
AcDbLine
 10
11.41255625248364
 20
4.136510463866797
 30
0.0
 11
8.406199550715227
 21
7.142867165635211
 31
0.0
  0
LINE
  5
16261
330
16216
100
AcDbEntity
  8
0
  6
CONTINUOUS
100
AcDbLine
 10
10.86740379254057
 20
5.355182132890051
 30
0.0
 11
8.614382128446962
 21
7.608203796983664
 31
0.0
  0
LINE
  5
16262
330
16216
100
AcDbEntity
  8
0
  6
CONTINUOUS
100
AcDbLine
 10
10.3222513325975
 20
6.573853801913305
 30
0.0
 11
8.822564706178696
 21
8.073540428332114
 31
0.0
  0
LINE
  5
16263
330
16216
100
AcDbEntity
  8
0
  6
CONTINUOUS
100
AcDbLine
 10
9.777098872654436
 20
7.792525470936562
 30
0.0
 11
9.030747283910433
 21
8.538877059680566
 31
0.0
  0
ENDBLK
  5
163A5
330
16216
100
AcDbEntity
  8
0
100
AcDbBlockEnd
  0
BLOCK
  5
163A6
330
16264
100
AcDbEntity
  8
0
100
AcDbBlockBegin
  2
*X25
 70
     1
 10
0.0
 20
0.0
 30
0.0
  3
*X25
  1

  0
LINE
  5
16265
330
16264
100
AcDbEntity
  8
0
  6
CONTINUOUS
100
AcDbLine
 10
10.67292308101235
 20
8.445076852443387
 30
0.0
 11
10.99094622856022
 21
8.763099999991255
 31
0.0
  0
LINE
  5
16266
330
16264
100
AcDbEntity
  8
0
  6
CONTINUOUS
100
AcDbLine
 10
10.87250383178748
 20
7.971138394138331
 30
0.0
 11
11.6644654376404
 21
8.763099999991255
 31
0.0
  0
LINE
  5
16267
330
16264
100
AcDbEntity
  8
0
  6
CONTINUOUS
100
AcDbLine
 10
11.07208458256261
 20
7.497199935833273
 30
0.0
 11
12.12126590876355
 21
8.546381262034211
 31
0.0
  0
LINE
  5
16268
330
16264
100
AcDbEntity
  8
0
  6
CONTINUOUS
100
AcDbLine
 10
11.27166533333774
 20
7.023261477528216
 30
0.0
 11
12.32085164573666
 21
8.072447789927136
 31
0.0
  0
LINE
  5
16269
330
16264
100
AcDbEntity
  8
0
  6
CONTINUOUS
100
AcDbLine
 10
11.47124608411287
 20
6.549323019223158
 30
0.0
 11
12.52043738270977
 21
7.59851431782006
 31
0.0
  0
LINE
  5
1626A
330
16264
100
AcDbEntity
  8
0
  6
CONTINUOUS
100
AcDbLine
 10
11.670826834888
 20
6.075384560918101
 30
0.0
 11
12.72002311968288
 21
7.124580845712984
 31
0.0
  0
LINE
  5
1626B
330
16264
100
AcDbEntity
  8
0
  6
CONTINUOUS
100
AcDbLine
 10
11.87040758566313
 20
5.601446102613043
 30
0.0
 11
12.91960885665599
 21
6.650647373605907
 31
0.0
  0
LINE
  5
1626C
330
16264
100
AcDbEntity
  8
0
  6
CONTINUOUS
100
AcDbLine
 10
12.06998833643825
 20
5.127507644307986
 30
0.0
 11
13.1191945936291
 21
6.176713901498832
 31
0.0
  0
LINE
  5
1626D
330
16264
100
AcDbEntity
  8
0
  6
CONTINUOUS
100
AcDbLine
 10
12.26956908721338
 20
4.65356918600293
 30
0.0
 11
13.31878033060221
 21
5.702780429391757
 31
0.0
  0
LINE
  5
1626E
330
16264
100
AcDbEntity
  8
0
  6
CONTINUOUS
100
AcDbLine
 10
12.46914983798851
 20
4.179630727697873
 30
0.0
 11
13.51836606757532
 21
5.228846957284683
 31
0.0
  0
LINE
  5
1626F
330
16264
100
AcDbEntity
  8
0
  6
CONTINUOUS
100
AcDbLine
 10
12.66873058876364
 20
3.705692269392816
 30
0.0
 11
13.71795180454843
 21
4.754913485177607
 31
0.0
  0
LINE
  5
16270
330
16264
100
AcDbEntity
  8
0
  6
CONTINUOUS
100
AcDbLine
 10
12.86831133953877
 20
3.231753811087759
 30
0.0
 11
13.91753754152154
 21
4.280980013070531
 31
0.0
  0
LINE
  5
16271
330
16264
100
AcDbEntity
  8
0
  6
CONTINUOUS
100
AcDbLine
 10
13.0678920903139
 20
2.757815352782702
 30
0.0
 11
14.11712327849465
 21
3.807046540963456
 31
0.0
  0
LINE
  5
16272
330
16264
100
AcDbEntity
  8
0
  6
CONTINUOUS
100
AcDbLine
 10
13.26747284108903
 20
2.283876894477644
 30
0.0
 11
14.31670901546777
 21
3.333113068856379
 31
0.0
  0
LINE
  5
16273
330
16264
100
AcDbEntity
  8
0
  6
CONTINUOUS
100
AcDbLine
 10
16.36767838827179
 20
8.751678487061342
 30
0.0
 11
16.50332410898388
 21
8.887324207773432
 31
0.0
  0
LINE
  5
16274
330
16264
100
AcDbEntity
  8
0
  6
CONTINUOUS
100
AcDbLine
 10
15.96190732182191
 20
7.67238821153127
 30
0.0
 11
16.68735328004734
 21
8.397834169756699
 31
0.0
  0
LINE
  5
16275
330
16264
100
AcDbEntity
  8
0
  6
CONTINUOUS
100
AcDbLine
 10
15.55613625537202
 20
6.593097936001196
 30
0.0
 11
16.87138245111079
 21
7.908344131739965
 31
0.0
  0
LINE
  5
16276
330
16264
100
AcDbEntity
  8
0
  6
CONTINUOUS
100
AcDbLine
 10
15.15036518892213
 20
5.513807660471122
 30
0.0
 11
17.05541162217424
 21
7.418854093723231
 31
0.0
  0
LINE
  5
16277
330
16264
100
AcDbEntity
  8
0
  6
CONTINUOUS
100
AcDbLine
 10
14.74459412247225
 20
4.434517384941048
 30
0.0
 11
17.2394407932377
 21
6.929364055706499
 31
0.0
  0
LINE
  5
16278
330
16264
100
AcDbEntity
  8
0
  6
CONTINUOUS
100
AcDbLine
 10
14.33882305602236
 20
3.355227109410975
 30
0.0
 11
17.42346996430115
 21
6.439874017689766
 31
0.0
  0
LINE
  5
16279
330
16264
100
AcDbEntity
  8
0
  6
CONTINUOUS
100
AcDbLine
 10
13.46705359186416
 20
1.809938436172586
 30
0.0
 11
16.0819338255367
 21
4.424818669845129
 31
0.0
  0
LINE
  5
1627A
330
16264
100
AcDbEntity
  8
0
  6
CONTINUOUS
100
AcDbLine
 10
16.63283254238972
 20
4.975717386698149
 30
0.0
 11
17.60749913536461
 21
5.950383979673033
 31
0.0
  0
LINE
  5
1627B
330
16264
100
AcDbEntity
  8
0
  6
CONTINUOUS
100
AcDbLine
 10
13.66663434263929
 20
1.335999977867529
 30
0.0
 11
15.67604797733754
 21
3.345413612565779
 31
0.0
  0
LINE
  5
1627C
330
16264
100
AcDbEntity
  8
0
  6
CONTINUOUS
100
AcDbLine
 10
13.86621509341442
 20
0.8620615195624723
 30
0.0
 11
15.27016212913838
 21
2.26600855528643
 31
0.0
  0
LINE
  5
1627D
330
16264
100
AcDbEntity
  8
0
  6
CONTINUOUS
100
AcDbLine
 10
16.81682257348267
 20
4.486188208710908
 30
0.0
 11
17.79152830642806
 21
5.460893941656299
 31
0.0
  0
LINE
  5
1627E
330
16264
100
AcDbEntity
  8
0
  6
CONTINUOUS
100
AcDbLine
 10
17.00081260457561
 20
3.996659030723667
 30
0.0
 11
17.97555747749151
 21
4.971403903639565
 31
0.0
  0
LINE
  5
1627F
330
16264
100
AcDbEntity
  8
0
  6
CONTINUOUS
100
AcDbLine
 10
20.74362343514722
 20
8.412989070375462
 30
0.0
 11
21.09373436476302
 21
8.763099999991256
 31
0.0
  0
LINE
  5
16280
330
16264
100
AcDbEntity
  8
0
  6
CONTINUOUS
100
AcDbLine
 10
20.25401257174777
 20
7.249858997895826
 30
0.0
 11
21.7672535738432
 21
8.763099999991255
 31
0.0
  0
LINE
  5
16281
330
16264
100
AcDbEntity
  8
0
  6
CONTINUOUS
100
AcDbLine
 10
14.06579584418955
 20
0.3881230612574149
 30
0.0
 11
14.86427628093921
 21
1.186603498007082
 31
0.0
  0
LINE
  5
16282
330
16264
100
AcDbEntity
  8
0
  6
CONTINUOUS
100
AcDbLine
 10
14.26537659496467
 20
-0.0858153970476412
 30
0.0
 11
14.45839043274005
 21
0.1071984407277329
 31
0.0
  0
LINE
  5
16283
330
16264
100
AcDbEntity
  8
0
  6
CONTINUOUS
100
AcDbLine
 10
17.18480263566856
 20
3.507129852736426
 30
0.0
 11
18.15958664855496
 21
4.481913865622833
 31
0.0
  0
LINE
  5
16284
330
16264
100
AcDbEntity
  8
0
  6
CONTINUOUS
100
AcDbLine
 10
17.3687926667615
 20
3.017600674749186
 30
0.0
 11
18.34361581961842
 21
3.9924238276061
 31
0.0
  0
LINE
  5
16285
330
16264
100
AcDbEntity
  8
0
  6
CONTINUOUS
100
AcDbLine
 10
19.76440170834832
 20
6.086728925416191
 30
0.0
 11
22.33924590259489
 21
8.661573119662755
 31
0.0
  0
LINE
  5
16286
330
16264
100
AcDbEntity
  8
0
  6
CONTINUOUS
100
AcDbLine
 10
19.27479084494887
 20
4.923598852936555
 30
0.0
 11
21.84929622842713
 21
7.498104236414807
 31
0.0
  0
LINE
  5
16287
330
16264
100
AcDbEntity
  8
0
  6
CONTINUOUS
100
AcDbLine
 10
17.55278269785445
 20
2.528071496761945
 30
0.0
 11
18.52764499068187
 21
3.502933789589366
 31
0.0
  0
LINE
  5
16288
330
16264
100
AcDbEntity
  8
0
  6
CONTINUOUS
100
AcDbLine
 10
18.78517998154942
 20
3.760468780456919
 30
0.0
 11
21.35934655425936
 21
6.33463535316686
 31
0.0
  0
LINE
  5
16289
330
16264
100
AcDbEntity
  8
0
  6
CONTINUOUS
100
AcDbLine
 10
17.73677272894739
 20
2.038542318774704
 30
0.0
 11
20.8693968800916
 21
5.171166469918914
 31
0.0
  0
LINE
  5
1628A
330
16264
100
AcDbEntity
  8
0
  6
CONTINUOUS
100
AcDbLine
 10
17.92076276004034
 20
1.549013140787464
 30
0.0
 11
20.37944720592384
 21
4.007697586670968
 31
0.0
  0
LINE
  5
1628B
330
16264
100
AcDbEntity
  8
0
  6
CONTINUOUS
100
AcDbLine
 10
18.10475279113329
 20
1.059483962800223
 30
0.0
 11
19.88949753175608
 21
2.84422870342302
 31
0.0
  0
LINE
  5
1628C
330
16264
100
AcDbEntity
  8
0
  6
CONTINUOUS
100
AcDbLine
 10
18.28874282222623
 20
0.5699547848129822
 30
0.0
 11
19.39954785758832
 21
1.680759820175074
 31
0.0
  0
LINE
  5
1628D
330
16264
100
AcDbEntity
  8
0
  6
CONTINUOUS
100
AcDbLine
 10
18.47273285331918
 20
0.0804256068257416
 30
0.0
 11
18.90959818342056
 21
0.517290936927127
 31
0.0
  0
LINE
  5
1628E
330
16264
100
AcDbEntity
  8
0
  6
CONTINUOUS
100
AcDbLine
 10
14.3590401358224
 20
-0.1570118376323384
 30
0.0
 11
14.24903296539946
 21
-0.0470046672093929
 31
0.0
  0
LINE
  5
1628F
330
16264
100
AcDbEntity
  8
0
  6
CONTINUOUS
100
AcDbLine
 10
14.54309291258661
 20
0.332454594683643
 30
0.0
 11
13.75908329123172
 21
1.116464216038529
 31
0.0
  0
LINE
  5
16290
330
16264
100
AcDbEntity
  8
0
  6
CONTINUOUS
100
AcDbLine
 10
14.72714568935081
 20
0.8219210269996244
 30
0.0
 11
13.26913361706399
 21
2.27993309928645
 31
0.0
  0
LINE
  5
16291
330
16264
100
AcDbEntity
  8
0
  6
CONTINUOUS
100
AcDbLine
 10
14.91119846611502
 20
1.311387459315606
 30
0.0
 11
12.77918394289625
 21
3.443401982534371
 31
0.0
  0
LINE
  5
16292
330
16264
100
AcDbEntity
  8
0
  6
CONTINUOUS
100
AcDbLine
 10
15.09525124287922
 20
1.800853891631587
 30
0.0
 11
12.28923426872852
 21
4.606870865782293
 31
0.0
  0
LINE
  5
16293
330
16264
100
AcDbEntity
  8
0
  6
CONTINUOUS
100
AcDbLine
 10
15.27930401964343
 20
2.290320323947569
 30
0.0
 11
11.79928459456078
 21
5.770339749030213
 31
0.0
  0
LINE
  5
16294
330
16264
100
AcDbEntity
  8
0
  6
CONTINUOUS
100
AcDbLine
 10
15.46335679640763
 20
2.77978675626355
 30
0.0
 11
14.48885470994921
 21
3.754288842721972
 31
0.0
  0
LINE
  5
16295
330
16264
100
AcDbEntity
  8
0
  6
CONTINUOUS
100
AcDbLine
 10
13.88507249233704
 20
4.358071060334137
 30
0.0
 11
11.30933492039305
 21
6.933808632278135
 31
0.0
  0
LINE
  5
16296
330
16264
100
AcDbEntity
  8
0
  6
CONTINUOUS
100
AcDbLine
 10
18.75840522805855
 20
0.1582575336928151
 30
0.0
 11
18.25383727664818
 21
0.6628254851031863
 31
0.0
  0
LINE
  5
16297
330
16264
100
AcDbEntity
  8
0
  6
CONTINUOUS
100
AcDbLine
 10
15.64740957317184
 20
3.269253188579531
 30
0.0
 11
14.67288388101266
 21
4.243778880738705
 31
0.0
  0
LINE
  5
16298
330
16264
100
AcDbEntity
  8
0
  6
CONTINUOUS
100
AcDbLine
 10
13.39509276772158
 20
5.521569994029786
 30
0.0
 11
10.81938524622531
 21
8.097277515526056
 31
0.0
  0
LINE
  5
16299
330
16264
100
AcDbEntity
  8
0
  6
CONTINUOUS
100
AcDbLine
 10
18.95798597883369
 20
0.6321959919978686
 30
0.0
 11
17.84825644852853
 21
1.741925522303024
 31
0.0
  0
LINE
  5
1629A
330
16264
100
AcDbEntity
  8
0
  6
CONTINUOUS
100
AcDbLine
 10
19.15756672960882
 20
1.106134450302922
 30
0.0
 11
17.44267562040888
 21
2.821025559502861
 31
0.0
  0
LINE
  5
1629B
330
16264
100
AcDbEntity
  8
0
  6
CONTINUOUS
100
AcDbLine
 10
15.83146234993604
 20
3.758719620895513
 30
0.0
 11
14.85691305207612
 21
4.733268918755439
 31
0.0
  0
LINE
  5
1629C
330
16264
100
AcDbEntity
  8
0
  6
CONTINUOUS
100
AcDbLine
 10
16.01551512670025
 20
4.248186053211494
 30
0.0
 11
15.04094222313957
 21
5.222758956772172
 31
0.0
  0
LINE
  5
1629D
330
16264
100
AcDbEntity
  8
0
  6
CONTINUOUS
100
AcDbLine
 10
12.90511304310612
 20
6.685068927725435
 30
0.0
 11
10.8270819708403
 21
8.763099999991255
 31
0.0
  0
LINE
  5
1629E
330
16264
100
AcDbEntity
  8
0
  6
CONTINUOUS
100
AcDbLine
 10
12.41513331849066
 20
7.848567861421083
 30
0.0
 11
11.50060117992049
 21
8.763099999991255
 31
0.0
  0
LINE
  5
1629F
330
16264
100
AcDbEntity
  8
0
  6
CONTINUOUS
100
AcDbLine
 10
19.35714748038395
 20
1.580072908607975
 30
0.0
 11
17.03709479228923
 21
3.900125596702697
 31
0.0
  0
LINE
  5
162A0
330
16264
100
AcDbEntity
  8
0
  6
CONTINUOUS
100
AcDbLine
 10
19.55672823115909
 20
2.054011366913028
 30
0.0
 11
16.63151396416958
 21
4.979225633902534
 31
0.0
  0
LINE
  5
162A1
330
16264
100
AcDbEntity
  8
0
  6
CONTINUOUS
100
AcDbLine
 10
16.19956790346445
 20
4.737652485527476
 30
0.0
 11
15.22497139420302
 21
5.712248994788904
 31
0.0
  0
LINE
  5
162A2
330
16264
100
AcDbEntity
  8
0
  6
CONTINUOUS
100
AcDbLine
 10
16.38362068022866
 20
5.227118917843457
 30
0.0
 11
15.40900056526648
 21
6.201739032805637
 31
0.0
  0
LINE
  5
162A3
330
16264
100
AcDbEntity
  8
0
  6
CONTINUOUS
100
AcDbLine
 10
19.75630898193422
 20
2.527949825218081
 30
0.0
 11
18.70774536448286
 21
3.576513442669441
 31
0.0
  0
LINE
  5
162A4
330
16264
100
AcDbEntity
  8
0
  6
CONTINUOUS
100
AcDbLine
 10
19.95588973270936
 20
3.001888283523134
 30
0.0
 11
18.90726987211446
 21
4.050508144118028
 31
0.0
  0
LINE
  5
162A5
330
16264
100
AcDbEntity
  8
0
  6
CONTINUOUS
100
AcDbLine
 10
20.15547048348449
 20
3.475826741828186
 30
0.0
 11
19.10679437974606
 21
4.524502845566614
 31
0.0
  0
LINE
  5
162A6
330
16264
100
AcDbEntity
  8
0
  6
CONTINUOUS
100
AcDbLine
 10
20.35505123425962
 20
3.94976520013324
 30
0.0
 11
19.30631888737766
 21
4.998497547015201
 31
0.0
  0
LINE
  5
162A7
330
16264
100
AcDbEntity
  8
0
  6
CONTINUOUS
100
AcDbLine
 10
20.55463198503475
 20
4.423703658438292
 30
0.0
 11
19.50584339500926
 21
5.472492248463787
 31
0.0
  0
LINE
  5
162A8
330
16264
100
AcDbEntity
  8
0
  6
CONTINUOUS
100
AcDbLine
 10
18.37481191085755
 20
3.909446896294752
 30
0.0
 11
15.59302973632993
 21
6.691229070822371
 31
0.0
  0
LINE
  5
162A9
330
16264
100
AcDbEntity
  8
0
  6
CONTINUOUS
100
AcDbLine
 10
17.96904084440766
 20
4.988737171824825
 30
0.0
 11
15.77705890739338
 21
7.180719108839104
 31
0.0
  0
LINE
  5
162AA
330
16264
100
AcDbEntity
  8
0
  6
CONTINUOUS
100
AcDbLine
 10
17.56326977795777
 20
6.068027447354899
 30
0.0
 11
15.96108807845684
 21
7.670209146855838
 31
0.0
  0
LINE
  5
162AB
330
16264
100
AcDbEntity
  8
0
  6
CONTINUOUS
100
AcDbLine
 10
17.15749871150789
 20
7.147317722884972
 30
0.0
 11
16.14511724952029
 21
8.15969918487257
 31
0.0
  0
LINE
  5
162AC
330
16264
100
AcDbEntity
  8
0
  6
CONTINUOUS
100
AcDbLine
 10
16.751727645058
 20
8.226607998415046
 30
0.0
 11
16.32914642058374
 21
8.649189222889303
 31
0.0
  0
LINE
  5
162AD
330
16264
100
AcDbEntity
  8
0
  6
CONTINUOUS
100
AcDbLine
 10
20.75421273580989
 20
4.897642116743345
 30
0.0
 11
19.70536790264086
 21
5.946486949912374
 31
0.0
  0
LINE
  5
162AE
330
16264
100
AcDbEntity
  8
0
  6
CONTINUOUS
100
AcDbLine
 10
20.95379348658502
 20
5.371580575048398
 30
0.0
 11
19.90489241027246
 21
6.42048165136096
 31
0.0
  0
LINE
  5
162AF
330
16264
100
AcDbEntity
  8
0
  6
CONTINUOUS
100
AcDbLine
 10
21.15337423736015
 20
5.845519033353452
 30
0.0
 11
20.10441691790406
 21
6.894476352809547
 31
0.0
  0
LINE
  5
162B0
330
16264
100
AcDbEntity
  8
0
  6
CONTINUOUS
100
AcDbLine
 10
21.35295498813529
 20
6.319457491658505
 30
0.0
 11
20.30394142553566
 21
7.368471054258134
 31
0.0
  0
LINE
  5
162B1
330
16264
100
AcDbEntity
  8
0
  6
CONTINUOUS
100
AcDbLine
 10
21.55253573891042
 20
6.793395949963558
 30
0.0
 11
20.50346593316726
 21
7.842465755706721
 31
0.0
  0
LINE
  5
162B2
330
16264
100
AcDbEntity
  8
0
  6
CONTINUOUS
100
AcDbLine
 10
21.75211648968556
 20
7.267334408268612
 30
0.0
 11
20.70299044079886
 21
8.316460457155308
 31
0.0
  0
LINE
  5
162B3
330
16264
100
AcDbEntity
  8
0
  6
CONTINUOUS
100
AcDbLine
 10
21.95169724046069
 20
7.741272866573663
 30
0.0
 11
20.9298701070431
 21
8.763099999991256
 31
0.0
  0
LINE
  5
162B4
330
16264
100
AcDbEntity
  8
0
  6
CONTINUOUS
100
AcDbLine
 10
22.15127799123582
 20
8.215211324878716
 30
0.0
 11
21.60338931612328
 21
8.763099999991256
 31
0.0
  0
LINE
  5
162B5
330
16264
100
AcDbEntity
  8
0
  6
CONTINUOUS
100
AcDbLine
 10
22.35085874201096
 20
8.689149783183769
 30
0.0
 11
22.27690852520347
 21
8.763099999991255
 31
0.0
  0
ENDBLK
  5
163A7
330
16264
100
AcDbEntity
  8
0
100
AcDbBlockEnd
  0
BLOCK
  5
163A8
330
162B6
100
AcDbEntity
  8
0
100
AcDbBlockBegin
  2
*X26
 70
     1
 10
0.0
 20
0.0
 30
0.0
  3
*X26
  1

  0
LINE
  5
162B7
330
162B6
100
AcDbEntity
  8
0
  6
CONTINUOUS
100
AcDbLine
 10
23.19462913593892
 20
8.169917934846424
 30
0.0
 11
23.70775465517246
 21
8.683043454079957
 31
0.0
  0
LINE
  5
162B8
330
162B6
100
AcDbEntity
  8
0
  6
CONTINUOUS
100
AcDbLine
 10
22.64923161835078
 20
6.951001208178088
 30
0.0
 11
23.9159364069932
 21
8.217705996820516
 31
0.0
  0
LINE
  5
162B9
330
162B6
100
AcDbEntity
  8
0
  6
CONTINUOUS
100
AcDbLine
 10
22.10383410076263
 20
5.732084481509751
 30
0.0
 11
24.12411815881395
 21
7.752368539561078
 31
0.0
  0
LINE
  5
162BA
330
162B6
100
AcDbEntity
  8
0
  6
CONTINUOUS
100
AcDbLine
 10
21.55843658317447
 20
4.513167754841414
 30
0.0
 11
24.3322999106347
 21
7.287031082301639
 31
0.0
  0
LINE
  5
162BB
330
162B6
100
AcDbEntity
  8
0
  6
CONTINUOUS
100
AcDbLine
 10
21.01303906558632
 20
3.294251028173077
 30
0.0
 11
24.54048166245544
 21
6.821693625042199
 31
0.0
  0
LINE
  5
162BC
330
162B6
100
AcDbEntity
  8
0
  6
CONTINUOUS
100
AcDbLine
 10
20.46764154799817
 20
2.075334301504738
 30
0.0
 11
23.28571549467848
 21
4.89340824818505
 31
0.0
  0
LINE
  5
162BD
330
162B6
100
AcDbEntity
  8
0
  6
CONTINUOUS
100
AcDbLine
 10
19.92224403041002
 20
0.8564175748364002
 30
0.0
 11
22.74075865492779
 21
3.674932199354171
 31
0.0
  0
LINE
  5
162BE
330
162B6
100
AcDbEntity
  8
0
  6
CONTINUOUS
100
AcDbLine
 10
23.67305085490148
 20
5.280743608408048
 30
0.0
 11
24.74866341427619
 21
6.356356167782759
 31
0.0
  0
LINE
  5
162BF
330
162B6
100
AcDbEntity
  8
0
  6
CONTINUOUS
100
AcDbLine
 10
23.88118970842314
 20
4.815363252849522
 30
0.0
 11
24.95684516609694
 21
5.89101871052332
 31
0.0
  0
LINE
  5
162C0
330
162B6
100
AcDbEntity
  8
0
  6
CONTINUOUS
100
AcDbLine
 10
19.73925852647308
 20
-0.0000871381807288
 30
0.0
 11
23.4103456646501
 21
3.670999999996297
 31
0.0
  0
LINE
  5
162C1
330
162B6
100
AcDbEntity
  8
0
  6
CONTINUOUS
100
AcDbLine
 10
24.0893285619448
 20
4.349982897290997
 30
0.0
 11
25.16502691791769
 21
5.42568125326388
 31
0.0
  0
LINE
  5
162C2
330
162B6
100
AcDbEntity
  8
0
  6
CONTINUOUS
100
AcDbLine
 10
20.41282099582748
 20
-0.0000438779065108
 30
0.0
 11
21.64944178675636
 21
1.236576913022366
 31
0.0
  0
LINE
  5
162C3
330
162B6
100
AcDbEntity
  8
0
  6
CONTINUOUS
100
AcDbLine
 10
22.78126487373161
 20
2.36839999999762
 30
0.0
 11
24.08386487373029
 21
3.670999999996297
 31
0.0
  0
LINE
  5
162C4
330
162B6
100
AcDbEntity
  8
0
  6
CONTINUOUS
100
AcDbLine
 10
24.29746741546646
 20
3.884602541732471
 30
0.0
 11
25.37320866973843
 21
4.960343796004441
 31
0.0
  0
LINE
  5
162C5
330
162B6
100
AcDbEntity
  8
0
  6
CONTINUOUS
100
AcDbLine
 10
21.08638346518189
 20
-0.0000006176322938
 30
0.0
 11
21.10379033335899
 21
0.0174062505448083
 31
0.0
  0
LINE
  5
162C6
330
162B6
100
AcDbEntity
  8
0
  6
CONTINUOUS
100
AcDbLine
 10
23.4547840828118
 20
2.36839999999762
 30
0.0
 11
25.58139042155918
 21
4.495006338745002
 31
0.0
  0
LINE
  5
162C7
330
162B6
100
AcDbEntity
  8
0
  6
CONTINUOUS
100
AcDbLine
 10
29.30199999996933
 20
8.215615917155148
 30
0.0
 11
29.84948408280543
 21
8.763099999991255
 31
0.0
  0
LINE
  5
162C8
330
162B6
100
AcDbEntity
  8
0
  6
CONTINUOUS
100
AcDbLine
 10
24.12830329189199
 20
2.36839999999762
 30
0.0
 11
25.78957217337993
 21
4.029668881485562
 31
0.0
  0
LINE
  5
162C9
330
162B6
100
AcDbEntity
  8
0
  6
CONTINUOUS
100
AcDbLine
 10
29.30199999996933
 20
7.54209670807496
 30
0.0
 11
30.52300329188562
 21
8.763099999991255
 31
0.0
  0
LINE
  5
162CA
330
162B6
100
AcDbEntity
  8
0
  6
CONTINUOUS
100
AcDbLine
 10
24.80182250097217
 20
2.36839999999762
 30
0.0
 11
25.99775392520067
 21
3.564331424226122
 31
0.0
  0
LINE
  5
162CB
330
162B6
100
AcDbEntity
  8
0
  6
CONTINUOUS
100
AcDbLine
 10
29.30199999996933
 20
6.868577498994774
 30
0.0
 11
30.74199999996926
 21
8.308577498994712
 31
0.0
  0
LINE
  5
162CC
330
162B6
100
AcDbEntity
  8
0
  6
CONTINUOUS
100
AcDbLine
 10
25.13028238392013
 20
2.023340673865392
 30
0.0
 11
26.20593567702142
 21
3.098993966966683
 31
0.0
  0
LINE
  5
162CD
330
162B6
100
AcDbEntity
  8
0
  6
CONTINUOUS
100
AcDbLine
 10
25.33838066033617
 20
1.557919741201244
 30
0.0
 11
26.41411742884217
 21
2.633656509707244
 31
0.0
  0
LINE
  5
162CE
330
162B6
100
AcDbEntity
  8
0
  6
CONTINUOUS
100
AcDbLine
 10
25.54647893675221
 20
1.092498808537098
 30
0.0
 11
26.62229918066291
 21
2.168319052447804
 31
0.0
  0
LINE
  5
162CF
330
162B6
100
AcDbEntity
  8
0
  6
CONTINUOUS
100
AcDbLine
 10
25.75457721316825
 20
0.62707787587295
 30
0.0
 11
26.83048093248366
 21
1.702981595188365
 31
0.0
  0
LINE
  5
162D0
330
162B6
100
AcDbEntity
  8
0
  6
CONTINUOUS
100
AcDbLine
 10
29.30199999996933
 20
6.195058289914587
 30
0.0
 11
30.74199999996926
 21
7.635058289914522
 31
0.0
  0
LINE
  5
162D1
330
162B6
100
AcDbEntity
  8
0
  6
CONTINUOUS
100
AcDbLine
 10
29.30199999996933
 20
5.521539080834401
 30
0.0
 11
30.74199999996926
 21
6.961539080834331
 31
0.0
  0
LINE
  5
162D2
330
162B6
100
AcDbEntity
  8
0
  6
CONTINUOUS
100
AcDbLine
 10
29.30199999996933
 20
4.848019871754214
 30
0.0
 11
30.74199999996925
 21
6.288019871754143
 31
0.0
  0
LINE
  5
162D3
330
162B6
100
AcDbEntity
  8
0
  6
CONTINUOUS
100
AcDbLine
 10
29.30199999996933
 20
4.174500662674028
 30
0.0
 11
30.74199999996925
 21
5.614500662673953
 31
0.0
  0
LINE
  5
162D4
330
162B6
100
AcDbEntity
  8
0
  6
CONTINUOUS
100
AcDbLine
 10
25.96267548958429
 20
0.1616569432088024
 30
0.0
 11
27.18411854636669
 21
1.383099999991207
 31
0.0
  0
LINE
  5
162D5
330
162B6
100
AcDbEntity
  8
0
  6
CONTINUOUS
100
AcDbLine
 10
29.30199999996933
 20
3.500981453593841
 30
0.0
 11
30.74199999996925
 21
4.940981453593762
 31
0.0
  0
LINE
  5
162D6
330
162B6
100
AcDbEntity
  8
0
  6
CONTINUOUS
100
AcDbLine
 10
26.50763775544691
 20
0.0330999999912356
 30
0.0
 11
27.85763775544689
 21
1.383099999991223
 31
0.0
  0
LINE
  5
162D7
330
162B6
100
AcDbEntity
  8
0
  6
CONTINUOUS
100
AcDbLine
 10
29.30199999996933
 20
2.827462244513656
 30
0.0
 11
30.74199999996925
 21
4.267462244513574
 31
0.0
  0
LINE
  5
162D8
330
162B6
100
AcDbEntity
  8
0
  6
CONTINUOUS
100
AcDbLine
 10
27.18115696452709
 20
0.0330999999912356
 30
0.0
 11
28.55073879889363
 21
1.402681834357775
 31
0.0
  0
LINE
  5
162D9
330
162B6
100
AcDbEntity
  8
0
  6
CONTINUOUS
100
AcDbLine
 10
29.28241816560272
 20
2.134361201066866
 30
0.0
 11
30.74199999996924
 21
3.593943035433383
 31
0.0
  0
LINE
  5
162DA
330
162B6
100
AcDbEntity
  8
0
  6
CONTINUOUS
100
AcDbLine
 10
27.85467617360728
 20
0.0330999999912356
 30
0.0
 11
30.74199999996924
 21
2.920423826353195
 31
0.0
  0
LINE
  5
162DB
330
162B6
100
AcDbEntity
  8
0
  6
CONTINUOUS
100
AcDbLine
 10
28.53897559587887
 20
0.0438802131826428
 30
0.0
 11
30.73121978677781
 21
2.236124404081585
 31
0.0
  0
LINE
  5
162DC
330
162B6
100
AcDbEntity
  8
0
  6
CONTINUOUS
100
AcDbLine
 10
29.45140055588722
 20
0.2827859641107988
 30
0.0
 11
30.49231403584965
 21
1.323699444073236
 31
0.0
  0
LINE
  5
162DD
330
162B6
100
AcDbEntity
  8
0
  6
CONTINUOUS
100
AcDbLine
 10
19.59027867740337
 20
-0.0000967065718083
 30
0.0
 11
19.55485265190471
 21
0.035329318926844
 31
0.0
  0
LINE
  5
162DE
330
162B6
100
AcDbEntity
  8
0
  6
CONTINUOUS
100
AcDbLine
 10
20.26375463176586
 20
-0.0000534518541091
 30
0.0
 11
19.76305575737534
 21
0.5006454225364014
 31
0.0
  0
LINE
  5
162DF
330
162B6
100
AcDbEntity
  8
0
  6
CONTINUOUS
100
AcDbLine
 10
20.93723058612834
 20
-0.0000101971364099
 30
0.0
 11
19.97125886284597
 21
0.965961526145958
 31
0.0
  0
LINE
  5
162E0
330
162B6
100
AcDbEntity
  8
0
  6
CONTINUOUS
100
AcDbLine
 10
21.25514828313686
 20
0.355591314935257
 30
0.0
 11
20.1794619683166
 21
1.431277629755512
 31
0.0
  0
LINE
  5
162E1
330
162B6
100
AcDbEntity
  8
0
  6
CONTINUOUS
100
AcDbLine
 10
21.46338838394921
 20
0.8208704232030986
 30
0.0
 11
20.38766507378723
 21
1.896593733365069
 31
0.0
  0
LINE
  5
162E2
330
162B6
100
AcDbEntity
  8
0
  6
CONTINUOUS
100
AcDbLine
 10
21.67162848476155
 20
1.28614953147094
 30
0.0
 11
20.59586817925786
 21
2.361909836974626
 31
0.0
  0
LINE
  5
162E3
330
162B6
100
AcDbEntity
  8
0
  6
CONTINUOUS
100
AcDbLine
 10
21.8798685855739
 20
1.751428639738782
 30
0.0
 11
20.80407128472849
 21
2.827225940584183
 31
0.0
  0
LINE
  5
162E4
330
162B6
100
AcDbEntity
  8
0
  6
CONTINUOUS
100
AcDbLine
 10
22.08810868638624
 20
2.216707748006623
 30
0.0
 11
21.01227439019912
 21
3.292542044193739
 31
0.0
  0
LINE
  5
162E5
330
162B6
100
AcDbEntity
  8
0
  6
CONTINUOUS
100
AcDbLine
 10
22.60993564347543
 20
2.36839999999762
 30
0.0
 11
21.22047749566975
 21
3.757858147803296
 31
0.0
  0
LINE
  5
162E6
330
162B6
100
AcDbEntity
  8
0
  6
CONTINUOUS
100
AcDbLine
 10
23.28345485255561
 20
2.36839999999762
 30
0.0
 11
21.42868060114038
 21
4.223174251412853
 31
0.0
  0
LINE
  5
162E7
330
162B6
100
AcDbEntity
  8
0
  6
CONTINUOUS
100
AcDbLine
 10
26.29227406164219
 20
0.0330999999912356
 30
0.0
 11
25.80009199592872
 21
0.5252820657046957
 31
0.0
  0
LINE
  5
162E8
330
162B6
100
AcDbEntity
  8
0
  6
CONTINUOUS
100
AcDbLine
 10
23.9569740616358
 20
2.36839999999762
 30
0.0
 11
21.63688370661101
 21
4.688490355022409
 31
0.0
  0
LINE
  5
162E9
330
162B6
100
AcDbEntity
  8
0
  6
CONTINUOUS
100
AcDbLine
 10
26.96579327072237
 20
0.0330999999912356
 30
0.0
 11
25.2554132311971
 21
1.743480039516508
 31
0.0
  0
LINE
  5
162EA
330
162B6
100
AcDbEntity
  8
0
  6
CONTINUOUS
100
AcDbLine
 10
24.63049327071599
 20
2.36839999999762
 30
0.0
 11
23.32789327071731
 21
3.670999999996297
 31
0.0
  0
LINE
  5
162EB
330
162B6
100
AcDbEntity
  8
0
  6
CONTINUOUS
100
AcDbLine
 10
22.92098674744635
 20
4.077906523267254
 30
0.0
 11
21.84508681208164
 21
5.153806458631966
 31
0.0
  0
LINE
  5
162EC
330
162B6
100
AcDbEntity
  8
0
  6
CONTINUOUS
100
AcDbLine
 10
27.63931247980256
 20
0.0330999999912356
 30
0.0
 11
24.0014124797975
 21
3.670999999996297
 31
0.0
  0
LINE
  5
162ED
330
162B6
100
AcDbEntity
  8
0
  6
CONTINUOUS
100
AcDbLine
 10
23.129125600968
 20
4.5432868788258
 30
0.0
 11
22.05328991755227
 21
5.619122562241522
 31
0.0
  0
LINE
  5
162EE
330
162B6
100
AcDbEntity
  8
0
  6
CONTINUOUS
100
AcDbLine
 10
28.31283168888275
 20
0.0330999999912356
 30
0.0
 11
24.16488385994816
 21
4.181047828925828
 31
0.0
  0
LINE
  5
162EF
330
162B6
100
AcDbEntity
  8
0
  6
CONTINUOUS
100
AcDbLine
 10
23.33726445448964
 20
5.008667234384345
 30
0.0
 11
22.2614930230229
 21
6.084438665851079
 31
0.0
  0
LINE
  5
162F0
330
162B6
100
AcDbEntity
  8
0
  6
CONTINUOUS
100
AcDbLine
 10
28.92085740005492
 20
0.0985934978992438
 30
0.0
 11
27.63635089796295
 21
1.383099999991217
 31
0.0
  0
LINE
  5
162F1
330
162B6
100
AcDbEntity
  8
0
  6
CONTINUOUS
100
AcDbLine
 10
26.43704649509776
 20
2.582404402856405
 30
0.0
 11
23.61992702019732
 21
5.399523877756844
 31
0.0
  0
LINE
  5
162F2
330
162B6
100
AcDbEntity
  8
0
  6
CONTINUOUS
100
AcDbLine
 10
23.54540330801128
 20
5.47404758994289
 30
0.0
 11
22.46969612849353
 21
6.549754769460635
 31
0.0
  0
LINE
  5
162F3
330
162B6
100
AcDbEntity
  8
0
  6
CONTINUOUS
100
AcDbLine
 10
29.42225615078443
 20
0.2707139562499279
 30
0.0
 11
28.30987010704312
 21
1.383099999991234
 31
0.0
  0
LINE
  5
162F4
330
162B6
100
AcDbEntity
  8
0
  6
CONTINUOUS
100
AcDbLine
 10
25.89179548232307
 20
3.801174624711282
 30
0.0
 11
22.67789923396416
 21
7.015070873070191
 31
0.0
  0
LINE
  5
162F5
330
162B6
100
AcDbEntity
  8
0
  6
CONTINUOUS
100
AcDbLine
 10
29.83624534690007
 20
0.5302439692144705
 30
0.0
 11
28.85811781497101
 21
1.508371501143527
 31
0.0
  0
LINE
  5
162F6
330
162B6
100
AcDbEntity
  8
0
  6
CONTINUOUS
100
AcDbLine
 10
25.34654446954838
 20
5.01994484656616
 30
0.0
 11
22.88610233943479
 21
7.480386976679748
 31
0.0
  0
LINE
  5
162F7
330
162B6
100
AcDbEntity
  8
0
  6
CONTINUOUS
100
AcDbLine
 10
30.17865975401872
 20
0.8613487711760022
 30
0.0
 11
29.18888744090175
 21
1.851121084292977
 31
0.0
  0
LINE
  5
162F8
330
162B6
100
AcDbEntity
  8
0
  6
CONTINUOUS
100
AcDbLine
 10
24.80129345677369
 20
6.238715068421037
 30
0.0
 11
23.09430544490542
 21
7.945703080289305
 31
0.0
  0
LINE
  5
162F9
330
162B6
100
AcDbEntity
  8
0
  6
CONTINUOUS
100
AcDbLine
 10
30.45496647202376
 20
1.258561262251155
 30
0.0
 11
29.30199999996933
 21
2.411527734305588
 31
0.0
  0
LINE
  5
162FA
330
162B6
100
AcDbEntity
  8
0
  6
CONTINUOUS
100
AcDbLine
 10
24.256042443999
 20
7.457485290275915
 30
0.0
 11
23.30250855037605
 21
8.411019183898862
 31
0.0
  0
LINE
  5
162FB
330
162B6
100
AcDbEntity
  8
0
  6
CONTINUOUS
100
AcDbLine
 10
30.64868582078271
 20
1.738361122572387
 30
0.0
 11
29.30199999996933
 21
3.085046943385775
 31
0.0
  0
LINE
  5
162FC
330
162B6
100
AcDbEntity
  8
0
  6
CONTINUOUS
100
AcDbLine
 10
23.71079143122431
 20
8.676255512130794
 30
0.0
 11
23.51071165584668
 21
8.876335287508416
 31
0.0
  0
LINE
  5
162FD
330
162B6
100
AcDbEntity
  8
0
  6
CONTINUOUS
100
AcDbLine
 10
30.73802122914428
 20
2.322544923291007
 30
0.0
 11
29.30199999996933
 21
3.758566152465961
 31
0.0
  0
LINE
  5
162FE
330
162B6
100
AcDbEntity
  8
0
  6
CONTINUOUS
100
AcDbLine
 10
30.74199999996924
 20
2.992085361546236
 30
0.0
 11
29.30199999996933
 21
4.432085361546148
 31
0.0
  0
LINE
  5
162FF
330
162B6
100
AcDbEntity
  8
0
  6
CONTINUOUS
100
AcDbLine
 10
30.74199999996924
 20
3.665604570626419
 30
0.0
 11
29.30199999996933
 21
5.105604570626333
 31
0.0
  0
LINE
  5
16300
330
162B6
100
AcDbEntity
  8
0
  6
CONTINUOUS
100
AcDbLine
 10
30.74199999996925
 20
4.339123779706602
 30
0.0
 11
29.30199999996933
 21
5.77912377970652
 31
0.0
  0
LINE
  5
16301
330
162B6
100
AcDbEntity
  8
0
  6
CONTINUOUS
100
AcDbLine
 10
30.74199999996925
 20
5.012642988786785
 30
0.0
 11
29.30199999996933
 21
6.452642988786707
 31
0.0
  0
LINE
  5
16302
330
162B6
100
AcDbEntity
  8
0
  6
CONTINUOUS
100
AcDbLine
 10
30.74199999996925
 20
5.68616219786697
 30
0.0
 11
29.30199999996933
 21
7.126162197866894
 31
0.0
  0
LINE
  5
16303
330
162B6
100
AcDbEntity
  8
0
  6
CONTINUOUS
100
AcDbLine
 10
30.74199999996925
 20
6.359681406947153
 30
0.0
 11
29.30199999996933
 21
7.799681406947081
 31
0.0
  0
LINE
  5
16304
330
162B6
100
AcDbEntity
  8
0
  6
CONTINUOUS
100
AcDbLine
 10
30.74199999996926
 20
7.033200616027337
 30
0.0
 11
29.30199999996933
 21
8.473200616027269
 31
0.0
  0
LINE
  5
16305
330
162B6
100
AcDbEntity
  8
0
  6
CONTINUOUS
100
AcDbLine
 10
30.74199999996926
 20
7.706719825107518
 30
0.0
 11
29.68561982508552
 21
8.763099999991255
 31
0.0
  0
LINE
  5
16306
330
162B6
100
AcDbEntity
  8
0
  6
CONTINUOUS
100
AcDbLine
 10
30.74199999996926
 20
8.380239034187703
 30
0.0
 11
30.35913903416571
 21
8.763099999991255
 31
0.0
  0
ENDBLK
  5
163A9
330
162B6
100
AcDbEntity
  8
0
100
AcDbBlockEnd
  0
BLOCK
  5
163AA
330
16307
100
AcDbEntity
  8
0
100
AcDbBlockBegin
  2
*X27
 70
     1
 10
0.0
 20
0.0
 30
0.0
  3
*X27
  1

  0
LINE
  5
16308
330
16307
100
AcDbEntity
  8
0
  6
CONTINUOUS
100
AcDbLine
 10
31.64199999996833
 20
8.535058289913598
 30
0.0
 11
31.87004171004599
 21
8.763099999991255
 31
0.0
  0
LINE
  5
16309
330
16307
100
AcDbEntity
  8
0
  6
CONTINUOUS
100
AcDbLine
 10
31.64199999996833
 20
7.861539080833412
 30
0.0
 11
32.54356091912618
 21
8.763099999991255
 31
0.0
  0
LINE
  5
1630A
330
16307
100
AcDbEntity
  8
0
  6
CONTINUOUS
100
AcDbLine
 10
31.64199999996833
 20
7.188019871753226
 30
0.0
 11
33.08199999996839
 21
8.628019871753281
 31
0.0
  0
LINE
  5
1630B
330
16307
100
AcDbEntity
  8
0
  6
CONTINUOUS
100
AcDbLine
 10
31.64199999996833
 20
6.51450066267304
 30
0.0
 11
33.08199999996839
 21
7.954500662673095
 31
0.0
  0
LINE
  5
1630C
330
16307
100
AcDbEntity
  8
0
  6
CONTINUOUS
100
AcDbLine
 10
31.64199999996833
 20
5.840981453592853
 30
0.0
 11
33.08199999996839
 21
7.280981453592908
 31
0.0
  0
LINE
  5
1630D
330
16307
100
AcDbEntity
  8
0
  6
CONTINUOUS
100
AcDbLine
 10
31.64199999996833
 20
5.167462244512667
 30
0.0
 11
33.08199999996839
 21
6.607462244512721
 31
0.0
  0
LINE
  5
1630E
330
16307
100
AcDbEntity
  8
0
  6
CONTINUOUS
100
AcDbLine
 10
31.64199999996833
 20
4.493943035432481
 30
0.0
 11
33.08199999996839
 21
5.933943035432535
 31
0.0
  0
LINE
  5
1630F
330
16307
100
AcDbEntity
  8
0
  6
CONTINUOUS
100
AcDbLine
 10
31.64199999996833
 20
3.820423826352293
 30
0.0
 11
33.08199999996839
 21
5.260423826352348
 31
0.0
  0
LINE
  5
16310
330
16307
100
AcDbEntity
  8
0
  6
CONTINUOUS
100
AcDbLine
 10
31.64199999996833
 20
3.146904617272106
 30
0.0
 11
33.08199999996839
 21
4.586904617272161
 31
0.0
  0
LINE
  5
16311
330
16307
100
AcDbEntity
  8
0
  6
CONTINUOUS
100
AcDbLine
 10
36.23199999996837
 20
8.410423826352325
 30
0.0
 11
36.5846761736073
 21
8.763099999991255
 31
0.0
  0
LINE
  5
16312
330
16307
100
AcDbEntity
  8
0
  6
CONTINUOUS
100
AcDbLine
 10
36.23199999996837
 20
7.73690461727214
 30
0.0
 11
37.25819538268748
 21
8.763099999991255
 31
0.0
  0
LINE
  5
16313
330
16307
100
AcDbEntity
  8
0
  6
CONTINUOUS
100
AcDbLine
 10
31.64257403601376
 20
2.473959444237348
 30
0.0
 11
33.08199999996839
 21
3.913385408191974
 31
0.0
  0
LINE
  5
16314
330
16307
100
AcDbEntity
  8
0
  6
CONTINUOUS
100
AcDbLine
 10
36.23199999996837
 20
7.063385408191953
 30
0.0
 11
37.67199999996831
 21
8.503385408191894
 31
0.0
  0
LINE
  5
16315
330
16307
100
AcDbEntity
  8
0
  6
CONTINUOUS
100
AcDbLine
 10
31.72013636841932
 20
1.87800256756272
 30
0.0
 11
33.08199999996839
 21
3.239866199111788
 31
0.0
  0
LINE
  5
16316
330
16307
100
AcDbEntity
  8
0
  6
CONTINUOUS
100
AcDbLine
 10
36.23199999996837
 20
6.389866199111767
 30
0.0
 11
37.67199999996831
 21
7.829866199111708
 31
0.0
  0
LINE
  5
16317
330
16307
100
AcDbEntity
  8
0
  6
CONTINUOUS
100
AcDbLine
 10
31.89042734314753
 20
1.374774333210744
 30
0.0
 11
33.08199999996839
 21
2.566346990031601
 31
0.0
  0
LINE
  5
16318
330
16307
100
AcDbEntity
  8
0
  6
CONTINUOUS
100
AcDbLine
 10
36.23199999996837
 20
5.71634699003158
 30
0.0
 11
37.67199999996831
 21
7.156346990031521
 31
0.0
  0
LINE
  5
16319
330
16307
100
AcDbEntity
  8
0
  6
CONTINUOUS
100
AcDbLine
 10
32.14210568064475
 20
0.952933461627778
 30
0.0
 11
33.18745552475986
 21
1.998283305742888
 31
0.0
  0
LINE
  5
1631A
330
16307
100
AcDbEntity
  8
0
  6
CONTINUOUS
100
AcDbLine
 10
36.23199999996837
 20
5.042827780951393
 30
0.0
 11
37.67199999996831
 21
6.482827780951334
 31
0.0
  0
LINE
  5
1631B
330
16307
100
AcDbEntity
  8
0
  6
CONTINUOUS
100
AcDbLine
 10
32.45820639400955
 20
0.5955149659123915
 30
0.0
 11
33.47242681921943
 21
1.60973539112227
 31
0.0
  0
LINE
  5
1631C
330
16307
100
AcDbEntity
  8
0
  6
CONTINUOUS
100
AcDbLine
 10
36.23199999996837
 20
4.369308571871207
 30
0.0
 11
37.67199999996831
 21
5.809308571871147
 31
0.0
  0
LINE
  5
1631D
330
16307
100
AcDbEntity
  8
0
  6
CONTINUOUS
100
AcDbLine
 10
32.83432456621412
 20
0.2981139290367771
 30
0.0
 11
33.89722476612215
 21
1.361014128944803
 31
0.0
  0
LINE
  5
1631E
330
16307
100
AcDbEntity
  8
0
  6
CONTINUOUS
100
AcDbLine
 10
36.23199999996837
 20
3.69578936279102
 30
0.0
 11
37.67199999996831
 21
5.135789362790962
 31
0.0
  0
LINE
  5
1631F
330
16307
100
AcDbEntity
  8
0
  6
CONTINUOUS
100
AcDbLine
 10
33.2711633111245
 20
0.0614334648669672
 30
0.0
 11
34.43247338014423
 21
1.222743533886696
 31
0.0
  0
LINE
  5
16320
330
16307
100
AcDbEntity
  8
0
  6
CONTINUOUS
100
AcDbLine
 10
36.23199999996837
 20
3.022270153710834
 30
0.0
 11
37.67199999996831
 21
4.462270153710775
 31
0.0
  0
LINE
  5
16321
330
16307
100
AcDbEntity
  8
0
  6
CONTINUOUS
100
AcDbLine
 10
33.76515245874577
 20
-0.1180965965919523
 30
0.0
 11
35.1587445516215
 21
1.27549549628378
 31
0.0
  0
LINE
  5
16322
330
16307
100
AcDbEntity
  8
0
  6
CONTINUOUS
100
AcDbLine
 10
36.21639478609585
 20
2.333145730758136
 30
0.0
 11
37.67199999996831
 21
3.788750944630588
 31
0.0
  0
LINE
  5
16323
330
16307
100
AcDbEntity
  8
0
  6
CONTINUOUS
100
AcDbLine
 10
34.34060583368432
 20
-0.2161624307335863
 30
0.0
 11
37.67199999996831
 21
3.115231735550401
 31
0.0
  0
LINE
  5
16324
330
16307
100
AcDbEntity
  8
0
  6
CONTINUOUS
100
AcDbLine
 10
35.01698193613905
 20
-0.2133055373590427
 30
0.0
 11
37.66876712070525
 21
2.438479647207154
 31
0.0
  0
LINE
  5
16325
330
16307
100
AcDbEntity
  8
0
  6
CONTINUOUS
100
AcDbLine
 10
35.90743367693304
 20
0.0036269943547609
 30
0.0
 11
37.51723902192366
 21
1.613432339345381
 31
0.0
  0
LINE
  5
16326
330
16307
100
AcDbEntity
  8
0
  6
CONTINUOUS
100
AcDbLine
 10
32.55309425579761
 20
0.5074718966376706
 30
0.0
 11
32.27784730925847
 21
0.7827188431768102
 31
0.0
  0
LINE
  5
16327
330
16307
100
AcDbEntity
  8
0
  6
CONTINUOUS
100
AcDbLine
 10
33.87496468909684
 20
-0.1408793275813673
 30
0.0
 11
31.67993083278052
 21
2.054154528734943
 31
0.0
  0
LINE
  5
16328
330
16307
100
AcDbEntity
  8
0
  6
CONTINUOUS
100
AcDbLine
 10
34.64362813207632
 20
-0.2360235614806649
 30
0.0
 11
31.64199999996833
 21
2.765604570627322
 31
0.0
  0
LINE
  5
16329
330
16307
100
AcDbEntity
  8
0
  6
CONTINUOUS
100
AcDbLine
 10
35.25801106796118
 20
-0.1768872882853429
 30
0.0
 11
31.64199999996833
 21
3.439123779707508
 31
0.0
  0
LINE
  5
1632A
330
16307
100
AcDbEntity
  8
0
  6
CONTINUOUS
100
AcDbLine
 10
35.79065650332146
 20
-0.0360135145654361
 30
0.0
 11
34.54143210838231
 21
1.213210880373721
 31
0.0
  0
LINE
  5
1632B
330
16307
100
AcDbEntity
  8
0
  6
CONTINUOUS
100
AcDbLine
 10
33.08199999996839
 20
2.67264298878764
 30
0.0
 11
31.64199999996833
 21
4.112642988787695
 31
0.0
  0
LINE
  5
1632C
330
16307
100
AcDbEntity
  8
0
  6
CONTINUOUS
100
AcDbLine
 10
36.25975597779143
 20
0.1684062200447833
 30
0.0
 11
35.15395110240023
 21
1.274211095435983
 31
0.0
  0
LINE
  5
1632D
330
16307
100
AcDbEntity
  8
0
  6
CONTINUOUS
100
AcDbLine
 10
33.08199999996839
 20
3.346162197867826
 30
0.0
 11
31.64199999996833
 21
4.786162197867881
 31
0.0
  0
LINE
  5
1632E
330
16307
100
AcDbEntity
  8
0
  6
CONTINUOUS
100
AcDbLine
 10
36.67226329638774
 20
0.4294181105286579
 30
0.0
 11
35.63766478748767
 21
1.464016619428737
 31
0.0
  0
LINE
  5
1632F
330
16307
100
AcDbEntity
  8
0
  6
CONTINUOUS
100
AcDbLine
 10
33.08199999996839
 20
4.019681406948012
 30
0.0
 11
31.64199999996833
 21
5.459681406948068
 31
0.0
  0
LINE
  5
16330
330
16307
100
AcDbEntity
  8
0
  6
CONTINUOUS
100
AcDbLine
 10
37.01677749710036
 20
0.7584231188962329
 30
0.0
 11
35.99563422741351
 21
1.779566388583076
 31
0.0
  0
LINE
  5
16331
330
16307
100
AcDbEntity
  8
0
  6
CONTINUOUS
100
AcDbLine
 10
33.08199999996839
 20
4.693200616028199
 30
0.0
 11
31.64199999996833
 21
6.133200616028255
 31
0.0
  0
LINE
  5
16332
330
16307
100
AcDbEntity
  8
0
  6
CONTINUOUS
100
AcDbLine
 10
37.29859977568887
 20
1.1501200493879
 30
0.0
 11
36.20680593341555
 21
2.241913891661226
 31
0.0
  0
LINE
  5
16333
330
16307
100
AcDbEntity
  8
0
  6
CONTINUOUS
100
AcDbLine
 10
33.08199999996839
 20
5.366719825108386
 30
0.0
 11
31.64199999996833
 21
6.80671982510844
 31
0.0
  0
LINE
  5
16334
330
16307
100
AcDbEntity
  8
0
  6
CONTINUOUS
100
AcDbLine
 10
37.5148623517228
 20
1.607376682434161
 30
0.0
 11
36.23199999996837
 21
2.890239034188594
 31
0.0
  0
LINE
  5
16335
330
16307
100
AcDbEntity
  8
0
  6
CONTINUOUS
100
AcDbLine
 10
33.08199999996839
 20
6.040239034188573
 30
0.0
 11
31.64199999996833
 21
7.480239034188627
 31
0.0
  0
LINE
  5
16336
330
16307
100
AcDbEntity
  8
0
  6
CONTINUOUS
100
AcDbLine
 10
37.64705163358367
 20
2.148706609653477
 30
0.0
 11
36.23199999996837
 21
3.56375824326878
 31
0.0
  0
LINE
  5
16337
330
16307
100
AcDbEntity
  8
0
  6
CONTINUOUS
100
AcDbLine
 10
33.08199999996839
 20
6.713758243268758
 30
0.0
 11
31.64199999996833
 21
8.153758243268815
 31
0.0
  0
LINE
  5
16338
330
16307
100
AcDbEntity
  8
0
  6
CONTINUOUS
100
AcDbLine
 10
37.67199999996831
 20
2.797277452349026
 30
0.0
 11
36.23199999996837
 21
4.237277452348967
 31
0.0
  0
LINE
  5
16339
330
16307
100
AcDbEntity
  8
0
  6
CONTINUOUS
100
AcDbLine
 10
37.67199999996831
 20
3.470796661429213
 30
0.0
 11
36.23199999996837
 21
4.910796661429154
 31
0.0
  0
LINE
  5
1633A
330
16307
100
AcDbEntity
  8
0
  6
CONTINUOUS
100
AcDbLine
 10
37.67199999996831
 20
4.144315870509399
 30
0.0
 11
36.23199999996837
 21
5.58431587050934
 31
0.0
  0
LINE
  5
1633B
330
16307
100
AcDbEntity
  8
0
  6
CONTINUOUS
100
AcDbLine
 10
33.08199999996839
 20
7.387277452348945
 30
0.0
 11
31.70617745232608
 21
8.763099999991255
 31
0.0
  0
LINE
  5
1633C
330
16307
100
AcDbEntity
  8
0
  6
CONTINUOUS
100
AcDbLine
 10
33.08199999996839
 20
8.060796661429132
 30
0.0
 11
32.37969666140626
 21
8.763099999991255
 31
0.0
  0
LINE
  5
1633D
330
16307
100
AcDbEntity
  8
0
  6
CONTINUOUS
100
AcDbLine
 10
33.08199999996839
 20
8.734315870509318
 30
0.0
 11
33.05321587048645
 21
8.763099999991255
 31
0.0
  0
LINE
  5
1633E
330
16307
100
AcDbEntity
  8
0
  6
CONTINUOUS
100
AcDbLine
 10
37.67199999996831
 20
4.817835079589585
 30
0.0
 11
36.23199999996837
 21
6.257835079589526
 31
0.0
  0
LINE
  5
1633F
330
16307
100
AcDbEntity
  8
0
  6
CONTINUOUS
100
AcDbLine
 10
37.67199999996831
 20
5.491354288669771
 30
0.0
 11
36.23199999996837
 21
6.931354288669713
 31
0.0
  0
LINE
  5
16340
330
16307
100
AcDbEntity
  8
0
  6
CONTINUOUS
100
AcDbLine
 10
37.67199999996831
 20
6.164873497749958
 30
0.0
 11
36.23199999996837
 21
7.6048734977499
 31
0.0
  0
LINE
  5
16341
330
16307
100
AcDbEntity
  8
0
  6
CONTINUOUS
100
AcDbLine
 10
37.67199999996831
 20
6.838392706830144
 30
0.0
 11
36.23199999996837
 21
8.278392706830086
 31
0.0
  0
LINE
  5
16342
330
16307
100
AcDbEntity
  8
0
  6
CONTINUOUS
100
AcDbLine
 10
37.67199999996831
 20
7.511911915910332
 30
0.0
 11
36.42081191588738
 21
8.763099999991255
 31
0.0
  0
LINE
  5
16343
330
16307
100
AcDbEntity
  8
0
  6
CONTINUOUS
100
AcDbLine
 10
37.67199999996831
 20
8.185431124990519
 30
0.0
 11
37.09433112496757
 21
8.763099999991255
 31
0.0
  0
ENDBLK
  5
163AB
330
16307
100
AcDbEntity
  8
0
100
AcDbBlockEnd
  0
BLOCK
  5
163AC
330
16344
100
AcDbEntity
  8
0
100
AcDbBlockBegin
  2
*X28
 70
     1
 10
0.0
 20
0.0
 30
0.0
  3
*X28
  1

  0
LINE
  5
16345
330
16344
100
AcDbEntity
  8
0
  6
CONTINUOUS
100
AcDbLine
 10
38.60499999996136
 20
8.762866199104765
 30
0.0
 11
38.71672554182345
 21
8.874591740966855
 31
0.0
  0
LINE
  5
16346
330
16344
100
AcDbEntity
  8
0
  6
CONTINUOUS
100
AcDbLine
 10
38.60499999996136
 20
8.089346990024577
 30
0.0
 11
39.03418785440363
 21
8.518534844466847
 31
0.0
  0
LINE
  5
16347
330
16344
100
AcDbEntity
  8
0
  6
CONTINUOUS
100
AcDbLine
 10
38.60499999996136
 20
7.41582778094439
 30
0.0
 11
39.35165016698382
 21
8.16247794796684
 31
0.0
  0
LINE
  5
16348
330
16344
100
AcDbEntity
  8
0
  6
CONTINUOUS
100
AcDbLine
 10
38.60499999996136
 20
6.742308571864204
 30
0.0
 11
39.66911247956399
 21
7.806421051466834
 31
0.0
  0
LINE
  5
16349
330
16344
100
AcDbEntity
  8
0
  6
CONTINUOUS
100
AcDbLine
 10
38.60499999996136
 20
6.068789362784018
 30
0.0
 11
39.98657479214418
 21
7.450364154966827
 31
0.0
  0
LINE
  5
1634A
330
16344
100
AcDbEntity
  8
0
  6
CONTINUOUS
100
AcDbLine
 10
38.60499999996136
 20
5.395270153703832
 30
0.0
 11
40.30403710472435
 21
7.09430725846682
 31
0.0
  0
LINE
  5
1634B
330
16344
100
AcDbEntity
  8
0
  6
CONTINUOUS
100
AcDbLine
 10
38.60499999996136
 20
4.721750944623645
 30
0.0
 11
40.62149941730453
 21
6.738250361966813
 31
0.0
  0
LINE
  5
1634C
330
16344
100
AcDbEntity
  8
0
  6
CONTINUOUS
100
AcDbLine
 10
38.60499999996136
 20
4.048231735543458
 30
0.0
 11
40.93896172988471
 21
6.382193465466806
 31
0.0
  0
LINE
  5
1634D
330
16344
100
AcDbEntity
  8
0
  6
CONTINUOUS
100
AcDbLine
 10
38.60499999996136
 20
3.374712526463272
 30
0.0
 11
40.02599999995994
 21
4.795712526461843
 31
0.0
  0
LINE
  5
1634E
330
16344
100
AcDbEntity
  8
0
  6
CONTINUOUS
100
AcDbLine
 10
38.60499999996136
 20
2.701193317383085
 30
0.0
 11
40.02599999995994
 21
4.122193317381657
 31
0.0
  0
LINE
  5
1634F
330
16344
100
AcDbEntity
  8
0
  6
CONTINUOUS
100
AcDbLine
 10
40.28339754687704
 20
5.053110073378947
 30
0.0
 11
41.25642404246489
 21
6.026136568966799
 31
0.0
  0
LINE
  5
16350
330
16344
100
AcDbEntity
  8
0
  6
CONTINUOUS
100
AcDbLine
 10
40.60085985945722
 20
4.697053176878939
 30
0.0
 11
41.57388635504507
 21
5.670079672466793
 31
0.0
  0
LINE
  5
16351
330
16344
100
AcDbEntity
  8
0
  6
CONTINUOUS
100
AcDbLine
 10
43.57899999995641
 20
8.348712526458318
 30
0.0
 11
43.99338747348935
 21
8.763099999991255
 31
0.0
  0
LINE
  5
16352
330
16344
100
AcDbEntity
  8
0
  6
CONTINUOUS
100
AcDbLine
 10
43.57899999995641
 20
7.675193317378131
 30
0.0
 11
44.66690668256953
 21
8.763099999991255
 31
0.0
  0
LINE
  5
16353
330
16344
100
AcDbEntity
  8
0
  6
CONTINUOUS
100
AcDbLine
 10
38.60499999996136
 20
2.027674108302898
 30
0.0
 11
40.02599999995994
 21
3.44867410830147
 31
0.0
  0
LINE
  5
16354
330
16344
100
AcDbEntity
  8
0
  6
CONTINUOUS
100
AcDbLine
 10
38.60499999996136
 20
1.354154899222712
 30
0.0
 11
40.02599999995994
 21
2.775154899221284
 31
0.0
  0
LINE
  5
16355
330
16344
100
AcDbEntity
  8
0
  6
CONTINUOUS
100
AcDbLine
 10
38.60499999996136
 20
0.6806356901425255
 30
0.0
 11
40.02599999995994
 21
2.101635690141098
 31
0.0
  0
LINE
  5
16356
330
16344
100
AcDbEntity
  8
0
  6
CONTINUOUS
100
AcDbLine
 10
38.60499999996136
 20
0.0071164810623383
 30
0.0
 11
40.02599999995994
 21
1.428116481060911
 31
0.0
  0
LINE
  5
16357
330
16344
100
AcDbEntity
  8
0
  6
CONTINUOUS
100
AcDbLine
 10
40.9183221720374
 20
4.340996280378933
 30
0.0
 11
41.89134866762525
 21
5.314022775966786
 31
0.0
  0
LINE
  5
16358
330
16344
100
AcDbEntity
  8
0
  6
CONTINUOUS
100
AcDbLine
 10
41.23578448461758
 20
3.984939383878926
 30
0.0
 11
42.20881098020543
 21
4.957965879466778
 31
0.0
  0
LINE
  5
16359
330
16344
100
AcDbEntity
  8
0
  6
CONTINUOUS
100
AcDbLine
 10
41.55324679719776
 20
3.628882487378919
 30
0.0
 11
42.52627329278561
 21
4.601908982966772
 31
0.0
  0
LINE
  5
1635A
330
16344
100
AcDbEntity
  8
0
  6
CONTINUOUS
100
AcDbLine
 10
41.87070910977793
 20
3.272825590878912
 30
0.0
 11
42.84373560536579
 21
4.245852086466765
 31
0.0
  0
LINE
  5
1635B
330
16344
100
AcDbEntity
  8
0
  6
CONTINUOUS
100
AcDbLine
 10
43.57899999995641
 20
7.001674108297943
 30
0.0
 11
44.99999999995498
 21
8.422674108296516
 31
0.0
  0
LINE
  5
1635C
330
16344
100
AcDbEntity
  8
0
  6
CONTINUOUS
100
AcDbLine
 10
43.57899999995641
 20
6.328154899217758
 30
0.0
 11
44.99999999995498
 21
7.749154899216329
 31
0.0
  0
LINE
  5
1635D
330
16344
100
AcDbEntity
  8
0
  6
CONTINUOUS
100
AcDbLine
 10
43.57899999995641
 20
5.654635690137571
 30
0.0
 11
44.99999999995498
 21
7.075635690136142
 31
0.0
  0
LINE
  5
1635E
330
16344
100
AcDbEntity
  8
0
  6
CONTINUOUS
100
AcDbLine
 10
43.57899999995641
 20
4.981116481057384
 30
0.0
 11
44.99999999995498
 21
6.402116481055955
 31
0.0
  0
LINE
  5
1635F
330
16344
100
AcDbEntity
  8
0
  6
CONTINUOUS
100
AcDbLine
 10
39.27140272797921
 20
-0.0000000000000009
 30
0.0
 11
40.02599999995994
 21
0.7545972719807246
 31
0.0
  0
LINE
  5
16360
330
16344
100
AcDbEntity
  8
0
  6
CONTINUOUS
100
AcDbLine
 10
39.9449219370594
 20
-0.0000000000000009
 30
0.0
 11
40.02599999995994
 21
0.0810780629005379
 31
0.0
  0
LINE
  5
16361
330
16344
100
AcDbEntity
  8
0
  6
CONTINUOUS
100
AcDbLine
 10
42.18817142235812
 20
2.916768694378905
 30
0.0
 11
43.16119791794597
 21
3.889795189966758
 31
0.0
  0
LINE
  5
16362
330
16344
100
AcDbEntity
  8
0
  6
CONTINUOUS
100
AcDbLine
 10
42.50563373493829
 20
2.560711797878898
 30
0.0
 11
43.47866023052615
 21
3.533738293466751
 31
0.0
  0
LINE
  5
16363
330
16344
100
AcDbEntity
  8
0
  6
CONTINUOUS
100
AcDbLine
 10
43.57899999995641
 20
4.307597271977198
 30
0.0
 11
44.99999999995498
 21
5.728597271975769
 31
0.0
  0
LINE
  5
16364
330
16344
100
AcDbEntity
  8
0
  6
CONTINUOUS
100
AcDbLine
 10
43.57899999995641
 20
3.634078062897011
 30
0.0
 11
44.99999999995498
 21
5.055078062895582
 31
0.0
  0
LINE
  5
16365
330
16344
100
AcDbEntity
  8
0
  6
CONTINUOUS
100
AcDbLine
 10
42.82309604751848
 20
2.204654901378891
 30
0.0
 11
44.99999999995498
 21
4.381558853815395
 31
0.0
  0
LINE
  5
16366
330
16344
100
AcDbEntity
  8
0
  6
CONTINUOUS
100
AcDbLine
 10
43.14055836009865
 20
1.848598004878885
 30
0.0
 11
44.99999999995498
 21
3.70803964473521
 31
0.0
  0
LINE
  5
16367
330
16344
100
AcDbEntity
  8
0
  6
CONTINUOUS
100
AcDbLine
 10
43.45802067267883
 20
1.492541108378878
 30
0.0
 11
44.99999999995498
 21
3.034520435655023
 31
0.0
  0
LINE
  5
16368
330
16344
100
AcDbEntity
  8
0
  6
CONTINUOUS
100
AcDbLine
 10
43.77548298525902
 20
1.136484211878871
 30
0.0
 11
44.99999999995498
 21
2.361001226574837
 31
0.0
  0
LINE
  5
16369
330
16344
100
AcDbEntity
  8
0
  6
CONTINUOUS
100
AcDbLine
 10
44.09294529783919
 20
0.7804273153788639
 30
0.0
 11
44.99999999995498
 21
1.687482017494649
 31
0.0
  0
LINE
  5
1636A
330
16344
100
AcDbEntity
  8
0
  6
CONTINUOUS
100
AcDbLine
 10
44.41040761041938
 20
0.4243704188788566
 30
0.0
 11
44.99999999995498
 21
1.013962808414463
 31
0.0
  0
LINE
  5
1636B
330
16344
100
AcDbEntity
  8
0
  6
CONTINUOUS
100
AcDbLine
 10
44.72786992299955
 20
0.0683135223788494
 30
0.0
 11
44.99999999995498
 21
0.340443599334276
 31
0.0
  0
LINE
  5
1636C
330
16344
100
AcDbEntity
  8
0
  6
CONTINUOUS
100
AcDbLine
 10
39.12223903415696
 20
-0.0000000000000009
 30
0.0
 11
38.60499999996136
 21
0.5172390341955961
 31
0.0
  0
LINE
  5
1636D
330
16344
100
AcDbEntity
  8
0
  6
CONTINUOUS
100
AcDbLine
 10
39.79575824323715
 20
-0.0000000000000009
 30
0.0
 11
38.60499999996136
 21
1.190758243275783
 31
0.0
  0
LINE
  5
1636E
330
16344
100
AcDbEntity
  8
0
  6
CONTINUOUS
100
AcDbLine
 10
40.02599999995994
 20
0.443277452357397
 30
0.0
 11
38.60499999996136
 21
1.864277452355969
 31
0.0
  0
LINE
  5
1636F
330
16344
100
AcDbEntity
  8
0
  6
CONTINUOUS
100
AcDbLine
 10
40.02599999995994
 20
1.116796661437583
 30
0.0
 11
38.60499999996136
 21
2.537796661436155
 31
0.0
  0
LINE
  5
16370
330
16344
100
AcDbEntity
  8
0
  6
CONTINUOUS
100
AcDbLine
 10
40.02599999995994
 20
1.79031587051777
 30
0.0
 11
38.60499999996136
 21
3.211315870516341
 31
0.0
  0
LINE
  5
16371
330
16344
100
AcDbEntity
  8
0
  6
CONTINUOUS
100
AcDbLine
 10
40.02599999995994
 20
2.463835079597956
 30
0.0
 11
38.60499999996136
 21
3.884835079596527
 31
0.0
  0
LINE
  5
16372
330
16344
100
AcDbEntity
  8
0
  6
CONTINUOUS
100
AcDbLine
 10
40.02599999995994
 20
3.137354288678143
 30
0.0
 11
38.60499999996136
 21
4.558354288676714
 31
0.0
  0
LINE
  5
16373
330
16344
100
AcDbEntity
  8
0
  6
CONTINUOUS
100
AcDbLine
 10
40.02599999995994
 20
3.810873497758329
 30
0.0
 11
38.60499999996136
 21
5.2318734977569
 31
0.0
  0
LINE
  5
16374
330
16344
100
AcDbEntity
  8
0
  6
CONTINUOUS
100
AcDbLine
 10
40.02599999995994
 20
4.484392706838515
 30
0.0
 11
38.60499999996136
 21
5.905392706837086
 31
0.0
  0
LINE
  5
16375
330
16344
100
AcDbEntity
  8
0
  6
CONTINUOUS
100
AcDbLine
 10
44.99999999995498
 20
0.183911915923658
 30
0.0
 11
41.53858364506288
 21
3.64532827081576
 31
0.0
  0
LINE
  5
16376
330
16344
100
AcDbEntity
  8
0
  6
CONTINUOUS
100
AcDbLine
 10
40.02599999995994
 20
5.157911915918703
 30
0.0
 11
38.60499999996136
 21
6.578911915917274
 31
0.0
  0
LINE
  5
16377
330
16344
100
AcDbEntity
  8
0
  6
CONTINUOUS
100
AcDbLine
 10
44.99999999995498
 20
0.8574311250038447
 30
0.0
 11
38.60499999996136
 21
7.25243112499746
 31
0.0
  0
LINE
  5
16378
330
16344
100
AcDbEntity
  8
0
  6
CONTINUOUS
100
AcDbLine
 10
44.99999999995498
 20
1.530950334084031
 30
0.0
 11
38.60499999996136
 21
7.925950334077647
 31
0.0
  0
LINE
  5
16379
330
16344
100
AcDbEntity
  8
0
  6
CONTINUOUS
100
AcDbLine
 10
44.99999999995498
 20
2.204469543164218
 30
0.0
 11
43.57899999995641
 21
3.625469543162789
 31
0.0
  0
LINE
  5
1637A
330
16344
100
AcDbEntity
  8
0
  6
CONTINUOUS
100
AcDbLine
 10
41.89876730984767
 20
5.305702233271528
 30
0.0
 11
38.60499999996136
 21
8.599469543157834
 31
0.0
  0
LINE
  5
1637B
330
16344
100
AcDbEntity
  8
0
  6
CONTINUOUS
100
AcDbLine
 10
44.99999999995498
 20
2.877988752244405
 30
0.0
 11
43.57899999995641
 21
4.298988752242975
 31
0.0
  0
LINE
  5
1637C
330
16344
100
AcDbEntity
  8
0
  6
CONTINUOUS
100
AcDbLine
 10
44.99999999995498
 20
3.551507961324591
 30
0.0
 11
43.57899999995641
 21
4.972507961323163
 31
0.0
  0
LINE
  5
1637D
330
16344
100
AcDbEntity
  8
0
  6
CONTINUOUS
100
AcDbLine
 10
44.99999999995498
 20
4.225027170404777
 30
0.0
 11
43.57899999995641
 21
5.646027170403348
 31
0.0
  0
LINE
  5
1637E
330
16344
100
AcDbEntity
  8
0
  6
CONTINUOUS
100
AcDbLine
 10
44.99999999995498
 20
4.898546379484964
 30
0.0
 11
43.57899999995641
 21
6.319546379483535
 31
0.0
  0
LINE
  5
1637F
330
16344
100
AcDbEntity
  8
0
  6
CONTINUOUS
100
AcDbLine
 10
44.99999999995498
 20
5.572065588565151
 30
0.0
 11
43.57899999995641
 21
6.993065588563722
 31
0.0
  0
LINE
  5
16380
330
16344
100
AcDbEntity
  8
0
  6
CONTINUOUS
100
AcDbLine
 10
44.99999999995498
 20
6.245584797645336
 30
0.0
 11
43.57899999995641
 21
7.666584797643908
 31
0.0
  0
LINE
  5
16381
330
16344
100
AcDbEntity
  8
0
  6
CONTINUOUS
100
AcDbLine
 10
44.99999999995498
 20
6.919104006725522
 30
0.0
 11
43.57899999995641
 21
8.340104006724093
 31
0.0
  0
LINE
  5
16382
330
16344
100
AcDbEntity
  8
0
  6
CONTINUOUS
100
AcDbLine
 10
44.99999999995498
 20
7.592623215805709
 30
0.0
 11
43.82952321576943
 21
8.763099999991255
 31
0.0
  0
LINE
  5
16383
330
16344
100
AcDbEntity
  8
0
  6
CONTINUOUS
100
AcDbLine
 10
44.99999999995498
 20
8.266142424885896
 30
0.0
 11
44.50304242484962
 21
8.763099999991255
 31
0.0
  0
ENDBLK
  5
163AD
330
16344
100
AcDbEntity
  8
0
100
AcDbBlockEnd
  0
BLOCK
  5
163AE
330
16384
100
AcDbEntity
  8
0
100
AcDbBlockBegin
  2
*X29
 70
     1
 10
0.0
 20
0.0
 30
0.0
  3
*X29
  1

  0
LINE
  5
16385
330
16384
100
AcDbEntity
  8
0
  6
CONTINUOUS
100
AcDbLine
 10
0.0
 20
8.548461116714023
 30
0.0
 11
0.2146388832772324
 21
8.763099999991255
 31
0.0
  0
LINE
  5
16386
330
16384
100
AcDbEntity
  8
0
  6
CONTINUOUS
100
AcDbLine
 10
-0.0000000000000002
 20
7.874941907633837
 30
0.0
 11
0.8881580923574184
 21
8.763099999991255
 31
0.0
  0
LINE
  5
16387
330
16384
100
AcDbEntity
  8
0
  6
CONTINUOUS
100
AcDbLine
 10
0.0
 20
7.20142269855365
 30
0.0
 11
1.420999999998572
 21
8.622422698552223
 31
0.0
  0
LINE
  5
16388
330
16384
100
AcDbEntity
  8
0
  6
CONTINUOUS
100
AcDbLine
 10
-0.0000000000000001
 20
6.527903489473465
 30
0.0
 11
1.420999999998571
 21
7.948903489472036
 31
0.0
  0
LINE
  5
16389
330
16384
100
AcDbEntity
  8
0
  6
CONTINUOUS
100
AcDbLine
 10
-0.0000000000000002
 20
5.854384280393278
 30
0.0
 11
1.420999999998571
 21
7.275384280391849
 31
0.0
  0
LINE
  5
1638A
330
16384
100
AcDbEntity
  8
0
  6
CONTINUOUS
100
AcDbLine
 10
-0.0000000000000002
 20
5.180865071313091
 30
0.0
 11
1.420999999998571
 21
6.601865071311663
 31
0.0
  0
LINE
  5
1638B
330
16384
100
AcDbEntity
  8
0
  6
CONTINUOUS
100
AcDbLine
 10
0.0
 20
4.507345862232905
 30
0.0
 11
1.420999999998571
 21
5.928345862231477
 31
0.0
  0
LINE
  5
1638C
330
16384
100
AcDbEntity
  8
0
  6
CONTINUOUS
100
AcDbLine
 10
-0.0000000000000003
 20
3.833826653152718
 30
0.0
 11
1.420999999998571
 21
5.25482665315129
 31
0.0
  0
LINE
  5
1638D
330
16384
100
AcDbEntity
  8
0
  6
CONTINUOUS
100
AcDbLine
 10
-0.0000000000000002
 20
3.160307444072532
 30
0.0
 11
1.420999999998571
 21
4.581307444071103
 31
0.0
  0
LINE
  5
1638E
330
16384
100
AcDbEntity
  8
0
  6
CONTINUOUS
100
AcDbLine
 10
-0.0000000000000001
 20
2.486788234992345
 30
0.0
 11
1.420999999998571
 21
3.907788234990917
 31
0.0
  0
LINE
  5
1638F
330
16384
100
AcDbEntity
  8
0
  6
CONTINUOUS
100
AcDbLine
 10
-0.0000000000000006
 20
1.813269025912159
 30
0.0
 11
1.420999999998571
 21
3.234269025910731
 31
0.0
  0
LINE
  5
16390
330
16384
100
AcDbEntity
  8
0
  6
CONTINUOUS
100
AcDbLine
 10
0.0
 20
1.139749816831973
 30
0.0
 11
1.420999999998571
 21
2.560749816830544
 31
0.0
  0
LINE
  5
16391
330
16384
100
AcDbEntity
  8
0
  6
CONTINUOUS
100
AcDbLine
 10
0.0000000000000002
 20
0.466230607751787
 30
0.0
 11
1.420999999998571
 21
1.887230607750358
 31
0.0
  0
LINE
  5
16392
330
16384
100
AcDbEntity
  8
0
  6
CONTINUOUS
100
AcDbLine
 10
0.2072886013284003
 20
-0.0000000000000009
 30
0.0
 11
1.420999999998571
 21
1.213711398670171
 31
0.0
  0
LINE
  5
16393
330
16384
100
AcDbEntity
  8
0
  6
CONTINUOUS
100
AcDbLine
 10
0.8808078104085864
 20
-0.0000000000000009
 30
0.0
 11
1.420999999998571
 21
0.5401921895899839
 31
0.0
  0
LINE
  5
16394
330
16384
100
AcDbEntity
  8
0
  6
CONTINUOUS
100
AcDbLine
 10
0.0581249075061505
 20
-0.0000000000000009
 30
0.0
 11
-0.0000000000000002
 21
0.0581249075061496
 31
0.0
  0
LINE
  5
16395
330
16384
100
AcDbEntity
  8
0
  6
CONTINUOUS
100
AcDbLine
 10
0.7316441165863372
 20
-0.0000000000000009
 30
0.0
 11
-0.0000000000000002
 21
0.7316441165863363
 31
0.0
  0
LINE
  5
16396
330
16384
100
AcDbEntity
  8
0
  6
CONTINUOUS
100
AcDbLine
 10
1.405163325666523
 20
-0.0000000000000009
 30
0.0
 11
-0.0000000000000002
 21
1.405163325666523
 31
0.0
  0
LINE
  5
16397
330
16384
100
AcDbEntity
  8
0
  6
CONTINUOUS
100
AcDbLine
 10
1.420999999998572
 20
0.6576825347481381
 30
0.0
 11
-0.0000000000000001
 21
2.07868253474671
 31
0.0
  0
LINE
  5
16398
330
16384
100
AcDbEntity
  8
0
  6
CONTINUOUS
100
AcDbLine
 10
1.420999999998571
 20
1.331201743828324
 30
0.0
 11
-0.0000000000000001
 21
2.752201743826896
 31
0.0
  0
LINE
  5
16399
330
16384
100
AcDbEntity
  8
0
  6
CONTINUOUS
100
AcDbLine
 10
1.420999999998571
 20
2.004720952908511
 30
0.0
 11
-0.0000000000000002
 21
3.425720952907082
 31
0.0
  0
LINE
  5
1639A
330
16384
100
AcDbEntity
  8
0
  6
CONTINUOUS
100
AcDbLine
 10
1.420999999998571
 20
2.678240161988697
 30
0.0
 11
-0.0000000000000001
 21
4.099240161987269
 31
0.0
  0
LINE
  5
1639B
330
16384
100
AcDbEntity
  8
0
  6
CONTINUOUS
100
AcDbLine
 10
1.420999999998572
 20
3.351759371068884
 30
0.0
 11
0.0
 21
4.772759371067455
 31
0.0
  0
LINE
  5
1639C
330
16384
100
AcDbEntity
  8
0
  6
CONTINUOUS
100
AcDbLine
 10
1.420999999998571
 20
4.02527858014907
 30
0.0
 11
-0.0000000000000003
 21
5.446278580147642
 31
0.0
  0
LINE
  5
1639D
330
16384
100
AcDbEntity
  8
0
  6
CONTINUOUS
100
AcDbLine
 10
1.420999999998571
 20
4.698797789229257
 30
0.0
 11
0.0
 21
6.119797789227828
 31
0.0
  0
LINE
  5
1639E
330
16384
100
AcDbEntity
  8
0
  6
CONTINUOUS
100
AcDbLine
 10
1.420999999998571
 20
5.372316998309444
 30
0.0
 11
-0.0000000000000001
 21
6.793316998308015
 31
0.0
  0
LINE
  5
1639F
330
16384
100
AcDbEntity
  8
0
  6
CONTINUOUS
100
AcDbLine
 10
1.420999999998572
 20
6.045836207389629
 30
0.0
 11
-0.0000000000000004
 21
7.466836207388202
 31
0.0
  0
LINE
  5
163A0
330
16384
100
AcDbEntity
  8
0
  6
CONTINUOUS
100
AcDbLine
 10
1.420999999998571
 20
6.719355416469816
 30
0.0
 11
0.0
 21
8.140355416468388
 31
0.0
  0
LINE
  5
163A1
330
16384
100
AcDbEntity
  8
0
  6
CONTINUOUS
100
AcDbLine
 10
1.420999999998571
 20
7.392874625550003
 30
0.0
 11
0.0507746255573185
 21
8.763099999991255
 31
0.0
  0
LINE
  5
163A2
330
16384
100
AcDbEntity
  8
0
  6
CONTINUOUS
100
AcDbLine
 10
1.420999999998571
 20
8.06639383463019
 30
0.0
 11
0.7242938346375052
 21
8.763099999991255
 31
0.0
  0
LINE
  5
163A3
330
16384
100
AcDbEntity
  8
0
  6
CONTINUOUS
100
AcDbLine
 10
1.420999999998571
 20
8.739913043710375
 30
0.0
 11
1.397813043717691
 21
8.763099999991255
 31
0.0
  0
ENDBLK
  5
163AF
330
16384
100
AcDbEntity
  8
0
100
AcDbBlockEnd
  0
ENDSEC
  0
SECTION
  2
ENTITIES
  0
TEXT
  5
FF39
330
18
100
AcDbEntity
  8
1TEXT
100
AcDbText
 10
-73.49217461124202
 20
12.16957356316448
 30
0.0
 40
8.0
  1
SC-743-X
100
AcDbText
  0
LINE
  5
FF3E
330
18
100
AcDbEntity
  8
01
100
AcDbLine
 10
46.55812725731506
 20
-76.60225285155366
 30
0.0
 11
46.55812725731506
 21
-151.0586000221174
 31
0.0
  0
LINE
  5
FF3F
330
18
100
AcDbEntity
  8
01
100
AcDbLine
 10
55.55812725731506
 20
-76.60225285155366
 30
0.0
 11
55.55812725731506
 21
-151.0586000221174
 31
0.0
  0
LINE
  5
FF40
330
18
100
AcDbEntity
  8
01
100
AcDbLine
 10
34.05812725731506
 20
-76.60225285155366
 30
0.0
 11
34.05812725731506
 21
-151.0586000221174
 31
0.0
  0
LINE
  5
10263
102
{ACAD_REACTORS
330
10268
102
}
330
18
100
AcDbEntity
  8
1PHANTOM
100
AcDbLine
 10
-139.4573311677181
 20
-144.7199091693898
 30
0.0
 11
-139.4573311677185
 21
-259.7199091693898
 31
0.0
  0
LINE
  5
10264
102
{ACAD_REACTORS
330
10268
102
}
330
18
100
AcDbEntity
  8
1PHANTOM
100
AcDbLine
 10
-253.4573311677181
 20
-144.7199091693898
 30
0.0
 11
-253.4573311677176
 21
-259.7199091693898
 31
0.0
  0
LINE
  5
10265
102
{ACAD_REACTORS
330
10268
102
}
330
18
100
AcDbEntity
  8
1PHANTOM
100
AcDbLine
 10
-139.4573311677181
 20
-144.7199091693898
 30
0.0
 11
-253.4573311677181
 21
-144.7199091693898
 31
0.0
  0
LINE
  5
10266
102
{ACAD_REACTORS
330
10268
102
}
330
18
100
AcDbEntity
  8
1PHANTOM
100
AcDbLine
 10
-139.4573311677185
 20
-259.7199091693898
 30
0.0
 11
-253.4573311677176
 21
-259.7199091693898
 31
0.0
  0
TEXT
  5
12D3A
330
18
100
AcDbEntity
  8
1TEXT
100
AcDbText
 10
-2.472174611242384
 20
1.66957356316448
 30
0.0
 40
4.0
  1
表面処理：コネクター
 41
0.7
 72
     1
 11
13.90782538875762
 21
1.66957356316448
 31
0.0
100
AcDbText
  0
TEXT
  5
12D3B
330
18
100
AcDbEntity
  8
1TEXT
100
AcDbText
 10
4.441158722090949
 20
-5.165715096359914
 30
0.0
 40
4.0
  1
クローム
 72
     1
 11
13.90782538875762
 21
-5.165715096359914
 31
0.0
100
AcDbText
  0
LINE
  5
12D3C
330
18
100
AcDbEntity
  8
1DIM
100
AcDbLine
 10
-73.49217461124202
 20
7.16957356316448
 30
0.0
 11
66.50782538875798
 21
7.16957356316448
 31
0.0
  0
LINE
  5
12D3D
330
18
100
AcDbEntity
  8
1DIM
100
AcDbLine
 10
-73.49217461124202
 20
-6.83042643683552
 30
0.0
 11
66.50782538875798
 21
-6.83042643683552
 31
0.0
  0
LINE
  5
12D3E
330
18
100
AcDbEntity
  8
1DIM
100
AcDbLine
 10
-73.49217461124202
 20
0.1695735631644801
 30
0.0
 11
66.50782538875798
 21
0.1695735631644801
 31
0.0
  0
LINE
  5
12D3F
330
18
100
AcDbEntity
  8
1DIM
100
AcDbLine
 10
-73.49217461124202
 20
-13.83042643683552
 30
0.0
 11
31.50782538875798
 21
-13.83042643683552
 31
0.0
  0
LINE
  5
12D40
330
18
100
AcDbEntity
  8
1DIM
100
AcDbLine
 10
-73.49217461124202
 20
-13.83042643683552
 30
0.0
 11
66.50782538875798
 21
-13.83042643683552
 31
0.0
  0
LINE
  5
12D41
330
18
100
AcDbEntity
  8
1DIM
100
AcDbLine
 10
31.50782538875798
 20
7.16957356316448
 30
0.0
 11
31.50782538875798
 21
-13.83042643683552
 31
0.0
  0
TEXT
  5
12D42
330
18
100
AcDbEntity
  8
1TEXT
100
AcDbText
 10
42.04115872209095
 20
1.66957356316448
 30
0.0
 40
4.0
  1
コード
 72
     1
 11
48.90782538875762
 21
1.66957356316448
 31
0.0
100
AcDbText
  0
LINE
  5
12D43
330
18
100
AcDbEntity
  8
1DIM
100
AcDbLine
 10
-3.492174611242021
 20
-13.83042643683552
 30
0.0
 11
-3.492174611242021
 21
7.16957356316448
 31
0.0
  0
LINE
  5
12D44
330
18
100
AcDbEntity
  8
1DIM
100
AcDbLine
 10
66.50782538875798
 20
-13.83042643683552
 30
0.0
 11
66.50782538875798
 21
7.16957356316448
 31
0.0
  0
TEXT
  5
12D45
330
18
100
AcDbEntity
  8
1TEXT
100
AcDbText
 10
-2.62550794457572
 20
-12.16571509635991
 30
0.0
 40
4.0
  1
サテンニッケル
 72
     1
 11
13.90782538875762
 21
-12.16571509635991
 31
0.0
100
AcDbText
  0
TEXT
  5
12D46
330
18
100
AcDbEntity
  8
1TEXT
100
AcDbText
 10
-72.55884127790905
 20
1.66957356316448
 30
0.0
 40
4.0
  1
表面処理：本体
 72
     1
 11
-56.09217461124238
 21
1.66957356316448
 31
0.0
100
AcDbText
  0
TEXT
  5
12D47
330
18
100
AcDbEntity
  8
1TEXT
100
AcDbText
 10
-65.55884127790905
 20
-5.165715096359914
 30
0.0
 40
4.0
  1
クローム
 72
     1
 11
-56.09217461124238
 21
-5.165715096359914
 31
0.0
100
AcDbText
  0
LINE
  5
12D48
330
18
100
AcDbEntity
  8
1DIM
100
AcDbLine
 10
-73.49217461124202
 20
-13.83042643683552
 30
0.0
 11
-73.49217461124202
 21
7.16957356316448
 31
0.0
  0
TEXT
  5
12D49
330
18
100
AcDbEntity
  8
1TEXT
100
AcDbText
 10
34.17449205542519
 20
-5.544783420484801
 30
0.0
 40
4.0
  1
SC-743-XC
 41
0.85
 72
     1
 11
48.90782538875852
 21
-5.544783420484801
 31
0.0
100
AcDbText
  0
TEXT
  5
12D4A
330
18
100
AcDbEntity
  8
1TEXT
100
AcDbText
 10
34.17449205542519
 20
-12.5447834204848
 30
0.0
 40
4.0
  1
SC-743-CN
 41
0.85
 72
     1
 11
48.90782538875852
 21
-12.5447834204848
 31
0.0
100
AcDbText
  0
TEXT
  5
12D4B
330
18
100
AcDbEntity
  8
1TEXT
100
AcDbText
 10
-65.55884127790905
 20
-12.16571509635991
 30
0.0
 40
4.0
  1
クローム
 72
     1
 11
-56.09217461124238
 21
-12.16571509635991
 31
0.0
100
AcDbText
  0
LINE
  5
12D51
330
18
100
AcDbEntity
  8
1DIM
100
AcDbLine
 10
-38.49217461124202
 20
7.16957356316448
 30
0.0
 11
-38.49217461124202
 21
-13.83042643683552
 31
0.0
  0
TEXT
  5
12D52
330
18
100
AcDbEntity
  8
1TEXT
100
AcDbText
 10
-34.11217461124238
 20
1.66957356316448
 30
0.0
 40
4.0
  1
表面処理：カバー
 41
0.7
 72
     1
 11
-21.09217461124238
 21
1.66957356316448
 31
0.0
100
AcDbText
  0
TEXT
  5
12D53
330
18
100
AcDbEntity
  8
1TEXT
100
AcDbText
 10
-30.55884127790905
 20
-5.165715096359914
 30
0.0
 40
4.0
  1
クローム
 72
     1
 11
-21.09217461124238
 21
-5.165715096359914
 31
0.0
100
AcDbText
  0
TEXT
  5
12D54
330
18
100
AcDbEntity
  8
1TEXT
100
AcDbText
 10
-30.55884127790905
 20
-12.16571509635991
 30
0.0
 40
4.0
  1
クローム
 72
     1
 11
-21.09217461124238
 21
-12.16571509635991
 31
0.0
100
AcDbText
  0
POINT
  5
13000
330
18
100
AcDbEntity
  8
01
100
AcDbPoint
 10
-196.4513789909878
 20
-19.06580502596103
 30
0.0
 50
270.0
  0
SPLINE
  5
13001
330
18
100
AcDbEntity
  8
01
100
AcDbSpline
210
0.0
220
0.0
230
1.0
 70
    24
 71
     2
 72
     6
 73
     3
 74
     0
 42
0.0000000001
 43
0.0000000001
 40
0.0
 40
0.0
 40
0.0
 40
1.999999999999091
 40
1.999999999999091
 40
1.999999999999091
 10
-215.8513789909874
 20
-13.72121926783461
 30
0.0
 10
-214.8513789909879
 20
-13.72121926783461
 30
0.0
 10
-213.8513789909883
 20
-13.72121926783461
 30
0.0
  0
SPLINE
  5
13003
330
18
100
AcDbEntity
  8
01
100
AcDbSpline
210
0.0
220
0.0
230
1.0
 70
    24
 71
     2
 72
     6
 73
     3
 74
     0
 42
0.0000000001
 43
0.0000000001
 40
0.0
 40
0.0
 40
0.0
 40
134.9999999985023
 40
134.9999999985023
 40
134.9999999985023
 10
-128.9513789910069
 20
-74.95189814123228
 30
0.0
 10
-196.4513789902579
 20
-74.951898141235
 30
0.0
 10
-263.9513789895094
 20
-74.95189814123682
 30
0.0
  0
SPLINE
  5
1300D
330
18
100
AcDbEntity
  8
01
100
AcDbSpline
210
0.0
220
0.0
230
1.0
 70
    24
 71
     2
 72
     6
 73
     3
 74
     0
 42
0.0000000001
 43
0.0000000001
 40
0.0
 40
0.0
 40
0.0
 40
27.99999999975091
 40
27.99999999975091
 40
27.99999999975091
 10
-210.4513789907081
 20
-13.92121926849381
 30
0.0
 10
-196.4513789908327
 20
-13.92121926824007
 30
0.0
 10
-182.4513789909573
 20
-13.92121926798723
 30
0.0
  0
SPLINE
  5
1300E
330
18
100
AcDbEntity
  8
01
100
AcDbSpline
210
0.0
220
0.0
230
1.0
 70
    24
 71
     2
 72
     6
 73
     3
 74
     0
 42
0.0000000001
 43
0.0000000001
 40
0.0
 40
0.0
 40
0.0
 40
0.2711756237920753
 40
0.2711756237920753
 40
0.2711756237920753
 10
-125.9513789507836
 20
-63.49347501584475
 30
0.0
 10
-125.9513789507831
 20
-63.62906282774043
 30
0.0
 10
-125.9513789507827
 20
-63.76465063963701
 30
0.0
  0
SPLINE
  5
1300F
330
18
100
AcDbEntity
  8
01
100
AcDbSpline
210
0.0
220
0.0
230
1.0
 70
    24
 71
     2
 72
     6
 73
     3
 74
     0
 42
0.0000000001
 43
0.0000000001
 40
0.0
 40
0.0
 40
0.0
 40
0.2198611113352626
 40
0.2198611113352626
 40
0.2198611113352626
 10
-125.9513789507986
 20
-57.83775208782777
 30
0.0
 10
-125.9513789507986
 20
-57.94768264349591
 30
0.0
 10
-125.9513789507986
 20
-58.05761319916314
 30
0.0
  0
SPLINE
  5
13014
330
18
100
AcDbEntity
  8
01
100
AcDbSpline
210
0.0
220
0.0
230
1.0
 70
    24
 71
     2
 72
     6
 73
     3
 74
     0
 42
0.0000000001
 43
0.0000000001
 40
0.0
 40
0.0
 40
0.0
 40
1.199999988078162
 40
1.199999988078162
 40
1.199999988078162
 10
-213.8513789909829
 20
-14.92121926818095
 30
0.0
 10
-213.2513789969438
 20
-14.92121926818095
 30
0.0
 10
-212.6513790029047
 20
-14.92121926818095
 30
0.0
  0
SPLINE
  5
13018
330
18
100
AcDbEntity
  8
01
100
AcDbSpline
210
0.0
220
0.0
230
1.0
 70
    24
 71
     2
 72
     6
 73
     3
 74
     0
 42
0.0000000001
 43
0.0000000001
 40
0.0
 40
0.0
 40
0.0
 40
4.924428900882631
 40
4.924428900882631
 40
4.924428900882631
 10
-215.4572842348156
 20
21.16957356316448
 30
0.0
 10
-216.4572842347965
 20
23.41957356316448
 30
0.0
 10
-217.4572842347774
 20
25.66957356316448
 30
0.0
  0
SPLINE
  5
13019
330
18
100
AcDbEntity
  8
01
100
AcDbSpline
210
0.0
220
0.0
230
1.0
 70
    24
 71
     2
 72
     6
 73
     3
 74
     0
 42
0.0000000001
 43
0.0000000001
 40
0.0
 40
0.0
 40
0.0
 40
1.999999876025413
 40
1.999999876025413
 40
1.999999876025413
 10
-213.8513789909879
 20
-19.06580502596103
 30
0.0
 10
-214.8513789290008
 20
-19.06580502596103
 30
0.0
 10
-215.8513788670133
 20
-19.06580502596103
 30
0.0
  0
SPLINE
  5
1301B
330
18
100
AcDbEntity
  8
01
100
AcDbSpline
210
0.0
220
0.0
230
1.0
 70
    24
 71
     2
 72
     6
 73
     3
 74
     0
 42
0.0000000001
 43
0.0000000001
 40
0.0
 40
0.0
 40
0.0
 40
1.800000000000182
 40
1.800000000000182
 40
1.800000000000182
 10
-215.8513789909879
 20
-19.06580502596103
 30
0.0
 10
-216.751378990988
 20
-19.06580502596103
 30
0.0
 10
-217.6513789909881
 20
-19.06580502596103
 30
0.0
  0
SPLINE
  5
1302C
330
18
100
AcDbEntity
  8
01
100
AcDbSpline
210
0.0
220
0.0
230
1.0
 70
    24
 71
     2
 72
    10
 73
     7
 74
     0
 42
0.0000000001
 43
0.0000000001
 40
0.0
 40
0.0
 40
0.0
 40
44.68747830392101
 40
44.68747830392101
 40
44.78572544754468
 40
44.78572544754468
 40
46.01577708279262
 40
46.01577708279262
 40
46.01577708279262
 10
-266.9513789909878
 20
-72.71131774478204
 30
0.0
 10
-266.9513789909882
 20
-50.36757859282193
 30
0.0
 10
-266.9513789909887
 20
-28.02383944086091
 30
0.0
 10
-266.9513789909887
 20
-27.97471586904908
 30
0.0
 10
-266.9513789909887
 20
-27.92559229723724
 30
0.0
 10
-266.9513789909887
 20
-27.31056647961327
 30
0.0
 10
-266.9513789909887
 20
-26.6955406619893
 30
0.0
  0
SPLINE
  5
1302D
330
18
100
AcDbEntity
  8
01
100
AcDbSpline
210
0.0
220
0.0
230
1.0
 70
    24
 71
     3
 72
    14
 73
    10
 74
     0
 42
0.0000000001
 43
0.0000000001
 40
0.0
 40
0.0
 40
0.0
 40
0.0
 40
40.15533884448027
 40
40.15533884448027
 40
40.15533884448027
 40
40.16096027274104
 40
40.16096027274104
 40
40.16096027274104
 40
41.48367227420484
 40
41.48367227420484
 40
41.48367227420484
 40
41.48367227420484
 10
-125.9513789909882
 20
-72.71133145623685
 30
0.0
 10
-125.951378990988
 20
-56.30479218913865
 30
0.0
 10
-125.9513789909877
 20
-41.40896608150972
 30
0.0
 10
-125.9513789909874
 20
-28.02385313335003
 30
0.0
 10
-125.9513789909873
 20
-28.02197932392977
 30
0.0
 10
-125.9513789909873
 20
-28.02010554411613
 30
0.0
 10
-125.9513789909873
 20
-28.01823176430248
 30
0.0
 10
-125.9513789909873
 20
-27.57733473019809
 30
0.0
 10
-125.9513789909873
 20
-27.13643769609369
 30
0.0
 10
-125.9513789909873
 20
-26.6955406619893
 30
0.0
  0
SPLINE
  5
13033
330
18
100
AcDbEntity
  8
01
100
AcDbSpline
210
0.0
220
0.0
230
1.0
 70
    24
 71
     2
 72
     6
 73
     3
 74
     0
 42
0.0000000001
 43
0.0000000001
 40
0.0
 40
0.0
 40
0.0
 40
1.200000000000045
 40
1.200000000000045
 40
1.200000000000045
 10
-212.6513789909881
 20
-19.06580502596103
 30
0.0
 10
-213.251378990988
 20
-19.06580502596103
 30
0.0
 10
-213.8513789909879
 20
-19.06580502596103
 30
0.0
  0
SPLINE
  5
1303D
330
18
100
AcDbEntity
  8
01
100
AcDbSpline
210
0.0
220
0.0
230
1.0
 70
    24
 71
     2
 72
     6
 73
     3
 74
     0
 42
0.0000000001
 43
0.0000000001
 40
0.0
 40
0.0
 40
0.0
 40
0.4036273540225412
 40
0.4036273540225412
 40
0.4036273540225412
 10
-214.9513828980665
 20
21.16957356316448
 30
0.0
 10
-214.9513828980665
 20
20.96775988615332
 30
0.0
 10
-214.9513828980665
 20
20.76594620914216
 30
0.0
  0
SPLINE
  5
1303E
330
18
100
AcDbEntity
  8
01
100
AcDbSpline
210
0.0
220
0.0
230
1.0
 70
    24
 71
     2
 72
     6
 73
     3
 74
     0
 42
0.0000000001
 43
0.0000000001
 40
0.0
 40
0.0
 40
0.0
 40
0.403627354022575
 40
0.403627354022575
 40
0.403627354022575
 10
-177.9513828980665
 20
20.76594620914216
 30
0.0
 10
-177.9513828980665
 20
20.96775988615332
 30
0.0
 10
-177.9513828980665
 20
21.16957356316448
 30
0.0
  0
SPLINE
  5
13044
330
18
100
AcDbEntity
  8
01
100
AcDbSpline
210
0.0
220
0.0
230
1.0
 70
    24
 71
     2
 72
     6
 73
     3
 74
     0
 42
0.0000000001
 43
0.0000000001
 40
0.0
 40
0.0
 40
0.0
 40
3.844587117350656
 40
3.844587117350656
 40
3.844587117350656
 10
-212.3513789909833
 20
-19.06580502452584
 30
0.0
 10
-212.3513789909833
 20
-17.14351146585091
 30
0.0
 10
-212.3513789909833
 20
-15.22121790717506
 30
0.0
  0
SPLINE
  5
13046
330
18
100
AcDbEntity
  8
01
100
AcDbSpline
210
0.0
220
0.0
230
1.0
 70
    24
 71
     2
 72
     6
 73
     3
 74
     0
 42
0.0000000001
 43
0.0000000001
 40
0.0
 40
0.0
 40
0.0
 40
0.7000000243058953
 40
0.7000000243058953
 40
0.7000000243058953
 10
-215.8513787430487
 20
-15.78872607408471
 30
0.0
 10
-216.2013787552017
 20
-15.78872593082201
 30
0.0
 10
-216.5513787673548
 20
-15.78872578755931
 30
0.0
  0
SPLINE
  5
1304B
330
18
100
AcDbEntity
  8
01
100
AcDbSpline
210
0.0
220
0.0
230
1.0
 70
    24
 71
     2
 72
     6
 73
     3
 74
     0
 42
0.0000000001
 43
0.0000000001
 40
0.0
 40
0.0
 40
0.0
 40
4.924428900898052
 40
4.924428900898052
 40
4.924428900898052
 10
-177.4572842347765
 20
21.16957356316448
 30
0.0
 10
-176.4572842347765
 20
23.41957356316448
 30
0.0
 10
-175.4572842347765
 20
25.66957356316448
 30
0.0
  0
SPLINE
  5
1304C
330
18
100
AcDbEntity
  8
01
100
AcDbSpline
210
0.0
220
0.0
230
1.0
 70
    24
 71
     2
 72
     6
 73
     3
 74
     0
 42
0.0000000001
 43
0.0000000001
 40
0.0
 40
0.0
 40
0.0
 40
0.5
 40
0.5
 40
0.5
 10
-217.4572842347769
 20
25.66957356316448
 30
0.0
 10
-217.4572842347769
 20
25.91957356316448
 30
0.0
 10
-217.4572842347769
 20
26.16957356316448
 30
0.0
  0
SPLINE
  5
1304D
330
18
100
AcDbEntity
  8
01
100
AcDbSpline
210
0.0
220
0.0
230
1.0
 70
    24
 71
     2
 72
     6
 73
     3
 74
     0
 42
0.0000000001
 43
0.0000000001
 40
0.0
 40
0.0
 40
0.0
 40
0.5
 40
0.5
 40
0.5
 10
-175.4572842347765
 20
26.16957356316448
 30
0.0
 10
-175.4572842347765
 20
25.91957356316448
 30
0.0
 10
-175.4572842347765
 20
25.66957356316448
 30
0.0
  0
LINE
  5
13050
330
18
100
AcDbEntity
  8
01
100
AcDbLine
 10
-211.4522940072551
 20
-14.90190447569535
 30
0.0
 11
-211.4522940072551
 21
-19.06580502596103
 31
0.0
  0
LINE
  5
13051
330
18
100
AcDbEntity
  8
01
100
AcDbLine
 10
-217.4572842347769
 20
26.16957356316448
 30
0.0
 11
-175.4572842347765
 21
26.16957356316448
 31
0.0
  0
SPLINE
  5
130A2
330
18
100
AcDbEntity
  8
1CENTER
 48
0.5
100
AcDbSpline
210
0.0
220
0.0
230
1.0
 70
    24
 71
     3
 72
    10
 73
     6
 74
     0
 42
0.0000000001
 43
0.0000000001
 40
0.0
 40
0.0
 40
0.0
 40
0.0
 40
4.95
 40
4.95
 40
5.0
 40
5.0
 40
5.0
 40
5.0
 10
-187.4572842740316
 20
59.9738268709244
 30
0.0
 10
-187.4572842740316
 20
25.01957325802105
 30
0.0
 10
-187.4572842740316
 20
23.36957325802323
 30
0.0
 10
-187.4572842740298
 20
20.04816834780704
 30
0.0
 10
-187.4572842740298
 20
21.68623992469256
 30
0.0
 10
-187.4572842740298
 20
21.66957325802614
 30
0.0
  0
LINE
  5
130A4
330
18
100
AcDbEntity
  8
1PHANTOM
 48
0.5
100
AcDbLine
 10
-188.9572377381318
 20
49.919571548579
 30
0.0
 11
-189.4572377381318
 21
50.01957271197634
 31
0.0
  0
LINE
  5
130A5
330
18
100
AcDbEntity
  8
1PHANTOM
 48
0.5
100
AcDbLine
 10
-189.4572377381318
 20
50.01957271197634
 30
0.0
 11
-185.4572377381318
 21
50.81956340479891
 31
0.0
  0
LINE
  5
130A6
330
18
100
AcDbEntity
  8
1PHANTOM
 48
0.5
100
AcDbLine
 10
-185.4572377381318
 20
50.81956340479891
 30
0.0
 11
-185.9572377381318
 21
50.9195645681958
 31
0.0
  0
LINE
  5
130A7
330
18
100
AcDbEntity
  8
1PHANTOM
 48
0.5
100
AcDbLine
 10
-188.9572377381318
 20
48.31957154857909
 30
0.0
 11
-189.4572377381318
 21
48.41957271197643
 31
0.0
  0
LINE
  5
130A8
330
18
100
AcDbEntity
  8
1PHANTOM
 48
0.5
100
AcDbLine
 10
-185.4572377381318
 20
49.219563404799
 30
0.0
 11
-185.9572377381318
 21
49.31956456819589
 31
0.0
  0
LINE
  5
130A9
330
18
100
AcDbEntity
  8
1PHANTOM
 48
0.5
100
AcDbLine
 10
-189.4572377381318
 20
48.41957271197643
 30
0.0
 11
-185.4572377381318
 21
49.219563404799
 31
0.0
  0
LINE
  5
130AA
330
18
100
AcDbEntity
  8
1PHANTOM
 48
0.5
100
AcDbLine
 10
-188.9572377381318
 20
46.71957154857918
 30
0.0
 11
-189.4572377381318
 21
46.81957271197606
 31
0.0
  0
LINE
  5
130AB
330
18
100
AcDbEntity
  8
1PHANTOM
 48
0.5
100
AcDbLine
 10
-189.4572377381318
 20
46.81957271197606
 30
0.0
 11
-185.4572377381318
 21
47.61956340479864
 31
0.0
  0
LINE
  5
130AC
330
18
100
AcDbEntity
  8
1PHANTOM
 48
0.5
100
AcDbLine
 10
-185.4572377381318
 20
47.61956340479864
 30
0.0
 11
-185.9572377381318
 21
47.71956456819598
 31
0.0
  0
LINE
  5
130AD
330
18
100
AcDbEntity
  8
1PHANTOM
 48
0.5
100
AcDbLine
 10
-188.9572377381318
 20
38.71957154857919
 30
0.0
 11
-189.4572377381318
 21
38.81957271197607
 31
0.0
  0
LINE
  5
130AE
330
18
100
AcDbEntity
  8
1PHANTOM
 48
0.5
100
AcDbLine
 10
-185.4572377381318
 20
39.61956340479865
 30
0.0
 11
-185.9572377381318
 21
39.71956456819598
 31
0.0
  0
LINE
  5
130AF
330
18
100
AcDbEntity
  8
1PHANTOM
 48
0.5
100
AcDbLine
 10
-185.4572377381318
 20
41.21956340479901
 30
0.0
 11
-185.9572377381318
 21
41.31956456819589
 31
0.0
  0
LINE
  5
130B0
330
18
100
AcDbEntity
  8
1PHANTOM
 48
0.5
100
AcDbLine
 10
-188.9572377381318
 20
40.3195715485791
 30
0.0
 11
-189.4572377381318
 21
40.41957271197644
 31
0.0
  0
LINE
  5
130B1
330
18
100
AcDbEntity
  8
1PHANTOM
 48
0.5
100
AcDbLine
 10
-188.9572377381318
 20
41.91957154857901
 30
0.0
 11
-189.4572377381318
 21
42.01957271197634
 31
0.0
  0
LINE
  5
130B2
330
18
100
AcDbEntity
  8
1PHANTOM
 48
0.5
100
AcDbLine
 10
-189.4572377381318
 20
40.41957271197644
 30
0.0
 11
-185.4572377381318
 21
41.21956340479901
 31
0.0
  0
LINE
  5
130B3
330
18
100
AcDbEntity
  8
1PHANTOM
 48
0.5
100
AcDbLine
 10
-189.4572377381318
 20
38.81957271197607
 30
0.0
 11
-185.4572377381318
 21
39.61956340479865
 31
0.0
  0
LINE
  5
130B4
330
18
100
AcDbEntity
  8
1PHANTOM
 48
0.5
100
AcDbLine
 10
-188.9572377381318
 20
43.51957154857892
 30
0.0
 11
-189.4572377381318
 21
43.61957271197625
 31
0.0
  0
LINE
  5
130B5
330
18
100
AcDbEntity
  8
1PHANTOM
 48
0.5
100
AcDbLine
 10
-188.9572377381318
 20
51.71957154857918
 30
0.0
 11
-189.4572377381318
 21
51.81957271197606
 31
0.0
  0
LINE
  5
130B6
330
18
100
AcDbEntity
  8
1PHANTOM
 48
0.5
100
AcDbLine
 10
-189.4572377381318
 20
51.81957271197606
 30
0.0
 11
-185.6836447903355
 21
52.61956393160116
 31
0.0
  0
LINE
  5
130B7
330
18
100
AcDbEntity
  8
1PHANTOM
 48
0.5
100
AcDbLine
 10
-185.6836447903355
 20
52.61956393160116
 30
0.0
 11
-186.2202385256068
 21
52.74883462923125
 31
0.0
  0
LINE
  5
130B8
330
18
100
AcDbEntity
  8
1PHANTOM
 48
0.5
100
AcDbLine
 10
-185.4572377381318
 20
44.41956340479882
 30
0.0
 11
-185.9572377381318
 21
44.5195645681957
 31
0.0
  0
LINE
  5
130B9
330
18
100
AcDbEntity
  8
1PHANTOM
 48
0.5
100
AcDbLine
 10
-185.4572377381318
 20
46.01956340479873
 30
0.0
 11
-185.9572377381318
 21
46.11956456819607
 31
0.0
  0
LINE
  5
130BA
330
18
100
AcDbEntity
  8
1PHANTOM
 48
0.5
100
AcDbLine
 10
-188.9572377381318
 20
45.11957154857927
 30
0.0
 11
-189.4572377381318
 21
45.21957271197616
 31
0.0
  0
LINE
  5
130BB
330
18
100
AcDbEntity
  8
1PHANTOM
 48
0.5
100
AcDbLine
 10
-189.4572377381318
 20
45.21957271197616
 30
0.0
 11
-185.4572377381318
 21
46.01956340479873
 31
0.0
  0
LINE
  5
130BC
330
18
100
AcDbEntity
  8
1PHANTOM
 48
0.5
100
AcDbLine
 10
-189.4572377381318
 20
43.61957271197625
 30
0.0
 11
-185.4572377381318
 21
44.41956340479882
 31
0.0
  0
LINE
  5
130BD
330
18
100
AcDbEntity
  8
1PHANTOM
 48
0.5
100
AcDbLine
 10
-189.0044215960728
 20
53.41957165836592
 30
0.0
 11
-186.1364588947425
 21
54.21956498520703
 31
0.0
  0
LINE
  5
130BE
330
18
100
AcDbEntity
  8
1PHANTOM
 48
0.5
100
AcDbLine
 10
-188.5516080880246
 20
55.0195706047617
 30
0.0
 11
-186.5892729991491
 21
55.81956603881289
 31
0.0
  0
LINE
  5
130BF
330
18
100
AcDbEntity
  8
1PHANTOM
 48
0.5
100
AcDbLine
 10
-186.1364588947425
 20
54.21956498520703
 30
0.0
 11
-186.6882083585459
 21
54.40232912783503
 31
0.0
  0
LINE
  5
130C0
330
18
100
AcDbEntity
  8
1PHANTOM
 48
0.5
100
AcDbLine
 10
-188.0944362473937
 20
54.86813480832106
 30
0.0
 11
-188.5516080880246
 21
55.0195706047617
 31
0.0
  0
LINE
  5
130C1
330
18
100
AcDbEntity
  8
1PHANTOM
 48
0.5
100
AcDbLine
 10
-186.5892729991491
 20
55.81956603881289
 30
0.0
 11
-187.1775495741916
 21
56.13133589506478
 31
0.0
  0
LINE
  5
130C2
330
18
100
AcDbEntity
  8
1PHANTOM
 48
0.5
100
AcDbLine
 10
-188.5363231409227
 20
53.30680214601588
 30
0.0
 11
-189.0044215960728
 21
53.41957165836592
 31
0.0
  0
LINE
  5
130C3
330
18
100
AcDbEntity
  8
1PHANTOM
 48
0.5
100
AcDbLine
 10
-185.4572377381318
 20
42.81956340479892
 30
0.0
 11
-185.9572377381318
 21
42.9195645681958
 31
0.0
  0
LINE
  5
130C4
330
18
100
AcDbEntity
  8
1PHANTOM
 48
0.5
100
AcDbLine
 10
-189.4572377381318
 20
42.01957271197634
 30
0.0
 11
-185.4572377381318
 21
42.81956340479892
 31
0.0
  0
LINE
  5
130C5
330
18
100
AcDbEntity
  8
1PHANTOM
 48
0.5
100
AcDbLine
 10
-185.9572377381318
 20
25.11956456817925
 30
0.0
 11
-185.4572377381318
 21
25.21956340478128
 31
0.0
  0
LINE
  5
130C6
330
18
100
AcDbEntity
  8
1PHANTOM
 48
0.5
100
AcDbLine
 10
-189.4572377381318
 20
26.01957271196725
 30
0.0
 11
-185.4572377381318
 21
26.81956340478573
 31
0.0
  0
LINE
  5
130C7
330
18
100
AcDbEntity
  8
1PHANTOM
 48
0.5
100
AcDbLine
 10
-189.4572377381318
 20
29.21957271196752
 30
0.0
 11
-185.4572377381318
 21
30.01956340478555
 31
0.0
  0
LINE
  5
130C8
330
18
100
AcDbEntity
  8
1PHANTOM
 48
0.5
100
AcDbLine
 10
-185.4572377381318
 20
30.01956340478555
 30
0.0
 11
-185.9572377381318
 21
30.11956456818334
 31
0.0
  0
LINE
  5
130C9
330
18
100
AcDbEntity
  8
1PHANTOM
 48
0.5
100
AcDbLine
 10
-185.4572377381318
 20
26.81956340478573
 30
0.0
 11
-185.9572377381318
 21
26.91956456818352
 31
0.0
  0
LINE
  5
130CA
330
18
100
AcDbEntity
  8
1PHANTOM
 48
0.5
100
AcDbLine
 10
-188.9572377381318
 20
27.51957154856982
 30
0.0
 11
-189.4572377381318
 21
27.61957271196716
 31
0.0
  0
LINE
  5
130CB
330
18
100
AcDbEntity
  8
1PHANTOM
 48
0.5
100
AcDbLine
 10
-185.4572377381318
 20
28.41956340478564
 30
0.0
 11
-185.9572377381318
 21
28.51956456818343
 31
0.0
  0
LINE
  5
130CC
330
18
100
AcDbEntity
  8
1PHANTOM
 48
0.5
100
AcDbLine
 10
-189.4572377381318
 20
27.61957271196716
 30
0.0
 11
-185.4572377381318
 21
28.41956340478564
 31
0.0
  0
LINE
  5
130CD
330
18
100
AcDbEntity
  8
1PHANTOM
 48
0.5
100
AcDbLine
 10
-188.9572377381318
 20
29.11957154856973
 30
0.0
 11
-189.4572377381318
 21
29.21957271196752
 31
0.0
  0
LINE
  5
130CE
330
18
100
AcDbEntity
  8
1PHANTOM
 48
0.5
100
AcDbLine
 10
-185.4572377381318
 20
25.21956340478128
 30
0.0
 11
-185.9572377381318
 21
25.31956456817907
 31
0.0
  0
LINE
  5
130CF
330
18
100
AcDbEntity
  8
1PHANTOM
 48
0.5
100
AcDbLine
 10
-188.9572377381318
 20
25.91957154856991
 30
0.0
 11
-189.4572377381318
 21
26.01957271196725
 31
0.0
  0
LINE
  5
130D0
330
18
100
AcDbEntity
  8
1PHANTOM
 48
0.5
100
AcDbLine
 10
-191.4572842740298
 20
22.41957736578261
 30
0.0
 11
-183.4572842740298
 21
22.4195587514233
 31
0.0
  0
LINE
  5
130D1
330
18
100
AcDbEntity
  8
1PHANTOM
 48
0.5
100
AcDbLine
 10
-188.9572377381318
 20
30.71957154857419
 30
0.0
 11
-189.4572377381318
 21
30.81957271197198
 31
0.0
  0
LINE
  5
130D2
330
18
100
AcDbEntity
  8
1PHANTOM
 48
0.5
100
AcDbLine
 10
-188.9572377381318
 20
32.31957154857864
 30
0.0
 11
-189.4572377381318
 21
32.41957271197598
 31
0.0
  0
LINE
  5
130D3
330
18
100
AcDbEntity
  8
1PHANTOM
 48
0.5
100
AcDbLine
 10
-185.4572377381318
 20
31.61956340479001
 30
0.0
 11
-185.9572377381318
 21
31.7195645681878
 31
0.0
  0
LINE
  5
130D4
330
18
100
AcDbEntity
  8
1PHANTOM
 48
0.5
100
AcDbLine
 10
-188.9572377381318
 20
35.51957154857846
 30
0.0
 11
-189.4572377381318
 21
35.61957271197625
 31
0.0
  0
LINE
  5
130D5
330
18
100
AcDbEntity
  8
1PHANTOM
 48
0.5
100
AcDbLine
 10
-189.4572377381318
 20
34.01957271197589
 30
0.0
 11
-185.4572377381318
 21
34.81956340479437
 31
0.0
  0
LINE
  5
130D6
330
18
100
AcDbEntity
  8
1PHANTOM
 48
0.5
100
AcDbLine
 10
-185.4572377381318
 20
34.81956340479437
 30
0.0
 11
-185.9572377381318
 21
34.91956456819216
 31
0.0
  0
LINE
  5
130D7
330
18
100
AcDbEntity
  8
1PHANTOM
 48
0.5
100
AcDbLine
 10
-188.9572377381318
 20
33.91957154857855
 30
0.0
 11
-189.4572377381318
 21
34.01957271197589
 31
0.0
  0
LINE
  5
130D8
330
18
100
AcDbEntity
  8
1PHANTOM
 48
0.5
100
AcDbLine
 10
-185.4572377381318
 20
33.21956340479446
 30
0.0
 11
-185.9572377381318
 21
33.31956456819226
 31
0.0
  0
LINE
  5
130D9
330
18
100
AcDbEntity
  8
1PHANTOM
 48
0.5
100
AcDbLine
 10
-185.4572377381318
 20
38.01956340479874
 30
0.0
 11
-185.9572377381318
 21
38.11956456819608
 31
0.0
  0
LINE
  5
130DA
330
18
100
AcDbEntity
  8
1PHANTOM
 48
0.5
100
AcDbLine
 10
-185.4572377381318
 20
36.41956340479428
 30
0.0
 11
-185.9572377381318
 21
36.51956456819207
 31
0.0
  0
LINE
  5
130DB
330
18
100
AcDbEntity
  8
1PHANTOM
 48
0.5
100
AcDbLine
 10
-188.9572377381318
 20
37.11957154857837
 30
0.0
 11
-189.4572377381318
 21
37.21957271197616
 31
0.0
  0
LINE
  5
130DC
330
18
100
AcDbEntity
  8
1PHANTOM
 48
0.5
100
AcDbLine
 10
-189.4572377381318
 20
37.21957271197616
 30
0.0
 11
-185.4572377381318
 21
38.01956340479874
 31
0.0
  0
LINE
  5
130DD
330
18
100
AcDbEntity
  8
1PHANTOM
 48
0.5
100
AcDbLine
 10
-189.4572377381318
 20
35.61957271197625
 30
0.0
 11
-185.4572377381318
 21
36.41956340479428
 31
0.0
  0
LINE
  5
130DE
330
18
100
AcDbEntity
  8
1PHANTOM
 48
0.5
100
AcDbLine
 10
-189.4572377381318
 20
32.41957271197598
 30
0.0
 11
-185.4572377381318
 21
33.21956340479446
 31
0.0
  0
LINE
  5
130DF
330
18
100
AcDbEntity
  8
1PHANTOM
 48
0.5
100
AcDbLine
 10
-189.4572377381318
 20
30.81957271197198
 30
0.0
 11
-185.4572377381318
 21
31.61956340479001
 31
0.0
  0
LINE
  5
130E1
330
18
100
AcDbEntity
  8
1PHANTOM
 48
0.5
100
AcDbLine
 10
-187.4572842740303
 20
21.16957325802114
 30
0.0
 11
-187.4572842740303
 21
22.16957325802114
 31
0.0
  0
SPLINE
  5
130E3
330
18
100
AcDbEntity
  8
1CENTER
 48
0.5
100
AcDbSpline
210
0.0
220
0.0
230
1.0
 70
    24
 71
     3
 72
    10
 73
     6
 74
     0
 42
0.0000000001
 43
0.0000000001
 40
0.0
 40
0.0
 40
0.0
 40
0.0
 40
4.95
 40
4.95
 40
5.0
 40
5.0
 40
5.0
 40
5.0
 10
-205.4572842740316
 20
60.26261580117725
 30
0.0
 10
-205.4572842740316
 20
25.01957325802105
 30
0.0
 10
-205.4572842740316
 20
23.36957325802323
 30
0.0
 10
-205.4572842740298
 20
20.04816834780704
 30
0.0
 10
-205.4572842740298
 20
21.68623992469256
 30
0.0
 10
-205.4572842740298
 20
21.66957325802614
 30
0.0
  0
LINE
  5
130E5
330
18
100
AcDbEntity
  8
1PHANTOM
 48
0.5
100
AcDbLine
 10
-206.9572377381318
 20
49.91957154857946
 30
0.0
 11
-207.4572377381318
 21
50.01957271197634
 31
0.0
  0
LINE
  5
130E6
330
18
100
AcDbEntity
  8
1PHANTOM
 48
0.5
100
AcDbLine
 10
-207.4572377381318
 20
50.01957271197634
 30
0.0
 11
-203.4572377381318
 21
50.81956340479891
 31
0.0
  0
LINE
  5
130E7
330
18
100
AcDbEntity
  8
1PHANTOM
 48
0.5
100
AcDbLine
 10
-203.4572377381318
 20
50.81956340479891
 30
0.0
 11
-203.9572377381318
 21
50.91956456819625
 31
0.0
  0
LINE
  5
130E8
330
18
100
AcDbEntity
  8
1PHANTOM
 48
0.5
100
AcDbLine
 10
-206.9572377381318
 20
48.31957154857909
 30
0.0
 11
-207.4572377381318
 21
48.41957271197643
 31
0.0
  0
LINE
  5
130E9
330
18
100
AcDbEntity
  8
1PHANTOM
 48
0.5
100
AcDbLine
 10
-203.4572377381318
 20
49.219563404799
 30
0.0
 11
-203.9572377381318
 21
49.31956456819589
 31
0.0
  0
LINE
  5
130EA
330
18
100
AcDbEntity
  8
1PHANTOM
 48
0.5
100
AcDbLine
 10
-207.4572377381318
 20
48.41957271197643
 30
0.0
 11
-203.4572377381318
 21
49.219563404799
 31
0.0
  0
LINE
  5
130EB
330
18
100
AcDbEntity
  8
1PHANTOM
 48
0.5
100
AcDbLine
 10
-206.9572377381318
 20
46.71957154857918
 30
0.0
 11
-207.4572377381318
 21
46.81957271197652
 31
0.0
  0
LINE
  5
130EC
330
18
100
AcDbEntity
  8
1PHANTOM
 48
0.5
100
AcDbLine
 10
-207.4572377381318
 20
46.81957271197652
 30
0.0
 11
-203.4572377381318
 21
47.61956340479909
 31
0.0
  0
LINE
  5
130ED
330
18
100
AcDbEntity
  8
1PHANTOM
 48
0.5
100
AcDbLine
 10
-203.4572377381318
 20
47.61956340479909
 30
0.0
 11
-203.9572377381318
 21
47.71956456819598
 31
0.0
  0
LINE
  5
130EE
330
18
100
AcDbEntity
  8
1PHANTOM
 48
0.5
100
AcDbLine
 10
-206.9572377381318
 20
38.71957154857919
 30
0.0
 11
-207.4572377381318
 21
38.81957271197607
 31
0.0
  0
LINE
  5
130EF
330
18
100
AcDbEntity
  8
1PHANTOM
 48
0.5
100
AcDbLine
 10
-203.4572377381318
 20
39.61956340479865
 30
0.0
 11
-203.9572377381318
 21
39.71956456819598
 31
0.0
  0
LINE
  5
130F0
330
18
100
AcDbEntity
  8
1PHANTOM
 48
0.5
100
AcDbLine
 10
-203.4572377381318
 20
41.21956340479901
 30
0.0
 11
-203.9572377381318
 21
41.31956456819589
 31
0.0
  0
LINE
  5
130F1
330
18
100
AcDbEntity
  8
1PHANTOM
 48
0.5
100
AcDbLine
 10
-206.9572377381318
 20
40.3195715485791
 30
0.0
 11
-207.4572377381318
 21
40.41957271197644
 31
0.0
  0
LINE
  5
130F2
330
18
100
AcDbEntity
  8
1PHANTOM
 48
0.5
100
AcDbLine
 10
-206.9572377381318
 20
41.91957154857901
 30
0.0
 11
-207.4572377381318
 21
42.01957271197634
 31
0.0
  0
LINE
  5
130F3
330
18
100
AcDbEntity
  8
1PHANTOM
 48
0.5
100
AcDbLine
 10
-207.4572377381318
 20
40.41957271197644
 30
0.0
 11
-203.4572377381318
 21
41.21956340479901
 31
0.0
  0
LINE
  5
130F4
330
18
100
AcDbEntity
  8
1PHANTOM
 48
0.5
100
AcDbLine
 10
-207.4572377381318
 20
38.81957271197607
 30
0.0
 11
-203.4572377381318
 21
39.61956340479865
 31
0.0
  0
LINE
  5
130F5
330
18
100
AcDbEntity
  8
1PHANTOM
 48
0.5
100
AcDbLine
 10
-206.9572377381318
 20
43.51957154857892
 30
0.0
 11
-207.4572377381318
 21
43.61957271197625
 31
0.0
  0
LINE
  5
130F6
330
18
100
AcDbEntity
  8
1PHANTOM
 48
0.5
100
AcDbLine
 10
-206.9572377381318
 20
51.71957154857918
 30
0.0
 11
-207.4572377381318
 21
51.81957271197606
 31
0.0
  0
LINE
  5
130F7
330
18
100
AcDbEntity
  8
1PHANTOM
 48
0.5
100
AcDbLine
 10
-207.4572377381318
 20
51.81957271197606
 30
0.0
 11
-203.6836447903355
 21
52.61956393160162
 31
0.0
  0
LINE
  5
130F8
330
18
100
AcDbEntity
  8
1PHANTOM
 48
0.5
100
AcDbLine
 10
-203.6836447903355
 20
52.61956393160162
 30
0.0
 11
-204.2202385256068
 21
52.74883462923125
 31
0.0
  0
LINE
  5
130F9
330
18
100
AcDbEntity
  8
1PHANTOM
 48
0.5
100
AcDbLine
 10
-203.4572377381318
 20
44.41956340479882
 30
0.0
 11
-203.9572377381318
 21
44.5195645681957
 31
0.0
  0
LINE
  5
130FA
330
18
100
AcDbEntity
  8
1PHANTOM
 48
0.5
100
AcDbLine
 10
-203.4572377381318
 20
46.01956340479873
 30
0.0
 11
-203.9572377381318
 21
46.11956456819607
 31
0.0
  0
LINE
  5
130FB
330
18
100
AcDbEntity
  8
1PHANTOM
 48
0.5
100
AcDbLine
 10
-206.9572377381318
 20
45.11957154857927
 30
0.0
 11
-207.4572377381318
 21
45.21957271197616
 31
0.0
  0
LINE
  5
130FC
330
18
100
AcDbEntity
  8
1PHANTOM
 48
0.5
100
AcDbLine
 10
-207.4572377381318
 20
45.21957271197616
 30
0.0
 11
-203.4572377381318
 21
46.01956340479873
 31
0.0
  0
LINE
  5
130FD
330
18
100
AcDbEntity
  8
1PHANTOM
 48
0.5
100
AcDbLine
 10
-207.4572377381318
 20
43.61957271197625
 30
0.0
 11
-203.4572377381318
 21
44.41956340479882
 31
0.0
  0
LINE
  5
130FE
330
18
100
AcDbEntity
  8
1PHANTOM
 48
0.5
100
AcDbLine
 10
-207.0044215960728
 20
53.41957165836592
 30
0.0
 11
-204.1364588947425
 21
54.21956498520703
 31
0.0
  0
LINE
  5
130FF
330
18
100
AcDbEntity
  8
1PHANTOM
 48
0.5
100
AcDbLine
 10
-206.5516080880246
 20
55.0195706047617
 30
0.0
 11
-204.5892729991491
 21
55.81956603881289
 31
0.0
  0
LINE
  5
13100
330
18
100
AcDbEntity
  8
1PHANTOM
 48
0.5
100
AcDbLine
 10
-204.1364588947425
 20
54.21956498520703
 30
0.0
 11
-204.6882083585459
 21
54.40232912783503
 31
0.0
  0
LINE
  5
13101
330
18
100
AcDbEntity
  8
1PHANTOM
 48
0.5
100
AcDbLine
 10
-206.0944362473937
 20
54.86813480832151
 30
0.0
 11
-206.5516080880246
 21
55.0195706047617
 31
0.0
  0
LINE
  5
13102
330
18
100
AcDbEntity
  8
1PHANTOM
 48
0.5
100
AcDbLine
 10
-204.5892729991491
 20
55.81956603881289
 30
0.0
 11
-205.1775495741916
 21
56.13133589506478
 31
0.0
  0
LINE
  5
13103
330
18
100
AcDbEntity
  8
1PHANTOM
 48
0.5
100
AcDbLine
 10
-206.5363231409227
 20
53.30680214601588
 30
0.0
 11
-207.0044215960728
 21
53.41957165836592
 31
0.0
  0
LINE
  5
13104
330
18
100
AcDbEntity
  8
1PHANTOM
 48
0.5
100
AcDbLine
 10
-203.4572377381318
 20
42.81956340479892
 30
0.0
 11
-203.9572377381318
 21
42.91956456819626
 31
0.0
  0
LINE
  5
13105
330
18
100
AcDbEntity
  8
1PHANTOM
 48
0.5
100
AcDbLine
 10
-207.4572377381318
 20
42.01957271197634
 30
0.0
 11
-203.4572377381318
 21
42.81956340479892
 31
0.0
  0
LINE
  5
13106
330
18
100
AcDbEntity
  8
1PHANTOM
 48
0.5
100
AcDbLine
 10
-203.9572377381318
 20
25.11956456817925
 30
0.0
 11
-203.4572377381318
 21
25.21956340478128
 31
0.0
  0
LINE
  5
13107
330
18
100
AcDbEntity
  8
1PHANTOM
 48
0.5
100
AcDbLine
 10
-207.4572377381318
 20
26.0195727119677
 30
0.0
 11
-203.4572377381318
 21
26.81956340478573
 31
0.0
  0
LINE
  5
13108
330
18
100
AcDbEntity
  8
1PHANTOM
 48
0.5
100
AcDbLine
 10
-207.4572377381318
 20
29.21957271196752
 30
0.0
 11
-203.4572377381318
 21
30.01956340478601
 31
0.0
  0
LINE
  5
13109
330
18
100
AcDbEntity
  8
1PHANTOM
 48
0.5
100
AcDbLine
 10
-203.4572377381318
 20
30.01956340478601
 30
0.0
 11
-203.9572377381318
 21
30.11956456818334
 31
0.0
  0
LINE
  5
1310A
330
18
100
AcDbEntity
  8
1PHANTOM
 48
0.5
100
AcDbLine
 10
-203.4572377381318
 20
26.81956340478573
 30
0.0
 11
-203.9572377381318
 21
26.91956456818352
 31
0.0
  0
LINE
  5
1310B
330
18
100
AcDbEntity
  8
1PHANTOM
 48
0.5
100
AcDbLine
 10
-206.9572377381318
 20
27.51957154856982
 30
0.0
 11
-207.4572377381318
 21
27.61957271196761
 31
0.0
  0
LINE
  5
1310C
330
18
100
AcDbEntity
  8
1PHANTOM
 48
0.5
100
AcDbLine
 10
-203.4572377381318
 20
28.41956340478564
 30
0.0
 11
-203.9572377381318
 21
28.51956456818343
 31
0.0
  0
LINE
  5
1310D
330
18
100
AcDbEntity
  8
1PHANTOM
 48
0.5
100
AcDbLine
 10
-207.4572377381318
 20
27.61957271196761
 30
0.0
 11
-203.4572377381318
 21
28.41956340478564
 31
0.0
  0
LINE
  5
1310E
330
18
100
AcDbEntity
  8
1PHANTOM
 48
0.5
100
AcDbLine
 10
-206.9572377381318
 20
29.11957154856973
 30
0.0
 11
-207.4572377381318
 21
29.21957271196752
 31
0.0
  0
LINE
  5
1310F
330
18
100
AcDbEntity
  8
1PHANTOM
 48
0.5
100
AcDbLine
 10
-203.4572377381318
 20
25.21956340478128
 30
0.0
 11
-203.9572377381318
 21
25.31956456817907
 31
0.0
  0
LINE
  5
13110
330
18
100
AcDbEntity
  8
1PHANTOM
 48
0.5
100
AcDbLine
 10
-206.9572377381318
 20
25.91957154856991
 30
0.0
 11
-207.4572377381318
 21
26.0195727119677
 31
0.0
  0
LINE
  5
13111
330
18
100
AcDbEntity
  8
1PHANTOM
 48
0.5
100
AcDbLine
 10
-209.4572842740298
 20
22.41957736578261
 30
0.0
 11
-201.4572842740298
 21
22.4195587514233
 31
0.0
  0
LINE
  5
13112
330
18
100
AcDbEntity
  8
1PHANTOM
 48
0.5
100
AcDbLine
 10
-206.9572377381318
 20
30.71957154857419
 30
0.0
 11
-207.4572377381318
 21
30.81957271197198
 31
0.0
  0
LINE
  5
13113
330
18
100
AcDbEntity
  8
1PHANTOM
 48
0.5
100
AcDbLine
 10
-206.9572377381318
 20
32.31957154857864
 30
0.0
 11
-207.4572377381318
 21
32.41957271197644
 31
0.0
  0
LINE
  5
13114
330
18
100
AcDbEntity
  8
1PHANTOM
 48
0.5
100
AcDbLine
 10
-203.4572377381318
 20
31.61956340479001
 30
0.0
 11
-203.9572377381318
 21
31.7195645681878
 31
0.0
  0
LINE
  5
13115
330
18
100
AcDbEntity
  8
1PHANTOM
 48
0.5
100
AcDbLine
 10
-206.9572377381318
 20
35.51957154857846
 30
0.0
 11
-207.4572377381318
 21
35.61957271197625
 31
0.0
  0
LINE
  5
13116
330
18
100
AcDbEntity
  8
1PHANTOM
 48
0.5
100
AcDbLine
 10
-207.4572377381318
 20
34.01957271197634
 30
0.0
 11
-203.4572377381318
 21
34.81956340479437
 31
0.0
  0
LINE
  5
13117
330
18
100
AcDbEntity
  8
1PHANTOM
 48
0.5
100
AcDbLine
 10
-203.4572377381318
 20
34.81956340479437
 30
0.0
 11
-203.9572377381318
 21
34.91956456819216
 31
0.0
  0
LINE
  5
13118
330
18
100
AcDbEntity
  8
1PHANTOM
 48
0.5
100
AcDbLine
 10
-206.9572377381318
 20
33.91957154857855
 30
0.0
 11
-207.4572377381318
 21
34.01957271197634
 31
0.0
  0
LINE
  5
13119
330
18
100
AcDbEntity
  8
1PHANTOM
 48
0.5
100
AcDbLine
 10
-203.4572377381318
 20
33.21956340479446
 30
0.0
 11
-203.9572377381318
 21
33.31956456819226
 31
0.0
  0
LINE
  5
1311A
330
18
100
AcDbEntity
  8
1PHANTOM
 48
0.5
100
AcDbLine
 10
-203.4572377381318
 20
38.01956340479874
 30
0.0
 11
-203.9572377381318
 21
38.11956456819608
 31
0.0
  0
LINE
  5
1311B
330
18
100
AcDbEntity
  8
1PHANTOM
 48
0.5
100
AcDbLine
 10
-203.4572377381318
 20
36.41956340479474
 30
0.0
 11
-203.9572377381318
 21
36.51956456819207
 31
0.0
  0
LINE
  5
1311C
330
18
100
AcDbEntity
  8
1PHANTOM
 48
0.5
100
AcDbLine
 10
-206.9572377381318
 20
37.11957154857837
 30
0.0
 11
-207.4572377381318
 21
37.21957271197616
 31
0.0
  0
LINE
  5
1311D
330
18
100
AcDbEntity
  8
1PHANTOM
 48
0.5
100
AcDbLine
 10
-207.4572377381318
 20
37.21957271197616
 30
0.0
 11
-203.4572377381318
 21
38.01956340479874
 31
0.0
  0
LINE
  5
1311E
330
18
100
AcDbEntity
  8
1PHANTOM
 48
0.5
100
AcDbLine
 10
-207.4572377381318
 20
35.61957271197625
 30
0.0
 11
-203.4572377381318
 21
36.41956340479474
 31
0.0
  0
LINE
  5
1311F
330
18
100
AcDbEntity
  8
1PHANTOM
 48
0.5
100
AcDbLine
 10
-207.4572377381318
 20
32.41957271197644
 30
0.0
 11
-203.4572377381318
 21
33.21956340479446
 31
0.0
  0
LINE
  5
13120
330
18
100
AcDbEntity
  8
1PHANTOM
 48
0.5
100
AcDbLine
 10
-207.4572377381318
 20
30.81957271197198
 30
0.0
 11
-203.4572377381318
 21
31.61956340479001
 31
0.0
  0
LINE
  5
13122
330
18
100
AcDbEntity
  8
1PHANTOM
 48
0.5
100
AcDbLine
 10
-205.4572842740303
 20
21.16957325802114
 30
0.0
 11
-205.4572842740303
 21
22.16957325802114
 31
0.0
  0
ELLIPSE
  5
13124
330
18
100
AcDbEntity
  8
01
100
AcDbEllipse
 10
-128.9513789910069
 20
-72.71133145623685
 30
0.0
 11
3.000000000018645
 21
0.0
 31
0.0
210
0.0
220
0.0
230
1.0
 40
0.7468555616605013
 41
4.71238898038469
 42
6.283185307179586
  0
ELLIPSE
  5
13125
330
18
100
AcDbEntity
  8
01
100
AcDbEllipse
 10
-263.9513789895094
 20
-72.71131774478204
 30
0.0
 11
-3.000000001478384
 21
0.0
 31
0.0
210
0.0
220
0.0
230
1.0
 40
0.7468601317835476
 41
0.0
 42
1.570796326794897
  0
LINE
  5
13128
330
18
100
AcDbEntity
  8
1PHANTOM
 48
0.3
100
AcDbLine
 10
-198.8261379255713
 20
3.169573563171753
 30
0.0
 11
-193.8261379255695
 21
3.169573563171753
 31
0.0
  0
LINE
  5
13129
330
18
100
AcDbEntity
  8
1PHANTOM
 48
0.3
100
AcDbLine
 10
-189.3261379255713
 20
7.669573563170843
 30
0.0
 11
-189.3261379255695
 21
21.16957356317175
 31
0.0
  0
LINE
  5
1312A
330
18
100
AcDbEntity
  8
1PHANTOM
 48
0.3
100
AcDbLine
 10
-203.3261379255713
 20
7.669573563170843
 30
0.0
 11
-203.3261379255713
 21
21.16957356317175
 31
0.0
  0
LINE
  5
1312B
330
18
100
AcDbEntity
  8
1PHANTOM
 48
0.3
100
AcDbLine
 10
-203.3261379255713
 20
7.669573563171753
 30
0.0
 11
-198.8261379255713
 21
3.169573563171753
 31
0.0
  0
LINE
  5
1312C
330
18
100
AcDbEntity
  8
1PHANTOM
 48
0.3
100
AcDbLine
 10
-193.8261379255713
 20
3.169573563171753
 30
0.0
 11
-189.3261379255713
 21
7.669573563171753
 31
0.0
  0
ARC
  5
13169
330
18
100
AcDbEntity
  8
01
100
AcDbCircle
 10
-153.9523239086648
 20
-3.522338981672579
 30
0.0
 40
33.5983880519478
100
AcDbArc
 50
184.7260496763083
 51
198.0294221101611
  0
ARC
  5
1316B
330
18
100
AcDbEntity
  8
01
100
AcDbCircle
 10
-168.9685641283709
 20
-5.451225118387853
 30
0.0
 40
18.48697786739204
100
AcDbArc
 50
157.9373563179057
 51
182.6022184337523
  0
ARC
  5
1316E
330
18
100
AcDbEntity
  8
01
100
AcDbCircle
 10
-97.50297551712902
 20
-35.43107726679702
 30
0.0
 40
95.98505187595904
100
AcDbArc
 50
152.3264657293382
 51
157.37586381841
  0
ARC
  5
1316F
330
18
100
AcDbEntity
  8
01
100
AcDbCircle
 10
-282.9305761347026
 20
55.23611066334954
 30
0.0
 40
110.4935439295667
100
AcDbArc
 50
335.3473949689247
 51
341.8222843945011
  0
ARC
  5
13170
330
18
100
AcDbEntity
  8
01
100
AcDbCircle
 10
-238.9504418874678
 20
-3.522338981672579
 30
0.0
 40
33.5983880519478
100
AcDbArc
 50
341.970577889839
 51
355.2739503236913
  0
ARC
  5
13171
330
18
100
AcDbEntity
  8
01
100
AcDbCircle
 10
-223.9342016677617
 20
-5.451225118387853
 30
0.0
 40
18.48697786739204
100
AcDbArc
 50
357.3977815662474
 51
22.06264368209469
  0
ARC
  5
13172
330
18
100
AcDbEntity
  8
01
100
AcDbCircle
 10
-295.3997902790036
 20
-35.43107726679702
 30
0.0
 40
95.98505187595904
100
AcDbArc
 50
22.62413618159049
 51
27.67353427066164
  0
ARC
  5
13173
330
18
100
AcDbEntity
  8
01
100
AcDbCircle
 10
-109.97218966143
 20
55.23611066334954
 30
0.0
 40
110.4935439295667
100
AcDbArc
 50
198.177715605498
 51
204.6526050310751
  0
ARC
  5
13178
330
18
100
AcDbEntity
  8
01
100
AcDbCircle
 10
-182.4513222800795
 20
-14.92121926637916
 30
0.0
 40
1.0
100
AcDbArc
 50
0.4076647646518058
 51
90.00324929395542
  0
ARC
  5
13179
330
18
100
AcDbEntity
  8
01
100
AcDbCircle
 10
-210.4524805435451
 20
-14.9212186617843
 30
0.0
 40
1.0
100
AcDbArc
 50
89.93688565876606
 51
178.8933098388912
  0
LINE
  5
1317A
330
18
100
AcDbEntity
  8
01
100
AcDbLine
 10
-213.8513789909883
 20
-13.72121926783461
 30
0.0
 11
-213.8513789909883
 21
-19.06580502596103
 31
0.0
  0
LINE
  5
1317B
330
18
100
AcDbEntity
  8
01
100
AcDbLine
 10
-215.8513789909874
 20
-13.72121926783461
 30
0.0
 11
-215.8513789909874
 21
-19.06580502596103
 31
0.0
  0
LINE
  5
1317C
330
18
100
AcDbEntity
  8
01
100
AcDbLine
 10
-216.8513785796921
 20
-16.0881908112751
 30
0.0
 11
-216.8513785796921
 21
-19.06580502596103
 31
0.0
  0
LINE
  5
1317D
330
18
100
AcDbEntity
  8
01
100
AcDbLine
 10
-256.9513789909878
 20
-19.06580502596103
 30
0.0
 11
-135.9513789909873
 21
-19.06580502596103
 31
0.0
  0
LINE
  5
1317F
330
18
100
AcDbEntity
  8
01
100
AcDbLine
 10
-181.4513475922425
 20
-14.91410423402451
 30
0.0
 11
-181.4513475922425
 21
-19.06580502596103
 31
0.0
  0
LINE
  5
13180
330
18
100
AcDbEntity
  8
01
100
AcDbLine
 10
-216.5513787673548
 20
-15.78872578755931
 30
0.0
 11
-216.8513785796921
 21
-16.0881908112751
 31
0.0
  0
LINE
  5
13181
330
18
100
AcDbEntity
  8
01
100
AcDbLine
 10
-212.6513790029047
 20
-14.92121926818095
 30
0.0
 11
-212.3513789909833
 21
-15.22121790717506
 31
0.0
  0
SPLINE
  5
13182
330
18
100
AcDbEntity
  8
01
100
AcDbSpline
210
0.0
220
0.0
230
1.0
 70
    24
 71
     2
 72
     6
 73
     3
 74
     0
 42
0.0000000001
 43
0.0000000001
 40
0.0
 40
0.0
 40
0.0
 40
1.999999999999091
 40
1.999999999999091
 40
1.999999999999091
 10
-177.0631902726499
 20
-13.72121926783461
 30
0.0
 10
-178.0631902726494
 20
-13.72121926783461
 30
0.0
 10
-179.063190272649
 20
-13.72121926783461
 30
0.0
  0
SPLINE
  5
13183
330
18
100
AcDbEntity
  8
01
100
AcDbSpline
210
0.0
220
0.0
230
1.0
 70
    24
 71
     2
 72
     6
 73
     3
 74
     0
 42
0.0000000001
 43
0.0000000001
 40
0.0
 40
0.0
 40
0.0
 40
1.199999988078162
 40
1.199999988078162
 40
1.199999988078162
 10
-179.0631902726544
 20
-14.92121926818095
 30
0.0
 10
-179.6631902666935
 20
-14.92121926818095
 30
0.0
 10
-180.2631902607326
 20
-14.92121926818095
 30
0.0
  0
SPLINE
  5
13184
330
18
100
AcDbEntity
  8
01
100
AcDbSpline
210
0.0
220
0.0
230
1.0
 70
    24
 71
     2
 72
     6
 73
     3
 74
     0
 42
0.0000000001
 43
0.0000000001
 40
0.0
 40
0.0
 40
0.0
 40
3.844587117350656
 40
3.844587117350656
 40
3.844587117350656
 10
-180.563190272654
 20
-19.06580502452584
 30
0.0
 10
-180.563190272654
 20
-17.14351146585091
 30
0.0
 10
-180.563190272654
 20
-15.22121790717506
 30
0.0
  0
SPLINE
  5
13185
330
18
100
AcDbEntity
  8
01
100
AcDbSpline
210
0.0
220
0.0
230
1.0
 70
    24
 71
     2
 72
     6
 73
     3
 74
     0
 42
0.0000000001
 43
0.0000000001
 40
0.0
 40
0.0
 40
0.0
 40
0.7000000243058953
 40
0.7000000243058953
 40
0.7000000243058953
 10
-177.0631905205886
 20
-15.78872607408471
 30
0.0
 10
-176.7131905084356
 20
-15.78872593082201
 30
0.0
 10
-176.3631904962825
 20
-15.78872578755931
 30
0.0
  0
LINE
  5
13186
330
18
100
AcDbEntity
  8
01
100
AcDbLine
 10
-179.063190272649
 20
-13.72121926783461
 30
0.0
 11
-179.063190272649
 21
-19.06580502596103
 31
0.0
  0
LINE
  5
13187
330
18
100
AcDbEntity
  8
01
100
AcDbLine
 10
-177.0631902726499
 20
-13.72121926783461
 30
0.0
 11
-177.0631902726499
 21
-19.06580502596103
 31
0.0
  0
LINE
  5
13188
330
18
100
AcDbEntity
  8
01
100
AcDbLine
 10
-176.0631906839452
 20
-16.0881908112751
 30
0.0
 11
-176.0631906839452
 21
-19.06580502596103
 31
0.0
  0
LINE
  5
13189
330
18
100
AcDbEntity
  8
01
100
AcDbLine
 10
-176.3631904962825
 20
-15.78872578755931
 30
0.0
 11
-176.0631906839452
 21
-16.0881908112751
 31
0.0
  0
LINE
  5
1318A
330
18
100
AcDbEntity
  8
01
100
AcDbLine
 10
-180.2631902607326
 20
-14.92121926818095
 30
0.0
 11
-180.563190272654
 21
-15.22121790717506
 31
0.0
  0
LINE
  5
1318C
330
18
100
AcDbEntity
  8
01
100
AcDbLine
 10
-195.9573313146135
 20
21.16957325802023
 30
0.0
 11
-196.9573310146135
 21
22.16957325802023
 31
0.0
  0
LINE
  5
1318D
330
18
100
AcDbEntity
  8
01
100
AcDbLine
 10
-192.6573311646135
 20
21.16957325802023
 30
0.0
 11
-192.6573311646135
 21
22.16957325802023
 31
0.0
  0
LINE
  5
1318E
330
18
100
AcDbEntity
  8
01
100
AcDbLine
 10
-192.6573311646135
 20
22.16957325802023
 30
0.0
 11
-200.2573311646134
 21
22.16957325802023
 31
0.0
  0
LINE
  5
1318F
330
18
100
AcDbEntity
  8
01
100
AcDbLine
 10
-192.6573311646135
 20
21.16957325802023
 30
0.0
 11
-200.2573311646134
 21
21.16957325802023
 31
0.0
  0
LINE
  5
13190
330
18
100
AcDbEntity
  8
01
100
AcDbLine
 10
-200.2573311646134
 20
21.16957325802023
 30
0.0
 11
-200.2573311646134
 21
22.16957325802023
 31
0.0
  0
LINE
  5
13193
330
18
100
AcDbEntity
  8
01
100
AcDbLine
 10
-215.4572842348156
 20
21.16957356316448
 30
0.0
 11
-177.4572842347765
 21
21.16957356316448
 31
0.0
  0
ELLIPSE
  5
1319E
330
18
100
AcDbEntity
  8
01
100
AcDbEllipse
 10
-256.951378990924
 20
-26.6955406619893
 30
0.0
 11
-10.00000000006378
 21
0.0
 31
0.0
210
0.0
220
0.0
230
1.0
 40
0.7629735635979611
 41
4.71238898038469
 42
6.283185307179586
  0
ELLIPSE
  5
131A1
330
18
100
AcDbEntity
  8
01
100
AcDbEllipse
 10
-135.9513789909873
 20
-26.6955406619893
 30
0.0
 11
-10.0
 21
0.0
 31
0.0
210
0.0
220
0.0
230
1.0
 40
0.7629735636028272
 41
3.141592653589793
 42
4.71238898038469
  0
CIRCLE
  5
131C9
330
18
100
AcDbEntity
  8
1PHANTOM
 48
0.3
100
AcDbCircle
 10
-196.4573311677178
 20
8.169573563164477
 30
0.0
 40
2.0
  0
SPLINE
  5
131CC
330
18
100
AcDbEntity
  8
01
100
AcDbSpline
210
0.0
220
0.0
230
1.0
 70
    24
 71
     2
 72
     6
 73
     3
 74
     0
 42
0.0000000001
 43
0.0000000001
 40
0.0
 40
0.0
 40
0.0
 40
38.86192287576786
 40
38.86192287576786
 40
38.86192287576786
 10
-266.9573317214382
 20
-190.5546434776905
 30
0.0
 10
-266.9573317214382
 20
-171.1236820398066
 30
0.0
 10
-266.9573317214382
 20
-151.6927206019226
 30
0.0
  0
SPLINE
  5
131CE
330
18
100
AcDbEntity
  8
01
100
AcDbSpline
210
0.0
220
0.0
230
1.0
 70
    24
 71
     2
 72
     6
 73
     3
 74
     0
 42
0.0000000001
 43
0.0000000001
 40
0.0
 40
0.0
 40
0.0
 40
5.999999999914905
 40
5.999999999914905
 40
5.999999999914905
 10
-252.9573311678024
 20
-197.7956364930454
 30
0.0
 10
-255.9573311677588
 20
-197.7956364930454
 30
0.0
 10
-258.9573311677169
 20
-197.7956364930454
 30
0.0
  0
SPLINE
  5
131CF
330
18
100
AcDbEntity
  8
01
100
AcDbSpline
210
0.0
220
0.0
230
1.0
 70
    24
 71
     2
 72
     6
 73
     3
 74
     0
 42
0.0000000001
 43
0.0000000001
 40
0.0
 40
0.0
 40
0.0
 40
0.0045674103744773
 40
0.0045674103744773
 40
0.0045674103744773
 10
-253.9481773760718
 20
-186.0300568476536
 30
0.0
 10
-253.9504610812593
 20
-186.0300568476536
 30
0.0
 10
-253.9527447864467
 20
-186.0300568476536
 30
0.0
  0
SPLINE
  5
131D0
330
18
100
AcDbEntity
  8
01
100
AcDbSpline
210
0.0
220
0.0
230
1.0
 70
    24
 71
     2
 72
     6
 73
     3
 74
     0
 42
0.0000000001
 43
0.0000000001
 40
0.0
 40
0.0
 40
0.0
 40
0.2079517448699413
 40
0.2079517448699413
 40
0.2079517448699413
 10
-252.9573311678015
 20
-186.030056847664
 30
0.0
 10
-253.061307040237
 20
-186.030056847659
 30
0.0
 10
-254.4265725336628
 20
-186.0300568476545
 30
0.0
  0
SPLINE
  5
131D2
330
18
100
AcDbEntity
  8
01
100
AcDbSpline
210
0.0
220
0.0
230
1.0
 70
    24
 71
     2
 72
     6
 73
     3
 74
     0
 42
0.0000000001
 43
0.0000000001
 40
0.0
 40
0.0
 40
0.0
 40
6.709360387739622
 40
6.709360387739622
 40
6.709360387739622
 10
-125.9573311677169
 20
-183.8453233635549
 30
0.0
 10
-125.9573311677169
 20
-187.2000035574246
 30
0.0
 10
-125.9573311677169
 20
-190.5546837512946
 30
0.0
  0
SPLINE
  5
131D3
330
18
100
AcDbEntity
  8
01
100
AcDbSpline
210
0.0
220
0.0
230
1.0
 70
    24
 71
     2
 72
     6
 73
     3
 74
     0
 42
0.0000000001
 43
0.0000000001
 40
0.0
 40
0.0
 40
0.0
 40
1.000000000001023
 40
1.000000000001023
 40
1.000000000001023
 10
-134.9573311677178
 20
-167.3789951113989
 30
0.0
 10
-134.4573311677169
 20
-167.3789951113989
 30
0.0
 10
-133.9573311677169
 20
-167.3789951113989
 30
0.0
  0
SPLINE
  5
131D5
330
18
100
AcDbEntity
  8
01
100
AcDbSpline
210
0.0
220
0.0
230
1.0
 70
    12
 71
     2
 72
     6
 73
     3
 74
     0
 42
0.0000000001
 43
0.0000000001
 40
0.0
 40
0.0
 40
0.0
 40
1.570714317567667
 40
1.570714317567667
 40
1.570714317567667
 10
-135.9573311653759
 20
-168.3789435682783
 30
0.0
 41
1.0
 10
-135.9572538521237
 20
-167.3790208868258
 30
0.0
 41
0.7071312111895791
 10
-134.9573311677169
 20
-167.3790291057416
 30
0.0
 41
1.0
  0
SPLINE
  5
131D6
330
18
100
AcDbEntity
  8
01
100
AcDbSpline
210
0.0
220
0.0
230
1.0
 70
    24
 71
     2
 72
     6
 73
     3
 74
     0
 42
0.0000000001
 43
0.0000000001
 40
0.0
 40
0.0
 40
0.0
 40
9.225103990658113
 40
9.225103990658113
 40
9.225103990658113
 10
-125.9573311275282
 20
-174.619945766154
 30
0.0
 10
-125.95733112752
 20
-179.2324977614834
 30
0.0
 10
-125.9573311275118
 20
-183.8450497568123
 30
0.0
  0
SPLINE
  5
131D9
330
18
100
AcDbEntity
  8
01
100
AcDbSpline
210
0.0
220
0.0
230
1.0
 70
    24
 71
     2
 72
     6
 73
     3
 74
     0
 42
0.0000000001
 43
0.0000000001
 40
0.0
 40
0.0
 40
0.0
 40
120.9999999978188
 40
120.9999999978188
 40
120.9999999978188
 10
-256.9573311676896
 20
-104.478244730385
 30
0.0
 10
-196.4573311687801
 20
-104.4782447303199
 30
0.0
 10
-135.9573311698706
 20
-104.4782447302549
 30
0.0
  0
SPLINE
  5
131DB
330
18
100
AcDbEntity
  8
01
100
AcDbSpline
210
0.0
220
0.0
230
1.0
 70
     8
 71
     2
 72
     6
 73
     3
 74
     0
 42
0.0000000001
 43
0.0000000001
 40
1.589403714753553
 40
1.589403714753553
 40
1.589403714753553
 40
28.61822269455031
 40
28.61822269455031
 40
28.61822269455031
 10
-256.9573312101899
 20
-184.2147943011854
 30
0.0
 10
-256.9573312878048
 20
-167.3773451775195
 30
0.0
 10
-256.9573313654201
 20
-153.8629356876212
 30
0.0
  0
SPLINE
  5
131E1
330
18
100
AcDbEntity
  8
01
100
AcDbSpline
210
0.0
220
0.0
230
1.0
 70
    24
 71
     2
 72
     6
 73
     3
 74
     0
 42
0.0000000001
 43
0.0000000001
 40
0.0
 40
0.0
 40
0.0
 40
43.62911179259534
 40
43.62911179259534
 40
43.62911179259534
 10
-266.9573311677169
 20
-151.6345461911041
 30
0.0
 10
-266.9573311677169
 20
-129.8199902948062
 30
0.0
 10
-266.9573311677178
 20
-108.0054343985083
 30
0.0
  0
SPLINE
  5
131E2
330
18
100
AcDbEntity
  8
01
100
AcDbSpline
210
0.0
220
0.0
230
1.0
 70
    24
 71
     2
 72
     6
 73
     3
 74
     0
 42
0.0000000001
 43
0.0000000001
 40
0.0
 40
0.0
 40
0.0
 40
43.6291035902468
 40
43.6291035902468
 40
43.6291035902468
 10
-125.9573311677169
 20
-151.6345146431289
 30
0.0
 10
-125.9573311677169
 20
-129.8199628480055
 30
0.0
 10
-125.957331167716
 20
-108.0054110528821
 30
0.0
  0
SPLINE
  5
131E3
330
18
100
AcDbEntity
  8
01
100
AcDbSpline
210
0.0
220
0.0
230
1.0
 70
    24
 71
     2
 72
     6
 73
     3
 74
     0
 42
0.0000000001
 43
0.0000000001
 40
0.0
 40
0.0
 40
0.0
 40
135.0
 40
135.0
 40
135.0
 10
-128.9573311677169
 20
-153.8629356876212
 30
0.0
 10
-196.4573311677169
 20
-153.8629356876212
 30
0.0
 10
-263.9573311677169
 20
-153.8629356876212
 30
0.0
  0
SPLINE
  5
131E4
330
18
100
AcDbEntity
  8
01
100
AcDbSpline
210
0.0
220
0.0
230
1.0
 70
    28
 71
     2
 72
     6
 73
     3
 74
     0
 42
0.0000000001
 43
0.0000000001
 40
-0.125
 40
-0.125
 40
-0.125
 40
0.0
 40
0.0
 40
0.0
 10
-256.957331167691
 20
-104.4789329175522
 30
0.0
 41
0.9299149639027514
 10
-256.9573311676896
 20
-104.4739216257732
 30
0.0
 41
0.9599514079444293
 10
-256.9573311676896
 20
-104.5051563715596
 30
0.0
 41
1.0
  0
LINE
  5
131E7
330
18
100
AcDbEntity
  8
01
100
AcDbLine
 10
-252.9573311678015
 20
-186.030056847664
 30
0.0
 11
-138.9573311677788
 21
-186.0304160932768
 31
0.0
  0
LINE
  5
131E8
330
18
100
AcDbEntity
  8
01
100
AcDbLine
 10
-252.9573311678024
 20
-197.7956364930454
 30
0.0
 11
-133.9511661669382
 21
-197.7956364930454
 31
0.0
  0
ELLIPSE
  5
131E9
330
18
100
AcDbEntity
  8
01
100
AcDbEllipse
 10
-254.4265725336628
 20
-184.2147943011809
 30
0.0
 11
2.530758676527057
 21
7.924857798941067E-14
 31
0.0
210
0.0
220
0.0
230
1.0
 40
0.7172799853696243
 41
3.141587080481348
 42
4.71238898038469
  0
SPLINE
  5
131EA
330
18
100
AcDbEntity
  8
01
100
AcDbSpline
210
0.0
220
0.0
230
1.0
 70
     8
 71
     2
 72
     6
 73
     3
 74
     0
 42
0.0000000001
 43
0.0000000001
 40
1.589403714753553
 40
1.589403714753553
 40
1.589403714753553
 40
14.95213916239529
 40
14.95213916239529
 40
14.95213916239529
 10
-135.957331125244
 20
-184.2147943011854
 30
0.0
 10
-135.9573310868719
 20
-175.8905542217038
 30
0.0
 10
-135.9573310484999
 20
-168.3785312309282
 30
0.0
  0
ELLIPSE
  5
131EB
330
18
100
AcDbEntity
  8
01
100
AcDbEllipse
 10
-138.9573311678024
 20
-184.2147943011854
 30
0.0
 11
3.00000004255844
 21
0.0
 31
0.0
210
0.0
220
0.0
230
1.0
 40
0.6052072554443034
 41
4.712383773445618
 42
6.283190881276268
  0
CIRCLE
  5
13CB2
330
18
100
AcDbEntity
  8
1PHANTOM
100
AcDbCircle
 10
-205.4573311677178
 20
-114.5804264368447
 30
0.0
 40
2.25
  0
CIRCLE
  5
13CB3
330
18
100
AcDbEntity
  8
1PHANTOM
100
AcDbCircle
 10
-187.4573311677178
 20
-114.5804264368447
 30
0.0
 40
2.25
  0
CIRCLE
  5
13CB4
330
18
100
AcDbEntity
  8
1PHANTOM
100
AcDbCircle
 10
-196.4573311677178
 20
-137.5804264368393
 30
0.0
 40
2.25
  0
LINE
  5
13CB5
330
18
100
AcDbEntity
  8
1CENTER
100
AcDbLine
 10
-190.3823311677178
 20
-114.5804264368443
 30
0.0
 11
-184.5323311677178
 21
-114.5804264368443
 31
0.0
  0
LINE
  5
13CB6
330
18
100
AcDbEntity
  8
1CENTER
100
AcDbLine
 10
-187.4573311677178
 20
-117.5054264368443
 30
0.0
 11
-187.4573311677178
 21
-111.6554264368443
 31
0.0
  0
LINE
  5
13CB7
330
18
100
AcDbEntity
  8
1CENTER
100
AcDbLine
 10
-208.3823311677178
 20
-114.5804264368443
 30
0.0
 11
-202.5323311677178
 21
-114.5804264368443
 31
0.0
  0
LINE
  5
13CB8
330
18
100
AcDbEntity
  8
1CENTER
100
AcDbLine
 10
-205.4573311677178
 20
-117.5054264368443
 30
0.0
 11
-205.4573311677178
 21
-111.6554264368443
 31
0.0
  0
LINE
  5
13CB9
330
18
100
AcDbEntity
  8
1CENTER
100
AcDbLine
 10
-199.3823311677178
 20
-137.5804264368394
 30
0.0
 11
-193.5323311677178
 21
-137.5804264368394
 31
0.0
  0
LINE
  5
13CBA
330
18
100
AcDbEntity
  8
1CENTER
100
AcDbLine
 10
-196.4573311677178
 20
-140.5054264368393
 30
0.0
 11
-196.4573311677178
 21
-134.6554264368394
 31
0.0
  0
ELLIPSE
  5
13D81
330
18
100
AcDbEntity
  8
01
 48
0.2
100
AcDbEllipse
 10
-196.4573311677178
 20
-119.5804264368339
 30
0.0
 11
0.0
 21
25.5
 31
0.0
210
0.0
220
0.0
230
1.0
 40
0.8235294117647416
 41
5.346227972089398
 42
7.220142642271544
  0
ELLIPSE
  5
13D82
330
18
100
AcDbEntity
  8
01
 48
0.2
100
AcDbEllipse
 10
-196.4573311677178
 20
-121.5811957725969
 30
0.0
 11
-0.000951578015338534
 21
-23.50076931649759
 31
0.0
210
0.0
220
0.0
230
1.0
 40
0.8084841710548969
 41
2.385881155193228
 42
3.897369625228759
  0
ELLIPSE
  5
13D90
330
18
100
AcDbEntity
  8
1PHANTOM
100
AcDbEllipse
 10
-196.4573311677178
 20
-119.5804264368339
 30
0.0
 11
0.0
 21
25.5
 31
0.0
210
0.0
220
0.0
230
1.0
 40
0.8235294117647416
 41
7.220142642271554
 42
11.62941327926898
  0
SPLINE
  5
13D93
330
18
100
AcDbEntity
  8
01
 48
0.2
100
AcDbSpline
210
0.0
220
0.0
230
1.0
 70
     8
 71
     3
 72
    18
 73
    14
 74
     0
 42
0.0000000001
 43
0.0000000001
 40
2.406800072625592
 40
2.406800072625592
 40
2.406800072625592
 40
2.406800072625592
 40
2.570131942986384
 40
2.570131942986384
 40
2.877820728175613
 40
2.877820728175613
 40
3.185509513364841
 40
3.185509513364841
 40
3.493198298554069
 40
3.493198298554069
 40
3.800887083743298
 40
3.800887083743298
 40
3.876450829508424
 40
3.876450829508424
 40
3.876450829508424
 40
3.876450829508424
 10
-184.0910295475839
 20
-104.4782447303067
 30
0.0
 10
-184.8404053717991
 20
-103.6407216872689
 30
0.0
 10
-185.6441875817831
 20
-102.880050269058
 30
0.0
 10
-188.0874602522351
 20
-100.9366214686047
 30
0.0
 10
-189.8378904389957
 20
-99.97677427149398
 30
0.0
 10
-193.484295354262
 20
-98.75857217423294
 30
0.0
 10
-195.3798656127706
 20
-98.50001224820409
 30
0.0
 10
-199.1469652789862
 20
-98.70461977174637
 30
0.0
 10
-201.0183993655849
 20
-99.16785218998484
 30
0.0
 10
-204.5687263318408
 20
-100.7786373328935
 30
0.0
 10
-206.2470668377514
 20
-101.9263231435657
 30
0.0
 10
-208.1181342365574
 20
-103.7196951402838
 30
0.0
 10
-208.476461108021
 20
-104.0907563199432
 30
0.0
 10
-208.8231544782029
 20
-104.4782447303332
 30
0.0
  0
LINE
  5
13D94
330
18
100
AcDbEntity
  8
1PHANTOM
 48
0.3
100
AcDbLine
 10
-203.4573311677178
 20
-129.3644353918338
 30
0.0
 11
-203.457331167716
 21
-123.5804264368339
 31
0.0
  0
LINE
  5
13D97
330
18
100
AcDbEntity
  8
1PHANTOM
 48
0.3
100
AcDbLine
 10
-201.957331167616
 20
-132.5811957728188
 30
0.0
 11
-203.4573311677178
 21
-129.3644353918338
 31
0.0
  0
LINE
  5
13D98
330
18
100
AcDbEntity
  8
1PHANTOM
 48
0.3
100
AcDbLine
 10
-189.4573311677178
 20
-129.364435391836
 30
0.0
 11
-189.4573311677181
 21
-123.5804264368319
 31
0.0
  0
LINE
  5
13D9B
330
18
100
AcDbEntity
  8
1PHANTOM
 48
0.3
100
AcDbLine
 10
-190.9573311678215
 20
-132.5811957728206
 30
0.0
 11
-189.4573311677178
 21
-129.364435391836
 31
0.0
  0
LINE
  5
13D9C
330
18
100
AcDbEntity
  8
1PHANTOM
 48
0.3
100
AcDbLine
 10
-190.9573311678215
 20
-132.5811957728206
 30
0.0
 11
-196.457331167716
 21
-132.5811957728197
 31
0.0
  0
LINE
  5
13D9D
330
18
100
AcDbEntity
  8
1PHANTOM
 48
0.3
100
AcDbLine
 10
-196.457331167716
 20
-132.5811957728188
 30
0.0
 11
-201.957331167616
 21
-132.5811957728188
 31
0.0
  0
LINE
  5
13D9F
330
18
100
AcDbEntity
  8
1PHANTOM
 48
0.3
100
AcDbLine
 10
-190.4573311677161
 20
-122.5804264368338
 30
0.0
 11
-202.457331167716
 21
-122.580426436833
 31
0.0
  0
LINE
  5
13DA5
330
18
100
AcDbEntity
  8
1PHANTOM
 48
0.3
100
AcDbLine
 10
-203.457331167716
 20
-123.5804264368339
 30
0.0
 11
-202.457331167716
 21
-122.5804264368339
 31
0.0
  0
LINE
  5
13DA6
330
18
100
AcDbEntity
  8
1PHANTOM
 48
0.3
100
AcDbLine
 10
-189.4573311677181
 20
-123.5804264368319
 30
0.0
 11
-190.4573311677161
 21
-122.5804264368338
 31
0.0
  0
ELLIPSE
  5
13E31
330
18
100
AcDbEntity
  8
01
100
AcDbEllipse
 10
-256.9573311676896
 20
-108.0054343985083
 30
0.0
 11
-10.00000000002819
 21
-2.518090897491161E-15
 31
0.0
210
0.0
220
0.0
230
1.0
 40
0.3527189668113412
 41
4.71238298924626
 42
6.283185307179586
  0
ELLIPSE
  5
13E33
330
18
100
AcDbEntity
  8
01
100
AcDbEllipse
 10
-135.9573311698706
 20
-108.0054343985083
 30
0.0
 11
-10.00000000218184
 21
0.0
 31
0.0
210
0.0
220
0.0
230
1.0
 40
0.3527189667483835
 41
3.141592653589793
 42
4.71238898038469
  0
ELLIPSE
  5
13E37
330
18
100
AcDbEntity
  8
01
100
AcDbEllipse
 10
-128.9573311677169
 20
-151.6345146431289
 30
0.0
 11
3.0
 21
0.0
 31
0.0
210
0.0
220
0.0
230
1.0
 40
0.7428070148307597
 41
4.71238898038469
 42
6.283185307179586
  0
ELLIPSE
  5
13E3A
330
18
100
AcDbEntity
  8
01
100
AcDbEllipse
 10
-263.9573311677169
 20
-151.6927206019226
 30
0.0
 11
-3.000000553721293
 21
0.0
 31
0.0
210
0.0
220
0.0
230
1.0
 40
0.7234048950446357
 41
0.0
 42
1.570796326794897
  0
ELLIPSE
  5
13E3F
330
18
100
AcDbEntity
  8
01
100
AcDbEllipse
 10
-133.9573311677169
 20
-174.619945766154
 30
0.0
 11
-8.000000040188752
 21
0.0
 31
0.0
210
0.0
220
0.0
230
1.0
 40
0.905118833938685
 41
9.424774702911574
 42
10.99569543715198
  0
ELLIPSE
  5
13E43
330
18
100
AcDbEntity
  8
01
100
AcDbEllipse
 10
-133.9511661669382
 20
-190.5546837512946
 30
0.0
 11
7.993834999221234
 21
0.0
 31
0.0
210
0.0
220
0.0
230
1.0
 40
0.905817513801691
 41
4.711478242026769
 42
6.283185307179586
  0
ELLIPSE
  5
13E46
330
18
100
AcDbEntity
  8
01
100
AcDbEllipse
 10
-258.9573311677169
 20
-190.5546861412207
 30
0.0
 11
-8.000000553721295
 21
4.266353016646464E-5
 31
0.0
210
0.0
220
0.0
230
1.0
 40
0.9051187313172802
 41
6.283183229480776
 42
7.853986460919186
  0
SPLINE
  5
13ED6
330
18
100
AcDbEntity
  8
01
100
AcDbSpline
210
0.0
220
0.0
230
1.0
 70
     8
 71
     3
 72
    11
 73
     7
 74
     0
 42
0.0000000001
 43
0.0000000001
 40
0.0
 40
0.0
 40
0.0
 40
0.0
 40
0.1755322523512593
 40
0.3509092154594451
 40
0.701215579775453
 40
1.396199853419464
 40
1.396199853419464
 40
1.396199853419464
 40
1.396199853419464
 10
-12.90509699016035
 20
-123.5340807355856
 30
0.0
 10
-12.88333499983524
 20
-123.479782329397
 30
0.0
 10
-12.8351548719596
 20
-123.3730314000254
 30
0.0
 10
-12.71969543828014
 20
-123.1695623016699
 30
0.0
 10
-12.47207694576751
 20
-122.8445256586288
 30
0.0
 10
-12.18864232472457
 20
-122.6317548785983
 30
0.0
 10
-11.98022053284363
 20
-122.5304262764071
 30
0.0
  0
SPLINE
  5
13ED7
330
18
100
AcDbEntity
  8
01
100
AcDbSpline
210
0.0
220
0.0
230
1.0
 70
    12
 71
     2
 72
     6
 73
     3
 74
     0
 42
0.0000000001
 43
0.0000000001
 40
0.0
 40
0.0
 40
0.0
 40
0.054881580308002
 40
0.054881580308002
 40
0.054881580308002
 10
-12.93097509406685
 20
-123.6024387173161
 30
0.0
 41
1.0
 10
-12.92173713759927
 20
-123.5765977680235
 30
0.0
 41
0.9999028647028115
 10
-12.91178251034431
 20
-123.5510243463468
 30
0.0
 41
1.0
  0
SPLINE
  5
13ED8
330
18
100
AcDbEntity
  8
01
100
AcDbSpline
210
0.0
220
0.0
230
1.0
 70
    12
 71
     2
 72
     6
 73
     3
 74
     0
 42
0.0000000001
 43
0.0000000001
 40
0.0
 40
0.0
 40
0.0
 40
0.0064038922760022
 40
0.0064038922760022
 40
0.0064038922760022
 10
-12.94793707239238
 20
-123.651954245433
 30
0.0
 41
1.0
 10
-12.94693972177116
 20
-123.6489115872555
 30
0.0
 41
0.9999986849392418
 10
-12.94593250745889
 20
-123.6458721800141
 30
0.0
 41
1.0
  0
SPLINE
  5
13ED9
330
18
100
AcDbEntity
  8
01
100
AcDbSpline
210
0.0
220
0.0
230
1.0
 70
    12
 71
     2
 72
     6
 73
     3
 74
     0
 42
0.0000000001
 43
0.0000000001
 40
0.0
 40
0.0
 40
0.0
 40
0.0212809538060981
 40
0.0212809538060981
 40
0.0212809538060981
 10
-12.9598132224986
 20
-123.6894411810117
 30
0.0
 41
1.0
 10
-12.95670068669675
 20
-123.6792660123365
 30
0.0
 41
0.9999855065691887
 10
-12.95347876823176
 20
-123.6691249483838
 30
0.0
 41
1.0
  0
SPLINE
  5
13EDA
330
18
100
AcDbEntity
  8
01
100
AcDbSpline
210
0.0
220
0.0
230
1.0
 70
     8
 71
     3
 72
    12
 73
     8
 74
     0
 42
0.0000000001
 43
0.0000000001
 40
0.0
 40
0.0
 40
0.0
 40
0.0
 40
0.2445045273638273
 40
0.4885148895837479
 40
0.980734544957458
 40
1.476952024072366
 40
1.971446499488467
 40
1.971446499488467
 40
1.971446499488467
 40
1.971446499488467
 10
-13.0369656313254
 20
-124.1334572961746
 30
0.0
 10
-13.03226469585421
 20
-124.0520910894825
 30
0.0
 10
-13.01277831633921
 20
-123.8901010308714
 30
0.0
 10
-12.93280697346141
 20
-123.5724341080827
 30
0.0
 10
-12.75857726386526
 20
-123.196885750152
 30
0.0
 10
-12.44412041905194
 20
-122.8105004652821
 30
0.0
 10
-12.17719376069032
 20
-122.6118168038306
 30
0.0
 10
-12.03372055724991
 20
-122.5306383072261
 30
0.0
  0
SPLINE
  5
13EDB
330
18
100
AcDbEntity
  8
01
100
AcDbSpline
210
0.0
220
0.0
230
1.0
 70
     8
 71
     3
 72
    12
 73
     8
 74
     0
 42
0.0000000001
 43
0.0000000001
 40
0.0
 40
0.0
 40
0.0
 40
0.0
 40
0.2496192192053457
 40
0.4985438390154068
 40
1.003981045809956
 40
1.514202748754421
 40
2.025435193373633
 40
2.025435193373633
 40
2.025435193373633
 40
2.025435193373633
 10
-17.71878759363368
 20
-118.8276025287505
 30
0.0
 10
-17.72270721733581
 20
-118.9107195656516
 30
0.0
 10
-17.74188061325309
 20
-119.0761648333159
 30
0.0
 10
-17.82472438055844
 20
-119.4012018504122
 30
0.0
 10
-18.00995692990396
 20
-119.7840104992492
 30
0.0
 10
-18.3460881451541
 20
-120.1719719792777
 30
0.0
 10
-18.62988221585088
 20
-120.3651757206139
 30
0.0
 10
-18.78181002500365
 20
-120.442350962101
 30
0.0
  0
SPLINE
  5
13EDC
330
18
100
AcDbEntity
  8
01
100
AcDbSpline
210
0.0
220
0.0
230
1.0
 70
     8
 71
     3
 72
    14
 73
    10
 74
     0
 42
0.0000000001
 43
0.0000000001
 40
0.0
 40
0.0
 40
0.0
 40
0.0
 40
0.0683544751690796
 40
0.149483792991246
 40
0.2876900237603172
 40
0.4573093000195014
 40
0.6080838948517261
 40
1.274070342767284
 40
2.833684143431954
 40
2.833684143431954
 40
2.833684143431954
 40
2.833684143431954
 10
-18.78181190412793
 20
-120.4423519178663
 30
0.0
 10
-18.80214889219074
 20
-120.4526157561772
 30
0.0
 10
-18.8469621678763
 20
-120.4744428257923
 30
0.0
 10
-18.93479713466
 20
-120.512938836102
 30
0.0
 10
-19.05428322652857
 20
-120.5632672196803
 30
0.0
 10
-19.19436962694304
 20
-120.6244612721125
 30
0.0
 10
-19.49641397088122
 20
-120.7543622594603
 30
0.0
 10
-20.22377538302167
 20
-121.0680621593133
 30
0.0
 10
-20.90516914525084
 20
-121.3614367983701
 30
0.0
 10
-21.38258476609495
 20
-121.5672048688048
 30
0.0
  0
SPLINE
  5
13EDD
330
18
100
AcDbEntity
  8
01
100
AcDbSpline
210
0.0
220
0.0
230
1.0
 70
    24
 71
     2
 72
     6
 73
     3
 74
     0
 42
0.0000000001
 43
0.0000000001
 40
0.0
 40
0.0
 40
0.0
 40
0.5
 40
0.5
 40
0.5
 10
34.05812725731506
 20
-94.08042643683393
 30
0.0
 10
33.80812725731506
 20
-94.08042643683393
 30
0.0
 10
33.55812725731506
 20
-94.08042643683393
 30
0.0
  0
SPLINE
  5
13EE3
330
18
100
AcDbEntity
  8
01
100
AcDbSpline
210
0.0
220
0.0
230
1.0
 70
    12
 71
     2
 72
     6
 73
     3
 74
     0
 42
0.0000000001
 43
0.0000000001
 40
0.0
 40
0.0
 40
0.0
 40
0.0123044784723474
 40
0.0123044784723474
 40
0.0123044784723474
 10
-16.51568884961522
 20
-105.9416217453772
 30
0.0
 41
1.0
 10
-16.52170010775113
 20
-105.9429312579937
 30
0.0
 41
0.9999999991793239
 10
-16.52771125975993
 20
-105.9442412576814
 30
0.0
 41
1.0
  0
SPLINE
  5
13EE4
330
18
100
AcDbEntity
  8
01
100
AcDbSpline
210
0.0
220
0.0
230
1.0
 70
    12
 71
     2
 72
     6
 73
     3
 74
     0
 42
0.0000000001
 43
0.0000000001
 40
0.0
 40
0.0
 40
0.0
 40
0.0161076733615666
 40
0.0161076733615666
 40
0.0161076733615666
 10
-16.33425030541217
 20
-105.9022125577562
 30
0.0
 41
1.0
 10
-16.34212167083602
 20
-105.9039172254002
 30
0.0
 41
0.9999999986036968
 10
-16.34999285604805
 20
-105.9056227249612
 30
0.0
 41
1.0
  0
SPLINE
  5
13EE5
330
18
100
AcDbEntity
  8
01
100
AcDbSpline
210
0.0
220
0.0
230
1.0
 70
    24
 71
     2
 72
     6
 73
     3
 74
     0
 42
0.0000000001
 43
0.0000000001
 40
0.0
 40
0.0
 40
0.0
 40
0.0033121988180465
 40
0.0033121988180465
 40
0.0033121988180465
 10
-16.18453331125362
 20
-105.8698676925092
 30
0.0
 10
-16.18615223669654
 20
-105.870216613223
 30
0.0
 10
-16.18777116213856
 20
-105.8705655339368
 30
0.0
  0
SPLINE
  5
13EE6
330
18
100
AcDbEntity
  8
01
100
AcDbSpline
210
0.0
220
0.0
230
1.0
 70
    12
 71
     2
 72
     6
 73
     3
 74
     0
 42
0.0000000001
 43
0.0000000001
 40
0.0
 40
0.0
 40
0.0
 40
0.0264437701345602
 40
0.0264437701345602
 40
0.0264437701345602
 10
-16.01937948582268
 20
-105.8343702055899
 30
0.0
 41
1.0
 10
-16.03230768762147
 20
-105.8371414587095
 30
0.0
 41
0.9999999962496291
 10
-16.04523540920796
 20
-105.8399149511288
 30
0.0
 41
1.0
  0
SPLINE
  5
13F0D
330
18
100
AcDbEntity
  8
01
100
AcDbSpline
210
0.0
220
0.0
230
1.0
 70
    12
 71
     2
 72
     6
 73
     3
 74
     0
 42
0.0000000001
 43
0.0000000001
 40
0.0
 40
0.0
 40
0.0
 40
2.951110760796039
 40
2.951110760796039
 40
2.951110760796039
 10
-6.692531323062539
 20
-106.3009065447759
 30
0.0
 41
1.0
 10
-6.852134717452245
 20
-104.4898810444295
 30
0.0
 41
0.7399655467138716
 10
-8.670130460162326
 20
-104.4765361619798
 30
0.0
 41
1.0
  0
SPLINE
  5
13F0F
330
18
100
AcDbEntity
  8
01
100
AcDbSpline
210
0.0
220
0.0
230
1.0
 70
    24
 71
     2
 72
     6
 73
     3
 74
     0
 42
0.0000000001
 43
0.0000000001
 40
0.996429737351247
 40
0.996429737351247
 40
0.996429737351247
 40
8.921429609217572
 40
8.921429609217572
 40
8.921429609217572
 10
-30.84664647507076
 20
-138.0949827351071
 30
0.0
 10
-27.52341440287488
 20
-140.2531148757785
 30
0.0
 10
-24.20018233067854
 20
-142.4112470164491
 30
0.0
  0
SPLINE
  5
13F10
330
18
100
AcDbEntity
  8
01
100
AcDbSpline
210
0.0
220
0.0
230
1.0
 70
    12
 71
     2
 72
     8
 73
     5
 74
     0
 42
0.0000000001
 43
0.0000000001
 40
0.0
 40
0.0
 40
0.0
 40
1.5707963267949
 40
1.5707963267949
 40
3.14159265358979
 40
3.14159265358979
 40
3.14159265358979
 10
-64.42663203290373
 20
-187.8296836408858
 30
0.0
 41
1.0
 10
-68.78374431302416
 20
-194.5390481844488
 30
0.0
 41
0.707106781186547
 10
-64.59038804912812
 20
-197.2622455819806
 30
0.0
 41
1.0
 10
-60.39703178523119
 20
-199.9854429795113
 30
0.0
 41
0.707106781186547
 10
-56.03991950511168
 20
-193.2760784359484
 30
0.0
 41
1.0
  0
SPLINE
  5
13F11
330
18
100
AcDbEntity
  8
01
100
AcDbSpline
210
0.0
220
0.0
230
1.0
 70
    12
 71
     2
 72
     6
 73
     3
 74
     0
 42
0.0000000001
 43
0.0000000001
 40
0.0
 40
0.0
 40
0.0
 40
0.0839138802892563
 40
0.0839138802892563
 40
0.0839138802892563
 10
-12.96035297309332
 20
-123.689276072244
 30
0.0
 41
1.0
 10
-12.94817810282835
 20
-123.649117959967
 30
0.0
 41
0.9997799599667873
 10
-12.93432953001353
 20
-123.6095058598139
 30
0.0
 41
1.0
  0
SPLINE
  5
13F12
330
18
100
AcDbEntity
  8
01
100
AcDbSpline
210
0.0
220
0.0
230
1.0
 70
    24
 71
     2
 72
     6
 73
     3
 74
     0
 42
0.0000000001
 43
0.0000000001
 40
0.0
 40
0.0
 40
0.0
 40
3.00000000000002
 40
3.00000000000002
 40
3.00000000000002
 10
-23.36151180054399
 20
-142.955886109311
 30
0.0
 10
-22.10350594862608
 20
-143.7728446618335
 30
0.0
 10
-20.84550009670726
 20
-144.5898032143559
 30
0.0
  0
SPLINE
  5
13F14
330
18
100
AcDbEntity
  8
01
100
AcDbSpline
210
0.0
220
0.0
230
1.0
 70
    12
 71
     2
 72
     6
 73
     3
 74
     0
 42
0.0000000001
 43
0.0000000001
 40
0.0
 40
0.0
 40
0.0
 40
2.507905721375167
 40
2.507905721375167
 40
2.507905721375167
 10
-17.55690602365154
 20
-119.1453129794127
 30
0.0
 41
1.0
 10
-16.97973197664611
 20
-120.2780808275706
 30
0.0
 41
0.9796169987480483
 10
-16.00332437000212
 20
-121.0922804738771
 30
0.0
 41
1.0
  0
SPLINE
  5
13F15
330
18
100
AcDbEntity
  8
01
100
AcDbSpline
210
0.0
220
0.0
230
1.0
 70
    24
 71
     2
 72
     6
 73
     3
 74
     0
 42
0.0000000001
 43
0.0000000001
 40
0.0
 40
0.0
 40
0.0
 40
4.500000000000212
 40
4.500000000000212
 40
4.500000000000212
 10
-19.59986327247985
 20
-115.1357836205648
 30
0.0
 10
-18.57838464806569
 20
-117.1405482999885
 30
0.0
 10
-17.55690602365154
 20
-119.1453129794127
 30
0.0
  0
SPLINE
  5
13F16
330
18
100
AcDbEntity
  8
01
100
AcDbSpline
210
0.0
220
0.0
230
1.0
 70
    24
 71
     2
 72
     6
 73
     3
 74
     0
 42
0.0000000001
 43
0.0000000001
 40
0.0
 40
0.0
 40
0.0
 40
4.070573499263284
 40
4.070573499263284
 40
4.070573499263284
 10
-21.44786496963694
 20
-111.508876075533
 30
0.0
 10
-20.52386412105839
 20
-113.3223298480489
 30
0.0
 10
-19.59986327247985
 20
-115.1357836205648
 30
0.0
  0
SPLINE
  5
13F17
330
18
100
AcDbEntity
  8
01
100
AcDbSpline
210
0.0
220
0.0
230
1.0
 70
    12
 71
     2
 72
     6
 73
     3
 74
     0
 42
0.0000000001
 43
0.0000000001
 40
0.0
 40
0.0
 40
0.0
 40
0.1444773524073064
 40
0.1444773524073064
 40
0.1444773524073064
 10
-7.436264100125626
 20
-108.6104284120388
 30
0.0
 41
1.0
 10
-7.507585611081012
 20
-108.6219031131977
 30
0.0
 41
0.9999999494090536
 10
-7.578899807605339
 20
-108.6334231854944
 30
0.0
 41
1.0
  0
SPLINE
  5
13F18
330
18
100
AcDbEntity
  8
01
100
AcDbSpline
210
0.0
220
0.0
230
1.0
 70
    24
 71
     2
 72
     6
 73
     3
 74
     0
 42
0.0000000001
 43
0.0000000001
 40
0.0
 40
0.0
 40
0.0
 40
7.352550577861605
 40
7.352550577861605
 40
7.352550577861605
 10
-5.856602585189975
 20
-115.7862870639033
 30
0.0
 10
-6.179334976050413
 20
-112.1242051691484
 30
0.0
 10
-6.50206736691085
 20
-108.4621232743934
 30
0.0
  0
SPLINE
  5
13F19
330
18
100
AcDbEntity
  8
01
100
AcDbSpline
210
0.0
220
0.0
230
1.0
 70
    12
 71
     2
 72
     6
 73
     3
 74
     0
 42
0.0000000001
 43
0.0000000001
 40
0.0
 40
0.0
 40
0.0
 40
0.131210914382342
 40
0.131210914382342
 40
0.131210914382342
 10
-5.84646771744643
 20
-115.9171035225327
 30
0.0
 41
1.0
 10
-5.850842948528552
 20
-115.8516416655339
 30
0.0
 41
0.999944006781335
 10
-5.856602585189975
 20
-115.7862870639033
 30
0.0
 41
1.0
  0
SPLINE
  5
13F1A
330
18
100
AcDbEntity
  8
01
100
AcDbSpline
210
0.0
220
0.0
230
1.0
 70
    12
 71
     2
 72
     6
 73
     3
 74
     0
 42
0.0000000001
 43
0.0000000001
 40
0.0
 40
0.0
 40
0.0
 40
7.231031504753003
 40
7.231031504753003
 40
7.231031504753003
 10
-9.217924475299114
 20
-121.8548123309952
 30
0.0
 41
1.0
 10
-5.573712316411147
 20
-119.9979934926851
 30
0.0
 41
0.8347334928796999
 10
-5.84646771744643
 20
-115.9171035225327
 30
0.0
 41
1.0
  0
SPLINE
  5
13F1B
330
18
100
AcDbEntity
  8
01
100
AcDbSpline
210
0.0
220
0.0
230
1.0
 70
    12
 71
     2
 72
     6
 73
     3
 74
     0
 42
0.0000000001
 43
0.0000000001
 40
0.0
 40
0.0
 40
0.0
 40
7.231031504752968
 40
7.231031504752968
 40
7.231031504752968
 10
-16.00332437000212
 20
-121.0922804738771
 30
0.0
 41
1.0
 10
-12.86213663418617
 20
-123.7116311693057
 30
0.0
 41
0.8347334928797011
 10
-9.217924475299114
 20
-121.8548123309952
 30
0.0
 41
1.0
  0
SPLINE
  5
13F1E
330
18
100
AcDbEntity
  8
01
100
AcDbSpline
210
0.0
220
0.0
230
1.0
 70
    24
 71
     2
 72
     6
 73
     3
 74
     0
 42
0.0000000001
 43
0.0000000001
 40
0.0
 40
0.0
 40
0.0
 40
2.169554012063854
 40
2.169554012063854
 40
2.169554012063854
 10
-6.50206736691085
 20
-108.4621232743934
 30
0.0
 10
-6.597297633741945
 20
-107.3815343844381
 30
0.0
 10
-6.692527900572131
 20
-106.3009454944827
 30
0.0
  0
SPLINE
  5
13F1F
330
18
100
AcDbEntity
  8
01
100
AcDbSpline
210
0.0
220
0.0
230
1.0
 70
    12
 71
     2
 72
     6
 73
     3
 74
     0
 42
0.0000000001
 43
0.0000000001
 40
0.0
 40
0.0
 40
0.0
 40
10.04879999171498
 40
10.04879999171498
 40
10.04879999171498
 10
-16.37811081200049
 20
-110.3084610269902
 30
0.0
 41
1.0
 10
-11.46908679110253
 20
-109.2301837146192
 30
0.0
 41
0.9995070377972459
 10
-6.50206736691085
 20
-108.4621232743934
 30
0.0
 41
1.0
  0
SPLINE
  5
13F20
330
18
100
AcDbEntity
  8
01
100
AcDbSpline
210
0.0
220
0.0
230
1.0
 70
    12
 71
     2
 72
     6
 73
     3
 74
     0
 42
0.0000000001
 43
0.0000000001
 40
0.0
 40
0.0
 40
0.0
 40
0.3431434105540812
 40
0.3431434105540812
 40
0.3431434105540812
 10
-8.670130814674266
 20
-104.4765361593777
 30
0.0
 41
1.0
 10
-8.84212000762578
 20
-104.4752738191287
 30
0.0
 41
0.9963226497736947
 10
-9.011799515025231
 20
-104.5033939322861
 30
0.0
 41
1.0
  0
SPLINE
  5
13F21
330
18
100
AcDbEntity
  8
01
100
AcDbSpline
210
0.0
220
0.0
230
1.0
 70
    12
 71
     2
 72
     6
 73
     3
 74
     0
 42
0.0000000001
 43
0.0000000001
 40
0.0
 40
0.0
 40
0.0
 40
0.4973729058195016
 40
0.4973729058195016
 40
0.4973729058195016
 10
-16.52771112601327
 20
-105.9442418792933
 30
0.0
 41
1.0
 10
-16.7706949925781
 20
-105.9971937900991
 30
0.0
 41
0.9999986368203014
 10
-17.01350266940095
 20
-106.0509478257104
 30
0.0
 41
1.0
  0
SPLINE
  5
13F22
330
18
100
AcDbEntity
  8
01
100
AcDbSpline
210
0.0
220
0.0
230
1.0
 70
    12
 71
     2
 72
     6
 73
     3
 74
     0
 42
0.0000000001
 43
0.0000000001
 40
0.0
 40
0.0
 40
0.0
 40
0.169561477140329
 40
0.169561477140329
 40
0.169561477140329
 10
-16.34999275578171
 20
-105.9056231706195
 30
0.0
 41
1.0
 10
-16.43285075647724
 20
-105.9235766337674
 30
0.0
 41
0.9999998449805605
 10
-16.51568871241339
 20
-105.9416223583153
 30
0.0
 41
1.0
  0
SPLINE
  5
13F23
330
18
100
AcDbEntity
  8
01
100
AcDbSpline
210
0.0
220
0.0
230
1.0
 70
    12
 71
     2
 72
     6
 73
     3
 74
     0
 42
0.0000000001
 43
0.0000000001
 40
0.0
 40
0.0
 40
0.0
 40
0.1498588542449759
 40
0.1498588542449759
 40
0.1498588542449759
 10
-16.18777113512839
 20
-105.8705656811558
 30
0.0
 41
1.0
 10
-16.26101844363289
 20
-105.8863533898957
 30
0.0
 41
0.9999998795827804
 10
-16.33425022125844
 20
-105.9022129830864
 30
0.0
 41
1.0
  0
SPLINE
  5
13F24
330
18
100
AcDbEntity
  8
01
100
AcDbSpline
210
0.0
220
0.0
230
1.0
 70
    12
 71
     2
 72
     6
 73
     3
 74
     0
 42
0.0000000001
 43
0.0000000001
 40
0.0
 40
0.0
 40
0.0
 40
0.1424818330680363
 40
0.1424818330680363
 40
0.1424818330680363
 10
-16.04523546652523
 20
-105.8399147025202
 30
0.0
 41
1.0
 10
-16.11489135563475
 20
-105.8548587995592
 30
0.0
 41
0.9999998913486423
 10
-16.18453328186966
 20
-105.8698678313099
 30
0.0
 41
1.0
  0
SPLINE
  5
13F52
330
18
100
AcDbEntity
  8
01
100
AcDbSpline
210
0.0
220
0.0
230
1.0
 70
    12
 71
     2
 72
     6
 73
     3
 74
     0
 42
0.0000000001
 43
0.0000000001
 40
0.0
 40
0.0
 40
0.0
 40
0.0150917377766038
 40
0.0150917377766038
 40
0.0150917377766038
 10
-95.56340191883679
 20
-151.0491631793325
 30
0.0
 41
1.0
 10
-95.56853556390739
 20
-151.0546936735177
 30
0.0
 41
0.9999928824912665
 10
-95.57362733083606
 20
-151.0602627476942
 30
0.0
 41
1.0
  0
SPLINE
  5
13F53
330
18
100
AcDbEntity
  8
01
100
AcDbSpline
210
0.0
220
0.0
230
1.0
 70
    12
 71
     2
 72
     6
 73
     3
 74
     0
 42
0.0000000001
 43
0.0000000001
 40
0.0
 40
0.0
 40
0.0
 40
1.077877149637662
 40
1.077877149637662
 40
1.077877149637662
 10
-94.82730345048218
 20
-150.2617793307459
 30
0.0
 41
1.0
 10
-95.19674871828953
 20
-150.654166150523
 30
0.0
 41
0.9999937129826757
 10
-95.56340191883679
 20
-151.0491631793325
 30
0.0
 41
1.0
  0
SPLINE
  5
13F54
330
18
100
AcDbEntity
  8
01
100
AcDbSpline
210
0.0
220
0.0
230
1.0
 70
    24
 71
     2
 72
     6
 73
     3
 74
     0
 42
0.0000000001
 43
0.0000000001
 40
0.0
 40
0.0
 40
0.0
 40
0.0179161490659783
 40
0.0179161490659783
 40
0.0179161490659783
 10
-93.36295407154954
 20
-151.6488931751487
 30
0.0
 10
-93.3670209522828
 20
-151.6409114722951
 30
0.0
 10
-93.37108783301697
 20
-151.6329297694424
 30
0.0
  0
SPLINE
  5
13F55
330
18
100
AcDbEntity
  8
01
100
AcDbSpline
210
0.0
220
0.0
230
1.0
 70
    12
 71
     2
 72
     6
 73
     3
 74
     0
 42
0.0000000001
 43
0.0000000001
 40
0.0
 40
0.0
 40
0.0
 40
3.148182267604911
 40
3.148182267604911
 40
3.148182267604911
 10
-95.6027197857478
 20
-153.8611732483473
 30
0.0
 41
1.0
 10
-94.4936899392536
 20
-152.7440453619979
 30
0.0
 41
0.9999518696654539
 10
-93.36295407154954
 20
-151.6488931751487
 30
0.0
 41
1.0
  0
ELLIPSE
  5
13F5A
330
18
100
AcDbEntity
  8
01
 48
0.2
100
AcDbEllipse
 10
-49.911171769559
 20
-174.6509818586132
 30
0.0
 11
-4.357112280120217
 21
-6.709364543563392
 31
0.0
210
0.0
220
0.0
230
-1.0
 40
0.625
 41
7.853981633974483
 42
10.99557428756428
  0
LINE
  5
13F5B
330
18
100
AcDbEntity
  8
01
100
AcDbLine
 10
-13.01337013525823
 20
-127.0211453183479
 30
0.0
 11
-13.0369656313254
 21
-124.1334572961746
 31
0.0
  0
ARC
  5
13F5C
330
18
100
AcDbEntity
  8
01
100
AcDbCircle
 10
-30.30200744022737
 20
-137.2563121670496
 30
0.0
 40
1.0
100
AcDbArc
 50
147.2049265960901
 51
237.0000000117263
  0
ARC
  5
13F5D
330
18
100
AcDbEntity
  8
01
100
AcDbCircle
 10
-23.65554329583652
 20
-141.5725764483918
 30
0.0
 40
1.0
100
AcDbArc
 50
237.0000000117571
 51
326.9999999999791
  0
LINE
  5
13F5E
330
18
100
AcDbEntity
  8
01
100
AcDbLine
 10
-21.38258476609495
 20
-121.5672048688045
 30
0.0
 11
-64.42663203290373
 21
-187.8296836408858
 31
0.0
  0
LINE
  5
13F5F
330
18
100
AcDbEntity
  8
01
100
AcDbLine
 10
-56.03991950511168
 20
-193.2760784359484
 30
0.0
 11
-13.01337013525823
 21
-127.0211453183479
 31
0.0
  0
CIRCLE
  5
13F60
330
18
100
AcDbEntity
  8
01
100
AcDbCircle
 10
-12.03266557368384
 20
-116.330571881027
 30
0.0
 40
2.500000120429831
  0
CIRCLE
  5
13F61
330
18
100
AcDbEntity
  8
01
100
AcDbCircle
 10
-12.03266557368384
 20
-116.330571881027
 30
0.0
 40
3.100000119484889
  0
CIRCLE
  5
13F62
330
18
100
AcDbEntity
  8
01
100
AcDbCircle
 10
-12.03266557368384
 20
-116.330571881027
 30
0.0
 40
4.20000012000003
  0
SPLINE
  5
13F69
330
18
100
AcDbEntity
  8
1CENTER
 48
0.5
100
AcDbSpline
210
0.0
220
0.0
230
1.0
 70
    24
 71
     3
 72
    10
 73
     6
 74
     0
 42
0.0000000001
 43
0.0000000001
 40
0.0
 40
0.0
 40
0.0
 40
0.0
 40
4.95
 40
4.95
 40
5.0
 40
5.0
 40
5.0
 40
5.0
 10
67.86237155893822
 20
-114.5804264368326
 30
0.0
 10
32.90811794603486
 20
-114.5804264368326
 30
0.0
 10
31.25811794603705
 20
-114.5804264368326
 30
0.0
 10
27.93671303582086
 20
-114.5804264368344
 30
0.0
 10
29.57478461270638
 20
-114.5804264368344
 30
0.0
 10
29.55811794603996
 20
-114.5804264368344
 30
0.0
  0
LINE
  5
13F6B
330
18
100
AcDbEntity
  8
1PHANTOM
 48
0.5
100
AcDbLine
 10
57.80811623659282
 20
-113.0804729727325
 30
0.0
 11
57.90811739999016
 21
-112.5804729727325
 31
0.0
  0
LINE
  5
13F6C
330
18
100
AcDbEntity
  8
1PHANTOM
 48
0.5
100
AcDbLine
 10
57.90811739999016
 20
-112.5804729727325
 30
0.0
 11
58.70810809281274
 21
-116.5804729727325
 31
0.0
  0
LINE
  5
13F6D
330
18
100
AcDbEntity
  8
1PHANTOM
 48
0.5
100
AcDbLine
 10
58.70810809281274
 20
-116.5804729727325
 30
0.0
 11
58.80810925620962
 21
-116.0804729727325
 31
0.0
  0
LINE
  5
13F6E
330
18
100
AcDbEntity
  8
1PHANTOM
 48
0.5
100
AcDbLine
 10
56.20811623659291
 20
-113.0804729727325
 30
0.0
 11
56.30811739999025
 21
-112.5804729727325
 31
0.0
  0
LINE
  5
13F6F
330
18
100
AcDbEntity
  8
1PHANTOM
 48
0.5
100
AcDbLine
 10
57.10810809281283
 20
-116.5804729727325
 30
0.0
 11
57.20810925620971
 21
-116.0804729727325
 31
0.0
  0
LINE
  5
13F70
330
18
100
AcDbEntity
  8
1PHANTOM
 48
0.5
100
AcDbLine
 10
56.30811739999025
 20
-112.5804729727325
 30
0.0
 11
57.10810809281283
 21
-116.5804729727325
 31
0.0
  0
LINE
  5
13F71
330
18
100
AcDbEntity
  8
1PHANTOM
 48
0.5
100
AcDbLine
 10
54.60811623659301
 20
-113.0804729727325
 30
0.0
 11
54.70811739998989
 21
-112.5804729727325
 31
0.0
  0
LINE
  5
13F72
330
18
100
AcDbEntity
  8
1PHANTOM
 48
0.5
100
AcDbLine
 10
54.70811739998989
 20
-112.5804729727325
 30
0.0
 11
55.50810809281246
 21
-116.5804729727325
 31
0.0
  0
LINE
  5
13F73
330
18
100
AcDbEntity
  8
1PHANTOM
 48
0.5
100
AcDbLine
 10
55.50810809281246
 20
-116.5804729727325
 30
0.0
 11
55.6081092562098
 21
-116.0804729727325
 31
0.0
  0
LINE
  5
13F74
330
18
100
AcDbEntity
  8
1PHANTOM
 48
0.5
100
AcDbLine
 10
46.60811623659301
 20
-113.0804729727324
 30
0.0
 11
46.70811739998989
 21
-112.5804729727324
 31
0.0
  0
LINE
  5
13F75
330
18
100
AcDbEntity
  8
1PHANTOM
 48
0.5
100
AcDbLine
 10
47.50810809281246
 20
-116.5804729727324
 30
0.0
 11
47.6081092562098
 21
-116.0804729727324
 31
0.0
  0
LINE
  5
13F76
330
18
100
AcDbEntity
  8
1PHANTOM
 48
0.5
100
AcDbLine
 10
49.10810809281283
 20
-116.5804729727324
 30
0.0
 11
49.20810925620971
 21
-116.0804729727324
 31
0.0
  0
LINE
  5
13F77
330
18
100
AcDbEntity
  8
1PHANTOM
 48
0.5
100
AcDbLine
 10
48.20811623659291
 20
-113.0804729727324
 30
0.0
 11
48.30811739999025
 21
-112.5804729727324
 31
0.0
  0
LINE
  5
13F78
330
18
100
AcDbEntity
  8
1PHANTOM
 48
0.5
100
AcDbLine
 10
49.80811623659282
 20
-113.0804729727324
 30
0.0
 11
49.90811739999016
 21
-112.5804729727324
 31
0.0
  0
LINE
  5
13F79
330
18
100
AcDbEntity
  8
1PHANTOM
 48
0.5
100
AcDbLine
 10
48.30811739999025
 20
-112.5804729727324
 30
0.0
 11
49.10810809281283
 21
-116.5804729727324
 31
0.0
  0
LINE
  5
13F7A
330
18
100
AcDbEntity
  8
1PHANTOM
 48
0.5
100
AcDbLine
 10
46.70811739998989
 20
-112.5804729727324
 30
0.0
 11
47.50810809281246
 21
-116.5804729727324
 31
0.0
  0
LINE
  5
13F7B
330
18
100
AcDbEntity
  8
1PHANTOM
 48
0.5
100
AcDbLine
 10
51.40811623659273
 20
-113.0804729727325
 30
0.0
 11
51.50811739999007
 21
-112.5804729727325
 31
0.0
  0
LINE
  5
13F7C
330
18
100
AcDbEntity
  8
1PHANTOM
 48
0.5
100
AcDbLine
 10
59.60811623659301
 20
-113.0804729727325
 30
0.0
 11
59.70811739998989
 21
-112.5804729727325
 31
0.0
  0
LINE
  5
13F7D
330
18
100
AcDbEntity
  8
1PHANTOM
 48
0.5
100
AcDbLine
 10
59.70811739998989
 20
-112.5804729727325
 30
0.0
 11
60.50810861961499
 21
-116.3540659205287
 31
0.0
  0
LINE
  5
13F7E
330
18
100
AcDbEntity
  8
1PHANTOM
 48
0.5
100
AcDbLine
 10
60.50810861961499
 20
-116.3540659205287
 30
0.0
 11
60.63737931724508
 21
-115.8174721852575
 31
0.0
  0
LINE
  5
13F7F
330
18
100
AcDbEntity
  8
1PHANTOM
 48
0.5
100
AcDbLine
 10
52.30810809281265
 20
-116.5804729727325
 30
0.0
 11
52.40810925620953
 21
-116.0804729727325
 31
0.0
  0
LINE
  5
13F80
330
18
100
AcDbEntity
  8
1PHANTOM
 48
0.5
100
AcDbLine
 10
53.90810809281255
 20
-116.5804729727325
 30
0.0
 11
54.00810925620989
 21
-116.0804729727325
 31
0.0
  0
LINE
  5
13F81
330
18
100
AcDbEntity
  8
1PHANTOM
 48
0.5
100
AcDbLine
 10
53.0081162365931
 20
-113.0804729727325
 30
0.0
 11
53.10811739998998
 21
-112.5804729727325
 31
0.0
  0
LINE
  5
13F82
330
18
100
AcDbEntity
  8
1PHANTOM
 48
0.5
100
AcDbLine
 10
53.10811739998998
 20
-112.5804729727325
 30
0.0
 11
53.90810809281255
 21
-116.5804729727325
 31
0.0
  0
LINE
  5
13F83
330
18
100
AcDbEntity
  8
1PHANTOM
 48
0.5
100
AcDbLine
 10
51.50811739999007
 20
-112.5804729727325
 30
0.0
 11
52.30810809281265
 21
-116.5804729727325
 31
0.0
  0
LINE
  5
13F84
330
18
100
AcDbEntity
  8
1PHANTOM
 48
0.5
100
AcDbLine
 10
61.30811634637975
 20
-113.0332891147914
 30
0.0
 11
62.10810967322085
 21
-115.9012518161217
 31
0.0
  0
LINE
  5
13F85
330
18
100
AcDbEntity
  8
1PHANTOM
 48
0.5
100
AcDbLine
 10
62.90811529277552
 20
-113.4861026228396
 30
0.0
 11
63.70811072682672
 21
-115.4484377117151
 31
0.0
  0
LINE
  5
13F86
330
18
100
AcDbEntity
  8
1PHANTOM
 48
0.5
100
AcDbLine
 10
62.10810967322085
 20
-115.9012518161217
 30
0.0
 11
62.29087381584885
 21
-115.3495023523183
 31
0.0
  0
LINE
  5
13F87
330
18
100
AcDbEntity
  8
1PHANTOM
 48
0.5
100
AcDbLine
 10
62.75667949633488
 20
-113.9432744634706
 30
0.0
 11
62.90811529277552
 21
-113.4861026228396
 31
0.0
  0
LINE
  5
13F88
330
18
100
AcDbEntity
  8
1PHANTOM
 48
0.5
100
AcDbLine
 10
63.70811072682672
 20
-115.4484377117151
 30
0.0
 11
64.0198805830786
 21
-114.8601611366726
 31
0.0
  0
LINE
  5
13F89
330
18
100
AcDbEntity
  8
1PHANTOM
 48
0.5
100
AcDbLine
 10
61.19534683402971
 20
-113.5013875699415
 30
0.0
 11
61.30811634637975
 21
-113.0332891147914
 31
0.0
  0
LINE
  5
13F8A
330
18
100
AcDbEntity
  8
1PHANTOM
 48
0.5
100
AcDbLine
 10
50.70810809281274
 20
-116.5804729727324
 30
0.0
 11
50.80810925620962
 21
-116.0804729727324
 31
0.0
  0
LINE
  5
13F8B
330
18
100
AcDbEntity
  8
1PHANTOM
 48
0.5
100
AcDbLine
 10
49.90811739999016
 20
-112.5804729727324
 30
0.0
 11
50.70810809281274
 21
-116.5804729727324
 31
0.0
  0
LINE
  5
13F8C
330
18
100
AcDbEntity
  8
1PHANTOM
 48
0.5
100
AcDbLine
 10
33.00810925619307
 20
-116.0804729727324
 30
0.0
 11
33.10810809279509
 21
-116.5804729727324
 31
0.0
  0
LINE
  5
13F8D
330
18
100
AcDbEntity
  8
1PHANTOM
 48
0.5
100
AcDbLine
 10
33.90811739998107
 20
-112.5804729727324
 30
0.0
 11
34.70810809279955
 21
-116.5804729727324
 31
0.0
  0
LINE
  5
13F8E
330
18
100
AcDbEntity
  8
1PHANTOM
 48
0.5
100
AcDbLine
 10
37.10811739998134
 20
-112.5804729727324
 30
0.0
 11
37.90810809279937
 21
-116.5804729727324
 31
0.0
  0
LINE
  5
13F8F
330
18
100
AcDbEntity
  8
1PHANTOM
 48
0.5
100
AcDbLine
 10
37.90810809279937
 20
-116.5804729727324
 30
0.0
 11
38.00810925619716
 21
-116.0804729727324
 31
0.0
  0
LINE
  5
13F90
330
18
100
AcDbEntity
  8
1PHANTOM
 48
0.5
100
AcDbLine
 10
34.70810809279955
 20
-116.5804729727324
 30
0.0
 11
34.80810925619734
 21
-116.0804729727324
 31
0.0
  0
LINE
  5
13F91
330
18
100
AcDbEntity
  8
1PHANTOM
 48
0.5
100
AcDbLine
 10
35.40811623658364
 20
-113.0804729727324
 30
0.0
 11
35.50811739998097
 21
-112.5804729727324
 31
0.0
  0
LINE
  5
13F92
330
18
100
AcDbEntity
  8
1PHANTOM
 48
0.5
100
AcDbLine
 10
36.30810809279946
 20
-116.5804729727324
 30
0.0
 11
36.40810925619725
 21
-116.0804729727324
 31
0.0
  0
LINE
  5
13F93
330
18
100
AcDbEntity
  8
1PHANTOM
 48
0.5
100
AcDbLine
 10
35.50811739998097
 20
-112.5804729727324
 30
0.0
 11
36.30810809279946
 21
-116.5804729727324
 31
0.0
  0
LINE
  5
13F94
330
18
100
AcDbEntity
  8
1PHANTOM
 48
0.5
100
AcDbLine
 10
37.00811623658355
 20
-113.0804729727324
 30
0.0
 11
37.10811739998134
 21
-112.5804729727324
 31
0.0
  0
LINE
  5
13F95
330
18
100
AcDbEntity
  8
1PHANTOM
 48
0.5
100
AcDbLine
 10
33.10810809279509
 20
-116.5804729727324
 30
0.0
 11
33.20810925619288
 21
-116.0804729727324
 31
0.0
  0
LINE
  5
13F96
330
18
100
AcDbEntity
  8
1PHANTOM
 48
0.5
100
AcDbLine
 10
33.80811623658373
 20
-113.0804729727324
 30
0.0
 11
33.90811739998107
 21
-112.5804729727324
 31
0.0
  0
LINE
  5
13F97
330
18
100
AcDbEntity
  8
1PHANTOM
 48
0.5
100
AcDbLine
 10
30.30812205379642
 20
-110.5804264368344
 30
0.0
 11
30.30810343943712
 21
-118.5804264368344
 31
0.0
  0
LINE
  5
13F98
330
18
100
AcDbEntity
  8
1PHANTOM
 48
0.5
100
AcDbLine
 10
38.608116236588
 20
-113.0804729727324
 30
0.0
 11
38.7081173999858
 21
-112.5804729727324
 31
0.0
  0
LINE
  5
13F99
330
18
100
AcDbEntity
  8
1PHANTOM
 48
0.5
100
AcDbLine
 10
40.20811623659246
 20
-113.0804729727324
 30
0.0
 11
40.3081173999898
 21
-112.5804729727324
 31
0.0
  0
LINE
  5
13F9A
330
18
100
AcDbEntity
  8
1PHANTOM
 48
0.5
100
AcDbLine
 10
39.50810809280382
 20
-116.5804729727324
 30
0.0
 11
39.60810925620162
 21
-116.0804729727324
 31
0.0
  0
LINE
  5
13F9B
330
18
100
AcDbEntity
  8
1PHANTOM
 48
0.5
100
AcDbLine
 10
43.40811623659228
 20
-113.0804729727324
 30
0.0
 11
43.50811739999007
 21
-112.5804729727324
 31
0.0
  0
LINE
  5
13F9C
330
18
100
AcDbEntity
  8
1PHANTOM
 48
0.5
100
AcDbLine
 10
41.90811739998971
 20
-112.5804729727324
 30
0.0
 11
42.70810809280819
 21
-116.5804729727324
 31
0.0
  0
LINE
  5
13F9D
330
18
100
AcDbEntity
  8
1PHANTOM
 48
0.5
100
AcDbLine
 10
42.70810809280819
 20
-116.5804729727324
 30
0.0
 11
42.80810925620598
 21
-116.0804729727324
 31
0.0
  0
LINE
  5
13F9E
330
18
100
AcDbEntity
  8
1PHANTOM
 48
0.5
100
AcDbLine
 10
41.80811623659237
 20
-113.0804729727324
 30
0.0
 11
41.90811739998971
 21
-112.5804729727324
 31
0.0
  0
LINE
  5
13F9F
330
18
100
AcDbEntity
  8
1PHANTOM
 48
0.5
100
AcDbLine
 10
41.10810809280828
 20
-116.5804729727324
 30
0.0
 11
41.20810925620607
 21
-116.0804729727324
 31
0.0
  0
LINE
  5
13FA0
330
18
100
AcDbEntity
  8
1PHANTOM
 48
0.5
100
AcDbLine
 10
45.90810809281255
 20
-116.5804729727324
 30
0.0
 11
46.00810925620989
 21
-116.0804729727324
 31
0.0
  0
LINE
  5
13FA1
330
18
100
AcDbEntity
  8
1PHANTOM
 48
0.5
100
AcDbLine
 10
44.3081080928081
 20
-116.5804729727324
 30
0.0
 11
44.40810925620589
 21
-116.0804729727324
 31
0.0
  0
LINE
  5
13FA2
330
18
100
AcDbEntity
  8
1PHANTOM
 48
0.5
100
AcDbLine
 10
45.00811623659219
 20
-113.0804729727324
 30
0.0
 11
45.10811739998998
 21
-112.5804729727324
 31
0.0
  0
LINE
  5
13FA3
330
18
100
AcDbEntity
  8
1PHANTOM
 48
0.5
100
AcDbLine
 10
45.10811739998998
 20
-112.5804729727324
 30
0.0
 11
45.90810809281255
 21
-116.5804729727324
 31
0.0
  0
LINE
  5
13FA4
330
18
100
AcDbEntity
  8
1PHANTOM
 48
0.5
100
AcDbLine
 10
43.50811739999007
 20
-112.5804729727324
 30
0.0
 11
44.3081080928081
 21
-116.5804729727324
 31
0.0
  0
LINE
  5
13FA5
330
18
100
AcDbEntity
  8
1PHANTOM
 48
0.5
100
AcDbLine
 10
40.3081173999898
 20
-112.5804729727324
 30
0.0
 11
41.10810809280828
 21
-116.5804729727324
 31
0.0
  0
LINE
  5
13FA6
330
18
100
AcDbEntity
  8
1PHANTOM
 48
0.5
100
AcDbLine
 10
38.7081173999858
 20
-112.5804729727324
 30
0.0
 11
39.50810809280382
 21
-116.5804729727324
 31
0.0
  0
LINE
  5
13FA7
330
18
100
AcDbEntity
  8
1PHANTOM
 48
0.5
100
AcDbLine
 10
29.05811794603495
 20
-114.5804264368339
 30
0.0
 11
30.05811794603495
 21
-114.5804264368339
 31
0.0
  0
LINE
  5
13FA8
330
18
100
AcDbEntity
  8
01
100
AcDbLine
 10
29.05812725731143
 20
-138.0786628424694
 30
0.0
 11
30.05812725731143
 21
-137.0786631424694
 31
0.0
  0
LINE
  5
13FA9
330
18
100
AcDbEntity
  8
01
100
AcDbLine
 10
29.05812725731143
 20
-141.3786629924693
 30
0.0
 11
30.05812725731143
 21
-141.3786629924693
 31
0.0
  0
LINE
  5
13FAA
330
18
100
AcDbEntity
  8
01
100
AcDbLine
 10
30.05812725731143
 20
-141.3786629924693
 30
0.0
 11
30.05812725731143
 21
-133.7786629924694
 31
0.0
  0
LINE
  5
13FAB
330
18
100
AcDbEntity
  8
01
100
AcDbLine
 10
29.05812725731143
 20
-141.3786629924693
 30
0.0
 11
29.05812725731143
 21
-133.7786629924694
 31
0.0
  0
LINE
  5
13FAC
330
18
100
AcDbEntity
  8
01
100
AcDbLine
 10
29.05812725731143
 20
-133.7786629924694
 30
0.0
 11
30.05812725731143
 21
-133.7786629924694
 31
0.0
  0
LINE
  5
13FAE
330
18
100
AcDbEntity
  8
01
100
AcDbLine
 10
28.65384483585207
 20
-98.59046904259816
 30
0.0
 11
29.05812725731506
 21
-98.59046904259816
 31
0.0
  0
LINE
  5
13FAF
330
18
100
AcDbEntity
  8
01
100
AcDbLine
 10
33.55812725731506
 20
-94.08042643683393
 30
0.0
 11
29.05812725731506
 21
-98.08098603111193
 31
0.0
  0
LINE
  5
13FB0
330
18
100
AcDbEntity
  8
01
100
AcDbLine
 10
29.05812725731506
 20
-145.0798571020637
 30
0.0
 11
34.05812725731506
 21
-145.080427693229
 31
0.0
  0
LINE
  5
13FB1
330
18
100
AcDbEntity
  8
01
100
AcDbLine
 10
20.65449980376947
 20
-144.5894869553028
 30
0.0
 11
29.05812725731506
 21
-144.5898032143559
 31
0.0
  0
LINE
  5
13FB2
330
18
100
AcDbEntity
  8
01
100
AcDbLine
 10
-20.84550009670726
 20
-144.5898032143559
 30
0.0
 11
11.72220008215255
 21
-144.5627436427179
 31
0.0
  0
ARC
  5
13FB3
330
18
100
AcDbEntity
  8
01
100
AcDbCircle
 10
16.15511997964144
 20
-155.6749644474099
 30
0.0
 40
11.96378828088259
100
AcDbArc
 50
67.90872273664311
 51
111.7481910681692
  0
ARC
  5
13FB4
330
18
100
AcDbEntity
  8
01
100
AcDbCircle
 10
113.7505441119437
 20
-185.8298446692366
 30
0.0
 40
121.8694255644593
100
AcDbArc
 50
134.28767098498
 51
147.2362178632085
  0
ARC
  5
13FB5
330
18
100
AcDbEntity
  8
01
100
AcDbCircle
 10
-29.89767497349918
 20
-92.33997338856011
 30
0.0
 40
49.52795251959968
100
AcDbArc
 50
313.418512269572
 51
326.2211754205852
  0
ARC
  5
13FB6
330
18
100
AcDbEntity
  8
01
100
AcDbCircle
 10
-2.500297350953346
 20
-121.2498431726299
 30
0.0
 40
9.698411369145784
100
AcDbArc
 50
267.7220937075082
 51
313.2426901540183
  0
ARC
  5
13FB7
330
18
100
AcDbEntity
  8
01
100
AcDbCircle
 10
-0.3396767418481517
 20
-108.4103437909331
 30
0.0
 40
22.67365538182892
100
AcDbArc
 50
243.3484015865556
 51
263.5524716932449
  0
LINE
  5
13FB8
330
18
100
AcDbEntity
  8
01
100
AcDbLine
 10
-13.01337013525823
 20
-127.0211453183479
 30
0.0
 11
-10.51026564277468
 21
-128.6749377859355
 31
0.0
  0
LINE
  5
13FB9
330
18
100
AcDbEntity
  8
01
100
AcDbLine
 10
29.05812725731506
 20
-98.08098603111193
 30
0.0
 11
29.05812725731506
 21
-145.0798571020637
 31
0.0
  0
LINE
  5
13FFB
330
18
100
AcDbEntity
  8
01
100
AcDbLine
 10
34.05812725731506
 20
-94.08042643683393
 30
0.0
 11
34.05812725731506
 21
-145.080427693229
 31
0.0
  0
LINE
  5
14032
330
18
100
AcDbEntity
  8
1PHANTOM
 48
0.3
100
AcDbLine
 10
14.0581272573187
 20
-139.080427693229
 30
0.0
 11
14.05812725731586
 21
-128.4304276932313
 31
0.0
  0
LINE
  5
14033
330
18
100
AcDbEntity
  8
1PHANTOM
 48
0.3
100
AcDbLine
 10
14.40812725731486
 20
-139.080427693229
 30
0.0
 11
14.40812725731338
 21
-128.0804276932186
 31
0.0
  0
LINE
  5
14034
330
18
100
AcDbEntity
  8
1PHANTOM
 48
0.3
100
AcDbLine
 10
17.70812725731993
 20
-139.080427693229
 30
0.0
 11
17.70812725731538
 21
-128.0804276932186
 31
0.0
  0
LINE
  5
14035
330
18
100
AcDbEntity
  8
1PHANTOM
 48
0.3
100
AcDbLine
 10
18.05812725731529
 20
-139.080427693229
 30
0.0
 11
18.05812725731654
 21
-128.4304276932337
 31
0.0
  0
ARC
  5
14037
330
18
100
AcDbEntity
  8
1PHANTOM
 48
0.3
100
AcDbCircle
 10
17.55812725731688
 20
-140.6804276932312
 30
0.0
 40
2.0
100
AcDbArc
 50
270.0
 51
0.0
  0
LINE
  5
14038
330
18
100
AcDbEntity
  8
1PHANTOM
 48
0.3
100
AcDbLine
 10
19.55812725731688
 20
-140.0804276932308
 30
0.0
 11
19.55812725731688
 21
-140.6804276932303
 31
0.0
  0
LINE
  5
14039
330
18
100
AcDbEntity
  8
1PHANTOM
 48
0.3
100
AcDbLine
 10
17.55812725731688
 20
-142.6804276932312
 30
0.0
 11
14.55812725731688
 21
-142.6804276932303
 31
0.0
  0
LINE
  5
1403A
330
18
100
AcDbEntity
  8
1PHANTOM
 48
0.3
100
AcDbLine
 10
19.55812725731688
 20
-140.0804276932308
 30
0.0
 11
18.05812725731688
 21
-140.0804276932308
 31
0.0
  0
ARC
  5
1403B
330
18
100
AcDbEntity
  8
1PHANTOM
 48
0.3
100
AcDbCircle
 10
14.55812725731688
 20
-140.6804276932303
 30
0.0
 40
2.0
100
AcDbArc
 50
180.0
 51
270.0
  0
LINE
  5
1403C
330
18
100
AcDbEntity
  8
1PHANTOM
 48
0.3
100
AcDbLine
 10
12.55812725731688
 20
-140.0804276932317
 30
0.0
 11
12.55812725731688
 21
-140.6804276932321
 31
0.0
  0
LINE
  5
1403D
330
18
100
AcDbEntity
  8
1PHANTOM
 48
0.3
100
AcDbLine
 10
14.05812725731506
 20
-140.0804276932308
 30
0.0
 11
12.55812725731688
 21
-140.0804276932317
 31
0.0
  0
LINE
  5
1403E
330
18
100
AcDbEntity
  8
1PHANTOM
 48
0.3
100
AcDbLine
 10
18.05812725731688
 20
-140.0804276932308
 30
0.0
 11
14.05812725731688
 21
-140.0804276932308
 31
0.0
  0
LINE
  5
1403F
330
18
100
AcDbEntity
  8
1PHANTOM
 48
0.3
100
AcDbLine
 10
16.30588210689588
 20
-139.080427693229
 30
0.0
 11
15.64242679627672
 21
-140.0804276932308
 31
0.0
  0
LINE
  5
14040
330
18
100
AcDbEntity
  8
1PHANTOM
 48
0.3
100
AcDbLine
 10
18.05812725731654
 20
-128.4304276932337
 30
0.0
 11
17.7081272573147
 21
-128.0804276932336
 31
0.0
  0
LINE
  5
14041
330
18
100
AcDbEntity
  8
1PHANTOM
 48
0.3
100
AcDbLine
 10
17.7081272573147
 20
-128.0804276932336
 30
0.0
 11
14.40812725731543
 21
-128.0804276932317
 31
0.0
  0
LINE
  5
14042
330
18
100
AcDbEntity
  8
1PHANTOM
 48
0.3
100
AcDbLine
 10
14.40812725731543
 20
-128.0804276932317
 30
0.0
 11
14.05812725731586
 21
-128.4304276932313
 31
0.0
  0
LINE
  5
14043
330
18
100
AcDbEntity
  8
1PHANTOM
 48
0.3
100
AcDbLine
 10
18.05812725731506
 20
-128.4304276932321
 30
0.0
 11
14.05812725731506
 21
-128.4304276932321
 31
0.0
  0
LINE
  5
14044
330
18
100
AcDbEntity
  8
1CENTER
100
AcDbLine
 10
16.05812725731472
 20
-146.975592085365
 30
0.0
 11
16.05812725731472
 21
-126.8751363233678
 31
0.0
  0
CIRCLE
  5
1404E
330
18
100
AcDbEntity
  8
1PHANTOM
100
AcDbCircle
 10
-63.65749518407982
 20
-202.2199091693898
 30
0.0
 40
18.5
  0
CIRCLE
  5
1404F
330
18
100
AcDbEntity
  8
1PHANTOM
100
AcDbCircle
 10
-63.65749518407982
 20
-202.2199091693898
 30
0.0
 40
57.5
  0
LINE
  5
14D0D
330
18
100
AcDbEntity
  8
1PHANTOM
 48
0.5
100
AcDbLine
 10
11.05812725731688
 20
-127.0780936545966
 30
0.0
 11
11.05812725731506
 21
-132.5780936545921
 31
0.0
  0
LINE
  5
14D0E
330
18
100
AcDbEntity
  8
1PHANTOM
 48
0.5
100
AcDbLine
 10
29.05812725731506
 20
-132.5780936545939
 30
0.0
 11
11.05812725731506
 21
-132.5780936545921
 31
0.0
  0
LINE
  5
14D0F
330
18
100
AcDbEntity
  8
1PHANTOM
 48
0.5
100
AcDbLine
 10
29.0581272573187
 20
-122.5780936545948
 30
0.0
 11
17.0581272573187
 21
-122.5780936545948
 31
0.0
  0
LINE
  5
14D10
330
18
100
AcDbEntity
  8
1PHANTOM
 48
0.5
100
AcDbLine
 10
16.31540075389809
 20
-121.8208201580155
 30
0.0
 11
11.05812725731688
 21
-127.0780936545966
 31
0.0
  0
LINE
  5
14D11
330
18
100
AcDbEntity
  8
1PHANTOM
 48
0.5
100
AcDbLine
 10
17.0581272573187
 20
-121.8208201580155
 30
0.0
 11
16.31540075389809
 21
-121.8208201580155
 31
0.0
  0
LINE
  5
14D12
330
18
100
AcDbEntity
  8
1PHANTOM
 48
0.5
100
AcDbLine
 10
17.0581272573187
 20
-121.8208201580155
 30
0.0
 11
17.0581272573187
 21
-122.5780936545948
 31
0.0
  0
LINE
  5
14E25
330
18
100
AcDbEntity
  8
01
100
AcDbLine
 10
-16.01937948582268
 20
-105.8343702055899
 30
0.0
 11
-9.011799515025231
 21
-104.5033939322861
 31
0.0
  0
ARC
  5
14E2B
330
18
100
AcDbEntity
  8
01
100
AcDbCircle
 10
17.94818856630247
 20
-266.5829156604734
 30
0.0
 40
160.0000000000046
100
AcDbArc
 50
102.3885046320178
 51
134.082597033716
  0
ARC
  5
14E30
330
18
100
AcDbEntity
  8
01
100
AcDbCircle
 10
15.83864113152464
 20
-254.4567243478644
 30
0.0
 40
151.9984797866748
100
AcDbArc
 50
102.4821053843926
 51
136.7250590873023
  0
LINE
  5
14E3A
330
18
100
AcDbEntity
  8
01
100
AcDbLine
 10
-95.8795883036522
 20
-153.3177882118375
 30
0.0
 11
-95.6027197857478
 21
-153.8611732483473
 31
0.0
  0
ARC
  5
14E3C
330
18
100
AcDbEntity
  8
01
100
AcDbCircle
 10
-94.09870182840422
 20
-152.4096545306168
 30
0.0
 40
1.999065636913595
100
AcDbArc
 50
137.5449954791573
 51
207.0185580048804
  0
TEXT
  5
160AE
330
18
100
AcDbEntity
  8
01
  6
CONTINUOUS
100
AcDbText
 10
40.79564276813757
 20
-69.39935738971633
 30
0.0
 40
3.5
  1
PB
100
AcDbText
  0
TEXT
  5
160AF
330
18
100
AcDbEntity
  8
01
  6
CONTINUOUS
100
AcDbText
 10
53.93106091330277
 20
-69.39935738971633
 30
0.0
 40
3.5
  1
合板9mm以上
100
AcDbText
  0
SPLINE
  5
160B0
330
18
100
AcDbEntity
  8
01
100
AcDbSpline
210
0.0
220
0.0
230
1.0
 70
    12
 71
     2
 72
     6
 73
     3
 74
     0
 42
0.000000001
 43
0.0000000001
 40
0.0
 40
0.0
 40
0.0
 40
0.0013602190457967
 40
0.0013602190457967
 40
0.0013602190457967
 10
-266.9513793204404
 20
-68.12318968211753
 30
0.0
 41
1.0
 10
-266.9513797413164
 20
-68.1225095727034
 30
0.0
 41
0.9999999521303001
 10
-266.9513797413164
 20
-68.12182946315829
 30
0.0
 41
1.0
  0
SPLINE
  5
160B1
330
18
100
AcDbEntity
  8
01
100
AcDbSpline
210
0.0
220
0.0
230
1.0
 70
    12
 71
     2
 72
     6
 73
     3
 74
     0
 42
0.000000001
 43
0.0000000001
 40
0.0013602190457967
 40
0.0013602190457967
 40
0.0013602190457967
 40
0.0015221746614538
 40
0.0015221746614538
 40
0.0015221746614538
 10
-266.9513797413164
 20
-68.12182946315829
 30
0.0
 41
1.0
 10
-266.9513797413164
 20
-68.12174848535074
 30
0.0
 41
0.9999999993213897
 10
-266.9513797353496
 20
-68.12166750754318
 30
0.0
 41
1.0
  0
LINE
  5
160B2
330
18
100
AcDbEntity
  8
1DIM
100
AcDbLine
 10
-196.4573311677178
 20
26.16957356316448
 30
0.0
 11
-105.457331167718
 21
26.16957356316445
 31
0.0
1001
ACAD
1000
DSTYLE
1002
{
1070
    45
1040
0.5
1070
   271
1070
     0
1002
}
  0
LINE
  5
160B3
330
18
100
AcDbEntity
  8
1DIM
100
AcDbLine
 10
-128.9513789910069
 20
-74.95189814123228
 30
0.0
 11
-105.4573311677181
 21
-74.95189814123228
 31
0.0
1001
ACAD
1000
DSTYLE
1002
{
1070
    45
1040
0.5
1070
   271
1070
     0
1002
}
  0
LINE
  5
160B4
330
18
100
AcDbEntity
  8
1DIM
100
AcDbLine
 10
-106.457331167718
 20
24.16957356316445
 30
0.0
 11
-106.4573311677181
 21
-72.95189814123228
 31
0.0
1001
ACAD
1000
DSTYLE
1002
{
1070
    45
1040
0.5
1070
   271
1070
     0
1002
}
  0
LINE
  5
160B9
330
18
100
AcDbEntity
  8
1DIM
100
AcDbLine
 10
-33.66419741680755
 20
-110.9624194881377
 30
0.0
 11
-44.52153881735018
 21
-88.93459795258507
 31
0.0
1001
ACAD
1000
DSTYLE
1002
{
1070
    45
1040
0.5
1002
}
  0
LINE
  5
160BA
330
18
100
AcDbEntity
  8
1DIM
100
AcDbLine
 10
-44.52153881735018
 20
-88.93459795258507
 30
0.0
 11
-91.78820548401686
 21
-88.93459795258507
 31
0.0
1001
ACAD
1000
DSTYLE
1002
{
1070
    45
1040
0.5
1002
}
  0
TEXT
  5
160BB
330
18
100
AcDbEntity
  8
1DIM
  6
CONTINUOUS
100
AcDbText
 10
-92.02153881735019
 20
-82.40126461925172
 30
0.0
 40
3.5
  1
材質：亜鉛ダイキャスト
100
AcDbText
1001
ACADANNOTATIVE
1000
AnnotativeData
1002
{
1070
     1
1070
     0
1002
}
  0
TEXT
  5
160BC
330
18
100
AcDbEntity
  8
1DIM
  6
CONTINUOUS
100
AcDbText
 10
-84.32153881735017
 20
-88.23459795258505
 30
0.0
 40
3.5
  1
仕上げ：各種仕上げ
100
AcDbText
1001
ACADANNOTATIVE
1000
AnnotativeData
1002
{
1070
     1
1070
     0
1002
}
  0
LINE
  5
160BE
330
18
100
AcDbEntity
  8
1DIM
100
AcDbLine
 10
30.33432870936338
 20
-94.3260220056577
 30
0.0
 11
26.75484500282868
 21
-88.10868295943041
 31
0.0
1001
ACAD
1000
DSTYLE
1002
{
1070
    45
1040
0.5
1002
}
  0
LINE
  5
160BF
330
18
100
AcDbEntity
  8
1DIM
100
AcDbLine
 10
26.75484500282868
 20
-88.10868295943041
 30
0.0
 11
-20.511821663838
 21
-88.10868295943041
 31
0.0
1001
ACAD
1000
DSTYLE
1002
{
1070
    45
1040
0.5
1002
}
  0
TEXT
  5
160C0
330
18
100
AcDbEntity
  8
1DIM
  6
CONTINUOUS
100
AcDbText
 10
-20.74515499717133
 20
-81.57534962609706
 30
0.0
 40
3.5
  1
材質：亜鉛ダイキャスト
100
AcDbText
  0
TEXT
  5
160C1
330
18
100
AcDbEntity
  8
1DIM
  6
CONTINUOUS
100
AcDbText
 10
-12.81182166383799
 20
-87.4086829594304
 30
0.0
 40
3.5
  1
仕上げ：各種メッキ
100
AcDbText
  0
LINE
  5
160C2
330
18
100
AcDbEntity
  8
1DIM
100
AcDbLine
 10
34.05812725731506
 20
-151.0586000221174
 30
0.0
 11
34.05812725731506
 21
-156.2304264368368
 31
0.0
1001
ACAD
1000
DSTYLE
1002
{
1070
    45
1040
0.5
1002
}
  0
LINE
  5
160C3
330
18
100
AcDbEntity
  8
1DIM
100
AcDbLine
 10
16.05812725731506
 20
-147.7397860248157
 30
0.0
 11
16.05812725731506
 21
-156.2304264368368
 31
0.0
1001
ACAD
1000
DSTYLE
1002
{
1070
    45
1040
0.5
1002
}
  0
LINE
  5
160C4
330
18
100
AcDbEntity
  8
1DIM
100
AcDbLine
 10
32.05812725731506
 20
-155.2304264368368
 30
0.0
 11
18.05812725731506
 21
-155.2304264368368
 31
0.0
1001
ACAD
1000
DSTYLE
1002
{
1070
    45
1040
0.5
1002
}
  0
LINE
  5
160C8
330
18
100
AcDbEntity
  8
1DIM
100
AcDbLine
 10
67.86237155893822
 20
-114.5804264368326
 30
0.0
 11
76.55812725731506
 21
-114.5804264368326
 31
0.0
1001
ACAD
1000
DSTYLE
1002
{
1070
    45
1040
0.5
1070
   271
1070
     1
1002
}
  0
LINE
  5
160C9
330
18
100
AcDbEntity
  8
1DIM
100
AcDbLine
 10
34.05812725731506
 20
-94.08042643683393
 30
0.0
 11
76.55812725731506
 21
-94.08042643683393
 31
0.0
1001
ACAD
1000
DSTYLE
1002
{
1070
    45
1040
0.5
1070
   271
1070
     1
1002
}
  0
LINE
  5
160CA
330
18
100
AcDbEntity
  8
1DIM
100
AcDbLine
 10
75.55812725731506
 20
-112.5804264368326
 30
0.0
 11
75.55812725731506
 21
-96.08042643683393
 31
0.0
1001
ACAD
1000
DSTYLE
1002
{
1070
    45
1040
0.5
1070
   271
1070
     1
1002
}
  0
LINE
  5
160CE
330
18
100
AcDbEntity
  8
1DIM
100
AcDbLine
 10
34.05812725731506
 20
-145.080427693229
 30
0.0
 11
86.55812725731506
 21
-145.080427693229
 31
0.0
1001
ACAD
1000
DSTYLE
1002
{
1070
    45
1040
0.5
1002
}
  0
LINE
  5
160CF
330
18
100
AcDbEntity
  8
1DIM
100
AcDbLine
 10
34.05812725731506
 20
-94.08042643683393
 30
0.0
 11
86.55812725731506
 21
-94.08042643683393
 31
0.0
1001
ACAD
1000
DSTYLE
1002
{
1070
    45
1040
0.5
1002
}
  0
LINE
  5
160D0
330
18
100
AcDbEntity
  8
1DIM
100
AcDbLine
 10
85.55812725731506
 20
-143.080427693229
 30
0.0
 11
85.55812725731506
 21
-96.08042643683393
 31
0.0
1001
ACAD
1000
DSTYLE
1002
{
1070
    45
1040
0.5
1002
}
  0
LINE
  5
160D4
330
18
100
AcDbEntity
  8
1DIM
100
AcDbLine
 10
-175.4572842347765
 20
26.16957356316448
 30
0.0
 11
-175.4572842347765
 21
34.55328924094005
 31
0.0
1001
ACAD
1000
DSTYLE
1002
{
1070
    45
1040
0.5
1002
}
  0
LINE
  5
160D5
330
18
100
AcDbEntity
  8
1DIM
100
AcDbLine
 10
-217.4572842347769
 20
26.16957356316448
 30
0.0
 11
-217.4572842347769
 21
34.55328924094005
 31
0.0
1001
ACAD
1000
DSTYLE
1002
{
1070
    45
1040
0.5
1002
}
  0
LINE
  5
160D6
330
18
100
AcDbEntity
  8
1DIM
100
AcDbLine
 10
-215.4572842347769
 20
33.55328924094005
 30
0.0
 11
-177.4572842347765
 21
33.55328924094005
 31
0.0
1001
ACAD
1000
DSTYLE
1002
{
1070
    45
1040
0.5
1002
}
  0
LINE
  5
160D7
330
18
100
AcDbEntity
  8
1DIM
100
AcDbLine
 10
-175.4572842347765
 20
33.55328924094005
 30
0.0
 11
-164.1522326942053
 21
33.55328924094005
 31
0.0
1001
ACAD
1000
DSTYLE
1002
{
1070
    45
1040
0.5
1002
}
  0
LINE
  5
160DC
330
18
100
AcDbEntity
  8
1DIM
100
AcDbLine
 10
37.38664996030778
 20
-82.8753834451864
 30
0.0
 11
40.09564276813757
 21
-70.09935738971633
 31
0.0
1001
ACAD
1000
DSTYLE
1002
{
1070
    45
1040
0.5
1002
}
  0
LINE
  5
160DE
330
18
100
AcDbEntity
  8
1DIM
100
AcDbLine
 10
50.52206810547298
 20
-82.8753834451864
 30
0.0
 11
53.23106091330277
 21
-70.09935738971633
 31
0.0
1001
ACAD
1000
DSTYLE
1002
{
1070
    45
1040
0.5
1002
}
  0
LINE
  5
160DF
330
18
100
AcDbEntity
  8
1DIM
100
AcDbLine
 10
65.4889221746145
 20
-137.5786629893651
 30
0.0
 11
76.55812725731506
 21
-137.5786629893651
 31
0.0
1001
ACAD
1000
DSTYLE
1002
{
1070
    45
1040
0.5
1002
}
  0
LINE
  5
160E0
330
18
100
AcDbEntity
  8
1DIM
100
AcDbLine
 10
67.86237155893822
 20
-114.5804264368326
 30
0.0
 11
76.55812725731506
 21
-114.5804264368326
 31
0.0
1001
ACAD
1000
DSTYLE
1002
{
1070
    45
1040
0.5
1002
}
  0
LINE
  5
160E1
330
18
100
AcDbEntity
  8
1DIM
100
AcDbLine
 10
75.55812725731506
 20
-135.5786629893651
 30
0.0
 11
75.55812725731506
 21
-116.5804264368326
 31
0.0
1001
ACAD
1000
DSTYLE
1002
{
1070
    45
1040
0.5
1002
}
  0
LINE
  5
160E5
330
18
100
AcDbEntity
  8
1DIM
100
AcDbLine
 10
-205.4573311677181
 20
-112.3203974596083
 30
0.0
 11
-205.4573311677181
 21
-89.22877398286337
 31
0.0
1001
ACAD
1000
DSTYLE
1002
{
1070
    45
1040
0.5
1002
}
  0
LINE
  5
160E6
330
18
100
AcDbEntity
  8
1DIM
100
AcDbLine
 10
-187.4573311677181
 20
-112.3203974596083
 30
0.0
 11
-187.4573311677181
 21
-89.22877398286337
 31
0.0
1001
ACAD
1000
DSTYLE
1002
{
1070
    45
1040
0.5
1002
}
  0
LINE
  5
160E7
330
18
100
AcDbEntity
  8
1DIM
100
AcDbLine
 10
-203.4573311677181
 20
-90.22877398286337
 30
0.0
 11
-189.4573311677181
 21
-90.22877398286337
 31
0.0
1001
ACAD
1000
DSTYLE
1002
{
1070
    45
1040
0.5
1002
}
  0
LINE
  5
160EB
330
18
100
AcDbEntity
  8
1DIM
100
AcDbLine
 10
-266.9573311677176
 20
-108.3455988795337
 30
0.0
 11
-266.9573311677176
 21
-82.43408661481863
 31
0.0
1001
ACAD
1000
DSTYLE
1002
{
1070
    45
1040
0.5
1002
}
  0
LINE
  5
160EC
330
18
100
AcDbEntity
  8
1DIM
100
AcDbLine
 10
-125.9573311677162
 20
-108.3455988795351
 30
0.0
 11
-125.9573311677162
 21
-82.43408661481863
 31
0.0
1001
ACAD
1000
DSTYLE
1002
{
1070
    45
1040
0.5
1002
}
  0
LINE
  5
160ED
330
18
100
AcDbEntity
  8
1DIM
100
AcDbLine
 10
-264.9573311677176
 20
-83.43408661481863
 30
0.0
 11
-127.9573311677162
 21
-83.43408661481863
 31
0.0
1001
ACAD
1000
DSTYLE
1002
{
1070
    45
1040
0.5
1002
}
  0
LINE
  5
160F1
330
18
100
AcDbEntity
  8
1DIM
100
AcDbLine
 10
-23.36151180054399
 20
-142.955886109311
 30
0.0
 11
-23.36151180054399
 21
-72.83042643683541
 31
0.0
1001
ACAD
1000
DSTYLE
1002
{
1070
    45
1040
0.5
1002
}
  0
LINE
  5
160F2
330
18
100
AcDbEntity
  8
1DIM
100
AcDbLine
 10
34.05812725731506
 20
-76.60225285155366
 30
0.0
 11
34.05812725731506
 21
-72.83042643683541
 31
0.0
1001
ACAD
1000
DSTYLE
1002
{
1070
    45
1040
0.5
1002
}
  0
LINE
  5
160F3
330
18
100
AcDbEntity
  8
1DIM
100
AcDbLine
 10
-21.36151180054399
 20
-73.83042643683541
 30
0.0
 11
32.05812725731506
 21
-73.83042643683541
 31
0.0
1001
ACAD
1000
DSTYLE
1002
{
1070
    45
1040
0.5
1002
}
  0
LINE
  5
160F7
330
18
100
AcDbEntity
  8
1DIM
100
AcDbLine
 10
-96.10650480706131
 20
-152.3592633023585
 30
0.0
 11
-96.10650480706131
 21
-62.83042643683541
 31
0.0
1001
ACAD
1000
DSTYLE
1002
{
1070
    45
1040
0.5
1070
   271
1070
     0
1002
}
  0
LINE
  5
160F8
330
18
100
AcDbEntity
  8
1DIM
100
AcDbLine
 10
34.05812725731506
 20
-76.60225285155366
 30
0.0
 11
34.05812725731506
 21
-62.83042643683541
 31
0.0
1001
ACAD
1000
DSTYLE
1002
{
1070
    45
1040
0.5
1070
   271
1070
     0
1002
}
  0
LINE
  5
160F9
330
18
100
AcDbEntity
  8
1DIM
100
AcDbLine
 10
-94.10650480706131
 20
-63.83042643683541
 30
0.0
 11
32.05812725731506
 21
-63.83042643683541
 31
0.0
1001
ACAD
1000
DSTYLE
1002
{
1070
    45
1040
0.5
1070
   271
1070
     0
1002
}
  0
LINE
  5
160FD
330
18
100
AcDbEntity
  8
1PHANTOM
 48
0.5
100
AcDbLine
 10
-188.9572377381318
 20
51.81957154857864
 30
0.0
 11
-188.9572377381318
 21
24.91960645045481
 31
0.0
  0
LINE
  5
160FE
330
18
100
AcDbEntity
  8
1PHANTOM
 48
0.5
100
AcDbLine
 10
-191.4572842740298
 20
22.41957736578261
 30
0.0
 11
-188.9572377381319
 21
24.91960645045473
 31
0.0
  0
LINE
  5
160FF
330
18
100
AcDbEntity
  8
1PHANTOM
 48
0.5
100
AcDbLine
 10
-191.4572842740298
 20
22.41957736578261
 30
0.0
 11
-191.4572842740298
 21
22.11957736578163
 31
0.0
  0
LINE
  5
16100
330
18
100
AcDbEntity
  8
1PHANTOM
 48
0.5
100
AcDbLine
 10
-191.4572842740298
 20
22.11957736578152
 30
0.0
 11
-183.4572842740297
 21
22.11955875142232
 31
0.0
  0
LINE
  5
16101
330
18
100
AcDbEntity
  8
1PHANTOM
 48
0.5
100
AcDbLine
 10
-183.4572842740298
 20
22.4195587514233
 30
0.0
 11
-183.4572842740298
 21
22.11955875142221
 31
0.0
  0
LINE
  5
16102
330
18
100
AcDbEntity
  8
1PHANTOM
 48
0.5
100
AcDbLine
 10
-183.4572842740298
 20
22.4195587514233
 30
0.0
 11
-185.9572377381319
 21
24.9195413000893
 31
0.0
  0
LINE
  5
16103
330
18
100
AcDbEntity
  8
1PHANTOM
 48
0.5
100
AcDbLine
 10
-185.9572377381318
 20
51.81956456819407
 30
0.0
 11
-185.9572377381318
 21
24.91954130008932
 31
0.0
  0
LINE
  5
16104
330
18
100
AcDbEntity
  8
1PHANTOM
 48
0.5
100
AcDbLine
 10
-187.4572377381318
 20
57.11956805843974
 30
0.0
 11
-185.9572377381317
 21
51.81956456819439
 31
0.0
  0
LINE
  5
16105
330
18
100
AcDbEntity
  8
1PHANTOM
 48
0.5
100
AcDbLine
 10
-187.4572377381318
 20
57.11956805843974
 30
0.0
 11
-188.9572377381318
 21
51.81957154857868
 31
0.0
  0
LINE
  5
16106
330
18
100
AcDbEntity
  8
1PHANTOM
 48
0.5
100
AcDbLine
 10
-206.9572377381318
 20
51.81957154857864
 30
0.0
 11
-206.9572377381318
 21
24.91960645045481
 31
0.0
  0
LINE
  5
16107
330
18
100
AcDbEntity
  8
1PHANTOM
 48
0.5
100
AcDbLine
 10
-209.4572842740298
 20
22.41957736578261
 30
0.0
 11
-206.9572377381319
 21
24.91960645045473
 31
0.0
  0
LINE
  5
16108
330
18
100
AcDbEntity
  8
1PHANTOM
 48
0.5
100
AcDbLine
 10
-209.4572842740298
 20
22.41957736578261
 30
0.0
 11
-209.4572842740298
 21
22.11957736578163
 31
0.0
  0
LINE
  5
16109
330
18
100
AcDbEntity
  8
1PHANTOM
 48
0.5
100
AcDbLine
 10
-209.4572842740298
 20
22.11957736578197
 30
0.0
 11
-201.4572842740297
 21
22.11955875142278
 31
0.0
  0
LINE
  5
1610A
330
18
100
AcDbEntity
  8
1PHANTOM
 48
0.5
100
AcDbLine
 10
-201.4572842740298
 20
22.4195587514233
 30
0.0
 11
-201.4572842740298
 21
22.11955875142221
 31
0.0
  0
LINE
  5
1610B
330
18
100
AcDbEntity
  8
1PHANTOM
 48
0.5
100
AcDbLine
 10
-201.4572842740298
 20
22.4195587514233
 30
0.0
 11
-203.9572377381319
 21
24.9195413000893
 31
0.0
  0
LINE
  5
1610C
330
18
100
AcDbEntity
  8
1PHANTOM
 48
0.5
100
AcDbLine
 10
-203.9572377381318
 20
51.81956456819452
 30
0.0
 11
-203.9572377381318
 21
24.91954130008978
 31
0.0
  0
LINE
  5
1610D
330
18
100
AcDbEntity
  8
1PHANTOM
 48
0.5
100
AcDbLine
 10
-205.4572377381318
 20
57.11956805843974
 30
0.0
 11
-203.9572377381317
 21
51.81956456819439
 31
0.0
  0
LINE
  5
1610E
330
18
100
AcDbEntity
  8
1PHANTOM
 48
0.5
100
AcDbLine
 10
-205.4572377381318
 20
57.11956805843974
 30
0.0
 11
-206.9572377381318
 21
51.81957154857868
 31
0.0
  0
LINE
  5
1610F
330
18
100
AcDbEntity
  8
0
100
AcDbLine
 10
-196.4572846318199
 20
56.16957325785786
 30
0.0
 11
-197.9572846318199
 21
50.86957674799618
 31
0.0
  0
LINE
  5
16110
330
18
100
AcDbEntity
  8
0
100
AcDbLine
 10
-197.9572846318199
 20
50.86957674799618
 30
0.0
 11
-197.9572846318197
 21
21.16957674810431
 31
0.0
  0
LINE
  5
16111
330
18
100
AcDbEntity
  8
0
100
AcDbLine
 10
-196.4572846318199
 20
56.16957325785786
 30
0.0
 11
-194.9572846318198
 21
50.86956976761255
 31
0.0
  0
LINE
  5
16112
330
18
100
AcDbEntity
  8
0
100
AcDbLine
 10
-199.9573311677177
 20
21.1695814018024
 30
0.0
 11
-192.9573311677178
 21
21.16956511423806
 31
0.0
  0
LINE
  5
16113
330
18
100
AcDbEntity
  8
0
100
AcDbLine
 10
-194.9572846318198
 20
50.86956976761255
 30
0.0
 11
-194.9572846318197
 21
21.1695697677196
 31
0.0
  0
LINE
  5
16114
330
18
100
AcDbEntity
  8
0
100
AcDbLine
 10
-199.9573311677177
 20
21.1695814018024
 30
0.0
 11
-199.9573311677178
 21
20.06957791160708
 31
0.0
  0
ARC
  5
16115
330
18
100
AcDbEntity
  8
0
100
AcDbCircle
 10
-198.4573311677178
 20
20.06957791160708
 30
0.0
 40
1.5
100
AcDbArc
 50
180.0
 51
269.9998666844684
  0
LINE
  5
16116
330
18
100
AcDbEntity
  8
0
100
AcDbLine
 10
-192.9573311677178
 20
21.16956511423806
 30
0.0
 11
-192.9573311677178
 21
20.06956860442748
 31
0.0
  0
LINE
  5
16117
330
18
100
AcDbEntity
  8
0
100
AcDbLine
 10
-198.4573346579102
 20
18.56957791161114
 30
0.0
 11
-194.4573346579102
 21
18.56956860443155
 31
0.0
  0
ARC
  5
16118
330
18
100
AcDbEntity
  8
0
100
AcDbCircle
 10
-194.4573311677178
 20
20.06956860442748
 30
0.0
 40
1.5
100
AcDbArc
 50
269.9998666844684
 51
0.0
  0
LINE
  5
16119
330
18
100
AcDbEntity
  8
1CENTER
100
AcDbLine
 10
-196.4573311677178
 20
57.6003681753233
 30
0.0
 11
-196.4573311677178
 21
17.4992968487114
 31
0.0
  0
LINE
  5
1611A
330
18
100
AcDbEntity
  8
0
100
AcDbLine
 10
-197.5516549817129
 20
54.06957580418004
 30
0.0
 11
-195.5893198928375
 21
54.86957123823101
 31
0.0
  0
LINE
  5
1611B
330
18
100
AcDbEntity
  8
0
100
AcDbLine
 10
-195.5893198928375
 20
54.86957123823101
 30
0.0
 11
-196.1775964678799
 21
55.18134109448312
 31
0.0
  0
LINE
  5
1611C
330
18
100
AcDbEntity
  8
0
100
AcDbLine
 10
-198.4572846318199
 20
31.66957791139004
 30
0.0
 11
-194.4572846318199
 21
32.4695686042083
 31
0.0
  0
LINE
  5
1611D
330
18
100
AcDbEntity
  8
0
100
AcDbLine
 10
-198.4572846318199
 20
42.86957791139441
 30
0.0
 11
-194.4572846318199
 21
43.66956860421698
 31
0.0
  0
LINE
  5
1611E
330
18
100
AcDbEntity
  8
0
100
AcDbLine
 10
-198.4572846318199
 20
46.06957791139445
 30
0.0
 11
-194.4572846318199
 21
46.86956860421703
 31
0.0
  0
LINE
  5
1611F
330
18
100
AcDbEntity
  8
0
100
AcDbLine
 10
-194.4572846318199
 20
46.86956860421703
 30
0.0
 11
-194.9572846318199
 21
46.96956976761425
 31
0.0
  0
LINE
  5
16120
330
18
100
AcDbEntity
  8
0
100
AcDbLine
 10
-197.9572846318199
 20
47.56957674799725
 30
0.0
 11
-198.4572846318199
 21
47.66957791139448
 31
0.0
  0
LINE
  5
16121
330
18
100
AcDbEntity
  8
0
100
AcDbLine
 10
-194.4572846318199
 20
43.66956860421698
 30
0.0
 11
-194.9572846318199
 21
43.76956976761421
 31
0.0
  0
LINE
  5
16122
330
18
100
AcDbEntity
  8
0
100
AcDbLine
 10
-194.4572846318199
 20
45.26956860421712
 30
0.0
 11
-194.9572846318199
 21
45.36956976761423
 31
0.0
  0
LINE
  5
16123
330
18
100
AcDbEntity
  8
0
100
AcDbLine
 10
-197.9572846318199
 20
45.96957674799734
 30
0.0
 11
-198.4572846318199
 21
46.06957791139445
 31
0.0
  0
LINE
  5
16124
330
18
100
AcDbEntity
  8
0
100
AcDbLine
 10
-197.9572846318199
 20
44.36957674799744
 30
0.0
 11
-198.4572846318199
 21
44.46957791139454
 31
0.0
  0
LINE
  5
16125
330
18
100
AcDbEntity
  8
0
100
AcDbLine
 10
-198.4572846318199
 20
44.46957791139454
 30
0.0
 11
-194.4572846318199
 21
45.26956860421712
 31
0.0
  0
LINE
  5
16126
330
18
100
AcDbEntity
  8
0
100
AcDbLine
 10
-195.1365057884307
 20
53.26957018462537
 30
0.0
 11
-195.6882552522339
 21
53.45233432725338
 31
0.0
  0
LINE
  5
16127
330
18
100
AcDbEntity
  8
0
100
AcDbLine
 10
-194.4572846318199
 20
50.06956860421707
 30
0.0
 11
-194.9572846318199
 21
50.16956976761418
 31
0.0
  0
LINE
  5
16128
330
18
100
AcDbEntity
  8
0
100
AcDbLine
 10
-194.4572846318199
 20
48.46956860421705
 30
0.0
 11
-194.9572846318199
 21
48.56956976761405
 31
0.0
  0
LINE
  5
16129
330
18
100
AcDbEntity
  8
0
100
AcDbLine
 10
-194.6836916840239
 20
51.66956913101973
 30
0.0
 11
-195.220285419295
 21
51.7988398286496
 31
0.0
  0
LINE
  5
1612A
330
18
100
AcDbEntity
  8
0
100
AcDbLine
 10
-197.5363700346112
 20
52.35680734543423
 30
0.0
 11
-198.0044684897612
 21
52.46957685778427
 31
0.0
  0
LINE
  5
1612B
330
18
100
AcDbEntity
  8
0
100
AcDbLine
 10
-197.9572846318199
 20
49.16957674799739
 30
0.0
 11
-198.4572846318199
 21
49.2695779113945
 31
0.0
  0
LINE
  5
1612C
330
18
100
AcDbEntity
  8
0
100
AcDbLine
 10
-197.9572846318199
 20
50.7695767479973
 30
0.0
 11
-198.4572846318199
 21
50.86957791139441
 31
0.0
  0
LINE
  5
1612D
330
18
100
AcDbEntity
  8
0
100
AcDbLine
 10
-197.0944831410818
 20
53.91814000773963
 30
0.0
 11
-197.5516549817129
 21
54.06957580418004
 31
0.0
  0
LINE
  5
1612E
330
18
100
AcDbEntity
  8
0
100
AcDbLine
 10
-198.0044684897612
 20
52.46957685778427
 30
0.0
 11
-195.1365057884307
 21
53.26957018462537
 31
0.0
  0
LINE
  5
1612F
330
18
100
AcDbEntity
  8
0
100
AcDbLine
 10
-198.4572846318199
 20
49.2695779113945
 30
0.0
 11
-194.4572846318199
 21
50.06956860421707
 31
0.0
  0
LINE
  5
16130
330
18
100
AcDbEntity
  8
0
100
AcDbLine
 10
-198.4572846318199
 20
50.86957791139441
 30
0.0
 11
-194.6836916840239
 21
51.66956913101973
 31
0.0
  0
LINE
  5
16131
330
18
100
AcDbEntity
  8
0
100
AcDbLine
 10
-198.4572846318199
 20
47.66957791139448
 30
0.0
 11
-194.4572846318199
 21
48.46956860421705
 31
0.0
  0
LINE
  5
16132
330
18
100
AcDbEntity
  8
0
100
AcDbLine
 10
-198.4572846318199
 20
34.86957791139009
 30
0.0
 11
-194.4572846318199
 21
35.66956860420834
 31
0.0
  0
LINE
  5
16133
330
18
100
AcDbEntity
  8
0
100
AcDbLine
 10
-194.4572846318199
 20
35.66956860420834
 30
0.0
 11
-194.9572846318199
 21
35.76956976760602
 31
0.0
  0
LINE
  5
16134
330
18
100
AcDbEntity
  8
0
100
AcDbLine
 10
-197.9572846318199
 20
36.36957674799675
 30
0.0
 11
-198.4572846318199
 21
36.46957791139443
 31
0.0
  0
LINE
  5
16135
330
18
100
AcDbEntity
  8
0
100
AcDbLine
 10
-194.4572846318199
 20
34.06956860420821
 30
0.0
 11
-194.9572846318199
 21
34.16956976760589
 31
0.0
  0
LINE
  5
16136
330
18
100
AcDbEntity
  8
0
100
AcDbLine
 10
-194.4572846318199
 20
32.4695686042083
 30
0.0
 11
-194.9572846318199
 21
32.56956976760598
 31
0.0
  0
LINE
  5
16137
330
18
100
AcDbEntity
  8
0
100
AcDbLine
 10
-197.9572846318199
 20
34.76957674799241
 30
0.0
 11
-198.4572846318199
 21
34.86957791139009
 31
0.0
  0
LINE
  5
16138
330
18
100
AcDbEntity
  8
0
100
AcDbLine
 10
-197.9572846318199
 20
33.16957674799227
 30
0.0
 11
-198.4572846318199
 21
33.26957791138995
 31
0.0
  0
LINE
  5
16139
330
18
100
AcDbEntity
  8
0
100
AcDbLine
 10
-198.4572846318199
 20
33.26957791138995
 30
0.0
 11
-194.4572846318199
 21
34.06956860420821
 31
0.0
  0
LINE
  5
1613A
330
18
100
AcDbEntity
  8
0
100
AcDbLine
 10
-194.4572846318199
 20
40.46956860421273
 30
0.0
 11
-194.9572846318199
 21
40.56956976761041
 31
0.0
  0
LINE
  5
1613B
330
18
100
AcDbEntity
  8
0
100
AcDbLine
 10
-194.4572846318199
 20
42.06956860421707
 30
0.0
 11
-194.9572846318199
 21
42.16956976761418
 31
0.0
  0
LINE
  5
1613C
330
18
100
AcDbEntity
  8
0
100
AcDbLine
 10
-194.4572846318199
 20
37.26956860421269
 30
0.0
 11
-194.9572846318199
 21
37.36956976761036
 31
0.0
  0
LINE
  5
1613D
330
18
100
AcDbEntity
  8
0
100
AcDbLine
 10
-194.4572846318199
 20
38.8695686042126
 30
0.0
 11
-194.9572846318199
 21
38.96956976761027
 31
0.0
  0
LINE
  5
1613E
330
18
100
AcDbEntity
  8
0
100
AcDbLine
 10
-197.9572846318199
 20
42.7695767479973
 30
0.0
 11
-198.4572846318199
 21
42.86957791139441
 31
0.0
  0
LINE
  5
1613F
330
18
100
AcDbEntity
  8
0
100
AcDbLine
 10
-197.9572846318199
 20
41.16957674799671
 30
0.0
 11
-198.4572846318199
 21
41.2695779113945
 31
0.0
  0
LINE
  5
16140
330
18
100
AcDbEntity
  8
0
100
AcDbLine
 10
-197.9572846318199
 20
37.96957674799666
 30
0.0
 11
-198.4572846318199
 21
38.06957791139434
 31
0.0
  0
LINE
  5
16141
330
18
100
AcDbEntity
  8
0
100
AcDbLine
 10
-197.9572846318199
 20
39.5695767479968
 30
0.0
 11
-198.4572846318199
 21
39.66957791139448
 31
0.0
  0
LINE
  5
16142
330
18
100
AcDbEntity
  8
0
100
AcDbLine
 10
-198.4572846318199
 20
39.66957791139448
 30
0.0
 11
-194.4572846318199
 21
40.46956860421273
 31
0.0
  0
LINE
  5
16143
330
18
100
AcDbEntity
  8
0
100
AcDbLine
 10
-198.4572846318199
 20
41.2695779113945
 30
0.0
 11
-194.4572846318199
 21
42.06956860421707
 31
0.0
  0
LINE
  5
16144
330
18
100
AcDbEntity
  8
0
100
AcDbLine
 10
-198.4572846318199
 20
38.06957791139434
 30
0.0
 11
-194.4572846318199
 21
38.8695686042126
 31
0.0
  0
LINE
  5
16145
330
18
100
AcDbEntity
  8
0
100
AcDbLine
 10
-198.4572846318199
 20
36.46957791139443
 30
0.0
 11
-194.4572846318199
 21
37.26956860421269
 31
0.0
  0
LINE
  5
16146
330
18
100
AcDbEntity
  8
0
100
AcDbLine
 10
-197.9572846318199
 20
26.7695767479882
 30
0.0
 11
-198.4572846318199
 21
26.86957791138588
 31
0.0
  0
LINE
  5
16147
330
18
100
AcDbEntity
  8
0
100
AcDbLine
 10
-198.4572846318199
 20
26.86957791138588
 30
0.0
 11
-194.4572846318199
 21
27.66956860420414
 31
0.0
  0
LINE
  5
16148
330
18
100
AcDbEntity
  8
0
100
AcDbLine
 10
-194.4572846318199
 20
27.66956860420414
 30
0.0
 11
-194.9572846318199
 21
27.76956976760182
 31
0.0
  0
LINE
  5
16149
330
18
100
AcDbEntity
  8
0
100
AcDbLine
 10
-197.9572846318199
 20
28.36957674798811
 30
0.0
 11
-198.4572846318199
 21
28.46957791138579
 31
0.0
  0
LINE
  5
1614A
330
18
100
AcDbEntity
  8
0
100
AcDbLine
 10
-197.9572846318199
 20
29.96957674798802
 30
0.0
 11
-198.4572846318199
 21
30.0695779113857
 31
0.0
  0
LINE
  5
1614B
330
18
100
AcDbEntity
  8
0
100
AcDbLine
 10
-198.4572846318199
 20
30.0695779113857
 30
0.0
 11
-194.4572846318199
 21
30.86956860420396
 31
0.0
  0
LINE
  5
1614C
330
18
100
AcDbEntity
  8
0
100
AcDbLine
 10
-194.4572846318199
 20
29.26956860420405
 30
0.0
 11
-194.9572846318199
 21
29.36956976760172
 31
0.0
  0
LINE
  5
1614D
330
18
100
AcDbEntity
  8
0
100
AcDbLine
 10
-194.4572846318199
 20
30.86956860420396
 30
0.0
 11
-194.9572846318199
 21
30.96956976760163
 31
0.0
  0
LINE
  5
1614E
330
18
100
AcDbEntity
  8
0
100
AcDbLine
 10
-198.4572846318199
 20
28.46957791138579
 30
0.0
 11
-194.4572846318199
 21
29.26956860420405
 31
0.0
  0
LINE
  5
1614F
330
18
100
AcDbEntity
  8
0
100
AcDbLine
 10
-197.9572846318199
 20
31.56957674799236
 30
0.0
 11
-198.4572846318199
 21
31.66957791139004
 31
0.0
  0
LINE
  5
16150
330
18
100
AcDbEntity
  8
0
100
AcDbLine
 10
-197.9572846318199
 20
25.16957674798829
 30
0.0
 11
-198.4572846318199
 21
25.26957791138597
 31
0.0
  0
LINE
  5
16151
330
18
100
AcDbEntity
  8
0
100
AcDbLine
 10
-198.4572846318199
 20
25.26957791138597
 30
0.0
 11
-194.4572846318199
 21
26.06956860420423
 31
0.0
  0
LINE
  5
16152
330
18
100
AcDbEntity
  8
0
100
AcDbLine
 10
-194.4572846318199
 20
26.06956860420423
 30
0.0
 11
-194.9572846318199
 21
26.16956976760191
 31
0.0
  0
LINE
  5
16153
330
18
100
AcDbEntity
  8
0
100
AcDbLine
 10
-197.9572846318199
 20
23.56957674798839
 30
0.0
 11
-198.4572846318199
 21
23.66957791138606
 31
0.0
  0
LINE
  5
16154
330
18
100
AcDbEntity
  8
0
100
AcDbLine
 10
-198.4572846318199
 20
23.66957791138606
 30
0.0
 11
-194.4572846318199
 21
24.46956860420432
 31
0.0
  0
LINE
  5
16155
330
18
100
AcDbEntity
  8
0
100
AcDbLine
 10
-194.4572846318199
 20
24.46956860420432
 30
0.0
 11
-194.9572846318199
 21
24.569569767602
 31
0.0
  0
LINE
  5
16156
330
18
100
AcDbEntity
  8
0
100
AcDbLine
 10
-197.9572846318199
 20
21.96957674798848
 30
0.0
 11
-198.4572846318199
 21
22.06957791138615
 31
0.0
  0
LINE
  5
16157
330
18
100
AcDbEntity
  8
0
100
AcDbLine
 10
-198.4572846318199
 20
22.06957791138615
 30
0.0
 11
-194.4572846318199
 21
22.86956860420441
 31
0.0
  0
LINE
  5
16158
330
18
100
AcDbEntity
  8
0
100
AcDbLine
 10
-194.4572846318199
 20
22.86956860420441
 30
0.0
 11
-194.9572846318199
 21
22.96956976760209
 31
0.0
  0
LINE
  5
16159
330
18
100
AcDbEntity
  8
1PHANTOM
 48
0.5
100
AcDbLine
 10
59.70811623659246
 20
-113.0804729727325
 30
0.0
 11
32.80815113846838
 21
-113.0804729727324
 31
0.0
  0
LINE
  5
1615A
330
18
100
AcDbEntity
  8
1PHANTOM
 48
0.5
100
AcDbLine
 10
32.80815113846838
 20
-113.0804729727324
 30
0.0
 11
30.30812205379642
 21
-110.5804264368344
 31
0.0
  0
LINE
  5
1615B
330
18
100
AcDbEntity
  8
1PHANTOM
 48
0.5
100
AcDbLine
 10
30.30812205379642
 20
-110.5804264368344
 30
0.0
 11
30.00812205379533
 21
-110.5804264368344
 31
0.0
  0
LINE
  5
1615C
330
18
100
AcDbEntity
  8
1PHANTOM
 48
0.5
100
AcDbLine
 10
30.00812205379533
 20
-110.5804264368344
 30
0.0
 11
30.00810343943603
 21
-118.5804264368344
 31
0.0
  0
LINE
  5
1615D
330
18
100
AcDbEntity
  8
1PHANTOM
 48
0.5
100
AcDbLine
 10
30.00810343943603
 20
-118.5804264368344
 30
0.0
 11
30.30810343943712
 21
-118.5804264368344
 31
0.0
  0
LINE
  5
1615E
330
18
100
AcDbEntity
  8
1PHANTOM
 48
0.5
100
AcDbLine
 10
30.30810343943712
 20
-118.5804264368344
 30
0.0
 11
32.80808598810326
 21
-116.0804729727324
 31
0.0
  0
LINE
  5
1615F
330
18
100
AcDbEntity
  8
1PHANTOM
 48
0.5
100
AcDbLine
 10
32.80808598810326
 20
-116.0804729727324
 30
0.0
 11
59.70810925620789
 21
-116.0804729727325
 31
0.0
  0
LINE
  5
16160
330
18
100
AcDbEntity
  8
1PHANTOM
 48
0.5
100
AcDbLine
 10
59.70810925620789
 20
-116.0804729727325
 30
0.0
 11
65.00811274645356
 21
-114.5804729727325
 31
0.0
  0
LINE
  5
16161
330
18
100
AcDbEntity
  8
1PHANTOM
 48
0.5
100
AcDbLine
 10
65.00811274645356
 20
-114.5804729727325
 30
0.0
 11
59.70811623659246
 21
-113.0804729727325
 31
0.0
  0
LINE
  5
16162
330
18
100
AcDbEntity
  8
0
100
AcDbLine
 10
64.05812725714905
 20
-137.578709525263
 30
0.0
 11
58.75813074728738
 21
-136.078709525263
 31
0.0
  0
LINE
  5
16163
330
18
100
AcDbEntity
  8
0
100
AcDbLine
 10
58.75813074728738
 20
-136.078709525263
 30
0.0
 11
29.05813074739551
 21
-136.0787095252632
 31
0.0
  0
LINE
  5
16164
330
18
100
AcDbEntity
  8
0
100
AcDbLine
 10
64.05812725714905
 20
-137.578709525263
 30
0.0
 11
58.75812376690375
 21
-139.0787095252631
 31
0.0
  0
LINE
  5
16165
330
18
100
AcDbEntity
  8
0
100
AcDbLine
 10
29.05813540109359
 20
-134.0786629893652
 30
0.0
 11
29.05811911352926
 21
-141.0786629893651
 31
0.0
  0
LINE
  5
16166
330
18
100
AcDbEntity
  8
0
100
AcDbLine
 10
58.75812376690375
 20
-139.0787095252631
 30
0.0
 11
29.0581237670108
 21
-139.0787095252632
 31
0.0
  0
LINE
  5
16167
330
18
100
AcDbEntity
  8
0
100
AcDbLine
 10
29.05813540109359
 20
-134.0786629893652
 30
0.0
 11
27.95813191089827
 21
-134.0786629893651
 31
0.0
  0
ARC
  5
16168
330
18
100
AcDbEntity
  8
0
100
AcDbCircle
 10
27.95813191089827
 20
-135.5786629893651
 30
0.0
 40
1.5
100
AcDbArc
 50
90.0
 51
179.9998666844684
  0
LINE
  5
16169
330
18
100
AcDbEntity
  8
0
100
AcDbLine
 10
29.05811911352926
 20
-141.0786629893651
 30
0.0
 11
27.95812260371868
 21
-141.0786629893651
 31
0.0
  0
LINE
  5
1616A
330
18
100
AcDbEntity
  8
0
100
AcDbLine
 10
26.45813191090234
 20
-135.5786594991727
 30
0.0
 11
26.45812260372274
 21
-139.5786594991727
 31
0.0
  0
ARC
  5
1616B
330
18
100
AcDbEntity
  8
0
100
AcDbCircle
 10
27.95812260371868
 20
-139.5786629893651
 30
0.0
 40
1.5
100
AcDbArc
 50
179.9998666844684
 51
270.0
  0
LINE
  5
1616C
330
18
100
AcDbEntity
  8
1CENTER
100
AcDbLine
 10
65.4889221746145
 20
-137.5786629893651
 30
0.0
 11
25.3878508480026
 21
-137.5786629893651
 31
0.0
  0
LINE
  5
1616D
330
18
100
AcDbEntity
  8
0
100
AcDbLine
 10
61.95812980347124
 20
-136.48433917537
 30
0.0
 11
62.75812523752221
 21
-138.4466742642454
 31
0.0
  0
LINE
  5
1616E
330
18
100
AcDbEntity
  8
0
100
AcDbLine
 10
62.75812523752221
 20
-138.4466742642454
 30
0.0
 11
63.06989509377432
 21
-137.858397689203
 31
0.0
  0
LINE
  5
1616F
330
18
100
AcDbEntity
  8
0
100
AcDbLine
 10
39.55813191068124
 20
-135.578709525263
 30
0.0
 11
40.3581226034995
 21
-139.578709525263
 31
0.0
  0
LINE
  5
16170
330
18
100
AcDbEntity
  8
0
100
AcDbLine
 10
50.75813191068561
 20
-135.578709525263
 30
0.0
 11
51.55812260350818
 21
-139.578709525263
 31
0.0
  0
LINE
  5
16171
330
18
100
AcDbEntity
  8
0
100
AcDbLine
 10
53.95813191068565
 20
-135.578709525263
 30
0.0
 11
54.75812260350823
 21
-139.578709525263
 31
0.0
  0
LINE
  5
16172
330
18
100
AcDbEntity
  8
0
100
AcDbLine
 10
54.75812260350823
 20
-139.578709525263
 30
0.0
 11
54.85812376690545
 21
-139.078709525263
 31
0.0
  0
LINE
  5
16173
330
18
100
AcDbEntity
  8
0
100
AcDbLine
 10
55.45813074728845
 20
-136.078709525263
 30
0.0
 11
55.55813191068567
 21
-135.578709525263
 31
0.0
  0
LINE
  5
16174
330
18
100
AcDbEntity
  8
0
100
AcDbLine
 10
51.55812260350818
 20
-139.578709525263
 30
0.0
 11
51.6581237669054
 21
-139.078709525263
 31
0.0
  0
LINE
  5
16175
330
18
100
AcDbEntity
  8
0
100
AcDbLine
 10
53.15812260350832
 20
-139.578709525263
 30
0.0
 11
53.25812376690543
 21
-139.078709525263
 31
0.0
  0
LINE
  5
16176
330
18
100
AcDbEntity
  8
0
100
AcDbLine
 10
53.85813074728854
 20
-136.078709525263
 30
0.0
 11
53.95813191068565
 21
-135.578709525263
 31
0.0
  0
LINE
  5
16177
330
18
100
AcDbEntity
  8
0
100
AcDbLine
 10
52.25813074728863
 20
-136.078709525263
 30
0.0
 11
52.35813191068574
 21
-135.578709525263
 31
0.0
  0
LINE
  5
16178
330
18
100
AcDbEntity
  8
0
100
AcDbLine
 10
52.35813191068574
 20
-135.578709525263
 30
0.0
 11
53.15812260350832
 21
-139.578709525263
 31
0.0
  0
LINE
  5
16179
330
18
100
AcDbEntity
  8
0
100
AcDbLine
 10
61.15812418391657
 20
-138.8994883686522
 30
0.0
 11
61.34088832654457
 21
-138.3477389048489
 31
0.0
  0
LINE
  5
1617A
330
18
100
AcDbEntity
  8
0
100
AcDbLine
 10
57.95812260350827
 20
-139.578709525263
 30
0.0
 11
58.05812376690538
 21
-139.078709525263
 31
0.0
  0
LINE
  5
1617B
330
18
100
AcDbEntity
  8
0
100
AcDbLine
 10
56.35812260350825
 20
-139.578709525263
 30
0.0
 11
56.45812376690525
 21
-139.078709525263
 31
0.0
  0
LINE
  5
1617C
330
18
100
AcDbEntity
  8
0
100
AcDbLine
 10
59.55812313031093
 20
-139.352302473059
 30
0.0
 11
59.6873938279408
 21
-138.8157087377879
 31
0.0
  0
LINE
  5
1617D
330
18
100
AcDbEntity
  8
0
100
AcDbLine
 10
60.24536134472542
 20
-136.4996241224717
 30
0.0
 11
60.35813085707547
 21
-136.0315256673217
 31
0.0
  0
LINE
  5
1617E
330
18
100
AcDbEntity
  8
0
100
AcDbLine
 10
57.05813074728859
 20
-136.078709525263
 30
0.0
 11
57.1581319106857
 21
-135.578709525263
 31
0.0
  0
LINE
  5
1617F
330
18
100
AcDbEntity
  8
0
100
AcDbLine
 10
58.6581307472885
 20
-136.078709525263
 30
0.0
 11
58.75813191068561
 21
-135.578709525263
 31
0.0
  0
LINE
  5
16180
330
18
100
AcDbEntity
  8
0
100
AcDbLine
 10
61.80669400703083
 20
-136.9415110160011
 30
0.0
 11
61.95812980347124
 21
-136.48433917537
 31
0.0
  0
LINE
  5
16181
330
18
100
AcDbEntity
  8
0
100
AcDbLine
 10
60.35813085707547
 20
-136.0315256673217
 30
0.0
 11
61.15812418391657
 21
-138.8994883686522
 31
0.0
  0
LINE
  5
16182
330
18
100
AcDbEntity
  8
0
100
AcDbLine
 10
57.1581319106857
 20
-135.578709525263
 30
0.0
 11
57.95812260350827
 21
-139.578709525263
 31
0.0
  0
LINE
  5
16183
330
18
100
AcDbEntity
  8
0
100
AcDbLine
 10
58.75813191068561
 20
-135.578709525263
 30
0.0
 11
59.55812313031093
 21
-139.352302473059
 31
0.0
  0
LINE
  5
16184
330
18
100
AcDbEntity
  8
0
100
AcDbLine
 10
55.55813191068567
 20
-135.578709525263
 30
0.0
 11
56.35812260350825
 21
-139.578709525263
 31
0.0
  0
LINE
  5
16185
330
18
100
AcDbEntity
  8
0
100
AcDbLine
 10
42.75813191068129
 20
-135.578709525263
 30
0.0
 11
43.55812260349954
 21
-139.578709525263
 31
0.0
  0
LINE
  5
16186
330
18
100
AcDbEntity
  8
0
100
AcDbLine
 10
43.55812260349954
 20
-139.578709525263
 30
0.0
 11
43.65812376689722
 21
-139.078709525263
 31
0.0
  0
LINE
  5
16187
330
18
100
AcDbEntity
  8
0
100
AcDbLine
 10
44.25813074728795
 20
-136.078709525263
 30
0.0
 11
44.35813191068563
 21
-135.578709525263
 31
0.0
  0
LINE
  5
16188
330
18
100
AcDbEntity
  8
0
100
AcDbLine
 10
41.9581226034994
 20
-139.578709525263
 30
0.0
 11
42.05812376689708
 21
-139.078709525263
 31
0.0
  0
LINE
  5
16189
330
18
100
AcDbEntity
  8
0
100
AcDbLine
 10
40.3581226034995
 20
-139.578709525263
 30
0.0
 11
40.45812376689717
 21
-139.078709525263
 31
0.0
  0
LINE
  5
1618A
330
18
100
AcDbEntity
  8
0
100
AcDbLine
 10
42.65813074728361
 20
-136.078709525263
 30
0.0
 11
42.75813191068129
 21
-135.578709525263
 31
0.0
  0
LINE
  5
1618B
330
18
100
AcDbEntity
  8
0
100
AcDbLine
 10
41.05813074728347
 20
-136.078709525263
 30
0.0
 11
41.15813191068115
 21
-135.578709525263
 31
0.0
  0
LINE
  5
1618C
330
18
100
AcDbEntity
  8
0
100
AcDbLine
 10
41.15813191068115
 20
-135.578709525263
 30
0.0
 11
41.9581226034994
 21
-139.578709525263
 31
0.0
  0
LINE
  5
1618D
330
18
100
AcDbEntity
  8
0
100
AcDbLine
 10
48.35812260350393
 20
-139.578709525263
 30
0.0
 11
48.45812376690161
 21
-139.078709525263
 31
0.0
  0
LINE
  5
1618E
330
18
100
AcDbEntity
  8
0
100
AcDbLine
 10
49.95812260350827
 20
-139.578709525263
 30
0.0
 11
50.05812376690538
 21
-139.078709525263
 31
0.0
  0
LINE
  5
1618F
330
18
100
AcDbEntity
  8
0
100
AcDbLine
 10
45.15812260350388
 20
-139.578709525263
 30
0.0
 11
45.25812376690156
 21
-139.078709525263
 31
0.0
  0
LINE
  5
16190
330
18
100
AcDbEntity
  8
0
100
AcDbLine
 10
46.75812260350379
 20
-139.578709525263
 30
0.0
 11
46.85812376690147
 21
-139.078709525263
 31
0.0
  0
LINE
  5
16191
330
18
100
AcDbEntity
  8
0
100
AcDbLine
 10
50.6581307472885
 20
-136.078709525263
 30
0.0
 11
50.75813191068561
 21
-135.578709525263
 31
0.0
  0
LINE
  5
16192
330
18
100
AcDbEntity
  8
0
100
AcDbLine
 10
49.0581307472879
 20
-136.078709525263
 30
0.0
 11
49.1581319106857
 21
-135.578709525263
 31
0.0
  0
LINE
  5
16193
330
18
100
AcDbEntity
  8
0
100
AcDbLine
 10
45.85813074728786
 20
-136.078709525263
 30
0.0
 11
45.95813191068554
 21
-135.578709525263
 31
0.0
  0
LINE
  5
16194
330
18
100
AcDbEntity
  8
0
100
AcDbLine
 10
47.458130747288
 20
-136.078709525263
 30
0.0
 11
47.55813191068567
 21
-135.578709525263
 31
0.0
  0
LINE
  5
16195
330
18
100
AcDbEntity
  8
0
100
AcDbLine
 10
47.55813191068567
 20
-135.578709525263
 30
0.0
 11
48.35812260350393
 21
-139.578709525263
 31
0.0
  0
LINE
  5
16196
330
18
100
AcDbEntity
  8
0
100
AcDbLine
 10
49.1581319106857
 20
-135.578709525263
 30
0.0
 11
49.95812260350827
 21
-139.578709525263
 31
0.0
  0
LINE
  5
16197
330
18
100
AcDbEntity
  8
0
100
AcDbLine
 10
45.95813191068554
 20
-135.578709525263
 30
0.0
 11
46.75812260350379
 21
-139.578709525263
 31
0.0
  0
LINE
  5
16198
330
18
100
AcDbEntity
  8
0
100
AcDbLine
 10
44.35813191068563
 20
-135.578709525263
 30
0.0
 11
45.15812260350388
 21
-139.578709525263
 31
0.0
  0
LINE
  5
16199
330
18
100
AcDbEntity
  8
0
100
AcDbLine
 10
34.6581307472794
 20
-136.078709525263
 30
0.0
 11
34.75813191067708
 21
-135.578709525263
 31
0.0
  0
LINE
  5
1619A
330
18
100
AcDbEntity
  8
0
100
AcDbLine
 10
34.75813191067708
 20
-135.578709525263
 30
0.0
 11
35.55812260349533
 21
-139.578709525263
 31
0.0
  0
LINE
  5
1619B
330
18
100
AcDbEntity
  8
0
100
AcDbLine
 10
35.55812260349533
 20
-139.578709525263
 30
0.0
 11
35.65812376689301
 21
-139.078709525263
 31
0.0
  0
LINE
  5
1619C
330
18
100
AcDbEntity
  8
0
100
AcDbLine
 10
36.25813074727931
 20
-136.078709525263
 30
0.0
 11
36.35813191067699
 21
-135.578709525263
 31
0.0
  0
LINE
  5
1619D
330
18
100
AcDbEntity
  8
0
100
AcDbLine
 10
37.85813074727922
 20
-136.078709525263
 30
0.0
 11
37.9581319106769
 21
-135.578709525263
 31
0.0
  0
LINE
  5
1619E
330
18
100
AcDbEntity
  8
0
100
AcDbLine
 10
37.9581319106769
 20
-135.578709525263
 30
0.0
 11
38.75812260349515
 21
-139.578709525263
 31
0.0
  0
LINE
  5
1619F
330
18
100
AcDbEntity
  8
0
100
AcDbLine
 10
37.15812260349524
 20
-139.578709525263
 30
0.0
 11
37.25812376689292
 21
-139.078709525263
 31
0.0
  0
LINE
  5
161A0
330
18
100
AcDbEntity
  8
0
100
AcDbLine
 10
38.75812260349515
 20
-139.578709525263
 30
0.0
 11
38.85812376689283
 21
-139.078709525263
 31
0.0
  0
LINE
  5
161A1
330
18
100
AcDbEntity
  8
0
100
AcDbLine
 10
36.35813191067699
 20
-135.578709525263
 30
0.0
 11
37.15812260349524
 21
-139.578709525263
 31
0.0
  0
LINE
  5
161A2
330
18
100
AcDbEntity
  8
0
100
AcDbLine
 10
39.45813074728356
 20
-136.078709525263
 30
0.0
 11
39.55813191068124
 21
-135.578709525263
 31
0.0
  0
LINE
  5
161A3
330
18
100
AcDbEntity
  8
0
100
AcDbLine
 10
33.05813074727949
 20
-136.078709525263
 30
0.0
 11
33.15813191067717
 21
-135.578709525263
 31
0.0
  0
LINE
  5
161A4
330
18
100
AcDbEntity
  8
0
100
AcDbLine
 10
33.15813191067717
 20
-135.578709525263
 30
0.0
 11
33.95812260349543
 21
-139.578709525263
 31
0.0
  0
LINE
  5
161A5
330
18
100
AcDbEntity
  8
0
100
AcDbLine
 10
33.95812260349543
 20
-139.578709525263
 30
0.0
 11
34.0581237668931
 21
-139.078709525263
 31
0.0
  0
LINE
  5
161A6
330
18
100
AcDbEntity
  8
0
100
AcDbLine
 10
31.45813074727958
 20
-136.078709525263
 30
0.0
 11
31.55813191067726
 21
-135.578709525263
 31
0.0
  0
LINE
  5
161A7
330
18
100
AcDbEntity
  8
0
100
AcDbLine
 10
31.55813191067726
 20
-135.578709525263
 30
0.0
 11
32.35812260349552
 21
-139.578709525263
 31
0.0
  0
LINE
  5
161A8
330
18
100
AcDbEntity
  8
0
100
AcDbLine
 10
32.35812260349552
 20
-139.578709525263
 30
0.0
 11
32.45812376689319
 21
-139.078709525263
 31
0.0
  0
LINE
  5
161A9
330
18
100
AcDbEntity
  8
0
100
AcDbLine
 10
29.85813074727967
 20
-136.078709525263
 30
0.0
 11
29.95813191067735
 21
-135.578709525263
 31
0.0
  0
LINE
  5
161AA
330
18
100
AcDbEntity
  8
0
100
AcDbLine
 10
29.95813191067735
 20
-135.578709525263
 30
0.0
 11
30.75812260349561
 21
-139.578709525263
 31
0.0
  0
LINE
  5
161AB
330
18
100
AcDbEntity
  8
0
100
AcDbLine
 10
30.75812260349561
 20
-139.578709525263
 30
0.0
 11
30.85812376689329
 21
-139.078709525263
 31
0.0
  0
LINE
  5
161AC
330
18
100
AcDbEntity
  8
1PHANTOM
 48
0.3
100
AcDbLine
 10
19.85812725731979
 20
-139.0804276932308
 30
0.0
 11
12.25812725731943
 21
-139.080427693229
 31
0.0
  0
LINE
  5
161AD
330
18
100
AcDbEntity
  8
1PHANTOM
 48
0.3
100
AcDbLine
 10
12.25812725731943
 20
-139.080427693229
 30
0.0
 11
12.25812725731761
 21
-140.0804276932317
 31
0.0
  0
LINE
  5
161AE
330
18
100
AcDbEntity
  8
1PHANTOM
 48
0.3
100
AcDbLine
 10
12.25812725731761
 20
-140.0804276932317
 30
0.0
 11
19.85812725731797
 21
-140.0804276932299
 31
0.0
  0
LINE
  5
161AF
330
18
100
AcDbEntity
  8
1PHANTOM
 48
0.3
100
AcDbLine
 10
19.85812725731797
 20
-140.0804276932299
 30
0.0
 11
19.85812725731979
 21
-139.0804276932308
 31
0.0
  0
LINE
  5
161B1
330
18
100
AcDbEntity
  8
1DIM
100
AcDbLine
 10
-14.30371251086273
 20
-146.1952713661643
 30
0.0
 11
4.977702657576006
 21
-172.3539445030257
 31
0.0
1001
ACAD
1000
DSTYLE
1002
{
1070
    45
1040
0.5
1002
}
  0
LINE
  5
161B2
330
18
100
AcDbEntity
  8
1DIM
100
AcDbLine
 10
4.977702657576006
 20
-172.3539445030257
 30
0.0
 11
52.24436932424268
 21
-172.3539445030257
 31
0.0
1001
ACAD
1000
DSTYLE
1002
{
1070
    45
1040
0.5
1002
}
  0
TEXT
  5
161B3
330
18
100
AcDbEntity
  8
1DIM
  6
CONTINUOUS
100
AcDbText
 10
7.444369324242673
 20
-165.8206111696924
 30
0.0
 40
3.5
  1
材質：亜鉛ダイキャスト
100
AcDbText
  0
TEXT
  5
161B4
330
18
100
AcDbEntity
  8
1DIM
  6
CONTINUOUS
100
AcDbText
 10
7.56103599090934
 20
-171.6539445030258
 30
0.0
 40
3.5
  1
仕上げ：各種メッキ
100
AcDbText
  0
LINE
  5
161B6
330
18
100
AcDbEntity
  8
1DIM
100
AcDbLine
 10
-34.80388121611585
 20
-138.8444413063123
 30
0.0
 11
-46.99344363535241
 21
-111.2371977841922
 31
0.0
1001
ACAD
1000
DSTYLE
1002
{
1070
    45
1040
0.5
1002
}
  0
LINE
  5
161B7
330
18
100
AcDbEntity
  8
1DIM
100
AcDbLine
 10
-46.99344363535241
 20
-111.2371977841922
 30
0.0
 11
-94.26011030201909
 21
-111.2371977841922
 31
0.0
1001
ACAD
1000
DSTYLE
1002
{
1070
    45
1040
0.5
1002
}
  0
TEXT
  5
161B8
330
18
100
AcDbEntity
  8
1DIM
  6
CONTINUOUS
100
AcDbText
 10
-94.49344363535242
 20
-104.7038644508589
 30
0.0
 40
3.5
  1
材質：亜鉛ダイキャスト
100
AcDbText
  0
TEXT
  5
161B9
330
18
100
AcDbEntity
  8
1DIM
  6
CONTINUOUS
100
AcDbText
 10
-86.56011030201907
 20
-110.5371977841922
 30
0.0
 40
3.5
  1
仕上げ：各種メッキ
100
AcDbText
  0
LINE
  5
161BA
330
18
100
AcDbEntity
  8
0
  6
BYBLOCK
100
AcDbLine
 10
-106.993229547718
 20
24.16957356316445
 30
0.0
 11
-106.457331167718
 21
26.16957356316445
 31
0.0
  0
LINE
  5
161BB
330
18
100
AcDbEntity
  8
0
  6
BYBLOCK
100
AcDbLine
 10
-106.457331167718
 20
26.16957356316445
 30
0.0
 11
-105.921432787718
 21
24.16957356316445
 31
0.0
  0
LINE
  5
161BC
330
18
100
AcDbEntity
  8
0
  6
BYBLOCK
100
AcDbLine
 10
-106.457331167718
 20
26.16957356316445
 30
0.0
 11
-106.457331167718
 21
24.16957356316445
 31
0.0
  0
LINE
  5
161BD
330
18
100
AcDbEntity
  8
0
  6
BYBLOCK
100
AcDbLine
 10
-105.921432787718
 20
-72.95189814123228
 30
0.0
 11
-106.4573311677181
 21
-74.95189814123228
 31
0.0
  0
LINE
  5
161BE
330
18
100
AcDbEntity
  8
0
  6
BYBLOCK
100
AcDbLine
 10
-106.4573311677181
 20
-74.95189814123228
 30
0.0
 11
-106.9932295477181
 21
-72.95189814123228
 31
0.0
  0
LINE
  5
161BF
330
18
100
AcDbEntity
  8
0
  6
BYBLOCK
100
AcDbLine
 10
-106.4573311677181
 20
-74.95189814123228
 30
0.0
 11
-106.4573311677181
 21
-72.95189814123228
 31
0.0
  0
TEXT
  5
161C0
330
18
100
AcDbEntity
  8
1DIM
  6
CONTINUOUS
100
AcDbText
 10
-107.157331167718
 20
-50.64116228903393
 30
0.0
 40
3.5
  1
101 （ペーパー無し最小値）
 50
90.0
100
AcDbText
1001
ACAD
1000
DSTYLE
1002
{
1070
    45
1040
0.5
1070
   271
1070
     0
1002
}
  0
LINE
  5
161C1
330
18
100
AcDbEntity
  8
0
  6
BYBLOCK
100
AcDbLine
 10
-33.18351649352655
 20
-110.7254956107417
 30
0.0
 11
-32.779985460817
 21
-112.756345132328
 31
0.0
  0
LINE
  5
161C2
330
18
100
AcDbEntity
  8
0
  6
BYBLOCK
100
AcDbLine
 10
-32.779985460817
 20
-112.756345132328
 30
0.0
 11
-34.14487834008855
 21
-111.1993433655337
 31
0.0
  0
LINE
  5
161C3
330
18
100
AcDbEntity
  8
0
  6
BYBLOCK
100
AcDbLine
 10
-32.779985460817
 20
-112.756345132328
 30
0.0
 11
-33.66419741680755
 21
-110.9624194881377
 31
0.0
  0
LINE
  5
161C4
330
18
100
AcDbEntity
  8
0
  6
BYBLOCK
100
AcDbLine
 10
30.79875662221804
 20
-94.05863878358107
 30
0.0
 11
31.33221648829879
 21
-96.05929058861055
 31
0.0
  0
LINE
  5
161C5
330
18
100
AcDbEntity
  8
0
  6
BYBLOCK
100
AcDbLine
 10
31.33221648829879
 20
-96.05929058861055
 30
0.0
 11
29.86990079650872
 21
-94.59340522773435
 31
0.0
  0
LINE
  5
161C6
330
18
100
AcDbEntity
  8
0
  6
BYBLOCK
100
AcDbLine
 10
31.33221648829879
 20
-96.05929058861055
 30
0.0
 11
30.33432870936338
 21
-94.3260220056577
 31
0.0
  0
LINE
  5
161C7
330
18
100
AcDbEntity
  8
0
  6
BYBLOCK
100
AcDbLine
 10
32.05812725731506
 20
-154.6945280568368
 30
0.0
 11
34.05812725731506
 21
-155.2304264368368
 31
0.0
  0
LINE
  5
161C8
330
18
100
AcDbEntity
  8
0
  6
BYBLOCK
100
AcDbLine
 10
34.05812725731506
 20
-155.2304264368368
 30
0.0
 11
32.05812725731506
 21
-155.7663248168368
 31
0.0
  0
LINE
  5
161C9
330
18
100
AcDbEntity
  8
0
  6
BYBLOCK
100
AcDbLine
 10
34.05812725731506
 20
-155.2304264368368
 30
0.0
 11
32.05812725731506
 21
-155.2304264368368
 31
0.0
  0
LINE
  5
161CA
330
18
100
AcDbEntity
  8
0
  6
BYBLOCK
100
AcDbLine
 10
18.05812725731506
 20
-155.7663248168368
 30
0.0
 11
16.05812725731506
 21
-155.2304264368368
 31
0.0
  0
LINE
  5
161CB
330
18
100
AcDbEntity
  8
0
  6
BYBLOCK
100
AcDbLine
 10
16.05812725731506
 20
-155.2304264368368
 30
0.0
 11
18.05812725731506
 21
-154.6945280568368
 31
0.0
  0
LINE
  5
161CC
330
18
100
AcDbEntity
  8
0
  6
BYBLOCK
100
AcDbLine
 10
16.05812725731506
 20
-155.2304264368368
 30
0.0
 11
18.05812725731506
 21
-155.2304264368368
 31
0.0
  0
TEXT
  5
161CD
330
18
100
AcDbEntity
  8
1DIM
  6
CONTINUOUS
100
AcDbText
 10
23.19370501073619
 20
-154.5304264368368
 30
0.0
 40
3.5
  1
18
100
AcDbText
1001
ACAD
1000
DSTYLE
1002
{
1070
    45
1040
0.5
1002
}
  0
LINE
  5
161CE
330
18
100
AcDbEntity
  8
0
  6
BYBLOCK
100
AcDbLine
 10
76.09402563731507
 20
-112.5804264368326
 30
0.0
 11
75.55812725731506
 21
-114.5804264368326
 31
0.0
  0
LINE
  5
161CF
330
18
100
AcDbEntity
  8
0
  6
BYBLOCK
100
AcDbLine
 10
75.55812725731506
 20
-114.5804264368326
 30
0.0
 11
75.02222887731506
 21
-112.5804264368326
 31
0.0
  0
LINE
  5
161D0
330
18
100
AcDbEntity
  8
0
  6
BYBLOCK
100
AcDbLine
 10
75.55812725731506
 20
-114.5804264368326
 30
0.0
 11
75.55812725731506
 21
-112.5804264368326
 31
0.0
  0
LINE
  5
161D1
330
18
100
AcDbEntity
  8
0
  6
BYBLOCK
100
AcDbLine
 10
75.02222887731506
 20
-96.08042643683393
 30
0.0
 11
75.55812725731506
 21
-94.08042643683393
 31
0.0
  0
LINE
  5
161D2
330
18
100
AcDbEntity
  8
0
  6
BYBLOCK
100
AcDbLine
 10
75.55812725731506
 20
-94.08042643683393
 30
0.0
 11
76.09402563731507
 21
-96.08042643683393
 31
0.0
  0
LINE
  5
161D3
330
18
100
AcDbEntity
  8
0
  6
BYBLOCK
100
AcDbLine
 10
75.55812725731506
 20
-94.08042643683393
 30
0.0
 11
75.55812725731506
 21
-96.08042643683393
 31
0.0
  0
TEXT
  5
161D4
330
18
100
AcDbEntity
  8
1DIM
  6
CONTINUOUS
100
AcDbText
 10
74.85812725731508
 20
-109.2887597701666
 30
0.0
 40
3.5
  1
20.5
 50
90.0
100
AcDbText
1001
ACAD
1000
DSTYLE
1002
{
1070
    45
1040
0.5
1070
   271
1070
     1
1002
}
  0
LINE
  5
161D5
330
18
100
AcDbEntity
  8
0
  6
BYBLOCK
100
AcDbLine
 10
86.09402563731507
 20
-143.080427693229
 30
0.0
 11
85.55812725731506
 21
-145.080427693229
 31
0.0
  0
LINE
  5
161D6
330
18
100
AcDbEntity
  8
0
  6
BYBLOCK
100
AcDbLine
 10
85.55812725731506
 20
-145.080427693229
 30
0.0
 11
85.02222887731506
 21
-143.080427693229
 31
0.0
  0
LINE
  5
161D7
330
18
100
AcDbEntity
  8
0
  6
BYBLOCK
100
AcDbLine
 10
85.55812725731506
 20
-145.080427693229
 30
0.0
 11
85.55812725731506
 21
-143.080427693229
 31
0.0
  0
LINE
  5
161D8
330
18
100
AcDbEntity
  8
0
  6
BYBLOCK
100
AcDbLine
 10
85.02222887731506
 20
-96.08042643683393
 30
0.0
 11
85.55812725731506
 21
-94.08042643683393
 31
0.0
  0
LINE
  5
161D9
330
18
100
AcDbEntity
  8
0
  6
BYBLOCK
100
AcDbLine
 10
85.55812725731506
 20
-94.08042643683393
 30
0.0
 11
86.09402563731507
 21
-96.08042643683393
 31
0.0
  0
LINE
  5
161DA
330
18
100
AcDbEntity
  8
0
  6
BYBLOCK
100
AcDbLine
 10
85.55812725731506
 20
-94.08042643683393
 30
0.0
 11
85.55812725731506
 21
-96.08042643683393
 31
0.0
  0
TEXT
  5
161DB
330
18
100
AcDbEntity
  8
1DIM
  6
CONTINUOUS
100
AcDbText
 10
84.85812725731508
 20
-121.9259131761426
 30
0.0
 40
3.5
  1
51
 50
90.0
100
AcDbText
1001
ACAD
1000
DSTYLE
1002
{
1070
    45
1040
0.5
1002
}
  0
LINE
  5
161DC
330
18
100
AcDbEntity
  8
0
  6
BYBLOCK
100
AcDbLine
 10
-215.4572842347769
 20
33.01739086094005
 30
0.0
 11
-217.4572842347769
 21
33.55328924094005
 31
0.0
  0
LINE
  5
161DD
330
18
100
AcDbEntity
  8
0
  6
BYBLOCK
100
AcDbLine
 10
-217.4572842347769
 20
33.55328924094005
 30
0.0
 11
-215.4572842347769
 21
34.08918762094005
 31
0.0
  0
LINE
  5
161DE
330
18
100
AcDbEntity
  8
0
  6
BYBLOCK
100
AcDbLine
 10
-217.4572842347769
 20
33.55328924094005
 30
0.0
 11
-215.4572842347769
 21
33.55328924094005
 31
0.0
  0
LINE
  5
161DF
330
18
100
AcDbEntity
  8
0
  6
BYBLOCK
100
AcDbLine
 10
-177.4572842347765
 20
34.08918762094005
 30
0.0
 11
-175.4572842347765
 21
33.55328924094005
 31
0.0
  0
LINE
  5
161E0
330
18
100
AcDbEntity
  8
0
  6
BYBLOCK
100
AcDbLine
 10
-175.4572842347765
 20
33.55328924094005
 30
0.0
 11
-177.4572842347765
 21
33.01739086094005
 31
0.0
  0
LINE
  5
161E1
330
18
100
AcDbEntity
  8
0
  6
BYBLOCK
100
AcDbLine
 10
-175.4572842347765
 20
33.55328924094005
 30
0.0
 11
-177.4572842347765
 21
33.55328924094005
 31
0.0
  0
TEXT
  5
161E2
330
18
100
AcDbEntity
  8
1DIM
  6
CONTINUOUS
100
AcDbText
 10
-170.6022326942053
 20
34.25328924094005
 30
0.0
 40
3.5
  1
42
100
AcDbText
1001
ACAD
1000
DSTYLE
1002
{
1070
    45
1040
0.5
1002
}
  0
LINE
  5
161E3
330
18
100
AcDbEntity
  8
0
  6
BYBLOCK
100
AcDbLine
 10
37.91089298152443
 20
-82.98654246817719
 30
0.0
 11
36.97179883502248
 21
-84.83188505363182
 31
0.0
  0
LINE
  5
161E4
330
18
100
AcDbEntity
  8
0
  6
BYBLOCK
100
AcDbLine
 10
36.97179883502248
 20
-84.83188505363182
 30
0.0
 11
36.86240693909113
 21
-82.76422442219561
 31
0.0
  0
LINE
  5
161E5
330
18
100
AcDbEntity
  8
0
  6
BYBLOCK
100
AcDbLine
 10
36.97179883502248
 20
-84.83188505363182
 30
0.0
 11
37.38664996030778
 21
-82.8753834451864
 31
0.0
  0
LINE
  5
161E6
330
18
100
AcDbEntity
  8
0
  6
BYBLOCK
100
AcDbLine
 10
51.04631112668963
 20
-82.98654246817719
 30
0.0
 11
50.10721698018769
 21
-84.83188505363182
 31
0.0
  0
LINE
  5
161E7
330
18
100
AcDbEntity
  8
0
  6
BYBLOCK
100
AcDbLine
 10
50.10721698018769
 20
-84.83188505363182
 30
0.0
 11
49.99782508425633
 21
-82.76422442219561
 31
0.0
  0
LINE
  5
161E8
330
18
100
AcDbEntity
  8
0
  6
BYBLOCK
100
AcDbLine
 10
50.10721698018769
 20
-84.83188505363182
 30
0.0
 11
50.52206810547298
 21
-82.8753834451864
 31
0.0
  0
LINE
  5
161E9
330
18
100
AcDbEntity
  8
0
  6
BYBLOCK
100
AcDbLine
 10
76.09402563731507
 20
-135.5786629893651
 30
0.0
 11
75.55812725731506
 21
-137.5786629893651
 31
0.0
  0
LINE
  5
161EA
330
18
100
AcDbEntity
  8
0
  6
BYBLOCK
100
AcDbLine
 10
75.55812725731506
 20
-137.5786629893651
 30
0.0
 11
75.02222887731506
 21
-135.5786629893651
 31
0.0
  0
LINE
  5
161EB
330
18
100
AcDbEntity
  8
0
  6
BYBLOCK
100
AcDbLine
 10
75.55812725731506
 20
-137.5786629893651
 30
0.0
 11
75.55812725731506
 21
-135.5786629893651
 31
0.0
  0
LINE
  5
161EC
330
18
100
AcDbEntity
  8
0
  6
BYBLOCK
100
AcDbLine
 10
75.02222887731506
 20
-116.5804264368326
 30
0.0
 11
75.55812725731506
 21
-114.5804264368326
 31
0.0
  0
LINE
  5
161ED
330
18
100
AcDbEntity
  8
0
  6
BYBLOCK
100
AcDbLine
 10
75.55812725731506
 20
-114.5804264368326
 30
0.0
 11
76.09402563731507
 21
-116.5804264368326
 31
0.0
  0
LINE
  5
161EE
330
18
100
AcDbEntity
  8
0
  6
BYBLOCK
100
AcDbLine
 10
75.55812725731506
 20
-114.5804264368326
 30
0.0
 11
75.55812725731506
 21
-116.5804264368326
 31
0.0
  0
TEXT
  5
161EF
330
18
100
AcDbEntity
  8
1DIM
  6
CONTINUOUS
100
AcDbText
 10
74.85812725731506
 20
-130.7462113797655
 30
0.0
 40
3.5
  1
P23
 50
90.0
100
AcDbText
1001
ACAD
1000
DSTYLE
1002
{
1070
    45
1040
0.5
1002
}
  0
LINE
  5
161F0
330
18
100
AcDbEntity
  8
0
  6
BYBLOCK
100
AcDbLine
 10
-203.4573311677181
 20
-90.76467236286338
 30
0.0
 11
-205.4573311677181
 21
-90.22877398286337
 31
0.0
  0
LINE
  5
161F1
330
18
100
AcDbEntity
  8
0
  6
BYBLOCK
100
AcDbLine
 10
-205.4573311677181
 20
-90.22877398286337
 30
0.0
 11
-203.4573311677181
 21
-89.69287560286337
 31
0.0
  0
LINE
  5
161F2
330
18
100
AcDbEntity
  8
0
  6
BYBLOCK
100
AcDbLine
 10
-205.4573311677181
 20
-90.22877398286337
 30
0.0
 11
-203.4573311677181
 21
-90.22877398286337
 31
0.0
  0
LINE
  5
161F3
330
18
100
AcDbEntity
  8
0
  6
BYBLOCK
100
AcDbLine
 10
-189.4573311677181
 20
-89.69287560286337
 30
0.0
 11
-187.4573311677181
 21
-90.22877398286337
 31
0.0
  0
LINE
  5
161F4
330
18
100
AcDbEntity
  8
0
  6
BYBLOCK
100
AcDbLine
 10
-187.4573311677181
 20
-90.22877398286337
 30
0.0
 11
-189.4573311677181
 21
-90.76467236286338
 31
0.0
  0
LINE
  5
161F5
330
18
100
AcDbEntity
  8
0
  6
BYBLOCK
100
AcDbLine
 10
-187.4573311677181
 20
-90.22877398286337
 30
0.0
 11
-189.4573311677181
 21
-90.22877398286337
 31
0.0
  0
TEXT
  5
161F6
330
18
100
AcDbEntity
  8
1DIM
  6
CONTINUOUS
100
AcDbText
 10
-200.0478775812254
 20
-89.52877398286337
 30
0.0
 40
3.5
  1
P18
100
AcDbText
1001
ACAD
1000
DSTYLE
1002
{
1070
    45
1040
0.5
1002
}
  0
LINE
  5
161F7
330
18
100
AcDbEntity
  8
0
  6
BYBLOCK
100
AcDbLine
 10
-264.9573311677176
 20
-83.96998499481863
 30
0.0
 11
-266.9573311677176
 21
-83.43408661481863
 31
0.0
  0
LINE
  5
161F8
330
18
100
AcDbEntity
  8
0
  6
BYBLOCK
100
AcDbLine
 10
-266.9573311677176
 20
-83.43408661481863
 30
0.0
 11
-264.9573311677176
 21
-82.89818823481862
 31
0.0
  0
LINE
  5
161F9
330
18
100
AcDbEntity
  8
0
  6
BYBLOCK
100
AcDbLine
 10
-266.9573311677176
 20
-83.43408661481863
 30
0.0
 11
-264.9573311677176
 21
-83.43408661481863
 31
0.0
  0
LINE
  5
161FA
330
18
100
AcDbEntity
  8
0
  6
BYBLOCK
100
AcDbLine
 10
-127.9573311677162
 20
-82.89818823481862
 30
0.0
 11
-125.9573311677162
 21
-83.43408661481863
 31
0.0
  0
LINE
  5
161FB
330
18
100
AcDbEntity
  8
0
  6
BYBLOCK
100
AcDbLine
 10
-125.9573311677162
 20
-83.43408661481863
 30
0.0
 11
-127.9573311677162
 21
-83.96998499481863
 31
0.0
  0
LINE
  5
161FC
330
18
100
AcDbEntity
  8
0
  6
BYBLOCK
100
AcDbLine
 10
-125.9573311677162
 20
-83.43408661481863
 30
0.0
 11
-127.9573311677162
 21
-83.43408661481863
 31
0.0
  0
TEXT
  5
161FD
330
18
100
AcDbEntity
  8
1DIM
  6
CONTINUOUS
100
AcDbText
 10
-199.9573311677169
 20
-82.73408661481862
 30
0.0
 40
3.5
  1
141
100
AcDbText
1001
ACAD
1000
DSTYLE
1002
{
1070
    45
1040
0.5
1002
}
  0
LINE
  5
161FE
330
18
100
AcDbEntity
  8
0
  6
BYBLOCK
100
AcDbLine
 10
-21.36151180054399
 20
-74.36632481683542
 30
0.0
 11
-23.36151180054399
 21
-73.83042643683541
 31
0.0
  0
LINE
  5
161FF
330
18
100
AcDbEntity
  8
0
  6
BYBLOCK
100
AcDbLine
 10
-23.36151180054399
 20
-73.83042643683541
 30
0.0
 11
-21.36151180054399
 21
-73.2945280568354
 31
0.0
  0
LINE
  5
16200
330
18
100
AcDbEntity
  8
0
  6
BYBLOCK
100
AcDbLine
 10
-23.36151180054399
 20
-73.83042643683541
 30
0.0
 11
-21.36151180054399
 21
-73.83042643683541
 31
0.0
  0
LINE
  5
16201
330
18
100
AcDbEntity
  8
0
  6
BYBLOCK
100
AcDbLine
 10
32.05812725731506
 20
-73.2945280568354
 30
0.0
 11
34.05812725731506
 21
-73.83042643683541
 31
0.0
  0
LINE
  5
16202
330
18
100
AcDbEntity
  8
0
  6
BYBLOCK
100
AcDbLine
 10
34.05812725731506
 20
-73.83042643683541
 30
0.0
 11
32.05812725731506
 21
-74.36632481683542
 31
0.0
  0
LINE
  5
16203
330
18
100
AcDbEntity
  8
0
  6
BYBLOCK
100
AcDbLine
 10
34.05812725731506
 20
-73.83042643683541
 30
0.0
 11
32.05812725731506
 21
-73.83042643683541
 31
0.0
  0
TEXT
  5
16204
330
18
100
AcDbEntity
  8
1DIM
  6
CONTINUOUS
100
AcDbText
 10
0.0861549506077575
 20
-73.1304264368354
 30
0.0
 40
3.5
  1
57.5
100
AcDbText
1001
ACAD
1000
DSTYLE
1002
{
1070
    45
1040
0.5
1002
}
  0
LINE
  5
16205
330
18
100
AcDbEntity
  8
0
  6
BYBLOCK
100
AcDbLine
 10
-94.10650480706131
 20
-64.36632481683542
 30
0.0
 11
-96.10650480706131
 21
-63.83042643683541
 31
0.0
  0
LINE
  5
16206
330
18
100
AcDbEntity
  8
0
  6
BYBLOCK
100
AcDbLine
 10
-96.10650480706131
 20
-63.83042643683541
 30
0.0
 11
-94.10650480706131
 21
-63.29452805683541
 31
0.0
  0
LINE
  5
16207
330
18
100
AcDbEntity
  8
0
  6
BYBLOCK
100
AcDbLine
 10
-96.10650480706131
 20
-63.83042643683541
 30
0.0
 11
-94.10650480706131
 21
-63.83042643683541
 31
0.0
  0
LINE
  5
16208
330
18
100
AcDbEntity
  8
0
  6
BYBLOCK
100
AcDbLine
 10
32.05812725731506
 20
-63.29452805683541
 30
0.0
 11
34.05812725731506
 21
-63.83042643683541
 31
0.0
  0
LINE
  5
16209
330
18
100
AcDbEntity
  8
0
  6
BYBLOCK
100
AcDbLine
 10
34.05812725731506
 20
-63.83042643683541
 30
0.0
 11
32.05812725731506
 21
-64.36632481683542
 31
0.0
  0
LINE
  5
1620A
330
18
100
AcDbEntity
  8
0
  6
BYBLOCK
100
AcDbLine
 10
34.05812725731506
 20
-63.83042643683541
 30
0.0
 11
32.05812725731506
 21
-63.83042643683541
 31
0.0
  0
TEXT
  5
1620B
330
18
100
AcDbEntity
  8
1DIM
  6
CONTINUOUS
100
AcDbText
 10
-57.85752210820647
 20
-63.13042643683541
 30
0.0
 40
3.5
  1
130 （ペーパー付き最大値）
100
AcDbText
1001
ACAD
1000
DSTYLE
1002
{
1070
    45
1040
0.5
1070
   271
1070
     0
1002
}
  0
LINE
  5
1620C
330
18
100
AcDbEntity
  8
0
  6
BYBLOCK
100
AcDbLine
 10
-14.73508862054645
 20
-146.513236341721
 30
0.0
 11
-15.49037396543437
 21
-144.5853537930464
 31
0.0
  0
LINE
  5
1620D
330
18
100
AcDbEntity
  8
0
  6
BYBLOCK
100
AcDbLine
 10
-15.49037396543437
 20
-144.5853537930464
 30
0.0
 11
-13.87233640117902
 21
-145.8773063906076
 31
0.0
  0
LINE
  5
1620E
330
18
100
AcDbEntity
  8
0
  6
BYBLOCK
100
AcDbLine
 10
-15.49037396543437
 20
-144.5853537930464
 30
0.0
 11
-14.30371251086273
 21
-146.1952713661643
 31
0.0
  0
LINE
  5
1620F
330
18
100
AcDbEntity
  8
0
  6
BYBLOCK
100
AcDbLine
 10
-34.31364316786444
 20
-138.6279840825167
 30
0.0
 11
-33.99605185191612
 21
-140.67403462679
 31
0.0
  0
LINE
  5
16210
330
18
100
AcDbEntity
  8
0
  6
BYBLOCK
100
AcDbLine
 10
-33.99605185191612
 20
-140.67403462679
 30
0.0
 11
-35.29411926436727
 21
-139.0608985301078
 31
0.0
  0
LINE
  5
16211
330
18
100
AcDbEntity
  8
0
  6
BYBLOCK
100
AcDbLine
 10
-33.99605185191612
 20
-140.67403462679
 30
0.0
 11
-34.80388121611585
 21
-138.8444413063123
 31
0.0
  0
VIEWPORT
  5
57
330
15
100
AcDbEntity
 67
     1
  8
0
100
AcDbViewport
 68
     1
 10
0.0
 20
0.0
 30
0.0
 40
535.5106132075472
 41
297.0
 68
     1
 69
     1
1001
ACAD
1000
MVIEW
1002
{
1070
    16
1010
0.0
1020
0.0
1030
0.0
1010
0.0
1020
0.0
1030
1.0
1040
0.0
1040
297.0
1040
10.18333351285216
1040
31.46336709914411
1040
50.0
1040
0.0
1040
0.0
1070
    16
1070
   100
1070
     0
1070
     1
1070
     0
1070
     0
1070
     0
1070
     0
1040
0.0
1040
0.0
1040
0.0
1040
10.0
1040
10.0
1040
10.0
1040
10.0
1070
     0
1002
{
1002
}
1002
}
  0
ENDSEC
  0
SECTION
  2
OBJECTS
  0
DICTIONARY
  5
C
330
0
100
AcDbDictionary
  3
ACAD_CIP_PREVIOUS_PRODUCT_INFO
350
104B4
  3
ACAD_COLOR
350
18D
  3
ACAD_GROUP
350
D
  3
ACAD_LAYOUT
350
18E
  3
ACAD_MATERIAL
350
18C
  3
ACAD_MLEADERSTYLE
350
D09D
  3
ACAD_MLINESTYLE
350
1B
  3
ACAD_PLOTSETTINGS
350
18F
  3
ACAD_SCALELIST
350
D07B
  3
ACAD_VISUALSTYLE
350
D06A
  3
ACDBHEADERROUNDTRIPXREC
350
16212
  3
ACDBVARIABLEDICTIONARY
350
37
  3
CONTENTDICTIONARY
350
D8
  3
DRAWINGVARIABLESDICT
350
20
  3
DWGPROPS
350
16215
1001
ACAD
1000
TREAT_AS_HARD
1070
     0
  0
DICTIONARY
  5
D16C
330
2
100
AcDbDictionary
  3
ACAD_LAYERSTATES
360
D16D
1001
ACAD
1000
TREAT_AS_HARD
1070
     1
  0
DICTIONARY
  5
D0B5
330
E
100
AcDbDictionary
  3
ADSK_XREC_LAYER_RECONCILED
360
D0B6
1001
ACAD
1000
TREAT_AS_HARD
1070
     1
  0
DICTIONARY
  5
D0B7
330
29
100
AcDbDictionary
  3
ADSK_XREC_LAYER_RECONCILED
360
D0B8
1001
ACAD
1000
TREAT_AS_HARD
1070
     1
  0
DICTIONARY
  5
D0B9
330
31
100
AcDbDictionary
  3
ADSK_XREC_LAYER_RECONCILED
360
D0BA
1001
ACAD
1000
TREAT_AS_HARD
1070
     1
  0
DICTIONARY
  5
D0BF
330
243
100
AcDbDictionary
  3
ADSK_XREC_LAYER_RECONCILED
360
D0C0
1001
ACAD
1000
TREAT_AS_HARD
1070
     1
  0
DICTIONARY
  5
D0C5
330
24E
100
AcDbDictionary
  3
ADSK_XREC_LAYER_RECONCILED
360
D0C6
1001
ACAD
1000
TREAT_AS_HARD
1070
     1
  0
DICTIONARY
  5
D0C9
330
6A1
100
AcDbDictionary
  3
ADSK_XREC_LAYER_RECONCILED
360
D0CA
1001
ACAD
1000
TREAT_AS_HARD
1070
     1
  0
DICTIONARY
  5
D0CB
330
6A2
100
AcDbDictionary
  3
ADSK_XREC_LAYER_RECONCILED
360
D0CC
1001
ACAD
1000
TREAT_AS_HARD
1070
     1
  0
DICTIONARY
  5
D0CD
330
6A3
100
AcDbDictionary
  3
ADSK_XREC_LAYER_RECONCILED
360
D0CE
1001
ACAD
1000
TREAT_AS_HARD
1070
     1
  0
DICTIONARY
  5
D0CF
330
6A4
100
AcDbDictionary
  3
ADSK_XREC_LAYER_RECONCILED
360
D0D0
1001
ACAD
1000
TREAT_AS_HARD
1070
     1
  0
DICTIONARY
  5
88F
330
18
100
AcDbDictionary
  3
ACAD_SORTENTS
360
890
1001
ACAD
1000
TREAT_AS_HARD
1070
     1
  0
XRECORD
  5
104B4
102
{ACAD_REACTORS
330
C
102
}
330
C
100
AcDbXrecord
300
ACDLT
300
2012
300
ACDLT_F_S
  0
DICTIONARY
  5
18D
102
{ACAD_REACTORS
330
C
102
}
330
C
100
AcDbDictionary
1001
ACAD
1000
TREAT_AS_HARD
1070
     0
  0
DICTIONARY
  5
D
102
{ACAD_REACTORS
330
C
102
}
330
C
100
AcDbDictionary
  3
*A1
350
10268
1001
ACAD
1000
TREAT_AS_HARD
1070
     0
  0
DICTIONARY
  5
18E
102
{ACAD_REACTORS
330
C
102
}
330
C
100
AcDbDictionary
1001
ACAD
1000
TREAT_AS_HARD
1070
     0
  0
DICTIONARY
  5
18C
102
{ACAD_REACTORS
330
C
102
}
330
C
100
AcDbDictionary
  3
BYBLOCK
350
D05A
  3
BYLAYER
350
D052
  3
GLOBAL
350
D062
1001
ACAD
1000
TREAT_AS_HARD
1070
     0
  0
DICTIONARY
  5
D09D
102
{ACAD_REACTORS
330
C
102
}
330
C
100
AcDbDictionary
  3
STANDARD
350
D09E
1001
ACAD
1000
TREAT_AS_HARD
1070
     0
  0
DICTIONARY
  5
1B
102
{ACAD_REACTORS
330
C
102
}
330
C
100
AcDbDictionary
  3
STANDARD
350
1C
1001
ACAD
1000
TREAT_AS_HARD
1070
     0
  0
DICTIONARY
  5
18F
102
{ACAD_REACTORS
330
C
102
}
330
C
100
AcDbDictionary
1001
ACAD
1000
TREAT_AS_HARD
1070
     0
  0
DICTIONARY
  5
D07B
102
{ACAD_REACTORS
330
C
102
}
330
C
100
AcDbDictionary
  3
A0
350
D07C
  3
A1
350
D07D
  3
A2
350
D07E
  3
A3
350
D07F
  3
A4
350
D080
  3
A5
350
D081
  3
A6
350
D082
  3
A7
350
D083
  3
A8
350
D084
  3
A9
350
D085
  3
B0
350
D086
  3
B1
350
D087
  3
B2
350
D088
  3
B3
350
D089
  3
B4
350
D08A
  3
B5
350
D08B
  3
B6
350
D08C
  3
B7
350
D08D
  3
B8
350
D08E
  3
B9
350
D08F
  3
C0
350
D090
  3
C1
350
D091
  3
C2
350
D092
  3
C3
350
D093
  3
C4
350
D094
  3
C5
350
D095
  3
C6
350
D096
  3
C7
350
D097
  3
C8
350
D098
  3
C9
350
D099
  3
D0
350
D09A
  3
D1
350
D09B
  3
D2
350
D09C
1001
ACAD
1000
TREAT_AS_HARD
1070
     0
  0
DICTIONARY
  5
D06A
102
{ACAD_REACTORS
330
C
102
}
330
C
100
AcDbDictionary
  3
2DWIREFRAME
350
D070
  3
3D_HIDDEN
350
D072
  3
3DWIREFRAME
350
D071
  3
BASIC
350
D06F
  3
BRIGHTEN
350
D076
  3
COLORCHANGE
350
D07A
  3
CONCEPTUAL
350
D073
  3
DIM
350
D075
  3
EDGECOLOROFF
350
D29F
  3
FACEPATTERN
350
D079
  3
FLAT
350
D06B
  3
FLATWITHEDGES
350
D06C
  3
GOURAUD
350
D06D
  3
GOURAUDWITHEDGES
350
D06E
  3
HIDDEN
350
104A8
  3
JITTEROFF
350
D29D
  3
LINEPATTERN
350
D078
  3
MODELING
350
14F77
  3
OVERHANGOFF
350
D29E
  3
REALISTIC
350
D074
  3
SHADED
350
104AD
  3
SHADED_WITH_EDGES
350
104AC
  3
SHADES_OF_GRAY
350
104A9
  3
SKETCHY
350
104AA
  3
THICKEN
350
D077
  3
WIREFRAME
350
104A7
  3
X-RAY
350
104AB
1001
ACAD
1000
TREAT_AS_HARD
1070
     0
  0
DICTIONARY
  5
16212
102
{ACAD_REACTORS
330
C
102
}
330
C
100
AcDbDictionary
  3
COLORDICT
350
16213
  3
MATERIALDICT
350
16214
1001
ACAD
1000
TREAT_AS_HARD
1070
     0
  0
DICTIONARY
  5
37
102
{ACAD_REACTORS
330
C
102
}
330
C
100
AcDbDictionary
  3
CANNOSCALE
350
D118
  3
CMLEADERSTYLE
350
D117
  3
CTABLESTYLE
350
29E
  3
DIMADEC
350
38
  3
DIMASSOC
350
1CE
  3
HIDETEXT
350
704E
  3
INDEXCTL
350
D11A
  3
INTERSECTIONCOLOR
350
7052
  3
INTERSECTIONDISPLAY
350
7051
  3
LAYEREVAL
350
14ED3
  3
LAYERNOTIFY
350
14ED4
  3
MSLTSCALE
350
15043
  3
OBSCOLOR
350
704F
  3
OBSLTYPE
350
7050
  3
PROJECTNAME
350
1CF
  3
SORTENTS
350
D119
  3
XCLIPFRAME
350
14F76
1001
ACAD
1000
TREAT_AS_HARD
1070
     0
  0
DICTIONARY
  5
D8
102
{ACAD_REACTORS
330
C
102
}
330
C
100
AcDbDictionary
1001
ACAD
1000
TREAT_AS_HARD
1070
     0
  0
DICTIONARY
  5
20
102
{ACAD_REACTORS
330
C
102
}
330
C
100
AcDbDictionary
1001
DRAWINGVARIABLESXDATA
1000
POLARANG
1000
0.261799387799149410000000
1000
POLARMODE
1000
1
1000
POLARSTYLE
1000
1
1001
ACAD
1000
TREAT_AS_HARD
1070
     0
  0
XRECORD
  5
16215
102
{ACAD_REACTORS
330
C
102
}
330
C
100
AcDbXrecord
  1
DWGPROPS COOKIE
  2

  3

  4

  6

  7

  8
3684
  9

300
=
301
=
302
=
303
=
304
=
305
=
306
=
307
=
308
=
309
=
 40
0.0
 41
2451318.246352917
 42
2458551.322861146
  1

 90
        0
  0
DICTIONARY
  5
D16D
102
{ACAD_REACTORS
330
D16C
102
}
330
D16C
100
AcDbDictionary
1001
ACAD
1000
TREAT_AS_HARD
1070
     0
  0
ACAD_PROXY_OBJECT
  5
D0B6
102
{ACAD_REACTORS
330
D0B5
102
}
330
D0B5
100
AcDbZombieObject
 90
      499
 91
      515
 93
       34
310
40C8804040
  0
ACAD_PROXY_OBJECT
  5
D0B8
102
{ACAD_REACTORS
330
D0B7
102
}
330
D0B7
100
AcDbZombieObject
 90
      499
 91
      515
 93
       34
310
40C8804040
  0
ACAD_PROXY_OBJECT
  5
D0BA
102
{ACAD_REACTORS
330
D0B9
102
}
330
D0B9
100
AcDbZombieObject
 90
      499
 91
      515
 93
       34
310
40C8804040
  0
ACAD_PROXY_OBJECT
  5
D0C0
102
{ACAD_REACTORS
330
D0BF
102
}
330
D0BF
100
AcDbZombieObject
 90
      499
 91
      515
 93
       34
310
40C8804040
  0
ACAD_PROXY_OBJECT
  5
D0C6
102
{ACAD_REACTORS
330
D0C5
102
}
330
D0C5
100
AcDbZombieObject
 90
      499
 91
      515
 93
       34
310
40C8804040
  0
ACAD_PROXY_OBJECT
  5
D0CA
102
{ACAD_REACTORS
330
D0C9
102
}
330
D0C9
100
AcDbZombieObject
 90
      499
 91
      515
 93
       34
310
40C8804040
  0
ACAD_PROXY_OBJECT
  5
D0CC
102
{ACAD_REACTORS
330
D0CB
102
}
330
D0CB
100
AcDbZombieObject
 90
      499
 91
      515
 93
       34
310
40C8804040
  0
ACAD_PROXY_OBJECT
  5
D0CE
102
{ACAD_REACTORS
330
D0CD
102
}
330
D0CD
100
AcDbZombieObject
 90
      499
 91
      515
 93
       34
310
40C8804040
  0
ACAD_PROXY_OBJECT
  5
D0D0
102
{ACAD_REACTORS
330
D0CF
102
}
330
D0CF
100
AcDbZombieObject
 90
      499
 91
      515
 93
       34
310
40C8804040
  0
SORTENTSTABLE
  5
890
102
{ACAD_REACTORS
330
88F
102
}
330
88F
100
AcDbSortentsTable
330
18
331
0
  5
C618
331
FF39
  5
13019
331
FF3E
  5
1301B
331
FF3F
  5
1302C
331
FF40
  5
1302D
331
0
  5
FF64
331
0
  5
FF99
331
0
  5
10162
331
0
  5
10200
331
0
  5
10263
331
0
  5
10264
331
10263
  5
1310D
331
10264
  5
1310E
331
10265
  5
1310F
331
10266
  5
13110
331
12D3A
  5
13111
331
12D3B
  5
13112
331
12D3C
  5
13113
331
12D3D
  5
13114
331
12D3E
  5
13115
331
12D3F
  5
13116
331
12D40
  5
13117
331
12D41
  5
13118
331
12D42
  5
13119
331
12D43
  5
1311A
331
12D44
  5
1311B
331
12D45
  5
1311C
331
12D46
  5
1311D
331
12D47
  5
1311E
331
12D48
  5
1311F
331
12D49
  5
13120
331
12D4A
  5
13122
331
12D4B
  5
13124
331
12D51
  5
13125
331
12D52
  5
13126
331
12D53
  5
13129
331
12D54
  5
1312A
331
13000
  5
1312B
331
13001
  5
1312C
331
13003
  5
13169
331
1300D
  5
1316B
331
1300E
  5
1316E
331
1300F
  5
1316F
331
13014
  5
13170
331
13018
  5
13171
331
13019
  5
13172
331
1301B
  5
13173
331
1302C
  5
130E7
331
1302D
  5
130E7
331
13033
  5
130EA
331
1303D
  5
13187
331
1303E
  5
13188
331
13044
  5
13189
331
13046
  5
1318A
331
1304B
  5
1318C
331
0
  5
130A8
331
130A9
  5
1318F
331
130AC
  5
13190
331
130AD
  5
13191
331
130B0
  5
13193
331
130B1
  5
131CE
331
130B2
  5
131CF
331
130B3
  5
131D0
331
130B4
  5
131D2
331
130B5
  5
131D3
331
130B6
  5
131D5
331
130B7
  5
131D6
331
130B8
  5
131D9
331
130B9
  5
131DB
331
130BA
  5
131E1
331
130BB
  5
131E3
331
130BC
  5
131E4
331
130BD
  5
131E5
331
130BE
  5
131E8
331
130BF
  5
131E9
331
130C0
  5
131EA
331
130C1
  5
131EB
331
130C2
  5
131EC
331
130C3
  5
13CB2
331
130C4
  5
13CB3
331
130C5
  5
13CB4
331
130C6
  5
13CB5
331
130C7
  5
13CB6
331
130C8
  5
13CB7
331
130C9
  5
13CB8
331
130CA
  5
13CB9
331
130CB
  5
13CBA
331
130CC
  5
13D81
331
130CD
  5
13D82
331
130CE
  5
13D8D
331
130CF
  5
13D8E
331
130D0
  5
13D94
331
130D1
  5
13D97
331
130D2
  5
13D98
331
130D3
  5
13D9B
331
130D4
  5
13D9C
331
130D5
  5
13D9D
331
130D6
  5
13D9F
331
130D7
  5
13DA5
331
130D8
  5
13DA6
331
130D9
  5
13E31
331
130DA
  5
13E33
331
130DB
  5
13E37
331
130DC
  5
13E3A
331
130DD
  5
13E3F
331
130DE
  5
13E43
331
130DF
  5
13E46
331
130E1
  5
13ED6
331
130E3
  5
13ED7
331
0
  5
130E9
331
130E5
  5
13190
331
130EB
  5
1318E
331
130F1
  5
13F16
331
130F8
  5
13F22
331
130F9
  5
13F52
331
130FA
  5
13F53
331
130FB
  5
13F54
331
130FC
  5
13F55
331
130FD
  5
13F5E
331
130FE
  5
13F5F
331
130FF
  5
13F60
331
13100
  5
13F61
331
13101
  5
13F62
331
13102
  5
13F69
331
13103
  5
13F6A
331
13104
  5
13F6B
331
13105
  5
13F6C
331
13106
  5
13F6D
331
13107
  5
13F6F
331
13108
  5
13F70
331
13109
  5
13F71
331
1310A
  5
13F72
331
1310B
  5
13F73
331
1310C
  5
13F74
331
1310D
  5
13F75
331
1310E
  5
13F76
331
1310F
  5
13F77
331
13110
  5
13F78
331
13111
  5
13F79
331
13112
  5
13F7A
331
13113
  5
13F7B
331
13114
  5
13F7C
331
13115
  5
13F7D
331
13116
  5
13F7E
331
13117
  5
13F7F
331
13118
  5
13F80
331
13119
  5
13F81
331
1311A
  5
13F82
331
1311B
  5
13F83
331
1311C
  5
13F84
331
1311D
  5
13F85
331
1311E
  5
13F86
331
1311F
  5
13F87
331
13120
  5
13F88
331
13122
  5
13F89
331
13124
  5
13F8A
331
13125
  5
13F8B
331
13128
  5
13F8C
331
13129
  5
13F8D
331
1312A
  5
13F8E
331
1312B
  5
13F8F
331
1312C
  5
13F90
331
13169
  5
13F91
331
1316B
  5
13F92
331
1316E
  5
13F93
331
1316F
  5
13F94
331
13170
  5
13F95
331
13171
  5
13F96
331
13172
  5
13F97
331
13173
  5
13F98
331
13178
  5
13F99
331
13179
  5
13F9A
331
1317A
  5
13F9B
331
1317B
  5
13F9C
331
1317C
  5
13F9D
331
1317D
  5
13F9E
331
1317F
  5
13F9F
331
13180
  5
13FA0
331
13181
  5
13FA1
331
13182
  5
13FA2
331
13183
  5
13FA3
331
13184
  5
13FA4
331
13185
  5
13FA5
331
13186
  5
13FA6
331
13187
  5
13EE4
331
13188
  5
13EE6
331
13189
  5
13F1B
331
1318A
  5
13F10
331
1318C
  5
14034
331
0
  5
131C6
331
1319E
  5
160DC
331
131A1
  5
160DD
331
131C9
  5
160DE
331
131CC
  5
160DF
331
131CE
  5
160E0
331
131CF
  5
160E1
331
131D0
  5
160E2
331
131D2
  5
160E3
331
131D3
  5
160E4
331
131D5
  5
160E5
331
131D6
  5
160E6
331
131D9
  5
160E7
331
131DB
  5
160E8
331
131E1
  5
160E9
331
131E2
  5
160EA
331
131E3
  5
160EB
331
131E4
  5
160EC
331
131E7
  5
160ED
331
131E8
  5
160EE
331
131E9
  5
160EF
331
131EA
  5
160F0
331
131EB
  5
160F1
331
13CB2
  5
160F2
331
13CB3
  5
160F3
331
13CB4
  5
160F4
331
13CB5
  5
160F5
331
13CB6
  5
160F6
331
13CB7
  5
160F7
331
13CB8
  5
160F8
331
13CB9
  5
160F9
331
13CBA
  5
160FA
331
13D81
  5
160FB
331
13D82
  5
160FD
331
13D90
  5
160FC
331
13D93
  5
160FE
331
13D94
  5
160FF
331
13D97
  5
16100
331
13D98
  5
16101
331
13D9B
  5
16102
331
13D9C
  5
16103
331
13D9D
  5
16104
331
13D9F
  5
16105
331
13DA5
  5
16106
331
13DA6
  5
16107
331
13E31
  5
16108
331
13E33
  5
16109
331
13E37
  5
1610A
331
13E3A
  5
1610B
331
13E3F
  5
1610C
331
13E43
  5
1610D
331
13E46
  5
1610E
331
13ED6
  5
1610F
331
13ED7
  5
16110
331
13ED8
  5
16111
331
13ED9
  5
16112
331
13EDA
  5
16113
331
13EDB
  5
16114
331
13EDC
  5
16115
331
13EDD
  5
16116
331
13EE3
  5
16117
331
13EE4
  5
16118
331
13EE5
  5
16119
331
13EE6
  5
1611A
331
13F0D
  5
1611B
331
13F0F
  5
1611C
331
13F10
  5
1611D
331
13F11
  5
1611E
331
13F12
  5
1611F
331
13F14
  5
16120
331
13F15
  5
16121
331
13F16
  5
16122
331
13F17
  5
16123
331
13F18
  5
16124
331
13F19
  5
16125
331
13F1A
  5
16126
331
13F1B
  5
16127
331
13F1E
  5
16128
331
13F1F
  5
16129
331
13F20
  5
1612A
331
13F21
  5
1612B
331
13F22
  5
1612C
331
13F23
  5
1612D
331
13F24
  5
1612E
331
13F52
  5
1612F
331
13F53
  5
16130
331
13F54
  5
16131
331
13F55
  5
16132
331
13F5A
  5
16133
331
13F5B
  5
16134
331
13F5C
  5
16135
331
13F5D
  5
16136
331
13F5E
  5
16137
331
13F5F
  5
16138
331
13F60
  5
16139
331
13F61
  5
1613A
331
13F62
  5
1613B
331
13F69
  5
1613C
331
0
  5
13F6E
331
13F6B
  5
16146
331
13F6C
  5
16147
331
13F6D
  5
16148
331
13F6E
  5
16149
331
13F6F
  5
1614A
331
13F70
  5
1614B
331
13F71
  5
1614C
331
13F72
  5
1614D
331
13F73
  5
1614E
331
13F74
  5
1614F
331
13F75
  5
16150
331
13F76
  5
16151
331
13F77
  5
16152
331
13F78
  5
16153
331
13F79
  5
16154
331
13F7A
  5
16155
331
13F7B
  5
16156
331
13F7C
  5
16157
331
13F7D
  5
16158
331
13F7E
  5
16159
331
13F7F
  5
1615A
331
13F80
  5
1615B
331
13F81
  5
1615C
331
13F82
  5
1615D
331
13F83
  5
1615E
331
13F84
  5
1615F
331
13F85
  5
16160
331
13F86
  5
16161
331
13F87
  5
16162
331
13F88
  5
16163
331
13F89
  5
16164
331
13F8A
  5
16165
331
13F8B
  5
16166
331
13F8C
  5
16167
331
13F8D
  5
16168
331
13F8E
  5
16169
331
13F8F
  5
1616A
331
13F90
  5
1616B
331
13F91
  5
1616C
331
13F92
  5
1616D
331
13F93
  5
1616E
331
13F94
  5
1616F
331
13F95
  5
16170
331
13F96
  5
16171
331
13F97
  5
16172
331
13F98
  5
16173
331
13F99
  5
16174
331
13F9A
  5
16175
331
13F9B
  5
16176
331
13F9C
  5
16177
331
13F9D
  5
16178
331
13F9E
  5
16179
331
13F9F
  5
1617A
331
13FA0
  5
1617B
331
13FA1
  5
1617C
331
13FA2
  5
1617D
331
13FA3
  5
1617E
331
13FA4
  5
1617F
331
13FA5
  5
16180
331
13FA6
  5
16181
331
13FA7
  5
16182
331
13FA8
  5
16183
331
13FA9
  5
16184
331
13FAA
  5
16185
331
13FAB
  5
16186
331
13FAC
  5
16187
331
0
  5
13FB1
331
13FAE
  5
161D4
331
13FAF
  5
161D5
331
13FB0
  5
161D6
331
13FB1
  5
161D7
331
13FB2
  5
161D8
331
13FB3
  5
161D9
331
13FB4
  5
161DA
331
13FB5
  5
161DB
331
13FB6
  5
161DC
331
13FB7
  5
161DD
331
13FB8
  5
161DE
331
13FB9
  5
161DF
331
13FFB
  5
161E0
331
14032
  5
161E1
331
14033
  5
161E2
331
14034
  5
161E3
331
14035
  5
161E4
331
0
  5
1403A
331
14037
  5
161E9
331
14038
  5
161EA
331
14039
  5
161EB
331
1403A
  5
161EC
331
1403B
  5
161ED
331
1403C
  5
161EE
331
1403D
  5
161EF
331
1403E
  5
161F0
331
1403F
  5
161F1
331
14040
  5
161F2
331
14041
  5
161F3
331
14042
  5
161F4
331
14043
  5
161F5
331
14044
  5
161F6
331
1404E
  5
161F7
331
1404F
  5
161F8
331
14D0D
  5
161F9
331
14D0E
  5
161FA
331
14D0F
  5
161FB
331
14D10
  5
161FC
331
14D11
  5
161FD
331
14D12
  5
161FE
331
0
  5
14E25
331
0
  5
14E2B
331
0
  5
14E30
331
0
  5
14E3A
331
14E25
  5
1620D
331
14E2B
  5
1620E
331
14E30
  5
1620F
331
14E3A
  5
16210
331
14E3C
  5
16211
331
160AE
  5
130DB
331
160AF
  5
130E1
331
160B0
  5
13185
331
160B1
  5
13186
331
160B2
  5
FF39
331
160B3
  5
FF3E
331
160B4
  5
FF3F
331
0
  5
FF40
331
0
  5
FF49
331
0
  5
FF98
331
0
  5
10265
331
160B9
  5
12D44
331
160BA
  5
12D45
331
160BB
  5
12D46
331
160BC
  5
12D47
331
0
  5
12D3D
331
160BE
  5
12D53
331
160BF
  5
13003
331
160C0
  5
1300D
331
160C1
  5
1300E
331
160C2
  5
13046
331
160C3
  5
1304B
331
160C4
  5
1304D
331
0
  5
12D49
331
0
  5
12D4A
331
0
  5
12D4B
331
160C8
  5
130AF
331
160C9
  5
130B0
331
160CA
  5
130B1
331
0
  5
12D54
331
0
  5
13000
331
0
  5
13001
331
160CE
  5
130C2
331
160CF
  5
130C3
331
160D0
  5
130C4
331
0
  5
1300F
331
0
  5
13014
331
0
  5
13018
331
160D4
  5
130CC
331
160D5
  5
130CD
331
160D6
  5
130CE
331
160D7
  5
130CF
331
0
  5
13033
331
0
  5
1303D
331
0
  5
1303E
331
0
  5
13044
331
160DC
  5
130DA
331
0
  5
1304C
331
160DE
  5
130DF
331
160DF
  5
130E3
331
160E0
  5
130E4
331
160E1
  5
130E5
331
0
  5
130A5
331
0
  5
130A6
331
0
  5
130A7
331
160E5
  5
130E8
331
0
  5
130AC
331
0
  5
130AD
331
0
  5
130AE
331
160EB
  5
130EF
331
160EC
  5
130F0
331
160ED
  5
130F1
331
0
  5
130B2
331
0
  5
130B3
331
0
  5
130B4
331
160F1
  5
130F9
331
160F2
  5
130FA
331
160F3
  5
130FB
331
0
  5
130B8
331
0
  5
130B9
331
0
  5
130BA
331
160F7
  5
13103
331
160F8
  5
13104
331
160F9
  5
13105
331
0
  5
130BE
331
0
  5
130BF
331
0
  5
130C0
331
16106
  5
13ED8
331
16107
  5
13ED9
331
16108
  5
13EDA
331
16109
  5
13EDB
331
1610A
  5
13EDC
331
1610B
  5
13EDD
331
1610C
  5
1318D
331
1610D
  5
1318D
331
1610E
  5
1318F
331
1610F
  5
14035
331
16110
  5
14036
331
16111
  5
14037
331
16112
  5
14038
331
16113
  5
14039
331
16114
  5
1403B
331
16115
  5
1403C
331
16116
  5
1403D
331
16117
  5
1403E
331
16118
  5
1403F
331
16119
  5
14040
331
1611A
  5
14041
331
1611B
  5
14042
331
1611C
  5
14043
331
1611D
  5
14044
331
1611E
  5
1404E
331
1611F
  5
1404F
331
16120
  5
14D0D
331
16121
  5
14D0E
331
16122
  5
14D0F
331
16123
  5
14D10
331
16124
  5
14D11
331
16125
  5
14D12
331
16126
  5
14D44
331
16127
  5
14D45
331
16128
  5
14D46
331
16129
  5
14D47
331
1612A
  5
14E3C
331
1612B
  5
160AE
331
1612C
  5
160AF
331
1612D
  5
160B0
331
1612E
  5
160B1
331
1612F
  5
160B2
331
16130
  5
160B3
331
16131
  5
160B4
331
16132
  5
160B5
331
16133
  5
160B6
331
16134
  5
160B7
331
16135
  5
160B8
331
16136
  5
160B9
331
16137
  5
160BA
331
16138
  5
160BB
331
16139
  5
160BC
331
1613A
  5
160BD
331
1613B
  5
160BE
331
1613C
  5
160BF
331
1613D
  5
160C0
331
1613E
  5
160C1
331
1613F
  5
160C2
331
16140
  5
160C3
331
16141
  5
160C4
331
16142
  5
160C5
331
16143
  5
160C6
331
16144
  5
160C7
331
16145
  5
160C8
331
16146
  5
160C9
331
16147
  5
160CA
331
16148
  5
160CB
331
16149
  5
160CC
331
1614A
  5
160CD
331
1614B
  5
160CE
331
1614C
  5
160CF
331
1614D
  5
160D0
331
1614E
  5
160D1
331
1614F
  5
160D2
331
16150
  5
160D3
331
16151
  5
160D4
331
16152
  5
160D5
331
16153
  5
160D6
331
16154
  5
160D7
331
16155
  5
160D8
331
16156
  5
160D9
331
16157
  5
160DA
331
16158
  5
160DB
331
16159
  5
1613D
331
1615A
  5
1613E
331
1615B
  5
1613F
331
1615C
  5
16140
331
1615D
  5
16141
331
1615E
  5
16142
331
1615F
  5
16143
331
16160
  5
16144
331
16161
  5
16145
331
16162
  5
16188
331
16163
  5
16189
331
16164
  5
1618A
331
16165
  5
1618B
331
16166
  5
1618C
331
16167
  5
1618D
331
16168
  5
1618E
331
16169
  5
1618F
331
1616A
  5
16190
331
1616B
  5
16191
331
1616C
  5
16192
331
1616D
  5
16193
331
1616E
  5
16194
331
1616F
  5
16195
331
16170
  5
16196
331
16171
  5
16197
331
16172
  5
16198
331
16173
  5
16199
331
16174
  5
1619A
331
16175
  5
1619B
331
16176
  5
1619C
331
16177
  5
1619D
331
16178
  5
1619E
331
16179
  5
1619F
331
1617A
  5
161A0
331
1617B
  5
161A1
331
1617C
  5
161A2
331
1617D
  5
161A3
331
1617E
  5
161A4
331
1617F
  5
161A5
331
16180
  5
161A6
331
16181
  5
161A7
331
16182
  5
161A8
331
16183
  5
161A9
331
16184
  5
161AA
331
16185
  5
161AC
331
16186
  5
161AD
331
16187
  5
161AE
331
16188
  5
161AF
331
16189
  5
161B1
331
1618A
  5
161B2
331
1618B
  5
161B3
331
1618C
  5
161B4
331
1618D
  5
161B5
331
1618E
  5
161B6
331
1618F
  5
161B7
331
16190
  5
161B8
331
16191
  5
161B9
331
16192
  5
161BA
331
16193
  5
161BB
331
16194
  5
161BC
331
16195
  5
161BD
331
16196
  5
161BE
331
16197
  5
161BF
331
16198
  5
161C0
331
16199
  5
161C1
331
1619A
  5
161C2
331
1619B
  5
161C3
331
1619C
  5
161C4
331
1619D
  5
161C5
331
1619E
  5
161C6
331
1619F
  5
161C7
331
161A0
  5
161C8
331
161A1
  5
161C9
331
161A2
  5
161CA
331
161A3
  5
161CB
331
161A4
  5
161CC
331
161A5
  5
161CD
331
161A6
  5
161CE
331
161A7
  5
161CF
331
161A8
  5
161D0
331
161A9
  5
161D1
331
161AA
  5
161D2
331
161AB
  5
161D3
331
161AC
  5
161E5
331
161AD
  5
161E6
331
161AE
  5
161E7
331
161AF
  5
161E8
331
0
  5
161AB
331
161B1
  5
16202
331
161B2
  5
16203
331
161B3
  5
16204
331
161B4
  5
16205
331
0
  5
161B0
331
161B6
  5
16209
331
161B7
  5
1620A
331
161B8
  5
1620B
331
161B9
  5
1620C
331
161BA
  5
10266
331
161BB
  5
12D3A
331
161BC
  5
12D3B
331
161BD
  5
12D3C
331
161BE
  5
12D3E
331
161BF
  5
12D3F
331
161C0
  5
12D40
331
161C1
  5
12D41
331
161C2
  5
12D42
331
161C3
  5
12D43
331
161C4
  5
12D48
331
161C5
  5
12D51
331
161C6
  5
12D52
331
161C7
  5
13050
331
161C8
  5
13051
331
161C9
  5
130A3
331
161CA
  5
130A4
331
161CB
  5
130A9
331
161CC
  5
130AA
331
161CD
  5
130AB
331
161CE
  5
130B5
331
161CF
  5
130B6
331
161D0
  5
130B7
331
161D1
  5
130BB
331
161D2
  5
130BC
331
161D3
  5
130BD
331
161D4
  5
130C1
331
161D5
  5
130C5
331
161D6
  5
130C6
331
161D7
  5
130C7
331
161D8
  5
130C8
331
161D9
  5
130C9
331
161DA
  5
130CA
331
161DB
  5
130CB
331
161DC
  5
130D0
331
161DD
  5
130D1
331
161DE
  5
130D2
331
161DF
  5
130D3
331
161E0
  5
130D4
331
161E1
  5
130D5
331
161E2
  5
130D6
331
161E3
  5
130D7
331
161E4
  5
130D8
331
161E5
  5
130D9
331
161E6
  5
130DC
331
161E7
  5
130DD
331
161E8
  5
130DE
331
161E9
  5
130E6
331
161F1
  5
130E9
331
161F2
  5
130EA
331
161F3
  5
130EB
331
161F4
  5
130EC
331
161F5
  5
130ED
331
161F6
  5
130EE
331
161F7
  5
130F2
331
161F8
  5
130F3
331
161F9
  5
130F4
331
161FA
  5
130F5
331
161FB
  5
130F6
331
161FC
  5
130F7
331
161FD
  5
130F8
331
161FE
  5
130FC
331
161FF
  5
130FD
331
16200
  5
130FE
331
16201
  5
130FF
331
16202
  5
13100
331
16203
  5
13101
331
16204
  5
13102
331
16205
  5
13106
331
16206
  5
13107
331
16207
  5
13108
331
16208
  5
13109
331
16209
  5
1310A
331
1620A
  5
1310B
331
1620B
  5
1310C
331
1620C
  5
161FF
331
1620D
  5
16200
331
1620E
  5
16201
331
1620F
  5
16206
331
16210
  5
16207
331
16211
  5
16208
  0
GROUP
  5
10268
102
{ACAD_REACTORS
330
D
102
}
330
D
100
AcDbGroup
300

 70
     1
 71
     1
340
10266
340
10264
340
10263
340
10265
  0
MATERIAL
  5
D05A
102
{ACAD_REACTORS
330
18C
102
}
102
{ACAD_XDICTIONARY
360
163B0
102
}
330
18C
100
AcDbMaterial
  1
BYBLOCK
 72
     0
 73
     2
 43
0.0208333333333333
 43
0.0
 43
0.0
 43
0.0
 43
0.0
 43
0.0208333333333333
 43
0.0
 43
0.0
 43
0.0
 43
0.0
 43
1.0
 43
0.0
 43
0.0
 43
0.0
 43
0.0
 43
1.0
 77
     0
 78
     2
 47
0.0208333333333333
 47
0.0
 47
0.0
 47
0.0
 47
0.0
 47
0.0208333333333333
 47
0.0
 47
0.0
 47
0.0
 47
0.0
 47
1.0
 47
0.0
 47
0.0
 47
0.0
 47
0.0
 47
1.0
171
     0
172
     2
 49
0.0208333333333333
 49
0.0
 49
0.0
 49
0.0
 49
0.0
 49
0.0208333333333333
 49
0.0
 49
0.0
 49
0.0
 49
0.0
 49
1.0
 49
0.0
 49
0.0
 49
0.0
 49
0.0
 49
1.0
175
     0
176
     2
142
0.0208333333333333
142
0.0
142
0.0
142
0.0
142
0.0
142
0.0208333333333333
142
0.0
142
0.0
142
0.0
142
0.0
142
1.0
142
0.0
142
0.0
142
0.0
142
0.0
142
1.0
179
     0
270
     2
144
0.0208333333333333
144
0.0
144
0.0
144
0.0
144
0.0
144
0.0208333333333333
144
0.0
144
0.0
144
0.0
144
0.0
144
1.0
144
0.0
144
0.0
144
0.0
144
0.0
144
1.0
274
     2
147
0.0208333333333333
147
0.0
147
0.0
147
0.0
147
0.0
147
0.0208333333333333
147
0.0
147
0.0
147
0.0
147
0.0
147
1.0
147
0.0
147
0.0
147
0.0
147
0.0
147
1.0
  0
MATERIAL
  5
D052
102
{ACAD_REACTORS
330
18C
102
}
102
{ACAD_XDICTIONARY
360
163B2
102
}
330
18C
100
AcDbMaterial
  1
BYLAYER
 72
     0
 73
     2
 43
0.0208333333333333
 43
0.0
 43
0.0
 43
0.0
 43
0.0
 43
0.0208333333333333
 43
0.0
 43
0.0
 43
0.0
 43
0.0
 43
1.0
 43
0.0
 43
0.0
 43
0.0
 43
0.0
 43
1.0
 77
     0
 78
     2
 47
0.0208333333333333
 47
0.0
 47
0.0
 47
0.0
 47
0.0
 47
0.0208333333333333
 47
0.0
 47
0.0
 47
0.0
 47
0.0
 47
1.0
 47
0.0
 47
0.0
 47
0.0
 47
0.0
 47
1.0
171
     0
172
     2
 49
0.0208333333333333
 49
0.0
 49
0.0
 49
0.0
 49
0.0
 49
0.0208333333333333
 49
0.0
 49
0.0
 49
0.0
 49
0.0
 49
1.0
 49
0.0
 49
0.0
 49
0.0
 49
0.0
 49
1.0
175
     0
176
     2
142
0.0208333333333333
142
0.0
142
0.0
142
0.0
142
0.0
142
0.0208333333333333
142
0.0
142
0.0
142
0.0
142
0.0
142
1.0
142
0.0
142
0.0
142
0.0
142
0.0
142
1.0
179
     0
270
     2
144
0.0208333333333333
144
0.0
144
0.0
144
0.0
144
0.0
144
0.0208333333333333
144
0.0
144
0.0
144
0.0
144
0.0
144
1.0
144
0.0
144
0.0
144
0.0
144
0.0
144
1.0
274
     2
147
0.0208333333333333
147
0.0
147
0.0
147
0.0
147
0.0
147
0.0208333333333333
147
0.0
147
0.0
147
0.0
147
0.0
147
1.0
147
0.0
147
0.0
147
0.0
147
0.0
147
1.0
  0
MATERIAL
  5
D062
102
{ACAD_REACTORS
330
18C
102
}
102
{ACAD_XDICTIONARY
360
163B4
102
}
330
18C
100
AcDbMaterial
  1
GLOBAL
 72
     0
 73
     2
 43
0.0208333333333333
 43
0.0
 43
0.0
 43
0.0
 43
0.0
 43
0.0208333333333333
 43
0.0
 43
0.0
 43
0.0
 43
0.0
 43
1.0
 43
0.0
 43
0.0
 43
0.0
 43
0.0
 43
1.0
 77
     0
 78
     2
 47
0.0208333333333333
 47
0.0
 47
0.0
 47
0.0
 47
0.0
 47
0.0208333333333333
 47
0.0
 47
0.0
 47
0.0
 47
0.0
 47
1.0
 47
0.0
 47
0.0
 47
0.0
 47
0.0
 47
1.0
171
     0
172
     2
 49
0.0208333333333333
 49
0.0
 49
0.0
 49
0.0
 49
0.0
 49
0.0208333333333333
 49
0.0
 49
0.0
 49
0.0
 49
0.0
 49
1.0
 49
0.0
 49
0.0
 49
0.0
 49
0.0
 49
1.0
175
     0
176
     2
142
0.0208333333333333
142
0.0
142
0.0
142
0.0
142
0.0
142
0.0208333333333333
142
0.0
142
0.0
142
0.0
142
0.0
142
1.0
142
0.0
142
0.0
142
0.0
142
0.0
142
1.0
179
     0
270
     2
144
0.0208333333333333
144
0.0
144
0.0
144
0.0
144
0.0
144
0.0208333333333333
144
0.0
144
0.0
144
0.0
144
0.0
144
1.0
144
0.0
144
0.0
144
0.0
144
0.0
144
1.0
274
     2
147
0.0208333333333333
147
0.0
147
0.0
147
0.0
147
0.0
147
0.0208333333333333
147
0.0
147
0.0
147
0.0
147
0.0
147
1.0
147
0.0
147
0.0
147
0.0
147
0.0
147
1.0
  0
ACAD_PROXY_OBJECT
  5
D09E
102
{ACAD_REACTORS
330
D09D
102
}
330
D09D
100
AcDbZombieObject
 90
      499
 91
      511
 93
      610
310
40901902A4063FBFFFFFE000000000000002040AD7A3703D0AD73F4214DD185B99185C990000000000000104090141901A00000000000004100000000000000041025764000000000000300FC0
340
12
340
0
340
F
340
0
 94
        0
1001
ACAD_MLEADERVER
1070
     2
  0
MLINESTYLE
  5
1C
102
{ACAD_REACTORS
330
1B
102
}
330
1B
100
AcDbMlineStyle
  2
STANDARD
 70
     0
  3

 62
   256
 51
90.0
 52
90.0
 71
     2
 49
0.5
 62
   256
  6
BYLAYER
 49
-0.5
 62
   256
  6
BYLAYER
  0
ACAD_PROXY_OBJECT
  5
D07C
102
{ACAD_REACTORS
330
D07B
102
}
330
D07B
100
AcDbZombieObject
 90
      499
 91
      510
 93
       41
310
903313A31580
  0
ACAD_PROXY_OBJECT
  5
D07D
102
{ACAD_REACTORS
330
D07B
102
}
330
D07B
100
AcDbZombieObject
 90
      499
 91
      510
 93
      105
310
903313A324000000000000004000
  0
ACAD_PROXY_OBJECT
  5
D07E
102
{ACAD_REACTORS
330
D07B
102
}
330
D07B
100
AcDbZombieObject
 90
      499
 91
      510
 93
      105
310
903313A344000000000000104000
  0
ACAD_PROXY_OBJECT
  5
D07F
102
{ACAD_REACTORS
330
D07B
102
}
330
D07B
100
AcDbZombieObject
 90
      499
 91
      510
 93
      105
310
903313A354000000000000144000
  0
ACAD_PROXY_OBJECT
  5
D080
102
{ACAD_REACTORS
330
D07B
102
}
330
D07B
100
AcDbZombieObject
 90
      499
 91
      510
 93
      105
310
903313A384000000000000204000
  0
ACAD_PROXY_OBJECT
  5
D081
102
{ACAD_REACTORS
330
D07B
102
}
330
D07B
100
AcDbZombieObject
 90
      499
 91
      510
 93
      113
310
904313A31304000000000000244000
  0
ACAD_PROXY_OBJECT
  5
D082
102
{ACAD_REACTORS
330
D07B
102
}
330
D07B
100
AcDbZombieObject
 90
      499
 91
      510
 93
      113
310
904313A31364000000000000304000
  0
ACAD_PROXY_OBJECT
  5
D083
102
{ACAD_REACTORS
330
D07B
102
}
330
D07B
100
AcDbZombieObject
 90
      499
 91
      510
 93
      113
310
904313A32304000000000000344000
  0
ACAD_PROXY_OBJECT
  5
D084
102
{ACAD_REACTORS
330
D07B
102
}
330
D07B
100
AcDbZombieObject
 90
      499
 91
      510
 93
      113
310
904313A333040000000000003E4000
  0
ACAD_PROXY_OBJECT
  5
D085
102
{ACAD_REACTORS
330
D07B
102
}
330
D07B
100
AcDbZombieObject
 90
      499
 91
      510
 93
      113
310
904313A34304000000000000444000
  0
ACAD_PROXY_OBJECT
  5
D086
102
{ACAD_REACTORS
330
D07B
102
}
330
D07B
100
AcDbZombieObject
 90
      499
 91
      510
 93
      113
310
904313A35304000000000000494000
  0
ACAD_PROXY_OBJECT
  5
D087
102
{ACAD_REACTORS
330
D07B
102
}
330
D07B
100
AcDbZombieObject
 90
      499
 91
      510
 93
      121
310
905313A3130304000000000000594000
  0
ACAD_PROXY_OBJECT
  5
D088
102
{ACAD_REACTORS
330
D07B
102
}
330
D07B
100
AcDbZombieObject
 90
      499
 91
      510
 93
      105
310
903323A310000000000000010100
  0
ACAD_PROXY_OBJECT
  5
D089
102
{ACAD_REACTORS
330
D07B
102
}
330
D07B
100
AcDbZombieObject
 90
      499
 91
      510
 93
      105
310
903343A310000000000000410100
  0
ACAD_PROXY_OBJECT
  5
D08A
102
{ACAD_REACTORS
330
D07B
102
}
330
D07B
100
AcDbZombieObject
 90
      499
 91
      510
 93
      105
310
903383A310000000000000810100
  0
ACAD_PROXY_OBJECT
  5
D08B
102
{ACAD_REACTORS
330
D07B
102
}
330
D07B
100
AcDbZombieObject
 90
      499
 91
      510
 93
      113
310
90431303A310000000000000910100
  0
ACAD_PROXY_OBJECT
  5
D08C
102
{ACAD_REACTORS
330
D07B
102
}
330
D07B
100
AcDbZombieObject
 90
      499
 91
      510
 93
      121
310
9053130303A310000000000001650100
  0
ACAD_PROXY_OBJECT
  5
D08D
102
{ACAD_REACTORS
330
D07B
102
}
330
D07B
100
AcDbZombieObject
 90
      499
 91
      510
 93
      257
310
90E312F31323822203D2031272D3022000000000000200FC000000000000284000
  0
ACAD_PROXY_OBJECT
  5
D08E
102
{ACAD_REACTORS
330
D07B
102
}
330
D07B
100
AcDbZombieObject
 90
      499
 91
      510
 93
      249
310
90D312F363422203D2031272D3022000000000000240FC000000000000284000
  0
ACAD_PROXY_OBJECT
  5
D08F
102
{ACAD_REACTORS
330
D07B
102
}
330
D07B
100
AcDbZombieObject
 90
      499
 91
      510
 93
      249
310
90D312F333222203D2031272D3022000000000000280FC000000000000284000
  0
ACAD_PROXY_OBJECT
  5
D090
102
{ACAD_REACTORS
330
D07B
102
}
330
D07B
100
AcDbZombieObject
 90
      499
 91
      510
 93
      249
310
90D312F313622203D2031272D30220000000000002C0FC000000000000284000
  0
ACAD_PROXY_OBJECT
  5
D091
102
{ACAD_REACTORS
330
D07B
102
}
330
D07B
100
AcDbZombieObject
 90
      499
 91
      510
 93
      249
310
90D332F333222203D2031272D30220000000000002E0FC000000000000284000
  0
ACAD_PROXY_OBJECT
  5
D092
102
{ACAD_REACTORS
330
D07B
102
}
330
D07B
100
AcDbZombieObject
 90
      499
 91
      510
 93
      241
310
90C312F3822203D2031272D3022000000000000300FC000000000000284000
  0
ACAD_PROXY_OBJECT
  5
D093
102
{ACAD_REACTORS
330
D07B
102
}
330
D07B
100
AcDbZombieObject
 90
      499
 91
      510
 93
      249
310
90D332F313622203D2031272D3022000000000000320FC000000000000284000
  0
ACAD_PROXY_OBJECT
  5
D094
102
{ACAD_REACTORS
330
D07B
102
}
330
D07B
100
AcDbZombieObject
 90
      499
 91
      510
 93
      241
310
90C312F3422203D2031272D3022000000000000340FC000000000000284000
  0
ACAD_PROXY_OBJECT
  5
D095
102
{ACAD_REACTORS
330
D07B
102
}
330
D07B
100
AcDbZombieObject
 90
      499
 91
      510
 93
      241
310
90C332F3822203D2031272D3022000000000000360FC000000000000284000
  0
ACAD_PROXY_OBJECT
  5
D096
102
{ACAD_REACTORS
330
D07B
102
}
330
D07B
100
AcDbZombieObject
 90
      499
 91
      510
 93
      241
310
90C312F3222203D2031272D3022000000000000380FC000000000000284000
  0
ACAD_PROXY_OBJECT
  5
D097
102
{ACAD_REACTORS
330
D07B
102
}
330
D07B
100
AcDbZombieObject
 90
      499
 91
      510
 93
      241
310
90C332F3422203D2031272D30220000000000003A0FC000000000000284000
  0
ACAD_PROXY_OBJECT
  5
D098
102
{ACAD_REACTORS
330
D07B
102
}
330
D07B
100
AcDbZombieObject
 90
      499
 91
      510
 93
      161
310
90A3122203D2031272D30224000000000000284000
  0
ACAD_PROXY_OBJECT
  5
D099
102
{ACAD_REACTORS
330
D07B
102
}
330
D07B
100
AcDbZombieObject
 90
      499
 91
      510
 93
      257
310
90E312D312F3222203D2031272D30220000000000003E0FC000000000000284000
  0
ACAD_PROXY_OBJECT
  5
D09A
102
{ACAD_REACTORS
330
D07B
102
}
330
D07B
100
AcDbZombieObject
 90
      499
 91
      510
 93
      225
310
90A3322203D2031272D302200000000000002100000000000000284000
  0
ACAD_PROXY_OBJECT
  5
D09B
102
{ACAD_REACTORS
330
D07B
102
}
330
D07B
100
AcDbZombieObject
 90
      499
 91
      510
 93
      225
310
90A3622203D2031272D302200000000000006100000000000000284000
  0
ACAD_PROXY_OBJECT
  5
D09C
102
{ACAD_REACTORS
330
D07B
102
}
330
D07B
100
AcDbZombieObject
 90
      499
 91
      510
 93
      249
310
90D31272D3022203D2031272D30220000000000000A100000000000000284000
  0
ACAD_PROXY_OBJECT
  5
D070
102
{ACAD_REACTORS
330
D06A
102
}
330
D06A
100
AcDbZombieObject
 90
      499
 91
      509
 93
      436
310
42CC9915DA5C99599C985B595049028333333333333E3BF0000000000000FB0107901411070040501600405405064090741402480A0340
1001
ACAD
1000
AcDbSavedByObjectVersion
1070
     0
  0
ACAD_PROXY_OBJECT
  5
D072
102
{ACAD_REACTORS
330
D06A
102
}
330
D06A
100
AcDbZombieObject
 90
      499
 91
      509
 93
      500
310
424CD108121A5919195B90640502408333333333333E3BF0000000000000FB01079024090700405020000000000001110200405405064090740C02480A0340
1001
ACAD
1000
AcDbSavedByObjectVersion
1070
     0
  0
ACAD_PROXY_OBJECT
  5
D071
102
{ACAD_REACTORS
330
D06A
102
}
330
D06A
100
AcDbZombieObject
 90
      499
 91
      509
 93
      436
310
42CCD915DA5C99599C985B595059028333333333333E3BF0000000000000FB0107901411070040501600405405064090741402480A0340
1001
ACAD
1000
AcDbSavedByObjectVersion
1070
     0
  0
ACAD_PROXY_OBJECT
  5
D06F
102
{ACAD_REACTORS
330
D06A
102
}
330
D06A
100
AcDbZombieObject
 90
      499
 91
      509
 93
      388
310
4150985CDA58D07406404333333333333E3BF0000000000000FB0107A41107004050150841D405064090741402480A0350
1001
ACAD
1000
AcDbSavedByObjectVersion
1070
     0
  0
ACAD_PROXY_OBJECT
  5
D076
102
{ACAD_REACTORS
330
D06A
102
}
330
D06A
100
AcDbZombieObject
 90
      499
 91
      509
 93
      428
310
42109C9A59DA1D195B90C409028333333333333E3BF0000000000000FB010790141107004050150841D405064090741402480A029950
1001
ACAD
1000
AcDbSavedByObjectVersion
1070
     0
  0
ACAD_PROXY_OBJECT
  5
D07A
102
{ACAD_REACTORS
330
D06A
102
}
330
D06A
100
AcDbZombieObject
 90
      499
 91
      509
 93
      452
310
42D0DBDB1BDC90DA185B99D95104090240C333333333333E3BF0000000000000FB0108901411070040501508421405064090741402480A0350
1001
ACAD
1000
AcDbSavedByObjectVersion
1070
     0
  0
ACAD_PROXY_OBJECT
  5
D073
102
{ACAD_REACTORS
330
D06A
102
}
330
D06A
100
AcDbZombieObject
 90
      499
 91
      509
 93
      500
310
4290DBDB98D95C1D1D585B10940D028333333333333E3BF0000000000000FB0107902409070040501000000000000111010841D405064090740C02480A0340
1001
ACAD
1000
AcDbSavedByObjectVersion
1070
     0
  0
ACAD_PROXY_OBJECT
  5
D075
102
{ACAD_REACTORS
330
D06A
102
}
330
D06A
100
AcDbZombieObject
 90
      499
 91
      509
 93
      412
310
40D11A5B50B409028333333333333E3BF0000000000000FB010790141107004050150841D405064090741402480A02677FFFFFD0
1001
ACAD
1000
AcDbSavedByObjectVersion
1070
     0
  0
ACAD_PROXY_OBJECT
  5
D29F
102
{ACAD_REACTORS
330
D06A
102
}
330
D06A
100
AcDbZombieObject
 90
      499
 91
      509
 93
      452
310
43115919D950DBDB1BDC93D999916409028333333333333E3BF0000000000000FB010790141107004050150841D405064090741402480A0350
1001
ACAD
1000
AcDbSavedByObjectVersion
1070
     0
  0
ACAD_PROXY_OBJECT
  5
D079
102
{ACAD_REACTORS
330
D06A
102
}
330
D06A
100
AcDbZombieObject
 90
      499
 91
      509
 93
      444
310
42D19858D95C185D1D195C9B90F409028333333333333E3BF0000000000000FB010790141107004050150841D405064090741402480A0350
1001
ACAD
1000
AcDbSavedByObjectVersion
1070
     0
  0
ACAD_PROXY_OBJECT
  5
D06B
102
{ACAD_REACTORS
330
D06A
102
}
330
D06A
100
AcDbZombieObject
 90
      499
 91
      509
 93
      388
310
41119B185D240901404333333333333E3BF0000000000000F9010740A41107004050150841D405064090741402480A1B50
1001
ACAD
1000
AcDbSavedByObjectVersion
1070
     0
  0
ACAD_PROXY_OBJECT
  5
D06C
102
{ACAD_REACTORS
330
D06A
102
}
330
D06A
100
AcDbZombieObject
 90
      499
 91
      509
 93
      476
310
43519B185D15DA5D1A115919D95CD0140901404333333333333E3BF0000000000000F9010740901411070040501600405405064090741402480A1B50
1001
ACAD
1000
AcDbSavedByObjectVersion
1070
     0
  0
ACAD_PROXY_OBJECT
  5
D06D
102
{ACAD_REACTORS
330
D06A
102
}
330
D06A
100
AcDbZombieObject
 90
      499
 91
      509
 93
      412
310
41D1DBDD5C985D5910240902404333333333333E3BF0000000000000F9010740A411070040501641D405064090741402480A1B50
1001
ACAD
1000
AcDbSavedByObjectVersion
1070
     0
  0
ACAD_PROXY_OBJECT
  5
D06E
102
{ACAD_REACTORS
330
D06A
102
}
330
D06A
100
AcDbZombieObject
 90
      499
 91
      509
 93
      500
310
4411DBDD5C985D5915DA5D1A115919D95CD0340902404333333333333E3BF0000000000000F9010740901411070040501600405405064090741402480A1B50
1001
ACAD
1000
AcDbSavedByObjectVersion
1070
     0
  0
ACAD_PROXY_OBJECT
  5
104A8
102
{ACAD_REACTORS
330
D06A
102
}
330
D06A
100
AcDbZombieObject
 90
      499
 91
      509
 93
      476
310
41921A5919195B90640502408333333333333E3BF0000000000000FB01079024090700405020000000000001110200405405064090740C02480A0340
1001
ACAD
1000
AcDbSavedByObjectVersion
1070
     0
  0
ACAD_PROXY_OBJECT
  5
D29D
102
{ACAD_REACTORS
330
D06A
102
}
330
D06A
100
AcDbZombieObject
 90
      499
 91
      509
 93
      428
310
42529A5D1D195C93D999914409028333333333333E3BF0000000000000FB010790141107004050150A41D405064090741402480A0350
1001
ACAD
1000
AcDbSavedByObjectVersion
1070
     0
  0
ACAD_PROXY_OBJECT
  5
D078
102
{ACAD_REACTORS
330
D06A
102
}
330
D06A
100
AcDbZombieObject
 90
      499
 91
      509
 93
      444
310
42D31A5B995C185D1D195C9B90E409028333333333333E3BF0000000000000FB010790141107004050750841D405064090741402483A0350
1001
ACAD
1000
AcDbSavedByObjectVersion
1070
     0
  0
ACAD_PROXY_OBJECT
  5
14F77
102
{ACAD_REACTORS
330
D06A
102
}
330
D06A
100
AcDbZombieObject
 90
      499
 91
      509
 93
      484
310
42135BD9195B1A5B99D0A409038333333333333E33F0000000000000F901074090290700405010000000000201990108421405064090741402480A1B40
1001
ACAD
1000
AcDbSavedByObjectVersion
1070
     0
  0
ACAD_PROXY_OBJECT
  5
D29E
102
{ACAD_REACTORS
330
D06A
102
}
330
D06A
100
AcDbZombieObject
 90
      499
 91
      509
 93
      444
310
42D3DD995C9A185B99D3D999915409028333333333333E3BF0000000000000FB010790141107004050150941D405064090741402480A0350
1001
ACAD
1000
AcDbSavedByObjectVersion
1070
     0
  0
ACAD_PROXY_OBJECT
  5
D074
102
{ACAD_REACTORS
330
D06A
102
}
330
D06A
100
AcDbZombieObject
 90
      499
 91
      509
 93
      420
310
425499585B1A5CDD1A58D08409028333333333333E3BF0000000000000FB01079019070040501508421405064090741402480A1B40
1001
ACAD
1000
AcDbSavedByObjectVersion
1070
     0
  0
ACAD_PROXY_OBJECT
  5
104AD
102
{ACAD_REACTORS
330
D06A
102
}
330
D06A
100
AcDbZombieObject
 90
      499
 91
      509
 93
      420
310
4194DA1859195911B40902404333333333333E3BF0000000000000F9010740A41107004050150800405405064090840C02480A0B40
1001
ACAD
1000
AcDbSavedByObjectVersion
1070
     0
  0
ACAD_PROXY_OBJECT
  5
104AC
102
{ACAD_REACTORS
330
D06A
102
}
330
D06A
100
AcDbZombieObject
 90
      499
 91
      509
 93
      516
310
4454DA18591959081DDA5D1A08195919D95CD1A40902404333333333333E3BF0000000000000F901074090142907004050250800405405064090740C02480A0B40
1001
ACAD
1000
AcDbSavedByObjectVersion
1070
     0
  0
ACAD_PROXY_OBJECT
  5
104A9
102
{ACAD_REACTORS
330
D06A
102
}
330
D06A
100
AcDbZombieObject
 90
      499
 91
      509
 93
      532
310
4394DA1859195CC81BD98811DC985E5174090240C333333333333E3BF0000000000000FB01079024090741D01000000000000111010841D405064090740C02480A0340
1001
ACAD
1000
AcDbSavedByObjectVersion
1070
     0
  0
ACAD_PROXY_OBJECT
  5
104AA
102
{ACAD_REACTORS
330
D06A
102
}
330
D06A
100
AcDbZombieObject
 90
      499
 91
      509
 93
      476
310
41D4DAD95D18DA1E51840502408333333333333E3BF0000000000000FB01079024090741D01000000000000111010B41D405064090741802480A0340
1001
ACAD
1000
AcDbSavedByObjectVersion
1070
     0
  0
ACAD_PROXY_OBJECT
  5
D077
102
{ACAD_REACTORS
330
D06A
102
}
330
D06A
100
AcDbZombieObject
 90
      499
 91
      509
 93
      412
310
41D51A1A58DAD95B90D409028333333333333E3BF0000000000000FB010790141107004050150C41D405064090741402480A0350
1001
ACAD
1000
AcDbSavedByObjectVersion
1070
     0
  0
ACAD_PROXY_OBJECT
  5
104A7
102
{ACAD_REACTORS
330
D06A
102
}
330
D06A
100
AcDbZombieObject
 90
      499
 91
      509
 93
      420
310
4255DA5C99599C985B595059028333333333333E3BF0000000000000FB0107901411070040501600405405064090740C02480A0340
1001
ACAD
1000
AcDbSavedByObjectVersion
1070
     0
  0
ACAD_PROXY_OBJECT
  5
104AB
102
{ACAD_REACTORS
330
D06A
102
}
330
D06A
100
AcDbZombieObject
 90
      499
 91
      509
 93
      404
310
41560B54985E51940902404000000000000E03F0000000000000FB010740501907004050150841D405064090740C02480A1B40
1001
ACAD
1000
AcDbSavedByObjectVersion
1070
     0
  0
XRECORD
  5
16213
102
{ACAD_REACTORS
330
16212
102
}
330
16212
100
AcDbXrecord
340
18D
  0
XRECORD
  5
16214
102
{ACAD_REACTORS
330
16212
102
}
330
16212
100
AcDbXrecord
340
18C
  0
DICTIONARYVAR
  5
D118
102
{ACAD_REACTORS
330
37
102
}
330
37
100
DictionaryVariables
280
     0
  1
1:1
  0
DICTIONARYVAR
  5
D117
102
{ACAD_REACTORS
330
37
102
}
330
37
100
DictionaryVariables
280
     0
  1
Standard
  0
DICTIONARYVAR
  5
29E
102
{ACAD_REACTORS
330
37
102
}
330
37
100
DictionaryVariables
280
     0
  1
Standard
  0
DICTIONARYVAR
  5
38
102
{ACAD_REACTORS
330
37
102
}
330
37
100
DictionaryVariables
280
     0
  1
-1
  0
DICTIONARYVAR
  5
1CE
102
{ACAD_REACTORS
330
37
102
}
330
37
100
DictionaryVariables
280
     0
  1
2
  0
DICTIONARYVAR
  5
704E
102
{ACAD_REACTORS
330
37
102
}
330
37
100
DictionaryVariables
280
     0
  1
1
  0
DICTIONARYVAR
  5
D11A
102
{ACAD_REACTORS
330
37
102
}
330
37
100
DictionaryVariables
280
     0
  1
0
  0
DICTIONARYVAR
  5
7052
102
{ACAD_REACTORS
330
37
102
}
330
37
100
DictionaryVariables
280
     0
  1
8
  0
DICTIONARYVAR
  5
7051
102
{ACAD_REACTORS
330
37
102
}
330
37
100
DictionaryVariables
280
     0
  1
1
  0
DICTIONARYVAR
  5
14ED3
102
{ACAD_REACTORS
330
37
102
}
330
37
100
DictionaryVariables
280
     0
  1
0
  0
DICTIONARYVAR
  5
14ED4
102
{ACAD_REACTORS
330
37
102
}
330
37
100
DictionaryVariables
280
     0
  1
0
  0
DICTIONARYVAR
  5
15043
102
{ACAD_REACTORS
330
37
102
}
330
37
100
DictionaryVariables
280
     0
  1
0
  0
DICTIONARYVAR
  5
704F
102
{ACAD_REACTORS
330
37
102
}
330
37
100
DictionaryVariables
280
     0
  1
120
  0
DICTIONARYVAR
  5
7050
102
{ACAD_REACTORS
330
37
102
}
330
37
100
DictionaryVariables
280
     0
  1
0
  0
DICTIONARYVAR
  5
1CF
102
{ACAD_REACTORS
330
37
102
}
330
37
100
DictionaryVariables
280
     0
  1

  0
DICTIONARYVAR
  5
D119
102
{ACAD_REACTORS
330
37
102
}
330
37
100
DictionaryVariables
280
     0
  1
127
  0
DICTIONARYVAR
  5
14F76
102
{ACAD_REACTORS
330
37
102
}
330
37
100
DictionaryVariables
280
     0
  1
2
  0
DICTIONARY
  5
163B0
330
D05A
100
AcDbDictionary
  3
ACAD_XREC_ROUNDTRIP
360
163B1
1001
ACAD
1000
TREAT_AS_HARD
1070
     1
  0
DICTIONARY
  5
163B2
330
D052
100
AcDbDictionary
  3
ACAD_XREC_ROUNDTRIP
360
163B3
1001
ACAD
1000
TREAT_AS_HARD
1070
     1
  0
DICTIONARY
  5
163B4
330
D062
100
AcDbDictionary
  3
ACAD_XREC_ROUNDTRIP
360
163B5
1001
ACAD
1000
TREAT_AS_HARD
1070
     1
  0
XRECORD
  5
163B1
102
{ACAD_REACTORS
330
163B0
102
}
330
163B0
100
AcDbXrecord
102
MATERIAL
148
0.0
149
0.0
149
0.0
 93
        0
 94
      127
282
     0
 72
     0
 77
     0
171
     0
175
     0
179
     0
273
     0
  0
XRECORD
  5
163B3
102
{ACAD_REACTORS
330
163B2
102
}
330
163B2
100
AcDbXrecord
102
MATERIAL
148
0.0
149
0.0
149
0.0
 93
        0
 94
      127
282
     0
 72
     0
 77
     0
171
     0
175
     0
179
     0
273
     0
  0
XRECORD
  5
163B5
102
{ACAD_REACTORS
330
163B4
102
}
330
163B4
100
AcDbXrecord
102
MATERIAL
148
0.0
149
0.0
149
0.0
 93
        0
 94
      127
282
     0
 72
     0
 77
     0
171
     0
175
     0
179
     0
273
     0
  0
ENDSEC
  0
EOF
