  0
SECTION
  2
HEADER
  9
$ACADVER
  1
AC1009
  9
$DWGCODEPAGE
  3
ansi_932
  9
$INSBASE
 10
0.0
 20
0.0
 30
0.0
  9
$EXTMIN
 10
-339.4573306904534
 20
-324.418990222461
 30
0.0
  9
$EXTMAX
 10
281.8712278630821
 20
97.27031985030823
 30
0.0
  9
$LIMMIN
 10
0.0
 20
0.0
  9
$LIMMAX
 10
420.0
 20
297.0
  9
$ORTHOMODE
 70
     0
  9
$REGENMODE
 70
     1
  9
$FILLMODE
 70
     1
  9
$QTEXTMODE
 70
     0
  9
$MIRRTEXT
 70
     0
  9
$DRAGMODE
 70
     2
  9
$LTSCALE
 40
0.5
  9
$OSMODE
 70
  2351
  9
$ATTMODE
 70
     1
  9
$TEXTSIZE
 40
4.0
  9
$TRACEWID
 40
1.0
  9
$TEXTSTYLE
  7
STANDARD
  9
$CLAYER
  8
1TEXT
  9
$CELTYPE
  6
BYLAYER
  9
$CECOLOR
 62
   256
  9
$DIMSCALE
 40
1.0
  9
$DIMASZ
 40
2.0
  9
$DIMEXO
 40
0.0
  9
$DIMDLI
 40
7.0
  9
$DIMRND
 40
0.0
  9
$DIMDLE
 40
0.0
  9
$DIMEXE
 40
1.0
  9
$DIMTP
 40
0.0
  9
$DIMTM
 40
0.0
  9
$DIMTXT
 40
3.5
  9
$DIMCEN
 40
0.0
  9
$DIMTSZ
 40
0.0
  9
$DIMTOL
 70
     0
  9
$DIMLIM
 70
     0
  9
$DIMTIH
 70
     0
  9
$DIMTOH
 70
     0
  9
$DIMSE1
 70
     0
  9
$DIMSE2
 70
     0
  9
$DIMTAD
 70
     1
  9
$DIMZIN
 70
     8
  9
$DIMBLK
  1

  9
$DIMASO
 70
     1
  9
$DIMSHO
 70
     1
  9
$DIMPOST
  1
 
  9
$DIMAPOST
  1

  9
$DIMALT
 70
     0
  9
$DIMALTD
 70
     2
  9
$DIMALTF
 40
25.4
  9
$DIMLFAC
 40
1.0
  9
$DIMTOFL
 70
     1
  9
$DIMTVP
 40
0.0
  9
$DIMTIX
 70
     0
  9
$DIMSOXD
 70
     0
  9
$DIMSAH
 70
     1
  9
$DIMBLK1
  1
OPEN30
  9
$DIMBLK2
  1
OPEN30
  9
$DIMSTYLE
  2
NEWX10
  9
$DIMCLRD
 70
   256
  9
$DIMCLRE
 70
   256
  9
$DIMCLRT
 70
   201
  9
$DIMTFAC
 40
0.7
  9
$DIMGAP
 40
0.7
  9
$LUNITS
 70
     2
  9
$LUPREC
 70
     4
  9
$SKETCHINC
 40
1.0
  9
$FILLETRAD
 40
0.0
  9
$AUNITS
 70
     0
  9
$AUPREC
 70
     2
  9
$MENU
  1
acad
  9
$ELEVATION
 40
0.0
  9
$PELEVATION
 40
0.0
  9
$THICKNESS
 40
0.0
  9
$LIMCHECK
 70
     0
  9
$CHAMFERA
 40
10.0
  9
$CHAMFERB
 40
10.0
  9
$SKPOLY
 70
     0
  9
$TDCREATE
 40
2451318.621352917
  9
$TDUPDATE
 40
2457947.476506088
  9
$TDINDWG
 40
1.2053489815
  9
$TDUSRTIMER
 40
1.2053489815
  9
$USRTIMER
 70
     1
  9
$ANGBASE
 50
0.0
  9
$ANGDIR
 70
     0
  9
$PDMODE
 70
     0
  9
$PDSIZE
 40
0.0
  9
$PLINEWID
 40
0.0
  9
$COORDS
 70
     2
  9
$SPLFRAME
 70
     0
  9
$SPLINETYPE
 70
     6
  9
$SPLINESEGS
 70
     8
  9
$ATTDIA
 70
     0
  9
$ATTREQ
 70
     1
  9
$HANDLING
 70
     1
  9
$HANDSEED
  5
15161
  9
$SURFTAB1
 70
     6
  9
$SURFTAB2
 70
     6
  9
$SURFTYPE
 70
     6
  9
$SURFU
 70
     6
  9
$SURFV
 70
     6
  9
$UCSNAME
  2

  9
$UCSORG
 10
0.0
 20
0.0
 30
0.0
  9
$UCSXDIR
 10
1.0
 20
0.0
 30
0.0
  9
$UCSYDIR
 10
0.0
 20
1.0
 30
0.0
  9
$PUCSNAME
  2

  9
$PUCSORG
 10
0.0
 20
0.0
 30
0.0
  9
$PUCSXDIR
 10
1.0
 20
0.0
 30
0.0
  9
$PUCSYDIR
 10
0.0
 20
1.0
 30
0.0
  9
$USERI1
 70
     0
  9
$USERI2
 70
     0
  9
$USERI3
 70
     0
  9
$USERI4
 70
     0
  9
$USERI5
 70
     0
  9
$USERR1
 40
0.0
  9
$USERR2
 40
0.0
  9
$USERR3
 40
0.0
  9
$USERR4
 40
0.0
  9
$USERR5
 40
0.0
  9
$WORLDVIEW
 70
     1
  9
$SHADEDGE
 70
     3
  9
$SHADEDIF
 70
    70
  9
$TILEMODE
 70
     1
  9
$MAXACTVP
 70
    48
  9
$PLIMCHECK
 70
     0
  9
$PEXTMIN
 10
1.000000000000000E+20
 20
1.000000000000000E+20
 30
1.000000000000000E+20
  9
$PEXTMAX
 10
-1.000000000000000E+20
 20
-1.000000000000000E+20
 30
-1.000000000000000E+20
  9
$PLIMMIN
 10
0.0
 20
0.0
  9
$PLIMMAX
 10
420.0
 20
297.0
  9
$UNITMODE
 70
     0
  9
$VISRETAIN
 70
     1
  9
$PLINEGEN
 70
     0
  9
$PSLTSCALE
 70
     1
  0
ENDSEC
  0
SECTION
  2
TABLES
  0
TABLE
  2
VPORT
 70
     1
  0
VPORT
  2
*ACTIVE
 70
     0
 10
0.0
 20
0.0
 11
1.0
 21
1.0
 12
-28.79305141368565
 22
-113.5743351860764
 13
0.0
 23
0.0
 14
10.0
 24
10.0
 15
10.0
 25
10.0
 16
0.0
 26
0.0
 36
1.0
 17
0.0
 27
0.0
 37
0.0
 40
452.761153972868
 41
2.117924528301887
 42
50.0
 43
0.0
 44
0.0
 50
0.0
 51
0.0
 71
    16
 72
   100
 73
     1
 74
     1
 75
     0
 76
     0
 77
     0
 78
     0
  0
ENDTAB
  0
TABLE
  2
LTYPE
 70
    16
  0
LTYPE
  2
CONTINUOUS
 70
     0
  3
Solid line
 72
    65
 73
     0
 40
0.0
  0
LTYPE
  2
XREF1|CENTER2
 70
    48
  3
Center (.5x) ___ _ ___ _ ___ _ ___ _ ___ _ ___
 72
    65
 73
     4
 40
28.575
 49
19.05
 49
-3.175
 49
3.175
 49
-3.175
  0
LTYPE
  2
A3WAKUDAKE|CENTER2
 70
    48
  3
Center (.5x) ___ _ ___ _ ___ _ ___ _ ___ _ ___
 72
    65
 73
     4
 40
28.575
 49
19.05
 49
-3.175
 49
3.175
 49
-3.175
  0
LTYPE
  2
CENTER2
 70
     0
  3
Center (.5x) ___ _ ___ _ ___ _ ___ _ ___ _ ___
 72
    65
 73
     4
 40
28.575
 49
19.05
 49
-3.175
 49
3.175
 49
-3.175
  0
LTYPE
  2
PHANTOM2
 70
     0
  3
Phantom (0.5x) ___ _ _ ___ _ _ ___ _ _ ___ _ _
 72
    65
 73
     6
 40
31.75
 49
15.875
 49
-3.175
 49
3.175
 49
-3.175
 49
3.175
 49
-3.175
  0
ENDTAB
  0
TABLE
  2
LAYER
 70
    50
  0
LAYER
  2
0
 70
     0
 62
     7
  6
CONTINUOUS
  0
LAYER
  2
1CENTER
 70
     0
 62
     7
  6
CENTER2
  0
LAYER
  2
1TEXT
 70
     0
 62
     7
  6
CONTINUOUS
  0
LAYER
  2
01
 70
     0
 62
     1
  6
CONTINUOUS
  0
LAYER
  2
1DIM
 70
     0
 62
     7
  6
CONTINUOUS
  0
LAYER
  2
A3WAKUDAKE|THICK
 70
    48
 62
     7
  6
CONTINUOUS
  0
LAYER
  2
A3WAKUDAKE|POINT
 70
    48
 62
     7
  6
CONTINUOUS
  0
LAYER
  2
A3WAKUDAKE|1CENTER
 70
    48
 62
     7
  6
A3WAKUDAKE|CENTER2
  0
LAYER
  2
A3WAKUDAKE|0-6
 70
    48
 62
     7
  6
CONTINUOUS
  0
LAYER
  2
1PHANTOM
 70
     0
 62
     7
  6
PHANTOM2
  0
LAYER
  2
1TEXT2
 70
     0
 62
     7
  6
CONTINUOUS
  0
ENDTAB
  0
TABLE
  2
STYLE
 70
    21
  0
STYLE
  2
STANDARD
 70
     0
 40
0.0
 41
1.0
 50
0.0
 71
     0
 42
4.0
  3
txt.shx
  4
extfont.shx
  0
STYLE
  2
A3WAKUDAKE|STANDARD
 70
    48
 40
0.0
 41
1.0
 50
0.0
 71
     0
 42
4.0
  3
romans.shx
  4
extfont.shx
  0
STYLE
  2
XREF1|STANDARD
 70
    48
 40
0.0
 41
1.0
 50
0.0
 71
     0
 42
4.0
  3
romans.shx
  4
extfont.shx
  0
ENDTAB
  0
TABLE
  2
VIEW
 70
     0
  0
ENDTAB
  0
TABLE
  2
UCS
 70
     0
  0
ENDTAB
  0
TABLE
  2
APPID
 70
    16
  0
APPID
  2
ACAD
 70
     0
  0
APPID
  2
DRAWINGVARIABLESXDATA
 70
     0
  0
APPID
  2
CONTENTTABDATA
 70
     0
  0
APPID
  2
CONTENTCURRENTTAB
 70
     0
  0
APPID
  2
CONTENTBLOCKDESCRIPTION
 70
     0
  0
APPID
  2
CONTENTBLOCKICON
 70
     0
  0
APPID
  2
CONTENTLONGBLOCKNAME
 70
     0
  0
APPID
  2
ACAD_PSEXT
 70
     0
  0
APPID
  2
ACAD_MLEADERVER
 70
     0
  0
APPID
  2
ACAD_EXEMPT_FROM_CAD_STAND
 70
     0
  0
APPID
  2
ACAECLAYERSTANDARD
 70
     0
  0
APPID
  2
ACADANNOTATIVE
 70
     0
  0
APPID
  2
ACAD_NAV_VCDISPLAY
 70
     0
  0
APPID
  2
GRADIENTCOLOR1ACI
 70
     0
  0
APPID
  2
GRADIENTCOLOR2ACI
 70
     0
  0
APPID
  2
ACAD_DSTYLE_DIMRADIAL_EXTE
 70
     0
  0
ENDTAB
  0
TABLE
  2
DIMSTYLE
 70
     8
  0
DIMSTYLE
  2
NEWX10
 70
     0
  3
 
  4

  5

  6
OPEN30
  7
OPEN30
 40
1.0
 41
2.0
 42
0.0
 43
7.0
 44
1.0
 45
0.0
 46
0.0
 47
0.0
 48
0.0
140
3.5
141
0.0
142
0.0
143
25.4
144
1.0
145
0.0
146
0.7
147
0.7
 71
     0
 72
     0
 73
     0
 74
     0
 75
     0
 76
     0
 77
     1
 78
     8
170
     0
171
     2
172
     1
173
     1
174
     0
175
     0
176
   256
177
   256
178
   201
  0
ENDTAB
  0
ENDSEC
  0
SECTION
  2
BLOCKS
  0
BLOCK
  8
0
  2
$MODEL_SPACE
 70
     0
 10
0.0
 20
0.0
 30
0.0
  3
$MODEL_SPACE
  1

  0
ENDBLK
  5
1A
  8
0
  0
BLOCK
 67
     1
  8
0
  2
$PAPER_SPACE
 70
     0
 10
0.0
 20
0.0
 30
0.0
  3
$PAPER_SPACE
  1

  0
ENDBLK
  5
17
 67
     1
  8
0
  0
BLOCK
  8
0
  2
_OPEN30
 70
     0
 10
0.0
 20
0.0
 30
0.0
  3
_OPEN30
  1

  0
LINE
  5
44
  8
0
  6
BYBLOCK
 62
     0
 10
-1.0
 20
0.26794919
 30
0.0
 11
0.0
 21
0.0
 31
0.0
  0
LINE
  5
45
  8
0
  6
BYBLOCK
 62
     0
 10
0.0
 20
0.0
 30
0.0
 11
-1.0
 21
-0.26794919
 31
0.0
  0
LINE
  5
46
  8
0
  6
BYBLOCK
 62
     0
 10
0.0
 20
0.0
 30
0.0
 11
-1.0
 21
0.0
 31
0.0
  0
ENDBLK
  5
47
  8
0
  0
BLOCK
  8
0
  2
XREF1
 70
    36
 10
0.0
 20
0.0
 30
0.0
  3
XREF1
  1
D:\ACLT\FORMAT\KAWAJUN(9)図面用.dwg
  0
ENDBLK
  5
5D
  8
0
  0
BLOCK
  8
0
  2
A3WAKUDAKE
 70
   100
 10
0.0
 20
0.0
 30
0.0
  3
A3WAKUDAKE
  1
D:\ACLT\FORMAT\A3WAKUdake.dwg
  0
ENDBLK
  5
6A0
  8
0
  0
ENDSEC
  0
SECTION
  2
ENTITIES
  0
LINE
  5
FF2E
  8
01
 10
140.0646532072784
 20
-138.680426436835
 30
0.0
 11
140.0646532072784
 21
-160.8304264368364
 31
0.0
  0
LINE
  5
FF2F
  8
01
 10
140.0646532072784
 20
-141.1804264368357
 30
0.0
 11
140.0646532072784
 21
-158.8304264368351
 31
0.0
  0
TEXT
  5
FF39
  8
1TEXT
 10
1.87122786308214
 20
80.90444586129547
 30
0.0
 40
16.0
  1
SC-74W-X
  0
LINE
  5
FF3E
  8
01
 10
152.5646532072784
 20
-106.6022528515537
 30
0.0
 11
152.5646532072784
 21
-181.0586000221174
 31
0.0
  0
LINE
  5
FF3F
  8
01
 10
161.5646532072784
 20
-106.6022528515537
 30
0.0
 11
161.5646532072784
 21
-181.0586000221174
 31
0.0
  0
LINE
  5
FF40
  8
01
 10
140.0646532072784
 20
-106.6022528515537
 30
0.0
 11
140.0646532072784
 21
-181.0586000221174
 31
0.0
  0
LINE
  5
FF52
  8
01
 10
135.0646532072784
 20
-140.0786628424694
 30
0.0
 11
136.0646532072784
 21
-139.0786631424694
 31
0.0
  0
LINE
  5
FF53
  8
01
 10
135.0646532072784
 20
-143.3786629924693
 30
0.0
 11
136.0646532072784
 21
-143.3786629924693
 31
0.0
  0
LINE
  5
FF54
  8
01
 10
136.0646532072784
 20
-143.3786629924693
 30
0.0
 11
136.0646532072784
 21
-135.7786629924694
 31
0.0
  0
LINE
  5
FF55
  8
01
 10
135.0646532072784
 20
-143.3786629924693
 30
0.0
 11
135.0646532072784
 21
-135.7786629924694
 31
0.0
  0
LINE
  5
FF56
  8
01
 10
135.0646532072784
 20
-135.7786629924694
 30
0.0
 11
136.0646532072784
 21
-135.7786629924694
 31
0.0
  0
LINE
  5
FF5E
  8
01
 10
135.0646532072784
 20
-150.0786628424693
 30
0.0
 11
136.0646532072784
 21
-149.0786631424693
 31
0.0
  0
LINE
  5
FF5F
  8
01
 10
135.0646532072784
 20
-153.3786629924693
 30
0.0
 11
136.0646532072784
 21
-153.3786629924693
 31
0.0
  0
LINE
  5
FF60
  8
01
 10
136.0646532072784
 20
-153.3786629924693
 30
0.0
 11
136.0646532072784
 21
-145.7786629924694
 31
0.0
  0
LINE
  5
FF61
  8
01
 10
135.0646532072784
 20
-153.3786629924693
 30
0.0
 11
135.0646532072784
 21
-145.7786629924694
 31
0.0
  0
LINE
  5
FF62
  8
01
 10
135.0646532072784
 20
-145.7786629924694
 30
0.0
 11
136.0646532072784
 21
-145.7786629924694
 31
0.0
  0
CIRCLE
  5
10261
  8
1PHANTOM
 10
42.25276510019786
 20
-232.2105964647011
 30
0.0
 40
18.5
  0
CIRCLE
  5
10262
  8
1PHANTOM
 10
42.25276510019786
 20
-232.2105964647011
 30
0.0
 40
57.5
  0
LINE
  5
10263
  8
1PHANTOM
 10
-211.9573306815786
 20
-174.710596464701
 30
0.0
 11
-211.957330681579
 21
-289.7105964647011
 31
0.0
  0
LINE
  5
10264
  8
1PHANTOM
 10
-325.9573306815786
 20
-174.710596464701
 30
0.0
 11
-325.9573306815781
 21
-289.7105964647011
 31
0.0
  0
LINE
  5
10265
  8
1PHANTOM
 10
-211.9573306815786
 20
-174.710596464701
 30
0.0
 11
-325.9573306815786
 21
-174.710596464701
 31
0.0
  0
LINE
  5
10266
  8
1PHANTOM
 10
-211.957330681579
 20
-289.7105964647011
 30
0.0
 11
-325.9573306815781
 21
-289.7105964647011
 31
0.0
  0
POLYLINE
  5
126E2
  8
01
 10
0.0
 20
0.0
 30
0.0
 66
     1
 70
     8
  0
VERTEX
  5
149B1
  8
01
 10
-163.9573311677178
 20
46.16957356316448
 30
0.0
 70
    32
  0
VERTEX
  5
149B2
  8
01
 10
-163.9573311677178
 20
46.13832356316448
 30
0.0
 70
    32
  0
VERTEX
  5
149B3
  8
01
 10
-163.9573311677178
 20
46.10707356316448
 30
0.0
 70
    32
  0
VERTEX
  5
149B4
  8
01
 10
-163.9573311677178
 20
46.07582356316448
 30
0.0
 70
    32
  0
VERTEX
  5
149B5
  8
01
 10
-163.9573311677178
 20
46.04457356316448
 30
0.0
 70
    32
  0
VERTEX
  5
149B6
  8
01
 10
-163.9573311677178
 20
46.01332356316448
 30
0.0
 70
    32
  0
VERTEX
  5
149B7
  8
01
 10
-163.9573311677178
 20
45.98207356316448
 30
0.0
 70
    32
  0
VERTEX
  5
149B8
  8
01
 10
-163.9573311677178
 20
45.95082356316448
 30
0.0
 70
    32
  0
VERTEX
  5
149B9
  8
01
 10
-163.9573311677178
 20
45.91957356316448
 30
0.0
 70
    32
  0
VERTEX
  5
149BA
  8
01
 10
-163.9573311677178
 20
45.88832356316448
 30
0.0
 70
    32
  0
VERTEX
  5
149BB
  8
01
 10
-163.9573311677178
 20
45.85707356316448
 30
0.0
 70
    32
  0
VERTEX
  5
149BC
  8
01
 10
-163.9573311677178
 20
45.82582356316448
 30
0.0
 70
    32
  0
VERTEX
  5
149BD
  8
01
 10
-163.9573311677178
 20
45.79457356316448
 30
0.0
 70
    32
  0
VERTEX
  5
149BE
  8
01
 10
-163.9573311677178
 20
45.76332356316448
 30
0.0
 70
    32
  0
VERTEX
  5
149BF
  8
01
 10
-163.9573311677178
 20
45.73207356316448
 30
0.0
 70
    32
  0
VERTEX
  5
149C0
  8
01
 10
-163.9573311677178
 20
45.70082356316448
 30
0.0
 70
    32
  0
VERTEX
  5
149C1
  8
01
 10
-163.9573311677178
 20
45.66957356316447
 30
0.0
 70
    32
  0
SEQEND
  5
150F1
  8
01
  0
POLYLINE
  5
126E5
  8
01
 10
0.0
 20
0.0
 30
0.0
 66
     1
 70
     8
  0
VERTEX
  5
149C2
  8
01
 10
-228.9573311677178
 20
45.66957356316448
 30
0.0
 70
    32
  0
VERTEX
  5
149C3
  8
01
 10
-228.9573311677178
 20
45.70082356316448
 30
0.0
 70
    32
  0
VERTEX
  5
149C4
  8
01
 10
-228.9573311677178
 20
45.73207356316448
 30
0.0
 70
    32
  0
VERTEX
  5
149C5
  8
01
 10
-228.9573311677178
 20
45.76332356316448
 30
0.0
 70
    32
  0
VERTEX
  5
149C6
  8
01
 10
-228.9573311677178
 20
45.79457356316448
 30
0.0
 70
    32
  0
VERTEX
  5
149C7
  8
01
 10
-228.9573311677178
 20
45.82582356316448
 30
0.0
 70
    32
  0
VERTEX
  5
149C8
  8
01
 10
-228.9573311677178
 20
45.85707356316448
 30
0.0
 70
    32
  0
VERTEX
  5
149C9
  8
01
 10
-228.9573311677178
 20
45.88832356316448
 30
0.0
 70
    32
  0
VERTEX
  5
149CA
  8
01
 10
-228.9573311677178
 20
45.91957356316448
 30
0.0
 70
    32
  0
VERTEX
  5
149CB
  8
01
 10
-228.9573311677178
 20
45.95082356316448
 30
0.0
 70
    32
  0
VERTEX
  5
149CC
  8
01
 10
-228.9573311677178
 20
45.98207356316448
 30
0.0
 70
    32
  0
VERTEX
  5
149CD
  8
01
 10
-228.9573311677178
 20
46.01332356316448
 30
0.0
 70
    32
  0
VERTEX
  5
149CE
  8
01
 10
-228.9573311677178
 20
46.04457356316448
 30
0.0
 70
    32
  0
VERTEX
  5
149CF
  8
01
 10
-228.9573311677178
 20
46.07582356316448
 30
0.0
 70
    32
  0
VERTEX
  5
149D0
  8
01
 10
-228.9573311677178
 20
46.10707356316448
 30
0.0
 70
    32
  0
VERTEX
  5
149D1
  8
01
 10
-228.9573311677178
 20
46.13832356316448
 30
0.0
 70
    32
  0
VERTEX
  5
149D2
  8
01
 10
-228.9573311677178
 20
46.16957356316448
 30
0.0
 70
    32
  0
SEQEND
  5
150F2
  8
01
  0
POLYLINE
  5
126E6
  8
01
 10
0.0
 20
0.0
 30
0.0
 66
     1
 70
     8
  0
VERTEX
  5
149D3
  8
01
 10
-167.4573311677178
 20
42.16957356316448
 30
0.0
 70
    32
  0
VERTEX
  5
149D4
  8
01
 10
-167.4573311677178
 20
42.13832356316448
 30
0.0
 70
    32
  0
VERTEX
  5
149D5
  8
01
 10
-167.4573311677178
 20
42.10707356316448
 30
0.0
 70
    32
  0
VERTEX
  5
149D6
  8
01
 10
-167.4573311677178
 20
42.07582356316448
 30
0.0
 70
    32
  0
VERTEX
  5
149D7
  8
01
 10
-167.4573311677178
 20
42.04457356316448
 30
0.0
 70
    32
  0
VERTEX
  5
149D8
  8
01
 10
-167.4573311677178
 20
42.01332356316448
 30
0.0
 70
    32
  0
VERTEX
  5
149D9
  8
01
 10
-167.4573311677178
 20
41.98207356316448
 30
0.0
 70
    32
  0
VERTEX
  5
149DA
  8
01
 10
-167.4573311677178
 20
41.95082356316448
 30
0.0
 70
    32
  0
VERTEX
  5
149DB
  8
01
 10
-167.4573311677178
 20
41.91957356316448
 30
0.0
 70
    32
  0
VERTEX
  5
149DC
  8
01
 10
-167.4573311677178
 20
41.88832356316448
 30
0.0
 70
    32
  0
VERTEX
  5
149DD
  8
01
 10
-167.4573311677178
 20
41.85707356316448
 30
0.0
 70
    32
  0
VERTEX
  5
149DE
  8
01
 10
-167.4573311677178
 20
41.82582356316448
 30
0.0
 70
    32
  0
VERTEX
  5
149DF
  8
01
 10
-167.4573311677178
 20
41.79457356316448
 30
0.0
 70
    32
  0
VERTEX
  5
149E0
  8
01
 10
-167.4573311677178
 20
41.76332356316448
 30
0.0
 70
    32
  0
VERTEX
  5
149E1
  8
01
 10
-167.4573311677178
 20
41.73207356316448
 30
0.0
 70
    32
  0
VERTEX
  5
149E2
  8
01
 10
-167.4573311677178
 20
41.70082356316448
 30
0.0
 70
    32
  0
VERTEX
  5
149E3
  8
01
 10
-167.4573311677178
 20
41.66957356316447
 30
0.0
 70
    32
  0
SEQEND
  5
150F3
  8
01
  0
POLYLINE
  5
126E8
  8
01
 10
0.0
 20
0.0
 30
0.0
 66
     1
 70
     8
  0
VERTEX
  5
149E4
  8
01
 10
-225.4573311677178
 20
41.66957356316448
 30
0.0
 70
    32
  0
VERTEX
  5
149E5
  8
01
 10
-225.4573311677178
 20
41.70082356316448
 30
0.0
 70
    32
  0
VERTEX
  5
149E6
  8
01
 10
-225.4573311677178
 20
41.73207356316448
 30
0.0
 70
    32
  0
VERTEX
  5
149E7
  8
01
 10
-225.4573311677178
 20
41.76332356316448
 30
0.0
 70
    32
  0
VERTEX
  5
149E8
  8
01
 10
-225.4573311677178
 20
41.79457356316448
 30
0.0
 70
    32
  0
VERTEX
  5
149E9
  8
01
 10
-225.4573311677178
 20
41.82582356316448
 30
0.0
 70
    32
  0
VERTEX
  5
149EA
  8
01
 10
-225.4573311677178
 20
41.85707356316448
 30
0.0
 70
    32
  0
VERTEX
  5
149EB
  8
01
 10
-225.4573311677178
 20
41.88832356316448
 30
0.0
 70
    32
  0
VERTEX
  5
149EC
  8
01
 10
-225.4573311677178
 20
41.91957356316448
 30
0.0
 70
    32
  0
VERTEX
  5
149ED
  8
01
 10
-225.4573311677178
 20
41.95082356316448
 30
0.0
 70
    32
  0
VERTEX
  5
149EE
  8
01
 10
-225.4573311677178
 20
41.98207356316448
 30
0.0
 70
    32
  0
VERTEX
  5
149EF
  8
01
 10
-225.4573311677178
 20
42.01332356316448
 30
0.0
 70
    32
  0
VERTEX
  5
149F0
  8
01
 10
-225.4573311677178
 20
42.04457356316448
 30
0.0
 70
    32
  0
VERTEX
  5
149F1
  8
01
 10
-225.4573311677178
 20
42.07582356316448
 30
0.0
 70
    32
  0
VERTEX
  5
149F2
  8
01
 10
-225.4573311677178
 20
42.10707356316448
 30
0.0
 70
    32
  0
VERTEX
  5
149F3
  8
01
 10
-225.4573311677178
 20
42.13832356316448
 30
0.0
 70
    32
  0
VERTEX
  5
149F4
  8
01
 10
-225.4573311677178
 20
42.16957356316448
 30
0.0
 70
    32
  0
SEQEND
  5
150F4
  8
01
  0
POLYLINE
  5
126EA
  8
01
 66
     1
 10
0.0
 20
0.0
 30
0.0
  0
VERTEX
  5
149F5
  8
01
 10
-197.1572897672137
 20
-1.381414089564487
 30
0.0
  0
VERTEX
  5
149F6
  8
01
 10
-197.1123656943783
 20
-1.383439134955453
 30
0.0
  0
VERTEX
  5
149F7
  8
01
 10
-197.0663150026326
 20
-1.389765954701395
 30
0.0
  0
VERTEX
  5
149F8
  8
01
 10
-197.0197214291205
 20
-1.400720646041849
 30
0.0
  0
VERTEX
  5
149F9
  8
01
 10
-196.9732574721429
 20
-1.416526799768794
 30
0.0
  0
VERTEX
  5
149FA
  8
01
 10
-196.9276619654555
 20
-1.4372790397047
 30
0.0
  0
VERTEX
  5
149FB
  8
01
 10
-196.8837088063588
 20
-1.462922612518442
 30
0.0
  0
VERTEX
  5
149FC
  8
01
 10
-196.8421688589044
 20
-1.493242338520616
 30
0.0
  0
VERTEX
  5
149FD
  8
01
 10
-196.8037684247683
 20
-1.527863396872299
 30
0.0
  0
VERTEX
  5
149FE
  8
01
 10
-196.7691486235164
 20
-1.566264964346994
 30
0.0
  0
VERTEX
  5
149FF
  8
01
 10
-196.7388302573872
 20
-1.607805904329517
 30
0.0
  0
VERTEX
  5
14A00
  8
01
 10
-196.7131881234432
 20
-1.651759902873744
 30
0.0
  0
VERTEX
  5
14A01
  8
01
 10
-196.6924373761385
 20
-1.697356088884555
 30
0.0
  0
VERTEX
  5
14A02
  8
01
 10
-196.6766327434698
 20
-1.743820563269513
 30
0.0
  0
VERTEX
  5
14A03
  8
01
 10
-196.6656795774281
 20
-1.790414495370789
 30
0.0
  0
VERTEX
  5
14A04
  8
01
 10
-196.6593542652066
 20
-1.83646539420728
 30
0.0
  0
VERTEX
  5
14A05
  8
01
 10
-196.6573306904567
 20
-1.881389533310766
 30
0.0
  0
SEQEND
  5
150F5
  8
01
  0
POLYLINE
  5
126EB
  8
01
 66
     1
 10
0.0
 20
0.0
 30
0.0
  0
VERTEX
  5
14A06
  8
01
 10
-196.6573306912197
 20
-53.76525969263389
 30
0.0
  0
VERTEX
  5
14A07
  8
01
 10
-196.6593553528116
 20
-53.81018581639562
 30
0.0
  0
VERTEX
  5
14A08
  8
01
 10
-196.6656820524756
 20
-53.8562387061458
 30
0.0
  0
VERTEX
  5
14A09
  8
01
 10
-196.6766369288873
 20
-53.90283458133857
 30
0.0
  0
VERTEX
  5
14A0A
  8
01
 10
-196.6924436055407
 20
-53.94930088787844
 30
0.0
  0
VERTEX
  5
14A0B
  8
01
 10
-196.7131967260907
 20
-53.99489872594725
 30
0.0
  0
VERTEX
  5
14A0C
  8
01
 10
-196.7388415406707
 20
-54.03885412558915
 30
0.0
  0
VERTEX
  5
14A0D
  8
01
 10
-196.7691628544736
 20
-54.08039614848616
 30
0.0
  0
VERTEX
  5
14A0E
  8
01
 10
-196.8037858125613
 20
-54.11879842283144
 30
0.0
  0
VERTEX
  5
14A0F
  8
01
 10
-196.8421895403023
 20
-54.15341976880798
 30
0.0
  0
VERTEX
  5
14A10
  8
01
 10
-196.8837328360144
 20
-54.18373933870072
 30
0.0
  0
VERTEX
  5
14A11
  8
01
 10
-196.9276893121556
 20
-54.20938230806405
 30
0.0
  0
VERTEX
  5
14A12
  8
01
 10
-196.9732880213748
 20
-54.23013351445412
 30
0.0
  0
VERTEX
  5
14A13
  8
01
 10
-197.0197549914188
 20
-54.24593824049463
 30
0.0
  0
VERTEX
  5
14A14
  8
01
 10
-197.0663513264428
 20
-54.25689116085866
 30
0.0
  0
VERTEX
  5
14A15
  8
01
 10
-197.1124044817394
 20
-54.26321592727287
 30
0.0
  0
VERTEX
  5
14A16
  8
01
 10
-197.1573306904544
 20
-54.26523870291909
 30
0.0
  0
SEQEND
  5
150F6
  8
01
  0
POLYLINE
  5
126EC
  8
01
 10
0.0
 20
0.0
 30
0.0
 66
     1
 70
     8
  0
VERTEX
  5
14A17
  8
01
 10
-197.1573306904544
 20
-54.26524720000793
 30
0.0
 70
    32
  0
VERTEX
  5
14A18
  8
01
 10
-197.2205056277993
 20
-54.26524720000793
 30
0.0
 70
    32
  0
VERTEX
  5
14A19
  8
01
 10
-197.2836805651442
 20
-54.26524720000793
 30
0.0
 70
    32
  0
VERTEX
  5
14A1A
  8
01
 10
-197.346855502489
 20
-54.26524720000793
 30
0.0
 70
    32
  0
VERTEX
  5
14A1B
  8
01
 10
-197.4100304398339
 20
-54.26524720000793
 30
0.0
 70
    32
  0
VERTEX
  5
14A1C
  8
01
 10
-197.4732053771788
 20
-54.26524720000793
 30
0.0
 70
    32
  0
VERTEX
  5
14A1D
  8
01
 10
-197.5363803145237
 20
-54.26524720000793
 30
0.0
 70
    32
  0
VERTEX
  5
14A1E
  8
01
 10
-197.5995552518685
 20
-54.26524720000793
 30
0.0
 70
    32
  0
VERTEX
  5
14A1F
  8
01
 10
-197.6627301892134
 20
-54.26524720000793
 30
0.0
 70
    32
  0
VERTEX
  5
14A20
  8
01
 10
-197.7259051265584
 20
-54.26524720000793
 30
0.0
 70
    32
  0
VERTEX
  5
14A21
  8
01
 10
-197.7890800639032
 20
-54.26524720000793
 30
0.0
 70
    32
  0
VERTEX
  5
14A22
  8
01
 10
-197.8522550012481
 20
-54.26524720000793
 30
0.0
 70
    32
  0
VERTEX
  5
14A23
  8
01
 10
-197.915429938593
 20
-54.26524720000793
 30
0.0
 70
    32
  0
VERTEX
  5
14A24
  8
01
 10
-197.9786048759379
 20
-54.26524720000793
 30
0.0
 70
    32
  0
VERTEX
  5
14A25
  8
01
 10
-198.0417798132827
 20
-54.26524720000793
 30
0.0
 70
    32
  0
VERTEX
  5
14A26
  8
01
 10
-198.1049547506276
 20
-54.26524720000793
 30
0.0
 70
    32
  0
VERTEX
  5
14A27
  8
01
 10
-198.1681296879725
 20
-54.26524720000793
 30
0.0
 70
    32
  0
VERTEX
  5
14A28
  8
01
 10
-198.2313046253174
 20
-54.26524720000793
 30
0.0
 70
    32
  0
VERTEX
  5
14A29
  8
01
 10
-198.2944795626623
 20
-54.26524720000793
 30
0.0
 70
    32
  0
VERTEX
  5
14A2A
  8
01
 10
-198.3576545000071
 20
-54.26524720000793
 30
0.0
 70
    32
  0
VERTEX
  5
14A2B
  8
01
 10
-198.420829437352
 20
-54.26524720000793
 30
0.0
 70
    32
  0
VERTEX
  5
14A2C
  8
01
 10
-198.484004374697
 20
-54.26524720000793
 30
0.0
 70
    32
  0
VERTEX
  5
14A2D
  8
01
 10
-198.5471793120418
 20
-54.26524720000793
 30
0.0
 70
    32
  0
VERTEX
  5
14A2E
  8
01
 10
-198.6103542493867
 20
-54.26524720000793
 30
0.0
 70
    32
  0
VERTEX
  5
14A2F
  8
01
 10
-198.6735291867316
 20
-54.26524720000793
 30
0.0
 70
    32
  0
VERTEX
  5
14A30
  8
01
 10
-198.7367041240765
 20
-54.26524720000793
 30
0.0
 70
    32
  0
VERTEX
  5
14A31
  8
01
 10
-198.7998790614213
 20
-54.26524720000793
 30
0.0
 70
    32
  0
VERTEX
  5
14A32
  8
01
 10
-198.8630539987662
 20
-54.26524720000793
 30
0.0
 70
    32
  0
VERTEX
  5
14A33
  8
01
 10
-198.9262289361111
 20
-54.26524720000793
 30
0.0
 70
    32
  0
VERTEX
  5
14A34
  8
01
 10
-198.989403873456
 20
-54.26524720000793
 30
0.0
 70
    32
  0
VERTEX
  5
14A35
  8
01
 10
-199.0525788108009
 20
-54.26524720000793
 30
0.0
 70
    32
  0
VERTEX
  5
14A36
  8
01
 10
-199.1157537481457
 20
-54.26524720000793
 30
0.0
 70
    32
  0
VERTEX
  5
14A37
  8
01
 10
-199.1789286854906
 20
-54.26524720000793
 30
0.0
 70
    32
  0
SEQEND
  5
150F7
  8
01
  0
POLYLINE
  5
126EE
  8
01
 66
     1
 10
0.0
 20
0.0
 30
0.0
  0
VERTEX
  5
14A38
  8
01
 10
-196.2573306593277
 20
-1.881389541787712
 30
0.0
  0
VERTEX
  5
14A39
  8
01
 10
-196.255306918023
 20
-1.836465417714858
 30
0.0
  0
VERTEX
  5
14A3A
  8
01
 10
-196.2489814556484
 20
-1.790414562461826
 30
0.0
  0
VERTEX
  5
14A3B
  8
01
 10
-196.2380281630953
 20
-1.743820698605506
 30
0.0
  0
VERTEX
  5
14A3C
  8
01
 10
-196.2222234338771
 20
-1.69735631105652
 30
0.0
  0
VERTEX
  5
14A3D
  8
01
 10
-196.2014726246375
 20
-1.651760222468562
 30
0.0
  0
VERTEX
  5
14A3E
  8
01
 10
-196.1758304656893
 20
-1.607806322531194
 30
0.0
  0
VERTEX
  5
14A3F
  8
01
 10
-196.1455121110029
 20
-1.566265472328694
 30
0.0
  0
VERTEX
  5
14A40
  8
01
 10
-196.1108923542034
 20
-1.527863976142202
 30
0.0
  0
VERTEX
  5
14A41
  8
01
 10
-196.0724919913542
 20
-1.493242962245056
 30
0.0
  0
VERTEX
  5
14A42
  8
01
 10
-196.0309521336795
 20
-1.462923247688342
 30
0.0
  0
VERTEX
  5
14A43
  8
01
 10
-195.9869990731906
 20
-1.43727964987348
 30
0.0
  0
VERTEX
  5
14A44
  8
01
 10
-195.9414036639283
 20
-1.416527348005624
 30
0.0
  0
VERTEX
  5
14A45
  8
01
 10
-195.8949397937898
 20
-1.400721097731864
 30
0.0
  0
VERTEX
  5
14A46
  8
01
 10
-195.8483462885268
 20
-1.389766279882003
 30
0.0
  0
VERTEX
  5
14A47
  8
01
 10
-195.8022956403696
 20
-1.383439309984176
 30
0.0
  0
VERTEX
  5
14A48
  8
01
 10
-195.7573715825702
 20
-1.381414098038704
 30
0.0
  0
SEQEND
  5
150F8
  8
01
  0
POLYLINE
  5
126EF
  8
01
 66
     1
 10
0.0
 20
0.0
 30
0.0
  0
VERTEX
  5
14A49
  8
01
 10
-195.7573306593296
 20
-54.26523871139284
 30
0.0
  0
VERTEX
  5
14A4A
  8
01
 10
-195.8022580394433
 20
-54.26321579807876
 30
0.0
  0
VERTEX
  5
14A4B
  8
01
 10
-195.8483124649323
 20
-54.25689065511882
 30
0.0
  0
VERTEX
  5
14A4C
  8
01
 10
-195.8949101217628
 20
-54.2459370805307
 30
0.0
  0
VERTEX
  5
14A4D
  8
01
 10
-195.9413784047666
 20
-54.23013139434072
 30
0.0
  0
VERTEX
  5
14A4E
  8
01
 10
-195.9869783471204
 20
-54.2093789089618
 30
0.0
  0
VERTEX
  5
14A4F
  8
01
 10
-196.0309358997155
 20
-54.18373434809679
 30
0.0
  0
VERTEX
  5
14A50
  8
01
 10
-196.0724800386493
 20
-54.15341290197854
 30
0.0
  0
VERTEX
  5
14A51
  8
01
 10
-196.110884307119
 20
-54.11878944419867
 30
0.0
  0
VERTEX
  5
14A52
  8
01
 10
-196.1455074482615
 20
-54.08038489026622
 30
0.0
  0
VERTEX
  5
14A53
  8
01
 10
-196.1758285518549
 20
-54.03884050133901
 30
0.0
  0
VERTEX
  5
14A54
  8
01
 10
-196.2014727502971
 20
-53.99488273731066
 30
0.0
  0
VERTEX
  5
14A55
  8
01
 10
-196.2222248597121
 20
-53.94928262385798
 30
0.0
  0
VERTEX
  5
14A56
  8
01
 10
-196.2380301627791
 20
-53.90281421054062
 30
0.0
  0
VERTEX
  5
14A57
  8
01
 10
-196.2489833531777
 20
-53.85621646340147
 30
0.0
  0
VERTEX
  5
14A58
  8
01
 10
-196.2553081164272
 20
-53.81016198576433
 30
0.0
  0
VERTEX
  5
14A59
  8
01
 10
-196.2573306593231
 20
-53.76523458897349
 30
0.0
  0
SEQEND
  5
150F9
  8
01
  0
POLYLINE
  5
126F0
  8
01
 66
     1
 10
0.0
 20
0.0
 30
0.0
  0
VERTEX
  5
14A5A
  8
01
 10
-195.7573400869184
 20
-1.381414096590333
 30
0.0
  0
VERTEX
  5
14A5B
  8
01
 10
-195.4887271920852
 20
-1.381414107490167
 30
0.0
  0
VERTEX
  5
14A5C
  8
01
 10
-195.220114297252
 20
-1.381414138589754
 30
0.0
  0
VERTEX
  5
14A5D
  8
01
 10
-194.9515014024188
 20
-1.381414189889094
 30
0.0
  0
VERTEX
  5
14A5E
  8
01
 10
-194.6828885075857
 20
-1.381414261388187
 30
0.0
  0
VERTEX
  5
14A5F
  8
01
 10
-194.4142756127525
 20
-1.381414353087033
 30
0.0
  0
VERTEX
  5
14A60
  8
01
 10
-194.1456627179193
 20
-1.381414464985632
 30
0.0
  0
VERTEX
  5
14A61
  8
01
 10
-193.8770498230861
 20
-1.381414597083984
 30
0.0
  0
VERTEX
  5
14A62
  8
01
 10
-193.608436928253
 20
-1.381414749382088
 30
0.0
  0
VERTEX
  5
14A63
  8
01
 10
-193.3398240334199
 20
-1.381414921879946
 30
0.0
  0
VERTEX
  5
14A64
  8
01
 10
-193.0712111385867
 20
-1.381415114577557
 30
0.0
  0
VERTEX
  5
14A65
  8
01
 10
-192.8025982437536
 20
-1.38141532747492
 30
0.0
  0
VERTEX
  5
14A66
  8
01
 10
-192.5339853489205
 20
-1.381415560572038
 30
0.0
  0
VERTEX
  5
14A67
  8
01
 10
-192.2653724540874
 20
-1.381415813868907
 30
0.0
  0
VERTEX
  5
14A68
  8
01
 10
-191.9967595592544
 20
-1.38141608736553
 30
0.0
  0
VERTEX
  5
14A69
  8
01
 10
-191.7281466644214
 20
-1.381416381061905
 30
0.0
  0
VERTEX
  5
14A6A
  8
01
 10
-191.4595337695883
 20
-1.381416694958034
 30
0.0
  0
SEQEND
  5
150FA
  8
01
  0
POLYLINE
  5
126F1
  8
01
 10
0.0
 20
0.0
 30
0.0
 66
     1
 70
     8
  0
VERTEX
  5
14A6B
  8
01
 10
-201.4572574450314
 20
-55.04816380691841
 30
0.0
 70
    32
  0
VERTEX
  5
14A6C
  8
01
 10
-209.8947574449377
 20
-55.04816380691869
 30
0.0
 70
    32
  0
VERTEX
  5
14A6D
  8
01
 10
-218.3322574448441
 20
-55.04816380691898
 30
0.0
 70
    32
  0
VERTEX
  5
14A6E
  8
01
 10
-226.7697574447505
 20
-55.04816380691926
 30
0.0
 70
    32
  0
VERTEX
  5
14A6F
  8
01
 10
-235.2072574446569
 20
-55.04816380691955
 30
0.0
 70
    32
  0
VERTEX
  5
14A70
  8
01
 10
-243.6447574445633
 20
-55.04816380691983
 30
0.0
 70
    32
  0
VERTEX
  5
14A71
  8
01
 10
-252.0822574444696
 20
-55.04816380692012
 30
0.0
 70
    32
  0
VERTEX
  5
14A72
  8
01
 10
-260.519757444376
 20
-55.0481638069204
 30
0.0
 70
    32
  0
VERTEX
  5
14A73
  8
01
 10
-268.9572574442824
 20
-55.04816380692068
 30
0.0
 70
    32
  0
VERTEX
  5
14A74
  8
01
 10
-277.3947574441888
 20
-55.04816380692097
 30
0.0
 70
    32
  0
VERTEX
  5
14A75
  8
01
 10
-285.8322574440951
 20
-55.04816380692125
 30
0.0
 70
    32
  0
VERTEX
  5
14A76
  8
01
 10
-294.2697574440015
 20
-55.04816380692154
 30
0.0
 70
    32
  0
VERTEX
  5
14A77
  8
01
 10
-302.7072574439079
 20
-55.04816380692182
 30
0.0
 70
    32
  0
VERTEX
  5
14A78
  8
01
 10
-311.1447574438142
 20
-55.0481638069221
 30
0.0
 70
    32
  0
VERTEX
  5
14A79
  8
01
 10
-319.5822574437207
 20
-55.04816380692239
 30
0.0
 70
    32
  0
VERTEX
  5
14A7A
  8
01
 10
-328.0197574436271
 20
-55.04816380692267
 30
0.0
 70
    32
  0
VERTEX
  5
14A7B
  8
01
 10
-336.4572574435334
 20
-55.04816380692296
 30
0.0
 70
    32
  0
SEQEND
  5
150FB
  8
01
  0
POLYLINE
  5
126F2
  8
01
 10
0.0
 20
0.0
 30
0.0
 66
     1
 70
     8
  0
VERTEX
  5
14A7C
  8
01
 10
-143.3574758108908
 20
6.182513426774449
 30
0.0
 70
    32
  0
VERTEX
  5
14A7D
  8
01
 10
-143.2324758108909
 20
6.182513426774449
 30
0.0
 70
    32
  0
VERTEX
  5
14A7E
  8
01
 10
-143.1074758108911
 20
6.182513426774449
 30
0.0
 70
    32
  0
VERTEX
  5
14A7F
  8
01
 10
-142.9824758108911
 20
6.182513426774449
 30
0.0
 70
    32
  0
VERTEX
  5
14A80
  8
01
 10
-142.8574758108913
 20
6.182513426774449
 30
0.0
 70
    32
  0
VERTEX
  5
14A81
  8
01
 10
-142.7324758108913
 20
6.182513426774449
 30
0.0
 70
    32
  0
VERTEX
  5
14A82
  8
01
 10
-142.6074758108915
 20
6.182513426774449
 30
0.0
 70
    32
  0
VERTEX
  5
14A83
  8
01
 10
-142.4824758108915
 20
6.182513426774449
 30
0.0
 70
    32
  0
VERTEX
  5
14A84
  8
01
 10
-142.3574758108916
 20
6.182513426774449
 30
0.0
 70
    32
  0
VERTEX
  5
14A85
  8
01
 10
-142.2324758108917
 20
6.182513426774449
 30
0.0
 70
    32
  0
VERTEX
  5
14A86
  8
01
 10
-142.1074758108918
 20
6.182513426774449
 30
0.0
 70
    32
  0
VERTEX
  5
14A87
  8
01
 10
-141.9824758108919
 20
6.182513426774449
 30
0.0
 70
    32
  0
VERTEX
  5
14A88
  8
01
 10
-141.8574758108919
 20
6.182513426774449
 30
0.0
 70
    32
  0
VERTEX
  5
14A89
  8
01
 10
-141.732475810892
 20
6.182513426774449
 30
0.0
 70
    32
  0
VERTEX
  5
14A8A
  8
01
 10
-141.6074758108921
 20
6.182513426774449
 30
0.0
 70
    32
  0
VERTEX
  5
14A8B
  8
01
 10
-141.4824758108921
 20
6.182513426774449
 30
0.0
 70
    32
  0
VERTEX
  5
14A8C
  8
01
 10
-141.3574758108922
 20
6.182513426774449
 30
0.0
 70
    32
  0
SEQEND
  5
150FC
  8
01
  0
POLYLINE
  5
126F3
  8
01
 10
0.0
 20
0.0
 30
0.0
 66
     1
 70
     8
  0
VERTEX
  5
14A8D
  8
01
 10
-106.557475810892
 20
6.182513426774449
 30
0.0
 70
    32
  0
VERTEX
  5
14A8E
  8
01
 10
-106.432475810892
 20
6.182513426774449
 30
0.0
 70
    32
  0
VERTEX
  5
14A8F
  8
01
 10
-106.3074758108919
 20
6.182513426774449
 30
0.0
 70
    32
  0
VERTEX
  5
14A90
  8
01
 10
-106.1824758108918
 20
6.182513426774449
 30
0.0
 70
    32
  0
VERTEX
  5
14A91
  8
01
 10
-106.0574758108918
 20
6.182513426774449
 30
0.0
 70
    32
  0
VERTEX
  5
14A92
  8
01
 10
-105.9324758108917
 20
6.182513426774449
 30
0.0
 70
    32
  0
VERTEX
  5
14A93
  8
01
 10
-105.8074758108917
 20
6.182513426774449
 30
0.0
 70
    32
  0
VERTEX
  5
14A94
  8
01
 10
-105.6824758108916
 20
6.182513426774449
 30
0.0
 70
    32
  0
VERTEX
  5
14A95
  8
01
 10
-105.5574758108916
 20
6.182513426774449
 30
0.0
 70
    32
  0
VERTEX
  5
14A96
  8
01
 10
-105.4324758108915
 20
6.182513426774449
 30
0.0
 70
    32
  0
VERTEX
  5
14A97
  8
01
 10
-105.3074758108914
 20
6.182513426774449
 30
0.0
 70
    32
  0
VERTEX
  5
14A98
  8
01
 10
-105.1824758108914
 20
6.182513426774449
 30
0.0
 70
    32
  0
VERTEX
  5
14A99
  8
01
 10
-105.0574758108913
 20
6.182513426774449
 30
0.0
 70
    32
  0
VERTEX
  5
14A9A
  8
01
 10
-104.9324758108913
 20
6.182513426774449
 30
0.0
 70
    32
  0
VERTEX
  5
14A9B
  8
01
 10
-104.8074758108912
 20
6.182513426774449
 30
0.0
 70
    32
  0
VERTEX
  5
14A9C
  8
01
 10
-104.6824758108912
 20
6.182513426774449
 30
0.0
 70
    32
  0
VERTEX
  5
14A9D
  8
01
 10
-104.5574758108911
 20
6.182513426774449
 30
0.0
 70
    32
  0
SEQEND
  5
150FD
  8
01
  0
POLYLINE
  5
126F4
  8
01
 10
0.0
 20
0.0
 30
0.0
 66
     1
 70
     8
  0
VERTEX
  5
14A9E
  8
01
 10
-56.45747581091075
 20
-55.04816544662276
 30
0.0
 70
    32
  0
VERTEX
  5
14A9F
  8
01
 10
-64.89497581081713
 20
-55.0481654466231
 30
0.0
 70
    32
  0
VERTEX
  5
14AA0
  8
01
 10
-73.33247581072351
 20
-55.04816544662344
 30
0.0
 70
    32
  0
VERTEX
  5
14AA1
  8
01
 10
-81.7699758106299
 20
-55.04816544662377
 30
0.0
 70
    32
  0
VERTEX
  5
14AA2
  8
01
 10
-90.2074758105363
 20
-55.0481654466241
 30
0.0
 70
    32
  0
VERTEX
  5
14AA3
  8
01
 10
-98.64497581044269
 20
-55.04816544662442
 30
0.0
 70
    32
  0
VERTEX
  5
14AA4
  8
01
 10
-107.0824758103491
 20
-55.04816544662474
 30
0.0
 70
    32
  0
VERTEX
  5
14AA5
  8
01
 10
-115.5199758102555
 20
-55.04816544662506
 30
0.0
 70
    32
  0
VERTEX
  5
14AA6
  8
01
 10
-123.9574758101619
 20
-55.04816544662538
 30
0.0
 70
    32
  0
VERTEX
  5
14AA7
  8
01
 10
-132.3949758100683
 20
-55.04816544662569
 30
0.0
 70
    32
  0
VERTEX
  5
14AA8
  8
01
 10
-140.8324758099747
 20
-55.04816544662599
 30
0.0
 70
    32
  0
VERTEX
  5
14AA9
  8
01
 10
-149.2699758098811
 20
-55.0481654466263
 30
0.0
 70
    32
  0
VERTEX
  5
14AAA
  8
01
 10
-157.7074758097876
 20
-55.0481654466266
 30
0.0
 70
    32
  0
VERTEX
  5
14AAB
  8
01
 10
-166.144975809694
 20
-55.0481654466269
 30
0.0
 70
    32
  0
VERTEX
  5
14AAC
  8
01
 10
-174.5824758096004
 20
-55.04816544662719
 30
0.0
 70
    32
  0
VERTEX
  5
14AAD
  8
01
 10
-183.0199758095068
 20
-55.04816544662748
 30
0.0
 70
    32
  0
VERTEX
  5
14AAE
  8
01
 10
-191.4574758094133
 20
-55.04816544662776
 30
0.0
 70
    32
  0
SEQEND
  5
150FE
  8
01
  0
POLYLINE
  5
126F5
  8
01
 10
0.0
 20
0.0
 30
0.0
 66
     1
 70
     8
  0
VERTEX
  5
14AAF
  8
01
 10
-339.4572574450123
 20
-52.80758341046817
 30
0.0
 70
    32
  0
VERTEX
  5
14AB0
  8
01
 10
-339.4572574450123
 20
-50.01461601647316
 30
0.0
 70
    32
  0
VERTEX
  5
14AB1
  8
01
 10
-339.4572574450124
 20
-47.22164862247813
 30
0.0
 70
    32
  0
VERTEX
  5
14AB2
  8
01
 10
-339.4572574450125
 20
-44.42868122848311
 30
0.0
 70
    32
  0
VERTEX
  5
14AB3
  8
01
 10
-339.4572574450125
 20
-41.63571383448809
 30
0.0
 70
    32
  0
VERTEX
  5
14AB4
  8
01
 10
-339.4572574450125
 20
-38.84274644049306
 30
0.0
 70
    32
  0
VERTEX
  5
14AB5
  8
01
 10
-339.4572574450126
 20
-36.04977904649802
 30
0.0
 70
    32
  0
VERTEX
  5
14AB6
  8
01
 10
-339.4572574450127
 20
-33.25681165250299
 30
0.0
 70
    32
  0
VERTEX
  5
14AB7
  8
01
 10
-339.4572574450127
 20
-30.46384425850795
 30
0.0
 70
    32
  0
VERTEX
  5
14AB8
  8
01
 10
-339.4572574450127
 20
-27.67087686451291
 30
0.0
 70
    32
  0
VERTEX
  5
14AB9
  8
01
 10
-339.4572574450128
 20
-24.87790947051786
 30
0.0
 70
    32
  0
VERTEX
  5
14ABA
  8
01
 10
-339.4572574450128
 20
-22.08494207652281
 30
0.0
 70
    32
  0
VERTEX
  5
14ABB
  8
01
 10
-339.4572574450129
 20
-19.29197468252775
 30
0.0
 70
    32
  0
VERTEX
  5
14ABC
  8
01
 10
-339.4572574450129
 20
-16.4990072885327
 30
0.0
 70
    32
  0
VERTEX
  5
14ABD
  8
01
 10
-339.4572574450131
 20
-13.70603989453764
 30
0.0
 70
    32
  0
VERTEX
  5
14ABE
  8
01
 10
-339.4572574450131
 20
-10.91307250054258
 30
0.0
 70
    32
  0
VERTEX
  5
14ABF
  8
01
 10
-339.4572574450132
 20
-8.120105106547513
 30
0.0
 70
    32
  0
SEQEND
  5
150FF
  8
01
  0
POLYLINE
  5
126F6
  8
01
 10
0.0
 20
0.0
 30
0.0
 66
     1
 70
     8
  0
VERTEX
  5
14AC0
  8
01
 10
-198.4572574450127
 20
-52.80758505017297
 30
0.0
 70
    32
  0
VERTEX
  5
14AC1
  8
01
 10
-198.4572574450127
 20
-51.41110172982505
 30
0.0
 70
    32
  0
VERTEX
  5
14AC2
  8
01
 10
-198.4572574450127
 20
-50.01461840947692
 30
0.0
 70
    32
  0
VERTEX
  5
14AC3
  8
01
 10
-198.4572574450127
 20
-48.6181350891289
 30
0.0
 70
    32
  0
VERTEX
  5
14AC4
  8
01
 10
-198.4572574450127
 20
-47.22165176878087
 30
0.0
 70
    32
  0
VERTEX
  5
14AC5
  8
01
 10
-198.4572574450126
 20
-45.82516844843285
 30
0.0
 70
    32
  0
VERTEX
  5
14AC6
  8
01
 10
-198.4572574450126
 20
-44.42868512808482
 30
0.0
 70
    32
  0
VERTEX
  5
14AC7
  8
01
 10
-198.4572574450125
 20
-43.0322018077368
 30
0.0
 70
    32
  0
VERTEX
  5
14AC8
  8
01
 10
-198.4572574450125
 20
-41.63571848738877
 30
0.0
 70
    32
  0
VERTEX
  5
14AC9
  8
01
 10
-198.4572574450125
 20
-40.23923516704075
 30
0.0
 70
    32
  0
VERTEX
  5
14ACA
  8
01
 10
-198.4572574450124
 20
-38.84275184669272
 30
0.0
 70
    32
  0
VERTEX
  5
14ACB
  8
01
 10
-198.4572574450124
 20
-37.4462685263447
 30
0.0
 70
    32
  0
VERTEX
  5
14ACC
  8
01
 10
-198.4572574450123
 20
-36.04978520599667
 30
0.0
 70
    32
  0
VERTEX
  5
14ACD
  8
01
 10
-198.4572574450123
 20
-34.65330188564864
 30
0.0
 70
    32
  0
VERTEX
  5
14ACE
  8
01
 10
-198.4572574450123
 20
-33.25681856530062
 30
0.0
 70
    32
  0
VERTEX
  5
14ACF
  8
01
 10
-198.4572574450122
 20
-31.86033524495259
 30
0.0
 70
    32
  0
VERTEX
  5
14AD0
  8
01
 10
-198.4572574450122
 20
-30.46385192460457
 30
0.0
 70
    32
  0
VERTEX
  5
14AD1
  8
01
 10
-198.4572574450121
 20
-29.06736860425656
 30
0.0
 70
    32
  0
VERTEX
  5
14AD2
  8
01
 10
-198.4572574450121
 20
-27.67088528390853
 30
0.0
 70
    32
  0
VERTEX
  5
14AD3
  8
01
 10
-198.4572574450121
 20
-26.27440196356051
 30
0.0
 70
    32
  0
VERTEX
  5
14AD4
  8
01
 10
-198.457257445012
 20
-24.87791864321248
 30
0.0
 70
    32
  0
VERTEX
  5
14AD5
  8
01
 10
-198.4572574450119
 20
-23.48143532286445
 30
0.0
 70
    32
  0
VERTEX
  5
14AD6
  8
01
 10
-198.4572574450119
 20
-22.08495200251643
 30
0.0
 70
    32
  0
VERTEX
  5
14AD7
  8
01
 10
-198.4572574450118
 20
-20.68846868216841
 30
0.0
 70
    32
  0
VERTEX
  5
14AD8
  8
01
 10
-198.4572574450118
 20
-19.29198536182038
 30
0.0
 70
    32
  0
VERTEX
  5
14AD9
  8
01
 10
-198.4572574450117
 20
-17.89550204147235
 30
0.0
 70
    32
  0
VERTEX
  5
14ADA
  8
01
 10
-198.4572574450117
 20
-16.49901872112433
 30
0.0
 70
    32
  0
VERTEX
  5
14ADB
  8
01
 10
-198.4572574450116
 20
-15.1025354007763
 30
0.0
 70
    32
  0
VERTEX
  5
14ADC
  8
01
 10
-198.4572574450116
 20
-13.70605208042829
 30
0.0
 70
    32
  0
VERTEX
  5
14ADD
  8
01
 10
-198.4572574450115
 20
-12.30956876008026
 30
0.0
 70
    32
  0
VERTEX
  5
14ADE
  8
01
 10
-198.4572574450115
 20
-10.91308543973224
 30
0.0
 70
    32
  0
VERTEX
  5
14ADF
  8
01
 10
-198.4572574450114
 20
-9.51660211938421
 30
0.0
 70
    32
  0
VERTEX
  5
14AE0
  8
01
 10
-198.4572574450114
 20
-8.120118799036184
 30
0.0
 70
    32
  0
SEQEND
  5
15100
  8
01
  0
POLYLINE
  5
126F8
  8
01
 10
0.0
 20
0.0
 30
0.0
 66
     1
 70
     8
  0
VERTEX
  5
14AE1
  8
01
 10
-339.4572574450132
 20
-8.021857962923377
 30
0.0
 70
    32
  0
VERTEX
  5
14AE2
  8
01
 10
-339.4572574450132
 20
-7.944979735720381
 30
0.0
 70
    32
  0
VERTEX
  5
14AE3
  8
01
 10
-339.4572574450131
 20
-7.868101508517384
 30
0.0
 70
    32
  0
VERTEX
  5
14AE4
  8
01
 10
-339.4572574450129
 20
-7.791223281314387
 30
0.0
 70
    32
  0
VERTEX
  5
14AE5
  8
01
 10
-339.4572574450129
 20
-7.714345054111391
 30
0.0
 70
    32
  0
VERTEX
  5
14AE6
  8
01
 10
-339.4572574450129
 20
-7.637466826908394
 30
0.0
 70
    32
  0
VERTEX
  5
14AE7
  8
01
 10
-339.4572574450128
 20
-7.560588599705397
 30
0.0
 70
    32
  0
VERTEX
  5
14AE8
  8
01
 10
-339.4572574450127
 20
-7.483710372502401
 30
0.0
 70
    32
  0
VERTEX
  5
14AE9
  8
01
 10
-339.4572574450127
 20
-7.406832145299404
 30
0.0
 70
    32
  0
VERTEX
  5
14AEA
  8
01
 10
-339.4572574450127
 20
-7.329953918096408
 30
0.0
 70
    32
  0
VERTEX
  5
14AEB
  8
01
 10
-339.4572574450126
 20
-7.253075690893411
 30
0.0
 70
    32
  0
VERTEX
  5
14AEC
  8
01
 10
-339.4572574450125
 20
-7.176197463690414
 30
0.0
 70
    32
  0
VERTEX
  5
14AED
  8
01
 10
-339.4572574450125
 20
-7.099319236487418
 30
0.0
 70
    32
  0
VERTEX
  5
14AEE
  8
01
 10
-339.4572574450125
 20
-7.022441009284421
 30
0.0
 70
    32
  0
VERTEX
  5
14AEF
  8
01
 10
-339.4572574450124
 20
-6.945562782081424
 30
0.0
 70
    32
  0
VERTEX
  5
14AF0
  8
01
 10
-339.4572574450123
 20
-6.868684554878428
 30
0.0
 70
    32
  0
VERTEX
  5
14AF1
  8
01
 10
-339.4572574450123
 20
-6.791806327675432
 30
0.0
 70
    32
  0
SEQEND
  5
15101
  8
01
  0
POLYLINE
  5
126F9
  8
01
 10
0.0
 20
0.0
 30
0.0
 66
     1
 70
     8
  0
VERTEX
  5
14AF2
  8
01
 10
-198.4572574450123
 20
-6.791806327675431
 30
0.0
 70
    32
  0
VERTEX
  5
14AF3
  8
01
 10
-198.4572574450122
 20
-6.874825857135477
 30
0.0
 70
    32
  0
VERTEX
  5
14AF4
  8
01
 10
-198.4572574450121
 20
-6.957845386595523
 30
0.0
 70
    32
  0
VERTEX
  5
14AF5
  8
01
 10
-198.4572574450121
 20
-7.040864916055568
 30
0.0
 70
    32
  0
VERTEX
  5
14AF6
  8
01
 10
-198.457257445012
 20
-7.123884445515614
 30
0.0
 70
    32
  0
VERTEX
  5
14AF7
  8
01
 10
-198.457257445012
 20
-7.20690397497566
 30
0.0
 70
    32
  0
VERTEX
  5
14AF8
  8
01
 10
-198.4572574450119
 20
-7.289923504435706
 30
0.0
 70
    32
  0
VERTEX
  5
14AF9
  8
01
 10
-198.4572574450119
 20
-7.372943033895751
 30
0.0
 70
    32
  0
VERTEX
  5
14AFA
  8
01
 10
-198.4572574450118
 20
-7.455962563355797
 30
0.0
 70
    32
  0
VERTEX
  5
14AFB
  8
01
 10
-198.4572574450117
 20
-7.538982092815843
 30
0.0
 70
    32
  0
VERTEX
  5
14AFC
  8
01
 10
-198.4572574450117
 20
-7.622001622275889
 30
0.0
 70
    32
  0
VERTEX
  5
14AFD
  8
01
 10
-198.4572574450116
 20
-7.705021151735934
 30
0.0
 70
    32
  0
VERTEX
  5
14AFE
  8
01
 10
-198.4572574450116
 20
-7.78804068119598
 30
0.0
 70
    32
  0
VERTEX
  5
14AFF
  8
01
 10
-198.4572574450115
 20
-7.871060210656026
 30
0.0
 70
    32
  0
VERTEX
  5
14B00
  8
01
 10
-198.4572574450115
 20
-7.954079740116072
 30
0.0
 70
    32
  0
VERTEX
  5
14B01
  8
01
 10
-198.4572574450114
 20
-8.037099269576117
 30
0.0
 70
    32
  0
VERTEX
  5
14B02
  8
01
 10
-198.4572574450114
 20
-8.120118799036163
 30
0.0
 70
    32
  0
SEQEND
  5
15102
  8
01
  0
POLYLINE
  5
126FA
  8
01
 10
0.0
 20
0.0
 30
0.0
 66
     1
 70
     8
  0
VERTEX
  5
14B03
  8
01
 10
-194.4574758108917
 20
-52.80758505017297
 30
0.0
 70
    32
  0
VERTEX
  5
14B04
  8
01
 10
-194.4574758108917
 20
-50.0146176561779
 30
0.0
 70
    32
  0
VERTEX
  5
14B05
  8
01
 10
-194.4574758108918
 20
-47.22165026218284
 30
0.0
 70
    32
  0
VERTEX
  5
14B06
  8
01
 10
-194.4574758108918
 20
-44.42868286818778
 30
0.0
 70
    32
  0
VERTEX
  5
14B07
  8
01
 10
-194.4574758108919
 20
-41.63571547419272
 30
0.0
 70
    32
  0
VERTEX
  5
14B08
  8
01
 10
-194.4574758108919
 20
-38.84274808019767
 30
0.0
 70
    32
  0
VERTEX
  5
14B09
  8
01
 10
-194.457475810892
 20
-36.04978068620262
 30
0.0
 70
    32
  0
VERTEX
  5
14B0A
  8
01
 10
-194.457475810892
 20
-33.25681329220757
 30
0.0
 70
    32
  0
VERTEX
  5
14B0B
  8
01
 10
-194.4574758108921
 20
-30.46384589821253
 30
0.0
 70
    32
  0
VERTEX
  5
14B0C
  8
01
 10
-194.4574758108922
 20
-27.67087850421748
 30
0.0
 70
    32
  0
VERTEX
  5
14B0D
  8
01
 10
-194.4574758108922
 20
-24.87791111022245
 30
0.0
 70
    32
  0
VERTEX
  5
14B0E
  8
01
 10
-194.4574758108923
 20
-22.08494371622741
 30
0.0
 70
    32
  0
VERTEX
  5
14B0F
  8
01
 10
-194.4574758108923
 20
-19.29197632223238
 30
0.0
 70
    32
  0
VERTEX
  5
14B10
  8
01
 10
-194.4574758108924
 20
-16.49900892823735
 30
0.0
 70
    32
  0
VERTEX
  5
14B11
  8
01
 10
-194.4574758108924
 20
-13.70604153424233
 30
0.0
 70
    32
  0
VERTEX
  5
14B12
  8
01
 10
-194.4574758108925
 20
-10.9130741402473
 30
0.0
 70
    32
  0
VERTEX
  5
14B13
  8
01
 10
-194.4574758108926
 20
-8.1201067462523
 30
0.0
 70
    32
  0
SEQEND
  5
15103
  8
01
  0
POLYLINE
  5
126FB
  8
01
 10
0.0
 20
0.0
 30
0.0
 66
     1
 70
     8
  0
VERTEX
  5
14B14
  8
01
 10
-194.4574758108926
 20
-8.021859602628183
 30
0.0
 70
    32
  0
VERTEX
  5
14B15
  8
01
 10
-194.4574758108925
 20
-7.944981375425186
 30
0.0
 70
    32
  0
VERTEX
  5
14B16
  8
01
 10
-194.4574758108924
 20
-7.86810314822219
 30
0.0
 70
    32
  0
VERTEX
  5
14B17
  8
01
 10
-194.4574758108924
 20
-7.791224921019193
 30
0.0
 70
    32
  0
VERTEX
  5
14B18
  8
01
 10
-194.4574758108923
 20
-7.714346693816196
 30
0.0
 70
    32
  0
VERTEX
  5
14B19
  8
01
 10
-194.4574758108923
 20
-7.6374684666132
 30
0.0
 70
    32
  0
VERTEX
  5
14B1A
  8
01
 10
-194.4574758108922
 20
-7.560590239410203
 30
0.0
 70
    32
  0
VERTEX
  5
14B1B
  8
01
 10
-194.4574758108922
 20
-7.483712012207206
 30
0.0
 70
    32
  0
VERTEX
  5
14B1C
  8
01
 10
-194.4574758108921
 20
-7.40683378500421
 30
0.0
 70
    32
  0
VERTEX
  5
14B1D
  8
01
 10
-194.457475810892
 20
-7.329955557801213
 30
0.0
 70
    32
  0
VERTEX
  5
14B1E
  8
01
 10
-194.457475810892
 20
-7.253077330598217
 30
0.0
 70
    32
  0
VERTEX
  5
14B1F
  8
01
 10
-194.4574758108919
 20
-7.17619910339522
 30
0.0
 70
    32
  0
VERTEX
  5
14B20
  8
01
 10
-194.4574758108919
 20
-7.099320876192223
 30
0.0
 70
    32
  0
VERTEX
  5
14B21
  8
01
 10
-194.4574758108918
 20
-7.022442648989227
 30
0.0
 70
    32
  0
VERTEX
  5
14B22
  8
01
 10
-194.4574758108918
 20
-6.94556442178623
 30
0.0
 70
    32
  0
VERTEX
  5
14B23
  8
01
 10
-194.4574758108917
 20
-6.868686194583233
 30
0.0
 70
    32
  0
VERTEX
  5
14B24
  8
01
 10
-194.4574758108917
 20
-6.791807967380238
 30
0.0
 70
    32
  0
SEQEND
  5
15104
  8
01
  0
POLYLINE
  5
126FE
  8
01
 66
     1
 10
0.0
 20
0.0
 30
0.0
  0
VERTEX
  5
14B25
  8
01
 10
-56.45747581091075
 20
-55.04816544662276
 30
0.0
  0
VERTEX
  5
14B26
  8
01
 10
-55.87220484485873
 20
-55.00511358603271
 30
0.0
  0
VERTEX
  5
14B27
  8
01
 10
-55.30942551380835
 20
-54.87761246312127
 30
0.0
  0
VERTEX
  5
14B28
  8
01
 10
-54.79076511184159
 20
-54.67056187453848
 30
0.0
  0
VERTEX
  5
14B29
  8
01
 10
-54.33615546733792
 20
-54.39191865828826
 30
0.0
  0
VERTEX
  5
14B2A
  8
01
 10
-53.96306697398762
 20
-54.0523909169062
 30
0.0
  0
VERTEX
  5
14B2B
  8
01
 10
-53.68583721335967
 20
-53.66502651108426
 30
0.0
  0
VERTEX
  5
14B2C
  8
01
 10
-53.51511996968277
 20
-53.2447116377017
 30
0.0
  0
VERTEX
  5
14B2D
  8
01
 10
-53.45747581089211
 20
-52.80759876162733
 30
0.0
  0
SEQEND
  5
15105
  8
01
  0
POLYLINE
  5
126FF
  8
01
 66
     1
 10
0.0
 20
0.0
 30
0.0
  0
VERTEX
  5
14B2E
  8
01
 10
-184.4574758108917
 20
0.8379276686475805
 30
0.0
  0
VERTEX
  5
14B2F
  8
01
 10
-186.4083790310529
 20
0.6913244378038259
 30
0.0
  0
VERTEX
  5
14B30
  8
01
 10
-188.2843101345426
 20
0.2571486252178481
 30
0.0
  0
VERTEX
  5
14B31
  8
01
 10
-190.0131781410877
 20
-0.4479146361212738
 30
0.0
  0
VERTEX
  5
14B32
  8
01
 10
-191.5285436227571
 20
-1.39677016048431
 30
0.0
  0
VERTEX
  5
14B33
  8
01
 10
-192.7721719339171
 20
-2.552953962194299
 30
0.0
  0
VERTEX
  5
14B34
  8
01
 10
-193.6962711360045
 20
-3.87203454614687
 30
0.0
  0
VERTEX
  5
14B35
  8
01
 10
-194.265328614924
 20
-5.30332038524964
 30
0.0
  0
VERTEX
  5
14B36
  8
01
 10
-194.4574758108917
 20
-6.791807967380235
 30
0.0
  0
SEQEND
  5
15106
  8
01
  0
POLYLINE
  5
12700
  8
01
 66
     1
 10
0.0
 20
0.0
 30
0.0
  0
VERTEX
  5
14B37
  8
01
 10
-198.4572574450121
 20
-6.791807967380238
 30
0.0
  0
VERTEX
  5
14B38
  8
01
 10
-198.6494046409798
 20
-5.303320065359102
 30
0.0
  0
VERTEX
  5
14B39
  8
01
 10
-199.2184621198992
 20
-3.872033918659008
 30
0.0
  0
VERTEX
  5
14B3A
  8
01
 10
-200.1425613219866
 20
-2.552953051223119
 30
0.0
  0
VERTEX
  5
14B3B
  8
01
 10
-201.3861896331466
 20
-1.396769001037925
 30
0.0
  0
VERTEX
  5
14B3C
  8
01
 10
-202.9015551148159
 20
-0.4479132727565567
 30
0.0
  0
VERTEX
  5
14B3D
  8
01
 10
-204.630423121361
 20
0.257150140107556
 30
0.0
  0
VERTEX
  5
14B3E
  8
01
 10
-206.5063542248506
 20
0.6913260460021613
 30
0.0
  0
VERTEX
  5
14B3F
  8
01
 10
-208.4572574450118
 20
0.8379293083523844
 30
0.0
  0
SEQEND
  5
15107
  8
01
  0
ARC
  5
12701
  8
01
 10
-196.4573317792068
 20
-161.3397113360563
 30
0.0
 40
162.8574267789961
 50
84.76313108255712
 51
95.23686259716429
  0
POLYLINE
  5
12702
  8
01
 66
     1
 10
0.0
 20
0.0
 30
0.0
  0
VERTEX
  5
14B40
  8
01
 10
-201.4572574450314
 20
-55.04816380691841
 30
0.0
  0
VERTEX
  5
14B41
  8
01
 10
-200.8719864789746
 20
-55.00511171437307
 30
0.0
  0
VERTEX
  5
14B42
  8
01
 10
-200.3092071479197
 20
-54.87760990450967
 30
0.0
  0
VERTEX
  5
14B43
  8
01
 10
-199.7905467459487
 20
-54.67055820037742
 30
0.0
  0
VERTEX
  5
14B44
  8
01
 10
-199.3359371014414
 20
-54.3919134828502
 30
0.0
  0
VERTEX
  5
14B45
  8
01
 10
-198.962848608088
 20
-54.05238391215681
 30
0.0
  0
VERTEX
  5
14B46
  8
01
 10
-198.6856188474578
 20
-53.66501741928862
 30
0.0
  0
VERTEX
  5
14B47
  8
01
 10
-198.5149016037795
 20
-53.24470028132894
 30
0.0
  0
VERTEX
  5
14B48
  8
01
 10
-198.4572574449884
 20
-52.80758505017297
 30
0.0
  0
SEQEND
  5
15108
  8
01
  0
POLYLINE
  5
12703
  8
01
 66
     1
 10
0.0
 20
0.0
 30
0.0
  0
VERTEX
  5
14B49
  8
01
 10
-194.4574758108917
 20
-52.80758505017297
 30
0.0
  0
VERTEX
  5
14B4A
  8
01
 10
-194.3998316520729
 20
-53.24470060122037
 30
0.0
  0
VERTEX
  5
14B4B
  8
01
 10
-194.229114408313
 20
-53.66501804677823
 30
0.0
  0
VERTEX
  5
14B4C
  8
01
 10
-193.9518846475501
 20
-54.05238482313052
 30
0.0
  0
VERTEX
  5
14B4D
  8
01
 10
-193.5787961540183
 20
-54.3919146422998
 30
0.0
  0
VERTEX
  5
14B4E
  8
01
 10
-193.1241865092934
 20
-54.67055956374592
 30
0.0
  0
VERTEX
  5
14B4F
  8
01
 10
-192.6055261070743
 20
-54.87761141940358
 30
0.0
  0
VERTEX
  5
14B50
  8
01
 10
-192.0427467757501
 20
-55.00511332257587
 30
0.0
  0
VERTEX
  5
14B51
  8
01
 10
-191.4574758094133
 20
-55.04816544662776
 30
0.0
  0
SEQEND
  5
15109
  8
01
  0
LINE
  5
12704
  8
01
 10
-196.2573306593277
 20
-1.881389541787712
 30
0.0
 11
-196.2573306593232
 21
-53.7652345889735
 31
0.0
  0
LINE
  5
12705
  8
01
 10
-196.6573306912243
 20
-1.881414645448103
 30
0.0
 11
-196.6573306912197
 21
-53.76525969263389
 31
0.0
  0
LINE
  5
12706
  8
01
 10
-63.4574758108912
 20
0.8379276686475805
 30
0.0
 11
-184.4574758108917
 21
0.8379276686475805
 31
0.0
  0
LINE
  5
12707
  8
01
 10
-329.4572574450123
 20
0.8379293083523862
 30
0.0
 11
-211.321864469107
 21
0.8379293083523862
 31
0.0
  0
LINE
  5
12708
  8
01
 10
-249.5572574450117
 20
6.182515066479255
 30
0.0
 11
-249.5572574450117
 21
0.8379293083523862
 31
0.0
  0
LINE
  5
12709
  8
01
 10
-251.5572574450122
 20
6.182515066479255
 30
0.0
 11
-251.5572574450122
 21
0.8379293083523862
 31
0.0
  0
LINE
  5
1270A
  8
01
 10
-286.3572574450128
 20
6.182515066479255
 30
0.0
 11
-286.3572574450128
 21
0.8379293083523862
 31
0.0
  0
LINE
  5
1270B
  8
01
 10
-288.3572574450119
 20
6.182515066479255
 30
0.0
 11
-288.3572574450119
 21
0.8379293083523862
 31
0.0
  0
LINE
  5
1270C
  8
01
 10
-253.9571851718739
 20
4.982513458053972
 30
0.0
 11
-253.9571851718739
 21
0.8379293083523862
 31
0.0
  0
LINE
  5
1270D
  8
01
 10
-283.9573306903204
 20
4.982513458053972
 30
0.0
 11
-283.9573306903204
 21
0.8379293083523862
 31
0.0
  0
LINE
  5
1270E
  8
01
 10
-254.9571851718739
 20
5.982513458053972
 30
0.0
 11
-282.9573306903204
 21
5.982513458053972
 31
0.0
  0
ARC
  5
1270F
  8
01
 10
-254.9571851718741
 20
4.982513458053972
 30
0.0
 40
1.0
 50
0.0
 51
89.99999999997394
  0
ARC
  5
12710
  8
01
 10
-282.9573306903206
 20
4.982513458053972
 30
0.0
 40
1.0
 50
89.99999999997394
 51
180.0
  0
LINE
  5
12711
  8
01
 10
-249.5572574450117
 20
6.182515066479255
 30
0.0
 11
-251.5572574450122
 21
6.182515066479255
 31
0.0
  0
LINE
  5
12712
  8
01
 10
-288.3572574450119
 20
6.182515066479255
 30
0.0
 11
-286.3572574450128
 21
6.182515066479255
 31
0.0
  0
LINE
  5
12713
  8
01
 10
-141.3574758108922
 20
6.182513426774449
 30
0.0
 11
-141.3574758108922
 21
0.8379276686475805
 31
0.0
  0
LINE
  5
12714
  8
01
 10
-143.3574758108908
 20
6.182513426774449
 30
0.0
 11
-143.3574758108908
 21
0.8379276686475805
 31
0.0
  0
LINE
  5
12715
  8
01
 10
-104.5574758108911
 20
6.182513426774449
 30
0.0
 11
-104.5574758108911
 21
0.8379276686475805
 31
0.0
  0
LINE
  5
12716
  8
01
 10
-106.557475810892
 20
6.182513426774449
 30
0.0
 11
-106.557475810892
 21
0.8379276686475805
 31
0.0
  0
LINE
  5
12717
  8
01
 10
-108.9572974386302
 20
4.98251344958021
 30
0.0
 11
-108.9572974386302
 21
0.8379276686475805
 31
0.0
  0
LINE
  5
12718
  8
01
 10
-138.9574760307579
 20
4.98251344958021
 30
0.0
 11
-138.9574760307579
 21
0.8379276686475805
 31
0.0
  0
LINE
  5
12719
  8
01
 10
-109.9572974386302
 20
5.98251344958021
 30
0.0
 11
-137.9574760307579
 21
5.98251344958021
 31
0.0
  0
ARC
  5
1271A
  8
01
 10
-109.9572974386307
 20
4.98251344958021
 30
0.0
 40
1.0
 50
0.0
 51
89.99999999997394
  0
ARC
  5
1271B
  8
01
 10
-137.9574760307581
 20
4.98251344958021
 30
0.0
 40
1.0
 50
89.99999999997394
 51
180.0
  0
LINE
  5
1271C
  8
01
 10
-53.45747581089114
 20
-6.791807967380237
 30
0.0
 11
-53.4574758108912
 21
-52.80759876162733
 31
0.0
  0
POLYLINE
  5
1271D
  8
01
 66
     1
 10
0.0
 20
0.0
 30
0.0
  0
VERTEX
  5
14B52
  8
01
 10
-339.4572574450123
 20
-52.80758341046817
 30
0.0
  0
VERTEX
  5
14B53
  8
01
 10
-339.3996132861935
 20
-53.24469896151556
 30
0.0
  0
VERTEX
  5
14B54
  8
01
 10
-339.2288960424336
 20
-53.66501640707342
 30
0.0
  0
VERTEX
  5
14B55
  8
01
 10
-338.9516662816707
 20
-54.05238318342571
 30
0.0
  0
VERTEX
  5
14B56
  8
01
 10
-338.5785777881388
 20
-54.39191300259499
 30
0.0
  0
VERTEX
  5
14B57
  8
01
 10
-338.1239681434138
 20
-54.67055792404111
 30
0.0
  0
VERTEX
  5
14B58
  8
01
 10
-337.6053077411946
 20
-54.87760977969877
 30
0.0
  0
VERTEX
  5
14B59
  8
01
 10
-337.0425284098703
 20
-55.00511168287106
 30
0.0
  0
VERTEX
  5
14B5A
  8
01
 10
-336.4572574435334
 20
-55.04816380692296
 30
0.0
  0
SEQEND
  5
1510A
  8
01
  0
LINE
  5
1271E
  8
01
 10
-195.7573306593296
 20
-54.26523871139284
 30
0.0
 11
-193.7358155299586
 21
-54.26523871139284
 31
0.0
  0
LINE
  5
12809
  8
01
 10
-228.9573311677178
 20
46.16957356316448
 30
0.0
 11
-163.9573311677178
 21
46.16957356316448
 31
0.0
  0
LINE
  5
1280A
  8
01
 10
-166.9573311677124
 20
42.16957356316448
 30
0.0
 11
-225.9573311677233
 21
42.16957356316448
 31
0.0
  0
LINE
  5
1280D
  8
1PHANTOM
 10
-190.4573311677146
 20
23.16957356316539
 30
0.0
 11
-202.4573311677128
 21
23.16957356316357
 31
0.0
  0
LINE
  5
1280E
  8
1PHANTOM
 10
-206.9573311677135
 20
27.6695735631622
 30
0.0
 11
-206.9573311677156
 21
42.16957356316311
 31
0.0
  0
LINE
  5
1280F
  8
1PHANTOM
 10
-185.9573311677153
 20
27.66957356316493
 30
0.0
 11
-185.9573311677174
 21
42.16957356316584
 31
0.0
  0
LINE
  5
12810
  8
1PHANTOM
 10
-185.9573311677153
 20
27.66957356316584
 30
0.0
 11
-190.4573311677146
 21
23.16957356316539
 31
0.0
  0
LINE
  5
12811
  8
1PHANTOM
 10
-202.4573311677128
 20
23.16957356316357
 30
0.0
 11
-206.9573311677135
 21
27.66957356316311
 31
0.0
  0
LINE
  5
1284A
  8
01
 10
-163.9573311677178
 20
45.66957356316448
 30
0.0
 11
-166.9573311677124
 21
42.16957356316448
 31
0.0
  0
LINE
  5
1284B
  8
01
 10
-228.9573311677178
 20
45.66957356316448
 30
0.0
 11
-225.9573311677233
 21
42.16957356316448
 31
0.0
  0
ARC
  5
12853
  8
01
 10
-96.1311701660718
 20
-19.10751973718182
 30
0.0
 40
93.70846446971441
 50
139.5656498740137
 51
153.7309401570942
  0
ARC
  5
12854
  8
01
 10
-169.6774775558936
 20
16.94139810200444
 30
0.0
 40
11.80496551950683
 50
152.6405055710661
 51
217.7593311386262
  0
ARC
  5
12855
  8
01
 10
-131.5206331556861
 20
45.07795664814046
 30
0.0
 40
59.2112970555098
 50
216.6748072609066
 51
228.3445504894283
  0
ARC
  5
12856
  8
01
 10
-296.783492169367
 20
-19.10751973718182
 30
0.0
 40
93.70846446971441
 50
26.26905984290362
 51
40.43435012598232
  0
ARC
  5
12857
  8
01
 10
-223.2371847795453
 20
16.94139810200444
 30
0.0
 40
11.80496551950683
 50
322.2406688613742
 51
27.35949442893531
  0
ARC
  5
12858
  8
01
 10
-261.3940291797527
 20
45.07795664814046
 30
0.0
 40
59.2112970555098
 50
311.6554495105751
 51
323.3251927390921
  0
LINE
  5
12859
  8
01
 10
-177.9573313146135
 20
41.16957356316448
 30
0.0
 11
-178.9573310146135
 21
42.16957356316448
 31
0.0
  0
LINE
  5
1285A
  8
01
 10
-174.6573311646135
 20
41.16957356316448
 30
0.0
 11
-174.6573311646135
 21
42.16957356316448
 31
0.0
  0
LINE
  5
1285B
  8
01
 10
-174.6573311646135
 20
42.16957356316448
 30
0.0
 11
-182.2573311646134
 21
42.16957356316448
 31
0.0
  0
LINE
  5
1285C
  8
01
 10
-174.6573311646135
 20
41.16957356316448
 30
0.0
 11
-182.2573311646134
 21
41.16957356316448
 31
0.0
  0
LINE
  5
1285D
  8
01
 10
-182.2573311646134
 20
41.16957356316448
 30
0.0
 11
-182.2573311646134
 21
42.16957356316448
 31
0.0
  0
LINE
  5
12862
  8
01
 10
-195.9573313146135
 20
41.16957356316448
 30
0.0
 11
-196.9573310146135
 21
42.16957356316448
 31
0.0
  0
LINE
  5
12863
  8
01
 10
-192.6573311646135
 20
41.16957356316448
 30
0.0
 11
-192.6573311646135
 21
42.16957356316448
 31
0.0
  0
LINE
  5
12864
  8
01
 10
-192.6573311646135
 20
42.16957356316448
 30
0.0
 11
-200.2573311646134
 21
42.16957356316448
 31
0.0
  0
LINE
  5
12865
  8
01
 10
-192.6573311646135
 20
41.16957356316448
 30
0.0
 11
-200.2573311646134
 21
41.16957356316448
 31
0.0
  0
LINE
  5
12866
  8
01
 10
-200.2573311646134
 20
41.16957356316448
 30
0.0
 11
-200.2573311646134
 21
42.16957356316448
 31
0.0
  0
LINE
  5
12868
  8
01
 10
-213.9573313146135
 20
41.16957356316448
 30
0.0
 11
-214.9573310146135
 21
42.16957356316448
 31
0.0
  0
LINE
  5
12869
  8
01
 10
-210.6573311646135
 20
41.16957356316448
 30
0.0
 11
-210.6573311646135
 21
42.16957356316448
 31
0.0
  0
LINE
  5
1286A
  8
01
 10
-210.6573311646135
 20
42.16957356316448
 30
0.0
 11
-218.2573311646134
 21
42.16957356316448
 31
0.0
  0
LINE
  5
1286B
  8
01
 10
-210.6573311646135
 20
41.16957356316448
 30
0.0
 11
-218.2573311646134
 21
41.16957356316448
 31
0.0
  0
LINE
  5
1286C
  8
01
 10
-218.2573311646134
 20
41.16957356316448
 30
0.0
 11
-218.2573311646134
 21
42.16957356316448
 31
0.0
  0
POLYLINE
  5
12871
  8
01
 66
     1
 10
0.0
 20
0.0
 30
0.0
  0
VERTEX
  5
14B5B
  8
01
 10
-53.45747581089114
 20
-6.791807967380238
 30
0.0
  0
VERTEX
  5
14B5C
  8
01
 10
-53.64962300685884
 20
-5.303320385249641
 30
0.0
  0
VERTEX
  5
14B5D
  8
01
 10
-54.21868048577828
 20
-3.872034546146871
 30
0.0
  0
VERTEX
  5
14B5E
  8
01
 10
-55.1427796878657
 20
-2.552953962194301
 30
0.0
  0
VERTEX
  5
14B5F
  8
01
 10
-56.38640799902568
 20
-1.396770160484313
 30
0.0
  0
VERTEX
  5
14B60
  8
01
 10
-57.90177348069514
 20
-0.4479146361212765
 30
0.0
  0
VERTEX
  5
14B61
  8
01
 10
-59.63064148724028
 20
0.2571486252178454
 30
0.0
  0
VERTEX
  5
14B62
  8
01
 10
-61.5065725907299
 20
0.6913244378038232
 30
0.0
  0
VERTEX
  5
14B63
  8
01
 10
-63.4574758108912
 20
0.8379276686475778
 30
0.0
  0
SEQEND
  5
1510B
  8
01
  0
POLYLINE
  5
12872
  8
01
 66
     1
 10
0.0
 20
0.0
 30
0.0
  0
VERTEX
  5
14B64
  8
01
 10
-339.4572574450123
 20
-6.791806327675432
 30
0.0
  0
VERTEX
  5
14B65
  8
01
 10
-339.2651102490446
 20
-5.303318745544836
 30
0.0
  0
VERTEX
  5
14B66
  8
01
 10
-338.6960527701252
 20
-3.872032906442066
 30
0.0
  0
VERTEX
  5
14B67
  8
01
 10
-337.7719535680378
 20
-2.552952322489495
 30
0.0
  0
VERTEX
  5
14B68
  8
01
 10
-336.5283252568778
 20
-1.396768520779507
 30
0.0
  0
VERTEX
  5
14B69
  8
01
 10
-335.0129597752083
 20
-0.4479129964164708
 30
0.0
  0
VERTEX
  5
14B6A
  8
01
 10
-333.2840917686632
 20
0.2571502649226511
 30
0.0
  0
VERTEX
  5
14B6B
  8
01
 10
-331.4081606651736
 20
0.691326077508629
 30
0.0
  0
VERTEX
  5
14B6C
  8
01
 10
-329.4572574450123
 20
0.8379293083523836
 30
0.0
  0
SEQEND
  5
1510C
  8
01
  0
POINT
  5
12DBA
  8
01
 10
93.87759471059381
 20
-150.5212590554731
 30
0.0
 50
180.0
  0
POINT
  5
12DBB
  8
01
 10
93.87759471059381
 20
-150.2212264900047
 30
0.0
 50
180.0
  0
POLYLINE
  5
12DBD
  8
01
 66
     1
 10
0.0
 20
0.0
 30
0.0
  0
VERTEX
  5
14B6D
  8
01
 10
99.21772896121512
 20
-136.2915937196569
 30
0.0
  0
VERTEX
  5
14B6E
  8
01
 10
99.19548620329087
 20
-136.122264792843
 30
0.0
  0
VERTEX
  5
14B6F
  8
01
 10
99.15757252756475
 20
-135.950541938172
 30
0.0
  0
VERTEX
  5
14B70
  8
01
 10
99.10314140316109
 20
-135.7784924243051
 30
0.0
  0
VERTEX
  5
14B71
  8
01
 10
99.03170100618266
 20
-135.6084157102374
 30
0.0
  0
VERTEX
  5
14B72
  8
01
 10
98.94318133433053
 20
-135.4427674720924
 30
0.0
  0
VERTEX
  5
14B73
  8
01
 10
98.8379813610355
 20
-135.2840622416755
 30
0.0
  0
VERTEX
  5
14B74
  8
01
 10
98.71698868561523
 20
-135.1347610441347
 30
0.0
  0
VERTEX
  5
14B75
  8
01
 10
98.5815666052262
 20
-134.9971533382782
 30
0.0
  0
VERTEX
  5
14B76
  8
01
 10
98.43350721718404
 20
-134.873244346754
 30
0.0
  0
VERTEX
  5
14B77
  8
01
 10
98.2749534582163
 20
-134.7646589858178
 30
0.0
  0
VERTEX
  5
14B78
  8
01
 10
98.1082970719854
 20
-134.6725718886142
 30
0.0
  0
VERTEX
  5
14B79
  8
01
 10
97.93606253063739
 20
-134.5976697266163
 30
0.0
  0
VERTEX
  5
14B7A
  8
01
 10
97.76078831764856
 20
-134.5401478242691
 30
0.0
  0
VERTEX
  5
14B7B
  8
01
 10
97.5849165112437
 20
-134.4997387876867
 30
0.0
  0
VERTEX
  5
14B7C
  8
01
 10
97.41069953341446
 20
-134.4757673409346
 30
0.0
  0
VERTEX
  5
14B7D
  8
01
 10
97.24012982411534
 20
-134.4672233368613
 30
0.0
  0
SEQEND
  5
1510D
  8
01
  0
POLYLINE
  5
12DBE
  8
01
 66
     1
 10
0.0
 20
0.0
 30
0.0
  0
VERTEX
  5
14B7E
  8
01
 10
10.33663250930259
 20
-181.0509504083495
 30
0.0
  0
VERTEX
  5
14B7F
  8
01
 10
10.24342005135071
 20
-181.1605724321397
 30
0.0
  0
VERTEX
  5
14B80
  8
01
 10
10.15670926496787
 20
-181.2790032273313
 30
0.0
  0
VERTEX
  5
14B81
  8
01
 10
10.07763820978209
 20
-181.4057029899465
 30
0.0
  0
VERTEX
  5
14B82
  8
01
 10
10.00728972579521
 20
-181.5399454085581
 30
0.0
  0
VERTEX
  5
14B83
  8
01
 10
9.946654241313036
 20
-181.6808240929111
 30
0.0
  0
VERTEX
  5
14B84
  8
01
 10
9.896593401608868
 20
-181.8272677862668
 30
0.0
  0
VERTEX
  5
14B85
  8
01
 10
9.857806925956593
 20
-181.9780642310582
 30
0.0
  0
VERTEX
  5
14B86
  8
01
 10
9.830805059903668
 20
-182.1318918048256
 30
0.0
  0
VERTEX
  5
14B87
  8
01
 10
9.815888685176837
 20
-182.2873573154268
 30
0.0
  0
VERTEX
  5
14B88
  8
01
 10
9.813138598998297
 20
-182.4430377428454
 30
0.0
  0
VERTEX
  5
14B89
  8
01
 10
9.822414737645232
 20
-182.597523328734
 30
0.0
  0
VERTEX
  5
14B8A
  8
01
 10
9.84336528910867
 20
-182.7494593023439
 30
0.0
  0
VERTEX
  5
14B8B
  8
01
 10
9.875444826555503
 20
-182.8975837075954
 30
0.0
  0
VERTEX
  5
14B8C
  8
01
 10
9.917939903399928
 20
-183.040759229452
 30
0.0
  0
VERTEX
  5
14B8D
  8
01
 10
9.970000063531222
 20
-183.1779975384329
 30
0.0
  0
VERTEX
  5
14B8E
  8
01
 10
10.03067198062546
 20
-183.308475386719
 30
0.0
  0
SEQEND
  5
1510E
  8
01
  0
POLYLINE
  5
12DBF
  8
01
 66
     1
 10
0.0
 20
0.0
 30
0.0
  0
VERTEX
  5
14B8F
  8
01
 10
41.48362825137393
 20
-217.8203708157673
 30
0.0
  0
VERTEX
  5
14B90
  8
01
 10
41.10908488589274
 20
-218.4342525778181
 30
0.0
  0
VERTEX
  5
14B91
  8
01
 10
40.76080133910458
 20
-219.0866900451405
 30
0.0
  0
VERTEX
  5
14B92
  8
01
 10
40.44660093497449
 20
-219.7716258429279
 30
0.0
  0
VERTEX
  5
14B93
  8
01
 10
40.17422093963319
 20
-220.4812527245978
 30
0.0
  0
VERTEX
  5
14B94
  8
01
 10
39.95089509951454
 20
-221.2061703753312
 30
0.0
  0
VERTEX
  5
14B95
  8
01
 10
39.78290980917231
 20
-221.9356939326566
 30
0.0
  0
VERTEX
  5
14B96
  8
01
 10
39.67517930648638
 20
-222.6583051344667
 30
0.0
  0
VERTEX
  5
14B97
  8
01
 10
39.63089022547368
 20
-223.3622140332006
 30
0.0
  0
VERTEX
  5
14B98
  8
01
 10
39.65126191151884
 20
-224.0359785458161
 30
0.0
  0
VERTEX
  5
14B99
  8
01
 10
39.73545564791092
 20
-224.6691160430682
 30
0.0
  0
VERTEX
  5
14B9A
  8
01
 10
39.8806455021125
 20
-225.2526395928259
 30
0.0
  0
VERTEX
  5
14B9B
  8
01
 10
40.08224023475027
 20
-225.7794623183427
 30
0.0
  0
VERTEX
  5
14B9C
  8
01
 10
40.33422488467398
 20
-226.244634161001
 30
0.0
  0
VERTEX
  5
14B9D
  8
01
 10
40.62957671380365
 20
-226.6454010768726
 30
0.0
  0
VERTEX
  5
14B9E
  8
01
 10
40.96070548250935
 20
-226.9811013926941
 30
0.0
  0
VERTEX
  5
14B9F
  8
01
 10
41.3198722351495
 20
-227.252932756862
 30
0.0
  0
VERTEX
  5
14BA0
  8
01
 10
41.71428882250382
 20
-227.4704841355734
 30
0.0
  0
VERTEX
  5
14BA1
  8
01
 10
42.155648525064
 20
-227.6364436984238
 30
0.0
  0
VERTEX
  5
14BA2
  8
01
 10
42.64189773224274
 20
-227.7432544301536
 30
0.0
  0
VERTEX
  5
14BA3
  8
01
 10
43.16934474684706
 20
-227.7842514285906
 30
0.0
  0
VERTEX
  5
14BA4
  8
01
 10
43.73261721964274
 20
-227.7541392738466
 30
0.0
  0
VERTEX
  5
14BA5
  8
01
 10
44.32474654195643
 20
-227.6494363957126
 30
0.0
  0
VERTEX
  5
14BA6
  8
01
 10
44.93739110443547
 20
-227.4688309807746
 30
0.0
  0
VERTEX
  5
14BA7
  8
01
 10
45.56119152573797
 20
-227.2133967258085
 30
0.0
  0
VERTEX
  5
14BA8
  8
01
 10
46.18623031071196
 20
-226.8866310944046
 30
0.0
  0
VERTEX
  5
14BA9
  8
01
 10
46.80255054881582
 20
-226.4943019284486
 30
0.0
  0
VERTEX
  5
14BAA
  8
01
 10
47.40067770783125
 20
-226.044115766666
 30
0.0
  0
VERTEX
  5
14BAB
  8
01
 10
47.97208813234823
 20
-225.5452468880143
 30
0.0
  0
VERTEX
  5
14BAC
  8
01
 10
48.50957762180811
 20
-225.0077841247764
 30
0.0
  0
VERTEX
  5
14BAD
  8
01
 10
49.00750079104919
 20
-224.4421592856416
 30
0.0
  0
VERTEX
  5
14BAE
  8
01
 10
49.46187239507243
 20
-223.8586162082043
 30
0.0
  0
VERTEX
  5
14BAF
  8
01
 10
49.87034077916596
 20
-223.2667656108299
 30
0.0
  0
SEQEND
  5
1510F
  8
01
  0
POLYLINE
  5
12DC0
  8
01
 10
0.0
 20
0.0
 30
0.0
 66
     1
 70
     8
  0
VERTEX
  5
14BB0
  8
01
 10
84.52767801330866
 20
-151.5578978366004
 30
0.0
 70
    32
  0
VERTEX
  5
14BB1
  8
01
 10
84.52661592973276
 20
-151.5583554632648
 30
0.0
 70
    32
  0
VERTEX
  5
14BB2
  8
01
 10
84.52555384615687
 20
-151.5588130899291
 30
0.0
 70
    32
  0
VERTEX
  5
14BB3
  8
01
 10
84.52449176258098
 20
-151.5592707165935
 30
0.0
 70
    32
  0
VERTEX
  5
14BB4
  8
01
 10
84.5234296790051
 20
-151.5597283432578
 30
0.0
 70
    32
  0
VERTEX
  5
14BB5
  8
01
 10
84.52236759542923
 20
-151.5601859699221
 30
0.0
 70
    32
  0
VERTEX
  5
14BB6
  8
01
 10
84.52130551185337
 20
-151.5606435965865
 30
0.0
 70
    32
  0
VERTEX
  5
14BB7
  8
01
 10
84.52024342827751
 20
-151.5611012232508
 30
0.0
 70
    32
  0
VERTEX
  5
14BB8
  8
01
 10
84.51918134470166
 20
-151.5615588499152
 30
0.0
 70
    32
  0
VERTEX
  5
14BB9
  8
01
 10
84.51811926112582
 20
-151.5620164765795
 30
0.0
 70
    32
  0
VERTEX
  5
14BBA
  8
01
 10
84.51705717754999
 20
-151.5624741032439
 30
0.0
 70
    32
  0
VERTEX
  5
14BBB
  8
01
 10
84.51599509397415
 20
-151.5629317299082
 30
0.0
 70
    32
  0
VERTEX
  5
14BBC
  8
01
 10
84.51493301039834
 20
-151.5633893565725
 30
0.0
 70
    32
  0
VERTEX
  5
14BBD
  8
01
 10
84.51387092682252
 20
-151.5638469832369
 30
0.0
 70
    32
  0
VERTEX
  5
14BBE
  8
01
 10
84.51280884324672
 20
-151.5643046099012
 30
0.0
 70
    32
  0
VERTEX
  5
14BBF
  8
01
 10
84.51174675967091
 20
-151.5647622365656
 30
0.0
 70
    32
  0
VERTEX
  5
14BC0
  8
01
 10
84.51068467609512
 20
-151.5652198632299
 30
0.0
 70
    32
  0
SEQEND
  5
15110
  8
01
  0
POLYLINE
  5
12DC1
  8
01
 66
     1
 10
0.0
 20
0.0
 30
0.0
  0
VERTEX
  5
14BC1
  8
01
 10
88.35335426062612
 20
-149.1360001542937
 30
0.0
  0
VERTEX
  5
14BC2
  8
01
 10
88.42585504340155
 20
-149.2739755341978
 30
0.0
  0
VERTEX
  5
14BC3
  8
01
 10
88.50197497104769
 20
-149.4103871555186
 30
0.0
  0
VERTEX
  5
14BC4
  8
01
 10
88.58166347699903
 20
-149.5450940965138
 30
0.0
  0
VERTEX
  5
14BC5
  8
01
 10
88.66486273345711
 20
-149.6779576325663
 30
0.0
  0
VERTEX
  5
14BC6
  8
01
 10
88.75150777303213
 20
-149.8088417013177
 30
0.0
  0
VERTEX
  5
14BC7
  8
01
 10
88.84152664599473
 20
-149.9376133594476
 30
0.0
  0
VERTEX
  5
14BC8
  8
01
 10
88.93484061243667
 20
-150.0641432279276
 30
0.0
  0
VERTEX
  5
14BC9
  8
01
 10
89.03136436831679
 20
-150.1883059226525
 30
0.0
  0
VERTEX
  5
14BCA
  8
01
 10
89.13100630405602
 20
-150.3099804674541
 30
0.0
  0
VERTEX
  5
14BCB
  8
01
 10
89.2336687940452
 20
-150.4290506866524
 30
0.0
  0
VERTEX
  5
14BCC
  8
01
 10
89.33924851514699
 20
-150.54540557447
 30
0.0
  0
VERTEX
  5
14BCD
  8
01
 10
89.44763679201264
 20
-150.658939638847
 30
0.0
  0
VERTEX
  5
14BCE
  8
01
 10
89.55871996679974
 20
-150.7695532174292
 30
0.0
  0
VERTEX
  5
14BCF
  8
01
 10
89.67237979066992
 20
-150.8771527637611
 30
0.0
  0
VERTEX
  5
14BD0
  8
01
 10
89.78849383427217
 20
-150.9816511019994
 30
0.0
  0
VERTEX
  5
14BD1
  8
01
 10
89.90693591427554
 20
-151.0829676487585
 30
0.0
  0
SEQEND
  5
15111
  8
01
  0
POLYLINE
  5
12DC2
  8
01
 10
0.0
 20
0.0
 30
0.0
 66
     1
 70
     8
  0
VERTEX
  5
14BD2
  8
01
 10
84.46240518733332
 20
-141.4995826266654
 30
0.0
 70
    32
  0
VERTEX
  5
14BD3
  8
01
 10
84.58399734587373
 20
-141.7382206744038
 30
0.0
 70
    32
  0
VERTEX
  5
14BD4
  8
01
 10
84.7055895044141
 20
-141.9768587221422
 30
0.0
 70
    32
  0
VERTEX
  5
14BD5
  8
01
 10
84.82718166295452
 20
-142.2154967698806
 30
0.0
 70
    32
  0
VERTEX
  5
14BD6
  8
01
 10
84.94877382149492
 20
-142.454134817619
 30
0.0
 70
    32
  0
VERTEX
  5
14BD7
  8
01
 10
85.0703659800353
 20
-142.6927728653573
 30
0.0
 70
    32
  0
VERTEX
  5
14BD8
  8
01
 10
85.19195813857571
 20
-142.9314109130957
 30
0.0
 70
    32
  0
VERTEX
  5
14BD9
  8
01
 10
85.31355029711612
 20
-143.1700489608341
 30
0.0
 70
    32
  0
VERTEX
  5
14BDA
  8
01
 10
85.4351424556565
 20
-143.4086870085725
 30
0.0
 70
    32
  0
VERTEX
  5
14BDB
  8
01
 10
85.55673461419691
 20
-143.6473250563109
 30
0.0
 70
    32
  0
VERTEX
  5
14BDC
  8
01
 10
85.67832677273732
 20
-143.8859631040493
 30
0.0
 70
    32
  0
VERTEX
  5
14BDD
  8
01
 10
85.7999189312777
 20
-144.1246011517877
 30
0.0
 70
    32
  0
VERTEX
  5
14BDE
  8
01
 10
85.92151108981811
 20
-144.363239199526
 30
0.0
 70
    32
  0
VERTEX
  5
14BDF
  8
01
 10
86.04310324835852
 20
-144.6018772472644
 30
0.0
 70
    32
  0
VERTEX
  5
14BE0
  8
01
 10
86.1646954068989
 20
-144.8405152950028
 30
0.0
 70
    32
  0
VERTEX
  5
14BE1
  8
01
 10
86.28628756543931
 20
-145.0791533427412
 30
0.0
 70
    32
  0
VERTEX
  5
14BE2
  8
01
 10
86.40787972397972
 20
-145.3177913904796
 30
0.0
 70
    32
  0
VERTEX
  5
14BE3
  8
01
 10
86.5294718825201
 20
-145.5564294382179
 30
0.0
 70
    32
  0
VERTEX
  5
14BE4
  8
01
 10
86.65106404106051
 20
-145.7950674859563
 30
0.0
 70
    32
  0
VERTEX
  5
14BE5
  8
01
 10
86.77265619960092
 20
-146.0337055336947
 30
0.0
 70
    32
  0
VERTEX
  5
14BE6
  8
01
 10
86.89424835814133
 20
-146.2723435814331
 30
0.0
 70
    32
  0
VERTEX
  5
14BE7
  8
01
 10
87.0158405166817
 20
-146.5109816291715
 30
0.0
 70
    32
  0
VERTEX
  5
14BE8
  8
01
 10
87.13743267522212
 20
-146.7496196769098
 30
0.0
 70
    32
  0
VERTEX
  5
14BE9
  8
01
 10
87.25902483376252
 20
-146.9882577246482
 30
0.0
 70
    32
  0
VERTEX
  5
14BEA
  8
01
 10
87.3806169923029
 20
-147.2268957723866
 30
0.0
 70
    32
  0
VERTEX
  5
14BEB
  8
01
 10
87.50220915084331
 20
-147.465533820125
 30
0.0
 70
    32
  0
VERTEX
  5
14BEC
  8
01
 10
87.62380130938372
 20
-147.7041718678634
 30
0.0
 70
    32
  0
VERTEX
  5
14BED
  8
01
 10
87.7453934679241
 20
-147.9428099156018
 30
0.0
 70
    32
  0
VERTEX
  5
14BEE
  8
01
 10
87.86698562646451
 20
-148.1814479633402
 30
0.0
 70
    32
  0
VERTEX
  5
14BEF
  8
01
 10
87.98857778500492
 20
-148.4200860110785
 30
0.0
 70
    32
  0
VERTEX
  5
14BF0
  8
01
 10
88.11016994354533
 20
-148.6587240588169
 30
0.0
 70
    32
  0
VERTEX
  5
14BF1
  8
01
 10
88.23176210208571
 20
-148.8973621065553
 30
0.0
 70
    32
  0
VERTEX
  5
14BF2
  8
01
 10
88.35335426062612
 20
-149.1360001542937
 30
0.0
 70
    32
  0
SEQEND
  5
15112
  8
01
  0
POLYLINE
  5
12DC4
  8
01
 10
0.0
 20
0.0
 30
0.0
 66
     1
 70
     8
  0
VERTEX
  5
14BF3
  8
01
 10
100.0536576990877
 20
-145.7769742387848
 30
0.0
 70
    32
  0
VERTEX
  5
14BF4
  8
01
 10
100.0133161502301
 20
-145.3192140019404
 30
0.0
 70
    32
  0
VERTEX
  5
14BF5
  8
01
 10
99.97297460137257
 20
-144.861453765096
 30
0.0
 70
    32
  0
VERTEX
  5
14BF6
  8
01
 10
99.93263305251502
 20
-144.4036935282517
 30
0.0
 70
    32
  0
VERTEX
  5
14BF7
  8
01
 10
99.89229150365746
 20
-143.9459332914073
 30
0.0
 70
    32
  0
VERTEX
  5
14BF8
  8
01
 10
99.8519499547999
 20
-143.4881730545629
 30
0.0
 70
    32
  0
VERTEX
  5
14BF9
  8
01
 10
99.81160840594235
 20
-143.0304128177186
 30
0.0
 70
    32
  0
VERTEX
  5
14BFA
  8
01
 10
99.7712668570848
 20
-142.5726525808742
 30
0.0
 70
    32
  0
VERTEX
  5
14BFB
  8
01
 10
99.73092530822724
 20
-142.1148923440298
 30
0.0
 70
    32
  0
VERTEX
  5
14BFC
  8
01
 10
99.69058375936969
 20
-141.6571321071855
 30
0.0
 70
    32
  0
VERTEX
  5
14BFD
  8
01
 10
99.65024221051213
 20
-141.1993718703411
 30
0.0
 70
    32
  0
VERTEX
  5
14BFE
  8
01
 10
99.60990066165458
 20
-140.7416116334967
 30
0.0
 70
    32
  0
VERTEX
  5
14BFF
  8
01
 10
99.56955911279702
 20
-140.2838513966524
 30
0.0
 70
    32
  0
VERTEX
  5
14C00
  8
01
 10
99.52921756393947
 20
-139.826091159808
 30
0.0
 70
    32
  0
VERTEX
  5
14C01
  8
01
 10
99.48887601508191
 20
-139.3683309229637
 30
0.0
 70
    32
  0
VERTEX
  5
14C02
  8
01
 10
99.44853446622436
 20
-138.9105706861193
 30
0.0
 70
    32
  0
VERTEX
  5
14C03
  8
01
 10
99.40819291736682
 20
-138.4528104492749
 30
0.0
 70
    32
  0
SEQEND
  5
15113
  8
01
  0
POLYLINE
  5
12DC5
  8
01
 66
     1
 10
0.0
 20
0.0
 30
0.0
  0
VERTEX
  5
14C04
  8
01
 10
100.0637925668312
 20
-145.9077906974137
 30
0.0
  0
VERTEX
  5
14C05
  8
01
 10
100.0632402801967
 20
-145.8996087601091
 30
0.0
  0
VERTEX
  5
14C06
  8
01
 10
100.0626771676516
 20
-145.891427510415
 30
0.0
  0
VERTEX
  5
14C07
  8
01
 10
100.0621032304893
 20
-145.8832469698168
 30
0.0
  0
VERTEX
  5
14C08
  8
01
 10
100.0615184700599
 20
-145.8750671597963
 30
0.0
  0
VERTEX
  5
14C09
  8
01
 10
100.0609228877705
 20
-145.8668881018322
 30
0.0
  0
VERTEX
  5
14C0A
  8
01
 10
100.0603164850849
 20
-145.8587098173994
 30
0.0
  0
VERTEX
  5
14C0B
  8
01
 10
100.0596992635236
 20
-145.8505323279689
 30
0.0
  0
VERTEX
  5
14C0C
  8
01
 10
100.0590712246644
 20
-145.8423556550078
 30
0.0
  0
VERTEX
  5
14C0D
  8
01
 10
100.0584323701412
 20
-145.8341798199789
 30
0.0
  0
VERTEX
  5
14C0E
  8
01
 10
100.0577827016452
 20
-145.8260048443406
 30
0.0
  0
VERTEX
  5
14C0F
  8
01
 10
100.0571222209242
 20
-145.8178307495468
 30
0.0
  0
VERTEX
  5
14C10
  8
01
 10
100.0564509297827
 20
-145.8096575570465
 30
0.0
  0
VERTEX
  5
14C11
  8
01
 10
100.055768830082
 20
-145.8014852882839
 30
0.0
  0
VERTEX
  5
14C12
  8
01
 10
100.05507592374
 20
-145.7933139646979
 30
0.0
  0
VERTEX
  5
14C13
  8
01
 10
100.0543722127315
 20
-145.7851436077222
 30
0.0
  0
VERTEX
  5
14C14
  8
01
 10
100.0536576990877
 20
-145.7769742387848
 30
0.0
  0
SEQEND
  5
15114
  8
01
  0
POLYLINE
  5
12DC6
  8
01
 66
     1
 10
0.0
 20
0.0
 30
0.0
  0
VERTEX
  5
14C15
  8
01
 10
96.69233580897854
 20
-151.8454995058767
 30
0.0
  0
VERTEX
  5
14C16
  8
01
 10
97.06928402194345
 20
-151.6366253969819
 30
0.0
  0
VERTEX
  5
14C17
  8
01
 10
97.43737519611817
 20
-151.3974744665151
 30
0.0
  0
VERTEX
  5
14C18
  8
01
 10
97.7931369336087
 20
-151.1283922036159
 30
0.0
  0
VERTEX
  5
14C19
  8
01
 10
98.13307106681876
 20
-150.8302413115412
 30
0.0
  0
VERTEX
  5
14C1A
  8
01
 10
98.4537489265385
 20
-150.5044172637571
 30
0.0
  0
VERTEX
  5
14C1B
  8
01
 10
98.75191169204894
 20
-150.1528427969087
 30
0.0
  0
VERTEX
  5
14C1C
  8
01
 10
99.02457034959298
 20
-149.7779398007197
 30
0.0
  0
VERTEX
  5
14C1D
  8
01
 10
99.26909932338386
 20
-149.3825787076702
 30
0.0
  0
VERTEX
  5
14C1E
  8
01
 10
99.48331794088679
 20
-148.9700072631475
 30
0.0
  0
VERTEX
  5
14C1F
  8
01
 10
99.66555458613435
 20
-148.5437622570605
 30
0.0
  0
VERTEX
  5
14C20
  8
01
 10
99.81468962780589
 20
-148.1075692036746
 30
0.0
  0
VERTEX
  5
14C21
  8
01
 10
99.93017484486926
 20
-147.6652358853856
 30
0.0
  0
VERTEX
  5
14C22
  8
01
 10
100.0120289115477
 20
-147.2205460146505
 30
0.0
  0
VERTEX
  5
14C23
  8
01
 10
100.0608103180972
 20
-146.7771589913355
 30
0.0
  0
VERTEX
  5
14C24
  8
01
 10
100.0775706805909
 20
-146.3385209055546
 30
0.0
  0
VERTEX
  5
14C25
  8
01
 10
100.0637925668312
 20
-145.9077906974137
 30
0.0
  0
SEQEND
  5
15115
  8
01
  0
POLYLINE
  5
12DC7
  8
01
 66
     1
 10
0.0
 20
0.0
 30
0.0
  0
VERTEX
  5
14C26
  8
01
 10
89.90693591427554
 20
-151.0829676487585
 30
0.0
  0
VERTEX
  5
14C27
  8
01
 10
90.24730540057992
 20
-151.3472912410026
 30
0.0
  0
VERTEX
  5
14C28
  8
01
 10
90.6120225602536
 20
-151.591556820829
 30
0.0
  0
VERTEX
  5
14C29
  8
01
 10
90.9994031885567
 20
-151.8127081872834
 30
0.0
  0
VERTEX
  5
14C2A
  8
01
 10
91.4072774644415
 20
-152.0078690041437
 30
0.0
  0
VERTEX
  5
14C2B
  8
01
 10
91.83301314356324
 20
-152.1744365020282
 30
0.0
  0
VERTEX
  5
14C2C
  8
01
 10
92.27356011467525
 20
-152.3101715627917
 30
0.0
  0
VERTEX
  5
14C2D
  8
01
 10
92.72551558087083
 20
-152.4132795482298
 30
0.0
  0
VERTEX
  5
14C2E
  8
01
 10
93.1852074350182
 20
-152.4824764567659
 30
0.0
  0
VERTEX
  5
14C2F
  8
01
 10
93.64879180276223
 20
-152.5170357811766
 30
0.0
  0
VERTEX
  5
14C30
  8
01
 10
94.11235943573543
 20
-152.5168127457602
 30
0.0
  0
VERTEX
  5
14C31
  8
01
 10
94.57204483055374
 20
-152.4822442880684
 30
0.0
  0
VERTEX
  5
14C32
  8
01
 10
95.02413173906695
 20
-152.4143250199651
 30
0.0
  0
VERTEX
  5
14C33
  8
01
 10
95.46514914789506
 20
-152.3145612265494
 30
0.0
  0
VERTEX
  5
14C34
  8
01
 10
95.89195277409212
 20
-152.1849065207568
 30
0.0
  0
VERTEX
  5
14C35
  8
01
 10
96.30178850473918
 20
-152.0276838953705
 30
0.0
  0
VERTEX
  5
14C36
  8
01
 10
96.69233580897854
 20
-151.8454995058767
 30
0.0
  0
SEQEND
  5
15116
  8
01
  0
POLYLINE
  5
12DC8
  8
01
 66
     1
 10
0.0
 20
0.0
 30
0.0
  0
VERTEX
  5
14C37
  8
01
 10
88.8967576148767
 20
-136.0416350005919
 30
0.0
  0
VERTEX
  5
14C38
  8
01
 10
83.44450709286632
 20
-137.3545455060242
 30
0.0
  0
VERTEX
  5
14C39
  8
01
 10
78.01816995251053
 20
-138.8755702101293
 30
0.0
  0
VERTEX
  5
14C3A
  8
01
 10
72.62952770613755
 20
-140.6043547426897
 30
0.0
  0
VERTEX
  5
14C3B
  8
01
 10
67.29040171231686
 20
-142.5396609680083
 30
0.0
  0
VERTEX
  5
14C3C
  8
01
 10
62.01257050245224
 20
-144.6793585690366
 30
0.0
  0
VERTEX
  5
14C3D
  8
01
 10
56.80768580778297
 20
-147.0204259165234
 30
0.0
  0
VERTEX
  5
14C3E
  8
01
 10
51.68718850614528
 20
-149.5589604173049
 30
0.0
  0
VERTEX
  5
14C3F
  8
01
 10
46.66222573706804
 20
-152.2901983523074
 30
0.0
  0
VERTEX
  5
14C40
  8
01
 10
41.7435704318324
 20
-155.2085440269125
 30
0.0
  0
VERTEX
  5
14C41
  8
01
 10
36.94154447141283
 20
-158.3076078699454
 30
0.0
  0
VERTEX
  5
14C42
  8
01
 10
32.2659466203609
 20
-161.5802529386183
 30
0.0
  0
VERTEX
  5
14C43
  8
01
 10
27.72598629052861
 20
-165.018649121029
 30
0.0
  0
VERTEX
  5
14C44
  8
01
 10
23.3302240680289
 20
-168.6143341804986
 30
0.0
  0
VERTEX
  5
14C45
  8
01
 10
19.08651979397371
 20
-172.3582806616574
 30
0.0
  0
VERTEX
  5
14C46
  8
01
 10
15.00198882909998
 20
-176.2409675803118
 30
0.0
  0
VERTEX
  5
14C47
  8
01
 10
11.0829669597557
 20
-180.2524557502605
 30
0.0
  0
SEQEND
  5
15117
  8
01
  0
POLYLINE
  5
12DC9
  8
01
 66
     1
 10
0.0
 20
0.0
 30
0.0
  0
VERTEX
  5
14C48
  8
01
 10
12.54730621272812
 20
-181.6395803500302
 30
0.0
  0
VERTEX
  5
14C49
  8
01
 10
16.54376463943694
 20
-177.899433140918
 30
0.0
  0
VERTEX
  5
14C4A
  8
01
 10
20.68331768322505
 20
-174.283405727817
 30
0.0
  0
VERTEX
  5
14C4B
  8
01
 10
24.96018065829196
 20
-170.7994697691014
 30
0.0
  0
VERTEX
  5
14C4C
  8
01
 10
29.36798892602738
 20
-167.455234725903
 30
0.0
  0
VERTEX
  5
14C4D
  8
01
 10
33.89982669015411
 20
-164.2578959105943
 30
0.0
  0
VERTEX
  5
14C4E
  8
01
 10
38.54826131273042
 20
-161.2141853489518
 30
0.0
  0
VERTEX
  5
14C4F
  8
01
 10
43.30538282015166
 20
-158.330326134103
 30
0.0
  0
VERTEX
  5
14C50
  8
01
 10
48.16284817391366
 20
-155.6119909043043
 30
0.0
  0
VERTEX
  5
14C51
  8
01
 10
53.11192979398725
 20
-153.0642650159063
 30
0.0
  0
VERTEX
  5
14C52
  8
01
 10
58.1435677457055
 20
-150.6916149089023
 30
0.0
  0
VERTEX
  5
14C53
  8
01
 10
63.24842493629392
 20
-148.4978620770823
 30
0.0
  0
VERTEX
  5
14C54
  8
01
 10
68.41694461640643
 20
-146.4861629602821
 30
0.0
  0
VERTEX
  5
14C55
  8
01
 10
73.63940944664232
 20
-144.6589949750598
 30
0.0
  0
VERTEX
  5
14C56
  8
01
 10
78.90600136986798
 20
-143.0181487951441
 30
0.0
  0
VERTEX
  5
14C57
  8
01
 10
84.20686152757857
 20
-141.5647268870149
 30
0.0
  0
VERTEX
  5
14C58
  8
01
 10
89.53214947227718
 20
-140.2991482018717
 30
0.0
  0
SEQEND
  5
15118
  8
01
  0
POLYLINE
  5
12DCA
  8
01
 10
0.0
 20
0.0
 30
0.0
 66
     1
 70
     8
  0
VERTEX
  5
14C59
  8
01
 10
99.4081929173668
 20
-138.4528104492749
 30
0.0
 70
    32
  0
VERTEX
  5
14C5A
  8
01
 10
99.39628913401292
 20
-138.3177368380304
 30
0.0
 70
    32
  0
VERTEX
  5
14C5B
  8
01
 10
99.38438535065904
 20
-138.182663226786
 30
0.0
 70
    32
  0
VERTEX
  5
14C5C
  8
01
 10
99.37248156730517
 20
-138.0475896155415
 30
0.0
 70
    32
  0
VERTEX
  5
14C5D
  8
01
 10
99.36057778395131
 20
-137.9125160042971
 30
0.0
 70
    32
  0
VERTEX
  5
14C5E
  8
01
 10
99.34867400059746
 20
-137.7774423930526
 30
0.0
 70
    32
  0
VERTEX
  5
14C5F
  8
01
 10
99.33677021724361
 20
-137.6423687818082
 30
0.0
 70
    32
  0
VERTEX
  5
14C60
  8
01
 10
99.32486643388977
 20
-137.5072951705637
 30
0.0
 70
    32
  0
VERTEX
  5
14C61
  8
01
 10
99.31296265053594
 20
-137.3722215593193
 30
0.0
 70
    32
  0
VERTEX
  5
14C62
  8
01
 10
99.3010588671821
 20
-137.2371479480749
 30
0.0
 70
    32
  0
VERTEX
  5
14C63
  8
01
 10
99.28915508382829
 20
-137.1020743368305
 30
0.0
 70
    32
  0
VERTEX
  5
14C64
  8
01
 10
99.27725130047448
 20
-136.9670007255861
 30
0.0
 70
    32
  0
VERTEX
  5
14C65
  8
01
 10
99.26534751712067
 20
-136.8319271143417
 30
0.0
 70
    32
  0
VERTEX
  5
14C66
  8
01
 10
99.25344373376687
 20
-136.6968535030973
 30
0.0
 70
    32
  0
VERTEX
  5
14C67
  8
01
 10
99.24153995041308
 20
-136.5617798918529
 30
0.0
 70
    32
  0
VERTEX
  5
14C68
  8
01
 10
99.2296361670593
 20
-136.4267062806085
 30
0.0
 70
    32
  0
VERTEX
  5
14C69
  8
01
 10
99.21773238370554
 20
-136.2916326693642
 30
0.0
 70
    32
  0
SEQEND
  5
15119
  8
01
  0
POLYLINE
  5
12DCB
  8
01
 66
     1
 10
0.0
 20
0.0
 30
0.0
  0
VERTEX
  5
14C6A
  8
01
 10
89.53214947227717
 20
-140.2991482018717
 30
0.0
  0
VERTEX
  5
14C6B
  8
01
 10
90.14575587741834
 20
-140.1656299002732
 30
0.0
  0
VERTEX
  5
14C6C
  8
01
 10
90.75991468536076
 20
-140.0345137519764
 30
0.0
  0
VERTEX
  5
14C6D
  8
01
 10
91.3746117852175
 20
-139.9058031480727
 30
0.0
  0
VERTEX
  5
14C6E
  8
01
 10
91.9898330386107
 20
-139.7795013690872
 30
0.0
  0
VERTEX
  5
14C6F
  8
01
 10
92.60556428075505
 20
-139.6556115847024
 30
0.0
  0
VERTEX
  5
14C70
  8
01
 10
93.22179132154444
 20
-139.534136853495
 30
0.0
  0
VERTEX
  5
14C71
  8
01
 10
93.83849994664192
 20
-139.4150801226852
 30
0.0
  0
VERTEX
  5
14C72
  8
01
 10
94.45567591857235
 20
-139.2984442278989
 30
0.0
  0
VERTEX
  5
14C73
  8
01
 10
95.07330497781807
 20
-139.1842318929428
 30
0.0
  0
VERTEX
  5
14C74
  8
01
 10
95.69137284391708
 20
-139.0724457295926
 30
0.0
  0
VERTEX
  5
14C75
  8
01
 10
96.30986521656361
 20
-138.9630882373933
 30
0.0
  0
VERTEX
  5
14C76
  8
01
 10
96.92876777671093
 20
-138.856161803474
 30
0.0
  0
VERTEX
  5
14C77
  8
01
 10
97.54806618767627
 20
-138.751668702374
 30
0.0
  0
VERTEX
  5
14C78
  8
01
 10
98.16774609624765
 20
-138.6496110958835
 30
0.0
  0
VERTEX
  5
14C79
  8
01
 10
98.78779313379235
 20
-138.5499910328961
 30
0.0
  0
VERTEX
  5
14C7A
  8
01
 10
99.4081929173668
 20
-138.4528104492749
 30
0.0
  0
SEQEND
  5
1511A
  8
01
  0
POLYLINE
  5
12DCC
  8
01
 66
     1
 10
0.0
 20
0.0
 30
0.0
  0
VERTEX
  5
14C7B
  8
01
 10
10.34685836544087
 20
-181.039850354214
 30
0.0
  0
VERTEX
  5
14C7C
  8
01
 10
10.34621682714032
 20
-181.0405418126541
 30
0.0
  0
VERTEX
  5
14C7D
  8
01
 10
10.34557561451485
 20
-181.0412335741155
 30
0.0
  0
VERTEX
  5
14C7E
  8
01
 10
10.34493472777909
 20
-181.0419256383682
 30
0.0
  0
VERTEX
  5
14C7F
  8
01
 10
10.34429416714746
 20
-181.0426180051818
 30
0.0
  0
VERTEX
  5
14C80
  8
01
 10
10.34365393283416
 20
-181.0433106743258
 30
0.0
  0
VERTEX
  5
14C81
  8
01
 10
10.34301402505317
 20
-181.0440036455693
 30
0.0
  0
VERTEX
  5
14C82
  8
01
 10
10.34237444401827
 20
-181.0446969186816
 30
0.0
  0
VERTEX
  5
14C83
  8
01
 10
10.34173518994301
 20
-181.0453904934313
 30
0.0
  0
VERTEX
  5
14C84
  8
01
 10
10.34109626304071
 20
-181.0460843695872
 30
0.0
  0
VERTEX
  5
14C85
  8
01
 10
10.34045766352448
 20
-181.0467785469178
 30
0.0
  0
VERTEX
  5
14C86
  8
01
 10
10.33981939160724
 20
-181.0474730251912
 30
0.0
  0
VERTEX
  5
14C87
  8
01
 10
10.33918144750164
 20
-181.0481678041754
 30
0.0
  0
VERTEX
  5
14C88
  8
01
 10
10.33854383142015
 20
-181.0488628836385
 30
0.0
  0
VERTEX
  5
14C89
  8
01
 10
10.337906543575
 20
-181.049558263348
 30
0.0
  0
VERTEX
  5
14C8A
  8
01
 10
10.33726958417822
 20
-181.0502539430713
 30
0.0
  0
VERTEX
  5
14C8B
  8
01
 10
10.33663295344159
 20
-181.0509499225757
 30
0.0
  0
SEQEND
  5
1511B
  8
01
  0
POLYLINE
  5
12DCD
  8
01
 66
     1
 10
0.0
 20
0.0
 30
0.0
  0
VERTEX
  5
14C8C
  8
01
 10
11.08295683379548
 20
-180.2524665056274
 30
0.0
  0
VERTEX
  5
14C8D
  8
01
 10
11.03678732000889
 20
-180.3015248012778
 30
0.0
  0
VERTEX
  5
14C8E
  8
01
 10
10.99063952402451
 20
-180.3506035904105
 30
0.0
  0
VERTEX
  5
14C8F
  8
01
 10
10.94451345948393
 20
-180.3997028586008
 30
0.0
  0
VERTEX
  5
14C90
  8
01
 10
10.89840914001591
 20
-180.4488225914122
 30
0.0
  0
VERTEX
  5
14C91
  8
01
 10
10.85232657923645
 20
-180.497962774396
 30
0.0
  0
VERTEX
  5
14C92
  8
01
 10
10.80626579074877
 20
-180.5471233930914
 30
0.0
  0
VERTEX
  5
14C93
  8
01
 10
10.76022678814323
 20
-180.5963044330257
 30
0.0
  0
VERTEX
  5
14C94
  8
01
 10
10.71420958499738
 20
-180.6455058797139
 30
0.0
  0
VERTEX
  5
14C95
  8
01
 10
10.66821419487593
 20
-180.6947277186592
 30
0.0
  0
VERTEX
  5
14C96
  8
01
 10
10.62224063133073
 20
-180.7439699353526
 30
0.0
  0
VERTEX
  5
14C97
  8
01
 10
10.57628890790074
 20
-180.7932325152732
 30
0.0
  0
VERTEX
  5
14C98
  8
01
 10
10.53035903811209
 20
-180.8425154438882
 30
0.0
  0
VERTEX
  5
14C99
  8
01
 10
10.48445103547794
 20
-180.8918187066526
 30
0.0
  0
VERTEX
  5
14C9A
  8
01
 10
10.4385649134986
 20
-180.9411422890095
 30
0.0
  0
VERTEX
  5
14C9B
  8
01
 10
10.39270068566143
 20
-180.9904861763902
 30
0.0
  0
VERTEX
  5
14C9C
  8
01
 10
10.34685836544087
 20
-181.039850354214
 30
0.0
  0
SEQEND
  5
1511C
  8
01
  0
POLYLINE
  5
12DCE
  8
01
 10
0.0
 20
0.0
 30
0.0
 66
     1
 70
     8
  0
VERTEX
  5
14C9D
  8
01
 10
12.54730621272812
 20
-181.6395803500302
 30
0.0
 70
    32
  0
VERTEX
  5
14C9E
  8
01
 10
12.54679785263646
 20
-181.6385826371735
 30
0.0
 70
    32
  0
VERTEX
  5
14C9F
  8
01
 10
12.54628949254479
 20
-181.6375849243168
 30
0.0
 70
    32
  0
VERTEX
  5
14CA0
  8
01
 10
12.54578113245311
 20
-181.6365872114601
 30
0.0
 70
    32
  0
VERTEX
  5
14CA1
  8
01
 10
12.54527277236143
 20
-181.6355894986035
 30
0.0
 70
    32
  0
VERTEX
  5
14CA2
  8
01
 10
12.54476441226974
 20
-181.6345917857468
 30
0.0
 70
    32
  0
VERTEX
  5
14CA3
  8
01
 10
12.54425605217804
 20
-181.6335940728901
 30
0.0
 70
    32
  0
VERTEX
  5
14CA4
  8
01
 10
12.54374769208634
 20
-181.6325963600335
 30
0.0
 70
    32
  0
VERTEX
  5
14CA5
  8
01
 10
12.54323933199463
 20
-181.6315986471768
 30
0.0
 70
    32
  0
VERTEX
  5
14CA6
  8
01
 10
12.54273097190291
 20
-181.6306009343202
 30
0.0
 70
    32
  0
VERTEX
  5
14CA7
  8
01
 10
12.54222261181118
 20
-181.6296032214635
 30
0.0
 70
    32
  0
VERTEX
  5
14CA8
  8
01
 10
12.54171425171945
 20
-181.6286055086069
 30
0.0
 70
    32
  0
VERTEX
  5
14CA9
  8
01
 10
12.54120589162771
 20
-181.6276077957503
 30
0.0
 70
    32
  0
VERTEX
  5
14CAA
  8
01
 10
12.54069753153597
 20
-181.6266100828937
 30
0.0
 70
    32
  0
VERTEX
  5
14CAB
  8
01
 10
12.54018917144421
 20
-181.6256123700371
 30
0.0
 70
    32
  0
VERTEX
  5
14CAC
  8
01
 10
12.53968081135245
 20
-181.6246146571805
 30
0.0
 70
    32
  0
VERTEX
  5
14CAD
  8
01
 10
12.53917245126068
 20
-181.6236169443239
 30
0.0
 70
    32
  0
SEQEND
  5
1511D
  8
01
  0
POLYLINE
  5
12DCF
  8
01
 66
     1
 10
0.0
 20
0.0
 30
0.0
  0
VERTEX
  5
14CAE
  8
01
 10
10.30754049852986
 20
-183.8518604232288
 30
0.0
  0
VERTEX
  5
14CAF
  8
01
 10
10.44624854560658
 20
-183.7123107938201
 30
0.0
  0
VERTEX
  5
14CB0
  8
01
 10
10.58512836288902
 20
-183.5729306469239
 30
0.0
  0
VERTEX
  5
14CB1
  8
01
 10
10.72417963956354
 20
-183.4337202994871
 30
0.0
  0
VERTEX
  5
14CB2
  8
01
 10
10.86340206403717
 20
-183.2946800676961
 30
0.0
  0
VERTEX
  5
14CB3
  8
01
 10
11.00279532394
 20
-183.1558102669746
 30
0.0
  0
VERTEX
  5
14CB4
  8
01
 10
11.14235910612752
 20
-183.0171112119809
 30
0.0
  0
VERTEX
  5
14CB5
  8
01
 10
11.2820930966829
 20
-182.8785832166057
 30
0.0
  0
VERTEX
  5
14CB6
  8
01
 10
11.42199698091942
 20
-182.7402265939699
 30
0.0
  0
VERTEX
  5
14CB7
  8
01
 10
11.56207044338278
 20
-182.6020416564216
 30
0.0
  0
VERTEX
  5
14CB8
  8
01
 10
11.70231316785348
 20
-182.4640287155349
 30
0.0
  0
VERTEX
  5
14CB9
  8
01
 10
11.84272483734924
 20
-182.3261880821061
 30
0.0
  0
VERTEX
  5
14CBA
  8
01
 10
11.98330513412733
 20
-182.1885200661527
 30
0.0
  0
VERTEX
  5
14CBB
  8
01
 10
12.12405373968699
 20
-182.0510249769102
 30
0.0
  0
VERTEX
  5
14CBC
  8
01
 10
12.26497033477186
 20
-181.9137031228302
 30
0.0
  0
VERTEX
  5
14CBD
  8
01
 10
12.40605459937236
 20
-181.776554811578
 30
0.0
  0
VERTEX
  5
14CBE
  8
01
 10
12.54730621272812
 20
-181.6395803500302
 30
0.0
  0
SEQEND
  5
1511E
  8
01
  0
POLYLINE
  5
12DD0
  8
01
 10
0.0
 20
0.0
 30
0.0
 66
     1
 70
     8
  0
VERTEX
  5
14CBF
  8
01
 10
10.03067199012968
 20
-183.3084753800397
 30
0.0
 70
    32
  0
VERTEX
  5
14CC0
  8
01
 10
10.04797627190474
 20
-183.342436945239
 30
0.0
 70
    32
  0
VERTEX
  5
14CC1
  8
01
 10
10.0652805536798
 20
-183.3763985104383
 30
0.0
 70
    32
  0
VERTEX
  5
14CC2
  8
01
 10
10.08258483545485
 20
-183.4103600756376
 30
0.0
 70
    32
  0
VERTEX
  5
14CC3
  8
01
 10
10.09988911722989
 20
-183.444321640837
 30
0.0
 70
    32
  0
VERTEX
  5
14CC4
  8
01
 10
10.11719339900493
 20
-183.4782832060363
 30
0.0
 70
    32
  0
VERTEX
  5
14CC5
  8
01
 10
10.13449768077996
 20
-183.5122447712356
 30
0.0
 70
    32
  0
VERTEX
  5
14CC6
  8
01
 10
10.15180196255498
 20
-183.5462063364349
 30
0.0
 70
    32
  0
VERTEX
  5
14CC7
  8
01
 10
10.16910624433
 20
-183.5801679016342
 30
0.0
 70
    32
  0
VERTEX
  5
14CC8
  8
01
 10
10.186410526105
 20
-183.6141294668336
 30
0.0
 70
    32
  0
VERTEX
  5
14CC9
  8
01
 10
10.20371480788
 20
-183.6480910320329
 30
0.0
 70
    32
  0
VERTEX
  5
14CCA
  8
01
 10
10.221019089655
 20
-183.6820525972322
 30
0.0
 70
    32
  0
VERTEX
  5
14CCB
  8
01
 10
10.23832337142998
 20
-183.7160141624315
 30
0.0
 70
    32
  0
VERTEX
  5
14CCC
  8
01
 10
10.25562765320496
 20
-183.7499757276308
 30
0.0
 70
    32
  0
VERTEX
  5
14CCD
  8
01
 10
10.27293193497994
 20
-183.7839372928302
 30
0.0
 70
    32
  0
VERTEX
  5
14CCE
  8
01
 10
10.2902362167549
 20
-183.8178988580295
 30
0.0
 70
    32
  0
VERTEX
  5
14CCF
  8
01
 10
10.30754049852986
 20
-183.8518604232288
 30
0.0
 70
    32
  0
SEQEND
  5
1511F
  8
01
  0
ARC
  5
12DD4
  8
01
 10
94.7756188542047
 20
-154.228361074843
 30
0.0
 40
1.905176754838283
 50
116.3486579200289
 51
176.8642523775744
  0
LINE
  5
12DD5
  8
01
 10
73.07272919740522
 20
-169.1774984097317
 30
0.0
 11
81.45943858335578
 21
-174.6238980427986
 31
0.0
  0
LINE
  5
12DD6
  8
01
 10
82.08099493008659
 20
-157.1420858731301
 30
0.0
 11
88.79038353033489
 21
-161.4992192765733
 31
0.0
  0
ARC
  5
12DD7
  8
01
 10
82.6256344487284
 20
-156.3034156192573
 30
0.0
 40
1.0
 50
147.0000573967706
 51
236.9999669598533
  0
ARC
  5
12DD8
  8
01
 10
89.33502304897785
 20
-160.6605490227009
 30
0.0
 40
1.0
 50
236.9999669597757
 51
326.9999988526964
  0
LINE
  5
12DD9
  8
01
 10
92.89606159107494
 20
-157.0112982156236
 30
0.0
 11
49.87034077916597
 21
-223.2667656108299
 31
0.0
  0
LINE
  5
12DDA
  8
01
 10
84.52767551818248
 20
-151.5578920436858
 30
0.0
 11
41.4836282513737
 21
-217.8203708157673
 31
0.0
  0
CIRCLE
  5
12DDB
  8
01
 10
93.87759471059381
 20
-146.3212591763383
 30
0.0
 40
2.500000120429831
  0
CIRCLE
  5
12DDC
  8
01
 10
93.87759471059381
 20
-146.3212591763383
 30
0.0
 40
3.100000119484889
  0
CIRCLE
  5
12DDD
  8
01
 10
93.87759471059381
 20
-146.3212591763383
 30
0.0
 40
4.20000012000003
  0
LINE
  5
12DDE
  8
01
 10
97.24012982411533
 20
-134.4672233368615
 30
0.0
 11
88.8967576148767
 21
-136.0416350005919
 31
0.0
  0
POINT
  5
12DDF
  8
01
 10
122.5646532072784
 20
-141.4410662290654
 30
0.0
 50
180.0
  0
POLYLINE
  5
12DE0
  8
01
 10
0.0
 20
0.0
 30
0.0
 66
     1
 70
     8
  0
VERTEX
  5
14CD0
  8
01
 10
135.5646532072784
 20
-174.580426436834
 30
0.0
 70
    32
  0
VERTEX
  5
14CD1
  8
01
 10
135.5959032072784
 20
-174.580426436834
 30
0.0
 70
    32
  0
VERTEX
  5
14CD2
  8
01
 10
135.6271532072784
 20
-174.580426436834
 30
0.0
 70
    32
  0
VERTEX
  5
14CD3
  8
01
 10
135.6584032072784
 20
-174.580426436834
 30
0.0
 70
    32
  0
VERTEX
  5
14CD4
  8
01
 10
135.6896532072784
 20
-174.580426436834
 30
0.0
 70
    32
  0
VERTEX
  5
14CD5
  8
01
 10
135.7209032072784
 20
-174.580426436834
 30
0.0
 70
    32
  0
VERTEX
  5
14CD6
  8
01
 10
135.7521532072784
 20
-174.580426436834
 30
0.0
 70
    32
  0
VERTEX
  5
14CD7
  8
01
 10
135.7834032072784
 20
-174.580426436834
 30
0.0
 70
    32
  0
VERTEX
  5
14CD8
  8
01
 10
135.8146532072784
 20
-174.580426436834
 30
0.0
 70
    32
  0
VERTEX
  5
14CD9
  8
01
 10
135.8459032072784
 20
-174.580426436834
 30
0.0
 70
    32
  0
VERTEX
  5
14CDA
  8
01
 10
135.8771532072784
 20
-174.580426436834
 30
0.0
 70
    32
  0
VERTEX
  5
14CDB
  8
01
 10
135.9084032072784
 20
-174.580426436834
 30
0.0
 70
    32
  0
VERTEX
  5
14CDC
  8
01
 10
135.9396532072784
 20
-174.5804264368339
 30
0.0
 70
    32
  0
VERTEX
  5
14CDD
  8
01
 10
135.9709032072784
 20
-174.5804264368339
 30
0.0
 70
    32
  0
VERTEX
  5
14CDE
  8
01
 10
136.0021532072784
 20
-174.5804264368339
 30
0.0
 70
    32
  0
VERTEX
  5
14CDF
  8
01
 10
136.0334032072784
 20
-174.5804264368339
 30
0.0
 70
    32
  0
VERTEX
  5
14CE0
  8
01
 10
136.0646532072784
 20
-174.5804264368339
 30
0.0
 70
    32
  0
SEQEND
  5
15120
  8
01
  0
POLYLINE
  5
12DE1
  8
01
 10
0.0
 20
0.0
 30
0.0
 66
     1
 70
     8
  0
VERTEX
  5
14CE1
  8
01
 10
136.0646532072784
 20
-127.5804264368337
 30
0.0
 70
    32
  0
VERTEX
  5
14CE2
  8
01
 10
136.0334032072784
 20
-127.5804264368337
 30
0.0
 70
    32
  0
VERTEX
  5
14CE3
  8
01
 10
136.0021532072784
 20
-127.5804264368337
 30
0.0
 70
    32
  0
VERTEX
  5
14CE4
  8
01
 10
135.9709032072784
 20
-127.5804264368337
 30
0.0
 70
    32
  0
VERTEX
  5
14CE5
  8
01
 10
135.9396532072784
 20
-127.5804264368337
 30
0.0
 70
    32
  0
VERTEX
  5
14CE6
  8
01
 10
135.9084032072784
 20
-127.5804264368337
 30
0.0
 70
    32
  0
VERTEX
  5
14CE7
  8
01
 10
135.8771532072784
 20
-127.5804264368337
 30
0.0
 70
    32
  0
VERTEX
  5
14CE8
  8
01
 10
135.8459032072784
 20
-127.5804264368337
 30
0.0
 70
    32
  0
VERTEX
  5
14CE9
  8
01
 10
135.8146532072784
 20
-127.5804264368337
 30
0.0
 70
    32
  0
VERTEX
  5
14CEA
  8
01
 10
135.7834032072784
 20
-127.5804264368337
 30
0.0
 70
    32
  0
VERTEX
  5
14CEB
  8
01
 10
135.7521532072784
 20
-127.5804264368337
 30
0.0
 70
    32
  0
VERTEX
  5
14CEC
  8
01
 10
135.7209032072784
 20
-127.5804264368337
 30
0.0
 70
    32
  0
VERTEX
  5
14CED
  8
01
 10
135.6896532072784
 20
-127.5804264368337
 30
0.0
 70
    32
  0
VERTEX
  5
14CEE
  8
01
 10
135.6584032072784
 20
-127.5804264368337
 30
0.0
 70
    32
  0
VERTEX
  5
14CEF
  8
01
 10
135.6271532072784
 20
-127.5804264368337
 30
0.0
 70
    32
  0
VERTEX
  5
14CF0
  8
01
 10
135.5959032072784
 20
-127.5804264368337
 30
0.0
 70
    32
  0
VERTEX
  5
14CF1
  8
01
 10
135.5646532072784
 20
-127.5804264368337
 30
0.0
 70
    32
  0
SEQEND
  5
15121
  8
01
  0
POLYLINE
  5
12DE2
  8
01
 10
0.0
 20
0.0
 30
0.0
 66
     1
 70
     8
  0
VERTEX
  5
14CF2
  8
01
 10
85.0646532072784
 20
-174.580426436834
 30
0.0
 70
    32
  0
VERTEX
  5
14CF3
  8
01
 10
84.90740247578854
 20
-174.4783066177687
 30
0.0
 70
    32
  0
VERTEX
  5
14CF4
  8
01
 10
84.7501517442987
 20
-174.3761867987034
 30
0.0
 70
    32
  0
VERTEX
  5
14CF5
  8
01
 10
84.59290101280887
 20
-174.2740669796381
 30
0.0
 70
    32
  0
VERTEX
  5
14CF6
  8
01
 10
84.43565028131904
 20
-174.1719471605728
 30
0.0
 70
    32
  0
VERTEX
  5
14CF7
  8
01
 10
84.27839954982922
 20
-174.0698273415074
 30
0.0
 70
    32
  0
VERTEX
  5
14CF8
  8
01
 10
84.1211488183394
 20
-173.9677075224421
 30
0.0
 70
    32
  0
VERTEX
  5
14CF9
  8
01
 10
83.9638980868496
 20
-173.8655877033768
 30
0.0
 70
    32
  0
VERTEX
  5
14CFA
  8
01
 10
83.8066473553598
 20
-173.7634678843115
 30
0.0
 70
    32
  0
VERTEX
  5
14CFB
  8
01
 10
83.64939662387
 20
-173.6613480652462
 30
0.0
 70
    32
  0
VERTEX
  5
14CFC
  8
01
 10
83.49214589238022
 20
-173.5592282461809
 30
0.0
 70
    32
  0
VERTEX
  5
14CFD
  8
01
 10
83.33489516089044
 20
-173.4571084271155
 30
0.0
 70
    32
  0
VERTEX
  5
14CFE
  8
01
 10
83.17764442940067
 20
-173.3549886080502
 30
0.0
 70
    32
  0
VERTEX
  5
14CFF
  8
01
 10
83.0203936979109
 20
-173.2528687889849
 30
0.0
 70
    32
  0
VERTEX
  5
14D00
  8
01
 10
82.86314296642115
 20
-173.1507489699196
 30
0.0
 70
    32
  0
VERTEX
  5
14D01
  8
01
 10
82.7058922349314
 20
-173.0486291508542
 30
0.0
 70
    32
  0
VERTEX
  5
14D02
  8
01
 10
82.54864150344166
 20
-172.9465093317889
 30
0.0
 70
    32
  0
SEQEND
  5
15122
  8
01
  0
POLYLINE
  5
12DE3
  8
01
 10
0.0
 20
0.0
 30
0.0
 66
     1
 70
     8
  0
VERTEX
  5
14D03
  8
01
 10
95.41279487256416
 20
-158.6456856458709
 30
0.0
 70
    32
  0
VERTEX
  5
14D04
  8
01
 10
94.76605584602872
 20
-159.6415764135645
 30
0.0
 70
    32
  0
VERTEX
  5
14D05
  8
01
 10
94.11931681949326
 20
-160.637467181258
 30
0.0
 70
    32
  0
VERTEX
  5
14D06
  8
01
 10
93.47257779295781
 20
-161.6333579489516
 30
0.0
 70
    32
  0
VERTEX
  5
14D07
  8
01
 10
92.82583876642234
 20
-162.6292487166452
 30
0.0
 70
    32
  0
VERTEX
  5
14D08
  8
01
 10
92.17909973988687
 20
-163.6251394843387
 30
0.0
 70
    32
  0
VERTEX
  5
14D09
  8
01
 10
91.53236071335138
 20
-164.6210302520323
 30
0.0
 70
    32
  0
VERTEX
  5
14D0A
  8
01
 10
90.8856216868159
 20
-165.6169210197259
 30
0.0
 70
    32
  0
VERTEX
  5
14D0B
  8
01
 10
90.2388826602804
 20
-166.6128117874194
 30
0.0
 70
    32
  0
VERTEX
  5
14D0C
  8
01
 10
89.5921436337449
 20
-167.608702555113
 30
0.0
 70
    32
  0
VERTEX
  5
14D0D
  8
01
 10
88.94540460720938
 20
-168.6045933228065
 30
0.0
 70
    32
  0
VERTEX
  5
14D0E
  8
01
 10
88.29866558067387
 20
-169.6004840905001
 30
0.0
 70
    32
  0
VERTEX
  5
14D0F
  8
01
 10
87.65192655413834
 20
-170.5963748581937
 30
0.0
 70
    32
  0
VERTEX
  5
14D10
  8
01
 10
87.00518752760281
 20
-171.5922656258873
 30
0.0
 70
    32
  0
VERTEX
  5
14D11
  8
01
 10
86.35844850106727
 20
-172.5881563935808
 30
0.0
 70
    32
  0
VERTEX
  5
14D12
  8
01
 10
85.71170947453173
 20
-173.5840471612744
 30
0.0
 70
    32
  0
VERTEX
  5
14D13
  8
01
 10
85.06497044799617
 20
-174.5799379289679
 30
0.0
 70
    32
  0
SEQEND
  5
15123
  8
01
  0
POLYLINE
  5
12DE4
  8
01
 10
0.0
 20
0.0
 30
0.0
 66
     1
 70
     8
  0
VERTEX
  5
14D14
  8
01
 10
140.0646532072784
 20
-149.5804264368339
 30
0.0
 70
    32
  0
VERTEX
  5
14D15
  8
01
 10
140.0646532072784
 20
-151.1741764368339
 30
0.0
 70
    32
  0
VERTEX
  5
14D16
  8
01
 10
140.0646532072784
 20
-152.7679264368339
 30
0.0
 70
    32
  0
VERTEX
  5
14D17
  8
01
 10
140.0646532072784
 20
-154.3616764368339
 30
0.0
 70
    32
  0
VERTEX
  5
14D18
  8
01
 10
140.0646532072784
 20
-155.9554264368339
 30
0.0
 70
    32
  0
VERTEX
  5
14D19
  8
01
 10
140.0646532072784
 20
-157.5491764368339
 30
0.0
 70
    32
  0
VERTEX
  5
14D1A
  8
01
 10
140.0646532072784
 20
-159.1429264368339
 30
0.0
 70
    32
  0
VERTEX
  5
14D1B
  8
01
 10
140.0646532072784
 20
-160.7366764368339
 30
0.0
 70
    32
  0
VERTEX
  5
14D1C
  8
01
 10
140.0646532072784
 20
-162.3304264368339
 30
0.0
 70
    32
  0
VERTEX
  5
14D1D
  8
01
 10
140.0646532072784
 20
-163.9241764368339
 30
0.0
 70
    32
  0
VERTEX
  5
14D1E
  8
01
 10
140.0646532072784
 20
-165.5179264368339
 30
0.0
 70
    32
  0
VERTEX
  5
14D1F
  8
01
 10
140.0646532072784
 20
-167.1116764368339
 30
0.0
 70
    32
  0
VERTEX
  5
14D20
  8
01
 10
140.0646532072784
 20
-168.7054264368339
 30
0.0
 70
    32
  0
VERTEX
  5
14D21
  8
01
 10
140.0646532072784
 20
-170.2991764368339
 30
0.0
 70
    32
  0
VERTEX
  5
14D22
  8
01
 10
140.0646532072784
 20
-171.8929264368339
 30
0.0
 70
    32
  0
VERTEX
  5
14D23
  8
01
 10
140.0646532072784
 20
-173.4866764368339
 30
0.0
 70
    32
  0
VERTEX
  5
14D24
  8
01
 10
140.0646532072784
 20
-175.0804264368339
 30
0.0
 70
    32
  0
SEQEND
  5
15124
  8
01
  0
POLYLINE
  5
12DE5
  8
01
 10
0.0
 20
0.0
 30
0.0
 66
     1
 70
     8
  0
VERTEX
  5
14D25
  8
01
 10
140.0646532072784
 20
-124.0804264368339
 30
0.0
 70
    32
  0
VERTEX
  5
14D26
  8
01
 10
140.0646532072784
 20
-125.6741764368339
 30
0.0
 70
    32
  0
VERTEX
  5
14D27
  8
01
 10
140.0646532072784
 20
-127.2679264368339
 30
0.0
 70
    32
  0
VERTEX
  5
14D28
  8
01
 10
140.0646532072784
 20
-128.8616764368339
 30
0.0
 70
    32
  0
VERTEX
  5
14D29
  8
01
 10
140.0646532072784
 20
-130.4554264368339
 30
0.0
 70
    32
  0
VERTEX
  5
14D2A
  8
01
 10
140.0646532072784
 20
-132.0491764368339
 30
0.0
 70
    32
  0
VERTEX
  5
14D2B
  8
01
 10
140.0646532072784
 20
-133.6429264368339
 30
0.0
 70
    32
  0
VERTEX
  5
14D2C
  8
01
 10
140.0646532072784
 20
-135.2366764368339
 30
0.0
 70
    32
  0
VERTEX
  5
14D2D
  8
01
 10
140.0646532072784
 20
-136.8304264368339
 30
0.0
 70
    32
  0
VERTEX
  5
14D2E
  8
01
 10
140.0646532072784
 20
-138.4241764368339
 30
0.0
 70
    32
  0
VERTEX
  5
14D2F
  8
01
 10
140.0646532072784
 20
-140.0179264368339
 30
0.0
 70
    32
  0
VERTEX
  5
14D30
  8
01
 10
140.0646532072784
 20
-141.6116764368339
 30
0.0
 70
    32
  0
VERTEX
  5
14D31
  8
01
 10
140.0646532072784
 20
-143.2054264368339
 30
0.0
 70
    32
  0
VERTEX
  5
14D32
  8
01
 10
140.0646532072784
 20
-144.7991764368339
 30
0.0
 70
    32
  0
VERTEX
  5
14D33
  8
01
 10
140.0646532072784
 20
-146.3929264368339
 30
0.0
 70
    32
  0
VERTEX
  5
14D34
  8
01
 10
140.0646532072784
 20
-147.9866764368339
 30
0.0
 70
    32
  0
VERTEX
  5
14D35
  8
01
 10
140.0646532072784
 20
-149.5804264368339
 30
0.0
 70
    32
  0
SEQEND
  5
15125
  8
01
  0
POLYLINE
  5
12DE6
  8
01
 10
0.0
 20
0.0
 30
0.0
 66
     1
 70
     8
  0
VERTEX
  5
14D36
  8
01
 10
139.5646532072784
 20
-175.0804264368339
 30
0.0
 70
    32
  0
VERTEX
  5
14D37
  8
01
 10
139.5959032072784
 20
-175.0804264368339
 30
0.0
 70
    32
  0
VERTEX
  5
14D38
  8
01
 10
139.6271532072784
 20
-175.0804264368339
 30
0.0
 70
    32
  0
VERTEX
  5
14D39
  8
01
 10
139.6584032072784
 20
-175.0804264368339
 30
0.0
 70
    32
  0
VERTEX
  5
14D3A
  8
01
 10
139.6896532072784
 20
-175.0804264368339
 30
0.0
 70
    32
  0
VERTEX
  5
14D3B
  8
01
 10
139.7209032072784
 20
-175.0804264368339
 30
0.0
 70
    32
  0
VERTEX
  5
14D3C
  8
01
 10
139.7521532072784
 20
-175.0804264368339
 30
0.0
 70
    32
  0
VERTEX
  5
14D3D
  8
01
 10
139.7834032072784
 20
-175.0804264368339
 30
0.0
 70
    32
  0
VERTEX
  5
14D3E
  8
01
 10
139.8146532072784
 20
-175.0804264368339
 30
0.0
 70
    32
  0
VERTEX
  5
14D3F
  8
01
 10
139.8459032072784
 20
-175.0804264368339
 30
0.0
 70
    32
  0
VERTEX
  5
14D40
  8
01
 10
139.8771532072784
 20
-175.0804264368339
 30
0.0
 70
    32
  0
VERTEX
  5
14D41
  8
01
 10
139.9084032072784
 20
-175.0804264368339
 30
0.0
 70
    32
  0
VERTEX
  5
14D42
  8
01
 10
139.9396532072784
 20
-175.0804264368339
 30
0.0
 70
    32
  0
VERTEX
  5
14D43
  8
01
 10
139.9709032072784
 20
-175.0804264368339
 30
0.0
 70
    32
  0
VERTEX
  5
14D44
  8
01
 10
140.0021532072784
 20
-175.0804264368339
 30
0.0
 70
    32
  0
VERTEX
  5
14D45
  8
01
 10
140.0334032072784
 20
-175.0804264368339
 30
0.0
 70
    32
  0
VERTEX
  5
14D46
  8
01
 10
140.0646532072784
 20
-175.0804264368339
 30
0.0
 70
    32
  0
SEQEND
  5
15126
  8
01
  0
POLYLINE
  5
12DE7
  8
01
 10
0.0
 20
0.0
 30
0.0
 66
     1
 70
     8
  0
VERTEX
  5
14D47
  8
01
 10
140.0646532072784
 20
-124.0804264368339
 30
0.0
 70
    32
  0
VERTEX
  5
14D48
  8
01
 10
140.0368111479286
 20
-124.0804264368339
 30
0.0
 70
    32
  0
VERTEX
  5
14D49
  8
01
 10
140.0089690885788
 20
-124.0804264368339
 30
0.0
 70
    32
  0
VERTEX
  5
14D4A
  8
01
 10
139.981127029229
 20
-124.0804264368339
 30
0.0
 70
    32
  0
VERTEX
  5
14D4B
  8
01
 10
139.9532849698792
 20
-124.0804264368339
 30
0.0
 70
    32
  0
VERTEX
  5
14D4C
  8
01
 10
139.9254429105293
 20
-124.0804264368339
 30
0.0
 70
    32
  0
VERTEX
  5
14D4D
  8
01
 10
139.8976008511796
 20
-124.0804264368339
 30
0.0
 70
    32
  0
VERTEX
  5
14D4E
  8
01
 10
139.8697587918298
 20
-124.0804264368339
 30
0.0
 70
    32
  0
VERTEX
  5
14D4F
  8
01
 10
139.8419167324799
 20
-124.0804264368339
 30
0.0
 70
    32
  0
VERTEX
  5
14D50
  8
01
 10
139.8140746731301
 20
-124.0804264368339
 30
0.0
 70
    32
  0
VERTEX
  5
14D51
  8
01
 10
139.7862326137803
 20
-124.0804264368339
 30
0.0
 70
    32
  0
VERTEX
  5
14D52
  8
01
 10
139.7583905544305
 20
-124.0804264368339
 30
0.0
 70
    32
  0
VERTEX
  5
14D53
  8
01
 10
139.7305484950807
 20
-124.0804264368339
 30
0.0
 70
    32
  0
VERTEX
  5
14D54
  8
01
 10
139.7027064357309
 20
-124.0804264368339
 30
0.0
 70
    32
  0
VERTEX
  5
14D55
  8
01
 10
139.6748643763811
 20
-124.0804264368339
 30
0.0
 70
    32
  0
VERTEX
  5
14D56
  8
01
 10
139.6470223170313
 20
-124.0804264368339
 30
0.0
 70
    32
  0
VERTEX
  5
14D57
  8
01
 10
139.6191802576815
 20
-124.0804264368339
 30
0.0
 70
    32
  0
SEQEND
  5
15127
  8
01
  0
LINE
  5
12DE8
  8
01
 10
85.06497044799617
 20
-174.5799379289679
 30
0.0
 11
117.5671313635271
 21
-174.5799379289679
 31
0.0
  0
LINE
  5
12DE9
  8
01
 10
126.5646532072784
 20
-174.580426436834
 30
0.0
 11
135.5646532072784
 21
-174.580426436834
 31
0.0
  0
ARC
  5
12DEA
  8
01
 10
122.0646532072781
 20
-197.8137950243769
 30
0.0
 40
23.66515193115453
 50
79.03828586436207
 51
100.9617141356379
  0
LINE
  5
12DEB
  8
01
 10
139.6191802576815
 20
-124.0804264368339
 30
0.0
 11
136.0646532072784
 21
-127.0804264368339
 31
0.0
  0
LINE
  5
12DEC
  8
01
 10
136.0646532072784
 20
-175.0804264368339
 30
0.0
 11
139.5646532072784
 21
-175.0804264368339
 31
0.0
  0
ARC
  5
12DED
  8
01
 10
228.9765185372826
 20
-224.0761666898736
 30
0.0
 40
134.3026599565809
 50
134.0696660711285
 51
148.0478458489086
  0
ARC
  5
12DEE
  8
01
 10
111.7904093739203
 20
-133.1647684746547
 30
0.0
 40
30.29031852987706
 50
237.2695075265616
 51
249.6516269658851
  0
ARC
  5
12DEF
  8
01
 10
103.9038086456625
 20
-154.8825784153254
 30
0.0
 40
7.18713111923249
 50
248.3964650070963
 51
303.1614171766404
  0
ARC
  5
12DF0
  8
01
 10
87.46972835162744
 20
-135.1473194623199
 30
0.0
 40
32.83151642906233
 50
308.3381536758334
 51
327.0559779105246
  0
LINE
  5
12DF1
  8
01
 10
92.89606159107494
 20
-157.0112982156236
 30
0.0
 11
95.41279487256416
 21
-158.6456856458709
 31
0.0
  0
LINE
  5
12DF2
  8
01
 10
92.87329465295214
 20
-154.1241444710559
 30
0.0
 11
92.89606159107494
 21
-157.0112982156236
 31
0.0
  0
LINE
  5
12DF3
  8
01
 10
84.52767551818248
 20
-151.5578920436858
 30
0.0
 11
87.128450259274
 21
-150.433038136982
 31
0.0
  0
LINE
  5
12DF4
  8
01
 10
136.0646532072784
 20
-127.0804264368339
 30
0.0
 11
136.0646532072784
 21
-175.0804264368339
 31
0.0
  0
LINE
  5
12DF5
  8
01
 10
135.5646532072784
 20
-127.5804264368337
 30
0.0
 11
135.5646532072784
 21
-174.580426436834
 31
0.0
  0
LINE
  5
12DF6
  8
01
 10
139.6191802576815
 20
-124.0804264368339
 30
0.0
 11
139.6191802576815
 21
-175.0804264368339
 31
0.0
  0
ARC
  5
12F2D
  8
01
 10
43.16776550983749
 20
-217.063105315981
 30
0.0
 40
1.0
 50
96.79181949957167
 51
146.999999999999
  0
POLYLINE
  5
12F30
  8
01
 66
     1
 10
0.0
 20
0.0
 30
0.0
  0
VERTEX
  5
14D58
  8
01
 10
51.83447668732129
 20
-201.8861611326345
 30
0.0
  0
VERTEX
  5
14D59
  8
01
 10
52.76508122409604
 20
-200.6295544750035
 30
0.0
  0
VERTEX
  5
14D5A
  8
01
 10
53.82107134838292
 20
-199.5258893699047
 30
0.0
  0
VERTEX
  5
14D5B
  8
01
 10
54.96186595191168
 20
-198.6175790483848
 30
0.0
  0
VERTEX
  5
14D5C
  8
01
 10
56.14362493783368
 20
-197.9395293667133
 30
0.0
  0
VERTEX
  5
14D5D
  8
01
 10
57.32093397105802
 20
-197.5177973939022
 30
0.0
  0
VERTEX
  5
14D5E
  8
01
 10
58.44854972568039
 20
-197.3685900531567
 30
0.0
  0
VERTEX
  5
14D5F
  8
01
 10
59.48313856062487
 20
-197.4976412989052
 30
0.0
  0
VERTEX
  5
14D60
  8
01
 10
60.38494180716863
 20
-197.8999917641463
 30
0.0
  0
VERTEX
  5
14D61
  8
01
 10
61.11930367228408
 20
-198.5601793461415
 30
0.0
  0
VERTEX
  5
14D62
  8
01
 10
61.65800304132974
 20
-199.4528334063523
 30
0.0
  0
VERTEX
  5
14D63
  8
01
 10
61.98033799965923
 20
-200.5436497498509
 30
0.0
  0
VERTEX
  5
14D64
  8
01
 10
62.0739213955915
 20
-201.7907089162935
 30
0.0
  0
VERTEX
  5
14D65
  8
01
 10
61.93515687170306
 20
-203.1460871212726
 30
0.0
  0
VERTEX
  5
14D66
  8
01
 10
61.56937707082687
 20
-204.5576979404756
 30
0.0
  0
VERTEX
  5
14D67
  8
01
 10
60.99063870557894
 20
-205.9712939617611
 30
0.0
  0
VERTEX
  5
14D68
  8
01
 10
60.22118236677553
 20
-207.3325514827848
 30
0.0
  0
SEQEND
  5
15128
  8
01
  0
POLYLINE
  5
12F32
  8
01
 10
0.0
 20
0.0
 30
0.0
 66
     1
 70
     8
  0
VERTEX
  5
14D69
  8
01
 10
-53.45733065932963
 20
-213.8342354038846
 30
0.0
 70
    32
  0
VERTEX
  5
14D6A
  8
01
 10
-53.45733065932963
 20
-214.2535706749306
 30
0.0
 70
    32
  0
VERTEX
  5
14D6B
  8
01
 10
-53.45733065932963
 20
-214.6729059459767
 30
0.0
 70
    32
  0
VERTEX
  5
14D6C
  8
01
 10
-53.45733065932963
 20
-215.0922412170227
 30
0.0
 70
    32
  0
VERTEX
  5
14D6D
  8
01
 10
-53.45733065932963
 20
-215.5115764880688
 30
0.0
 70
    32
  0
VERTEX
  5
14D6E
  8
01
 10
-53.45733065932963
 20
-215.9309117591148
 30
0.0
 70
    32
  0
VERTEX
  5
14D6F
  8
01
 10
-53.45733065932963
 20
-216.3502470301609
 30
0.0
 70
    32
  0
VERTEX
  5
14D70
  8
01
 10
-53.45733065932963
 20
-216.7695823012069
 30
0.0
 70
    32
  0
VERTEX
  5
14D71
  8
01
 10
-53.45733065932963
 20
-217.1889175722529
 30
0.0
 70
    32
  0
VERTEX
  5
14D72
  8
01
 10
-53.45733065932963
 20
-217.6082528432989
 30
0.0
 70
    32
  0
VERTEX
  5
14D73
  8
01
 10
-53.45733065932963
 20
-218.0275881143449
 30
0.0
 70
    32
  0
VERTEX
  5
14D74
  8
01
 10
-53.45733065932963
 20
-218.4469233853909
 30
0.0
 70
    32
  0
VERTEX
  5
14D75
  8
01
 10
-53.45733065932963
 20
-218.8662586564369
 30
0.0
 70
    32
  0
VERTEX
  5
14D76
  8
01
 10
-53.45733065932963
 20
-219.2855939274828
 30
0.0
 70
    32
  0
VERTEX
  5
14D77
  8
01
 10
-53.45733065932963
 20
-219.7049291985288
 30
0.0
 70
    32
  0
VERTEX
  5
14D78
  8
01
 10
-53.45733065932963
 20
-220.1242644695748
 30
0.0
 70
    32
  0
VERTEX
  5
14D79
  8
01
 10
-53.45733065932963
 20
-220.5435997406207
 30
0.0
 70
    32
  0
SEQEND
  5
15129
  8
01
  0
POLYLINE
  5
12F33
  8
01
 66
     1
 10
0.0
 20
0.0
 30
0.0
  0
VERTEX
  5
14D7A
  8
01
 10
-195.7573306593298
 20
-227.7846299424641
 30
0.0
  0
VERTEX
  5
14D7B
  8
01
 10
-195.8022586559026
 20
-227.7826064463988
 30
0.0
  0
VERTEX
  5
14D7C
  8
01
 10
-195.8483136671169
 20
-227.7762806354033
 30
0.0
  0
VERTEX
  5
14D7D
  8
01
 10
-195.894911864071
 20
-227.7653263075178
 30
0.0
  0
VERTEX
  5
14D7E
  8
01
 10
-195.94138062583
 20
-227.7495197859679
 30
0.0
  0
VERTEX
  5
14D7F
  8
01
 10
-195.9869809697221
 20
-227.7287663899752
 30
0.0
  0
VERTEX
  5
14D80
  8
01
 10
-196.0309388317109
 20
-227.703120853842
 30
0.0
  0
VERTEX
  5
14D81
  8
01
 10
-196.072483174981
 20
-227.6727983820408
 30
0.0
  0
VERTEX
  5
14D82
  8
01
 10
-196.1108875328891
 20
-227.6381738655186
 30
0.0
  0
VERTEX
  5
14D83
  8
01
 10
-196.1455106426779
 20
-227.5997682393775
 30
0.0
  0
VERTEX
  5
14D84
  8
01
 10
-196.1758315927343
 20
-227.5582227854559
 30
0.0
  0
VERTEX
  5
14D85
  8
01
 10
-196.2014755187213
 20
-227.5142639841283
 30
0.0
  0
VERTEX
  5
14D86
  8
01
 10
-196.2222272444087
 20
-227.4686628800923
 30
0.0
  0
VERTEX
  5
14D87
  8
01
 10
-196.2380320638474
 20
-227.4221935393885
 30
0.0
  0
VERTEX
  5
14D88
  8
01
 10
-196.2489846848839
 20
-227.3755949412205
 30
0.0
  0
VERTEX
  5
14D89
  8
01
 10
-196.2553088089298
 20
-227.3295396983295
 30
0.0
  0
VERTEX
  5
14D8A
  8
01
 10
-196.2573306593297
 20
-227.2846116276682
 30
0.0
  0
SEQEND
  5
1512A
  8
01
  0
POLYLINE
  5
12F34
  8
01
 66
     1
 10
0.0
 20
0.0
 30
0.0
  0
VERTEX
  5
14D8B
  8
01
 10
-196.2573306593271
 20
-152.4486098693237
 30
0.0
  0
VERTEX
  5
14D8C
  8
01
 10
-196.2553073587708
 20
-152.403683659478
 30
0.0
  0
VERTEX
  5
14D8D
  8
01
 10
-196.248981995541
 20
-152.3576305174326
 30
0.0
  0
VERTEX
  5
14D8E
  8
01
 10
-196.2380283988401
 20
-152.3110342283743
 30
0.0
  0
VERTEX
  5
14D8F
  8
01
 10
-196.222222913915
 20
-152.26456735926
 30
0.0
  0
VERTEX
  5
14D90
  8
01
 10
-196.2014708692839
 20
-152.2189688308145
 30
0.0
  0
VERTEX
  5
14D91
  8
01
 10
-196.1758269929369
 20
-152.1750126408281
 30
0.0
  0
VERTEX
  5
14D92
  8
01
 10
-196.1455064658261
 20
-152.1334697603518
 30
0.0
  0
VERTEX
  5
14D93
  8
01
 10
-196.1108841383125
 20
-152.0950665960976
 30
0.0
  0
VERTEX
  5
14D94
  8
01
 10
-196.0724808899186
 20
-152.060444361912
 30
0.0
  0
VERTEX
  5
14D95
  8
01
 10
-196.030937935757
 20
-152.0301239357594
 30
0.0
  0
VERTEX
  5
14D96
  8
01
 10
-195.9869816834506
 20
-152.0044801662354
 30
0.0
  0
VERTEX
  5
14D97
  8
01
 10
-195.9413831045731
 20
-151.9837282324185
 30
0.0
  0
VERTEX
  5
14D98
  8
01
 10
-195.8949161970482
 20
-151.9679228604179
 30
0.0
  0
VERTEX
  5
14D99
  8
01
 10
-195.8483198813703
 20
-151.9569693769559
 30
0.0
  0
VERTEX
  5
14D9A
  8
01
 10
-195.8022667239529
 20
-151.9506441256451
 30
0.0
  0
VERTEX
  5
14D9B
  8
01
 10
-195.7573405091902
 20
-151.948620934269
 30
0.0
  0
SEQEND
  5
1512B
  8
01
  0
POLYLINE
  5
12F35
  8
01
 66
     1
 10
0.0
 20
0.0
 30
0.0
  0
VERTEX
  5
14D9C
  8
01
 10
-195.7573405091902
 20
-151.9486209341771
 30
0.0
  0
VERTEX
  5
14D9D
  8
01
 10
-195.676098965614
 20
-151.9486206571888
 30
0.0
  0
VERTEX
  5
14D9E
  8
01
 10
-195.5948574220378
 20
-151.9486203836101
 30
0.0
  0
VERTEX
  5
14D9F
  8
01
 10
-195.5136158784615
 20
-151.948620113441
 30
0.0
  0
VERTEX
  5
14DA0
  8
01
 10
-195.4323743348852
 20
-151.9486198466815
 30
0.0
  0
VERTEX
  5
14DA1
  8
01
 10
-195.3511327913089
 20
-151.9486195833317
 30
0.0
  0
VERTEX
  5
14DA2
  8
01
 10
-195.2698912477326
 20
-151.9486193233915
 30
0.0
  0
VERTEX
  5
14DA3
  8
01
 10
-195.1886497041563
 20
-151.9486190668609
 30
0.0
  0
VERTEX
  5
14DA4
  8
01
 10
-195.1074081605799
 20
-151.94861881374
 30
0.0
  0
VERTEX
  5
14DA5
  8
01
 10
-195.0261666170035
 20
-151.9486185640287
 30
0.0
  0
VERTEX
  5
14DA6
  8
01
 10
-194.9449250734271
 20
-151.9486183177271
 30
0.0
  0
VERTEX
  5
14DA7
  8
01
 10
-194.8636835298507
 20
-151.948618074835
 30
0.0
  0
VERTEX
  5
14DA8
  8
01
 10
-194.7824419862743
 20
-151.9486178353526
 30
0.0
  0
VERTEX
  5
14DA9
  8
01
 10
-194.7012004426978
 20
-151.9486175992799
 30
0.0
  0
VERTEX
  5
14DAA
  8
01
 10
-194.6199588991213
 20
-151.9486173666167
 30
0.0
  0
VERTEX
  5
14DAB
  8
01
 10
-194.5387173555448
 20
-151.9486171373632
 30
0.0
  0
VERTEX
  5
14DAC
  8
01
 10
-194.4574758119683
 20
-151.9486169115194
 30
0.0
  0
SEQEND
  5
1512C
  8
01
  0
POLYLINE
  5
12F36
  8
01
 66
     1
 10
0.0
 20
0.0
 30
0.0
  0
VERTEX
  5
14DAD
  8
01
 10
-63.45733065932872
 20
-198.3679299709188
 30
0.0
  0
VERTEX
  5
14DAE
  8
01
 10
-63.4532835488125
 20
-198.2780776692986
 30
0.0
  0
VERTEX
  5
14DAF
  8
01
 10
-63.44063214069575
 20
-198.1859714498438
 30
0.0
  0
VERTEX
  5
14DB0
  8
01
 10
-63.41872405820444
 20
-198.0927789278633
 30
0.0
  0
VERTEX
  5
14DB1
  8
01
 10
-63.38711196790141
 20
-197.9998452959713
 30
0.0
  0
VERTEX
  5
14DB2
  8
01
 10
-63.34560651942711
 20
-197.9086484649437
 30
0.0
  0
VERTEX
  5
14DB3
  8
01
 10
-63.29431718215552
 20
-197.8207365050114
 30
0.0
  0
VERTEX
  5
14DB4
  8
01
 10
-63.23367435443429
 20
-197.7376514312052
 30
0.0
  0
VERTEX
  5
14DB5
  8
01
 10
-63.16442779599518
 20
-197.6608461202466
 30
0.0
  0
VERTEX
  5
14DB6
  8
01
 10
-63.08761934393872
 20
-197.5916030459374
 30
0.0
  0
VERTEX
  5
14DB7
  8
01
 10
-63.0045315193253
 20
-197.5309639872011
 30
0.0
  0
VERTEX
  5
14DB8
  8
01
 10
-62.91661723288587
 20
-197.4796786378631
 30
0.0
  0
VERTEX
  5
14DB9
  8
01
 10
-62.82541851917315
 20
-197.4381773263213
 30
0.0
  0
VERTEX
  5
14DBA
  8
01
 10
-62.73248345338255
 20
-197.4065694517258
 30
0.0
  0
VERTEX
  5
14DBB
  8
01
 10
-62.639289937699
 20
-197.3846655966758
 30
0.0
  0
VERTEX
  5
14DBC
  8
01
 10
-62.54718314444315
 20
-197.3720183667137
 30
0.0
  0
VERTEX
  5
14DBD
  8
01
 10
-62.45733065932963
 20
-197.3679753321007
 30
0.0
  0
SEQEND
  5
1512D
  8
01
  0
POLYLINE
  5
12F37
  8
01
 10
0.0
 20
0.0
 30
0.0
 66
     1
 70
     8
  0
VERTEX
  5
14DBE
  8
01
 10
-62.45733065932963
 20
-197.3679089395305
 30
0.0
 70
    32
  0
VERTEX
  5
14DBF
  8
01
 10
-62.39483065932963
 20
-197.3679089395305
 30
0.0
 70
    32
  0
VERTEX
  5
14DC0
  8
01
 10
-62.33233065932963
 20
-197.3679089395305
 30
0.0
 70
    32
  0
VERTEX
  5
14DC1
  8
01
 10
-62.26983065932963
 20
-197.3679089395305
 30
0.0
 70
    32
  0
VERTEX
  5
14DC2
  8
01
 10
-62.20733065932963
 20
-197.3679089395305
 30
0.0
 70
    32
  0
VERTEX
  5
14DC3
  8
01
 10
-62.14483065932963
 20
-197.3679089395305
 30
0.0
 70
    32
  0
VERTEX
  5
14DC4
  8
01
 10
-62.08233065932963
 20
-197.3679089395305
 30
0.0
 70
    32
  0
VERTEX
  5
14DC5
  8
01
 10
-62.01983065932963
 20
-197.3679089395305
 30
0.0
 70
    32
  0
VERTEX
  5
14DC6
  8
01
 10
-61.95733065932963
 20
-197.3679089395305
 30
0.0
 70
    32
  0
VERTEX
  5
14DC7
  8
01
 10
-61.89483065932963
 20
-197.3679089395305
 30
0.0
 70
    32
  0
VERTEX
  5
14DC8
  8
01
 10
-61.83233065932963
 20
-197.3679089395305
 30
0.0
 70
    32
  0
VERTEX
  5
14DC9
  8
01
 10
-61.76983065932963
 20
-197.3679089395305
 30
0.0
 70
    32
  0
VERTEX
  5
14DCA
  8
01
 10
-61.70733065932963
 20
-197.3679089395305
 30
0.0
 70
    32
  0
VERTEX
  5
14DCB
  8
01
 10
-61.64483065932963
 20
-197.3679089395305
 30
0.0
 70
    32
  0
VERTEX
  5
14DCC
  8
01
 10
-61.58233065932963
 20
-197.3679089395305
 30
0.0
 70
    32
  0
VERTEX
  5
14DCD
  8
01
 10
-61.51983065932963
 20
-197.3679089395305
 30
0.0
 70
    32
  0
VERTEX
  5
14DCE
  8
01
 10
-61.45733065932962
 20
-197.3679089395305
 30
0.0
 70
    32
  0
SEQEND
  5
1512E
  8
01
  0
POLYLINE
  5
12F38
  8
01
 10
0.0
 20
0.0
 30
0.0
 66
     1
 70
     8
  0
VERTEX
  5
14DCF
  8
01
 10
-53.45733065932963
 20
-204.6088592367219
 30
0.0
 70
    32
  0
VERTEX
  5
14DD0
  8
01
 10
-53.45733065932963
 20
-205.1854452346626
 30
0.0
 70
    32
  0
VERTEX
  5
14DD1
  8
01
 10
-53.45733065932963
 20
-205.7620312326032
 30
0.0
 70
    32
  0
VERTEX
  5
14DD2
  8
01
 10
-53.45733065932963
 20
-206.3386172305439
 30
0.0
 70
    32
  0
VERTEX
  5
14DD3
  8
01
 10
-53.45733065932963
 20
-206.9152032284846
 30
0.0
 70
    32
  0
VERTEX
  5
14DD4
  8
01
 10
-53.45733065932963
 20
-207.4917892264253
 30
0.0
 70
    32
  0
VERTEX
  5
14DD5
  8
01
 10
-53.45733065932963
 20
-208.068375224366
 30
0.0
 70
    32
  0
VERTEX
  5
14DD6
  8
01
 10
-53.45733065932963
 20
-208.6449612223067
 30
0.0
 70
    32
  0
VERTEX
  5
14DD7
  8
01
 10
-53.45733065932963
 20
-209.2215472202474
 30
0.0
 70
    32
  0
VERTEX
  5
14DD8
  8
01
 10
-53.45733065932963
 20
-209.7981332181881
 30
0.0
 70
    32
  0
VERTEX
  5
14DD9
  8
01
 10
-53.45733065932963
 20
-210.3747192161288
 30
0.0
 70
    32
  0
VERTEX
  5
14DDA
  8
01
 10
-53.45733065932963
 20
-210.9513052140695
 30
0.0
 70
    32
  0
VERTEX
  5
14DDB
  8
01
 10
-53.45733065932963
 20
-211.5278912120102
 30
0.0
 70
    32
  0
VERTEX
  5
14DDC
  8
01
 10
-53.45733065932963
 20
-212.1044772099509
 30
0.0
 70
    32
  0
VERTEX
  5
14DDD
  8
01
 10
-53.45733065932963
 20
-212.6810632078916
 30
0.0
 70
    32
  0
VERTEX
  5
14DDE
  8
01
 10
-53.45733065932963
 20
-213.2576492058323
 30
0.0
 70
    32
  0
VERTEX
  5
14DDF
  8
01
 10
-53.45733065932963
 20
-213.834235203773
 30
0.0
 70
    32
  0
SEQEND
  5
1512F
  8
01
  0
POLYLINE
  5
12F39
  8
01
 10
0.0
 20
0.0
 30
0.0
 66
     1
 70
     8
  0
VERTEX
  5
14DE0
  8
01
 10
-339.4573306904534
 20
-220.5435997275722
 30
0.0
 70
    32
  0
VERTEX
  5
14DE1
  8
01
 10
-339.4573306904534
 20
-220.1242644565261
 30
0.0
 70
    32
  0
VERTEX
  5
14DE2
  8
01
 10
-339.4573306904534
 20
-219.7049291854801
 30
0.0
 70
    32
  0
VERTEX
  5
14DE3
  8
01
 10
-339.4573306904534
 20
-219.285593914434
 30
0.0
 70
    32
  0
VERTEX
  5
14DE4
  8
01
 10
-339.4573306904534
 20
-218.8662586433879
 30
0.0
 70
    32
  0
VERTEX
  5
14DE5
  8
01
 10
-339.4573306904534
 20
-218.4469233723419
 30
0.0
 70
    32
  0
VERTEX
  5
14DE6
  8
01
 10
-339.4573306904534
 20
-218.0275881012958
 30
0.0
 70
    32
  0
VERTEX
  5
14DE7
  8
01
 10
-339.4573306904534
 20
-217.6082528302497
 30
0.0
 70
    32
  0
VERTEX
  5
14DE8
  8
01
 10
-339.4573306904534
 20
-217.1889175592037
 30
0.0
 70
    32
  0
VERTEX
  5
14DE9
  8
01
 10
-339.4573306904534
 20
-216.7695822881576
 30
0.0
 70
    32
  0
VERTEX
  5
14DEA
  8
01
 10
-339.4573306904534
 20
-216.3502470171115
 30
0.0
 70
    32
  0
VERTEX
  5
14DEB
  8
01
 10
-339.4573306904534
 20
-215.9309117460655
 30
0.0
 70
    32
  0
VERTEX
  5
14DEC
  8
01
 10
-339.4573306904534
 20
-215.5115764750194
 30
0.0
 70
    32
  0
VERTEX
  5
14DED
  8
01
 10
-339.4573306904534
 20
-215.0922412039733
 30
0.0
 70
    32
  0
VERTEX
  5
14DEE
  8
01
 10
-339.4573306904534
 20
-214.6729059329273
 30
0.0
 70
    32
  0
VERTEX
  5
14DEF
  8
01
 10
-339.4573306904534
 20
-214.2535706618812
 30
0.0
 70
    32
  0
VERTEX
  5
14DF0
  8
01
 10
-339.4573306904534
 20
-213.8342353908351
 30
0.0
 70
    32
  0
SEQEND
  5
15130
  8
01
  0
POLYLINE
  5
12F3A
  8
01
 66
     1
 10
0.0
 20
0.0
 30
0.0
  0
VERTEX
  5
14DF1
  8
01
 10
-196.6573307343491
 20
-227.284820529881
 30
0.0
  0
VERTEX
  5
14DF2
  8
01
 10
-196.6593704394359
 20
-227.3297379851973
 30
0.0
  0
VERTEX
  5
14DF3
  8
01
 10
-196.6657108783333
 20
-227.3757799543343
 30
0.0
  0
VERTEX
  5
14DF4
  8
01
 10
-196.6766776977991
 20
-227.4223628820932
 30
0.0
  0
VERTEX
  5
14DF5
  8
01
 10
-196.6924940746749
 20
-227.4688145737763
 30
0.0
  0
VERTEX
  5
14DF6
  8
01
 10
-196.713254294402
 20
-227.5143966122351
 30
0.0
  0
VERTEX
  5
14DF7
  8
01
 10
-196.7389033772658
 20
-227.5583356066574
 30
0.0
  0
VERTEX
  5
14DF8
  8
01
 10
-196.7692260569341
 20
-227.5998612528732
 30
0.0
  0
VERTEX
  5
14DF9
  8
01
 10
-196.8038475792997
 20
-227.6382478165718
 30
0.0
  0
VERTEX
  5
14DFA
  8
01
 10
-196.8422473374421
 20
-227.6728547040093
 30
0.0
  0
VERTEX
  5
14DFB
  8
01
 10
-196.883784539216
 20
-227.703161552488
 30
0.0
  0
VERTEX
  5
14DFC
  8
01
 10
-196.9277333075122
 20
-227.7287938845678
 30
0.0
  0
VERTEX
  5
14DFD
  8
01
 10
-196.9733232561603
 20
-227.7495367275609
 30
0.0
  0
VERTEX
  5
14DFE
  8
01
 10
-197.0197809734468
 20
-227.7653353965624
 30
0.0
  0
VERTEX
  5
14DFF
  8
01
 10
-197.0663680782174
 20
-227.776284458481
 30
0.0
  0
VERTEX
  5
14E00
  8
01
 10
-197.1124124608947
 20
-227.782607346373
 30
0.0
  0
VERTEX
  5
14E01
  8
01
 10
-197.1573306904542
 20
-227.7846299294156
 30
0.0
  0
SEQEND
  5
15131
  8
01
  0
POLYLINE
  5
12F3B
  8
01
 10
0.0
 20
0.0
 30
0.0
 66
     1
 70
     8
  0
VERTEX
  5
14E02
  8
01
 10
-326.457330690508
 20
-216.0192797536779
 30
0.0
 70
    32
  0
VERTEX
  5
14E03
  8
01
 10
-326.4306331524032
 20
-216.0192797536785
 30
0.0
 70
    32
  0
VERTEX
  5
14E04
  8
01
 10
-326.4039356142983
 20
-216.019279753679
 30
0.0
 70
    32
  0
VERTEX
  5
14E05
  8
01
 10
-326.3772380761935
 20
-216.0192797536796
 30
0.0
 70
    32
  0
VERTEX
  5
14E06
  8
01
 10
-326.3505405380887
 20
-216.0192797536801
 30
0.0
 70
    32
  0
VERTEX
  5
14E07
  8
01
 10
-326.3238429999839
 20
-216.0192797536806
 30
0.0
 70
    32
  0
VERTEX
  5
14E08
  8
01
 10
-326.297145461879
 20
-216.0192797536812
 30
0.0
 70
    32
  0
VERTEX
  5
14E09
  8
01
 10
-326.2704479237742
 20
-216.0192797536817
 30
0.0
 70
    32
  0
VERTEX
  5
14E0A
  8
01
 10
-326.2437503856694
 20
-216.0192797536822
 30
0.0
 70
    32
  0
VERTEX
  5
14E0B
  8
01
 10
-326.2170528475646
 20
-216.0192797536827
 30
0.0
 70
    32
  0
VERTEX
  5
14E0C
  8
01
 10
-326.1903553094597
 20
-216.0192797536832
 30
0.0
 70
    32
  0
VERTEX
  5
14E0D
  8
01
 10
-326.1636577713549
 20
-216.0192797536837
 30
0.0
 70
    32
  0
VERTEX
  5
14E0E
  8
01
 10
-326.1369602332501
 20
-216.0192797536842
 30
0.0
 70
    32
  0
VERTEX
  5
14E0F
  8
01
 10
-326.1102626951453
 20
-216.0192797536847
 30
0.0
 70
    32
  0
VERTEX
  5
14E10
  8
01
 10
-326.0835651570404
 20
-216.0192797536852
 30
0.0
 70
    32
  0
VERTEX
  5
14E11
  8
01
 10
-326.0568676189356
 20
-216.0192797536856
 30
0.0
 70
    32
  0
VERTEX
  5
14E12
  8
01
 10
-326.0301700808308
 20
-216.0192797536861
 30
0.0
 70
    32
  0
SEQEND
  5
15132
  8
01
  0
POLYLINE
  5
12F3C
  8
01
 66
     1
 10
0.0
 20
0.0
 30
0.0
  0
VERTEX
  5
14E13
  8
01
 10
-197.1573208405929
 20
-151.9486209212205
 30
0.0
  0
VERTEX
  5
14E14
  8
01
 10
-197.1123946105863
 20
-151.9506439435886
 30
0.0
  0
VERTEX
  5
14E15
  8
01
 10
-197.0663414089509
 20
-151.9569690425324
 30
0.0
  0
VERTEX
  5
14E16
  8
01
 10
-197.0197450240291
 20
-151.9679223976154
 30
0.0
  0
VERTEX
  5
14E17
  8
01
 10
-196.9732780283939
 20
-151.9837276716388
 30
0.0
  0
VERTEX
  5
14E18
  8
01
 10
-196.927679350662
 20
-152.004479542602
 30
0.0
  0
VERTEX
  5
14E19
  8
01
 10
-196.8837229982981
 20
-152.0301232867466
 30
0.0
  0
VERTEX
  5
14E1A
  8
01
 10
-196.8421799530349
 20
-152.0604437245032
 30
0.0
  0
VERTEX
  5
14E1B
  8
01
 10
-196.8037766323029
 20
-152.0950660037885
 30
0.0
  0
VERTEX
  5
14E1C
  8
01
 10
-196.7691542596794
 20
-152.1334692403719
 30
0.0
  0
VERTEX
  5
14E1D
  8
01
 10
-196.7388337209537
 20
-152.1750122119419
 30
0.0
  0
VERTEX
  5
14E1E
  8
01
 10
-196.7131898699745
 20
-152.2189685019792
 30
0.0
  0
VERTEX
  5
14E1F
  8
01
 10
-196.692437888185
 20
-152.2645671292741
 30
0.0
  0
VERTEX
  5
14E20
  8
01
 10
-196.6766325012248
 20
-152.3110340864947
 30
0.0
  0
VERTEX
  5
14E21
  8
01
 10
-196.6656790328907
 20
-152.3576304447944
 30
0.0
  0
VERTEX
  5
14E22
  8
01
 10
-196.659353822016
 20
-152.4036836310566
 30
0.0
  0
VERTEX
  5
14E23
  8
01
 10
-196.657330690456
 20
-152.448609856146
 30
0.0
  0
SEQEND
  5
15133
  8
01
  0
POLYLINE
  5
12F3D
  8
01
 66
     1
 10
0.0
 20
0.0
 30
0.0
  0
VERTEX
  5
14E24
  8
01
 10
-198.4572574460902
 20
-151.9486168982908
 30
0.0
  0
VERTEX
  5
14E25
  8
01
 10
-198.3760114082465
 20
-151.94861712414
 30
0.0
  0
VERTEX
  5
14E26
  8
01
 10
-198.2947653704029
 20
-151.9486173533988
 30
0.0
  0
VERTEX
  5
14E27
  8
01
 10
-198.2135193325592
 20
-151.9486175860673
 30
0.0
  0
VERTEX
  5
14E28
  8
01
 10
-198.1322732947156
 20
-151.9486178221454
 30
0.0
  0
VERTEX
  5
14E29
  8
01
 10
-198.0510272568719
 20
-151.9486180616331
 30
0.0
  0
VERTEX
  5
14E2A
  8
01
 10
-197.9697812190283
 20
-151.9486183045305
 30
0.0
  0
VERTEX
  5
14E2B
  8
01
 10
-197.8885351811847
 20
-151.9486185508375
 30
0.0
  0
VERTEX
  5
14E2C
  8
01
 10
-197.8072891433411
 20
-151.9486188005542
 30
0.0
  0
VERTEX
  5
14E2D
  8
01
 10
-197.7260431054975
 20
-151.9486190536804
 30
0.0
  0
VERTEX
  5
14E2E
  8
01
 10
-197.644797067654
 20
-151.9486193102163
 30
0.0
  0
VERTEX
  5
14E2F
  8
01
 10
-197.5635510298104
 20
-151.9486195701619
 30
0.0
  0
VERTEX
  5
14E30
  8
01
 10
-197.4823049919669
 20
-151.948619833517
 30
0.0
  0
VERTEX
  5
14E31
  8
01
 10
-197.4010589541234
 20
-151.9486201002819
 30
0.0
  0
VERTEX
  5
14E32
  8
01
 10
-197.3198129162799
 20
-151.9486203704563
 30
0.0
  0
VERTEX
  5
14E33
  8
01
 10
-197.2385668784364
 20
-151.9486206440403
 30
0.0
  0
VERTEX
  5
14E34
  8
01
 10
-197.1573208405929
 20
-151.948620921034
 30
0.0
  0
SEQEND
  5
15134
  8
01
  0
POLYLINE
  5
12F3E
  8
01
 66
     1
 10
0.0
 20
0.0
 30
0.0
  0
VERTEX
  5
14E35
  8
01
 10
-330.4573306904534
 20
-197.3679753190522
 30
0.0
  0
VERTEX
  5
14E36
  8
01
 10
-330.3674781954406
 20
-197.3720187068619
 30
0.0
  0
VERTEX
  5
14E37
  8
01
 10
-330.2753714485217
 20
-197.3846662641481
 30
0.0
  0
VERTEX
  5
14E38
  8
01
 10
-330.1821780289383
 20
-197.4065704068747
 30
0.0
  0
VERTEX
  5
14E39
  8
01
 10
-330.0892430984476
 20
-197.438178517275
 30
0.0
  0
VERTEX
  5
14E3A
  8
01
 10
-329.9980445449978
 20
-197.4796800034725
 30
0.0
  0
VERTEX
  5
14E3B
  8
01
 10
-329.9101304268281
 20
-197.530965461248
 30
0.0
  0
VERTEX
  5
14E3C
  8
01
 10
-329.8270427602527
 20
-197.5916045622347
 30
0.0
  0
VERTEX
  5
14E3D
  8
01
 10
-329.7502344382295
 20
-197.6608476180621
 30
0.0
  0
VERTEX
  5
14E3E
  8
01
 10
-329.6809879663173
 20
-197.7376528603314
 30
0.0
  0
VERTEX
  5
14E3F
  8
01
 10
-329.620345169955
 20
-197.8207378298192
 30
0.0
  0
VERTEX
  5
14E40
  8
01
 10
-329.5690558021316
 20
-197.9086496669123
 30
0.0
  0
VERTEX
  5
14E41
  8
01
 10
-329.527550259797
 20
-197.9998463744376
 30
0.0
  0
VERTEX
  5
14E42
  8
01
 10
-329.4959380160221
 20
-198.0927798990232
 30
0.0
  0
VERTEX
  5
14E43
  8
01
 10
-329.4740297284147
 20
-198.1859723442984
 30
0.0
  0
VERTEX
  5
14E44
  8
01
 10
-329.4613780745695
 20
-198.2780785286091
 30
0.0
  0
VERTEX
  5
14E45
  8
01
 10
-329.4573306904535
 20
-198.3679308436981
 30
0.0
  0
SEQEND
  5
15135
  8
01
  0
POLYLINE
  5
12F3F
  8
01
 10
0.0
 20
0.0
 30
0.0
 66
     1
 70
     8
  0
VERTEX
  5
14E46
  8
01
 10
-331.4573306904534
 20
-197.367908926482
 30
0.0
 70
    32
  0
VERTEX
  5
14E47
  8
01
 10
-331.3948306904534
 20
-197.367908926482
 30
0.0
 70
    32
  0
VERTEX
  5
14E48
  8
01
 10
-331.3323306904534
 20
-197.367908926482
 30
0.0
 70
    32
  0
VERTEX
  5
14E49
  8
01
 10
-331.2698306904534
 20
-197.367908926482
 30
0.0
 70
    32
  0
VERTEX
  5
14E4A
  8
01
 10
-331.2073306904534
 20
-197.367908926482
 30
0.0
 70
    32
  0
VERTEX
  5
14E4B
  8
01
 10
-331.1448306904534
 20
-197.367908926482
 30
0.0
 70
    32
  0
VERTEX
  5
14E4C
  8
01
 10
-331.0823306904534
 20
-197.367908926482
 30
0.0
 70
    32
  0
VERTEX
  5
14E4D
  8
01
 10
-331.0198306904534
 20
-197.367908926482
 30
0.0
 70
    32
  0
VERTEX
  5
14E4E
  8
01
 10
-330.9573306904534
 20
-197.367908926482
 30
0.0
 70
    32
  0
VERTEX
  5
14E4F
  8
01
 10
-330.8948306904534
 20
-197.367908926482
 30
0.0
 70
    32
  0
VERTEX
  5
14E50
  8
01
 10
-330.8323306904534
 20
-197.367908926482
 30
0.0
 70
    32
  0
VERTEX
  5
14E51
  8
01
 10
-330.7698306904534
 20
-197.367908926482
 30
0.0
 70
    32
  0
VERTEX
  5
14E52
  8
01
 10
-330.7073306904534
 20
-197.367908926482
 30
0.0
 70
    32
  0
VERTEX
  5
14E53
  8
01
 10
-330.6448306904534
 20
-197.367908926482
 30
0.0
 70
    32
  0
VERTEX
  5
14E54
  8
01
 10
-330.5823306904534
 20
-197.367908926482
 30
0.0
 70
    32
  0
VERTEX
  5
14E55
  8
01
 10
-330.5198306904534
 20
-197.367908926482
 30
0.0
 70
    32
  0
VERTEX
  5
14E56
  8
01
 10
-330.4573306904534
 20
-197.367908926482
 30
0.0
 70
    32
  0
SEQEND
  5
15136
  8
01
  0
POLYLINE
  5
12F40
  8
01
 10
0.0
 20
0.0
 30
0.0
 66
     1
 70
     8
  0
VERTEX
  5
14E57
  8
01
 10
-339.4573306904534
 20
-213.8342351907236
 30
0.0
 70
    32
  0
VERTEX
  5
14E58
  8
01
 10
-339.4573306904534
 20
-213.257649192783
 30
0.0
 70
    32
  0
VERTEX
  5
14E59
  8
01
 10
-339.4573306904534
 20
-212.6810631948424
 30
0.0
 70
    32
  0
VERTEX
  5
14E5A
  8
01
 10
-339.4573306904534
 20
-212.1044771969018
 30
0.0
 70
    32
  0
VERTEX
  5
14E5B
  8
01
 10
-339.4573306904534
 20
-211.5278911989612
 30
0.0
 70
    32
  0
VERTEX
  5
14E5C
  8
01
 10
-339.4573306904534
 20
-210.9513052010206
 30
0.0
 70
    32
  0
VERTEX
  5
14E5D
  8
01
 10
-339.4573306904534
 20
-210.37471920308
 30
0.0
 70
    32
  0
VERTEX
  5
14E5E
  8
01
 10
-339.4573306904534
 20
-209.7981332051393
 30
0.0
 70
    32
  0
VERTEX
  5
14E5F
  8
01
 10
-339.4573306904534
 20
-209.2215472071987
 30
0.0
 70
    32
  0
VERTEX
  5
14E60
  8
01
 10
-339.4573306904534
 20
-208.644961209258
 30
0.0
 70
    32
  0
VERTEX
  5
14E61
  8
01
 10
-339.4573306904534
 20
-208.0683752113174
 30
0.0
 70
    32
  0
VERTEX
  5
14E62
  8
01
 10
-339.4573306904534
 20
-207.4917892133767
 30
0.0
 70
    32
  0
VERTEX
  5
14E63
  8
01
 10
-339.4573306904534
 20
-206.9152032154361
 30
0.0
 70
    32
  0
VERTEX
  5
14E64
  8
01
 10
-339.4573306904534
 20
-206.3386172174954
 30
0.0
 70
    32
  0
VERTEX
  5
14E65
  8
01
 10
-339.4573306904534
 20
-205.7620312195547
 30
0.0
 70
    32
  0
VERTEX
  5
14E66
  8
01
 10
-339.4573306904534
 20
-205.185445221614
 30
0.0
 70
    32
  0
VERTEX
  5
14E67
  8
01
 10
-339.4573306904534
 20
-204.6088592236733
 30
0.0
 70
    32
  0
SEQEND
  5
15137
  8
01
  0
POLYLINE
  5
12F43
  8
01
 10
0.0
 20
0.0
 30
0.0
 66
     1
 70
     8
  0
VERTEX
  5
14E68
  8
01
 10
-196.2573306593298
 20
-226.8336191289295
 30
0.0
 70
    32
  0
VERTEX
  5
14E69
  8
01
 10
-196.2573306593298
 20
-226.8617683053245
 30
0.0
 70
    32
  0
VERTEX
  5
14E6A
  8
01
 10
-196.2573306593298
 20
-226.8899174817195
 30
0.0
 70
    32
  0
VERTEX
  5
14E6B
  8
01
 10
-196.2573306593298
 20
-226.9180666581146
 30
0.0
 70
    32
  0
VERTEX
  5
14E6C
  8
01
 10
-196.2573306593298
 20
-226.9462158345096
 30
0.0
 70
    32
  0
VERTEX
  5
14E6D
  8
01
 10
-196.2573306593298
 20
-226.9743650109046
 30
0.0
 70
    32
  0
VERTEX
  5
14E6E
  8
01
 10
-196.2573306593298
 20
-227.0025141872997
 30
0.0
 70
    32
  0
VERTEX
  5
14E6F
  8
01
 10
-196.2573306593298
 20
-227.0306633636947
 30
0.0
 70
    32
  0
VERTEX
  5
14E70
  8
01
 10
-196.2573306593298
 20
-227.0588125400898
 30
0.0
 70
    32
  0
VERTEX
  5
14E71
  8
01
 10
-196.2573306593298
 20
-227.0869617164848
 30
0.0
 70
    32
  0
VERTEX
  5
14E72
  8
01
 10
-196.2573306593298
 20
-227.1151108928799
 30
0.0
 70
    32
  0
VERTEX
  5
14E73
  8
01
 10
-196.2573306593298
 20
-227.143260069275
 30
0.0
 70
    32
  0
VERTEX
  5
14E74
  8
01
 10
-196.2573306593298
 20
-227.1714092456701
 30
0.0
 70
    32
  0
VERTEX
  5
14E75
  8
01
 10
-196.2573306593298
 20
-227.1995584220652
 30
0.0
 70
    32
  0
VERTEX
  5
14E76
  8
01
 10
-196.2573306593298
 20
-227.2277075984603
 30
0.0
 70
    32
  0
VERTEX
  5
14E77
  8
01
 10
-196.2573306593298
 20
-227.2558567748554
 30
0.0
 70
    32
  0
VERTEX
  5
14E78
  8
01
 10
-196.2573306593298
 20
-227.2840059512505
 30
0.0
 70
    32
  0
SEQEND
  5
15138
  8
01
  0
POLYLINE
  5
12F44
  8
01
 10
0.0
 20
0.0
 30
0.0
 66
     1
 70
     8
  0
VERTEX
  5
14E79
  8
01
 10
-196.2573306593298
 20
-152.6642989359584
 30
0.0
 70
    32
  0
VERTEX
  5
14E7A
  8
01
 10
-196.2573306593298
 20
-152.6508516984867
 30
0.0
 70
    32
  0
VERTEX
  5
14E7B
  8
01
 10
-196.2573306593298
 20
-152.637404461015
 30
0.0
 70
    32
  0
VERTEX
  5
14E7C
  8
01
 10
-196.2573306593298
 20
-152.6239572235432
 30
0.0
 70
    32
  0
VERTEX
  5
14E7D
  8
01
 10
-196.2573306593298
 20
-152.6105099860715
 30
0.0
 70
    32
  0
VERTEX
  5
14E7E
  8
01
 10
-196.2573306593298
 20
-152.5970627485998
 30
0.0
 70
    32
  0
VERTEX
  5
14E7F
  8
01
 10
-196.2573306593298
 20
-152.5836155111281
 30
0.0
 70
    32
  0
VERTEX
  5
14E80
  8
01
 10
-196.2573306593298
 20
-152.5701682736563
 30
0.0
 70
    32
  0
VERTEX
  5
14E81
  8
01
 10
-196.2573306593298
 20
-152.5567210361846
 30
0.0
 70
    32
  0
VERTEX
  5
14E82
  8
01
 10
-196.2573306593298
 20
-152.5432737987129
 30
0.0
 70
    32
  0
VERTEX
  5
14E83
  8
01
 10
-196.2573306593298
 20
-152.5298265612412
 30
0.0
 70
    32
  0
VERTEX
  5
14E84
  8
01
 10
-196.2573306593298
 20
-152.5163793237695
 30
0.0
 70
    32
  0
VERTEX
  5
14E85
  8
01
 10
-196.2573306593298
 20
-152.5029320862977
 30
0.0
 70
    32
  0
VERTEX
  5
14E86
  8
01
 10
-196.2573306593298
 20
-152.489484848826
 30
0.0
 70
    32
  0
VERTEX
  5
14E87
  8
01
 10
-196.2573306593298
 20
-152.4760376113543
 30
0.0
 70
    32
  0
VERTEX
  5
14E88
  8
01
 10
-196.2573306593298
 20
-152.4625903738826
 30
0.0
 70
    32
  0
VERTEX
  5
14E89
  8
01
 10
-196.2573306593298
 20
-152.4491431364108
 30
0.0
 70
    32
  0
SEQEND
  5
15139
  8
01
  0
POLYLINE
  5
12F45
  8
01
 10
0.0
 20
0.0
 30
0.0
 66
     1
 70
     8
  0
VERTEX
  5
14E8A
  8
01
 10
-184.4573306593296
 20
-183.8518169551958
 30
0.0
 70
    32
  0
VERTEX
  5
14E8B
  8
01
 10
-184.4573306593296
 20
-185.6404577865727
 30
0.0
 70
    32
  0
VERTEX
  5
14E8C
  8
01
 10
-184.4573306593296
 20
-187.4290986179496
 30
0.0
 70
    32
  0
VERTEX
  5
14E8D
  8
01
 10
-184.4573306593296
 20
-189.2177394493266
 30
0.0
 70
    32
  0
VERTEX
  5
14E8E
  8
01
 10
-184.4573306593296
 20
-191.0063802807035
 30
0.0
 70
    32
  0
VERTEX
  5
14E8F
  8
01
 10
-184.4573306593296
 20
-192.7950211120805
 30
0.0
 70
    32
  0
VERTEX
  5
14E90
  8
01
 10
-184.4573306593296
 20
-194.5836619434574
 30
0.0
 70
    32
  0
VERTEX
  5
14E91
  8
01
 10
-184.4573306593296
 20
-196.3723027748343
 30
0.0
 70
    32
  0
VERTEX
  5
14E92
  8
01
 10
-184.4573306593296
 20
-198.1609436062113
 30
0.0
 70
    32
  0
VERTEX
  5
14E93
  8
01
 10
-184.4573306593296
 20
-199.9495844375882
 30
0.0
 70
    32
  0
VERTEX
  5
14E94
  8
01
 10
-184.4573306593296
 20
-201.7382252689652
 30
0.0
 70
    32
  0
VERTEX
  5
14E95
  8
01
 10
-184.4573306593296
 20
-203.5268661003421
 30
0.0
 70
    32
  0
VERTEX
  5
14E96
  8
01
 10
-184.4573306593296
 20
-205.315506931719
 30
0.0
 70
    32
  0
VERTEX
  5
14E97
  8
01
 10
-184.4573306593296
 20
-207.104147763096
 30
0.0
 70
    32
  0
VERTEX
  5
14E98
  8
01
 10
-184.4573306593296
 20
-208.8927885944729
 30
0.0
 70
    32
  0
VERTEX
  5
14E99
  8
01
 10
-184.4573306593296
 20
-210.6814294258498
 30
0.0
 70
    32
  0
VERTEX
  5
14E9A
  8
01
 10
-184.4573306593296
 20
-212.4700702572268
 30
0.0
 70
    32
  0
SEQEND
  5
1513A
  8
01
  0
POLYLINE
  5
12F46
  8
01
 10
0.0
 20
0.0
 30
0.0
 66
     1
 70
     8
  0
VERTEX
  5
14E9B
  8
01
 10
-63.45733065932963
 20
-198.368058461298
 30
0.0
 70
    32
  0
VERTEX
  5
14E9C
  8
01
 10
-63.45733065932872
 20
-198.4687449420038
 30
0.0
 70
    32
  0
VERTEX
  5
14E9D
  8
01
 10
-63.45733065932872
 20
-198.5697041554575
 30
0.0
 70
    32
  0
VERTEX
  5
14E9E
  8
01
 10
-63.45733065932872
 20
-198.6706620226343
 30
0.0
 70
    32
  0
VERTEX
  5
14E9F
  8
01
 10
-63.45733065932872
 20
-198.7716188209779
 30
0.0
 70
    32
  0
VERTEX
  5
14EA0
  8
01
 10
-63.45733065932872
 20
-198.8725748279325
 30
0.0
 70
    32
  0
VERTEX
  5
14EA1
  8
01
 10
-63.45733065932872
 20
-198.973530320942
 30
0.0
 70
    32
  0
VERTEX
  5
14EA2
  8
01
 10
-63.45733065932872
 20
-199.0744855774504
 30
0.0
 70
    32
  0
VERTEX
  5
14EA3
  8
01
 10
-63.45733065932872
 20
-199.1754408407664
 30
0.0
 70
    32
  0
VERTEX
  5
14EA4
  8
01
 10
-63.45733065932872
 20
-199.2763961694283
 30
0.0
 70
    32
  0
VERTEX
  5
14EA5
  8
01
 10
-63.45733065932872
 20
-199.377351559745
 30
0.0
 70
    32
  0
VERTEX
  5
14EA6
  8
01
 10
-63.45733065932872
 20
-199.4783070079781
 30
0.0
 70
    32
  0
VERTEX
  5
14EA7
  8
01
 10
-63.45733065932872
 20
-199.5792625103894
 30
0.0
 70
    32
  0
VERTEX
  5
14EA8
  8
01
 10
-63.45733065932873
 20
-199.6802180632406
 30
0.0
 70
    32
  0
VERTEX
  5
14EA9
  8
01
 10
-63.45733065932873
 20
-199.7811736627934
 30
0.0
 70
    32
  0
VERTEX
  5
14EAA
  8
01
 10
-63.45733065932873
 20
-199.8821293053095
 30
0.0
 70
    32
  0
VERTEX
  5
14EAB
  8
01
 10
-63.45733065932873
 20
-199.9830849870507
 30
0.0
 70
    32
  0
VERTEX
  5
14EAC
  8
01
 10
-63.45733065932875
 20
-200.0840407042785
 30
0.0
 70
    32
  0
VERTEX
  5
14EAD
  8
01
 10
-63.45733065932875
 20
-200.1849964532547
 30
0.0
 70
    32
  0
VERTEX
  5
14EAE
  8
01
 10
-63.45733065932876
 20
-200.2859522302411
 30
0.0
 70
    32
  0
VERTEX
  5
14EAF
  8
01
 10
-63.45733065932878
 20
-200.3869080314994
 30
0.0
 70
    32
  0
VERTEX
  5
14EB0
  8
01
 10
-63.45733065932879
 20
-200.4878638532912
 30
0.0
 70
    32
  0
VERTEX
  5
14EB1
  8
01
 10
-63.4573306593288
 20
-200.5888196918783
 30
0.0
 70
    32
  0
VERTEX
  5
14EB2
  8
01
 10
-63.45733065932882
 20
-200.6897755435223
 30
0.0
 70
    32
  0
VERTEX
  5
14EB3
  8
01
 10
-63.45733065932884
 20
-200.790731404485
 30
0.0
 70
    32
  0
VERTEX
  5
14EB4
  8
01
 10
-63.45733065932887
 20
-200.8916872710281
 30
0.0
 70
    32
  0
VERTEX
  5
14EB5
  8
01
 10
-63.4573306593289
 20
-200.9926431394133
 30
0.0
 70
    32
  0
VERTEX
  5
14EB6
  8
01
 10
-63.45733065932892
 20
-201.0935990059023
 30
0.0
 70
    32
  0
VERTEX
  5
14EB7
  8
01
 10
-63.45733065932895
 20
-201.1945548667568
 30
0.0
 70
    32
  0
VERTEX
  5
14EB8
  8
01
 10
-63.45733065932899
 20
-201.2955107182385
 30
0.0
 70
    32
  0
VERTEX
  5
14EB9
  8
01
 10
-63.45733065932902
 20
-201.3964665566092
 30
0.0
 70
    32
  0
VERTEX
  5
14EBA
  8
01
 10
-63.45733065932907
 20
-201.4974223781305
 30
0.0
 70
    32
  0
VERTEX
  5
14EBB
  8
01
 10
-63.45733065932911
 20
-201.5983781790641
 30
0.0
 70
    32
  0
VERTEX
  5
14EBC
  8
01
 10
-63.45733065932917
 20
-201.6993339556718
 30
0.0
 70
    32
  0
VERTEX
  5
14EBD
  8
01
 10
-63.45733065932922
 20
-201.8002897042152
 30
0.0
 70
    32
  0
VERTEX
  5
14EBE
  8
01
 10
-63.45733065932927
 20
-201.9012454209561
 30
0.0
 70
    32
  0
VERTEX
  5
14EBF
  8
01
 10
-63.45733065932933
 20
-202.0022011021562
 30
0.0
 70
    32
  0
VERTEX
  5
14EC0
  8
01
 10
-63.45733065932939
 20
-202.1031567440772
 30
0.0
 70
    32
  0
VERTEX
  5
14EC1
  8
01
 10
-63.45733065932947
 20
-202.2041123429808
 30
0.0
 70
    32
  0
VERTEX
  5
14EC2
  8
01
 10
-63.45733065932954
 20
-202.3050678951286
 30
0.0
 70
    32
  0
VERTEX
  5
14EC3
  8
01
 10
-63.45733065932963
 20
-202.4060233967825
 30
0.0
 70
    32
  0
SEQEND
  5
1513B
  8
01
  0
POLYLINE
  5
12F47
  8
01
 10
0.0
 20
0.0
 30
0.0
 66
     1
 70
     8
  0
VERTEX
  5
14EC4
  8
01
 10
-63.45733065932963
 20
-211.6556796319242
 30
0.0
 70
    32
  0
VERTEX
  5
14EC5
  8
01
 10
-63.45733065932963
 20
-211.7065757793722
 30
0.0
 70
    32
  0
VERTEX
  5
14EC6
  8
01
 10
-63.45733065932963
 20
-211.7574719268202
 30
0.0
 70
    32
  0
VERTEX
  5
14EC7
  8
01
 10
-63.45733065932963
 20
-211.8083680742683
 30
0.0
 70
    32
  0
VERTEX
  5
14EC8
  8
01
 10
-63.45733065932963
 20
-211.8592642217164
 30
0.0
 70
    32
  0
VERTEX
  5
14EC9
  8
01
 10
-63.45733065932963
 20
-211.9101603691645
 30
0.0
 70
    32
  0
VERTEX
  5
14ECA
  8
01
 10
-63.45733065932963
 20
-211.9610565166125
 30
0.0
 70
    32
  0
VERTEX
  5
14ECB
  8
01
 10
-63.45733065932963
 20
-212.0119526640606
 30
0.0
 70
    32
  0
VERTEX
  5
14ECC
  8
01
 10
-63.45733065932963
 20
-212.0628488115087
 30
0.0
 70
    32
  0
VERTEX
  5
14ECD
  8
01
 10
-63.45733065932963
 20
-212.1137449589568
 30
0.0
 70
    32
  0
VERTEX
  5
14ECE
  8
01
 10
-63.45733065932963
 20
-212.1646411064049
 30
0.0
 70
    32
  0
VERTEX
  5
14ECF
  8
01
 10
-63.45733065932963
 20
-212.2155372538531
 30
0.0
 70
    32
  0
VERTEX
  5
14ED0
  8
01
 10
-63.45733065932963
 20
-212.2664334013012
 30
0.0
 70
    32
  0
VERTEX
  5
14ED1
  8
01
 10
-63.45733065932963
 20
-212.3173295487493
 30
0.0
 70
    32
  0
VERTEX
  5
14ED2
  8
01
 10
-63.45733065932963
 20
-212.3682256961974
 30
0.0
 70
    32
  0
VERTEX
  5
14ED3
  8
01
 10
-63.45733065932963
 20
-212.4191218436456
 30
0.0
 70
    32
  0
VERTEX
  5
14ED4
  8
01
 10
-63.45733065932963
 20
-212.4700179910938
 30
0.0
 70
    32
  0
SEQEND
  5
1513C
  8
01
  0
POLYLINE
  5
12F48
  8
01
 10
0.0
 20
0.0
 30
0.0
 66
     1
 70
     8
  0
VERTEX
  5
14ED5
  8
01
 10
-63.45733065932963
 20
-202.4303036410934
 30
0.0
 70
    32
  0
VERTEX
  5
14ED6
  8
01
 10
-63.45733065932963
 20
-202.4827205561597
 30
0.0
 70
    32
  0
VERTEX
  5
14ED7
  8
01
 10
-63.45733065932963
 20
-202.5351374712261
 30
0.0
 70
    32
  0
VERTEX
  5
14ED8
  8
01
 10
-63.45733065932963
 20
-202.5875543862925
 30
0.0
 70
    32
  0
VERTEX
  5
14ED9
  8
01
 10
-63.45733065932963
 20
-202.6399713013589
 30
0.0
 70
    32
  0
VERTEX
  5
14EDA
  8
01
 10
-63.45733065932963
 20
-202.6923882164252
 30
0.0
 70
    32
  0
VERTEX
  5
14EDB
  8
01
 10
-63.45733065932963
 20
-202.7448051314916
 30
0.0
 70
    32
  0
VERTEX
  5
14EDC
  8
01
 10
-63.45733065932963
 20
-202.797222046558
 30
0.0
 70
    32
  0
VERTEX
  5
14EDD
  8
01
 10
-63.45733065932963
 20
-202.8496389616244
 30
0.0
 70
    32
  0
VERTEX
  5
14EDE
  8
01
 10
-63.45733065932963
 20
-202.9020558766907
 30
0.0
 70
    32
  0
VERTEX
  5
14EDF
  8
01
 10
-63.45733065932963
 20
-202.9544727917571
 30
0.0
 70
    32
  0
VERTEX
  5
14EE0
  8
01
 10
-63.45733065932963
 20
-203.0068897068235
 30
0.0
 70
    32
  0
VERTEX
  5
14EE1
  8
01
 10
-63.45733065932963
 20
-203.0593066218898
 30
0.0
 70
    32
  0
VERTEX
  5
14EE2
  8
01
 10
-63.45733065932963
 20
-203.1117235369562
 30
0.0
 70
    32
  0
VERTEX
  5
14EE3
  8
01
 10
-63.45733065932963
 20
-203.1641404520226
 30
0.0
 70
    32
  0
VERTEX
  5
14EE4
  8
01
 10
-63.45733065932963
 20
-203.216557367089
 30
0.0
 70
    32
  0
VERTEX
  5
14EE5
  8
01
 10
-63.45733065932963
 20
-203.2689742821553
 30
0.0
 70
    32
  0
SEQEND
  5
1513D
  8
01
  0
POLYLINE
  5
12F49
  8
01
 10
0.0
 20
0.0
 30
0.0
 66
     1
 70
     8
  0
VERTEX
  5
14EE6
  8
01
 10
-63.45733065932963
 20
-203.2689742821553
 30
0.0
 70
    32
  0
VERTEX
  5
14EE7
  8
01
 10
-63.45733065932963
 20
-203.7916258584469
 30
0.0
 70
    32
  0
VERTEX
  5
14EE8
  8
01
 10
-63.45733065932963
 20
-204.3142774347384
 30
0.0
 70
    32
  0
VERTEX
  5
14EE9
  8
01
 10
-63.45733065932963
 20
-204.83692901103
 30
0.0
 70
    32
  0
VERTEX
  5
14EEA
  8
01
 10
-63.45733065932963
 20
-205.3595805873215
 30
0.0
 70
    32
  0
VERTEX
  5
14EEB
  8
01
 10
-63.45733065932963
 20
-205.882232163613
 30
0.0
 70
    32
  0
VERTEX
  5
14EEC
  8
01
 10
-63.45733065932963
 20
-206.4048837399046
 30
0.0
 70
    32
  0
VERTEX
  5
14EED
  8
01
 10
-63.45733065932963
 20
-206.9275353161961
 30
0.0
 70
    32
  0
VERTEX
  5
14EEE
  8
01
 10
-63.45733065932963
 20
-207.4501868924876
 30
0.0
 70
    32
  0
VERTEX
  5
14EEF
  8
01
 10
-63.45733065932963
 20
-207.9728384687792
 30
0.0
 70
    32
  0
VERTEX
  5
14EF0
  8
01
 10
-63.45733065932963
 20
-208.4954900450707
 30
0.0
 70
    32
  0
VERTEX
  5
14EF1
  8
01
 10
-63.45733065932963
 20
-209.0181416213622
 30
0.0
 70
    32
  0
VERTEX
  5
14EF2
  8
01
 10
-63.45733065932963
 20
-209.5407931976538
 30
0.0
 70
    32
  0
VERTEX
  5
14EF3
  8
01
 10
-63.45733065932963
 20
-210.0634447739453
 30
0.0
 70
    32
  0
VERTEX
  5
14EF4
  8
01
 10
-63.45733065932963
 20
-210.5860963502369
 30
0.0
 70
    32
  0
VERTEX
  5
14EF5
  8
01
 10
-63.45733065932963
 20
-211.1087479265284
 30
0.0
 70
    32
  0
VERTEX
  5
14EF6
  8
01
 10
-63.45733065932963
 20
-211.6313995028199
 30
0.0
 70
    32
  0
SEQEND
  5
1513E
  8
01
  0
POLYLINE
  5
12F4C
  8
01
 10
0.0
 20
0.0
 30
0.0
 66
     1
 70
     8
  0
VERTEX
  5
14EF7
  8
01
 10
-196.6573306904542
 20
-226.8336191158801
 30
0.0
 70
    32
  0
VERTEX
  5
14EF8
  8
01
 10
-196.6573306904542
 20
-226.8617682922752
 30
0.0
 70
    32
  0
VERTEX
  5
14EF9
  8
01
 10
-196.6573306904542
 20
-226.8899174686703
 30
0.0
 70
    32
  0
VERTEX
  5
14EFA
  8
01
 10
-196.6573306904542
 20
-226.9180666450654
 30
0.0
 70
    32
  0
VERTEX
  5
14EFB
  8
01
 10
-196.6573306904542
 20
-226.9462158214605
 30
0.0
 70
    32
  0
VERTEX
  5
14EFC
  8
01
 10
-196.6573306904542
 20
-226.9743649978556
 30
0.0
 70
    32
  0
VERTEX
  5
14EFD
  8
01
 10
-196.6573306904542
 20
-227.0025141742507
 30
0.0
 70
    32
  0
VERTEX
  5
14EFE
  8
01
 10
-196.6573306904542
 20
-227.0306633506457
 30
0.0
 70
    32
  0
VERTEX
  5
14EFF
  8
01
 10
-196.6573306904542
 20
-227.0588125270408
 30
0.0
 70
    32
  0
VERTEX
  5
14F00
  8
01
 10
-196.6573306904542
 20
-227.0869617034359
 30
0.0
 70
    32
  0
VERTEX
  5
14F01
  8
01
 10
-196.6573306904542
 20
-227.1151108798309
 30
0.0
 70
    32
  0
VERTEX
  5
14F02
  8
01
 10
-196.6573306904542
 20
-227.143260056226
 30
0.0
 70
    32
  0
VERTEX
  5
14F03
  8
01
 10
-196.6573306904542
 20
-227.171409232621
 30
0.0
 70
    32
  0
VERTEX
  5
14F04
  8
01
 10
-196.6573306904542
 20
-227.199558409016
 30
0.0
 70
    32
  0
VERTEX
  5
14F05
  8
01
 10
-196.6573306904542
 20
-227.2277075854111
 30
0.0
 70
    32
  0
VERTEX
  5
14F06
  8
01
 10
-196.6573306904542
 20
-227.2558567618061
 30
0.0
 70
    32
  0
VERTEX
  5
14F07
  8
01
 10
-196.6573306904542
 20
-227.2840059382011
 30
0.0
 70
    32
  0
SEQEND
  5
1513F
  8
01
  0
POLYLINE
  5
12F4D
  8
01
 10
0.0
 20
0.0
 30
0.0
 66
     1
 70
     8
  0
VERTEX
  5
14F08
  8
01
 10
-196.6573306904542
 20
-152.6642989229099
 30
0.0
 70
    32
  0
VERTEX
  5
14F09
  8
01
 10
-196.6573306904542
 20
-152.6508516854382
 30
0.0
 70
    32
  0
VERTEX
  5
14F0A
  8
01
 10
-196.6573306904542
 20
-152.6374044479664
 30
0.0
 70
    32
  0
VERTEX
  5
14F0B
  8
01
 10
-196.6573306904542
 20
-152.6239572104947
 30
0.0
 70
    32
  0
VERTEX
  5
14F0C
  8
01
 10
-196.6573306904542
 20
-152.610509973023
 30
0.0
 70
    32
  0
VERTEX
  5
14F0D
  8
01
 10
-196.6573306904542
 20
-152.5970627355513
 30
0.0
 70
    32
  0
VERTEX
  5
14F0E
  8
01
 10
-196.6573306904542
 20
-152.5836154980796
 30
0.0
 70
    32
  0
VERTEX
  5
14F0F
  8
01
 10
-196.6573306904542
 20
-152.5701682606078
 30
0.0
 70
    32
  0
VERTEX
  5
14F10
  8
01
 10
-196.6573306904542
 20
-152.5567210231361
 30
0.0
 70
    32
  0
VERTEX
  5
14F11
  8
01
 10
-196.6573306904542
 20
-152.5432737856644
 30
0.0
 70
    32
  0
VERTEX
  5
14F12
  8
01
 10
-196.6573306904542
 20
-152.5298265481927
 30
0.0
 70
    32
  0
VERTEX
  5
14F13
  8
01
 10
-196.6573306904542
 20
-152.5163793107209
 30
0.0
 70
    32
  0
VERTEX
  5
14F14
  8
01
 10
-196.6573306904542
 20
-152.5029320732492
 30
0.0
 70
    32
  0
VERTEX
  5
14F15
  8
01
 10
-196.6573306904542
 20
-152.4894848357775
 30
0.0
 70
    32
  0
VERTEX
  5
14F16
  8
01
 10
-196.6573306904542
 20
-152.4760375983058
 30
0.0
 70
    32
  0
VERTEX
  5
14F17
  8
01
 10
-196.6573306904542
 20
-152.462590360834
 30
0.0
 70
    32
  0
VERTEX
  5
14F18
  8
01
 10
-196.6573306904542
 20
-152.4491431233623
 30
0.0
 70
    32
  0
SEQEND
  5
15140
  8
01
  0
POLYLINE
  5
12F4E
  8
01
 10
0.0
 20
0.0
 30
0.0
 66
     1
 70
     8
  0
VERTEX
  5
14F19
  8
01
 10
-208.4573306904534
 20
-183.8518190214104
 30
0.0
 70
    32
  0
VERTEX
  5
14F1A
  8
01
 10
-208.4573306904534
 20
-185.6404597228333
 30
0.0
 70
    32
  0
VERTEX
  5
14F1B
  8
01
 10
-208.4573306904534
 20
-187.4291004242563
 30
0.0
 70
    32
  0
VERTEX
  5
14F1C
  8
01
 10
-208.4573306904534
 20
-189.2177411256792
 30
0.0
 70
    32
  0
VERTEX
  5
14F1D
  8
01
 10
-208.4573306904534
 20
-191.0063818271022
 30
0.0
 70
    32
  0
VERTEX
  5
14F1E
  8
01
 10
-208.4573306904534
 20
-192.7950225285251
 30
0.0
 70
    32
  0
VERTEX
  5
14F1F
  8
01
 10
-208.4573306904534
 20
-194.5836632299481
 30
0.0
 70
    32
  0
VERTEX
  5
14F20
  8
01
 10
-208.4573306904534
 20
-196.372303931371
 30
0.0
 70
    32
  0
VERTEX
  5
14F21
  8
01
 10
-208.4573306904534
 20
-198.160944632794
 30
0.0
 70
    32
  0
VERTEX
  5
14F22
  8
01
 10
-208.4573306904534
 20
-199.9495853342169
 30
0.0
 70
    32
  0
VERTEX
  5
14F23
  8
01
 10
-208.4573306904534
 20
-201.7382260356399
 30
0.0
 70
    32
  0
VERTEX
  5
14F24
  8
01
 10
-208.4573306904534
 20
-203.5268667370628
 30
0.0
 70
    32
  0
VERTEX
  5
14F25
  8
01
 10
-208.4573306904534
 20
-205.3155074384858
 30
0.0
 70
    32
  0
VERTEX
  5
14F26
  8
01
 10
-208.4573306904534
 20
-207.1041481399088
 30
0.0
 70
    32
  0
VERTEX
  5
14F27
  8
01
 10
-208.4573306904534
 20
-208.8927888413318
 30
0.0
 70
    32
  0
VERTEX
  5
14F28
  8
01
 10
-208.4573306904534
 20
-210.6814295427548
 30
0.0
 70
    32
  0
VERTEX
  5
14F29
  8
01
 10
-208.4573306904534
 20
-212.4700702441777
 30
0.0
 70
    32
  0
SEQEND
  5
15141
  8
01
  0
POLYLINE
  5
12F4F
  8
01
 10
0.0
 20
0.0
 30
0.0
 66
     1
 70
     8
  0
VERTEX
  5
14F2A
  8
01
 10
-329.4573306904534
 20
-198.3680584482486
 30
0.0
 70
    32
  0
VERTEX
  5
14F2B
  8
01
 10
-329.4573306904534
 20
-198.4687455652349
 30
0.0
 70
    32
  0
VERTEX
  5
14F2C
  8
01
 10
-329.4573306904534
 20
-198.5697028458732
 30
0.0
 70
    32
  0
VERTEX
  5
14F2D
  8
01
 10
-329.4573306904534
 20
-198.6706598473396
 30
0.0
 70
    32
  0
VERTEX
  5
14F2E
  8
01
 10
-329.4573306904534
 20
-198.7716165916156
 30
0.0
 70
    32
  0
VERTEX
  5
14F2F
  8
01
 10
-329.4573306904534
 20
-198.8725731006828
 30
0.0
 70
    32
  0
VERTEX
  5
14F30
  8
01
 10
-329.4573306904534
 20
-198.9735293965227
 30
0.0
 70
    32
  0
VERTEX
  5
14F31
  8
01
 10
-329.4573306904534
 20
-199.0744855011168
 30
0.0
 70
    32
  0
VERTEX
  5
14F32
  8
01
 10
-329.4573306904534
 20
-199.1754414364466
 30
0.0
 70
    32
  0
VERTEX
  5
14F33
  8
01
 10
-329.4573306904534
 20
-199.2763972244937
 30
0.0
 70
    32
  0
VERTEX
  5
14F34
  8
01
 10
-329.4573306904534
 20
-199.3773528872395
 30
0.0
 70
    32
  0
VERTEX
  5
14F35
  8
01
 10
-329.4573306904534
 20
-199.4783084466656
 30
0.0
 70
    32
  0
VERTEX
  5
14F36
  8
01
 10
-329.4573306904534
 20
-199.5792639247535
 30
0.0
 70
    32
  0
VERTEX
  5
14F37
  8
01
 10
-329.4573306904534
 20
-199.6802193434848
 30
0.0
 70
    32
  0
VERTEX
  5
14F38
  8
01
 10
-329.4573306904534
 20
-199.7811747248409
 30
0.0
 70
    32
  0
VERTEX
  5
14F39
  8
01
 10
-329.4573306904534
 20
-199.8821300908034
 30
0.0
 70
    32
  0
VERTEX
  5
14F3A
  8
01
 10
-329.4573306904534
 20
-199.9830854633537
 30
0.0
 70
    32
  0
VERTEX
  5
14F3B
  8
01
 10
-329.4573306904534
 20
-200.0840408644735
 30
0.0
 70
    32
  0
VERTEX
  5
14F3C
  8
01
 10
-329.4573306904534
 20
-200.1849963161442
 30
0.0
 70
    32
  0
VERTEX
  5
14F3D
  8
01
 10
-329.4573306904534
 20
-200.2859518402037
 30
0.0
 70
    32
  0
VERTEX
  5
14F3E
  8
01
 10
-329.4573306904534
 20
-200.3869074475994
 30
0.0
 70
    32
  0
VERTEX
  5
14F3F
  8
01
 10
-329.4573306904534
 20
-200.487863130947
 30
0.0
 70
    32
  0
VERTEX
  5
14F40
  8
01
 10
-329.4573306904534
 20
-200.5888188811024
 30
0.0
 70
    32
  0
VERTEX
  5
14F41
  8
01
 10
-329.4573306904534
 20
-200.6897746889214
 30
0.0
 70
    32
  0
VERTEX
  5
14F42
  8
01
 10
-329.4573306904534
 20
-200.7907305452599
 30
0.0
 70
    32
  0
VERTEX
  5
14F43
  8
01
 10
-329.4573306904534
 20
-200.8916864409739
 30
0.0
 70
    32
  0
VERTEX
  5
14F44
  8
01
 10
-329.4573306904534
 20
-200.9926423669192
 30
0.0
 70
    32
  0
VERTEX
  5
14F45
  8
01
 10
-329.4573306904534
 20
-201.0935983139516
 30
0.0
 70
    32
  0
VERTEX
  5
14F46
  8
01
 10
-329.4573306904534
 20
-201.1945542729272
 30
0.0
 70
    32
  0
VERTEX
  5
14F47
  8
01
 10
-329.4573306904534
 20
-201.2955102347016
 30
0.0
 70
    32
  0
VERTEX
  5
14F48
  8
01
 10
-329.4573306904534
 20
-201.396466190131
 30
0.0
 70
    32
  0
VERTEX
  5
14F49
  8
01
 10
-329.4573306904534
 20
-201.497422130071
 30
0.0
 70
    32
  0
VERTEX
  5
14F4A
  8
01
 10
-329.4573306904534
 20
-201.5983780453776
 30
0.0
 70
    32
  0
VERTEX
  5
14F4B
  8
01
 10
-329.4573306904534
 20
-201.6993339269067
 30
0.0
 70
    32
  0
VERTEX
  5
14F4C
  8
01
 10
-329.4573306904534
 20
-201.8002897655142
 30
0.0
 70
    32
  0
VERTEX
  5
14F4D
  8
01
 10
-329.4573306904534
 20
-201.9012455520559
 30
0.0
 70
    32
  0
VERTEX
  5
14F4E
  8
01
 10
-329.4573306904534
 20
-202.0022012773877
 30
0.0
 70
    32
  0
VERTEX
  5
14F4F
  8
01
 10
-329.4573306904534
 20
-202.1031569323656
 30
0.0
 70
    32
  0
VERTEX
  5
14F50
  8
01
 10
-329.4573306904534
 20
-202.2041125078453
 30
0.0
 70
    32
  0
VERTEX
  5
14F51
  8
01
 10
-329.4573306904534
 20
-202.3050679946828
 30
0.0
 70
    32
  0
VERTEX
  5
14F52
  8
01
 10
-329.4573306904534
 20
-202.406023383734
 30
0.0
 70
    32
  0
SEQEND
  5
15142
  8
01
  0
POLYLINE
  5
12F50
  8
01
 10
0.0
 20
0.0
 30
0.0
 66
     1
 70
     8
  0
VERTEX
  5
14F53
  8
01
 10
-329.4573306904534
 20
-211.6556796188756
 30
0.0
 70
    32
  0
VERTEX
  5
14F54
  8
01
 10
-329.4573306904534
 20
-211.7065757663237
 30
0.0
 70
    32
  0
VERTEX
  5
14F55
  8
01
 10
-329.4573306904534
 20
-211.7574719137717
 30
0.0
 70
    32
  0
VERTEX
  5
14F56
  8
01
 10
-329.4573306904534
 20
-211.8083680612198
 30
0.0
 70
    32
  0
VERTEX
  5
14F57
  8
01
 10
-329.4573306904534
 20
-211.8592642086678
 30
0.0
 70
    32
  0
VERTEX
  5
14F58
  8
01
 10
-329.4573306904534
 20
-211.9101603561159
 30
0.0
 70
    32
  0
VERTEX
  5
14F59
  8
01
 10
-329.4573306904534
 20
-211.9610565035639
 30
0.0
 70
    32
  0
VERTEX
  5
14F5A
  8
01
 10
-329.4573306904534
 20
-212.0119526510119
 30
0.0
 70
    32
  0
VERTEX
  5
14F5B
  8
01
 10
-329.4573306904534
 20
-212.06284879846
 30
0.0
 70
    32
  0
VERTEX
  5
14F5C
  8
01
 10
-329.4573306904534
 20
-212.113744945908
 30
0.0
 70
    32
  0
VERTEX
  5
14F5D
  8
01
 10
-329.4573306904534
 20
-212.1646410933561
 30
0.0
 70
    32
  0
VERTEX
  5
14F5E
  8
01
 10
-329.4573306904534
 20
-212.2155372408041
 30
0.0
 70
    32
  0
VERTEX
  5
14F5F
  8
01
 10
-329.4573306904534
 20
-212.2664333882522
 30
0.0
 70
    32
  0
VERTEX
  5
14F60
  8
01
 10
-329.4573306904534
 20
-212.3173295357002
 30
0.0
 70
    32
  0
VERTEX
  5
14F61
  8
01
 10
-329.4573306904534
 20
-212.3682256831482
 30
0.0
 70
    32
  0
VERTEX
  5
14F62
  8
01
 10
-329.4573306904534
 20
-212.4191218305963
 30
0.0
 70
    32
  0
VERTEX
  5
14F63
  8
01
 10
-329.4573306904534
 20
-212.4700179780443
 30
0.0
 70
    32
  0
SEQEND
  5
15143
  8
01
  0
POLYLINE
  5
12F51
  8
01
 10
0.0
 20
0.0
 30
0.0
 66
     1
 70
     8
  0
VERTEX
  5
14F64
  8
01
 10
-329.4573306904534
 20
-202.4303036280448
 30
0.0
 70
    32
  0
VERTEX
  5
14F65
  8
01
 10
-329.4573306904534
 20
-202.4827205431112
 30
0.0
 70
    32
  0
VERTEX
  5
14F66
  8
01
 10
-329.4573306904534
 20
-202.5351374581776
 30
0.0
 70
    32
  0
VERTEX
  5
14F67
  8
01
 10
-329.4573306904534
 20
-202.587554373244
 30
0.0
 70
    32
  0
VERTEX
  5
14F68
  8
01
 10
-329.4573306904534
 20
-202.6399712883103
 30
0.0
 70
    32
  0
VERTEX
  5
14F69
  8
01
 10
-329.4573306904534
 20
-202.6923882033767
 30
0.0
 70
    32
  0
VERTEX
  5
14F6A
  8
01
 10
-329.4573306904534
 20
-202.7448051184431
 30
0.0
 70
    32
  0
VERTEX
  5
14F6B
  8
01
 10
-329.4573306904534
 20
-202.7972220335095
 30
0.0
 70
    32
  0
VERTEX
  5
14F6C
  8
01
 10
-329.4573306904534
 20
-202.8496389485758
 30
0.0
 70
    32
  0
VERTEX
  5
14F6D
  8
01
 10
-329.4573306904534
 20
-202.9020558636422
 30
0.0
 70
    32
  0
VERTEX
  5
14F6E
  8
01
 10
-329.4573306904534
 20
-202.9544727787086
 30
0.0
 70
    32
  0
VERTEX
  5
14F6F
  8
01
 10
-329.4573306904534
 20
-203.006889693775
 30
0.0
 70
    32
  0
VERTEX
  5
14F70
  8
01
 10
-329.4573306904534
 20
-203.0593066088413
 30
0.0
 70
    32
  0
VERTEX
  5
14F71
  8
01
 10
-329.4573306904534
 20
-203.1117235239077
 30
0.0
 70
    32
  0
VERTEX
  5
14F72
  8
01
 10
-329.4573306904534
 20
-203.1641404389741
 30
0.0
 70
    32
  0
VERTEX
  5
14F73
  8
01
 10
-329.4573306904534
 20
-203.2165573540404
 30
0.0
 70
    32
  0
VERTEX
  5
14F74
  8
01
 10
-329.4573306904534
 20
-203.2689742691068
 30
0.0
 70
    32
  0
SEQEND
  5
15144
  8
01
  0
POLYLINE
  5
12F52
  8
01
 10
0.0
 20
0.0
 30
0.0
 66
     1
 70
     8
  0
VERTEX
  5
14F75
  8
01
 10
-329.4573306904534
 20
-203.2689742691068
 30
0.0
 70
    32
  0
VERTEX
  5
14F76
  8
01
 10
-329.4573306904534
 20
-203.7916258453984
 30
0.0
 70
    32
  0
VERTEX
  5
14F77
  8
01
 10
-329.4573306904534
 20
-204.3142774216899
 30
0.0
 70
    32
  0
VERTEX
  5
14F78
  8
01
 10
-329.4573306904534
 20
-204.8369289979814
 30
0.0
 70
    32
  0
VERTEX
  5
14F79
  8
01
 10
-329.4573306904534
 20
-205.359580574273
 30
0.0
 70
    32
  0
VERTEX
  5
14F7A
  8
01
 10
-329.4573306904534
 20
-205.8822321505645
 30
0.0
 70
    32
  0
VERTEX
  5
14F7B
  8
01
 10
-329.4573306904534
 20
-206.404883726856
 30
0.0
 70
    32
  0
VERTEX
  5
14F7C
  8
01
 10
-329.4573306904534
 20
-206.9275353031476
 30
0.0
 70
    32
  0
VERTEX
  5
14F7D
  8
01
 10
-329.4573306904534
 20
-207.4501868794391
 30
0.0
 70
    32
  0
VERTEX
  5
14F7E
  8
01
 10
-329.4573306904534
 20
-207.9728384557307
 30
0.0
 70
    32
  0
VERTEX
  5
14F7F
  8
01
 10
-329.4573306904534
 20
-208.4954900320222
 30
0.0
 70
    32
  0
VERTEX
  5
14F80
  8
01
 10
-329.4573306904534
 20
-209.0181416083137
 30
0.0
 70
    32
  0
VERTEX
  5
14F81
  8
01
 10
-329.4573306904534
 20
-209.5407931846053
 30
0.0
 70
    32
  0
VERTEX
  5
14F82
  8
01
 10
-329.4573306904534
 20
-210.0634447608968
 30
0.0
 70
    32
  0
VERTEX
  5
14F83
  8
01
 10
-329.4573306904534
 20
-210.5860963371883
 30
0.0
 70
    32
  0
VERTEX
  5
14F84
  8
01
 10
-329.4573306904534
 20
-211.1087479134799
 30
0.0
 70
    32
  0
VERTEX
  5
14F85
  8
01
 10
-329.4573306904534
 20
-211.6313994897714
 30
0.0
 70
    32
  0
SEQEND
  5
15145
  8
01
  0
POLYLINE
  5
12F53
  8
01
 10
0.0
 20
0.0
 30
0.0
 66
     1
 70
     8
  0
VERTEX
  5
14F86
  8
01
 10
-53.45747581196828
 20
-181.6234274586791
 30
0.0
 70
    32
  0
VERTEX
  5
14F87
  8
01
 10
-53.45747581196817
 20
-178.8966079716419
 30
0.0
 70
    32
  0
VERTEX
  5
14F88
  8
01
 10
-53.45747581196807
 20
-176.1697884846046
 30
0.0
 70
    32
  0
VERTEX
  5
14F89
  8
01
 10
-53.45747581196797
 20
-173.4429689975674
 30
0.0
 70
    32
  0
VERTEX
  5
14F8A
  8
01
 10
-53.45747581196788
 20
-170.7161495105302
 30
0.0
 70
    32
  0
VERTEX
  5
14F8B
  8
01
 10
-53.4574758119678
 20
-167.9893300234929
 30
0.0
 70
    32
  0
VERTEX
  5
14F8C
  8
01
 10
-53.45747581196773
 20
-165.2625105364557
 30
0.0
 70
    32
  0
VERTEX
  5
14F8D
  8
01
 10
-53.45747581196765
 20
-162.5356910494185
 30
0.0
 70
    32
  0
VERTEX
  5
14F8E
  8
01
 10
-53.4574758119676
 20
-159.8088715623812
 30
0.0
 70
    32
  0
VERTEX
  5
14F8F
  8
01
 10
-53.45747581196754
 20
-157.082052075344
 30
0.0
 70
    32
  0
VERTEX
  5
14F90
  8
01
 10
-53.4574758119675
 20
-154.3552325883068
 30
0.0
 70
    32
  0
VERTEX
  5
14F91
  8
01
 10
-53.45747581196746
 20
-151.6284131012695
 30
0.0
 70
    32
  0
VERTEX
  5
14F92
  8
01
 10
-53.45747581196743
 20
-148.9015936142323
 30
0.0
 70
    32
  0
VERTEX
  5
14F93
  8
01
 10
-53.4574758119674
 20
-146.1747741271951
 30
0.0
 70
    32
  0
VERTEX
  5
14F94
  8
01
 10
-53.45747581196738
 20
-143.4479546401578
 30
0.0
 70
    32
  0
VERTEX
  5
14F95
  8
01
 10
-53.45747581196737
 20
-140.7211351531206
 30
0.0
 70
    32
  0
VERTEX
  5
14F96
  8
01
 10
-53.45747581196737
 20
-137.9943156660834
 30
0.0
 70
    32
  0
SEQEND
  5
15146
  8
01
  0
POLYLINE
  5
12F54
  8
01
 10
0.0
 20
0.0
 30
0.0
 66
     1
 70
     8
  0
VERTEX
  5
14F97
  8
01
 10
-194.4574758119674
 20
-181.6233959107035
 30
0.0
 70
    32
  0
VERTEX
  5
14F98
  8
01
 10
-194.4574758119675
 20
-178.8965769363131
 30
0.0
 70
    32
  0
VERTEX
  5
14F99
  8
01
 10
-194.4574758119676
 20
-176.1697579619226
 30
0.0
 70
    32
  0
VERTEX
  5
14F9A
  8
01
 10
-194.4574758119677
 20
-173.4429389875322
 30
0.0
 70
    32
  0
VERTEX
  5
14F9B
  8
01
 10
-194.4574758119678
 20
-170.7161200131418
 30
0.0
 70
    32
  0
VERTEX
  5
14F9C
  8
01
 10
-194.4574758119679
 20
-167.9893010387514
 30
0.0
 70
    32
  0
VERTEX
  5
14F9D
  8
01
 10
-194.457475811968
 20
-165.2624820643609
 30
0.0
 70
    32
  0
VERTEX
  5
14F9E
  8
01
 10
-194.4574758119682
 20
-162.5356630899705
 30
0.0
 70
    32
  0
VERTEX
  5
14F9F
  8
01
 10
-194.4574758119683
 20
-159.8088441155801
 30
0.0
 70
    32
  0
VERTEX
  5
14FA0
  8
01
 10
-194.4574758119684
 20
-157.0820251411897
 30
0.0
 70
    32
  0
VERTEX
  5
14FA1
  8
01
 10
-194.4574758119685
 20
-154.3552061667992
 30
0.0
 70
    32
  0
VERTEX
  5
14FA2
  8
01
 10
-194.4574758119686
 20
-151.6283871924088
 30
0.0
 70
    32
  0
VERTEX
  5
14FA3
  8
01
 10
-194.4574758119687
 20
-148.9015682180184
 30
0.0
 70
    32
  0
VERTEX
  5
14FA4
  8
01
 10
-194.4574758119688
 20
-146.174749243628
 30
0.0
 70
    32
  0
VERTEX
  5
14FA5
  8
01
 10
-194.4574758119689
 20
-143.4479302692375
 30
0.0
 70
    32
  0
VERTEX
  5
14FA6
  8
01
 10
-194.4574758119691
 20
-140.7211112948471
 30
0.0
 70
    32
  0
VERTEX
  5
14FA7
  8
01
 10
-194.4574758119692
 20
-137.9942923204567
 30
0.0
 70
    32
  0
SEQEND
  5
15147
  8
01
  0
POLYLINE
  5
12F55
  8
01
 10
0.0
 20
0.0
 30
0.0
 66
     1
 70
     8
  0
VERTEX
  5
14FA8
  8
01
 10
-191.4574758119683
 20
-183.8518169551958
 30
0.0
 70
    32
  0
VERTEX
  5
14FA9
  8
01
 10
-183.0199758119683
 20
-183.8518169551958
 30
0.0
 70
    32
  0
VERTEX
  5
14FAA
  8
01
 10
-174.5824758119683
 20
-183.8518169551958
 30
0.0
 70
    32
  0
VERTEX
  5
14FAB
  8
01
 10
-166.1449758119683
 20
-183.8518169551958
 30
0.0
 70
    32
  0
VERTEX
  5
14FAC
  8
01
 10
-157.7074758119683
 20
-183.8518169551958
 30
0.0
 70
    32
  0
VERTEX
  5
14FAD
  8
01
 10
-149.2699758119683
 20
-183.8518169551958
 30
0.0
 70
    32
  0
VERTEX
  5
14FAE
  8
01
 10
-140.8324758119683
 20
-183.8518169551958
 30
0.0
 70
    32
  0
VERTEX
  5
14FAF
  8
01
 10
-132.3949758119683
 20
-183.8518169551958
 30
0.0
 70
    32
  0
VERTEX
  5
14FB0
  8
01
 10
-123.9574758119683
 20
-183.8518169551958
 30
0.0
 70
    32
  0
VERTEX
  5
14FB1
  8
01
 10
-115.5199758119683
 20
-183.8518169551958
 30
0.0
 70
    32
  0
VERTEX
  5
14FB2
  8
01
 10
-107.0824758119683
 20
-183.8518169551958
 30
0.0
 70
    32
  0
VERTEX
  5
14FB3
  8
01
 10
-98.64497581196827
 20
-183.8518169551958
 30
0.0
 70
    32
  0
VERTEX
  5
14FB4
  8
01
 10
-90.20747581196828
 20
-183.8518169551958
 30
0.0
 70
    32
  0
VERTEX
  5
14FB5
  8
01
 10
-81.76997581196828
 20
-183.8518169551958
 30
0.0
 70
    32
  0
VERTEX
  5
14FB6
  8
01
 10
-73.33247581196828
 20
-183.8518169551958
 30
0.0
 70
    32
  0
VERTEX
  5
14FB7
  8
01
 10
-64.89497581196828
 20
-183.8518169551958
 30
0.0
 70
    32
  0
VERTEX
  5
14FB8
  8
01
 10
-56.45747581196828
 20
-183.8518169551958
 30
0.0
 70
    32
  0
SEQEND
  5
15148
  8
01
  0
POLYLINE
  5
12F56
  8
01
 10
0.0
 20
0.0
 30
0.0
 66
     1
 70
     8
  0
VERTEX
  5
14FB9
  8
01
 10
-198.4572574460884
 20
-181.6234295248928
 30
0.0
 70
    32
  0
VERTEX
  5
14FBA
  8
01
 10
-198.4572574460883
 20
-178.8966100378556
 30
0.0
 70
    32
  0
VERTEX
  5
14FBB
  8
01
 10
-198.4572574460882
 20
-176.1697905508183
 30
0.0
 70
    32
  0
VERTEX
  5
14FBC
  8
01
 10
-198.4572574460881
 20
-173.4429710637811
 30
0.0
 70
    32
  0
VERTEX
  5
14FBD
  8
01
 10
-198.457257446088
 20
-170.7161515767439
 30
0.0
 70
    32
  0
VERTEX
  5
14FBE
  8
01
 10
-198.4572574460879
 20
-167.9893320897066
 30
0.0
 70
    32
  0
VERTEX
  5
14FBF
  8
01
 10
-198.4572574460879
 20
-165.2625126026694
 30
0.0
 70
    32
  0
VERTEX
  5
14FC0
  8
01
 10
-198.4572574460878
 20
-162.5356931156322
 30
0.0
 70
    32
  0
VERTEX
  5
14FC1
  8
01
 10
-198.4572574460877
 20
-159.8088736285949
 30
0.0
 70
    32
  0
VERTEX
  5
14FC2
  8
01
 10
-198.4572574460877
 20
-157.0820541415577
 30
0.0
 70
    32
  0
VERTEX
  5
14FC3
  8
01
 10
-198.4572574460876
 20
-154.3552346545205
 30
0.0
 70
    32
  0
VERTEX
  5
14FC4
  8
01
 10
-198.4572574460876
 20
-151.6284151674832
 30
0.0
 70
    32
  0
VERTEX
  5
14FC5
  8
01
 10
-198.4572574460876
 20
-148.901595680446
 30
0.0
 70
    32
  0
VERTEX
  5
14FC6
  8
01
 10
-198.4572574460875
 20
-146.1747761934088
 30
0.0
 70
    32
  0
VERTEX
  5
14FC7
  8
01
 10
-198.4572574460875
 20
-143.4479567063715
 30
0.0
 70
    32
  0
VERTEX
  5
14FC8
  8
01
 10
-198.4572574460875
 20
-140.7211372193343
 30
0.0
 70
    32
  0
VERTEX
  5
14FC9
  8
01
 10
-198.4572574460875
 20
-137.9943177322971
 30
0.0
 70
    32
  0
SEQEND
  5
15149
  8
01
  0
POLYLINE
  5
12F57
  8
01
 10
0.0
 20
0.0
 30
0.0
 66
     1
 70
     8
  0
VERTEX
  5
14FCA
  8
01
 10
-339.4572574460884
 20
-181.6233979769181
 30
0.0
 70
    32
  0
VERTEX
  5
14FCB
  8
01
 10
-339.4572574460885
 20
-178.8965790025277
 30
0.0
 70
    32
  0
VERTEX
  5
14FCC
  8
01
 10
-339.4572574460886
 20
-176.1697600281373
 30
0.0
 70
    32
  0
VERTEX
  5
14FCD
  8
01
 10
-339.4572574460887
 20
-173.4429410537468
 30
0.0
 70
    32
  0
VERTEX
  5
14FCE
  8
01
 10
-339.4572574460888
 20
-170.7161220793564
 30
0.0
 70
    32
  0
VERTEX
  5
14FCF
  8
01
 10
-339.4572574460889
 20
-167.989303104966
 30
0.0
 70
    32
  0
VERTEX
  5
14FD0
  8
01
 10
-339.457257446089
 20
-165.2624841305756
 30
0.0
 70
    32
  0
VERTEX
  5
14FD1
  8
01
 10
-339.457257446089
 20
-162.5356651561851
 30
0.0
 70
    32
  0
VERTEX
  5
14FD2
  8
01
 10
-339.4572574460891
 20
-159.8088461817947
 30
0.0
 70
    32
  0
VERTEX
  5
14FD3
  8
01
 10
-339.4572574460892
 20
-157.0820272074043
 30
0.0
 70
    32
  0
VERTEX
  5
14FD4
  8
01
 10
-339.4572574460892
 20
-154.3552082330139
 30
0.0
 70
    32
  0
VERTEX
  5
14FD5
  8
01
 10
-339.4572574460892
 20
-151.6283892586234
 30
0.0
 70
    32
  0
VERTEX
  5
14FD6
  8
01
 10
-339.4572574460893
 20
-148.901570284233
 30
0.0
 70
    32
  0
VERTEX
  5
14FD7
  8
01
 10
-339.4572574460893
 20
-146.1747513098426
 30
0.0
 70
    32
  0
VERTEX
  5
14FD8
  8
01
 10
-339.4572574460893
 20
-143.4479323354522
 30
0.0
 70
    32
  0
VERTEX
  5
14FD9
  8
01
 10
-339.4572574460893
 20
-140.7211133610617
 30
0.0
 70
    32
  0
VERTEX
  5
14FDA
  8
01
 10
-339.4572574460893
 20
-137.9942943866713
 30
0.0
 70
    32
  0
SEQEND
  5
1514A
  8
01
  0
POLYLINE
  5
12F58
  8
01
 10
0.0
 20
0.0
 30
0.0
 66
     1
 70
     8
  0
VERTEX
  5
14FDB
  8
01
 10
-336.4572574460884
 20
-183.8518190214104
 30
0.0
 70
    32
  0
VERTEX
  5
14FDC
  8
01
 10
-328.0197574460884
 20
-183.8518190214104
 30
0.0
 70
    32
  0
VERTEX
  5
14FDD
  8
01
 10
-319.5822574460884
 20
-183.8518190214104
 30
0.0
 70
    32
  0
VERTEX
  5
14FDE
  8
01
 10
-311.1447574460884
 20
-183.8518190214104
 30
0.0
 70
    32
  0
VERTEX
  5
14FDF
  8
01
 10
-302.7072574460884
 20
-183.8518190214104
 30
0.0
 70
    32
  0
VERTEX
  5
14FE0
  8
01
 10
-294.2697574460884
 20
-183.8518190214104
 30
0.0
 70
    32
  0
VERTEX
  5
14FE1
  8
01
 10
-285.8322574460884
 20
-183.8518190214104
 30
0.0
 70
    32
  0
VERTEX
  5
14FE2
  8
01
 10
-277.3947574460884
 20
-183.8518190214104
 30
0.0
 70
    32
  0
VERTEX
  5
14FE3
  8
01
 10
-268.9572574460884
 20
-183.8518190214104
 30
0.0
 70
    32
  0
VERTEX
  5
14FE4
  8
01
 10
-260.5197574460884
 20
-183.8518190214104
 30
0.0
 70
    32
  0
VERTEX
  5
14FE5
  8
01
 10
-252.0822574460884
 20
-183.8518190214104
 30
0.0
 70
    32
  0
VERTEX
  5
14FE6
  8
01
 10
-243.6447574460884
 20
-183.8518190214104
 30
0.0
 70
    32
  0
VERTEX
  5
14FE7
  8
01
 10
-235.2072574460884
 20
-183.8518190214104
 30
0.0
 70
    32
  0
VERTEX
  5
14FE8
  8
01
 10
-226.7697574460884
 20
-183.8518190214104
 30
0.0
 70
    32
  0
VERTEX
  5
14FE9
  8
01
 10
-218.3322574460884
 20
-183.8518190214104
 30
0.0
 70
    32
  0
VERTEX
  5
14FEA
  8
01
 10
-209.8947574460884
 20
-183.8518190214104
 30
0.0
 70
    32
  0
VERTEX
  5
14FEB
  8
01
 10
-201.4572574460884
 20
-183.8518190214104
 30
0.0
 70
    32
  0
SEQEND
  5
1514B
  8
01
  0
POLYLINE
  5
12F59
  8
01
 66
     1
 10
0.0
 20
0.0
 30
0.0
  0
VERTEX
  5
14FEC
  8
01
 10
-66.45733065927415
 20
-216.0192797667269
 30
0.0
  0
VERTEX
  5
14FED
  8
01
 10
-65.8720596932366
 20
-215.9510816969325
 30
0.0
  0
VERTEX
  5
14FEE
  8
01
 10
-65.30928036220011
 20
-215.7491083011259
 30
0.0
  0
VERTEX
  5
14FEF
  8
01
 10
-64.79061996024616
 20
-215.4211213036397
 30
0.0
  0
VERTEX
  5
14FF0
  8
01
 10
-64.33601031575374
 20
-214.9797250608501
 30
0.0
  0
VERTEX
  5
14FF1
  8
01
 10
-63.96292182241265
 20
-214.4418821828298
 30
0.0
  0
VERTEX
  5
14FF2
  8
01
 10
-63.68569206179155
 20
-213.8282616697552
 30
0.0
  0
VERTEX
  5
14FF3
  8
01
 10
-63.51497481811887
 20
-213.1624446138215
 30
0.0
  0
VERTEX
  5
14FF4
  8
01
 10
-63.45733065932963
 20
-212.4700179910938
 30
0.0
  0
SEQEND
  5
1514C
  8
01
  0
POLYLINE
  5
12F5A
  8
01
 66
     1
 10
0.0
 20
0.0
 30
0.0
  0
VERTEX
  5
14FF5
  8
01
 10
-184.4573306593296
 20
-212.4700702572268
 30
0.0
  0
VERTEX
  5
14FF6
  8
01
 10
-184.398007977359
 20
-213.1725785429652
 30
0.0
  0
VERTEX
  5
14FF7
  8
01
 10
-184.2223860518447
 20
-213.8473037116267
 30
0.0
  0
VERTEX
  5
14FF8
  8
01
 10
-183.9374104585427
 20
-214.4675614254801
 30
0.0
  0
VERTEX
  5
14FF9
  8
01
 10
-183.5543515417799
 20
-215.0088214504602
 30
0.0
  0
VERTEX
  5
14FFA
  8
01
 10
-183.0883586897525
 20
-215.4496777890174
 30
0.0
  0
VERTEX
  5
14FFB
  8
01
 10
-182.5578611996343
 20
-215.7726952542411
 30
0.0
  0
VERTEX
  5
14FFC
  8
01
 10
-181.983839427353
 20
-215.9650990045579
 30
0.0
  0
VERTEX
  5
14FFD
  8
01
 10
-181.3889950469355
 20
-216.0192797689747
 30
0.0
  0
SEQEND
  5
1514D
  8
01
  0
POLYLINE
  5
12F5B
  8
01
 66
     1
 10
0.0
 20
0.0
 30
0.0
  0
VERTEX
  5
14FFE
  8
01
 10
-211.525666302933
 20
-216.0192797559262
 30
0.0
  0
VERTEX
  5
14FFF
  8
01
 10
-210.9308219225037
 20
-215.9650989915271
 30
0.0
  0
VERTEX
  5
15000
  8
01
 10
-210.3568001502084
 20
-215.7726952412225
 30
0.0
  0
VERTEX
  5
15001
  8
01
 10
-209.8263026600754
 20
-215.4496777760052
 30
0.0
  0
VERTEX
  5
15002
  8
01
 10
-209.3603098080338
 20
-215.0088214374487
 30
0.0
  0
VERTEX
  5
15003
  8
01
 10
-208.9772508912584
 20
-214.4675614124642
 30
0.0
  0
VERTEX
  5
15004
  8
01
 10
-208.6922752979466
 20
-213.8473036986024
 30
0.0
  0
VERTEX
  5
15005
  8
01
 10
-208.5166533724261
 20
-213.1725785299295
 30
0.0
  0
VERTEX
  5
15006
  8
01
 10
-208.4573306904534
 20
-212.4700702441783
 30
0.0
  0
SEQEND
  5
1514E
  8
01
  0
POLYLINE
  5
12F5C
  8
01
 66
     1
 10
0.0
 20
0.0
 30
0.0
  0
VERTEX
  5
15007
  8
01
 10
-53.45747581194473
 20
-137.9942943866713
 30
0.0
  0
VERTEX
  5
15008
  8
01
 10
-53.6496244686463
 20
-137.3061753797061
 30
0.0
  0
VERTEX
  5
15009
  8
01
 10
-54.21868621749661
 20
-136.6445006013086
 30
0.0
  0
VERTEX
  5
1500A
  8
01
 10
-55.14279216837141
 20
-136.0346980354471
 30
0.0
  0
VERTEX
  5
1500B
  8
01
 10
-56.38642917784876
 20
-135.5002022308983
 30
0.0
  0
VERTEX
  5
1500C
  8
01
 10
-57.90180460976981
 20
-135.0615537178334
 30
0.0
  0
VERTEX
  5
1500D
  8
01
 10
-59.63068299340643
 20
-134.7356096407621
 30
0.0
  0
VERTEX
  5
1500E
  8
01
 10
-61.5066239969557
 20
-134.5348959429983
 30
0.0
  0
VERTEX
  5
1500F
  8
01
 10
-63.45753571164131
 20
-134.4671259980233
 30
0.0
  0
SEQEND
  5
1514F
  8
01
  0
POLYLINE
  5
12F5D
  8
01
 66
     1
 10
0.0
 20
0.0
 30
0.0
  0
VERTEX
  5
15010
  8
01
 10
-184.4574758098137
 20
-134.46712599783
 30
0.0
  0
VERTEX
  5
15011
  8
01
 10
-186.4083790303955
 20
-134.5348995493921
 30
0.0
  0
VERTEX
  5
15012
  8
01
 10
-188.2843101342895
 20
-134.7356157045
 30
0.0
  0
VERTEX
  5
15013
  8
01
 10
-190.0131781412073
 20
-135.0615610538756
 30
0.0
  0
VERTEX
  5
15014
  8
01
 10
-191.5285436232035
 20
-135.5002097005348
 30
0.0
  0
VERTEX
  5
15015
  8
01
 10
-192.7721719346315
 20
-136.0347046229833
 30
0.0
  0
VERTEX
  5
15016
  8
01
 10
-193.6962711369182
 20
-136.6445054810999
 30
0.0
  0
VERTEX
  5
15017
  8
01
 10
-194.2653286159603
 20
-137.3061779698871
 30
0.0
  0
VERTEX
  5
15018
  8
01
 10
-194.4574758119694
 20
-137.9942943866713
 30
0.0
  0
SEQEND
  5
15150
  8
01
  0
POLYLINE
  5
12F5E
  8
01
 66
     1
 10
0.0
 20
0.0
 30
0.0
  0
VERTEX
  5
15019
  8
01
 10
-198.4572574460603
 20
-137.9942943866713
 30
0.0
  0
VERTEX
  5
1501A
  8
01
 10
-198.6494060969258
 20
-137.3061757931548
 30
0.0
  0
VERTEX
  5
1501B
  8
01
 10
-199.2184678287164
 20
-136.6445014115142
 30
0.0
  0
VERTEX
  5
1501C
  8
01
 10
-200.1425737526277
 20
-136.034699209698
 30
0.0
  0
VERTEX
  5
1501D
  8
01
 10
-201.3862107273526
 20
-135.5002037217811
 30
0.0
  0
VERTEX
  5
1501E
  8
01
 10
-202.9015861195195
 20
-135.0615554651426
 30
0.0
  0
VERTEX
  5
1501F
  8
01
 10
-204.6304644616967
 20
-134.7356115739259
 30
0.0
  0
VERTEX
  5
15020
  8
01
 10
-206.5064054256927
 20
-134.5348979839221
 30
0.0
  0
VERTEX
  5
15021
  8
01
 10
-208.4573171064407
 20
-134.467128064237
 30
0.0
  0
SEQEND
  5
15151
  8
01
  0
POLYLINE
  5
12F5F
  8
01
 66
     1
 10
0.0
 20
0.0
 30
0.0
  0
VERTEX
  5
15022
  8
01
 10
-329.4572574439347
 20
-134.4671280640437
 30
0.0
  0
VERTEX
  5
15023
  8
01
 10
-331.4081606645163
 20
-134.5349015759041
 30
0.0
  0
VERTEX
  5
15024
  8
01
 10
-333.2840917684102
 20
-134.7356176134325
 30
0.0
  0
VERTEX
  5
15025
  8
01
 10
-335.0129597753278
 20
-135.0615627718695
 30
0.0
  0
VERTEX
  5
15026
  8
01
 10
-336.5283252573237
 20
-135.5002111615685
 30
0.0
  0
VERTEX
  5
15027
  8
01
 10
-337.7719535687517
 20
-136.0347057709102
 30
0.0
  0
VERTEX
  5
15028
  8
01
 10
-338.6960527710382
 20
-136.6445062718056
 30
0.0
  0
VERTEX
  5
15029
  8
01
 10
-339.2651102500802
 20
-137.3061783729854
 30
0.0
  0
VERTEX
  5
1502A
  8
01
 10
-339.4572574460893
 20
-137.9942943866713
 30
0.0
  0
SEQEND
  5
15152
  8
01
  0
POLYLINE
  5
12F60
  8
01
 66
     1
 10
0.0
 20
0.0
 30
0.0
  0
VERTEX
  5
1502B
  8
01
 10
-201.4572574460884
 20
-183.8518190214099
 30
0.0
  0
VERTEX
  5
1502C
  8
01
 10
-200.87198648004
 20
-183.8090004961948
 30
0.0
  0
VERTEX
  5
1502D
  8
01
 10
-200.3092071489932
 20
-183.6821904124603
 30
0.0
  0
VERTEX
  5
1502E
  8
01
 10
-199.7905467470296
 20
-183.4762620106086
 30
0.0
  0
VERTEX
  5
1502F
  8
01
 10
-199.3359371025288
 20
-183.1991290036368
 30
0.0
  0
VERTEX
  5
15030
  8
01
 10
-198.9628486091808
 20
-182.8614414575849
 30
0.0
  0
VERTEX
  5
15031
  8
01
 10
-198.6856188485546
 20
-182.4761765154703
 30
0.0
  0
VERTEX
  5
15032
  8
01
 10
-198.5149016048787
 20
-182.0581396929594
 30
0.0
  0
VERTEX
  5
15033
  8
01
 10
-198.4572574460884
 20
-181.6233959107035
 30
0.0
  0
SEQEND
  5
15153
  8
01
  0
POLYLINE
  5
12F61
  8
01
 66
     1
 10
0.0
 20
0.0
 30
0.0
  0
VERTEX
  5
15034
  8
01
 10
-194.4574758119674
 20
-181.6233959107035
 30
0.0
  0
VERTEX
  5
15035
  8
01
 10
-194.3998316531771
 20
-182.058139289861
 30
0.0
  0
VERTEX
  5
15036
  8
01
 10
-194.2291144095013
 20
-182.4761757247644
 30
0.0
  0
VERTEX
  5
15037
  8
01
 10
-193.9518846488751
 20
-182.8614403096579
 30
0.0
  0
VERTEX
  5
15038
  8
01
 10
-193.5787961555273
 20
-183.1991275426028
 30
0.0
  0
VERTEX
  5
15039
  8
01
 10
-193.1241865110266
 20
-183.4762602926143
 30
0.0
  0
VERTEX
  5
1503A
  8
01
 10
-192.6055261090632
 20
-183.6821885035273
 30
0.0
  0
VERTEX
  5
1503B
  8
01
 10
-192.0427467780165
 20
-183.8089984696823
 30
0.0
  0
VERTEX
  5
1503C
  8
01
 10
-191.4574758119683
 20
-183.8518169551958
 30
0.0
  0
SEQEND
  5
15154
  8
01
  0
POLYLINE
  5
12F62
  8
01
 66
     1
 10
0.0
 20
0.0
 30
0.0
  0
VERTEX
  5
1503D
  8
01
 10
-339.4572574460884
 20
-181.6233979769181
 30
0.0
  0
VERTEX
  5
1503E
  8
01
 10
-339.3996132872981
 20
-182.0581413560756
 30
0.0
  0
VERTEX
  5
1503F
  8
01
 10
-339.2288960436223
 20
-182.476177790979
 30
0.0
  0
VERTEX
  5
15040
  8
01
 10
-338.951666282996
 20
-182.8614423758725
 30
0.0
  0
VERTEX
  5
15041
  8
01
 10
-338.5785777896481
 20
-183.1991296088174
 30
0.0
  0
VERTEX
  5
15042
  8
01
 10
-338.1239681451472
 20
-183.4762623588289
 30
0.0
  0
VERTEX
  5
15043
  8
01
 10
-337.6053077431837
 20
-183.6821905697419
 30
0.0
  0
VERTEX
  5
15044
  8
01
 10
-337.0425284121368
 20
-183.8090005358969
 30
0.0
  0
VERTEX
  5
15045
  8
01
 10
-336.4572574460884
 20
-183.8518190214104
 30
0.0
  0
SEQEND
  5
15155
  8
01
  0
POLYLINE
  5
12F63
  8
01
 66
     1
 10
0.0
 20
0.0
 30
0.0
  0
VERTEX
  5
15046
  8
01
 10
-56.45747581196828
 20
-183.8518169551962
 30
0.0
  0
VERTEX
  5
15047
  8
01
 10
-55.8722048459199
 20
-183.8089990758683
 30
0.0
  0
VERTEX
  5
15048
  8
01
 10
-55.30942551487301
 20
-183.6821909049744
 30
0.0
  0
VERTEX
  5
15049
  8
01
 10
-54.79076511290948
 20
-183.4762656094072
 30
0.0
  0
VERTEX
  5
1504A
  8
01
 10
-54.33615546840863
 20
-183.1991367827912
 30
0.0
  0
VERTEX
  5
1504B
  8
01
 10
-53.96306697506064
 20
-182.8614543305175
 30
0.0
  0
VERTEX
  5
1504C
  8
01
 10
-53.68583721443442
 20
-182.4761951998526
 30
0.0
  0
VERTEX
  5
1504D
  8
01
 10
-53.51511997075859
 20
-182.058164683132
 30
0.0
  0
VERTEX
  5
1504E
  8
01
 10
-53.45747581196828
 20
-181.6234274586791
 30
0.0
  0
SEQEND
  5
15156
  8
01
  0
LINE
  5
12F64
  8
01
 10
-196.2573306593298
 20
-152.6642989359584
 30
0.0
 11
-196.2573306593298
 21
-226.8336191289295
 31
0.0
  0
LINE
  5
12F65
  8
01
 10
-196.6573306904542
 20
-226.8336191158801
 30
0.0
 11
-196.6573306904542
 21
-152.6642989229099
 31
0.0
  0
POLYLINE
  5
12F66
  8
01
 66
     1
 10
0.0
 20
0.0
 30
0.0
  0
VERTEX
  5
1504F
  8
01
 10
-329.4573306904534
 20
-212.4700179780443
 30
0.0
  0
VERTEX
  5
15050
  8
01
 10
-329.3996865316641
 20
-213.1624446007722
 30
0.0
  0
VERTEX
  5
15051
  8
01
 10
-329.2289692879914
 20
-213.828261656706
 30
0.0
  0
VERTEX
  5
15052
  8
01
 10
-328.9517395273703
 20
-214.4418821697806
 30
0.0
  0
VERTEX
  5
15053
  8
01
 10
-328.5786510340291
 20
-214.979725047801
 30
0.0
  0
VERTEX
  5
15054
  8
01
 10
-328.1240413895365
 20
-215.4211212905906
 30
0.0
  0
VERTEX
  5
15055
  8
01
 10
-327.6053809875824
 20
-215.7491082880769
 30
0.0
  0
VERTEX
  5
15056
  8
01
 10
-327.0426016565457
 20
-215.9510816838836
 30
0.0
  0
VERTEX
  5
15057
  8
01
 10
-326.457330690508
 20
-216.0192797536779
 30
0.0
  0
SEQEND
  5
15157
  8
01
  0
POLYLINE
  5
12F67
  8
01
 66
     1
 10
0.0
 20
0.0
 30
0.0
  0
VERTEX
  5
15058
  8
01
 10
-53.45733065932963
 20
-204.6088592367219
 30
0.0
  0
VERTEX
  5
15059
  8
01
 10
-53.61104841610378
 20
-203.19621991154
 30
0.0
  0
VERTEX
  5
1505A
  8
01
 10
-54.06629439923933
 20
-201.8378675234077
 30
0.0
  0
VERTEX
  5
1505B
  8
01
 10
-54.80557376090927
 20
-200.5860027928279
 30
0.0
  0
VERTEX
  5
1505C
  8
01
 10
-55.80047640983724
 20
-199.4887341793431
 30
0.0
  0
VERTEX
  5
1505D
  8
01
 10
-57.01276879517281
 20
-198.5882291004141
 30
0.0
  0
VERTEX
  5
1505E
  8
01
 10
-58.39586320040891
 20
-197.9190934612152
 30
0.0
  0
VERTEX
  5
1505F
  8
01
 10
-59.8966080832006
 20
-197.5070417691052
 30
0.0
  0
VERTEX
  5
15060
  8
01
 10
-61.45733065932963
 20
-197.3679089395305
 30
0.0
  0
SEQEND
  5
15158
  8
01
  0
POLYLINE
  5
12F68
  8
01
 66
     1
 10
0.0
 20
0.0
 30
0.0
  0
VERTEX
  5
15061
  8
01
 10
-331.4573306904534
 20
-197.3679089264815
 30
0.0
  0
VERTEX
  5
15062
  8
01
 10
-333.0180532665825
 20
-197.5070417560562
 30
0.0
  0
VERTEX
  5
15063
  8
01
 10
-334.5187981493742
 20
-197.9190934481663
 30
0.0
  0
VERTEX
  5
15064
  8
01
 10
-335.9018925546102
 20
-198.5882290873652
 30
0.0
  0
VERTEX
  5
15065
  8
01
 10
-337.1141849399458
 20
-199.4887341662943
 30
0.0
  0
VERTEX
  5
15066
  8
01
 10
-338.1090875888738
 20
-200.5860027797791
 30
0.0
  0
VERTEX
  5
15067
  8
01
 10
-338.8483669505437
 20
-201.837867510359
 30
0.0
  0
VERTEX
  5
15068
  8
01
 10
-339.3036129336793
 20
-203.1962198984914
 30
0.0
  0
VERTEX
  5
15069
  8
01
 10
-339.4573306904534
 20
-204.6088592236733
 30
0.0
  0
SEQEND
  5
15159
  8
01
  0
POLYLINE
  5
12F69
  8
01
 66
     1
 10
0.0
 20
0.0
 30
0.0
  0
VERTEX
  5
1506A
  8
01
 10
-339.4573306904534
 20
-220.5435997275722
 30
0.0
  0
VERTEX
  5
1506B
  8
01
 10
-339.3036129336793
 20
-221.9562391006068
 30
0.0
  0
VERTEX
  5
1506C
  8
01
 10
-338.8483669505437
 20
-223.314591534753
 30
0.0
  0
VERTEX
  5
1506D
  8
01
 10
-338.1090875888738
 20
-224.5664563077394
 30
0.0
  0
VERTEX
  5
1506E
  8
01
 10
-337.1141849399458
 20
-225.6637249583938
 30
0.0
  0
VERTEX
  5
1506F
  8
01
 10
-335.9018925546102
 20
-226.5642300678272
 30
0.0
  0
VERTEX
  5
15070
  8
01
 10
-334.5187981493742
 20
-227.2333657296929
 30
0.0
  0
VERTEX
  5
15071
  8
01
 10
-333.0180532665825
 20
-227.6454174357611
 30
0.0
  0
VERTEX
  5
15072
  8
01
 10
-331.4573306904534
 20
-227.7845502700488
 30
0.0
  0
SEQEND
  5
1515A
  8
01
  0
POLYLINE
  5
12F6A
  8
01
 66
     1
 10
0.0
 20
0.0
 30
0.0
  0
VERTEX
  5
15073
  8
01
 10
-61.62343937517962
 20
-227.7845502830978
 30
0.0
  0
VERTEX
  5
15074
  8
01
 10
-60.01127955094478
 20
-227.6578761427907
 30
0.0
  0
VERTEX
  5
15075
  8
01
 10
-58.45817991727748
 20
-227.2406379154843
 30
0.0
  0
VERTEX
  5
15076
  8
01
 10
-57.02757278289965
 20
-226.5498766096696
 30
0.0
  0
VERTEX
  5
15077
  8
01
 10
-55.77788756949197
 20
-225.6138045714539
 30
0.0
  0
VERTEX
  5
15078
  8
01
 10
-54.76016441417361
 20
-224.4706532247758
 30
0.0
  0
VERTEX
  5
15079
  8
01
 10
-54.01596956806083
 20
-223.1671116084882
 30
0.0
  0
VERTEX
  5
1507A
  8
01
 10
-53.57569773102003
 20
-221.7564194841901
 30
0.0
  0
VERTEX
  5
1507B
  8
01
 10
-53.45733065932963
 20
-220.2961928968541
 30
0.0
  0
SEQEND
  5
1515B
  8
01
  0
LINE
  5
12F6B
  8
01
 10
-63.45747581199466
 20
-134.46712599796
 30
0.0
 11
-184.4574758098137
 21
-134.46712599783
 31
0.0
  0
LINE
  5
12F6C
  8
01
 10
-329.4572574439347
 20
-134.4671280640437
 30
0.0
 11
-208.4573171064407
 21
-134.4671280642365
 31
0.0
  0
LINE
  5
12F75
  8
01
 10
-195.7573306593298
 20
-227.7846299424641
 30
0.0
 11
-61.62343937517961
 21
-227.7845502830983
 31
0.0
  0
LINE
  5
12F76
  8
01
 10
-331.4573306904534
 20
-227.7845502700488
 30
0.0
 11
-197.1573306904542
 21
-227.7846299294156
 31
0.0
  0
LINE
  5
12F77
  8
01
 10
-326.0301700808308
 20
-216.0192797536861
 30
0.0
 11
-211.525666302933
 21
-216.0192797559262
 31
0.0
  0
LINE
  5
12F78
  8
01
 10
-181.3889950469355
 20
-216.0192797689747
 30
0.0
 11
-66.45733065927415
 21
-216.0192797667264
 31
0.0
  0
LINE
  5
12F7A
  8
01
 10
-198.4572574460884
 20
-149.5786629893651
 30
0.0
 11
-194.4574758119692
 21
-149.5786629893651
 31
0.0
  0
CIRCLE
  5
13139
  8
1PHANTOM
 10
-196.4573666260875
 20
-139.5786629893651
 30
0.0
 40
2.25
  0
CIRCLE
  5
1313A
  8
1PHANTOM
 10
-214.4573311677175
 20
-149.5786629893651
 30
0.0
 40
2.25
  0
CIRCLE
  5
1313B
  8
1PHANTOM
 10
-178.4573311677175
 20
-149.5786629893651
 30
0.0
 40
2.25
  0
CIRCLE
  5
1313C
  8
1PHANTOM
 10
-196.4573666260875
 20
-167.5786629893641
 30
0.0
 40
2.25
  0
LINE
  5
1313F
  8
1CENTER
 10
-199.382366626088
 20
-139.578662989365
 30
0.0
 11
-193.532366626087
 21
-139.578662989365
 31
0.0
  0
LINE
  5
13140
  8
1CENTER
 10
-196.457366626087
 20
-142.503662989365
 30
0.0
 11
-196.457366626087
 21
-136.653662989365
 31
0.0
  0
LINE
  5
13141
  8
1CENTER
 10
-181.3823311677178
 20
-149.578662989365
 30
0.0
 11
-175.5323311677178
 21
-149.578662989365
 31
0.0
  0
LINE
  5
13142
  8
1CENTER
 10
-178.4573311677178
 20
-152.503662989365
 30
0.0
 11
-178.4573311677178
 21
-146.653662989365
 31
0.0
  0
LINE
  5
13143
  8
1CENTER
 10
-217.3823311677178
 20
-149.578662989365
 30
0.0
 11
-211.5323311677178
 21
-149.578662989365
 31
0.0
  0
LINE
  5
13144
  8
1CENTER
 10
-214.4573311677178
 20
-152.503662989365
 30
0.0
 11
-214.4573311677178
 21
-146.653662989365
 31
0.0
  0
LINE
  5
13145
  8
1CENTER
 10
-199.382366626088
 20
-167.578662989364
 30
0.0
 11
-193.532366626087
 21
-167.578662989364
 31
0.0
  0
LINE
  5
13146
  8
1CENTER
 10
-196.457366626087
 20
-170.503662989364
 30
0.0
 11
-196.457366626087
 21
-164.653662989364
 31
0.0
  0
LINE
  5
1315F
  8
1PHANTOM
 10
-66.95733065932963
 20
-174.7105964647011
 30
0.0
 11
-66.95733065933008
 21
-289.7105964647011
 31
0.0
  0
LINE
  5
13160
  8
1PHANTOM
 10
-180.9573306593296
 20
-174.7105964647011
 30
0.0
 11
-180.9573306593292
 21
-289.7105964647011
 31
0.0
  0
LINE
  5
13161
  8
1PHANTOM
 10
-66.95733065932963
 20
-174.7105964647011
 30
0.0
 11
-180.9573306593296
 21
-174.7105964647011
 31
0.0
  0
LINE
  5
13162
  8
1PHANTOM
 10
-66.95733065933008
 20
-289.7105964647011
 30
0.0
 11
-180.9573306593292
 21
-289.7105964647011
 31
0.0
  0
LINE
  5
13167
  8
01
 10
135.0646532072784
 20
-168.0786628424685
 30
0.0
 11
136.0646532072784
 21
-167.0786631424685
 31
0.0
  0
LINE
  5
13168
  8
01
 10
135.0646532072784
 20
-171.3786629924684
 30
0.0
 11
136.0646532072784
 21
-171.3786629924684
 31
0.0
  0
LINE
  5
13169
  8
01
 10
136.0646532072784
 20
-171.3786629924684
 30
0.0
 11
136.0646532072784
 21
-163.7786629924685
 31
0.0
  0
LINE
  5
1316A
  8
01
 10
135.0646532072784
 20
-171.3786629924684
 30
0.0
 11
135.0646532072784
 21
-163.7786629924685
 31
0.0
  0
LINE
  5
1316B
  8
01
 10
135.0646532072784
 20
-163.7786629924685
 30
0.0
 11
136.0646532072784
 21
-163.7786629924685
 31
0.0
  0
TEXT
  5
132C2
  8
1TEXT
 10
143.9112278630814
 20
59.90444586129547
 30
0.0
 40
8.0
  1
表面処理：コネクター
 41
0.7
 72
     1
 11
176.6712278630814
 21
59.90444586129547
 31
0.0
  0
TEXT
  5
132C3
  8
1TEXT
 10
157.7378945297481
 20
46.23386854224668
 30
0.0
 40
8.0
  1
クローム
 72
     1
 11
176.6712278630814
 21
46.23386854224668
 31
0.0
  0
LINE
  5
132C4
  8
1DIM
 10
1.87122786308214
 20
70.90444586129547
 30
0.0
 11
281.8712278630821
 21
70.90444586129547
 31
0.0
  0
LINE
  5
132C5
  8
1DIM
 10
1.87122786308214
 20
42.90444586129547
 30
0.0
 11
281.8712278630821
 21
42.90444586129547
 31
0.0
  0
LINE
  5
132C6
  8
1DIM
 10
1.87122786308214
 20
56.90444586129547
 30
0.0
 11
281.8712278630821
 21
56.90444586129547
 31
0.0
  0
LINE
  5
132C7
  8
1DIM
 10
1.87122786308214
 20
28.90444586129547
 30
0.0
 11
211.8712278630821
 21
28.90444586129547
 31
0.0
  0
LINE
  5
132C8
  8
1DIM
 10
1.87122786308214
 20
28.90444586129547
 30
0.0
 11
281.8712278630821
 21
28.90444586129547
 31
0.0
  0
LINE
  5
132C9
  8
1DIM
 10
211.8712278630821
 20
70.90444586129547
 30
0.0
 11
211.8712278630821
 21
28.90444586129547
 31
0.0
  0
TEXT
  5
132CA
  8
1TEXT
 10
232.9378945297481
 20
59.90444586129547
 30
0.0
 40
8.0
  1
コード
 72
     1
 11
246.6712278630814
 21
59.90444586129547
 31
0.0
  0
LINE
  5
132CB
  8
1DIM
 10
141.8712278630821
 20
28.90444586129547
 30
0.0
 11
141.8712278630821
 21
70.90444586129547
 31
0.0
  0
LINE
  5
132CC
  8
1DIM
 10
281.8712278630821
 20
28.90444586129547
 30
0.0
 11
281.8712278630821
 21
70.90444586129547
 31
0.0
  0
TEXT
  5
132CD
  8
1TEXT
 10
143.6045611964147
 20
32.23386854224668
 30
0.0
 40
8.0
  1
サテンニッケル
 72
     1
 11
176.6712278630814
 21
32.23386854224668
 31
0.0
  0
TEXT
  5
132CE
  8
1TEXT
 10
3.737894529748083
 20
59.90444586129547
 30
0.0
 40
8.0
  1
表面処理：本体
 72
     1
 11
36.67122786308141
 21
59.90444586129547
 31
0.0
  0
TEXT
  5
132CF
  8
1TEXT
 10
17.73789452974808
 20
46.23386854224668
 30
0.0
 40
8.0
  1
クローム
 72
     1
 11
36.67122786308141
 21
46.23386854224668
 31
0.0
  0
LINE
  5
132D0
  8
1DIM
 10
1.87122786308214
 20
28.90444586129547
 30
0.0
 11
1.87122786308214
 21
70.90444586129547
 31
0.0
  0
TEXT
  5
132D1
  8
1TEXT
 10
216.0712278630832
 20
45.47573189399691
 30
0.0
 40
8.0
  1
SC-74W-XC
 41
0.85
 72
     1
 11
246.6712278630832
 21
45.47573189399691
 31
0.0
  0
TEXT
  5
132D2
  8
1TEXT
 10
216.0712278630832
 20
31.47573189399691
 30
0.0
 40
8.0
  1
SC-74W-CN
 41
0.85
 72
     1
 11
246.6712278630832
 21
31.47573189399691
 31
0.0
  0
TEXT
  5
132D3
  8
1TEXT
 10
17.73789452974808
 20
32.23386854224668
 30
0.0
 40
8.0
  1
クローム
 72
     1
 11
36.67122786308141
 21
32.23386854224668
 31
0.0
  0
LINE
  5
132D9
  8
1DIM
 10
71.87122786308214
 20
70.90444586129547
 30
0.0
 11
71.87122786308214
 21
28.90444586129547
 31
0.0
  0
TEXT
  5
132DA
  8
1TEXT
 10
80.63122786308142
 20
59.90444586129547
 30
0.0
 40
8.0
  1
表面処理：カバー
 41
0.7
 72
     1
 11
106.6712278630814
 21
59.90444586129547
 31
0.0
  0
TEXT
  5
132DB
  8
1TEXT
 10
87.73789452974808
 20
46.23386854224668
 30
0.0
 40
8.0
  1
クローム
 72
     1
 11
106.6712278630814
 21
46.23386854224668
 31
0.0
  0
TEXT
  5
132DC
  8
1TEXT
 10
87.73789452974808
 20
32.23386854224668
 30
0.0
 40
8.0
  1
クローム
 72
     1
 11
106.6712278630814
 21
32.23386854224668
 31
0.0
  0
LINE
  5
13C67
  8
1PHANTOM
 10
117.0646532072802
 20
-157.0786629893669
 30
0.0
 11
117.0646532072784
 21
-162.5786629893624
 31
0.0
  0
LINE
  5
13C68
  8
1PHANTOM
 10
136.0646532072802
 20
-162.5786629893651
 30
0.0
 11
117.0646532072784
 21
-162.5786629893624
 31
0.0
  0
LINE
  5
13C6A
  8
1PHANTOM
 10
136.0646532072802
 20
-152.5786629893651
 30
0.0
 11
123.064653207282
 21
-152.5786629893651
 31
0.0
  0
LINE
  5
13C6B
  8
1PHANTOM
 10
122.1642912315549
 20
-151.9790249650922
 30
0.0
 11
117.0646532072802
 21
-157.0786629893669
 31
0.0
  0
LINE
  5
13C6C
  8
1PHANTOM
 10
123.0144155744845
 20
-151.9790249650922
 30
0.0
 11
123.0646532072822
 21
-152.0292625978899
 31
0.0
1001
GRADIENTCOLOR1ACI
1070
     5
1001
GRADIENTCOLOR2ACI
1070
     2
1001
ACAD
1010
0.0
1020
0.0
1030
0.0
  0
LINE
  5
13C6D
  8
1PHANTOM
 10
123.064653207282
 20
-151.9790249650922
 30
0.0
 11
122.1642912315549
 21
-151.9790249650922
 31
0.0
  0
LINE
  5
13C6E
  8
1PHANTOM
 10
123.064653207282
 20
-152.5790249650921
 30
0.0
 11
123.064653207282
 21
-151.9790249650922
 31
0.0
  0
LINE
  5
13D3F
  8
1PHANTOM
 10
120.064653207282
 20
-169.0804264368339
 30
0.0
 11
120.0646532072792
 21
-158.4304264368362
 31
0.0
  0
LINE
  5
13D40
  8
1PHANTOM
 10
120.4146532072782
 20
-169.0804264368339
 30
0.0
 11
120.4146532072767
 21
-158.0804264368235
 31
0.0
  0
LINE
  5
13D41
  8
1PHANTOM
 10
123.7146532072833
 20
-169.0804264368339
 30
0.0
 11
123.7146532072787
 21
-158.0804264368235
 31
0.0
  0
LINE
  5
13D42
  8
1PHANTOM
 10
124.0646532072786
 20
-169.0804264368339
 30
0.0
 11
124.0646532072799
 21
-158.4304264368386
 31
0.0
  0
ARC
  5
13D44
  8
1PHANTOM
 10
123.5646532072802
 20
-170.6804264368361
 30
0.0
 40
2.0
 50
270.0
 51
0.0
  0
LINE
  5
13D45
  8
1PHANTOM
 10
125.5646532072802
 20
-170.0804264368358
 30
0.0
 11
125.5646532072802
 21
-170.6804264368352
 31
0.0
  0
LINE
  5
13D46
  8
1PHANTOM
 10
123.5646532072802
 20
-172.6804264368361
 30
0.0
 11
120.5646532072802
 21
-172.6804264368352
 31
0.0
  0
LINE
  5
13D47
  8
1PHANTOM
 10
125.5646532072802
 20
-170.0804264368358
 30
0.0
 11
124.0646532072802
 21
-170.0804264368358
 31
0.0
  0
ARC
  5
13D48
  8
1PHANTOM
 10
120.5646532072802
 20
-170.6804264368352
 30
0.0
 40
2.0
 50
180.0
 51
270.0
  0
LINE
  5
13D49
  8
1PHANTOM
 10
118.5646532072802
 20
-170.0804264368367
 30
0.0
 11
118.5646532072802
 21
-170.680426436837
 31
0.0
  0
LINE
  5
13D4A
  8
1PHANTOM
 10
120.0646532072784
 20
-170.0804264368358
 30
0.0
 11
118.5646532072802
 21
-170.0804264368367
 31
0.0
  0
LINE
  5
13D4B
  8
1PHANTOM
 10
124.0646532072802
 20
-170.0804264368358
 30
0.0
 11
120.0646532072802
 21
-170.0804264368358
 31
0.0
  0
LINE
  5
13D4C
  8
1PHANTOM
 10
122.3124080568592
 20
-169.0804264368339
 30
0.0
 11
121.6489527462401
 21
-170.0804264368358
 31
0.0
  0
LINE
  5
13D4D
  8
1PHANTOM
 10
124.0646532072799
 20
-158.4304264368386
 30
0.0
 11
123.714653207278
 21
-158.0804264368385
 31
0.0
  0
LINE
  5
13D4E
  8
1PHANTOM
 10
123.714653207278
 20
-158.0804264368385
 30
0.0
 11
120.4146532072788
 21
-158.0804264368367
 31
0.0
  0
LINE
  5
13D4F
  8
1PHANTOM
 10
120.4146532072788
 20
-158.0804264368367
 30
0.0
 11
120.0646532072792
 21
-158.4304264368362
 31
0.0
  0
LINE
  5
13D50
  8
1PHANTOM
 10
124.0646532072784
 20
-158.430426436837
 30
0.0
 11
120.0646532072784
 21
-158.430426436837
 31
0.0
  0
LINE
  5
13D5A
  8
1CENTER
 10
122.0646532072781
 20
-176.9755908289699
 30
0.0
 11
122.0646532072781
 21
-156.8751350669727
 31
0.0
  0
POLYLINE
  5
13D65
  8
01
 66
     1
 10
0.0
 20
0.0
 30
0.0
  0
VERTEX
  5
1507C
  8
01
 10
-170.2805936008999
 20
-134.4671259978452
 30
0.0
  0
VERTEX
  5
1507D
  8
01
 10
-174.3247357435298
 20
-130.9072948535309
 30
0.0
  0
VERTEX
  5
1507E
  8
01
 10
-179.1429136608308
 20
-128.0005117787078
 30
0.0
  0
VERTEX
  5
1507F
  8
01
 10
-184.566623115936
 20
-125.8484345519319
 30
0.0
  0
VERTEX
  5
15080
  8
01
 10
-190.4061828562211
 20
-124.5263269216577
 30
0.0
  0
VERTEX
  5
15081
  8
01
 10
-196.4573682609759
 20
-124.080426436834
 30
0.0
  0
VERTEX
  5
15082
  8
01
 10
-202.5085536085544
 20
-124.5263273993323
 30
0.0
  0
VERTEX
  5
15083
  8
01
 10
-208.3481131793101
 20
-125.8484354905756
 30
0.0
  0
VERTEX
  5
15084
  8
01
 10
-213.7718223584617
 20
-128.0005131454937
 30
0.0
  0
VERTEX
  5
15085
  8
01
 10
-218.5899999030359
 20
-130.907296600659
 30
0.0
  0
VERTEX
  5
15086
  8
01
 10
-222.6341415892009
 20
-134.4671280642139
 30
0.0
  0
SEQEND
  5
1515C
  8
01
  0
POLYLINE
  5
13D66
  8
01
 66
     1
 10
0.0
 20
0.0
 30
0.0
  0
VERTEX
  5
15087
  8
01
 10
-175.1676375974175
 20
-134.46712599784
 30
0.0
  0
VERTEX
  5
15088
  8
01
 10
-179.6867513786384
 20
-131.3359523858634
 30
0.0
  0
VERTEX
  5
15089
  8
01
 10
-184.8848827438422
 20
-129.0042035337591
 30
0.0
  0
VERTEX
  5
1508A
  8
01
 10
-190.5515669874264
 20
-127.566288528412
 30
0.0
  0
VERTEX
  5
1508B
  8
01
 10
-196.4573683858055
 20
-127.0804264368331
 30
0.0
  0
VERTEX
  5
1508C
  8
01
 10
-202.3631697129362
 20
-127.5662891016293
 30
0.0
  0
VERTEX
  5
1508D
  8
01
 10
-208.0298537456599
 20
-129.0042046569848
 30
0.0
  0
VERTEX
  5
1508E
  8
01
 10
-213.2279847689285
 20
-131.3359540136198
 30
0.0
  0
VERTEX
  5
1508F
  8
01
 10
-217.747098090984
 20
-134.4671280642217
 30
0.0
  0
SEQEND
  5
1515D
  8
01
  0
POLYLINE
  5
13D6D
  8
1PHANTOM
 66
     1
 10
0.0
 20
0.0
 30
0.0
  0
VERTEX
  5
15090
  8
1PHANTOM
 10
-224.0263164698038
 20
-136.0767647397606
 30
0.0
  0
VERTEX
  5
15091
  8
1PHANTOM
 10
-226.8216938323378
 20
-140.4891196554838
 30
0.0
  0
VERTEX
  5
15092
  8
1PHANTOM
 10
-228.4833097753153
 20
-145.2409312241418
 30
0.0
  0
VERTEX
  5
15093
  8
1PHANTOM
 10
-228.9491218883292
 20
-150.1547734618503
 30
0.0
  0
VERTEX
  5
15094
  8
1PHANTOM
 10
-228.2017373999568
 20
-155.0471703866436
 30
0.0
  0
VERTEX
  5
15095
  8
1PHANTOM
 10
-226.2690625994676
 20
-159.7354467544823
 30
0.0
  0
VERTEX
  5
15096
  8
1PHANTOM
 10
-223.2232608550952
 20
-164.0445488968308
 30
0.0
  0
VERTEX
  5
15097
  8
1PHANTOM
 10
-219.1780581350102
 20
-167.8135809792865
 30
0.0
  0
VERTEX
  5
15098
  8
1PHANTOM
 10
-214.2844966390668
 20
-170.9018126265266
 30
0.0
  0
VERTEX
  5
15099
  8
1PHANTOM
 10
-208.7252950947585
 20
-173.1939335972764
 30
0.0
  0
VERTEX
  5
1509A
  8
1PHANTOM
 10
-202.7080262960309
 20
-174.6043593071012
 30
0.0
  0
VERTEX
  5
1509B
  8
1PHANTOM
 10
-196.457366626087
 20
-175.0804264368339
 30
0.0
  0
VERTEX
  5
1509C
  8
1PHANTOM
 10
-190.2067069561432
 20
-174.6043593071012
 30
0.0
  0
VERTEX
  5
1509D
  8
1PHANTOM
 10
-184.1894381574155
 20
-173.1939335972764
 30
0.0
  0
VERTEX
  5
1509E
  8
1PHANTOM
 10
-178.6302366131073
 20
-170.9018126265266
 30
0.0
  0
VERTEX
  5
1509F
  8
1PHANTOM
 10
-173.7366751171638
 20
-167.8135809792865
 30
0.0
  0
VERTEX
  5
150A0
  8
1PHANTOM
 10
-169.6914723970789
 20
-164.0445488968308
 30
0.0
  0
VERTEX
  5
150A1
  8
1PHANTOM
 10
-166.6456706527065
 20
-159.7354467544823
 30
0.0
  0
VERTEX
  5
150A2
  8
1PHANTOM
 10
-164.7129958522173
 20
-155.0471703866436
 30
0.0
  0
VERTEX
  5
150A3
  8
1PHANTOM
 10
-163.9656113638449
 20
-150.1547734618503
 30
0.0
  0
VERTEX
  5
150A4
  8
1PHANTOM
 10
-164.4314234768587
 20
-145.2409312241418
 30
0.0
  0
VERTEX
  5
150A5
  8
1PHANTOM
 10
-166.0930394198362
 20
-140.4891196554839
 30
0.0
  0
VERTEX
  5
150A6
  8
1PHANTOM
 10
-168.8884167823703
 20
-136.0767647397606
 30
0.0
  0
SEQEND
  5
1515E
  8
1PHANTOM
  0
LINE
  5
13D71
  8
1PHANTOM
 10
-206.9573666260872
 20
-159.3626719443614
 30
0.0
 11
-206.9573666260872
 21
-153.5786629893596
 31
0.0
  0
LINE
  5
13D72
  8
1PHANTOM
 10
-205.4573666260872
 20
-162.579432325128
 30
0.0
 11
-206.9573666260872
 21
-159.3626719443614
 31
0.0
  0
LINE
  5
13D75
  8
1PHANTOM
 10
-185.957366626089
 20
-154.0786629893598
 30
0.0
 11
-185.957366626089
 21
-153.5786629893614
 31
0.0
  0
LINE
  5
13D76
  8
1PHANTOM
 10
-187.4573666261916
 20
-162.5794323253481
 30
0.0
 11
-185.957366626089
 21
-159.3626719443641
 31
0.0
  0
LINE
  5
13D78
  8
1PHANTOM
 10
-187.4573666261916
 20
-162.5794323253481
 30
0.0
 11
-205.4573666260872
 21
-162.5794323253444
 31
0.0
  0
LINE
  5
13D7A
  8
1PHANTOM
 10
-186.957366626089
 20
-152.5786629893614
 30
0.0
 11
-205.9573666260872
 21
-152.5786629893597
 31
0.0
  0
LINE
  5
13D80
  8
1PHANTOM
 10
-205.9573666260872
 20
-152.5786629893597
 30
0.0
 11
-206.9573666260872
 21
-153.5786629893596
 31
0.0
  0
LINE
  5
13D81
  8
1PHANTOM
 10
-186.957366626089
 20
-152.5786629893614
 30
0.0
 11
-185.957366626089
 21
-153.5786629893614
 31
0.0
  0
LINE
  5
13D84
  8
1PHANTOM
 10
-185.957366626089
 20
-159.3626719443641
 30
0.0
 11
-185.957366626089
 21
-153.5786629893601
 31
0.0
  0
ARC
  5
145B0
  8
1TEXT2
 10
-196.4570379225686
 20
-161.555350871227
 30
0.0
 40
33.97457037593446
 50
52.87387734823578
 51
127.1261284254195
  0
ARC
  5
145C3
  8
1TEXT2
 10
86.26906713646602
 20
-148.7100092889438
 30
0.0
 40
1.925452612488628
 50
296.5083254992633
 51
356.7761941032961
  0
TEXT
  5
1473B
  8
01
  6
CONTINUOUS
 10
165.4299547744472
 20
-64.13404199562626
 30
0.0
 40
7.0
  1
PB
  0
TEXT
  5
1473C
  8
01
  6
CONTINUOUS
 10
170.8467561772143
 20
-80.91466268711383
 30
0.0
 40
7.0
  1
合板9mm以上
  0
POLYLINE
  5
1473D
  8
01
 66
     1
 10
0.0
 20
0.0
 30
0.0
  0
VERTEX
  5
150A7
  8
01
 10
-201.4551984174624
 20
-1.381416686598413
 30
0.0
  0
VERTEX
  5
150A8
  8
01
 10
-201.2765638270032
 20
-1.381416475621888
 30
0.0
  0
VERTEX
  5
150A9
  8
01
 10
-201.097929236544
 20
-1.38141627357543
 30
0.0
  0
VERTEX
  5
150AA
  8
01
 10
-200.9192946460848
 20
-1.381416080459041
 30
0.0
  0
VERTEX
  5
150AB
  8
01
 10
-200.7406600556256
 20
-1.38141589627272
 30
0.0
  0
VERTEX
  5
150AC
  8
01
 10
-200.5620254651664
 20
-1.381415721016469
 30
0.0
  0
VERTEX
  5
150AD
  8
01
 10
-200.3833908747071
 20
-1.381415554690286
 30
0.0
  0
VERTEX
  5
150AE
  8
01
 10
-200.2047562842478
 20
-1.381415397294171
 30
0.0
  0
VERTEX
  5
150AF
  8
01
 10
-200.0261216937885
 20
-1.381415248828127
 30
0.0
  0
VERTEX
  5
150B0
  8
01
 10
-199.8474871033292
 20
-1.381415109292152
 30
0.0
  0
VERTEX
  5
150B1
  8
01
 10
-199.6688525128698
 20
-1.381414978686247
 30
0.0
  0
VERTEX
  5
150B2
  8
01
 10
-199.4902179224105
 20
-1.381414857010411
 30
0.0
  0
VERTEX
  5
150B3
  8
01
 10
-199.3115833319511
 20
-1.381414744264646
 30
0.0
  0
VERTEX
  5
150B4
  8
01
 10
-199.1329487414918
 20
-1.381414640448951
 30
0.0
  0
VERTEX
  5
150B5
  8
01
 10
-198.9543141510324
 20
-1.381414545563326
 30
0.0
  0
VERTEX
  5
150B6
  8
01
 10
-198.7756795605731
 20
-1.381414459607773
 30
0.0
  0
VERTEX
  5
150B7
  8
01
 10
-198.5970449701136
 20
-1.38141438258229
 30
0.0
  0
VERTEX
  5
150B8
  8
01
 10
-198.4184103796543
 20
-1.381414314486878
 30
0.0
  0
VERTEX
  5
150B9
  8
01
 10
-198.2397757891949
 20
-1.381414255321538
 30
0.0
  0
VERTEX
  5
150BA
  8
01
 10
-198.0611411987354
 20
-1.381414205086269
 30
0.0
  0
VERTEX
  5
150BB
  8
01
 10
-197.882506608276
 20
-1.381414163781072
 30
0.0
  0
VERTEX
  5
150BC
  8
01
 10
-197.7038720178166
 20
-1.381414131405946
 30
0.0
  0
VERTEX
  5
150BD
  8
01
 10
-197.5252374273572
 20
-1.381414107960893
 30
0.0
  0
VERTEX
  5
150BE
  8
01
 10
-197.3466028368977
 20
-1.381414093445912
 30
0.0
  0
VERTEX
  5
150BF
  8
01
 10
-197.1679682464384
 20
-1.381414087861003
 30
0.0
  0
SEQEND
  5
1515F
  8
01
  0
POLYLINE
  5
1473E
  8
01
 10
0.0
 20
0.0
 30
0.0
 66
     1
 70
     8
  0
VERTEX
  5
150C0
  8
01
 10
-197.1679682464384
 20
-1.381414087861003
 30
0.0
 70
    32
  0
VERTEX
  5
150C1
  8
01
 10
-197.1677457781211
 20
-1.381414087861003
 30
0.0
 70
    32
  0
VERTEX
  5
150C2
  8
01
 10
-197.167523309804
 20
-1.381414087861003
 30
0.0
 70
    32
  0
VERTEX
  5
150C3
  8
01
 10
-197.1673008414868
 20
-1.381414087861003
 30
0.0
 70
    32
  0
VERTEX
  5
150C4
  8
01
 10
-197.1670783731697
 20
-1.381414087861003
 30
0.0
 70
    32
  0
VERTEX
  5
150C5
  8
01
 10
-197.1668559048524
 20
-1.381414087861003
 30
0.0
 70
    32
  0
VERTEX
  5
150C6
  8
01
 10
-197.1666334365353
 20
-1.381414087861003
 30
0.0
 70
    32
  0
VERTEX
  5
150C7
  8
01
 10
-197.1664109682181
 20
-1.381414087861003
 30
0.0
 70
    32
  0
VERTEX
  5
150C8
  8
01
 10
-197.166188499901
 20
-1.381414087861003
 30
0.0
 70
    32
  0
VERTEX
  5
150C9
  8
01
 10
-197.1659660315837
 20
-1.381414087861003
 30
0.0
 70
    32
  0
VERTEX
  5
150CA
  8
01
 10
-197.1657435632666
 20
-1.381414087861003
 30
0.0
 70
    32
  0
VERTEX
  5
150CB
  8
01
 10
-197.1655210949494
 20
-1.381414087861003
 30
0.0
 70
    32
  0
VERTEX
  5
150CC
  8
01
 10
-197.1652986266323
 20
-1.381414087861003
 30
0.0
 70
    32
  0
VERTEX
  5
150CD
  8
01
 10
-197.165076158315
 20
-1.381414087861003
 30
0.0
 70
    32
  0
VERTEX
  5
150CE
  8
01
 10
-197.1648536899979
 20
-1.381414087861003
 30
0.0
 70
    32
  0
VERTEX
  5
150CF
  8
01
 10
-197.1646312216807
 20
-1.381414087861003
 30
0.0
 70
    32
  0
VERTEX
  5
150D0
  8
01
 10
-197.1644087533635
 20
-1.381414087861003
 30
0.0
 70
    32
  0
VERTEX
  5
150D1
  8
01
 10
-197.1641862850463
 20
-1.381414087861003
 30
0.0
 70
    32
  0
VERTEX
  5
150D2
  8
01
 10
-197.1639638167292
 20
-1.381414087861003
 30
0.0
 70
    32
  0
VERTEX
  5
150D3
  8
01
 10
-197.163741348412
 20
-1.381414087861003
 30
0.0
 70
    32
  0
VERTEX
  5
150D4
  8
01
 10
-197.1635188800948
 20
-1.381414087861003
 30
0.0
 70
    32
  0
VERTEX
  5
150D5
  8
01
 10
-197.1632964117776
 20
-1.381414087861003
 30
0.0
 70
    32
  0
VERTEX
  5
150D6
  8
01
 10
-197.1630739434605
 20
-1.381414087861003
 30
0.0
 70
    32
  0
VERTEX
  5
150D7
  8
01
 10
-197.1628514751433
 20
-1.381414087861003
 30
0.0
 70
    32
  0
VERTEX
  5
150D8
  8
01
 10
-197.1626290068261
 20
-1.381414087861003
 30
0.0
 70
    32
  0
VERTEX
  5
150D9
  8
01
 10
-197.1624065385089
 20
-1.381414087861003
 30
0.0
 70
    32
  0
VERTEX
  5
150DA
  8
01
 10
-197.1621840701918
 20
-1.381414087861003
 30
0.0
 70
    32
  0
VERTEX
  5
150DB
  8
01
 10
-197.1619616018746
 20
-1.381414087861003
 30
0.0
 70
    32
  0
VERTEX
  5
150DC
  8
01
 10
-197.1617391335574
 20
-1.381414087861003
 30
0.0
 70
    32
  0
VERTEX
  5
150DD
  8
01
 10
-197.1615166652402
 20
-1.381414087861003
 30
0.0
 70
    32
  0
VERTEX
  5
150DE
  8
01
 10
-197.1612941969231
 20
-1.381414087861003
 30
0.0
 70
    32
  0
VERTEX
  5
150DF
  8
01
 10
-197.1610717286059
 20
-1.381414087861003
 30
0.0
 70
    32
  0
VERTEX
  5
150E0
  8
01
 10
-197.1608492602887
 20
-1.381414087861003
 30
0.0
 70
    32
  0
VERTEX
  5
150E1
  8
01
 10
-197.1606267919715
 20
-1.381414087861003
 30
0.0
 70
    32
  0
VERTEX
  5
150E2
  8
01
 10
-197.1604043236544
 20
-1.381414087861003
 30
0.0
 70
    32
  0
VERTEX
  5
150E3
  8
01
 10
-197.1601818553372
 20
-1.381414087861003
 30
0.0
 70
    32
  0
VERTEX
  5
150E4
  8
01
 10
-197.15995938702
 20
-1.381414087861003
 30
0.0
 70
    32
  0
VERTEX
  5
150E5
  8
01
 10
-197.1597369187028
 20
-1.381414087861003
 30
0.0
 70
    32
  0
VERTEX
  5
150E6
  8
01
 10
-197.1595144503857
 20
-1.381414087861003
 30
0.0
 70
    32
  0
VERTEX
  5
150E7
  8
01
 10
-197.1592919820685
 20
-1.381414087861003
 30
0.0
 70
    32
  0
VERTEX
  5
150E8
  8
01
 10
-197.1590695137513
 20
-1.381414087861003
 30
0.0
 70
    32
  0
VERTEX
  5
150E9
  8
01
 10
-197.1588470454342
 20
-1.381414087861003
 30
0.0
 70
    32
  0
VERTEX
  5
150EA
  8
01
 10
-197.158624577117
 20
-1.381414087861003
 30
0.0
 70
    32
  0
VERTEX
  5
150EB
  8
01
 10
-197.1584021087997
 20
-1.381414087861003
 30
0.0
 70
    32
  0
VERTEX
  5
150EC
  8
01
 10
-197.1581796404826
 20
-1.381414087861003
 30
0.0
 70
    32
  0
VERTEX
  5
150ED
  8
01
 10
-197.1579571721655
 20
-1.381414087861003
 30
0.0
 70
    32
  0
VERTEX
  5
150EE
  8
01
 10
-197.1577347038483
 20
-1.381414087861003
 30
0.0
 70
    32
  0
VERTEX
  5
150EF
  8
01
 10
-197.157512235531
 20
-1.381414087861003
 30
0.0
 70
    32
  0
VERTEX
  5
150F0
  8
01
 10
-197.1572897672139
 20
-1.381414087861003
 30
0.0
 70
    32
  0
SEQEND
  5
15160
  8
01
  0
LINE
  5
1473F
  8
1DIM
 10
-196.4573311677178
 20
46.16957356316448
 30
0.0
 11
-25.47624141758887
 21
46.16957356316443
 31
0.0
1001
ACAD
1000
DSTYLE
1002
{
1070
    40
1040
2.0
1070
    45
1040
0.5
1070
   271
1070
     0
1002
}
  0
LINE
  5
14740
  8
1DIM
 10
-192.4137013649656
 20
-54.93130027922821
 30
0.0
 11
-25.47624141758889
 21
-54.93130027922825
 31
0.0
1001
ACAD
1000
DSTYLE
1002
{
1070
    40
1040
2.0
1070
    45
1040
0.5
1070
   271
1070
     0
1002
}
  0
LINE
  5
14741
  8
1DIM
 10
-27.47624141758886
 20
42.16957356316443
 30
0.0
 11
-27.47624141758888
 21
-50.93130027922825
 31
0.0
1001
ACAD
1000
DSTYLE
1002
{
1070
    40
1040
2.0
1070
    45
1040
0.5
1070
   271
1070
     0
1002
}
  0
LINE
  5
14742
  8
1DIM
 10
-27.47624141758888
 20
-54.93130027922825
 30
0.0
 11
-27.47624141758891
 21
-178.1979669458949
 31
0.0
1001
ACAD
1000
DSTYLE
1002
{
1070
    40
1040
2.0
1070
    45
1040
0.5
1070
   271
1070
     0
1002
}
  0
SOLID
  5
14746
  8
1DIM
 10
101.6142816753431
 20
-176.3832192102697
 30
0.0
 11
100.6873039347161
 21
-174.5799379289679
 31
0.0
 12
102.1490227535692
 22
-175.985103117023
 32
0.0
 13
102.1490227535692
 23
-175.985103117023
 33
0.0
1001
ACAD
1000
DSTYLE
1002
{
1070
    45
1040
0.5
1002
}
  0
LINE
  5
14747
  8
1DIM
 10
101.8816522144561
 20
-176.1841611636463
 30
0.0
 11
174.37950171108
 21
-273.561732345826
 31
0.0
1001
ACAD
1000
DSTYLE
1002
{
1070
    45
1040
0.5
1002
}
  0
LINE
  5
14748
  8
1DIM
 10
174.37950171108
 20
-273.561732345826
 30
0.0
 11
266.2128350444133
 21
-273.561732345826
 31
0.0
1001
ACAD
1000
DSTYLE
1002
{
1070
    45
1040
0.5
1002
}
  0
TEXT
  5
14749
  8
1DIM
  6
CONTINUOUS
 10
176.6128350444133
 20
-261.1950656791593
 30
0.0
 40
7.0
  1
材質：亜鉛ダイキャスト
  0
TEXT
  5
1474A
  8
1DIM
  6
CONTINUOUS
 10
176.8461683777466
 20
-272.861732345826
 30
0.0
 40
7.0
  1
仕上げ：各種メッキ
  0
LINE
  5
1474B
  8
1DIM
 10
140.0646532072784
 20
-181.0586000221174
 30
0.0
 11
140.0646532072784
 21
-201.4120630903512
 31
0.0
1001
ACAD
1000
DSTYLE
1002
{
1070
    40
1040
2.0
1070
    45
1040
0.5
1070
    77
1070
     3
1002
}
  0
LINE
  5
1474C
  8
1DIM
 10
122.0646532072781
 20
-176.9755908289699
 30
0.0
 11
122.0646532072781
 21
-201.4120630903512
 31
0.0
1001
ACAD
1000
DSTYLE
1002
{
1070
    40
1040
2.0
1070
    45
1040
0.5
1070
    77
1070
     3
1002
}
  0
LINE
  5
1474D
  8
1DIM
 10
136.0646532072784
 20
-199.4120630903512
 30
0.0
 11
126.0646532072781
 21
-199.4120630903512
 31
0.0
1001
ACAD
1000
DSTYLE
1002
{
1070
    40
1040
2.0
1070
    45
1040
0.5
1070
    77
1070
     3
1002
}
  0
LINE
  5
14751
  8
1DIM
 10
140.0646532072784
 20
-175.0804264368339
 30
0.0
 11
242.202176173316
 21
-175.080426436834
 31
0.0
1001
ACAD
1000
DSTYLE
1002
{
1070
    40
1040
2.0
1070
    45
1040
0.5
1070
   279
1070
     1
1002
}
  0
LINE
  5
14752
  8
1DIM
 10
140.0646532072784
 20
-124.0804264368339
 30
0.0
 11
242.202176173316
 21
-124.080426436834
 31
0.0
1001
ACAD
1000
DSTYLE
1002
{
1070
    40
1040
2.0
1070
    45
1040
0.5
1070
   279
1070
     1
1002
}
  0
LINE
  5
14753
  8
1DIM
 10
240.202176173316
 20
-171.080426436834
 30
0.0
 11
240.202176173316
 21
-128.080426436834
 31
0.0
1001
ACAD
1000
DSTYLE
1002
{
1070
    40
1040
2.0
1070
    45
1040
0.5
1070
   279
1070
     1
1002
}
  0
LINE
  5
14757
  8
1DIM
 10
-163.9573311677178
 20
46.16957356316448
 30
0.0
 11
-163.9573311677178
 21
90.860597628086
 31
0.0
1001
ACAD
1000
DSTYLE
1002
{
1070
    40
1040
2.0
1070
    45
1040
0.5
1002
}
  0
LINE
  5
14758
  8
1DIM
 10
-228.9573311677178
 20
46.16957356316448
 30
0.0
 11
-228.9573311677178
 21
90.860597628086
 31
0.0
1001
ACAD
1000
DSTYLE
1002
{
1070
    40
1040
2.0
1070
    45
1040
0.5
1002
}
  0
LINE
  5
14759
  8
1DIM
 10
-167.9573311677178
 20
88.860597628086
 30
0.0
 11
-224.9573311677178
 21
88.860597628086
 31
0.0
1001
ACAD
1000
DSTYLE
1002
{
1070
    40
1040
2.0
1070
    45
1040
0.5
1002
}
  0
SOLID
  5
1475D
  8
1DIM
 10
144.0818514912428
 20
-113.1309030079627
 30
0.0
 11
142.9783247849858
 21
-114.8318850536318
 31
0.0
 12
143.4705315463632
 22
-112.8649474300236
 32
0.0
 13
143.4705315463632
 23
-112.8649474300236
 33
0.0
1001
ACAD
1000
DSTYLE
1002
{
1070
    45
1040
0.5
1002
}
  0
LINE
  5
1475E
  8
1DIM
 10
143.776191518803
 20
-112.9979252189931
 30
0.0
 11
164.7299547744472
 21
-64.83404199562627
 31
0.0
1001
ACAD
1000
DSTYLE
1002
{
1070
    45
1040
0.5
1002
}
  0
SOLID
  5
1475F
  8
1DIM
 10
157.1991186600462
 20
-113.1192640692731
 30
0.0
 11
156.113742930151
 21
-114.8318850536318
 31
0.0
 12
156.5850050580977
 22
-112.8598244262995
 32
0.0
 13
156.5850050580977
 23
-112.8598244262995
 33
0.0
1001
ACAD
1000
DSTYLE
1002
{
1070
    45
1040
0.5
1002
}
  0
LINE
  5
14760
  8
1DIM
 10
156.8920618590719
 20
-112.9895442477863
 30
0.0
 11
170.1467561772143
 21
-81.61466268711384
 31
0.0
1001
ACAD
1000
DSTYLE
1002
{
1070
    45
1040
0.5
1002
}
  0
LINE
  5
14761
  8
0
 10
170.064653207116
 20
-139.578709525263
 30
0.0
 11
164.7646566972543
 21
-138.078709525263
 31
0.0
  0
LINE
  5
14762
  8
0
 10
164.7646566972543
 20
-138.078709525263
 30
0.0
 11
135.0646566973624
 21
-138.0787095252632
 31
0.0
  0
LINE
  5
14763
  8
0
 10
170.064653207116
 20
-139.578709525263
 30
0.0
 11
164.7646497168707
 21
-141.0787095252631
 31
0.0
  0
LINE
  5
14764
  8
0
 10
135.0646613510605
 20
-136.0786629893652
 30
0.0
 11
135.0646450634962
 21
-143.0786629893651
 31
0.0
  0
LINE
  5
14765
  8
0
 10
164.7646497168707
 20
-141.0787095252631
 30
0.0
 11
135.0646497169777
 21
-141.0787095252632
 31
0.0
  0
LINE
  5
14766
  8
0
 10
135.0646613510605
 20
-136.0786629893652
 30
0.0
 11
133.9646578608652
 21
-136.0786629893651
 31
0.0
  0
ARC
  5
14767
  8
0
 10
133.9646578608652
 20
-137.5786629893651
 30
0.0
 40
1.5
 50
90.0
 51
179.9998666844684
  0
LINE
  5
14768
  8
0
 10
135.0646450634962
 20
-143.0786629893651
 30
0.0
 11
133.9646485536856
 21
-143.0786629893651
 31
0.0
  0
LINE
  5
14769
  8
0
 10
132.4646578608693
 20
-137.5786594991727
 30
0.0
 11
132.4646485536897
 21
-141.5786594991727
 31
0.0
  0
ARC
  5
1476A
  8
0
 10
133.9646485536856
 20
-141.5786629893651
 30
0.0
 40
1.5
 50
179.9998666844684
 51
270.0
  0
LINE
  5
1476B
  8
1CENTER
 10
171.4954481245814
 20
-139.5786629893651
 30
0.0
 11
131.3943767979695
 21
-139.5786629893651
 31
0.0
  0
LINE
  5
1476C
  8
0
 10
167.9646557534382
 20
-138.48433917537
 30
0.0
 11
168.7646511874891
 21
-140.4466742642454
 31
0.0
  0
LINE
  5
1476D
  8
0
 10
168.7646511874891
 20
-140.4466742642454
 30
0.0
 11
169.0764210437412
 21
-139.858397689203
 31
0.0
  0
LINE
  5
1476E
  8
0
 10
145.5646578606482
 20
-137.578709525263
 30
0.0
 11
146.3646485534664
 21
-141.578709525263
 31
0.0
  0
LINE
  5
1476F
  8
0
 10
156.7646578606525
 20
-137.578709525263
 30
0.0
 11
157.5646485534751
 21
-141.578709525263
 31
0.0
  0
LINE
  5
14770
  8
0
 10
159.9646578606526
 20
-137.578709525263
 30
0.0
 11
160.7646485534752
 21
-141.578709525263
 31
0.0
  0
LINE
  5
14771
  8
0
 10
160.7646485534752
 20
-141.578709525263
 30
0.0
 11
160.8646497168724
 21
-141.078709525263
 31
0.0
  0
LINE
  5
14772
  8
0
 10
161.4646566972554
 20
-138.078709525263
 30
0.0
 11
161.5646578606526
 21
-137.578709525263
 31
0.0
  0
LINE
  5
14773
  8
0
 10
157.5646485534751
 20
-141.578709525263
 30
0.0
 11
157.6646497168723
 21
-141.078709525263
 31
0.0
  0
LINE
  5
14774
  8
0
 10
159.1646485534752
 20
-141.578709525263
 30
0.0
 11
159.2646497168724
 21
-141.078709525263
 31
0.0
  0
LINE
  5
14775
  8
0
 10
159.8646566972555
 20
-138.078709525263
 30
0.0
 11
159.9646578606526
 21
-137.578709525263
 31
0.0
  0
LINE
  5
14776
  8
0
 10
158.2646566972556
 20
-138.078709525263
 30
0.0
 11
158.3646578606527
 21
-137.578709525263
 31
0.0
  0
LINE
  5
14777
  8
0
 10
158.3646578606527
 20
-137.578709525263
 30
0.0
 11
159.1646485534752
 21
-141.578709525263
 31
0.0
  0
LINE
  5
14778
  8
0
 10
167.1646501338835
 20
-140.8994883686522
 30
0.0
 11
167.3474142765115
 21
-140.3477389048489
 31
0.0
  0
LINE
  5
14779
  8
0
 10
163.9646485534752
 20
-141.578709525263
 30
0.0
 11
164.0646497168723
 21
-141.078709525263
 31
0.0
  0
LINE
  5
1477A
  8
0
 10
162.3646485534752
 20
-141.578709525263
 30
0.0
 11
162.4646497168722
 21
-141.078709525263
 31
0.0
  0
LINE
  5
1477B
  8
0
 10
165.5646490802779
 20
-141.352302473059
 30
0.0
 11
165.6939197779077
 21
-140.8157087377879
 31
0.0
  0
LINE
  5
1477C
  8
0
 10
166.2518872946924
 20
-138.4996241224717
 30
0.0
 11
166.3646568070424
 21
-138.0315256673217
 31
0.0
  0
LINE
  5
1477D
  8
0
 10
163.0646566972555
 20
-138.078709525263
 30
0.0
 11
163.1646578606526
 21
-137.578709525263
 31
0.0
  0
LINE
  5
1477E
  8
0
 10
164.6646566972554
 20
-138.078709525263
 30
0.0
 11
164.7646578606525
 21
-137.578709525263
 31
0.0
  0
LINE
  5
1477F
  8
0
 10
167.8132199569978
 20
-138.9415110160011
 30
0.0
 11
167.9646557534382
 21
-138.48433917537
 31
0.0
  0
LINE
  5
14780
  8
0
 10
166.3646568070424
 20
-138.0315256673217
 30
0.0
 11
167.1646501338835
 21
-140.8994883686522
 31
0.0
  0
LINE
  5
14781
  8
0
 10
163.1646578606526
 20
-137.578709525263
 30
0.0
 11
163.9646485534752
 21
-141.578709525263
 31
0.0
  0
LINE
  5
14782
  8
0
 10
164.7646578606525
 20
-137.578709525263
 30
0.0
 11
165.5646490802779
 21
-141.352302473059
 31
0.0
  0
LINE
  5
14783
  8
0
 10
161.5646578606526
 20
-137.578709525263
 30
0.0
 11
162.3646485534752
 21
-141.578709525263
 31
0.0
  0
LINE
  5
14784
  8
0
 10
148.7646578606482
 20
-137.578709525263
 30
0.0
 11
149.5646485534665
 21
-141.578709525263
 31
0.0
  0
LINE
  5
14785
  8
0
 10
149.5646485534665
 20
-141.578709525263
 30
0.0
 11
149.6646497168641
 21
-141.078709525263
 31
0.0
  0
LINE
  5
14786
  8
0
 10
150.2646566972549
 20
-138.078709525263
 30
0.0
 11
150.3646578606526
 21
-137.578709525263
 31
0.0
  0
LINE
  5
14787
  8
0
 10
147.9646485534663
 20
-141.578709525263
 30
0.0
 11
148.064649716864
 21
-141.078709525263
 31
0.0
  0
LINE
  5
14788
  8
0
 10
146.3646485534664
 20
-141.578709525263
 30
0.0
 11
146.4646497168641
 21
-141.078709525263
 31
0.0
  0
LINE
  5
14789
  8
0
 10
148.6646566972505
 20
-138.078709525263
 30
0.0
 11
148.7646578606482
 21
-137.578709525263
 31
0.0
  0
LINE
  5
1478A
  8
0
 10
147.0646566972504
 20
-138.078709525263
 30
0.0
 11
147.1646578606481
 21
-137.578709525263
 31
0.0
  0
LINE
  5
1478B
  8
0
 10
147.1646578606481
 20
-137.578709525263
 30
0.0
 11
147.9646485534663
 21
-141.578709525263
 31
0.0
  0
LINE
  5
1478C
  8
0
 10
154.3646485534709
 20
-141.578709525263
 30
0.0
 11
154.4646497168685
 21
-141.078709525263
 31
0.0
  0
LINE
  5
1478D
  8
0
 10
155.9646485534752
 20
-141.578709525263
 30
0.0
 11
156.0646497168723
 21
-141.078709525263
 31
0.0
  0
LINE
  5
1478E
  8
0
 10
151.1646485534708
 20
-141.578709525263
 30
0.0
 11
151.2646497168685
 21
-141.078709525263
 31
0.0
  0
LINE
  5
1478F
  8
0
 10
152.7646485534707
 20
-141.578709525263
 30
0.0
 11
152.8646497168684
 21
-141.078709525263
 31
0.0
  0
LINE
  5
14790
  8
0
 10
156.6646566972554
 20
-138.078709525263
 30
0.0
 11
156.7646578606525
 21
-137.578709525263
 31
0.0
  0
LINE
  5
14791
  8
0
 10
155.0646566972548
 20
-138.078709525263
 30
0.0
 11
155.1646578606526
 21
-137.578709525263
 31
0.0
  0
LINE
  5
14792
  8
0
 10
151.8646566972548
 20
-138.078709525263
 30
0.0
 11
151.9646578606525
 21
-137.578709525263
 31
0.0
  0
LINE
  5
14793
  8
0
 10
153.4646566972549
 20
-138.078709525263
 30
0.0
 11
153.5646578606526
 21
-137.578709525263
 31
0.0
  0
LINE
  5
14794
  8
0
 10
153.5646578606526
 20
-137.578709525263
 30
0.0
 11
154.3646485534709
 21
-141.578709525263
 31
0.0
  0
LINE
  5
14795
  8
0
 10
155.1646578606526
 20
-137.578709525263
 30
0.0
 11
155.9646485534752
 21
-141.578709525263
 31
0.0
  0
LINE
  5
14796
  8
0
 10
151.9646578606525
 20
-137.578709525263
 30
0.0
 11
152.7646485534707
 21
-141.578709525263
 31
0.0
  0
LINE
  5
14797
  8
0
 10
150.3646578606526
 20
-137.578709525263
 30
0.0
 11
151.1646485534708
 21
-141.578709525263
 31
0.0
  0
LINE
  5
14798
  8
0
 10
140.6646566972463
 20
-138.078709525263
 30
0.0
 11
140.764657860644
 21
-137.578709525263
 31
0.0
  0
LINE
  5
14799
  8
0
 10
140.764657860644
 20
-137.578709525263
 30
0.0
 11
141.5646485534623
 21
-141.578709525263
 31
0.0
  0
LINE
  5
1479A
  8
0
 10
141.5646485534623
 20
-141.578709525263
 30
0.0
 11
141.6646497168599
 21
-141.078709525263
 31
0.0
  0
LINE
  5
1479B
  8
0
 10
142.2646566972462
 20
-138.078709525263
 30
0.0
 11
142.3646578606439
 21
-137.578709525263
 31
0.0
  0
LINE
  5
1479C
  8
0
 10
143.8646566972461
 20
-138.078709525263
 30
0.0
 11
143.9646578606438
 21
-137.578709525263
 31
0.0
  0
LINE
  5
1479D
  8
0
 10
143.9646578606438
 20
-137.578709525263
 30
0.0
 11
144.7646485534621
 21
-141.578709525263
 31
0.0
  0
LINE
  5
1479E
  8
0
 10
143.1646485534622
 20
-141.578709525263
 30
0.0
 11
143.2646497168599
 21
-141.078709525263
 31
0.0
  0
LINE
  5
1479F
  8
0
 10
144.7646485534621
 20
-141.578709525263
 30
0.0
 11
144.8646497168598
 21
-141.078709525263
 31
0.0
  0
LINE
  5
147A0
  8
0
 10
142.3646578606439
 20
-137.578709525263
 30
0.0
 11
143.1646485534622
 21
-141.578709525263
 31
0.0
  0
LINE
  5
147A1
  8
0
 10
145.4646566972505
 20
-138.078709525263
 30
0.0
 11
145.5646578606482
 21
-137.578709525263
 31
0.0
  0
LINE
  5
147A2
  8
0
 10
139.0646566972464
 20
-138.078709525263
 30
0.0
 11
139.1646578606441
 21
-137.578709525263
 31
0.0
  0
LINE
  5
147A3
  8
0
 10
139.1646578606441
 20
-137.578709525263
 30
0.0
 11
139.9646485534624
 21
-141.578709525263
 31
0.0
  0
LINE
  5
147A4
  8
0
 10
139.9646485534624
 20
-141.578709525263
 30
0.0
 11
140.06464971686
 21
-141.078709525263
 31
0.0
  0
LINE
  5
147A5
  8
0
 10
137.4646566972465
 20
-138.078709525263
 30
0.0
 11
137.5646578606442
 21
-137.578709525263
 31
0.0
  0
LINE
  5
147A6
  8
0
 10
137.5646578606442
 20
-137.578709525263
 30
0.0
 11
138.3646485534624
 21
-141.578709525263
 31
0.0
  0
LINE
  5
147A7
  8
0
 10
138.3646485534624
 20
-141.578709525263
 30
0.0
 11
138.4646497168601
 21
-141.078709525263
 31
0.0
  0
LINE
  5
147A8
  8
0
 10
135.8646566972466
 20
-138.078709525263
 30
0.0
 11
135.9646578606443
 21
-137.578709525263
 31
0.0
  0
LINE
  5
147A9
  8
0
 10
135.9646578606443
 20
-137.578709525263
 30
0.0
 11
136.7646485534625
 21
-141.578709525263
 31
0.0
  0
LINE
  5
147AA
  8
0
 10
136.7646485534625
 20
-141.578709525263
 30
0.0
 11
136.8646497168602
 21
-141.078709525263
 31
0.0
  0
LINE
  5
147AB
  8
0
 10
170.064653207116
 20
-149.5787095252629
 30
0.0
 11
164.7646566972544
 21
-148.0787095252629
 31
0.0
  0
LINE
  5
147AC
  8
0
 10
164.7646566972544
 20
-148.0787095252629
 30
0.0
 11
135.0646566973625
 21
-148.0787095252632
 31
0.0
  0
LINE
  5
147AD
  8
0
 10
170.064653207116
 20
-149.5787095252629
 30
0.0
 11
164.7646497168707
 21
-151.078709525263
 31
0.0
  0
LINE
  5
147AE
  8
0
 10
135.0646613510606
 20
-146.0786629893651
 30
0.0
 11
135.0646450634962
 21
-153.078662989365
 31
0.0
  0
LINE
  5
147AF
  8
0
 10
164.7646497168707
 20
-151.078709525263
 30
0.0
 11
135.0646497169778
 21
-151.0787095252632
 31
0.0
  0
LINE
  5
147B0
  8
0
 10
135.0646613510606
 20
-146.0786629893651
 30
0.0
 11
133.9646578608653
 21
-146.078662989365
 31
0.0
  0
ARC
  5
147B1
  8
0
 10
133.9646578608653
 20
-147.578662989365
 30
0.0
 40
1.5
 50
90.0
 51
179.9998666844684
  0
LINE
  5
147B2
  8
0
 10
135.0646450634962
 20
-153.078662989365
 30
0.0
 11
133.9646485536857
 21
-153.078662989365
 31
0.0
  0
LINE
  5
147B3
  8
0
 10
132.4646578608693
 20
-147.5786594991726
 30
0.0
 11
132.4646485536897
 21
-151.5786594991726
 31
0.0
  0
ARC
  5
147B4
  8
0
 10
133.9646485536857
 20
-151.578662989365
 30
0.0
 40
1.5
 50
179.9998666844684
 51
270.0
  0
LINE
  5
147B5
  8
1CENTER
 10
171.4954481245815
 20
-149.578662989365
 30
0.0
 11
131.3943767979696
 21
-149.578662989365
 31
0.0
  0
LINE
  5
147B6
  8
0
 10
167.9646557534382
 20
-148.4843391753699
 30
0.0
 11
168.7646511874892
 21
-150.4466742642454
 31
0.0
  0
LINE
  5
147B7
  8
0
 10
168.7646511874892
 20
-150.4466742642454
 30
0.0
 11
169.0764210437413
 21
-149.8583976892029
 31
0.0
  0
LINE
  5
147B8
  8
0
 10
145.5646578606482
 20
-147.5787095252629
 30
0.0
 11
146.3646485534665
 21
-151.5787095252629
 31
0.0
  0
LINE
  5
147B9
  8
0
 10
156.7646578606526
 20
-147.5787095252629
 30
0.0
 11
157.5646485534752
 21
-151.5787095252629
 31
0.0
  0
LINE
  5
147BA
  8
0
 10
159.9646578606526
 20
-147.5787095252629
 30
0.0
 11
160.7646485534752
 21
-151.5787095252629
 31
0.0
  0
LINE
  5
147BB
  8
0
 10
160.7646485534752
 20
-151.5787095252629
 30
0.0
 11
160.8646497168724
 21
-151.0787095252629
 31
0.0
  0
LINE
  5
147BC
  8
0
 10
161.4646566972554
 20
-148.0787095252629
 30
0.0
 11
161.5646578606527
 21
-147.5787095252629
 31
0.0
  0
LINE
  5
147BD
  8
0
 10
157.5646485534752
 20
-151.5787095252629
 30
0.0
 11
157.6646497168724
 21
-151.0787095252629
 31
0.0
  0
LINE
  5
147BE
  8
0
 10
159.1646485534753
 20
-151.5787095252629
 30
0.0
 11
159.2646497168724
 21
-151.0787095252629
 31
0.0
  0
LINE
  5
147BF
  8
0
 10
159.8646566972555
 20
-148.0787095252629
 30
0.0
 11
159.9646578606526
 21
-147.5787095252629
 31
0.0
  0
LINE
  5
147C0
  8
0
 10
158.2646566972556
 20
-148.0787095252629
 30
0.0
 11
158.3646578606527
 21
-147.5787095252629
 31
0.0
  0
LINE
  5
147C1
  8
0
 10
158.3646578606527
 20
-147.5787095252629
 30
0.0
 11
159.1646485534753
 21
-151.5787095252629
 31
0.0
  0
LINE
  5
147C2
  8
0
 10
167.1646501338836
 20
-150.8994883686522
 30
0.0
 11
167.3474142765116
 21
-150.3477389048489
 31
0.0
  0
LINE
  5
147C3
  8
0
 10
163.9646485534753
 20
-151.5787095252629
 30
0.0
 11
164.0646497168724
 21
-151.0787095252629
 31
0.0
  0
LINE
  5
147C4
  8
0
 10
162.3646485534752
 20
-151.5787095252629
 30
0.0
 11
162.4646497168722
 21
-151.0787095252629
 31
0.0
  0
LINE
  5
147C5
  8
0
 10
165.5646490802779
 20
-151.352302473059
 30
0.0
 11
165.6939197779078
 21
-150.8157087377878
 31
0.0
  0
LINE
  5
147C6
  8
0
 10
166.2518872946924
 20
-148.4996241224716
 30
0.0
 11
166.3646568070425
 21
-148.0315256673217
 31
0.0
  0
LINE
  5
147C7
  8
0
 10
163.0646566972556
 20
-148.0787095252629
 30
0.0
 11
163.1646578606527
 21
-147.5787095252629
 31
0.0
  0
LINE
  5
147C8
  8
0
 10
164.6646566972555
 20
-148.0787095252629
 30
0.0
 11
164.7646578606526
 21
-147.5787095252629
 31
0.0
  0
LINE
  5
147C9
  8
0
 10
167.8132199569978
 20
-148.941511016001
 30
0.0
 11
167.9646557534382
 21
-148.4843391753699
 31
0.0
  0
LINE
  5
147CA
  8
0
 10
166.3646568070425
 20
-148.0315256673217
 30
0.0
 11
167.1646501338836
 21
-150.8994883686522
 31
0.0
  0
LINE
  5
147CB
  8
0
 10
163.1646578606527
 20
-147.5787095252629
 30
0.0
 11
163.9646485534753
 21
-151.5787095252629
 31
0.0
  0
LINE
  5
147CC
  8
0
 10
164.7646578606526
 20
-147.5787095252629
 30
0.0
 11
165.5646490802779
 21
-151.352302473059
 31
0.0
  0
LINE
  5
147CD
  8
0
 10
161.5646578606527
 20
-147.5787095252629
 30
0.0
 11
162.3646485534752
 21
-151.5787095252629
 31
0.0
  0
LINE
  5
147CE
  8
0
 10
148.7646578606483
 20
-147.5787095252629
 30
0.0
 11
149.5646485534665
 21
-151.5787095252629
 31
0.0
  0
LINE
  5
147CF
  8
0
 10
149.5646485534665
 20
-151.5787095252629
 30
0.0
 11
149.6646497168642
 21
-151.0787095252629
 31
0.0
  0
LINE
  5
147D0
  8
0
 10
150.2646566972549
 20
-148.0787095252629
 30
0.0
 11
150.3646578606526
 21
-147.5787095252629
 31
0.0
  0
LINE
  5
147D1
  8
0
 10
147.9646485534664
 20
-151.5787095252629
 30
0.0
 11
148.0646497168641
 21
-151.0787095252629
 31
0.0
  0
LINE
  5
147D2
  8
0
 10
146.3646485534665
 20
-151.5787095252629
 30
0.0
 11
146.4646497168642
 21
-151.0787095252629
 31
0.0
  0
LINE
  5
147D3
  8
0
 10
148.6646566972506
 20
-148.0787095252629
 30
0.0
 11
148.7646578606483
 21
-147.5787095252629
 31
0.0
  0
LINE
  5
147D4
  8
0
 10
147.0646566972505
 20
-148.0787095252629
 30
0.0
 11
147.1646578606481
 21
-147.5787095252629
 31
0.0
  0
LINE
  5
147D5
  8
0
 10
147.1646578606481
 20
-147.5787095252629
 30
0.0
 11
147.9646485534664
 21
-151.5787095252629
 31
0.0
  0
LINE
  5
147D6
  8
0
 10
154.3646485534709
 20
-151.5787095252629
 30
0.0
 11
154.4646497168686
 21
-151.0787095252629
 31
0.0
  0
LINE
  5
147D7
  8
0
 10
155.9646485534753
 20
-151.5787095252629
 30
0.0
 11
156.0646497168724
 21
-151.0787095252629
 31
0.0
  0
LINE
  5
147D8
  8
0
 10
151.1646485534709
 20
-151.5787095252629
 30
0.0
 11
151.2646497168685
 21
-151.0787095252629
 31
0.0
  0
LINE
  5
147D9
  8
0
 10
152.7646485534708
 20
-151.5787095252629
 30
0.0
 11
152.8646497168685
 21
-151.0787095252629
 31
0.0
  0
LINE
  5
147DA
  8
0
 10
156.6646566972555
 20
-148.0787095252629
 30
0.0
 11
156.7646578606526
 21
-147.5787095252629
 31
0.0
  0
LINE
  5
147DB
  8
0
 10
155.0646566972549
 20
-148.0787095252629
 30
0.0
 11
155.1646578606527
 21
-147.5787095252629
 31
0.0
  0
LINE
  5
147DC
  8
0
 10
151.8646566972548
 20
-148.0787095252629
 30
0.0
 11
151.9646578606525
 21
-147.5787095252629
 31
0.0
  0
LINE
  5
147DD
  8
0
 10
153.464656697255
 20
-148.0787095252629
 30
0.0
 11
153.5646578606527
 21
-147.5787095252629
 31
0.0
  0
LINE
  5
147DE
  8
0
 10
153.5646578606527
 20
-147.5787095252629
 30
0.0
 11
154.3646485534709
 21
-151.5787095252629
 31
0.0
  0
LINE
  5
147DF
  8
0
 10
155.1646578606527
 20
-147.5787095252629
 30
0.0
 11
155.9646485534753
 21
-151.5787095252629
 31
0.0
  0
LINE
  5
147E0
  8
0
 10
151.9646578606525
 20
-147.5787095252629
 30
0.0
 11
152.7646485534708
 21
-151.5787095252629
 31
0.0
  0
LINE
  5
147E1
  8
0
 10
150.3646578606526
 20
-147.5787095252629
 30
0.0
 11
151.1646485534709
 21
-151.5787095252629
 31
0.0
  0
LINE
  5
147E2
  8
0
 10
140.6646566972464
 20
-148.0787095252629
 30
0.0
 11
140.7646578606441
 21
-147.5787095252629
 31
0.0
  0
LINE
  5
147E3
  8
0
 10
140.7646578606441
 20
-147.5787095252629
 30
0.0
 11
141.5646485534623
 21
-151.5787095252629
 31
0.0
  0
LINE
  5
147E4
  8
0
 10
141.5646485534623
 20
-151.5787095252629
 30
0.0
 11
141.66464971686
 21
-151.0787095252629
 31
0.0
  0
LINE
  5
147E5
  8
0
 10
142.2646566972463
 20
-148.0787095252629
 30
0.0
 11
142.364657860644
 21
-147.5787095252629
 31
0.0
  0
LINE
  5
147E6
  8
0
 10
143.8646566972462
 20
-148.0787095252629
 30
0.0
 11
143.9646578606439
 21
-147.5787095252629
 31
0.0
  0
LINE
  5
147E7
  8
0
 10
143.9646578606439
 20
-147.5787095252629
 30
0.0
 11
144.7646485534621
 21
-151.5787095252629
 31
0.0
  0
LINE
  5
147E8
  8
0
 10
143.1646485534622
 20
-151.5787095252629
 30
0.0
 11
143.2646497168599
 21
-151.0787095252629
 31
0.0
  0
LINE
  5
147E9
  8
0
 10
144.7646485534621
 20
-151.5787095252629
 30
0.0
 11
144.8646497168598
 21
-151.0787095252629
 31
0.0
  0
LINE
  5
147EA
  8
0
 10
142.364657860644
 20
-147.5787095252629
 30
0.0
 11
143.1646485534622
 21
-151.5787095252629
 31
0.0
  0
LINE
  5
147EB
  8
0
 10
145.4646566972505
 20
-148.0787095252629
 30
0.0
 11
145.5646578606482
 21
-147.5787095252629
 31
0.0
  0
LINE
  5
147EC
  8
0
 10
139.0646566972465
 20
-148.0787095252629
 30
0.0
 11
139.1646578606442
 21
-147.5787095252629
 31
0.0
  0
LINE
  5
147ED
  8
0
 10
139.1646578606442
 20
-147.5787095252629
 30
0.0
 11
139.9646485534624
 21
-151.5787095252629
 31
0.0
  0
LINE
  5
147EE
  8
0
 10
139.9646485534624
 20
-151.5787095252629
 30
0.0
 11
140.0646497168601
 21
-151.0787095252629
 31
0.0
  0
LINE
  5
147EF
  8
0
 10
137.4646566972466
 20
-148.0787095252629
 30
0.0
 11
137.5646578606442
 21
-147.5787095252629
 31
0.0
  0
LINE
  5
147F0
  8
0
 10
137.5646578606442
 20
-147.5787095252629
 30
0.0
 11
138.3646485534625
 21
-151.5787095252629
 31
0.0
  0
LINE
  5
147F1
  8
0
 10
138.3646485534625
 20
-151.5787095252629
 30
0.0
 11
138.4646497168602
 21
-151.0787095252629
 31
0.0
  0
LINE
  5
147F2
  8
0
 10
135.8646566972467
 20
-148.0787095252629
 30
0.0
 11
135.9646578606443
 21
-147.5787095252629
 31
0.0
  0
LINE
  5
147F3
  8
0
 10
135.9646578606443
 20
-147.5787095252629
 30
0.0
 11
136.7646485534626
 21
-151.5787095252629
 31
0.0
  0
LINE
  5
147F4
  8
0
 10
136.7646485534626
 20
-151.5787095252629
 30
0.0
 11
136.8646497168603
 21
-151.0787095252629
 31
0.0
  0
LINE
  5
147F5
  8
1DIM
 10
-214.4573311677175
 20
-146.3148230998866
 30
0.0
 11
-214.4573311677175
 21
-104.6831033809572
 31
0.0
1001
ACAD
1000
DSTYLE
1002
{
1070
    40
1040
2.0
1070
    45
1040
0.5
1002
}
  0
LINE
  5
147F6
  8
1DIM
 10
-178.4573311677175
 20
-146.3148230998866
 30
0.0
 11
-178.4573311677175
 21
-104.6831033809572
 31
0.0
1001
ACAD
1000
DSTYLE
1002
{
1070
    40
1040
2.0
1070
    45
1040
0.5
1002
}
  0
LINE
  5
147F7
  8
1DIM
 10
-210.4573311677175
 20
-106.6831033809572
 30
0.0
 11
-182.4573311677175
 21
-106.6831033809572
 31
0.0
1001
ACAD
1000
DSTYLE
1002
{
1070
    40
1040
2.0
1070
    45
1040
0.5
1002
}
  0
LINE
  5
147FB
  8
1DIM
 10
-339.4572574460893
 20
-137.9942943866713
 30
0.0
 11
-339.4572574460893
 21
-83.68042643683393
 31
0.0
1001
ACAD
1000
DSTYLE
1002
{
1070
    40
1040
2.0
1070
    45
1040
0.5
1002
}
  0
LINE
  5
147FC
  8
1DIM
 10
-53.45747581194473
 20
-137.9942943866713
 30
0.0
 11
-53.45747581194473
 21
-83.68042643683393
 31
0.0
1001
ACAD
1000
DSTYLE
1002
{
1070
    40
1040
2.0
1070
    45
1040
0.5
1002
}
  0
LINE
  5
147FD
  8
1DIM
 10
-335.4572574460893
 20
-85.68042643683393
 30
0.0
 11
-57.45747581194473
 21
-85.68042643683393
 31
0.0
1001
ACAD
1000
DSTYLE
1002
{
1070
    40
1040
2.0
1070
    45
1040
0.5
1002
}
  0
LINE
  5
14801
  8
1DIM
 10
82.53930634772598
 20
-172.9597041085914
 30
0.0
 11
82.53930634772598
 21
-69.41287786355406
 31
0.0
1001
ACAD
1000
DSTYLE
1002
{
1070
    40
1040
2.0
1070
    45
1040
0.5
1002
}
  0
LINE
  5
14802
  8
1DIM
 10
140.0646532072784
 20
-106.6022528515537
 30
0.0
 11
140.0646532072784
 21
-69.41287786355406
 31
0.0
1001
ACAD
1000
DSTYLE
1002
{
1070
    40
1040
2.0
1070
    45
1040
0.5
1002
}
  0
LINE
  5
14803
  8
1DIM
 10
86.53930634772598
 20
-71.41287786355406
 30
0.0
 11
136.0646532072784
 21
-71.41287786355406
 31
0.0
1001
ACAD
1000
DSTYLE
1002
{
1070
    40
1040
2.0
1070
    45
1040
0.5
1002
}
  0
LINE
  5
14807
  8
1DIM
 10
9.826904878893046
 20
-182.332992642514
 30
0.0
 11
9.826904878893055
 21
-48.25329168115263
 31
0.0
1001
ACAD
1000
DSTYLE
1002
{
1070
    40
1040
2.0
1070
    45
1040
0.5
1070
   271
1070
     0
1002
}
  0
LINE
  5
14808
  8
1DIM
 10
140.0646532072784
 20
-106.6022528515537
 30
0.0
 11
140.0646532072784
 21
-48.25329168115263
 31
0.0
1001
ACAD
1000
DSTYLE
1002
{
1070
    40
1040
2.0
1070
    45
1040
0.5
1070
   271
1070
     0
1002
}
  0
LINE
  5
14809
  8
1DIM
 10
13.82690487889306
 20
-50.25329168115263
 30
0.0
 11
136.0646532072784
 21
-50.25329168115263
 31
0.0
1001
ACAD
1000
DSTYLE
1002
{
1070
    40
1040
2.0
1070
    45
1040
0.5
1070
   271
1070
     0
1002
}
  0
LINE
  5
1480D
  8
0
 10
-178.4572846318199
 20
76.1695735630021
 30
0.0
 11
-179.9572846318199
 21
70.86957705314043
 31
0.0
  0
LINE
  5
1480E
  8
0
 10
-179.9572846318199
 20
70.86957705314043
 30
0.0
 11
-179.9572846318197
 21
41.16957705324856
 31
0.0
  0
LINE
  5
1480F
  8
0
 10
-178.4572846318199
 20
76.1695735630021
 30
0.0
 11
-176.9572846318198
 21
70.8695700727568
 31
0.0
  0
LINE
  5
14810
  8
0
 10
-181.9573311677177
 20
41.16958170694664
 30
0.0
 11
-174.9573311677178
 21
41.16956541938231
 31
0.0
  0
LINE
  5
14811
  8
0
 10
-176.9572846318198
 20
70.8695700727568
 30
0.0
 11
-176.9572846318197
 21
41.16957007286385
 31
0.0
  0
LINE
  5
14812
  8
0
 10
-181.9573311677177
 20
41.16958170694664
 30
0.0
 11
-181.9573311677178
 21
40.06957821675132
 31
0.0
  0
ARC
  5
14813
  8
0
 10
-180.4573311677178
 20
40.06957821675132
 30
0.0
 40
1.5
 50
180.0
 51
269.9998666844684
  0
LINE
  5
14814
  8
0
 10
-174.9573311677178
 20
41.16956541938231
 30
0.0
 11
-174.9573311677178
 21
40.06956890957173
 31
0.0
  0
LINE
  5
14815
  8
0
 10
-180.4573346579102
 20
38.56957821675539
 30
0.0
 11
-176.4573346579102
 21
38.56956890957579
 31
0.0
  0
ARC
  5
14816
  8
0
 10
-176.4573311677178
 20
40.06956890957173
 30
0.0
 40
1.5
 50
269.9998666844684
 51
0.0
  0
LINE
  5
14817
  8
1CENTER
 10
-178.4573311677178
 20
77.60036848046755
 30
0.0
 11
-178.4573311677178
 21
37.49929715385565
 31
0.0
  0
LINE
  5
14818
  8
0
 10
-179.5516549817129
 20
74.06957610932429
 30
0.0
 11
-177.5893198928375
 21
74.86957154337526
 31
0.0
  0
LINE
  5
14819
  8
0
 10
-177.5893198928375
 20
74.86957154337526
 30
0.0
 11
-178.1775964678799
 21
75.18134139962737
 31
0.0
  0
LINE
  5
1481A
  8
0
 10
-180.4572846318199
 20
51.66957821653429
 30
0.0
 11
-176.4572846318199
 21
52.46956890935255
 31
0.0
  0
LINE
  5
1481B
  8
0
 10
-180.4572846318199
 20
62.86957821653866
 30
0.0
 11
-176.4572846318199
 21
63.66956890936123
 31
0.0
  0
LINE
  5
1481C
  8
0
 10
-180.4572846318199
 20
66.0695782165387
 30
0.0
 11
-176.4572846318199
 21
66.86956890936128
 31
0.0
  0
LINE
  5
1481D
  8
0
 10
-176.4572846318199
 20
66.86956890936128
 30
0.0
 11
-176.9572846318199
 21
66.9695700727585
 31
0.0
  0
LINE
  5
1481E
  8
0
 10
-179.9572846318199
 20
67.5695770531415
 30
0.0
 11
-180.4572846318199
 21
67.66957821653872
 31
0.0
  0
LINE
  5
1481F
  8
0
 10
-176.4572846318199
 20
63.66956890936123
 30
0.0
 11
-176.9572846318199
 21
63.76957007275846
 31
0.0
  0
LINE
  5
14820
  8
0
 10
-176.4572846318199
 20
65.26956890936137
 30
0.0
 11
-176.9572846318199
 21
65.36957007275848
 31
0.0
  0
LINE
  5
14821
  8
0
 10
-179.9572846318199
 20
65.96957705314159
 30
0.0
 11
-180.4572846318199
 21
66.0695782165387
 31
0.0
  0
LINE
  5
14822
  8
0
 10
-179.9572846318199
 20
64.36957705314168
 30
0.0
 11
-180.4572846318199
 21
64.46957821653879
 31
0.0
  0
LINE
  5
14823
  8
0
 10
-180.4572846318199
 20
64.46957821653879
 30
0.0
 11
-176.4572846318199
 21
65.26956890936137
 31
0.0
  0
LINE
  5
14824
  8
0
 10
-177.1365057884307
 20
73.26957048976962
 30
0.0
 11
-177.6882552522339
 21
73.45233463239762
 31
0.0
  0
LINE
  5
14825
  8
0
 10
-176.4572846318199
 20
70.06956890936132
 30
0.0
 11
-176.9572846318199
 21
70.16957007275843
 31
0.0
  0
LINE
  5
14826
  8
0
 10
-176.4572846318199
 20
68.4695689093613
 30
0.0
 11
-176.9572846318199
 21
68.5695700727583
 31
0.0
  0
LINE
  5
14827
  8
0
 10
-176.6836916840239
 20
71.66956943616398
 30
0.0
 11
-177.220285419295
 21
71.79884013379385
 31
0.0
  0
LINE
  5
14828
  8
0
 10
-179.5363700346112
 20
72.35680765057847
 30
0.0
 11
-180.0044684897612
 21
72.46957716292852
 31
0.0
  0
LINE
  5
14829
  8
0
 10
-179.9572846318199
 20
69.16957705314164
 30
0.0
 11
-180.4572846318199
 21
69.26957821653875
 31
0.0
  0
LINE
  5
1482A
  8
0
 10
-179.9572846318199
 20
70.76957705314155
 30
0.0
 11
-180.4572846318199
 21
70.86957821653866
 31
0.0
  0
LINE
  5
1482B
  8
0
 10
-179.0944831410818
 20
73.91814031288388
 30
0.0
 11
-179.5516549817129
 21
74.06957610932429
 31
0.0
  0
LINE
  5
1482C
  8
0
 10
-180.0044684897612
 20
72.46957716292852
 30
0.0
 11
-177.1365057884307
 21
73.26957048976962
 31
0.0
  0
LINE
  5
1482D
  8
0
 10
-180.4572846318199
 20
69.26957821653875
 30
0.0
 11
-176.4572846318199
 21
70.06956890936132
 31
0.0
  0
LINE
  5
1482E
  8
0
 10
-180.4572846318199
 20
70.86957821653866
 30
0.0
 11
-176.6836916840239
 21
71.66956943616398
 31
0.0
  0
LINE
  5
1482F
  8
0
 10
-180.4572846318199
 20
67.66957821653872
 30
0.0
 11
-176.4572846318199
 21
68.4695689093613
 31
0.0
  0
LINE
  5
14830
  8
0
 10
-180.4572846318199
 20
54.86957821653434
 30
0.0
 11
-176.4572846318199
 21
55.66956890935259
 31
0.0
  0
LINE
  5
14831
  8
0
 10
-176.4572846318199
 20
55.66956890935259
 30
0.0
 11
-176.9572846318199
 21
55.76957007275027
 31
0.0
  0
LINE
  5
14832
  8
0
 10
-179.9572846318199
 20
56.369577053141
 30
0.0
 11
-180.4572846318199
 21
56.46957821653868
 31
0.0
  0
LINE
  5
14833
  8
0
 10
-176.4572846318199
 20
54.06956890935245
 30
0.0
 11
-176.9572846318199
 21
54.16957007275013
 31
0.0
  0
LINE
  5
14834
  8
0
 10
-176.4572846318199
 20
52.46956890935255
 30
0.0
 11
-176.9572846318199
 21
52.56957007275022
 31
0.0
  0
LINE
  5
14835
  8
0
 10
-179.9572846318199
 20
54.76957705313666
 30
0.0
 11
-180.4572846318199
 21
54.86957821653434
 31
0.0
  0
LINE
  5
14836
  8
0
 10
-179.9572846318199
 20
53.16957705313652
 30
0.0
 11
-180.4572846318199
 21
53.2695782165342
 31
0.0
  0
LINE
  5
14837
  8
0
 10
-180.4572846318199
 20
53.2695782165342
 30
0.0
 11
-176.4572846318199
 21
54.06956890935245
 31
0.0
  0
LINE
  5
14838
  8
0
 10
-176.4572846318199
 20
60.46956890935698
 30
0.0
 11
-176.9572846318199
 21
60.56957007275466
 31
0.0
  0
LINE
  5
14839
  8
0
 10
-176.4572846318199
 20
62.06956890936132
 30
0.0
 11
-176.9572846318199
 21
62.16957007275843
 31
0.0
  0
LINE
  5
1483A
  8
0
 10
-176.4572846318199
 20
57.26956890935693
 30
0.0
 11
-176.9572846318199
 21
57.36957007275461
 31
0.0
  0
LINE
  5
1483B
  8
0
 10
-176.4572846318199
 20
58.86956890935684
 30
0.0
 11
-176.9572846318199
 21
58.96957007275452
 31
0.0
  0
LINE
  5
1483C
  8
0
 10
-179.9572846318199
 20
62.76957705314155
 30
0.0
 11
-180.4572846318199
 21
62.86957821653866
 31
0.0
  0
LINE
  5
1483D
  8
0
 10
-179.9572846318199
 20
61.16957705314096
 30
0.0
 11
-180.4572846318199
 21
61.26957821653875
 31
0.0
  0
LINE
  5
1483E
  8
0
 10
-179.9572846318199
 20
57.96957705314091
 30
0.0
 11
-180.4572846318199
 21
58.06957821653859
 31
0.0
  0
LINE
  5
1483F
  8
0
 10
-179.9572846318199
 20
59.56957705314105
 30
0.0
 11
-180.4572846318199
 21
59.66957821653872
 31
0.0
  0
LINE
  5
14840
  8
0
 10
-180.4572846318199
 20
59.66957821653872
 30
0.0
 11
-176.4572846318199
 21
60.46956890935698
 31
0.0
  0
LINE
  5
14841
  8
0
 10
-180.4572846318199
 20
61.26957821653875
 30
0.0
 11
-176.4572846318199
 21
62.06956890936132
 31
0.0
  0
LINE
  5
14842
  8
0
 10
-180.4572846318199
 20
58.06957821653859
 30
0.0
 11
-176.4572846318199
 21
58.86956890935684
 31
0.0
  0
LINE
  5
14843
  8
0
 10
-180.4572846318199
 20
56.46957821653868
 30
0.0
 11
-176.4572846318199
 21
57.26956890935693
 31
0.0
  0
LINE
  5
14844
  8
0
 10
-179.9572846318199
 20
46.76957705313245
 30
0.0
 11
-180.4572846318199
 21
46.86957821653013
 31
0.0
  0
LINE
  5
14845
  8
0
 10
-180.4572846318199
 20
46.86957821653013
 30
0.0
 11
-176.4572846318199
 21
47.66956890934838
 31
0.0
  0
LINE
  5
14846
  8
0
 10
-176.4572846318199
 20
47.66956890934838
 30
0.0
 11
-176.9572846318199
 21
47.76957007274606
 31
0.0
  0
LINE
  5
14847
  8
0
 10
-179.9572846318199
 20
48.36957705313236
 30
0.0
 11
-180.4572846318199
 21
48.46957821653004
 31
0.0
  0
LINE
  5
14848
  8
0
 10
-179.9572846318199
 20
49.96957705313227
 30
0.0
 11
-180.4572846318199
 21
50.06957821652995
 31
0.0
  0
LINE
  5
14849
  8
0
 10
-180.4572846318199
 20
50.06957821652995
 30
0.0
 11
-176.4572846318199
 21
50.8695689093482
 31
0.0
  0
LINE
  5
1484A
  8
0
 10
-176.4572846318199
 20
49.26956890934829
 30
0.0
 11
-176.9572846318199
 21
49.36957007274597
 31
0.0
  0
LINE
  5
1484B
  8
0
 10
-176.4572846318199
 20
50.8695689093482
 30
0.0
 11
-176.9572846318199
 21
50.96957007274588
 31
0.0
  0
LINE
  5
1484C
  8
0
 10
-180.4572846318199
 20
48.46957821653004
 30
0.0
 11
-176.4572846318199
 21
49.26956890934829
 31
0.0
  0
LINE
  5
1484D
  8
0
 10
-179.9572846318199
 20
51.56957705313661
 30
0.0
 11
-180.4572846318199
 21
51.66957821653429
 31
0.0
  0
LINE
  5
1484E
  8
0
 10
-179.9572846318199
 20
45.16957705313254
 30
0.0
 11
-180.4572846318199
 21
45.26957821653022
 31
0.0
  0
LINE
  5
1484F
  8
0
 10
-180.4572846318199
 20
45.26957821653022
 30
0.0
 11
-176.4572846318199
 21
46.06956890934848
 31
0.0
  0
LINE
  5
14850
  8
0
 10
-176.4572846318199
 20
46.06956890934848
 30
0.0
 11
-176.9572846318199
 21
46.16957007274615
 31
0.0
  0
LINE
  5
14851
  8
0
 10
-179.9572846318199
 20
43.56957705313263
 30
0.0
 11
-180.4572846318199
 21
43.66957821653031
 31
0.0
  0
LINE
  5
14852
  8
0
 10
-180.4572846318199
 20
43.66957821653031
 30
0.0
 11
-176.4572846318199
 21
44.46956890934857
 31
0.0
  0
LINE
  5
14853
  8
0
 10
-176.4572846318199
 20
44.46956890934857
 30
0.0
 11
-176.9572846318199
 21
44.56957007274625
 31
0.0
  0
LINE
  5
14854
  8
0
 10
-179.9572846318199
 20
41.96957705313272
 30
0.0
 11
-180.4572846318199
 21
42.0695782165304
 31
0.0
  0
LINE
  5
14855
  8
0
 10
-180.4572846318199
 20
42.0695782165304
 30
0.0
 11
-176.4572846318199
 21
42.86956890934866
 31
0.0
  0
LINE
  5
14856
  8
0
 10
-176.4572846318199
 20
42.86956890934866
 30
0.0
 11
-176.9572846318199
 21
42.96957007274634
 31
0.0
  0
LINE
  5
14857
  8
0
 10
-196.4572846318199
 20
76.1695735630021
 30
0.0
 11
-197.9572846318199
 21
70.86957705314043
 31
0.0
  0
LINE
  5
14858
  8
0
 10
-197.9572846318199
 20
70.86957705314043
 30
0.0
 11
-197.9572846318197
 21
41.16957705324856
 31
0.0
  0
LINE
  5
14859
  8
0
 10
-196.4572846318199
 20
76.1695735630021
 30
0.0
 11
-194.9572846318198
 21
70.8695700727568
 31
0.0
  0
LINE
  5
1485A
  8
0
 10
-199.9573311677177
 20
41.16958170694664
 30
0.0
 11
-192.9573311677178
 21
41.16956541938231
 31
0.0
  0
LINE
  5
1485B
  8
0
 10
-194.9572846318198
 20
70.8695700727568
 30
0.0
 11
-194.9572846318197
 21
41.16957007286385
 31
0.0
  0
LINE
  5
1485C
  8
0
 10
-199.9573311677177
 20
41.16958170694664
 30
0.0
 11
-199.9573311677178
 21
40.06957821675132
 31
0.0
  0
ARC
  5
1485D
  8
0
 10
-198.4573311677178
 20
40.06957821675132
 30
0.0
 40
1.5
 50
180.0
 51
269.9998666844684
  0
LINE
  5
1485E
  8
0
 10
-192.9573311677178
 20
41.16956541938231
 30
0.0
 11
-192.9573311677178
 21
40.06956890957173
 31
0.0
  0
LINE
  5
1485F
  8
0
 10
-198.4573346579102
 20
38.56957821675539
 30
0.0
 11
-194.4573346579102
 21
38.56956890957579
 31
0.0
  0
ARC
  5
14860
  8
0
 10
-194.4573311677178
 20
40.06956890957173
 30
0.0
 40
1.5
 50
269.9998666844684
 51
0.0
  0
LINE
  5
14861
  8
1CENTER
 10
-196.4573311677178
 20
77.60036848046755
 30
0.0
 11
-196.4573311677178
 21
37.49929715385565
 31
0.0
  0
LINE
  5
14862
  8
0
 10
-197.5516549817129
 20
74.06957610932429
 30
0.0
 11
-195.5893198928375
 21
74.86957154337526
 31
0.0
  0
LINE
  5
14863
  8
0
 10
-195.5893198928375
 20
74.86957154337526
 30
0.0
 11
-196.1775964678799
 21
75.18134139962737
 31
0.0
  0
LINE
  5
14864
  8
0
 10
-198.4572846318199
 20
51.66957821653429
 30
0.0
 11
-194.4572846318199
 21
52.46956890935255
 31
0.0
  0
LINE
  5
14865
  8
0
 10
-198.4572846318199
 20
62.86957821653866
 30
0.0
 11
-194.4572846318199
 21
63.66956890936123
 31
0.0
  0
LINE
  5
14866
  8
0
 10
-198.4572846318199
 20
66.0695782165387
 30
0.0
 11
-194.4572846318199
 21
66.86956890936128
 31
0.0
  0
LINE
  5
14867
  8
0
 10
-194.4572846318199
 20
66.86956890936128
 30
0.0
 11
-194.9572846318199
 21
66.9695700727585
 31
0.0
  0
LINE
  5
14868
  8
0
 10
-197.9572846318199
 20
67.5695770531415
 30
0.0
 11
-198.4572846318199
 21
67.66957821653872
 31
0.0
  0
LINE
  5
14869
  8
0
 10
-194.4572846318199
 20
63.66956890936123
 30
0.0
 11
-194.9572846318199
 21
63.76957007275846
 31
0.0
  0
LINE
  5
1486A
  8
0
 10
-194.4572846318199
 20
65.26956890936137
 30
0.0
 11
-194.9572846318199
 21
65.36957007275848
 31
0.0
  0
LINE
  5
1486B
  8
0
 10
-197.9572846318199
 20
65.96957705314159
 30
0.0
 11
-198.4572846318199
 21
66.0695782165387
 31
0.0
  0
LINE
  5
1486C
  8
0
 10
-197.9572846318199
 20
64.36957705314168
 30
0.0
 11
-198.4572846318199
 21
64.46957821653879
 31
0.0
  0
LINE
  5
1486D
  8
0
 10
-198.4572846318199
 20
64.46957821653879
 30
0.0
 11
-194.4572846318199
 21
65.26956890936137
 31
0.0
  0
LINE
  5
1486E
  8
0
 10
-195.1365057884307
 20
73.26957048976962
 30
0.0
 11
-195.6882552522339
 21
73.45233463239762
 31
0.0
  0
LINE
  5
1486F
  8
0
 10
-194.4572846318199
 20
70.06956890936132
 30
0.0
 11
-194.9572846318199
 21
70.16957007275843
 31
0.0
  0
LINE
  5
14870
  8
0
 10
-194.4572846318199
 20
68.4695689093613
 30
0.0
 11
-194.9572846318199
 21
68.5695700727583
 31
0.0
  0
LINE
  5
14871
  8
0
 10
-194.6836916840239
 20
71.66956943616398
 30
0.0
 11
-195.220285419295
 21
71.79884013379385
 31
0.0
  0
LINE
  5
14872
  8
0
 10
-197.5363700346112
 20
72.35680765057847
 30
0.0
 11
-198.0044684897612
 21
72.46957716292852
 31
0.0
  0
LINE
  5
14873
  8
0
 10
-197.9572846318199
 20
69.16957705314164
 30
0.0
 11
-198.4572846318199
 21
69.26957821653875
 31
0.0
  0
LINE
  5
14874
  8
0
 10
-197.9572846318199
 20
70.76957705314155
 30
0.0
 11
-198.4572846318199
 21
70.86957821653866
 31
0.0
  0
LINE
  5
14875
  8
0
 10
-197.0944831410818
 20
73.91814031288388
 30
0.0
 11
-197.5516549817129
 21
74.06957610932429
 31
0.0
  0
LINE
  5
14876
  8
0
 10
-198.0044684897612
 20
72.46957716292852
 30
0.0
 11
-195.1365057884307
 21
73.26957048976962
 31
0.0
  0
LINE
  5
14877
  8
0
 10
-198.4572846318199
 20
69.26957821653875
 30
0.0
 11
-194.4572846318199
 21
70.06956890936132
 31
0.0
  0
LINE
  5
14878
  8
0
 10
-198.4572846318199
 20
70.86957821653866
 30
0.0
 11
-194.6836916840239
 21
71.66956943616398
 31
0.0
  0
LINE
  5
14879
  8
0
 10
-198.4572846318199
 20
67.66957821653872
 30
0.0
 11
-194.4572846318199
 21
68.4695689093613
 31
0.0
  0
LINE
  5
1487A
  8
0
 10
-198.4572846318199
 20
54.86957821653434
 30
0.0
 11
-194.4572846318199
 21
55.66956890935259
 31
0.0
  0
LINE
  5
1487B
  8
0
 10
-194.4572846318199
 20
55.66956890935259
 30
0.0
 11
-194.9572846318199
 21
55.76957007275027
 31
0.0
  0
LINE
  5
1487C
  8
0
 10
-197.9572846318199
 20
56.369577053141
 30
0.0
 11
-198.4572846318199
 21
56.46957821653868
 31
0.0
  0
LINE
  5
1487D
  8
0
 10
-194.4572846318199
 20
54.06956890935245
 30
0.0
 11
-194.9572846318199
 21
54.16957007275013
 31
0.0
  0
LINE
  5
1487E
  8
0
 10
-194.4572846318199
 20
52.46956890935255
 30
0.0
 11
-194.9572846318199
 21
52.56957007275022
 31
0.0
  0
LINE
  5
1487F
  8
0
 10
-197.9572846318199
 20
54.76957705313666
 30
0.0
 11
-198.4572846318199
 21
54.86957821653434
 31
0.0
  0
LINE
  5
14880
  8
0
 10
-197.9572846318199
 20
53.16957705313652
 30
0.0
 11
-198.4572846318199
 21
53.2695782165342
 31
0.0
  0
LINE
  5
14881
  8
0
 10
-198.4572846318199
 20
53.2695782165342
 30
0.0
 11
-194.4572846318199
 21
54.06956890935245
 31
0.0
  0
LINE
  5
14882
  8
0
 10
-194.4572846318199
 20
60.46956890935698
 30
0.0
 11
-194.9572846318199
 21
60.56957007275466
 31
0.0
  0
LINE
  5
14883
  8
0
 10
-194.4572846318199
 20
62.06956890936132
 30
0.0
 11
-194.9572846318199
 21
62.16957007275843
 31
0.0
  0
LINE
  5
14884
  8
0
 10
-194.4572846318199
 20
57.26956890935693
 30
0.0
 11
-194.9572846318199
 21
57.36957007275461
 31
0.0
  0
LINE
  5
14885
  8
0
 10
-194.4572846318199
 20
58.86956890935684
 30
0.0
 11
-194.9572846318199
 21
58.96957007275452
 31
0.0
  0
LINE
  5
14886
  8
0
 10
-197.9572846318199
 20
62.76957705314155
 30
0.0
 11
-198.4572846318199
 21
62.86957821653866
 31
0.0
  0
LINE
  5
14887
  8
0
 10
-197.9572846318199
 20
61.16957705314096
 30
0.0
 11
-198.4572846318199
 21
61.26957821653875
 31
0.0
  0
LINE
  5
14888
  8
0
 10
-197.9572846318199
 20
57.96957705314091
 30
0.0
 11
-198.4572846318199
 21
58.06957821653859
 31
0.0
  0
LINE
  5
14889
  8
0
 10
-197.9572846318199
 20
59.56957705314105
 30
0.0
 11
-198.4572846318199
 21
59.66957821653872
 31
0.0
  0
LINE
  5
1488A
  8
0
 10
-198.4572846318199
 20
59.66957821653872
 30
0.0
 11
-194.4572846318199
 21
60.46956890935698
 31
0.0
  0
LINE
  5
1488B
  8
0
 10
-198.4572846318199
 20
61.26957821653875
 30
0.0
 11
-194.4572846318199
 21
62.06956890936132
 31
0.0
  0
LINE
  5
1488C
  8
0
 10
-198.4572846318199
 20
58.06957821653859
 30
0.0
 11
-194.4572846318199
 21
58.86956890935684
 31
0.0
  0
LINE
  5
1488D
  8
0
 10
-198.4572846318199
 20
56.46957821653868
 30
0.0
 11
-194.4572846318199
 21
57.26956890935693
 31
0.0
  0
LINE
  5
1488E
  8
0
 10
-197.9572846318199
 20
46.76957705313245
 30
0.0
 11
-198.4572846318199
 21
46.86957821653013
 31
0.0
  0
LINE
  5
1488F
  8
0
 10
-198.4572846318199
 20
46.86957821653013
 30
0.0
 11
-194.4572846318199
 21
47.66956890934838
 31
0.0
  0
LINE
  5
14890
  8
0
 10
-194.4572846318199
 20
47.66956890934838
 30
0.0
 11
-194.9572846318199
 21
47.76957007274606
 31
0.0
  0
LINE
  5
14891
  8
0
 10
-197.9572846318199
 20
48.36957705313236
 30
0.0
 11
-198.4572846318199
 21
48.46957821653004
 31
0.0
  0
LINE
  5
14892
  8
0
 10
-197.9572846318199
 20
49.96957705313227
 30
0.0
 11
-198.4572846318199
 21
50.06957821652995
 31
0.0
  0
LINE
  5
14893
  8
0
 10
-198.4572846318199
 20
50.06957821652995
 30
0.0
 11
-194.4572846318199
 21
50.8695689093482
 31
0.0
  0
LINE
  5
14894
  8
0
 10
-194.4572846318199
 20
49.26956890934829
 30
0.0
 11
-194.9572846318199
 21
49.36957007274597
 31
0.0
  0
LINE
  5
14895
  8
0
 10
-194.4572846318199
 20
50.8695689093482
 30
0.0
 11
-194.9572846318199
 21
50.96957007274588
 31
0.0
  0
LINE
  5
14896
  8
0
 10
-198.4572846318199
 20
48.46957821653004
 30
0.0
 11
-194.4572846318199
 21
49.26956890934829
 31
0.0
  0
LINE
  5
14897
  8
0
 10
-197.9572846318199
 20
51.56957705313661
 30
0.0
 11
-198.4572846318199
 21
51.66957821653429
 31
0.0
  0
LINE
  5
14898
  8
0
 10
-197.9572846318199
 20
45.16957705313254
 30
0.0
 11
-198.4572846318199
 21
45.26957821653022
 31
0.0
  0
LINE
  5
14899
  8
0
 10
-198.4572846318199
 20
45.26957821653022
 30
0.0
 11
-194.4572846318199
 21
46.06956890934848
 31
0.0
  0
LINE
  5
1489A
  8
0
 10
-194.4572846318199
 20
46.06956890934848
 30
0.0
 11
-194.9572846318199
 21
46.16957007274615
 31
0.0
  0
LINE
  5
1489B
  8
0
 10
-197.9572846318199
 20
43.56957705313263
 30
0.0
 11
-198.4572846318199
 21
43.66957821653031
 31
0.0
  0
LINE
  5
1489C
  8
0
 10
-198.4572846318199
 20
43.66957821653031
 30
0.0
 11
-194.4572846318199
 21
44.46956890934857
 31
0.0
  0
LINE
  5
1489D
  8
0
 10
-194.4572846318199
 20
44.46956890934857
 30
0.0
 11
-194.9572846318199
 21
44.56957007274625
 31
0.0
  0
LINE
  5
1489E
  8
0
 10
-197.9572846318199
 20
41.96957705313272
 30
0.0
 11
-198.4572846318199
 21
42.0695782165304
 31
0.0
  0
LINE
  5
1489F
  8
0
 10
-198.4572846318199
 20
42.0695782165304
 30
0.0
 11
-194.4572846318199
 21
42.86956890934866
 31
0.0
  0
LINE
  5
148A0
  8
0
 10
-194.4572846318199
 20
42.86956890934866
 30
0.0
 11
-194.9572846318199
 21
42.96957007274634
 31
0.0
  0
LINE
  5
148A1
  8
0
 10
-214.4572846318199
 20
76.1695735630021
 30
0.0
 11
-215.9572846318199
 21
70.86957705314043
 31
0.0
  0
LINE
  5
148A2
  8
0
 10
-215.9572846318199
 20
70.86957705314043
 30
0.0
 11
-215.9572846318197
 21
41.16957705324856
 31
0.0
  0
LINE
  5
148A3
  8
0
 10
-214.4572846318199
 20
76.1695735630021
 30
0.0
 11
-212.9572846318198
 21
70.8695700727568
 31
0.0
  0
LINE
  5
148A4
  8
0
 10
-217.9573311677177
 20
41.16958170694664
 30
0.0
 11
-210.9573311677178
 21
41.16956541938231
 31
0.0
  0
LINE
  5
148A5
  8
0
 10
-212.9572846318198
 20
70.8695700727568
 30
0.0
 11
-212.9572846318197
 21
41.16957007286385
 31
0.0
  0
LINE
  5
148A6
  8
0
 10
-217.9573311677177
 20
41.16958170694664
 30
0.0
 11
-217.9573311677178
 21
40.06957821675132
 31
0.0
  0
ARC
  5
148A7
  8
0
 10
-216.4573311677178
 20
40.06957821675132
 30
0.0
 40
1.5
 50
180.0
 51
269.9998666844684
  0
LINE
  5
148A8
  8
0
 10
-210.9573311677178
 20
41.16956541938231
 30
0.0
 11
-210.9573311677178
 21
40.06956890957173
 31
0.0
  0
LINE
  5
148A9
  8
0
 10
-216.4573346579102
 20
38.56957821675539
 30
0.0
 11
-212.4573346579102
 21
38.56956890957579
 31
0.0
  0
ARC
  5
148AA
  8
0
 10
-212.4573311677178
 20
40.06956890957173
 30
0.0
 40
1.5
 50
269.9998666844684
 51
0.0
  0
LINE
  5
148AB
  8
1CENTER
 10
-214.4573311677178
 20
77.60036848046755
 30
0.0
 11
-214.4573311677178
 21
37.49929715385565
 31
0.0
  0
LINE
  5
148AC
  8
0
 10
-215.5516549817129
 20
74.06957610932429
 30
0.0
 11
-213.5893198928375
 21
74.86957154337526
 31
0.0
  0
LINE
  5
148AD
  8
0
 10
-213.5893198928375
 20
74.86957154337526
 30
0.0
 11
-214.1775964678799
 21
75.18134139962737
 31
0.0
  0
LINE
  5
148AE
  8
0
 10
-216.4572846318199
 20
51.66957821653429
 30
0.0
 11
-212.4572846318199
 21
52.46956890935255
 31
0.0
  0
LINE
  5
148AF
  8
0
 10
-216.4572846318199
 20
62.86957821653866
 30
0.0
 11
-212.4572846318199
 21
63.66956890936123
 31
0.0
  0
LINE
  5
148B0
  8
0
 10
-216.4572846318199
 20
66.0695782165387
 30
0.0
 11
-212.4572846318199
 21
66.86956890936128
 31
0.0
  0
LINE
  5
148B1
  8
0
 10
-212.4572846318199
 20
66.86956890936128
 30
0.0
 11
-212.9572846318199
 21
66.9695700727585
 31
0.0
  0
LINE
  5
148B2
  8
0
 10
-215.9572846318199
 20
67.5695770531415
 30
0.0
 11
-216.4572846318199
 21
67.66957821653872
 31
0.0
  0
LINE
  5
148B3
  8
0
 10
-212.4572846318199
 20
63.66956890936123
 30
0.0
 11
-212.9572846318199
 21
63.76957007275846
 31
0.0
  0
LINE
  5
148B4
  8
0
 10
-212.4572846318199
 20
65.26956890936137
 30
0.0
 11
-212.9572846318199
 21
65.36957007275848
 31
0.0
  0
LINE
  5
148B5
  8
0
 10
-215.9572846318199
 20
65.96957705314159
 30
0.0
 11
-216.4572846318199
 21
66.0695782165387
 31
0.0
  0
LINE
  5
148B6
  8
0
 10
-215.9572846318199
 20
64.36957705314168
 30
0.0
 11
-216.4572846318199
 21
64.46957821653879
 31
0.0
  0
LINE
  5
148B7
  8
0
 10
-216.4572846318199
 20
64.46957821653879
 30
0.0
 11
-212.4572846318199
 21
65.26956890936137
 31
0.0
  0
LINE
  5
148B8
  8
0
 10
-213.1365057884307
 20
73.26957048976962
 30
0.0
 11
-213.6882552522339
 21
73.45233463239762
 31
0.0
  0
LINE
  5
148B9
  8
0
 10
-212.4572846318199
 20
70.06956890936132
 30
0.0
 11
-212.9572846318199
 21
70.16957007275843
 31
0.0
  0
LINE
  5
148BA
  8
0
 10
-212.4572846318199
 20
68.4695689093613
 30
0.0
 11
-212.9572846318199
 21
68.5695700727583
 31
0.0
  0
LINE
  5
148BB
  8
0
 10
-212.6836916840239
 20
71.66956943616398
 30
0.0
 11
-213.220285419295
 21
71.79884013379385
 31
0.0
  0
LINE
  5
148BC
  8
0
 10
-215.5363700346112
 20
72.35680765057847
 30
0.0
 11
-216.0044684897612
 21
72.46957716292852
 31
0.0
  0
LINE
  5
148BD
  8
0
 10
-215.9572846318199
 20
69.16957705314164
 30
0.0
 11
-216.4572846318199
 21
69.26957821653875
 31
0.0
  0
LINE
  5
148BE
  8
0
 10
-215.9572846318199
 20
70.76957705314155
 30
0.0
 11
-216.4572846318199
 21
70.86957821653866
 31
0.0
  0
LINE
  5
148BF
  8
0
 10
-215.0944831410818
 20
73.91814031288388
 30
0.0
 11
-215.5516549817129
 21
74.06957610932429
 31
0.0
  0
LINE
  5
148C0
  8
0
 10
-216.0044684897612
 20
72.46957716292852
 30
0.0
 11
-213.1365057884307
 21
73.26957048976962
 31
0.0
  0
LINE
  5
148C1
  8
0
 10
-216.4572846318199
 20
69.26957821653875
 30
0.0
 11
-212.4572846318199
 21
70.06956890936132
 31
0.0
  0
LINE
  5
148C2
  8
0
 10
-216.4572846318199
 20
70.86957821653866
 30
0.0
 11
-212.6836916840239
 21
71.66956943616398
 31
0.0
  0
LINE
  5
148C3
  8
0
 10
-216.4572846318199
 20
67.66957821653872
 30
0.0
 11
-212.4572846318199
 21
68.4695689093613
 31
0.0
  0
LINE
  5
148C4
  8
0
 10
-216.4572846318199
 20
54.86957821653434
 30
0.0
 11
-212.4572846318199
 21
55.66956890935259
 31
0.0
  0
LINE
  5
148C5
  8
0
 10
-212.4572846318199
 20
55.66956890935259
 30
0.0
 11
-212.9572846318199
 21
55.76957007275027
 31
0.0
  0
LINE
  5
148C6
  8
0
 10
-215.9572846318199
 20
56.369577053141
 30
0.0
 11
-216.4572846318199
 21
56.46957821653868
 31
0.0
  0
LINE
  5
148C7
  8
0
 10
-212.4572846318199
 20
54.06956890935245
 30
0.0
 11
-212.9572846318199
 21
54.16957007275013
 31
0.0
  0
LINE
  5
148C8
  8
0
 10
-212.4572846318199
 20
52.46956890935255
 30
0.0
 11
-212.9572846318199
 21
52.56957007275022
 31
0.0
  0
LINE
  5
148C9
  8
0
 10
-215.9572846318199
 20
54.76957705313666
 30
0.0
 11
-216.4572846318199
 21
54.86957821653434
 31
0.0
  0
LINE
  5
148CA
  8
0
 10
-215.9572846318199
 20
53.16957705313652
 30
0.0
 11
-216.4572846318199
 21
53.2695782165342
 31
0.0
  0
LINE
  5
148CB
  8
0
 10
-216.4572846318199
 20
53.2695782165342
 30
0.0
 11
-212.4572846318199
 21
54.06956890935245
 31
0.0
  0
LINE
  5
148CC
  8
0
 10
-212.4572846318199
 20
60.46956890935698
 30
0.0
 11
-212.9572846318199
 21
60.56957007275466
 31
0.0
  0
LINE
  5
148CD
  8
0
 10
-212.4572846318199
 20
62.06956890936132
 30
0.0
 11
-212.9572846318199
 21
62.16957007275843
 31
0.0
  0
LINE
  5
148CE
  8
0
 10
-212.4572846318199
 20
57.26956890935693
 30
0.0
 11
-212.9572846318199
 21
57.36957007275461
 31
0.0
  0
LINE
  5
148CF
  8
0
 10
-212.4572846318199
 20
58.86956890935684
 30
0.0
 11
-212.9572846318199
 21
58.96957007275452
 31
0.0
  0
LINE
  5
148D0
  8
0
 10
-215.9572846318199
 20
62.76957705314155
 30
0.0
 11
-216.4572846318199
 21
62.86957821653866
 31
0.0
  0
LINE
  5
148D1
  8
0
 10
-215.9572846318199
 20
61.16957705314096
 30
0.0
 11
-216.4572846318199
 21
61.26957821653875
 31
0.0
  0
LINE
  5
148D2
  8
0
 10
-215.9572846318199
 20
57.96957705314091
 30
0.0
 11
-216.4572846318199
 21
58.06957821653859
 31
0.0
  0
LINE
  5
148D3
  8
0
 10
-215.9572846318199
 20
59.56957705314105
 30
0.0
 11
-216.4572846318199
 21
59.66957821653872
 31
0.0
  0
LINE
  5
148D4
  8
0
 10
-216.4572846318199
 20
59.66957821653872
 30
0.0
 11
-212.4572846318199
 21
60.46956890935698
 31
0.0
  0
LINE
  5
148D5
  8
0
 10
-216.4572846318199
 20
61.26957821653875
 30
0.0
 11
-212.4572846318199
 21
62.06956890936132
 31
0.0
  0
LINE
  5
148D6
  8
0
 10
-216.4572846318199
 20
58.06957821653859
 30
0.0
 11
-212.4572846318199
 21
58.86956890935684
 31
0.0
  0
LINE
  5
148D7
  8
0
 10
-216.4572846318199
 20
56.46957821653868
 30
0.0
 11
-212.4572846318199
 21
57.26956890935693
 31
0.0
  0
LINE
  5
148D8
  8
0
 10
-215.9572846318199
 20
46.76957705313245
 30
0.0
 11
-216.4572846318199
 21
46.86957821653013
 31
0.0
  0
LINE
  5
148D9
  8
0
 10
-216.4572846318199
 20
46.86957821653013
 30
0.0
 11
-212.4572846318199
 21
47.66956890934838
 31
0.0
  0
LINE
  5
148DA
  8
0
 10
-212.4572846318199
 20
47.66956890934838
 30
0.0
 11
-212.9572846318199
 21
47.76957007274606
 31
0.0
  0
LINE
  5
148DB
  8
0
 10
-215.9572846318199
 20
48.36957705313236
 30
0.0
 11
-216.4572846318199
 21
48.46957821653004
 31
0.0
  0
LINE
  5
148DC
  8
0
 10
-215.9572846318199
 20
49.96957705313227
 30
0.0
 11
-216.4572846318199
 21
50.06957821652995
 31
0.0
  0
LINE
  5
148DD
  8
0
 10
-216.4572846318199
 20
50.06957821652995
 30
0.0
 11
-212.4572846318199
 21
50.8695689093482
 31
0.0
  0
LINE
  5
148DE
  8
0
 10
-212.4572846318199
 20
49.26956890934829
 30
0.0
 11
-212.9572846318199
 21
49.36957007274597
 31
0.0
  0
LINE
  5
148DF
  8
0
 10
-212.4572846318199
 20
50.8695689093482
 30
0.0
 11
-212.9572846318199
 21
50.96957007274588
 31
0.0
  0
LINE
  5
148E0
  8
0
 10
-216.4572846318199
 20
48.46957821653004
 30
0.0
 11
-212.4572846318199
 21
49.26956890934829
 31
0.0
  0
LINE
  5
148E1
  8
0
 10
-215.9572846318199
 20
51.56957705313661
 30
0.0
 11
-216.4572846318199
 21
51.66957821653429
 31
0.0
  0
LINE
  5
148E2
  8
0
 10
-215.9572846318199
 20
45.16957705313254
 30
0.0
 11
-216.4572846318199
 21
45.26957821653022
 31
0.0
  0
LINE
  5
148E3
  8
0
 10
-216.4572846318199
 20
45.26957821653022
 30
0.0
 11
-212.4572846318199
 21
46.06956890934848
 31
0.0
  0
LINE
  5
148E4
  8
0
 10
-212.4572846318199
 20
46.06956890934848
 30
0.0
 11
-212.9572846318199
 21
46.16957007274615
 31
0.0
  0
LINE
  5
148E5
  8
0
 10
-215.9572846318199
 20
43.56957705313263
 30
0.0
 11
-216.4572846318199
 21
43.66957821653031
 31
0.0
  0
LINE
  5
148E6
  8
0
 10
-216.4572846318199
 20
43.66957821653031
 30
0.0
 11
-212.4572846318199
 21
44.46956890934857
 31
0.0
  0
LINE
  5
148E7
  8
0
 10
-212.4572846318199
 20
44.46956890934857
 30
0.0
 11
-212.9572846318199
 21
44.56957007274625
 31
0.0
  0
LINE
  5
148E8
  8
0
 10
-215.9572846318199
 20
41.96957705313272
 30
0.0
 11
-216.4572846318199
 21
42.0695782165304
 31
0.0
  0
LINE
  5
148E9
  8
0
 10
-216.4572846318199
 20
42.0695782165304
 30
0.0
 11
-212.4572846318199
 21
42.86956890934866
 31
0.0
  0
LINE
  5
148EA
  8
0
 10
-212.4572846318199
 20
42.86956890934866
 30
0.0
 11
-212.9572846318199
 21
42.96957007274634
 31
0.0
  0
LINE
  5
148EB
  8
0
 10
170.064653207116
 20
-167.5787095252621
 30
0.0
 11
164.7646566972543
 21
-166.0787095252621
 31
0.0
  0
LINE
  5
148EC
  8
0
 10
164.7646566972543
 20
-166.0787095252621
 30
0.0
 11
135.0646566973624
 21
-166.0787095252623
 31
0.0
  0
LINE
  5
148ED
  8
0
 10
170.064653207116
 20
-167.5787095252621
 30
0.0
 11
164.7646497168707
 21
-169.0787095252622
 31
0.0
  0
LINE
  5
148EE
  8
0
 10
135.0646613510605
 20
-164.0786629893643
 30
0.0
 11
135.0646450634962
 21
-171.0786629893641
 31
0.0
  0
LINE
  5
148EF
  8
0
 10
164.7646497168707
 20
-169.0787095252622
 30
0.0
 11
135.0646497169777
 21
-169.0787095252623
 31
0.0
  0
LINE
  5
148F0
  8
0
 10
135.0646613510605
 20
-164.0786629893643
 30
0.0
 11
133.9646578608652
 21
-164.0786629893641
 31
0.0
  0
ARC
  5
148F1
  8
0
 10
133.9646578608652
 20
-165.5786629893641
 30
0.0
 40
1.5
 50
90.0
 51
179.9998666844684
  0
LINE
  5
148F2
  8
0
 10
135.0646450634962
 20
-171.0786629893641
 30
0.0
 11
133.9646485536856
 21
-171.0786629893641
 31
0.0
  0
LINE
  5
148F3
  8
0
 10
132.4646578608693
 20
-165.5786594991717
 30
0.0
 11
132.4646485536897
 21
-169.5786594991717
 31
0.0
  0
ARC
  5
148F4
  8
0
 10
133.9646485536856
 20
-169.5786629893641
 30
0.0
 40
1.5
 50
179.9998666844684
 51
270.0
  0
LINE
  5
148F5
  8
1CENTER
 10
171.4954481245814
 20
-167.5786629893641
 30
0.0
 11
131.3943767979695
 21
-167.5786629893641
 31
0.0
  0
LINE
  5
148F6
  8
0
 10
167.9646557534382
 20
-166.4843391753691
 30
0.0
 11
168.7646511874891
 21
-168.4466742642445
 31
0.0
  0
LINE
  5
148F7
  8
0
 10
168.7646511874891
 20
-168.4466742642445
 30
0.0
 11
169.0764210437412
 21
-167.8583976892021
 31
0.0
  0
LINE
  5
148F8
  8
0
 10
145.5646578606482
 20
-165.5787095252621
 30
0.0
 11
146.3646485534664
 21
-169.5787095252621
 31
0.0
  0
LINE
  5
148F9
  8
0
 10
156.7646578606525
 20
-165.5787095252621
 30
0.0
 11
157.5646485534751
 21
-169.5787095252621
 31
0.0
  0
LINE
  5
148FA
  8
0
 10
159.9646578606526
 20
-165.5787095252621
 30
0.0
 11
160.7646485534752
 21
-169.5787095252621
 31
0.0
  0
LINE
  5
148FB
  8
0
 10
160.7646485534752
 20
-169.5787095252621
 30
0.0
 11
160.8646497168724
 21
-169.0787095252621
 31
0.0
  0
LINE
  5
148FC
  8
0
 10
161.4646566972554
 20
-166.0787095252621
 30
0.0
 11
161.5646578606526
 21
-165.5787095252621
 31
0.0
  0
LINE
  5
148FD
  8
0
 10
157.5646485534751
 20
-169.5787095252621
 30
0.0
 11
157.6646497168723
 21
-169.0787095252621
 31
0.0
  0
LINE
  5
148FE
  8
0
 10
159.1646485534752
 20
-169.5787095252621
 30
0.0
 11
159.2646497168724
 21
-169.0787095252621
 31
0.0
  0
LINE
  5
148FF
  8
0
 10
159.8646566972555
 20
-166.0787095252621
 30
0.0
 11
159.9646578606526
 21
-165.5787095252621
 31
0.0
  0
LINE
  5
14900
  8
0
 10
158.2646566972556
 20
-166.0787095252621
 30
0.0
 11
158.3646578606527
 21
-165.5787095252621
 31
0.0
  0
LINE
  5
14901
  8
0
 10
158.3646578606527
 20
-165.5787095252621
 30
0.0
 11
159.1646485534752
 21
-169.5787095252621
 31
0.0
  0
LINE
  5
14902
  8
0
 10
167.1646501338835
 20
-168.8994883686513
 30
0.0
 11
167.3474142765115
 21
-168.347738904848
 31
0.0
  0
LINE
  5
14903
  8
0
 10
163.9646485534752
 20
-169.5787095252621
 30
0.0
 11
164.0646497168723
 21
-169.0787095252621
 31
0.0
  0
LINE
  5
14904
  8
0
 10
162.3646485534752
 20
-169.5787095252621
 30
0.0
 11
162.4646497168722
 21
-169.0787095252621
 31
0.0
  0
LINE
  5
14905
  8
0
 10
165.5646490802779
 20
-169.3523024730581
 30
0.0
 11
165.6939197779077
 21
-168.815708737787
 31
0.0
  0
LINE
  5
14906
  8
0
 10
166.2518872946924
 20
-166.4996241224708
 30
0.0
 11
166.3646568070424
 21
-166.0315256673208
 31
0.0
  0
LINE
  5
14907
  8
0
 10
163.0646566972555
 20
-166.0787095252621
 30
0.0
 11
163.1646578606526
 21
-165.5787095252621
 31
0.0
  0
LINE
  5
14908
  8
0
 10
164.6646566972554
 20
-166.0787095252621
 30
0.0
 11
164.7646578606525
 21
-165.5787095252621
 31
0.0
  0
LINE
  5
14909
  8
0
 10
167.8132199569978
 20
-166.9415110160002
 30
0.0
 11
167.9646557534382
 21
-166.4843391753691
 31
0.0
  0
LINE
  5
1490A
  8
0
 10
166.3646568070424
 20
-166.0315256673208
 30
0.0
 11
167.1646501338835
 21
-168.8994883686513
 31
0.0
  0
LINE
  5
1490B
  8
0
 10
163.1646578606526
 20
-165.5787095252621
 30
0.0
 11
163.9646485534752
 21
-169.5787095252621
 31
0.0
  0
LINE
  5
1490C
  8
0
 10
164.7646578606525
 20
-165.5787095252621
 30
0.0
 11
165.5646490802779
 21
-169.3523024730581
 31
0.0
  0
LINE
  5
1490D
  8
0
 10
161.5646578606526
 20
-165.5787095252621
 30
0.0
 11
162.3646485534752
 21
-169.5787095252621
 31
0.0
  0
LINE
  5
1490E
  8
0
 10
148.7646578606482
 20
-165.5787095252621
 30
0.0
 11
149.5646485534665
 21
-169.5787095252621
 31
0.0
  0
LINE
  5
1490F
  8
0
 10
149.5646485534665
 20
-169.5787095252621
 30
0.0
 11
149.6646497168641
 21
-169.0787095252621
 31
0.0
  0
LINE
  5
14910
  8
0
 10
150.2646566972549
 20
-166.0787095252621
 30
0.0
 11
150.3646578606526
 21
-165.5787095252621
 31
0.0
  0
LINE
  5
14911
  8
0
 10
147.9646485534663
 20
-169.5787095252621
 30
0.0
 11
148.064649716864
 21
-169.0787095252621
 31
0.0
  0
LINE
  5
14912
  8
0
 10
146.3646485534664
 20
-169.5787095252621
 30
0.0
 11
146.4646497168641
 21
-169.0787095252621
 31
0.0
  0
LINE
  5
14913
  8
0
 10
148.6646566972505
 20
-166.0787095252621
 30
0.0
 11
148.7646578606482
 21
-165.5787095252621
 31
0.0
  0
LINE
  5
14914
  8
0
 10
147.0646566972504
 20
-166.0787095252621
 30
0.0
 11
147.1646578606481
 21
-165.5787095252621
 31
0.0
  0
LINE
  5
14915
  8
0
 10
147.1646578606481
 20
-165.5787095252621
 30
0.0
 11
147.9646485534663
 21
-169.5787095252621
 31
0.0
  0
LINE
  5
14916
  8
0
 10
154.3646485534709
 20
-169.5787095252621
 30
0.0
 11
154.4646497168685
 21
-169.0787095252621
 31
0.0
  0
LINE
  5
14917
  8
0
 10
155.9646485534752
 20
-169.5787095252621
 30
0.0
 11
156.0646497168723
 21
-169.0787095252621
 31
0.0
  0
LINE
  5
14918
  8
0
 10
151.1646485534708
 20
-169.5787095252621
 30
0.0
 11
151.2646497168685
 21
-169.0787095252621
 31
0.0
  0
LINE
  5
14919
  8
0
 10
152.7646485534707
 20
-169.5787095252621
 30
0.0
 11
152.8646497168684
 21
-169.0787095252621
 31
0.0
  0
LINE
  5
1491A
  8
0
 10
156.6646566972554
 20
-166.0787095252621
 30
0.0
 11
156.7646578606525
 21
-165.5787095252621
 31
0.0
  0
LINE
  5
1491B
  8
0
 10
155.0646566972548
 20
-166.0787095252621
 30
0.0
 11
155.1646578606526
 21
-165.5787095252621
 31
0.0
  0
LINE
  5
1491C
  8
0
 10
151.8646566972548
 20
-166.0787095252621
 30
0.0
 11
151.9646578606525
 21
-165.5787095252621
 31
0.0
  0
LINE
  5
1491D
  8
0
 10
153.4646566972549
 20
-166.0787095252621
 30
0.0
 11
153.5646578606526
 21
-165.5787095252621
 31
0.0
  0
LINE
  5
1491E
  8
0
 10
153.5646578606526
 20
-165.5787095252621
 30
0.0
 11
154.3646485534709
 21
-169.5787095252621
 31
0.0
  0
LINE
  5
1491F
  8
0
 10
155.1646578606526
 20
-165.5787095252621
 30
0.0
 11
155.9646485534752
 21
-169.5787095252621
 31
0.0
  0
LINE
  5
14920
  8
0
 10
151.9646578606525
 20
-165.5787095252621
 30
0.0
 11
152.7646485534707
 21
-169.5787095252621
 31
0.0
  0
LINE
  5
14921
  8
0
 10
150.3646578606526
 20
-165.5787095252621
 30
0.0
 11
151.1646485534708
 21
-169.5787095252621
 31
0.0
  0
LINE
  5
14922
  8
0
 10
140.6646566972463
 20
-166.0787095252621
 30
0.0
 11
140.764657860644
 21
-165.5787095252621
 31
0.0
  0
LINE
  5
14923
  8
0
 10
140.764657860644
 20
-165.5787095252621
 30
0.0
 11
141.5646485534623
 21
-169.5787095252621
 31
0.0
  0
LINE
  5
14924
  8
0
 10
141.5646485534623
 20
-169.5787095252621
 30
0.0
 11
141.6646497168599
 21
-169.0787095252621
 31
0.0
  0
LINE
  5
14925
  8
0
 10
142.2646566972462
 20
-166.0787095252621
 30
0.0
 11
142.3646578606439
 21
-165.5787095252621
 31
0.0
  0
LINE
  5
14926
  8
0
 10
143.8646566972461
 20
-166.0787095252621
 30
0.0
 11
143.9646578606438
 21
-165.5787095252621
 31
0.0
  0
LINE
  5
14927
  8
0
 10
143.9646578606438
 20
-165.5787095252621
 30
0.0
 11
144.7646485534621
 21
-169.5787095252621
 31
0.0
  0
LINE
  5
14928
  8
0
 10
143.1646485534622
 20
-169.5787095252621
 30
0.0
 11
143.2646497168599
 21
-169.0787095252621
 31
0.0
  0
LINE
  5
14929
  8
0
 10
144.7646485534621
 20
-169.5787095252621
 30
0.0
 11
144.8646497168598
 21
-169.0787095252621
 31
0.0
  0
LINE
  5
1492A
  8
0
 10
142.3646578606439
 20
-165.5787095252621
 30
0.0
 11
143.1646485534622
 21
-169.5787095252621
 31
0.0
  0
LINE
  5
1492B
  8
0
 10
145.4646566972505
 20
-166.0787095252621
 30
0.0
 11
145.5646578606482
 21
-165.5787095252621
 31
0.0
  0
LINE
  5
1492C
  8
0
 10
139.0646566972464
 20
-166.0787095252621
 30
0.0
 11
139.1646578606441
 21
-165.5787095252621
 31
0.0
  0
LINE
  5
1492D
  8
0
 10
139.1646578606441
 20
-165.5787095252621
 30
0.0
 11
139.9646485534624
 21
-169.5787095252621
 31
0.0
  0
LINE
  5
1492E
  8
0
 10
139.9646485534624
 20
-169.5787095252621
 30
0.0
 11
140.06464971686
 21
-169.0787095252621
 31
0.0
  0
LINE
  5
1492F
  8
0
 10
137.4646566972465
 20
-166.0787095252621
 30
0.0
 11
137.5646578606442
 21
-165.5787095252621
 31
0.0
  0
LINE
  5
14930
  8
0
 10
137.5646578606442
 20
-165.5787095252621
 30
0.0
 11
138.3646485534624
 21
-169.5787095252621
 31
0.0
  0
LINE
  5
14931
  8
0
 10
138.3646485534624
 20
-169.5787095252621
 30
0.0
 11
138.4646497168601
 21
-169.0787095252621
 31
0.0
  0
LINE
  5
14932
  8
0
 10
135.8646566972466
 20
-166.0787095252621
 30
0.0
 11
135.9646578606443
 21
-165.5787095252621
 31
0.0
  0
LINE
  5
14933
  8
0
 10
135.9646578606443
 20
-165.5787095252621
 30
0.0
 11
136.7646485534625
 21
-169.5787095252621
 31
0.0
  0
LINE
  5
14934
  8
0
 10
136.7646485534625
 20
-169.5787095252621
 30
0.0
 11
136.8646497168602
 21
-169.0787095252621
 31
0.0
  0
LINE
  5
14935
  8
1DIM
 10
171.4954481245815
 20
-167.5786629893641
 30
0.0
 11
218.7978219173567
 21
-167.5786629893642
 31
0.0
1001
ACAD
1000
DSTYLE
1002
{
1070
    40
1040
2.0
1002
}
  0
LINE
  5
14936
  8
1DIM
 10
171.4954481245815
 20
-149.578662989365
 30
0.0
 11
218.7978219173567
 21
-149.578662989365
 31
0.0
1001
ACAD
1000
DSTYLE
1002
{
1070
    40
1040
2.0
1002
}
  0
LINE
  5
14937
  8
1DIM
 10
216.7978219173567
 20
-153.578662989365
 30
0.0
 11
216.7978219173567
 21
-163.5786629893642
 31
0.0
1001
ACAD
1000
DSTYLE
1002
{
1070
    40
1040
2.0
1002
}
  0
LINE
  5
14938
  8
1DIM
 10
216.7978219173567
 20
-167.5786629893642
 30
0.0
 11
216.7978219173567
 21
-201.5714030597008
 31
0.0
1001
ACAD
1000
DSTYLE
1002
{
1070
    40
1040
2.0
1002
}
  0
LINE
  5
1493C
  8
1PHANTOM
 10
118.2646532072828
 20
-169.0804264368339
 30
0.0
 11
125.864653207283
 21
-169.0804264368339
 31
0.0
  0
LINE
  5
1493D
  8
1PHANTOM
 10
118.2646532072828
 20
-169.0804264368339
 30
0.0
 11
118.2646532072828
 21
-170.0804264368338
 31
0.0
  0
LINE
  5
1493E
  8
1PHANTOM
 10
118.264653207281
 20
-170.0804264368367
 30
0.0
 11
125.8646532072812
 21
-170.0804264368367
 31
0.0
  0
LINE
  5
1493F
  8
1PHANTOM
 10
125.8646532072831
 20
-169.0804264368358
 30
0.0
 11
125.8646532072831
 21
-170.0804264368356
 31
0.0
  0
SOLID
  5
14940
  8
1DIM
 10
139.3440524911578
 20
-176.8764509447242
 30
0.0
 11
138.4030917703151
 21
-175.0804264368339
 31
0.0
 12
139.8756841844821
 22
-176.4741920888892
 32
0.0
 13
139.8756841844821
 23
-176.4741920888892
 33
0.0
1001
ACAD
1000
DSTYLE
1002
{
1070
    45
1040
0.5
1002
}
  0
LINE
  5
14941
  8
1DIM
 10
139.6098683378199
 20
-176.6753215168067
 30
0.0
 11
180.5470421805472
 21
-230.7785407106887
 31
0.0
1001
ACAD
1000
DSTYLE
1002
{
1070
    45
1040
0.5
1002
}
  0
LINE
  5
14942
  8
1DIM
 10
180.5470421805472
 20
-230.7785407106887
 30
0.0
 11
272.3803755138806
 21
-230.7785407106887
 31
0.0
1001
ACAD
1000
DSTYLE
1002
{
1070
    45
1040
0.5
1002
}
  0
TEXT
  5
14943
  8
1DIM
  6
CONTINUOUS
 10
182.7803755138805
 20
-218.411874044022
 30
0.0
 40
7.0
  1
材質：亜鉛ダイキャスト
  0
TEXT
  5
14944
  8
1DIM
  6
CONTINUOUS
 10
183.0137088472138
 20
-230.0785407106887
 30
0.0
 40
7.0
  1
仕上げ：各種メッキ
  0
SOLID
  5
14945
  8
1DIM
 10
31.44972305943453
 20
-166.7621067548311
 30
0.0
 11
32.64182680772001
 21
-165.1219848799587
 31
0.0
 12
32.04609251875992
 22
-167.0600797610387
 32
0.0
 13
32.04609251875992
 23
-167.0600797610387
 33
0.0
1001
ACAD
1000
DSTYLE
1002
{
1070
    45
1040
0.5
1002
}
  0
LINE
  5
14946
  8
1DIM
 10
31.74790778909723
 20
-166.9110932579349
 30
0.0
 11
-46.95012214195688
 21
-324.418990222461
 31
0.0
1001
ACAD
1000
DSTYLE
1002
{
1070
    45
1040
0.5
1002
}
  0
LINE
  5
14947
  8
1DIM
 10
-46.95012214195688
 20
-324.418990222461
 30
0.0
 11
-138.7834554752902
 21
-324.418990222461
 31
0.0
1001
ACAD
1000
DSTYLE
1002
{
1070
    45
1040
0.5
1002
}
  0
TEXT
  5
14948
  8
1DIM
  6
CONTINUOUS
 10
-139.2501221419569
 20
-312.0523235557944
 30
0.0
 40
7.0
  1
材質：亜鉛ダイキャスト
  0
TEXT
  5
14949
  8
1DIM
  6
CONTINUOUS
 10
-123.3834554752902
 20
-323.7189902224611
 30
0.0
 40
7.0
  1
仕上げ：各種メッキ
  0
SOLID
  5
1494A
  8
1DIM
 10
56.55787816149328
 20
-207.4321180809745
 30
0.0
 11
55.68466210550559
 21
-205.6021987301078
 31
0.0
 12
57.1041646506399
 22
-207.0499983141209
 32
0.0
 13
57.1041646506399
 23
-207.0499983141209
 33
0.0
1001
ACAD
1000
DSTYLE
1002
{
1070
    45
1040
0.5
1002
}
  0
LINE
  5
1494B
  8
1DIM
 10
56.83102140606659
 20
-207.2410581975477
 30
0.0
 11
126.5146182040058
 21
-306.8621999126088
 31
0.0
1001
ACAD
1000
DSTYLE
1002
{
1070
    45
1040
0.5
1002
}
  0
LINE
  5
1494C
  8
1DIM
 10
126.5146182040058
 20
-306.8621999126088
 30
0.0
 11
218.3479515373392
 21
-306.8621999126088
 31
0.0
1001
ACAD
1000
DSTYLE
1002
{
1070
    45
1040
0.5
1002
}
  0
TEXT
  5
1494D
  8
1DIM
  6
CONTINUOUS
 10
128.7479515373391
 20
-294.4955332459422
 30
0.0
 40
7.0
  1
材質：亜鉛ダイキャスト
  0
TEXT
  5
1494E
  8
1DIM
  6
CONTINUOUS
 10
128.9812848706725
 20
-306.1621999126089
 30
0.0
 40
7.0
  1
仕上げ：各種メッキ
  0
LINE
  5
1494F
  8
1DIM
 10
161.5646532072784
 20
-124.0804264368339
 30
0.0
 11
218.7978219173567
 21
-124.0804264368339
 31
0.0
1001
ACAD
1000
DSTYLE
1002
{
1070
    40
1040
2.0
1002
}
  0
LINE
  5
14950
  8
1DIM
 10
171.4954481245814
 20
-139.5786629893651
 30
0.0
 11
218.7978219173567
 21
-139.5786629893651
 31
0.0
1001
ACAD
1000
DSTYLE
1002
{
1070
    40
1040
2.0
1002
}
  0
LINE
  5
14951
  8
1DIM
 10
216.7978219173567
 20
-135.5786629893651
 30
0.0
 11
216.7978219173567
 21
-128.0804264368339
 31
0.0
1001
ACAD
1000
DSTYLE
1002
{
1070
    40
1040
2.0
1002
}
  0
LINE
  5
14952
  8
1DIM
 10
216.7978219173567
 20
-124.0804264368339
 30
0.0
 11
216.7978219173567
 21
-95.92606570591768
 31
0.0
1001
ACAD
1000
DSTYLE
1002
{
1070
    40
1040
2.0
1002
}
  0
LINE
  5
14956
  8
1DIM
 10
171.4954481245814
 20
-139.5786629893651
 30
0.0
 11
218.7978219173567
 21
-139.5786629893651
 31
0.0
1001
ACAD
1000
DSTYLE
1002
{
1070
    40
1040
2.0
1070
   279
1070
     1
1002
}
  0
LINE
  5
14957
  8
1DIM
 10
171.4954481245815
 20
-149.578662989365
 30
0.0
 11
218.7978219173567
 21
-149.578662989365
 31
0.0
1001
ACAD
1000
DSTYLE
1002
{
1070
    40
1040
2.0
1070
   279
1070
     1
1002
}
  0
LINE
  5
14958
  8
1DIM
 10
216.7978219173567
 20
-135.5786629893651
 30
0.0
 11
216.7978219173567
 21
-131.5786629893651
 31
0.0
1001
ACAD
1000
DSTYLE
1002
{
1070
    40
1040
2.0
1070
   279
1070
     1
1002
}
  0
LINE
  5
14959
  8
1DIM
 10
216.7978219173567
 20
-153.578662989365
 30
0.0
 11
216.7978219173567
 21
-157.578662989365
 31
0.0
1001
ACAD
1000
DSTYLE
1002
{
1070
    40
1040
2.0
1070
   279
1070
     1
1002
}
  0
LINE
  5
1495A
  8
1DIM
 10
216.7978219173567
 20
-144.5786629893651
 30
0.0
 11
232.5806703282603
 21
-138.0439839445102
 31
0.0
1001
ACAD
1000
DSTYLE
1002
{
1070
    40
1040
2.0
1070
   279
1070
     1
1002
}
  0
LINE
  5
1495B
  8
1DIM
 10
232.5806703282603
 20
-138.0439839445102
 30
0.0
 11
232.5806703282603
 21
-124.9106506111769
 31
0.0
1001
ACAD
1000
DSTYLE
1002
{
1070
    40
1040
2.0
1070
   279
1070
     1
1002
}
  0
LINE
  5
1495D
  8
1DIM
 10
216.7978219173567
 20
-139.5786629893651
 30
0.0
 11
216.7978219173567
 21
-149.578662989365
 31
0.0
1001
ACAD
1000
DSTYLE
1002
{
1070
    40
1040
2.0
1070
   279
1070
     1
1002
}
  0
LINE
  5
1495E
  8
1DIM
 10
216.7978219173567
 20
-139.5786629893651
 30
0.0
 11
216.7978219173567
 21
-149.578662989365
 31
0.0
1001
ACAD
1000
DSTYLE
1002
{
1070
    40
1040
2.0
1070
   279
1070
     1
1002
}
  0
LINE
  5
14961
  8
0
  6
BYBLOCK
 10
-28.54803817758886
 20
42.16957356316443
 30
0.0
 11
-27.47624141758886
 21
46.16957356316443
 31
0.0
  0
LINE
  5
14962
  8
0
  6
BYBLOCK
 10
-27.47624141758886
 20
46.16957356316443
 30
0.0
 11
-26.40444465758886
 21
42.16957356316443
 31
0.0
  0
LINE
  5
14963
  8
0
  6
BYBLOCK
 10
-27.47624141758886
 20
46.16957356316443
 30
0.0
 11
-27.47624141758886
 21
42.16957356316443
 31
0.0
  0
LINE
  5
14964
  8
0
  6
BYBLOCK
 10
-26.40444465758888
 20
-50.93130027922825
 30
0.0
 11
-27.47624141758888
 21
-54.93130027922825
 31
0.0
  0
LINE
  5
14965
  8
0
  6
BYBLOCK
 10
-27.47624141758888
 20
-54.93130027922825
 30
0.0
 11
-28.54803817758888
 21
-50.93130027922825
 31
0.0
  0
LINE
  5
14966
  8
0
  6
BYBLOCK
 10
-27.47624141758888
 20
-54.93130027922825
 30
0.0
 11
-27.47624141758888
 21
-50.93130027922825
 31
0.0
  0
TEXT
  5
14967
  8
1DIM
  6
CONTINUOUS
 10
-28.87624141758887
 20
-171.0646336125616
 30
0.0
 40
7.0
  1
101 （ペーパー無し最小値）
 50
90.0
1001
ACAD
1000
DSTYLE
1002
{
1070
    40
1040
2.0
1070
    45
1040
0.5
1070
   271
1070
     0
1002
}
  0
LINE
  5
14968
  8
0
  6
BYBLOCK
 10
136.0646532072784
 20
-198.3402663303512
 30
0.0
 11
140.0646532072784
 21
-199.4120630903512
 31
0.0
  0
LINE
  5
14969
  8
0
  6
BYBLOCK
 10
140.0646532072784
 20
-199.4120630903512
 30
0.0
 11
136.0646532072784
 21
-200.4838598503513
 31
0.0
  0
LINE
  5
1496A
  8
0
  6
BYBLOCK
 10
140.0646532072784
 20
-199.4120630903512
 30
0.0
 11
136.0646532072784
 21
-199.4120630903512
 31
0.0
  0
LINE
  5
1496B
  8
0
  6
BYBLOCK
 10
126.0646532072781
 20
-200.4838598503513
 30
0.0
 11
122.0646532072781
 21
-199.4120630903512
 31
0.0
  0
LINE
  5
1496C
  8
0
  6
BYBLOCK
 10
122.0646532072781
 20
-199.4120630903512
 30
0.0
 11
126.0646532072781
 21
-198.3402663303512
 31
0.0
  0
LINE
  5
1496D
  8
0
  6
BYBLOCK
 10
122.0646532072781
 20
-199.4120630903512
 30
0.0
 11
126.0646532072781
 21
-199.4120630903512
 31
0.0
  0
TEXT
  5
1496E
  8
1DIM
  6
CONTINUOUS
 10
126.9568480924748
 20
-198.0120630903512
 30
0.0
 40
7.0
  1
18
1001
ACAD
1000
DSTYLE
1002
{
1070
    40
1040
2.0
1070
    45
1040
0.5
1070
    77
1070
     3
1002
}
  0
TEXT
  5
1496F
  8
1DIM
  6
CONTINUOUS
 10
238.802176173316
 20
-154.2713986590562
 30
0.0
 40
7.0
  1
51
 50
90.0
1001
ACAD
1000
DSTYLE
1002
{
1070
    40
1040
2.0
1070
    45
1040
0.5
1070
   279
1070
     1
1002
}
  0
LINE
  5
14970
  8
0
  6
BYBLOCK
 10
241.273972933316
 20
-171.080426436834
 30
0.0
 11
240.202176173316
 21
-175.080426436834
 31
0.0
  0
LINE
  5
14971
  8
0
  6
BYBLOCK
 10
240.202176173316
 20
-175.080426436834
 30
0.0
 11
239.130379413316
 21
-171.080426436834
 31
0.0
  0
LINE
  5
14972
  8
0
  6
BYBLOCK
 10
240.202176173316
 20
-175.080426436834
 30
0.0
 11
240.202176173316
 21
-171.080426436834
 31
0.0
  0
LINE
  5
14973
  8
0
  6
BYBLOCK
 10
239.130379413316
 20
-128.080426436834
 30
0.0
 11
240.202176173316
 21
-124.080426436834
 31
0.0
  0
LINE
  5
14974
  8
0
  6
BYBLOCK
 10
240.202176173316
 20
-124.080426436834
 30
0.0
 11
241.273972933316
 21
-128.080426436834
 31
0.0
  0
LINE
  5
14975
  8
0
  6
BYBLOCK
 10
240.202176173316
 20
-124.080426436834
 30
0.0
 11
240.202176173316
 21
-128.080426436834
 31
0.0
  0
LINE
  5
14976
  8
0
  6
BYBLOCK
 10
-167.9573311677178
 20
89.932394388086
 30
0.0
 11
-163.9573311677178
 21
88.860597628086
 31
0.0
  0
LINE
  5
14977
  8
0
  6
BYBLOCK
 10
-163.9573311677178
 20
88.860597628086
 30
0.0
 11
-167.9573311677178
 21
87.788800868086
 31
0.0
  0
LINE
  5
14978
  8
0
  6
BYBLOCK
 10
-163.9573311677178
 20
88.860597628086
 30
0.0
 11
-167.9573311677178
 21
88.860597628086
 31
0.0
  0
LINE
  5
14979
  8
0
  6
BYBLOCK
 10
-224.9573311677178
 20
87.788800868086
 30
0.0
 11
-228.9573311677178
 21
88.860597628086
 31
0.0
  0
LINE
  5
1497A
  8
0
  6
BYBLOCK
 10
-228.9573311677178
 20
88.860597628086
 30
0.0
 11
-224.9573311677178
 21
89.932394388086
 31
0.0
  0
LINE
  5
1497B
  8
0
  6
BYBLOCK
 10
-228.9573311677178
 20
88.860597628086
 30
0.0
 11
-224.9573311677178
 21
88.860597628086
 31
0.0
  0
TEXT
  5
1497C
  8
1DIM
  6
CONTINUOUS
 10
-203.0552398195684
 20
90.260597628086
 30
0.0
 40
7.0
  1
65
1001
ACAD
1000
DSTYLE
1002
{
1070
    40
1040
2.0
1070
    45
1040
0.5
1002
}
  0
LINE
  5
1497D
  8
0
  6
BYBLOCK
 10
-210.4573311677175
 20
-107.7549001409572
 30
0.0
 11
-214.4573311677175
 21
-106.6831033809572
 31
0.0
  0
LINE
  5
1497E
  8
0
  6
BYBLOCK
 10
-214.4573311677175
 20
-106.6831033809572
 30
0.0
 11
-210.4573311677175
 21
-105.6113066209573
 31
0.0
  0
LINE
  5
1497F
  8
0
  6
BYBLOCK
 10
-214.4573311677175
 20
-106.6831033809572
 30
0.0
 11
-210.4573311677175
 21
-106.6831033809572
 31
0.0
  0
LINE
  5
14980
  8
0
  6
BYBLOCK
 10
-182.4573311677175
 20
-105.6113066209573
 30
0.0
 11
-178.4573311677175
 21
-106.6831033809572
 31
0.0
  0
LINE
  5
14981
  8
0
  6
BYBLOCK
 10
-178.4573311677175
 20
-106.6831033809572
 30
0.0
 11
-182.4573311677175
 21
-107.7549001409572
 31
0.0
  0
LINE
  5
14982
  8
0
  6
BYBLOCK
 10
-178.4573311677175
 20
-106.6831033809572
 30
0.0
 11
-182.4573311677175
 21
-106.6831033809572
 31
0.0
  0
TEXT
  5
14983
  8
1DIM
  6
CONTINUOUS
 10
-204.7371702418159
 20
-105.2831033809572
 30
0.0
 40
7.0
  1
P36
1001
ACAD
1000
DSTYLE
1002
{
1070
    40
1040
2.0
1070
    45
1040
0.5
1002
}
  0
LINE
  5
14984
  8
0
  6
BYBLOCK
 10
-335.4572574460893
 20
-86.75222319683392
 30
0.0
 11
-339.4572574460893
 21
-85.68042643683393
 31
0.0
  0
LINE
  5
14985
  8
0
  6
BYBLOCK
 10
-339.4572574460893
 20
-85.68042643683393
 30
0.0
 11
-335.4572574460893
 21
-84.60862967683393
 31
0.0
  0
LINE
  5
14986
  8
0
  6
BYBLOCK
 10
-339.4572574460893
 20
-85.68042643683393
 30
0.0
 11
-335.4572574460893
 21
-85.68042643683393
 31
0.0
  0
LINE
  5
14987
  8
0
  6
BYBLOCK
 10
-57.45747581194473
 20
-84.60862967683393
 30
0.0
 11
-53.45747581194473
 21
-85.68042643683393
 31
0.0
  0
LINE
  5
14988
  8
0
  6
BYBLOCK
 10
-53.45747581194473
 20
-85.68042643683393
 30
0.0
 11
-57.45747581194473
 21
-86.75222319683392
 31
0.0
  0
LINE
  5
14989
  8
0
  6
BYBLOCK
 10
-53.45747581194473
 20
-85.68042643683393
 30
0.0
 11
-57.45747581194473
 21
-85.68042643683393
 31
0.0
  0
TEXT
  5
1498A
  8
1DIM
  6
CONTINUOUS
 10
-205.7906999623504
 20
-84.28042643683392
 30
0.0
 40
7.0
  1
286
1001
ACAD
1000
DSTYLE
1002
{
1070
    40
1040
2.0
1070
    45
1040
0.5
1002
}
  0
LINE
  5
1498B
  8
0
  6
BYBLOCK
 10
86.53930634772598
 20
-72.48467462355406
 30
0.0
 11
82.53930634772598
 21
-71.41287786355406
 31
0.0
  0
LINE
  5
1498C
  8
0
  6
BYBLOCK
 10
82.53930634772598
 20
-71.41287786355406
 30
0.0
 11
86.53930634772598
 21
-70.34108110355406
 31
0.0
  0
LINE
  5
1498D
  8
0
  6
BYBLOCK
 10
82.53930634772598
 20
-71.41287786355406
 30
0.0
 11
86.53930634772598
 21
-71.41287786355406
 31
0.0
  0
LINE
  5
1498E
  8
0
  6
BYBLOCK
 10
136.0646532072784
 20
-70.34108110355406
 30
0.0
 11
140.0646532072784
 21
-71.41287786355406
 31
0.0
  0
LINE
  5
1498F
  8
0
  6
BYBLOCK
 10
140.0646532072784
 20
-71.41287786355406
 30
0.0
 11
136.0646532072784
 21
-72.48467462355406
 31
0.0
  0
LINE
  5
14990
  8
0
  6
BYBLOCK
 10
140.0646532072784
 20
-71.41287786355406
 30
0.0
 11
136.0646532072784
 21
-71.41287786355406
 31
0.0
  0
TEXT
  5
14991
  8
1DIM
  6
CONTINUOUS
 10
102.2287973550711
 20
-70.01287786355405
 30
0.0
 40
7.0
  1
57.5
1001
ACAD
1000
DSTYLE
1002
{
1070
    40
1040
2.0
1070
    45
1040
0.5
1002
}
  0
LINE
  5
14992
  8
0
  6
BYBLOCK
 10
13.82690487889306
 20
-51.32508844115263
 30
0.0
 11
9.826904878893055
 21
-50.25329168115263
 31
0.0
  0
LINE
  5
14993
  8
0
  6
BYBLOCK
 10
9.826904878893055
 20
-50.25329168115263
 30
0.0
 11
13.82690487889306
 21
-49.18149492115263
 31
0.0
  0
LINE
  5
14994
  8
0
  6
BYBLOCK
 10
9.826904878893055
 20
-50.25329168115263
 30
0.0
 11
13.82690487889306
 21
-50.25329168115263
 31
0.0
  0
LINE
  5
14995
  8
0
  6
BYBLOCK
 10
136.0646532072784
 20
-49.18149492115263
 30
0.0
 11
140.0646532072784
 21
-50.25329168115263
 31
0.0
  0
LINE
  5
14996
  8
0
  6
BYBLOCK
 10
140.0646532072784
 20
-50.25329168115263
 30
0.0
 11
136.0646532072784
 21
-51.32508844115263
 31
0.0
  0
LINE
  5
14997
  8
0
  6
BYBLOCK
 10
140.0646532072784
 20
-50.25329168115263
 30
0.0
 11
136.0646532072784
 21
-50.25329168115263
 31
0.0
  0
TEXT
  5
14998
  8
1DIM
  6
CONTINUOUS
 10
21.27911237641906
 20
-48.85329168115263
 30
0.0
 40
7.0
  1
130 （ペーパー付き最大値）
1001
ACAD
1000
DSTYLE
1002
{
1070
    40
1040
2.0
1070
    45
1040
0.5
1070
   271
1070
     0
1002
}
  0
LINE
  5
14999
  8
0
  6
BYBLOCK
 10
215.7260251573567
 20
-153.578662989365
 30
0.0
 11
216.7978219173567
 21
-149.578662989365
 31
0.0
  0
LINE
  5
1499A
  8
0
  6
BYBLOCK
 10
216.7978219173567
 20
-149.578662989365
 30
0.0
 11
217.8696186773567
 21
-153.578662989365
 31
0.0
  0
LINE
  5
1499B
  8
0
  6
BYBLOCK
 10
216.7978219173567
 20
-149.578662989365
 30
0.0
 11
216.7978219173567
 21
-153.578662989365
 31
0.0
  0
LINE
  5
1499C
  8
0
  6
BYBLOCK
 10
217.8696186773567
 20
-163.5786629893642
 30
0.0
 11
216.7978219173567
 21
-167.5786629893642
 31
0.0
  0
LINE
  5
1499D
  8
0
  6
BYBLOCK
 10
216.7978219173567
 20
-167.5786629893642
 30
0.0
 11
215.7260251573567
 21
-163.5786629893642
 31
0.0
  0
LINE
  5
1499E
  8
0
  6
BYBLOCK
 10
216.7978219173567
 20
-167.5786629893642
 30
0.0
 11
216.7978219173567
 21
-163.5786629893642
 31
0.0
  0
TEXT
  5
1499F
  8
1DIM
  6
CONTINUOUS
 10
215.3978219173567
 20
-199.3380697263674
 30
0.0
 40
7.0
  1
P18
 50
90.0
1001
ACAD
1000
DSTYLE
1002
{
1070
    40
1040
2.0
1002
}
  0
LINE
  5
149A0
  8
0
  6
BYBLOCK
 10
217.8696186773567
 20
-135.5786629893651
 30
0.0
 11
216.7978219173567
 21
-139.5786629893651
 31
0.0
  0
LINE
  5
149A1
  8
0
  6
BYBLOCK
 10
216.7978219173567
 20
-139.5786629893651
 30
0.0
 11
215.7260251573567
 21
-135.5786629893651
 31
0.0
  0
LINE
  5
149A2
  8
0
  6
BYBLOCK
 10
216.7978219173567
 20
-139.5786629893651
 30
0.0
 11
216.7978219173567
 21
-135.5786629893651
 31
0.0
  0
LINE
  5
149A3
  8
0
  6
BYBLOCK
 10
215.7260251573567
 20
-128.0804264368339
 30
0.0
 11
216.7978219173567
 21
-124.0804264368339
 31
0.0
  0
LINE
  5
149A4
  8
0
  6
BYBLOCK
 10
216.7978219173567
 20
-124.0804264368339
 30
0.0
 11
217.8696186773567
 21
-128.0804264368339
 31
0.0
  0
LINE
  5
149A5
  8
0
  6
BYBLOCK
 10
216.7978219173567
 20
-124.0804264368339
 30
0.0
 11
216.7978219173567
 21
-128.0804264368339
 31
0.0
  0
TEXT
  5
149A6
  8
1DIM
  6
CONTINUOUS
 10
215.3978219173567
 20
-116.8503712614732
 30
0.0
 40
7.0
  1
15.5
 50
90.0
1001
ACAD
1000
DSTYLE
1002
{
1070
    40
1040
2.0
1002
}
  0
TEXT
  5
149A7
  8
1DIM
  6
CONTINUOUS
 10
231.1806703282603
 20
-135.7064839445101
 30
0.0
 40
7.0
  1
10
 50
90.0
1001
ACAD
1000
DSTYLE
1002
{
1070
    40
1040
2.0
1070
   279
1070
     1
1002
}
  0
LINE
  5
149A8
  8
0
  6
BYBLOCK
 10
217.8696186773567
 20
-135.5786629893651
 30
0.0
 11
216.7978219173567
 21
-139.5786629893651
 31
0.0
  0
LINE
  5
149A9
  8
0
  6
BYBLOCK
 10
216.7978219173567
 20
-139.5786629893651
 30
0.0
 11
215.7260251573567
 21
-135.5786629893651
 31
0.0
  0
LINE
  5
149AA
  8
0
  6
BYBLOCK
 10
216.7978219173567
 20
-139.5786629893651
 30
0.0
 11
216.7978219173567
 21
-135.5786629893651
 31
0.0
  0
LINE
  5
149AB
  8
0
  6
BYBLOCK
 10
215.7260251573567
 20
-153.578662989365
 30
0.0
 11
216.7978219173567
 21
-149.578662989365
 31
0.0
  0
LINE
  5
149AC
  8
0
  6
BYBLOCK
 10
216.7978219173567
 20
-149.578662989365
 30
0.0
 11
217.8696186773567
 21
-153.578662989365
 31
0.0
  0
LINE
  5
149AD
  8
0
  6
BYBLOCK
 10
216.7978219173567
 20
-149.578662989365
 30
0.0
 11
216.7978219173567
 21
-153.578662989365
 31
0.0
  0
VIEWPORT
  5
57
 67
     1
  8
0
 10
0.0
 20
0.0
 30
0.0
 40
629.0235849056603
 41
297.0
 68
     1
 69
     1
1001
ACAD
1000
MVIEW
1002
{
1070
    16
1010
0.0
1020
0.0
1030
0.0
1010
0.0
1020
0.0
1030
1.0
1040
0.0
1040
297.0
1040
5.728000000000009
1040
25.33900000000001
1040
50.0
1040
0.0
1040
0.0
1070
    16
1070
   100
1070
     0
1070
     1
1070
     0
1070
     0
1070
     0
1070
     0
1040
0.0
1040
0.0
1040
0.0
1040
10.0
1040
10.0
1040
10.0
1040
10.0
1070
     0
1002
{
1002
}
1002
}
  0
ENDSEC
  0
EOF
