  0
SECTION
  2
HEADER
  9
$ACADVER
  1
AC1009
  9
$INSBASE
 10
0.0
 20
0.0
 30
0.0
  9
$EXTMIN
 10
153.51624161536529
 20
-734.17133035507504
 30
0.0
  9
$EXTMAX
 10
795.51624161536495
 20
-460.02544149097599
 30
0.0
  9
$LIMMIN
 10
0.0
 20
0.0
  9
$LIMMAX
 10
420.0
 20
297.0
  9
$ORTHOMODE
 70
     0
  9
$REGENMODE
 70
     1
  9
$FILLMODE
 70
     1
  9
$QTEXTMODE
 70
     0
  9
$MIRRTEXT
 70
     0
  9
$DRAGMODE
 70
     2
  9
$LTSCALE
 40
0.5
  9
$OSMODE
 70
  2071
  9
$ATTMODE
 70
     1
  9
$TEXTSIZE
 40
4.0
  9
$TRACEWID
 40
1.0
  9
$TEXTSTYLE
  7
STANDARD
  9
$CLAYER
  8
1TEXT
  9
$CELTYPE
  6
BYLAYER
  9
$CECOLOR
 62
   256
  9
$DIMSCALE
 40
1.0
  9
$DIMASZ
 40
2.0
  9
$DIMEXO
 40
0.0
  9
$DIMDLI
 40
7.0
  9
$DIMRND
 40
0.0
  9
$DIMDLE
 40
0.0
  9
$DIMEXE
 40
1.0
  9
$DIMTP
 40
0.0
  9
$DIMTM
 40
0.0
  9
$DIMTXT
 40
3.5
  9
$DIMCEN
 40
0.0
  9
$DIMTSZ
 40
0.0
  9
$DIMTOL
 70
     0
  9
$DIMLIM
 70
     0
  9
$DIMTIH
 70
     0
  9
$DIMTOH
 70
     0
  9
$DIMSE1
 70
     0
  9
$DIMSE2
 70
     0
  9
$DIMTAD
 70
     1
  9
$DIMZIN
 70
     8
  9
$DIMBLK
  1

  9
$DIMASO
 70
     1
  9
$DIMSHO
 70
     1
  9
$DIMPOST
  1
 
  9
$DIMAPOST
  1

  9
$DIMALT
 70
     0
  9
$DIMALTD
 70
     2
  9
$DIMALTF
 40
25.399999999999999
  9
$DIMLFAC
 40
1.0
  9
$DIMTOFL
 70
     1
  9
$DIMTVP
 40
0.0
  9
$DIMTIX
 70
     0
  9
$DIMSOXD
 70
     0
  9
$DIMSAH
 70
     1
  9
$DIMBLK1
  1
OPEN30
  9
$DIMBLK2
  1
OPEN30
  9
$DIMSTYLE
  2
NEWX10
  9
$DIMCLRD
 70
   256
  9
$DIMCLRE
 70
   256
  9
$DIMCLRT
 70
   201
  9
$DIMTFAC
 40
0.7
  9
$DIMGAP
 40
0.7
  9
$LUNITS
 70
     2
  9
$LUPREC
 70
     4
  9
$SKETCHINC
 40
1.0
  9
$FILLETRAD
 40
0.0
  9
$AUNITS
 70
     0
  9
$AUPREC
 70
     2
  9
$MENU
  1
acad
  9
$ELEVATION
 40
0.0
  9
$PELEVATION
 40
0.0
  9
$THICKNESS
 40
0.0
  9
$LIMCHECK
 70
     0
  9
$BLIPMODE
 70
     0
  9
$CHAMFERA
 40
1.0
  9
$CHAMFERB
 40
1.0
  9
$SKPOLY
 70
     0
  9
$TDCREATE
 40
2453033.7326634838
  9
$TDUPDATE
 40
2457046.3668666789
  9
$TDINDWG
 40
2.4643658333
  9
$TDUSRTIMER
 40
2.4643658333
  9
$USRTIMER
 70
     1
  9
$ANGBASE
 50
0.0
  9
$ANGDIR
 70
     0
  9
$PDMODE
 70
     0
  9
$PDSIZE
 40
0.0
  9
$PLINEWID
 40
0.0
  9
$COORDS
 70
     0
  9
$SPLFRAME
 70
     0
  9
$SPLINETYPE
 70
     6
  9
$SPLINESEGS
 70
     8
  9
$ATTDIA
 70
     0
  9
$ATTREQ
 70
     1
  9
$HANDLING
 70
     1
  9
$HANDSEED
  5
20317
  9
$SURFTAB1
 70
     6
  9
$SURFTAB2
 70
     6
  9
$SURFTYPE
 70
     6
  9
$SURFU
 70
     6
  9
$SURFV
 70
     6
  9
$UCSNAME
  2

  9
$UCSORG
 10
0.0
 20
0.0
 30
0.0
  9
$UCSXDIR
 10
1.0
 20
0.0
 30
0.0
  9
$UCSYDIR
 10
0.0
 20
1.0
 30
0.0
  9
$PUCSNAME
  2

  9
$PUCSORG
 10
0.0
 20
0.0
 30
0.0
  9
$PUCSXDIR
 10
1.0
 20
0.0
 30
0.0
  9
$PUCSYDIR
 10
0.0
 20
1.0
 30
0.0
  9
$USERI1
 70
     0
  9
$USERI2
 70
     0
  9
$USERI3
 70
     0
  9
$USERI4
 70
     0
  9
$USERI5
 70
     0
  9
$USERR1
 40
0.0
  9
$USERR2
 40
0.0
  9
$USERR3
 40
0.0
  9
$USERR4
 40
0.0
  9
$USERR5
 40
0.0
  9
$WORLDVIEW
 70
     1
  9
$SHADEDGE
 70
     3
  9
$SHADEDIF
 70
    70
  9
$TILEMODE
 70
     1
  9
$MAXACTVP
 70
    48
  9
$PLIMCHECK
 70
     0
  9
$PEXTMIN
 10
1.0000000000000000E+020
 20
1.0000000000000000E+020
 30
1.0000000000000000E+020
  9
$PEXTMAX
 10
-1.0000000000000000E+020
 20
-1.0000000000000000E+020
 30
-1.0000000000000000E+020
  9
$PLIMMIN
 10
0.0
 20
0.0
  9
$PLIMMAX
 10
420.0
 20
297.0
  9
$UNITMODE
 70
     0
  9
$VISRETAIN
 70
     1
  9
$PLINEGEN
 70
     0
  9
$PSLTSCALE
 70
     1
  0
ENDSEC
  0
SECTION
  2
TABLES
  0
TABLE
  2
VPORT
 70
     1
  0
VPORT
  2
*ACTIVE
 70
     0
 10
0.0
 20
0.0
 11
1.0
 21
1.0
 12
474.50451309367128
 22
-597.07727624967617
 13
0.0
 23
0.0
 14
10.0
 24
10.0
 15
10.0
 25
10.0
 16
0.0
 26
0.0
 36
1.0
 17
0.0
 27
0.0
 37
0.0
 40
311.81381272539829
 41
2.1749379652605461
 42
50.0
 43
0.0
 44
0.0
 50
0.0
 51
0.0
 71
     0
 72
   100
 73
     1
 74
     1
 75
     0
 76
     0
 77
     0
 78
     0
  0
ENDTAB
  0
TABLE
  2
LTYPE
 70
    11
  0
LTYPE
  2
CONTINUOUS
 70
     0
  3
Solid line
 72
    65
 73
     0
 40
0.0
  0
ENDTAB
  0
TABLE
  2
LAYER
 70
    34
  0
LAYER
  2
0
 70
     0
 62
     7
  6
CONTINUOUS
  0
LAYER
  2
1TEXT
 70
     0
 62
     7
  6
CONTINUOUS
  0
LAYER
  2
01
 70
     0
 62
     1
  6
CONTINUOUS
  0
ENDTAB
  0
TABLE
  2
STYLE
 70
     3
  0
STYLE
  2
STANDARD
 70
     0
 40
0.0
 41
1.0
 50
0.0
 71
     0
 42
4.0
  3
romans.shx
  4
extfont2.shx
  0
ENDTAB
  0
TABLE
  2
VIEW
 70
     5
  0
ENDTAB
  0
TABLE
  2
UCS
 70
     0
  0
ENDTAB
  0
TABLE
  2
APPID
 70
    17
  0
APPID
  2
ACAD
 70
     0
  0
APPID
  2
DRAWINGVARIABLESXDATA
 70
     0
  0
APPID
  2
CONTENTTABDATA
 70
     0
  0
APPID
  2
CONTENTCURRENTTAB
 70
     0
  0
APPID
  2
CONTENTBLOCKDESCRIPTION
 70
     0
  0
APPID
  2
CONTENTBLOCKICON
 70
     0
  0
APPID
  2
CONTENTLONGBLOCKNAME
 70
     0
  0
APPID
  2
ACAD_PSEXT
 70
     0
  0
APPID
  2
ACAD_DSTYLE_DIMTEXT_FILL
 70
     0
  0
APPID
  2
ACAD_MLEADERVER
 70
     0
  0
APPID
  2
ACAD_DSTYLE_DIMRADIAL_EXTENSION
 70
     0
  0
APPID
  2
ACADANNOTATIVE
 70
     0
  0
APPID
  2
ACAD_EXEMPT_FROM_CAD_STANDARDS
 70
     0
  0
APPID
  2
ACAD_NAV_VCDISPLAY
 70
     0
  0
APPID
  2
GRADIENTCOLOR1ACI
 70
     0
  0
APPID
  2
GRADIENTCOLOR2ACI
 70
     0
  0
APPID
  2
ACLAYERTOOLS
 70
     0
  0
ENDTAB
  0
TABLE
  2
DIMSTYLE
 70
     1
  0
DIMSTYLE
  2
NEWX10
 70
     0
  3
 
  4

  5

  6
OPEN30
  7
OPEN30
 40
1.0
 41
2.0
 42
0.0
 43
7.0
 44
1.0
 45
0.0
 46
0.0
 47
0.0
 48
0.0
140
3.5
141
0.0
142
0.0
143
25.399999999999999
144
1.0
145
0.0
146
0.7
147
0.7
 71
     0
 72
     0
 73
     0
 74
     0
 75
     0
 76
     0
 77
     1
 78
     8
170
     0
171
     2
172
     1
173
     1
174
     0
175
     0
176
   256
177
   256
178
   201
  0
ENDTAB
  0
ENDSEC
  0
SECTION
  2
BLOCKS
  0
BLOCK
  8
0
  2
$MODEL_SPACE
 70
     0
 10
0.0
 20
0.0
 30
0.0
  3
$MODEL_SPACE
  1

  0
ENDBLK
  5
1A
  8
0
  0
BLOCK
 67
     1
  8
0
  2
$PAPER_SPACE
 70
     0
 10
0.0
 20
0.0
 30
0.0
  3
$PAPER_SPACE
  1

  0
ENDBLK
  5
17
 67
     1
  8
0
  0
BLOCK
  8
0
  2
_OPEN30
 70
     0
 10
0.0
 20
0.0
 30
0.0
  3
_OPEN30
  1

  0
LINE
  5
44
  8
0
  6
BYBLOCK
 62
     0
 10
-1.0
 20
0.26794919
 30
0.0
 11
0.0
 21
0.0
 31
0.0
  0
LINE
  5
45
  8
0
  6
BYBLOCK
 62
     0
 10
0.0
 20
0.0
 30
0.0
 11
-1.0
 21
-0.26794919
 31
0.0
  0
LINE
  5
46
  8
0
  6
BYBLOCK
 62
     0
 10
0.0
 20
0.0
 30
0.0
 11
-1.0
 21
0.0
 31
0.0
  0
ENDBLK
  5
47
  8
0
  0
BLOCK
  8
0
  2
*U19
 70
     1
 10
0.0
 20
0.0
 30
0.0
  3
*U19
  1

  0
TEXT
  5
1FEBA
  8
1TEXT
 62
   201
 10
136.1311667365753
 20
198.91713858753559
 30
0.0
 40
3.5
  1
39.5
 50
90.0
  0
ENDBLK
  5
1FEBC
  8
0
  0
BLOCK
  8
0
  2
*U20
 70
     1
 10
0.0
 20
0.0
 30
0.0
  3
*U20
  1

  0
TEXT
  5
1FEBE
  8
1TEXT
 62
   201
 10
212.3105286053669
 20
201.41713858753559
 30
0.0
 40
3.5
  1
35
 50
90.0
  0
ENDBLK
  5
1FEC0
  8
0
  0
BLOCK
  8
0
  2
*U21
 70
     1
 10
0.0
 20
0.0
 30
0.0
  3
*U21
  1

  0
TEXT
  5
1FEC2
  8
1TEXT
 62
   201
 10
135.53425410082761
 20
239.3430679262988
 30
0.0
 40
3.5
  1
R1 
 50
323.30027421146229
  0
TEXT
  5
1FEC3
  8
1TEXT
 62
   201
 10
144.73500133784279
 20
235.17704294204259
 30
0.0
 40
2.4500000000000002
  1
+0.5 
 50
323.30027421146229
  0
TEXT
  5
1FEC4
  8
1TEXT
 62
   201
 10
143.1569350280275
 20
232.27900988310171
 30
0.0
 40
2.4500000000000002
  1
 0 
 50
323.30027421146229
  0
ENDBLK
  5
1FEC6
  8
0
  0
BLOCK
  8
0
  2
*U22
 70
     1
 10
0.0
 20
0.0
 30
0.0
  3
*U22
  1

  0
TEXT
  5
1FEC8
  8
1TEXT
 62
   201
 10
343.78618747633789
 20
-398.82090425889612
 30
0.0
 40
3.5
  1
39.5
  0
ENDBLK
  5
1FECA
  8
0
  0
BLOCK
  8
0
  2
*U23
 70
     1
 10
0.0
 20
0.0
 30
0.0
  3
*U23
  1

  0
TEXT
  5
1FECC
  8
1TEXT
 62
   201
 10
346.286187476338
 20
-322.64154239010452
 30
0.0
 40
3.5
  1
35
  0
ENDBLK
  5
1FECE
  8
0
  0
BLOCK
  8
0
  2
*U24
 70
     1
 10
0.0
 20
0.0
 30
0.0
  3
*U24
  1

  0
TEXT
  5
1FED0
  8
1TEXT
 62
   201
 10
315.02692480423963
 20
-400.8178168946427
 30
0.0
 40
3.5
  1
R1 
 50
53.300274211457712
  0
TEXT
  5
1FED1
  8
1TEXT
 62
   201
 10
319.19294978849661
 20
-391.61706965762801
 30
0.0
 40
2.4500000000000002
  1
+0.5 
 50
53.300274211457712
  0
TEXT
  5
1FED2
  8
1TEXT
 62
   201
 10
322.09098284743749
 20
-393.19513596744349
 30
0.0
 40
2.4500000000000002
  1
 0 
 50
53.300274211457712
  0
ENDBLK
  5
1FED4
  8
0
  0
ENDSEC
  0
SECTION
  2
ENTITIES
  0
LINE
  5
1D8CA
  8
01
 10
743.01624161536495
 20
-650.67133035126585
 30
0.0
 11
743.01624161536495
 21
-672.82133035126719
 31
0.0
  0
LINE
  5
1D90A
  8
01
 10
743.01624161536495
 20
-653.17133035126653
 30
0.0
 11
743.01624161536495
 21
-670.82133035126594
 31
0.0
  0
TEXT
  5
1DB93
  8
01
 10
521.70399487875147
 20
-478.52544149097599
 30
0.0
 40
4.0
  1
表面処理
 72
     1
 11
530.77066154541831
 21
-478.52544149097599
 31
0.0
  0
LINE
  5
1DB94
  8
01
 10
513.3706615454181
 20
-473.02544149097599
 30
0.0
 11
583.37066154541822
 21
-473.02544149097599
 31
0.0
  0
LINE
  5
1DB95
  8
01
 10
513.3706615454181
 20
-487.02544149097599
 30
0.0
 11
583.37066154541822
 21
-487.02544149097599
 31
0.0
  0
LINE
  5
1DB96
  8
01
 10
513.3706615454181
 20
-480.02544149097599
 30
0.0
 11
583.37066154541822
 21
-480.02544149097599
 31
0.0
  0
LINE
  5
1DB97
  8
01
 10
548.37066154541822
 20
-473.02544149097599
 30
0.0
 11
548.37066154541776
 21
-487.02544149097588
 31
0.0
  0
TEXT
  5
1DB98
  8
01
 10
559.10399487875168
 20
-478.52544149097599
 30
0.0
 40
4.0
  1
コード
 72
     1
 11
565.77066154541819
 21
-478.52544149097599
 31
0.0
  0
LINE
  5
1DB99
  8
01
 10
513.3706615454181
 20
-487.02544149097588
 30
0.0
 11
513.3706615454181
 21
-473.02544149097599
 31
0.0
  0
LINE
  5
1DB9A
  8
01
 10
583.37066154541799
 20
-487.02544149097588
 30
0.0
 11
583.37066154541822
 21
-473.02544149097599
 31
0.0
  0
TEXT
  5
1DB9B
  8
01
 10
513.3706615454181
 20
-468.02544149097599
 30
0.0
 40
8.0
  1
SC-761-XC
  0
TEXT
  5
1DB9C
  8
01
 10
521.70399487875147
 20
-485.36073015050027
 30
0.0
 40
4.0
  1
クローム
 72
     1
 11
530.77066154541831
 21
-485.36073015050027
 31
0.0
  0
TEXT
  5
1DB9D
  8
01
 10
550.06589964065665
 20
-485.73979847462527
 30
0.0
 40
4.0
  1
SC-761-XC
 41
0.85
 72
     1
 11
565.77066154541853
 21
-485.73979847462527
 31
0.0
  0
LINE
  5
1DBA4
  8
01
 10
755.51624161536495
 20
-618.59315676598453
 30
0.0
 11
755.51624161536495
 21
-693.04950393654815
 31
0.0
  0
LINE
  5
1DBA5
  8
01
 10
764.51624161536495
 20
-618.59315676598453
 30
0.0
 11
764.51624161536495
 21
-693.04950393654815
 31
0.0
  0
LINE
  5
1DBA6
  8
01
 10
743.01624161536495
 20
-618.59315676598453
 30
0.0
 11
743.01624161536495
 21
-693.04950393654815
 31
0.0
  0
LINE
  5
1E9CD
  8
01
 10
739.51624161536495
 20
-656.32133020437072
 30
0.0
 11
740.51624161536495
 21
-655.32133050437074
 31
0.0
  0
LINE
  5
1E9CE
  8
01
 10
739.51624161536495
 20
-659.62133035437068
 30
0.0
 11
740.51624161536495
 21
-659.62133035437068
 31
0.0
  0
LINE
  5
1E9CF
  8
01
 10
740.51624161536495
 20
-659.62133035437068
 30
0.0
 11
740.51624161536495
 21
-652.02133035437066
 31
0.0
  0
LINE
  5
1E9D0
  8
01
 10
739.51624161536495
 20
-659.62133035437068
 30
0.0
 11
739.51624161536495
 21
-652.02133035437066
 31
0.0
  0
LINE
  5
1E9D1
  8
01
 10
739.51624161536495
 20
-652.02133035437066
 30
0.0
 11
740.51624161536495
 21
-652.02133035437066
 31
0.0
  0
LINE
  5
1E9D4
  8
01
 10
623.76624146846962
 20
-539.3213303512664
 30
0.0
 11
622.76624176846963
 21
-538.3213303512664
 31
0.0
  0
LINE
  5
1E9D5
  8
01
 10
627.06624161846958
 20
-539.3213303512664
 30
0.0
 11
627.06624161846958
 21
-538.3213303512664
 31
0.0
  0
LINE
  5
1E9D6
  8
01
 10
627.06624161846958
 20
-538.3213303512664
 30
0.0
 11
619.46624161846955
 21
-538.3213303512664
 31
0.0
  0
LINE
  5
1E9D7
  8
01
 10
627.06624161846958
 20
-539.3213303512664
 30
0.0
 11
619.46624161846955
 21
-539.3213303512664
 31
0.0
  0
LINE
  5
1E9D8
  8
01
 10
619.46624161846955
 20
-539.3213303512664
 30
0.0
 11
619.46624161846955
 21
-538.3213303512664
 31
0.0
  0
LINE
  5
1F59F
  8
01
 10
192.01624161536529
 20
-647.3213303512664
 30
0.0
 11
154.51624161536529
 21
-647.3213303512664
 31
0.0
  0
LINE
  5
1F5A0
  8
01
 10
154.51624161536529
 20
-663.8213303512664
 30
0.0
 11
192.01624161536529
 21
-663.8213303512664
 31
0.0
  0
ARC
  5
1F5A1
  8
01
 10
192.01624161536529
 20
-662.8213303512664
 30
0.0
 40
1.0
 50
270.0
 51
0.0
  0
ARC
  5
1F5A2
  8
01
 10
192.01624161536529
 20
-648.3213303512664
 30
0.0
 40
1.0
 50
0.0
 51
90.0
  0
ARC
  5
1F5A3
  8
01
 10
154.51624161536529
 20
-662.8213303512664
 30
0.0
 40
1.0
 50
180.0
 51
270.0
  0
ARC
  5
1F5A4
  8
01
 10
154.51624161536529
 20
-648.3213303512664
 30
0.0
 40
1.0
 50
90.0
 51
180.0
  0
LINE
  5
1F5A8
  8
01
 10
153.51624161536529
 20
-655.57133035126628
 30
0.0
 11
153.51624161536529
 21
-648.3213303512664
 31
0.0
  0
LINE
  5
1F5A9
  8
01
 10
153.51624161536529
 20
-662.8213303512664
 30
0.0
 11
153.51624161536529
 21
-655.57133035126628
 31
0.0
  0
ARC
  5
1F5AA
  8
01
 10
155.51624161536529
 20
-673.3213303512664
 30
0.0
 40
2.0
 50
180.0
 51
270.0
  0
LINE
  5
1F5AB
  8
01
 10
191.01624161536529
 20
-675.3213303512664
 30
0.0
 11
155.51624161536529
 21
-675.3213303512664
 31
0.0
  0
ARC
  5
1F5AC
  8
01
 10
191.01624161536529
 20
-673.3213303512664
 30
0.0
 40
2.0
 50
270.0
 51
0.0
  0
LINE
  5
1F5AD
  8
01
 10
155.51624161536529
 20
-635.8213303512664
 30
0.0
 11
191.01624161536529
 21
-635.8213303512664
 31
0.0
  0
ARC
  5
1F5AE
  8
01
 10
155.51624161536529
 20
-637.8213303512664
 30
0.0
 40
2.0
 50
90.0
 51
180.0
  0
LINE
  5
1F5B0
  8
01
 10
193.01624161536461
 20
-637.8213303512664
 30
0.0
 11
193.01624161536529
 21
-673.3213303512664
 31
0.0
  0
ARC
  5
1F5B1
  8
01
 10
191.01624161536529
 20
-637.8213303512664
 30
0.0
 40
2.0
 50
0.0
 51
90.0
  0
LINE
  5
1F5B2
  8
01
 10
153.51624161536529
 20
-673.3213303512664
 30
0.0
 11
153.51624161536529
 21
-662.8213303512664
 31
0.0
  0
LINE
  5
1F5B3
  8
01
 10
153.51624161536529
 20
-648.3213303512664
 30
0.0
 11
153.51624161536529
 21
-637.8213303512664
 31
0.0
  0
ARC
  5
1F5B9
  8
01
 10
154.51624161536529
 20
-584.07133035126628
 30
0.0
 40
1.0
 50
180.0
 51
270.0
  0
ARC
  5
1F5BA
  8
01
 10
154.51624161536529
 20
-569.5713303512664
 30
0.0
 40
1.0
 50
90.0
 51
180.0
  0
LINE
  5
1F5BB
  8
01
 10
154.76624161536529
 20
-568.57133035126628
 30
0.0
 11
154.51624161536529
 21
-568.57133035126628
 31
0.0
  0
LINE
  5
1F5BC
  8
01
 10
192.01624161536529
 20
-568.57133035126628
 30
0.0
 11
191.76624161536529
 21
-568.57133035126628
 31
0.0
  0
LINE
  5
1F5BD
  8
01
 10
154.51624161536529
 20
-585.07133035126628
 30
0.0
 11
192.01624161536529
 21
-585.07133035126628
 31
0.0
  0
ARC
  5
1F5BE
  8
01
 10
192.01624161536529
 20
-584.07133035126628
 30
0.0
 40
1.0
 50
270.0
 51
0.0
  0
ARC
  5
1F5BF
  8
01
 10
192.01624161536529
 20
-569.5713303512664
 30
0.0
 40
1.0
 50
0.0
 51
90.0
  0
ARC
  5
1F5C0
  8
01
 10
154.76624161536529
 20
-567.57133035126628
 30
0.0
 40
1.0
 50
270.0
 51
0.0
  0
ARC
  5
1F5C1
  8
01
 10
191.76624161536529
 20
-567.57133035126628
 30
0.0
 40
1.0
 50
180.0
 51
270.0
  0
LINE
  5
1F5C2
  8
01
 10
155.51624161536529
 20
-540.82133035126628
 30
0.0
 11
154.51624161536529
 21
-540.82133035126628
 31
0.0
  0
ARC
  5
1F5C3
  8
01
 10
154.51624161536529
 20
-539.8213303512664
 30
0.0
 40
1.0
 50
180.0
 51
270.0
  0
LINE
  5
1F5C4
  8
01
 10
153.51624161536529
 20
-539.8213303512664
 30
0.0
 11
153.51624161536529
 21
-535.8213303512664
 31
0.0
  0
LINE
  5
1F5C5
  8
01
 10
153.51624161536529
 20
-535.8213303512664
 30
0.0
 11
155.51624161536529
 21
-535.8213303512664
 31
0.0
  0
LINE
  5
1F5C6
  8
01
 10
191.01624161536529
 20
-535.8213303512664
 30
0.0
 11
155.51624161536529
 21
-535.8213303512664
 31
0.0
  0
LINE
  5
1F5C7
  8
01
 10
191.01624161536529
 20
-540.82133035126628
 30
0.0
 11
155.51624161536529
 21
-540.82133035126628
 31
0.0
  0
LINE
  5
1F5C8
  8
01
 10
193.01624161536529
 20
-535.8213303512664
 30
0.0
 11
193.01624161536529
 21
-539.8213303512664
 31
0.0
  0
LINE
  5
1F5C9
  8
01
 10
191.01624161536529
 20
-535.8213303512664
 30
0.0
 11
193.01624161536529
 21
-535.8213303512664
 31
0.0
  0
LINE
  5
1F5CA
  8
01
 10
192.01624161536529
 20
-540.82133035126628
 30
0.0
 11
191.01624161536529
 21
-540.82133035126628
 31
0.0
  0
ARC
  5
1F5CB
  8
01
 10
192.01624161536529
 20
-539.8213303512664
 30
0.0
 40
1.0
 50
270.0
 51
0.0
  0
LINE
  5
1F5CC
  8
01
 10
153.51624161536529
 20
-584.07133035126628
 30
0.0
 11
153.51624161536529
 21
-569.57133035622132
 31
0.0
  0
LINE
  5
1F5CD
  8
01
 10
193.01624161536529
 20
-569.57133035622132
 30
0.0
 11
193.01624161536529
 21
-584.07133035126628
 31
0.0
  0
ARC
  5
1F5CE
  8
01
 10
154.76624161536529
 20
-541.8213303512664
 30
0.0
 40
1.0
 50
0.0
 51
90.0
  0
ARC
  5
1F5CF
  8
01
 10
191.76624161536529
 20
-541.8213303512664
 30
0.0
 40
1.0
 50
90.0
 51
180.0
  0
LINE
  5
1F5D0
  8
01
 10
155.76624161536529
 20
-568.38861582272705
 30
0.0
 11
155.76624161536529
 21
-541.8213303512664
 31
0.0
  0
LINE
  5
1F5D1
  8
01
 10
190.76624161536529
 20
-541.8213303512664
 30
0.0
 11
190.76624161536529
 21
-568.38861582272705
 31
0.0
  0
LINE
  5
1F5D3
  8
01
 10
603.51624161536495
 20
-570.82133034802621
 30
0.0
 11
193.01624161536529
 21
-570.82133034802621
 31
0.0
  0
LINE
  5
1F5D4
  8
01
 10
603.51624161536495
 20
-582.82133034802632
 30
0.0
 11
193.01624161536529
 21
-582.82133034802632
 31
0.0
  0
LINE
  5
1F633
  8
01
 10
193.01624161536509
 20
-661.5713303474588
 30
0.0
 11
603.51624161536529
 21
-661.57133034745834
 31
0.0
  0
LINE
  5
1F635
  8
01
 10
193.01624161536481
 20
-649.57133034745868
 30
0.0
 11
603.51624161536529
 21
-649.57133034745834
 31
0.0
  0
LINE
  5
1F639
  8
01
 10
604.51624161536529
 20
-663.8213303512664
 30
0.0
 11
642.01624161536529
 21
-663.8213303512664
 31
0.0
  0
LINE
  5
1F63A
  8
01
 10
642.01624161536529
 20
-647.3213303512664
 30
0.0
 11
604.51624161536529
 21
-647.3213303512664
 31
0.0
  0
ARC
  5
1F63B
  8
01
 10
604.51624161536529
 20
-648.3213303512664
 30
0.0
 40
1.0
 50
90.0
 51
180.0
  0
ARC
  5
1F63C
  8
01
 10
604.51624161536529
 20
-662.8213303512664
 30
0.0
 40
1.0
 50
180.0
 51
270.0
  0
ARC
  5
1F63D
  8
01
 10
642.01624161536529
 20
-648.3213303512664
 30
0.0
 40
1.0
 50
0.0
 51
90.0
  0
ARC
  5
1F63E
  8
01
 10
642.01624161536529
 20
-662.8213303512664
 30
0.0
 40
1.0
 50
270.0
 51
0.0
  0
LINE
  5
1F642
  8
01
 10
643.01624161536529
 20
-655.57133035126628
 30
0.0
 11
643.01624161536529
 21
-662.8213303512664
 31
0.0
  0
LINE
  5
1F643
  8
01
 10
643.01624161536529
 20
-648.3213303512664
 30
0.0
 11
643.01624161536529
 21
-655.57133035126628
 31
0.0
  0
ARC
  5
1F644
  8
01
 10
641.01624161536529
 20
-637.8213303512664
 30
0.0
 40
2.0
 50
0.0
 51
90.0
  0
LINE
  5
1F645
  8
01
 10
605.51624161536529
 20
-635.8213303512664
 30
0.0
 11
641.01624161536529
 21
-635.8213303512664
 31
0.0
  0
ARC
  5
1F646
  8
01
 10
605.51624161536529
 20
-637.8213303512664
 30
0.0
 40
2.0
 50
90.0
 51
180.0
  0
LINE
  5
1F647
  8
01
 10
641.01624161536529
 20
-675.3213303512664
 30
0.0
 11
605.51624161536529
 21
-675.3213303512664
 31
0.0
  0
ARC
  5
1F648
  8
01
 10
641.01624161536529
 20
-673.3213303512664
 30
0.0
 40
2.0
 50
270.0
 51
0.0
  0
LINE
  5
1F649
  8
01
 10
603.51624161536529
 20
-673.3213303512664
 30
0.0
 11
603.51624161536529
 21
-637.8213303512664
 31
0.0
  0
ARC
  5
1F64B
  8
01
 10
605.51624161536529
 20
-673.3213303512664
 30
0.0
 40
2.0
 50
180.0
 51
270.0
  0
LINE
  5
1F64C
  8
01
 10
643.01624161536529
 20
-637.8213303512664
 30
0.0
 11
643.01624161536529
 21
-648.3213303512664
 31
0.0
  0
LINE
  5
1F64D
  8
01
 10
643.01624161536529
 20
-662.8213303512664
 30
0.0
 11
643.01624161536529
 21
-673.3213303512664
 31
0.0
  0
ARC
  5
1F67A
  8
01
 10
642.01624161536529
 20
-584.07133035126628
 30
0.0
 40
1.0
 50
270.0
 51
0.0
  0
ARC
  5
1F67B
  8
01
 10
642.01624161536529
 20
-569.5713303512664
 30
0.0
 40
1.0
 50
0.0
 51
90.0
  0
LINE
  5
1F67C
  8
01
 10
641.76624161536517
 20
-568.57133035126628
 30
0.0
 11
642.01624161536529
 21
-568.57133035126628
 31
0.0
  0
LINE
  5
1F67D
  8
01
 10
604.51624161536529
 20
-568.57133035126628
 30
0.0
 11
604.76624161536517
 21
-568.57133035126628
 31
0.0
  0
LINE
  5
1F67E
  8
01
 10
642.01624161536529
 20
-585.07133035126628
 30
0.0
 11
604.51624161536529
 21
-585.07133035126628
 31
0.0
  0
ARC
  5
1F67F
  8
01
 10
604.51624161536529
 20
-584.07133035126628
 30
0.0
 40
1.0
 50
180.0
 51
270.0
  0
ARC
  5
1F680
  8
01
 10
604.51624161536529
 20
-569.5713303512664
 30
0.0
 40
1.0
 50
90.0
 51
180.0
  0
ARC
  5
1F681
  8
01
 10
641.76624161536517
 20
-567.57133035126628
 30
0.0
 40
1.0
 50
180.0
 51
270.0
  0
ARC
  5
1F682
  8
01
 10
604.76624161536517
 20
-567.57133035126628
 30
0.0
 40
1.0
 50
270.0
 51
0.0
  0
LINE
  5
1F683
  8
01
 10
641.01624161536529
 20
-540.82133035126628
 30
0.0
 11
642.01624161536529
 21
-540.82133035126628
 31
0.0
  0
ARC
  5
1F684
  8
01
 10
642.01624161536529
 20
-539.8213303512664
 30
0.0
 40
1.0
 50
270.0
 51
0.0
  0
LINE
  5
1F685
  8
01
 10
643.01624161536529
 20
-539.8213303512664
 30
0.0
 11
643.01624161536529
 21
-535.8213303512664
 31
0.0
  0
LINE
  5
1F687
  8
01
 10
603.51624161536529
 20
-535.8213303512664
 30
0.0
 11
643.01624161536529
 21
-535.8213303512664
 31
0.0
  0
LINE
  5
1F688
  8
01
 10
605.51624161536529
 20
-540.82133035126628
 30
0.0
 11
641.01624161536529
 21
-540.82133035126628
 31
0.0
  0
LINE
  5
1F689
  8
01
 10
603.51624161536529
 20
-535.8213303512664
 30
0.0
 11
603.51624161536529
 21
-539.8213303512664
 31
0.0
  0
LINE
  5
1F68B
  8
01
 10
604.51624161536529
 20
-540.82133035126628
 30
0.0
 11
605.51624161536529
 21
-540.82133035126628
 31
0.0
  0
ARC
  5
1F68C
  8
01
 10
604.51624161536529
 20
-539.8213303512664
 30
0.0
 40
1.0
 50
180.0
 51
270.0
  0
LINE
  5
1F68D
  8
01
 10
643.01624161536529
 20
-584.07133035126628
 30
0.0
 11
643.01624161536529
 21
-569.57133035622132
 31
0.0
  0
LINE
  5
1F68E
  8
01
 10
603.51624161536529
 20
-569.57133035622132
 30
0.0
 11
603.51624161536529
 21
-584.07133035126628
 31
0.0
  0
ARC
  5
1F68F
  8
01
 10
641.76624161536517
 20
-541.8213303512664
 30
0.0
 40
1.0
 50
90.0
 51
180.0
  0
ARC
  5
1F690
  8
01
 10
604.76624161536517
 20
-541.8213303512664
 30
0.0
 40
1.0
 50
0.0
 51
90.0
  0
LINE
  5
1F691
  8
01
 10
640.76624161536529
 20
-568.38861582272705
 30
0.0
 11
640.76624161536529
 21
-541.8213303512664
 31
0.0
  0
LINE
  5
1F692
  8
01
 10
605.76624161536529
 20
-541.8213303512664
 30
0.0
 11
605.76624161536529
 21
-568.38861582272705
 31
0.0
  0
POLYLINE
  8
01
  5
1FED5
  66
     1
 10
0.000000
 20
0.000000
 30
0.000000
  70
     8
  0
VERTEX
  8
01
  5
1FED6
 10
729.366
 20
-662.571
 30
0.000000
  70
    32
  0
VERTEX
  8
01
  5
1FED7
 10
729.366
 20
-662.571
 30
0.000000
  70
    32
  0
VERTEX
  8
01
  5
1FED8
 10
729.366
 20
-662.571
 30
0.000000
  70
    32
  0
VERTEX
  8
01
  5
1FED9
 10
729.366
 20
-662.571
 30
0.000000
  70
    32
  0
VERTEX
  8
01
  5
1FEDA
 10
729.366
 20
-662.571
 30
0.000000
  70
    32
  0
VERTEX
  8
01
  5
1FEDB
 10
729.366
 20
-662.571
 30
0.000000
  70
    32
  0
VERTEX
  8
01
  5
1FEDC
 10
729.366
 20
-662.571
 30
0.000000
  70
    32
  0
VERTEX
  8
01
  5
1FEDD
 10
729.365
 20
-662.571
 30
0.000000
  70
    32
  0
VERTEX
  8
01
  5
1FEDE
 10
729.365
 20
-662.571
 30
0.000000
  70
    32
  0
VERTEX
  8
01
  5
1FEDF
 10
729.365
 20
-662.571
 30
0.000000
  70
    32
  0
VERTEX
  8
01
  5
1FEE0
 10
729.364
 20
-662.571
 30
0.000000
  70
    32
  0
VERTEX
  8
01
  5
1FEE1
 10
729.364
 20
-662.571
 30
0.000000
  70
    32
  0
VERTEX
  8
01
  5
1FEE2
 10
729.364
 20
-662.571
 30
0.000000
  70
    32
  0
VERTEX
  8
01
  5
1FEE3
 10
729.363
 20
-662.571
 30
0.000000
  70
    32
  0
VERTEX
  8
01
  5
1FEE4
 10
729.363
 20
-662.571
 30
0.000000
  70
    32
  0
VERTEX
  8
01
  5
1FEE5
 10
729.362
 20
-662.571
 30
0.000000
  70
    32
  0
VERTEX
  8
01
  5
1FEE6
 10
729.362
 20
-662.571
 30
0.000000
  70
    32
  0
VERTEX
  8
01
  5
1FEE7
 10
729.361
 20
-662.571
 30
0.000000
  70
    32
  0
VERTEX
  8
01
  5
1FEE8
 10
729.360
 20
-662.571
 30
0.000000
  70
    32
  0
VERTEX
  8
01
  5
1FEE9
 10
729.360
 20
-662.571
 30
0.000000
  70
    32
  0
VERTEX
  8
01
  5
1FEEA
 10
729.359
 20
-662.571
 30
0.000000
  70
    32
  0
VERTEX
  8
01
  5
1FEEB
 10
729.358
 20
-662.571
 30
0.000000
  70
    32
  0
VERTEX
  8
01
  5
1FEEC
 10
729.357
 20
-662.571
 30
0.000000
  70
    32
  0
VERTEX
  8
01
  5
1FEED
 10
729.356
 20
-662.571
 30
0.000000
  70
    32
  0
VERTEX
  8
01
  5
1FEEE
 10
729.356
 20
-662.571
 30
0.000000
  70
    32
  0
VERTEX
  8
01
  5
1FEEF
 10
729.355
 20
-662.571
 30
0.000000
  70
    32
  0
VERTEX
  8
01
  5
1FEF0
 10
729.354
 20
-662.571
 30
0.000000
  70
    32
  0
VERTEX
  8
01
  5
1FEF1
 10
729.353
 20
-662.571
 30
0.000000
  70
    32
  0
VERTEX
  8
01
  5
1FEF2
 10
729.352
 20
-662.571
 30
0.000000
  70
    32
  0
VERTEX
  8
01
  5
1FEF3
 10
729.351
 20
-662.571
 30
0.000000
  70
    32
  0
VERTEX
  8
01
  5
1FEF4
 10
729.350
 20
-662.571
 30
0.000000
  70
    32
  0
VERTEX
  8
01
  5
1FEF5
 10
729.348
 20
-662.571
 30
0.000000
  70
    32
  0
VERTEX
  8
01
  5
1FEF6
 10
729.347
 20
-662.571
 30
0.000000
  70
    32
  0
VERTEX
  8
01
  5
1FEF7
 10
729.346
 20
-662.571
 30
0.000000
  70
    32
  0
VERTEX
  8
01
  5
1FEF8
 10
729.345
 20
-662.570
 30
0.000000
  70
    32
  0
VERTEX
  8
01
  5
1FEF9
 10
729.344
 20
-662.570
 30
0.000000
  70
    32
  0
VERTEX
  8
01
  5
1FEFA
 10
729.342
 20
-662.570
 30
0.000000
  70
    32
  0
VERTEX
  8
01
  5
1FEFB
 10
729.341
 20
-662.570
 30
0.000000
  70
    32
  0
VERTEX
  8
01
  5
1FEFC
 10
729.340
 20
-662.570
 30
0.000000
  70
    32
  0
VERTEX
  8
01
  5
1FEFD
 10
729.338
 20
-662.570
 30
0.000000
  70
    32
  0
VERTEX
  8
01
  5
1FEFE
 10
729.337
 20
-662.570
 30
0.000000
  70
    32
  0
VERTEX
  8
01
  5
1FEFF
 10
729.335
 20
-662.570
 30
0.000000
  70
    32
  0
VERTEX
  8
01
  5
1FF00
 10
729.334
 20
-662.570
 30
0.000000
  70
    32
  0
VERTEX
  8
01
  5
1FF01
 10
729.332
 20
-662.570
 30
0.000000
  70
    32
  0
VERTEX
  8
01
  5
1FF02
 10
729.330
 20
-662.570
 30
0.000000
  70
    32
  0
VERTEX
  8
01
  5
1FF03
 10
729.329
 20
-662.570
 30
0.000000
  70
    32
  0
VERTEX
  8
01
  5
1FF04
 10
729.327
 20
-662.570
 30
0.000000
  70
    32
  0
VERTEX
  8
01
  5
1FF05
 10
729.325
 20
-662.570
 30
0.000000
  70
    32
  0
VERTEX
  8
01
  5
1FF06
 10
729.324
 20
-662.570
 30
0.000000
  70
    32
  0
VERTEX
  8
01
  5
1FF07
 10
729.322
 20
-662.570
 30
0.000000
  70
    32
  0
VERTEX
  8
01
  5
1FF08
 10
729.320
 20
-662.569
 30
0.000000
  70
    32
  0
VERTEX
  8
01
  5
1FF09
 10
729.318
 20
-662.569
 30
0.000000
  70
    32
  0
VERTEX
  8
01
  5
1FF0A
 10
729.316
 20
-662.569
 30
0.000000
  70
    32
  0
VERTEX
  8
01
  5
1FF0B
 10
729.314
 20
-662.569
 30
0.000000
  70
    32
  0
VERTEX
  8
01
  5
1FF0C
 10
729.312
 20
-662.569
 30
0.000000
  70
    32
  0
VERTEX
  8
01
  5
1FF0D
 10
729.310
 20
-662.569
 30
0.000000
  70
    32
  0
VERTEX
  8
01
  5
1FF0E
 10
729.308
 20
-662.569
 30
0.000000
  70
    32
  0
VERTEX
  8
01
  5
1FF0F
 10
729.306
 20
-662.569
 30
0.000000
  70
    32
  0
VERTEX
  8
01
  5
1FF10
 10
729.304
 20
-662.569
 30
0.000000
  70
    32
  0
VERTEX
  8
01
  5
1FF11
 10
729.302
 20
-662.569
 30
0.000000
  70
    32
  0
VERTEX
  8
01
  5
1FF12
 10
729.300
 20
-662.569
 30
0.000000
  70
    32
  0
VERTEX
  8
01
  5
1FF13
 10
729.297
 20
-662.569
 30
0.000000
  70
    32
  0
VERTEX
  8
01
  5
1FF14
 10
729.295
 20
-662.568
 30
0.000000
  70
    32
  0
VERTEX
  8
01
  5
1FF15
 10
729.293
 20
-662.568
 30
0.000000
  70
    32
  0
VERTEX
  8
01
  5
1FF16
 10
729.290
 20
-662.568
 30
0.000000
  70
    32
  0
VERTEX
  8
01
  5
1FF17
 10
729.288
 20
-662.568
 30
0.000000
  70
    32
  0
VERTEX
  8
01
  5
1FF18
 10
729.286
 20
-662.568
 30
0.000000
  70
    32
  0
VERTEX
  8
01
  5
1FF19
 10
729.283
 20
-662.568
 30
0.000000
  70
    32
  0
VERTEX
  8
01
  5
1FF1A
 10
729.281
 20
-662.568
 30
0.000000
  70
    32
  0
VERTEX
  8
01
  5
1FF1B
 10
729.278
 20
-662.568
 30
0.000000
  70
    32
  0
VERTEX
  8
01
  5
1FF1C
 10
729.276
 20
-662.568
 30
0.000000
  70
    32
  0
VERTEX
  8
01
  5
1FF1D
 10
729.273
 20
-662.568
 30
0.000000
  70
    32
  0
VERTEX
  8
01
  5
1FF1E
 10
729.270
 20
-662.567
 30
0.000000
  70
    32
  0
VERTEX
  8
01
  5
1FF1F
 10
729.268
 20
-662.567
 30
0.000000
  70
    32
  0
VERTEX
  8
01
  5
1FF20
 10
729.265
 20
-662.567
 30
0.000000
  70
    32
  0
VERTEX
  8
01
  5
1FF21
 10
729.262
 20
-662.567
 30
0.000000
  70
    32
  0
VERTEX
  8
01
  5
1FF22
 10
729.259
 20
-662.567
 30
0.000000
  70
    32
  0
VERTEX
  8
01
  5
1FF23
 10
729.256
 20
-662.567
 30
0.000000
  70
    32
  0
VERTEX
  8
01
  5
1FF24
 10
729.254
 20
-662.567
 30
0.000000
  70
    32
  0
VERTEX
  8
01
  5
1FF25
 10
729.251
 20
-662.567
 30
0.000000
  70
    32
  0
VERTEX
  8
01
  5
1FF26
 10
729.248
 20
-662.567
 30
0.000000
  70
    32
  0
VERTEX
  8
01
  5
1FF27
 10
729.245
 20
-662.566
 30
0.000000
  70
    32
  0
VERTEX
  8
01
  5
1FF28
 10
729.242
 20
-662.566
 30
0.000000
  70
    32
  0
VERTEX
  8
01
  5
1FF29
 10
729.239
 20
-662.566
 30
0.000000
  70
    32
  0
VERTEX
  8
01
  5
1FF2A
 10
729.236
 20
-662.566
 30
0.000000
  70
    32
  0
VERTEX
  8
01
  5
1FF2B
 10
729.233
 20
-662.566
 30
0.000000
  70
    32
  0
VERTEX
  8
01
  5
1FF2C
 10
729.230
 20
-662.566
 30
0.000000
  70
    32
  0
VERTEX
  8
01
  5
1FF2D
 10
729.226
 20
-662.566
 30
0.000000
  70
    32
  0
VERTEX
  8
01
  5
1FF2E
 10
729.223
 20
-662.566
 30
0.000000
  70
    32
  0
VERTEX
  8
01
  5
1FF2F
 10
729.220
 20
-662.565
 30
0.000000
  70
    32
  0
VERTEX
  8
01
  5
1FF30
 10
729.217
 20
-662.565
 30
0.000000
  70
    32
  0
VERTEX
  8
01
  5
1FF31
 10
729.213
 20
-662.565
 30
0.000000
  70
    32
  0
VERTEX
  8
01
  5
1FF32
 10
729.210
 20
-662.565
 30
0.000000
  70
    32
  0
VERTEX
  8
01
  5
1FF33
 10
729.207
 20
-662.565
 30
0.000000
  70
    32
  0
VERTEX
  8
01
  5
1FF34
 10
729.203
 20
-662.565
 30
0.000000
  70
    32
  0
VERTEX
  8
01
  5
1FF35
 10
729.200
 20
-662.565
 30
0.000000
  70
    32
  0
VERTEX
  8
01
  5
1FF36
 10
729.196
 20
-662.565
 30
0.000000
  70
    32
  0
VERTEX
  8
01
  5
1FF37
 10
729.193
 20
-662.564
 30
0.000000
  70
    32
  0
VERTEX
  8
01
  5
1FF38
 10
729.189
 20
-662.564
 30
0.000000
  70
    32
  0
VERTEX
  8
01
  5
1FF39
 10
729.186
 20
-662.564
 30
0.000000
  70
    32
  0
VERTEX
  8
01
  5
1FF3A
 10
729.182
 20
-662.564
 30
0.000000
  70
    32
  0
VERTEX
  8
01
  5
1FF3B
 10
729.178
 20
-662.564
 30
0.000000
  70
    32
  0
VERTEX
  8
01
  5
1FF3C
 10
729.175
 20
-662.564
 30
0.000000
  70
    32
  0
VERTEX
  8
01
  5
1FF3D
 10
729.171
 20
-662.564
 30
0.000000
  70
    32
  0
VERTEX
  8
01
  5
1FF3E
 10
729.167
 20
-662.563
 30
0.000000
  70
    32
  0
VERTEX
  8
01
  5
1FF3F
 10
729.163
 20
-662.563
 30
0.000000
  70
    32
  0
VERTEX
  8
01
  5
1FF40
 10
729.159
 20
-662.563
 30
0.000000
  70
    32
  0
VERTEX
  8
01
  5
1FF41
 10
729.156
 20
-662.563
 30
0.000000
  70
    32
  0
VERTEX
  8
01
  5
1FF42
 10
729.152
 20
-662.563
 30
0.000000
  70
    32
  0
VERTEX
  8
01
  5
1FF43
 10
729.148
 20
-662.563
 30
0.000000
  70
    32
  0
VERTEX
  8
01
  5
1FF44
 10
729.144
 20
-662.563
 30
0.000000
  70
    32
  0
VERTEX
  8
01
  5
1FF45
 10
729.140
 20
-662.562
 30
0.000000
  70
    32
  0
VERTEX
  8
01
  5
1FF46
 10
729.136
 20
-662.562
 30
0.000000
  70
    32
  0
VERTEX
  8
01
  5
1FF47
 10
729.132
 20
-662.562
 30
0.000000
  70
    32
  0
VERTEX
  8
01
  5
1FF48
 10
729.128
 20
-662.562
 30
0.000000
  70
    32
  0
VERTEX
  8
01
  5
1FF49
 10
729.123
 20
-662.562
 30
0.000000
  70
    32
  0
VERTEX
  8
01
  5
1FF4A
 10
729.119
 20
-662.562
 30
0.000000
  70
    32
  0
VERTEX
  8
01
  5
1FF4B
 10
729.115
 20
-662.561
 30
0.000000
  70
    32
  0
VERTEX
  8
01
  5
1FF4C
 10
729.111
 20
-662.561
 30
0.000000
  70
    32
  0
VERTEX
  8
01
  5
1FF4D
 10
729.106
 20
-662.561
 30
0.000000
  70
    32
  0
VERTEX
  8
01
  5
1FF4E
 10
729.102
 20
-662.561
 30
0.000000
  70
    32
  0
VERTEX
  8
01
  5
1FF4F
 10
729.098
 20
-662.561
 30
0.000000
  70
    32
  0
VERTEX
  8
01
  5
1FF50
 10
729.093
 20
-662.561
 30
0.000000
  70
    32
  0
VERTEX
  8
01
  5
1FF51
 10
729.089
 20
-662.560
 30
0.000000
  70
    32
  0
VERTEX
  8
01
  5
1FF52
 10
729.085
 20
-662.560
 30
0.000000
  70
    32
  0
VERTEX
  8
01
  5
1FF53
 10
729.080
 20
-662.560
 30
0.000000
  70
    32
  0
VERTEX
  8
01
  5
1FF54
 10
729.076
 20
-662.560
 30
0.000000
  70
    32
  0
VERTEX
  8
01
  5
1FF55
 10
729.071
 20
-662.560
 30
0.000000
  70
    32
  0
VERTEX
  8
01
  5
1FF56
 10
729.066
 20
-662.560
 30
0.000000
  70
    32
  0
VERTEX
  8
01
  5
1FF57
 10
729.062
 20
-662.559
 30
0.000000
  70
    32
  0
VERTEX
  8
01
  5
1FF58
 10
729.057
 20
-662.559
 30
0.000000
  70
    32
  0
VERTEX
  8
01
  5
1FF59
 10
729.052
 20
-662.559
 30
0.000000
  70
    32
  0
VERTEX
  8
01
  5
1FF5A
 10
729.048
 20
-662.559
 30
0.000000
  70
    32
  0
VERTEX
  8
01
  5
1FF5B
 10
729.043
 20
-662.559
 30
0.000000
  70
    32
  0
VERTEX
  8
01
  5
1FF5C
 10
729.038
 20
-662.559
 30
0.000000
  70
    32
  0
VERTEX
  8
01
  5
1FF5D
 10
729.033
 20
-662.558
 30
0.000000
  70
    32
  0
VERTEX
  8
01
  5
1FF5E
 10
729.028
 20
-662.558
 30
0.000000
  70
    32
  0
VERTEX
  8
01
  5
1FF5F
 10
729.024
 20
-662.558
 30
0.000000
  70
    32
  0
VERTEX
  8
01
  5
1FF60
 10
729.019
 20
-662.558
 30
0.000000
  70
    32
  0
VERTEX
  8
01
  5
1FF61
 10
729.014
 20
-662.558
 30
0.000000
  70
    32
  0
VERTEX
  8
01
  5
1FF62
 10
729.009
 20
-662.557
 30
0.000000
  70
    32
  0
VERTEX
  8
01
  5
1FF63
 10
729.004
 20
-662.557
 30
0.000000
  70
    32
  0
VERTEX
  8
01
  5
1FF64
 10
728.999
 20
-662.557
 30
0.000000
  70
    32
  0
VERTEX
  8
01
  5
1FF65
 10
728.993
 20
-662.557
 30
0.000000
  70
    32
  0
VERTEX
  8
01
  5
1FF66
 10
728.988
 20
-662.557
 30
0.000000
  70
    32
  0
VERTEX
  8
01
  5
1FF67
 10
728.983
 20
-662.556
 30
0.000000
  70
    32
  0
VERTEX
  8
01
  5
1FF68
 10
728.978
 20
-662.556
 30
0.000000
  70
    32
  0
VERTEX
  8
01
  5
1FF69
 10
728.973
 20
-662.556
 30
0.000000
  70
    32
  0
VERTEX
  8
01
  5
1FF6A
 10
728.967
 20
-662.556
 30
0.000000
  70
    32
  0
VERTEX
  8
01
  5
1FF6B
 10
728.962
 20
-662.556
 30
0.000000
  70
    32
  0
VERTEX
  8
01
  5
1FF6C
 10
728.957
 20
-662.555
 30
0.000000
  70
    32
  0
VERTEX
  8
01
  5
1FF6D
 10
728.951
 20
-662.555
 30
0.000000
  70
    32
  0
VERTEX
  8
01
  5
1FF6E
 10
728.946
 20
-662.555
 30
0.000000
  70
    32
  0
VERTEX
  8
01
  5
1FF6F
 10
728.940
 20
-662.555
 30
0.000000
  70
    32
  0
VERTEX
  8
01
  5
1FF70
 10
728.935
 20
-662.555
 30
0.000000
  70
    32
  0
VERTEX
  8
01
  5
1FF71
 10
728.929
 20
-662.554
 30
0.000000
  70
    32
  0
VERTEX
  8
01
  5
1FF72
 10
728.924
 20
-662.554
 30
0.000000
  70
    32
  0
VERTEX
  8
01
  5
1FF73
 10
728.918
 20
-662.554
 30
0.000000
  70
    32
  0
VERTEX
  8
01
  5
1FF74
 10
728.912
 20
-662.554
 30
0.000000
  70
    32
  0
VERTEX
  8
01
  5
1FF75
 10
728.907
 20
-662.554
 30
0.000000
  70
    32
  0
VERTEX
  8
01
  5
1FF76
 10
728.901
 20
-662.553
 30
0.000000
  70
    32
  0
VERTEX
  8
01
  5
1FF77
 10
728.895
 20
-662.553
 30
0.000000
  70
    32
  0
VERTEX
  8
01
  5
1FF78
 10
728.890
 20
-662.553
 30
0.000000
  70
    32
  0
VERTEX
  8
01
  5
1FF79
 10
728.884
 20
-662.553
 30
0.000000
  70
    32
  0
VERTEX
  8
01
  5
1FF7A
 10
728.878
 20
-662.553
 30
0.000000
  70
    32
  0
VERTEX
  8
01
  5
1FF7B
 10
728.872
 20
-662.552
 30
0.000000
  70
    32
  0
VERTEX
  8
01
  5
1FF7C
 10
728.866
 20
-662.552
 30
0.000000
  70
    32
  0
VERTEX
  8
01
  5
1FF7D
 10
728.860
 20
-662.552
 30
0.000000
  70
    32
  0
VERTEX
  8
01
  5
1FF7E
 10
728.854
 20
-662.552
 30
0.000000
  70
    32
  0
VERTEX
  8
01
  5
1FF7F
 10
728.848
 20
-662.552
 30
0.000000
  70
    32
  0
VERTEX
  8
01
  5
1FF80
 10
728.842
 20
-662.551
 30
0.000000
  70
    32
  0
VERTEX
  8
01
  5
1FF81
 10
728.836
 20
-662.551
 30
0.000000
  70
    32
  0
VERTEX
  8
01
  5
1FF82
 10
728.830
 20
-662.551
 30
0.000000
  70
    32
  0
VERTEX
  8
01
  5
1FF83
 10
728.824
 20
-662.551
 30
0.000000
  70
    32
  0
VERTEX
  8
01
  5
1FF84
 10
728.818
 20
-662.550
 30
0.000000
  70
    32
  0
VERTEX
  8
01
  5
1FF85
 10
728.812
 20
-662.550
 30
0.000000
  70
    32
  0
VERTEX
  8
01
  5
1FF86
 10
728.805
 20
-662.550
 30
0.000000
  70
    32
  0
VERTEX
  8
01
  5
1FF87
 10
728.799
 20
-662.550
 30
0.000000
  70
    32
  0
VERTEX
  8
01
  5
1FF88
 10
728.793
 20
-662.550
 30
0.000000
  70
    32
  0
VERTEX
  8
01
  5
1FF89
 10
728.787
 20
-662.549
 30
0.000000
  70
    32
  0
VERTEX
  8
01
  5
1FF8A
 10
728.780
 20
-662.549
 30
0.000000
  70
    32
  0
VERTEX
  8
01
  5
1FF8B
 10
728.774
 20
-662.549
 30
0.000000
  70
    32
  0
VERTEX
  8
01
  5
1FF8C
 10
728.767
 20
-662.549
 30
0.000000
  70
    32
  0
VERTEX
  8
01
  5
1FF8D
 10
728.761
 20
-662.548
 30
0.000000
  70
    32
  0
VERTEX
  8
01
  5
1FF8E
 10
728.754
 20
-662.548
 30
0.000000
  70
    32
  0
VERTEX
  8
01
  5
1FF8F
 10
728.748
 20
-662.548
 30
0.000000
  70
    32
  0
VERTEX
  8
01
  5
1FF90
 10
728.741
 20
-662.548
 30
0.000000
  70
    32
  0
VERTEX
  8
01
  5
1FF91
 10
728.735
 20
-662.548
 30
0.000000
  70
    32
  0
VERTEX
  8
01
  5
1FF92
 10
728.728
 20
-662.547
 30
0.000000
  70
    32
  0
VERTEX
  8
01
  5
1FF93
 10
728.722
 20
-662.547
 30
0.000000
  70
    32
  0
VERTEX
  8
01
  5
1FF94
 10
728.715
 20
-662.547
 30
0.000000
  70
    32
  0
VERTEX
  8
01
  5
1FF95
 10
728.708
 20
-662.547
 30
0.000000
  70
    32
  0
VERTEX
  8
01
  5
1FF96
 10
728.702
 20
-662.546
 30
0.000000
  70
    32
  0
VERTEX
  8
01
  5
1FF97
 10
728.695
 20
-662.546
 30
0.000000
  70
    32
  0
VERTEX
  8
01
  5
1FF98
 10
728.688
 20
-662.546
 30
0.000000
  70
    32
  0
VERTEX
  8
01
  5
1FF99
 10
728.681
 20
-662.546
 30
0.000000
  70
    32
  0
VERTEX
  8
01
  5
1FF9A
 10
728.675
 20
-662.545
 30
0.000000
  70
    32
  0
VERTEX
  8
01
  5
1FF9B
 10
728.668
 20
-662.545
 30
0.000000
  70
    32
  0
VERTEX
  8
01
  5
1FF9C
 10
728.661
 20
-662.545
 30
0.000000
  70
    32
  0
VERTEX
  8
01
  5
1FF9D
 10
728.654
 20
-662.545
 30
0.000000
  70
    32
  0
VERTEX
  8
01
  5
1FF9E
 10
728.647
 20
-662.545
 30
0.000000
  70
    32
  0
VERTEX
  8
01
  5
1FF9F
 10
728.640
 20
-662.544
 30
0.000000
  70
    32
  0
VERTEX
  8
01
  5
1FFA0
 10
728.633
 20
-662.544
 30
0.000000
  70
    32
  0
VERTEX
  8
01
  5
1FFA1
 10
728.626
 20
-662.544
 30
0.000000
  70
    32
  0
VERTEX
  8
01
  5
1FFA2
 10
728.619
 20
-662.544
 30
0.000000
  70
    32
  0
VERTEX
  8
01
  5
1FFA3
 10
728.612
 20
-662.543
 30
0.000000
  70
    32
  0
VERTEX
  8
01
  5
1FFA4
 10
728.605
 20
-662.543
 30
0.000000
  70
    32
  0
VERTEX
  8
01
  5
1FFA5
 10
728.598
 20
-662.543
 30
0.000000
  70
    32
  0
VERTEX
  8
01
  5
1FFA6
 10
728.590
 20
-662.543
 30
0.000000
  70
    32
  0
VERTEX
  8
01
  5
1FFA7
 10
728.583
 20
-662.542
 30
0.000000
  70
    32
  0
VERTEX
  8
01
  5
1FFA8
 10
728.576
 20
-662.542
 30
0.000000
  70
    32
  0
VERTEX
  8
01
  5
1FFA9
 10
728.569
 20
-662.542
 30
0.000000
  70
    32
  0
VERTEX
  8
01
  5
1FFAA
 10
728.562
 20
-662.542
 30
0.000000
  70
    32
  0
VERTEX
  8
01
  5
1FFAB
 10
728.554
 20
-662.541
 30
0.000000
  70
    32
  0
VERTEX
  8
01
  5
1FFAC
 10
728.547
 20
-662.541
 30
0.000000
  70
    32
  0
VERTEX
  8
01
  5
1FFAD
 10
728.540
 20
-662.541
 30
0.000000
  70
    32
  0
VERTEX
  8
01
  5
1FFAE
 10
728.532
 20
-662.541
 30
0.000000
  70
    32
  0
VERTEX
  8
01
  5
1FFAF
 10
728.525
 20
-662.540
 30
0.000000
  70
    32
  0
VERTEX
  8
01
  5
1FFB0
 10
728.517
 20
-662.540
 30
0.000000
  70
    32
  0
VERTEX
  8
01
  5
1FFB1
 10
728.510
 20
-662.540
 30
0.000000
  70
    32
  0
VERTEX
  8
01
  5
1FFB2
 10
728.502
 20
-662.540
 30
0.000000
  70
    32
  0
VERTEX
  8
01
  5
1FFB3
 10
728.495
 20
-662.539
 30
0.000000
  70
    32
  0
VERTEX
  8
01
  5
1FFB4
 10
728.487
 20
-662.539
 30
0.000000
  70
    32
  0
VERTEX
  8
01
  5
1FFB5
 10
728.480
 20
-662.539
 30
0.000000
  70
    32
  0
VERTEX
  8
01
  5
1FFB6
 10
728.472
 20
-662.539
 30
0.000000
  70
    32
  0
VERTEX
  8
01
  5
1FFB7
 10
728.464
 20
-662.539
 30
0.000000
  70
    32
  0
VERTEX
  8
01
  5
1FFB8
 10
728.457
 20
-662.538
 30
0.000000
  70
    32
  0
VERTEX
  8
01
  5
1FFB9
 10
728.449
 20
-662.538
 30
0.000000
  70
    32
  0
VERTEX
  8
01
  5
1FFBA
 10
728.441
 20
-662.538
 30
0.000000
  70
    32
  0
VERTEX
  8
01
  5
1FFBB
 10
728.434
 20
-662.538
 30
0.000000
  70
    32
  0
VERTEX
  8
01
  5
1FFBC
 10
728.426
 20
-662.537
 30
0.000000
  70
    32
  0
VERTEX
  8
01
  5
1FFBD
 10
728.418
 20
-662.537
 30
0.000000
  70
    32
  0
VERTEX
  8
01
  5
1FFBE
 10
728.410
 20
-662.537
 30
0.000000
  70
    32
  0
VERTEX
  8
01
  5
1FFBF
 10
728.402
 20
-662.537
 30
0.000000
  70
    32
  0
VERTEX
  8
01
  5
1FFC0
 10
728.394
 20
-662.536
 30
0.000000
  70
    32
  0
VERTEX
  8
01
  5
1FFC1
 10
728.386
 20
-662.536
 30
0.000000
  70
    32
  0
VERTEX
  8
01
  5
1FFC2
 10
728.379
 20
-662.536
 30
0.000000
  70
    32
  0
VERTEX
  8
01
  5
1FFC3
 10
728.371
 20
-662.536
 30
0.000000
  70
    32
  0
VERTEX
  8
01
  5
1FFC4
 10
728.363
 20
-662.535
 30
0.000000
  70
    32
  0
VERTEX
  8
01
  5
1FFC5
 10
728.355
 20
-662.535
 30
0.000000
  70
    32
  0
VERTEX
  8
01
  5
1FFC6
 10
728.346
 20
-662.535
 30
0.000000
  70
    32
  0
VERTEX
  8
01
  5
1FFC7
 10
728.338
 20
-662.535
 30
0.000000
  70
    32
  0
VERTEX
  8
01
  5
1FFC8
 10
728.330
 20
-662.534
 30
0.000000
  70
    32
  0
VERTEX
  8
01
  5
1FFC9
 10
728.322
 20
-662.534
 30
0.000000
  70
    32
  0
VERTEX
  8
01
  5
1FFCA
 10
728.314
 20
-662.534
 30
0.000000
  70
    32
  0
VERTEX
  8
01
  5
1FFCB
 10
728.306
 20
-662.534
 30
0.000000
  70
    32
  0
VERTEX
  8
01
  5
1FFCC
 10
728.298
 20
-662.533
 30
0.000000
  70
    32
  0
VERTEX
  8
01
  5
1FFCD
 10
728.289
 20
-662.533
 30
0.000000
  70
    32
  0
VERTEX
  8
01
  5
1FFCE
 10
728.281
 20
-662.533
 30
0.000000
  70
    32
  0
VERTEX
  8
01
  5
1FFCF
 10
728.273
 20
-662.533
 30
0.000000
  70
    32
  0
VERTEX
  8
01
  5
1FFD0
 10
728.264
 20
-662.532
 30
0.000000
  70
    32
  0
VERTEX
  8
01
  5
1FFD1
 10
728.256
 20
-662.532
 30
0.000000
  70
    32
  0
VERTEX
  8
01
  5
1FFD2
 10
728.248
 20
-662.532
 30
0.000000
  70
    32
  0
VERTEX
  8
01
  5
1FFD3
 10
728.239
 20
-662.531
 30
0.000000
  70
    32
  0
VERTEX
  8
01
  5
1FFD4
 10
728.231
 20
-662.531
 30
0.000000
  70
    32
  0
VERTEX
  8
01
  5
1FFD5
 10
728.222
 20
-662.531
 30
0.000000
  70
    32
  0
VERTEX
  8
01
  5
1FFD6
 10
728.214
 20
-662.531
 30
0.000000
  70
    32
  0
VERTEX
  8
01
  5
1FFD7
 10
728.205
 20
-662.530
 30
0.000000
  70
    32
  0
VERTEX
  8
01
  5
1FFD8
 10
728.197
 20
-662.530
 30
0.000000
  70
    32
  0
VERTEX
  8
01
  5
1FFD9
 10
728.188
 20
-662.530
 30
0.000000
  70
    32
  0
VERTEX
  8
01
  5
1FFDA
 10
728.179
 20
-662.530
 30
0.000000
  70
    32
  0
VERTEX
  8
01
  5
1FFDB
 10
728.171
 20
-662.529
 30
0.000000
  70
    32
  0
VERTEX
  8
01
  5
1FFDC
 10
728.162
 20
-662.529
 30
0.000000
  70
    32
  0
VERTEX
  8
01
  5
1FFDD
 10
728.153
 20
-662.529
 30
0.000000
  70
    32
  0
VERTEX
  8
01
  5
1FFDE
 10
728.145
 20
-662.529
 30
0.000000
  70
    32
  0
VERTEX
  8
01
  5
1FFDF
 10
728.136
 20
-662.528
 30
0.000000
  70
    32
  0
VERTEX
  8
01
  5
1FFE0
 10
728.127
 20
-662.528
 30
0.000000
  70
    32
  0
VERTEX
  8
01
  5
1FFE1
 10
728.118
 20
-662.528
 30
0.000000
  70
    32
  0
VERTEX
  8
01
  5
1FFE2
 10
728.109
 20
-662.528
 30
0.000000
  70
    32
  0
VERTEX
  8
01
  5
1FFE3
 10
728.101
 20
-662.527
 30
0.000000
  70
    32
  0
VERTEX
  8
01
  5
1FFE4
 10
728.092
 20
-662.527
 30
0.000000
  70
    32
  0
VERTEX
  8
01
  5
1FFE5
 10
728.083
 20
-662.527
 30
0.000000
  70
    32
  0
VERTEX
  8
01
  5
1FFE6
 10
728.074
 20
-662.527
 30
0.000000
  70
    32
  0
VERTEX
  8
01
  5
1FFE7
 10
728.065
 20
-662.526
 30
0.000000
  70
    32
  0
VERTEX
  8
01
  5
1FFE8
 10
728.056
 20
-662.526
 30
0.000000
  70
    32
  0
VERTEX
  8
01
  5
1FFE9
 10
728.047
 20
-662.526
 30
0.000000
  70
    32
  0
VERTEX
  8
01
  5
1FFEA
 10
728.038
 20
-662.526
 30
0.000000
  70
    32
  0
VERTEX
  8
01
  5
1FFEB
 10
728.029
 20
-662.525
 30
0.000000
  70
    32
  0
VERTEX
  8
01
  5
1FFEC
 10
728.020
 20
-662.525
 30
0.000000
  70
    32
  0
VERTEX
  8
01
  5
1FFED
 10
728.010
 20
-662.525
 30
0.000000
  70
    32
  0
VERTEX
  8
01
  5
1FFEE
 10
728.001
 20
-662.525
 30
0.000000
  70
    32
  0
VERTEX
  8
01
  5
1FFEF
 10
727.992
 20
-662.524
 30
0.000000
  70
    32
  0
VERTEX
  8
01
  5
1FFF0
 10
727.983
 20
-662.524
 30
0.000000
  70
    32
  0
VERTEX
  8
01
  5
1FFF1
 10
727.974
 20
-662.524
 30
0.000000
  70
    32
  0
VERTEX
  8
01
  5
1FFF2
 10
727.964
 20
-662.524
 30
0.000000
  70
    32
  0
VERTEX
  8
01
  5
1FFF3
 10
727.955
 20
-662.523
 30
0.000000
  70
    32
  0
VERTEX
  8
01
  5
1FFF4
 10
727.946
 20
-662.523
 30
0.000000
  70
    32
  0
VERTEX
  8
01
  5
1FFF5
 10
727.936
 20
-662.523
 30
0.000000
  70
    32
  0
VERTEX
  8
01
  5
1FFF6
 10
727.927
 20
-662.523
 30
0.000000
  70
    32
  0
VERTEX
  8
01
  5
1FFF7
 10
727.918
 20
-662.522
 30
0.000000
  70
    32
  0
VERTEX
  8
01
  5
1FFF8
 10
727.908
 20
-662.522
 30
0.000000
  70
    32
  0
VERTEX
  8
01
  5
1FFF9
 10
727.899
 20
-662.522
 30
0.000000
  70
    32
  0
VERTEX
  8
01
  5
1FFFA
 10
727.889
 20
-662.522
 30
0.000000
  70
    32
  0
VERTEX
  8
01
  5
1FFFB
 10
727.880
 20
-662.521
 30
0.000000
  70
    32
  0
VERTEX
  8
01
  5
1FFFC
 10
727.870
 20
-662.521
 30
0.000000
  70
    32
  0
VERTEX
  8
01
  5
1FFFD
 10
727.861
 20
-662.521
 30
0.000000
  70
    32
  0
VERTEX
  8
01
  5
1FFFE
 10
727.851
 20
-662.521
 30
0.000000
  70
    32
  0
VERTEX
  8
01
  5
1FFFF
 10
727.842
 20
-662.520
 30
0.000000
  70
    32
  0
VERTEX
  8
01
  5
20000
 10
727.832
 20
-662.520
 30
0.000000
  70
    32
  0
VERTEX
  8
01
  5
20001
 10
727.823
 20
-662.520
 30
0.000000
  70
    32
  0
VERTEX
  8
01
  5
20002
 10
727.813
 20
-662.520
 30
0.000000
  70
    32
  0
VERTEX
  8
01
  5
20003
 10
727.803
 20
-662.519
 30
0.000000
  70
    32
  0
VERTEX
  8
01
  5
20004
 10
727.794
 20
-662.519
 30
0.000000
  70
    32
  0
VERTEX
  8
01
  5
20005
 10
727.784
 20
-662.519
 30
0.000000
  70
    32
  0
VERTEX
  8
01
  5
20006
 10
727.774
 20
-662.519
 30
0.000000
  70
    32
  0
VERTEX
  8
01
  5
20007
 10
727.764
 20
-662.518
 30
0.000000
  70
    32
  0
VERTEX
  8
01
  5
20008
 10
727.755
 20
-662.518
 30
0.000000
  70
    32
  0
VERTEX
  8
01
  5
20009
 10
727.745
 20
-662.518
 30
0.000000
  70
    32
  0
VERTEX
  8
01
  5
2000A
 10
727.735
 20
-662.518
 30
0.000000
  70
    32
  0
VERTEX
  8
01
  5
2000B
 10
727.725
 20
-662.517
 30
0.000000
  70
    32
  0
VERTEX
  8
01
  5
2000C
 10
727.715
 20
-662.517
 30
0.000000
  70
    32
  0
VERTEX
  8
01
  5
2000D
 10
727.705
 20
-662.517
 30
0.000000
  70
    32
  0
VERTEX
  8
01
  5
2000E
 10
727.696
 20
-662.517
 30
0.000000
  70
    32
  0
VERTEX
  8
01
  5
2000F
 10
727.686
 20
-662.516
 30
0.000000
  70
    32
  0
VERTEX
  8
01
  5
20010
 10
727.676
 20
-662.516
 30
0.000000
  70
    32
  0
VERTEX
  8
01
  5
20011
 10
727.666
 20
-662.516
 30
0.000000
  70
    32
  0
VERTEX
  8
01
  5
20012
 10
727.656
 20
-662.516
 30
0.000000
  70
    32
  0
VERTEX
  8
01
  5
20013
 10
727.646
 20
-662.515
 30
0.000000
  70
    32
  0
VERTEX
  8
01
  5
20014
 10
727.636
 20
-662.515
 30
0.000000
  70
    32
  0
VERTEX
  8
01
  5
20015
 10
727.626
 20
-662.515
 30
0.000000
  70
    32
  0
VERTEX
  8
01
  5
20016
 10
727.616
 20
-662.515
 30
0.000000
  70
    32
  0
VERTEX
  8
01
  5
20017
 10
727.606
 20
-662.514
 30
0.000000
  70
    32
  0
VERTEX
  8
01
  5
20018
 10
727.596
 20
-662.514
 30
0.000000
  70
    32
  0
VERTEX
  8
01
  5
20019
 10
727.585
 20
-662.514
 30
0.000000
  70
    32
  0
VERTEX
  8
01
  5
2001A
 10
727.575
 20
-662.514
 30
0.000000
  70
    32
  0
VERTEX
  8
01
  5
2001B
 10
727.565
 20
-662.513
 30
0.000000
  70
    32
  0
VERTEX
  8
01
  5
2001C
 10
727.555
 20
-662.513
 30
0.000000
  70
    32
  0
VERTEX
  8
01
  5
2001D
 10
727.545
 20
-662.513
 30
0.000000
  70
    32
  0
VERTEX
  8
01
  5
2001E
 10
727.535
 20
-662.513
 30
0.000000
  70
    32
  0
VERTEX
  8
01
  5
2001F
 10
727.524
 20
-662.512
 30
0.000000
  70
    32
  0
VERTEX
  8
01
  5
20020
 10
727.514
 20
-662.512
 30
0.000000
  70
    32
  0
VERTEX
  8
01
  5
20021
 10
727.504
 20
-662.512
 30
0.000000
  70
    32
  0
VERTEX
  8
01
  5
20022
 10
727.494
 20
-662.512
 30
0.000000
  70
    32
  0
VERTEX
  8
01
  5
20023
 10
727.483
 20
-662.511
 30
0.000000
  70
    32
  0
VERTEX
  8
01
  5
20024
 10
727.473
 20
-662.511
 30
0.000000
  70
    32
  0
VERTEX
  8
01
  5
20025
 10
727.463
 20
-662.511
 30
0.000000
  70
    32
  0
VERTEX
  8
01
  5
20026
 10
727.452
 20
-662.511
 30
0.000000
  70
    32
  0
VERTEX
  8
01
  5
20027
 10
727.442
 20
-662.510
 30
0.000000
  70
    32
  0
VERTEX
  8
01
  5
20028
 10
727.432
 20
-662.510
 30
0.000000
  70
    32
  0
VERTEX
  8
01
  5
20029
 10
727.421
 20
-662.510
 30
0.000000
  70
    32
  0
VERTEX
  8
01
  5
2002A
 10
727.411
 20
-662.510
 30
0.000000
  70
    32
  0
VERTEX
  8
01
  5
2002B
 10
727.401
 20
-662.510
 30
0.000000
  70
    32
  0
VERTEX
  8
01
  5
2002C
 10
727.390
 20
-662.509
 30
0.000000
  70
    32
  0
VERTEX
  8
01
  5
2002D
 10
727.380
 20
-662.509
 30
0.000000
  70
    32
  0
VERTEX
  8
01
  5
2002E
 10
727.369
 20
-662.509
 30
0.000000
  70
    32
  0
VERTEX
  8
01
  5
2002F
 10
727.359
 20
-662.509
 30
0.000000
  70
    32
  0
VERTEX
  8
01
  5
20030
 10
727.348
 20
-662.508
 30
0.000000
  70
    32
  0
VERTEX
  8
01
  5
20031
 10
727.338
 20
-662.508
 30
0.000000
  70
    32
  0
VERTEX
  8
01
  5
20032
 10
727.327
 20
-662.508
 30
0.000000
  70
    32
  0
VERTEX
  8
01
  5
20033
 10
727.316
 20
-662.508
 30
0.000000
  70
    32
  0
VERTEX
  8
01
  5
20034
 10
727.306
 20
-662.507
 30
0.000000
  70
    32
  0
VERTEX
  8
01
  5
20035
 10
727.295
 20
-662.507
 30
0.000000
  70
    32
  0
VERTEX
  8
01
  5
20036
 10
727.285
 20
-662.507
 30
0.000000
  70
    32
  0
VERTEX
  8
01
  5
20037
 10
727.274
 20
-662.507
 30
0.000000
  70
    32
  0
VERTEX
  8
01
  5
20038
 10
727.263
 20
-662.507
 30
0.000000
  70
    32
  0
VERTEX
  8
01
  5
20039
 10
727.253
 20
-662.506
 30
0.000000
  70
    32
  0
VERTEX
  8
01
  5
2003A
 10
727.242
 20
-662.506
 30
0.000000
  70
    32
  0
VERTEX
  8
01
  5
2003B
 10
727.231
 20
-662.506
 30
0.000000
  70
    32
  0
VERTEX
  8
01
  5
2003C
 10
727.220
 20
-662.506
 30
0.000000
  70
    32
  0
VERTEX
  8
01
  5
2003D
 10
727.210
 20
-662.505
 30
0.000000
  70
    32
  0
VERTEX
  8
01
  5
2003E
 10
727.199
 20
-662.505
 30
0.000000
  70
    32
  0
VERTEX
  8
01
  5
2003F
 10
727.188
 20
-662.505
 30
0.000000
  70
    32
  0
VERTEX
  8
01
  5
20040
 10
727.177
 20
-662.505
 30
0.000000
  70
    32
  0
VERTEX
  8
01
  5
20041
 10
727.166
 20
-662.505
 30
0.000000
  70
    32
  0
VERTEX
  8
01
  5
20042
 10
727.156
 20
-662.504
 30
0.000000
  70
    32
  0
VERTEX
  8
01
  5
20043
 10
727.145
 20
-662.504
 30
0.000000
  70
    32
  0
VERTEX
  8
01
  5
20044
 10
727.134
 20
-662.504
 30
0.000000
  70
    32
  0
VERTEX
  8
01
  5
20045
 10
727.123
 20
-662.504
 30
0.000000
  70
    32
  0
VERTEX
  8
01
  5
20046
 10
727.112
 20
-662.504
 30
0.000000
  70
    32
  0
VERTEX
  8
01
  5
20047
 10
727.101
 20
-662.503
 30
0.000000
  70
    32
  0
VERTEX
  8
01
  5
20048
 10
727.090
 20
-662.503
 30
0.000000
  70
    32
  0
VERTEX
  8
01
  5
20049
 10
727.079
 20
-662.503
 30
0.000000
  70
    32
  0
VERTEX
  8
01
  5
2004A
 10
727.068
 20
-662.503
 30
0.000000
  70
    32
  0
VERTEX
  8
01
  5
2004B
 10
727.057
 20
-662.502
 30
0.000000
  70
    32
  0
VERTEX
  8
01
  5
2004C
 10
727.046
 20
-662.502
 30
0.000000
  70
    32
  0
VERTEX
  8
01
  5
2004D
 10
727.035
 20
-662.502
 30
0.000000
  70
    32
  0
VERTEX
  8
01
  5
2004E
 10
727.024
 20
-662.502
 30
0.000000
  70
    32
  0
VERTEX
  8
01
  5
2004F
 10
727.013
 20
-662.502
 30
0.000000
  70
    32
  0
VERTEX
  8
01
  5
20050
 10
727.002
 20
-662.501
 30
0.000000
  70
    32
  0
VERTEX
  8
01
  5
20051
 10
726.990
 20
-662.501
 30
0.000000
  70
    32
  0
VERTEX
  8
01
  5
20052
 10
726.979
 20
-662.501
 30
0.000000
  70
    32
  0
VERTEX
  8
01
  5
20053
 10
726.968
 20
-662.501
 30
0.000000
  70
    32
  0
VERTEX
  8
01
  5
20054
 10
726.957
 20
-662.501
 30
0.000000
  70
    32
  0
VERTEX
  8
01
  5
20055
 10
726.946
 20
-662.500
 30
0.000000
  70
    32
  0
VERTEX
  8
01
  5
20056
 10
726.935
 20
-662.500
 30
0.000000
  70
    32
  0
VERTEX
  8
01
  5
20057
 10
726.923
 20
-662.500
 30
0.000000
  70
    32
  0
VERTEX
  8
01
  5
20058
 10
726.912
 20
-662.500
 30
0.000000
  70
    32
  0
VERTEX
  8
01
  5
20059
 10
726.901
 20
-662.500
 30
0.000000
  70
    32
  0
VERTEX
  8
01
  5
2005A
 10
726.889
 20
-662.499
 30
0.000000
  70
    32
  0
VERTEX
  8
01
  5
2005B
 10
726.878
 20
-662.499
 30
0.000000
  70
    32
  0
VERTEX
  8
01
  5
2005C
 10
726.867
 20
-662.499
 30
0.000000
  70
    32
  0
VERTEX
  8
01
  5
2005D
 10
726.855
 20
-662.499
 30
0.000000
  70
    32
  0
VERTEX
  8
01
  5
2005E
 10
726.844
 20
-662.499
 30
0.000000
  70
    32
  0
VERTEX
  8
01
  5
2005F
 10
726.833
 20
-662.498
 30
0.000000
  70
    32
  0
VERTEX
  8
01
  5
20060
 10
726.821
 20
-662.498
 30
0.000000
  70
    32
  0
VERTEX
  8
01
  5
20061
 10
726.810
 20
-662.498
 30
0.000000
  70
    32
  0
VERTEX
  8
01
  5
20062
 10
726.798
 20
-662.498
 30
0.000000
  70
    32
  0
VERTEX
  8
01
  5
20063
 10
726.787
 20
-662.498
 30
0.000000
  70
    32
  0
VERTEX
  8
01
  5
20064
 10
726.776
 20
-662.497
 30
0.000000
  70
    32
  0
VERTEX
  8
01
  5
20065
 10
726.764
 20
-662.497
 30
0.000000
  70
    32
  0
VERTEX
  8
01
  5
20066
 10
726.753
 20
-662.497
 30
0.000000
  70
    32
  0
VERTEX
  8
01
  5
20067
 10
726.741
 20
-662.497
 30
0.000000
  70
    32
  0
VERTEX
  8
01
  5
20068
 10
726.730
 20
-662.497
 30
0.000000
  70
    32
  0
VERTEX
  8
01
  5
20069
 10
726.718
 20
-662.497
 30
0.000000
  70
    32
  0
VERTEX
  8
01
  5
2006A
 10
726.706
 20
-662.496
 30
0.000000
  70
    32
  0
VERTEX
  8
01
  5
2006B
 10
726.695
 20
-662.496
 30
0.000000
  70
    32
  0
VERTEX
  8
01
  5
2006C
 10
726.683
 20
-662.496
 30
0.000000
  70
    32
  0
VERTEX
  8
01
  5
2006D
 10
726.672
 20
-662.496
 30
0.000000
  70
    32
  0
VERTEX
  8
01
  5
2006E
 10
726.660
 20
-662.496
 30
0.000000
  70
    32
  0
VERTEX
  8
01
  5
2006F
 10
726.648
 20
-662.495
 30
0.000000
  70
    32
  0
VERTEX
  8
01
  5
20070
 10
726.637
 20
-662.495
 30
0.000000
  70
    32
  0
VERTEX
  8
01
  5
20071
 10
726.625
 20
-662.495
 30
0.000000
  70
    32
  0
VERTEX
  8
01
  5
20072
 10
726.613
 20
-662.495
 30
0.000000
  70
    32
  0
VERTEX
  8
01
  5
20073
 10
726.602
 20
-662.495
 30
0.000000
  70
    32
  0
VERTEX
  8
01
  5
20074
 10
726.590
 20
-662.495
 30
0.000000
  70
    32
  0
VERTEX
  8
01
  5
20075
 10
726.578
 20
-662.494
 30
0.000000
  70
    32
  0
VERTEX
  8
01
  5
20076
 10
726.567
 20
-662.494
 30
0.000000
  70
    32
  0
VERTEX
  8
01
  5
20077
 10
726.555
 20
-662.494
 30
0.000000
  70
    32
  0
VERTEX
  8
01
  5
20078
 10
726.543
 20
-662.494
 30
0.000000
  70
    32
  0
VERTEX
  8
01
  5
20079
 10
726.531
 20
-662.494
 30
0.000000
  70
    32
  0
VERTEX
  8
01
  5
2007A
 10
726.520
 20
-662.494
 30
0.000000
  70
    32
  0
VERTEX
  8
01
  5
2007B
 10
726.508
 20
-662.493
 30
0.000000
  70
    32
  0
VERTEX
  8
01
  5
2007C
 10
726.496
 20
-662.493
 30
0.000000
  70
    32
  0
VERTEX
  8
01
  5
2007D
 10
726.484
 20
-662.493
 30
0.000000
  70
    32
  0
VERTEX
  8
01
  5
2007E
 10
726.473
 20
-662.493
 30
0.000000
  70
    32
  0
VERTEX
  8
01
  5
2007F
 10
726.461
 20
-662.493
 30
0.000000
  70
    32
  0
VERTEX
  8
01
  5
20080
 10
726.449
 20
-662.493
 30
0.000000
  70
    32
  0
VERTEX
  8
01
  5
20081
 10
726.437
 20
-662.492
 30
0.000000
  70
    32
  0
VERTEX
  8
01
  5
20082
 10
726.426
 20
-662.492
 30
0.000000
  70
    32
  0
VERTEX
  8
01
  5
20083
 10
726.414
 20
-662.492
 30
0.000000
  70
    32
  0
VERTEX
  8
01
  5
20084
 10
726.402
 20
-662.492
 30
0.000000
  70
    32
  0
VERTEX
  8
01
  5
20085
 10
726.390
 20
-662.492
 30
0.000000
  70
    32
  0
VERTEX
  8
01
  5
20086
 10
726.378
 20
-662.492
 30
0.000000
  70
    32
  0
VERTEX
  8
01
  5
20087
 10
726.366
 20
-662.492
 30
0.000000
  70
    32
  0
VERTEX
  8
01
  5
20088
 10
726.355
 20
-662.491
 30
0.000000
  70
    32
  0
VERTEX
  8
01
  5
20089
 10
726.343
 20
-662.491
 30
0.000000
  70
    32
  0
VERTEX
  8
01
  5
2008A
 10
726.331
 20
-662.491
 30
0.000000
  70
    32
  0
VERTEX
  8
01
  5
2008B
 10
726.319
 20
-662.491
 30
0.000000
  70
    32
  0
VERTEX
  8
01
  5
2008C
 10
726.307
 20
-662.491
 30
0.000000
  70
    32
  0
VERTEX
  8
01
  5
2008D
 10
726.295
 20
-662.491
 30
0.000000
  70
    32
  0
VERTEX
  8
01
  5
2008E
 10
726.283
 20
-662.490
 30
0.000000
  70
    32
  0
VERTEX
  8
01
  5
2008F
 10
726.271
 20
-662.490
 30
0.000000
  70
    32
  0
VERTEX
  8
01
  5
20090
 10
726.260
 20
-662.490
 30
0.000000
  70
    32
  0
VERTEX
  8
01
  5
20091
 10
726.248
 20
-662.490
 30
0.000000
  70
    32
  0
VERTEX
  8
01
  5
20092
 10
726.236
 20
-662.490
 30
0.000000
  70
    32
  0
VERTEX
  8
01
  5
20093
 10
726.224
 20
-662.490
 30
0.000000
  70
    32
  0
VERTEX
  8
01
  5
20094
 10
726.212
 20
-662.490
 30
0.000000
  70
    32
  0
VERTEX
  8
01
  5
20095
 10
726.200
 20
-662.490
 30
0.000000
  70
    32
  0
VERTEX
  8
01
  5
20096
 10
726.188
 20
-662.489
 30
0.000000
  70
    32
  0
VERTEX
  8
01
  5
20097
 10
726.176
 20
-662.489
 30
0.000000
  70
    32
  0
VERTEX
  8
01
  5
20098
 10
726.164
 20
-662.489
 30
0.000000
  70
    32
  0
VERTEX
  8
01
  5
20099
 10
726.152
 20
-662.489
 30
0.000000
  70
    32
  0
VERTEX
  8
01
  5
2009A
 10
726.140
 20
-662.489
 30
0.000000
  70
    32
  0
VERTEX
  8
01
  5
2009B
 10
726.128
 20
-662.489
 30
0.000000
  70
    32
  0
VERTEX
  8
01
  5
2009C
 10
726.116
 20
-662.489
 30
0.000000
  70
    32
  0
VERTEX
  8
01
  5
2009D
 10
726.104
 20
-662.489
 30
0.000000
  70
    32
  0
VERTEX
  8
01
  5
2009E
 10
726.092
 20
-662.488
 30
0.000000
  70
    32
  0
VERTEX
  8
01
  5
2009F
 10
726.080
 20
-662.488
 30
0.000000
  70
    32
  0
VERTEX
  8
01
  5
200A0
 10
726.068
 20
-662.488
 30
0.000000
  70
    32
  0
VERTEX
  8
01
  5
200A1
 10
726.056
 20
-662.488
 30
0.000000
  70
    32
  0
VERTEX
  8
01
  5
200A2
 10
726.044
 20
-662.488
 30
0.000000
  70
    32
  0
VERTEX
  8
01
  5
200A3
 10
726.032
 20
-662.488
 30
0.000000
  70
    32
  0
VERTEX
  8
01
  5
200A4
 10
726.020
 20
-662.488
 30
0.000000
  70
    32
  0
VERTEX
  8
01
  5
200A5
 10
726.008
 20
-662.488
 30
0.000000
  70
    32
  0
VERTEX
  8
01
  5
200A6
 10
725.996
 20
-662.487
 30
0.000000
  70
    32
  0
VERTEX
  8
01
  5
200A7
 10
725.984
 20
-662.487
 30
0.000000
  70
    32
  0
VERTEX
  8
01
  5
200A8
 10
725.971
 20
-662.487
 30
0.000000
  70
    32
  0
VERTEX
  8
01
  5
200A9
 10
725.959
 20
-662.487
 30
0.000000
  70
    32
  0
VERTEX
  8
01
  5
200AA
 10
725.947
 20
-662.487
 30
0.000000
  70
    32
  0
VERTEX
  8
01
  5
200AB
 10
725.935
 20
-662.487
 30
0.000000
  70
    32
  0
VERTEX
  8
01
  5
200AC
 10
725.923
 20
-662.487
 30
0.000000
  70
    32
  0
VERTEX
  8
01
  5
200AD
 10
725.911
 20
-662.487
 30
0.000000
  70
    32
  0
VERTEX
  8
01
  5
200AE
 10
725.899
 20
-662.487
 30
0.000000
  70
    32
  0
VERTEX
  8
01
  5
200AF
 10
725.887
 20
-662.487
 30
0.000000
  70
    32
  0
VERTEX
  8
01
  5
200B0
 10
725.874
 20
-662.486
 30
0.000000
  70
    32
  0
VERTEX
  8
01
  5
200B1
 10
725.862
 20
-662.486
 30
0.000000
  70
    32
  0
VERTEX
  8
01
  5
200B2
 10
725.850
 20
-662.486
 30
0.000000
  70
    32
  0
VERTEX
  8
01
  5
200B3
 10
725.838
 20
-662.486
 30
0.000000
  70
    32
  0
VERTEX
  8
01
  5
200B4
 10
725.826
 20
-662.486
 30
0.000000
  70
    32
  0
VERTEX
  8
01
  5
200B5
 10
725.813
 20
-662.486
 30
0.000000
  70
    32
  0
VERTEX
  8
01
  5
200B6
 10
725.801
 20
-662.486
 30
0.000000
  70
    32
  0
VERTEX
  8
01
  5
200B7
 10
725.789
 20
-662.486
 30
0.000000
  70
    32
  0
VERTEX
  8
01
  5
200B8
 10
725.777
 20
-662.486
 30
0.000000
  70
    32
  0
VERTEX
  8
01
  5
200B9
 10
725.765
 20
-662.486
 30
0.000000
  70
    32
  0
VERTEX
  8
01
  5
200BA
 10
725.752
 20
-662.486
 30
0.000000
  70
    32
  0
VERTEX
  8
01
  5
200BB
 10
725.740
 20
-662.485
 30
0.000000
  70
    32
  0
VERTEX
  8
01
  5
200BC
 10
725.728
 20
-662.485
 30
0.000000
  70
    32
  0
VERTEX
  8
01
  5
200BD
 10
725.715
 20
-662.485
 30
0.000000
  70
    32
  0
VERTEX
  8
01
  5
200BE
 10
725.703
 20
-662.485
 30
0.000000
  70
    32
  0
VERTEX
  8
01
  5
200BF
 10
725.691
 20
-662.485
 30
0.000000
  70
    32
  0
VERTEX
  8
01
  5
200C0
 10
725.678
 20
-662.485
 30
0.000000
  70
    32
  0
VERTEX
  8
01
  5
200C1
 10
725.666
 20
-662.485
 30
0.000000
  70
    32
  0
VERTEX
  8
01
  5
200C2
 10
725.654
 20
-662.485
 30
0.000000
  70
    32
  0
VERTEX
  8
01
  5
200C3
 10
725.641
 20
-662.485
 30
0.000000
  70
    32
  0
VERTEX
  8
01
  5
200C4
 10
725.629
 20
-662.485
 30
0.000000
  70
    32
  0
VERTEX
  8
01
  5
200C5
 10
725.617
 20
-662.485
 30
0.000000
  70
    32
  0
VERTEX
  8
01
  5
200C6
 10
725.604
 20
-662.485
 30
0.000000
  70
    32
  0
VERTEX
  8
01
  5
200C7
 10
725.592
 20
-662.485
 30
0.000000
  70
    32
  0
VERTEX
  8
01
  5
200C8
 10
725.580
 20
-662.484
 30
0.000000
  70
    32
  0
VERTEX
  8
01
  5
200C9
 10
725.567
 20
-662.484
 30
0.000000
  70
    32
  0
VERTEX
  8
01
  5
200CA
 10
725.555
 20
-662.484
 30
0.000000
  70
    32
  0
VERTEX
  8
01
  5
200CB
 10
725.542
 20
-662.484
 30
0.000000
  70
    32
  0
VERTEX
  8
01
  5
200CC
 10
725.530
 20
-662.484
 30
0.000000
  70
    32
  0
VERTEX
  8
01
  5
200CD
 10
725.518
 20
-662.484
 30
0.000000
  70
    32
  0
VERTEX
  8
01
  5
200CE
 10
725.505
 20
-662.484
 30
0.000000
  70
    32
  0
VERTEX
  8
01
  5
200CF
 10
725.493
 20
-662.484
 30
0.000000
  70
    32
  0
VERTEX
  8
01
  5
200D0
 10
725.480
 20
-662.484
 30
0.000000
  70
    32
  0
VERTEX
  8
01
  5
200D1
 10
725.468
 20
-662.484
 30
0.000000
  70
    32
  0
VERTEX
  8
01
  5
200D2
 10
725.456
 20
-662.484
 30
0.000000
  70
    32
  0
VERTEX
  8
01
  5
200D3
 10
725.443
 20
-662.484
 30
0.000000
  70
    32
  0
VERTEX
  8
01
  5
200D4
 10
725.431
 20
-662.484
 30
0.000000
  70
    32
  0
VERTEX
  8
01
  5
200D5
 10
725.418
 20
-662.484
 30
0.000000
  70
    32
  0
VERTEX
  8
01
  5
200D6
 10
725.406
 20
-662.484
 30
0.000000
  70
    32
  0
VERTEX
  8
01
  5
200D7
 10
725.393
 20
-662.484
 30
0.000000
  70
    32
  0
VERTEX
  8
01
  5
200D8
 10
725.381
 20
-662.484
 30
0.000000
  70
    32
  0
VERTEX
  8
01
  5
200D9
 10
725.368
 20
-662.484
 30
0.000000
  70
    32
  0
VERTEX
  8
01
  5
200DA
 10
725.356
 20
-662.484
 30
0.000000
  70
    32
  0
VERTEX
  8
01
  5
200DB
 10
725.343
 20
-662.483
 30
0.000000
  70
    32
  0
VERTEX
  8
01
  5
200DC
 10
725.331
 20
-662.483
 30
0.000000
  70
    32
  0
VERTEX
  8
01
  5
200DD
 10
725.319
 20
-662.483
 30
0.000000
  70
    32
  0
VERTEX
  8
01
  5
200DE
 10
725.306
 20
-662.483
 30
0.000000
  70
    32
  0
VERTEX
  8
01
  5
200DF
 10
725.294
 20
-662.483
 30
0.000000
  70
    32
  0
VERTEX
  8
01
  5
200E0
 10
725.281
 20
-662.483
 30
0.000000
  70
    32
  0
VERTEX
  8
01
  5
200E1
 10
725.269
 20
-662.483
 30
0.000000
  70
    32
  0
VERTEX
  8
01
  5
200E2
 10
725.256
 20
-662.483
 30
0.000000
  70
    32
  0
VERTEX
  8
01
  5
200E3
 10
725.244
 20
-662.483
 30
0.000000
  70
    32
  0
VERTEX
  8
01
  5
200E4
 10
725.231
 20
-662.483
 30
0.000000
  70
    32
  0
VERTEX
  8
01
  5
200E5
 10
725.219
 20
-662.483
 30
0.000000
  70
    32
  0
VERTEX
  8
01
  5
200E6
 10
725.206
 20
-662.483
 30
0.000000
  70
    32
  0
VERTEX
  8
01
  5
200E7
 10
725.194
 20
-662.483
 30
0.000000
  70
    32
  0
VERTEX
  8
01
  5
200E8
 10
725.181
 20
-662.483
 30
0.000000
  70
    32
  0
VERTEX
  8
01
  5
200E9
 10
725.169
 20
-662.483
 30
0.000000
  70
    32
  0
VERTEX
  8
01
  5
200EA
 10
725.156
 20
-662.483
 30
0.000000
  70
    32
  0
VERTEX
  8
01
  5
200EB
 10
725.144
 20
-662.483
 30
0.000000
  70
    32
  0
VERTEX
  8
01
  5
200EC
 10
725.131
 20
-662.483
 30
0.000000
  70
    32
  0
VERTEX
  8
01
  5
200ED
 10
725.119
 20
-662.483
 30
0.000000
  70
    32
  0
VERTEX
  8
01
  5
200EE
 10
725.106
 20
-662.483
 30
0.000000
  70
    32
  0
VERTEX
  8
01
  5
200EF
 10
725.094
 20
-662.483
 30
0.000000
  70
    32
  0
VERTEX
  8
01
  5
200F0
 10
725.081
 20
-662.483
 30
0.000000
  70
    32
  0
VERTEX
  8
01
  5
200F1
 10
725.069
 20
-662.483
 30
0.000000
  70
    32
  0
VERTEX
  8
01
  5
200F2
 10
725.056
 20
-662.483
 30
0.000000
  70
    32
  0
VERTEX
  8
01
  5
200F3
 10
725.044
 20
-662.483
 30
0.000000
  70
    32
  0
VERTEX
  8
01
  5
200F4
 10
725.032
 20
-662.483
 30
0.000000
  70
    32
  0
VERTEX
  8
01
  5
200F5
 10
725.019
 20
-662.483
 30
0.000000
  70
    32
  0
VERTEX
  8
01
  5
200F6
 10
725.007
 20
-662.483
 30
0.000000
  70
    32
  0
VERTEX
  8
01
  5
200F7
 10
724.994
 20
-662.483
 30
0.000000
  70
    32
  0
VERTEX
  8
01
  5
200F8
 10
724.982
 20
-662.483
 30
0.000000
  70
    32
  0
VERTEX
  8
01
  5
200F9
 10
724.969
 20
-662.483
 30
0.000000
  70
    32
  0
VERTEX
  8
01
  5
200FA
 10
724.957
 20
-662.483
 30
0.000000
  70
    32
  0
VERTEX
  8
01
  5
200FB
 10
724.944
 20
-662.483
 30
0.000000
  70
    32
  0
VERTEX
  8
01
  5
200FC
 10
724.932
 20
-662.483
 30
0.000000
  70
    32
  0
VERTEX
  8
01
  5
200FD
 10
724.920
 20
-662.483
 30
0.000000
  70
    32
  0
VERTEX
  8
01
  5
200FE
 10
724.907
 20
-662.483
 30
0.000000
  70
    32
  0
VERTEX
  8
01
  5
200FF
 10
724.895
 20
-662.483
 30
0.000000
  70
    32
  0
VERTEX
  8
01
  5
20100
 10
724.882
 20
-662.483
 30
0.000000
  70
    32
  0
VERTEX
  8
01
  5
20101
 10
724.870
 20
-662.483
 30
0.000000
  70
    32
  0
VERTEX
  8
01
  5
20102
 10
724.857
 20
-662.483
 30
0.000000
  70
    32
  0
VERTEX
  8
01
  5
20103
 10
724.845
 20
-662.483
 30
0.000000
  70
    32
  0
VERTEX
  8
01
  5
20104
 10
724.833
 20
-662.483
 30
0.000000
  70
    32
  0
VERTEX
  8
01
  5
20105
 10
724.820
 20
-662.483
 30
0.000000
  70
    32
  0
VERTEX
  8
01
  5
20106
 10
724.808
 20
-662.483
 30
0.000000
  70
    32
  0
VERTEX
  8
01
  5
20107
 10
724.795
 20
-662.483
 30
0.000000
  70
    32
  0
VERTEX
  8
01
  5
20108
 10
724.783
 20
-662.483
 30
0.000000
  70
    32
  0
VERTEX
  8
01
  5
20109
 10
724.771
 20
-662.483
 30
0.000000
  70
    32
  0
VERTEX
  8
01
  5
2010A
 10
724.758
 20
-662.483
 30
0.000000
  70
    32
  0
VERTEX
  8
01
  5
2010B
 10
724.746
 20
-662.483
 30
0.000000
  70
    32
  0
VERTEX
  8
01
  5
2010C
 10
724.733
 20
-662.483
 30
0.000000
  70
    32
  0
VERTEX
  8
01
  5
2010D
 10
724.721
 20
-662.483
 30
0.000000
  70
    32
  0
VERTEX
  8
01
  5
2010E
 10
724.709
 20
-662.483
 30
0.000000
  70
    32
  0
VERTEX
  8
01
  5
2010F
 10
724.696
 20
-662.483
 30
0.000000
  70
    32
  0
VERTEX
  8
01
  5
20110
 10
724.684
 20
-662.484
 30
0.000000
  70
    32
  0
VERTEX
  8
01
  5
20111
 10
724.672
 20
-662.484
 30
0.000000
  70
    32
  0
VERTEX
  8
01
  5
20112
 10
724.659
 20
-662.484
 30
0.000000
  70
    32
  0
VERTEX
  8
01
  5
20113
 10
724.647
 20
-662.484
 30
0.000000
  70
    32
  0
VERTEX
  8
01
  5
20114
 10
724.635
 20
-662.484
 30
0.000000
  70
    32
  0
VERTEX
  8
01
  5
20115
 10
724.622
 20
-662.484
 30
0.000000
  70
    32
  0
VERTEX
  8
01
  5
20116
 10
724.610
 20
-662.484
 30
0.000000
  70
    32
  0
VERTEX
  8
01
  5
20117
 10
724.598
 20
-662.484
 30
0.000000
  70
    32
  0
VERTEX
  8
01
  5
20118
 10
724.585
 20
-662.484
 30
0.000000
  70
    32
  0
VERTEX
  8
01
  5
20119
 10
724.573
 20
-662.484
 30
0.000000
  70
    32
  0
VERTEX
  8
01
  5
2011A
 10
724.561
 20
-662.484
 30
0.000000
  70
    32
  0
VERTEX
  8
01
  5
2011B
 10
724.548
 20
-662.484
 30
0.000000
  70
    32
  0
VERTEX
  8
01
  5
2011C
 10
724.536
 20
-662.484
 30
0.000000
  70
    32
  0
VERTEX
  8
01
  5
2011D
 10
724.524
 20
-662.484
 30
0.000000
  70
    32
  0
VERTEX
  8
01
  5
2011E
 10
724.511
 20
-662.484
 30
0.000000
  70
    32
  0
VERTEX
  8
01
  5
2011F
 10
724.499
 20
-662.484
 30
0.000000
  70
    32
  0
VERTEX
  8
01
  5
20120
 10
724.487
 20
-662.484
 30
0.000000
  70
    32
  0
VERTEX
  8
01
  5
20121
 10
724.474
 20
-662.484
 30
0.000000
  70
    32
  0
VERTEX
  8
01
  5
20122
 10
724.462
 20
-662.484
 30
0.000000
  70
    32
  0
VERTEX
  8
01
  5
20123
 10
724.450
 20
-662.484
 30
0.000000
  70
    32
  0
VERTEX
  8
01
  5
20124
 10
724.438
 20
-662.485
 30
0.000000
  70
    32
  0
VERTEX
  8
01
  5
20125
 10
724.425
 20
-662.485
 30
0.000000
  70
    32
  0
VERTEX
  8
01
  5
20126
 10
724.413
 20
-662.485
 30
0.000000
  70
    32
  0
VERTEX
  8
01
  5
20127
 10
724.401
 20
-662.485
 30
0.000000
  70
    32
  0
VERTEX
  8
01
  5
20128
 10
724.389
 20
-662.485
 30
0.000000
  70
    32
  0
VERTEX
  8
01
  5
20129
 10
724.376
 20
-662.485
 30
0.000000
  70
    32
  0
VERTEX
  8
01
  5
2012A
 10
724.364
 20
-662.485
 30
0.000000
  70
    32
  0
VERTEX
  8
01
  5
2012B
 10
724.352
 20
-662.485
 30
0.000000
  70
    32
  0
VERTEX
  8
01
  5
2012C
 10
724.339
 20
-662.485
 30
0.000000
  70
    32
  0
VERTEX
  8
01
  5
2012D
 10
724.327
 20
-662.485
 30
0.000000
  70
    32
  0
VERTEX
  8
01
  5
2012E
 10
724.315
 20
-662.485
 30
0.000000
  70
    32
  0
VERTEX
  8
01
  5
2012F
 10
724.303
 20
-662.485
 30
0.000000
  70
    32
  0
VERTEX
  8
01
  5
20130
 10
724.290
 20
-662.485
 30
0.000000
  70
    32
  0
VERTEX
  8
01
  5
20131
 10
724.278
 20
-662.486
 30
0.000000
  70
    32
  0
VERTEX
  8
01
  5
20132
 10
724.266
 20
-662.486
 30
0.000000
  70
    32
  0
VERTEX
  8
01
  5
20133
 10
724.254
 20
-662.486
 30
0.000000
  70
    32
  0
VERTEX
  8
01
  5
20134
 10
724.242
 20
-662.486
 30
0.000000
  70
    32
  0
VERTEX
  8
01
  5
20135
 10
724.229
 20
-662.486
 30
0.000000
  70
    32
  0
VERTEX
  8
01
  5
20136
 10
724.217
 20
-662.486
 30
0.000000
  70
    32
  0
VERTEX
  8
01
  5
20137
 10
724.205
 20
-662.486
 30
0.000000
  70
    32
  0
VERTEX
  8
01
  5
20138
 10
724.193
 20
-662.486
 30
0.000000
  70
    32
  0
VERTEX
  8
01
  5
20139
 10
724.180
 20
-662.486
 30
0.000000
  70
    32
  0
VERTEX
  8
01
  5
2013A
 10
724.168
 20
-662.486
 30
0.000000
  70
    32
  0
VERTEX
  8
01
  5
2013B
 10
724.156
 20
-662.486
 30
0.000000
  70
    32
  0
VERTEX
  8
01
  5
2013C
 10
724.144
 20
-662.487
 30
0.000000
  70
    32
  0
VERTEX
  8
01
  5
2013D
 10
724.132
 20
-662.487
 30
0.000000
  70
    32
  0
VERTEX
  8
01
  5
2013E
 10
724.120
 20
-662.487
 30
0.000000
  70
    32
  0
VERTEX
  8
01
  5
2013F
 10
724.107
 20
-662.487
 30
0.000000
  70
    32
  0
VERTEX
  8
01
  5
20140
 10
724.095
 20
-662.487
 30
0.000000
  70
    32
  0
VERTEX
  8
01
  5
20141
 10
724.083
 20
-662.487
 30
0.000000
  70
    32
  0
VERTEX
  8
01
  5
20142
 10
724.071
 20
-662.487
 30
0.000000
  70
    32
  0
VERTEX
  8
01
  5
20143
 10
724.059
 20
-662.487
 30
0.000000
  70
    32
  0
VERTEX
  8
01
  5
20144
 10
724.046
 20
-662.487
 30
0.000000
  70
    32
  0
VERTEX
  8
01
  5
20145
 10
724.034
 20
-662.487
 30
0.000000
  70
    32
  0
VERTEX
  8
01
  5
20146
 10
724.022
 20
-662.488
 30
0.000000
  70
    32
  0
VERTEX
  8
01
  5
20147
 10
724.010
 20
-662.488
 30
0.000000
  70
    32
  0
VERTEX
  8
01
  5
20148
 10
723.998
 20
-662.488
 30
0.000000
  70
    32
  0
VERTEX
  8
01
  5
20149
 10
723.986
 20
-662.488
 30
0.000000
  70
    32
  0
VERTEX
  8
01
  5
2014A
 10
723.973
 20
-662.488
 30
0.000000
  70
    32
  0
VERTEX
  8
01
  5
2014B
 10
723.961
 20
-662.488
 30
0.000000
  70
    32
  0
VERTEX
  8
01
  5
2014C
 10
723.949
 20
-662.488
 30
0.000000
  70
    32
  0
VERTEX
  8
01
  5
2014D
 10
723.937
 20
-662.488
 30
0.000000
  70
    32
  0
VERTEX
  8
01
  5
2014E
 10
723.925
 20
-662.489
 30
0.000000
  70
    32
  0
VERTEX
  8
01
  5
2014F
 10
723.913
 20
-662.489
 30
0.000000
  70
    32
  0
VERTEX
  8
01
  5
20150
 10
723.901
 20
-662.489
 30
0.000000
  70
    32
  0
VERTEX
  8
01
  5
20151
 10
723.889
 20
-662.489
 30
0.000000
  70
    32
  0
VERTEX
  8
01
  5
20152
 10
723.877
 20
-662.489
 30
0.000000
  70
    32
  0
VERTEX
  8
01
  5
20153
 10
723.864
 20
-662.489
 30
0.000000
  70
    32
  0
VERTEX
  8
01
  5
20154
 10
723.852
 20
-662.489
 30
0.000000
  70
    32
  0
VERTEX
  8
01
  5
20155
 10
723.840
 20
-662.489
 30
0.000000
  70
    32
  0
VERTEX
  8
01
  5
20156
 10
723.828
 20
-662.490
 30
0.000000
  70
    32
  0
VERTEX
  8
01
  5
20157
 10
723.816
 20
-662.490
 30
0.000000
  70
    32
  0
VERTEX
  8
01
  5
20158
 10
723.804
 20
-662.490
 30
0.000000
  70
    32
  0
VERTEX
  8
01
  5
20159
 10
723.792
 20
-662.490
 30
0.000000
  70
    32
  0
VERTEX
  8
01
  5
2015A
 10
723.780
 20
-662.490
 30
0.000000
  70
    32
  0
VERTEX
  8
01
  5
2015B
 10
723.768
 20
-662.490
 30
0.000000
  70
    32
  0
VERTEX
  8
01
  5
2015C
 10
723.756
 20
-662.490
 30
0.000000
  70
    32
  0
VERTEX
  8
01
  5
2015D
 10
723.744
 20
-662.491
 30
0.000000
  70
    32
  0
VERTEX
  8
01
  5
2015E
 10
723.732
 20
-662.491
 30
0.000000
  70
    32
  0
VERTEX
  8
01
  5
2015F
 10
723.720
 20
-662.491
 30
0.000000
  70
    32
  0
VERTEX
  8
01
  5
20160
 10
723.708
 20
-662.491
 30
0.000000
  70
    32
  0
VERTEX
  8
01
  5
20161
 10
723.696
 20
-662.491
 30
0.000000
  70
    32
  0
VERTEX
  8
01
  5
20162
 10
723.684
 20
-662.491
 30
0.000000
  70
    32
  0
VERTEX
  8
01
  5
20163
 10
723.672
 20
-662.491
 30
0.000000
  70
    32
  0
VERTEX
  8
01
  5
20164
 10
723.661
 20
-662.492
 30
0.000000
  70
    32
  0
VERTEX
  8
01
  5
20165
 10
723.649
 20
-662.492
 30
0.000000
  70
    32
  0
VERTEX
  8
01
  5
20166
 10
723.637
 20
-662.492
 30
0.000000
  70
    32
  0
VERTEX
  8
01
  5
20167
 10
723.625
 20
-662.492
 30
0.000000
  70
    32
  0
VERTEX
  8
01
  5
20168
 10
723.613
 20
-662.492
 30
0.000000
  70
    32
  0
VERTEX
  8
01
  5
20169
 10
723.601
 20
-662.492
 30
0.000000
  70
    32
  0
VERTEX
  8
01
  5
2016A
 10
723.589
 20
-662.493
 30
0.000000
  70
    32
  0
VERTEX
  8
01
  5
2016B
 10
723.578
 20
-662.493
 30
0.000000
  70
    32
  0
VERTEX
  8
01
  5
2016C
 10
723.566
 20
-662.493
 30
0.000000
  70
    32
  0
VERTEX
  8
01
  5
2016D
 10
723.554
 20
-662.493
 30
0.000000
  70
    32
  0
VERTEX
  8
01
  5
2016E
 10
723.542
 20
-662.493
 30
0.000000
  70
    32
  0
VERTEX
  8
01
  5
2016F
 10
723.530
 20
-662.493
 30
0.000000
  70
    32
  0
VERTEX
  8
01
  5
20170
 10
723.519
 20
-662.493
 30
0.000000
  70
    32
  0
VERTEX
  8
01
  5
20171
 10
723.507
 20
-662.494
 30
0.000000
  70
    32
  0
VERTEX
  8
01
  5
20172
 10
723.495
 20
-662.494
 30
0.000000
  70
    32
  0
VERTEX
  8
01
  5
20173
 10
723.484
 20
-662.494
 30
0.000000
  70
    32
  0
VERTEX
  8
01
  5
20174
 10
723.472
 20
-662.494
 30
0.000000
  70
    32
  0
VERTEX
  8
01
  5
20175
 10
723.460
 20
-662.494
 30
0.000000
  70
    32
  0
VERTEX
  8
01
  5
20176
 10
723.449
 20
-662.494
 30
0.000000
  70
    32
  0
VERTEX
  8
01
  5
20177
 10
723.437
 20
-662.495
 30
0.000000
  70
    32
  0
VERTEX
  8
01
  5
20178
 10
723.425
 20
-662.495
 30
0.000000
  70
    32
  0
VERTEX
  8
01
  5
20179
 10
723.414
 20
-662.495
 30
0.000000
  70
    32
  0
VERTEX
  8
01
  5
2017A
 10
723.402
 20
-662.495
 30
0.000000
  70
    32
  0
VERTEX
  8
01
  5
2017B
 10
723.391
 20
-662.495
 30
0.000000
  70
    32
  0
VERTEX
  8
01
  5
2017C
 10
723.379
 20
-662.496
 30
0.000000
  70
    32
  0
VERTEX
  8
01
  5
2017D
 10
723.368
 20
-662.496
 30
0.000000
  70
    32
  0
VERTEX
  8
01
  5
2017E
 10
723.356
 20
-662.496
 30
0.000000
  70
    32
  0
VERTEX
  8
01
  5
2017F
 10
723.345
 20
-662.496
 30
0.000000
  70
    32
  0
VERTEX
  8
01
  5
20180
 10
723.333
 20
-662.496
 30
0.000000
  70
    32
  0
VERTEX
  8
01
  5
20181
 10
723.322
 20
-662.496
 30
0.000000
  70
    32
  0
VERTEX
  8
01
  5
20182
 10
723.310
 20
-662.497
 30
0.000000
  70
    32
  0
VERTEX
  8
01
  5
20183
 10
723.299
 20
-662.497
 30
0.000000
  70
    32
  0
VERTEX
  8
01
  5
20184
 10
723.287
 20
-662.497
 30
0.000000
  70
    32
  0
VERTEX
  8
01
  5
20185
 10
723.276
 20
-662.497
 30
0.000000
  70
    32
  0
VERTEX
  8
01
  5
20186
 10
723.265
 20
-662.497
 30
0.000000
  70
    32
  0
VERTEX
  8
01
  5
20187
 10
723.253
 20
-662.498
 30
0.000000
  70
    32
  0
VERTEX
  8
01
  5
20188
 10
723.242
 20
-662.498
 30
0.000000
  70
    32
  0
VERTEX
  8
01
  5
20189
 10
723.230
 20
-662.498
 30
0.000000
  70
    32
  0
VERTEX
  8
01
  5
2018A
 10
723.219
 20
-662.498
 30
0.000000
  70
    32
  0
VERTEX
  8
01
  5
2018B
 10
723.208
 20
-662.498
 30
0.000000
  70
    32
  0
VERTEX
  8
01
  5
2018C
 10
723.197
 20
-662.498
 30
0.000000
  70
    32
  0
VERTEX
  8
01
  5
2018D
 10
723.185
 20
-662.499
 30
0.000000
  70
    32
  0
VERTEX
  8
01
  5
2018E
 10
723.174
 20
-662.499
 30
0.000000
  70
    32
  0
VERTEX
  8
01
  5
2018F
 10
723.163
 20
-662.499
 30
0.000000
  70
    32
  0
VERTEX
  8
01
  5
20190
 10
723.151
 20
-662.499
 30
0.000000
  70
    32
  0
VERTEX
  8
01
  5
20191
 10
723.140
 20
-662.499
 30
0.000000
  70
    32
  0
VERTEX
  8
01
  5
20192
 10
723.129
 20
-662.500
 30
0.000000
  70
    32
  0
VERTEX
  8
01
  5
20193
 10
723.118
 20
-662.500
 30
0.000000
  70
    32
  0
VERTEX
  8
01
  5
20194
 10
723.107
 20
-662.500
 30
0.000000
  70
    32
  0
VERTEX
  8
01
  5
20195
 10
723.096
 20
-662.500
 30
0.000000
  70
    32
  0
VERTEX
  8
01
  5
20196
 10
723.084
 20
-662.500
 30
0.000000
  70
    32
  0
VERTEX
  8
01
  5
20197
 10
723.073
 20
-662.501
 30
0.000000
  70
    32
  0
VERTEX
  8
01
  5
20198
 10
723.062
 20
-662.501
 30
0.000000
  70
    32
  0
VERTEX
  8
01
  5
20199
 10
723.051
 20
-662.501
 30
0.000000
  70
    32
  0
VERTEX
  8
01
  5
2019A
 10
723.040
 20
-662.501
 30
0.000000
  70
    32
  0
VERTEX
  8
01
  5
2019B
 10
723.029
 20
-662.501
 30
0.000000
  70
    32
  0
VERTEX
  8
01
  5
2019C
 10
723.018
 20
-662.502
 30
0.000000
  70
    32
  0
VERTEX
  8
01
  5
2019D
 10
723.007
 20
-662.502
 30
0.000000
  70
    32
  0
VERTEX
  8
01
  5
2019E
 10
722.996
 20
-662.502
 30
0.000000
  70
    32
  0
VERTEX
  8
01
  5
2019F
 10
722.985
 20
-662.502
 30
0.000000
  70
    32
  0
VERTEX
  8
01
  5
201A0
 10
722.974
 20
-662.502
 30
0.000000
  70
    32
  0
VERTEX
  8
01
  5
201A1
 10
722.963
 20
-662.503
 30
0.000000
  70
    32
  0
VERTEX
  8
01
  5
201A2
 10
722.952
 20
-662.503
 30
0.000000
  70
    32
  0
VERTEX
  8
01
  5
201A3
 10
722.941
 20
-662.503
 30
0.000000
  70
    32
  0
VERTEX
  8
01
  5
201A4
 10
722.930
 20
-662.503
 30
0.000000
  70
    32
  0
VERTEX
  8
01
  5
201A5
 10
722.919
 20
-662.504
 30
0.000000
  70
    32
  0
VERTEX
  8
01
  5
201A6
 10
722.908
 20
-662.504
 30
0.000000
  70
    32
  0
VERTEX
  8
01
  5
201A7
 10
722.897
 20
-662.504
 30
0.000000
  70
    32
  0
VERTEX
  8
01
  5
201A8
 10
722.886
 20
-662.504
 30
0.000000
  70
    32
  0
VERTEX
  8
01
  5
201A9
 10
722.875
 20
-662.504
 30
0.000000
  70
    32
  0
VERTEX
  8
01
  5
201AA
 10
722.865
 20
-662.505
 30
0.000000
  70
    32
  0
VERTEX
  8
01
  5
201AB
 10
722.854
 20
-662.505
 30
0.000000
  70
    32
  0
VERTEX
  8
01
  5
201AC
 10
722.843
 20
-662.505
 30
0.000000
  70
    32
  0
VERTEX
  8
01
  5
201AD
 10
722.832
 20
-662.505
 30
0.000000
  70
    32
  0
VERTEX
  8
01
  5
201AE
 10
722.821
 20
-662.505
 30
0.000000
  70
    32
  0
VERTEX
  8
01
  5
201AF
 10
722.811
 20
-662.506
 30
0.000000
  70
    32
  0
VERTEX
  8
01
  5
201B0
 10
722.800
 20
-662.506
 30
0.000000
  70
    32
  0
VERTEX
  8
01
  5
201B1
 10
722.789
 20
-662.506
 30
0.000000
  70
    32
  0
VERTEX
  8
01
  5
201B2
 10
722.778
 20
-662.506
 30
0.000000
  70
    32
  0
VERTEX
  8
01
  5
201B3
 10
722.768
 20
-662.507
 30
0.000000
  70
    32
  0
VERTEX
  8
01
  5
201B4
 10
722.757
 20
-662.507
 30
0.000000
  70
    32
  0
VERTEX
  8
01
  5
201B5
 10
722.746
 20
-662.507
 30
0.000000
  70
    32
  0
VERTEX
  8
01
  5
201B6
 10
722.736
 20
-662.507
 30
0.000000
  70
    32
  0
VERTEX
  8
01
  5
201B7
 10
722.725
 20
-662.508
 30
0.000000
  70
    32
  0
VERTEX
  8
01
  5
201B8
 10
722.714
 20
-662.508
 30
0.000000
  70
    32
  0
VERTEX
  8
01
  5
201B9
 10
722.704
 20
-662.508
 30
0.000000
  70
    32
  0
VERTEX
  8
01
  5
201BA
 10
722.693
 20
-662.508
 30
0.000000
  70
    32
  0
VERTEX
  8
01
  5
201BB
 10
722.683
 20
-662.508
 30
0.000000
  70
    32
  0
VERTEX
  8
01
  5
201BC
 10
722.672
 20
-662.509
 30
0.000000
  70
    32
  0
VERTEX
  8
01
  5
201BD
 10
722.662
 20
-662.509
 30
0.000000
  70
    32
  0
VERTEX
  8
01
  5
201BE
 10
722.651
 20
-662.509
 30
0.000000
  70
    32
  0
VERTEX
  8
01
  5
201BF
 10
722.641
 20
-662.509
 30
0.000000
  70
    32
  0
VERTEX
  8
01
  5
201C0
 10
722.630
 20
-662.510
 30
0.000000
  70
    32
  0
VERTEX
  8
01
  5
201C1
 10
722.620
 20
-662.510
 30
0.000000
  70
    32
  0
VERTEX
  8
01
  5
201C2
 10
722.609
 20
-662.510
 30
0.000000
  70
    32
  0
VERTEX
  8
01
  5
201C3
 10
722.599
 20
-662.510
 30
0.000000
  70
    32
  0
VERTEX
  8
01
  5
201C4
 10
722.588
 20
-662.511
 30
0.000000
  70
    32
  0
VERTEX
  8
01
  5
201C5
 10
722.578
 20
-662.511
 30
0.000000
  70
    32
  0
VERTEX
  8
01
  5
201C6
 10
722.567
 20
-662.511
 30
0.000000
  70
    32
  0
VERTEX
  8
01
  5
201C7
 10
722.557
 20
-662.511
 30
0.000000
  70
    32
  0
VERTEX
  8
01
  5
201C8
 10
722.547
 20
-662.511
 30
0.000000
  70
    32
  0
VERTEX
  8
01
  5
201C9
 10
722.536
 20
-662.512
 30
0.000000
  70
    32
  0
VERTEX
  8
01
  5
201CA
 10
722.526
 20
-662.512
 30
0.000000
  70
    32
  0
VERTEX
  8
01
  5
201CB
 10
722.516
 20
-662.512
 30
0.000000
  70
    32
  0
VERTEX
  8
01
  5
201CC
 10
722.505
 20
-662.512
 30
0.000000
  70
    32
  0
VERTEX
  8
01
  5
201CD
 10
722.495
 20
-662.513
 30
0.000000
  70
    32
  0
VERTEX
  8
01
  5
201CE
 10
722.485
 20
-662.513
 30
0.000000
  70
    32
  0
VERTEX
  8
01
  5
201CF
 10
722.475
 20
-662.513
 30
0.000000
  70
    32
  0
VERTEX
  8
01
  5
201D0
 10
722.464
 20
-662.513
 30
0.000000
  70
    32
  0
VERTEX
  8
01
  5
201D1
 10
722.454
 20
-662.514
 30
0.000000
  70
    32
  0
VERTEX
  8
01
  5
201D2
 10
722.444
 20
-662.514
 30
0.000000
  70
    32
  0
VERTEX
  8
01
  5
201D3
 10
722.434
 20
-662.514
 30
0.000000
  70
    32
  0
VERTEX
  8
01
  5
201D4
 10
722.424
 20
-662.514
 30
0.000000
  70
    32
  0
VERTEX
  8
01
  5
201D5
 10
722.414
 20
-662.515
 30
0.000000
  70
    32
  0
VERTEX
  8
01
  5
201D6
 10
722.404
 20
-662.515
 30
0.000000
  70
    32
  0
VERTEX
  8
01
  5
201D7
 10
722.394
 20
-662.515
 30
0.000000
  70
    32
  0
VERTEX
  8
01
  5
201D8
 10
722.384
 20
-662.515
 30
0.000000
  70
    32
  0
VERTEX
  8
01
  5
201D9
 10
722.374
 20
-662.516
 30
0.000000
  70
    32
  0
VERTEX
  8
01
  5
201DA
 10
722.364
 20
-662.516
 30
0.000000
  70
    32
  0
VERTEX
  8
01
  5
201DB
 10
722.354
 20
-662.516
 30
0.000000
  70
    32
  0
VERTEX
  8
01
  5
201DC
 10
722.344
 20
-662.516
 30
0.000000
  70
    32
  0
VERTEX
  8
01
  5
201DD
 10
722.334
 20
-662.517
 30
0.000000
  70
    32
  0
VERTEX
  8
01
  5
201DE
 10
722.324
 20
-662.517
 30
0.000000
  70
    32
  0
VERTEX
  8
01
  5
201DF
 10
722.314
 20
-662.517
 30
0.000000
  70
    32
  0
VERTEX
  8
01
  5
201E0
 10
722.304
 20
-662.517
 30
0.000000
  70
    32
  0
VERTEX
  8
01
  5
201E1
 10
722.294
 20
-662.518
 30
0.000000
  70
    32
  0
VERTEX
  8
01
  5
201E2
 10
722.285
 20
-662.518
 30
0.000000
  70
    32
  0
VERTEX
  8
01
  5
201E3
 10
722.275
 20
-662.518
 30
0.000000
  70
    32
  0
VERTEX
  8
01
  5
201E4
 10
722.265
 20
-662.518
 30
0.000000
  70
    32
  0
VERTEX
  8
01
  5
201E5
 10
722.255
 20
-662.519
 30
0.000000
  70
    32
  0
VERTEX
  8
01
  5
201E6
 10
722.246
 20
-662.519
 30
0.000000
  70
    32
  0
VERTEX
  8
01
  5
201E7
 10
722.236
 20
-662.519
 30
0.000000
  70
    32
  0
VERTEX
  8
01
  5
201E8
 10
722.226
 20
-662.519
 30
0.000000
  70
    32
  0
VERTEX
  8
01
  5
201E9
 10
722.217
 20
-662.520
 30
0.000000
  70
    32
  0
VERTEX
  8
01
  5
201EA
 10
722.207
 20
-662.520
 30
0.000000
  70
    32
  0
VERTEX
  8
01
  5
201EB
 10
722.197
 20
-662.520
 30
0.000000
  70
    32
  0
VERTEX
  8
01
  5
201EC
 10
722.188
 20
-662.520
 30
0.000000
  70
    32
  0
VERTEX
  8
01
  5
201ED
 10
722.178
 20
-662.521
 30
0.000000
  70
    32
  0
VERTEX
  8
01
  5
201EE
 10
722.169
 20
-662.521
 30
0.000000
  70
    32
  0
VERTEX
  8
01
  5
201EF
 10
722.159
 20
-662.521
 30
0.000000
  70
    32
  0
VERTEX
  8
01
  5
201F0
 10
722.150
 20
-662.521
 30
0.000000
  70
    32
  0
VERTEX
  8
01
  5
201F1
 10
722.140
 20
-662.522
 30
0.000000
  70
    32
  0
VERTEX
  8
01
  5
201F2
 10
722.131
 20
-662.522
 30
0.000000
  70
    32
  0
VERTEX
  8
01
  5
201F3
 10
722.122
 20
-662.522
 30
0.000000
  70
    32
  0
VERTEX
  8
01
  5
201F4
 10
722.112
 20
-662.522
 30
0.000000
  70
    32
  0
VERTEX
  8
01
  5
201F5
 10
722.103
 20
-662.523
 30
0.000000
  70
    32
  0
VERTEX
  8
01
  5
201F6
 10
722.094
 20
-662.523
 30
0.000000
  70
    32
  0
VERTEX
  8
01
  5
201F7
 10
722.084
 20
-662.523
 30
0.000000
  70
    32
  0
VERTEX
  8
01
  5
201F8
 10
722.075
 20
-662.523
 30
0.000000
  70
    32
  0
VERTEX
  8
01
  5
201F9
 10
722.066
 20
-662.524
 30
0.000000
  70
    32
  0
VERTEX
  8
01
  5
201FA
 10
722.057
 20
-662.524
 30
0.000000
  70
    32
  0
VERTEX
  8
01
  5
201FB
 10
722.048
 20
-662.524
 30
0.000000
  70
    32
  0
VERTEX
  8
01
  5
201FC
 10
722.038
 20
-662.524
 30
0.000000
  70
    32
  0
VERTEX
  8
01
  5
201FD
 10
722.029
 20
-662.525
 30
0.000000
  70
    32
  0
VERTEX
  8
01
  5
201FE
 10
722.020
 20
-662.525
 30
0.000000
  70
    32
  0
VERTEX
  8
01
  5
201FF
 10
722.011
 20
-662.525
 30
0.000000
  70
    32
  0
VERTEX
  8
01
  5
20200
 10
722.002
 20
-662.525
 30
0.000000
  70
    32
  0
VERTEX
  8
01
  5
20201
 10
721.993
 20
-662.526
 30
0.000000
  70
    32
  0
VERTEX
  8
01
  5
20202
 10
721.984
 20
-662.526
 30
0.000000
  70
    32
  0
VERTEX
  8
01
  5
20203
 10
721.975
 20
-662.526
 30
0.000000
  70
    32
  0
VERTEX
  8
01
  5
20204
 10
721.966
 20
-662.526
 30
0.000000
  70
    32
  0
VERTEX
  8
01
  5
20205
 10
721.957
 20
-662.527
 30
0.000000
  70
    32
  0
VERTEX
  8
01
  5
20206
 10
721.948
 20
-662.527
 30
0.000000
  70
    32
  0
VERTEX
  8
01
  5
20207
 10
721.939
 20
-662.527
 30
0.000000
  70
    32
  0
VERTEX
  8
01
  5
20208
 10
721.931
 20
-662.527
 30
0.000000
  70
    32
  0
VERTEX
  8
01
  5
20209
 10
721.922
 20
-662.528
 30
0.000000
  70
    32
  0
VERTEX
  8
01
  5
2020A
 10
721.913
 20
-662.528
 30
0.000000
  70
    32
  0
VERTEX
  8
01
  5
2020B
 10
721.904
 20
-662.528
 30
0.000000
  70
    32
  0
VERTEX
  8
01
  5
2020C
 10
721.896
 20
-662.528
 30
0.000000
  70
    32
  0
VERTEX
  8
01
  5
2020D
 10
721.887
 20
-662.529
 30
0.000000
  70
    32
  0
VERTEX
  8
01
  5
2020E
 10
721.878
 20
-662.529
 30
0.000000
  70
    32
  0
VERTEX
  8
01
  5
2020F
 10
721.870
 20
-662.529
 30
0.000000
  70
    32
  0
VERTEX
  8
01
  5
20210
 10
721.861
 20
-662.529
 30
0.000000
  70
    32
  0
VERTEX
  8
01
  5
20211
 10
721.852
 20
-662.530
 30
0.000000
  70
    32
  0
VERTEX
  8
01
  5
20212
 10
721.844
 20
-662.530
 30
0.000000
  70
    32
  0
VERTEX
  8
01
  5
20213
 10
721.835
 20
-662.530
 30
0.000000
  70
    32
  0
VERTEX
  8
01
  5
20214
 10
721.827
 20
-662.531
 30
0.000000
  70
    32
  0
VERTEX
  8
01
  5
20215
 10
721.818
 20
-662.531
 30
0.000000
  70
    32
  0
VERTEX
  8
01
  5
20216
 10
721.810
 20
-662.531
 30
0.000000
  70
    32
  0
VERTEX
  8
01
  5
20217
 10
721.801
 20
-662.531
 30
0.000000
  70
    32
  0
VERTEX
  8
01
  5
20218
 10
721.793
 20
-662.532
 30
0.000000
  70
    32
  0
VERTEX
  8
01
  5
20219
 10
721.784
 20
-662.532
 30
0.000000
  70
    32
  0
VERTEX
  8
01
  5
2021A
 10
721.776
 20
-662.532
 30
0.000000
  70
    32
  0
VERTEX
  8
01
  5
2021B
 10
721.768
 20
-662.532
 30
0.000000
  70
    32
  0
VERTEX
  8
01
  5
2021C
 10
721.759
 20
-662.533
 30
0.000000
  70
    32
  0
VERTEX
  8
01
  5
2021D
 10
721.751
 20
-662.533
 30
0.000000
  70
    32
  0
VERTEX
  8
01
  5
2021E
 10
721.743
 20
-662.533
 30
0.000000
  70
    32
  0
VERTEX
  8
01
  5
2021F
 10
721.734
 20
-662.533
 30
0.000000
  70
    32
  0
VERTEX
  8
01
  5
20220
 10
721.726
 20
-662.534
 30
0.000000
  70
    32
  0
VERTEX
  8
01
  5
20221
 10
721.718
 20
-662.534
 30
0.000000
  70
    32
  0
VERTEX
  8
01
  5
20222
 10
721.710
 20
-662.534
 30
0.000000
  70
    32
  0
VERTEX
  8
01
  5
20223
 10
721.702
 20
-662.534
 30
0.000000
  70
    32
  0
VERTEX
  8
01
  5
20224
 10
721.694
 20
-662.535
 30
0.000000
  70
    32
  0
VERTEX
  8
01
  5
20225
 10
721.685
 20
-662.535
 30
0.000000
  70
    32
  0
VERTEX
  8
01
  5
20226
 10
721.677
 20
-662.535
 30
0.000000
  70
    32
  0
VERTEX
  8
01
  5
20227
 10
721.669
 20
-662.535
 30
0.000000
  70
    32
  0
VERTEX
  8
01
  5
20228
 10
721.661
 20
-662.536
 30
0.000000
  70
    32
  0
VERTEX
  8
01
  5
20229
 10
721.653
 20
-662.536
 30
0.000000
  70
    32
  0
VERTEX
  8
01
  5
2022A
 10
721.645
 20
-662.536
 30
0.000000
  70
    32
  0
VERTEX
  8
01
  5
2022B
 10
721.637
 20
-662.536
 30
0.000000
  70
    32
  0
VERTEX
  8
01
  5
2022C
 10
721.630
 20
-662.537
 30
0.000000
  70
    32
  0
VERTEX
  8
01
  5
2022D
 10
721.622
 20
-662.537
 30
0.000000
  70
    32
  0
VERTEX
  8
01
  5
2022E
 10
721.614
 20
-662.537
 30
0.000000
  70
    32
  0
VERTEX
  8
01
  5
2022F
 10
721.606
 20
-662.537
 30
0.000000
  70
    32
  0
VERTEX
  8
01
  5
20230
 10
721.598
 20
-662.538
 30
0.000000
  70
    32
  0
VERTEX
  8
01
  5
20231
 10
721.590
 20
-662.538
 30
0.000000
  70
    32
  0
VERTEX
  8
01
  5
20232
 10
721.583
 20
-662.538
 30
0.000000
  70
    32
  0
VERTEX
  8
01
  5
20233
 10
721.575
 20
-662.538
 30
0.000000
  70
    32
  0
VERTEX
  8
01
  5
20234
 10
721.567
 20
-662.539
 30
0.000000
  70
    32
  0
VERTEX
  8
01
  5
20235
 10
721.559
 20
-662.539
 30
0.000000
  70
    32
  0
VERTEX
  8
01
  5
20236
 10
721.552
 20
-662.539
 30
0.000000
  70
    32
  0
VERTEX
  8
01
  5
20237
 10
721.544
 20
-662.539
 30
0.000000
  70
    32
  0
VERTEX
  8
01
  5
20238
 10
721.537
 20
-662.540
 30
0.000000
  70
    32
  0
VERTEX
  8
01
  5
20239
 10
721.529
 20
-662.540
 30
0.000000
  70
    32
  0
VERTEX
  8
01
  5
2023A
 10
721.521
 20
-662.540
 30
0.000000
  70
    32
  0
VERTEX
  8
01
  5
2023B
 10
721.514
 20
-662.540
 30
0.000000
  70
    32
  0
VERTEX
  8
01
  5
2023C
 10
721.506
 20
-662.541
 30
0.000000
  70
    32
  0
VERTEX
  8
01
  5
2023D
 10
721.499
 20
-662.541
 30
0.000000
  70
    32
  0
VERTEX
  8
01
  5
2023E
 10
721.492
 20
-662.541
 30
0.000000
  70
    32
  0
VERTEX
  8
01
  5
2023F
 10
721.484
 20
-662.541
 30
0.000000
  70
    32
  0
VERTEX
  8
01
  5
20240
 10
721.477
 20
-662.541
 30
0.000000
  70
    32
  0
VERTEX
  8
01
  5
20241
 10
721.469
 20
-662.542
 30
0.000000
  70
    32
  0
VERTEX
  8
01
  5
20242
 10
721.462
 20
-662.542
 30
0.000000
  70
    32
  0
VERTEX
  8
01
  5
20243
 10
721.455
 20
-662.542
 30
0.000000
  70
    32
  0
VERTEX
  8
01
  5
20244
 10
721.448
 20
-662.542
 30
0.000000
  70
    32
  0
VERTEX
  8
01
  5
20245
 10
721.440
 20
-662.543
 30
0.000000
  70
    32
  0
VERTEX
  8
01
  5
20246
 10
721.433
 20
-662.543
 30
0.000000
  70
    32
  0
VERTEX
  8
01
  5
20247
 10
721.426
 20
-662.543
 30
0.000000
  70
    32
  0
VERTEX
  8
01
  5
20248
 10
721.419
 20
-662.543
 30
0.000000
  70
    32
  0
VERTEX
  8
01
  5
20249
 10
721.412
 20
-662.544
 30
0.000000
  70
    32
  0
VERTEX
  8
01
  5
2024A
 10
721.404
 20
-662.544
 30
0.000000
  70
    32
  0
VERTEX
  8
01
  5
2024B
 10
721.397
 20
-662.544
 30
0.000000
  70
    32
  0
VERTEX
  8
01
  5
2024C
 10
721.390
 20
-662.544
 30
0.000000
  70
    32
  0
VERTEX
  8
01
  5
2024D
 10
721.383
 20
-662.545
 30
0.000000
  70
    32
  0
VERTEX
  8
01
  5
2024E
 10
721.376
 20
-662.545
 30
0.000000
  70
    32
  0
VERTEX
  8
01
  5
2024F
 10
721.369
 20
-662.545
 30
0.000000
  70
    32
  0
VERTEX
  8
01
  5
20250
 10
721.363
 20
-662.545
 30
0.000000
  70
    32
  0
VERTEX
  8
01
  5
20251
 10
721.356
 20
-662.546
 30
0.000000
  70
    32
  0
VERTEX
  8
01
  5
20252
 10
721.349
 20
-662.546
 30
0.000000
  70
    32
  0
VERTEX
  8
01
  5
20253
 10
721.342
 20
-662.546
 30
0.000000
  70
    32
  0
VERTEX
  8
01
  5
20254
 10
721.335
 20
-662.546
 30
0.000000
  70
    32
  0
VERTEX
  8
01
  5
20255
 10
721.328
 20
-662.546
 30
0.000000
  70
    32
  0
VERTEX
  8
01
  5
20256
 10
721.322
 20
-662.547
 30
0.000000
  70
    32
  0
VERTEX
  8
01
  5
20257
 10
721.315
 20
-662.547
 30
0.000000
  70
    32
  0
VERTEX
  8
01
  5
20258
 10
721.308
 20
-662.547
 30
0.000000
  70
    32
  0
VERTEX
  8
01
  5
20259
 10
721.302
 20
-662.547
 30
0.000000
  70
    32
  0
VERTEX
  8
01
  5
2025A
 10
721.295
 20
-662.548
 30
0.000000
  70
    32
  0
VERTEX
  8
01
  5
2025B
 10
721.289
 20
-662.548
 30
0.000000
  70
    32
  0
VERTEX
  8
01
  5
2025C
 10
721.282
 20
-662.548
 30
0.000000
  70
    32
  0
VERTEX
  8
01
  5
2025D
 10
721.276
 20
-662.548
 30
0.000000
  70
    32
  0
VERTEX
  8
01
  5
2025E
 10
721.269
 20
-662.549
 30
0.000000
  70
    32
  0
VERTEX
  8
01
  5
2025F
 10
721.263
 20
-662.549
 30
0.000000
  70
    32
  0
VERTEX
  8
01
  5
20260
 10
721.257
 20
-662.549
 30
0.000000
  70
    32
  0
VERTEX
  8
01
  5
20261
 10
721.250
 20
-662.549
 30
0.000000
  70
    32
  0
VERTEX
  8
01
  5
20262
 10
721.244
 20
-662.549
 30
0.000000
  70
    32
  0
VERTEX
  8
01
  5
20263
 10
721.238
 20
-662.550
 30
0.000000
  70
    32
  0
VERTEX
  8
01
  5
20264
 10
721.231
 20
-662.550
 30
0.000000
  70
    32
  0
VERTEX
  8
01
  5
20265
 10
721.225
 20
-662.550
 30
0.000000
  70
    32
  0
VERTEX
  8
01
  5
20266
 10
721.219
 20
-662.550
 30
0.000000
  70
    32
  0
VERTEX
  8
01
  5
20267
 10
721.213
 20
-662.551
 30
0.000000
  70
    32
  0
VERTEX
  8
01
  5
20268
 10
721.207
 20
-662.551
 30
0.000000
  70
    32
  0
VERTEX
  8
01
  5
20269
 10
721.201
 20
-662.551
 30
0.000000
  70
    32
  0
VERTEX
  8
01
  5
2026A
 10
721.195
 20
-662.551
 30
0.000000
  70
    32
  0
VERTEX
  8
01
  5
2026B
 10
721.189
 20
-662.551
 30
0.000000
  70
    32
  0
VERTEX
  8
01
  5
2026C
 10
721.183
 20
-662.552
 30
0.000000
  70
    32
  0
VERTEX
  8
01
  5
2026D
 10
721.177
 20
-662.552
 30
0.000000
  70
    32
  0
VERTEX
  8
01
  5
2026E
 10
721.171
 20
-662.552
 30
0.000000
  70
    32
  0
VERTEX
  8
01
  5
2026F
 10
721.165
 20
-662.552
 30
0.000000
  70
    32
  0
VERTEX
  8
01
  5
20270
 10
721.159
 20
-662.552
 30
0.000000
  70
    32
  0
VERTEX
  8
01
  5
20271
 10
721.153
 20
-662.553
 30
0.000000
  70
    32
  0
VERTEX
  8
01
  5
20272
 10
721.148
 20
-662.553
 30
0.000000
  70
    32
  0
VERTEX
  8
01
  5
20273
 10
721.142
 20
-662.553
 30
0.000000
  70
    32
  0
VERTEX
  8
01
  5
20274
 10
721.136
 20
-662.553
 30
0.000000
  70
    32
  0
VERTEX
  8
01
  5
20275
 10
721.130
 20
-662.553
 30
0.000000
  70
    32
  0
VERTEX
  8
01
  5
20276
 10
721.125
 20
-662.554
 30
0.000000
  70
    32
  0
VERTEX
  8
01
  5
20277
 10
721.119
 20
-662.554
 30
0.000000
  70
    32
  0
VERTEX
  8
01
  5
20278
 10
721.114
 20
-662.554
 30
0.000000
  70
    32
  0
VERTEX
  8
01
  5
20279
 10
721.108
 20
-662.554
 30
0.000000
  70
    32
  0
VERTEX
  8
01
  5
2027A
 10
721.103
 20
-662.555
 30
0.000000
  70
    32
  0
VERTEX
  8
01
  5
2027B
 10
721.097
 20
-662.555
 30
0.000000
  70
    32
  0
VERTEX
  8
01
  5
2027C
 10
721.092
 20
-662.555
 30
0.000000
  70
    32
  0
VERTEX
  8
01
  5
2027D
 10
721.086
 20
-662.555
 30
0.000000
  70
    32
  0
VERTEX
  8
01
  5
2027E
 10
721.081
 20
-662.555
 30
0.000000
  70
    32
  0
VERTEX
  8
01
  5
2027F
 10
721.075
 20
-662.556
 30
0.000000
  70
    32
  0
VERTEX
  8
01
  5
20280
 10
721.070
 20
-662.556
 30
0.000000
  70
    32
  0
VERTEX
  8
01
  5
20281
 10
721.065
 20
-662.556
 30
0.000000
  70
    32
  0
VERTEX
  8
01
  5
20282
 10
721.060
 20
-662.556
 30
0.000000
  70
    32
  0
VERTEX
  8
01
  5
20283
 10
721.054
 20
-662.556
 30
0.000000
  70
    32
  0
VERTEX
  8
01
  5
20284
 10
721.049
 20
-662.556
 30
0.000000
  70
    32
  0
VERTEX
  8
01
  5
20285
 10
721.044
 20
-662.557
 30
0.000000
  70
    32
  0
VERTEX
  8
01
  5
20286
 10
721.039
 20
-662.557
 30
0.000000
  70
    32
  0
VERTEX
  8
01
  5
20287
 10
721.034
 20
-662.557
 30
0.000000
  70
    32
  0
VERTEX
  8
01
  5
20288
 10
721.029
 20
-662.557
 30
0.000000
  70
    32
  0
VERTEX
  8
01
  5
20289
 10
721.024
 20
-662.557
 30
0.000000
  70
    32
  0
VERTEX
  8
01
  5
2028A
 10
721.019
 20
-662.558
 30
0.000000
  70
    32
  0
VERTEX
  8
01
  5
2028B
 10
721.014
 20
-662.558
 30
0.000000
  70
    32
  0
VERTEX
  8
01
  5
2028C
 10
721.009
 20
-662.558
 30
0.000000
  70
    32
  0
VERTEX
  8
01
  5
2028D
 10
721.004
 20
-662.558
 30
0.000000
  70
    32
  0
VERTEX
  8
01
  5
2028E
 10
720.999
 20
-662.558
 30
0.000000
  70
    32
  0
VERTEX
  8
01
  5
2028F
 10
720.994
 20
-662.559
 30
0.000000
  70
    32
  0
VERTEX
  8
01
  5
20290
 10
720.990
 20
-662.559
 30
0.000000
  70
    32
  0
VERTEX
  8
01
  5
20291
 10
720.985
 20
-662.559
 30
0.000000
  70
    32
  0
VERTEX
  8
01
  5
20292
 10
720.980
 20
-662.559
 30
0.000000
  70
    32
  0
VERTEX
  8
01
  5
20293
 10
720.975
 20
-662.559
 30
0.000000
  70
    32
  0
VERTEX
  8
01
  5
20294
 10
720.971
 20
-662.559
 30
0.000000
  70
    32
  0
VERTEX
  8
01
  5
20295
 10
720.966
 20
-662.560
 30
0.000000
  70
    32
  0
VERTEX
  8
01
  5
20296
 10
720.962
 20
-662.560
 30
0.000000
  70
    32
  0
VERTEX
  8
01
  5
20297
 10
720.957
 20
-662.560
 30
0.000000
  70
    32
  0
VERTEX
  8
01
  5
20298
 10
720.952
 20
-662.560
 30
0.000000
  70
    32
  0
VERTEX
  8
01
  5
20299
 10
720.948
 20
-662.560
 30
0.000000
  70
    32
  0
VERTEX
  8
01
  5
2029A
 10
720.943
 20
-662.560
 30
0.000000
  70
    32
  0
VERTEX
  8
01
  5
2029B
 10
720.939
 20
-662.561
 30
0.000000
  70
    32
  0
VERTEX
  8
01
  5
2029C
 10
720.935
 20
-662.561
 30
0.000000
  70
    32
  0
VERTEX
  8
01
  5
2029D
 10
720.930
 20
-662.561
 30
0.000000
  70
    32
  0
VERTEX
  8
01
  5
2029E
 10
720.926
 20
-662.561
 30
0.000000
  70
    32
  0
VERTEX
  8
01
  5
2029F
 10
720.922
 20
-662.561
 30
0.000000
  70
    32
  0
VERTEX
  8
01
  5
202A0
 10
720.917
 20
-662.561
 30
0.000000
  70
    32
  0
VERTEX
  8
01
  5
202A1
 10
720.913
 20
-662.562
 30
0.000000
  70
    32
  0
VERTEX
  8
01
  5
202A2
 10
720.909
 20
-662.562
 30
0.000000
  70
    32
  0
VERTEX
  8
01
  5
202A3
 10
720.905
 20
-662.562
 30
0.000000
  70
    32
  0
VERTEX
  8
01
  5
202A4
 10
720.901
 20
-662.562
 30
0.000000
  70
    32
  0
VERTEX
  8
01
  5
202A5
 10
720.897
 20
-662.562
 30
0.000000
  70
    32
  0
VERTEX
  8
01
  5
202A6
 10
720.892
 20
-662.562
 30
0.000000
  70
    32
  0
VERTEX
  8
01
  5
202A7
 10
720.888
 20
-662.563
 30
0.000000
  70
    32
  0
VERTEX
  8
01
  5
202A8
 10
720.884
 20
-662.563
 30
0.000000
  70
    32
  0
VERTEX
  8
01
  5
202A9
 10
720.881
 20
-662.563
 30
0.000000
  70
    32
  0
VERTEX
  8
01
  5
202AA
 10
720.877
 20
-662.563
 30
0.000000
  70
    32
  0
VERTEX
  8
01
  5
202AB
 10
720.873
 20
-662.563
 30
0.000000
  70
    32
  0
VERTEX
  8
01
  5
202AC
 10
720.869
 20
-662.563
 30
0.000000
  70
    32
  0
VERTEX
  8
01
  5
202AD
 10
720.865
 20
-662.563
 30
0.000000
  70
    32
  0
VERTEX
  8
01
  5
202AE
 10
720.861
 20
-662.564
 30
0.000000
  70
    32
  0
VERTEX
  8
01
  5
202AF
 10
720.857
 20
-662.564
 30
0.000000
  70
    32
  0
VERTEX
  8
01
  5
202B0
 10
720.854
 20
-662.564
 30
0.000000
  70
    32
  0
VERTEX
  8
01
  5
202B1
 10
720.850
 20
-662.564
 30
0.000000
  70
    32
  0
VERTEX
  8
01
  5
202B2
 10
720.846
 20
-662.564
 30
0.000000
  70
    32
  0
VERTEX
  8
01
  5
202B3
 10
720.843
 20
-662.564
 30
0.000000
  70
    32
  0
VERTEX
  8
01
  5
202B4
 10
720.839
 20
-662.564
 30
0.000000
  70
    32
  0
VERTEX
  8
01
  5
202B5
 10
720.836
 20
-662.565
 30
0.000000
  70
    32
  0
VERTEX
  8
01
  5
202B6
 10
720.832
 20
-662.565
 30
0.000000
  70
    32
  0
VERTEX
  8
01
  5
202B7
 10
720.829
 20
-662.565
 30
0.000000
  70
    32
  0
VERTEX
  8
01
  5
202B8
 10
720.825
 20
-662.565
 30
0.000000
  70
    32
  0
VERTEX
  8
01
  5
202B9
 10
720.822
 20
-662.565
 30
0.000000
  70
    32
  0
VERTEX
  8
01
  5
202BA
 10
720.819
 20
-662.565
 30
0.000000
  70
    32
  0
VERTEX
  8
01
  5
202BB
 10
720.815
 20
-662.565
 30
0.000000
  70
    32
  0
VERTEX
  8
01
  5
202BC
 10
720.812
 20
-662.566
 30
0.000000
  70
    32
  0
VERTEX
  8
01
  5
202BD
 10
720.809
 20
-662.566
 30
0.000000
  70
    32
  0
VERTEX
  8
01
  5
202BE
 10
720.805
 20
-662.566
 30
0.000000
  70
    32
  0
VERTEX
  8
01
  5
202BF
 10
720.802
 20
-662.566
 30
0.000000
  70
    32
  0
VERTEX
  8
01
  5
202C0
 10
720.799
 20
-662.566
 30
0.000000
  70
    32
  0
VERTEX
  8
01
  5
202C1
 10
720.796
 20
-662.566
 30
0.000000
  70
    32
  0
VERTEX
  8
01
  5
202C2
 10
720.793
 20
-662.566
 30
0.000000
  70
    32
  0
VERTEX
  8
01
  5
202C3
 10
720.790
 20
-662.566
 30
0.000000
  70
    32
  0
VERTEX
  8
01
  5
202C4
 10
720.787
 20
-662.567
 30
0.000000
  70
    32
  0
VERTEX
  8
01
  5
202C5
 10
720.784
 20
-662.567
 30
0.000000
  70
    32
  0
VERTEX
  8
01
  5
202C6
 10
720.781
 20
-662.567
 30
0.000000
  70
    32
  0
VERTEX
  8
01
  5
202C7
 10
720.778
 20
-662.567
 30
0.000000
  70
    32
  0
VERTEX
  8
01
  5
202C8
 10
720.775
 20
-662.567
 30
0.000000
  70
    32
  0
VERTEX
  8
01
  5
202C9
 10
720.772
 20
-662.567
 30
0.000000
  70
    32
  0
VERTEX
  8
01
  5
202CA
 10
720.770
 20
-662.567
 30
0.000000
  70
    32
  0
VERTEX
  8
01
  5
202CB
 10
720.767
 20
-662.567
 30
0.000000
  70
    32
  0
VERTEX
  8
01
  5
202CC
 10
720.764
 20
-662.567
 30
0.000000
  70
    32
  0
VERTEX
  8
01
  5
202CD
 10
720.762
 20
-662.568
 30
0.000000
  70
    32
  0
VERTEX
  8
01
  5
202CE
 10
720.759
 20
-662.568
 30
0.000000
  70
    32
  0
VERTEX
  8
01
  5
202CF
 10
720.756
 20
-662.568
 30
0.000000
  70
    32
  0
VERTEX
  8
01
  5
202D0
 10
720.754
 20
-662.568
 30
0.000000
  70
    32
  0
VERTEX
  8
01
  5
202D1
 10
720.751
 20
-662.568
 30
0.000000
  70
    32
  0
VERTEX
  8
01
  5
202D2
 10
720.749
 20
-662.568
 30
0.000000
  70
    32
  0
VERTEX
  8
01
  5
202D3
 10
720.746
 20
-662.568
 30
0.000000
  70
    32
  0
VERTEX
  8
01
  5
202D4
 10
720.744
 20
-662.568
 30
0.000000
  70
    32
  0
VERTEX
  8
01
  5
202D5
 10
720.742
 20
-662.568
 30
0.000000
  70
    32
  0
VERTEX
  8
01
  5
202D6
 10
720.739
 20
-662.568
 30
0.000000
  70
    32
  0
VERTEX
  8
01
  5
202D7
 10
720.737
 20
-662.568
 30
0.000000
  70
    32
  0
VERTEX
  8
01
  5
202D8
 10
720.735
 20
-662.569
 30
0.000000
  70
    32
  0
VERTEX
  8
01
  5
202D9
 10
720.732
 20
-662.569
 30
0.000000
  70
    32
  0
VERTEX
  8
01
  5
202DA
 10
720.730
 20
-662.569
 30
0.000000
  70
    32
  0
VERTEX
  8
01
  5
202DB
 10
720.728
 20
-662.569
 30
0.000000
  70
    32
  0
VERTEX
  8
01
  5
202DC
 10
720.726
 20
-662.569
 30
0.000000
  70
    32
  0
VERTEX
  8
01
  5
202DD
 10
720.724
 20
-662.569
 30
0.000000
  70
    32
  0
VERTEX
  8
01
  5
202DE
 10
720.722
 20
-662.569
 30
0.000000
  70
    32
  0
VERTEX
  8
01
  5
202DF
 10
720.720
 20
-662.569
 30
0.000000
  70
    32
  0
VERTEX
  8
01
  5
202E0
 10
720.718
 20
-662.569
 30
0.000000
  70
    32
  0
VERTEX
  8
01
  5
202E1
 10
720.716
 20
-662.569
 30
0.000000
  70
    32
  0
VERTEX
  8
01
  5
202E2
 10
720.714
 20
-662.569
 30
0.000000
  70
    32
  0
VERTEX
  8
01
  5
202E3
 10
720.712
 20
-662.569
 30
0.000000
  70
    32
  0
VERTEX
  8
01
  5
202E4
 10
720.710
 20
-662.570
 30
0.000000
  70
    32
  0
VERTEX
  8
01
  5
202E5
 10
720.709
 20
-662.570
 30
0.000000
  70
    32
  0
VERTEX
  8
01
  5
202E6
 10
720.707
 20
-662.570
 30
0.000000
  70
    32
  0
VERTEX
  8
01
  5
202E7
 10
720.705
 20
-662.570
 30
0.000000
  70
    32
  0
VERTEX
  8
01
  5
202E8
 10
720.703
 20
-662.570
 30
0.000000
  70
    32
  0
VERTEX
  8
01
  5
202E9
 10
720.702
 20
-662.570
 30
0.000000
  70
    32
  0
VERTEX
  8
01
  5
202EA
 10
720.700
 20
-662.570
 30
0.000000
  70
    32
  0
VERTEX
  8
01
  5
202EB
 10
720.699
 20
-662.570
 30
0.000000
  70
    32
  0
VERTEX
  8
01
  5
202EC
 10
720.697
 20
-662.570
 30
0.000000
  70
    32
  0
VERTEX
  8
01
  5
202ED
 10
720.696
 20
-662.570
 30
0.000000
  70
    32
  0
VERTEX
  8
01
  5
202EE
 10
720.694
 20
-662.570
 30
0.000000
  70
    32
  0
VERTEX
  8
01
  5
202EF
 10
720.693
 20
-662.570
 30
0.000000
  70
    32
  0
VERTEX
  8
01
  5
202F0
 10
720.691
 20
-662.570
 30
0.000000
  70
    32
  0
VERTEX
  8
01
  5
202F1
 10
720.690
 20
-662.570
 30
0.000000
  70
    32
  0
VERTEX
  8
01
  5
202F2
 10
720.689
 20
-662.570
 30
0.000000
  70
    32
  0
VERTEX
  8
01
  5
202F3
 10
720.687
 20
-662.570
 30
0.000000
  70
    32
  0
VERTEX
  8
01
  5
202F4
 10
720.686
 20
-662.571
 30
0.000000
  70
    32
  0
VERTEX
  8
01
  5
202F5
 10
720.685
 20
-662.571
 30
0.000000
  70
    32
  0
VERTEX
  8
01
  5
202F6
 10
720.684
 20
-662.571
 30
0.000000
  70
    32
  0
VERTEX
  8
01
  5
202F7
 10
720.683
 20
-662.571
 30
0.000000
  70
    32
  0
VERTEX
  8
01
  5
202F8
 10
720.682
 20
-662.571
 30
0.000000
  70
    32
  0
VERTEX
  8
01
  5
202F9
 10
720.681
 20
-662.571
 30
0.000000
  70
    32
  0
VERTEX
  8
01
  5
202FA
 10
720.680
 20
-662.571
 30
0.000000
  70
    32
  0
VERTEX
  8
01
  5
202FB
 10
720.679
 20
-662.571
 30
0.000000
  70
    32
  0
VERTEX
  8
01
  5
202FC
 10
720.678
 20
-662.571
 30
0.000000
  70
    32
  0
VERTEX
  8
01
  5
202FD
 10
720.677
 20
-662.571
 30
0.000000
  70
    32
  0
VERTEX
  8
01
  5
202FE
 10
720.676
 20
-662.571
 30
0.000000
  70
    32
  0
VERTEX
  8
01
  5
202FF
 10
720.675
 20
-662.571
 30
0.000000
  70
    32
  0
VERTEX
  8
01
  5
20300
 10
720.674
 20
-662.571
 30
0.000000
  70
    32
  0
VERTEX
  8
01
  5
20301
 10
720.674
 20
-662.571
 30
0.000000
  70
    32
  0
VERTEX
  8
01
  5
20302
 10
720.673
 20
-662.571
 30
0.000000
  70
    32
  0
VERTEX
  8
01
  5
20303
 10
720.672
 20
-662.571
 30
0.000000
  70
    32
  0
VERTEX
  8
01
  5
20304
 10
720.672
 20
-662.571
 30
0.000000
  70
    32
  0
VERTEX
  8
01
  5
20305
 10
720.671
 20
-662.571
 30
0.000000
  70
    32
  0
VERTEX
  8
01
  5
20306
 10
720.670
 20
-662.571
 30
0.000000
  70
    32
  0
VERTEX
  8
01
  5
20307
 10
720.670
 20
-662.571
 30
0.000000
  70
    32
  0
VERTEX
  8
01
  5
20308
 10
720.669
 20
-662.571
 30
0.000000
  70
    32
  0
VERTEX
  8
01
  5
20309
 10
720.669
 20
-662.571
 30
0.000000
  70
    32
  0
VERTEX
  8
01
  5
2030A
 10
720.668
 20
-662.571
 30
0.000000
  70
    32
  0
VERTEX
  8
01
  5
2030B
 10
720.668
 20
-662.571
 30
0.000000
  70
    32
  0
VERTEX
  8
01
  5
2030C
 10
720.668
 20
-662.571
 30
0.000000
  70
    32
  0
VERTEX
  8
01
  5
2030D
 10
720.667
 20
-662.571
 30
0.000000
  70
    32
  0
VERTEX
  8
01
  5
2030E
 10
720.667
 20
-662.571
 30
0.000000
  70
    32
  0
VERTEX
  8
01
  5
2030F
 10
720.667
 20
-662.571
 30
0.000000
  70
    32
  0
VERTEX
  8
01
  5
20310
 10
720.667
 20
-662.571
 30
0.000000
  70
    32
  0
VERTEX
  8
01
  5
20311
 10
720.667
 20
-662.571
 30
0.000000
  70
    32
  0
VERTEX
  8
01
  5
20312
 10
720.666
 20
-662.571
 30
0.000000
  70
    32
  0
VERTEX
  8
01
  5
20313
 10
720.666
 20
-662.571
 30
0.000000
  70
    32
  0
VERTEX
  8
01
  5
20314
 10
720.666
 20
-662.571
 30
0.000000
  70
    32
  0
VERTEX
  8
01
  5
20315
 10
720.666
 20
-662.571
 30
0.000000
  70
    32
  0
SEQEND
  8
01
  5
20316
  0
LINE
  5
1F694
  8
01
 10
720.66624161536481
 20
-662.5713303512664
 30
0.0
 11
706.65978552061654
 21
-662.5713303512664
 31
0.0
  0
LINE
  5
1F695
  8
01
 10
737.01624161536495
 20
-662.5713303512664
 30
0.0
 11
729.36624161536486
 21
-662.5713303512664
 31
0.0
  0
LINE
  5
1F696
  8
01
 10
727.11624161536486
 20
-660.3213303512664
 30
0.0
 11
729.36624161536486
 21
-662.5713303512664
 31
0.0
  0
LINE
  5
1F697
  8
01
 10
720.66624161536481
 20
-662.5713303512664
 30
0.0
 11
722.91624161536504
 21
-660.3213303512664
 31
0.0
  0
LINE
  5
1F698
  8
01
 10
743.01624161536495
 20
-675.3213303512664
 30
0.0
 11
743.01624161536495
 21
-673.3213303512664
 31
0.0
  0
LINE
  5
1F699
  8
01
 10
743.01624161536495
 20
-673.3213303512664
 30
0.0
 11
740.01624161536495
 21
-673.3213303512664
 31
0.0
  0
LINE
  5
1F69A
  8
01
 10
740.01624161536495
 20
-659.8213303512664
 30
0.0
 11
740.01624161536495
 21
-673.3213303512664
 31
0.0
  0
LINE
  5
1F69B
  8
01
 10
727.11624161536486
 20
-659.8213303512664
 30
0.0
 11
740.01624161536495
 21
-659.8213303512664
 31
0.0
  0
LINE
  5
1F69C
  8
01
 10
727.11624161536486
 20
-659.8213303512664
 30
0.0
 11
727.11624161536486
 21
-660.3213303512664
 31
0.0
  0
ARC
  5
1F69D
  8
01
 10
737.01624161536495
 20
-663.57133035126628
 30
0.0
 40
1.0
 50
0.0
 51
90.0
  0
ARC
  5
1F69E
  8
01
 10
739.01624161536495
 20
-674.32133035126628
 30
0.0
 40
1.0
 50
180.0
 51
270.0
  0
LINE
  5
1F69F
  8
01
 10
739.01624161536495
 20
-675.3213303512664
 30
0.0
 11
743.01624161536495
 21
-675.3213303512664
 31
0.0
  0
LINE
  5
1F6A0
  8
01
 10
738.01624161536495
 20
-674.32133035126628
 30
0.0
 11
738.01624161536495
 21
-663.57133035126628
 31
0.0
  0
CIRCLE
  5
1F6A1
  8
01
 10
702.01624161536495
 20
-655.57133035126628
 30
0.0
 40
6.1499999999999773
  0
ARC
  5
1F6A2
  8
01
 10
739.01624161536495
 20
-636.82133035126628
 30
0.0
 40
1.0
 50
90.0
 51
180.0
  0
ARC
  5
1F6A3
  8
01
 10
737.01624161536495
 20
-647.57133035126628
 30
0.0
 40
1.0
 50
270.0
 51
0.0
  0
LINE
  5
1F6A4
  8
01
 10
706.65978552061654
 20
-648.5713303512664
 30
0.0
 11
737.01624161536495
 21
-648.5713303512664
 31
0.0
  0
ARC
  5
1F6A5
  8
01
 10
706.65978552061654
 20
-647.57133035126628
 30
0.0
 40
1.000000000000034
 50
239.867278168989
 51
270.0
  0
ARC
  5
1F6A6
  8
01
 10
702.01624161536495
 20
-655.57133035126628
 30
0.0
 40
8.2500000000000284
 50
59.867278168988932
 51
300.13272183101071
  0
ARC
  5
1F6A7
  8
01
 10
706.65978552061654
 20
-663.57133035126628
 30
0.0
 40
1.0
 50
90.0
 51
120.132721831011
  0
LINE
  5
1F6A8
  8
01
 10
722.91624161536504
 20
-660.3213303512664
 30
0.0
 11
722.91624161536504
 21
-659.8213303512664
 31
0.0
  0
LINE
  5
1F6A9
  8
01
 10
710.01624161536495
 20
-659.8213303512664
 30
0.0
 11
722.91624161536504
 21
-659.8213303512664
 31
0.0
  0
LINE
  5
1F6AA
  8
01
 10
710.01624161536495
 20
-651.3213303512664
 30
0.0
 11
710.01624161536495
 21
-659.8213303512664
 31
0.0
  0
LINE
  5
1F6AB
  8
01
 10
740.01624161536495
 20
-651.3213303512664
 30
0.0
 11
710.01624161536495
 21
-651.3213303512664
 31
0.0
  0
LINE
  5
1F6AC
  8
01
 10
740.01624161536495
 20
-637.8213303512664
 30
0.0
 11
740.01624161536495
 21
-651.3213303512664
 31
0.0
  0
LINE
  5
1F6AD
  8
01
 10
740.01624161536495
 20
-637.8213303512664
 30
0.0
 11
743.01624161536495
 21
-637.8213303512664
 31
0.0
  0
LINE
  5
1F6AE
  8
01
 10
743.01624161536495
 20
-637.8213303512664
 30
0.0
 11
743.01624161536495
 21
-635.82133035126617
 31
0.0
  0
LINE
  5
1F6AF
  8
01
 10
743.01624161536495
 20
-635.82133035126617
 30
0.0
 11
739.01624161536495
 21
-635.8213303512664
 31
0.0
  0
LINE
  5
1F6B0
  8
01
 10
738.01624161536495
 20
-647.57133035126628
 30
0.0
 11
738.01624161536495
 21
-636.82133035126628
 31
0.0
  0
LINE
  5
1F6B1
  8
01
 10
740.01624161536495
 20
-651.3213303512664
 30
0.0
 11
740.01624161536495
 21
-652.1873557550507
 31
0.0
  0
LINE
  5
1F6B2
  8
01
 10
743.01624161536495
 20
-673.3213303512664
 30
0.0
 11
743.01624161536495
 21
-637.8213303512664
 31
0.0
  0
LINE
  5
1F6B5
  8
01
 10
689.53986889075395
 20
-655.57133034745846
 30
0.0
 11
714.49261434645598
 21
-655.57133034745846
 31
0.0
  0
LINE
  5
1F6B6
  8
01
 10
702.01624161860502
 20
-668.04770307530953
 30
0.0
 11
702.01624161860502
 21
-643.09495761960761
 31
0.0
  0
LINE
  5
1F6B7
  8
01
 10
725.01624161536495
 20
-657.35682817352745
 30
0.0
 11
725.01624161536495
 21
-664.92459288356622
 31
0.0
  0
LINE
  5
1F6B8
  8
01
 10
742.51624161536495
 20
-659.8213303512664
 30
0.0
 11
743.01624161536495
 21
-659.8213303512664
 31
0.0
  0
LINE
  5
1F6B9
  8
01
 10
743.01624161536495
 20
-651.8213303512664
 30
0.0
 11
742.51624161536495
 21
-651.8213303512664
 31
0.0
  0
LINE
  5
1F6BA
  8
01
 10
740.51624161536495
 20
-655.8213303512664
 30
0.0
 11
740.51624161536495
 21
-639.3213303512664
 31
0.0
  0
LINE
  5
1F6BB
  8
01
 10
743.01624161536495
 20
-638.8213303512664
 30
0.0
 11
741.01624161536495
 21
-638.8213303512664
 31
0.0
  0
LINE
  5
1F6BC
  8
01
 10
740.51624161536495
 20
-639.3213303512664
 30
0.0
 11
741.01624161536495
 21
-638.8213303512664
 31
0.0
  0
LINE
  5
1F6BD
  8
01
 10
743.01624161536495
 20
-640.82133035126628
 30
0.0
 11
743.01624161536495
 21
-638.8213303512664
 31
0.0
  0
LINE
  5
1F6BE
  8
01
 10
743.01624161536495
 20
-640.82133035126628
 30
0.0
 11
742.51624161536495
 21
-640.82133035126628
 31
0.0
  0
LINE
  5
1F6BF
  8
01
 10
742.51624161536495
 20
-640.82133035126628
 30
0.0
 11
742.51624161536495
 21
-670.8213303512664
 31
0.0
  0
LINE
  5
1F6C0
  8
01
 10
742.51624161536495
 20
-670.8213303512664
 30
0.0
 11
743.01624161536495
 21
-670.8213303512664
 31
0.0
  0
LINE
  5
1F6C1
  8
01
 10
743.01624161536495
 20
-672.8213303512664
 30
0.0
 11
743.01624161536495
 21
-670.8213303512664
 31
0.0
  0
LINE
  5
1F6C2
  8
01
 10
741.01624161536495
 20
-672.8213303512664
 30
0.0
 11
743.01624161536495
 21
-672.8213303512664
 31
0.0
  0
LINE
  5
1F6C3
  8
01
 10
740.51624161536495
 20
-672.3213303512664
 30
0.0
 11
741.01624161536495
 21
-672.8213303512664
 31
0.0
  0
LINE
  5
1F6C4
  8
01
 10
740.51624161536495
 20
-672.3213303512664
 30
0.0
 11
740.51624161536495
 21
-659.8213303512664
 31
0.0
  0
LINE
  5
1F6C5
  8
01
 10
726.61624161536486
 20
-659.8213303512664
 30
0.0
 11
740.51624161536495
 21
-659.8213303512664
 31
0.0
  0
LINE
  5
1F6C6
  8
01
 10
740.51624161536495
 20
-655.8213303512664
 30
0.0
 11
726.61624161536486
 21
-655.8213303512664
 31
0.0
  0
LINE
  5
1F6C7
  8
01
 10
721.01624161536495
 20
-659.8213303512664
 30
0.0
 11
720.51624161536495
 21
-659.3213303512664
 31
0.0
  0
LINE
  5
1F6C8
  8
01
 10
720.51624161536495
 20
-659.3213303512664
 30
0.0
 11
720.51624161536495
 21
-655.8213303512664
 31
0.0
  0
LINE
  5
1F6C9
  8
01
 10
723.41624161536504
 20
-655.8213303512664
 30
0.0
 11
720.51624161536495
 21
-655.8213303512664
 31
0.0
  0
LINE
  5
1F6CA
  8
01
 10
721.01624161536495
 20
-659.8213303512664
 30
0.0
 11
723.41624161536504
 21
-659.8213303512664
 31
0.0
  0
LINE
  5
1F6CB
  8
01
 10
720.51624161536495
 20
-654.3213303512664
 30
0.0
 11
722.51624161536495
 21
-652.3213303512664
 31
0.0
  0
LINE
  5
1F6CC
  8
01
 10
722.51624161536495
 20
-652.3213303512664
 30
0.0
 11
739.51624161536495
 21
-652.3213303512664
 31
0.0
  0
ARC
  5
1F6CD
  8
01
 10
739.51624161536495
 20
-651.3213303512664
 30
0.0
 40
1.000000000000028
 50
270.0
 51
0.0
  0
LINE
  5
1F6CE
  8
01
 10
720.51624161536495
 20
-654.3213303512664
 30
0.0
 11
720.51624161536495
 21
-655.8213303512664
 31
0.0
  0
LINE
  5
1F6CF
  8
01
 10
743.01624161536495
 20
-651.8213303512664
 30
0.0
 11
743.01624161536495
 21
-659.8213303512664
 31
0.0
  0
LINE
  5
1F6D0
  8
01
 10
743.01624161536495
 20
-651.8213303512664
 30
0.0
 11
743.01624161536495
 21
-650.0118553319553
 31
0.0
  0
LINE
  5
1F6D1
  8
01
 10
743.01624161536495
 20
-661.63080537057749
 30
0.0
 11
743.01624161536495
 21
-659.8213303512664
 31
0.0
  0
LINE
  5
1F6D2
  8
01
 10
743.01624161536495
 20
-661.63080537057749
 30
0.0
 11
743.01624161536495
 21
-670.8213303512664
 31
0.0
  0
LINE
  5
1F6D3
  8
01
 10
743.01624161536495
 20
-640.82133035126628
 30
0.0
 11
743.01624161536495
 21
-650.0118553319553
 31
0.0
  0
LINE
  5
1F6D6
  8
01
 10
725.01624161536495
 20
-653.77487343401265
 30
0.0
 11
725.01624161536495
 21
-662.90477695136417
 31
0.0
  0
LINE
  5
1F6D7
  8
01
 10
723.01624161536495
 20
-659.57133035126628
 30
0.0
 11
723.01624161536495
 21
-655.8213303512664
 31
0.0
  0
LINE
  5
1F6D8
  8
01
  6
BYBLOCK
 10
723.36624161536497
 20
-659.22133035126626
 30
0.0
 11
723.36624161536486
 21
-655.8213303512664
 31
0.0
  0
LINE
  5
1F6D9
  8
01
 10
727.01624161536495
 20
-659.57133035126628
 30
0.0
 11
727.01624161536495
 21
-655.8213303512664
 31
0.0
  0
LINE
  5
1F6DA
  8
01
  6
BYBLOCK
 10
726.66624161536504
 20
-659.22133035126637
 30
0.0
 11
726.66624161536504
 21
-655.8213303512664
 31
0.0
  0
LINE
  5
1F6DB
  8
01
  6
BYBLOCK
 10
722.76624161536495
 20
-659.8213303512664
 30
0.0
 11
723.36624161536486
 21
-659.22133035126626
 31
0.0
  0
LINE
  5
1F6DC
  8
01
  6
BYBLOCK
 10
727.26624161536495
 20
-659.8213303512664
 30
0.0
 11
726.66624161536504
 21
-659.22133035126626
 31
0.0
  0
LINE
  5
1F6DD
  8
01
 10
726.66624161536504
 20
-659.22133035126626
 30
0.0
 11
723.36624161536497
 21
-659.22133035126626
 31
0.0
  0
LINE
  5
1F81C
  8
01
 10
638.76624161536517
 20
-535.8213303512664
 30
0.0
 11
607.76624161536517
 21
-535.8213303512664
 31
0.0
  0
LINE
  5
1F81D
  8
01
 10
640.76624161536529
 20
-535.8213303512664
 30
0.0
 11
640.76624161536529
 21
-538.02133035126644
 31
0.0
  0
LINE
  5
1F81E
  8
01
 10
638.76624161536517
 20
-535.8213303512664
 30
0.0
 11
640.76624161536529
 21
-535.8213303512664
 31
0.0
  0
LINE
  5
1F81F
  8
01
 10
605.76624161536529
 20
-538.02133035126644
 30
0.0
 11
605.76624161536529
 21
-535.8213303512664
 31
0.0
  0
LINE
  5
1F820
  8
01
 10
605.76624161536529
 20
-535.8213303512664
 30
0.0
 11
607.76624161536517
 21
-535.8213303512664
 31
0.0
  0
LINE
  5
1F821
  8
01
 10
640.46624161536533
 20
-538.3213303512664
 30
0.0
 11
638.76624161536517
 21
-538.3213303512664
 31
0.0
  0
ARC
  5
1F822
  8
01
 10
640.46624161536533
 20
-538.02133035126644
 30
0.0
 40
0.2999999999999971
 50
270.0
 51
0.0
  0
LINE
  5
1F823
  8
01
 10
638.76624161536517
 20
-538.3213303512664
 30
0.0
 11
607.76624161536517
 21
-538.3213303512664
 31
0.0
  0
LINE
  5
1F824
  8
01
 10
607.76624161536517
 20
-538.3213303512664
 30
0.0
 11
606.06624161536536
 21
-538.3213303512664
 31
0.0
  0
ARC
  5
1F825
  8
01
 10
606.06624161536536
 20
-538.02133035126644
 30
0.0
 40
0.3000000000000114
 50
180.0
 51
270.0
  0
ARC
  5
1F827
  8
01
 10
631.26624161536529
 20
-539.3213303512664
 30
0.0
 40
1.0
 50
90.0
 51
180.0
  0
ARC
  5
1F829
  8
01
 10
615.26624161536529
 20
-539.3213303512664
 30
0.0
 40
1.000000000000028
 50
0.0
 51
90.0
  0
LINE
  5
1F830
  8
01
 10
616.26624161536517
 20
-557.82133035126628
 30
0.0
 11
616.26624161536517
 21
-539.3213303512664
 31
0.0
  0
LINE
  5
1F834
  8
01
 10
630.26624161536517
 20
-539.3213303512664
 30
0.0
 11
630.26624161536517
 21
-557.82133035126628
 31
0.0
  0
LINE
  5
1F850
  8
01
 10
616.76624161536529
 20
-558.32133035126628
 30
0.0
 11
616.26624161536517
 21
-557.82133035126628
 31
0.0
  0
LINE
  5
1F852
  8
01
 10
630.26624161536517
 20
-557.82133035126628
 30
0.0
 11
629.76624161536517
 21
-558.32133035126628
 31
0.0
  0
LINE
  5
1F857
  8
01
 10
629.76624161536517
 20
-558.32133035126628
 30
0.0
 11
616.76624161536529
 21
-558.32133035126628
 31
0.0
  0
CIRCLE
  5
1F929
  8
01
 10
173.26624161796909
 20
-655.57133034793605
 30
0.0
 40
2.1000000000000001
  0
LINE
  5
1F92A
  8
01
 10
167.57534509322829
 20
-655.57133034745846
 30
0.0
 11
178.95713813750231
 21
-655.57133034745846
 31
0.0
  0
LINE
  5
1F92B
  8
01
 10
173.26624161536529
 20
-661.26222686959557
 30
0.0
 11
173.26624161536529
 21
-649.88043382532146
 31
0.0
  0
CIRCLE
  5
1F92C
  8
01
 10
623.26624161796906
 20
-655.57133035555182
 30
0.0
 40
2.1000000000000001
  0
LINE
  5
1F92D
  8
01
 10
617.57534509322818
 20
-655.57133035507422
 30
0.0
 11
628.95713813750217
 21
-655.57133035507422
 31
0.0
  0
LINE
  5
1F92E
  8
01
 10
623.26624161536529
 20
-661.26222687721122
 30
0.0
 11
623.26624161536529
 21
-649.88043383293723
 31
0.0
  0
LINE
  5
1FACD
  8
01
 10
173.76624146846959
 20
-539.3213303512664
 30
0.0
 11
172.7662417684696
 21
-538.3213303512664
 31
0.0
  0
LINE
  5
1FACE
  8
01
 10
177.0662416184696
 20
-539.3213303512664
 30
0.0
 11
177.0662416184696
 21
-538.3213303512664
 31
0.0
  0
LINE
  5
1FACF
  8
01
 10
177.0662416184696
 20
-538.3213303512664
 30
0.0
 11
169.46624161846961
 21
-538.3213303512664
 31
0.0
  0
LINE
  5
1FAD0
  8
01
 10
177.0662416184696
 20
-539.3213303512664
 30
0.0
 11
169.46624161846961
 21
-539.3213303512664
 31
0.0
  0
LINE
  5
1FAD1
  8
01
 10
169.46624161846961
 20
-539.3213303512664
 30
0.0
 11
169.46624161846961
 21
-538.3213303512664
 31
0.0
  0
LINE
  5
1FAD3
  8
01
 10
188.7662416153652
 20
-535.8213303512664
 30
0.0
 11
157.76624161536529
 21
-535.8213303512664
 31
0.0
  0
LINE
  5
1FAD4
  8
01
 10
190.76624161536529
 20
-535.8213303512664
 30
0.0
 11
190.76624161536529
 21
-538.02133035126644
 31
0.0
  0
LINE
  5
1FAD5
  8
01
 10
188.7662416153652
 20
-535.8213303512664
 30
0.0
 11
190.76624161536529
 21
-535.8213303512664
 31
0.0
  0
LINE
  5
1FAD6
  8
01
 10
155.76624161536529
 20
-538.02133035126644
 30
0.0
 11
155.76624161536529
 21
-535.8213303512664
 31
0.0
  0
LINE
  5
1FAD7
  8
01
 10
155.76624161536529
 20
-535.8213303512664
 30
0.0
 11
157.76624161536529
 21
-535.8213303512664
 31
0.0
  0
LINE
  5
1FAD8
  8
01
 10
190.46624161536531
 20
-538.3213303512664
 30
0.0
 11
188.7662416153652
 21
-538.3213303512664
 31
0.0
  0
ARC
  5
1FAD9
  8
01
 10
190.46624161536531
 20
-538.02133035126644
 30
0.0
 40
0.2999999999999971
 50
270.0
 51
0.0
  0
LINE
  5
1FADA
  8
01
 10
188.7662416153652
 20
-538.3213303512664
 30
0.0
 11
157.76624161536529
 21
-538.3213303512664
 31
0.0
  0
LINE
  5
1FADB
  8
01
 10
157.76624161536529
 20
-538.3213303512664
 30
0.0
 11
156.0662416153653
 21
-538.3213303512664
 31
0.0
  0
ARC
  5
1FADC
  8
01
 10
156.0662416153653
 20
-538.02133035126644
 30
0.0
 40
0.3000000000000114
 50
180.0
 51
270.0
  0
ARC
  5
1FADD
  8
01
 10
181.26624161536529
 20
-539.3213303512664
 30
0.0
 40
1.0
 50
90.0
 51
180.0
  0
ARC
  5
1FADE
  8
01
 10
165.26624161536529
 20
-539.3213303512664
 30
0.0
 40
1.000000000000028
 50
0.0
 51
90.0
  0
LINE
  5
1FADF
  8
01
 10
166.26624161536529
 20
-557.82133035126628
 30
0.0
 11
166.26624161536529
 21
-539.3213303512664
 31
0.0
  0
LINE
  5
1FAE0
  8
01
 10
180.26624161536529
 20
-539.3213303512664
 30
0.0
 11
180.26624161536529
 21
-557.82133035126628
 31
0.0
  0
LINE
  5
1FAE1
  8
01
 10
166.7662416153654
 20
-558.32133035126628
 30
0.0
 11
166.26624161536529
 21
-557.82133035126628
 31
0.0
  0
LINE
  5
1FAE2
  8
01
 10
180.26624161536529
 20
-557.82133035126628
 30
0.0
 11
179.76624161536529
 21
-558.32133035126628
 31
0.0
  0
LINE
  5
1FAE3
  8
01
 10
179.76624161536529
 20
-558.32133035126628
 30
0.0
 11
166.7662416153654
 21
-558.32133035126628
 31
0.0
  0
ARC
  5
1FC0D
  8
01
 10
173.26624161536529
 20
-532.09182720251238
 30
0.0
 40
40.29524617297367
 50
244.259595668397
 51
295.74040433160297
  0
ARC
  5
1FC0E
  8
01
 10
623.26624161536529
 20
-532.09182720251238
 30
0.0
 40
40.29524617297367
 50
244.259595668397
 51
295.74040433160297
  0
LINE
  5
1FC7E
  8
01
 10
173.26628815126321
 20
-504.32133035142868
 30
0.0
 11
171.76628815126321
 21
-509.62132686129041
 31
0.0
  0
LINE
  5
1FC7F
  8
01
 10
171.76628815126321
 20
-509.62132686129041
 30
0.0
 11
171.76628815126341
 21
-539.32132686118234
 31
0.0
  0
LINE
  5
1FC80
  8
01
 10
173.26628815126321
 20
-504.32133035142868
 30
0.0
 11
174.7662881512633
 21
-509.62133384167402
 31
0.0
  0
LINE
  5
1FC81
  8
01
 10
169.7662416153654
 20
-539.32132220748406
 30
0.0
 11
176.76624161536529
 21
-539.32133849504851
 31
0.0
  0
LINE
  5
1FC82
  8
01
 10
174.7662881512633
 20
-509.62133384167402
 30
0.0
 11
174.76628815126341
 21
-539.32133384156691
 31
0.0
  0
LINE
  5
1FC83
  8
01
 10
169.7662416153654
 20
-539.32132220748406
 30
0.0
 11
169.76624161536529
 21
-540.42132569767955
 31
0.0
  0
ARC
  5
1FC84
  8
01
 10
171.26624161536529
 20
-540.42132569767955
 30
0.0
 40
1.5
 50
180.0
 51
269.99986668446837
  0
LINE
  5
1FC85
  8
01
 10
176.76624161536529
 20
-539.32133849504851
 30
0.0
 11
176.76624161536529
 21
-540.4213350048592
 31
0.0
  0
LINE
  5
1FC86
  8
01
 10
171.26623812517289
 20
-541.92132569767546
 30
0.0
 11
175.26623812517289
 21
-541.92133500485511
 31
0.0
  0
ARC
  5
1FC87
  8
01
 10
175.2662416153652
 20
-540.4213350048592
 30
0.0
 40
1.5
 50
269.99986668446837
 51
0.0
  0
LINE
  5
1FC88
  8
01
 10
173.26624161536529
 20
-502.89053543396341
 30
0.0
 11
173.26624161536529
 21
-542.99160676057522
 31
0.0
  0
LINE
  5
1FC89
  8
01
 10
172.1719178013702
 20
-506.4213278051065
 30
0.0
 11
174.13425289024559
 21
-505.62133237105547
 31
0.0
  0
LINE
  5
1FC8A
  8
01
 10
174.13425289024559
 20
-505.62133237105547
 30
0.0
 11
173.54597631520321
 21
-505.30956251480342
 31
0.0
  0
LINE
  5
1FC8B
  8
01
 10
171.26628815126321
 20
-528.82132569789655
 30
0.0
 11
175.26628815126321
 21
-528.02133500507819
 31
0.0
  0
LINE
  5
1FC8C
  8
01
 10
171.26628815126321
 20
-517.62132569789219
 30
0.0
 11
175.26628815126321
 21
-516.82133500506961
 31
0.0
  0
LINE
  5
1FC8D
  8
01
 10
171.26628815126321
 20
-514.42132569789214
 30
0.0
 11
175.26628815126321
 21
-513.62133500506945
 31
0.0
  0
LINE
  5
1FC8E
  8
01
 10
175.26628815126321
 20
-513.62133500506945
 30
0.0
 11
174.76628815126321
 21
-513.52133384167234
 31
0.0
  0
LINE
  5
1FC8F
  8
01
 10
171.76628815126321
 20
-512.92132686128934
 30
0.0
 11
171.26628815126321
 21
-512.82132569789212
 31
0.0
  0
LINE
  5
1FC90
  8
01
 10
175.26628815126321
 20
-516.82133500506961
 30
0.0
 11
174.76628815126321
 21
-516.72133384167239
 31
0.0
  0
LINE
  5
1FC91
  8
01
 10
175.26628815126321
 20
-515.22133500506936
 30
0.0
 11
174.76628815126321
 21
-515.12133384167225
 31
0.0
  0
LINE
  5
1FC92
  8
01
 10
171.76628815126321
 20
-514.52132686128925
 30
0.0
 11
171.26628815126321
 21
-514.42132569789214
 31
0.0
  0
LINE
  5
1FC93
  8
01
 10
171.76628815126321
 20
-516.12132686128905
 30
0.0
 11
171.26628815126321
 21
-516.02132569789205
 31
0.0
  0
LINE
  5
1FC94
  8
01
 10
171.26628815126321
 20
-516.02132569789205
 30
0.0
 11
175.26628815126321
 21
-515.22133500506936
 31
0.0
  0
LINE
  5
1FC95
  8
01
 10
174.58706699465239
 20
-507.22133342466122
 30
0.0
 11
174.03531753084911
 21
-507.03856928203322
 31
0.0
  0
LINE
  5
1FC96
  8
01
 10
175.26628815126321
 20
-510.42133500506952
 30
0.0
 11
174.76628815126321
 21
-510.32133384167241
 31
0.0
  0
LINE
  5
1FC97
  8
01
 10
175.26628815126321
 20
-512.02133500506955
 30
0.0
 11
174.76628815126321
 21
-511.92133384167249
 31
0.0
  0
LINE
  5
1FC98
  8
01
 10
175.03988109905919
 20
-508.82133447826681
 30
0.0
 11
174.5032873637881
 21
-508.692063780637
 31
0.0
  0
LINE
  5
1FC99
  8
01
 10
172.18720274847189
 20
-508.13409626385231
 30
0.0
 11
171.71910429332189
 21
-508.02132675150227
 31
0.0
  0
LINE
  5
1FC9A
  8
01
 10
171.76628815126321
 20
-511.32132686128909
 30
0.0
 11
171.26628815126321
 21
-511.2213256978921
 31
0.0
  0
LINE
  5
1FC9B
  8
01
 10
171.76628815126321
 20
-509.72132686128919
 30
0.0
 11
171.26628815126321
 21
-509.62132569789219
 31
0.0
  0
LINE
  5
1FC9C
  8
01
 10
172.6290896420013
 20
-506.57276360154691
 30
0.0
 11
172.1719178013702
 21
-506.4213278051065
 31
0.0
  0
LINE
  5
1FC9D
  8
01
 10
171.71910429332189
 20
-508.02132675150227
 30
0.0
 11
174.58706699465239
 21
-507.22133342466122
 31
0.0
  0
LINE
  5
1FC9E
  8
01
 10
171.26628815126321
 20
-511.2213256978921
 30
0.0
 11
175.26628815126321
 21
-510.42133500506952
 31
0.0
  0
LINE
  5
1FC9F
  8
01
 10
171.26628815126321
 20
-509.62132569789219
 30
0.0
 11
175.03988109905919
 21
-508.82133447826681
 31
0.0
  0
LINE
  5
1FCA0
  8
01
 10
171.26628815126321
 20
-512.82132569789212
 30
0.0
 11
175.26628815126321
 21
-512.02133500506955
 31
0.0
  0
LINE
  5
1FCA1
  8
01
 10
171.26628815126321
 20
-525.62132569789651
 30
0.0
 11
175.26628815126321
 21
-524.82133500507825
 31
0.0
  0
LINE
  5
1FCA2
  8
01
 10
175.26628815126321
 20
-524.82133500507825
 30
0.0
 11
174.76628815126321
 21
-524.72133384168058
 31
0.0
  0
LINE
  5
1FCA3
  8
01
 10
171.76628815126321
 20
-524.12132686128984
 30
0.0
 11
171.26628815126321
 21
-524.02132569789205
 31
0.0
  0
LINE
  5
1FCA4
  8
01
 10
175.26628815126321
 20
-526.42133500507828
 30
0.0
 11
174.76628815126321
 21
-526.3213338416806
 31
0.0
  0
LINE
  5
1FCA5
  8
01
 10
175.26628815126321
 20
-528.02133500507819
 30
0.0
 11
174.76628815126321
 21
-527.92133384168062
 31
0.0
  0
LINE
  5
1FCA6
  8
01
 10
171.76628815126321
 20
-525.72132686129407
 30
0.0
 11
171.26628815126321
 21
-525.62132569789651
 31
0.0
  0
LINE
  5
1FCA7
  8
01
 10
171.76628815126321
 20
-527.32132686129432
 30
0.0
 11
171.26628815126321
 21
-527.22132569789665
 31
0.0
  0
LINE
  5
1FCA8
  8
01
 10
171.26628815126321
 20
-527.22132569789665
 30
0.0
 11
175.26628815126321
 21
-526.42133500507828
 31
0.0
  0
LINE
  5
1FCA9
  8
01
 10
175.26628815126321
 20
-520.02133500507375
 30
0.0
 11
174.76628815126321
 21
-519.92133384167607
 31
0.0
  0
LINE
  5
1FCAA
  8
01
 10
175.26628815126321
 20
-518.42133500506952
 30
0.0
 11
174.76628815126321
 21
-518.32133384167241
 31
0.0
  0
LINE
  5
1FCAB
  8
01
 10
175.26628815126321
 20
-523.22133500507391
 30
0.0
 11
174.76628815126321
 21
-523.12133384167623
 31
0.0
  0
LINE
  5
1FCAC
  8
01
 10
175.26628815126321
 20
-521.621335005074
 30
0.0
 11
174.76628815126321
 21
-521.52133384167632
 31
0.0
  0
LINE
  5
1FCAD
  8
01
 10
171.76628815126321
 20
-517.72132686128919
 30
0.0
 11
171.26628815126321
 21
-517.62132569789219
 31
0.0
  0
LINE
  5
1FCAE
  8
01
 10
171.76628815126321
 20
-519.32132686128989
 30
0.0
 11
171.26628815126321
 21
-519.2213256978921
 31
0.0
  0
LINE
  5
1FCAF
  8
01
 10
171.76628815126321
 20
-522.52132686128994
 30
0.0
 11
171.26628815126321
 21
-522.42132569789214
 31
0.0
  0
LINE
  5
1FCB0
  8
01
 10
171.76628815126321
 20
-520.9213268612898
 30
0.0
 11
171.26628815126321
 21
-520.82132569789212
 31
0.0
  0
LINE
  5
1FCB1
  8
01
 10
171.26628815126321
 20
-520.82132569789212
 30
0.0
 11
175.26628815126321
 21
-520.02133500507375
 31
0.0
  0
LINE
  5
1FCB2
  8
01
 10
171.26628815126321
 20
-519.2213256978921
 30
0.0
 11
175.26628815126321
 21
-518.42133500506952
 31
0.0
  0
LINE
  5
1FCB3
  8
01
 10
171.26628815126321
 20
-522.42132569789214
 30
0.0
 11
175.26628815126321
 21
-521.621335005074
 31
0.0
  0
LINE
  5
1FCB4
  8
01
 10
171.26628815126321
 20
-524.02132569789205
 30
0.0
 11
175.26628815126321
 21
-523.22133500507391
 31
0.0
  0
LINE
  5
1FCB5
  8
01
 10
171.76628815126321
 20
-533.72132686129828
 30
0.0
 11
171.26628815126321
 21
-533.6213256979006
 31
0.0
  0
LINE
  5
1FCB6
  8
01
 10
171.26628815126321
 20
-533.6213256979006
 30
0.0
 11
175.26628815126321
 21
-532.82133500508235
 31
0.0
  0
LINE
  5
1FCB7
  8
01
 10
175.26628815126321
 20
-532.82133500508235
 30
0.0
 11
174.76628815126321
 21
-532.72133384168467
 31
0.0
  0
LINE
  5
1FCB8
  8
01
 10
171.76628815126321
 20
-532.12132686129848
 30
0.0
 11
171.26628815126321
 21
-532.02132569790081
 31
0.0
  0
LINE
  5
1FCB9
  8
01
 10
171.76628815126321
 20
-530.52132686129858
 30
0.0
 11
171.26628815126321
 21
-530.4213256979009
 31
0.0
  0
LINE
  5
1FCBA
  8
01
 10
171.26628815126321
 20
-530.4213256979009
 30
0.0
 11
175.26628815126321
 21
-529.62133500508264
 31
0.0
  0
LINE
  5
1FCBB
  8
01
 10
175.26628815126321
 20
-531.22133500508255
 30
0.0
 11
174.76628815126321
 21
-531.12133384168476
 31
0.0
  0
LINE
  5
1FCBC
  8
01
 10
175.26628815126321
 20
-529.62133500508264
 30
0.0
 11
174.76628815126321
 21
-529.52133384168485
 31
0.0
  0
LINE
  5
1FCBD
  8
01
 10
171.26628815126321
 20
-532.02132569790081
 30
0.0
 11
175.26628815126321
 21
-531.22133500508255
 31
0.0
  0
LINE
  5
1FCBE
  8
01
 10
171.76628815126321
 20
-528.92132686129423
 30
0.0
 11
171.26628815126321
 21
-528.82132569789655
 31
0.0
  0
LINE
  5
1FCBF
  8
01
 10
171.76628815126321
 20
-535.32132686129819
 30
0.0
 11
171.26628815126321
 21
-535.22132569790051
 31
0.0
  0
LINE
  5
1FCC0
  8
01
 10
171.26628815126321
 20
-535.22132569790051
 30
0.0
 11
175.26628815126321
 21
-534.42133500508226
 31
0.0
  0
LINE
  5
1FCC1
  8
01
 10
175.26628815126321
 20
-534.42133500508226
 30
0.0
 11
174.76628815126321
 21
-534.32133384168458
 31
0.0
  0
LINE
  5
1FCC2
  8
01
 10
171.76628815126321
 20
-536.9213268612981
 30
0.0
 11
171.26628815126321
 21
-536.82132569790053
 31
0.0
  0
LINE
  5
1FCC3
  8
01
 10
171.26628815126321
 20
-536.82132569790053
 30
0.0
 11
175.26628815126321
 21
-536.02133500508216
 31
0.0
  0
LINE
  5
1FCC4
  8
01
 10
175.26628815126321
 20
-536.02133500508216
 30
0.0
 11
174.76628815126321
 21
-535.9213338416846
 31
0.0
  0
LINE
  5
1FCC5
  8
01
 10
171.76628815126321
 20
-538.52132686129801
 30
0.0
 11
171.26628815126321
 21
-538.42132569790044
 31
0.0
  0
LINE
  5
1FCC6
  8
01
 10
171.26628815126321
 20
-538.42132569790044
 30
0.0
 11
175.26628815126321
 21
-537.62133500508219
 31
0.0
  0
LINE
  5
1FCC7
  8
01
 10
175.26628815126321
 20
-537.62133500508219
 30
0.0
 11
174.76628815126321
 21
-537.52133384168451
 31
0.0
  0
LINE
  5
1FCC9
  8
01
 10
729.01618821739476
 20
-662.22143961616212
 30
0.0
 11
721.01618821756813
 21
-662.22138374906297
 31
0.0
  0
LINE
  5
1FCCA
  8
01
 10
723.36641813397137
 20
-652.52140097531037
 30
0.0
 11
723.36621009664896
 21
-659.87137828809421
 31
0.0
  0
LINE
  5
1FCCB
  8
01
 10
726.66641813391516
 20
-652.52142239173224
 30
0.0
 11
726.66621009627215
 21
-659.87143414118225
 31
0.0
  0
LINE
  5
1FCCC
  8
01
 10
725.01643639572762
 20
-650.55992652415875
 30
0.0
 11
725.01616736498897
 21
-664.46116292603699
 31
0.0
  0
LINE
  5
1FCCD
  8
01
 10
727.01641546333474
 20
-652.8714256502858
 30
0.0
 11
723.01641546342205
 21
-652.87139771673628
 31
0.0
  0
LINE
  5
1FCCE
  8
01
 10
726.66621009627215
 20
-659.87143414118225
 30
0.0
 11
727.01620683771603
 21
-660.22143495660487
 31
0.0
  0
LINE
  5
1FCCF
  8
01
 10
723.36621009664896
 20
-659.87137828809421
 30
0.0
 11
723.01620683806254
 21
-660.22137910142999
 31
0.0
  0
LINE
  5
1FCD0
  8
01
 10
740.51624161536483
 20
-639.10440033445502
 30
0.0
 11
740.79931159855369
 21
-638.82133035126606
 31
0.0
1001
GRADIENTCOLOR1ACI
1070
     5
1001
GRADIENTCOLOR2ACI
1070
     2
1001
ACAD
1010
0.0
1020
0.0
1030
0.0
  0
LINE
  5
1FCD1
  8
01
 10
740.51624161536483
 20
-640.22693234958865
 30
0.0
 11
741.9218436136872
 21
-638.8213303512664
 31
0.0
1001
GRADIENTCOLOR1ACI
1070
     5
1001
GRADIENTCOLOR2ACI
1070
     2
1001
ACAD
1010
0.0
1020
0.0
1030
0.0
  0
LINE
  5
1FCD2
  8
01
 10
740.51624161536472
 20
-641.34946436472262
 30
0.0
 11
743.01624161536495
 21
-638.84946436472228
 31
0.0
1001
GRADIENTCOLOR1ACI
1070
     5
1001
GRADIENTCOLOR2ACI
1070
     2
1001
ACAD
1010
0.0
1020
0.0
1030
0.0
  0
LINE
  5
1FCD3
  8
01
 10
726.61624161536486
 20
-656.37199637985589
 30
0.0
 11
727.16690764395446
 21
-655.82133035126628
 31
0.0
1001
GRADIENTCOLOR1ACI
1070
     5
1001
GRADIENTCOLOR2ACI
1070
     2
1001
ACAD
1010
0.0
1020
0.0
1030
0.0
  0
LINE
  5
1FCD4
  8
01
 10
740.51624161536483
 20
-642.47199637985602
 30
0.0
 11
743.01624161536495
 21
-639.97199637985591
 31
0.0
1001
GRADIENTCOLOR1ACI
1070
     5
1001
GRADIENTCOLOR2ACI
1070
     2
1001
ACAD
1010
0.0
1020
0.0
1030
0.0
  0
LINE
  5
1FCD5
  8
01
 10
726.61624161536486
 20
-657.49452839498952
 30
0.0
 11
728.28943965908798
 21
-655.8213303512664
 31
0.0
1001
GRADIENTCOLOR1ACI
1070
     5
1001
GRADIENTCOLOR2ACI
1070
     2
1001
ACAD
1010
0.0
1020
0.0
1030
0.0
  0
LINE
  5
1FCD6
  8
01
 10
740.51624161536483
 20
-643.59452839498954
 30
0.0
 11
742.51624161536483
 21
-641.59452839498954
 31
0.0
1001
GRADIENTCOLOR1ACI
1070
     5
1001
GRADIENTCOLOR2ACI
1070
     2
1001
ACAD
1010
0.0
1020
0.0
1030
0.0
  0
LINE
  5
1FCD7
  8
01
 10
726.61624161536486
 20
-658.61706041012337
 30
0.0
 11
729.4119716742216
 21
-655.82133035126651
 31
0.0
1001
GRADIENTCOLOR1ACI
1070
     5
1001
GRADIENTCOLOR2ACI
1070
     2
1001
ACAD
1010
0.0
1020
0.0
1030
0.0
  0
LINE
  5
1FCD8
  8
01
 10
740.51624161536483
 20
-644.71706041012351
 30
0.0
 11
742.51624161536483
 21
-642.71706041012351
 31
0.0
1001
GRADIENTCOLOR1ACI
1070
     5
1001
GRADIENTCOLOR2ACI
1070
     2
1001
ACAD
1010
0.0
1020
0.0
1030
0.0
  0
LINE
  5
1FCD9
  8
01
 10
726.61624161536474
 20
-659.73959242525711
 30
0.0
 11
730.53450368935523
 21
-655.82133035126651
 31
0.0
1001
GRADIENTCOLOR1ACI
1070
     5
1001
GRADIENTCOLOR2ACI
1070
     2
1001
ACAD
1010
0.0
1020
0.0
1030
0.0
  0
LINE
  5
1FCDA
  8
01
 10
740.51624161536495
 20
-645.83959242525691
 30
0.0
 11
742.51624161536495
 21
-643.83959242525691
 31
0.0
1001
GRADIENTCOLOR1ACI
1070
     5
1001
GRADIENTCOLOR2ACI
1070
     2
1001
ACAD
1010
0.0
1020
0.0
1030
0.0
  0
LINE
  5
1FCDB
  8
01
 10
727.65703570448898
 20
-659.8213303512664
 30
0.0
 11
731.65703570448909
 21
-655.8213303512664
 31
0.0
1001
GRADIENTCOLOR1ACI
1070
     5
1001
GRADIENTCOLOR2ACI
1070
     2
1001
ACAD
1010
0.0
1020
0.0
1030
0.0
  0
LINE
  5
1FCDC
  8
01
 10
740.51624161536495
 20
-646.96212444039054
 30
0.0
 11
742.51624161536495
 21
-644.96212444039054
 31
0.0
1001
GRADIENTCOLOR1ACI
1070
     5
1001
GRADIENTCOLOR2ACI
1070
     2
1001
ACAD
1010
0.0
1020
0.0
1030
0.0
  0
LINE
  5
1FCDD
  8
01
 10
728.77956771962283
 20
-659.8213303512664
 30
0.0
 11
732.77956771962272
 21
-655.82133035126651
 31
0.0
1001
GRADIENTCOLOR1ACI
1070
     5
1001
GRADIENTCOLOR2ACI
1070
     2
1001
ACAD
1010
0.0
1020
0.0
1030
0.0
  0
LINE
  5
1FCDE
  8
01
 10
740.51624161536495
 20
-648.08465645552428
 30
0.0
 11
742.51624161536495
 21
-646.08465645552417
 31
0.0
1001
GRADIENTCOLOR1ACI
1070
     5
1001
GRADIENTCOLOR2ACI
1070
     2
1001
ACAD
1010
0.0
1020
0.0
1030
0.0
  0
LINE
  5
1FCDF
  8
01
 10
729.90209973475646
 20
-659.82133035126651
 30
0.0
 11
733.90209973475635
 21
-655.82133035126651
 31
0.0
1001
GRADIENTCOLOR1ACI
1070
     5
1001
GRADIENTCOLOR2ACI
1070
     2
1001
ACAD
1010
0.0
1020
0.0
1030
0.0
  0
LINE
  5
1FCE0
  8
01
 10
740.51624161536495
 20
-649.20718847065802
 30
0.0
 11
742.51624161536495
 21
-647.20718847065791
 31
0.0
1001
GRADIENTCOLOR1ACI
1070
     5
1001
GRADIENTCOLOR2ACI
1070
     2
1001
ACAD
1010
0.0
1020
0.0
1030
0.0
  0
LINE
  5
1FCE1
  8
01
 10
731.02463174989009
 20
-659.8213303512664
 30
0.0
 11
735.02463174988998
 21
-655.82133035126651
 31
0.0
1001
GRADIENTCOLOR1ACI
1070
     5
1001
GRADIENTCOLOR2ACI
1070
     2
1001
ACAD
1010
0.0
1020
0.0
1030
0.0
  0
LINE
  5
1FCE2
  8
01
 10
740.51624161536483
 20
-650.32972048579165
 30
0.0
 11
742.51624161536495
 21
-648.32972048579165
 31
0.0
1001
GRADIENTCOLOR1ACI
1070
     5
1001
GRADIENTCOLOR2ACI
1070
     2
1001
ACAD
1010
0.0
1020
0.0
1030
0.0
  0
LINE
  5
1FCE3
  8
01
 10
732.14716376502361
 20
-659.8213303512664
 30
0.0
 11
736.14716376502372
 21
-655.8213303512664
 31
0.0
1001
GRADIENTCOLOR1ACI
1070
     5
1001
GRADIENTCOLOR2ACI
1070
     2
1001
ACAD
1010
0.0
1020
0.0
1030
0.0
  0
LINE
  5
1FCE4
  8
01
 10
740.51624161536495
 20
-651.45225250092506
 30
0.0
 11
742.51624161536495
 21
-649.45225250092494
 31
0.0
1001
GRADIENTCOLOR1ACI
1070
     5
1001
GRADIENTCOLOR2ACI
1070
     2
1001
ACAD
1010
0.0
1020
0.0
1030
0.0
  0
LINE
  5
1FCE5
  8
01
 10
733.26969578015735
 20
-659.8213303512664
 30
0.0
 11
737.26969578015724
 21
-655.82133035126651
 31
0.0
1001
GRADIENTCOLOR1ACI
1070
     5
1001
GRADIENTCOLOR2ACI
1070
     2
1001
ACAD
1010
0.0
1020
0.0
1030
0.0
  0
LINE
  5
1FCE6
  8
01
 10
740.51624161536495
 20
-652.57478451605868
 30
0.0
 11
742.51624161536495
 21
-650.5747845160588
 31
0.0
1001
GRADIENTCOLOR1ACI
1070
     5
1001
GRADIENTCOLOR2ACI
1070
     2
1001
ACAD
1010
0.0
1020
0.0
1030
0.0
  0
LINE
  5
1FCE7
  8
01
 10
734.39222779529086
 20
-659.82133035126651
 30
0.0
 11
738.39222779529075
 21
-655.82133035126651
 31
0.0
1001
GRADIENTCOLOR1ACI
1070
     5
1001
GRADIENTCOLOR2ACI
1070
     2
1001
ACAD
1010
0.0
1020
0.0
1030
0.0
  0
LINE
  5
1FCE8
  8
01
 10
740.51624161536495
 20
-653.69731653119243
 30
0.0
 11
742.51624161536495
 21
-651.69731653119254
 31
0.0
1001
GRADIENTCOLOR1ACI
1070
     5
1001
GRADIENTCOLOR2ACI
1070
     2
1001
ACAD
1010
0.0
1020
0.0
1030
0.0
  0
LINE
  5
1FCE9
  8
01
 10
735.51475981042449
 20
-659.8213303512664
 30
0.0
 11
739.51475981042438
 21
-655.82133035126651
 31
0.0
1001
GRADIENTCOLOR1ACI
1070
     5
1001
GRADIENTCOLOR2ACI
1070
     2
1001
ACAD
1010
0.0
1020
0.0
1030
0.0
  0
LINE
  5
1FCEA
  8
01
 10
740.51624161536495
 20
-654.81984854632594
 30
0.0
 11
742.51624161536495
 21
-652.81984854632617
 31
0.0
1001
GRADIENTCOLOR1ACI
1070
     5
1001
GRADIENTCOLOR2ACI
1070
     2
1001
ACAD
1010
0.0
1020
0.0
1030
0.0
  0
LINE
  5
1FCEB
  8
01
 10
736.63729182555812
 20
-659.8213303512664
 30
0.0
 11
742.51624161536495
 21
-653.94238056145934
 31
0.0
1001
GRADIENTCOLOR1ACI
1070
     5
1001
GRADIENTCOLOR2ACI
1070
     2
1001
ACAD
1010
0.0
1020
0.0
1030
0.0
  0
LINE
  5
1FCEC
  8
01
 10
737.75982384069175
 20
-659.8213303512664
 30
0.0
 11
742.51624161536495
 21
-655.06491257659331
 31
0.0
1001
GRADIENTCOLOR1ACI
1070
     5
1001
GRADIENTCOLOR2ACI
1070
     2
1001
ACAD
1010
0.0
1020
0.0
1030
0.0
  0
LINE
  5
1FCED
  8
01
 10
738.88235585582561
 20
-659.8213303512664
 30
0.0
 11
742.51624161536495
 21
-656.18744459172694
 31
0.0
1001
GRADIENTCOLOR1ACI
1070
     5
1001
GRADIENTCOLOR2ACI
1070
     2
1001
ACAD
1010
0.0
1020
0.0
1030
0.0
  0
LINE
  5
1FCEE
  8
01
 10
740.00488787095912
 20
-659.8213303512664
 30
0.0
 11
742.51624161536495
 21
-657.30997660686057
 31
0.0
1001
GRADIENTCOLOR1ACI
1070
     5
1001
GRADIENTCOLOR2ACI
1070
     2
1001
ACAD
1010
0.0
1020
0.0
1030
0.0
  0
LINE
  5
1FCEF
  8
01
 10
740.51624161536483
 20
-660.4325086219942
 30
0.0
 11
742.51624161536483
 21
-658.4325086219942
 31
0.0
1001
GRADIENTCOLOR1ACI
1070
     5
1001
GRADIENTCOLOR2ACI
1070
     2
1001
ACAD
1010
0.0
1020
0.0
1030
0.0
  0
LINE
  5
1FCF0
  8
01
 10
740.51624161536483
 20
-661.55504063712817
 30
0.0
 11
742.51624161536495
 21
-659.55504063712795
 31
0.0
1001
GRADIENTCOLOR1ACI
1070
     5
1001
GRADIENTCOLOR2ACI
1070
     2
1001
ACAD
1010
0.0
1020
0.0
1030
0.0
  0
LINE
  5
1FCF1
  8
01
 10
740.51624161536495
 20
-662.67757265226146
 30
0.0
 11
742.51624161536495
 21
-660.67757265226157
 31
0.0
1001
GRADIENTCOLOR1ACI
1070
     5
1001
GRADIENTCOLOR2ACI
1070
     2
1001
ACAD
1010
0.0
1020
0.0
1030
0.0
  0
LINE
  5
1FCF2
  8
01
 10
740.51624161536495
 20
-663.80010466739509
 30
0.0
 11
742.51624161536495
 21
-661.8001046673952
 31
0.0
1001
GRADIENTCOLOR1ACI
1070
     5
1001
GRADIENTCOLOR2ACI
1070
     2
1001
ACAD
1010
0.0
1020
0.0
1030
0.0
  0
LINE
  5
1FCF3
  8
01
 10
740.51624161536495
 20
-664.92263668252895
 30
0.0
 11
742.51624161536495
 21
-662.92263668252895
 31
0.0
1001
GRADIENTCOLOR1ACI
1070
     5
1001
GRADIENTCOLOR2ACI
1070
     2
1001
ACAD
1010
0.0
1020
0.0
1030
0.0
  0
LINE
  5
1FCF4
  8
01
 10
740.51624161536495
 20
-666.04516869766258
 30
0.0
 11
742.51624161536495
 21
-664.04516869766269
 31
0.0
1001
GRADIENTCOLOR1ACI
1070
     5
1001
GRADIENTCOLOR2ACI
1070
     2
1001
ACAD
1010
0.0
1020
0.0
1030
0.0
  0
LINE
  5
1FCF5
  8
01
 10
740.51624161536483
 20
-667.1677007127962
 30
0.0
 11
742.51624161536495
 21
-665.16770071279632
 31
0.0
1001
GRADIENTCOLOR1ACI
1070
     5
1001
GRADIENTCOLOR2ACI
1070
     2
1001
ACAD
1010
0.0
1020
0.0
1030
0.0
  0
LINE
  5
1FCF6
  8
01
 10
740.51624161536495
 20
-668.29023272792972
 30
0.0
 11
742.51624161536495
 21
-666.29023272792949
 31
0.0
1001
GRADIENTCOLOR1ACI
1070
     5
1001
GRADIENTCOLOR2ACI
1070
     2
1001
ACAD
1010
0.0
1020
0.0
1030
0.0
  0
LINE
  5
1FCF7
  8
01
 10
740.51624161536495
 20
-669.41276474306335
 30
0.0
 11
742.51624161536495
 21
-667.41276474306335
 31
0.0
1001
GRADIENTCOLOR1ACI
1070
     5
1001
GRADIENTCOLOR2ACI
1070
     2
1001
ACAD
1010
0.0
1020
0.0
1030
0.0
  0
LINE
  5
1FCF8
  8
01
 10
740.51624161536495
 20
-670.53529675819721
 30
0.0
 11
742.51624161536495
 21
-668.53529675819709
 31
0.0
1001
GRADIENTCOLOR1ACI
1070
     5
1001
GRADIENTCOLOR2ACI
1070
     2
1001
ACAD
1010
0.0
1020
0.0
1030
0.0
  0
LINE
  5
1FCF9
  8
01
 10
740.51624161536483
 20
-671.65782877333083
 30
0.0
 11
742.51624161536495
 21
-669.65782877333083
 31
0.0
1001
GRADIENTCOLOR1ACI
1070
     5
1001
GRADIENTCOLOR2ACI
1070
     2
1001
ACAD
1010
0.0
1020
0.0
1030
0.0
  0
LINE
  5
1FCFA
  8
01
 10
740.51624161536483
 20
-672.78036078846435
 30
0.0
 11
742.51624161536483
 21
-670.78036078846435
 31
0.0
1001
GRADIENTCOLOR1ACI
1070
     5
1001
GRADIENTCOLOR2ACI
1070
     2
1001
ACAD
1010
0.0
1020
0.0
1030
0.0
  0
LINE
  5
1FCFB
  8
01
 10
741.59780406769653
 20
-672.8213303512664
 30
0.0
 11
743.01624161536495
 21
-671.40289280359775
 31
0.0
1001
GRADIENTCOLOR1ACI
1070
     5
1001
GRADIENTCOLOR2ACI
1070
     2
1001
ACAD
1010
0.0
1020
0.0
1030
0.0
  0
LINE
  5
1FCFC
  8
01
 10
742.72033608283004
 20
-672.82133035126651
 30
0.0
 11
743.01624161536483
 21
-672.52542481873184
 31
0.0
1001
GRADIENTCOLOR1ACI
1070
     5
1001
GRADIENTCOLOR2ACI
1070
     2
1001
ACAD
1010
0.0
1020
0.0
1030
0.0
  0
LINE
  5
1FCFD
  8
01
 10
726.70166142052437
 20
-659.8213303512664
 30
0.0
 11
726.61624161536474
 21
-659.73591054610665
 31
0.0
1001
GRADIENTCOLOR1ACI
1070
     5
1001
GRADIENTCOLOR2ACI
1070
     2
1001
ACAD
1010
0.0
1020
0.0
1030
0.0
  0
LINE
  5
1FCFE
  8
01
 10
740.82419343565812
 20
-672.82133035126651
 30
0.0
 11
740.51624161536483
 21
-672.51337853097323
 31
0.0
1001
GRADIENTCOLOR1ACI
1070
     5
1001
GRADIENTCOLOR2ACI
1070
     2
1001
ACAD
1010
0.0
1020
0.0
1030
0.0
  0
LINE
  5
1FCFF
  8
01
 10
727.824193435658
 20
-659.82133035126628
 30
0.0
 11
726.61624161536474
 21
-658.61337853097314
 31
0.0
1001
GRADIENTCOLOR1ACI
1070
     5
1001
GRADIENTCOLOR2ACI
1070
     2
1001
ACAD
1010
0.0
1020
0.0
1030
0.0
  0
LINE
  5
1FD00
  8
01
 10
741.94672545079175
 20
-672.82133035126651
 30
0.0
 11
740.51624161536483
 21
-671.3908465158396
 31
0.0
1001
GRADIENTCOLOR1ACI
1070
     5
1001
GRADIENTCOLOR2ACI
1070
     2
1001
ACAD
1010
0.0
1020
0.0
1030
0.0
  0
LINE
  5
1FD01
  8
01
 10
728.94672545079175
 20
-659.8213303512664
 30
0.0
 11
726.61624161536474
 21
-657.49084651583951
 31
0.0
1001
GRADIENTCOLOR1ACI
1070
     5
1001
GRADIENTCOLOR2ACI
1070
     2
1001
ACAD
1010
0.0
1020
0.0
1030
0.0
  0
LINE
  5
1FD02
  8
01
 10
743.01624161536483
 20
-672.76831450070586
 30
0.0
 11
740.51624161536483
 21
-670.26831450070597
 31
0.0
1001
GRADIENTCOLOR1ACI
1070
     5
1001
GRADIENTCOLOR2ACI
1070
     2
1001
ACAD
1010
0.0
1020
0.0
1030
0.0
  0
LINE
  5
1FD03
  8
01
 10
730.06925746592515
 20
-659.82133035126628
 30
0.0
 11
726.61624161536486
 21
-656.36831450070576
 31
0.0
1001
GRADIENTCOLOR1ACI
1070
     5
1001
GRADIENTCOLOR2ACI
1070
     2
1001
ACAD
1010
0.0
1020
0.0
1030
0.0
  0
LINE
  5
1FD04
  8
01
 10
743.01624161536472
 20
-671.64578248557223
 30
0.0
 11
740.51624161536483
 21
-669.14578248557234
 31
0.0
1001
GRADIENTCOLOR1ACI
1070
     5
1001
GRADIENTCOLOR2ACI
1070
     2
1001
ACAD
1010
0.0
1020
0.0
1030
0.0
  0
LINE
  5
1FD05
  8
01
 10
731.191789481059
 20
-659.8213303512664
 30
0.0
 11
727.191789481059
 21
-655.82133035126651
 31
0.0
1001
GRADIENTCOLOR1ACI
1070
     5
1001
GRADIENTCOLOR2ACI
1070
     2
1001
ACAD
1010
0.0
1020
0.0
1030
0.0
  0
LINE
  5
1FD06
  8
01
 10
742.51624161536495
 20
-670.02325047043882
 30
0.0
 11
740.51624161536483
 21
-668.0232504704386
 31
0.0
1001
GRADIENTCOLOR1ACI
1070
     5
1001
GRADIENTCOLOR2ACI
1070
     2
1001
ACAD
1010
0.0
1020
0.0
1030
0.0
  0
LINE
  5
1FD07
  8
01
 10
732.31432149619229
 20
-659.82133035126628
 30
0.0
 11
728.31432149619252
 21
-655.8213303512664
 31
0.0
1001
GRADIENTCOLOR1ACI
1070
     5
1001
GRADIENTCOLOR2ACI
1070
     2
1001
ACAD
1010
0.0
1020
0.0
1030
0.0
  0
LINE
  5
1FD08
  8
01
 10
742.51624161536495
 20
-668.9007184553052
 30
0.0
 11
740.51624161536483
 21
-666.90071845530497
 31
0.0
1001
GRADIENTCOLOR1ACI
1070
     5
1001
GRADIENTCOLOR2ACI
1070
     2
1001
ACAD
1010
0.0
1020
0.0
1030
0.0
  0
LINE
  5
1FD09
  8
01
 10
733.43685351132615
 20
-659.8213303512664
 30
0.0
 11
729.43685351132615
 21
-655.8213303512664
 31
0.0
1001
GRADIENTCOLOR1ACI
1070
     5
1001
GRADIENTCOLOR2ACI
1070
     2
1001
ACAD
1010
0.0
1020
0.0
1030
0.0
  0
LINE
  5
1FD0A
  8
01
 10
742.51624161536495
 20
-667.77818644017145
 30
0.0
 11
740.51624161536483
 21
-665.77818644017145
 31
0.0
1001
GRADIENTCOLOR1ACI
1070
     5
1001
GRADIENTCOLOR2ACI
1070
     2
1001
ACAD
1010
0.0
1020
0.0
1030
0.0
  0
LINE
  5
1FD0B
  8
01
 10
734.55938552645978
 20
-659.82133035126651
 30
0.0
 11
730.55938552645978
 21
-655.8213303512664
 31
0.0
1001
GRADIENTCOLOR1ACI
1070
     5
1001
GRADIENTCOLOR2ACI
1070
     2
1001
ACAD
1010
0.0
1020
0.0
1030
0.0
  0
LINE
  5
1FD0C
  8
01
 10
742.51624161536495
 20
-666.65565442503794
 30
0.0
 11
740.51624161536495
 21
-664.65565442503782
 31
0.0
1001
GRADIENTCOLOR1ACI
1070
     5
1001
GRADIENTCOLOR2ACI
1070
     2
1001
ACAD
1010
0.0
1020
0.0
1030
0.0
  0
LINE
  5
1FD0D
  8
01
 10
735.68191754159363
 20
-659.8213303512664
 30
0.0
 11
731.68191754159363
 21
-655.82133035126651
 31
0.0
1001
GRADIENTCOLOR1ACI
1070
     5
1001
GRADIENTCOLOR2ACI
1070
     2
1001
ACAD
1010
0.0
1020
0.0
1030
0.0
  0
LINE
  5
1FD0E
  8
01
 10
742.51624161536495
 20
-665.53312240990408
 30
0.0
 11
740.51624161536495
 21
-663.53312240990419
 31
0.0
1001
GRADIENTCOLOR1ACI
1070
     5
1001
GRADIENTCOLOR2ACI
1070
     2
1001
ACAD
1010
0.0
1020
0.0
1030
0.0
  0
LINE
  5
1FD0F
  8
01
 10
736.80444955672715
 20
-659.82133035126651
 30
0.0
 11
732.80444955672715
 21
-655.82133035126651
 31
0.0
1001
GRADIENTCOLOR1ACI
1070
     5
1001
GRADIENTCOLOR2ACI
1070
     2
1001
ACAD
1010
0.0
1020
0.0
1030
0.0
  0
LINE
  5
1FD10
  8
01
 10
742.51624161536495
 20
-664.41059039477057
 30
0.0
 11
740.51624161536495
 21
-662.41059039477057
 31
0.0
1001
GRADIENTCOLOR1ACI
1070
     5
1001
GRADIENTCOLOR2ACI
1070
     2
1001
ACAD
1010
0.0
1020
0.0
1030
0.0
  0
LINE
  5
1FD11
  8
01
 10
737.92698157186078
 20
-659.8213303512664
 30
0.0
 11
733.92698157186078
 21
-655.8213303512664
 31
0.0
1001
GRADIENTCOLOR1ACI
1070
     5
1001
GRADIENTCOLOR2ACI
1070
     2
1001
ACAD
1010
0.0
1020
0.0
1030
0.0
  0
LINE
  5
1FD12
  8
01
 10
742.51624161536495
 20
-663.28805837963694
 30
0.0
 11
740.51624161536495
 21
-661.28805837963682
 31
0.0
1001
GRADIENTCOLOR1ACI
1070
     5
1001
GRADIENTCOLOR2ACI
1070
     2
1001
ACAD
1010
0.0
1020
0.0
1030
0.0
  0
LINE
  5
1FD13
  8
01
 10
739.04951358699452
 20
-659.82133035126651
 30
0.0
 11
735.04951358699452
 21
-655.8213303512664
 31
0.0
1001
GRADIENTCOLOR1ACI
1070
     5
1001
GRADIENTCOLOR2ACI
1070
     2
1001
ACAD
1010
0.0
1020
0.0
1030
0.0
  0
LINE
  5
1FD14
  8
01
 10
742.51624161536495
 20
-662.16552636450342
 30
0.0
 11
740.51624161536495
 21
-660.16552636450319
 31
0.0
1001
GRADIENTCOLOR1ACI
1070
     5
1001
GRADIENTCOLOR2ACI
1070
     2
1001
ACAD
1010
0.0
1020
0.0
1030
0.0
  0
LINE
  5
1FD15
  8
01
 10
740.17204560212815
 20
-659.8213303512664
 30
0.0
 11
736.17204560212815
 21
-655.82133035126651
 31
0.0
1001
GRADIENTCOLOR1ACI
1070
     5
1001
GRADIENTCOLOR2ACI
1070
     2
1001
ACAD
1010
0.0
1020
0.0
1030
0.0
  0
LINE
  5
1FD16
  8
01
 10
742.51624161536495
 20
-661.04299434936968
 30
0.0
 11
737.29457761726178
 21
-655.82133035126651
 31
0.0
1001
GRADIENTCOLOR1ACI
1070
     5
1001
GRADIENTCOLOR2ACI
1070
     2
1001
ACAD
1010
0.0
1020
0.0
1030
0.0
  0
LINE
  5
1FD17
  8
01
 10
742.51624161536495
 20
-659.92046233423605
 30
0.0
 11
738.4171096323953
 21
-655.82133035126628
 31
0.0
1001
GRADIENTCOLOR1ACI
1070
     5
1001
GRADIENTCOLOR2ACI
1070
     2
1001
ACAD
1010
0.0
1020
0.0
1030
0.0
  0
LINE
  5
1FD18
  8
01
 10
742.51624161536495
 20
-658.79793031910231
 30
0.0
 11
739.53964164752915
 21
-655.82133035126651
 31
0.0
1001
GRADIENTCOLOR1ACI
1070
     5
1001
GRADIENTCOLOR2ACI
1070
     2
1001
ACAD
1010
0.0
1020
0.0
1030
0.0
  0
LINE
  5
1FD19
  8
01
 10
742.51624161536495
 20
-657.67539830396868
 30
0.0
 11
740.51624161536483
 21
-655.67539830396845
 31
0.0
1001
GRADIENTCOLOR1ACI
1070
     5
1001
GRADIENTCOLOR2ACI
1070
     2
1001
ACAD
1010
0.0
1020
0.0
1030
0.0
  0
LINE
  5
1FD1A
  8
01
 10
742.51624161536495
 20
-656.55286628883505
 30
0.0
 11
740.51624161536495
 21
-654.55286628883493
 31
0.0
1001
GRADIENTCOLOR1ACI
1070
     5
1001
GRADIENTCOLOR2ACI
1070
     2
1001
ACAD
1010
0.0
1020
0.0
1030
0.0
  0
LINE
  5
1FD1B
  8
01
 10
742.51624161536495
 20
-655.43033427370142
 30
0.0
 11
740.51624161536483
 21
-653.43033427370131
 31
0.0
1001
GRADIENTCOLOR1ACI
1070
     5
1001
GRADIENTCOLOR2ACI
1070
     2
1001
ACAD
1010
0.0
1020
0.0
1030
0.0
  0
LINE
  5
1FD1C
  8
01
 10
742.51624161536495
 20
-654.30780225856768
 30
0.0
 11
740.51624161536495
 21
-652.30780225856768
 31
0.0
1001
GRADIENTCOLOR1ACI
1070
     5
1001
GRADIENTCOLOR2ACI
1070
     2
1001
ACAD
1010
0.0
1020
0.0
1030
0.0
  0
LINE
  5
1FD1D
  8
01
 10
742.51624161536495
 20
-653.18527024343405
 30
0.0
 11
740.51624161536483
 21
-651.18527024343405
 31
0.0
1001
GRADIENTCOLOR1ACI
1070
     5
1001
GRADIENTCOLOR2ACI
1070
     2
1001
ACAD
1010
0.0
1020
0.0
1030
0.0
  0
LINE
  5
1FD1E
  8
01
 10
742.51624161536495
 20
-652.06273822830053
 30
0.0
 11
740.51624161536495
 21
-650.06273822830042
 31
0.0
1001
GRADIENTCOLOR1ACI
1070
     5
1001
GRADIENTCOLOR2ACI
1070
     2
1001
ACAD
1010
0.0
1020
0.0
1030
0.0
  0
LINE
  5
1FD1F
  8
01
 10
742.51624161536483
 20
-650.94020621316679
 30
0.0
 11
740.51624161536483
 21
-648.94020621316668
 31
0.0
1001
GRADIENTCOLOR1ACI
1070
     5
1001
GRADIENTCOLOR2ACI
1070
     2
1001
ACAD
1010
0.0
1020
0.0
1030
0.0
  0
LINE
  5
1FD20
  8
01
 10
742.51624161536495
 20
-649.81767419803327
 30
0.0
 11
740.51624161536495
 21
-647.81767419803305
 31
0.0
1001
GRADIENTCOLOR1ACI
1070
     5
1001
GRADIENTCOLOR2ACI
1070
     2
1001
ACAD
1010
0.0
1020
0.0
1030
0.0
  0
LINE
  5
1FD21
  8
01
 10
742.51624161536495
 20
-648.69514218289953
 30
0.0
 11
740.51624161536495
 21
-646.69514218289953
 31
0.0
1001
GRADIENTCOLOR1ACI
1070
     5
1001
GRADIENTCOLOR2ACI
1070
     2
1001
ACAD
1010
0.0
1020
0.0
1030
0.0
  0
LINE
  5
1FD22
  8
01
 10
742.51624161536495
 20
-647.5726101677659
 30
0.0
 11
740.51624161536495
 21
-645.5726101677659
 31
0.0
1001
GRADIENTCOLOR1ACI
1070
     5
1001
GRADIENTCOLOR2ACI
1070
     2
1001
ACAD
1010
0.0
1020
0.0
1030
0.0
  0
LINE
  5
1FD23
  8
01
 10
742.51624161536495
 20
-646.45007815263216
 30
0.0
 11
740.51624161536495
 21
-644.45007815263205
 31
0.0
1001
GRADIENTCOLOR1ACI
1070
     5
1001
GRADIENTCOLOR2ACI
1070
     2
1001
ACAD
1010
0.0
1020
0.0
1030
0.0
  0
LINE
  5
1FD24
  8
01
 10
742.51624161536495
 20
-645.32754613749864
 30
0.0
 11
740.51624161536495
 21
-643.32754613749864
 31
0.0
1001
GRADIENTCOLOR1ACI
1070
     5
1001
GRADIENTCOLOR2ACI
1070
     2
1001
ACAD
1010
0.0
1020
0.0
1030
0.0
  0
LINE
  5
1FD25
  8
01
 10
742.51624161536495
 20
-644.20501412236501
 30
0.0
 11
740.51624161536495
 21
-642.20501412236501
 31
0.0
1001
GRADIENTCOLOR1ACI
1070
     5
1001
GRADIENTCOLOR2ACI
1070
     2
1001
ACAD
1010
0.0
1020
0.0
1030
0.0
  0
LINE
  5
1FD26
  8
01
 10
742.51624161536495
 20
-643.08248210723116
 30
0.0
 11
740.51624161536495
 21
-641.08248210723127
 31
0.0
1001
GRADIENTCOLOR1ACI
1070
     5
1001
GRADIENTCOLOR2ACI
1070
     2
1001
ACAD
1010
0.0
1020
0.0
1030
0.0
  0
LINE
  5
1FD27
  8
01
 10
742.51624161536495
 20
-641.95995009209764
 30
0.0
 11
740.51624161536495
 21
-639.95995009209753
 31
0.0
1001
GRADIENTCOLOR1ACI
1070
     5
1001
GRADIENTCOLOR2ACI
1070
     2
1001
ACAD
1010
0.0
1020
0.0
1030
0.0
  0
LINE
  5
1FD28
  8
01
 10
742.51624161536495
 20
-640.83741807696401
 30
0.0
 11
740.51624161536495
 21
-638.8374180769639
 31
0.0
1001
GRADIENTCOLOR1ACI
1070
     5
1001
GRADIENTCOLOR2ACI
1070
     2
1001
ACAD
1010
0.0
1020
0.0
1030
0.0
  0
LINE
  5
1FD29
  8
01
 10
743.01624161536483
 20
-640.21488606183027
 30
0.0
 11
741.62268590480085
 21
-638.8213303512664
 31
0.0
1001
GRADIENTCOLOR1ACI
1070
     5
1001
GRADIENTCOLOR2ACI
1070
     2
1001
ACAD
1010
0.0
1020
0.0
1030
0.0
  0
LINE
  5
1FD2A
  8
01
 10
743.01624161536483
 20
-639.09235404669664
 30
0.0
 11
742.7452179199347
 21
-638.82133035126651
 31
0.0
1001
GRADIENTCOLOR1ACI
1070
     5
1001
GRADIENTCOLOR2ACI
1070
     2
1001
ACAD
1010
0.0
1020
0.0
1030
0.0
  0
LINE
  5
1FD2B
  8
01
 10
720.51624161536495
 20
-656.85933630418788
 30
0.0
 11
721.5542475682862
 21
-655.82133035126651
 31
0.0
1001
ACAD
1010
0.0
1020
0.0
1030
0.0
  0
LINE
  5
1FD2C
  8
01
 10
720.51624161536483
 20
-657.98186831932151
 30
0.0
 11
722.67677958341994
 21
-655.82133035126628
 31
0.0
1001
ACAD
1010
0.0
1020
0.0
1030
0.0
  0
LINE
  5
1FD2D
  8
01
 10
720.51624161536483
 20
-659.10440033445502
 30
0.0
 11
723.41624161536504
 21
-656.2044003344547
 31
0.0
1001
ACAD
1010
0.0
1020
0.0
1030
0.0
  0
LINE
  5
1FD2E
  8
01
 10
720.96904261452596
 20
-659.77413135042764
 30
0.0
 11
723.41624161536504
 21
-657.32693234958845
 31
0.0
1001
ACAD
1010
0.0
1020
0.0
1030
0.0
  0
LINE
  5
1FD2F
  8
01
 10
722.04437562882094
 20
-659.8213303512664
 30
0.0
 11
723.41624161536515
 21
-658.44946436472219
 31
0.0
1001
ACAD
1010
0.0
1020
0.0
1030
0.0
  0
LINE
  5
1FD30
  8
01
 10
723.16690764395435
 20
-659.8213303512664
 30
0.0
 11
723.41624161536504
 21
-659.57199637985582
 31
0.0
1001
ACAD
1010
0.0
1020
0.0
1030
0.0
  0
LINE
  5
1FD31
  8
01
 10
721.08900134485623
 20
-659.8213303512664
 30
0.0
 11
720.51624161536483
 21
-659.248570621775
 31
0.0
1001
ACAD
1010
0.0
1020
0.0
1030
0.0
  0
LINE
  5
1FD32
  8
01
 10
722.21153335998963
 20
-659.82133035126628
 30
0.0
 11
720.51624161536495
 21
-658.12603860664137
 31
0.0
1001
ACAD
1010
0.0
1020
0.0
1030
0.0
  0
LINE
  5
1FD33
  8
01
 10
723.33406537512326
 20
-659.8213303512664
 30
0.0
 11
720.51624161536483
 21
-657.00350659150774
 31
0.0
1001
ACAD
1010
0.0
1020
0.0
1030
0.0
  0
LINE
  5
1FD34
  8
01
 10
723.41624161536504
 20
-658.78097457637432
 30
0.0
 11
720.51624161536495
 21
-655.88097457637411
 31
0.0
1001
ACAD
1010
0.0
1020
0.0
1030
0.0
  0
LINE
  5
1FD35
  8
01
 10
723.41624161536492
 20
-657.65844256124058
 30
0.0
 11
721.57912940539063
 21
-655.82133035126628
 31
0.0
1001
ACAD
1010
0.0
1020
0.0
1030
0.0
  0
LINE
  5
1FD36
  8
01
 10
723.41624161536492
 20
-656.53591054610695
 30
0.0
 11
722.70166142052437
 21
-655.82133035126651
 31
0.0
1001
ACAD
1010
0.0
1020
0.0
1030
0.0
  0
LINE
  5
1FD37
  8
01
 10
727.51937825234609
 20
-660.72446698824774
 30
0.0
 11
728.42251488932754
 21
-659.8213303512664
 31
0.0
1001
ACAD
1010
0.0
1020
0.0
1030
0.0
  0
LINE
  5
1FD38
  8
01
 10
728.64191026747983
 20
-661.84699900338137
 30
0.0
 11
730.66757891959469
 21
-659.8213303512664
 31
0.0
1001
ACAD
1010
0.0
1020
0.0
1030
0.0
  0
LINE
  5
1FD39
  8
01
 10
730.16264294986195
 20
-662.5713303512664
 30
0.0
 11
732.91264294986206
 21
-659.8213303512664
 31
0.0
1001
ACAD
1010
0.0
1020
0.0
1030
0.0
  0
LINE
  5
1FD3A
  8
01
 10
732.40770698012943
 20
-662.5713303512664
 30
0.0
 11
735.15770698012932
 21
-659.82133035126651
 31
0.0
1001
ACAD
1010
0.0
1020
0.0
1030
0.0
  0
LINE
  5
1FD3B
  8
01
 10
734.6527710103968
 20
-662.5713303512664
 30
0.0
 11
737.40277101039658
 21
-659.82133035126651
 31
0.0
1001
ACAD
1010
0.0
1020
0.0
1030
0.0
  0
LINE
  5
1FD3C
  8
01
 10
736.89783504066395
 20
-662.5713303512664
 30
0.0
 11
739.64783504066395
 21
-659.82133035126651
 31
0.0
1001
ACAD
1010
0.0
1020
0.0
1030
0.0
  0
LINE
  5
1FD3D
  8
01
 10
738.01624161536495
 20
-663.69798780683266
 30
0.0
 11
740.01624161536506
 21
-661.69798780683266
 31
0.0
1001
ACAD
1010
0.0
1020
0.0
1030
0.0
  0
LINE
  5
1FD3E
  8
01
 10
738.01624161536495
 20
-665.94305183710003
 30
0.0
 11
740.01624161536506
 21
-663.94305183710003
 31
0.0
1001
ACAD
1010
0.0
1020
0.0
1030
0.0
  0
LINE
  5
1FD3F
  8
01
 10
738.01624161536495
 20
-668.18811586736729
 30
0.0
 11
740.01624161536506
 21
-666.18811586736717
 31
0.0
1001
ACAD
1010
0.0
1020
0.0
1030
0.0
  0
LINE
  5
1FD40
  8
01
 10
738.01624161536495
 20
-670.43317989763455
 30
0.0
 11
740.01624161536495
 21
-668.43317989763455
 31
0.0
1001
ACAD
1010
0.0
1020
0.0
1030
0.0
  0
LINE
  5
1FD41
  8
01
 10
738.01624161536495
 20
-672.6782439279018
 30
0.0
 11
740.01624161536495
 21
-670.6782439279018
 31
0.0
1001
ACAD
1010
0.0
1020
0.0
1030
0.0
  0
LINE
  5
1FD42
  8
01
 10
738.13870662140891
 20
-674.80084295212532
 30
0.0
 11
740.01624161536506
 21
-672.92330795816929
 31
0.0
1001
ACAD
1010
0.0
1020
0.0
1030
0.0
  0
LINE
  5
1FD43
  8
01
 10
739.86328325253498
 20
-675.3213303512664
 30
0.0
 11
741.8632832525351
 21
-673.3213303512664
 31
0.0
1001
ACAD
1010
0.0
1020
0.0
1030
0.0
  0
LINE
  5
1FD44
  8
01
 10
742.10834728280236
 20
-675.3213303512664
 30
0.0
 11
743.01624161536495
 21
-674.41343601870381
 31
0.0
1001
ACAD
1010
0.0
1020
0.0
1030
0.0
  0
LINE
  5
1FD45
  8
01
 10
693.93851564856459
 20
-653.89417704721814
 30
0.0
 11
700.33908831131635
 21
-647.49360438446638
 31
0.0
1001
GRADIENTCOLOR1ACI
1070
     5
1001
GRADIENTCOLOR2ACI
1070
     2
1001
ACAD
1010
0.0
1020
0.0
1030
0.0
  0
LINE
  5
1FD46
  8
01
 10
693.79681624249633
 20
-656.28094048355376
 30
0.0
 11
696.06772537841471
 21
-654.01003134763539
 31
0.0
1001
GRADIENTCOLOR1ACI
1070
     5
1001
GRADIENTCOLOR2ACI
1070
     2
1001
ACAD
1010
0.0
1020
0.0
1030
0.0
  0
LINE
  5
1FD47
  8
01
 10
700.4549426117336
 20
-649.6228141143165
 30
0.0
 11
702.72585174765197
 21
-647.35190497839801
 31
0.0
1001
GRADIENTCOLOR1ACI
1070
     5
1001
GRADIENTCOLOR2ACI
1070
     2
1001
ACAD
1010
0.0
1020
0.0
1030
0.0
  0
LINE
  5
1FD48
  8
01
 10
694.1779224191406
 20
-658.14489833717676
 30
0.0
 11
695.92238530487759
 21
-656.40043545143976
 31
0.0
1001
GRADIENTCOLOR1ACI
1070
     5
1001
GRADIENTCOLOR2ACI
1070
     2
1001
ACAD
1010
0.0
1020
0.0
1030
0.0
  0
LINE
  5
1FD49
  8
01
 10
702.84534671553797
 20
-649.47747404077916
 30
0.0
 11
704.58980960127496
 21
-647.73301115504216
 31
0.0
1001
GRADIENTCOLOR1ACI
1070
     5
1001
GRADIENTCOLOR2ACI
1070
     2
1001
ACAD
1010
0.0
1020
0.0
1030
0.0
  0
LINE
  5
1FD4A
  8
01
 10
694.87154023355424
 20
-659.69634455303026
 30
0.0
 11
696.4282094159629
 21
-658.13967537062172
 31
0.0
1001
GRADIENTCOLOR1ACI
1070
     5
1001
GRADIENTCOLOR2ACI
1070
     2
1001
ACAD
1010
0.0
1020
0.0
1030
0.0
  0
LINE
  5
1FD4B
  8
01
 10
704.58458663472004
 20
-649.98329815186446
 30
0.0
 11
706.14125581712858
 21
-648.42662896945592
 31
0.0
1001
GRADIENTCOLOR1ACI
1070
     5
1001
GRADIENTCOLOR2ACI
1070
     2
1001
ACAD
1010
0.0
1020
0.0
1030
0.0
  0
LINE
  5
1FD4C
  8
01
 10
695.8081706618409
 20
-661.00477815501085
 30
0.0
 11
697.29750536215545
 21
-659.51544345469642
 31
0.0
1001
GRADIENTCOLOR1ACI
1070
     5
1001
GRADIENTCOLOR2ACI
1070
     2
1001
ACAD
1010
0.0
1020
0.0
1030
0.0
  0
LINE
  5
1FD4D
  8
01
 10
705.96035471879475
 20
-650.85259409805712
 30
0.0
 11
708.24161846558525
 21
-648.57133035126662
 31
0.0
1001
GRADIENTCOLOR1ACI
1070
     5
1001
GRADIENTCOLOR2ACI
1070
     2
1001
ACAD
1010
0.0
1020
0.0
1030
0.0
  0
LINE
  5
1FD4E
  8
01
 10
696.96434697948939
 20
-662.09366586762974
 30
0.0
 11
698.46535649178418
 21
-660.59265635533495
 31
0.0
1001
GRADIENTCOLOR1ACI
1070
     5
1001
GRADIENTCOLOR2ACI
1070
     2
1001
ACAD
1010
0.0
1020
0.0
1030
0.0
  0
LINE
  5
1FD4F
  8
01
 10
707.03756761943316
 20
-652.02044522768585
 30
0.0
 11
710.48668249585239
 21
-648.57133035126662
 31
0.0
1001
GRADIENTCOLOR1ACI
1070
     5
1001
GRADIENTCOLOR2ACI
1070
     2
1001
ACAD
1010
0.0
1020
0.0
1030
0.0
  0
LINE
  5
1FD50
  8
01
 10
698.34407491992829
 20
-662.9590019574581
 30
0.0
 11
699.94207268107311
 21
-661.36100419631327
 31
0.0
1001
GRADIENTCOLOR1ACI
1070
     5
1001
GRADIENTCOLOR2ACI
1070
     2
1001
ACAD
1010
0.0
1020
0.0
1030
0.0
  0
LINE
  5
1FD51
  8
01
 10
707.80591546041148
 20
-653.4971614169749
 30
0.0
 11
712.73174652611988
 21
-648.57133035126662
 31
0.0
1001
GRADIENTCOLOR1ACI
1070
     5
1001
GRADIENTCOLOR2ACI
1070
     2
1001
ACAD
1010
0.0
1020
0.0
1030
0.0
  0
LINE
  5
1FD52
  8
01
 10
699.98163281933194
 20
-663.56650808832194
 30
0.0
 11
701.8296420534507
 21
-661.71849885420295
 31
0.0
1001
GRADIENTCOLOR1ACI
1070
     5
1001
GRADIENTCOLOR2ACI
1070
     2
1001
ACAD
1010
0.0
1020
0.0
1030
0.0
  0
LINE
  5
1FD53
  8
01
 10
712.22681055638725
 20
-651.32133035126662
 30
0.0
 11
714.97681055638725
 21
-648.57133035126662
 31
0.0
1001
GRADIENTCOLOR1ACI
1070
     5
1001
GRADIENTCOLOR2ACI
1070
     2
1001
ACAD
1010
0.0
1020
0.0
1030
0.0
  0
LINE
  5
1FD54
  8
01
 10
708.16341011830139
 20
-655.38473078935249
 30
0.0
 11
710.01624161536495
 21
-653.53189929228881
 31
0.0
1001
GRADIENTCOLOR1ACI
1070
     5
1001
GRADIENTCOLOR2ACI
1070
     2
1001
ACAD
1010
0.0
1020
0.0
1030
0.0
  0
LINE
  5
1FD55
  8
01
 10
701.97199324919927
 20
-663.82121168872175
 30
0.0
 11
704.67748018597297
 21
-661.11572475194805
 31
0.0
1001
GRADIENTCOLOR1ACI
1070
     5
1001
GRADIENTCOLOR2ACI
1070
     2
1001
ACAD
1010
0.0
1020
0.0
1030
0.0
  0
LINE
  5
1FD56
  8
01
 10
714.47187458665462
 20
-651.32133035126662
 30
0.0
 11
717.22187458665462
 21
-648.57133035126662
 31
0.0
1001
GRADIENTCOLOR1ACI
1070
     5
1001
GRADIENTCOLOR2ACI
1070
     2
1001
ACAD
1010
0.0
1020
0.0
1030
0.0
  0
LINE
  5
1FD57
  8
01
 10
707.56063601604626
 20
-658.23256892187464
 30
0.0
 11
710.01624161536495
 21
-655.77696332255618
 31
0.0
1001
GRADIENTCOLOR1ACI
1070
     5
1001
GRADIENTCOLOR2ACI
1070
     2
1001
ACAD
1010
0.0
1020
0.0
1030
0.0
  0
LINE
  5
1FD58
  8
01
 10
704.64794730237475
 20
-663.39032166581353
 30
0.0
 11
710.01624161536495
 21
-658.02202735282344
 31
0.0
1001
GRADIENTCOLOR1ACI
1070
     5
1001
GRADIENTCOLOR2ACI
1070
     2
1001
ACAD
1010
0.0
1020
0.0
1030
0.0
  0
LINE
  5
1FD59
  8
01
 10
716.71693861692177
 20
-651.32133035126662
 30
0.0
 11
719.46693861692177
 21
-648.57133035126662
 31
0.0
1001
GRADIENTCOLOR1ACI
1070
     5
1001
GRADIENTCOLOR2ACI
1070
     2
1001
ACAD
1010
0.0
1020
0.0
1030
0.0
  0
LINE
  5
1FD5A
  8
01
 10
707.71200264718925
 20
-662.5713303512664
 30
0.0
 11
710.46200264718902
 21
-659.82133035126651
 31
0.0
1001
GRADIENTCOLOR1ACI
1070
     5
1001
GRADIENTCOLOR2ACI
1070
     2
1001
ACAD
1010
0.0
1020
0.0
1030
0.0
  0
LINE
  5
1FD5B
  8
01
 10
718.96200264718914
 20
-651.32133035126651
 30
0.0
 11
721.71200264718914
 21
-648.57133035126651
 31
0.0
1001
GRADIENTCOLOR1ACI
1070
     5
1001
GRADIENTCOLOR2ACI
1070
     2
1001
ACAD
1010
0.0
1020
0.0
1030
0.0
  0
LINE
  5
1FD5C
  8
01
 10
709.95706667745651
 20
-662.5713303512664
 30
0.0
 11
712.70706667745628
 21
-659.82133035126651
 31
0.0
1001
GRADIENTCOLOR1ACI
1070
     5
1001
GRADIENTCOLOR2ACI
1070
     2
1001
ACAD
1010
0.0
1020
0.0
1030
0.0
  0
LINE
  5
1FD5D
  8
01
 10
721.20706667745651
 20
-651.32133035126651
 30
0.0
 11
723.9570666774564
 21
-648.57133035126651
 31
0.0
1001
GRADIENTCOLOR1ACI
1070
     5
1001
GRADIENTCOLOR2ACI
1070
     2
1001
ACAD
1010
0.0
1020
0.0
1030
0.0
  0
LINE
  5
1FD5E
  8
01
 10
712.20213070772365
 20
-662.5713303512664
 30
0.0
 11
714.95213070772354
 21
-659.82133035126651
 31
0.0
1001
GRADIENTCOLOR1ACI
1070
     5
1001
GRADIENTCOLOR2ACI
1070
     2
1001
ACAD
1010
0.0
1020
0.0
1030
0.0
  0
LINE
  5
1FD5F
  8
01
 10
738.0184426762869
 20
-636.75501838270338
 30
0.0
 11
738.94992964680171
 21
-635.82353141218834
 31
0.0
1001
GRADIENTCOLOR1ACI
1070
     5
1001
GRADIENTCOLOR2ACI
1070
     2
1001
ACAD
1010
0.0
1020
0.0
1030
0.0
  0
LINE
  5
1FD60
  8
01
 10
723.45213070772365
 20
-651.32133035126651
 30
0.0
 11
726.20213070772365
 21
-648.57133035126651
 31
0.0
1001
GRADIENTCOLOR1ACI
1070
     5
1001
GRADIENTCOLOR2ACI
1070
     2
1001
ACAD
1010
0.0
1020
0.0
1030
0.0
  0
LINE
  5
1FD61
  8
01
 10
714.44719473799103
 20
-662.5713303512664
 30
0.0
 11
717.19719473799069
 21
-659.82133035126674
 31
0.0
1001
GRADIENTCOLOR1ACI
1070
     5
1001
GRADIENTCOLOR2ACI
1070
     2
1001
ACAD
1010
0.0
1020
0.0
1030
0.0
  0
LINE
  5
1FD62
  8
01
 10
738.01624161536495
 20
-639.00228347389248
 30
0.0
 11
741.19719473799114
 21
-635.8213303512664
 31
0.0
1001
GRADIENTCOLOR1ACI
1070
     5
1001
GRADIENTCOLOR2ACI
1070
     2
1001
ACAD
1010
0.0
1020
0.0
1030
0.0
  0
LINE
  5
1FD63
  8
01
 10
725.69719473799091
 20
-651.32133035126651
 30
0.0
 11
728.44719473799091
 21
-648.57133035126651
 31
0.0
1001
GRADIENTCOLOR1ACI
1070
     5
1001
GRADIENTCOLOR2ACI
1070
     2
1001
ACAD
1010
0.0
1020
0.0
1030
0.0
  0
LINE
  5
1FD64
  8
01
 10
716.69225876825828
 20
-662.5713303512664
 30
0.0
 11
719.44225876825817
 21
-659.82133035126685
 31
0.0
1001
GRADIENTCOLOR1ACI
1070
     5
1001
GRADIENTCOLOR2ACI
1070
     2
1001
ACAD
1010
0.0
1020
0.0
1030
0.0
  0
LINE
  5
1FD65
  8
01
 10
741.4422587682584
 20
-637.82133035126651
 30
0.0
 11
743.01624161536495
 21
-636.24734750415985
 31
0.0
1001
GRADIENTCOLOR1ACI
1070
     5
1001
GRADIENTCOLOR2ACI
1070
     2
1001
ACAD
1010
0.0
1020
0.0
1030
0.0
  0
LINE
  5
1FD66
  8
01
 10
727.94225876825828
 20
-651.32133035126651
 30
0.0
 11
730.6922587682584
 21
-648.57133035126651
 31
0.0
1001
GRADIENTCOLOR1ACI
1070
     5
1001
GRADIENTCOLOR2ACI
1070
     2
1001
ACAD
1010
0.0
1020
0.0
1030
0.0
  0
LINE
  5
1FD67
  8
01
 10
738.01624161536495
 20
-641.24734750415996
 30
0.0
 11
740.01624161536506
 21
-639.24734750415985
 31
0.0
1001
GRADIENTCOLOR1ACI
1070
     5
1001
GRADIENTCOLOR2ACI
1070
     2
1001
ACAD
1010
0.0
1020
0.0
1030
0.0
  0
LINE
  5
1FD68
  8
01
 10
718.93732279852566
 20
-662.5713303512664
 30
0.0
 11
721.68732279852543
 21
-659.82133035126685
 31
0.0
1001
GRADIENTCOLOR1ACI
1070
     5
1001
GRADIENTCOLOR2ACI
1070
     2
1001
ACAD
1010
0.0
1020
0.0
1030
0.0
  0
LINE
  5
1FD69
  8
01
 10
738.01624161536495
 20
-643.49241153442722
 30
0.0
 11
740.01624161536506
 21
-641.49241153442711
 31
0.0
1001
GRADIENTCOLOR1ACI
1070
     5
1001
GRADIENTCOLOR2ACI
1070
     2
1001
ACAD
1010
0.0
1020
0.0
1030
0.0
  0
LINE
  5
1FD6A
  8
01
 10
730.18732279852566
 20
-651.32133035126651
 30
0.0
 11
732.93732279852566
 21
-648.57133035126651
 31
0.0
1001
GRADIENTCOLOR1ACI
1070
     5
1001
GRADIENTCOLOR2ACI
1070
     2
1001
ACAD
1010
0.0
1020
0.0
1030
0.0
  0
LINE
  5
1FD6B
  8
01
 10
732.43238682879291
 20
-651.32133035126651
 30
0.0
 11
735.18238682879291
 21
-648.5713303512664
 31
0.0
1001
GRADIENTCOLOR1ACI
1070
     5
1001
GRADIENTCOLOR2ACI
1070
     2
1001
ACAD
1010
0.0
1020
0.0
1030
0.0
  0
LINE
  5
1FD6C
  8
01
 10
738.01624161536495
 20
-645.73747556469436
 30
0.0
 11
740.01624161536506
 21
-643.73747556469448
 31
0.0
1001
GRADIENTCOLOR1ACI
1070
     5
1001
GRADIENTCOLOR2ACI
1070
     2
1001
ACAD
1010
0.0
1020
0.0
1030
0.0
  0
LINE
  5
1FD6D
  8
01
 10
734.67745085906029
 20
-651.32133035126651
 30
0.0
 11
737.67577978925772
 21
-648.32300142106897
 31
0.0
1001
GRADIENTCOLOR1ACI
1070
     5
1001
GRADIENTCOLOR2ACI
1070
     2
1001
ACAD
1010
0.0
1020
0.0
1030
0.0
  0
LINE
  5
1FD6E
  8
01
 10
737.76791268516752
 20
-648.23086852515917
 30
0.0
 11
740.01624161536506
 21
-645.98253959496174
 31
0.0
1001
GRADIENTCOLOR1ACI
1070
     5
1001
GRADIENTCOLOR2ACI
1070
     2
1001
ACAD
1010
0.0
1020
0.0
1030
0.0
  0
LINE
  5
1FD6F
  8
01
 10
736.92251488932754
 20
-651.3213303512664
 30
0.0
 11
740.01624161536495
 21
-648.22760362522888
 31
0.0
1001
GRADIENTCOLOR1ACI
1070
     5
1001
GRADIENTCOLOR2ACI
1070
     2
1001
ACAD
1010
0.0
1020
0.0
1030
0.0
  0
LINE
  5
1FD70
  8
01
 10
739.16757891959469
 20
-651.3213303512664
 30
0.0
 11
740.01624161536495
 21
-650.47266765549625
 31
0.0
1001
GRADIENTCOLOR1ACI
1070
     5
1001
GRADIENTCOLOR2ACI
1070
     2
1001
ACAD
1010
0.0
1020
0.0
1030
0.0
  0
LINE
  5
1FD71
  8
01
 10
623.26628815126321
 20
-504.32133035142868
 30
0.0
 11
621.76628815126321
 21
-509.62132686129041
 31
0.0
  0
LINE
  5
1FD72
  8
01
 10
621.76628815126321
 20
-509.62132686129041
 30
0.0
 11
621.76628815126344
 21
-539.32132686118234
 31
0.0
  0
LINE
  5
1FD73
  8
01
 10
623.26628815126321
 20
-504.32133035142868
 30
0.0
 11
624.76628815126332
 21
-509.62133384167402
 31
0.0
  0
LINE
  5
1FD74
  8
01
 10
619.76624161536529
 20
-539.32132220748406
 30
0.0
 11
626.76624161536529
 21
-539.32133849504851
 31
0.0
  0
LINE
  5
1FD75
  8
01
 10
624.76628815126332
 20
-509.62133384167402
 30
0.0
 11
624.76628815126344
 21
-539.32133384156691
 31
0.0
  0
LINE
  5
1FD76
  8
01
 10
619.76624161536529
 20
-539.32132220748406
 30
0.0
 11
619.76624161536529
 21
-540.42132569767955
 31
0.0
  0
ARC
  5
1FD77
  8
01
 10
621.26624161536517
 20
-540.42132569767955
 30
0.0
 40
1.5
 50
180.0
 51
269.99986668446837
  0
LINE
  5
1FD78
  8
01
 10
626.76624161536529
 20
-539.32133849504851
 30
0.0
 11
626.76624161536529
 21
-540.4213350048592
 31
0.0
  0
LINE
  5
1FD79
  8
01
 10
621.26623812517278
 20
-541.92132569767546
 30
0.0
 11
625.26623812517278
 21
-541.92133500485511
 31
0.0
  0
ARC
  5
1FD7A
  8
01
 10
625.26624161536517
 20
-540.4213350048592
 30
0.0
 40
1.5
 50
269.99986668446837
 51
0.0
  0
LINE
  5
1FD7B
  8
01
 10
623.26624161536529
 20
-502.89053543396341
 30
0.0
 11
623.26624161536529
 21
-542.99160676057522
 31
0.0
  0
LINE
  5
1FD7C
  8
01
 10
622.17191780137023
 20
-506.4213278051065
 30
0.0
 11
624.13425289024565
 21
-505.62133237105547
 31
0.0
  0
LINE
  5
1FD7D
  8
01
 10
624.13425289024565
 20
-505.62133237105547
 30
0.0
 11
623.54597631520323
 21
-505.30956251480342
 31
0.0
  0
LINE
  5
1FD7E
  8
01
 10
621.26628815126321
 20
-528.82132569789655
 30
0.0
 11
625.26628815126321
 21
-528.02133500507819
 31
0.0
  0
LINE
  5
1FD7F
  8
01
 10
621.26628815126321
 20
-517.62132569789219
 30
0.0
 11
625.26628815126321
 21
-516.82133500506961
 31
0.0
  0
LINE
  5
1FD80
  8
01
 10
621.26628815126321
 20
-514.42132569789214
 30
0.0
 11
625.26628815126321
 21
-513.62133500506945
 31
0.0
  0
LINE
  5
1FD81
  8
01
 10
625.26628815126321
 20
-513.62133500506945
 30
0.0
 11
624.7662881512631
 21
-513.52133384167234
 31
0.0
  0
LINE
  5
1FD82
  8
01
 10
621.76628815126321
 20
-512.92132686128934
 30
0.0
 11
621.26628815126321
 21
-512.82132569789212
 31
0.0
  0
LINE
  5
1FD83
  8
01
 10
625.26628815126321
 20
-516.82133500506961
 30
0.0
 11
624.7662881512631
 21
-516.72133384167239
 31
0.0
  0
LINE
  5
1FD84
  8
01
 10
625.26628815126321
 20
-515.22133500506936
 30
0.0
 11
624.7662881512631
 21
-515.12133384167225
 31
0.0
  0
LINE
  5
1FD85
  8
01
 10
621.76628815126321
 20
-514.52132686128925
 30
0.0
 11
621.26628815126321
 21
-514.42132569789214
 31
0.0
  0
LINE
  5
1FD86
  8
01
 10
621.76628815126321
 20
-516.12132686128905
 30
0.0
 11
621.26628815126321
 21
-516.02132569789205
 31
0.0
  0
LINE
  5
1FD87
  8
01
 10
621.26628815126321
 20
-516.02132569789205
 30
0.0
 11
625.26628815126321
 21
-515.22133500506936
 31
0.0
  0
LINE
  5
1FD88
  8
01
 10
624.58706699465245
 20
-507.22133342466122
 30
0.0
 11
624.03531753084906
 21
-507.03856928203322
 31
0.0
  0
LINE
  5
1FD89
  8
01
 10
625.26628815126321
 20
-510.42133500506952
 30
0.0
 11
624.7662881512631
 21
-510.32133384167241
 31
0.0
  0
LINE
  5
1FD8A
  8
01
 10
625.26628815126321
 20
-512.02133500506955
 30
0.0
 11
624.7662881512631
 21
-511.92133384167249
 31
0.0
  0
LINE
  5
1FD8B
  8
01
 10
625.03988109905924
 20
-508.82133447826681
 30
0.0
 11
624.5032873637881
 21
-508.692063780637
 31
0.0
  0
LINE
  5
1FD8C
  8
01
 10
622.18720274847192
 20
-508.13409626385231
 30
0.0
 11
621.71910429332195
 21
-508.02132675150227
 31
0.0
  0
LINE
  5
1FD8D
  8
01
 10
621.76628815126321
 20
-511.32132686128909
 30
0.0
 11
621.26628815126321
 21
-511.2213256978921
 31
0.0
  0
LINE
  5
1FD8E
  8
01
 10
621.76628815126321
 20
-509.72132686128919
 30
0.0
 11
621.26628815126321
 21
-509.62132569789219
 31
0.0
  0
LINE
  5
1FD8F
  8
01
 10
622.6290896420013
 20
-506.57276360154691
 30
0.0
 11
622.17191780137023
 21
-506.4213278051065
 31
0.0
  0
LINE
  5
1FD90
  8
01
 10
621.71910429332195
 20
-508.02132675150227
 30
0.0
 11
624.58706699465245
 21
-507.22133342466122
 31
0.0
  0
LINE
  5
1FD91
  8
01
 10
621.26628815126321
 20
-511.2213256978921
 30
0.0
 11
625.26628815126321
 21
-510.42133500506952
 31
0.0
  0
LINE
  5
1FD92
  8
01
 10
621.26628815126321
 20
-509.62132569789219
 30
0.0
 11
625.03988109905924
 21
-508.82133447826681
 31
0.0
  0
LINE
  5
1FD93
  8
01
 10
621.26628815126321
 20
-512.82132569789212
 30
0.0
 11
625.26628815126321
 21
-512.02133500506955
 31
0.0
  0
LINE
  5
1FD94
  8
01
 10
621.26628815126321
 20
-525.62132569789651
 30
0.0
 11
625.26628815126321
 21
-524.82133500507825
 31
0.0
  0
LINE
  5
1FD95
  8
01
 10
625.26628815126321
 20
-524.82133500507825
 30
0.0
 11
624.7662881512631
 21
-524.72133384168058
 31
0.0
  0
LINE
  5
1FD96
  8
01
 10
621.76628815126321
 20
-524.12132686128984
 30
0.0
 11
621.26628815126321
 21
-524.02132569789205
 31
0.0
  0
LINE
  5
1FD97
  8
01
 10
625.26628815126321
 20
-526.42133500507828
 30
0.0
 11
624.7662881512631
 21
-526.3213338416806
 31
0.0
  0
LINE
  5
1FD98
  8
01
 10
625.26628815126321
 20
-528.02133500507819
 30
0.0
 11
624.7662881512631
 21
-527.92133384168062
 31
0.0
  0
LINE
  5
1FD99
  8
01
 10
621.76628815126321
 20
-525.72132686129407
 30
0.0
 11
621.26628815126321
 21
-525.62132569789651
 31
0.0
  0
LINE
  5
1FD9A
  8
01
 10
621.76628815126321
 20
-527.32132686129432
 30
0.0
 11
621.26628815126321
 21
-527.22132569789665
 31
0.0
  0
LINE
  5
1FD9B
  8
01
 10
621.26628815126321
 20
-527.22132569789665
 30
0.0
 11
625.26628815126321
 21
-526.42133500507828
 31
0.0
  0
LINE
  5
1FD9C
  8
01
 10
625.26628815126321
 20
-520.02133500507375
 30
0.0
 11
624.7662881512631
 21
-519.92133384167607
 31
0.0
  0
LINE
  5
1FD9D
  8
01
 10
625.26628815126321
 20
-518.42133500506952
 30
0.0
 11
624.7662881512631
 21
-518.32133384167241
 31
0.0
  0
LINE
  5
1FD9E
  8
01
 10
625.26628815126321
 20
-523.22133500507391
 30
0.0
 11
624.7662881512631
 21
-523.12133384167623
 31
0.0
  0
LINE
  5
1FD9F
  8
01
 10
625.26628815126321
 20
-521.621335005074
 30
0.0
 11
624.7662881512631
 21
-521.52133384167632
 31
0.0
  0
LINE
  5
1FDA0
  8
01
 10
621.76628815126321
 20
-517.72132686128919
 30
0.0
 11
621.26628815126321
 21
-517.62132569789219
 31
0.0
  0
LINE
  5
1FDA1
  8
01
 10
621.76628815126321
 20
-519.32132686128989
 30
0.0
 11
621.26628815126321
 21
-519.2213256978921
 31
0.0
  0
LINE
  5
1FDA2
  8
01
 10
621.76628815126321
 20
-522.52132686128994
 30
0.0
 11
621.26628815126321
 21
-522.42132569789214
 31
0.0
  0
LINE
  5
1FDA3
  8
01
 10
621.76628815126321
 20
-520.9213268612898
 30
0.0
 11
621.26628815126321
 21
-520.82132569789212
 31
0.0
  0
LINE
  5
1FDA4
  8
01
 10
621.26628815126321
 20
-520.82132569789212
 30
0.0
 11
625.26628815126321
 21
-520.02133500507375
 31
0.0
  0
LINE
  5
1FDA5
  8
01
 10
621.26628815126321
 20
-519.2213256978921
 30
0.0
 11
625.26628815126321
 21
-518.42133500506952
 31
0.0
  0
LINE
  5
1FDA6
  8
01
 10
621.26628815126321
 20
-522.42132569789214
 30
0.0
 11
625.26628815126321
 21
-521.621335005074
 31
0.0
  0
LINE
  5
1FDA7
  8
01
 10
621.26628815126321
 20
-524.02132569789205
 30
0.0
 11
625.26628815126321
 21
-523.22133500507391
 31
0.0
  0
LINE
  5
1FDA8
  8
01
 10
621.76628815126321
 20
-533.72132686129828
 30
0.0
 11
621.26628815126321
 21
-533.6213256979006
 31
0.0
  0
LINE
  5
1FDA9
  8
01
 10
621.26628815126321
 20
-533.6213256979006
 30
0.0
 11
625.26628815126321
 21
-532.82133500508235
 31
0.0
  0
LINE
  5
1FDAA
  8
01
 10
625.26628815126321
 20
-532.82133500508235
 30
0.0
 11
624.7662881512631
 21
-532.72133384168467
 31
0.0
  0
LINE
  5
1FDAB
  8
01
 10
621.76628815126321
 20
-532.12132686129848
 30
0.0
 11
621.26628815126321
 21
-532.02132569790081
 31
0.0
  0
LINE
  5
1FDAC
  8
01
 10
621.76628815126321
 20
-530.52132686129858
 30
0.0
 11
621.26628815126321
 21
-530.4213256979009
 31
0.0
  0
LINE
  5
1FDAD
  8
01
 10
621.26628815126321
 20
-530.4213256979009
 30
0.0
 11
625.26628815126321
 21
-529.62133500508264
 31
0.0
  0
LINE
  5
1FDAE
  8
01
 10
625.26628815126321
 20
-531.22133500508255
 30
0.0
 11
624.7662881512631
 21
-531.12133384168476
 31
0.0
  0
LINE
  5
1FDAF
  8
01
 10
625.26628815126321
 20
-529.62133500508264
 30
0.0
 11
624.7662881512631
 21
-529.52133384168485
 31
0.0
  0
LINE
  5
1FDB0
  8
01
 10
621.26628815126321
 20
-532.02132569790081
 30
0.0
 11
625.26628815126321
 21
-531.22133500508255
 31
0.0
  0
LINE
  5
1FDB1
  8
01
 10
621.76628815126321
 20
-528.92132686129423
 30
0.0
 11
621.26628815126321
 21
-528.82132569789655
 31
0.0
  0
LINE
  5
1FDB2
  8
01
 10
621.76628815126321
 20
-535.32132686129819
 30
0.0
 11
621.26628815126321
 21
-535.22132569790051
 31
0.0
  0
LINE
  5
1FDB3
  8
01
 10
621.26628815126321
 20
-535.22132569790051
 30
0.0
 11
625.26628815126321
 21
-534.42133500508226
 31
0.0
  0
LINE
  5
1FDB4
  8
01
 10
625.26628815126321
 20
-534.42133500508226
 30
0.0
 11
624.7662881512631
 21
-534.32133384168458
 31
0.0
  0
LINE
  5
1FDB5
  8
01
 10
621.76628815126321
 20
-536.9213268612981
 30
0.0
 11
621.26628815126321
 21
-536.82132569790053
 31
0.0
  0
LINE
  5
1FDB6
  8
01
 10
621.26628815126321
 20
-536.82132569790053
 30
0.0
 11
625.26628815126321
 21
-536.02133500508216
 31
0.0
  0
LINE
  5
1FDB7
  8
01
 10
625.26628815126321
 20
-536.02133500508216
 30
0.0
 11
624.7662881512631
 21
-535.9213338416846
 31
0.0
  0
LINE
  5
1FDB8
  8
01
 10
621.76628815126321
 20
-538.52132686129801
 30
0.0
 11
621.26628815126321
 21
-538.42132569790044
 31
0.0
  0
LINE
  5
1FDB9
  8
01
 10
621.26628815126321
 20
-538.42132569790044
 30
0.0
 11
625.26628815126321
 21
-537.62133500508219
 31
0.0
  0
LINE
  5
1FDBA
  8
01
 10
625.26628815126321
 20
-537.62133500508219
 30
0.0
 11
624.7662881512631
 21
-537.52133384168451
 31
0.0
  0
LINE
  5
1FDBB
  8
01
 10
774.5162416152026
 20
-655.82137688716432
 30
0.0
 11
769.21624510534093
 21
-654.32137688716432
 31
0.0
  0
LINE
  5
1FDBC
  8
01
 10
769.21624510534093
 20
-654.32137688716432
 30
0.0
 11
739.51624510544889
 21
-654.32137688716455
 31
0.0
  0
LINE
  5
1FDBD
  8
01
 10
774.5162416152026
 20
-655.82137688716432
 30
0.0
 11
769.21623812495716
 21
-657.32137688716443
 31
0.0
  0
LINE
  5
1FDBE
  8
01
 10
739.51624975914717
 20
-652.3213303512664
 30
0.0
 11
739.51623347158272
 21
-659.3213303512664
 31
0.0
  0
LINE
  5
1FDBF
  8
01
 10
769.21623812495716
 20
-657.32137688716443
 30
0.0
 11
739.51623812506432
 21
-657.32137688716455
 31
0.0
  0
LINE
  5
1FDC0
  8
01
 10
739.51624975914717
 20
-652.3213303512664
 30
0.0
 11
738.41624626895168
 21
-652.3213303512664
 31
0.0
  0
ARC
  5
1FDC1
  8
01
 10
738.41624626895168
 20
-653.82133035126628
 30
0.0
 40
1.5
 50
90.0
 51
179.9998666844684
  0
LINE
  5
1FDC2
  8
01
 10
739.51623347158272
 20
-659.3213303512664
 30
0.0
 11
738.41623696177214
 21
-659.3213303512664
 31
0.0
  0
LINE
  5
1FDC3
  8
01
 10
736.91624626895577
 20
-653.82132686107389
 30
0.0
 11
736.91623696177624
 21
-657.82132686107389
 31
0.0
  0
ARC
  5
1FDC4
  8
01
 10
738.41623696177214
 20
-657.82133035126628
 30
0.0
 40
1.5
 50
179.9998666844684
 51
270.0
  0
LINE
  5
1FDC5
  8
01
 10
775.94703653266799
 20
-655.8213303512664
 30
0.0
 11
735.84596520605601
 21
-655.8213303512664
 31
0.0
  0
LINE
  5
1FDC6
  8
01
 10
772.41624416152479
 20
-654.72700653727134
 30
0.0
 11
773.21623959557564
 21
-656.68934162614676
 31
0.0
  0
LINE
  5
1FDC7
  8
01
 10
773.21623959557564
 20
-656.68934162614676
 30
0.0
 11
773.52800945182776
 21
-656.10106505110434
 31
0.0
  0
LINE
  5
1FDC8
  8
01
 10
750.01624626873479
 20
-653.82137688716432
 30
0.0
 11
750.81623696155305
 21
-657.82137688716432
 31
0.0
  0
LINE
  5
1FDC9
  8
01
 10
761.21624626873916
 20
-653.82137688716432
 30
0.0
 11
762.01623696156173
 21
-657.82137688716432
 31
0.0
  0
LINE
  5
1FDCA
  8
01
 10
764.4162462687392
 20
-653.82137688716432
 30
0.0
 11
765.21623696156166
 21
-657.82137688716432
 31
0.0
  0
LINE
  5
1FDCB
  8
01
 10
765.21623696156166
 20
-657.82137688716432
 30
0.0
 11
765.316238124959
 21
-657.32137688716432
 31
0.0
  0
LINE
  5
1FDCC
  8
01
 10
765.91624510534189
 20
-654.32137688716432
 30
0.0
 11
766.01624626873922
 21
-653.82137688716432
 31
0.0
  0
LINE
  5
1FDCD
  8
01
 10
762.01623696156173
 20
-657.82137688716432
 30
0.0
 11
762.11623812495895
 21
-657.32137688716432
 31
0.0
  0
LINE
  5
1FDCE
  8
01
 10
763.61623696156175
 20
-657.82137688716432
 30
0.0
 11
763.71623812495898
 21
-657.32137688716432
 31
0.0
  0
LINE
  5
1FDCF
  8
01
 10
764.31624510534198
 20
-654.32137688716432
 30
0.0
 11
764.4162462687392
 21
-653.82137688716432
 31
0.0
  0
LINE
  5
1FDD0
  8
01
 10
762.71624510534218
 20
-654.32137688716432
 30
0.0
 11
762.81624626873918
 21
-653.82137688716432
 31
0.0
  0
LINE
  5
1FDD1
  8
01
 10
762.81624626873918
 20
-653.82137688716432
 30
0.0
 11
763.61623696156175
 21
-657.82137688716432
 31
0.0
  0
LINE
  5
1FDD2
  8
01
 10
771.61623854197012
 20
-657.14215573055355
 30
0.0
 11
771.79900268459812
 21
-656.59040626675016
 31
0.0
  0
LINE
  5
1FDD3
  8
01
 10
768.41623696156182
 20
-657.82137688716432
 30
0.0
 11
768.51623812495893
 21
-657.32137688716432
 31
0.0
  0
LINE
  5
1FDD4
  8
01
 10
766.81623696156169
 20
-657.82137688716432
 30
0.0
 11
766.9162381249588
 21
-657.32137688716432
 31
0.0
  0
LINE
  5
1FDD5
  8
01
 10
770.01623748836437
 20
-657.59496983496035
 30
0.0
 11
770.14550818599434
 21
-657.05837609968921
 31
0.0
  0
LINE
  5
1FDD6
  8
01
 10
770.70347570277886
 20
-654.74229148437303
 30
0.0
 11
770.81624521512902
 21
-654.27419302922306
 31
0.0
  0
LINE
  5
1FDD7
  8
01
 10
767.51624510534214
 20
-654.32137688716432
 30
0.0
 11
767.61624626873925
 21
-653.82137688716432
 31
0.0
  0
LINE
  5
1FDD8
  8
01
 10
769.11624510534205
 20
-654.32137688716432
 30
0.0
 11
769.21624626873916
 21
-653.82137688716432
 31
0.0
  0
LINE
  5
1FDD9
  8
01
 10
772.26480836508426
 20
-655.18417837790241
 30
0.0
 11
772.41624416152479
 21
-654.72700653727134
 31
0.0
  0
LINE
  5
1FDDA
  8
01
 10
770.81624521512902
 20
-654.27419302922306
 30
0.0
 11
771.61623854197012
 21
-657.14215573055355
 31
0.0
  0
LINE
  5
1FDDB
  8
01
 10
767.61624626873925
 20
-653.82137688716432
 30
0.0
 11
768.41623696156182
 21
-657.82137688716432
 31
0.0
  0
LINE
  5
1FDDC
  8
01
 10
769.21624626873916
 20
-653.82137688716432
 30
0.0
 11
770.01623748836437
 21
-657.59496983496035
 31
0.0
  0
LINE
  5
1FDDD
  8
01
 10
766.01624626873922
 20
-653.82137688716432
 30
0.0
 11
766.81623696156169
 21
-657.82137688716432
 31
0.0
  0
LINE
  5
1FDDE
  8
01
 10
753.21624626873484
 20
-653.82137688716432
 30
0.0
 11
754.01623696155298
 21
-657.82137688716432
 31
0.0
  0
LINE
  5
1FDDF
  8
01
 10
754.01623696155298
 20
-657.82137688716432
 30
0.0
 11
754.11623812495066
 21
-657.32137688716432
 31
0.0
  0
LINE
  5
1FDE0
  8
01
 10
754.7162451053415
 20
-654.32137688716432
 30
0.0
 11
754.81624626873906
 21
-653.82137688716432
 31
0.0
  0
LINE
  5
1FDE1
  8
01
 10
752.41623696155295
 20
-657.82137688716432
 30
0.0
 11
752.51623812495063
 21
-657.32137688716432
 31
0.0
  0
LINE
  5
1FDE2
  8
01
 10
750.81623696155305
 20
-657.82137688716432
 30
0.0
 11
750.91623812495072
 21
-657.32137688716432
 31
0.0
  0
LINE
  5
1FDE3
  8
01
 10
753.11624510533704
 20
-654.32137688716432
 30
0.0
 11
753.21624626873484
 21
-653.82137688716432
 31
0.0
  0
LINE
  5
1FDE4
  8
01
 10
751.51624510533702
 20
-654.32137688716432
 30
0.0
 11
751.6162462687347
 21
-653.82137688716432
 31
0.0
  0
LINE
  5
1FDE5
  8
01
 10
751.6162462687347
 20
-653.82137688716432
 30
0.0
 11
752.41623696155295
 21
-657.82137688716432
 31
0.0
  0
LINE
  5
1FDE6
  8
01
 10
758.81623696155748
 20
-657.82137688716432
 30
0.0
 11
758.91623812495504
 21
-657.32137688716432
 31
0.0
  0
LINE
  5
1FDE7
  8
01
 10
760.41623696156182
 20
-657.82137688716432
 30
0.0
 11
760.51623812495893
 21
-657.32137688716432
 31
0.0
  0
LINE
  5
1FDE8
  8
01
 10
755.61623696155743
 20
-657.82137688716432
 30
0.0
 11
755.716238124955
 21
-657.32137688716432
 31
0.0
  0
LINE
  5
1FDE9
  8
01
 10
757.21623696155734
 20
-657.82137688716432
 30
0.0
 11
757.31623812495502
 21
-657.32137688716432
 31
0.0
  0
LINE
  5
1FDEA
  8
01
 10
761.11624510534205
 20
-654.32137688716432
 30
0.0
 11
761.21624626873916
 21
-653.82137688716432
 31
0.0
  0
LINE
  5
1FDEB
  8
01
 10
759.51624510534145
 20
-654.32137688716432
 30
0.0
 11
759.61624626873925
 21
-653.82137688716432
 31
0.0
  0
LINE
  5
1FDEC
  8
01
 10
756.31624510534141
 20
-654.32137688716432
 30
0.0
 11
756.41624626873909
 21
-653.82137688716432
 31
0.0
  0
LINE
  5
1FDED
  8
01
 10
757.91624510534155
 20
-654.32137688716432
 30
0.0
 11
758.01624626873922
 21
-653.82137688716432
 31
0.0
  0
LINE
  5
1FDEE
  8
01
 10
758.01624626873922
 20
-653.82137688716432
 30
0.0
 11
758.81623696155748
 21
-657.82137688716432
 31
0.0
  0
LINE
  5
1FDEF
  8
01
 10
759.61624626873925
 20
-653.82137688716432
 30
0.0
 11
760.41623696156182
 21
-657.82137688716432
 31
0.0
  0
LINE
  5
1FDF0
  8
01
 10
756.41624626873909
 20
-653.82137688716432
 30
0.0
 11
757.21623696155734
 21
-657.82137688716432
 31
0.0
  0
LINE
  5
1FDF1
  8
01
 10
754.81624626873906
 20
-653.82137688716432
 30
0.0
 11
755.61623696155743
 21
-657.82137688716432
 31
0.0
  0
LINE
  5
1FDF2
  8
01
 10
745.11624510533295
 20
-654.32137688716432
 30
0.0
 11
745.21624626873063
 21
-653.82137688716432
 31
0.0
  0
LINE
  5
1FDF3
  8
01
 10
745.21624626873063
 20
-653.82137688716432
 30
0.0
 11
746.01623696154877
 21
-657.82137688716432
 31
0.0
  0
LINE
  5
1FDF4
  8
01
 10
746.01623696154877
 20
-657.82137688716432
 30
0.0
 11
746.11623812494645
 21
-657.32137688716432
 31
0.0
  0
LINE
  5
1FDF5
  8
01
 10
746.71624510533275
 20
-654.32137688716432
 30
0.0
 11
746.81624626873054
 21
-653.82137688716432
 31
0.0
  0
LINE
  5
1FDF6
  8
01
 10
748.31624510533277
 20
-654.32137688716432
 30
0.0
 11
748.41624626873045
 21
-653.82137688716432
 31
0.0
  0
LINE
  5
1FDF7
  8
01
 10
748.41624626873045
 20
-653.82137688716432
 30
0.0
 11
749.2162369615487
 21
-657.82137688716432
 31
0.0
  0
LINE
  5
1FDF8
  8
01
 10
747.61623696154868
 20
-657.82137688716432
 30
0.0
 11
747.71623812494636
 21
-657.32137688716432
 31
0.0
  0
LINE
  5
1FDF9
  8
01
 10
749.2162369615487
 20
-657.82137688716432
 30
0.0
 11
749.31623812494627
 21
-657.32137688716432
 31
0.0
  0
LINE
  5
1FDFA
  8
01
 10
746.81624626873054
 20
-653.82137688716432
 30
0.0
 11
747.61623696154868
 21
-657.82137688716432
 31
0.0
  0
LINE
  5
1FDFB
  8
01
 10
749.91624510533711
 20
-654.32137688716432
 30
0.0
 11
750.01624626873479
 21
-653.82137688716432
 31
0.0
  0
LINE
  5
1FDFC
  8
01
 10
743.51624510533304
 20
-654.32137688716432
 30
0.0
 11
743.61624626873072
 21
-653.82137688716432
 31
0.0
  0
LINE
  5
1FDFD
  8
01
 10
743.61624626873072
 20
-653.82137688716432
 30
0.0
 11
744.41623696154886
 21
-657.82137688716432
 31
0.0
  0
LINE
  5
1FDFE
  8
01
 10
744.41623696154886
 20
-657.82137688716432
 30
0.0
 11
744.51623812494665
 21
-657.32137688716432
 31
0.0
  0
LINE
  5
1FDFF
  8
01
 10
741.91624510533313
 20
-654.32137688716432
 30
0.0
 11
742.01624626873081
 21
-653.82137688716432
 31
0.0
  0
LINE
  5
1FE00
  8
01
 10
742.01624626873081
 20
-653.82137688716432
 30
0.0
 11
742.81623696154895
 21
-657.82137688716432
 31
0.0
  0
LINE
  5
1FE01
  8
01
 10
742.81623696154895
 20
-657.82137688716432
 30
0.0
 11
742.91623812494674
 21
-657.32137688716432
 31
0.0
  0
LINE
  5
1FE02
  8
01
 10
740.31624510533322
 20
-654.32137688716432
 30
0.0
 11
740.4162462687309
 21
-653.82137688716432
 31
0.0
  0
LINE
  5
1FE03
  8
01
 10
740.4162462687309
 20
-653.82137688716432
 30
0.0
 11
741.21623696154904
 21
-657.82137688716432
 31
0.0
  0
LINE
  5
1FE04
  8
01
 10
741.21623696154904
 20
-657.82137688716432
 30
0.0
 11
741.31623812494684
 21
-657.32137688716432
 31
0.0
  0
TEXT
  5
1FE05
  8
01
 10
762.88917527135266
 20
-611.3902613041472
 30
0.0
 40
3.5
  1
合板9mm以上
  0
SOLID
  5
1FE06
  8
01
 10
759.54982339992841
 20
-624.85393687781573
 30
0.0
 11
759.06533133823746
 21
-626.8227889680627
 31
0.0
 12
758.88508801597311
 22
-624.80322875457807
 32
0.0
 13
758.88508801597311
 23
-624.80322875457807
 33
0.0
1001
ACAD
1000
DSTYLE
1002
{
1070
    45
1040
0.5
1002
}
  0
TEXT
  5
1FE08
  8
01
 10
749.08709045952082
 20
-611.3902613041472
 30
0.0
 40
3.5
  1
PB
  0
SOLID
  5
1FE09
  8
01
 10
746.41440525476321
 20
-624.85393687781573
 30
0.0
 11
745.92991319307225
 21
-626.8227889680627
 31
0.0
 12
745.74966987080779
 22
-624.80322875457807
 32
0.0
 13
745.74966987080779
 23
-624.80322875457807
 33
0.0
1001
ACAD
1000
DSTYLE
1002
{
1070
    45
1040
0.5
1002
}
  0
LINE
  5
1FE0B
  8
01
 10
643.01624161536529
 20
-535.8213303512664
 30
0.0
 11
643.01624161536529
 21
-499.82133035126628
 31
0.0
  0
LINE
  5
1FE0C
  8
01
 10
603.51624161536529
 20
-535.8213303512664
 30
0.0
 11
603.51624161536529
 21
-499.82133035126628
 31
0.0
  0
LINE
  5
1FE0D
  8
01
 10
641.01624161536529
 20
-500.8213303512664
 30
0.0
 11
605.51624161536529
 21
-500.8213303512664
 31
0.0
  0
LINE
  5
1FE11
  8
01
 10
743.01624161536495
 20
-675.3213303512664
 30
0.0
 11
795.51624161536495
 21
-675.32133035126651
 31
0.0
  0
LINE
  5
1FE12
  8
01
 10
743.01624161536495
 20
-635.82133035126617
 30
0.0
 11
795.51624161536495
 21
-635.82133035126628
 31
0.0
  0
LINE
  5
1FE13
  8
01
 10
794.51624161536495
 20
-673.3213303512664
 30
0.0
 11
794.51624161536495
 21
-637.82133035126617
 31
0.0
  0
LINE
  5
1FE17
  8
01
 10
153.51624161536529
 20
-673.3213303512664
 30
0.0
 11
153.51624161536529
 21
-734.17133035507504
 31
0.0
  0
LINE
  5
1FE18
  8
01
 10
643.01624161536529
 20
-655.57133035507377
 30
0.0
 11
643.01624161536529
 21
-734.17133035507504
 31
0.0
  0
LINE
  5
1FE19
  8
01
 10
159.51624161536529
 20
-731.17133035507504
 30
0.0
 11
637.01624161536529
 21
-731.17133035507504
 31
0.0
  0
LINE
  5
1FE1D
  8
01
 10
775.94703653266799
 20
-655.8213303512664
 30
0.0
 11
785.51624161536495
 21
-655.8213303512664
 31
0.0
  0
LINE
  5
1FE1E
  8
01
 10
743.01624161536495
 20
-635.82133035126617
 30
0.0
 11
785.51624161536495
 21
-635.82133035126628
 31
0.0
  0
LINE
  5
1FE1F
  8
01
 10
784.51624161536495
 20
-653.82133035126628
 30
0.0
 11
784.51624161536495
 21
-637.82133035126617
 31
0.0
  0
LINE
  5
1FE23
  8
01
 10
743.01624161536495
 20
-693.04950393654815
 30
0.0
 11
743.01624161536495
 21
-702.42133035126756
 31
0.0
  0
LINE
  5
1FE24
  8
01
 10
725.01624161536495
 20
-664.92459288356622
 30
0.0
 11
725.01624161536495
 21
-702.42133035126756
 31
0.0
  0
LINE
  5
1FE25
  8
01
 10
741.01624161536495
 20
-701.42133035126767
 30
0.0
 11
727.01624161536495
 21
-701.42133035126767
 31
0.0
  0
LINE
  5
1FE29
  8
01
 10
693.76624161536495
 20
-655.57133035126628
 30
0.0
 11
693.76624161536495
 21
-712.42133035126756
 31
0.0
  0
LINE
  5
1FE2A
  8
01
 10
743.01624161536495
 20
-693.04950393654815
 30
0.0
 11
743.01624161536495
 21
-712.42133035126756
 31
0.0
  0
LINE
  5
1FE2B
  8
01
 10
695.76624161536495
 20
-711.42133035126756
 30
0.0
 11
741.01624161536495
 21
-711.42133035126756
 31
0.0
  0
TEXT
  5
1FE2F
  8
01
 10
541.53574970770876
 20
-676.58462754401444
 30
0.0
 40
3.5
  1
材質：亜鉛ダイキャスト
  0
TEXT
  5
1FE30
  8
01
 10
554.13574970770867
 20
-682.4179608773477
 30
0.0
 40
3.5
  1
仕上げ：クローム
  0
SOLID
  5
1FE31
  8
01
 10
607.00511048422925
 20
-672.14265433176342
 30
0.0
 11
608.88896208909455
 21
-671.39284486132556
 31
0.0
 12
607.35012175058034
 22
-672.71310298899334
 32
0.0
 13
607.35012175058034
 23
-672.71310298899334
 33
0.0
1001
ACAD
1000
DSTYLE
1002
{
1070
    45
1040
0.5
1002
}
  0
TEXT
  5
1FE33
  8
01
 10
592.27255334308438
 20
-615.43582720008555
 30
0.0
 40
3.5
  1
材質：ステンレス
  0
TEXT
  5
1FE34
  8
01
 10
592.27255334308438
 20
-621.26916053341893
 30
0.0
 40
3.5
  1
仕上げ：鏡面
  0
SOLID
  5
1FE35
  8
01
 10
586.49015971614074
 20
-652.50419073448495
 30
0.0
 11
585.93642284833504
 21
-654.45470005062373
 31
0.0
 12
585.8276303775117
 22
-652.43003333498802
 32
0.0
 13
585.8276303775117
 23
-652.43003333498802
 33
0.0
1001
ACAD
1000
DSTYLE
1002
{
1070
    45
1040
0.5
1002
}
  0
LINE
  5
1FE37
  8
01
 10
544.68068276584472
 20
-661.57133034745846
 30
0.0
 11
554.4958307863252
 21
-661.57133034745846
 31
0.0
  0
LINE
  5
1FE38
  8
01
 10
544.68068276584472
 20
-649.57133034745846
 30
0.0
 11
554.4958307863252
 21
-649.57133034745846
 31
0.0
  0
LINE
  5
1FE39
  8
01
 10
553.49583078632509
 20
-659.57133034745846
 30
0.0
 11
553.49583078632509
 21
-651.57133034745846
 31
0.0
  0
LINE
  5
1FE3A
  8
01
 10
553.49583078632509
 20
-649.57133034745846
 30
0.0
 11
553.49583078632509
 21
-636.50466368079174
 31
0.0
  0
LINE
  5
1FE3E
  8
01
 10
173.26624161536529
 20
-661.26222686959557
 30
0.0
 11
173.26624161536529
 21
-704.17133035507504
 31
0.0
  0
LINE
  5
1FE3F
  8
01
 10
623.26624161536529
 20
-661.26222687721122
 30
0.0
 11
623.26624161536529
 21
-704.17133035507504
 31
0.0
  0
LINE
  5
1FE40
  8
01
 10
179.26624161536529
 20
-701.17133035507504
 30
0.0
 11
617.26624161536517
 21
-701.17133035507504
 31
0.0
  0
TEXT
  5
1FE44
  8
01
 10
377.76624161536529
 20
-699.07133035507502
 30
0.0
 40
10.5
  1
P450
  0
LINE
  5
1FE45
  8
01
  6
BYBLOCK
 10
617.26624161536517
 20
-699.56363521507501
 30
0.0
 11
623.26624161536529
 21
-701.17133035507504
 31
0.0
  0
LINE
  5
1FE46
  8
01
  6
BYBLOCK
 10
623.26624161536529
 20
-701.17133035507504
 30
0.0
 11
617.26624161536517
 21
-702.77902549507496
 31
0.0
  0
LINE
  5
1FE47
  8
01
  6
BYBLOCK
 10
623.26624161536529
 20
-701.17133035507504
 30
0.0
 11
617.26624161536517
 21
-701.17133035507504
 31
0.0
  0
LINE
  5
1FE48
  8
01
  6
BYBLOCK
 10
179.26624161536529
 20
-702.77902549507496
 30
0.0
 11
173.26624161536529
 21
-701.17133035507504
 31
0.0
  0
LINE
  5
1FE49
  8
01
  6
BYBLOCK
 10
173.26624161536529
 20
-701.17133035507504
 30
0.0
 11
179.26624161536529
 21
-699.56363521507501
 31
0.0
  0
LINE
  5
1FE4A
  8
01
  6
BYBLOCK
 10
173.26624161536529
 20
-701.17133035507504
 30
0.0
 11
179.26624161536529
 21
-701.17133035507504
 31
0.0
  0
TEXT
  5
1FE4B
  8
01
 10
552.79583078632527
 20
-647.57133034745846
 30
0.0
 40
3.5
  1
\U+03C612
 50
90.0
  0
LINE
  5
1FE4C
  8
01
  6
BYBLOCK
 10
552.95993240632515
 20
-651.57133034745846
 30
0.0
 11
553.49583078632509
 21
-649.57133034745846
 31
0.0
  0
LINE
  5
1FE4D
  8
01
  6
BYBLOCK
 10
553.49583078632509
 20
-649.57133034745846
 30
0.0
 11
554.03172916632525
 21
-651.57133034745846
 31
0.0
  0
LINE
  5
1FE4E
  8
01
  6
BYBLOCK
 10
553.49583078632509
 20
-649.57133034745846
 30
0.0
 11
553.49583078632509
 21
-651.57133034745846
 31
0.0
  0
LINE
  5
1FE4F
  8
01
  6
BYBLOCK
 10
554.03172916632525
 20
-659.57133034745846
 30
0.0
 11
553.49583078632509
 21
-661.57133034745846
 31
0.0
  0
LINE
  5
1FE50
  8
01
  6
BYBLOCK
 10
553.49583078632509
 20
-661.57133034745846
 30
0.0
 11
552.95993240632515
 21
-659.57133034745846
 31
0.0
  0
LINE
  5
1FE51
  8
01
  6
BYBLOCK
 10
553.49583078632509
 20
-661.57133034745846
 30
0.0
 11
553.49583078632509
 21
-659.57133034745846
 31
0.0
  0
LINE
  5
1FE52
  8
01
 10
586.15889504682616
 20
-652.46711203473637
 30
0.0
 11
589.57255334308434
 21
-621.96916053341886
 31
0.0
1001
ACAD
1000
DSTYLE
1002
{
1070
    45
1040
0.5
1002
}
  0
LINE
  5
1FE53
  8
01
 10
589.57255334308434
 20
-621.96916053341886
 30
0.0
 11
592.27255334308438
 21
-621.96916053341886
 31
0.0
1001
ACAD
1000
DSTYLE
1002
{
1070
    45
1040
0.5
1002
}
  0
LINE
  5
1FE54
  8
01
 10
607.1776161174048
 20
-672.42787866037827
 30
0.0
 11
589.50241637437534
 21
-683.11796087734785
 31
0.0
1001
ACAD
1000
DSTYLE
1002
{
1070
    45
1040
0.5
1002
}
  0
LINE
  5
1FE55
  8
01
 10
589.50241637437534
 20
-683.11796087734785
 30
0.0
 11
586.8024163743753
 21
-683.11796087734785
 31
0.0
1001
ACAD
1000
DSTYLE
1002
{
1070
    45
1040
0.5
1002
}
  0
TEXT
  5
1FE56
  8
01
 10
715.14124161536495
 20
-710.72133035126762
 30
0.0
 40
3.5
  1
49
  0
LINE
  5
1FE57
  8
01
  6
BYBLOCK
 10
741.01624161536495
 20
-710.88543197126762
 30
0.0
 11
743.01624161536495
 21
-711.42133035126756
 31
0.0
  0
LINE
  5
1FE58
  8
01
  6
BYBLOCK
 10
743.01624161536495
 20
-711.42133035126756
 30
0.0
 11
741.01624161536495
 21
-711.95722873126772
 31
0.0
  0
LINE
  5
1FE59
  8
01
  6
BYBLOCK
 10
743.01624161536495
 20
-711.42133035126756
 30
0.0
 11
741.01624161536495
 21
-711.42133035126756
 31
0.0
  0
LINE
  5
1FE5A
  8
01
  6
BYBLOCK
 10
695.76624161536495
 20
-711.95722873126772
 30
0.0
 11
693.76624161536495
 21
-711.42133035126756
 31
0.0
  0
LINE
  5
1FE5B
  8
01
  6
BYBLOCK
 10
693.76624161536495
 20
-711.42133035126756
 30
0.0
 11
695.76624161536495
 21
-710.88543197126762
 31
0.0
  0
LINE
  5
1FE5C
  8
01
  6
BYBLOCK
 10
693.76624161536495
 20
-711.42133035126756
 30
0.0
 11
695.76624161536495
 21
-711.42133035126756
 31
0.0
  0
TEXT
  5
1FE5D
  8
01
 10
730.43290828203158
 20
-700.72133035126762
 30
0.0
 40
3.5
  1
18
  0
LINE
  5
1FE5E
  8
01
  6
BYBLOCK
 10
727.01624161536495
 20
-701.95722873126761
 30
0.0
 11
725.01624161536495
 21
-701.42133035126767
 31
0.0
  0
LINE
  5
1FE5F
  8
01
  6
BYBLOCK
 10
725.01624161536495
 20
-701.42133035126767
 30
0.0
 11
727.01624161536495
 21
-700.88543197126762
 31
0.0
  0
LINE
  5
1FE60
  8
01
  6
BYBLOCK
 10
725.01624161536495
 20
-701.42133035126767
 30
0.0
 11
727.01624161536495
 21
-701.42133035126767
 31
0.0
  0
LINE
  5
1FE61
  8
01
  6
BYBLOCK
 10
741.01624161536495
 20
-700.88543197126762
 30
0.0
 11
743.01624161536495
 21
-701.42133035126767
 31
0.0
  0
LINE
  5
1FE62
  8
01
  6
BYBLOCK
 10
743.01624161536495
 20
-701.42133035126767
 30
0.0
 11
741.01624161536495
 21
-701.95722873126761
 31
0.0
  0
LINE
  5
1FE63
  8
01
  6
BYBLOCK
 10
743.01624161536495
 20
-701.42133035126767
 30
0.0
 11
741.01624161536495
 21
-701.42133035126767
 31
0.0
  0
TEXT
  5
1FE64
  8
01
 10
783.81624161536502
 20
-649.15466368459954
 30
0.0
 40
3.5
  1
20
 50
90.0
  0
LINE
  5
1FE65
  8
01
  6
BYBLOCK
 10
783.98034323536478
 20
-637.82133035126617
 30
0.0
 11
784.51624161536495
 21
-635.82133035126628
 31
0.0
  0
LINE
  5
1FE66
  8
01
  6
BYBLOCK
 10
784.51624161536495
 20
-635.82133035126628
 30
0.0
 11
785.052139995365
 21
-637.82133035126617
 31
0.0
  0
LINE
  5
1FE67
  8
01
  6
BYBLOCK
 10
784.51624161536495
 20
-635.82133035126628
 30
0.0
 11
784.51624161536495
 21
-637.82133035126617
 31
0.0
  0
LINE
  5
1FE68
  8
01
  6
BYBLOCK
 10
785.052139995365
 20
-653.82133035126628
 30
0.0
 11
784.51624161536495
 21
-655.8213303512664
 31
0.0
  0
LINE
  5
1FE69
  8
01
  6
BYBLOCK
 10
784.51624161536495
 20
-655.8213303512664
 30
0.0
 11
783.98034323536478
 21
-653.82133035126628
 31
0.0
  0
LINE
  5
1FE6A
  8
01
  6
BYBLOCK
 10
784.51624161536495
 20
-655.8213303512664
 30
0.0
 11
784.51624161536495
 21
-653.82133035126628
 31
0.0
  0
TEXT
  5
1FE6B
  8
01
 10
375.76624161536529
 20
-729.07133035507502
 30
0.0
 40
10.5
  1
489.5
  0
LINE
  5
1FE6C
  8
01
  6
BYBLOCK
 10
637.01624161536529
 20
-729.56363521507501
 30
0.0
 11
643.01624161536529
 21
-731.17133035507504
 31
0.0
  0
LINE
  5
1FE6D
  8
01
  6
BYBLOCK
 10
643.01624161536529
 20
-731.17133035507504
 30
0.0
 11
637.01624161536529
 21
-732.77902549507496
 31
0.0
  0
LINE
  5
1FE6E
  8
01
  6
BYBLOCK
 10
643.01624161536529
 20
-731.17133035507504
 30
0.0
 11
637.01624161536529
 21
-731.17133035507504
 31
0.0
  0
LINE
  5
1FE6F
  8
01
  6
BYBLOCK
 10
159.51624161536529
 20
-732.77902549507496
 30
0.0
 11
153.51624161536529
 21
-731.17133035507504
 31
0.0
  0
LINE
  5
1FE70
  8
01
  6
BYBLOCK
 10
153.51624161536529
 20
-731.17133035507504
 30
0.0
 11
159.51624161536529
 21
-729.56363521507501
 31
0.0
  0
LINE
  5
1FE71
  8
01
  6
BYBLOCK
 10
153.51624161536529
 20
-731.17133035507504
 30
0.0
 11
159.51624161536529
 21
-731.17133035507504
 31
0.0
  0
TEXT
  5
1FE72
  8
01
 10
793.81624161536502
 20
-661.40466368459954
 30
0.0
 40
3.5
  1
39.5
 50
90.0
  0
LINE
  5
1FE73
  8
01
  6
BYBLOCK
 10
793.9803432353649
 20
-637.82133035126617
 30
0.0
 11
794.51624161536495
 21
-635.82133035126628
 31
0.0
  0
LINE
  5
1FE74
  8
01
  6
BYBLOCK
 10
794.51624161536495
 20
-635.82133035126628
 30
0.0
 11
795.05213999536488
 21
-637.82133035126617
 31
0.0
  0
LINE
  5
1FE75
  8
01
  6
BYBLOCK
 10
794.51624161536495
 20
-635.82133035126628
 30
0.0
 11
794.51624161536495
 21
-637.82133035126617
 31
0.0
  0
LINE
  5
1FE76
  8
01
  6
BYBLOCK
 10
795.05213999536488
 20
-673.3213303512664
 30
0.0
 11
794.51624161536495
 21
-675.32133035126651
 31
0.0
  0
LINE
  5
1FE77
  8
01
  6
BYBLOCK
 10
794.51624161536495
 20
-675.32133035126651
 30
0.0
 11
793.9803432353649
 21
-673.3213303512664
 31
0.0
  0
LINE
  5
1FE78
  8
01
  6
BYBLOCK
 10
794.51624161536495
 20
-675.32133035126651
 30
0.0
 11
794.51624161536495
 21
-673.3213303512664
 31
0.0
  0
TEXT
  5
1FE79
  8
01
 10
617.43290828203192
 20
-500.12133035126629
 30
0.0
 40
3.5
  1
39.5
  0
LINE
  5
1FE7A
  8
01
  6
BYBLOCK
 10
605.51624161536529
 20
-501.35722873126639
 30
0.0
 11
603.51624161536529
 21
-500.8213303512664
 31
0.0
  0
LINE
  5
1FE7B
  8
01
  6
BYBLOCK
 10
603.51624161536529
 20
-500.8213303512664
 30
0.0
 11
605.51624161536529
 21
-500.28543197126641
 31
0.0
  0
LINE
  5
1FE7C
  8
01
  6
BYBLOCK
 10
603.51624161536529
 20
-500.8213303512664
 30
0.0
 11
605.51624161536529
 21
-500.8213303512664
 31
0.0
  0
LINE
  5
1FE7D
  8
01
  6
BYBLOCK
 10
641.01624161536529
 20
-500.28543197126641
 30
0.0
 11
643.01624161536529
 21
-500.8213303512664
 31
0.0
  0
LINE
  5
1FE7E
  8
01
  6
BYBLOCK
 10
643.01624161536529
 20
-500.8213303512664
 30
0.0
 11
641.01624161536529
 21
-501.35722873126639
 31
0.0
  0
LINE
  5
1FE7F
  8
01
  6
BYBLOCK
 10
643.01624161536529
 20
-500.8213303512664
 30
0.0
 11
641.01624161536529
 21
-500.8213303512664
 31
0.0
  0
LINE
  5
1FE80
  8
01
 10
746.08203756278544
 20
-624.8285828161969
 30
0.0
 11
747.05375712618741
 21
-612.09026130414725
 31
0.0
1001
ACAD
1000
DSTYLE
1002
{
1070
    45
1040
0.5
1002
}
  0
LINE
  5
1FE81
  8
01
 10
747.05375712618741
 20
-612.09026130414725
 30
0.0
 11
749.75375712618745
 21
-612.09026130414725
 31
0.0
1001
ACAD
1000
DSTYLE
1002
{
1070
    45
1040
0.5
1002
}
  0
LINE
  5
1FE82
  8
01
 10
759.21745570795065
 20
-624.8285828161969
 30
0.0
 11
760.18917527135261
 21
-612.09026130414725
 31
0.0
1001
ACAD
1000
DSTYLE
1002
{
1070
    45
1040
0.5
1002
}
  0
LINE
  5
1FE83
  8
01
 10
760.18917527135261
 20
-612.09026130414725
 30
0.0
 11
762.88917527135266
 21
-612.09026130414725
 31
0.0
1001
ACAD
1000
DSTYLE
1002
{
1070
    45
1040
0.5
1002
}
  0
LINE
  5
1FE84
  8
01
 10
729.01618542434005
 20
-662.52143961614979
 30
0.0
 11
721.01618542451354
 21
-662.52138374905076
 31
0.0
  0
LINE
  5
1FE85
  8
01
 10
729.01618821739476
 20
-662.22143961616212
 30
0.0
 11
729.01618542434005
 21
-662.52143961614979
 31
0.0
  0
LINE
  5
1FE86
  8
01
 10
721.01618821756813
 20
-662.22138374906297
 30
0.0
 11
721.01618542451354
 21
-662.52138374905076
 31
0.0
  0
LINE
  5
1FE87
  8
01
 10
729.01618821739476
 20
-662.22143961616212
 30
0.0
 11
727.01620683771603
 21
-660.22143495660487
 31
0.0
  0
LINE
  5
1FE88
  8
01
 10
721.01618821756813
 20
-662.22138374906297
 30
0.0
 11
723.01620683806254
 21
-660.22137910142999
 31
0.0
  0
LINE
  5
1FE89
  8
01
 10
727.01641546333474
 20
-652.8714256502858
 30
0.0
 11
727.01620683771603
 21
-660.22143495660487
 31
0.0
  0
LINE
  5
1FE8A
  8
01
 10
723.01641546342205
 20
-652.87139771673628
 30
0.0
 11
723.01620683806254
 21
-660.22137910142999
 31
0.0
  0
LINE
  5
1FE8B
  8
01
 10
726.66641813390845
 20
-652.52142320611051
 30
0.0
 11
727.01641546333474
 21
-652.8714256502858
 31
0.0
  0
LINE
  5
1FE8C
  8
01
 10
723.36641813397819
 20
-652.52140016093222
 30
0.0
 11
723.01641546342205
 21
-652.87139771673628
 31
0.0
  0
LINE
  5
1FE8D
  8
01
 10
726.66641813390845
 20
-652.52142320611051
 30
0.0
 11
723.36641813397819
 21
-652.52140016093222
 31
0.0
  0
VIEWPORT
  5
57
 67
     1
  8
0
 10
-8.548023256030433
 20
10.09248672500371
 30
0.0
 40
615.34704513542476
 41
282.92625121457638
 68
     1
 69
     1
1001
ACAD
1000
MVIEW
1002
{
1070
    16
1010
0.0
1020
0.0
1030
0.0
1010
0.0
1020
0.0
1030
1.0
1040
0.0
1040
282.92625121457638
1040
-8.548023256030433
1040
10.09248672500371
1040
50.0
1040
0.0
1040
0.0
1070
     0
1070
   100
1070
     1
1070
     1
1070
     0
1070
     0
1070
     0
1070
     0
1040
0.0
1040
0.0
1040
0.0
1040
10.0
1040
10.0
1040
10.0
1040
10.0
1070
     0
1002
{
1002
}
1002
}
  0
ENDSEC
  0
EOF
