  0
SECTION
  2
HEADER
  9
$ACADVER
  1
AC1015
  9
$ACADMAINTVER
 70
    20
  9
$DWGCODEPAGE
  3
ANSI_932
  9
$INSBASE
 10
0.0
 20
0.0
 30
0.0
  9
$EXTMIN
 10
-23.98375838463835
 20
-746.8213303512664
 30
-0.0000002533110767
  9
$EXTMAX
 10
805.5162416153649
 20
-460.0254414909761
 30
0.0000005066221534
  9
$LIMMIN
 10
0.0
 20
0.0
  9
$LIMMAX
 10
420.0
 20
297.0
  9
$ORTHOMODE
 70
     0
  9
$REGENMODE
 70
     1
  9
$FILLMODE
 70
     1
  9
$QTEXTMODE
 70
     0
  9
$MIRRTEXT
 70
     0
  9
$LTSCALE
 40
0.5
  9
$ATTMODE
 70
     1
  9
$TEXTSIZE
 40
4.0
  9
$TRACEWID
 40
1.0
  9
$TEXTSTYLE
  7
STANDARD
  9
$CLAYER
  8
1TEXT
  9
$CELTYPE
  6
BYLAYER
  9
$CECOLOR
 62
   256
  9
$CELTSCALE
 40
1.0
  9
$DISPSILH
 70
     0
  9
$DIMSCALE
 40
1.0
  9
$DIMASZ
 40
2.0
  9
$DIMEXO
 40
0.0
  9
$DIMDLI
 40
7.0
  9
$DIMRND
 40
0.0
  9
$DIMDLE
 40
0.0
  9
$DIMEXE
 40
1.0
  9
$DIMTP
 40
0.0
  9
$DIMTM
 40
0.0
  9
$DIMTXT
 40
3.5
  9
$DIMCEN
 40
0.0
  9
$DIMTSZ
 40
0.0
  9
$DIMTOL
 70
     0
  9
$DIMLIM
 70
     0
  9
$DIMTIH
 70
     0
  9
$DIMTOH
 70
     0
  9
$DIMSE1
 70
     0
  9
$DIMSE2
 70
     0
  9
$DIMTAD
 70
     1
  9
$DIMZIN
 70
     8
  9
$DIMBLK
  1

  9
$DIMASO
 70
     1
  9
$DIMSHO
 70
     1
  9
$DIMPOST
  1
 
  9
$DIMAPOST
  1

  9
$DIMALT
 70
     0
  9
$DIMALTD
 70
     2
  9
$DIMALTF
 40
25.4
  9
$DIMLFAC
 40
1.0
  9
$DIMTOFL
 70
     1
  9
$DIMTVP
 40
0.0
  9
$DIMTIX
 70
     0
  9
$DIMSOXD
 70
     0
  9
$DIMSAH
 70
     1
  9
$DIMBLK1
  1
OPEN30
  9
$DIMBLK2
  1
OPEN30
  9
$DIMSTYLE
  2
NEWX10
  9
$DIMCLRD
 70
   256
  9
$DIMCLRE
 70
   256
  9
$DIMCLRT
 70
   201
  9
$DIMTFAC
 40
0.7
  9
$DIMGAP
 40
0.7
  9
$DIMJUST
 70
     0
  9
$DIMSD1
 70
     0
  9
$DIMSD2
 70
     0
  9
$DIMTOLJ
 70
     1
  9
$DIMTZIN
 70
     8
  9
$DIMALTZ
 70
     0
  9
$DIMALTTZ
 70
     0
  9
$DIMUPT
 70
     0
  9
$DIMDEC
 70
     2
  9
$DIMTDEC
 70
     4
  9
$DIMALTU
 70
     2
  9
$DIMALTTD
 70
     2
  9
$DIMTXSTY
  7
STANDARD
  9
$DIMAUNIT
 70
     0
  9
$DIMADEC
 70
     2
  9
$DIMALTRND
 40
0.0
  9
$DIMAZIN
 70
     2
  9
$DIMDSEP
 70
    46
  9
$DIMATFIT
 70
     2
  9
$DIMFRAC
 70
     0
  9
$DIMLDRBLK
  1

  9
$DIMLUNIT
 70
     2
  9
$DIMLWD
 70
    -2
  9
$DIMLWE
 70
    -2
  9
$DIMTMOVE
 70
     0
  9
$LUNITS
 70
     2
  9
$LUPREC
 70
     4
  9
$SKETCHINC
 40
1.0
  9
$FILLETRAD
 40
0.0
  9
$AUNITS
 70
     0
  9
$AUPREC
 70
     2
  9
$MENU
  1
acad
  9
$ELEVATION
 40
0.0
  9
$PELEVATION
 40
0.0
  9
$THICKNESS
 40
0.0
  9
$LIMCHECK
 70
     0
  9
$CHAMFERA
 40
1.0
  9
$CHAMFERB
 40
1.0
  9
$CHAMFERC
 40
20.0
  9
$CHAMFERD
 40
0.0
  9
$SKPOLY
 70
     0
  9
$TDCREATE
 40
2453033.732663484
  9
$TDUCREATE
 40
2453033.357663484
  9
$TDUPDATE
 40
2457486.590542709
  9
$TDUUPDATE
 40
2457486.215542709
  9
$TDINDWG
 40
2.4149458333
  9
$TDUSRTIMER
 40
2.4149458333
  9
$USRTIMER
 70
     1
  9
$ANGBASE
 50
0.0
  9
$ANGDIR
 70
     0
  9
$PDMODE
 70
     0
  9
$PDSIZE
 40
0.0
  9
$PLINEWID
 40
0.0
  9
$SPLFRAME
 70
     0
  9
$SPLINETYPE
 70
     6
  9
$SPLINESEGS
 70
     8
  9
$HANDSEED
  5
2167D
  9
$SURFTAB1
 70
     6
  9
$SURFTAB2
 70
     6
  9
$SURFTYPE
 70
     6
  9
$SURFU
 70
     6
  9
$SURFV
 70
     6
  9
$UCSBASE
  2

  9
$UCSNAME
  2

  9
$UCSORG
 10
0.0
 20
0.0
 30
0.0
  9
$UCSXDIR
 10
1.0
 20
0.0
 30
0.0
  9
$UCSYDIR
 10
0.0
 20
1.0
 30
0.0
  9
$UCSORTHOREF
  2

  9
$UCSORTHOVIEW
 70
     0
  9
$UCSORGTOP
 10
0.0
 20
0.0
 30
0.0
  9
$UCSORGBOTTOM
 10
0.0
 20
0.0
 30
0.0
  9
$UCSORGLEFT
 10
0.0
 20
0.0
 30
0.0
  9
$UCSORGRIGHT
 10
0.0
 20
0.0
 30
0.0
  9
$UCSORGFRONT
 10
0.0
 20
0.0
 30
0.0
  9
$UCSORGBACK
 10
0.0
 20
0.0
 30
0.0
  9
$PUCSBASE
  2

  9
$PUCSNAME
  2

  9
$PUCSORG
 10
0.0
 20
0.0
 30
0.0
  9
$PUCSXDIR
 10
1.0
 20
0.0
 30
0.0
  9
$PUCSYDIR
 10
0.0
 20
1.0
 30
0.0
  9
$PUCSORTHOREF
  2

  9
$PUCSORTHOVIEW
 70
     0
  9
$PUCSORGTOP
 10
0.0
 20
0.0
 30
0.0
  9
$PUCSORGBOTTOM
 10
0.0
 20
0.0
 30
0.0
  9
$PUCSORGLEFT
 10
0.0
 20
0.0
 30
0.0
  9
$PUCSORGRIGHT
 10
0.0
 20
0.0
 30
0.0
  9
$PUCSORGFRONT
 10
0.0
 20
0.0
 30
0.0
  9
$PUCSORGBACK
 10
0.0
 20
0.0
 30
0.0
  9
$USERI1
 70
     0
  9
$USERI2
 70
     0
  9
$USERI3
 70
     0
  9
$USERI4
 70
     0
  9
$USERI5
 70
     0
  9
$USERR1
 40
0.0
  9
$USERR2
 40
0.0
  9
$USERR3
 40
0.0
  9
$USERR4
 40
0.0
  9
$USERR5
 40
0.0
  9
$WORLDVIEW
 70
     1
  9
$SHADEDGE
 70
     3
  9
$SHADEDIF
 70
    70
  9
$TILEMODE
 70
     1
  9
$MAXACTVP
 70
    48
  9
$PINSBASE
 10
0.0
 20
0.0
 30
0.0
  9
$PLIMCHECK
 70
     0
  9
$PEXTMIN
 10
1.000000000000000E+20
 20
1.000000000000000E+20
 30
1.000000000000000E+20
  9
$PEXTMAX
 10
-1.000000000000000E+20
 20
-1.000000000000000E+20
 30
-1.000000000000000E+20
  9
$PLIMMIN
 10
0.0
 20
0.0
  9
$PLIMMAX
 10
420.0
 20
297.0
  9
$UNITMODE
 70
     0
  9
$VISRETAIN
 70
     1
  9
$PLINEGEN
 70
     0
  9
$PSLTSCALE
 70
     1
  9
$TREEDEPTH
 70
  3020
  9
$CMLSTYLE
  2
STANDARD
  9
$CMLJUST
 70
     0
  9
$CMLSCALE
 40
20.0
  9
$PROXYGRAPHICS
 70
     1
  9
$MEASUREMENT
 70
     1
  9
$CELWEIGHT
370
    -1
  9
$ENDCAPS
280
     0
  9
$JOINSTYLE
280
     0
  9
$LWDISPLAY
290
     0
  9
$INSUNITS
 70
     0
  9
$HYPERLINKBASE
  1

  9
$STYLESHEET
  1

  9
$XEDIT
290
     1
  9
$CEPSNTYPE
380
     0
  9
$PSTYLEMODE
290
     1
  9
$FINGERPRINTGUID
  2
{7FF825AD-D9F8-4ECB-8BCF-6AF9BEBE9593}
  9
$VERSIONGUID
  2
{7A86B80E-C0EA-4067-86B0-206C97936497}
  9
$EXTNAMES
290
     1
  9
$PSVPSCALE
 40
0.0
  9
$OLESTARTUP
290
     0
  0
ENDSEC
  0
SECTION
  2
CLASSES
  0
CLASS
  1
DICTIONARYVAR
  2
AcDbDictionaryVar
  3
ObjectDBX Classes
 90
        0
280
     0
281
     0
  0
CLASS
  1
IDBUFFER
  2
AcDbIdBuffer
  3
ObjectDBX Classes
 90
    32768
280
     0
281
     0
  0
CLASS
  1
ACDBDICTIONARYWDFLT
  2
AcDbDictionaryWithDefault
  3
ObjectDBX Classes
 90
        0
280
     0
281
     0
  0
CLASS
  1
ACDBPLACEHOLDER
  2
AcDbPlaceHolder
  3
ObjectDBX Classes
 90
        0
280
     0
281
     0
  0
CLASS
  1
LAYOUT
  2
AcDbLayout
  3
ObjectDBX Classes
 90
        0
280
     0
281
     0
  0
CLASS
  1
TABLESTYLE
  2
AcDbTableStyle
  3
ObjectDBX Classes
 90
     4095
280
     0
281
     0
  0
CLASS
  1
SORTENTSTABLE
  2
AcDbSortentsTable
  3
ObjectDBX Classes
 90
        0
280
     0
281
     0
  0
CLASS
  1
DIMASSOC
  2
AcDbDimAssoc
  3
"AcDbDimAssoc|Product Desc:     AcDim ARX App For Dimension|Company:          Autodesk, Inc.|WEB Address:      www.autodesk.com"
 90
    32768
280
     0
281
     0
  0
CLASS
  1
MATERIAL
  2
AcDbMaterial
  3
ObjectDBX Classes
 90
     1153
280
     0
281
     0
  0
CLASS
  1
VISUALSTYLE
  2
AcDbVisualStyle
  3
ObjectDBX Classes
 90
     4095
280
     0
281
     0
  0
CLASS
  1
SCALE
  2
AcDbScale
  3
ObjectDBX Classes
 90
     1153
280
     0
281
     0
  0
CLASS
  1
MLEADERSTYLE
  2
AcDbMLeaderStyle
  3
ACDB_MLEADERSTYLE_CLASS
 90
     4095
280
     0
281
     0
  0
CLASS
  1
CELLSTYLEMAP
  2
AcDbCellStyleMap
  3
ObjectDBX Classes
 90
     1152
280
     0
281
     0
  0
CLASS
  1
EXACXREFPANELOBJECT
  2
ExAcXREFPanelObject
  3
EXAC_ESW
 90
    33793
280
     0
281
     0
  0
CLASS
  1
NPOCOLLECTION
  2
AcDbImpNonPersistentObjectsCollection
  3
ObjectDBX Classes
 90
    33921
280
     0
281
     0
  0
ENDSEC
  0
SECTION
  2
TABLES
  0
TABLE
  2
VPORT
  5
8
102
{ACAD_XDICTIONARY
360
1ABDC
102
}
330
0
100
AcDbSymbolTable
 70
     1
  0
VPORT
  5
19DC2
330
8
100
AcDbSymbolTableRecord
100
AcDbViewportTableRecord
  2
*Active
 70
     0
 10
0.0
 20
0.0
 11
1.0
 21
1.0
 12
390.7662435466932
 22
-603.4265005241714
 13
0.0
 23
0.0
 14
10.0
 24
10.0
 15
10.0
 25
10.0
 16
0.0
 26
0.0
 36
1.0
 17
0.0
 27
0.0
 37
0.0
 40
336.1504248043347
 41
2.607809847198641
 42
50.0
 43
0.0
 44
0.0
 50
0.0
 51
0.0
 71
     0
 72
   100
 73
     1
 74
     1
 75
     0
 76
     0
 77
     0
 78
     0
281
     0
 65
     1
110
0.0
120
0.0
130
0.0
111
1.0
121
0.0
131
0.0
112
0.0
122
1.0
132
0.0
 79
     0
146
0.0
1001
ACAD_NAV_VCDISPLAY
1070
     3
  0
ENDTAB
  0
TABLE
  2
LTYPE
  5
5
330
0
100
AcDbSymbolTable
 70
    18
  0
LTYPE
  5
12
330
5
100
AcDbSymbolTableRecord
100
AcDbLinetypeTableRecord
  2
BYBLOCK
 70
     0
  3

 72
    65
 73
     0
 40
0.0
  0
LTYPE
  5
13
330
5
100
AcDbSymbolTableRecord
100
AcDbLinetypeTableRecord
  2
BYLAYER
 70
     0
  3

 72
    65
 73
     0
 40
0.0
  0
LTYPE
  5
14
330
5
100
AcDbSymbolTableRecord
100
AcDbLinetypeTableRecord
  2
CONTINUOUS
 70
     0
  3
Solid line
 72
    65
 73
     0
 40
0.0
  0
LTYPE
  5
26
330
5
100
AcDbSymbolTableRecord
100
AcDbLinetypeTableRecord
  2
CENTER2
 70
     0
  3
Center (.5x) ___ _ ___ _ ___ _ ___ _ ___ _ ___
 72
    65
 73
     4
 40
28.575
 49
19.05
 74
     0
 49
-3.174999999999999
 74
     0
 49
3.174999999999999
 74
     0
 49
-3.174999999999999
 74
     0
  0
LTYPE
  5
100
330
5
100
AcDbSymbolTableRecord
100
AcDbLinetypeTableRecord
  2
PHANTOM2
 70
     0
  3
Phantom (.5x) ___ _ _ ___ _ _ ___ _ _ ___ _ _
 72
    65
 73
     6
 40
31.75
 49
15.875
 74
     0
 49
-3.174999999999999
 74
     0
 49
3.174999999999999
 74
     0
 49
-3.174999999999999
 74
     0
 49
3.174999999999999
 74
     0
 49
-3.174999999999999
 74
     0
  0
ENDTAB
  0
TABLE
  2
LAYER
  5
2
102
{ACAD_XDICTIONARY
360
18FE8
102
}
330
0
100
AcDbSymbolTable
 70
    48
  0
LAYER
  5
E
102
{ACAD_XDICTIONARY
360
1A20A
102
}
330
2
100
AcDbSymbolTableRecord
100
AcDbLayerTableRecord
  2
0
 70
     0
 62
     7
  6
CONTINUOUS
370
    -3
390
2CE
  0
LAYER
  5
29
102
{ACAD_XDICTIONARY
360
1A20C
102
}
330
2
100
AcDbSymbolTableRecord
100
AcDbLayerTableRecord
  2
1CENTER
 70
     0
 62
     7
  6
CENTER2
370
    -3
390
2CE
  0
LAYER
  5
31
102
{ACAD_XDICTIONARY
360
1A20E
102
}
330
2
100
AcDbSymbolTableRecord
100
AcDbLayerTableRecord
  2
1TEXT
 70
     0
 62
     7
  6
CONTINUOUS
370
    -3
390
2CE
  0
LAYER
  5
101
102
{ACAD_XDICTIONARY
360
1A218
102
}
330
2
100
AcDbSymbolTableRecord
100
AcDbLayerTableRecord
  2
1DIM
 70
     0
 62
     7
  6
CONTINUOUS
370
    -3
390
2CE
  0
LAYER
  5
103
102
{ACAD_XDICTIONARY
360
1A21C
102
}
330
2
100
AcDbSymbolTableRecord
100
AcDbLayerTableRecord
  2
1PHANTOM
 70
     0
 62
     7
  6
PHANTOM2
370
    -3
390
2CE
  0
LAYER
  5
25F
102
{ACAD_XDICTIONARY
360
1A220
102
}
330
2
100
AcDbSymbolTableRecord
100
AcDbLayerTableRecord
  2
01
 70
     0
 62
     1
  6
CONTINUOUS
370
    -3
390
2CE
  0
LAYER
  5
26A
102
{ACAD_XDICTIONARY
360
1A236
102
}
330
2
100
AcDbSymbolTableRecord
100
AcDbLayerTableRecord
  2
1DIM1
 70
     0
 62
     7
  6
CONTINUOUS
370
    -3
390
2CE
  0
LAYER
  5
26D
102
{ACAD_XDICTIONARY
360
1A23C
102
}
330
2
100
AcDbSymbolTableRecord
100
AcDbLayerTableRecord
  2
1HATCH
 70
     0
 62
     7
  6
CONTINUOUS
370
    -3
390
2CE
  0
ENDTAB
  0
TABLE
  2
STYLE
  5
3
330
0
100
AcDbSymbolTable
 70
    25
  0
STYLE
  5
F
330
3
100
AcDbSymbolTableRecord
100
AcDbTextStyleTableRecord
  2
STANDARD
 70
     0
 40
0.0
 41
1.0
 50
0.0
 71
     0
 42
4.0
  3
txt.shx
  4
extfont.shx
  0
ENDTAB
  0
TABLE
  2
VIEW
  5
6
330
0
100
AcDbSymbolTable
 70
     6
  0
ENDTAB
  0
TABLE
  2
UCS
  5
7
330
0
100
AcDbSymbolTable
 70
     0
  0
ENDTAB
  0
TABLE
  2
APPID
  5
9
330
0
100
AcDbSymbolTable
 70
    17
  0
APPID
  5
10
330
9
100
AcDbSymbolTableRecord
100
AcDbRegAppTableRecord
  2
ACAD
 70
     0
  0
APPID
  5
21
330
9
100
AcDbSymbolTableRecord
100
AcDbRegAppTableRecord
  2
DRAWINGVARIABLESXDATA
 70
     0
  0
APPID
  5
64
330
9
100
AcDbSymbolTableRecord
100
AcDbRegAppTableRecord
  2
CONTENTTABDATA
 70
     0
  0
APPID
  5
65
330
9
100
AcDbSymbolTableRecord
100
AcDbRegAppTableRecord
  2
CONTENTCURRENTTAB
 70
     0
  0
APPID
  5
66
330
9
100
AcDbSymbolTableRecord
100
AcDbRegAppTableRecord
  2
CONTENTBLOCKDESCRIPTION
 70
     0
  0
APPID
  5
67
330
9
100
AcDbSymbolTableRecord
100
AcDbRegAppTableRecord
  2
CONTENTBLOCKICON
 70
     0
  0
APPID
  5
68
330
9
100
AcDbSymbolTableRecord
100
AcDbRegAppTableRecord
  2
CONTENTLONGBLOCKNAME
 70
     0
  0
APPID
  5
5A9
330
9
100
AcDbSymbolTableRecord
100
AcDbRegAppTableRecord
  2
ACAD_PSEXT
 70
     0
  0
APPID
  5
18AC
330
9
100
AcDbSymbolTableRecord
100
AcDbRegAppTableRecord
  2
ACAD_DSTYLE_DIMTEXT_FILL
 70
     0
  0
APPID
  5
19E1A
330
9
100
AcDbSymbolTableRecord
100
AcDbRegAppTableRecord
  2
ACAD_MLEADERVER
 70
     0
  0
APPID
  5
1A2FA
330
9
100
AcDbSymbolTableRecord
100
AcDbRegAppTableRecord
  2
ACAD_DSTYLE_DIMRADIAL_EXTENSION
 70
     0
  0
APPID
  5
1DBC1
330
9
100
AcDbSymbolTableRecord
100
AcDbRegAppTableRecord
  2
AcadAnnotative
 70
     0
  0
APPID
  5
1E991
330
9
100
AcDbSymbolTableRecord
100
AcDbRegAppTableRecord
  2
ACAD_EXEMPT_FROM_CAD_STANDARDS
 70
     0
  0
APPID
  5
1F3A0
330
9
100
AcDbSymbolTableRecord
100
AcDbRegAppTableRecord
  2
ACAD_NAV_VCDISPLAY
 70
     0
  0
APPID
  5
1F4BE
330
9
100
AcDbSymbolTableRecord
100
AcDbRegAppTableRecord
  2
GradientColor1ACI
 70
     0
  0
APPID
  5
1F4BF
330
9
100
AcDbSymbolTableRecord
100
AcDbRegAppTableRecord
  2
GradientColor2ACI
 70
     0
  0
APPID
  5
1F4C0
330
9
100
AcDbSymbolTableRecord
100
AcDbRegAppTableRecord
  2
ACAD_SPLINE_DATA
 70
     0
  0
ENDTAB
  0
TABLE
  2
DIMSTYLE
  5
A
330
0
100
AcDbSymbolTable
 70
    10
100
AcDbDimStyleTable
 71
     1
340
48
  0
DIMSTYLE
105
48
330
A
100
AcDbSymbolTableRecord
100
AcDbDimStyleTableRecord
  2
NEWX10
 70
     0
  3
 
 41
2.0
 42
0.0
 43
7.0
 44
1.0
 73
     0
 74
     0
 77
     1
 78
     8
 79
     2
140
3.5
141
0.0
146
0.7
147
0.7
172
     1
173
     1
176
   256
177
   256
178
   201
179
     2
271
     2
284
     8
289
     2
340
F
343
42
344
42
  0
ENDTAB
  0
TABLE
  2
BLOCK_RECORD
  5
1
330
0
100
AcDbSymbolTable
 70
    19
  0
BLOCK_RECORD
  5
18
102
{ACAD_XDICTIONARY
360
6E9
102
}
330
1
100
AcDbSymbolTableRecord
100
AcDbBlockTableRecord
  2
*MODEL_SPACE
340
2D3
  0
BLOCK_RECORD
  5
15
102
{ACAD_XDICTIONARY
360
59B
102
}
330
1
100
AcDbSymbolTableRecord
100
AcDbBlockTableRecord
  2
*PAPER_SPACE
340
2D4
  0
BLOCK_RECORD
  5
42
330
1
100
AcDbSymbolTableRecord
100
AcDbBlockTableRecord
  2
_OPEN30
340
0
310
2800000020000000200000000100080000000000000400000000000000000000000000000000000000000000000080000080000000808000800000008000800080800000C0C0C000C0DCC000F0CAA6000020400000206000002080000020A0000020C0000020E00000400000004020000040400000406000004080000040A0
310
000040C0000040E00000600000006020000060400000606000006080000060A0000060C0000060E00000800000008020000080400000806000008080000080A0000080C0000080E00000A0000000A0200000A0400000A0600000A0800000A0A00000A0C00000A0E00000C0000000C0200000C0400000C0600000C0800000C0
310
A00000C0C00000C0E00000E0000000E0200000E0400000E0600000E0800000E0A00000E0C00000E0E00040000000400020004000400040006000400080004000A0004000C0004000E00040200000402020004020400040206000402080004020A0004020C0004020E000404000004040200040404000404060004040800040
310
40A0004040C0004040E00040600000406020004060400040606000406080004060A0004060C0004060E00040800000408020004080400040806000408080004080A0004080C0004080E00040A0000040A0200040A0400040A0600040A0800040A0A00040A0C00040A0E00040C0000040C0200040C0400040C0600040C08000
310
40C0A00040C0C00040C0E00040E0000040E0200040E0400040E0600040E0800040E0A00040E0C00040E0E00080000000800020008000400080006000800080008000A0008000C0008000E00080200000802020008020400080206000802080008020A0008020C0008020E00080400000804020008040400080406000804080
310
008040A0008040C0008040E00080600000806020008060400080606000806080008060A0008060C0008060E00080800000808020008080400080806000808080008080A0008080C0008080E00080A0000080A0200080A0400080A0600080A0800080A0A00080A0C00080A0E00080C0000080C0200080C0400080C0600080C0
310
800080C0A00080C0C00080C0E00080E0000080E0200080E0400080E0600080E0800080E0A00080E0C00080E0E000C0000000C0002000C0004000C0006000C0008000C000A000C000C000C000E000C0200000C0202000C0204000C0206000C0208000C020A000C020C000C020E000C0400000C0402000C0404000C0406000C0
310
408000C040A000C040C000C040E000C0600000C0602000C0604000C0606000C0608000C060A000C060C000C060E000C0800000C0802000C0804000C0806000C0808000C080A000C080C000C080E000C0A00000C0A02000C0A04000C0A06000C0A08000C0A0A000C0A0C000C0A0E000C0C00000C0C02000C0C04000C0C06000
310
C0C08000C0C0A000F0FBFF00A4A0A000808080000000FF0000FF000000FFFF00FF000000FF00FF00FFFF0000FFFFFF0051515151515151515151515151515151515151515151515151515151515151515151515151515151515151515151515151515151515151515151515151515151515151515151515151515151515151
310
51515151515151515151515151515151515151515151515151515151515151515151515151515151515151515151515151515151515151515151515151515151515151515151515151515151515151515151515151515151515151515151515151515151515151515151515151515151515151515151515151515151515151
310
515151515151515151515151515151515151515151515151515151515151515151515151515151515151515151515151515151FFFF5151515151515151515151515151515151515151515151515151515151515151FFFFFFFF5151515151515151515151515151515151515151515151515151515151515151FFFFFFFF5151
310
515151515151515151515151515151515151515151515151515151515151FFFFFF5151515151515151515151515151515151515151515151515151515151515151FFFFFFFF5151515151515151515151515151515151515151515151515151515151515151FFFFFF5151515151515151515151515151515151515151515151
310
515151515151515151FFFFFFFF5151515151515151515151515151515151515151515151515151515151515151FFFFFFFF51515151FFFFFFFFFFFFFFFFFFFFFFFFFFFFFFFFFFFFFFFFFFFFFFFFFFFFFFFFFFFF51515151515151515151515151515151515151515151515151FFFFFFFF515151515151515151515151515151
310
515151515151515151FFFFFFFF515151515151515151515151515151515151515151515151FFFFFFFF515151515151515151515151515151515151515151515151FFFFFFFF515151515151515151515151515151515151515151515151FFFFFFFF515151515151515151515151515151515151515151515151FFFFFFFF5151
310
5151515151515151515151515151515151515151515151FFFFFF5151515151515151515151515151515151515151515151515151515151515151515151515151515151515151515151515151515151515151515151515151515151515151515151515151515151515151515151515151515151515151515151515151515151
310
51515151515151515151515151515151515151515151515151515151515151515151515151515151515151515151515151515151515151515151515151515151515151515151515151515151515151515151515151515151515151515151515151515151515151515151515151515151515151515151515151515151515151
310
5151515151515151515151515151515151515151515151515151515151515151515151515151515151515151515151515151515151515151
  0
ENDTAB
  0
ENDSEC
  0
SECTION
  2
BLOCKS
  0
BLOCK
  5
19
330
18
100
AcDbEntity
  8
0
100
AcDbBlockBegin
  2
*MODEL_SPACE
 70
     0
 10
0.0
 20
0.0
 30
0.0
  3
*MODEL_SPACE
  1

  0
ENDBLK
  5
1A
330
18
100
AcDbEntity
  8
0
100
AcDbBlockEnd
  0
BLOCK
  5
16
330
15
100
AcDbEntity
 67
     1
  8
0
100
AcDbBlockBegin
  2
*PAPER_SPACE
 70
     0
 10
0.0
 20
0.0
 30
0.0
  3
*PAPER_SPACE
  1

  0
ENDBLK
  5
17
330
15
100
AcDbEntity
 67
     1
  8
0
100
AcDbBlockEnd
  0
BLOCK
  5
43
330
42
100
AcDbEntity
  8
0
100
AcDbBlockBegin
  2
_OPEN30
 70
     0
 10
0.0
 20
0.0
 30
0.0
  3
_OPEN30
  1

  0
LINE
  5
44
330
42
100
AcDbEntity
  8
0
  6
ByBlock
 62
     0
100
AcDbLine
 10
-1.0
 20
0.26794919
 30
0.0
 11
0.0
 21
0.0
 31
0.0
  0
LINE
  5
45
330
42
100
AcDbEntity
  8
0
  6
ByBlock
 62
     0
100
AcDbLine
 10
0.0
 20
0.0
 30
0.0
 11
-1.0
 21
-0.26794919
 31
0.0
  0
LINE
  5
46
330
42
100
AcDbEntity
  8
0
  6
ByBlock
 62
     0
100
AcDbLine
 10
0.0
 20
0.0
 30
0.0
 11
-1.0
 21
0.0
 31
0.0
  0
ENDBLK
  5
47
330
42
100
AcDbEntity
  8
0
100
AcDbBlockEnd
  0
ENDSEC
  0
SECTION
  2
ENTITIES
  0
LINE
  5
1D8CA
330
18
100
AcDbEntity
  8
01
100
AcDbLine
 10
743.0162416153649
 20
-650.6713303512658
 30
0.0
 11
743.0162416153649
 21
-672.8213303512672
 31
0.0
  0
LINE
  5
1D90A
330
18
100
AcDbEntity
  8
01
100
AcDbLine
 10
743.0162416153649
 20
-653.1713303512665
 30
0.0
 11
743.0162416153649
 21
-670.8213303512659
 31
0.0
  0
LINE
  5
1DBA4
102
{ACAD_REACTORS
330
1EDFD
102
}
330
18
100
AcDbEntity
  8
01
100
AcDbLine
 10
755.5162416153649
 20
-618.5931567659845
 30
0.0
 11
755.5162416153649
 21
-693.0495039365482
 31
0.0
  0
LINE
  5
1DBA5
102
{ACAD_REACTORS
330
1EDFD
102
}
330
18
100
AcDbEntity
  8
01
100
AcDbLine
 10
764.5162416153649
 20
-618.5931567659845
 30
0.0
 11
764.5162416153649
 21
-693.0495039365482
 31
0.0
  0
LINE
  5
1DBA6
102
{ACAD_REACTORS
330
1EDFD
102
}
330
18
100
AcDbEntity
  8
01
100
AcDbLine
 10
743.0162416153649
 20
-618.5931567659845
 30
0.0
 11
743.0162416153649
 21
-693.0495039365482
 31
0.0
  0
LINE
  5
1E9CD
102
{ACAD_REACTORS
330
1E9D3
102
}
330
18
100
AcDbEntity
  8
1PHANTOM
 48
0.5
100
AcDbLine
 10
740.0162416153649
 20
-641.3213302043771
 30
0.0
 11
741.0162416153649
 21
-640.321330504377
 31
0.0
  0
LINE
  5
1E9CE
102
{ACAD_REACTORS
330
1E9D3
102
}
330
18
100
AcDbEntity
  8
1PHANTOM
 48
0.5
100
AcDbLine
 10
740.0162416153649
 20
-644.621330354377
 30
0.0
 11
741.0162416153649
 21
-644.621330354377
 31
0.0
  0
LINE
  5
1E9CF
102
{ACAD_REACTORS
330
1E9D3
102
}
330
18
100
AcDbEntity
  8
1PHANTOM
 48
0.5
100
AcDbLine
 10
741.0162416153649
 20
-644.621330354377
 30
0.0
 11
741.0162416153649
 21
-637.0213303543771
 31
0.0
  0
LINE
  5
1E9D0
102
{ACAD_REACTORS
330
1E9D3
102
}
330
18
100
AcDbEntity
  8
1PHANTOM
 48
0.5
100
AcDbLine
 10
740.0162416153649
 20
-644.621330354377
 30
0.0
 11
740.0162416153649
 21
-637.0213303543771
 31
0.0
  0
LINE
  5
1E9D1
102
{ACAD_REACTORS
330
1E9D3
102
}
330
18
100
AcDbEntity
  8
1PHANTOM
 48
0.5
100
AcDbLine
 10
740.0162416153649
 20
-637.0213303543771
 30
0.0
 11
741.0162416153649
 21
-637.0213303543771
 31
0.0
  0
LINE
  5
1EBEF
102
{ACAD_REACTORS
330
1EBF5
102
}
330
18
100
AcDbEntity
  8
1PHANTOM
100
AcDbLine
 10
740.0162416153649
 20
-671.3213302043643
 30
0.0
 11
741.0162416153649
 21
-670.3213305043643
 31
0.0
  0
LINE
  5
1EBF0
102
{ACAD_REACTORS
330
1EBF5
102
}
330
18
100
AcDbEntity
  8
1PHANTOM
100
AcDbLine
 10
740.0162416153649
 20
-674.6213303543643
 30
0.0
 11
741.0162416153649
 21
-674.6213303543643
 31
0.0
  0
LINE
  5
1EBF1
102
{ACAD_REACTORS
330
1EBF5
102
}
330
18
100
AcDbEntity
  8
1PHANTOM
100
AcDbLine
 10
741.0162416153649
 20
-674.6213303543643
 30
0.0
 11
741.0162416153649
 21
-667.0213303543643
 31
0.0
  0
LINE
  5
1EBF2
102
{ACAD_REACTORS
330
1EBF5
102
}
330
18
100
AcDbEntity
  8
1PHANTOM
100
AcDbLine
 10
740.0162416153649
 20
-674.6213303543643
 30
0.0
 11
740.0162416153649
 21
-667.0213303543643
 31
0.0
  0
LINE
  5
1EBF3
102
{ACAD_REACTORS
330
1EBF5
102
}
330
18
100
AcDbEntity
  8
1PHANTOM
100
AcDbLine
 10
740.0162416153649
 20
-667.0213303543643
 30
0.0
 11
741.0162416153649
 21
-667.0213303543643
 31
0.0
  0
ARC
  5
1FC72
330
18
100
AcDbEntity
  8
01
100
AcDbCircle
 10
685.0162416153649
 20
-690.8213303512564
 30
0.0
 40
13.0
100
AcDbArc
 50
270.0
 51
61.10537232164547
  0
LINE
  5
1FCFE
330
18
100
AcDbEntity
  8
01
100
AcDbLine
 10
743.0162416153649
 20
-629.8213303512618
 30
0.0
 11
743.0162416153649
 21
-631.8213303512618
 31
0.0
  0
LINE
  5
1FCFF
330
18
100
AcDbEntity
  8
01
100
AcDbLine
 10
743.0162416153649
 20
-681.8213303512655
 30
0.0
 11
743.0162416153649
 21
-679.8213303512718
 31
0.0
  0
LINE
  5
1FD00
330
18
100
AcDbEntity
  8
01
100
AcDbLine
 10
743.0162416153649
 20
-631.8213303512618
 30
0.0
 11
743.0162416153649
 21
-679.8213303512709
 31
0.0
  0
LINE
  5
1FD08
330
18
100
AcDbEntity
  8
1CENTER
100
AcDbLine
 10
713.0547514215192
 20
-655.8213303512645
 30
0.0
 11
747.8101092111507
 21
-655.8213303512645
 31
0.0
  0
ELLIPSE
  5
1FD0A
330
18
100
AcDbEntity
  8
01
100
AcDbEllipse
 10
685.0162416153649
 20
-688.8213303512645
 30
0.0
 11
0.0
 21
-14.99999999999682
 31
0.0
210
0.0
220
0.0
230
1.0
 40
0.9000000000001909
 41
4.712388980384689
 42
6.283185307179586
  0
LINE
  5
1FD0B
330
18
100
AcDbEntity
  8
01
100
AcDbLine
 10
739.7809548800829
 20
-681.8213303512655
 30
0.0000005066221534
 11
743.0162416153649
 21
-681.8213303512655
 31
0.0
  0
ARC
  5
1FD16
330
18
100
AcDbEntity
  8
01
100
AcDbCircle
 10
751.2739875767871
 20
-660.8987251141859
 30
0.0000005066221534
 40
24.0
100
AcDbArc
 50
210.6817257435702
 51
240.020039415223
  0
ARC
  5
1FD17
330
18
100
AcDbEntity
  8
01
100
AcDbCircle
 10
739.7809548800829
 20
-680.8213303512655
 30
0.0000005066221534
 40
1.0
100
AcDbArc
 50
240.020039415223
 51
270.0
  0
LINE
  5
1FD19
330
18
100
AcDbEntity
  8
1CENTER
100
AcDbLine
 10
725.0162416153649
 20
-676.5987335166207
 30
0.0
 11
725.0162416153649
 21
-653.4722166048966
 31
0.0
  0
ARC
  5
1FD24
330
18
100
AcDbEntity
  8
01
100
AcDbCircle
 10
751.2739875767871
 20
-650.7439355883432
 30
0.0000005066221534
 40
24.0
100
AcDbArc
 50
119.979960584777
 51
149.2611562230852
  0
ARC
  5
1FD25
330
18
100
AcDbEntity
  8
01
100
AcDbCircle
 10
739.7809548800865
 20
-630.8213303512618
 30
0.0000005066221534
 40
1.0
100
AcDbArc
 50
90.0
 51
119.979960584777
  0
LINE
  5
1FD28
330
18
100
AcDbEntity
  8
01
100
AcDbLine
 10
743.0162416153649
 20
-629.8213303512618
 30
0.0
 11
739.7809548800865
 21
-629.8213303512618
 31
0.0000005066221534
  0
ARC
  5
1FD2B
330
18
100
AcDbEntity
  8
01
100
AcDbCircle
 10
694.1970471911296
 20
-674.186643429646
 30
0.0
 40
6.0
100
AcDbArc
 50
129.6766258154445
 51
241.1053723215883
  0
LINE
  5
1FD5B
330
18
100
AcDbEntity
  8
1CENTER
100
AcDbLine
 10
718.0162416153677
 20
-655.8213303512645
 30
0.0
 11
747.8101092111507
 21
-655.8213303512645
 31
0.0
  0
ARC
  5
1FD5C
330
18
100
AcDbEntity
  8
01
100
AcDbCircle
 10
719.4722674071023
 20
-679.8103774548232
 30
0.0000005066221534
 40
13.0
100
AcDbArc
 50
30.73884377691474
 51
85.92860012145427
  0
ARC
  5
1FD5D
330
18
100
AcDbEntity
  8
01
100
AcDbCircle
 10
719.4722674071023
 20
-631.8322832477058
 30
0.0000005066221534
 40
13.0
100
AcDbArc
 50
274.0713998785457
 51
329.2611562230853
  0
ARC
  5
1FD5E
330
18
100
AcDbEntity
  8
01
100
AcDbCircle
 10
720.4662610599913
 20
-645.7969521166058
 30
0.0000005066221534
 40
1.0
100
AcDbArc
 50
94.07139987854572
 51
138.0646320399578
  0
ELLIPSE
  5
1FD5F
330
18
100
AcDbEntity
  8
01
100
AcDbEllipse
 10
718.0162416153677
 20
-688.8213303512645
 30
0.0
 11
-46.50000000000273
 21
0.0
 31
0.0
210
0.0
220
0.0
230
1.0
 40
0.8064516129031979
 41
4.779157574068798
 42
6.283185307179586
  0
ARC
  5
1FD60
330
18
100
AcDbEntity
  8
01
100
AcDbCircle
 10
731.6247484578867
 20
-655.8213303512391
 30
0.0
 40
16.0
100
AcDbArc
 50
138.0646320399578
 51
159.1263801005522
  0
ARC
  5
1FD61
330
18
100
AcDbEntity
  8
01
100
AcDbCircle
 10
714.8061132174831
 20
-649.407789312924
 30
0.0
 40
2.0
100
AcDbArc
 50
273.0867309115867
 51
339.1263801005522
  0
ELLIPSE
  5
1FD62
330
18
100
AcDbEntity
  8
01
100
AcDbEllipse
 10
718.0162416153677
 20
-688.8213303512645
 30
0.0
 11
-37.50000000000273
 21
0.0
 31
0.0
210
0.0
220
0.0
230
1.0
 40
0.7599999999988049
 41
4.799671171356966
 42
5.541500016203038
  0
ARC
  5
1FD63
330
18
100
AcDbEntity
  8
01
100
AcDbCircle
 10
731.6247484578867
 20
-655.82133035129
 30
0.0
 40
16.0
100
AcDbArc
 50
201.5241581075971
 51
221.9353679600422
  0
ARC
  5
1FD64
330
18
100
AcDbEntity
  8
01
100
AcDbCircle
 10
720.4662610599915
 20
-665.8457085859245
 30
0.0
 40
1.0
100
AcDbArc
 50
221.9353679600422
 51
265.9286001214543
  0
ARC
  5
1FD65
330
18
100
AcDbEntity
  8
01
100
AcDbCircle
 10
714.8800152814215
 20
-662.4254132436378
 30
0.0
 40
2.0
100
AcDbArc
 50
21.52415810759714
 51
93.80477808006371
  0
LINE
  5
1FDDF
330
18
100
AcDbEntity
  8
1CENTER
100
AcDbLine
 10
725.0162416153649
 20
-666.3213303512645
 30
0.0
 11
725.0163182090942
 21
-656.8213303512646
 31
0.0000002831743489
  0
LINE
  5
207E6
330
18
100
AcDbEntity
  8
1CENTER
100
AcDbLine
 10
580.335249864419
 20
-655.8213303512645
 30
0.0
 11
640.6160996646795
 21
-655.8213303512645
 31
0.0
  0
LINE
  5
207E8
330
18
100
AcDbEntity
  8
1CENTER
100
AcDbLine
 10
609.5162416153637
 20
-686.2662998781781
 30
0.0
 11
609.5162416153639
 21
-625.3763608243527
 31
0.0
  0
LINE
  5
207E9
330
18
100
AcDbEntity
  8
01
100
AcDbLine
 10
19.51624161536711
 20
-697.3213303512616
 30
0.0
 11
599.5162416153607
 21
-697.32133035126
 31
0.0
  0
LINE
  5
207EA
330
18
100
AcDbEntity
  8
01
100
AcDbLine
 10
20.22353676843739
 20
-684.3213303512591
 30
0.0
 11
599.5162416153602
 21
-684.3213303512604
 31
0.0
  0
LINE
  5
207EE
330
18
100
AcDbEntity
  8
01
100
AcDbLine
 10
605.0162416153607
 20
-701.1713303961357
 30
0.0
 11
605.0162416153603
 21
-690.8213303512646
 31
0.0
  0
LINE
  5
207EF
330
18
100
AcDbEntity
  8
01
100
AcDbLine
 10
605.0162416153607
 20
-690.8213303512646
 30
0.0
 11
605.0162416153612
 21
-652.3213303512664
 31
0.0
  0
ARC
  5
207F0
330
18
100
AcDbEntity
  8
01
100
AcDbCircle
 10
603.5162416153602
 20
-680.3213303063865
 30
0.0
 40
1.5
100
AcDbArc
 50
270.0
 51
0.0
  0
ARC
  5
207F1
330
18
100
AcDbEntity
  8
01
100
AcDbCircle
 10
606.0162416153607
 20
-652.3213303512664
 30
0.0
 40
1.0
100
AcDbArc
 50
90.0
 51
180.0
  0
LINE
  5
207F2
330
18
100
AcDbEntity
  8
01
100
AcDbLine
 10
614.0162416153625
 20
-701.3213303961354
 30
0.0
 11
614.0162416153607
 21
-652.3213303512664
 31
0.0
  0
ARC
  5
207F3
330
18
100
AcDbEntity
  8
01
100
AcDbCircle
 10
613.0162416153607
 20
-652.3213303512664
 30
0.0
 40
1.0
100
AcDbArc
 50
0.0
 51
90.0
  0
LINE
  5
207F4
330
18
100
AcDbEntity
  8
1CENTER
100
AcDbLine
 10
579.0712720884512
 20
-655.8213303512655
 30
0.0
 11
639.9612111422734
 21
-655.8213303512664
 31
0.0
  0
LINE
  5
207F5
330
18
100
AcDbEntity
  8
01
100
AcDbLine
 10
606.0162416153607
 20
-651.3213303512664
 30
0.0
 11
613.0162416153607
 21
-651.3213303512664
 31
0.0
  0
ARC
  5
207F6
330
18
100
AcDbEntity
  8
01
100
AcDbCircle
 10
609.5162416153607
 20
-655.8213303512664
 30
0.0
 40
10.0
100
AcDbArc
 50
296.743683950422
 51
243.2563160496072
  0
LINE
  5
207F7
330
18
100
AcDbEntity
  8
01
100
AcDbLine
 10
606.0162416153607
 20
-703.8213303512663
 30
0.0
 11
613.0162416153612
 21
-703.8213303512663
 31
0.0
  0
ARC
  5
207F8
330
18
100
AcDbEntity
  8
01
100
AcDbCircle
 10
613.0162416153612
 20
-702.8213303512663
 30
0.0
 40
1.0
100
AcDbArc
 50
270.0
 51
0.0
  0
ARC
  5
207F9
330
18
100
AcDbEntity
  8
01
100
AcDbCircle
 10
606.0162416153607
 20
-702.8213303512663
 30
0.0
 40
1.0
100
AcDbArc
 50
180.0
 51
270.0
  0
LINE
  5
207FA
330
18
100
AcDbEntity
  8
01
100
AcDbLine
 10
599.5162416153607
 20
-698.8213303961363
 30
0.0
 11
599.5162416153607
 21
-682.8213303063864
 31
0.0
  0
ARC
  5
207FB
330
18
100
AcDbEntity
  8
01
100
AcDbCircle
 10
600.5162416153607
 20
-682.8213303063864
 30
0.0
 40
1.0
100
AcDbArc
 50
90.0
 51
180.0
  0
LINE
  5
207FC
330
18
100
AcDbEntity
  8
01
100
AcDbLine
 10
618.5936253260283
 20
-681.8213303063846
 30
0.0
 11
615.5162416153621
 21
-681.8213303063864
 31
0.0
  0
ARC
  5
207FD
330
18
100
AcDbEntity
  8
01
100
AcDbCircle
 10
615.5162416153611
 20
-680.3213303063865
 30
0.0
 40
1.5
100
AcDbArc
 50
180.0
 51
270.000000000026
  0
LINE
  5
207FE
330
18
100
AcDbEntity
  8
01
100
AcDbLine
 10
603.5162416153602
 20
-681.8213303063864
 30
0.0
 11
600.5162416153607
 21
-681.8213303063864
 31
0.0
  0
LINE
  5
20800
330
18
100
AcDbEntity
  8
01
100
AcDbLine
 10
618.5936253260279
 20
-699.8213303961381
 30
0.0
 11
615.5162416153626
 21
-699.8213303961354
 31
0.0
  0
LINE
  5
20801
330
18
100
AcDbEntity
  8
01
100
AcDbLine
 10
603.5162416153602
 20
-699.8213303961354
 30
0.0
 11
600.5162416153607
 21
-699.8213303961363
 31
0.0
  0
ARC
  5
20802
330
18
100
AcDbEntity
  8
01
100
AcDbCircle
 10
603.5162416153607
 20
-701.3213303961354
 30
0.0
 40
1.5
100
AcDbArc
 50
0.0
 51
90.00000000002605
  0
ARC
  5
20803
330
18
100
AcDbEntity
  8
01
100
AcDbCircle
 10
600.5162416153607
 20
-698.8213303961363
 30
0.0
 40
1.0
100
AcDbArc
 50
180.0
 51
270.0
  0
LINE
  5
20804
330
18
100
AcDbEntity
  8
01
100
AcDbLine
 10
614.0162416153612
 20
-702.8213303512663
 30
0.0
 11
614.0162416153612
 21
-701.3213303961354
 31
0.0
  0
ARC
  5
20805
330
18
100
AcDbEntity
  8
01
100
AcDbCircle
 10
615.5162416153611
 20
-701.3213303961354
 30
0.0
 40
1.5
100
AcDbArc
 50
89.99999999994789
 51
180.0
  0
LINE
  5
20806
330
18
100
AcDbEntity
  8
01
100
AcDbLine
 10
605.0162416153607
 20
-701.3213303961354
 30
0.0
 11
605.0162416153607
 21
-702.8213303512663
 31
0.0
  0
ARC
  5
20807
330
18
100
AcDbEntity
  8
01
100
AcDbCircle
 10
609.5162416153639
 20
-655.8213303512645
 30
0.0
 40
26.00000000000409
100
AcDbArc
 50
280.7280165874841
 51
259.271983412516
  0
ARC
  5
20808
330
18
100
AcDbEntity
  8
01
100
AcDbCircle
 10
625.0162416153612
 20
-699.8213303961372
 30
0.0
 40
5.5
100
AcDbArc
 50
62.4737963882769
 51
171.150116901563
  0
ARC
  5
2080B
330
18
100
AcDbEntity
  8
01
100
AcDbCircle
 10
625.0162416153612
 20
-681.8213303063855
 30
0.0
 40
5.5
100
AcDbArc
 50
188.8498830984047
 51
297.5262036117268
  0
ARC
  5
2080C
330
18
100
AcDbEntity
  8
01
100
AcDbCircle
 10
618.5936253260288
 20
-682.8213303063855
 30
0.0
 40
1.0
100
AcDbArc
 50
8.849883098404694
 51
90.00000000005213
  0
LINE
  5
2080D
330
18
100
AcDbEntity
  8
01
100
AcDbLine
 10
619.5162416153611
 20
-682.4356112601114
 30
0.0
 11
619.5162416153616
 21
-699.2070494424094
 31
0.0
  0
LINE
  5
2080F
330
18
100
AcDbEntity
  8
1CENTER
 48
0.3
100
AcDbLine
 10
606.5912416153665
 20
-670.82133035126
 30
0.0
 11
612.4412416153668
 21
-670.82133035126
 31
0.0
  0
LINE
  5
20810
330
18
100
AcDbEntity
  8
1CENTER
 48
0.3
100
AcDbLine
 10
606.5912416153665
 20
-640.8213303512727
 30
0.0
 11
612.4412416153668
 21
-640.8213303512727
 31
0.0
  0
ARC
  5
20811
330
18
100
AcDbEntity
  8
01
 48
0.5
100
AcDbCircle
 10
639.5162416153652
 20
-690.82133035126
 30
0.0
 40
3.5
100
AcDbArc
 50
309.5168593795337
 51
51.22003647761498
  0
ARC
  5
20812
330
18
100
AcDbEntity
  8
01
 48
0.5
100
AcDbCircle
 10
633.5660948675004
 20
-698.2271222521221
 30
0.0
 40
13.0
100
AcDbArc
 50
51.22003647761498
 51
117.5262036117267
  0
ARC
  5
20813
330
18
100
AcDbEntity
  8
01
 48
0.5
100
AcDbCircle
 10
633.5660948675004
 20
-683.4155384503983
 30
0.0
 40
13.0
100
AcDbArc
 50
242.4737963882766
 51
308.779963522385
  0
CIRCLE
  5
20814
330
18
100
AcDbEntity
  8
1PHANTOM
 48
0.3
100
AcDbCircle
 10
609.5162416153639
 20
-670.82133035126
 30
0.0
 40
2.5
  0
CIRCLE
  5
20815
330
18
100
AcDbEntity
  8
1PHANTOM
 48
0.3
100
AcDbCircle
 10
609.5162416153639
 20
-640.8213303512727
 30
0.0
 40
2.5
  0
CIRCLE
  5
20816
330
18
100
AcDbEntity
  8
1PHANTOM
100
AcDbCircle
 10
609.5162416153639
 20
-655.8213303512659
 30
0.0
 40
23.50001259227565
  0
LINE
  5
20854
330
18
100
AcDbEntity
  8
01
100
AcDbLine
 10
583.5162416153612
 20
-544.7286048790698
 30
0.0
 11
635.5162416153648
 21
-544.7286048790698
 31
0.0
  0
LINE
  5
20855
330
18
100
AcDbEntity
  8
01
100
AcDbLine
 10
583.5162416153612
 20
-548.2286048790698
 30
0.0
 11
635.5162416153648
 21
-548.2286048790698
 31
0.0
  0
LINE
  5
20856
330
18
100
AcDbEntity
  8
01
100
AcDbLine
 10
583.5162416153612
 20
-548.2286048790698
 30
0.0
 11
635.5162416153648
 21
-548.2286048790698
 31
0.0
  0
LINE
  5
20857
330
18
100
AcDbEntity
  8
1HATCH
100
AcDbLine
 10
609.5162416153634
 20
-583.2018804537664
 30
0.0
 11
609.525844469022
 21
-583.1922776001078
 31
0.0
1001
GradientColor1ACI
1070
     5
1001
GradientColor2ACI
1070
     2
1001
ACAD
1010
0.0
1020
0.0
1030
0.0
  0
LINE
  5
20859
330
18
100
AcDbEntity
  8
01
100
AcDbLine
 10
635.5162416153648
 20
-547.9638916143509
 30
0.0000005066221534
 11
635.5162416153648
 21
-544.7286048790698
 31
0.0
  0
ARC
  5
2085A
330
18
100
AcDbEntity
  8
01
100
AcDbCircle
 10
614.5936363782852
 20
-536.4708589176476
 30
0.0000005066221534
 40
24.0
100
AcDbArc
 50
300.6817257436052
 51
330.0200394152163
  0
ARC
  5
2085B
330
18
100
AcDbEntity
  8
01
100
AcDbCircle
 10
634.5162416153648
 20
-547.9638916143509
 30
0.0000005066221534
 40
1.0
100
AcDbArc
 50
330.0200394151635
 51
0.0
  0
ARC
  5
2085C
330
18
100
AcDbEntity
  8
01
100
AcDbCircle
 10
604.4388468524426
 20
-536.4708589176476
 30
0.0000005066221534
 40
24.0
100
AcDbArc
 50
209.9799605847837
 51
239.2611562231042
  0
ARC
  5
2085D
330
18
100
AcDbEntity
  8
01
100
AcDbCircle
 10
584.5162416153612
 20
-547.9638916143472
 30
0.0000005066221534
 40
1.0
100
AcDbArc
 50
180.0
 51
209.9799605847837
  0
LINE
  5
2085E
330
18
100
AcDbEntity
  8
01
100
AcDbLine
 10
583.5162416153612
 20
-544.7286048790698
 30
0.0
 11
583.5162416153612
 21
-547.9638916143472
 31
0.0000005066221534
  0
LINE
  5
2085F
330
18
100
AcDbEntity
  8
1CENTER
100
AcDbLine
 10
609.5162416153639
 20
-569.7286048790662
 30
0.0
 11
609.5162416153639
 21
-511.1249469849087
 31
0.0
  0
ARC
  5
20860
330
18
100
AcDbEntity
  8
01
100
AcDbCircle
 10
633.5052887189227
 20
-568.2725790873315
 30
0.0000005066221534
 40
13.0
100
AcDbArc
 50
120.7388437768957
 51
175.9286001214542
  0
ARC
  5
20861
330
18
100
AcDbEntity
  8
01
100
AcDbCircle
 10
619.5406198500227
 20
-567.2785854344434
 30
0.0000005066221534
 40
1.0
100
AcDbArc
 50
311.9353679600387
 51
355.9286001214542
  0
ARC
  5
20862
330
18
100
AcDbEntity
  8
01
100
AcDbCircle
 10
585.5271945118052
 20
-568.2725790873315
 30
0.0000005066221534
 40
13.0
100
AcDbArc
 50
4.071399878545777
 51
59.26115622310425
  0
ARC
  5
20863
330
18
100
AcDbEntity
  8
01
100
AcDbCircle
 10
599.4918633807051
 20
-567.2785854344434
 30
0.0000005066221534
 40
1.0
100
AcDbArc
 50
184.0713998785457
 51
228.0646320399566
  0
ARC
  5
20864
330
18
100
AcDbEntity
  8
01
100
AcDbCircle
 10
609.5162416153384
 20
-556.120098036547
 30
0.0
 40
16.0
100
AcDbArc
 50
228.0646320399566
 51
248.831551154239
  0
ARC
  5
20865
330
18
100
AcDbEntity
  8
01
100
AcDbCircle
 10
603.0162416153611
 20
-572.9055083681502
 30
0.0
 40
2.0
100
AcDbArc
 50
0.0
 51
68.83155115423895
  0
ARC
  5
20866
330
18
100
AcDbEntity
  8
01
100
AcDbCircle
 10
609.5162416153893
 20
-556.120098036547
 30
0.0
 40
16.0
100
AcDbArc
 50
291.1684488457332
 51
311.9353679600387
  0
ARC
  5
20867
330
18
100
AcDbEntity
  8
01
100
AcDbCircle
 10
616.0162416153643
 20
-572.9055083681511
 30
0.0
 40
2.0
100
AcDbArc
 50
111.168448845761
 51
180.0
  0
LINE
  5
20868
330
18
100
AcDbEntity
  8
01
100
AcDbLine
 10
605.0162416153638
 20
-614.7286048790718
 30
0.0
 11
605.0162416153607
 21
-572.9055083681502
 31
0.0
  0
ARC
  5
20869
330
18
100
AcDbEntity
  8
01
100
AcDbCircle
 10
603.5162416153634
 20
-592.2286048341917
 30
0.0
 40
1.5
100
AcDbArc
 50
270.0
 51
0.0
  0
LINE
  5
2086A
330
18
100
AcDbEntity
  8
01
100
AcDbLine
 10
606.0162416153639
 20
-615.7286048790716
 30
0.0
 11
613.0162416153644
 21
-615.7286048790716
 31
0.0
  0
ARC
  5
2086B
330
18
100
AcDbEntity
  8
01
100
AcDbCircle
 10
613.0162416153644
 20
-614.7286048790716
 30
0.0
 40
1.0
100
AcDbArc
 50
270.0
 51
0.0
  0
ARC
  5
2086C
330
18
100
AcDbEntity
  8
01
100
AcDbCircle
 10
606.0162416153639
 20
-614.7286048790716
 30
0.0
 40
1.0
100
AcDbArc
 50
180.0
 51
270.0
  0
LINE
  5
2086D
330
18
100
AcDbEntity
  8
01
100
AcDbLine
 10
599.5162416153581
 20
-610.7286049239416
 30
0.0
 11
599.5162416153639
 21
-594.7286048341917
 31
0.0
  0
ARC
  5
2086E
330
18
100
AcDbEntity
  8
01
100
AcDbCircle
 10
600.5162416153638
 20
-594.7286048341917
 30
0.0
 40
1.0
100
AcDbArc
 50
90.0
 51
180.0
  0
LINE
  5
2086F
330
18
100
AcDbEntity
  8
01
100
AcDbLine
 10
618.5936253260315
 20
-593.7286048341899
 30
0.0
 11
615.5162416153652
 21
-593.7286048341917
 31
0.0
  0
ARC
  5
20870
330
18
100
AcDbEntity
  8
01
100
AcDbCircle
 10
615.5162416153643
 20
-592.2286048341917
 30
0.0
 40
1.5
100
AcDbArc
 50
180.0
 51
270.000000000026
  0
LINE
  5
20871
330
18
100
AcDbEntity
  8
01
100
AcDbLine
 10
603.5162416153634
 20
-593.7286048341917
 30
0.0
 11
600.5162416153638
 21
-593.7286048341917
 31
0.0
  0
LINE
  5
20872
330
18
100
AcDbEntity
  8
01
100
AcDbLine
 10
618.5936253260311
 20
-611.7286049239433
 30
0.0
 11
615.5162416153658
 21
-611.7286049239407
 31
0.0
  0
LINE
  5
20873
330
18
100
AcDbEntity
  8
01
100
AcDbLine
 10
603.5162416153634
 20
-611.7286049239407
 30
0.0
 11
600.5162416153638
 21
-611.7286049239416
 31
0.0
  0
ARC
  5
20874
330
18
100
AcDbEntity
  8
01
100
AcDbCircle
 10
603.5162416153639
 20
-613.2286049239406
 30
0.0
 40
1.5
100
AcDbArc
 50
0.0
 51
90.00000000002605
  0
ARC
  5
20875
330
18
100
AcDbEntity
  8
01
100
AcDbCircle
 10
600.5162416153638
 20
-610.7286049239416
 30
0.0
 40
1.0
100
AcDbArc
 50
180.0
 51
270.0
  0
LINE
  5
20876
330
18
100
AcDbEntity
  8
01
100
AcDbLine
 10
614.0162416153635
 20
-614.7286048790716
 30
0.0
 11
614.0162416153644
 21
-572.9055083681511
 31
0.0
  0
ARC
  5
20877
330
18
100
AcDbEntity
  8
01
100
AcDbCircle
 10
615.5162416153643
 20
-613.2286049239406
 30
0.0
 40
1.5
100
AcDbArc
 50
89.99999999994789
 51
180.0
  0
ARC
  5
20878
330
18
100
AcDbEntity
  8
01
100
AcDbCircle
 10
625.0162416153643
 20
-611.7286049239424
 30
0.0
 40
5.5
100
AcDbArc
 50
62.47379638827585
 51
171.1501169015425
  0
ARC
  5
20879
330
18
100
AcDbEntity
  8
01
100
AcDbCircle
 10
618.593625326032
 20
-610.7286049239416
 30
0.0
 40
1.0
100
AcDbArc
 50
269.9999999999739
 51
351.1501169015426
  0
ARC
  5
2087A
330
18
100
AcDbEntity
  8
01
100
AcDbCircle
 10
625.0162416153643
 20
-593.7286048341908
 30
0.0
 40
5.5
100
AcDbArc
 50
188.8498830984047
 51
297.5262036117135
  0
ARC
  5
2087B
330
18
100
AcDbEntity
  8
01
100
AcDbCircle
 10
618.593625326032
 20
-594.7286048341908
 30
0.0
 40
1.0
100
AcDbArc
 50
8.849883098404694
 51
90.00000000005213
  0
LINE
  5
2087D
330
18
100
AcDbEntity
  8
01
100
AcDbLine
 10
19.51624161536918
 20
-609.2286048790713
 30
0.0
 11
599.5162416153586
 21
-609.2286048790698
 31
0.0
  0
LINE
  5
2087E
330
18
100
AcDbEntity
  8
01
100
AcDbLine
 10
19.51624161536447
 20
-596.2286048790692
 30
0.0
 11
599.5162416153633
 21
-596.2286048790702
 31
0.0
  0
LINE
  5
2088A
330
18
100
AcDbEntity
  8
01
100
AcDbLine
 10
598.5162416153139
 20
-567.7390480751466
 30
0.0
 11
620.5162416153411
 21
-567.739048075167
 31
0.0
  0
LINE
  5
2088B
330
18
100
AcDbEntity
  8
01
100
AcDbLine
 10
605.0429120583899
 20
-571.4820420110227
 30
0.0
 11
613.3978568274501
 21
-571.4820420110227
 31
0.0
  0
LINE
  5
208CC
330
18
100
AcDbEntity
  8
01
100
AcDbLine
 10
619.6368575527749
 20
-548.2286048790698
 30
0.0
 11
599.3956256779529
 21
-548.2286048790698
 31
0.0
  0
ARC
  5
208CD
330
18
100
AcDbEntity
  8
01
 48
0.5
100
AcDbCircle
 10
639.5162416153661
 20
-602.7286048790698
 30
0.0
 40
3.5
100
AcDbArc
 50
309.5168593795337
 51
51.22003647761498
  0
ARC
  5
208CE
330
18
100
AcDbEntity
  8
01
 48
0.5
100
AcDbCircle
 10
633.5660948675013
 20
-610.1343967799319
 30
0.0
 40
13.0
100
AcDbArc
 50
51.22003647761498
 51
117.5262036117137
  0
ARC
  5
208CF
330
18
100
AcDbEntity
  8
01
 48
0.5
100
AcDbCircle
 10
633.5660948675013
 20
-595.3228129782082
 30
0.0
 40
13.0
100
AcDbArc
 50
242.4737963882762
 51
308.779963522385
  0
LINE
  5
208D0
330
18
100
AcDbEntity
  8
1PHANTOM
 48
0.5
100
AcDbLine
 10
586.0163007438437
 20
-546.7286048790698
 30
0.0
 11
586.0163007438428
 21
-544.7286048790698
 31
0.0
  0
LINE
  5
208D1
330
18
100
AcDbEntity
  8
1PHANTOM
 48
0.5
100
AcDbLine
 10
605.2663007438428
 20
-567.7286048790693
 30
0.0
 11
605.2663007438428
 21
-550.2286048790698
 31
0.0
  0
LINE
  5
208D2
330
18
100
AcDbEntity
  8
1PHANTOM
 48
0.5
100
AcDbLine
 10
612.7662755593097
 20
-568.7286048790694
 30
0.0
 11
606.2663007438429
 21
-568.7286048790694
 31
0.0
  0
LINE
  5
208D3
330
18
100
AcDbEntity
  8
1PHANTOM
 48
0.5
100
AcDbLine
 10
631.5163007438492
 20
-548.2286048790698
 30
0.0
 11
615.7663007438501
 21
-548.2286048790698
 31
0.0
  0
LINE
  5
208D4
330
18
100
AcDbEntity
  8
1PHANTOM
 48
0.5
100
AcDbLine
 10
603.2663007438428
 20
-548.2286048790698
 30
0.0
 11
587.5163007438438
 21
-548.2286048790698
 31
0.0
  0
LINE
  5
208D5
330
18
100
AcDbEntity
  8
1PHANTOM
 48
0.5
100
AcDbLine
 10
613.7662918470065
 20
-567.7286048790689
 30
0.0
 11
613.7665768838793
 21
-550.2283287390397
 31
0.0
  0
LINE
  5
208D6
330
18
100
AcDbEntity
  8
1PHANTOM
 48
0.5
100
AcDbLine
 10
586.0163007438437
 20
-546.7286048790698
 30
0.0
 11
587.5163007438438
 21
-548.2286048790698
 31
0.0
  0
LINE
  5
208D7
330
18
100
AcDbEntity
  8
1PHANTOM
 48
0.5
100
AcDbLine
 10
603.2663007438428
 20
-548.2286048790698
 30
0.0
 11
605.2663007438428
 21
-550.2286048790698
 31
0.0
  0
LINE
  5
208D8
330
18
100
AcDbEntity
  8
1PHANTOM
 48
0.5
100
AcDbLine
 10
615.7663007438492
 20
-548.2286048790698
 30
0.0
 11
613.7663007438492
 21
-550.2286048790698
 31
0.0
  0
LINE
  5
208D9
330
18
100
AcDbEntity
  8
1PHANTOM
 48
0.5
100
AcDbLine
 10
605.2663007438428
 20
-567.7286048790693
 30
0.0
 11
606.2663007438429
 21
-568.7286048790694
 31
0.0
  0
LINE
  5
208DA
330
18
100
AcDbEntity
  8
1PHANTOM
 48
0.5
100
AcDbLine
 10
612.7662755593097
 20
-568.7286048790694
 30
0.0
 11
613.7662918470065
 21
-567.7286048790693
 31
0.0
  0
LINE
  5
208DB
330
18
100
AcDbEntity
  8
1PHANTOM
 48
0.5
100
AcDbLine
 10
633.0163007438492
 20
-546.7286048790693
 30
0.0
 11
633.0163007438492
 21
-544.7286048790698
 31
0.0
  0
LINE
  5
208DC
330
18
100
AcDbEntity
  8
1PHANTOM
 48
0.5
100
AcDbLine
 10
631.5163007438492
 20
-548.2286048790698
 30
0.0
 11
633.0163007438492
 21
-546.7286048790698
 31
0.0
  0
LINE
  5
2094D
330
18
100
AcDbEntity
  8
1CENTER
100
AcDbLine
 10
38.69723336630887
 20
-655.8213303512645
 30
0.0
 11
-20.92872791154878
 21
-655.8213303512644
 31
0.0
  0
LINE
  5
2094E
330
18
100
AcDbEntity
  8
1CENTER
100
AcDbLine
 10
9.516241615363924
 20
-686.2662998781786
 30
0.0
 11
9.516241615363924
 21
-625.3763608243532
 31
0.0
  0
LINE
  5
20951
330
18
100
AcDbEntity
  8
01
100
AcDbLine
 10
14.01624161536711
 20
-701.1713303961357
 30
0.0
 11
14.01624161536756
 21
-690.8213303512646
 31
0.0
  0
LINE
  5
20952
330
18
100
AcDbEntity
  8
01
100
AcDbLine
 10
14.01624161536711
 20
-690.8213303512646
 30
0.0
 11
14.01624161536665
 21
-652.3213303512664
 31
0.0
  0
ARC
  5
20953
330
18
100
AcDbEntity
  8
01
100
AcDbCircle
 10
15.51624161536756
 20
-680.3213303063865
 30
0.0
 40
1.5
100
AcDbArc
 50
180.0
 51
270.0
  0
ARC
  5
20954
330
18
100
AcDbEntity
  8
01
100
AcDbCircle
 10
13.01624161536711
 20
-652.3213303512664
 30
0.0
 40
1.0
100
AcDbArc
 50
0.000000000000007
 51
90.0
  0
LINE
  5
20955
330
18
100
AcDbEntity
  8
01
100
AcDbLine
 10
5.016241615365288
 20
-701.3213303961354
 30
0.0
 11
5.016241615367107
 21
-652.3213303512664
 31
0.0
  0
ARC
  5
20956
330
18
100
AcDbEntity
  8
01
100
AcDbCircle
 10
6.016241615367107
 20
-652.3213303512664
 30
0.0
 40
1.0
100
AcDbArc
 50
90.0
 51
180.0
  0
LINE
  5
20957
330
18
100
AcDbEntity
  8
1CENTER
100
AcDbLine
 10
39.96121114227662
 20
-655.8213303512655
 30
0.0
 11
-20.92872791154878
 21
-655.8213303512663
 31
0.0
  0
LINE
  5
20958
330
18
100
AcDbEntity
  8
01
100
AcDbLine
 10
13.01624161536711
 20
-651.3213303512664
 30
0.0
 11
6.016241615367107
 21
-651.3213303512664
 31
0.0
  0
ARC
  5
20959
330
18
100
AcDbEntity
  8
01
100
AcDbCircle
 10
9.516241615367107
 20
-655.8213303512664
 30
0.0
 40
10.0
100
AcDbArc
 50
296.7436839503914
 51
243.2563160495794
  0
LINE
  5
2095A
330
18
100
AcDbEntity
  8
01
100
AcDbLine
 10
13.01624161536711
 20
-703.8213303512663
 30
0.0
 11
6.016241615366652
 21
-703.8213303512663
 31
0.0
  0
ARC
  5
2095B
330
18
100
AcDbEntity
  8
01
100
AcDbCircle
 10
6.016241615366652
 20
-702.8213303512663
 30
0.0
 40
1.0
100
AcDbArc
 50
180.0
 51
270.0
  0
ARC
  5
2095C
330
18
100
AcDbEntity
  8
01
100
AcDbCircle
 10
13.01624161536711
 20
-702.8213303512663
 30
0.0
 40
1.0
100
AcDbArc
 50
270.0
 51
0.000000000000007
  0
LINE
  5
2095D
330
18
100
AcDbEntity
  8
01
100
AcDbLine
 10
19.51624161536711
 20
-698.8213303961363
 30
0.0
 11
19.51624161536711
 21
-682.8213303063864
 31
0.0
  0
ARC
  5
2095E
330
18
100
AcDbEntity
  8
01
100
AcDbCircle
 10
18.51624161536711
 20
-682.8213303063864
 30
0.0
 40
1.0
100
AcDbArc
 50
0.000000000000007
 51
90.0
  0
LINE
  5
2095F
330
18
100
AcDbEntity
  8
01
100
AcDbLine
 10
0.4388579046994892
 20
-681.8213303063846
 30
0.0
 11
3.516241615365743
 21
-681.8213303063864
 31
0.0
  0
ARC
  5
20960
330
18
100
AcDbEntity
  8
01
100
AcDbCircle
 10
3.516241615366652
 20
-680.3213303063865
 30
0.0
 40
1.5
100
AcDbArc
 50
269.9999999999739
 51
0.000000000000007
  0
LINE
  5
20961
330
18
100
AcDbEntity
  8
01
100
AcDbLine
 10
15.51624161536756
 20
-681.8213303063864
 30
0.0
 11
18.51624161536711
 21
-681.8213303063864
 31
0.0
  0
LINE
  5
20962
330
18
100
AcDbEntity
  8
01
100
AcDbLine
 10
-0.4837583846333473
 20
-699.8213303961381
 30
0.0
 11
0.4388579047008534
 21
-699.8213303961363
 31
0.0
  0
LINE
  5
20963
330
18
100
AcDbEntity
  8
01
100
AcDbLine
 10
0.4388579046999439
 20
-699.8213303961381
 30
0.0
 11
3.516241615365288
 21
-699.8213303961354
 31
0.0
  0
LINE
  5
20964
330
18
100
AcDbEntity
  8
01
100
AcDbLine
 10
15.51624161536756
 20
-699.8213303961354
 30
0.0
 11
18.51624161536711
 21
-699.8213303961363
 31
0.0
  0
ARC
  5
20965
330
18
100
AcDbEntity
  8
01
100
AcDbCircle
 10
15.51624161536711
 20
-701.3213303961354
 30
0.0
 40
1.5
100
AcDbArc
 50
89.99999999997395
 51
180.0
  0
ARC
  5
20966
330
18
100
AcDbEntity
  8
01
100
AcDbCircle
 10
18.51624161536711
 20
-698.8213303961363
 30
0.0
 40
1.0
100
AcDbArc
 50
270.0
 51
0.000000000000007
  0
LINE
  5
20967
330
18
100
AcDbEntity
  8
01
100
AcDbLine
 10
5.016241615366652
 20
-702.8213303512663
 30
0.0
 11
5.016241615366652
 21
-701.3213303961354
 31
0.0
  0
ARC
  5
20968
330
18
100
AcDbEntity
  8
01
100
AcDbCircle
 10
3.516241615366652
 20
-701.3213303961354
 30
0.0
 40
1.5
100
AcDbArc
 50
0.000000000000007
 51
90.00000000005213
  0
LINE
  5
20969
330
18
100
AcDbEntity
  8
01
100
AcDbLine
 10
14.01624161536711
 20
-701.3213303961354
 30
0.0
 11
14.01624161536711
 21
-702.8213303512663
 31
0.0
  0
ARC
  5
2096A
330
18
100
AcDbEntity
  8
01
100
AcDbCircle
 10
9.516241615363924
 20
-655.8213303512645
 30
0.0
 40
26.00000000000409
100
AcDbArc
 50
280.7280165874847
 51
259.2719834125153
  0
ARC
  5
2096B
330
18
100
AcDbEntity
  8
01
100
AcDbCircle
 10
-5.983758384633347
 20
-699.8213303961372
 30
0.0
 40
5.5
100
AcDbArc
 50
8.849883098457569
 51
117.5262036117232
  0
ARC
  5
2096C
330
18
100
AcDbEntity
  8
01
100
AcDbCircle
 10
-5.983758384633347
 20
-699.8213303961372
 30
0.0
 40
5.5
100
AcDbArc
 50
0.000000000000007
 51
8.849883098457569
  0
ARC
  5
2096D
330
18
100
AcDbEntity
  8
01
100
AcDbCircle
 10
0.4388579046990344
 20
-698.8213303961363
 30
0.0
 40
1.0
100
AcDbArc
 50
188.8498830984575
 51
270.000000000026
  0
ARC
  5
2096E
330
18
100
AcDbEntity
  8
01
100
AcDbCircle
 10
-5.983758384633347
 20
-681.8213303063855
 30
0.0
 40
5.5
100
AcDbArc
 50
242.4737963882731
 51
351.1501169015949
  0
ARC
  5
2096F
330
18
100
AcDbEntity
  8
01
100
AcDbCircle
 10
0.4388579046990344
 20
-682.8213303063855
 30
0.0
 40
1.0
100
AcDbArc
 50
89.99999999994789
 51
171.1501169015949
  0
LINE
  5
20970
330
18
100
AcDbEntity
  8
01
100
AcDbLine
 10
-0.4837583846333473
 20
-682.4356112601114
 30
0.0
 11
-0.4837583846338021
 21
-699.2070494424094
 31
0.0
  0
LINE
  5
20971
330
18
100
AcDbEntity
  8
01
100
AcDbLine
 10
-0.4837583846333473
 20
-699.2070494424104
 30
0.0
 11
-0.4837583846333473
 21
-699.8189208789433
 31
0.0
  0
LINE
  5
20972
330
18
100
AcDbEntity
  8
1CENTER
 48
0.3
100
AcDbLine
 10
12.44124161536138
 20
-670.82133035126
 30
0.0
 11
6.591241615361013
 21
-670.82133035126
 31
0.0
  0
LINE
  5
20973
330
18
100
AcDbEntity
  8
1CENTER
 48
0.3
100
AcDbLine
 10
12.44124161536138
 20
-640.8213303512727
 30
0.0
 11
6.591241615361013
 21
-640.8213303512727
 31
0.0
  0
ARC
  5
20974
330
18
100
AcDbEntity
  8
01
 48
0.5
100
AcDbCircle
 10
-20.48375838463744
 20
-690.82133035126
 30
0.0
 40
3.5
100
AcDbArc
 50
128.779963522385
 51
230.4831406204642
  0
ARC
  5
20975
330
18
100
AcDbEntity
  8
01
 48
0.5
100
AcDbCircle
 10
-14.53361163677255
 20
-698.2271222521221
 30
0.0
 40
13.0
100
AcDbArc
 50
62.47379638827316
 51
128.779963522385
  0
ARC
  5
20976
330
18
100
AcDbEntity
  8
01
 48
0.5
100
AcDbCircle
 10
-14.53361163677255
 20
-683.4155384503983
 30
0.0
 40
13.0
100
AcDbArc
 50
231.220036477615
 51
297.5262036117233
  0
CIRCLE
  5
20977
330
18
100
AcDbEntity
  8
1PHANTOM
 48
0.3
100
AcDbCircle
 10
9.516241615363924
 20
-670.82133035126
 30
0.0
 40
2.5
  0
CIRCLE
  5
20978
330
18
100
AcDbEntity
  8
1PHANTOM
 48
0.3
100
AcDbCircle
 10
9.516241615363924
 20
-640.8213303512727
 30
0.0
 40
2.5
  0
CIRCLE
  5
20979
330
18
100
AcDbEntity
  8
1PHANTOM
100
AcDbCircle
 10
9.516241615363924
 20
-655.8213303512659
 30
0.0
 40
23.50001259227565
  0
LINE
  5
2097A
330
18
100
AcDbEntity
  8
01
100
AcDbLine
 10
35.51624161536665
 20
-544.7286048790698
 30
0.0
 11
-16.48375838463698
 21
-544.7286048790698
 31
0.0
  0
LINE
  5
2097B
330
18
100
AcDbEntity
  8
01
100
AcDbLine
 10
35.51624161536665
 20
-548.2286048790698
 30
0.0
 11
-16.48375838463698
 21
-548.2286048790698
 31
0.0
  0
LINE
  5
2097C
330
18
100
AcDbEntity
  8
01
100
AcDbLine
 10
35.51624161536665
 20
-548.2286048790698
 30
0.0
 11
-16.48375838463698
 21
-548.2286048790698
 31
0.0
  0
LINE
  5
2097D
330
18
100
AcDbEntity
  8
1HATCH
100
AcDbLine
 10
9.516241615364378
 20
-583.2018804537664
 30
0.0
 11
9.506638761705744
 21
-583.1922776001078
 31
0.0
1001
GradientColor1ACI
1070
     5
1001
GradientColor2ACI
1070
     2
1001
ACAD
1010
0.0
1020
0.0
1030
0.0
  0
LINE
  5
2097E
330
18
100
AcDbEntity
  8
01
100
AcDbLine
 10
-16.48375838463698
 20
-547.9638916143509
 30
0.0000005066221534
 11
-16.48375838463698
 21
-544.7286048790698
 31
0.0
  0
ARC
  5
2097F
330
18
100
AcDbEntity
  8
01
100
AcDbCircle
 10
4.438846852442566
 20
-536.4708589176476
 30
0.0000005066221534
 40
24.0
100
AcDbArc
 50
209.979960584782
 51
239.3182742563955
  0
ARC
  5
20980
330
18
100
AcDbEntity
  8
01
100
AcDbCircle
 10
-15.48375838463698
 20
-547.9638916143509
 30
0.0000005066221534
 40
1.0
100
AcDbArc
 50
180.0
 51
209.9799605848345
  0
ARC
  5
20981
330
18
100
AcDbEntity
  8
01
100
AcDbCircle
 10
14.59363637828528
 20
-536.4708589176476
 30
0.0000005066221534
 40
24.0
100
AcDbArc
 50
300.7388437768958
 51
330.020039415218
  0
ARC
  5
20982
330
18
100
AcDbEntity
  8
01
100
AcDbCircle
 10
34.51624161536666
 20
-547.9638916143472
 30
0.0000005066221534
 40
1.0
100
AcDbArc
 50
330.020039415218
 51
0.0
  0
LINE
  5
20983
330
18
100
AcDbEntity
  8
01
100
AcDbLine
 10
35.51624161536665
 20
-544.7286048790698
 30
0.0
 11
35.51624161536665
 21
-547.9638916143472
 31
0.0000005066221534
  0
LINE
  5
20984
330
18
100
AcDbEntity
  8
1CENTER
100
AcDbLine
 10
9.516241615363924
 20
-569.7286048790662
 30
0.0
 11
9.516241615363924
 21
-511.130317921876
 31
0.0
  0
ARC
  5
20985
330
18
100
AcDbEntity
  8
01
100
AcDbCircle
 10
-14.47280548819481
 20
-568.2725790873315
 30
0.0000005066221534
 40
13.0
100
AcDbArc
 50
4.071399878545925
 51
59.26115622310423
  0
ARC
  5
20986
330
18
100
AcDbEntity
  8
01
100
AcDbCircle
 10
-0.5081366192948736
 20
-567.2785854344434
 30
0.0000005066221534
 40
1.0
100
AcDbArc
 50
184.0713998785459
 51
228.0646320399602
  0
ARC
  5
20987
330
18
100
AcDbEntity
  8
01
100
AcDbCircle
 10
33.50528871892266
 20
-568.2725790873315
 30
0.0000005066221534
 40
13.0
100
AcDbArc
 50
120.7388437768958
 51
175.928600121454
  0
ARC
  5
20988
330
18
100
AcDbEntity
  8
01
100
AcDbCircle
 10
19.54061985002272
 20
-567.2785854344434
 30
0.0000005066221534
 40
1.0
100
AcDbArc
 50
311.935367960042
 51
355.928600121454
  0
ARC
  5
20989
330
18
100
AcDbEntity
  8
01
100
AcDbCircle
 10
9.51624161538939
 20
-556.120098036547
 30
0.0
 40
16.0
100
AcDbArc
 50
291.168448845761
 51
311.935367960042
  0
ARC
  5
2098A
330
18
100
AcDbEntity
  8
01
100
AcDbCircle
 10
16.01624161536665
 20
-572.9055083681502
 30
0.0
 40
2.0
100
AcDbArc
 50
111.168448845761
 51
180.0
  0
ARC
  5
2098B
330
18
100
AcDbEntity
  8
01
100
AcDbCircle
 10
9.516241615338458
 20
-556.120098036547
 30
0.0
 40
16.0
100
AcDbArc
 50
228.0646320399602
 51
248.8315511542669
  0
ARC
  5
2098C
330
18
100
AcDbEntity
  8
01
100
AcDbCircle
 10
3.016241615363469
 20
-572.9055083681511
 30
0.0
 40
2.0
100
AcDbArc
 50
0.0
 51
68.83155115423895
  0
LINE
  5
2098D
330
18
100
AcDbEntity
  8
01
100
AcDbLine
 10
14.01624161536403
 20
-614.7286048790718
 30
0.0
 11
14.01624161536711
 21
-572.9055083681502
 31
0.0
  0
ARC
  5
2098E
330
18
100
AcDbEntity
  8
01
100
AcDbCircle
 10
15.51624161536438
 20
-592.2286048341917
 30
0.0
 40
1.5
100
AcDbArc
 50
180.0
 51
270.0
  0
LINE
  5
2098F
330
18
100
AcDbEntity
  8
01
100
AcDbLine
 10
13.01624161536392
 20
-615.7286048790716
 30
0.0
 11
6.016241615363469
 21
-615.7286048790716
 31
0.0
  0
ARC
  5
20990
330
18
100
AcDbEntity
  8
01
100
AcDbCircle
 10
6.016241615363469
 20
-614.7286048790716
 30
0.0
 40
1.0
100
AcDbArc
 50
180.0
 51
270.0
  0
ARC
  5
20991
330
18
100
AcDbEntity
  8
01
100
AcDbCircle
 10
13.01624161536392
 20
-614.7286048790716
 30
0.0
 40
1.0
100
AcDbArc
 50
270.0
 51
0.0
  0
LINE
  5
20992
330
18
100
AcDbEntity
  8
01
100
AcDbLine
 10
19.51624161536972
 20
-610.7286049239416
 30
0.0
 11
19.51624161536392
 21
-594.7286048341917
 31
0.0
  0
ARC
  5
20993
330
18
100
AcDbEntity
  8
01
100
AcDbCircle
 10
18.51624161536392
 20
-594.7286048341917
 30
0.0
 40
1.0
100
AcDbArc
 50
0.0
 51
90.0
  0
LINE
  5
20994
330
18
100
AcDbEntity
  8
01
100
AcDbLine
 10
0.4388579046964481
 20
-593.7286048341899
 30
0.0
 11
3.516241615362559
 21
-593.7286048341917
 31
0.0
  0
ARC
  5
20995
330
18
100
AcDbEntity
  8
01
100
AcDbCircle
 10
3.516241615363469
 20
-592.2286048341917
 30
0.0
 40
1.5
100
AcDbArc
 50
269.9999999999739
 51
0.0
  0
LINE
  5
20996
330
18
100
AcDbEntity
  8
01
100
AcDbLine
 10
15.51624161536438
 20
-593.7286048341917
 30
0.0
 11
18.51624161536392
 21
-593.7286048341917
 31
0.0
  0
LINE
  5
20997
330
18
100
AcDbEntity
  8
01
100
AcDbLine
 10
0.4388579046967607
 20
-611.7286049239433
 30
0.0
 11
3.516241615362105
 21
-611.7286049239407
 31
0.0
  0
LINE
  5
20998
330
18
100
AcDbEntity
  8
01
100
AcDbLine
 10
15.51624161536438
 20
-611.7286049239407
 30
0.0
 11
18.51624161536392
 21
-611.7286049239416
 31
0.0
  0
ARC
  5
20999
330
18
100
AcDbEntity
  8
01
100
AcDbCircle
 10
15.51624161536392
 20
-613.2286049239406
 30
0.0
 40
1.5
100
AcDbArc
 50
89.99999999997395
 51
180.0
  0
ARC
  5
2099A
330
18
100
AcDbEntity
  8
01
100
AcDbCircle
 10
18.51624161536392
 20
-610.7286049239416
 30
0.0
 40
1.0
100
AcDbArc
 50
270.0
 51
0.0
  0
LINE
  5
2099B
330
18
100
AcDbEntity
  8
01
100
AcDbLine
 10
5.016241615364378
 20
-614.7286048790716
 30
0.0
 11
5.016241615363469
 21
-572.9055083681511
 31
0.0
  0
ARC
  5
2099C
330
18
100
AcDbEntity
  8
01
100
AcDbCircle
 10
3.516241615363469
 20
-613.2286049239406
 30
0.0
 40
1.5
100
AcDbArc
 50
0.0
 51
90.00000000005213
  0
ARC
  5
2099D
330
18
100
AcDbEntity
  8
01
100
AcDbCircle
 10
-5.98375838463653
 20
-611.7286049239424
 30
0.0
 40
5.5
100
AcDbArc
 50
8.849883098457574
 51
117.5262036117233
  0
ARC
  5
2099E
330
18
100
AcDbEntity
  8
01
100
AcDbCircle
 10
0.4388579046958512
 20
-610.7286049239416
 30
0.0
 40
1.0
100
AcDbArc
 50
188.8498830984575
 51
270.000000000026
  0
ARC
  5
2099F
330
18
100
AcDbEntity
  8
01
100
AcDbCircle
 10
-5.98375838463653
 20
-593.7286048341908
 30
0.0
 40
5.5
100
AcDbArc
 50
242.473796388286
 51
351.15011690157
  0
ARC
  5
209A0
330
18
100
AcDbEntity
  8
01
100
AcDbCircle
 10
0.4388579046958512
 20
-594.7286048341908
 30
0.0
 40
1.0
100
AcDbArc
 50
89.99999999994789
 51
171.1501169015949
  0
LINE
  5
209AE
330
18
100
AcDbEntity
  8
01
100
AcDbLine
 10
20.51624161541395
 20
-567.7390480751466
 30
0.0
 11
-1.483758384613338
 21
-567.739048075167
 31
0.0
  0
LINE
  5
209AF
330
18
100
AcDbEntity
  8
01
100
AcDbLine
 10
13.98957117233794
 20
-571.4820420110227
 30
0.0
 11
5.634626403277707
 21
-571.4820420110227
 31
0.0
  0
LINE
  5
209F0
330
18
100
AcDbEntity
  8
01
100
AcDbLine
 10
-0.6043743220470788
 20
-548.2286048790698
 30
0.0
 11
19.63685755277493
 21
-548.2286048790698
 31
0.0
  0
ARC
  5
209F1
330
18
100
AcDbEntity
  8
01
 48
0.5
100
AcDbCircle
 10
-20.48375838463835
 20
-602.7286048790698
 30
0.0
 40
3.5
100
AcDbArc
 50
128.779963522385
 51
230.4831406204642
  0
ARC
  5
209F2
330
18
100
AcDbEntity
  8
01
 48
0.5
100
AcDbCircle
 10
-14.53361163677346
 20
-610.1343967799319
 30
0.0
 40
13.0
100
AcDbArc
 50
62.47379638828599
 51
128.779963522385
  0
ARC
  5
209F3
330
18
100
AcDbEntity
  8
01
 48
0.5
100
AcDbCircle
 10
-14.53361163677346
 20
-595.3228129782082
 30
0.0
 40
13.0
100
AcDbArc
 50
231.220036477615
 51
297.5262036117233
  0
LINE
  5
209F4
330
18
100
AcDbEntity
  8
1PHANTOM
 48
0.5
100
AcDbLine
 10
33.01618248688408
 20
-546.7286048790698
 30
0.0
 11
33.01618248688499
 21
-544.7286048790698
 31
0.0
  0
LINE
  5
209F5
330
18
100
AcDbEntity
  8
1PHANTOM
 48
0.5
100
AcDbLine
 10
13.76618248688499
 20
-567.7286048790693
 30
0.0
 11
13.76618248688499
 21
-550.2286048790698
 31
0.0
  0
LINE
  5
209F6
330
18
100
AcDbEntity
  8
1PHANTOM
 48
0.5
100
AcDbLine
 10
6.266207671418101
 20
-568.7286048790694
 30
0.0
 11
12.76618248688498
 21
-568.7286048790694
 31
0.0
  0
LINE
  5
209F7
330
18
100
AcDbEntity
  8
1PHANTOM
 48
0.5
100
AcDbLine
 10
-12.48381751312138
 20
-548.2286048790698
 30
0.0
 11
3.26618248687771
 21
-548.2286048790698
 31
0.0
  0
LINE
  5
209F8
330
18
100
AcDbEntity
  8
1PHANTOM
 48
0.5
100
AcDbLine
 10
15.76618248688498
 20
-548.2286048790698
 30
0.0
 11
31.51618248688408
 21
-548.2286048790698
 31
0.0
  0
LINE
  5
209F9
330
18
100
AcDbEntity
  8
1PHANTOM
 48
0.5
100
AcDbLine
 10
5.26619138372132
 20
-567.7286048790689
 30
0.0
 11
5.26590634684851
 21
-550.2283287390397
 31
0.0
  0
LINE
  5
209FA
330
18
100
AcDbEntity
  8
1PHANTOM
 48
0.5
100
AcDbLine
 10
33.01618248688408
 20
-546.7286048790698
 30
0.0
 11
31.51618248688408
 21
-548.2286048790698
 31
0.0
  0
LINE
  5
209FB
330
18
100
AcDbEntity
  8
1PHANTOM
 48
0.5
100
AcDbLine
 10
15.76618248688498
 20
-548.2286048790698
 30
0.0
 11
13.76618248688499
 21
-550.2286048790698
 31
0.0
  0
LINE
  5
209FC
330
18
100
AcDbEntity
  8
1PHANTOM
 48
0.5
100
AcDbLine
 10
3.266182486878619
 20
-548.2286048790698
 30
0.0
 11
5.266182486878619
 21
-550.2286048790698
 31
0.0
  0
LINE
  5
209FD
330
18
100
AcDbEntity
  8
1PHANTOM
 48
0.5
100
AcDbLine
 10
13.76618248688499
 20
-567.7286048790693
 30
0.0
 11
12.76618248688498
 21
-568.7286048790694
 31
0.0
  0
LINE
  5
209FE
330
18
100
AcDbEntity
  8
1PHANTOM
 48
0.5
100
AcDbLine
 10
6.266207671418101
 20
-568.7286048790694
 30
0.0
 11
5.26619138372132
 21
-567.7286048790693
 31
0.0
  0
LINE
  5
209FF
330
18
100
AcDbEntity
  8
1PHANTOM
 48
0.5
100
AcDbLine
 10
-13.98381751312138
 20
-546.7286048790693
 30
0.0
 11
-13.98381751312138
 21
-544.7286048790698
 31
0.0
  0
LINE
  5
20A00
330
18
100
AcDbEntity
  8
1PHANTOM
 48
0.5
100
AcDbLine
 10
-12.48381751312138
 20
-548.2286048790698
 30
0.0
 11
-13.98381751312138
 21
-546.7286048790698
 31
0.0
  0
LINE
  5
20BF8
330
18
100
AcDbEntity
  8
01
100
AcDbLine
 10
720.0057984192882
 20
-644.8213303512172
 30
0.0
 11
720.0057984192677
 21
-666.8213303512446
 31
0.0
  0
LINE
  5
20BFA
330
18
100
AcDbEntity
  8
01
100
AcDbLine
 10
716.262804483412
 20
-651.3480007942932
 30
0.0
 11
716.262804483412
 21
-660.0668213483437
 31
0.0
  0
LINE
  5
20BFB
330
18
100
AcDbEntity
  8
1PHANTOM
 48
0.3
100
AcDbLine
 10
722.5161730991323
 20
-666.3213303512645
 30
-0.0000002533110767
 11
722.5161730991323
 21
-660.3213303512618
 31
-0.0000002533110767
  0
LINE
  5
20BFC
330
18
100
AcDbEntity
  8
1PHANTOM
 48
0.3
100
AcDbLine
 10
727.5161730991323
 20
-666.3213303512645
 30
-0.0000002533110767
 11
727.5161730991323
 21
-660.3213303512618
 31
-0.0000002533110767
  0
LINE
  5
20BFD
330
18
100
AcDbEntity
  8
01
 48
0.5
100
AcDbLine
 10
741.0162416153645
 20
-632.321222221265
 30
0.0
 11
743.0162416153645
 21
-632.3212222212646
 31
0.0
  0
LINE
  5
20BFE
330
18
100
AcDbEntity
  8
1PHANTOM
 48
0.5
100
AcDbLine
 10
720.0162416153645
 20
-651.5712222212646
 30
0.0
 11
737.5162416153645
 21
-651.5712222212646
 31
0.0
  0
LINE
  5
20BFF
330
18
100
AcDbEntity
  8
1PHANTOM
 48
0.5
100
AcDbLine
 10
719.0162416153644
 20
-659.0711970367315
 30
0.0
 11
719.0162416153644
 21
-652.5712222212641
 31
0.0
  0
LINE
  5
20C00
330
18
100
AcDbEntity
  8
1PHANTOM
 48
0.5
100
AcDbLine
 10
739.5162416153644
 20
-677.8212222212705
 30
0.0
 11
739.5162416153644
 21
-662.0712222212715
 31
0.0
  0
LINE
  5
20C01
330
18
100
AcDbEntity
  8
1PHANTOM
 48
0.5
100
AcDbLine
 10
720.0162416153645
 20
-660.0712133244278
 30
0.0
 11
721.2741339071937
 21
-660.071233812429
 31
0.0
  0
LINE
  5
20C02
330
18
100
AcDbEntity
  8
1PHANTOM
 48
0.5
100
AcDbLine
 10
729.0165589696954
 20
-660.0713599176757
 30
0.0
 11
737.5165177553945
 21
-660.0714983613011
 31
0.0
  0
LINE
  5
20C03
330
18
100
AcDbEntity
  8
01
 48
0.5
100
AcDbLine
 10
741.0162416153645
 20
-632.321222221265
 30
0.0
 11
739.5162416153644
 21
-633.8212222212651
 31
0.0
  0
LINE
  5
20C04
330
18
100
AcDbEntity
  8
1PHANTOM
 48
0.5
100
AcDbLine
 10
739.5162416153644
 20
-649.5712222212646
 30
0.0
 11
737.5162416153645
 21
-651.5712222212646
 31
0.0
  0
LINE
  5
20C05
330
18
100
AcDbEntity
  8
1PHANTOM
 48
0.5
100
AcDbLine
 10
739.5162416153644
 20
-662.0712222212709
 30
0.0
 11
737.5162416153645
 21
-660.071222221271
 31
0.0
  0
LINE
  5
20C06
330
18
100
AcDbEntity
  8
1PHANTOM
 48
0.5
100
AcDbLine
 10
720.0162416153645
 20
-651.5712222212646
 30
0.0
 11
719.0162416153644
 21
-652.5712222212646
 31
0.0
  0
LINE
  5
20C07
330
18
100
AcDbEntity
  8
1PHANTOM
 48
0.5
100
AcDbLine
 10
719.0162416153644
 20
-659.0711970367315
 30
0.0
 11
720.0162416153645
 21
-660.0712133244282
 31
0.0
  0
LINE
  5
20C08
330
18
100
AcDbEntity
  8
1PHANTOM
 48
0.5
100
AcDbLine
 10
741.0162416153645
 20
-679.321222221271
 30
0.0
 11
743.0162416153645
 21
-679.321222221271
 31
0.0
  0
LINE
  5
20C09
330
18
100
AcDbEntity
  8
1PHANTOM
 48
0.5
100
AcDbLine
 10
739.5162416153644
 20
-677.8212222212705
 30
0.0
 11
741.0162416153645
 21
-679.3212222212705
 31
0.0
  0
LINE
  5
20C0A
330
18
100
AcDbEntity
  8
1PHANTOM
 48
0.3
100
AcDbLine
 10
728.0163255921117
 20
-658.3213303512645
 30
0.0000002262497692
 11
722.0163255921116
 21
-658.3213303512645
 31
0.0000002262497692
  0
LINE
  5
20C0B
330
18
100
AcDbEntity
  8
1PHANTOM
 48
0.3
100
AcDbLine
 10
728.0162570758785
 20
-665.8213303512646
 30
-0.0000000270613075
 11
728.0162570758785
 21
-658.3213303512645
 31
-0.0000000270613075
  0
LINE
  5
20C0C
330
18
100
AcDbEntity
  8
1PHANTOM
 48
0.3
100
AcDbLine
 10
726.5163255921116
 20
-656.8213303512646
 30
0.0000002262497692
 11
728.0163255921117
 21
-658.3213303512645
 31
0.0000002262497692
  0
LINE
  5
20C0D
330
18
100
AcDbEntity
  8
1PHANTOM
 48
0.3
100
AcDbLine
 10
727.5162570758785
 20
-666.3213303512645
 30
-0.0000000270613075
 11
728.0162570758785
 21
-665.8213303512646
 31
-0.0000000270613075
  0
LINE
  5
20C0E
330
18
100
AcDbEntity
  8
1PHANTOM
 48
0.3
100
AcDbLine
 10
726.5163255921116
 20
-656.8213303512646
 30
0.0000002262497692
 11
723.5163255921117
 21
-656.8213303512646
 31
0.0000002262497692
  0
LINE
  5
20C0F
330
18
100
AcDbEntity
  8
1PHANTOM
 48
0.3
100
AcDbLine
 10
727.5162570758785
 20
-666.3213303512645
 30
-0.0000000270613075
 11
722.5162570758786
 21
-666.3213303512645
 31
-0.0000000270613075
  0
LINE
  5
20C10
330
18
100
AcDbEntity
  8
1PHANTOM
 48
0.3
100
AcDbLine
 10
723.5163255921117
 20
-656.8213303512646
 30
0.0000002262497692
 11
722.0163255921116
 21
-658.3213303512645
 31
0.0000002262497692
  0
LINE
  5
20C11
330
18
100
AcDbEntity
  8
1PHANTOM
 48
0.3
100
AcDbLine
 10
722.0162570758786
 20
-665.8213303512646
 30
-0.0000000270613075
 11
722.5162570758786
 21
-666.3213303512645
 31
-0.0000000270613075
  0
LINE
  5
20C12
330
18
100
AcDbEntity
  8
1PHANTOM
 48
0.3
100
AcDbLine
 10
722.0162570758786
 20
-665.8213303512646
 30
-0.0000000270613075
 11
722.0163255921116
 21
-658.3213303512645
 31
0.0000002262497692
  0
LINE
  5
20C13
330
18
100
AcDbEntity
  8
1PHANTOM
 48
0.3
100
AcDbLine
 10
728.0162570758785
 20
-665.8213303512646
 30
-0.0000000270613075
 11
722.0162570758786
 21
-665.8213303512646
 31
-0.0000000270613075
  0
LINE
  5
20C14
330
18
100
AcDbEntity
  8
1PHANTOM
 48
0.3
100
AcDbLine
 10
722.5162570758786
 20
-666.3213303512645
 30
-0.0000000270613075
 11
722.5162570758786
 21
-657.8213988674967
 31
-0.0000000270613075
  0
LINE
  5
20C15
330
18
100
AcDbEntity
  8
1PHANTOM
 48
0.3
100
AcDbLine
 10
727.5162570758785
 20
-666.3213303512645
 30
-0.0000000270613075
 11
727.5162570758785
 21
-657.8212618350305
 31
-0.0000000270613075
  0
LINE
  5
20C16
330
18
100
AcDbEntity
  8
1PHANTOM
100
AcDbLine
 10
721.0162660459147
 20
-658.5713866048847
 30
0.0
 11
721.0162660467105
 21
-658.5713377421896
 31
0.0
  0
LINE
  5
20C17
330
18
100
AcDbEntity
  8
1PHANTOM
 48
0.5
100
AcDbLine
 10
729.0165589696954
 20
-660.0713599176757
 30
0.0
 11
729.0164504097902
 21
-658.5711931321664
 31
0.0
  0
LINE
  5
20C18
330
18
100
AcDbEntity
  8
1PHANTOM
 48
0.5
100
AcDbLine
 10
729.0164504187015
 20
-658.3212889845845
 30
0.0
 11
729.0164504071591
 21
-658.3211029027925
 31
0.0
  0
LINE
  5
20C19
330
18
100
AcDbEntity
  8
1PHANTOM
 48
0.5
100
AcDbLine
 10
729.0165434674873
 20
-660.0714680474209
 30
0.0
 11
729.0164504071582
 21
-658.5711547791724
 31
0.0
  0
LINE
  5
20C1A
330
18
100
AcDbEntity
  8
1PHANTOM
 48
0.5
100
AcDbLine
 10
723.8949976373588
 20
-656.4501528447972
 30
0.0
 11
721.2741339071937
 21
-659.071341942293
 31
0.0
  0
LINE
  5
20C1B
330
18
100
AcDbEntity
  8
1PHANTOM
 48
0.5
100
AcDbLine
 10
729.0165434674873
 20
-660.0714680474209
 30
0.0
 11
729.0164504071591
 21
-658.5711547791724
 31
0.0
  0
LINE
  5
20C1C
330
18
100
AcDbEntity
  8
1PHANTOM
 48
0.5
100
AcDbLine
 10
723.8949976373588
 20
-656.4501528447972
 30
0.0
 11
721.2741339071937
 21
-659.0713419422943
 31
0.0
  0
ARC
  5
20C1D
330
18
100
AcDbEntity
  8
1PHANTOM
 48
0.5
100
AcDbCircle
 10
726.0164504129298
 20
-658.5713408609653
 30
0.0
 40
2.999999999999999
100
AcDbArc
 50
0.0026206917279743
 51
135.0035739837078
  0
LINE
  5
20C1E
330
18
100
AcDbEntity
  8
1PHANTOM
 48
0.5
100
AcDbLine
 10
721.2741339071937
 20
-659.071341942294
 30
0.0
 11
721.2741339071937
 21
-660.071233812429
 31
0.0
  0
LINE
  5
20C1F
330
18
100
AcDbEntity
  8
1PHANTOM
 48
0.3
100
AcDbLine
 10
724.4075443085022
 20
-658.3212889845947
 30
0.0
 11
727.750941194764
 21
-658.3212889845947
 31
0.0
  0
LINE
  5
20C21
330
18
100
AcDbEntity
  8
1PHANTOM
 48
0.5
100
AcDbLine
 10
739.5162416153644
 20
-633.8214384812586
 30
0.0
 11
739.5162416153644
 21
-649.5714384812576
 31
0.0
  0
LINE
  5
20C22
330
18
100
AcDbEntity
  8
01
100
AcDbLine
 10
739.5162416153685
 20
-629.8213303512645
 30
0.0
 11
739.5162416153653
 21
-681.8213303512682
 31
0.0
  0
CIRCLE
  5
20C25
330
18
100
AcDbEntity
  8
01
100
AcDbCircle
 10
685.0162416153649
 20
-690.8213303512527
 30
0.0
 40
9.000000044875378
  0
CIRCLE
  5
20C26
330
18
100
AcDbEntity
  8
01
100
AcDbCircle
 10
685.0162416153649
 20
-690.8213303512527
 30
0.0
 40
5.594208099137858
  0
LINE
  5
20D5E
102
{ACAD_REACTORS
330
20D64
102
}
330
18
100
AcDbEntity
  8
1PHANTOM
100
AcDbLine
 10
10.01624146846825
 20
-547.7286048790699
 30
0.0
 11
9.016241768468262
 21
-546.72860487907
 31
0.0
  0
LINE
  5
20D5F
102
{ACAD_REACTORS
330
20D64
102
}
330
18
100
AcDbEntity
  8
1PHANTOM
100
AcDbLine
 10
13.31624161846821
 20
-547.7286048790699
 30
0.0
 11
13.31624161846821
 21
-546.72860487907
 31
0.0
  0
LINE
  5
20D60
102
{ACAD_REACTORS
330
20D64
102
}
330
18
100
AcDbEntity
  8
1PHANTOM
100
AcDbLine
 10
13.31624161846821
 20
-546.72860487907
 30
0.0
 11
5.716241618468302
 21
-546.72860487907
 31
0.0
  0
LINE
  5
20D61
102
{ACAD_REACTORS
330
20D64
102
}
330
18
100
AcDbEntity
  8
1PHANTOM
100
AcDbLine
 10
13.31624161846821
 20
-547.7286048790699
 30
0.0
 11
5.716241618468302
 21
-547.7286048790699
 31
0.0
  0
LINE
  5
20D62
102
{ACAD_REACTORS
330
20D64
102
}
330
18
100
AcDbEntity
  8
1PHANTOM
100
AcDbLine
 10
5.716241618468302
 20
-547.7286048790699
 30
0.0
 11
5.716241618468302
 21
-546.72860487907
 31
0.0
  0
LINE
  5
20D69
102
{ACAD_REACTORS
330
20D6F
102
}
330
18
100
AcDbEntity
  8
1PHANTOM
100
AcDbLine
 10
610.0162414684682
 20
-547.7286048790699
 30
0.0
 11
609.0162417684682
 21
-546.72860487907
 31
0.0
  0
LINE
  5
20D6A
102
{ACAD_REACTORS
330
20D6F
102
}
330
18
100
AcDbEntity
  8
1PHANTOM
100
AcDbLine
 10
613.3162416184681
 20
-547.7286048790699
 30
0.0
 11
613.3162416184681
 21
-546.72860487907
 31
0.0
  0
LINE
  5
20D6B
102
{ACAD_REACTORS
330
20D6F
102
}
330
18
100
AcDbEntity
  8
1PHANTOM
100
AcDbLine
 10
613.3162416184681
 20
-546.72860487907
 30
0.0
 11
605.7162416184683
 21
-546.72860487907
 31
0.0
  0
LINE
  5
20D6C
102
{ACAD_REACTORS
330
20D6F
102
}
330
18
100
AcDbEntity
  8
1PHANTOM
100
AcDbLine
 10
613.3162416184681
 20
-547.7286048790699
 30
0.0
 11
605.7162416184683
 21
-547.7286048790699
 31
0.0
  0
LINE
  5
20D6D
102
{ACAD_REACTORS
330
20D6F
102
}
330
18
100
AcDbEntity
  8
1PHANTOM
100
AcDbLine
 10
605.7162416184683
 20
-547.7286048790699
 30
0.0
 11
605.7162416184683
 21
-546.72860487907
 31
0.0
  0
LINE
  5
20DA2
330
18
100
AcDbEntity
  8
01
100
AcDbLine
 10
-0.4837583846365306
 20
-594.3428857879167
 30
0.0
 11
-0.4837583846365306
 21
-611.1143239702157
 31
0.0
  0
ARC
  5
20DA3
330
18
100
AcDbEntity
  8
01
100
AcDbCircle
 10
618.5936253260288
 20
-698.8213303961363
 30
0.0
 40
1.0
100
AcDbArc
 50
269.9999999998827
 51
351.1501169015617
  0
LINE
  5
20DA4
330
18
100
AcDbEntity
  8
01
100
AcDbLine
 10
619.5162416153591
 20
-594.3428857879212
 30
0.0
 11
619.5162416153595
 21
-611.1143239702193
 31
0.0
  0
TEXT
  5
20F1A
330
18
100
AcDbEntity
  8
1TEXT
100
AcDbText
 10
513.3706615454181
 20
-468.025441490976
 30
0.0
 40
8.0
  1
SC-771-XXL
100
AcDbText
  0
TEXT
  5
20F1B
330
18
100
AcDbEntity
  8
1TEXT
100
AcDbText
 10
521.7039948787511
 20
-478.525441490976
 30
0.0
 40
4.0
  1
表面処理
 72
     1
 11
530.7706615454178
 21
-478.525441490976
 31
0.0
100
AcDbText
  0
LINE
  5
20F1D
330
18
100
AcDbEntity
  8
1DIM
100
AcDbLine
 10
513.3706615454181
 20
-473.025441490976
 30
0.0
 11
583.3706615454182
 21
-473.025441490976
 31
0.0
  0
LINE
  5
20F1E
330
18
100
AcDbEntity
  8
1DIM
100
AcDbLine
 10
513.3706615454181
 20
-487.025441490976
 30
0.0
 11
583.3706615454182
 21
-487.025441490976
 31
0.0
  0
LINE
  5
20F1F
330
18
100
AcDbEntity
  8
1DIM
100
AcDbLine
 10
513.3706615454181
 20
-480.025441490976
 30
0.0
 11
583.3706615454182
 21
-480.025441490976
 31
0.0
  0
LINE
  5
20F22
330
18
100
AcDbEntity
  8
1DIM
100
AcDbLine
 10
548.3706615454182
 20
-473.025441490976
 30
0.0
 11
548.3706615454182
 21
-487.025441490976
 31
0.0
  0
TEXT
  5
20F24
330
18
100
AcDbEntity
  8
1TEXT
100
AcDbText
 10
558.9706615454178
 20
-478.525441490976
 30
0.0
 40
4.0
  1
コード
 72
     1
 11
565.7706615454178
 21
-478.525441490976
 31
0.0
100
AcDbText
  0
LINE
  5
20F25
330
18
100
AcDbEntity
  8
1DIM
100
AcDbLine
 10
513.3706615454181
 20
-487.025441490976
 30
0.0
 11
513.3706615454181
 21
-473.025441490976
 31
0.0
  0
LINE
  5
20F26
330
18
100
AcDbEntity
  8
1DIM
100
AcDbLine
 10
583.3706615454182
 20
-487.025441490976
 30
0.0
 11
583.3706615454182
 21
-473.025441490976
 31
0.0
  0
TEXT
  5
20F27
330
18
100
AcDbEntity
  8
1TEXT
100
AcDbText
 10
551.5373282120854
 20
-485.7397984746254
 30
0.0
 40
4.0
  1
SC-771-038L
 41
0.7
 72
     1
 11
565.7706615454187
 21
-485.7397984746254
 31
0.0
100
AcDbText
  0
TEXT
  5
20F2A
330
18
100
AcDbEntity
  8
1TEXT
100
AcDbText
 10
515.8373282120845
 20
-485.3607301505004
 30
0.0
 40
4.0
  1
アイアンブラック
 41
0.8
 72
     1
 11
530.7706615454178
 21
-485.3607301505004
 31
0.0
100
AcDbText
  0
LINE
  5
212FC
330
18
100
AcDbEntity
  8
1PHANTOM
 48
0.5
100
AcDbLine
 10
775.0162416152026
 20
-640.8213768871706
 30
0.0
 11
769.7162451053409
 21
-639.3213768871707
 31
0.0
  0
LINE
  5
212FD
330
18
100
AcDbEntity
  8
1PHANTOM
 48
0.5
100
AcDbLine
 10
769.7162451053409
 20
-639.3213768871707
 30
0.0
 11
740.016245105449
 21
-639.3213768871709
 31
0.0
  0
LINE
  5
212FE
330
18
100
AcDbEntity
  8
1PHANTOM
 48
0.5
100
AcDbLine
 10
775.0162416152026
 20
-640.8213768871706
 30
0.0
 11
769.7162381249572
 21
-642.3213768871708
 31
0.0
  0
LINE
  5
212FF
330
18
100
AcDbEntity
  8
1PHANTOM
 48
0.5
100
AcDbLine
 10
740.0162497591471
 20
-637.3213303512728
 30
0.0
 11
740.0162334715827
 21
-644.3213303512727
 31
0.0
  0
LINE
  5
21300
330
18
100
AcDbEntity
  8
1PHANTOM
 48
0.5
100
AcDbLine
 10
769.7162381249572
 20
-642.3213768871708
 30
0.0
 11
740.0162381250643
 21
-642.3213768871709
 31
0.0
  0
LINE
  5
21301
330
18
100
AcDbEntity
  8
1PHANTOM
 48
0.5
100
AcDbLine
 10
740.0162497591471
 20
-637.3213303512728
 30
0.0
 11
738.9162462689518
 21
-637.3213303512727
 31
0.0
  0
ARC
  5
21302
330
18
100
AcDbEntity
  8
1PHANTOM
 48
0.5
100
AcDbCircle
 10
738.9162462689518
 20
-638.8213303512728
 30
0.0
 40
1.5
100
AcDbArc
 50
90.0
 51
179.9998666844684
  0
LINE
  5
21303
330
18
100
AcDbEntity
  8
1PHANTOM
 48
0.5
100
AcDbLine
 10
740.0162334715827
 20
-644.3213303512727
 30
0.0
 11
738.9162369617721
 21
-644.3213303512727
 31
0.0
  0
LINE
  5
21304
330
18
100
AcDbEntity
  8
1PHANTOM
 48
0.5
100
AcDbLine
 10
737.4162462689558
 20
-638.8213268610804
 30
0.0
 11
737.4162369617762
 21
-642.8213268610804
 31
0.0
  0
ARC
  5
21305
330
18
100
AcDbEntity
  8
1PHANTOM
 48
0.5
100
AcDbCircle
 10
738.9162369617721
 20
-642.8213303512727
 30
0.0
 40
1.5
100
AcDbArc
 50
179.9998666844684
 51
270.0
  0
LINE
  5
21306
330
18
100
AcDbEntity
  8
1CENTER
100
AcDbLine
 10
776.447036532668
 20
-640.8213303512727
 30
0.0
 11
736.3459652060561
 21
-640.8213303512727
 31
0.0
  0
LINE
  5
21307
330
18
100
AcDbEntity
  8
1PHANTOM
 48
0.5
100
AcDbLine
 10
772.9162441615248
 20
-639.7270065372777
 30
0.0
 11
773.7162395955757
 21
-641.689341626153
 31
0.0
  0
LINE
  5
21308
330
18
100
AcDbEntity
  8
1PHANTOM
 48
0.5
100
AcDbLine
 10
773.7162395955757
 20
-641.689341626153
 30
0.0
 11
774.0280094518278
 21
-641.1010650511107
 31
0.0
  0
LINE
  5
21309
330
18
100
AcDbEntity
  8
1PHANTOM
 48
0.5
100
AcDbLine
 10
750.5162462687348
 20
-638.8213768871707
 30
0.0
 11
751.316236961553
 21
-642.8213768871707
 31
0.0
  0
LINE
  5
2130A
330
18
100
AcDbEntity
  8
1PHANTOM
 48
0.5
100
AcDbLine
 10
761.7162462687391
 20
-638.8213768871707
 30
0.0
 11
762.5162369615617
 21
-642.8213768871707
 31
0.0
  0
LINE
  5
2130B
330
18
100
AcDbEntity
  8
1PHANTOM
 48
0.5
100
AcDbLine
 10
764.9162462687391
 20
-638.8213768871707
 30
0.0
 11
765.7162369615617
 21
-642.8213768871707
 31
0.0
  0
LINE
  5
2130C
330
18
100
AcDbEntity
  8
1PHANTOM
 48
0.5
100
AcDbLine
 10
765.7162369615617
 20
-642.8213768871707
 30
0.0
 11
765.816238124959
 21
-642.3213768871707
 31
0.0
  0
LINE
  5
2130D
330
18
100
AcDbEntity
  8
1PHANTOM
 48
0.5
100
AcDbLine
 10
766.416245105342
 20
-639.3213768871707
 30
0.0
 11
766.5162462687391
 21
-638.8213768871707
 31
0.0
  0
LINE
  5
2130E
330
18
100
AcDbEntity
  8
1PHANTOM
 48
0.5
100
AcDbLine
 10
762.5162369615617
 20
-642.8213768871707
 30
0.0
 11
762.616238124959
 21
-642.3213768871707
 31
0.0
  0
LINE
  5
2130F
330
18
100
AcDbEntity
  8
1PHANTOM
 48
0.5
100
AcDbLine
 10
764.1162369615618
 20
-642.8213768871707
 30
0.0
 11
764.216238124959
 21
-642.3213768871707
 31
0.0
  0
LINE
  5
21310
330
18
100
AcDbEntity
  8
1PHANTOM
 48
0.5
100
AcDbLine
 10
764.8162451053421
 20
-639.3213768871707
 30
0.0
 11
764.9162462687391
 21
-638.8213768871707
 31
0.0
  0
LINE
  5
21311
330
18
100
AcDbEntity
  8
1PHANTOM
 48
0.5
100
AcDbLine
 10
763.2162451053422
 20
-639.3213768871707
 30
0.0
 11
763.3162462687392
 21
-638.8213768871707
 31
0.0
  0
LINE
  5
21312
330
18
100
AcDbEntity
  8
1PHANTOM
 48
0.5
100
AcDbLine
 10
763.3162462687392
 20
-638.8213768871707
 30
0.0
 11
764.1162369615618
 21
-642.8213768871707
 31
0.0
  0
LINE
  5
21313
330
18
100
AcDbEntity
  8
1PHANTOM
 48
0.5
100
AcDbLine
 10
772.1162385419701
 20
-642.1421557305599
 30
0.0
 11
772.2990026845981
 21
-641.5904062667566
 31
0.0
  0
LINE
  5
21314
330
18
100
AcDbEntity
  8
1PHANTOM
 48
0.5
100
AcDbLine
 10
768.9162369615618
 20
-642.8213768871707
 30
0.0
 11
769.0162381249589
 21
-642.3213768871707
 31
0.0
  0
LINE
  5
21315
330
18
100
AcDbEntity
  8
1PHANTOM
 48
0.5
100
AcDbLine
 10
767.3162369615617
 20
-642.8213768871707
 30
0.0
 11
767.4162381249588
 21
-642.3213768871707
 31
0.0
  0
LINE
  5
21316
330
18
100
AcDbEntity
  8
1PHANTOM
 48
0.5
100
AcDbLine
 10
770.5162374883644
 20
-642.5949698349667
 30
0.0
 11
770.6455081859943
 21
-642.0583760996955
 31
0.0
  0
LINE
  5
21317
330
18
100
AcDbEntity
  8
1PHANTOM
 48
0.5
100
AcDbLine
 10
771.2034757027789
 20
-639.7422914843794
 30
0.0
 11
771.316245215129
 21
-639.2741930292294
 31
0.0
  0
LINE
  5
21318
330
18
100
AcDbEntity
  8
1PHANTOM
 48
0.5
100
AcDbLine
 10
768.0162451053421
 20
-639.3213768871707
 30
0.0
 11
768.1162462687392
 21
-638.8213768871707
 31
0.0
  0
LINE
  5
21319
330
18
100
AcDbEntity
  8
1PHANTOM
 48
0.5
100
AcDbLine
 10
769.616245105342
 20
-639.3213768871707
 30
0.0
 11
769.7162462687392
 21
-638.8213768871707
 31
0.0
  0
LINE
  5
2131A
330
18
100
AcDbEntity
  8
1PHANTOM
 48
0.5
100
AcDbLine
 10
772.7648083650843
 20
-640.1841783779087
 30
0.0
 11
772.9162441615248
 21
-639.7270065372777
 31
0.0
  0
LINE
  5
2131B
330
18
100
AcDbEntity
  8
1PHANTOM
 48
0.5
100
AcDbLine
 10
771.316245215129
 20
-639.2741930292294
 30
0.0
 11
772.1162385419701
 21
-642.1421557305599
 31
0.0
  0
LINE
  5
2131C
330
18
100
AcDbEntity
  8
1PHANTOM
 48
0.5
100
AcDbLine
 10
768.1162462687392
 20
-638.8213768871707
 30
0.0
 11
768.9162369615618
 21
-642.8213768871707
 31
0.0
  0
LINE
  5
2131D
330
18
100
AcDbEntity
  8
1PHANTOM
 48
0.5
100
AcDbLine
 10
769.7162462687392
 20
-638.8213768871707
 30
0.0
 11
770.5162374883644
 21
-642.5949698349667
 31
0.0
  0
LINE
  5
2131E
330
18
100
AcDbEntity
  8
1PHANTOM
 48
0.5
100
AcDbLine
 10
766.5162462687391
 20
-638.8213768871707
 30
0.0
 11
767.3162369615617
 21
-642.8213768871707
 31
0.0
  0
LINE
  5
2131F
330
18
100
AcDbEntity
  8
1PHANTOM
 48
0.5
100
AcDbLine
 10
753.7162462687348
 20
-638.8213768871707
 30
0.0
 11
754.5162369615531
 21
-642.8213768871707
 31
0.0
  0
LINE
  5
21320
330
18
100
AcDbEntity
  8
1PHANTOM
 48
0.5
100
AcDbLine
 10
754.5162369615531
 20
-642.8213768871707
 30
0.0
 11
754.6162381249508
 21
-642.3213768871707
 31
0.0
  0
LINE
  5
21321
330
18
100
AcDbEntity
  8
1PHANTOM
 48
0.5
100
AcDbLine
 10
755.2162451053415
 20
-639.3213768871707
 30
0.0
 11
755.3162462687391
 21
-638.8213768871707
 31
0.0
  0
LINE
  5
21322
330
18
100
AcDbEntity
  8
1PHANTOM
 48
0.5
100
AcDbLine
 10
752.9162369615529
 20
-642.8213768871707
 30
0.0
 11
753.0162381249506
 21
-642.3213768871707
 31
0.0
  0
LINE
  5
21323
330
18
100
AcDbEntity
  8
1PHANTOM
 48
0.5
100
AcDbLine
 10
751.316236961553
 20
-642.8213768871707
 30
0.0
 11
751.4162381249507
 21
-642.3213768871707
 31
0.0
  0
LINE
  5
21324
330
18
100
AcDbEntity
  8
1PHANTOM
 48
0.5
100
AcDbLine
 10
753.6162451053371
 20
-639.3213768871707
 30
0.0
 11
753.7162462687348
 21
-638.8213768871707
 31
0.0
  0
LINE
  5
21325
330
18
100
AcDbEntity
  8
1PHANTOM
 48
0.5
100
AcDbLine
 10
752.016245105337
 20
-639.3213768871707
 30
0.0
 11
752.1162462687347
 21
-638.8213768871707
 31
0.0
  0
LINE
  5
21326
330
18
100
AcDbEntity
  8
1PHANTOM
 48
0.5
100
AcDbLine
 10
752.1162462687347
 20
-638.8213768871707
 30
0.0
 11
752.9162369615529
 21
-642.8213768871707
 31
0.0
  0
LINE
  5
21327
330
18
100
AcDbEntity
  8
1PHANTOM
 48
0.5
100
AcDbLine
 10
759.3162369615575
 20
-642.8213768871707
 30
0.0
 11
759.4162381249551
 21
-642.3213768871707
 31
0.0
  0
LINE
  5
21328
330
18
100
AcDbEntity
  8
1PHANTOM
 48
0.5
100
AcDbLine
 10
760.9162369615618
 20
-642.8213768871707
 30
0.0
 11
761.0162381249589
 21
-642.3213768871707
 31
0.0
  0
LINE
  5
21329
330
18
100
AcDbEntity
  8
1PHANTOM
 48
0.5
100
AcDbLine
 10
756.1162369615574
 20
-642.8213768871707
 30
0.0
 11
756.216238124955
 21
-642.3213768871707
 31
0.0
  0
LINE
  5
2132A
330
18
100
AcDbEntity
  8
1PHANTOM
 48
0.5
100
AcDbLine
 10
757.7162369615573
 20
-642.8213768871707
 30
0.0
 11
757.8162381249549
 21
-642.3213768871707
 31
0.0
  0
LINE
  5
2132B
330
18
100
AcDbEntity
  8
1PHANTOM
 48
0.5
100
AcDbLine
 10
761.616245105342
 20
-639.3213768871707
 30
0.0
 11
761.7162462687391
 21
-638.8213768871707
 31
0.0
  0
LINE
  5
2132C
330
18
100
AcDbEntity
  8
1PHANTOM
 48
0.5
100
AcDbLine
 10
760.0162451053414
 20
-639.3213768871707
 30
0.0
 11
760.1162462687392
 21
-638.8213768871707
 31
0.0
  0
LINE
  5
2132D
330
18
100
AcDbEntity
  8
1PHANTOM
 48
0.5
100
AcDbLine
 10
756.8162451053414
 20
-639.3213768871707
 30
0.0
 11
756.9162462687391
 21
-638.8213768871707
 31
0.0
  0
LINE
  5
2132E
330
18
100
AcDbEntity
  8
1PHANTOM
 48
0.5
100
AcDbLine
 10
758.4162451053416
 20
-639.3213768871707
 30
0.0
 11
758.5162462687392
 21
-638.8213768871707
 31
0.0
  0
LINE
  5
2132F
330
18
100
AcDbEntity
  8
1PHANTOM
 48
0.5
100
AcDbLine
 10
758.5162462687392
 20
-638.8213768871707
 30
0.0
 11
759.3162369615575
 21
-642.8213768871707
 31
0.0
  0
LINE
  5
21330
330
18
100
AcDbEntity
  8
1PHANTOM
 48
0.5
100
AcDbLine
 10
760.1162462687392
 20
-638.8213768871707
 30
0.0
 11
760.9162369615618
 21
-642.8213768871707
 31
0.0
  0
LINE
  5
21331
330
18
100
AcDbEntity
  8
1PHANTOM
 48
0.5
100
AcDbLine
 10
756.9162462687391
 20
-638.8213768871707
 30
0.0
 11
757.7162369615573
 21
-642.8213768871707
 31
0.0
  0
LINE
  5
21332
330
18
100
AcDbEntity
  8
1PHANTOM
 48
0.5
100
AcDbLine
 10
755.3162462687391
 20
-638.8213768871707
 30
0.0
 11
756.1162369615574
 21
-642.8213768871707
 31
0.0
  0
LINE
  5
21333
330
18
100
AcDbEntity
  8
1PHANTOM
 48
0.5
100
AcDbLine
 10
745.6162451053329
 20
-639.3213768871707
 30
0.0
 11
745.7162462687306
 21
-638.8213768871707
 31
0.0
  0
LINE
  5
21334
330
18
100
AcDbEntity
  8
1PHANTOM
 48
0.5
100
AcDbLine
 10
745.7162462687306
 20
-638.8213768871707
 30
0.0
 11
746.5162369615488
 21
-642.8213768871707
 31
0.0
  0
LINE
  5
21335
330
18
100
AcDbEntity
  8
1PHANTOM
 48
0.5
100
AcDbLine
 10
746.5162369615488
 20
-642.8213768871707
 30
0.0
 11
746.6162381249465
 21
-642.3213768871707
 31
0.0
  0
LINE
  5
21336
330
18
100
AcDbEntity
  8
1PHANTOM
 48
0.5
100
AcDbLine
 10
747.2162451053328
 20
-639.3213768871707
 30
0.0
 11
747.3162462687305
 21
-638.8213768871707
 31
0.0
  0
LINE
  5
21337
330
18
100
AcDbEntity
  8
1PHANTOM
 48
0.5
100
AcDbLine
 10
748.8162451053328
 20
-639.3213768871707
 30
0.0
 11
748.9162462687304
 21
-638.8213768871707
 31
0.0
  0
LINE
  5
21338
330
18
100
AcDbEntity
  8
1PHANTOM
 48
0.5
100
AcDbLine
 10
748.9162462687304
 20
-638.8213768871707
 30
0.0
 11
749.7162369615486
 21
-642.8213768871707
 31
0.0
  0
LINE
  5
21339
330
18
100
AcDbEntity
  8
1PHANTOM
 48
0.5
100
AcDbLine
 10
748.1162369615487
 20
-642.8213768871707
 30
0.0
 11
748.2162381249464
 21
-642.3213768871707
 31
0.0
  0
LINE
  5
2133A
330
18
100
AcDbEntity
  8
1PHANTOM
 48
0.5
100
AcDbLine
 10
749.7162369615486
 20
-642.8213768871707
 30
0.0
 11
749.8162381249463
 21
-642.3213768871707
 31
0.0
  0
LINE
  5
2133B
330
18
100
AcDbEntity
  8
1PHANTOM
 48
0.5
100
AcDbLine
 10
747.3162462687305
 20
-638.8213768871707
 30
0.0
 11
748.1162369615487
 21
-642.8213768871707
 31
0.0
  0
LINE
  5
2133C
330
18
100
AcDbEntity
  8
1PHANTOM
 48
0.5
100
AcDbLine
 10
750.4162451053371
 20
-639.3213768871707
 30
0.0
 11
750.5162462687348
 21
-638.8213768871707
 31
0.0
  0
LINE
  5
2133D
330
18
100
AcDbEntity
  8
1PHANTOM
 48
0.5
100
AcDbLine
 10
744.016245105333
 20
-639.3213768871707
 30
0.0
 11
744.1162462687307
 21
-638.8213768871707
 31
0.0
  0
LINE
  5
2133E
330
18
100
AcDbEntity
  8
1PHANTOM
 48
0.5
100
AcDbLine
 10
744.1162462687307
 20
-638.8213768871707
 30
0.0
 11
744.9162369615489
 21
-642.8213768871707
 31
0.0
  0
LINE
  5
2133F
330
18
100
AcDbEntity
  8
1PHANTOM
 48
0.5
100
AcDbLine
 10
744.9162369615489
 20
-642.8213768871707
 30
0.0
 11
745.0162381249466
 21
-642.3213768871707
 31
0.0
  0
LINE
  5
21340
330
18
100
AcDbEntity
  8
1PHANTOM
 48
0.5
100
AcDbLine
 10
742.4162451053331
 20
-639.3213768871707
 30
0.0
 11
742.5162462687308
 21
-638.8213768871707
 31
0.0
  0
LINE
  5
21341
330
18
100
AcDbEntity
  8
1PHANTOM
 48
0.5
100
AcDbLine
 10
742.5162462687308
 20
-638.8213768871707
 30
0.0
 11
743.316236961549
 21
-642.8213768871707
 31
0.0
  0
LINE
  5
21342
330
18
100
AcDbEntity
  8
1PHANTOM
 48
0.5
100
AcDbLine
 10
743.316236961549
 20
-642.8213768871707
 30
0.0
 11
743.4162381249467
 21
-642.3213768871707
 31
0.0
  0
LINE
  5
21343
330
18
100
AcDbEntity
  8
1PHANTOM
 48
0.5
100
AcDbLine
 10
740.8162451053332
 20
-639.3213768871707
 30
0.0
 11
740.9162462687309
 21
-638.8213768871707
 31
0.0
  0
LINE
  5
21344
330
18
100
AcDbEntity
  8
1PHANTOM
 48
0.5
100
AcDbLine
 10
740.9162462687309
 20
-638.8213768871707
 30
0.0
 11
741.7162369615491
 21
-642.8213768871707
 31
0.0
  0
LINE
  5
21345
330
18
100
AcDbEntity
  8
1PHANTOM
 48
0.5
100
AcDbLine
 10
741.7162369615491
 20
-642.8213768871707
 30
0.0
 11
741.8162381249468
 21
-642.3213768871707
 31
0.0
  0
LINE
  5
21346
330
18
100
AcDbEntity
  8
1PHANTOM
100
AcDbLine
 10
775.0162416152026
 20
-670.8213768871579
 30
0.0
 11
769.7162451053409
 21
-669.3213768871579
 31
0.0
  0
LINE
  5
21347
330
18
100
AcDbEntity
  8
1PHANTOM
100
AcDbLine
 10
769.7162451053409
 20
-669.3213768871579
 30
0.0
 11
740.016245105449
 21
-669.3213768871581
 31
0.0
  0
LINE
  5
21348
330
18
100
AcDbEntity
  8
1PHANTOM
100
AcDbLine
 10
775.0162416152026
 20
-670.8213768871579
 30
0.0
 11
769.7162381249572
 21
-672.321376887158
 31
0.0
  0
LINE
  5
21349
330
18
100
AcDbEntity
  8
1PHANTOM
100
AcDbLine
 10
740.0162497591471
 20
-667.3213303512601
 30
0.0
 11
740.0162334715827
 21
-674.32133035126
 31
0.0
  0
LINE
  5
2134A
330
18
100
AcDbEntity
  8
1PHANTOM
100
AcDbLine
 10
769.7162381249572
 20
-672.321376887158
 30
0.0
 11
740.0162381250643
 21
-672.3213768871581
 31
0.0
  0
LINE
  5
2134B
330
18
100
AcDbEntity
  8
1PHANTOM
100
AcDbLine
 10
740.0162497591471
 20
-667.3213303512601
 30
0.0
 11
738.9162462689518
 21
-667.32133035126
 31
0.0
  0
ARC
  5
2134C
330
18
100
AcDbEntity
  8
1PHANTOM
100
AcDbCircle
 10
738.9162462689518
 20
-668.82133035126
 30
0.0
 40
1.5
100
AcDbArc
 50
90.0
 51
179.9998666844684
  0
LINE
  5
2134D
330
18
100
AcDbEntity
  8
1PHANTOM
100
AcDbLine
 10
740.0162334715827
 20
-674.32133035126
 30
0.0
 11
738.9162369617721
 21
-674.32133035126
 31
0.0
  0
LINE
  5
2134E
330
18
100
AcDbEntity
  8
1PHANTOM
100
AcDbLine
 10
737.4162462689558
 20
-668.8213268610676
 30
0.0
 11
737.4162369617762
 21
-672.8213268610676
 31
0.0
  0
ARC
  5
2134F
330
18
100
AcDbEntity
  8
1PHANTOM
100
AcDbCircle
 10
738.9162369617721
 20
-672.82133035126
 30
0.0
 40
1.5
100
AcDbArc
 50
179.9998666844684
 51
270.0
  0
LINE
  5
21350
330
18
100
AcDbEntity
  8
1CENTER
100
AcDbLine
 10
776.447036532668
 20
-670.82133035126
 30
0.0
 11
736.3459652060561
 21
-670.82133035126
 31
0.0
  0
LINE
  5
21351
330
18
100
AcDbEntity
  8
1PHANTOM
100
AcDbLine
 10
772.9162441615248
 20
-669.727006537265
 30
0.0
 11
773.7162395955757
 21
-671.6893416261403
 31
0.0
  0
LINE
  5
21352
330
18
100
AcDbEntity
  8
1PHANTOM
100
AcDbLine
 10
773.7162395955757
 20
-671.6893416261403
 30
0.0
 11
774.0280094518278
 21
-671.101065051098
 31
0.0
  0
LINE
  5
21353
330
18
100
AcDbEntity
  8
1PHANTOM
100
AcDbLine
 10
750.5162462687348
 20
-668.8213768871579
 30
0.0
 11
751.316236961553
 21
-672.8213768871579
 31
0.0
  0
LINE
  5
21354
330
18
100
AcDbEntity
  8
1PHANTOM
100
AcDbLine
 10
761.7162462687391
 20
-668.8213768871579
 30
0.0
 11
762.5162369615617
 21
-672.8213768871579
 31
0.0
  0
LINE
  5
21355
330
18
100
AcDbEntity
  8
1PHANTOM
100
AcDbLine
 10
764.9162462687391
 20
-668.8213768871579
 30
0.0
 11
765.7162369615617
 21
-672.8213768871579
 31
0.0
  0
LINE
  5
21356
330
18
100
AcDbEntity
  8
1PHANTOM
100
AcDbLine
 10
765.7162369615617
 20
-672.8213768871579
 30
0.0
 11
765.816238124959
 21
-672.321376887158
 31
0.0
  0
LINE
  5
21357
330
18
100
AcDbEntity
  8
1PHANTOM
100
AcDbLine
 10
766.416245105342
 20
-669.3213768871579
 30
0.0
 11
766.5162462687391
 21
-668.8213768871579
 31
0.0
  0
LINE
  5
21358
330
18
100
AcDbEntity
  8
1PHANTOM
100
AcDbLine
 10
762.5162369615617
 20
-672.8213768871579
 30
0.0
 11
762.616238124959
 21
-672.321376887158
 31
0.0
  0
LINE
  5
21359
330
18
100
AcDbEntity
  8
1PHANTOM
100
AcDbLine
 10
764.1162369615618
 20
-672.8213768871579
 30
0.0
 11
764.216238124959
 21
-672.321376887158
 31
0.0
  0
LINE
  5
2135A
330
18
100
AcDbEntity
  8
1PHANTOM
100
AcDbLine
 10
764.8162451053421
 20
-669.3213768871579
 30
0.0
 11
764.9162462687391
 21
-668.8213768871579
 31
0.0
  0
LINE
  5
2135B
330
18
100
AcDbEntity
  8
1PHANTOM
100
AcDbLine
 10
763.2162451053422
 20
-669.3213768871579
 30
0.0
 11
763.3162462687392
 21
-668.8213768871579
 31
0.0
  0
LINE
  5
2135C
330
18
100
AcDbEntity
  8
1PHANTOM
100
AcDbLine
 10
763.3162462687392
 20
-668.8213768871579
 30
0.0
 11
764.1162369615618
 21
-672.8213768871579
 31
0.0
  0
LINE
  5
2135D
330
18
100
AcDbEntity
  8
1PHANTOM
100
AcDbLine
 10
772.1162385419701
 20
-672.1421557305472
 30
0.0
 11
772.2990026845981
 21
-671.5904062667439
 31
0.0
  0
LINE
  5
2135E
330
18
100
AcDbEntity
  8
1PHANTOM
100
AcDbLine
 10
768.9162369615618
 20
-672.8213768871579
 30
0.0
 11
769.0162381249589
 21
-672.321376887158
 31
0.0
  0
LINE
  5
2135F
330
18
100
AcDbEntity
  8
1PHANTOM
100
AcDbLine
 10
767.3162369615617
 20
-672.8213768871579
 30
0.0
 11
767.4162381249588
 21
-672.321376887158
 31
0.0
  0
LINE
  5
21360
330
18
100
AcDbEntity
  8
1PHANTOM
100
AcDbLine
 10
770.5162374883644
 20
-672.5949698349539
 30
0.0
 11
770.6455081859943
 21
-672.0583760996828
 31
0.0
  0
LINE
  5
21361
330
18
100
AcDbEntity
  8
1PHANTOM
100
AcDbLine
 10
771.2034757027789
 20
-669.7422914843667
 30
0.0
 11
771.316245215129
 21
-669.2741930292166
 31
0.0
  0
LINE
  5
21362
330
18
100
AcDbEntity
  8
1PHANTOM
100
AcDbLine
 10
768.0162451053421
 20
-669.3213768871579
 30
0.0
 11
768.1162462687392
 21
-668.8213768871579
 31
0.0
  0
LINE
  5
21363
330
18
100
AcDbEntity
  8
1PHANTOM
100
AcDbLine
 10
769.616245105342
 20
-669.3213768871579
 30
0.0
 11
769.7162462687392
 21
-668.8213768871579
 31
0.0
  0
LINE
  5
21364
330
18
100
AcDbEntity
  8
1PHANTOM
100
AcDbLine
 10
772.7648083650843
 20
-670.184178377896
 30
0.0
 11
772.9162441615248
 21
-669.727006537265
 31
0.0
  0
LINE
  5
21365
330
18
100
AcDbEntity
  8
1PHANTOM
100
AcDbLine
 10
771.316245215129
 20
-669.2741930292166
 30
0.0
 11
772.1162385419701
 21
-672.1421557305472
 31
0.0
  0
LINE
  5
21366
330
18
100
AcDbEntity
  8
1PHANTOM
100
AcDbLine
 10
768.1162462687392
 20
-668.8213768871579
 30
0.0
 11
768.9162369615618
 21
-672.8213768871579
 31
0.0
  0
LINE
  5
21367
330
18
100
AcDbEntity
  8
1PHANTOM
100
AcDbLine
 10
769.7162462687392
 20
-668.8213768871579
 30
0.0
 11
770.5162374883644
 21
-672.5949698349539
 31
0.0
  0
LINE
  5
21368
330
18
100
AcDbEntity
  8
1PHANTOM
100
AcDbLine
 10
766.5162462687391
 20
-668.8213768871579
 30
0.0
 11
767.3162369615617
 21
-672.8213768871579
 31
0.0
  0
LINE
  5
21369
330
18
100
AcDbEntity
  8
1PHANTOM
100
AcDbLine
 10
753.7162462687348
 20
-668.8213768871579
 30
0.0
 11
754.5162369615531
 21
-672.8213768871579
 31
0.0
  0
LINE
  5
2136A
330
18
100
AcDbEntity
  8
1PHANTOM
100
AcDbLine
 10
754.5162369615531
 20
-672.8213768871579
 30
0.0
 11
754.6162381249508
 21
-672.321376887158
 31
0.0
  0
LINE
  5
2136B
330
18
100
AcDbEntity
  8
1PHANTOM
100
AcDbLine
 10
755.2162451053415
 20
-669.3213768871579
 30
0.0
 11
755.3162462687391
 21
-668.8213768871579
 31
0.0
  0
LINE
  5
2136C
330
18
100
AcDbEntity
  8
1PHANTOM
100
AcDbLine
 10
752.9162369615529
 20
-672.8213768871579
 30
0.0
 11
753.0162381249506
 21
-672.321376887158
 31
0.0
  0
LINE
  5
2136D
330
18
100
AcDbEntity
  8
1PHANTOM
100
AcDbLine
 10
751.316236961553
 20
-672.8213768871579
 30
0.0
 11
751.4162381249507
 21
-672.321376887158
 31
0.0
  0
LINE
  5
2136E
330
18
100
AcDbEntity
  8
1PHANTOM
100
AcDbLine
 10
753.6162451053371
 20
-669.3213768871579
 30
0.0
 11
753.7162462687348
 21
-668.8213768871579
 31
0.0
  0
LINE
  5
2136F
330
18
100
AcDbEntity
  8
1PHANTOM
100
AcDbLine
 10
752.016245105337
 20
-669.3213768871579
 30
0.0
 11
752.1162462687347
 21
-668.8213768871579
 31
0.0
  0
LINE
  5
21370
330
18
100
AcDbEntity
  8
1PHANTOM
100
AcDbLine
 10
752.1162462687347
 20
-668.8213768871579
 30
0.0
 11
752.9162369615529
 21
-672.8213768871579
 31
0.0
  0
LINE
  5
21371
330
18
100
AcDbEntity
  8
1PHANTOM
100
AcDbLine
 10
759.3162369615575
 20
-672.8213768871579
 30
0.0
 11
759.4162381249551
 21
-672.321376887158
 31
0.0
  0
LINE
  5
21372
330
18
100
AcDbEntity
  8
1PHANTOM
100
AcDbLine
 10
760.9162369615618
 20
-672.8213768871579
 30
0.0
 11
761.0162381249589
 21
-672.321376887158
 31
0.0
  0
LINE
  5
21373
330
18
100
AcDbEntity
  8
1PHANTOM
100
AcDbLine
 10
756.1162369615574
 20
-672.8213768871579
 30
0.0
 11
756.216238124955
 21
-672.321376887158
 31
0.0
  0
LINE
  5
21374
330
18
100
AcDbEntity
  8
1PHANTOM
100
AcDbLine
 10
757.7162369615573
 20
-672.8213768871579
 30
0.0
 11
757.8162381249549
 21
-672.321376887158
 31
0.0
  0
LINE
  5
21375
330
18
100
AcDbEntity
  8
1PHANTOM
100
AcDbLine
 10
761.616245105342
 20
-669.3213768871579
 30
0.0
 11
761.7162462687391
 21
-668.8213768871579
 31
0.0
  0
LINE
  5
21376
330
18
100
AcDbEntity
  8
1PHANTOM
100
AcDbLine
 10
760.0162451053414
 20
-669.3213768871579
 30
0.0
 11
760.1162462687392
 21
-668.8213768871579
 31
0.0
  0
LINE
  5
21377
330
18
100
AcDbEntity
  8
1PHANTOM
100
AcDbLine
 10
756.8162451053414
 20
-669.3213768871579
 30
0.0
 11
756.9162462687391
 21
-668.8213768871579
 31
0.0
  0
LINE
  5
21378
330
18
100
AcDbEntity
  8
1PHANTOM
100
AcDbLine
 10
758.4162451053416
 20
-669.3213768871579
 30
0.0
 11
758.5162462687392
 21
-668.8213768871579
 31
0.0
  0
LINE
  5
21379
330
18
100
AcDbEntity
  8
1PHANTOM
100
AcDbLine
 10
758.5162462687392
 20
-668.8213768871579
 30
0.0
 11
759.3162369615575
 21
-672.8213768871579
 31
0.0
  0
LINE
  5
2137A
330
18
100
AcDbEntity
  8
1PHANTOM
100
AcDbLine
 10
760.1162462687392
 20
-668.8213768871579
 30
0.0
 11
760.9162369615618
 21
-672.8213768871579
 31
0.0
  0
LINE
  5
2137B
330
18
100
AcDbEntity
  8
1PHANTOM
100
AcDbLine
 10
756.9162462687391
 20
-668.8213768871579
 30
0.0
 11
757.7162369615573
 21
-672.8213768871579
 31
0.0
  0
LINE
  5
2137C
330
18
100
AcDbEntity
  8
1PHANTOM
100
AcDbLine
 10
755.3162462687391
 20
-668.8213768871579
 30
0.0
 11
756.1162369615574
 21
-672.8213768871579
 31
0.0
  0
LINE
  5
2137D
330
18
100
AcDbEntity
  8
1PHANTOM
100
AcDbLine
 10
745.6162451053329
 20
-669.3213768871579
 30
0.0
 11
745.7162462687306
 21
-668.8213768871579
 31
0.0
  0
LINE
  5
2137E
330
18
100
AcDbEntity
  8
1PHANTOM
100
AcDbLine
 10
745.7162462687306
 20
-668.8213768871579
 30
0.0
 11
746.5162369615488
 21
-672.8213768871579
 31
0.0
  0
LINE
  5
2137F
330
18
100
AcDbEntity
  8
1PHANTOM
100
AcDbLine
 10
746.5162369615488
 20
-672.8213768871579
 30
0.0
 11
746.6162381249465
 21
-672.321376887158
 31
0.0
  0
LINE
  5
21380
330
18
100
AcDbEntity
  8
1PHANTOM
100
AcDbLine
 10
747.2162451053328
 20
-669.3213768871579
 30
0.0
 11
747.3162462687305
 21
-668.8213768871579
 31
0.0
  0
LINE
  5
21381
330
18
100
AcDbEntity
  8
1PHANTOM
100
AcDbLine
 10
748.8162451053328
 20
-669.3213768871579
 30
0.0
 11
748.9162462687304
 21
-668.8213768871579
 31
0.0
  0
LINE
  5
21382
330
18
100
AcDbEntity
  8
1PHANTOM
100
AcDbLine
 10
748.9162462687304
 20
-668.8213768871579
 30
0.0
 11
749.7162369615486
 21
-672.8213768871579
 31
0.0
  0
LINE
  5
21383
330
18
100
AcDbEntity
  8
1PHANTOM
100
AcDbLine
 10
748.1162369615487
 20
-672.8213768871579
 30
0.0
 11
748.2162381249464
 21
-672.321376887158
 31
0.0
  0
LINE
  5
21384
330
18
100
AcDbEntity
  8
1PHANTOM
100
AcDbLine
 10
749.7162369615486
 20
-672.8213768871579
 30
0.0
 11
749.8162381249463
 21
-672.321376887158
 31
0.0
  0
LINE
  5
21385
330
18
100
AcDbEntity
  8
1PHANTOM
100
AcDbLine
 10
747.3162462687305
 20
-668.8213768871579
 30
0.0
 11
748.1162369615487
 21
-672.8213768871579
 31
0.0
  0
LINE
  5
21386
330
18
100
AcDbEntity
  8
1PHANTOM
100
AcDbLine
 10
750.4162451053371
 20
-669.3213768871579
 30
0.0
 11
750.5162462687348
 21
-668.8213768871579
 31
0.0
  0
LINE
  5
21387
330
18
100
AcDbEntity
  8
1PHANTOM
100
AcDbLine
 10
744.016245105333
 20
-669.3213768871579
 30
0.0
 11
744.1162462687307
 21
-668.8213768871579
 31
0.0
  0
LINE
  5
21388
330
18
100
AcDbEntity
  8
1PHANTOM
100
AcDbLine
 10
744.1162462687307
 20
-668.8213768871579
 30
0.0
 11
744.9162369615489
 21
-672.8213768871579
 31
0.0
  0
LINE
  5
21389
330
18
100
AcDbEntity
  8
1PHANTOM
100
AcDbLine
 10
744.9162369615489
 20
-672.8213768871579
 30
0.0
 11
745.0162381249466
 21
-672.321376887158
 31
0.0
  0
LINE
  5
2138A
330
18
100
AcDbEntity
  8
1PHANTOM
100
AcDbLine
 10
742.4162451053331
 20
-669.3213768871579
 30
0.0
 11
742.5162462687308
 21
-668.8213768871579
 31
0.0
  0
LINE
  5
2138B
330
18
100
AcDbEntity
  8
1PHANTOM
100
AcDbLine
 10
742.5162462687308
 20
-668.8213768871579
 30
0.0
 11
743.316236961549
 21
-672.8213768871579
 31
0.0
  0
LINE
  5
2138C
330
18
100
AcDbEntity
  8
1PHANTOM
100
AcDbLine
 10
743.316236961549
 20
-672.8213768871579
 30
0.0
 11
743.4162381249467
 21
-672.321376887158
 31
0.0
  0
LINE
  5
2138D
330
18
100
AcDbEntity
  8
1PHANTOM
100
AcDbLine
 10
740.8162451053332
 20
-669.3213768871579
 30
0.0
 11
740.9162462687309
 21
-668.8213768871579
 31
0.0
  0
LINE
  5
2138E
330
18
100
AcDbEntity
  8
1PHANTOM
100
AcDbLine
 10
740.9162462687309
 20
-668.8213768871579
 30
0.0
 11
741.7162369615491
 21
-672.8213768871579
 31
0.0
  0
LINE
  5
2138F
330
18
100
AcDbEntity
  8
1PHANTOM
100
AcDbLine
 10
741.7162369615491
 20
-672.8213768871579
 30
0.0
 11
741.8162381249468
 21
-672.321376887158
 31
0.0
  0
LINE
  5
21394
330
18
100
AcDbEntity
  8
1PHANTOM
100
AcDbLine
 10
609.5162881512618
 20
-512.7286048792322
 30
0.0
 11
608.0162881512618
 21
-518.0286013890939
 31
0.0
  0
LINE
  5
21395
330
18
100
AcDbEntity
  8
1PHANTOM
100
AcDbLine
 10
608.0162881512618
 20
-518.0286013890939
 30
0.0
 11
608.016288151262
 21
-547.7286013889859
 31
0.0
  0
LINE
  5
21396
330
18
100
AcDbEntity
  8
1PHANTOM
100
AcDbLine
 10
609.5162881512618
 20
-512.7286048792322
 30
0.0
 11
611.016288151262
 21
-518.0286083694776
 31
0.0
  0
LINE
  5
21397
330
18
100
AcDbEntity
  8
1PHANTOM
100
AcDbLine
 10
606.016241615364
 20
-547.7285967352877
 30
0.0
 11
613.0162416153638
 21
-547.7286130228521
 31
0.0
  0
LINE
  5
21398
330
18
100
AcDbEntity
  8
1PHANTOM
100
AcDbLine
 10
611.016288151262
 20
-518.0286083694776
 30
0.0
 11
611.016288151262
 21
-547.7286083693705
 31
0.0
  0
LINE
  5
21399
330
18
100
AcDbEntity
  8
1PHANTOM
100
AcDbLine
 10
606.016241615364
 20
-547.7285967352877
 30
0.0
 11
606.0162416153639
 21
-548.8286002254831
 31
0.0
  0
ARC
  5
2139A
330
18
100
AcDbEntity
  8
1PHANTOM
100
AcDbCircle
 10
607.5162416153639
 20
-548.8286002254831
 30
0.0
 40
1.5
100
AcDbArc
 50
180.0
 51
269.9998666844684
  0
LINE
  5
2139B
330
18
100
AcDbEntity
  8
1PHANTOM
100
AcDbLine
 10
613.0162416153638
 20
-547.7286130228521
 30
0.0
 11
613.0162416153638
 21
-548.8286095326627
 31
0.0
  0
LINE
  5
2139C
330
18
100
AcDbEntity
  8
1PHANTOM
100
AcDbLine
 10
607.5162381251715
 20
-550.328600225479
 30
0.0
 11
611.5162381251715
 21
-550.3286095326586
 31
0.0
  0
ARC
  5
2139D
330
18
100
AcDbEntity
  8
1PHANTOM
100
AcDbCircle
 10
611.5162416153639
 20
-548.8286095326627
 30
0.0
 40
1.5
100
AcDbArc
 50
269.9998666844684
 51
0.0
  0
LINE
  5
2139F
330
18
100
AcDbEntity
  8
1PHANTOM
100
AcDbLine
 10
608.4219178013689
 20
-514.8286023329101
 30
0.0
 11
610.3842528902442
 21
-514.0286068988591
 31
0.0
  0
LINE
  5
213A0
330
18
100
AcDbEntity
  8
1PHANTOM
100
AcDbLine
 10
610.3842528902442
 20
-514.0286068988591
 30
0.0
 11
609.7959763152019
 21
-513.716837042607
 31
0.0
  0
LINE
  5
213A1
330
18
100
AcDbEntity
  8
1PHANTOM
100
AcDbLine
 10
607.5162881512618
 20
-537.2286002257001
 30
0.0
 11
611.5162881512618
 21
-536.4286095328818
 31
0.0
  0
LINE
  5
213A2
330
18
100
AcDbEntity
  8
1PHANTOM
100
AcDbLine
 10
607.5162881512618
 20
-526.0286002256957
 30
0.0
 11
611.5162881512618
 21
-525.2286095328732
 31
0.0
  0
LINE
  5
213A3
330
18
100
AcDbEntity
  8
1PHANTOM
100
AcDbLine
 10
607.5162881512618
 20
-522.8286002256957
 30
0.0
 11
611.5162881512618
 21
-522.0286095328731
 31
0.0
  0
LINE
  5
213A4
330
18
100
AcDbEntity
  8
1PHANTOM
100
AcDbLine
 10
611.5162881512618
 20
-522.0286095328731
 30
0.0
 11
611.0162881512618
 21
-521.9286083694758
 31
0.0
  0
LINE
  5
213A5
330
18
100
AcDbEntity
  8
1PHANTOM
100
AcDbLine
 10
608.0162881512618
 20
-521.3286013890929
 30
0.0
 11
607.5162881512618
 21
-521.2286002256957
 31
0.0
  0
LINE
  5
213A6
330
18
100
AcDbEntity
  8
1PHANTOM
100
AcDbLine
 10
611.5162881512618
 20
-525.2286095328732
 30
0.0
 11
611.0162881512618
 21
-525.1286083694759
 31
0.0
  0
LINE
  5
213A7
330
18
100
AcDbEntity
  8
1PHANTOM
100
AcDbLine
 10
611.5162881512618
 20
-523.628609532873
 30
0.0
 11
611.0162881512618
 21
-523.5286083694759
 31
0.0
  0
LINE
  5
213A8
330
18
100
AcDbEntity
  8
1PHANTOM
100
AcDbLine
 10
608.0162881512618
 20
-522.9286013890928
 30
0.0
 11
607.5162881512618
 21
-522.8286002256957
 31
0.0
  0
LINE
  5
213A9
330
18
100
AcDbEntity
  8
1PHANTOM
100
AcDbLine
 10
608.0162881512618
 20
-524.5286013890927
 30
0.0
 11
607.5162881512618
 21
-524.4286002256956
 31
0.0
  0
LINE
  5
213AA
330
18
100
AcDbEntity
  8
1PHANTOM
100
AcDbLine
 10
607.5162881512618
 20
-524.4286002256956
 30
0.0
 11
611.5162881512618
 21
-523.628609532873
 31
0.0
  0
LINE
  5
213AB
330
18
100
AcDbEntity
  8
1PHANTOM
100
AcDbLine
 10
610.837066994651
 20
-515.6286079524647
 30
0.0
 11
610.2853175308478
 21
-515.4458438098368
 31
0.0
  0
LINE
  5
213AC
330
18
100
AcDbEntity
  8
1PHANTOM
100
AcDbLine
 10
611.5162881512618
 20
-518.8286095328731
 30
0.0
 11
611.0162881512618
 21
-518.7286083694759
 31
0.0
  0
LINE
  5
213AD
330
18
100
AcDbEntity
  8
1PHANTOM
100
AcDbLine
 10
611.5162881512618
 20
-520.4286095328731
 30
0.0
 11
611.0162881512618
 21
-520.3286083694761
 31
0.0
  0
LINE
  5
213AE
330
18
100
AcDbEntity
  8
1PHANTOM
100
AcDbLine
 10
611.2898810990579
 20
-517.2286090060704
 30
0.0
 11
610.7532873637867
 21
-517.0993383084406
 31
0.0
  0
LINE
  5
213AF
330
18
100
AcDbEntity
  8
1PHANTOM
100
AcDbLine
 10
608.4372027484705
 20
-516.5413707916559
 30
0.0
 11
607.9691042933205
 21
-516.4286012793058
 31
0.0
  0
LINE
  5
213B0
330
18
100
AcDbEntity
  8
1PHANTOM
100
AcDbLine
 10
608.0162881512618
 20
-519.7286013890927
 30
0.0
 11
607.5162881512618
 21
-519.6286002256957
 31
0.0
  0
LINE
  5
213B1
330
18
100
AcDbEntity
  8
1PHANTOM
100
AcDbLine
 10
608.0162881512618
 20
-518.1286013890928
 30
0.0
 11
607.5162881512618
 21
-518.0286002256957
 31
0.0
  0
LINE
  5
213B2
330
18
100
AcDbEntity
  8
1PHANTOM
100
AcDbLine
 10
608.8790896419999
 20
-514.9800381293505
 30
0.0
 11
608.4219178013689
 21
-514.8286023329101
 31
0.0
  0
LINE
  5
213B3
330
18
100
AcDbEntity
  8
1PHANTOM
100
AcDbLine
 10
607.9691042933205
 20
-516.4286012793058
 30
0.0
 11
610.837066994651
 21
-515.6286079524647
 31
0.0
  0
LINE
  5
213B4
330
18
100
AcDbEntity
  8
1PHANTOM
100
AcDbLine
 10
607.5162881512618
 20
-519.6286002256957
 30
0.0
 11
611.5162881512618
 21
-518.8286095328731
 31
0.0
  0
LINE
  5
213B5
330
18
100
AcDbEntity
  8
1PHANTOM
100
AcDbLine
 10
607.5162881512618
 20
-518.0286002256957
 30
0.0
 11
611.2898810990579
 21
-517.2286090060704
 31
0.0
  0
LINE
  5
213B6
330
18
100
AcDbEntity
  8
1PHANTOM
100
AcDbLine
 10
607.5162881512618
 20
-521.2286002256957
 30
0.0
 11
611.5162881512618
 21
-520.4286095328731
 31
0.0
  0
LINE
  5
213B7
330
18
100
AcDbEntity
  8
1PHANTOM
100
AcDbLine
 10
607.5162881512618
 20
-534.0286002257
 30
0.0
 11
611.5162881512618
 21
-533.2286095328818
 31
0.0
  0
LINE
  5
213B8
330
18
100
AcDbEntity
  8
1PHANTOM
100
AcDbLine
 10
611.5162881512618
 20
-533.2286095328818
 30
0.0
 11
611.0162881512618
 21
-533.1286083694841
 31
0.0
  0
LINE
  5
213B9
330
18
100
AcDbEntity
  8
1PHANTOM
100
AcDbLine
 10
608.0162881512618
 20
-532.5286013890933
 30
0.0
 11
607.5162881512618
 21
-532.4286002256957
 31
0.0
  0
LINE
  5
213BA
330
18
100
AcDbEntity
  8
1PHANTOM
100
AcDbLine
 10
611.5162881512618
 20
-534.8286095328819
 30
0.0
 11
611.0162881512618
 21
-534.7286083694842
 31
0.0
  0
LINE
  5
213BB
330
18
100
AcDbEntity
  8
1PHANTOM
100
AcDbLine
 10
611.5162881512618
 20
-536.4286095328818
 30
0.0
 11
611.0162881512618
 21
-536.3286083694841
 31
0.0
  0
LINE
  5
213BC
330
18
100
AcDbEntity
  8
1PHANTOM
100
AcDbLine
 10
608.0162881512618
 20
-534.1286013890977
 30
0.0
 11
607.5162881512618
 21
-534.0286002257
 31
0.0
  0
LINE
  5
213BD
330
18
100
AcDbEntity
  8
1PHANTOM
100
AcDbLine
 10
608.0162881512618
 20
-535.7286013890979
 30
0.0
 11
607.5162881512618
 21
-535.6286002257002
 31
0.0
  0
LINE
  5
213BE
330
18
100
AcDbEntity
  8
1PHANTOM
100
AcDbLine
 10
607.5162881512618
 20
-535.6286002257002
 30
0.0
 11
611.5162881512618
 21
-534.8286095328819
 31
0.0
  0
LINE
  5
213BF
330
18
100
AcDbEntity
  8
1PHANTOM
100
AcDbLine
 10
611.5162881512618
 20
-528.4286095328774
 30
0.0
 11
611.0162881512618
 21
-528.3286083694797
 31
0.0
  0
LINE
  5
213C0
330
18
100
AcDbEntity
  8
1PHANTOM
100
AcDbLine
 10
611.5162881512618
 20
-526.8286095328731
 30
0.0
 11
611.0162881512618
 21
-526.7286083694759
 31
0.0
  0
LINE
  5
213C1
330
18
100
AcDbEntity
  8
1PHANTOM
100
AcDbLine
 10
611.5162881512618
 20
-531.6286095328774
 30
0.0
 11
611.0162881512618
 21
-531.5286083694798
 31
0.0
  0
LINE
  5
213C2
330
18
100
AcDbEntity
  8
1PHANTOM
100
AcDbLine
 10
611.5162881512618
 20
-530.0286095328775
 30
0.0
 11
611.0162881512618
 21
-529.9286083694799
 31
0.0
  0
LINE
  5
213C3
330
18
100
AcDbEntity
  8
1PHANTOM
100
AcDbLine
 10
608.0162881512618
 20
-526.1286013890928
 30
0.0
 11
607.5162881512618
 21
-526.0286002256957
 31
0.0
  0
LINE
  5
213C4
330
18
100
AcDbEntity
  8
1PHANTOM
100
AcDbLine
 10
608.0162881512618
 20
-527.7286013890934
 30
0.0
 11
607.5162881512618
 21
-527.6286002256957
 31
0.0
  0
LINE
  5
213C5
330
18
100
AcDbEntity
  8
1PHANTOM
100
AcDbLine
 10
608.0162881512618
 20
-530.9286013890934
 30
0.0
 11
607.5162881512618
 21
-530.8286002256958
 31
0.0
  0
LINE
  5
213C6
330
18
100
AcDbEntity
  8
1PHANTOM
100
AcDbLine
 10
608.0162881512618
 20
-529.3286013890933
 30
0.0
 11
607.5162881512618
 21
-529.2286002256957
 31
0.0
  0
LINE
  5
213C7
330
18
100
AcDbEntity
  8
1PHANTOM
100
AcDbLine
 10
607.5162881512618
 20
-529.2286002256957
 30
0.0
 11
611.5162881512618
 21
-528.4286095328774
 31
0.0
  0
LINE
  5
213C8
330
18
100
AcDbEntity
  8
1PHANTOM
100
AcDbLine
 10
607.5162881512618
 20
-527.6286002256957
 30
0.0
 11
611.5162881512618
 21
-526.8286095328731
 31
0.0
  0
LINE
  5
213C9
330
18
100
AcDbEntity
  8
1PHANTOM
100
AcDbLine
 10
607.5162881512618
 20
-530.8286002256958
 30
0.0
 11
611.5162881512618
 21
-530.0286095328775
 31
0.0
  0
LINE
  5
213CA
330
18
100
AcDbEntity
  8
1PHANTOM
100
AcDbLine
 10
607.5162881512618
 20
-532.4286002256957
 30
0.0
 11
611.5162881512618
 21
-531.6286095328774
 31
0.0
  0
LINE
  5
213CB
330
18
100
AcDbEntity
  8
1PHANTOM
100
AcDbLine
 10
608.0162881512618
 20
-542.1286013891019
 30
0.0
 11
607.5162881512618
 21
-542.0286002257042
 31
0.0
  0
LINE
  5
213CC
330
18
100
AcDbEntity
  8
1PHANTOM
100
AcDbLine
 10
607.5162881512618
 20
-542.0286002257042
 30
0.0
 11
611.5162881512618
 21
-541.228609532886
 31
0.0
  0
LINE
  5
213CD
330
18
100
AcDbEntity
  8
1PHANTOM
100
AcDbLine
 10
611.5162881512618
 20
-541.228609532886
 30
0.0
 11
611.0162881512618
 21
-541.1286083694883
 31
0.0
  0
LINE
  5
213CE
330
18
100
AcDbEntity
  8
1PHANTOM
100
AcDbLine
 10
608.0162881512618
 20
-540.5286013891021
 30
0.0
 11
607.5162881512618
 21
-540.4286002257044
 31
0.0
  0
LINE
  5
213CF
330
18
100
AcDbEntity
  8
1PHANTOM
100
AcDbLine
 10
608.0162881512618
 20
-538.9286013891021
 30
0.0
 11
607.5162881512618
 21
-538.8286002257045
 31
0.0
  0
LINE
  5
213D0
330
18
100
AcDbEntity
  8
1PHANTOM
100
AcDbLine
 10
607.5162881512618
 20
-538.8286002257045
 30
0.0
 11
611.5162881512618
 21
-538.0286095328862
 31
0.0
  0
LINE
  5
213D1
330
18
100
AcDbEntity
  8
1PHANTOM
100
AcDbLine
 10
611.5162881512618
 20
-539.6286095328861
 30
0.0
 11
611.0162881512618
 21
-539.5286083694884
 31
0.0
  0
LINE
  5
213D2
330
18
100
AcDbEntity
  8
1PHANTOM
100
AcDbLine
 10
611.5162881512618
 20
-538.0286095328862
 30
0.0
 11
611.0162881512618
 21
-537.9286083694885
 31
0.0
  0
LINE
  5
213D3
330
18
100
AcDbEntity
  8
1PHANTOM
100
AcDbLine
 10
607.5162881512618
 20
-540.4286002257044
 30
0.0
 11
611.5162881512618
 21
-539.6286095328861
 31
0.0
  0
LINE
  5
213D4
330
18
100
AcDbEntity
  8
1PHANTOM
100
AcDbLine
 10
608.0162881512618
 20
-537.3286013890978
 30
0.0
 11
607.5162881512618
 21
-537.2286002257001
 31
0.0
  0
LINE
  5
213D5
330
18
100
AcDbEntity
  8
1PHANTOM
100
AcDbLine
 10
608.0162881512618
 20
-543.7286013891018
 30
0.0
 11
607.5162881512618
 21
-543.6286002257041
 31
0.0
  0
LINE
  5
213D6
330
18
100
AcDbEntity
  8
1PHANTOM
100
AcDbLine
 10
607.5162881512618
 20
-543.6286002257041
 30
0.0
 11
611.5162881512618
 21
-542.8286095328859
 31
0.0
  0
LINE
  5
213D7
330
18
100
AcDbEntity
  8
1PHANTOM
100
AcDbLine
 10
611.5162881512618
 20
-542.8286095328859
 30
0.0
 11
611.0162881512618
 21
-542.7286083694882
 31
0.0
  0
LINE
  5
213D8
330
18
100
AcDbEntity
  8
1PHANTOM
100
AcDbLine
 10
608.0162881512618
 20
-545.3286013891017
 30
0.0
 11
607.5162881512618
 21
-545.228600225704
 31
0.0
  0
LINE
  5
213D9
330
18
100
AcDbEntity
  8
1PHANTOM
100
AcDbLine
 10
607.5162881512618
 20
-545.228600225704
 30
0.0
 11
611.5162881512618
 21
-544.4286095328858
 31
0.0
  0
LINE
  5
213DA
330
18
100
AcDbEntity
  8
1PHANTOM
100
AcDbLine
 10
611.5162881512618
 20
-544.4286095328858
 30
0.0
 11
611.0162881512618
 21
-544.3286083694881
 31
0.0
  0
LINE
  5
213DB
330
18
100
AcDbEntity
  8
1PHANTOM
100
AcDbLine
 10
608.0162881512618
 20
-546.9286013891016
 30
0.0
 11
607.5162881512618
 21
-546.8286002257039
 31
0.0
  0
LINE
  5
213DC
330
18
100
AcDbEntity
  8
1PHANTOM
100
AcDbLine
 10
607.5162881512618
 20
-546.8286002257039
 30
0.0
 11
611.5162881512618
 21
-546.0286095328857
 31
0.0
  0
LINE
  5
213DD
330
18
100
AcDbEntity
  8
1PHANTOM
100
AcDbLine
 10
611.5162881512618
 20
-546.0286095328857
 30
0.0
 11
611.0162881512618
 21
-545.928608369488
 31
0.0
  0
LINE
  5
213DE
330
18
100
AcDbEntity
  8
1PHANTOM
100
AcDbLine
 10
9.516288151261854
 20
-512.7286048792322
 30
0.0
 11
8.016288151261852
 21
-518.0286013890939
 31
0.0
  0
LINE
  5
213DF
330
18
100
AcDbEntity
  8
1PHANTOM
100
AcDbLine
 10
8.016288151261852
 20
-518.0286013890939
 30
0.0
 11
8.016288151262074
 21
-547.7286013889859
 31
0.0
  0
LINE
  5
213E0
330
18
100
AcDbEntity
  8
1PHANTOM
100
AcDbLine
 10
9.516288151261854
 20
-512.7286048792322
 30
0.0
 11
11.01628815126196
 21
-518.0286083694776
 31
0.0
  0
LINE
  5
213E1
330
18
100
AcDbEntity
  8
1PHANTOM
100
AcDbLine
 10
6.016241615364037
 20
-547.7285967352877
 30
0.0
 11
13.01624161536392
 21
-547.7286130228521
 31
0.0
  0
LINE
  5
213E2
330
18
100
AcDbEntity
  8
1PHANTOM
100
AcDbLine
 10
11.01628815126196
 20
-518.0286083694776
 30
0.0
 11
11.01628815126207
 21
-547.7286083693705
 31
0.0
  0
LINE
  5
213E3
330
18
100
AcDbEntity
  8
1PHANTOM
100
AcDbLine
 10
6.016241615364037
 20
-547.7285967352877
 30
0.0
 11
6.016241615363924
 21
-548.8286002254831
 31
0.0
  0
ARC
  5
213E4
330
18
100
AcDbEntity
  8
1PHANTOM
100
AcDbCircle
 10
7.516241615363924
 20
-548.8286002254831
 30
0.0
 40
1.5
100
AcDbArc
 50
180.0
 51
269.9998666844684
  0
LINE
  5
213E5
330
18
100
AcDbEntity
  8
1PHANTOM
100
AcDbLine
 10
13.01624161536392
 20
-547.7286130228521
 30
0.0
 11
13.01624161536392
 21
-548.8286095326627
 31
0.0
  0
LINE
  5
213E6
330
18
100
AcDbEntity
  8
01
100
AcDbLine
 10
7.516238125171526
 20
-550.328600225479
 30
0.0
 11
11.51623812517152
 21
-550.3286095326586
 31
0.0
  0
ARC
  5
213E7
330
18
100
AcDbEntity
  8
1PHANTOM
100
AcDbCircle
 10
11.51624161536392
 20
-548.8286095326627
 30
0.0
 40
1.5
100
AcDbArc
 50
269.9998666844684
 51
0.0
  0
LINE
  5
213E9
330
18
100
AcDbEntity
  8
1PHANTOM
100
AcDbLine
 10
8.421917801368868
 20
-514.8286023329101
 30
0.0
 11
10.38425289024429
 21
-514.0286068988591
 31
0.0
  0
LINE
  5
213EA
330
18
100
AcDbEntity
  8
1PHANTOM
100
AcDbLine
 10
10.38425289024429
 20
-514.0286068988591
 30
0.0
 11
9.795976315201876
 21
-513.716837042607
 31
0.0
  0
LINE
  5
213EB
330
18
100
AcDbEntity
  8
1PHANTOM
100
AcDbLine
 10
7.516288151261848
 20
-537.2286002257001
 30
0.0
 11
11.51628815126185
 21
-536.4286095328818
 31
0.0
  0
LINE
  5
213EC
330
18
100
AcDbEntity
  8
1PHANTOM
100
AcDbLine
 10
7.51628815126185
 20
-526.0286002256957
 30
0.0
 11
11.51628815126185
 21
-525.2286095328732
 31
0.0
  0
LINE
  5
213ED
330
18
100
AcDbEntity
  8
1PHANTOM
100
AcDbLine
 10
7.516288151261851
 20
-522.8286002256957
 30
0.0
 11
11.51628815126185
 21
-522.0286095328731
 31
0.0
  0
LINE
  5
213EE
330
18
100
AcDbEntity
  8
1PHANTOM
100
AcDbLine
 10
11.51628815126185
 20
-522.0286095328731
 30
0.0
 11
11.01628815126185
 21
-521.9286083694758
 31
0.0
  0
LINE
  5
213EF
330
18
100
AcDbEntity
  8
1PHANTOM
100
AcDbLine
 10
8.016288151261852
 20
-521.3286013890929
 30
0.0
 11
7.516288151261852
 21
-521.2286002256957
 31
0.0
  0
LINE
  5
213F0
330
18
100
AcDbEntity
  8
1PHANTOM
100
AcDbLine
 10
11.51628815126185
 20
-525.2286095328732
 30
0.0
 11
11.01628815126185
 21
-525.1286083694759
 31
0.0
  0
LINE
  5
213F1
330
18
100
AcDbEntity
  8
1PHANTOM
100
AcDbLine
 10
11.51628815126185
 20
-523.628609532873
 30
0.0
 11
11.01628815126185
 21
-523.5286083694759
 31
0.0
  0
LINE
  5
213F2
330
18
100
AcDbEntity
  8
1PHANTOM
100
AcDbLine
 10
8.016288151261852
 20
-522.9286013890928
 30
0.0
 11
7.516288151261851
 21
-522.8286002256957
 31
0.0
  0
LINE
  5
213F3
330
18
100
AcDbEntity
  8
1PHANTOM
100
AcDbLine
 10
8.01628815126185
 20
-524.5286013890927
 30
0.0
 11
7.516288151261851
 21
-524.4286002256956
 31
0.0
  0
LINE
  5
213F4
330
18
100
AcDbEntity
  8
1PHANTOM
100
AcDbLine
 10
7.516288151261851
 20
-524.4286002256956
 30
0.0
 11
11.51628815126185
 21
-523.628609532873
 31
0.0
  0
LINE
  5
213F5
330
18
100
AcDbEntity
  8
1PHANTOM
100
AcDbLine
 10
10.83706699465109
 20
-515.6286079524647
 30
0.0
 11
10.28531753084781
 21
-515.4458438098368
 31
0.0
  0
LINE
  5
213F6
330
18
100
AcDbEntity
  8
1PHANTOM
100
AcDbLine
 10
11.51628815126185
 20
-518.8286095328731
 30
0.0
 11
11.01628815126185
 21
-518.7286083694759
 31
0.0
  0
LINE
  5
213F7
330
18
100
AcDbEntity
  8
1PHANTOM
100
AcDbLine
 10
11.51628815126185
 20
-520.4286095328731
 30
0.0
 11
11.01628815126185
 21
-520.3286083694761
 31
0.0
  0
LINE
  5
213F8
330
18
100
AcDbEntity
  8
1PHANTOM
100
AcDbLine
 10
11.28988109905788
 20
-517.2286090060704
 30
0.0
 11
10.75328736378674
 21
-517.0993383084406
 31
0.0
  0
LINE
  5
213F9
330
18
100
AcDbEntity
  8
1PHANTOM
100
AcDbLine
 10
8.437202748470559
 20
-516.5413707916559
 30
0.0
 11
7.969104293320588
 21
-516.4286012793058
 31
0.0
  0
LINE
  5
213FA
330
18
100
AcDbEntity
  8
1PHANTOM
100
AcDbLine
 10
8.016288151261852
 20
-519.7286013890927
 30
0.0
 11
7.516288151261852
 21
-519.6286002256957
 31
0.0
  0
LINE
  5
213FB
330
18
100
AcDbEntity
  8
1PHANTOM
100
AcDbLine
 10
8.016288151261852
 20
-518.1286013890928
 30
0.0
 11
7.516288151261852
 21
-518.0286002256957
 31
0.0
  0
LINE
  5
213FC
330
18
100
AcDbEntity
  8
1PHANTOM
100
AcDbLine
 10
8.879089641999945
 20
-514.9800381293505
 30
0.0
 11
8.421917801368868
 21
-514.8286023329101
 31
0.0
  0
LINE
  5
213FD
330
18
100
AcDbEntity
  8
1PHANTOM
100
AcDbLine
 10
7.969104293320588
 20
-516.4286012793058
 30
0.0
 11
10.83706699465109
 21
-515.6286079524647
 31
0.0
  0
LINE
  5
213FE
330
18
100
AcDbEntity
  8
1PHANTOM
100
AcDbLine
 10
7.516288151261852
 20
-519.6286002256957
 30
0.0
 11
11.51628815126185
 21
-518.8286095328731
 31
0.0
  0
LINE
  5
213FF
330
18
100
AcDbEntity
  8
1PHANTOM
100
AcDbLine
 10
7.516288151261852
 20
-518.0286002256957
 30
0.0
 11
11.28988109905788
 21
-517.2286090060704
 31
0.0
  0
LINE
  5
21400
330
18
100
AcDbEntity
  8
1PHANTOM
100
AcDbLine
 10
7.516288151261852
 20
-521.2286002256957
 30
0.0
 11
11.51628815126185
 21
-520.4286095328731
 31
0.0
  0
LINE
  5
21401
330
18
100
AcDbEntity
  8
1PHANTOM
100
AcDbLine
 10
7.516288151261849
 20
-534.0286002257
 30
0.0
 11
11.51628815126185
 21
-533.2286095328818
 31
0.0
  0
LINE
  5
21402
330
18
100
AcDbEntity
  8
1PHANTOM
100
AcDbLine
 10
11.51628815126185
 20
-533.2286095328818
 30
0.0
 11
11.01628815126185
 21
-533.1286083694841
 31
0.0
  0
LINE
  5
21403
330
18
100
AcDbEntity
  8
1PHANTOM
100
AcDbLine
 10
8.01628815126185
 20
-532.5286013890933
 30
0.0
 11
7.516288151261849
 21
-532.4286002256957
 31
0.0
  0
LINE
  5
21404
330
18
100
AcDbEntity
  8
1PHANTOM
100
AcDbLine
 10
11.51628815126185
 20
-534.8286095328819
 30
0.0
 11
11.01628815126185
 21
-534.7286083694842
 31
0.0
  0
LINE
  5
21405
330
18
100
AcDbEntity
  8
1PHANTOM
100
AcDbLine
 10
11.51628815126185
 20
-536.4286095328818
 30
0.0
 11
11.01628815126185
 21
-536.3286083694841
 31
0.0
  0
LINE
  5
21406
330
18
100
AcDbEntity
  8
1PHANTOM
100
AcDbLine
 10
8.016288151261848
 20
-534.1286013890977
 30
0.0
 11
7.516288151261849
 21
-534.0286002257
 31
0.0
  0
LINE
  5
21407
330
18
100
AcDbEntity
  8
1PHANTOM
100
AcDbLine
 10
8.016288151261848
 20
-535.7286013890979
 30
0.0
 11
7.516288151261848
 21
-535.6286002257002
 31
0.0
  0
LINE
  5
21408
330
18
100
AcDbEntity
  8
1PHANTOM
100
AcDbLine
 10
7.516288151261848
 20
-535.6286002257002
 30
0.0
 11
11.51628815126185
 21
-534.8286095328819
 31
0.0
  0
LINE
  5
21409
330
18
100
AcDbEntity
  8
1PHANTOM
100
AcDbLine
 10
11.51628815126185
 20
-528.4286095328774
 30
0.0
 11
11.01628815126185
 21
-528.3286083694797
 31
0.0
  0
LINE
  5
2140A
330
18
100
AcDbEntity
  8
1PHANTOM
100
AcDbLine
 10
11.51628815126185
 20
-526.8286095328731
 30
0.0
 11
11.01628815126185
 21
-526.7286083694759
 31
0.0
  0
LINE
  5
2140B
330
18
100
AcDbEntity
  8
1PHANTOM
100
AcDbLine
 10
11.51628815126185
 20
-531.6286095328774
 30
0.0
 11
11.01628815126185
 21
-531.5286083694798
 31
0.0
  0
LINE
  5
2140C
330
18
100
AcDbEntity
  8
1PHANTOM
100
AcDbLine
 10
11.51628815126185
 20
-530.0286095328775
 30
0.0
 11
11.01628815126185
 21
-529.9286083694799
 31
0.0
  0
LINE
  5
2140D
330
18
100
AcDbEntity
  8
1PHANTOM
100
AcDbLine
 10
8.01628815126185
 20
-526.1286013890928
 30
0.0
 11
7.51628815126185
 21
-526.0286002256957
 31
0.0
  0
LINE
  5
2140E
330
18
100
AcDbEntity
  8
1PHANTOM
100
AcDbLine
 10
8.01628815126185
 20
-527.7286013890934
 30
0.0
 11
7.51628815126185
 21
-527.6286002256957
 31
0.0
  0
LINE
  5
2140F
330
18
100
AcDbEntity
  8
1PHANTOM
100
AcDbLine
 10
8.01628815126185
 20
-530.9286013890934
 30
0.0
 11
7.51628815126185
 21
-530.8286002256958
 31
0.0
  0
LINE
  5
21410
330
18
100
AcDbEntity
  8
1PHANTOM
100
AcDbLine
 10
8.01628815126185
 20
-529.3286013890933
 30
0.0
 11
7.51628815126185
 21
-529.2286002256957
 31
0.0
  0
LINE
  5
21411
330
18
100
AcDbEntity
  8
1PHANTOM
100
AcDbLine
 10
7.51628815126185
 20
-529.2286002256957
 30
0.0
 11
11.51628815126185
 21
-528.4286095328774
 31
0.0
  0
LINE
  5
21412
330
18
100
AcDbEntity
  8
1PHANTOM
100
AcDbLine
 10
7.51628815126185
 20
-527.6286002256957
 30
0.0
 11
11.51628815126185
 21
-526.8286095328731
 31
0.0
  0
LINE
  5
21413
330
18
100
AcDbEntity
  8
1PHANTOM
100
AcDbLine
 10
7.51628815126185
 20
-530.8286002256958
 30
0.0
 11
11.51628815126185
 21
-530.0286095328775
 31
0.0
  0
LINE
  5
21414
330
18
100
AcDbEntity
  8
1PHANTOM
100
AcDbLine
 10
7.516288151261849
 20
-532.4286002256957
 30
0.0
 11
11.51628815126185
 21
-531.6286095328774
 31
0.0
  0
LINE
  5
21415
330
18
100
AcDbEntity
  8
1PHANTOM
100
AcDbLine
 10
8.016288151261848
 20
-542.1286013891019
 30
0.0
 11
7.516288151261847
 21
-542.0286002257042
 31
0.0
  0
LINE
  5
21416
330
18
100
AcDbEntity
  8
1PHANTOM
100
AcDbLine
 10
7.516288151261847
 20
-542.0286002257042
 30
0.0
 11
11.51628815126185
 21
-541.228609532886
 31
0.0
  0
LINE
  5
21417
330
18
100
AcDbEntity
  8
1PHANTOM
100
AcDbLine
 10
11.51628815126185
 20
-541.228609532886
 30
0.0
 11
11.01628815126185
 21
-541.1286083694883
 31
0.0
  0
LINE
  5
21418
330
18
100
AcDbEntity
  8
1PHANTOM
100
AcDbLine
 10
8.016288151261848
 20
-540.5286013891021
 30
0.0
 11
7.516288151261848
 21
-540.4286002257044
 31
0.0
  0
LINE
  5
21419
330
18
100
AcDbEntity
  8
1PHANTOM
100
AcDbLine
 10
8.016288151261848
 20
-538.9286013891021
 30
0.0
 11
7.516288151261848
 21
-538.8286002257045
 31
0.0
  0
LINE
  5
2141A
330
18
100
AcDbEntity
  8
1PHANTOM
100
AcDbLine
 10
7.516288151261848
 20
-538.8286002257045
 30
0.0
 11
11.51628815126185
 21
-538.0286095328862
 31
0.0
  0
LINE
  5
2141B
330
18
100
AcDbEntity
  8
1PHANTOM
100
AcDbLine
 10
11.51628815126185
 20
-539.6286095328861
 30
0.0
 11
11.01628815126185
 21
-539.5286083694884
 31
0.0
  0
LINE
  5
2141C
330
18
100
AcDbEntity
  8
1PHANTOM
100
AcDbLine
 10
11.51628815126185
 20
-538.0286095328862
 30
0.0
 11
11.01628815126185
 21
-537.9286083694885
 31
0.0
  0
LINE
  5
2141D
330
18
100
AcDbEntity
  8
1PHANTOM
100
AcDbLine
 10
7.516288151261848
 20
-540.4286002257044
 30
0.0
 11
11.51628815126185
 21
-539.6286095328861
 31
0.0
  0
LINE
  5
2141E
330
18
100
AcDbEntity
  8
1PHANTOM
100
AcDbLine
 10
8.016288151261848
 20
-537.3286013890978
 30
0.0
 11
7.516288151261848
 21
-537.2286002257001
 31
0.0
  0
LINE
  5
2141F
330
18
100
AcDbEntity
  8
1PHANTOM
100
AcDbLine
 10
8.016288151261846
 20
-543.7286013891018
 30
0.0
 11
7.516288151261847
 21
-543.6286002257041
 31
0.0
  0
LINE
  5
21420
330
18
100
AcDbEntity
  8
1PHANTOM
100
AcDbLine
 10
7.516288151261847
 20
-543.6286002257041
 30
0.0
 11
11.51628815126184
 21
-542.8286095328859
 31
0.0
  0
LINE
  5
21421
330
18
100
AcDbEntity
  8
1PHANTOM
100
AcDbLine
 10
11.51628815126184
 20
-542.8286095328859
 30
0.0
 11
11.01628815126185
 21
-542.7286083694882
 31
0.0
  0
LINE
  5
21422
330
18
100
AcDbEntity
  8
1PHANTOM
100
AcDbLine
 10
8.016288151261846
 20
-545.3286013891017
 30
0.0
 11
7.516288151261846
 21
-545.228600225704
 31
0.0
  0
LINE
  5
21423
330
18
100
AcDbEntity
  8
1PHANTOM
100
AcDbLine
 10
7.516288151261846
 20
-545.228600225704
 30
0.0
 11
11.51628815126184
 21
-544.4286095328858
 31
0.0
  0
LINE
  5
21424
330
18
100
AcDbEntity
  8
1PHANTOM
100
AcDbLine
 10
11.51628815126184
 20
-544.4286095328858
 30
0.0
 11
11.01628815126185
 21
-544.3286083694881
 31
0.0
  0
LINE
  5
21425
330
18
100
AcDbEntity
  8
1PHANTOM
100
AcDbLine
 10
8.016288151261846
 20
-546.9286013891016
 30
0.0
 11
7.516288151261846
 21
-546.8286002257039
 31
0.0
  0
LINE
  5
21426
330
18
100
AcDbEntity
  8
1PHANTOM
100
AcDbLine
 10
7.516288151261846
 20
-546.8286002257039
 30
0.0
 11
11.51628815126184
 21
-546.0286095328857
 31
0.0
  0
LINE
  5
21427
330
18
100
AcDbEntity
  8
1PHANTOM
100
AcDbLine
 10
11.51628815126184
 20
-546.0286095328857
 30
0.0
 11
11.01628815126185
 21
-545.928608369488
 31
0.0
  0
TEXT
  5
215BE
330
18
100
AcDbEntity
  8
01
100
AcDbText
 10
762.8891752713526
 20
-611.3902613041472
 30
0.0
 40
3.5
  1
合板9mm以上
100
AcDbText
  0
TEXT
  5
215BF
330
18
100
AcDbEntity
  8
01
100
AcDbText
 10
749.7537571261874
 20
-611.3902613041472
 30
0.0
 40
3.5
  1
PB
100
AcDbText
  0
LINE
  5
215C0
330
18
100
AcDbEntity
  8
1DIM
100
AcDbLine
 10
743.0162416153649
 20
-629.8213303512618
 30
0.0
 11
805.5162416153649
 21
-629.8213303512619
 31
0.0
  0
LINE
  5
215C1
330
18
100
AcDbEntity
  8
1DIM
100
AcDbLine
 10
685.0162416153649
 20
-703.8213303512564
 30
0.0
 11
805.5162416153649
 21
-703.8213303512565
 31
0.0
  0
LINE
  5
215C2
330
18
100
AcDbEntity
  8
1DIM
100
AcDbLine
 10
804.5162416153649
 20
-631.8213303512619
 30
0.0
 11
804.5162416153649
 21
-701.8213303512565
 31
0.0
  0
LINE
  5
215C6
330
18
100
AcDbEntity
  8
1DIM
100
AcDbLine
 10
776.447036532668
 20
-670.82133035126
 30
0.0
 11
785.5162416153649
 21
-670.82133035126
 31
0.0
  0
LINE
  5
215C7
330
18
100
AcDbEntity
  8
1DIM
100
AcDbLine
 10
776.9860209429662
 20
-640.8213303512727
 30
0.0
 11
785.5162416153649
 21
-640.8213303512727
 31
0.0
  0
LINE
  5
215C8
330
18
100
AcDbEntity
  8
1DIM
100
AcDbLine
 10
784.5162416153649
 20
-668.82133035126
 30
0.0
 11
784.5162416153649
 21
-642.8213303512727
 31
0.0
  0
SOLID
  5
215CC
330
18
100
AcDbEntity
  8
1DIM
100
AcDbTrace
 10
759.8062660649304
 20
-624.9354292138315
 30
0.0
 11
759.0653313382375
 21
-626.8227889680627
 31
0.0
 12
759.1540988621154
 22
-624.797145505403
 32
0.0
 13
759.1540988621154
 23
-624.797145505403
 33
0.0
1001
ACAD
1000
DSTYLE
1002
{
1070
    45
1040
0.5
1002
}
  0
SOLID
  5
215CE
330
18
100
AcDbEntity
  8
1DIM
100
AcDbTrace
 10
746.6708479197652
 20
-624.9354292138315
 30
0.0
 11
745.9299131930723
 21
-626.8227889680627
 31
0.0
 12
746.0186807169501
 22
-624.797145505403
 32
0.0
 13
746.0186807169501
 23
-624.797145505403
 33
0.0
1001
ACAD
1000
DSTYLE
1002
{
1070
    45
1040
0.5
1002
}
  0
LINE
  5
215D0
330
18
100
AcDbEntity
  8
1DIM
100
AcDbLine
 10
635.5162416153648
 20
-544.7286048790698
 30
0.0
 11
635.5162416153648
 21
-507.8478099617669
 31
0.0
  0
LINE
  5
215D1
330
18
100
AcDbEntity
  8
1DIM
100
AcDbLine
 10
583.5162416153612
 20
-544.7286048790698
 30
0.0
 11
583.5162416153612
 21
-507.8478099617669
 31
0.0
  0
LINE
  5
215D2
330
18
100
AcDbEntity
  8
1DIM
100
AcDbLine
 10
633.5162416153648
 20
-508.8478099617669
 30
0.0
 11
585.5162416153611
 21
-508.8478099617669
 31
0.0
  0
LINE
  5
215D6
330
18
100
AcDbEntity
  8
1DIM
100
AcDbLine
 10
743.0162416153649
 20
-681.8213303512655
 30
0.0
 11
795.5162416153649
 21
-681.8213303512655
 31
0.0
  0
LINE
  5
215D7
330
18
100
AcDbEntity
  8
1DIM
100
AcDbLine
 10
743.0162416153649
 20
-629.8213303512618
 30
0.0
 11
795.5162416153649
 21
-629.8213303512619
 31
0.0
  0
LINE
  5
215D8
330
18
100
AcDbEntity
  8
1DIM
100
AcDbLine
 10
794.516241615365
 20
-679.8213303512656
 30
0.0
 11
794.516241615365
 21
-631.8213303512619
 31
0.0
  0
LINE
  5
215DC
330
18
100
AcDbEntity
  8
1DIM1
100
AcDbLine
 10
-23.98375838463744
 20
-690.82133035126
 30
0.0
 11
-23.98375838463744
 21
-746.8213303512664
 31
0.0
  0
LINE
  5
215DD
330
18
100
AcDbEntity
  8
1DIM1
100
AcDbLine
 10
643.0162416153653
 20
-690.82133035126
 30
0.0
 11
643.0162416153653
 21
-746.8213303512664
 31
0.0
  0
LINE
  5
215DE
330
18
100
AcDbEntity
  8
1DIM1
100
AcDbLine
 10
-17.98375838463744
 20
-743.8213303512664
 30
0.0
 11
637.0162416153653
 21
-743.8213303512664
 31
0.0
  0
LINE
  5
215E2
330
18
100
AcDbEntity
  8
1DIM
100
AcDbLine
 10
776.447036532668
 20
-640.8213303512727
 30
0.0
 11
785.5162416153649
 21
-640.8213303512727
 31
0.0
  0
LINE
  5
215E3
330
18
100
AcDbEntity
  8
1DIM
100
AcDbLine
 10
743.0162416153649
 20
-629.8213303512618
 30
0.0
 11
785.5162416153649
 21
-629.8213303512619
 31
0.0
  0
LINE
  5
215E4
330
18
100
AcDbEntity
  8
1DIM
100
AcDbLine
 10
784.5162416153649
 20
-638.8213303512728
 30
0.0
 11
784.5162416153649
 21
-631.8213303512619
 31
0.0
  0
LINE
  5
215E8
330
18
100
AcDbEntity
  8
1DIM
100
AcDbLine
 10
743.0162416153649
 20
-693.0495039365482
 30
0.0
 11
743.0162416153649
 21
-694.8213303512565
 31
0.0
  0
LINE
  5
215E9
330
18
100
AcDbEntity
  8
1DIM
100
AcDbLine
 10
725.0162416153649
 20
-670.161126558528
 30
0.0
 11
725.0162416153649
 21
-694.8213303512565
 31
0.0
  0
LINE
  5
215EA
330
18
100
AcDbEntity
  8
1DIM
100
AcDbLine
 10
741.0162416153649
 20
-693.8213303512565
 30
0.0
 11
727.0162416153649
 21
-693.8213303512565
 31
0.0
  0
LINE
  5
215EE
330
18
100
AcDbEntity
  8
1DIM
100
AcDbLine
 10
671.5162416153649
 20
-688.8213303512645
 30
0.0
 11
671.5162416153649
 21
-714.8213303512614
 31
0.0
  0
LINE
  5
215EF
330
18
100
AcDbEntity
  8
1DIM
100
AcDbLine
 10
743.0162416153649
 20
-693.0495039365482
 30
0.0
 11
743.0162416153649
 21
-714.8213303512614
 31
0.0
  0
LINE
  5
215F0
330
18
100
AcDbEntity
  8
1DIM
100
AcDbLine
 10
673.5162416153649
 20
-713.8213303512614
 30
0.0
 11
741.0162416153649
 21
-713.8213303512614
 31
0.0
  0
TEXT
  5
215F4
330
18
100
AcDbEntity
  8
1DIM
100
AcDbText
 10
530.7496861471925
 20
-631.9762411050557
 30
0.0
 40
3.5
  1
材質：亜鉛ダイキャスト
100
AcDbText
  0
TEXT
  5
215F5
330
18
100
AcDbEntity
  8
1DIM
100
AcDbText
 10
538.4496861471924
 20
-637.809574438389
 30
0.0
 40
3.5
  1
仕上げ：各種仕上げ
100
AcDbText
  0
SOLID
  5
215F6
330
18
100
AcDbEntity
  8
1DIM
100
AcDbTrace
 10
590.7986640318577
 20
-650.3497235072044
 30
0.0
 11
592.0084933401949
 21
-651.9768142102075
 31
0.0
 12
590.3363551178208
 22
-650.8300514289897
 32
0.0
 13
590.3363551178208
 23
-650.8300514289897
 33
0.0
1001
ACAD
1000
DSTYLE
1002
{
1070
    45
1040
0.5
1002
}
  0
TEXT
  5
215F8
330
18
100
AcDbEntity
  8
1DIM
100
AcDbText
 10
530.8760276552987
 20
-666.7938748561156
 30
0.0
 40
3.5
  1
材質：ステンレス
100
AcDbText
  0
TEXT
  5
215F9
330
18
100
AcDbEntity
  8
1DIM
100
AcDbText
 10
530.8760276552987
 20
-672.627208189449
 30
0.0
 40
3.5
  1
仕上げ：各種仕上げ
100
AcDbText
  0
SOLID
  5
215FA
330
18
100
AcDbEntity
  8
1DIM
100
AcDbTrace
 10
525.3632225996788
 20
-685.5388905416763
 30
0.0
 11
524.5398971605493
 21
-687.3917926795112
 31
0.0
 12
524.7177772879957
 22
-685.3720229472469
 32
0.0
 13
524.7177772879957
 23
-685.3720229472469
 33
0.0
1001
ACAD
1000
DSTYLE
1002
{
1070
    45
1040
0.5
1002
}
  0
LINE
  5
215FC
330
18
100
AcDbEntity
  8
1DIM
100
AcDbLine
 10
520.1999320120221
 20
-697.3213303512602
 30
0.0
 11
515.2591958391229
 21
-697.3213303512602
 31
0.0
  0
LINE
  5
215FD
330
18
100
AcDbEntity
  8
1DIM
100
AcDbLine
 10
520.0177927858492
 20
-684.3213303512604
 30
0.0
 11
515.2591958391229
 21
-684.3213303512604
 31
0.0
  0
LINE
  5
215FE
330
18
100
AcDbEntity
  8
1DIM
100
AcDbLine
 10
516.259195839123
 20
-695.3213303512602
 30
0.0
 11
516.259195839123
 21
-686.3213303512605
 31
0.0
  0
LINE
  5
215FF
330
18
100
AcDbEntity
  8
1DIM
100
AcDbLine
 10
516.259195839123
 20
-684.3213303512604
 30
0.0
 11
516.259195839123
 21
-668.7546636845937
 31
0.0
  0
LINE
  5
21603
330
18
100
AcDbEntity
  8
1DIM1
100
AcDbLine
 10
9.516241615363924
 20
-686.2662998781786
 30
0.0
 11
9.516241615363922
 21
-726.8213303512664
 31
0.0
  0
LINE
  5
21604
330
18
100
AcDbEntity
  8
1DIM1
100
AcDbLine
 10
609.5162416153639
 20
-686.2662998781781
 30
0.0
 11
609.5162416153639
 21
-726.8213303512664
 31
0.0
  0
LINE
  5
21605
330
18
100
AcDbEntity
  8
1DIM1
100
AcDbLine
 10
15.51624161536392
 20
-723.8213303512663
 30
0.0
 11
603.5162416153639
 21
-723.8213303512663
 31
0.0
  0
TEXT
  5
21609
330
18
100
AcDbEntity
  8
1DIM1
100
AcDbText
 10
295.2519476621553
 20
-721.7213303512663
 30
0.0
 40
10.5
  1
P600
100
AcDbText
  0
LINE
  5
2160A
330
18
100
AcDbEntity
  8
0
  6
ByBlock
100
AcDbLine
 10
603.5162416153639
 20
-722.2136352112663
 30
0.0
 11
609.5162416153639
 21
-723.8213303512663
 31
0.0
  0
LINE
  5
2160B
330
18
100
AcDbEntity
  8
0
  6
ByBlock
100
AcDbLine
 10
609.5162416153639
 20
-723.8213303512663
 30
0.0
 11
603.5162416153639
 21
-725.4290254912664
 31
0.0
  0
LINE
  5
2160C
330
18
100
AcDbEntity
  8
0
  6
ByBlock
100
AcDbLine
 10
609.5162416153639
 20
-723.8213303512663
 30
0.0
 11
603.5162416153639
 21
-723.8213303512663
 31
0.0
  0
LINE
  5
2160D
330
18
100
AcDbEntity
  8
0
  6
ByBlock
100
AcDbLine
 10
15.51624161536392
 20
-725.4290254912664
 30
0.0
 11
9.516241615363922
 21
-723.8213303512663
 31
0.0
  0
LINE
  5
2160E
330
18
100
AcDbEntity
  8
0
  6
ByBlock
100
AcDbLine
 10
9.516241615363922
 20
-723.8213303512663
 30
0.0
 11
15.51624161536392
 21
-722.2136352112663
 31
0.0
  0
LINE
  5
2160F
330
18
100
AcDbEntity
  8
0
  6
ByBlock
100
AcDbLine
 10
9.516241615363922
 20
-723.8213303512663
 30
0.0
 11
15.51624161536392
 21
-723.8213303512663
 31
0.0
  0
TEXT
  5
21610
330
18
100
AcDbEntity
  8
1DIM
100
AcDbText
 10
515.559195839123
 20
-679.0713303512604
 30
0.0
 40
3.5
  1
\U+03C613
 50
90.0
100
AcDbText
  0
LINE
  5
21611
330
18
100
AcDbEntity
  8
0
  6
ByBlock
100
AcDbLine
 10
515.7232974591229
 20
-686.3213303512605
 30
0.0
 11
516.259195839123
 21
-684.3213303512604
 31
0.0
  0
LINE
  5
21612
330
18
100
AcDbEntity
  8
0
  6
ByBlock
100
AcDbLine
 10
516.259195839123
 20
-684.3213303512604
 30
0.0
 11
516.795094219123
 21
-686.3213303512605
 31
0.0
  0
LINE
  5
21613
330
18
100
AcDbEntity
  8
0
  6
ByBlock
100
AcDbLine
 10
516.259195839123
 20
-684.3213303512604
 30
0.0
 11
516.259195839123
 21
-686.3213303512605
 31
0.0
  0
LINE
  5
21614
330
18
100
AcDbEntity
  8
0
  6
ByBlock
100
AcDbLine
 10
516.795094219123
 20
-695.3213303512602
 30
0.0
 11
516.259195839123
 21
-697.3213303512602
 31
0.0
  0
LINE
  5
21615
330
18
100
AcDbEntity
  8
0
  6
ByBlock
100
AcDbLine
 10
516.259195839123
 20
-697.3213303512602
 30
0.0
 11
515.7232974591229
 21
-695.3213303512602
 31
0.0
  0
LINE
  5
21616
330
18
100
AcDbEntity
  8
0
  6
ByBlock
100
AcDbLine
 10
516.259195839123
 20
-697.3213303512602
 30
0.0
 11
516.259195839123
 21
-695.3213303512602
 31
0.0
  0
LINE
  5
21617
330
18
100
AcDbEntity
  8
1DIM
100
AcDbLine
 10
525.0404999438371
 20
-685.4554567444616
 30
0.0
 11
528.1760276552986
 21
-673.327208189449
 31
0.0
1001
ACAD
1000
DSTYLE
1002
{
1070
    45
1040
0.5
1002
}
  0
LINE
  5
21618
330
18
100
AcDbEntity
  8
1DIM
100
AcDbLine
 10
528.1760276552986
 20
-673.327208189449
 30
0.0
 11
530.8760276552987
 21
-673.327208189449
 31
0.0
1001
ACAD
1000
DSTYLE
1002
{
1070
    45
1040
0.5
1002
}
  0
LINE
  5
21619
330
18
100
AcDbEntity
  8
1DIM
100
AcDbLine
 10
590.5675095748392
 20
-650.589887468097
 30
0.0
 11
578.0163528138591
 21
-638.5095744383891
 31
0.0
1001
ACAD
1000
DSTYLE
1002
{
1070
    45
1040
0.5
1002
}
  0
LINE
  5
2161A
330
18
100
AcDbEntity
  8
1DIM
100
AcDbLine
 10
578.0163528138591
 20
-638.5095744383891
 30
0.0
 11
575.3163528138591
 21
-638.5095744383891
 31
0.0
1001
ACAD
1000
DSTYLE
1002
{
1070
    45
1040
0.5
1002
}
  0
TEXT
  5
2161B
330
18
100
AcDbEntity
  8
1DIM
100
AcDbText
 10
702.5995749486983
 20
-713.1213303512613
 30
0.0
 40
3.5
  1
71.5
100
AcDbText
  0
LINE
  5
2161C
330
18
100
AcDbEntity
  8
0
  6
ByBlock
100
AcDbLine
 10
741.0162416153649
 20
-713.2854319712613
 30
0.0
 11
743.0162416153649
 21
-713.8213303512614
 31
0.0
  0
LINE
  5
2161D
330
18
100
AcDbEntity
  8
0
  6
ByBlock
100
AcDbLine
 10
743.0162416153649
 20
-713.8213303512614
 30
0.0
 11
741.0162416153649
 21
-714.3572287312614
 31
0.0
  0
LINE
  5
2161E
330
18
100
AcDbEntity
  8
0
  6
ByBlock
100
AcDbLine
 10
743.0162416153649
 20
-713.8213303512614
 30
0.0
 11
741.0162416153649
 21
-713.8213303512614
 31
0.0
  0
LINE
  5
2161F
330
18
100
AcDbEntity
  8
0
  6
ByBlock
100
AcDbLine
 10
673.5162416153649
 20
-714.3572287312614
 30
0.0
 11
671.5162416153649
 21
-713.8213303512614
 31
0.0
  0
LINE
  5
21620
330
18
100
AcDbEntity
  8
0
  6
ByBlock
100
AcDbLine
 10
671.5162416153649
 20
-713.8213303512614
 30
0.0
 11
673.5162416153649
 21
-713.2854319712613
 31
0.0
  0
LINE
  5
21621
330
18
100
AcDbEntity
  8
0
  6
ByBlock
100
AcDbLine
 10
671.5162416153649
 20
-713.8213303512614
 30
0.0
 11
673.5162416153649
 21
-713.8213303512614
 31
0.0
  0
TEXT
  5
21622
330
18
100
AcDbEntity
  8
1DIM
100
AcDbText
 10
731.6829082820316
 20
-693.1213303512564
 30
0.0
 40
3.5
  1
18
100
AcDbText
  0
LINE
  5
21623
330
18
100
AcDbEntity
  8
0
  6
ByBlock
100
AcDbLine
 10
727.0162416153649
 20
-694.3572287312565
 30
0.0
 11
725.0162416153649
 21
-693.8213303512565
 31
0.0
  0
LINE
  5
21624
330
18
100
AcDbEntity
  8
0
  6
ByBlock
100
AcDbLine
 10
725.0162416153649
 20
-693.8213303512565
 30
0.0
 11
727.0162416153649
 21
-693.2854319712564
 31
0.0
  0
LINE
  5
21625
330
18
100
AcDbEntity
  8
0
  6
ByBlock
100
AcDbLine
 10
725.0162416153649
 20
-693.8213303512565
 30
0.0
 11
727.0162416153649
 21
-693.8213303512565
 31
0.0
  0
LINE
  5
21626
330
18
100
AcDbEntity
  8
0
  6
ByBlock
100
AcDbLine
 10
741.0162416153649
 20
-693.2854319712564
 30
0.0
 11
743.0162416153649
 21
-693.8213303512565
 31
0.0
  0
LINE
  5
21627
330
18
100
AcDbEntity
  8
0
  6
ByBlock
100
AcDbLine
 10
743.0162416153649
 20
-693.8213303512565
 30
0.0
 11
741.0162416153649
 21
-694.3572287312565
 31
0.0
  0
LINE
  5
21628
330
18
100
AcDbEntity
  8
0
  6
ByBlock
100
AcDbLine
 10
743.0162416153649
 20
-693.8213303512565
 30
0.0
 11
741.0162416153649
 21
-693.8213303512565
 31
0.0
  0
TEXT
  5
21629
330
18
100
AcDbEntity
  8
1DIM
100
AcDbText
 10
783.816241615365
 20
-637.0713303512671
 30
0.0
 40
3.5
  1
11
 50
90.0
100
AcDbText
  0
LINE
  5
2162A
330
18
100
AcDbEntity
  8
0
  6
ByBlock
100
AcDbLine
 10
783.9803432353648
 20
-631.8213303512619
 30
0.0
 11
784.5162416153649
 21
-629.8213303512619
 31
0.0
  0
LINE
  5
2162B
330
18
100
AcDbEntity
  8
0
  6
ByBlock
100
AcDbLine
 10
784.5162416153649
 20
-629.8213303512619
 30
0.0
 11
785.052139995365
 21
-631.8213303512619
 31
0.0
  0
LINE
  5
2162C
330
18
100
AcDbEntity
  8
0
  6
ByBlock
100
AcDbLine
 10
784.5162416153649
 20
-629.8213303512619
 30
0.0
 11
784.5162416153649
 21
-631.8213303512619
 31
0.0
  0
LINE
  5
2162D
330
18
100
AcDbEntity
  8
0
  6
ByBlock
100
AcDbLine
 10
785.052139995365
 20
-638.8213303512728
 30
0.0
 11
784.5162416153649
 21
-640.8213303512727
 31
0.0
  0
LINE
  5
2162E
330
18
100
AcDbEntity
  8
0
  6
ByBlock
100
AcDbLine
 10
784.5162416153649
 20
-640.8213303512727
 30
0.0
 11
783.9803432353648
 21
-638.8213303512728
 31
0.0
  0
LINE
  5
2162F
330
18
100
AcDbEntity
  8
0
  6
ByBlock
100
AcDbLine
 10
784.5162416153649
 20
-640.8213303512727
 30
0.0
 11
784.5162416153649
 21
-638.8213303512728
 31
0.0
  0
TEXT
  5
21630
330
18
100
AcDbEntity
  8
1DIM1
100
AcDbText
 10
295.5162416153639
 20
-741.7213303512664
 30
0.0
 40
10.5
  1
667
100
AcDbText
  0
LINE
  5
21631
330
18
100
AcDbEntity
  8
0
  6
ByBlock
100
AcDbLine
 10
637.0162416153653
 20
-742.2136352112663
 30
0.0
 11
643.0162416153653
 21
-743.8213303512664
 31
0.0
  0
LINE
  5
21632
330
18
100
AcDbEntity
  8
0
  6
ByBlock
100
AcDbLine
 10
643.0162416153653
 20
-743.8213303512664
 30
0.0
 11
637.0162416153653
 21
-745.4290254912664
 31
0.0
  0
LINE
  5
21633
330
18
100
AcDbEntity
  8
0
  6
ByBlock
100
AcDbLine
 10
643.0162416153653
 20
-743.8213303512664
 30
0.0
 11
637.0162416153653
 21
-743.8213303512664
 31
0.0
  0
LINE
  5
21634
330
18
100
AcDbEntity
  8
0
  6
ByBlock
100
AcDbLine
 10
-17.98375838463744
 20
-745.4290254912664
 30
0.0
 11
-23.98375838463744
 21
-743.8213303512664
 31
0.0
  0
LINE
  5
21635
330
18
100
AcDbEntity
  8
0
  6
ByBlock
100
AcDbLine
 10
-23.98375838463744
 20
-743.8213303512664
 30
0.0
 11
-17.98375838463744
 21
-742.2136352112663
 31
0.0
  0
LINE
  5
21636
330
18
100
AcDbEntity
  8
0
  6
ByBlock
100
AcDbLine
 10
-23.98375838463744
 20
-743.8213303512664
 30
0.0
 11
-17.98375838463744
 21
-743.8213303512664
 31
0.0
  0
TEXT
  5
21637
330
18
100
AcDbEntity
  8
1DIM
100
AcDbText
 10
793.816241615365
 20
-661.1879970179302
 30
0.0
 40
3.5
  1
\U+03C652
 50
90.0
100
AcDbText
  0
LINE
  5
21638
330
18
100
AcDbEntity
  8
0
  6
ByBlock
100
AcDbLine
 10
793.9803432353649
 20
-631.8213303512619
 30
0.0
 11
794.516241615365
 21
-629.8213303512619
 31
0.0
  0
LINE
  5
21639
330
18
100
AcDbEntity
  8
0
  6
ByBlock
100
AcDbLine
 10
794.516241615365
 20
-629.8213303512619
 30
0.0
 11
795.0521399953649
 21
-631.8213303512619
 31
0.0
  0
LINE
  5
2163A
330
18
100
AcDbEntity
  8
0
  6
ByBlock
100
AcDbLine
 10
794.516241615365
 20
-629.8213303512619
 30
0.0
 11
794.516241615365
 21
-631.8213303512619
 31
0.0
  0
LINE
  5
2163B
330
18
100
AcDbEntity
  8
0
  6
ByBlock
100
AcDbLine
 10
795.0521399953649
 20
-679.8213303512656
 30
0.0
 11
794.516241615365
 21
-681.8213303512655
 31
0.0
  0
LINE
  5
2163C
330
18
100
AcDbEntity
  8
0
  6
ByBlock
100
AcDbLine
 10
794.516241615365
 20
-681.8213303512655
 30
0.0
 11
793.9803432353649
 21
-679.8213303512656
 31
0.0
  0
LINE
  5
2163D
330
18
100
AcDbEntity
  8
0
  6
ByBlock
100
AcDbLine
 10
794.516241615365
 20
-681.8213303512655
 30
0.0
 11
794.516241615365
 21
-679.8213303512656
 31
0.0
  0
TEXT
  5
2163E
330
18
100
AcDbEntity
  8
1DIM
100
AcDbText
 10
604.1495749486972
 20
-508.1478099617669
 30
0.0
 40
3.5
  1
\U+03C652
100
AcDbText
  0
LINE
  5
2163F
330
18
100
AcDbEntity
  8
0
  6
ByBlock
100
AcDbLine
 10
585.5162416153611
 20
-509.3837083417668
 30
0.0
 11
583.5162416153612
 21
-508.8478099617669
 31
0.0
  0
LINE
  5
21640
330
18
100
AcDbEntity
  8
0
  6
ByBlock
100
AcDbLine
 10
583.5162416153612
 20
-508.8478099617669
 30
0.0
 11
585.5162416153611
 21
-508.3119115817669
 31
0.0
  0
LINE
  5
21641
330
18
100
AcDbEntity
  8
0
  6
ByBlock
100
AcDbLine
 10
583.5162416153612
 20
-508.8478099617669
 30
0.0
 11
585.5162416153611
 21
-508.8478099617669
 31
0.0
  0
LINE
  5
21642
330
18
100
AcDbEntity
  8
0
  6
ByBlock
100
AcDbLine
 10
633.5162416153648
 20
-508.3119115817669
 30
0.0
 11
635.5162416153648
 21
-508.8478099617669
 31
0.0
  0
LINE
  5
21643
330
18
100
AcDbEntity
  8
0
  6
ByBlock
100
AcDbLine
 10
635.5162416153648
 20
-508.8478099617669
 30
0.0
 11
633.5162416153648
 21
-509.3837083417668
 31
0.0
  0
LINE
  5
21644
330
18
100
AcDbEntity
  8
0
  6
ByBlock
100
AcDbLine
 10
635.5162416153648
 20
-508.8478099617669
 30
0.0
 11
633.5162416153648
 21
-508.8478099617669
 31
0.0
  0
LINE
  5
21645
330
18
100
AcDbEntity
  8
1DIM
100
AcDbLine
 10
746.3447643183577
 20
-624.8662873596172
 30
0.0
 11
749.0537571261874
 21
-612.0902613041472
 31
0.0
1001
ACAD
1000
DSTYLE
1002
{
1070
    45
1040
0.5
1002
}
  0
LINE
  5
21646
330
18
100
AcDbEntity
  8
1DIM
100
AcDbLine
 10
759.4801824635228
 20
-624.8662873596172
 30
0.0
 11
762.1891752713525
 21
-612.0902613041472
 31
0.0
1001
ACAD
1000
DSTYLE
1002
{
1070
    45
1040
0.5
1002
}
  0
TEXT
  5
21647
330
18
100
AcDbEntity
  8
1DIM
100
AcDbText
 10
783.816241615365
 20
-660.1963303512661
 30
0.0
 40
3.5
  1
P30
 50
90.0
100
AcDbText
  0
LINE
  5
21648
330
18
100
AcDbEntity
  8
0
  6
ByBlock
100
AcDbLine
 10
783.9803432353648
 20
-642.8213303512727
 30
0.0
 11
784.5162416153649
 21
-640.8213303512727
 31
0.0
  0
LINE
  5
21649
330
18
100
AcDbEntity
  8
0
  6
ByBlock
100
AcDbLine
 10
784.5162416153649
 20
-640.8213303512727
 30
0.0
 11
785.052139995365
 21
-642.8213303512727
 31
0.0
  0
LINE
  5
2164A
330
18
100
AcDbEntity
  8
0
  6
ByBlock
100
AcDbLine
 10
784.5162416153649
 20
-640.8213303512727
 30
0.0
 11
784.5162416153649
 21
-642.8213303512727
 31
0.0
  0
LINE
  5
2164B
330
18
100
AcDbEntity
  8
0
  6
ByBlock
100
AcDbLine
 10
785.052139995365
 20
-668.82133035126
 30
0.0
 11
784.5162416153649
 21
-670.82133035126
 31
0.0
  0
LINE
  5
2164C
330
18
100
AcDbEntity
  8
0
  6
ByBlock
100
AcDbLine
 10
784.5162416153649
 20
-670.82133035126
 30
0.0
 11
783.9803432353648
 21
-668.82133035126
 31
0.0
  0
LINE
  5
2164D
330
18
100
AcDbEntity
  8
0
  6
ByBlock
100
AcDbLine
 10
784.5162416153649
 20
-670.82133035126
 30
0.0
 11
784.5162416153649
 21
-668.82133035126
 31
0.0
  0
TEXT
  5
2164E
330
18
100
AcDbEntity
  8
1DIM
100
AcDbText
 10
803.816241615365
 20
-669.7379970179256
 30
0.0
 40
3.5
  1
74
 50
90.0
100
AcDbText
  0
LINE
  5
2164F
330
18
100
AcDbEntity
  8
0
  6
ByBlock
100
AcDbLine
 10
805.052139995365
 20
-701.8213303512565
 30
0.0
 11
804.5162416153649
 21
-703.8213303512565
 31
0.0
  0
LINE
  5
21650
330
18
100
AcDbEntity
  8
0
  6
ByBlock
100
AcDbLine
 10
804.5162416153649
 20
-703.8213303512565
 30
0.0
 11
803.9803432353648
 21
-701.8213303512565
 31
0.0
  0
LINE
  5
21651
330
18
100
AcDbEntity
  8
0
  6
ByBlock
100
AcDbLine
 10
804.5162416153649
 20
-703.8213303512565
 30
0.0
 11
804.5162416153649
 21
-701.8213303512565
 31
0.0
  0
LINE
  5
21652
330
18
100
AcDbEntity
  8
0
  6
ByBlock
100
AcDbLine
 10
803.9803432353648
 20
-631.8213303512619
 30
0.0
 11
804.5162416153649
 21
-629.8213303512619
 31
0.0
  0
LINE
  5
21653
330
18
100
AcDbEntity
  8
0
  6
ByBlock
100
AcDbLine
 10
804.5162416153649
 20
-629.8213303512619
 30
0.0
 11
805.052139995365
 21
-631.8213303512619
 31
0.0
  0
LINE
  5
21654
330
18
100
AcDbEntity
  8
0
  6
ByBlock
100
AcDbLine
 10
804.5162416153649
 20
-629.8213303512619
 30
0.0
 11
804.5162416153649
 21
-631.8213303512619
 31
0.0
  0
VIEWPORT
  5
57
102
{ACAD_XDICTIONARY
360
21675
102
}
330
15
100
AcDbEntity
 67
     1
  8
0
100
AcDbViewport
 10
-12.71820606546885
 20
10.09248672500371
 30
0.0
 40
739.0163519914582
 41
283.3858276842245
 68
     1
 69
     1
 12
-12.71820606546885
 22
10.09248672500371
 13
0.0
 23
0.0
 14
10.0
 24
10.0
 15
10.0
 25
10.0
 16
0.0
 26
0.0
 36
1.0
 17
0.0
 27
0.0
 37
0.0
 42
50.0
 43
0.0
 44
0.0
 45
283.3858276842245
 50
0.0
 51
0.0
 72
   100
 90
    32800
  1

281
     0
 71
     1
 74
     0
110
0.0
120
0.0
130
0.0
111
1.0
121
0.0
131
0.0
112
0.0
122
1.0
132
0.0
 79
     0
146
0.0
  0
ENDSEC
  0
SECTION
  2
OBJECTS
  0
DICTIONARY
  5
C
330
0
100
AcDbDictionary
281
     1
  3
ACAD_CIP_PREVIOUS_PRODUCT_INFO
350
1F398
  3
ACAD_COLOR
350
2D0
  3
ACAD_GROUP
350
D
  3
ACAD_LAYOUT
350
2D1
  3
ACAD_MATERIAL
350
2CF
  3
ACAD_MLEADERSTYLE
350
19E18
  3
ACAD_MLINESTYLE
350
1B
  3
ACAD_PLOTSETTINGS
350
2D2
  3
ACAD_PLOTSTYLENAME
350
2CD
  3
ACAD_SCALELIST
350
19DF6
  3
ACAD_TABLESTYLE
350
4D6
  3
ACAD_VISUALSTYLE
350
19DE5
  3
ACDB_RECOMPOSE_DATA
350
21673
  3
ACDBVARIABLEDICTIONARY
350
37
  3
AEC_PROPERTY_SET_DEFS
350
21524
  3
CONTENTDICTIONARY
350
D8
  3
DRAWINGVARIABLESDICT
350
20
  3
DWGPROPS
350
21674
  0
DICTIONARY
  5
1ABDC
330
8
100
AcDbDictionary
280
     1
281
     1
  0
DICTIONARY
  5
18FE8
330
2
100
AcDbDictionary
280
     1
281
     1
  3
ACAD_LAYERSTATES
360
18FE9
  0
DICTIONARY
  5
1A20A
330
E
100
AcDbDictionary
280
     1
281
     1
  3
ADSK_XREC_LAYER_RECONCILED
360
1A20B
  0
DICTIONARY
  5
1A20C
330
29
100
AcDbDictionary
280
     1
281
     1
  3
ADSK_XREC_LAYER_RECONCILED
360
1A20D
  0
DICTIONARY
  5
1A20E
330
31
100
AcDbDictionary
280
     1
281
     1
  3
ADSK_XREC_LAYER_RECONCILED
360
1A20F
  0
DICTIONARY
  5
1A218
330
101
100
AcDbDictionary
280
     1
281
     1
  3
ADSK_XREC_LAYER_RECONCILED
360
1A219
  0
DICTIONARY
  5
1A21C
330
103
100
AcDbDictionary
280
     1
281
     1
  3
ADSK_XREC_LAYER_RECONCILED
360
1A21D
  0
DICTIONARY
  5
1A220
330
25F
100
AcDbDictionary
280
     1
281
     1
  3
ADSK_XREC_LAYER_RECONCILED
360
1A221
  0
DICTIONARY
  5
1A236
330
26A
100
AcDbDictionary
280
     1
281
     1
  3
ADSK_XREC_LAYER_RECONCILED
360
1A237
  0
DICTIONARY
  5
1A23C
330
26D
100
AcDbDictionary
280
     1
281
     1
  3
ADSK_XREC_LAYER_RECONCILED
360
1A23D
  0
DICTIONARY
  5
6E9
330
18
100
AcDbDictionary
280
     1
281
     1
  3
ACAD_SORTENTS
360
6EA
  0
DICTIONARY
  5
59B
330
15
100
AcDbDictionary
280
     1
281
     1
  3
ACAD_SORTENTS
360
59C
  0
DICTIONARY
  5
21675
330
57
100
AcDbDictionary
280
     1
281
     1
  3
ACAD_XREC_ROUNDTRIP
360
21676
  0
XRECORD
  5
1F398
102
{ACAD_REACTORS
330
C
102
}
330
C
100
AcDbXrecord
280
     1
300
ACDLT
300
2012
300
ACDLT_F_S
  0
DICTIONARY
  5
2D0
102
{ACAD_REACTORS
330
C
102
}
330
C
100
AcDbDictionary
281
     1
  0
DICTIONARY
  5
D
102
{ACAD_REACTORS
330
C
102
}
330
C
100
AcDbDictionary
281
     1
  3
*A1
350
1EBF5
  3
*A2
350
20D64
  3
*A3
350
20D6F
  3
*A4
350
1EDFD
  3
*A5
350
1E9D3
  0
DICTIONARY
  5
2D1
102
{ACAD_REACTORS
330
C
102
}
330
C
100
AcDbDictionary
281
     1
  3
Model
350
2D3
  3
レイアウト1
350
2D4
  0
DICTIONARY
  5
2CF
102
{ACAD_REACTORS
330
C
102
}
330
C
100
AcDbDictionary
281
     1
  3
ByBlock
350
19DD5
  3
ByLayer
350
19DCD
  3
Global
350
19DDD
  0
DICTIONARY
  5
19E18
102
{ACAD_REACTORS
330
C
102
}
330
C
100
AcDbDictionary
281
     1
  3
Standard
350
19E19
  0
DICTIONARY
  5
1B
102
{ACAD_REACTORS
330
C
102
}
330
C
100
AcDbDictionary
281
     1
  3
STANDARD
350
1C
  0
DICTIONARY
  5
2D2
102
{ACAD_REACTORS
330
C
102
}
330
C
100
AcDbDictionary
281
     1
  0
ACDBDICTIONARYWDFLT
  5
2CD
102
{ACAD_REACTORS
330
C
102
}
330
C
100
AcDbDictionary
281
     1
  3
Normal
350
2CE
100
AcDbDictionaryWithDefault
340
2CE
  0
DICTIONARY
  5
19DF6
102
{ACAD_REACTORS
330
C
102
}
330
C
100
AcDbDictionary
281
     1
  3
A0
350
19DF7
  3
A1
350
19DF8
  3
A2
350
19DF9
  3
A3
350
19DFA
  3
A4
350
19DFB
  3
A5
350
19DFC
  3
A6
350
19DFD
  3
A7
350
19DFE
  3
A8
350
19DFF
  3
A9
350
19E00
  3
B0
350
19E01
  3
B1
350
19E02
  3
B2
350
19E03
  3
B3
350
19E04
  3
B4
350
19E05
  3
B5
350
19E06
  3
B6
350
19E07
  3
B7
350
19E08
  3
B8
350
19E09
  3
B9
350
19E0A
  3
C0
350
19E0B
  3
C1
350
19E0C
  3
C2
350
19E0D
  3
C3
350
19E0E
  3
C4
350
19E0F
  3
C5
350
19E10
  3
C6
350
19E11
  3
C7
350
19E12
  3
C8
350
19E13
  3
C9
350
19E14
  3
D0
350
19E15
  3
D1
350
19E16
  3
D2
350
19E17
  0
DICTIONARY
  5
4D6
102
{ACAD_REACTORS
330
C
102
}
330
C
100
AcDbDictionary
281
     1
  3
Standard
350
4D7
  0
DICTIONARY
  5
19DE5
102
{ACAD_REACTORS
330
C
102
}
330
C
100
AcDbDictionary
281
     1
  3
2dWireframe
350
19DEB
  3
3D Hidden
350
19DED
  3
3dWireframe
350
19DEC
  3
Basic
350
19DEA
  3
Brighten
350
19DF1
  3
ColorChange
350
19DF5
  3
Conceptual
350
19DEE
  3
Dim
350
19DF0
  3
EdgeColorOff
350
1E02A
  3
Facepattern
350
19DF4
  3
Flat
350
19DE6
  3
FlatWithEdges
350
19DE7
  3
Gouraud
350
19DE8
  3
GouraudWithEdges
350
19DE9
  3
Hidden
350
1F382
  3
JitterOff
350
1E028
  3
Linepattern
350
19DF3
  3
OverhangOff
350
1E029
  3
Realistic
350
19DEF
  3
Shaded
350
1F387
  3
Shaded with edges
350
1F386
  3
Shades of Gray
350
1F383
  3
Sketchy
350
1F384
  3
Thicken
350
19DF2
  3
Wireframe
350
1F381
  3
X-Ray
350
1F385
  0
XRECORD
  5
21673
102
{ACAD_REACTORS
330
C
102
}
330
C
100
AcDbXrecord
280
     1
 90
        1
330
4D7
  0
DICTIONARY
  5
37
102
{ACAD_REACTORS
330
C
102
}
330
C
100
AcDbDictionary
281
     1
  3
CANNOSCALE
350
1AC1A
  3
CMLEADERSTYLE
350
1AC19
  3
CTABLESTYLE
350
4F1
  3
DIMADEC
350
38
  3
DIMASSOC
350
408
  3
HIDETEXT
350
1891
  3
INDEXCTL
350
1AC1C
  3
INTERSECTIONCOLOR
350
1895
  3
INTERSECTIONDISPLAY
350
1894
  3
OBSCOLOR
350
1892
  3
OBSLTYPE
350
1893
  3
PROJECTNAME
350
409
  3
SORTENTS
350
1AC1B
  3
XCLIPFRAME
350
21671
  0
DICTIONARY
  5
21524
102
{ACAD_REACTORS
330
C
102
}
330
C
100
AcDbDictionary
281
     1
  0
DICTIONARY
  5
D8
102
{ACAD_REACTORS
330
C
102
}
330
C
100
AcDbDictionary
281
     1
1001
CONTENTTABDATA
1070
    11
1000
Child
1000
D:\ACLT\TABset\CHILDREN.dwg
1070
     0
1070
     0
1070
     1
1000
PK
1000
D:\ACLT\TABset\PK.dwg
1070
     0
1070
     0
1070
     1
1000
Lev1
1000
D:\ACLT\TABset\Lever01.dwg
1070
     0
1070
     0
1070
     1
1000
Lev2
1000
D:\ACLT\TABset\Lever02.dwg
1070
     0
1070
     0
1070
     1
1000
L3
1000
D:\Aclt\TABset\Lever03.dwg
1070
     0
1070
     0
1070
     1
1000
Form
1000
D:\ACLT\FORMAT
1070
     1
1070
     0
1070
     1
1000
Jnt
1000
D:\ACLT\TABset\JOINTPARTS.dwg
1070
     0
1070
     0
1070
     1
1000
ISO
1000
D:\ACLT\TABset\Isome01.dwg
1070
     0
1070
     0
1070
     1
1000
R
1000
D:\ACLT\TABset\REGION.dwg
1070
     0
1070
     0
1070
     1
1000
std
1000
D:\ACLT\TABset\std_sym_all.dwg
1070
     0
1070
     0
1070
     1
1000
丸
1000
D:\Aclt\TABset\MARU.dwg
1070
     0
1070
     0
1070
     1
1001
CONTENTCURRENTTAB
1070
     0
  0
DICTIONARY
  5
20
102
{ACAD_REACTORS
330
C
102
}
330
C
100
AcDbDictionary
281
     1
1001
DRAWINGVARIABLESXDATA
1000
POLARANG
1000
0.261799387799149410000000
1000
POLARMODE
1000
1
1000
POLARSTYLE
1000
1
  0
XRECORD
  5
21674
102
{ACAD_REACTORS
330
C
102
}
330
C
100
AcDbXrecord
280
     1
  1
DWGPROPS COOKIE
  2

  3

  4

  6

  7

  8
3684
  9

300
=
301
=
302
=
303
=
304
=
305
=
306
=
307
=
308
=
309
=
 40
2.414945833333333
 41
2453033.732663484
 42
2457486.590542709
  1

 90
        0
  0
DICTIONARY
  5
18FE9
102
{ACAD_REACTORS
330
18FE8
102
}
330
18FE8
100
AcDbDictionary
281
     1
  0
XRECORD
  5
1A20B
102
{ACAD_REACTORS
330
1A20A
102
}
330
1A20A
100
AcDbXrecord
280
     1
290
     1
  0
XRECORD
  5
1A20D
102
{ACAD_REACTORS
330
1A20C
102
}
330
1A20C
100
AcDbXrecord
280
     1
290
     1
  0
XRECORD
  5
1A20F
102
{ACAD_REACTORS
330
1A20E
102
}
330
1A20E
100
AcDbXrecord
280
     1
290
     1
  0
XRECORD
  5
1A219
102
{ACAD_REACTORS
330
1A218
102
}
330
1A218
100
AcDbXrecord
280
     1
290
     1
  0
XRECORD
  5
1A21D
102
{ACAD_REACTORS
330
1A21C
102
}
330
1A21C
100
AcDbXrecord
280
     1
290
     1
  0
XRECORD
  5
1A221
102
{ACAD_REACTORS
330
1A220
102
}
330
1A220
100
AcDbXrecord
280
     1
290
     1
  0
XRECORD
  5
1A237
102
{ACAD_REACTORS
330
1A236
102
}
330
1A236
100
AcDbXrecord
280
     1
290
     1
  0
XRECORD
  5
1A23D
102
{ACAD_REACTORS
330
1A23C
102
}
330
1A23C
100
AcDbXrecord
280
     1
290
     1
  0
SORTENTSTABLE
  5
6EA
102
{ACAD_REACTORS
330
6E9
102
}
330
6E9
100
AcDbSortentsTable
330
18
331
2164A
  5
20DA2
331
21613
  5
1FD17
331
21652
  5
2164E
331
215DC
  5
20816
331
2161B
  5
207F5
331
215E4
  5
20808
331
21623
  5
20802
331
20992
  5
213B2
331
20953
  5
2136C
331
20874
  5
2134B
331
207FD
  5
21314
331
20C01
  5
213DD
331
2099A
  5
213BA
331
2095B
  5
21375
331
20805
  5
2131C
331
1FD62
  5
212FC
331
20C09
  5
213E5
331
20963
  5
2137E
331
2080D
  5
21323
331
20C11
  5
213ED
331
2096B
  5
21387
331
208CC
  5
21357
331
20815
  5
2132A
331
20F1F
  5
21641
331
21351
  5
209A0
331
2131A
  5
20964
331
213CF
  5
2162C
331
2140E
  5
215D3
331
21398
  5
215F6
331
21359
  5
209F5
331
21322
  5
2096C
331
213D7
  5
21634
331
21416
  5
215DB
331
213A0
  5
215FD
331
21361
  5
209FD
331
2132A
  5
20974
331
2141E
  5
215E3
331
213A8
  5
21605
331
213DF
  5
21406
331
21369
  5
20BFD
331
21332
  5
2097C
331
21426
  5
215EB
331
213E7
  5
2140E
331
2162B
  5
20813
331
215F4
  5
1FD61
331
21633
  5
2085F
331
215FC
  5
1EBF3
331
2163B
  5
20867
331
21604
  5
1D910
331
21643
  5
20875
331
2160C
  5
1EBF1
331
1FD0B
  5
20F1F
331
1E9CD
  5
208CE
331
20C19
  5
213F5
331
209F2
  5
213C5
331
20973
  5
2138F
331
208D4
  5
2135F
331
20855
  5
2132D
331
207EA
  5
21304
331
20F27
  5
21646
331
20D60
  5
21402
331
20C21
  5
213FC
331
209FA
  5
213CD
331
2097B
  5
2139B
331
208DC
  5
21367
331
2085D
  5
21334
331
207F2
  5
21309
331
20983
  5
213A3
331
20865
  5
2133C
331
2098B
  5
213AB
331
2086D
  5
21344
331
213B0
  5
2160D
331
21371
  5
20C05
331
2133A
  5
20984
331
213B8
  5
21615
331
213EF
  5
21415
331
21379
  5
20C0D
331
21342
  5
2098C
331
21303
  5
208DA
331
213C0
  5
2161D
331
213F7
  5
21421
331
21381
  5
20C15
331
2134A
  5
20999
331
2130B
  5
20954
331
213FF
  5
215C4
331
21389
  5
20C1E
331
21313
  5
2095C
331
21407
  5
215CC
331
2164B
  5
20D6A
331
21614
  5
1FD00
331
21653
  5
2164F
331
215DD
  5
20820
331
2161C
  5
207F2
331
21624
  5
20803
331
1FD2B
  5
20F26
331
20BFA
  5
213D6
331
20993
  5
213B3
331
20954
  5
2136D
331
20875
  5
2134C
331
207FE
  5
21315
331
1FD5B
  5
20F27
331
20C02
  5
213DE
331
2099B
  5
213BB
331
2095C
  5
21376
331
2087D
  5
21353
331
20806
  5
2131D
331
1FD63
  5
212FD
331
20C0A
  5
213E6
331
20964
  5
21380
331
20C12
  5
213EE
331
2096C
  5
21388
331
208CD
  5
21358
331
20816
  5
2132B
331
213C8
  5
21625
331
21352
  5
209A1
331
2131B
  5
20965
331
213D0
  5
2162D
331
2140F
  5
215D4
331
21399
  5
215F7
331
2135A
  5
209F6
331
21323
  5
2096D
331
213D8
  5
21635
331
21417
  5
215DC
331
213A1
  5
215FE
331
21362
  5
209FE
331
2132B
  5
20975
331
2141F
  5
215E4
331
213A9
  5
21606
331
213E0
  5
21407
331
2136A
  5
20BFE
331
21333
  5
2097D
331
21427
  5
215EC
331
2162C
  5
20814
331
215F5
  5
1FD62
331
21634
  5
2085A
331
215BE
  5
208CD
331
215FD
  5
1EBF4
331
2163C
  5
20868
331
215C6
  5
20D5F
331
21605
  5
1DBA8
331
21644
  5
20876
331
215CE
  5
2087B
331
2160D
  5
1E9D4
331
1E9CE
  5
208CF
331
20C1A
  5
213F6
331
209F3
  5
213C6
331
20974
  5
21394
331
208D5
  5
21360
331
20856
  5
2132E
331
20D61
  5
21403
331
20C22
  5
213FD
331
209FB
  5
213CE
331
2097C
  5
2139C
331
2085E
  5
21335
331
207F3
  5
2130A
331
20D69
  5
215ED
331
20984
  5
213A4
331
2094D
  5
21368
331
20866
  5
2133D
331
1FD24
  5
20F23
331
2098C
  5
213AC
331
2086E
  5
21345
331
213B1
  5
2160E
331
21372
  5
20C06
331
2133B
  5
20985
331
212FC
  5
208D3
331
213B9
  5
21616
331
213F0
  5
21417
331
2137A
  5
20C0E
331
21343
  5
2098D
331
21304
  5
208DB
331
213C1
  5
2161E
331
213F8
  5
21424
331
21382
  5
20C16
331
2134B
  5
2099A
331
2130C
  5
20955
331
21400
  5
215C5
331
2138A
  5
20C1F
331
21314
  5
2095D
331
2164C
  5
20D6B
331
215D6
  5
20861
331
21615
  5
1FD08
331
21654
  5
21650
331
215DE
  5
20854
331
2161D
  5
207F3
331
21625
  5
20804
331
215EE
  5
1FD65
331
20BFB
  5
213D7
331
20994
  5
213B4
331
20955
  5
2136E
331
20876
  5
2134D
331
1FD5C
  5
20F28
331
20C03
  5
213DF
331
2099C
  5
213BC
331
2095D
  5
21377
331
2087E
  5
21354
331
20807
  5
2131E
331
1FD64
  5
212FE
331
20C0B
  5
213E7
331
20965
  5
21381
331
2080F
  5
21324
331
20C13
  5
213EF
331
2096D
  5
21389
331
208CE
  5
21359
331
213C9
  5
21626
331
21408
  5
215CD
331
21353
  5
209AF
331
2131C
  5
20966
331
213D1
  5
2162E
331
21410
  5
215D5
331
2139A
  5
215F8
331
2135B
  5
209F7
331
21324
  5
2096E
331
213D9
  5
21636
331
21418
  5
215DD
331
213A2
  5
215FF
331
21363
  5
209FF
331
2132C
  5
20976
331
21420
  5
215E5
331
213AA
  5
21607
331
213E1
  5
21408
331
2136B
  5
20BFF
331
21334
  5
2097E
331
2162D
  5
2080E
331
215F6
  5
1FD5D
331
21635
  5
2085B
331
215BF
  5
2088A
331
215FE
  5
1EBF6
331
215C7
  5
20D60
331
2163D
  5
20869
331
21645
  5
2087E
331
2160E
  5
1E9D5
331
1E9CF
  5
208D0
331
20C1B
  5
213F7
331
209F4
  5
213C7
331
20975
  5
21395
331
208D6
  5
21361
331
20857
  5
2132F
331
20D62
  5
21404
331
209FC
  5
213CF
331
2097D
  5
2139D
331
2085F
  5
21336
331
207F4
  5
2130B
331
1EBEF
  5
20990
331
20D6A
  5
215EE
331
20985
  5
213A5
331
2094E
  5
21369
331
20867
  5
2133E
331
1FD25
  5
20F24
331
2098D
  5
213AD
331
2086F
  5
21346
331
213B2
  5
2160F
331
213E9
  5
2140F
331
21373
  5
20C07
331
2133C
  5
20986
331
212FD
  5
208D4
331
213BA
  5
21617
331
213F1
  5
21418
331
2137B
  5
20C0F
331
21344
  5
2098E
331
21305
  5
208DC
331
213C2
  5
2161F
331
213F9
  5
21427
331
21383
  5
20C18
331
2134C
  5
2099B
331
2130D
  5
20956
331
21401
  5
215C6
331
2138B
  5
20C21
331
21315
  5
2095E
331
2164D
  5
20D6C
331
215D7
  5
20862
331
21616
  5
1FD0A
331
2161E
  5
207F4
331
21626
  5
207FF
331
215EF
  5
1FDDF
331
1D8CA
  5
1FD63
331
207F8
  5
2130F
331
20DA2
  5
2163B
331
20BFC
  5
213D8
331
20995
  5
213B5
331
20956
  5
2136F
331
20877
  5
2134E
331
20800
  5
21317
331
1FD5D
  5
20F29
331
20C04
  5
213E0
331
2099D
  5
213BD
331
2095E
  5
21378
331
20808
  5
2131F
331
1FD65
  5
212FF
331
1FCFE
  5
20F1A
331
20C0C
  5
213E8
331
20966
  5
21382
331
20810
  5
21325
331
20F1A
  5
2163D
331
20C14
  5
213F0
331
2096E
  5
2138A
331
208CF
  5
2135A
331
213CA
  5
21627
331
21409
  5
215CE
331
21354
  5
209F0
331
2131D
  5
20967
331
213D2
  5
2162F
331
21411
  5
215D6
331
2139B
  5
215F9
331
2135C
  5
209F8
331
21325
  5
2096F
331
213DA
  5
21637
331
21419
  5
215DE
331
213A3
  5
21600
331
21364
  5
20A00
331
2132D
  5
20977
331
21421
  5
215E6
331
213AB
  5
21608
331
213E2
  5
21409
331
2136C
  5
20C00
331
21335
  5
2097F
331
2162E
  5
2080F
331
21636
  5
2085C
331
215C0
  5
21648
331
215FF
  5
1EC3D
331
215C8
  5
20D61
331
2163E
  5
2087A
331
21646
  5
208CC
331
2160F
  5
1E9D6
331
1D90A
  5
1FD64
331
1E9D0
  5
208D1
331
20F22
  5
21642
331
20C1C
  5
213F8
331
209F5
  5
213C8
331
20976
  5
21396
331
208D7
  5
21362
331
1FD16
  5
20F20
331
20F2A
  5
21647
331
209FD
  5
213D0
331
2097E
  5
2139E
331
20860
  5
21337
331
207F5
  5
2130C
331
1EBF0
  5
20991
331
20D6B
  5
215EF
331
20986
  5
213A6
331
20868
  5
2133F
331
2098E
  5
213AE
331
213B3
  5
21610
331
213EA
  5
21410
331
21374
  5
20C08
331
2133D
  5
20987
331
212FE
  5
208D5
331
213BB
  5
21618
331
213F2
  5
21419
331
2137C
  5
20C10
331
21345
  5
2098F
331
21306
  5
2094D
331
213C3
  5
21620
331
213FA
  5
215BE
331
21384
  5
20C19
331
2134D
  5
2099C
331
2130E
  5
20957
331
21402
  5
215C7
331
2138C
  5
20C22
331
21316
  5
2095F
331
215D0
  5
2086E
331
2164E
  5
21654
331
215D8
  5
20863
331
21617
  5
1FD28
331
2161F
  5
207EF
331
21627
  5
20800
331
215E8
  5
207F9
331
20870
  5
21347
331
207F9
  5
21310
331
20BFD
  5
213D9
331
20DA3
  5
21320
331
20996
  5
213B6
331
20957
  5
21370
331
20878
  5
2134F
331
20801
  5
21318
331
1FD5E
  5
20F2A
331
20C05
  5
213E1
331
2099E
  5
213BE
331
2095F
  5
2137A
331
1FCFF
  5
20F1B
331
20C0D
  5
213E9
331
20967
  5
21383
331
20811
  5
21326
331
20F1B
  5
2163E
331
20C15
  5
213F1
331
209AE
  5
213C1
331
2096F
  5
2138B
331
213CB
  5
21628
331
2140A
  5
215CF
331
21394
  5
215F2
331
21355
  5
209F1
331
2131E
  5
20968
331
213D3
  5
21630
331
21412
  5
215D7
331
2139C
  5
215FA
331
2135D
  5
209F9
331
21326
  5
20970
331
213DB
  5
21638
331
2141A
  5
215DF
331
213A4
  5
21601
331
21365
  5
20A7D
331
2132E
  5
20978
331
21422
  5
215E7
331
213AC
  5
21609
331
213E3
  5
2140A
331
2136D
  5
20C01
331
21336
  5
20980
331
215F0
  5
207E6
331
2162F
  5
20811
331
215F8
  5
1FD5B
331
215C1
  5
21649
331
21637
  5
2086D
331
2163F
  5
20877
331
21647
  5
20DA3
331
208D0
  5
2135B
331
207E6
  5
21301
331
1E9D1
  5
208D2
331
20C1D
  5
213F9
331
209F6
  5
213C9
331
20977
  5
21397
331
208D8
  5
21363
331
20859
  5
21330
331
207EE
  5
21305
331
1FD17
  5
20F21
331
20C25
  5
213FE
331
209FE
  5
213D1
331
2097F
  5
2139F
331
20861
  5
21338
331
207F6
  5
2130D
331
1EBF1
  5
20992
331
20D6C
  5
215F0
331
20987
  5
213A7
331
20869
  5
21340
331
2098F
  5
213AF
331
213B4
  5
21611
331
213EB
  5
21411
331
21375
  5
20C09
331
2133E
  5
20988
331
212FF
  5
208D6
331
213BC
  5
21619
331
213F3
  5
2141C
331
2137D
  5
20C11
331
21346
  5
20995
331
21307
  5
2094E
331
213C4
  5
21621
331
213FB
  5
215C0
331
21385
  5
20C1A
331
2134E
  5
2099D
331
2130F
  5
20958
331
21403
  5
215C8
331
2138D
  5
20C25
331
21317
  5
20960
331
215D1
  5
2086F
331
21610
  5
1FD19
331
2164F
  5
21651
331
21618
  5
1FD2B
331
21620
  5
207F0
331
215E9
  5
207FA
331
20871
  5
21348
331
207FA
  5
21311
331
20DA4
  5
2163C
331
20BFE
  5
213DA
331
20997
  5
213B7
331
20958
  5
21371
331
20879
  5
21350
331
20802
  5
21319
331
1FD5F
  5
20F2B
331
20C06
  5
213E2
331
2099F
  5
213BF
331
20960
  5
2137B
331
1FD00
  5
20F1C
331
20C0E
  5
213EA
331
20968
  5
21384
331
20812
  5
21327
331
1FDDF
  5
21300
331
20C16
  5
213F2
331
209AF
  5
213C2
331
213CC
  5
21629
331
2140B
  5
215D0
331
21395
  5
215F3
331
21356
  5
209F2
331
2131F
  5
20969
331
213D4
  5
21631
331
21413
  5
215D8
331
2139D
  5
215FB
331
2135E
  5
209FA
331
21327
  5
20971
331
213DC
  5
21639
331
2141B
  5
215E0
331
213A5
  5
21602
331
21366
  5
20BFA
331
2132F
  5
20979
331
21423
  5
215E8
331
213AD
  5
2160A
331
213E4
  5
2140B
331
2136E
  5
20C02
331
21337
  5
20981
331
21628
  5
20801
331
21630
  5
20860
331
215F9
  5
1FD5C
331
215C2
  5
2164A
331
21638
  5
2086A
331
21640
  5
20878
331
21609
  5
1EBF2
331
1DBA4
  5
207F6
331
1FD08
  5
20F1D
331
20970
  5
2138C
331
208D1
  5
2135C
331
20F24
  5
21643
331
20C1E
  5
213FA
331
209F7
  5
213CA
331
20978
  5
21398
331
208D9
  5
21364
331
2085A
  5
21331
331
207EF
  5
21306
331
20C26
  5
213FF
331
209FF
  5
213D3
331
20980
  5
213A0
331
20862
  5
21339
331
207F7
  5
2130E
331
1EBF2
  5
20993
331
20D6D
  5
215F1
331
20988
  5
213A8
331
2086A
  5
21341
331
213B5
  5
21612
331
213EC
  5
21412
331
21376
  5
20C0A
331
2133F
  5
20989
331
21300
  5
208D7
331
213BD
  5
2161A
331
213F4
  5
2141E
331
2137E
  5
20C12
331
21347
  5
20996
331
21308
  5
2094F
331
213C5
  5
21622
331
213FC
  5
215C1
331
21386
  5
20C1B
331
2134F
  5
2099E
331
21310
  5
20959
331
21404
  5
215C9
331
2138E
  5
20C26
331
21648
  5
20D6D
331
215D2
  5
20870
331
21611
  5
1FD0B
331
21650
  5
21652
331
21619
  5
1FD5F
331
215E2
  5
20806
331
21621
  5
207F1
331
215EA
  5
207FB
331
1FD28
  5
20F25
331
20990
  5
213B0
331
20951
  5
2136A
331
20872
  5
21349
331
207FB
  5
21312
331
20BFF
  5
213DB
331
20998
  5
213B8
331
20959
  5
21372
331
2087A
  5
21351
331
20803
  5
2131A
331
1FD60
  5
20F2C
331
20C07
  5
213E3
331
209A0
  5
213C0
331
20961
  5
2137C
331
2088A
  5
21355
331
2080B
  5
21321
331
20C0F
  5
213EB
331
20969
  5
21385
331
20813
  5
21328
331
20F1D
  5
2163F
331
20C17
  5
213F3
331
21318
  5
20961
331
213CD
  5
2162A
331
2140C
  5
215D1
331
21396
  5
215F4
331
21357
  5
209F3
331
21320
  5
2096A
331
213D5
  5
21632
331
21414
  5
215D9
331
2135F
  5
209FB
331
21328
  5
20972
331
213DD
  5
2163A
331
2141C
  5
215E1
331
213A6
  5
21603
331
21367
  5
20BFB
331
21330
  5
2097A
331
21424
  5
215E9
331
213AE
  5
2160B
331
213E5
  5
2140C
331
2136F
  5
20C03
331
21629
  5
20815
331
21631
  5
2085D
331
215FA
  5
1FD24
331
21639
  5
2086B
331
21641
  5
20879
331
2160A
  5
1E9D7
331
1DBA5
  5
207F7
331
209F0
  5
213C3
331
20971
  5
2138D
331
208D2
  5
2135D
331
207E8
  5
21302
331
20F25
  5
21644
331
20D5E
  5
21400
331
20C1F
  5
213FB
331
209F8
  5
213CB
331
20979
  5
21399
331
208DA
  5
21365
331
2085B
  5
21332
331
207F0
  5
21307
331
1FD19
  5
20F22
331
20A00
  5
213D4
331
20981
  5
213A1
331
20863
  5
2133A
331
1EBF3
  5
20994
331
20989
  5
213A9
331
2086B
  5
21342
331
21338
  5
20982
331
213B6
  5
21613
331
213ED
  5
21413
331
21377
  5
20C0B
331
21340
  5
2098A
331
21301
  5
208D8
331
213BE
  5
2161B
331
213F5
  5
2141F
331
2137F
  5
20C13
331
21348
  5
20997
331
21309
  5
20952
331
213C6
  5
21623
331
213FD
  5
215C2
331
21387
  5
20C1C
331
21311
  5
2095A
331
21405
  5
215CA
331
2138F
  5
20D5E
331
21649
  5
20D6E
331
21612
  5
1FD16
331
21651
  5
21653
331
2161A
  5
1FD60
331
215E3
  5
20807
331
21622
  5
20805
331
20BF8
  5
213D5
331
20991
  5
213B1
331
20952
  5
2136B
331
20873
  5
2134A
331
207FC
  5
21313
331
1FC72
  5
20DA4
331
20C00
  5
213DC
331
20999
  5
213B9
331
2095A
  5
21374
331
2087B
  5
21352
331
20804
  5
2131B
331
1FD61
  5
21274
331
20C08
  5
213E4
331
20962
  5
2137D
331
2088B
  5
21356
331
2080C
  5
21322
331
20C10
  5
213EC
331
2096A
  5
21386
331
20814
  5
21329
331
20F1E
  5
21640
331
21350
  5
2099F
331
21319
  5
20962
331
213CE
  5
2162B
331
2140D
  5
215D2
331
21397
  5
215F5
331
21358
  5
209F4
331
21321
  5
2096B
331
213D6
  5
21633
331
21415
  5
215DA
331
2139F
  5
215FC
331
21360
  5
209FC
331
21329
  5
20973
331
2141D
  5
215E2
331
213A7
  5
21604
331
213DE
  5
21405
331
21368
  5
20BFC
331
21331
  5
2097B
331
21425
  5
215EA
331
213AF
  5
2160C
331
213E6
  5
2140D
331
2162A
  5
20812
331
21632
  5
2085E
331
2163A
  5
2086C
331
21603
  5
1D8CE
331
21642
  5
20874
331
215CC
  5
2088B
331
2160B
  5
1EBF0
331
1DBA6
  5
207F8
331
1FD0A
  5
20F1E
331
20C18
  5
213F4
331
209F1
  5
213C4
331
20972
  5
2138E
331
208D3
  5
2135E
331
20854
  5
2132C
331
207E9
  5
21303
331
20F26
  5
21645
331
20D5F
  5
21401
331
209F9
  5
213CC
331
2097A
  5
2139A
331
208DB
  5
21366
331
2085C
  5
21333
331
207F1
  5
21308
331
20982
  5
213A2
331
20864
  5
2133B
331
2098A
  5
213AA
331
2086C
  5
21343
331
21370
  5
20C04
331
21339
  5
20983
331
213B7
  5
21614
331
213EE
  5
21414
331
21378
  5
20C0C
331
21341
  5
2098B
331
21302
  5
208D9
331
213BF
  5
2161C
331
213F6
  5
21420
331
21380
  5
20C14
331
21349
  5
20998
331
2130A
  5
20953
331
213C7
  5
21624
331
213FE
  5
215C3
331
21388
  5
20C1D
331
21312
  5
2095B
331
21406
  5
215CB
  0
SORTENTSTABLE
  5
59C
102
{ACAD_REACTORS
330
59B
102
}
330
59B
100
AcDbSortentsTable
330
15
331
57
  5
57
  0
XRECORD
  5
21676
102
{ACAD_REACTORS
330
21675
102
}
330
21675
100
AcDbXrecord
280
     1
102
SHADEPLOT
 70
     0
  0
GROUP
  5
1EBF5
102
{ACAD_REACTORS
330
D
102
}
330
D
100
AcDbGroup
300

 70
     1
 71
     1
340
1EBF3
340
1EBF2
340
1EBF1
340
1EBF0
340
1EBEF
  0
GROUP
  5
20D64
102
{ACAD_REACTORS
330
D
102
}
330
D
100
AcDbGroup
300

 70
     1
 71
     1
340
20D62
340
20D61
340
20D60
340
20D5F
340
20D5E
  0
GROUP
  5
20D6F
102
{ACAD_REACTORS
330
D
102
}
330
D
100
AcDbGroup
300

 70
     1
 71
     1
340
20D6D
340
20D6C
340
20D6B
340
20D6A
340
20D69
  0
GROUP
  5
1EDFD
102
{ACAD_REACTORS
330
D
102
}
330
D
100
AcDbGroup
300

 70
     1
 71
     1
340
1DBA6
340
1DBA5
340
1DBA4
  0
GROUP
  5
1E9D3
102
{ACAD_REACTORS
330
D
102
}
330
D
100
AcDbGroup
300

 70
     1
 71
     1
340
1E9D1
340
1E9D0
340
1E9CF
340
1E9CE
340
1E9CD
  0
LAYOUT
  5
2D3
102
{ACAD_XDICTIONARY
360
1E441
102
}
102
{ACAD_REACTORS
330
2D1
102
}
330
2D1
100
AcDbPlotSettings
  1

  2
EPSON LP-9600S
  4
A4
  6

 40
5.873749732971191
 41
5.873747825622558
 42
5.873748779296875
 43
5.873748779296875
 44
209.9733276367187
 45
297.0106506347656
 46
0.0
 47
0.0
 48
0.0
 49
0.0
140
0.0
141
0.0
142
1.0
143
14.39645349335178
 70
 11952
 72
     1
 73
     1
 74
     0
  7
A3for2004.ctb
 75
     0
147
0.0694615517955027
148
1927.839108383867
149
3094.661789558366
100
AcDbLayout
  1
Model
 70
     1
 71
     0
 10
0.0
 20
0.0
 11
12.0
 21
9.0
 12
0.0
 22
0.0
 32
0.0
 14
0.0
 24
0.0
 34
0.0
 15
0.0
 25
0.0
 35
0.0
146
0.0
 13
0.0
 23
0.0
 33
0.0
 16
1.0
 26
0.0
 36
0.0
 17
0.0
 27
1.0
 37
0.0
 76
     0
330
18
331
19DC2
1001
ACAD_PSEXT
1000
EPSON LP-9600S
1000
EPSON LP-9600S
1000
172.16.5.152:raw
1000

1070
     0
  0
LAYOUT
  5
2D4
102
{ACAD_XDICTIONARY
360
1E041
102
}
102
{ACAD_REACTORS
330
2D1
102
}
330
2D1
100
AcDbPlotSettings
  1

  2
EPSON LP-9600S
  4
A3
  6

 40
5.873749732971191
 41
5.873747825622558
 42
5.873748779296875
 43
5.873748779296875
 44
297.0106506347656
 45
419.9466552734374
 46
0.0
 47
0.0
 48
0.0
 49
0.0
140
0.0
141
0.0
142
1.0
143
0.9876218188428531
 70
   688
 72
     1
 73
     1
 74
     1
  7
A3for2004.ctb
 75
     0
147
1.012533320873418
148
214.291403832631
149
130.1739883871544
100
AcDbLayout
  1
レイアウト1
 70
     1
 71
     1
 10
0.0
 20
0.0
 11
420.0
 21
297.0
 12
0.0
 22
0.0
 32
0.0
 14
1.000000000000000E+20
 24
1.000000000000000E+20
 34
1.000000000000000E+20
 15
-1.000000000000000E+20
 25
-1.000000000000000E+20
 35
-1.000000000000000E+20
146
0.0
 13
0.0
 23
0.0
 33
0.0
 16
1.0
 26
0.0
 36
0.0
 17
0.0
 27
1.0
 37
0.0
 76
     0
330
15
331
57
1001
ACAD_PSEXT
1000
EPSON LP-9600S
1000
EPSON LP-9600S
1000
172.16.5.152:raw
1000

1070
     0
  0
MATERIAL
  5
19DD5
102
{ACAD_XDICTIONARY
360
19DD6
102
}
102
{ACAD_REACTORS
330
2CF
102
}
330
2CF
100
AcDbMaterial
  1
ByBlock
 72
     0
 43
0.0208333333333333
 43
0.0
 43
0.0
 43
0.0
 43
0.0
 43
0.0208333333333333
 43
0.0
 43
0.0
 43
0.0
 43
0.0
 43
1.0
 43
0.0
 43
0.0
 43
0.0
 43
0.0
 43
1.0
 77
     0
 47
0.0208333333333333
 47
0.0
 47
0.0
 47
0.0
 47
0.0
 47
0.0208333333333333
 47
0.0
 47
0.0
 47
0.0
 47
0.0
 47
1.0
 47
0.0
 47
0.0
 47
0.0
 47
0.0
 47
1.0
171
     0
 49
0.0208333333333333
 49
0.0
 49
0.0
 49
0.0
 49
0.0
 49
0.0208333333333333
 49
0.0
 49
0.0
 49
0.0
 49
0.0
 49
1.0
 49
0.0
 49
0.0
 49
0.0
 49
0.0
 49
1.0
175
     0
142
0.0208333333333333
142
0.0
142
0.0
142
0.0
142
0.0
142
0.0208333333333333
142
0.0
142
0.0
142
0.0
142
0.0
142
1.0
142
0.0
142
0.0
142
0.0
142
0.0
142
1.0
179
     0
144
0.0208333333333333
144
0.0
144
0.0
144
0.0
144
0.0
144
0.0208333333333333
144
0.0
144
0.0
144
0.0
144
0.0
144
1.0
144
0.0
144
0.0
144
0.0
144
0.0
144
1.0
147
0.0208333333333333
147
0.0
147
0.0
147
0.0
147
0.0
147
0.0208333333333333
147
0.0
147
0.0
147
0.0
147
0.0
147
1.0
147
0.0
147
0.0
147
0.0
147
0.0
147
1.0
  0
MATERIAL
  5
19DCD
102
{ACAD_XDICTIONARY
360
19DCE
102
}
102
{ACAD_REACTORS
330
2CF
102
}
330
2CF
100
AcDbMaterial
  1
ByLayer
 72
     0
 43
0.0208333333333333
 43
0.0
 43
0.0
 43
0.0
 43
0.0
 43
0.0208333333333333
 43
0.0
 43
0.0
 43
0.0
 43
0.0
 43
1.0
 43
0.0
 43
0.0
 43
0.0
 43
0.0
 43
1.0
 77
     0
 47
0.0208333333333333
 47
0.0
 47
0.0
 47
0.0
 47
0.0
 47
0.0208333333333333
 47
0.0
 47
0.0
 47
0.0
 47
0.0
 47
1.0
 47
0.0
 47
0.0
 47
0.0
 47
0.0
 47
1.0
171
     0
 49
0.0208333333333333
 49
0.0
 49
0.0
 49
0.0
 49
0.0
 49
0.0208333333333333
 49
0.0
 49
0.0
 49
0.0
 49
0.0
 49
1.0
 49
0.0
 49
0.0
 49
0.0
 49
0.0
 49
1.0
175
     0
142
0.0208333333333333
142
0.0
142
0.0
142
0.0
142
0.0
142
0.0208333333333333
142
0.0
142
0.0
142
0.0
142
0.0
142
1.0
142
0.0
142
0.0
142
0.0
142
0.0
142
1.0
179
     0
144
0.0208333333333333
144
0.0
144
0.0
144
0.0
144
0.0
144
0.0208333333333333
144
0.0
144
0.0
144
0.0
144
0.0
144
1.0
144
0.0
144
0.0
144
0.0
144
0.0
144
1.0
147
0.0208333333333333
147
0.0
147
0.0
147
0.0
147
0.0
147
0.0208333333333333
147
0.0
147
0.0
147
0.0
147
0.0
147
1.0
147
0.0
147
0.0
147
0.0
147
0.0
147
1.0
  0
MATERIAL
  5
19DDD
102
{ACAD_XDICTIONARY
360
19DDE
102
}
102
{ACAD_REACTORS
330
2CF
102
}
330
2CF
100
AcDbMaterial
  1
Global
 72
     0
 43
0.0208333333333333
 43
0.0
 43
0.0
 43
0.0
 43
0.0
 43
0.0208333333333333
 43
0.0
 43
0.0
 43
0.0
 43
0.0
 43
1.0
 43
0.0
 43
0.0
 43
0.0
 43
0.0
 43
1.0
 77
     0
 47
0.0208333333333333
 47
0.0
 47
0.0
 47
0.0
 47
0.0
 47
0.0208333333333333
 47
0.0
 47
0.0
 47
0.0
 47
0.0
 47
1.0
 47
0.0
 47
0.0
 47
0.0
 47
0.0
 47
1.0
171
     0
 49
0.0208333333333333
 49
0.0
 49
0.0
 49
0.0
 49
0.0
 49
0.0208333333333333
 49
0.0
 49
0.0
 49
0.0
 49
0.0
 49
1.0
 49
0.0
 49
0.0
 49
0.0
 49
0.0
 49
1.0
175
     0
142
0.0208333333333333
142
0.0
142
0.0
142
0.0
142
0.0
142
0.0208333333333333
142
0.0
142
0.0
142
0.0
142
0.0
142
1.0
142
0.0
142
0.0
142
0.0
142
0.0
142
1.0
179
     0
144
0.0208333333333333
144
0.0
144
0.0
144
0.0
144
0.0
144
0.0208333333333333
144
0.0
144
0.0
144
0.0
144
0.0
144
1.0
144
0.0
144
0.0
144
0.0
144
0.0
144
1.0
147
0.0208333333333333
147
0.0
147
0.0
147
0.0
147
0.0
147
0.0208333333333333
147
0.0
147
0.0
147
0.0
147
0.0
147
1.0
147
0.0
147
0.0
147
0.0
147
0.0
147
1.0
  0
MLEADERSTYLE
  5
19E19
102
{ACAD_REACTORS
330
19E18
102
}
330
19E18
100
AcDbMLeaderStyle
170
     2
171
     1
172
     0
 90
        2
 40
0.0
 41
0.0
173
     1
 91
-1056964608
340
12
 92
       -2
290
     1
 42
2.0
291
     1
 43
0.36
  3
Standard
 44
4.0
300

342
F
174
     1
178
     6
175
     1
176
     0
 93
-1056964608
 45
4.0
292
     0
297
     0
 46
4.0
 94
-1056964608
 47
1.0
 49
1.0
140
1.0
293
     1
141
0.0
294
     1
177
     0
142
1.0
295
     0
296
     0
143
0.125
1001
ACAD_MLEADERVER
1070
     2
  0
MLINESTYLE
  5
1C
102
{ACAD_REACTORS
330
1B
102
}
330
1B
100
AcDbMlineStyle
  2
STANDARD
 70
     0
  3

 62
   256
 51
90.0
 52
90.0
 71
     2
 49
0.5
 62
   256
  6
BYLAYER
 49
-0.5
 62
   256
  6
BYLAYER
  0
ACDBPLACEHOLDER
  5
2CE
102
{ACAD_REACTORS
330
2CD
102
}
330
2CD
  0
SCALE
  5
19DF7
102
{ACAD_REACTORS
330
19DF6
102
}
330
19DF6
100
AcDbScale
 70
     0
300
1:1
140
1.0
141
1.0
290
     1
  0
SCALE
  5
19DF8
102
{ACAD_REACTORS
330
19DF6
102
}
330
19DF6
100
AcDbScale
 70
     0
300
1:2
140
1.0
141
2.0
290
     0
  0
SCALE
  5
19DF9
102
{ACAD_REACTORS
330
19DF6
102
}
330
19DF6
100
AcDbScale
 70
     0
300
1:4
140
1.0
141
4.0
290
     0
  0
SCALE
  5
19DFA
102
{ACAD_REACTORS
330
19DF6
102
}
330
19DF6
100
AcDbScale
 70
     0
300
1:5
140
1.0
141
5.0
290
     0
  0
SCALE
  5
19DFB
102
{ACAD_REACTORS
330
19DF6
102
}
330
19DF6
100
AcDbScale
 70
     0
300
1:8
140
1.0
141
8.0
290
     0
  0
SCALE
  5
19DFC
102
{ACAD_REACTORS
330
19DF6
102
}
330
19DF6
100
AcDbScale
 70
     0
300
1:10
140
1.0
141
10.0
290
     0
  0
SCALE
  5
19DFD
102
{ACAD_REACTORS
330
19DF6
102
}
330
19DF6
100
AcDbScale
 70
     0
300
1:16
140
1.0
141
16.0
290
     0
  0
SCALE
  5
19DFE
102
{ACAD_REACTORS
330
19DF6
102
}
330
19DF6
100
AcDbScale
 70
     0
300
1:20
140
1.0
141
20.0
290
     0
  0
SCALE
  5
19DFF
102
{ACAD_REACTORS
330
19DF6
102
}
330
19DF6
100
AcDbScale
 70
     0
300
1:30
140
1.0
141
30.0
290
     0
  0
SCALE
  5
19E00
102
{ACAD_REACTORS
330
19DF6
102
}
330
19DF6
100
AcDbScale
 70
     0
300
1:40
140
1.0
141
40.0
290
     0
  0
SCALE
  5
19E01
102
{ACAD_REACTORS
330
19DF6
102
}
330
19DF6
100
AcDbScale
 70
     0
300
1:50
140
1.0
141
50.0
290
     0
  0
SCALE
  5
19E02
102
{ACAD_REACTORS
330
19DF6
102
}
330
19DF6
100
AcDbScale
 70
     0
300
1:100
140
1.0
141
100.0
290
     0
  0
SCALE
  5
19E03
102
{ACAD_REACTORS
330
19DF6
102
}
330
19DF6
100
AcDbScale
 70
     0
300
2:1
140
2.0
141
1.0
290
     0
  0
SCALE
  5
19E04
102
{ACAD_REACTORS
330
19DF6
102
}
330
19DF6
100
AcDbScale
 70
     0
300
4:1
140
4.0
141
1.0
290
     0
  0
SCALE
  5
19E05
102
{ACAD_REACTORS
330
19DF6
102
}
330
19DF6
100
AcDbScale
 70
     0
300
8:1
140
8.0
141
1.0
290
     0
  0
SCALE
  5
19E06
102
{ACAD_REACTORS
330
19DF6
102
}
330
19DF6
100
AcDbScale
 70
     0
300
10:1
140
10.0
141
1.0
290
     0
  0
SCALE
  5
19E07
102
{ACAD_REACTORS
330
19DF6
102
}
330
19DF6
100
AcDbScale
 70
     0
300
100:1
140
100.0
141
1.0
290
     0
  0
SCALE
  5
19E08
102
{ACAD_REACTORS
330
19DF6
102
}
330
19DF6
100
AcDbScale
 70
     0
300
1/128" = 1'-0"
140
0.0078125
141
12.0
290
     0
  0
SCALE
  5
19E09
102
{ACAD_REACTORS
330
19DF6
102
}
330
19DF6
100
AcDbScale
 70
     0
300
1/64" = 1'-0"
140
0.015625
141
12.0
290
     0
  0
SCALE
  5
19E0A
102
{ACAD_REACTORS
330
19DF6
102
}
330
19DF6
100
AcDbScale
 70
     0
300
1/32" = 1'-0"
140
0.03125
141
12.0
290
     0
  0
SCALE
  5
19E0B
102
{ACAD_REACTORS
330
19DF6
102
}
330
19DF6
100
AcDbScale
 70
     0
300
1/16" = 1'-0"
140
0.0625
141
12.0
290
     0
  0
SCALE
  5
19E0C
102
{ACAD_REACTORS
330
19DF6
102
}
330
19DF6
100
AcDbScale
 70
     0
300
3/32" = 1'-0"
140
0.09375
141
12.0
290
     0
  0
SCALE
  5
19E0D
102
{ACAD_REACTORS
330
19DF6
102
}
330
19DF6
100
AcDbScale
 70
     0
300
1/8" = 1'-0"
140
0.125
141
12.0
290
     0
  0
SCALE
  5
19E0E
102
{ACAD_REACTORS
330
19DF6
102
}
330
19DF6
100
AcDbScale
 70
     0
300
3/16" = 1'-0"
140
0.1875
141
12.0
290
     0
  0
SCALE
  5
19E0F
102
{ACAD_REACTORS
330
19DF6
102
}
330
19DF6
100
AcDbScale
 70
     0
300
1/4" = 1'-0"
140
0.25
141
12.0
290
     0
  0
SCALE
  5
19E10
102
{ACAD_REACTORS
330
19DF6
102
}
330
19DF6
100
AcDbScale
 70
     0
300
3/8" = 1'-0"
140
0.375
141
12.0
290
     0
  0
SCALE
  5
19E11
102
{ACAD_REACTORS
330
19DF6
102
}
330
19DF6
100
AcDbScale
 70
     0
300
1/2" = 1'-0"
140
0.5
141
12.0
290
     0
  0
SCALE
  5
19E12
102
{ACAD_REACTORS
330
19DF6
102
}
330
19DF6
100
AcDbScale
 70
     0
300
3/4" = 1'-0"
140
0.75
141
12.0
290
     0
  0
SCALE
  5
19E13
102
{ACAD_REACTORS
330
19DF6
102
}
330
19DF6
100
AcDbScale
 70
     0
300
1" = 1'-0"
140
1.0
141
12.0
290
     0
  0
SCALE
  5
19E14
102
{ACAD_REACTORS
330
19DF6
102
}
330
19DF6
100
AcDbScale
 70
     0
300
1-1/2" = 1'-0"
140
1.5
141
12.0
290
     0
  0
SCALE
  5
19E15
102
{ACAD_REACTORS
330
19DF6
102
}
330
19DF6
100
AcDbScale
 70
     0
300
3" = 1'-0"
140
3.0
141
12.0
290
     0
  0
SCALE
  5
19E16
102
{ACAD_REACTORS
330
19DF6
102
}
330
19DF6
100
AcDbScale
 70
     0
300
6" = 1'-0"
140
6.0
141
12.0
290
     0
  0
SCALE
  5
19E17
102
{ACAD_REACTORS
330
19DF6
102
}
330
19DF6
100
AcDbScale
 70
     0
300
1'-0" = 1'-0"
140
12.0
141
12.0
290
     0
  0
TABLESTYLE
  5
4D7
102
{ACAD_XDICTIONARY
360
1ABD4
102
}
102
{ACAD_REACTORS
330
4D6
102
}
330
4D6
100
AcDbTableStyle
  3
Standard
 70
     0
 71
     0
 40
1.5
 41
1.5
280
     0
281
     0
  7
STANDARD
140
4.5
170
     2
 62
     0
 63
     7
283
     0
274
    -2
284
     1
 64
     0
275
    -2
285
     1
 65
     0
276
    -2
286
     1
 66
     0
277
    -2
287
     1
 67
     0
278
    -2
288
     1
 68
     0
279
    -2
289
     1
 69
     0
  7
STANDARD
140
6.0
170
     5
 62
     0
 63
     7
283
     0
274
    -2
284
     1
 64
     0
275
    -2
285
     1
 65
     0
276
    -2
286
     1
 66
     0
277
    -2
287
     1
 67
     0
278
    -2
288
     1
 68
     0
279
    -2
289
     1
 69
     0
  7
STANDARD
140
4.5
170
     5
 62
     0
 63
     7
283
     0
274
    -2
284
     1
 64
     0
275
    -2
285
     1
 65
     0
276
    -2
286
     1
 66
     0
277
    -2
287
     1
 67
     0
278
    -2
288
     1
 68
     0
279
    -2
289
     1
 69
     0
1001
ACAD
1000
AcRTDxfName
1000
TABLESTYLE
1000
AcRTDxfName
1000
TABLESTYLE
1000
AcRTDxfName
1000
TABLESTYLE
1000
AcRTDxfName
1000
TABLESTYLE
1000
AcRTDxfName
1000
TABLESTYLE
  0
VISUALSTYLE
  5
19DEB
102
{ACAD_XDICTIONARY
360
214DB
102
}
102
{ACAD_REACTORS
330
19DE5
102
}
330
19DE5
100
AcDbVisualStyle
  2
2dWireframe
 70
     4
 71
     0
 72
     2
 73
     0
 90
        0
 40
-0.6
 41
-30.0
 62
     5
 63
     7
 74
     1
 91
        4
 64
     7
 65
   257
 75
     1
175
     1
 42
1.0
 92
        0
 66
   257
 43
1.0
 76
     1
 77
     6
 78
     2
 67
     7
 79
     5
170
     0
171
     0
290
     0
174
     0
 93
        1
 44
0.0
173
     0
291
     0
 45
0.0
1001
ACAD
1000
AcDbSavedByObjectVersion
1070
     0
  0
VISUALSTYLE
  5
19DED
102
{ACAD_XDICTIONARY
360
214DF
102
}
102
{ACAD_REACTORS
330
19DE5
102
}
330
19DE5
100
AcDbVisualStyle
  2
3D Hidden
 70
     6
 71
     1
 72
     2
 73
     2
 90
        0
 40
-0.6
 41
-30.0
 62
     5
 63
     7
 74
     2
 91
        2
 64
     7
 65
   257
 75
     2
175
     1
 42
40.0
 92
        0
 66
   257
 43
1.0
 76
     1
 77
     6
 78
     2
 67
     7
 79
     3
170
     0
171
     0
290
     0
174
     0
 93
        1
 44
0.0
173
     0
291
     0
 45
0.0
1001
ACAD
1000
AcDbSavedByObjectVersion
1070
     0
  0
VISUALSTYLE
  5
19DEC
102
{ACAD_XDICTIONARY
360
214DD
102
}
102
{ACAD_REACTORS
330
19DE5
102
}
330
19DE5
100
AcDbVisualStyle
  2
3dWireframe
 70
     5
 71
     0
 72
     2
 73
     0
 90
        0
 40
-0.6
 41
-30.0
 62
     5
 63
     7
 74
     1
 91
        4
 64
     7
 65
   257
 75
     1
175
     1
 42
1.0
 92
        0
 66
   257
 43
1.0
 76
     1
 77
     6
 78
     2
 67
     7
 79
     5
170
     0
171
     0
290
     0
174
     0
 93
        1
 44
0.0
173
     0
291
     0
 45
0.0
1001
ACAD
1000
AcDbSavedByObjectVersion
1070
     0
  0
VISUALSTYLE
  5
19DEA
102
{ACAD_XDICTIONARY
360
214D9
102
}
102
{ACAD_REACTORS
330
19DE5
102
}
330
19DE5
100
AcDbVisualStyle
  2
Basic
 70
     7
 71
     1
 72
     0
 73
     1
 90
        0
 40
-0.6
 41
-30.0
 62
     5
 63
     7
 74
     0
 91
        4
 64
     7
 65
   257
 75
     1
175
     1
 42
1.0
 92
        8
 66
     7
 43
1.0
 76
     1
 77
     6
 78
     2
 67
     7
 79
     5
170
     0
171
     0
290
     0
174
     0
 93
        1
 44
0.0
173
     0
291
     1
 45
0.0
1001
ACAD
1000
AcDbSavedByObjectVersion
1070
     0
  0
VISUALSTYLE
  5
19DF1
102
{ACAD_XDICTIONARY
360
214E7
102
}
102
{ACAD_REACTORS
330
19DE5
102
}
330
19DE5
100
AcDbVisualStyle
  2
Brighten
 70
    12
 71
     2
 72
     2
 73
     0
 90
        0
 40
-0.6
 41
-30.0
 62
     5
 63
     7
 74
     1
 91
        4
 64
     7
 65
   257
 75
     1
175
     1
 42
1.0
 92
        8
 66
     7
 43
1.0
 76
     1
 77
     6
 78
     2
 67
     7
 79
     5
170
     0
171
     0
290
     0
174
     0
 93
        1
 44
50.0
173
     0
291
     1
 45
0.0
1001
ACAD
1000
AcDbSavedByObjectVersion
1070
     0
  0
VISUALSTYLE
  5
19DF5
102
{ACAD_XDICTIONARY
360
214EF
102
}
102
{ACAD_REACTORS
330
19DE5
102
}
330
19DE5
100
AcDbVisualStyle
  2
ColorChange
 70
    16
 71
     2
 72
     2
 73
     3
 90
        0
 40
-0.6
 41
-30.0
 62
     5
 63
     8
 74
     1
 91
        4
 64
     7
 65
   257
 75
     1
175
     1
 42
1.0
 92
        8
 66
     8
 43
1.0
 76
     1
 77
     6
 78
     2
 67
     7
 79
     5
170
     0
171
     0
290
     0
174
     0
 93
        1
 44
0.0
173
     0
291
     1
 45
0.0
1001
ACAD
1000
AcDbSavedByObjectVersion
1070
     0
  0
VISUALSTYLE
  5
19DEE
102
{ACAD_XDICTIONARY
360
214E1
102
}
102
{ACAD_REACTORS
330
19DE5
102
}
330
19DE5
100
AcDbVisualStyle
  2
Conceptual
 70
     9
 71
     3
 72
     2
 73
     0
 90
        0
 40
-0.6
 41
-30.0
 62
     5
 63
     7
 74
     2
 91
        2
 64
     7
 65
   257
 75
     1
175
     1
 42
40.0
 92
        8
 66
     7
 43
1.0
 76
     1
 77
     6
 78
     2
 67
     7
 79
     3
170
     0
171
     0
290
     0
174
     0
 93
        1
 44
0.0
173
     0
291
     0
 45
0.0
1001
ACAD
1000
AcDbSavedByObjectVersion
1070
     0
  0
VISUALSTYLE
  5
19DF0
102
{ACAD_XDICTIONARY
360
214E5
102
}
102
{ACAD_REACTORS
330
19DE5
102
}
330
19DE5
100
AcDbVisualStyle
  2
Dim
 70
    11
 71
     2
 72
     2
 73
     0
 90
        0
 40
-0.6
 41
-30.0
 62
     5
 63
     7
 74
     1
 91
        4
 64
     7
 65
   257
 75
     1
175
     1
 42
1.0
 92
        8
 66
     7
 43
1.0
 76
     1
 77
     6
 78
     2
 67
     7
 79
     5
170
     0
171
     0
290
     0
174
     0
 93
        1
 44
-50.0
173
     0
291
     1
 45
0.0
1001
ACAD
1000
AcDbSavedByObjectVersion
1070
     0
  0
VISUALSTYLE
  5
1E02A
102
{ACAD_XDICTIONARY
360
214F6
102
}
102
{ACAD_REACTORS
330
19DE5
102
}
330
19DE5
100
AcDbVisualStyle
  2
EdgeColorOff
 70
    22
 71
     2
 72
     2
 73
     0
 90
        0
 40
-0.6
 41
-30.0
 62
     5
 63
     7
 74
     1
 91
        4
 64
     7
 65
   257
 75
     1
175
     1
 42
1.0
 92
        8
 66
     7
 43
1.0
 76
     1
 77
     6
 78
     2
 67
     7
 79
     5
170
     0
171
     0
290
     0
174
     0
 93
        1
 44
0.0
173
     0
291
     1
 45
0.0
1001
ACAD
1000
AcDbSavedByObjectVersion
1070
     0
  0
VISUALSTYLE
  5
19DF4
102
{ACAD_XDICTIONARY
360
214ED
102
}
102
{ACAD_REACTORS
330
19DE5
102
}
330
19DE5
100
AcDbVisualStyle
  2
Facepattern
 70
    15
 71
     2
 72
     2
 73
     0
 90
        0
 40
-0.6
 41
-30.0
 62
     5
 63
     7
 74
     1
 91
        4
 64
     7
 65
   257
 75
     1
175
     1
 42
1.0
 92
        8
 66
     7
 43
1.0
 76
     1
 77
     6
 78
     2
 67
     7
 79
     5
170
     0
171
     0
290
     0
174
     0
 93
        1
 44
0.0
173
     0
291
     1
 45
0.0
1001
ACAD
1000
AcDbSavedByObjectVersion
1070
     0
  0
VISUALSTYLE
  5
19DE6
102
{ACAD_XDICTIONARY
360
214D1
102
}
102
{ACAD_REACTORS
330
19DE5
102
}
330
19DE5
100
AcDbVisualStyle
  2
Flat
 70
     0
 71
     2
 72
     1
 73
     1
 90
        2
 40
-0.6
 41
30.0
 62
     5
 63
     7
 74
     0
 91
        4
 64
     7
 65
   257
 75
     1
175
     1
 42
1.0
 92
        8
 66
     7
 43
1.0
 76
     1
 77
     6
 78
     2
 67
     7
 79
     5
170
     0
171
     0
290
     0
174
     0
 93
       13
 44
0.0
173
     0
291
     1
 45
0.0
1001
ACAD
1000
AcDbSavedByObjectVersion
1070
     0
  0
VISUALSTYLE
  5
19DE7
102
{ACAD_XDICTIONARY
360
214D3
102
}
102
{ACAD_REACTORS
330
19DE5
102
}
330
19DE5
100
AcDbVisualStyle
  2
FlatWithEdges
 70
     1
 71
     2
 72
     1
 73
     1
 90
        2
 40
-0.6
 41
30.0
 62
     5
 63
     7
 74
     1
 91
        4
 64
     7
 65
   257
 75
     1
175
     1
 42
1.0
 92
        0
 66
   257
 43
1.0
 76
     1
 77
     6
 78
     2
 67
     7
 79
     5
170
     0
171
     0
290
     0
174
     0
 93
       13
 44
0.0
173
     0
291
     1
 45
0.0
1001
ACAD
1000
AcDbSavedByObjectVersion
1070
     0
  0
VISUALSTYLE
  5
19DE8
102
{ACAD_XDICTIONARY
360
214D5
102
}
102
{ACAD_REACTORS
330
19DE5
102
}
330
19DE5
100
AcDbVisualStyle
  2
Gouraud
 70
     2
 71
     2
 72
     2
 73
     1
 90
        2
 40
-0.6
 41
30.0
 62
     5
 63
     7
 74
     0
 91
        4
 64
     7
 65
   257
 75
     1
175
     1
 42
1.0
 92
        0
 66
     7
 43
1.0
 76
     1
 77
     6
 78
     2
 67
     7
 79
     5
170
     0
171
     0
290
     0
174
     0
 93
       13
 44
0.0
173
     0
291
     1
 45
0.0
1001
ACAD
1000
AcDbSavedByObjectVersion
1070
     0
  0
VISUALSTYLE
  5
19DE9
102
{ACAD_XDICTIONARY
360
214D7
102
}
102
{ACAD_REACTORS
330
19DE5
102
}
330
19DE5
100
AcDbVisualStyle
  2
GouraudWithEdges
 70
     3
 71
     2
 72
     2
 73
     1
 90
        2
 40
-0.6
 41
30.0
 62
     5
 63
     7
 74
     1
 91
        4
 64
     7
 65
   257
 75
     1
175
     1
 42
1.0
 92
        0
 66
   257
 43
1.0
 76
     1
 77
     6
 78
     2
 67
     7
 79
     5
170
     0
171
     0
290
     0
174
     0
 93
       13
 44
0.0
173
     0
291
     1
 45
0.0
1001
ACAD
1000
AcDbSavedByObjectVersion
1070
     0
  0
VISUALSTYLE
  5
1F382
102
{ACAD_XDICTIONARY
360
214FA
102
}
102
{ACAD_REACTORS
330
19DE5
102
}
330
19DE5
100
AcDbVisualStyle
  2
Hidden
 70
     6
 71
     1
 72
     2
 73
     2
 90
        0
 40
-0.6
 41
-30.0
 62
     5
 63
     7
 74
     2
 91
        2
 64
     7
 65
   257
 75
     2
175
     1
 42
40.0
 92
        0
 66
   257
 43
1.0
 76
     1
 77
     6
 78
     2
 67
     7
 79
     3
170
     0
171
     0
290
     0
174
     0
 93
        1
 44
0.0
173
     0
291
     0
 45
0.0
1001
ACAD
1000
AcDbSavedByObjectVersion
1070
     0
  0
VISUALSTYLE
  5
1E028
102
{ACAD_XDICTIONARY
360
214F2
102
}
102
{ACAD_REACTORS
330
19DE5
102
}
330
19DE5
100
AcDbVisualStyle
  2
JitterOff
 70
    20
 71
     2
 72
     2
 73
     0
 90
        0
 40
-0.6
 41
-30.0
 62
     5
 63
     7
 74
     1
 91
        4
 64
     7
 65
   257
 75
     1
175
     1
 42
1.0
 92
       10
 66
     7
 43
1.0
 76
     1
 77
     6
 78
     2
 67
     7
 79
     5
170
     0
171
     0
290
     0
174
     0
 93
        1
 44
0.0
173
     0
291
     1
 45
0.0
1001
ACAD
1000
AcDbSavedByObjectVersion
1070
     0
  0
VISUALSTYLE
  5
19DF3
102
{ACAD_XDICTIONARY
360
214EB
102
}
102
{ACAD_REACTORS
330
19DE5
102
}
330
19DE5
100
AcDbVisualStyle
  2
Linepattern
 70
    14
 71
     2
 72
     2
 73
     0
 90
        0
 40
-0.6
 41
-30.0
 62
     5
 63
     7
 74
     1
 91
        4
 64
     7
 65
   257
 75
     7
175
     7
 42
1.0
 92
        8
 66
     7
 43
1.0
 76
     1
 77
     6
 78
     2
 67
     7
 79
     5
170
     0
171
     0
290
     0
174
     0
 93
        1
 44
0.0
173
     0
291
     1
 45
0.0
1001
ACAD
1000
AcDbSavedByObjectVersion
1070
     0
  0
VISUALSTYLE
  5
1E029
102
{ACAD_XDICTIONARY
360
214F4
102
}
102
{ACAD_REACTORS
330
19DE5
102
}
330
19DE5
100
AcDbVisualStyle
  2
OverhangOff
 70
    21
 71
     2
 72
     2
 73
     0
 90
        0
 40
-0.6
 41
-30.0
 62
     5
 63
     7
 74
     1
 91
        4
 64
     7
 65
   257
 75
     1
175
     1
 42
1.0
 92
        9
 66
     7
 43
1.0
 76
     1
 77
     6
 78
     2
 67
     7
 79
     5
170
     0
171
     0
290
     0
174
     0
 93
        1
 44
0.0
173
     0
291
     1
 45
0.0
1001
ACAD
1000
AcDbSavedByObjectVersion
1070
     0
  0
VISUALSTYLE
  5
19DEF
102
{ACAD_XDICTIONARY
360
214E3
102
}
102
{ACAD_REACTORS
330
19DE5
102
}
330
19DE5
100
AcDbVisualStyle
  2
Realistic
 70
     8
 71
     2
 72
     2
 73
     0
 90
        0
 40
-0.6
 41
-30.0
 62
     5
 63
     7
 74
     1
 91
        0
 64
     7
 65
   257
 75
     1
175
     1
 42
1.0
 92
        8
 66
     8
 43
1.0
 76
     1
 77
     6
 78
     2
 67
     7
 79
     5
170
     0
171
     0
290
     0
174
     0
 93
       13
 44
0.0
173
     0
291
     0
 45
0.0
1001
ACAD
1000
AcDbSavedByObjectVersion
1070
     0
  0
VISUALSTYLE
  5
1F387
102
{ACAD_XDICTIONARY
360
21504
102
}
102
{ACAD_REACTORS
330
19DE5
102
}
330
19DE5
100
AcDbVisualStyle
  2
Shaded
 70
    27
 71
     2
 72
     2
 73
     1
 90
        2
 40
-0.6
 41
30.0
 62
     5
 63
     7
 74
     0
 91
        4
 64
     7
 65
   257
 75
     1
175
     1
 42
1.0
 92
        8
 66
   257
 43
1.0
 76
     1
 77
     6
 78
     2
 67
     8
 79
     3
170
     0
171
     0
290
     0
174
     0
 93
        5
 44
0.0
173
     0
291
     0
 45
0.0
1001
ACAD
1000
AcDbSavedByObjectVersion
1070
     0
  0
VISUALSTYLE
  5
1F386
102
{ACAD_XDICTIONARY
360
21502
102
}
102
{ACAD_REACTORS
330
19DE5
102
}
330
19DE5
100
AcDbVisualStyle
  2
Shaded with edges
 70
    26
 71
     2
 72
     2
 73
     1
 90
        2
 40
-0.6
 41
30.0
 62
     5
 63
     7
 74
     1
 91
       10
 64
     7
 65
   257
 75
     2
175
     1
 42
1.0
 92
        8
 66
   257
 43
1.0
 76
     1
 77
     6
 78
     2
 67
     7
 79
     3
170
     0
171
     0
290
     0
174
     0
 93
        5
 44
0.0
173
     0
291
     0
 45
0.0
1001
ACAD
1000
AcDbSavedByObjectVersion
1070
     0
  0
VISUALSTYLE
  5
1F383
102
{ACAD_XDICTIONARY
360
214FC
102
}
102
{ACAD_REACTORS
330
19DE5
102
}
330
19DE5
100
AcDbVisualStyle
  2
Shades of Gray
 70
    23
 71
     2
 72
     2
 73
     3
 90
        0
 40
-0.6
 41
-30.0
 62
     5
 63
     7
 74
     2
 91
        2
 64
     7
 65
     7
 75
     1
175
     1
 42
40.0
 92
        8
 66
     7
 43
1.0
 76
     1
 77
     6
 78
     2
 67
     7
 79
     3
170
     0
171
     0
290
     0
174
     0
 93
        1
 44
0.0
173
     0
291
     0
 45
0.0
1001
ACAD
1000
AcDbSavedByObjectVersion
1070
     0
  0
VISUALSTYLE
  5
1F384
102
{ACAD_XDICTIONARY
360
214FE
102
}
102
{ACAD_REACTORS
330
19DE5
102
}
330
19DE5
100
AcDbVisualStyle
  2
Sketchy
 70
    24
 71
     1
 72
     2
 73
     2
 90
        0
 40
-0.6
 41
-30.0
 62
     5
 63
     7
 74
     2
 91
        2
 64
     7
 65
     7
 75
     1
175
     1
 42
40.0
 92
       11
 66
     7
 43
1.0
 76
     1
 77
     6
 78
     2
 67
     7
 79
     6
170
     0
171
     0
290
     0
174
     0
 93
        1
 44
0.0
173
     0
291
     0
 45
0.0
1001
ACAD
1000
AcDbSavedByObjectVersion
1070
     0
  0
VISUALSTYLE
  5
19DF2
102
{ACAD_XDICTIONARY
360
214E9
102
}
102
{ACAD_REACTORS
330
19DE5
102
}
330
19DE5
100
AcDbVisualStyle
  2
Thicken
 70
    13
 71
     2
 72
     2
 73
     0
 90
        0
 40
-0.6
 41
-30.0
 62
     5
 63
     7
 74
     1
 91
        4
 64
     7
 65
   257
 75
     1
175
     1
 42
1.0
 92
       12
 66
     7
 43
1.0
 76
     1
 77
     6
 78
     2
 67
     7
 79
     5
170
     0
171
     0
290
     0
174
     0
 93
        1
 44
0.0
173
     0
291
     1
 45
0.0
1001
ACAD
1000
AcDbSavedByObjectVersion
1070
     0
  0
VISUALSTYLE
  5
1F381
102
{ACAD_XDICTIONARY
360
214F8
102
}
102
{ACAD_REACTORS
330
19DE5
102
}
330
19DE5
100
AcDbVisualStyle
  2
Wireframe
 70
     5
 71
     0
 72
     2
 73
     0
 90
        0
 40
-0.6
 41
-30.0
 62
     5
 63
     7
 74
     1
 91
        4
 64
     7
 65
   257
 75
     1
175
     1
 42
1.0
 92
        0
 66
   257
 43
1.0
 76
     1
 77
     6
 78
     2
 67
     7
 79
     3
170
     0
171
     0
290
     0
174
     0
 93
        1
 44
0.0
173
     0
291
     0
 45
0.0
1001
ACAD
1000
AcDbSavedByObjectVersion
1070
     0
  0
VISUALSTYLE
  5
1F385
102
{ACAD_XDICTIONARY
360
21500
102
}
102
{ACAD_REACTORS
330
19DE5
102
}
330
19DE5
100
AcDbVisualStyle
  2
X-Ray
 70
    25
 71
     2
 72
     2
 73
     1
 90
        1
 40
0.5
 41
-30.0
 62
     5
 63
     7
 74
     1
 91
        0
 64
     7
 65
   257
 75
     1
175
     1
 42
1.0
 92
        8
 66
     7
 43
1.0
 76
     1
 77
     6
 78
     2
 67
     7
 79
     3
170
     0
171
     0
290
     0
174
     0
 93
       13
 44
0.0
173
     0
291
     0
 45
0.0
1001
ACAD
1000
AcDbSavedByObjectVersion
1070
     0
  0
DICTIONARYVAR
  5
1AC1A
102
{ACAD_REACTORS
330
37
102
}
330
37
100
DictionaryVariables
280
     0
  1
1:1
  0
DICTIONARYVAR
  5
1AC19
102
{ACAD_REACTORS
330
37
102
}
330
37
100
DictionaryVariables
280
     0
  1
STANDARD
  0
DICTIONARYVAR
  5
4F1
102
{ACAD_REACTORS
330
37
102
}
330
37
100
DictionaryVariables
280
     0
  1
STANDARD
  0
DICTIONARYVAR
  5
38
102
{ACAD_REACTORS
330
37
102
}
330
37
100
DictionaryVariables
280
     0
  1
-1
  0
DICTIONARYVAR
  5
408
102
{ACAD_REACTORS
330
37
102
}
330
37
100
DictionaryVariables
280
     0
  1
2
  0
DICTIONARYVAR
  5
1891
102
{ACAD_REACTORS
330
37
102
}
330
37
100
DictionaryVariables
280
     0
  1
1
  0
DICTIONARYVAR
  5
1AC1C
102
{ACAD_REACTORS
330
37
102
}
330
37
100
DictionaryVariables
280
     0
  1
0
  0
DICTIONARYVAR
  5
1895
102
{ACAD_REACTORS
330
37
102
}
330
37
100
DictionaryVariables
280
     0
  1
8
  0
DICTIONARYVAR
  5
1894
102
{ACAD_REACTORS
330
37
102
}
330
37
100
DictionaryVariables
280
     0
  1
1
  0
DICTIONARYVAR
  5
1892
102
{ACAD_REACTORS
330
37
102
}
330
37
100
DictionaryVariables
280
     0
  1
8
  0
DICTIONARYVAR
  5
1893
102
{ACAD_REACTORS
330
37
102
}
330
37
100
DictionaryVariables
280
     0
  1
2
  0
DICTIONARYVAR
  5
409
102
{ACAD_REACTORS
330
37
102
}
330
37
100
DictionaryVariables
280
     0
  1

  0
DICTIONARYVAR
  5
1AC1B
102
{ACAD_REACTORS
330
37
102
}
330
37
100
DictionaryVariables
280
     0
  1
127
  0
DICTIONARYVAR
  5
21671
102
{ACAD_REACTORS
330
37
102
}
330
37
100
DictionaryVariables
280
     0
  1
2
  0
DICTIONARY
  5
1E441
330
2D3
100
AcDbDictionary
280
     1
281
     1
  3
ACAD_XREC_ROUNDTRIP
360
21677
  3
ADSK_XREC_LAYOUTTHUMBNAIL
360
1E442
  0
DICTIONARY
  5
1E041
330
2D4
100
AcDbDictionary
280
     1
281
     1
  3
ACAD_XREC_ROUNDTRIP
360
21678
  3
ADSK_XREC_LAYOUTTHUMBNAIL
360
1E042
  0
DICTIONARY
  5
19DD6
330
19DD5
100
AcDbDictionary
280
     1
281
     1
  3
ACAD_XREC_ROUNDTRIP
360
2167B
  3
BUMPTILE
360
19DD8
  3
DIFFUSETILE
360
19DD7
  3
OPACITYTILE
360
19DDB
  3
REFLECTIONTILE
360
19DDA
  3
REFRACTIONTILE
360
19DDC
  3
SPECULARTILE
360
19DD9
  0
DICTIONARY
  5
19DCE
330
19DCD
100
AcDbDictionary
280
     1
281
     1
  3
ACAD_XREC_ROUNDTRIP
360
2167A
  3
BUMPTILE
360
19DD0
  3
DIFFUSETILE
360
19DCF
  3
OPACITYTILE
360
19DD3
  3
REFLECTIONTILE
360
19DD2
  3
REFRACTIONTILE
360
19DD4
  3
SPECULARTILE
360
19DD1
  0
DICTIONARY
  5
19DDE
330
19DDD
100
AcDbDictionary
280
     1
281
     1
  3
ACAD_XREC_ROUNDTRIP
360
2167C
  3
BUMPTILE
360
19DE0
  3
DIFFUSETILE
360
19DDF
  3
OPACITYTILE
360
19DE3
  3
REFLECTIONTILE
360
19DE2
  3
REFRACTIONTILE
360
19DE4
  3
SPECULARTILE
360
19DE1
  0
DICTIONARY
  5
1ABD4
330
4D7
100
AcDbDictionary
280
     1
281
     1
  3
ACAD_ROUNDTRIP_2008_TABLESTYLE_CELLSTYLEMAP
360
21672
  3
ACAD_XREC_ROUNDTRIP
360
21679
  0
DICTIONARY
  5
214DB
330
19DEB
100
AcDbDictionary
280
     1
281
     1
  3
ACAD_XREC_ROUNDTRIP
360
214DC
  0
DICTIONARY
  5
214DF
330
19DED
100
AcDbDictionary
280
     1
281
     1
  3
ACAD_XREC_ROUNDTRIP
360
214E0
  0
DICTIONARY
  5
214DD
330
19DEC
100
AcDbDictionary
280
     1
281
     1
  3
ACAD_XREC_ROUNDTRIP
360
214DE
  0
DICTIONARY
  5
214D9
330
19DEA
100
AcDbDictionary
280
     1
281
     1
  3
ACAD_XREC_ROUNDTRIP
360
214DA
  0
DICTIONARY
  5
214E7
330
19DF1
100
AcDbDictionary
280
     1
281
     1
  3
ACAD_XREC_ROUNDTRIP
360
214E8
  0
DICTIONARY
  5
214EF
330
19DF5
100
AcDbDictionary
280
     1
281
     1
  3
ACAD_XREC_ROUNDTRIP
360
214F0
  0
DICTIONARY
  5
214E1
330
19DEE
100
AcDbDictionary
280
     1
281
     1
  3
ACAD_XREC_ROUNDTRIP
360
214E2
  0
DICTIONARY
  5
214E5
330
19DF0
100
AcDbDictionary
280
     1
281
     1
  3
ACAD_XREC_ROUNDTRIP
360
214E6
  0
DICTIONARY
  5
214F6
330
1E02A
100
AcDbDictionary
280
     1
281
     1
  3
ACAD_XREC_ROUNDTRIP
360
214F7
  0
DICTIONARY
  5
214ED
330
19DF4
100
AcDbDictionary
280
     1
281
     1
  3
ACAD_XREC_ROUNDTRIP
360
214EE
  0
DICTIONARY
  5
214D1
330
19DE6
100
AcDbDictionary
280
     1
281
     1
  3
ACAD_XREC_ROUNDTRIP
360
214D2
  0
DICTIONARY
  5
214D3
330
19DE7
100
AcDbDictionary
280
     1
281
     1
  3
ACAD_XREC_ROUNDTRIP
360
214D4
  0
DICTIONARY
  5
214D5
330
19DE8
100
AcDbDictionary
280
     1
281
     1
  3
ACAD_XREC_ROUNDTRIP
360
214D6
  0
DICTIONARY
  5
214D7
330
19DE9
100
AcDbDictionary
280
     1
281
     1
  3
ACAD_XREC_ROUNDTRIP
360
214D8
  0
DICTIONARY
  5
214FA
330
1F382
100
AcDbDictionary
280
     1
281
     1
  3
ACAD_XREC_ROUNDTRIP
360
214FB
  0
DICTIONARY
  5
214F2
330
1E028
100
AcDbDictionary
280
     1
281
     1
  3
ACAD_XREC_ROUNDTRIP
360
214F3
  0
DICTIONARY
  5
214EB
330
19DF3
100
AcDbDictionary
280
     1
281
     1
  3
ACAD_XREC_ROUNDTRIP
360
214EC
  0
DICTIONARY
  5
214F4
330
1E029
100
AcDbDictionary
280
     1
281
     1
  3
ACAD_XREC_ROUNDTRIP
360
214F5
  0
DICTIONARY
  5
214E3
330
19DEF
100
AcDbDictionary
280
     1
281
     1
  3
ACAD_XREC_ROUNDTRIP
360
214E4
  0
DICTIONARY
  5
21504
330
1F387
100
AcDbDictionary
280
     1
281
     1
  3
ACAD_XREC_ROUNDTRIP
360
21505
  0
DICTIONARY
  5
21502
330
1F386
100
AcDbDictionary
280
     1
281
     1
  3
ACAD_XREC_ROUNDTRIP
360
21503
  0
DICTIONARY
  5
214FC
330
1F383
100
AcDbDictionary
280
     1
281
     1
  3
ACAD_XREC_ROUNDTRIP
360
214FD
  0
DICTIONARY
  5
214FE
330
1F384
100
AcDbDictionary
280
     1
281
     1
  3
ACAD_XREC_ROUNDTRIP
360
214FF
  0
DICTIONARY
  5
214E9
330
19DF2
100
AcDbDictionary
280
     1
281
     1
  3
ACAD_XREC_ROUNDTRIP
360
214EA
  0
DICTIONARY
  5
214F8
330
1F381
100
AcDbDictionary
280
     1
281
     1
  3
ACAD_XREC_ROUNDTRIP
360
214F9
  0
DICTIONARY
  5
21500
330
1F385
100
AcDbDictionary
280
     1
281
     1
  3
ACAD_XREC_ROUNDTRIP
360
21501
  0
XRECORD
  5
21677
102
{ACAD_REACTORS
330
1E441
102
}
330
1E441
100
AcDbXrecord
280
     1
102
SHADEPLOT
 70
     0
102
SHADEPLOTRESLEVEL
 70
     2
102
SHADEPLOTCUSTOMDPI
 70
   300
  0
XRECORD
  5
1E442
102
{ACAD_REACTORS
330
1E441
102
}
330
1E441
100
AcDbXrecord
280
     1
310
280000000001000062000000010008000000000000620000000000000000000000010000000000000000000000000000FFFFFF000000000000000000000000000000000000000000000000000000000000000000330000006600000099000000CC000000FF00000000330000333300006633000099330000CC330000FF3300
310
0000660000336600006666000099660000CC660000FF66000000990000339900006699000099990000CC990000FF99000000CC000033CC000066CC000099CC0000CCCC0000FFCC000000FF000033FF000066FF000099FF0000CCFF0000FFFF000000003300330033006600330099003300CC003300FF003300003333003333
310
33006633330099333300CC333300FF33330000663300336633006666330099663300CC663300FF66330000993300339933006699330099993300CC993300FF99330000CC330033CC330066CC330099CC3300CCCC3300FFCC330000FF330033FF330066FF330099FF3300CCFF3300FFFF330000006600330066006600660099
310
006600CC006600FF00660000336600333366006633660099336600CC336600FF33660000666600336666006666660099666600CC666600FF66660000996600339966006699660099996600CC996600FF99660000CC660033CC660066CC660099CC6600CCCC6600FFCC660000FF660033FF660066FF660099FF6600CCFF6600
310
FFFF660000009900330099006600990099009900CC009900FF00990000339900333399006633990099339900CC339900FF33990000669900336699006666990099669900CC669900FF66990000999900339999006699990099999900CC999900FF99990000CC990033CC990066CC990099CC9900CCCC9900FFCC990000FF99
310
0033FF990066FF990099FF9900CCFF9900FFFF99000000CC003300CC006600CC009900CC00CC00CC00FF00CC000033CC003333CC006633CC009933CC00CC33CC00FF33CC000066CC003366CC006666CC009966CC00CC66CC00FF66CC000099CC003399CC006699CC009999CC00CC99CC00FF99CC0000CCCC0033CCCC0066CC
310
CC0099CCCC00CCCCCC00FFCCCC0000FFCC0033FFCC0066FFCC0099FFCC00CCFFCC00FFFFCC000000FF003300FF006600FF009900FF00CC00FF00FF00FF000033FF003333FF006633FF009933FF00CC33FF00FF33FF000066FF003366FF006666FF009966FF00CC66FF00FF66FF000099FF003399FF006699FF009999FF00CC
310
99FF00FF99FF0000CCFF0033CCFF0066CCFF0099CCFF00CCCCFF00FFCCFF0000FFFF0033FFFF0066FFFF0099FFFF00CCFFFF00FFFFFF00000000000D0D0D001A1A1A00282828003535350043434300505050005D5D5D006B6B6B00787878008686860093939300A1A1A100AEAEAE00BBBBBB00C9C9C900D6D6D600E4E4E400
310
F1F1F100FFFFFF0000000000000000000000000000000000000000000000000000000000000000000000000000000000E2E2E2E2E2E2E2E2E2E2E2E2E2E2E2E2E2E2E2E2E2E2E2E2E2E2E2E2E2E2E2E2E2E2E2E2E2E2E2E2E2E2E2E2E2E2E2E2E2E2E2E2E2E2E2E2E2E2E2E2E2E2E2E2E2E2E2E2E2E2E2E2E2E2E2E2E2E2E2
310
E2E2E2E2E2E2E2E2E2E2E2E2E2E2E2E2E2E2E2E2E2E2E2E2E2E2E2E2E2E2E2E2E2E2E2E2E2E2E2E2E2E2E2E2E2E2E2E2E2E2E2E2E2E2E2E2E2E2E2E2E2E2E2E2E2E2E2E2E2E2E2E2E2E2E2E2E2E2E2E2E2E2E2E2E2E2E2E2E2E2E2E2E2E2E2E2E2E2E2E2E2E2E2E2E2E2E2E2E2E2E2E2E2E2E2E2E2E2E2E2E2E2E2E2E2E2E2
310
E2E2E2E2E2E2E2E2E2E2E2E2E2E2E2E2E2E2E2E2E2E2E2E2E2E2E2E2E2E2E2E2E2E2E2E2E2E2E2E2E2E2E2E2E2E2E2E2E2E2E2E2E2E2E2E2E2E2E2E2E2E2E2E2E2E2E2E2E2E2E2E2E2E2E2E2E2E2E2E2E2E2E2E2E2E2E2E2E2E2E2E2E2E2E2E2E2E2E2E2E2E2E2E2E2E2E2E2E2E2E2E2E2E2E2E2E2E2E2E2E2E2E2E2E2E2E2
310
E2E2E2E2E2E2E2E2E2E2E2E2E2E2E2E2E2E2E2E2E2E2E2E2E2E2E2E2E2E2E2E2E2E2E2E2E2E2E2E2E2E2E2E2E2E2E2E2E2E2E2E2E2E2E2E2E2E2E2E2E2E2E2E2E2E2E2E2E2E2E2E2E2E2E2E2E2E2E2E2E2E2E2E2E2E2E2E2E2E2E2E2E2E2E2E2E2E2E2E2E2E2E2E2E2E2E2E2E2E2E2E2E2E2E2E2E2E2E2E2E2E2E2E2E2E2E2
310
E2E2E2E2E2E2E2E2E2E2E2E2E2E2E2E2E2E2E2E2E2E2E2E2E2E2E2E2E2E2E2E2E2E2E2E2E2E2E2E2E2E2E2E2E2E2E2E2E2E2E2E2E2E2E2E2E2E2E2E2E2E2E2E2E2E2E2E2E2E2E2E2E2E2E2E2E2E2E2E2E2E2E2E2E2E2E2E2E2E2E2E2E2E2E2E2E2E2E2E2E2E2E2E2E2E2E2E2E2E2E2E2E2E2E2E2E2E2E2E2E2E2E2E2E2E2E2
310
E2E2E2E2E2E2E2E2E2E2E2E2E2E2E2E2E2E2E2E2E2E2E2E2E2E2E2E2E2E2E2E2E2E2E2E2E2E2E2E2E2E2E2E2E2E2E2E2E2E2E2E2E2E2E2E2E2E2E2E2E2E2E2E2E2E2E2E2E2E2E2E2E2E2E2E2E2E2E2E2E2E2E2E2E2E2E2E2E2E2E2E2E2E2E2E2E2E2E2E2E2E2E2E2E2E2E2E2E2E2E2E2E2E2E2E2E2E2E2E2E2E2E2E2E2E2E2
310
E2E2E2E2E2E2E2E2E2E2E2E2E2E2E2E2E2E2E2E2E2E2E2E2E2E2E2E2E2E2E2E2E2E2E2E2E2E2E2E2E2E2E2E2E2E2E2E2E2E2E2E2E2E2E2E2E2E2E2E2E2E2E2E2E2E2E2E2E2E2E2E2E2E2E2E2E2E2E2E2E2E2E2E2E2E2E2E2E2E2E2E2E2E2E2E2E2E2E2E2E2E2E2E2E2E2E2E2E2E2E2E2E2E2E2E2E2E2E2E2E2E2E2E2E2E2E2
310
E2E2E2E2E2E2E2E2E2E2E2E2E2E2E2E2E2E2E2E2E2E2E2E2E2E2E2E2E2E2E2E2E2E2E2E2E2E2E2E2E2E2E2E2E2E2E2E2E2E2E2E2E2E2E2E2E2E2E2E2E2E2E2E2E2E2E2E2E2E2E2E2E2E2E2E2E2E2E2E2E2E2E2E2E2E2E2E2E2E2E2E2E2E2E2E2E2E2E2E2E2E2E2E2E2E2E2E2E2E2E2E2E2E2E2E2E2E2E2E2E2E2E2E2E2E2E2
310
E2E2E2E2E2E2E2E2E2E2E2E2E2E2E2E2E2E2E2E2E2E2E2E2E2E2E2E2E2E2E2E2E2E2E2E2E2E2E2E2E2E2E2E2E2E2E2E2E2E2E2E2E2E2E2E2E2E2E2E2E2E2E2E2E2E2E2E2E2E2E2E2E2E2E2E2E2E2E2E2E2E2E2E2E2E2E2E2E2E2E2E2E2E2E2E2E2E2E2E2E2E2E2E2E2E2E2E2E2E2E2E2E2E2E2E2E2E2E2E2E2E2E2E2E2E2E2
310
E2E2E2E2E2E2E2E2E2E2E2E2E2E2E2E2E2E2E2E2E2E2E2E2E2E2E2E2E2E2E2E2E2E2E2E2E2E2E2E2E2E2E2E2E2E2E2E2E2E2E2E2E2E2E2E2E2E2E2E2E2E2E2E2E2E2E2E2E2E2E2E2E2E2E2E2E2E2E2E2E2E2E2E2E2E2E2E2E2E2E2E2E2E2E2E2E2E2E2E2E2E2E2E2E2E2E2E2E2E2E2E2E2E2E2E2E2E2E2E2E2E2E2E2E2E2E2
310
E2E2E2E2E2E2E2E2E2E2E2E2E2E2E2E2E2E2E2E2E2E2E2E2E2E2E2E2E2E2E2E2E2E2E2E2E2E2E2E2E2E2E2E2E2E2E2E2E2E2E2E2E2E2E2E2E2E2E2E2E2E2E2E2E2E2E2E2E2E2E2E2E2E2E2E2E2E2E2E2E2E2E2E2E2E2E2E2E2E2E2E2E2E2E2E2E2E2E2E2E2E2E2E2E2E2E2E2E2E2E2E2E2E2E2E2E2E2E2E2E2E2E2E2E2E2E2
310
E2E2E2E2E2E2E2E2E2E2E2E2E2E2E2E2E2E2E2E2E2E2E2E2E2E2E2E2E2E2E2E2E2E2E2E2E2E2E2E2E2E2E2E2E2E2E2E2E2E2E2E2E2E2E2E2E2E2E2E2E2E2E2E2E2E2E2E2E2E2E2E2E2E2E2E2E2E2E2E2E2E2E2E2E2E2E2E2E2E2E2E2E2E2E2E2E2E2E2E2E2E2E2E2E2E2E2E2E2E2E2E2E2E2E2E2E2E2E2E2E2E2E2E2E2E2E2
310
E2E2E2E2E2E2E2E2E2E2E2E2E2E2E2E2E2E2E2E2E2E2E2E2E2E2E2E2E2E2E2E2E2E2E2E2E2E2E2E2E2E2E2E2E2E2E2E2E2E2E2E2E2E2E2E2E2E2E2E2E2E2E2E2E2E2E2E2E2E2E2E2E2E2E2E2E2E2E2E2E2E2E2E2E2E2E2E2E2E2E2E2E2E2E2E2E2E2E2E2E2E2E2E2E2E2E2E2E2E2E2E2E2E2E2E2E2E2E2E2E2E2E2E2E2E2E2
310
E2E2E2E2E2E2E2E2E2E2E2E2E2E2E2E2E2E2E2E2E2E2E2E2E2E2E2E2E2E2E2E2E2E2E2E2E2E2E2E2E2E2E2E2E2E2E2E2E2E2E2E2E2E2E2E2E2E2E2E2E2E2E2E2E2E2E2E2E2E2E2E2E2E2E2E2E2E2E2E2E2E2E2E2E2E2E2E2E2E2E2E2E2E2E2E2E2E2E2E2E2E2E2E2E2E2E2E2E2E2E2E2E2E2E2E2E2E2E2E2E2E2E2E2E2E2E2
310
E2E2E2E2E2E2E2E2E2E2E2E2E2E2E2E2E2E2E2E2E2E2E2E2E2E2E2E2E2E2E2E2E2E2E2E2E2E2E2E2E2E2E2E2E2E2E2E2E2E2E2E2E2E2E2E2E2E2E2E2E2E2E2E2E2E2E2E2E2F5E2E2E2E2E2E2E2E2E2E2E2E2E2E2E2E2E2E2E2E2E2E2E2E2E2E2E2E2E2E2E2E2E2E2E2E2E2E2E2E2E2E2E2E2E2E2E2E2E2E2E2E2E2E2E2E2E2
310
E2E2E2E2E2E2E2E2E2E2E2E2E2E2E2E2E2E2E2E2E2E2E2E2E2E2E2E2E2E2E2E2E2E2E2E2E2E2E2E2E2E2E2E2E2E2E2E2E2E2E2E2E2E2E2E2E2E2E2E2E2E2E2E2E2E2E2E2E2E2E2E2E2E2E2E2E2E2E2E2E2E2E2E2E2E2E2E2E2E2E2E2E2E2E2E2E2E2E2E2E2E2E2E2E2E2E2E2E2E2E2E2E2E2E2E2E2E2E2E2E2E2E2E2E2E2E2
310
E2E2E2E2E2E2E2E2E2F5E2E2E2E2E2E2E2E2E2E2E2E2E2E2E2E2E2E2E2E2E2E2E2E2E2E2E2E2E2E2E2E2E2E2E2E2E2E2E2E2E2E2E2E2E2E2E2E2E2E2E2E2E2E2E2E2E2E2E2E2E2F5F5F5F5F5F5F5F5F5F5F5F5F5F5F5F5F5F5F5F5F5F5F5F5F5F5F5F5F5F5F5F5F5F5F5F5F5F5F5F5F5F5F5F5F5F5F5F5F5F5F5F5F5F5F5F5
310
F5F5F5F5F5F5F5F5F5F5F5F5F5F5F5F5F5F5F5F5F5F5F5F5F5F5F5F5F5F5F5F5F5F5F5F5F5F5F5F5F5F5F5F5F5F5F5F5F5F5F5F5F5F5F5F5F5F5F5F5F5F5F5F5F5F5F5F5F5F5F5F5F5F5F5F5F5F5F5F5F5F5F5F5F5F5F5F5F5F5F5F5F5F5F5F5F5F5F5F5F5F5F5F5F5F5F5F5F5F5F5F5F5F5F5F5F5F5F5F5F5F5F5F5F5F5F5
310
F5F5F5F5F5F5F5F5F5F5F5F5E2E2E2E2E2E2E2E2E2E2E2E2E2E2E2E2E2E2E2E2E2E2E2E2E2E2E2E2E2E2E2E2E2E2E2E2E2E2E2E2E2E2E2E2E2E2E2E2E2E2E2E2E2E2E2E2E2E2E2E2E2F5E2E2E2E2E2E2E2E2E2E2E2E2E2E2E2E2E2E2E2E2E2E2E2E2E2E2E2E2E2E2E2E2E2E2E2E2E2E2E2E2E2E2E2E2E2E2E2E2E2E2E2E2E2
310
E2E2E2E2E2E2E2E2E2E2E2E2E2E2E2E2E2E2E2E2E2E2E2E2E2E2E2E2E2E2E2E2E2E2E2E2E2E2E2F5F5F5F5F5F5F5E2E2E2E2E2E2E2E2E2E2E2E2E2E2E2E2E2E2E2E2E2E2E2E2E2E2E2E2E2E2E2E2E2E2E2E2E2E2E2E2E2E2E2E2E2E2E2E2E2E2E2E2E2E2E2E2E2E2E2E2E2E2E2E2E2E2E2E2E2E2E2E2E2E2E2E2E2E2E2E2E2
310
E2E2E2E2E2E2E2E2E2E2E2E2E2F5E2E2E2E2E2E2E2E2E2E2E2E2E2E2E2E2E2E2E2E2E2E2E2E2E2E2E2E2E2E2E2E2E2E2E2E2E2E2E2E2E2E2E2E2E2E2E2E2E2E2E2E2E2E2E2E2E2E2E2E2E2F5E2E2E2E2E2E2E2E2E2E2E2E2E2E2E2E2E2E2E2E2E2E2E2E2E2E2E2E2E2E2E2E2E2E2E2E2E2E2E2E2E2E2E2E2E2E2E2E2E2E2E2
310
E2E2E2E2E2E2E2E2E2E2E2E2E2E2E2E2E2E2E2E2E2E2E2E2E2E2E2E2E2E2E2E2E2E2E2E2E2E2E2E2E2F5F5F5F5F5F5E2F5E2E2E2E2E2E2E2E2E2E2E2E2E2E2E2E2E2E2E2E2E2E2E2E2E2E2E2E2E2E2E2E2E2E2E2E2E2E2E2E2E2E2E2E2E2E2E2E2E2E2E2E2E2E2E2E2E2E2E2E2E2E2E2E2E2E2E2E2E2E2E2E2E2E2E2E2E2E2
310
E2E2E2E2E2E2E2E2E2E2E2E2E2E2E2F5E2E2E2E2E2E2E2E2E2E2E2E2E2E2E2E2E2E2E2E2E2E2E2E2E2E2E2E2E2E2E2E2E2E2E2E2E2E2E2E2E2E2E2E2E2E2E2E2E2E2E2E2E2E2E2E2E2E2E2E2E2F5E2E2E2E2E2E2E2E2E2E2E2E2E2E2E2E2E2E2E2E2E2E2E2E2E2E2E2E2E2E2E2E2E2E2E2E2E2E2E2E2E2E2E2E2E2E2E2E2E2
310
E2E2E2E2E2E2E2E2E2E2E2E2E2E2E2E2E2E2E2E2E2E2E2E2E2E2E2E2E2E2E2E2E2E2E2E2E2E2E2E2E2E2E2F5E2E2F5E2E2E2F5E2E2E2E2E2E2E2E2E2E2E2E2E2E2E2E2E2E2E2E2E2E2E2E2E2E2E2E2E2E2E2E2E2E2E2E2E2E2E2E2E2E2E2E2E2E2E2E2E2E2E2E2E2E2E2E2E2E2E2E2E2E2E2E2E2E2E2E2E2E2E2E2E2E2E2E2
310
E2E2E2E2E2E2E2E2E2E2E2E2E2E2E2E2E2F5E2E2E2E2E2E2E2E2E2E2E2E2E2E2E2E2E2E2E2E2E2E2E2E2E2E2E2E2E2E2E2E2E2E2E2E2E2E2E2E2E2E2E2E2E2E2E2E2E2E2E2E2E2E2E2E2E2E2E2E2E2F5E2E2E2E2E2E2E2E2E2E2E2E2E2E2E2E2E2E2E2E2E2E2E2E2E2E2E2E2E2E2E2E2E2E2E2E2E2E2E2E2E2E2E2E2E2E2E2
310
E2E2E2E2E2E2E2E2E2E2E2E2E2E2E2E2E2E2E2E2E2E2E2E2E2E2E2E2E2E2E2E2E2E2E2E2E2E2E2E2E2E2E2E2E2E2F5E2E2F5E2F5F5F5E2E2E2E2E2E2E2E2E2E2E2E2E2E2E2E2E2E2E2E2E2E2E2E2E2E2E2E2E2E2E2E2E2E2E2E2E2E2E2E2E2E2E2E2E2E2E2E2E2E2E2E2E2E2E2E2E2E2E2E2E2E2E2E2E2E2E2E2E2E2E2E2E2
310
E2E2E2E2E2E2E2E2E2E2E2E2E2E2E2E2E2E2E2F5E2E2E2E2E2E2E2E2E2E2E2E2E2E2E2E2E2E2E2E2E2E2E2E2E2E2E2E2E2E2E2E2E2E2E2E2E2E2E2E2E2E2E2E2E2E2E2E2E2E2E2E2E2E2E2E2E2E2E2E2E2F5E2E2E2E2E2E2E2E2E2F5F5E2E2E2E2E2E2E2E2E2E2E2E2E2E2E2E2E2E2E2E2E2E2E2E2E2E2E2E2E2E2E2E2E2E2
310
E2E2E2E2E2E2E2E2E2E2E2E2E2E2E2E2E2E2E2E2E2E2E2E2E2E2E2E2E2E2E2E2E2E2E2E2E2E2E2E2E2E2E2E2E2E2E2E2E2E2E2E2E2E2E2E2E2E2E2E2E2E2E2E2E2E2E2E2E2E2E2E2E2E2E2E2E2E2E2E2E2E2E2E2E2E2E2E2E2E2E2E2E2E2E2E2E2E2E2E2E2E2E2E2E2E2E2E2E2E2E2E2E2E2E2E2E2E2E2E2E2E2E2E2E2E2E2
310
E2E2E2E2E2E2E2E2E2F5E2F5E2E2E2E2E2E2E2E2E2F5E2E2E2E2E2E2E2E2E2E2E2E2E2E2E2E2E2E2E2E2E2E2E2E2E2E2E2E2E2E2E2E2E2E2E2E2E2E2E2E2E2E2E2E2E2E2E2E2E2E2E2E2E2E2E2E2E2E2E2E2E2F5E2E2E2E2E2E2E2E2E2F5F5F5F5F5F5F5F5F5F5F5F5F5F5F5F5F5F5F5F5F5F5F5F5F5F5F5F5F5F5F5F5F5F5
310
F5F5F5F5F5F5F5F5F5F5F5F5F5F5F5F5F5F5F5F5F5F5F5F5F5F5F5F5F5F5F5F5F5F5F5F5F5F5F5F5F5F5F5F5F5F5F5F5F5F5F5F5F5F5F5F5F5F5F5F5F5F5F5F5F5F5F5F5F5F5F5F5F5F5F5F5F5F5F5F5F5F5F5F5F5F5F5F5F5F5F5F5F5F5F5F5F5F5F5F5F5F5F5F5F5F5F5F5F5F5F5F5F5F5F5F5F5F5F5F5F5F5F5F5F5F5F5
310
F5F5F5F5F5F5F5F5F5F5F5F5F5F5E2E2E2E2E2E2E2E2E2F5E2E2E2E2E2E2E2E2E2E2E2E2E2E2E2E2E2E2E2E2E2E2E2E2E2E2E2E2E2E2E2E2E2E2E2E2E2E2E2E2E2E2E2E2E2E2E2E2E2E2E2E2E2E2E2E2E2E2E2E2E2F5E2E2E2E2E2E2E2E2E2F5E2E2E2E2E2E2E2E2E2E2E2E2E2E2E2E2E2E2E2E2E2E2E2E2E2E2E2E2E2E2E2
310
E2E2E2E2E2E2E2E2E2E2E2E2E2E2E2E2E2E2E2E2E2E2E2E2E2E2E2E2E2E2E2E2E2E2E2E2E2E2E2E2E2E2E2E2E2E2E2E2E2E2E2F5E2E2F5E2F5F5F5F5E2F5E2E2E2E2E2E2E2E2E2E2E2E2E2E2E2E2E2E2E2E2E2E2E2E2E2E2E2E2E2E2E2E2E2E2E2E2E2E2E2E2E2E2E2E2E2E2E2E2E2E2E2E2E2E2E2E2E2E2E2E2E2E2E2E2E2
310
E2E2E2E2E2E2E2E2E2E2E2E2E2E2E2F5E2E2E2E2E2E2E2E2E2F5E2E2E2E2E2E2E2E2E2E2E2E2E2E2E2E2E2E2E2E2E2E2E2E2E2E2E2E2E2E2E2E2E2E2E2E2E2E2E2E2E2E2E2E2E2E2E2E2E2E2E2E2E2E2E2E2E2E2E2E2E2F5E2E2E2E2E2E2E2E2E2F5E2E2E2E2E2E2E2E2E2E2E2E2E2E2E2E2E2E2E2E2E2E2E2E2E2E2E2E2E2
310
E2E2E2E2E2E2E2E2E2E2E2E2E2E2E2E2E2E2E2E2E2E2E2E2E2E2E2E2E2E2E2E2E2E2E2E2E2E2E2E2E2E2E2E2E2E2E2E2E2E2E2E2E2F5F5F5F5F5E2F5F5F5E2F5E2E2E2E2E2E2E2E2E2E2E2E2E2E2E2E2E2E2E2E2E2E2E2E2E2E2E2E2E2E2E2E2E2E2E2E2E2E2E2E2E2E2E2E2E2E2E2E2E2E2E2E2E2E2E2E2E2E2E2E2E2E2E2
310
E2E2E2E2E2E2E2E2E2E2E2E2E2E2E2E2E2F5E2E2E2E2E2E2E2E2E2F5E2E2E2E2E2E2E2F5F5E2E2E2E2E2E2E2E2E2E2E2E2E2E2E2E2E2E2F5F5E2E2E2E2E2E2E2E2E2E2E2E2E2E2E2E2E2E2E2E2E2E2E2E2E2E2E2E2E2E2E2E2F5E2E2E2E2E2E2E2E2E2F5E2E2E2E2E2E2E2E2E2E2E2E2E2E2E2E2E2E2E2E2E2E2E2E2E2E2E2
310
E2E2E2E2E2E2E2E2E2E2E2E2E2E2E2E2E2E2E2E2E2E2E2E2E2E2E2E2E2E2E2E2E2E2E2E2E2E2E2E2E2E2E2E2E2E2E2E2E2E2E2E2E2E2E2F5F5F5E2F5E2F5F5F5F5F5E2E2E2E2E2E2E2E2E2E2E2E2E2E2E2E2E2E2E2E2E2E2E2E2E2E2E2E2E2E2E2E2E2E2E2E2E2E2E2E2E2E2E2E2E2E2E2E2E2E2E2E2E2E2E2E2E2E2E2E2E2
310
E2E2E2E2E2E2E2E2E2E2E2E2E2E2E2E2E2E2E2F5E2E2E2E2E2E2E2E2E2F5E2E2E2E2E2E2E2F5F5F5F5F5F5F5F5F5F5F5F5F5F5F5F5F5F5F5F5F5F5E2E2E2E2E2E2E2E2E2E2E2E2E2E2E2E2E2E2E2E2E2E2E2E2E2E2E2E2E2E2E2E2F5E2E2E2E2E2E2E2E2E2F5E2E2E2E2E2E2E2E2E2E2E2E2E2E2E2E2E2E2E2E2E2E2E2E2E2
310
E2E2E2E2E2E2E2E2E2E2E2E2E2E2E2E2E2E2E2E2E2E2E2E2E2E2E2E2E2E2E2E2E2E2E2E2E2E2E2E2E2E2E2E2E2E2E2E2E2E2E2E2E2E2E2E2E2E2E2E2E2E2E2E2E2E2E2E2E2E2E2E2E2E2E2E2E2E2E2E2E2E2E2E2E2E2E2E2E2E2E2E2E2E2E2E2E2E2E2E2E2E2E2E2E2E2E2E2E2E2E2E2E2E2E2E2E2E2E2E2E2E2E2E2E2E2E2
310
E2E2E2E2E2E2E2E2E2E2E2E2E2E2E2E2E2E2E2E2E2F5E2E2E2E2E2E2E2E2E2F5E2E2E2E2E2E2E2F5E2E2E2E2E2E2E2E2F5F5F5F5E2E2E2E2E2E2E2E2F5E2E2E2E2E2E2E2E2E2E2E2E2E2E2E2E2E2E2E2E2E2E2E2E2E2E2E2E2E2E2E2E2F5E2E2E2E2E2E2E2E2E2F5E2E2E2E2E2E2E2E2E2E2E2E2E2E2E2E2E2E2E2E2E2E2E2
310
E2E2E2E2E2E2E2E2E2E2E2E2E2E2E2E2E2E2E2E2E2E2E2E2E2E2E2E2E2E2E2E2E2E2E2E2E2E2E2E2E2E2E2E2E2E2E2E2E2E2E2E2E2E2E2E2E2E2E2E2E2E2E2E2E2E2E2E2E2E2E2E2E2E2E2E2E2E2E2E2E2E2E2E2E2E2E2E2E2E2E2E2E2E2E2E2E2E2E2E2E2E2E2E2E2E2E2E2E2E2E2E2E2E2E2E2E2E2E2E2E2E2E2E2E2E2E2
310
E2E2E2E2E2E2E2E2E2E2E2E2E2E2E2E2E2E2E2E2E2E2E2F5E2E2E2E2E2E2E2E2E2F5E2E2E2E2E2E2E2F5E2E2E2E2E2E2E2E2E2E2E2E2E2E2E2E2E2E2E2E2F5E2E2E2E2E2E2E2E2E2E2E2E2E2E2E2E2E2E2E2E2E2E2E2E2E2E2E2E2E2E2E2E2F5E2E2E2E2E2E2E2BEBEBEBEE2E2E2E2E2E2E2E2E2E2E2E2E2E2E2E2E2E2E2E2
310
E2E2E2E2E2E2E2E2E2E2E2E2E2E2E2E2E2E2E2E2E2E2E2E2E2E2E2E2E2E2E2E2E2E2E2E2E2E2E2E2E2E2E2E2E2E2E2E2E2E2E2E2E2E2E2E2E2E2E2E2E2E2E2E2E2E2E2E2E2E2E2E2E2E2E2E2E2E2E2E2E2E2E2E2E2E2E2E2E2E2E2E2E2E2E2E2E2E2E2E2E2E2E2E2E2E2E2E2E2E2E2E2E2E2E2E2E2E2E2E2E2E2E2E2E2E2E2
310
E2E2E2E2E2E2E2E2E2E2E2E2E2E2E2E2E2E2E2E2E2E2E2BEBEBEBEBEE2E2E2E2E2E2E2F5E2E2E2E2E2E2E2F5E2BEBEF5F5F5F5F5F5F5F5F5F5F5F5F5F5F5F5F5F5F5F5F5F5F5F5F5F5F5F5F5F5F5F5F5F5F5F5E2E2E2E2E2E2E2E2E2E2E2E2E2E2F5E2E2E2E2E2BEBEBEE2F5BEBEBEBEBEBEBEBEBEBEBEBEBEBEBEBEBEBEBE
310
BEBEBEBEBEBEBEBEBEBEBEBEBEBEBEBEBEBEBEBEBEBEBEBEBEBEBEBEBEBEBEBEBEBEBEBEBEBEBEBEBEBEBEBEBEBEBEBEBEBEBEBEBEBEBEBEBEBEBEBEBEBEBEBEBEBEBEBEBEBEBEBEBEBEBEBEBEBEBEBEBEBEBEBEBEBEBEBEBEBEBEBEBEBEBEBEBEBEBEBEBEBEBEBEBEBEBEBEBEBEBEBEBEBEBEBEBEBEBEBEBEBEBEBEBEBEBE
310
BEBEBEBEBEBEBEBEBEBEBEBEBEBEBEBEBEBEBEBEBEBEBEBEBEBEBEF5BEBEBEBEE2E2E2E2E2F5E2E2E2E2E2E2E2F5BEBEBEBEBEBEE2E2E2E2E2E2E2E2E2E2E2E2E2E2F5E2E2E2E2E2E2E2E2E2E2E2E2E2E2E2E2E2F5E2E2E2E2E2E2E2E2E2E2E2E2E2E2BEE2E2BEBEBEE2BEBEE2F5BEE2BEE2E2E2E2E2E2E2E2E2E2E2E2E2E2
310
E2E2E2E2E2E2E2E2E2E2E2E2E2E2E2E2E2E2E2E2E2E2E2E2E2E2E2E2E2E2E2E2E2E2E2E2E2E2E2E2E2E2E2E2E2E2E2E2E2E2E2E2E2E2E2E2E2E2E2E2E2E2E2E2E2E2E2E2E2E2E2E2E2E2E2E2E2E2E2E2E2E2E2E2E2E2E2E2E2E2E2E2E2E2E2E2E2E2E2E2E2E2E2E2E2E2E2E2E2E2E2E2E2E2E2E2E2E2E2E2E2E2E2E2E2E2E2
310
E2E2F5E2E2E2E2E2E2E2E2E2E2E2E2E2E2E2E2E2E2E2E2E2E2E2BEE2BEF5BEE2BEE2BEBEBEE2E2BEE2E2E2E2E2E2E2F5BEE2BEBEBEE2BEE2E2E2E2E2E2E2E2F5F5F5F5F5F5E2E2E2E2E2E2E2E2E2E2E2E2E2E2E2E2E2F5E2E2E2E2E2E2E2E2E2E2E2E2E2E2BEBEBEE2E2E2E2BEBEE2F5BEE2BEE2E2E2E2E2E2E2E2E2E2E2E2
310
E2E2E2E2E2E2E2E2E2E2E2E2E2E2E2E2E2E2E2E2E2E2E2E2E2E2E2E2E2E2E2E2E2E2E2E2E2E2E2E2E2E2E2E2E2E2E2E2E2E2E2E2E2E2E2E2E2E2E2E2E2E2E2E2E2E2E2E2E2E2E2E2E2E2E2E2E2E2E2E2E2E2E2E2E2E2E2E2E2E2E2E2E2E2E2E2E2E2E2E2E2E2E2E2E2E2E2E2E2E2E2E2E2E2E2E2E2E2E2E2E2E2E2E2E2E2E2
310
E2E2E2E2F5E2E2E2E2E2E2E2E2E2E2E2E2E2E2E2E2E2E2E2E2E2E2E2BEE2BEF5BEE2BEE2E2E2E2BEBEBEE2E2E2E2E2E2E2BEE2BEBEE2BEBEBEE2E2E2E2E2E2E2E2F5E2F5F5F5F5E2E2E2BEE2BEE2E2E2E2E2E2E2E2E2E2E2F5E2E2E2E2E2E2E2E2E2E2E2E2E2E2BEE2E2BEBEE2E2BEBEE2F5BEE2BEE2E2E2E2E2E2E2E2E2E2
310
E2E2E2E2E2E2E2E2E2E2E2E2E2E2E2E2E2E2E2E2E2E2E2E2E2E2E2E2E2E2E2E2E2E2E2E2E2E2E2E2E2E2E2E2E2E2E2E2E2E2E2E2E2E2E2E2E2E2E2E2E2E2E2E2E2E2E2E2E2E2E2E2E2E2E2E2E2E2E2E2E2E2E2E2E2E2E2E2E2E2E2E2E2E2E2E2E2E2E2E2E2E2E2E2E2E2E2E2E2E2E2E2E2E2E2E2E2E2E2E2E2E2E2E2E2E2E2
310
E2E2E2E2E2E2F5E2F5E2E2E2E2E2E2E2E2E2E2E2E2E2E2E2E2E2E2E2E2E2BEE2BEF5BEE2BEE2E2BEBEE2E2BEE2E2E2E2E2E2E2BEE2BEE2BEE2BEE2E2E2E2E2E2E2E2E2F5E2F5F5E2BEE2E2E2BEE2BEE2E2E2E2E2E2E2E2E2E2E2F5E2E2E2E2E2E2E2E2E2E2E2E2E2E2E2E2E2E2E2BEE2BEBEE2F5BEE2BEBEBEBEBEBEBEBEBE
310
BEBEBEBEBEBEBEBEBEBEBEBEBEBEBEBEBEBEBEBEBEBEBEBEBEBEBEBEBEBEBEBEBEBEBEBEBEBEBEBEBEBEBEBEBEBEBEBEBEBEBEBEBEBEBEBEBEBEBEBEBEBEBEBEBEBEBEBEBEBEBEBEBEBEBEBEBEBEBEBEBEBEBEBEBEBEBEBEBEBEBEBEBEBEBEBEBEBEBEBEBEBEBEBEBEBEBEBEBEBEBEBEBEBEBEBEBEBEBEBEBEBEBEBEBEBEBE
310
BEBEBEBEBEBEBEBEBEBEBEBEBEBEBEBEBEBEBEBEBEBEBEBEBEBEBEBEBEBEBEBEBEE2BEF5BEE2BEE2BEE2E2E2E2E2E2E2E2E2E2E2E2BEE2E2BEBEBEBEE2E2E2E2E2E2E2E2E2F5E2E2E2E2BEE2E2E2BEE2BEE2E2E2E2E2E2E2E2E2E2E2F5E2E2E2E2E2E2E2E2E2E2E2E2E2E2E2E2E2E2E2E2BEBEBEBEF5BEBEBEE2E2E2E2E2E2
310
E2E2E2E2E2E2E2E2E2E2E2E2E2E2E2E2E2E2E2E2E2E2E2E2E2E2E2E2E2E2E2E2E2E2E2E2E2E2E2E2E2E2E2E2E2E2E2E2E2E2E2E2E2E2E2E2E2E2E2E2E2E2E2E2E2E2E2E2E2E2E2E2E2E2E2E2E2E2E2E2E2E2E2E2E2E2E2E2E2E2E2E2E2E2E2E2E2E2E2E2E2E2E2E2E2E2E2E2E2E2E2E2E2E2E2E2E2E2E2E2E2E2E2E2E2E2E2
310
E2E2E2E2E2E2E2E2E2E2F5E2E2F5E2E2E2E2E2E2E2E2E2E2E2E2E2E2E2E2E2E2E2E2BEBEBEF5BEBEBEBEE2E2E2E2E2E2E2E2E2E2E2E2E2BEE2E2E2E2BEE2E2E2E2E2E2E2E2E2E2F5E2E2E2BEBEF5F5F5F5F5F5F5F5F5F5F5F5F5F5F5E2E2F5E2E2E2E2E2E2E2E2E2E2E2E2E2E2E2E2E2E2E2E2E2F5F5F5F5F5F5BEE2E2E2E2
310
E2E2E2E2E2E2E2E2E2E2E2E2E2E2E2E2E2E2E2E2E2E2E2E2E2E2E2E2E2E2E2E2E2E2E2E2E2E2E2E2E2E2E2E2E2E2E2E2E2E2E2E2E2E2E2E2E2E2E2E2E2E2E2E2E2E2E2E2E2E2E2E2E2E2E2E2E2E2E2E2E2E2E2E2E2E2E2E2E2E2E2E2E2E2E2E2E2E2E2E2E2E2E2E2E2E2E2E2E2E2E2E2E2E2E2E2E2E2E2E2E2E2E2E2E2E2E2
310
E2E2E2E2E2E2E2E2E2E2E2F5F5E2E2F5E2E2E2E2E2E2E2E2E2E2E2E2E2E2E2E2E2E2E2E2BEF5F5F5F5F5BEE2E2E2E2E2E2E2E2E2E2E2E2E2E2E2BEE2E2E2E2E2BEE2E2E2E2E2E2E2E2F5E2E2E2BEF5E2E2E2BEE2BEE2E2E2E2E2E2E2E2F5E2E2F5E2E2E2E2E2E2E2E2E2E2E2E2E2E2E2E2E2E2E2F5F5E2BEF5F5BEE2F5F5BE
310
E2E2E2E2E2E2E2E2E2E2E2E2E2E2E2E2E2E2E2E2E2E2E2E2E2E2E2E2E2E2E2E2E2E2E2E2E2E2E2E2E2E2E2E2E2E2E2E2E2E2E2E2E2E2E2E2E2E2E2E2E2E2E2E2E2E2E2E2E2E2E2E2E2E2E2E2E2E2E2E2E2E2E2E2E2E2E2E2E2E2E2E2E2E2E2E2E2E2E2E2E2E2E2E2E2E2E2E2E2E2E2E2E2E2E2E2E2E2E2E2E2E2E2E2E2E2E2
310
E2E2E2E2E2E2E2E2E2E2E2E2E2F5F5E2E2F5F5E2E2E2E2E2E2E2E2E2E2E2E2E2E2E2E2E2BEF5F5E2BEF5BEE2F5F5F5E2E2E2E2E2E2E2E2E2E2E2E2E2BEE2E2E2E2E2BEE2E2E2E2E2E2E2E2BEBEE2BEBEBEF5F5F5F5F5F5F5F5E2E2E2E2E2E2F5E2E2F5E2E2E2E2E2E2E2E2E2E2E2E2E2E2E2E2E2E2F5F5E2E2BEF5F5BEE2E2
310
F5F5E2E2E2E2E2E2E2E2E2E2E2E2E2E2E2E2E2E2E2E2E2E2E2E2E2E2E2E2E2E2E2E2E2E2E2E2E2E2E2E2E2E2E2E2E2E2E2E2E2E2E2E2E2E2E2E2E2E2E2E2E2E2E2E2E2E2E2E2E2E2E2E2E2E2E2E2E2E2E2E2E2E2E2E2E2E2E2E2E2E2E2E2E2E2E2E2E2E2E2E2E2E2E2E2E2E2E2E2E2E2E2E2E2E2E2E2E2E2E2E2E2E2E2E2E2
310
E2E2E2E2E2E2E2E2E2E2E2E2E2E2E2F5F5E2E2E2F5F5F5F5F5F5F5F5F5F5F5F5E2E2E2E2E2E2F5E2E2E2F5F5F5E2E2E2F5F5E2E2E2E2E2E2E2E2E2E2E2E2E2BEE2E2E2BEE2E2E2E2E2E2E2BEBEF5E2BEF5BEBEF5F5F5F5F5F5F5F5F5F5F5F5E2E2F5E2F5F5E2E2E2E2E2E2E2E2E2E2E2E2E2E2E2E2E2E2F5E2E2E2BEF5F5BE
310
E2E2E2E2F5E2E2E2E2E2E2E2E2E2E2E2E2E2E2E2E2E2E2E2E2E2E2E2E2E2E2E2E2E2E2E2E2E2E2E2E2E2E2E2E2E2E2E2E2E2E2E2E2E2E2E2E2E2E2E2E2E2E2E2E2E2E2E2E2E2E2E2E2E2E2E2E2E2E2E2E2E2E2E2E2E2E2E2E2E2E2E2E2E2E2E2E2E2E2E2E2E2E2E2E2E2E2E2E2E2E2E2E2E2E2E2E2E2E2E2E2E2E2E2E2E2E2
310
E2E2E2E2E2E2E2E2E2E2E2E2E2E2E2E2E2E2F5E2E2E2F5F5F5F5F5F5F5F5F5F5F5F5E2E2E2E2E2BEF5E2E2E2BEF5F5E2E2E2E2BEF5E2E2E2E2E2E2E2E2E2E2E2E2BEE2E2E2BEBEE2E2E2E2E2E2BEF5F5F5E2F5BEBEF5F5F5F5F5F5F5F5E2E2E2F5E2E2F5E2F5F5E2E2E2E2E2E2E2E2E2E2E2E2E2E2E2E2E2F5BEE2E2E2BEBE
310
F5BEE2E2E2E2F5E2E2E2E2E2E2E2E2E2E2E2E2E2E2E2E2E2E2E2E2E2E2E2E2E2E2E2E2E2E2E2E2E2E2E2E2E2E2E2E2E2E2E2E2E2E2E2E2E2E2E2E2E2E2E2E2E2E2E2E2E2E2E2E2E2E2E2E2E2E2E2E2E2E2E2E2E2E2E2E2E2E2E2E2E2E2E2E2E2E2E2E2E2E2E2E2E2E2E2E2E2E2E2E2E2E2E2E2E2E2E2E2E2E2E2E2E2E2E2E2
310
E2E2E2E2E2E2E2E2E2E2E2E2E2E2E2E2E2E2E2E2E2E2E2E2F5F5F5F5F5F5F5F5F5F5E2E2E2E2E2E2E2F5E2E2E2E2BEF5BEE2E2E2E2BEF5E2E2E2E2E2E2E2E2E2E2E2E2E2BEBEE2E2E2BEBEE2E2E2BEBEF5F5F5E2E2BEBEE2E2E2BEE2BEE2E2E2E2E2F5E2E2F5E2F5F5E2E2E2E2E2E2E2E2E2E2E2E2E2E2E2E2E2F5E2E2E2E2
310
BEBEF5BEBEE2E2E2F5BEE2E2E2E2E2E2E2E2E2E2E2E2E2E2E2E2E2E2E2E2E2E2E2E2E2E2E2E2E2E2E2E2E2E2E2E2E2E2E2E2E2E2E2E2E2E2E2E2E2E2E2E2E2E2E2E2E2E2E2E2E2E2E2E2E2E2E2E2E2E2E2E2E2E2E2E2E2E2E2E2E2E2E2E2E2E2E2E2E2E2E2E2E2E2E2E2E2E2E2E2E2E2E2E2E2E2E2E2E2E2E2E2E2E2E2E2E2
310
E2E2E2E2E2E2E2E2E2E2E2E2E2E2E2E2E2E2E2E2E2E2E2E2E2E2E2E2E2E2E2E2E2E2E2E2E2E2E2E2E2E2F5F5E2E2E2E2BEF5BEBEE2E2E2E2F5E2E2E2E2E2E2E2E2E2E2E2E2E2E2E2BEE2E2E2E2BEBEBEBEF5F5F5F5F5F5BEBEE2E2E2BEE2BEE2E2E2E2F5F5E2F5F5E2E2F5E2E2E2E2E2E2E2E2E2E2E2E2E2E2E2F5F5F5F5F5
310
F5F5BEF5F5F5BEF5F5F5F5BEF5E2E2E2E2E2E2E2E2E2E2E2E2E2E2E2E2E2E2E2E2E2E2E2E2E2E2E2E2E2E2E2E2E2E2E2E2E2E2E2E2E2E2E2E2E2E2E2E2E2E2E2E2E2E2E2E2E2E2E2E2E2E2E2E2E2E2E2E2E2E2E2E2E2E2E2E2E2E2E2E2E2E2E2E2E2E2E2E2E2E2E2E2E2E2E2E2E2E2E2E2E2E2E2E2E2E2E2E2E2E2E2E2E2E2
310
E2E2E2E2E2E2E2E2E2E2E2E2E2E2E2E2E2E2E2E2E2E2E2E2E2E2E2E2E2E2E2E2E2E2E2E2E2E2E2E2E2E2F5F5F5F5F5F5F5BEF5F5F5BEF5F5F5F5F5F5F5E2E2E2E2E2E2E2E2E2E2E2E2E2E2BEBEE2E2E2E2F5BEF5F5F5F5F5F5BEF5F5E2E2BEE2BEE2E2E2E2F5F5E2F5F5E2E2F5E2E2E2E2E2E2E2E2E2E2E2E2E2E2E2E2E2F5
310
E2E2E2E2BEBEF5BEE2E2E2E2F5BEE2E2E2E2E2E2E2E2E2E2E2E2E2E2E2E2E2E2E2E2E2E2E2E2E2E2E2E2E2E2E2E2E2E2E2E2E2E2E2E2E2E2E2E2E2E2E2E2E2E2E2E2E2E2E2E2E2E2E2E2E2E2E2E2E2E2E2E2E2E2E2E2E2E2E2E2E2E2E2E2E2E2E2E2E2E2E2E2E2E2E2E2E2E2E2E2E2E2E2E2E2E2E2E2E2E2E2E2E2E2E2E2E2
310
E2E2E2E2E2E2E2E2E2E2E2E2E2E2E2E2E2E2E2E2E2E2E2E2E2E2E2E2E2E2E2E2E2E2E2E2E2E2E2E2E2E2E2E2E2E2BEF5F5E2E2E2BEF5BEE2E2E2E2E2F5E2E2E2E2E2E2E2E2E2E2E2E2E2E2E2E2E2E2BEBEBEBEE2BEF5E2F5E2E2E2BEBEE2E2E2BEE2BEE2E2E2E2F5F5E2F5F5E2E2F5E2E2E2E2E2E2E2E2E2E2E2E2E2E2E2E2
310
E2F5BEE2E2E2E2BEBEBEE2E2E2E2F5BEE2E2E2E2E2E2E2E2E2E2E2E2E2E2E2E2E2E2E2E2E2E2E2E2E2E2E2E2E2E2E2E2E2E2E2E2E2E2E2E2E2E2E2E2E2E2E2E2E2E2E2E2E2E2E2E2E2E2E2E2E2E2E2E2E2E2E2E2E2E2E2E2E2E2E2E2E2E2E2E2E2E2E2E2E2E2E2E2E2E2E2E2E2E2E2E2E2E2E2E2E2E2E2E2E2E2E2E2E2E2E2
310
E2E2E2E2E2E2E2E2E2E2E2E2E2E2E2E2E2E2E2E2E2E2E2E2E2E2E2E2E2E2E2E2E2E2E2E2E2E2E2E2E2E2E2E2E2E2E2E2E2F5F5E2E2E2BEBEBEE2E2E2E2E2F5E2E2E2E2E2E2E2E2E2E2E2E2E2E2E2E2E2E2E2E2E2E2BEBEF5F5F5F5F5F5BEBEE2E2E2BEE2BEE2E2E2E2F5F5E2F5F5E2E2F5E2E2E2E2E2E2E2E2E2E2E2E2E2E2
310
E2E2E2F5BEE2E2E2E2E2F5E2E2E2E2E2F5E2E2E2E2E2E2E2E2E2E2E2E2E2E2E2E2E2E2E2E2E2E2E2E2E2E2E2E2E2E2E2E2E2E2E2E2E2E2E2E2E2E2E2E2E2E2E2E2E2E2E2E2E2E2E2E2E2E2E2E2E2E2E2E2E2E2E2E2E2E2E2E2E2E2E2E2E2E2E2E2E2E2E2E2E2E2E2E2E2E2E2E2E2E2E2E2E2E2E2E2E2E2E2E2E2E2E2E2E2E2
310
E2E2E2E2E2E2E2E2E2E2E2E2E2E2E2E2E2E2E2E2E2E2E2E2E2E2E2E2E2E2E2E2E2E2E2E2E2E2E2E2E2E2E2E2E2E2E2E2E2E2E2F5E2E2E2E2E2F5E2E2E2E2E2F5F5E2E2E2E2E2E2E2E2E2E2E2E2E2E2E2E2E2E2E2E2E2E2E2E2BEBEE2E2E2E2BEBEE2E2E2BEE2BEE2E2E2E2E2F5E2E2F5E2E2F5E2E2E2E2E2E2E2E2E2E2E2E2
310
E2E2E2E2E2E2F5E2E2E2E2F5F5E2E2E2E2F5F5E2E2E2E2E2E2E2E2E2E2E2E2E2E2E2E2E2E2E2E2E2E2E2E2E2E2E2E2E2E2E2E2E2E2E2E2E2E2E2E2E2E2E2E2E2E2E2E2E2E2E2E2E2E2E2E2E2E2E2E2E2E2E2E2E2E2E2E2E2E2E2E2E2E2E2E2E2E2E2E2E2E2E2E2E2E2E2E2E2E2E2E2E2E2E2E2E2E2E2E2E2E2E2E2E2E2E2E2
310
E2E2E2E2E2E2E2E2E2E2E2E2E2E2E2E2E2E2E2E2E2E2E2E2E2E2E2E2E2E2E2E2E2E2E2E2E2E2E2E2E2E2E2E2E2E2E2E2E2E2E2F5F5F5F5E2E2E2E2F5F5E2E2E2E2F5E2E2E2E2E2E2E2E2E2E2E2E2E2E2E2E2E2E2E2E2E2E2E2E2E2BEBEE2E2E2F5BEBEF5F5F5F5F5F5F5F5F5E2E2F5E2E2F5E2E2F5E2E2E2E2E2E2E2E2E2E2
310
E2E2E2E2E2E2E2E2F5BEBEE2E2F5F5E2E2E2E2F5E2E2E2E2E2E2E2E2E2E2E2E2E2E2E2E2E2E2E2E2E2E2E2E2E2E2E2E2E2E2E2E2E2E2E2E2E2E2E2E2E2E2E2E2E2E2E2E2E2E2E2E2E2E2E2E2E2E2E2E2E2E2E2E2E2E2E2E2E2E2E2E2E2E2E2E2E2E2E2E2E2E2E2E2E2E2E2E2E2E2E2E2E2E2E2E2E2E2E2E2E2E2E2E2E2E2E2
310
E2E2E2E2E2E2E2E2E2E2E2E2E2E2E2E2E2E2E2E2E2E2E2E2E2E2E2E2E2E2E2E2E2E2E2E2E2E2E2E2E2E2E2E2E2E2E2E2E2E2E2F5F5E2E2E2F5BEE2E2F5F5F5E2E2E2F5E2E2E2E2E2E2E2E2E2E2E2E2E2E2E2E2E2E2E2E2E2E2E2E2E2E2E2E2BEBEBEF5BEBEF5F5F5F5F5F5F5F5F5F5F5F5E2E2F5E2E2F5E2E2E2E2E2E2E2E2
310
E2E2E2E2E2E2E2E2E2E2E2F5F5F5E2E2F5E2E2F5F5E2E2E2E2E2E2E2E2E2E2E2E2E2E2E2E2E2E2E2E2E2E2E2E2E2E2E2E2E2E2E2E2E2E2E2E2E2E2E2E2E2E2E2E2E2E2E2E2E2E2E2E2E2E2E2E2E2E2E2E2E2E2E2E2E2E2E2E2E2E2E2E2E2E2E2E2E2E2E2E2E2E2E2E2E2E2E2E2E2E2E2E2E2E2E2E2E2E2E2E2E2E2E2E2E2E2
310
E2E2E2E2E2E2E2E2E2E2E2E2E2E2E2E2E2E2E2E2E2E2E2E2E2E2E2E2E2E2E2E2E2E2E2E2E2E2E2E2E2E2F5F5F5F5F5F5F5F5F5F5F5F5E2E2E2E2E2F5F5E2E2F5E2E2F5F5E2E2E2E2E2E2E2E2E2E2E2E2E2E2E2E2E2E2E2E2E2E2E2E2E2E2E2E2E2E2E2E2BEBEBEE2E2E2BEE2BEE2E2E2E2F5F5E2E2F5E2E2F5E2E2E2E2E2E2
310
E2E2E2E2E2E2E2E2E2E2E2E2E2E2E2F5F5F5F5F5F5E2E2E2E2E2E2E2E2E2E2E2E2E2E2E2E2E2E2E2E2E2E2E2E2E2E2E2E2E2E2E2E2E2E2E2E2E2E2E2E2E2E2E2E2E2E2E2E2E2E2E2E2E2E2E2E2E2E2E2E2E2E2E2E2E2E2E2E2E2E2E2E2E2E2E2E2E2E2E2E2E2E2E2E2E2E2E2E2E2E2E2E2E2E2E2E2E2E2E2E2E2E2E2E2E2E2
310
E2E2E2E2E2E2E2E2E2E2E2E2E2E2E2E2E2E2E2E2E2E2E2E2E2E2E2E2E2E2E2E2E2E2E2E2E2E2E2E2E2E2F5F5F5F5F5F5F5F5F5F5F5F5F5F5E2E2E2E2E2E2E2F5F5F5F5F5F5E2E2E2E2E2E2E2E2E2E2E2E2E2E2E2E2E2E2E2E2E2E2E2E2E2E2E2E2E2E2E2E2E2E2BEBEE2E2E2BEE2BEE2E2E2E2F5F5E2E2F5E2E2F5E2E2E2E2
310
E2E2E2E2E2E2E2E2E2E2E2E2E2E2E2E2E2E2E2E2F5E2E2E2E2E2E2E2E2E2E2E2E2E2E2E2E2E2E2E2E2E2E2E2E2E2E2E2E2E2E2E2E2E2E2E2E2E2E2E2E2E2E2E2E2E2E2E2E2E2E2E2E2E2E2E2E2E2E2E2E2E2E2E2E2E2E2E2E2E2E2E2E2E2E2E2E2E2E2E2E2E2E2E2E2E2E2E2E2E2E2E2E2E2E2E2E2E2E2E2E2E2E2E2E2E2E2
310
E2E2E2E2E2E2E2E2E2E2E2E2E2E2E2E2E2E2E2E2E2E2E2E2E2E2E2E2E2E2E2E2E2E2E2E2E2E2E2E2E2E2E2E2F5F5F5F5F5F5F5F5F5F5F5F5F5F5E2E2E2E2E2E2E2E2E2F5E2E2E2E2E2E2E2E2E2E2E2E2E2E2E2E2E2E2E2E2E2E2E2E2E2E2E2E2E2E2E2E2E2E2E2E2E2BEF5F5F5F5F5F5F5F5F5F5F5F5F5F5F5F5F5F5F5E2E2
310
E2E2E2E2E2E2E2E2E2E2E2E2E2E2E2E2E2E2E2E2E2E2F5E2E2E2E2E2E2E2E2E2E2E2E2E2E2E2E2E2E2E2E2E2E2E2E2E2E2E2E2E2E2E2E2E2E2E2E2E2E2E2E2E2E2E2E2E2E2E2E2E2E2E2E2E2E2E2E2E2E2E2E2E2E2E2E2E2E2E2E2E2E2E2E2E2E2E2E2E2E2E2E2E2E2E2E2E2E2E2E2E2E2E2E2E2E2E2E2E2E2E2E2E2E2E2E2
310
E2E2E2E2E2E2E2E2E2E2E2E2E2E2E2E2E2E2E2E2E2E2E2E2E2E2E2E2E2E2E2E2E2E2E2E2E2E2E2E2E2E2E2E2E2E2E2E2E2E2E2E2E2E2E2E2E2E2E2E2E2E2E2E2E2E2E2E2E2F5E2E2E2E2E2E2E2E2E2E2E2E2E2E2E2E2E2E2E2E2E2E2E2E2E2E2E2E2E2E2E2E2E2E2E2E2E2E2BEF5E2E2BEF5BEE2E2E2E2E2E2E2E2E2E2E2E2
310
E2E2E2E2E2E2E2E2E2E2E2E2E2E2E2E2E2E2E2E2E2E2E2E2E2E2E2E2E2E2E2E2E2E2E2E2E2E2E2E2E2E2E2E2E2E2E2E2E2E2E2E2E2E2E2E2E2E2E2E2E2E2E2E2E2E2E2E2E2E2E2E2E2E2E2E2E2E2E2E2E2E2E2E2E2E2E2E2E2E2E2E2E2E2E2E2E2E2E2E2E2E2E2E2E2E2E2E2E2E2E2E2E2E2E2E2E2E2E2E2E2E2E2E2E2E2E2
310
E2E2E2E2E2E2E2E2E2E2E2E2E2E2E2E2E2E2E2E2E2E2E2E2E2E2E2E2E2E2E2E2E2E2E2E2E2E2E2E2E2E2E2E2E2E2E2E2E2E2E2E2E2E2E2E2E2E2E2E2E2E2E2E2E2E2E2E2E2E2E2E2E2E2E2E2E2E2E2E2E2E2E2E2E2E2E2E2E2E2E2E2E2E2E2E2E2E2E2E2E2E2E2E2E2E2E2E2E2E2BEF5E2E2BEF5BEE2E2E2E2E2E2E2E2E2E2
310
E2E2E2E2E2E2E2E2E2E2E2E2E2E2E2E2E2E2E2E2E2E2E2E2E2E2E2E2E2E2E2E2E2E2E2E2E2E2E2E2E2E2E2E2E2E2E2E2E2E2E2E2E2E2E2E2E2E2E2E2E2E2E2E2E2E2E2E2E2E2E2E2E2E2E2E2E2E2E2E2E2E2E2E2E2E2E2E2E2E2E2E2E2E2E2E2E2E2E2E2E2E2E2E2E2E2E2E2E2E2E2E2E2E2E2E2E2E2E2E2E2E2E2E2E2E2E2
310
E2E2E2E2E2E2E2E2E2E2E2E2E2E2E2E2E2E2E2E2E2E2E2E2E2E2E2E2E2E2E2E2E2E2E2E2E2E2E2E2E2E2E2E2E2E2E2E2E2E2E2E2E2E2E2E2E2E2E2E2E2E2E2E2E2E2E2E2E2E2E2E2E2E2E2E2E2E2E2E2E2E2E2E2E2E2E2E2E2E2E2E2E2E2E2E2E2E2E2E2E2E2E2E2E2E2E2E2E2E2E2E2BEE2F5E2BEE2F5E2E2E2E2E2E2E2E2
310
E2E2E2E2E2E2E2E2E2E2E2E2E2E2E2E2E2E2E2E2E2E2E2E2E2E2BEBEBEBEE2E2E2E2E2E2E2E2E2E2E2E2E2E2E2E2E2E2E2E2E2E2E2E2E2E2E2E2E2E2E2E2E2E2E2E2E2E2E2E2E2E2E2E2E2E2E2E2E2E2E2E2E2E2E2E2E2E2E2E2E2E2E2E2E2E2E2E2E2E2E2E2E2E2E2E2E2E2E2E2E2E2E2E2E2E2E2E2E2E2E2E2E2E2E2E2E2
310
E2E2E2E2E2E2E2E2E2E2E2E2E2E2E2E2E2E2E2E2E2E2E2E2E2E2E2E2E2E2E2E2E2E2E2E2E2E2E2E2E2E2E2E2E2E2E2E2E2E2E2E2E2E2E2E2E2E2E2E2E2E2E2E2E2E2E2E2E2E2E2E2E2E2BEBEBEE2E2E2E2E2E2E2E2E2E2E2E2E2E2E2E2E2E2E2E2E2E2E2E2E2E2E2E2E2E2E2E2E2E2E2E2E2E2E2F5E2E2E2F5E2E2E2E2E2E2
310
E2E2E2E2E2E2E2E2E2E2E2E2E2E2E2E2E2E2E2E2E2E2E2E2E2E2BEBEBEE2E2BEBEBEE2E2E2E2E2E2E2E2E2E2E2E2E2E2E2E2E2E2E2E2E2E2E2E2E2E2E2E2E2E2E2E2E2E2E2E2E2E2E2E2E2E2E2E2E2E2E2E2E2E2E2E2E2E2E2E2E2E2E2E2E2E2E2E2E2E2E2E2E2E2E2E2E2E2E2E2E2E2E2E2E2E2E2E2E2E2E2E2E2E2E2E2E2
310
E2E2E2E2E2E2E2E2E2E2E2E2E2E2E2E2E2E2E2E2E2E2E2E2E2E2E2E2E2E2E2E2E2E2E2E2E2E2E2E2E2E2E2E2E2E2E2E2E2E2E2E2E2E2E2E2E2E2E2E2E2E2E2E2E2E2E2E2E2E2E2E2E2E2BEBEBEE2BEBEBEBEE2E2E2E2E2E2E2E2E2E2E2E2E2E2E2E2E2E2E2E2E2E2E2E2E2E2E2E2E2E2E2E2E2E2E2E2BEBEBEE2BEBEBEBEBE
310
BEBEBEE2E2E2E2E2E2E2E2E2E2E2E2E2E2E2E2E2E2E2E2E2E2E2E2BEE2BEBEE2E2BEE2BEBEBEBEBEBEBEBEBEBEBEBEBEBEBEBEBEBEBEBEBEBEBEBEBEBEBEBEBEBEBEBEBEBEBEBEBEBEBEBEBEBEBEBEBEBEBEBEBEBEBEBEBEBEBEBEBEBEBEBEBEBEBEBEBEBEBEBEBEBEBEBEBEBEBEBEBEBEBEBEBEBEBEBEBEBEBEBEBEBEBEBE
310
BEBEBEBEBEBEBEBEBEBEBEBEBEBEBEBEBEBEBEBEBEBEBEBEBEBEBEBEBEBEBEBEBEBEBEBEBEBEBEBEBEBEBEBEBEBEBEBEBEBEBEBEBEBEBEBEBEBEBEBEBEBEBEBEBEBEBEBEBEBEBEBEBEBEBEBEBEE2BEE2BEE2BEE2BEE2E2E2E2E2E2E2E2E2E2E2E2E2E2E2E2E2E2E2E2E2E2E2E2E2E2E2E2E2E2E2E2E2E2E2BEBEBEE2BEBEBE
310
BEBEBEBEBEE2E2E2E2E2E2E2E2E2E2E2E2E2E2E2E2E2E2E2BEE2E2BEBEE2E2BEBEE2E2BEE2BEE2E2E2E2E2E2E2E2E2E2E2E2E2E2E2E2E2E2E2E2E2E2E2E2E2E2E2E2E2E2E2E2E2E2E2E2E2E2E2E2E2E2E2E2E2E2E2E2E2E2E2E2E2E2E2E2E2E2E2E2E2E2E2E2E2E2E2E2E2E2E2E2E2E2E2E2E2E2E2E2E2E2E2E2E2E2E2E2E2
310
E2E2E2E2E2E2E2E2E2E2E2E2E2E2E2E2E2E2E2E2E2E2E2E2E2E2E2E2E2E2E2E2E2E2E2E2E2E2E2E2E2E2E2E2E2E2E2E2E2E2E2E2E2E2E2E2E2E2E2E2E2E2E2E2E2E2E2E2E2E2E2E2E2E2E2E2E2E2BEE2BEE2BEE2BEE2E2BEBEE2E2BEE2E2E2E2E2E2E2E2E2E2E2E2E2E2E2E2E2E2E2E2E2E2E2E2E2E2E2E2E2E2E2E2E2E2E2
310
E2E2E2E2E2E2E2E2E2E2E2E2E2E2E2E2E2E2E2E2E2E2E2E2E2E2BEBEBEE2E2E2E2BEBEE2E2BEE2BEE2E2E2E2E2E2E2E2E2E2E2E2E2E2E2E2E2E2E2E2E2E2E2E2E2E2E2E2E2E2E2E2E2E2E2E2E2E2E2E2E2E2E2E2E2E2E2E2E2E2E2E2E2E2E2E2E2E2E2E2E2E2E2E2E2E2E2E2E2E2E2E2E2E2E2E2E2E2E2E2E2E2E2E2E2E2E2
310
E2E2E2E2E2E2E2E2E2E2E2E2E2E2E2E2E2E2E2E2E2E2E2E2E2E2E2E2E2E2E2E2E2E2E2E2E2E2E2E2E2E2E2E2E2E2E2E2E2E2E2E2E2E2E2E2E2E2E2E2E2E2E2E2E2E2E2E2E2E2E2E2E2E2E2E2E2E2E2E2BEE2BEE2BEE2BEE2E2E2E2BEBEBEE2E2E2E2E2E2E2E2E2E2E2E2E2E2E2E2E2E2E2E2E2E2E2E2E2E2E2E2E2E2E2E2E2
310
E2E2E2E2E2E2E2E2E2E2E2E2E2E2E2E2E2E2E2E2E2E2E2E2E2E2E2E2BEE2E2BEBEBEE2BEBEE2E2BEE2BEE2E2E2E2E2E2E2E2E2E2E2E2E2E2E2E2E2E2E2E2E2E2E2E2E2E2E2E2E2E2E2E2E2E2E2E2E2E2E2E2E2E2E2E2E2E2E2E2E2E2E2E2E2E2E2E2E2E2E2E2E2E2E2E2E2E2E2E2E2E2E2E2E2E2E2E2E2E2E2E2E2E2E2E2E2
310
E2E2E2E2E2E2E2E2E2E2E2E2E2E2E2E2E2E2E2E2E2E2E2E2E2E2E2E2E2E2E2E2E2E2E2E2E2E2E2E2E2E2E2E2E2E2E2E2E2E2E2E2E2E2E2E2E2E2E2E2E2E2E2E2E2E2E2E2E2E2E2E2E2E2E2E2E2E2E2E2E2E2BEE2BEE2BEE2BEE2BEBEBEE2E2BEE2E2E2E2E2E2E2E2E2E2E2E2E2E2E2E2E2E2E2E2E2E2E2E2E2E2E2E2E2E2E2
310
E2E2E2E2E2E2E2E2E2E2E2E2E2E2E2E2E2E2E2E2E2E2E2E2E2E2E2E2E2E2E2E2E2E2E2E2BEBEBEE2E2BEBEBEBEBEBEBEBEBEBEBEBEBEBEBEBEBEBEBEBEBEBEBEBEBEBEBEBEBEBEBEBEBEBEBEBEBEBEBEBEBEBEBEBEBEBEBEBEBEBEBEBEBEBEBEBEBEBEBEBEBEBEBEBEBEBEBEBEBEBEBEBEBEBEBEBEBEBEBEBEBEBEBEBEBEBE
310
BEBEBEBEBEBEBEBEBEBEBEBEBEBEBEBEBEBEBEBEBEBEBEBEBEBEBEBEBEBEBEBEBEBEBEBEBEBEBEBEBEBEBEBEBEBEBEBEBEBEBEBEBEBEBEBEBEBEBEBEBEBEBEBEBEBEBEBEBEBEBEBEBEBEBEBEBEBEBEBEBEBEBEBEBEBEBEE2BEBEBEBEE2E2E2E2E2E2E2E2E2E2E2E2E2E2E2E2E2E2E2E2E2E2E2E2E2E2E2E2E2E2E2E2E2E2E2
310
E2E2E2E2E2E2E2E2E2E2E2E2E2E2E2E2E2E2E2E2E2E2E2E2E2E2E2E2E2E2E2E2E2E2E2E2E2E2E2E2BEE2E2BEE2E2E2E2E2E2E2E2E2E2E2E2E2E2E2E2E2E2E2E2E2E2E2E2E2E2E2E2E2E2E2E2E2E2E2E2E2E2E2E2E2E2E2E2E2E2E2E2E2E2E2E2E2E2E2E2E2E2E2E2E2E2E2E2E2E2E2E2E2E2E2E2E2E2E2E2E2E2E2E2E2E2E2
310
E2E2E2E2E2E2E2E2E2E2E2E2E2E2E2E2E2E2E2E2E2E2E2E2E2E2E2E2E2E2E2E2E2E2E2E2E2E2E2E2E2E2E2E2E2E2E2E2E2E2E2E2E2E2E2E2E2E2E2E2E2E2E2E2E2E2E2E2E2E2E2E2E2E2E2E2E2E2E2E2E2E2E2E2E2E2E2BEBEE2BEBEE2E2E2E2E2E2E2E2E2E2E2E2E2E2E2E2E2E2E2E2E2E2E2E2E2E2E2E2E2E2E2E2E2E2E2
310
E2E2E2E2E2E2E2E2E2E2E2E2E2E2E2E2E2E2E2E2E2E2E2E2E2E2E2E2E2E2E2E2E2E2E2E2E2E2E2E2E2E2BEE2E2BEE2E2E2E2E2E2E2E2E2E2E2E2E2E2E2E2E2E2E2E2E2E2E2E2E2E2E2E2E2E2E2E2E2E2E2E2E2E2E2E2E2E2E2E2E2E2E2E2E2E2E2E2E2E2E2E2E2E2E2E2E2E2E2E2E2E2E2E2E2E2E2E2E2E2E2E2E2E2E2E2E2
310
E2E2E2E2E2E2E2E2E2E2E2E2E2E2E2E2E2E2E2E2E2E2E2E2E2E2E2E2E2E2E2E2E2E2E2E2E2E2E2E2E2E2E2E2E2E2E2E2E2E2E2E2E2E2E2E2E2E2E2E2E2E2E2E2E2E2E2E2E2E2E2E2E2E2E2E2E2E2E2E2E2E2E2E2E2E2E2E2E2E2BEE2BEE2E2E2E2E2E2E2E2E2E2E2E2E2E2E2E2E2E2E2E2E2E2E2E2E2E2E2E2E2E2E2E2E2E2
310
E2E2E2E2E2E2E2E2E2E2E2E2E2E2E2E2E2E2E2E2E2E2E2E2E2E2E2E2E2E2E2E2E2E2E2E2E2E2E2E2E2E2E2E2BEE2F5BEE2E2E2E2E2E2E2E2E2E2E2E2E2E2E2E2E2E2E2E2E2E2E2E2E2E2E2E2E2E2E2E2E2E2E2E2E2E2E2E2E2E2E2E2E2E2E2E2E2E2E2E2E2E2E2E2E2E2E2E2E2E2E2E2E2E2E2E2E2E2E2E2E2E2E2E2E2E2E2
310
E2E2E2E2E2E2E2E2E2E2E2E2E2E2E2E2E2E2E2E2E2E2E2E2E2E2E2E2E2E2E2E2E2E2E2E2E2E2E2E2E2E2E2E2E2E2E2E2E2E2E2E2E2E2E2E2E2E2E2E2E2E2E2E2E2E2E2E2E2E2E2E2E2E2E2E2E2E2E2E2E2E2E2E2E2E2E2E2E2E2E2E2BEF5BEE2E2E2E2E2E2E2E2E2E2E2E2E2E2E2E2E2E2E2E2E2E2E2E2E2E2E2E2E2E2E2E2
310
E2E2E2E2E2E2E2E2E2E2E2E2E2E2E2E2E2E2E2E2E2E2E2E2E2E2E2E2E2E2E2E2E2E2E2E2E2E2E2E2E2E2E2E2E2E2BEE2E2BEE2E2E2E2E2E2E2E2E2E2E2E2E2E2E2E2E2E2E2E2E2E2E2E2E2E2E2E2E2E2E2E2E2E2E2E2E2E2E2E2E2E2E2E2E2E2E2E2E2E2E2E2E2E2E2E2E2E2E2E2E2E2E2E2E2E2E2E2E2E2E2E2E2E2E2E2E2
310
E2E2E2E2E2E2E2E2E2E2E2E2E2E2E2E2E2E2E2E2E2E2E2E2E2E2E2E2E2E2E2E2E2E2E2E2E2E2E2E2E2E2E2E2E2E2E2E2E2E2E2E2E2E2E2E2E2E2E2E2E2E2E2E2E2E2E2E2E2E2E2E2E2E2E2E2E2E2E2E2E2E2E2E2E2E2E2E2E2E2E2E2E2E2BEE2BEE2E2E2E2E2E2E2E2E2E2E2E2E2E2E2E2E2E2E2E2E2E2E2E2E2E2E2E2E2E2
310
E2E2E2E2E2E2E2E2E2E2E2E2E2E2E2E2E2E2E2E2E2E2E2E2E2E2E2E2E2E2E2E2E2E2E2E2E2E2E2E2E2E2E2E2E2E2E2E2BEE2E2BEE2E2E2E2E2E2E2E2E2E2E2E2E2E2E2E2E2E2E2E2E2E2E2E2E2E2E2E2E2E2E2E2E2E2E2E2E2E2E2E2E2E2E2E2E2E2E2E2E2E2E2E2E2E2E2E2E2E2E2E2E2E2E2E2E2E2E2E2E2E2E2E2E2E2E2
310
E2E2E2E2E2E2E2E2E2E2E2E2E2E2E2E2E2E2E2E2E2E2E2E2E2E2E2E2E2E2E2E2E2E2E2E2E2E2E2E2E2E2E2E2E2E2E2E2E2E2E2E2E2E2E2E2E2E2E2E2E2E2E2E2E2E2E2E2E2E2E2E2E2E2E2E2E2E2E2E2E2E2E2E2E2E2E2E2E2E2E2E2E2E2E2E2BEE2BEE2E2E2E2E2E2E2E2E2E2E2E2E2E2E2E2E2E2E2E2E2E2E2E2E2E2E2E2
310
E2E2E2E2E2E2E2E2E2E2E2E2E2E2E2E2E2E2E2E2E2E2E2E2E2E2E2E2E2E2E2E2E2E2E2E2E2E2E2E2E2E2E2E2E2E2E2E2E2E2BEE2E2BEE2E2E2E2E2E2E2E2E2E2E2E2E2E2E2E2E2E2E2E2E2E2E2E2E2E2E2E2E2E2E2E2E2E2E2E2E2E2E2E2E2E2E2E2E2E2E2E2E2E2E2E2E2E2E2E2E2E2E2E2E2E2E2E2E2E2E2E2E2E2E2E2E2
310
E2E2E2E2E2E2E2E2E2E2E2E2E2E2E2E2E2E2E2E2E2E2E2E2E2E2E2E2E2E2E2E2E2E2E2E2E2E2E2E2E2E2E2E2E2E2E2E2E2E2E2E2E2E2E2E2E2E2E2E2E2E2E2E2E2E2E2E2E2E2E2E2E2E2E2E2E2E2E2E2E2E2E2E2E2E2E2E2E2E2E2E2E2E2E2E2E2BEBEE2BEBEE2E2E2E2E2E2E2E2E2E2E2E2E2E2E2E2E2E2E2E2E2E2E2E2E2
310
E2E2E2E2E2E2E2E2E2E2E2E2E2E2E2E2E2E2E2E2E2E2E2E2E2E2E2E2E2E2E2E2E2E2E2E2E2E2E2E2E2E2E2E2E2E2E2E2E2E2E2E2BEBEBEBEE2E2E2E2E2E2E2E2E2E2E2E2E2E2E2E2E2E2E2E2E2E2E2E2E2E2E2E2E2E2E2E2E2E2E2E2E2E2E2E2E2E2E2E2E2E2E2E2E2E2E2E2E2E2E2E2E2E2E2E2E2E2E2E2E2E2E2E2E2E2E2
310
E2E2E2E2E2E2E2E2E2E2E2E2E2E2E2E2E2E2E2E2E2E2E2E2E2E2E2E2E2E2E2E2E2E2E2E2E2E2E2E2E2E2E2E2E2E2E2E2E2E2E2E2E2E2E2E2E2E2E2E2E2E2E2E2E2E2E2E2E2E2E2E2E2E2E2E2E2E2E2E2E2E2E2E2E2E2E2E2E2E2E2E2E2E2E2E2E2E2E2E2BEBEBEE2E2E2E2E2E2E2E2E2E2E2E2E2E2E2E2E2E2E2E2E2E2E2E2
310
E2E2E2E2E2E2E2E2E2E2E2E2E2E2E2E2E2E2E2E2E2E2E2E2E2E2E2E2E2E2E2E2E2E2E2E2E2E2E2E2E2E2E2E2E2E2E2E2E2E2E2E2BEBEF5F5F5F5BEBEBEE2E2E2E2E2E2E2E2E2E2E2E2E2E2E2E2E2E2E2E2E2E2E2E2E2E2E2E2E2E2E2E2E2E2E2E2E2E2E2E2E2E2E2E2E2E2E2E2E2E2E2E2E2E2E2E2E2E2E2E2E2E2E2E2E2E2
310
E2E2E2E2E2E2E2E2E2E2E2E2E2E2E2E2E2E2E2E2E2E2E2E2E2E2E2E2E2E2E2E2E2E2E2E2E2E2E2E2E2E2E2E2E2E2E2E2E2E2E2E2E2E2E2E2E2E2E2E2E2E2E2E2E2E2E2E2E2E2E2E2E2E2E2E2E2E2E2E2E2E2E2E2E2E2E2E2E2E2E2E2E2E2E2E2E2E2E2BEBEBEF5F5F5BEBEBEE2E2E2E2E2E2E2E2E2E2E2E2E2E2E2E2E2E2E2
310
E2E2E2E2E2E2E2E2E2E2E2E2E2E2E2E2E2E2E2E2E2E2E2E2E2E2E2E2E2E2E2E2E2E2E2E2E2E2E2E2E2E2E2E2E2E2E2E2E2E2E2E2E2E2BEE2F5E2F5F5E2E2BEE2E2E2E2E2E2E2E2E2E2E2E2E2E2E2E2E2E2E2E2E2E2E2E2E2E2E2E2E2E2E2E2E2E2E2E2E2E2E2E2E2E2E2E2E2E2E2E2E2E2E2E2E2E2E2E2E2E2E2E2E2E2E2E2
310
E2E2E2E2E2E2E2E2E2E2E2E2E2E2E2E2E2E2E2E2E2E2E2E2E2E2E2E2E2E2E2E2E2E2E2E2E2E2E2E2E2E2E2E2E2E2E2E2E2E2E2E2E2E2E2E2E2E2E2E2E2E2E2E2E2E2E2E2E2E2E2E2E2E2E2E2E2E2E2E2E2E2E2E2E2E2E2E2E2E2E2E2E2E2E2E2E2E2E2E2E2BEE2E2F5F5F5E2E2BEE2E2E2E2E2E2E2E2E2E2E2E2E2E2E2E2E2
310
E2E2E2E2E2E2E2E2E2E2E2E2E2E2E2E2E2E2E2E2E2E2E2E2E2E2E2E2E2E2E2E2E2E2E2E2E2E2E2E2E2E2E2E2E2E2E2E2E2E2E2E2E2E2E2BEE2E2F5E2F5F5E2E2E2BEE2E2E2E2E2E2E2E2E2E2E2E2E2E2E2E2E2E2E2E2E2E2E2E2E2E2E2E2E2E2E2E2E2E2E2E2E2E2E2E2E2E2E2E2E2E2E2E2E2E2E2E2E2E2E2E2E2E2E2E2E2
310
E2E2E2E2E2E2E2E2E2E2E2E2E2E2E2E2E2E2E2E2E2E2E2E2E2E2E2E2E2E2E2E2E2E2E2E2E2E2E2E2E2E2E2E2E2E2E2E2E2E2E2E2E2E2E2E2E2E2E2E2E2E2E2E2E2E2E2E2E2E2E2E2E2E2E2E2E2E2E2E2E2E2E2E2E2E2E2E2E2E2E2E2E2E2E2E2E2E2E2E2E2E2BEE2E2E2F5F5F5E2E2E2BEE2E2E2E2E2E2E2E2E2E2E2E2E2E2
310
E2E2E2E2E2E2E2E2E2E2E2E2E2E2E2E2E2E2E2E2E2E2E2E2E2E2E2E2E2E2E2E2E2E2E2E2E2E2E2E2E2E2E2E2E2E2E2E2E2E2E2E2E2E2E2E2E2BEE2E2F5E2F5F5E2E2E2BEE2E2E2E2E2E2E2E2E2E2E2E2E2E2E2E2E2E2E2E2E2E2E2E2E2E2E2E2E2E2E2E2E2E2E2E2E2E2E2E2E2E2E2E2E2E2E2E2E2E2E2E2E2E2E2E2E2E2E2
310
E2E2E2E2E2E2E2E2E2E2E2E2E2E2E2E2E2E2E2E2E2E2E2E2E2E2E2E2E2E2E2E2E2E2E2E2E2E2E2E2E2E2E2E2E2E2E2E2E2E2E2E2E2E2E2E2E2E2E2E2E2E2E2E2E2E2E2E2E2E2E2E2E2E2E2E2E2E2E2E2E2E2E2E2E2E2E2E2E2E2E2E2E2E2E2E2E2E2E2E2E2E2E2E2BEE2E2E2F5F5F5E2E2E2BEE2E2E2E2E2E2E2E2E2E2E2E2
310
E2E2E2E2E2E2E2E2E2E2E2E2E2E2E2E2E2E2E2E2E2E2E2E2E2E2E2E2E2E2E2E2E2E2E2E2E2E2E2E2E2E2E2E2E2E2E2E2E2E2E2E2E2E2E2E2E2E2E2BEE2E2F5E2F5F5E2E2BEE2E2E2E2E2E2E2E2E2E2E2E2E2E2E2E2E2E2E2E2E2E2E2E2E2E2E2E2E2E2E2E2E2E2E2E2E2E2E2E2E2E2E2E2E2E2E2E2E2E2E2E2E2E2E2E2E2E2
310
E2E2E2E2E2E2E2E2E2E2E2E2E2E2E2E2E2E2E2E2E2E2E2E2E2E2E2E2E2E2E2E2E2E2E2E2E2E2E2E2E2E2E2E2E2E2E2E2E2E2E2E2E2E2E2E2E2E2E2E2E2E2E2E2E2E2E2E2E2E2E2E2E2E2E2E2E2E2E2E2E2E2E2E2E2E2E2E2E2E2E2E2E2E2E2E2E2E2E2E2E2E2E2E2E2E2E2BEE2E2F5F5F5E2E2E2BEE2E2E2E2E2E2E2E2E2E2
310
E2E2E2E2E2E2E2E2E2E2E2E2E2E2E2E2E2E2E2E2E2E2E2E2E2E2E2E2E2E2E2E2E2E2E2E2E2E2E2E2E2E2E2E2E2E2E2E2E2E2E2E2E2E2E2E2E2E2BEF5F5F5F5F5F5BEF5F5F5F5F5F5F5BEE2E2E2E2E2E2E2E2E2E2E2E2E2E2E2E2E2E2E2E2E2E2E2E2E2E2E2E2E2E2E2E2E2E2E2E2E2E2E2E2E2E2E2E2E2E2E2E2E2E2E2E2E2
310
E2E2E2E2E2E2E2E2E2E2E2E2E2E2E2E2E2E2E2E2E2E2E2E2E2E2E2E2E2E2E2E2E2E2E2E2E2E2E2E2E2E2E2E2E2E2E2E2E2E2E2E2E2E2E2E2E2E2E2E2E2E2E2E2E2E2E2E2E2E2E2E2E2E2E2E2E2E2E2E2E2E2E2E2E2E2E2E2E2E2E2E2E2E2E2E2E2E2E2E2E2E2E2E2E2E2BEF5F5F5F5F5F5F5F5F5F5F5F5F5F5BEE2E2E2E2E2
310
E2E2E2E2E2E2E2E2E2E2E2E2E2E2E2E2E2E2E2E2E2E2E2E2E2E2E2E2E2E2E2E2E2E2E2E2E2E2E2E2E2E2E2E2E2E2E2E2E2E2E2E2E2E2E2E2E2E2E2E2BEF5BEBEBEBEF5F5F5F5BEBEBEBEF5BEE2E2E2E2E2E2E2E2E2E2E2E2E2E2E2E2E2E2E2E2E2E2E2E2E2E2E2E2E2E2E2E2E2E2E2E2E2E2E2E2E2E2E2E2E2E2E2E2E2E2E2
310
E2E2E2E2E2E2E2E2E2E2E2E2E2E2E2E2E2E2E2E2E2E2E2E2E2E2E2E2E2E2E2E2E2E2E2E2E2E2E2E2E2E2E2E2E2E2E2E2E2E2E2E2E2E2E2E2E2E2E2E2E2E2E2E2E2E2E2E2E2E2E2E2E2E2E2E2E2E2E2E2E2E2E2E2E2E2E2E2E2E2E2E2E2E2E2E2E2E2E2E2E2E2E2E2E2E2E2E2F5BEBEBEBEBEF5F5F5BEBEBEBEBEF5BEE2E2E2
310
E2E2E2E2E2E2E2E2E2E2E2E2E2E2E2E2E2E2E2E2E2E2E2E2E2E2E2E2E2E2E2E2E2E2E2E2E2E2E2E2E2E2E2E2E2E2E2E2E2E2E2E2E2E2E2E2E2E2E2E2E2E2E2E2E2E2E2E2E2F5F5E2E2E2E2E2E2E2E2E2E2E2E2E2E2E2E2E2E2E2E2E2E2E2E2E2E2E2E2E2E2E2E2E2E2E2E2E2E2E2E2E2E2E2E2E2E2E2E2E2E2E2E2E2E2E2E2
310
E2E2E2E2E2E2E2E2E2E2E2E2E2E2E2E2E2E2E2E2E2E2E2E2E2E2E2E2E2E2E2E2E2E2E2E2E2E2E2E2E2E2E2E2E2E2E2E2E2E2E2E2E2E2E2E2E2E2E2E2E2E2E2E2E2E2E2E2E2E2E2E2E2E2E2E2E2E2E2E2E2E2E2E2E2E2E2E2E2E2E2E2E2E2E2E2E2E2E2E2E2E2E2E2E2E2E2E2E2E2F5E2E2E2E2E2E2F5F5E2E2E2E2E2E2F5E2
310
E2E2E2E2E2E2E2E2E2E2E2E2E2E2E2E2E2E2E2E2E2E2E2E2E2E2E2E2E2E2E2E2E2E2E2E2E2E2E2E2E2E2E2E2E2E2E2E2E2E2E2E2E2E2E2E2E2E2E2E2E2E2E2E2E2E2E2E2E2E2E2F5F5E2E2E2E2E2E2E2E2E2E2E2E2E2E2E2E2E2E2E2E2E2E2E2E2E2E2E2E2E2E2E2E2E2E2E2E2E2E2E2E2E2E2E2E2E2E2E2E2E2E2E2E2E2E2
310
E2E2E2E2E2E2E2E2E2E2E2E2E2E2E2E2E2E2E2E2E2E2E2E2E2E2E2E2E2E2E2E2E2E2E2E2E2E2E2E2E2E2E2E2E2E2E2E2E2E2E2E2E2E2E2E2E2E2E2E2E2E2E2E2E2E2E2E2E2E2E2E2E2E2E2E2E2E2E2E2E2E2E2E2E2E2E2E2E2E2E2E2E2E2E2E2E2E2E2E2E2E2E2E2E2E2E2E2E2E2E2E2F5E2E2E2E2E2E2F5F5E2E2E2E2E2E2
310
F5E2E2E2E2E2E2E2E2E2E2E2E2E2E2E2E2E2E2E2E2E2E2E2E2E2E2E2E2E2E2E2E2E2E2E2E2E2E2E2E2E2E2E2E2E2E2E2E2E2E2E2E2E2E2E2E2E2E2E2E2E2E2E2E2E2E2E2E2E2E2E2E2F5F5E2E2E2E2E2E2E2E2E2E2E2E2E2E2E2E2E2E2E2E2E2E2E2E2E2E2E2E2E2E2E2E2E2E2E2E2E2E2E2E2E2E2E2E2E2E2E2E2E2E2E2E2
310
E2E2E2E2E2E2E2E2E2E2E2E2E2E2E2E2E2E2E2E2E2E2E2E2E2E2E2E2E2E2E2E2E2E2E2E2E2E2E2E2E2E2E2E2E2E2E2E2E2E2E2E2E2E2E2E2E2E2E2E2E2E2E2E2E2E2E2E2E2E2E2E2E2E2E2E2E2E2E2E2E2E2E2E2E2E2E2E2E2E2E2E2E2E2E2E2E2E2E2E2E2E2E2E2E2E2E2E2E2E2E2E2E2E2F5E2E2E2E2E2E2F5F5E2E2E2E2
310
E2E2F5E2E2E2E2E2E2E2E2E2E2E2E2E2E2E2E2E2E2E2E2E2E2E2E2E2E2E2E2E2E2E2E2E2E2E2E2E2E2E2E2E2E2E2E2E2E2E2E2E2E2E2E2E2E2E2E2E2E2E2E2E2E2E2E2E2E2E2E2E2E2E2E2F5F5E2E2E2E2E2E2E2E2E2E2E2E2E2E2E2E2E2E2E2E2E2E2E2E2E2E2E2E2E2E2E2E2E2E2E2E2E2E2E2E2E2E2E2E2E2E2E2E2E2E2
310
E2E2E2E2E2E2E2E2E2E2E2E2E2E2E2E2E2E2E2E2E2E2E2E2E2E2E2E2E2E2E2E2E2E2E2E2E2E2E2E2E2E2E2E2E2E2E2E2E2E2E2E2E2E2E2E2E2E2E2E2E2E2E2E2E2E2E2E2E2E2E2E2E2E2E2E2E2E2E2E2E2E2E2E2E2E2E2E2E2E2E2E2E2E2E2E2E2E2E2E2E2E2E2E2E2E2E2E2E2E2E2E2E2E2E2E2F5E2E2E2E2E2E2F5F5E2E2
310
E2E2E2E2F5E2E2E2E2E2E2E2E2E2E2E2E2E2E2E2E2E2E2E2E2E2E2E2E2E2E2E2E2E2E2E2E2E2E2E2E2E2E2E2E2E2E2E2E2E2E2E2E2E2E2E2E2E2E2E2E2E2E2E2E2E2E2E2E2E2E2E2E2E2E2E2E2F5F5E2E2E2E2E2E2E2E2E2E2E2E2E2E2E2E2E2E2E2E2E2E2E2E2E2E2E2E2E2E2E2E2E2E2E2E2E2E2E2E2E2E2E2E2E2E2E2E2
310
E2E2E2E2E2E2E2E2E2E2E2E2E2E2E2E2E2E2E2E2E2E2E2E2E2E2E2E2E2E2E2E2E2E2E2E2E2E2E2E2E2E2E2E2E2E2E2E2E2E2E2E2E2E2E2E2E2E2E2E2E2E2E2E2E2E2E2E2E2E2E2E2E2E2E2E2E2E2E2E2E2E2E2E2E2E2E2E2E2E2E2E2E2E2E2E2E2E2E2E2E2E2E2E2E2E2E2E2E2E2E2E2E2E2E2E2E2E2F5E2E2E2E2E2E2F5F5
310
E2E2E2E2E2E2F5E2E2E2E2E2E2E2E2E2E2E2E2E2E2E2E2E2E2E2E2E2E2E2E2E2E2E2E2E2E2E2E2E2E2E2E2E2E2E2E2E2E2E2E2E2E2E2E2E2E2E2E2E2E2E2E2E2E2E2E2E2E2E2E2E2E2E2E2E2E2E2E2F5F5E2E2E2E2E2E2E2E2E2E2E2E2E2E2E2E2E2E2E2E2E2E2E2E2E2E2E2E2E2E2E2E2E2E2E2E2E2E2E2E2E2E2E2E2E2E2
310
E2E2E2E2E2E2E2E2E2E2E2E2E2E2E2E2E2E2E2E2E2E2E2E2E2E2E2E2E2E2E2E2E2E2E2E2E2E2E2E2E2E2E2E2E2E2E2E2E2E2E2E2E2E2E2E2E2E2E2E2E2E2E2E2E2E2E2E2E2E2E2E2E2E2E2E2E2E2E2E2E2E2E2E2E2E2E2E2E2E2E2E2E2E2E2E2E2E2E2E2E2E2E2E2E2E2E2E2E2E2E2E2E2E2E2E2E2E2E2E2F5E2E2E2E2E2E2
310
F5F5E2E2E2E2E2E2F5E2E2E2E2E2E2E2E2E2E2E2E2E2E2E2E2E2E2E2E2E2E2E2E2E2E2E2E2E2E2E2E2E2E2E2E2E2E2E2E2E2E2E2E2E2E2E2E2E2E2E2E2E2E2E2E2E2E2E2E2E2E2E2E2E2E2E2E2E2E2E2E2F5F5E2E2E2E2E2E2E2E2E2E2E2E2E2E2E2E2E2E2E2E2E2E2E2E2E2E2E2E2E2E2E2E2E2E2E2E2E2E2E2E2E2E2E2E2
310
E2E2E2E2E2E2E2E2E2E2E2E2E2E2E2E2E2E2E2E2E2E2E2E2E2E2E2E2E2E2E2E2E2E2E2E2E2E2E2E2E2E2E2E2E2E2E2E2E2E2E2E2E2E2E2E2E2E2E2E2E2E2E2E2E2E2E2E2E2E2E2E2E2E2E2E2E2E2E2E2E2E2E2E2E2E2E2E2E2E2E2E2E2E2E2E2E2E2E2E2E2E2E2E2E2E2E2E2E2E2E2E2E2E2E2E2E2E2E2E2E2E2F5E2E2E2E2
310
E2E2F5F5E2E2E2E2E2E2F5E2E2E2E2E2E2E2E2E2E2E2E2E2E2E2E2E2E2E2E2E2E2E2E2E2E2E2E2E2E2E2E2E2E2E2E2E2E2E2E2E2E2E2E2E2E2E2E2E2E2E2E2E2E2E2E2E2E2E2E2E2E2E2E2E2E2E2E2E2E2E2E2F5F5E2E2E2E2E2E2E2E2E2E2E2E2E2E2E2E2E2E2E2E2E2E2E2E2E2E2E2E2E2E2E2E2E2E2E2E2E2E2E2E2E2E2
310
E2E2E2E2E2E2E2E2E2E2E2E2E2E2E2E2E2E2E2E2E2E2E2E2E2E2E2E2E2E2E2E2E2E2E2E2E2E2E2E2E2E2E2E2E2E2E2E2E2E2E2E2E2E2E2E2E2E2E2E2E2E2E2E2E2E2E2E2E2E2E2E2E2E2E2E2E2E2E2E2E2E2E2E2E2E2E2E2E2E2E2E2E2E2E2E2E2E2E2E2E2E2E2E2E2E2E2E2E2E2E2E2E2E2E2E2E2E2E2E2E2E2E2E2F5E2E2
310
E2E2E2E2F5F5E2E2E2E2E2E2F5E2E2E2E2E2E2E2E2E2E2E2E2E2E2E2E2E2E2E2E2E2E2E2E2E2E2E2E2E2E2E2E2E2E2E2E2E2E2E2E2E2E2E2E2E2E2E2E2E2E2E2E2E2E2E2E2E2E2E2E2E2E2E2E2E2E2E2E2E2E2E2E2F5F5E2E2E2E2E2E2E2E2E2E2E2E2E2E2E2E2E2E2E2E2E2E2E2E2E2E2E2E2E2E2E2E2E2E2E2E2E2E2E2E2
310
E2E2E2E2E2E2E2E2E2E2E2E2E2E2E2E2E2E2E2E2E2E2E2E2E2E2E2E2E2E2E2E2E2E2E2E2E2E2E2E2E2E2E2E2E2E2E2E2E2E2E2E2E2E2E2E2E2E2E2E2E2E2E2E2E2E2E2E2E2E2E2E2E2E2E2E2E2E2E2E2E2E2E2E2E2E2E2E2E2E2E2E2E2E2E2E2E2E2E2E2E2E2E2E2E2E2E2E2E2E2E2E2E2E2E2E2E2E2E2E2E2E2E2E2E2E2F5
310
E2E2E2E2E2E2F5F5E2E2E2E2E2E2F5E2E2E2E2E2E2E2E2E2E2E2E2E2E2E2E2E2E2E2E2E2E2E2E2E2E2E2E2E2E2E2E2E2E2E2E2E2E2E2E2E2E2E2E2E2E2E2E2E2E2E2E2E2E2E2E2E2E2E2E2E2E2E2E2E2E2E2E2E2E2E2E2E2F5E2E2E2E2E2E2E2E2E2E2E2E2E2E2E2E2E2E2E2E2E2E2E2E2E2E2E2E2E2E2E2E2E2E2E2E2E2E2
310
E2E2E2E2E2E2E2E2E2E2E2E2E2E2E2E2E2E2E2E2E2E2E2E2E2E2E2E2E2E2E2E2E2E2E2E2E2E2E2E2E2E2E2E2E2E2E2E2E2E2E2E2E2E2E2E2E2E2E2E2E2E2E2E2E2E2E2E2E2E2E2E2E2E2E2E2E2E2E2E2E2E2E2E2E2E2E2E2E2E2E2E2E2E2E2E2E2E2E2E2E2E2E2E2E2E2E2E2E2E2E2E2E2E2E2E2E2E2E2E2E2E2E2E2E2E2E2
310
E2F5E2E2E2E2E2E2F5E2E2E2E2E2E2E2F5E2E2E2E2E2E2E2E2E2E2E2E2E2E2E2E2E2E2E2E2E2E2E2E2E2E2E2E2E2E2E2E2E2E2E2E2E2E2E2E2E2E2E2E2E2E2E2E2E2E2E2E2E2E2E2E2E2E2E2E2E2E2E2E2E2E2E2E2E2E2E2E2E2E2E2E2E2E2E2E2E2E2E2E2E2E2E2E2E2E2E2E2E2E2E2E2E2E2E2E2E2E2E2E2E2E2E2E2E2E2
310
E2E2E2E2E2E2E2E2E2E2E2E2E2E2E2E2E2E2E2E2E2E2E2E2E2E2E2E2E2E2E2E2E2E2E2E2E2E2E2E2E2E2E2E2E2E2E2E2E2E2E2E2E2E2E2E2E2E2E2E2E2E2E2E2E2E2E2E2E2E2E2E2E2E2E2E2E2E2E2E2E2E2E2E2E2E2E2E2E2E2E2E2E2E2E2E2E2E2E2E2E2E2E2E2E2E2E2E2E2E2E2E2E2E2E2E2E2E2E2E2E2E2E2E2E2E2E2
310
E2E2E2F5F5F5F5F5F5F5F5F5F5F5F5F5F5F5F5E2E2E2E2E2E2E2E2E2E2E2E2E2E2E2E2E2E2E2E2E2E2E2E2E2E2E2E2E2E2E2E2E2E2E2E2E2E2E2E2E2E2E2E2E2E2E2E2E2E2E2E2E2E2E2E2E2E2E2E2E2E2E2E2E2E2E2E2E2E2E2E2E2E2E2E2E2E2E2E2E2E2E2E2E2E2E2E2E2E2E2E2E2E2E2E2E2E2E2E2E2E2E2E2E2E2E2E2
310
E2E2E2E2E2E2E2E2E2E2E2E2E2E2E2E2E2E2E2E2E2E2E2E2E2E2E2E2E2E2E2E2E2E2E2E2E2E2E2E2E2E2E2E2E2E2E2E2E2E2E2E2E2E2E2E2E2E2E2E2E2E2E2E2E2E2E2E2E2E2E2E2E2E2E2E2E2E2E2E2E2E2E2E2E2E2E2E2E2E2E2E2E2E2E2E2E2E2E2E2E2E2E2E2E2E2E2E2E2E2E2E2E2E2E2E2E2E2E2E2E2E2E2E2E2E2E2
310
E2E2E2E2E2E2E2E2E2E2E2F5F5F5E2E2E2E2E2E2E2E2E2E2E2E2E2E2E2E2E2E2E2E2E2E2E2E2E2E2E2E2E2E2E2E2E2E2E2E2E2E2E2E2E2E2E2E2E2E2E2E2E2E2E2E2E2E2E2E2E2E2E2E2E2E2E2E2E2E2E2E2E2E2E2E2E2E2E2E2E2E2E2E2E2E2E2E2E2E2E2E2E2E2E2E2E2E2E2E2E2E2E2E2E2E2E2E2E2E2E2E2E2E2E2E2E2
310
E2E2E2E2E2E2E2E2E2E2E2E2E2E2E2E2E2E2E2E2E2E2E2E2E2E2E2E2E2E2E2E2E2E2E2E2E2E2E2E2E2E2E2E2E2E2E2E2E2E2E2E2E2E2E2E2E2E2E2E2E2E2E2E2E2E2E2E2E2E2E2E2E2E2E2E2E2E2E2E2E2E2E2E2E2E2E2E2E2E2E2E2E2E2E2E2E2E2E2E2E2E2E2E2E2E2E2E2E2E2E2E2E2E2E2E2E2E2E2E2E2E2E2E2E2E2E2
310
E2E2E2E2E2E2E2E2E2E2E2E2E2E2E2E2E2E2E2E2E2E2E2E2E2E2E2E2E2E2E2E2E2E2E2E2E2E2E2E2E2E2E2E2E2E2E2E2E2E2E2E2E2E2E2E2E2E2E2E2E2E2E2E2E2E2E2E2E2E2E2E2E2E2E2E2E2E2E2E2E2E2E2E2E2E2E2E2E2E2E2E2E2E2E2E2E2E2E2E2E2E2E2E2E2E2E2E2E2E2E2E2E2E2E2E2E2E2E2E2E2E2E2E2E2E2E2
310
E2E2E2E2E2E2E2E2E2E2E2E2E2E2E2E2E2E2E2E2E2E2E2E2E2E2E2E2E2E2E2E2E2E2E2E2E2E2E2E2E2E2E2E2E2E2E2E2E2E2E2E2E2E2E2E2E2E2E2E2E2E2E2E2E2E2E2E2E2E2E2E2E2E2E2E2E2E2E2E2E2E2E2E2E2E2E2E2E2E2E2E2E2E2E2E2E2E2E2E2E2E2E2E2E2E2E2E2E2E2E2E2E2E2E2E2E2E2E2E2E2E2E2E2E2E2E2
310
E2E2E2E2E2E2E2E2E2E2E2E2E2E2E2E2E2E2E2E2E2E2E2E2E2E2E2E2E2E2E2E2E2E2E2E2E2E2E2E2E2E2E2E2E2E2E2E2E2E2E2E2E2E2E2E2E2E2E2E2E2E2E2E2E2E2E2E2E2E2E2E2E2E2E2E2E2E2E2E2E2E2E2E2E2E2E2E2E2E2E2E2E2E2E2E2E2E2E2E2E2E2E2E2E2E2E2E2E2E2E2E2E2E2E2E2E2E2E2E2E2E2E2E2E2E2E2
310
E2E2E2E2E2E2E2E2E2E2E2E2E2E2E2E2E2E2E2E2E2E2E2E2E2E2E2E2E2E2E2E2E2E2E2E2E2E2E2E2E2E2E2E2E2E2E2E2E2E2E2E2E2E2E2E2E2E2E2E2E2E2E2E2E2E2E2E2E2E2E2E2E2E2E2E2E2E2E2E2E2E2E2E2E2E2E2E2E2E2E2E2E2E2E2E2E2E2E2E2E2E2E2E2E2E2E2E2E2E2E2E2E2E2E2E2E2E2E2E2E2E2E2E2E2E2E2
310
E2E2E2E2E2E2E2E2E2E2E2E2E2E2E2E2E2E2E2E2E2E2E2E2E2E2E2E2E2E2E2E2E2E2E2E2E2E2E2E2E2E2E2E2E2E2E2E2E2E2E2E2E2E2E2E2E2E2E2E2E2E2E2E2E2E2E2E2E2E2E2E2E2E2E2E2E2E2E2E2E2E2E2E2E2E2E2E2E2E2E2E2E2E2E2E2E2E2E2E2E2E2E2E2E2E2E2E2E2E2E2E2E2E2E2E2E2E2E2E2E2E2E2E2E2E2E2
310
E2E2E2E2E2E2E2E2E2E2E2E2E2E2E2E2E2E2E2E2E2E2E2E2E2E2E2E2E2E2E2E2E2E2E2E2E2E2E2E2E2E2E2E2E2E2E2E2E2E2E2E2E2E2E2E2E2E2E2E2E2E2E2E2E2E2E2E2E2E2E2E2E2E2E2E2E2E2E2E2E2E2E2E2E2E2E2E2E2E2E2E2E2E2E2E2E2E2E2E2E2E2E2E2E2E2E2E2E2E2E2E2E2E2E2E2E2E2E2E2E2E2E2E2E2E2E2
310
E2E2E2E2E2E2E2E2E2E2E2E2E2E2E2E2E2E2E2E2E2E2E2E2E2E2E2E2E2E2E2E2E2E2E2E2E2E2E2E2E2E2E2E2E2E2E2E2E2E2E2E2E2E2E2E2E2E2E2E2E2E2E2E2E2E2E2E2E2E2E2E2E2E2E2E2E2E2E2E2E2E2E2E2E2E2E2E2E2E2E2E2E2E2E2E2E2E2E2E2E2E2E2E2E2E2E2E2E2E2E2E2E2E2E2E2E2E2E2E2E2E2E2E2E2E2E2
310
E2E2E2E2E2E2E2E2E2E2E2E2E2E2E2E2E2E2E2E2E2E2E2E2E2E2E2E2E2E2E2E2E2E2E2E2E2E2E2E2E2E2E2E2E2E2E2E2E2E2E2E2E2E2E2E2E2E2E2E2E2E2E2E2E2E2E2E2E2E2E2E2E2E2E2E2E2E2E2E2E2E2E2E2E2E2E2E2E2E2E2E2E2E2E2E2E2E2E2E2E2E2E2E2E2E2E2E2E2E2E2E2E2E2E2E2E2E2E2E2E2F5F5F5F5F5F5
310
F5F5F5F5F5F5F5F5F5F5F5F5F5F5F5F5E2E2E2E2E2E2E2E2E2E2E2E2E2E2E2E2E2E2E2E2E2E2E2E2E2E2E2E2E2E2E2E2E2E2E2E2E2E2E2E2E2E2E2E2E2E2E2E2E2E2E2E2E2E2E2E2E2E2E2E2E2E2E2E2E2E2E2E2E2E2E2E2E2E2E2E2E2E2E2E2E2E2E2E2E2E2E2E2E2E2E2E2E2E2E2E2E2E2E2E2E2E2E2E2E2E2E2E2E2E2E2
310
E2E2E2E2E2E2E2E2E2E2E2E2E2E2E2E2E2E2E2E2E2E2E2E2E2E2E2E2E2E2E2E2E2E2E2E2E2E2E2E2E2E2E2E2E2E2E2E2E2E2E2E2E2E2E2E2E2E2E2E2E2E2E2E2E2E2E2E2E2E2E2E2E2E2E2E2E2E2E2E2E2E2E2E2E2E2E2E2E2E2E2E2E2E2E2E2E2E2E2E2E2E2E2E2E2E2E2E2E2E2E2E2E2E2E2E2E2E2E2E2E2E2E2F5F5F5F5
310
F5F5F5F5F5F5F5F5F5F5F5F5F5F5F5F5E2F5E2E2E2E2E2E2E2E2E2E2E2E2E2E2E2E2E2E2E2E2E2E2E2E2E2E2E2E2E2E2E2E2E2E2E2E2E2E2E2E2E2E2E2E2E2E2E2E2E2E2E2E2E2E2E2E2E2E2E2E2E2E2E2E2E2E2E2E2E2E2E2E2E2E2E2E2E2E2E2E2E2E2E2E2E2E2E2E2E2E2E2E2E2E2E2E2E2E2E2E2E2E2E2E2E2E2E2E2E2
310
E2E2E2E2E2E2E2E2E2E2E2E2E2E2E2E2E2E2E2E2E2E2E2E2E2E2E2E2E2E2E2E2E2E2E2E2E2E2E2E2E2E2E2E2E2E2E2E2E2E2E2E2E2E2E2E2E2E2E2E2E2E2E2E2E2E2E2E2E2E2E2E2E2E2E2E2E2E2E2E2E2E2E2E2E2E2E2E2E2E2E2E2E2E2E2E2E2E2E2E2E2E2E2E2E2E2E2E2E2E2E2E2E2E2E2E2E2E2E2E2E2E2E2E2E2F5F5
310
F5F5F5F5F5F5F5F5F5F5F5F5F5F5F5F5F5F5F5F5E2E2E2E2E2E2E2E2E2E2E2E2E2E2E2E2E2E2E2E2E2E2E2E2E2E2E2E2E2E2E2E2E2E2E2E2E2E2E2E2E2E2E2E2E2E2E2E2E2E2E2E2E2E2E2E2E2E2E2E2E2E2E2E2E2E2E2E2E2E2E2E2E2E2E2E2E2E2E2E2E2E2E2E2E2E2E2E2E2E2E2E2E2E2E2E2E2E2E2E2E2E2E2E2E2E2E2
310
E2E2E2E2E2E2E2E2E2E2E2E2E2E2E2E2E2E2E2E2E2E2E2E2E2E2E2E2E2E2E2E2E2E2E2E2E2E2E2E2E2E2E2E2E2E2E2E2E2E2E2E2E2E2E2E2E2E2E2E2E2E2E2E2E2E2E2E2E2E2E2E2E2E2E2E2E2E2E2E2E2E2E2E2E2E2E2E2E2E2E2E2E2E2E2E2E2E2E2E2E2E2E2E2E2E2E2E2E2E2E2E2E2E2E2E2E2E2E2E2E2E2E2E2E2E2E2
310
F5E2E2F5F5F5F5F5F5E2F5E2E2E2F5F5F5F5E2E2E2F5E2E2E2E2E2E2E2E2E2E2E2E2E2E2E2E2E2E2E2E2E2E2E2E2E2E2E2E2E2E2E2E2E2E2E2E2E2E2E2E2E2E2E2E2E2E2E2E2E2E2E2E2E2E2E2E2E2E2E2E2E2E2E2E2E2E2E2E2E2E2E2E2E2E2E2E2E2E2E2E2E2E2E2E2E2E2E2E2E2E2E2E2E2E2E2E2E2E2E2E2E2E2E2E2E2
310
E2E2E2E2E2E2E2E2E2E2E2E2E2E2E2E2E2E2E2E2E2E2E2E2E2E2E2E2E2E2E2E2E2E2E2E2E2E2E2E2E2E2E2E2E2E2E2E2E2E2E2E2E2E2E2E2E2E2E2E2E2E2E2E2E2E2E2E2E2E2E2E2E2E2E2E2E2E2E2E2E2E2E2E2E2E2E2E2E2E2E2E2E2E2E2E2E2E2E2E2E2E2E2E2E2E2E2E2E2E2E2E2E2E2E2E2E2E2E2E2E2E2E2E2E2E2E2
310
E2E2F5F5F5F5F5F5F5F5F5F5F5F5F5F5F5F5F5F5F5F5F5F5E2E2E2E2E2E2E2E2E2E2E2E2E2E2E2E2E2E2E2E2E2E2E2E2E2E2E2E2E2E2E2E2E2E2E2E2E2E2E2E2E2E2E2E2E2E2E2E2E2E2E2E2E2E2E2E2E2E2E2E2E2E2E2E2E2E2E2E2E2E2E2E2E2E2E2E2E2E2E2E2E2E2E2E2E2E2E2E2E2E2E2E2E2E2E2E2E2E2E2E2E2E2E2
310
E2E2E2E2E2E2E2E2E2E2E2E2E2E2E2E2E2E2E2E2E2E2E2E2E2E2E2E2E2E2E2E2E2E2E2E2E2E2E2E2E2E2E2E2E2E2E2E2E2E2E2E2E2E2E2E2E2E2E2E2E2E2E2E2E2E2E2E2E2E2E2E2E2E2E2E2E2E2E2E2E2E2E2E2E2E2E2E2E2E2E2E2E2E2E2E2E2E2E2E2E2E2E2E2E2E2E2E2E2E2E2E2E2E2E2E2E2E2E2E2E2E2E2E2E2E2E2
310
E2E2E2E2E2E2E2E2E2E2E2E2E2E2E2E2E2E2E2E2E2E2E2E2E2E2E2E2E2E2E2E2E2E2E2E2E2E2E2E2E2E2E2E2E2E2E2E2E2E2E2E2E2E2E2E2E2E2E2E2E2E2E2E2E2E2E2E2E2E2E2E2E2E2E2E2E2E2E2E2E2E2E2E2E2E2E2E2E2E2E2E2E2E2E2E2E2E2E2E2E2E2E2E2E2E2E2E2E2E2E2E2E2E2E2E2E2E2E2E2E2E2E2E2E2E2E2
310
E2E2E2E2E2E2E2E2E2E2E2E2E2E2E2E2E2E2E2E2E2E2E2E2E2E2E2E2E2E2E2E2E2E2E2E2E2E2E2E2E2E2E2E2E2E2E2E2E2E2E2E2E2E2E2E2E2E2E2E2E2E2E2E2E2E2E2E2E2E2E2E2E2E2E2E2E2E2E2E2E2E2E2E2E2E2E2E2E2E2E2E2E2E2E2E2E2E2E2E2E2E2E2E2E2E2E2E2E2E2E2E2E2E2E2E2E2E2E2E2E2E2E2E2E2E2E2
310
E2E2E2E2E2E2F5F5F5F5F5E2E2E2F5E2F5E2F5F5E2E2F5F5F5E2F5F5F5E2E2E2E2E2E2E2E2E2E2E2E2E2E2E2E2E2E2E2E2E2E2E2E2E2E2E2E2E2E2E2E2E2E2E2E2E2E2E2E2E2E2E2E2E2E2E2E2E2E2E2E2E2E2E2E2E2E2E2E2E2E2E2E2E2E2E2E2E2E2E2E2E2E2E2E2E2E2E2E2E2E2E2E2E2E2E2E2E2E2E2E2E2E2E2E2E2E2
310
E2E2E2E2E2E2E2E2E2E2E2E2E2E2E2E2E2E2E2E2E2E2E2E2E2E2E2E2E2E2E2E2E2E2E2E2E2E2E2E2E2E2E2E2E2E2E2E2E2E2E2E2E2E2E2E2E2E2E2E2E2E2E2E2E2E2E2E2E2E2E2E2E2E2E2E2E2E2E2E2E2E2E2E2E2E2E2E2E2E2E2E2E2E2E2E2E2E2E2E2E2E2E2E2E2E2E2E2E2E2E2E2E2E2E2E2E2E2E2E2E2E2E2E2E2E2E2
310
E2E2E2E2E2E2E2E2F5F5F5E2F5F5F5E2E2F5E2F5F5F5F5F5E2F5E2F5F5E2E2E2E2E2E2E2E2E2E2E2E2E2E2E2E2E2E2E2E2E2E2E2E2E2E2E2E2E2E2E2E2E2E2E2E2E2E2E2E2E2E2E2E2E2E2E2E2E2E2E2E2E2E2E2E2E2E2E2E2E2E2E2E2E2E2E2E2E2E2E2E2E2E2E2E2E2E2E2E2E2E2E2E2E2E2E2E2E2E2E2E2E2E2E2E2E2E2
310
E2E2E2E2E2E2E2E2E2E2E2E2E2E2E2E2E2E2E2E2E2E2E2E2E2E2E2E2E2E2E2E2E2E2E2E2E2E2E2E2E2E2E2E2E2E2E2E2E2E2E2E2E2E2E2E2E2E2E2E2E2E2E2E2E2E2E2E2E2E2E2E2E2E2E2E2E2E2E2E2E2E2E2E2E2E2E2E2E2E2E2E2E2E2E2E2E2E2E2E2E2E2E2E2E2E2E2E2E2E2E2E2E2E2E2E2E2E2E2E2E2E2E2E2E2E2E2
310
E2E2E2E2E2E2E2E2E2E2E2F5E2F5F5E2E2F5F5F5F5F5F5E2E2E2F5F5F5E2F5E2E2E2E2E2E2E2E2E2E2E2E2E2E2E2E2E2E2E2E2E2E2E2E2E2E2E2E2E2E2E2E2E2E2E2E2E2E2E2E2E2E2E2E2E2E2E2E2E2E2E2E2E2E2E2E2E2E2E2E2E2E2E2E2E2E2E2E2E2E2E2E2E2E2E2E2E2E2E2E2E2E2E2E2E2E2E2E2E2E2E2E2E2E2E2E2
310
E2E2E2E2E2E2E2E2E2E2E2E2E2E2E2E2E2E2E2E2E2E2E2E2E2E2E2E2E2E2E2E2E2E2E2E2E2E2E2E2E2E2E2E2E2E2E2E2E2E2E2E2E2E2E2E2E2E2E2E2E2E2E2E2E2E2E2E2E2E2E2E2E2E2E2E2E2E2E2E2E2E2E2E2E2E2E2E2E2E2E2E2E2E2E2E2E2E2E2E2E2E2E2E2E2E2E2E2E2E2E2E2E2E2E2E2E2E2E2E2E2E2E2E2E2E2E2
310
E2E2E2E2E2E2E2E2E2E2E2E2E2E2E2E2E2E2E2E2E2E2E2E2E2E2E2E2E2E2E2E2E2E2E2E2E2E2E2E2E2E2E2E2E2E2E2E2E2E2E2E2E2E2E2E2E2E2E2E2E2E2E2E2E2E2E2E2E2E2E2E2E2E2E2E2E2E2E2E2E2E2E2E2E2E2E2E2E2E2E2E2E2E2E2E2E2E2E2E2E2E2E2E2E2E2E2E2E2E2E2E2E2E2E2E2E2E2E2E2E2E2E2E2E2E2E2
310
E2E2E2E2E2E2E2E2E2E2E2E2E2E2E2E2E2E2E2E2E2E2E2E2E2E2E2E2E2E2E2E2E2E2E2E2E2E2E2E2E2E2E2E2E2E2E2E2E2E2E2E2E2E2E2E2E2E2E2E2E2E2E2E2E2E2E2E2E2E2E2E2E2E2E2E2E2E2E2E2E2E2E2E2E2E2E2E2E2E2E2E2E2E2E2E2E2E2E2E2E2E2E2E2E2E2E2E2E2E2E2E2E2E2E2E2E2E2E2E2E2E2E2E2E2E2E2
310
E2E2E2E2E2E2E2E2E2E2E2E2E2E2E2E2E2E2E2E2E2E2E2E2E2E2E2E2E2E2E2E2E2E2E2E2E2E2E2E2E2E2E2E2E2E2E2E2E2E2E2E2E2E2E2E2E2E2E2E2E2E2E2E2E2E2E2E2E2E2E2E2E2E2E2E2E2E2E2E2E2E2E2E2E2E2E2E2E2E2E2E2E2E2E2E2E2E2E2E2E2E2E2E2E2E2E2E2E2E2E2E2E2E2E2E2E2E2E2E2E2E2E2E2E2E2E2
310
E2E2E2E2E2E2E2E2E2E2E2E2E2E2E2E2E2E2E2E2E2E2E2E2E2E2E2E2E2E2E2E2E2E2E2E2E2E2E2E2E2E2E2E2E2E2E2E2E2E2E2E2E2E2E2E2E2E2E2E2E2E2E2E2E2E2E2E2E2E2E2E2E2E2E2E2E2E2E2E2E2E2E2E2E2E2E2E2E2E2E2E2E2E2E2E2E2E2E2E2E2E2E2E2E2E2E2E2E2E2E2E2E2E2E2E2E2E2E2E2E2E2E2E2E2E2E2
310
E2E2E2E2E2E2E2E2E2E2E2E2E2E2E2E2E2E2E2E2E2E2E2E2E2E2E2E2E2E2E2E2E2E2E2E2E2E2E2E2E2E2E2E2E2E2E2E2E2E2E2E2E2E2E2E2E2E2E2E2E2E2E2E2E2E2E2E2E2E2E2E2E2E2E2E2E2E2E2E2E2E2E2E2E2E2E2E2E2E2E2E2E2E2E2E2E2E2E2E2E2E2E2E2E2E2E2E2E2E2E2E2E2E2E2E2E2E2E2E2E2E2E2E2E2E2E2
310
E2E2E2E2E2E2E2E2E2E2E2E2E2E2E2E2E2E2E2E2E2E2E2E2E2E2E2E2E2E2E2E2E2E2E2E2E2E2E2E2E2E2E2E2E2E2E2E2E2E2E2E2E2E2E2E2E2E2E2E2E2E2E2E2E2E2E2E2E2E2E2E2E2E2E2E2E2E2E2E2E2E2E2E2E2E2E2E2E2E2E2E2E2E2E2E2E2E2E2E2E2E2E2E2E2E2E2E2E2E2E2E2E2E2E2E2E2E2E2E2E2E2E2E2E2E2E2
310
E2E2E2E2E2E2E2E2E2E2E2E2E2E2E2E2E2E2E2E2E2E2E2E2E2E2E2E2E2E2E2E2E2E2E2E2E2E2E2E2E2E2E2E2E2E2E2E2E2E2E2E2E2E2E2E2E2E2E2E2E2E2E2E2E2E2E2E2E2E2E2E2E2E2E2E2E2E2E2E2E2E2E2E2E2E2E2E2E2E2E2E2E2E2E2E2E2E2E2E2E2E2E2E2E2E2E2E2E2E2E2E2E2E2E2E2E2E2E2E2E2E2E2E2E2E2E2
310
E2E2E2E2E2E2E2E2E2E2E2E2E2E2E2E2E2E2E2E2E2E2E2E2E2E2E2E2E2E2E2E2E2E2E2E2E2E2E2E2E2E2E2E2E2E2E2E2E2E2E2E2E2E2E2E2E2E2E2E2E2E2E2E2E2E2E2E2E2E2E2E2E2E2E2E2E2E2E2E2E2E2E2E2E2E2E2E2E2E2E2E2E2E2E2E2E2E2E2E2E2E2E2E2E2E2E2E2E2E2E2E2E2E2E2E2E2E2E2E2E2E2E2E2E2E2E2
310
E2E2E2E2E2E2E2E2E2E2E2E2E2E2E2E2E2E2E2E2E2E2E2E2E2E2E2E2E2E2E2E2E2E2E2E2E2E2E2E2E2E2E2E2E2E2E2E2E2E2E2E2E2E2E2E2E2E2E2E2E2E2E2E2E2E2E2E2E2E2E2E2E2E2E2E2E2E2E2E2E2E2E2E2E2E2E2E2E2E2E2E2E2E2E2E2E2E2E2E2E2E2E2E2E2E2E2E2E2E2E2E2E2E2E2E2E2E2E2E2E2E2E2E2E2E2E2
310
E2E2E2E2E2E2E2E2E2E2E2E2E2E2E2E2E2E2E2E2E2E2E2E2E2E2E2E2E2E2E2E2E2E2E2E2E2E2E2E2E2E2E2E2E2E2E2E2E2E2E2E2E2E2E2E2E2E2E2E2E2E2E2E2E2E2E2E2E2E2E2E2E2E2E2E2E2E2E2E2E2E2E2E2E2E2E2E2E2E2E2E2E2E2E2E2E2E2E2E2E2E2E2E2E2E2E2E2E2E2E2E2E2E2E2E2E2E2E2E2E2E2E2E2E2E2E2
310
E2E2E2E2E2E2E2E2E2E2E2E2E2E2E2E2E2E2E2E2E2E2E2E2E2E2E2E2E2E2E2E2E2E2E2E2E2E2E2E2E2E2E2E2E2E2E2E2E2E2E2E2E2E2E2E2E2E2E2E2E2E2E2E2E2E2E2E2E2E2E2E2E2E2E2E2E2E2E2E2E2E2E2E2E2E2E2E2E2E2E2E2E2E2E2E2E2E2E2E2E2E2E2E2E2E2E2E2E2E2E2E2E2E2E2E2E2E2E2E2E2E2E2E2E2E2E2
310
E2E2E2E2E2E2E2E2E2E2E2E2E2E2E2E2E2E2E2E2E2E2E2E2E2E2E2E2E2E2E2E2E2E2E2E2E2E2E2E2E2E2E2E2E2E2E2E2E2E2E2E2E2E2E2E2E2E2E2E2E2E2E2E2E2E2E2E2E2E2E2E2E2E2E2E2E2E2E2E2E2E2E2E2E2E2E2E2E2E2E2E2E2E2E2E2E2E2E2E2E2E2E2E2E2E2E2E2E2E2E2E2E2E2E2E2E2E2E2E2E2E2E2E2E2E2E2
310
E2E2E2E2E2E2E2E2E2E2E2E2E2E2E2E2E2E2E2E2E2E2E2E2E2E2E2E2E2E2E2E2E2E2E2E2E2E2E2E2E2E2E2E2E2E2E2E2E2E2E2E2E2E2E2E2E2E2E2E2E2E2E2E2E2E2E2E2E2E2E2E2E2E2E2E2E2E2E2E2E2E2E2E2E2E2E2E2E2E2E2E2E2E2E2E2E2E2E2E2E2E2E2E2E2E2E2E2E2E2E2E2E2E2E2E2E2
  0
XRECORD
  5
21678
102
{ACAD_REACTORS
330
1E041
102
}
330
1E041
100
AcDbXrecord
280
     1
102
SHADEPLOT
 70
     0
102
SHADEPLOTRESLEVEL
 70
     2
102
SHADEPLOTCUSTOMDPI
 70
   300
  0
XRECORD
  5
1E042
102
{ACAD_REACTORS
330
1E041
102
}
330
1E041
100
AcDbXrecord
280
     1
310
28000000B40000007F00000001000800000000004C590000000000000000000000010000000000003F3F3F0000000000FFFFFF000000000000000000000000000000000000000000000000000000000000000000330000006600000099000000CC000000FF00000000330000333300006633000099330000CC330000FF3300
310
0000660000336600006666000099660000CC660000FF66000000990000339900006699000099990000CC990000FF99000000CC000033CC000066CC000099CC0000CCCC0000FFCC000000FF000033FF000066FF000099FF0000CCFF0000FFFF000000003300330033006600330099003300CC003300FF003300003333003333
310
33006633330099333300CC333300FF33330000663300336633006666330099663300CC663300FF66330000993300339933006699330099993300CC993300FF99330000CC330033CC330066CC330099CC3300CCCC3300FFCC330000FF330033FF330066FF330099FF3300CCFF3300FFFF330000006600330066006600660099
310
006600CC006600FF00660000336600333366006633660099336600CC336600FF33660000666600336666006666660099666600CC666600FF66660000996600339966006699660099996600CC996600FF99660000CC660033CC660066CC660099CC6600CCCC6600FFCC660000FF660033FF660066FF660099FF6600CCFF6600
310
FFFF660000009900330099006600990099009900CC009900FF00990000339900333399006633990099339900CC339900FF33990000669900336699006666990099669900CC669900FF66990000999900339999006699990099999900CC999900FF99990000CC990033CC990066CC990099CC9900CCCC9900FFCC990000FF99
310
0033FF990066FF990099FF9900CCFF9900FFFF99000000CC003300CC006600CC009900CC00CC00CC00FF00CC000033CC003333CC006633CC009933CC00CC33CC00FF33CC000066CC003366CC006666CC009966CC00CC66CC00FF66CC000099CC003399CC006699CC009999CC00CC99CC00FF99CC0000CCCC0033CCCC0066CC
310
CC0099CCCC00CCCCCC00FFCCCC0000FFCC0033FFCC0066FFCC0099FFCC00CCFFCC00FFFFCC000000FF003300FF006600FF009900FF00CC00FF00FF00FF000033FF003333FF006633FF009933FF00CC33FF00FF33FF000066FF003366FF006666FF009966FF00CC66FF00FF66FF000099FF003399FF006699FF009999FF00CC
310
99FF00FF99FF0000CCFF0033CCFF0066CCFF0099CCFF00CCCCFF00FFCCFF0000FFFF0033FFFF0066FFFF0099FFFF00CCFFFF00FFFFFF00000000000D0D0D001A1A1A00282828003535350043434300505050005D5D5D006B6B6B00787878008686860093939300A1A1A100AEAEAE00BBBBBB00C9C9C900D6D6D600E4E4E400
310
F1F1F100FFFFFF0000000000000000000000000000000000000000000000000000000000000000000000000000000000E7E7E7E7E7E7E7E7E7E7E7E7E7E7E7E7E7E7E7E7E7E7E7E7E7E7E7E7E7E7E7E7E7E7E7E7E7E7E7E7E7E7E7E7E7E7E7E7E7E7E7E7E7E7E7E7E7E7E7E7E7E7E7E7E7E7E7E7E7E7E7E7E7E7E7E7E7E7E7
310
E7E7E7E7E7E7E7E7E7E7E7E7E7E7E7E7E7E7E7E7E7E7E7E7E7E7E7E7E7E7E7E7E7E7E7E7E7E7E7E7E7E7E7E7E7E7E7E7E7E7E7E7E7E7E7E7E7E7E7E7E7E7E7E7E7E7E7E7E7E7E7E7E7E7E7E7E7E7E7E7E7E7E7E7E7E7E7E7E7E7E7E7E7E7E7E7E7E7E7E7E7E7E7E7E7E7E7E7E7E7E7E7E7E7E7E7E7E7E7E7E7E7E7E7E7E7E7
310
E7E7E7E7E7E7E7E7E7E7E7E7E7E7E7E7E7E7E7E7E7E7E7E7E7E7E7E7E7E7E7E7E7E7E7E7E7E7E7E7E7E7E7E7E7E7E7E7E7E7E7E7E7E7E7E7E7E7E7E7E7E7E7E7E7E7E7E7E7E7E7E7E7E7E7E7E7E7E7E7E7E7E7E7E7E7E7E7E7E7E7E7E7E7E7E7E7E7E7E7E7E7E7E7E7E7E7E7E7E7E7E7E7E7E7E7E7E7E7E7E7E7E7E7E7E7E7
310
E7E7E7E7E7E7E7E7E7E7E7E7E7E7E7E7E7E7E7E7E7E7E7E7E7E7E7E7E7E7E7E7E7E7E7E7E7E7E7E7E7E7E7E7E7E7E7E7E7E7E7E7E7E7E7E7E7E7E7E7E7E7E7E7E7E7E7E7E7E7E7E7E7E7E7E7E7E7E7E7E7E7E7E7E7E7E7E7E7E7E7E7E7E7E7E7E7E7E7E7E7E7E7E7E7E7E7E7E7E7E7E7E7E7E7E7E7E7E7E7E7E7E7E7E7E7E7
310
E7E7E7E7E7E7E7E7E7E7E7E7E7E7E7E7E7E7E7E7E7E7E7E7E7E7E7E7E7E7E7E7E7E7E7E7E7E7E7E7E7E7E7E7E7E7E7E7E7E7E7E7E7E7E7E7E7E7E7E7E7E7E7E7E7E7E7E7E7E7E7E7E7E7E7E7E7E7E7E7E7E7E7E7E7E7E7E7E7E7E7E7E7E7E7E7E7E7E7E7E7E7E7E7E7E7E7E7E7E7E7E7E7E7E7E7E7E7E7E7E7E7E7E7E7E7E7
310
E7E7E7E7E7E7E7E7E7E7E7E7E7E7E7E7E7E7E7E7E7E7E7E7E7E7E7E7E7E7E7E7E7E7E7E7E7E7E7E7E7E7E7E7E7E7E7E7E7E7E7E7E7E7E7E7E7E7E7E7E7E7E7E7E7E7E7E7E7E7E7E7E7E7E7E7E7E7E7E7E7E7E7E7E7E7E7E7E7E7E7E7E7E7E7E7E7E7E7E7E7E7E7E7E7E7E7E7E7E7E7E7E7E7E7E7E7E7E7E7E7E7E7E7E7E7E7
310
E7E7E7E7E7E7E7E7E7E7E7E7E7E7E7E7E7E7E7E7E7E7E7E7E7E7E7E7E7E7E7E7E7E7E7E7E7E7E7E7E7E7E7E7E7E7E7E7E7E7E7E7E7E7E7E7E7E7E7E7E7E7E7E7E7E7E7E7E7E7E7E7E7E7E7E7E7E7E7E7E7E7E7E7E7E7E7E7E7E7E7E7E7E7E7E7E7E7E7E7E7E7E7E7E7E7E7E7E7E7E7E7E7E7E7E7E7E7E7E7E7E7E7E7E7E7E7
310
E7E7E7E7E7E7E7E7E7E7E7E7E7E7E7E7E7E7E7E7E7E7E7E7E7E7E7E7E7E7E7E7E7E7E7E7E7E7E7E7E7E7E7E7E7E7E7E7E7E7E7E7E7E7E7E7E7E7E7E7E7E7E7E7E7E7E7E7E7E7E7E7E7E7E7E7E7E7E7E7E7E7E7E7E7E7E7E7E7E7E7E7E7E7E7E7E7E7E7E7E7E7E7E7E7E7E7E7E7E7E7E7E7E7E7E7E7E7E7E7E7E7E7E7E7E7E7
310
E7E7E7E7E7E7E7E7E7E7E7E7E7E7E7E7E7E7E7E7E7E7E7E7E7E7E7E7E7E7E7E7E7E7E7E7E7E7E7E7E7E7E7E7E7E7E7E7E7E7E7E7E7E7E7E7E7E7E7E7E7E7E7E7E7E7E7E7E7E7E7E7E7E7E7E7E7E7E7E7E7E7E7E7E7E7E7E7E7E7E7E7E7E7E7E7E7E7E7E7E7E7E7E7E7E7E7E7E7E7E7E7E7E7E7E7E7E7E7E7E7E7E7E7E7E7E7
310
E7E7E7E7E7E7E7E7E7E7E7E7E7E7E7E7E7E7E7E7E7E7E7E7E7E7E7E7E7E7E7E7E7E7E7E7E7E7E7E7E7E7E7E7E7E7E7E7E7E7E7E7E7E7E7E7E7E7E7E7E7E7E7E7E7E7E7E7E7E7E7E7E7E7E7E7E7E7E7E7E7E7E7E7E7E7E7E7E7E7E7E7E7E7E7E7E7E7E7E7E7E7E7E7E7E7E7E7E7E7E7E7E7E7E7E7E7E7E7E7E7E7E7E7E7E7E7
310
E7E7E7E7E7E7E7E7E7E7E7E7E7E7E7E7E7E7E7E7E7E7E7E7E7E7E7E7E7E7E7E7E7E7E7E7E7E7E7E7E7E7E7E7E7E7E7E7E7E7E7E7E7E7E7E7E7E7E7E7E7E7E7E7E7E7E7E7E7E7E7E7E7E7E7E7E7E7E7E7E7E7E7E7E7E7E7E7E7E7E7E7E7E7E7E7E7E7E7E7E7E7E7E7E7E7E7E7E7E7E7E7E7E7E7E7E7E7E7E7E7E7E7E7E7E7E7
310
E7E7E7E7E7E7E7E7E7E7E7E7E7E7E7E7E7E7E7E7E7E7E7E7E7E7E7E7E7E7E7E7E7E7E7E7E7E7E7E7E7E7E7E7E7E7E7E7E7E7E7E7E7E7E7E7E7E7E7E7E7E7E7E7E7E7E7E7E7E7E7E7E7E7E7E7E7E7E7E7E7E7E7E7E7E7E7E7E7E7E7E7E7E7E7E7E7E7E7E7E7E7E7E7E7E7E7E7E7E7E7E7E7E7E7E7E7E7E7E7E7E7E7E7E7E7E7
310
E7E7E7E7E7E7E7E7E7E7E7E7E7E7E7E7E7E7E7E7E7E7E7E7E7E7E7E7E7E7E7E7E7E7E7E7E7E7E7E7E7E7E7E7E7E7E7E7E7E7E7E7E7E7E7E7E7E7E7E7E7E7E7E7E7E7E7E7E7E7E7E7E7E7E7E7E7E7E7E7E7E7E7E7E7E7E7E7E7E7E7E7E7E7E7E7E7E7E7E7E7E7E7E7E7E7E7E7E7E7E7E7E7E7E7E7E7E7E7E7E7E7E7E7E7E7E7
310
E7E7E7E7E7E7E7E7E7E7E7E7E7E7E7E7E7E7E7E7E7E7E7E7E7E7E7E7E7E7E7E7E7E7E7E7E7E7E7E7E7E7E7E7E7E7E7E7E7E7E7E7E7E7E7E7E7E7E7E7E7E7E7E7E7E7E7E7E7E7E7E7E7E7E7E7E7E7E7E7E7E7E7E7E7E7E7E7E7E7E7E7E7E7E7E7E7E7E7E7E7E7E7E7E7E7E7E7E7E7E7E7E7E7E7E7E7E7E7E7E7E7E7E7E7E7E7
310
E7E7E7E7E7E7E7E7E7E7E7E7E7E7E7E7E7E7E7E7E7E7E7E7E7E7E7E7E7E7E7E7E7E7E7E7E7E7E7E7E7E7E7E7E7E7E7E7E7E7E7E7E7E7E7E7E7E7E7E7E7E7E7E7E7E7E7E7E7E7E7E7E7E7E7E7E7E7E7E7E7E7E7E7E7E7E7E7E7E7E7E7E7E7E7E7E7E7E7E7E7E7E7E7E7E7E7E7E7E7E7E7E7E7E7E7E7E7E7E7E7E7E7E7E7E7E7
310
E7E7E7E7E7E7E7E7E7E7E7E7E7E7E7E7E7E7E7E7E7E7E7E7E7E7E7E7E7E7E7E7E7E7E7E7E7E7E7E7E7E7E7E7E7E7E7E7E7E7E7E7E7E7E7E7E7E7E7E7E7E7E7E7E7E7E7E7E7E7E7E7E7E7E7E7E7E7E7E7E7E7E7E7E7E7E7E7E7E7E7E7E7E7E7E7E7E7E7E7E7E7E7E7E7E7E7E7E7E7E7E7E7E7E7E7E7E7E7E7E7E7E7E7E7E7E7
310
E7E7E7E7E7E7E7E7E7E7E7E7E7E7E7E7E7E7E7E7E7E7E7E7E7E7E7E7E7E7E7E7E7E7E7E7E7E7E7E7E7E7E7E7E7E7E7E7E7E7E7E7E7E7E7E7E7E7E7E7E7E7E7E7E7E7E7E7E7E7E7E7E7E7E7E7E7E7E7E7E7E7E7E7E7E7E7E7E7E7E7E7E7E7E7E7E7E7E7E7E7E7E7E7E7E7E7E7E7E7E7E7E7E7E7E7E7E7E7E7E7E7E7E7E7E7E7
310
E7E7E7E7E7E7E7E7E7E7E7E7E7E7E7E7E7E7E7E7E7E7E7E7E7E7E7E7E7E7E7E7E7E7E7E7E7E7E7E7E7E7E7E7E7E7E7E7E7E7E7E7E7E7E7E7E7E7E7E7E7E7E7E7E7E7E7E7E7E7E7E7E7E7E7E7E7E7E7E7E7E7E7E7E7E7E7E7E7E7E7E7E7E7E7E7E7E7E7E7E7E7E7E7E7E7E7E7E7E7E7E7E7E7E7E7E7E7E7E7E7E7E7E7E7E7E7
310
E7E7E7E7E7E7E7E7E7E7E7E7E7E7E7E7E7E7E7E7E7E7E7E7E7E7E7E7E7E7E7E7E7E7E7E7E7E7E7E7E7E7E7E7E7E7E7E7E7E7E7E7E7E7E7E7E7E7E7E7E7E7E7E7E7E7E7E7E7E7E7E7E7E7E7E7E7E7E7E7E7E7E7E7E7E7E7E7E7E7E7E7E7E7E7E7E7E7E7E7E7E7E7E7E7E7E7E7E7E7E7E7E7E7E7E7E7E7E7E7E7E7E7E7E7E7E7
310
E7E7E7E7E7E7E7E7E7E7E7E7E7E7E7E7E7E7E7E7E7E7E7E7E7E7E7E7E7E7E7E7E7E7E7E7E7E7E7E7E7E7E7E7E7E7E7E7E7E7E7E7E7E7E7E7E7E7E7E7E7E7E7E7E7E7E7E7E7E7E7E7E7E7E7E7E7E7E7E7E7E7E7E7E7E7E7E7E7E7E7E7E7E7E7E7E7E7E7E7E7E7E7E7E7E7E7E7E7E7E7E7E7E7E7E7E7E7E7E7E7E7E7E7E7E7E7
310
E7E7E7E7E7E7E7E7E7E7E7E7E7E7E7E7E7E7E7E7E7E7E7E7E7E7E7E7E7E7E7E7E7E7E7E7E7E7E7E7E7E7E7E7E7E7E7E7E7E7E7E7E7E7E7E7E7E7E7E7E7E7E7E7E7E7E7E7E7E7E7E7E7E7E7E7E7E7E7E7E7E7E7E7E7E7E7E7E7E7E7E7E7E7E7E7E7E7E7E7E7E7E7E7E7E7E7E7E7E7E7E7E7E7E7E7E7E7E7E7E7E7E7E7E7E7E7
310
E7E7E7E7E7E7E7E7E7E7E7E7E7E7E7E7E7E7E7E7E7E7E7E7E7E7E7E7E7E7E7E7E7E7E7E7E7E7E7E7E7E7E7E7E7E7E7E7E7E7E7E7E7E7E7E7E7E7E7E7E7E7E7E7E7E7E7E7E7E7E7E7E7E7E7E7E7E7E7E7E7E7E7E7E7E7E7E7E7E7E7E7E7E7E7E7E7E7E7E7E7E7E7E7E7E7E7E7E7E7E7E7E7E7E7E7E7E7E7E7E7E7E7E7E7E7E7
310
E7E7E7E7E7E7E7E7E7E7E7E7E7E7E7E7E7E7E7E7E7E7E7E7E7E7E7E7E7E7E7E7E7E7E7E7E7E7E7E7E7E7E7E7E7E7E7E7E7E7E7E7E7E7E7E7E7E7E7E7E7E7E7E7E7E7E7E7E7E7E7E7E7E7E7E7E7E7E7E7E7E7E7E7E7E7E7E7E7E7E7E7E7E7E7E7E7E7E7E7E7E7E7E7E7E7E7E7E7E7E7E7E7E7E7E7E7E7E7E7E7E7E7E7E7E7E7
310
E7E7E7E7E7E7E7E7E7E7E7E7E7E7E7E7E7E7E7E7E7E7E7E7E7E7E7E7E7E7E7E7E7E7E7E7E7E7E7E7E7E7E7E7E7E7E7E7E7E7E7E7E7E7E7E7E7E7E7E7E7E7E7E7E7E7E7E7E7E7E7E7E7E7E7E7E7E7E7E7E7E7E7E7E7E7E7E7E7E7E7E7E7E7E7E7E7E7E7E7E7E7E7E7E7E7E7E7E7E7E7E7E7E7E7E7E7E7E7E7E7E7E7E7E7E7E7
310
E7E7E7E7E7E7E7E7E7E7E7E7E7E7E7E7E7E7E7E7E7E7E7E7E7E7E7E7E7E7E7E7E7E7E7E7E7E7E7E7E7E7E7E7E7E7E7E7E7E7E7E7E7E7E7E7E7E7E7E7E7E7E7E7E7E7E7E7E7E7E7E7E7E7E7E7E7E7E7E7E7E7E7E7E7E7E7E7E7E7E7E7E7E7E7E7E7E7E7E7E7E7E7E7E7E7E7E7E7E7E7E7E7E7E7E7E7E7E7E7E7E7E7E7E7E7E7
310
E7E7E7E7E7E7E7E7E7E7E7E7E7E7E7E7E7E7E7E7E7E7E7E7E7E7E7E7E7E7E7E7E7E7E7E7E7E7E7E7E7E7E7E7E7E7E7E7E7E7E7E7E7E7E7E7E7E7E7E7E7E7E7E7E7E7E7E7E7E7E7E7E7E7E7E7E7E7E7E7E7E7E7E7E7E7E7E7E7E7E7E7E7E7E7E7E7E7E7E7E7E7E7E7E7E7E7E7E7E7E7E7E7E7E7E7E7E7E7E7E7E7E7E7E7E7E7
310
E7E7E7E7E7E7E7E7E7E7E7E7E7E7E7E7E7E7E7E7E7E7E7E7E7E7E7E7E7E7E7E7E7E7E7E7E7E7E7E7E7E7E7E7E7E7E7E7E7E7E7E7E7E7E7E7E7E7E7E7E7E7E7E7E7E7E7E7E7E7E7E7E7E7E7E7E7E7E7E7E7E7E7E7E7E7E7E7E7E7E7E7E7E7E7E7E7E7E7E7E7E7E7E7E7E7E7E7E7E7E7E7E7E7E7E7E7E7E7E7E7E7E7E7E7E7E7
310
E7E7E7E7E7E7E7E7E7E7E7E7E7E7E7E7E7E7E7E7E7E7E7E7E7E7E7E7E7E7E7E7E7E7E7E7E7E7E7E7E7E7E7E7E7E7E7E7E7E7E7E7E7E7E7E7E7E7E7E7E7E7E7E7E7E7E7E7E7E7E7E7E7E7E7E7E7E7E7E7E7E7E7E7E7E7E7E7E7E7E7E7E7E7E7E7E7E7E7E7E7E7E7E7E7E7E7E7E7E7E7E7E7E7E7E7E7E7E7E7E7E7E7E7E7E7E7
310
E7E7E7E7E7E7E7E7E7E7E7E7E7E7E7E7E7E7E7E7E7E7E7E7E7E7E7E7E7E7E7E7E7E7E7E7E7E7E7E7E7E7E7E7E7E7E7E7E7E7E7E7E7E7E7E7E7E7E7E7E7E7E7E7E7E7E7E7E7E7E7E7E7E7E7E7E7E7E7E7E7E7E7E7E7E7E7E7E7E7E7E7E7E7E7E7E7E7E7E7E7E7E7E7E7E7E7E7E7E7E7E7E7E7E7E7E7E7E7E7E7E7E7E7E7E7E7
310
E7E7E7E7E7E7E7E7E7E7E7E7E7E7E7E7E7E7E7E7E7E7E7E7E7E7E7E7E7E7E7E7E7E7E7E7E7E7E7E7E7E7E7E7E7E7E7E7E7E7E7E7E7E7E7E7E7E7E7E7E7E7E7E7E7E7E7E7E7E7E7E7E7E7E7E7E7E7E7E7E7E7E7E7E7E7E7E7E7E7E7E7E7E7E7E7E7E7E7E7E7E7E7E7E7E7E7E7E7E7E7E7E7E7E7E7E7E7E7E7E7E7E7E7E7E7E7
310
E7E7E7E7E7E7E7E7E7E7E7E7E7E7E7E7E7E7E7E7E7E7E7E7E7E7E7E7E7E7E7E7E7E7E7E7E7E7E7E7E7E7E7E7E7E7E7E7E7E7E7E7E7E7E7E7E7E7E7E7E7E7E7E7E7E7E7E7E7E7E7E7E7E7E7E7E7E7E7E7E7E7E7E7E7E7E7E7E7E7E7E7E7E7E7E7E7E7E7E7E7E7E7E7E7E7E7E7E7E7E7E7E7E7E7E7E7E7E7E7E7E7E7E7E7E7E7
310
E7E7E7E7E7E7E7E7E7E7E7E7E7E7E7E7E7E7E7E7E7E7E7E7E7E7E7E7E7E7E7E7E7E7E7E7E7E7E7E7E7E7E7E7E7E7E7E7E7E7E7E7E7E7E7E7E7E7E7E7E7E7E7E7E7E7E7E7E7E7E7E7E7E7E7E7E7E7E7E7E7E7E7E7E7E7E7E7E7E7E7E7E7E7E7E7E7E7E7E7E7E7E7E7E7E7E7E7E7E7E7E7E7E7E7E7E7E7E7E7E7E7E7E7E7E7E7
310
E7E7E7E7E7E7E7E7E7E7E7E7E7E7E7E7E7E7E7E7E7E7E7E7E7E7E7E7E7E7E7E7E7E7E7E7E7E7E7E7E7E7E7E7E7E7E7E7E7E7E7E7E7E7E7E7E7E7E7E7E7E7E7E7E7E7E7E7E7E7E7E7E7E7E7E7E7E7E7E7E7E7E7E7E7E7E7E7E7E7E7E7E7E7E7E7E7E7E7E7E7E7E7E7E7E7E7E7E7E7E7E7E7E7E7E7E7E7E7E7E7E7E7E7E7E7E7
310
E7E7E7E7E7E7E7E7E7E7E7E7E7E7E7E7E7E7E7E7E7E7E7E7E7E7E7E7E7E7E7E7E7E7E7E7E7E7E7E7E7E7E7E7E7E7E7E7E7E7E7E7E7E7E7E7E7E7E7E7E7E7E7E7E7E7E7E7E7E7E7E7E7E7E7E7E7E7E7E7E7E7E7E7E7E7E7E7E7E7E7E7E7E7E7E7E7E7E7E7E7E7E7E7E7E7E7E7E7E7E7E7E7E7E7E7E7E7E7E7E7E7E7E7E7E7E7
310
E7E7E7E7E7E7E7E7E7E7E7E7E7E7E7E7E7E7E7E7E7E7E7E7E7E7E7E7E7E7E7E7E7E7E7E7E7E7E7E7E7E7E7E7E7E7E7E7E7E7E7E7E7E7E7E7E7E7E7E7E7E7E7E7E7E7E7E7E7E7E7E7E7E7E7E7E7E7E7E7E7E7E7E7E7E7E7E7E7E7E7E7E7E7E7E7E7E7E7E7E7E7E7E7E7E7E7E7E7E7E7E7E7E7E7E7E7E7E7E7E7E7E7E7E7E7E7
310
E7E7E7E7E7E7E7E7E7E7E7E7E7E7E7E7E7E7E7E7E7E7E7E7E7E7E7E7E7E7E7E7E7E7E7E7E7E7E7E7E7E7E7E7E7E7E7E7E7E7E7E7E7E7E7E7E7E7E7E7E7E7E7E7E7E7E7E7E7E7E7E7E7E7E7E7E7E7E7E7E7E7E7E7E7E7E7E7E7E7E7E7E7E7E7E7E7E7E7E7E7E7E7E7E7E7E7E7E7E7E7E7E7E7E7E7E7E7E7E7E7E7E7E7E7E7E7
310
E7E7E7E7E7E7E7E7E7E7E7E7E7E7E7E7E7E7E7E7E7E7E7E7E7E7E7E7E7E7E7E7E7E7E7E7E7E7E7E7E7E7E7E7E7E7E7E7E7E7E7E7E7E7E7E7E7E7E7E7E7E7E7E7E7E7E7E7E7E7E7E7E7E7E7E7E7E7E7E7E7E7E7E7E7E7E7E7E7E7E7E7E7E7E7E7E7E7E7E7E7E7E7E7E7E7E7E7E7E7E7E7E7E7E7E7E7E7E7E7E7E7E7E7E7E7E7
310
E7E7E7E7E7E7E7E7E7E7E7E7E7E7E7E7E7E7E7E7E7E7E7E7E7E7E7E7E7E7E7E7E7E7E7E7E7E7E7E7E7E7E7E7E7E7E7E7E7E7E7E7E7E7E7E7E7E7E7E7E7E7E7E7E7E7E7E7E7E7E7E7E7E7E7E7E7E7E7E7E7E7E7E7E7E7E7E7E7E7E7E7E7E7E7E7E7E7E7E7E7E7E7E7E7E7E7E7E7E7E7E7E7E7E7E7E7E7E7E7E7E7E7E7E7E7E7
310
E7E7E7E7E7E7E7E7E7E7E7E7E7E7E7E7E7E7E7E7E7E7E7E7E7E7E7E7E7E7E7E7E7E7E7E7E7E7E7E7E7E7E7E7E7E7E7E7E7E7E7E7E7E7E7E7E7E7E7E7E7E7E7E7E7E7E7E7E7E7E7E7E7E7E7E7E7E7E7E7E7E7E7E7E7E7E7E7E7E7E7E7E7E7E7E7E7E7E7E7E7E7E7E7E7E7E7E7E7E7E7E7E7E7E7E7E7E7E7E7E7E7E7E7E7E7E7
310
E7E7E7E7E7E7E7E7E7E7E7E7E7E7E7E7E7E7E7E7E7E7E7E7E7E7E7E7E7E7E7E7E7E7E7E7E7E7E7E7E7E7E7E7E7E7E7E7E7E7E7E7E7E7E7E7E7E7E7E7E7E7E7E7E7E7E7E7E7E7E7E7E7E7E7E7E7E7E7E7E7E7E7E7E7E7E7E7E7E7E7E7E7E7E7E7E7E7E7E7E7E7E7E7E7E7E7E7E7E7E7E7E7E7E7E7E7E7E7E7E7E7E7E7E7E7E7
310
E7E7E7E7E7E7E7E7E7E7E7E7E7E7E7E7E7E7E7E7E7E7E7E7E7E7E7E7E7E7E7E7E7E7E7E7E7E7E7E7E7E7E7E7E7E7E7E7E7E7E7E7E7E7E7E7E7E7E7E7E7E7E7E7E7E7E7E7E7E7E7E7E7E7E7E7E7E7E7E7E7E7E7E7E7E7E7E7E7E7E7E7E7E7E7E7E7E7E7E7E7E7E7E7E7E7E7E7E7E7E7E7E7E7E7E7E7E7E7E7E7E7E7E7E7E7E7
310
E7E7E7E7E7E7E7E7E7E7E7E7E7E7E7E7E7E7E7E7E7E7E7E7E7E7E7E7E7E7E7E7E7E7E7E7E7E7E7E7E7E7E7E7E7E7E7E7E7E7E7E7E7E7E7E7E7E7E7E7E7E7E7E7E7E7E7E7E7E7E7E7E7E7E7E7E7E7E7E7E7E7E7E7E7E7E7E7E7E7E7E7E7E7E7E7E7E7E7E7E7E7E7E7E7E7E7E7E7E7E7E7E7E7E7E7E7E7E7E7E7E7E7E7E7E7E7
310
E7E7E7E7E7E7E7E7E7E7E7E7E7E7E7E7E7E7E7E7E7E7E7E7E7E7E7E7E7E7E7E7E7E7E7E7E7E7E7E7E7E7E7E7E7E7E7E7E7E7E7E7E7E7E7E7E7E7E7E7E7E7E7E7E7E7E7E7E7E7E7E7E7E7E7E7E7E7E7E7E7E7E7E7E7E7E7E7E7E7E7E7E7E7E7E7E7E7E7E7E7E7E7E7E7E7E7E7E7E7E7E7E7E7E7E7E7E7E7E7E7E7E7E7E7E7E7
310
E7E7E7E7E7E7E7E7E7E7E7E7E7E7E7E7E7E7E7E7E7E7E7E7E7E7E7E7E7E7E7E7E7E7E7E7E7E7E7E7E7E7E7E7E7E7E7E7E7E7E7E7E7E7E7E7E7E7E7E7E7E7E7E7E7E7E7E7E7E7E7E7E7E7E7E7E7E7E7E7E7E7E7E7E7E7E7E7E7E7E7E7E7E7E7E7E7E7E7E7E7E7E7E7E7E7E7E7E7E7E7E7E7E7E7E7E7E7E7E7E7E7E7E7E7E7E7
310
E7E7E7E7E7E7E7E7E7E7E7E7E7E7E7E7E7E7E7E7E7E7E7E7E7E7E7E7E7E7E7E7E7E7E7E7E7E7E7E7E7E7E7E7E7E7E7E7E7E7E7E7E7E7E7E7E7E7E7E7E7E7E7E7E7E7E7E7E7E7E7E7E7E7E7E7E7E7E7E7E7E7E7E7E7E7E7E7E7E7E7E7E7E7E7E7E7E7E7E7E7E7E7E7E7E7E7E7E7E7E7E7E7E7E7E7E7E7E7E7E7E7E7E7E7E7E7
310
E7E7E7E7E7E7E7E7E7E7E7E7E7E7E7E7E7E7E7E7E7E7E7E7E7E7E7E7E7E7E7E7E7E7E7E7E7E7E7E7E7E7E7E7E7E7E7E7E7E7E7E7E7E7E7E7E7E7E7E7E7E7E7E7E7E7E7E7E7E7E7E7E7E7E7E7E7E7E7E7E7E7E7E7E7E7E7E7E7E7E7E7E7E7E7E7E7E7E7E7E7E7E7E7E7E7E7E7E7E7E7E7E7E7E7E7E7E7E7E7E7E7E7E7E7E7E7
310
E7E7E7E7E7E7E7E7E7E7E7E7E7E7E7E7E7E7E7E7E7E7E7E7E7E7E7E7E7E7E7E7E7E7E7E7E7E7E7E7E7E7E7E7E7E7E7E7E7E7E7E7E7E7E7E7E7E7E7E7E7E7E7E7E7E7E7E7E7E7E7E7E7E7E7E7E7E7E7E7E7E7E7E7E7E7E7E7E7E7E7E7E7E7E7E7E7E7E7E7E7E7E7E7E7E7E7E7E7E7E7E7E7E7E7E7E7E7E7E7E7E7E7E7E7E7E7
310
E7E7E7E7E7E7E7E7E7E7E7E7E7E7E7E7E7E7E7E7E7E7E7E7E7E7E7E7E7E7E7E7E7E7E7E7E7E7E7E7E7E7E7E7E7E7E7E7E7E7E7E7E7E7E7E7E7E7E7E7E7E7E7E7E7E7E7E7E7E7E7E7E7E7E7E7E7E7E7E7E7E7E7E7E7E7E7E7E7E7E7E7E7E7E7E7E7E7E7E7E7E7E7E7E7E7E7E7E7E7E7E7E7E7E7E7E7E7E7E7E7E7E7E7E7E7E7
310
E7E7E7E7E7E7E7E7E7E7E7E7E7E7E7E7E7E7E7E7E7E7E7E7E7E7E7E7E7E7E7E7E7E7E7E7E7E7E7E7E7E7E7E7E7E7E7E7E7E7E7E7E7E7E7E7E7E7E7E7E7E7E7E7E7E7E7E7E7E7E7E7E7E7E7E7E7E7E7E7E7E7E7E7E7E7E7E7E7E7E7E7E7E7E7E7E7E7E7E7E7E7E7E7E7E7E7E7E7E7E7E7E7E7E7E7E7E7E7E7E7E7E7E7E7E7E7
310
E7E7E7E7E7E7E7E7E7E7E7E7E7E7E7E7E7E7E7E7E7E7E7E7E7E7E7E7E7E7E7E7E7E7E7E7E7E7E7E7E7E7E7E7E7E7E7E7E7E7E7E7E7E7E7E7E7E7E7E7E7E7E7E7E7E7E7E7E7E7E7E7E7E7E7E7E7E7E7E7E7E7E7E7E7E7E7E7E7E7E7E7E7E7E7E7E7E7E7E7E7E7E7E7E7E7E7E7E7E7E7E7E7E7E7E7E7E7E7E7E7E7E7E7E7E7E7
310
E7E7E7E7E7E7E7E7E7E7E7E7E7E7E7E7E7E7E7E7E7E7E7E7E7E7E7E7E7E7E7E7E7E7E7E7E7E7E7E7E7E7E7E7E7E7E7E7E7E7E7E7E7E7E7E7E7E7E7E7E7E7E7E7E7E7E7E7E7E7E7E7E7E7E7E7E7E7E7E7E7E7E7E7E7E7E7E7E7E7E7E7E7E7E7E7E7E7E7E7E7E7E7E7E7E7E7E7E7E7E7E7E7E7E7E7E7E7E7E7E7E7E7E7E7E7E7
310
E7E7E7E7E7E7E7E7E7E7E7E7E7E7E7E7E7E7E7E7E7E7E7E7E7E7E7E7E7E7E7E7E7E7E7E7E7E7E7E7E7E7E7E7E7E7E7E7E7E7E7E7E7E7E7E7E7E7E7E7E7E7E7E7E7E7E7E7E7E7E7E7E7E7E7E7E7E7E7E7E7E7E7E7E7E7E7E7E7E7E7E7E7E7E7E7E7E7E7E7E7E7E7E7E7E7E7E7E7E7E7E7E7E7E7E7E7E7E7E7E7E7E7E7E7E7E7
310
E7E7E7E7E7E7E7E7E7E7E7E7E7E7E7E7E7E7E7E7E7E7E7E7E7E7E7E7E7E7E7E7E7E7E7E7E7E7E7E7E7E7E7E7E7E7E7E7E7E7E7E7E7E7E7E7E7E7E7E7E7E7E7E7E7E7E7E7E7E7E7E7E7E7E7E7E7E7E7E7E7E7E7E7E7E7E7E7E7E7E7E7E7E7E7E7E7E7E7E7E7E7E7E7E7E7E7E7E7E7E7E7E7E7E7E7E7E7E7E7E7E7E7E7E7E7E7
310
E7E7E7E7E7E7E7E7E7E7E7E7E7E7E7E7E7E7E7E7E7E7E7E7E7E7E7E7E7E7E7E7E7E7E7E7E7E7E7E7E7E7E7E7E7E7E7E7E7E7E7E7E7E7E7E7E7E7E7E7E7E7E7E7E7E7E7E7E7E7E7E7E7E7E7E7E7E7E7E7E7E7E7E7E7E7E7E7E7E7E7E7E7E7E7E7E7E7E7E7E7E7E7E7E7E7E7E7E7E7E7E7E7E7E7E7E7E7E7E7E7E7E7E7E7E7E7
310
E7E7E7E7E7E7E7E7E7E7E7E7E7E7E7E7E7E7E7E7E7E7E7E7E7E7E7E7E7E7E7E7E7E7E7E7E7E7E7E7E7E7E7E7E7E7E7E7E7E7E7E7E7E7E7E7E7E7E7E7E7E7E7E7E7E7E7E7E7E7E7E7E7E7E7E7E7E7E7E7E7E7E7E7E7E7E7E7E7E7E7E7E7E7E7E7E7E7E7E7E7E7E7E7E7E7E7E7E7E7E7E7E7E7E7E7E7E7E7E7E7E7E7E7E7E7E7
310
E7E7E7E7E7E7E7E7E7E7E7E7E7E7E7E7E7E7E7E7E7E7E7E7E7E7E7E7E7E7E7E7E7E7E7E7E7E7E7E7E7E7E7E7E7E7E7E7E7E7E7E7E7E7E7E7E7E7E7E7E7E7E7E7E7E7E7E7E7E7E7E7E7E7E7E7E7E7E7E7E7E7E7E7E7E7E7E7E7E7E7E7E7E7E7E7E7E7E7E7E7E7E7E7E7E7E7E7E7E7E7E7E7E7E7E7E7E7E7E7E7E7E7E7E7E7E7
310
E7E7E7E7E7E7E7E7E7E7E7E7E7E7E7E7E7E7E7E7E7E7E7E7E7E7E7E7E7E7E7E7E7E7E7E7E7E7E7E7E7E7E7E7E7E7E7E7E7E7E7E7E7E7E7E7E7E7E7E7E7E7E7E7E7E7E7E7E7E7E7E7E7E7E7E7E7E7E7E7E7E7E7E7E7E7E7E7E7E7E7E7E7E7E7E7E7E7E7E7E7E7E7E7E7E7E7E7E7E7E7E7E7E7E7E7E7E7E7E7E7E7E7E7E7E7E7
310
E7E7E7E7E7E7E7E7E7E7E7E7E7E7E7E7E7E7E7E7E7E7E7E7E7E7E7E7E7E7E7E7E7E7E7E7E7E7E7E7E7E7E7E7E7E7E7E7E7E7E7E7E7E7E7E7E7E7E7E7E7E7E7E7E7E7E7E7E7E7E7E7E7E7E7E7E7E7E7E7E7E7E7E7E7E7E7E7E7E7E7E7E7E7E7E7E7E7E7E7E7E7E7E7E7E7E7E7E7E7E7E7E7E7E7E7E7E7E7E7E7E7E7E7E7E7E7
310
E7E7E7E7E7E7E7E7E7E7E7E7E7E7E7E7E7E7E7E7E7E7E7E7E7E7E7E7E7E7E7E7E7E7E7E7E7E7E7E7E7E7E7E7E7E7E7E7E7E7E7E7E7E7E7E7E7E7E7E7E7E7E7E7E7E7E7E7E7E7E7E7E7E7E7E7E7E7E7E7E7E7E7E7E7E7E7E7E7E7E7E7E7E7E7E7E7E7E7E7E7E7E7E7E7E7E7E7E7E7E7E7E7E7E7E7E7E7E7E7E7E7E7E7E7E7E7
310
E7E7E7E7E7E7E7E7E7E7E7E7E7E7E7E7E7E7E7E7E7E7E7E7E7E7E7E7E7E7E7E7E7E7E7E7E7E7E7E7E7E7E7E7E7E7E7E7E7E7E7E7E7E7E7E7E7E7E7E7E7E7E7E7E7E7E7E7E7E7E7E7E7E7E7E7E7E7E7E7E7E7E7E7E7E7E7E7E7E7E7E7E7E7E7E7E7E7E7E7E7E7E7E7E7E7E7E7E7E7E7E7E7E7E7E7E7E7E7E7E7E7E7E7E7E7E7
310
E7E7E7E7E7E7E7E7E7E7E7E7E7E7E7E7E7E7E7E7E7E7E7E7E7E7E7E7E7E7E7E7E7E7E7E7E7E7E7E7E7E7E7E7E7E7E7E7E7E7E7E7E7E7E7E7E7E7E7E7E7E7E7E7E7E7E7E7E7E7E7E7E7E7E7E7E7E7E7E7E7E7E7E7E7E7E7E7E7E7E7E7E7E7E7E7E7E7E7E7E7E7E7E7E7E7E7E7E7E7E7E7E7E7E7E7E7E7E7E7E7E7E7E7E7E7E7
310
E7E7E7E7E7E7E7E7E7E7E7E7E7E7E7E7E7E7E7E7E7E7E7E7E7E7E7E7E7E7E7E7E7E7E7E7E7E7E7E7E7E7E7E7E7E7E7E7E7E7E7E7E7E7E7E7E7E7E7E7E7E7E7E7E7E7E7E7E7E7E7E7E7E7E7E7E7E7E7E7E7E7E7E7E7E7E7E7E7E7E7E7E7E7E7E7E7E7E7E7E7E7E7E7E7E7E7E7E7E7E7E7E7E7E7E7E7E7E7E7E7E7E7E7E7E7E7
310
E7E7E7E7E7E7E7E7E7E7E7E7E7E7E7E7E7E7E7E7E7E7E7E7E7E7E7E7E7E7E7E7E7E7E7E7E7E7E7E7E7E7E7E7E7E7E7E7E7E7E7E7E7E7E7E7E7E7E7E7E7E7E7E7E7E7E7E7E7E7E7E7E7E7E7E7E7E7E7E7E7E7E7E7E7E7E7E7E7E7E7E7E7E7E7E7E7E7E7E7E7E7E7E7E7E7E7E7E7E7E7E7E7E7E7E7E7E7E7E7E7E7E7E7E7E7E7
310
E7E7E7E7E7E7E7E7E7E7E7E7E7E7E7E7E7E7E7E7E7E7E7E7E7E7E7E7E7E7E7E7E7E7E7E7E7E7E7E7E7E7E7E7E7E7E7E7E7E7E7E7E7E7E7E7E7E7E7E7E7E7E7E7E7E7E7E7E7E7E7E7E7E7E7E7E7E7E7E7E7E7E7E7E7E7E7E7E7E7E7E7E7E7E7E7E7E7E7E7E7E7E7E7E7E7E7E7E7E7E7E7E7E7E7E7E7E7E7E7E7E7E7E7E7E7E7
310
E7E7E7E7E7E7E7E7E7E7E7E7E7E7E7E7E7E7E7E7E7E7E7E7E7E7E7E7E7E7E7E7E7E7E7E7E7E7E7E7E7E7E7E7E7E7E7E7E7E7E7E7E7E7E7E7E7E7E7E7E7E7E7E7E7E7E7E7E7E7E7E7E7E7E7E7E7E7E7E7E7E7E7E7E7E7E7E7E7E7E7E7E7E7E7E7E7E7E7E7E7E7E7E7E7E7E7E7E7E7E7E7E7E7E7E7E7E7E7E7E7E7E7E7E7E7E7
310
E7E7E7E7E7E7E7E7E7E7E7E7E7E7E7E7E7E7E7E7E7E7E7E7E7E7E7E7E7E7E7E7E7E7E7E7E7E7E7E7E7E7E7E7E7E7E7E7E7E7E7E7E7E7E7E7E7E7E7E7E7E7E7E7E7E7E7E7E7E7E7E7E7E7E7E7E7E7E7E7E7E7E7E7E7E7E7E7E7E7E7E7E7E7E7E7E7E7E7E7E7E7E7E7E7E7E7E7E7E7E7E7E7E7E7E7E7E7E7E7E7E7E7E7E7E7E7
310
E7E7E7E7E7E7E7E7E7E7E7E7E7E7E7E7E7E7E7E7E7E7E7E7E7E7E7E7E7E7E7E7E7E7E7E7E7E7E7E7E7E7E7E7E7E7E7E7E7E7E7E7E7E7E7E7E7E7E7E7E7E7E7E7E7E7E7E7E7E7E7E7E7E7E7E7E7E7E7E7E7E7E7E7E7E7E7E7E7E7E7E7E7E7E7E7E7E7E7E7E7E7E7E7E7E7E7E7E7E7E7E7E7E7E7E7E7E7E7E7E7E7E7E7E7E7E7
310
E7E7E7E7E7E7E7E7E7E7E7E7E7E7E7E7E7E7E7E7E7E7E7E7E7E7E7E7E7E7E7E7E7E7E7E7E7E7E7E7E7E7E7E7E7E7E7E7E7E7E7E7E7E7E7E7E7E7E7E7E7E7E7E7E7E7E7E7E7E7E7E7E7E7E7E7E7E7E7E7E7E7E7E7E7E7E7E7E7E7E7E7E7E7E7E7E7E7E7E7E7E7E7E7E7E7E7E7E7E7E7E7E7E7E7E7E7E7E7E7E7E7E7E7E7E7E7
310
E7E7E7E7E7E7E7E7E7E7E7E7E7E7E7E7E7E7E7E7E7E7E7E7E7E7E7E7E7E7E7E7E7E7E7E7E7E7E7E7E7E7E7E7E7E7E7E7E7E7E7E7E7E7E7E7E7E7E7E7E7E7E7E7E7E7E7E7E7E7E7E7E7E7E7E7E7E7E7E7E7E7E7E7E7E7E7E7E7E7E7E7E7E7E7E7E7E7E7E7E7E7E7E7E7E7E7E7E7E7E7E7E7E7E7E7E7E7E7E7E7E7E7E7E7E7E7
310
E7E7E7E7E7E7E7E7E7E7E7E7E7E7E7E7E7E7E7E7E7E7E7E7E7E7E7E7E7E7E7E7E7E7E7E7E7E7E7E7E7E7E7E7E7E7E7E7E7E7E7E7E7E7E7E7E7E7E7E7E7E7E7E7E7E7E7E7E7E7E7E7E7E7E7E7E7E7E7E7E7E7E7E7E7E7E7E7E7E7E7E7E7E7E7E7E7E7E7E7E7E7E7E7E7E7E7E7E7E7E7E7E7E7E7E7E7E7E7E7E7E7E7E7E7E7E7
310
E7E7E7E7E7E7E7E7E7E7E7E7E7E7E7E7E7E7E7E7E7E7E7E7E7E7E7E7E7E7E7E7E7E7E7E7E7E7E7E7E7E7E7E7E7E7E7E7E7E7E7E7E7E7E7E7E7E7E7E7E7E7E7E7E7E7E7E7E7E7E7E7E7E7E7E7E7E7E7E7E7E7E7E7E7E7E7E7E7E7E7E7E7E7E7E7E7E7E7E7E7E7E7E7E7E7E7E7E7E7E7E7E7E7E7E7E7E7E7E7E7E7E7E7E7E7E7
310
E7E7E7E7E7E7E7E7E7E7E7E7E7E7E7E7E7E7E7E7E7E7E7E7E7E7E7E7E7E7E7E7E7E7E7E7E7E7E7E7E7E7E7E7E7E7E7E7E7E7E7E7E7E7E7E7E7E7E7E7E7E7E7E7E7E7E7E7E7E7E7E7E7E7E7E7E7E7E7E7E7E7E7E7E7E7E7E7E7E7E7E7E7E7E7E7E7E7E7E7E7E7E7E7E7E7E7E7E7E7E7E7E7E7E7E7E7E7E7E7E7E7E7E7E7E7E7
310
E7E7E7E7E7E7E7E7E7E7E7E7E7E7E7E7E7E7E7E7E7E7E7E7E7E7E7E7E7E7E7E7E7E7E7E7E7E7E7E7E7E7E7E7E7E7E7E7E7E7E7E7E7E7E7E7E7E7E7E7E7E7E7E7E7E7E7E7E7E7E7E7E7E7E7E7E7E7E7E7E7E7E7E7E7E7E7E7E7E7E7E7E7E7E7E7E7E7E7E7E7E7E7E7E7E7E7E7E7E7E7E7E7E7E7E7E7E7E7E7E7E7E7E7E7E7E7
310
E7E7E7E7E7E7E7E7E7E7E7E7E7E7E7E7E7E7E7E7E7E7E7E7E7E7E7E7E7E7E7E7E7E7E7E7E7E7E7E7E7E7E7E7E7E7E7E7E7E7E7E7E7E7E7E7E7E7E7E7E7E7E7E7E7E7E7E7E7E7E7E7E7E7E7E7E7E7E7E7E7E7E7E7E7E7E7E7E7E7E7E7E7E7E7E7E7E7E7E7E7E7E7E7E7E7E7E7E7E7E7E7E7E7E7E7E7E7E7E7E7E7E7E7E7E7E7
310
E7E7E7E7E7E7E7E7E7E7E7E7E7E7E7E7E7E7E7E7E7E7E7E7E7E7E7E7E7E7E7E7E7E7E7E7E7E7E7E7E7E7E7E7E7E7E7E7E7E7E7E7E7E7E7E7E7E7E7E7E7E7E7E7E7E7E7E7E7E7E7E7E7E7E7E7E7E7E7E7E7E7E7E7E7E7E7E7E7E7E7E7E7E7E7E7E7E7E7E7E7E7E7E7E7E7E7E7E7E7E7E7E7E7E7E7E7E7E7E7E7E7E7E7E7E7E7
310
E7E7E7E7E7E7E7E7E7E7E7E7E7E7E7E7E7E7E7E7E7E7E7E7E7E7E7E7E7E7E7E7E7E7E7E7E7E7E7E7E7E7E7E7E7E7E7E7E7E7E7E7E7E7E7E7E7E7E7E7E7E7E7E7E7E7E7E7E7E7E7E7E7E7E7E7E7E7E7E7E7E7E7E7E7E7E7E7E7E7E7E7E7E7E7E7E7E7E7E7E7E7E7E7E7E7E7E7E7E7E7E7E7E7E7E7E7E7E7E7E7E7E7E7E7E7E7
310
E7E7E7E7E7E7E7E7E7E7E7E7E7E7E7E7E7E7E7E7E7E7E7E7E7E7E7E7E7E7E7E7E7E7E7E7E7E7E7E7E7E7E7E7E7E7E7E7E7E7E7E7E7E7E7E7E7E7E7E7E7E7E7E7E7E7E7E7E7E7E7E7E7E7E7E7E7E7E7E7E7E7E7E7E7E7E7E7E7E7E7E7E7E7E7E7E7E7E7E7E7E7E7E7E7E7E7E7E7E7E7E7E7E7E7E7E7E7E7E7E7E7E7E7E7E7E7
310
E7E7E7E7E7E7E7E7E7E7E7E7E7E7E7E7E7E7E7E7E7E7E7E7E7E7E7E7E7E7E7E7E7E7E7E7E7E7E7E7E7E7E7E7E7E7E7E7E7E7E7E7E7E7E7E7E7E7E7E7E7E7E7E7E7E7E7E7E7E7E7E7E7E7E7E7E7E7E7E7E7E7E7E7E7E7E7E7E7E7E7E7E7E7E7E7E7E7E7E7E7E7E7E7E7E7E7E7E7E7E7E7E7E7E7E7E7E7E7E7E7E7E7E7E7E7E7
310
E7E7E7E7E7E7E7E7E7E7E7E7E7E7E7E7E7E7E7E7E7E7E7E7E7E7E7E7E7E7E7E7E7E7E7E7E7E7E7E7E7E7E7E7E7E7E7E7E7E7E7E7E7E7E7E7E7E7E7E7E7E7E7E7E7E7E7E7E7E7E7E7E7E7E7E7E7E7E7E7E7E7E7E7E7E7E7E7E7E7E7E7E7E7E7E7E7E7E7E7E7E7E7E7E7E7E7E7E7E7E7E7E7E7E7E7E7E7E7E7E7E7E7E7E7E7E7
310
E7E7E7E7E7E7E7E7E7E7E7E7E7E7E7E7E7E7E7E7E7E7E7E7E7E7E7E7E7E7E7E7E7E7E7E7E7E7E7E7E7E7E7E7E7E7E7E7E7E7E7E7E7E7E7E7E7E7E7E7E7E7E7E7E7E7E7E7E7E7E7E7E7E7E7E7E7E7E7E7E7E7E7E7E7E7E7E7E7E7E7E7E7E7E7E7E7E7E7E7E7E7E7E7E7E7E7E7E7E7E7E7E7E7E7E7E7E7E7E7E7E7E7E7E7E7E7
310
E7E7E7E7E7E7E7E7E7E7E7E7E7E7E7E7E7E7E7E7E7E7E7E7E7E7E7E7E7E7E7E7E7E7E7E7E7E7E7E7E7E7E7E7E7E7E7E7E7E7E7E7E7E7E7E7E7E7E7E7E7E7E7E7E7E7E7E7E7E7E7E7E7E7E7E7E7E7E7E7E7E7E7E7E7E7E7E7E7E7E7E7E7E7E7E7E7E7E7E7E7E7E7E7E7E7E7E7E7E7E7E7E7E7E7E7E7E7E7E7E7E7E7E7E7E7E7
310
E7E7E7E7E7E7E7E7E7E7E7E7E7E7E7E7E7E7E7E7E7E7E7E7E7E7E7E7E7E7E7E7E7E7E7E7E7E7E7E7E7E7E7E7E7E7E7E7E7E7E7E7E7E7E7E7E7E7E7E7E7E7E7E7E7E7E7E7E7E7E7E7E7E7E7E7E7E7E7E7E7E7E7E7E7E7E7E7E7E7E7E7E7E7E7E7E7E7E7E7E7E7E7E7E7E7E7E7E7E7E7E7E7E7E7E7E7E7E7E7E7E7E7E7E7E7E7
310
E7E7E7E7E7E7E7E7E7E7E7E7E7E7E7E7E7E7E7E7E7E7E7E7E7E7E7E7E7E7E7E7E7E7E7E7E7E7E7E7E7E7E7E7E7E7E7E7E7E7E7E7E7E7E7E7E7E7E7E7E7E7E7E7E7E7E7E7E7E7E7E7E7E7E7E7E7E7E7E7E7E7E7E7E7E7E7E7E7E7E7E7E7E7E7E7E7E7E7E7E7E7E7E7E7E7E7E7E7E7E7E7E7E7E7E7E7E7E7E7E7E7E7E7E7E7E7
310
E7E7E7E7E7E7E7E7E7E7E7E7E7E7E7E7E7E7E7E7E7E7E7E7E7E7E7E7E7E7E7E7E7E7E7E7E7E7E7E7E7E7E7E7E7E7E7E7E7E7E7E7E7E7E7E7E7E7E7E7E7E7E7E7E7E7E7E7E7E7E7E7E7E7E7E7E7E7E7E7E7E7E7E7E7E7E7E7E7E7E7E7E7E7E7E7E7E7E7E7E7E7E7E7E7E7E7E7E7E7E7E7E7E7E7E7E7E7E7E7E7E7E7E7E7E7E7
310
E7E7E7E7E7E7E7E7E7E7E7E7E7E7E7E7E7E7E7E7E7E7E7E7E7E7E7E7E7E7E7E7E7E7E7E7E7E7E7E7E7E7E7E7E7E7E7E7E7E7E7E7E7E7E7E7E7E7E7E7E7E7E7E7E7E7E7E7E7E7E7E7E7E7E7E7E7E7E7E7E7E7E7E7E7E7E7E7E7E7E7E7E7E7E7E7E7E7E7E7E7E7E7E7E7E7E7E7E7E7E7E7E7E7E7E7E7E7E7E7E7E7E7E7E7E7E7
310
E7E7E7E7E7E7E7E7E7E7E7E7E7E7E7E7E7E7E7E7E7E7E7E7E7E7E7E7E7E7E7E7E7E7E7E7E7E7E7E7E7E7E7E7E7E7E7E7E7E7E7E7E7E7E7E7E7E7E7E7E7E7E7E7E7E7E7E7E7E7E7E7E7E7E7E7E7E7E7E7E7E7E7E7E7E7E7E7E7E7E7E7E7E7E7E7E7E7E7E7E7E7E7E7E7E7E7E7E7E7E7E7E7E7E7E7E7E7E7E7E7E7E7E7E7E7E7
310
E7E7E7E7E7E7E7E7E7E7E7E7E7E7E7E7E7E7E7E7E7E7E7E7E7E7E7E7E7E7E7E7E7E7E7E7E7E7E7E7E7E7E7E7E7E7E7E7E7E7E7E7E7E7E7E7E7E7E7E7E7E7E7E7E7E7E7E7E7E7E7E7E7E7E7E7E7E7E7E7E7E7E7E7E7E7E7E7E7E7E7E7E7E7E7E7E7E7E7E7E7E7E7E7E7E7E7E7E7E7E7E7E7E7E7E7E7E7E7E7E7E7E7E7E7E7E7
310
E7E7E7E7E7E7E7E7E7E7E7E7E7E7E7E7E7E7E7E7E7E7E7E7E7E7E7E7E7E7E7E7E7E7E7E7E7E7E7E7E7E7E7E7E7E7E7E7E7E7E7E7E7E7E7E7E7E7E7E7E7E7E7E7E7E7E7E7E7E7E7E7E7E7E7E7E7E7E7E7E7E7E7E7E7E7E7E7E7E7E7E7E7E7E7E7E7E7E7E7E7E7E7E7E7E7E7E7E7E7E7E7E7E7E7E7E7E7E7E7E7E7E7E7E7E7E7
310
E7E7E7E7E7E7E7E7E7E7E7E7E7E7E7E7E7E7E7E7E7E7E7E7E7E7E7E7E7E7E7E7E7E7E7E7E7E7E7E7E7E7E7E7E7E7E7E7E7E7E7E7E7E7E7E7E7E7E7E7E7E7E7E7E7E7E7E7E7E7E7E7E7E7E7E7E7E7E7E7E7E7E7E7E7E7E7E7E7E7E7E7E7E7E7E7E7E7E7E7E7E7E7E7E7E7E7E7E7E7E7E7E7E7E7E7E7E7E7E7E7E7E7E7E7E7E7
310
E7E7E7E7E7E7E7E7E7E7E7E7E7E7E7E7E7E7E7E7E7E7E7E7E7E7E7E7E7E7E7E7E7E7E7E7E7E7E7E7E7E7E7E7E7E7E7E7E7E7E7E7E7E7E7E7E7E7E7E7E7E7E7E7E7E7E7E7E7E7E7E7E7E7E7E7E7E7E7E7E7E7E7E7E7E7E7E7E7E7E7E7E7E7E7E7E7E7E7E7E7E7E7E7E7E7E7E7E7E7E7E7E7E7E7E7E7E7E7E7E7E7E7E7E7E7E7
310
E7E7E7E7E7E7E7E7E7E7E7E7E7E7E7E7E7E7E7E7E7E7E7E7E7E7E7E7E7E7E7E7E7E7E7E7E7E7E7E7E7E7E7E7E7E7E7E7E7E7E7E7E7E7E7E7E7E7E7E7E7E7E7E7E7E7E7E7E7E7E7E7E7E7E7E7E7E7E7E7E7E7E7E7E7E7E7E7E7E7E7E7E7E7E7E7E7E7E7E7E7E7E7E7E7E7E7E7E7E7E7E7E7E7E7E7E7E7E7E7E7E7E7E7E7E7E7
310
E7E7E7E7E7E7E7E7E7E7E7E7E7E7E7E7E7E7E7E7E7E7E7E7E7E7E7E7E7E7E7E7E7E7E7E7E7E7E7E7E7E7E7E7E7E7E7E7E7E7E7E7E7E7E7E7E7E7E7E7E7E7E7E7E7E7E7E7E7E7E7E7E7E7E7E7E7E7E7E7E7E7E7E7E7E7E7E7E7E7E7E7E7E7E7E7E7E7E7E7E7E7E7E7E7E7E7E7E7E7E7E7E7E7E7E7E7E7E7E7E7E7E7E7E7E7E7
310
E7E7E7E7E7E7E7E7E7E7E7E7E7E7E7E7E7E7E7E7E7E7E7E7E7E7E7E7E7E7E7E7E7E7E7E7E7E7E7E7E7E7E7E7E7E7E7E7E7E7E7E7E7E7E7E7E7E7E7E7E7E7E7E7E7E7E7E7E7E7E7E7E7E7E7E7E7E7E7E7E7E7E7E7E7E7E7E7E7E7E7E7E7E7E7E7E7E7E7E7E7E7E7E7E7E7E7E7E7E7E7E7E7E7E7E7E7E7E7E7E7E7E7E7E7E7E7
310
E7E7E7E7E7E7E7E7E7E7E7E7E7E7E7E7E7E7E7E7E7E7E7E7E7E7E7E7E7E7E7E7E7E7E7E7E7E7E7E7E7E7E7E7E7E7E7E7E7E7E7E7E7E7E7E7E7E7E7E7E7E7E7E7E7E7E7E7E7E7E7E7E7E7E7E7E7E7E7E7E7E7E7E7E7E7E7E7E7E7E7E7E7E7E7E7E7E7E7E7E7E7E7E7E7E7E7E7E7E7E7E7E7E7E7E7E7E7E7E7E7E7E7E7E7E7E7
310
E7E7E7E7E7E7E7E7E7E7E7E7E7E7E7E7E7E7E7E7E7E7E7E7E7E7E7E7E7E7E7E7E7E7E7E7E7E7E7E7E7E7E7E7E7E7E7E7E7E7E7E7E7E7E7E7E7E7E7E7E7E7E7E7E7E7E7E7E7E7E7E7E7E7E7E7E7E7E7E7E7E7E7E7E7E7E7E7E7E7E7E7E7E7E7E7E7E7E7E7E7E7E7E7E7E7E7E7E7E7E7E7E7E7E7E7E7E7E7E7E7E7E7E7E7E7E7
310
E7E7E7E7E7E7E7E7E7E7E7E7E7E7E7E7E7E7E7E7E7E7E7E7E7E7E7E7E7E7E7E7E7E7E7E7E7E7E7E7E7E7E7E7E7E7E7E7E7E7E7E7E7E7E7E7E7E7E7E7E7E7E7E7E7E7E7E7E7E7E7E7E7E7E7E7E7E7E7E7E7E7E7E7E7E7E7E7E7E7E7E7E7E7E7E7E7E7E7E7E7E7E7E7E7E7E7E7E7E7E7E7E7E7E7E7E7E7E7E7E7E7E7E7E7E7E7
310
E7E7E7E7E7E7E7E7E7E7E7E7E7E7E7E7E7E7E7E7E7E7E7E7E7E7E7E7E7E7E7E7E7E7E7E7E7E7E7E7E7E7E7E7E7E7E7E7E7E7E7E7E7E7E7E7E7E7E7E7E7E7E7E7E7E7E7E7E7E7E7E7E7E7E7E7E7E7E7E7E7E7E7E7E7E7E7E7E7E7E7E7E7E7E7E7E7E7E7E7E7E7E7E7E7E7E7E7E7E7E7E7E7E7E7E7E7E7E7E7E7E7E7E7E7E7E7
310
E7E7E7E7E7E7E7E7E7E7E7E7E7E7E7E7E7E7E7E7E7E7E7E7E7E7E7E7E7E7E7E7E7E7E7E7E7E7E7E7E7E7E7E7E7E7E7E7E7E7E7E7E7E7E7E7E7E7E7E7E7E7E7E7E7E7E7E7E7E7E7E7E7E7E7E7E7E7E7E7E7E7E7E7E7E7E7E7E7E7E7E7E7E7E7E7E7E7E7E7E7E7E7E7E7E7E7E7E7E7E7E7E7E7E7E7E7E7E7E7E7E7E7E7E7E7E7
310
E7E7E7E7E7E7E7E7E7E7E7E7E7E7E7E7E7E7E7E7E7E7E7E7E7E7E7E7E7E7E7E7E7E7E7E7E7E7E7E7E7E7E7E7E7E7E7E7E7E7E7E7E7E7E7E7E7E7E7E7E7E7E7E7E7E7E7E7E7E7E7E7E7E7E7E7E7E7E7E7E7E7E7E7E7E7E7E7E7E7E7E7E7E7E7E7E7E7E7E7E7E7E7E7E7E7E7E7E7E7E7E7E7E7E7E7E7E7E7E7E7E7E7E7E7E7E7
310
E7E7E7E7E7E7E7E7E7E7E7E7E7E7E7E7E7E7E7E7E7E7E7E7E7E7E7E7E7E7E7E7E7E7E7E7E7E7E7E7E7E7E7E7E7E7E7E7E7E7E7E7E7E7E7E7E7E7E7E7E7E7E7E7E7E7E7E7E7E7E7E7E7E7E7E7E7E7E7E7E7E7E7E7E7E7E7E7E7E7E7E7E7E7E7E7E7E7E7E7E7E7E7E7E7E7E7E7E7E7E7E7E7E7E7E7E7E7E7E7E7E7E7E7E7E7E7
310
E7E7E7E7E7E7E7E7E7E7E7E7E7E7E7E7E7E7E7E7E7E7E7E7E7E7E7E7E7E7E7E7E7E7E7E7E7E7E7E7E7E7E7E7E7E7E7E7E7E7E7E7E7E7E7E7E7E7E7E7E7E7E7E7E7E7E7E7E7E7E7E7E7E7E7E7E7E7E7E7E7E7E7E7E7E7E7E7E7E7E7E7E7E7E7E7E7E7E7E7E7E7E7E7E7E7E7E7E7E7E7E7E7E7E7E7E7E7E7E7E7E7E7E7E7E7E7
310
E7E7E7E7E7E7E7E7E7E7E7E7E7E7E7E7E7E7E7E7E7E7E7E7E7E7E7E7E7E7E7E7E7E7E7E7E7E7E7E7E7E7E7E7E7E7E7E7E7E7E7E7E7E7E7E7E7E7E7E7E7E7E7E7E7E7E7E7E7E7E7E7E7E7E7E7E7E7E7E7E7E7E7E7E7E7E7E7E7E7E7E7E7E7E7E7E7E7E7E7E7E7E7E7E7E7E7E7E7E7E7E7E7E7E7E7E7E7E7E7E7E7E7E7E7E7E7
310
E7E7E7E7E7E7E7E7E7E7E7E7E7E7E7E7E7E7E7E7E7E7E7E7E7E7E7E7E7E7E7E7E7E7E7E7E7E7E7E7E7E7E7E7E7E7E7E7E7E7E7E7E7E7E7E7E7E7E7E7E7E7E7E7E7E7E7E7E7E7E7E7E7E7E7E7E7E7E7E7E7E7E7E7E7E7E7E7E7E7E7E7E7E7E7E7E7E7E7E7E7E7E7E7E7E7E7E7E7E7E7E7E7E7E7E7E7E7E7E7E7E7E7E7E7E7E7
310
E7E7E7E7E7E7E7E7E7E7E7E7E7E7E7E7E7E7E7E7E7E7E7E7E7E7E7E7E7E7E7E7E7E7E7E7E7E7E7E7E7E7E7E7E7E7E7E7E7E7E7E7E7E7E7E7E7E7E7E7E7E7E7E7E7E7E7E7E7E7E7E7E7E7E7E7E7E7E7E7E7E7E7E7E7E7E7E7E7E7E7E7E7E7E7E7E7E7E7E7E7E7E7E7E7E7E7E7E7E7E7E7E7E7E7E7E7E7E7E7E7E7E7E7E7E7E7
310
E7E7E7E7E7E7E7E7E7E7E7E7E7E7E7E7E7E7E7E7E7E7E7E7E7E7E7E7E7E7E7E7E7E7E7E7E7E7E7E7E7E7E7E7E7E7E7E7E7E7E7E7E7E7E7E7E7E7E7E7E7E7E7E7E7E7E7E7E7E7E7E7E7E7E7E7E7E7E7E7E7E7E7E7E7E7E7E7E7E7E7E7E7E7E7E7E7E7E7E7E7E7E7E7E7E7E7E7E7E7E7E7E7E7E7E7E7E7E7E7E7E7E7E7E7E7E7
310
E7E7E7E7E7E7E7E7E7E7E7E7E7E7E7E7E7E7E7E7E7E7E7E7E7E7E7E7E7E7E7E7E7E7E7E7E7E7E7E7E7E7E7E7E7E7E7E7E7E7E7E7E7E7E7E7E7E7E7E7E7E7E7E7E7E7E7E7E7E7E7E7E7E7E7E7E7E7E7E7E7E7E7E7E7E7E7E7E7E7E7E7E7E7E7E7E7E7E7E7E7E7E7E7E7E7E7E7E7E7E7E7E7E7E7E7E7E7E7E7E7E7E7E7E7E7E7
310
E7E7E7E7E7E7E7E7E7E7E7E7E7E7E7E7E7E7E7E7E7E7E7E7E7E7E7E7E7E7E7E7E7E7E7E7E7E7E7E7E7E7E7E7E7E7E7E7E7E7E7E7E7E7E7E7E7E7E7E7E7E7E7E7E7E7E7E7E7E7E7E7E7E7E7E7E7E7E7E7E7E7E7E7E7E7E7E7E7E7E7E7E7E7E7E7E7E7E7E7E7E7E7E7E7E7E7E7E7E7E7E7E7E7E7E7E7E7E7E7E7E7E7E7E7E7E7
310
E7E7E7E7E7E7E7E7E7E7E7E7E7E7E7E7E7E7E7E7E7E7E7E7E7E7E7E7E7E7E7E7E7E7E7E7E7E7E7E7E7E7E7E7E7E7E7E7E7E7E7E7E7E7E7E7E7E7E7E7E7E7E7E7E7E7E7E7E7E7E7E7E7E7E7E7E7E7E7E7E7E7E7E7E7E7E7E7E7E7E7E7E7E7E7E7E7E7E7E7E7E7E7E7E7E7E7E7E7E7E7E7E7E7E7E7E7E7E7E7E7E7E7E7E7E7E7
310
E7E7E7E7E7E7E7E7E7E7E7E7E7E7E7E7E7E7E7E7E7E7E7E7E7E7E7E7E7E7E7E7E7E7E7E7E7E7E7E7E7E7E7E7E7E7E7E7E7E7E7E7E7E7E7E7E7E7E7E7E7E7E7E7E7E7E7E7E7E7E7E7E7E7E7E7E7E7E7E7E7E7E7E7E7E7E7E7E7E7E7E7E7E7E7E7E7E7E7E7E7E7E7E7E7E7E7E7E7E7E7E7E7E7E7E7E7E7E7E7E7E7E7E7E7E7E7
310
E7E7E7E7E7E7E7E7E7E7E7E7E7E7E7E7E7E7E7E7E7E7E7E7E7E7E7E7E7E7E7E7E7E7E7E7E7E7E7E7E7E7E7E7E7E7E7E7E7E7E7E7E7E7E7E7E7E7E7E7E7E7E7E7E7E7E7E7E7E7E7E7E7E7E7E7E7E7E7E7E7E7E7E7E7E7E7E7E7E7E7E7E7E7E7E7E7E7E7E7E7E7E7E7E7E7E7E7E7E7E7E7E7E7E7E7E7E7E7E7E7E7E7E7E7E7E7
310
E7E7E7E7E7E7E7E7E7E7E7E7E7E7E7E7E7E7E7E7E7E7E7E7E7E7E7E7E7E7E7E7E7E7E7E7E7E7E7E7E7E7E7E7E7E7E7E7E7E7E7E7E7E7E7E7E7E7E7E7E7E7E7E7E7E7E7E7E7E7E7E7E7E7E7E7E7E7E7E7E7E7E7E7E7E7E7E7E7E7E7E7E7E7E7E7E7E7E7E7E7E7E7E7E7E7E7E7E7E7E7E7E7E7E7E7E7E7E7E7E7E7E7E7E7E7E7
310
E7E7E7E7E7E7E7E7E7E7E7E7E7E7E7E7E7E7E7E7E7E7E7E7E7E7E7E7E7E7E7E7E7E7E7E7E7E7E7E7E7E7E7E7E7E7E7E7E7E7E7E7E7E7E7E7E7E7E7E7E7E7E7E7E7E7E7E7E7E7E7E7E7E7E7E7E7E7E7E7E7E7E7E7E7E7E7E7E7E7E7E7E7E7E7E7E7E7E7E7E7E7E7E7E7E7E7E7E7E7E7E7E7E7E7E7E7E7E7E7E7E7E7E7E7E7E7
310
E7E7E7E7E7E7E7E7E7E7E7E7E7E7E7E7E7E7E7E7E7E7E7E7E7E7E7E7E7E7E7E7E7E7E7E7E7E7E7E7E7E7E7E7E7E7E7E7E7E7E7E7E7E7E7E7E7E7E7E7E7E7E7E7E7E7E7E7E7E7E7E7E7E7E7E7E7E7E7E7E7E7E7E7E7E7E7E7E7E7E7E7E7E7E7E7E7E7E7E7E7E7E7E7E7E7E7E7E7E7E7E7E7E7E7E7E7E7E7E7E7E7E7E7E7E7E7
310
E7E7E7E7E7E7E7E7E7E7E7E7E7E7E7E7E7E7E7E7E7E7E7E7E7E7E7E7E7E7E7E7E7E7E7E7E7E7E7E7E7E7E7E7E7E7E7E7E7E7E7E7E7E7E7E7E7E7E7E7E7E7E7E7E7E7E7E7E7E7E7E7E7E7E7E7E7E7E7E7E7E7E7E7E7E7E7E7E7E7E7E7E7E7E7E7E7E7E7E7E7E7E7E7E7E7E7E7E7E7E7E7E7E7E7E7E7E7E7E7E7E7E7E7E7E7E7
310
E7E7E7E7E7E7E7E7E7E7E7E7E7E7E7E7E7E7E7E7E7E7E7E7E7E7E7E7E7E7E7E7E7E7E7E7E7E7E7E7E7E7E7E7E7E7E7E7E7E7E7E7E7E7E7E7E7E7E7E7E7E7E7E7E7E7E7E7E7E7E7E7E7E7E7E7E7E7E7E7E7E7E7E7E7E7E7E7E7E7E7E7E7E7E7E7E7E7E7E7E7E7E7E7E7E7E7E7E7E7E7E7E7E7E7E7E7E7E7E7E7E7E7E7E7E7E7
310
E7E7E7E7E7E7E7E7E7E7E7E7E7E7E7E7E7E7E7E7E7E7E7E7E7E7E7E7E7E7E7E7E7E7E7E7E7E7E7E7E7E7E7E7E7E7E7E7E7E7E7E7E7E7E7E7E7E7E7E7E7E7E7E7E7E7E7E7E7E7E7E7E7E7E7E7E7E7E7E7E7E7E7E7E7E7E7E7E7E7E7E7E7E7E7E7E7E7E7E7E7E7E7E7E7E7E7E7E7E7E7E7E7E7E7E7E7E7E7E7E7E7E7E7E7E7E7
310
E7E7E7E7E7E7E7E7E7E7E7E7E7E7E7E7E7E7E7E7E7E7E7E7E7E7E7E7E7E7E7E7E7E7E7E7E7E7E7E7E7E7E7E7E7E7E7E7E7E7E7E7E7E7E7E7E7E7E7E7E7E7E7E7E7E7E7E7E7E7E7E7E7E7E7E7E7E7E7E7E7E7E7E7E7E7E7E7E7E7E7E7E7E7E7E7E7E7E7E7E7E7E7E7E7E7E7E7E7E7E7E7E7E7E7E7E7E7E7E7E7E7E7E7E7E7E7
310
E7E7E7E7E7E7E7E7E7E7E7E7E7E7E7E7E7E7E7E7E7E7E7E7E7E7E7E7E7E7E7E7E7E7E7E7E7E7E7E7E7E7E7E7E7E7E7E7E7E7E7E7E7E7E7E7E7E7E7E7E7E7E7E7E7E7E7E7E7E7E7E7E7E7E7E7E7E7E7E7E7E7E7E7E7E7E7E7E7E7E7E7E7E7E7E7E7E7E7E7E7E7E7E7E7E7E7E7E7E7E7E7E7E7E7E7E7E7E7E7E7E7E7E7E7E7E7
310
E7E7E7E7E7E7E7E7E7E7E7E7E7E7E7E7E7E7E7E7E7E7E7E7E7E7E7E7E7E7E7E7E7E7E7E7E7E7E7E7E7E7E7E7E7E7E7E7E7E7E7E7E7E7E7E7E7E7E7E7E7E7E7E7E7E7E7E7E7E7E7E7E7E7E7E7E7E7E7E7E7E7E7E7E7E7E7E7E7E7E7E7E7E7E7E7E7E7E7E7E7E7E7E7E7E7E7E7E7E7E7E7E7E7E7E7E7E7E7E7E7E7E7E7E7E7E7
310
E7E7E7E7E7E7E7E7E7E7E7E7E7E7E7E7E7E7E7E7E7E7E7E7E7E7E7E7E7E7E7E7E7E7E7E7E7E7E7E7E7E7E7E7E7E7E7E7E7E7E7E7E7E7E7E7E7E7E7E7E7E7E7E7E7E7E7E7E7E7E7E7E7E7E7E7E7E7E7E7E7E7E7E7E7E7E7E7E7E7E7E7E7E7E7E7E7E7E7E7E7E7E7E7E7E7E7E7E7E7E7E7E7E7E7E7E7E7E7E7E7E7E7E7E7E7E7
310
E7E7E7E7E7E7E7E7E7E7E7E7E7E7E7E7E7E7E7E7E7E7E7E7E7E7E7E7E7E7E7E7E7E7E7E7E7E7E7E7E7E7E7E7E7E7E7E7E7E7E7E7E7E7E7E7E7E7E7E7E7E7E7E7E7E7E7E7E7E7E7E7E7E7E7E7E7E7E7E7E7E7E7E7E7E7E7E7E7E7E7E7E7E7E7E7E7E7E7E7E7E7E7E7E7E7E7E7E7E7E7E7E7E7E7E7E7E7E7E7E7E7E7E7E7E7E7
310
E7E7E7E7E7E7E7E7E7E7E7E7E7E7E7E7E7E7E7E7E7E7E7E7E7E7E7E7E7E7E7E7E7E7E7E7E7E7E7E7E7E7E7E7E7E7E7E7E7E7E7E7E7E7E7E7E7E7E7E7E7E7E7E7E7E7E7E7E7E7E7E7E7E7E7E7E7E7E7E7E7E7E7E7E7E7E7E7E7E7E7E7E7E7E7E7E7E7E7E7E7E7E7E7E7E7E7E7E7E7E7E7E7E7E7E7E7E7E7E7E7E7E7E7E7E7E7
310
E7E7E7E7E7E7E7E7E7E7E7E7E7E7E7E7E7E7E7E7E7E7E7E7E7E7E7E7E7E7E7E7E7E7E7E7E7E7E7E7E7E7E7E7E7E7E7E7E7E7E7E7E7E7E7E7E7E7E7E7E7E7E7E7E7E7E7E7E7E7E7E7E7E7E7E7E7E7E7E7E7E7E7E7E7E7E7E7E7E7E7E7E7E7E7E7E7E7E7E7E7E7E7E7E7E7E7E7E7E7E7E7E7E7E7E7E7E7E7E7E7E7E7E7E7E7E7
310
E7E7E7E7E7E7E7E7E7E7E7E7E7E7E7E7E7E7E7E7E7E7E7E7E7E7E7E7E7E7E7E7E7E7E7E7E7E7E7E7E7E7E7E7E7E7E7E7E7E7E7E7E7E7E7E7E7E7E7E7E7E7E7E7E7E7E7E7E7E7E7E7E7E7E7E7E7E7E7E7E7E7E7E7E7E7E7E7E7E7E7E7E7E7E7E7E7E7E7E7E7E7E7E7E7E7E7E7E7E7E7E7E7E7E7E7E7E7E7E7E7E7E7E7E7E7E7
310
E7E7E7E7E7E7E7E7E7E7E7E7E7E7E7E7E7E7E7E7E7E7E7E7E7E7E7E7E7E7E7E7E7E7E7E7E7E7E7E7E7E7E7E7E7E7E7E7E7E7E7E7E7E7E7E7E7E7E7E7E7E7E7E7E7E7E7E7E7E7E7E7E7E7E7E7E7E7E7E7E7E7E7E7E7E7E7E7E7E7E7E7E7E7E7E7E7E7E7E7E7E7E7E7E7E7E7E7E7E7E7E7E7E7E7E7E7E7E7E7E7E7E7E7E7E7E7
310
E7E7E7E7E7E7E7E7E7E7E7E7E7E7E7E7E7E7E7E7E7E7E7E7E7E7E7E7E7E7E7E7E7E7E7E7E7E7E7E7E7E7E7E7E7E7E7E7E7E7E7E7E7E7E7E7E7E7E7E7E7E7E7E7E7E7E7E7E7E7E7E7E7E7E7E7E7E7E7E7E7E7E7E7E7E7E7E7E7E7E7E7E7E7E7E7E7E7E7E7E7E7E7E7E7E7E7E7E7E7E7E7E7E7E7E7E7E7E7E7E7E7E7E7E7E7E7
310
E7E7E7E7E7E7E7E7E7E7E7E7E7E7E7E7E7E7E7E7E7E7E7E7E7E7E7E7E7E7E7E7E7E7E7E7E7E7E7E7E7E7E7E7E7E7E7E7E7E7E7E7E7E7E7E7E7E7E7E7E7E7E7E7E7E7E7E7E7E7E7E7E7E7E7E7E7E7E7E7E7E7E7E7E7E7E7E7E7E7E7E7E7E7E7E7E7E7E7E7E7E7E7E7E7E7E7E7E7E7E7E7E7E7E7E7E7E7E7E7E7E7E7E7E7E7E7
310
E7E7E7E7E7E7E7E7E7E7E7E7E7E7E7E7E7E7E7E7E7E7E7E7E7E7E7E7E7E7E7E7E7E7E7E7E7E7E7E7E7E7E7E7E7E7E7E7E7E7E7E7E7E7E7E7E7E7E7E7E7E7E7E7E7E7E7E7E7E7E7E7E7E7E7E7E7E7E7E7E7E7E7E7E7E7E7E7E7E7E7E7E7E7E7E7E7E7E7E7E7E7E7E7E7E7E7E7E7E7E7E7E7E7E7E7E7E7E7E7E7E7E7E7E7E7E7
310
E7E7E7E7E7E7E7E7E7E7E7E7E7E7E7E7E7E7E7E7E7E7E7E7E7E7E7E7E7E7E7E7E7E7E7E7E7E7E7E7E7E7E7E7E7E7E7E7E7E7E7E7E7E7E7E7E7E7E7E7E7E7E7E7E7E7E7E7E7E7E7E7E7E7E7E7E7E7E7E7E7E7E7E7E7E7E7E7E7E7E7E7E7E7E7E7E7E7E7E7E7E7E7E7E7E7E7E7E7E7E7E7E7E7E7E7E7E7E7E7E7E7E7E7E7E7E7
310
E7E7E7E7E7E7E7E7E7E7E7E7E7E7E7E7E7E7E7E7E7E7E7E7E7E7E7E7E7E7E7E7E7E7E7E7E7E7E7E7E7E7E7E7E7E7E7E7E7E7E7E7E7E7E7E7E7E7E7E7E7E7E7E7E7E7E7E7E7E7E7E7E7E7E7E7E7E7E7E7E7E7E7E7E7E7E7E7E7E7E7E7E7E7E7E7E7E7E7E7E7E7E7E7E7E7E7E7E7E7E7E7E7E7E7E7E7E7E7E7E7E7E7E7E7E7E7
310
E7E7E7E7E7E7E7E7E7E7E7E7E7E7E7E7E7E7E7E7E7E7E7E7E7E7E7E7E7E7E7E7E7E7E7E7E7E7E7E7E7E7E7E7E7E7E7E7E7E7E7E7E7E7E7E7E7E7E7E7E7E7E7E7E7E7E7E7E7E7E7E7E7E7E7E7E7E7E7E7E7E7E7E7E7E7E7E7E7E7E7E7E7E7E7E7E7E7E7E7E7E7E7E7E7E7E7E7E7E7E7E7E7E7E7E7E7E7E7E7E7E7E7E7E7E7E7
310
E7E7E7E7E7E7E7E7E7E7E7E7E7E7E7E7E7E7E7E7E7E7E7E7E7E7E7E7E7E7E7E7E7E7E7E7E7E7E7E7E7E7E7E7E7E7E7E7E7E7E7E7E7E7E7E7E7E7E7E7E7E7E7E7E7E7E7E7E7E7E7E7E7E7E7E7E7E7E7E7E7E7E7E7E7E7E7E7E7E7E7E7E7E7E7E7E7E7E7E7E7E7E7E7E7E7E7E7E7E7E7E7E7E7E7E7E7E7E7E7E7E7E7E7E7E7E7
310
E7E7E7E7E7E7E7E7E7E7E7E7E7E7E7E7E7E7E7E7E7E7E7E7E7E7E7E7E7E7E7E7E7E7E7E7E7E7E7E7E7E7E7E7E7E7E7E7E7E7E7E7E7E7E7E7E7E7E7E7E7E7E7E7E7E7E7E7E7E7E7E7E7E7E7E7E7E7E7E7E7E7E7E7E7E7E7E7E7E7E7E7E7E7E7E7E7E7E7E7E7E7E7E7E7E7E7E7E7E7E7E7E7E7E7E7E7E7E7E7E7E7E7E7E7E7E7
310
E7E7E7E7E7E7E7E7E7E7E7E7E7E7E7E7E7E7E7E7E7E7E7E7E7E7E7E7E7E7E7E7E7E7E7E7E7E7E7E7E7E7E7E7E7E7E7E7E7E7E7E7E7E7E7E7E7E7E7E7E7E7E7E7E7E7E7E7E7E7E7E7E7E7E7E7E7E7E7E7E7E7E7E7E7E7E7E7E7E7E7E7E7E7E7E7E7E7E7E7E7E7E7E7E7E7E7E7E7E7E7E7E7E7E7E7E7E7E7E7E7E7E7E7E7E7E7
310
E7E7E7E7E7E7E7E7E7E7E7E7E7E7E7E7E7E7E7E7E7E7E7E7E7E7E7E7E7E7E7E7E7E7E7E7E7E7E7E7E7E7E7E7E7E7E7E7E7E7E7E7E7E7E7E7E7E7E7E7E7E7E7E7E7E7E7E7E7E7E7E7E7E7E7E7E7E7E7E7E7E7E7E7E7E7E7E7E7E7E7E7E7E7E7E7E7E7E7E7E7E7E7E7E7E7E7E7E7E7E7E7E7E7E7E7E7E7E7E7E7E7E7E7E7E7E7
310
E7E7E7E7E7E7E7E7E7E7E7E7E7E7E7E7E7E7E7E7E7E7E7E7E7E7E7E7E7E7E7E7E7E7E7E7E7E7E7E7E7E7E7E7E7E7E7E7E7E7E7E7E7E7E7E7E7E7E7E7E7E7E7E7E7E7E7E7E7E7E7E7E7E7E7E7E7E7E7E7E7E7E7E7E7E7E7E7E7E7E7E7E7E7E7E7E7E7E7E7E7E7E7E7E7E7E7E7E7E7E7E7E7E7E7E7E7E7E7E7E7E7E7E7E7E7E7
310
E7E7E7E7E7E7E7E7E7E7E7E7E7E7E7E7E7E7E7E7E7E7E7E7E7E7E7E7E7E7E7E7E7E7E7E7E7E7E7E7E7E7E7E7E7E7E7E7E7E7E7E7E7E7E7E7E7E7E7E7E7E7E7E7E7E7E7E7E7E7E7E7E7E7E7E7E7E7E7E7E7E7E7E7E7E7E7E7E7E7E7E7E7E7E7E7E7E7E7E7E7E7E7E7E7E7E7E7E7E7E7E7E7E7E7E7E7E7E7E7E7E7E7E7E7E7E7
310
E7E7E7E7E7E7E7E7E7E7E7E7E7E7E7E7E7E7E7E7E7E7E7E7E7E7E7E7E7E7E7E7E7E7E7E7E7E7E7E7E7E7E7E7E7E7E7E7E7E7E7E7E7E7E7E7E7E7E7E7E7E7E7E7E7E7E7E7E7E7E7E7E7E7E7E7E7E7E7E7E7E7E7E7E7E7E7E7E7E7E7E7E7E7E7E7E7E7E7E7E7E7E7E7E7E7E7E7E7E7E7E7E7E7E7E7E7E7E7E7E7E7E7E7E7E7E7
310
E7E7E7E7E7E7E7E7E7E7E7E7E7E7E7E7E7E7E7E7E7E7E7E7E7E7E7E7E7E7E7E7E7E7E7E7E7E7E7E7E7E7E7E7E7E7E7E7E7E7E7E7E7E7E7E7E7E7E7E7E7E7E7E7E7E7E7E7E7E7E7E7E7E7E7E7E7E7E7E7E7E7E7E7E7E7E7E7E7E7E7E7E7E7E7E7E7E7E7E7E7E7E7E7E7E7E7E7E7E7E7E7E7E7E7E7E7E7E7E7E7E7E7E7E7E7E7
310
E7E7E7E7E7E7E7E7E7E7E7E7E7E7E7E7E7E7E7E7E7E7E7E7E7E7E7E7E7E7E7E7E7E7E7E7E7E7E7E7E7E7E7E7E7E7E7E7E7E7E7E7E7E7E7E7E7E7E7E7E7E7E7E7E7E7E7E7E7E7E7E7E7E7E7E7E7E7E7E7E7E7E7E7E7E7E7E7E7E7E7E7E7E7E7E7E7E7E7E7E7E7E7E7E7E7E7E7E7E7E7E7E7E7E7E7E7E7E7E7E7E7E7E7E7E7E7
310
E7E7E7E7E7E7E7E7E7E7E7E7E7E7E7E7E7E7E7E7E7E7E7E7E7E7E7E7E7E7E7E7E7E7E7E7E7E7E7E7E7E7E7E7E7E7E7E7E7E7E7E7E7E7E7E7E7E7E7E7E7E7E7E7E7E7E7E7E7E7E7E7E7E7E7E7E7E7E7E7E7E7E7E7E7E7E7E7E7E7E7E7E7E7E7E7E7E7E7E7E7E7E7E7E7E7E7E7E7E7E7E7E7E7E7E7E7E7E7E7E7E7E7E7E7E7E7
310
E7E7E7E7E7E7E7E7E7E7E7E7E7E7E7E7E7E7E7E7E7E7E7E7E7E7E7E7E7E7E7E7E7E7E7E7E7E7E7E7E7E7E7E7E7E7E7E7E7E7E7E7E7E7E7E7E7E7E7E7E7E7E7E7E7E7E7E7E7E7E7E7E7E7E7E7E7E7E7E7E7E7E7E7E7E7E7E7E7E7E7E7E7E7E7E7E7E7E7E7E7E7E7E7E7E7E7E7E7E7E7E7E7E7E7E7E7E7E7E7E7E7E7E7E7E7E7
310
E7E7E7E7E7E7E7E7E7E7E7E7E7E7E7E7E7E7E7E7E7E7E7E7E7E7E7E7E7E7E7E7E7E7E7E7E7E7E7E7E7E7E7E7E7E7E7E7E7E7E7E7E7E7E7E7E7E7E7E7E7E7E7E7E7E7E7E7E7E7E7E7E7E7E7E7E7E7E7E7E7E7E7E7E7E7E7E7E7E7E7E7E7E7E7E7E7E7E7E7E7E7E7E7E7E7E7E7E7E7E7E7E7E7E7E7E7E7E7E7E7E7E7E7E7E7E7
310
E7E7E7E7E7E7E7E7E7E7E7E7E7E7E7E7E7E7E7E7E7E7E7E7E7E7E7E7E7E7E7E7E7E7E7E7E7E7E7E7E7E7E7E7E7E7E7E7E7E7E7E7E7E7E7E7E7E7E7E7E7E7E7E7E7E7E7E7E7E7E7E7E7E7E7E7E7E7E7E7E7E7E7E7E7E7E7E7E7E7E7E7E7E7E7E7E7E7E7E7E7E7E7E7E7E7E7E7E7E7E7E7E7E7E7E7E7E7E7E7E7E7E7E7E7E7E7
310
E7E7E7E7E7E7E7E7E7E7E7E7E7E7E7E7E7E7E7E7E7E7E7E7E7E7E7E7E7E7E7E7E7E7E7E7E7E7E7E7E7E7E7E7E7E7E7E7E7E7E7E7E7E7E7E7E7E7E7E7E7E7E7E7E7E7E7E7E7E7E7E7E7E7E7E7E7E7E7E7E7E7E7E7E7E7E7E7E7E7E7E7E7E7E7E7E7E7E7E7E7E7E7E7E7E7E7E7E7E7E7E7E7E7E7E7E7E7E7E7E7E7E7E7E7E7E7
310
E7E7E7E7E7E7E7E7E7E7E7E7E7E7E7E7E7E7E7E7E7E7E7E7E7E7E7E7E7E7E7E7E7E7E7E7E7E7E7E7E7E7E7E7E7E7E7E7E7E7E7E7E7E7E7E7E7E7E7E7E7E7E7E7E7E7E7E7E7E7E7E7E7E7E7E7E7E7E7E7E7E7E7E7E7E7E7E7E7E7E7E7E7E7E7E7E7E7E7E7E7E7E7E7E7E7E7E7E7E7E7E7E7E7E7E7E7E7E7E7E7E7E7E7E7E7E7
310
E7E7E7E7E7E7E7E7E7E7E7E7E7E7E7E7E7E7E7E7E7E7E7E7E7E7E7E7E7E7E7E7E7E7E7E7E7E7E7E7E7E7E7E7E7E7E7E7E7E7E7E7E7E7E7E7E7E7E7E7E7E7E7E7E7E7E7E7E7E7E7E7E7E7E7E7E7E7E7E7E7E7E7E7E7E7E7E7E7E7E7E7E7E7E7E7E7E7E7E7E7E7E7E7E7E7E7E7E7E7E7E7E7E7E7E7E7E7E7E7E7E7E7E7E7E7E7
310
E7E7E7E7E7E7E7E7E7E7E7E7E7E7E7E7E7E7E7E7E7E7E7E7E7E7E7E7E7E7E7E7E7E7E7E7E7E7E7E7E7E7E7E7E7E7E7E7E7E7E7E7E7E7E7E7E7E7E7E7E7E7E7E7E7E7E7E7E7E7E7E7E7E7E7E7E7E7E7E7E7E7E7E7E7E7E7E7E7E7E7E7E7E7E7E7E7E7E7E7E7E7E7E7E7E7E7E7E7E7E7E7E7E7E7E7E7E7E7E7E7E7E7E7E7E7E7
310
E7E7E7E7E7E7E7E7E7E7E7E7E7E7E7E7E7E7E7E7E7E7E7E7E7E7E7E7E7E7E7E7E7E7E7E7E7E7E7E7E7E7E7E7E7E7E7E7E7E7E7E7E7E7E7E7E7E7E7E7E7E7E7E7E7E7E7E7E7E7E7E7E7E7E7E7E7E7E7E7E7E7E7E7E7E7E7E7E7E7E7E7E7E7E7E7E7E7E7E7E7E7E7E7E7E7E7E7E7E7E7E7E7E7E7E7E7E7E7E7E7E7E7E7E7E7E7
310
E7E7E7E7E7E7E7E7E7E7E7E7E7E7E7E7E7E7E7E7E7E7E7E7E7E7E7E7E7E7E7E7E7E7E7E7E7E7E7E7E7E7E7E7E7E7E7E7E7E7E7E7E7E7E7E7E7E7E7E7E7E7E7E7E7E7E7E7E7E7E7E7E7E7E7E7E7E7E7E7E7E7E7E7E7E7E7E7E7E7E7E7E7E7E7E7E7E7E7E7E7E7E7E7E7E7E7E7E7E7E7E7E7E7E7E7E7E7E7E7E7E7E7E7E7E7E7
310
E7E7E7E7E7E7E7E7E7E7E7E7E7E7E7E7E7E7E7E7E7E7E7E7E7E7E7E7E7E7E7E7E7E7E7E7E7E7E7E7E7E7E7E7E7E7E7E7E7E7E7E7E7E7E7E7E7E7E7E7E7E7E7E7E7E7E7E7E7E7E7E7E7E7E7E7E7E7E7E7E7E7E7E7E7E7E7E7E7E7E7E7E7E7E7E7E7E7E7E7E7E7E7E7E7E7E7E7E7E7E7E7E7E7E7E7E7E7E7E7E7E7E7E7E7E7E7
310
E7E7E7E7E7E7E7E7E7E7E7E7E7E7E7E7E7E7E7E7E7E7E7E7E7E7E7E7E7E7E7E7E7E7E7E7E7E7E7E7E7E7E7E7E7E7E7E7E7E7E7E7E7E7E7E7E7E7E7E7E7E7E7E7E7E7E7E7E7E7E7E7E7E7E7E7E7E7E7E7E7E7E7E7E7E7E7E7E7E7E7E7E7E7E7E7E7E7E7E7E7E7E7E7E7E7E7E7E7E7E7E7E7E7E7E7E7E7E7E7E7E7E7E7E7E7E7
310
E7E7E7E7E7E7E7E7E7E7E7E7E7E7E7E7E7E7E7E7E7E7E7E7E7E7E7E7E7E7E7E7E7E7E7E7E7E7E7E7E7E7E7E7E7E7E7E7E7E7E7E7E7E7E7E7E7E7E7E7E7E7E7E7E7E7E7E7E7E7E7E7E7E7E7E7E7E7E7E7E7E7E7E7E7E7E7E7E7E7E7E7E7E7E7E7E7E7E7E7E7E7E7E7E7E7E7E7E7E7E7E7E7E7E7E7E7E7E7E7E7E7E7E7E7E7E7
310
E7E7E7E7E7E7E7E7E7E7E7E7E7E7E7E7E7E7E7E7E7E7E7E7E7E7E7E7E7E7E7E7E7E7E7E7E7E7E7E7E7E7E7E7E7E7E7E7E7E7E7E7E7E7E7E7E7E7E7E7E7E7E7E7E7E7E7E7E7E7E7E7E7E7E7E7E7E7E7E7E7E7E7E7E7E7E7E7E7E7E7E7E7E7E7E7E7E7E7E7E7E7E7E7E7E7E7E7E7E7E7E7E7E7E7E7E7E7E7E7E7E7E7E7E7E7E7
310
E7E7E7E7E7E7E7E7E7E7E7E7E7E7E7E7E7E7E7E7E7E7E7E7E7E7E7E7E7E7E7E7E7E7E7E7E7E7E7E7E7E7E7E7E7E7E7E7E7E7E7E7E7E7E7E7E7E7E7E7E7E7E7E7E7E7E7E7E7E7E7E7E7E7E7E7E7E7E7E7E7E7E7E7E7E7E7E7E7E7E7E7E7E7E7E7E7E7E7E7E7E7E7E7E7E7E7E7E7E7E7E7E7E7E7E7E7E7E7E7E7E7E7E7E7E7E7
310
E7E7E7E7E7E7E7E7E7E7E7E7E7E7E7E7E7E7E7E7E7E7E7E7E7E7E7E7E7E7E7E7E7E7E7E7E7E7E7E7E7E7E7E7E7E7E7E7E7E7E7E7E7E7E7E7E7E7E7E7E7E7E7E7E7E7E7E7E7E7E7E7E7E7E7E7E7E7E7E7E7E7E7E7E7E7E7E7E7E7E7E7E7E7E7E7E7E7E7E7E7E7E7E7E7E7E7E7E7E7E7E7E7E7E7E7E7E7E7E7E7E7E7E7E7E7E7
310
E7E7E7E7E7E7E7E7E7E7E7E7E7E7E7E7E7E7E7E7E7E7E7E7E7E7E7E7E7E7E7E7E7E7E7E7E7E7E7E7E7E7E7E7E7E7E7E7E7E7E7E7E7E7E7E7E7E7E7E7E7E7E7E7E7E7E7E7E7E7E7E7E7E7E7E7E7E7E7E7E7E7E7E7E7E7E7E7E7E7E7E7E7E7E7E7E7E7E7E7E7E7E7E7E7E7E7E7E7E7E7E7E7E7E7E7E7E7E7E7E7E7E7E7E7E7E7
310
E7E7E7E7E7E7E7E7E7E7E7E7E7E7E7E7E7E7E7E7E7E7E7E7E7E7E7E7E7E7E7E7E7E7E7E7E7E7E7E7E7E7E7E7E7E7E7E7E7E7E7E7E7E7E7E7E7E7E7E7E7E7E7E7E7E7E7E7E7E7E7E7E7E7E7E7E7E7E7E7E7E7E7E7E7E7E7E7E7E7E7E7E7E7E7E7E7E7E7E7E7E7E7E7E7E7E7E7E7E7E7E7E7E7E7E7E7E7E7E7E7E7E7E7E7E7E7
310
E7E7E7E7E7E7E7E7E7E7E7E7E7E7E7E7E7E7E7E7E7E7E7E7E7E7E7E7E7E7E7E7E7E7E7E7E7E7E7E7E7E7E7E7E7E7E7E7E7E7E7E7E7E7E7E7E7E7E7E7E7E7E7E7E7E7E7E7E7E7E7E7E7E7E7E7E7E7E7E7E7E7E7E7E7E7E7E7E7E7E7E7E7E7E7E7E7E7E7E7E7E7E7E7E7E7E7E7E7E7E7E7E7E7E7E7E7E7E7E7E7E7E7E7E7E7E7
310
E7E7E7E7E7E7E7E7E7E7E7E7E7E7E7E7E7E7E7E7E7E7E7E7E7E7E7E7E7E7E7E7E7E7E7E7E7E7E7E7E7E7E7E7E7E7E7E7E7E7E7E7E7E7E7E7E7E7E7E7E7E7E7E7E7E7E7E7E7E7E7E7E7E7E7E7E7E7E7E7E7E7E7E7E7E7E7E7E7E7E7E7E7E7E7E7E7E7E7E7E7E7E7E7E7E7E7E7E7E7E7E7E7E7E7E7E7E7E7E7E7E7E7E7E7E7E7
310
E7E7E7E7E7E7E7E7E7E7E7E7E7E7E7E7E7E7E7E7E7E7E7E7E7E7E7E7E7E7E7E7E7E7E7E7E7E7E7E7E7E7E7E7E7E7E7E7E7E7E7E7E7E7E7E7E7E7E7E7E7E7E7E7E7E7E7E7E7E7E7E7E7E7E7E7E7E7E7E7E7E7E7E7E7E7E7E7E7E7E7E7E7E7E7E7E7E7E7E7E7E7E7E7E7E7E7E7E7E7E7E7E7E7E7E7E7E7E7E7E7E7E7E7E7E7E7
310
E7E7E7E7E7E7E7E7E7E7E7E7E7E7E7E7E7E7E7E7E7E7E7E7E7E7E7E7E7E7E7E7E7E7E7E7E7E7E7E7E7E7E7E7E7E7E7E7E7E7E7E7E7E7E7E7E7E7E7E7E7E7E7E7E7E7E7E7E7E7E7E7E7E7E7E7E7E7E7E7E7E7E7E7E7E7E7E7E7E7E7E7E7E7E7E7E7E7E7E7E7E7E7E7E7E7E7E7E7E7E7E7E7E7E7E7E7E7E7E7E7E7E7E7E7E7E7
310
E7E7E7E7E7E7E7E7E7E7E7E7E7E7E7E7E7E7E7E7E7E7E7E7E7E7E7E7E7E7E7E7E7E7E7E7E7E7E7E7E7E7E7E7E7E7E7E7E7E7E7E7E7E7E7E7E7E7E7E7E7E7E7E7E7E7E7E7E7E7E7E7E7E7E7E7E7E7E7E7E7E7E7E7E7E7E7E7E7E7E7E7E7E7E7E7E7E7E7E7E7E7E7E7E7E7E7E7E7E7E7E7E7E7E7E7E7E7E7E7E7E7E7E7E7E7E7
310
E7E7E7E7E7E7E7E7E7E7E7E7E7E7E7E7E7E7E7E7E7E7E7E7E7E7E7E7E7E7E7E7E7E7E7E7E7E7E7E7E7E7E7E7E7E7E7E7E7E7E7E7E7E7E7E7E7E7E7E7E7E7E7E7E7E7E7E7E7E7E7E7E7E7E7E7E7E7E7E7E7E7E7E7E7E7E7E7E7E7E7E7E7E7E7E7E7E7E7E7E7E7E7E7E7E7E7E7E7E7E7E7E7E7E7E7E7E7E7E7E7E7E7E7E7E7E7
310
E7E7E7E7E7E7E7E7E7E7E7E7E7E7E7E7E7E7E7E7E7E7E7E7E7E7E7E7E7E7E7E7E7E7E7E7E7E7E7E7E7E7E7E7E7E7E7E7E7E7E7E7E7E7E7E7E7E7E7E7E7E7E7E7E7E7E7E7E7E7E7E7E7E7E7E7E7E7E7E7E7E7E7E7E7E7E7E7E7E7E7E7E7E7E7E7E7E7E7E7E7E7E7E7E7E7E7E7E7E7E7E7E7E7E7E7E7E7E7E7E7E7E7E7E7E7E7
310
E7E7E7E7E7E7E7E7E7E7E7E7E7E7E7E7E7E7E7E7E7E7E7E7E7E7E7E7E7E7E7E7E7E7E7E7E7E7E7E7E7E7E7E7E7E7E7E7E7E7E7E7E7E7E7E7E7E7E7E7E7E7E7E7E7E7E7E7E7E7E7E7E7E7E7E7E7E7E7E7E7E7E7E7E7E7E7E7E7E7E7E7E7E7E7E7E7E7E7E7E7E7E7E7E7E7E7E7E7E7E7E7E7E7E7E7E7E7E7E7E7E7E7E7E7E7E7
310
E7E7E7E7E7E7E7E7E7E7E7E7E7E7E7E7E7E7E7E7E7E7E7E7E7E7E7E7E7E7E7E7E7E7E7E7E7E7E7E7E7E7E7E7E7E7E7E7E7E7E7E7E7E7E7E7E7E7E7E7E7E7E7E7E7E7E7E7E7E7E7E7E7E7E7E7E7E7E7E7E7E7E7E7E7E7E7E7E7E7E7E7E7E7E7E7E7E7E7E7E7E7E7E7E7E7E7E7E7E7E7E7E7E7E7E7E7E7E7E7E7E7E7E7E7E7E7
310
E7E7E7E7E7E7E7E7E7E7E7E7E7E7E7E7E7E7E7E7E7E7E7E7E7E7E7E7E7E7E7E7E7E7E7E7E7E7E7E7E7E7E7E7E7E7E7E7E7E7E7E7E7E7E7E7E7E7E7E7E7E7E7E7E7E7E7E7E7E7E7E7E7E7E7E7E7E7E7E7E7E7E7E7E7E7E7E7E7E7E7E7E7E7E7E7E7E7E7E7E7E7E7E7E7E7E7E7E7E7E7E7E7E7E7E7E7E7E7E7E7E7E7E7E7E7E7
310
E7E7E7E7E7E7E7E7E7E7E7E7E7E7E7E7E7E7E7E7E7E7E7E7E7E7E7E7E7E7E7E7E7E7E7E7E7E7E7E7E7E7E7E7E7E7E7E7E7E7E7E7E7E7E7E7E7E7E7E7E7E7E7E7E7E7E7E7E7E7E7E7E7E7E7E7E7E7E7E7E7E7E7E7E7E7E7E7E7E7E7E7E7E7E7E7E7E7E7E7E7E7E7E7E7E7E7E7E7E7E7E7E7E7E7E7E7E7E7E7E7E7E7E7E7E7E7
310
E7E7E7E7E7E7E7E7E7E7E7E7E7E7E7E7E7E7E7E7E7E7E7E7E7E7E7E7E7E7E7E7E7E7E7E7E7E7E7E7E7E7E7E7E7E7E7E7E7E7E7E7E7E7E7E7E7E7E7E7E7E7E7E7E7E7E7E7E7E7E7E7E7E7E7E7E7E7E7E7E7E7E7E7E7E7E7E7E7E7E7E7E7E7E7E7E7E7E7E7E7E7E7E7E7E7E7E7E7E7E7E7E7E7E7E7E7E7E7E7E7E7E7E7E7E7E7
310
E7E7E7E7E7E7E7E7E7E7E7E7E7E7E7E7E7E7E7E7E7E7E7E7E7E7E7E7E7E7E7E7E7E7E7E7E7E7E7E7E7E7E7E7E7E7E7E7E7E7E7E7E7E7E7E7E7E7E7E7E7E7E7E7E7E7E7E7E7E7E7E7E7E7E7E7E7E7E7E7E7E7E7E7E7E7E7E7E7E7E7E7E7E7E7E7E7E7E7E7E7E7E7E7E7E7E7E7E7E7E7E7E7E7E7E7E7E7E7E7E7E7E7E7E7E7E7
310
E7E7E7E7E7E7E7E7E7E7E7E7E7E7E7E7E7E7E7E7E7E7E7E7E7E7E7E7E7E7E7E7E7E7E7E7E7E7E7E7E7E7E7E7E7E7E7E7E7E7E7E7E7E7E7E7E7E7E7E7E7E7E7E7E7E7E7E7E7E7E7E7E7E7E7E7E7E7E7E7E7E7E7E7E7E7E7E7E7E7E7E7E7E7E7E7E7E7E7E7E7E7E7E7E7E7E7E7E7E7E7E7E7E7E7E7E7E7E7E7E7E7E7E7E7E7E7
310
E7E7E7E7E7E7E7E7E7E7E7E7E7E7E7E7E7E7E7E7E7E7E7E7E7E7E7E7E7E7E7E7E7E7E7E7E7E7E7E7E7E7E7E7E7E7E7E7E7E7E7E7E7E7E7E7E7E7E7E7E7E7E7E7E7E7E7E7E7E7E7E7E7E7E7E7E7E7E7E7E7E7E7E7E7E7E7E7E7E7E7E7E7E7E7E7E7E7E7E7E7E7E7E7E7E7E7E7E7E7E7E7E7E7E7E7E7E7E7E7E7E7E7E7E7E7E7
310
E7E7E7E7E7E7E7E7E7E7E7E7E7E7E7E7E7E7E7E7E7E7E7E7E7E7E7E7E7E7E7E7E7E7E7E7E7E7E7E7E7E7E7E7E7E7E7E7E7E7E7E7E7E7E7E7E7E7E7E7E7E7E7E7E7E7E7E7E7E7E7E7E7E7E7E7E7E7E7E7E7E7E7E7E7E7E7E7E7E7E7E7E7E7E7E7E7E7E7E7E7E7E7E7E7E7E7E7E7E7E7E7E7E7E7E7E7E7E7E7E7E7E7E7E7E7E7
310
E7E7E7E7E7E7E7E7E7E7E7E7E7E7E7E7E7E7E7E7E7E7E7E7E7E7E7E7E7E7E7E7E7E7E7E7E7E7E7E7E7E7E7E7E7E7E7E7E7E7E7E7E7E7E7E7E7E7E7E7E7E7E7E7E7E7E7E7E7E7E7E7E7E7E7E7E7E7E7E7E7E7E7E7E7E7E7E7E7E7E7E7E7E7E7E7E7E7E7E7E7E7E7E7E7E7E7E7E7E7E7E7E7E7E7E7E7E7E7E7E7E7E7E7E7E7E7
310
E7E7E7E7E7E7E7E7E7E7E7E7E7E7E7E7E7E7E7E7E7E7E7E7E7E7E7E7E7E7E7E7E7E7E7E7E7E7E7E7E7E7E7E7E7E7E7E7E7E7E7E7E7E7E7E7E7E7E7E7E7E7E7E7E7E7E7E7E7E7E7E7E7E7E7E7E7E7E7E7E7E7E7E7E7E7E7E7E7E7E7E7E7E7E7E7E7E7E7E7E7E7E7E7E7E7E7E7E7E7E7E7E7E7E7E7E7E7E7E7E7E7E7E7E7E7E7
310
E7E7E7E7E7E7E7E7E7E7E7E7E7E7E7E7E7E7E7E7E7E7E7E7E7E7E7E7E7E7E7E7E7E7E7E7E7E7E7E7E7E7E7E7E7E7E7E7E7E7E7E7E7E7E7E7E7E7E7E7E7E7E7E7E7E7E7E7E7E7E7E7E7E7E7E7E7E7E7E7E7E7E7E7E7E7E7E7E7E7E7E7E7E7E7E7E7E7E7E7E7E7E7E7E7E7E7E7E7E7E7E7E7E7E7E7E7E7E7E7E7E7E7E7E7E7E7
310
E7E7E7E7E7E7E7E7E7E7E7E7E7E7E7E7E7E7E7E7E7E7E7E7E7E7E7E7E7E7E7E7E7E7E7E7E7E7E7E7E7E7E7E7E7E7E7E7E7E7E7E7E7E7E7E7E7E7E7E7E7E7E7E7E7E7E7E7E7E7E7E7E7E7E7E7E7E7E7E7E7E7E7E7E7E7E7E7E7E7E7E7E7E7E7E7E7E7E7E7E7E7E7E7E7E7E7E7E7E7E7E7E7E7E7E7E7E7E7E7E7E7E7E7E7E7E7
310
E7E7E7E7E7E7E7E7E7E7E7E7E7E7E7E7E7E7E7E7E7E7E7E7E7E7E7E7E7E7E7E7E7E7E7E7E7E7E7E7E7E7E7E7E7E7E7E7E7E7E7E7E7E7E7E7E7E7E7E7E7E7E7E7E7E7E7E7E7E7E7E7E7E7E7E7E7E7E7E7E7E7E7E7E7E7E7E7E7E7E7E7E7E7E7E7E7E7E7E7E7E7E7E7E7E7E7E7E7E7E7E7E7E7E7E7E7E7E7E7E7E7E7E7E7E7E7
310
E7E7E7E7E7E7E7E7E7E7E7E7E7E7E7E7E7E7E7E7E7E7E7E7E7E7E7E7E7E7E7E7E7E7E7E7E7E7E7E7E7E7E7E7E7E7E7E7E7E7E7E7E7E7E7E7E7E7E7E7E7E7E7E7E7E7E7E7E7E7E7E7E7E7E7E7E7E7E7E7E7E7E7E7E7E7E7E7E7E7E7E7E7E7E7E7E7E7E7E7E7E7E7E7E7E7E7E7E7E7E7E7E7E7E7E7E7E7E7E7E7E7E7E7E7E7E7
310
E7E7E7E7E7E7E7E7E7E7E7E7E7E7E7E7E7E7E7E7E7E7E7E7E7E7E7E7E7E7E7E7E7E7E7E7E7E7E7E7E7E7E7E7E7E7E7E7
  0
XRECORD
  5
2167B
102
{ACAD_REACTORS
330
19DD6
102
}
330
19DD6
100
AcDbXrecord
280
     1
102
MATERIAL
148
0.0
149
0.0
149
0.0
 93
        0
 94
      127
282
     0
 72
     0
 77
     0
171
     0
175
     0
179
     0
273
     0
  0
XRECORD
  5
19DD8
102
{ACAD_REACTORS
330
19DD6
102
}
330
19DD6
100
AcDbXrecord
280
     1
270
     1
271
     1
  0
XRECORD
  5
19DD7
102
{ACAD_REACTORS
330
19DD6
102
}
330
19DD6
100
AcDbXrecord
280
     1
270
     1
271
     1
  0
XRECORD
  5
19DDB
102
{ACAD_REACTORS
330
19DD6
102
}
330
19DD6
100
AcDbXrecord
280
     1
270
     1
271
     1
  0
XRECORD
  5
19DDA
102
{ACAD_REACTORS
330
19DD6
102
}
330
19DD6
100
AcDbXrecord
280
     1
270
     1
271
     1
  0
XRECORD
  5
19DDC
102
{ACAD_REACTORS
330
19DD6
102
}
330
19DD6
100
AcDbXrecord
280
     1
270
     1
271
     1
  0
XRECORD
  5
19DD9
102
{ACAD_REACTORS
330
19DD6
102
}
330
19DD6
100
AcDbXrecord
280
     1
270
     1
271
     1
  0
XRECORD
  5
2167A
102
{ACAD_REACTORS
330
19DCE
102
}
330
19DCE
100
AcDbXrecord
280
     1
102
MATERIAL
148
0.0
149
0.0
149
0.0
 93
        0
 94
      127
282
     0
 72
     0
 77
     0
171
     0
175
     0
179
     0
273
     0
  0
XRECORD
  5
19DD0
102
{ACAD_REACTORS
330
19DCE
102
}
330
19DCE
100
AcDbXrecord
280
     1
270
     1
271
     1
  0
XRECORD
  5
19DCF
102
{ACAD_REACTORS
330
19DCE
102
}
330
19DCE
100
AcDbXrecord
280
     1
270
     1
271
     1
  0
XRECORD
  5
19DD3
102
{ACAD_REACTORS
330
19DCE
102
}
330
19DCE
100
AcDbXrecord
280
     1
270
     1
271
     1
  0
XRECORD
  5
19DD2
102
{ACAD_REACTORS
330
19DCE
102
}
330
19DCE
100
AcDbXrecord
280
     1
270
     1
271
     1
  0
XRECORD
  5
19DD4
102
{ACAD_REACTORS
330
19DCE
102
}
330
19DCE
100
AcDbXrecord
280
     1
270
     1
271
     1
  0
XRECORD
  5
19DD1
102
{ACAD_REACTORS
330
19DCE
102
}
330
19DCE
100
AcDbXrecord
280
     1
270
     1
271
     1
  0
XRECORD
  5
2167C
102
{ACAD_REACTORS
330
19DDE
102
}
330
19DDE
100
AcDbXrecord
280
     1
102
MATERIAL
148
0.0
149
0.0
149
0.0
 93
        0
 94
      127
282
     0
 72
     0
 77
     0
171
     0
175
     0
179
     0
273
     0
  0
XRECORD
  5
19DE0
102
{ACAD_REACTORS
330
19DDE
102
}
330
19DDE
100
AcDbXrecord
280
     1
270
     1
271
     1
  0
XRECORD
  5
19DDF
102
{ACAD_REACTORS
330
19DDE
102
}
330
19DDE
100
AcDbXrecord
280
     1
270
     1
271
     1
  0
XRECORD
  5
19DE3
102
{ACAD_REACTORS
330
19DDE
102
}
330
19DDE
100
AcDbXrecord
280
     1
270
     1
271
     1
  0
XRECORD
  5
19DE2
102
{ACAD_REACTORS
330
19DDE
102
}
330
19DDE
100
AcDbXrecord
280
     1
270
     1
271
     1
  0
XRECORD
  5
19DE4
102
{ACAD_REACTORS
330
19DDE
102
}
330
19DDE
100
AcDbXrecord
280
     1
270
     1
271
     1
  0
XRECORD
  5
19DE1
102
{ACAD_REACTORS
330
19DDE
102
}
330
19DDE
100
AcDbXrecord
280
     1
270
     1
271
     1
  0
CELLSTYLEMAP
  5
21672
102
{ACAD_REACTORS
330
1ABD4
102
}
330
1ABD4
100
AcDbCellStyleMap
 90
        3
300
CELLSTYLE
  1
TABLEFORMAT_BEGIN
 90
        5
170
     1
 91
        0
 92
    32768
 62
   257
 93
        1
300
CONTENTFORMAT
  1
CONTENTFORMAT_BEGIN
 90
        0
 91
        0
 92
        4
 93
        0
300

 40
0.0
140
1.0
 94
        5
 62
     0
340
F
144
6.0
309
CONTENTFORMAT_END
171
     1
301
MARGIN
  1
CELLMARGIN_BEGIN
 40
1.5
 40
1.5
 40
1.5
 40
1.5
 40
0.18
 40
0.18
309
CELLMARGIN_END
 94
        6
 95
        1
302
GRIDFORMAT
  1
GRIDFORMAT_BEGIN
 90
        0
 91
        1
 62
     0
 92
       -2
340
0
 93
        0
 40
0.045
309
GRIDFORMAT_END
 95
        2
302
GRIDFORMAT
  1
GRIDFORMAT_BEGIN
 90
        0
 91
        1
 62
     0
 92
       -2
340
0
 93
        0
 40
0.045
309
GRIDFORMAT_END
 95
        4
302
GRIDFORMAT
  1
GRIDFORMAT_BEGIN
 90
        0
 91
        1
 62
     0
 92
       -2
340
0
 93
        0
 40
0.045
309
GRIDFORMAT_END
 95
        8
302
GRIDFORMAT
  1
GRIDFORMAT_BEGIN
 90
        0
 91
        1
 62
     0
 92
       -2
340
0
 93
        0
 40
0.045
309
GRIDFORMAT_END
 95
       16
302
GRIDFORMAT
  1
GRIDFORMAT_BEGIN
 90
        0
 91
        1
 62
     0
 92
       -2
340
0
 93
        0
 40
0.045
309
GRIDFORMAT_END
 95
       32
302
GRIDFORMAT
  1
GRIDFORMAT_BEGIN
 90
        0
 91
        1
 62
     0
 92
       -2
340
0
 93
        0
 40
0.045
309
GRIDFORMAT_END
309
TABLEFORMAT_END
  1
CELLSTYLE_BEGIN
 90
        1
 91
        1
300
_TITLE
309
CELLSTYLE_END
300
CELLSTYLE
  1
TABLEFORMAT_BEGIN
 90
        5
170
     1
 91
        0
 92
        0
 62
   257
 93
        1
300
CONTENTFORMAT
  1
CONTENTFORMAT_BEGIN
 90
        0
 91
        0
 92
        4
 93
        0
300

 40
0.0
140
1.0
 94
        5
 62
     0
340
F
144
4.5
309
CONTENTFORMAT_END
171
     1
301
MARGIN
  1
CELLMARGIN_BEGIN
 40
1.5
 40
1.5
 40
1.5
 40
1.5
 40
0.18
 40
0.18
309
CELLMARGIN_END
 94
        6
 95
        1
302
GRIDFORMAT
  1
GRIDFORMAT_BEGIN
 90
        0
 91
        1
 62
     0
 92
       -2
340
0
 93
        0
 40
0.045
309
GRIDFORMAT_END
 95
        2
302
GRIDFORMAT
  1
GRIDFORMAT_BEGIN
 90
        0
 91
        1
 62
     0
 92
       -2
340
0
 93
        0
 40
0.045
309
GRIDFORMAT_END
 95
        4
302
GRIDFORMAT
  1
GRIDFORMAT_BEGIN
 90
        0
 91
        1
 62
     0
 92
       -2
340
0
 93
        0
 40
0.045
309
GRIDFORMAT_END
 95
        8
302
GRIDFORMAT
  1
GRIDFORMAT_BEGIN
 90
        0
 91
        1
 62
     0
 92
       -2
340
0
 93
        0
 40
0.045
309
GRIDFORMAT_END
 95
       16
302
GRIDFORMAT
  1
GRIDFORMAT_BEGIN
 90
        0
 91
        1
 62
     0
 92
       -2
340
0
 93
        0
 40
0.045
309
GRIDFORMAT_END
 95
       32
302
GRIDFORMAT
  1
GRIDFORMAT_BEGIN
 90
        0
 91
        1
 62
     0
 92
       -2
340
0
 93
        0
 40
0.045
309
GRIDFORMAT_END
309
TABLEFORMAT_END
  1
CELLSTYLE_BEGIN
 90
        2
 91
        1
300
_HEADER
309
CELLSTYLE_END
300
CELLSTYLE
  1
TABLEFORMAT_BEGIN
 90
        5
170
     1
 91
        0
 92
        0
 62
   257
 93
        1
300
CONTENTFORMAT
  1
CONTENTFORMAT_BEGIN
 90
        0
 91
        0
 92
        4
 93
        0
300

 40
0.0
140
1.0
 94
        2
 62
     0
340
F
144
4.5
309
CONTENTFORMAT_END
171
     1
301
MARGIN
  1
CELLMARGIN_BEGIN
 40
1.5
 40
1.5
 40
1.5
 40
1.5
 40
0.18
 40
0.18
309
CELLMARGIN_END
 94
        6
 95
        1
302
GRIDFORMAT
  1
GRIDFORMAT_BEGIN
 90
        0
 91
        1
 62
     0
 92
       -2
340
0
 93
        0
 40
0.045
309
GRIDFORMAT_END
 95
        2
302
GRIDFORMAT
  1
GRIDFORMAT_BEGIN
 90
        0
 91
        1
 62
     0
 92
       -2
340
0
 93
        0
 40
0.045
309
GRIDFORMAT_END
 95
        4
302
GRIDFORMAT
  1
GRIDFORMAT_BEGIN
 90
        0
 91
        1
 62
     0
 92
       -2
340
0
 93
        0
 40
0.045
309
GRIDFORMAT_END
 95
        8
302
GRIDFORMAT
  1
GRIDFORMAT_BEGIN
 90
        0
 91
        1
 62
     0
 92
       -2
340
0
 93
        0
 40
0.045
309
GRIDFORMAT_END
 95
       16
302
GRIDFORMAT
  1
GRIDFORMAT_BEGIN
 90
        0
 91
        1
 62
     0
 92
       -2
340
0
 93
        0
 40
0.045
309
GRIDFORMAT_END
 95
       32
302
GRIDFORMAT
  1
GRIDFORMAT_BEGIN
 90
        0
 91
        1
 62
     0
 92
       -2
340
0
 93
        0
 40
0.045
309
GRIDFORMAT_END
309
TABLEFORMAT_END
  1
CELLSTYLE_BEGIN
 90
        3
 91
        2
300
_DATA
309
CELLSTYLE_END
  0
XRECORD
  5
21679
102
{ACAD_REACTORS
330
1ABD4
102
}
330
1ABD4
100
AcDbXrecord
280
     1
102
ACAD_ROUNDTRIP_PRE2007_TABLESTYLE
 90
        4
 91
        0
  1

 92
        4
 93
        0
  2

 94
        4
 95
        0
  3

  0
XRECORD
  5
214DC
102
{ACAD_REACTORS
330
214DB
102
}
330
214DB
100
AcDbXrecord
280
     1
102
RTVSPropertyOp28
 70
     1
102
RTVSPropertyOp29
 70
     1
102
RTVSPropertyOp30
 70
     1
102
RTVSPropertyOp31
 70
     1
102
RTVSPropertyOp32
 70
     1
102
RTVSPropertyOp0
 70
     1
102
RTVSPropertyOp1
 70
     1
102
RTVSPropertyOp2
 70
     1
102
RTVSPropertyOp3
 70
     1
102
RTVSPropertyOp4
 70
     1
102
RTVSPropertyOp5
 70
     1
102
RTVSPropertyOp6
 70
     1
102
RTVSPropertyOp7
 70
     1
102
RTVSPropertyOp8
 70
     1
102
RTVSPropertyOp9
 70
     1
102
RTVSPropertyOp10
 70
     1
102
RTVSPropertyOp11
 70
     1
102
RTVSPropertyOp12
 70
     1
102
RTVSPropertyOp13
 70
     1
102
RTVSPropertyOp14
 70
     1
102
RTVSPropertyOp15
 70
     1
102
RTVSPropertyOp16
 70
     1
102
RTVSPropertyOp17
 70
     1
102
RTVSPropertyOp18
 70
     1
102
RTVSPropertyOp19
 70
     1
102
RTVSPropertyOp20
 70
     1
102
RTVSPropertyOp21
 70
     1
102
RTVSPropertyOp22
 70
     1
102
RTVSPropertyOp23
 70
     1
102
RTVSPropertyOp24
 70
     1
102
RTVSPropertyOp25
 70
     1
102
RTVSPropertyOp26
 70
     1
102
RTVSPropertyOp27
 70
     1
  0
XRECORD
  5
214E0
102
{ACAD_REACTORS
330
214DF
102
}
330
214DF
100
AcDbXrecord
280
     1
102
RTVSPropertyOp28
 70
     1
102
RTVSPropertyOp29
 70
     1
102
RTVSPropertyOp30
 70
     1
102
RTVSPropertyOp31
 70
     1
102
RTVSPropertyOp32
 70
     1
102
RTVSPropertyOp0
 70
     1
102
RTVSPropertyOp1
 70
     1
102
RTVSPropertyOp2
 70
     1
102
RTVSPropertyOp3
 70
     1
102
RTVSPropertyOp4
 70
     1
102
RTVSPropertyOp5
 70
     1
102
RTVSPropertyOp6
 70
     1
102
RTVSPropertyOp7
 70
     1
102
RTVSPropertyOp8
 70
     1
102
RTVSPropertyOp9
 70
     1
102
RTVSPropertyOp10
 70
     1
102
RTVSPropertyOp11
 70
     1
102
RTVSPropertyOp12
 70
     1
102
RTVSPropertyOp13
 70
     1
102
RTVSPropertyOp14
 70
     1
102
RTVSPropertyOp15
 70
     1
102
RTVSPropertyOp16
 70
     1
102
RTVSPropertyOp17
 70
     1
102
RTVSPropertyOp18
 70
     1
102
RTVSPropertyOp19
 70
     1
102
RTVSPropertyOp20
 70
     1
102
RTVSPropertyOp21
 70
     1
102
RTVSPropertyOp22
 70
     1
102
RTVSPropertyOp23
 70
     1
102
RTVSPropertyOp24
 70
     1
102
RTVSPropertyOp25
 70
     1
102
RTVSPropertyOp26
 70
     1
102
RTVSPropertyOp27
 70
     1
  0
XRECORD
  5
214DE
102
{ACAD_REACTORS
330
214DD
102
}
330
214DD
100
AcDbXrecord
280
     1
102
RTVSPropertyOp28
 70
     1
102
RTVSPropertyOp29
 70
     1
102
RTVSPropertyOp30
 70
     1
102
RTVSPropertyOp31
 70
     1
102
RTVSPropertyOp32
 70
     1
102
RTVSPropertyOp0
 70
     1
102
RTVSPropertyOp1
 70
     1
102
RTVSPropertyOp2
 70
     1
102
RTVSPropertyOp3
 70
     1
102
RTVSPropertyOp4
 70
     1
102
RTVSPropertyOp5
 70
     1
102
RTVSPropertyOp6
 70
     1
102
RTVSPropertyOp7
 70
     1
102
RTVSPropertyOp8
 70
     1
102
RTVSPropertyOp9
 70
     1
102
RTVSPropertyOp10
 70
     1
102
RTVSPropertyOp11
 70
     1
102
RTVSPropertyOp12
 70
     1
102
RTVSPropertyOp13
 70
     1
102
RTVSPropertyOp14
 70
     1
102
RTVSPropertyOp15
 70
     1
102
RTVSPropertyOp16
 70
     1
102
RTVSPropertyOp17
 70
     1
102
RTVSPropertyOp18
 70
     1
102
RTVSPropertyOp19
 70
     1
102
RTVSPropertyOp20
 70
     1
102
RTVSPropertyOp21
 70
     1
102
RTVSPropertyOp22
 70
     1
102
RTVSPropertyOp23
 70
     1
102
RTVSPropertyOp24
 70
     1
102
RTVSPropertyOp25
 70
     1
102
RTVSPropertyOp26
 70
     1
102
RTVSPropertyOp27
 70
     1
  0
XRECORD
  5
214DA
102
{ACAD_REACTORS
330
214D9
102
}
330
214D9
100
AcDbXrecord
280
     1
102
RTVSPropertyOp28
 70
     1
102
RTVSPropertyOp29
 70
     1
102
RTVSPropertyOp30
 70
     1
102
RTVSPropertyOp31
 70
     1
102
RTVSPropertyOp32
 70
     1
102
RTVSPropertyOp0
 70
     1
102
RTVSPropertyOp1
 70
     1
102
RTVSPropertyOp2
 70
     1
102
RTVSPropertyOp3
 70
     1
102
RTVSPropertyOp4
 70
     1
102
RTVSPropertyOp5
 70
     1
102
RTVSPropertyOp6
 70
     1
102
RTVSPropertyOp7
 70
     1
102
RTVSPropertyOp8
 70
     1
102
RTVSPropertyOp9
 70
     1
102
RTVSPropertyOp10
 70
     1
102
RTVSPropertyOp11
 70
     1
102
RTVSPropertyOp12
 70
     1
102
RTVSPropertyOp13
 70
     1
102
RTVSPropertyOp14
 70
     1
102
RTVSPropertyOp15
 70
     1
102
RTVSPropertyOp16
 70
     1
102
RTVSPropertyOp17
 70
     1
102
RTVSPropertyOp18
 70
     1
102
RTVSPropertyOp19
 70
     1
102
RTVSPropertyOp20
 70
     1
102
RTVSPropertyOp21
 70
     1
102
RTVSPropertyOp22
 70
     1
102
RTVSPropertyOp23
 70
     1
102
RTVSPropertyOp24
 70
     1
102
RTVSPropertyOp25
 70
     1
102
RTVSPropertyOp26
 70
     1
102
RTVSPropertyOp27
 70
     1
  0
XRECORD
  5
214E8
102
{ACAD_REACTORS
330
214E7
102
}
330
214E7
100
AcDbXrecord
280
     1
102
RTVSPropertyOp28
 70
     1
102
RTVSPropertyOp29
 70
     1
102
RTVSPropertyOp30
 70
     1
102
RTVSPropertyOp31
 70
     1
102
RTVSPropertyOp32
 70
     1
102
RTVSPropertyOp0
 70
     1
102
RTVSPropertyOp1
 70
     1
102
RTVSPropertyOp2
 70
     1
102
RTVSPropertyOp3
 70
     1
102
RTVSPropertyOp4
 70
     1
102
RTVSPropertyOp5
 70
     1
102
RTVSPropertyOp6
 70
     1
102
RTVSPropertyOp7
 70
     1
102
RTVSPropertyOp8
 70
     1
102
RTVSPropertyOp9
 70
     1
102
RTVSPropertyOp10
 70
     1
102
RTVSPropertyOp11
 70
     1
102
RTVSPropertyOp12
 70
     1
102
RTVSPropertyOp13
 70
     1
102
RTVSPropertyOp14
 70
     1
102
RTVSPropertyOp15
 70
     1
102
RTVSPropertyOp16
 70
     1
102
RTVSPropertyOp17
 70
     1
102
RTVSPropertyOp18
 70
     1
102
RTVSPropertyOp19
 70
     1
102
RTVSPropertyOp20
 70
     1
102
RTVSPropertyOp21
 70
     1
102
RTVSPropertyOp22
 70
     1
102
RTVSPropertyOp23
 70
     1
102
RTVSPropertyOp24
 70
     1
102
RTVSPropertyOp25
 70
     1
102
RTVSPropertyOp26
 70
     1
102
RTVSPropertyOp27
 70
     1
  0
XRECORD
  5
214F0
102
{ACAD_REACTORS
330
214EF
102
}
330
214EF
100
AcDbXrecord
280
     1
102
RTVSPropertyOp28
 70
     1
102
RTVSPropertyOp29
 70
     1
102
RTVSPropertyOp30
 70
     1
102
RTVSPropertyOp31
 70
     1
102
RTVSPropertyOp32
 70
     1
102
RTVSPropertyOp0
 70
     1
102
RTVSPropertyOp1
 70
     1
102
RTVSPropertyOp2
 70
     1
102
RTVSPropertyOp3
 70
     1
102
RTVSPropertyOp4
 70
     1
102
RTVSPropertyOp5
 70
     1
102
RTVSPropertyOp6
 70
     1
102
RTVSPropertyOp7
 70
     1
102
RTVSPropertyOp8
 70
     1
102
RTVSPropertyOp9
 70
     1
102
RTVSPropertyOp10
 70
     1
102
RTVSPropertyOp11
 70
     1
102
RTVSPropertyOp12
 70
     1
102
RTVSPropertyOp13
 70
     1
102
RTVSPropertyOp14
 70
     1
102
RTVSPropertyOp15
 70
     1
102
RTVSPropertyOp16
 70
     1
102
RTVSPropertyOp17
 70
     1
102
RTVSPropertyOp18
 70
     1
102
RTVSPropertyOp19
 70
     1
102
RTVSPropertyOp20
 70
     1
102
RTVSPropertyOp21
 70
     1
102
RTVSPropertyOp22
 70
     1
102
RTVSPropertyOp23
 70
     1
102
RTVSPropertyOp24
 70
     1
102
RTVSPropertyOp25
 70
     1
102
RTVSPropertyOp26
 70
     1
102
RTVSPropertyOp27
 70
     1
  0
XRECORD
  5
214E2
102
{ACAD_REACTORS
330
214E1
102
}
330
214E1
100
AcDbXrecord
280
     1
102
RTVSPropertyOp28
 70
     1
102
RTVSPropertyOp29
 70
     1
102
RTVSPropertyOp30
 70
     1
102
RTVSPropertyOp31
 70
     1
102
RTVSPropertyOp32
 70
     1
102
RTVSPropertyOp0
 70
     1
102
RTVSPropertyOp1
 70
     1
102
RTVSPropertyOp2
 70
     1
102
RTVSPropertyOp3
 70
     1
102
RTVSPropertyOp4
 70
     1
102
RTVSPropertyOp5
 70
     1
102
RTVSPropertyOp6
 70
     1
102
RTVSPropertyOp7
 70
     1
102
RTVSPropertyOp8
 70
     1
102
RTVSPropertyOp9
 70
     1
102
RTVSPropertyOp10
 70
     1
102
RTVSPropertyOp11
 70
     1
102
RTVSPropertyOp12
 70
     1
102
RTVSPropertyOp13
 70
     1
102
RTVSPropertyOp14
 70
     1
102
RTVSPropertyOp15
 70
     1
102
RTVSPropertyOp16
 70
     1
102
RTVSPropertyOp17
 70
     1
102
RTVSPropertyOp18
 70
     1
102
RTVSPropertyOp19
 70
     1
102
RTVSPropertyOp20
 70
     1
102
RTVSPropertyOp21
 70
     1
102
RTVSPropertyOp22
 70
     1
102
RTVSPropertyOp23
 70
     1
102
RTVSPropertyOp24
 70
     1
102
RTVSPropertyOp25
 70
     1
102
RTVSPropertyOp26
 70
     1
102
RTVSPropertyOp27
 70
     1
  0
XRECORD
  5
214E6
102
{ACAD_REACTORS
330
214E5
102
}
330
214E5
100
AcDbXrecord
280
     1
102
RTVSPropertyOp28
 70
     1
102
RTVSPropertyOp29
 70
     1
102
RTVSPropertyOp30
 70
     1
102
RTVSPropertyOp31
 70
     1
102
RTVSPropertyOp32
 70
     1
102
RTVSPropertyOp0
 70
     1
102
RTVSPropertyOp1
 70
     1
102
RTVSPropertyOp2
 70
     1
102
RTVSPropertyOp3
 70
     1
102
RTVSPropertyOp4
 70
     1
102
RTVSPropertyOp5
 70
     1
102
RTVSPropertyOp6
 70
     1
102
RTVSPropertyOp7
 70
     1
102
RTVSPropertyOp8
 70
     1
102
RTVSPropertyOp9
 70
     1
102
RTVSPropertyOp10
 70
     1
102
RTVSPropertyOp11
 70
     1
102
RTVSPropertyOp12
 70
     1
102
RTVSPropertyOp13
 70
     1
102
RTVSPropertyOp14
 70
     1
102
RTVSPropertyOp15
 70
     1
102
RTVSPropertyOp16
 70
     1
102
RTVSPropertyOp17
 70
     1
102
RTVSPropertyOp18
 70
     1
102
RTVSPropertyOp19
 70
     1
102
RTVSPropertyOp20
 70
     1
102
RTVSPropertyOp21
 70
     1
102
RTVSPropertyOp22
 70
     1
102
RTVSPropertyOp23
 70
     1
102
RTVSPropertyOp24
 70
     1
102
RTVSPropertyOp25
 70
     1
102
RTVSPropertyOp26
 70
     1
102
RTVSPropertyOp27
 70
     1
  0
XRECORD
  5
214F7
102
{ACAD_REACTORS
330
214F6
102
}
330
214F6
100
AcDbXrecord
280
     1
102
RTVSPropertyOp28
 70
     1
102
RTVSPropertyOp29
 70
     1
102
RTVSPropertyOp30
 70
     1
102
RTVSPropertyOp31
 70
     1
102
RTVSPropertyOp32
 70
     1
102
RTVSPropertyOp0
 70
     0
102
RTVSPropertyOp1
 70
     0
102
RTVSPropertyOp2
 70
     0
102
RTVSPropertyOp3
 70
     0
102
RTVSPropertyOp4
 70
     0
102
RTVSPropertyOp5
 70
     0
102
RTVSPropertyOp6
 70
     0
102
RTVSPropertyOp7
 70
     0
102
RTVSPropertyOp8
 70
     0
102
RTVSPropertyOp9
 70
     0
102
RTVSPropertyOp10
 70
     0
102
RTVSPropertyOp11
 70
     0
102
RTVSPropertyOp12
 70
     0
102
RTVSPropertyOp13
 70
     0
102
RTVSPropertyOp14
 70
     2
102
RTVSPropertyOp15
 70
     0
102
RTVSPropertyOp16
 70
     0
102
RTVSPropertyOp17
 70
     0
102
RTVSPropertyOp18
 70
     0
102
RTVSPropertyOp19
 70
     0
102
RTVSPropertyOp20
 70
     0
102
RTVSPropertyOp21
 70
     0
102
RTVSPropertyOp22
 70
     0
102
RTVSPropertyOp23
 70
     0
102
RTVSPropertyOp24
 70
     0
102
RTVSPropertyOp25
 70
     0
102
RTVSPropertyOp26
 70
     0
102
RTVSPropertyOp27
 70
     0
  0
XRECORD
  5
214EE
102
{ACAD_REACTORS
330
214ED
102
}
330
214ED
100
AcDbXrecord
280
     1
102
RTVSPropertyOp28
 70
     1
102
RTVSPropertyOp29
 70
     1
102
RTVSPropertyOp30
 70
     1
102
RTVSPropertyOp31
 70
     1
102
RTVSPropertyOp32
 70
     1
102
RTVSPropertyOp0
 70
     1
102
RTVSPropertyOp1
 70
     1
102
RTVSPropertyOp2
 70
     1
102
RTVSPropertyOp3
 70
     1
102
RTVSPropertyOp4
 70
     1
102
RTVSPropertyOp5
 70
     1
102
RTVSPropertyOp6
 70
     1
102
RTVSPropertyOp7
 70
     1
102
RTVSPropertyOp8
 70
     1
102
RTVSPropertyOp9
 70
     1
102
RTVSPropertyOp10
 70
     1
102
RTVSPropertyOp11
 70
     1
102
RTVSPropertyOp12
 70
     1
102
RTVSPropertyOp13
 70
     1
102
RTVSPropertyOp14
 70
     1
102
RTVSPropertyOp15
 70
     1
102
RTVSPropertyOp16
 70
     1
102
RTVSPropertyOp17
 70
     1
102
RTVSPropertyOp18
 70
     1
102
RTVSPropertyOp19
 70
     1
102
RTVSPropertyOp20
 70
     1
102
RTVSPropertyOp21
 70
     1
102
RTVSPropertyOp22
 70
     1
102
RTVSPropertyOp23
 70
     1
102
RTVSPropertyOp24
 70
     1
102
RTVSPropertyOp25
 70
     1
102
RTVSPropertyOp26
 70
     1
102
RTVSPropertyOp27
 70
     1
  0
XRECORD
  5
214D2
102
{ACAD_REACTORS
330
214D1
102
}
330
214D1
100
AcDbXrecord
280
     1
102
RTVSPropertyOp28
 70
     1
102
RTVSPropertyOp29
 70
     1
102
RTVSPropertyOp30
 70
     1
102
RTVSPropertyOp31
 70
     1
102
RTVSPropertyOp32
 70
     1
102
RTVSPropertyOp0
 70
     1
102
RTVSPropertyOp1
 70
     1
102
RTVSPropertyOp2
 70
     1
102
RTVSPropertyOp3
 70
     1
102
RTVSPropertyOp4
 70
     1
102
RTVSPropertyOp5
 70
     1
102
RTVSPropertyOp6
 70
     1
102
RTVSPropertyOp7
 70
     1
102
RTVSPropertyOp8
 70
     1
102
RTVSPropertyOp9
 70
     1
102
RTVSPropertyOp10
 70
     1
102
RTVSPropertyOp11
 70
     1
102
RTVSPropertyOp12
 70
     1
102
RTVSPropertyOp13
 70
     1
102
RTVSPropertyOp14
 70
     1
102
RTVSPropertyOp15
 70
     1
102
RTVSPropertyOp16
 70
     1
102
RTVSPropertyOp17
 70
     1
102
RTVSPropertyOp18
 70
     1
102
RTVSPropertyOp19
 70
     1
102
RTVSPropertyOp20
 70
     1
102
RTVSPropertyOp21
 70
     1
102
RTVSPropertyOp22
 70
     1
102
RTVSPropertyOp23
 70
     1
102
RTVSPropertyOp24
 70
     1
102
RTVSPropertyOp25
 70
     1
102
RTVSPropertyOp26
 70
     1
102
RTVSPropertyOp27
 70
     1
  0
XRECORD
  5
214D4
102
{ACAD_REACTORS
330
214D3
102
}
330
214D3
100
AcDbXrecord
280
     1
102
RTVSPropertyOp28
 70
     1
102
RTVSPropertyOp29
 70
     1
102
RTVSPropertyOp30
 70
     1
102
RTVSPropertyOp31
 70
     1
102
RTVSPropertyOp32
 70
     1
102
RTVSPropertyOp0
 70
     1
102
RTVSPropertyOp1
 70
     1
102
RTVSPropertyOp2
 70
     1
102
RTVSPropertyOp3
 70
     1
102
RTVSPropertyOp4
 70
     1
102
RTVSPropertyOp5
 70
     1
102
RTVSPropertyOp6
 70
     1
102
RTVSPropertyOp7
 70
     1
102
RTVSPropertyOp8
 70
     1
102
RTVSPropertyOp9
 70
     1
102
RTVSPropertyOp10
 70
     1
102
RTVSPropertyOp11
 70
     1
102
RTVSPropertyOp12
 70
     1
102
RTVSPropertyOp13
 70
     1
102
RTVSPropertyOp14
 70
     1
102
RTVSPropertyOp15
 70
     1
102
RTVSPropertyOp16
 70
     1
102
RTVSPropertyOp17
 70
     1
102
RTVSPropertyOp18
 70
     1
102
RTVSPropertyOp19
 70
     1
102
RTVSPropertyOp20
 70
     1
102
RTVSPropertyOp21
 70
     1
102
RTVSPropertyOp22
 70
     1
102
RTVSPropertyOp23
 70
     1
102
RTVSPropertyOp24
 70
     1
102
RTVSPropertyOp25
 70
     1
102
RTVSPropertyOp26
 70
     1
102
RTVSPropertyOp27
 70
     1
  0
XRECORD
  5
214D6
102
{ACAD_REACTORS
330
214D5
102
}
330
214D5
100
AcDbXrecord
280
     1
102
RTVSPropertyOp28
 70
     1
102
RTVSPropertyOp29
 70
     1
102
RTVSPropertyOp30
 70
     1
102
RTVSPropertyOp31
 70
     1
102
RTVSPropertyOp32
 70
     1
102
RTVSPropertyOp0
 70
     1
102
RTVSPropertyOp1
 70
     1
102
RTVSPropertyOp2
 70
     1
102
RTVSPropertyOp3
 70
     1
102
RTVSPropertyOp4
 70
     1
102
RTVSPropertyOp5
 70
     1
102
RTVSPropertyOp6
 70
     1
102
RTVSPropertyOp7
 70
     1
102
RTVSPropertyOp8
 70
     1
102
RTVSPropertyOp9
 70
     1
102
RTVSPropertyOp10
 70
     1
102
RTVSPropertyOp11
 70
     1
102
RTVSPropertyOp12
 70
     1
102
RTVSPropertyOp13
 70
     1
102
RTVSPropertyOp14
 70
     1
102
RTVSPropertyOp15
 70
     1
102
RTVSPropertyOp16
 70
     1
102
RTVSPropertyOp17
 70
     1
102
RTVSPropertyOp18
 70
     1
102
RTVSPropertyOp19
 70
     1
102
RTVSPropertyOp20
 70
     1
102
RTVSPropertyOp21
 70
     1
102
RTVSPropertyOp22
 70
     1
102
RTVSPropertyOp23
 70
     1
102
RTVSPropertyOp24
 70
     1
102
RTVSPropertyOp25
 70
     1
102
RTVSPropertyOp26
 70
     1
102
RTVSPropertyOp27
 70
     1
  0
XRECORD
  5
214D8
102
{ACAD_REACTORS
330
214D7
102
}
330
214D7
100
AcDbXrecord
280
     1
102
RTVSPropertyOp28
 70
     1
102
RTVSPropertyOp29
 70
     1
102
RTVSPropertyOp30
 70
     1
102
RTVSPropertyOp31
 70
     1
102
RTVSPropertyOp32
 70
     1
102
RTVSPropertyOp0
 70
     1
102
RTVSPropertyOp1
 70
     1
102
RTVSPropertyOp2
 70
     1
102
RTVSPropertyOp3
 70
     1
102
RTVSPropertyOp4
 70
     1
102
RTVSPropertyOp5
 70
     1
102
RTVSPropertyOp6
 70
     1
102
RTVSPropertyOp7
 70
     1
102
RTVSPropertyOp8
 70
     1
102
RTVSPropertyOp9
 70
     1
102
RTVSPropertyOp10
 70
     1
102
RTVSPropertyOp11
 70
     1
102
RTVSPropertyOp12
 70
     1
102
RTVSPropertyOp13
 70
     1
102
RTVSPropertyOp14
 70
     1
102
RTVSPropertyOp15
 70
     1
102
RTVSPropertyOp16
 70
     1
102
RTVSPropertyOp17
 70
     1
102
RTVSPropertyOp18
 70
     1
102
RTVSPropertyOp19
 70
     1
102
RTVSPropertyOp20
 70
     1
102
RTVSPropertyOp21
 70
     1
102
RTVSPropertyOp22
 70
     1
102
RTVSPropertyOp23
 70
     1
102
RTVSPropertyOp24
 70
     1
102
RTVSPropertyOp25
 70
     1
102
RTVSPropertyOp26
 70
     1
102
RTVSPropertyOp27
 70
     1
  0
XRECORD
  5
214FB
102
{ACAD_REACTORS
330
214FA
102
}
330
214FA
100
AcDbXrecord
280
     1
102
RTVSPropertyOp28
 70
     1
102
RTVSPropertyOp29
 70
     1
102
RTVSPropertyOp30
 70
     1
102
RTVSPropertyOp31
 70
     1
102
RTVSPropertyOp32
 70
     1
102
RTVSPropertyOp0
 70
     1
102
RTVSPropertyOp1
 70
     1
102
RTVSPropertyOp2
 70
     1
102
RTVSPropertyOp3
 70
     1
102
RTVSPropertyOp4
 70
     1
102
RTVSPropertyOp5
 70
     1
102
RTVSPropertyOp6
 70
     1
102
RTVSPropertyOp7
 70
     1
102
RTVSPropertyOp8
 70
     1
102
RTVSPropertyOp9
 70
     1
102
RTVSPropertyOp10
 70
     1
102
RTVSPropertyOp11
 70
     1
102
RTVSPropertyOp12
 70
     1
102
RTVSPropertyOp13
 70
     1
102
RTVSPropertyOp14
 70
     1
102
RTVSPropertyOp15
 70
     1
102
RTVSPropertyOp16
 70
     1
102
RTVSPropertyOp17
 70
     1
102
RTVSPropertyOp18
 70
     1
102
RTVSPropertyOp19
 70
     1
102
RTVSPropertyOp20
 70
     1
102
RTVSPropertyOp21
 70
     1
102
RTVSPropertyOp22
 70
     1
102
RTVSPropertyOp23
 70
     1
102
RTVSPropertyOp24
 70
     1
102
RTVSPropertyOp25
 70
     1
102
RTVSPropertyOp26
 70
     1
102
RTVSPropertyOp27
 70
     1
  0
XRECORD
  5
214F3
102
{ACAD_REACTORS
330
214F2
102
}
330
214F2
100
AcDbXrecord
280
     1
102
RTVSPropertyOp28
 70
     1
102
RTVSPropertyOp29
 70
     1
102
RTVSPropertyOp30
 70
     1
102
RTVSPropertyOp31
 70
     1
102
RTVSPropertyOp32
 70
     1
102
RTVSPropertyOp0
 70
     0
102
RTVSPropertyOp1
 70
     0
102
RTVSPropertyOp2
 70
     0
102
RTVSPropertyOp3
 70
     0
102
RTVSPropertyOp4
 70
     0
102
RTVSPropertyOp5
 70
     0
102
RTVSPropertyOp6
 70
     0
102
RTVSPropertyOp7
 70
     0
102
RTVSPropertyOp8
 70
     0
102
RTVSPropertyOp9
 70
     0
102
RTVSPropertyOp10
 70
     0
102
RTVSPropertyOp11
 70
     0
102
RTVSPropertyOp12
 70
     0
102
RTVSPropertyOp13
 70
     0
102
RTVSPropertyOp14
 70
     2
102
RTVSPropertyOp15
 70
     0
102
RTVSPropertyOp16
 70
     0
102
RTVSPropertyOp17
 70
     0
102
RTVSPropertyOp18
 70
     0
102
RTVSPropertyOp19
 70
     0
102
RTVSPropertyOp20
 70
     0
102
RTVSPropertyOp21
 70
     0
102
RTVSPropertyOp22
 70
     0
102
RTVSPropertyOp23
 70
     0
102
RTVSPropertyOp24
 70
     0
102
RTVSPropertyOp25
 70
     0
102
RTVSPropertyOp26
 70
     0
102
RTVSPropertyOp27
 70
     0
  0
XRECORD
  5
214EC
102
{ACAD_REACTORS
330
214EB
102
}
330
214EB
100
AcDbXrecord
280
     1
102
RTVSPropertyOp28
 70
     1
102
RTVSPropertyOp29
 70
     1
102
RTVSPropertyOp30
 70
     1
102
RTVSPropertyOp31
 70
     1
102
RTVSPropertyOp32
 70
     1
102
RTVSPropertyOp0
 70
     1
102
RTVSPropertyOp1
 70
     1
102
RTVSPropertyOp2
 70
     1
102
RTVSPropertyOp3
 70
     1
102
RTVSPropertyOp4
 70
     1
102
RTVSPropertyOp5
 70
     1
102
RTVSPropertyOp6
 70
     1
102
RTVSPropertyOp7
 70
     1
102
RTVSPropertyOp8
 70
     1
102
RTVSPropertyOp9
 70
     1
102
RTVSPropertyOp10
 70
     1
102
RTVSPropertyOp11
 70
     1
102
RTVSPropertyOp12
 70
     1
102
RTVSPropertyOp13
 70
     1
102
RTVSPropertyOp14
 70
     1
102
RTVSPropertyOp15
 70
     1
102
RTVSPropertyOp16
 70
     1
102
RTVSPropertyOp17
 70
     1
102
RTVSPropertyOp18
 70
     1
102
RTVSPropertyOp19
 70
     1
102
RTVSPropertyOp20
 70
     1
102
RTVSPropertyOp21
 70
     1
102
RTVSPropertyOp22
 70
     1
102
RTVSPropertyOp23
 70
     1
102
RTVSPropertyOp24
 70
     1
102
RTVSPropertyOp25
 70
     1
102
RTVSPropertyOp26
 70
     1
102
RTVSPropertyOp27
 70
     1
  0
XRECORD
  5
214F5
102
{ACAD_REACTORS
330
214F4
102
}
330
214F4
100
AcDbXrecord
280
     1
102
RTVSPropertyOp28
 70
     1
102
RTVSPropertyOp29
 70
     1
102
RTVSPropertyOp30
 70
     1
102
RTVSPropertyOp31
 70
     1
102
RTVSPropertyOp32
 70
     1
102
RTVSPropertyOp0
 70
     0
102
RTVSPropertyOp1
 70
     0
102
RTVSPropertyOp2
 70
     0
102
RTVSPropertyOp3
 70
     0
102
RTVSPropertyOp4
 70
     0
102
RTVSPropertyOp5
 70
     0
102
RTVSPropertyOp6
 70
     0
102
RTVSPropertyOp7
 70
     0
102
RTVSPropertyOp8
 70
     0
102
RTVSPropertyOp9
 70
     0
102
RTVSPropertyOp10
 70
     0
102
RTVSPropertyOp11
 70
     0
102
RTVSPropertyOp12
 70
     0
102
RTVSPropertyOp13
 70
     0
102
RTVSPropertyOp14
 70
     2
102
RTVSPropertyOp15
 70
     0
102
RTVSPropertyOp16
 70
     0
102
RTVSPropertyOp17
 70
     0
102
RTVSPropertyOp18
 70
     0
102
RTVSPropertyOp19
 70
     0
102
RTVSPropertyOp20
 70
     0
102
RTVSPropertyOp21
 70
     0
102
RTVSPropertyOp22
 70
     0
102
RTVSPropertyOp23
 70
     0
102
RTVSPropertyOp24
 70
     0
102
RTVSPropertyOp25
 70
     0
102
RTVSPropertyOp26
 70
     0
102
RTVSPropertyOp27
 70
     0
  0
XRECORD
  5
214E4
102
{ACAD_REACTORS
330
214E3
102
}
330
214E3
100
AcDbXrecord
280
     1
102
RTVSPropertyOp28
 70
     1
102
RTVSPropertyOp29
 70
     1
102
RTVSPropertyOp30
 70
     1
102
RTVSPropertyOp31
 70
     1
102
RTVSPropertyOp32
 70
     1
102
RTVSPropertyOp0
 70
     1
102
RTVSPropertyOp1
 70
     1
102
RTVSPropertyOp2
 70
     1
102
RTVSPropertyOp3
 70
     1
102
RTVSPropertyOp4
 70
     1
102
RTVSPropertyOp5
 70
     1
102
RTVSPropertyOp6
 70
     1
102
RTVSPropertyOp7
 70
     1
102
RTVSPropertyOp8
 70
     1
102
RTVSPropertyOp9
 70
     1
102
RTVSPropertyOp10
 70
     1
102
RTVSPropertyOp11
 70
     1
102
RTVSPropertyOp12
 70
     1
102
RTVSPropertyOp13
 70
     1
102
RTVSPropertyOp14
 70
     1
102
RTVSPropertyOp15
 70
     1
102
RTVSPropertyOp16
 70
     1
102
RTVSPropertyOp17
 70
     1
102
RTVSPropertyOp18
 70
     1
102
RTVSPropertyOp19
 70
     1
102
RTVSPropertyOp20
 70
     1
102
RTVSPropertyOp21
 70
     1
102
RTVSPropertyOp22
 70
     1
102
RTVSPropertyOp23
 70
     1
102
RTVSPropertyOp24
 70
     1
102
RTVSPropertyOp25
 70
     1
102
RTVSPropertyOp26
 70
     1
102
RTVSPropertyOp27
 70
     1
  0
XRECORD
  5
21505
102
{ACAD_REACTORS
330
21504
102
}
330
21504
100
AcDbXrecord
280
     1
102
RTVSPropertyOp28
 70
     1
102
RTVSPropertyOp29
 70
     1
102
RTVSPropertyOp30
 70
     1
102
RTVSPropertyOp31
 70
     1
102
RTVSPropertyOp32
 70
     1
102
RTVSPropertyOp0
 70
     1
102
RTVSPropertyOp1
 70
     1
102
RTVSPropertyOp2
 70
     1
102
RTVSPropertyOp3
 70
     1
102
RTVSPropertyOp4
 70
     1
102
RTVSPropertyOp5
 70
     1
102
RTVSPropertyOp6
 70
     1
102
RTVSPropertyOp7
 70
     1
102
RTVSPropertyOp8
 70
     1
102
RTVSPropertyOp9
 70
     1
102
RTVSPropertyOp10
 70
     1
102
RTVSPropertyOp11
 70
     1
102
RTVSPropertyOp12
 70
     1
102
RTVSPropertyOp13
 70
     1
102
RTVSPropertyOp14
 70
     1
102
RTVSPropertyOp15
 70
     1
102
RTVSPropertyOp16
 70
     1
102
RTVSPropertyOp17
 70
     1
102
RTVSPropertyOp18
 70
     1
102
RTVSPropertyOp19
 70
     1
102
RTVSPropertyOp20
 70
     1
102
RTVSPropertyOp21
 70
     1
102
RTVSPropertyOp22
 70
     1
102
RTVSPropertyOp23
 70
     1
102
RTVSPropertyOp24
 70
     1
102
RTVSPropertyOp25
 70
     1
102
RTVSPropertyOp26
 70
     1
102
RTVSPropertyOp27
 70
     1
  0
XRECORD
  5
21503
102
{ACAD_REACTORS
330
21502
102
}
330
21502
100
AcDbXrecord
280
     1
102
RTVSPropertyOp28
 70
     1
102
RTVSPropertyOp29
 70
     1
102
RTVSPropertyOp30
 70
     1
102
RTVSPropertyOp31
 70
     1
102
RTVSPropertyOp32
 70
     1
102
RTVSPropertyOp0
 70
     1
102
RTVSPropertyOp1
 70
     1
102
RTVSPropertyOp2
 70
     1
102
RTVSPropertyOp3
 70
     1
102
RTVSPropertyOp4
 70
     1
102
RTVSPropertyOp5
 70
     1
102
RTVSPropertyOp6
 70
     1
102
RTVSPropertyOp7
 70
     1
102
RTVSPropertyOp8
 70
     1
102
RTVSPropertyOp9
 70
     1
102
RTVSPropertyOp10
 70
     1
102
RTVSPropertyOp11
 70
     1
102
RTVSPropertyOp12
 70
     1
102
RTVSPropertyOp13
 70
     1
102
RTVSPropertyOp14
 70
     1
102
RTVSPropertyOp15
 70
     1
102
RTVSPropertyOp16
 70
     1
102
RTVSPropertyOp17
 70
     1
102
RTVSPropertyOp18
 70
     1
102
RTVSPropertyOp19
 70
     1
102
RTVSPropertyOp20
 70
     1
102
RTVSPropertyOp21
 70
     1
102
RTVSPropertyOp22
 70
     1
102
RTVSPropertyOp23
 70
     1
102
RTVSPropertyOp24
 70
     1
102
RTVSPropertyOp25
 70
     1
102
RTVSPropertyOp26
 70
     1
102
RTVSPropertyOp27
 70
     1
  0
XRECORD
  5
214FD
102
{ACAD_REACTORS
330
214FC
102
}
330
214FC
100
AcDbXrecord
280
     1
102
RTVSPropertyOp28
 70
     1
102
RTVSPropertyOp29
 70
     1
102
RTVSPropertyOp30
 70
     1
102
RTVSPropertyOp31
 70
     1
102
RTVSPropertyOp32
 70
     1
102
RTVSPropertyOp0
 70
     1
102
RTVSPropertyOp1
 70
     1
102
RTVSPropertyOp2
 70
     1
102
RTVSPropertyOp3
 70
     1
102
RTVSPropertyOp4
 70
     1
102
RTVSPropertyOp5
 70
     1
102
RTVSPropertyOp6
 70
     1
102
RTVSPropertyOp7
 70
     1
102
RTVSPropertyOp8
 70
     1
102
RTVSPropertyOp9
 70
     1
102
RTVSPropertyOp10
 70
     1
102
RTVSPropertyOp11
 70
     1
102
RTVSPropertyOp12
 70
     1
102
RTVSPropertyOp13
 70
     1
102
RTVSPropertyOp14
 70
     1
102
RTVSPropertyOp15
 70
     1
102
RTVSPropertyOp16
 70
     1
102
RTVSPropertyOp17
 70
     1
102
RTVSPropertyOp18
 70
     1
102
RTVSPropertyOp19
 70
     1
102
RTVSPropertyOp20
 70
     1
102
RTVSPropertyOp21
 70
     1
102
RTVSPropertyOp22
 70
     1
102
RTVSPropertyOp23
 70
     1
102
RTVSPropertyOp24
 70
     1
102
RTVSPropertyOp25
 70
     1
102
RTVSPropertyOp26
 70
     1
102
RTVSPropertyOp27
 70
     1
  0
XRECORD
  5
214FF
102
{ACAD_REACTORS
330
214FE
102
}
330
214FE
100
AcDbXrecord
280
     1
102
RTVSPropertyOp28
 70
     1
102
RTVSPropertyOp29
 70
     1
102
RTVSPropertyOp30
 70
     1
102
RTVSPropertyOp31
 70
     1
102
RTVSPropertyOp32
 70
     1
102
RTVSPropertyOp0
 70
     1
102
RTVSPropertyOp1
 70
     1
102
RTVSPropertyOp2
 70
     1
102
RTVSPropertyOp3
 70
     1
102
RTVSPropertyOp4
 70
     1
102
RTVSPropertyOp5
 70
     1
102
RTVSPropertyOp6
 70
     1
102
RTVSPropertyOp7
 70
     1
102
RTVSPropertyOp8
 70
     1
102
RTVSPropertyOp9
 70
     1
102
RTVSPropertyOp10
 70
     1
102
RTVSPropertyOp11
 70
     1
102
RTVSPropertyOp12
 70
     1
102
RTVSPropertyOp13
 70
     1
102
RTVSPropertyOp14
 70
     1
102
RTVSPropertyOp15
 70
     1
102
RTVSPropertyOp16
 70
     1
102
RTVSPropertyOp17
 70
     1
102
RTVSPropertyOp18
 70
     1
102
RTVSPropertyOp19
 70
     1
102
RTVSPropertyOp20
 70
     1
102
RTVSPropertyOp21
 70
     1
102
RTVSPropertyOp22
 70
     1
102
RTVSPropertyOp23
 70
     1
102
RTVSPropertyOp24
 70
     1
102
RTVSPropertyOp25
 70
     1
102
RTVSPropertyOp26
 70
     1
102
RTVSPropertyOp27
 70
     1
  0
XRECORD
  5
214EA
102
{ACAD_REACTORS
330
214E9
102
}
330
214E9
100
AcDbXrecord
280
     1
102
RTVSPropertyOp28
 70
     1
102
RTVSPropertyOp29
 70
     1
102
RTVSPropertyOp30
 70
     1
102
RTVSPropertyOp31
 70
     1
102
RTVSPropertyOp32
 70
     1
102
RTVSPropertyOp0
 70
     1
102
RTVSPropertyOp1
 70
     1
102
RTVSPropertyOp2
 70
     1
102
RTVSPropertyOp3
 70
     1
102
RTVSPropertyOp4
 70
     1
102
RTVSPropertyOp5
 70
     1
102
RTVSPropertyOp6
 70
     1
102
RTVSPropertyOp7
 70
     1
102
RTVSPropertyOp8
 70
     1
102
RTVSPropertyOp9
 70
     1
102
RTVSPropertyOp10
 70
     1
102
RTVSPropertyOp11
 70
     1
102
RTVSPropertyOp12
 70
     1
102
RTVSPropertyOp13
 70
     1
102
RTVSPropertyOp14
 70
     1
102
RTVSPropertyOp15
 70
     1
102
RTVSPropertyOp16
 70
     1
102
RTVSPropertyOp17
 70
     1
102
RTVSPropertyOp18
 70
     1
102
RTVSPropertyOp19
 70
     1
102
RTVSPropertyOp20
 70
     1
102
RTVSPropertyOp21
 70
     1
102
RTVSPropertyOp22
 70
     1
102
RTVSPropertyOp23
 70
     1
102
RTVSPropertyOp24
 70
     1
102
RTVSPropertyOp25
 70
     1
102
RTVSPropertyOp26
 70
     1
102
RTVSPropertyOp27
 70
     1
  0
XRECORD
  5
214F9
102
{ACAD_REACTORS
330
214F8
102
}
330
214F8
100
AcDbXrecord
280
     1
102
RTVSPropertyOp28
 70
     1
102
RTVSPropertyOp29
 70
     1
102
RTVSPropertyOp30
 70
     1
102
RTVSPropertyOp31
 70
     1
102
RTVSPropertyOp32
 70
     1
102
RTVSPropertyOp0
 70
     1
102
RTVSPropertyOp1
 70
     1
102
RTVSPropertyOp2
 70
     1
102
RTVSPropertyOp3
 70
     1
102
RTVSPropertyOp4
 70
     1
102
RTVSPropertyOp5
 70
     1
102
RTVSPropertyOp6
 70
     1
102
RTVSPropertyOp7
 70
     1
102
RTVSPropertyOp8
 70
     1
102
RTVSPropertyOp9
 70
     1
102
RTVSPropertyOp10
 70
     1
102
RTVSPropertyOp11
 70
     1
102
RTVSPropertyOp12
 70
     1
102
RTVSPropertyOp13
 70
     1
102
RTVSPropertyOp14
 70
     1
102
RTVSPropertyOp15
 70
     1
102
RTVSPropertyOp16
 70
     1
102
RTVSPropertyOp17
 70
     1
102
RTVSPropertyOp18
 70
     1
102
RTVSPropertyOp19
 70
     1
102
RTVSPropertyOp20
 70
     1
102
RTVSPropertyOp21
 70
     1
102
RTVSPropertyOp22
 70
     1
102
RTVSPropertyOp23
 70
     1
102
RTVSPropertyOp24
 70
     1
102
RTVSPropertyOp25
 70
     1
102
RTVSPropertyOp26
 70
     1
102
RTVSPropertyOp27
 70
     1
  0
XRECORD
  5
21501
102
{ACAD_REACTORS
330
21500
102
}
330
21500
100
AcDbXrecord
280
     1
102
RTVSPropertyOp28
 70
     1
102
RTVSPropertyOp29
 70
     1
102
RTVSPropertyOp30
 70
     1
102
RTVSPropertyOp31
 70
     1
102
RTVSPropertyOp32
 70
     1
102
RTVSPropertyOp0
 70
     1
102
RTVSPropertyOp1
 70
     1
102
RTVSPropertyOp2
 70
     1
102
RTVSPropertyOp3
 70
     1
102
RTVSPropertyOp4
 70
     1
102
RTVSPropertyOp5
 70
     1
102
RTVSPropertyOp6
 70
     1
102
RTVSPropertyOp7
 70
     1
102
RTVSPropertyOp8
 70
     1
102
RTVSPropertyOp9
 70
     1
102
RTVSPropertyOp10
 70
     1
102
RTVSPropertyOp11
 70
     1
102
RTVSPropertyOp12
 70
     1
102
RTVSPropertyOp13
 70
     1
102
RTVSPropertyOp14
 70
     1
102
RTVSPropertyOp15
 70
     1
102
RTVSPropertyOp16
 70
     1
102
RTVSPropertyOp17
 70
     1
102
RTVSPropertyOp18
 70
     1
102
RTVSPropertyOp19
 70
     1
102
RTVSPropertyOp20
 70
     1
102
RTVSPropertyOp21
 70
     1
102
RTVSPropertyOp22
 70
     1
102
RTVSPropertyOp23
 70
     1
102
RTVSPropertyOp24
 70
     1
102
RTVSPropertyOp25
 70
     1
102
RTVSPropertyOp26
 70
     1
102
RTVSPropertyOp27
 70
     1
  0
ENDSEC
  0
EOF
