  0
SECTION
  2
HEADER
  9
$ACADVER
  1
AC1009
  9
$INSBASE
 10
0.0
 20
0.0
 30
0.0
  9
$EXTMIN
 10
381.30384210974341
 20
-791.07135937502164
 30
0.0
  9
$EXTMAX
 10
752.59719250121782
 20
-522.15127903073176
 30
0.0
  9
$LIMMIN
 10
0.0
 20
0.0
  9
$LIMMAX
 10
420.0
 20
297.0
  9
$ORTHOMODE
 70
     0
  9
$REGENMODE
 70
     1
  9
$FILLMODE
 70
     1
  9
$QTEXTMODE
 70
     0
  9
$MIRRTEXT
 70
     0
  9
$DRAGMODE
 70
     2
  9
$LTSCALE
 40
0.5
  9
$OSMODE
 70
  2079
  9
$ATTMODE
 70
     1
  9
$TEXTSIZE
 40
4.0
  9
$TRACEWID
 40
1.0
  9
$TEXTSTYLE
  7
STANDARD
  9
$CLAYER
  8
1TEXT
  9
$CELTYPE
  6
BYLAYER
  9
$CECOLOR
 62
   256
  9
$DIMSCALE
 40
1.0
  9
$DIMASZ
 40
2.0
  9
$DIMEXO
 40
0.0
  9
$DIMDLI
 40
7.0
  9
$DIMRND
 40
0.0
  9
$DIMDLE
 40
0.0
  9
$DIMEXE
 40
1.0
  9
$DIMTP
 40
0.0
  9
$DIMTM
 40
0.0
  9
$DIMTXT
 40
3.5
  9
$DIMCEN
 40
0.0
  9
$DIMTSZ
 40
0.0
  9
$DIMTOL
 70
     0
  9
$DIMLIM
 70
     0
  9
$DIMTIH
 70
     0
  9
$DIMTOH
 70
     0
  9
$DIMSE1
 70
     0
  9
$DIMSE2
 70
     0
  9
$DIMTAD
 70
     1
  9
$DIMZIN
 70
     8
  9
$DIMBLK
  1

  9
$DIMASO
 70
     1
  9
$DIMSHO
 70
     1
  9
$DIMPOST
  1
 
  9
$DIMAPOST
  1

  9
$DIMALT
 70
     0
  9
$DIMALTD
 70
     2
  9
$DIMALTF
 40
25.399999999999999
  9
$DIMLFAC
 40
1.0
  9
$DIMTOFL
 70
     1
  9
$DIMTVP
 40
0.0
  9
$DIMTIX
 70
     0
  9
$DIMSOXD
 70
     0
  9
$DIMSAH
 70
     1
  9
$DIMBLK1
  1
OPEN30
  9
$DIMBLK2
  1
OPEN30
  9
$DIMSTYLE
  2
NEWX10
  9
$DIMCLRD
 70
   256
  9
$DIMCLRE
 70
   256
  9
$DIMCLRT
 70
   201
  9
$DIMTFAC
 40
0.7
  9
$DIMGAP
 40
0.7
  9
$LUNITS
 70
     2
  9
$LUPREC
 70
     4
  9
$SKETCHINC
 40
1.0
  9
$FILLETRAD
 40
0.0
  9
$AUNITS
 70
     0
  9
$AUPREC
 70
     2
  9
$MENU
  1
acad
  9
$ELEVATION
 40
0.0
  9
$PELEVATION
 40
0.0
  9
$THICKNESS
 40
0.0
  9
$LIMCHECK
 70
     0
  9
$BLIPMODE
 70
     0
  9
$CHAMFERA
 40
1.0
  9
$CHAMFERB
 40
1.0
  9
$SKPOLY
 70
     0
  9
$TDCREATE
 40
2453033.7326634838
  9
$TDUPDATE
 40
2457331.6257465282
  9
$TDINDWG
 40
2.3717114699000001
  9
$TDUSRTIMER
 40
2.3717114699000001
  9
$USRTIMER
 70
     1
  9
$ANGBASE
 50
0.0
  9
$ANGDIR
 70
     0
  9
$PDMODE
 70
     0
  9
$PDSIZE
 40
0.0
  9
$PLINEWID
 40
0.0
  9
$COORDS
 70
     0
  9
$SPLFRAME
 70
     0
  9
$SPLINETYPE
 70
     6
  9
$SPLINESEGS
 70
     8
  9
$ATTDIA
 70
     0
  9
$ATTREQ
 70
     1
  9
$HANDLING
 70
     1
  9
$HANDSEED
  5
2042F
  9
$SURFTAB1
 70
     6
  9
$SURFTAB2
 70
     6
  9
$SURFTYPE
 70
     6
  9
$SURFU
 70
     6
  9
$SURFV
 70
     6
  9
$UCSNAME
  2

  9
$UCSORG
 10
0.0
 20
0.0
 30
0.0
  9
$UCSXDIR
 10
1.0
 20
0.0
 30
0.0
  9
$UCSYDIR
 10
0.0
 20
1.0
 30
0.0
  9
$PUCSNAME
  2

  9
$PUCSORG
 10
0.0
 20
0.0
 30
0.0
  9
$PUCSXDIR
 10
1.0
 20
0.0
 30
0.0
  9
$PUCSYDIR
 10
0.0
 20
1.0
 30
0.0
  9
$USERI1
 70
     0
  9
$USERI2
 70
     0
  9
$USERI3
 70
     0
  9
$USERI4
 70
     0
  9
$USERI5
 70
     0
  9
$USERR1
 40
0.0
  9
$USERR2
 40
0.0
  9
$USERR3
 40
0.0
  9
$USERR4
 40
0.0
  9
$USERR5
 40
0.0
  9
$WORLDVIEW
 70
     1
  9
$SHADEDGE
 70
     3
  9
$SHADEDIF
 70
    70
  9
$TILEMODE
 70
     1
  9
$MAXACTVP
 70
    48
  9
$PLIMCHECK
 70
     0
  9
$PEXTMIN
 10
1.0000000000000000E+020
 20
1.0000000000000000E+020
 30
1.0000000000000000E+020
  9
$PEXTMAX
 10
-1.0000000000000000E+020
 20
-1.0000000000000000E+020
 30
-1.0000000000000000E+020
  9
$PLIMMIN
 10
0.0
 20
0.0
  9
$PLIMMAX
 10
420.0
 20
297.0
  9
$UNITMODE
 70
     0
  9
$VISRETAIN
 70
     1
  9
$PLINEGEN
 70
     0
  9
$PSLTSCALE
 70
     1
  0
ENDSEC
  0
SECTION
  2
TABLES
  0
TABLE
  2
VPORT
 70
     1
  0
VPORT
  2
*ACTIVE
 70
     0
 10
0.0
 20
0.0
 11
1.0
 21
1.0
 12
566.95708956550095
 22
-656.62308662422265
 13
0.0
 23
0.0
 14
10.0
 24
10.0
 15
10.0
 25
10.0
 16
0.0
 26
0.0
 36
1.0
 17
0.0
 27
0.0
 37
0.0
 40
285.23699230952508
 41
2.1885143570536818
 42
50.0
 43
0.0
 44
0.0
 50
0.0
 51
0.0
 71
     0
 72
   100
 73
     1
 74
     1
 75
     0
 76
     0
 77
     0
 78
     0
  0
ENDTAB
  0
TABLE
  2
LTYPE
 70
    18
  0
LTYPE
  2
CONTINUOUS
 70
     0
  3
Solid line
 72
    65
 73
     0
 40
0.0
  0
LTYPE
  2
CENTER2
 70
     0
  3
Center (.5x) ___ _ ___ _ ___ _ ___ _ ___ _ ___
 72
    65
 73
     4
 40
28.574999999999999
 49
19.050000000000001
 49
-3.1749999999999989
 49
3.1749999999999989
 49
-3.1749999999999989
  0
LTYPE
  2
HIDDEN
 70
     0
  3
Hidden __ __ __ __ __ __ __ __ __ __ __ __ __ _
 72
    65
 73
     2
 40
9.5249999999999986
 49
6.3499999999999988
 49
-3.1749999999999989
  0
LTYPE
  2
PHANTOM2
 70
     0
  3
Phantom (.5x) ___ _ _ ___ _ _ ___ _ _ ___ _ _
 72
    65
 73
     6
 40
31.75
 49
15.875
 49
-3.1749999999999989
 49
3.1749999999999989
 49
-3.1749999999999989
 49
3.1749999999999989
 49
-3.1749999999999989
  0
ENDTAB
  0
TABLE
  2
LAYER
 70
    46
  0
LAYER
  2
0
 70
     0
 62
     7
  6
CONTINUOUS
  0
LAYER
  2
1CENTER
 70
     0
 62
     7
  6
CENTER2
  0
LAYER
  2
1TEXT
 70
     0
 62
     7
  6
CONTINUOUS
  0
LAYER
  2
1DIM
 70
     0
 62
     7
  6
CONTINUOUS
  0
LAYER
  2
1HIDDEN
 70
     0
 62
     7
  6
HIDDEN
  0
LAYER
  2
1PHANTOM
 70
     0
 62
     7
  6
PHANTOM2
  0
LAYER
  2
01
 70
     0
 62
     1
  6
CONTINUOUS
  0
ENDTAB
  0
TABLE
  2
STYLE
 70
    26
  0
STYLE
  2
STANDARD
 70
     0
 40
0.0
 41
1.0
 50
0.0
 71
     0
 42
4.0
  3
txt.shx
  4
extfont.shx
  0
ENDTAB
  0
TABLE
  2
VIEW
 70
     5
  0
ENDTAB
  0
TABLE
  2
UCS
 70
     0
  0
ENDTAB
  0
TABLE
  2
APPID
 70
    13
  0
APPID
  2
ACAD
 70
     0
  0
APPID
  2
DRAWINGVARIABLESXDATA
 70
     0
  0
APPID
  2
CONTENTTABDATA
 70
     0
  0
APPID
  2
CONTENTCURRENTTAB
 70
     0
  0
APPID
  2
CONTENTBLOCKDESCRIPTION
 70
     0
  0
APPID
  2
CONTENTBLOCKICON
 70
     0
  0
APPID
  2
CONTENTLONGBLOCKNAME
 70
     0
  0
APPID
  2
ACAD_PSEXT
 70
     0
  0
APPID
  2
ACAD_DSTYLE_DIMTEXT_FILL
 70
     0
  0
APPID
  2
ACAD_MLEADERVER
 70
     0
  0
APPID
  2
ACAD_DSTYLE_DIMRADIAL_EXTENSION
 70
     0
  0
APPID
  2
ACADANNOTATIVE
 70
     0
  0
APPID
  2
ACAD_EXEMPT_FROM_CAD_STANDARDS
 70
     0
  0
ENDTAB
  0
TABLE
  2
DIMSTYLE
 70
    10
  0
DIMSTYLE
  2
NEWX10
 70
     0
  3
 
  4

  5

  6
OPEN30
  7
OPEN30
 40
1.0
 41
2.0
 42
0.0
 43
7.0
 44
1.0
 45
0.0
 46
0.0
 47
0.0
 48
0.0
140
3.5
141
0.0
142
0.0
143
25.399999999999999
144
1.0
145
0.0
146
0.7
147
0.7
 71
     0
 72
     0
 73
     0
 74
     0
 75
     0
 76
     0
 77
     1
 78
     8
170
     0
171
     2
172
     1
173
     1
174
     0
175
     0
176
   256
177
   256
178
   201
  0
ENDTAB
  0
ENDSEC
  0
SECTION
  2
BLOCKS
  0
BLOCK
  8
0
  2
$MODEL_SPACE
 70
     0
 10
0.0
 20
0.0
 30
0.0
  3
$MODEL_SPACE
  1

  0
ENDBLK
  5
1A
  8
0
  0
BLOCK
 67
     1
  8
0
  2
$PAPER_SPACE
 70
     0
 10
0.0
 20
0.0
 30
0.0
  3
$PAPER_SPACE
  1

  0
ENDBLK
  5
17
 67
     1
  8
0
  0
BLOCK
  8
0
  2
_OPEN30
 70
     0
 10
0.0
 20
0.0
 30
0.0
  3
_OPEN30
  1

  0
LINE
  5
44
  8
0
  6
BYBLOCK
 62
     0
 10
-1.0
 20
0.26794919
 30
0.0
 11
0.0
 21
0.0
 31
0.0
  0
LINE
  5
45
  8
0
  6
BYBLOCK
 62
     0
 10
0.0
 20
0.0
 30
0.0
 11
-1.0
 21
-0.26794919
 31
0.0
  0
LINE
  5
46
  8
0
  6
BYBLOCK
 62
     0
 10
0.0
 20
0.0
 30
0.0
 11
-1.0
 21
0.0
 31
0.0
  0
ENDBLK
  5
47
  8
0
  0
ENDSEC
  0
SECTION
  2
ENTITIES
  0
LINE
  5
1D8CA
  8
01
 10
700.09719250121782
 20
-650.67133035126585
 30
0.0
 11
700.09719250121782
 21
-672.82133035126719
 31
0.0
  0
LINE
  5
1D90A
  8
01
 10
700.09719250121782
 20
-653.17133035126653
 30
0.0
 11
700.09719250121782
 21
-670.82133035126594
 31
0.0
  0
TEXT
  5
1DB9B
  8
1TEXT
 10
648.17845785022746
 20
-540.40848952946828
 30
0.0
 40
8.0
  1
SC-841-X
  0
LINE
  5
1DBA4
  8
01
 10
712.59719250121782
 20
-618.59315676598453
 30
0.0
 11
712.59719250121782
 21
-693.04950393654815
 31
0.0
  0
LINE
  5
1DBA5
  8
01
 10
721.59719250121782
 20
-618.59315676598453
 30
0.0
 11
721.59719250121782
 21
-693.04950393654815
 31
0.0
  0
LINE
  5
1DBA6
  8
01
 10
700.09719250121782
 20
-618.59315676598453
 30
0.0
 11
700.09719250121782
 21
-693.04950393654815
 31
0.0
  0
TEXT
  5
1EE54
  8
1TEXT
 10
683.4371925012174
 20
-550.9084895294684
 30
0.0
 40
4.0
  1
表面処理：レール
 41
0.9
 72
     1
 11
699.99719250121746
 21
-550.9084895294684
 31
0.0
  0
TEXT
  5
1EE55
  8
1TEXT
 10
695.7305258345508
 20
-557.74377818899268
 30
0.0
 40
4.0
  1
鏡面
 72
     1
 11
699.99719250121746
 21
-557.74377818899268
 31
0.0
  0
LINE
  5
1EE56
  8
1DIM
 10
647.59719250121782
 20
-545.40848952946828
 30
0.0
 11
752.59719250121782
 21
-545.40848952946828
 31
0.0
  0
LINE
  5
1EE57
  8
1DIM
 10
647.59719250121782
 20
-559.4084895294684
 30
0.0
 11
752.59719250121782
 21
-559.4084895294684
 31
0.0
  0
LINE
  5
1EE58
  8
1DIM
 10
647.59719250121782
 20
-552.40848952946828
 30
0.0
 11
752.59719250121782
 21
-552.40848952946828
 31
0.0
  0
LINE
  5
1EE5B
  8
1DIM
 10
717.59719250121782
 20
-545.40848952946828
 30
0.0
 11
717.59719250121782
 21
-559.4084895294684
 31
0.0
  0
TEXT
  5
1EE5D
  8
1TEXT
 10
728.19719250121739
 20
-550.9084895294684
 30
0.0
 40
4.0
  1
コード
 72
     1
 11
734.99719250121746
 21
-550.9084895294684
 31
0.0
  0
LINE
  5
1EE5E
  8
1DIM
 10
682.59719250121771
 20
-559.4084895294684
 30
0.0
 11
682.59719250121771
 21
-545.40848952946828
 31
0.0
  0
LINE
  5
1EE5F
  8
1DIM
 10
752.59719250121782
 20
-559.4084895294684
 30
0.0
 11
752.59719250121782
 21
-545.40848952946828
 31
0.0
  0
TEXT
  5
1EE62
  8
1TEXT
 10
648.73052583455069
 20
-550.9084895294684
 30
0.0
 40
4.0
  1
表面処理：本体
 72
     1
 11
664.99719250121746
 21
-550.9084895294684
 31
0.0
  0
TEXT
  5
1EE63
  8
1TEXT
 10
655.66385916788397
 20
-557.74377818899268
 30
0.0
 40
4.0
  1
クローム
 72
     1
 11
664.99719250121746
 21
-557.74377818899268
 31
0.0
  0
LINE
  5
1EE65
  8
1DIM
 10
647.59719250121782
 20
-559.4084895294684
 30
0.0
 11
647.59719250121782
 21
-545.40848952946828
 31
0.0
  0
TEXT
  5
1EE71
  8
1TEXT
 10
720.83052583455174
 20
-558.12284651311757
 30
0.0
 40
4.0
  1
SC-841-XC
 41
0.85
 72
     1
 11
734.99719250121836
 21
-558.12284651311757
 31
0.0
  0
LINE
  5
1F87F
  8
01
 10
445.7240623198964
 20
-645.32229607122395
 30
0.0
 11
445.71544554035808
 21
-645.32191856030545
 31
0.0
  0
LINE
  5
1F880
  8
01
 10
445.72663755025911
 20
-645.32244864860456
 30
0.0
 11
445.71544478416439
 21
-645.32193452513343
 31
0.0
  0
LINE
  5
1F881
  8
01
 10
445.72197724989888
 20
-645.3221946359414
 30
0.0
 11
445.7154456019303
 21
-645.32191724753488
 31
0.0
  0
LINE
  5
1F882
  8
01
 10
630.20320221082488
 20
-645.32133035126628
 30
0.0
 11
631.14204996286412
 21
-645.32133030115745
 31
0.0
  0
ARC
  5
1F883
  8
01
 10
424.01792422519532
 20
-640.82176077584325
 30
0.0
 40
5.001682628351217
 50
151.42530543737331
 51
179.9950693569528
  0
ARC
  5
1F884
  8
01
 10
490.01581119078668
 20
-640.82301296109483
 30
0.0
 40
5.0016826283485356
 50
61.425305408810708
 51
89.995069356952826
  0
ARC
  5
1F885
  8
01
 10
490.01455900553538
 20
-670.82089992668989
 30
0.0
 40
5.0016826283483509
 50
331.42530541303722
 51
359.9950693569528
  0
ARC
  5
1F886
  8
01
 10
424.01667203994202
 20
-670.81964774143148
 30
0.0
 40
5.0016826283554714
 50
241.42530544275181
 51
269.99506935693978
  0
LINE
  5
1F887
  8
01
 10
414.01627063911872
 20
-645.32133035126628
 30
0.0
 11
642.01624161536529
 21
-645.32133035126628
 31
0.0
  0
ARC
  5
1F888
  8
01
 10
642.01624161536529
 20
-646.3213303512664
 30
0.0
 40
1.0
 50
0.0
 51
90.0
  0
LINE
  5
1F889
  8
01
 10
642.01624161536529
 20
-666.32133035126628
 30
0.0
 11
414.01627063911872
 21
-666.32133035126628
 31
0.0
  0
ARC
  5
1F88A
  8
01
 10
414.01627063911872
 20
-665.32133035126628
 30
0.0
 40
1.0
 50
180.0
 51
270.0
  0
LINE
  5
1F88B
  8
01
 10
419.01624161536392
 20
-670.82133035126662
 30
0.0
 11
419.0162416157475
 21
-666.32133035126628
 31
0.0
  0
LINE
  5
1F88C
  8
01
 10
419.0162416157475
 20
-645.32133035126628
 30
0.0
 11
419.01624161536392
 21
-640.82133035126662
 31
0.0
  0
ARC
  5
1F89F
  8
01
 10
424.01624161536392
 20
-670.8213303512664
 30
0.0
 40
5.0000000000000089
 50
180.0
 51
241.42041485575649
  0
LINE
  5
1F8A0
  8
01
 10
490.01624161536353
 20
-675.82133035126662
 30
0.0
 11
424.01624161536432
 21
-675.82133035126662
 31
0.0
  0
ARC
  5
1F8A1
  8
01
 10
490.01624161536353
 20
-670.82133035126674
 30
0.0
 40
4.9999999999998597
 50
270.0
 51
331.42041482605492
  0
LINE
  5
1F8A2
  8
01
 10
495.01624161536341
 20
-666.32133035126617
 30
0.0
 11
495.01624161536341
 21
-670.82133035126662
 31
0.0
  0
LINE
  5
1F8A3
  8
01
 10
495.01624161536341
 20
-640.82133035126662
 30
0.0
 11
495.01624161536341
 21
-645.32133035126628
 31
0.0
  0
ARC
  5
1F8A4
  8
01
 10
490.01624161536353
 20
-640.82133035126651
 30
0.0
 40
4.9999999999999556
 50
0.0
 51
61.420414821821062
  0
LINE
  5
1F8A5
  8
01
 10
424.01624161536432
 20
-635.82133035126662
 30
0.0
 11
490.01624161536353
 21
-635.82133035126662
 31
0.0
  0
ARC
  5
1F8A6
  8
01
 10
424.01624161536432
 20
-640.82133035126708
 30
0.0
 40
5.0000000000006466
 50
90.0
 51
151.42041485038499
  0
LINE
  5
1FA88
  8
01
 10
413.01627063911872
 20
-646.3213303512664
 30
0.0
 11
413.01627063911872
 21
-665.32133035126628
 31
0.0
  0
ARC
  5
1FA89
  8
01
 10
414.01627063911872
 20
-646.3213303512664
 30
0.0
 40
1.0
 50
90.0
 51
180.0
  0
LINE
  5
1FA8A
  8
01
 10
643.01624161536529
 20
-646.3213303512664
 30
0.0
 11
643.01624161536529
 21
-665.32133035126628
 31
0.0
  0
ARC
  5
1FA8B
  8
01
 10
642.01624161536529
 20
-665.32133035126628
 30
0.0
 40
1.0
 50
270.0
 51
0.0
  0
LINE
  5
1FB75
  8
1HIDDEN
 10
425.01624161536319
 20
-561.07135937502164
 30
0.0
 11
405.01624161536319
 21
-561.07135937502164
 31
0.0
  0
LINE
  5
1FB76
  8
1HIDDEN
 10
425.01624161536591
 20
-791.07135937502164
 30
0.0
 11
405.01624161536591
 21
-791.07135937502164
 31
0.0
  0
LINE
  5
1FB77
  8
1HIDDEN
 10
425.01624161536591
 20
-789.07135937502164
 30
0.0
 11
405.01624161536591
 21
-789.07135937502164
 31
0.0
  0
LINE
  5
1FB78
  8
1HIDDEN
 10
425.01624161536591
 20
-784.07135937502164
 30
0.0
 11
405.01624161536591
 21
-784.07135937502164
 31
0.0
  0
ARC
  5
1FB79
  8
1HIDDEN
 10
405.01624161536409
 20
-604.07135937502176
 30
0.0
 40
5.0
 50
90.0
 51
180.0
  0
LINE
  5
1FB7A
  8
1HIDDEN
 10
425.01624161536409
 20
-594.07135937502164
 30
0.0
 11
405.01624161536409
 21
-594.07135937502164
 31
0.0
  0
ARC
  5
1FB7B
  8
1HIDDEN
 10
405.01624161536591
 20
-779.07135937502176
 30
0.0
 40
12.0
 50
180.0
 51
270.0
  0
ARC
  5
1FB7C
  8
1HIDDEN
 10
405.01624161536591
 20
-779.07135937502176
 30
0.0
 40
10.0
 50
180.0
 51
270.0
  0
ARC
  5
1FB7D
  8
1HIDDEN
 10
405.01624161536591
 20
-779.07135937502176
 30
0.0
 40
5.0
 50
180.0
 51
270.0
  0
LINE
  5
1FB7E
  8
1HIDDEN
 10
437.01624161536319
 20
-573.07135937502164
 30
0.0
 11
437.01624161536472
 21
-629.27338743403709
 31
0.0
  0
ARC
  5
1FB7F
  8
1HIDDEN
 10
425.01624161536319
 20
-573.07135937502164
 30
0.0
 40
12.0
 50
0.0
 51
90.0
  0
LINE
  5
1FB80
  8
1HIDDEN
 10
435.01624161536409
 20
-604.07135937502176
 30
0.0
 11
435.01624161536489
 21
-629.27338743403709
 31
0.0
  0
ARC
  5
1FB81
  8
1HIDDEN
 10
425.01624161536409
 20
-604.07135937502176
 30
0.0
 40
10.0
 50
0.0
 51
90.0
  0
LINE
  5
1FB82
  8
1HIDDEN
 10
430.01624161536409
 20
-604.07135937502176
 30
0.0
 11
430.01624161536478
 21
-629.27338743403709
 31
0.0
  0
ARC
  5
1FB83
  8
1HIDDEN
 10
425.01624161536409
 20
-604.07135937502176
 30
0.0
 40
5.0
 50
0.0
 51
90.0
  0
ARC
  5
1FB84
  8
1HIDDEN
 10
425.01624161536591
 20
-779.07135937502176
 30
0.0
 40
12.0
 50
270.0
 51
0.0
  0
ARC
  5
1FB85
  8
1HIDDEN
 10
425.01624161536591
 20
-779.07135937502176
 30
0.0
 40
10.0
 50
270.0
 51
0.0
  0
ARC
  5
1FB86
  8
1HIDDEN
 10
425.01624161536591
 20
-779.07135937502176
 30
0.0
 40
5.0
 50
270.0
 51
0.0
  0
LINE
  5
1FB87
  8
1HIDDEN
 10
393.0162416153633
 20
-573.07135937502164
 30
0.0
 11
393.0162416153691
 21
-779.07135937502221
 31
0.0
  0
LINE
  5
1FB88
  8
1HIDDEN
 10
395.01624161536409
 20
-604.07135937502176
 30
0.0
 11
395.0162416153691
 21
-779.07135937502176
 31
0.0
  0
ARC
  5
1FB89
  8
1HIDDEN
 10
405.01624161536409
 20
-604.07135937502176
 30
0.0
 40
10.0
 50
90.0
 51
180.0
  0
LINE
  5
1FB8A
  8
1HIDDEN
 10
400.01624161536409
 20
-604.07135937502176
 30
0.0
 11
400.01624161536898
 21
-779.07135937502176
 31
0.0
  0
ARC
  5
1FB8B
  8
1HIDDEN
 10
405.01624161536319
 20
-573.07135937502164
 30
0.0
 40
12.0
 50
90.0
 51
180.0
  0
LINE
  5
1FB8C
  8
1HIDDEN
 10
405.01624161536409
 20
-599.07135937502164
 30
0.0
 11
425.01624161536409
 21
-599.07135937502164
 31
0.0
  0
LINE
  5
1FBE6
  8
01
 10
495.0162416153629
 20
-559.82133035126571
 30
0.0
 11
495.01624161536148
 21
-555.82133035126594
 31
0.0
  0
ARC
  5
1FBE8
  8
01
 10
454.65101792621272
 20
-561.82133035126617
 30
0.0
 40
1.0
 50
90.0
 51
131.40962210918221
  0
ARC
  5
1FBEA
  8
01
 10
494.0162416153629
 20
-559.82133035126606
 30
0.0
 40
1.0
 50
270.0
 51
0.0000000000260551
  0
LINE
  5
1FBEB
  8
01
 10
439.01624161532322
 20
-560.82133035126617
 30
0.0
 11
451.01624161532322
 21
-560.82133035126617
 31
0.0
  0
LINE
  5
1FBED
  8
01
 10
419.0162416153633
 20
-555.82133035126606
 30
0.0
 11
495.01624161536148
 21
-555.8213303512664
 31
0.0
  0
ARC
  5
1FBEF
  8
01
 10
418.0162416153637
 20
-562.11687920116265
 30
0.0
 40
1.0
 50
302.57897039279692
 51
359.99999999997402
  0
LINE
  5
1FBF0
  8
01
 10
419.01624161536353
 20
-562.1168792011631
 30
0.0
 11
419.01624161536512
 21
-555.82133035126606
 31
0.0
  0
ARC
  5
1FBF1
  8
01
 10
420.01624161536398
 20
-559.82133035126606
 30
0.0
 40
1.0
 50
179.99999999998701
 51
270.0
  0
LINE
  5
1FBF2
  8
01
 10
420.01624161536398
 20
-560.82133035126617
 30
0.0
 11
494.0162416153629
 21
-560.82133035126617
 31
0.0
  0
CIRCLE
  5
1FC77
  8
1PHANTOM
 10
426.01624161536029
 20
-642.82133035126628
 30
0.0
 40
2.25
  0
LINE
  5
1FC78
  8
1CENTER
 10
431.01624161536029
 20
-642.82133035126628
 30
0.0
 11
421.01624161536017
 21
-642.82133035126628
 31
0.0
  0
LINE
  5
1FC79
  8
1CENTER
 10
426.01624161536029
 20
-637.82133035126617
 30
0.0
 11
426.01624161536029
 21
-647.82133035126628
 31
0.0
  0
CIRCLE
  5
1FC7A
  8
1PHANTOM
 10
426.01624161536029
 20
-668.82133035126628
 30
0.0
 40
2.25
  0
LINE
  5
1FC7B
  8
1CENTER
 10
431.01624161536029
 20
-668.82133035126628
 30
0.0
 11
421.01624161536017
 21
-668.82133035126628
 31
0.0
  0
LINE
  5
1FC7C
  8
1CENTER
 10
426.01624161536029
 20
-673.82133035126628
 30
0.0
 11
426.01624161536029
 21
-663.82133035126628
 31
0.0
  0
CIRCLE
  5
1FC7D
  8
1PHANTOM
 10
488.01624161536751
 20
-642.82133035126628
 30
0.0
 40
2.25
  0
LINE
  5
1FC7E
  8
1CENTER
 10
483.01624161536751
 20
-642.82133035126628
 30
0.0
 11
493.01624161536762
 21
-642.82133035126628
 31
0.0
  0
LINE
  5
1FC7F
  8
1CENTER
 10
488.01624161536751
 20
-637.82133035126617
 30
0.0
 11
488.01624161536751
 21
-647.82133035126628
 31
0.0
  0
CIRCLE
  5
1FC80
  8
1PHANTOM
 10
488.01624161536751
 20
-668.82133035126628
 30
0.0
 40
2.25
  0
LINE
  5
1FC81
  8
1CENTER
 10
483.01624161536751
 20
-668.82133035126628
 30
0.0
 11
493.01624161536762
 21
-668.82133035126628
 31
0.0
  0
LINE
  5
1FC82
  8
1CENTER
 10
488.01624161536751
 20
-673.82133035126628
 30
0.0
 11
488.01624161536751
 21
-663.82133035126628
 31
0.0
  0
LINE
  5
1FC85
  8
01
 10
652.5496088340152
 20
-665.92071103816488
 30
0.0
 11
652.54794441302113
 21
-665.92077492685326
 31
0.0
  0
LINE
  5
1FC86
  8
01
 10
652.55840172483227
 20
-665.92031584127608
 30
0.0
 11
652.5550554731509
 21
-665.92047767326858
 31
0.0
  0
LINE
  5
1FC87
  8
01
 10
652.56136765223187
 20
-665.92016083412386
 30
0.0
 11
652.54794441642173
 21
-665.92077499650873
 31
0.0
  0
LINE
  5
1FC89
  8
01
 10
650.84719250121759
 20
-645.92133034530593
 30
0.0
 11
650.84719250121759
 21
-664.92133034530593
 31
0.0
  0
ARC
  5
1FC8A
  8
01
 10
651.84719250121759
 20
-645.92133034530593
 30
0.0
 40
1.0
 50
90.0
 51
180.0
  0
ARC
  5
1FC8F
  8
01
 10
651.84719250121759
 20
-664.92133034530593
 30
0.0
 40
1.0
 50
180.0
 51
270.0
  0
LINE
  5
1FCD3
  8
01
 10
693.84794352248957
 20
-644.92133034530593
 30
0.0
 11
651.84719250121759
 21
-644.92133034530593
 31
0.0
  0
ARC
  5
1FCD4
  8
01
 10
693.84794352248957
 20
-645.92133034530593
 30
0.0
 40
1.0
 50
359.91380971005742
 51
90.0
  0
LINE
  5
1FCD5
  8
01
 10
651.84719250121759
 20
-665.92133034530593
 30
0.0
 11
693.84723040578535
 21
-665.92133034530593
 31
0.0
  0
ARC
  5
1FCD6
  8
01
 10
693.84723040578535
 20
-664.92133034530593
 30
0.0
 40
1.0
 50
270.0
 51
0.004343872822152
  0
ARC
  5
1FCD7
  8
01
 10
696.09719250121827
 20
-636.42133034530661
 30
0.0
 40
1.000000000000568
 50
90.000000000026048
 51
179.9999999999674
  0
ARC
  5
1FCD8
  8
01
 10
696.09719250121873
 20
-674.42133034530536
 30
0.0
 40
1.000000000001136
 50
180.00000000004559
 51
269.9999999999219
  0
LINE
  5
1FCD9
  8
01
 10
696.09719250121748
 20
-675.42133034530605
 30
0.0
 11
700.09719250121782
 21
-675.42133034530605
 31
0.0
  0
LINE
  5
1FCDA
  8
01
 10
700.09719250121782
 20
-635.42133034530605
 30
0.0
 11
696.09719250121748
 21
-635.42133034530605
 31
0.0
  0
LINE
  5
1FCDB
  8
01
 10
694.84794239102405
 20
-645.92283464908132
 30
0.0
 11
694.84723040291135
 21
-664.92125453042286
 31
0.0
  0
LINE
  5
1FCDC
  8
01
 10
695.09719250121759
 20
-674.42133034530616
 30
0.0
 11
695.09719250121759
 21
-636.42133034530661
 31
0.0
  0
LINE
  5
1FCDE
  8
01
 10
700.09719250121782
 20
-675.42133034530605
 30
0.0
 11
700.09719250121782
 21
-635.42133034530605
 31
0.0
  0
LINE
  5
1FCE4
  8
1CENTER
 10
420.79124161536311
 20
-573.07133035126606
 30
0.0
 11
429.24124161536309
 21
-573.07133035126606
 31
0.0
  0
LINE
  5
1FCE5
  8
1CENTER
 10
425.01624161536313
 20
-577.29633035126608
 30
0.0
 11
425.01624161536313
 21
-568.84633035126603
 31
0.0
  0
LINE
  5
1FFFE
  8
01
 10
413.01627063911877
 20
-573.07133035126594
 30
0.0
 11
413.01627063911877
 21
-593.07133035126594
 31
0.0
  0
LINE
  5
1FFFF
  8
01
 10
643.01627063911883
 20
-573.07133035126321
 30
0.0
 11
643.01627063911883
 21
-593.0713303512631
 31
0.0
  0
LINE
  5
20000
  8
01
 10
641.01627063911883
 20
-573.07133035126321
 30
0.0
 11
641.01627063911883
 21
-593.0713303512631
 31
0.0
  0
LINE
  5
20001
  8
01
 10
636.01627063911883
 20
-573.07133035126321
 30
0.0
 11
636.01627063911883
 21
-593.0713303512631
 31
0.0
  0
ARC
  5
20002
  8
01
 10
456.01627063911889
 20
-593.07133035126503
 30
0.0
 40
5.0
 50
180.0
 51
270.0
  0
LINE
  5
20003
  8
01
 10
446.01627063911877
 20
-573.07133035126503
 30
0.0
 11
446.01627063911877
 21
-593.07133035126503
 31
0.0
  0
ARC
  5
20004
  8
01
 10
631.01627063911883
 20
-593.0713303512631
 30
0.0
 40
12.0
 50
270.0
 51
0.0
  0
ARC
  5
20005
  8
01
 10
631.01627063911883
 20
-593.0713303512631
 30
0.0
 40
10.0
 50
270.0
 51
0.0
  0
ARC
  5
20006
  8
01
 10
631.01627063911883
 20
-593.0713303512631
 30
0.0
 40
5.0
 50
270.0
 51
0.0
  0
LINE
  5
20007
  8
01
 10
425.01627063911877
 20
-561.07133035126594
 30
0.0
 11
631.01627063911826
 21
-561.07133035126003
 31
0.0
  0
ARC
  5
20008
  8
01
 10
425.01627063911877
 20
-573.07133035126594
 30
0.0
 40
12.0
 50
90.0
 51
180.0
  0
LINE
  5
20009
  8
01
 10
456.01627063911889
 20
-563.07133035126503
 30
0.0
 11
631.01627063911883
 21
-563.07133035126003
 31
0.0
  0
ARC
  5
2000A
  8
01
 10
456.01627063911889
 20
-573.07133035126503
 30
0.0
 40
10.0
 50
90.0
 51
180.0
  0
LINE
  5
2000B
  8
01
 10
456.01627063911889
 20
-568.07133035126503
 30
0.0
 11
631.01627063911883
 21
-568.07133035126003
 31
0.0
  0
ARC
  5
2000C
  8
01
 10
456.01627063911889
 20
-573.07133035126503
 30
0.0
 40
5.0
 50
90.0
 51
180.0
  0
ARC
  5
2000D
  8
01
 10
631.01627063911883
 20
-573.07133035126321
 30
0.0
 40
12.0
 50
0.0
 51
90.0
  0
ARC
  5
2000E
  8
01
 10
631.01627063911883
 20
-573.07133035126321
 30
0.0
 40
10.0
 50
0.0
 51
90.0
  0
ARC
  5
2000F
  8
01
 10
631.01627063911883
 20
-573.07133035126321
 30
0.0
 40
5.0
 50
0.0
 51
90.0
  0
LINE
  5
20010
  8
01
 10
425.01627063911877
 20
-605.07133035126594
 30
0.0
 11
631.01627063911917
 21
-605.07133035126003
 31
0.0
  0
LINE
  5
20011
  8
01
 10
456.01627063911889
 20
-603.07133035126503
 30
0.0
 11
631.01627063911883
 21
-603.07133035126003
 31
0.0
  0
ARC
  5
20012
  8
01
 10
456.01627063911889
 20
-593.07133035126503
 30
0.0
 40
10.0
 50
180.0
 51
270.0
  0
LINE
  5
20013
  8
01
 10
456.01627063911889
 20
-598.07133035126503
 30
0.0
 11
631.01627063911883
 21
-598.07133035126003
 31
0.0
  0
ARC
  5
20014
  8
01
 10
425.01627063911877
 20
-593.07133035126594
 30
0.0
 40
12.0
 50
180.0
 51
270.0
  0
LINE
  5
20015
  8
01
 10
451.01627063911889
 20
-593.07133035126503
 30
0.0
 11
451.01627063911889
 21
-573.07133035126503
 31
0.0
  0
LINE
  5
200F5
  8
1HIDDEN
 10
437.01624161536728
 20
-716.74785056811425
 30
0.0
 11
437.01624161536898
 21
-779.07135937502119
 31
0.0
  0
LINE
  5
200F6
  8
1HIDDEN
 10
435.01624161536728
 20
-716.74785056811425
 30
0.0
 11
435.0162416153691
 21
-779.07135937502176
 31
0.0
  0
LINE
  5
200F7
  8
1HIDDEN
 10
430.01624161536728
 20
-716.74785056811425
 30
0.0
 11
430.0162416153691
 21
-779.07135937502176
 31
0.0
  0
TEXT
  5
201DB
  8
01
 10
719.97012615720553
 20
-611.3902613041472
 30
0.0
 40
3.5
  1
合板9mm以上
  0
TEXT
  5
201DC
  8
01
 10
706.83470801204032
 20
-611.3902613041472
 30
0.0
 40
3.5
  1
PB
  0
LINE
  5
201DD
  8
1DIM
 10
393.0162416153633
 20
-573.0713593750221
 30
0.0
 11
393.0162416153633
 21
-536.82648380208479
 31
0.0
  0
LINE
  5
201DE
  8
1DIM
 10
495.01624161536148
 20
-555.8213303512664
 30
0.0
 11
495.01624161536148
 21
-536.82648380208479
 31
0.0
  0
LINE
  5
201DF
  8
1DIM
 10
395.0162416153633
 20
-537.82648380208468
 30
0.0
 11
493.01624161536142
 21
-537.82648380208468
 31
0.0
  0
LINE
  5
201E3
  8
1DIM
 10
405.01624161536591
 20
-791.07135937502164
 30
0.0
 11
384.50384210974352
 21
-791.07135937502164
 31
0.0
  0
LINE
  5
201E4
  8
1DIM
 10
419.0162416153633
 20
-555.82133035126606
 30
0.0
 11
384.50384210974357
 21
-555.82133035126606
 31
0.0
  0
LINE
  5
201E5
  8
1DIM
 10
385.50384210974352
 20
-789.07135937502164
 30
0.0
 11
385.50384210974357
 21
-557.82133035126606
 31
0.0
  0
LINE
  5
201E9
  8
1DIM
 10
700.09719250121782
 20
-693.04950393654815
 30
0.0
 11
700.09719250121782
 21
-690.42133035126756
 31
0.0
  0
LINE
  5
201EA
  8
1DIM
 10
695.09719250121759
 20
-674.42133034530616
 30
0.0
 11
695.09719250121759
 21
-692.42133035126767
 31
0.0
  0
LINE
  5
201EB
  8
1DIM
 10
702.09719250121782
 20
-691.42133035126756
 30
0.0
 11
704.09719250121782
 21
-691.42133035126756
 31
0.0
  0
LINE
  5
201EC
  8
1DIM
 10
693.09719250121748
 20
-691.42133035126756
 30
0.0
 11
687.36385916788424
 21
-691.42133035126756
 31
0.0
  0
LINE
  5
201ED
  8
1DIM
 10
700.09719250121782
 20
-691.42133035126756
 30
0.0
 11
695.09719250121759
 21
-691.42133035126756
 31
0.0
  0
LINE
  5
201F1
  8
1DIM
 10
636.01627063911883
 20
-593.0713303512631
 30
0.0
 11
636.01627063911883
 21
-617.17126764232626
 31
0.0
  0
LINE
  5
201F2
  8
1DIM
 10
643.01627063911883
 20
-593.0713303512631
 30
0.0
 11
643.01627063911883
 21
-617.17126764232626
 31
0.0
  0
LINE
  5
201F3
  8
1DIM
 10
638.01627063911883
 20
-616.17126764232626
 30
0.0
 11
641.01627063911883
 21
-616.17126764232626
 31
0.0
  0
LINE
  5
201F7
  8
1DIM
 10
451.01627063911889
 20
-593.07133035126503
 30
0.0
 11
451.01627063911889
 21
-617.43921683232634
 31
0.0
  0
LINE
  5
201F8
  8
1DIM
 10
636.01627063911883
 20
-593.0713303512631
 30
0.0
 11
636.01627063911883
 21
-617.43921683232634
 31
0.0
  0
LINE
  5
201F9
  8
1DIM
 10
453.01627063911877
 20
-616.43921683232634
 30
0.0
 11
634.01627063911883
 21
-616.43921683232634
 31
0.0
  0
LINE
  5
201FD
  8
1DIM
 10
631.01627063911883
 20
-598.07133035126003
 30
0.0
 11
658.14801594444077
 21
-598.07133035126003
 31
0.0
  0
LINE
  5
201FE
  8
1DIM
 10
631.01627063911883
 20
-568.0713303512631
 30
0.0
 11
658.14801594444077
 21
-568.0713303512631
 31
0.0
  0
LINE
  5
201FF
  8
1DIM
 10
657.14801594444077
 20
-596.07133035126003
 30
0.0
 11
657.14801594444077
 21
-570.07133035126321
 31
0.0
  0
LINE
  5
20203
  8
1DIM
 10
426.01624161536029
 20
-673.82133035126628
 30
0.0
 11
426.01624161536029
 21
-692.42133035126767
 31
0.0
  0
LINE
  5
20204
  8
1DIM
 10
413.01627063911872
 20
-655.8213303512664
 30
0.0
 11
413.01627063911872
 21
-692.42133035126767
 31
0.0
  0
LINE
  5
20205
  8
1DIM
 10
424.01624161536017
 20
-691.42133035126756
 30
0.0
 11
415.01627063911872
 21
-691.42133035126756
 31
0.0
  0
LINE
  5
2020A
  8
1CENTER
 10
488.01624161536768
 20
-522.15127903073176
 30
0.0
 11
488.01624161536762
 21
-559.98441207810663
 31
0.0
  0
LINE
  5
2020B
  8
0
 10
486.5162881512656
 20
-530.80577173139272
 30
0.0
 11
486.0162881512656
 21
-530.70577056799539
 31
0.0
  0
LINE
  5
2020C
  8
0
 10
486.0162881512656
 20
-530.70577056799539
 30
0.0
 11
490.01628815126548
 21
-529.90577987517304
 31
0.0
  0
LINE
  5
2020D
  8
0
 10
490.01628815126548
 20
-529.90577987517304
 30
0.0
 11
489.51628815126548
 21
-529.80577871177593
 31
0.0
  0
LINE
  5
2020E
  8
0
 10
486.51628815126548
 20
-532.40577173139263
 30
0.0
 11
486.01628815126548
 21
-532.30577056799552
 31
0.0
  0
LINE
  5
2020F
  8
0
 10
490.01628815126548
 20
-531.50577987517295
 30
0.0
 11
489.51628815126548
 21
-531.40577871177584
 31
0.0
  0
LINE
  5
20210
  8
0
 10
486.01628815126548
 20
-532.30577056799552
 30
0.0
 11
490.01628815126548
 21
-531.50577987517295
 31
0.0
  0
LINE
  5
20211
  8
0
 10
486.51628815126548
 20
-534.00577173139277
 30
0.0
 11
486.01628815126548
 21
-533.90577056799555
 31
0.0
  0
LINE
  5
20212
  8
0
 10
486.01628815126548
 20
-533.90577056799555
 30
0.0
 11
490.01628815126548
 21
-533.10577987517297
 31
0.0
  0
LINE
  5
20213
  8
0
 10
490.01628815126548
 20
-533.10577987517297
 30
0.0
 11
489.51628815126548
 21
-533.00577871177586
 31
0.0
  0
LINE
  5
20214
  8
0
 10
486.51628815126548
 20
-542.00577173139277
 30
0.0
 11
486.01628815126548
 21
-541.90577056799555
 31
0.0
  0
LINE
  5
20215
  8
0
 10
490.01628815126548
 20
-541.10577987517308
 30
0.0
 11
489.51628815126548
 21
-541.00577871177586
 31
0.0
  0
LINE
  5
20216
  8
0
 10
490.01628815126548
 20
-539.50577987517295
 30
0.0
 11
489.51628815126548
 21
-539.40577871177584
 31
0.0
  0
LINE
  5
20217
  8
0
 10
486.51628815126548
 20
-540.40577173139263
 30
0.0
 11
486.01628815126548
 21
-540.30577056799541
 31
0.0
  0
LINE
  5
20218
  8
0
 10
486.51628815126548
 20
-538.80577173139272
 30
0.0
 11
486.01628815126548
 21
-538.70577056799561
 31
0.0
  0
LINE
  5
20219
  8
0
 10
486.01628815126548
 20
-540.30577056799541
 30
0.0
 11
490.01628815126548
 21
-539.50577987517295
 31
0.0
  0
LINE
  5
2021A
  8
0
 10
486.01628815126548
 20
-541.90577056799555
 30
0.0
 11
490.01628815126548
 21
-541.10577987517308
 31
0.0
  0
LINE
  5
2021B
  8
0
 10
486.51628815126548
 20
-537.20577173139282
 30
0.0
 11
486.01628815126548
 21
-537.10577056799548
 31
0.0
  0
LINE
  5
2021C
  8
0
 10
486.5162881512656
 20
-529.00577173139266
 30
0.0
 11
486.0162881512656
 21
-528.90577056799555
 31
0.0
  0
LINE
  5
2021D
  8
0
 10
486.0162881512656
 20
-528.90577056799555
 30
0.0
 11
489.78988109906157
 21
-528.10577934837045
 31
0.0
  0
LINE
  5
2021E
  8
0
 10
489.78988109906157
 20
-528.10577934837045
 30
0.0
 11
489.25328736379049
 21
-527.97650865074047
 31
0.0
  0
LINE
  5
2021F
  8
0
 10
490.01628815126548
 20
-536.30577987517313
 30
0.0
 11
489.51628815126548
 21
-536.20577871177602
 31
0.0
  0
LINE
  5
20220
  8
0
 10
490.01628815126548
 20
-534.70577987517299
 30
0.0
 11
489.51628815126548
 21
-534.60577871177577
 31
0.0
  0
LINE
  5
20221
  8
0
 10
486.51628815126548
 20
-535.60577173139268
 30
0.0
 11
486.01628815126548
 21
-535.50577056799546
 31
0.0
  0
LINE
  5
20222
  8
0
 10
486.01628815126548
 20
-535.50577056799546
 30
0.0
 11
490.01628815126548
 21
-534.70577987517299
 31
0.0
  0
LINE
  5
20223
  8
0
 10
486.01628815126548
 20
-537.10577056799548
 30
0.0
 11
490.01628815126548
 21
-536.30577987517313
 31
0.0
  0
LINE
  5
20224
  8
0
 10
486.46910429332428
 20
-527.30577162160591
 30
0.0
 11
489.33706699465478
 21
-526.50577829476481
 31
0.0
  0
LINE
  5
20225
  8
0
 10
486.92191780137262
 20
-525.70577267521014
 30
0.0
 11
488.88425289024798
 21
-524.90577724115917
 31
0.0
  0
LINE
  5
20226
  8
0
 10
489.33706699465478
 20
-526.50577829476481
 30
0.0
 11
488.7853175308515
 21
-526.32301415213681
 31
0.0
  0
LINE
  5
20227
  8
0
 10
487.37908964200369
 20
-525.85720847165055
 30
0.0
 11
486.92191780137262
 21
-525.70577267521014
 31
0.0
  0
LINE
  5
20228
  8
0
 10
488.88425289024798
 20
-524.90577724115917
 30
0.0
 11
488.29597631520562
 21
-524.59400738490694
 31
0.0
  0
LINE
  5
20229
  8
0
 10
486.93720274847419
 20
-527.41854113395596
 30
0.0
 11
486.46910429332428
 21
-527.30577162160591
 31
0.0
  0
LINE
  5
2022A
  8
0
 10
490.01628815126548
 20
-537.90577987517315
 30
0.0
 11
489.51628815126548
 21
-537.80577871177593
 31
0.0
  0
LINE
  5
2022B
  8
0
 10
486.01628815126548
 20
-538.70577056799561
 30
0.0
 11
490.01628815126548
 21
-537.90577987517315
 31
0.0
  0
LINE
  5
2022C
  8
0
 10
489.51628815126548
 20
-555.60577871179282
 30
0.0
 11
490.01628815126548
 21
-555.50577987519057
 31
0.0
  0
LINE
  5
2022D
  8
0
 10
486.01628815126548
 20
-554.70577056800425
 30
0.0
 11
490.01628815126548
 21
-553.90577987518623
 31
0.0
  0
LINE
  5
2022E
  8
0
 10
486.01628815126548
 20
-551.50577056800421
 30
0.0
 11
490.01628815126548
 21
-550.70577987518607
 31
0.0
  0
LINE
  5
2022F
  8
0
 10
490.01628815126548
 20
-550.70577987518607
 30
0.0
 11
489.51628815126548
 21
-550.60577871178839
 31
0.0
  0
LINE
  5
20230
  8
0
 10
490.01628815126548
 20
-553.90577987518623
 30
0.0
 11
489.51628815126548
 21
-553.80577871178855
 31
0.0
  0
LINE
  5
20231
  8
0
 10
486.51628815126548
 20
-553.20577173140214
 30
0.0
 11
486.01628815126548
 21
-553.10577056800435
 31
0.0
  0
LINE
  5
20232
  8
0
 10
490.01628815126548
 20
-552.30577987518632
 30
0.0
 11
489.51628815126548
 21
-552.20577871178864
 31
0.0
  0
LINE
  5
20233
  8
0
 10
486.01628815126548
 20
-553.10577056800435
 30
0.0
 11
490.01628815126548
 21
-552.30577987518632
 31
0.0
  0
LINE
  5
20234
  8
0
 10
486.51628815126548
 20
-551.60577173140189
 30
0.0
 11
486.01628815126548
 21
-551.50577056800421
 31
0.0
  0
LINE
  5
20235
  8
0
 10
490.01628815126548
 20
-555.50577987519057
 30
0.0
 11
489.51628815126548
 21
-555.40577871179289
 31
0.0
  0
LINE
  5
20236
  8
0
 10
486.51628815126548
 20
-554.80577173140205
 30
0.0
 11
486.01628815126548
 21
-554.70577056800425
 31
0.0
  0
LINE
  5
20237
  8
0
 10
484.01624161536762
 20
-558.30576591418924
 30
0.0
 11
492.01624161536762
 21
-558.30578452854843
 31
0.0
  0
LINE
  5
20238
  8
0
 10
486.51628815126548
 20
-550.00577173139766
 30
0.0
 11
486.01628815126548
 21
-549.90577056799998
 31
0.0
  0
LINE
  5
20239
  8
0
 10
486.51628815126548
 20
-548.40577173139332
 30
0.0
 11
486.01628815126548
 21
-548.30577056799564
 31
0.0
  0
LINE
  5
2023A
  8
0
 10
490.01628815126548
 20
-549.10577987518184
 30
0.0
 11
489.51628815126548
 21
-549.00577871178405
 31
0.0
  0
LINE
  5
2023B
  8
0
 10
486.51628815126548
 20
-545.20577173139316
 30
0.0
 11
486.01628815126548
 21
-545.10577056799548
 31
0.0
  0
LINE
  5
2023C
  8
0
 10
486.01628815126548
 20
-546.70577056799573
 30
0.0
 11
490.01628815126548
 21
-545.90577987517759
 31
0.0
  0
LINE
  5
2023D
  8
0
 10
490.01628815126548
 20
-545.90577987517759
 30
0.0
 11
489.51628815126548
 21
-545.80577871177991
 31
0.0
  0
LINE
  5
2023E
  8
0
 10
486.51628815126548
 20
-546.80577173139341
 30
0.0
 11
486.01628815126548
 21
-546.70577056799573
 31
0.0
  0
LINE
  5
2023F
  8
0
 10
490.01628815126548
 20
-547.5057798751775
 30
0.0
 11
489.51628815126548
 21
-547.40577871177982
 31
0.0
  0
LINE
  5
20240
  8
0
 10
490.01628815126548
 20
-542.70577987517299
 30
0.0
 11
489.51628815126548
 21
-542.605778711776
 31
0.0
  0
LINE
  5
20241
  8
0
 10
490.01628815126548
 20
-544.30577987517745
 30
0.0
 11
489.51628815126548
 21
-544.20577871177966
 31
0.0
  0
LINE
  5
20242
  8
0
 10
486.51628815126548
 20
-543.60577173139325
 30
0.0
 11
486.01628815126548
 21
-543.50577056799546
 31
0.0
  0
LINE
  5
20243
  8
0
 10
486.01628815126548
 20
-543.50577056799546
 30
0.0
 11
490.01628815126548
 21
-542.70577987517299
 31
0.0
  0
LINE
  5
20244
  8
0
 10
486.01628815126548
 20
-545.10577056799548
 30
0.0
 11
490.01628815126548
 21
-544.30577987517745
 31
0.0
  0
LINE
  5
20245
  8
0
 10
486.01628815126548
 20
-548.30577056799564
 30
0.0
 11
490.01628815126548
 21
-547.5057798751775
 31
0.0
  0
LINE
  5
20246
  8
0
 10
486.01628815126548
 20
-549.90577056799998
 30
0.0
 11
490.01628815126548
 21
-549.10577987518184
 31
0.0
  0
LINE
  5
20248
  8
1CENTER
 10
426.0162416153604
 20
-522.15127903073176
 30
0.0
 11
426.01624161536029
 21
-559.98441207810663
 31
0.0
  0
LINE
  5
20249
  8
0
 10
424.51628815125832
 20
-530.80577173139272
 30
0.0
 11
424.01628815125832
 21
-530.70577056799539
 31
0.0
  0
LINE
  5
2024A
  8
0
 10
424.01628815125832
 20
-530.70577056799539
 30
0.0
 11
428.01628815125832
 21
-529.90577987517304
 31
0.0
  0
LINE
  5
2024B
  8
0
 10
428.01628815125832
 20
-529.90577987517304
 30
0.0
 11
427.51628815125832
 21
-529.80577871177593
 31
0.0
  0
LINE
  5
2024C
  8
0
 10
424.51628815125821
 20
-532.40577173139263
 30
0.0
 11
424.01628815125821
 21
-532.30577056799552
 31
0.0
  0
LINE
  5
2024D
  8
0
 10
428.01628815125832
 20
-531.50577987517295
 30
0.0
 11
427.51628815125832
 21
-531.40577871177584
 31
0.0
  0
LINE
  5
2024E
  8
0
 10
424.01628815125821
 20
-532.30577056799552
 30
0.0
 11
428.01628815125832
 21
-531.50577987517295
 31
0.0
  0
LINE
  5
2024F
  8
0
 10
424.51628815125821
 20
-534.00577173139277
 30
0.0
 11
424.01628815125821
 21
-533.90577056799555
 31
0.0
  0
LINE
  5
20250
  8
0
 10
424.01628815125821
 20
-533.90577056799555
 30
0.0
 11
428.01628815125821
 21
-533.10577987517297
 31
0.0
  0
LINE
  5
20251
  8
0
 10
428.01628815125821
 20
-533.10577987517297
 30
0.0
 11
427.51628815125821
 21
-533.00577871177586
 31
0.0
  0
LINE
  5
20252
  8
0
 10
424.51628815125821
 20
-542.00577173139277
 30
0.0
 11
424.01628815125821
 21
-541.90577056799555
 31
0.0
  0
LINE
  5
20253
  8
0
 10
428.01628815125821
 20
-541.10577987517308
 30
0.0
 11
427.51628815125821
 21
-541.00577871177586
 31
0.0
  0
LINE
  5
20254
  8
0
 10
428.01628815125821
 20
-539.50577987517295
 30
0.0
 11
427.51628815125821
 21
-539.40577871177584
 31
0.0
  0
LINE
  5
20255
  8
0
 10
424.51628815125821
 20
-540.40577173139263
 30
0.0
 11
424.01628815125821
 21
-540.30577056799541
 31
0.0
  0
LINE
  5
20256
  8
0
 10
424.51628815125821
 20
-538.80577173139272
 30
0.0
 11
424.01628815125821
 21
-538.70577056799561
 31
0.0
  0
LINE
  5
20257
  8
0
 10
424.01628815125821
 20
-540.30577056799541
 30
0.0
 11
428.01628815125821
 21
-539.50577987517295
 31
0.0
  0
LINE
  5
20258
  8
0
 10
424.01628815125821
 20
-541.90577056799555
 30
0.0
 11
428.01628815125821
 21
-541.10577987517308
 31
0.0
  0
LINE
  5
20259
  8
0
 10
424.51628815125821
 20
-537.20577173139282
 30
0.0
 11
424.01628815125821
 21
-537.10577056799548
 31
0.0
  0
LINE
  5
2025A
  8
0
 10
424.51628815125832
 20
-529.00577173139266
 30
0.0
 11
424.01628815125832
 21
-528.90577056799555
 31
0.0
  0
LINE
  5
2025B
  8
0
 10
424.01628815125832
 20
-528.90577056799555
 30
0.0
 11
427.7898810990543
 21
-528.10577934837045
 31
0.0
  0
LINE
  5
2025C
  8
0
 10
427.7898810990543
 20
-528.10577934837045
 30
0.0
 11
427.25328736378322
 21
-527.97650865074047
 31
0.0
  0
LINE
  5
2025D
  8
0
 10
428.01628815125821
 20
-536.30577987517313
 30
0.0
 11
427.51628815125821
 21
-536.20577871177602
 31
0.0
  0
LINE
  5
2025E
  8
0
 10
428.01628815125821
 20
-534.70577987517299
 30
0.0
 11
427.51628815125821
 21
-534.60577871177577
 31
0.0
  0
LINE
  5
2025F
  8
0
 10
424.51628815125821
 20
-535.60577173139268
 30
0.0
 11
424.01628815125821
 21
-535.50577056799546
 31
0.0
  0
LINE
  5
20260
  8
0
 10
424.01628815125821
 20
-535.50577056799546
 30
0.0
 11
428.01628815125821
 21
-534.70577987517299
 31
0.0
  0
LINE
  5
20261
  8
0
 10
424.01628815125821
 20
-537.10577056799548
 30
0.0
 11
428.01628815125821
 21
-536.30577987517313
 31
0.0
  0
LINE
  5
20262
  8
0
 10
424.469104293317
 20
-527.30577162160591
 30
0.0
 11
427.3370669946475
 21
-526.50577829476481
 31
0.0
  0
LINE
  5
20263
  8
0
 10
424.92191780136528
 20
-525.70577267521014
 30
0.0
 11
426.8842528902407
 21
-524.90577724115917
 31
0.0
  0
LINE
  5
20264
  8
0
 10
427.3370669946475
 20
-526.50577829476481
 30
0.0
 11
426.78531753084422
 21
-526.32301415213681
 31
0.0
  0
LINE
  5
20265
  8
0
 10
425.37908964199642
 20
-525.85720847165055
 30
0.0
 11
424.92191780136528
 21
-525.70577267521014
 31
0.0
  0
LINE
  5
20266
  8
0
 10
426.8842528902407
 20
-524.90577724115917
 30
0.0
 11
426.29597631519829
 21
-524.59400738490694
 31
0.0
  0
LINE
  5
20267
  8
0
 10
424.93720274846697
 20
-527.41854113395596
 30
0.0
 11
424.469104293317
 21
-527.30577162160591
 31
0.0
  0
LINE
  5
20268
  8
0
 10
428.01628815125821
 20
-537.90577987517315
 30
0.0
 11
427.51628815125821
 21
-537.80577871177593
 31
0.0
  0
LINE
  5
20269
  8
0
 10
424.01628815125821
 20
-538.70577056799561
 30
0.0
 11
428.01628815125821
 21
-537.90577987517315
 31
0.0
  0
LINE
  5
2026A
  8
0
 10
427.51628815125821
 20
-555.60577871179282
 30
0.0
 11
428.01628815125821
 21
-555.50577987519057
 31
0.0
  0
LINE
  5
2026B
  8
0
 10
424.01628815125821
 20
-554.70577056800425
 30
0.0
 11
428.01628815125821
 21
-553.90577987518623
 31
0.0
  0
LINE
  5
2026C
  8
0
 10
424.01628815125821
 20
-551.50577056800421
 30
0.0
 11
428.01628815125821
 21
-550.70577987518607
 31
0.0
  0
LINE
  5
2026D
  8
0
 10
428.01628815125821
 20
-550.70577987518607
 30
0.0
 11
427.51628815125821
 21
-550.60577871178839
 31
0.0
  0
LINE
  5
2026E
  8
0
 10
428.01628815125821
 20
-553.90577987518623
 30
0.0
 11
427.51628815125821
 21
-553.80577871178855
 31
0.0
  0
LINE
  5
2026F
  8
0
 10
424.51628815125821
 20
-553.20577173140214
 30
0.0
 11
424.01628815125821
 21
-553.10577056800435
 31
0.0
  0
LINE
  5
20270
  8
0
 10
428.01628815125821
 20
-552.30577987518632
 30
0.0
 11
427.51628815125821
 21
-552.20577871178864
 31
0.0
  0
LINE
  5
20271
  8
0
 10
424.01628815125821
 20
-553.10577056800435
 30
0.0
 11
428.01628815125821
 21
-552.30577987518632
 31
0.0
  0
LINE
  5
20272
  8
0
 10
424.51628815125821
 20
-551.60577173140189
 30
0.0
 11
424.01628815125821
 21
-551.50577056800421
 31
0.0
  0
LINE
  5
20273
  8
0
 10
428.01628815125821
 20
-555.50577987519057
 30
0.0
 11
427.51628815125821
 21
-555.40577871179289
 31
0.0
  0
LINE
  5
20274
  8
0
 10
424.51628815125821
 20
-554.80577173140205
 30
0.0
 11
424.01628815125821
 21
-554.70577056800425
 31
0.0
  0
LINE
  5
20275
  8
0
 10
422.01624161536029
 20
-558.30576591418924
 30
0.0
 11
430.01624161536029
 21
-558.30578452854843
 31
0.0
  0
LINE
  5
20276
  8
0
 10
424.51628815125821
 20
-550.00577173139766
 30
0.0
 11
424.01628815125821
 21
-549.90577056799998
 31
0.0
  0
LINE
  5
20277
  8
0
 10
424.51628815125821
 20
-548.40577173139332
 30
0.0
 11
424.01628815125821
 21
-548.30577056799564
 31
0.0
  0
LINE
  5
20278
  8
0
 10
428.01628815125821
 20
-549.10577987518184
 30
0.0
 11
427.51628815125821
 21
-549.00577871178405
 31
0.0
  0
LINE
  5
20279
  8
0
 10
424.51628815125821
 20
-545.20577173139316
 30
0.0
 11
424.01628815125821
 21
-545.10577056799548
 31
0.0
  0
LINE
  5
2027A
  8
0
 10
424.01628815125821
 20
-546.70577056799573
 30
0.0
 11
428.01628815125821
 21
-545.90577987517759
 31
0.0
  0
LINE
  5
2027B
  8
0
 10
428.01628815125821
 20
-545.90577987517759
 30
0.0
 11
427.51628815125821
 21
-545.80577871177991
 31
0.0
  0
LINE
  5
2027C
  8
0
 10
424.51628815125821
 20
-546.80577173139341
 30
0.0
 11
424.01628815125821
 21
-546.70577056799573
 31
0.0
  0
LINE
  5
2027D
  8
0
 10
428.01628815125821
 20
-547.5057798751775
 30
0.0
 11
427.51628815125821
 21
-547.40577871177982
 31
0.0
  0
LINE
  5
2027E
  8
0
 10
428.01628815125821
 20
-542.70577987517299
 30
0.0
 11
427.51628815125821
 21
-542.605778711776
 31
0.0
  0
LINE
  5
2027F
  8
0
 10
428.01628815125821
 20
-544.30577987517745
 30
0.0
 11
427.51628815125821
 21
-544.20577871177966
 31
0.0
  0
LINE
  5
20280
  8
0
 10
424.51628815125821
 20
-543.60577173139325
 30
0.0
 11
424.01628815125821
 21
-543.50577056799546
 31
0.0
  0
LINE
  5
20281
  8
0
 10
424.01628815125821
 20
-543.50577056799546
 30
0.0
 11
428.01628815125821
 21
-542.70577987517299
 31
0.0
  0
LINE
  5
20282
  8
0
 10
424.01628815125821
 20
-545.10577056799548
 30
0.0
 11
428.01628815125821
 21
-544.30577987517745
 31
0.0
  0
LINE
  5
20283
  8
0
 10
424.01628815125821
 20
-548.30577056799564
 30
0.0
 11
428.01628815125821
 21
-547.5057798751775
 31
0.0
  0
LINE
  5
20284
  8
0
 10
424.01628815125821
 20
-549.90577056799998
 30
0.0
 11
428.01628815125821
 21
-549.10577987518184
 31
0.0
  0
LINE
  5
20286
  8
1CENTER
 10
733.76724382175212
 20
-668.42133034530286
 30
0.0
 11
695.93411077437736
 21
-668.42133034530286
 31
0.0
  0
LINE
  5
20287
  8
0
 10
725.11275112109126
 20
-669.92128380940505
 30
0.0
 11
725.21275228448849
 21
-670.42128380940505
 31
0.0
  0
LINE
  5
20288
  8
0
 10
725.21275228448849
 20
-670.42128380940505
 30
0.0
 11
726.01274297731106
 21
-666.42128380940505
 31
0.0
  0
LINE
  5
20289
  8
0
 10
726.01274297731106
 20
-666.42128380940505
 30
0.0
 11
726.11274414070806
 21
-666.92128380940505
 31
0.0
  0
LINE
  5
2028A
  8
0
 10
723.51275112109124
 20
-669.92128380940505
 30
0.0
 11
723.61275228448835
 21
-670.42128380940505
 31
0.0
  0
LINE
  5
2028B
  8
0
 10
724.41274297731093
 20
-666.42128380940505
 30
0.0
 11
724.51274414070804
 21
-666.92128380940505
 31
0.0
  0
LINE
  5
2028C
  8
0
 10
723.61275228448835
 20
-670.42128380940505
 30
0.0
 11
724.41274297731093
 21
-666.42128380940505
 31
0.0
  0
LINE
  5
2028D
  8
0
 10
721.91275112109133
 20
-669.92128380940505
 30
0.0
 11
722.01275228448844
 21
-670.42128380940505
 31
0.0
  0
LINE
  5
2028E
  8
0
 10
722.01275228448844
 20
-670.42128380940505
 30
0.0
 11
722.81274297731102
 21
-666.42128380940505
 31
0.0
  0
LINE
  5
2028F
  8
0
 10
722.81274297731102
 20
-666.42128380940505
 30
0.0
 11
722.91274414070813
 21
-666.92128380940505
 31
0.0
  0
LINE
  5
20290
  8
0
 10
713.91275112109111
 20
-669.92128380940505
 30
0.0
 11
714.01275228448822
 21
-670.42128380940505
 31
0.0
  0
LINE
  5
20291
  8
0
 10
714.81274297731079
 20
-666.42128380940505
 30
0.0
 11
714.91274414070813
 21
-666.92128380940505
 31
0.0
  0
LINE
  5
20292
  8
0
 10
716.41274297731093
 20
-666.42128380940505
 30
0.0
 11
716.51274414070804
 21
-666.92128380940505
 31
0.0
  0
LINE
  5
20293
  8
0
 10
715.51275112109124
 20
-669.92128380940505
 30
0.0
 11
715.61275228448835
 21
-670.42128380940505
 31
0.0
  0
LINE
  5
20294
  8
0
 10
717.11275112109115
 20
-669.92128380940505
 30
0.0
 11
717.21275228448815
 21
-670.42128380940505
 31
0.0
  0
LINE
  5
20295
  8
0
 10
715.61275228448835
 20
-670.42128380940505
 30
0.0
 11
716.41274297731093
 21
-666.42128380940505
 31
0.0
  0
LINE
  5
20296
  8
0
 10
714.01275228448822
 20
-670.42128380940505
 30
0.0
 11
714.81274297731079
 21
-666.42128380940505
 31
0.0
  0
LINE
  5
20297
  8
0
 10
718.71275112109095
 20
-669.92128380940505
 30
0.0
 11
718.8127522844884
 21
-670.42128380940505
 31
0.0
  0
LINE
  5
20298
  8
0
 10
726.91275112109111
 20
-669.92128380940505
 30
0.0
 11
727.01275228448822
 21
-670.42128380940505
 31
0.0
  0
LINE
  5
20299
  8
0
 10
727.01275228448822
 20
-670.42128380940505
 30
0.0
 11
727.81274350411354
 21
-666.64769086160902
 31
0.0
  0
LINE
  5
2029A
  8
0
 10
727.81274350411354
 20
-666.64769086160902
 30
0.0
 11
727.9420142017434
 21
-667.18428459688005
 31
0.0
  0
LINE
  5
2029B
  8
0
 10
719.61274297731097
 20
-666.42128380940505
 30
0.0
 11
719.71274414070785
 21
-666.92128380940505
 31
0.0
  0
LINE
  5
2029C
  8
0
 10
721.21274297731088
 20
-666.42128380940505
 30
0.0
 11
721.31274414070788
 21
-666.92128380940505
 31
0.0
  0
LINE
  5
2029D
  8
0
 10
720.3127511210912
 20
-669.92128380940505
 30
0.0
 11
720.41275228448831
 21
-670.42128380940505
 31
0.0
  0
LINE
  5
2029E
  8
0
 10
720.41275228448831
 20
-670.42128380940505
 30
0.0
 11
721.21274297731088
 21
-666.42128380940505
 31
0.0
  0
LINE
  5
2029F
  8
0
 10
718.8127522844884
 20
-670.42128380940505
 30
0.0
 11
719.61274297731097
 21
-666.42128380940505
 31
0.0
  0
LINE
  5
202A0
  8
0
 10
728.61275123087796
 20
-669.96846766734632
 30
0.0
 11
729.41274455771907
 21
-667.10050496601582
 31
0.0
  0
LINE
  5
202A1
  8
0
 10
730.21275017727385
 20
-669.51565415929804
 30
0.0
 11
731.01274561132482
 21
-667.55331907042262
 31
0.0
  0
LINE
  5
202A2
  8
0
 10
729.41274455771907
 20
-667.10050496601582
 30
0.0
 11
729.59550870034718
 21
-667.65225442981898
 31
0.0
  0
LINE
  5
202A3
  8
0
 10
730.06131438083344
 20
-669.05848231866685
 30
0.0
 11
730.21275017727385
 21
-669.51565415929804
 31
0.0
  0
LINE
  5
202A4
  8
0
 10
731.01274561132482
 20
-667.55331907042262
 30
0.0
 11
731.32451546757693
 21
-668.14159564546503
 31
0.0
  0
LINE
  5
202A5
  8
0
 10
728.49998171852803
 20
-669.50036921219635
 30
0.0
 11
728.61275123087796
 21
-669.96846766734632
 31
0.0
  0
LINE
  5
202A6
  8
0
 10
718.01274297731084
 20
-666.42128380940505
 30
0.0
 11
718.11274414070806
 21
-666.92128380940505
 31
0.0
  0
LINE
  5
202A7
  8
0
 10
717.21275228448815
 20
-670.42128380940505
 30
0.0
 11
718.01274297731084
 21
-666.42128380940505
 31
0.0
  0
LINE
  5
202A8
  8
0
 10
700.31274414069117
 20
-666.92128380940505
 30
0.0
 11
700.41274297729342
 21
-666.42128380940505
 31
0.0
  0
LINE
  5
202A9
  8
0
 10
701.21275228447962
 20
-670.42128380940505
 30
0.0
 11
702.01274297729776
 21
-666.42128380940505
 31
0.0
  0
LINE
  5
202AA
  8
0
 10
704.41275228447955
 20
-670.42128380940505
 30
0.0
 11
705.21274297729792
 21
-666.42128380940505
 31
0.0
  0
LINE
  5
202AB
  8
0
 10
705.21274297729792
 20
-666.42128380940505
 30
0.0
 11
705.31274414069549
 21
-666.92128380940505
 31
0.0
  0
LINE
  5
202AC
  8
0
 10
702.01274297729776
 20
-666.42128380940505
 30
0.0
 11
702.11274414069544
 21
-666.92128380940505
 31
0.0
  0
LINE
  5
202AD
  8
0
 10
702.71275112108174
 20
-669.92128380940505
 30
0.0
 11
702.81275228447953
 21
-670.42128380940505
 31
0.0
  0
LINE
  5
202AE
  8
0
 10
703.61274297729767
 20
-666.42128380940505
 30
0.0
 11
703.71274414069535
 21
-666.92128380940505
 31
0.0
  0
LINE
  5
202AF
  8
0
 10
702.81275228447953
 20
-670.42128380940505
 30
0.0
 11
703.61274297729767
 21
-666.42128380940505
 31
0.0
  0
LINE
  5
202B0
  8
0
 10
704.31275112108176
 20
-669.92128380940505
 30
0.0
 11
704.41275228447955
 21
-670.42128380940505
 31
0.0
  0
LINE
  5
202B1
  8
0
 10
700.41274297729342
 20
-666.42128380940505
 30
0.0
 11
700.51274414069121
 21
-666.92128380940505
 31
0.0
  0
LINE
  5
202B2
  8
0
 10
701.11275112108183
 20
-669.92128380940505
 30
0.0
 11
701.21275228447962
 21
-670.42128380940505
 31
0.0
  0
LINE
  5
202B3
  8
0
 10
697.61275693829475
 20
-672.42133034530286
 30
0.0
 11
697.61273832393556
 21
-664.42133034530286
 31
0.0
  0
LINE
  5
202B4
  8
0
 10
705.91275112108633
 20
-669.92128380940505
 30
0.0
 11
706.01275228448389
 21
-670.42128380940505
 31
0.0
  0
LINE
  5
202B5
  8
0
 10
707.51275112109045
 20
-669.92128380940505
 30
0.0
 11
707.61275228448835
 21
-670.42128380940505
 31
0.0
  0
LINE
  5
202B6
  8
0
 10
706.81274297730215
 20
-666.42128380940505
 30
0.0
 11
706.91274414069994
 21
-666.92128380940505
 31
0.0
  0
LINE
  5
202B7
  8
0
 10
710.71275112109049
 20
-669.92128380940505
 30
0.0
 11
710.8127522844884
 21
-670.42128380940505
 31
0.0
  0
LINE
  5
202B8
  8
0
 10
709.21275228448815
 20
-670.42128380940505
 30
0.0
 11
710.01274297730652
 21
-666.42128380940505
 31
0.0
  0
LINE
  5
202B9
  8
0
 10
710.01274297730652
 20
-666.42128380940505
 30
0.0
 11
710.11274414070397
 21
-666.92128380940505
 31
0.0
  0
LINE
  5
202BA
  8
0
 10
709.11275112109035
 20
-669.92128380940505
 30
0.0
 11
709.21275228448815
 21
-670.42128380940505
 31
0.0
  0
LINE
  5
202BB
  8
0
 10
708.41274297730661
 20
-666.42128380940505
 30
0.0
 11
708.51274414070406
 21
-666.92128380940505
 31
0.0
  0
LINE
  5
202BC
  8
0
 10
713.21274297731088
 20
-666.42128380940505
 30
0.0
 11
713.31274414070788
 21
-666.92128380940505
 31
0.0
  0
LINE
  5
202BD
  8
0
 10
711.61274297730665
 20
-666.42128380940505
 30
0.0
 11
711.71274414070422
 21
-666.92128380940505
 31
0.0
  0
LINE
  5
202BE
  8
0
 10
712.3127511210904
 20
-669.92128380940505
 30
0.0
 11
712.41275228448831
 21
-670.42128380940505
 31
0.0
  0
LINE
  5
202BF
  8
0
 10
712.41275228448831
 20
-670.42128380940505
 30
0.0
 11
713.21274297731088
 21
-666.42128380940505
 31
0.0
  0
LINE
  5
202C0
  8
0
 10
710.8127522844884
 20
-670.42128380940505
 30
0.0
 11
711.61274297730665
 21
-666.42128380940505
 31
0.0
  0
LINE
  5
202C1
  8
0
 10
707.61275228448835
 20
-670.42128380940505
 30
0.0
 11
708.41274297730661
 21
-666.42128380940505
 31
0.0
  0
LINE
  5
202C2
  8
0
 10
706.01275228448389
 20
-670.42128380940505
 30
0.0
 11
706.81274297730215
 21
-666.42128380940505
 31
0.0
  0
LINE
  5
202C4
  8
1CENTER
 10
733.76724382175212
 20
-642.42133034530889
 30
0.0
 11
695.93411077437736
 21
-642.42133034530889
 31
0.0
  0
LINE
  5
202C5
  8
0
 10
725.11275112109126
 20
-640.92137688120681
 30
0.0
 11
725.21275228448849
 21
-640.42137688120681
 31
0.0
  0
LINE
  5
202C6
  8
0
 10
725.21275228448849
 20
-640.42137688120681
 30
0.0
 11
726.01274297731106
 21
-644.42137688120681
 31
0.0
  0
LINE
  5
202C7
  8
0
 10
726.01274297731106
 20
-644.42137688120681
 30
0.0
 11
726.11274414070806
 21
-643.9213768812067
 31
0.0
  0
LINE
  5
202C8
  8
0
 10
723.51275112109124
 20
-640.92137688120681
 30
0.0
 11
723.61275228448835
 21
-640.42137688120681
 31
0.0
  0
LINE
  5
202C9
  8
0
 10
724.41274297731093
 20
-644.42137688120681
 30
0.0
 11
724.51274414070804
 21
-643.9213768812067
 31
0.0
  0
LINE
  5
202CA
  8
0
 10
723.61275228448835
 20
-640.42137688120681
 30
0.0
 11
724.41274297731093
 21
-644.42137688120681
 31
0.0
  0
LINE
  5
202CB
  8
0
 10
721.91275112109133
 20
-640.92137688120681
 30
0.0
 11
722.01275228448844
 21
-640.42137688120681
 31
0.0
  0
LINE
  5
202CC
  8
0
 10
722.01275228448844
 20
-640.42137688120681
 30
0.0
 11
722.81274297731102
 21
-644.42137688120681
 31
0.0
  0
LINE
  5
202CD
  8
0
 10
722.81274297731102
 20
-644.42137688120681
 30
0.0
 11
722.91274414070813
 21
-643.9213768812067
 31
0.0
  0
LINE
  5
202CE
  8
0
 10
713.91275112109111
 20
-640.92137688120681
 30
0.0
 11
714.01275228448822
 21
-640.42137688120681
 31
0.0
  0
LINE
  5
202CF
  8
0
 10
714.81274297731079
 20
-644.42137688120681
 30
0.0
 11
714.91274414070813
 21
-643.9213768812067
 31
0.0
  0
LINE
  5
202D0
  8
0
 10
716.41274297731093
 20
-644.42137688120681
 30
0.0
 11
716.51274414070804
 21
-643.9213768812067
 31
0.0
  0
LINE
  5
202D1
  8
0
 10
715.51275112109124
 20
-640.92137688120681
 30
0.0
 11
715.61275228448835
 21
-640.42137688120681
 31
0.0
  0
LINE
  5
202D2
  8
0
 10
717.11275112109115
 20
-640.92137688120681
 30
0.0
 11
717.21275228448815
 21
-640.42137688120681
 31
0.0
  0
LINE
  5
202D3
  8
0
 10
715.61275228448835
 20
-640.42137688120681
 30
0.0
 11
716.41274297731093
 21
-644.42137688120681
 31
0.0
  0
LINE
  5
202D4
  8
0
 10
714.01275228448822
 20
-640.42137688120681
 30
0.0
 11
714.81274297731079
 21
-644.42137688120681
 31
0.0
  0
LINE
  5
202D5
  8
0
 10
718.71275112109095
 20
-640.92137688120681
 30
0.0
 11
718.8127522844884
 21
-640.42137688120681
 31
0.0
  0
LINE
  5
202D6
  8
0
 10
726.91275112109111
 20
-640.92137688120681
 30
0.0
 11
727.01275228448822
 21
-640.42137688120681
 31
0.0
  0
LINE
  5
202D7
  8
0
 10
727.01275228448822
 20
-640.42137688120681
 30
0.0
 11
727.81274350411354
 21
-644.19496982900284
 31
0.0
  0
LINE
  5
202D8
  8
0
 10
727.81274350411354
 20
-644.19496982900284
 30
0.0
 11
727.9420142017434
 21
-643.6583760937317
 31
0.0
  0
LINE
  5
202D9
  8
0
 10
719.61274297731097
 20
-644.42137688120681
 30
0.0
 11
719.71274414070785
 21
-643.9213768812067
 31
0.0
  0
LINE
  5
202DA
  8
0
 10
721.21274297731088
 20
-644.42137688120681
 30
0.0
 11
721.31274414070788
 21
-643.9213768812067
 31
0.0
  0
LINE
  5
202DB
  8
0
 10
720.3127511210912
 20
-640.92137688120681
 30
0.0
 11
720.41275228448831
 21
-640.42137688120681
 31
0.0
  0
LINE
  5
202DC
  8
0
 10
720.41275228448831
 20
-640.42137688120681
 30
0.0
 11
721.21274297731088
 21
-644.42137688120681
 31
0.0
  0
LINE
  5
202DD
  8
0
 10
718.8127522844884
 20
-640.42137688120681
 30
0.0
 11
719.61274297731097
 21
-644.42137688120681
 31
0.0
  0
LINE
  5
202DE
  8
0
 10
728.61275123087796
 20
-640.87419302326555
 30
0.0
 11
729.41274455771907
 21
-643.74215572459605
 31
0.0
  0
LINE
  5
202DF
  8
0
 10
730.21275017727385
 20
-641.32700653131383
 30
0.0
 11
731.01274561132482
 21
-643.28934162018925
 31
0.0
  0
LINE
  5
202E0
  8
0
 10
729.41274455771907
 20
-643.74215572459605
 30
0.0
 11
729.59550870034718
 21
-643.19040626079277
 31
0.0
  0
LINE
  5
202E1
  8
0
 10
730.06131438083344
 20
-641.7841783719449
 30
0.0
 11
730.21275017727385
 21
-641.32700653131383
 31
0.0
  0
LINE
  5
202E2
  8
0
 10
731.01274561132482
 20
-643.28934162018925
 30
0.0
 11
731.32451546757693
 21
-642.70106504514683
 31
0.0
  0
LINE
  5
202E3
  8
0
 10
728.49998171852803
 20
-641.34229147841552
 30
0.0
 11
728.61275123087796
 21
-640.87419302326555
 31
0.0
  0
LINE
  5
202E4
  8
0
 10
718.01274297731084
 20
-644.42137688120681
 30
0.0
 11
718.11274414070806
 21
-643.9213768812067
 31
0.0
  0
LINE
  5
202E5
  8
0
 10
717.21275228448815
 20
-640.42137688120681
 30
0.0
 11
718.01274297731084
 21
-644.42137688120681
 31
0.0
  0
LINE
  5
202E6
  8
0
 10
700.31274414069117
 20
-643.9213768812067
 30
0.0
 11
700.41274297729342
 21
-644.42137688120681
 31
0.0
  0
LINE
  5
202E7
  8
0
 10
701.21275228447962
 20
-640.42137688120681
 30
0.0
 11
702.01274297729765
 21
-644.42137688120681
 31
0.0
  0
LINE
  5
202E8
  8
0
 10
704.41275228447955
 20
-640.42137688120681
 30
0.0
 11
705.21274297729781
 21
-644.42137688120681
 31
0.0
  0
LINE
  5
202E9
  8
0
 10
705.21274297729781
 20
-644.42137688120681
 30
0.0
 11
705.31274414069549
 21
-643.9213768812067
 31
0.0
  0
LINE
  5
202EA
  8
0
 10
702.01274297729765
 20
-644.42137688120681
 30
0.0
 11
702.11274414069544
 21
-643.9213768812067
 31
0.0
  0
LINE
  5
202EB
  8
0
 10
702.71275112108185
 20
-640.92137688120681
 30
0.0
 11
702.81275228447953
 21
-640.42137688120681
 31
0.0
  0
LINE
  5
202EC
  8
0
 10
703.61274297729756
 20
-644.42137688120681
 30
0.0
 11
703.71274414069535
 21
-643.9213768812067
 31
0.0
  0
LINE
  5
202ED
  8
0
 10
702.81275228447953
 20
-640.42137688120681
 30
0.0
 11
703.61274297729756
 21
-644.42137688120681
 31
0.0
  0
LINE
  5
202EE
  8
0
 10
704.31275112108187
 20
-640.92137688120681
 30
0.0
 11
704.41275228447955
 21
-640.42137688120681
 31
0.0
  0
LINE
  5
202EF
  8
0
 10
700.41274297729342
 20
-644.42137688120681
 30
0.0
 11
700.51274414069098
 21
-643.9213768812067
 31
0.0
  0
LINE
  5
202F0
  8
0
 10
701.11275112108194
 20
-640.92137688120681
 30
0.0
 11
701.21275228447962
 21
-640.42137688120681
 31
0.0
  0
LINE
  5
202F1
  8
0
 10
697.61275693829475
 20
-638.42133034530889
 30
0.0
 11
697.61273832393545
 21
-646.42133034530889
 31
0.0
  0
LINE
  5
202F2
  8
0
 10
705.91275112108633
 20
-640.92137688120681
 30
0.0
 11
706.01275228448389
 21
-640.42137688120681
 31
0.0
  0
LINE
  5
202F3
  8
0
 10
707.51275112109045
 20
-640.92137688120681
 30
0.0
 11
707.61275228448835
 21
-640.42137688120681
 31
0.0
  0
LINE
  5
202F4
  8
0
 10
706.81274297730215
 20
-644.42137688120681
 30
0.0
 11
706.91274414069994
 21
-643.9213768812067
 31
0.0
  0
LINE
  5
202F5
  8
0
 10
710.71275112109049
 20
-640.92137688120681
 30
0.0
 11
710.8127522844884
 21
-640.42137688120681
 31
0.0
  0
LINE
  5
202F6
  8
0
 10
709.21275228448815
 20
-640.42137688120681
 30
0.0
 11
710.01274297730629
 21
-644.42137688120681
 31
0.0
  0
LINE
  5
202F7
  8
0
 10
710.01274297730629
 20
-644.42137688120681
 30
0.0
 11
710.11274414070397
 21
-643.9213768812067
 31
0.0
  0
LINE
  5
202F8
  8
0
 10
709.11275112109035
 20
-640.92137688120681
 30
0.0
 11
709.21275228448815
 21
-640.42137688120681
 31
0.0
  0
LINE
  5
202F9
  8
0
 10
708.41274297730638
 20
-644.42137688120681
 30
0.0
 11
708.51274414070406
 21
-643.9213768812067
 31
0.0
  0
LINE
  5
202FA
  8
0
 10
713.21274297731088
 20
-644.42137688120681
 30
0.0
 11
713.31274414070788
 21
-643.9213768812067
 31
0.0
  0
LINE
  5
202FB
  8
0
 10
711.61274297730654
 20
-644.42137688120681
 30
0.0
 11
711.71274414070422
 21
-643.9213768812067
 31
0.0
  0
LINE
  5
202FC
  8
0
 10
712.3127511210904
 20
-640.92137688120681
 30
0.0
 11
712.41275228448842
 21
-640.42137688120681
 31
0.0
  0
LINE
  5
202FD
  8
0
 10
712.41275228448842
 20
-640.42137688120681
 30
0.0
 11
713.21274297731088
 21
-644.42137688120681
 31
0.0
  0
LINE
  5
202FE
  8
0
 10
710.8127522844884
 20
-640.42137688120681
 30
0.0
 11
711.61274297730654
 21
-644.42137688120681
 31
0.0
  0
LINE
  5
202FF
  8
0
 10
707.61275228448835
 20
-640.42137688120681
 30
0.0
 11
708.41274297730638
 21
-644.42137688120681
 31
0.0
  0
LINE
  5
20300
  8
0
 10
706.01275228448389
 20
-640.42137688120681
 30
0.0
 11
706.81274297730215
 21
-644.42137688120681
 31
0.0
  0
LINE
  5
20301
  8
1DIM
 10
413.01627063911872
 20
-655.8213303512664
 30
0.0
 11
413.01627063911872
 21
-712.42133035126756
 31
0.0
  0
LINE
  5
20302
  8
1DIM
 10
643.01624161536529
 20
-655.8213303512664
 30
0.0
 11
643.01624161536529
 21
-712.42133035126756
 31
0.0
  0
LINE
  5
20303
  8
1DIM
 10
415.01627063911872
 20
-711.42133035126756
 30
0.0
 11
641.01624161536529
 21
-711.42133035126756
 31
0.0
  0
LINE
  5
20307
  8
1DIM
 10
488.01624161536751
 20
-673.82133035126628
 30
0.0
 11
488.01624161536751
 21
-692.42133035126767
 31
0.0
  0
LINE
  5
20308
  8
1DIM
 10
426.01624161536029
 20
-673.82133035126628
 30
0.0
 11
426.01624161536029
 21
-692.42133035126767
 31
0.0
  0
LINE
  5
20309
  8
1DIM
 10
486.01624161536751
 20
-691.42133035126756
 30
0.0
 11
428.01624161536017
 21
-691.42133035126756
 31
0.0
  0
LINE
  5
2030D
  8
1DIM
 10
733.76724382175212
 20
-668.42133034530286
 30
0.0
 11
742.59719250121782
 21
-668.42133034530286
 31
0.0
  0
LINE
  5
2030E
  8
1DIM
 10
733.76724382175212
 20
-642.42133034530889
 30
0.0
 11
742.59719250121782
 21
-642.42133034530889
 31
0.0
  0
LINE
  5
2030F
  8
1DIM
 10
741.59719250121782
 20
-666.42133034530286
 30
0.0
 11
741.59719250121782
 21
-644.42133034530877
 31
0.0
  0
SOLID
  5
20313
  8
1DIM
 10
716.88721695078334
 20
-624.93542921383153
 30
0.0
 11
716.14628222409044
 21
-626.8227889680627
 31
0.0
 12
716.23504974796822
 22
-624.79714550540302
 32
0.0
 13
716.23504974796822
 23
-624.79714550540302
 33
0.0
1001
ACAD
1000
DSTYLE
1002
{
1070
    45
1040
0.5
1002
}
  0
SOLID
  5
20315
  8
1DIM
 10
703.75179880561814
 20
-624.93542921383153
 30
0.0
 11
703.01086407892524
 21
-626.8227889680627
 31
0.0
 12
703.09963160280302
 22
-624.79714550540302
 32
0.0
 13
703.09963160280302
 23
-624.79714550540302
 33
0.0
1001
ACAD
1000
DSTYLE
1002
{
1070
    45
1040
0.5
1002
}
  0
LINE
  5
20317
  8
1DIM
 10
495.01624161536148
 20
-555.8213303512664
 30
0.0
 11
495.01624161536148
 21
-545.32133035126606
 31
0.0
  0
LINE
  5
20318
  8
1DIM
 10
419.0162416153633
 20
-555.82133035126606
 30
0.0
 11
419.0162416153633
 21
-545.32133035126606
 31
0.0
  0
LINE
  5
20319
  8
1DIM
 10
493.01624161536142
 20
-546.32133035126606
 30
0.0
 11
421.01624161536319
 21
-546.32133035126606
 31
0.0
  0
LINE
  5
2031D
  8
1DIM
 10
700.09719250121782
 20
-675.42133034530605
 30
0.0
 11
752.59719250121782
 21
-675.42133034530605
 31
0.0
  0
LINE
  5
2031E
  8
1DIM
 10
700.09719250121782
 20
-635.42133034530605
 30
0.0
 11
752.59719250121782
 21
-635.42133034530605
 31
0.0
  0
LINE
  5
2031F
  8
1DIM
 10
751.59719250121782
 20
-673.42133034530605
 30
0.0
 11
751.59719250121782
 21
-637.42133034530605
 31
0.0
  0
LINE
  5
20323
  8
1DIM
 10
733.76724382175212
 20
-642.42133034530889
 30
0.0
 11
742.59719250121782
 21
-642.42133034530889
 31
0.0
  0
LINE
  5
20324
  8
1DIM
 10
700.09719250121782
 20
-635.42133034530605
 30
0.0
 11
742.59719250121782
 21
-635.42133034530605
 31
0.0
  0
LINE
  5
20325
  8
1DIM
 10
741.59719250121782
 20
-640.42133034530877
 30
0.0
 11
741.59719250121782
 21
-637.42133034530605
 31
0.0
  0
LINE
  5
20329
  8
1DIM
 10
650.84719250121759
 20
-655.42133034530593
 30
0.0
 11
650.84719250121759
 21
-712.42133035126756
 31
0.0
  0
LINE
  5
2032A
  8
1DIM
 10
700.09719250121782
 20
-693.04950393654815
 30
0.0
 11
700.09719250121782
 21
-712.42133035126756
 31
0.0
  0
LINE
  5
2032B
  8
1DIM
 10
652.84719250121748
 20
-711.42133035126756
 30
0.0
 11
698.09719250121782
 21
-711.42133035126756
 31
0.0
  0
LINE
  5
2032F
  8
1DIM
 10
631.01627063911917
 20
-605.07133035126003
 30
0.0
 11
672.32527814199841
 21
-605.07133035126003
 31
0.0
  0
LINE
  5
20330
  8
1DIM
 10
631.01627063911826
 20
-561.07133035126003
 30
0.0
 11
672.32527814199841
 21
-561.07133035126003
 31
0.0
  0
LINE
  5
20331
  8
1DIM
 10
671.32527814199841
 20
-603.07133035126003
 30
0.0
 11
671.32527814199841
 21
-563.07133035126003
 31
0.0
  0
TEXT
  5
20335
  8
1DIM
 10
567.54105595840838
 20
-672.93454498474432
 30
0.0
 40
3.5
  1
材質：亜鉛ダイキャスト
  0
TEXT
  5
20336
  8
1DIM
 10
579.6743892917417
 20
-678.76787831807758
 30
0.0
 40
3.5
  1
仕上げ：クローム
  0
SOLID
  5
20337
  8
1DIM
 10
618.7520144420439
 20
-664.95850646001804
 30
0.0
 11
619.63896208909375
 21
-663.13520314391735
 31
0.0
 12
619.39129917413334
 22
-665.14760822035305
 32
0.0
 13
619.39129917413334
 23
-665.14760822035305
 33
0.0
1001
ACAD
1000
DSTYLE
1002
{
1070
    45
1040
0.5
1002
}
  0
TEXT
  5
20339
  8
1DIM
 10
502.14411870469411
 20
-628.49446742908594
 30
0.0
 40
3.5
  1
材質：亜鉛ダイキャスト
  0
TEXT
  5
2033A
  8
1DIM
 10
502.14411870469411
 20
-634.32780076241943
 30
0.0
 40
3.5
  1
仕上げ：クローム
  0
SOLID
  5
2033B
  8
1DIM
 10
493.84550825372332
 20
-638.27005784914502
 30
0.0
 11
491.91347667277921
 21
-638.88517172587535
 31
0.0
 12
493.54157772175972
 22
-637.6767024108243
 32
0.0
 13
493.54157772175972
 23
-637.6767024108243
 33
0.0
1001
ACAD
1000
DSTYLE
1002
{
1070
    45
1040
0.5
1002
}
  0
LINE
  5
2033D
  8
1DIM
 10
535.43068276584404
 20
-666.32133035126628
 30
0.0
 11
545.24583078632452
 21
-666.32133035126628
 31
0.0
  0
LINE
  5
2033E
  8
1DIM
 10
535.43068276584404
 20
-645.32133035126628
 30
0.0
 11
545.24583078632452
 21
-645.32133035126628
 31
0.0
  0
LINE
  5
2033F
  8
1DIM
 10
544.24583078632452
 20
-664.3213303512664
 30
0.0
 11
544.24583078632452
 21
-647.3213303512664
 31
0.0
  0
LINE
  5
20340
  8
1DIM
 10
544.24583078632452
 20
-645.32133035126628
 30
0.0
 11
544.24583078632452
 21
-637.25466368459968
 31
0.0
  0
TEXT
  5
20344
  8
1DIM
 10
543.54583078632447
 20
-642.62133035126635
 30
0.0
 40
3.5
  1
21
 50
90.0
  0
LINE
  5
20345
  8
0
  6
BYBLOCK
 10
543.70993240632436
 20
-647.3213303512664
 30
0.0
 11
544.24583078632452
 21
-645.32133035126628
 31
0.0
  0
LINE
  5
20346
  8
0
  6
BYBLOCK
 10
544.24583078632452
 20
-645.32133035126628
 30
0.0
 11
544.78172916632457
 21
-647.3213303512664
 31
0.0
  0
LINE
  5
20347
  8
0
  6
BYBLOCK
 10
544.24583078632452
 20
-645.32133035126628
 30
0.0
 11
544.24583078632452
 21
-647.3213303512664
 31
0.0
  0
LINE
  5
20348
  8
0
  6
BYBLOCK
 10
544.78172916632457
 20
-664.3213303512664
 30
0.0
 11
544.24583078632452
 21
-666.32133035126628
 31
0.0
  0
LINE
  5
20349
  8
0
  6
BYBLOCK
 10
544.24583078632452
 20
-666.32133035126628
 30
0.0
 11
543.70993240632436
 21
-664.3213303512664
 31
0.0
  0
LINE
  5
2034A
  8
0
  6
BYBLOCK
 10
544.24583078632452
 20
-666.32133035126628
 30
0.0
 11
544.24583078632452
 21
-664.3213303512664
 31
0.0
  0
LINE
  5
2034B
  8
1DIM
 10
493.69354298774152
 20
-637.97338012998455
 30
0.0
 11
499.44411870469412
 21
-635.02780076241936
 31
0.0
1001
ACAD
1000
DSTYLE
1002
{
1070
    45
1040
0.5
1002
}
  0
LINE
  5
2034C
  8
1DIM
 10
499.44411870469412
 20
-635.02780076241936
 30
0.0
 11
502.14411870469411
 21
-635.02780076241936
 31
0.0
1001
ACAD
1000
DSTYLE
1002
{
1070
    45
1040
0.5
1002
}
  0
LINE
  5
2034D
  8
1DIM
 10
619.07165680808862
 20
-665.05305734018555
 30
0.0
 11
614.80772262507503
 21
-679.46787831807774
 31
0.0
1001
ACAD
1000
DSTYLE
1002
{
1070
    45
1040
0.5
1002
}
  0
LINE
  5
2034E
  8
1DIM
 10
614.80772262507503
 20
-679.46787831807774
 30
0.0
 11
612.10772262507498
 21
-679.46787831807774
 31
0.0
1001
ACAD
1000
DSTYLE
1002
{
1070
    45
1040
0.5
1002
}
  0
TEXT
  5
2034F
  8
1DIM
 10
670.62527814199836
 20
-585.98799701792927
 30
0.0
 40
3.5
  1
44
 50
90.0
  0
LINE
  5
20350
  8
0
  6
BYBLOCK
 10
670.78937976199825
 20
-563.07133035126003
 30
0.0
 11
671.32527814199841
 21
-561.07133035126003
 31
0.0
  0
LINE
  5
20351
  8
0
  6
BYBLOCK
 10
671.32527814199841
 20
-561.07133035126003
 30
0.0
 11
671.86117652199835
 21
-563.07133035126003
 31
0.0
  0
LINE
  5
20352
  8
0
  6
BYBLOCK
 10
671.32527814199841
 20
-561.07133035126003
 30
0.0
 11
671.32527814199841
 21
-563.07133035126003
 31
0.0
  0
LINE
  5
20353
  8
0
  6
BYBLOCK
 10
671.86117652199835
 20
-603.07133035126003
 30
0.0
 11
671.32527814199841
 21
-605.07133035126003
 31
0.0
  0
LINE
  5
20354
  8
0
  6
BYBLOCK
 10
671.32527814199841
 20
-605.07133035126003
 30
0.0
 11
670.78937976199825
 21
-603.07133035126003
 31
0.0
  0
LINE
  5
20355
  8
0
  6
BYBLOCK
 10
671.32527814199841
 20
-605.07133035126003
 30
0.0
 11
671.32527814199841
 21
-603.07133035126003
 31
0.0
  0
TEXT
  5
20356
  8
1DIM
 10
670.22219250121759
 20
-710.72133035126762
 30
0.0
 40
3.5
  1
49.5
  0
LINE
  5
20357
  8
0
  6
BYBLOCK
 10
698.09719250121782
 20
-710.88543197126762
 30
0.0
 11
700.09719250121782
 21
-711.42133035126756
 31
0.0
  0
LINE
  5
20358
  8
0
  6
BYBLOCK
 10
700.09719250121782
 20
-711.42133035126756
 30
0.0
 11
698.09719250121782
 21
-711.95722873126772
 31
0.0
  0
LINE
  5
20359
  8
0
  6
BYBLOCK
 10
700.09719250121782
 20
-711.42133035126756
 30
0.0
 11
698.09719250121782
 21
-711.42133035126756
 31
0.0
  0
LINE
  5
2035A
  8
0
  6
BYBLOCK
 10
652.84719250121748
 20
-711.95722873126772
 30
0.0
 11
650.84719250121759
 21
-711.42133035126756
 31
0.0
  0
LINE
  5
2035B
  8
0
  6
BYBLOCK
 10
650.84719250121759
 20
-711.42133035126756
 30
0.0
 11
652.84719250121748
 21
-710.88543197126762
 31
0.0
  0
LINE
  5
2035C
  8
0
  6
BYBLOCK
 10
650.84719250121759
 20
-711.42133035126756
 30
0.0
 11
652.84719250121748
 21
-711.42133035126756
 31
0.0
  0
TEXT
  5
2035D
  8
1DIM
 10
740.89719250121789
 20
-640.08799701197404
 30
0.0
 40
3.5
  1
7
 50
90.0
  0
LINE
  5
2035E
  8
0
  6
BYBLOCK
 10
741.06129412121766
 20
-637.42133034530605
 30
0.0
 11
741.59719250121782
 21
-635.42133034530605
 31
0.0
  0
LINE
  5
2035F
  8
0
  6
BYBLOCK
 10
741.59719250121782
 20
-635.42133034530605
 30
0.0
 11
742.13309088121775
 21
-637.42133034530605
 31
0.0
  0
LINE
  5
20360
  8
0
  6
BYBLOCK
 10
741.59719250121782
 20
-635.42133034530605
 30
0.0
 11
741.59719250121782
 21
-637.42133034530605
 31
0.0
  0
LINE
  5
20361
  8
0
  6
BYBLOCK
 10
742.13309088121775
 20
-640.42133034530877
 30
0.0
 11
741.59719250121782
 21
-642.42133034530889
 31
0.0
  0
LINE
  5
20362
  8
0
  6
BYBLOCK
 10
741.59719250121782
 20
-642.42133034530889
 30
0.0
 11
741.06129412121766
 21
-640.42133034530877
 31
0.0
  0
LINE
  5
20363
  8
0
  6
BYBLOCK
 10
741.59719250121782
 20
-642.42133034530889
 30
0.0
 11
741.59719250121782
 21
-640.42133034530877
 31
0.0
  0
TEXT
  5
20364
  8
1DIM
 10
750.89719250121777
 20
-658.04633034530605
 30
0.0
 40
3.5
  1
40
 50
90.0
  0
LINE
  5
20365
  8
0
  6
BYBLOCK
 10
751.06129412121766
 20
-637.42133034530605
 30
0.0
 11
751.59719250121782
 21
-635.42133034530605
 31
0.0
  0
LINE
  5
20366
  8
0
  6
BYBLOCK
 10
751.59719250121782
 20
-635.42133034530605
 30
0.0
 11
752.13309088121787
 21
-637.42133034530605
 31
0.0
  0
LINE
  5
20367
  8
0
  6
BYBLOCK
 10
751.59719250121782
 20
-635.42133034530605
 30
0.0
 11
751.59719250121782
 21
-637.42133034530605
 31
0.0
  0
LINE
  5
20368
  8
0
  6
BYBLOCK
 10
752.13309088121787
 20
-673.42133034530605
 30
0.0
 11
751.59719250121782
 21
-675.42133034530605
 31
0.0
  0
LINE
  5
20369
  8
0
  6
BYBLOCK
 10
751.59719250121782
 20
-675.42133034530605
 30
0.0
 11
751.06129412121766
 21
-673.42133034530605
 31
0.0
  0
LINE
  5
2036A
  8
0
  6
BYBLOCK
 10
751.59719250121782
 20
-675.42133034530605
 30
0.0
 11
751.59719250121782
 21
-673.42133034530605
 31
0.0
  0
TEXT
  5
2036B
  8
1DIM
 10
454.0995749486957
 20
-545.62133035126612
 30
0.0
 40
3.5
  1
76
  0
LINE
  5
2036C
  8
0
  6
BYBLOCK
 10
421.01624161536319
 20
-546.85722873126622
 30
0.0
 11
419.0162416153633
 21
-546.32133035126606
 31
0.0
  0
LINE
  5
2036D
  8
0
  6
BYBLOCK
 10
419.0162416153633
 20
-546.32133035126606
 30
0.0
 11
421.01624161536319
 21
-545.78543197126601
 31
0.0
  0
LINE
  5
2036E
  8
0
  6
BYBLOCK
 10
419.0162416153633
 20
-546.32133035126606
 30
0.0
 11
421.01624161536319
 21
-546.32133035126606
 31
0.0
  0
LINE
  5
2036F
  8
0
  6
BYBLOCK
 10
493.01624161536142
 20
-545.78543197126601
 30
0.0
 11
495.01624161536148
 21
-546.32133035126606
 31
0.0
  0
LINE
  5
20370
  8
0
  6
BYBLOCK
 10
495.01624161536148
 20
-546.32133035126606
 30
0.0
 11
493.01624161536142
 21
-546.85722873126622
 31
0.0
  0
LINE
  5
20371
  8
0
  6
BYBLOCK
 10
495.01624161536148
 20
-546.32133035126606
 30
0.0
 11
493.01624161536142
 21
-546.32133035126606
 31
0.0
  0
LINE
  5
20372
  8
1DIM
 10
703.42571520421052
 20
-624.86628735961722
 30
0.0
 11
706.13470801204028
 21
-612.09026130414725
 31
0.0
1001
ACAD
1000
DSTYLE
1002
{
1070
    45
1040
0.5
1002
}
  0
LINE
  5
20373
  8
1DIM
 10
716.56113334937572
 20
-624.86628735961722
 30
0.0
 11
719.27012615720548
 21
-612.09026130414725
 31
0.0
1001
ACAD
1000
DSTYLE
1002
{
1070
    45
1040
0.5
1002
}
  0
TEXT
  5
20374
  8
1DIM
 10
740.89719250121789
 20
-660.08799701197245
 30
0.0
 40
3.5
  1
P26
 50
90.0
  0
LINE
  5
20375
  8
0
  6
BYBLOCK
 10
741.06129412121766
 20
-644.42133034530877
 30
0.0
 11
741.59719250121782
 21
-642.42133034530889
 31
0.0
  0
LINE
  5
20376
  8
0
  6
BYBLOCK
 10
741.59719250121782
 20
-642.42133034530889
 30
0.0
 11
742.13309088121775
 21
-644.42133034530877
 31
0.0
  0
LINE
  5
20377
  8
0
  6
BYBLOCK
 10
741.59719250121782
 20
-642.42133034530889
 30
0.0
 11
741.59719250121782
 21
-644.42133034530877
 31
0.0
  0
LINE
  5
20378
  8
0
  6
BYBLOCK
 10
742.13309088121775
 20
-666.42133034530286
 30
0.0
 11
741.59719250121782
 21
-668.42133034530286
 31
0.0
  0
LINE
  5
20379
  8
0
  6
BYBLOCK
 10
741.59719250121782
 20
-668.42133034530286
 30
0.0
 11
741.06129412121766
 21
-666.42133034530286
 31
0.0
  0
LINE
  5
2037A
  8
0
  6
BYBLOCK
 10
741.59719250121782
 20
-668.42133034530286
 30
0.0
 11
741.59719250121782
 21
-666.42133034530286
 31
0.0
  0
TEXT
  5
2037B
  8
1DIM
 10
452.34957494869718
 20
-690.72133035126762
 30
0.0
 40
3.5
  1
P62
  0
LINE
  5
2037C
  8
0
  6
BYBLOCK
 10
428.01624161536017
 20
-691.95722873126772
 30
0.0
 11
426.01624161536029
 21
-691.42133035126756
 31
0.0
  0
LINE
  5
2037D
  8
0
  6
BYBLOCK
 10
426.01624161536029
 20
-691.42133035126756
 30
0.0
 11
428.01624161536017
 21
-690.88543197126762
 31
0.0
  0
LINE
  5
2037E
  8
0
  6
BYBLOCK
 10
426.01624161536029
 20
-691.42133035126756
 30
0.0
 11
428.01624161536017
 21
-691.42133035126756
 31
0.0
  0
LINE
  5
2037F
  8
0
  6
BYBLOCK
 10
486.01624161536751
 20
-690.88543197126762
 30
0.0
 11
488.01624161536751
 21
-691.42133035126756
 31
0.0
  0
LINE
  5
20380
  8
0
  6
BYBLOCK
 10
488.01624161536751
 20
-691.42133035126756
 30
0.0
 11
486.01624161536751
 21
-691.95722873126772
 31
0.0
  0
LINE
  5
20381
  8
0
  6
BYBLOCK
 10
488.01624161536751
 20
-691.42133035126756
 30
0.0
 11
486.01624161536751
 21
-691.42133035126756
 31
0.0
  0
TEXT
  5
20382
  8
1DIM
 10
523.64125612724206
 20
-710.72133035126762
 30
0.0
 40
3.5
  1
230
  0
LINE
  5
20383
  8
0
  6
BYBLOCK
 10
641.01624161536529
 20
-710.88543197126762
 30
0.0
 11
643.01624161536529
 21
-711.42133035126756
 31
0.0
  0
LINE
  5
20384
  8
0
  6
BYBLOCK
 10
643.01624161536529
 20
-711.42133035126756
 30
0.0
 11
641.01624161536529
 21
-711.95722873126772
 31
0.0
  0
LINE
  5
20385
  8
0
  6
BYBLOCK
 10
643.01624161536529
 20
-711.42133035126756
 30
0.0
 11
641.01624161536529
 21
-711.42133035126756
 31
0.0
  0
LINE
  5
20386
  8
0
  6
BYBLOCK
 10
415.01627063911872
 20
-711.95722873126772
 30
0.0
 11
413.01627063911872
 21
-711.42133035126756
 31
0.0
  0
LINE
  5
20387
  8
0
  6
BYBLOCK
 10
413.01627063911872
 20
-711.42133035126756
 30
0.0
 11
415.01627063911872
 21
-710.88543197126762
 31
0.0
  0
LINE
  5
20388
  8
0
  6
BYBLOCK
 10
413.01627063911872
 20
-711.42133035126756
 30
0.0
 11
415.01627063911872
 21
-711.42133035126756
 31
0.0
  0
LINE
  5
20389
  8
0
 10
727.01275112109056
 20
-640.92137688120681
 30
0.0
 11
700.11278602296682
 21
-640.92137688120681
 31
0.0
  0
LINE
  5
2038A
  8
0
 10
697.61275693829475
 20
-638.42133034530889
 30
0.0
 11
700.11278602296682
 21
-640.92137688120681
 31
0.0
  0
LINE
  5
2038B
  8
0
 10
732.31274763095155
 20
-642.42137688120681
 30
0.0
 11
727.01275112109056
 21
-640.92137688120681
 31
0.0
  0
LINE
  5
2038C
  8
0
 10
697.61275693829475
 20
-638.42133034530889
 30
0.0
 11
697.31275693829366
 21
-638.42133034530889
 31
0.0
  0
LINE
  5
2038D
  8
0
 10
732.31274763095155
 20
-642.42137688120681
 30
0.0
 11
727.01274414070633
 21
-643.9213768812067
 31
0.0
  0
LINE
  5
2038E
  8
0
 10
697.31275693829366
 20
-638.42133034530889
 30
0.0
 11
697.31273832393447
 21
-646.42133034530889
 31
0.0
  0
LINE
  5
2038F
  8
0
 10
727.01274414070633
 20
-643.9213768812067
 30
0.0
 11
700.11272087260159
 21
-643.9213768812067
 31
0.0
  0
LINE
  5
20390
  8
0
 10
697.61273832393545
 20
-646.42133034530889
 30
0.0
 11
697.31273832393447
 21
-646.42133034530889
 31
0.0
  0
LINE
  5
20391
  8
0
 10
697.61273832393545
 20
-646.42133034530889
 30
0.0
 11
700.11272087260159
 21
-643.9213768812067
 31
0.0
  0
LINE
  5
20392
  8
0
 10
727.01275112109056
 20
-669.92128380940505
 30
0.0
 11
700.11278602296682
 21
-669.92128380940505
 31
0.0
  0
LINE
  5
20393
  8
0
 10
732.31274763095155
 20
-668.42128380940505
 30
0.0
 11
727.01275112109056
 21
-669.92128380940505
 31
0.0
  0
LINE
  5
20394
  8
0
 10
697.61275693829475
 20
-672.42133034530286
 30
0.0
 11
700.11278602296682
 21
-669.92128380940505
 31
0.0
  0
LINE
  5
20395
  8
0
 10
732.31274763095155
 20
-668.42128380940505
 30
0.0
 11
727.01274414070633
 21
-666.92128380940505
 31
0.0
  0
LINE
  5
20396
  8
0
 10
697.61275693829475
 20
-672.42133034530286
 30
0.0
 11
697.31275693829366
 21
-672.42133034530286
 31
0.0
  0
LINE
  5
20397
  8
0
 10
727.01274414070633
 20
-666.92128380940505
 30
0.0
 11
700.11272087260159
 21
-666.92128380940505
 31
0.0
  0
LINE
  5
20398
  8
0
 10
697.31275693829366
 20
-672.42133034530286
 30
0.0
 11
697.31273832393447
 21
-664.42133034530286
 31
0.0
  0
LINE
  5
20399
  8
0
 10
697.61273832393556
 20
-664.42133034530286
 30
0.0
 11
700.11272087260159
 21
-666.92128380940505
 31
0.0
  0
LINE
  5
2039A
  8
0
 10
697.61273832393556
 20
-664.42133034530286
 30
0.0
 11
697.31273832393447
 21
-664.42133034530286
 31
0.0
  0
LINE
  5
2039B
  8
0
 10
424.51628815125832
 20
-528.90577173139332
 30
0.0
 11
424.51628815125821
 21
-555.80573682951706
 31
0.0
  0
LINE
  5
2039C
  8
0
 10
422.01624161536029
 20
-558.30576591418924
 30
0.0
 11
424.51628815125821
 21
-555.80573682951706
 31
0.0
  0
LINE
  5
2039D
  8
0
 10
426.01628815125832
 20
-523.60577522153233
 30
0.0
 11
424.51628815125832
 21
-528.90577173139332
 31
0.0
  0
LINE
  5
2039E
  8
0
 10
422.01624161536029
 20
-558.30576591418924
 30
0.0
 11
422.01624161536029
 21
-558.60576591419021
 31
0.0
  0
LINE
  5
2039F
  8
0
 10
426.01628815125832
 20
-523.60577522153233
 30
0.0
 11
427.51628815125832
 21
-528.90577871177754
 31
0.0
  0
LINE
  5
203A0
  8
0
 10
422.01624161536029
 20
-558.60576591419021
 30
0.0
 11
430.01624161536029
 21
-558.60578452854952
 31
0.0
  0
LINE
  5
203A1
  8
0
 10
427.51628815125832
 20
-528.90577871177754
 30
0.0
 11
427.51628815125821
 21
-555.80580197988229
 31
0.0
  0
LINE
  5
203A2
  8
0
 10
430.01624161536029
 20
-558.30578452854843
 30
0.0
 11
430.01624161536029
 21
-558.60578452854952
 31
0.0
  0
LINE
  5
203A3
  8
0
 10
430.01624161536029
 20
-558.30578452854843
 30
0.0
 11
427.51628815125821
 21
-555.80580197988229
 31
0.0
  0
LINE
  5
203A4
  8
0
 10
486.5162881512656
 20
-528.90577173139332
 30
0.0
 11
486.51628815126548
 21
-555.80573682951706
 31
0.0
  0
LINE
  5
203A5
  8
0
 10
484.01624161536762
 20
-558.30576591418924
 30
0.0
 11
486.51628815126548
 21
-555.80573682951706
 31
0.0
  0
LINE
  5
203A6
  8
0
 10
488.0162881512656
 20
-523.60577522153233
 30
0.0
 11
486.5162881512656
 21
-528.90577173139332
 31
0.0
  0
LINE
  5
203A7
  8
0
 10
484.01624161536762
 20
-558.30576591418924
 30
0.0
 11
484.01624161536762
 21
-558.60576591419021
 31
0.0
  0
LINE
  5
203A8
  8
0
 10
488.0162881512656
 20
-523.60577522153233
 30
0.0
 11
489.51628815126548
 21
-528.90577871177754
 31
0.0
  0
LINE
  5
203A9
  8
0
 10
484.01624161536762
 20
-558.60576591419021
 30
0.0
 11
492.01624161536762
 21
-558.60578452854952
 31
0.0
  0
LINE
  5
203AA
  8
0
 10
489.51628815126548
 20
-528.90577871177754
 30
0.0
 11
489.51628815126548
 21
-555.80580197988229
 31
0.0
  0
LINE
  5
203AB
  8
0
 10
492.01624161536762
 20
-558.30578452854843
 30
0.0
 11
492.01624161536762
 21
-558.60578452854952
 31
0.0
  0
LINE
  5
203AC
  8
0
 10
492.01624161536762
 20
-558.30578452854843
 30
0.0
 11
489.51628815126548
 21
-555.80580197988229
 31
0.0
  0
TEXT
  5
203AD
  8
1DIM
 10
417.18292279390619
 20
-690.72133035126762
 30
0.0
 40
3.5
  1
13
  0
LINE
  5
203AE
  8
0
  6
BYBLOCK
 10
415.01627063911872
 20
-691.95722873126772
 30
0.0
 11
413.01627063911872
 21
-691.42133035126756
 31
0.0
  0
LINE
  5
203AF
  8
0
  6
BYBLOCK
 10
413.01627063911872
 20
-691.42133035126756
 30
0.0
 11
415.01627063911872
 21
-690.88543197126762
 31
0.0
  0
LINE
  5
203B0
  8
0
  6
BYBLOCK
 10
413.01627063911872
 20
-691.42133035126756
 30
0.0
 11
415.01627063911872
 21
-691.42133035126756
 31
0.0
  0
LINE
  5
203B1
  8
0
  6
BYBLOCK
 10
424.01624161536017
 20
-690.88543197126762
 30
0.0
 11
426.01624161536029
 21
-691.42133035126756
 31
0.0
  0
LINE
  5
203B2
  8
0
  6
BYBLOCK
 10
426.01624161536029
 20
-691.42133035126756
 30
0.0
 11
424.01624161536017
 21
-691.95722873126772
 31
0.0
  0
LINE
  5
203B3
  8
0
  6
BYBLOCK
 10
426.01624161536029
 20
-691.42133035126756
 30
0.0
 11
424.01624161536017
 21
-691.42133035126756
 31
0.0
  0
TEXT
  5
203B4
  8
1DIM
 10
656.44801594444095
 20
-585.69633035126151
 30
0.0
 40
3.5
  1
30
 50
90.0
  0
LINE
  5
203B5
  8
0
  6
BYBLOCK
 10
656.61211756444084
 20
-570.07133035126321
 30
0.0
 11
657.14801594444077
 21
-568.0713303512631
 31
0.0
  0
LINE
  5
203B6
  8
0
  6
BYBLOCK
 10
657.14801594444077
 20
-568.0713303512631
 30
0.0
 11
657.68391432444093
 21
-570.07133035126321
 31
0.0
  0
LINE
  5
203B7
  8
0
  6
BYBLOCK
 10
657.14801594444077
 20
-568.0713303512631
 30
0.0
 11
657.14801594444077
 21
-570.07133035126321
 31
0.0
  0
LINE
  5
203B8
  8
0
  6
BYBLOCK
 10
657.68391432444093
 20
-596.07133035126003
 30
0.0
 11
657.14801594444077
 21
-598.07133035126003
 31
0.0
  0
LINE
  5
203B9
  8
0
  6
BYBLOCK
 10
657.14801594444077
 20
-598.07133035126003
 30
0.0
 11
656.61211756444084
 21
-596.07133035126003
 31
0.0
  0
LINE
  5
203BA
  8
0
  6
BYBLOCK
 10
657.14801594444077
 20
-598.07133035126003
 30
0.0
 11
657.14801594444077
 21
-596.07133035126003
 31
0.0
  0
TEXT
  5
203BB
  8
1DIM
 10
539.43293730578534
 20
-615.73921683232618
 30
0.0
 40
3.5
  1
185
  0
LINE
  5
203BC
  8
0
  6
BYBLOCK
 10
634.01627063911883
 20
-615.90331845232629
 30
0.0
 11
636.01627063911883
 21
-616.43921683232634
 31
0.0
  0
LINE
  5
203BD
  8
0
  6
BYBLOCK
 10
636.01627063911883
 20
-616.43921683232634
 30
0.0
 11
634.01627063911883
 21
-616.97511521232627
 31
0.0
  0
LINE
  5
203BE
  8
0
  6
BYBLOCK
 10
636.01627063911883
 20
-616.43921683232634
 30
0.0
 11
634.01627063911883
 21
-616.43921683232634
 31
0.0
  0
LINE
  5
203BF
  8
0
  6
BYBLOCK
 10
453.01627063911877
 20
-616.97511521232627
 30
0.0
 11
451.01627063911889
 21
-616.43921683232634
 31
0.0
  0
LINE
  5
203C0
  8
0
  6
BYBLOCK
 10
451.01627063911889
 20
-616.43921683232634
 30
0.0
 11
453.01627063911877
 21
-615.90331845232629
 31
0.0
  0
LINE
  5
203C1
  8
0
  6
BYBLOCK
 10
451.01627063911889
 20
-616.43921683232634
 30
0.0
 11
453.01627063911877
 21
-616.43921683232634
 31
0.0
  0
TEXT
  5
203C2
  8
1DIM
 10
638.3496039724522
 20
-615.47126764232621
 30
0.0
 40
3.5
  1
7
  0
LINE
  5
203C3
  8
0
  6
BYBLOCK
 10
641.01627063911883
 20
-615.63536926232621
 30
0.0
 11
643.01627063911883
 21
-616.17126764232626
 31
0.0
  0
LINE
  5
203C4
  8
0
  6
BYBLOCK
 10
643.01627063911883
 20
-616.17126764232626
 30
0.0
 11
641.01627063911883
 21
-616.70716602232631
 31
0.0
  0
LINE
  5
203C5
  8
0
  6
BYBLOCK
 10
643.01627063911883
 20
-616.17126764232626
 30
0.0
 11
641.01627063911883
 21
-616.17126764232626
 31
0.0
  0
LINE
  5
203C6
  8
0
  6
BYBLOCK
 10
638.01627063911883
 20
-616.70716602232631
 30
0.0
 11
636.01627063911883
 21
-616.17126764232626
 31
0.0
  0
LINE
  5
203C7
  8
0
  6
BYBLOCK
 10
636.01627063911883
 20
-616.17126764232626
 30
0.0
 11
638.01627063911883
 21
-615.63536926232621
 31
0.0
  0
LINE
  5
203C8
  8
0
  6
BYBLOCK
 10
636.01627063911883
 20
-616.17126764232626
 30
0.0
 11
638.01627063911883
 21
-616.17126764232626
 31
0.0
  0
TEXT
  5
203C9
  8
1DIM
 10
688.06385916788429
 20
-690.72133035126762
 30
0.0
 40
3.5
  1
5
  0
LINE
  5
203CA
  8
0
  6
BYBLOCK
 10
693.09719250121748
 20
-690.88543197126762
 30
0.0
 11
695.09719250121759
 21
-691.42133035126756
 31
0.0
  0
LINE
  5
203CB
  8
0
  6
BYBLOCK
 10
695.09719250121759
 20
-691.42133035126756
 30
0.0
 11
693.09719250121748
 21
-691.95722873126772
 31
0.0
  0
LINE
  5
203CC
  8
0
  6
BYBLOCK
 10
695.09719250121759
 20
-691.42133035126756
 30
0.0
 11
693.09719250121748
 21
-691.42133035126756
 31
0.0
  0
LINE
  5
203CD
  8
0
  6
BYBLOCK
 10
702.09719250121782
 20
-691.95722873126772
 30
0.0
 11
700.09719250121782
 21
-691.42133035126756
 31
0.0
  0
LINE
  5
203CE
  8
0
  6
BYBLOCK
 10
700.09719250121782
 20
-691.42133035126756
 30
0.0
 11
702.09719250121782
 21
-690.88543197126762
 31
0.0
  0
LINE
  5
203CF
  8
0
  6
BYBLOCK
 10
700.09719250121782
 20
-691.42133035126756
 30
0.0
 11
702.09719250121782
 21
-691.42133035126756
 31
0.0
  0
TEXT
  5
203D0
  8
1DIM
 10
384.80384210974358
 20
-682.19634486314385
 30
0.0
 40
3.5
  1
235.25
 50
90.0
  0
LINE
  5
203D1
  8
0
  6
BYBLOCK
 10
384.96794372974358
 20
-557.82133035126606
 30
0.0
 11
385.50384210974357
 21
-555.82133035126606
 31
0.0
  0
LINE
  5
203D2
  8
0
  6
BYBLOCK
 10
385.50384210974357
 20
-555.82133035126606
 30
0.0
 11
386.03974048974362
 21
-557.82133035126606
 31
0.0
  0
LINE
  5
203D3
  8
0
  6
BYBLOCK
 10
385.50384210974357
 20
-555.82133035126606
 30
0.0
 11
385.50384210974357
 21
-557.82133035126606
 31
0.0
  0
LINE
  5
203D4
  8
0
  6
BYBLOCK
 10
386.03974048974351
 20
-789.07135937502164
 30
0.0
 11
385.50384210974352
 21
-791.07135937502164
 31
0.0
  0
LINE
  5
203D5
  8
0
  6
BYBLOCK
 10
385.50384210974352
 20
-791.07135937502164
 30
0.0
 11
384.96794372974352
 21
-789.07135937502164
 31
0.0
  0
LINE
  5
203D6
  8
0
  6
BYBLOCK
 10
385.50384210974352
 20
-791.07135937502164
 30
0.0
 11
385.50384210974352
 21
-789.07135937502164
 31
0.0
  0
TEXT
  5
203D7
  8
1DIM
 10
440.22457494869559
 20
-537.12648380208475
 30
0.0
 40
3.5
  1
102
  0
LINE
  5
203D8
  8
0
  6
BYBLOCK
 10
493.01624161536142
 20
-537.29058542208475
 30
0.0
 11
495.01624161536148
 21
-537.82648380208468
 31
0.0
  0
LINE
  5
203D9
  8
0
  6
BYBLOCK
 10
495.01624161536148
 20
-537.82648380208468
 30
0.0
 11
493.01624161536142
 21
-538.36238218208484
 31
0.0
  0
LINE
  5
203DA
  8
0
  6
BYBLOCK
 10
495.01624161536148
 20
-537.82648380208468
 30
0.0
 11
493.01624161536142
 21
-537.82648380208468
 31
0.0
  0
LINE
  5
203DB
  8
0
  6
BYBLOCK
 10
395.0162416153633
 20
-538.36238218208484
 30
0.0
 11
393.0162416153633
 21
-537.82648380208468
 31
0.0
  0
LINE
  5
203DC
  8
0
  6
BYBLOCK
 10
393.0162416153633
 20
-537.82648380208468
 30
0.0
 11
395.0162416153633
 21
-537.29058542208475
 31
0.0
  0
LINE
  5
203DD
  8
0
  6
BYBLOCK
 10
393.0162416153633
 20
-537.82648380208468
 30
0.0
 11
395.0162416153633
 21
-537.82648380208468
 31
0.0
  0
VIEWPORT
  5
57
 67
     1
  8
0
 10
-14.61751371806861
 20
17.513677169469329
 30
0.0
 40
693.61488428206087
 41
316.93412567594459
 68
     1
 69
     1
1001
ACAD
1000
MVIEW
1002
{
1070
    16
1010
0.0
1020
0.0
1030
0.0
1010
0.0
1020
0.0
1030
1.0
1040
0.0
1040
316.93412567594459
1040
-14.61751371806861
1040
17.513677169469329
1040
50.0
1040
0.0
1040
0.0
1070
     0
1070
   100
1070
     1
1070
     1
1070
     0
1070
     0
1070
     0
1070
     0
1040
0.0
1040
0.0
1040
0.0
1040
10.0
1040
10.0
1040
10.0
1040
10.0
1070
     0
1002
{
1002
}
1002
}
  0
ENDSEC
  0
EOF
