  0
SECTION
  2
HEADER
  9
$ACADVER
  1
AC1012
  9
$DWGCODEPAGE
  3
ansi_932
  9
$INSBASE
 10
0.0
 20
0.0
 30
0.0
  9
$EXTMIN
 10
406.0448115044393
 20
-778.8879260095949
 30
0.0
  9
$EXTMAX
 10
774.1818146759337
 20
-509.9278670980922
 30
0.0
  9
$LIMMIN
 10
0.0
 20
0.0
  9
$LIMMAX
 10
420.0
 20
297.0
  9
$ORTHOMODE
 70
     0
  9
$REGENMODE
 70
     1
  9
$FILLMODE
 70
     1
  9
$QTEXTMODE
 70
     0
  9
$MIRRTEXT
 70
     0
  9
$DRAGMODE
 70
     2
  9
$LTSCALE
 40
0.5
  9
$OSMODE
 70
 18783
  9
$ATTMODE
 70
     1
  9
$TEXTSIZE
 40
4.0
  9
$TRACEWID
 40
1.0
  9
$TEXTSTYLE
  7
STANDARD
  9
$CLAYER
  8
1TEXT
  9
$CELTYPE
  6
BYLAYER
  9
$CECOLOR
 62
   256
  9
$CELTSCALE
 40
1.0
  9
$DELOBJ
 70
     1
  9
$DISPSILH
 70
     0
  9
$DIMSCALE
 40
1.0
  9
$DIMASZ
 40
2.0
  9
$DIMEXO
 40
0.0
  9
$DIMDLI
 40
7.0
  9
$DIMRND
 40
0.0
  9
$DIMDLE
 40
0.0
  9
$DIMEXE
 40
1.0
  9
$DIMTP
 40
0.0
  9
$DIMTM
 40
0.0
  9
$DIMTXT
 40
3.5
  9
$DIMCEN
 40
0.0
  9
$DIMTSZ
 40
0.0
  9
$DIMTOL
 70
     0
  9
$DIMLIM
 70
     0
  9
$DIMTIH
 70
     0
  9
$DIMTOH
 70
     0
  9
$DIMSE1
 70
     0
  9
$DIMSE2
 70
     0
  9
$DIMTAD
 70
     1
  9
$DIMZIN
 70
     8
  9
$DIMBLK
  1

  9
$DIMASO
 70
     1
  9
$DIMSHO
 70
     1
  9
$DIMPOST
  1
 
  9
$DIMAPOST
  1

  9
$DIMALT
 70
     0
  9
$DIMALTD
 70
     2
  9
$DIMALTF
 40
25.4
  9
$DIMLFAC
 40
1.0
  9
$DIMTOFL
 70
     1
  9
$DIMTVP
 40
0.0
  9
$DIMTIX
 70
     0
  9
$DIMSOXD
 70
     0
  9
$DIMSAH
 70
     1
  9
$DIMBLK1
  1
OPEN30
  9
$DIMBLK2
  1
OPEN30
  9
$DIMSTYLE
  2
NEWX10
  9
$DIMCLRD
 70
   256
  9
$DIMCLRE
 70
   256
  9
$DIMCLRT
 70
   201
  9
$DIMTFAC
 40
0.7
  9
$DIMGAP
 40
0.7
  9
$DIMJUST
 70
     0
  9
$DIMSD1
 70
     0
  9
$DIMSD2
 70
     0
  9
$DIMTOLJ
 70
     1
  9
$DIMTZIN
 70
     8
  9
$DIMALTZ
 70
     0
  9
$DIMALTTZ
 70
     0
  9
$DIMFIT
 70
     2
  9
$DIMUPT
 70
     0
  9
$DIMUNIT
 70
     2
  9
$DIMDEC
 70
     2
  9
$DIMTDEC
 70
     4
  9
$DIMALTU
 70
     2
  9
$DIMALTTD
 70
     2
  9
$DIMTXSTY
  7
STANDARD
  9
$DIMAUNIT
 70
     0
  9
$LUNITS
 70
     2
  9
$LUPREC
 70
     4
  9
$SKETCHINC
 40
1.0
  9
$FILLETRAD
 40
1.0
  9
$AUNITS
 70
     0
  9
$AUPREC
 70
     2
  9
$MENU
  1
acad
  9
$ELEVATION
 40
0.0
  9
$PELEVATION
 40
0.0
  9
$THICKNESS
 40
0.0
  9
$LIMCHECK
 70
     0
  9
$CHAMFERA
 40
1.0
  9
$CHAMFERB
 40
1.0
  9
$CHAMFERC
 40
20.0
  9
$CHAMFERD
 40
0.0
  9
$SKPOLY
 70
     0
  9
$TDCREATE
 40
2453033.732663484
  9
$TDUPDATE
 40
2459194.468747882
  9
$TDINDWG
 40
2.4413360069
  9
$TDUSRTIMER
 40
2.4413360069
  9
$USRTIMER
 70
     1
  9
$ANGBASE
 50
0.0
  9
$ANGDIR
 70
     0
  9
$PDMODE
 70
     0
  9
$PDSIZE
 40
0.0
  9
$PLINEWID
 40
0.0
  9
$COORDS
 70
     2
  9
$SPLFRAME
 70
     0
  9
$SPLINETYPE
 70
     6
  9
$SPLINESEGS
 70
     8
  9
$ATTDIA
 70
     0
  9
$ATTREQ
 70
     1
  9
$HANDLING
 70
     1
  9
$HANDSEED
  5
23B2F
  9
$SURFTAB1
 70
     6
  9
$SURFTAB2
 70
     6
  9
$SURFTYPE
 70
     6
  9
$SURFU
 70
     6
  9
$SURFV
 70
     6
  9
$UCSNAME
  2

  9
$UCSORG
 10
0.0
 20
0.0
 30
0.0
  9
$UCSXDIR
 10
1.0
 20
0.0
 30
0.0
  9
$UCSYDIR
 10
0.0
 20
1.0
 30
0.0
  9
$PUCSNAME
  2

  9
$PUCSORG
 10
0.0
 20
0.0
 30
0.0
  9
$PUCSXDIR
 10
1.0
 20
0.0
 30
0.0
  9
$PUCSYDIR
 10
0.0
 20
1.0
 30
0.0
  9
$USERI1
 70
     0
  9
$USERI2
 70
     0
  9
$USERI3
 70
     0
  9
$USERI4
 70
     0
  9
$USERI5
 70
     0
  9
$USERR1
 40
0.0
  9
$USERR2
 40
0.0
  9
$USERR3
 40
0.0
  9
$USERR4
 40
0.0
  9
$USERR5
 40
0.0
  9
$WORLDVIEW
 70
     1
  9
$SHADEDGE
 70
     3
  9
$SHADEDIF
 70
    70
  9
$TILEMODE
 70
     1
  9
$MAXACTVP
 70
    48
  9
$PINSBASE
 10
0.0
 20
0.0
 30
0.0
  9
$PLIMCHECK
 70
     0
  9
$PEXTMIN
 10
1.000000000000000E+20
 20
1.000000000000000E+20
 30
1.000000000000000E+20
  9
$PEXTMAX
 10
-1.000000000000000E+20
 20
-1.000000000000000E+20
 30
-1.000000000000000E+20
  9
$PLIMMIN
 10
0.0
 20
0.0
  9
$PLIMMAX
 10
420.0
 20
297.0
  9
$UNITMODE
 70
     0
  9
$VISRETAIN
 70
     1
  9
$PLINEGEN
 70
     0
  9
$PSLTSCALE
 70
     1
  9
$TREEDEPTH
 70
  3020
  9
$PICKSTYLE
 70
     0
  9
$CMLSTYLE
  2
STANDARD
  9
$CMLJUST
 70
     0
  9
$CMLSCALE
 40
20.0
  9
$SAVEIMAGES
 70
     1
  0
ENDSEC
  0
SECTION
  2
CLASSES
  0
CLASS
  1
DICTIONARYVAR
  2
AcDbDictionaryVar
  3
ObjectDBX Classes
 90
        0
280
     0
281
     0
  0
CLASS
  1
IDBUFFER
  2
AcDbIdBuffer
  3
ObjectDBX Classes
 90
    32768
280
     0
281
     0
  0
CLASS
  1
LWPOLYLINE
  2
AcDbPolyline
  3
ObjectDBX Classes
 90
    32768
280
     0
281
     1
  0
CLASS
  1
ACDBDICTIONARYWDFLT
  2
AcDbDictionaryWithDefault
  3
ObjectDBX Classes
 90
    32768
280
     0
281
     0
  0
CLASS
  1
ACDBPLACEHOLDER
  2
AcDbPlaceHolder
  3
ObjectDBX Classes
 90
        0
280
     0
281
     0
  0
CLASS
  1
LAYOUT
  2
AcDbLayout
  3
ObjectDBX Classes
 90
        0
280
     0
281
     0
  0
CLASS
  1
TABLESTYLE
  2
AcDbTableStyle
  3
ObjectDBX Classes
 90
     4095
280
     0
281
     0
  0
CLASS
  1
SORTENTSTABLE
  2
AcDbSortentsTable
  3
ObjectDBX Classes
 90
    32768
280
     0
281
     0
  0
CLASS
  1
DIMASSOC
  2
AcDbDimAssoc
  3
"AcDbDimAssoc|Product Desc:     AcDim ARX App For Dimension|Company:          Autodesk, Inc.|WEB Address:      www.autodesk.com"
 90
        0
280
     0
281
     0
  0
CLASS
  1
MATERIAL
  2
AcDbMaterial
  3
ObjectDBX Classes
 90
     1153
280
     0
281
     0
  0
CLASS
  1
VISUALSTYLE
  2
AcDbVisualStyle
  3
ObjectDBX Classes
 90
     4095
280
     0
281
     0
  0
CLASS
  1
SCALE
  2
AcDbScale
  3
ObjectDBX Classes
 90
     1153
280
     0
281
     0
  0
CLASS
  1
MLEADERSTYLE
  2
AcDbMLeaderStyle
  3
ACDB_MLEADERSTYLE_CLASS
 90
     4095
280
     0
281
     0
  0
CLASS
  1
CELLSTYLEMAP
  2
AcDbCellStyleMap
  3
ObjectDBX Classes
 90
     1152
280
     0
281
     0
  0
CLASS
  1
EXACXREFPANELOBJECT
  2
ExAcXREFPanelObject
  3
EXAC_ESW
 90
     1025
280
     1
281
     0
  0
CLASS
  1
NPOCOLLECTION
  2
AcDbImpNonPersistentObjectsCollection
  3
ObjectDBX Classes
 90
     1153
280
     1
281
     0
  0
CLASS
  1
SUN
  2
AcDbSun
  3
SCENEOE
 90
     1153
280
     0
281
     0
  0
CLASS
  1
MULTILEADER
  2
AcDbMLeader
  3
ACDB_MLEADER_CLASS
 90
     1025
280
     0
281
     1
  0
CLASS
  1
XRECORD
  2
AcDbXrecord
  3
ObjectDBX Classes
 90
    32768
280
     0
281
     0
  0
CLASS
  1
HATCH
  2
AcDbHatch
  3
ObjectDBX Classes
 90
    32768
280
     0
281
     1
  0
ENDSEC
  0
SECTION
  2
TABLES
  0
TABLE
  2
VPORT
  5
8
330
0
100
AcDbSymbolTable
 70
     1
  0
VPORT
  5
19DC2
330
8
100
AcDbSymbolTableRecord
100
AcDbViewportTableRecord
  2
*ACTIVE
 70
     0
 10
0.0
 20
0.0
 11
1.0
 21
1.0
 12
590.1133130901865
 22
-644.4078965538436
 13
0.0
 23
0.0
 14
10.0
 24
10.0
 15
10.0
 25
10.0
 16
0.0
 26
0.0
 36
1.0
 17
0.0
 27
0.0
 37
0.0
 40
288.7781685155082
 41
1.858156028368794
 42
50.0
 43
0.0
 44
0.0
 50
0.0
 51
0.0
 71
    16
 72
   100
 73
     1
 74
     1
 75
     0
 76
     0
 77
     0
 78
     0
  0
ENDTAB
  0
TABLE
  2
LTYPE
  5
5
330
0
100
AcDbSymbolTable
 70
     4
  0
LTYPE
  5
12
330
5
100
AcDbSymbolTableRecord
100
AcDbLinetypeTableRecord
  2
BYBLOCK
 70
     0
  3

 72
    65
 73
     0
 40
0.0
  0
LTYPE
  5
13
330
5
100
AcDbSymbolTableRecord
100
AcDbLinetypeTableRecord
  2
BYLAYER
 70
     0
  3

 72
    65
 73
     0
 40
0.0
  0
LTYPE
  5
14
330
5
100
AcDbSymbolTableRecord
100
AcDbLinetypeTableRecord
  2
CONTINUOUS
 70
     0
  3
Solid line
 72
    65
 73
     0
 40
0.0
  0
LTYPE
  5
26
330
5
100
AcDbSymbolTableRecord
100
AcDbLinetypeTableRecord
  2
CENTER2
 70
     0
  3
Center (.5x) ___ _ ___ _ ___ _ ___ _ ___ _ ___
 72
    65
 73
     4
 40
28.575
 49
19.05
 74
     0
 49
-3.175
 74
     0
 49
3.175
 74
     0
 49
-3.175
 74
     0
  0
LTYPE
  5
FF
330
5
100
AcDbSymbolTableRecord
100
AcDbLinetypeTableRecord
  2
HIDDEN
 70
     0
  3
Hidden __ __ __ __ __ __ __ __ __ __ __ __ __ _
 72
    65
 73
     2
 40
9.524999999999999
 49
6.35
 74
     0
 49
-3.175
 74
     0
  0
LTYPE
  5
100
330
5
100
AcDbSymbolTableRecord
100
AcDbLinetypeTableRecord
  2
PHANTOM2
 70
     0
  3
Phantom (0.5x) ___ _ _ ___ _ _ ___ _ _ ___ _ _
 72
    65
 73
     6
 40
31.75
 49
15.875
 74
     0
 49
-3.175
 74
     0
 49
3.175
 74
     0
 49
-3.175
 74
     0
 49
3.175
 74
     0
 49
-3.175
 74
     0
  0
ENDTAB
  0
TABLE
  2
LAYER
  5
2
102
{ACAD_XDICTIONARY
360
18FE8
102
}
330
0
100
AcDbSymbolTable
 70
     7
  0
LAYER
  5
E
102
{ACAD_XDICTIONARY
360
1A20A
102
}
330
2
100
AcDbSymbolTableRecord
100
AcDbLayerTableRecord
  2
0
 70
     0
 62
     7
  6
CONTINUOUS
  0
LAYER
  5
29
102
{ACAD_XDICTIONARY
360
1A20C
102
}
330
2
100
AcDbSymbolTableRecord
100
AcDbLayerTableRecord
  2
1CENTER
 70
     0
 62
     7
  6
CENTER2
  0
LAYER
  5
31
102
{ACAD_XDICTIONARY
360
1A20E
102
}
330
2
100
AcDbSymbolTableRecord
100
AcDbLayerTableRecord
  2
1TEXT
 70
     0
 62
     7
  6
CONTINUOUS
  0
LAYER
  5
101
102
{ACAD_XDICTIONARY
360
1A218
102
}
330
2
100
AcDbSymbolTableRecord
100
AcDbLayerTableRecord
  2
1DIM
 70
     0
 62
     7
  6
CONTINUOUS
  0
LAYER
  5
102
102
{ACAD_XDICTIONARY
360
1A21A
102
}
330
2
100
AcDbSymbolTableRecord
100
AcDbLayerTableRecord
  2
1HIDDEN
 70
     0
 62
     7
  6
HIDDEN
  0
LAYER
  5
103
102
{ACAD_XDICTIONARY
360
1A21C
102
}
330
2
100
AcDbSymbolTableRecord
100
AcDbLayerTableRecord
  2
1PHANTOM
 70
     0
 62
     7
  6
PHANTOM2
  0
LAYER
  5
25F
102
{ACAD_XDICTIONARY
360
1A220
102
}
330
2
100
AcDbSymbolTableRecord
100
AcDbLayerTableRecord
  2
01
 70
     0
 62
     1
  6
CONTINUOUS
  0
ENDTAB
  0
TABLE
  2
STYLE
  5
3
330
0
100
AcDbSymbolTable
 70
     1
  0
STYLE
  5
F
330
3
100
AcDbSymbolTableRecord
100
AcDbTextStyleTableRecord
  2
STANDARD
 70
     0
 40
0.0
 41
1.0
 50
0.0
 71
     0
 42
4.0
  3
txt.shx
  4
extfont.shx
  0
ENDTAB
  0
TABLE
  2
VIEW
  5
6
330
0
100
AcDbSymbolTable
 70
     0
  0
ENDTAB
  0
TABLE
  2
UCS
  5
7
330
0
100
AcDbSymbolTable
 70
     0
  0
ENDTAB
  0
TABLE
  2
APPID
  5
9
330
0
100
AcDbSymbolTable
 70
    17
  0
APPID
  5
10
330
9
100
AcDbSymbolTableRecord
100
AcDbRegAppTableRecord
  2
ACAD
 70
     0
  0
APPID
  5
21
330
9
100
AcDbSymbolTableRecord
100
AcDbRegAppTableRecord
  2
DRAWINGVARIABLESXDATA
 70
     0
  0
APPID
  5
64
330
9
100
AcDbSymbolTableRecord
100
AcDbRegAppTableRecord
  2
CONTENTTABDATA
 70
     0
  0
APPID
  5
65
330
9
100
AcDbSymbolTableRecord
100
AcDbRegAppTableRecord
  2
CONTENTCURRENTTAB
 70
     0
  0
APPID
  5
66
330
9
100
AcDbSymbolTableRecord
100
AcDbRegAppTableRecord
  2
CONTENTBLOCKDESCRIPTION
 70
     0
  0
APPID
  5
67
330
9
100
AcDbSymbolTableRecord
100
AcDbRegAppTableRecord
  2
CONTENTBLOCKICON
 70
     0
  0
APPID
  5
68
330
9
100
AcDbSymbolTableRecord
100
AcDbRegAppTableRecord
  2
CONTENTLONGBLOCKNAME
 70
     0
  0
APPID
  5
5A9
330
9
100
AcDbSymbolTableRecord
100
AcDbRegAppTableRecord
  2
ACAD_PSEXT
 70
     0
  0
APPID
  5
18AC
330
9
100
AcDbSymbolTableRecord
100
AcDbRegAppTableRecord
  2
ACAD_DSTYLE_DIMTEXT_FILL
 70
     0
  0
APPID
  5
19E1A
330
9
100
AcDbSymbolTableRecord
100
AcDbRegAppTableRecord
  2
ACAD_MLEADERVER
 70
     0
  0
APPID
  5
1A2FA
330
9
100
AcDbSymbolTableRecord
100
AcDbRegAppTableRecord
  2
ACAD_DSTYLE_DIMRADIAL_EXTE
 70
     0
  0
APPID
  5
1DBC1
330
9
100
AcDbSymbolTableRecord
100
AcDbRegAppTableRecord
  2
ACADANNOTATIVE
 70
     0
  0
APPID
  5
1E991
330
9
100
AcDbSymbolTableRecord
100
AcDbRegAppTableRecord
  2
ACAD_EXEMPT_FROM_CAD_STAND
 70
     0
  0
APPID
  5
1F584
330
9
100
AcDbSymbolTableRecord
100
AcDbRegAppTableRecord
  2
ACDBBLOCKREPETAG
 70
     0
  0
APPID
  5
1FE5A
330
9
100
AcDbSymbolTableRecord
100
AcDbRegAppTableRecord
  2
ACAD_OBJECT_CHANGE_GUID
 70
     0
  0
APPID
  5
1FEDB
330
9
100
AcDbSymbolTableRecord
100
AcDbRegAppTableRecord
  2
ACLAYERTOOLS
 70
     0
  0
APPID
  5
1FEDC
330
9
100
AcDbSymbolTableRecord
100
AcDbRegAppTableRecord
  2
ACAD_NAV_VCDISPLAY
 70
     0
  0
ENDTAB
  0
TABLE
  2
DIMSTYLE
  5
A
330
0
100
AcDbSymbolTable
 70
     1
  0
DIMSTYLE
105
48
330
A
100
AcDbSymbolTableRecord
100
AcDbDimStyleTableRecord
  2
NEWX10
 70
     0
  3
 
  4

  5

  6
OPEN30
  7
OPEN30
 40
1.0
 41
2.0
 42
0.0
 43
7.0
 44
1.0
 45
0.0
 46
0.0
 47
0.0
 48
0.0
140
3.5
141
0.0
142
0.0
143
25.4
144
1.0
145
0.0
146
0.7
147
0.7
 71
     0
 72
     0
 73
     0
 74
     0
 75
     0
 76
     0
 77
     1
 78
     8
170
     0
171
     2
172
     1
173
     1
174
     0
175
     0
176
   256
177
   256
178
   201
179
     2
270
     2
271
     2
272
     4
273
     2
274
     2
340
F
275
     0
280
     0
281
     0
282
     0
283
     1
284
     8
285
     0
286
     0
287
     2
288
     0
  0
ENDTAB
  0
TABLE
  2
BLOCK_RECORD
  5
1
330
0
100
AcDbSymbolTable
 70
     8
  0
BLOCK_RECORD
  5
18
102
{ACAD_XDICTIONARY
360
6E9
102
}
330
1
100
AcDbSymbolTableRecord
100
AcDbBlockTableRecord
  2
*MODEL_SPACE
  0
BLOCK_RECORD
  5
15
102
{ACAD_XDICTIONARY
360
59B
102
}
330
1
100
AcDbSymbolTableRecord
100
AcDbBlockTableRecord
  2
*PAPER_SPACE
  0
BLOCK_RECORD
  5
42
330
1
100
AcDbSymbolTableRecord
100
AcDbBlockTableRecord
  2
_OPEN30
  0
BLOCK_RECORD
  5
1F5D3
330
1
100
AcDbSymbolTableRecord
100
AcDbBlockTableRecord
  2
A3WAKUKAWAJUN2017_HYOUDAI_
  0
BLOCK_RECORD
  5
2398F
330
1
100
AcDbSymbolTableRecord
100
AcDbBlockTableRecord
  2
*X239
  0
BLOCK_RECORD
  5
239DD
330
1
100
AcDbSymbolTableRecord
100
AcDbBlockTableRecord
  2
*X240
  0
BLOCK_RECORD
  5
23A2F
330
1
100
AcDbSymbolTableRecord
100
AcDbBlockTableRecord
  2
*X241
  0
BLOCK_RECORD
  5
23A80
330
1
100
AcDbSymbolTableRecord
100
AcDbBlockTableRecord
  2
*X242
  0
BLOCK_RECORD
  5
23ABD
330
1
100
AcDbSymbolTableRecord
100
AcDbBlockTableRecord
  2
*X243
  0
BLOCK_RECORD
  5
23AFD
330
1
100
AcDbSymbolTableRecord
100
AcDbBlockTableRecord
  2
*X244
  0
ENDTAB
  0
ENDSEC
  0
SECTION
  2
BLOCKS
  0
BLOCK
  5
19
330
18
100
AcDbEntity
  8
0
100
AcDbBlockBegin
  2
*MODEL_SPACE
 70
     0
 10
0.0
 20
0.0
 30
0.0
  3
*MODEL_SPACE
  1

  0
ENDBLK
  5
1A
330
18
100
AcDbEntity
  8
0
100
AcDbBlockEnd
  0
BLOCK
  5
16
330
15
100
AcDbEntity
 67
     1
  8
0
100
AcDbBlockBegin
  2
*PAPER_SPACE
 70
     0
 10
0.0
 20
0.0
 30
0.0
  3
*PAPER_SPACE
  1

  0
ENDBLK
  5
17
330
15
100
AcDbEntity
 67
     1
  8
0
100
AcDbBlockEnd
  0
BLOCK
  5
43
330
42
100
AcDbEntity
  8
0
100
AcDbBlockBegin
  2
_OPEN30
 70
     0
 10
0.0
 20
0.0
 30
0.0
  3
_OPEN30
  1

  0
LINE
  5
44
330
42
100
AcDbEntity
  8
0
  6
BYBLOCK
 62
     0
100
AcDbLine
 10
-1.0
 20
0.26794919
 30
0.0
 11
0.0
 21
0.0
 31
0.0
  0
LINE
  5
45
330
42
100
AcDbEntity
  8
0
  6
BYBLOCK
 62
     0
100
AcDbLine
 10
0.0
 20
0.0
 30
0.0
 11
-1.0
 21
-0.26794919
 31
0.0
  0
LINE
  5
46
330
42
100
AcDbEntity
  8
0
  6
BYBLOCK
 62
     0
100
AcDbLine
 10
0.0
 20
0.0
 30
0.0
 11
-1.0
 21
0.0
 31
0.0
  0
ENDBLK
  5
47
330
42
100
AcDbEntity
  8
0
100
AcDbBlockEnd
  0
BLOCK
  5
1FCDF
330
1F5D3
100
AcDbEntity
  8
0
100
AcDbBlockBegin
  2
A3WAKUKAWAJUN2017_HYOUDAI_
 70
     0
 10
0.0
 20
0.0
 30
0.0
  3
A3WAKUKAWAJUN2017_HYOUDAI_
  1

  0
LINE
  5
1F5D5
330
1F5D3
100
AcDbEntity
  8
0
100
AcDbLine
 10
13.26299999998673
 20
-0.0001000000000317
 30
0.0
 11
9.236999999990758
 21
8.999899999990987
 31
0.0
1001
ACAD
1000
ASC_BOUNDS
1002
{
1070
    19
1005
1F616
1002
}
  0
LINE
  5
1F5D6
330
1F5D3
100
AcDbEntity
  8
0
100
AcDbLine
 10
5.657999999994331
 20
0.9999999999989768
 30
0.0
 11
9.236999999990758
 21
8.999999999991019
 31
0.0
1001
ACAD
1000
ASC_BOUNDS
1002
{
1070
    19
1005
1F616
1002
}
  0
LINE
  5
1F5D7
330
1F5D3
100
AcDbEntity
  8
0
100
AcDbLine
 10
18.59199999998134
 20
-0.2368999999997641
 30
0.0
 11
16.46099999998353
 21
5.432899999994561
 31
0.0
1001
ACAD
1000
ASC_BOUNDS
1002
{
1070
    19
1005
1F617
1002
}
  0
LINE
  5
1F5D8
330
1F5D3
100
AcDbEntity
  8
0
100
AcDbLine
 10
18.59199999998134
 20
-0.2368999999997641
 30
0.0
 11
22.38199999997767
 21
8.763099999991255
 31
0.0
1001
ACAD
1000
ASC_BOUNDS
1002
{
1070
    19
1005
1F617
1002
}
  0
LINE
  5
1F5D9
330
1F5D3
100
AcDbEntity
  8
0
100
AcDbLine
 10
14.32899999998563
 20
-0.2368999999997641
 30
0.0
 11
16.46099999998353
 21
5.432899999994561
 31
0.0
1001
ACAD
1000
ASC_BOUNDS
1002
{
1070
    19
1005
1F617
1002
}
  0
LINE
  5
1F5DA
330
1F5D3
100
AcDbEntity
  8
0
100
AcDbLine
 10
14.32899999998563
 20
-0.2368999999997641
 30
0.0
 11
10.53899999998941
 21
8.763099999991255
 31
0.0
1001
ACAD
1000
ASC_BOUNDS
1002
{
1070
    19
1005
1F617
1002
}
  0
LINE
  5
1F5DB
330
1F5D3
100
AcDbEntity
  8
0
100
AcDbLine
 10
19.53899999998043
 20
-0.0001000000000317
 30
0.0
 11
23.56599999997638
 21
8.999899999990987
 31
0.0
1001
ACAD
1000
ASC_BOUNDS
1002
{
1070
    19
1005
1F618
1002
}
  0
LINE
  5
1F5DC
330
1F5D3
100
AcDbEntity
  8
0
100
AcDbLine
 10
26.97358892824991
 20
1.383099999991202
 30
0.0
 11
23.56599999997638
 21
8.999899999990987
 31
0.0
1001
ACAD
1000
ASC_BOUNDS
1002
{
1070
    19
1005
1F618
1002
}
  0
LINE
  5
1F5DD
330
1F5D3
100
AcDbEntity
  8
0
100
AcDbLine
 10
5.657999999994331
 20
0.9999999999989768
 30
0.0
 11
3.181999999996833
 21
4.668599999995308
 31
0.0
1001
ACAD
1000
ASC_BOUNDS
1002
{
1070
    19
1005
1F616
1002
}
  0
LINE
  5
1F5DE
330
1F5D3
100
AcDbEntity
  8
0
100
AcDbLine
 10
4.617999999995391
 20
-0.0001000000000317
 30
0.0
 11
1.420999999998571
 21
4.736799999995242
 31
0.0
1001
ACAD
1000
ASC_BOUNDS
1002
{
1070
    19
1005
1F616
1002
}
  0
LINE
  5
1F5DF
330
1F5D3
100
AcDbEntity
  8
0
100
AcDbLine
 10
1.420999999998571
 20
8.763099999991255
 30
0.0
 11
1.420999999998571
 21
0.0
 31
0.0
1001
ACAD
1000
ASC_BOUNDS
1002
{
1070
    19
1005
1F61B
1002
}
  0
LINE
  5
1F5E0
330
1F5D3
100
AcDbEntity
  8
0
100
AcDbLine
 10
0.0
 20
8.763099999991255
 30
0.0
 11
0.0
 21
0.0
 31
0.0
1001
ACAD
1000
ASC_BOUNDS
1002
{
1070
    19
1005
1F61B
1002
}
  0
LINE
  5
1F5E1
330
1F5D3
100
AcDbEntity
  8
0
100
AcDbLine
 10
6.766999999993232
 20
-0.0001000000000317
 30
0.0
 11
7.826999999992154
 21
2.368399999997621
 31
0.0
1001
ACAD
1000
ASC_BOUNDS
1002
{
1070
    19
1005
1F616
1002
}
  0
LINE
  5
1F5E2
330
1F5D3
100
AcDbEntity
  8
0
100
AcDbLine
 10
0.0
 20
0.0
 30
0.0
 11
1.420999999998571
 21
0.0
 31
0.0
1001
ACAD
1000
ASC_BOUNDS
1002
{
1070
    19
1005
1F61B
1002
}
  0
LINE
  5
1F5E3
330
1F5D3
100
AcDbEntity
  8
0
100
AcDbLine
 10
4.617999999995391
 20
0.0
 30
0.0
 11
6.766999999993232
 21
0.0
 31
0.0
1001
ACAD
1000
ASC_BOUNDS
1002
{
1070
    19
1005
1F616
1002
}
  0
LINE
  5
1F5E4
330
1F5D3
100
AcDbEntity
  8
0
100
AcDbLine
 10
11.70599999998831
 20
-0.0001000000000317
 30
0.0
 11
10.64699999998936
 21
2.368399999997621
 31
0.0
1001
ACAD
1000
ASC_BOUNDS
1002
{
1070
    19
1005
1F616
1002
}
  0
LINE
  5
1F5E5
330
1F5D3
100
AcDbEntity
  8
0
100
AcDbLine
 10
7.826999999992154
 20
2.368399999997621
 30
0.0
 11
10.64699999998936
 21
2.368399999997621
 31
0.0
1001
ACAD
1000
ASC_BOUNDS
1002
{
1070
    19
1005
1F616
1002
}
  0
LINE
  5
1F5E6
330
1F5D3
100
AcDbEntity
  8
0
100
AcDbLine
 10
11.70599999998831
 20
0.0
 30
0.0
 11
13.26299999998673
 21
0.0
 31
0.0
1001
ACAD
1000
ASC_BOUNDS
1002
{
1070
    19
1005
1F616
1002
}
  0
LINE
  5
1F5E7
330
1F5D3
100
AcDbEntity
  8
0
100
AcDbLine
 10
22.15599999997789
 20
2.368399999997621
 30
0.0
 11
24.97599999997499
 21
2.368399999997621
 31
0.0
1001
ACAD
1000
ASC_BOUNDS
1002
{
1070
    19
1005
1F618
1002
}
  0
LINE
  5
1F5E8
330
1F5D3
100
AcDbEntity
  8
0
100
AcDbLine
 10
19.53899999998043
 20
0.0
 30
0.0
 11
21.09599999997886
 21
0.0
 31
0.0
1001
ACAD
1000
ASC_BOUNDS
1002
{
1070
    19
1005
1F618
1002
}
  0
LINE
  5
1F5E9
330
1F5D3
100
AcDbEntity
  8
0
100
AcDbLine
 10
21.09599999997886
 20
-0.0001000000000317
 30
0.0
 11
22.15599999997789
 21
2.368399999997621
 31
0.0
1001
ACAD
1000
ASC_BOUNDS
1002
{
1070
    19
1005
1F618
1002
}
  0
LINE
  5
1F5EA
330
1F5D3
100
AcDbEntity
  8
0
100
AcDbLine
 10
26.02015566812236
 20
0.0330999999912365
 30
0.0
 11
24.97599999997499
 21
2.368399999997621
 31
0.0
1001
ACAD
1000
ASC_BOUNDS
1002
{
1070
    19
1005
1F618
1002
}
  0
LINE
  5
1F5EB
330
1F5D3
100
AcDbEntity
  8
0
100
AcDbLine
 10
14.32399999998563
 20
3.315799999996671
 30
0.0
 11
16.46099999998353
 21
8.999899999990987
 31
0.0
1001
ACAD
1000
ASC_BOUNDS
1002
{
1070
    19
1005
1F617
1002
}
  0
LINE
  5
1F5EC
330
1F5D3
100
AcDbEntity
  8
0
100
AcDbLine
 10
6.432999999993513
 20
8.763099999991255
 30
0.0
 11
3.181999999996833
 21
4.668599999995308
 31
0.0
1001
ACAD
1000
ASC_BOUNDS
1002
{
1070
    19
1005
1F616
1002
}
  0
LINE
  5
1F5ED
330
1F5D3
100
AcDbEntity
  8
0
100
AcDbLine
 10
4.617999999995391
 20
8.763099999991255
 30
0.0
 11
1.420999999998571
 21
4.736799999995242
 31
0.0
1001
ACAD
1000
ASC_BOUNDS
1002
{
1070
    19
1005
1F616
1002
}
  0
LINE
  5
1F5EE
330
1F5D3
100
AcDbEntity
  8
0
100
AcDbLine
 10
0.0
 20
8.763099999991255
 30
0.0
 11
1.420999999998571
 21
8.763099999991255
 31
0.0
1001
ACAD
1000
ASC_BOUNDS
1002
{
1070
    19
1005
1F61B
1002
}
  0
LINE
  5
1F5EF
330
1F5D3
100
AcDbEntity
  8
0
100
AcDbLine
 10
4.617999999995391
 20
8.763099999991255
 30
0.0
 11
6.432999999993513
 21
8.763099999991255
 31
0.0
1001
ACAD
1000
ASC_BOUNDS
1002
{
1070
    19
1005
1F616
1002
}
  0
LINE
  5
1F5F0
330
1F5D3
100
AcDbEntity
  8
0
100
AcDbLine
 10
14.32399999998563
 20
3.315799999996671
 30
0.0
 11
12.02999999998792
 21
8.763099999991255
 31
0.0
1001
ACAD
1000
ASC_BOUNDS
1002
{
1070
    19
1005
1F617
1002
}
  0
LINE
  5
1F5F1
330
1F5D3
100
AcDbEntity
  8
0
100
AcDbLine
 10
10.06399999998996
 20
3.670999999996297
 30
0.0
 11
9.236999999990758
 21
5.5200999999945
 31
0.0
1001
ACAD
1000
ASC_BOUNDS
1002
{
1070
    19
1005
1F616
1002
}
  0
LINE
  5
1F5F2
330
1F5D3
100
AcDbEntity
  8
0
100
AcDbLine
 10
8.409999999991555
 20
3.670999999996297
 30
0.0
 11
9.236999999990758
 21
5.5200999999945
 31
0.0
1001
ACAD
1000
ASC_BOUNDS
1002
{
1070
    19
1005
1F616
1002
}
  0
LINE
  5
1F5F3
330
1F5D3
100
AcDbEntity
  8
0
100
AcDbLine
 10
8.409999999991555
 20
3.670999999996297
 30
0.0
 11
10.06399999998996
 21
3.670999999996297
 31
0.0
1001
ACAD
1000
ASC_BOUNDS
1002
{
1070
    19
1005
1F616
1002
}
  0
LINE
  5
1F5F4
330
1F5D3
100
AcDbEntity
  8
0
100
AcDbLine
 10
10.53899999998941
 20
8.763099999991255
 30
0.0
 11
12.02999999998792
 21
8.763099999991255
 31
0.0
1001
ACAD
1000
ASC_BOUNDS
1002
{
1070
    19
1005
1F617
1002
}
  0
LINE
  5
1F5F5
330
1F5D3
100
AcDbEntity
  8
0
100
AcDbLine
 10
22.7389999999773
 20
3.670999999996297
 30
0.0
 11
23.56599999997638
 21
5.5200999999945
 31
0.0
1001
ACAD
1000
ASC_BOUNDS
1002
{
1070
    19
1005
1F618
1002
}
  0
LINE
  5
1F5F6
330
1F5D3
100
AcDbEntity
  8
0
100
AcDbLine
 10
22.7389999999773
 20
3.670999999996297
 30
0.0
 11
24.39299999997559
 21
3.670999999996297
 31
0.0
1001
ACAD
1000
ASC_BOUNDS
1002
{
1070
    19
1005
1F618
1002
}
  0
LINE
  5
1F5F7
330
1F5D3
100
AcDbEntity
  8
0
100
AcDbLine
 10
18.59799999998143
 20
3.315799999996671
 30
0.0
 11
20.89099999997916
 21
8.763099999991255
 31
0.0
1001
ACAD
1000
ASC_BOUNDS
1002
{
1070
    19
1005
1F617
1002
}
  0
LINE
  5
1F5F8
330
1F5D3
100
AcDbEntity
  8
0
100
AcDbLine
 10
18.59799999998143
 20
3.315799999996671
 30
0.0
 11
16.46099999998353
 21
8.999899999990987
 31
0.0
1001
ACAD
1000
ASC_BOUNDS
1002
{
1070
    19
1005
1F617
1002
}
  0
LINE
  5
1F5F9
330
1F5D3
100
AcDbEntity
  8
0
100
AcDbLine
 10
20.89099999997916
 20
8.763099999991255
 30
0.0
 11
22.38199999997767
 21
8.763099999991255
 31
0.0
1001
ACAD
1000
ASC_BOUNDS
1002
{
1070
    19
1005
1F617
1002
}
  0
LINE
  5
1F5FA
330
1F5D3
100
AcDbEntity
  8
0
100
AcDbLine
 10
24.39299999997559
 20
3.670999999996297
 30
0.0
 11
23.56599999997638
 21
5.5200999999945
 31
0.0
1001
ACAD
1000
ASC_BOUNDS
1002
{
1070
    19
1005
1F618
1002
}
  0
LINE
  5
1F5FB
330
1F5D3
100
AcDbEntity
  8
0
100
AcDbLine
 10
44.99999999995498
 20
-0.2368999999997641
 30
0.0
 11
40.02599999995994
 21
5.341799999994635
 31
0.0
1001
ACAD
1000
ASC_BOUNDS
1002
{
1070
    19
1005
1F61A
1002
}
  0
LINE
  5
1F5FC
330
1F5D3
100
AcDbEntity
  8
0
100
AcDbLine
 10
40.02599999995994
 20
5.341799999994635
 30
0.0
 11
40.02599999995994
 21
0.0
 31
0.0
1001
ACAD
1000
ASC_BOUNDS
1002
{
1070
    19
1005
1F61A
1002
}
  0
LINE
  5
1F5FD
330
1F5D3
100
AcDbEntity
  8
0
100
AcDbLine
 10
38.60499999996136
 20
8.999999999991019
 30
0.0
 11
38.60499999996136
 21
0.0
 31
0.0
1001
ACAD
1000
ASC_BOUNDS
1002
{
1070
    19
1005
1F61A
1002
}
  0
LINE
  5
1F5FE
330
1F5D3
100
AcDbEntity
  8
0
100
AcDbLine
 10
44.99999999995498
 20
8.763099999991255
 30
0.0
 11
44.99999999995498
 21
-0.2368999999997641
 31
0.0
1001
ACAD
1000
ASC_BOUNDS
1002
{
1070
    19
1005
1F61A
1002
}
  0
LINE
  5
1F5FF
330
1F5D3
100
AcDbEntity
  8
0
100
AcDbLine
 10
38.60499999996136
 20
0.0
 30
0.0
 11
40.02599999995994
 21
0.0
 31
0.0
1001
ACAD
1000
ASC_BOUNDS
1002
{
1070
    19
1005
1F61A
1002
}
  0
LINE
  5
1F600
330
1F5D3
100
AcDbEntity
  8
0
100
AcDbLine
 10
43.57899999995641
 20
3.421199999996588
 30
0.0
 11
38.60499999996136
 21
8.999899999990987
 31
0.0
1001
ACAD
1000
ASC_BOUNDS
1002
{
1070
    19
1005
1F61A
1002
}
  0
LINE
  5
1F601
330
1F5D3
100
AcDbEntity
  8
0
100
AcDbLine
 10
43.57899999995641
 20
8.763099999991255
 30
0.0
 11
43.57899999995641
 21
3.421199999996588
 31
0.0
1001
ACAD
1000
ASC_BOUNDS
1002
{
1070
    19
1005
1F61A
1002
}
  0
LINE
  5
1F602
330
1F5D3
100
AcDbEntity
  8
0
100
AcDbLine
 10
43.57899999995641
 20
8.763099999991255
 30
0.0
 11
44.99999999995498
 21
8.763099999991255
 31
0.0
1001
ACAD
1000
ASC_BOUNDS
1002
{
1070
    19
1005
1F61A
1002
}
  0
LINE
  5
1F603
330
1F5D3
100
AcDbEntity
  8
0
100
AcDbLine
 10
37.67199999996831
 20
8.763099999991255
 30
0.0
 11
36.23199999996837
 21
8.763099999991255
 31
0.0
  0
LINE
  5
1F604
330
1F5D3
100
AcDbEntity
  8
0
100
AcDbLine
 10
31.64199999996833
 20
8.763099999991255
 30
0.0
 11
31.64199999996833
 21
2.481619422925121
 31
0.0
  0
LINE
  5
1F605
330
1F5D3
100
AcDbEntity
  8
0
100
AcDbLine
 10
37.67199999996831
 20
8.763099999991255
 30
0.0
 11
37.67199999996831
 21
2.481619422925121
 31
0.0
  0
LINE
  5
1F606
330
1F5D3
100
AcDbEntity
  8
0
100
AcDbLine
 10
36.23199999996837
 20
8.763099999991255
 30
0.0
 11
36.23199999996837
 21
2.481619422925064
 31
0.0
  0
LINE
  5
1F607
330
1F5D3
100
AcDbEntity
  8
0
100
AcDbLine
 10
33.08199999996839
 20
8.763099999991255
 30
0.0
 11
33.08199999996839
 21
2.481619422925121
 31
0.0
  0
ARC
  5
1F608
330
1F5D3
100
AcDbEntity
  8
0
100
AcDbCircle
 10
34.65699999996832
 20
3.183099999991214
 30
0.0
 40
3.420000000000007
100
AcDbArc
 50
240.0000000000255
 51
299.9999999999766
  0
ARC
  5
1F609
330
1F5D3
100
AcDbEntity
  8
0
100
AcDbCircle
 10
34.65699999996832
 20
3.183099999991214
 30
0.0
 40
1.97999999999999
100
AcDbArc
 50
240.000000000026
 51
299.9999999999703
  0
LINE
  5
1F60A
330
1F5D3
100
AcDbEntity
  8
0
100
AcDbLine
 10
33.08199999996828
 20
8.763099999991255
 30
0.0
 11
31.64199999996833
 21
8.763099999991255
 31
0.0
  0
ARC
  5
1F60B
330
1F5D3
100
AcDbEntity
  8
0
100
AcDbCircle
 10
35.06199999996829
 20
2.481619422925064
 30
0.0
 40
1.17
100
AcDbArc
 50
299.9999999999699
 51
0.0
  0
ARC
  5
1F60C
330
1F5D3
100
AcDbEntity
  8
0
100
AcDbCircle
 10
34.25199999996835
 20
2.481619422925121
 30
0.0
 40
1.17
100
AcDbArc
 50
180.0
 51
240.0000000000238
  0
ARC
  5
1F60D
330
1F5D3
100
AcDbEntity
  8
0
100
AcDbCircle
 10
35.06199999996841
 20
2.481619422925121
 30
0.0
 40
2.61
100
AcDbArc
 50
299.9999999999756
 51
0.0
  0
ARC
  5
1F60E
330
1F5D3
100
AcDbEntity
  8
0
100
AcDbCircle
 10
34.25199999996835
 20
2.481619422925121
 30
0.0
 40
2.61
100
AcDbArc
 50
180.0
 51
240.0000000000244
  0
LINE
  5
1F60F
330
1F5D3
100
AcDbEntity
  8
0
100
AcDbLine
 10
29.30199999996933
 20
8.763099999991255
 30
0.0
 11
30.74199999996927
 21
8.763099999991255
 31
0.0
1001
ACAD
1000
ASC_BOUNDS
1002
{
1070
    19
1005
1F618
1002
}
  0
LINE
  5
1F610
330
1F5D3
100
AcDbEntity
  8
0
100
AcDbLine
 10
30.74199999996927
 20
8.763099999991255
 30
0.0
 11
30.74199999996927
 21
2.373099999991211
 31
0.0
1001
ACAD
1000
ASC_BOUNDS
1002
{
1070
    19
1005
1F618
1002
}
  0
LINE
  5
1F611
330
1F5D3
100
AcDbEntity
  8
0
100
AcDbLine
 10
26.02015566812236
 20
0.0330999999912365
 30
0.0
 11
28.40199999996923
 21
0.0330999999912365
 31
0.0
1001
ACAD
1000
ASC_BOUNDS
1002
{
1070
    19
1005
1F618
1002
}
  0
LINE
  5
1F612
330
1F5D3
100
AcDbEntity
  8
0
100
AcDbLine
 10
29.30199999996933
 20
8.763099999991255
 30
0.0
 11
29.30199999996933
 21
2.283099999991236
 31
0.0
1001
ACAD
1000
ASC_BOUNDS
1002
{
1070
    19
1005
1F618
1002
}
  0
LINE
  5
1F613
330
1F5D3
100
AcDbEntity
  8
0
100
AcDbLine
 10
26.97358892824991
 20
1.383099999991202
 30
0.0
 11
28.40199999996923
 21
1.383099999991202
 31
0.0
1001
ACAD
1000
ASC_BOUNDS
1002
{
1070
    19
1005
1F618
1002
}
  0
ARC
  5
1F614
330
1F5D3
100
AcDbEntity
  8
0
100
AcDbCircle
 10
28.40199999996923
 20
2.283099999991236
 30
0.0
 40
0.9
100
AcDbArc
 50
270.0
 51
0.0
1001
ACAD
1000
ASC_BOUNDS
1002
{
1070
    19
1005
1F618
1002
}
  0
ARC
  5
1F615
330
1F5D3
100
AcDbEntity
  8
0
100
AcDbCircle
 10
28.40199999996923
 20
2.373099999991211
 30
0.0
 40
2.34
100
AcDbArc
 50
270.0
 51
0.0
1001
ACAD
1000
ASC_BOUNDS
1002
{
1070
    19
1005
1F618
1002
}
  0
INSERT
  5
1F616
330
1F5D3
100
AcDbEntity
  8
0
100
AcDbBlockReference
  2
*X239
 10
0.0
 20
0.0
 30
0.0
1001
ACAD
1000
HATCH
1002
{
1070
    19
1000
ANSI37
1040
0.15
1040
0.0
1000
ASC_BOUNDS
1070
     2
1070
     2
1070
    12
1005
1F5D5
1005
1F5D6
1005
1F5DD
1005
1F5EC
1005
1F5EF
1005
1F5ED
1005
1F5DE
1005
1F5E3
1005
1F5E1
1005
1F5E5
1005
1F5E4
1005
1F5E6
1070
     2
1070
     3
1005
1F5F1
1005
1F5F3
1005
1F5F2
1000
ASC_SEEDPOINT
1011
3.614004224891801
1021
2.996669441146025
1031
0.0
1000
R14_HATCH_DATA
1000
1F616
1011
1.0
1021
0.0
1031
0.0
1011
0.0
1021
1.0
1031
0.0
1011
0.0
1021
0.0
1031
1.0
1040
0.0
1010
0.0
1020
0.0
1030
1.0
1000
ANSI37
1070
     0
1070
     1
1071
        2
1071
        7
1070
     0
1070
     1
1071
       17
1040
13.26299999998673
1040
-0.0001000000000317
1040
9.236999999990758
1040
8.999899999990987
1040
9.236999999990758
1040
8.999999999991019
1040
5.657999999994331
1040
0.9999999999989768
1040
3.181999999996833
1040
4.668599999995308
1040
6.432999999993513
1040
8.763099999991255
1040
4.617999999995391
1040
8.763099999991255
1040
1.420999999998571
1040
4.736799999995242
1040
4.617999999995391
1040
-0.0001000000000317
1040
4.617999999995391
1040
0.0
1040
6.766999999993232
1040
0.0
1040
6.766999999993232
1040
-0.0001000000000317
1040
7.826999999992154
1040
2.368399999997621
1040
10.64699999998936
1040
2.368399999997621
1040
11.70599999998831
1040
-0.0001000000000317
1040
11.70599999998831
1040
0.0
1040
13.26299999998673
1040
0.0
1071
       12
1005
1F5D5
1005
1F5D6
1005
1F5DD
1005
1F5EC
1005
1F5EF
1005
1F5ED
1005
1F5DE
1005
1F5E3
1005
1F5E1
1005
1F5E5
1005
1F5E4
1005
1F5E6
1071
       22
1070
     0
1070
     1
1071
        3
1040
9.236999999990758
1040
5.5200999999945
1040
10.06399999998996
1040
3.670999999996297
1040
8.409999999991555
1040
3.670999999996297
1071
        3
1005
1F5F1
1005
1F5F3
1005
1F5F2
1070
     0
1070
     1
1040
0.0
1040
0.15
1070
     0
1070
     2
1040
0.7853981633974483
1040
49.29960901727088
1040
-10.17736998311392
1040
-0.3367596045400932
1040
0.3367596045400932
1070
     0
1040
2.356194490192345
1040
49.29960901727088
1040
-10.17736998311392
1040
-0.3367596045400932
1040
-0.3367596045400932
1070
     0
1040
0.0110235143455945
1071
        2
1040
3.614004224891801
1040
2.996669441146025
1040
0.0
1040
3.614004224891801
1040
2.996669441146025
1040
0.0
1002
}
  0
INSERT
  5
1F617
330
1F5D3
100
AcDbEntity
  8
0
100
AcDbBlockReference
  2
*X240
 10
0.0
 20
0.0
 30
0.0
1001
ACAD
1000
HATCH
1002
{
1070
    19
1000
ANSI37
1040
0.15
1040
0.0
1000
ASC_BOUNDS
1070
     1
1070
     2
1070
    10
1005
1F5D7
1005
1F5D8
1005
1F5F9
1005
1F5F7
1005
1F5F8
1005
1F5EB
1005
1F5F0
1005
1F5F4
1005
1F5DA
1005
1F5D9
1000
ASC_SEEDPOINT
1011
14.73245321214324
1021
2.798246178283421
1031
0.0
1000
R14_HATCH_DATA
1000
1F617
1011
1.0
1021
0.0
1031
0.0
1011
0.0
1021
1.0
1031
0.0
1011
0.0
1021
0.0
1031
1.0
1040
0.0
1010
0.0
1020
0.0
1030
1.0
1000
ANSI37
1070
     0
1070
     1
1071
        1
1071
        7
1070
     0
1070
     1
1071
       10
1040
16.46099999998353
1040
5.432899999994561
1040
18.59199999998134
1040
-0.2368999999997641
1040
22.38199999997767
1040
8.763099999991255
1040
20.89099999997916
1040
8.763099999991255
1040
18.59799999998143
1040
3.315799999996671
1040
16.46099999998353
1040
8.999899999990987
1040
14.32399999998563
1040
3.315799999996671
1040
12.02999999998792
1040
8.763099999991255
1040
10.53899999998941
1040
8.763099999991255
1040
14.32899999998563
1040
-0.2368999999997641
1071
       10
1005
1F5D7
1005
1F5D8
1005
1F5F9
1005
1F5F7
1005
1F5F8
1005
1F5EB
1005
1F5F0
1005
1F5F4
1005
1F5DA
1005
1F5D9
1070
     0
1070
     1
1040
0.0
1040
0.15
1070
     0
1070
     2
1040
0.7853981633974483
1040
49.29960901727088
1040
-10.17736998311392
1040
-0.3367596045400932
1040
0.3367596045400932
1070
     0
1040
2.356194490192345
1040
49.29960901727088
1040
-10.17736998311392
1040
-0.3367596045400932
1040
-0.3367596045400932
1070
     0
1040
0.0110235143455945
1071
        1
1040
14.73245321214324
1040
2.798246178283421
1040
0.0
1002
}
  0
INSERT
  5
1F618
330
1F5D3
100
AcDbEntity
  8
0
100
AcDbBlockReference
  2
*X241
 10
0.0
 20
0.0
 30
0.0
1001
ACAD
1000
HATCH
1002
{
1070
    19
1000
ANSI37
1040
0.15
1040
0.0
1000
ASC_BOUNDS
1070
     2
1070
     2
1070
    13
1005
1F5DB
1005
1F5E8
1005
1F5E9
1005
1F5E7
1005
1F5EA
1005
1F611
1005
1F615
1005
1F610
1005
1F60F
1005
1F612
1005
1F614
1005
1F613
1005
1F5DC
1070
     2
1070
     3
1005
1F5F5
1005
1F5FA
1005
1F5F6
1000
ASC_SEEDPOINT
1011
21.97929957367762
1021
3.294304244259308
1031
0.0
1000
R14_HATCH_DATA
1000
1F618
1011
1.0
1021
0.0
1031
0.0
1011
0.0
1021
1.0
1031
0.0
1011
0.0
1021
0.0
1031
1.0
1040
0.0
1010
0.0
1020
0.0
1030
1.0
1000
ANSI37
1070
     0
1070
     1
1071
        2
1071
        7
1070
     1
1070
     1
1071
       15
1040
23.56599999997638
1040
8.999899999990987
1040
0.0
1040
19.53899999998043
1040
-0.0001000000000317
1040
0.0
1040
19.53899999998043
1040
0.0
1040
0.0
1040
21.09599999997886
1040
0.0
1040
0.0
1040
21.09599999997886
1040
-0.0001000000000317
1040
0.0
1040
22.15599999997789
1040
2.368399999997621
1040
0.0
1040
24.97599999997499
1040
2.368399999997621
1040
0.0
1040
26.02015566812236
1040
0.0330999999912365
1040
0.0
1040
28.40199999996923
1040
0.0330999999912365
1040
0.414213562373095
1040
30.74199999996923
1040
2.373099999991211
1040
0.0
1040
30.74199999996927
1040
8.763099999991255
1040
0.0
1040
29.30199999996933
1040
8.763099999991255
1040
0.0
1040
29.30199999996933
1040
2.283099999991236
1040
-0.414213562373095
1040
28.40199999996923
1040
1.383099999991237
1040
0.0
1040
26.97358892824991
1040
1.383099999991202
1040
0.0
1071
       13
1005
1F5DB
1005
1F5E8
1005
1F5E9
1005
1F5E7
1005
1F5EA
1005
1F611
1005
1F615
1005
1F610
1005
1F60F
1005
1F612
1005
1F614
1005
1F613
1005
1F5DC
1071
       22
1070
     0
1070
     1
1071
        3
1040
22.7389999999773
1040
3.670999999996297
1040
23.56599999997638
1040
5.5200999999945
1040
24.39299999997559
1040
3.670999999996297
1071
        3
1005
1F5F5
1005
1F5FA
1005
1F5F6
1070
     0
1070
     1
1040
0.0
1040
0.15
1070
     0
1070
     2
1040
0.7853981633974483
1040
49.29960901727088
1040
-10.17736998311392
1040
-0.3367596045400932
1040
0.3367596045400932
1070
     0
1040
2.356194490192345
1040
49.29960901727088
1040
-10.17736998311392
1040
-0.3367596045400932
1040
-0.3367596045400932
1070
     0
1040
0.0110235143455945
1071
        2
1040
21.97929957367762
1040
3.294304244259308
1040
0.0
1040
21.97929957367762
1040
3.294304244259308
1040
0.0
1002
}
  0
INSERT
  5
1F619
330
1F5D3
100
AcDbEntity
  8
0
100
AcDbBlockReference
  2
*X242
 10
0.0
 20
0.0
 30
0.0
1001
ACAD
1000
HATCH
1002
{
1070
    19
1000
ANSI37
1040
0.15
1040
0.0
1000
R14_HATCH_DATA
1000
1F619
1011
1.0
1021
0.0
1031
0.0
1011
0.0
1021
1.0
1031
0.0
1011
0.0
1021
0.0
1031
1.0
1040
0.0
1010
0.0
1020
0.0
1030
1.0
1000
ANSI37
1070
     0
1070
     1
1071
        1
1071
        7
1070
     1
1070
     1
1071
       12
1040
31.64199999996833
1040
2.481619422925121
1040
0.2679491924310942
1040
32.94699999997067
1040
0.2212931190493919
1040
0.2679491924301353
1040
36.36699999995983
1040
0.2212931190459813
1040
0.2679491924321411
1040
37.67199999996831
1040
2.481619422928361
1040
0.0
1040
37.67199999996831
1040
8.763099999991255
1040
0.0
1040
36.23199999996837
1040
8.763099999991255
1040
0.0
1040
36.23199999996837
1040
2.481619422925064
1040
-0.2679491924310291
1040
35.64699999996708
1040
1.468369700498386
1040
-0.267949192430519
1040
33.66699999997093
1040
1.468369700497703
1040
-0.267949192431809
1040
33.08199999996839
1040
2.481619422926997
1040
0.0
1040
33.08199999996839
1040
8.763099999991255
1040
0.0
1040
31.64199999996833
1040
8.763099999991255
1040
0.0
1071
        0
1070
     0
1070
     1
1040
0.0
1040
0.15
1070
     0
1070
     2
1040
0.7853981633974483
1040
49.29960901727088
1040
-10.17736998311392
1040
-0.3367596045400932
1040
0.3367596045400932
1070
     0
1040
2.356194490192345
1040
49.29960901727088
1040
-10.17736998311392
1040
-0.3367596045400932
1040
-0.3367596045400932
1070
     0
1040
0.0110235143455945
1071
        1
1040
32.30357378967278
1040
3.988785755459219
1040
0.0
1002
}
  0
INSERT
  5
1F61A
330
1F5D3
100
AcDbEntity
  8
0
100
AcDbBlockReference
  2
*X243
 10
0.0
 20
0.0
 30
0.0
1001
ACAD
1000
HATCH
1002
{
1070
    19
1000
ANSI37
1040
0.15
1040
0.0
1000
ASC_BOUNDS
1070
     1
1070
     2
1070
     8
1005
1F5FB
1005
1F5FE
1005
1F602
1005
1F601
1005
1F600
1005
1F5FD
1005
1F5FF
1005
1F5FC
1000
ASC_SEEDPOINT
1011
39.74896370716704
1021
4.484843821435049
1031
0.0
1000
R14_HATCH_DATA
1000
1F61A
1011
1.0
1021
0.0
1031
0.0
1011
0.0
1021
1.0
1031
0.0
1011
0.0
1021
0.0
1031
1.0
1040
0.0
1010
0.0
1020
0.0
1030
1.0
1000
ANSI37
1070
     0
1070
     1
1071
        1
1071
        7
1070
     0
1070
     1
1071
        9
1040
40.02599999995994
1040
5.341799999994635
1040
44.99999999995498
1040
-0.2368999999997641
1040
44.99999999995498
1040
8.763099999991255
1040
43.57899999995641
1040
8.763099999991255
1040
43.57899999995641
1040
3.421199999996588
1040
38.60499999996136
1040
8.999899999990987
1040
38.60499999996136
1040
8.999999999991019
1040
38.60499999996136
1040
0.0
1040
40.02599999995994
1040
0.0
1071
        8
1005
1F5FB
1005
1F5FE
1005
1F602
1005
1F601
1005
1F600
1005
1F5FD
1005
1F5FF
1005
1F5FC
1070
     0
1070
     1
1040
0.0
1040
0.15
1070
     0
1070
     2
1040
0.7853981633974483
1040
49.29960901727088
1040
-10.17736998311392
1040
-0.3367596045400932
1040
0.3367596045400932
1070
     0
1040
2.356194490192345
1040
49.29960901727088
1040
-10.17736998311392
1040
-0.3367596045400932
1040
-0.3367596045400932
1070
     0
1040
0.0110235143455945
1071
        1
1040
39.74896370716704
1040
4.484843821435049
1040
0.0
1002
}
  0
INSERT
  5
1F61B
330
1F5D3
100
AcDbEntity
  8
0
100
AcDbBlockReference
  2
*X244
 10
0.0
 20
0.0
 30
0.0
1001
ACAD
1000
HATCH
1002
{
1070
    19
1000
ANSI37
1040
0.15
1040
0.0
1000
ASC_BOUNDS
1070
     1
1070
     2
1070
     4
1005
1F5DF
1005
1F5EE
1005
1F5E0
1005
1F5E2
1000
ASC_SEEDPOINT
1011
1.079051535452663
1021
4.148538732891836
1031
0.0
1000
R14_HATCH_DATA
1000
1F61B
1011
1.0
1021
0.0
1031
0.0
1011
0.0
1021
1.0
1031
0.0
1011
0.0
1021
0.0
1031
1.0
1040
0.0
1010
0.0
1020
0.0
1030
1.0
1000
ANSI37
1070
     0
1070
     1
1071
        1
1071
        7
1070
     0
1070
     1
1071
        4
1040
1.420999999998571
1040
0.0
1040
1.420999999998571
1040
8.763099999991255
1040
0.0
1040
8.763099999991255
1040
0.0
1040
0.0
1071
        4
1005
1F5DF
1005
1F5EE
1005
1F5E0
1005
1F5E2
1070
     0
1070
     1
1040
0.0
1040
0.15
1070
     0
1070
     2
1040
0.7853981633974483
1040
49.29960901727088
1040
-10.17736998311392
1040
-0.3367596045400932
1040
0.3367596045400932
1070
     0
1040
2.356194490192345
1040
49.29960901727088
1040
-10.17736998311392
1040
-0.3367596045400932
1040
-0.3367596045400932
1070
     0
1040
0.0053004257112761
1071
        1
1040
1.079051535452663
1040
4.148538732891836
1040
0.0
1002
}
  0
ENDBLK
  5
1FCE0
330
1F5D3
100
AcDbEntity
  8
0
100
AcDbBlockEnd
  0
BLOCK
  5
23B1D
330
2398F
100
AcDbEntity
  8
0
100
AcDbBlockBegin
  2
*X239
 70
     1
 10
0.0
 20
0.0
 30
0.0
  3
*X239
  1

  0
LINE
  5
23990
330
2398F
100
AcDbEntity
  8
0
  6
CONTINUOUS
100
AcDbLine
 10
3.418023043697893
 20
7.251849696850613
 30
0.0
 11
4.929273346838536
 21
8.763099999991255
 31
0.0
  0
LINE
  5
23991
330
2398F
100
AcDbEntity
  8
0
  6
CONTINUOUS
100
AcDbLine
 10
1.483656411257782
 20
4.643963855330318
 30
0.0
 11
5.60279255591872
 21
8.763099999991255
 31
0.0
  0
LINE
  5
23992
330
2398F
100
AcDbEntity
  8
0
  6
CONTINUOUS
100
AcDbLine
 10
1.755053947328235
 20
4.241842182320584
 30
0.0
 11
6.276311764998907
 21
8.763099999991255
 31
0.0
  0
LINE
  5
23993
330
2398F
100
AcDbEntity
  8
0
  6
CONTINUOUS
100
AcDbLine
 10
2.026451483398688
 20
3.839720509310849
 30
0.0
 11
4.441040904851878
 21
6.254309930764039
 31
0.0
  0
LINE
  5
23994
330
2398F
100
AcDbEntity
  8
0
  6
CONTINUOUS
100
AcDbLine
 10
2.297849019469139
 20
3.437598836301114
 30
0.0
 11
3.321765168359338
 21
4.461514985191313
 31
0.0
  0
LINE
  5
23995
330
2398F
100
AcDbEntity
  8
0
  6
CONTINUOUS
100
AcDbLine
 10
2.569246555539591
 20
3.03547716329138
 30
0.0
 11
3.593163397972743
 21
4.059394005724531
 31
0.0
  0
LINE
  5
23996
330
2398F
100
AcDbEntity
  8
0
  6
CONTINUOUS
100
AcDbLine
 10
2.840644091610043
 20
2.633355490281646
 30
0.0
 11
3.864561627586149
 21
3.657273026257751
 31
0.0
  0
LINE
  5
23997
330
2398F
100
AcDbEntity
  8
0
  6
CONTINUOUS
100
AcDbLine
 10
3.112041627680496
 20
2.231233817271911
 30
0.0
 11
4.135959857199554
 21
3.25515204679097
 31
0.0
  0
LINE
  5
23998
330
2398F
100
AcDbEntity
  8
0
  6
CONTINUOUS
100
AcDbLine
 10
3.383439163750948
 20
1.829112144262177
 30
0.0
 11
4.40735808681296
 21
2.853031067324189
 31
0.0
  0
LINE
  5
23999
330
2398F
100
AcDbEntity
  8
0
  6
CONTINUOUS
100
AcDbLine
 10
3.654836699821399
 20
1.426990471252442
 30
0.0
 11
4.678756316426365
 21
2.450910087857407
 31
0.0
  0
LINE
  5
2399A
330
2398F
100
AcDbEntity
  8
0
  6
CONTINUOUS
100
AcDbLine
 10
3.926234235891853
 20
1.024868798242709
 30
0.0
 11
4.95015454603977
 21
2.048789108390626
 31
0.0
  0
LINE
  5
2399B
330
2398F
100
AcDbEntity
  8
0
  6
CONTINUOUS
100
AcDbLine
 10
4.197631771962304
 20
0.6227471252329737
 30
0.0
 11
5.221552775653176
 21
1.646668128923846
 31
0.0
  0
LINE
  5
2399C
330
2398F
100
AcDbEntity
  8
0
  6
CONTINUOUS
100
AcDbLine
 10
8.715877546767851
 20
7.835069736359266
 30
0.0
 11
9.435953450375058
 21
8.555145639966472
 31
0.0
  0
LINE
  5
2399D
330
2398F
100
AcDbEntity
  8
0
  6
CONTINUOUS
100
AcDbLine
 10
8.170620868422267
 20
6.616293848933497
 30
0.0
 11
9.644120833743461
 21
8.08979381425469
 31
0.0
  0
LINE
  5
2399E
330
2398F
100
AcDbEntity
  8
0
  6
CONTINUOUS
100
AcDbLine
 10
7.625364190076684
 20
5.397517961507727
 30
0.0
 11
9.852288217111864
 21
7.624441988542907
 31
0.0
  0
LINE
  5
2399F
330
2398F
100
AcDbEntity
  8
0
  6
CONTINUOUS
100
AcDbLine
 10
7.080107511731101
 20
4.178742074081957
 30
0.0
 11
10.06045560048027
 21
7.159090162831124
 31
0.0
  0
LINE
  5
239A0
330
2398F
100
AcDbEntity
  8
0
  6
CONTINUOUS
100
AcDbLine
 10
6.534850833385518
 20
2.959966186656187
 30
0.0
 11
10.26862298384867
 21
6.693738337119342
 31
0.0
  0
LINE
  5
239A1
330
2398F
100
AcDbEntity
  8
0
  6
CONTINUOUS
100
AcDbLine
 10
4.469029308032756
 20
0.2206254522232385
 30
0.0
 11
5.492951005266582
 21
1.244547149457064
 31
0.0
  0
LINE
  5
239A2
330
2398F
100
AcDbEntity
  8
0
  6
CONTINUOUS
100
AcDbLine
 10
5.989594155039935
 20
1.741190299230417
 30
0.0
 11
8.806950407233131
 21
4.558546551423613
 31
0.0
  0
LINE
  5
239A3
330
2398F
100
AcDbEntity
  8
0
  6
CONTINUOUS
100
AcDbLine
 10
9.401251593263643
 20
5.152847737454126
 30
0.0
 11
10.47679036721708
 21
6.228386511407559
 31
0.0
  0
LINE
  5
239A4
330
2398F
100
AcDbEntity
  8
0
  6
CONTINUOUS
100
AcDbLine
 10
4.921837203428691
 20
-0.0000858614610131
 30
0.0
 11
8.592923064886001
 21
3.670999999996297
 31
0.0
  0
LINE
  5
239A5
330
2398F
100
AcDbEntity
  8
0
  6
CONTINUOUS
100
AcDbLine
 10
9.609390446785305
 20
4.6874673818956
 30
0.0
 11
10.68495775058548
 21
5.763034685695775
 31
0.0
  0
LINE
  5
239A6
330
2398F
100
AcDbEntity
  8
0
  6
CONTINUOUS
100
AcDbLine
 10
5.595387755019432
 20
-0.0000545189504582
 30
0.0
 11
7.716137258923768
 21
2.120694984953879
 31
0.0
  0
LINE
  5
239A7
330
2398F
100
AcDbEntity
  8
0
  6
CONTINUOUS
100
AcDbLine
 10
6.268938306610172
 20
-0.000023176439905
 30
0.0
 11
7.170485805526503
 21
0.9015243224764267
 31
0.0
  0
LINE
  5
239A8
330
2398F
100
AcDbEntity
  8
0
  6
CONTINUOUS
100
AcDbLine
 10
7.963842273967511
 20
2.368399999997621
 30
0.0
 11
9.266442273966188
 21
3.670999999996297
 31
0.0
  0
LINE
  5
239A9
330
2398F
100
AcDbEntity
  8
0
  6
CONTINUOUS
100
AcDbLine
 10
8.637361483047696
 20
2.368399999997621
 30
0.0
 11
9.939961483046375
 21
3.670999999996297
 31
0.0
  0
LINE
  5
239AA
330
2398F
100
AcDbEntity
  8
0
  6
CONTINUOUS
100
AcDbLine
 10
9.817529300306965
 20
4.222087026337075
 30
0.0
 11
10.89312513395388
 21
5.297682859983993
 31
0.0
  0
LINE
  5
239AB
330
2398F
100
AcDbEntity
  8
0
  6
CONTINUOUS
100
AcDbLine
 10
10.02566815382863
 20
3.756706670778549
 30
0.0
 11
11.10129251732229
 21
4.832331034272211
 31
0.0
  0
LINE
  5
239AC
330
2398F
100
AcDbEntity
  8
0
  6
CONTINUOUS
100
AcDbLine
 10
9.310880692127883
 20
2.368399999997621
 30
0.0
 11
11.30945990069069
 21
4.366979208560428
 31
0.0
  0
LINE
  5
239AD
330
2398F
100
AcDbEntity
  8
0
  6
CONTINUOUS
100
AcDbLine
 10
9.98439990120807
 20
2.36839999999762
 30
0.0
 11
11.5176272840591
 21
3.901627382848645
 31
0.0
  0
LINE
  5
239AE
330
2398F
100
AcDbEntity
  8
0
  6
CONTINUOUS
100
AcDbLine
 10
10.65037369446246
 20
2.36085458417182
 30
0.0
 11
11.7257946674275
 21
3.436275557136862
 31
0.0
  0
LINE
  5
239AF
330
2398F
100
AcDbEntity
  8
0
  6
CONTINUOUS
100
AcDbLine
 10
10.85847197087848
 20
1.895433651507656
 30
0.0
 11
11.9339620507959
 21
2.97092373142508
 31
0.0
  0
LINE
  5
239B0
330
2398F
100
AcDbEntity
  8
0
  6
CONTINUOUS
100
AcDbLine
 10
11.0665702472945
 20
1.430012718843491
 30
0.0
 11
12.14212943416431
 21
2.505571905713296
 31
0.0
  0
LINE
  5
239B1
330
2398F
100
AcDbEntity
  8
0
  6
CONTINUOUS
100
AcDbLine
 10
11.27466852371052
 20
0.9645917861793256
 30
0.0
 11
12.35029681753271
 21
2.040220080001513
 31
0.0
  0
LINE
  5
239B2
330
2398F
100
AcDbEntity
  8
0
  6
CONTINUOUS
100
AcDbLine
 10
11.48276680012654
 20
0.4991708535151611
 30
0.0
 11
12.55846420090111
 21
1.57486825428973
 31
0.0
  0
LINE
  5
239B3
330
2398F
100
AcDbEntity
  8
0
  6
CONTINUOUS
100
AcDbLine
 10
11.69086507654257
 20
0.0337499208509957
 30
0.0
 11
12.76663158426952
 21
1.109516428577947
 31
0.0
  0
LINE
  5
239B4
330
2398F
100
AcDbEntity
  8
0
  6
CONTINUOUS
100
AcDbLine
 10
12.33057447873954
 20
-0.0000598860322123
 30
0.0
 11
12.97479896763792
 21
0.6441646028661663
 31
0.0
  0
LINE
  5
239B5
330
2398F
100
AcDbEntity
  8
0
  6
CONTINUOUS
100
AcDbLine
 10
13.00413694809395
 20
-0.0000166257579952
 30
0.0
 11
13.18296635100632
 21
0.1788127771543824
 31
0.0
  0
LINE
  5
239B6
330
2398F
100
AcDbEntity
  8
0
  6
CONTINUOUS
100
AcDbLine
 10
4.772852165289667
 20
-0.000092794222212
 30
0.0
 11
4.296495091028902
 21
0.4762642800385528
 31
0.0
  0
LINE
  5
239B7
330
2398F
100
AcDbEntity
  8
0
  6
CONTINUOUS
100
AcDbLine
 10
5.446340034776103
 20
-0.0000614546284616
 30
0.0
 11
2.898195908335625
 21
2.548082671812017
 31
0.0
  0
LINE
  5
239B8
330
2398F
100
AcDbEntity
  8
0
  6
CONTINUOUS
100
AcDbLine
 10
6.119827904262539
 20
-0.0000301150347113
 30
0.0
 11
1.499896725642348
 21
4.61990106358548
 31
0.0
  0
LINE
  5
239B9
330
2398F
100
AcDbEntity
  8
0
  6
CONTINUOUS
100
AcDbLine
 10
6.775136745476159
 20
0.0181802528318542
 30
0.0
 11
5.699826040202669
 21
1.093490958105344
 31
0.0
  0
LINE
  5
239BA
330
2398F
100
AcDbEntity
  8
0
  6
CONTINUOUS
100
AcDbLine
 10
6.983376846288489
 20
0.4834593610997118
 30
0.0
 11
5.908008617934405
 21
1.558827589453796
 31
0.0
  0
LINE
  5
239BB
330
2398F
100
AcDbEntity
  8
0
  6
CONTINUOUS
100
AcDbLine
 10
5.377063484962296
 20
1.416253513345719
 30
0.0
 11
1.702276957014131
 21
5.091040041293883
 31
0.0
  0
LINE
  5
239BC
330
2398F
100
AcDbEntity
  8
0
  6
CONTINUOUS
100
AcDbLine
 10
3.978745891735324
 20
3.488090315652877
 30
0.0
 11
2.000373521109399
 21
5.466462686278803
 31
0.0
  0
LINE
  5
239BD
330
2398F
100
AcDbEntity
  8
0
  6
CONTINUOUS
100
AcDbLine
 10
7.191616947100819
 20
0.948738469367568
 30
0.0
 11
6.11619119566614
 21
2.024164220802247
 31
0.0
  0
LINE
  5
239BE
330
2398F
100
AcDbEntity
  8
0
  6
CONTINUOUS
100
AcDbLine
 10
7.399857047913149
 20
1.414017577635424
 30
0.0
 11
6.324373773397875
 21
2.489500852150698
 31
0.0
  0
LINE
  5
239BF
330
2398F
100
AcDbEntity
  8
0
  6
CONTINUOUS
100
AcDbLine
 10
7.608097148725479
 20
1.879296685903281
 30
0.0
 11
6.53255635112961
 21
2.95483748349915
 31
0.0
  0
LINE
  5
239C0
330
2398F
100
AcDbEntity
  8
0
  6
CONTINUOUS
100
AcDbLine
 10
7.816337249537808
 20
2.344575794171138
 30
0.0
 11
6.740738928861345
 21
3.420174114847601
 31
0.0
  0
LINE
  5
239C1
330
2398F
100
AcDbEntity
  8
0
  6
CONTINUOUS
100
AcDbLine
 10
3.310241080789734
 20
4.830114335678653
 30
0.0
 11
2.298470085204666
 21
5.84188533126372
 31
0.0
  0
LINE
  5
239C2
330
2398F
100
AcDbEntity
  8
0
  6
CONTINUOUS
100
AcDbLine
 10
3.60832983563551
 20
5.205544789913063
 30
0.0
 11
2.596566649299935
 21
6.217307976248638
 31
0.0
  0
LINE
  5
239C3
330
2398F
100
AcDbEntity
  8
0
  6
CONTINUOUS
100
AcDbLine
 10
3.906418590481286
 20
5.580975244147473
 30
0.0
 11
2.894663213395203
 21
6.592730621233557
 31
0.0
  0
LINE
  5
239C4
330
2398F
100
AcDbEntity
  8
0
  6
CONTINUOUS
100
AcDbLine
 10
4.204507345327062
 20
5.956405698381884
 30
0.0
 11
3.192759777490472
 21
6.968153266218474
 31
0.0
  0
LINE
  5
239C5
330
2398F
100
AcDbEntity
  8
0
  6
CONTINUOUS
100
AcDbLine
 10
8.466032252791512
 20
2.368399999997621
 30
0.0
 11
6.948921506593081
 21
3.885510746196053
 31
0.0
  0
LINE
  5
239C6
330
2398F
100
AcDbEntity
  8
0
  6
CONTINUOUS
100
AcDbLine
 10
9.139551461871699
 20
2.36839999999762
 30
0.0
 11
7.157104084324816
 21
4.350847377544504
 31
0.0
  0
LINE
  5
239C7
330
2398F
100
AcDbEntity
  8
0
  6
CONTINUOUS
100
AcDbLine
 10
4.502596100172839
 20
6.331836152616295
 30
0.0
 11
3.49085634158574
 21
7.343575911203393
 31
0.0
  0
LINE
  5
239C8
330
2398F
100
AcDbEntity
  8
0
  6
CONTINUOUS
100
AcDbLine
 10
4.800684855018615
 20
6.707266606850705
 30
0.0
 11
3.788952905681008
 21
7.718998556188312
 31
0.0
  0
LINE
  5
239C9
330
2398F
100
AcDbEntity
  8
0
  6
CONTINUOUS
100
AcDbLine
 10
12.18154012887317
 20
-0.0000694579236642
 30
0.0
 11
11.32140332908496
 21
0.8600673418645499
 31
0.0
  0
LINE
  5
239CA
330
2398F
100
AcDbEntity
  8
0
  6
CONTINUOUS
100
AcDbLine
 10
12.85501608323566
 20
-0.0000262032059659
 30
0.0
 11
10.77672456435345
 21
2.078265315676246
 31
0.0
  0
LINE
  5
239CB
330
2398F
100
AcDbEntity
  8
0
  6
CONTINUOUS
100
AcDbLine
 10
9.813070670951886
 20
2.36839999999762
 30
0.0
 11
8.51047067095321
 21
3.670999999996297
 31
0.0
  0
LINE
  5
239CC
330
2398F
100
AcDbEntity
  8
0
  6
CONTINUOUS
100
AcDbLine
 10
10.48658988003207
 20
2.36839999999762
 30
0.0
 11
9.183989880033396
 21
3.670999999996297
 31
0.0
  0
LINE
  5
239CD
330
2398F
100
AcDbEntity
  8
0
  6
CONTINUOUS
100
AcDbLine
 10
8.441048632286794
 20
3.740422038662712
 30
0.0
 11
7.365286662056551
 21
4.816184008892956
 31
0.0
  0
LINE
  5
239CE
330
2398F
100
AcDbEntity
  8
0
  6
CONTINUOUS
100
AcDbLine
 10
8.649187485808454
 20
4.205802394221237
 30
0.0
 11
7.573469239788285
 21
5.281520640241407
 31
0.0
  0
LINE
  5
239CF
330
2398F
100
AcDbEntity
  8
0
  6
CONTINUOUS
100
AcDbLine
 10
5.098773609864391
 20
7.082697061085115
 30
0.0
 11
4.087049469776277
 21
8.09442120117323
 31
0.0
  0
LINE
  5
239D0
330
2398F
100
AcDbEntity
  8
0
  6
CONTINUOUS
100
AcDbLine
 10
5.396862364710167
 20
7.458127515319526
 30
0.0
 11
4.385146033871544
 21
8.469843846158149
 31
0.0
  0
LINE
  5
239D1
330
2398F
100
AcDbEntity
  8
0
  6
CONTINUOUS
100
AcDbLine
 10
13.04801363231285
 20
0.4804954567970334
 30
0.0
 11
9.85750908911358
 21
3.670999999996297
 31
0.0
  0
LINE
  5
239D2
330
2398F
100
AcDbEntity
  8
0
  6
CONTINUOUS
100
AcDbLine
 10
8.857326339330116
 20
4.671182749779763
 30
0.0
 11
7.781651817520021
 21
5.746857271589858
 31
0.0
  0
LINE
  5
239D3
330
2398F
100
AcDbEntity
  8
0
  6
CONTINUOUS
100
AcDbLine
 10
5.694951119555943
 20
7.833557969553937
 30
0.0
 11
4.765409089118624
 21
8.763099999991255
 31
0.0
  0
LINE
  5
239D4
330
2398F
100
AcDbEntity
  8
0
  6
CONTINUOUS
100
AcDbLine
 10
12.50286117236978
 20
1.699167125820288
 30
0.0
 11
9.68611877250287
 21
4.515909525687196
 31
0.0
  0
LINE
  5
239D5
330
2398F
100
AcDbEntity
  8
0
  6
CONTINUOUS
100
AcDbLine
 10
9.065465192851777
 20
5.136563105338288
 30
0.0
 11
7.989834395251757
 21
6.21219390293831
 31
0.0
  0
LINE
  5
239D6
330
2398F
100
AcDbEntity
  8
0
  6
CONTINUOUS
100
AcDbLine
 10
5.993039874401719
 20
8.208988423788346
 30
0.0
 11
5.43892829819881
 21
8.763099999991255
 31
0.0
  0
LINE
  5
239D7
330
2398F
100
AcDbEntity
  8
0
  6
CONTINUOUS
100
AcDbLine
 10
11.95770871242671
 20
2.917838794843543
 30
0.0
 11
8.19801697298349
 21
6.677530534286761
 31
0.0
  0
LINE
  5
239D8
330
2398F
100
AcDbEntity
  8
0
  6
CONTINUOUS
100
AcDbLine
 10
6.291128629247495
 20
8.584418878022756
 30
0.0
 11
6.112447507278997
 21
8.763099999991255
 31
0.0
  0
LINE
  5
239D9
330
2398F
100
AcDbEntity
  8
0
  6
CONTINUOUS
100
AcDbLine
 10
11.41255625248364
 20
4.136510463866797
 30
0.0
 11
8.406199550715227
 21
7.142867165635211
 31
0.0
  0
LINE
  5
239DA
330
2398F
100
AcDbEntity
  8
0
  6
CONTINUOUS
100
AcDbLine
 10
10.86740379254057
 20
5.355182132890051
 30
0.0
 11
8.614382128446962
 21
7.608203796983664
 31
0.0
  0
LINE
  5
239DB
330
2398F
100
AcDbEntity
  8
0
  6
CONTINUOUS
100
AcDbLine
 10
10.3222513325975
 20
6.573853801913305
 30
0.0
 11
8.822564706178696
 21
8.073540428332114
 31
0.0
  0
LINE
  5
239DC
330
2398F
100
AcDbEntity
  8
0
  6
CONTINUOUS
100
AcDbLine
 10
9.777098872654436
 20
7.792525470936562
 30
0.0
 11
9.030747283910433
 21
8.538877059680566
 31
0.0
  0
ENDBLK
  5
23B1E
330
2398F
100
AcDbEntity
  8
0
100
AcDbBlockEnd
  0
BLOCK
  5
23B1F
330
239DD
100
AcDbEntity
  8
0
100
AcDbBlockBegin
  2
*X240
 70
     1
 10
0.0
 20
0.0
 30
0.0
  3
*X240
  1

  0
LINE
  5
239DE
330
239DD
100
AcDbEntity
  8
0
  6
CONTINUOUS
100
AcDbLine
 10
10.67292308101235
 20
8.445076852443387
 30
0.0
 11
10.99094622856022
 21
8.763099999991255
 31
0.0
  0
LINE
  5
239DF
330
239DD
100
AcDbEntity
  8
0
  6
CONTINUOUS
100
AcDbLine
 10
10.87250383178748
 20
7.971138394138331
 30
0.0
 11
11.6644654376404
 21
8.763099999991255
 31
0.0
  0
LINE
  5
239E0
330
239DD
100
AcDbEntity
  8
0
  6
CONTINUOUS
100
AcDbLine
 10
11.07208458256261
 20
7.497199935833273
 30
0.0
 11
12.12126590876355
 21
8.546381262034211
 31
0.0
  0
LINE
  5
239E1
330
239DD
100
AcDbEntity
  8
0
  6
CONTINUOUS
100
AcDbLine
 10
11.27166533333774
 20
7.023261477528216
 30
0.0
 11
12.32085164573666
 21
8.072447789927136
 31
0.0
  0
LINE
  5
239E2
330
239DD
100
AcDbEntity
  8
0
  6
CONTINUOUS
100
AcDbLine
 10
11.47124608411287
 20
6.549323019223158
 30
0.0
 11
12.52043738270977
 21
7.59851431782006
 31
0.0
  0
LINE
  5
239E3
330
239DD
100
AcDbEntity
  8
0
  6
CONTINUOUS
100
AcDbLine
 10
11.670826834888
 20
6.075384560918101
 30
0.0
 11
12.72002311968288
 21
7.124580845712984
 31
0.0
  0
LINE
  5
239E4
330
239DD
100
AcDbEntity
  8
0
  6
CONTINUOUS
100
AcDbLine
 10
11.87040758566313
 20
5.601446102613043
 30
0.0
 11
12.91960885665599
 21
6.650647373605907
 31
0.0
  0
LINE
  5
239E5
330
239DD
100
AcDbEntity
  8
0
  6
CONTINUOUS
100
AcDbLine
 10
12.06998833643825
 20
5.127507644307986
 30
0.0
 11
13.1191945936291
 21
6.176713901498832
 31
0.0
  0
LINE
  5
239E6
330
239DD
100
AcDbEntity
  8
0
  6
CONTINUOUS
100
AcDbLine
 10
12.26956908721338
 20
4.65356918600293
 30
0.0
 11
13.31878033060221
 21
5.702780429391757
 31
0.0
  0
LINE
  5
239E7
330
239DD
100
AcDbEntity
  8
0
  6
CONTINUOUS
100
AcDbLine
 10
12.46914983798851
 20
4.179630727697873
 30
0.0
 11
13.51836606757532
 21
5.228846957284683
 31
0.0
  0
LINE
  5
239E8
330
239DD
100
AcDbEntity
  8
0
  6
CONTINUOUS
100
AcDbLine
 10
12.66873058876364
 20
3.705692269392816
 30
0.0
 11
13.71795180454843
 21
4.754913485177607
 31
0.0
  0
LINE
  5
239E9
330
239DD
100
AcDbEntity
  8
0
  6
CONTINUOUS
100
AcDbLine
 10
12.86831133953877
 20
3.231753811087759
 30
0.0
 11
13.91753754152154
 21
4.280980013070531
 31
0.0
  0
LINE
  5
239EA
330
239DD
100
AcDbEntity
  8
0
  6
CONTINUOUS
100
AcDbLine
 10
13.0678920903139
 20
2.757815352782702
 30
0.0
 11
14.11712327849465
 21
3.807046540963456
 31
0.0
  0
LINE
  5
239EB
330
239DD
100
AcDbEntity
  8
0
  6
CONTINUOUS
100
AcDbLine
 10
13.26747284108903
 20
2.283876894477644
 30
0.0
 11
14.31670901546777
 21
3.333113068856379
 31
0.0
  0
LINE
  5
239EC
330
239DD
100
AcDbEntity
  8
0
  6
CONTINUOUS
100
AcDbLine
 10
16.36767838827179
 20
8.751678487061342
 30
0.0
 11
16.50332410898388
 21
8.887324207773432
 31
0.0
  0
LINE
  5
239ED
330
239DD
100
AcDbEntity
  8
0
  6
CONTINUOUS
100
AcDbLine
 10
15.96190732182191
 20
7.67238821153127
 30
0.0
 11
16.68735328004734
 21
8.397834169756699
 31
0.0
  0
LINE
  5
239EE
330
239DD
100
AcDbEntity
  8
0
  6
CONTINUOUS
100
AcDbLine
 10
15.55613625537202
 20
6.593097936001196
 30
0.0
 11
16.87138245111079
 21
7.908344131739965
 31
0.0
  0
LINE
  5
239EF
330
239DD
100
AcDbEntity
  8
0
  6
CONTINUOUS
100
AcDbLine
 10
15.15036518892213
 20
5.513807660471122
 30
0.0
 11
17.05541162217424
 21
7.418854093723231
 31
0.0
  0
LINE
  5
239F0
330
239DD
100
AcDbEntity
  8
0
  6
CONTINUOUS
100
AcDbLine
 10
14.74459412247225
 20
4.434517384941048
 30
0.0
 11
17.2394407932377
 21
6.929364055706499
 31
0.0
  0
LINE
  5
239F1
330
239DD
100
AcDbEntity
  8
0
  6
CONTINUOUS
100
AcDbLine
 10
14.33882305602236
 20
3.355227109410975
 30
0.0
 11
17.42346996430115
 21
6.439874017689766
 31
0.0
  0
LINE
  5
239F2
330
239DD
100
AcDbEntity
  8
0
  6
CONTINUOUS
100
AcDbLine
 10
13.46705359186416
 20
1.809938436172586
 30
0.0
 11
16.0819338255367
 21
4.424818669845129
 31
0.0
  0
LINE
  5
239F3
330
239DD
100
AcDbEntity
  8
0
  6
CONTINUOUS
100
AcDbLine
 10
16.63283254238972
 20
4.975717386698149
 30
0.0
 11
17.60749913536461
 21
5.950383979673033
 31
0.0
  0
LINE
  5
239F4
330
239DD
100
AcDbEntity
  8
0
  6
CONTINUOUS
100
AcDbLine
 10
13.66663434263929
 20
1.335999977867529
 30
0.0
 11
15.67604797733754
 21
3.345413612565779
 31
0.0
  0
LINE
  5
239F5
330
239DD
100
AcDbEntity
  8
0
  6
CONTINUOUS
100
AcDbLine
 10
13.86621509341442
 20
0.8620615195624723
 30
0.0
 11
15.27016212913838
 21
2.26600855528643
 31
0.0
  0
LINE
  5
239F6
330
239DD
100
AcDbEntity
  8
0
  6
CONTINUOUS
100
AcDbLine
 10
16.81682257348267
 20
4.486188208710908
 30
0.0
 11
17.79152830642806
 21
5.460893941656299
 31
0.0
  0
LINE
  5
239F7
330
239DD
100
AcDbEntity
  8
0
  6
CONTINUOUS
100
AcDbLine
 10
17.00081260457561
 20
3.996659030723667
 30
0.0
 11
17.97555747749151
 21
4.971403903639565
 31
0.0
  0
LINE
  5
239F8
330
239DD
100
AcDbEntity
  8
0
  6
CONTINUOUS
100
AcDbLine
 10
20.74362343514722
 20
8.412989070375462
 30
0.0
 11
21.09373436476302
 21
8.763099999991256
 31
0.0
  0
LINE
  5
239F9
330
239DD
100
AcDbEntity
  8
0
  6
CONTINUOUS
100
AcDbLine
 10
20.25401257174777
 20
7.249858997895826
 30
0.0
 11
21.7672535738432
 21
8.763099999991255
 31
0.0
  0
LINE
  5
239FA
330
239DD
100
AcDbEntity
  8
0
  6
CONTINUOUS
100
AcDbLine
 10
14.06579584418955
 20
0.3881230612574149
 30
0.0
 11
14.86427628093921
 21
1.186603498007082
 31
0.0
  0
LINE
  5
239FB
330
239DD
100
AcDbEntity
  8
0
  6
CONTINUOUS
100
AcDbLine
 10
14.26537659496467
 20
-0.0858153970476412
 30
0.0
 11
14.45839043274005
 21
0.1071984407277329
 31
0.0
  0
LINE
  5
239FC
330
239DD
100
AcDbEntity
  8
0
  6
CONTINUOUS
100
AcDbLine
 10
17.18480263566856
 20
3.507129852736426
 30
0.0
 11
18.15958664855496
 21
4.481913865622833
 31
0.0
  0
LINE
  5
239FD
330
239DD
100
AcDbEntity
  8
0
  6
CONTINUOUS
100
AcDbLine
 10
17.3687926667615
 20
3.017600674749186
 30
0.0
 11
18.34361581961842
 21
3.9924238276061
 31
0.0
  0
LINE
  5
239FE
330
239DD
100
AcDbEntity
  8
0
  6
CONTINUOUS
100
AcDbLine
 10
19.76440170834832
 20
6.086728925416191
 30
0.0
 11
22.33924590259489
 21
8.661573119662755
 31
0.0
  0
LINE
  5
239FF
330
239DD
100
AcDbEntity
  8
0
  6
CONTINUOUS
100
AcDbLine
 10
19.27479084494887
 20
4.923598852936555
 30
0.0
 11
21.84929622842713
 21
7.498104236414807
 31
0.0
  0
LINE
  5
23A00
330
239DD
100
AcDbEntity
  8
0
  6
CONTINUOUS
100
AcDbLine
 10
17.55278269785445
 20
2.528071496761945
 30
0.0
 11
18.52764499068187
 21
3.502933789589366
 31
0.0
  0
LINE
  5
23A01
330
239DD
100
AcDbEntity
  8
0
  6
CONTINUOUS
100
AcDbLine
 10
18.78517998154942
 20
3.760468780456919
 30
0.0
 11
21.35934655425936
 21
6.33463535316686
 31
0.0
  0
LINE
  5
23A02
330
239DD
100
AcDbEntity
  8
0
  6
CONTINUOUS
100
AcDbLine
 10
17.73677272894739
 20
2.038542318774704
 30
0.0
 11
20.8693968800916
 21
5.171166469918914
 31
0.0
  0
LINE
  5
23A03
330
239DD
100
AcDbEntity
  8
0
  6
CONTINUOUS
100
AcDbLine
 10
17.92076276004034
 20
1.549013140787464
 30
0.0
 11
20.37944720592384
 21
4.007697586670968
 31
0.0
  0
LINE
  5
23A04
330
239DD
100
AcDbEntity
  8
0
  6
CONTINUOUS
100
AcDbLine
 10
18.10475279113329
 20
1.059483962800223
 30
0.0
 11
19.88949753175608
 21
2.84422870342302
 31
0.0
  0
LINE
  5
23A05
330
239DD
100
AcDbEntity
  8
0
  6
CONTINUOUS
100
AcDbLine
 10
18.28874282222623
 20
0.5699547848129822
 30
0.0
 11
19.39954785758832
 21
1.680759820175074
 31
0.0
  0
LINE
  5
23A06
330
239DD
100
AcDbEntity
  8
0
  6
CONTINUOUS
100
AcDbLine
 10
18.47273285331918
 20
0.0804256068257416
 30
0.0
 11
18.90959818342056
 21
0.517290936927127
 31
0.0
  0
LINE
  5
23A07
330
239DD
100
AcDbEntity
  8
0
  6
CONTINUOUS
100
AcDbLine
 10
14.3590401358224
 20
-0.1570118376323384
 30
0.0
 11
14.24903296539946
 21
-0.0470046672093929
 31
0.0
  0
LINE
  5
23A08
330
239DD
100
AcDbEntity
  8
0
  6
CONTINUOUS
100
AcDbLine
 10
14.54309291258661
 20
0.332454594683643
 30
0.0
 11
13.75908329123172
 21
1.116464216038529
 31
0.0
  0
LINE
  5
23A09
330
239DD
100
AcDbEntity
  8
0
  6
CONTINUOUS
100
AcDbLine
 10
14.72714568935081
 20
0.8219210269996244
 30
0.0
 11
13.26913361706399
 21
2.27993309928645
 31
0.0
  0
LINE
  5
23A0A
330
239DD
100
AcDbEntity
  8
0
  6
CONTINUOUS
100
AcDbLine
 10
14.91119846611502
 20
1.311387459315606
 30
0.0
 11
12.77918394289625
 21
3.443401982534371
 31
0.0
  0
LINE
  5
23A0B
330
239DD
100
AcDbEntity
  8
0
  6
CONTINUOUS
100
AcDbLine
 10
15.09525124287922
 20
1.800853891631587
 30
0.0
 11
12.28923426872852
 21
4.606870865782293
 31
0.0
  0
LINE
  5
23A0C
330
239DD
100
AcDbEntity
  8
0
  6
CONTINUOUS
100
AcDbLine
 10
15.27930401964343
 20
2.290320323947569
 30
0.0
 11
11.79928459456078
 21
5.770339749030213
 31
0.0
  0
LINE
  5
23A0D
330
239DD
100
AcDbEntity
  8
0
  6
CONTINUOUS
100
AcDbLine
 10
15.46335679640763
 20
2.77978675626355
 30
0.0
 11
14.48885470994921
 21
3.754288842721972
 31
0.0
  0
LINE
  5
23A0E
330
239DD
100
AcDbEntity
  8
0
  6
CONTINUOUS
100
AcDbLine
 10
13.88507249233704
 20
4.358071060334137
 30
0.0
 11
11.30933492039305
 21
6.933808632278135
 31
0.0
  0
LINE
  5
23A0F
330
239DD
100
AcDbEntity
  8
0
  6
CONTINUOUS
100
AcDbLine
 10
18.75840522805855
 20
0.1582575336928151
 30
0.0
 11
18.25383727664818
 21
0.6628254851031863
 31
0.0
  0
LINE
  5
23A10
330
239DD
100
AcDbEntity
  8
0
  6
CONTINUOUS
100
AcDbLine
 10
15.64740957317184
 20
3.269253188579531
 30
0.0
 11
14.67288388101266
 21
4.243778880738705
 31
0.0
  0
LINE
  5
23A11
330
239DD
100
AcDbEntity
  8
0
  6
CONTINUOUS
100
AcDbLine
 10
13.39509276772158
 20
5.521569994029786
 30
0.0
 11
10.81938524622531
 21
8.097277515526056
 31
0.0
  0
LINE
  5
23A12
330
239DD
100
AcDbEntity
  8
0
  6
CONTINUOUS
100
AcDbLine
 10
18.95798597883369
 20
0.6321959919978686
 30
0.0
 11
17.84825644852853
 21
1.741925522303024
 31
0.0
  0
LINE
  5
23A13
330
239DD
100
AcDbEntity
  8
0
  6
CONTINUOUS
100
AcDbLine
 10
19.15756672960882
 20
1.106134450302922
 30
0.0
 11
17.44267562040888
 21
2.821025559502861
 31
0.0
  0
LINE
  5
23A14
330
239DD
100
AcDbEntity
  8
0
  6
CONTINUOUS
100
AcDbLine
 10
15.83146234993604
 20
3.758719620895513
 30
0.0
 11
14.85691305207612
 21
4.733268918755439
 31
0.0
  0
LINE
  5
23A15
330
239DD
100
AcDbEntity
  8
0
  6
CONTINUOUS
100
AcDbLine
 10
16.01551512670025
 20
4.248186053211494
 30
0.0
 11
15.04094222313957
 21
5.222758956772172
 31
0.0
  0
LINE
  5
23A16
330
239DD
100
AcDbEntity
  8
0
  6
CONTINUOUS
100
AcDbLine
 10
12.90511304310612
 20
6.685068927725435
 30
0.0
 11
10.8270819708403
 21
8.763099999991255
 31
0.0
  0
LINE
  5
23A17
330
239DD
100
AcDbEntity
  8
0
  6
CONTINUOUS
100
AcDbLine
 10
12.41513331849066
 20
7.848567861421083
 30
0.0
 11
11.50060117992049
 21
8.763099999991255
 31
0.0
  0
LINE
  5
23A18
330
239DD
100
AcDbEntity
  8
0
  6
CONTINUOUS
100
AcDbLine
 10
19.35714748038395
 20
1.580072908607975
 30
0.0
 11
17.03709479228923
 21
3.900125596702697
 31
0.0
  0
LINE
  5
23A19
330
239DD
100
AcDbEntity
  8
0
  6
CONTINUOUS
100
AcDbLine
 10
19.55672823115909
 20
2.054011366913028
 30
0.0
 11
16.63151396416958
 21
4.979225633902534
 31
0.0
  0
LINE
  5
23A1A
330
239DD
100
AcDbEntity
  8
0
  6
CONTINUOUS
100
AcDbLine
 10
16.19956790346445
 20
4.737652485527476
 30
0.0
 11
15.22497139420302
 21
5.712248994788904
 31
0.0
  0
LINE
  5
23A1B
330
239DD
100
AcDbEntity
  8
0
  6
CONTINUOUS
100
AcDbLine
 10
16.38362068022866
 20
5.227118917843457
 30
0.0
 11
15.40900056526648
 21
6.201739032805637
 31
0.0
  0
LINE
  5
23A1C
330
239DD
100
AcDbEntity
  8
0
  6
CONTINUOUS
100
AcDbLine
 10
19.75630898193422
 20
2.527949825218081
 30
0.0
 11
18.70774536448286
 21
3.576513442669441
 31
0.0
  0
LINE
  5
23A1D
330
239DD
100
AcDbEntity
  8
0
  6
CONTINUOUS
100
AcDbLine
 10
19.95588973270936
 20
3.001888283523134
 30
0.0
 11
18.90726987211446
 21
4.050508144118028
 31
0.0
  0
LINE
  5
23A1E
330
239DD
100
AcDbEntity
  8
0
  6
CONTINUOUS
100
AcDbLine
 10
20.15547048348449
 20
3.475826741828186
 30
0.0
 11
19.10679437974606
 21
4.524502845566614
 31
0.0
  0
LINE
  5
23A1F
330
239DD
100
AcDbEntity
  8
0
  6
CONTINUOUS
100
AcDbLine
 10
20.35505123425962
 20
3.94976520013324
 30
0.0
 11
19.30631888737766
 21
4.998497547015201
 31
0.0
  0
LINE
  5
23A20
330
239DD
100
AcDbEntity
  8
0
  6
CONTINUOUS
100
AcDbLine
 10
20.55463198503475
 20
4.423703658438292
 30
0.0
 11
19.50584339500926
 21
5.472492248463787
 31
0.0
  0
LINE
  5
23A21
330
239DD
100
AcDbEntity
  8
0
  6
CONTINUOUS
100
AcDbLine
 10
18.37481191085755
 20
3.909446896294752
 30
0.0
 11
15.59302973632993
 21
6.691229070822371
 31
0.0
  0
LINE
  5
23A22
330
239DD
100
AcDbEntity
  8
0
  6
CONTINUOUS
100
AcDbLine
 10
17.96904084440766
 20
4.988737171824825
 30
0.0
 11
15.77705890739338
 21
7.180719108839104
 31
0.0
  0
LINE
  5
23A23
330
239DD
100
AcDbEntity
  8
0
  6
CONTINUOUS
100
AcDbLine
 10
17.56326977795777
 20
6.068027447354899
 30
0.0
 11
15.96108807845684
 21
7.670209146855838
 31
0.0
  0
LINE
  5
23A24
330
239DD
100
AcDbEntity
  8
0
  6
CONTINUOUS
100
AcDbLine
 10
17.15749871150789
 20
7.147317722884972
 30
0.0
 11
16.14511724952029
 21
8.15969918487257
 31
0.0
  0
LINE
  5
23A25
330
239DD
100
AcDbEntity
  8
0
  6
CONTINUOUS
100
AcDbLine
 10
16.751727645058
 20
8.226607998415046
 30
0.0
 11
16.32914642058374
 21
8.649189222889303
 31
0.0
  0
LINE
  5
23A26
330
239DD
100
AcDbEntity
  8
0
  6
CONTINUOUS
100
AcDbLine
 10
20.75421273580989
 20
4.897642116743345
 30
0.0
 11
19.70536790264086
 21
5.946486949912374
 31
0.0
  0
LINE
  5
23A27
330
239DD
100
AcDbEntity
  8
0
  6
CONTINUOUS
100
AcDbLine
 10
20.95379348658502
 20
5.371580575048398
 30
0.0
 11
19.90489241027246
 21
6.42048165136096
 31
0.0
  0
LINE
  5
23A28
330
239DD
100
AcDbEntity
  8
0
  6
CONTINUOUS
100
AcDbLine
 10
21.15337423736015
 20
5.845519033353452
 30
0.0
 11
20.10441691790406
 21
6.894476352809547
 31
0.0
  0
LINE
  5
23A29
330
239DD
100
AcDbEntity
  8
0
  6
CONTINUOUS
100
AcDbLine
 10
21.35295498813529
 20
6.319457491658505
 30
0.0
 11
20.30394142553566
 21
7.368471054258134
 31
0.0
  0
LINE
  5
23A2A
330
239DD
100
AcDbEntity
  8
0
  6
CONTINUOUS
100
AcDbLine
 10
21.55253573891042
 20
6.793395949963558
 30
0.0
 11
20.50346593316726
 21
7.842465755706721
 31
0.0
  0
LINE
  5
23A2B
330
239DD
100
AcDbEntity
  8
0
  6
CONTINUOUS
100
AcDbLine
 10
21.75211648968556
 20
7.267334408268612
 30
0.0
 11
20.70299044079886
 21
8.316460457155308
 31
0.0
  0
LINE
  5
23A2C
330
239DD
100
AcDbEntity
  8
0
  6
CONTINUOUS
100
AcDbLine
 10
21.95169724046069
 20
7.741272866573663
 30
0.0
 11
20.9298701070431
 21
8.763099999991256
 31
0.0
  0
LINE
  5
23A2D
330
239DD
100
AcDbEntity
  8
0
  6
CONTINUOUS
100
AcDbLine
 10
22.15127799123582
 20
8.215211324878716
 30
0.0
 11
21.60338931612328
 21
8.763099999991256
 31
0.0
  0
LINE
  5
23A2E
330
239DD
100
AcDbEntity
  8
0
  6
CONTINUOUS
100
AcDbLine
 10
22.35085874201096
 20
8.689149783183769
 30
0.0
 11
22.27690852520347
 21
8.763099999991255
 31
0.0
  0
ENDBLK
  5
23B20
330
239DD
100
AcDbEntity
  8
0
100
AcDbBlockEnd
  0
BLOCK
  5
23B21
330
23A2F
100
AcDbEntity
  8
0
100
AcDbBlockBegin
  2
*X241
 70
     1
 10
0.0
 20
0.0
 30
0.0
  3
*X241
  1

  0
LINE
  5
23A30
330
23A2F
100
AcDbEntity
  8
0
  6
CONTINUOUS
100
AcDbLine
 10
23.19462913593892
 20
8.169917934846424
 30
0.0
 11
23.70775465517246
 21
8.683043454079957
 31
0.0
  0
LINE
  5
23A31
330
23A2F
100
AcDbEntity
  8
0
  6
CONTINUOUS
100
AcDbLine
 10
22.64923161835078
 20
6.951001208178088
 30
0.0
 11
23.9159364069932
 21
8.217705996820516
 31
0.0
  0
LINE
  5
23A32
330
23A2F
100
AcDbEntity
  8
0
  6
CONTINUOUS
100
AcDbLine
 10
22.10383410076263
 20
5.732084481509751
 30
0.0
 11
24.12411815881395
 21
7.752368539561078
 31
0.0
  0
LINE
  5
23A33
330
23A2F
100
AcDbEntity
  8
0
  6
CONTINUOUS
100
AcDbLine
 10
21.55843658317447
 20
4.513167754841414
 30
0.0
 11
24.3322999106347
 21
7.287031082301639
 31
0.0
  0
LINE
  5
23A34
330
23A2F
100
AcDbEntity
  8
0
  6
CONTINUOUS
100
AcDbLine
 10
21.01303906558632
 20
3.294251028173077
 30
0.0
 11
24.54048166245544
 21
6.821693625042199
 31
0.0
  0
LINE
  5
23A35
330
23A2F
100
AcDbEntity
  8
0
  6
CONTINUOUS
100
AcDbLine
 10
20.46764154799817
 20
2.075334301504738
 30
0.0
 11
23.28571549467848
 21
4.89340824818505
 31
0.0
  0
LINE
  5
23A36
330
23A2F
100
AcDbEntity
  8
0
  6
CONTINUOUS
100
AcDbLine
 10
19.92224403041002
 20
0.8564175748364002
 30
0.0
 11
22.74075865492779
 21
3.674932199354171
 31
0.0
  0
LINE
  5
23A37
330
23A2F
100
AcDbEntity
  8
0
  6
CONTINUOUS
100
AcDbLine
 10
23.67305085490148
 20
5.280743608408048
 30
0.0
 11
24.74866341427619
 21
6.356356167782759
 31
0.0
  0
LINE
  5
23A38
330
23A2F
100
AcDbEntity
  8
0
  6
CONTINUOUS
100
AcDbLine
 10
23.88118970842314
 20
4.815363252849522
 30
0.0
 11
24.95684516609694
 21
5.89101871052332
 31
0.0
  0
LINE
  5
23A39
330
23A2F
100
AcDbEntity
  8
0
  6
CONTINUOUS
100
AcDbLine
 10
19.73925852647308
 20
-0.0000871381807288
 30
0.0
 11
23.4103456646501
 21
3.670999999996297
 31
0.0
  0
LINE
  5
23A3A
330
23A2F
100
AcDbEntity
  8
0
  6
CONTINUOUS
100
AcDbLine
 10
24.0893285619448
 20
4.349982897290997
 30
0.0
 11
25.16502691791769
 21
5.42568125326388
 31
0.0
  0
LINE
  5
23A3B
330
23A2F
100
AcDbEntity
  8
0
  6
CONTINUOUS
100
AcDbLine
 10
20.41282099582748
 20
-0.0000438779065108
 30
0.0
 11
21.64944178675636
 21
1.236576913022366
 31
0.0
  0
LINE
  5
23A3C
330
23A2F
100
AcDbEntity
  8
0
  6
CONTINUOUS
100
AcDbLine
 10
22.78126487373161
 20
2.36839999999762
 30
0.0
 11
24.08386487373029
 21
3.670999999996297
 31
0.0
  0
LINE
  5
23A3D
330
23A2F
100
AcDbEntity
  8
0
  6
CONTINUOUS
100
AcDbLine
 10
24.29746741546646
 20
3.884602541732471
 30
0.0
 11
25.37320866973843
 21
4.960343796004441
 31
0.0
  0
LINE
  5
23A3E
330
23A2F
100
AcDbEntity
  8
0
  6
CONTINUOUS
100
AcDbLine
 10
21.08638346518189
 20
-0.0000006176322938
 30
0.0
 11
21.10379033335899
 21
0.0174062505448083
 31
0.0
  0
LINE
  5
23A3F
330
23A2F
100
AcDbEntity
  8
0
  6
CONTINUOUS
100
AcDbLine
 10
23.4547840828118
 20
2.36839999999762
 30
0.0
 11
25.58139042155918
 21
4.495006338745002
 31
0.0
  0
LINE
  5
23A40
330
23A2F
100
AcDbEntity
  8
0
  6
CONTINUOUS
100
AcDbLine
 10
29.30199999996933
 20
8.215615917155148
 30
0.0
 11
29.84948408280543
 21
8.763099999991255
 31
0.0
  0
LINE
  5
23A41
330
23A2F
100
AcDbEntity
  8
0
  6
CONTINUOUS
100
AcDbLine
 10
24.12830329189199
 20
2.36839999999762
 30
0.0
 11
25.78957217337993
 21
4.029668881485562
 31
0.0
  0
LINE
  5
23A42
330
23A2F
100
AcDbEntity
  8
0
  6
CONTINUOUS
100
AcDbLine
 10
29.30199999996933
 20
7.54209670807496
 30
0.0
 11
30.52300329188562
 21
8.763099999991255
 31
0.0
  0
LINE
  5
23A43
330
23A2F
100
AcDbEntity
  8
0
  6
CONTINUOUS
100
AcDbLine
 10
24.80182250097217
 20
2.36839999999762
 30
0.0
 11
25.99775392520067
 21
3.564331424226122
 31
0.0
  0
LINE
  5
23A44
330
23A2F
100
AcDbEntity
  8
0
  6
CONTINUOUS
100
AcDbLine
 10
29.30199999996933
 20
6.868577498994774
 30
0.0
 11
30.74199999996926
 21
8.308577498994712
 31
0.0
  0
LINE
  5
23A45
330
23A2F
100
AcDbEntity
  8
0
  6
CONTINUOUS
100
AcDbLine
 10
25.13028238392013
 20
2.023340673865392
 30
0.0
 11
26.20593567702142
 21
3.098993966966683
 31
0.0
  0
LINE
  5
23A46
330
23A2F
100
AcDbEntity
  8
0
  6
CONTINUOUS
100
AcDbLine
 10
25.33838066033617
 20
1.557919741201244
 30
0.0
 11
26.41411742884217
 21
2.633656509707244
 31
0.0
  0
LINE
  5
23A47
330
23A2F
100
AcDbEntity
  8
0
  6
CONTINUOUS
100
AcDbLine
 10
25.54647893675221
 20
1.092498808537098
 30
0.0
 11
26.62229918066291
 21
2.168319052447804
 31
0.0
  0
LINE
  5
23A48
330
23A2F
100
AcDbEntity
  8
0
  6
CONTINUOUS
100
AcDbLine
 10
25.75457721316825
 20
0.62707787587295
 30
0.0
 11
26.83048093248366
 21
1.702981595188365
 31
0.0
  0
LINE
  5
23A49
330
23A2F
100
AcDbEntity
  8
0
  6
CONTINUOUS
100
AcDbLine
 10
29.30199999996933
 20
6.195058289914587
 30
0.0
 11
30.74199999996926
 21
7.635058289914522
 31
0.0
  0
LINE
  5
23A4A
330
23A2F
100
AcDbEntity
  8
0
  6
CONTINUOUS
100
AcDbLine
 10
29.30199999996933
 20
5.521539080834401
 30
0.0
 11
30.74199999996926
 21
6.961539080834331
 31
0.0
  0
LINE
  5
23A4B
330
23A2F
100
AcDbEntity
  8
0
  6
CONTINUOUS
100
AcDbLine
 10
29.30199999996933
 20
4.848019871754214
 30
0.0
 11
30.74199999996925
 21
6.288019871754143
 31
0.0
  0
LINE
  5
23A4C
330
23A2F
100
AcDbEntity
  8
0
  6
CONTINUOUS
100
AcDbLine
 10
29.30199999996933
 20
4.174500662674028
 30
0.0
 11
30.74199999996925
 21
5.614500662673953
 31
0.0
  0
LINE
  5
23A4D
330
23A2F
100
AcDbEntity
  8
0
  6
CONTINUOUS
100
AcDbLine
 10
25.96267548958429
 20
0.1616569432088024
 30
0.0
 11
27.18411854636669
 21
1.383099999991207
 31
0.0
  0
LINE
  5
23A4E
330
23A2F
100
AcDbEntity
  8
0
  6
CONTINUOUS
100
AcDbLine
 10
29.30199999996933
 20
3.500981453593841
 30
0.0
 11
30.74199999996925
 21
4.940981453593762
 31
0.0
  0
LINE
  5
23A4F
330
23A2F
100
AcDbEntity
  8
0
  6
CONTINUOUS
100
AcDbLine
 10
26.50763775544691
 20
0.0330999999912356
 30
0.0
 11
27.85763775544689
 21
1.383099999991223
 31
0.0
  0
LINE
  5
23A50
330
23A2F
100
AcDbEntity
  8
0
  6
CONTINUOUS
100
AcDbLine
 10
29.30199999996933
 20
2.827462244513656
 30
0.0
 11
30.74199999996925
 21
4.267462244513574
 31
0.0
  0
LINE
  5
23A51
330
23A2F
100
AcDbEntity
  8
0
  6
CONTINUOUS
100
AcDbLine
 10
27.18115696452709
 20
0.0330999999912356
 30
0.0
 11
28.6224847300034
 21
1.474427765467545
 31
0.0
  0
LINE
  5
23A52
330
23A2F
100
AcDbEntity
  8
0
  6
CONTINUOUS
100
AcDbLine
 10
29.21067223449293
 20
2.062615269957069
 30
0.0
 11
30.74199999996924
 21
3.593943035433383
 31
0.0
  0
LINE
  5
23A53
330
23A2F
100
AcDbEntity
  8
0
  6
CONTINUOUS
100
AcDbLine
 10
27.85467617360728
 20
0.0330999999912356
 30
0.0
 11
30.74199999996924
 21
2.920423826353195
 31
0.0
  0
LINE
  5
23A54
330
23A2F
100
AcDbEntity
  8
0
  6
CONTINUOUS
100
AcDbLine
 10
28.57438609860264
 20
0.0792907159064073
 30
0.0
 11
30.69580928405405
 21
2.200713901357819
 31
0.0
  0
LINE
  5
23A55
330
23A2F
100
AcDbEntity
  8
0
  6
CONTINUOUS
100
AcDbLine
 10
29.49443044814297
 20
0.3258158563665496
 30
0.0
 11
30.44928414359389
 21
1.280669551817477
 31
0.0
  0
LINE
  5
23A56
330
23A2F
100
AcDbEntity
  8
0
  6
CONTINUOUS
100
AcDbLine
 10
19.59027867740337
 20
-0.0000967065718083
 30
0.0
 11
19.55485265190471
 21
0.035329318926844
 31
0.0
  0
LINE
  5
23A57
330
23A2F
100
AcDbEntity
  8
0
  6
CONTINUOUS
100
AcDbLine
 10
20.26375463176586
 20
-0.0000534518541091
 30
0.0
 11
19.76305575737534
 21
0.5006454225364014
 31
0.0
  0
LINE
  5
23A58
330
23A2F
100
AcDbEntity
  8
0
  6
CONTINUOUS
100
AcDbLine
 10
20.93723058612834
 20
-0.0000101971364099
 30
0.0
 11
19.97125886284597
 21
0.965961526145958
 31
0.0
  0
LINE
  5
23A59
330
23A2F
100
AcDbEntity
  8
0
  6
CONTINUOUS
100
AcDbLine
 10
21.25514828313686
 20
0.355591314935257
 30
0.0
 11
20.1794619683166
 21
1.431277629755512
 31
0.0
  0
LINE
  5
23A5A
330
23A2F
100
AcDbEntity
  8
0
  6
CONTINUOUS
100
AcDbLine
 10
21.46338838394921
 20
0.8208704232030986
 30
0.0
 11
20.38766507378723
 21
1.896593733365069
 31
0.0
  0
LINE
  5
23A5B
330
23A2F
100
AcDbEntity
  8
0
  6
CONTINUOUS
100
AcDbLine
 10
21.67162848476155
 20
1.28614953147094
 30
0.0
 11
20.59586817925786
 21
2.361909836974626
 31
0.0
  0
LINE
  5
23A5C
330
23A2F
100
AcDbEntity
  8
0
  6
CONTINUOUS
100
AcDbLine
 10
21.8798685855739
 20
1.751428639738782
 30
0.0
 11
20.80407128472849
 21
2.827225940584183
 31
0.0
  0
LINE
  5
23A5D
330
23A2F
100
AcDbEntity
  8
0
  6
CONTINUOUS
100
AcDbLine
 10
22.08810868638624
 20
2.216707748006623
 30
0.0
 11
21.01227439019912
 21
3.292542044193739
 31
0.0
  0
LINE
  5
23A5E
330
23A2F
100
AcDbEntity
  8
0
  6
CONTINUOUS
100
AcDbLine
 10
22.60993564347543
 20
2.36839999999762
 30
0.0
 11
21.22047749566975
 21
3.757858147803296
 31
0.0
  0
LINE
  5
23A5F
330
23A2F
100
AcDbEntity
  8
0
  6
CONTINUOUS
100
AcDbLine
 10
23.28345485255561
 20
2.36839999999762
 30
0.0
 11
21.42868060114038
 21
4.223174251412853
 31
0.0
  0
LINE
  5
23A60
330
23A2F
100
AcDbEntity
  8
0
  6
CONTINUOUS
100
AcDbLine
 10
26.29227406164219
 20
0.0330999999912356
 30
0.0
 11
25.80009199592872
 21
0.5252820657046957
 31
0.0
  0
LINE
  5
23A61
330
23A2F
100
AcDbEntity
  8
0
  6
CONTINUOUS
100
AcDbLine
 10
23.9569740616358
 20
2.36839999999762
 30
0.0
 11
21.63688370661101
 21
4.688490355022409
 31
0.0
  0
LINE
  5
23A62
330
23A2F
100
AcDbEntity
  8
0
  6
CONTINUOUS
100
AcDbLine
 10
26.96579327072237
 20
0.0330999999912356
 30
0.0
 11
25.2554132311971
 21
1.743480039516508
 31
0.0
  0
LINE
  5
23A63
330
23A2F
100
AcDbEntity
  8
0
  6
CONTINUOUS
100
AcDbLine
 10
24.63049327071599
 20
2.36839999999762
 30
0.0
 11
23.32789327071731
 21
3.670999999996297
 31
0.0
  0
LINE
  5
23A64
330
23A2F
100
AcDbEntity
  8
0
  6
CONTINUOUS
100
AcDbLine
 10
22.92098674744635
 20
4.077906523267254
 30
0.0
 11
21.84508681208164
 21
5.153806458631966
 31
0.0
  0
LINE
  5
23A65
330
23A2F
100
AcDbEntity
  8
0
  6
CONTINUOUS
100
AcDbLine
 10
27.63931247980256
 20
0.0330999999912356
 30
0.0
 11
24.0014124797975
 21
3.670999999996297
 31
0.0
  0
LINE
  5
23A66
330
23A2F
100
AcDbEntity
  8
0
  6
CONTINUOUS
100
AcDbLine
 10
23.129125600968
 20
4.5432868788258
 30
0.0
 11
22.05328991755227
 21
5.619122562241522
 31
0.0
  0
LINE
  5
23A67
330
23A2F
100
AcDbEntity
  8
0
  6
CONTINUOUS
100
AcDbLine
 10
28.31283168888275
 20
0.0330999999912356
 30
0.0
 11
24.16488385994816
 21
4.181047828925828
 31
0.0
  0
LINE
  5
23A68
330
23A2F
100
AcDbEntity
  8
0
  6
CONTINUOUS
100
AcDbLine
 10
23.33726445448964
 20
5.008667234384345
 30
0.0
 11
22.2614930230229
 21
6.084438665851079
 31
0.0
  0
LINE
  5
23A69
330
23A2F
100
AcDbEntity
  8
0
  6
CONTINUOUS
100
AcDbLine
 10
28.86286302309502
 20
0.1565878748591523
 30
0.0
 11
27.63635089796295
 21
1.383099999991217
 31
0.0
  0
LINE
  5
23A6A
330
23A2F
100
AcDbEntity
  8
0
  6
CONTINUOUS
100
AcDbLine
 10
26.43704649509776
 20
2.582404402856405
 30
0.0
 11
23.61992702019732
 21
5.399523877756844
 31
0.0
  0
LINE
  5
23A6B
330
23A2F
100
AcDbEntity
  8
0
  6
CONTINUOUS
100
AcDbLine
 10
23.54540330801128
 20
5.47404758994289
 30
0.0
 11
22.46969612849353
 21
6.549754769460635
 31
0.0
  0
LINE
  5
23A6C
330
23A2F
100
AcDbEntity
  8
0
  6
CONTINUOUS
100
AcDbLine
 10
29.39405087596853
 20
0.2989192310658284
 30
0.0
 11
28.30987010704312
 21
1.383099999991234
 31
0.0
  0
LINE
  5
23A6D
330
23A2F
100
AcDbEntity
  8
0
  6
CONTINUOUS
100
AcDbLine
 10
25.89179548232307
 20
3.801174624711282
 30
0.0
 11
22.67789923396416
 21
7.015070873070191
 31
0.0
  0
LINE
  5
23A6E
330
23A2F
100
AcDbEntity
  8
0
  6
CONTINUOUS
100
AcDbLine
 10
29.79594438047407
 20
0.570544935640473
 30
0.0
 11
28.81310432793121
 21
1.553384988183336
 31
0.0
  0
LINE
  5
23A6F
330
23A2F
100
AcDbEntity
  8
0
  6
CONTINUOUS
100
AcDbLine
 10
25.34654446954838
 20
5.01994484656616
 30
0.0
 11
22.88610233943479
 21
7.480386976679748
 31
0.0
  0
LINE
  5
23A70
330
23A2F
100
AcDbEntity
  8
0
  6
CONTINUOUS
100
AcDbLine
 10
30.13270398501416
 20
0.9073045401805646
 30
0.0
 11
29.14234640337737
 21
1.897662121817355
 31
0.0
  0
LINE
  5
23A71
330
23A2F
100
AcDbEntity
  8
0
  6
CONTINUOUS
100
AcDbLine
 10
24.80129345677369
 20
6.238715068421037
 30
0.0
 11
23.09430544490542
 21
7.945703080289305
 31
0.0
  0
LINE
  5
23A72
330
23A2F
100
AcDbEntity
  8
0
  6
CONTINUOUS
100
AcDbLine
 10
30.44581292956759
 20
1.26771480470732
 30
0.0
 11
29.30199999996933
 21
2.411527734305588
 31
0.0
  0
LINE
  5
23A73
330
23A2F
100
AcDbEntity
  8
0
  6
CONTINUOUS
100
AcDbLine
 10
30.58814428577427
 20
1.798902657580827
 30
0.0
 11
29.30199999996933
 21
3.085046943385775
 31
0.0
  0
LINE
  5
23A74
330
23A2F
100
AcDbEntity
  8
0
  6
CONTINUOUS
100
AcDbLine
 10
24.256042443999
 20
7.457485290275915
 30
0.0
 11
23.30250855037605
 21
8.411019183898862
 31
0.0
  0
LINE
  5
23A75
330
23A2F
100
AcDbEntity
  8
0
  6
CONTINUOUS
100
AcDbLine
 10
23.71079143122431
 20
8.676255512130794
 30
0.0
 11
23.51071165584668
 21
8.876335287508418
 31
0.0
  0
LINE
  5
23A76
330
23A2F
100
AcDbEntity
  8
0
  6
CONTINUOUS
100
AcDbLine
 10
30.73047564198095
 20
2.330090510454333
 30
0.0
 11
29.30199999996933
 21
3.758566152465961
 31
0.0
  0
LINE
  5
23A77
330
23A2F
100
AcDbEntity
  8
0
  6
CONTINUOUS
100
AcDbLine
 10
30.74199999996924
 20
2.992085361546236
 30
0.0
 11
29.30199999996933
 21
4.432085361546148
 31
0.0
  0
LINE
  5
23A78
330
23A2F
100
AcDbEntity
  8
0
  6
CONTINUOUS
100
AcDbLine
 10
30.74199999996924
 20
3.665604570626419
 30
0.0
 11
29.30199999996933
 21
5.105604570626333
 31
0.0
  0
LINE
  5
23A79
330
23A2F
100
AcDbEntity
  8
0
  6
CONTINUOUS
100
AcDbLine
 10
30.74199999996925
 20
4.339123779706602
 30
0.0
 11
29.30199999996933
 21
5.77912377970652
 31
0.0
  0
LINE
  5
23A7A
330
23A2F
100
AcDbEntity
  8
0
  6
CONTINUOUS
100
AcDbLine
 10
30.74199999996925
 20
5.012642988786785
 30
0.0
 11
29.30199999996933
 21
6.452642988786707
 31
0.0
  0
LINE
  5
23A7B
330
23A2F
100
AcDbEntity
  8
0
  6
CONTINUOUS
100
AcDbLine
 10
30.74199999996925
 20
5.68616219786697
 30
0.0
 11
29.30199999996933
 21
7.126162197866894
 31
0.0
  0
LINE
  5
23A7C
330
23A2F
100
AcDbEntity
  8
0
  6
CONTINUOUS
100
AcDbLine
 10
30.74199999996925
 20
6.359681406947153
 30
0.0
 11
29.30199999996933
 21
7.799681406947081
 31
0.0
  0
LINE
  5
23A7D
330
23A2F
100
AcDbEntity
  8
0
  6
CONTINUOUS
100
AcDbLine
 10
30.74199999996926
 20
7.033200616027337
 30
0.0
 11
29.30199999996933
 21
8.473200616027269
 31
0.0
  0
LINE
  5
23A7E
330
23A2F
100
AcDbEntity
  8
0
  6
CONTINUOUS
100
AcDbLine
 10
30.74199999996926
 20
7.706719825107518
 30
0.0
 11
29.68561982508552
 21
8.763099999991255
 31
0.0
  0
LINE
  5
23A7F
330
23A2F
100
AcDbEntity
  8
0
  6
CONTINUOUS
100
AcDbLine
 10
30.74199999996926
 20
8.380239034187703
 30
0.0
 11
30.35913903416571
 21
8.763099999991255
 31
0.0
  0
ENDBLK
  5
23B22
330
23A2F
100
AcDbEntity
  8
0
100
AcDbBlockEnd
  0
BLOCK
  5
23B23
330
23A80
100
AcDbEntity
  8
0
100
AcDbBlockBegin
  2
*X242
 70
     1
 10
0.0
 20
0.0
 30
0.0
  3
*X242
  1

  0
LINE
  5
23A81
330
23A80
100
AcDbEntity
  8
0
  6
CONTINUOUS
100
AcDbLine
 10
31.64199999996833
 20
8.5350582899136
 30
0.0
 11
31.87004171004599
 21
8.763099999991255
 31
0.0
  0
LINE
  5
23A82
330
23A80
100
AcDbEntity
  8
0
  6
CONTINUOUS
100
AcDbLine
 10
31.64199999996833
 20
7.861539080833413
 30
0.0
 11
32.54356091912618
 21
8.763099999991255
 31
0.0
  0
LINE
  5
23A83
330
23A80
100
AcDbEntity
  8
0
  6
CONTINUOUS
100
AcDbLine
 10
31.64199999996833
 20
7.188019871753227
 30
0.0
 11
33.08199999996839
 21
8.628019871753281
 31
0.0
  0
LINE
  5
23A84
330
23A80
100
AcDbEntity
  8
0
  6
CONTINUOUS
100
AcDbLine
 10
31.64199999996833
 20
6.514500662673041
 30
0.0
 11
33.08199999996839
 21
7.954500662673095
 31
0.0
  0
LINE
  5
23A85
330
23A80
100
AcDbEntity
  8
0
  6
CONTINUOUS
100
AcDbLine
 10
31.64199999996833
 20
5.840981453592855
 30
0.0
 11
33.08199999996839
 21
7.28098145359291
 31
0.0
  0
LINE
  5
23A86
330
23A80
100
AcDbEntity
  8
0
  6
CONTINUOUS
100
AcDbLine
 10
31.64199999996833
 20
5.167462244512668
 30
0.0
 11
33.08199999996839
 21
6.607462244512723
 31
0.0
  0
LINE
  5
23A87
330
23A80
100
AcDbEntity
  8
0
  6
CONTINUOUS
100
AcDbLine
 10
31.64199999996833
 20
4.493943035432482
 30
0.0
 11
33.08199999996839
 21
5.933943035432536
 31
0.0
  0
LINE
  5
23A88
330
23A80
100
AcDbEntity
  8
0
  6
CONTINUOUS
100
AcDbLine
 10
31.64199999996833
 20
3.820423826352294
 30
0.0
 11
33.08199999996839
 21
5.260423826352349
 31
0.0
  0
LINE
  5
23A89
330
23A80
100
AcDbEntity
  8
0
  6
CONTINUOUS
100
AcDbLine
 10
31.64199999996833
 20
3.146904617272108
 30
0.0
 11
33.08199999996839
 21
4.586904617272163
 31
0.0
  0
LINE
  5
23A8A
330
23A80
100
AcDbEntity
  8
0
  6
CONTINUOUS
100
AcDbLine
 10
36.23199999996837
 20
8.410423826352327
 30
0.0
 11
36.58467617360729
 21
8.763099999991255
 31
0.0
  0
LINE
  5
23A8B
330
23A80
100
AcDbEntity
  8
0
  6
CONTINUOUS
100
AcDbLine
 10
36.23199999996837
 20
7.73690461727214
 30
0.0
 11
37.25819538268748
 21
8.763099999991255
 31
0.0
  0
LINE
  5
23A8C
330
23A80
100
AcDbEntity
  8
0
  6
CONTINUOUS
100
AcDbLine
 10
31.64323424774199
 20
2.474619655965573
 30
0.0
 11
33.08199999996839
 21
3.913385408191976
 31
0.0
  0
LINE
  5
23A8D
330
23A80
100
AcDbEntity
  8
0
  6
CONTINUOUS
100
AcDbLine
 10
31.74419223861915
 20
1.902058437762552
 30
0.0
 11
33.08199999996839
 21
3.239866199111789
 31
0.0
  0
LINE
  5
23A8E
330
23A80
100
AcDbEntity
  8
0
  6
CONTINUOUS
100
AcDbLine
 10
36.23199999996837
 20
7.063385408191953
 30
0.0
 11
37.67199999996831
 21
8.503385408191894
 31
0.0
  0
LINE
  5
23A8F
330
23A80
100
AcDbEntity
  8
0
  6
CONTINUOUS
100
AcDbLine
 10
36.23199999996837
 20
6.389866199111767
 30
0.0
 11
37.67199999996831
 21
7.829866199111708
 31
0.0
  0
LINE
  5
23A90
330
23A80
100
AcDbEntity
  8
0
  6
CONTINUOUS
100
AcDbLine
 10
31.91111233414976
 20
1.39545932421297
 30
0.0
 11
33.08199999996839
 21
2.566346990031603
 31
0.0
  0
LINE
  5
23A91
330
23A80
100
AcDbEntity
  8
0
  6
CONTINUOUS
100
AcDbLine
 10
36.23199999996837
 20
5.71634699003158
 30
0.0
 11
37.67199999996831
 21
7.156346990031522
 31
0.0
  0
LINE
  5
23A92
330
23A80
100
AcDbEntity
  8
0
  6
CONTINUOUS
100
AcDbLine
 10
32.1576374746103
 20
0.9684652555933289
 30
0.0
 11
33.20642631446081
 21
2.017254095443838
 31
0.0
  0
LINE
  5
23A93
330
23A80
100
AcDbEntity
  8
0
  6
CONTINUOUS
100
AcDbLine
 10
36.23199999996837
 20
5.042827780951393
 30
0.0
 11
37.67199999996831
 21
6.482827780951334
 31
0.0
  0
LINE
  5
23A94
330
23A80
100
AcDbEntity
  8
0
  6
CONTINUOUS
100
AcDbLine
 10
32.47774023927325
 20
0.6150488111760914
 30
0.0
 11
33.49903056428258
 21
1.636339136185419
 31
0.0
  0
LINE
  5
23A95
330
23A80
100
AcDbEntity
  8
0
  6
CONTINUOUS
100
AcDbLine
 10
36.23199999996837
 20
4.369308571871207
 30
0.0
 11
37.67199999996831
 21
5.809308571871148
 31
0.0
  0
LINE
  5
23A96
330
23A80
100
AcDbEntity
  8
0
  6
CONTINUOUS
100
AcDbLine
 10
32.84396249154443
 20
0.3077518543670883
 30
0.0
 11
33.93324121824649
 21
1.397030581069146
 31
0.0
  0
LINE
  5
23A97
330
23A80
100
AcDbEntity
  8
0
  6
CONTINUOUS
100
AcDbLine
 10
36.23199999996837
 20
3.695789362791021
 30
0.0
 11
37.67199999996831
 21
5.135789362790963
 31
0.0
  0
LINE
  5
23A98
330
23A80
100
AcDbEntity
  8
0
  6
CONTINUOUS
100
AcDbLine
 10
33.30186329036846
 20
0.0921334441109263
 30
0.0
 11
34.46442907112041
 21
1.254699224862875
 31
0.0
  0
LINE
  5
23A99
330
23A80
100
AcDbEntity
  8
0
  6
CONTINUOUS
100
AcDbLine
 10
36.23199999996837
 20
3.022270153710834
 30
0.0
 11
37.67199999996831
 21
4.462270153710776
 31
0.0
  0
LINE
  5
23A9A
330
23A80
100
AcDbEntity
  8
0
  6
CONTINUOUS
100
AcDbLine
 10
33.79565647746294
 20
-0.0875925778747773
 30
0.0
 11
35.24350171668284
 21
1.360252661345124
 31
0.0
  0
LINE
  5
23A9B
330
23A80
100
AcDbEntity
  8
0
  6
CONTINUOUS
100
AcDbLine
 10
36.18336676155003
 20
2.300117706212308
 30
0.0
 11
37.67199999996831
 21
3.788750944630589
 31
0.0
  0
LINE
  5
23A9C
330
23A80
100
AcDbEntity
  8
0
  6
CONTINUOUS
100
AcDbLine
 10
34.37182574910968
 20
-0.184942515308224
 30
0.0
 11
37.67199999996831
 21
3.115231735550402
 31
0.0
  0
LINE
  5
23A9D
330
23A80
100
AcDbEntity
  8
0
  6
CONTINUOUS
100
AcDbLine
 10
35.0453449581892
 20
-0.1849425153088955
 30
0.0
 11
37.66345697088136
 21
2.433169497383271
 31
0.0
  0
LINE
  5
23A9E
330
23A80
100
AcDbEntity
  8
0
  6
CONTINUOUS
100
AcDbLine
 10
35.98667157609191
 20
0.0828648935136398
 30
0.0
 11
37.51927401744566
 21
1.615467334867382
 31
0.0
  0
LINE
  5
23A9F
330
23A80
100
AcDbEntity
  8
0
  6
CONTINUOUS
100
AcDbLine
 10
32.27747408544484
 20
0.7830920669904482
 30
0.0
 11
32.24716210471949
 21
0.8134040477157893
 31
0.0
  0
LINE
  5
23AA0
330
23A80
100
AcDbEntity
  8
0
  6
CONTINUOUS
100
AcDbLine
 10
33.83656881101902
 20
-0.1024834495035494
 30
0.0
 11
31.72538911593758
 21
2.008696245577891
 31
0.0
  0
LINE
  5
23AA1
330
23A80
100
AcDbEntity
  8
0
  6
CONTINUOUS
100
AcDbLine
 10
34.5925470859041
 20
-0.1849425153084434
 30
0.0
 11
31.64199999996833
 21
2.765604570627322
 31
0.0
  0
LINE
  5
23AA2
330
23A80
100
AcDbEntity
  8
0
  6
CONTINUOUS
100
AcDbLine
 10
35.26201302775981
 20
-0.1808892480839752
 30
0.0
 11
31.64199999996833
 21
3.439123779707508
 31
0.0
  0
LINE
  5
23AA3
330
23A80
100
AcDbEntity
  8
0
  6
CONTINUOUS
100
AcDbLine
 10
35.75580621485512
 20
-0.0011632260990879
 30
0.0
 11
34.51294304365551
 21
1.241699945100514
 31
0.0
  0
LINE
  5
23AA4
330
23A80
100
AcDbEntity
  8
0
  6
CONTINUOUS
100
AcDbLine
 10
33.08199999996839
 20
2.672642988787641
 30
0.0
 11
31.64199999996833
 21
4.112642988787695
 31
0.0
  0
LINE
  5
23AA5
330
23A80
100
AcDbEntity
  8
0
  6
CONTINUOUS
100
AcDbLine
 10
36.24959940195042
 20
0.1785627958857976
 30
0.0
 11
35.10501653033629
 21
1.323145667499924
 31
0.0
  0
LINE
  5
23AA6
330
23A80
100
AcDbEntity
  8
0
  6
CONTINUOUS
100
AcDbLine
 10
33.08199999996839
 20
3.346162197867827
 30
0.0
 11
31.64199999996833
 21
4.786162197867881
 31
0.0
  0
LINE
  5
23AA7
330
23A80
100
AcDbEntity
  8
0
  6
CONTINUOUS
100
AcDbLine
 10
36.64615197150552
 20
0.4555294354108876
 30
0.0
 11
35.6362043832099
 21
1.465477023706505
 31
0.0
  0
LINE
  5
23AA8
330
23A80
100
AcDbEntity
  8
0
  6
CONTINUOUS
100
AcDbLine
 10
33.08199999996839
 20
4.019681406948013
 30
0.0
 11
31.64199999996833
 21
5.459681406948068
 31
0.0
  0
LINE
  5
23AA9
330
23A80
100
AcDbEntity
  8
0
  6
CONTINUOUS
100
AcDbLine
 10
37.0123742237774
 20
0.7628263922191891
 30
0.0
 11
35.97691545773309
 21
1.798285158263504
 31
0.0
  0
LINE
  5
23AAA
330
23A80
100
AcDbEntity
  8
0
  6
CONTINUOUS
100
AcDbLine
 10
33.08199999996839
 20
4.6932006160282
 30
0.0
 11
31.64199999996833
 21
6.133200616028255
 31
0.0
  0
LINE
  5
23AAB
330
23A80
100
AcDbEntity
  8
0
  6
CONTINUOUS
100
AcDbLine
 10
37.27491524157143
 20
1.173804583505349
 30
0.0
 11
36.17602012811361
 21
2.272699696963169
 31
0.0
  0
LINE
  5
23AAC
330
23A80
100
AcDbEntity
  8
0
  6
CONTINUOUS
100
AcDbLine
 10
33.08199999996839
 20
5.366719825108387
 30
0.0
 11
31.64199999996833
 21
6.806719825108441
 31
0.0
  0
LINE
  5
23AAD
330
23A80
100
AcDbEntity
  8
0
  6
CONTINUOUS
100
AcDbLine
 10
37.51739996707661
 20
1.604839067080355
 30
0.0
 11
36.23199999996837
 21
2.890239034188595
 31
0.0
  0
LINE
  5
23AAE
330
23A80
100
AcDbEntity
  8
0
  6
CONTINUOUS
100
AcDbLine
 10
37.6183579579535
 20
2.177400285283649
 30
0.0
 11
36.23199999996837
 21
3.563758243268782
 31
0.0
  0
LINE
  5
23AAF
330
23A80
100
AcDbEntity
  8
0
  6
CONTINUOUS
100
AcDbLine
 10
33.08199999996839
 20
6.040239034188573
 30
0.0
 11
31.64199999996833
 21
7.480239034188628
 31
0.0
  0
LINE
  5
23AB0
330
23A80
100
AcDbEntity
  8
0
  6
CONTINUOUS
100
AcDbLine
 10
33.08199999996839
 20
6.713758243268759
 30
0.0
 11
31.64199999996833
 21
8.153758243268815
 31
0.0
  0
LINE
  5
23AB1
330
23A80
100
AcDbEntity
  8
0
  6
CONTINUOUS
100
AcDbLine
 10
37.67199999996831
 20
2.797277452349027
 30
0.0
 11
36.23199999996837
 21
4.237277452348969
 31
0.0
  0
LINE
  5
23AB2
330
23A80
100
AcDbEntity
  8
0
  6
CONTINUOUS
100
AcDbLine
 10
37.67199999996831
 20
3.470796661429214
 30
0.0
 11
36.23199999996837
 21
4.910796661429155
 31
0.0
  0
LINE
  5
23AB3
330
23A80
100
AcDbEntity
  8
0
  6
CONTINUOUS
100
AcDbLine
 10
37.67199999996831
 20
4.1443158705094
 30
0.0
 11
36.23199999996837
 21
5.584315870509341
 31
0.0
  0
LINE
  5
23AB4
330
23A80
100
AcDbEntity
  8
0
  6
CONTINUOUS
100
AcDbLine
 10
33.08199999996839
 20
7.387277452348946
 30
0.0
 11
31.70617745232608
 21
8.763099999991255
 31
0.0
  0
LINE
  5
23AB5
330
23A80
100
AcDbEntity
  8
0
  6
CONTINUOUS
100
AcDbLine
 10
33.08199999996839
 20
8.060796661429134
 30
0.0
 11
32.37969666140626
 21
8.763099999991255
 31
0.0
  0
LINE
  5
23AB6
330
23A80
100
AcDbEntity
  8
0
  6
CONTINUOUS
100
AcDbLine
 10
33.08199999996839
 20
8.734315870509318
 30
0.0
 11
33.05321587048645
 21
8.763099999991255
 31
0.0
  0
LINE
  5
23AB7
330
23A80
100
AcDbEntity
  8
0
  6
CONTINUOUS
100
AcDbLine
 10
37.67199999996831
 20
4.817835079589586
 30
0.0
 11
36.23199999996837
 21
6.257835079589528
 31
0.0
  0
LINE
  5
23AB8
330
23A80
100
AcDbEntity
  8
0
  6
CONTINUOUS
100
AcDbLine
 10
37.67199999996831
 20
5.491354288669772
 30
0.0
 11
36.23199999996837
 21
6.931354288669715
 31
0.0
  0
LINE
  5
23AB9
330
23A80
100
AcDbEntity
  8
0
  6
CONTINUOUS
100
AcDbLine
 10
37.67199999996831
 20
6.164873497749959
 30
0.0
 11
36.23199999996837
 21
7.6048734977499
 31
0.0
  0
LINE
  5
23ABA
330
23A80
100
AcDbEntity
  8
0
  6
CONTINUOUS
100
AcDbLine
 10
37.67199999996831
 20
6.838392706830145
 30
0.0
 11
36.23199999996837
 21
8.278392706830086
 31
0.0
  0
LINE
  5
23ABB
330
23A80
100
AcDbEntity
  8
0
  6
CONTINUOUS
100
AcDbLine
 10
37.67199999996831
 20
7.511911915910333
 30
0.0
 11
36.42081191588738
 21
8.763099999991255
 31
0.0
  0
LINE
  5
23ABC
330
23A80
100
AcDbEntity
  8
0
  6
CONTINUOUS
100
AcDbLine
 10
37.67199999996831
 20
8.185431124990519
 30
0.0
 11
37.09433112496757
 21
8.763099999991255
 31
0.0
  0
ENDBLK
  5
23B24
330
23A80
100
AcDbEntity
  8
0
100
AcDbBlockEnd
  0
BLOCK
  5
23B25
330
23ABD
100
AcDbEntity
  8
0
100
AcDbBlockBegin
  2
*X243
 70
     1
 10
0.0
 20
0.0
 30
0.0
  3
*X243
  1

  0
LINE
  5
23ABE
330
23ABD
100
AcDbEntity
  8
0
  6
CONTINUOUS
100
AcDbLine
 10
38.60499999996136
 20
8.762866199104765
 30
0.0
 11
38.71672554182345
 21
8.874591740966855
 31
0.0
  0
LINE
  5
23ABF
330
23ABD
100
AcDbEntity
  8
0
  6
CONTINUOUS
100
AcDbLine
 10
38.60499999996136
 20
8.089346990024577
 30
0.0
 11
39.03418785440363
 21
8.518534844466847
 31
0.0
  0
LINE
  5
23AC0
330
23ABD
100
AcDbEntity
  8
0
  6
CONTINUOUS
100
AcDbLine
 10
38.60499999996136
 20
7.41582778094439
 30
0.0
 11
39.35165016698382
 21
8.16247794796684
 31
0.0
  0
LINE
  5
23AC1
330
23ABD
100
AcDbEntity
  8
0
  6
CONTINUOUS
100
AcDbLine
 10
38.60499999996136
 20
6.742308571864204
 30
0.0
 11
39.66911247956399
 21
7.806421051466834
 31
0.0
  0
LINE
  5
23AC2
330
23ABD
100
AcDbEntity
  8
0
  6
CONTINUOUS
100
AcDbLine
 10
38.60499999996136
 20
6.068789362784018
 30
0.0
 11
39.98657479214418
 21
7.450364154966827
 31
0.0
  0
LINE
  5
23AC3
330
23ABD
100
AcDbEntity
  8
0
  6
CONTINUOUS
100
AcDbLine
 10
38.60499999996136
 20
5.395270153703832
 30
0.0
 11
40.30403710472435
 21
7.09430725846682
 31
0.0
  0
LINE
  5
23AC4
330
23ABD
100
AcDbEntity
  8
0
  6
CONTINUOUS
100
AcDbLine
 10
38.60499999996136
 20
4.721750944623645
 30
0.0
 11
40.62149941730453
 21
6.738250361966813
 31
0.0
  0
LINE
  5
23AC5
330
23ABD
100
AcDbEntity
  8
0
  6
CONTINUOUS
100
AcDbLine
 10
38.60499999996136
 20
4.048231735543458
 30
0.0
 11
40.93896172988471
 21
6.382193465466806
 31
0.0
  0
LINE
  5
23AC6
330
23ABD
100
AcDbEntity
  8
0
  6
CONTINUOUS
100
AcDbLine
 10
38.60499999996136
 20
3.374712526463272
 30
0.0
 11
40.02599999995994
 21
4.795712526461843
 31
0.0
  0
LINE
  5
23AC7
330
23ABD
100
AcDbEntity
  8
0
  6
CONTINUOUS
100
AcDbLine
 10
38.60499999996136
 20
2.701193317383085
 30
0.0
 11
40.02599999995994
 21
4.122193317381657
 31
0.0
  0
LINE
  5
23AC8
330
23ABD
100
AcDbEntity
  8
0
  6
CONTINUOUS
100
AcDbLine
 10
40.28339754687704
 20
5.053110073378947
 30
0.0
 11
41.25642404246489
 21
6.026136568966799
 31
0.0
  0
LINE
  5
23AC9
330
23ABD
100
AcDbEntity
  8
0
  6
CONTINUOUS
100
AcDbLine
 10
40.60085985945722
 20
4.697053176878939
 30
0.0
 11
41.57388635504507
 21
5.670079672466793
 31
0.0
  0
LINE
  5
23ACA
330
23ABD
100
AcDbEntity
  8
0
  6
CONTINUOUS
100
AcDbLine
 10
43.57899999995641
 20
8.348712526458318
 30
0.0
 11
43.99338747348935
 21
8.763099999991255
 31
0.0
  0
LINE
  5
23ACB
330
23ABD
100
AcDbEntity
  8
0
  6
CONTINUOUS
100
AcDbLine
 10
43.57899999995641
 20
7.675193317378131
 30
0.0
 11
44.66690668256953
 21
8.763099999991255
 31
0.0
  0
LINE
  5
23ACC
330
23ABD
100
AcDbEntity
  8
0
  6
CONTINUOUS
100
AcDbLine
 10
38.60499999996136
 20
2.027674108302898
 30
0.0
 11
40.02599999995994
 21
3.44867410830147
 31
0.0
  0
LINE
  5
23ACD
330
23ABD
100
AcDbEntity
  8
0
  6
CONTINUOUS
100
AcDbLine
 10
38.60499999996136
 20
1.354154899222712
 30
0.0
 11
40.02599999995994
 21
2.775154899221284
 31
0.0
  0
LINE
  5
23ACE
330
23ABD
100
AcDbEntity
  8
0
  6
CONTINUOUS
100
AcDbLine
 10
38.60499999996136
 20
0.6806356901425255
 30
0.0
 11
40.02599999995994
 21
2.101635690141098
 31
0.0
  0
LINE
  5
23ACF
330
23ABD
100
AcDbEntity
  8
0
  6
CONTINUOUS
100
AcDbLine
 10
38.60499999996136
 20
0.0071164810623383
 30
0.0
 11
40.02599999995994
 21
1.428116481060911
 31
0.0
  0
LINE
  5
23AD0
330
23ABD
100
AcDbEntity
  8
0
  6
CONTINUOUS
100
AcDbLine
 10
40.9183221720374
 20
4.340996280378933
 30
0.0
 11
41.89134866762525
 21
5.314022775966786
 31
0.0
  0
LINE
  5
23AD1
330
23ABD
100
AcDbEntity
  8
0
  6
CONTINUOUS
100
AcDbLine
 10
41.23578448461758
 20
3.984939383878926
 30
0.0
 11
42.20881098020543
 21
4.957965879466778
 31
0.0
  0
LINE
  5
23AD2
330
23ABD
100
AcDbEntity
  8
0
  6
CONTINUOUS
100
AcDbLine
 10
41.55324679719776
 20
3.628882487378919
 30
0.0
 11
42.52627329278561
 21
4.601908982966772
 31
0.0
  0
LINE
  5
23AD3
330
23ABD
100
AcDbEntity
  8
0
  6
CONTINUOUS
100
AcDbLine
 10
41.87070910977793
 20
3.272825590878912
 30
0.0
 11
42.84373560536579
 21
4.245852086466765
 31
0.0
  0
LINE
  5
23AD4
330
23ABD
100
AcDbEntity
  8
0
  6
CONTINUOUS
100
AcDbLine
 10
43.57899999995641
 20
7.001674108297943
 30
0.0
 11
44.99999999995498
 21
8.422674108296516
 31
0.0
  0
LINE
  5
23AD5
330
23ABD
100
AcDbEntity
  8
0
  6
CONTINUOUS
100
AcDbLine
 10
43.57899999995641
 20
6.328154899217758
 30
0.0
 11
44.99999999995498
 21
7.749154899216329
 31
0.0
  0
LINE
  5
23AD6
330
23ABD
100
AcDbEntity
  8
0
  6
CONTINUOUS
100
AcDbLine
 10
43.57899999995641
 20
5.654635690137571
 30
0.0
 11
44.99999999995498
 21
7.075635690136142
 31
0.0
  0
LINE
  5
23AD7
330
23ABD
100
AcDbEntity
  8
0
  6
CONTINUOUS
100
AcDbLine
 10
43.57899999995641
 20
4.981116481057384
 30
0.0
 11
44.99999999995498
 21
6.402116481055955
 31
0.0
  0
LINE
  5
23AD8
330
23ABD
100
AcDbEntity
  8
0
  6
CONTINUOUS
100
AcDbLine
 10
39.27140272797921
 20
-0.0000000000000009
 30
0.0
 11
40.02599999995994
 21
0.7545972719807246
 31
0.0
  0
LINE
  5
23AD9
330
23ABD
100
AcDbEntity
  8
0
  6
CONTINUOUS
100
AcDbLine
 10
39.9449219370594
 20
-0.0000000000000009
 30
0.0
 11
40.02599999995994
 21
0.0810780629005379
 31
0.0
  0
LINE
  5
23ADA
330
23ABD
100
AcDbEntity
  8
0
  6
CONTINUOUS
100
AcDbLine
 10
42.18817142235812
 20
2.916768694378905
 30
0.0
 11
43.16119791794597
 21
3.889795189966758
 31
0.0
  0
LINE
  5
23ADB
330
23ABD
100
AcDbEntity
  8
0
  6
CONTINUOUS
100
AcDbLine
 10
42.50563373493829
 20
2.560711797878898
 30
0.0
 11
43.47866023052615
 21
3.533738293466751
 31
0.0
  0
LINE
  5
23ADC
330
23ABD
100
AcDbEntity
  8
0
  6
CONTINUOUS
100
AcDbLine
 10
43.57899999995641
 20
4.307597271977198
 30
0.0
 11
44.99999999995498
 21
5.728597271975769
 31
0.0
  0
LINE
  5
23ADD
330
23ABD
100
AcDbEntity
  8
0
  6
CONTINUOUS
100
AcDbLine
 10
43.57899999995641
 20
3.634078062897011
 30
0.0
 11
44.99999999995498
 21
5.055078062895582
 31
0.0
  0
LINE
  5
23ADE
330
23ABD
100
AcDbEntity
  8
0
  6
CONTINUOUS
100
AcDbLine
 10
42.82309604751848
 20
2.204654901378891
 30
0.0
 11
44.99999999995498
 21
4.381558853815395
 31
0.0
  0
LINE
  5
23ADF
330
23ABD
100
AcDbEntity
  8
0
  6
CONTINUOUS
100
AcDbLine
 10
43.14055836009865
 20
1.848598004878885
 30
0.0
 11
44.99999999995498
 21
3.70803964473521
 31
0.0
  0
LINE
  5
23AE0
330
23ABD
100
AcDbEntity
  8
0
  6
CONTINUOUS
100
AcDbLine
 10
43.45802067267883
 20
1.492541108378878
 30
0.0
 11
44.99999999995498
 21
3.034520435655023
 31
0.0
  0
LINE
  5
23AE1
330
23ABD
100
AcDbEntity
  8
0
  6
CONTINUOUS
100
AcDbLine
 10
43.77548298525902
 20
1.136484211878871
 30
0.0
 11
44.99999999995498
 21
2.361001226574837
 31
0.0
  0
LINE
  5
23AE2
330
23ABD
100
AcDbEntity
  8
0
  6
CONTINUOUS
100
AcDbLine
 10
44.09294529783919
 20
0.7804273153788639
 30
0.0
 11
44.99999999995498
 21
1.687482017494649
 31
0.0
  0
LINE
  5
23AE3
330
23ABD
100
AcDbEntity
  8
0
  6
CONTINUOUS
100
AcDbLine
 10
44.41040761041938
 20
0.4243704188788566
 30
0.0
 11
44.99999999995498
 21
1.013962808414463
 31
0.0
  0
LINE
  5
23AE4
330
23ABD
100
AcDbEntity
  8
0
  6
CONTINUOUS
100
AcDbLine
 10
44.72786992299955
 20
0.0683135223788494
 30
0.0
 11
44.99999999995498
 21
0.340443599334276
 31
0.0
  0
LINE
  5
23AE5
330
23ABD
100
AcDbEntity
  8
0
  6
CONTINUOUS
100
AcDbLine
 10
39.12223903415696
 20
-0.0000000000000009
 30
0.0
 11
38.60499999996136
 21
0.5172390341955961
 31
0.0
  0
LINE
  5
23AE6
330
23ABD
100
AcDbEntity
  8
0
  6
CONTINUOUS
100
AcDbLine
 10
39.79575824323715
 20
-0.0000000000000009
 30
0.0
 11
38.60499999996136
 21
1.190758243275783
 31
0.0
  0
LINE
  5
23AE7
330
23ABD
100
AcDbEntity
  8
0
  6
CONTINUOUS
100
AcDbLine
 10
40.02599999995994
 20
0.443277452357397
 30
0.0
 11
38.60499999996136
 21
1.864277452355969
 31
0.0
  0
LINE
  5
23AE8
330
23ABD
100
AcDbEntity
  8
0
  6
CONTINUOUS
100
AcDbLine
 10
40.02599999995994
 20
1.116796661437583
 30
0.0
 11
38.60499999996136
 21
2.537796661436155
 31
0.0
  0
LINE
  5
23AE9
330
23ABD
100
AcDbEntity
  8
0
  6
CONTINUOUS
100
AcDbLine
 10
40.02599999995994
 20
1.79031587051777
 30
0.0
 11
38.60499999996136
 21
3.211315870516341
 31
0.0
  0
LINE
  5
23AEA
330
23ABD
100
AcDbEntity
  8
0
  6
CONTINUOUS
100
AcDbLine
 10
40.02599999995994
 20
2.463835079597956
 30
0.0
 11
38.60499999996136
 21
3.884835079596527
 31
0.0
  0
LINE
  5
23AEB
330
23ABD
100
AcDbEntity
  8
0
  6
CONTINUOUS
100
AcDbLine
 10
40.02599999995994
 20
3.137354288678143
 30
0.0
 11
38.60499999996136
 21
4.558354288676714
 31
0.0
  0
LINE
  5
23AEC
330
23ABD
100
AcDbEntity
  8
0
  6
CONTINUOUS
100
AcDbLine
 10
40.02599999995994
 20
3.810873497758329
 30
0.0
 11
38.60499999996136
 21
5.2318734977569
 31
0.0
  0
LINE
  5
23AED
330
23ABD
100
AcDbEntity
  8
0
  6
CONTINUOUS
100
AcDbLine
 10
40.02599999995994
 20
4.484392706838515
 30
0.0
 11
38.60499999996136
 21
5.905392706837086
 31
0.0
  0
LINE
  5
23AEE
330
23ABD
100
AcDbEntity
  8
0
  6
CONTINUOUS
100
AcDbLine
 10
44.99999999995498
 20
0.183911915923658
 30
0.0
 11
41.53858364506288
 21
3.64532827081576
 31
0.0
  0
LINE
  5
23AEF
330
23ABD
100
AcDbEntity
  8
0
  6
CONTINUOUS
100
AcDbLine
 10
40.02599999995994
 20
5.157911915918703
 30
0.0
 11
38.60499999996136
 21
6.578911915917274
 31
0.0
  0
LINE
  5
23AF0
330
23ABD
100
AcDbEntity
  8
0
  6
CONTINUOUS
100
AcDbLine
 10
44.99999999995498
 20
0.8574311250038447
 30
0.0
 11
38.60499999996136
 21
7.25243112499746
 31
0.0
  0
LINE
  5
23AF1
330
23ABD
100
AcDbEntity
  8
0
  6
CONTINUOUS
100
AcDbLine
 10
44.99999999995498
 20
1.530950334084031
 30
0.0
 11
38.60499999996136
 21
7.925950334077647
 31
0.0
  0
LINE
  5
23AF2
330
23ABD
100
AcDbEntity
  8
0
  6
CONTINUOUS
100
AcDbLine
 10
44.99999999995498
 20
2.204469543164218
 30
0.0
 11
43.57899999995641
 21
3.625469543162789
 31
0.0
  0
LINE
  5
23AF3
330
23ABD
100
AcDbEntity
  8
0
  6
CONTINUOUS
100
AcDbLine
 10
41.89876730984767
 20
5.305702233271528
 30
0.0
 11
38.60499999996136
 21
8.599469543157834
 31
0.0
  0
LINE
  5
23AF4
330
23ABD
100
AcDbEntity
  8
0
  6
CONTINUOUS
100
AcDbLine
 10
44.99999999995498
 20
2.877988752244405
 30
0.0
 11
43.57899999995641
 21
4.298988752242975
 31
0.0
  0
LINE
  5
23AF5
330
23ABD
100
AcDbEntity
  8
0
  6
CONTINUOUS
100
AcDbLine
 10
44.99999999995498
 20
3.551507961324591
 30
0.0
 11
43.57899999995641
 21
4.972507961323163
 31
0.0
  0
LINE
  5
23AF6
330
23ABD
100
AcDbEntity
  8
0
  6
CONTINUOUS
100
AcDbLine
 10
44.99999999995498
 20
4.225027170404777
 30
0.0
 11
43.57899999995641
 21
5.646027170403348
 31
0.0
  0
LINE
  5
23AF7
330
23ABD
100
AcDbEntity
  8
0
  6
CONTINUOUS
100
AcDbLine
 10
44.99999999995498
 20
4.898546379484964
 30
0.0
 11
43.57899999995641
 21
6.319546379483535
 31
0.0
  0
LINE
  5
23AF8
330
23ABD
100
AcDbEntity
  8
0
  6
CONTINUOUS
100
AcDbLine
 10
44.99999999995498
 20
5.572065588565151
 30
0.0
 11
43.57899999995641
 21
6.993065588563722
 31
0.0
  0
LINE
  5
23AF9
330
23ABD
100
AcDbEntity
  8
0
  6
CONTINUOUS
100
AcDbLine
 10
44.99999999995498
 20
6.245584797645336
 30
0.0
 11
43.57899999995641
 21
7.666584797643908
 31
0.0
  0
LINE
  5
23AFA
330
23ABD
100
AcDbEntity
  8
0
  6
CONTINUOUS
100
AcDbLine
 10
44.99999999995498
 20
6.919104006725522
 30
0.0
 11
43.57899999995641
 21
8.340104006724093
 31
0.0
  0
LINE
  5
23AFB
330
23ABD
100
AcDbEntity
  8
0
  6
CONTINUOUS
100
AcDbLine
 10
44.99999999995498
 20
7.592623215805709
 30
0.0
 11
43.82952321576943
 21
8.763099999991255
 31
0.0
  0
LINE
  5
23AFC
330
23ABD
100
AcDbEntity
  8
0
  6
CONTINUOUS
100
AcDbLine
 10
44.99999999995498
 20
8.266142424885896
 30
0.0
 11
44.50304242484962
 21
8.763099999991255
 31
0.0
  0
ENDBLK
  5
23B26
330
23ABD
100
AcDbEntity
  8
0
100
AcDbBlockEnd
  0
BLOCK
  5
23B27
330
23AFD
100
AcDbEntity
  8
0
100
AcDbBlockBegin
  2
*X244
 70
     1
 10
0.0
 20
0.0
 30
0.0
  3
*X244
  1

  0
LINE
  5
23AFE
330
23AFD
100
AcDbEntity
  8
0
  6
CONTINUOUS
100
AcDbLine
 10
0.0
 20
8.548461116714023
 30
0.0
 11
0.2146388832772324
 21
8.763099999991255
 31
0.0
  0
LINE
  5
23AFF
330
23AFD
100
AcDbEntity
  8
0
  6
CONTINUOUS
100
AcDbLine
 10
-0.0000000000000002
 20
7.874941907633837
 30
0.0
 11
0.8881580923574184
 21
8.763099999991255
 31
0.0
  0
LINE
  5
23B00
330
23AFD
100
AcDbEntity
  8
0
  6
CONTINUOUS
100
AcDbLine
 10
0.0
 20
7.20142269855365
 30
0.0
 11
1.420999999998572
 21
8.622422698552223
 31
0.0
  0
LINE
  5
23B01
330
23AFD
100
AcDbEntity
  8
0
  6
CONTINUOUS
100
AcDbLine
 10
-0.0000000000000001
 20
6.527903489473465
 30
0.0
 11
1.420999999998571
 21
7.948903489472036
 31
0.0
  0
LINE
  5
23B02
330
23AFD
100
AcDbEntity
  8
0
  6
CONTINUOUS
100
AcDbLine
 10
-0.0000000000000002
 20
5.854384280393278
 30
0.0
 11
1.420999999998571
 21
7.275384280391849
 31
0.0
  0
LINE
  5
23B03
330
23AFD
100
AcDbEntity
  8
0
  6
CONTINUOUS
100
AcDbLine
 10
-0.0000000000000002
 20
5.180865071313091
 30
0.0
 11
1.420999999998571
 21
6.601865071311663
 31
0.0
  0
LINE
  5
23B04
330
23AFD
100
AcDbEntity
  8
0
  6
CONTINUOUS
100
AcDbLine
 10
0.0
 20
4.507345862232905
 30
0.0
 11
1.420999999998571
 21
5.928345862231477
 31
0.0
  0
LINE
  5
23B05
330
23AFD
100
AcDbEntity
  8
0
  6
CONTINUOUS
100
AcDbLine
 10
-0.0000000000000003
 20
3.833826653152718
 30
0.0
 11
1.420999999998571
 21
5.25482665315129
 31
0.0
  0
LINE
  5
23B06
330
23AFD
100
AcDbEntity
  8
0
  6
CONTINUOUS
100
AcDbLine
 10
-0.0000000000000002
 20
3.160307444072532
 30
0.0
 11
1.420999999998571
 21
4.581307444071103
 31
0.0
  0
LINE
  5
23B07
330
23AFD
100
AcDbEntity
  8
0
  6
CONTINUOUS
100
AcDbLine
 10
-0.0000000000000001
 20
2.486788234992345
 30
0.0
 11
1.420999999998571
 21
3.907788234990917
 31
0.0
  0
LINE
  5
23B08
330
23AFD
100
AcDbEntity
  8
0
  6
CONTINUOUS
100
AcDbLine
 10
-0.0000000000000006
 20
1.813269025912159
 30
0.0
 11
1.420999999998571
 21
3.234269025910731
 31
0.0
  0
LINE
  5
23B09
330
23AFD
100
AcDbEntity
  8
0
  6
CONTINUOUS
100
AcDbLine
 10
0.0
 20
1.139749816831973
 30
0.0
 11
1.420999999998571
 21
2.560749816830544
 31
0.0
  0
LINE
  5
23B0A
330
23AFD
100
AcDbEntity
  8
0
  6
CONTINUOUS
100
AcDbLine
 10
0.0000000000000002
 20
0.466230607751787
 30
0.0
 11
1.420999999998571
 21
1.887230607750358
 31
0.0
  0
LINE
  5
23B0B
330
23AFD
100
AcDbEntity
  8
0
  6
CONTINUOUS
100
AcDbLine
 10
0.2072886013284003
 20
-0.0000000000000009
 30
0.0
 11
1.420999999998571
 21
1.213711398670171
 31
0.0
  0
LINE
  5
23B0C
330
23AFD
100
AcDbEntity
  8
0
  6
CONTINUOUS
100
AcDbLine
 10
0.8808078104085864
 20
-0.0000000000000009
 30
0.0
 11
1.420999999998571
 21
0.5401921895899839
 31
0.0
  0
LINE
  5
23B0D
330
23AFD
100
AcDbEntity
  8
0
  6
CONTINUOUS
100
AcDbLine
 10
0.0581249075061505
 20
-0.0000000000000009
 30
0.0
 11
-0.0000000000000002
 21
0.0581249075061496
 31
0.0
  0
LINE
  5
23B0E
330
23AFD
100
AcDbEntity
  8
0
  6
CONTINUOUS
100
AcDbLine
 10
0.7316441165863372
 20
-0.0000000000000009
 30
0.0
 11
-0.0000000000000002
 21
0.7316441165863363
 31
0.0
  0
LINE
  5
23B0F
330
23AFD
100
AcDbEntity
  8
0
  6
CONTINUOUS
100
AcDbLine
 10
1.405163325666523
 20
-0.0000000000000009
 30
0.0
 11
-0.0000000000000002
 21
1.405163325666523
 31
0.0
  0
LINE
  5
23B10
330
23AFD
100
AcDbEntity
  8
0
  6
CONTINUOUS
100
AcDbLine
 10
1.420999999998572
 20
0.6576825347481381
 30
0.0
 11
-0.0000000000000001
 21
2.07868253474671
 31
0.0
  0
LINE
  5
23B11
330
23AFD
100
AcDbEntity
  8
0
  6
CONTINUOUS
100
AcDbLine
 10
1.420999999998571
 20
1.331201743828324
 30
0.0
 11
-0.0000000000000001
 21
2.752201743826896
 31
0.0
  0
LINE
  5
23B12
330
23AFD
100
AcDbEntity
  8
0
  6
CONTINUOUS
100
AcDbLine
 10
1.420999999998571
 20
2.004720952908511
 30
0.0
 11
-0.0000000000000002
 21
3.425720952907082
 31
0.0
  0
LINE
  5
23B13
330
23AFD
100
AcDbEntity
  8
0
  6
CONTINUOUS
100
AcDbLine
 10
1.420999999998571
 20
2.678240161988697
 30
0.0
 11
-0.0000000000000001
 21
4.099240161987269
 31
0.0
  0
LINE
  5
23B14
330
23AFD
100
AcDbEntity
  8
0
  6
CONTINUOUS
100
AcDbLine
 10
1.420999999998572
 20
3.351759371068884
 30
0.0
 11
0.0
 21
4.772759371067455
 31
0.0
  0
LINE
  5
23B15
330
23AFD
100
AcDbEntity
  8
0
  6
CONTINUOUS
100
AcDbLine
 10
1.420999999998571
 20
4.02527858014907
 30
0.0
 11
-0.0000000000000003
 21
5.446278580147642
 31
0.0
  0
LINE
  5
23B16
330
23AFD
100
AcDbEntity
  8
0
  6
CONTINUOUS
100
AcDbLine
 10
1.420999999998571
 20
4.698797789229257
 30
0.0
 11
0.0
 21
6.119797789227828
 31
0.0
  0
LINE
  5
23B17
330
23AFD
100
AcDbEntity
  8
0
  6
CONTINUOUS
100
AcDbLine
 10
1.420999999998571
 20
5.372316998309444
 30
0.0
 11
-0.0000000000000001
 21
6.793316998308015
 31
0.0
  0
LINE
  5
23B18
330
23AFD
100
AcDbEntity
  8
0
  6
CONTINUOUS
100
AcDbLine
 10
1.420999999998572
 20
6.045836207389629
 30
0.0
 11
-0.0000000000000004
 21
7.466836207388202
 31
0.0
  0
LINE
  5
23B19
330
23AFD
100
AcDbEntity
  8
0
  6
CONTINUOUS
100
AcDbLine
 10
1.420999999998571
 20
6.719355416469816
 30
0.0
 11
0.0
 21
8.140355416468388
 31
0.0
  0
LINE
  5
23B1A
330
23AFD
100
AcDbEntity
  8
0
  6
CONTINUOUS
100
AcDbLine
 10
1.420999999998571
 20
7.392874625550003
 30
0.0
 11
0.0507746255573185
 21
8.763099999991255
 31
0.0
  0
LINE
  5
23B1B
330
23AFD
100
AcDbEntity
  8
0
  6
CONTINUOUS
100
AcDbLine
 10
1.420999999998571
 20
8.06639383463019
 30
0.0
 11
0.7242938346375052
 21
8.763099999991255
 31
0.0
  0
LINE
  5
23B1C
330
23AFD
100
AcDbEntity
  8
0
  6
CONTINUOUS
100
AcDbLine
 10
1.420999999998571
 20
8.739913043710375
 30
0.0
 11
1.397813043717691
 21
8.763099999991255
 31
0.0
  0
ENDBLK
  5
23B28
330
23AFD
100
AcDbEntity
  8
0
100
AcDbBlockEnd
  0
ENDSEC
  0
SECTION
  2
ENTITIES
  0
LINE
  5
1D8CA
330
18
100
AcDbEntity
  8
01
100
AcDbLine
 10
727.7072606495755
 20
-650.6713303512659
 30
0.0
 11
727.7072606495755
 21
-672.8213303512673
 31
0.0
  0
LINE
  5
1D90A
330
18
100
AcDbEntity
  8
01
100
AcDbLine
 10
727.7072606495755
 20
-653.1713303512665
 30
0.0
 11
727.7072606495755
 21
-670.8213303512659
 31
0.0
  0
TEXT
  5
1DB93
330
18
100
AcDbEntity
  8
1TEXT
100
AcDbText
 10
514.5407337164992
 20
-737.9684581820295
 30
0.0
 40
4.0
  1
表面処理
 72
     1
 11
523.8074003831658
 21
-737.9684581820295
 31
0.0
100
AcDbText
  0
LINE
  5
1DB94
330
18
100
AcDbEntity
  8
1DIM
100
AcDbLine
 10
506.4074003831657
 20
-732.4684581820295
 30
0.0
 11
576.4074003831657
 21
-732.4684581820295
 31
0.0
  0
LINE
  5
1DB95
330
18
100
AcDbEntity
  8
1DIM
100
AcDbLine
 10
506.4074003831657
 20
-746.4684581820295
 30
0.0
 11
576.4074003831655
 21
-746.4684581820295
 31
0.0
  0
LINE
  5
1DB96
330
18
100
AcDbEntity
  8
1DIM
100
AcDbLine
 10
506.4074003831657
 20
-739.4684581820295
 30
0.0
 11
576.4074003831656
 21
-739.4684581820295
 31
0.0
  0
LINE
  5
1DB97
330
18
100
AcDbEntity
  8
1DIM
100
AcDbLine
 10
541.4074003831657
 20
-732.4684581820295
 30
0.0
 11
541.4074003831653
 21
-746.4684581820295
 31
0.0
  0
LINE
  5
1DB99
330
18
100
AcDbEntity
  8
1DIM
100
AcDbLine
 10
506.4074003831657
 20
-746.4684581820295
 30
0.0
 11
506.4074003831657
 21
-732.4684581820295
 31
0.0
  0
LINE
  5
1DB9A
330
18
100
AcDbEntity
  8
1DIM
100
AcDbLine
 10
576.4074003831655
 20
-746.4684581820295
 30
0.0
 11
576.4074003831657
 21
-732.4684581820295
 31
0.0
  0
TEXT
  5
1DB9B
330
18
100
AcDbEntity
  8
1TEXT
100
AcDbText
 10
506.4074003831657
 20
-727.4684581820295
 30
0.0
 40
8.0
  1
SC-849-X
100
AcDbText
  0
TEXT
  5
1DB9C
330
18
100
AcDbEntity
  8
1TEXT
100
AcDbText
 10
514.3407337164991
 20
-744.8037468415538
 30
0.0
 40
4.0
  1
クローム
 72
     1
 11
523.8074003831658
 21
-744.8037468415538
 31
0.0
100
AcDbText
  0
TEXT
  5
1DB9D
330
18
100
AcDbEntity
  8
1TEXT
100
AcDbText
 10
544.0732800127956
 20
-745.1828151656788
 30
0.0
 40
4.0
  1
SC-849-XC
 41
0.85
 72
     1
 11
558.807400383166
 21
-745.1828151656788
 31
0.0
100
AcDbText
  0
LINE
  5
1DBA4
102
{ACAD_REACTORS
330
1EDFD
102
}
330
18
100
AcDbEntity
  8
01
100
AcDbLine
 10
740.2072606495755
 20
-618.5931567659845
 30
0.0
 11
740.2072606495755
 21
-693.0495039365483
 31
0.0
  0
LINE
  5
1DBA5
102
{ACAD_REACTORS
330
1EDFD
102
}
330
18
100
AcDbEntity
  8
01
100
AcDbLine
 10
749.2072606495755
 20
-618.5931567659845
 30
0.0
 11
749.2072606495755
 21
-693.0495039365483
 31
0.0
  0
LINE
  5
1DBA6
102
{ACAD_REACTORS
330
1EDFD
102
}
330
18
100
AcDbEntity
  8
01
100
AcDbLine
 10
727.7072606495755
 20
-618.5931567659845
 30
0.0
 11
727.7072606495755
 21
-693.0495039365483
 31
0.0
  0
ARC
  5
2058E
102
{ACAD_REACTORS
330
20C15
102
}
330
18
100
AcDbEntity
  8
01
100
AcDbCircle
 10
448.7637547310021
 20
-640.8217607758424
 30
0.0
 40
5.001682628351217
100
AcDbArc
 50
151.4253054373745
 51
179.9950693569527
  0
ARC
  5
2058F
102
{ACAD_REACTORS
330
20C15
102
}
330
18
100
AcDbEntity
  8
01
100
AcDbCircle
 10
514.7616416965934
 20
-640.823012961094
 30
0.0
 40
5.001682628348536
100
AcDbArc
 50
61.42530540880686
 51
89.99506935695275
  0
ARC
  5
20590
102
{ACAD_REACTORS
330
20C15
102
}
330
18
100
AcDbEntity
  8
01
100
AcDbCircle
 10
514.760389511342
 20
-670.8208999266891
 30
0.0
 40
5.001682628348352
100
AcDbArc
 50
331.4253054130383
 51
359.9950693569527
  0
ARC
  5
20591
102
{ACAD_REACTORS
330
20C15
102
}
330
18
100
AcDbEntity
  8
01
100
AcDbCircle
 10
448.7625025457488
 20
-670.8196477414307
 30
0.0
 40
5.001682628355471
100
AcDbArc
 50
241.4253054427515
 51
269.9950693569436
  0
LINE
  5
20592
102
{ACAD_REACTORS
330
20C15
102
}
330
18
100
AcDbEntity
  8
01
100
AcDbLine
 10
443.7620721211707
 20
-670.8213303512658
 30
0.0
 11
443.7620721215543
 21
-666.3213303512656
 31
0.0
  0
LINE
  5
20593
102
{ACAD_REACTORS
330
20C15
102
}
330
18
100
AcDbEntity
  8
01
100
AcDbLine
 10
443.7620721215543
 20
-645.3213303512656
 30
0.0
 11
443.7620721211707
 21
-640.8213303512658
 31
0.0
  0
ARC
  5
205A6
102
{ACAD_REACTORS
330
20C15
102
}
330
18
100
AcDbEntity
  8
01
100
AcDbCircle
 10
448.7620721211707
 20
-670.8213303512656
 30
0.0
 40
5.00000000000001
100
AcDbArc
 50
180.0
 51
241.4204148557555
  0
LINE
  5
205A7
102
{ACAD_REACTORS
330
20C15
102
}
330
18
100
AcDbEntity
  8
01
100
AcDbLine
 10
514.7620721211701
 20
-675.8213303512658
 30
0.0
 11
448.7620721211712
 21
-675.8213303512658
 31
0.0
  0
ARC
  5
205A8
102
{ACAD_REACTORS
330
20C15
102
}
330
18
100
AcDbEntity
  8
01
100
AcDbCircle
 10
514.7620721211704
 20
-670.8213303512659
 30
0.0
 40
4.999999999999861
100
AcDbArc
 50
270.0
 51
331.4204148260571
  0
LINE
  5
205A9
102
{ACAD_REACTORS
330
20C15
102
}
330
18
100
AcDbEntity
  8
01
100
AcDbLine
 10
519.7620721211701
 20
-666.3213303512655
 30
0.0
 11
519.7620721211701
 21
-670.8213303512658
 31
0.0
  0
LINE
  5
205AA
102
{ACAD_REACTORS
330
20C15
102
}
330
18
100
AcDbEntity
  8
01
100
AcDbLine
 10
519.7620721211701
 20
-640.8213303512658
 30
0.0
 11
519.7620721211701
 21
-645.3213303512656
 31
0.0
  0
ARC
  5
205AB
102
{ACAD_REACTORS
330
20C15
102
}
330
18
100
AcDbEntity
  8
01
100
AcDbCircle
 10
514.7620721211701
 20
-640.8213303512657
 30
0.0
 40
4.999999999999956
100
AcDbArc
 50
0.0
 51
61.4204148218219
  0
LINE
  5
205AC
102
{ACAD_REACTORS
330
20C15
102
}
330
18
100
AcDbEntity
  8
01
100
AcDbLine
 10
448.7620721211712
 20
-635.8213303512658
 30
0.0
 11
514.7620721211701
 21
-635.8213303512658
 31
0.0
  0
ARC
  5
205AD
102
{ACAD_REACTORS
330
20C15
102
}
330
18
100
AcDbEntity
  8
01
100
AcDbCircle
 10
448.7620721211712
 20
-640.8213303512664
 30
0.0
 40
5.000000000000647
100
AcDbArc
 50
90.0
 51
151.4204148503854
  0
LINE
  5
20BBD
102
{ACAD_REACTORS
330
20C17
102
}
330
18
100
AcDbEntity
  8
01
100
AcDbLine
 10
717.4580116708469
 20
-645.3213303512662
 30
0.0
 11
675.4572606495749
 21
-645.3213303512662
 31
0.0
  0
ARC
  5
20BBE
102
{ACAD_REACTORS
330
20C17
102
}
330
18
100
AcDbEntity
  8
01
100
AcDbCircle
 10
717.4580116708469
 20
-646.3213303512662
 30
0.0
 40
1.0
100
AcDbArc
 50
359.9138097100574
 51
90.0
  0
LINE
  5
20BBF
102
{ACAD_REACTORS
330
20C17
102
}
330
18
100
AcDbEntity
  8
01
100
AcDbLine
 10
675.4572606495749
 20
-666.3213303512662
 30
0.0
 11
717.4572985541427
 21
-666.3213303512662
 31
0.0
  0
ARC
  5
20BC0
102
{ACAD_REACTORS
330
20C17
102
}
330
18
100
AcDbEntity
  8
01
100
AcDbCircle
 10
717.4572985541427
 20
-665.3213303512662
 30
0.0
 40
1.0
100
AcDbArc
 50
270.0
 51
0.0043438728221523
  0
ARC
  5
20BC1
102
{ACAD_REACTORS
330
20C17
102
}
330
18
100
AcDbEntity
  8
01
100
AcDbCircle
 10
719.7072606495758
 20
-636.8213303512669
 30
0.0
 40
1.000000000000568
100
AcDbArc
 50
90.00000000002606
 51
179.9999999999674
  0
ARC
  5
20BC2
102
{ACAD_REACTORS
330
20C17
102
}
330
18
100
AcDbEntity
  8
01
100
AcDbCircle
 10
719.7072606495763
 20
-674.8213303512656
 30
0.0
 40
1.000000000001137
100
AcDbArc
 50
179.9999999999544
 51
269.9999999999218
  0
LINE
  5
20BC3
102
{ACAD_REACTORS
330
20C17
102
}
330
18
100
AcDbEntity
  8
01
100
AcDbLine
 10
719.7072606495749
 20
-675.8213303512664
 30
0.0
 11
723.7072606495753
 21
-675.8213303512664
 31
0.0
  0
LINE
  5
20BC4
102
{ACAD_REACTORS
330
20C17
102
}
330
18
100
AcDbEntity
  8
01
100
AcDbLine
 10
723.7072606495753
 20
-635.8213303512664
 30
0.0
 11
719.7072606495749
 21
-635.8213303512664
 31
0.0
  0
LINE
  5
20BF1
102
{ACAD_REACTORS
330
20C17
102
}
330
18
100
AcDbEntity
  8
01
100
AcDbLine
 10
718.7072606495749
 20
-674.8213303512648
 30
0.0
 11
718.7072606495751
 21
-636.8213303512663
 31
0.0
  0
LINE
  5
20BF2
102
{ACAD_REACTORS
330
20C17
102
}
330
18
100
AcDbEntity
  8
01
100
AcDbLine
 10
718.4572985512687
 20
-665.3212545363832
 30
0.0
 11
718.4580105393813
 21
-646.3228346550416
 31
0.0
  0
CIRCLE
  5
20BFA
102
{ACAD_REACTORS
330
20C15
102
}
330
18
100
AcDbEntity
  8
1PHANTOM
100
AcDbCircle
 10
450.7620721211706
 20
-668.8213303512651
 30
0.0
 40
2.25
  0
LINE
  5
20BFB
102
{ACAD_REACTORS
330
20C15
102
}
330
18
100
AcDbEntity
  8
1CENTER
100
AcDbLine
 10
447.3870391130108
 20
-668.8212877769332
 30
0.0
 11
454.1370391130108
 21
-668.8212877769332
 31
0.0
  0
LINE
  5
20BFC
102
{ACAD_REACTORS
330
20C15
102
}
330
18
100
AcDbEntity
  8
1CENTER
100
AcDbLine
 10
450.7620391130108
 20
-672.1962877769332
 30
0.0
 11
450.7620391130108
 21
-665.4462877769332
 31
0.0
  0
CIRCLE
  5
20BFD
102
{ACAD_REACTORS
330
20C15
102
}
330
18
100
AcDbEntity
  8
1PHANTOM
100
AcDbCircle
 10
450.7620721211706
 20
-642.8213303512665
 30
0.0
 40
2.25
  0
LINE
  5
20BFE
102
{ACAD_REACTORS
330
20C15
102
}
330
18
100
AcDbEntity
  8
1CENTER
100
AcDbLine
 10
447.3870391130108
 20
-642.8212877769346
 30
0.0
 11
454.1370391130108
 21
-642.8212877769346
 31
0.0
  0
LINE
  5
20BFF
102
{ACAD_REACTORS
330
20C15
102
}
330
18
100
AcDbEntity
  8
1CENTER
100
AcDbLine
 10
450.7620391130108
 20
-646.1962877769346
 30
0.0
 11
450.7620391130108
 21
-639.4462877769346
 31
0.0
  0
CIRCLE
  5
20C06
102
{ACAD_REACTORS
330
20C15
102
}
330
18
100
AcDbEntity
  8
1PHANTOM
100
AcDbCircle
 10
512.7620721211706
 20
-668.8213303512651
 30
0.0
 40
2.25
  0
LINE
  5
20C07
102
{ACAD_REACTORS
330
20C15
102
}
330
18
100
AcDbEntity
  8
1CENTER
100
AcDbLine
 10
516.1371051293304
 20
-668.8212877769332
 30
0.0
 11
509.3871051293304
 21
-668.8212877769332
 31
0.0
  0
LINE
  5
20C08
102
{ACAD_REACTORS
330
20C15
102
}
330
18
100
AcDbEntity
  8
1CENTER
100
AcDbLine
 10
512.7621051293304
 20
-672.1962877769332
 30
0.0
 11
512.7621051293304
 21
-665.4462877769332
 31
0.0
  0
CIRCLE
  5
20C09
102
{ACAD_REACTORS
330
20C15
102
}
330
18
100
AcDbEntity
  8
1PHANTOM
100
AcDbCircle
 10
512.7620721211706
 20
-642.8213303512665
 30
0.0
 40
2.25
  0
LINE
  5
20C0A
102
{ACAD_REACTORS
330
20C15
102
}
330
18
100
AcDbEntity
  8
1CENTER
100
AcDbLine
 10
516.1371051293304
 20
-642.8212877769346
 30
0.0
 11
509.3871051293304
 21
-642.8212877769346
 31
0.0
  0
LINE
  5
20C0B
102
{ACAD_REACTORS
330
20C15
102
}
330
18
100
AcDbEntity
  8
1CENTER
100
AcDbLine
 10
512.7621051293304
 20
-646.1962877769346
 30
0.0
 11
512.7621051293304
 21
-639.4462877769346
 31
0.0
  0
LINE
  5
20C0E
102
{ACAD_REACTORS
330
20C17
102
}
330
18
100
AcDbEntity
  8
01
100
AcDbLine
 10
723.7072606495753
 20
-675.8213303512664
 30
0.0
 11
723.7072606495753
 21
-635.8213303512664
 31
0.0
  0
LINE
  5
20E5F
102
{ACAD_REACTORS
330
21068
102
}
330
18
100
AcDbEntity
  8
1HIDDEN
100
AcDbLine
 10
445.3124767398311
 20
-548.6378969861792
 30
0.0
 11
445.2817838892157
 21
-548.6378969858006
 31
0.0
  0
LINE
  5
20E60
102
{ACAD_REACTORS
330
21068
102
}
330
18
100
AcDbEntity
  8
1HIDDEN
100
AcDbLine
 10
445.3753342779468
 20
-548.6378969880107
 30
0.0
 11
445.3311751109053
 21
-548.6378969865641
 31
0.0
  0
LINE
  5
20E61
102
{ACAD_REACTORS
330
21068
102
}
330
18
100
AcDbEntity
  8
1HIDDEN
100
AcDbLine
 10
445.5748091370607
 20
-548.6378969992516
 30
0.0
 11
445.5492224428573
 21
-548.6378969977768
 31
0.0
  0
LINE
  5
20E62
102
{ACAD_REACTORS
330
21068
102
}
330
18
100
AcDbEntity
  8
1HIDDEN
100
AcDbLine
 10
445.6289869253116
 20
-548.6378970020835
 30
0.0
 11
445.6176807101152
 21
-548.637897001533
 31
0.0
  0
LINE
  5
20E63
102
{ACAD_REACTORS
330
21068
102
}
330
18
100
AcDbEntity
  8
1HIDDEN
100
AcDbLine
 10
445.7063086216655
 20
-548.6378970050878
 30
0.0
 11
445.670076605407
 21
-548.6378970038605
 31
0.0
  0
LINE
  5
20E64
102
{ACAD_REACTORS
330
21068
102
}
330
18
100
AcDbEntity
  8
1HIDDEN
100
AcDbLine
 10
445.7701035642968
 20
-548.6378970063167
 30
0.0
 11
445.7333241084515
 21
-548.6378970057634
 31
0.0
  0
LINE
  5
20E65
102
{ACAD_REACTORS
330
21068
102
}
330
18
100
AcDbEntity
  8
1HIDDEN
100
AcDbLine
 10
445.8462548020842
 20
-548.6378970059434
 30
0.0
 11
445.7983987531237
 21
-548.6378970064292
 31
0.0
  0
LINE
  5
20E66
102
{ACAD_REACTORS
330
21068
102
}
330
18
100
AcDbEntity
  8
1HIDDEN
100
AcDbLine
 10
446.3479327512581
 20
-548.6378969856862
 30
0.0
 11
445.8947159826379
 21
-548.6378970045134
 31
0.0
  0
LINE
  5
20E67
102
{ACAD_REACTORS
330
21068
102
}
330
18
100
AcDbEntity
  8
1HIDDEN
100
AcDbLine
 10
516.7336863488713
 20
-548.637896985804
 30
0.0
 11
516.677737105982
 21
-548.6378969856862
 31
0.0
  0
LINE
  5
20E68
102
{ACAD_REACTORS
330
21068
102
}
330
18
100
AcDbEntity
  8
1HIDDEN
100
AcDbLine
 10
516.8185107694035
 20
-548.6378969865699
 30
0.0
 11
516.7869457081692
 21
-548.6378969861843
 31
0.0
  0
LINE
  5
20E69
102
{ACAD_REACTORS
330
21068
102
}
330
18
100
AcDbEntity
  8
1HIDDEN
100
AcDbLine
 10
517.0653059485057
 20
-548.6378969947207
 30
0.0
 11
517.0509254751792
 21
-548.6378969941047
 31
0.0
  0
LINE
  5
20E6A
102
{ACAD_REACTORS
330
21068
102
}
330
18
100
AcDbEntity
  8
1HIDDEN
100
AcDbLine
 10
517.1448424837095
 20
-548.6378969979903
 30
0.0
 11
517.1211110605418
 21
-548.6378969970449
 31
0.0
  0
LINE
  5
20E6B
102
{ACAD_REACTORS
330
21068
102
}
330
18
100
AcDbEntity
  8
1HIDDEN
100
AcDbLine
 10
517.2229391375854
 20
-548.6378970008379
 30
0.0
 11
517.1762114914231
 21
-548.6378969991883
 31
0.0
  0
LINE
  5
20E6C
102
{ACAD_REACTORS
330
21068
102
}
330
18
100
AcDbEntity
  8
1HIDDEN
100
AcDbLine
 10
517.2880727856759
 20
-548.6378970027922
 30
0.0
 11
517.2581775011627
 21
-548.6378970019517
 31
0.0
  0
LINE
  5
20E6D
102
{ACAD_REACTORS
330
21068
102
}
330
18
100
AcDbEntity
  8
1HIDDEN
100
AcDbLine
 10
517.3428123058302
 20
-548.6378970040372
 30
0.0
 11
517.3249945662765
 21
-548.6378970036774
 31
0.0
  0
LINE
  5
20E6E
102
{ACAD_REACTORS
330
21068
102
}
330
18
100
AcDbEntity
  8
1HIDDEN
100
AcDbLine
 10
517.9493351058454
 20
-548.6378969856862
 30
0.0
 11
517.3906250011628
 21
-548.637897004757
 31
0.0
  0
LINE
  5
20E75
102
{ACAD_REACTORS
330
21068
102
}
330
18
100
AcDbEntity
  8
1HIDDEN
100
AcDbLine
 10
446.3479327512581
 20
-548.6378969184977
 30
0.0
 11
448.7620721211709
 21
-548.6378969856862
 31
0.0
  0
LINE
  5
20E76
102
{ACAD_REACTORS
330
21068
102
}
330
18
100
AcDbEntity
  8
1HIDDEN
100
AcDbLine
 10
445.8462548020728
 20
-548.6378968986355
 30
0.0
 11
445.8947159826379
 21
-548.6378969007028
 31
0.0
  0
LINE
  5
20E77
102
{ACAD_REACTORS
330
21068
102
}
330
18
100
AcDbEntity
  8
1HIDDEN
100
AcDbLine
 10
445.7701035642721
 20
-548.6378968953093
 30
0.0
 11
445.7983987522908
 21
-548.6378968965566
 31
0.0
  0
LINE
  5
20E78
102
{ACAD_REACTORS
330
21068
102
}
330
18
100
AcDbEntity
  8
1HIDDEN
100
AcDbLine
 10
445.7063086215823
 20
-548.6378968924437
 30
0.0
 11
445.7333241071143
 21
-548.6378968936664
 31
0.0
  0
LINE
  5
20E79
102
{ACAD_REACTORS
330
21068
102
}
330
18
100
AcDbEntity
  8
1HIDDEN
100
AcDbLine
 10
445.628986925169
 20
-548.6378968888648
 30
0.0
 11
445.6700766071798
 21
-548.6378968907818
 31
0.0
  0
LINE
  5
20E7A
102
{ACAD_REACTORS
330
21068
102
}
330
18
100
AcDbEntity
  8
1HIDDEN
100
AcDbLine
 10
445.5748091368665
 20
-548.6378968862814
 30
0.0
 11
445.6176807089047
 21
-548.6378968883312
 31
0.0
  0
LINE
  5
20E7B
102
{ACAD_REACTORS
330
21068
102
}
330
18
100
AcDbEntity
  8
1HIDDEN
100
AcDbLine
 10
445.375334278522
 20
-548.6378968761196
 30
0.0
 11
445.5492224430419
 21
-548.6378968850378
 31
0.0
  0
LINE
  5
20E7C
102
{ACAD_REACTORS
330
21068
102
}
330
18
100
AcDbEntity
  8
1HIDDEN
100
AcDbLine
 10
445.3124767398311
 20
-548.6378968726567
 30
0.0
 11
445.3311751109023
 21
-548.6378968737024
 31
0.0
  0
LINE
  5
20E7D
102
{ACAD_REACTORS
330
21068
102
}
330
18
100
AcDbEntity
  8
1HIDDEN
100
AcDbLine
 10
444.7624054497338
 20
-548.6378968190237
 30
0.0
 11
445.2817838892314
 21
-548.6378968709096
 31
0.0
  0
ARC
  5
20E7E
102
{ACAD_REACTORS
330
21068
102
}
330
18
100
AcDbEntity
  8
1HIDDEN
100
AcDbCircle
 10
444.762356460462
 20
-547.6376124237986
 30
0.0
 40
1.000284379767564
100
AcDbArc
 50
180.0162995601447
 51
269.9837131943644
  0
LINE
  5
20E7F
102
{ACAD_REACTORS
330
21068
102
}
330
18
100
AcDbEntity
  8
1HIDDEN
100
AcDbLine
 10
448.7620721211709
 20
-548.6378969856862
 30
0.0
 11
514.7620721211701
 21
-548.6378969856862
 31
0.0
  0
LINE
  5
20E81
102
{ACAD_REACTORS
330
21068
102
}
330
18
100
AcDbEntity
  8
1HIDDEN
100
AcDbLine
 10
517.949335105845
 20
-548.6378969856862
 30
0.0
 11
518.7620721211701
 21
-548.6378969856862
 31
0.0
  0
LINE
  5
20E82
102
{ACAD_REACTORS
330
21068
102
}
330
18
100
AcDbEntity
  8
1HIDDEN
100
AcDbLine
 10
517.3428123042818
 20
-548.6378969856862
 30
0.0
 11
517.390625001206
 21
-548.6378969856862
 31
0.0
  0
LINE
  5
20E83
102
{ACAD_REACTORS
330
21068
102
}
330
18
100
AcDbEntity
  8
1HIDDEN
100
AcDbLine
 10
517.2880727857087
 20
-548.6378969856862
 30
0.0
 11
517.324994566317
 21
-548.6378969856862
 31
0.0
  0
LINE
  5
20E84
102
{ACAD_REACTORS
330
21068
102
}
330
18
100
AcDbEntity
  8
1HIDDEN
100
AcDbLine
 10
517.2229391381125
 20
-548.6378969856862
 30
0.0
 11
517.2581775012059
 21
-548.6378969856862
 31
0.0
  0
LINE
  5
20E85
102
{ACAD_REACTORS
330
21068
102
}
330
18
100
AcDbEntity
  8
1HIDDEN
100
AcDbLine
 10
517.1448424821551
 20
-548.6378969856862
 30
0.0
 11
517.1762114914864
 21
-548.6378969856862
 31
0.0
  0
LINE
  5
20E86
102
{ACAD_REACTORS
330
21068
102
}
330
18
100
AcDbEntity
  8
1HIDDEN
100
AcDbLine
 10
517.065305948388
 20
-548.6378969856862
 30
0.0
 11
517.1211110605777
 21
-548.6378969856862
 31
0.0
  0
LINE
  5
20E87
102
{ACAD_REACTORS
330
21068
102
}
330
18
100
AcDbEntity
  8
1HIDDEN
100
AcDbLine
 10
516.8185107694608
 20
-548.6378969856862
 30
0.0
 11
517.050925475201
 21
-548.6378969856862
 31
0.0
  0
LINE
  5
20E88
102
{ACAD_REACTORS
330
21068
102
}
330
18
100
AcDbEntity
  8
1HIDDEN
100
AcDbLine
 10
516.7336863488849
 20
-548.6378969856862
 30
0.0
 11
516.7869457093279
 21
-548.6378969856862
 31
0.0
  0
LINE
  5
20E89
102
{ACAD_REACTORS
330
21068
102
}
330
18
100
AcDbEntity
  8
1HIDDEN
100
AcDbLine
 10
514.7620721211701
 20
-548.6378969856862
 30
0.0
 11
516.6777371047069
 21
-548.6378969856862
 31
0.0
  0
ARC
  5
20E8B
102
{ACAD_REACTORS
330
21068
102
}
330
18
100
AcDbEntity
  8
1HIDDEN
100
AcDbCircle
 10
518.7620721211701
 20
-547.6378969856863
 30
0.0
 40
1.0
100
AcDbArc
 50
270.0
 51
0.0
  0
LINE
  5
20E8C
102
{ACAD_REACTORS
330
21068
102
}
330
18
100
AcDbEntity
  8
1HIDDEN
100
AcDbLine
 10
519.7620721211701
 20
-547.6378969856862
 30
0.0
 11
519.7620721211701
 21
-539.637896985686
 31
0.0
  0
LINE
  5
20E90
102
{ACAD_REACTORS
330
21068
102
}
330
18
100
AcDbEntity
  8
1HIDDEN
100
AcDbLine
 10
443.7620721211696
 20
-539.637896985686
 30
0.0
 11
443.7620721211705
 21
-547.6378969856864
 31
0.0
  0
LINE
  5
20E93
102
{ACAD_REACTORS
330
21068
102
}
330
18
100
AcDbEntity
  8
1HIDDEN
100
AcDbLine
 10
514.7620721211701
 20
-543.6378969856862
 30
0.0
 11
519.7620721211701
 21
-543.6378969856862
 31
0.0
  0
LINE
  5
20E94
102
{ACAD_REACTORS
330
21068
102
}
330
18
100
AcDbEntity
  8
1HIDDEN
100
AcDbLine
 10
448.76207212117
 20
-543.637896985686
 30
0.0
 11
514.7620721211701
 21
-543.6378969856862
 31
0.0
  0
LINE
  5
20E95
102
{ACAD_REACTORS
330
21068
102
}
330
18
100
AcDbEntity
  8
1HIDDEN
100
AcDbLine
 10
443.76207212117
 20
-543.6378969856864
 30
0.0
 11
448.76207212117
 21
-543.637896985686
 31
0.0
  0
LINE
  5
21061
102
{ACAD_REACTORS
330
21068
102
}
330
18
100
AcDbEntity
  8
1CENTER
100
AcDbLine
 10
442.2621011449256
 20
-560.8878969858391
 30
0.0
 11
457.2621011449256
 21
-560.8878969858391
 31
0.0
  0
LINE
  5
21062
102
{ACAD_REACTORS
330
21068
102
}
330
18
100
AcDbEntity
  8
1CENTER
100
AcDbLine
 10
449.7621011449256
 20
-568.3878969858391
 30
0.0
 11
449.7621011449256
 21
-553.3878969858391
 31
0.0
  0
ARC
  5
21953
102
{ACAD_REACTORS
330
222F2
102
}
330
18
100
AcDbEntity
  8
01
100
AcDbCircle
 10
682.7849549981296
 20
-627.3218484666224
 30
0.0
 40
0.9994707744604376
100
AcDbArc
 50
255.3895331432628
 51
261.2499863272274
  0
ARC
  5
21954
102
{ACAD_REACTORS
330
222F2
102
}
330
18
100
AcDbEntity
  8
01
100
AcDbCircle
 10
724.2072605035178
 20
-675.3213311030181
 30
0.0
 40
0.4999992482485233
100
AcDbArc
 50
224.9999196024148
 51
270.0000167369902
  0
LINE
  5
21955
102
{ACAD_REACTORS
330
222F2
102
}
330
18
100
AcDbEntity
  8
01
100
AcDbLine
 10
723.7072606495752
 20
-675.2763867892382
 30
0.0
 11
723.7072606495753
 21
-670.8213300282956
 31
0.0
  0
ARC
  5
21956
102
{ACAD_REACTORS
330
222F2
102
}
330
18
100
AcDbEntity
  8
01
100
AcDbCircle
 10
672.457256674132
 20
-623.3213286843595
 30
0.0
 40
0.9999963475924509
100
AcDbArc
 50
134.9998908863238
 51
180.0000769984482
  0
LINE
  5
21957
102
{ACAD_REACTORS
330
222F2
102
}
330
18
100
AcDbEntity
  8
01
100
AcDbLine
 10
672.467242004558
 20
-622.3213300282309
 30
0.0
 11
676.4572606494
 21
-622.321330028231
 31
0.0
  0
LINE
  5
21966
102
{ACAD_REACTORS
330
222F2
102
}
330
18
100
AcDbEntity
  8
01
100
AcDbLine
 10
727.7072606495753
 20
-627.8937387595709
 30
0.0
 11
727.7072606495753
 21
-629.8093913300131
 31
0.0
  0
LINE
  5
21968
102
{ACAD_REACTORS
330
222F2
102
}
330
18
100
AcDbEntity
  8
01
100
AcDbLine
 10
727.7072606495753
 20
-625.5351256625611
 30
0.0
 11
727.7072606495753
 21
-627.8937387595709
 31
0.0
  0
ARC
  5
2196E
102
{ACAD_REACTORS
330
222F2
102
}
330
18
100
AcDbEntity
  8
01
100
AcDbCircle
 10
682.7850655698679
 20
-627.3213300282326
 30
0.0
 40
0.9999999999983444
100
AcDbArc
 50
261.2482431804675
 51
269.999999999987
  0
LINE
  5
21970
102
{ACAD_REACTORS
330
222F2
102
}
330
18
100
AcDbEntity
  8
01
100
AcDbLine
 10
687.496018625981
 20
-628.321330028231
 30
0.0
 11
682.7850655698677
 21
-628.321330028231
 31
0.0
  0
LINE
  5
21972
102
{ACAD_REACTORS
330
222F2
102
}
330
18
100
AcDbEntity
  8
01
100
AcDbLine
 10
687.496018625981
 20
-628.321330028231
 30
0.0
 11
718.7072606495753
 21
-628.321330028231
 31
0.0
  0
LINE
  5
21975
102
{ACAD_REACTORS
330
222F2
102
}
330
18
100
AcDbEntity
  8
01
100
AcDbLine
 10
723.7072606495753
 20
-675.3213300308346
 30
0.0
 11
723.7072606495752
 21
-675.2763867889669
 31
0.0
  0
LINE
  5
21977
102
{ACAD_REACTORS
330
222F2
102
}
330
18
100
AcDbEntity
  8
01
100
AcDbLine
 10
723.7072606495753
 20
-670.8213300282633
 30
0.0
 11
723.7072606495753
 21
-633.3213300282309
 31
0.0
  0
ARC
  5
21978
102
{ACAD_REACTORS
330
222F2
102
}
330
18
100
AcDbEntity
  8
01
100
AcDbCircle
 10
724.2072606463026
 20
-675.3213300308887
 30
0.0
 40
0.4999999967273465
100
AcDbArc
 50
179.9999999937989
 51
225.0000001553306
  0
LINE
  5
2197B
102
{ACAD_REACTORS
330
222F2
102
}
330
18
100
AcDbEntity
  8
01
100
AcDbLine
 10
727.7072606495753
 20
-675.8213300282314
 30
0.0
 11
724.2072606495753
 21
-675.8213300282314
 31
0.0
  0
LINE
  5
2197C
102
{ACAD_REACTORS
330
222F2
102
}
330
18
100
AcDbEntity
  8
01
100
AcDbLine
 10
676.4572606494877
 20
-622.321330028231
 30
0.0
 11
727.7072606495753
 21
-622.3213300282309
 31
0.0
  0
LINE
  5
2197D
102
{ACAD_REACTORS
330
222F2
102
}
330
18
100
AcDbEntity
  8
01
100
AcDbLine
 10
727.7072606495755
 20
-622.321330028231
 30
0.0
 11
727.7072606495753
 21
-623.3213300282309
 31
0.0
  0
ARC
  5
2197E
102
{ACAD_REACTORS
330
222F2
102
}
330
18
100
AcDbEntity
  8
01
100
AcDbCircle
 10
672.4572606464523
 20
-623.3213300243848
 30
0.0
 40
0.9999999961537186
100
AcDbArc
 50
89.99999999639137
 51
135.0000000912896
  0
LINE
  5
2197F
102
{ACAD_REACTORS
330
222F2
102
}
330
18
100
AcDbEntity
  8
01
100
AcDbLine
 10
672.4572606465152
 20
-622.321330028231
 30
0.0
 11
672.4672420043775
 21
-622.3213300282309
 31
0.0
  0
LINE
  5
21984
102
{ACAD_REACTORS
330
222F2
102
}
330
18
100
AcDbEntity
  8
01
100
AcDbLine
 10
727.7072606495753
 20
-624.57729937734
 30
0.0
 11
727.7072606495753
 21
-625.5351256625611
 31
0.0
  0
LINE
  5
21987
102
{ACAD_REACTORS
330
222F2
102
}
330
18
100
AcDbEntity
  8
01
100
AcDbLine
 10
727.7072606495753
 20
-624.57729937734
 30
0.0
 11
727.7072606495753
 21
-623.3213300282309
 31
0.0
  0
LINE
  5
2198A
102
{ACAD_REACTORS
330
222F2
102
}
330
18
100
AcDbEntity
  8
01
100
AcDbLine
 10
671.4572606495755
 20
-624.5418980122059
 30
0.0
 11
671.4572606495753
 21
-624.5540030402522
 31
0.0
  0
LINE
  5
2198B
102
{ACAD_REACTORS
330
222F2
102
}
330
18
100
AcDbEntity
  8
01
100
AcDbLine
 10
671.4572606495755
 20
-623.321330028231
 30
0.0
 11
671.4572606495755
 21
-624.5540030402519
 31
0.0
  0
ARC
  5
2198F
102
{ACAD_REACTORS
330
222F2
102
}
330
18
100
AcDbEntity
  8
01
100
AcDbCircle
 10
718.7072606495755
 20
-633.3213300282309
 30
0.0
 40
4.999999999999943
100
AcDbArc
 50
0.0
 51
90.00000000000132
  0
LINE
  5
21990
102
{ACAD_REACTORS
330
222F2
102
}
330
18
100
AcDbEntity
  8
01
100
AcDbLine
 10
727.7072606495753
 20
-670.8213300282306
 30
0.0
 11
727.7072606495753
 21
-675.8213300282314
 31
0.0
  0
LINE
  5
21991
102
{ACAD_REACTORS
330
222F2
102
}
330
18
100
AcDbEntity
  8
01
100
AcDbLine
 10
727.7072606495753
 20
-629.8093913300131
 30
0.0
 11
727.7072606495753
 21
-670.8213300282306
 31
0.0
  0
LINE
  5
219D3
102
{ACAD_REACTORS
330
222F4
102
}
330
18
100
AcDbEntity
  8
01
100
AcDbLine
 10
519.762072121167
 20
-670.8213303512666
 30
0.0
 11
519.762072121167
 21
-666.3213303512655
 31
0.0
  0
LINE
  5
219D4
102
{ACAD_REACTORS
330
222F4
102
}
330
18
100
AcDbEntity
  8
01
100
AcDbLine
 10
443.7620721211669
 20
-633.3213303512662
 30
0.0
 11
443.7620721211669
 21
-645.3213303512656
 31
0.0
  0
LINE
  5
219D5
102
{ACAD_REACTORS
330
222F4
102
}
330
18
100
AcDbEntity
  8
01
100
AcDbLine
 10
438.7620721209881
 20
-622.3213303512663
 30
0.0
 11
434.7620721211669
 21
-622.3213303512663
 31
0.0
  0
LINE
  5
219D6
102
{ACAD_REACTORS
330
222F4
102
}
330
18
100
AcDbEntity
  8
01
100
AcDbLine
 10
524.7620721213424
 20
-622.3213303512663
 30
0.0
 11
528.7620721211669
 21
-622.3213303512663
 31
0.0
  0
ARC
  5
219D7
102
{ACAD_REACTORS
330
222F4
102
}
330
18
100
AcDbEntity
  8
01
100
AcDbCircle
 10
441.7620721211669
 20
-629.8093916530484
 30
0.0
 40
1.999999999999918
100
AcDbArc
 50
0.931975836256908
 51
73.30075576600514
  0
ARC
  5
219D8
102
{ACAD_REACTORS
330
222F4
102
}
330
18
100
AcDbEntity
  8
01
100
AcDbCircle
 10
521.762072121167
 20
-629.8093916530487
 30
0.0
 40
2.000000000000345
100
AcDbArc
 50
106.6992442339921
 51
179.0680138953679
  0
LINE
  5
21A79
102
{ACAD_REACTORS
330
222F4
102
}
330
18
100
AcDbEntity
  8
01
100
AcDbLine
 10
442.3367678922995
 20
-627.8937390826063
 30
0.0
 11
434.4747242356005
 21
-625.5351259855967
 31
0.0
  0
LINE
  5
21A7C
102
{ACAD_REACTORS
330
222F4
102
}
330
18
100
AcDbEntity
  8
01
100
AcDbLine
 10
521.1873763500341
 20
-627.8937390826062
 30
0.0
 11
529.0494200067332
 21
-625.5351259855964
 31
0.0
  0
LINE
  5
21A84
102
{ACAD_REACTORS
330
222F4
102
}
330
18
100
AcDbEntity
  8
01
100
AcDbLine
 10
443.7620721211669
 20
-629.7768609938261
 30
0.0
 11
443.762072121167
 21
-633.3213303512812
 31
0.0
  0
LINE
  5
21A87
102
{ACAD_REACTORS
330
222F4
102
}
330
18
100
AcDbEntity
  8
01
100
AcDbLine
 10
519.762072121167
 20
-633.3213303512812
 30
0.0
 11
519.7620721211669
 21
-629.7768606354399
 31
0.0
  0
LINE
  5
21A8A
102
{ACAD_REACTORS
330
222F4
102
}
330
18
100
AcDbEntity
  8
01
100
AcDbLine
 10
448.7620721211669
 20
-675.8213303512666
 30
0.0
 11
514.762072121167
 21
-675.8213303512666
 31
0.0
  0
LINE
  5
21A8C
102
{ACAD_REACTORS
330
222F4
102
}
330
18
100
AcDbEntity
  8
01
100
AcDbLine
 10
438.7620721210775
 20
-622.3213303512663
 30
0.0
 11
524.7620721212546
 21
-622.3213303512663
 31
0.0
  0
LINE
  5
21B86
102
{ACAD_REACTORS
330
222F4
102
}
330
18
100
AcDbEntity
  8
1PHANTOM
100
AcDbLine
 10
524.7620721211671
 20
-624.5418983352413
 30
0.0
 11
524.7538219431567
 21
-624.5540033632892
 31
0.0
  0
LINE
  5
21B8B
102
{ACAD_REACTORS
330
222F4
102
}
330
18
100
AcDbEntity
  8
1PHANTOM
100
AcDbLine
 10
524.7620721211671
 20
-624.5418983352413
 30
0.0
 11
524.7620721211671
 21
-624.5540033632874
 31
0.0
  0
LINE
  5
21B8F
102
{ACAD_REACTORS
330
222F4
102
}
330
18
100
AcDbEntity
  8
01
100
AcDbLine
 10
433.7620721211669
 20
-623.3213303512662
 30
0.0
 11
433.7620721211667
 21
-624.5772997003754
 31
0.0
  0
LINE
  5
21B93
102
{ACAD_REACTORS
330
222F4
102
}
330
18
100
AcDbEntity
  8
01
100
AcDbLine
 10
529.7620721211669
 20
-623.3213303512663
 30
0.0
 11
529.7620721211669
 21
-624.5772997003753
 31
0.0
  0
LINE
  5
21BAF
102
{ACAD_REACTORS
330
222F3
102
}
330
18
100
AcDbEntity
  8
01
100
AcDbLine
 10
528.7620717981322
 20
-539.637896985686
 30
0.0
 11
529.7620717981321
 21
-539.637896985686
 31
0.0
  0
LINE
  5
21BB1
102
{ACAD_REACTORS
330
222F3
102
}
330
18
100
AcDbEntity
  8
01
100
AcDbLine
 10
433.7620717981321
 20
-539.637896985686
 30
0.0
 11
434.7620717981322
 21
-539.637896985686
 31
0.0
  0
LINE
  5
21BB9
102
{ACAD_REACTORS
330
222F3
102
}
330
18
100
AcDbEntity
  8
01
100
AcDbLine
 10
434.7620717981322
 20
-539.637896985686
 30
0.0
 11
528.7620717981322
 21
-539.637896985686
 31
0.0
  0
LINE
  5
21BBA
102
{ACAD_REACTORS
330
222F3
102
}
330
18
100
AcDbEntity
  8
01
100
AcDbLine
 10
529.7620717981322
 20
-590.8878969856859
 30
0.0
 11
529.7620717981321
 21
-539.637896985686
 31
0.0
  0
LINE
  5
21BBB
102
{ACAD_REACTORS
330
222F3
102
}
330
18
100
AcDbEntity
  8
01
100
AcDbLine
 10
433.7620717981322
 20
-590.8878969856858
 30
0.0
 11
433.7620717981321
 21
-539.637896985686
 31
0.0
  0
LINE
  5
21BBC
102
{ACAD_REACTORS
330
222F3
102
}
330
18
100
AcDbEntity
  8
01
100
AcDbLine
 10
438.7620717981322
 20
-595.8878969856858
 30
0.0
 11
524.7620717981322
 21
-595.8878969856859
 31
0.0
  0
ARC
  5
21BE7
102
{ACAD_REACTORS
330
222F3
102
}
330
18
100
AcDbEntity
  8
01
100
AcDbCircle
 10
438.7620717981322
 20
-590.8878969856858
 30
0.0
 40
5.0
100
AcDbArc
 50
180.0
 51
270.0
  0
ARC
  5
21BE8
102
{ACAD_REACTORS
330
222F3
102
}
330
18
100
AcDbEntity
  8
01
100
AcDbCircle
 10
524.7620717981322
 20
-590.8878969856859
 30
0.0
 40
5.0
100
AcDbArc
 50
270.0
 51
0.0
  0
ARC
  5
21C10
102
{ACAD_REACTORS
330
222F4
102
}
330
18
100
AcDbEntity
  8
01
100
AcDbCircle
 10
528.7620721211669
 20
-624.5772997003753
 30
0.0
 40
1.0
100
AcDbArc
 50
286.6992442339917
 51
0.0
  0
ARC
  5
21C11
102
{ACAD_REACTORS
330
222F4
102
}
330
18
100
AcDbEntity
  8
01
100
AcDbCircle
 10
528.7620721211669
 20
-623.3213303512663
 30
0.0
 40
1.0
100
AcDbArc
 50
0.0
 51
90.0
  0
ARC
  5
21C12
102
{ACAD_REACTORS
330
222F4
102
}
330
18
100
AcDbEntity
  8
01
100
AcDbCircle
 10
434.7620721211667
 20
-624.5772997003754
 30
0.0
 40
1.0
100
AcDbArc
 50
180.0
 51
253.3007557660164
  0
ARC
  5
21C13
102
{ACAD_REACTORS
330
222F4
102
}
330
18
100
AcDbEntity
  8
01
100
AcDbCircle
 10
434.7620721211669
 20
-623.3213303512663
 30
0.0
 40
1.0
100
AcDbArc
 50
90.0
 51
179.9999999999935
  0
ARC
  5
21C79
102
{ACAD_REACTORS
330
222F2
102
}
330
18
100
AcDbEntity
  8
01
100
AcDbCircle
 10
672.4572606495755
 20
-624.5540030402519
 30
0.0
 40
1.0
100
AcDbArc
 50
180.0
 51
254.9999999999993
  0
LINE
  5
21C7B
102
{ACAD_REACTORS
330
222F2
102
}
330
18
100
AcDbEntity
  8
01
100
AcDbLine
 10
672.1984416044729
 20
-625.519928866541
 30
0.0
 11
682.5262465247648
 21
-628.2872558545199
 31
0.0
  0
LINE
  5
21C95
102
{ACAD_REACTORS
330
222F3
102
}
330
18
100
AcDbEntity
  8
01
100
AcDbLine
 10
438.7620717981321
 20
-542.637896985686
 30
0.0
 11
524.7620717981321
 21
-542.637896985686
 31
0.0
  0
LINE
  5
21C96
102
{ACAD_REACTORS
330
222F3
102
}
330
18
100
AcDbEntity
  8
01
100
AcDbLine
 10
436.7620717981322
 20
-590.8878969856858
 30
0.0
 11
436.7620717981321
 21
-544.637896985686
 31
0.0
  0
LINE
  5
21C97
102
{ACAD_REACTORS
330
222F3
102
}
330
18
100
AcDbEntity
  8
01
100
AcDbLine
 10
438.7620717981322
 20
-592.8878969856858
 30
0.0
 11
524.7620717981322
 21
-592.8878969856859
 31
0.0
  0
LINE
  5
21C98
102
{ACAD_REACTORS
330
222F3
102
}
330
18
100
AcDbEntity
  8
01
100
AcDbLine
 10
526.7620717981322
 20
-590.8878969856859
 30
0.0
 11
526.7620717981321
 21
-544.637896985686
 31
0.0
  0
ARC
  5
21C99
102
{ACAD_REACTORS
330
222F3
102
}
330
18
100
AcDbEntity
  8
01
100
AcDbCircle
 10
524.7620717981322
 20
-590.8878969856859
 30
0.0
 40
2.0
100
AcDbArc
 50
270.0
 51
0.0
  0
ARC
  5
21C9A
102
{ACAD_REACTORS
330
222F3
102
}
330
18
100
AcDbEntity
  8
01
100
AcDbCircle
 10
438.7620717981322
 20
-590.8878969856858
 30
0.0
 40
2.0
100
AcDbArc
 50
180.0
 51
270.0
  0
ARC
  5
21C9B
102
{ACAD_REACTORS
330
222F3
102
}
330
18
100
AcDbEntity
  8
01
100
AcDbCircle
 10
438.7620717981321
 20
-544.637896985686
 30
0.0
 40
2.0
100
AcDbArc
 50
90.0
 51
180.0
  0
ARC
  5
21C9C
102
{ACAD_REACTORS
330
222F3
102
}
330
18
100
AcDbEntity
  8
01
100
AcDbCircle
 10
524.7620717981321
 20
-544.637896985686
 30
0.0
 40
2.0
100
AcDbArc
 50
0.0
 51
90.0
  0
LINE
  5
222FB
330
18
100
AcDbEntity
  8
01
100
AcDbLine
 10
443.7620721211669
 20
-666.3213303512656
 30
0.0
 11
443.7620721211669
 21
-670.8213303512666
 31
0.0
  0
LINE
  5
222FE
330
18
100
AcDbEntity
  8
01
100
AcDbLine
 10
519.762072121167
 20
-645.3213303512656
 30
0.0
 11
519.762072121167
 21
-633.3213303512662
 31
0.0
  0
LINE
  5
22728
330
18
100
AcDbEntity
  8
01
100
AcDbLine
 10
672.1984416044729
 20
-625.519928866541
 30
0.0
 11
727.7072606495755
 21
-625.519928866541
 31
0.0
  0
LINE
  5
22729
330
18
100
AcDbEntity
  8
01
100
AcDbLine
 10
433.7620721211667
 20
-624.5772997003754
 30
0.0
 11
529.7620721211667
 21
-624.5772997003754
 31
0.0
  0
LINE
  5
2272A
330
18
100
AcDbEntity
  8
01
100
AcDbLine
 10
442.3367320618444
 20
-627.8852738817076
 30
0.0
 11
521.2155936863629
 21
-627.8852738817076
 31
0.0
  0
LINE
  5
230A9
330
18
100
AcDbEntity
  8
1PHANTOM
100
AcDbLine
 10
720.7072606468255
 20
-673.8213303654081
 30
0.0
 11
723.7072606495751
 21
-673.8213303512664
 31
0.0
  0
LINE
  5
230AA
330
18
100
AcDbEntity
  8
1PHANTOM
100
AcDbLine
 10
720.7072606524821
 20
-637.821330337124
 30
0.0
 11
720.7072606468255
 21
-673.8213303654081
 31
0.0
  0
LINE
  5
230AB
330
18
100
AcDbEntity
  8
1PHANTOM
100
AcDbLine
 10
723.7072606495751
 20
-637.8213303512664
 30
0.0
 11
720.7072606524821
 21
-637.821330337124
 31
0.0
  0
ARC
  5
235CF
330
18
100
AcDbEntity
  8
1HIDDEN
100
AcDbCircle
 10
442.7621011449262
 20
-549.93341681198
 30
0.0
 40
1.0
100
AcDbArc
 50
302.578970392797
 51
0.0000000000260551
  0
LINE
  5
235D0
330
18
100
AcDbEntity
  8
1HIDDEN
100
AcDbLine
 10
443.762101144926
 20
-549.9334168119805
 30
0.0
 11
443.7621011449276
 21
-543.6378679620835
 31
0.0
  0
LINE
  5
235D4
330
18
100
AcDbEntity
  8
1HIDDEN
100
AcDbLine
 10
437.7621301686813
 20
-560.8878679620833
 30
0.0
 11
437.7621301686813
 21
-580.8878679620833
 31
0.0
  0
LINE
  5
235D5
330
18
100
AcDbEntity
  8
01
100
AcDbLine
 10
667.7621301686813
 20
-560.8878679620806
 30
0.0
 11
667.7621301686813
 21
-580.8878679620806
 31
0.0
  0
LINE
  5
235D6
330
18
100
AcDbEntity
  8
01
100
AcDbLine
 10
665.7621301686813
 20
-560.8878679620806
 30
0.0
 11
665.7621301686813
 21
-580.8878679620806
 31
0.0
  0
LINE
  5
235D7
330
18
100
AcDbEntity
  8
01
100
AcDbLine
 10
660.7621301686813
 20
-560.8878679620806
 30
0.0
 11
660.7621301686813
 21
-580.8878679620806
 31
0.0
  0
ARC
  5
235D8
330
18
100
AcDbEntity
  8
1HIDDEN
100
AcDbCircle
 10
480.7621301686813
 20
-580.8878679620824
 30
0.0
 40
5.0
100
AcDbArc
 50
180.0
 51
270.0
  0
LINE
  5
235D9
330
18
100
AcDbEntity
  8
1HIDDEN
100
AcDbLine
 10
470.7621301686813
 20
-560.8878679620824
 30
0.0
 11
470.7621301686813
 21
-580.8878679620824
 31
0.0
  0
ARC
  5
235DA
330
18
100
AcDbEntity
  8
01
100
AcDbCircle
 10
655.7621301686813
 20
-580.8878679620806
 30
0.0
 40
12.0
100
AcDbArc
 50
270.0
 51
0.0
  0
ARC
  5
235DB
330
18
100
AcDbEntity
  8
01
100
AcDbCircle
 10
655.7621301686813
 20
-580.8878679620806
 30
0.0
 40
10.0
100
AcDbArc
 50
270.0
 51
0.0
  0
ARC
  5
235DC
330
18
100
AcDbEntity
  8
01
100
AcDbCircle
 10
655.7621301686813
 20
-580.8878679620806
 30
0.0
 40
5.0
100
AcDbArc
 50
270.0
 51
0.0
  0
LINE
  5
235DD
330
18
100
AcDbEntity
  8
1HIDDEN
100
AcDbLine
 10
449.7621301686813
 20
-548.8878679620833
 30
0.0
 11
529.7620717981321
 21
-548.887867962081
 31
0.0
  0
ARC
  5
235DE
330
18
100
AcDbEntity
  8
1HIDDEN
100
AcDbCircle
 10
449.7621301686813
 20
-560.8878679620833
 30
0.0
 40
12.0
100
AcDbArc
 50
90.0
 51
180.0
  0
LINE
  5
235DF
330
18
100
AcDbEntity
  8
1HIDDEN
100
AcDbLine
 10
480.7621301686813
 20
-550.8878679620824
 30
0.0
 11
529.7620717981321
 21
-550.8878679620809
 31
0.0
  0
ARC
  5
235E0
330
18
100
AcDbEntity
  8
1HIDDEN
100
AcDbCircle
 10
480.7621301686813
 20
-560.8878679620824
 30
0.0
 40
10.0
100
AcDbArc
 50
90.0
 51
180.0
  0
LINE
  5
235E1
330
18
100
AcDbEntity
  8
1HIDDEN
100
AcDbLine
 10
480.7621301686813
 20
-555.8878679620824
 30
0.0
 11
529.7620717981321
 21
-555.8878679620809
 31
0.0
  0
ARC
  5
235E2
330
18
100
AcDbEntity
  8
1HIDDEN
100
AcDbCircle
 10
480.7621301686813
 20
-560.8878679620824
 30
0.0
 40
5.0
100
AcDbArc
 50
90.0
 51
180.0
  0
ARC
  5
235E3
330
18
100
AcDbEntity
  8
01
100
AcDbCircle
 10
655.7621301686813
 20
-560.8878679620806
 30
0.0
 40
12.0
100
AcDbArc
 50
0.0
 51
90.0
  0
ARC
  5
235E4
330
18
100
AcDbEntity
  8
01
100
AcDbCircle
 10
655.7621301686813
 20
-560.8878679620806
 30
0.0
 40
10.0
100
AcDbArc
 50
0.0
 51
90.0
  0
ARC
  5
235E5
330
18
100
AcDbEntity
  8
01
100
AcDbCircle
 10
655.7621301686813
 20
-560.8878679620806
 30
0.0
 40
5.0
100
AcDbArc
 50
0.0
 51
90.0
  0
LINE
  5
235E6
330
18
100
AcDbEntity
  8
1HIDDEN
100
AcDbLine
 10
449.7621301686813
 20
-592.8878679620833
 30
0.0
 11
529.3446601599182
 21
-592.887867962081
 31
0.0
  0
LINE
  5
235E7
330
18
100
AcDbEntity
  8
1HIDDEN
100
AcDbLine
 10
480.7621301686813
 20
-590.8878679620824
 30
0.0
 11
529.7620717981322
 21
-590.8878679620809
 31
0.0
  0
ARC
  5
235E8
330
18
100
AcDbEntity
  8
1HIDDEN
100
AcDbCircle
 10
480.7621301686813
 20
-580.8878679620824
 30
0.0
 40
10.0
100
AcDbArc
 50
180.0
 51
270.0
  0
LINE
  5
235E9
330
18
100
AcDbEntity
  8
1HIDDEN
100
AcDbLine
 10
480.7621301686813
 20
-585.8878679620824
 30
0.0
 11
529.7620717981322
 21
-585.8878679620809
 31
0.0
  0
ARC
  5
235EA
330
18
100
AcDbEntity
  8
1HIDDEN
100
AcDbCircle
 10
449.7621301686813
 20
-580.8878679620833
 30
0.0
 40
12.0
100
AcDbArc
 50
180.0
 51
270.0
  0
LINE
  5
235EB
330
18
100
AcDbEntity
  8
1HIDDEN
100
AcDbLine
 10
475.7621301686813
 20
-580.8878679620824
 30
0.0
 11
475.7621301686813
 21
-560.8878679620824
 31
0.0
  0
LINE
  5
2361C
330
18
100
AcDbEntity
  8
01
100
AcDbLine
 10
529.3446601599182
 20
-592.887867962081
 30
0.0
 11
655.7621301686818
 21
-592.8878679620774
 31
0.0
  0
LINE
  5
2361D
330
18
100
AcDbEntity
  8
01
100
AcDbLine
 10
529.7620717981322
 20
-585.887867962081
 30
0.0
 11
655.7621301686813
 21
-585.8878679620774
 31
0.0
  0
LINE
  5
2361E
330
18
100
AcDbEntity
  8
01
100
AcDbLine
 10
529.7620717981322
 20
-590.887867962081
 30
0.0
 11
655.7621301686813
 21
-590.8878679620774
 31
0.0
  0
LINE
  5
2361F
330
18
100
AcDbEntity
  8
01
100
AcDbLine
 10
529.7620717981321
 20
-555.887867962081
 30
0.0
 11
655.7621301686813
 21
-555.8878679620774
 31
0.0
  0
LINE
  5
23620
330
18
100
AcDbEntity
  8
01
100
AcDbLine
 10
529.7620717981321
 20
-548.887867962081
 30
0.0
 11
655.7621301686809
 21
-548.8878679620774
 31
0.0
  0
LINE
  5
23621
330
18
100
AcDbEntity
  8
01
100
AcDbLine
 10
529.7620717981321
 20
-550.887867962081
 30
0.0
 11
655.7621301686813
 21
-550.8878679620774
 31
0.0
  0
LINE
  5
23622
330
18
100
AcDbEntity
  8
1PHANTOM
100
AcDbLine
 10
449.7620721211725
 20
-778.8879260095949
 30
0.0
 11
429.7620721211725
 21
-778.8879260095949
 31
0.0
  0
LINE
  5
23623
330
18
100
AcDbEntity
  8
1PHANTOM
100
AcDbLine
 10
449.7620721211725
 20
-776.8879260095949
 30
0.0
 11
429.7620721211725
 21
-776.8879260095949
 31
0.0
  0
LINE
  5
23624
330
18
100
AcDbEntity
  8
1PHANTOM
100
AcDbLine
 10
449.7620721211725
 20
-771.8879260095949
 30
0.0
 11
429.7620721211725
 21
-771.8879260095949
 31
0.0
  0
ARC
  5
23625
330
18
100
AcDbEntity
  8
1PHANTOM
100
AcDbCircle
 10
429.7620721211708
 20
-591.8879260095949
 30
0.0
 40
5.0
100
AcDbArc
 50
90.0
 51
180.0
  0
LINE
  5
23626
330
18
100
AcDbEntity
  8
1PHANTOM
100
AcDbLine
 10
449.7620721211708
 20
-581.8879260095949
 30
0.0
 11
429.7620721211708
 21
-581.8879260095949
 31
0.0
  0
ARC
  5
23627
330
18
100
AcDbEntity
  8
1PHANTOM
100
AcDbCircle
 10
429.7620721211725
 20
-766.8879260095949
 30
0.0
 40
12.0
100
AcDbArc
 50
180.0
 51
270.0
  0
ARC
  5
23628
330
18
100
AcDbEntity
  8
1PHANTOM
100
AcDbCircle
 10
429.7620721211725
 20
-766.8879260095949
 30
0.0
 40
10.0
100
AcDbArc
 50
180.0
 51
270.0
  0
ARC
  5
23629
330
18
100
AcDbEntity
  8
1PHANTOM
100
AcDbCircle
 10
429.7620721211725
 20
-766.8879260095949
 30
0.0
 40
5.0
100
AcDbArc
 50
180.0
 51
270.0
  0
LINE
  5
2362A
330
18
100
AcDbEntity
  8
1PHANTOM
100
AcDbLine
 10
461.7620721211699
 20
-560.8879260095949
 30
0.0
 11
461.7620721211712
 21
-609.3591544709956
 31
0.0
  0
LINE
  5
2362B
330
18
100
AcDbEntity
  8
1PHANTOM
100
AcDbLine
 10
461.7620721211743
 20
-715.9701045079028
 30
0.0
 11
461.7620721211757
 21
-766.8879260095945
 31
0.0
  0
LINE
  5
2362C
330
18
100
AcDbEntity
  8
1PHANTOM
100
AcDbLine
 10
459.7620721211708
 20
-591.8879260095949
 30
0.0
 11
459.7620721211714
 21
-609.3591544709956
 31
0.0
  0
LINE
  5
2362D
330
18
100
AcDbEntity
  8
1PHANTOM
100
AcDbLine
 10
459.7620721211743
 20
-715.9701045079028
 30
0.0
 11
459.7620721211757
 21
-766.8879260095949
 31
0.0
  0
ARC
  5
2362E
330
18
100
AcDbEntity
  8
1PHANTOM
100
AcDbCircle
 10
449.7620721211708
 20
-591.8879260095949
 30
0.0
 40
10.0
100
AcDbArc
 50
0.0
 51
90.0
  0
LINE
  5
2362F
330
18
100
AcDbEntity
  8
1PHANTOM
100
AcDbLine
 10
454.7620721211708
 20
-591.8879260095949
 30
0.0
 11
454.7620721211714
 21
-609.3591544709956
 31
0.0
  0
LINE
  5
23630
330
18
100
AcDbEntity
  8
1PHANTOM
100
AcDbLine
 10
454.7620721211743
 20
-715.9701045079028
 30
0.0
 11
454.7620721211757
 21
-766.8879260095949
 31
0.0
  0
ARC
  5
23631
330
18
100
AcDbEntity
  8
1PHANTOM
100
AcDbCircle
 10
449.7620721211708
 20
-591.8879260095949
 30
0.0
 40
5.0
100
AcDbArc
 50
0.0
 51
90.0
  0
ARC
  5
23632
330
18
100
AcDbEntity
  8
1PHANTOM
100
AcDbCircle
 10
449.7620721211725
 20
-766.8879260095949
 30
0.0
 40
12.0
100
AcDbArc
 50
270.0
 51
0.0
  0
ARC
  5
23633
330
18
100
AcDbEntity
  8
1PHANTOM
100
AcDbCircle
 10
449.7620721211725
 20
-766.8879260095949
 30
0.0
 40
10.0
100
AcDbArc
 50
270.0
 51
0.0
  0
ARC
  5
23634
330
18
100
AcDbEntity
  8
1PHANTOM
100
AcDbCircle
 10
449.7620721211725
 20
-766.8879260095949
 30
0.0
 40
5.0
100
AcDbArc
 50
270.0
 51
0.0
  0
LINE
  5
23635
330
18
100
AcDbEntity
  8
1PHANTOM
100
AcDbLine
 10
417.7620721211699
 20
-560.8879260095949
 30
0.0
 11
417.7620721211757
 21
-766.8879260095954
 31
0.0
  0
LINE
  5
23636
330
18
100
AcDbEntity
  8
1PHANTOM
100
AcDbLine
 10
419.7620721211708
 20
-591.8879260095949
 30
0.0
 11
419.7620721211757
 21
-766.8879260095949
 31
0.0
  0
ARC
  5
23637
330
18
100
AcDbEntity
  8
1PHANTOM
100
AcDbCircle
 10
429.7620721211708
 20
-591.8879260095949
 30
0.0
 40
10.0
100
AcDbArc
 50
90.0
 51
180.0
  0
LINE
  5
23638
330
18
100
AcDbEntity
  8
1PHANTOM
100
AcDbLine
 10
424.7620721211708
 20
-591.8879260095949
 30
0.0
 11
424.7620721211757
 21
-766.8879260095949
 31
0.0
  0
LINE
  5
23639
330
18
100
AcDbEntity
  8
1PHANTOM
100
AcDbLine
 10
429.7620721211708
 20
-586.8879260095949
 30
0.0
 11
449.7620721211708
 21
-586.8879260095949
 31
0.0
  0
LINE
  5
23647
330
18
100
AcDbEntity
  8
1PHANTOM
100
AcDbLine
 10
449.7620721211699
 20
-548.8879260095949
 30
0.0
 11
429.7620721211699
 21
-548.8879260095949
 31
0.0
  0
ARC
  5
23648
330
18
100
AcDbEntity
  8
1PHANTOM
100
AcDbCircle
 10
449.7620721211699
 20
-560.8879260095949
 30
0.0
 40
12.0
100
AcDbArc
 50
0.0
 51
90.0
  0
ARC
  5
23649
330
18
100
AcDbEntity
  8
1PHANTOM
100
AcDbCircle
 10
429.7620721211699
 20
-560.8879260095949
 30
0.0
 40
12.0
100
AcDbArc
 50
90.0
 51
180.0
  0
LINE
  5
2364C
330
18
100
AcDbEntity
  8
01
100
AcDbLine
 10
438.762101144929
 20
-645.3213303512666
 30
0.0
 11
666.7620721211757
 21
-645.3213303512666
 31
0.0
  0
ARC
  5
2364D
330
18
100
AcDbEntity
  8
01
100
AcDbCircle
 10
666.7620721211757
 20
-646.3213303512666
 30
0.0
 40
1.0
100
AcDbArc
 50
0.0
 51
90.0
  0
LINE
  5
2364E
330
18
100
AcDbEntity
  8
01
100
AcDbLine
 10
666.7620721211757
 20
-666.3213303512666
 30
0.0
 11
438.762101144929
 21
-666.3213303512666
 31
0.0
  0
ARC
  5
2364F
330
18
100
AcDbEntity
  8
01
100
AcDbCircle
 10
438.762101144929
 20
-665.3213303512666
 30
0.0
 40
1.0
100
AcDbArc
 50
180.0
 51
270.0
  0
LINE
  5
23650
330
18
100
AcDbEntity
  8
01
100
AcDbLine
 10
437.762101144929
 20
-646.3213303512666
 30
0.0
 11
437.762101144929
 21
-665.3213303512666
 31
0.0
  0
ARC
  5
23651
330
18
100
AcDbEntity
  8
01
100
AcDbCircle
 10
438.762101144929
 20
-646.3213303512666
 30
0.0
 40
1.0
100
AcDbArc
 50
90.0
 51
180.0
  0
LINE
  5
23652
330
18
100
AcDbEntity
  8
01
100
AcDbLine
 10
667.7620721211757
 20
-646.3213303512666
 30
0.0
 11
667.7620721211757
 21
-665.3213303512666
 31
0.0
  0
ARC
  5
23653
330
18
100
AcDbEntity
  8
01
100
AcDbCircle
 10
666.7620721211757
 20
-665.3213303512666
 30
0.0
 40
1.0
100
AcDbArc
 50
270.0
 51
0.0
  0
LINE
  5
23654
330
18
100
AcDbEntity
  8
01
100
AcDbLine
 10
676.1596769823725
 20
-666.3207110441252
 30
0.0
 11
676.1580125613784
 21
-666.3207749328135
 31
0.0
  0
LINE
  5
23655
330
18
100
AcDbEntity
  8
01
100
AcDbLine
 10
676.1684698731897
 20
-666.3203158472364
 30
0.0
 11
676.1651236215082
 21
-666.3204776792288
 31
0.0
  0
LINE
  5
23656
330
18
100
AcDbEntity
  8
01
100
AcDbLine
 10
676.1714358005893
 20
-666.3201608400841
 30
0.0
 11
676.158012564779
 21
-666.320775002469
 31
0.0
  0
LINE
  5
23657
330
18
100
AcDbEntity
  8
01
100
AcDbLine
 10
674.4572606495749
 20
-646.3213303512662
 30
0.0
 11
674.4572606495749
 21
-665.3213303512662
 31
0.0
  0
ARC
  5
23658
330
18
100
AcDbEntity
  8
01
100
AcDbCircle
 10
675.4572606495749
 20
-646.3213303512662
 30
0.0
 40
1.0
100
AcDbArc
 50
90.0
 51
180.0
  0
ARC
  5
23659
330
18
100
AcDbEntity
  8
01
100
AcDbCircle
 10
675.4572606495749
 20
-665.3213303512662
 30
0.0
 40
1.0
100
AcDbArc
 50
180.0
 51
270.0
  0
TEXT
  5
2365A
330
18
100
AcDbEntity
  8
1TEXT
100
AcDbText
 10
551.9407337164987
 20
-737.9684581820295
 30
0.0
 40
4.0
  1
コード
 72
     1
 11
558.8074003831654
 21
-737.9684581820295
 31
0.0
100
AcDbText
  0
TEXT
  5
2377B
330
18
100
AcDbEntity
  8
01
  6
CONTINUOUS
100
AcDbText
 10
734.444776160398
 20
-611.3902613041472
 30
0.0
 40
3.5
  1
PB
100
AcDbText
  0
TEXT
  5
2377C
330
18
100
AcDbEntity
  8
01
  6
CONTINUOUS
100
AcDbText
 10
747.5801943055632
 20
-611.3902613041472
 30
0.0
 40
3.5
  1
合板9mm以上
100
AcDbText
  0
LINE
  5
2377D
330
18
100
AcDbEntity
  8
1DIM
100
AcDbLine
 10
535.430682765844
 20
-666.3213303512655
 30
0.0
 11
545.2458307863246
 21
-666.3213303512655
 31
0.0
1001
ACAD
1000
DSTYLE
1002
{
1070
    45
1040
0.5
1002
}
  0
LINE
  5
2377E
330
18
100
AcDbEntity
  8
1DIM
100
AcDbLine
 10
535.430682765844
 20
-645.3213303512656
 30
0.0
 11
545.2458307863246
 21
-645.3213303512656
 31
0.0
1001
ACAD
1000
DSTYLE
1002
{
1070
    45
1040
0.5
1002
}
  0
LINE
  5
2377F
330
18
100
AcDbEntity
  8
1DIM
100
AcDbLine
 10
544.2458307863246
 20
-645.3213303512656
 30
0.0
 11
544.2458307863246
 21
-637.2546636845988
 31
0.0
1001
ACAD
1000
DSTYLE
1002
{
1070
    45
1040
0.5
1002
}
  0
LINE
  5
23780
330
18
100
AcDbEntity
  8
1DIM
100
AcDbLine
 10
544.2458307863246
 20
-664.3213303512655
 30
0.0
 11
544.2458307863246
 21
-647.3213303512656
 31
0.0
1001
ACAD
1000
DSTYLE
1002
{
1070
    45
1040
0.5
1002
}
  0
SOLID
  5
23784
330
18
100
AcDbEntity
  8
1DIM
100
AcDbTrace
 10
613.4156878035737
 20
-665.4294195362772
 30
0.0
 11
614.8145765447105
 21
-663.9616929265055
 31
0.0
 12
613.9673228522098
 22
-665.8037766085502
 32
0.0
 13
613.9673228522098
 23
-665.8037766085502
 33
0.0
1001
ACAD
1000
DSTYLE
1002
{
1070
    45
1040
0.5
1002
}
  0
LINE
  5
23785
330
18
100
AcDbEntity
  8
1DIM
100
AcDbLine
 10
613.6915053278918
 20
-665.6165980724137
 30
0.0
 11
604.2915864271279
 21
-679.4678783180777
 31
0.0
1001
ACAD
1000
DSTYLE
1002
{
1070
    45
1040
0.5
1002
}
  0
LINE
  5
23786
330
18
100
AcDbEntity
  8
1DIM
100
AcDbLine
 10
604.2915864271279
 20
-679.4678783180777
 30
0.0
 11
557.0249197604612
 21
-679.4678783180777
 31
0.0
1001
ACAD
1000
DSTYLE
1002
{
1070
    45
1040
0.5
1002
}
  0
TEXT
  5
23787
330
18
100
AcDbEntity
  8
1DIM
  6
CONTINUOUS
100
AcDbText
 10
556.7915864271278
 20
-672.9345449847443
 30
0.0
 40
3.5
  1
材質：亜鉛ダイキャスト
100
AcDbText
  0
TEXT
  5
23788
330
18
100
AcDbEntity
  8
1DIM
  6
CONTINUOUS
100
AcDbText
 10
564.7249197604611
 20
-678.7678783180777
 30
0.0
 40
3.5
  1
仕上げ：各種メッキ
100
AcDbText
  0
LINE
  5
23789
330
18
100
AcDbEntity
  8
1DIM
100
AcDbLine
 10
674.4572606495749
 20
-665.3213303512662
 30
0.0
 11
674.4572606495749
 21
-712.4213303512677
 31
0.0
1001
ACAD
1000
DSTYLE
1002
{
1070
    45
1040
0.5
1002
}
  0
LINE
  5
2378A
330
18
100
AcDbEntity
  8
1DIM
100
AcDbLine
 10
727.7072606495755
 20
-693.0495039365483
 30
0.0
 11
727.7072606495755
 21
-712.4213303512677
 31
0.0
1001
ACAD
1000
DSTYLE
1002
{
1070
    45
1040
0.5
1002
}
  0
LINE
  5
2378B
330
18
100
AcDbEntity
  8
1DIM
100
AcDbLine
 10
676.4572606495749
 20
-711.4213303512677
 30
0.0
 11
725.7072606495755
 21
-711.4213303512677
 31
0.0
1001
ACAD
1000
DSTYLE
1002
{
1070
    45
1040
0.5
1002
}
  0
LINE
  5
2378F
330
18
100
AcDbEntity
  8
1DIM
100
AcDbLine
 10
757.4172905371692
 20
-642.8213303512671
 30
0.0
 11
763.4067009767085
 21
-642.8213303512671
 31
0.0
1001
ACAD
1000
DSTYLE
1002
{
1070
    45
1040
0.5
1070
   271
1070
     0
1002
}
  0
LINE
  5
23790
330
18
100
AcDbEntity
  8
1DIM
100
AcDbLine
 10
727.7072606495755
 20
-622.321330028231
 30
0.0
 11
763.4067009767085
 21
-622.321330028231
 31
0.0
1001
ACAD
1000
DSTYLE
1002
{
1070
    45
1040
0.5
1070
   271
1070
     0
1002
}
  0
LINE
  5
23791
330
18
100
AcDbEntity
  8
1DIM
100
AcDbLine
 10
762.4067009767085
 20
-640.8213303512671
 30
0.0
 11
762.4067009767085
 21
-624.321330028231
 31
0.0
1001
ACAD
1000
DSTYLE
1002
{
1070
    45
1040
0.5
1070
   271
1070
     0
1002
}
  0
SOLID
  5
23795
330
18
100
AcDbEntity
  8
1DIM
100
AcDbTrace
 10
731.3618669539758
 20
-624.9354292138315
 30
0.0
 11
730.6209322272829
 21
-626.8227889680627
 31
0.0
 12
730.7096997511607
 22
-624.797145505403
 32
0.0
 13
730.7096997511607
 23
-624.797145505403
 33
0.0
1001
ACAD
1000
DSTYLE
1002
{
1070
    45
1040
0.5
1002
}
  0
LINE
  5
23796
330
18
100
AcDbEntity
  8
1DIM
100
AcDbLine
 10
731.0357833525682
 20
-624.8662873596172
 30
0.0
 11
733.7447761603979
 21
-612.0902613041472
 31
0.0
1001
ACAD
1000
DSTYLE
1002
{
1070
    45
1040
0.5
1002
}
  0
SOLID
  5
23797
330
18
100
AcDbEntity
  8
1DIM
100
AcDbTrace
 10
744.497285099141
 20
-624.9354292138315
 30
0.0
 11
743.7563503724481
 21
-626.8227889680627
 31
0.0
 12
743.8451178963259
 22
-624.797145505403
 32
0.0
 13
743.8451178963259
 23
-624.797145505403
 33
0.0
1001
ACAD
1000
DSTYLE
1002
{
1070
    45
1040
0.5
1002
}
  0
LINE
  5
23798
330
18
100
AcDbEntity
  8
1DIM
100
AcDbLine
 10
744.1712014977334
 20
-624.8662873596172
 30
0.0
 11
746.8801943055631
 21
-612.0902613041472
 31
0.0
1001
ACAD
1000
DSTYLE
1002
{
1070
    45
1040
0.5
1002
}
  0
LINE
  5
23799
330
18
100
AcDbEntity
  8
1DIM
100
AcDbLine
 10
757.4172905371692
 20
-668.8213303512657
 30
0.0
 11
763.4067009767085
 21
-668.8213303512657
 31
0.0
1001
ACAD
1000
DSTYLE
1002
{
1070
    45
1040
0.5
1002
}
  0
LINE
  5
2379A
330
18
100
AcDbEntity
  8
1DIM
100
AcDbLine
 10
757.4172905371692
 20
-642.8213303512671
 30
0.0
 11
763.4067009767085
 21
-642.8213303512671
 31
0.0
1001
ACAD
1000
DSTYLE
1002
{
1070
    45
1040
0.5
1002
}
  0
LINE
  5
2379B
330
18
100
AcDbEntity
  8
1DIM
100
AcDbLine
 10
762.4067009767085
 20
-666.8213303512657
 30
0.0
 11
762.4067009767085
 21
-644.8213303512671
 31
0.0
1001
ACAD
1000
DSTYLE
1002
{
1070
    45
1040
0.5
1002
}
  0
LINE
  5
2379F
330
18
100
AcDbEntity
  8
1DIM
100
AcDbLine
 10
433.7620721211667
 20
-624.5772997003754
 30
0.0
 11
433.7620721211667
 21
-700.7304868511665
 31
0.0
1001
ACAD
1000
DSTYLE
1002
{
1070
    45
1040
0.5
1002
}
  0
LINE
  5
237A0
330
18
100
AcDbEntity
  8
1DIM
100
AcDbLine
 10
450.7620391130108
 20
-672.1962877769332
 30
0.0
 11
450.7620391130108
 21
-700.7304868511665
 31
0.0
1001
ACAD
1000
DSTYLE
1002
{
1070
    45
1040
0.5
1002
}
  0
LINE
  5
237A1
330
18
100
AcDbEntity
  8
1DIM
100
AcDbLine
 10
435.7620721211667
 20
-699.7304868511665
 30
0.0
 11
448.7620391130108
 21
-699.7304868511665
 31
0.0
1001
ACAD
1000
DSTYLE
1002
{
1070
    45
1040
0.5
1002
}
  0
LINE
  5
237A5
330
18
100
AcDbEntity
  8
1DIM
100
AcDbLine
 10
512.7621051293304
 20
-672.1962877769332
 30
0.0
 11
512.7621051293304
 21
-700.7304868511665
 31
0.0
1001
ACAD
1000
DSTYLE
1002
{
1070
    45
1040
0.5
1002
}
  0
LINE
  5
237A6
330
18
100
AcDbEntity
  8
1DIM
100
AcDbLine
 10
450.7620391130108
 20
-672.1962877769332
 30
0.0
 11
450.7620391130108
 21
-700.7304868511665
 31
0.0
1001
ACAD
1000
DSTYLE
1002
{
1070
    45
1040
0.5
1002
}
  0
LINE
  5
237A7
330
18
100
AcDbEntity
  8
1DIM
100
AcDbLine
 10
510.7621051293304
 20
-699.7304868511665
 30
0.0
 11
452.7620391130108
 21
-699.7304868511665
 31
0.0
1001
ACAD
1000
DSTYLE
1002
{
1070
    45
1040
0.5
1002
}
  0
LINE
  5
237AB
330
18
100
AcDbEntity
  8
1DIM
100
AcDbLine
 10
433.7620721211667
 20
-624.5582868577729
 30
0.0
 11
433.7620721211667
 21
-712.4213303512677
 31
0.0
1001
ACAD
1000
DSTYLE
1002
{
1070
    45
1040
0.5
1002
}
  0
LINE
  5
237AC
330
18
100
AcDbEntity
  8
1DIM
100
AcDbLine
 10
667.7620721211757
 20
-665.3213303512666
 30
0.0
 11
667.7620721211757
 21
-712.4213303512677
 31
0.0
1001
ACAD
1000
DSTYLE
1002
{
1070
    45
1040
0.5
1002
}
  0
LINE
  5
237AD
330
18
100
AcDbEntity
  8
1DIM
100
AcDbLine
 10
435.7620721211667
 20
-711.4213303512677
 30
0.0
 11
665.7620721211757
 21
-711.4213303512677
 31
0.0
1001
ACAD
1000
DSTYLE
1002
{
1070
    45
1040
0.5
1002
}
  0
LINE
  5
237B2
330
18
100
AcDbEntity
  8
1CENTER
100
AcDbLine
 10
757.4172905371692
 20
-668.8213303512657
 30
0.0
 11
719.5841574897944
 21
-668.8213303512657
 31
0.0
  0
LINE
  5
237B3
330
18
100
AcDbEntity
  8
0
100
AcDbLine
 10
748.7627978365083
 20
-667.3213768871636
 30
0.0
 11
748.8627989999054
 21
-666.8213768871636
 31
0.0
  0
LINE
  5
237B4
330
18
100
AcDbEntity
  8
0
100
AcDbLine
 10
748.8627989999054
 20
-666.8213768871636
 30
0.0
 11
749.662789692728
 21
-670.8213768871636
 31
0.0
  0
LINE
  5
237B5
330
18
100
AcDbEntity
  8
0
100
AcDbLine
 10
749.662789692728
 20
-670.8213768871636
 30
0.0
 11
749.7627908561251
 21
-670.3213768871636
 31
0.0
  0
LINE
  5
237B6
330
18
100
AcDbEntity
  8
0
100
AcDbLine
 10
747.1627978365084
 20
-667.3213768871636
 30
0.0
 11
747.2627989999055
 21
-666.8213768871636
 31
0.0
  0
LINE
  5
237B7
330
18
100
AcDbEntity
  8
0
100
AcDbLine
 10
748.0627896927281
 20
-670.8213768871636
 30
0.0
 11
748.1627908561252
 21
-670.3213768871636
 31
0.0
  0
LINE
  5
237B8
330
18
100
AcDbEntity
  8
0
100
AcDbLine
 10
747.2627989999055
 20
-666.8213768871636
 30
0.0
 11
748.0627896927281
 21
-670.8213768871636
 31
0.0
  0
LINE
  5
237B9
330
18
100
AcDbEntity
  8
0
100
AcDbLine
 10
745.5627978365083
 20
-667.3213768871636
 30
0.0
 11
745.6627989999054
 21
-666.8213768871636
 31
0.0
  0
LINE
  5
237BA
330
18
100
AcDbEntity
  8
0
100
AcDbLine
 10
745.6627989999054
 20
-666.8213768871636
 30
0.0
 11
746.4627896927279
 21
-670.8213768871636
 31
0.0
  0
LINE
  5
237BB
330
18
100
AcDbEntity
  8
0
100
AcDbLine
 10
746.4627896927279
 20
-670.8213768871636
 30
0.0
 11
746.562790856125
 21
-670.3213768871636
 31
0.0
  0
LINE
  5
237BC
330
18
100
AcDbEntity
  8
0
100
AcDbLine
 10
737.5627978365083
 20
-667.3213768871636
 30
0.0
 11
737.6627989999054
 21
-666.8213768871636
 31
0.0
  0
LINE
  5
237BD
330
18
100
AcDbEntity
  8
0
100
AcDbLine
 10
738.4627896927279
 20
-670.8213768871636
 30
0.0
 11
738.562790856125
 21
-670.3213768871636
 31
0.0
  0
LINE
  5
237BE
330
18
100
AcDbEntity
  8
0
100
AcDbLine
 10
740.0627896927281
 20
-670.8213768871636
 30
0.0
 11
740.1627908561252
 21
-670.3213768871636
 31
0.0
  0
LINE
  5
237BF
330
18
100
AcDbEntity
  8
0
100
AcDbLine
 10
739.1627978365084
 20
-667.3213768871636
 30
0.0
 11
739.2627989999055
 21
-666.8213768871636
 31
0.0
  0
LINE
  5
237C0
330
18
100
AcDbEntity
  8
0
100
AcDbLine
 10
740.7627978365083
 20
-667.3213768871636
 30
0.0
 11
740.8627989999054
 21
-666.8213768871636
 31
0.0
  0
LINE
  5
237C1
330
18
100
AcDbEntity
  8
0
100
AcDbLine
 10
739.2627989999055
 20
-666.8213768871636
 30
0.0
 11
740.0627896927281
 21
-670.8213768871636
 31
0.0
  0
LINE
  5
237C2
330
18
100
AcDbEntity
  8
0
100
AcDbLine
 10
737.6627989999054
 20
-666.8213768871636
 30
0.0
 11
738.4627896927279
 21
-670.8213768871636
 31
0.0
  0
LINE
  5
237C3
330
18
100
AcDbEntity
  8
0
100
AcDbLine
 10
742.3627978365082
 20
-667.3213768871636
 30
0.0
 11
742.4627989999053
 21
-666.8213768871636
 31
0.0
  0
LINE
  5
237C4
330
18
100
AcDbEntity
  8
0
100
AcDbLine
 10
750.5627978365083
 20
-667.3213768871636
 30
0.0
 11
750.6627989999054
 21
-666.8213768871636
 31
0.0
  0
LINE
  5
237C5
330
18
100
AcDbEntity
  8
0
100
AcDbLine
 10
750.6627989999054
 20
-666.8213768871636
 30
0.0
 11
751.4627902195306
 21
-670.5949698349597
 31
0.0
  0
LINE
  5
237C6
330
18
100
AcDbEntity
  8
0
100
AcDbLine
 10
751.4627902195306
 20
-670.5949698349597
 30
0.0
 11
751.5920609171604
 21
-670.0583760996885
 31
0.0
  0
LINE
  5
237C7
330
18
100
AcDbEntity
  8
0
100
AcDbLine
 10
743.2627896927279
 20
-670.8213768871636
 30
0.0
 11
743.362790856125
 21
-670.3213768871636
 31
0.0
  0
LINE
  5
237C8
330
18
100
AcDbEntity
  8
0
100
AcDbLine
 10
744.862789692728
 20
-670.8213768871636
 30
0.0
 11
744.9627908561251
 21
-670.3213768871636
 31
0.0
  0
LINE
  5
237C9
330
18
100
AcDbEntity
  8
0
100
AcDbLine
 10
743.9627978365083
 20
-667.3213768871636
 30
0.0
 11
744.0627989999055
 21
-666.8213768871636
 31
0.0
  0
LINE
  5
237CA
330
18
100
AcDbEntity
  8
0
100
AcDbLine
 10
744.0627989999055
 20
-666.8213768871636
 30
0.0
 11
744.862789692728
 21
-670.8213768871636
 31
0.0
  0
LINE
  5
237CB
330
18
100
AcDbEntity
  8
0
100
AcDbLine
 10
742.4627989999053
 20
-666.8213768871636
 30
0.0
 11
743.2627896927279
 21
-670.8213768871636
 31
0.0
  0
LINE
  5
237CC
330
18
100
AcDbEntity
  8
0
100
AcDbLine
 10
752.2627979462951
 20
-667.2741930292224
 30
0.0
 11
753.0627912731362
 21
-670.1421557305529
 31
0.0
  0
LINE
  5
237CD
330
18
100
AcDbEntity
  8
0
100
AcDbLine
 10
753.8627968926909
 20
-667.7270065372707
 30
0.0
 11
754.6627923267419
 21
-669.6893416261461
 31
0.0
  0
LINE
  5
237CE
330
18
100
AcDbEntity
  8
0
100
AcDbLine
 10
753.0627912731362
 20
-670.1421557305529
 30
0.0
 11
753.2455554157642
 21
-669.5904062667496
 31
0.0
  0
LINE
  5
237CF
330
18
100
AcDbEntity
  8
0
100
AcDbLine
 10
753.7113610962505
 20
-668.1841783779017
 30
0.0
 11
753.8627968926909
 21
-667.7270065372707
 31
0.0
  0
LINE
  5
237D0
330
18
100
AcDbEntity
  8
0
100
AcDbLine
 10
754.6627923267419
 20
-669.6893416261461
 30
0.0
 11
754.974562182994
 21
-669.1010650511037
 31
0.0
  0
LINE
  5
237D1
330
18
100
AcDbEntity
  8
0
100
AcDbLine
 10
752.1500284339451
 20
-667.7422914843723
 30
0.0
 11
752.2627979462951
 21
-667.2741930292224
 31
0.0
  0
LINE
  5
237D2
330
18
100
AcDbEntity
  8
0
100
AcDbLine
 10
741.662789692728
 20
-670.8213768871636
 30
0.0
 11
741.7627908561251
 21
-670.3213768871636
 31
0.0
  0
LINE
  5
237D3
330
18
100
AcDbEntity
  8
0
100
AcDbLine
 10
740.8627989999054
 20
-666.8213768871636
 30
0.0
 11
741.662789692728
 21
-670.8213768871636
 31
0.0
  0
LINE
  5
237D4
330
18
100
AcDbEntity
  8
0
100
AcDbLine
 10
723.9627908561082
 20
-670.3213768871636
 30
0.0
 11
724.0627896927105
 21
-670.8213768871636
 31
0.0
  0
LINE
  5
237D5
330
18
100
AcDbEntity
  8
0
100
AcDbLine
 10
724.8627989998967
 20
-666.8213768871636
 30
0.0
 11
725.6627896927148
 21
-670.8213768871636
 31
0.0
  0
LINE
  5
237D6
330
18
100
AcDbEntity
  8
0
100
AcDbLine
 10
728.0627989998966
 20
-666.8213768871636
 30
0.0
 11
728.8627896927148
 21
-670.8213768871636
 31
0.0
  0
LINE
  5
237D7
330
18
100
AcDbEntity
  8
0
100
AcDbLine
 10
728.8627896927148
 20
-670.8213768871636
 30
0.0
 11
728.9627908561126
 21
-670.3213768871636
 31
0.0
  0
LINE
  5
237D8
330
18
100
AcDbEntity
  8
0
100
AcDbLine
 10
725.6627896927148
 20
-670.8213768871636
 30
0.0
 11
725.7627908561126
 21
-670.3213768871636
 31
0.0
  0
LINE
  5
237D9
330
18
100
AcDbEntity
  8
0
100
AcDbLine
 10
726.3627978364989
 20
-667.3213768871636
 30
0.0
 11
726.4627989998964
 21
-666.8213768871636
 31
0.0
  0
LINE
  5
237DA
330
18
100
AcDbEntity
  8
0
100
AcDbLine
 10
727.2627896927147
 20
-670.8213768871636
 30
0.0
 11
727.3627908561125
 21
-670.3213768871636
 31
0.0
  0
LINE
  5
237DB
330
18
100
AcDbEntity
  8
0
100
AcDbLine
 10
726.4627989998964
 20
-666.8213768871636
 30
0.0
 11
727.2627896927147
 21
-670.8213768871636
 31
0.0
  0
LINE
  5
237DC
330
18
100
AcDbEntity
  8
0
100
AcDbLine
 10
727.962797836499
 20
-667.3213768871636
 30
0.0
 11
728.0627989998966
 21
-666.8213768871636
 31
0.0
  0
LINE
  5
237DD
330
18
100
AcDbEntity
  8
0
100
AcDbLine
 10
724.0627896927105
 20
-670.8213768871636
 30
0.0
 11
724.1627908561081
 21
-670.3213768871636
 31
0.0
  0
LINE
  5
237DE
330
18
100
AcDbEntity
  8
0
100
AcDbLine
 10
724.762797836499
 20
-667.3213768871636
 30
0.0
 11
724.8627989998967
 21
-666.8213768871636
 31
0.0
  0
LINE
  5
237DF
330
18
100
AcDbEntity
  8
0
100
AcDbLine
 10
721.2628036537118
 20
-664.8213303512657
 30
0.0
 11
721.2627850393526
 21
-672.8213303512657
 31
0.0
  0
LINE
  5
237E0
330
18
100
AcDbEntity
  8
0
100
AcDbLine
 10
729.5627978365033
 20
-667.3213768871636
 30
0.0
 11
729.662798999901
 21
-666.8213768871636
 31
0.0
  0
LINE
  5
237E1
330
18
100
AcDbEntity
  8
0
100
AcDbLine
 10
731.1627978365077
 20
-667.3213768871636
 30
0.0
 11
731.2627989999053
 21
-666.8213768871636
 31
0.0
  0
LINE
  5
237E2
330
18
100
AcDbEntity
  8
0
100
AcDbLine
 10
730.4627896927193
 20
-670.8213768871636
 30
0.0
 11
730.5627908561169
 21
-670.3213768871636
 31
0.0
  0
LINE
  5
237E3
330
18
100
AcDbEntity
  8
0
100
AcDbLine
 10
734.3627978365078
 20
-667.3213768871636
 30
0.0
 11
734.4627989999053
 21
-666.8213768871636
 31
0.0
  0
LINE
  5
237E4
330
18
100
AcDbEntity
  8
0
100
AcDbLine
 10
732.8627989999052
 20
-666.8213768871636
 30
0.0
 11
733.6627896927234
 21
-670.8213768871636
 31
0.0
  0
LINE
  5
237E5
330
18
100
AcDbEntity
  8
0
100
AcDbLine
 10
733.6627896927234
 20
-670.8213768871636
 30
0.0
 11
733.7627908561212
 21
-670.3213768871636
 31
0.0
  0
LINE
  5
237E6
330
18
100
AcDbEntity
  8
0
100
AcDbLine
 10
732.7627978365076
 20
-667.3213768871636
 30
0.0
 11
732.8627989999052
 21
-666.8213768871636
 31
0.0
  0
LINE
  5
237E7
330
18
100
AcDbEntity
  8
0
100
AcDbLine
 10
732.0627896927235
 20
-670.8213768871636
 30
0.0
 11
732.1627908561213
 21
-670.3213768871636
 31
0.0
  0
LINE
  5
237E8
330
18
100
AcDbEntity
  8
0
100
AcDbLine
 10
736.862789692728
 20
-670.8213768871636
 30
0.0
 11
736.9627908561251
 21
-670.3213768871636
 31
0.0
  0
LINE
  5
237E9
330
18
100
AcDbEntity
  8
0
100
AcDbLine
 10
735.2627896927236
 20
-670.8213768871636
 30
0.0
 11
735.3627908561214
 21
-670.3213768871636
 31
0.0
  0
LINE
  5
237EA
330
18
100
AcDbEntity
  8
0
100
AcDbLine
 10
735.9627978365077
 20
-667.3213768871636
 30
0.0
 11
736.0627989999055
 21
-666.8213768871636
 31
0.0
  0
LINE
  5
237EB
330
18
100
AcDbEntity
  8
0
100
AcDbLine
 10
736.0627989999055
 20
-666.8213768871636
 30
0.0
 11
736.862789692728
 21
-670.8213768871636
 31
0.0
  0
LINE
  5
237EC
330
18
100
AcDbEntity
  8
0
100
AcDbLine
 10
734.4627989999053
 20
-666.8213768871636
 30
0.0
 11
735.2627896927236
 21
-670.8213768871636
 31
0.0
  0
LINE
  5
237ED
330
18
100
AcDbEntity
  8
0
100
AcDbLine
 10
731.2627989999053
 20
-666.8213768871636
 30
0.0
 11
732.0627896927235
 21
-670.8213768871636
 31
0.0
  0
LINE
  5
237EE
330
18
100
AcDbEntity
  8
0
100
AcDbLine
 10
729.662798999901
 20
-666.8213768871636
 30
0.0
 11
730.4627896927193
 21
-670.8213768871636
 31
0.0
  0
LINE
  5
237F0
330
18
100
AcDbEntity
  8
1CENTER
100
AcDbLine
 10
757.4172905371692
 20
-642.8213303512671
 30
0.0
 11
719.5841574897944
 21
-642.8213303512671
 31
0.0
  0
LINE
  5
237F1
330
18
100
AcDbEntity
  8
0
100
AcDbLine
 10
748.7627978365083
 20
-641.321376887165
 30
0.0
 11
748.8627989999054
 21
-640.821376887165
 31
0.0
  0
LINE
  5
237F2
330
18
100
AcDbEntity
  8
0
100
AcDbLine
 10
748.8627989999054
 20
-640.821376887165
 30
0.0
 11
749.662789692728
 21
-644.821376887165
 31
0.0
  0
LINE
  5
237F3
330
18
100
AcDbEntity
  8
0
100
AcDbLine
 10
749.662789692728
 20
-644.821376887165
 30
0.0
 11
749.7627908561251
 21
-644.321376887165
 31
0.0
  0
LINE
  5
237F4
330
18
100
AcDbEntity
  8
0
100
AcDbLine
 10
747.1627978365084
 20
-641.321376887165
 30
0.0
 11
747.2627989999055
 21
-640.821376887165
 31
0.0
  0
LINE
  5
237F5
330
18
100
AcDbEntity
  8
0
100
AcDbLine
 10
748.0627896927281
 20
-644.821376887165
 30
0.0
 11
748.1627908561252
 21
-644.321376887165
 31
0.0
  0
LINE
  5
237F6
330
18
100
AcDbEntity
  8
0
100
AcDbLine
 10
747.2627989999055
 20
-640.821376887165
 30
0.0
 11
748.0627896927281
 21
-644.821376887165
 31
0.0
  0
LINE
  5
237F7
330
18
100
AcDbEntity
  8
0
100
AcDbLine
 10
745.5627978365083
 20
-641.321376887165
 30
0.0
 11
745.6627989999054
 21
-640.821376887165
 31
0.0
  0
LINE
  5
237F8
330
18
100
AcDbEntity
  8
0
100
AcDbLine
 10
745.6627989999054
 20
-640.821376887165
 30
0.0
 11
746.4627896927279
 21
-644.821376887165
 31
0.0
  0
LINE
  5
237F9
330
18
100
AcDbEntity
  8
0
100
AcDbLine
 10
746.4627896927279
 20
-644.821376887165
 30
0.0
 11
746.562790856125
 21
-644.321376887165
 31
0.0
  0
LINE
  5
237FA
330
18
100
AcDbEntity
  8
0
100
AcDbLine
 10
737.5627978365083
 20
-641.321376887165
 30
0.0
 11
737.6627989999054
 21
-640.821376887165
 31
0.0
  0
LINE
  5
237FB
330
18
100
AcDbEntity
  8
0
100
AcDbLine
 10
738.4627896927279
 20
-644.821376887165
 30
0.0
 11
738.562790856125
 21
-644.321376887165
 31
0.0
  0
LINE
  5
237FC
330
18
100
AcDbEntity
  8
0
100
AcDbLine
 10
740.0627896927281
 20
-644.821376887165
 30
0.0
 11
740.1627908561252
 21
-644.321376887165
 31
0.0
  0
LINE
  5
237FD
330
18
100
AcDbEntity
  8
0
100
AcDbLine
 10
739.1627978365084
 20
-641.321376887165
 30
0.0
 11
739.2627989999055
 21
-640.821376887165
 31
0.0
  0
LINE
  5
237FE
330
18
100
AcDbEntity
  8
0
100
AcDbLine
 10
740.7627978365083
 20
-641.321376887165
 30
0.0
 11
740.8627989999054
 21
-640.821376887165
 31
0.0
  0
LINE
  5
237FF
330
18
100
AcDbEntity
  8
0
100
AcDbLine
 10
739.2627989999055
 20
-640.821376887165
 30
0.0
 11
740.0627896927281
 21
-644.821376887165
 31
0.0
  0
LINE
  5
23800
330
18
100
AcDbEntity
  8
0
100
AcDbLine
 10
737.6627989999054
 20
-640.821376887165
 30
0.0
 11
738.4627896927279
 21
-644.821376887165
 31
0.0
  0
LINE
  5
23801
330
18
100
AcDbEntity
  8
0
100
AcDbLine
 10
742.3627978365082
 20
-641.321376887165
 30
0.0
 11
742.4627989999053
 21
-640.821376887165
 31
0.0
  0
LINE
  5
23802
330
18
100
AcDbEntity
  8
0
100
AcDbLine
 10
750.5627978365083
 20
-641.321376887165
 30
0.0
 11
750.6627989999054
 21
-640.821376887165
 31
0.0
  0
LINE
  5
23803
330
18
100
AcDbEntity
  8
0
100
AcDbLine
 10
750.6627989999054
 20
-640.821376887165
 30
0.0
 11
751.4627902195306
 21
-644.594969834961
 31
0.0
  0
LINE
  5
23804
330
18
100
AcDbEntity
  8
0
100
AcDbLine
 10
751.4627902195306
 20
-644.594969834961
 30
0.0
 11
751.5920609171604
 21
-644.0583760996899
 31
0.0
  0
LINE
  5
23805
330
18
100
AcDbEntity
  8
0
100
AcDbLine
 10
743.2627896927279
 20
-644.821376887165
 30
0.0
 11
743.362790856125
 21
-644.321376887165
 31
0.0
  0
LINE
  5
23806
330
18
100
AcDbEntity
  8
0
100
AcDbLine
 10
744.862789692728
 20
-644.821376887165
 30
0.0
 11
744.9627908561251
 21
-644.321376887165
 31
0.0
  0
LINE
  5
23807
330
18
100
AcDbEntity
  8
0
100
AcDbLine
 10
743.9627978365083
 20
-641.321376887165
 30
0.0
 11
744.0627989999055
 21
-640.821376887165
 31
0.0
  0
LINE
  5
23808
330
18
100
AcDbEntity
  8
0
100
AcDbLine
 10
744.0627989999055
 20
-640.821376887165
 30
0.0
 11
744.862789692728
 21
-644.821376887165
 31
0.0
  0
LINE
  5
23809
330
18
100
AcDbEntity
  8
0
100
AcDbLine
 10
742.4627989999053
 20
-640.821376887165
 30
0.0
 11
743.2627896927279
 21
-644.821376887165
 31
0.0
  0
LINE
  5
2380A
330
18
100
AcDbEntity
  8
0
100
AcDbLine
 10
752.2627979462951
 20
-641.2741930292237
 30
0.0
 11
753.0627912731362
 21
-644.1421557305542
 31
0.0
  0
LINE
  5
2380B
330
18
100
AcDbEntity
  8
0
100
AcDbLine
 10
753.8627968926909
 20
-641.727006537272
 30
0.0
 11
754.6627923267419
 21
-643.6893416261474
 31
0.0
  0
LINE
  5
2380C
330
18
100
AcDbEntity
  8
0
100
AcDbLine
 10
753.0627912731362
 20
-644.1421557305542
 30
0.0
 11
753.2455554157642
 21
-643.590406266751
 31
0.0
  0
LINE
  5
2380D
330
18
100
AcDbEntity
  8
0
100
AcDbLine
 10
753.7113610962505
 20
-642.1841783779031
 30
0.0
 11
753.8627968926909
 21
-641.727006537272
 31
0.0
  0
LINE
  5
2380E
330
18
100
AcDbEntity
  8
0
100
AcDbLine
 10
754.6627923267419
 20
-643.6893416261474
 30
0.0
 11
754.974562182994
 21
-643.101065051105
 31
0.0
  0
LINE
  5
2380F
330
18
100
AcDbEntity
  8
0
100
AcDbLine
 10
752.1500284339451
 20
-641.7422914843737
 30
0.0
 11
752.2627979462951
 21
-641.2741930292237
 31
0.0
  0
LINE
  5
23810
330
18
100
AcDbEntity
  8
0
100
AcDbLine
 10
741.662789692728
 20
-644.821376887165
 30
0.0
 11
741.7627908561251
 21
-644.321376887165
 31
0.0
  0
LINE
  5
23811
330
18
100
AcDbEntity
  8
0
100
AcDbLine
 10
740.8627989999054
 20
-640.821376887165
 30
0.0
 11
741.662789692728
 21
-644.821376887165
 31
0.0
  0
LINE
  5
23812
330
18
100
AcDbEntity
  8
0
100
AcDbLine
 10
723.9627908561082
 20
-644.321376887165
 30
0.0
 11
724.0627896927105
 21
-644.821376887165
 31
0.0
  0
LINE
  5
23813
330
18
100
AcDbEntity
  8
0
100
AcDbLine
 10
724.8627989998967
 20
-640.821376887165
 30
0.0
 11
725.6627896927148
 21
-644.821376887165
 31
0.0
  0
LINE
  5
23814
330
18
100
AcDbEntity
  8
0
100
AcDbLine
 10
728.0627989998966
 20
-640.821376887165
 30
0.0
 11
728.8627896927148
 21
-644.821376887165
 31
0.0
  0
LINE
  5
23815
330
18
100
AcDbEntity
  8
0
100
AcDbLine
 10
728.8627896927148
 20
-644.821376887165
 30
0.0
 11
728.9627908561126
 21
-644.321376887165
 31
0.0
  0
LINE
  5
23816
330
18
100
AcDbEntity
  8
0
100
AcDbLine
 10
725.6627896927148
 20
-644.821376887165
 30
0.0
 11
725.7627908561126
 21
-644.321376887165
 31
0.0
  0
LINE
  5
23817
330
18
100
AcDbEntity
  8
0
100
AcDbLine
 10
726.3627978364989
 20
-641.321376887165
 30
0.0
 11
726.4627989998964
 21
-640.821376887165
 31
0.0
  0
LINE
  5
23818
330
18
100
AcDbEntity
  8
0
100
AcDbLine
 10
727.2627896927147
 20
-644.821376887165
 30
0.0
 11
727.3627908561125
 21
-644.321376887165
 31
0.0
  0
LINE
  5
23819
330
18
100
AcDbEntity
  8
0
100
AcDbLine
 10
726.4627989998964
 20
-640.821376887165
 30
0.0
 11
727.2627896927147
 21
-644.821376887165
 31
0.0
  0
LINE
  5
2381A
330
18
100
AcDbEntity
  8
0
100
AcDbLine
 10
727.962797836499
 20
-641.321376887165
 30
0.0
 11
728.0627989998966
 21
-640.821376887165
 31
0.0
  0
LINE
  5
2381B
330
18
100
AcDbEntity
  8
0
100
AcDbLine
 10
724.0627896927105
 20
-644.821376887165
 30
0.0
 11
724.1627908561081
 21
-644.321376887165
 31
0.0
  0
LINE
  5
2381C
330
18
100
AcDbEntity
  8
0
100
AcDbLine
 10
724.762797836499
 20
-641.321376887165
 30
0.0
 11
724.8627989998967
 21
-640.821376887165
 31
0.0
  0
LINE
  5
2381D
330
18
100
AcDbEntity
  8
0
100
AcDbLine
 10
721.2628036537118
 20
-638.8213303512671
 30
0.0
 11
721.2627850393526
 21
-646.8213303512671
 31
0.0
  0
LINE
  5
2381E
330
18
100
AcDbEntity
  8
0
100
AcDbLine
 10
729.5627978365033
 20
-641.321376887165
 30
0.0
 11
729.662798999901
 21
-640.821376887165
 31
0.0
  0
LINE
  5
2381F
330
18
100
AcDbEntity
  8
0
100
AcDbLine
 10
731.1627978365077
 20
-641.321376887165
 30
0.0
 11
731.2627989999053
 21
-640.821376887165
 31
0.0
  0
LINE
  5
23820
330
18
100
AcDbEntity
  8
0
100
AcDbLine
 10
730.4627896927193
 20
-644.821376887165
 30
0.0
 11
730.5627908561169
 21
-644.321376887165
 31
0.0
  0
LINE
  5
23821
330
18
100
AcDbEntity
  8
0
100
AcDbLine
 10
734.3627978365078
 20
-641.321376887165
 30
0.0
 11
734.4627989999053
 21
-640.821376887165
 31
0.0
  0
LINE
  5
23822
330
18
100
AcDbEntity
  8
0
100
AcDbLine
 10
732.8627989999052
 20
-640.821376887165
 30
0.0
 11
733.6627896927234
 21
-644.821376887165
 31
0.0
  0
LINE
  5
23823
330
18
100
AcDbEntity
  8
0
100
AcDbLine
 10
733.6627896927234
 20
-644.821376887165
 30
0.0
 11
733.7627908561212
 21
-644.321376887165
 31
0.0
  0
LINE
  5
23824
330
18
100
AcDbEntity
  8
0
100
AcDbLine
 10
732.7627978365076
 20
-641.321376887165
 30
0.0
 11
732.8627989999052
 21
-640.821376887165
 31
0.0
  0
LINE
  5
23825
330
18
100
AcDbEntity
  8
0
100
AcDbLine
 10
732.0627896927235
 20
-644.821376887165
 30
0.0
 11
732.1627908561213
 21
-644.321376887165
 31
0.0
  0
LINE
  5
23826
330
18
100
AcDbEntity
  8
0
100
AcDbLine
 10
736.862789692728
 20
-644.821376887165
 30
0.0
 11
736.9627908561251
 21
-644.321376887165
 31
0.0
  0
LINE
  5
23827
330
18
100
AcDbEntity
  8
0
100
AcDbLine
 10
735.2627896927236
 20
-644.821376887165
 30
0.0
 11
735.3627908561214
 21
-644.321376887165
 31
0.0
  0
LINE
  5
23828
330
18
100
AcDbEntity
  8
0
100
AcDbLine
 10
735.9627978365077
 20
-641.321376887165
 30
0.0
 11
736.0627989999055
 21
-640.821376887165
 31
0.0
  0
LINE
  5
23829
330
18
100
AcDbEntity
  8
0
100
AcDbLine
 10
736.0627989999055
 20
-640.821376887165
 30
0.0
 11
736.862789692728
 21
-644.821376887165
 31
0.0
  0
LINE
  5
2382A
330
18
100
AcDbEntity
  8
0
100
AcDbLine
 10
734.4627989999053
 20
-640.821376887165
 30
0.0
 11
735.2627896927236
 21
-644.821376887165
 31
0.0
  0
LINE
  5
2382B
330
18
100
AcDbEntity
  8
0
100
AcDbLine
 10
731.2627989999053
 20
-640.821376887165
 30
0.0
 11
732.0627896927235
 21
-644.821376887165
 31
0.0
  0
LINE
  5
2382C
330
18
100
AcDbEntity
  8
0
100
AcDbLine
 10
729.662798999901
 20
-640.821376887165
 30
0.0
 11
730.4627896927193
 21
-644.821376887165
 31
0.0
  0
LINE
  5
2382D
330
18
100
AcDbEntity
  8
1DIM
100
AcDbLine
 10
718.7072606495749
 20
-674.8213303512648
 30
0.0
 11
718.7072606495749
 21
-692.4213303512677
 31
0.0
1001
ACAD
1000
DSTYLE
1002
{
1070
    45
1040
0.5
1002
}
  0
LINE
  5
2382E
330
18
100
AcDbEntity
  8
1DIM
100
AcDbLine
 10
727.7072606495755
 20
-693.0495039365483
 30
0.0
 11
727.7072606495755
 21
-690.4213303512677
 31
0.0
1001
ACAD
1000
DSTYLE
1002
{
1070
    45
1040
0.5
1002
}
  0
LINE
  5
2382F
330
18
100
AcDbEntity
  8
1DIM
100
AcDbLine
 10
718.7072606495749
 20
-691.4213303512677
 30
0.0
 11
713.1405939829081
 21
-691.4213303512677
 31
0.0
1001
ACAD
1000
DSTYLE
1002
{
1070
    45
1040
0.5
1002
}
  0
LINE
  5
23830
330
18
100
AcDbEntity
  8
1DIM
100
AcDbLine
 10
720.7072606495749
 20
-691.4213303512677
 30
0.0
 11
725.7072606495755
 21
-691.4213303512677
 31
0.0
1001
ACAD
1000
DSTYLE
1002
{
1070
    45
1040
0.5
1002
}
  0
LINE
  5
23834
330
18
100
AcDbEntity
  8
1DIM
100
AcDbLine
 10
529.7620717981321
 20
-539.637896985686
 30
0.0
 11
529.7620717981321
 21
-527.8735377559402
 31
0.0
1001
ACAD
1000
DSTYLE
1002
{
1070
    45
1040
0.5
1002
}
  0
LINE
  5
23835
330
18
100
AcDbEntity
  8
1DIM
100
AcDbLine
 10
417.7620721211699
 20
-560.8879260095949
 30
0.0
 11
417.7620721211699
 21
-527.8735377559402
 31
0.0
1001
ACAD
1000
DSTYLE
1002
{
1070
    45
1040
0.5
1002
}
  0
LINE
  5
23836
330
18
100
AcDbEntity
  8
1DIM
100
AcDbLine
 10
527.7620717981321
 20
-528.8735377559402
 30
0.0
 11
419.7620721211699
 21
-528.8735377559402
 31
0.0
1001
ACAD
1000
DSTYLE
1002
{
1070
    45
1040
0.5
1002
}
  0
SOLID
  5
2383A
330
18
100
AcDbEntity
  8
1DIM
100
AcDbTrace
 10
518.6329997858633
 20
-640.49856114947
 30
0.0
 11
516.6573324633783
 21
-640.9544665584929
 31
0.0
 12
518.3783457438836
 22
-639.8824477156382
 32
0.0
 13
518.3783457438836
 23
-639.8824477156382
 33
0.0
1001
ACAD
1000
DSTYLE
1002
{
1070
    45
1040
0.5
1002
}
  0
LINE
  5
2383B
330
18
100
AcDbEntity
  8
1DIM
100
AcDbLine
 10
518.5056727648735
 20
-640.1905044325541
 30
0.0
 11
545.0622355685209
 21
-629.2140580710861
 31
0.0
1001
ACAD
1000
DSTYLE
1002
{
1070
    45
1040
0.5
1002
}
  0
LINE
  5
2383C
330
18
100
AcDbEntity
  8
1DIM
100
AcDbLine
 10
545.0622355685209
 20
-629.2140580710861
 30
0.0
 11
592.3289022351876
 21
-629.2140580710861
 31
0.0
1001
ACAD
1000
DSTYLE
1002
{
1070
    45
1040
0.5
1002
}
  0
TEXT
  5
2383D
330
18
100
AcDbEntity
  8
1DIM
  6
CONTINUOUS
100
AcDbText
 10
547.5289022351876
 20
-622.6807247377527
 30
0.0
 40
3.5
  1
材質：亜鉛ダイキャスト
100
AcDbText
  0
TEXT
  5
2383E
330
18
100
AcDbEntity
  8
1DIM
  6
CONTINUOUS
100
AcDbText
 10
547.6455689018543
 20
-628.5140580710861
 30
0.0
 40
3.5
  1
仕上げ：各種メッキ
100
AcDbText
  0
LINE
  5
23840
330
18
100
AcDbEntity
  8
1CENTER
100
AcDbLine
 10
512.7621051293304
 20
-509.9278670980924
 30
0.0
 11
512.7621051293304
 21
-547.7610001454672
 31
0.0
  0
LINE
  5
23841
330
18
100
AcDbEntity
  8
0
100
AcDbLine
 10
511.2621516652283
 20
-518.5823597987533
 30
0.0
 11
510.7621516652283
 21
-518.4823586353561
 31
0.0
  0
LINE
  5
23842
330
18
100
AcDbEntity
  8
0
100
AcDbLine
 10
510.7621516652283
 20
-518.4823586353561
 30
0.0
 11
514.7621516652283
 21
-517.6823679425336
 31
0.0
  0
LINE
  5
23843
330
18
100
AcDbEntity
  8
0
100
AcDbLine
 10
514.7621516652283
 20
-517.6823679425336
 30
0.0
 11
514.2621516652283
 21
-517.5823667791365
 31
0.0
  0
LINE
  5
23844
330
18
100
AcDbEntity
  8
0
100
AcDbLine
 10
511.2621516652283
 20
-520.1823597987532
 30
0.0
 11
510.7621516652283
 21
-520.0823586353561
 31
0.0
  0
LINE
  5
23845
330
18
100
AcDbEntity
  8
0
100
AcDbLine
 10
514.7621516652283
 20
-519.2823679425335
 30
0.0
 11
514.2621516652283
 21
-519.1823667791364
 31
0.0
  0
LINE
  5
23846
330
18
100
AcDbEntity
  8
0
100
AcDbLine
 10
510.7621516652283
 20
-520.0823586353561
 30
0.0
 11
514.7621516652283
 21
-519.2823679425335
 31
0.0
  0
LINE
  5
23847
330
18
100
AcDbEntity
  8
0
100
AcDbLine
 10
511.2621516652283
 20
-521.7823597987533
 30
0.0
 11
510.7621516652283
 21
-521.6823586353562
 31
0.0
  0
LINE
  5
23848
330
18
100
AcDbEntity
  8
0
100
AcDbLine
 10
510.7621516652283
 20
-521.6823586353562
 30
0.0
 11
514.7621516652283
 21
-520.8823679425336
 31
0.0
  0
LINE
  5
23849
330
18
100
AcDbEntity
  8
0
100
AcDbLine
 10
514.7621516652283
 20
-520.8823679425336
 30
0.0
 11
514.2621516652283
 21
-520.7823667791365
 31
0.0
  0
LINE
  5
2384A
330
18
100
AcDbEntity
  8
0
100
AcDbLine
 10
511.2621516652283
 20
-529.7823597987533
 30
0.0
 11
510.7621516652283
 21
-529.6823586353562
 31
0.0
  0
LINE
  5
2384B
330
18
100
AcDbEntity
  8
0
100
AcDbLine
 10
514.7621516652283
 20
-528.8823679425336
 30
0.0
 11
514.2621516652283
 21
-528.7823667791365
 31
0.0
  0
LINE
  5
2384C
330
18
100
AcDbEntity
  8
0
100
AcDbLine
 10
514.7621516652283
 20
-527.2823679425335
 30
0.0
 11
514.2621516652283
 21
-527.1823667791364
 31
0.0
  0
LINE
  5
2384D
330
18
100
AcDbEntity
  8
0
100
AcDbLine
 10
511.2621516652283
 20
-528.1823597987532
 30
0.0
 11
510.7621516652283
 21
-528.0823586353561
 31
0.0
  0
LINE
  5
2384E
330
18
100
AcDbEntity
  8
0
100
AcDbLine
 10
511.2621516652283
 20
-526.5823597987533
 30
0.0
 11
510.7621516652283
 21
-526.4823586353561
 31
0.0
  0
LINE
  5
2384F
330
18
100
AcDbEntity
  8
0
100
AcDbLine
 10
510.7621516652283
 20
-528.0823586353561
 30
0.0
 11
514.7621516652283
 21
-527.2823679425335
 31
0.0
  0
LINE
  5
23850
330
18
100
AcDbEntity
  8
0
100
AcDbLine
 10
510.7621516652283
 20
-529.6823586353562
 30
0.0
 11
514.7621516652283
 21
-528.8823679425336
 31
0.0
  0
LINE
  5
23851
330
18
100
AcDbEntity
  8
0
100
AcDbLine
 10
511.2621516652283
 20
-524.9823597987534
 30
0.0
 11
510.7621516652283
 21
-524.8823586353562
 31
0.0
  0
LINE
  5
23852
330
18
100
AcDbEntity
  8
0
100
AcDbLine
 10
511.2621516652283
 20
-516.7823597987533
 30
0.0
 11
510.7621516652283
 21
-516.6823586353562
 31
0.0
  0
LINE
  5
23853
330
18
100
AcDbEntity
  8
0
100
AcDbLine
 10
510.7621516652283
 20
-516.6823586353562
 30
0.0
 11
514.5357446130243
 21
-515.882367415731
 31
0.0
  0
LINE
  5
23854
330
18
100
AcDbEntity
  8
0
100
AcDbLine
 10
514.5357446130243
 20
-515.882367415731
 30
0.0
 11
513.9991508777532
 21
-515.7530967181011
 31
0.0
  0
LINE
  5
23855
330
18
100
AcDbEntity
  8
0
100
AcDbLine
 10
514.7621516652283
 20
-524.0823679425337
 30
0.0
 11
514.2621516652283
 21
-523.9823667791366
 31
0.0
  0
LINE
  5
23856
330
18
100
AcDbEntity
  8
0
100
AcDbLine
 10
514.7621516652283
 20
-522.4823679425335
 30
0.0
 11
514.2621516652283
 21
-522.3823667791364
 31
0.0
  0
LINE
  5
23857
330
18
100
AcDbEntity
  8
0
100
AcDbLine
 10
511.2621516652283
 20
-523.3823597987532
 30
0.0
 11
510.7621516652283
 21
-523.2823586353561
 31
0.0
  0
LINE
  5
23858
330
18
100
AcDbEntity
  8
0
100
AcDbLine
 10
510.7621516652283
 20
-523.2823586353561
 30
0.0
 11
514.7621516652283
 21
-522.4823679425335
 31
0.0
  0
LINE
  5
23859
330
18
100
AcDbEntity
  8
0
100
AcDbLine
 10
510.7621516652283
 20
-524.8823586353562
 30
0.0
 11
514.7621516652283
 21
-524.0823679425337
 31
0.0
  0
LINE
  5
2385A
330
18
100
AcDbEntity
  8
0
100
AcDbLine
 10
511.2149678072871
 20
-515.0823596889664
 30
0.0
 11
514.0829305086176
 21
-514.2823663621253
 31
0.0
  0
LINE
  5
2385B
330
18
100
AcDbEntity
  8
0
100
AcDbLine
 10
511.6677813153353
 20
-513.4823607425707
 30
0.0
 11
513.6301164042108
 21
-512.6823653085197
 31
0.0
  0
LINE
  5
2385C
330
18
100
AcDbEntity
  8
0
100
AcDbLine
 10
514.0829305086176
 20
-514.2823663621253
 30
0.0
 11
513.5311810448143
 21
-514.0996022194973
 31
0.0
  0
LINE
  5
2385D
330
18
100
AcDbEntity
  8
0
100
AcDbLine
 10
512.1249531559664
 20
-513.6337965390111
 30
0.0
 11
511.6677813153353
 21
-513.4823607425707
 31
0.0
  0
LINE
  5
2385E
330
18
100
AcDbEntity
  8
0
100
AcDbLine
 10
513.6301164042108
 20
-512.6823653085197
 30
0.0
 11
513.0418398291683
 21
-512.3705954522676
 31
0.0
  0
LINE
  5
2385F
330
18
100
AcDbEntity
  8
0
100
AcDbLine
 10
511.683066262437
 20
-515.1951292013165
 30
0.0
 11
511.2149678072871
 21
-515.0823596889664
 31
0.0
  0
LINE
  5
23860
330
18
100
AcDbEntity
  8
0
100
AcDbLine
 10
514.7621516652283
 20
-525.6823679425336
 30
0.0
 11
514.2621516652283
 21
-525.5823667791365
 31
0.0
  0
LINE
  5
23861
330
18
100
AcDbEntity
  8
0
100
AcDbLine
 10
510.7621516652283
 20
-526.4823586353561
 30
0.0
 11
514.7621516652283
 21
-525.6823679425336
 31
0.0
  0
LINE
  5
23862
330
18
100
AcDbEntity
  8
0
100
AcDbLine
 10
514.2621516652283
 20
-543.3823667791534
 30
0.0
 11
514.7621516652283
 21
-543.2823679425511
 31
0.0
  0
LINE
  5
23863
330
18
100
AcDbEntity
  8
0
100
AcDbLine
 10
510.7621516652283
 20
-542.4823586353649
 30
0.0
 11
514.7621516652283
 21
-541.6823679425468
 31
0.0
  0
LINE
  5
23864
330
18
100
AcDbEntity
  8
0
100
AcDbLine
 10
510.7621516652283
 20
-539.282358635365
 30
0.0
 11
514.7621516652283
 21
-538.4823679425467
 31
0.0
  0
LINE
  5
23865
330
18
100
AcDbEntity
  8
0
100
AcDbLine
 10
514.7621516652283
 20
-538.4823679425467
 30
0.0
 11
514.2621516652283
 21
-538.3823667791489
 31
0.0
  0
LINE
  5
23866
330
18
100
AcDbEntity
  8
0
100
AcDbLine
 10
514.7621516652283
 20
-541.6823679425468
 30
0.0
 11
514.2621516652283
 21
-541.582366779149
 31
0.0
  0
LINE
  5
23867
330
18
100
AcDbEntity
  8
0
100
AcDbLine
 10
511.2621516652283
 20
-540.9823597987627
 30
0.0
 11
510.7621516652283
 21
-540.8823586353651
 31
0.0
  0
LINE
  5
23868
330
18
100
AcDbEntity
  8
0
100
AcDbLine
 10
514.7621516652283
 20
-540.0823679425469
 30
0.0
 11
514.2621516652283
 21
-539.9823667791491
 31
0.0
  0
LINE
  5
23869
330
18
100
AcDbEntity
  8
0
100
AcDbLine
 10
510.7621516652283
 20
-540.8823586353651
 30
0.0
 11
514.7621516652283
 21
-540.0823679425469
 31
0.0
  0
LINE
  5
2386A
330
18
100
AcDbEntity
  8
0
100
AcDbLine
 10
511.2621516652283
 20
-539.3823597987625
 30
0.0
 11
510.7621516652283
 21
-539.282358635365
 31
0.0
  0
LINE
  5
2386B
330
18
100
AcDbEntity
  8
0
100
AcDbLine
 10
514.7621516652283
 20
-543.2823679425511
 30
0.0
 11
514.2621516652283
 21
-543.1823667791534
 31
0.0
  0
LINE
  5
2386C
330
18
100
AcDbEntity
  8
0
100
AcDbLine
 10
511.2621516652283
 20
-542.5823597987626
 30
0.0
 11
510.7621516652283
 21
-542.4823586353649
 31
0.0
  0
LINE
  5
2386D
330
18
100
AcDbEntity
  8
0
100
AcDbLine
 10
508.7621051293304
 20
-546.0823539815498
 30
0.0
 11
516.7621051293304
 21
-546.082372595909
 31
0.0
  0
LINE
  5
2386E
330
18
100
AcDbEntity
  8
0
100
AcDbLine
 10
511.2621516652283
 20
-537.7823597987583
 30
0.0
 11
510.7621516652283
 21
-537.6823586353605
 31
0.0
  0
LINE
  5
2386F
330
18
100
AcDbEntity
  8
0
100
AcDbLine
 10
511.2621516652283
 20
-536.1823597987539
 30
0.0
 11
510.7621516652283
 21
-536.0823586353563
 31
0.0
  0
LINE
  5
23870
330
18
100
AcDbEntity
  8
0
100
AcDbLine
 10
514.7621516652283
 20
-536.8823679425423
 30
0.0
 11
514.2621516652283
 21
-536.7823667791447
 31
0.0
  0
LINE
  5
23871
330
18
100
AcDbEntity
  8
0
100
AcDbLine
 10
511.2621516652283
 20
-532.9823597987538
 30
0.0
 11
510.7621516652283
 21
-532.8823586353562
 31
0.0
  0
LINE
  5
23872
330
18
100
AcDbEntity
  8
0
100
AcDbLine
 10
510.7621516652283
 20
-534.4823586353564
 30
0.0
 11
514.7621516652283
 21
-533.6823679425381
 31
0.0
  0
LINE
  5
23873
330
18
100
AcDbEntity
  8
0
100
AcDbLine
 10
514.7621516652283
 20
-533.6823679425381
 30
0.0
 11
514.2621516652283
 21
-533.5823667791403
 31
0.0
  0
LINE
  5
23874
330
18
100
AcDbEntity
  8
0
100
AcDbLine
 10
511.2621516652283
 20
-534.5823597987539
 30
0.0
 11
510.7621516652283
 21
-534.4823586353564
 31
0.0
  0
LINE
  5
23875
330
18
100
AcDbEntity
  8
0
100
AcDbLine
 10
514.7621516652283
 20
-535.282367942538
 30
0.0
 11
514.2621516652283
 21
-535.1823667791402
 31
0.0
  0
LINE
  5
23876
330
18
100
AcDbEntity
  8
0
100
AcDbLine
 10
514.7621516652283
 20
-530.4823679425335
 30
0.0
 11
514.2621516652283
 21
-530.3823667791364
 31
0.0
  0
LINE
  5
23877
330
18
100
AcDbEntity
  8
0
100
AcDbLine
 10
514.7621516652283
 20
-532.082367942538
 30
0.0
 11
514.2621516652283
 21
-531.9823667791402
 31
0.0
  0
LINE
  5
23878
330
18
100
AcDbEntity
  8
0
100
AcDbLine
 10
511.2621516652283
 20
-531.3823597987539
 30
0.0
 11
510.7621516652283
 21
-531.2823586353561
 31
0.0
  0
LINE
  5
23879
330
18
100
AcDbEntity
  8
0
100
AcDbLine
 10
510.7621516652283
 20
-531.2823586353561
 30
0.0
 11
514.7621516652283
 21
-530.4823679425335
 31
0.0
  0
LINE
  5
2387A
330
18
100
AcDbEntity
  8
0
100
AcDbLine
 10
510.7621516652283
 20
-532.8823586353562
 30
0.0
 11
514.7621516652283
 21
-532.082367942538
 31
0.0
  0
LINE
  5
2387B
330
18
100
AcDbEntity
  8
0
100
AcDbLine
 10
510.7621516652283
 20
-536.0823586353563
 30
0.0
 11
514.7621516652283
 21
-535.282367942538
 31
0.0
  0
LINE
  5
2387C
330
18
100
AcDbEntity
  8
0
100
AcDbLine
 10
510.7621516652283
 20
-537.6823586353605
 30
0.0
 11
514.7621516652283
 21
-536.8823679425423
 31
0.0
  0
LINE
  5
2387E
330
18
100
AcDbEntity
  8
1CENTER
100
AcDbLine
 10
450.7620391130108
 20
-509.9278670980922
 30
0.0
 11
450.7620391130108
 21
-547.7610001454669
 31
0.0
  0
LINE
  5
2387F
330
18
100
AcDbEntity
  8
0
100
AcDbLine
 10
449.2620856489087
 20
-518.582359798753
 30
0.0
 11
448.7620856489087
 21
-518.4823586353559
 31
0.0
  0
LINE
  5
23880
330
18
100
AcDbEntity
  8
0
100
AcDbLine
 10
448.7620856489087
 20
-518.4823586353559
 30
0.0
 11
452.7620856489087
 21
-517.6823679425333
 31
0.0
  0
LINE
  5
23881
330
18
100
AcDbEntity
  8
0
100
AcDbLine
 10
452.7620856489087
 20
-517.6823679425333
 30
0.0
 11
452.2620856489087
 21
-517.5823667791362
 31
0.0
  0
LINE
  5
23882
330
18
100
AcDbEntity
  8
0
100
AcDbLine
 10
449.2620856489087
 20
-520.1823597987529
 30
0.0
 11
448.7620856489087
 21
-520.0823586353558
 31
0.0
  0
LINE
  5
23883
330
18
100
AcDbEntity
  8
0
100
AcDbLine
 10
452.7620856489087
 20
-519.2823679425333
 30
0.0
 11
452.2620856489087
 21
-519.1823667791361
 31
0.0
  0
LINE
  5
23884
330
18
100
AcDbEntity
  8
0
100
AcDbLine
 10
448.7620856489087
 20
-520.0823586353558
 30
0.0
 11
452.7620856489087
 21
-519.2823679425333
 31
0.0
  0
LINE
  5
23885
330
18
100
AcDbEntity
  8
0
100
AcDbLine
 10
449.2620856489087
 20
-521.7823597987531
 30
0.0
 11
448.7620856489087
 21
-521.682358635356
 31
0.0
  0
LINE
  5
23886
330
18
100
AcDbEntity
  8
0
100
AcDbLine
 10
448.7620856489087
 20
-521.682358635356
 30
0.0
 11
452.7620856489087
 21
-520.8823679425334
 31
0.0
  0
LINE
  5
23887
330
18
100
AcDbEntity
  8
0
100
AcDbLine
 10
452.7620856489087
 20
-520.8823679425334
 30
0.0
 11
452.2620856489087
 21
-520.7823667791363
 31
0.0
  0
LINE
  5
23888
330
18
100
AcDbEntity
  8
0
100
AcDbLine
 10
449.2620856489087
 20
-529.7823597987531
 30
0.0
 11
448.7620856489087
 21
-529.682358635356
 31
0.0
  0
LINE
  5
23889
330
18
100
AcDbEntity
  8
0
100
AcDbLine
 10
452.7620856489087
 20
-528.8823679425334
 30
0.0
 11
452.2620856489087
 21
-528.7823667791363
 31
0.0
  0
LINE
  5
2388A
330
18
100
AcDbEntity
  8
0
100
AcDbLine
 10
452.7620856489087
 20
-527.2823679425333
 30
0.0
 11
452.2620856489087
 21
-527.1823667791361
 31
0.0
  0
LINE
  5
2388B
330
18
100
AcDbEntity
  8
0
100
AcDbLine
 10
449.2620856489087
 20
-528.1823597987529
 30
0.0
 11
448.7620856489087
 21
-528.0823586353558
 31
0.0
  0
LINE
  5
2388C
330
18
100
AcDbEntity
  8
0
100
AcDbLine
 10
449.2620856489087
 20
-526.582359798753
 30
0.0
 11
448.7620856489087
 21
-526.4823586353559
 31
0.0
  0
LINE
  5
2388D
330
18
100
AcDbEntity
  8
0
100
AcDbLine
 10
448.7620856489087
 20
-528.0823586353558
 30
0.0
 11
452.7620856489087
 21
-527.2823679425333
 31
0.0
  0
LINE
  5
2388E
330
18
100
AcDbEntity
  8
0
100
AcDbLine
 10
448.7620856489087
 20
-529.682358635356
 30
0.0
 11
452.7620856489087
 21
-528.8823679425334
 31
0.0
  0
LINE
  5
2388F
330
18
100
AcDbEntity
  8
0
100
AcDbLine
 10
449.2620856489087
 20
-524.9823597987531
 30
0.0
 11
448.7620856489087
 21
-524.882358635356
 31
0.0
  0
LINE
  5
23890
330
18
100
AcDbEntity
  8
0
100
AcDbLine
 10
449.2620856489087
 20
-516.7823597987531
 30
0.0
 11
448.7620856489087
 21
-516.682358635356
 31
0.0
  0
LINE
  5
23891
330
18
100
AcDbEntity
  8
0
100
AcDbLine
 10
448.7620856489087
 20
-516.682358635356
 30
0.0
 11
452.5356785967048
 21
-515.8823674157308
 31
0.0
  0
LINE
  5
23892
330
18
100
AcDbEntity
  8
0
100
AcDbLine
 10
452.5356785967048
 20
-515.8823674157308
 30
0.0
 11
451.9990848614336
 21
-515.7530967181009
 31
0.0
  0
LINE
  5
23893
330
18
100
AcDbEntity
  8
0
100
AcDbLine
 10
452.7620856489087
 20
-524.0823679425334
 30
0.0
 11
452.2620856489087
 21
-523.9823667791363
 31
0.0
  0
LINE
  5
23894
330
18
100
AcDbEntity
  8
0
100
AcDbLine
 10
452.7620856489087
 20
-522.4823679425333
 30
0.0
 11
452.2620856489087
 21
-522.3823667791362
 31
0.0
  0
LINE
  5
23895
330
18
100
AcDbEntity
  8
0
100
AcDbLine
 10
449.2620856489087
 20
-523.382359798753
 30
0.0
 11
448.7620856489087
 21
-523.2823586353559
 31
0.0
  0
LINE
  5
23896
330
18
100
AcDbEntity
  8
0
100
AcDbLine
 10
448.7620856489087
 20
-523.2823586353559
 30
0.0
 11
452.7620856489087
 21
-522.4823679425333
 31
0.0
  0
LINE
  5
23897
330
18
100
AcDbEntity
  8
0
100
AcDbLine
 10
448.7620856489087
 20
-524.882358635356
 30
0.0
 11
452.7620856489087
 21
-524.0823679425334
 31
0.0
  0
LINE
  5
23898
330
18
100
AcDbEntity
  8
0
100
AcDbLine
 10
449.2149017909675
 20
-515.0823596889662
 30
0.0
 11
452.082864492298
 21
-514.2823663621251
 31
0.0
  0
LINE
  5
23899
330
18
100
AcDbEntity
  8
0
100
AcDbLine
 10
449.6677152990158
 20
-513.4823607425704
 30
0.0
 11
451.6300503878912
 21
-512.6823653085195
 31
0.0
  0
LINE
  5
2389A
330
18
100
AcDbEntity
  8
0
100
AcDbLine
 10
452.082864492298
 20
-514.2823663621251
 30
0.0
 11
451.5311150284947
 21
-514.0996022194971
 31
0.0
  0
LINE
  5
2389B
330
18
100
AcDbEntity
  8
0
100
AcDbLine
 10
450.1248871396468
 20
-513.6337965390109
 30
0.0
 11
449.6677152990158
 21
-513.4823607425704
 31
0.0
  0
LINE
  5
2389C
330
18
100
AcDbEntity
  8
0
100
AcDbLine
 10
451.6300503878912
 20
-512.6823653085195
 30
0.0
 11
451.0417738128488
 21
-512.3705954522674
 31
0.0
  0
LINE
  5
2389D
330
18
100
AcDbEntity
  8
0
100
AcDbLine
 10
449.6830002461174
 20
-515.1951292013163
 30
0.0
 11
449.2149017909675
 21
-515.0823596889662
 31
0.0
  0
LINE
  5
2389E
330
18
100
AcDbEntity
  8
0
100
AcDbLine
 10
452.7620856489087
 20
-525.6823679425333
 30
0.0
 11
452.2620856489087
 21
-525.5823667791362
 31
0.0
  0
LINE
  5
2389F
330
18
100
AcDbEntity
  8
0
100
AcDbLine
 10
448.7620856489087
 20
-526.4823586353559
 30
0.0
 11
452.7620856489087
 21
-525.6823679425333
 31
0.0
  0
LINE
  5
238A0
330
18
100
AcDbEntity
  8
0
100
AcDbLine
 10
452.2620856489087
 20
-543.3823667791531
 30
0.0
 11
452.7620856489087
 21
-543.2823679425509
 31
0.0
  0
LINE
  5
238A1
330
18
100
AcDbEntity
  8
0
100
AcDbLine
 10
448.7620856489087
 20
-542.4823586353647
 30
0.0
 11
452.7620856489087
 21
-541.6823679425465
 31
0.0
  0
LINE
  5
238A2
330
18
100
AcDbEntity
  8
0
100
AcDbLine
 10
448.7620856489087
 20
-539.2823586353647
 30
0.0
 11
452.7620856489087
 21
-538.4823679425465
 31
0.0
  0
LINE
  5
238A3
330
18
100
AcDbEntity
  8
0
100
AcDbLine
 10
452.7620856489087
 20
-538.4823679425465
 30
0.0
 11
452.2620856489087
 21
-538.3823667791487
 31
0.0
  0
LINE
  5
238A4
330
18
100
AcDbEntity
  8
0
100
AcDbLine
 10
452.7620856489087
 20
-541.6823679425465
 30
0.0
 11
452.2620856489087
 21
-541.5823667791487
 31
0.0
  0
LINE
  5
238A5
330
18
100
AcDbEntity
  8
0
100
AcDbLine
 10
449.2620856489087
 20
-540.9823597987624
 30
0.0
 11
448.7620856489087
 21
-540.8823586353649
 31
0.0
  0
LINE
  5
238A6
330
18
100
AcDbEntity
  8
0
100
AcDbLine
 10
452.7620856489087
 20
-540.0823679425466
 30
0.0
 11
452.2620856489087
 21
-539.9823667791488
 31
0.0
  0
LINE
  5
238A7
330
18
100
AcDbEntity
  8
0
100
AcDbLine
 10
448.7620856489087
 20
-540.8823586353649
 30
0.0
 11
452.7620856489087
 21
-540.0823679425466
 31
0.0
  0
LINE
  5
238A8
330
18
100
AcDbEntity
  8
0
100
AcDbLine
 10
449.2620856489087
 20
-539.3823597987623
 30
0.0
 11
448.7620856489087
 21
-539.2823586353647
 31
0.0
  0
LINE
  5
238A9
330
18
100
AcDbEntity
  8
0
100
AcDbLine
 10
452.7620856489087
 20
-543.2823679425509
 30
0.0
 11
452.2620856489087
 21
-543.1823667791532
 31
0.0
  0
LINE
  5
238AA
330
18
100
AcDbEntity
  8
0
100
AcDbLine
 10
449.2620856489087
 20
-542.5823597987624
 30
0.0
 11
448.7620856489087
 21
-542.4823586353647
 31
0.0
  0
LINE
  5
238AB
330
18
100
AcDbEntity
  8
0
100
AcDbLine
 10
446.7620391130108
 20
-546.0823539815495
 30
0.0
 11
454.7620391130108
 21
-546.0823725959087
 31
0.0
  0
LINE
  5
238AC
330
18
100
AcDbEntity
  8
0
100
AcDbLine
 10
449.2620856489087
 20
-537.7823597987581
 30
0.0
 11
448.7620856489087
 21
-537.6823586353603
 31
0.0
  0
LINE
  5
238AD
330
18
100
AcDbEntity
  8
0
100
AcDbLine
 10
449.2620856489087
 20
-536.1823597987536
 30
0.0
 11
448.7620856489087
 21
-536.0823586353561
 31
0.0
  0
LINE
  5
238AE
330
18
100
AcDbEntity
  8
0
100
AcDbLine
 10
452.7620856489087
 20
-536.882367942542
 30
0.0
 11
452.2620856489087
 21
-536.7823667791445
 31
0.0
  0
LINE
  5
238AF
330
18
100
AcDbEntity
  8
0
100
AcDbLine
 10
449.2620856489087
 20
-532.9823597987536
 30
0.0
 11
448.7620856489087
 21
-532.882358635356
 31
0.0
  0
LINE
  5
238B0
330
18
100
AcDbEntity
  8
0
100
AcDbLine
 10
448.7620856489087
 20
-534.4823586353561
 30
0.0
 11
452.7620856489087
 21
-533.6823679425379
 31
0.0
  0
LINE
  5
238B1
330
18
100
AcDbEntity
  8
0
100
AcDbLine
 10
452.7620856489087
 20
-533.6823679425379
 30
0.0
 11
452.2620856489087
 21
-533.5823667791401
 31
0.0
  0
LINE
  5
238B2
330
18
100
AcDbEntity
  8
0
100
AcDbLine
 10
449.2620856489087
 20
-534.5823597987537
 30
0.0
 11
448.7620856489087
 21
-534.4823586353561
 31
0.0
  0
LINE
  5
238B3
330
18
100
AcDbEntity
  8
0
100
AcDbLine
 10
452.7620856489087
 20
-535.2823679425378
 30
0.0
 11
452.2620856489087
 21
-535.18236677914
 31
0.0
  0
LINE
  5
238B4
330
18
100
AcDbEntity
  8
0
100
AcDbLine
 10
452.7620856489087
 20
-530.4823679425333
 30
0.0
 11
452.2620856489087
 21
-530.3823667791362
 31
0.0
  0
LINE
  5
238B5
330
18
100
AcDbEntity
  8
0
100
AcDbLine
 10
452.7620856489087
 20
-532.0823679425378
 30
0.0
 11
452.2620856489087
 21
-531.98236677914
 31
0.0
  0
LINE
  5
238B6
330
18
100
AcDbEntity
  8
0
100
AcDbLine
 10
449.2620856489087
 20
-531.3823597987537
 30
0.0
 11
448.7620856489087
 21
-531.2823586353559
 31
0.0
  0
LINE
  5
238B7
330
18
100
AcDbEntity
  8
0
100
AcDbLine
 10
448.7620856489087
 20
-531.2823586353559
 30
0.0
 11
452.7620856489087
 21
-530.4823679425333
 31
0.0
  0
LINE
  5
238B8
330
18
100
AcDbEntity
  8
0
100
AcDbLine
 10
448.7620856489087
 20
-532.882358635356
 30
0.0
 11
452.7620856489087
 21
-532.0823679425378
 31
0.0
  0
LINE
  5
238B9
330
18
100
AcDbEntity
  8
0
100
AcDbLine
 10
448.7620856489087
 20
-536.0823586353561
 30
0.0
 11
452.7620856489087
 21
-535.2823679425378
 31
0.0
  0
LINE
  5
238BA
330
18
100
AcDbEntity
  8
0
100
AcDbLine
 10
448.7620856489087
 20
-537.6823586353603
 30
0.0
 11
452.7620856489087
 21
-536.882367942542
 31
0.0
  0
SOLID
  5
238BB
330
18
100
AcDbEntity
  8
1DIM
100
AcDbTrace
 10
518.6329997858633
 20
-558.989394514754
 30
0.0
 11
516.6573324633783
 21
-559.4452999237769
 31
0.0
 12
518.3783457438836
 22
-558.3732810809223
 32
0.0
 13
518.3783457438836
 23
-558.3732810809223
 33
0.0
1001
ACAD
1000
DSTYLE
1002
{
1070
    45
1040
0.5
1002
}
  0
LINE
  5
238BC
330
18
100
AcDbEntity
  8
1DIM
100
AcDbLine
 10
518.5056727648735
 20
-558.6813377978382
 30
0.0
 11
545.0622355685209
 21
-547.7048914363702
 31
0.0
1001
ACAD
1000
DSTYLE
1002
{
1070
    45
1040
0.5
1002
}
  0
LINE
  5
238BD
330
18
100
AcDbEntity
  8
1DIM
100
AcDbLine
 10
545.0622355685209
 20
-547.7048914363702
 30
0.0
 11
592.3289022351876
 21
-547.7048914363702
 31
0.0
1001
ACAD
1000
DSTYLE
1002
{
1070
    45
1040
0.5
1002
}
  0
TEXT
  5
238BE
330
18
100
AcDbEntity
  8
1DIM
  6
CONTINUOUS
100
AcDbText
 10
547.5289022351876
 20
-541.1715581030368
 30
0.0
 40
3.5
  1
材質：亜鉛ダイキャスト
100
AcDbText
  0
TEXT
  5
238BF
330
18
100
AcDbEntity
  8
1DIM
  6
CONTINUOUS
100
AcDbText
 10
547.6455689018543
 20
-547.0048914363701
 30
0.0
 40
3.5
  1
仕上げ：各種メッキ
100
AcDbText
  0
LINE
  5
238C0
330
18
100
AcDbEntity
  8
1DIM
100
AcDbLine
 10
727.7072606495753
 20
-675.8213303512664
 30
0.0
 11
771.9195178444523
 21
-675.8213303512664
 31
0.0
1001
ACAD
1000
DSTYLE
1002
{
1070
    45
1040
0.5
1002
}
  0
LINE
  5
238C1
330
18
100
AcDbEntity
  8
1DIM
100
AcDbLine
 10
727.7072606495755
 20
-622.321330028231
 30
0.0
 11
771.9195178444523
 21
-622.321330028231
 31
0.0
1001
ACAD
1000
DSTYLE
1002
{
1070
    45
1040
0.5
1002
}
  0
LINE
  5
238C2
330
18
100
AcDbEntity
  8
1DIM
100
AcDbLine
 10
770.9195178444523
 20
-673.8213303512664
 30
0.0
 11
770.9195178444523
 21
-624.321330028231
 31
0.0
1001
ACAD
1000
DSTYLE
1002
{
1070
    45
1040
0.5
1002
}
  0
LINE
  5
238C6
330
18
100
AcDbEntity
  8
1DIM
100
AcDbLine
 10
433.7620717981322
 20
-590.8878969856858
 30
0.0
 11
433.7620717981322
 21
-615.6386141888065
 31
0.0
  0
LINE
  5
238C7
330
18
100
AcDbEntity
  8
1DIM
100
AcDbLine
 10
529.7620717981322
 20
-590.8878969856859
 30
0.0
 11
529.7620717981322
 21
-615.6386141888065
 31
0.0
  0
LINE
  5
238C8
330
18
100
AcDbEntity
  8
1DIM
100
AcDbLine
 10
435.7620717981322
 20
-614.6386141888065
 30
0.0
 11
527.7620717981322
 21
-614.6386141888065
 31
0.0
  0
LINE
  5
238CC
330
18
100
AcDbEntity
  8
1DIM
100
AcDbLine
 10
671.4572606495755
 20
-623.321330028231
 30
0.0
 11
671.4572606495755
 21
-606.9457964132337
 31
0.0
1001
ACAD
1000
DSTYLE
1002
{
1070
    45
1040
0.5
1002
}
  0
LINE
  5
238CD
330
18
100
AcDbEntity
  8
1DIM
100
AcDbLine
 10
727.7072606495755
 20
-618.5931567659845
 30
0.0
 11
727.7072606495755
 21
-606.9457964132337
 31
0.0
1001
ACAD
1000
DSTYLE
1002
{
1070
    45
1040
0.5
1002
}
  0
LINE
  5
238CE
330
18
100
AcDbEntity
  8
1DIM
100
AcDbLine
 10
673.4572606495755
 20
-607.9457964132337
 30
0.0
 11
725.7072606495755
 21
-607.9457964132337
 31
0.0
1001
ACAD
1000
DSTYLE
1002
{
1070
    45
1040
0.5
1002
}
  0
LINE
  5
238D2
330
18
100
AcDbEntity
  8
1DIM
100
AcDbLine
 10
655.7621301686818
 20
-592.8878679620774
 30
0.0
 11
697.0711376715608
 21
-592.8878679620774
 31
0.0
1001
ACAD
1000
DSTYLE
1002
{
1070
    45
1040
0.5
1002
}
  0
LINE
  5
238D3
330
18
100
AcDbEntity
  8
1DIM
100
AcDbLine
 10
655.7621301686809
 20
-548.8878679620774
 30
0.0
 11
697.0711376715608
 21
-548.8878679620774
 31
0.0
1001
ACAD
1000
DSTYLE
1002
{
1070
    45
1040
0.5
1002
}
  0
LINE
  5
238D4
330
18
100
AcDbEntity
  8
1DIM
100
AcDbLine
 10
696.0711376715608
 20
-590.8878679620774
 30
0.0
 11
696.0711376715608
 21
-550.8878679620774
 31
0.0
1001
ACAD
1000
DSTYLE
1002
{
1070
    45
1040
0.5
1002
}
  0
LINE
  5
238D8
330
18
100
AcDbEntity
  8
1DIM
100
AcDbLine
 10
655.7621301686813
 20
-585.8878679620774
 30
0.0
 11
682.8938754740034
 21
-585.8878679620774
 31
0.0
  0
LINE
  5
238D9
330
18
100
AcDbEntity
  8
1DIM
100
AcDbLine
 10
655.7621301686813
 20
-555.8878679620806
 30
0.0
 11
682.8938754740034
 21
-555.8878679620806
 31
0.0
  0
LINE
  5
238DA
330
18
100
AcDbEntity
  8
1DIM
100
AcDbLine
 10
681.8938754740034
 20
-583.8878679620774
 30
0.0
 11
681.8938754740034
 21
-557.8878679620806
 31
0.0
  0
LINE
  5
238DE
330
18
100
AcDbEntity
  8
1DIM
100
AcDbLine
 10
475.7621301686813
 20
-580.8878679620824
 30
0.0
 11
475.7621301686813
 21
-605.2557544431437
 31
0.0
  0
LINE
  5
238DF
330
18
100
AcDbEntity
  8
1DIM
100
AcDbLine
 10
660.7621301686813
 20
-580.8878679620806
 30
0.0
 11
660.7621301686813
 21
-605.2557544431437
 31
0.0
  0
LINE
  5
238E0
330
18
100
AcDbEntity
  8
1DIM
100
AcDbLine
 10
477.7621301686813
 20
-604.2557544431437
 30
0.0
 11
658.7621301686813
 21
-604.2557544431437
 31
0.0
  0
LINE
  5
238E4
330
18
100
AcDbEntity
  8
1DIM
100
AcDbLine
 10
660.7621301686813
 20
-580.8878679620806
 30
0.0
 11
660.7621301686813
 21
-604.9878052531436
 31
0.0
  0
LINE
  5
238E5
330
18
100
AcDbEntity
  8
1DIM
100
AcDbLine
 10
667.7621301686813
 20
-580.8878679620806
 30
0.0
 11
667.7621301686813
 21
-604.9878052531436
 31
0.0
  0
LINE
  5
238E6
330
18
100
AcDbEntity
  8
1DIM
100
AcDbLine
 10
662.7621301686813
 20
-603.9878052531436
 30
0.0
 11
665.7621301686813
 21
-603.9878052531436
 31
0.0
  0
LINE
  5
238EA
330
18
100
AcDbEntity
  8
1DIM
100
AcDbLine
 10
429.7620721211725
 20
-778.8879260095949
 30
0.0
 11
409.2496726155503
 21
-778.8879260095949
 31
0.0
1001
ACAD
1000
DSTYLE
1002
{
1070
    45
1040
0.5
1002
}
  0
LINE
  5
238EB
330
18
100
AcDbEntity
  8
1DIM
100
AcDbLine
 10
433.7620717981321
 20
-539.637896985686
 30
0.0
 11
409.2496726155503
 21
-539.637896985686
 31
0.0
1001
ACAD
1000
DSTYLE
1002
{
1070
    45
1040
0.5
1002
}
  0
LINE
  5
238EC
330
18
100
AcDbEntity
  8
1DIM
100
AcDbLine
 10
410.2496726155503
 20
-776.8879260095949
 30
0.0
 11
410.2496726155503
 21
-541.637896985686
 31
0.0
1001
ACAD
1000
DSTYLE
1002
{
1070
    45
1040
0.5
1002
}
  0
LINE
  5
238F0
330
18
100
AcDbEntity
  8
0
  6
BYBLOCK
100
AcDbLine
 10
544.7817291663247
 20
-664.3213303512655
 30
0.0
 11
544.2458307863246
 21
-666.3213303512655
 31
0.0
  0
LINE
  5
238F1
330
18
100
AcDbEntity
  8
0
  6
BYBLOCK
100
AcDbLine
 10
544.2458307863246
 20
-666.3213303512655
 30
0.0
 11
543.7099324063246
 21
-664.3213303512655
 31
0.0
  0
LINE
  5
238F2
330
18
100
AcDbEntity
  8
0
  6
BYBLOCK
100
AcDbLine
 10
544.2458307863246
 20
-666.3213303512655
 30
0.0
 11
544.2458307863246
 21
-664.3213303512655
 31
0.0
  0
LINE
  5
238F3
330
18
100
AcDbEntity
  8
0
  6
BYBLOCK
100
AcDbLine
 10
543.7099324063246
 20
-647.3213303512656
 30
0.0
 11
544.2458307863246
 21
-645.3213303512656
 31
0.0
  0
LINE
  5
238F4
330
18
100
AcDbEntity
  8
0
  6
BYBLOCK
100
AcDbLine
 10
544.2458307863246
 20
-645.3213303512656
 30
0.0
 11
544.7817291663247
 21
-647.3213303512656
 31
0.0
  0
LINE
  5
238F5
330
18
100
AcDbEntity
  8
0
  6
BYBLOCK
100
AcDbLine
 10
544.2458307863246
 20
-645.3213303512656
 30
0.0
 11
544.2458307863246
 21
-647.3213303512656
 31
0.0
  0
TEXT
  5
238F6
330
18
100
AcDbEntity
  8
1DIM
  6
CONTINUOUS
100
AcDbText
 10
543.5458307863246
 20
-642.6213303512656
 30
0.0
 40
3.5
  1
21
 50
90.0
100
AcDbText
1001
ACAD
1000
DSTYLE
1002
{
1070
    45
1040
0.5
1002
}
  0
LINE
  5
238F7
330
18
100
AcDbEntity
  8
0
  6
BYBLOCK
100
AcDbLine
 10
676.4572606495749
 20
-711.9572287312677
 30
0.0
 11
674.4572606495749
 21
-711.4213303512677
 31
0.0
  0
LINE
  5
238F8
330
18
100
AcDbEntity
  8
0
  6
BYBLOCK
100
AcDbLine
 10
674.4572606495749
 20
-711.4213303512677
 30
0.0
 11
676.4572606495749
 21
-710.8854319712676
 31
0.0
  0
LINE
  5
238F9
330
18
100
AcDbEntity
  8
0
  6
BYBLOCK
100
AcDbLine
 10
674.4572606495749
 20
-711.4213303512677
 30
0.0
 11
676.4572606495749
 21
-711.4213303512677
 31
0.0
  0
LINE
  5
238FA
330
18
100
AcDbEntity
  8
0
  6
BYBLOCK
100
AcDbLine
 10
725.7072606495755
 20
-710.8854319712676
 30
0.0
 11
727.7072606495755
 21
-711.4213303512677
 31
0.0
  0
LINE
  5
238FB
330
18
100
AcDbEntity
  8
0
  6
BYBLOCK
100
AcDbLine
 10
727.7072606495755
 20
-711.4213303512677
 30
0.0
 11
725.7072606495755
 21
-711.9572287312677
 31
0.0
  0
LINE
  5
238FC
330
18
100
AcDbEntity
  8
0
  6
BYBLOCK
100
AcDbLine
 10
727.7072606495755
 20
-711.4213303512677
 30
0.0
 11
725.7072606495755
 21
-711.4213303512677
 31
0.0
  0
TEXT
  5
238FD
330
18
100
AcDbEntity
  8
1DIM
  6
CONTINUOUS
100
AcDbText
 10
698.1534412051307
 20
-710.7213303512677
 30
0.0
 40
3.5
  1
53
100
AcDbText
1001
ACAD
1000
DSTYLE
1002
{
1070
    45
1040
0.5
1002
}
  0
LINE
  5
238FE
330
18
100
AcDbEntity
  8
0
  6
BYBLOCK
100
AcDbLine
 10
762.9425993567086
 20
-640.8213303512671
 30
0.0
 11
762.4067009767085
 21
-642.8213303512671
 31
0.0
  0
LINE
  5
238FF
330
18
100
AcDbEntity
  8
0
  6
BYBLOCK
100
AcDbLine
 10
762.4067009767085
 20
-642.8213303512671
 30
0.0
 11
761.8708025967085
 21
-640.8213303512671
 31
0.0
  0
LINE
  5
23900
330
18
100
AcDbEntity
  8
0
  6
BYBLOCK
100
AcDbLine
 10
762.4067009767085
 20
-642.8213303512671
 30
0.0
 11
762.4067009767085
 21
-640.8213303512671
 31
0.0
  0
LINE
  5
23901
330
18
100
AcDbEntity
  8
0
  6
BYBLOCK
100
AcDbLine
 10
761.8708025967085
 20
-624.321330028231
 30
0.0
 11
762.4067009767085
 21
-622.321330028231
 31
0.0
  0
LINE
  5
23902
330
18
100
AcDbEntity
  8
0
  6
BYBLOCK
100
AcDbLine
 10
762.4067009767085
 20
-622.321330028231
 30
0.0
 11
762.9425993567086
 21
-624.321330028231
 31
0.0
  0
LINE
  5
23903
330
18
100
AcDbEntity
  8
0
  6
BYBLOCK
100
AcDbLine
 10
762.4067009767085
 20
-622.321330028231
 30
0.0
 11
762.4067009767085
 21
-624.321330028231
 31
0.0
  0
TEXT
  5
23904
330
18
100
AcDbEntity
  8
1DIM
  6
CONTINUOUS
100
AcDbText
 10
761.7067009767085
 20
-634.9046635230823
 30
0.0
 40
3.5
  1
21
 50
90.0
100
AcDbText
1001
ACAD
1000
DSTYLE
1002
{
1070
    45
1040
0.5
1070
   271
1070
     0
1002
}
  0
LINE
  5
23905
330
18
100
AcDbEntity
  8
0
  6
BYBLOCK
100
AcDbLine
 10
762.9425993567086
 20
-666.8213303512657
 30
0.0
 11
762.4067009767085
 21
-668.8213303512657
 31
0.0
  0
LINE
  5
23906
330
18
100
AcDbEntity
  8
0
  6
BYBLOCK
100
AcDbLine
 10
762.4067009767085
 20
-668.8213303512657
 30
0.0
 11
761.8708025967085
 21
-666.8213303512657
 31
0.0
  0
LINE
  5
23907
330
18
100
AcDbEntity
  8
0
  6
BYBLOCK
100
AcDbLine
 10
762.4067009767085
 20
-668.8213303512657
 30
0.0
 11
762.4067009767085
 21
-666.8213303512657
 31
0.0
  0
LINE
  5
23908
330
18
100
AcDbEntity
  8
0
  6
BYBLOCK
100
AcDbLine
 10
761.8708025967085
 20
-644.8213303512671
 30
0.0
 11
762.4067009767085
 21
-642.8213303512671
 31
0.0
  0
LINE
  5
23909
330
18
100
AcDbEntity
  8
0
  6
BYBLOCK
100
AcDbLine
 10
762.4067009767085
 20
-642.8213303512671
 30
0.0
 11
762.9425993567086
 21
-644.8213303512671
 31
0.0
  0
LINE
  5
2390A
330
18
100
AcDbEntity
  8
0
  6
BYBLOCK
100
AcDbLine
 10
762.4067009767085
 20
-642.8213303512671
 30
0.0
 11
762.4067009767085
 21
-644.8213303512671
 31
0.0
  0
TEXT
  5
2390B
330
18
100
AcDbEntity
  8
1DIM
  6
CONTINUOUS
100
AcDbText
 10
761.7067009767085
 20
-660.4879970179331
 30
0.0
 40
3.5
  1
P26
 50
90.0
100
AcDbText
1001
ACAD
1000
DSTYLE
1002
{
1070
    45
1040
0.5
1002
}
  0
LINE
  5
2390C
330
18
100
AcDbEntity
  8
0
  6
BYBLOCK
100
AcDbLine
 10
435.7620721211667
 20
-700.2663852311665
 30
0.0
 11
433.7620721211667
 21
-699.7304868511665
 31
0.0
  0
LINE
  5
2390D
330
18
100
AcDbEntity
  8
0
  6
BYBLOCK
100
AcDbLine
 10
433.7620721211667
 20
-699.7304868511665
 30
0.0
 11
435.7620721211667
 21
-699.1945884711664
 31
0.0
  0
LINE
  5
2390E
330
18
100
AcDbEntity
  8
0
  6
BYBLOCK
100
AcDbLine
 10
433.7620721211667
 20
-699.7304868511665
 30
0.0
 11
435.7620721211667
 21
-699.7304868511665
 31
0.0
  0
LINE
  5
2390F
330
18
100
AcDbEntity
  8
0
  6
BYBLOCK
100
AcDbLine
 10
448.7620391130108
 20
-699.1945884711664
 30
0.0
 11
450.7620391130108
 21
-699.7304868511665
 31
0.0
  0
LINE
  5
23910
330
18
100
AcDbEntity
  8
0
  6
BYBLOCK
100
AcDbLine
 10
450.7620391130108
 20
-699.7304868511665
 30
0.0
 11
448.7620391130108
 21
-700.2663852311665
 31
0.0
  0
LINE
  5
23911
330
18
100
AcDbEntity
  8
0
  6
BYBLOCK
100
AcDbLine
 10
450.7620391130108
 20
-699.7304868511665
 30
0.0
 11
448.7620391130108
 21
-699.7304868511665
 31
0.0
  0
TEXT
  5
23912
330
18
100
AcDbEntity
  8
1DIM
  6
CONTINUOUS
100
AcDbText
 10
439.9287222837555
 20
-699.0304868511664
 30
0.0
 40
3.5
  1
17
100
AcDbText
1001
ACAD
1000
DSTYLE
1002
{
1070
    45
1040
0.5
1002
}
  0
LINE
  5
23913
330
18
100
AcDbEntity
  8
0
  6
BYBLOCK
100
AcDbLine
 10
510.7621051293304
 20
-699.1945884711664
 30
0.0
 11
512.7621051293304
 21
-699.7304868511665
 31
0.0
  0
LINE
  5
23914
330
18
100
AcDbEntity
  8
0
  6
BYBLOCK
100
AcDbLine
 10
512.7621051293304
 20
-699.7304868511665
 30
0.0
 11
510.7621051293304
 21
-700.2663852311665
 31
0.0
  0
LINE
  5
23915
330
18
100
AcDbEntity
  8
0
  6
BYBLOCK
100
AcDbLine
 10
512.7621051293304
 20
-699.7304868511665
 30
0.0
 11
510.7621051293304
 21
-699.7304868511665
 31
0.0
  0
LINE
  5
23916
330
18
100
AcDbEntity
  8
0
  6
BYBLOCK
100
AcDbLine
 10
452.7620391130108
 20
-700.2663852311665
 30
0.0
 11
450.7620391130108
 21
-699.7304868511665
 31
0.0
  0
LINE
  5
23917
330
18
100
AcDbEntity
  8
0
  6
BYBLOCK
100
AcDbLine
 10
450.7620391130108
 20
-699.7304868511665
 30
0.0
 11
452.7620391130108
 21
-699.1945884711664
 31
0.0
  0
LINE
  5
23918
330
18
100
AcDbEntity
  8
0
  6
BYBLOCK
100
AcDbLine
 10
450.7620391130108
 20
-699.7304868511665
 30
0.0
 11
452.7620391130108
 21
-699.7304868511665
 31
0.0
  0
TEXT
  5
23919
330
18
100
AcDbEntity
  8
1DIM
  6
CONTINUOUS
100
AcDbText
 10
477.0832526767261
 20
-699.0304868511664
 30
0.0
 40
3.5
  1
P62
100
AcDbText
1001
ACAD
1000
DSTYLE
1002
{
1070
    45
1040
0.5
1002
}
  0
LINE
  5
2391A
330
18
100
AcDbEntity
  8
0
  6
BYBLOCK
100
AcDbLine
 10
435.7620721211667
 20
-711.9572287312677
 30
0.0
 11
433.7620721211667
 21
-711.4213303512677
 31
0.0
  0
LINE
  5
2391B
330
18
100
AcDbEntity
  8
0
  6
BYBLOCK
100
AcDbLine
 10
433.7620721211667
 20
-711.4213303512677
 30
0.0
 11
435.7620721211667
 21
-710.8854319712676
 31
0.0
  0
LINE
  5
2391C
330
18
100
AcDbEntity
  8
0
  6
BYBLOCK
100
AcDbLine
 10
433.7620721211667
 20
-711.4213303512677
 30
0.0
 11
435.7620721211667
 21
-711.4213303512677
 31
0.0
  0
LINE
  5
2391D
330
18
100
AcDbEntity
  8
0
  6
BYBLOCK
100
AcDbLine
 10
665.7620721211757
 20
-710.8854319712676
 30
0.0
 11
667.7620721211757
 21
-711.4213303512677
 31
0.0
  0
LINE
  5
2391E
330
18
100
AcDbEntity
  8
0
  6
BYBLOCK
100
AcDbLine
 10
667.7620721211757
 20
-711.4213303512677
 30
0.0
 11
665.7620721211757
 21
-711.9572287312677
 31
0.0
  0
LINE
  5
2391F
330
18
100
AcDbEntity
  8
0
  6
BYBLOCK
100
AcDbLine
 10
667.7620721211757
 20
-711.4213303512677
 30
0.0
 11
665.7620721211757
 21
-711.4213303512677
 31
0.0
  0
TEXT
  5
23920
330
18
100
AcDbEntity
  8
1DIM
  6
CONTINUOUS
100
AcDbText
 10
546.0954054545047
 20
-710.7213303512676
 30
0.0
 40
3.5
  1
234
100
AcDbText
1001
ACAD
1000
DSTYLE
1002
{
1070
    45
1040
0.5
1002
}
  0
LINE
  5
23921
330
18
100
AcDbEntity
  8
0
100
AcDbLine
 10
750.6627978365077
 20
-667.3213768871636
 30
0.0
 11
723.7628327383838
 21
-667.3213768871636
 31
0.0
  0
LINE
  5
23922
330
18
100
AcDbEntity
  8
0
100
AcDbLine
 10
723.7628327383838
 20
-667.3213768871636
 30
0.0
 11
721.2628036537117
 21
-664.8213303512657
 31
0.0
  0
LINE
  5
23923
330
18
100
AcDbEntity
  8
0
100
AcDbLine
 10
721.2628036537117
 20
-664.8213303512657
 30
0.0
 11
720.9628036537108
 21
-664.8213303512657
 31
0.0
  0
LINE
  5
23924
330
18
100
AcDbEntity
  8
0
100
AcDbLine
 10
720.9628036537108
 20
-664.8213303512657
 30
0.0
 11
720.9627850393515
 21
-672.8213303512657
 31
0.0
  0
LINE
  5
23925
330
18
100
AcDbEntity
  8
0
100
AcDbLine
 10
720.9627850393515
 20
-672.8213303512657
 30
0.0
 11
721.2627850393526
 21
-672.8213303512657
 31
0.0
  0
LINE
  5
23926
330
18
100
AcDbEntity
  8
0
100
AcDbLine
 10
721.2627850393526
 20
-672.8213303512657
 30
0.0
 11
723.7627675880186
 21
-670.3213768871636
 31
0.0
  0
LINE
  5
23927
330
18
100
AcDbEntity
  8
0
100
AcDbLine
 10
723.7627675880186
 20
-670.3213768871636
 30
0.0
 11
750.6627908561234
 21
-670.3213768871636
 31
0.0
  0
LINE
  5
23928
330
18
100
AcDbEntity
  8
0
100
AcDbLine
 10
750.6627908561234
 20
-670.3213768871636
 30
0.0
 11
755.9627943463687
 21
-668.8213768871636
 31
0.0
  0
LINE
  5
23929
330
18
100
AcDbEntity
  8
0
100
AcDbLine
 10
755.9627943463687
 20
-668.8213768871636
 30
0.0
 11
750.6627978365077
 21
-667.3213768871636
 31
0.0
  0
LINE
  5
2392A
330
18
100
AcDbEntity
  8
0
100
AcDbLine
 10
750.6627978365077
 20
-641.321376887165
 30
0.0
 11
723.7628327383838
 21
-641.321376887165
 31
0.0
  0
LINE
  5
2392B
330
18
100
AcDbEntity
  8
0
100
AcDbLine
 10
723.7628327383838
 20
-641.321376887165
 30
0.0
 11
721.2628036537117
 21
-638.8213303512671
 31
0.0
  0
LINE
  5
2392C
330
18
100
AcDbEntity
  8
0
100
AcDbLine
 10
721.2628036537117
 20
-638.8213303512671
 30
0.0
 11
720.9628036537108
 21
-638.8213303512671
 31
0.0
  0
LINE
  5
2392D
330
18
100
AcDbEntity
  8
0
100
AcDbLine
 10
720.9628036537108
 20
-638.8213303512671
 30
0.0
 11
720.9627850393515
 21
-646.8213303512671
 31
0.0
  0
LINE
  5
2392E
330
18
100
AcDbEntity
  8
0
100
AcDbLine
 10
720.9627850393515
 20
-646.8213303512671
 30
0.0
 11
721.2627850393526
 21
-646.8213303512671
 31
0.0
  0
LINE
  5
2392F
330
18
100
AcDbEntity
  8
0
100
AcDbLine
 10
721.2627850393526
 20
-646.8213303512671
 30
0.0
 11
723.7627675880186
 21
-644.321376887165
 31
0.0
  0
LINE
  5
23930
330
18
100
AcDbEntity
  8
0
100
AcDbLine
 10
723.7627675880186
 20
-644.321376887165
 30
0.0
 11
750.6627908561234
 21
-644.321376887165
 31
0.0
  0
LINE
  5
23931
330
18
100
AcDbEntity
  8
0
100
AcDbLine
 10
750.6627908561234
 20
-644.321376887165
 30
0.0
 11
755.9627943463687
 21
-642.821376887165
 31
0.0
  0
LINE
  5
23932
330
18
100
AcDbEntity
  8
0
100
AcDbLine
 10
755.9627943463687
 20
-642.821376887165
 30
0.0
 11
750.6627978365077
 21
-641.321376887165
 31
0.0
  0
LINE
  5
23933
330
18
100
AcDbEntity
  8
0
  6
BYBLOCK
100
AcDbLine
 10
720.7072606495749
 20
-691.9572287312677
 30
0.0
 11
718.7072606495749
 21
-691.4213303512677
 31
0.0
  0
LINE
  5
23934
330
18
100
AcDbEntity
  8
0
  6
BYBLOCK
100
AcDbLine
 10
718.7072606495749
 20
-691.4213303512677
 30
0.0
 11
720.7072606495749
 21
-690.8854319712676
 31
0.0
  0
LINE
  5
23935
330
18
100
AcDbEntity
  8
0
  6
BYBLOCK
100
AcDbLine
 10
718.7072606495749
 20
-691.4213303512677
 30
0.0
 11
720.7072606495749
 21
-691.4213303512677
 31
0.0
  0
LINE
  5
23936
330
18
100
AcDbEntity
  8
0
  6
BYBLOCK
100
AcDbLine
 10
725.7072606495755
 20
-690.8854319712676
 30
0.0
 11
727.7072606495755
 21
-691.4213303512677
 31
0.0
  0
LINE
  5
23937
330
18
100
AcDbEntity
  8
0
  6
BYBLOCK
100
AcDbLine
 10
727.7072606495755
 20
-691.4213303512677
 30
0.0
 11
725.7072606495755
 21
-691.9572287312677
 31
0.0
  0
LINE
  5
23938
330
18
100
AcDbEntity
  8
0
  6
BYBLOCK
100
AcDbLine
 10
727.7072606495755
 20
-691.4213303512677
 30
0.0
 11
725.7072606495755
 21
-691.4213303512677
 31
0.0
  0
TEXT
  5
23939
330
18
100
AcDbEntity
  8
1DIM
  6
CONTINUOUS
100
AcDbText
 10
713.7556402792045
 20
-690.7213303512676
 30
0.0
 40
3.5
  1
9
100
AcDbText
1001
ACAD
1000
DSTYLE
1002
{
1070
    45
1040
0.5
1002
}
  0
LINE
  5
2393A
330
18
100
AcDbEntity
  8
0
  6
BYBLOCK
100
AcDbLine
 10
527.7620717981321
 20
-528.3376393759402
 30
0.0
 11
529.7620717981321
 21
-528.8735377559402
 31
0.0
  0
LINE
  5
2393B
330
18
100
AcDbEntity
  8
0
  6
BYBLOCK
100
AcDbLine
 10
529.7620717981321
 20
-528.8735377559402
 30
0.0
 11
527.7620717981321
 21
-529.4094361359403
 31
0.0
  0
LINE
  5
2393C
330
18
100
AcDbEntity
  8
0
  6
BYBLOCK
100
AcDbLine
 10
529.7620717981321
 20
-528.8735377559402
 30
0.0
 11
527.7620717981321
 21
-528.8735377559402
 31
0.0
  0
LINE
  5
2393D
330
18
100
AcDbEntity
  8
0
  6
BYBLOCK
100
AcDbLine
 10
419.7620721211699
 20
-529.4094361359403
 30
0.0
 11
417.7620721211699
 21
-528.8735377559402
 31
0.0
  0
LINE
  5
2393E
330
18
100
AcDbEntity
  8
0
  6
BYBLOCK
100
AcDbLine
 10
417.7620721211699
 20
-528.8735377559402
 30
0.0
 11
419.7620721211699
 21
-528.3376393759402
 31
0.0
  0
LINE
  5
2393F
330
18
100
AcDbEntity
  8
0
  6
BYBLOCK
100
AcDbLine
 10
417.7620721211699
 20
-528.8735377559402
 30
0.0
 11
419.7620721211699
 21
-528.8735377559402
 31
0.0
  0
TEXT
  5
23940
330
18
100
AcDbEntity
  8
1DIM
  6
CONTINUOUS
100
AcDbText
 10
470.262071959651
 20
-528.1735377559402
 30
0.0
 40
3.5
  1
112
100
AcDbText
1001
ACAD
1000
DSTYLE
1002
{
1070
    45
1040
0.5
1002
}
  0
LINE
  5
23941
330
18
100
AcDbEntity
  8
0
100
AcDbLine
 10
511.2621516652283
 20
-516.6823597987539
 30
0.0
 11
511.2621516652283
 21
-543.5823248968777
 31
0.0
  0
LINE
  5
23942
330
18
100
AcDbEntity
  8
0
100
AcDbLine
 10
511.2621516652283
 20
-543.5823248968777
 30
0.0
 11
508.7621051293304
 21
-546.0823539815499
 31
0.0
  0
LINE
  5
23943
330
18
100
AcDbEntity
  8
0
100
AcDbLine
 10
508.7621051293304
 20
-546.0823539815499
 30
0.0
 11
508.7621051293304
 21
-546.3823539815508
 31
0.0
  0
LINE
  5
23944
330
18
100
AcDbEntity
  8
0
100
AcDbLine
 10
508.7621051293304
 20
-546.3823539815508
 30
0.0
 11
516.7621051293304
 21
-546.38237259591
 31
0.0
  0
LINE
  5
23945
330
18
100
AcDbEntity
  8
0
100
AcDbLine
 10
516.7621051293304
 20
-546.38237259591
 30
0.0
 11
516.7621051293304
 21
-546.082372595909
 31
0.0
  0
LINE
  5
23946
330
18
100
AcDbEntity
  8
0
100
AcDbLine
 10
516.7621051293304
 20
-546.082372595909
 30
0.0
 11
514.2621516652283
 21
-543.5823900472429
 31
0.0
  0
LINE
  5
23947
330
18
100
AcDbEntity
  8
0
100
AcDbLine
 10
514.2621516652283
 20
-543.5823900472429
 30
0.0
 11
514.2621516652283
 21
-516.6823667791382
 31
0.0
  0
LINE
  5
23948
330
18
100
AcDbEntity
  8
0
100
AcDbLine
 10
514.2621516652283
 20
-516.6823667791382
 30
0.0
 11
512.7621516652283
 21
-511.3823632888929
 31
0.0
  0
LINE
  5
23949
330
18
100
AcDbEntity
  8
0
100
AcDbLine
 10
512.7621516652283
 20
-511.3823632888929
 30
0.0
 11
511.2621516652283
 21
-516.6823597987539
 31
0.0
  0
LINE
  5
2394A
330
18
100
AcDbEntity
  8
0
100
AcDbLine
 10
449.2620856489087
 20
-516.6823597987536
 30
0.0
 11
449.2620856489087
 21
-543.5823248968775
 31
0.0
  0
LINE
  5
2394B
330
18
100
AcDbEntity
  8
0
100
AcDbLine
 10
449.2620856489087
 20
-543.5823248968775
 30
0.0
 11
446.7620391130108
 21
-546.0823539815497
 31
0.0
  0
LINE
  5
2394C
330
18
100
AcDbEntity
  8
0
100
AcDbLine
 10
446.7620391130108
 20
-546.0823539815497
 30
0.0
 11
446.7620391130108
 21
-546.3823539815505
 31
0.0
  0
LINE
  5
2394D
330
18
100
AcDbEntity
  8
0
100
AcDbLine
 10
446.7620391130108
 20
-546.3823539815505
 30
0.0
 11
454.7620391130108
 21
-546.3823725959098
 31
0.0
  0
LINE
  5
2394E
330
18
100
AcDbEntity
  8
0
100
AcDbLine
 10
454.7620391130108
 20
-546.3823725959098
 30
0.0
 11
454.7620391130108
 21
-546.0823725959087
 31
0.0
  0
LINE
  5
2394F
330
18
100
AcDbEntity
  8
0
100
AcDbLine
 10
454.7620391130108
 20
-546.0823725959087
 30
0.0
 11
452.2620856489087
 21
-543.5823900472427
 31
0.0
  0
LINE
  5
23950
330
18
100
AcDbEntity
  8
0
100
AcDbLine
 10
452.2620856489087
 20
-543.5823900472427
 30
0.0
 11
452.2620856489087
 21
-516.682366779138
 31
0.0
  0
LINE
  5
23951
330
18
100
AcDbEntity
  8
0
100
AcDbLine
 10
452.2620856489087
 20
-516.682366779138
 30
0.0
 11
450.7620856489087
 21
-511.3823632888926
 31
0.0
  0
LINE
  5
23952
330
18
100
AcDbEntity
  8
0
100
AcDbLine
 10
450.7620856489087
 20
-511.3823632888926
 30
0.0
 11
449.2620856489087
 21
-516.6823597987536
 31
0.0
  0
LINE
  5
23953
330
18
100
AcDbEntity
  8
0
  6
BYBLOCK
100
AcDbLine
 10
771.4554162244524
 20
-673.8213303512664
 30
0.0
 11
770.9195178444523
 21
-675.8213303512664
 31
0.0
  0
LINE
  5
23954
330
18
100
AcDbEntity
  8
0
  6
BYBLOCK
100
AcDbLine
 10
770.9195178444523
 20
-675.8213303512664
 30
0.0
 11
770.3836194644523
 21
-673.8213303512664
 31
0.0
  0
LINE
  5
23955
330
18
100
AcDbEntity
  8
0
  6
BYBLOCK
100
AcDbLine
 10
770.9195178444523
 20
-675.8213303512664
 30
0.0
 11
770.9195178444523
 21
-673.8213303512664
 31
0.0
  0
LINE
  5
23956
330
18
100
AcDbEntity
  8
0
  6
BYBLOCK
100
AcDbLine
 10
770.3836194644523
 20
-624.321330028231
 30
0.0
 11
770.9195178444523
 21
-622.321330028231
 31
0.0
  0
LINE
  5
23957
330
18
100
AcDbEntity
  8
0
  6
BYBLOCK
100
AcDbLine
 10
770.9195178444523
 20
-622.321330028231
 30
0.0
 11
771.4554162244524
 21
-624.321330028231
 31
0.0
  0
LINE
  5
23958
330
18
100
AcDbEntity
  8
0
  6
BYBLOCK
100
AcDbLine
 10
770.9195178444523
 20
-622.321330028231
 30
0.0
 11
770.9195178444523
 21
-624.321330028231
 31
0.0
  0
TEXT
  5
23959
330
18
100
AcDbEntity
  8
1DIM
  6
CONTINUOUS
100
AcDbText
 10
770.2195178444522
 20
-654.3334829675267
 30
0.0
 40
3.5
  1
53.5
 50
90.0
100
AcDbText
1001
ACAD
1000
DSTYLE
1002
{
1070
    45
1040
0.5
1002
}
  0
LINE
  5
2395A
330
18
100
AcDbEntity
  8
0
  6
BYBLOCK
100
AcDbLine
 10
435.7620717981322
 20
-615.1745125688066
 30
0.0
 11
433.7620717981322
 21
-614.6386141888065
 31
0.0
  0
LINE
  5
2395B
330
18
100
AcDbEntity
  8
0
  6
BYBLOCK
100
AcDbLine
 10
433.7620717981322
 20
-614.6386141888065
 30
0.0
 11
435.7620717981322
 21
-614.1027158088065
 31
0.0
  0
LINE
  5
2395C
330
18
100
AcDbEntity
  8
0
  6
BYBLOCK
100
AcDbLine
 10
433.7620717981322
 20
-614.6386141888065
 30
0.0
 11
435.7620717981322
 21
-614.6386141888065
 31
0.0
  0
LINE
  5
2395D
330
18
100
AcDbEntity
  8
0
  6
BYBLOCK
100
AcDbLine
 10
527.7620717981322
 20
-614.1027158088065
 30
0.0
 11
529.7620717981322
 21
-614.6386141888065
 31
0.0
  0
LINE
  5
2395E
330
18
100
AcDbEntity
  8
0
  6
BYBLOCK
100
AcDbLine
 10
529.7620717981322
 20
-614.6386141888065
 30
0.0
 11
527.7620717981322
 21
-615.1745125688066
 31
0.0
  0
LINE
  5
2395F
330
18
100
AcDbEntity
  8
0
  6
BYBLOCK
100
AcDbLine
 10
529.7620717981322
 20
-614.6386141888065
 30
0.0
 11
527.7620717981322
 21
-614.6386141888065
 31
0.0
  0
TEXT
  5
23960
330
18
100
AcDbEntity
  8
1DIM
  6
CONTINUOUS
100
AcDbText
 10
478.8437847610952
 20
-613.9386141888065
 30
0.0
 40
3.5
  1
96
100
AcDbText
  0
LINE
  5
23961
330
18
100
AcDbEntity
  8
0
  6
BYBLOCK
100
AcDbLine
 10
673.4572606495755
 20
-608.4816947932337
 30
0.0
 11
671.4572606495755
 21
-607.9457964132337
 31
0.0
  0
LINE
  5
23962
330
18
100
AcDbEntity
  8
0
  6
BYBLOCK
100
AcDbLine
 10
671.4572606495755
 20
-607.9457964132337
 30
0.0
 11
673.4572606495755
 21
-607.4098980332336
 31
0.0
  0
LINE
  5
23963
330
18
100
AcDbEntity
  8
0
  6
BYBLOCK
100
AcDbLine
 10
671.4572606495755
 20
-607.9457964132337
 30
0.0
 11
673.4572606495755
 21
-607.9457964132337
 31
0.0
  0
LINE
  5
23964
330
18
100
AcDbEntity
  8
0
  6
BYBLOCK
100
AcDbLine
 10
725.7072606495755
 20
-607.4098980332336
 30
0.0
 11
727.7072606495755
 21
-607.9457964132337
 31
0.0
  0
LINE
  5
23965
330
18
100
AcDbEntity
  8
0
  6
BYBLOCK
100
AcDbLine
 10
727.7072606495755
 20
-607.9457964132337
 30
0.0
 11
725.7072606495755
 21
-608.4816947932337
 31
0.0
  0
LINE
  5
23966
330
18
100
AcDbEntity
  8
0
  6
BYBLOCK
100
AcDbLine
 10
727.7072606495755
 20
-607.9457964132337
 30
0.0
 11
725.7072606495755
 21
-607.9457964132337
 31
0.0
  0
TEXT
  5
23967
330
18
100
AcDbEntity
  8
1DIM
  6
CONTINUOUS
100
AcDbText
 10
696.653441205131
 20
-607.2457964132337
 30
0.0
 40
3.5
  1
56
100
AcDbText
1001
ACAD
1000
DSTYLE
1002
{
1070
    45
1040
0.5
1002
}
  0
LINE
  5
23968
330
18
100
AcDbEntity
  8
0
  6
BYBLOCK
100
AcDbLine
 10
696.6070360515608
 20
-590.8878679620774
 30
0.0
 11
696.0711376715608
 21
-592.8878679620774
 31
0.0
  0
LINE
  5
23969
330
18
100
AcDbEntity
  8
0
  6
BYBLOCK
100
AcDbLine
 10
696.0711376715608
 20
-592.8878679620774
 30
0.0
 11
695.5352392915607
 21
-590.8878679620774
 31
0.0
  0
LINE
  5
2396A
330
18
100
AcDbEntity
  8
0
  6
BYBLOCK
100
AcDbLine
 10
696.0711376715608
 20
-592.8878679620774
 30
0.0
 11
696.0711376715608
 21
-590.8878679620774
 31
0.0
  0
LINE
  5
2396B
330
18
100
AcDbEntity
  8
0
  6
BYBLOCK
100
AcDbLine
 10
695.5352392915607
 20
-550.8878679620774
 30
0.0
 11
696.0711376715608
 21
-548.8878679620774
 31
0.0
  0
LINE
  5
2396C
330
18
100
AcDbEntity
  8
0
  6
BYBLOCK
100
AcDbLine
 10
696.0711376715608
 20
-548.8878679620774
 30
0.0
 11
696.6070360515608
 21
-550.8878679620774
 31
0.0
  0
LINE
  5
2396D
330
18
100
AcDbEntity
  8
0
  6
BYBLOCK
100
AcDbLine
 10
696.0711376715608
 20
-548.8878679620774
 30
0.0
 11
696.0711376715608
 21
-550.8878679620774
 31
0.0
  0
TEXT
  5
2396E
330
18
100
AcDbEntity
  8
1DIM
  6
CONTINUOUS
100
AcDbText
 10
695.3711376715607
 20
-573.8045346287466
 30
0.0
 40
3.5
  1
44
 50
90.0
100
AcDbText
1001
ACAD
1000
DSTYLE
1002
{
1070
    45
1040
0.5
1002
}
  0
LINE
  5
2396F
330
18
100
AcDbEntity
  8
0
  6
BYBLOCK
100
AcDbLine
 10
682.4297738540034
 20
-583.8878679620774
 30
0.0
 11
681.8938754740034
 21
-585.8878679620774
 31
0.0
  0
LINE
  5
23970
330
18
100
AcDbEntity
  8
0
  6
BYBLOCK
100
AcDbLine
 10
681.8938754740034
 20
-585.8878679620774
 30
0.0
 11
681.3579770940033
 21
-583.8878679620774
 31
0.0
  0
LINE
  5
23971
330
18
100
AcDbEntity
  8
0
  6
BYBLOCK
100
AcDbLine
 10
681.8938754740034
 20
-585.8878679620774
 30
0.0
 11
681.8938754740034
 21
-583.8878679620774
 31
0.0
  0
LINE
  5
23972
330
18
100
AcDbEntity
  8
0
  6
BYBLOCK
100
AcDbLine
 10
681.3579770940033
 20
-557.8878679620806
 30
0.0
 11
681.8938754740034
 21
-555.8878679620806
 31
0.0
  0
LINE
  5
23973
330
18
100
AcDbEntity
  8
0
  6
BYBLOCK
100
AcDbLine
 10
681.8938754740034
 20
-555.8878679620806
 30
0.0
 11
682.4297738540034
 21
-557.8878679620806
 31
0.0
  0
LINE
  5
23974
330
18
100
AcDbEntity
  8
0
  6
BYBLOCK
100
AcDbLine
 10
681.8938754740034
 20
-555.8878679620806
 30
0.0
 11
681.8938754740034
 21
-557.8878679620806
 31
0.0
  0
TEXT
  5
23975
330
18
100
AcDbEntity
  8
1DIM
  6
CONTINUOUS
100
AcDbText
 10
681.1938754740033
 20
-573.5857846287457
 30
0.0
 40
3.5
  1
30
 50
90.0
100
AcDbText
  0
LINE
  5
23976
330
18
100
AcDbEntity
  8
0
  6
BYBLOCK
100
AcDbLine
 10
477.7621301686813
 20
-604.7916528231437
 30
0.0
 11
475.7621301686813
 21
-604.2557544431437
 31
0.0
  0
LINE
  5
23977
330
18
100
AcDbEntity
  8
0
  6
BYBLOCK
100
AcDbLine
 10
475.7621301686813
 20
-604.2557544431437
 30
0.0
 11
477.7621301686813
 21
-603.7198560631437
 31
0.0
  0
LINE
  5
23978
330
18
100
AcDbEntity
  8
0
  6
BYBLOCK
100
AcDbLine
 10
475.7621301686813
 20
-604.2557544431437
 30
0.0
 11
477.7621301686813
 21
-604.2557544431437
 31
0.0
  0
LINE
  5
23979
330
18
100
AcDbEntity
  8
0
  6
BYBLOCK
100
AcDbLine
 10
658.7621301686813
 20
-603.7198560631437
 30
0.0
 11
660.7621301686813
 21
-604.2557544431437
 31
0.0
  0
LINE
  5
2397A
330
18
100
AcDbEntity
  8
0
  6
BYBLOCK
100
AcDbLine
 10
660.7621301686813
 20
-604.2557544431437
 30
0.0
 11
658.7621301686813
 21
-604.7916528231437
 31
0.0
  0
LINE
  5
2397B
330
18
100
AcDbEntity
  8
0
  6
BYBLOCK
100
AcDbLine
 10
660.7621301686813
 20
-604.2557544431437
 30
0.0
 11
658.7621301686813
 21
-604.2557544431437
 31
0.0
  0
TEXT
  5
2397C
330
18
100
AcDbEntity
  8
1DIM
  6
CONTINUOUS
100
AcDbText
 10
564.178796835348
 20
-603.5557544431438
 30
0.0
 40
3.5
  1
185
100
AcDbText
  0
LINE
  5
2397D
330
18
100
AcDbEntity
  8
0
  6
BYBLOCK
100
AcDbLine
 10
662.7621301686813
 20
-604.5237036331437
 30
0.0
 11
660.7621301686813
 21
-603.9878052531436
 31
0.0
  0
LINE
  5
2397E
330
18
100
AcDbEntity
  8
0
  6
BYBLOCK
100
AcDbLine
 10
660.7621301686813
 20
-603.9878052531436
 30
0.0
 11
662.7621301686813
 21
-603.4519068731436
 31
0.0
  0
LINE
  5
2397F
330
18
100
AcDbEntity
  8
0
  6
BYBLOCK
100
AcDbLine
 10
660.7621301686813
 20
-603.9878052531436
 30
0.0
 11
662.7621301686813
 21
-603.9878052531436
 31
0.0
  0
LINE
  5
23980
330
18
100
AcDbEntity
  8
0
  6
BYBLOCK
100
AcDbLine
 10
665.7621301686813
 20
-603.4519068731436
 30
0.0
 11
667.7621301686813
 21
-603.9878052531436
 31
0.0
  0
LINE
  5
23981
330
18
100
AcDbEntity
  8
0
  6
BYBLOCK
100
AcDbLine
 10
667.7621301686813
 20
-603.9878052531436
 30
0.0
 11
665.7621301686813
 21
-604.5237036331437
 31
0.0
  0
LINE
  5
23982
330
18
100
AcDbEntity
  8
0
  6
BYBLOCK
100
AcDbLine
 10
667.7621301686813
 20
-603.9878052531436
 30
0.0
 11
665.7621301686813
 21
-603.9878052531436
 31
0.0
  0
TEXT
  5
23983
330
18
100
AcDbEntity
  8
1DIM
  6
CONTINUOUS
100
AcDbText
 10
663.0954635020147
 20
-603.2878052531436
 30
0.0
 40
3.5
  1
7
100
AcDbText
  0
LINE
  5
23984
330
18
100
AcDbEntity
  8
0
  6
BYBLOCK
100
AcDbLine
 10
410.7855709955502
 20
-776.8879260095949
 30
0.0
 11
410.2496726155503
 21
-778.8879260095949
 31
0.0
  0
LINE
  5
23985
330
18
100
AcDbEntity
  8
0
  6
BYBLOCK
100
AcDbLine
 10
410.2496726155503
 20
-778.8879260095949
 30
0.0
 11
409.7137742355503
 21
-776.8879260095949
 31
0.0
  0
LINE
  5
23986
330
18
100
AcDbEntity
  8
0
  6
BYBLOCK
100
AcDbLine
 10
410.2496726155503
 20
-778.8879260095949
 30
0.0
 11
410.2496726155503
 21
-776.8879260095949
 31
0.0
  0
LINE
  5
23987
330
18
100
AcDbEntity
  8
0
  6
BYBLOCK
100
AcDbLine
 10
409.7137742355503
 20
-541.637896985686
 30
0.0
 11
410.2496726155503
 21
-539.637896985686
 31
0.0
  0
LINE
  5
23988
330
18
100
AcDbEntity
  8
0
  6
BYBLOCK
100
AcDbLine
 10
410.2496726155503
 20
-539.637896985686
 30
0.0
 11
410.7855709955502
 21
-541.637896985686
 31
0.0
  0
LINE
  5
23989
330
18
100
AcDbEntity
  8
0
  6
BYBLOCK
100
AcDbLine
 10
410.2496726155503
 20
-539.637896985686
 30
0.0
 11
410.2496726155503
 21
-541.637896985686
 31
0.0
  0
TEXT
  5
2398A
330
18
100
AcDbEntity
  8
1DIM
  6
CONTINUOUS
100
AcDbText
 10
409.5496726155504
 20
-666.2637216828257
 30
0.0
 40
3.5
  1
239.5
 50
90.0
100
AcDbText
1001
ACAD
1000
DSTYLE
1002
{
1070
    45
1040
0.5
1002
}
  0
VIEWPORT
  5
57
330
15
100
AcDbEntity
 67
     1
  8
0
100
AcDbViewport
 68
     1
 10
0.0
 20
0.0
 30
0.0
 40
551.8723404255319
 41
297.0
 68
     1
 69
     1
1001
ACAD
1000
MVIEW
1002
{
1070
    16
1010
0.0
1020
0.0
1030
0.0
1010
0.0
1020
0.0
1030
1.0
1040
0.0
1040
297.0
1040
-4.171999999925333
1040
12.83903210976956
1040
50.0
1040
0.0
1040
0.0
1070
    16
1070
   100
1070
     0
1070
     1
1070
     0
1070
     0
1070
     0
1070
     0
1040
0.0
1040
0.0
1040
0.0
1040
10.0
1040
10.0
1040
10.0
1040
10.0
1070
     0
1002
{
1002
}
1002
}
  0
ENDSEC
  0
SECTION
  2
OBJECTS
  0
DICTIONARY
  5
C
330
0
100
AcDbDictionary
  3
ACAD_COLOR
350
2D0
  3
ACAD_GROUP
350
D
  3
ACAD_LAYOUT
350
2D1
  3
ACAD_MATERIAL
350
2CF
  3
ACAD_MLEADERSTYLE
350
19E18
  3
ACAD_MLINESTYLE
350
1B
  3
ACAD_PLOTSETTINGS
350
2D2
  3
ACAD_SCALELIST
350
19DF6
  3
ACAD_VISUALSTYLE
350
19DE5
  3
ACDBHEADERROUNDTRIPXREC
350
2398B
  3
ACDBVARIABLEDICTIONARY
350
37
  3
CONTENTDICTIONARY
350
D8
  3
DRAWINGVARIABLESDICT
350
20
  3
DWGPROPS
350
2398E
1001
ACAD
1000
TREAT_AS_HARD
1070
     0
  0
DICTIONARY
  5
18FE8
330
2
100
AcDbDictionary
  3
ACAD_LAYERSTATES
360
18FE9
1001
ACAD
1000
TREAT_AS_HARD
1070
     1
  0
DICTIONARY
  5
1A20A
330
E
100
AcDbDictionary
  3
ADSK_XREC_LAYER_RECONCILED
360
1A20B
1001
ACAD
1000
TREAT_AS_HARD
1070
     1
  0
DICTIONARY
  5
1A20C
330
29
100
AcDbDictionary
  3
ADSK_XREC_LAYER_RECONCILED
360
1A20D
1001
ACAD
1000
TREAT_AS_HARD
1070
     1
  0
DICTIONARY
  5
1A20E
330
31
100
AcDbDictionary
  3
ADSK_XREC_LAYER_RECONCILED
360
1A20F
1001
ACAD
1000
TREAT_AS_HARD
1070
     1
  0
DICTIONARY
  5
1A218
330
101
100
AcDbDictionary
  3
ADSK_XREC_LAYER_RECONCILED
360
1A219
1001
ACAD
1000
TREAT_AS_HARD
1070
     1
  0
DICTIONARY
  5
1A21A
330
102
100
AcDbDictionary
  3
ADSK_XREC_LAYER_RECONCILED
360
1A21B
1001
ACAD
1000
TREAT_AS_HARD
1070
     1
  0
DICTIONARY
  5
1A21C
330
103
100
AcDbDictionary
  3
ADSK_XREC_LAYER_RECONCILED
360
1A21D
1001
ACAD
1000
TREAT_AS_HARD
1070
     1
  0
DICTIONARY
  5
1A220
330
25F
100
AcDbDictionary
  3
ADSK_XREC_LAYER_RECONCILED
360
1A221
1001
ACAD
1000
TREAT_AS_HARD
1070
     1
  0
DICTIONARY
  5
6E9
330
18
100
AcDbDictionary
  3
ACAD_SORTENTS
360
6EA
1001
ACAD
1000
TREAT_AS_HARD
1070
     1
  0
DICTIONARY
  5
59B
330
15
100
AcDbDictionary
  3
ACAD_SORTENTS
360
59C
1001
ACAD
1000
TREAT_AS_HARD
1070
     1
  0
DICTIONARY
  5
2D0
102
{ACAD_REACTORS
330
C
102
}
330
C
100
AcDbDictionary
1001
ACAD
1000
TREAT_AS_HARD
1070
     0
  0
DICTIONARY
  5
D
102
{ACAD_REACTORS
330
C
102
}
330
C
100
AcDbDictionary
  3
*A1
350
1EDFD
  3
*A2
350
20C15
  3
*A3
350
20C17
  3
*A5
350
21068
  3
*A6
350
222F2
  3
*A7
350
222F3
  3
*A8
350
222F4
1001
ACAD
1000
TREAT_AS_HARD
1070
     0
  0
DICTIONARY
  5
2D1
102
{ACAD_REACTORS
330
C
102
}
330
C
100
AcDbDictionary
1001
ACAD
1000
TREAT_AS_HARD
1070
     0
  0
DICTIONARY
  5
2CF
102
{ACAD_REACTORS
330
C
102
}
330
C
100
AcDbDictionary
  3
BYBLOCK
350
19DD5
  3
BYLAYER
350
19DCD
  3
GLOBAL
350
19DDD
1001
ACAD
1000
TREAT_AS_HARD
1070
     0
  0
DICTIONARY
  5
19E18
102
{ACAD_REACTORS
330
C
102
}
330
C
100
AcDbDictionary
  3
LEADERMULTI
350
2110D
  3
STANDARD
350
19E19
1001
ACAD
1000
TREAT_AS_HARD
1070
     0
  0
DICTIONARY
  5
1B
102
{ACAD_REACTORS
330
C
102
}
330
C
100
AcDbDictionary
  3
STANDARD
350
1C
1001
ACAD
1000
TREAT_AS_HARD
1070
     0
  0
DICTIONARY
  5
2D2
102
{ACAD_REACTORS
330
C
102
}
330
C
100
AcDbDictionary
1001
ACAD
1000
TREAT_AS_HARD
1070
     0
  0
DICTIONARY
  5
19DF6
102
{ACAD_REACTORS
330
C
102
}
330
C
100
AcDbDictionary
  3
A0
350
19DF7
  3
A1
350
19DF8
  3
A2
350
19DF9
  3
A3
350
19DFA
  3
A4
350
19DFB
  3
A5
350
19DFC
  3
A6
350
19DFD
  3
A7
350
19DFE
  3
A8
350
19DFF
  3
A9
350
19E00
  3
B0
350
19E01
  3
B1
350
19E02
  3
B2
350
19E03
  3
B3
350
19E04
  3
B4
350
19E05
  3
B5
350
19E06
  3
B6
350
19E07
  3
B7
350
19E08
  3
B8
350
19E09
  3
B9
350
19E0A
  3
C0
350
19E0B
  3
C1
350
19E0C
  3
C2
350
19E0D
  3
C3
350
19E0E
  3
C4
350
19E0F
  3
C5
350
19E10
  3
C6
350
19E11
  3
C7
350
19E12
  3
C8
350
19E13
  3
C9
350
19E14
  3
D0
350
19E15
  3
D1
350
19E16
  3
D2
350
19E17
1001
ACAD
1000
TREAT_AS_HARD
1070
     0
  0
DICTIONARY
  5
19DE5
102
{ACAD_REACTORS
330
C
102
}
330
C
100
AcDbDictionary
  3
2DWIREFRAME
350
19DEB
  3
3D_HIDDEN
350
19DED
  3
3DWIREFRAME
350
19DEC
  3
BASIC
350
19DEA
  3
BRIGHTEN
350
19DF1
  3
COLORCHANGE
350
19DF5
  3
CONCEPTUAL
350
19DEE
  3
DIM
350
19DF0
  3
EDGECOLOROFF
350
1E02A
  3
FACEPATTERN
350
19DF4
  3
FLAT
350
19DE6
  3
FLATWITHEDGES
350
19DE7
  3
GOURAUD
350
19DE8
  3
GOURAUDWITHEDGES
350
19DE9
  3
HIDDEN
350
1F554
  3
JITTEROFF
350
1E028
  3
LINEPATTERN
350
19DF3
  3
MODELING
350
1F55A
  3
OVERHANGOFF
350
1E029
  3
REALISTIC
350
19DEF
  3
SHADED
350
1F559
  3
SHADED_WITH_EDGES
350
1F558
  3
SHADES_OF_GRAY
350
1F555
  3
SKETCHY
350
1F556
  3
THICKEN
350
19DF2
  3
WIREFRAME
350
1F553
  3
X-RAY
350
1F557
1001
ACAD
1000
TREAT_AS_HARD
1070
     0
  0
DICTIONARY
  5
2398B
102
{ACAD_REACTORS
330
C
102
}
330
C
100
AcDbDictionary
  3
COLORDICT
350
2398C
  3
MATERIALDICT
350
2398D
1001
ACAD
1000
TREAT_AS_HARD
1070
     0
  0
DICTIONARY
  5
37
102
{ACAD_REACTORS
330
C
102
}
330
C
100
AcDbDictionary
  3
CANNOSCALE
350
1FD1B
  3
CMLEADERSTYLE
350
1AC19
  3
CTABLESTYLE
350
4F1
  3
DIMADEC
350
38
  3
DIMASSOC
350
408
  3
HIDETEXT
350
1891
  3
INDEXCTL
350
1AC1C
  3
INTERSECTIONCOLOR
350
1895
  3
INTERSECTIONDISPLAY
350
1894
  3
MSLTSCALE
350
1FD71
  3
OBSCOLOR
350
1892
  3
OBSLTYPE
350
1893
  3
PROJECTNAME
350
409
  3
SORTENTS
350
1AC1B
  3
XCLIPFRAME
350
1F552
1001
ACAD
1000
TREAT_AS_HARD
1070
     0
  0
DICTIONARY
  5
D8
102
{ACAD_REACTORS
330
C
102
}
330
C
100
AcDbDictionary
1001
CONTENTTABDATA
1070
    11
1000
Child
1000
D:\ACLT\TABset\CHILDREN.dwg
1070
     0
1070
     0
1070
     1
1000
PK
1000
D:\ACLT\TABset\PK.dwg
1070
     0
1070
     0
1070
     1
1000
Lev1
1000
D:\ACLT\TABset\Lever01.dwg
1070
     0
1070
     0
1070
     1
1000
Lev2
1000
D:\ACLT\TABset\Lever02.dwg
1070
     0
1070
     0
1070
     1
1000
L3
1000
D:\Aclt\TABset\Lever03.dwg
1070
     0
1070
     0
1070
     1
1000
Form
1000
D:\ACLT\FORMAT
1070
     1
1070
     0
1070
     1
1000
Jnt
1000
D:\ACLT\TABset\JOINTPARTS.dwg
1070
     0
1070
     0
1070
     1
1000
ISO
1000
D:\ACLT\TABset\Isome01.dwg
1070
     0
1070
     0
1070
     1
1000
R
1000
D:\ACLT\TABset\REGION.dwg
1070
     0
1070
     0
1070
     1
1000
std
1000
D:\ACLT\TABset\std_sym_all.dwg
1070
     0
1070
     0
1070
     1
1000
丸
1000
D:\Aclt\TABset\MARU.dwg
1070
     0
1070
     0
1070
     1
1001
CONTENTCURRENTTAB
1070
     0
1001
ACAD
1000
TREAT_AS_HARD
1070
     0
  0
DICTIONARY
  5
20
102
{ACAD_REACTORS
330
C
102
}
330
C
100
AcDbDictionary
1001
DRAWINGVARIABLESXDATA
1000
POLARANG
1000
0.261799387799149410000000
1000
POLARMODE
1000
1
1000
POLARSTYLE
1000
1
1001
ACAD
1000
TREAT_AS_HARD
1070
     0
  0
XRECORD
  5
2398E
102
{ACAD_REACTORS
330
C
102
}
330
C
100
AcDbXrecord
  1
DWGPROPS COOKIE
  2

  3

  4

  6

  7

  8
3684
  9

300
=
301
=
302
=
303
=
304
=
305
=
306
=
307
=
308
=
309
=
 40
0.0
 41
2453033.357663484
 42
2459194.093747882
  1

 90
        0
  0
DICTIONARY
  5
18FE9
102
{ACAD_REACTORS
330
18FE8
102
}
330
18FE8
100
AcDbDictionary
1001
ACAD
1000
TREAT_AS_HARD
1070
     0
  0
ACAD_PROXY_OBJECT
  5
1A20B
102
{ACAD_REACTORS
330
1A20A
102
}
330
1A20A
100
AcDbZombieObject
 90
      499
 91
      518
 93
       34
310
40C8804040
  0
ACAD_PROXY_OBJECT
  5
1A20D
102
{ACAD_REACTORS
330
1A20C
102
}
330
1A20C
100
AcDbZombieObject
 90
      499
 91
      518
 93
       34
310
40C8804040
  0
ACAD_PROXY_OBJECT
  5
1A20F
102
{ACAD_REACTORS
330
1A20E
102
}
330
1A20E
100
AcDbZombieObject
 90
      499
 91
      518
 93
       34
310
40C8804040
  0
ACAD_PROXY_OBJECT
  5
1A219
102
{ACAD_REACTORS
330
1A218
102
}
330
1A218
100
AcDbZombieObject
 90
      499
 91
      518
 93
       34
310
40C8804040
  0
ACAD_PROXY_OBJECT
  5
1A21B
102
{ACAD_REACTORS
330
1A21A
102
}
330
1A21A
100
AcDbZombieObject
 90
      499
 91
      518
 93
       34
310
40C8804040
  0
ACAD_PROXY_OBJECT
  5
1A21D
102
{ACAD_REACTORS
330
1A21C
102
}
330
1A21C
100
AcDbZombieObject
 90
      499
 91
      518
 93
       34
310
40C8804040
  0
ACAD_PROXY_OBJECT
  5
1A221
102
{ACAD_REACTORS
330
1A220
102
}
330
1A220
100
AcDbZombieObject
 90
      499
 91
      518
 93
       34
310
40C8804040
  0
SORTENTSTABLE
  5
6EA
102
{ACAD_REACTORS
330
6E9
102
}
330
6E9
100
AcDbSortentsTable
330
18
331
0
  5
99AB
331
0
  5
AB53
331
0
  5
AB54
331
0
  5
ECB5
331
0
  5
1D523
331
1D8CA
  5
205A7
331
1D90A
  5
205A8
331
0
  5
1DB93
331
1DB93
  5
20BC2
331
1DB94
  5
20BC3
331
1DB95
  5
20BFA
331
1DB96
  5
20BFB
331
1DB97
  5
20BFC
331
1DB99
  5
20BFD
331
1DB9A
  5
20BFE
331
1DB9B
  5
20BFF
331
1DB9C
  5
20C06
331
1DB9D
  5
20C07
331
1DBA4
  5
20C08
331
1DBA5
  5
20C0E
331
1DBA6
  5
20C0F
331
0
  5
1E233
331
0
  5
1E7B5
331
0
  5
1E7B6
331
0
  5
1EC3D
331
0
  5
1E7B8
331
0
  5
1F077
331
0
  5
1F128
331
0
  5
2058E
331
0
  5
2058F
331
2058E
  5
21990
331
2058F
  5
21991
331
20590
  5
219D3
331
20591
  5
219D4
331
20592
  5
219D5
331
20593
  5
219D6
331
205A6
  5
219D7
331
205A7
  5
219D8
331
205A8
  5
21A79
331
205A9
  5
21A7C
331
205AA
  5
21A84
331
205AB
  5
21A87
331
205AC
  5
21A8A
331
205AD
  5
21A8C
331
20BBD
  5
21B86
331
20BBE
  5
21B8B
331
20BBF
  5
21B8F
331
20BC0
  5
21B93
331
20BC1
  5
21BAF
331
20BC2
  5
21BB1
331
20BC3
  5
21BB9
331
20BC4
  5
21BBA
331
20BF1
  5
21BBB
331
20BF2
  5
21BBC
331
20BFA
  5
21BE7
331
20BFB
  5
21BE8
331
20BFC
  5
21C10
331
20BFD
  5
21C11
331
20BFE
  5
21C12
331
20BFF
  5
21C13
331
20C06
  5
21C79
331
20C07
  5
21C7B
331
20C08
  5
21C95
331
20C09
  5
21C96
331
20C0A
  5
21C97
331
20C0B
  5
21C98
331
20C0E
  5
21C99
331
0
  5
20C18
331
0
  5
20C35
331
0
  5
20E5D
331
0
  5
20E5E
331
0
  5
20E5F
331
0
  5
20E60
331
20E5F
  5
237D4
331
20E60
  5
237D5
331
20E61
  5
237D6
331
20E62
  5
237D7
331
20E63
  5
237D8
331
20E64
  5
237D9
331
20E65
  5
237DA
331
20E66
  5
237DB
331
20E67
  5
237DC
331
20E68
  5
237DD
331
20E69
  5
237DE
331
20E6A
  5
237DF
331
20E6B
  5
237E0
331
20E6C
  5
237E1
331
20E6D
  5
237E2
331
20E6E
  5
237E3
331
20E75
  5
237E4
331
20E76
  5
237E5
331
20E77
  5
237E6
331
20E78
  5
237E7
331
20E79
  5
237E8
331
20E7A
  5
237E9
331
20E7B
  5
237EA
331
20E7C
  5
237EB
331
20E7D
  5
237ED
331
20E7E
  5
237EE
331
20E7F
  5
237EF
331
20E81
  5
237F0
331
20E82
  5
237F1
331
20E83
  5
237F2
331
20E84
  5
237F3
331
20E85
  5
237F4
331
20E86
  5
237F5
331
20E87
  5
237F6
331
20E88
  5
237F7
331
20E89
  5
237F8
331
20E8B
  5
237F9
331
20E8C
  5
237FA
331
20E90
  5
237FB
331
20E93
  5
237FC
331
20E94
  5
237FD
331
20E95
  5
237FE
331
21061
  5
237FF
331
21062
  5
23800
331
0
  5
21953
331
0
  5
21954
331
21953
  5
238A2
331
21954
  5
238A3
331
21955
  5
238A4
331
21956
  5
238A5
331
21957
  5
238A6
331
21966
  5
238A7
331
21968
  5
238A8
331
2196E
  5
238A9
331
21970
  5
238AA
331
21972
  5
238AB
331
21975
  5
238AC
331
21977
  5
238AD
331
21978
  5
238AE
331
2197B
  5
238AF
331
2197C
  5
238B0
331
2197D
  5
238B1
331
2197E
  5
238B2
331
2197F
  5
238B3
331
21984
  5
238B4
331
21987
  5
238B5
331
2198A
  5
238B6
331
2198B
  5
238B7
331
2198F
  5
238B8
331
21990
  5
238B9
331
21991
  5
238BA
331
219D3
  5
238BB
331
219D4
  5
238BC
331
219D5
  5
238BD
331
219D6
  5
238BE
331
219D7
  5
238BF
331
219D8
  5
238C0
331
21A79
  5
238C1
331
21A7C
  5
238C2
331
21A84
  5
238C3
331
21A87
  5
238C4
331
21A8A
  5
238C5
331
21A8C
  5
238C6
331
21B86
  5
238C7
331
21B8B
  5
238C8
331
21B8F
  5
238C9
331
21B93
  5
238CA
331
21BAF
  5
238CB
331
21BB1
  5
238CC
331
21BB9
  5
238CD
331
21BBA
  5
238CE
331
21BBB
  5
238CF
331
21BBC
  5
238D0
331
21BE7
  5
238D1
331
21BE8
  5
238D2
331
21C10
  5
238D3
331
21C11
  5
238D4
331
21C12
  5
238D5
331
21C13
  5
238D6
331
21C79
  5
238D7
331
21C7B
  5
238D8
331
21C95
  5
238D9
331
21C96
  5
238DA
331
21C97
  5
238DE
331
21C98
  5
238DF
331
21C99
  5
238E0
331
21C9A
  5
238E1
331
21C9B
  5
238E2
331
21C9C
  5
238E3
331
0
  5
222FB
331
0
  5
222FE
331
222FB
  5
238E9
331
222FE
  5
238EA
331
0
  5
2231B
331
0
  5
22728
331
0
  5
22729
331
22728
  5
23909
331
22729
  5
2390A
331
2272A
  5
2390B
331
230A9
  5
2390C
331
230AA
  5
2390D
331
230AB
  5
2390E
331
0
  5
235D0
331
235CF
  5
23919
331
235D0
  5
2391A
331
0
  5
235D3
331
0
  5
235D4
331
0
  5
235D5
331
235D4
  5
23939
331
235D5
  5
2393A
331
235D6
  5
2393B
331
235D7
  5
2393C
331
235D8
  5
2393D
331
235D9
  5
2393E
331
235DA
  5
2393F
331
235DB
  5
23940
331
235DC
  5
23941
331
235DD
  5
23942
331
235DE
  5
23943
331
235DF
  5
23944
331
235E0
  5
23945
331
235E1
  5
23946
331
235E2
  5
23947
331
235E3
  5
23948
331
235E4
  5
23949
331
235E5
  5
2394A
331
235E6
  5
2394B
331
235E7
  5
2394C
331
235E8
  5
2394D
331
235E9
  5
2394E
331
235EA
  5
2394F
331
235EB
  5
23950
331
2361C
  5
23951
331
2361D
  5
23952
331
2361E
  5
23953
331
2361F
  5
23954
331
23620
  5
23955
331
23621
  5
23956
331
23622
  5
23957
331
23623
  5
23958
331
23624
  5
23959
331
23625
  5
2395A
331
23626
  5
2395B
331
23627
  5
2395C
331
23628
  5
2395D
331
23629
  5
2395E
331
2362A
  5
2395F
331
2362B
  5
23960
331
2362C
  5
23961
331
2362D
  5
23962
331
2362E
  5
23963
331
2362F
  5
23964
331
23630
  5
23965
331
23631
  5
23966
331
23632
  5
23967
331
23633
  5
23968
331
23634
  5
23969
331
23635
  5
2396A
331
23636
  5
2396B
331
23637
  5
2396C
331
23638
  5
2396D
331
23639
  5
2396E
331
0
  5
23648
331
23647
  5
23979
331
23648
  5
2397A
331
23649
  5
2397B
331
2364C
  5
2397C
331
2364D
  5
2397D
331
2364E
  5
2397E
331
2364F
  5
2397F
331
23650
  5
23980
331
23651
  5
23981
331
23652
  5
23982
331
23653
  5
23983
331
23654
  5
23984
331
23655
  5
23985
331
23656
  5
23986
331
23657
  5
23987
331
23658
  5
23988
331
23659
  5
23989
331
2365A
  5
2398A
331
2377B
  5
20E7B
331
2377C
  5
20E7E
331
2377D
  5
1D8CE
331
2377E
  5
1D910
331
2377F
  5
1DB97
331
23780
  5
1DB98
331
0
  5
1DB99
331
0
  5
1DB9A
331
0
  5
1DB9B
331
23784
  5
1DFD9
331
23785
  5
1E7B7
331
23786
  5
1F05D
331
23787
  5
20593
331
23788
  5
205A6
331
23789
  5
205A9
331
2378A
  5
205AA
331
2378B
  5
205AB
331
0
  5
20590
331
0
  5
20591
331
0
  5
20592
331
2378F
  5
20C10
331
23790
  5
20E64
331
23791
  5
20E65
331
0
  5
20BC4
331
0
  5
20BF1
331
0
  5
20BF2
331
23795
  5
20E79
331
23796
  5
20E7A
331
23797
  5
20E7C
331
23798
  5
20E7D
331
23799
  5
20E7F
331
2379A
  5
20E81
331
2379B
  5
20E82
331
0
  5
20C09
331
0
  5
20C0A
331
0
  5
20C0B
331
2379F
  5
20E8B
331
237A0
  5
20E8C
331
237A1
  5
20E90
331
0
  5
20E61
331
0
  5
20E62
331
0
  5
20E63
331
237A5
  5
21955
331
237A6
  5
21956
331
237A7
  5
21957
331
0
  5
20E67
331
0
  5
20E68
331
0
  5
20E69
331
237AB
  5
2197B
331
237AC
  5
2197C
331
237AD
  5
2197D
331
0
  5
20E6D
331
0
  5
20E6E
331
0
  5
20E75
331
0
  5
21975
331
237B2
  5
230AA
331
237B3
  5
230AB
331
237B4
  5
235CE
331
237B5
  5
235D1
331
237B6
  5
235D2
331
237B7
  5
235D6
331
237B8
  5
235D7
331
237B9
  5
235D8
331
237BA
  5
235D9
331
237BB
  5
235DA
331
237BC
  5
235DB
331
237BD
  5
235DC
331
237BE
  5
235DD
331
237BF
  5
235DE
331
237C0
  5
235DF
331
237C1
  5
235E0
331
237C2
  5
235E1
331
237C3
  5
235E2
331
237C4
  5
235E3
331
237C5
  5
235E4
331
237C6
  5
235E5
331
237C7
  5
235E6
331
237C8
  5
235E7
331
237C9
  5
235E8
331
237CA
  5
235E9
331
237CB
  5
235EA
331
237CC
  5
235EB
331
237CD
  5
2361C
331
237CE
  5
2361D
331
237CF
  5
2361E
331
237D0
  5
2361F
331
237D1
  5
23620
331
237D2
  5
23621
331
237D3
  5
23622
331
237D4
  5
23623
331
237D5
  5
23624
331
237D6
  5
23625
331
237D7
  5
23626
331
237D8
  5
23627
331
237D9
  5
23628
331
237DA
  5
23629
331
237DB
  5
2362A
331
237DC
  5
2362B
331
237DD
  5
2362C
331
237DE
  5
2362D
331
237DF
  5
2362E
331
237E0
  5
2362F
331
237E1
  5
23630
331
237E2
  5
23631
331
237E3
  5
23632
331
237E4
  5
23633
331
237E5
  5
23634
331
237E6
  5
23635
331
237E7
  5
23636
331
237E8
  5
23637
331
237E9
  5
23638
331
237EA
  5
23639
331
237EB
  5
2363A
331
237EC
  5
23647
331
237ED
  5
23649
331
237EE
  5
2364C
331
0
  5
235CF
331
237F0
  5
23659
331
237F1
  5
2377D
331
237F2
  5
2377E
331
237F3
  5
2377F
331
237F4
  5
23780
331
237F5
  5
23781
331
237F6
  5
23782
331
237F7
  5
23783
331
237F8
  5
23784
331
237F9
  5
23785
331
237FA
  5
23786
331
237FB
  5
23787
331
237FC
  5
23788
331
237FD
  5
23789
331
237FE
  5
2378A
331
237FF
  5
2378B
331
23800
  5
2378C
331
23801
  5
2378D
331
23802
  5
2378E
331
23803
  5
2378F
331
23804
  5
23790
331
23805
  5
23791
331
23806
  5
23792
331
23807
  5
23793
331
23808
  5
23794
331
23809
  5
23795
331
2380A
  5
23796
331
2380B
  5
23797
331
2380C
  5
23798
331
2380D
  5
23799
331
2380E
  5
2379A
331
2380F
  5
2379B
331
23810
  5
2379C
331
23811
  5
2379D
331
23812
  5
2379E
331
23813
  5
2379F
331
23814
  5
237A0
331
23815
  5
237A1
331
23816
  5
237A2
331
23817
  5
237A3
331
23818
  5
237A4
331
23819
  5
237A5
331
2381A
  5
237A6
331
2381B
  5
237A7
331
2381C
  5
237A8
331
2381D
  5
237A9
331
2381E
  5
237AA
331
2381F
  5
237AB
331
23820
  5
237AC
331
23821
  5
237AD
331
23822
  5
237AF
331
23823
  5
237B0
331
23824
  5
237B1
331
23825
  5
237B2
331
23826
  5
237B3
331
23827
  5
237B4
331
23828
  5
237B5
331
23829
  5
237B6
331
2382A
  5
237B7
331
2382B
  5
237B8
331
2382C
  5
237B9
331
2382D
  5
237BA
331
2382E
  5
237BB
331
2382F
  5
237BC
331
23830
  5
237BD
331
0
  5
23654
331
0
  5
23655
331
0
  5
23656
331
23834
  5
237C5
331
23835
  5
237C6
331
23836
  5
237C7
331
0
  5
2365A
331
0
  5
2377B
331
0
  5
2377C
331
2383A
  5
237CF
331
2383B
  5
237D0
331
2383C
  5
237D1
331
2383D
  5
237D2
331
2383E
  5
237D3
331
0
  5
237AE
331
23840
  5
2380A
331
23841
  5
2380B
331
23842
  5
2380C
331
23843
  5
2380D
331
23844
  5
2380E
331
23845
  5
2380F
331
23846
  5
23810
331
23847
  5
23811
331
23848
  5
23812
331
23849
  5
23813
331
2384A
  5
23814
331
2384B
  5
23815
331
2384C
  5
23816
331
2384D
  5
23817
331
2384E
  5
23818
331
2384F
  5
23819
331
23850
  5
2381A
331
23851
  5
2381B
331
23852
  5
2381C
331
23853
  5
2381D
331
23854
  5
2381E
331
23855
  5
2381F
331
23856
  5
23820
331
23857
  5
23821
331
23858
  5
23822
331
23859
  5
23823
331
2385A
  5
23824
331
2385B
  5
23825
331
2385C
  5
23826
331
2385D
  5
23827
331
2385E
  5
23828
331
2385F
  5
23829
331
23860
  5
2382A
331
23861
  5
2382B
331
23862
  5
2382C
331
23863
  5
2382D
331
23864
  5
2382E
331
23865
  5
2382F
331
23866
  5
23830
331
23867
  5
23831
331
23868
  5
23832
331
23869
  5
23833
331
2386A
  5
23834
331
2386B
  5
23835
331
2386C
  5
23836
331
2386D
  5
23837
331
2386E
  5
23838
331
2386F
  5
23839
331
23870
  5
2383A
331
23871
  5
2383B
331
23872
  5
2383C
331
23873
  5
2383D
331
23874
  5
2383E
331
23875
  5
2383F
331
23876
  5
23840
331
23877
  5
23841
331
23878
  5
23842
331
23879
  5
23843
331
2387A
  5
23844
331
2387B
  5
23845
331
2387C
  5
23846
331
0
  5
237EC
331
2387E
  5
23850
331
2387F
  5
23851
331
23880
  5
23852
331
23881
  5
23853
331
23882
  5
23854
331
23883
  5
23855
331
23884
  5
23856
331
23885
  5
23857
331
23886
  5
23858
331
23887
  5
23859
331
23888
  5
2385A
331
23889
  5
2385B
331
2388A
  5
2385C
331
2388B
  5
2385D
331
2388C
  5
2385E
331
2388D
  5
2385F
331
2388E
  5
23860
331
2388F
  5
23861
331
23890
  5
23862
331
23891
  5
23863
331
23892
  5
23864
331
23893
  5
23865
331
23894
  5
23866
331
23895
  5
23867
331
23896
  5
23868
331
23897
  5
23869
331
23898
  5
2386A
331
23899
  5
2386B
331
2389A
  5
2386C
331
2389B
  5
2386D
331
2389C
  5
2386E
331
2389D
  5
2386F
331
2389E
  5
23870
331
2389F
  5
23871
331
238A0
  5
23872
331
238A1
  5
23876
331
238A2
  5
23877
331
238A3
  5
23878
331
238A4
  5
2387C
331
238A5
  5
2387D
331
238A6
  5
2387E
331
238A7
  5
23882
331
238A8
  5
23883
331
238A9
  5
23884
331
238AA
  5
23885
331
238AB
  5
23886
331
238AC
  5
23887
331
238AD
  5
23888
331
238AE
  5
23889
331
238AF
  5
2388A
331
238B0
  5
2388E
331
238B1
  5
2388F
331
238B2
  5
23890
331
238B3
  5
23891
331
238B4
  5
23892
331
238B5
  5
23896
331
238B6
  5
23897
331
238B7
  5
23898
331
238B8
  5
2389C
331
238B9
  5
2389D
331
238BA
  5
2389E
331
238BB
  5
238E4
331
238BC
  5
238E5
331
238BD
  5
238E6
331
238BE
  5
238E7
331
238BF
  5
238E8
331
238C0
  5
238EB
331
238C1
  5
238EC
331
238C2
  5
238ED
331
0
  5
23873
331
0
  5
23874
331
0
  5
23875
331
238C6
  5
238F5
331
238C7
  5
238F6
331
238C8
  5
238F7
331
0
  5
23879
331
0
  5
2387A
331
0
  5
2387B
331
238CC
  5
238FF
331
238CD
  5
23900
331
238CE
  5
23901
331
0
  5
2387F
331
0
  5
23880
331
0
  5
23881
331
238D2
  5
2390F
331
238D3
  5
23910
331
238D4
  5
23911
331
0
  5
2388B
331
0
  5
2388C
331
0
  5
2388D
331
238D8
  5
2391B
331
238D9
  5
2391C
331
238DA
  5
2391D
331
0
  5
23893
331
0
  5
23894
331
0
  5
23895
331
238DE
  5
23925
331
238DF
  5
23926
331
238E0
  5
23927
331
0
  5
23899
331
0
  5
2389A
331
0
  5
2389B
331
238E4
  5
2392F
331
238E5
  5
23930
331
238E6
  5
23931
331
0
  5
2389F
331
0
  5
238A0
331
0
  5
238A1
331
238EA
  5
2396F
331
238EB
  5
23970
331
238EC
  5
23971
331
0
  5
238DB
331
0
  5
238DC
331
0
  5
238DD
331
238F0
  5
1DB9D
331
238F1
  5
1DB9E
331
238F2
  5
1DB9F
331
238F3
  5
1DBA0
331
238F4
  5
1DBA1
331
238F5
  5
1DBA8
331
238F6
  5
1DF13
331
238F7
  5
205AC
331
238F8
  5
205AD
331
238F9
  5
20BBD
331
238FA
  5
20BBE
331
238FB
  5
20BBF
331
238FC
  5
20BC0
331
238FD
  5
20BC1
331
238FE
  5
20E66
331
238FF
  5
20E6A
331
23900
  5
20E6B
331
23901
  5
20E6C
331
23902
  5
20E76
331
23903
  5
20E77
331
23904
  5
20E78
331
23905
  5
20E83
331
23906
  5
20E84
331
23907
  5
20E85
331
23908
  5
20E86
331
23909
  5
20E87
331
2390A
  5
20E88
331
2390B
  5
20E89
331
2390C
  5
20E93
331
2390D
  5
20E94
331
2390E
  5
20E95
331
2390F
  5
21061
331
23910
  5
21062
331
23911
  5
21066
331
23912
  5
21067
331
23913
  5
21966
331
23914
  5
21968
331
23915
  5
2196E
331
23916
  5
21970
331
23917
  5
21972
331
23918
  5
21977
331
23919
  5
21978
331
2391A
  5
2197E
331
2391B
  5
2197F
331
2391C
  5
21984
331
2391D
  5
21987
331
2391E
  5
2198A
331
2391F
  5
2198B
331
23920
  5
2198F
331
23921
  5
21C9A
331
23922
  5
21C9B
331
23923
  5
21C9C
331
23924
  5
222F6
331
23925
  5
222F7
331
23926
  5
22301
331
23927
  5
2230E
331
23928
  5
2272A
331
23929
  5
230A9
331
2392A
  5
2364D
331
2392B
  5
2364E
331
2392C
  5
2364F
331
2392D
  5
23650
331
2392E
  5
23651
331
2392F
  5
23652
331
23930
  5
23653
331
23931
  5
23657
331
23932
  5
23658
331
23933
  5
237BE
331
23934
  5
237BF
331
23935
  5
237C0
331
23936
  5
237C1
331
23937
  5
237C2
331
23938
  5
237C3
331
23939
  5
237C4
331
2393A
  5
237C8
331
2393B
  5
237C9
331
2393C
  5
237CA
331
2393D
  5
237CB
331
2393E
  5
237CC
331
2393F
  5
237CD
331
23940
  5
237CE
331
23941
  5
23801
331
23942
  5
23802
331
23943
  5
23803
331
23944
  5
23804
331
23945
  5
23805
331
23946
  5
23806
331
23947
  5
23807
331
23948
  5
23808
331
23949
  5
23809
331
2394A
  5
23847
331
2394B
  5
23848
331
2394C
  5
23849
331
2394D
  5
2384A
331
2394E
  5
2384B
331
2394F
  5
2384C
331
23950
  5
2384D
331
23951
  5
2384E
331
23952
  5
2384F
331
23953
  5
238EE
331
23954
  5
238EF
331
23955
  5
238F0
331
23956
  5
238F1
331
23957
  5
238F2
331
23958
  5
238F3
331
23959
  5
238F4
331
2395A
  5
238F8
331
2395B
  5
238F9
331
2395C
  5
238FA
331
2395D
  5
238FB
331
2395E
  5
238FC
331
2395F
  5
238FD
331
23960
  5
238FE
331
23961
  5
23902
331
23962
  5
23903
331
23963
  5
23904
331
23964
  5
23905
331
23965
  5
23906
331
23966
  5
23907
331
23967
  5
23908
331
23968
  5
23912
331
23969
  5
23913
331
2396A
  5
23914
331
2396B
  5
23915
331
2396C
  5
23916
331
2396D
  5
23917
331
2396E
  5
23918
331
2396F
  5
2391E
331
23970
  5
2391F
331
23971
  5
23920
331
23972
  5
23921
331
23973
  5
23922
331
23974
  5
23923
331
23975
  5
23924
331
23976
  5
23928
331
23977
  5
23929
331
23978
  5
2392A
331
23979
  5
2392B
331
2397A
  5
2392C
331
2397B
  5
2392D
331
2397C
  5
2392E
331
2397D
  5
23932
331
2397E
  5
23933
331
2397F
  5
23934
331
23980
  5
23935
331
23981
  5
23936
331
23982
  5
23937
331
23983
  5
23938
331
23984
  5
23972
331
23985
  5
23973
331
23986
  5
23974
331
23987
  5
23975
331
23988
  5
23976
331
23989
  5
23977
331
2398A
  5
23978
  0
SORTENTSTABLE
  5
59C
102
{ACAD_REACTORS
330
59B
102
}
330
59B
100
AcDbSortentsTable
330
15
331
57
  5
57
331
0
  5
70
  0
GROUP
  5
1EDFD
102
{ACAD_REACTORS
330
D
102
}
330
D
100
AcDbGroup
300

 70
     1
 71
     1
340
1DBA6
340
1DBA5
340
1DBA4
  0
GROUP
  5
20C15
102
{ACAD_REACTORS
330
D
102
}
330
D
100
AcDbGroup
300

 70
     1
 71
     1
340
20C0B
340
20C0A
340
20C09
340
20C08
340
20C07
340
20C06
340
20BFF
340
20BFE
340
20BFD
340
20BFC
340
20BFB
340
20BFA
340
205AD
340
205AC
340
205AB
340
205AA
340
205A9
340
205A8
340
205A7
340
205A6
340
20593
340
20592
340
20591
340
20590
340
2058F
340
2058E
  0
GROUP
  5
20C17
102
{ACAD_REACTORS
330
D
102
}
330
D
100
AcDbGroup
300

 70
     1
 71
     1
340
20C0E
340
20BF2
340
20BF1
340
20BC4
340
20BC3
340
20BC2
340
20BC1
340
20BC0
340
20BBF
340
20BBE
340
20BBD
  0
GROUP
  5
21068
102
{ACAD_REACTORS
330
D
102
}
330
D
100
AcDbGroup
300

 70
     1
 71
     1
340
21062
340
21061
340
20E95
340
20E94
340
20E93
340
20E90
340
20E8C
340
20E8B
340
20E89
340
20E88
340
20E87
340
20E86
340
20E85
340
20E84
340
20E83
340
20E82
340
20E81
340
20E7F
340
20E7E
340
20E7D
340
20E7C
340
20E7B
340
20E7A
340
20E79
340
20E78
340
20E77
340
20E76
340
20E75
340
20E6E
340
20E6D
340
20E6C
340
20E6B
340
20E6A
340
20E69
340
20E68
340
20E67
340
20E66
340
20E65
340
20E64
340
20E63
340
20E62
340
20E61
340
20E60
340
20E5F
  0
GROUP
  5
222F2
102
{ACAD_REACTORS
330
D
102
}
330
D
100
AcDbGroup
300

 70
     1
 71
     1
340
21C7B
340
21C79
340
21991
340
21990
340
2198F
340
2198B
340
2198A
340
21987
340
21984
340
2197F
340
2197E
340
2197D
340
2197C
340
2197B
340
21978
340
21977
340
21975
340
21972
340
21970
340
2196E
340
21968
340
21966
340
21957
340
21956
340
21955
340
21954
340
21953
  0
GROUP
  5
222F3
102
{ACAD_REACTORS
330
D
102
}
330
D
100
AcDbGroup
300

 70
     1
 71
     1
340
21C9C
340
21C9B
340
21C9A
340
21C99
340
21C98
340
21C97
340
21C96
340
21C95
340
21BE8
340
21BE7
340
21BBC
340
21BBB
340
21BBA
340
21BB9
340
21BB1
340
21BAF
  0
GROUP
  5
222F4
102
{ACAD_REACTORS
330
D
102
}
330
D
100
AcDbGroup
300

 70
     1
 71
     1
340
21C13
340
21C12
340
21C11
340
21C10
340
21B93
340
21B8F
340
21B8B
340
21B86
340
21A8C
340
21A87
340
21A84
340
21A7C
340
21A79
340
219D8
340
219D7
340
219D6
340
219D5
340
219D4
340
219D3
340
21A8A
  0
MATERIAL
  5
19DD5
102
{ACAD_REACTORS
330
2CF
102
}
102
{ACAD_XDICTIONARY
360
23B29
102
}
330
2CF
100
AcDbMaterial
  1
BYBLOCK
 72
     0
 73
     2
 43
0.0208333333333333
 43
0.0
 43
0.0
 43
0.0
 43
0.0
 43
0.0208333333333333
 43
0.0
 43
0.0
 43
0.0
 43
0.0
 43
1.0
 43
0.0
 43
0.0
 43
0.0
 43
0.0
 43
1.0
 77
     0
 78
     2
 47
0.0208333333333333
 47
0.0
 47
0.0
 47
0.0
 47
0.0
 47
0.0208333333333333
 47
0.0
 47
0.0
 47
0.0
 47
0.0
 47
1.0
 47
0.0
 47
0.0
 47
0.0
 47
0.0
 47
1.0
171
     0
172
     2
 49
0.0208333333333333
 49
0.0
 49
0.0
 49
0.0
 49
0.0
 49
0.0208333333333333
 49
0.0
 49
0.0
 49
0.0
 49
0.0
 49
1.0
 49
0.0
 49
0.0
 49
0.0
 49
0.0
 49
1.0
175
     0
176
     2
142
0.0208333333333333
142
0.0
142
0.0
142
0.0
142
0.0
142
0.0208333333333333
142
0.0
142
0.0
142
0.0
142
0.0
142
1.0
142
0.0
142
0.0
142
0.0
142
0.0
142
1.0
179
     0
270
     2
144
0.0208333333333333
144
0.0
144
0.0
144
0.0
144
0.0
144
0.0208333333333333
144
0.0
144
0.0
144
0.0
144
0.0
144
1.0
144
0.0
144
0.0
144
0.0
144
0.0
144
1.0
274
     2
147
0.0208333333333333
147
0.0
147
0.0
147
0.0
147
0.0
147
0.0208333333333333
147
0.0
147
0.0
147
0.0
147
0.0
147
1.0
147
0.0
147
0.0
147
0.0
147
0.0
147
1.0
  0
MATERIAL
  5
19DCD
102
{ACAD_REACTORS
330
2CF
102
}
102
{ACAD_XDICTIONARY
360
23B2B
102
}
330
2CF
100
AcDbMaterial
  1
BYLAYER
 72
     0
 73
     2
 43
0.0208333333333333
 43
0.0
 43
0.0
 43
0.0
 43
0.0
 43
0.0208333333333333
 43
0.0
 43
0.0
 43
0.0
 43
0.0
 43
1.0
 43
0.0
 43
0.0
 43
0.0
 43
0.0
 43
1.0
 77
     0
 78
     2
 47
0.0208333333333333
 47
0.0
 47
0.0
 47
0.0
 47
0.0
 47
0.0208333333333333
 47
0.0
 47
0.0
 47
0.0
 47
0.0
 47
1.0
 47
0.0
 47
0.0
 47
0.0
 47
0.0
 47
1.0
171
     0
172
     2
 49
0.0208333333333333
 49
0.0
 49
0.0
 49
0.0
 49
0.0
 49
0.0208333333333333
 49
0.0
 49
0.0
 49
0.0
 49
0.0
 49
1.0
 49
0.0
 49
0.0
 49
0.0
 49
0.0
 49
1.0
175
     0
176
     2
142
0.0208333333333333
142
0.0
142
0.0
142
0.0
142
0.0
142
0.0208333333333333
142
0.0
142
0.0
142
0.0
142
0.0
142
1.0
142
0.0
142
0.0
142
0.0
142
0.0
142
1.0
179
     0
270
     2
144
0.0208333333333333
144
0.0
144
0.0
144
0.0
144
0.0
144
0.0208333333333333
144
0.0
144
0.0
144
0.0
144
0.0
144
1.0
144
0.0
144
0.0
144
0.0
144
0.0
144
1.0
274
     2
147
0.0208333333333333
147
0.0
147
0.0
147
0.0
147
0.0
147
0.0208333333333333
147
0.0
147
0.0
147
0.0
147
0.0
147
1.0
147
0.0
147
0.0
147
0.0
147
0.0
147
1.0
  0
MATERIAL
  5
19DDD
102
{ACAD_REACTORS
330
2CF
102
}
102
{ACAD_XDICTIONARY
360
23B2D
102
}
330
2CF
100
AcDbMaterial
  1
GLOBAL
 72
     0
 73
     2
 43
0.0208333333333333
 43
0.0
 43
0.0
 43
0.0
 43
0.0
 43
0.0208333333333333
 43
0.0
 43
0.0
 43
0.0
 43
0.0
 43
1.0
 43
0.0
 43
0.0
 43
0.0
 43
0.0
 43
1.0
 77
     0
 78
     2
 47
0.0208333333333333
 47
0.0
 47
0.0
 47
0.0
 47
0.0
 47
0.0208333333333333
 47
0.0
 47
0.0
 47
0.0
 47
0.0
 47
1.0
 47
0.0
 47
0.0
 47
0.0
 47
0.0
 47
1.0
171
     0
172
     2
 49
0.0208333333333333
 49
0.0
 49
0.0
 49
0.0
 49
0.0
 49
0.0208333333333333
 49
0.0
 49
0.0
 49
0.0
 49
0.0
 49
1.0
 49
0.0
 49
0.0
 49
0.0
 49
0.0
 49
1.0
175
     0
176
     2
142
0.0208333333333333
142
0.0
142
0.0
142
0.0
142
0.0
142
0.0208333333333333
142
0.0
142
0.0
142
0.0
142
0.0
142
1.0
142
0.0
142
0.0
142
0.0
142
0.0
142
1.0
179
     0
270
     2
144
0.0208333333333333
144
0.0
144
0.0
144
0.0
144
0.0
144
0.0208333333333333
144
0.0
144
0.0
144
0.0
144
0.0
144
1.0
144
0.0
144
0.0
144
0.0
144
0.0
144
1.0
274
     2
147
0.0208333333333333
147
0.0
147
0.0
147
0.0
147
0.0
147
0.0208333333333333
147
0.0
147
0.0
147
0.0
147
0.0
147
1.0
147
0.0
147
0.0
147
0.0
147
0.0
147
1.0
  0
ACAD_PROXY_OBJECT
  5
2110D
102
{ACAD_REACTORS
330
19E18
102
}
330
19E18
100
AcDbZombieObject
 90
      499
 91
      512
 93
      546
310
40901902A4063FBFFFFFE0000000000000020400000000000020C080000000000000040905415019C900000000000003100000000000000041025764000000000000039000
340
12
340
42
340
F
340
0
 94
        0
1001
ACAD_MLEADERVER
1070
     2
  0
ACAD_PROXY_OBJECT
  5
19E19
102
{ACAD_REACTORS
330
19E18
102
}
330
19E18
100
AcDbZombieObject
 90
      499
 91
      512
 93
      610
310
40901902A4063FBFFFFFE000000000000002040AD7A3703D0AD73F4214DD185B99185C990000000000000104090141901A00000000000004100000000000000041025764000000000000300FC0
340
12
340
0
340
F
340
0
 94
        0
1001
ACAD_MLEADERVER
1070
     2
  0
MLINESTYLE
  5
1C
102
{ACAD_REACTORS
330
1B
102
}
330
1B
100
AcDbMlineStyle
  2
STANDARD
 70
     0
  3

 62
   256
 51
90.0
 52
90.0
 71
     2
 49
0.5
 62
   256
  6
BYLAYER
 49
-0.5
 62
   256
  6
BYLAYER
  0
ACAD_PROXY_OBJECT
  5
19DF7
102
{ACAD_REACTORS
330
19DF6
102
}
330
19DF6
100
AcDbZombieObject
 90
      499
 91
      511
 93
       41
310
903313A31580
  0
ACAD_PROXY_OBJECT
  5
19DF8
102
{ACAD_REACTORS
330
19DF6
102
}
330
19DF6
100
AcDbZombieObject
 90
      499
 91
      511
 93
      105
310
903313A324000000000000004000
  0
ACAD_PROXY_OBJECT
  5
19DF9
102
{ACAD_REACTORS
330
19DF6
102
}
330
19DF6
100
AcDbZombieObject
 90
      499
 91
      511
 93
      105
310
903313A344000000000000104000
  0
ACAD_PROXY_OBJECT
  5
19DFA
102
{ACAD_REACTORS
330
19DF6
102
}
330
19DF6
100
AcDbZombieObject
 90
      499
 91
      511
 93
      105
310
903313A354000000000000144000
  0
ACAD_PROXY_OBJECT
  5
19DFB
102
{ACAD_REACTORS
330
19DF6
102
}
330
19DF6
100
AcDbZombieObject
 90
      499
 91
      511
 93
      105
310
903313A384000000000000204000
  0
ACAD_PROXY_OBJECT
  5
19DFC
102
{ACAD_REACTORS
330
19DF6
102
}
330
19DF6
100
AcDbZombieObject
 90
      499
 91
      511
 93
      113
310
904313A31304000000000000244000
  0
ACAD_PROXY_OBJECT
  5
19DFD
102
{ACAD_REACTORS
330
19DF6
102
}
330
19DF6
100
AcDbZombieObject
 90
      499
 91
      511
 93
      113
310
904313A31364000000000000304000
  0
ACAD_PROXY_OBJECT
  5
19DFE
102
{ACAD_REACTORS
330
19DF6
102
}
330
19DF6
100
AcDbZombieObject
 90
      499
 91
      511
 93
      113
310
904313A32304000000000000344000
  0
ACAD_PROXY_OBJECT
  5
19DFF
102
{ACAD_REACTORS
330
19DF6
102
}
330
19DF6
100
AcDbZombieObject
 90
      499
 91
      511
 93
      113
310
904313A333040000000000003E4000
  0
ACAD_PROXY_OBJECT
  5
19E00
102
{ACAD_REACTORS
330
19DF6
102
}
330
19DF6
100
AcDbZombieObject
 90
      499
 91
      511
 93
      113
310
904313A34304000000000000444000
  0
ACAD_PROXY_OBJECT
  5
19E01
102
{ACAD_REACTORS
330
19DF6
102
}
330
19DF6
100
AcDbZombieObject
 90
      499
 91
      511
 93
      113
310
904313A35304000000000000494000
  0
ACAD_PROXY_OBJECT
  5
19E02
102
{ACAD_REACTORS
330
19DF6
102
}
330
19DF6
100
AcDbZombieObject
 90
      499
 91
      511
 93
      121
310
905313A3130304000000000000594000
  0
ACAD_PROXY_OBJECT
  5
19E03
102
{ACAD_REACTORS
330
19DF6
102
}
330
19DF6
100
AcDbZombieObject
 90
      499
 91
      511
 93
      105
310
903323A310000000000000010100
  0
ACAD_PROXY_OBJECT
  5
19E04
102
{ACAD_REACTORS
330
19DF6
102
}
330
19DF6
100
AcDbZombieObject
 90
      499
 91
      511
 93
      105
310
903343A310000000000000410100
  0
ACAD_PROXY_OBJECT
  5
19E05
102
{ACAD_REACTORS
330
19DF6
102
}
330
19DF6
100
AcDbZombieObject
 90
      499
 91
      511
 93
      105
310
903383A310000000000000810100
  0
ACAD_PROXY_OBJECT
  5
19E06
102
{ACAD_REACTORS
330
19DF6
102
}
330
19DF6
100
AcDbZombieObject
 90
      499
 91
      511
 93
      113
310
90431303A310000000000000910100
  0
ACAD_PROXY_OBJECT
  5
19E07
102
{ACAD_REACTORS
330
19DF6
102
}
330
19DF6
100
AcDbZombieObject
 90
      499
 91
      511
 93
      121
310
9053130303A310000000000001650100
  0
ACAD_PROXY_OBJECT
  5
19E08
102
{ACAD_REACTORS
330
19DF6
102
}
330
19DF6
100
AcDbZombieObject
 90
      499
 91
      511
 93
      257
310
90E312F31323822203D2031272D3022000000000000200FC000000000000284000
  0
ACAD_PROXY_OBJECT
  5
19E09
102
{ACAD_REACTORS
330
19DF6
102
}
330
19DF6
100
AcDbZombieObject
 90
      499
 91
      511
 93
      249
310
90D312F363422203D2031272D3022000000000000240FC000000000000284000
  0
ACAD_PROXY_OBJECT
  5
19E0A
102
{ACAD_REACTORS
330
19DF6
102
}
330
19DF6
100
AcDbZombieObject
 90
      499
 91
      511
 93
      249
310
90D312F333222203D2031272D3022000000000000280FC000000000000284000
  0
ACAD_PROXY_OBJECT
  5
19E0B
102
{ACAD_REACTORS
330
19DF6
102
}
330
19DF6
100
AcDbZombieObject
 90
      499
 91
      511
 93
      249
310
90D312F313622203D2031272D30220000000000002C0FC000000000000284000
  0
ACAD_PROXY_OBJECT
  5
19E0C
102
{ACAD_REACTORS
330
19DF6
102
}
330
19DF6
100
AcDbZombieObject
 90
      499
 91
      511
 93
      249
310
90D332F333222203D2031272D30220000000000002E0FC000000000000284000
  0
ACAD_PROXY_OBJECT
  5
19E0D
102
{ACAD_REACTORS
330
19DF6
102
}
330
19DF6
100
AcDbZombieObject
 90
      499
 91
      511
 93
      241
310
90C312F3822203D2031272D3022000000000000300FC000000000000284000
  0
ACAD_PROXY_OBJECT
  5
19E0E
102
{ACAD_REACTORS
330
19DF6
102
}
330
19DF6
100
AcDbZombieObject
 90
      499
 91
      511
 93
      249
310
90D332F313622203D2031272D3022000000000000320FC000000000000284000
  0
ACAD_PROXY_OBJECT
  5
19E0F
102
{ACAD_REACTORS
330
19DF6
102
}
330
19DF6
100
AcDbZombieObject
 90
      499
 91
      511
 93
      241
310
90C312F3422203D2031272D3022000000000000340FC000000000000284000
  0
ACAD_PROXY_OBJECT
  5
19E10
102
{ACAD_REACTORS
330
19DF6
102
}
330
19DF6
100
AcDbZombieObject
 90
      499
 91
      511
 93
      241
310
90C332F3822203D2031272D3022000000000000360FC000000000000284000
  0
ACAD_PROXY_OBJECT
  5
19E11
102
{ACAD_REACTORS
330
19DF6
102
}
330
19DF6
100
AcDbZombieObject
 90
      499
 91
      511
 93
      241
310
90C312F3222203D2031272D3022000000000000380FC000000000000284000
  0
ACAD_PROXY_OBJECT
  5
19E12
102
{ACAD_REACTORS
330
19DF6
102
}
330
19DF6
100
AcDbZombieObject
 90
      499
 91
      511
 93
      241
310
90C332F3422203D2031272D30220000000000003A0FC000000000000284000
  0
ACAD_PROXY_OBJECT
  5
19E13
102
{ACAD_REACTORS
330
19DF6
102
}
330
19DF6
100
AcDbZombieObject
 90
      499
 91
      511
 93
      161
310
90A3122203D2031272D30224000000000000284000
  0
ACAD_PROXY_OBJECT
  5
19E14
102
{ACAD_REACTORS
330
19DF6
102
}
330
19DF6
100
AcDbZombieObject
 90
      499
 91
      511
 93
      257
310
90E312D312F3222203D2031272D30220000000000003E0FC000000000000284000
  0
ACAD_PROXY_OBJECT
  5
19E15
102
{ACAD_REACTORS
330
19DF6
102
}
330
19DF6
100
AcDbZombieObject
 90
      499
 91
      511
 93
      225
310
90A3322203D2031272D302200000000000002100000000000000284000
  0
ACAD_PROXY_OBJECT
  5
19E16
102
{ACAD_REACTORS
330
19DF6
102
}
330
19DF6
100
AcDbZombieObject
 90
      499
 91
      511
 93
      225
310
90A3622203D2031272D302200000000000006100000000000000284000
  0
ACAD_PROXY_OBJECT
  5
19E17
102
{ACAD_REACTORS
330
19DF6
102
}
330
19DF6
100
AcDbZombieObject
 90
      499
 91
      511
 93
      249
310
90D31272D3022203D2031272D30220000000000000A100000000000000284000
  0
ACAD_PROXY_OBJECT
  5
19DEB
102
{ACAD_REACTORS
330
19DE5
102
}
330
19DE5
100
AcDbZombieObject
 90
      499
 91
      510
 93
      436
310
42CC9915DA5C99599C985B595049028333333333333E3BF0000000000000FB0107901411070040501600405405064090741402480A0340
1001
ACAD
1000
AcDbSavedByObjectVersion
1070
     0
  0
ACAD_PROXY_OBJECT
  5
19DED
102
{ACAD_REACTORS
330
19DE5
102
}
330
19DE5
100
AcDbZombieObject
 90
      499
 91
      510
 93
      500
310
424CD108121A5919195B90640502408333333333333E3BF0000000000000FB01079024090700405020000000000001110200405405064090740C02480A0340
1001
ACAD
1000
AcDbSavedByObjectVersion
1070
     0
  0
ACAD_PROXY_OBJECT
  5
19DEC
102
{ACAD_REACTORS
330
19DE5
102
}
330
19DE5
100
AcDbZombieObject
 90
      499
 91
      510
 93
      436
310
42CCD915DA5C99599C985B595059028333333333333E3BF0000000000000FB0107901411070040501600405405064090741402480A0340
1001
ACAD
1000
AcDbSavedByObjectVersion
1070
     0
  0
ACAD_PROXY_OBJECT
  5
19DEA
102
{ACAD_REACTORS
330
19DE5
102
}
330
19DE5
100
AcDbZombieObject
 90
      499
 91
      510
 93
      388
310
4150985CDA58D07406404333333333333E3BF0000000000000FB0107A41107004050150841D405064090741402480A0350
1001
ACAD
1000
AcDbSavedByObjectVersion
1070
     0
  0
ACAD_PROXY_OBJECT
  5
19DF1
102
{ACAD_REACTORS
330
19DE5
102
}
330
19DE5
100
AcDbZombieObject
 90
      499
 91
      510
 93
      428
310
42109C9A59DA1D195B90C409028333333333333E3BF0000000000000FB010790141107004050150841D405064090741402480A029950
1001
ACAD
1000
AcDbSavedByObjectVersion
1070
     0
  0
ACAD_PROXY_OBJECT
  5
19DF5
102
{ACAD_REACTORS
330
19DE5
102
}
330
19DE5
100
AcDbZombieObject
 90
      499
 91
      510
 93
      452
310
42D0DBDB1BDC90DA185B99D95104090240C333333333333E3BF0000000000000FB0108901411070040501508421405064090741402480A0350
1001
ACAD
1000
AcDbSavedByObjectVersion
1070
     0
  0
ACAD_PROXY_OBJECT
  5
19DEE
102
{ACAD_REACTORS
330
19DE5
102
}
330
19DE5
100
AcDbZombieObject
 90
      499
 91
      510
 93
      500
310
4290DBDB98D95C1D1D585B10940D028333333333333E3BF0000000000000FB0107902409070040501000000000000111010841D405064090740C02480A0340
1001
ACAD
1000
AcDbSavedByObjectVersion
1070
     0
  0
ACAD_PROXY_OBJECT
  5
19DF0
102
{ACAD_REACTORS
330
19DE5
102
}
330
19DE5
100
AcDbZombieObject
 90
      499
 91
      510
 93
      412
310
40D11A5B50B409028333333333333E3BF0000000000000FB010790141107004050150841D405064090741402480A02677FFFFFD0
1001
ACAD
1000
AcDbSavedByObjectVersion
1070
     0
  0
ACAD_PROXY_OBJECT
  5
1E02A
102
{ACAD_REACTORS
330
19DE5
102
}
330
19DE5
100
AcDbZombieObject
 90
      499
 91
      510
 93
      452
310
43115919D950DBDB1BDC93D999916409028333333333333E3BF0000000000000FB010790141107004050150841D405064090741402480A0350
1001
ACAD
1000
AcDbSavedByObjectVersion
1070
     0
  0
ACAD_PROXY_OBJECT
  5
19DF4
102
{ACAD_REACTORS
330
19DE5
102
}
330
19DE5
100
AcDbZombieObject
 90
      499
 91
      510
 93
      444
310
42D19858D95C185D1D195C9B90F409028333333333333E3BF0000000000000FB010790141107004050150841D405064090741402480A0350
1001
ACAD
1000
AcDbSavedByObjectVersion
1070
     0
  0
ACAD_PROXY_OBJECT
  5
19DE6
102
{ACAD_REACTORS
330
19DE5
102
}
330
19DE5
100
AcDbZombieObject
 90
      499
 91
      510
 93
      388
310
41119B185D240901404333333333333E3BF0000000000000F9010740A41107004050150841D405064090741402480A1B50
1001
ACAD
1000
AcDbSavedByObjectVersion
1070
     0
  0
ACAD_PROXY_OBJECT
  5
19DE7
102
{ACAD_REACTORS
330
19DE5
102
}
330
19DE5
100
AcDbZombieObject
 90
      499
 91
      510
 93
      476
310
43519B185D15DA5D1A115919D95CD0140901404333333333333E3BF0000000000000F9010740901411070040501600405405064090741402480A1B50
1001
ACAD
1000
AcDbSavedByObjectVersion
1070
     0
  0
ACAD_PROXY_OBJECT
  5
19DE8
102
{ACAD_REACTORS
330
19DE5
102
}
330
19DE5
100
AcDbZombieObject
 90
      499
 91
      510
 93
      412
310
41D1DBDD5C985D5910240902404333333333333E3BF0000000000000F9010740A411070040501641D405064090741402480A1B50
1001
ACAD
1000
AcDbSavedByObjectVersion
1070
     0
  0
ACAD_PROXY_OBJECT
  5
19DE9
102
{ACAD_REACTORS
330
19DE5
102
}
330
19DE5
100
AcDbZombieObject
 90
      499
 91
      510
 93
      500
310
4411DBDD5C985D5915DA5D1A115919D95CD0340902404333333333333E3BF0000000000000F9010740901411070040501600405405064090741402480A1B50
1001
ACAD
1000
AcDbSavedByObjectVersion
1070
     0
  0
ACAD_PROXY_OBJECT
  5
1F554
102
{ACAD_REACTORS
330
19DE5
102
}
330
19DE5
100
AcDbZombieObject
 90
      499
 91
      510
 93
      476
310
41921A5919195B90640502408333333333333E33F0000000000000F901079024090700405020000000000001110200405405064090740C02480A0340
1001
ACAD
1000
AcDbSavedByObjectVersion
1070
     0
  0
ACAD_PROXY_OBJECT
  5
1E028
102
{ACAD_REACTORS
330
19DE5
102
}
330
19DE5
100
AcDbZombieObject
 90
      499
 91
      510
 93
      428
310
42529A5D1D195C93D999914409028333333333333E3BF0000000000000FB010790141107004050150A41D405064090741402480A0350
1001
ACAD
1000
AcDbSavedByObjectVersion
1070
     0
  0
ACAD_PROXY_OBJECT
  5
19DF3
102
{ACAD_REACTORS
330
19DE5
102
}
330
19DE5
100
AcDbZombieObject
 90
      499
 91
      510
 93
      444
310
42D31A5B995C185D1D195C9B90E409028333333333333E3BF0000000000000FB010790141107004050750841D405064090741402483A0350
1001
ACAD
1000
AcDbSavedByObjectVersion
1070
     0
  0
ACAD_PROXY_OBJECT
  5
1F55A
102
{ACAD_REACTORS
330
19DE5
102
}
330
19DE5
100
AcDbZombieObject
 90
      499
 91
      510
 93
      484
310
42135BD9195B1A5B99D0A409038333333333333E33F0000000000000F901074090290700405010000000000201990108421405064090741402480A1B40
1001
ACAD
1000
AcDbSavedByObjectVersion
1070
     0
  0
ACAD_PROXY_OBJECT
  5
1E029
102
{ACAD_REACTORS
330
19DE5
102
}
330
19DE5
100
AcDbZombieObject
 90
      499
 91
      510
 93
      444
310
42D3DD995C9A185B99D3D999915409028333333333333E3BF0000000000000FB010790141107004050150941D405064090741402480A0350
1001
ACAD
1000
AcDbSavedByObjectVersion
1070
     0
  0
ACAD_PROXY_OBJECT
  5
19DEF
102
{ACAD_REACTORS
330
19DE5
102
}
330
19DE5
100
AcDbZombieObject
 90
      499
 91
      510
 93
      420
310
425499585B1A5CDD1A58D08409028333333333333E3BF0000000000000FB01079019070040501508421405064090741402480A1B40
1001
ACAD
1000
AcDbSavedByObjectVersion
1070
     0
  0
ACAD_PROXY_OBJECT
  5
1F559
102
{ACAD_REACTORS
330
19DE5
102
}
330
19DE5
100
AcDbZombieObject
 90
      499
 91
      510
 93
      420
310
4194DA1859195911B40902404333333333333E33F0000000000000F9010740A41107004050150800405405064090840C02480A0B40
1001
ACAD
1000
AcDbSavedByObjectVersion
1070
     0
  0
ACAD_PROXY_OBJECT
  5
1F558
102
{ACAD_REACTORS
330
19DE5
102
}
330
19DE5
100
AcDbZombieObject
 90
      499
 91
      510
 93
      516
310
4454DA18591959081DDA5D1A08195919D95CD1A40902404333333333333E33F0000000000000F901074090142907004050250800405405064090740C02480A0B40
1001
ACAD
1000
AcDbSavedByObjectVersion
1070
     0
  0
ACAD_PROXY_OBJECT
  5
1F555
102
{ACAD_REACTORS
330
19DE5
102
}
330
19DE5
100
AcDbZombieObject
 90
      499
 91
      510
 93
      532
310
4394DA1859195CC81BD98811DC985E5174090240C333333333333E33F0000000000000F901079024090741D01000000000000111010841D405064090740C02480A0340
1001
ACAD
1000
AcDbSavedByObjectVersion
1070
     0
  0
ACAD_PROXY_OBJECT
  5
1F556
102
{ACAD_REACTORS
330
19DE5
102
}
330
19DE5
100
AcDbZombieObject
 90
      499
 91
      510
 93
      476
310
41D4DAD95D18DA1E51840502408333333333333E33F0000000000000F901079024090741D01000000000000111010B41D405064090741802480A0340
1001
ACAD
1000
AcDbSavedByObjectVersion
1070
     0
  0
ACAD_PROXY_OBJECT
  5
19DF2
102
{ACAD_REACTORS
330
19DE5
102
}
330
19DE5
100
AcDbZombieObject
 90
      499
 91
      510
 93
      412
310
41D51A1A58DAD95B90D409028333333333333E3BF0000000000000FB010790141107004050150C41D405064090741402480A0350
1001
ACAD
1000
AcDbSavedByObjectVersion
1070
     0
  0
ACAD_PROXY_OBJECT
  5
1F553
102
{ACAD_REACTORS
330
19DE5
102
}
330
19DE5
100
AcDbZombieObject
 90
      499
 91
      510
 93
      420
310
4255DA5C99599C985B595059028333333333333E33F0000000000000F90107901411070040501600405405064090740C02480A0340
1001
ACAD
1000
AcDbSavedByObjectVersion
1070
     0
  0
ACAD_PROXY_OBJECT
  5
1F557
102
{ACAD_REACTORS
330
19DE5
102
}
330
19DE5
100
AcDbZombieObject
 90
      499
 91
      510
 93
      404
310
41560B54985E51940902404000000000000E03F0000000000000F9010740501907004050150841D405064090740C02480A1B40
1001
ACAD
1000
AcDbSavedByObjectVersion
1070
     0
  0
XRECORD
  5
2398C
102
{ACAD_REACTORS
330
2398B
102
}
330
2398B
100
AcDbXrecord
340
2D0
  0
XRECORD
  5
2398D
102
{ACAD_REACTORS
330
2398B
102
}
330
2398B
100
AcDbXrecord
340
2CF
  0
DICTIONARYVAR
  5
1FD1B
102
{ACAD_REACTORS
330
37
102
}
330
37
100
DictionaryVariables
280
     0
  1
1:1
  0
DICTIONARYVAR
  5
1AC19
102
{ACAD_REACTORS
330
37
102
}
330
37
100
DictionaryVariables
280
     0
  1
Standard
  0
DICTIONARYVAR
  5
4F1
102
{ACAD_REACTORS
330
37
102
}
330
37
100
DictionaryVariables
280
     0
  1
Standard
  0
DICTIONARYVAR
  5
38
102
{ACAD_REACTORS
330
37
102
}
330
37
100
DictionaryVariables
280
     0
  1
-1
  0
DICTIONARYVAR
  5
408
102
{ACAD_REACTORS
330
37
102
}
330
37
100
DictionaryVariables
280
     0
  1
2
  0
DICTIONARYVAR
  5
1891
102
{ACAD_REACTORS
330
37
102
}
330
37
100
DictionaryVariables
280
     0
  1
1
  0
DICTIONARYVAR
  5
1AC1C
102
{ACAD_REACTORS
330
37
102
}
330
37
100
DictionaryVariables
280
     0
  1
0
  0
DICTIONARYVAR
  5
1895
102
{ACAD_REACTORS
330
37
102
}
330
37
100
DictionaryVariables
280
     0
  1
8
  0
DICTIONARYVAR
  5
1894
102
{ACAD_REACTORS
330
37
102
}
330
37
100
DictionaryVariables
280
     0
  1
1
  0
DICTIONARYVAR
  5
1FD71
102
{ACAD_REACTORS
330
37
102
}
330
37
100
DictionaryVariables
280
     0
  1
0
  0
DICTIONARYVAR
  5
1892
102
{ACAD_REACTORS
330
37
102
}
330
37
100
DictionaryVariables
280
     0
  1
8
  0
DICTIONARYVAR
  5
1893
102
{ACAD_REACTORS
330
37
102
}
330
37
100
DictionaryVariables
280
     0
  1
2
  0
DICTIONARYVAR
  5
409
102
{ACAD_REACTORS
330
37
102
}
330
37
100
DictionaryVariables
280
     0
  1

  0
DICTIONARYVAR
  5
1AC1B
102
{ACAD_REACTORS
330
37
102
}
330
37
100
DictionaryVariables
280
     0
  1
127
  0
DICTIONARYVAR
  5
1F552
102
{ACAD_REACTORS
330
37
102
}
330
37
100
DictionaryVariables
280
     0
  1
2
  0
DICTIONARY
  5
23B29
330
19DD5
100
AcDbDictionary
  3
ACAD_XREC_ROUNDTRIP
360
23B2A
1001
ACAD
1000
TREAT_AS_HARD
1070
     1
  0
DICTIONARY
  5
23B2B
330
19DCD
100
AcDbDictionary
  3
ACAD_XREC_ROUNDTRIP
360
23B2C
1001
ACAD
1000
TREAT_AS_HARD
1070
     1
  0
DICTIONARY
  5
23B2D
330
19DDD
100
AcDbDictionary
  3
ACAD_XREC_ROUNDTRIP
360
23B2E
1001
ACAD
1000
TREAT_AS_HARD
1070
     1
  0
XRECORD
  5
23B2A
102
{ACAD_REACTORS
330
23B29
102
}
330
23B29
100
AcDbXrecord
102
MATERIAL
148
0.0
149
0.0
149
0.0
 93
        0
 94
      127
282
     0
 72
     0
 77
     0
171
     0
175
     0
179
     0
273
     0
  0
XRECORD
  5
23B2C
102
{ACAD_REACTORS
330
23B2B
102
}
330
23B2B
100
AcDbXrecord
102
MATERIAL
148
0.0
149
0.0
149
0.0
 93
        0
 94
      127
282
     0
 72
     0
 77
     0
171
     0
175
     0
179
     0
273
     0
  0
XRECORD
  5
23B2E
102
{ACAD_REACTORS
330
23B2D
102
}
330
23B2D
100
AcDbXrecord
102
MATERIAL
148
0.0
149
0.0
149
0.0
 93
        0
 94
      127
282
     0
 72
     0
 77
     0
171
     0
175
     0
179
     0
273
     0
  0
ENDSEC
  0
EOF
