  0
SECTION
  2
HEADER
  9
$ACADVER
  1
AC1012
  9
$DWGCODEPAGE
  3
ansi_932
  9
$INSBASE
 10
0.0
 20
0.0
 30
0.0
  9
$EXTMIN
 10
364.7177593326346
 20
-631.7096895868024
 30
0.0
  9
$EXTMAX
 10
735.7177593326364
 20
-451.678894669498
 30
0.0
  9
$LIMMIN
 10
0.0
 20
0.0
  9
$LIMMAX
 10
420.0
 20
297.0
  9
$ORTHOMODE
 70
     0
  9
$REGENMODE
 70
     1
  9
$FILLMODE
 70
     1
  9
$QTEXTMODE
 70
     0
  9
$MIRRTEXT
 70
     0
  9
$DRAGMODE
 70
     2
  9
$LTSCALE
 40
0.5
  9
$OSMODE
 70
 14591
  9
$ATTMODE
 70
     1
  9
$TEXTSIZE
 40
4.0
  9
$TRACEWID
 40
1.0
  9
$TEXTSTYLE
  7
STANDARD
  9
$CLAYER
  8
1TEXT
  9
$CELTYPE
  6
BYLAYER
  9
$CECOLOR
 62
   256
  9
$CELTSCALE
 40
1.0
  9
$DELOBJ
 70
     1
  9
$DISPSILH
 70
     0
  9
$DIMSCALE
 40
1.0
  9
$DIMASZ
 40
2.0
  9
$DIMEXO
 40
0.0
  9
$DIMDLI
 40
7.0
  9
$DIMRND
 40
0.0
  9
$DIMDLE
 40
0.0
  9
$DIMEXE
 40
1.0
  9
$DIMTP
 40
0.0
  9
$DIMTM
 40
0.0
  9
$DIMTXT
 40
3.5
  9
$DIMCEN
 40
0.0
  9
$DIMTSZ
 40
0.0
  9
$DIMTOL
 70
     0
  9
$DIMLIM
 70
     0
  9
$DIMTIH
 70
     0
  9
$DIMTOH
 70
     0
  9
$DIMSE1
 70
     0
  9
$DIMSE2
 70
     0
  9
$DIMTAD
 70
     1
  9
$DIMZIN
 70
     8
  9
$DIMBLK
  1

  9
$DIMASO
 70
     1
  9
$DIMSHO
 70
     1
  9
$DIMPOST
  1
 
  9
$DIMAPOST
  1

  9
$DIMALT
 70
     0
  9
$DIMALTD
 70
     2
  9
$DIMALTF
 40
25.4
  9
$DIMLFAC
 40
1.0
  9
$DIMTOFL
 70
     1
  9
$DIMTVP
 40
0.0
  9
$DIMTIX
 70
     0
  9
$DIMSOXD
 70
     0
  9
$DIMSAH
 70
     1
  9
$DIMBLK1
  1
OPEN30
  9
$DIMBLK2
  1
OPEN30
  9
$DIMSTYLE
  2
NEWX10
  9
$DIMCLRD
 70
   256
  9
$DIMCLRE
 70
   256
  9
$DIMCLRT
 70
   201
  9
$DIMTFAC
 40
0.7
  9
$DIMGAP
 40
0.7
  9
$DIMJUST
 70
     0
  9
$DIMSD1
 70
     0
  9
$DIMSD2
 70
     0
  9
$DIMTOLJ
 70
     1
  9
$DIMTZIN
 70
     8
  9
$DIMALTZ
 70
     0
  9
$DIMALTTZ
 70
     0
  9
$DIMFIT
 70
     3
  9
$DIMUPT
 70
     0
  9
$DIMUNIT
 70
     2
  9
$DIMDEC
 70
     2
  9
$DIMTDEC
 70
     4
  9
$DIMALTU
 70
     2
  9
$DIMALTTD
 70
     2
  9
$DIMTXSTY
  7
STANDARD
  9
$DIMAUNIT
 70
     0
  9
$LUNITS
 70
     2
  9
$LUPREC
 70
     4
  9
$SKETCHINC
 40
1.0
  9
$FILLETRAD
 40
0.0
  9
$AUNITS
 70
     0
  9
$AUPREC
 70
     2
  9
$MENU
  1
acad
  9
$ELEVATION
 40
0.0
  9
$PELEVATION
 40
0.0
  9
$THICKNESS
 40
0.0
  9
$LIMCHECK
 70
     0
  9
$CHAMFERA
 40
1.0
  9
$CHAMFERB
 40
1.0
  9
$CHAMFERC
 40
20.0
  9
$CHAMFERD
 40
0.0
  9
$SKPOLY
 70
     0
  9
$TDCREATE
 40
2453033.732663484
  9
$TDUPDATE
 40
2458277.545363437
  9
$TDINDWG
 40
2.3903048958
  9
$TDUSRTIMER
 40
2.3903048958
  9
$USRTIMER
 70
     1
  9
$ANGBASE
 50
0.0
  9
$ANGDIR
 70
     0
  9
$PDMODE
 70
     0
  9
$PDSIZE
 40
0.0
  9
$PLINEWID
 40
0.0
  9
$COORDS
 70
     2
  9
$SPLFRAME
 70
     0
  9
$SPLINETYPE
 70
     6
  9
$SPLINESEGS
 70
     8
  9
$ATTDIA
 70
     0
  9
$ATTREQ
 70
     1
  9
$HANDLING
 70
     1
  9
$HANDSEED
  5
22830
  9
$SURFTAB1
 70
     6
  9
$SURFTAB2
 70
     6
  9
$SURFTYPE
 70
     6
  9
$SURFU
 70
     6
  9
$SURFV
 70
     6
  9
$UCSNAME
  2

  9
$UCSORG
 10
0.0
 20
0.0
 30
0.0
  9
$UCSXDIR
 10
1.0
 20
0.0
 30
0.0
  9
$UCSYDIR
 10
0.0
 20
1.0
 30
0.0
  9
$PUCSNAME
  2

  9
$PUCSORG
 10
0.0
 20
0.0
 30
0.0
  9
$PUCSXDIR
 10
1.0
 20
0.0
 30
0.0
  9
$PUCSYDIR
 10
0.0
 20
1.0
 30
0.0
  9
$USERI1
 70
     0
  9
$USERI2
 70
     0
  9
$USERI3
 70
     0
  9
$USERI4
 70
     0
  9
$USERI5
 70
     0
  9
$USERR1
 40
0.0
  9
$USERR2
 40
0.0
  9
$USERR3
 40
0.0
  9
$USERR4
 40
0.0
  9
$USERR5
 40
0.0
  9
$WORLDVIEW
 70
     1
  9
$SHADEDGE
 70
     3
  9
$SHADEDIF
 70
    70
  9
$TILEMODE
 70
     1
  9
$MAXACTVP
 70
    48
  9
$PINSBASE
 10
0.0
 20
0.0
 30
0.0
  9
$PLIMCHECK
 70
     0
  9
$PEXTMIN
 10
1.000000000000000E+20
 20
1.000000000000000E+20
 30
1.000000000000000E+20
  9
$PEXTMAX
 10
-1.000000000000000E+20
 20
-1.000000000000000E+20
 30
-1.000000000000000E+20
  9
$PLIMMIN
 10
0.0
 20
0.0
  9
$PLIMMAX
 10
420.0
 20
297.0
  9
$UNITMODE
 70
     0
  9
$VISRETAIN
 70
     1
  9
$PLINEGEN
 70
     0
  9
$PSLTSCALE
 70
     1
  9
$TREEDEPTH
 70
  3020
  9
$PICKSTYLE
 70
     1
  9
$CMLSTYLE
  2
STANDARD
  9
$CMLJUST
 70
     0
  9
$CMLSCALE
 40
20.0
  9
$SAVEIMAGES
 70
     1
  0
ENDSEC
  0
SECTION
  2
CLASSES
  0
CLASS
  1
DICTIONARYVAR
  2
AcDbDictionaryVar
  3
ObjectDBX Classes
 90
        0
280
     0
281
     0
  0
CLASS
  1
IDBUFFER
  2
AcDbIdBuffer
  3
ObjectDBX Classes
 90
    32768
280
     0
281
     0
  0
CLASS
  1
LWPOLYLINE
  2
AcDbPolyline
  3
ObjectDBX Classes
 90
    32768
280
     0
281
     1
  0
CLASS
  1
ACDBDICTIONARYWDFLT
  2
AcDbDictionaryWithDefault
  3
ObjectDBX Classes
 90
    32768
280
     0
281
     0
  0
CLASS
  1
ACDBPLACEHOLDER
  2
AcDbPlaceHolder
  3
ObjectDBX Classes
 90
        0
280
     0
281
     0
  0
CLASS
  1
LAYOUT
  2
AcDbLayout
  3
ObjectDBX Classes
 90
        0
280
     0
281
     0
  0
CLASS
  1
TABLESTYLE
  2
AcDbTableStyle
  3
ObjectDBX Classes
 90
     4095
280
     0
281
     0
  0
CLASS
  1
SORTENTSTABLE
  2
AcDbSortentsTable
  3
ObjectDBX Classes
 90
    32768
280
     0
281
     0
  0
CLASS
  1
DIMASSOC
  2
AcDbDimAssoc
  3
"AcDbDimAssoc|Product Desc:     AcDim ARX App For Dimension|Company:          Autodesk, Inc.|WEB Address:      www.autodesk.com"
 90
        0
280
     0
281
     0
  0
CLASS
  1
MATERIAL
  2
AcDbMaterial
  3
ObjectDBX Classes
 90
     1153
280
     0
281
     0
  0
CLASS
  1
VISUALSTYLE
  2
AcDbVisualStyle
  3
ObjectDBX Classes
 90
     4095
280
     0
281
     0
  0
CLASS
  1
SCALE
  2
AcDbScale
  3
ObjectDBX Classes
 90
     1153
280
     0
281
     0
  0
CLASS
  1
MLEADERSTYLE
  2
AcDbMLeaderStyle
  3
ACDB_MLEADERSTYLE_CLASS
 90
     4095
280
     0
281
     0
  0
CLASS
  1
CELLSTYLEMAP
  2
AcDbCellStyleMap
  3
ObjectDBX Classes
 90
     1152
280
     0
281
     0
  0
CLASS
  1
EXACXREFPANELOBJECT
  2
ExAcXREFPanelObject
  3
EXAC_ESW
 90
     1025
280
     1
281
     0
  0
CLASS
  1
NPOCOLLECTION
  2
AcDbImpNonPersistentObjectsCollection
  3
ObjectDBX Classes
 90
     1153
280
     1
281
     0
  0
CLASS
  1
SUN
  2
AcDbSun
  3
SCENEOE
 90
     1153
280
     0
281
     0
  0
CLASS
  1
XRECORD
  2
AcDbXrecord
  3
ObjectDBX Classes
 90
    32768
280
     0
281
     0
  0
CLASS
  1
HATCH
  2
AcDbHatch
  3
ObjectDBX Classes
 90
    32768
280
     0
281
     1
  0
ENDSEC
  0
SECTION
  2
TABLES
  0
TABLE
  2
VPORT
  5
8
330
0
100
AcDbSymbolTable
 70
     1
  0
VPORT
  5
19DC2
330
8
100
AcDbSymbolTableRecord
100
AcDbViewportTableRecord
  2
*ACTIVE
 70
     0
 10
0.0
 20
0.0
 11
1.0
 21
1.0
 12
550.2177593326355
 22
-541.6942921281502
 13
0.0
 23
0.0
 14
10.0
 24
10.0
 15
10.0
 25
10.0
 16
0.0
 26
0.0
 36
1.0
 17
0.0
 27
0.0
 37
0.0
 40
209.0253734773626
 41
1.905686546463246
 42
50.0
 43
0.0
 44
0.0
 50
0.0
 51
0.0
 71
    16
 72
  1000
 73
     1
 74
     1
 75
     0
 76
     0
 77
     0
 78
     0
1001
ACAD_NAV_VCDISPLAY
1070
     3
  0
ENDTAB
  0
TABLE
  2
LTYPE
  5
5
330
0
100
AcDbSymbolTable
 70
     4
  0
LTYPE
  5
12
330
5
100
AcDbSymbolTableRecord
100
AcDbLinetypeTableRecord
  2
BYBLOCK
 70
     0
  3

 72
    65
 73
     0
 40
0.0
  0
LTYPE
  5
13
330
5
100
AcDbSymbolTableRecord
100
AcDbLinetypeTableRecord
  2
BYLAYER
 70
     0
  3

 72
    65
 73
     0
 40
0.0
  0
LTYPE
  5
14
330
5
100
AcDbSymbolTableRecord
100
AcDbLinetypeTableRecord
  2
CONTINUOUS
 70
     0
  3
Solid line
 72
    65
 73
     0
 40
0.0
  0
LTYPE
  5
100
330
5
100
AcDbSymbolTableRecord
100
AcDbLinetypeTableRecord
  2
PHANTOM2
 70
     0
  3
Phantom (0.5x) ___ _ _ ___ _ _ ___ _ _ ___ _ _
 72
    65
 73
     6
 40
31.75
 49
15.875
 74
     0
 49
-3.175
 74
     0
 49
3.175
 74
     0
 49
-3.175
 74
     0
 49
3.175
 74
     0
 49
-3.175
 74
     0
  0
LTYPE
  5
217F6
330
5
100
AcDbSymbolTableRecord
100
AcDbLinetypeTableRecord
  2
CENTER2
 70
     0
  3
Center (.5x) ___ _ ___ _ ___ _ ___ _ ___ _ ___
 72
    65
 73
     4
 40
28.575
 49
19.05
 74
     0
 49
-3.175
 74
     0
 49
3.175
 74
     0
 49
-3.175
 74
     0
  0
LTYPE
  5
21FDD
330
5
100
AcDbSymbolTableRecord
100
AcDbLinetypeTableRecord
  2
HIDDEN
 70
     0
  3
Hidden __ __ __ __ __ __ __ __ __ __ __ __ __ _
 72
    65
 73
     2
 40
9.524999999999999
 49
6.35
 74
     0
 49
-3.175
 74
     0
  0
ENDTAB
  0
TABLE
  2
LAYER
  5
2
102
{ACAD_XDICTIONARY
360
18FE8
102
}
330
0
100
AcDbSymbolTable
 70
     8
  0
LAYER
  5
E
102
{ACAD_XDICTIONARY
360
1A20A
102
}
330
2
100
AcDbSymbolTableRecord
100
AcDbLayerTableRecord
  2
0
 70
     0
 62
     7
  6
CONTINUOUS
  0
LAYER
  5
29
102
{ACAD_XDICTIONARY
360
1A20C
102
}
330
2
100
AcDbSymbolTableRecord
100
AcDbLayerTableRecord
  2
1CENTER
 70
     0
 62
     7
  6
CENTER2
  0
LAYER
  5
31
102
{ACAD_XDICTIONARY
360
1A20E
102
}
330
2
100
AcDbSymbolTableRecord
100
AcDbLayerTableRecord
  2
1TEXT
 70
     0
 62
     7
  6
CONTINUOUS
  0
LAYER
  5
101
102
{ACAD_XDICTIONARY
360
1A218
102
}
330
2
100
AcDbSymbolTableRecord
100
AcDbLayerTableRecord
  2
1DIM
 70
     0
 62
     7
  6
CONTINUOUS
  0
LAYER
  5
103
102
{ACAD_XDICTIONARY
360
1A21C
102
}
330
2
100
AcDbSymbolTableRecord
100
AcDbLayerTableRecord
  2
1PHANTOM
 70
     0
 62
     7
  6
PHANTOM2
  0
LAYER
  5
21114
330
2
100
AcDbSymbolTableRecord
100
AcDbLayerTableRecord
  2
1HATCH
 70
     0
 62
     7
  6
CONTINUOUS
  0
LAYER
  5
21FDA
102
{ACAD_XDICTIONARY
360
21FDB
102
}
330
2
100
AcDbSymbolTableRecord
100
AcDbLayerTableRecord
  2
1HIDDEN
 70
     0
 62
     7
  6
HIDDEN
  0
LAYER
  5
224D4
330
2
100
AcDbSymbolTableRecord
100
AcDbLayerTableRecord
  2
01
 70
     0
 62
     1
  6
CONTINUOUS
  0
ENDTAB
  0
TABLE
  2
STYLE
  5
3
330
0
100
AcDbSymbolTable
 70
     1
  0
STYLE
  5
F
330
3
100
AcDbSymbolTableRecord
100
AcDbTextStyleTableRecord
  2
STANDARD
 70
     0
 40
0.0
 41
1.0
 50
0.0
 71
     0
 42
4.0
  3
txt.shx
  4
extfont.shx
  0
ENDTAB
  0
TABLE
  2
VIEW
  5
6
330
0
100
AcDbSymbolTable
 70
     0
  0
ENDTAB
  0
TABLE
  2
UCS
  5
7
330
0
100
AcDbSymbolTable
 70
     5
  0
UCS
  5
211A5
330
7
100
AcDbSymbolTableRecord
100
AcDbUCSTableRecord
  2
U
 70
     0
 10
0.0
 20
0.0
 30
0.0
 11
1.0
 21
0.0
 31
0.0
 12
0.0
 22
2.220446049250313E-16
 32
1.0
 79
     0
146
0.0
  0
UCS
  5
211A6
330
7
100
AcDbSymbolTableRecord
100
AcDbUCSTableRecord
  2
L
 70
     0
 10
0.0
 20
0.0
 30
0.0
 11
-2.220446049250313E-16
 21
-1.0
 31
2.220446049250313E-16
 12
0.0
 22
2.220446049250313E-16
 32
1.0
 79
     0
146
0.0
  0
UCS
  5
211A7
330
7
100
AcDbSymbolTableRecord
100
AcDbUCSTableRecord
  2
R
 70
     0
 10
0.0
 20
0.0
 30
0.0
 11
3.445092848397667E-16
 21
1.0
 31
-2.220446049250313E-16
 12
0.0
 22
2.220446049250313E-16
 32
1.0
 79
     0
146
0.0
  0
UCS
  5
211A8
330
7
100
AcDbSymbolTableRecord
100
AcDbUCSTableRecord
  2
ISOME
 70
     0
 10
0.0
 20
0.0
 30
0.0
 11
0.7071450863198265
 21
-0.7070684729403536
 31
-3.830824619466267E-5
 12
0.4082704059428734
 22
0.4082704077401151
 32
0.8164744636514736
 79
     0
146
0.0
  0
UCS
  5
211A9
330
7
100
AcDbSymbolTableRecord
100
AcDbUCSTableRecord
  2
PERSPECTIVE
 70
     0
 10
0.0
 20
0.0
 30
0.0
 11
0.8191477691768964
 21
-0.5735823260466403
 31
-0.0004974931557765462
 12
0.1584844715982971
 22
0.225502028986108
 32
0.961265575782966
 79
     0
146
0.0
  0
ENDTAB
  0
TABLE
  2
APPID
  5
9
330
0
100
AcDbSymbolTable
 70
    16
  0
APPID
  5
10
330
9
100
AcDbSymbolTableRecord
100
AcDbRegAppTableRecord
  2
ACAD
 70
     0
  0
APPID
  5
21
330
9
100
AcDbSymbolTableRecord
100
AcDbRegAppTableRecord
  2
DRAWINGVARIABLESXDATA
 70
     0
  0
APPID
  5
64
330
9
100
AcDbSymbolTableRecord
100
AcDbRegAppTableRecord
  2
CONTENTTABDATA
 70
     0
  0
APPID
  5
65
330
9
100
AcDbSymbolTableRecord
100
AcDbRegAppTableRecord
  2
CONTENTCURRENTTAB
 70
     0
  0
APPID
  5
66
330
9
100
AcDbSymbolTableRecord
100
AcDbRegAppTableRecord
  2
CONTENTBLOCKDESCRIPTION
 70
     0
  0
APPID
  5
67
330
9
100
AcDbSymbolTableRecord
100
AcDbRegAppTableRecord
  2
CONTENTBLOCKICON
 70
     0
  0
APPID
  5
68
330
9
100
AcDbSymbolTableRecord
100
AcDbRegAppTableRecord
  2
CONTENTLONGBLOCKNAME
 70
     0
  0
APPID
  5
5A9
330
9
100
AcDbSymbolTableRecord
100
AcDbRegAppTableRecord
  2
ACAD_PSEXT
 70
     0
  0
APPID
  5
18AC
330
9
100
AcDbSymbolTableRecord
100
AcDbRegAppTableRecord
  2
ACAD_DSTYLE_DIMTEXT_FILL
 70
     0
  0
APPID
  5
19E1A
330
9
100
AcDbSymbolTableRecord
100
AcDbRegAppTableRecord
  2
ACAD_MLEADERVER
 70
     0
  0
APPID
  5
1A2FA
330
9
100
AcDbSymbolTableRecord
100
AcDbRegAppTableRecord
  2
ACAD_DSTYLE_DIMRADIAL_EXTE
 70
     0
  0
APPID
  5
1DBC1
330
9
100
AcDbSymbolTableRecord
100
AcDbRegAppTableRecord
  2
ACADANNOTATIVE
 70
     0
  0
APPID
  5
1E991
330
9
100
AcDbSymbolTableRecord
100
AcDbRegAppTableRecord
  2
ACAD_EXEMPT_FROM_CAD_STAND
 70
     0
  0
APPID
  5
202C7
330
9
100
AcDbSymbolTableRecord
100
AcDbRegAppTableRecord
  2
ACDBBLOCKREPETAG
 70
     0
  0
APPID
  5
20AA7
330
9
100
AcDbSymbolTableRecord
100
AcDbRegAppTableRecord
  2
ACAD_OBJECT_CHANGE_GUID
 70
     0
  0
APPID
  5
20B32
330
9
100
AcDbSymbolTableRecord
100
AcDbRegAppTableRecord
  2
ACAD_NAV_VCDISPLAY
 70
     0
  0
ENDTAB
  0
TABLE
  2
DIMSTYLE
  5
A
330
0
100
AcDbSymbolTable
 70
     1
  0
DIMSTYLE
105
48
330
A
100
AcDbSymbolTableRecord
100
AcDbDimStyleTableRecord
  2
NEWX10
 70
     0
  3
 
  4

  5

  6
OPEN30
  7
OPEN30
 40
1.0
 41
2.0
 42
0.0
 43
7.0
 44
1.0
 45
0.0
 46
0.0
 47
0.0
 48
0.0
140
3.5
141
0.0
142
0.0
143
25.4
144
1.0
145
0.0
146
0.7
147
0.7
 71
     0
 72
     0
 73
     0
 74
     0
 75
     0
 76
     0
 77
     1
 78
     8
170
     0
171
     2
172
     1
173
     1
174
     0
175
     0
176
   256
177
   256
178
   201
179
     1
270
     2
271
     2
272
     4
273
     2
274
     2
340
F
275
     0
280
     0
281
     0
282
     0
283
     1
284
     8
285
     0
286
     0
287
     3
288
     0
  0
ENDTAB
  0
TABLE
  2
BLOCK_RECORD
  5
1
330
0
100
AcDbSymbolTable
 70
     8
  0
BLOCK_RECORD
  5
18
102
{ACAD_XDICTIONARY
360
6E9
102
}
330
1
100
AcDbSymbolTableRecord
100
AcDbBlockTableRecord
  2
*MODEL_SPACE
  0
BLOCK_RECORD
  5
15
102
{ACAD_XDICTIONARY
360
59B
102
}
330
1
100
AcDbSymbolTableRecord
100
AcDbBlockTableRecord
  2
*PAPER_SPACE
  0
BLOCK_RECORD
  5
42
330
1
100
AcDbSymbolTableRecord
100
AcDbBlockTableRecord
  2
_OPEN30
  0
BLOCK_RECORD
  5
20316
330
1
100
AcDbSymbolTableRecord
100
AcDbBlockTableRecord
  2
A3WAKUKAWAJUN2017_HYOUDAI_
  0
BLOCK_RECORD
  5
22690
330
1
100
AcDbSymbolTableRecord
100
AcDbBlockTableRecord
  2
*X76
  0
BLOCK_RECORD
  5
226DE
330
1
100
AcDbSymbolTableRecord
100
AcDbBlockTableRecord
  2
*X77
  0
BLOCK_RECORD
  5
22730
330
1
100
AcDbSymbolTableRecord
100
AcDbBlockTableRecord
  2
*X78
  0
BLOCK_RECORD
  5
22781
330
1
100
AcDbSymbolTableRecord
100
AcDbBlockTableRecord
  2
*X79
  0
BLOCK_RECORD
  5
227BE
330
1
100
AcDbSymbolTableRecord
100
AcDbBlockTableRecord
  2
*X80
  0
BLOCK_RECORD
  5
227FE
330
1
100
AcDbSymbolTableRecord
100
AcDbBlockTableRecord
  2
*X81
  0
ENDTAB
  0
ENDSEC
  0
SECTION
  2
BLOCKS
  0
BLOCK
  5
19
330
18
100
AcDbEntity
  8
0
100
AcDbBlockBegin
  2
*MODEL_SPACE
 70
     0
 10
0.0
 20
0.0
 30
0.0
  3
*MODEL_SPACE
  1

  0
ENDBLK
  5
1A
330
18
100
AcDbEntity
  8
0
100
AcDbBlockEnd
  0
BLOCK
  5
16
330
15
100
AcDbEntity
 67
     1
  8
0
100
AcDbBlockBegin
  2
*PAPER_SPACE
 70
     0
 10
0.0
 20
0.0
 30
0.0
  3
*PAPER_SPACE
  1

  0
ENDBLK
  5
17
330
15
100
AcDbEntity
 67
     1
  8
0
100
AcDbBlockEnd
  0
BLOCK
  5
43
330
42
100
AcDbEntity
  8
0
100
AcDbBlockBegin
  2
_OPEN30
 70
     0
 10
0.0
 20
0.0
 30
0.0
  3
_OPEN30
  1

  0
LINE
  5
44
330
42
100
AcDbEntity
  8
0
  6
BYBLOCK
 62
     0
100
AcDbLine
 10
-1.0
 20
0.26794919
 30
0.0
 11
0.0
 21
0.0
 31
0.0
  0
LINE
  5
45
330
42
100
AcDbEntity
  8
0
  6
BYBLOCK
 62
     0
100
AcDbLine
 10
0.0
 20
0.0
 30
0.0
 11
-1.0
 21
-0.26794919
 31
0.0
  0
LINE
  5
46
330
42
100
AcDbEntity
  8
0
  6
BYBLOCK
 62
     0
100
AcDbLine
 10
0.0
 20
0.0
 30
0.0
 11
-1.0
 21
0.0
 31
0.0
  0
ENDBLK
  5
47
330
42
100
AcDbEntity
  8
0
100
AcDbBlockEnd
  0
BLOCK
  5
20A15
330
20316
100
AcDbEntity
  8
0
100
AcDbBlockBegin
  2
A3WAKUKAWAJUN2017_HYOUDAI_
 70
     0
 10
0.0
 20
0.0
 30
0.0
  3
A3WAKUKAWAJUN2017_HYOUDAI_
  1

  0
LINE
  5
20318
330
20316
100
AcDbEntity
  8
0
100
AcDbLine
 10
13.26299999998673
 20
-0.0001000000000317
 30
0.0
 11
9.236999999990758
 21
8.999899999990987
 31
0.0
1001
ACAD
1000
ASC_BOUNDS
1002
{
1070
    19
1005
20359
1002
}
  0
LINE
  5
20319
330
20316
100
AcDbEntity
  8
0
100
AcDbLine
 10
5.657999999994331
 20
0.9999999999989768
 30
0.0
 11
9.236999999990758
 21
8.999999999991019
 31
0.0
1001
ACAD
1000
ASC_BOUNDS
1002
{
1070
    19
1005
20359
1002
}
  0
LINE
  5
2031A
330
20316
100
AcDbEntity
  8
0
100
AcDbLine
 10
18.59199999998134
 20
-0.2368999999997641
 30
0.0
 11
16.46099999998353
 21
5.432899999994561
 31
0.0
1001
ACAD
1000
ASC_BOUNDS
1002
{
1070
    19
1005
2035A
1002
}
  0
LINE
  5
2031B
330
20316
100
AcDbEntity
  8
0
100
AcDbLine
 10
18.59199999998134
 20
-0.2368999999997641
 30
0.0
 11
22.38199999997767
 21
8.763099999991255
 31
0.0
1001
ACAD
1000
ASC_BOUNDS
1002
{
1070
    19
1005
2035A
1002
}
  0
LINE
  5
2031C
330
20316
100
AcDbEntity
  8
0
100
AcDbLine
 10
14.32899999998563
 20
-0.2368999999997641
 30
0.0
 11
16.46099999998353
 21
5.432899999994561
 31
0.0
1001
ACAD
1000
ASC_BOUNDS
1002
{
1070
    19
1005
2035A
1002
}
  0
LINE
  5
2031D
330
20316
100
AcDbEntity
  8
0
100
AcDbLine
 10
14.32899999998563
 20
-0.2368999999997641
 30
0.0
 11
10.53899999998941
 21
8.763099999991255
 31
0.0
1001
ACAD
1000
ASC_BOUNDS
1002
{
1070
    19
1005
2035A
1002
}
  0
LINE
  5
2031E
330
20316
100
AcDbEntity
  8
0
100
AcDbLine
 10
19.53899999998043
 20
-0.0001000000000317
 30
0.0
 11
23.56599999997638
 21
8.999899999990987
 31
0.0
1001
ACAD
1000
ASC_BOUNDS
1002
{
1070
    19
1005
2035B
1002
}
  0
LINE
  5
2031F
330
20316
100
AcDbEntity
  8
0
100
AcDbLine
 10
26.97358892824991
 20
1.383099999991202
 30
0.0
 11
23.56599999997638
 21
8.999899999990987
 31
0.0
1001
ACAD
1000
ASC_BOUNDS
1002
{
1070
    19
1005
2035B
1002
}
  0
LINE
  5
20320
330
20316
100
AcDbEntity
  8
0
100
AcDbLine
 10
5.657999999994331
 20
0.9999999999989768
 30
0.0
 11
3.181999999996833
 21
4.668599999995308
 31
0.0
1001
ACAD
1000
ASC_BOUNDS
1002
{
1070
    19
1005
20359
1002
}
  0
LINE
  5
20321
330
20316
100
AcDbEntity
  8
0
100
AcDbLine
 10
4.617999999995391
 20
-0.0001000000000317
 30
0.0
 11
1.420999999998571
 21
4.736799999995242
 31
0.0
1001
ACAD
1000
ASC_BOUNDS
1002
{
1070
    19
1005
20359
1002
}
  0
LINE
  5
20322
330
20316
100
AcDbEntity
  8
0
100
AcDbLine
 10
1.420999999998571
 20
8.763099999991255
 30
0.0
 11
1.420999999998571
 21
0.0
 31
0.0
1001
ACAD
1000
ASC_BOUNDS
1002
{
1070
    19
1005
2035E
1002
}
  0
LINE
  5
20323
330
20316
100
AcDbEntity
  8
0
100
AcDbLine
 10
0.0
 20
8.763099999991255
 30
0.0
 11
0.0
 21
0.0
 31
0.0
1001
ACAD
1000
ASC_BOUNDS
1002
{
1070
    19
1005
2035E
1002
}
  0
LINE
  5
20324
330
20316
100
AcDbEntity
  8
0
100
AcDbLine
 10
6.766999999993232
 20
-0.0001000000000317
 30
0.0
 11
7.826999999992154
 21
2.368399999997621
 31
0.0
1001
ACAD
1000
ASC_BOUNDS
1002
{
1070
    19
1005
20359
1002
}
  0
LINE
  5
20325
330
20316
100
AcDbEntity
  8
0
100
AcDbLine
 10
0.0
 20
0.0
 30
0.0
 11
1.420999999998571
 21
0.0
 31
0.0
1001
ACAD
1000
ASC_BOUNDS
1002
{
1070
    19
1005
2035E
1002
}
  0
LINE
  5
20326
330
20316
100
AcDbEntity
  8
0
100
AcDbLine
 10
4.617999999995391
 20
0.0
 30
0.0
 11
6.766999999993232
 21
0.0
 31
0.0
1001
ACAD
1000
ASC_BOUNDS
1002
{
1070
    19
1005
20359
1002
}
  0
LINE
  5
20327
330
20316
100
AcDbEntity
  8
0
100
AcDbLine
 10
11.70599999998831
 20
-0.0001000000000317
 30
0.0
 11
10.64699999998936
 21
2.368399999997621
 31
0.0
1001
ACAD
1000
ASC_BOUNDS
1002
{
1070
    19
1005
20359
1002
}
  0
LINE
  5
20328
330
20316
100
AcDbEntity
  8
0
100
AcDbLine
 10
7.826999999992154
 20
2.368399999997621
 30
0.0
 11
10.64699999998936
 21
2.368399999997621
 31
0.0
1001
ACAD
1000
ASC_BOUNDS
1002
{
1070
    19
1005
20359
1002
}
  0
LINE
  5
20329
330
20316
100
AcDbEntity
  8
0
100
AcDbLine
 10
11.70599999998831
 20
0.0
 30
0.0
 11
13.26299999998673
 21
0.0
 31
0.0
1001
ACAD
1000
ASC_BOUNDS
1002
{
1070
    19
1005
20359
1002
}
  0
LINE
  5
2032A
330
20316
100
AcDbEntity
  8
0
100
AcDbLine
 10
22.15599999997789
 20
2.368399999997621
 30
0.0
 11
24.97599999997499
 21
2.368399999997621
 31
0.0
1001
ACAD
1000
ASC_BOUNDS
1002
{
1070
    19
1005
2035B
1002
}
  0
LINE
  5
2032B
330
20316
100
AcDbEntity
  8
0
100
AcDbLine
 10
19.53899999998043
 20
0.0
 30
0.0
 11
21.09599999997886
 21
0.0
 31
0.0
1001
ACAD
1000
ASC_BOUNDS
1002
{
1070
    19
1005
2035B
1002
}
  0
LINE
  5
2032C
330
20316
100
AcDbEntity
  8
0
100
AcDbLine
 10
21.09599999997886
 20
-0.0001000000000317
 30
0.0
 11
22.15599999997789
 21
2.368399999997621
 31
0.0
1001
ACAD
1000
ASC_BOUNDS
1002
{
1070
    19
1005
2035B
1002
}
  0
LINE
  5
2032D
330
20316
100
AcDbEntity
  8
0
100
AcDbLine
 10
26.02015566812236
 20
0.0330999999912365
 30
0.0
 11
24.97599999997499
 21
2.368399999997621
 31
0.0
1001
ACAD
1000
ASC_BOUNDS
1002
{
1070
    19
1005
2035B
1002
}
  0
LINE
  5
2032E
330
20316
100
AcDbEntity
  8
0
100
AcDbLine
 10
14.32399999998563
 20
3.315799999996671
 30
0.0
 11
16.46099999998353
 21
8.999899999990987
 31
0.0
1001
ACAD
1000
ASC_BOUNDS
1002
{
1070
    19
1005
2035A
1002
}
  0
LINE
  5
2032F
330
20316
100
AcDbEntity
  8
0
100
AcDbLine
 10
6.432999999993513
 20
8.763099999991255
 30
0.0
 11
3.181999999996833
 21
4.668599999995308
 31
0.0
1001
ACAD
1000
ASC_BOUNDS
1002
{
1070
    19
1005
20359
1002
}
  0
LINE
  5
20330
330
20316
100
AcDbEntity
  8
0
100
AcDbLine
 10
4.617999999995391
 20
8.763099999991255
 30
0.0
 11
1.420999999998571
 21
4.736799999995242
 31
0.0
1001
ACAD
1000
ASC_BOUNDS
1002
{
1070
    19
1005
20359
1002
}
  0
LINE
  5
20331
330
20316
100
AcDbEntity
  8
0
100
AcDbLine
 10
0.0
 20
8.763099999991255
 30
0.0
 11
1.420999999998571
 21
8.763099999991255
 31
0.0
1001
ACAD
1000
ASC_BOUNDS
1002
{
1070
    19
1005
2035E
1002
}
  0
LINE
  5
20332
330
20316
100
AcDbEntity
  8
0
100
AcDbLine
 10
4.617999999995391
 20
8.763099999991255
 30
0.0
 11
6.432999999993513
 21
8.763099999991255
 31
0.0
1001
ACAD
1000
ASC_BOUNDS
1002
{
1070
    19
1005
20359
1002
}
  0
LINE
  5
20333
330
20316
100
AcDbEntity
  8
0
100
AcDbLine
 10
14.32399999998563
 20
3.315799999996671
 30
0.0
 11
12.02999999998792
 21
8.763099999991255
 31
0.0
1001
ACAD
1000
ASC_BOUNDS
1002
{
1070
    19
1005
2035A
1002
}
  0
LINE
  5
20334
330
20316
100
AcDbEntity
  8
0
100
AcDbLine
 10
10.06399999998996
 20
3.670999999996297
 30
0.0
 11
9.236999999990758
 21
5.5200999999945
 31
0.0
1001
ACAD
1000
ASC_BOUNDS
1002
{
1070
    19
1005
20359
1002
}
  0
LINE
  5
20335
330
20316
100
AcDbEntity
  8
0
100
AcDbLine
 10
8.409999999991555
 20
3.670999999996297
 30
0.0
 11
9.236999999990758
 21
5.5200999999945
 31
0.0
1001
ACAD
1000
ASC_BOUNDS
1002
{
1070
    19
1005
20359
1002
}
  0
LINE
  5
20336
330
20316
100
AcDbEntity
  8
0
100
AcDbLine
 10
8.409999999991555
 20
3.670999999996297
 30
0.0
 11
10.06399999998996
 21
3.670999999996297
 31
0.0
1001
ACAD
1000
ASC_BOUNDS
1002
{
1070
    19
1005
20359
1002
}
  0
LINE
  5
20337
330
20316
100
AcDbEntity
  8
0
100
AcDbLine
 10
10.53899999998941
 20
8.763099999991255
 30
0.0
 11
12.02999999998792
 21
8.763099999991255
 31
0.0
1001
ACAD
1000
ASC_BOUNDS
1002
{
1070
    19
1005
2035A
1002
}
  0
LINE
  5
20338
330
20316
100
AcDbEntity
  8
0
100
AcDbLine
 10
22.7389999999773
 20
3.670999999996297
 30
0.0
 11
23.56599999997638
 21
5.5200999999945
 31
0.0
1001
ACAD
1000
ASC_BOUNDS
1002
{
1070
    19
1005
2035B
1002
}
  0
LINE
  5
20339
330
20316
100
AcDbEntity
  8
0
100
AcDbLine
 10
22.7389999999773
 20
3.670999999996297
 30
0.0
 11
24.39299999997559
 21
3.670999999996297
 31
0.0
1001
ACAD
1000
ASC_BOUNDS
1002
{
1070
    19
1005
2035B
1002
}
  0
LINE
  5
2033A
330
20316
100
AcDbEntity
  8
0
100
AcDbLine
 10
18.59799999998143
 20
3.315799999996671
 30
0.0
 11
20.89099999997916
 21
8.763099999991255
 31
0.0
1001
ACAD
1000
ASC_BOUNDS
1002
{
1070
    19
1005
2035A
1002
}
  0
LINE
  5
2033B
330
20316
100
AcDbEntity
  8
0
100
AcDbLine
 10
18.59799999998143
 20
3.315799999996671
 30
0.0
 11
16.46099999998353
 21
8.999899999990987
 31
0.0
1001
ACAD
1000
ASC_BOUNDS
1002
{
1070
    19
1005
2035A
1002
}
  0
LINE
  5
2033C
330
20316
100
AcDbEntity
  8
0
100
AcDbLine
 10
20.89099999997916
 20
8.763099999991255
 30
0.0
 11
22.38199999997767
 21
8.763099999991255
 31
0.0
1001
ACAD
1000
ASC_BOUNDS
1002
{
1070
    19
1005
2035A
1002
}
  0
LINE
  5
2033D
330
20316
100
AcDbEntity
  8
0
100
AcDbLine
 10
24.39299999997559
 20
3.670999999996297
 30
0.0
 11
23.56599999997638
 21
5.5200999999945
 31
0.0
1001
ACAD
1000
ASC_BOUNDS
1002
{
1070
    19
1005
2035B
1002
}
  0
LINE
  5
2033E
330
20316
100
AcDbEntity
  8
0
100
AcDbLine
 10
44.99999999995498
 20
-0.2368999999997641
 30
0.0
 11
40.02599999995994
 21
5.341799999994635
 31
0.0
1001
ACAD
1000
ASC_BOUNDS
1002
{
1070
    19
1005
2035D
1002
}
  0
LINE
  5
2033F
330
20316
100
AcDbEntity
  8
0
100
AcDbLine
 10
40.02599999995994
 20
5.341799999994635
 30
0.0
 11
40.02599999995994
 21
0.0
 31
0.0
1001
ACAD
1000
ASC_BOUNDS
1002
{
1070
    19
1005
2035D
1002
}
  0
LINE
  5
20340
330
20316
100
AcDbEntity
  8
0
100
AcDbLine
 10
38.60499999996136
 20
8.999999999991019
 30
0.0
 11
38.60499999996136
 21
0.0
 31
0.0
1001
ACAD
1000
ASC_BOUNDS
1002
{
1070
    19
1005
2035D
1002
}
  0
LINE
  5
20341
330
20316
100
AcDbEntity
  8
0
100
AcDbLine
 10
44.99999999995498
 20
8.763099999991255
 30
0.0
 11
44.99999999995498
 21
-0.2368999999997641
 31
0.0
1001
ACAD
1000
ASC_BOUNDS
1002
{
1070
    19
1005
2035D
1002
}
  0
LINE
  5
20342
330
20316
100
AcDbEntity
  8
0
100
AcDbLine
 10
38.60499999996136
 20
0.0
 30
0.0
 11
40.02599999995994
 21
0.0
 31
0.0
1001
ACAD
1000
ASC_BOUNDS
1002
{
1070
    19
1005
2035D
1002
}
  0
LINE
  5
20343
330
20316
100
AcDbEntity
  8
0
100
AcDbLine
 10
43.57899999995641
 20
3.421199999996588
 30
0.0
 11
38.60499999996136
 21
8.999899999990987
 31
0.0
1001
ACAD
1000
ASC_BOUNDS
1002
{
1070
    19
1005
2035D
1002
}
  0
LINE
  5
20344
330
20316
100
AcDbEntity
  8
0
100
AcDbLine
 10
43.57899999995641
 20
8.763099999991255
 30
0.0
 11
43.57899999995641
 21
3.421199999996588
 31
0.0
1001
ACAD
1000
ASC_BOUNDS
1002
{
1070
    19
1005
2035D
1002
}
  0
LINE
  5
20345
330
20316
100
AcDbEntity
  8
0
100
AcDbLine
 10
43.57899999995641
 20
8.763099999991255
 30
0.0
 11
44.99999999995498
 21
8.763099999991255
 31
0.0
1001
ACAD
1000
ASC_BOUNDS
1002
{
1070
    19
1005
2035D
1002
}
  0
LINE
  5
20346
330
20316
100
AcDbEntity
  8
0
100
AcDbLine
 10
37.67199999996831
 20
8.763099999991255
 30
0.0
 11
36.23199999996837
 21
8.763099999991255
 31
0.0
  0
LINE
  5
20347
330
20316
100
AcDbEntity
  8
0
100
AcDbLine
 10
31.64199999996833
 20
8.763099999991255
 30
0.0
 11
31.64199999996833
 21
2.481619422925121
 31
0.0
  0
LINE
  5
20348
330
20316
100
AcDbEntity
  8
0
100
AcDbLine
 10
37.67199999996831
 20
8.763099999991255
 30
0.0
 11
37.67199999996831
 21
2.481619422925121
 31
0.0
  0
LINE
  5
20349
330
20316
100
AcDbEntity
  8
0
100
AcDbLine
 10
36.23199999996837
 20
8.763099999991255
 30
0.0
 11
36.23199999996837
 21
2.481619422925064
 31
0.0
  0
LINE
  5
2034A
330
20316
100
AcDbEntity
  8
0
100
AcDbLine
 10
33.08199999996839
 20
8.763099999991255
 30
0.0
 11
33.08199999996839
 21
2.481619422925121
 31
0.0
  0
ARC
  5
2034B
330
20316
100
AcDbEntity
  8
0
100
AcDbCircle
 10
34.65699999996832
 20
3.183099999991214
 30
0.0
 40
3.420000000000007
100
AcDbArc
 50
240.0000000000255
 51
299.9999999999766
  0
ARC
  5
2034C
330
20316
100
AcDbEntity
  8
0
100
AcDbCircle
 10
34.65699999996832
 20
3.183099999991214
 30
0.0
 40
1.97999999999999
100
AcDbArc
 50
240.000000000026
 51
299.9999999999703
  0
LINE
  5
2034D
330
20316
100
AcDbEntity
  8
0
100
AcDbLine
 10
33.08199999996828
 20
8.763099999991255
 30
0.0
 11
31.64199999996833
 21
8.763099999991255
 31
0.0
  0
ARC
  5
2034E
330
20316
100
AcDbEntity
  8
0
100
AcDbCircle
 10
35.06199999996829
 20
2.481619422925064
 30
0.0
 40
1.17
100
AcDbArc
 50
299.9999999999699
 51
0.0
  0
ARC
  5
2034F
330
20316
100
AcDbEntity
  8
0
100
AcDbCircle
 10
34.25199999996835
 20
2.481619422925121
 30
0.0
 40
1.17
100
AcDbArc
 50
180.0
 51
240.0000000000238
  0
ARC
  5
20350
330
20316
100
AcDbEntity
  8
0
100
AcDbCircle
 10
35.06199999996841
 20
2.481619422925121
 30
0.0
 40
2.61
100
AcDbArc
 50
299.9999999999756
 51
0.0
  0
ARC
  5
20351
330
20316
100
AcDbEntity
  8
0
100
AcDbCircle
 10
34.25199999996835
 20
2.481619422925121
 30
0.0
 40
2.61
100
AcDbArc
 50
180.0
 51
240.0000000000244
  0
LINE
  5
20352
330
20316
100
AcDbEntity
  8
0
100
AcDbLine
 10
29.30199999996933
 20
8.763099999991255
 30
0.0
 11
30.74199999996927
 21
8.763099999991255
 31
0.0
1001
ACAD
1000
ASC_BOUNDS
1002
{
1070
    19
1005
2035B
1002
}
  0
LINE
  5
20353
330
20316
100
AcDbEntity
  8
0
100
AcDbLine
 10
30.74199999996927
 20
8.763099999991255
 30
0.0
 11
30.74199999996927
 21
2.373099999991211
 31
0.0
1001
ACAD
1000
ASC_BOUNDS
1002
{
1070
    19
1005
2035B
1002
}
  0
LINE
  5
20354
330
20316
100
AcDbEntity
  8
0
100
AcDbLine
 10
26.02015566812236
 20
0.0330999999912365
 30
0.0
 11
28.40199999996923
 21
0.0330999999912365
 31
0.0
1001
ACAD
1000
ASC_BOUNDS
1002
{
1070
    19
1005
2035B
1002
}
  0
LINE
  5
20355
330
20316
100
AcDbEntity
  8
0
100
AcDbLine
 10
29.30199999996933
 20
8.763099999991255
 30
0.0
 11
29.30199999996933
 21
2.283099999991236
 31
0.0
1001
ACAD
1000
ASC_BOUNDS
1002
{
1070
    19
1005
2035B
1002
}
  0
LINE
  5
20356
330
20316
100
AcDbEntity
  8
0
100
AcDbLine
 10
26.97358892824991
 20
1.383099999991202
 30
0.0
 11
28.40199999996923
 21
1.383099999991202
 31
0.0
1001
ACAD
1000
ASC_BOUNDS
1002
{
1070
    19
1005
2035B
1002
}
  0
ARC
  5
20357
330
20316
100
AcDbEntity
  8
0
100
AcDbCircle
 10
28.40199999996923
 20
2.283099999991236
 30
0.0
 40
0.9
100
AcDbArc
 50
270.0
 51
0.0
1001
ACAD
1000
ASC_BOUNDS
1002
{
1070
    19
1005
2035B
1002
}
  0
ARC
  5
20358
330
20316
100
AcDbEntity
  8
0
100
AcDbCircle
 10
28.40199999996923
 20
2.373099999991211
 30
0.0
 40
2.34
100
AcDbArc
 50
270.0
 51
0.0
1001
ACAD
1000
ASC_BOUNDS
1002
{
1070
    19
1005
2035B
1002
}
  0
INSERT
  5
20359
330
20316
100
AcDbEntity
  8
0
100
AcDbBlockReference
  2
*X76
 10
0.0
 20
0.0
 30
0.0
1001
ACAD
1000
HATCH
1002
{
1070
    19
1000
ANSI37
1040
0.15
1040
0.0
1000
ASC_BOUNDS
1070
     2
1070
     2
1070
    12
1005
20318
1005
20319
1005
20320
1005
2032F
1005
20332
1005
20330
1005
20321
1005
20326
1005
20324
1005
20328
1005
20327
1005
20329
1070
     2
1070
     3
1005
20334
1005
20336
1005
20335
1000
ASC_SEEDPOINT
1011
3.614004224891801
1021
2.996669441146025
1031
0.0
1000
R14_HATCH_DATA
1000
20359
1011
1.0
1021
0.0
1031
0.0
1011
0.0
1021
1.0
1031
0.0
1011
0.0
1021
0.0
1031
1.0
1040
0.0
1010
0.0
1020
0.0
1030
1.0
1000
ANSI37
1070
     0
1070
     1
1071
        2
1071
        7
1070
     0
1070
     1
1071
       17
1040
13.26299999998673
1040
-0.0001000000000317
1040
9.236999999990758
1040
8.999899999990987
1040
9.236999999990758
1040
8.999999999991019
1040
5.657999999994331
1040
0.9999999999989768
1040
3.181999999996833
1040
4.668599999995308
1040
6.432999999993513
1040
8.763099999991255
1040
4.617999999995391
1040
8.763099999991255
1040
1.420999999998571
1040
4.736799999995242
1040
4.617999999995391
1040
-0.0001000000000317
1040
4.617999999995391
1040
0.0
1040
6.766999999993232
1040
0.0
1040
6.766999999993232
1040
-0.0001000000000317
1040
7.826999999992154
1040
2.368399999997621
1040
10.64699999998936
1040
2.368399999997621
1040
11.70599999998831
1040
-0.0001000000000317
1040
11.70599999998831
1040
0.0
1040
13.26299999998673
1040
0.0
1071
       12
1005
20318
1005
20319
1005
20320
1005
2032F
1005
20332
1005
20330
1005
20321
1005
20326
1005
20324
1005
20328
1005
20327
1005
20329
1071
       22
1070
     0
1070
     1
1071
        3
1040
9.236999999990758
1040
5.5200999999945
1040
10.06399999998996
1040
3.670999999996297
1040
8.409999999991555
1040
3.670999999996297
1071
        3
1005
20334
1005
20336
1005
20335
1070
     0
1070
     1
1040
0.0
1040
0.15
1070
     0
1070
     2
1040
0.7853981633974483
1040
49.29960901727088
1040
-10.17736998311392
1040
-0.3367596045400932
1040
0.3367596045400932
1070
     0
1040
2.356194490192345
1040
49.29960901727088
1040
-10.17736998311392
1040
-0.3367596045400932
1040
-0.3367596045400932
1070
     0
1040
0.0110235143455945
1071
        2
1040
3.614004224891801
1040
2.996669441146025
1040
0.0
1040
3.614004224891801
1040
2.996669441146025
1040
0.0
1002
}
  0
INSERT
  5
2035A
330
20316
100
AcDbEntity
  8
0
100
AcDbBlockReference
  2
*X77
 10
0.0
 20
0.0
 30
0.0
1001
ACAD
1000
HATCH
1002
{
1070
    19
1000
ANSI37
1040
0.15
1040
0.0
1000
ASC_BOUNDS
1070
     1
1070
     2
1070
    10
1005
2031A
1005
2031B
1005
2033C
1005
2033A
1005
2033B
1005
2032E
1005
20333
1005
20337
1005
2031D
1005
2031C
1000
ASC_SEEDPOINT
1011
14.73245321214324
1021
2.798246178283421
1031
0.0
1000
R14_HATCH_DATA
1000
2035A
1011
1.0
1021
0.0
1031
0.0
1011
0.0
1021
1.0
1031
0.0
1011
0.0
1021
0.0
1031
1.0
1040
0.0
1010
0.0
1020
0.0
1030
1.0
1000
ANSI37
1070
     0
1070
     1
1071
        1
1071
        7
1070
     0
1070
     1
1071
       10
1040
16.46099999998353
1040
5.432899999994561
1040
18.59199999998134
1040
-0.2368999999997641
1040
22.38199999997767
1040
8.763099999991255
1040
20.89099999997916
1040
8.763099999991255
1040
18.59799999998143
1040
3.315799999996671
1040
16.46099999998353
1040
8.999899999990987
1040
14.32399999998563
1040
3.315799999996671
1040
12.02999999998792
1040
8.763099999991255
1040
10.53899999998941
1040
8.763099999991255
1040
14.32899999998563
1040
-0.2368999999997641
1071
       10
1005
2031A
1005
2031B
1005
2033C
1005
2033A
1005
2033B
1005
2032E
1005
20333
1005
20337
1005
2031D
1005
2031C
1070
     0
1070
     1
1040
0.0
1040
0.15
1070
     0
1070
     2
1040
0.7853981633974483
1040
49.29960901727088
1040
-10.17736998311392
1040
-0.3367596045400932
1040
0.3367596045400932
1070
     0
1040
2.356194490192345
1040
49.29960901727088
1040
-10.17736998311392
1040
-0.3367596045400932
1040
-0.3367596045400932
1070
     0
1040
0.0110235143455945
1071
        1
1040
14.73245321214324
1040
2.798246178283421
1040
0.0
1002
}
  0
INSERT
  5
2035B
330
20316
100
AcDbEntity
  8
0
100
AcDbBlockReference
  2
*X78
 10
0.0
 20
0.0
 30
0.0
1001
ACAD
1000
HATCH
1002
{
1070
    19
1000
ANSI37
1040
0.15
1040
0.0
1000
ASC_BOUNDS
1070
     2
1070
     2
1070
    13
1005
2031E
1005
2032B
1005
2032C
1005
2032A
1005
2032D
1005
20354
1005
20358
1005
20353
1005
20352
1005
20355
1005
20357
1005
20356
1005
2031F
1070
     2
1070
     3
1005
20338
1005
2033D
1005
20339
1000
ASC_SEEDPOINT
1011
21.97929957367762
1021
3.294304244259308
1031
0.0
1000
R14_HATCH_DATA
1000
2035B
1011
1.0
1021
0.0
1031
0.0
1011
0.0
1021
1.0
1031
0.0
1011
0.0
1021
0.0
1031
1.0
1040
0.0
1010
0.0
1020
0.0
1030
1.0
1000
ANSI37
1070
     0
1070
     1
1071
        2
1071
        7
1070
     1
1070
     1
1071
       15
1040
23.56599999997638
1040
8.999899999990987
1040
0.0
1040
19.53899999998043
1040
-0.0001000000000317
1040
0.0
1040
19.53899999998043
1040
0.0
1040
0.0
1040
21.09599999997886
1040
0.0
1040
0.0
1040
21.09599999997886
1040
-0.0001000000000317
1040
0.0
1040
22.15599999997789
1040
2.368399999997621
1040
0.0
1040
24.97599999997499
1040
2.368399999997621
1040
0.0
1040
26.02015566812236
1040
0.0330999999912365
1040
0.0
1040
28.40199999996923
1040
0.0330999999912365
1040
0.414213562373095
1040
30.74199999996923
1040
2.373099999991211
1040
0.0
1040
30.74199999996927
1040
8.763099999991255
1040
0.0
1040
29.30199999996933
1040
8.763099999991255
1040
0.0
1040
29.30199999996933
1040
2.283099999991236
1040
-0.414213562373095
1040
28.40199999996923
1040
1.383099999991237
1040
0.0
1040
26.97358892824991
1040
1.383099999991202
1040
0.0
1071
       13
1005
2031E
1005
2032B
1005
2032C
1005
2032A
1005
2032D
1005
20354
1005
20358
1005
20353
1005
20352
1005
20355
1005
20357
1005
20356
1005
2031F
1071
       22
1070
     0
1070
     1
1071
        3
1040
22.7389999999773
1040
3.670999999996297
1040
23.56599999997638
1040
5.5200999999945
1040
24.39299999997559
1040
3.670999999996297
1071
        3
1005
20338
1005
2033D
1005
20339
1070
     0
1070
     1
1040
0.0
1040
0.15
1070
     0
1070
     2
1040
0.7853981633974483
1040
49.29960901727088
1040
-10.17736998311392
1040
-0.3367596045400932
1040
0.3367596045400932
1070
     0
1040
2.356194490192345
1040
49.29960901727088
1040
-10.17736998311392
1040
-0.3367596045400932
1040
-0.3367596045400932
1070
     0
1040
0.0110235143455945
1071
        2
1040
21.97929957367762
1040
3.294304244259308
1040
0.0
1040
21.97929957367762
1040
3.294304244259308
1040
0.0
1002
}
  0
INSERT
  5
2035C
330
20316
100
AcDbEntity
  8
0
100
AcDbBlockReference
  2
*X79
 10
0.0
 20
0.0
 30
0.0
1001
ACAD
1000
HATCH
1002
{
1070
    19
1000
ANSI37
1040
0.15
1040
0.0
1000
R14_HATCH_DATA
1000
2035C
1011
1.0
1021
0.0
1031
0.0
1011
0.0
1021
1.0
1031
0.0
1011
0.0
1021
0.0
1031
1.0
1040
0.0
1010
0.0
1020
0.0
1030
1.0
1000
ANSI37
1070
     0
1070
     1
1071
        1
1071
        7
1070
     1
1070
     1
1071
       12
1040
31.64199999996833
1040
2.481619422925121
1040
0.2679491924310942
1040
32.94699999997067
1040
0.2212931190493919
1040
0.2679491924301353
1040
36.36699999995983
1040
0.2212931190459813
1040
0.2679491924321411
1040
37.67199999996831
1040
2.481619422928361
1040
0.0
1040
37.67199999996831
1040
8.763099999991255
1040
0.0
1040
36.23199999996837
1040
8.763099999991255
1040
0.0
1040
36.23199999996837
1040
2.481619422925064
1040
-0.2679491924310291
1040
35.64699999996708
1040
1.468369700498386
1040
-0.267949192430519
1040
33.66699999997093
1040
1.468369700497703
1040
-0.267949192431809
1040
33.08199999996839
1040
2.481619422926997
1040
0.0
1040
33.08199999996839
1040
8.763099999991255
1040
0.0
1040
31.64199999996833
1040
8.763099999991255
1040
0.0
1071
        0
1070
     0
1070
     1
1040
0.0
1040
0.15
1070
     0
1070
     2
1040
0.7853981633974483
1040
49.29960901727088
1040
-10.17736998311392
1040
-0.3367596045400932
1040
0.3367596045400932
1070
     0
1040
2.356194490192345
1040
49.29960901727088
1040
-10.17736998311392
1040
-0.3367596045400932
1040
-0.3367596045400932
1070
     0
1040
0.0110235143455945
1071
        1
1040
32.30357378967278
1040
3.988785755459219
1040
0.0
1002
}
  0
INSERT
  5
2035D
330
20316
100
AcDbEntity
  8
0
100
AcDbBlockReference
  2
*X80
 10
0.0
 20
0.0
 30
0.0
1001
ACAD
1000
HATCH
1002
{
1070
    19
1000
ANSI37
1040
0.15
1040
0.0
1000
ASC_BOUNDS
1070
     1
1070
     2
1070
     8
1005
2033E
1005
20341
1005
20345
1005
20344
1005
20343
1005
20340
1005
20342
1005
2033F
1000
ASC_SEEDPOINT
1011
39.74896370716704
1021
4.484843821435049
1031
0.0
1000
R14_HATCH_DATA
1000
2035D
1011
1.0
1021
0.0
1031
0.0
1011
0.0
1021
1.0
1031
0.0
1011
0.0
1021
0.0
1031
1.0
1040
0.0
1010
0.0
1020
0.0
1030
1.0
1000
ANSI37
1070
     0
1070
     1
1071
        1
1071
        7
1070
     0
1070
     1
1071
        9
1040
40.02599999995994
1040
5.341799999994635
1040
44.99999999995498
1040
-0.2368999999997641
1040
44.99999999995498
1040
8.763099999991255
1040
43.57899999995641
1040
8.763099999991255
1040
43.57899999995641
1040
3.421199999996588
1040
38.60499999996136
1040
8.999899999990987
1040
38.60499999996136
1040
8.999999999991019
1040
38.60499999996136
1040
0.0
1040
40.02599999995994
1040
0.0
1071
        8
1005
2033E
1005
20341
1005
20345
1005
20344
1005
20343
1005
20340
1005
20342
1005
2033F
1070
     0
1070
     1
1040
0.0
1040
0.15
1070
     0
1070
     2
1040
0.7853981633974483
1040
49.29960901727088
1040
-10.17736998311392
1040
-0.3367596045400932
1040
0.3367596045400932
1070
     0
1040
2.356194490192345
1040
49.29960901727088
1040
-10.17736998311392
1040
-0.3367596045400932
1040
-0.3367596045400932
1070
     0
1040
0.0110235143455945
1071
        1
1040
39.74896370716704
1040
4.484843821435049
1040
0.0
1002
}
  0
INSERT
  5
2035E
330
20316
100
AcDbEntity
  8
0
100
AcDbBlockReference
  2
*X81
 10
0.0
 20
0.0
 30
0.0
1001
ACAD
1000
HATCH
1002
{
1070
    19
1000
ANSI37
1040
0.15
1040
0.0
1000
ASC_BOUNDS
1070
     1
1070
     2
1070
     4
1005
20322
1005
20331
1005
20323
1005
20325
1000
ASC_SEEDPOINT
1011
1.079051535452663
1021
4.148538732891836
1031
0.0
1000
R14_HATCH_DATA
1000
2035E
1011
1.0
1021
0.0
1031
0.0
1011
0.0
1021
1.0
1031
0.0
1011
0.0
1021
0.0
1031
1.0
1040
0.0
1010
0.0
1020
0.0
1030
1.0
1000
ANSI37
1070
     0
1070
     1
1071
        1
1071
        7
1070
     0
1070
     1
1071
        4
1040
1.420999999998571
1040
0.0
1040
1.420999999998571
1040
8.763099999991255
1040
0.0
1040
8.763099999991255
1040
0.0
1040
0.0
1071
        4
1005
20322
1005
20331
1005
20323
1005
20325
1070
     0
1070
     1
1040
0.0
1040
0.15
1070
     0
1070
     2
1040
0.7853981633974483
1040
49.29960901727088
1040
-10.17736998311392
1040
-0.3367596045400932
1040
0.3367596045400932
1070
     0
1040
2.356194490192345
1040
49.29960901727088
1040
-10.17736998311392
1040
-0.3367596045400932
1040
-0.3367596045400932
1070
     0
1040
0.0053004257112761
1071
        1
1040
1.079051535452663
1040
4.148538732891836
1040
0.0
1002
}
  0
ENDBLK
  5
20A16
330
20316
100
AcDbEntity
  8
0
100
AcDbBlockEnd
  0
BLOCK
  5
2281E
330
22690
100
AcDbEntity
  8
0
100
AcDbBlockBegin
  2
*X76
 70
     1
 10
0.0
 20
0.0
 30
0.0
  3
*X76
  1

  0
LINE
  5
22691
330
22690
100
AcDbEntity
  8
0
  6
CONTINUOUS
100
AcDbLine
 10
3.418023043697893
 20
7.251849696850613
 30
0.0
 11
4.929273346838536
 21
8.763099999991255
 31
0.0
  0
LINE
  5
22692
330
22690
100
AcDbEntity
  8
0
  6
CONTINUOUS
100
AcDbLine
 10
1.483656411257782
 20
4.643963855330318
 30
0.0
 11
5.60279255591872
 21
8.763099999991255
 31
0.0
  0
LINE
  5
22693
330
22690
100
AcDbEntity
  8
0
  6
CONTINUOUS
100
AcDbLine
 10
1.755053947328235
 20
4.241842182320584
 30
0.0
 11
6.276311764998907
 21
8.763099999991255
 31
0.0
  0
LINE
  5
22694
330
22690
100
AcDbEntity
  8
0
  6
CONTINUOUS
100
AcDbLine
 10
2.026451483398688
 20
3.839720509310849
 30
0.0
 11
4.441040904851878
 21
6.254309930764039
 31
0.0
  0
LINE
  5
22695
330
22690
100
AcDbEntity
  8
0
  6
CONTINUOUS
100
AcDbLine
 10
2.297849019469139
 20
3.437598836301114
 30
0.0
 11
3.321765168359338
 21
4.461514985191313
 31
0.0
  0
LINE
  5
22696
330
22690
100
AcDbEntity
  8
0
  6
CONTINUOUS
100
AcDbLine
 10
2.569246555539591
 20
3.03547716329138
 30
0.0
 11
3.593163397972743
 21
4.059394005724531
 31
0.0
  0
LINE
  5
22697
330
22690
100
AcDbEntity
  8
0
  6
CONTINUOUS
100
AcDbLine
 10
2.840644091610043
 20
2.633355490281646
 30
0.0
 11
3.864561627586149
 21
3.657273026257751
 31
0.0
  0
LINE
  5
22698
330
22690
100
AcDbEntity
  8
0
  6
CONTINUOUS
100
AcDbLine
 10
3.112041627680496
 20
2.231233817271911
 30
0.0
 11
4.135959857199554
 21
3.25515204679097
 31
0.0
  0
LINE
  5
22699
330
22690
100
AcDbEntity
  8
0
  6
CONTINUOUS
100
AcDbLine
 10
3.383439163750948
 20
1.829112144262177
 30
0.0
 11
4.40735808681296
 21
2.853031067324189
 31
0.0
  0
LINE
  5
2269A
330
22690
100
AcDbEntity
  8
0
  6
CONTINUOUS
100
AcDbLine
 10
3.654836699821399
 20
1.426990471252442
 30
0.0
 11
4.678756316426365
 21
2.450910087857407
 31
0.0
  0
LINE
  5
2269B
330
22690
100
AcDbEntity
  8
0
  6
CONTINUOUS
100
AcDbLine
 10
3.926234235891853
 20
1.024868798242709
 30
0.0
 11
4.95015454603977
 21
2.048789108390626
 31
0.0
  0
LINE
  5
2269C
330
22690
100
AcDbEntity
  8
0
  6
CONTINUOUS
100
AcDbLine
 10
4.197631771962304
 20
0.6227471252329737
 30
0.0
 11
5.221552775653176
 21
1.646668128923846
 31
0.0
  0
LINE
  5
2269D
330
22690
100
AcDbEntity
  8
0
  6
CONTINUOUS
100
AcDbLine
 10
8.715877546767851
 20
7.835069736359266
 30
0.0
 11
9.435953450375058
 21
8.555145639966472
 31
0.0
  0
LINE
  5
2269E
330
22690
100
AcDbEntity
  8
0
  6
CONTINUOUS
100
AcDbLine
 10
8.170620868422267
 20
6.616293848933497
 30
0.0
 11
9.644120833743461
 21
8.08979381425469
 31
0.0
  0
LINE
  5
2269F
330
22690
100
AcDbEntity
  8
0
  6
CONTINUOUS
100
AcDbLine
 10
7.625364190076684
 20
5.397517961507727
 30
0.0
 11
9.852288217111864
 21
7.624441988542907
 31
0.0
  0
LINE
  5
226A0
330
22690
100
AcDbEntity
  8
0
  6
CONTINUOUS
100
AcDbLine
 10
7.080107511731101
 20
4.178742074081957
 30
0.0
 11
10.06045560048027
 21
7.159090162831124
 31
0.0
  0
LINE
  5
226A1
330
22690
100
AcDbEntity
  8
0
  6
CONTINUOUS
100
AcDbLine
 10
6.534850833385518
 20
2.959966186656187
 30
0.0
 11
10.26862298384867
 21
6.693738337119342
 31
0.0
  0
LINE
  5
226A2
330
22690
100
AcDbEntity
  8
0
  6
CONTINUOUS
100
AcDbLine
 10
4.469029308032756
 20
0.2206254522232385
 30
0.0
 11
5.492951005266582
 21
1.244547149457064
 31
0.0
  0
LINE
  5
226A3
330
22690
100
AcDbEntity
  8
0
  6
CONTINUOUS
100
AcDbLine
 10
5.989594155039935
 20
1.741190299230417
 30
0.0
 11
8.806950407233131
 21
4.558546551423613
 31
0.0
  0
LINE
  5
226A4
330
22690
100
AcDbEntity
  8
0
  6
CONTINUOUS
100
AcDbLine
 10
9.401251593263643
 20
5.152847737454126
 30
0.0
 11
10.47679036721708
 21
6.228386511407559
 31
0.0
  0
LINE
  5
226A5
330
22690
100
AcDbEntity
  8
0
  6
CONTINUOUS
100
AcDbLine
 10
4.921837203428691
 20
-0.0000858614610131
 30
0.0
 11
8.592923064886001
 21
3.670999999996297
 31
0.0
  0
LINE
  5
226A6
330
22690
100
AcDbEntity
  8
0
  6
CONTINUOUS
100
AcDbLine
 10
9.609390446785305
 20
4.6874673818956
 30
0.0
 11
10.68495775058548
 21
5.763034685695775
 31
0.0
  0
LINE
  5
226A7
330
22690
100
AcDbEntity
  8
0
  6
CONTINUOUS
100
AcDbLine
 10
5.595387755019432
 20
-0.0000545189504582
 30
0.0
 11
7.716137258923768
 21
2.120694984953879
 31
0.0
  0
LINE
  5
226A8
330
22690
100
AcDbEntity
  8
0
  6
CONTINUOUS
100
AcDbLine
 10
6.268938306610172
 20
-0.000023176439905
 30
0.0
 11
7.170485805526503
 21
0.9015243224764267
 31
0.0
  0
LINE
  5
226A9
330
22690
100
AcDbEntity
  8
0
  6
CONTINUOUS
100
AcDbLine
 10
7.963842273967511
 20
2.368399999997621
 30
0.0
 11
9.266442273966188
 21
3.670999999996297
 31
0.0
  0
LINE
  5
226AA
330
22690
100
AcDbEntity
  8
0
  6
CONTINUOUS
100
AcDbLine
 10
8.637361483047696
 20
2.368399999997621
 30
0.0
 11
9.939961483046375
 21
3.670999999996297
 31
0.0
  0
LINE
  5
226AB
330
22690
100
AcDbEntity
  8
0
  6
CONTINUOUS
100
AcDbLine
 10
9.817529300306965
 20
4.222087026337075
 30
0.0
 11
10.89312513395388
 21
5.297682859983993
 31
0.0
  0
LINE
  5
226AC
330
22690
100
AcDbEntity
  8
0
  6
CONTINUOUS
100
AcDbLine
 10
10.02566815382863
 20
3.756706670778549
 30
0.0
 11
11.10129251732229
 21
4.832331034272211
 31
0.0
  0
LINE
  5
226AD
330
22690
100
AcDbEntity
  8
0
  6
CONTINUOUS
100
AcDbLine
 10
9.310880692127883
 20
2.368399999997621
 30
0.0
 11
11.30945990069069
 21
4.366979208560428
 31
0.0
  0
LINE
  5
226AE
330
22690
100
AcDbEntity
  8
0
  6
CONTINUOUS
100
AcDbLine
 10
9.98439990120807
 20
2.36839999999762
 30
0.0
 11
11.5176272840591
 21
3.901627382848645
 31
0.0
  0
LINE
  5
226AF
330
22690
100
AcDbEntity
  8
0
  6
CONTINUOUS
100
AcDbLine
 10
10.65037369446246
 20
2.36085458417182
 30
0.0
 11
11.7257946674275
 21
3.436275557136862
 31
0.0
  0
LINE
  5
226B0
330
22690
100
AcDbEntity
  8
0
  6
CONTINUOUS
100
AcDbLine
 10
10.85847197087848
 20
1.895433651507656
 30
0.0
 11
11.9339620507959
 21
2.97092373142508
 31
0.0
  0
LINE
  5
226B1
330
22690
100
AcDbEntity
  8
0
  6
CONTINUOUS
100
AcDbLine
 10
11.0665702472945
 20
1.430012718843491
 30
0.0
 11
12.14212943416431
 21
2.505571905713296
 31
0.0
  0
LINE
  5
226B2
330
22690
100
AcDbEntity
  8
0
  6
CONTINUOUS
100
AcDbLine
 10
11.27466852371052
 20
0.9645917861793256
 30
0.0
 11
12.35029681753271
 21
2.040220080001513
 31
0.0
  0
LINE
  5
226B3
330
22690
100
AcDbEntity
  8
0
  6
CONTINUOUS
100
AcDbLine
 10
11.48276680012654
 20
0.4991708535151611
 30
0.0
 11
12.55846420090111
 21
1.57486825428973
 31
0.0
  0
LINE
  5
226B4
330
22690
100
AcDbEntity
  8
0
  6
CONTINUOUS
100
AcDbLine
 10
11.69086507654257
 20
0.0337499208509957
 30
0.0
 11
12.76663158426952
 21
1.109516428577947
 31
0.0
  0
LINE
  5
226B5
330
22690
100
AcDbEntity
  8
0
  6
CONTINUOUS
100
AcDbLine
 10
12.33057447873954
 20
-0.0000598860322123
 30
0.0
 11
12.97479896763792
 21
0.6441646028661663
 31
0.0
  0
LINE
  5
226B6
330
22690
100
AcDbEntity
  8
0
  6
CONTINUOUS
100
AcDbLine
 10
13.00413694809395
 20
-0.0000166257579952
 30
0.0
 11
13.18296635100632
 21
0.1788127771543824
 31
0.0
  0
LINE
  5
226B7
330
22690
100
AcDbEntity
  8
0
  6
CONTINUOUS
100
AcDbLine
 10
4.772852165289667
 20
-0.000092794222212
 30
0.0
 11
4.296495091028902
 21
0.4762642800385528
 31
0.0
  0
LINE
  5
226B8
330
22690
100
AcDbEntity
  8
0
  6
CONTINUOUS
100
AcDbLine
 10
5.446340034776103
 20
-0.0000614546284616
 30
0.0
 11
2.898195908335625
 21
2.548082671812017
 31
0.0
  0
LINE
  5
226B9
330
22690
100
AcDbEntity
  8
0
  6
CONTINUOUS
100
AcDbLine
 10
6.119827904262539
 20
-0.0000301150347113
 30
0.0
 11
1.499896725642348
 21
4.61990106358548
 31
0.0
  0
LINE
  5
226BA
330
22690
100
AcDbEntity
  8
0
  6
CONTINUOUS
100
AcDbLine
 10
6.775136745476159
 20
0.0181802528318542
 30
0.0
 11
5.699826040202669
 21
1.093490958105344
 31
0.0
  0
LINE
  5
226BB
330
22690
100
AcDbEntity
  8
0
  6
CONTINUOUS
100
AcDbLine
 10
6.983376846288489
 20
0.4834593610997118
 30
0.0
 11
5.908008617934405
 21
1.558827589453796
 31
0.0
  0
LINE
  5
226BC
330
22690
100
AcDbEntity
  8
0
  6
CONTINUOUS
100
AcDbLine
 10
5.377063484962296
 20
1.416253513345719
 30
0.0
 11
1.702276957014131
 21
5.091040041293883
 31
0.0
  0
LINE
  5
226BD
330
22690
100
AcDbEntity
  8
0
  6
CONTINUOUS
100
AcDbLine
 10
3.978745891735324
 20
3.488090315652877
 30
0.0
 11
2.000373521109399
 21
5.466462686278803
 31
0.0
  0
LINE
  5
226BE
330
22690
100
AcDbEntity
  8
0
  6
CONTINUOUS
100
AcDbLine
 10
7.191616947100819
 20
0.948738469367568
 30
0.0
 11
6.11619119566614
 21
2.024164220802247
 31
0.0
  0
LINE
  5
226BF
330
22690
100
AcDbEntity
  8
0
  6
CONTINUOUS
100
AcDbLine
 10
7.399857047913149
 20
1.414017577635424
 30
0.0
 11
6.324373773397875
 21
2.489500852150698
 31
0.0
  0
LINE
  5
226C0
330
22690
100
AcDbEntity
  8
0
  6
CONTINUOUS
100
AcDbLine
 10
7.608097148725479
 20
1.879296685903281
 30
0.0
 11
6.53255635112961
 21
2.95483748349915
 31
0.0
  0
LINE
  5
226C1
330
22690
100
AcDbEntity
  8
0
  6
CONTINUOUS
100
AcDbLine
 10
7.816337249537808
 20
2.344575794171138
 30
0.0
 11
6.740738928861345
 21
3.420174114847601
 31
0.0
  0
LINE
  5
226C2
330
22690
100
AcDbEntity
  8
0
  6
CONTINUOUS
100
AcDbLine
 10
3.310241080789734
 20
4.830114335678653
 30
0.0
 11
2.298470085204666
 21
5.84188533126372
 31
0.0
  0
LINE
  5
226C3
330
22690
100
AcDbEntity
  8
0
  6
CONTINUOUS
100
AcDbLine
 10
3.60832983563551
 20
5.205544789913063
 30
0.0
 11
2.596566649299935
 21
6.217307976248638
 31
0.0
  0
LINE
  5
226C4
330
22690
100
AcDbEntity
  8
0
  6
CONTINUOUS
100
AcDbLine
 10
3.906418590481286
 20
5.580975244147473
 30
0.0
 11
2.894663213395203
 21
6.592730621233557
 31
0.0
  0
LINE
  5
226C5
330
22690
100
AcDbEntity
  8
0
  6
CONTINUOUS
100
AcDbLine
 10
4.204507345327062
 20
5.956405698381884
 30
0.0
 11
3.192759777490472
 21
6.968153266218474
 31
0.0
  0
LINE
  5
226C6
330
22690
100
AcDbEntity
  8
0
  6
CONTINUOUS
100
AcDbLine
 10
8.466032252791512
 20
2.368399999997621
 30
0.0
 11
6.948921506593081
 21
3.885510746196053
 31
0.0
  0
LINE
  5
226C7
330
22690
100
AcDbEntity
  8
0
  6
CONTINUOUS
100
AcDbLine
 10
9.139551461871699
 20
2.36839999999762
 30
0.0
 11
7.157104084324816
 21
4.350847377544504
 31
0.0
  0
LINE
  5
226C8
330
22690
100
AcDbEntity
  8
0
  6
CONTINUOUS
100
AcDbLine
 10
4.502596100172839
 20
6.331836152616295
 30
0.0
 11
3.49085634158574
 21
7.343575911203393
 31
0.0
  0
LINE
  5
226C9
330
22690
100
AcDbEntity
  8
0
  6
CONTINUOUS
100
AcDbLine
 10
4.800684855018615
 20
6.707266606850705
 30
0.0
 11
3.788952905681008
 21
7.718998556188312
 31
0.0
  0
LINE
  5
226CA
330
22690
100
AcDbEntity
  8
0
  6
CONTINUOUS
100
AcDbLine
 10
12.18154012887317
 20
-0.0000694579236642
 30
0.0
 11
11.32140332908496
 21
0.8600673418645499
 31
0.0
  0
LINE
  5
226CB
330
22690
100
AcDbEntity
  8
0
  6
CONTINUOUS
100
AcDbLine
 10
12.85501608323566
 20
-0.0000262032059659
 30
0.0
 11
10.77672456435345
 21
2.078265315676246
 31
0.0
  0
LINE
  5
226CC
330
22690
100
AcDbEntity
  8
0
  6
CONTINUOUS
100
AcDbLine
 10
9.813070670951886
 20
2.36839999999762
 30
0.0
 11
8.51047067095321
 21
3.670999999996297
 31
0.0
  0
LINE
  5
226CD
330
22690
100
AcDbEntity
  8
0
  6
CONTINUOUS
100
AcDbLine
 10
10.48658988003207
 20
2.36839999999762
 30
0.0
 11
9.183989880033396
 21
3.670999999996297
 31
0.0
  0
LINE
  5
226CE
330
22690
100
AcDbEntity
  8
0
  6
CONTINUOUS
100
AcDbLine
 10
8.441048632286794
 20
3.740422038662712
 30
0.0
 11
7.365286662056551
 21
4.816184008892956
 31
0.0
  0
LINE
  5
226CF
330
22690
100
AcDbEntity
  8
0
  6
CONTINUOUS
100
AcDbLine
 10
8.649187485808454
 20
4.205802394221237
 30
0.0
 11
7.573469239788285
 21
5.281520640241407
 31
0.0
  0
LINE
  5
226D0
330
22690
100
AcDbEntity
  8
0
  6
CONTINUOUS
100
AcDbLine
 10
5.098773609864391
 20
7.082697061085115
 30
0.0
 11
4.087049469776277
 21
8.09442120117323
 31
0.0
  0
LINE
  5
226D1
330
22690
100
AcDbEntity
  8
0
  6
CONTINUOUS
100
AcDbLine
 10
5.396862364710167
 20
7.458127515319526
 30
0.0
 11
4.385146033871544
 21
8.469843846158149
 31
0.0
  0
LINE
  5
226D2
330
22690
100
AcDbEntity
  8
0
  6
CONTINUOUS
100
AcDbLine
 10
13.04801363231285
 20
0.4804954567970334
 30
0.0
 11
9.85750908911358
 21
3.670999999996297
 31
0.0
  0
LINE
  5
226D3
330
22690
100
AcDbEntity
  8
0
  6
CONTINUOUS
100
AcDbLine
 10
8.857326339330116
 20
4.671182749779763
 30
0.0
 11
7.781651817520021
 21
5.746857271589858
 31
0.0
  0
LINE
  5
226D4
330
22690
100
AcDbEntity
  8
0
  6
CONTINUOUS
100
AcDbLine
 10
5.694951119555943
 20
7.833557969553937
 30
0.0
 11
4.765409089118624
 21
8.763099999991255
 31
0.0
  0
LINE
  5
226D5
330
22690
100
AcDbEntity
  8
0
  6
CONTINUOUS
100
AcDbLine
 10
12.50286117236978
 20
1.699167125820288
 30
0.0
 11
9.68611877250287
 21
4.515909525687196
 31
0.0
  0
LINE
  5
226D6
330
22690
100
AcDbEntity
  8
0
  6
CONTINUOUS
100
AcDbLine
 10
9.065465192851777
 20
5.136563105338288
 30
0.0
 11
7.989834395251757
 21
6.21219390293831
 31
0.0
  0
LINE
  5
226D7
330
22690
100
AcDbEntity
  8
0
  6
CONTINUOUS
100
AcDbLine
 10
5.993039874401719
 20
8.208988423788346
 30
0.0
 11
5.43892829819881
 21
8.763099999991255
 31
0.0
  0
LINE
  5
226D8
330
22690
100
AcDbEntity
  8
0
  6
CONTINUOUS
100
AcDbLine
 10
11.95770871242671
 20
2.917838794843543
 30
0.0
 11
8.19801697298349
 21
6.677530534286761
 31
0.0
  0
LINE
  5
226D9
330
22690
100
AcDbEntity
  8
0
  6
CONTINUOUS
100
AcDbLine
 10
6.291128629247495
 20
8.584418878022756
 30
0.0
 11
6.112447507278997
 21
8.763099999991255
 31
0.0
  0
LINE
  5
226DA
330
22690
100
AcDbEntity
  8
0
  6
CONTINUOUS
100
AcDbLine
 10
11.41255625248364
 20
4.136510463866797
 30
0.0
 11
8.406199550715227
 21
7.142867165635211
 31
0.0
  0
LINE
  5
226DB
330
22690
100
AcDbEntity
  8
0
  6
CONTINUOUS
100
AcDbLine
 10
10.86740379254057
 20
5.355182132890051
 30
0.0
 11
8.614382128446962
 21
7.608203796983664
 31
0.0
  0
LINE
  5
226DC
330
22690
100
AcDbEntity
  8
0
  6
CONTINUOUS
100
AcDbLine
 10
10.3222513325975
 20
6.573853801913305
 30
0.0
 11
8.822564706178696
 21
8.073540428332114
 31
0.0
  0
LINE
  5
226DD
330
22690
100
AcDbEntity
  8
0
  6
CONTINUOUS
100
AcDbLine
 10
9.777098872654436
 20
7.792525470936562
 30
0.0
 11
9.030747283910433
 21
8.538877059680566
 31
0.0
  0
ENDBLK
  5
2281F
330
22690
100
AcDbEntity
  8
0
100
AcDbBlockEnd
  0
BLOCK
  5
22820
330
226DE
100
AcDbEntity
  8
0
100
AcDbBlockBegin
  2
*X77
 70
     1
 10
0.0
 20
0.0
 30
0.0
  3
*X77
  1

  0
LINE
  5
226DF
330
226DE
100
AcDbEntity
  8
0
  6
CONTINUOUS
100
AcDbLine
 10
10.67292308101235
 20
8.445076852443387
 30
0.0
 11
10.99094622856022
 21
8.763099999991255
 31
0.0
  0
LINE
  5
226E0
330
226DE
100
AcDbEntity
  8
0
  6
CONTINUOUS
100
AcDbLine
 10
10.87250383178748
 20
7.971138394138331
 30
0.0
 11
11.6644654376404
 21
8.763099999991255
 31
0.0
  0
LINE
  5
226E1
330
226DE
100
AcDbEntity
  8
0
  6
CONTINUOUS
100
AcDbLine
 10
11.07208458256261
 20
7.497199935833273
 30
0.0
 11
12.12126590876355
 21
8.546381262034211
 31
0.0
  0
LINE
  5
226E2
330
226DE
100
AcDbEntity
  8
0
  6
CONTINUOUS
100
AcDbLine
 10
11.27166533333774
 20
7.023261477528216
 30
0.0
 11
12.32085164573666
 21
8.072447789927136
 31
0.0
  0
LINE
  5
226E3
330
226DE
100
AcDbEntity
  8
0
  6
CONTINUOUS
100
AcDbLine
 10
11.47124608411287
 20
6.549323019223158
 30
0.0
 11
12.52043738270977
 21
7.59851431782006
 31
0.0
  0
LINE
  5
226E4
330
226DE
100
AcDbEntity
  8
0
  6
CONTINUOUS
100
AcDbLine
 10
11.670826834888
 20
6.075384560918101
 30
0.0
 11
12.72002311968288
 21
7.124580845712984
 31
0.0
  0
LINE
  5
226E5
330
226DE
100
AcDbEntity
  8
0
  6
CONTINUOUS
100
AcDbLine
 10
11.87040758566313
 20
5.601446102613043
 30
0.0
 11
12.91960885665599
 21
6.650647373605907
 31
0.0
  0
LINE
  5
226E6
330
226DE
100
AcDbEntity
  8
0
  6
CONTINUOUS
100
AcDbLine
 10
12.06998833643825
 20
5.127507644307986
 30
0.0
 11
13.1191945936291
 21
6.176713901498832
 31
0.0
  0
LINE
  5
226E7
330
226DE
100
AcDbEntity
  8
0
  6
CONTINUOUS
100
AcDbLine
 10
12.26956908721338
 20
4.65356918600293
 30
0.0
 11
13.31878033060221
 21
5.702780429391757
 31
0.0
  0
LINE
  5
226E8
330
226DE
100
AcDbEntity
  8
0
  6
CONTINUOUS
100
AcDbLine
 10
12.46914983798851
 20
4.179630727697873
 30
0.0
 11
13.51836606757532
 21
5.228846957284683
 31
0.0
  0
LINE
  5
226E9
330
226DE
100
AcDbEntity
  8
0
  6
CONTINUOUS
100
AcDbLine
 10
12.66873058876364
 20
3.705692269392816
 30
0.0
 11
13.71795180454843
 21
4.754913485177607
 31
0.0
  0
LINE
  5
226EA
330
226DE
100
AcDbEntity
  8
0
  6
CONTINUOUS
100
AcDbLine
 10
12.86831133953877
 20
3.231753811087759
 30
0.0
 11
13.91753754152154
 21
4.280980013070531
 31
0.0
  0
LINE
  5
226EB
330
226DE
100
AcDbEntity
  8
0
  6
CONTINUOUS
100
AcDbLine
 10
13.0678920903139
 20
2.757815352782702
 30
0.0
 11
14.11712327849465
 21
3.807046540963456
 31
0.0
  0
LINE
  5
226EC
330
226DE
100
AcDbEntity
  8
0
  6
CONTINUOUS
100
AcDbLine
 10
13.26747284108903
 20
2.283876894477644
 30
0.0
 11
14.31670901546777
 21
3.333113068856379
 31
0.0
  0
LINE
  5
226ED
330
226DE
100
AcDbEntity
  8
0
  6
CONTINUOUS
100
AcDbLine
 10
16.36767838827179
 20
8.751678487061342
 30
0.0
 11
16.50332410898388
 21
8.887324207773432
 31
0.0
  0
LINE
  5
226EE
330
226DE
100
AcDbEntity
  8
0
  6
CONTINUOUS
100
AcDbLine
 10
15.96190732182191
 20
7.67238821153127
 30
0.0
 11
16.68735328004734
 21
8.397834169756699
 31
0.0
  0
LINE
  5
226EF
330
226DE
100
AcDbEntity
  8
0
  6
CONTINUOUS
100
AcDbLine
 10
15.55613625537202
 20
6.593097936001196
 30
0.0
 11
16.87138245111079
 21
7.908344131739965
 31
0.0
  0
LINE
  5
226F0
330
226DE
100
AcDbEntity
  8
0
  6
CONTINUOUS
100
AcDbLine
 10
15.15036518892213
 20
5.513807660471122
 30
0.0
 11
17.05541162217424
 21
7.418854093723231
 31
0.0
  0
LINE
  5
226F1
330
226DE
100
AcDbEntity
  8
0
  6
CONTINUOUS
100
AcDbLine
 10
14.74459412247225
 20
4.434517384941048
 30
0.0
 11
17.2394407932377
 21
6.929364055706499
 31
0.0
  0
LINE
  5
226F2
330
226DE
100
AcDbEntity
  8
0
  6
CONTINUOUS
100
AcDbLine
 10
14.33882305602236
 20
3.355227109410975
 30
0.0
 11
17.42346996430115
 21
6.439874017689766
 31
0.0
  0
LINE
  5
226F3
330
226DE
100
AcDbEntity
  8
0
  6
CONTINUOUS
100
AcDbLine
 10
13.46705359186416
 20
1.809938436172586
 30
0.0
 11
16.0819338255367
 21
4.424818669845129
 31
0.0
  0
LINE
  5
226F4
330
226DE
100
AcDbEntity
  8
0
  6
CONTINUOUS
100
AcDbLine
 10
16.63283254238972
 20
4.975717386698149
 30
0.0
 11
17.60749913536461
 21
5.950383979673033
 31
0.0
  0
LINE
  5
226F5
330
226DE
100
AcDbEntity
  8
0
  6
CONTINUOUS
100
AcDbLine
 10
13.66663434263929
 20
1.335999977867529
 30
0.0
 11
15.67604797733754
 21
3.345413612565779
 31
0.0
  0
LINE
  5
226F6
330
226DE
100
AcDbEntity
  8
0
  6
CONTINUOUS
100
AcDbLine
 10
13.86621509341442
 20
0.8620615195624723
 30
0.0
 11
15.27016212913838
 21
2.26600855528643
 31
0.0
  0
LINE
  5
226F7
330
226DE
100
AcDbEntity
  8
0
  6
CONTINUOUS
100
AcDbLine
 10
16.81682257348267
 20
4.486188208710908
 30
0.0
 11
17.79152830642806
 21
5.460893941656299
 31
0.0
  0
LINE
  5
226F8
330
226DE
100
AcDbEntity
  8
0
  6
CONTINUOUS
100
AcDbLine
 10
17.00081260457561
 20
3.996659030723667
 30
0.0
 11
17.97555747749151
 21
4.971403903639565
 31
0.0
  0
LINE
  5
226F9
330
226DE
100
AcDbEntity
  8
0
  6
CONTINUOUS
100
AcDbLine
 10
20.74362343514722
 20
8.412989070375462
 30
0.0
 11
21.09373436476302
 21
8.763099999991256
 31
0.0
  0
LINE
  5
226FA
330
226DE
100
AcDbEntity
  8
0
  6
CONTINUOUS
100
AcDbLine
 10
20.25401257174777
 20
7.249858997895826
 30
0.0
 11
21.7672535738432
 21
8.763099999991255
 31
0.0
  0
LINE
  5
226FB
330
226DE
100
AcDbEntity
  8
0
  6
CONTINUOUS
100
AcDbLine
 10
14.06579584418955
 20
0.3881230612574149
 30
0.0
 11
14.86427628093921
 21
1.186603498007082
 31
0.0
  0
LINE
  5
226FC
330
226DE
100
AcDbEntity
  8
0
  6
CONTINUOUS
100
AcDbLine
 10
14.26537659496467
 20
-0.0858153970476412
 30
0.0
 11
14.45839043274005
 21
0.1071984407277329
 31
0.0
  0
LINE
  5
226FD
330
226DE
100
AcDbEntity
  8
0
  6
CONTINUOUS
100
AcDbLine
 10
17.18480263566856
 20
3.507129852736426
 30
0.0
 11
18.15958664855496
 21
4.481913865622833
 31
0.0
  0
LINE
  5
226FE
330
226DE
100
AcDbEntity
  8
0
  6
CONTINUOUS
100
AcDbLine
 10
17.3687926667615
 20
3.017600674749186
 30
0.0
 11
18.34361581961842
 21
3.9924238276061
 31
0.0
  0
LINE
  5
226FF
330
226DE
100
AcDbEntity
  8
0
  6
CONTINUOUS
100
AcDbLine
 10
19.76440170834832
 20
6.086728925416191
 30
0.0
 11
22.33924590259489
 21
8.661573119662755
 31
0.0
  0
LINE
  5
22700
330
226DE
100
AcDbEntity
  8
0
  6
CONTINUOUS
100
AcDbLine
 10
19.27479084494887
 20
4.923598852936555
 30
0.0
 11
21.84929622842713
 21
7.498104236414807
 31
0.0
  0
LINE
  5
22701
330
226DE
100
AcDbEntity
  8
0
  6
CONTINUOUS
100
AcDbLine
 10
17.55278269785445
 20
2.528071496761945
 30
0.0
 11
18.52764499068187
 21
3.502933789589366
 31
0.0
  0
LINE
  5
22702
330
226DE
100
AcDbEntity
  8
0
  6
CONTINUOUS
100
AcDbLine
 10
18.78517998154942
 20
3.760468780456919
 30
0.0
 11
21.35934655425936
 21
6.33463535316686
 31
0.0
  0
LINE
  5
22703
330
226DE
100
AcDbEntity
  8
0
  6
CONTINUOUS
100
AcDbLine
 10
17.73677272894739
 20
2.038542318774704
 30
0.0
 11
20.8693968800916
 21
5.171166469918914
 31
0.0
  0
LINE
  5
22704
330
226DE
100
AcDbEntity
  8
0
  6
CONTINUOUS
100
AcDbLine
 10
17.92076276004034
 20
1.549013140787464
 30
0.0
 11
20.37944720592384
 21
4.007697586670968
 31
0.0
  0
LINE
  5
22705
330
226DE
100
AcDbEntity
  8
0
  6
CONTINUOUS
100
AcDbLine
 10
18.10475279113329
 20
1.059483962800223
 30
0.0
 11
19.88949753175608
 21
2.84422870342302
 31
0.0
  0
LINE
  5
22706
330
226DE
100
AcDbEntity
  8
0
  6
CONTINUOUS
100
AcDbLine
 10
18.28874282222623
 20
0.5699547848129822
 30
0.0
 11
19.39954785758832
 21
1.680759820175074
 31
0.0
  0
LINE
  5
22707
330
226DE
100
AcDbEntity
  8
0
  6
CONTINUOUS
100
AcDbLine
 10
18.47273285331918
 20
0.0804256068257416
 30
0.0
 11
18.90959818342056
 21
0.517290936927127
 31
0.0
  0
LINE
  5
22708
330
226DE
100
AcDbEntity
  8
0
  6
CONTINUOUS
100
AcDbLine
 10
14.3590401358224
 20
-0.1570118376323384
 30
0.0
 11
14.24903296539946
 21
-0.0470046672093929
 31
0.0
  0
LINE
  5
22709
330
226DE
100
AcDbEntity
  8
0
  6
CONTINUOUS
100
AcDbLine
 10
14.54309291258661
 20
0.332454594683643
 30
0.0
 11
13.75908329123172
 21
1.116464216038529
 31
0.0
  0
LINE
  5
2270A
330
226DE
100
AcDbEntity
  8
0
  6
CONTINUOUS
100
AcDbLine
 10
14.72714568935081
 20
0.8219210269996244
 30
0.0
 11
13.26913361706399
 21
2.27993309928645
 31
0.0
  0
LINE
  5
2270B
330
226DE
100
AcDbEntity
  8
0
  6
CONTINUOUS
100
AcDbLine
 10
14.91119846611502
 20
1.311387459315606
 30
0.0
 11
12.77918394289625
 21
3.443401982534371
 31
0.0
  0
LINE
  5
2270C
330
226DE
100
AcDbEntity
  8
0
  6
CONTINUOUS
100
AcDbLine
 10
15.09525124287922
 20
1.800853891631587
 30
0.0
 11
12.28923426872852
 21
4.606870865782293
 31
0.0
  0
LINE
  5
2270D
330
226DE
100
AcDbEntity
  8
0
  6
CONTINUOUS
100
AcDbLine
 10
15.27930401964343
 20
2.290320323947569
 30
0.0
 11
11.79928459456078
 21
5.770339749030213
 31
0.0
  0
LINE
  5
2270E
330
226DE
100
AcDbEntity
  8
0
  6
CONTINUOUS
100
AcDbLine
 10
15.46335679640763
 20
2.77978675626355
 30
0.0
 11
14.48885470994921
 21
3.754288842721972
 31
0.0
  0
LINE
  5
2270F
330
226DE
100
AcDbEntity
  8
0
  6
CONTINUOUS
100
AcDbLine
 10
13.88507249233704
 20
4.358071060334137
 30
0.0
 11
11.30933492039305
 21
6.933808632278135
 31
0.0
  0
LINE
  5
22710
330
226DE
100
AcDbEntity
  8
0
  6
CONTINUOUS
100
AcDbLine
 10
18.75840522805855
 20
0.1582575336928151
 30
0.0
 11
18.25383727664818
 21
0.6628254851031863
 31
0.0
  0
LINE
  5
22711
330
226DE
100
AcDbEntity
  8
0
  6
CONTINUOUS
100
AcDbLine
 10
15.64740957317184
 20
3.269253188579531
 30
0.0
 11
14.67288388101266
 21
4.243778880738705
 31
0.0
  0
LINE
  5
22712
330
226DE
100
AcDbEntity
  8
0
  6
CONTINUOUS
100
AcDbLine
 10
13.39509276772158
 20
5.521569994029786
 30
0.0
 11
10.81938524622531
 21
8.097277515526056
 31
0.0
  0
LINE
  5
22713
330
226DE
100
AcDbEntity
  8
0
  6
CONTINUOUS
100
AcDbLine
 10
18.95798597883369
 20
0.6321959919978686
 30
0.0
 11
17.84825644852853
 21
1.741925522303024
 31
0.0
  0
LINE
  5
22714
330
226DE
100
AcDbEntity
  8
0
  6
CONTINUOUS
100
AcDbLine
 10
19.15756672960882
 20
1.106134450302922
 30
0.0
 11
17.44267562040888
 21
2.821025559502861
 31
0.0
  0
LINE
  5
22715
330
226DE
100
AcDbEntity
  8
0
  6
CONTINUOUS
100
AcDbLine
 10
15.83146234993604
 20
3.758719620895513
 30
0.0
 11
14.85691305207612
 21
4.733268918755439
 31
0.0
  0
LINE
  5
22716
330
226DE
100
AcDbEntity
  8
0
  6
CONTINUOUS
100
AcDbLine
 10
16.01551512670025
 20
4.248186053211494
 30
0.0
 11
15.04094222313957
 21
5.222758956772172
 31
0.0
  0
LINE
  5
22717
330
226DE
100
AcDbEntity
  8
0
  6
CONTINUOUS
100
AcDbLine
 10
12.90511304310612
 20
6.685068927725435
 30
0.0
 11
10.8270819708403
 21
8.763099999991255
 31
0.0
  0
LINE
  5
22718
330
226DE
100
AcDbEntity
  8
0
  6
CONTINUOUS
100
AcDbLine
 10
12.41513331849066
 20
7.848567861421083
 30
0.0
 11
11.50060117992049
 21
8.763099999991255
 31
0.0
  0
LINE
  5
22719
330
226DE
100
AcDbEntity
  8
0
  6
CONTINUOUS
100
AcDbLine
 10
19.35714748038395
 20
1.580072908607975
 30
0.0
 11
17.03709479228923
 21
3.900125596702697
 31
0.0
  0
LINE
  5
2271A
330
226DE
100
AcDbEntity
  8
0
  6
CONTINUOUS
100
AcDbLine
 10
19.55672823115909
 20
2.054011366913028
 30
0.0
 11
16.63151396416958
 21
4.979225633902534
 31
0.0
  0
LINE
  5
2271B
330
226DE
100
AcDbEntity
  8
0
  6
CONTINUOUS
100
AcDbLine
 10
16.19956790346445
 20
4.737652485527476
 30
0.0
 11
15.22497139420302
 21
5.712248994788904
 31
0.0
  0
LINE
  5
2271C
330
226DE
100
AcDbEntity
  8
0
  6
CONTINUOUS
100
AcDbLine
 10
16.38362068022866
 20
5.227118917843457
 30
0.0
 11
15.40900056526648
 21
6.201739032805637
 31
0.0
  0
LINE
  5
2271D
330
226DE
100
AcDbEntity
  8
0
  6
CONTINUOUS
100
AcDbLine
 10
19.75630898193422
 20
2.527949825218081
 30
0.0
 11
18.70774536448286
 21
3.576513442669441
 31
0.0
  0
LINE
  5
2271E
330
226DE
100
AcDbEntity
  8
0
  6
CONTINUOUS
100
AcDbLine
 10
19.95588973270936
 20
3.001888283523134
 30
0.0
 11
18.90726987211446
 21
4.050508144118028
 31
0.0
  0
LINE
  5
2271F
330
226DE
100
AcDbEntity
  8
0
  6
CONTINUOUS
100
AcDbLine
 10
20.15547048348449
 20
3.475826741828186
 30
0.0
 11
19.10679437974606
 21
4.524502845566614
 31
0.0
  0
LINE
  5
22720
330
226DE
100
AcDbEntity
  8
0
  6
CONTINUOUS
100
AcDbLine
 10
20.35505123425962
 20
3.94976520013324
 30
0.0
 11
19.30631888737766
 21
4.998497547015201
 31
0.0
  0
LINE
  5
22721
330
226DE
100
AcDbEntity
  8
0
  6
CONTINUOUS
100
AcDbLine
 10
20.55463198503475
 20
4.423703658438292
 30
0.0
 11
19.50584339500926
 21
5.472492248463787
 31
0.0
  0
LINE
  5
22722
330
226DE
100
AcDbEntity
  8
0
  6
CONTINUOUS
100
AcDbLine
 10
18.37481191085755
 20
3.909446896294752
 30
0.0
 11
15.59302973632993
 21
6.691229070822371
 31
0.0
  0
LINE
  5
22723
330
226DE
100
AcDbEntity
  8
0
  6
CONTINUOUS
100
AcDbLine
 10
17.96904084440766
 20
4.988737171824825
 30
0.0
 11
15.77705890739338
 21
7.180719108839104
 31
0.0
  0
LINE
  5
22724
330
226DE
100
AcDbEntity
  8
0
  6
CONTINUOUS
100
AcDbLine
 10
17.56326977795777
 20
6.068027447354899
 30
0.0
 11
15.96108807845684
 21
7.670209146855838
 31
0.0
  0
LINE
  5
22725
330
226DE
100
AcDbEntity
  8
0
  6
CONTINUOUS
100
AcDbLine
 10
17.15749871150789
 20
7.147317722884972
 30
0.0
 11
16.14511724952029
 21
8.15969918487257
 31
0.0
  0
LINE
  5
22726
330
226DE
100
AcDbEntity
  8
0
  6
CONTINUOUS
100
AcDbLine
 10
16.751727645058
 20
8.226607998415046
 30
0.0
 11
16.32914642058374
 21
8.649189222889303
 31
0.0
  0
LINE
  5
22727
330
226DE
100
AcDbEntity
  8
0
  6
CONTINUOUS
100
AcDbLine
 10
20.75421273580989
 20
4.897642116743345
 30
0.0
 11
19.70536790264086
 21
5.946486949912374
 31
0.0
  0
LINE
  5
22728
330
226DE
100
AcDbEntity
  8
0
  6
CONTINUOUS
100
AcDbLine
 10
20.95379348658502
 20
5.371580575048398
 30
0.0
 11
19.90489241027246
 21
6.42048165136096
 31
0.0
  0
LINE
  5
22729
330
226DE
100
AcDbEntity
  8
0
  6
CONTINUOUS
100
AcDbLine
 10
21.15337423736015
 20
5.845519033353452
 30
0.0
 11
20.10441691790406
 21
6.894476352809547
 31
0.0
  0
LINE
  5
2272A
330
226DE
100
AcDbEntity
  8
0
  6
CONTINUOUS
100
AcDbLine
 10
21.35295498813529
 20
6.319457491658505
 30
0.0
 11
20.30394142553566
 21
7.368471054258134
 31
0.0
  0
LINE
  5
2272B
330
226DE
100
AcDbEntity
  8
0
  6
CONTINUOUS
100
AcDbLine
 10
21.55253573891042
 20
6.793395949963558
 30
0.0
 11
20.50346593316726
 21
7.842465755706721
 31
0.0
  0
LINE
  5
2272C
330
226DE
100
AcDbEntity
  8
0
  6
CONTINUOUS
100
AcDbLine
 10
21.75211648968556
 20
7.267334408268612
 30
0.0
 11
20.70299044079886
 21
8.316460457155308
 31
0.0
  0
LINE
  5
2272D
330
226DE
100
AcDbEntity
  8
0
  6
CONTINUOUS
100
AcDbLine
 10
21.95169724046069
 20
7.741272866573663
 30
0.0
 11
20.9298701070431
 21
8.763099999991256
 31
0.0
  0
LINE
  5
2272E
330
226DE
100
AcDbEntity
  8
0
  6
CONTINUOUS
100
AcDbLine
 10
22.15127799123582
 20
8.215211324878716
 30
0.0
 11
21.60338931612328
 21
8.763099999991256
 31
0.0
  0
LINE
  5
2272F
330
226DE
100
AcDbEntity
  8
0
  6
CONTINUOUS
100
AcDbLine
 10
22.35085874201096
 20
8.689149783183769
 30
0.0
 11
22.27690852520347
 21
8.763099999991255
 31
0.0
  0
ENDBLK
  5
22821
330
226DE
100
AcDbEntity
  8
0
100
AcDbBlockEnd
  0
BLOCK
  5
22822
330
22730
100
AcDbEntity
  8
0
100
AcDbBlockBegin
  2
*X78
 70
     1
 10
0.0
 20
0.0
 30
0.0
  3
*X78
  1

  0
LINE
  5
22731
330
22730
100
AcDbEntity
  8
0
  6
CONTINUOUS
100
AcDbLine
 10
23.19462913593892
 20
8.169917934846424
 30
0.0
 11
23.70775465517246
 21
8.683043454079957
 31
0.0
  0
LINE
  5
22732
330
22730
100
AcDbEntity
  8
0
  6
CONTINUOUS
100
AcDbLine
 10
22.64923161835078
 20
6.951001208178088
 30
0.0
 11
23.9159364069932
 21
8.217705996820516
 31
0.0
  0
LINE
  5
22733
330
22730
100
AcDbEntity
  8
0
  6
CONTINUOUS
100
AcDbLine
 10
22.10383410076263
 20
5.732084481509751
 30
0.0
 11
24.12411815881395
 21
7.752368539561078
 31
0.0
  0
LINE
  5
22734
330
22730
100
AcDbEntity
  8
0
  6
CONTINUOUS
100
AcDbLine
 10
21.55843658317447
 20
4.513167754841414
 30
0.0
 11
24.3322999106347
 21
7.287031082301639
 31
0.0
  0
LINE
  5
22735
330
22730
100
AcDbEntity
  8
0
  6
CONTINUOUS
100
AcDbLine
 10
21.01303906558632
 20
3.294251028173077
 30
0.0
 11
24.54048166245544
 21
6.821693625042199
 31
0.0
  0
LINE
  5
22736
330
22730
100
AcDbEntity
  8
0
  6
CONTINUOUS
100
AcDbLine
 10
20.46764154799817
 20
2.075334301504738
 30
0.0
 11
23.28571549467848
 21
4.89340824818505
 31
0.0
  0
LINE
  5
22737
330
22730
100
AcDbEntity
  8
0
  6
CONTINUOUS
100
AcDbLine
 10
19.92224403041002
 20
0.8564175748364002
 30
0.0
 11
22.74075865492779
 21
3.674932199354171
 31
0.0
  0
LINE
  5
22738
330
22730
100
AcDbEntity
  8
0
  6
CONTINUOUS
100
AcDbLine
 10
23.67305085490148
 20
5.280743608408048
 30
0.0
 11
24.74866341427619
 21
6.356356167782759
 31
0.0
  0
LINE
  5
22739
330
22730
100
AcDbEntity
  8
0
  6
CONTINUOUS
100
AcDbLine
 10
23.88118970842314
 20
4.815363252849522
 30
0.0
 11
24.95684516609694
 21
5.89101871052332
 31
0.0
  0
LINE
  5
2273A
330
22730
100
AcDbEntity
  8
0
  6
CONTINUOUS
100
AcDbLine
 10
19.73925852647308
 20
-0.0000871381807288
 30
0.0
 11
23.4103456646501
 21
3.670999999996297
 31
0.0
  0
LINE
  5
2273B
330
22730
100
AcDbEntity
  8
0
  6
CONTINUOUS
100
AcDbLine
 10
24.0893285619448
 20
4.349982897290997
 30
0.0
 11
25.16502691791769
 21
5.42568125326388
 31
0.0
  0
LINE
  5
2273C
330
22730
100
AcDbEntity
  8
0
  6
CONTINUOUS
100
AcDbLine
 10
20.41282099582748
 20
-0.0000438779065108
 30
0.0
 11
21.64944178675636
 21
1.236576913022366
 31
0.0
  0
LINE
  5
2273D
330
22730
100
AcDbEntity
  8
0
  6
CONTINUOUS
100
AcDbLine
 10
22.78126487373161
 20
2.36839999999762
 30
0.0
 11
24.08386487373029
 21
3.670999999996297
 31
0.0
  0
LINE
  5
2273E
330
22730
100
AcDbEntity
  8
0
  6
CONTINUOUS
100
AcDbLine
 10
24.29746741546646
 20
3.884602541732471
 30
0.0
 11
25.37320866973843
 21
4.960343796004441
 31
0.0
  0
LINE
  5
2273F
330
22730
100
AcDbEntity
  8
0
  6
CONTINUOUS
100
AcDbLine
 10
21.08638346518189
 20
-0.0000006176322938
 30
0.0
 11
21.10379033335899
 21
0.0174062505448083
 31
0.0
  0
LINE
  5
22740
330
22730
100
AcDbEntity
  8
0
  6
CONTINUOUS
100
AcDbLine
 10
23.4547840828118
 20
2.36839999999762
 30
0.0
 11
25.58139042155918
 21
4.495006338745002
 31
0.0
  0
LINE
  5
22741
330
22730
100
AcDbEntity
  8
0
  6
CONTINUOUS
100
AcDbLine
 10
29.30199999996933
 20
8.215615917155148
 30
0.0
 11
29.84948408280543
 21
8.763099999991255
 31
0.0
  0
LINE
  5
22742
330
22730
100
AcDbEntity
  8
0
  6
CONTINUOUS
100
AcDbLine
 10
24.12830329189199
 20
2.36839999999762
 30
0.0
 11
25.78957217337993
 21
4.029668881485562
 31
0.0
  0
LINE
  5
22743
330
22730
100
AcDbEntity
  8
0
  6
CONTINUOUS
100
AcDbLine
 10
29.30199999996933
 20
7.54209670807496
 30
0.0
 11
30.52300329188562
 21
8.763099999991255
 31
0.0
  0
LINE
  5
22744
330
22730
100
AcDbEntity
  8
0
  6
CONTINUOUS
100
AcDbLine
 10
24.80182250097217
 20
2.36839999999762
 30
0.0
 11
25.99775392520067
 21
3.564331424226122
 31
0.0
  0
LINE
  5
22745
330
22730
100
AcDbEntity
  8
0
  6
CONTINUOUS
100
AcDbLine
 10
29.30199999996933
 20
6.868577498994774
 30
0.0
 11
30.74199999996926
 21
8.308577498994712
 31
0.0
  0
LINE
  5
22746
330
22730
100
AcDbEntity
  8
0
  6
CONTINUOUS
100
AcDbLine
 10
25.13028238392013
 20
2.023340673865392
 30
0.0
 11
26.20593567702142
 21
3.098993966966683
 31
0.0
  0
LINE
  5
22747
330
22730
100
AcDbEntity
  8
0
  6
CONTINUOUS
100
AcDbLine
 10
25.33838066033617
 20
1.557919741201244
 30
0.0
 11
26.41411742884217
 21
2.633656509707244
 31
0.0
  0
LINE
  5
22748
330
22730
100
AcDbEntity
  8
0
  6
CONTINUOUS
100
AcDbLine
 10
25.54647893675221
 20
1.092498808537098
 30
0.0
 11
26.62229918066291
 21
2.168319052447804
 31
0.0
  0
LINE
  5
22749
330
22730
100
AcDbEntity
  8
0
  6
CONTINUOUS
100
AcDbLine
 10
25.75457721316825
 20
0.62707787587295
 30
0.0
 11
26.83048093248366
 21
1.702981595188365
 31
0.0
  0
LINE
  5
2274A
330
22730
100
AcDbEntity
  8
0
  6
CONTINUOUS
100
AcDbLine
 10
29.30199999996933
 20
6.195058289914587
 30
0.0
 11
30.74199999996926
 21
7.635058289914522
 31
0.0
  0
LINE
  5
2274B
330
22730
100
AcDbEntity
  8
0
  6
CONTINUOUS
100
AcDbLine
 10
29.30199999996933
 20
5.521539080834401
 30
0.0
 11
30.74199999996926
 21
6.961539080834331
 31
0.0
  0
LINE
  5
2274C
330
22730
100
AcDbEntity
  8
0
  6
CONTINUOUS
100
AcDbLine
 10
29.30199999996933
 20
4.848019871754214
 30
0.0
 11
30.74199999996925
 21
6.288019871754143
 31
0.0
  0
LINE
  5
2274D
330
22730
100
AcDbEntity
  8
0
  6
CONTINUOUS
100
AcDbLine
 10
29.30199999996933
 20
4.174500662674028
 30
0.0
 11
30.74199999996925
 21
5.614500662673953
 31
0.0
  0
LINE
  5
2274E
330
22730
100
AcDbEntity
  8
0
  6
CONTINUOUS
100
AcDbLine
 10
25.96267548958429
 20
0.1616569432088024
 30
0.0
 11
27.18411854636669
 21
1.383099999991207
 31
0.0
  0
LINE
  5
2274F
330
22730
100
AcDbEntity
  8
0
  6
CONTINUOUS
100
AcDbLine
 10
29.30199999996933
 20
3.500981453593841
 30
0.0
 11
30.74199999996925
 21
4.940981453593762
 31
0.0
  0
LINE
  5
22750
330
22730
100
AcDbEntity
  8
0
  6
CONTINUOUS
100
AcDbLine
 10
26.50763775544691
 20
0.0330999999912356
 30
0.0
 11
27.85763775544689
 21
1.383099999991223
 31
0.0
  0
LINE
  5
22751
330
22730
100
AcDbEntity
  8
0
  6
CONTINUOUS
100
AcDbLine
 10
29.30199999996933
 20
2.827462244513656
 30
0.0
 11
30.74199999996925
 21
4.267462244513574
 31
0.0
  0
LINE
  5
22752
330
22730
100
AcDbEntity
  8
0
  6
CONTINUOUS
100
AcDbLine
 10
27.18115696452709
 20
0.0330999999912356
 30
0.0
 11
28.55073879889363
 21
1.402681834357775
 31
0.0
  0
LINE
  5
22753
330
22730
100
AcDbEntity
  8
0
  6
CONTINUOUS
100
AcDbLine
 10
29.28241816560272
 20
2.134361201066866
 30
0.0
 11
30.74199999996924
 21
3.593943035433383
 31
0.0
  0
LINE
  5
22754
330
22730
100
AcDbEntity
  8
0
  6
CONTINUOUS
100
AcDbLine
 10
27.85467617360728
 20
0.0330999999912356
 30
0.0
 11
30.74199999996924
 21
2.920423826353195
 31
0.0
  0
LINE
  5
22755
330
22730
100
AcDbEntity
  8
0
  6
CONTINUOUS
100
AcDbLine
 10
28.53897559587887
 20
0.0438802131826428
 30
0.0
 11
30.73121978677781
 21
2.236124404081585
 31
0.0
  0
LINE
  5
22756
330
22730
100
AcDbEntity
  8
0
  6
CONTINUOUS
100
AcDbLine
 10
29.45140055588722
 20
0.2827859641107988
 30
0.0
 11
30.49231403584965
 21
1.323699444073236
 31
0.0
  0
LINE
  5
22757
330
22730
100
AcDbEntity
  8
0
  6
CONTINUOUS
100
AcDbLine
 10
19.59027867740337
 20
-0.0000967065718083
 30
0.0
 11
19.55485265190471
 21
0.035329318926844
 31
0.0
  0
LINE
  5
22758
330
22730
100
AcDbEntity
  8
0
  6
CONTINUOUS
100
AcDbLine
 10
20.26375463176586
 20
-0.0000534518541091
 30
0.0
 11
19.76305575737534
 21
0.5006454225364014
 31
0.0
  0
LINE
  5
22759
330
22730
100
AcDbEntity
  8
0
  6
CONTINUOUS
100
AcDbLine
 10
20.93723058612834
 20
-0.0000101971364099
 30
0.0
 11
19.97125886284597
 21
0.965961526145958
 31
0.0
  0
LINE
  5
2275A
330
22730
100
AcDbEntity
  8
0
  6
CONTINUOUS
100
AcDbLine
 10
21.25514828313686
 20
0.355591314935257
 30
0.0
 11
20.1794619683166
 21
1.431277629755512
 31
0.0
  0
LINE
  5
2275B
330
22730
100
AcDbEntity
  8
0
  6
CONTINUOUS
100
AcDbLine
 10
21.46338838394921
 20
0.8208704232030986
 30
0.0
 11
20.38766507378723
 21
1.896593733365069
 31
0.0
  0
LINE
  5
2275C
330
22730
100
AcDbEntity
  8
0
  6
CONTINUOUS
100
AcDbLine
 10
21.67162848476155
 20
1.28614953147094
 30
0.0
 11
20.59586817925786
 21
2.361909836974626
 31
0.0
  0
LINE
  5
2275D
330
22730
100
AcDbEntity
  8
0
  6
CONTINUOUS
100
AcDbLine
 10
21.8798685855739
 20
1.751428639738782
 30
0.0
 11
20.80407128472849
 21
2.827225940584183
 31
0.0
  0
LINE
  5
2275E
330
22730
100
AcDbEntity
  8
0
  6
CONTINUOUS
100
AcDbLine
 10
22.08810868638624
 20
2.216707748006623
 30
0.0
 11
21.01227439019912
 21
3.292542044193739
 31
0.0
  0
LINE
  5
2275F
330
22730
100
AcDbEntity
  8
0
  6
CONTINUOUS
100
AcDbLine
 10
22.60993564347543
 20
2.36839999999762
 30
0.0
 11
21.22047749566975
 21
3.757858147803296
 31
0.0
  0
LINE
  5
22760
330
22730
100
AcDbEntity
  8
0
  6
CONTINUOUS
100
AcDbLine
 10
23.28345485255561
 20
2.36839999999762
 30
0.0
 11
21.42868060114038
 21
4.223174251412853
 31
0.0
  0
LINE
  5
22761
330
22730
100
AcDbEntity
  8
0
  6
CONTINUOUS
100
AcDbLine
 10
26.29227406164219
 20
0.0330999999912356
 30
0.0
 11
25.80009199592872
 21
0.5252820657046957
 31
0.0
  0
LINE
  5
22762
330
22730
100
AcDbEntity
  8
0
  6
CONTINUOUS
100
AcDbLine
 10
23.9569740616358
 20
2.36839999999762
 30
0.0
 11
21.63688370661101
 21
4.688490355022409
 31
0.0
  0
LINE
  5
22763
330
22730
100
AcDbEntity
  8
0
  6
CONTINUOUS
100
AcDbLine
 10
26.96579327072237
 20
0.0330999999912356
 30
0.0
 11
25.2554132311971
 21
1.743480039516508
 31
0.0
  0
LINE
  5
22764
330
22730
100
AcDbEntity
  8
0
  6
CONTINUOUS
100
AcDbLine
 10
24.63049327071599
 20
2.36839999999762
 30
0.0
 11
23.32789327071731
 21
3.670999999996297
 31
0.0
  0
LINE
  5
22765
330
22730
100
AcDbEntity
  8
0
  6
CONTINUOUS
100
AcDbLine
 10
22.92098674744635
 20
4.077906523267254
 30
0.0
 11
21.84508681208164
 21
5.153806458631966
 31
0.0
  0
LINE
  5
22766
330
22730
100
AcDbEntity
  8
0
  6
CONTINUOUS
100
AcDbLine
 10
27.63931247980256
 20
0.0330999999912356
 30
0.0
 11
24.0014124797975
 21
3.670999999996297
 31
0.0
  0
LINE
  5
22767
330
22730
100
AcDbEntity
  8
0
  6
CONTINUOUS
100
AcDbLine
 10
23.129125600968
 20
4.5432868788258
 30
0.0
 11
22.05328991755227
 21
5.619122562241522
 31
0.0
  0
LINE
  5
22768
330
22730
100
AcDbEntity
  8
0
  6
CONTINUOUS
100
AcDbLine
 10
28.31283168888275
 20
0.0330999999912356
 30
0.0
 11
24.16488385994816
 21
4.181047828925828
 31
0.0
  0
LINE
  5
22769
330
22730
100
AcDbEntity
  8
0
  6
CONTINUOUS
100
AcDbLine
 10
23.33726445448964
 20
5.008667234384345
 30
0.0
 11
22.2614930230229
 21
6.084438665851079
 31
0.0
  0
LINE
  5
2276A
330
22730
100
AcDbEntity
  8
0
  6
CONTINUOUS
100
AcDbLine
 10
28.92085740005492
 20
0.0985934978992438
 30
0.0
 11
27.63635089796295
 21
1.383099999991217
 31
0.0
  0
LINE
  5
2276B
330
22730
100
AcDbEntity
  8
0
  6
CONTINUOUS
100
AcDbLine
 10
26.43704649509776
 20
2.582404402856405
 30
0.0
 11
23.61992702019732
 21
5.399523877756844
 31
0.0
  0
LINE
  5
2276C
330
22730
100
AcDbEntity
  8
0
  6
CONTINUOUS
100
AcDbLine
 10
23.54540330801128
 20
5.47404758994289
 30
0.0
 11
22.46969612849353
 21
6.549754769460635
 31
0.0
  0
LINE
  5
2276D
330
22730
100
AcDbEntity
  8
0
  6
CONTINUOUS
100
AcDbLine
 10
29.42225615078443
 20
0.2707139562499279
 30
0.0
 11
28.30987010704312
 21
1.383099999991234
 31
0.0
  0
LINE
  5
2276E
330
22730
100
AcDbEntity
  8
0
  6
CONTINUOUS
100
AcDbLine
 10
25.89179548232307
 20
3.801174624711282
 30
0.0
 11
22.67789923396416
 21
7.015070873070191
 31
0.0
  0
LINE
  5
2276F
330
22730
100
AcDbEntity
  8
0
  6
CONTINUOUS
100
AcDbLine
 10
29.83624534690007
 20
0.5302439692144705
 30
0.0
 11
28.85811781497101
 21
1.508371501143527
 31
0.0
  0
LINE
  5
22770
330
22730
100
AcDbEntity
  8
0
  6
CONTINUOUS
100
AcDbLine
 10
25.34654446954838
 20
5.01994484656616
 30
0.0
 11
22.88610233943479
 21
7.480386976679748
 31
0.0
  0
LINE
  5
22771
330
22730
100
AcDbEntity
  8
0
  6
CONTINUOUS
100
AcDbLine
 10
30.17865975401872
 20
0.8613487711760022
 30
0.0
 11
29.18888744090175
 21
1.851121084292977
 31
0.0
  0
LINE
  5
22772
330
22730
100
AcDbEntity
  8
0
  6
CONTINUOUS
100
AcDbLine
 10
24.80129345677369
 20
6.238715068421037
 30
0.0
 11
23.09430544490542
 21
7.945703080289305
 31
0.0
  0
LINE
  5
22773
330
22730
100
AcDbEntity
  8
0
  6
CONTINUOUS
100
AcDbLine
 10
30.45496647202376
 20
1.258561262251155
 30
0.0
 11
29.30199999996933
 21
2.411527734305588
 31
0.0
  0
LINE
  5
22774
330
22730
100
AcDbEntity
  8
0
  6
CONTINUOUS
100
AcDbLine
 10
24.256042443999
 20
7.457485290275915
 30
0.0
 11
23.30250855037605
 21
8.411019183898862
 31
0.0
  0
LINE
  5
22775
330
22730
100
AcDbEntity
  8
0
  6
CONTINUOUS
100
AcDbLine
 10
30.64868582078271
 20
1.738361122572387
 30
0.0
 11
29.30199999996933
 21
3.085046943385775
 31
0.0
  0
LINE
  5
22776
330
22730
100
AcDbEntity
  8
0
  6
CONTINUOUS
100
AcDbLine
 10
23.71079143122431
 20
8.676255512130794
 30
0.0
 11
23.51071165584668
 21
8.876335287508416
 31
0.0
  0
LINE
  5
22777
330
22730
100
AcDbEntity
  8
0
  6
CONTINUOUS
100
AcDbLine
 10
30.73802122914428
 20
2.322544923291007
 30
0.0
 11
29.30199999996933
 21
3.758566152465961
 31
0.0
  0
LINE
  5
22778
330
22730
100
AcDbEntity
  8
0
  6
CONTINUOUS
100
AcDbLine
 10
30.74199999996924
 20
2.992085361546236
 30
0.0
 11
29.30199999996933
 21
4.432085361546148
 31
0.0
  0
LINE
  5
22779
330
22730
100
AcDbEntity
  8
0
  6
CONTINUOUS
100
AcDbLine
 10
30.74199999996924
 20
3.665604570626419
 30
0.0
 11
29.30199999996933
 21
5.105604570626333
 31
0.0
  0
LINE
  5
2277A
330
22730
100
AcDbEntity
  8
0
  6
CONTINUOUS
100
AcDbLine
 10
30.74199999996925
 20
4.339123779706602
 30
0.0
 11
29.30199999996933
 21
5.77912377970652
 31
0.0
  0
LINE
  5
2277B
330
22730
100
AcDbEntity
  8
0
  6
CONTINUOUS
100
AcDbLine
 10
30.74199999996925
 20
5.012642988786785
 30
0.0
 11
29.30199999996933
 21
6.452642988786707
 31
0.0
  0
LINE
  5
2277C
330
22730
100
AcDbEntity
  8
0
  6
CONTINUOUS
100
AcDbLine
 10
30.74199999996925
 20
5.68616219786697
 30
0.0
 11
29.30199999996933
 21
7.126162197866894
 31
0.0
  0
LINE
  5
2277D
330
22730
100
AcDbEntity
  8
0
  6
CONTINUOUS
100
AcDbLine
 10
30.74199999996925
 20
6.359681406947153
 30
0.0
 11
29.30199999996933
 21
7.799681406947081
 31
0.0
  0
LINE
  5
2277E
330
22730
100
AcDbEntity
  8
0
  6
CONTINUOUS
100
AcDbLine
 10
30.74199999996926
 20
7.033200616027337
 30
0.0
 11
29.30199999996933
 21
8.473200616027269
 31
0.0
  0
LINE
  5
2277F
330
22730
100
AcDbEntity
  8
0
  6
CONTINUOUS
100
AcDbLine
 10
30.74199999996926
 20
7.706719825107518
 30
0.0
 11
29.68561982508552
 21
8.763099999991255
 31
0.0
  0
LINE
  5
22780
330
22730
100
AcDbEntity
  8
0
  6
CONTINUOUS
100
AcDbLine
 10
30.74199999996926
 20
8.380239034187703
 30
0.0
 11
30.35913903416571
 21
8.763099999991255
 31
0.0
  0
ENDBLK
  5
22823
330
22730
100
AcDbEntity
  8
0
100
AcDbBlockEnd
  0
BLOCK
  5
22824
330
22781
100
AcDbEntity
  8
0
100
AcDbBlockBegin
  2
*X79
 70
     1
 10
0.0
 20
0.0
 30
0.0
  3
*X79
  1

  0
LINE
  5
22782
330
22781
100
AcDbEntity
  8
0
  6
CONTINUOUS
100
AcDbLine
 10
31.64199999996833
 20
8.535058289913598
 30
0.0
 11
31.87004171004599
 21
8.763099999991255
 31
0.0
  0
LINE
  5
22783
330
22781
100
AcDbEntity
  8
0
  6
CONTINUOUS
100
AcDbLine
 10
31.64199999996833
 20
7.861539080833412
 30
0.0
 11
32.54356091912618
 21
8.763099999991255
 31
0.0
  0
LINE
  5
22784
330
22781
100
AcDbEntity
  8
0
  6
CONTINUOUS
100
AcDbLine
 10
31.64199999996833
 20
7.188019871753226
 30
0.0
 11
33.08199999996839
 21
8.628019871753281
 31
0.0
  0
LINE
  5
22785
330
22781
100
AcDbEntity
  8
0
  6
CONTINUOUS
100
AcDbLine
 10
31.64199999996833
 20
6.51450066267304
 30
0.0
 11
33.08199999996839
 21
7.954500662673095
 31
0.0
  0
LINE
  5
22786
330
22781
100
AcDbEntity
  8
0
  6
CONTINUOUS
100
AcDbLine
 10
31.64199999996833
 20
5.840981453592853
 30
0.0
 11
33.08199999996839
 21
7.280981453592908
 31
0.0
  0
LINE
  5
22787
330
22781
100
AcDbEntity
  8
0
  6
CONTINUOUS
100
AcDbLine
 10
31.64199999996833
 20
5.167462244512667
 30
0.0
 11
33.08199999996839
 21
6.607462244512721
 31
0.0
  0
LINE
  5
22788
330
22781
100
AcDbEntity
  8
0
  6
CONTINUOUS
100
AcDbLine
 10
31.64199999996833
 20
4.493943035432481
 30
0.0
 11
33.08199999996839
 21
5.933943035432535
 31
0.0
  0
LINE
  5
22789
330
22781
100
AcDbEntity
  8
0
  6
CONTINUOUS
100
AcDbLine
 10
31.64199999996833
 20
3.820423826352293
 30
0.0
 11
33.08199999996839
 21
5.260423826352348
 31
0.0
  0
LINE
  5
2278A
330
22781
100
AcDbEntity
  8
0
  6
CONTINUOUS
100
AcDbLine
 10
31.64199999996833
 20
3.146904617272106
 30
0.0
 11
33.08199999996839
 21
4.586904617272161
 31
0.0
  0
LINE
  5
2278B
330
22781
100
AcDbEntity
  8
0
  6
CONTINUOUS
100
AcDbLine
 10
36.23199999996837
 20
8.410423826352325
 30
0.0
 11
36.5846761736073
 21
8.763099999991255
 31
0.0
  0
LINE
  5
2278C
330
22781
100
AcDbEntity
  8
0
  6
CONTINUOUS
100
AcDbLine
 10
36.23199999996837
 20
7.73690461727214
 30
0.0
 11
37.25819538268748
 21
8.763099999991255
 31
0.0
  0
LINE
  5
2278D
330
22781
100
AcDbEntity
  8
0
  6
CONTINUOUS
100
AcDbLine
 10
31.64257403601376
 20
2.473959444237348
 30
0.0
 11
33.08199999996839
 21
3.913385408191974
 31
0.0
  0
LINE
  5
2278E
330
22781
100
AcDbEntity
  8
0
  6
CONTINUOUS
100
AcDbLine
 10
36.23199999996837
 20
7.063385408191953
 30
0.0
 11
37.67199999996831
 21
8.503385408191894
 31
0.0
  0
LINE
  5
2278F
330
22781
100
AcDbEntity
  8
0
  6
CONTINUOUS
100
AcDbLine
 10
31.72013636841932
 20
1.87800256756272
 30
0.0
 11
33.08199999996839
 21
3.239866199111788
 31
0.0
  0
LINE
  5
22790
330
22781
100
AcDbEntity
  8
0
  6
CONTINUOUS
100
AcDbLine
 10
36.23199999996837
 20
6.389866199111767
 30
0.0
 11
37.67199999996831
 21
7.829866199111708
 31
0.0
  0
LINE
  5
22791
330
22781
100
AcDbEntity
  8
0
  6
CONTINUOUS
100
AcDbLine
 10
31.89042734314753
 20
1.374774333210744
 30
0.0
 11
33.08199999996839
 21
2.566346990031601
 31
0.0
  0
LINE
  5
22792
330
22781
100
AcDbEntity
  8
0
  6
CONTINUOUS
100
AcDbLine
 10
36.23199999996837
 20
5.71634699003158
 30
0.0
 11
37.67199999996831
 21
7.156346990031521
 31
0.0
  0
LINE
  5
22793
330
22781
100
AcDbEntity
  8
0
  6
CONTINUOUS
100
AcDbLine
 10
32.14210568064475
 20
0.952933461627778
 30
0.0
 11
33.18745552475986
 21
1.998283305742888
 31
0.0
  0
LINE
  5
22794
330
22781
100
AcDbEntity
  8
0
  6
CONTINUOUS
100
AcDbLine
 10
36.23199999996837
 20
5.042827780951393
 30
0.0
 11
37.67199999996831
 21
6.482827780951334
 31
0.0
  0
LINE
  5
22795
330
22781
100
AcDbEntity
  8
0
  6
CONTINUOUS
100
AcDbLine
 10
32.45820639400955
 20
0.5955149659123915
 30
0.0
 11
33.47242681921943
 21
1.60973539112227
 31
0.0
  0
LINE
  5
22796
330
22781
100
AcDbEntity
  8
0
  6
CONTINUOUS
100
AcDbLine
 10
36.23199999996837
 20
4.369308571871207
 30
0.0
 11
37.67199999996831
 21
5.809308571871147
 31
0.0
  0
LINE
  5
22797
330
22781
100
AcDbEntity
  8
0
  6
CONTINUOUS
100
AcDbLine
 10
32.83432456621412
 20
0.2981139290367771
 30
0.0
 11
33.89722476612215
 21
1.361014128944803
 31
0.0
  0
LINE
  5
22798
330
22781
100
AcDbEntity
  8
0
  6
CONTINUOUS
100
AcDbLine
 10
36.23199999996837
 20
3.69578936279102
 30
0.0
 11
37.67199999996831
 21
5.135789362790962
 31
0.0
  0
LINE
  5
22799
330
22781
100
AcDbEntity
  8
0
  6
CONTINUOUS
100
AcDbLine
 10
33.2711633111245
 20
0.0614334648669672
 30
0.0
 11
34.43247338014423
 21
1.222743533886696
 31
0.0
  0
LINE
  5
2279A
330
22781
100
AcDbEntity
  8
0
  6
CONTINUOUS
100
AcDbLine
 10
36.23199999996837
 20
3.022270153710834
 30
0.0
 11
37.67199999996831
 21
4.462270153710775
 31
0.0
  0
LINE
  5
2279B
330
22781
100
AcDbEntity
  8
0
  6
CONTINUOUS
100
AcDbLine
 10
33.76515245874577
 20
-0.1180965965919523
 30
0.0
 11
35.1587445516215
 21
1.27549549628378
 31
0.0
  0
LINE
  5
2279C
330
22781
100
AcDbEntity
  8
0
  6
CONTINUOUS
100
AcDbLine
 10
36.21639478609585
 20
2.333145730758136
 30
0.0
 11
37.67199999996831
 21
3.788750944630588
 31
0.0
  0
LINE
  5
2279D
330
22781
100
AcDbEntity
  8
0
  6
CONTINUOUS
100
AcDbLine
 10
34.34060583368432
 20
-0.2161624307335863
 30
0.0
 11
37.67199999996831
 21
3.115231735550401
 31
0.0
  0
LINE
  5
2279E
330
22781
100
AcDbEntity
  8
0
  6
CONTINUOUS
100
AcDbLine
 10
35.01698193613905
 20
-0.2133055373590427
 30
0.0
 11
37.66876712070525
 21
2.438479647207154
 31
0.0
  0
LINE
  5
2279F
330
22781
100
AcDbEntity
  8
0
  6
CONTINUOUS
100
AcDbLine
 10
35.90743367693304
 20
0.0036269943547609
 30
0.0
 11
37.51723902192366
 21
1.613432339345381
 31
0.0
  0
LINE
  5
227A0
330
22781
100
AcDbEntity
  8
0
  6
CONTINUOUS
100
AcDbLine
 10
32.55309425579761
 20
0.5074718966376706
 30
0.0
 11
32.27784730925847
 21
0.7827188431768102
 31
0.0
  0
LINE
  5
227A1
330
22781
100
AcDbEntity
  8
0
  6
CONTINUOUS
100
AcDbLine
 10
33.87496468909684
 20
-0.1408793275813673
 30
0.0
 11
31.67993083278052
 21
2.054154528734943
 31
0.0
  0
LINE
  5
227A2
330
22781
100
AcDbEntity
  8
0
  6
CONTINUOUS
100
AcDbLine
 10
34.64362813207632
 20
-0.2360235614806649
 30
0.0
 11
31.64199999996833
 21
2.765604570627322
 31
0.0
  0
LINE
  5
227A3
330
22781
100
AcDbEntity
  8
0
  6
CONTINUOUS
100
AcDbLine
 10
35.25801106796118
 20
-0.1768872882853429
 30
0.0
 11
31.64199999996833
 21
3.439123779707508
 31
0.0
  0
LINE
  5
227A4
330
22781
100
AcDbEntity
  8
0
  6
CONTINUOUS
100
AcDbLine
 10
35.79065650332146
 20
-0.0360135145654361
 30
0.0
 11
34.54143210838231
 21
1.213210880373721
 31
0.0
  0
LINE
  5
227A5
330
22781
100
AcDbEntity
  8
0
  6
CONTINUOUS
100
AcDbLine
 10
33.08199999996839
 20
2.67264298878764
 30
0.0
 11
31.64199999996833
 21
4.112642988787695
 31
0.0
  0
LINE
  5
227A6
330
22781
100
AcDbEntity
  8
0
  6
CONTINUOUS
100
AcDbLine
 10
36.25975597779143
 20
0.1684062200447833
 30
0.0
 11
35.15395110240023
 21
1.274211095435983
 31
0.0
  0
LINE
  5
227A7
330
22781
100
AcDbEntity
  8
0
  6
CONTINUOUS
100
AcDbLine
 10
33.08199999996839
 20
3.346162197867826
 30
0.0
 11
31.64199999996833
 21
4.786162197867881
 31
0.0
  0
LINE
  5
227A8
330
22781
100
AcDbEntity
  8
0
  6
CONTINUOUS
100
AcDbLine
 10
36.67226329638774
 20
0.4294181105286579
 30
0.0
 11
35.63766478748767
 21
1.464016619428737
 31
0.0
  0
LINE
  5
227A9
330
22781
100
AcDbEntity
  8
0
  6
CONTINUOUS
100
AcDbLine
 10
33.08199999996839
 20
4.019681406948012
 30
0.0
 11
31.64199999996833
 21
5.459681406948068
 31
0.0
  0
LINE
  5
227AA
330
22781
100
AcDbEntity
  8
0
  6
CONTINUOUS
100
AcDbLine
 10
37.01677749710036
 20
0.7584231188962329
 30
0.0
 11
35.99563422741351
 21
1.779566388583076
 31
0.0
  0
LINE
  5
227AB
330
22781
100
AcDbEntity
  8
0
  6
CONTINUOUS
100
AcDbLine
 10
33.08199999996839
 20
4.693200616028199
 30
0.0
 11
31.64199999996833
 21
6.133200616028255
 31
0.0
  0
LINE
  5
227AC
330
22781
100
AcDbEntity
  8
0
  6
CONTINUOUS
100
AcDbLine
 10
37.29859977568887
 20
1.1501200493879
 30
0.0
 11
36.20680593341555
 21
2.241913891661226
 31
0.0
  0
LINE
  5
227AD
330
22781
100
AcDbEntity
  8
0
  6
CONTINUOUS
100
AcDbLine
 10
33.08199999996839
 20
5.366719825108386
 30
0.0
 11
31.64199999996833
 21
6.80671982510844
 31
0.0
  0
LINE
  5
227AE
330
22781
100
AcDbEntity
  8
0
  6
CONTINUOUS
100
AcDbLine
 10
37.5148623517228
 20
1.607376682434161
 30
0.0
 11
36.23199999996837
 21
2.890239034188594
 31
0.0
  0
LINE
  5
227AF
330
22781
100
AcDbEntity
  8
0
  6
CONTINUOUS
100
AcDbLine
 10
33.08199999996839
 20
6.040239034188573
 30
0.0
 11
31.64199999996833
 21
7.480239034188627
 31
0.0
  0
LINE
  5
227B0
330
22781
100
AcDbEntity
  8
0
  6
CONTINUOUS
100
AcDbLine
 10
37.64705163358367
 20
2.148706609653477
 30
0.0
 11
36.23199999996837
 21
3.56375824326878
 31
0.0
  0
LINE
  5
227B1
330
22781
100
AcDbEntity
  8
0
  6
CONTINUOUS
100
AcDbLine
 10
33.08199999996839
 20
6.713758243268758
 30
0.0
 11
31.64199999996833
 21
8.153758243268815
 31
0.0
  0
LINE
  5
227B2
330
22781
100
AcDbEntity
  8
0
  6
CONTINUOUS
100
AcDbLine
 10
37.67199999996831
 20
2.797277452349026
 30
0.0
 11
36.23199999996837
 21
4.237277452348967
 31
0.0
  0
LINE
  5
227B3
330
22781
100
AcDbEntity
  8
0
  6
CONTINUOUS
100
AcDbLine
 10
37.67199999996831
 20
3.470796661429213
 30
0.0
 11
36.23199999996837
 21
4.910796661429154
 31
0.0
  0
LINE
  5
227B4
330
22781
100
AcDbEntity
  8
0
  6
CONTINUOUS
100
AcDbLine
 10
37.67199999996831
 20
4.144315870509399
 30
0.0
 11
36.23199999996837
 21
5.58431587050934
 31
0.0
  0
LINE
  5
227B5
330
22781
100
AcDbEntity
  8
0
  6
CONTINUOUS
100
AcDbLine
 10
33.08199999996839
 20
7.387277452348945
 30
0.0
 11
31.70617745232608
 21
8.763099999991255
 31
0.0
  0
LINE
  5
227B6
330
22781
100
AcDbEntity
  8
0
  6
CONTINUOUS
100
AcDbLine
 10
33.08199999996839
 20
8.060796661429132
 30
0.0
 11
32.37969666140626
 21
8.763099999991255
 31
0.0
  0
LINE
  5
227B7
330
22781
100
AcDbEntity
  8
0
  6
CONTINUOUS
100
AcDbLine
 10
33.08199999996839
 20
8.734315870509318
 30
0.0
 11
33.05321587048645
 21
8.763099999991255
 31
0.0
  0
LINE
  5
227B8
330
22781
100
AcDbEntity
  8
0
  6
CONTINUOUS
100
AcDbLine
 10
37.67199999996831
 20
4.817835079589585
 30
0.0
 11
36.23199999996837
 21
6.257835079589526
 31
0.0
  0
LINE
  5
227B9
330
22781
100
AcDbEntity
  8
0
  6
CONTINUOUS
100
AcDbLine
 10
37.67199999996831
 20
5.491354288669771
 30
0.0
 11
36.23199999996837
 21
6.931354288669713
 31
0.0
  0
LINE
  5
227BA
330
22781
100
AcDbEntity
  8
0
  6
CONTINUOUS
100
AcDbLine
 10
37.67199999996831
 20
6.164873497749958
 30
0.0
 11
36.23199999996837
 21
7.6048734977499
 31
0.0
  0
LINE
  5
227BB
330
22781
100
AcDbEntity
  8
0
  6
CONTINUOUS
100
AcDbLine
 10
37.67199999996831
 20
6.838392706830144
 30
0.0
 11
36.23199999996837
 21
8.278392706830086
 31
0.0
  0
LINE
  5
227BC
330
22781
100
AcDbEntity
  8
0
  6
CONTINUOUS
100
AcDbLine
 10
37.67199999996831
 20
7.511911915910332
 30
0.0
 11
36.42081191588738
 21
8.763099999991255
 31
0.0
  0
LINE
  5
227BD
330
22781
100
AcDbEntity
  8
0
  6
CONTINUOUS
100
AcDbLine
 10
37.67199999996831
 20
8.185431124990519
 30
0.0
 11
37.09433112496757
 21
8.763099999991255
 31
0.0
  0
ENDBLK
  5
22825
330
22781
100
AcDbEntity
  8
0
100
AcDbBlockEnd
  0
BLOCK
  5
22826
330
227BE
100
AcDbEntity
  8
0
100
AcDbBlockBegin
  2
*X80
 70
     1
 10
0.0
 20
0.0
 30
0.0
  3
*X80
  1

  0
LINE
  5
227BF
330
227BE
100
AcDbEntity
  8
0
  6
CONTINUOUS
100
AcDbLine
 10
38.60499999996136
 20
8.762866199104765
 30
0.0
 11
38.71672554182345
 21
8.874591740966855
 31
0.0
  0
LINE
  5
227C0
330
227BE
100
AcDbEntity
  8
0
  6
CONTINUOUS
100
AcDbLine
 10
38.60499999996136
 20
8.089346990024577
 30
0.0
 11
39.03418785440363
 21
8.518534844466847
 31
0.0
  0
LINE
  5
227C1
330
227BE
100
AcDbEntity
  8
0
  6
CONTINUOUS
100
AcDbLine
 10
38.60499999996136
 20
7.41582778094439
 30
0.0
 11
39.35165016698382
 21
8.16247794796684
 31
0.0
  0
LINE
  5
227C2
330
227BE
100
AcDbEntity
  8
0
  6
CONTINUOUS
100
AcDbLine
 10
38.60499999996136
 20
6.742308571864204
 30
0.0
 11
39.66911247956399
 21
7.806421051466834
 31
0.0
  0
LINE
  5
227C3
330
227BE
100
AcDbEntity
  8
0
  6
CONTINUOUS
100
AcDbLine
 10
38.60499999996136
 20
6.068789362784018
 30
0.0
 11
39.98657479214418
 21
7.450364154966827
 31
0.0
  0
LINE
  5
227C4
330
227BE
100
AcDbEntity
  8
0
  6
CONTINUOUS
100
AcDbLine
 10
38.60499999996136
 20
5.395270153703832
 30
0.0
 11
40.30403710472435
 21
7.09430725846682
 31
0.0
  0
LINE
  5
227C5
330
227BE
100
AcDbEntity
  8
0
  6
CONTINUOUS
100
AcDbLine
 10
38.60499999996136
 20
4.721750944623645
 30
0.0
 11
40.62149941730453
 21
6.738250361966813
 31
0.0
  0
LINE
  5
227C6
330
227BE
100
AcDbEntity
  8
0
  6
CONTINUOUS
100
AcDbLine
 10
38.60499999996136
 20
4.048231735543458
 30
0.0
 11
40.93896172988471
 21
6.382193465466806
 31
0.0
  0
LINE
  5
227C7
330
227BE
100
AcDbEntity
  8
0
  6
CONTINUOUS
100
AcDbLine
 10
38.60499999996136
 20
3.374712526463272
 30
0.0
 11
40.02599999995994
 21
4.795712526461843
 31
0.0
  0
LINE
  5
227C8
330
227BE
100
AcDbEntity
  8
0
  6
CONTINUOUS
100
AcDbLine
 10
38.60499999996136
 20
2.701193317383085
 30
0.0
 11
40.02599999995994
 21
4.122193317381657
 31
0.0
  0
LINE
  5
227C9
330
227BE
100
AcDbEntity
  8
0
  6
CONTINUOUS
100
AcDbLine
 10
40.28339754687704
 20
5.053110073378947
 30
0.0
 11
41.25642404246489
 21
6.026136568966799
 31
0.0
  0
LINE
  5
227CA
330
227BE
100
AcDbEntity
  8
0
  6
CONTINUOUS
100
AcDbLine
 10
40.60085985945722
 20
4.697053176878939
 30
0.0
 11
41.57388635504507
 21
5.670079672466793
 31
0.0
  0
LINE
  5
227CB
330
227BE
100
AcDbEntity
  8
0
  6
CONTINUOUS
100
AcDbLine
 10
43.57899999995641
 20
8.348712526458318
 30
0.0
 11
43.99338747348935
 21
8.763099999991255
 31
0.0
  0
LINE
  5
227CC
330
227BE
100
AcDbEntity
  8
0
  6
CONTINUOUS
100
AcDbLine
 10
43.57899999995641
 20
7.675193317378131
 30
0.0
 11
44.66690668256953
 21
8.763099999991255
 31
0.0
  0
LINE
  5
227CD
330
227BE
100
AcDbEntity
  8
0
  6
CONTINUOUS
100
AcDbLine
 10
38.60499999996136
 20
2.027674108302898
 30
0.0
 11
40.02599999995994
 21
3.44867410830147
 31
0.0
  0
LINE
  5
227CE
330
227BE
100
AcDbEntity
  8
0
  6
CONTINUOUS
100
AcDbLine
 10
38.60499999996136
 20
1.354154899222712
 30
0.0
 11
40.02599999995994
 21
2.775154899221284
 31
0.0
  0
LINE
  5
227CF
330
227BE
100
AcDbEntity
  8
0
  6
CONTINUOUS
100
AcDbLine
 10
38.60499999996136
 20
0.6806356901425255
 30
0.0
 11
40.02599999995994
 21
2.101635690141098
 31
0.0
  0
LINE
  5
227D0
330
227BE
100
AcDbEntity
  8
0
  6
CONTINUOUS
100
AcDbLine
 10
38.60499999996136
 20
0.0071164810623383
 30
0.0
 11
40.02599999995994
 21
1.428116481060911
 31
0.0
  0
LINE
  5
227D1
330
227BE
100
AcDbEntity
  8
0
  6
CONTINUOUS
100
AcDbLine
 10
40.9183221720374
 20
4.340996280378933
 30
0.0
 11
41.89134866762525
 21
5.314022775966786
 31
0.0
  0
LINE
  5
227D2
330
227BE
100
AcDbEntity
  8
0
  6
CONTINUOUS
100
AcDbLine
 10
41.23578448461758
 20
3.984939383878926
 30
0.0
 11
42.20881098020543
 21
4.957965879466778
 31
0.0
  0
LINE
  5
227D3
330
227BE
100
AcDbEntity
  8
0
  6
CONTINUOUS
100
AcDbLine
 10
41.55324679719776
 20
3.628882487378919
 30
0.0
 11
42.52627329278561
 21
4.601908982966772
 31
0.0
  0
LINE
  5
227D4
330
227BE
100
AcDbEntity
  8
0
  6
CONTINUOUS
100
AcDbLine
 10
41.87070910977793
 20
3.272825590878912
 30
0.0
 11
42.84373560536579
 21
4.245852086466765
 31
0.0
  0
LINE
  5
227D5
330
227BE
100
AcDbEntity
  8
0
  6
CONTINUOUS
100
AcDbLine
 10
43.57899999995641
 20
7.001674108297943
 30
0.0
 11
44.99999999995498
 21
8.422674108296516
 31
0.0
  0
LINE
  5
227D6
330
227BE
100
AcDbEntity
  8
0
  6
CONTINUOUS
100
AcDbLine
 10
43.57899999995641
 20
6.328154899217758
 30
0.0
 11
44.99999999995498
 21
7.749154899216329
 31
0.0
  0
LINE
  5
227D7
330
227BE
100
AcDbEntity
  8
0
  6
CONTINUOUS
100
AcDbLine
 10
43.57899999995641
 20
5.654635690137571
 30
0.0
 11
44.99999999995498
 21
7.075635690136142
 31
0.0
  0
LINE
  5
227D8
330
227BE
100
AcDbEntity
  8
0
  6
CONTINUOUS
100
AcDbLine
 10
43.57899999995641
 20
4.981116481057384
 30
0.0
 11
44.99999999995498
 21
6.402116481055955
 31
0.0
  0
LINE
  5
227D9
330
227BE
100
AcDbEntity
  8
0
  6
CONTINUOUS
100
AcDbLine
 10
39.27140272797921
 20
-0.0000000000000009
 30
0.0
 11
40.02599999995994
 21
0.7545972719807246
 31
0.0
  0
LINE
  5
227DA
330
227BE
100
AcDbEntity
  8
0
  6
CONTINUOUS
100
AcDbLine
 10
39.9449219370594
 20
-0.0000000000000009
 30
0.0
 11
40.02599999995994
 21
0.0810780629005379
 31
0.0
  0
LINE
  5
227DB
330
227BE
100
AcDbEntity
  8
0
  6
CONTINUOUS
100
AcDbLine
 10
42.18817142235812
 20
2.916768694378905
 30
0.0
 11
43.16119791794597
 21
3.889795189966758
 31
0.0
  0
LINE
  5
227DC
330
227BE
100
AcDbEntity
  8
0
  6
CONTINUOUS
100
AcDbLine
 10
42.50563373493829
 20
2.560711797878898
 30
0.0
 11
43.47866023052615
 21
3.533738293466751
 31
0.0
  0
LINE
  5
227DD
330
227BE
100
AcDbEntity
  8
0
  6
CONTINUOUS
100
AcDbLine
 10
43.57899999995641
 20
4.307597271977198
 30
0.0
 11
44.99999999995498
 21
5.728597271975769
 31
0.0
  0
LINE
  5
227DE
330
227BE
100
AcDbEntity
  8
0
  6
CONTINUOUS
100
AcDbLine
 10
43.57899999995641
 20
3.634078062897011
 30
0.0
 11
44.99999999995498
 21
5.055078062895582
 31
0.0
  0
LINE
  5
227DF
330
227BE
100
AcDbEntity
  8
0
  6
CONTINUOUS
100
AcDbLine
 10
42.82309604751848
 20
2.204654901378891
 30
0.0
 11
44.99999999995498
 21
4.381558853815395
 31
0.0
  0
LINE
  5
227E0
330
227BE
100
AcDbEntity
  8
0
  6
CONTINUOUS
100
AcDbLine
 10
43.14055836009865
 20
1.848598004878885
 30
0.0
 11
44.99999999995498
 21
3.70803964473521
 31
0.0
  0
LINE
  5
227E1
330
227BE
100
AcDbEntity
  8
0
  6
CONTINUOUS
100
AcDbLine
 10
43.45802067267883
 20
1.492541108378878
 30
0.0
 11
44.99999999995498
 21
3.034520435655023
 31
0.0
  0
LINE
  5
227E2
330
227BE
100
AcDbEntity
  8
0
  6
CONTINUOUS
100
AcDbLine
 10
43.77548298525902
 20
1.136484211878871
 30
0.0
 11
44.99999999995498
 21
2.361001226574837
 31
0.0
  0
LINE
  5
227E3
330
227BE
100
AcDbEntity
  8
0
  6
CONTINUOUS
100
AcDbLine
 10
44.09294529783919
 20
0.7804273153788639
 30
0.0
 11
44.99999999995498
 21
1.687482017494649
 31
0.0
  0
LINE
  5
227E4
330
227BE
100
AcDbEntity
  8
0
  6
CONTINUOUS
100
AcDbLine
 10
44.41040761041938
 20
0.4243704188788566
 30
0.0
 11
44.99999999995498
 21
1.013962808414463
 31
0.0
  0
LINE
  5
227E5
330
227BE
100
AcDbEntity
  8
0
  6
CONTINUOUS
100
AcDbLine
 10
44.72786992299955
 20
0.0683135223788494
 30
0.0
 11
44.99999999995498
 21
0.340443599334276
 31
0.0
  0
LINE
  5
227E6
330
227BE
100
AcDbEntity
  8
0
  6
CONTINUOUS
100
AcDbLine
 10
39.12223903415696
 20
-0.0000000000000009
 30
0.0
 11
38.60499999996136
 21
0.5172390341955961
 31
0.0
  0
LINE
  5
227E7
330
227BE
100
AcDbEntity
  8
0
  6
CONTINUOUS
100
AcDbLine
 10
39.79575824323715
 20
-0.0000000000000009
 30
0.0
 11
38.60499999996136
 21
1.190758243275783
 31
0.0
  0
LINE
  5
227E8
330
227BE
100
AcDbEntity
  8
0
  6
CONTINUOUS
100
AcDbLine
 10
40.02599999995994
 20
0.443277452357397
 30
0.0
 11
38.60499999996136
 21
1.864277452355969
 31
0.0
  0
LINE
  5
227E9
330
227BE
100
AcDbEntity
  8
0
  6
CONTINUOUS
100
AcDbLine
 10
40.02599999995994
 20
1.116796661437583
 30
0.0
 11
38.60499999996136
 21
2.537796661436155
 31
0.0
  0
LINE
  5
227EA
330
227BE
100
AcDbEntity
  8
0
  6
CONTINUOUS
100
AcDbLine
 10
40.02599999995994
 20
1.79031587051777
 30
0.0
 11
38.60499999996136
 21
3.211315870516341
 31
0.0
  0
LINE
  5
227EB
330
227BE
100
AcDbEntity
  8
0
  6
CONTINUOUS
100
AcDbLine
 10
40.02599999995994
 20
2.463835079597956
 30
0.0
 11
38.60499999996136
 21
3.884835079596527
 31
0.0
  0
LINE
  5
227EC
330
227BE
100
AcDbEntity
  8
0
  6
CONTINUOUS
100
AcDbLine
 10
40.02599999995994
 20
3.137354288678143
 30
0.0
 11
38.60499999996136
 21
4.558354288676714
 31
0.0
  0
LINE
  5
227ED
330
227BE
100
AcDbEntity
  8
0
  6
CONTINUOUS
100
AcDbLine
 10
40.02599999995994
 20
3.810873497758329
 30
0.0
 11
38.60499999996136
 21
5.2318734977569
 31
0.0
  0
LINE
  5
227EE
330
227BE
100
AcDbEntity
  8
0
  6
CONTINUOUS
100
AcDbLine
 10
40.02599999995994
 20
4.484392706838515
 30
0.0
 11
38.60499999996136
 21
5.905392706837086
 31
0.0
  0
LINE
  5
227EF
330
227BE
100
AcDbEntity
  8
0
  6
CONTINUOUS
100
AcDbLine
 10
44.99999999995498
 20
0.183911915923658
 30
0.0
 11
41.53858364506288
 21
3.64532827081576
 31
0.0
  0
LINE
  5
227F0
330
227BE
100
AcDbEntity
  8
0
  6
CONTINUOUS
100
AcDbLine
 10
40.02599999995994
 20
5.157911915918703
 30
0.0
 11
38.60499999996136
 21
6.578911915917274
 31
0.0
  0
LINE
  5
227F1
330
227BE
100
AcDbEntity
  8
0
  6
CONTINUOUS
100
AcDbLine
 10
44.99999999995498
 20
0.8574311250038447
 30
0.0
 11
38.60499999996136
 21
7.25243112499746
 31
0.0
  0
LINE
  5
227F2
330
227BE
100
AcDbEntity
  8
0
  6
CONTINUOUS
100
AcDbLine
 10
44.99999999995498
 20
1.530950334084031
 30
0.0
 11
38.60499999996136
 21
7.925950334077647
 31
0.0
  0
LINE
  5
227F3
330
227BE
100
AcDbEntity
  8
0
  6
CONTINUOUS
100
AcDbLine
 10
44.99999999995498
 20
2.204469543164218
 30
0.0
 11
43.57899999995641
 21
3.625469543162789
 31
0.0
  0
LINE
  5
227F4
330
227BE
100
AcDbEntity
  8
0
  6
CONTINUOUS
100
AcDbLine
 10
41.89876730984767
 20
5.305702233271528
 30
0.0
 11
38.60499999996136
 21
8.599469543157834
 31
0.0
  0
LINE
  5
227F5
330
227BE
100
AcDbEntity
  8
0
  6
CONTINUOUS
100
AcDbLine
 10
44.99999999995498
 20
2.877988752244405
 30
0.0
 11
43.57899999995641
 21
4.298988752242975
 31
0.0
  0
LINE
  5
227F6
330
227BE
100
AcDbEntity
  8
0
  6
CONTINUOUS
100
AcDbLine
 10
44.99999999995498
 20
3.551507961324591
 30
0.0
 11
43.57899999995641
 21
4.972507961323163
 31
0.0
  0
LINE
  5
227F7
330
227BE
100
AcDbEntity
  8
0
  6
CONTINUOUS
100
AcDbLine
 10
44.99999999995498
 20
4.225027170404777
 30
0.0
 11
43.57899999995641
 21
5.646027170403348
 31
0.0
  0
LINE
  5
227F8
330
227BE
100
AcDbEntity
  8
0
  6
CONTINUOUS
100
AcDbLine
 10
44.99999999995498
 20
4.898546379484964
 30
0.0
 11
43.57899999995641
 21
6.319546379483535
 31
0.0
  0
LINE
  5
227F9
330
227BE
100
AcDbEntity
  8
0
  6
CONTINUOUS
100
AcDbLine
 10
44.99999999995498
 20
5.572065588565151
 30
0.0
 11
43.57899999995641
 21
6.993065588563722
 31
0.0
  0
LINE
  5
227FA
330
227BE
100
AcDbEntity
  8
0
  6
CONTINUOUS
100
AcDbLine
 10
44.99999999995498
 20
6.245584797645336
 30
0.0
 11
43.57899999995641
 21
7.666584797643908
 31
0.0
  0
LINE
  5
227FB
330
227BE
100
AcDbEntity
  8
0
  6
CONTINUOUS
100
AcDbLine
 10
44.99999999995498
 20
6.919104006725522
 30
0.0
 11
43.57899999995641
 21
8.340104006724093
 31
0.0
  0
LINE
  5
227FC
330
227BE
100
AcDbEntity
  8
0
  6
CONTINUOUS
100
AcDbLine
 10
44.99999999995498
 20
7.592623215805709
 30
0.0
 11
43.82952321576943
 21
8.763099999991255
 31
0.0
  0
LINE
  5
227FD
330
227BE
100
AcDbEntity
  8
0
  6
CONTINUOUS
100
AcDbLine
 10
44.99999999995498
 20
8.266142424885896
 30
0.0
 11
44.50304242484962
 21
8.763099999991255
 31
0.0
  0
ENDBLK
  5
22827
330
227BE
100
AcDbEntity
  8
0
100
AcDbBlockEnd
  0
BLOCK
  5
22828
330
227FE
100
AcDbEntity
  8
0
100
AcDbBlockBegin
  2
*X81
 70
     1
 10
0.0
 20
0.0
 30
0.0
  3
*X81
  1

  0
LINE
  5
227FF
330
227FE
100
AcDbEntity
  8
0
  6
CONTINUOUS
100
AcDbLine
 10
0.0
 20
8.548461116714023
 30
0.0
 11
0.2146388832772324
 21
8.763099999991255
 31
0.0
  0
LINE
  5
22800
330
227FE
100
AcDbEntity
  8
0
  6
CONTINUOUS
100
AcDbLine
 10
-0.0000000000000002
 20
7.874941907633837
 30
0.0
 11
0.8881580923574184
 21
8.763099999991255
 31
0.0
  0
LINE
  5
22801
330
227FE
100
AcDbEntity
  8
0
  6
CONTINUOUS
100
AcDbLine
 10
0.0
 20
7.20142269855365
 30
0.0
 11
1.420999999998572
 21
8.622422698552223
 31
0.0
  0
LINE
  5
22802
330
227FE
100
AcDbEntity
  8
0
  6
CONTINUOUS
100
AcDbLine
 10
-0.0000000000000001
 20
6.527903489473465
 30
0.0
 11
1.420999999998571
 21
7.948903489472036
 31
0.0
  0
LINE
  5
22803
330
227FE
100
AcDbEntity
  8
0
  6
CONTINUOUS
100
AcDbLine
 10
-0.0000000000000002
 20
5.854384280393278
 30
0.0
 11
1.420999999998571
 21
7.275384280391849
 31
0.0
  0
LINE
  5
22804
330
227FE
100
AcDbEntity
  8
0
  6
CONTINUOUS
100
AcDbLine
 10
-0.0000000000000002
 20
5.180865071313091
 30
0.0
 11
1.420999999998571
 21
6.601865071311663
 31
0.0
  0
LINE
  5
22805
330
227FE
100
AcDbEntity
  8
0
  6
CONTINUOUS
100
AcDbLine
 10
0.0
 20
4.507345862232905
 30
0.0
 11
1.420999999998571
 21
5.928345862231477
 31
0.0
  0
LINE
  5
22806
330
227FE
100
AcDbEntity
  8
0
  6
CONTINUOUS
100
AcDbLine
 10
-0.0000000000000003
 20
3.833826653152718
 30
0.0
 11
1.420999999998571
 21
5.25482665315129
 31
0.0
  0
LINE
  5
22807
330
227FE
100
AcDbEntity
  8
0
  6
CONTINUOUS
100
AcDbLine
 10
-0.0000000000000002
 20
3.160307444072532
 30
0.0
 11
1.420999999998571
 21
4.581307444071103
 31
0.0
  0
LINE
  5
22808
330
227FE
100
AcDbEntity
  8
0
  6
CONTINUOUS
100
AcDbLine
 10
-0.0000000000000001
 20
2.486788234992345
 30
0.0
 11
1.420999999998571
 21
3.907788234990917
 31
0.0
  0
LINE
  5
22809
330
227FE
100
AcDbEntity
  8
0
  6
CONTINUOUS
100
AcDbLine
 10
-0.0000000000000006
 20
1.813269025912159
 30
0.0
 11
1.420999999998571
 21
3.234269025910731
 31
0.0
  0
LINE
  5
2280A
330
227FE
100
AcDbEntity
  8
0
  6
CONTINUOUS
100
AcDbLine
 10
0.0
 20
1.139749816831973
 30
0.0
 11
1.420999999998571
 21
2.560749816830544
 31
0.0
  0
LINE
  5
2280B
330
227FE
100
AcDbEntity
  8
0
  6
CONTINUOUS
100
AcDbLine
 10
0.0000000000000002
 20
0.466230607751787
 30
0.0
 11
1.420999999998571
 21
1.887230607750358
 31
0.0
  0
LINE
  5
2280C
330
227FE
100
AcDbEntity
  8
0
  6
CONTINUOUS
100
AcDbLine
 10
0.2072886013284003
 20
-0.0000000000000009
 30
0.0
 11
1.420999999998571
 21
1.213711398670171
 31
0.0
  0
LINE
  5
2280D
330
227FE
100
AcDbEntity
  8
0
  6
CONTINUOUS
100
AcDbLine
 10
0.8808078104085864
 20
-0.0000000000000009
 30
0.0
 11
1.420999999998571
 21
0.5401921895899839
 31
0.0
  0
LINE
  5
2280E
330
227FE
100
AcDbEntity
  8
0
  6
CONTINUOUS
100
AcDbLine
 10
0.0581249075061505
 20
-0.0000000000000009
 30
0.0
 11
-0.0000000000000002
 21
0.0581249075061496
 31
0.0
  0
LINE
  5
2280F
330
227FE
100
AcDbEntity
  8
0
  6
CONTINUOUS
100
AcDbLine
 10
0.7316441165863372
 20
-0.0000000000000009
 30
0.0
 11
-0.0000000000000002
 21
0.7316441165863363
 31
0.0
  0
LINE
  5
22810
330
227FE
100
AcDbEntity
  8
0
  6
CONTINUOUS
100
AcDbLine
 10
1.405163325666523
 20
-0.0000000000000009
 30
0.0
 11
-0.0000000000000002
 21
1.405163325666523
 31
0.0
  0
LINE
  5
22811
330
227FE
100
AcDbEntity
  8
0
  6
CONTINUOUS
100
AcDbLine
 10
1.420999999998572
 20
0.6576825347481381
 30
0.0
 11
-0.0000000000000001
 21
2.07868253474671
 31
0.0
  0
LINE
  5
22812
330
227FE
100
AcDbEntity
  8
0
  6
CONTINUOUS
100
AcDbLine
 10
1.420999999998571
 20
1.331201743828324
 30
0.0
 11
-0.0000000000000001
 21
2.752201743826896
 31
0.0
  0
LINE
  5
22813
330
227FE
100
AcDbEntity
  8
0
  6
CONTINUOUS
100
AcDbLine
 10
1.420999999998571
 20
2.004720952908511
 30
0.0
 11
-0.0000000000000002
 21
3.425720952907082
 31
0.0
  0
LINE
  5
22814
330
227FE
100
AcDbEntity
  8
0
  6
CONTINUOUS
100
AcDbLine
 10
1.420999999998571
 20
2.678240161988697
 30
0.0
 11
-0.0000000000000001
 21
4.099240161987269
 31
0.0
  0
LINE
  5
22815
330
227FE
100
AcDbEntity
  8
0
  6
CONTINUOUS
100
AcDbLine
 10
1.420999999998572
 20
3.351759371068884
 30
0.0
 11
0.0
 21
4.772759371067455
 31
0.0
  0
LINE
  5
22816
330
227FE
100
AcDbEntity
  8
0
  6
CONTINUOUS
100
AcDbLine
 10
1.420999999998571
 20
4.02527858014907
 30
0.0
 11
-0.0000000000000003
 21
5.446278580147642
 31
0.0
  0
LINE
  5
22817
330
227FE
100
AcDbEntity
  8
0
  6
CONTINUOUS
100
AcDbLine
 10
1.420999999998571
 20
4.698797789229257
 30
0.0
 11
0.0
 21
6.119797789227828
 31
0.0
  0
LINE
  5
22818
330
227FE
100
AcDbEntity
  8
0
  6
CONTINUOUS
100
AcDbLine
 10
1.420999999998571
 20
5.372316998309444
 30
0.0
 11
-0.0000000000000001
 21
6.793316998308015
 31
0.0
  0
LINE
  5
22819
330
227FE
100
AcDbEntity
  8
0
  6
CONTINUOUS
100
AcDbLine
 10
1.420999999998572
 20
6.045836207389629
 30
0.0
 11
-0.0000000000000004
 21
7.466836207388202
 31
0.0
  0
LINE
  5
2281A
330
227FE
100
AcDbEntity
  8
0
  6
CONTINUOUS
100
AcDbLine
 10
1.420999999998571
 20
6.719355416469816
 30
0.0
 11
0.0
 21
8.140355416468388
 31
0.0
  0
LINE
  5
2281B
330
227FE
100
AcDbEntity
  8
0
  6
CONTINUOUS
100
AcDbLine
 10
1.420999999998571
 20
7.392874625550003
 30
0.0
 11
0.0507746255573185
 21
8.763099999991255
 31
0.0
  0
LINE
  5
2281C
330
227FE
100
AcDbEntity
  8
0
  6
CONTINUOUS
100
AcDbLine
 10
1.420999999998571
 20
8.06639383463019
 30
0.0
 11
0.7242938346375052
 21
8.763099999991255
 31
0.0
  0
LINE
  5
2281D
330
227FE
100
AcDbEntity
  8
0
  6
CONTINUOUS
100
AcDbLine
 10
1.420999999998571
 20
8.739913043710375
 30
0.0
 11
1.397813043717691
 21
8.763099999991255
 31
0.0
  0
ENDBLK
  5
22829
330
227FE
100
AcDbEntity
  8
0
100
AcDbBlockEnd
  0
ENDSEC
  0
SECTION
  2
ENTITIES
  0
LINE
  5
221A1
330
18
100
AcDbEntity
  8
01
100
AcDbLine
 10
683.2177593326364
 20
-579.9596895868006
 30
0.0
 11
683.2177593326364
 21
-602.109689586802
 31
0.0
  0
LINE
  5
221A2
330
18
100
AcDbEntity
  8
01
100
AcDbLine
 10
683.2177593326364
 20
-582.4596895868012
 30
0.0
 11
683.2177593326364
 21
-600.1096895868006
 31
0.0
  0
TEXT
  5
221A4
330
18
100
AcDbEntity
  8
1TEXT
100
AcDbText
 10
652.178463639644
 20
-499.6096895868011
 30
0.0
 40
4.0
  1
表面処理
 72
     1
 11
661.4451303063106
 21
-499.6096895868011
 31
0.0
100
AcDbText
  0
LINE
  5
221A5
330
18
100
AcDbEntity
  8
1DIM
100
AcDbLine
 10
644.0451303063105
 20
-494.1096895868011
 30
0.0
 11
714.0451303063105
 21
-494.1096895868011
 31
0.0
  0
LINE
  5
221A6
330
18
100
AcDbEntity
  8
1DIM
100
AcDbLine
 10
644.0451303063105
 20
-508.1096895868011
 30
0.0
 11
714.0451303063105
 21
-508.1096895868011
 31
0.0
  0
LINE
  5
221A7
330
18
100
AcDbEntity
  8
1DIM
100
AcDbLine
 10
644.0451303063105
 20
-501.1096895868011
 30
0.0
 11
714.0451303063105
 21
-501.1096895868011
 31
0.0
  0
LINE
  5
221A8
330
18
100
AcDbEntity
  8
1DIM
100
AcDbLine
 10
679.0451303063105
 20
-494.1096895868011
 30
0.0
 11
679.0451303063103
 21
-508.1096895868011
 31
0.0
  0
TEXT
  5
221A9
330
18
100
AcDbEntity
  8
1TEXT
100
AcDbText
 10
689.5784636396439
 20
-499.6096895868011
 30
0.0
 40
4.0
  1
コード
 72
     1
 11
696.4451303063106
 21
-499.6096895868011
 31
0.0
100
AcDbText
  0
LINE
  5
221AA
330
18
100
AcDbEntity
  8
1DIM
100
AcDbLine
 10
644.0451303063105
 20
-508.1096895868011
 30
0.0
 11
644.0451303063105
 21
-494.1096895868011
 31
0.0
  0
LINE
  5
221AB
330
18
100
AcDbEntity
  8
1DIM
100
AcDbLine
 10
714.0451303063105
 20
-508.1096895868011
 30
0.0
 11
714.0451303063105
 21
-494.1096895868011
 31
0.0
  0
TEXT
  5
221AC
330
18
100
AcDbEntity
  8
1TEXT
100
AcDbText
 10
644.0451303063105
 20
-489.1096895868011
 30
0.0
 40
8.0
  1
SC-850-X
100
AcDbText
  0
TEXT
  5
221AD
330
18
100
AcDbEntity
  8
1TEXT
100
AcDbText
 10
651.9784636396439
 20
-506.4449782463254
 30
0.0
 40
4.0
  1
クローム
 72
     1
 11
661.4451303063106
 21
-506.4449782463254
 31
0.0
100
AcDbText
  0
TEXT
  5
221AE
330
18
100
AcDbEntity
  8
1TEXT
100
AcDbText
 10
681.9833247507553
 20
-506.8240465704504
 30
0.0
 40
4.0
  1
SC-850-XC
 41
0.85
 72
     1
 11
696.4451303063108
 21
-506.8240465704504
 31
0.0
100
AcDbText
  0
LINE
  5
221AF
330
18
100
AcDbEntity
  8
01
100
AcDbLine
 10
695.7177593326364
 20
-547.8815160015192
 30
0.0
 11
695.7177593326364
 21
-622.337863172083
 31
0.0
  0
LINE
  5
221B0
330
18
100
AcDbEntity
  8
01
100
AcDbLine
 10
704.7177593326364
 20
-547.8815160015192
 30
0.0
 11
704.7177593326364
 21
-622.337863172083
 31
0.0
  0
LINE
  5
221B1
330
18
100
AcDbEntity
  8
01
100
AcDbLine
 10
683.2177593326364
 20
-547.8815160015192
 30
0.0
 11
683.2177593326364
 21
-622.337863172083
 31
0.0
  0
LINE
  5
221BA
330
18
100
AcDbEntity
  8
01
100
AcDbLine
 10
479.71775918574
 20
-488.1096895868011
 30
0.0
 11
478.71775948574
 21
-487.1096895868011
 31
0.0
  0
LINE
  5
221BB
330
18
100
AcDbEntity
  8
01
100
AcDbLine
 10
483.01775933574
 20
-488.1096895868011
 30
0.0
 11
483.01775933574
 21
-487.1096895868011
 31
0.0
  0
LINE
  5
221BC
330
18
100
AcDbEntity
  8
01
100
AcDbLine
 10
483.01775933574
 20
-487.1096895868011
 30
0.0
 11
475.4177593357401
 21
-487.1096895868011
 31
0.0
  0
LINE
  5
221BD
330
18
100
AcDbEntity
  8
01
100
AcDbLine
 10
483.01775933574
 20
-488.1096895868011
 30
0.0
 11
475.4177593357401
 21
-488.1096895868011
 31
0.0
  0
LINE
  5
221BE
330
18
100
AcDbEntity
  8
01
100
AcDbLine
 10
475.4177593357401
 20
-488.1096895868011
 30
0.0
 11
475.4177593357401
 21
-487.1096895868011
 31
0.0
  0
LINE
  5
221C0
330
18
100
AcDbEntity
  8
01
100
AcDbLine
 10
461.71775918574
 20
-488.1096895868011
 30
0.0
 11
460.71775948574
 21
-487.1096895868011
 31
0.0
  0
LINE
  5
221C1
330
18
100
AcDbEntity
  8
01
100
AcDbLine
 10
465.01775933574
 20
-488.1096895868011
 30
0.0
 11
465.01775933574
 21
-487.1096895868011
 31
0.0
  0
LINE
  5
221C2
330
18
100
AcDbEntity
  8
01
100
AcDbLine
 10
465.01775933574
 20
-487.1096895868011
 30
0.0
 11
457.4177593357401
 21
-487.1096895868011
 31
0.0
  0
LINE
  5
221C3
330
18
100
AcDbEntity
  8
01
100
AcDbLine
 10
465.01775933574
 20
-488.1096895868011
 30
0.0
 11
457.4177593357401
 21
-488.1096895868011
 31
0.0
  0
LINE
  5
221C4
330
18
100
AcDbEntity
  8
01
100
AcDbLine
 10
457.4177593357401
 20
-488.1096895868011
 30
0.0
 11
457.4177593357401
 21
-487.1096895868011
 31
0.0
  0
LINE
  5
221C6
330
18
100
AcDbEntity
  8
01
100
AcDbLine
 10
680.2177593326355
 20
-586.609689436801
 30
0.0
 11
681.2177593326355
 21
-585.609689736801
 31
0.0
  0
LINE
  5
221C7
330
18
100
AcDbEntity
  8
01
100
AcDbLine
 10
680.2177593326355
 20
-589.9096895868009
 30
0.0
 11
681.2177593326355
 21
-589.9096895868009
 31
0.0
  0
LINE
  5
221C8
330
18
100
AcDbEntity
  8
01
100
AcDbLine
 10
681.2177593326355
 20
-589.9096895868009
 30
0.0
 11
681.2177593326355
 21
-582.309689586801
 31
0.0
  0
LINE
  5
221C9
330
18
100
AcDbEntity
  8
01
100
AcDbLine
 10
680.2177593326355
 20
-589.9096895868009
 30
0.0
 11
680.2177593326355
 21
-582.309689586801
 31
0.0
  0
LINE
  5
221CA
330
18
100
AcDbEntity
  8
01
100
AcDbLine
 10
680.2177593326355
 20
-582.309689586801
 30
0.0
 11
681.2177593326355
 21
-582.309689586801
 31
0.0
  0
LINE
  5
221CF
330
18
100
AcDbEntity
  8
1HIDDEN
100
AcDbLine
 10
372.7177593326363
 20
-521.1096895868019
 30
0.0
 11
372.7177593326363
 21
-521.1096895868019
 31
0.0
  0
ARC
  5
221D0
330
18
100
AcDbEntity
  8
1HIDDEN
100
AcDbCircle
 10
371.7177593326363
 20
-521.1096895868019
 30
0.0
 40
1.0
100
AcDbArc
 50
0.0
 51
90.0
  0
ARC
  5
221D1
330
18
100
AcDbEntity
  8
1HIDDEN
100
AcDbCircle
 10
345.6344259992987
 20
-521.1096895868019
 30
0.0
 40
27.08333333333781
100
AcDbArc
 50
322.1629024449016
 51
0.0
  0
ARC
  5
221D2
330
18
100
AcDbEntity
  8
1HIDDEN
100
AcDbCircle
 10
366.2339472990274
 20
-537.1096895868019
 30
0.0
 40
1.0
100
AcDbArc
 50
270.0
 51
322.1629024448926
  0
LINE
  5
221D3
330
18
100
AcDbEntity
  8
01
100
AcDbLine
 10
574.7177593326364
 20
-538.1096895868019
 30
0.0
 11
365.7177593326363
 21
-538.1096895868019
 31
0.0
  0
ARC
  5
221D4
330
18
100
AcDbEntity
  8
01
100
AcDbCircle
 10
574.7177593326364
 20
-537.1096895868019
 30
0.0
 40
1.0
100
AcDbArc
 50
270.0
 51
0.0
  0
LINE
  5
221D5
330
18
100
AcDbEntity
  8
01
100
AcDbLine
 10
574.7177593326364
 20
-520.1096895868022
 30
0.0
 11
497.2177593326365
 21
-520.1096895868022
 31
0.0
  0
LINE
  5
221D6
330
18
100
AcDbEntity
  8
01
100
AcDbLine
 10
443.2177593326364
 20
-520.1096895868021
 30
0.0
 11
365.7177593326364
 21
-520.109689586802
 31
0.0
  0
ARC
  5
221D7
330
18
100
AcDbEntity
  8
01
100
AcDbCircle
 10
365.7177593326364
 20
-521.109689586802
 30
0.0
 40
1.0
100
AcDbArc
 50
90.0
 51
180.0
  0
ARC
  5
221D8
330
18
100
AcDbEntity
  8
01
100
AcDbCircle
 10
443.2177593326364
 20
-510.1096895868021
 30
0.0
 40
10.0
100
AcDbArc
 50
270.0
 51
0.0
  0
LINE
  5
221D9
330
18
100
AcDbEntity
  8
01
100
AcDbLine
 10
364.7177593326363
 20
-537.1096895868019
 30
0.0
 11
364.7177593326364
 21
-521.109689586802
 31
0.0
  0
ARC
  5
221DA
330
18
100
AcDbEntity
  8
01
100
AcDbCircle
 10
365.7177593326363
 20
-537.1096895868019
 30
0.0
 40
1.0
100
AcDbArc
 50
180.0
 51
270.0
  0
LINE
  5
221DB
330
18
100
AcDbEntity
  8
01
100
AcDbLine
 10
575.7177593326364
 20
-537.1096895868019
 30
0.0
 11
575.7177593326364
 21
-521.1096895868021
 31
0.0
  0
ARC
  5
221DC
330
18
100
AcDbEntity
  8
01
100
AcDbCircle
 10
574.7177593326364
 20
-521.1096895868021
 30
0.0
 40
1.0
100
AcDbArc
 50
0.0
 51
90.0
  0
LINE
  5
221DD
330
18
100
AcDbEntity
  8
01
100
AcDbLine
 10
453.2177593326364
 20
-510.1096895868021
 30
0.0
 11
453.2177593326364
 21
-485.1096895868011
 31
0.0
  0
LINE
  5
221DE
330
18
100
AcDbEntity
  8
01
100
AcDbLine
 10
487.2177593326365
 20
-510.1096895868021
 30
0.0
 11
487.2177593326365
 21
-485.1096895868011
 31
0.0
  0
ARC
  5
221DF
330
18
100
AcDbEntity
  8
01
100
AcDbCircle
 10
497.2177593326365
 20
-510.1096895868021
 30
0.0
 40
10.0
100
AcDbArc
 50
180.0
 51
270.0
  0
LINE
  5
221E0
330
18
100
AcDbEntity
  8
01
100
AcDbLine
 10
487.2177593326365
 20
-485.1096895868011
 30
0.0
 11
453.2177593326364
 21
-485.1096895868011
 31
0.0
  0
LINE
  5
221E1
330
18
100
AcDbEntity
  8
1HIDDEN
100
AcDbLine
 10
567.7177593326364
 20
-521.1096895868019
 30
0.0
 11
567.7177593326364
 21
-521.1096895868019
 31
0.0
  0
ARC
  5
221E2
330
18
100
AcDbEntity
  8
1HIDDEN
100
AcDbCircle
 10
568.7177593326364
 20
-521.1096895868019
 30
0.0
 40
1.0
100
AcDbArc
 50
90.0
 51
180.0
  0
ARC
  5
221E3
330
18
100
AcDbEntity
  8
1HIDDEN
100
AcDbCircle
 10
594.801092665974
 20
-521.1096895868019
 30
0.0
 40
27.08333333333781
100
AcDbArc
 50
180.0
 51
217.8370975550985
  0
ARC
  5
221E4
330
18
100
AcDbEntity
  8
1HIDDEN
100
AcDbCircle
 10
574.2015713662454
 20
-537.1096895868019
 30
0.0
 40
1.0
100
AcDbArc
 50
217.8370975551075
 51
270.0
  0
LINE
  5
221E5
330
18
100
AcDbEntity
  8
01
100
AcDbLine
 10
372.7177593326346
 20
-622.109689586801
 30
0.0
 11
567.7177593326346
 21
-622.109689586801
 31
0.0
  0
LINE
  5
221E6
330
18
100
AcDbEntity
  8
01
100
AcDbLine
 10
375.7177593326346
 20
-614.109689586801
 30
0.0
 11
564.7177593326346
 21
-614.109689586801
 31
0.0
  0
ARC
  5
221E7
330
18
100
AcDbEntity
  8
01
100
AcDbCircle
 10
564.7177593326346
 20
-611.109689586801
 30
0.0
 40
3.0
100
AcDbArc
 50
270.0
 51
0.0
  0
LINE
  5
221E8
330
18
100
AcDbEntity
  8
01
100
AcDbLine
 10
372.7177593326346
 20
-620.109689586801
 30
0.0
 11
567.7177593326346
 21
-620.109689586801
 31
0.0
  0
ARC
  5
221E9
330
18
100
AcDbEntity
  8
01
100
AcDbCircle
 10
372.7177593326346
 20
-614.109689586801
 30
0.0
 40
8.0
100
AcDbArc
 50
180.0
 51
270.0
  0
ARC
  5
221EA
330
18
100
AcDbEntity
  8
01
100
AcDbCircle
 10
372.7177593326346
 20
-614.109689586801
 30
0.0
 40
6.0
100
AcDbArc
 50
180.0
 51
270.0
  0
LINE
  5
221EB
330
18
100
AcDbEntity
  8
01
100
AcDbLine
 10
372.7177593326346
 20
-572.109689586801
 30
0.0
 11
567.7177593326346
 21
-572.109689586801
 31
0.0
  0
LINE
  5
221EC
330
18
100
AcDbEntity
  8
01
100
AcDbLine
 10
375.7177593326346
 20
-580.109689586801
 30
0.0
 11
564.7177593326346
 21
-580.109689586801
 31
0.0
  0
ARC
  5
221ED
330
18
100
AcDbEntity
  8
01
100
AcDbCircle
 10
375.7177593326346
 20
-583.109689586801
 30
0.0
 40
3.0
100
AcDbArc
 50
90.0
 51
180.0
  0
ARC
  5
221EE
330
18
100
AcDbEntity
  8
01
100
AcDbCircle
 10
567.7177593326346
 20
-580.109689586801
 30
0.0
 40
8.0
100
AcDbArc
 50
0.0
 51
90.0
  0
ARC
  5
221EF
330
18
100
AcDbEntity
  8
01
100
AcDbCircle
 10
567.7177593326346
 20
-580.109689586801
 30
0.0
 40
6.0
100
AcDbArc
 50
0.0
 51
90.0
  0
LINE
  5
221F0
330
18
100
AcDbEntity
  8
01
100
AcDbLine
 10
575.7177593326346
 20
-614.109689586801
 30
0.0
 11
575.7177593326346
 21
-580.109689586801
 31
0.0
  0
LINE
  5
221F1
330
18
100
AcDbEntity
  8
01
100
AcDbLine
 10
567.7177593326346
 20
-611.109689586801
 30
0.0
 11
567.7177593326346
 21
-583.109689586801
 31
0.0
  0
ARC
  5
221F2
330
18
100
AcDbEntity
  8
01
100
AcDbCircle
 10
564.7177593326346
 20
-583.109689586801
 30
0.0
 40
3.0
100
AcDbArc
 50
0.0
 51
90.0
  0
LINE
  5
221F3
330
18
100
AcDbEntity
  8
01
100
AcDbLine
 10
573.7177593326346
 20
-614.109689586801
 30
0.0
 11
573.7177593326346
 21
-580.109689586801
 31
0.0
  0
ARC
  5
221F4
330
18
100
AcDbEntity
  8
01
100
AcDbCircle
 10
567.7177593326346
 20
-614.109689586801
 30
0.0
 40
8.0
100
AcDbArc
 50
270.0
 51
0.0
  0
ARC
  5
221F5
330
18
100
AcDbEntity
  8
01
100
AcDbCircle
 10
567.7177593326346
 20
-614.109689586801
 30
0.0
 40
6.0
100
AcDbArc
 50
270.0
 51
0.0
  0
LINE
  5
221F6
330
18
100
AcDbEntity
  8
01
100
AcDbLine
 10
364.7177593326346
 20
-614.109689586801
 30
0.0
 11
364.7177593326346
 21
-580.109689586801
 31
0.0
  0
LINE
  5
221F7
330
18
100
AcDbEntity
  8
01
100
AcDbLine
 10
372.7177593326346
 20
-611.109689586801
 30
0.0
 11
372.7177593326346
 21
-583.109689586801
 31
0.0
  0
ARC
  5
221F8
330
18
100
AcDbEntity
  8
01
100
AcDbCircle
 10
375.7177593326346
 20
-611.109689586801
 30
0.0
 40
3.0
100
AcDbArc
 50
180.0
 51
270.0
  0
LINE
  5
221F9
330
18
100
AcDbEntity
  8
01
100
AcDbLine
 10
366.7177593326346
 20
-614.109689586801
 30
0.0
 11
366.7177593326346
 21
-580.109689586801
 31
0.0
  0
ARC
  5
221FA
330
18
100
AcDbEntity
  8
01
100
AcDbCircle
 10
372.7177593326346
 20
-580.109689586801
 30
0.0
 40
8.0
100
AcDbArc
 50
90.0
 51
180.0
  0
ARC
  5
221FB
330
18
100
AcDbEntity
  8
01
100
AcDbCircle
 10
372.7177593326346
 20
-580.109689586801
 30
0.0
 40
6.0
100
AcDbArc
 50
90.0
 51
180.0
  0
LINE
  5
221FC
330
18
100
AcDbEntity
  8
01
100
AcDbLine
 10
630.2177593326346
 20
-572.109689586801
 30
0.0
 11
630.2177593326346
 21
-622.109689586801
 31
0.0
  0
LINE
  5
221FD
330
18
100
AcDbEntity
  8
01
100
AcDbLine
 10
648.2177593326346
 20
-572.109689586801
 30
0.0
 11
648.2177593326346
 21
-622.109689586801
 31
0.0
  0
LINE
  5
221FE
330
18
100
AcDbEntity
  8
01
100
AcDbLine
 10
683.2177593326346
 20
-572.109689586801
 30
0.0
 11
683.2177593326355
 21
-595.109689586801
 31
0.0
  0
LINE
  5
221FF
330
18
100
AcDbEntity
  8
1PHANTOM
100
AcDbLine
 10
681.2177593326355
 20
-582.109689586801
 30
0.0
 11
681.2177593326355
 21
-590.109689586801
 31
0.0
  0
LINE
  5
22200
330
18
100
AcDbEntity
  8
1PHANTOM
100
AcDbLine
 10
681.2177593326355
 20
-592.859689586801
 30
0.0
 11
681.2177593326355
 21
-595.109689586801
 31
0.0
  0
LINE
  5
22201
330
18
100
AcDbEntity
  8
1PHANTOM
100
AcDbLine
 10
677.2177593326328
 20
-576.1096895868009
 30
0.0
 11
677.2177593326355
 21
-592.859689586801
 31
0.0
  0
LINE
  5
22202
330
18
100
AcDbEntity
  8
1PHANTOM
100
AcDbLine
 10
661.2177593326337
 20
-576.1096895868009
 30
0.0
 11
661.2177593326346
 21
-578.6096895868013
 31
0.0
  0
LINE
  5
22203
330
18
100
AcDbEntity
  8
01
100
AcDbLine
 10
630.2177593326346
 20
-572.1096895868011
 30
0.0
 11
648.2177593326346
 21
-572.1096895868009
 31
0.0
  0
LINE
  5
22204
330
18
100
AcDbEntity
  8
01
100
AcDbLine
 10
681.2177593326355
 20
-595.109689586801
 30
0.0
 11
683.2177593326346
 21
-595.109689586801
 31
0.0
  0
LINE
  5
22205
330
18
100
AcDbEntity
  8
1PHANTOM
100
AcDbLine
 10
677.2177593326355
 20
-592.859689586801
 30
0.0
 11
681.2177593326355
 21
-592.859689586801
 31
0.0
  0
LINE
  5
22206
330
18
100
AcDbEntity
  8
1PHANTOM
100
AcDbLine
 10
647.2177593326346
 20
-580.109689586801
 30
0.0
 11
648.2177593326346
 21
-580.1096895868011
 31
0.0
  0
LINE
  5
22207
330
18
100
AcDbEntity
  8
01
100
AcDbLine
 10
630.2177593326346
 20
-622.109689586801
 30
0.0
 11
648.2177593326346
 21
-622.109689586801
 31
0.0
  0
LINE
  5
22208
330
18
100
AcDbEntity
  8
1PHANTOM
100
AcDbLine
 10
647.2177593326346
 20
-614.1096895868009
 30
0.0
 11
648.2177593326346
 21
-614.1096895868009
 31
0.0
  0
LINE
  5
22209
330
18
100
AcDbEntity
  8
01
100
AcDbLine
 10
648.2177593326346
 20
-580.1096895868011
 30
0.0
 11
675.2177593326348
 21
-580.1096895868009
 31
0.0
  0
LINE
  5
2220A
330
18
100
AcDbEntity
  8
01
100
AcDbLine
 10
648.2177593326346
 20
-572.1096895868009
 30
0.0
 11
683.2177593326346
 21
-572.109689586801
 31
0.0
  0
LINE
  5
2220B
330
18
100
AcDbEntity
  8
1PHANTOM
100
AcDbLine
 10
657.9677593326346
 20
-576.1096895868009
 30
0.0
 11
661.2177593326346
 21
-576.1096895868009
 31
0.0
  0
LINE
  5
2220C
330
18
100
AcDbEntity
  8
1PHANTOM
100
AcDbLine
 10
677.2177593326346
 20
-590.109689586801
 30
0.0
 11
681.2177593326355
 21
-590.109689586801
 31
0.0
  0
LINE
  5
2220D
330
18
100
AcDbEntity
  8
1PHANTOM
100
AcDbLine
 10
677.2177593326337
 20
-582.109689586801
 30
0.0
 11
681.2177593326355
 21
-582.109689586801
 31
0.0
  0
LINE
  5
2220E
330
18
100
AcDbEntity
  8
1PHANTOM
100
AcDbLine
 10
681.2177593326355
 20
-588.359689586801
 30
0.0
 11
683.2177593326346
 21
-588.359689586801
 31
0.0
  0
LINE
  5
2220F
330
18
100
AcDbEntity
  8
1PHANTOM
100
AcDbLine
 10
681.2177593326355
 20
-583.859689586801
 30
0.0
 11
683.2177593326346
 21
-583.859689586801
 31
0.0
  0
ARC
  5
22210
330
18
100
AcDbEntity
  8
1PHANTOM
100
AcDbCircle
 10
647.2177593326346
 20
-553.0263562534633
 30
0.0
 40
27.08333333333781
100
AcDbArc
 50
231.1199303436622
 51
270.0
  0
ARC
  5
22211
330
18
100
AcDbEntity
  8
1PHANTOM
100
AcDbCircle
 10
647.2177593326346
 20
-641.1930229201387
 30
0.0
 40
27.08333333333781
100
AcDbArc
 50
90.0
 51
128.8800696563359
  0
LINE
  5
22212
330
18
100
AcDbEntity
  8
1PHANTOM
100
AcDbLine
 10
657.9677593326346
 20
-580.1096895868011
 30
0.0
 11
657.9677593326355
 21
-576.1096895868009
 31
0.0
  0
LINE
  5
22213
330
18
100
AcDbEntity
  8
1PHANTOM
100
AcDbLine
 10
669.2177593326346
 20
-576.1096895868009
 30
0.0
 11
677.2177593326328
 21
-576.109689586801
 31
0.0
  0
LINE
  5
22214
330
18
100
AcDbEntity
  8
1PHANTOM
100
AcDbLine
 10
669.2177593326346
 20
-578.6096895868013
 30
0.0
 11
669.2177593326346
 21
-576.1096895868009
 31
0.0
  0
LINE
  5
22215
330
18
100
AcDbEntity
  8
1PHANTOM
100
AcDbLine
 10
661.2177593326346
 20
-578.6096895868013
 30
0.0
 11
669.2177593326346
 21
-578.6096895868013
 31
0.0
  0
LINE
  5
22216
330
18
100
AcDbEntity
  8
01
100
AcDbLine
 10
675.2177593326346
 20
-580.1096895868013
 30
0.0
 11
675.2177593326355
 21
-595.1096895868012
 31
0.0
  0
LINE
  5
22217
330
18
100
AcDbEntity
  8
01
100
AcDbLine
 10
675.2177593326355
 20
-595.1096895868012
 30
0.0
 11
683.2177593326346
 21
-595.1096895868012
 31
0.0
  0
LINE
  5
22218
330
18
100
AcDbEntity
  8
1PHANTOM
100
AcDbLine
 10
661.2177593326346
 20
-578.6096895868016
 30
0.0
 11
669.2177593326346
 21
-578.6096895868016
 31
0.0
  0
LINE
  5
2221A
330
18
100
AcDbEntity
  8
01
100
AcDbLine
 10
372.7177593326346
 20
-574.109689586801
 30
0.0
 11
567.7177593326346
 21
-574.109689586801
 31
0.0
  0
LINE
  5
2221E
330
18
100
AcDbEntity
  8
01
100
AcDbLine
 10
487.2177593326347
 20
-595.309689586801
 30
0.0
 11
453.2177593326347
 21
-595.309689586801
 31
0.0
  0
LINE
  5
2221F
330
18
100
AcDbEntity
  8
01
100
AcDbLine
 10
487.2177593326344
 20
-580.109689586801
 30
0.0
 11
487.2177593326347
 21
-595.309689586801
 31
0.0
  0
LINE
  5
22220
330
18
100
AcDbEntity
  8
01
100
AcDbLine
 10
453.2177593326345
 20
-580.109689586801
 30
0.0
 11
453.2177593326347
 21
-595.309689586801
 31
0.0
  0
LINE
  5
22221
330
18
100
AcDbEntity
  8
1CENTER
100
AcDbLine
 10
456.0177593326296
 20
-586.1096895868011
 30
0.0
 11
466.4177593326292
 21
-586.1096895868011
 31
0.0
  0
LINE
  5
22222
330
18
100
AcDbEntity
  8
1CENTER
100
AcDbLine
 10
461.2177593326294
 20
-591.3096895868011
 30
0.0
 11
461.2177593326294
 21
-580.9096895868013
 31
0.0
  0
LINE
  5
22223
330
18
100
AcDbEntity
  8
1CENTER
100
AcDbLine
 10
474.0177593326296
 20
-586.1096895868011
 30
0.0
 11
484.4177593326293
 21
-586.1096895868011
 31
0.0
  0
LINE
  5
22224
330
18
100
AcDbEntity
  8
1CENTER
100
AcDbLine
 10
479.2177593326294
 20
-591.3096895868011
 30
0.0
 11
479.2177593326294
 21
-580.9096895868013
 31
0.0
  0
LINE
  5
22225
330
18
100
AcDbEntity
  8
1PHANTOM
100
AcDbLine
 10
483.9677593326347
 20
-580.1096895868011
 30
0.0
 11
483.9677593326338
 21
-595.3096895868009
 31
0.0
  0
LINE
  5
22226
330
18
100
AcDbEntity
  8
1PHANTOM
100
AcDbLine
 10
456.4677593326348
 20
-580.1096895868011
 30
0.0
 11
456.4677593326347
 21
-595.3096895868009
 31
0.0
  0
LINE
  5
22227
330
18
100
AcDbEntity
  8
1PHANTOM
100
AcDbLine
 10
473.7177593326365
 20
-593.0096895868011
 30
0.0
 11
466.7177593326329
 21
-593.0096895868011
 31
0.0
  0
ARC
  5
22228
330
18
100
AcDbEntity
  8
1PHANTOM
100
AcDbCircle
 10
461.2177593326329
 20
-585.1096895868011
 30
0.0
 40
2.5
100
AcDbArc
 50
0.0
 51
180.0
  0
ARC
  5
22229
330
18
100
AcDbEntity
  8
1PHANTOM
100
AcDbCircle
 10
461.2177593326329
 20
-587.1096895868011
 30
0.0
 40
2.5
100
AcDbArc
 50
180.0
 51
0.0
  0
LINE
  5
2222A
330
18
100
AcDbEntity
  8
1PHANTOM
100
AcDbLine
 10
463.7177593326329
 20
-585.1096895868011
 30
0.0
 11
463.7177593326329
 21
-587.1096895868011
 31
0.0
  0
LINE
  5
2222B
330
18
100
AcDbEntity
  8
1PHANTOM
100
AcDbLine
 10
458.7177593326329
 20
-585.1096895868011
 30
0.0
 11
458.7177593326329
 21
-587.1096895868011
 31
0.0
  0
ARC
  5
2222C
330
18
100
AcDbEntity
  8
1PHANTOM
100
AcDbCircle
 10
461.2177593326329
 20
-585.1096895868011
 30
0.0
 40
4.5
100
AcDbArc
 50
0.0
 51
132.985886080162
  0
ARC
  5
2222D
330
18
100
AcDbEntity
  8
1PHANTOM
100
AcDbCircle
 10
457.4677593326347
 20
-581.0863203519416
 30
0.0
 40
1.0
100
AcDbArc
 50
180.0
 51
312.9858860801628
  0
LINE
  5
2222E
330
18
100
AcDbEntity
  8
1PHANTOM
100
AcDbLine
 10
465.7177593326329
 20
-585.1096895868011
 30
0.0
 11
465.7177593326329
 21
-592.0096895868011
 31
0.0
  0
ARC
  5
2222F
330
18
100
AcDbEntity
  8
1PHANTOM
100
AcDbCircle
 10
466.7177593326329
 20
-592.0096895868011
 30
0.0
 40
1.0
100
AcDbArc
 50
180.0
 51
270.0
  0
ARC
  5
22230
330
18
100
AcDbEntity
  8
1PHANTOM
100
AcDbCircle
 10
479.2177593326365
 20
-585.1096895868011
 30
0.0
 40
4.5
100
AcDbArc
 50
47.01411391983546
 51
180.0
  0
ARC
  5
22231
330
18
100
AcDbEntity
  8
1PHANTOM
100
AcDbCircle
 10
482.9677593326347
 20
-581.0863203519416
 30
0.0
 40
1.0
100
AcDbArc
 50
227.0141139198396
 51
0.0
  0
LINE
  5
22232
330
18
100
AcDbEntity
  8
1PHANTOM
100
AcDbLine
 10
474.7177593326365
 20
-585.1096895868011
 30
0.0
 11
474.7177593326365
 21
-592.0096895868011
 31
0.0
  0
ARC
  5
22233
330
18
100
AcDbEntity
  8
1PHANTOM
100
AcDbCircle
 10
473.7177593326365
 20
-592.0096895868011
 30
0.0
 40
1.0
100
AcDbArc
 50
270.0
 51
0.0
  0
CIRCLE
  5
22234
330
18
100
AcDbEntity
  8
1PHANTOM
100
AcDbCircle
 10
479.2177593326329
 20
-586.1096895868011
 30
0.0
 40
2.5
  0
TEXT
  5
224F8
330
18
100
AcDbEntity
  8
01
  6
CONTINUOUS
100
AcDbText
 10
689.9552748434589
 20
-540.6786205396819
 30
0.0
 40
3.5
  1
PB
100
AcDbText
  0
TEXT
  5
224F9
330
18
100
AcDbEntity
  8
01
  6
CONTINUOUS
100
AcDbText
 10
703.0906929886241
 20
-540.6786205396819
 30
0.0
 40
3.5
  1
合板9mm以上
100
AcDbText
  0
TEXT
  5
224FA
330
18
100
AcDbEntity
  8
1DIM
  6
CONTINUOUS
100
AcDbText
 10
596.9986991347656
 20
-524.4521080689684
 30
0.0
 40
3.5
  1
材質：亜鉛ダイキャスト
100
AcDbText
  0
TEXT
  5
224FB
330
18
100
AcDbEntity
  8
1DIM
  6
CONTINUOUS
100
AcDbText
 10
608.8986991347657
 20
-530.2854414023018
 30
0.0
 40
3.5
  1
仕上げ：クローム
100
AcDbText
  0
LINE
  5
224FD
330
18
100
AcDbEntity
  8
1DIM
100
AcDbLine
 10
654.4147079584864
 20
-571.5712633011001
 30
0.0
 11
644.4986991347657
 21
-530.9854414023018
 31
0.0
1001
ACAD
1000
DSTYLE
1002
{
1070
    45
1040
0.5
1002
}
  0
LINE
  5
224FE
330
18
100
AcDbEntity
  8
1DIM
100
AcDbLine
 10
644.4986991347657
 20
-530.9854414023018
 30
0.0
 11
597.2320324680991
 21
-530.9854414023018
 31
0.0
1001
ACAD
1000
DSTYLE
1002
{
1070
    45
1040
0.5
1002
}
  0
LINE
  5
224FF
330
18
100
AcDbEntity
  8
1DIM
100
AcDbLine
 10
630.2177593326346
 20
-572.109689586801
 30
0.0
 11
630.2177593326346
 21
-534.109689586801
 31
0.0
1001
ACAD
1000
DSTYLE
1002
{
1070
    45
1040
0.5
1002
}
  0
LINE
  5
22500
330
18
100
AcDbEntity
  8
1DIM
100
AcDbLine
 10
683.2177593326364
 20
-547.8815160015192
 30
0.0
 11
683.2177593326364
 21
-534.109689586801
 31
0.0
1001
ACAD
1000
DSTYLE
1002
{
1070
    45
1040
0.5
1002
}
  0
LINE
  5
22501
330
18
100
AcDbEntity
  8
1DIM
100
AcDbLine
 10
632.2177593326346
 20
-535.109689586801
 30
0.0
 11
681.2177593326364
 21
-535.109689586801
 31
0.0
1001
ACAD
1000
DSTYLE
1002
{
1070
    45
1040
0.5
1002
}
  0
LINE
  5
22505
330
18
100
AcDbEntity
  8
1DIM
100
AcDbLine
 10
683.2177593326364
 20
-622.337863172083
 30
0.0
 11
683.2177593326364
 21
-631.7096895868024
 31
0.0
1001
ACAD
1000
DSTYLE
1002
{
1070
    45
1040
0.5
1002
}
  0
LINE
  5
22506
330
18
100
AcDbEntity
  8
1DIM
100
AcDbLine
 10
665.2177593326346
 20
-581.2184585868011
 30
0.0
 11
665.2177593326346
 21
-631.7096895868024
 31
0.0
1001
ACAD
1000
DSTYLE
1002
{
1070
    45
1040
0.5
1002
}
  0
LINE
  5
22507
330
18
100
AcDbEntity
  8
1DIM
100
AcDbLine
 10
681.2177593326364
 20
-630.7096895868024
 30
0.0
 11
667.2177593326346
 21
-630.7096895868024
 31
0.0
1001
ACAD
1000
DSTYLE
1002
{
1070
    45
1040
0.5
1002
}
  0
LINE
  5
2250B
330
18
100
AcDbEntity
  8
1DIM
100
AcDbLine
 10
716.6485542499386
 20
-586.1096895836966
 30
0.0
 11
725.7177593326364
 21
-586.1096895836966
 31
0.0
1001
ACAD
1000
DSTYLE
1002
{
1070
    45
1040
0.5
1070
   271
1070
     0
1002
}
  0
LINE
  5
2250C
330
18
100
AcDbEntity
  8
1DIM
100
AcDbLine
 10
683.2177593326346
 20
-572.109689586801
 30
0.0
 11
725.7177593326364
 21
-572.109689586801
 31
0.0
1001
ACAD
1000
DSTYLE
1002
{
1070
    45
1040
0.5
1070
   271
1070
     0
1002
}
  0
LINE
  5
2250D
330
18
100
AcDbEntity
  8
1DIM
100
AcDbLine
 10
724.7177593326364
 20
-584.1096895836966
 30
0.0
 11
724.7177593326364
 21
-574.109689586801
 31
0.0
1001
ACAD
1000
DSTYLE
1002
{
1070
    45
1040
0.5
1070
   271
1070
     0
1002
}
  0
LINE
  5
22511
330
18
100
AcDbEntity
  8
1DIM
100
AcDbLine
 10
683.2177593326346
 20
-595.1096895868012
 30
0.0
 11
735.7177593326364
 21
-595.1096895868012
 31
0.0
1001
ACAD
1000
DSTYLE
1002
{
1070
    45
1040
0.5
1002
}
  0
LINE
  5
22512
330
18
100
AcDbEntity
  8
1DIM
100
AcDbLine
 10
683.2177593326346
 20
-572.109689586801
 30
0.0
 11
735.7177593326364
 21
-572.109689586801
 31
0.0
1001
ACAD
1000
DSTYLE
1002
{
1070
    45
1040
0.5
1002
}
  0
LINE
  5
22513
330
18
100
AcDbEntity
  8
1DIM
100
AcDbLine
 10
734.7177593326364
 20
-593.1096895868012
 30
0.0
 11
734.7177593326364
 21
-574.109689586801
 31
0.0
1001
ACAD
1000
DSTYLE
1002
{
1070
    45
1040
0.5
1002
}
  0
LINE
  5
22517
330
18
100
AcDbEntity
  8
1DIM
100
AcDbLine
 10
487.2177593326365
 20
-485.1096895868011
 30
0.0
 11
487.2177593326365
 21
-469.1096895868011
 31
0.0
1001
ACAD
1000
DSTYLE
1002
{
1070
    45
1040
0.5
1002
}
  0
LINE
  5
22518
330
18
100
AcDbEntity
  8
1DIM
100
AcDbLine
 10
453.2177593326364
 20
-485.1096895868011
 30
0.0
 11
453.2177593326364
 21
-469.1096895868011
 31
0.0
1001
ACAD
1000
DSTYLE
1002
{
1070
    45
1040
0.5
1002
}
  0
LINE
  5
22519
330
18
100
AcDbEntity
  8
1DIM
100
AcDbLine
 10
453.2177593326364
 20
-470.1096895868011
 30
0.0
 11
443.9844259993031
 21
-470.1096895868011
 31
0.0
1001
ACAD
1000
DSTYLE
1002
{
1070
    45
1040
0.5
1002
}
  0
LINE
  5
2251A
330
18
100
AcDbEntity
  8
1DIM
100
AcDbLine
 10
485.2177593326365
 20
-470.1096895868011
 30
0.0
 11
455.2177593326364
 21
-470.1096895868011
 31
0.0
1001
ACAD
1000
DSTYLE
1002
{
1070
    45
1040
0.5
1002
}
  0
LINE
  5
2251F
330
18
100
AcDbEntity
  8
1DIM
100
AcDbLine
 10
686.5462820356291
 20
-554.1546465951519
 30
0.0
 11
689.2552748434589
 21
-541.378620539682
 31
0.0
1001
ACAD
1000
DSTYLE
1002
{
1070
    45
1040
0.5
1002
}
  0
LINE
  5
22521
330
18
100
AcDbEntity
  8
1DIM
100
AcDbLine
 10
699.6817001807943
 20
-554.1546465951519
 30
0.0
 11
702.3906929886241
 21
-541.378620539682
 31
0.0
1001
ACAD
1000
DSTYLE
1002
{
1070
    45
1040
0.5
1002
}
  0
LINE
  5
22522
330
18
100
AcDbEntity
  8
0
100
AcDbLine
 10
479.2178058685336
 20
-453.1096895869634
 30
0.0
 11
477.7178058685336
 21
-458.4096860968251
 31
0.0
  0
LINE
  5
22523
330
18
100
AcDbEntity
  8
0
100
AcDbLine
 10
477.7178058685336
 20
-458.4096860968251
 30
0.0
 11
477.7178058685338
 21
-488.109686096717
 31
0.0
  0
LINE
  5
22524
330
18
100
AcDbEntity
  8
0
100
AcDbLine
 10
479.2178058685336
 20
-453.1096895869634
 30
0.0
 11
480.7178058685337
 21
-458.4096930772088
 31
0.0
  0
LINE
  5
22525
330
18
100
AcDbEntity
  8
0
100
AcDbLine
 10
475.7177593326358
 20
-488.1096814430189
 30
0.0
 11
482.7177593326357
 21
-488.1096977305833
 31
0.0
  0
LINE
  5
22526
330
18
100
AcDbEntity
  8
0
100
AcDbLine
 10
480.7178058685337
 20
-458.4096930772088
 30
0.0
 11
480.7178058685338
 21
-488.1096930771017
 31
0.0
  0
LINE
  5
22527
330
18
100
AcDbEntity
  8
0
100
AcDbLine
 10
475.7177593326358
 20
-488.1096814430189
 30
0.0
 11
475.7177593326357
 21
-489.2096849332142
 31
0.0
  0
ARC
  5
22528
330
18
100
AcDbEntity
  8
0
100
AcDbCircle
 10
477.2177593326357
 20
-489.2096849332142
 30
0.0
 40
1.5
100
AcDbArc
 50
180.0
 51
269.9998666844684
  0
LINE
  5
22529
330
18
100
AcDbEntity
  8
0
100
AcDbLine
 10
482.7177593326357
 20
-488.1096977305833
 30
0.0
 11
482.7177593326357
 21
-489.2096942403938
 31
0.0
  0
LINE
  5
2252A
330
18
100
AcDbEntity
  8
0
100
AcDbLine
 10
477.2177558424433
 20
-490.7096849332102
 30
0.0
 11
481.2177558424433
 21
-490.7096942403898
 31
0.0
  0
ARC
  5
2252B
330
18
100
AcDbEntity
  8
0
100
AcDbCircle
 10
481.2177593326357
 20
-489.2096942403938
 30
0.0
 40
1.5
100
AcDbArc
 50
269.9998666844684
 51
0.0
  0
LINE
  5
2252C
330
18
100
AcDbEntity
  8
1CENTER
100
AcDbLine
 10
479.2177593326357
 20
-451.678894669498
 30
0.0
 11
479.2177593326357
 21
-491.7799659961099
 31
0.0
  0
LINE
  5
2252D
330
18
100
AcDbEntity
  8
0
100
AcDbLine
 10
478.1234355186406
 20
-455.2096870406413
 30
0.0
 11
480.0857706075161
 21
-454.4096916065903
 31
0.0
  0
LINE
  5
2252E
330
18
100
AcDbEntity
  8
0
100
AcDbLine
 10
480.0857706075161
 20
-454.4096916065903
 30
0.0
 11
479.4974940324736
 21
-454.0979217503382
 31
0.0
  0
LINE
  5
2252F
330
18
100
AcDbEntity
  8
0
100
AcDbLine
 10
477.2178058685336
 20
-477.6096849334313
 30
0.0
 11
481.2178058685336
 21
-476.809694240613
 31
0.0
  0
LINE
  5
22530
330
18
100
AcDbEntity
  8
0
100
AcDbLine
 10
477.2178058685336
 20
-466.4096849334269
 30
0.0
 11
481.2178058685336
 21
-465.6096942406043
 31
0.0
  0
LINE
  5
22531
330
18
100
AcDbEntity
  8
0
100
AcDbLine
 10
477.2178058685336
 20
-463.2096849334268
 30
0.0
 11
481.2178058685336
 21
-462.4096942406043
 31
0.0
  0
LINE
  5
22532
330
18
100
AcDbEntity
  8
0
100
AcDbLine
 10
481.2178058685336
 20
-462.4096942406043
 30
0.0
 11
480.7178058685336
 21
-462.309693077207
 31
0.0
  0
LINE
  5
22533
330
18
100
AcDbEntity
  8
0
100
AcDbLine
 10
477.7178058685336
 20
-461.709686096824
 30
0.0
 11
477.2178058685336
 21
-461.6096849334268
 31
0.0
  0
LINE
  5
22534
330
18
100
AcDbEntity
  8
0
100
AcDbLine
 10
481.2178058685336
 20
-465.6096942406043
 30
0.0
 11
480.7178058685336
 21
-465.5096930772071
 31
0.0
  0
LINE
  5
22535
330
18
100
AcDbEntity
  8
0
100
AcDbLine
 10
481.2178058685336
 20
-464.0096942406042
 30
0.0
 11
480.7178058685336
 21
-463.9096930772071
 31
0.0
  0
LINE
  5
22536
330
18
100
AcDbEntity
  8
0
100
AcDbLine
 10
477.7178058685336
 20
-463.309686096824
 30
0.0
 11
477.2178058685336
 21
-463.2096849334268
 31
0.0
  0
LINE
  5
22537
330
18
100
AcDbEntity
  8
0
100
AcDbLine
 10
477.7178058685336
 20
-464.9096860968239
 30
0.0
 11
477.2178058685336
 21
-464.8096849334268
 31
0.0
  0
LINE
  5
22538
330
18
100
AcDbEntity
  8
0
100
AcDbLine
 10
477.2178058685336
 20
-464.8096849334268
 30
0.0
 11
481.2178058685336
 21
-464.0096942406042
 31
0.0
  0
LINE
  5
22539
330
18
100
AcDbEntity
  8
0
100
AcDbLine
 10
480.5385847119229
 20
-456.0096926601959
 30
0.0
 11
479.9868352481196
 21
-455.8269285175679
 31
0.0
  0
LINE
  5
2253A
330
18
100
AcDbEntity
  8
0
100
AcDbLine
 10
481.2178058685336
 20
-459.2096942406042
 30
0.0
 11
480.7178058685336
 21
-459.1096930772071
 31
0.0
  0
LINE
  5
2253B
330
18
100
AcDbEntity
  8
0
100
AcDbLine
 10
481.2178058685336
 20
-460.8096942406042
 30
0.0
 11
480.7178058685336
 21
-460.7096930772072
 31
0.0
  0
LINE
  5
2253C
330
18
100
AcDbEntity
  8
0
100
AcDbLine
 10
480.9913988163296
 20
-457.6096937138016
 30
0.0
 11
480.4548050810585
 21
-457.4804230161717
 31
0.0
  0
LINE
  5
2253D
330
18
100
AcDbEntity
  8
0
100
AcDbLine
 10
478.1387204657423
 20
-456.9224554993871
 30
0.0
 11
477.6706220105924
 21
-456.809685987037
 31
0.0
  0
LINE
  5
2253E
330
18
100
AcDbEntity
  8
0
100
AcDbLine
 10
477.7178058685336
 20
-460.1096860968239
 30
0.0
 11
477.2178058685336
 21
-460.0096849334268
 31
0.0
  0
LINE
  5
2253F
330
18
100
AcDbEntity
  8
0
100
AcDbLine
 10
477.7178058685336
 20
-458.509686096824
 30
0.0
 11
477.2178058685336
 21
-458.4096849334269
 31
0.0
  0
LINE
  5
22540
330
18
100
AcDbEntity
  8
0
100
AcDbLine
 10
478.5806073592717
 20
-455.3611228370817
 30
0.0
 11
478.1234355186406
 21
-455.2096870406413
 31
0.0
  0
LINE
  5
22541
330
18
100
AcDbEntity
  8
0
100
AcDbLine
 10
477.6706220105924
 20
-456.809685987037
 30
0.0
 11
480.5385847119229
 21
-456.0096926601959
 31
0.0
  0
LINE
  5
22542
330
18
100
AcDbEntity
  8
0
100
AcDbLine
 10
477.2178058685336
 20
-460.0096849334268
 30
0.0
 11
481.2178058685336
 21
-459.2096942406042
 31
0.0
  0
LINE
  5
22543
330
18
100
AcDbEntity
  8
0
100
AcDbLine
 10
477.2178058685336
 20
-458.4096849334269
 30
0.0
 11
480.9913988163296
 21
-457.6096937138016
 31
0.0
  0
LINE
  5
22544
330
18
100
AcDbEntity
  8
0
100
AcDbLine
 10
477.2178058685336
 20
-461.6096849334268
 30
0.0
 11
481.2178058685336
 21
-460.8096942406042
 31
0.0
  0
LINE
  5
22545
330
18
100
AcDbEntity
  8
0
100
AcDbLine
 10
477.2178058685336
 20
-474.4096849334312
 30
0.0
 11
481.2178058685336
 21
-473.609694240613
 31
0.0
  0
LINE
  5
22546
330
18
100
AcDbEntity
  8
0
100
AcDbLine
 10
481.2178058685336
 20
-473.609694240613
 30
0.0
 11
480.7178058685336
 21
-473.5096930772153
 31
0.0
  0
LINE
  5
22547
330
18
100
AcDbEntity
  8
0
100
AcDbLine
 10
477.7178058685336
 20
-472.9096860968245
 30
0.0
 11
477.2178058685336
 21
-472.8096849334269
 31
0.0
  0
LINE
  5
22548
330
18
100
AcDbEntity
  8
0
100
AcDbLine
 10
481.2178058685336
 20
-475.2096942406131
 30
0.0
 11
480.7178058685336
 21
-475.1096930772154
 31
0.0
  0
LINE
  5
22549
330
18
100
AcDbEntity
  8
0
100
AcDbLine
 10
481.2178058685336
 20
-476.809694240613
 30
0.0
 11
480.7178058685336
 21
-476.7096930772153
 31
0.0
  0
LINE
  5
2254A
330
18
100
AcDbEntity
  8
0
100
AcDbLine
 10
477.7178058685336
 20
-474.5096860968289
 30
0.0
 11
477.2178058685336
 21
-474.4096849334312
 31
0.0
  0
LINE
  5
2254B
330
18
100
AcDbEntity
  8
0
100
AcDbLine
 10
477.7178058685336
 20
-476.109686096829
 30
0.0
 11
477.2178058685336
 21
-476.0096849334313
 31
0.0
  0
LINE
  5
2254C
330
18
100
AcDbEntity
  8
0
100
AcDbLine
 10
477.2178058685336
 20
-476.0096849334313
 30
0.0
 11
481.2178058685336
 21
-475.2096942406131
 31
0.0
  0
LINE
  5
2254D
330
18
100
AcDbEntity
  8
0
100
AcDbLine
 10
481.2178058685336
 20
-468.8096942406086
 30
0.0
 11
480.7178058685336
 21
-468.7096930772109
 31
0.0
  0
LINE
  5
2254E
330
18
100
AcDbEntity
  8
0
100
AcDbLine
 10
481.2178058685336
 20
-467.2096942406042
 30
0.0
 11
480.7178058685336
 21
-467.1096930772071
 31
0.0
  0
LINE
  5
2254F
330
18
100
AcDbEntity
  8
0
100
AcDbLine
 10
481.2178058685336
 20
-472.0096942406086
 30
0.0
 11
480.7178058685336
 21
-471.9096930772109
 31
0.0
  0
LINE
  5
22550
330
18
100
AcDbEntity
  8
0
100
AcDbLine
 10
481.2178058685336
 20
-470.4096942406087
 30
0.0
 11
480.7178058685336
 21
-470.309693077211
 31
0.0
  0
LINE
  5
22551
330
18
100
AcDbEntity
  8
0
100
AcDbLine
 10
477.7178058685336
 20
-466.509686096824
 30
0.0
 11
477.2178058685336
 21
-466.4096849334269
 31
0.0
  0
LINE
  5
22552
330
18
100
AcDbEntity
  8
0
100
AcDbLine
 10
477.7178058685336
 20
-468.1096860968246
 30
0.0
 11
477.2178058685336
 21
-468.0096849334268
 31
0.0
  0
LINE
  5
22553
330
18
100
AcDbEntity
  8
0
100
AcDbLine
 10
477.7178058685336
 20
-471.3096860968246
 30
0.0
 11
477.2178058685336
 21
-471.209684933427
 31
0.0
  0
LINE
  5
22554
330
18
100
AcDbEntity
  8
0
100
AcDbLine
 10
477.7178058685336
 20
-469.7096860968245
 30
0.0
 11
477.2178058685336
 21
-469.6096849334268
 31
0.0
  0
LINE
  5
22555
330
18
100
AcDbEntity
  8
0
100
AcDbLine
 10
477.2178058685336
 20
-469.6096849334268
 30
0.0
 11
481.2178058685336
 21
-468.8096942406086
 31
0.0
  0
LINE
  5
22556
330
18
100
AcDbEntity
  8
0
100
AcDbLine
 10
477.2178058685336
 20
-468.0096849334268
 30
0.0
 11
481.2178058685336
 21
-467.2096942406042
 31
0.0
  0
LINE
  5
22557
330
18
100
AcDbEntity
  8
0
100
AcDbLine
 10
477.2178058685336
 20
-471.209684933427
 30
0.0
 11
481.2178058685336
 21
-470.4096942406087
 31
0.0
  0
LINE
  5
22558
330
18
100
AcDbEntity
  8
0
100
AcDbLine
 10
477.2178058685336
 20
-472.8096849334269
 30
0.0
 11
481.2178058685336
 21
-472.0096942406086
 31
0.0
  0
LINE
  5
22559
330
18
100
AcDbEntity
  8
0
100
AcDbLine
 10
477.7178058685336
 20
-482.5096860968331
 30
0.0
 11
477.2178058685336
 21
-482.4096849334354
 31
0.0
  0
LINE
  5
2255A
330
18
100
AcDbEntity
  8
0
100
AcDbLine
 10
477.2178058685336
 20
-482.4096849334354
 30
0.0
 11
481.2178058685336
 21
-481.6096942406172
 31
0.0
  0
LINE
  5
2255B
330
18
100
AcDbEntity
  8
0
100
AcDbLine
 10
481.2178058685336
 20
-481.6096942406172
 30
0.0
 11
480.7178058685336
 21
-481.5096930772195
 31
0.0
  0
LINE
  5
2255C
330
18
100
AcDbEntity
  8
0
100
AcDbLine
 10
477.7178058685336
 20
-480.9096860968332
 30
0.0
 11
477.2178058685336
 21
-480.8096849334355
 31
0.0
  0
LINE
  5
2255D
330
18
100
AcDbEntity
  8
0
100
AcDbLine
 10
477.7178058685336
 20
-479.3096860968333
 30
0.0
 11
477.2178058685336
 21
-479.2096849334356
 31
0.0
  0
LINE
  5
2255E
330
18
100
AcDbEntity
  8
0
100
AcDbLine
 10
477.2178058685336
 20
-479.2096849334356
 30
0.0
 11
481.2178058685336
 21
-478.4096942406173
 31
0.0
  0
LINE
  5
2255F
330
18
100
AcDbEntity
  8
0
100
AcDbLine
 10
481.2178058685336
 20
-480.0096942406173
 30
0.0
 11
480.7178058685336
 21
-479.9096930772196
 31
0.0
  0
LINE
  5
22560
330
18
100
AcDbEntity
  8
0
100
AcDbLine
 10
481.2178058685336
 20
-478.4096942406173
 30
0.0
 11
480.7178058685336
 21
-478.3096930772197
 31
0.0
  0
LINE
  5
22561
330
18
100
AcDbEntity
  8
0
100
AcDbLine
 10
477.2178058685336
 20
-480.8096849334355
 30
0.0
 11
481.2178058685336
 21
-480.0096942406173
 31
0.0
  0
LINE
  5
22562
330
18
100
AcDbEntity
  8
0
100
AcDbLine
 10
477.7178058685336
 20
-477.7096860968289
 30
0.0
 11
477.2178058685336
 21
-477.6096849334313
 31
0.0
  0
LINE
  5
22563
330
18
100
AcDbEntity
  8
0
100
AcDbLine
 10
477.7178058685336
 20
-484.109686096833
 30
0.0
 11
477.2178058685336
 21
-484.0096849334353
 31
0.0
  0
LINE
  5
22564
330
18
100
AcDbEntity
  8
0
100
AcDbLine
 10
477.2178058685336
 20
-484.0096849334353
 30
0.0
 11
481.2178058685336
 21
-483.2096942406171
 31
0.0
  0
LINE
  5
22565
330
18
100
AcDbEntity
  8
0
100
AcDbLine
 10
481.2178058685336
 20
-483.2096942406171
 30
0.0
 11
480.7178058685336
 21
-483.1096930772194
 31
0.0
  0
LINE
  5
22566
330
18
100
AcDbEntity
  8
0
100
AcDbLine
 10
477.7178058685336
 20
-485.7096860968329
 30
0.0
 11
477.2178058685336
 21
-485.6096849334352
 31
0.0
  0
LINE
  5
22567
330
18
100
AcDbEntity
  8
0
100
AcDbLine
 10
477.2178058685336
 20
-485.6096849334352
 30
0.0
 11
481.2178058685336
 21
-484.809694240617
 31
0.0
  0
LINE
  5
22568
330
18
100
AcDbEntity
  8
0
100
AcDbLine
 10
481.2178058685336
 20
-484.809694240617
 30
0.0
 11
480.7178058685336
 21
-484.7096930772194
 31
0.0
  0
LINE
  5
22569
330
18
100
AcDbEntity
  8
0
100
AcDbLine
 10
477.7178058685336
 20
-487.3096860968328
 30
0.0
 11
477.2178058685336
 21
-487.2096849334351
 31
0.0
  0
LINE
  5
2256A
330
18
100
AcDbEntity
  8
0
100
AcDbLine
 10
477.2178058685336
 20
-487.2096849334351
 30
0.0
 11
481.2178058685336
 21
-486.4096942406169
 31
0.0
  0
LINE
  5
2256B
330
18
100
AcDbEntity
  8
0
100
AcDbLine
 10
481.2178058685336
 20
-486.4096942406169
 30
0.0
 11
480.7178058685336
 21
-486.3096930772193
 31
0.0
  0
LINE
  5
2256C
330
18
100
AcDbEntity
  8
0
100
AcDbLine
 10
461.2178058685336
 20
-453.1096895869634
 30
0.0
 11
459.7178058685336
 21
-458.4096860968251
 31
0.0
  0
LINE
  5
2256D
330
18
100
AcDbEntity
  8
0
100
AcDbLine
 10
459.7178058685336
 20
-458.4096860968251
 30
0.0
 11
459.7178058685338
 21
-488.109686096717
 31
0.0
  0
LINE
  5
2256E
330
18
100
AcDbEntity
  8
0
100
AcDbLine
 10
461.2178058685336
 20
-453.1096895869634
 30
0.0
 11
462.7178058685337
 21
-458.4096930772088
 31
0.0
  0
LINE
  5
2256F
330
18
100
AcDbEntity
  8
0
100
AcDbLine
 10
457.7177593326358
 20
-488.1096814430189
 30
0.0
 11
464.7177593326357
 21
-488.1096977305833
 31
0.0
  0
LINE
  5
22570
330
18
100
AcDbEntity
  8
0
100
AcDbLine
 10
462.7178058685337
 20
-458.4096930772088
 30
0.0
 11
462.7178058685338
 21
-488.1096930771017
 31
0.0
  0
LINE
  5
22571
330
18
100
AcDbEntity
  8
0
100
AcDbLine
 10
457.7177593326358
 20
-488.1096814430189
 30
0.0
 11
457.7177593326357
 21
-489.2096849332142
 31
0.0
  0
ARC
  5
22572
330
18
100
AcDbEntity
  8
0
100
AcDbCircle
 10
459.2177593326357
 20
-489.2096849332142
 30
0.0
 40
1.5
100
AcDbArc
 50
180.0
 51
269.9998666844684
  0
LINE
  5
22573
330
18
100
AcDbEntity
  8
0
100
AcDbLine
 10
464.7177593326357
 20
-488.1096977305833
 30
0.0
 11
464.7177593326357
 21
-489.2096942403938
 31
0.0
  0
LINE
  5
22574
330
18
100
AcDbEntity
  8
0
100
AcDbLine
 10
459.2177558424433
 20
-490.7096849332102
 30
0.0
 11
463.2177558424433
 21
-490.7096942403898
 31
0.0
  0
ARC
  5
22575
330
18
100
AcDbEntity
  8
0
100
AcDbCircle
 10
463.2177593326357
 20
-489.2096942403938
 30
0.0
 40
1.5
100
AcDbArc
 50
269.9998666844684
 51
0.0
  0
LINE
  5
22576
330
18
100
AcDbEntity
  8
1CENTER
100
AcDbLine
 10
461.2177593326357
 20
-451.678894669498
 30
0.0
 11
461.2177593326357
 21
-491.7799659961099
 31
0.0
  0
LINE
  5
22577
330
18
100
AcDbEntity
  8
0
100
AcDbLine
 10
460.1234355186406
 20
-455.2096870406413
 30
0.0
 11
462.0857706075161
 21
-454.4096916065903
 31
0.0
  0
LINE
  5
22578
330
18
100
AcDbEntity
  8
0
100
AcDbLine
 10
462.0857706075161
 20
-454.4096916065903
 30
0.0
 11
461.4974940324736
 21
-454.0979217503382
 31
0.0
  0
LINE
  5
22579
330
18
100
AcDbEntity
  8
0
100
AcDbLine
 10
459.2178058685336
 20
-477.6096849334313
 30
0.0
 11
463.2178058685336
 21
-476.809694240613
 31
0.0
  0
LINE
  5
2257A
330
18
100
AcDbEntity
  8
0
100
AcDbLine
 10
459.2178058685336
 20
-466.4096849334269
 30
0.0
 11
463.2178058685336
 21
-465.6096942406043
 31
0.0
  0
LINE
  5
2257B
330
18
100
AcDbEntity
  8
0
100
AcDbLine
 10
459.2178058685336
 20
-463.2096849334268
 30
0.0
 11
463.2178058685336
 21
-462.4096942406043
 31
0.0
  0
LINE
  5
2257C
330
18
100
AcDbEntity
  8
0
100
AcDbLine
 10
463.2178058685336
 20
-462.4096942406043
 30
0.0
 11
462.7178058685336
 21
-462.309693077207
 31
0.0
  0
LINE
  5
2257D
330
18
100
AcDbEntity
  8
0
100
AcDbLine
 10
459.7178058685336
 20
-461.709686096824
 30
0.0
 11
459.2178058685336
 21
-461.6096849334268
 31
0.0
  0
LINE
  5
2257E
330
18
100
AcDbEntity
  8
0
100
AcDbLine
 10
463.2178058685336
 20
-465.6096942406043
 30
0.0
 11
462.7178058685336
 21
-465.5096930772071
 31
0.0
  0
LINE
  5
2257F
330
18
100
AcDbEntity
  8
0
100
AcDbLine
 10
463.2178058685336
 20
-464.0096942406042
 30
0.0
 11
462.7178058685336
 21
-463.9096930772071
 31
0.0
  0
LINE
  5
22580
330
18
100
AcDbEntity
  8
0
100
AcDbLine
 10
459.7178058685336
 20
-463.309686096824
 30
0.0
 11
459.2178058685336
 21
-463.2096849334268
 31
0.0
  0
LINE
  5
22581
330
18
100
AcDbEntity
  8
0
100
AcDbLine
 10
459.7178058685336
 20
-464.9096860968239
 30
0.0
 11
459.2178058685336
 21
-464.8096849334268
 31
0.0
  0
LINE
  5
22582
330
18
100
AcDbEntity
  8
0
100
AcDbLine
 10
459.2178058685336
 20
-464.8096849334268
 30
0.0
 11
463.2178058685336
 21
-464.0096942406042
 31
0.0
  0
LINE
  5
22583
330
18
100
AcDbEntity
  8
0
100
AcDbLine
 10
462.5385847119229
 20
-456.0096926601959
 30
0.0
 11
461.9868352481196
 21
-455.8269285175679
 31
0.0
  0
LINE
  5
22584
330
18
100
AcDbEntity
  8
0
100
AcDbLine
 10
463.2178058685336
 20
-459.2096942406042
 30
0.0
 11
462.7178058685336
 21
-459.1096930772071
 31
0.0
  0
LINE
  5
22585
330
18
100
AcDbEntity
  8
0
100
AcDbLine
 10
463.2178058685336
 20
-460.8096942406042
 30
0.0
 11
462.7178058685336
 21
-460.7096930772072
 31
0.0
  0
LINE
  5
22586
330
18
100
AcDbEntity
  8
0
100
AcDbLine
 10
462.9913988163296
 20
-457.6096937138016
 30
0.0
 11
462.4548050810585
 21
-457.4804230161717
 31
0.0
  0
LINE
  5
22587
330
18
100
AcDbEntity
  8
0
100
AcDbLine
 10
460.1387204657423
 20
-456.9224554993871
 30
0.0
 11
459.6706220105924
 21
-456.809685987037
 31
0.0
  0
LINE
  5
22588
330
18
100
AcDbEntity
  8
0
100
AcDbLine
 10
459.7178058685336
 20
-460.1096860968239
 30
0.0
 11
459.2178058685336
 21
-460.0096849334268
 31
0.0
  0
LINE
  5
22589
330
18
100
AcDbEntity
  8
0
100
AcDbLine
 10
459.7178058685336
 20
-458.509686096824
 30
0.0
 11
459.2178058685336
 21
-458.4096849334269
 31
0.0
  0
LINE
  5
2258A
330
18
100
AcDbEntity
  8
0
100
AcDbLine
 10
460.5806073592717
 20
-455.3611228370817
 30
0.0
 11
460.1234355186406
 21
-455.2096870406413
 31
0.0
  0
LINE
  5
2258B
330
18
100
AcDbEntity
  8
0
100
AcDbLine
 10
459.6706220105924
 20
-456.809685987037
 30
0.0
 11
462.5385847119229
 21
-456.0096926601959
 31
0.0
  0
LINE
  5
2258C
330
18
100
AcDbEntity
  8
0
100
AcDbLine
 10
459.2178058685336
 20
-460.0096849334268
 30
0.0
 11
463.2178058685336
 21
-459.2096942406042
 31
0.0
  0
LINE
  5
2258D
330
18
100
AcDbEntity
  8
0
100
AcDbLine
 10
459.2178058685336
 20
-458.4096849334269
 30
0.0
 11
462.9913988163296
 21
-457.6096937138016
 31
0.0
  0
LINE
  5
2258E
330
18
100
AcDbEntity
  8
0
100
AcDbLine
 10
459.2178058685336
 20
-461.6096849334268
 30
0.0
 11
463.2178058685336
 21
-460.8096942406042
 31
0.0
  0
LINE
  5
2258F
330
18
100
AcDbEntity
  8
0
100
AcDbLine
 10
459.2178058685336
 20
-474.4096849334312
 30
0.0
 11
463.2178058685336
 21
-473.609694240613
 31
0.0
  0
LINE
  5
22590
330
18
100
AcDbEntity
  8
0
100
AcDbLine
 10
463.2178058685336
 20
-473.609694240613
 30
0.0
 11
462.7178058685336
 21
-473.5096930772153
 31
0.0
  0
LINE
  5
22591
330
18
100
AcDbEntity
  8
0
100
AcDbLine
 10
459.7178058685336
 20
-472.9096860968245
 30
0.0
 11
459.2178058685336
 21
-472.8096849334269
 31
0.0
  0
LINE
  5
22592
330
18
100
AcDbEntity
  8
0
100
AcDbLine
 10
463.2178058685336
 20
-475.2096942406131
 30
0.0
 11
462.7178058685336
 21
-475.1096930772154
 31
0.0
  0
LINE
  5
22593
330
18
100
AcDbEntity
  8
0
100
AcDbLine
 10
463.2178058685336
 20
-476.809694240613
 30
0.0
 11
462.7178058685336
 21
-476.7096930772153
 31
0.0
  0
LINE
  5
22594
330
18
100
AcDbEntity
  8
0
100
AcDbLine
 10
459.7178058685336
 20
-474.5096860968289
 30
0.0
 11
459.2178058685336
 21
-474.4096849334312
 31
0.0
  0
LINE
  5
22595
330
18
100
AcDbEntity
  8
0
100
AcDbLine
 10
459.7178058685336
 20
-476.109686096829
 30
0.0
 11
459.2178058685336
 21
-476.0096849334313
 31
0.0
  0
LINE
  5
22596
330
18
100
AcDbEntity
  8
0
100
AcDbLine
 10
459.2178058685336
 20
-476.0096849334313
 30
0.0
 11
463.2178058685336
 21
-475.2096942406131
 31
0.0
  0
LINE
  5
22597
330
18
100
AcDbEntity
  8
0
100
AcDbLine
 10
463.2178058685336
 20
-468.8096942406086
 30
0.0
 11
462.7178058685336
 21
-468.7096930772109
 31
0.0
  0
LINE
  5
22598
330
18
100
AcDbEntity
  8
0
100
AcDbLine
 10
463.2178058685336
 20
-467.2096942406042
 30
0.0
 11
462.7178058685336
 21
-467.1096930772071
 31
0.0
  0
LINE
  5
22599
330
18
100
AcDbEntity
  8
0
100
AcDbLine
 10
463.2178058685336
 20
-472.0096942406086
 30
0.0
 11
462.7178058685336
 21
-471.9096930772109
 31
0.0
  0
LINE
  5
2259A
330
18
100
AcDbEntity
  8
0
100
AcDbLine
 10
463.2178058685336
 20
-470.4096942406087
 30
0.0
 11
462.7178058685336
 21
-470.309693077211
 31
0.0
  0
LINE
  5
2259B
330
18
100
AcDbEntity
  8
0
100
AcDbLine
 10
459.7178058685336
 20
-466.509686096824
 30
0.0
 11
459.2178058685336
 21
-466.4096849334269
 31
0.0
  0
LINE
  5
2259C
330
18
100
AcDbEntity
  8
0
100
AcDbLine
 10
459.7178058685336
 20
-468.1096860968246
 30
0.0
 11
459.2178058685336
 21
-468.0096849334268
 31
0.0
  0
LINE
  5
2259D
330
18
100
AcDbEntity
  8
0
100
AcDbLine
 10
459.7178058685336
 20
-471.3096860968246
 30
0.0
 11
459.2178058685336
 21
-471.209684933427
 31
0.0
  0
LINE
  5
2259E
330
18
100
AcDbEntity
  8
0
100
AcDbLine
 10
459.7178058685336
 20
-469.7096860968245
 30
0.0
 11
459.2178058685336
 21
-469.6096849334268
 31
0.0
  0
LINE
  5
2259F
330
18
100
AcDbEntity
  8
0
100
AcDbLine
 10
459.2178058685336
 20
-469.6096849334268
 30
0.0
 11
463.2178058685336
 21
-468.8096942406086
 31
0.0
  0
LINE
  5
225A0
330
18
100
AcDbEntity
  8
0
100
AcDbLine
 10
459.2178058685336
 20
-468.0096849334268
 30
0.0
 11
463.2178058685336
 21
-467.2096942406042
 31
0.0
  0
LINE
  5
225A1
330
18
100
AcDbEntity
  8
0
100
AcDbLine
 10
459.2178058685336
 20
-471.209684933427
 30
0.0
 11
463.2178058685336
 21
-470.4096942406087
 31
0.0
  0
LINE
  5
225A2
330
18
100
AcDbEntity
  8
0
100
AcDbLine
 10
459.2178058685336
 20
-472.8096849334269
 30
0.0
 11
463.2178058685336
 21
-472.0096942406086
 31
0.0
  0
LINE
  5
225A3
330
18
100
AcDbEntity
  8
0
100
AcDbLine
 10
459.7178058685336
 20
-482.5096860968331
 30
0.0
 11
459.2178058685336
 21
-482.4096849334354
 31
0.0
  0
LINE
  5
225A4
330
18
100
AcDbEntity
  8
0
100
AcDbLine
 10
459.2178058685336
 20
-482.4096849334354
 30
0.0
 11
463.2178058685336
 21
-481.6096942406172
 31
0.0
  0
LINE
  5
225A5
330
18
100
AcDbEntity
  8
0
100
AcDbLine
 10
463.2178058685336
 20
-481.6096942406172
 30
0.0
 11
462.7178058685336
 21
-481.5096930772195
 31
0.0
  0
LINE
  5
225A6
330
18
100
AcDbEntity
  8
0
100
AcDbLine
 10
459.7178058685336
 20
-480.9096860968332
 30
0.0
 11
459.2178058685336
 21
-480.8096849334355
 31
0.0
  0
LINE
  5
225A7
330
18
100
AcDbEntity
  8
0
100
AcDbLine
 10
459.7178058685336
 20
-479.3096860968333
 30
0.0
 11
459.2178058685336
 21
-479.2096849334356
 31
0.0
  0
LINE
  5
225A8
330
18
100
AcDbEntity
  8
0
100
AcDbLine
 10
459.2178058685336
 20
-479.2096849334356
 30
0.0
 11
463.2178058685336
 21
-478.4096942406173
 31
0.0
  0
LINE
  5
225A9
330
18
100
AcDbEntity
  8
0
100
AcDbLine
 10
463.2178058685336
 20
-480.0096942406173
 30
0.0
 11
462.7178058685336
 21
-479.9096930772196
 31
0.0
  0
LINE
  5
225AA
330
18
100
AcDbEntity
  8
0
100
AcDbLine
 10
463.2178058685336
 20
-478.4096942406173
 30
0.0
 11
462.7178058685336
 21
-478.3096930772197
 31
0.0
  0
LINE
  5
225AB
330
18
100
AcDbEntity
  8
0
100
AcDbLine
 10
459.2178058685336
 20
-480.8096849334355
 30
0.0
 11
463.2178058685336
 21
-480.0096942406173
 31
0.0
  0
LINE
  5
225AC
330
18
100
AcDbEntity
  8
0
100
AcDbLine
 10
459.7178058685336
 20
-477.7096860968289
 30
0.0
 11
459.2178058685336
 21
-477.6096849334313
 31
0.0
  0
LINE
  5
225AD
330
18
100
AcDbEntity
  8
0
100
AcDbLine
 10
459.7178058685336
 20
-484.109686096833
 30
0.0
 11
459.2178058685336
 21
-484.0096849334353
 31
0.0
  0
LINE
  5
225AE
330
18
100
AcDbEntity
  8
0
100
AcDbLine
 10
459.2178058685336
 20
-484.0096849334353
 30
0.0
 11
463.2178058685336
 21
-483.2096942406171
 31
0.0
  0
LINE
  5
225AF
330
18
100
AcDbEntity
  8
0
100
AcDbLine
 10
463.2178058685336
 20
-483.2096942406171
 30
0.0
 11
462.7178058685336
 21
-483.1096930772194
 31
0.0
  0
LINE
  5
225B0
330
18
100
AcDbEntity
  8
0
100
AcDbLine
 10
459.7178058685336
 20
-485.7096860968329
 30
0.0
 11
459.2178058685336
 21
-485.6096849334352
 31
0.0
  0
LINE
  5
225B1
330
18
100
AcDbEntity
  8
0
100
AcDbLine
 10
459.2178058685336
 20
-485.6096849334352
 30
0.0
 11
463.2178058685336
 21
-484.809694240617
 31
0.0
  0
LINE
  5
225B2
330
18
100
AcDbEntity
  8
0
100
AcDbLine
 10
463.2178058685336
 20
-484.809694240617
 30
0.0
 11
462.7178058685336
 21
-484.7096930772194
 31
0.0
  0
LINE
  5
225B3
330
18
100
AcDbEntity
  8
0
100
AcDbLine
 10
459.7178058685336
 20
-487.3096860968328
 30
0.0
 11
459.2178058685336
 21
-487.2096849334351
 31
0.0
  0
LINE
  5
225B4
330
18
100
AcDbEntity
  8
0
100
AcDbLine
 10
459.2178058685336
 20
-487.2096849334351
 30
0.0
 11
463.2178058685336
 21
-486.4096942406169
 31
0.0
  0
LINE
  5
225B5
330
18
100
AcDbEntity
  8
0
100
AcDbLine
 10
463.2178058685336
 20
-486.4096942406169
 30
0.0
 11
462.7178058685336
 21
-486.3096930772193
 31
0.0
  0
LINE
  5
225B6
330
18
100
AcDbEntity
  8
0
100
AcDbLine
 10
715.2177593324732
 20
-586.1097361195946
 30
0.0
 11
709.9177628226115
 21
-584.6097361195946
 31
0.0
  0
LINE
  5
225B7
330
18
100
AcDbEntity
  8
0
100
AcDbLine
 10
709.9177628226115
 20
-584.6097361195946
 30
0.0
 11
680.2177628227196
 21
-584.6097361195948
 31
0.0
  0
LINE
  5
225B8
330
18
100
AcDbEntity
  8
0
100
AcDbLine
 10
715.2177593324732
 20
-586.1097361195946
 30
0.0
 11
709.9177558422278
 21
-587.6097361195947
 31
0.0
  0
LINE
  5
225B9
330
18
100
AcDbEntity
  8
0
100
AcDbLine
 10
680.2177674764177
 20
-582.6096895836968
 30
0.0
 11
680.2177511888533
 21
-589.6096895836966
 31
0.0
  0
LINE
  5
225BA
330
18
100
AcDbEntity
  8
0
100
AcDbLine
 10
709.9177558422278
 20
-587.6097361195947
 30
0.0
 11
680.2177558423349
 21
-587.6097361195948
 31
0.0
  0
LINE
  5
225BB
330
18
100
AcDbEntity
  8
0
100
AcDbLine
 10
680.2177674764177
 20
-582.6096895836968
 30
0.0
 11
679.1177639862224
 21
-582.6096895836966
 31
0.0
  0
ARC
  5
225BC
330
18
100
AcDbEntity
  8
0
100
AcDbCircle
 10
679.1177639862224
 20
-584.1096895836966
 30
0.0
 40
1.5
100
AcDbArc
 50
90.0
 51
179.9998666844663
  0
LINE
  5
225BD
330
18
100
AcDbEntity
  8
0
100
AcDbLine
 10
680.2177511888533
 20
-589.6096895836966
 30
0.0
 11
679.1177546790427
 21
-589.6096895836966
 31
0.0
  0
LINE
  5
225BE
330
18
100
AcDbEntity
  8
0
100
AcDbLine
 10
677.6177639862265
 20
-584.1096860935043
 30
0.0
 11
677.6177546790468
 21
-588.1096860935043
 31
0.0
  0
ARC
  5
225BF
330
18
100
AcDbEntity
  8
0
100
AcDbCircle
 10
679.1177546790427
 20
-588.1096895836966
 30
0.0
 40
1.5
100
AcDbArc
 50
179.9998666844663
 51
270.0
  0
LINE
  5
225C0
330
18
100
AcDbEntity
  8
1CENTER
100
AcDbLine
 10
716.6485542499386
 20
-586.1096895836966
 30
0.0
 11
676.5474829233267
 21
-586.1096895836966
 31
0.0
  0
LINE
  5
225C1
330
18
100
AcDbEntity
  8
0
100
AcDbLine
 10
713.1177618787954
 20
-585.0153657697016
 30
0.0
 11
713.9177573128463
 21
-586.977700858577
 31
0.0
  0
LINE
  5
225C2
330
18
100
AcDbEntity
  8
0
100
AcDbLine
 10
713.9177573128463
 20
-586.977700858577
 30
0.0
 11
714.2295271690984
 21
-586.3894242835346
 31
0.0
  0
LINE
  5
225C3
330
18
100
AcDbEntity
  8
0
100
AcDbLine
 10
690.7177639860054
 20
-584.1097361195946
 30
0.0
 11
691.5177546788236
 21
-588.1097361195946
 31
0.0
  0
LINE
  5
225C4
330
18
100
AcDbEntity
  8
0
100
AcDbLine
 10
701.9177639860097
 20
-584.1097361195946
 30
0.0
 11
702.7177546788323
 21
-588.1097361195946
 31
0.0
  0
LINE
  5
225C5
330
18
100
AcDbEntity
  8
0
100
AcDbLine
 10
705.1177639860098
 20
-584.1097361195946
 30
0.0
 11
705.9177546788324
 21
-588.1097361195946
 31
0.0
  0
LINE
  5
225C6
330
18
100
AcDbEntity
  8
0
100
AcDbLine
 10
705.9177546788324
 20
-588.1097361195946
 30
0.0
 11
706.0177558422296
 21
-587.6097361195946
 31
0.0
  0
LINE
  5
225C7
330
18
100
AcDbEntity
  8
0
100
AcDbLine
 10
706.6177628226126
 20
-584.6097361195946
 30
0.0
 11
706.7177639860098
 21
-584.1097361195946
 31
0.0
  0
LINE
  5
225C8
330
18
100
AcDbEntity
  8
0
100
AcDbLine
 10
702.7177546788323
 20
-588.1097361195946
 30
0.0
 11
702.8177558422295
 21
-587.6097361195946
 31
0.0
  0
LINE
  5
225C9
330
18
100
AcDbEntity
  8
0
100
AcDbLine
 10
704.3177546788324
 20
-588.1097361195946
 30
0.0
 11
704.4177558422296
 21
-587.6097361195946
 31
0.0
  0
LINE
  5
225CA
330
18
100
AcDbEntity
  8
0
100
AcDbLine
 10
705.0177628226127
 20
-584.6097361195946
 30
0.0
 11
705.1177639860098
 21
-584.1097361195946
 31
0.0
  0
LINE
  5
225CB
330
18
100
AcDbEntity
  8
0
100
AcDbLine
 10
703.4177628226128
 20
-584.6097361195946
 30
0.0
 11
703.5177639860099
 21
-584.1097361195946
 31
0.0
  0
LINE
  5
225CC
330
18
100
AcDbEntity
  8
0
100
AcDbLine
 10
703.5177639860099
 20
-584.1097361195946
 30
0.0
 11
704.3177546788324
 21
-588.1097361195946
 31
0.0
  0
LINE
  5
225CD
330
18
100
AcDbEntity
  8
0
100
AcDbLine
 10
712.3177562592407
 20
-587.4305149629838
 30
0.0
 11
712.5005204018687
 21
-586.8787654991805
 31
0.0
  0
LINE
  5
225CE
330
18
100
AcDbEntity
  8
0
100
AcDbLine
 10
709.1177546788324
 20
-588.1097361195946
 30
0.0
 11
709.2177558422295
 21
-587.6097361195946
 31
0.0
  0
LINE
  5
225CF
330
18
100
AcDbEntity
  8
0
100
AcDbLine
 10
707.5177546788324
 20
-588.1097361195946
 30
0.0
 11
707.6177558422294
 21
-587.6097361195946
 31
0.0
  0
LINE
  5
225D0
330
18
100
AcDbEntity
  8
0
100
AcDbLine
 10
710.7177552056351
 20
-587.8833290673906
 30
0.0
 11
710.8470259032649
 21
-587.3467353321195
 31
0.0
  0
LINE
  5
225D1
330
18
100
AcDbEntity
  8
0
100
AcDbLine
 10
711.4049934200495
 20
-585.0306507168033
 30
0.0
 11
711.5177629323996
 21
-584.5625522616533
 31
0.0
  0
LINE
  5
225D2
330
18
100
AcDbEntity
  8
0
100
AcDbLine
 10
708.2177628226127
 20
-584.6097361195946
 30
0.0
 11
708.3177639860098
 21
-584.1097361195946
 31
0.0
  0
LINE
  5
225D3
330
18
100
AcDbEntity
  8
0
100
AcDbLine
 10
709.8177628226126
 20
-584.6097361195946
 30
0.0
 11
709.9177639860097
 21
-584.1097361195946
 31
0.0
  0
LINE
  5
225D4
330
18
100
AcDbEntity
  8
0
100
AcDbLine
 10
712.966326082355
 20
-585.4725376103327
 30
0.0
 11
713.1177618787954
 21
-585.0153657697016
 31
0.0
  0
LINE
  5
225D5
330
18
100
AcDbEntity
  8
0
100
AcDbLine
 10
711.5177629323996
 20
-584.5625522616533
 30
0.0
 11
712.3177562592407
 21
-587.4305149629838
 31
0.0
  0
LINE
  5
225D6
330
18
100
AcDbEntity
  8
0
100
AcDbLine
 10
708.3177639860098
 20
-584.1097361195946
 30
0.0
 11
709.1177546788324
 21
-588.1097361195946
 31
0.0
  0
LINE
  5
225D7
330
18
100
AcDbEntity
  8
0
100
AcDbLine
 10
709.9177639860097
 20
-584.1097361195946
 30
0.0
 11
710.7177552056351
 21
-587.8833290673906
 31
0.0
  0
LINE
  5
225D8
330
18
100
AcDbEntity
  8
0
100
AcDbLine
 10
706.7177639860098
 20
-584.1097361195946
 30
0.0
 11
707.5177546788324
 21
-588.1097361195946
 31
0.0
  0
LINE
  5
225D9
330
18
100
AcDbEntity
  8
0
100
AcDbLine
 10
693.9177639860054
 20
-584.1097361195946
 30
0.0
 11
694.7177546788237
 21
-588.1097361195946
 31
0.0
  0
LINE
  5
225DA
330
18
100
AcDbEntity
  8
0
100
AcDbLine
 10
694.7177546788237
 20
-588.1097361195946
 30
0.0
 11
694.8177558422213
 21
-587.6097361195946
 31
0.0
  0
LINE
  5
225DB
330
18
100
AcDbEntity
  8
0
100
AcDbLine
 10
695.4177628226121
 20
-584.6097361195946
 30
0.0
 11
695.5177639860098
 21
-584.1097361195946
 31
0.0
  0
LINE
  5
225DC
330
18
100
AcDbEntity
  8
0
100
AcDbLine
 10
693.1177546788235
 20
-588.1097361195946
 30
0.0
 11
693.2177558422212
 21
-587.6097361195946
 31
0.0
  0
LINE
  5
225DD
330
18
100
AcDbEntity
  8
0
100
AcDbLine
 10
691.5177546788236
 20
-588.1097361195946
 30
0.0
 11
691.6177558422213
 21
-587.6097361195946
 31
0.0
  0
LINE
  5
225DE
330
18
100
AcDbEntity
  8
0
100
AcDbLine
 10
693.8177628226077
 20
-584.6097361195946
 30
0.0
 11
693.9177639860054
 21
-584.1097361195946
 31
0.0
  0
LINE
  5
225DF
330
18
100
AcDbEntity
  8
0
100
AcDbLine
 10
692.2177628226076
 20
-584.6097361195946
 30
0.0
 11
692.3177639860053
 21
-584.1097361195946
 31
0.0
  0
LINE
  5
225E0
330
18
100
AcDbEntity
  8
0
100
AcDbLine
 10
692.3177639860053
 20
-584.1097361195946
 30
0.0
 11
693.1177546788235
 21
-588.1097361195946
 31
0.0
  0
LINE
  5
225E1
330
18
100
AcDbEntity
  8
0
100
AcDbLine
 10
699.517754678828
 20
-588.1097361195946
 30
0.0
 11
699.6177558422257
 21
-587.6097361195946
 31
0.0
  0
LINE
  5
225E2
330
18
100
AcDbEntity
  8
0
100
AcDbLine
 10
701.1177546788324
 20
-588.1097361195946
 30
0.0
 11
701.2177558422295
 21
-587.6097361195946
 31
0.0
  0
LINE
  5
225E3
330
18
100
AcDbEntity
  8
0
100
AcDbLine
 10
696.317754678828
 20
-588.1097361195946
 30
0.0
 11
696.4177558422257
 21
-587.6097361195946
 31
0.0
  0
LINE
  5
225E4
330
18
100
AcDbEntity
  8
0
100
AcDbLine
 10
697.9177546788279
 20
-588.1097361195946
 30
0.0
 11
698.0177558422256
 21
-587.6097361195946
 31
0.0
  0
LINE
  5
225E5
330
18
100
AcDbEntity
  8
0
100
AcDbLine
 10
701.8177628226126
 20
-584.6097361195946
 30
0.0
 11
701.9177639860097
 21
-584.1097361195946
 31
0.0
  0
LINE
  5
225E6
330
18
100
AcDbEntity
  8
0
100
AcDbLine
 10
700.217762822612
 20
-584.6097361195946
 30
0.0
 11
700.3177639860098
 21
-584.1097361195946
 31
0.0
  0
LINE
  5
225E7
330
18
100
AcDbEntity
  8
0
100
AcDbLine
 10
697.017762822612
 20
-584.6097361195946
 30
0.0
 11
697.1177639860097
 21
-584.1097361195946
 31
0.0
  0
LINE
  5
225E8
330
18
100
AcDbEntity
  8
0
100
AcDbLine
 10
698.6177628226121
 20
-584.6097361195946
 30
0.0
 11
698.7177639860098
 21
-584.1097361195946
 31
0.0
  0
LINE
  5
225E9
330
18
100
AcDbEntity
  8
0
100
AcDbLine
 10
698.7177639860098
 20
-584.1097361195946
 30
0.0
 11
699.517754678828
 21
-588.1097361195946
 31
0.0
  0
LINE
  5
225EA
330
18
100
AcDbEntity
  8
0
100
AcDbLine
 10
700.3177639860098
 20
-584.1097361195946
 30
0.0
 11
701.1177546788324
 21
-588.1097361195946
 31
0.0
  0
LINE
  5
225EB
330
18
100
AcDbEntity
  8
0
100
AcDbLine
 10
697.1177639860097
 20
-584.1097361195946
 30
0.0
 11
697.9177546788279
 21
-588.1097361195946
 31
0.0
  0
LINE
  5
225EC
330
18
100
AcDbEntity
  8
0
100
AcDbLine
 10
695.5177639860098
 20
-584.1097361195946
 30
0.0
 11
696.317754678828
 21
-588.1097361195946
 31
0.0
  0
LINE
  5
225ED
330
18
100
AcDbEntity
  8
0
100
AcDbLine
 10
685.8177628226035
 20
-584.6097361195946
 30
0.0
 11
685.9177639860012
 21
-584.1097361195946
 31
0.0
  0
LINE
  5
225EE
330
18
100
AcDbEntity
  8
0
100
AcDbLine
 10
685.9177639860012
 20
-584.1097361195946
 30
0.0
 11
686.7177546788195
 21
-588.1097361195946
 31
0.0
  0
LINE
  5
225EF
330
18
100
AcDbEntity
  8
0
100
AcDbLine
 10
686.7177546788195
 20
-588.1097361195946
 30
0.0
 11
686.8177558422171
 21
-587.6097361195946
 31
0.0
  0
LINE
  5
225F0
330
18
100
AcDbEntity
  8
0
100
AcDbLine
 10
687.4177628226034
 20
-584.6097361195946
 30
0.0
 11
687.5177639860011
 21
-584.1097361195946
 31
0.0
  0
LINE
  5
225F1
330
18
100
AcDbEntity
  8
0
100
AcDbLine
 10
689.0177628226033
 20
-584.6097361195946
 30
0.0
 11
689.117763986001
 21
-584.1097361195946
 31
0.0
  0
LINE
  5
225F2
330
18
100
AcDbEntity
  8
0
100
AcDbLine
 10
689.117763986001
 20
-584.1097361195946
 30
0.0
 11
689.9177546788193
 21
-588.1097361195946
 31
0.0
  0
LINE
  5
225F3
330
18
100
AcDbEntity
  8
0
100
AcDbLine
 10
688.3177546788194
 20
-588.1097361195946
 30
0.0
 11
688.417755842217
 21
-587.6097361195946
 31
0.0
  0
LINE
  5
225F4
330
18
100
AcDbEntity
  8
0
100
AcDbLine
 10
689.9177546788193
 20
-588.1097361195946
 30
0.0
 11
690.017755842217
 21
-587.6097361195946
 31
0.0
  0
LINE
  5
225F5
330
18
100
AcDbEntity
  8
0
100
AcDbLine
 10
687.5177639860011
 20
-584.1097361195946
 30
0.0
 11
688.3177546788194
 21
-588.1097361195946
 31
0.0
  0
LINE
  5
225F6
330
18
100
AcDbEntity
  8
0
100
AcDbLine
 10
690.6177628226077
 20
-584.6097361195946
 30
0.0
 11
690.7177639860054
 21
-584.1097361195946
 31
0.0
  0
LINE
  5
225F7
330
18
100
AcDbEntity
  8
0
100
AcDbLine
 10
684.2177628226036
 20
-584.6097361195946
 30
0.0
 11
684.3177639860013
 21
-584.1097361195946
 31
0.0
  0
LINE
  5
225F8
330
18
100
AcDbEntity
  8
0
100
AcDbLine
 10
684.3177639860013
 20
-584.1097361195946
 30
0.0
 11
685.1177546788196
 21
-588.1097361195946
 31
0.0
  0
LINE
  5
225F9
330
18
100
AcDbEntity
  8
0
100
AcDbLine
 10
685.1177546788196
 20
-588.1097361195946
 30
0.0
 11
685.2177558422172
 21
-587.6097361195946
 31
0.0
  0
LINE
  5
225FA
330
18
100
AcDbEntity
  8
0
100
AcDbLine
 10
682.6177628226037
 20
-584.6097361195946
 30
0.0
 11
682.7177639860014
 21
-584.1097361195946
 31
0.0
  0
LINE
  5
225FB
330
18
100
AcDbEntity
  8
0
100
AcDbLine
 10
682.7177639860014
 20
-584.1097361195946
 30
0.0
 11
683.5177546788196
 21
-588.1097361195946
 31
0.0
  0
LINE
  5
225FC
330
18
100
AcDbEntity
  8
0
100
AcDbLine
 10
683.5177546788196
 20
-588.1097361195946
 30
0.0
 11
683.6177558422173
 21
-587.6097361195946
 31
0.0
  0
LINE
  5
225FD
330
18
100
AcDbEntity
  8
0
100
AcDbLine
 10
681.0177628226038
 20
-584.6097361195946
 30
0.0
 11
681.1177639860015
 21
-584.1097361195946
 31
0.0
  0
LINE
  5
225FE
330
18
100
AcDbEntity
  8
0
100
AcDbLine
 10
681.1177639860015
 20
-584.1097361195946
 30
0.0
 11
681.9177546788197
 21
-588.1097361195946
 31
0.0
  0
LINE
  5
225FF
330
18
100
AcDbEntity
  8
0
100
AcDbLine
 10
681.9177546788197
 20
-588.1097361195946
 30
0.0
 11
682.0177558422174
 21
-587.6097361195946
 31
0.0
  0
LINE
  5
22600
330
18
100
AcDbEntity
  8
1DIM
100
AcDbLine
 10
461.2177593326294
 20
-591.3096895868011
 30
0.0
 11
461.2177593326294
 21
-631.7096895868024
 31
0.0
1001
ACAD
1000
DSTYLE
1002
{
1070
    45
1040
0.5
1002
}
  0
LINE
  5
22601
330
18
100
AcDbEntity
  8
1DIM
100
AcDbLine
 10
479.2177593326294
 20
-591.3096895868011
 30
0.0
 11
479.2177593326294
 21
-631.7096895868024
 31
0.0
1001
ACAD
1000
DSTYLE
1002
{
1070
    45
1040
0.5
1002
}
  0
LINE
  5
22602
330
18
100
AcDbEntity
  8
1DIM
100
AcDbLine
 10
463.2177593326294
 20
-630.7096895868024
 30
0.0
 11
477.2177593326294
 21
-630.7096895868024
 31
0.0
1001
ACAD
1000
DSTYLE
1002
{
1070
    45
1040
0.5
1002
}
  0
LINE
  5
22606
330
18
100
AcDbEntity
  8
1DIM
100
AcDbLine
 10
364.7177593326346
 20
-585.109689586801
 30
0.0
 11
364.7177593326346
 21
-544.109689586801
 31
0.0
1001
ACAD
1000
DSTYLE
1002
{
1070
    45
1040
0.5
1002
}
  0
LINE
  5
22607
330
18
100
AcDbEntity
  8
1DIM
100
AcDbLine
 10
575.7177593326364
 20
-585.1096895868011
 30
0.0
 11
575.7177593326364
 21
-544.109689586801
 31
0.0
1001
ACAD
1000
DSTYLE
1002
{
1070
    45
1040
0.5
1002
}
  0
LINE
  5
22608
330
18
100
AcDbEntity
  8
1DIM
100
AcDbLine
 10
366.7177593326346
 20
-545.109689586801
 30
0.0
 11
573.7177593326364
 21
-545.109689586801
 31
0.0
1001
ACAD
1000
DSTYLE
1002
{
1070
    45
1040
0.5
1002
}
  0
LINE
  5
2260C
330
18
100
AcDbEntity
  8
1DIM
100
AcDbLine
 10
470.2177593326347
 20
-572.109689586801
 30
0.0
 11
595.3646108450052
 21
-572.109689586801
 31
0.0
1001
ACAD
1000
DSTYLE
1002
{
1070
    45
1040
0.5
1002
}
  0
LINE
  5
2260D
330
18
100
AcDbEntity
  8
1DIM
100
AcDbLine
 10
567.7177593326346
 20
-622.109689586801
 30
0.0
 11
595.3646108450052
 21
-622.109689586801
 31
0.0
1001
ACAD
1000
DSTYLE
1002
{
1070
    45
1040
0.5
1002
}
  0
LINE
  5
2260E
330
18
100
AcDbEntity
  8
1DIM
100
AcDbLine
 10
594.3646108450052
 20
-574.109689586801
 30
0.0
 11
594.3646108450052
 21
-620.109689586801
 31
0.0
1001
ACAD
1000
DSTYLE
1002
{
1070
    45
1040
0.5
1002
}
  0
LINE
  5
22612
330
18
100
AcDbEntity
  8
1CENTER
100
AcDbLine
 10
665.2177593326346
 20
-573.0580146868011
 30
0.0
 11
665.2177593326346
 21
-581.2184585868011
 31
0.0
  0
LINE
  5
22614
330
18
100
AcDbEntity
  8
1HATCH
100
AcDbLine
 10
667.2177593326346
 20
-575.0096896868012
 30
0.0
 11
663.2177593326346
 21
-575.0096896868012
 31
0.0
  0
LINE
  5
22615
330
18
100
AcDbEntity
  8
1HATCH
100
AcDbLine
 10
663.5677593326346
 20
-574.6596896868011
 30
0.0
 11
663.5677593326346
 21
-578.0096896868012
 31
0.0
  0
LINE
  5
22616
330
18
100
AcDbEntity
  8
1HATCH
100
AcDbLine
 10
666.8677593326346
 20
-574.6596896868011
 30
0.0
 11
666.8677593326346
 21
-578.0096896868012
 31
0.0
  0
LINE
  5
22617
330
18
100
AcDbEntity
  8
1HATCH
100
AcDbLine
 10
668.2177593326346
 20
-579.3596896768012
 30
0.0
 11
662.2177593326346
 21
-579.359689676801
 31
0.0
  0
LINE
  5
22618
330
18
100
AcDbEntity
  8
1HATCH
100
AcDbLine
 10
666.8677593326346
 20
-578.0096896868012
 30
0.0
 11
667.2177593326346
 21
-578.3596895127271
 31
0.0
  0
LINE
  5
22619
330
18
100
AcDbEntity
  8
1HATCH
100
AcDbLine
 10
663.2177593326346
 20
-578.3596895127271
 30
0.0
 11
663.5677593326346
 21
-578.0096896868012
 31
0.0
  0
LINE
  5
2261A
330
18
100
AcDbEntity
  8
1DIM
100
AcDbLine
 10
574.7177593326364
 20
-538.1096895868019
 30
0.0
 11
584.2625453580488
 21
-538.1096895868019
 31
0.0
  0
LINE
  5
2261B
330
18
100
AcDbEntity
  8
1DIM
100
AcDbLine
 10
574.7177593326364
 20
-520.1096895868021
 30
0.0
 11
584.2625453580488
 21
-520.1096895868021
 31
0.0
  0
LINE
  5
2261C
330
18
100
AcDbEntity
  8
1DIM
100
AcDbLine
 10
583.2625453580488
 20
-536.1096895868019
 30
0.0
 11
583.2625453580488
 21
-522.1096895868021
 31
0.0
  0
LINE
  5
22620
330
18
100
AcDbEntity
  8
1DIM
100
AcDbLine
 10
564.7177593326346
 20
-614.109689586801
 30
0.0
 11
583.9945961680487
 21
-614.109689586801
 31
0.0
  0
LINE
  5
22621
330
18
100
AcDbEntity
  8
1DIM
100
AcDbLine
 10
564.7177593326346
 20
-580.109689586801
 30
0.0
 11
583.9945961680487
 21
-580.109689586801
 31
0.0
  0
LINE
  5
22622
330
18
100
AcDbEntity
  8
1DIM
100
AcDbLine
 10
582.9945961680487
 20
-612.109689586801
 30
0.0
 11
582.9945961680487
 21
-582.109689586801
 31
0.0
  0
LINE
  5
22626
330
18
100
AcDbEntity
  8
1DIM
100
AcDbLine
 10
372.7177593326346
 20
-583.109689586801
 30
0.0
 11
372.7177593326346
 21
-555.2789844887138
 31
0.0
  0
LINE
  5
22627
330
18
100
AcDbEntity
  8
1DIM
100
AcDbLine
 10
567.7177593326346
 20
-583.109689586801
 30
0.0
 11
567.7177593326346
 21
-555.2789844887138
 31
0.0
  0
LINE
  5
22628
330
18
100
AcDbEntity
  8
1DIM
100
AcDbLine
 10
374.7177593326346
 20
-556.2789844887138
 30
0.0
 11
565.7177593326346
 21
-556.2789844887138
 31
0.0
  0
LINE
  5
2262C
330
18
100
AcDbEntity
  8
0
  6
BYBLOCK
100
AcDbLine
 10
654.9352938130072
 20
-571.4440727284956
 30
0.0
 11
654.889389641997
 21
-573.514116177501
 31
0.0
  0
LINE
  5
2262D
330
18
100
AcDbEntity
  8
0
  6
BYBLOCK
100
AcDbLine
 10
654.889389641997
 20
-573.514116177501
 30
0.0
 11
653.8941221039656
 21
-571.6984538737046
 31
0.0
  0
LINE
  5
2262E
330
18
100
AcDbEntity
  8
0
  6
BYBLOCK
100
AcDbLine
 10
654.889389641997
 20
-573.514116177501
 30
0.0
 11
654.4147079584864
 21
-571.5712633011001
 31
0.0
  0
LINE
  5
2262F
330
18
100
AcDbEntity
  8
0
  6
BYBLOCK
100
AcDbLine
 10
632.2177593326346
 20
-535.645587966801
 30
0.0
 11
630.2177593326346
 21
-535.109689586801
 31
0.0
  0
LINE
  5
22630
330
18
100
AcDbEntity
  8
0
  6
BYBLOCK
100
AcDbLine
 10
630.2177593326346
 20
-535.109689586801
 30
0.0
 11
632.2177593326346
 21
-534.5737912068009
 31
0.0
  0
LINE
  5
22631
330
18
100
AcDbEntity
  8
0
  6
BYBLOCK
100
AcDbLine
 10
630.2177593326346
 20
-535.109689586801
 30
0.0
 11
632.2177593326346
 21
-535.109689586801
 31
0.0
  0
LINE
  5
22632
330
18
100
AcDbEntity
  8
0
  6
BYBLOCK
100
AcDbLine
 10
681.2177593326364
 20
-534.5737912068009
 30
0.0
 11
683.2177593326364
 21
-535.109689586801
 31
0.0
  0
LINE
  5
22633
330
18
100
AcDbEntity
  8
0
  6
BYBLOCK
100
AcDbLine
 10
683.2177593326364
 20
-535.109689586801
 30
0.0
 11
681.2177593326364
 21
-535.645587966801
 31
0.0
  0
LINE
  5
22634
330
18
100
AcDbEntity
  8
0
  6
BYBLOCK
100
AcDbLine
 10
683.2177593326364
 20
-535.109689586801
 30
0.0
 11
681.2177593326364
 21
-535.109689586801
 31
0.0
  0
TEXT
  5
22635
330
18
100
AcDbEntity
  8
1DIM
  6
CONTINUOUS
100
AcDbText
 10
653.7889398881911
 20
-534.409689586801
 30
0.0
 40
3.5
  1
53
100
AcDbText
1001
ACAD
1000
DSTYLE
1002
{
1070
    45
1040
0.5
1002
}
  0
LINE
  5
22636
330
18
100
AcDbEntity
  8
0
  6
BYBLOCK
100
AcDbLine
 10
681.2177593326364
 20
-630.1737912068023
 30
0.0
 11
683.2177593326364
 21
-630.7096895868024
 31
0.0
  0
LINE
  5
22637
330
18
100
AcDbEntity
  8
0
  6
BYBLOCK
100
AcDbLine
 10
683.2177593326364
 20
-630.7096895868024
 30
0.0
 11
681.2177593326364
 21
-631.2455879668024
 31
0.0
  0
LINE
  5
22638
330
18
100
AcDbEntity
  8
0
  6
BYBLOCK
100
AcDbLine
 10
683.2177593326364
 20
-630.7096895868024
 30
0.0
 11
681.2177593326364
 21
-630.7096895868024
 31
0.0
  0
LINE
  5
22639
330
18
100
AcDbEntity
  8
0
  6
BYBLOCK
100
AcDbLine
 10
667.2177593326346
 20
-631.2455879668024
 30
0.0
 11
665.2177593326346
 21
-630.7096895868024
 31
0.0
  0
LINE
  5
2263A
330
18
100
AcDbEntity
  8
0
  6
BYBLOCK
100
AcDbLine
 10
665.2177593326346
 20
-630.7096895868024
 30
0.0
 11
667.2177593326346
 21
-630.1737912068023
 31
0.0
  0
LINE
  5
2263B
330
18
100
AcDbEntity
  8
0
  6
BYBLOCK
100
AcDbLine
 10
665.2177593326346
 20
-630.7096895868024
 30
0.0
 11
667.2177593326346
 21
-630.7096895868024
 31
0.0
  0
TEXT
  5
2263C
330
18
100
AcDbEntity
  8
1DIM
  6
CONTINUOUS
100
AcDbText
 10
671.8844259993022
 20
-630.0096895868023
 30
0.0
 40
3.5
  1
18
100
AcDbText
1001
ACAD
1000
DSTYLE
1002
{
1070
    45
1040
0.5
1002
}
  0
LINE
  5
2263D
330
18
100
AcDbEntity
  8
0
  6
BYBLOCK
100
AcDbLine
 10
725.2536577126365
 20
-584.1096895836966
 30
0.0
 11
724.7177593326364
 21
-586.1096895836966
 31
0.0
  0
LINE
  5
2263E
330
18
100
AcDbEntity
  8
0
  6
BYBLOCK
100
AcDbLine
 10
724.7177593326364
 20
-586.1096895836966
 30
0.0
 11
724.1818609526364
 21
-584.1096895836966
 31
0.0
  0
LINE
  5
2263F
330
18
100
AcDbEntity
  8
0
  6
BYBLOCK
100
AcDbLine
 10
724.7177593326364
 20
-586.1096895836966
 30
0.0
 11
724.7177593326364
 21
-584.1096895836966
 31
0.0
  0
LINE
  5
22640
330
18
100
AcDbEntity
  8
0
  6
BYBLOCK
100
AcDbLine
 10
724.1818609526364
 20
-574.109689586801
 30
0.0
 11
724.7177593326364
 21
-572.109689586801
 31
0.0
  0
LINE
  5
22641
330
18
100
AcDbEntity
  8
0
  6
BYBLOCK
100
AcDbLine
 10
724.7177593326364
 20
-572.109689586801
 30
0.0
 11
725.2536577126365
 21
-574.109689586801
 31
0.0
  0
LINE
  5
22642
330
18
100
AcDbEntity
  8
0
  6
BYBLOCK
100
AcDbLine
 10
724.7177593326364
 20
-572.109689586801
 30
0.0
 11
724.7177593326364
 21
-574.109689586801
 31
0.0
  0
TEXT
  5
22643
330
18
100
AcDbEntity
  8
1DIM
  6
CONTINUOUS
100
AcDbText
 10
724.0177593326364
 20
-581.4430229185822
 30
0.0
 40
3.5
  1
14
 50
90.0
100
AcDbText
1001
ACAD
1000
DSTYLE
1002
{
1070
    45
1040
0.5
1070
   271
1070
     0
1002
}
  0
LINE
  5
22644
330
18
100
AcDbEntity
  8
0
  6
BYBLOCK
100
AcDbLine
 10
735.2536577126365
 20
-593.1096895868012
 30
0.0
 11
734.7177593326364
 21
-595.1096895868012
 31
0.0
  0
LINE
  5
22645
330
18
100
AcDbEntity
  8
0
  6
BYBLOCK
100
AcDbLine
 10
734.7177593326364
 20
-595.1096895868012
 30
0.0
 11
734.1818609526364
 21
-593.1096895868012
 31
0.0
  0
LINE
  5
22646
330
18
100
AcDbEntity
  8
0
  6
BYBLOCK
100
AcDbLine
 10
734.7177593326364
 20
-595.1096895868012
 30
0.0
 11
734.7177593326364
 21
-593.1096895868012
 31
0.0
  0
LINE
  5
22647
330
18
100
AcDbEntity
  8
0
  6
BYBLOCK
100
AcDbLine
 10
734.1818609526364
 20
-574.109689586801
 30
0.0
 11
734.7177593326364
 21
-572.109689586801
 31
0.0
  0
LINE
  5
22648
330
18
100
AcDbEntity
  8
0
  6
BYBLOCK
100
AcDbLine
 10
734.7177593326364
 20
-572.109689586801
 30
0.0
 11
735.2536577126365
 21
-574.109689586801
 31
0.0
  0
LINE
  5
22649
330
18
100
AcDbEntity
  8
0
  6
BYBLOCK
100
AcDbLine
 10
734.7177593326364
 20
-572.109689586801
 30
0.0
 11
734.7177593326364
 21
-574.109689586801
 31
0.0
  0
TEXT
  5
2264A
330
18
100
AcDbEntity
  8
1DIM
  6
CONTINUOUS
100
AcDbText
 10
734.0177593326364
 20
-586.5263562534677
 30
0.0
 40
3.5
  1
23
 50
90.0
100
AcDbText
1001
ACAD
1000
DSTYLE
1002
{
1070
    45
1040
0.5
1002
}
  0
LINE
  5
2264B
330
18
100
AcDbEntity
  8
0
  6
BYBLOCK
100
AcDbLine
 10
485.2177593326365
 20
-469.5737912068011
 30
0.0
 11
487.2177593326365
 21
-470.1096895868011
 31
0.0
  0
LINE
  5
2264C
330
18
100
AcDbEntity
  8
0
  6
BYBLOCK
100
AcDbLine
 10
487.2177593326365
 20
-470.1096895868011
 30
0.0
 11
485.2177593326365
 21
-470.6455879668011
 31
0.0
  0
LINE
  5
2264D
330
18
100
AcDbEntity
  8
0
  6
BYBLOCK
100
AcDbLine
 10
487.2177593326365
 20
-470.1096895868011
 30
0.0
 11
485.2177593326365
 21
-470.1096895868011
 31
0.0
  0
LINE
  5
2264E
330
18
100
AcDbEntity
  8
0
  6
BYBLOCK
100
AcDbLine
 10
455.2177593326364
 20
-470.6455879668011
 30
0.0
 11
453.2177593326364
 21
-470.1096895868011
 31
0.0
  0
LINE
  5
2264F
330
18
100
AcDbEntity
  8
0
  6
BYBLOCK
100
AcDbLine
 10
453.2177593326364
 20
-470.1096895868011
 30
0.0
 11
455.2177593326364
 21
-469.5737912068011
 31
0.0
  0
LINE
  5
22650
330
18
100
AcDbEntity
  8
0
  6
BYBLOCK
100
AcDbLine
 10
453.2177593326364
 20
-470.1096895868011
 30
0.0
 11
455.2177593326364
 21
-470.1096895868011
 31
0.0
  0
TEXT
  5
22651
330
18
100
AcDbEntity
  8
1DIM
  6
CONTINUOUS
100
AcDbText
 10
444.6844259993031
 20
-469.4096895868011
 30
0.0
 40
3.5
  1
34
100
AcDbText
1001
ACAD
1000
DSTYLE
1002
{
1070
    45
1040
0.5
1002
}
  0
LINE
  5
22652
330
18
100
AcDbEntity
  8
0
  6
BYBLOCK
100
AcDbLine
 10
687.0705250568458
 20
-554.2658056181427
 30
0.0
 11
686.1314309103439
 21
-556.1111482035974
 31
0.0
  0
LINE
  5
22653
330
18
100
AcDbEntity
  8
0
  6
BYBLOCK
100
AcDbLine
 10
686.1314309103439
 20
-556.1111482035974
 30
0.0
 11
686.0220390144125
 21
-554.0434875721612
 31
0.0
  0
LINE
  5
22654
330
18
100
AcDbEntity
  8
0
  6
BYBLOCK
100
AcDbLine
 10
686.1314309103439
 20
-556.1111482035974
 30
0.0
 11
686.5462820356291
 21
-554.1546465951519
 31
0.0
  0
LINE
  5
22655
330
18
100
AcDbEntity
  8
0
  6
BYBLOCK
100
AcDbLine
 10
700.205943202011
 20
-554.2658056181427
 30
0.0
 11
699.266849055509
 21
-556.1111482035974
 31
0.0
  0
LINE
  5
22656
330
18
100
AcDbEntity
  8
0
  6
BYBLOCK
100
AcDbLine
 10
699.266849055509
 20
-556.1111482035974
 30
0.0
 11
699.1574571595777
 21
-554.0434875721612
 31
0.0
  0
LINE
  5
22657
330
18
100
AcDbEntity
  8
0
  6
BYBLOCK
100
AcDbLine
 10
699.266849055509
 20
-556.1111482035974
 30
0.0
 11
699.6817001807943
 21
-554.1546465951519
 31
0.0
  0
LINE
  5
22658
330
18
100
AcDbEntity
  8
0
  6
BYBLOCK
100
AcDbLine
 10
463.2177593326294
 20
-631.2455879668024
 30
0.0
 11
461.2177593326294
 21
-630.7096895868024
 31
0.0
  0
LINE
  5
22659
330
18
100
AcDbEntity
  8
0
  6
BYBLOCK
100
AcDbLine
 10
461.2177593326294
 20
-630.7096895868024
 30
0.0
 11
463.2177593326294
 21
-630.1737912068023
 31
0.0
  0
LINE
  5
2265A
330
18
100
AcDbEntity
  8
0
  6
BYBLOCK
100
AcDbLine
 10
461.2177593326294
 20
-630.7096895868024
 30
0.0
 11
463.2177593326294
 21
-630.7096895868024
 31
0.0
  0
LINE
  5
2265B
330
18
100
AcDbEntity
  8
0
  6
BYBLOCK
100
AcDbLine
 10
477.2177593326294
 20
-630.1737912068023
 30
0.0
 11
479.2177593326294
 21
-630.7096895868024
 31
0.0
  0
LINE
  5
2265C
330
18
100
AcDbEntity
  8
0
  6
BYBLOCK
100
AcDbLine
 10
479.2177593326294
 20
-630.7096895868024
 30
0.0
 11
477.2177593326294
 21
-631.2455879668024
 31
0.0
  0
LINE
  5
2265D
330
18
100
AcDbEntity
  8
0
  6
BYBLOCK
100
AcDbLine
 10
479.2177593326294
 20
-630.7096895868024
 30
0.0
 11
477.2177593326294
 21
-630.7096895868024
 31
0.0
  0
TEXT
  5
2265E
330
18
100
AcDbEntity
  8
1DIM
  6
CONTINUOUS
100
AcDbText
 10
466.1344259992961
 20
-630.0096895868023
 30
0.0
 40
3.5
  1
P18
100
AcDbText
1001
ACAD
1000
DSTYLE
1002
{
1070
    45
1040
0.5
1002
}
  0
LINE
  5
2265F
330
18
100
AcDbEntity
  8
0
  6
BYBLOCK
100
AcDbLine
 10
366.7177593326346
 20
-545.645587966801
 30
0.0
 11
364.7177593326346
 21
-545.109689586801
 31
0.0
  0
LINE
  5
22660
330
18
100
AcDbEntity
  8
0
  6
BYBLOCK
100
AcDbLine
 10
364.7177593326346
 20
-545.109689586801
 30
0.0
 11
366.7177593326346
 21
-544.5737912068009
 31
0.0
  0
LINE
  5
22661
330
18
100
AcDbEntity
  8
0
  6
BYBLOCK
100
AcDbLine
 10
364.7177593326346
 20
-545.109689586801
 30
0.0
 11
366.7177593326346
 21
-545.109689586801
 31
0.0
  0
LINE
  5
22662
330
18
100
AcDbEntity
  8
0
  6
BYBLOCK
100
AcDbLine
 10
573.7177593326364
 20
-544.5737912068009
 30
0.0
 11
575.7177593326364
 21
-545.109689586801
 31
0.0
  0
LINE
  5
22663
330
18
100
AcDbEntity
  8
0
  6
BYBLOCK
100
AcDbLine
 10
575.7177593326364
 20
-545.109689586801
 30
0.0
 11
573.7177593326364
 21
-545.645587966801
 31
0.0
  0
LINE
  5
22664
330
18
100
AcDbEntity
  8
0
  6
BYBLOCK
100
AcDbLine
 10
575.7177593326364
 20
-545.109689586801
 30
0.0
 11
573.7177593326364
 21
-545.109689586801
 31
0.0
  0
TEXT
  5
22665
330
18
100
AcDbEntity
  8
1DIM
  6
CONTINUOUS
100
AcDbText
 10
466.7177593326355
 20
-544.4096895868009
 30
0.0
 40
3.5
  1
211
100
AcDbText
1001
ACAD
1000
DSTYLE
1002
{
1070
    45
1040
0.5
1002
}
  0
LINE
  5
22666
330
18
100
AcDbEntity
  8
0
  6
BYBLOCK
100
AcDbLine
 10
593.8287124650052
 20
-574.109689586801
 30
0.0
 11
594.3646108450052
 21
-572.109689586801
 31
0.0
  0
LINE
  5
22667
330
18
100
AcDbEntity
  8
0
  6
BYBLOCK
100
AcDbLine
 10
594.3646108450052
 20
-572.109689586801
 30
0.0
 11
594.9005092250053
 21
-574.109689586801
 31
0.0
  0
LINE
  5
22668
330
18
100
AcDbEntity
  8
0
  6
BYBLOCK
100
AcDbLine
 10
594.3646108450052
 20
-572.109689586801
 30
0.0
 11
594.3646108450052
 21
-574.109689586801
 31
0.0
  0
LINE
  5
22669
330
18
100
AcDbEntity
  8
0
  6
BYBLOCK
100
AcDbLine
 10
594.9005092250053
 20
-620.109689586801
 30
0.0
 11
594.3646108450052
 21
-622.109689586801
 31
0.0
  0
LINE
  5
2266A
330
18
100
AcDbEntity
  8
0
  6
BYBLOCK
100
AcDbLine
 10
594.3646108450052
 20
-622.109689586801
 30
0.0
 11
593.8287124650052
 21
-620.109689586801
 31
0.0
  0
LINE
  5
2266B
330
18
100
AcDbEntity
  8
0
  6
BYBLOCK
100
AcDbLine
 10
594.3646108450052
 20
-622.109689586801
 30
0.0
 11
594.3646108450052
 21
-620.109689586801
 31
0.0
  0
TEXT
  5
2266C
330
18
100
AcDbEntity
  8
1DIM
  6
CONTINUOUS
100
AcDbText
 10
593.6646108450053
 20
-599.8197590312456
 30
0.0
 40
3.5
  1
50
 50
90.0
100
AcDbText
1001
ACAD
1000
DSTYLE
1002
{
1070
    45
1040
0.5
1002
}
  0
LINE
  5
2266D
330
18
100
AcDbEntity
  8
0
100
AcDbLine
 10
666.8677593326346
 20
-574.6596896868011
 30
0.0
 11
663.5677593326348
 21
-574.6596896868011
 31
0.0
  0
LINE
  5
2266E
330
18
100
AcDbEntity
  8
0
100
AcDbLine
 10
663.5677593326348
 20
-574.6596896868011
 30
0.0
 11
663.2177593326346
 21
-575.009689686801
 31
0.0
  0
LINE
  5
2266F
330
18
100
AcDbEntity
  8
0
100
AcDbLine
 10
663.2177593326346
 20
-575.009689686801
 30
0.0
 11
663.2177593326346
 21
-578.3596895127271
 31
0.0
  0
LINE
  5
22670
330
18
100
AcDbEntity
  8
0
100
AcDbLine
 10
663.2177593326346
 20
-578.3596895127271
 30
0.0
 11
662.2177593326346
 21
-579.3596895868011
 31
0.0
  0
LINE
  5
22671
330
18
100
AcDbEntity
  8
0
100
AcDbLine
 10
662.2177593326346
 20
-579.3596895868011
 30
0.0
 11
662.2177593326346
 21
-579.6596896868011
 31
0.0
  0
LINE
  5
22672
330
18
100
AcDbEntity
  8
0
100
AcDbLine
 10
662.2177593326346
 20
-579.6596896868011
 30
0.0
 11
668.2177593326346
 21
-579.6596896868011
 31
0.0
  0
LINE
  5
22673
330
18
100
AcDbEntity
  8
0
100
AcDbLine
 10
668.2177593326346
 20
-579.6596896868011
 30
0.0
 11
668.2177593326346
 21
-579.359689676801
 31
0.0
  0
LINE
  5
22674
330
18
100
AcDbEntity
  8
0
100
AcDbLine
 10
668.2177593326346
 20
-579.359689676801
 30
0.0
 11
667.2177593326346
 21
-578.3596895127271
 31
0.0
  0
LINE
  5
22675
330
18
100
AcDbEntity
  8
0
100
AcDbLine
 10
667.2177593326346
 20
-578.3596895127271
 30
0.0
 11
667.2177593326346
 21
-575.009689686801
 31
0.0
  0
LINE
  5
22676
330
18
100
AcDbEntity
  8
0
100
AcDbLine
 10
667.2177593326346
 20
-575.009689686801
 30
0.0
 11
666.8677593326346
 21
-574.6596896868011
 31
0.0
  0
LINE
  5
22677
330
18
100
AcDbEntity
  8
0
  6
BYBLOCK
100
AcDbLine
 10
583.7984437380488
 20
-536.1096895868019
 30
0.0
 11
583.2625453580488
 21
-538.1096895868019
 31
0.0
  0
LINE
  5
22678
330
18
100
AcDbEntity
  8
0
  6
BYBLOCK
100
AcDbLine
 10
583.2625453580488
 20
-538.1096895868019
 30
0.0
 11
582.7266469780487
 21
-536.1096895868019
 31
0.0
  0
LINE
  5
22679
330
18
100
AcDbEntity
  8
0
  6
BYBLOCK
100
AcDbLine
 10
583.2625453580488
 20
-538.1096895868019
 30
0.0
 11
583.2625453580488
 21
-536.1096895868019
 31
0.0
  0
LINE
  5
2267A
330
18
100
AcDbEntity
  8
0
  6
BYBLOCK
100
AcDbLine
 10
582.7266469780487
 20
-522.1096895868021
 30
0.0
 11
583.2625453580488
 21
-520.1096895868021
 31
0.0
  0
LINE
  5
2267B
330
18
100
AcDbEntity
  8
0
  6
BYBLOCK
100
AcDbLine
 10
583.2625453580488
 20
-520.1096895868021
 30
0.0
 11
583.7984437380488
 21
-522.1096895868021
 31
0.0
  0
LINE
  5
2267C
330
18
100
AcDbEntity
  8
0
  6
BYBLOCK
100
AcDbLine
 10
583.2625453580488
 20
-520.1096895868021
 30
0.0
 11
583.2625453580488
 21
-522.1096895868021
 31
0.0
  0
TEXT
  5
2267D
330
18
100
AcDbEntity
  8
1DIM
  6
CONTINUOUS
100
AcDbText
 10
582.5625453580487
 20
-531.4430229201354
 30
0.0
 40
3.5
  1
18
 50
90.0
100
AcDbText
  0
LINE
  5
2267E
330
18
100
AcDbEntity
  8
0
  6
BYBLOCK
100
AcDbLine
 10
583.5304945480488
 20
-612.109689586801
 30
0.0
 11
582.9945961680487
 21
-614.109689586801
 31
0.0
  0
LINE
  5
2267F
330
18
100
AcDbEntity
  8
0
  6
BYBLOCK
100
AcDbLine
 10
582.9945961680487
 20
-614.109689586801
 30
0.0
 11
582.4586977880487
 21
-612.109689586801
 31
0.0
  0
LINE
  5
22680
330
18
100
AcDbEntity
  8
0
  6
BYBLOCK
100
AcDbLine
 10
582.9945961680487
 20
-614.109689586801
 30
0.0
 11
582.9945961680487
 21
-612.109689586801
 31
0.0
  0
LINE
  5
22681
330
18
100
AcDbEntity
  8
0
  6
BYBLOCK
100
AcDbLine
 10
582.4586977880487
 20
-582.109689586801
 30
0.0
 11
582.9945961680487
 21
-580.109689586801
 31
0.0
  0
LINE
  5
22682
330
18
100
AcDbEntity
  8
0
  6
BYBLOCK
100
AcDbLine
 10
582.9945961680487
 20
-580.109689586801
 30
0.0
 11
583.5304945480488
 21
-582.109689586801
 31
0.0
  0
LINE
  5
22683
330
18
100
AcDbEntity
  8
0
  6
BYBLOCK
100
AcDbLine
 10
582.9945961680487
 20
-580.109689586801
 30
0.0
 11
582.9945961680487
 21
-582.109689586801
 31
0.0
  0
TEXT
  5
22684
330
18
100
AcDbEntity
  8
1DIM
  6
CONTINUOUS
100
AcDbText
 10
582.2945961680487
 20
-600.0263562534677
 30
0.0
 40
3.5
  1
34
 50
90.0
100
AcDbText
  0
LINE
  5
22685
330
18
100
AcDbEntity
  8
0
  6
BYBLOCK
100
AcDbLine
 10
374.7177593326346
 20
-556.8148828687139
 30
0.0
 11
372.7177593326346
 21
-556.2789844887138
 31
0.0
  0
LINE
  5
22686
330
18
100
AcDbEntity
  8
0
  6
BYBLOCK
100
AcDbLine
 10
372.7177593326346
 20
-556.2789844887138
 30
0.0
 11
374.7177593326346
 21
-555.7430861087138
 31
0.0
  0
LINE
  5
22687
330
18
100
AcDbEntity
  8
0
  6
BYBLOCK
100
AcDbLine
 10
372.7177593326346
 20
-556.2789844887138
 30
0.0
 11
374.7177593326346
 21
-556.2789844887138
 31
0.0
  0
LINE
  5
22688
330
18
100
AcDbEntity
  8
0
  6
BYBLOCK
100
AcDbLine
 10
565.7177593326346
 20
-555.7430861087138
 30
0.0
 11
567.7177593326346
 21
-556.2789844887138
 31
0.0
  0
LINE
  5
22689
330
18
100
AcDbEntity
  8
0
  6
BYBLOCK
100
AcDbLine
 10
567.7177593326346
 20
-556.2789844887138
 30
0.0
 11
565.7177593326346
 21
-556.8148828687139
 31
0.0
  0
LINE
  5
2268A
330
18
100
AcDbEntity
  8
0
  6
BYBLOCK
100
AcDbLine
 10
567.7177593326346
 20
-556.2789844887138
 30
0.0
 11
565.7177593326346
 21
-556.2789844887138
 31
0.0
  0
TEXT
  5
2268B
330
18
100
AcDbEntity
  8
1DIM
  6
CONTINUOUS
100
AcDbText
 10
466.1336158141161
 20
-555.5789844887139
 30
0.0
 40
3.5
  1
195
100
AcDbText
  0
VIEWPORT
  5
57
330
15
100
AcDbEntity
 67
     1
  8
0
100
AcDbViewport
 68
     1
 10
0.0
 20
0.0
 30
0.0
 40
565.988904299584
 41
297.0
 68
     1
 69
     1
1001
ACAD
1000
MVIEW
1002
{
1070
    16
1010
0.0
1020
0.0
1030
0.0
1010
0.0
1020
0.0
1030
1.0
1040
0.0
1040
297.0
1040
-4.171999999925333
1040
12.83903210976956
1040
50.0
1040
0.0
1040
0.0
1070
    16
1070
  1000
1070
     0
1070
     1
1070
     0
1070
     0
1070
     0
1070
     0
1040
0.0
1040
0.0
1040
0.0
1040
10.0
1040
10.0
1040
10.0
1040
10.0
1070
     0
1002
{
1002
}
1002
}
  0
ENDSEC
  0
SECTION
  2
OBJECTS
  0
DICTIONARY
  5
C
330
0
100
AcDbDictionary
  3
ACAD_CIP_PREVIOUS_PRODUCT_INFO
350
20B28
  3
ACAD_COLOR
350
2D0
  3
ACAD_GROUP
350
D
  3
ACAD_LAYOUT
350
2D1
  3
ACAD_MATERIAL
350
2CF
  3
ACAD_MLEADERSTYLE
350
19E18
  3
ACAD_MLINESTYLE
350
1B
  3
ACAD_PLOTSETTINGS
350
2D2
  3
ACAD_SCALELIST
350
19DF6
  3
ACAD_VISUALSTYLE
350
19DE5
  3
ACDBHEADERROUNDTRIPXREC
350
2268C
  3
ACDBVARIABLEDICTIONARY
350
37
  3
AEC_PROPERTY_SET_DEFS
350
20CE4
  3
CONTENTDICTIONARY
350
D8
  3
DRAWINGVARIABLESDICT
350
20
  3
DWGPROPS
350
2268F
1001
ACAD
1000
TREAT_AS_HARD
1070
     0
  0
DICTIONARY
  5
18FE8
330
2
100
AcDbDictionary
  3
ACAD_LAYERSTATES
360
18FE9
1001
ACAD
1000
TREAT_AS_HARD
1070
     1
  0
DICTIONARY
  5
1A20A
330
E
100
AcDbDictionary
  3
ADSK_XREC_LAYER_RECONCILED
360
1A20B
1001
ACAD
1000
TREAT_AS_HARD
1070
     1
  0
DICTIONARY
  5
1A20C
330
29
100
AcDbDictionary
  3
ADSK_XREC_LAYER_RECONCILED
360
1A20D
1001
ACAD
1000
TREAT_AS_HARD
1070
     1
  0
DICTIONARY
  5
1A20E
330
31
100
AcDbDictionary
  3
ADSK_XREC_LAYER_RECONCILED
360
1A20F
1001
ACAD
1000
TREAT_AS_HARD
1070
     1
  0
DICTIONARY
  5
1A218
330
101
100
AcDbDictionary
  3
ADSK_XREC_LAYER_RECONCILED
360
1A219
1001
ACAD
1000
TREAT_AS_HARD
1070
     1
  0
DICTIONARY
  5
1A21C
330
103
100
AcDbDictionary
  3
ADSK_XREC_LAYER_RECONCILED
360
1A21D
1001
ACAD
1000
TREAT_AS_HARD
1070
     1
  0
DICTIONARY
  5
21FDB
330
21FDA
100
AcDbDictionary
  3
ADSK_XREC_LAYER_RECONCILED
360
21FDC
1001
ACAD
1000
TREAT_AS_HARD
1070
     1
  0
DICTIONARY
  5
6E9
330
18
100
AcDbDictionary
  3
ACAD_SORTENTS
360
6EA
1001
ACAD
1000
TREAT_AS_HARD
1070
     1
  0
DICTIONARY
  5
59B
330
15
100
AcDbDictionary
  3
ACAD_SORTENTS
360
59C
1001
ACAD
1000
TREAT_AS_HARD
1070
     1
  0
XRECORD
  5
20B28
102
{ACAD_REACTORS
330
C
102
}
330
C
100
AcDbXrecord
300
ACDLT
300
2012
300
ACDLT_F_S
  0
DICTIONARY
  5
2D0
102
{ACAD_REACTORS
330
C
102
}
330
C
100
AcDbDictionary
1001
ACAD
1000
TREAT_AS_HARD
1070
     0
  0
DICTIONARY
  5
D
102
{ACAD_REACTORS
330
C
102
}
330
C
100
AcDbDictionary
1001
ACAD
1000
TREAT_AS_HARD
1070
     0
  0
DICTIONARY
  5
2D1
102
{ACAD_REACTORS
330
C
102
}
330
C
100
AcDbDictionary
1001
ACAD
1000
TREAT_AS_HARD
1070
     0
  0
DICTIONARY
  5
2CF
102
{ACAD_REACTORS
330
C
102
}
330
C
100
AcDbDictionary
  3
BYBLOCK
350
19DD5
  3
BYLAYER
350
19DCD
  3
GLOBAL
350
19DDD
1001
ACAD
1000
TREAT_AS_HARD
1070
     0
  0
DICTIONARY
  5
19E18
102
{ACAD_REACTORS
330
C
102
}
330
C
100
AcDbDictionary
  3
STANDARD
350
19E19
1001
ACAD
1000
TREAT_AS_HARD
1070
     0
  0
DICTIONARY
  5
1B
102
{ACAD_REACTORS
330
C
102
}
330
C
100
AcDbDictionary
  3
STANDARD
350
1C
1001
ACAD
1000
TREAT_AS_HARD
1070
     0
  0
DICTIONARY
  5
2D2
102
{ACAD_REACTORS
330
C
102
}
330
C
100
AcDbDictionary
1001
ACAD
1000
TREAT_AS_HARD
1070
     0
  0
DICTIONARY
  5
19DF6
102
{ACAD_REACTORS
330
C
102
}
330
C
100
AcDbDictionary
  3
A0
350
19DF7
  3
A1
350
19DF8
  3
A2
350
19DF9
  3
A3
350
19DFA
  3
A4
350
19DFB
  3
A5
350
19DFC
  3
A6
350
19DFD
  3
A7
350
19DFE
  3
A8
350
19DFF
  3
A9
350
19E00
  3
B0
350
19E01
  3
B1
350
19E02
  3
B2
350
19E03
  3
B3
350
19E04
  3
B4
350
19E05
  3
B5
350
19E06
  3
B6
350
19E07
  3
B7
350
19E08
  3
B8
350
19E09
  3
B9
350
19E0A
  3
C0
350
19E0B
  3
C1
350
19E0C
  3
C2
350
19E0D
  3
C3
350
19E0E
  3
C4
350
19E0F
  3
C5
350
19E10
  3
C6
350
19E11
  3
C7
350
19E12
  3
C8
350
19E13
  3
C9
350
19E14
  3
D0
350
19E15
  3
D1
350
19E16
  3
D2
350
19E17
1001
ACAD
1000
TREAT_AS_HARD
1070
     0
  0
DICTIONARY
  5
19DE5
102
{ACAD_REACTORS
330
C
102
}
330
C
100
AcDbDictionary
  3
2DWIREFRAME
350
19DEB
  3
3D_HIDDEN
350
19DED
  3
3DWIREFRAME
350
19DEC
  3
BASIC
350
19DEA
  3
BRIGHTEN
350
19DF1
  3
COLORCHANGE
350
19DF5
  3
CONCEPTUAL
350
19DEE
  3
DIM
350
19DF0
  3
EDGECOLOROFF
350
1E02A
  3
FACEPATTERN
350
19DF4
  3
FLAT
350
19DE6
  3
FLATWITHEDGES
350
19DE7
  3
GOURAUD
350
19DE8
  3
GOURAUDWITHEDGES
350
19DE9
  3
HIDDEN
350
1F381
  3
JITTEROFF
350
1E028
  3
LINEPATTERN
350
19DF3
  3
MODELING
350
219D4
  3
OVERHANGOFF
350
1E029
  3
REALISTIC
350
19DEF
  3
SHADED
350
1F386
  3
SHADED_WITH_EDGES
350
1F385
  3
SHADES_OF_GRAY
350
1F382
  3
SKETCHY
350
1F383
  3
THICKEN
350
19DF2
  3
WIREFRAME
350
1F380
  3
X-RAY
350
1F384
1001
ACAD
1000
TREAT_AS_HARD
1070
     0
  0
DICTIONARY
  5
2268C
102
{ACAD_REACTORS
330
C
102
}
330
C
100
AcDbDictionary
  3
COLORDICT
350
2268D
  3
MATERIALDICT
350
2268E
1001
ACAD
1000
TREAT_AS_HARD
1070
     0
  0
DICTIONARY
  5
37
102
{ACAD_REACTORS
330
C
102
}
330
C
100
AcDbDictionary
  3
CANNOSCALE
350
219EB
  3
CMLEADERSTYLE
350
1AC19
  3
CTABLESTYLE
350
4F1
  3
DIMADEC
350
38
  3
DIMASSOC
350
408
  3
HIDETEXT
350
1891
  3
INDEXCTL
350
1AC1C
  3
INTERSECTIONCOLOR
350
1895
  3
INTERSECTIONDISPLAY
350
1894
  3
LAYEREVAL
350
211C3
  3
LAYERNOTIFY
350
211C4
  3
MSLTSCALE
350
20A9B
  3
OBSCOLOR
350
1892
  3
OBSLTYPE
350
1893
  3
PROJECTNAME
350
409
  3
SORTENTS
350
1AC1B
  3
XCLIPFRAME
350
219D3
1001
ACAD
1000
TREAT_AS_HARD
1070
     0
  0
DICTIONARY
  5
20CE4
102
{ACAD_REACTORS
330
C
102
}
330
C
100
AcDbDictionary
1001
ACAD
1000
TREAT_AS_HARD
1070
     0
  0
DICTIONARY
  5
D8
102
{ACAD_REACTORS
330
C
102
}
330
C
100
AcDbDictionary
1001
CONTENTTABDATA
1070
    11
1000
Child
1000
D:\ACLT\TABset\CHILDREN.dwg
1070
     0
1070
     0
1070
     1
1000
PK
1000
D:\ACLT\TABset\PK.dwg
1070
     0
1070
     0
1070
     1
1000
Lev1
1000
D:\ACLT\TABset\Lever01.dwg
1070
     0
1070
     0
1070
     1
1000
Lev2
1000
D:\ACLT\TABset\Lever02.dwg
1070
     0
1070
     0
1070
     1
1000
L3
1000
D:\Aclt\TABset\Lever03.dwg
1070
     0
1070
     0
1070
     1
1000
Form
1000
D:\ACLT\FORMAT
1070
     1
1070
     0
1070
     1
1000
Jnt
1000
D:\ACLT\TABset\JOINTPARTS.dwg
1070
     0
1070
     0
1070
     1
1000
ISO
1000
D:\ACLT\TABset\Isome01.dwg
1070
     0
1070
     0
1070
     1
1000
R
1000
D:\ACLT\TABset\REGION.dwg
1070
     0
1070
     0
1070
     1
1000
std
1000
D:\ACLT\TABset\std_sym_all.dwg
1070
     0
1070
     0
1070
     1
1000
丸
1000
D:\Aclt\TABset\MARU.dwg
1070
     0
1070
     0
1070
     1
1001
CONTENTCURRENTTAB
1070
     0
1001
ACAD
1000
TREAT_AS_HARD
1070
     0
  0
DICTIONARY
  5
20
102
{ACAD_REACTORS
330
C
102
}
330
C
100
AcDbDictionary
1001
DRAWINGVARIABLESXDATA
1000
POLARANG
1000
0.261799387799149410000000
1000
POLARMODE
1000
1
1000
POLARSTYLE
1000
1
1001
ACAD
1000
TREAT_AS_HARD
1070
     0
  0
XRECORD
  5
2268F
102
{ACAD_REACTORS
330
C
102
}
330
C
100
AcDbXrecord
  1
DWGPROPS COOKIE
  2

  3

  4

  6

  7

  8
619
  9

300
=
301
=
302
=
303
=
304
=
305
=
306
=
307
=
308
=
309
=
 40
0.0
 41
2453033.357663484
 42
2458277.170363437
  1

 90
        0
  0
DICTIONARY
  5
18FE9
102
{ACAD_REACTORS
330
18FE8
102
}
330
18FE8
100
AcDbDictionary
1001
ACAD
1000
TREAT_AS_HARD
1070
     0
  0
ACAD_PROXY_OBJECT
  5
1A20B
102
{ACAD_REACTORS
330
1A20A
102
}
330
1A20A
100
AcDbZombieObject
 90
      499
 91
      517
 93
       34
310
40C8804040
  0
ACAD_PROXY_OBJECT
  5
1A20D
102
{ACAD_REACTORS
330
1A20C
102
}
330
1A20C
100
AcDbZombieObject
 90
      499
 91
      517
 93
       34
310
40C8804040
  0
ACAD_PROXY_OBJECT
  5
1A20F
102
{ACAD_REACTORS
330
1A20E
102
}
330
1A20E
100
AcDbZombieObject
 90
      499
 91
      517
 93
       34
310
40C8804040
  0
ACAD_PROXY_OBJECT
  5
1A219
102
{ACAD_REACTORS
330
1A218
102
}
330
1A218
100
AcDbZombieObject
 90
      499
 91
      517
 93
       34
310
40C8804040
  0
ACAD_PROXY_OBJECT
  5
1A21D
102
{ACAD_REACTORS
330
1A21C
102
}
330
1A21C
100
AcDbZombieObject
 90
      499
 91
      517
 93
       34
310
40C8804040
  0
ACAD_PROXY_OBJECT
  5
21FDC
102
{ACAD_REACTORS
330
21FDB
102
}
330
21FDB
100
AcDbZombieObject
 90
      499
 91
      517
 93
       34
310
40C8804040
  0
SORTENTSTABLE
  5
6EA
102
{ACAD_REACTORS
330
6E9
102
}
330
6E9
100
AcDbSortentsTable
330
18
331
221A1
  5
221AA
331
221A2
  5
221AB
331
221A4
  5
221C2
331
221A5
  5
221C3
331
221A6
  5
221C4
331
221A7
  5
221C5
331
221A8
  5
221C6
331
221A9
  5
221C8
331
221AA
  5
221C9
331
221AB
  5
221D1
331
221AC
  5
221D2
331
221AD
  5
221D3
331
221AE
  5
221D7
331
221AF
  5
221D8
331
221B0
  5
221D9
331
221B1
  5
221DD
331
0
  5
221B9
331
0
  5
221BB
331
221BA
  5
22216
331
221BB
  5
22217
331
221BC
  5
22218
331
221BD
  5
22219
331
221BE
  5
2221A
331
0
  5
221C1
331
221C0
  5
2252C
331
221C1
  5
2252D
331
221C2
  5
2252E
331
221C3
  5
2252F
331
221C4
  5
22530
331
0
  5
221C7
331
221C6
  5
2257B
331
221C7
  5
2257C
331
221C8
  5
2257D
331
221C9
  5
2257E
331
221CA
  5
2257F
331
0
  5
221CD
331
0
  5
221CE
331
0
  5
221CF
331
0
  5
221D0
331
221CF
  5
225F1
331
221D0
  5
225F2
331
221D1
  5
225F3
331
221D2
  5
225F4
331
221D3
  5
225F5
331
221D4
  5
225F6
331
221D5
  5
225F7
331
221D6
  5
225F8
331
221D7
  5
225F9
331
221D8
  5
225FA
331
221D9
  5
225FC
331
221DA
  5
225FD
331
221DB
  5
225FE
331
221DC
  5
225FF
331
221DD
  5
22600
331
221DE
  5
22601
331
221DF
  5
22602
331
221E0
  5
22603
331
221E1
  5
22604
331
221E2
  5
22605
331
221E3
  5
22609
331
221E4
  5
2260A
331
221E5
  5
2260B
331
221E6
  5
2260F
331
221E7
  5
22610
331
221E8
  5
22611
331
221E9
  5
22615
331
221EA
  5
22616
331
221EB
  5
22617
331
221EC
  5
22618
331
221ED
  5
22619
331
221EE
  5
2261A
331
221EF
  5
2261B
331
221F0
  5
2261C
331
221F1
  5
2261D
331
221F2
  5
2261E
331
221F3
  5
2261F
331
221F4
  5
22620
331
221F5
  5
22621
331
221F6
  5
22622
331
221F7
  5
22623
331
221F8
  5
22624
331
221F9
  5
22625
331
221FA
  5
22626
331
221FB
  5
22627
331
221FC
  5
22628
331
221FD
  5
22629
331
221FE
  5
2262A
331
221FF
  5
2262B
331
22200
  5
2262C
331
22201
  5
2262D
331
22202
  5
2262E
331
22203
  5
2262F
331
22204
  5
22630
331
22205
  5
22631
331
22206
  5
22632
331
22207
  5
22633
331
22208
  5
22634
331
22209
  5
22635
331
2220A
  5
22636
331
2220B
  5
22637
331
2220C
  5
22638
331
2220D
  5
22639
331
2220E
  5
2263A
331
2220F
  5
2263B
331
22210
  5
2263C
331
22211
  5
2263D
331
22212
  5
2263E
331
22213
  5
2263F
331
22214
  5
22640
331
22215
  5
22641
331
22216
  5
22642
331
22217
  5
22643
331
22218
  5
22644
331
0
  5
2221B
331
2221A
  5
22656
331
0
  5
2221D
331
0
  5
2221E
331
0
  5
2221F
331
2221E
  5
22675
331
2221F
  5
22676
331
22220
  5
22677
331
22221
  5
22678
331
22222
  5
22679
331
22223
  5
2267A
331
22224
  5
2267B
331
22225
  5
2267C
331
22226
  5
2267D
331
22227
  5
2267E
331
22228
  5
2267F
331
22229
  5
22680
331
2222A
  5
22681
331
2222B
  5
22682
331
2222C
  5
22683
331
2222D
  5
22684
331
2222E
  5
22685
331
2222F
  5
22686
331
22230
  5
22687
331
22231
  5
22688
331
22232
  5
22689
331
22233
  5
2268A
331
22234
  5
2268B
331
224F8
  5
2220C
331
224F9
  5
22211
331
224FA
  5
221A1
331
224FB
  5
221A2
331
0
  5
221A4
331
224FD
  5
221A8
331
224FE
  5
221A9
331
224FF
  5
221AF
331
22500
  5
221B0
331
22501
  5
221B1
331
0
  5
221AC
331
0
  5
221AD
331
0
  5
221AE
331
22505
  5
221DE
331
22506
  5
221DF
331
22507
  5
221E0
331
0
  5
221CA
331
0
  5
221CB
331
0
  5
221CC
331
2250B
  5
221ED
331
2250C
  5
221EE
331
2250D
  5
221EF
331
0
  5
221D4
331
0
  5
221D5
331
0
  5
221D6
331
22511
  5
221F7
331
22512
  5
221F8
331
22513
  5
221F9
331
0
  5
221DA
331
0
  5
221DB
331
0
  5
221DC
331
22517
  5
22201
331
22518
  5
22202
331
22519
  5
22203
331
2251A
  5
22204
331
0
  5
221E1
331
0
  5
221E2
331
0
  5
221E3
331
0
  5
221E5
331
2251F
  5
22210
331
0
  5
221E8
331
22521
  5
22215
331
22522
  5
2221C
331
22523
  5
22220
331
22524
  5
22221
331
22525
  5
22222
331
22526
  5
22223
331
22527
  5
22224
331
22528
  5
22225
331
22529
  5
22226
331
2252A
  5
22227
331
2252B
  5
22228
331
2252C
  5
22229
331
2252D
  5
2222A
331
2252E
  5
2222B
331
2252F
  5
2222C
331
22530
  5
2222D
331
22531
  5
2222E
331
22532
  5
2222F
331
22533
  5
22230
331
22534
  5
22231
331
22535
  5
22232
331
22536
  5
22233
331
22537
  5
22234
331
22538
  5
224F8
331
22539
  5
224F9
331
2253A
  5
224FA
331
2253B
  5
224FB
331
2253C
  5
224FC
331
2253D
  5
224FD
331
2253E
  5
224FE
331
2253F
  5
224FF
331
22540
  5
22500
331
22541
  5
22501
331
22542
  5
22502
331
22543
  5
22503
331
22544
  5
22504
331
22545
  5
22505
331
22546
  5
22506
331
22547
  5
22507
331
22548
  5
22508
331
22549
  5
22509
331
2254A
  5
2250A
331
2254B
  5
2250B
331
2254C
  5
2250C
331
2254D
  5
2250D
331
2254E
  5
2250E
331
2254F
  5
2250F
331
22550
  5
22510
331
22551
  5
22511
331
22552
  5
22512
331
22553
  5
22513
331
22554
  5
22514
331
22555
  5
22515
331
22556
  5
22516
331
22557
  5
22517
331
22558
  5
22518
331
22559
  5
22519
331
2255A
  5
2251A
331
2255B
  5
2251B
331
2255C
  5
2251C
331
2255D
  5
2251D
331
2255E
  5
2251E
331
2255F
  5
2251F
331
22560
  5
22520
331
22561
  5
22521
331
22562
  5
22522
331
22563
  5
22523
331
22564
  5
22524
331
22565
  5
22525
331
22566
  5
22526
331
22567
  5
22527
331
22568
  5
22528
331
22569
  5
22529
331
2256A
  5
2252A
331
2256B
  5
2252B
331
2256C
  5
22531
331
2256D
  5
22532
331
2256E
  5
22533
331
2256F
  5
22534
331
22570
  5
22535
331
22571
  5
22536
331
22572
  5
22537
331
22573
  5
22538
331
22574
  5
22539
331
22575
  5
2253A
331
22576
  5
2253B
331
22577
  5
2253C
331
22578
  5
2253D
331
22579
  5
2253E
331
2257A
  5
2253F
331
2257B
  5
22540
331
2257C
  5
22541
331
2257D
  5
22542
331
2257E
  5
22543
331
2257F
  5
22544
331
22580
  5
22545
331
22581
  5
22546
331
22582
  5
22547
331
22583
  5
22548
331
22584
  5
22549
331
22585
  5
2254A
331
22586
  5
2254B
331
22587
  5
2254C
331
22588
  5
2254D
331
22589
  5
2254E
331
2258A
  5
2254F
331
2258B
  5
22550
331
2258C
  5
22551
331
2258D
  5
22552
331
2258E
  5
22553
331
2258F
  5
22554
331
22590
  5
22555
331
22591
  5
22556
331
22592
  5
22557
331
22593
  5
22558
331
22594
  5
22559
331
22595
  5
2255A
331
22596
  5
2255B
331
22597
  5
2255C
331
22598
  5
2255D
331
22599
  5
2255E
331
2259A
  5
2255F
331
2259B
  5
22560
331
2259C
  5
22561
331
2259D
  5
22562
331
2259E
  5
22563
331
2259F
  5
22564
331
225A0
  5
22565
331
225A1
  5
22566
331
225A2
  5
22567
331
225A3
  5
22568
331
225A4
  5
22569
331
225A5
  5
2256A
331
225A6
  5
2256B
331
225A7
  5
2256C
331
225A8
  5
2256D
331
225A9
  5
2256E
331
225AA
  5
2256F
331
225AB
  5
22570
331
225AC
  5
22571
331
225AD
  5
22572
331
225AE
  5
22573
331
225AF
  5
22574
331
225B0
  5
22575
331
225B1
  5
22576
331
225B2
  5
22577
331
225B3
  5
22578
331
225B4
  5
22579
331
225B5
  5
2257A
331
225B6
  5
22580
331
225B7
  5
22581
331
225B8
  5
22582
331
225B9
  5
22583
331
225BA
  5
22584
331
225BB
  5
22585
331
225BC
  5
22586
331
225BD
  5
22587
331
225BE
  5
22588
331
225BF
  5
22589
331
225C0
  5
2258A
331
225C1
  5
2258B
331
225C2
  5
2258C
331
225C3
  5
2258D
331
225C4
  5
2258E
331
225C5
  5
2258F
331
225C6
  5
22590
331
225C7
  5
22591
331
225C8
  5
22592
331
225C9
  5
22593
331
225CA
  5
22594
331
225CB
  5
22595
331
225CC
  5
22596
331
225CD
  5
22597
331
225CE
  5
22598
331
225CF
  5
22599
331
225D0
  5
2259A
331
225D1
  5
2259B
331
225D2
  5
2259C
331
225D3
  5
2259D
331
225D4
  5
2259E
331
225D5
  5
2259F
331
225D6
  5
225A0
331
225D7
  5
225A4
331
225D8
  5
225A5
331
225D9
  5
225A6
331
225DA
  5
225AA
331
225DB
  5
225AB
331
225DC
  5
225AC
331
225DD
  5
225B0
331
225DE
  5
225B1
331
225DF
  5
225B2
331
225E0
  5
225B3
331
225E1
  5
225B4
331
225E2
  5
225B5
331
225E3
  5
225B6
331
225E4
  5
225B7
331
225E5
  5
225B8
331
225E6
  5
225B9
331
225E7
  5
225BA
331
225E8
  5
225BB
331
225E9
  5
225BC
331
225EA
  5
225BD
331
225EB
  5
225BE
331
225EC
  5
225BF
331
225ED
  5
225C0
331
225EE
  5
225C1
331
225EF
  5
225C2
331
225F0
  5
225C3
331
225F1
  5
225C4
331
225F2
  5
225C5
331
225F3
  5
225C6
331
225F4
  5
225C7
331
225F5
  5
225C8
331
225F6
  5
225C9
331
225F7
  5
225CA
331
225F8
  5
225CB
331
225F9
  5
225CC
331
225FA
  5
225CD
331
225FB
  5
225CE
331
225FC
  5
225CF
331
225FD
  5
225D0
331
225FE
  5
225D1
331
225FF
  5
225D2
331
22600
  5
225D3
331
22601
  5
225D4
331
22602
  5
225D5
331
0
  5
225A1
331
0
  5
225A2
331
0
  5
225A3
331
22606
  5
225DD
331
22607
  5
225DE
331
22608
  5
225DF
331
0
  5
225A7
331
0
  5
225A8
331
0
  5
225A9
331
2260C
  5
225E7
331
2260D
  5
225E8
331
2260E
  5
225E9
331
0
  5
225AD
331
0
  5
225AE
331
0
  5
225AF
331
22612
  5
22645
331
0
  5
225FB
331
22614
  5
22650
331
22615
  5
22651
331
22616
  5
22652
331
22617
  5
22653
331
22618
  5
22654
331
22619
  5
22655
331
2261A
  5
22657
331
2261B
  5
22658
331
2261C
  5
22659
331
0
  5
22606
331
0
  5
22607
331
0
  5
22608
331
22620
  5
22661
331
22621
  5
22662
331
22622
  5
22663
331
0
  5
2260C
331
0
  5
2260D
331
0
  5
2260E
331
22626
  5
2266B
331
22627
  5
2266C
331
22628
  5
2266D
331
0
  5
22612
331
0
  5
22613
331
0
  5
22614
331
2262C
  5
221A5
331
2262D
  5
221A6
331
2262E
  5
221A7
331
2262F
  5
221B7
331
22630
  5
221BA
331
22631
  5
221BC
331
22632
  5
221BD
331
22633
  5
221BE
331
22634
  5
221BF
331
22635
  5
221C0
331
22636
  5
221E4
331
22637
  5
221E6
331
22638
  5
221E7
331
22639
  5
221E9
331
2263A
  5
221EA
331
2263B
  5
221EB
331
2263C
  5
221EC
331
2263D
  5
221F0
331
2263E
  5
221F1
331
2263F
  5
221F2
331
22640
  5
221F3
331
22641
  5
221F4
331
22642
  5
221F5
331
22643
  5
221F6
331
22644
  5
221FA
331
22645
  5
221FB
331
22646
  5
221FC
331
22647
  5
221FD
331
22648
  5
221FE
331
22649
  5
221FF
331
2264A
  5
22200
331
2264B
  5
22205
331
2264C
  5
22206
331
2264D
  5
22207
331
2264E
  5
22208
331
2264F
  5
22209
331
22650
  5
2220A
331
22651
  5
2220B
331
22652
  5
2220D
331
22653
  5
2220E
331
22654
  5
2220F
331
22655
  5
22212
331
22656
  5
22213
331
22657
  5
22214
331
22658
  5
225D6
331
22659
  5
225D7
331
2265A
  5
225D8
331
2265B
  5
225D9
331
2265C
  5
225DA
331
2265D
  5
225DB
331
2265E
  5
225DC
331
2265F
  5
225E0
331
22660
  5
225E1
331
22661
  5
225E2
331
22662
  5
225E3
331
22663
  5
225E4
331
22664
  5
225E5
331
22665
  5
225E6
331
22666
  5
225EA
331
22667
  5
225EB
331
22668
  5
225EC
331
22669
  5
225ED
331
2266A
  5
225EE
331
2266B
  5
225EF
331
2266C
  5
225F0
331
2266D
  5
22646
331
2266E
  5
22647
331
2266F
  5
22648
331
22670
  5
22649
331
22671
  5
2264A
331
22672
  5
2264B
331
22673
  5
2264C
331
22674
  5
2264D
331
22675
  5
2264E
331
22676
  5
2264F
331
22677
  5
2265A
331
22678
  5
2265B
331
22679
  5
2265C
331
2267A
  5
2265D
331
2267B
  5
2265E
331
2267C
  5
2265F
331
2267D
  5
22660
331
2267E
  5
22664
331
2267F
  5
22665
331
22680
  5
22666
331
22681
  5
22667
331
22682
  5
22668
331
22683
  5
22669
331
22684
  5
2266A
331
22685
  5
2266E
331
22686
  5
2266F
331
22687
  5
22670
331
22688
  5
22671
331
22689
  5
22672
331
2268A
  5
22673
331
2268B
  5
22674
  0
SORTENTSTABLE
  5
59C
102
{ACAD_REACTORS
330
59B
102
}
330
59B
100
AcDbSortentsTable
330
15
331
0
  5
222BC
331
0
  5
222BD
331
0
  5
222BE
331
0
  5
222BF
331
0
  5
222C0
331
0
  5
20A25
331
0
  5
20A26
331
0
  5
20A27
331
0
  5
20A28
331
0
  5
20A29
331
0
  5
222BB
  0
MATERIAL
  5
19DD5
102
{ACAD_REACTORS
330
2CF
102
}
102
{ACAD_XDICTIONARY
360
2282A
102
}
330
2CF
100
AcDbMaterial
  1
BYBLOCK
 72
     0
 73
     2
 43
0.0208333333333333
 43
0.0
 43
0.0
 43
0.0
 43
0.0
 43
0.0208333333333333
 43
0.0
 43
0.0
 43
0.0
 43
0.0
 43
1.0
 43
0.0
 43
0.0
 43
0.0
 43
0.0
 43
1.0
 77
     0
 78
     2
 47
0.0208333333333333
 47
0.0
 47
0.0
 47
0.0
 47
0.0
 47
0.0208333333333333
 47
0.0
 47
0.0
 47
0.0
 47
0.0
 47
1.0
 47
0.0
 47
0.0
 47
0.0
 47
0.0
 47
1.0
171
     0
172
     2
 49
0.0208333333333333
 49
0.0
 49
0.0
 49
0.0
 49
0.0
 49
0.0208333333333333
 49
0.0
 49
0.0
 49
0.0
 49
0.0
 49
1.0
 49
0.0
 49
0.0
 49
0.0
 49
0.0
 49
1.0
175
     0
176
     2
142
0.0208333333333333
142
0.0
142
0.0
142
0.0
142
0.0
142
0.0208333333333333
142
0.0
142
0.0
142
0.0
142
0.0
142
1.0
142
0.0
142
0.0
142
0.0
142
0.0
142
1.0
179
     0
270
     2
144
0.0208333333333333
144
0.0
144
0.0
144
0.0
144
0.0
144
0.0208333333333333
144
0.0
144
0.0
144
0.0
144
0.0
144
1.0
144
0.0
144
0.0
144
0.0
144
0.0
144
1.0
274
     2
147
0.0208333333333333
147
0.0
147
0.0
147
0.0
147
0.0
147
0.0208333333333333
147
0.0
147
0.0
147
0.0
147
0.0
147
1.0
147
0.0
147
0.0
147
0.0
147
0.0
147
1.0
  0
MATERIAL
  5
19DCD
102
{ACAD_REACTORS
330
2CF
102
}
102
{ACAD_XDICTIONARY
360
2282C
102
}
330
2CF
100
AcDbMaterial
  1
BYLAYER
 72
     0
 73
     2
 43
0.0208333333333333
 43
0.0
 43
0.0
 43
0.0
 43
0.0
 43
0.0208333333333333
 43
0.0
 43
0.0
 43
0.0
 43
0.0
 43
1.0
 43
0.0
 43
0.0
 43
0.0
 43
0.0
 43
1.0
 77
     0
 78
     2
 47
0.0208333333333333
 47
0.0
 47
0.0
 47
0.0
 47
0.0
 47
0.0208333333333333
 47
0.0
 47
0.0
 47
0.0
 47
0.0
 47
1.0
 47
0.0
 47
0.0
 47
0.0
 47
0.0
 47
1.0
171
     0
172
     2
 49
0.0208333333333333
 49
0.0
 49
0.0
 49
0.0
 49
0.0
 49
0.0208333333333333
 49
0.0
 49
0.0
 49
0.0
 49
0.0
 49
1.0
 49
0.0
 49
0.0
 49
0.0
 49
0.0
 49
1.0
175
     0
176
     2
142
0.0208333333333333
142
0.0
142
0.0
142
0.0
142
0.0
142
0.0208333333333333
142
0.0
142
0.0
142
0.0
142
0.0
142
1.0
142
0.0
142
0.0
142
0.0
142
0.0
142
1.0
179
     0
270
     2
144
0.0208333333333333
144
0.0
144
0.0
144
0.0
144
0.0
144
0.0208333333333333
144
0.0
144
0.0
144
0.0
144
0.0
144
1.0
144
0.0
144
0.0
144
0.0
144
0.0
144
1.0
274
     2
147
0.0208333333333333
147
0.0
147
0.0
147
0.0
147
0.0
147
0.0208333333333333
147
0.0
147
0.0
147
0.0
147
0.0
147
1.0
147
0.0
147
0.0
147
0.0
147
0.0
147
1.0
  0
MATERIAL
  5
19DDD
102
{ACAD_REACTORS
330
2CF
102
}
102
{ACAD_XDICTIONARY
360
2282E
102
}
330
2CF
100
AcDbMaterial
  1
GLOBAL
 72
     0
 73
     2
 43
0.0208333333333333
 43
0.0
 43
0.0
 43
0.0
 43
0.0
 43
0.0208333333333333
 43
0.0
 43
0.0
 43
0.0
 43
0.0
 43
1.0
 43
0.0
 43
0.0
 43
0.0
 43
0.0
 43
1.0
 77
     0
 78
     2
 47
0.0208333333333333
 47
0.0
 47
0.0
 47
0.0
 47
0.0
 47
0.0208333333333333
 47
0.0
 47
0.0
 47
0.0
 47
0.0
 47
1.0
 47
0.0
 47
0.0
 47
0.0
 47
0.0
 47
1.0
171
     0
172
     2
 49
0.0208333333333333
 49
0.0
 49
0.0
 49
0.0
 49
0.0
 49
0.0208333333333333
 49
0.0
 49
0.0
 49
0.0
 49
0.0
 49
1.0
 49
0.0
 49
0.0
 49
0.0
 49
0.0
 49
1.0
175
     0
176
     2
142
0.0208333333333333
142
0.0
142
0.0
142
0.0
142
0.0
142
0.0208333333333333
142
0.0
142
0.0
142
0.0
142
0.0
142
1.0
142
0.0
142
0.0
142
0.0
142
0.0
142
1.0
179
     0
270
     2
144
0.0208333333333333
144
0.0
144
0.0
144
0.0
144
0.0
144
0.0208333333333333
144
0.0
144
0.0
144
0.0
144
0.0
144
1.0
144
0.0
144
0.0
144
0.0
144
0.0
144
1.0
274
     2
147
0.0208333333333333
147
0.0
147
0.0
147
0.0
147
0.0
147
0.0208333333333333
147
0.0
147
0.0
147
0.0
147
0.0
147
1.0
147
0.0
147
0.0
147
0.0
147
0.0
147
1.0
  0
ACAD_PROXY_OBJECT
  5
19E19
102
{ACAD_REACTORS
330
19E18
102
}
330
19E18
100
AcDbZombieObject
 90
      499
 91
      512
 93
      610
310
40901902A4063FBFFFFFE000000000000002040AD7A3703D0AD73F4214DD185B99185C990000000000000104090141901A00000000000004100000000000000041025764000000000000300FC0
340
12
340
0
340
F
340
0
 94
        0
1001
ACAD_MLEADERVER
1070
     2
  0
MLINESTYLE
  5
1C
102
{ACAD_REACTORS
330
1B
102
}
330
1B
100
AcDbMlineStyle
  2
STANDARD
 70
     0
  3

 62
   256
 51
90.0
 52
90.0
 71
     2
 49
0.5
 62
   256
  6
BYLAYER
 49
-0.5
 62
   256
  6
BYLAYER
  0
ACAD_PROXY_OBJECT
  5
19DF7
102
{ACAD_REACTORS
330
19DF6
102
}
330
19DF6
100
AcDbZombieObject
 90
      499
 91
      511
 93
       41
310
903313A31580
  0
ACAD_PROXY_OBJECT
  5
19DF8
102
{ACAD_REACTORS
330
19DF6
102
}
330
19DF6
100
AcDbZombieObject
 90
      499
 91
      511
 93
      105
310
903313A324000000000000004000
  0
ACAD_PROXY_OBJECT
  5
19DF9
102
{ACAD_REACTORS
330
19DF6
102
}
330
19DF6
100
AcDbZombieObject
 90
      499
 91
      511
 93
      105
310
903313A344000000000000104000
  0
ACAD_PROXY_OBJECT
  5
19DFA
102
{ACAD_REACTORS
330
19DF6
102
}
330
19DF6
100
AcDbZombieObject
 90
      499
 91
      511
 93
      105
310
903313A354000000000000144000
  0
ACAD_PROXY_OBJECT
  5
19DFB
102
{ACAD_REACTORS
330
19DF6
102
}
330
19DF6
100
AcDbZombieObject
 90
      499
 91
      511
 93
      105
310
903313A384000000000000204000
  0
ACAD_PROXY_OBJECT
  5
19DFC
102
{ACAD_REACTORS
330
19DF6
102
}
330
19DF6
100
AcDbZombieObject
 90
      499
 91
      511
 93
      113
310
904313A31304000000000000244000
  0
ACAD_PROXY_OBJECT
  5
19DFD
102
{ACAD_REACTORS
330
19DF6
102
}
330
19DF6
100
AcDbZombieObject
 90
      499
 91
      511
 93
      113
310
904313A31364000000000000304000
  0
ACAD_PROXY_OBJECT
  5
19DFE
102
{ACAD_REACTORS
330
19DF6
102
}
330
19DF6
100
AcDbZombieObject
 90
      499
 91
      511
 93
      113
310
904313A32304000000000000344000
  0
ACAD_PROXY_OBJECT
  5
19DFF
102
{ACAD_REACTORS
330
19DF6
102
}
330
19DF6
100
AcDbZombieObject
 90
      499
 91
      511
 93
      113
310
904313A333040000000000003E4000
  0
ACAD_PROXY_OBJECT
  5
19E00
102
{ACAD_REACTORS
330
19DF6
102
}
330
19DF6
100
AcDbZombieObject
 90
      499
 91
      511
 93
      113
310
904313A34304000000000000444000
  0
ACAD_PROXY_OBJECT
  5
19E01
102
{ACAD_REACTORS
330
19DF6
102
}
330
19DF6
100
AcDbZombieObject
 90
      499
 91
      511
 93
      113
310
904313A35304000000000000494000
  0
ACAD_PROXY_OBJECT
  5
19E02
102
{ACAD_REACTORS
330
19DF6
102
}
330
19DF6
100
AcDbZombieObject
 90
      499
 91
      511
 93
      121
310
905313A3130304000000000000594000
  0
ACAD_PROXY_OBJECT
  5
19E03
102
{ACAD_REACTORS
330
19DF6
102
}
330
19DF6
100
AcDbZombieObject
 90
      499
 91
      511
 93
      105
310
903323A310000000000000010100
  0
ACAD_PROXY_OBJECT
  5
19E04
102
{ACAD_REACTORS
330
19DF6
102
}
330
19DF6
100
AcDbZombieObject
 90
      499
 91
      511
 93
      105
310
903343A310000000000000410100
  0
ACAD_PROXY_OBJECT
  5
19E05
102
{ACAD_REACTORS
330
19DF6
102
}
330
19DF6
100
AcDbZombieObject
 90
      499
 91
      511
 93
      105
310
903383A310000000000000810100
  0
ACAD_PROXY_OBJECT
  5
19E06
102
{ACAD_REACTORS
330
19DF6
102
}
330
19DF6
100
AcDbZombieObject
 90
      499
 91
      511
 93
      113
310
90431303A310000000000000910100
  0
ACAD_PROXY_OBJECT
  5
19E07
102
{ACAD_REACTORS
330
19DF6
102
}
330
19DF6
100
AcDbZombieObject
 90
      499
 91
      511
 93
      121
310
9053130303A310000000000001650100
  0
ACAD_PROXY_OBJECT
  5
19E08
102
{ACAD_REACTORS
330
19DF6
102
}
330
19DF6
100
AcDbZombieObject
 90
      499
 91
      511
 93
      257
310
90E312F31323822203D2031272D3022000000000000200FC000000000000284000
  0
ACAD_PROXY_OBJECT
  5
19E09
102
{ACAD_REACTORS
330
19DF6
102
}
330
19DF6
100
AcDbZombieObject
 90
      499
 91
      511
 93
      249
310
90D312F363422203D2031272D3022000000000000240FC000000000000284000
  0
ACAD_PROXY_OBJECT
  5
19E0A
102
{ACAD_REACTORS
330
19DF6
102
}
330
19DF6
100
AcDbZombieObject
 90
      499
 91
      511
 93
      249
310
90D312F333222203D2031272D3022000000000000280FC000000000000284000
  0
ACAD_PROXY_OBJECT
  5
19E0B
102
{ACAD_REACTORS
330
19DF6
102
}
330
19DF6
100
AcDbZombieObject
 90
      499
 91
      511
 93
      249
310
90D312F313622203D2031272D30220000000000002C0FC000000000000284000
  0
ACAD_PROXY_OBJECT
  5
19E0C
102
{ACAD_REACTORS
330
19DF6
102
}
330
19DF6
100
AcDbZombieObject
 90
      499
 91
      511
 93
      249
310
90D332F333222203D2031272D30220000000000002E0FC000000000000284000
  0
ACAD_PROXY_OBJECT
  5
19E0D
102
{ACAD_REACTORS
330
19DF6
102
}
330
19DF6
100
AcDbZombieObject
 90
      499
 91
      511
 93
      241
310
90C312F3822203D2031272D3022000000000000300FC000000000000284000
  0
ACAD_PROXY_OBJECT
  5
19E0E
102
{ACAD_REACTORS
330
19DF6
102
}
330
19DF6
100
AcDbZombieObject
 90
      499
 91
      511
 93
      249
310
90D332F313622203D2031272D3022000000000000320FC000000000000284000
  0
ACAD_PROXY_OBJECT
  5
19E0F
102
{ACAD_REACTORS
330
19DF6
102
}
330
19DF6
100
AcDbZombieObject
 90
      499
 91
      511
 93
      241
310
90C312F3422203D2031272D3022000000000000340FC000000000000284000
  0
ACAD_PROXY_OBJECT
  5
19E10
102
{ACAD_REACTORS
330
19DF6
102
}
330
19DF6
100
AcDbZombieObject
 90
      499
 91
      511
 93
      241
310
90C332F3822203D2031272D3022000000000000360FC000000000000284000
  0
ACAD_PROXY_OBJECT
  5
19E11
102
{ACAD_REACTORS
330
19DF6
102
}
330
19DF6
100
AcDbZombieObject
 90
      499
 91
      511
 93
      241
310
90C312F3222203D2031272D3022000000000000380FC000000000000284000
  0
ACAD_PROXY_OBJECT
  5
19E12
102
{ACAD_REACTORS
330
19DF6
102
}
330
19DF6
100
AcDbZombieObject
 90
      499
 91
      511
 93
      241
310
90C332F3422203D2031272D30220000000000003A0FC000000000000284000
  0
ACAD_PROXY_OBJECT
  5
19E13
102
{ACAD_REACTORS
330
19DF6
102
}
330
19DF6
100
AcDbZombieObject
 90
      499
 91
      511
 93
      161
310
90A3122203D2031272D30224000000000000284000
  0
ACAD_PROXY_OBJECT
  5
19E14
102
{ACAD_REACTORS
330
19DF6
102
}
330
19DF6
100
AcDbZombieObject
 90
      499
 91
      511
 93
      257
310
90E312D312F3222203D2031272D30220000000000003E0FC000000000000284000
  0
ACAD_PROXY_OBJECT
  5
19E15
102
{ACAD_REACTORS
330
19DF6
102
}
330
19DF6
100
AcDbZombieObject
 90
      499
 91
      511
 93
      225
310
90A3322203D2031272D302200000000000002100000000000000284000
  0
ACAD_PROXY_OBJECT
  5
19E16
102
{ACAD_REACTORS
330
19DF6
102
}
330
19DF6
100
AcDbZombieObject
 90
      499
 91
      511
 93
      225
310
90A3622203D2031272D302200000000000006100000000000000284000
  0
ACAD_PROXY_OBJECT
  5
19E17
102
{ACAD_REACTORS
330
19DF6
102
}
330
19DF6
100
AcDbZombieObject
 90
      499
 91
      511
 93
      249
310
90D31272D3022203D2031272D30220000000000000A100000000000000284000
  0
ACAD_PROXY_OBJECT
  5
19DEB
102
{ACAD_REACTORS
330
19DE5
102
}
330
19DE5
100
AcDbZombieObject
 90
      499
 91
      510
 93
      436
310
42CC9915DA5C99599C985B595049028333333333333E3BF0000000000000FB0107901411070040501600405405064090741402480A0340
1001
ACAD
1000
AcDbSavedByObjectVersion
1070
     0
  0
ACAD_PROXY_OBJECT
  5
19DED
102
{ACAD_REACTORS
330
19DE5
102
}
330
19DE5
100
AcDbZombieObject
 90
      499
 91
      510
 93
      500
310
424CD108121A5919195B90640502408333333333333E3BF0000000000000FB01079024090700405020000000000001110200405405064090740C02480A0340
1001
ACAD
1000
AcDbSavedByObjectVersion
1070
     0
  0
ACAD_PROXY_OBJECT
  5
19DEC
102
{ACAD_REACTORS
330
19DE5
102
}
330
19DE5
100
AcDbZombieObject
 90
      499
 91
      510
 93
      436
310
42CCD915DA5C99599C985B595059028333333333333E3BF0000000000000FB0107901411070040501600405405064090741402480A0340
1001
ACAD
1000
AcDbSavedByObjectVersion
1070
     0
  0
ACAD_PROXY_OBJECT
  5
19DEA
102
{ACAD_REACTORS
330
19DE5
102
}
330
19DE5
100
AcDbZombieObject
 90
      499
 91
      510
 93
      388
310
4150985CDA58D07406404333333333333E3BF0000000000000FB0107A41107004050150841D405064090741402480A0350
1001
ACAD
1000
AcDbSavedByObjectVersion
1070
     0
  0
ACAD_PROXY_OBJECT
  5
19DF1
102
{ACAD_REACTORS
330
19DE5
102
}
330
19DE5
100
AcDbZombieObject
 90
      499
 91
      510
 93
      428
310
42109C9A59DA1D195B90C409028333333333333E3BF0000000000000FB010790141107004050150841D405064090741402480A029950
1001
ACAD
1000
AcDbSavedByObjectVersion
1070
     0
  0
ACAD_PROXY_OBJECT
  5
19DF5
102
{ACAD_REACTORS
330
19DE5
102
}
330
19DE5
100
AcDbZombieObject
 90
      499
 91
      510
 93
      452
310
42D0DBDB1BDC90DA185B99D95104090240C333333333333E3BF0000000000000FB0108901411070040501508421405064090741402480A0350
1001
ACAD
1000
AcDbSavedByObjectVersion
1070
     0
  0
ACAD_PROXY_OBJECT
  5
19DEE
102
{ACAD_REACTORS
330
19DE5
102
}
330
19DE5
100
AcDbZombieObject
 90
      499
 91
      510
 93
      500
310
4290DBDB98D95C1D1D585B10940D028333333333333E3BF0000000000000FB0107902409070040501000000000000111010841D405064090740C02480A0340
1001
ACAD
1000
AcDbSavedByObjectVersion
1070
     0
  0
ACAD_PROXY_OBJECT
  5
19DF0
102
{ACAD_REACTORS
330
19DE5
102
}
330
19DE5
100
AcDbZombieObject
 90
      499
 91
      510
 93
      412
310
40D11A5B50B409028333333333333E3BF0000000000000FB010790141107004050150841D405064090741402480A02677FFFFFD0
1001
ACAD
1000
AcDbSavedByObjectVersion
1070
     0
  0
ACAD_PROXY_OBJECT
  5
1E02A
102
{ACAD_REACTORS
330
19DE5
102
}
330
19DE5
100
AcDbZombieObject
 90
      499
 91
      510
 93
      452
310
43115919D950DBDB1BDC93D999916409028333333333333E3BF0000000000000FB010790141107004050150841D405064090741402480A0350
1001
ACAD
1000
AcDbSavedByObjectVersion
1070
     0
  0
ACAD_PROXY_OBJECT
  5
19DF4
102
{ACAD_REACTORS
330
19DE5
102
}
330
19DE5
100
AcDbZombieObject
 90
      499
 91
      510
 93
      444
310
42D19858D95C185D1D195C9B90F409028333333333333E3BF0000000000000FB010790141107004050150841D405064090741402480A0350
1001
ACAD
1000
AcDbSavedByObjectVersion
1070
     0
  0
ACAD_PROXY_OBJECT
  5
19DE6
102
{ACAD_REACTORS
330
19DE5
102
}
330
19DE5
100
AcDbZombieObject
 90
      499
 91
      510
 93
      388
310
41119B185D240901404333333333333E3BF0000000000000F9010740A41107004050150841D405064090741402480A1B50
1001
ACAD
1000
AcDbSavedByObjectVersion
1070
     0
  0
ACAD_PROXY_OBJECT
  5
19DE7
102
{ACAD_REACTORS
330
19DE5
102
}
330
19DE5
100
AcDbZombieObject
 90
      499
 91
      510
 93
      476
310
43519B185D15DA5D1A115919D95CD0140901404333333333333E3BF0000000000000F9010740901411070040501600405405064090741402480A1B50
1001
ACAD
1000
AcDbSavedByObjectVersion
1070
     0
  0
ACAD_PROXY_OBJECT
  5
19DE8
102
{ACAD_REACTORS
330
19DE5
102
}
330
19DE5
100
AcDbZombieObject
 90
      499
 91
      510
 93
      412
310
41D1DBDD5C985D5910240902404333333333333E3BF0000000000000F9010740A411070040501641D405064090741402480A1B50
1001
ACAD
1000
AcDbSavedByObjectVersion
1070
     0
  0
ACAD_PROXY_OBJECT
  5
19DE9
102
{ACAD_REACTORS
330
19DE5
102
}
330
19DE5
100
AcDbZombieObject
 90
      499
 91
      510
 93
      500
310
4411DBDD5C985D5915DA5D1A115919D95CD0340902404333333333333E3BF0000000000000F9010740901411070040501600405405064090741402480A1B50
1001
ACAD
1000
AcDbSavedByObjectVersion
1070
     0
  0
ACAD_PROXY_OBJECT
  5
1F381
102
{ACAD_REACTORS
330
19DE5
102
}
330
19DE5
100
AcDbZombieObject
 90
      499
 91
      510
 93
      476
310
41921A5919195B90640502408333333333333E3BF0000000000000FB01079024090700405020000000000001110200405405064090740C02480A0340
1001
ACAD
1000
AcDbSavedByObjectVersion
1070
     0
  0
ACAD_PROXY_OBJECT
  5
1E028
102
{ACAD_REACTORS
330
19DE5
102
}
330
19DE5
100
AcDbZombieObject
 90
      499
 91
      510
 93
      428
310
42529A5D1D195C93D999914409028333333333333E3BF0000000000000FB010790141107004050150A41D405064090741402480A0350
1001
ACAD
1000
AcDbSavedByObjectVersion
1070
     0
  0
ACAD_PROXY_OBJECT
  5
19DF3
102
{ACAD_REACTORS
330
19DE5
102
}
330
19DE5
100
AcDbZombieObject
 90
      499
 91
      510
 93
      444
310
42D31A5B995C185D1D195C9B90E409028333333333333E3BF0000000000000FB010790141107004050750841D405064090741402483A0350
1001
ACAD
1000
AcDbSavedByObjectVersion
1070
     0
  0
ACAD_PROXY_OBJECT
  5
219D4
102
{ACAD_REACTORS
330
19DE5
102
}
330
19DE5
100
AcDbZombieObject
 90
      499
 91
      510
 93
      484
310
42135BD9195B1A5B99D0A409038333333333333E33F0000000000000F901074090290700405010000000000201990108421405064090741402480A1B40
1001
ACAD
1000
AcDbSavedByObjectVersion
1070
     0
  0
ACAD_PROXY_OBJECT
  5
1E029
102
{ACAD_REACTORS
330
19DE5
102
}
330
19DE5
100
AcDbZombieObject
 90
      499
 91
      510
 93
      444
310
42D3DD995C9A185B99D3D999915409028333333333333E3BF0000000000000FB010790141107004050150941D405064090741402480A0350
1001
ACAD
1000
AcDbSavedByObjectVersion
1070
     0
  0
ACAD_PROXY_OBJECT
  5
19DEF
102
{ACAD_REACTORS
330
19DE5
102
}
330
19DE5
100
AcDbZombieObject
 90
      499
 91
      510
 93
      420
310
425499585B1A5CDD1A58D08409028333333333333E3BF0000000000000FB01079019070040501508421405064090741402480A1B40
1001
ACAD
1000
AcDbSavedByObjectVersion
1070
     0
  0
ACAD_PROXY_OBJECT
  5
1F386
102
{ACAD_REACTORS
330
19DE5
102
}
330
19DE5
100
AcDbZombieObject
 90
      499
 91
      510
 93
      420
310
4194DA1859195911B40902404333333333333E3BF0000000000000F9010740A41107004050150800405405064090840C02480A0B40
1001
ACAD
1000
AcDbSavedByObjectVersion
1070
     0
  0
ACAD_PROXY_OBJECT
  5
1F385
102
{ACAD_REACTORS
330
19DE5
102
}
330
19DE5
100
AcDbZombieObject
 90
      499
 91
      510
 93
      516
310
4454DA18591959081DDA5D1A08195919D95CD1A40902404333333333333E3BF0000000000000F901074090142907004050250800405405064090740C02480A0B40
1001
ACAD
1000
AcDbSavedByObjectVersion
1070
     0
  0
ACAD_PROXY_OBJECT
  5
1F382
102
{ACAD_REACTORS
330
19DE5
102
}
330
19DE5
100
AcDbZombieObject
 90
      499
 91
      510
 93
      532
310
4394DA1859195CC81BD98811DC985E5174090240C333333333333E3BF0000000000000FB01079024090741D01000000000000111010841D405064090740C02480A0340
1001
ACAD
1000
AcDbSavedByObjectVersion
1070
     0
  0
ACAD_PROXY_OBJECT
  5
1F383
102
{ACAD_REACTORS
330
19DE5
102
}
330
19DE5
100
AcDbZombieObject
 90
      499
 91
      510
 93
      476
310
41D4DAD95D18DA1E51840502408333333333333E3BF0000000000000FB01079024090741D01000000000000111010B41D405064090741802480A0340
1001
ACAD
1000
AcDbSavedByObjectVersion
1070
     0
  0
ACAD_PROXY_OBJECT
  5
19DF2
102
{ACAD_REACTORS
330
19DE5
102
}
330
19DE5
100
AcDbZombieObject
 90
      499
 91
      510
 93
      412
310
41D51A1A58DAD95B90D409028333333333333E3BF0000000000000FB010790141107004050150C41D405064090741402480A0350
1001
ACAD
1000
AcDbSavedByObjectVersion
1070
     0
  0
ACAD_PROXY_OBJECT
  5
1F380
102
{ACAD_REACTORS
330
19DE5
102
}
330
19DE5
100
AcDbZombieObject
 90
      499
 91
      510
 93
      420
310
4255DA5C99599C985B595059028333333333333E3BF0000000000000FB0107901411070040501600405405064090740C02480A0340
1001
ACAD
1000
AcDbSavedByObjectVersion
1070
     0
  0
ACAD_PROXY_OBJECT
  5
1F384
102
{ACAD_REACTORS
330
19DE5
102
}
330
19DE5
100
AcDbZombieObject
 90
      499
 91
      510
 93
      404
310
41560B54985E51940902404000000000000E03F0000000000000FB010740501907004050150841D405064090740C02480A1B40
1001
ACAD
1000
AcDbSavedByObjectVersion
1070
     0
  0
XRECORD
  5
2268D
102
{ACAD_REACTORS
330
2268C
102
}
330
2268C
100
AcDbXrecord
340
2D0
  0
XRECORD
  5
2268E
102
{ACAD_REACTORS
330
2268C
102
}
330
2268C
100
AcDbXrecord
340
2CF
  0
DICTIONARYVAR
  5
219EB
102
{ACAD_REACTORS
330
37
102
}
330
37
100
DictionaryVariables
280
     0
  1
1:1
  0
DICTIONARYVAR
  5
1AC19
102
{ACAD_REACTORS
330
37
102
}
330
37
100
DictionaryVariables
280
     0
  1
Standard
  0
DICTIONARYVAR
  5
4F1
102
{ACAD_REACTORS
330
37
102
}
330
37
100
DictionaryVariables
280
     0
  1
Standard
  0
DICTIONARYVAR
  5
38
102
{ACAD_REACTORS
330
37
102
}
330
37
100
DictionaryVariables
280
     0
  1
-1
  0
DICTIONARYVAR
  5
408
102
{ACAD_REACTORS
330
37
102
}
330
37
100
DictionaryVariables
280
     0
  1
2
  0
DICTIONARYVAR
  5
1891
102
{ACAD_REACTORS
330
37
102
}
330
37
100
DictionaryVariables
280
     0
  1
1
  0
DICTIONARYVAR
  5
1AC1C
102
{ACAD_REACTORS
330
37
102
}
330
37
100
DictionaryVariables
280
     0
  1
0
  0
DICTIONARYVAR
  5
1895
102
{ACAD_REACTORS
330
37
102
}
330
37
100
DictionaryVariables
280
     0
  1
8
  0
DICTIONARYVAR
  5
1894
102
{ACAD_REACTORS
330
37
102
}
330
37
100
DictionaryVariables
280
     0
  1
1
  0
DICTIONARYVAR
  5
211C3
102
{ACAD_REACTORS
330
37
102
}
330
37
100
DictionaryVariables
280
     0
  1
0
  0
DICTIONARYVAR
  5
211C4
102
{ACAD_REACTORS
330
37
102
}
330
37
100
DictionaryVariables
280
     0
  1
0
  0
DICTIONARYVAR
  5
20A9B
102
{ACAD_REACTORS
330
37
102
}
330
37
100
DictionaryVariables
280
     0
  1
0
  0
DICTIONARYVAR
  5
1892
102
{ACAD_REACTORS
330
37
102
}
330
37
100
DictionaryVariables
280
     0
  1
120
  0
DICTIONARYVAR
  5
1893
102
{ACAD_REACTORS
330
37
102
}
330
37
100
DictionaryVariables
280
     0
  1
0
  0
DICTIONARYVAR
  5
409
102
{ACAD_REACTORS
330
37
102
}
330
37
100
DictionaryVariables
280
     0
  1

  0
DICTIONARYVAR
  5
1AC1B
102
{ACAD_REACTORS
330
37
102
}
330
37
100
DictionaryVariables
280
     0
  1
127
  0
DICTIONARYVAR
  5
219D3
102
{ACAD_REACTORS
330
37
102
}
330
37
100
DictionaryVariables
280
     0
  1
2
  0
DICTIONARY
  5
2282A
330
19DD5
100
AcDbDictionary
  3
ACAD_XREC_ROUNDTRIP
360
2282B
1001
ACAD
1000
TREAT_AS_HARD
1070
     1
  0
DICTIONARY
  5
2282C
330
19DCD
100
AcDbDictionary
  3
ACAD_XREC_ROUNDTRIP
360
2282D
1001
ACAD
1000
TREAT_AS_HARD
1070
     1
  0
DICTIONARY
  5
2282E
330
19DDD
100
AcDbDictionary
  3
ACAD_XREC_ROUNDTRIP
360
2282F
1001
ACAD
1000
TREAT_AS_HARD
1070
     1
  0
XRECORD
  5
2282B
102
{ACAD_REACTORS
330
2282A
102
}
330
2282A
100
AcDbXrecord
102
MATERIAL
148
0.0
149
0.0
149
0.0
 93
        0
 94
      127
282
     0
 72
     0
 77
     0
171
     0
175
     0
179
     0
273
     0
  0
XRECORD
  5
2282D
102
{ACAD_REACTORS
330
2282C
102
}
330
2282C
100
AcDbXrecord
102
MATERIAL
148
0.0
149
0.0
149
0.0
 93
        0
 94
      127
282
     0
 72
     0
 77
     0
171
     0
175
     0
179
     0
273
     0
  0
XRECORD
  5
2282F
102
{ACAD_REACTORS
330
2282E
102
}
330
2282E
100
AcDbXrecord
102
MATERIAL
148
0.0
149
0.0
149
0.0
 93
        0
 94
      127
282
     0
 72
     0
 77
     0
171
     0
175
     0
179
     0
273
     0
  0
ENDSEC
  0
EOF
