  0
SECTION
  2
HEADER
  9
$ACADVER
  1
AC1012
  9
$DWGCODEPAGE
  3
ansi_932
  9
$INSBASE
 10
0.0
 20
0.0
 30
0.0
  9
$EXTMIN
 10
156.8162416153639
 20
-726.4194734900652
 30
0.0
  9
$EXTMAX
 10
780.862472150651
 20
-469.6313618801589
 30
0.0
  9
$LIMMIN
 10
0.0
 20
0.0
  9
$LIMMAX
 10
420.0
 20
297.0
  9
$ORTHOMODE
 70
     0
  9
$REGENMODE
 70
     1
  9
$FILLMODE
 70
     1
  9
$QTEXTMODE
 70
     0
  9
$MIRRTEXT
 70
     0
  9
$DRAGMODE
 70
     2
  9
$LTSCALE
 40
0.5
  9
$OSMODE
 70
 14591
  9
$ATTMODE
 70
     1
  9
$TEXTSIZE
 40
4.0
  9
$TRACEWID
 40
1.0
  9
$TEXTSTYLE
  7
STANDARD
  9
$CLAYER
  8
1TEXT
  9
$CELTYPE
  6
BYLAYER
  9
$CECOLOR
 62
   256
  9
$CELTSCALE
 40
1.0
  9
$DELOBJ
 70
     1
  9
$DISPSILH
 70
     0
  9
$DIMSCALE
 40
1.0
  9
$DIMASZ
 40
2.0
  9
$DIMEXO
 40
0.0
  9
$DIMDLI
 40
7.0
  9
$DIMRND
 40
0.0
  9
$DIMDLE
 40
0.0
  9
$DIMEXE
 40
1.0
  9
$DIMTP
 40
0.0
  9
$DIMTM
 40
0.0
  9
$DIMTXT
 40
3.5
  9
$DIMCEN
 40
0.0
  9
$DIMTSZ
 40
0.0
  9
$DIMTOL
 70
     0
  9
$DIMLIM
 70
     0
  9
$DIMTIH
 70
     0
  9
$DIMTOH
 70
     0
  9
$DIMSE1
 70
     0
  9
$DIMSE2
 70
     0
  9
$DIMTAD
 70
     1
  9
$DIMZIN
 70
     8
  9
$DIMBLK
  1

  9
$DIMASO
 70
     1
  9
$DIMSHO
 70
     1
  9
$DIMPOST
  1
 
  9
$DIMAPOST
  1

  9
$DIMALT
 70
     0
  9
$DIMALTD
 70
     2
  9
$DIMALTF
 40
25.4
  9
$DIMLFAC
 40
1.0
  9
$DIMTOFL
 70
     1
  9
$DIMTVP
 40
0.0
  9
$DIMTIX
 70
     0
  9
$DIMSOXD
 70
     0
  9
$DIMSAH
 70
     1
  9
$DIMBLK1
  1
OPEN30
  9
$DIMBLK2
  1
OPEN30
  9
$DIMSTYLE
  2
NEWX10
  9
$DIMCLRD
 70
   256
  9
$DIMCLRE
 70
   256
  9
$DIMCLRT
 70
   201
  9
$DIMTFAC
 40
0.7
  9
$DIMGAP
 40
0.7
  9
$DIMJUST
 70
     0
  9
$DIMSD1
 70
     0
  9
$DIMSD2
 70
     0
  9
$DIMTOLJ
 70
     1
  9
$DIMTZIN
 70
     8
  9
$DIMALTZ
 70
     0
  9
$DIMALTTZ
 70
     0
  9
$DIMFIT
 70
     3
  9
$DIMUPT
 70
     0
  9
$DIMUNIT
 70
     2
  9
$DIMDEC
 70
     2
  9
$DIMTDEC
 70
     4
  9
$DIMALTU
 70
     2
  9
$DIMALTTD
 70
     2
  9
$DIMTXSTY
  7
STANDARD
  9
$DIMAUNIT
 70
     0
  9
$LUNITS
 70
     2
  9
$LUPREC
 70
     4
  9
$SKETCHINC
 40
1.0
  9
$FILLETRAD
 40
0.0
  9
$AUNITS
 70
     0
  9
$AUPREC
 70
     2
  9
$MENU
  1
acad
  9
$ELEVATION
 40
0.0
  9
$PELEVATION
 40
0.0
  9
$THICKNESS
 40
0.0
  9
$LIMCHECK
 70
     0
  9
$CHAMFERA
 40
1.0
  9
$CHAMFERB
 40
1.0
  9
$CHAMFERC
 40
20.0
  9
$CHAMFERD
 40
0.0
  9
$SKPOLY
 70
     0
  9
$TDCREATE
 40
2453033.732663484
  9
$TDUPDATE
 40
2458277.545059757
  9
$TDINDWG
 40
2.3871731829
  9
$TDUSRTIMER
 40
2.3871731829
  9
$USRTIMER
 70
     1
  9
$ANGBASE
 50
0.0
  9
$ANGDIR
 70
     0
  9
$PDMODE
 70
     0
  9
$PDSIZE
 40
0.0
  9
$PLINEWID
 40
0.0
  9
$COORDS
 70
     2
  9
$SPLFRAME
 70
     0
  9
$SPLINETYPE
 70
     6
  9
$SPLINESEGS
 70
     8
  9
$ATTDIA
 70
     0
  9
$ATTREQ
 70
     1
  9
$HANDLING
 70
     1
  9
$HANDSEED
  5
224BE
  9
$SURFTAB1
 70
     6
  9
$SURFTAB2
 70
     6
  9
$SURFTYPE
 70
     6
  9
$SURFU
 70
     6
  9
$SURFV
 70
     6
  9
$UCSNAME
  2

  9
$UCSORG
 10
0.0
 20
0.0
 30
0.0
  9
$UCSXDIR
 10
1.0
 20
0.0
 30
0.0
  9
$UCSYDIR
 10
0.0
 20
1.0
 30
0.0
  9
$PUCSNAME
  2

  9
$PUCSORG
 10
0.0
 20
0.0
 30
0.0
  9
$PUCSXDIR
 10
1.0
 20
0.0
 30
0.0
  9
$PUCSYDIR
 10
0.0
 20
1.0
 30
0.0
  9
$USERI1
 70
     0
  9
$USERI2
 70
     0
  9
$USERI3
 70
     0
  9
$USERI4
 70
     0
  9
$USERI5
 70
     0
  9
$USERR1
 40
0.0
  9
$USERR2
 40
0.0
  9
$USERR3
 40
0.0
  9
$USERR4
 40
0.0
  9
$USERR5
 40
0.0
  9
$WORLDVIEW
 70
     1
  9
$SHADEDGE
 70
     3
  9
$SHADEDIF
 70
    70
  9
$TILEMODE
 70
     1
  9
$MAXACTVP
 70
    48
  9
$PINSBASE
 10
0.0
 20
0.0
 30
0.0
  9
$PLIMCHECK
 70
     0
  9
$PEXTMIN
 10
1.000000000000000E+20
 20
1.000000000000000E+20
 30
1.000000000000000E+20
  9
$PEXTMAX
 10
-1.000000000000000E+20
 20
-1.000000000000000E+20
 30
-1.000000000000000E+20
  9
$PLIMMIN
 10
0.0
 20
0.0
  9
$PLIMMAX
 10
420.0
 20
297.0
  9
$UNITMODE
 70
     0
  9
$VISRETAIN
 70
     1
  9
$PLINEGEN
 70
     0
  9
$PSLTSCALE
 70
     1
  9
$TREEDEPTH
 70
  3020
  9
$PICKSTYLE
 70
     1
  9
$CMLSTYLE
  2
STANDARD
  9
$CMLJUST
 70
     0
  9
$CMLSCALE
 40
20.0
  9
$SAVEIMAGES
 70
     1
  0
ENDSEC
  0
SECTION
  2
CLASSES
  0
CLASS
  1
DICTIONARYVAR
  2
AcDbDictionaryVar
  3
ObjectDBX Classes
 90
        0
280
     0
281
     0
  0
CLASS
  1
IDBUFFER
  2
AcDbIdBuffer
  3
ObjectDBX Classes
 90
    32768
280
     0
281
     0
  0
CLASS
  1
LWPOLYLINE
  2
AcDbPolyline
  3
ObjectDBX Classes
 90
    32768
280
     0
281
     1
  0
CLASS
  1
ACDBDICTIONARYWDFLT
  2
AcDbDictionaryWithDefault
  3
ObjectDBX Classes
 90
    32768
280
     0
281
     0
  0
CLASS
  1
ACDBPLACEHOLDER
  2
AcDbPlaceHolder
  3
ObjectDBX Classes
 90
        0
280
     0
281
     0
  0
CLASS
  1
LAYOUT
  2
AcDbLayout
  3
ObjectDBX Classes
 90
        0
280
     0
281
     0
  0
CLASS
  1
TABLESTYLE
  2
AcDbTableStyle
  3
ObjectDBX Classes
 90
     4095
280
     0
281
     0
  0
CLASS
  1
SORTENTSTABLE
  2
AcDbSortentsTable
  3
ObjectDBX Classes
 90
    32768
280
     0
281
     0
  0
CLASS
  1
DIMASSOC
  2
AcDbDimAssoc
  3
"AcDbDimAssoc|Product Desc:     AcDim ARX App For Dimension|Company:          Autodesk, Inc.|WEB Address:      www.autodesk.com"
 90
        0
280
     0
281
     0
  0
CLASS
  1
MATERIAL
  2
AcDbMaterial
  3
ObjectDBX Classes
 90
     1153
280
     0
281
     0
  0
CLASS
  1
VISUALSTYLE
  2
AcDbVisualStyle
  3
ObjectDBX Classes
 90
     4095
280
     0
281
     0
  0
CLASS
  1
SCALE
  2
AcDbScale
  3
ObjectDBX Classes
 90
     1153
280
     0
281
     0
  0
CLASS
  1
MLEADERSTYLE
  2
AcDbMLeaderStyle
  3
ACDB_MLEADERSTYLE_CLASS
 90
     4095
280
     0
281
     0
  0
CLASS
  1
CELLSTYLEMAP
  2
AcDbCellStyleMap
  3
ObjectDBX Classes
 90
     1152
280
     0
281
     0
  0
CLASS
  1
EXACXREFPANELOBJECT
  2
ExAcXREFPanelObject
  3
EXAC_ESW
 90
     1025
280
     1
281
     0
  0
CLASS
  1
NPOCOLLECTION
  2
AcDbImpNonPersistentObjectsCollection
  3
ObjectDBX Classes
 90
     1153
280
     1
281
     0
  0
CLASS
  1
SUN
  2
AcDbSun
  3
SCENEOE
 90
     1153
280
     0
281
     0
  0
CLASS
  1
XRECORD
  2
AcDbXrecord
  3
ObjectDBX Classes
 90
    32768
280
     0
281
     0
  0
CLASS
  1
HATCH
  2
AcDbHatch
  3
ObjectDBX Classes
 90
    32768
280
     0
281
     1
  0
ENDSEC
  0
SECTION
  2
TABLES
  0
TABLE
  2
VPORT
  5
8
330
0
100
AcDbSymbolTable
 70
     1
  0
VPORT
  5
19DC2
330
8
100
AcDbSymbolTableRecord
100
AcDbViewportTableRecord
  2
*ACTIVE
 70
     0
 10
0.0
 20
0.0
 11
1.0
 21
1.0
 12
468.8393568830074
 22
-598.0254176851121
 13
0.0
 23
0.0
 14
10.0
 24
10.0
 15
10.0
 25
10.0
 16
0.0
 26
0.0
 36
1.0
 17
0.0
 27
0.0
 37
0.0
 40
351.5943299320163
 41
1.905686546463246
 42
50.0
 43
0.0
 44
0.0
 50
0.0
 51
0.0
 71
    16
 72
  1000
 73
     1
 74
     1
 75
     0
 76
     0
 77
     0
 78
     0
1001
ACAD_NAV_VCDISPLAY
1070
     3
  0
ENDTAB
  0
TABLE
  2
LTYPE
  5
5
330
0
100
AcDbSymbolTable
 70
     3
  0
LTYPE
  5
12
330
5
100
AcDbSymbolTableRecord
100
AcDbLinetypeTableRecord
  2
BYBLOCK
 70
     0
  3

 72
    65
 73
     0
 40
0.0
  0
LTYPE
  5
13
330
5
100
AcDbSymbolTableRecord
100
AcDbLinetypeTableRecord
  2
BYLAYER
 70
     0
  3

 72
    65
 73
     0
 40
0.0
  0
LTYPE
  5
14
330
5
100
AcDbSymbolTableRecord
100
AcDbLinetypeTableRecord
  2
CONTINUOUS
 70
     0
  3
Solid line
 72
    65
 73
     0
 40
0.0
  0
LTYPE
  5
100
330
5
100
AcDbSymbolTableRecord
100
AcDbLinetypeTableRecord
  2
PHANTOM2
 70
     0
  3
Phantom (0.5x) ___ _ _ ___ _ _ ___ _ _ ___ _ _
 72
    65
 73
     6
 40
31.75
 49
15.875
 74
     0
 49
-3.175
 74
     0
 49
3.175
 74
     0
 49
-3.175
 74
     0
 49
3.175
 74
     0
 49
-3.175
 74
     0
  0
LTYPE
  5
217F6
330
5
100
AcDbSymbolTableRecord
100
AcDbLinetypeTableRecord
  2
CENTER2
 70
     0
  3
Center (.5x) ___ _ ___ _ ___ _ ___ _ ___ _ ___
 72
    65
 73
     4
 40
28.575
 49
19.05
 74
     0
 49
-3.175
 74
     0
 49
3.175
 74
     0
 49
-3.175
 74
     0
  0
ENDTAB
  0
TABLE
  2
LAYER
  5
2
102
{ACAD_XDICTIONARY
360
18FE8
102
}
330
0
100
AcDbSymbolTable
 70
     8
  0
LAYER
  5
E
102
{ACAD_XDICTIONARY
360
1A20A
102
}
330
2
100
AcDbSymbolTableRecord
100
AcDbLayerTableRecord
  2
0
 70
     0
 62
     7
  6
CONTINUOUS
  0
LAYER
  5
29
102
{ACAD_XDICTIONARY
360
1A20C
102
}
330
2
100
AcDbSymbolTableRecord
100
AcDbLayerTableRecord
  2
1CENTER
 70
     0
 62
     7
  6
CENTER2
  0
LAYER
  5
31
102
{ACAD_XDICTIONARY
360
1A20E
102
}
330
2
100
AcDbSymbolTableRecord
100
AcDbLayerTableRecord
  2
1TEXT
 70
     0
 62
     7
  6
CONTINUOUS
  0
LAYER
  5
101
102
{ACAD_XDICTIONARY
360
1A218
102
}
330
2
100
AcDbSymbolTableRecord
100
AcDbLayerTableRecord
  2
1DIM
 70
     0
 62
     7
  6
CONTINUOUS
  0
LAYER
  5
103
102
{ACAD_XDICTIONARY
360
1A21C
102
}
330
2
100
AcDbSymbolTableRecord
100
AcDbLayerTableRecord
  2
1PHANTOM
 70
     0
 62
     7
  6
PHANTOM2
  0
LAYER
  5
26A
102
{ACAD_XDICTIONARY
360
1A236
102
}
330
2
100
AcDbSymbolTableRecord
100
AcDbLayerTableRecord
  2
1DIM1
 70
     0
 62
     7
  6
CONTINUOUS
  0
LAYER
  5
21114
330
2
100
AcDbSymbolTableRecord
100
AcDbLayerTableRecord
  2
1HATCH
 70
     0
 62
     7
  6
CONTINUOUS
  0
LAYER
  5
22172
330
2
100
AcDbSymbolTableRecord
100
AcDbLayerTableRecord
  2
01
 70
     0
 62
     1
  6
CONTINUOUS
  0
ENDTAB
  0
TABLE
  2
STYLE
  5
3
330
0
100
AcDbSymbolTable
 70
     1
  0
STYLE
  5
F
330
3
100
AcDbSymbolTableRecord
100
AcDbTextStyleTableRecord
  2
STANDARD
 70
     0
 40
0.0
 41
1.0
 50
0.0
 71
     0
 42
4.0
  3
txt.shx
  4
extfont.shx
  0
ENDTAB
  0
TABLE
  2
VIEW
  5
6
330
0
100
AcDbSymbolTable
 70
     0
  0
ENDTAB
  0
TABLE
  2
UCS
  5
7
330
0
100
AcDbSymbolTable
 70
     5
  0
UCS
  5
211A5
330
7
100
AcDbSymbolTableRecord
100
AcDbUCSTableRecord
  2
U
 70
     0
 10
0.0
 20
0.0
 30
0.0
 11
1.0
 21
0.0
 31
0.0
 12
0.0
 22
2.220446049250313E-16
 32
1.0
 79
     0
146
0.0
  0
UCS
  5
211A6
330
7
100
AcDbSymbolTableRecord
100
AcDbUCSTableRecord
  2
L
 70
     0
 10
0.0
 20
0.0
 30
0.0
 11
-2.220446049250313E-16
 21
-1.0
 31
2.220446049250313E-16
 12
0.0
 22
2.220446049250313E-16
 32
1.0
 79
     0
146
0.0
  0
UCS
  5
211A7
330
7
100
AcDbSymbolTableRecord
100
AcDbUCSTableRecord
  2
R
 70
     0
 10
0.0
 20
0.0
 30
0.0
 11
3.445092848397667E-16
 21
1.0
 31
-2.220446049250313E-16
 12
0.0
 22
2.220446049250313E-16
 32
1.0
 79
     0
146
0.0
  0
UCS
  5
211A8
330
7
100
AcDbSymbolTableRecord
100
AcDbUCSTableRecord
  2
ISOME
 70
     0
 10
0.0
 20
0.0
 30
0.0
 11
0.7071450863198265
 21
-0.7070684729403536
 31
-3.830824619466267E-5
 12
0.4082704059428734
 22
0.4082704077401151
 32
0.8164744636514736
 79
     0
146
0.0
  0
UCS
  5
211A9
330
7
100
AcDbSymbolTableRecord
100
AcDbUCSTableRecord
  2
PERSPECTIVE
 70
     0
 10
0.0
 20
0.0
 30
0.0
 11
0.8191477691768964
 21
-0.5735823260466403
 31
-0.0004974931557765462
 12
0.1584844715982971
 22
0.225502028986108
 32
0.961265575782966
 79
     0
146
0.0
  0
ENDTAB
  0
TABLE
  2
APPID
  5
9
330
0
100
AcDbSymbolTable
 70
    16
  0
APPID
  5
10
330
9
100
AcDbSymbolTableRecord
100
AcDbRegAppTableRecord
  2
ACAD
 70
     0
  0
APPID
  5
21
330
9
100
AcDbSymbolTableRecord
100
AcDbRegAppTableRecord
  2
DRAWINGVARIABLESXDATA
 70
     0
  0
APPID
  5
64
330
9
100
AcDbSymbolTableRecord
100
AcDbRegAppTableRecord
  2
CONTENTTABDATA
 70
     0
  0
APPID
  5
65
330
9
100
AcDbSymbolTableRecord
100
AcDbRegAppTableRecord
  2
CONTENTCURRENTTAB
 70
     0
  0
APPID
  5
66
330
9
100
AcDbSymbolTableRecord
100
AcDbRegAppTableRecord
  2
CONTENTBLOCKDESCRIPTION
 70
     0
  0
APPID
  5
67
330
9
100
AcDbSymbolTableRecord
100
AcDbRegAppTableRecord
  2
CONTENTBLOCKICON
 70
     0
  0
APPID
  5
68
330
9
100
AcDbSymbolTableRecord
100
AcDbRegAppTableRecord
  2
CONTENTLONGBLOCKNAME
 70
     0
  0
APPID
  5
5A9
330
9
100
AcDbSymbolTableRecord
100
AcDbRegAppTableRecord
  2
ACAD_PSEXT
 70
     0
  0
APPID
  5
18AC
330
9
100
AcDbSymbolTableRecord
100
AcDbRegAppTableRecord
  2
ACAD_DSTYLE_DIMTEXT_FILL
 70
     0
  0
APPID
  5
19E1A
330
9
100
AcDbSymbolTableRecord
100
AcDbRegAppTableRecord
  2
ACAD_MLEADERVER
 70
     0
  0
APPID
  5
1A2FA
330
9
100
AcDbSymbolTableRecord
100
AcDbRegAppTableRecord
  2
ACAD_DSTYLE_DIMRADIAL_EXTE
 70
     0
  0
APPID
  5
1DBC1
330
9
100
AcDbSymbolTableRecord
100
AcDbRegAppTableRecord
  2
ACADANNOTATIVE
 70
     0
  0
APPID
  5
1E991
330
9
100
AcDbSymbolTableRecord
100
AcDbRegAppTableRecord
  2
ACAD_EXEMPT_FROM_CAD_STAND
 70
     0
  0
APPID
  5
202C7
330
9
100
AcDbSymbolTableRecord
100
AcDbRegAppTableRecord
  2
ACDBBLOCKREPETAG
 70
     0
  0
APPID
  5
20AA7
330
9
100
AcDbSymbolTableRecord
100
AcDbRegAppTableRecord
  2
ACAD_OBJECT_CHANGE_GUID
 70
     0
  0
APPID
  5
20B32
330
9
100
AcDbSymbolTableRecord
100
AcDbRegAppTableRecord
  2
ACAD_NAV_VCDISPLAY
 70
     0
  0
ENDTAB
  0
TABLE
  2
DIMSTYLE
  5
A
330
0
100
AcDbSymbolTable
 70
     1
  0
DIMSTYLE
105
48
102
{ACAD_REACTORS
102
}
330
A
100
AcDbSymbolTableRecord
100
AcDbDimStyleTableRecord
  2
NEWX10
 70
     0
  3
 
  4

  5

  6
OPEN30
  7
OPEN30
 40
1.0
 41
2.0
 42
0.0
 43
7.0
 44
1.0
 45
0.0
 46
0.0
 47
0.0
 48
0.0
140
3.5
141
0.0
142
0.0
143
25.4
144
1.0
145
0.0
146
0.7
147
0.7
 71
     0
 72
     0
 73
     0
 74
     0
 75
     0
 76
     0
 77
     1
 78
     8
170
     0
171
     2
172
     1
173
     1
174
     0
175
     0
176
   256
177
   256
178
   201
179
     1
270
     2
271
     2
272
     4
273
     2
274
     2
340
F
275
     0
280
     0
281
     0
282
     0
283
     1
284
     8
285
     0
286
     0
287
     3
288
     0
  0
ENDTAB
  0
TABLE
  2
BLOCK_RECORD
  5
1
330
0
100
AcDbSymbolTable
 70
     8
  0
BLOCK_RECORD
  5
18
102
{ACAD_XDICTIONARY
360
6E9
102
}
330
1
100
AcDbSymbolTableRecord
100
AcDbBlockTableRecord
  2
*MODEL_SPACE
  0
BLOCK_RECORD
  5
15
102
{ACAD_XDICTIONARY
360
59B
102
}
330
1
100
AcDbSymbolTableRecord
100
AcDbBlockTableRecord
  2
*PAPER_SPACE
  0
BLOCK_RECORD
  5
42
330
1
100
AcDbSymbolTableRecord
100
AcDbBlockTableRecord
  2
_OPEN30
  0
BLOCK_RECORD
  5
20316
330
1
100
AcDbSymbolTableRecord
100
AcDbBlockTableRecord
  2
A3WAKUKAWAJUN2017_HYOUDAI_
  0
BLOCK_RECORD
  5
2231E
330
1
100
AcDbSymbolTableRecord
100
AcDbBlockTableRecord
  2
*X52
  0
BLOCK_RECORD
  5
2236C
330
1
100
AcDbSymbolTableRecord
100
AcDbBlockTableRecord
  2
*X53
  0
BLOCK_RECORD
  5
223BE
330
1
100
AcDbSymbolTableRecord
100
AcDbBlockTableRecord
  2
*X54
  0
BLOCK_RECORD
  5
2240F
330
1
100
AcDbSymbolTableRecord
100
AcDbBlockTableRecord
  2
*X55
  0
BLOCK_RECORD
  5
2244C
330
1
100
AcDbSymbolTableRecord
100
AcDbBlockTableRecord
  2
*X56
  0
BLOCK_RECORD
  5
2248C
330
1
100
AcDbSymbolTableRecord
100
AcDbBlockTableRecord
  2
*X57
  0
ENDTAB
  0
ENDSEC
  0
SECTION
  2
BLOCKS
  0
BLOCK
  5
19
330
18
100
AcDbEntity
  8
0
100
AcDbBlockBegin
  2
*MODEL_SPACE
 70
     0
 10
0.0
 20
0.0
 30
0.0
  3
*MODEL_SPACE
  1

  0
ENDBLK
  5
1A
330
18
100
AcDbEntity
  8
0
100
AcDbBlockEnd
  0
BLOCK
  5
16
330
15
100
AcDbEntity
 67
     1
  8
0
100
AcDbBlockBegin
  2
*PAPER_SPACE
 70
     0
 10
0.0
 20
0.0
 30
0.0
  3
*PAPER_SPACE
  1

  0
ENDBLK
  5
17
330
15
100
AcDbEntity
 67
     1
  8
0
100
AcDbBlockEnd
  0
BLOCK
  5
43
330
42
100
AcDbEntity
  8
0
100
AcDbBlockBegin
  2
_OPEN30
 70
     0
 10
0.0
 20
0.0
 30
0.0
  3
_OPEN30
  1

  0
LINE
  5
44
330
42
100
AcDbEntity
  8
0
  6
BYBLOCK
 62
     0
100
AcDbLine
 10
-1.0
 20
0.26794919
 30
0.0
 11
0.0
 21
0.0
 31
0.0
  0
LINE
  5
45
330
42
100
AcDbEntity
  8
0
  6
BYBLOCK
 62
     0
100
AcDbLine
 10
0.0
 20
0.0
 30
0.0
 11
-1.0
 21
-0.26794919
 31
0.0
  0
LINE
  5
46
330
42
100
AcDbEntity
  8
0
  6
BYBLOCK
 62
     0
100
AcDbLine
 10
0.0
 20
0.0
 30
0.0
 11
-1.0
 21
0.0
 31
0.0
  0
ENDBLK
  5
47
330
42
100
AcDbEntity
  8
0
100
AcDbBlockEnd
  0
BLOCK
  5
20A15
330
20316
100
AcDbEntity
  8
0
100
AcDbBlockBegin
  2
A3WAKUKAWAJUN2017_HYOUDAI_
 70
     0
 10
0.0
 20
0.0
 30
0.0
  3
A3WAKUKAWAJUN2017_HYOUDAI_
  1

  0
LINE
  5
20318
330
20316
100
AcDbEntity
  8
0
100
AcDbLine
 10
13.26299999998673
 20
-0.0001000000000317
 30
0.0
 11
9.236999999990758
 21
8.999899999990987
 31
0.0
1001
ACAD
1000
ASC_BOUNDS
1002
{
1070
    19
1005
20359
1002
}
  0
LINE
  5
20319
330
20316
100
AcDbEntity
  8
0
100
AcDbLine
 10
5.657999999994331
 20
0.9999999999989768
 30
0.0
 11
9.236999999990758
 21
8.999999999991019
 31
0.0
1001
ACAD
1000
ASC_BOUNDS
1002
{
1070
    19
1005
20359
1002
}
  0
LINE
  5
2031A
330
20316
100
AcDbEntity
  8
0
100
AcDbLine
 10
18.59199999998134
 20
-0.2368999999997641
 30
0.0
 11
16.46099999998353
 21
5.432899999994561
 31
0.0
1001
ACAD
1000
ASC_BOUNDS
1002
{
1070
    19
1005
2035A
1002
}
  0
LINE
  5
2031B
330
20316
100
AcDbEntity
  8
0
100
AcDbLine
 10
18.59199999998134
 20
-0.2368999999997641
 30
0.0
 11
22.38199999997767
 21
8.763099999991255
 31
0.0
1001
ACAD
1000
ASC_BOUNDS
1002
{
1070
    19
1005
2035A
1002
}
  0
LINE
  5
2031C
330
20316
100
AcDbEntity
  8
0
100
AcDbLine
 10
14.32899999998563
 20
-0.2368999999997641
 30
0.0
 11
16.46099999998353
 21
5.432899999994561
 31
0.0
1001
ACAD
1000
ASC_BOUNDS
1002
{
1070
    19
1005
2035A
1002
}
  0
LINE
  5
2031D
330
20316
100
AcDbEntity
  8
0
100
AcDbLine
 10
14.32899999998563
 20
-0.2368999999997641
 30
0.0
 11
10.53899999998941
 21
8.763099999991255
 31
0.0
1001
ACAD
1000
ASC_BOUNDS
1002
{
1070
    19
1005
2035A
1002
}
  0
LINE
  5
2031E
330
20316
100
AcDbEntity
  8
0
100
AcDbLine
 10
19.53899999998043
 20
-0.0001000000000317
 30
0.0
 11
23.56599999997638
 21
8.999899999990987
 31
0.0
1001
ACAD
1000
ASC_BOUNDS
1002
{
1070
    19
1005
2035B
1002
}
  0
LINE
  5
2031F
330
20316
100
AcDbEntity
  8
0
100
AcDbLine
 10
26.97358892824991
 20
1.383099999991202
 30
0.0
 11
23.56599999997638
 21
8.999899999990987
 31
0.0
1001
ACAD
1000
ASC_BOUNDS
1002
{
1070
    19
1005
2035B
1002
}
  0
LINE
  5
20320
330
20316
100
AcDbEntity
  8
0
100
AcDbLine
 10
5.657999999994331
 20
0.9999999999989768
 30
0.0
 11
3.181999999996833
 21
4.668599999995308
 31
0.0
1001
ACAD
1000
ASC_BOUNDS
1002
{
1070
    19
1005
20359
1002
}
  0
LINE
  5
20321
330
20316
100
AcDbEntity
  8
0
100
AcDbLine
 10
4.617999999995391
 20
-0.0001000000000317
 30
0.0
 11
1.420999999998571
 21
4.736799999995242
 31
0.0
1001
ACAD
1000
ASC_BOUNDS
1002
{
1070
    19
1005
20359
1002
}
  0
LINE
  5
20322
330
20316
100
AcDbEntity
  8
0
100
AcDbLine
 10
1.420999999998571
 20
8.763099999991255
 30
0.0
 11
1.420999999998571
 21
0.0
 31
0.0
1001
ACAD
1000
ASC_BOUNDS
1002
{
1070
    19
1005
2035E
1002
}
  0
LINE
  5
20323
330
20316
100
AcDbEntity
  8
0
100
AcDbLine
 10
0.0
 20
8.763099999991255
 30
0.0
 11
0.0
 21
0.0
 31
0.0
1001
ACAD
1000
ASC_BOUNDS
1002
{
1070
    19
1005
2035E
1002
}
  0
LINE
  5
20324
330
20316
100
AcDbEntity
  8
0
100
AcDbLine
 10
6.766999999993232
 20
-0.0001000000000317
 30
0.0
 11
7.826999999992154
 21
2.368399999997621
 31
0.0
1001
ACAD
1000
ASC_BOUNDS
1002
{
1070
    19
1005
20359
1002
}
  0
LINE
  5
20325
330
20316
100
AcDbEntity
  8
0
100
AcDbLine
 10
0.0
 20
0.0
 30
0.0
 11
1.420999999998571
 21
0.0
 31
0.0
1001
ACAD
1000
ASC_BOUNDS
1002
{
1070
    19
1005
2035E
1002
}
  0
LINE
  5
20326
330
20316
100
AcDbEntity
  8
0
100
AcDbLine
 10
4.617999999995391
 20
0.0
 30
0.0
 11
6.766999999993232
 21
0.0
 31
0.0
1001
ACAD
1000
ASC_BOUNDS
1002
{
1070
    19
1005
20359
1002
}
  0
LINE
  5
20327
330
20316
100
AcDbEntity
  8
0
100
AcDbLine
 10
11.70599999998831
 20
-0.0001000000000317
 30
0.0
 11
10.64699999998936
 21
2.368399999997621
 31
0.0
1001
ACAD
1000
ASC_BOUNDS
1002
{
1070
    19
1005
20359
1002
}
  0
LINE
  5
20328
330
20316
100
AcDbEntity
  8
0
100
AcDbLine
 10
7.826999999992154
 20
2.368399999997621
 30
0.0
 11
10.64699999998936
 21
2.368399999997621
 31
0.0
1001
ACAD
1000
ASC_BOUNDS
1002
{
1070
    19
1005
20359
1002
}
  0
LINE
  5
20329
330
20316
100
AcDbEntity
  8
0
100
AcDbLine
 10
11.70599999998831
 20
0.0
 30
0.0
 11
13.26299999998673
 21
0.0
 31
0.0
1001
ACAD
1000
ASC_BOUNDS
1002
{
1070
    19
1005
20359
1002
}
  0
LINE
  5
2032A
330
20316
100
AcDbEntity
  8
0
100
AcDbLine
 10
22.15599999997789
 20
2.368399999997621
 30
0.0
 11
24.97599999997499
 21
2.368399999997621
 31
0.0
1001
ACAD
1000
ASC_BOUNDS
1002
{
1070
    19
1005
2035B
1002
}
  0
LINE
  5
2032B
330
20316
100
AcDbEntity
  8
0
100
AcDbLine
 10
19.53899999998043
 20
0.0
 30
0.0
 11
21.09599999997886
 21
0.0
 31
0.0
1001
ACAD
1000
ASC_BOUNDS
1002
{
1070
    19
1005
2035B
1002
}
  0
LINE
  5
2032C
330
20316
100
AcDbEntity
  8
0
100
AcDbLine
 10
21.09599999997886
 20
-0.0001000000000317
 30
0.0
 11
22.15599999997789
 21
2.368399999997621
 31
0.0
1001
ACAD
1000
ASC_BOUNDS
1002
{
1070
    19
1005
2035B
1002
}
  0
LINE
  5
2032D
330
20316
100
AcDbEntity
  8
0
100
AcDbLine
 10
26.02015566812236
 20
0.0330999999912365
 30
0.0
 11
24.97599999997499
 21
2.368399999997621
 31
0.0
1001
ACAD
1000
ASC_BOUNDS
1002
{
1070
    19
1005
2035B
1002
}
  0
LINE
  5
2032E
330
20316
100
AcDbEntity
  8
0
100
AcDbLine
 10
14.32399999998563
 20
3.315799999996671
 30
0.0
 11
16.46099999998353
 21
8.999899999990987
 31
0.0
1001
ACAD
1000
ASC_BOUNDS
1002
{
1070
    19
1005
2035A
1002
}
  0
LINE
  5
2032F
330
20316
100
AcDbEntity
  8
0
100
AcDbLine
 10
6.432999999993513
 20
8.763099999991255
 30
0.0
 11
3.181999999996833
 21
4.668599999995308
 31
0.0
1001
ACAD
1000
ASC_BOUNDS
1002
{
1070
    19
1005
20359
1002
}
  0
LINE
  5
20330
330
20316
100
AcDbEntity
  8
0
100
AcDbLine
 10
4.617999999995391
 20
8.763099999991255
 30
0.0
 11
1.420999999998571
 21
4.736799999995242
 31
0.0
1001
ACAD
1000
ASC_BOUNDS
1002
{
1070
    19
1005
20359
1002
}
  0
LINE
  5
20331
330
20316
100
AcDbEntity
  8
0
100
AcDbLine
 10
0.0
 20
8.763099999991255
 30
0.0
 11
1.420999999998571
 21
8.763099999991255
 31
0.0
1001
ACAD
1000
ASC_BOUNDS
1002
{
1070
    19
1005
2035E
1002
}
  0
LINE
  5
20332
330
20316
100
AcDbEntity
  8
0
100
AcDbLine
 10
4.617999999995391
 20
8.763099999991255
 30
0.0
 11
6.432999999993513
 21
8.763099999991255
 31
0.0
1001
ACAD
1000
ASC_BOUNDS
1002
{
1070
    19
1005
20359
1002
}
  0
LINE
  5
20333
330
20316
100
AcDbEntity
  8
0
100
AcDbLine
 10
14.32399999998563
 20
3.315799999996671
 30
0.0
 11
12.02999999998792
 21
8.763099999991255
 31
0.0
1001
ACAD
1000
ASC_BOUNDS
1002
{
1070
    19
1005
2035A
1002
}
  0
LINE
  5
20334
330
20316
100
AcDbEntity
  8
0
100
AcDbLine
 10
10.06399999998996
 20
3.670999999996297
 30
0.0
 11
9.236999999990758
 21
5.5200999999945
 31
0.0
1001
ACAD
1000
ASC_BOUNDS
1002
{
1070
    19
1005
20359
1002
}
  0
LINE
  5
20335
330
20316
100
AcDbEntity
  8
0
100
AcDbLine
 10
8.409999999991555
 20
3.670999999996297
 30
0.0
 11
9.236999999990758
 21
5.5200999999945
 31
0.0
1001
ACAD
1000
ASC_BOUNDS
1002
{
1070
    19
1005
20359
1002
}
  0
LINE
  5
20336
330
20316
100
AcDbEntity
  8
0
100
AcDbLine
 10
8.409999999991555
 20
3.670999999996297
 30
0.0
 11
10.06399999998996
 21
3.670999999996297
 31
0.0
1001
ACAD
1000
ASC_BOUNDS
1002
{
1070
    19
1005
20359
1002
}
  0
LINE
  5
20337
330
20316
100
AcDbEntity
  8
0
100
AcDbLine
 10
10.53899999998941
 20
8.763099999991255
 30
0.0
 11
12.02999999998792
 21
8.763099999991255
 31
0.0
1001
ACAD
1000
ASC_BOUNDS
1002
{
1070
    19
1005
2035A
1002
}
  0
LINE
  5
20338
330
20316
100
AcDbEntity
  8
0
100
AcDbLine
 10
22.7389999999773
 20
3.670999999996297
 30
0.0
 11
23.56599999997638
 21
5.5200999999945
 31
0.0
1001
ACAD
1000
ASC_BOUNDS
1002
{
1070
    19
1005
2035B
1002
}
  0
LINE
  5
20339
330
20316
100
AcDbEntity
  8
0
100
AcDbLine
 10
22.7389999999773
 20
3.670999999996297
 30
0.0
 11
24.39299999997559
 21
3.670999999996297
 31
0.0
1001
ACAD
1000
ASC_BOUNDS
1002
{
1070
    19
1005
2035B
1002
}
  0
LINE
  5
2033A
330
20316
100
AcDbEntity
  8
0
100
AcDbLine
 10
18.59799999998143
 20
3.315799999996671
 30
0.0
 11
20.89099999997916
 21
8.763099999991255
 31
0.0
1001
ACAD
1000
ASC_BOUNDS
1002
{
1070
    19
1005
2035A
1002
}
  0
LINE
  5
2033B
330
20316
100
AcDbEntity
  8
0
100
AcDbLine
 10
18.59799999998143
 20
3.315799999996671
 30
0.0
 11
16.46099999998353
 21
8.999899999990987
 31
0.0
1001
ACAD
1000
ASC_BOUNDS
1002
{
1070
    19
1005
2035A
1002
}
  0
LINE
  5
2033C
330
20316
100
AcDbEntity
  8
0
100
AcDbLine
 10
20.89099999997916
 20
8.763099999991255
 30
0.0
 11
22.38199999997767
 21
8.763099999991255
 31
0.0
1001
ACAD
1000
ASC_BOUNDS
1002
{
1070
    19
1005
2035A
1002
}
  0
LINE
  5
2033D
330
20316
100
AcDbEntity
  8
0
100
AcDbLine
 10
24.39299999997559
 20
3.670999999996297
 30
0.0
 11
23.56599999997638
 21
5.5200999999945
 31
0.0
1001
ACAD
1000
ASC_BOUNDS
1002
{
1070
    19
1005
2035B
1002
}
  0
LINE
  5
2033E
330
20316
100
AcDbEntity
  8
0
100
AcDbLine
 10
44.99999999995498
 20
-0.2368999999997641
 30
0.0
 11
40.02599999995994
 21
5.341799999994635
 31
0.0
1001
ACAD
1000
ASC_BOUNDS
1002
{
1070
    19
1005
2035D
1002
}
  0
LINE
  5
2033F
330
20316
100
AcDbEntity
  8
0
100
AcDbLine
 10
40.02599999995994
 20
5.341799999994635
 30
0.0
 11
40.02599999995994
 21
0.0
 31
0.0
1001
ACAD
1000
ASC_BOUNDS
1002
{
1070
    19
1005
2035D
1002
}
  0
LINE
  5
20340
330
20316
100
AcDbEntity
  8
0
100
AcDbLine
 10
38.60499999996136
 20
8.999999999991019
 30
0.0
 11
38.60499999996136
 21
0.0
 31
0.0
1001
ACAD
1000
ASC_BOUNDS
1002
{
1070
    19
1005
2035D
1002
}
  0
LINE
  5
20341
330
20316
100
AcDbEntity
  8
0
100
AcDbLine
 10
44.99999999995498
 20
8.763099999991255
 30
0.0
 11
44.99999999995498
 21
-0.2368999999997641
 31
0.0
1001
ACAD
1000
ASC_BOUNDS
1002
{
1070
    19
1005
2035D
1002
}
  0
LINE
  5
20342
330
20316
100
AcDbEntity
  8
0
100
AcDbLine
 10
38.60499999996136
 20
0.0
 30
0.0
 11
40.02599999995994
 21
0.0
 31
0.0
1001
ACAD
1000
ASC_BOUNDS
1002
{
1070
    19
1005
2035D
1002
}
  0
LINE
  5
20343
330
20316
100
AcDbEntity
  8
0
100
AcDbLine
 10
43.57899999995641
 20
3.421199999996588
 30
0.0
 11
38.60499999996136
 21
8.999899999990987
 31
0.0
1001
ACAD
1000
ASC_BOUNDS
1002
{
1070
    19
1005
2035D
1002
}
  0
LINE
  5
20344
330
20316
100
AcDbEntity
  8
0
100
AcDbLine
 10
43.57899999995641
 20
8.763099999991255
 30
0.0
 11
43.57899999995641
 21
3.421199999996588
 31
0.0
1001
ACAD
1000
ASC_BOUNDS
1002
{
1070
    19
1005
2035D
1002
}
  0
LINE
  5
20345
330
20316
100
AcDbEntity
  8
0
100
AcDbLine
 10
43.57899999995641
 20
8.763099999991255
 30
0.0
 11
44.99999999995498
 21
8.763099999991255
 31
0.0
1001
ACAD
1000
ASC_BOUNDS
1002
{
1070
    19
1005
2035D
1002
}
  0
LINE
  5
20346
330
20316
100
AcDbEntity
  8
0
100
AcDbLine
 10
37.67199999996831
 20
8.763099999991255
 30
0.0
 11
36.23199999996837
 21
8.763099999991255
 31
0.0
  0
LINE
  5
20347
330
20316
100
AcDbEntity
  8
0
100
AcDbLine
 10
31.64199999996833
 20
8.763099999991255
 30
0.0
 11
31.64199999996833
 21
2.481619422925121
 31
0.0
  0
LINE
  5
20348
330
20316
100
AcDbEntity
  8
0
100
AcDbLine
 10
37.67199999996831
 20
8.763099999991255
 30
0.0
 11
37.67199999996831
 21
2.481619422925121
 31
0.0
  0
LINE
  5
20349
330
20316
100
AcDbEntity
  8
0
100
AcDbLine
 10
36.23199999996837
 20
8.763099999991255
 30
0.0
 11
36.23199999996837
 21
2.481619422925064
 31
0.0
  0
LINE
  5
2034A
330
20316
100
AcDbEntity
  8
0
100
AcDbLine
 10
33.08199999996839
 20
8.763099999991255
 30
0.0
 11
33.08199999996839
 21
2.481619422925121
 31
0.0
  0
ARC
  5
2034B
330
20316
100
AcDbEntity
  8
0
100
AcDbCircle
 10
34.65699999996832
 20
3.183099999991214
 30
0.0
 40
3.420000000000007
100
AcDbArc
 50
240.0000000000255
 51
299.9999999999766
  0
ARC
  5
2034C
330
20316
100
AcDbEntity
  8
0
100
AcDbCircle
 10
34.65699999996832
 20
3.183099999991214
 30
0.0
 40
1.97999999999999
100
AcDbArc
 50
240.000000000026
 51
299.9999999999703
  0
LINE
  5
2034D
330
20316
100
AcDbEntity
  8
0
100
AcDbLine
 10
33.08199999996828
 20
8.763099999991255
 30
0.0
 11
31.64199999996833
 21
8.763099999991255
 31
0.0
  0
ARC
  5
2034E
330
20316
100
AcDbEntity
  8
0
100
AcDbCircle
 10
35.06199999996829
 20
2.481619422925064
 30
0.0
 40
1.17
100
AcDbArc
 50
299.9999999999699
 51
0.0
  0
ARC
  5
2034F
330
20316
100
AcDbEntity
  8
0
100
AcDbCircle
 10
34.25199999996835
 20
2.481619422925121
 30
0.0
 40
1.17
100
AcDbArc
 50
180.0
 51
240.0000000000238
  0
ARC
  5
20350
330
20316
100
AcDbEntity
  8
0
100
AcDbCircle
 10
35.06199999996841
 20
2.481619422925121
 30
0.0
 40
2.61
100
AcDbArc
 50
299.9999999999756
 51
0.0
  0
ARC
  5
20351
330
20316
100
AcDbEntity
  8
0
100
AcDbCircle
 10
34.25199999996835
 20
2.481619422925121
 30
0.0
 40
2.61
100
AcDbArc
 50
180.0
 51
240.0000000000244
  0
LINE
  5
20352
330
20316
100
AcDbEntity
  8
0
100
AcDbLine
 10
29.30199999996933
 20
8.763099999991255
 30
0.0
 11
30.74199999996927
 21
8.763099999991255
 31
0.0
1001
ACAD
1000
ASC_BOUNDS
1002
{
1070
    19
1005
2035B
1002
}
  0
LINE
  5
20353
330
20316
100
AcDbEntity
  8
0
100
AcDbLine
 10
30.74199999996927
 20
8.763099999991255
 30
0.0
 11
30.74199999996927
 21
2.373099999991211
 31
0.0
1001
ACAD
1000
ASC_BOUNDS
1002
{
1070
    19
1005
2035B
1002
}
  0
LINE
  5
20354
330
20316
100
AcDbEntity
  8
0
100
AcDbLine
 10
26.02015566812236
 20
0.0330999999912365
 30
0.0
 11
28.40199999996923
 21
0.0330999999912365
 31
0.0
1001
ACAD
1000
ASC_BOUNDS
1002
{
1070
    19
1005
2035B
1002
}
  0
LINE
  5
20355
330
20316
100
AcDbEntity
  8
0
100
AcDbLine
 10
29.30199999996933
 20
8.763099999991255
 30
0.0
 11
29.30199999996933
 21
2.283099999991236
 31
0.0
1001
ACAD
1000
ASC_BOUNDS
1002
{
1070
    19
1005
2035B
1002
}
  0
LINE
  5
20356
330
20316
100
AcDbEntity
  8
0
100
AcDbLine
 10
26.97358892824991
 20
1.383099999991202
 30
0.0
 11
28.40199999996923
 21
1.383099999991202
 31
0.0
1001
ACAD
1000
ASC_BOUNDS
1002
{
1070
    19
1005
2035B
1002
}
  0
ARC
  5
20357
330
20316
100
AcDbEntity
  8
0
100
AcDbCircle
 10
28.40199999996923
 20
2.283099999991236
 30
0.0
 40
0.9
100
AcDbArc
 50
270.0
 51
0.0
1001
ACAD
1000
ASC_BOUNDS
1002
{
1070
    19
1005
2035B
1002
}
  0
ARC
  5
20358
330
20316
100
AcDbEntity
  8
0
100
AcDbCircle
 10
28.40199999996923
 20
2.373099999991211
 30
0.0
 40
2.34
100
AcDbArc
 50
270.0
 51
0.0
1001
ACAD
1000
ASC_BOUNDS
1002
{
1070
    19
1005
2035B
1002
}
  0
INSERT
  5
20359
330
20316
100
AcDbEntity
  8
0
100
AcDbBlockReference
  2
*X52
 10
0.0
 20
0.0
 30
0.0
1001
ACAD
1000
HATCH
1002
{
1070
    19
1000
ANSI37
1040
0.15
1040
0.0
1000
ASC_BOUNDS
1070
     2
1070
     2
1070
    12
1005
20318
1005
20319
1005
20320
1005
2032F
1005
20332
1005
20330
1005
20321
1005
20326
1005
20324
1005
20328
1005
20327
1005
20329
1070
     2
1070
     3
1005
20334
1005
20336
1005
20335
1000
ASC_SEEDPOINT
1011
3.614004224891801
1021
2.996669441146025
1031
0.0
1000
R14_HATCH_DATA
1000
20359
1011
1.0
1021
0.0
1031
0.0
1011
0.0
1021
1.0
1031
0.0
1011
0.0
1021
0.0
1031
1.0
1040
0.0
1010
0.0
1020
0.0
1030
1.0
1000
ANSI37
1070
     0
1070
     1
1071
        2
1071
        7
1070
     0
1070
     1
1071
       17
1040
13.26299999998673
1040
-0.0001000000000317
1040
9.236999999990758
1040
8.999899999990987
1040
9.236999999990758
1040
8.999999999991019
1040
5.657999999994331
1040
0.9999999999989768
1040
3.181999999996833
1040
4.668599999995308
1040
6.432999999993513
1040
8.763099999991255
1040
4.617999999995391
1040
8.763099999991255
1040
1.420999999998571
1040
4.736799999995242
1040
4.617999999995391
1040
-0.0001000000000317
1040
4.617999999995391
1040
0.0
1040
6.766999999993232
1040
0.0
1040
6.766999999993232
1040
-0.0001000000000317
1040
7.826999999992154
1040
2.368399999997621
1040
10.64699999998936
1040
2.368399999997621
1040
11.70599999998831
1040
-0.0001000000000317
1040
11.70599999998831
1040
0.0
1040
13.26299999998673
1040
0.0
1071
       12
1005
20318
1005
20319
1005
20320
1005
2032F
1005
20332
1005
20330
1005
20321
1005
20326
1005
20324
1005
20328
1005
20327
1005
20329
1071
       22
1070
     0
1070
     1
1071
        3
1040
9.236999999990758
1040
5.5200999999945
1040
10.06399999998996
1040
3.670999999996297
1040
8.409999999991555
1040
3.670999999996297
1071
        3
1005
20334
1005
20336
1005
20335
1070
     0
1070
     1
1040
0.0
1040
0.15
1070
     0
1070
     2
1040
0.7853981633974483
1040
49.29960901727088
1040
-10.17736998311392
1040
-0.3367596045400932
1040
0.3367596045400932
1070
     0
1040
2.356194490192345
1040
49.29960901727088
1040
-10.17736998311392
1040
-0.3367596045400932
1040
-0.3367596045400932
1070
     0
1040
0.0110235143455945
1071
        2
1040
3.614004224891801
1040
2.996669441146025
1040
0.0
1040
3.614004224891801
1040
2.996669441146025
1040
0.0
1002
}
  0
INSERT
  5
2035A
330
20316
100
AcDbEntity
  8
0
100
AcDbBlockReference
  2
*X53
 10
0.0
 20
0.0
 30
0.0
1001
ACAD
1000
HATCH
1002
{
1070
    19
1000
ANSI37
1040
0.15
1040
0.0
1000
ASC_BOUNDS
1070
     1
1070
     2
1070
    10
1005
2031A
1005
2031B
1005
2033C
1005
2033A
1005
2033B
1005
2032E
1005
20333
1005
20337
1005
2031D
1005
2031C
1000
ASC_SEEDPOINT
1011
14.73245321214324
1021
2.798246178283421
1031
0.0
1000
R14_HATCH_DATA
1000
2035A
1011
1.0
1021
0.0
1031
0.0
1011
0.0
1021
1.0
1031
0.0
1011
0.0
1021
0.0
1031
1.0
1040
0.0
1010
0.0
1020
0.0
1030
1.0
1000
ANSI37
1070
     0
1070
     1
1071
        1
1071
        7
1070
     0
1070
     1
1071
       10
1040
16.46099999998353
1040
5.432899999994561
1040
18.59199999998134
1040
-0.2368999999997641
1040
22.38199999997767
1040
8.763099999991255
1040
20.89099999997916
1040
8.763099999991255
1040
18.59799999998143
1040
3.315799999996671
1040
16.46099999998353
1040
8.999899999990987
1040
14.32399999998563
1040
3.315799999996671
1040
12.02999999998792
1040
8.763099999991255
1040
10.53899999998941
1040
8.763099999991255
1040
14.32899999998563
1040
-0.2368999999997641
1071
       10
1005
2031A
1005
2031B
1005
2033C
1005
2033A
1005
2033B
1005
2032E
1005
20333
1005
20337
1005
2031D
1005
2031C
1070
     0
1070
     1
1040
0.0
1040
0.15
1070
     0
1070
     2
1040
0.7853981633974483
1040
49.29960901727088
1040
-10.17736998311392
1040
-0.3367596045400932
1040
0.3367596045400932
1070
     0
1040
2.356194490192345
1040
49.29960901727088
1040
-10.17736998311392
1040
-0.3367596045400932
1040
-0.3367596045400932
1070
     0
1040
0.0110235143455945
1071
        1
1040
14.73245321214324
1040
2.798246178283421
1040
0.0
1002
}
  0
INSERT
  5
2035B
330
20316
100
AcDbEntity
  8
0
100
AcDbBlockReference
  2
*X54
 10
0.0
 20
0.0
 30
0.0
1001
ACAD
1000
HATCH
1002
{
1070
    19
1000
ANSI37
1040
0.15
1040
0.0
1000
ASC_BOUNDS
1070
     2
1070
     2
1070
    13
1005
2031E
1005
2032B
1005
2032C
1005
2032A
1005
2032D
1005
20354
1005
20358
1005
20353
1005
20352
1005
20355
1005
20357
1005
20356
1005
2031F
1070
     2
1070
     3
1005
20338
1005
2033D
1005
20339
1000
ASC_SEEDPOINT
1011
21.97929957367762
1021
3.294304244259308
1031
0.0
1000
R14_HATCH_DATA
1000
2035B
1011
1.0
1021
0.0
1031
0.0
1011
0.0
1021
1.0
1031
0.0
1011
0.0
1021
0.0
1031
1.0
1040
0.0
1010
0.0
1020
0.0
1030
1.0
1000
ANSI37
1070
     0
1070
     1
1071
        2
1071
        7
1070
     1
1070
     1
1071
       15
1040
23.56599999997638
1040
8.999899999990987
1040
0.0
1040
19.53899999998043
1040
-0.0001000000000317
1040
0.0
1040
19.53899999998043
1040
0.0
1040
0.0
1040
21.09599999997886
1040
0.0
1040
0.0
1040
21.09599999997886
1040
-0.0001000000000317
1040
0.0
1040
22.15599999997789
1040
2.368399999997621
1040
0.0
1040
24.97599999997499
1040
2.368399999997621
1040
0.0
1040
26.02015566812236
1040
0.0330999999912365
1040
0.0
1040
28.40199999996923
1040
0.0330999999912365
1040
0.414213562373095
1040
30.74199999996923
1040
2.373099999991211
1040
0.0
1040
30.74199999996927
1040
8.763099999991255
1040
0.0
1040
29.30199999996933
1040
8.763099999991255
1040
0.0
1040
29.30199999996933
1040
2.283099999991236
1040
-0.414213562373095
1040
28.40199999996923
1040
1.383099999991237
1040
0.0
1040
26.97358892824991
1040
1.383099999991202
1040
0.0
1071
       13
1005
2031E
1005
2032B
1005
2032C
1005
2032A
1005
2032D
1005
20354
1005
20358
1005
20353
1005
20352
1005
20355
1005
20357
1005
20356
1005
2031F
1071
       22
1070
     0
1070
     1
1071
        3
1040
22.7389999999773
1040
3.670999999996297
1040
23.56599999997638
1040
5.5200999999945
1040
24.39299999997559
1040
3.670999999996297
1071
        3
1005
20338
1005
2033D
1005
20339
1070
     0
1070
     1
1040
0.0
1040
0.15
1070
     0
1070
     2
1040
0.7853981633974483
1040
49.29960901727088
1040
-10.17736998311392
1040
-0.3367596045400932
1040
0.3367596045400932
1070
     0
1040
2.356194490192345
1040
49.29960901727088
1040
-10.17736998311392
1040
-0.3367596045400932
1040
-0.3367596045400932
1070
     0
1040
0.0110235143455945
1071
        2
1040
21.97929957367762
1040
3.294304244259308
1040
0.0
1040
21.97929957367762
1040
3.294304244259308
1040
0.0
1002
}
  0
INSERT
  5
2035C
330
20316
100
AcDbEntity
  8
0
100
AcDbBlockReference
  2
*X55
 10
0.0
 20
0.0
 30
0.0
1001
ACAD
1000
HATCH
1002
{
1070
    19
1000
ANSI37
1040
0.15
1040
0.0
1000
R14_HATCH_DATA
1000
2035C
1011
1.0
1021
0.0
1031
0.0
1011
0.0
1021
1.0
1031
0.0
1011
0.0
1021
0.0
1031
1.0
1040
0.0
1010
0.0
1020
0.0
1030
1.0
1000
ANSI37
1070
     0
1070
     1
1071
        1
1071
        7
1070
     1
1070
     1
1071
       12
1040
31.64199999996833
1040
2.481619422925121
1040
0.2679491924310942
1040
32.94699999997067
1040
0.2212931190493919
1040
0.2679491924301353
1040
36.36699999995983
1040
0.2212931190459813
1040
0.2679491924321411
1040
37.67199999996831
1040
2.481619422928361
1040
0.0
1040
37.67199999996831
1040
8.763099999991255
1040
0.0
1040
36.23199999996837
1040
8.763099999991255
1040
0.0
1040
36.23199999996837
1040
2.481619422925064
1040
-0.2679491924310291
1040
35.64699999996708
1040
1.468369700498386
1040
-0.267949192430519
1040
33.66699999997093
1040
1.468369700497703
1040
-0.267949192431809
1040
33.08199999996839
1040
2.481619422926997
1040
0.0
1040
33.08199999996839
1040
8.763099999991255
1040
0.0
1040
31.64199999996833
1040
8.763099999991255
1040
0.0
1071
        0
1070
     0
1070
     1
1040
0.0
1040
0.15
1070
     0
1070
     2
1040
0.7853981633974483
1040
49.29960901727088
1040
-10.17736998311392
1040
-0.3367596045400932
1040
0.3367596045400932
1070
     0
1040
2.356194490192345
1040
49.29960901727088
1040
-10.17736998311392
1040
-0.3367596045400932
1040
-0.3367596045400932
1070
     0
1040
0.0110235143455945
1071
        1
1040
32.30357378967278
1040
3.988785755459219
1040
0.0
1002
}
  0
INSERT
  5
2035D
330
20316
100
AcDbEntity
  8
0
100
AcDbBlockReference
  2
*X56
 10
0.0
 20
0.0
 30
0.0
1001
ACAD
1000
HATCH
1002
{
1070
    19
1000
ANSI37
1040
0.15
1040
0.0
1000
ASC_BOUNDS
1070
     1
1070
     2
1070
     8
1005
2033E
1005
20341
1005
20345
1005
20344
1005
20343
1005
20340
1005
20342
1005
2033F
1000
ASC_SEEDPOINT
1011
39.74896370716704
1021
4.484843821435049
1031
0.0
1000
R14_HATCH_DATA
1000
2035D
1011
1.0
1021
0.0
1031
0.0
1011
0.0
1021
1.0
1031
0.0
1011
0.0
1021
0.0
1031
1.0
1040
0.0
1010
0.0
1020
0.0
1030
1.0
1000
ANSI37
1070
     0
1070
     1
1071
        1
1071
        7
1070
     0
1070
     1
1071
        9
1040
40.02599999995994
1040
5.341799999994635
1040
44.99999999995498
1040
-0.2368999999997641
1040
44.99999999995498
1040
8.763099999991255
1040
43.57899999995641
1040
8.763099999991255
1040
43.57899999995641
1040
3.421199999996588
1040
38.60499999996136
1040
8.999899999990987
1040
38.60499999996136
1040
8.999999999991019
1040
38.60499999996136
1040
0.0
1040
40.02599999995994
1040
0.0
1071
        8
1005
2033E
1005
20341
1005
20345
1005
20344
1005
20343
1005
20340
1005
20342
1005
2033F
1070
     0
1070
     1
1040
0.0
1040
0.15
1070
     0
1070
     2
1040
0.7853981633974483
1040
49.29960901727088
1040
-10.17736998311392
1040
-0.3367596045400932
1040
0.3367596045400932
1070
     0
1040
2.356194490192345
1040
49.29960901727088
1040
-10.17736998311392
1040
-0.3367596045400932
1040
-0.3367596045400932
1070
     0
1040
0.0110235143455945
1071
        1
1040
39.74896370716704
1040
4.484843821435049
1040
0.0
1002
}
  0
INSERT
  5
2035E
330
20316
100
AcDbEntity
  8
0
100
AcDbBlockReference
  2
*X57
 10
0.0
 20
0.0
 30
0.0
1001
ACAD
1000
HATCH
1002
{
1070
    19
1000
ANSI37
1040
0.15
1040
0.0
1000
ASC_BOUNDS
1070
     1
1070
     2
1070
     4
1005
20322
1005
20331
1005
20323
1005
20325
1000
ASC_SEEDPOINT
1011
1.079051535452663
1021
4.148538732891836
1031
0.0
1000
R14_HATCH_DATA
1000
2035E
1011
1.0
1021
0.0
1031
0.0
1011
0.0
1021
1.0
1031
0.0
1011
0.0
1021
0.0
1031
1.0
1040
0.0
1010
0.0
1020
0.0
1030
1.0
1000
ANSI37
1070
     0
1070
     1
1071
        1
1071
        7
1070
     0
1070
     1
1071
        4
1040
1.420999999998571
1040
0.0
1040
1.420999999998571
1040
8.763099999991255
1040
0.0
1040
8.763099999991255
1040
0.0
1040
0.0
1071
        4
1005
20322
1005
20331
1005
20323
1005
20325
1070
     0
1070
     1
1040
0.0
1040
0.15
1070
     0
1070
     2
1040
0.7853981633974483
1040
49.29960901727088
1040
-10.17736998311392
1040
-0.3367596045400932
1040
0.3367596045400932
1070
     0
1040
2.356194490192345
1040
49.29960901727088
1040
-10.17736998311392
1040
-0.3367596045400932
1040
-0.3367596045400932
1070
     0
1040
0.0053004257112761
1071
        1
1040
1.079051535452663
1040
4.148538732891836
1040
0.0
1002
}
  0
ENDBLK
  5
20A16
330
20316
100
AcDbEntity
  8
0
100
AcDbBlockEnd
  0
BLOCK
  5
224AC
330
2231E
100
AcDbEntity
  8
0
100
AcDbBlockBegin
  2
*X52
 70
     1
 10
0.0
 20
0.0
 30
0.0
  3
*X52
  1

  0
LINE
  5
2231F
330
2231E
100
AcDbEntity
  8
0
  6
CONTINUOUS
100
AcDbLine
 10
3.418023043697893
 20
7.251849696850613
 30
0.0
 11
4.929273346838536
 21
8.763099999991255
 31
0.0
  0
LINE
  5
22320
330
2231E
100
AcDbEntity
  8
0
  6
CONTINUOUS
100
AcDbLine
 10
1.483656411257782
 20
4.643963855330318
 30
0.0
 11
5.60279255591872
 21
8.763099999991255
 31
0.0
  0
LINE
  5
22321
330
2231E
100
AcDbEntity
  8
0
  6
CONTINUOUS
100
AcDbLine
 10
1.755053947328235
 20
4.241842182320584
 30
0.0
 11
6.276311764998907
 21
8.763099999991255
 31
0.0
  0
LINE
  5
22322
330
2231E
100
AcDbEntity
  8
0
  6
CONTINUOUS
100
AcDbLine
 10
2.026451483398688
 20
3.839720509310849
 30
0.0
 11
4.441040904851878
 21
6.254309930764039
 31
0.0
  0
LINE
  5
22323
330
2231E
100
AcDbEntity
  8
0
  6
CONTINUOUS
100
AcDbLine
 10
2.297849019469139
 20
3.437598836301114
 30
0.0
 11
3.321765168359338
 21
4.461514985191313
 31
0.0
  0
LINE
  5
22324
330
2231E
100
AcDbEntity
  8
0
  6
CONTINUOUS
100
AcDbLine
 10
2.569246555539591
 20
3.03547716329138
 30
0.0
 11
3.593163397972743
 21
4.059394005724531
 31
0.0
  0
LINE
  5
22325
330
2231E
100
AcDbEntity
  8
0
  6
CONTINUOUS
100
AcDbLine
 10
2.840644091610043
 20
2.633355490281646
 30
0.0
 11
3.864561627586149
 21
3.657273026257751
 31
0.0
  0
LINE
  5
22326
330
2231E
100
AcDbEntity
  8
0
  6
CONTINUOUS
100
AcDbLine
 10
3.112041627680496
 20
2.231233817271911
 30
0.0
 11
4.135959857199554
 21
3.25515204679097
 31
0.0
  0
LINE
  5
22327
330
2231E
100
AcDbEntity
  8
0
  6
CONTINUOUS
100
AcDbLine
 10
3.383439163750948
 20
1.829112144262177
 30
0.0
 11
4.40735808681296
 21
2.853031067324189
 31
0.0
  0
LINE
  5
22328
330
2231E
100
AcDbEntity
  8
0
  6
CONTINUOUS
100
AcDbLine
 10
3.654836699821399
 20
1.426990471252442
 30
0.0
 11
4.678756316426365
 21
2.450910087857407
 31
0.0
  0
LINE
  5
22329
330
2231E
100
AcDbEntity
  8
0
  6
CONTINUOUS
100
AcDbLine
 10
3.926234235891853
 20
1.024868798242709
 30
0.0
 11
4.95015454603977
 21
2.048789108390626
 31
0.0
  0
LINE
  5
2232A
330
2231E
100
AcDbEntity
  8
0
  6
CONTINUOUS
100
AcDbLine
 10
4.197631771962304
 20
0.6227471252329737
 30
0.0
 11
5.221552775653176
 21
1.646668128923846
 31
0.0
  0
LINE
  5
2232B
330
2231E
100
AcDbEntity
  8
0
  6
CONTINUOUS
100
AcDbLine
 10
8.715877546767851
 20
7.835069736359266
 30
0.0
 11
9.435953450375058
 21
8.555145639966472
 31
0.0
  0
LINE
  5
2232C
330
2231E
100
AcDbEntity
  8
0
  6
CONTINUOUS
100
AcDbLine
 10
8.170620868422267
 20
6.616293848933497
 30
0.0
 11
9.644120833743461
 21
8.08979381425469
 31
0.0
  0
LINE
  5
2232D
330
2231E
100
AcDbEntity
  8
0
  6
CONTINUOUS
100
AcDbLine
 10
7.625364190076684
 20
5.397517961507727
 30
0.0
 11
9.852288217111864
 21
7.624441988542907
 31
0.0
  0
LINE
  5
2232E
330
2231E
100
AcDbEntity
  8
0
  6
CONTINUOUS
100
AcDbLine
 10
7.080107511731101
 20
4.178742074081957
 30
0.0
 11
10.06045560048027
 21
7.159090162831124
 31
0.0
  0
LINE
  5
2232F
330
2231E
100
AcDbEntity
  8
0
  6
CONTINUOUS
100
AcDbLine
 10
6.534850833385518
 20
2.959966186656187
 30
0.0
 11
10.26862298384867
 21
6.693738337119342
 31
0.0
  0
LINE
  5
22330
330
2231E
100
AcDbEntity
  8
0
  6
CONTINUOUS
100
AcDbLine
 10
4.469029308032756
 20
0.2206254522232385
 30
0.0
 11
5.492951005266582
 21
1.244547149457064
 31
0.0
  0
LINE
  5
22331
330
2231E
100
AcDbEntity
  8
0
  6
CONTINUOUS
100
AcDbLine
 10
5.989594155039935
 20
1.741190299230417
 30
0.0
 11
8.806950407233131
 21
4.558546551423613
 31
0.0
  0
LINE
  5
22332
330
2231E
100
AcDbEntity
  8
0
  6
CONTINUOUS
100
AcDbLine
 10
9.401251593263643
 20
5.152847737454126
 30
0.0
 11
10.47679036721708
 21
6.228386511407559
 31
0.0
  0
LINE
  5
22333
330
2231E
100
AcDbEntity
  8
0
  6
CONTINUOUS
100
AcDbLine
 10
4.921837203428691
 20
-0.0000858614610131
 30
0.0
 11
8.592923064886001
 21
3.670999999996297
 31
0.0
  0
LINE
  5
22334
330
2231E
100
AcDbEntity
  8
0
  6
CONTINUOUS
100
AcDbLine
 10
9.609390446785305
 20
4.6874673818956
 30
0.0
 11
10.68495775058548
 21
5.763034685695775
 31
0.0
  0
LINE
  5
22335
330
2231E
100
AcDbEntity
  8
0
  6
CONTINUOUS
100
AcDbLine
 10
5.595387755019432
 20
-0.0000545189504582
 30
0.0
 11
7.716137258923768
 21
2.120694984953879
 31
0.0
  0
LINE
  5
22336
330
2231E
100
AcDbEntity
  8
0
  6
CONTINUOUS
100
AcDbLine
 10
6.268938306610172
 20
-0.000023176439905
 30
0.0
 11
7.170485805526503
 21
0.9015243224764267
 31
0.0
  0
LINE
  5
22337
330
2231E
100
AcDbEntity
  8
0
  6
CONTINUOUS
100
AcDbLine
 10
7.963842273967511
 20
2.368399999997621
 30
0.0
 11
9.266442273966188
 21
3.670999999996297
 31
0.0
  0
LINE
  5
22338
330
2231E
100
AcDbEntity
  8
0
  6
CONTINUOUS
100
AcDbLine
 10
8.637361483047696
 20
2.368399999997621
 30
0.0
 11
9.939961483046375
 21
3.670999999996297
 31
0.0
  0
LINE
  5
22339
330
2231E
100
AcDbEntity
  8
0
  6
CONTINUOUS
100
AcDbLine
 10
9.817529300306965
 20
4.222087026337075
 30
0.0
 11
10.89312513395388
 21
5.297682859983993
 31
0.0
  0
LINE
  5
2233A
330
2231E
100
AcDbEntity
  8
0
  6
CONTINUOUS
100
AcDbLine
 10
10.02566815382863
 20
3.756706670778549
 30
0.0
 11
11.10129251732229
 21
4.832331034272211
 31
0.0
  0
LINE
  5
2233B
330
2231E
100
AcDbEntity
  8
0
  6
CONTINUOUS
100
AcDbLine
 10
9.310880692127883
 20
2.368399999997621
 30
0.0
 11
11.30945990069069
 21
4.366979208560428
 31
0.0
  0
LINE
  5
2233C
330
2231E
100
AcDbEntity
  8
0
  6
CONTINUOUS
100
AcDbLine
 10
9.98439990120807
 20
2.36839999999762
 30
0.0
 11
11.5176272840591
 21
3.901627382848645
 31
0.0
  0
LINE
  5
2233D
330
2231E
100
AcDbEntity
  8
0
  6
CONTINUOUS
100
AcDbLine
 10
10.65037369446246
 20
2.36085458417182
 30
0.0
 11
11.7257946674275
 21
3.436275557136862
 31
0.0
  0
LINE
  5
2233E
330
2231E
100
AcDbEntity
  8
0
  6
CONTINUOUS
100
AcDbLine
 10
10.85847197087848
 20
1.895433651507656
 30
0.0
 11
11.9339620507959
 21
2.97092373142508
 31
0.0
  0
LINE
  5
2233F
330
2231E
100
AcDbEntity
  8
0
  6
CONTINUOUS
100
AcDbLine
 10
11.0665702472945
 20
1.430012718843491
 30
0.0
 11
12.14212943416431
 21
2.505571905713296
 31
0.0
  0
LINE
  5
22340
330
2231E
100
AcDbEntity
  8
0
  6
CONTINUOUS
100
AcDbLine
 10
11.27466852371052
 20
0.9645917861793256
 30
0.0
 11
12.35029681753271
 21
2.040220080001513
 31
0.0
  0
LINE
  5
22341
330
2231E
100
AcDbEntity
  8
0
  6
CONTINUOUS
100
AcDbLine
 10
11.48276680012654
 20
0.4991708535151611
 30
0.0
 11
12.55846420090111
 21
1.57486825428973
 31
0.0
  0
LINE
  5
22342
330
2231E
100
AcDbEntity
  8
0
  6
CONTINUOUS
100
AcDbLine
 10
11.69086507654257
 20
0.0337499208509957
 30
0.0
 11
12.76663158426952
 21
1.109516428577947
 31
0.0
  0
LINE
  5
22343
330
2231E
100
AcDbEntity
  8
0
  6
CONTINUOUS
100
AcDbLine
 10
12.33057447873954
 20
-0.0000598860322123
 30
0.0
 11
12.97479896763792
 21
0.6441646028661663
 31
0.0
  0
LINE
  5
22344
330
2231E
100
AcDbEntity
  8
0
  6
CONTINUOUS
100
AcDbLine
 10
13.00413694809395
 20
-0.0000166257579952
 30
0.0
 11
13.18296635100632
 21
0.1788127771543824
 31
0.0
  0
LINE
  5
22345
330
2231E
100
AcDbEntity
  8
0
  6
CONTINUOUS
100
AcDbLine
 10
4.772852165289667
 20
-0.000092794222212
 30
0.0
 11
4.296495091028902
 21
0.4762642800385528
 31
0.0
  0
LINE
  5
22346
330
2231E
100
AcDbEntity
  8
0
  6
CONTINUOUS
100
AcDbLine
 10
5.446340034776103
 20
-0.0000614546284616
 30
0.0
 11
2.898195908335625
 21
2.548082671812017
 31
0.0
  0
LINE
  5
22347
330
2231E
100
AcDbEntity
  8
0
  6
CONTINUOUS
100
AcDbLine
 10
6.119827904262539
 20
-0.0000301150347113
 30
0.0
 11
1.499896725642348
 21
4.61990106358548
 31
0.0
  0
LINE
  5
22348
330
2231E
100
AcDbEntity
  8
0
  6
CONTINUOUS
100
AcDbLine
 10
6.775136745476159
 20
0.0181802528318542
 30
0.0
 11
5.699826040202669
 21
1.093490958105344
 31
0.0
  0
LINE
  5
22349
330
2231E
100
AcDbEntity
  8
0
  6
CONTINUOUS
100
AcDbLine
 10
6.983376846288489
 20
0.4834593610997118
 30
0.0
 11
5.908008617934405
 21
1.558827589453796
 31
0.0
  0
LINE
  5
2234A
330
2231E
100
AcDbEntity
  8
0
  6
CONTINUOUS
100
AcDbLine
 10
5.377063484962296
 20
1.416253513345719
 30
0.0
 11
1.702276957014131
 21
5.091040041293883
 31
0.0
  0
LINE
  5
2234B
330
2231E
100
AcDbEntity
  8
0
  6
CONTINUOUS
100
AcDbLine
 10
3.978745891735324
 20
3.488090315652877
 30
0.0
 11
2.000373521109399
 21
5.466462686278803
 31
0.0
  0
LINE
  5
2234C
330
2231E
100
AcDbEntity
  8
0
  6
CONTINUOUS
100
AcDbLine
 10
7.191616947100819
 20
0.948738469367568
 30
0.0
 11
6.11619119566614
 21
2.024164220802247
 31
0.0
  0
LINE
  5
2234D
330
2231E
100
AcDbEntity
  8
0
  6
CONTINUOUS
100
AcDbLine
 10
7.399857047913149
 20
1.414017577635424
 30
0.0
 11
6.324373773397875
 21
2.489500852150698
 31
0.0
  0
LINE
  5
2234E
330
2231E
100
AcDbEntity
  8
0
  6
CONTINUOUS
100
AcDbLine
 10
7.608097148725479
 20
1.879296685903281
 30
0.0
 11
6.53255635112961
 21
2.95483748349915
 31
0.0
  0
LINE
  5
2234F
330
2231E
100
AcDbEntity
  8
0
  6
CONTINUOUS
100
AcDbLine
 10
7.816337249537808
 20
2.344575794171138
 30
0.0
 11
6.740738928861345
 21
3.420174114847601
 31
0.0
  0
LINE
  5
22350
330
2231E
100
AcDbEntity
  8
0
  6
CONTINUOUS
100
AcDbLine
 10
3.310241080789734
 20
4.830114335678653
 30
0.0
 11
2.298470085204666
 21
5.84188533126372
 31
0.0
  0
LINE
  5
22351
330
2231E
100
AcDbEntity
  8
0
  6
CONTINUOUS
100
AcDbLine
 10
3.60832983563551
 20
5.205544789913063
 30
0.0
 11
2.596566649299935
 21
6.217307976248638
 31
0.0
  0
LINE
  5
22352
330
2231E
100
AcDbEntity
  8
0
  6
CONTINUOUS
100
AcDbLine
 10
3.906418590481286
 20
5.580975244147473
 30
0.0
 11
2.894663213395203
 21
6.592730621233557
 31
0.0
  0
LINE
  5
22353
330
2231E
100
AcDbEntity
  8
0
  6
CONTINUOUS
100
AcDbLine
 10
4.204507345327062
 20
5.956405698381884
 30
0.0
 11
3.192759777490472
 21
6.968153266218474
 31
0.0
  0
LINE
  5
22354
330
2231E
100
AcDbEntity
  8
0
  6
CONTINUOUS
100
AcDbLine
 10
8.466032252791512
 20
2.368399999997621
 30
0.0
 11
6.948921506593081
 21
3.885510746196053
 31
0.0
  0
LINE
  5
22355
330
2231E
100
AcDbEntity
  8
0
  6
CONTINUOUS
100
AcDbLine
 10
9.139551461871699
 20
2.36839999999762
 30
0.0
 11
7.157104084324816
 21
4.350847377544504
 31
0.0
  0
LINE
  5
22356
330
2231E
100
AcDbEntity
  8
0
  6
CONTINUOUS
100
AcDbLine
 10
4.502596100172839
 20
6.331836152616295
 30
0.0
 11
3.49085634158574
 21
7.343575911203393
 31
0.0
  0
LINE
  5
22357
330
2231E
100
AcDbEntity
  8
0
  6
CONTINUOUS
100
AcDbLine
 10
4.800684855018615
 20
6.707266606850705
 30
0.0
 11
3.788952905681008
 21
7.718998556188312
 31
0.0
  0
LINE
  5
22358
330
2231E
100
AcDbEntity
  8
0
  6
CONTINUOUS
100
AcDbLine
 10
12.18154012887317
 20
-0.0000694579236642
 30
0.0
 11
11.32140332908496
 21
0.8600673418645499
 31
0.0
  0
LINE
  5
22359
330
2231E
100
AcDbEntity
  8
0
  6
CONTINUOUS
100
AcDbLine
 10
12.85501608323566
 20
-0.0000262032059659
 30
0.0
 11
10.77672456435345
 21
2.078265315676246
 31
0.0
  0
LINE
  5
2235A
330
2231E
100
AcDbEntity
  8
0
  6
CONTINUOUS
100
AcDbLine
 10
9.813070670951886
 20
2.36839999999762
 30
0.0
 11
8.51047067095321
 21
3.670999999996297
 31
0.0
  0
LINE
  5
2235B
330
2231E
100
AcDbEntity
  8
0
  6
CONTINUOUS
100
AcDbLine
 10
10.48658988003207
 20
2.36839999999762
 30
0.0
 11
9.183989880033396
 21
3.670999999996297
 31
0.0
  0
LINE
  5
2235C
330
2231E
100
AcDbEntity
  8
0
  6
CONTINUOUS
100
AcDbLine
 10
8.441048632286794
 20
3.740422038662712
 30
0.0
 11
7.365286662056551
 21
4.816184008892956
 31
0.0
  0
LINE
  5
2235D
330
2231E
100
AcDbEntity
  8
0
  6
CONTINUOUS
100
AcDbLine
 10
8.649187485808454
 20
4.205802394221237
 30
0.0
 11
7.573469239788285
 21
5.281520640241407
 31
0.0
  0
LINE
  5
2235E
330
2231E
100
AcDbEntity
  8
0
  6
CONTINUOUS
100
AcDbLine
 10
5.098773609864391
 20
7.082697061085115
 30
0.0
 11
4.087049469776277
 21
8.09442120117323
 31
0.0
  0
LINE
  5
2235F
330
2231E
100
AcDbEntity
  8
0
  6
CONTINUOUS
100
AcDbLine
 10
5.396862364710167
 20
7.458127515319526
 30
0.0
 11
4.385146033871544
 21
8.469843846158149
 31
0.0
  0
LINE
  5
22360
330
2231E
100
AcDbEntity
  8
0
  6
CONTINUOUS
100
AcDbLine
 10
13.04801363231285
 20
0.4804954567970334
 30
0.0
 11
9.85750908911358
 21
3.670999999996297
 31
0.0
  0
LINE
  5
22361
330
2231E
100
AcDbEntity
  8
0
  6
CONTINUOUS
100
AcDbLine
 10
8.857326339330116
 20
4.671182749779763
 30
0.0
 11
7.781651817520021
 21
5.746857271589858
 31
0.0
  0
LINE
  5
22362
330
2231E
100
AcDbEntity
  8
0
  6
CONTINUOUS
100
AcDbLine
 10
5.694951119555943
 20
7.833557969553937
 30
0.0
 11
4.765409089118624
 21
8.763099999991255
 31
0.0
  0
LINE
  5
22363
330
2231E
100
AcDbEntity
  8
0
  6
CONTINUOUS
100
AcDbLine
 10
12.50286117236978
 20
1.699167125820288
 30
0.0
 11
9.68611877250287
 21
4.515909525687196
 31
0.0
  0
LINE
  5
22364
330
2231E
100
AcDbEntity
  8
0
  6
CONTINUOUS
100
AcDbLine
 10
9.065465192851777
 20
5.136563105338288
 30
0.0
 11
7.989834395251757
 21
6.21219390293831
 31
0.0
  0
LINE
  5
22365
330
2231E
100
AcDbEntity
  8
0
  6
CONTINUOUS
100
AcDbLine
 10
5.993039874401719
 20
8.208988423788346
 30
0.0
 11
5.43892829819881
 21
8.763099999991255
 31
0.0
  0
LINE
  5
22366
330
2231E
100
AcDbEntity
  8
0
  6
CONTINUOUS
100
AcDbLine
 10
11.95770871242671
 20
2.917838794843543
 30
0.0
 11
8.19801697298349
 21
6.677530534286761
 31
0.0
  0
LINE
  5
22367
330
2231E
100
AcDbEntity
  8
0
  6
CONTINUOUS
100
AcDbLine
 10
6.291128629247495
 20
8.584418878022756
 30
0.0
 11
6.112447507278997
 21
8.763099999991255
 31
0.0
  0
LINE
  5
22368
330
2231E
100
AcDbEntity
  8
0
  6
CONTINUOUS
100
AcDbLine
 10
11.41255625248364
 20
4.136510463866797
 30
0.0
 11
8.406199550715227
 21
7.142867165635211
 31
0.0
  0
LINE
  5
22369
330
2231E
100
AcDbEntity
  8
0
  6
CONTINUOUS
100
AcDbLine
 10
10.86740379254057
 20
5.355182132890051
 30
0.0
 11
8.614382128446962
 21
7.608203796983664
 31
0.0
  0
LINE
  5
2236A
330
2231E
100
AcDbEntity
  8
0
  6
CONTINUOUS
100
AcDbLine
 10
10.3222513325975
 20
6.573853801913305
 30
0.0
 11
8.822564706178696
 21
8.073540428332114
 31
0.0
  0
LINE
  5
2236B
330
2231E
100
AcDbEntity
  8
0
  6
CONTINUOUS
100
AcDbLine
 10
9.777098872654436
 20
7.792525470936562
 30
0.0
 11
9.030747283910433
 21
8.538877059680566
 31
0.0
  0
ENDBLK
  5
224AD
330
2231E
100
AcDbEntity
  8
0
100
AcDbBlockEnd
  0
BLOCK
  5
224AE
330
2236C
100
AcDbEntity
  8
0
100
AcDbBlockBegin
  2
*X53
 70
     1
 10
0.0
 20
0.0
 30
0.0
  3
*X53
  1

  0
LINE
  5
2236D
330
2236C
100
AcDbEntity
  8
0
  6
CONTINUOUS
100
AcDbLine
 10
10.67292308101235
 20
8.445076852443387
 30
0.0
 11
10.99094622856022
 21
8.763099999991255
 31
0.0
  0
LINE
  5
2236E
330
2236C
100
AcDbEntity
  8
0
  6
CONTINUOUS
100
AcDbLine
 10
10.87250383178748
 20
7.971138394138331
 30
0.0
 11
11.6644654376404
 21
8.763099999991255
 31
0.0
  0
LINE
  5
2236F
330
2236C
100
AcDbEntity
  8
0
  6
CONTINUOUS
100
AcDbLine
 10
11.07208458256261
 20
7.497199935833273
 30
0.0
 11
12.12126590876355
 21
8.546381262034211
 31
0.0
  0
LINE
  5
22370
330
2236C
100
AcDbEntity
  8
0
  6
CONTINUOUS
100
AcDbLine
 10
11.27166533333774
 20
7.023261477528216
 30
0.0
 11
12.32085164573666
 21
8.072447789927136
 31
0.0
  0
LINE
  5
22371
330
2236C
100
AcDbEntity
  8
0
  6
CONTINUOUS
100
AcDbLine
 10
11.47124608411287
 20
6.549323019223158
 30
0.0
 11
12.52043738270977
 21
7.59851431782006
 31
0.0
  0
LINE
  5
22372
330
2236C
100
AcDbEntity
  8
0
  6
CONTINUOUS
100
AcDbLine
 10
11.670826834888
 20
6.075384560918101
 30
0.0
 11
12.72002311968288
 21
7.124580845712984
 31
0.0
  0
LINE
  5
22373
330
2236C
100
AcDbEntity
  8
0
  6
CONTINUOUS
100
AcDbLine
 10
11.87040758566313
 20
5.601446102613043
 30
0.0
 11
12.91960885665599
 21
6.650647373605907
 31
0.0
  0
LINE
  5
22374
330
2236C
100
AcDbEntity
  8
0
  6
CONTINUOUS
100
AcDbLine
 10
12.06998833643825
 20
5.127507644307986
 30
0.0
 11
13.1191945936291
 21
6.176713901498832
 31
0.0
  0
LINE
  5
22375
330
2236C
100
AcDbEntity
  8
0
  6
CONTINUOUS
100
AcDbLine
 10
12.26956908721338
 20
4.65356918600293
 30
0.0
 11
13.31878033060221
 21
5.702780429391757
 31
0.0
  0
LINE
  5
22376
330
2236C
100
AcDbEntity
  8
0
  6
CONTINUOUS
100
AcDbLine
 10
12.46914983798851
 20
4.179630727697873
 30
0.0
 11
13.51836606757532
 21
5.228846957284683
 31
0.0
  0
LINE
  5
22377
330
2236C
100
AcDbEntity
  8
0
  6
CONTINUOUS
100
AcDbLine
 10
12.66873058876364
 20
3.705692269392816
 30
0.0
 11
13.71795180454843
 21
4.754913485177607
 31
0.0
  0
LINE
  5
22378
330
2236C
100
AcDbEntity
  8
0
  6
CONTINUOUS
100
AcDbLine
 10
12.86831133953877
 20
3.231753811087759
 30
0.0
 11
13.91753754152154
 21
4.280980013070531
 31
0.0
  0
LINE
  5
22379
330
2236C
100
AcDbEntity
  8
0
  6
CONTINUOUS
100
AcDbLine
 10
13.0678920903139
 20
2.757815352782702
 30
0.0
 11
14.11712327849465
 21
3.807046540963456
 31
0.0
  0
LINE
  5
2237A
330
2236C
100
AcDbEntity
  8
0
  6
CONTINUOUS
100
AcDbLine
 10
13.26747284108903
 20
2.283876894477644
 30
0.0
 11
14.31670901546777
 21
3.333113068856379
 31
0.0
  0
LINE
  5
2237B
330
2236C
100
AcDbEntity
  8
0
  6
CONTINUOUS
100
AcDbLine
 10
16.36767838827179
 20
8.751678487061342
 30
0.0
 11
16.50332410898388
 21
8.887324207773432
 31
0.0
  0
LINE
  5
2237C
330
2236C
100
AcDbEntity
  8
0
  6
CONTINUOUS
100
AcDbLine
 10
15.96190732182191
 20
7.67238821153127
 30
0.0
 11
16.68735328004734
 21
8.397834169756699
 31
0.0
  0
LINE
  5
2237D
330
2236C
100
AcDbEntity
  8
0
  6
CONTINUOUS
100
AcDbLine
 10
15.55613625537202
 20
6.593097936001196
 30
0.0
 11
16.87138245111079
 21
7.908344131739965
 31
0.0
  0
LINE
  5
2237E
330
2236C
100
AcDbEntity
  8
0
  6
CONTINUOUS
100
AcDbLine
 10
15.15036518892213
 20
5.513807660471122
 30
0.0
 11
17.05541162217424
 21
7.418854093723231
 31
0.0
  0
LINE
  5
2237F
330
2236C
100
AcDbEntity
  8
0
  6
CONTINUOUS
100
AcDbLine
 10
14.74459412247225
 20
4.434517384941048
 30
0.0
 11
17.2394407932377
 21
6.929364055706499
 31
0.0
  0
LINE
  5
22380
330
2236C
100
AcDbEntity
  8
0
  6
CONTINUOUS
100
AcDbLine
 10
14.33882305602236
 20
3.355227109410975
 30
0.0
 11
17.42346996430115
 21
6.439874017689766
 31
0.0
  0
LINE
  5
22381
330
2236C
100
AcDbEntity
  8
0
  6
CONTINUOUS
100
AcDbLine
 10
13.46705359186416
 20
1.809938436172586
 30
0.0
 11
16.0819338255367
 21
4.424818669845129
 31
0.0
  0
LINE
  5
22382
330
2236C
100
AcDbEntity
  8
0
  6
CONTINUOUS
100
AcDbLine
 10
16.63283254238972
 20
4.975717386698149
 30
0.0
 11
17.60749913536461
 21
5.950383979673033
 31
0.0
  0
LINE
  5
22383
330
2236C
100
AcDbEntity
  8
0
  6
CONTINUOUS
100
AcDbLine
 10
13.66663434263929
 20
1.335999977867529
 30
0.0
 11
15.67604797733754
 21
3.345413612565779
 31
0.0
  0
LINE
  5
22384
330
2236C
100
AcDbEntity
  8
0
  6
CONTINUOUS
100
AcDbLine
 10
13.86621509341442
 20
0.8620615195624723
 30
0.0
 11
15.27016212913838
 21
2.26600855528643
 31
0.0
  0
LINE
  5
22385
330
2236C
100
AcDbEntity
  8
0
  6
CONTINUOUS
100
AcDbLine
 10
16.81682257348267
 20
4.486188208710908
 30
0.0
 11
17.79152830642806
 21
5.460893941656299
 31
0.0
  0
LINE
  5
22386
330
2236C
100
AcDbEntity
  8
0
  6
CONTINUOUS
100
AcDbLine
 10
17.00081260457561
 20
3.996659030723667
 30
0.0
 11
17.97555747749151
 21
4.971403903639565
 31
0.0
  0
LINE
  5
22387
330
2236C
100
AcDbEntity
  8
0
  6
CONTINUOUS
100
AcDbLine
 10
20.74362343514722
 20
8.412989070375462
 30
0.0
 11
21.09373436476302
 21
8.763099999991256
 31
0.0
  0
LINE
  5
22388
330
2236C
100
AcDbEntity
  8
0
  6
CONTINUOUS
100
AcDbLine
 10
20.25401257174777
 20
7.249858997895826
 30
0.0
 11
21.7672535738432
 21
8.763099999991255
 31
0.0
  0
LINE
  5
22389
330
2236C
100
AcDbEntity
  8
0
  6
CONTINUOUS
100
AcDbLine
 10
14.06579584418955
 20
0.3881230612574149
 30
0.0
 11
14.86427628093921
 21
1.186603498007082
 31
0.0
  0
LINE
  5
2238A
330
2236C
100
AcDbEntity
  8
0
  6
CONTINUOUS
100
AcDbLine
 10
14.26537659496467
 20
-0.0858153970476412
 30
0.0
 11
14.45839043274005
 21
0.1071984407277329
 31
0.0
  0
LINE
  5
2238B
330
2236C
100
AcDbEntity
  8
0
  6
CONTINUOUS
100
AcDbLine
 10
17.18480263566856
 20
3.507129852736426
 30
0.0
 11
18.15958664855496
 21
4.481913865622833
 31
0.0
  0
LINE
  5
2238C
330
2236C
100
AcDbEntity
  8
0
  6
CONTINUOUS
100
AcDbLine
 10
17.3687926667615
 20
3.017600674749186
 30
0.0
 11
18.34361581961842
 21
3.9924238276061
 31
0.0
  0
LINE
  5
2238D
330
2236C
100
AcDbEntity
  8
0
  6
CONTINUOUS
100
AcDbLine
 10
19.76440170834832
 20
6.086728925416191
 30
0.0
 11
22.33924590259489
 21
8.661573119662755
 31
0.0
  0
LINE
  5
2238E
330
2236C
100
AcDbEntity
  8
0
  6
CONTINUOUS
100
AcDbLine
 10
19.27479084494887
 20
4.923598852936555
 30
0.0
 11
21.84929622842713
 21
7.498104236414807
 31
0.0
  0
LINE
  5
2238F
330
2236C
100
AcDbEntity
  8
0
  6
CONTINUOUS
100
AcDbLine
 10
17.55278269785445
 20
2.528071496761945
 30
0.0
 11
18.52764499068187
 21
3.502933789589366
 31
0.0
  0
LINE
  5
22390
330
2236C
100
AcDbEntity
  8
0
  6
CONTINUOUS
100
AcDbLine
 10
18.78517998154942
 20
3.760468780456919
 30
0.0
 11
21.35934655425936
 21
6.33463535316686
 31
0.0
  0
LINE
  5
22391
330
2236C
100
AcDbEntity
  8
0
  6
CONTINUOUS
100
AcDbLine
 10
17.73677272894739
 20
2.038542318774704
 30
0.0
 11
20.8693968800916
 21
5.171166469918914
 31
0.0
  0
LINE
  5
22392
330
2236C
100
AcDbEntity
  8
0
  6
CONTINUOUS
100
AcDbLine
 10
17.92076276004034
 20
1.549013140787464
 30
0.0
 11
20.37944720592384
 21
4.007697586670968
 31
0.0
  0
LINE
  5
22393
330
2236C
100
AcDbEntity
  8
0
  6
CONTINUOUS
100
AcDbLine
 10
18.10475279113329
 20
1.059483962800223
 30
0.0
 11
19.88949753175608
 21
2.84422870342302
 31
0.0
  0
LINE
  5
22394
330
2236C
100
AcDbEntity
  8
0
  6
CONTINUOUS
100
AcDbLine
 10
18.28874282222623
 20
0.5699547848129822
 30
0.0
 11
19.39954785758832
 21
1.680759820175074
 31
0.0
  0
LINE
  5
22395
330
2236C
100
AcDbEntity
  8
0
  6
CONTINUOUS
100
AcDbLine
 10
18.47273285331918
 20
0.0804256068257416
 30
0.0
 11
18.90959818342056
 21
0.517290936927127
 31
0.0
  0
LINE
  5
22396
330
2236C
100
AcDbEntity
  8
0
  6
CONTINUOUS
100
AcDbLine
 10
14.3590401358224
 20
-0.1570118376323384
 30
0.0
 11
14.24903296539946
 21
-0.0470046672093929
 31
0.0
  0
LINE
  5
22397
330
2236C
100
AcDbEntity
  8
0
  6
CONTINUOUS
100
AcDbLine
 10
14.54309291258661
 20
0.332454594683643
 30
0.0
 11
13.75908329123172
 21
1.116464216038529
 31
0.0
  0
LINE
  5
22398
330
2236C
100
AcDbEntity
  8
0
  6
CONTINUOUS
100
AcDbLine
 10
14.72714568935081
 20
0.8219210269996244
 30
0.0
 11
13.26913361706399
 21
2.27993309928645
 31
0.0
  0
LINE
  5
22399
330
2236C
100
AcDbEntity
  8
0
  6
CONTINUOUS
100
AcDbLine
 10
14.91119846611502
 20
1.311387459315606
 30
0.0
 11
12.77918394289625
 21
3.443401982534371
 31
0.0
  0
LINE
  5
2239A
330
2236C
100
AcDbEntity
  8
0
  6
CONTINUOUS
100
AcDbLine
 10
15.09525124287922
 20
1.800853891631587
 30
0.0
 11
12.28923426872852
 21
4.606870865782293
 31
0.0
  0
LINE
  5
2239B
330
2236C
100
AcDbEntity
  8
0
  6
CONTINUOUS
100
AcDbLine
 10
15.27930401964343
 20
2.290320323947569
 30
0.0
 11
11.79928459456078
 21
5.770339749030213
 31
0.0
  0
LINE
  5
2239C
330
2236C
100
AcDbEntity
  8
0
  6
CONTINUOUS
100
AcDbLine
 10
15.46335679640763
 20
2.77978675626355
 30
0.0
 11
14.48885470994921
 21
3.754288842721972
 31
0.0
  0
LINE
  5
2239D
330
2236C
100
AcDbEntity
  8
0
  6
CONTINUOUS
100
AcDbLine
 10
13.88507249233704
 20
4.358071060334137
 30
0.0
 11
11.30933492039305
 21
6.933808632278135
 31
0.0
  0
LINE
  5
2239E
330
2236C
100
AcDbEntity
  8
0
  6
CONTINUOUS
100
AcDbLine
 10
18.75840522805855
 20
0.1582575336928151
 30
0.0
 11
18.25383727664818
 21
0.6628254851031863
 31
0.0
  0
LINE
  5
2239F
330
2236C
100
AcDbEntity
  8
0
  6
CONTINUOUS
100
AcDbLine
 10
15.64740957317184
 20
3.269253188579531
 30
0.0
 11
14.67288388101266
 21
4.243778880738705
 31
0.0
  0
LINE
  5
223A0
330
2236C
100
AcDbEntity
  8
0
  6
CONTINUOUS
100
AcDbLine
 10
13.39509276772158
 20
5.521569994029786
 30
0.0
 11
10.81938524622531
 21
8.097277515526056
 31
0.0
  0
LINE
  5
223A1
330
2236C
100
AcDbEntity
  8
0
  6
CONTINUOUS
100
AcDbLine
 10
18.95798597883369
 20
0.6321959919978686
 30
0.0
 11
17.84825644852853
 21
1.741925522303024
 31
0.0
  0
LINE
  5
223A2
330
2236C
100
AcDbEntity
  8
0
  6
CONTINUOUS
100
AcDbLine
 10
19.15756672960882
 20
1.106134450302922
 30
0.0
 11
17.44267562040888
 21
2.821025559502861
 31
0.0
  0
LINE
  5
223A3
330
2236C
100
AcDbEntity
  8
0
  6
CONTINUOUS
100
AcDbLine
 10
15.83146234993604
 20
3.758719620895513
 30
0.0
 11
14.85691305207612
 21
4.733268918755439
 31
0.0
  0
LINE
  5
223A4
330
2236C
100
AcDbEntity
  8
0
  6
CONTINUOUS
100
AcDbLine
 10
16.01551512670025
 20
4.248186053211494
 30
0.0
 11
15.04094222313957
 21
5.222758956772172
 31
0.0
  0
LINE
  5
223A5
330
2236C
100
AcDbEntity
  8
0
  6
CONTINUOUS
100
AcDbLine
 10
12.90511304310612
 20
6.685068927725435
 30
0.0
 11
10.8270819708403
 21
8.763099999991255
 31
0.0
  0
LINE
  5
223A6
330
2236C
100
AcDbEntity
  8
0
  6
CONTINUOUS
100
AcDbLine
 10
12.41513331849066
 20
7.848567861421083
 30
0.0
 11
11.50060117992049
 21
8.763099999991255
 31
0.0
  0
LINE
  5
223A7
330
2236C
100
AcDbEntity
  8
0
  6
CONTINUOUS
100
AcDbLine
 10
19.35714748038395
 20
1.580072908607975
 30
0.0
 11
17.03709479228923
 21
3.900125596702697
 31
0.0
  0
LINE
  5
223A8
330
2236C
100
AcDbEntity
  8
0
  6
CONTINUOUS
100
AcDbLine
 10
19.55672823115909
 20
2.054011366913028
 30
0.0
 11
16.63151396416958
 21
4.979225633902534
 31
0.0
  0
LINE
  5
223A9
330
2236C
100
AcDbEntity
  8
0
  6
CONTINUOUS
100
AcDbLine
 10
16.19956790346445
 20
4.737652485527476
 30
0.0
 11
15.22497139420302
 21
5.712248994788904
 31
0.0
  0
LINE
  5
223AA
330
2236C
100
AcDbEntity
  8
0
  6
CONTINUOUS
100
AcDbLine
 10
16.38362068022866
 20
5.227118917843457
 30
0.0
 11
15.40900056526648
 21
6.201739032805637
 31
0.0
  0
LINE
  5
223AB
330
2236C
100
AcDbEntity
  8
0
  6
CONTINUOUS
100
AcDbLine
 10
19.75630898193422
 20
2.527949825218081
 30
0.0
 11
18.70774536448286
 21
3.576513442669441
 31
0.0
  0
LINE
  5
223AC
330
2236C
100
AcDbEntity
  8
0
  6
CONTINUOUS
100
AcDbLine
 10
19.95588973270936
 20
3.001888283523134
 30
0.0
 11
18.90726987211446
 21
4.050508144118028
 31
0.0
  0
LINE
  5
223AD
330
2236C
100
AcDbEntity
  8
0
  6
CONTINUOUS
100
AcDbLine
 10
20.15547048348449
 20
3.475826741828186
 30
0.0
 11
19.10679437974606
 21
4.524502845566614
 31
0.0
  0
LINE
  5
223AE
330
2236C
100
AcDbEntity
  8
0
  6
CONTINUOUS
100
AcDbLine
 10
20.35505123425962
 20
3.94976520013324
 30
0.0
 11
19.30631888737766
 21
4.998497547015201
 31
0.0
  0
LINE
  5
223AF
330
2236C
100
AcDbEntity
  8
0
  6
CONTINUOUS
100
AcDbLine
 10
20.55463198503475
 20
4.423703658438292
 30
0.0
 11
19.50584339500926
 21
5.472492248463787
 31
0.0
  0
LINE
  5
223B0
330
2236C
100
AcDbEntity
  8
0
  6
CONTINUOUS
100
AcDbLine
 10
18.37481191085755
 20
3.909446896294752
 30
0.0
 11
15.59302973632993
 21
6.691229070822371
 31
0.0
  0
LINE
  5
223B1
330
2236C
100
AcDbEntity
  8
0
  6
CONTINUOUS
100
AcDbLine
 10
17.96904084440766
 20
4.988737171824825
 30
0.0
 11
15.77705890739338
 21
7.180719108839104
 31
0.0
  0
LINE
  5
223B2
330
2236C
100
AcDbEntity
  8
0
  6
CONTINUOUS
100
AcDbLine
 10
17.56326977795777
 20
6.068027447354899
 30
0.0
 11
15.96108807845684
 21
7.670209146855838
 31
0.0
  0
LINE
  5
223B3
330
2236C
100
AcDbEntity
  8
0
  6
CONTINUOUS
100
AcDbLine
 10
17.15749871150789
 20
7.147317722884972
 30
0.0
 11
16.14511724952029
 21
8.15969918487257
 31
0.0
  0
LINE
  5
223B4
330
2236C
100
AcDbEntity
  8
0
  6
CONTINUOUS
100
AcDbLine
 10
16.751727645058
 20
8.226607998415046
 30
0.0
 11
16.32914642058374
 21
8.649189222889303
 31
0.0
  0
LINE
  5
223B5
330
2236C
100
AcDbEntity
  8
0
  6
CONTINUOUS
100
AcDbLine
 10
20.75421273580989
 20
4.897642116743345
 30
0.0
 11
19.70536790264086
 21
5.946486949912374
 31
0.0
  0
LINE
  5
223B6
330
2236C
100
AcDbEntity
  8
0
  6
CONTINUOUS
100
AcDbLine
 10
20.95379348658502
 20
5.371580575048398
 30
0.0
 11
19.90489241027246
 21
6.42048165136096
 31
0.0
  0
LINE
  5
223B7
330
2236C
100
AcDbEntity
  8
0
  6
CONTINUOUS
100
AcDbLine
 10
21.15337423736015
 20
5.845519033353452
 30
0.0
 11
20.10441691790406
 21
6.894476352809547
 31
0.0
  0
LINE
  5
223B8
330
2236C
100
AcDbEntity
  8
0
  6
CONTINUOUS
100
AcDbLine
 10
21.35295498813529
 20
6.319457491658505
 30
0.0
 11
20.30394142553566
 21
7.368471054258134
 31
0.0
  0
LINE
  5
223B9
330
2236C
100
AcDbEntity
  8
0
  6
CONTINUOUS
100
AcDbLine
 10
21.55253573891042
 20
6.793395949963558
 30
0.0
 11
20.50346593316726
 21
7.842465755706721
 31
0.0
  0
LINE
  5
223BA
330
2236C
100
AcDbEntity
  8
0
  6
CONTINUOUS
100
AcDbLine
 10
21.75211648968556
 20
7.267334408268612
 30
0.0
 11
20.70299044079886
 21
8.316460457155308
 31
0.0
  0
LINE
  5
223BB
330
2236C
100
AcDbEntity
  8
0
  6
CONTINUOUS
100
AcDbLine
 10
21.95169724046069
 20
7.741272866573663
 30
0.0
 11
20.9298701070431
 21
8.763099999991256
 31
0.0
  0
LINE
  5
223BC
330
2236C
100
AcDbEntity
  8
0
  6
CONTINUOUS
100
AcDbLine
 10
22.15127799123582
 20
8.215211324878716
 30
0.0
 11
21.60338931612328
 21
8.763099999991256
 31
0.0
  0
LINE
  5
223BD
330
2236C
100
AcDbEntity
  8
0
  6
CONTINUOUS
100
AcDbLine
 10
22.35085874201096
 20
8.689149783183769
 30
0.0
 11
22.27690852520347
 21
8.763099999991255
 31
0.0
  0
ENDBLK
  5
224AF
330
2236C
100
AcDbEntity
  8
0
100
AcDbBlockEnd
  0
BLOCK
  5
224B0
330
223BE
100
AcDbEntity
  8
0
100
AcDbBlockBegin
  2
*X54
 70
     1
 10
0.0
 20
0.0
 30
0.0
  3
*X54
  1

  0
LINE
  5
223BF
330
223BE
100
AcDbEntity
  8
0
  6
CONTINUOUS
100
AcDbLine
 10
23.19462913593892
 20
8.169917934846424
 30
0.0
 11
23.70775465517246
 21
8.683043454079957
 31
0.0
  0
LINE
  5
223C0
330
223BE
100
AcDbEntity
  8
0
  6
CONTINUOUS
100
AcDbLine
 10
22.64923161835078
 20
6.951001208178088
 30
0.0
 11
23.9159364069932
 21
8.217705996820516
 31
0.0
  0
LINE
  5
223C1
330
223BE
100
AcDbEntity
  8
0
  6
CONTINUOUS
100
AcDbLine
 10
22.10383410076263
 20
5.732084481509751
 30
0.0
 11
24.12411815881395
 21
7.752368539561078
 31
0.0
  0
LINE
  5
223C2
330
223BE
100
AcDbEntity
  8
0
  6
CONTINUOUS
100
AcDbLine
 10
21.55843658317447
 20
4.513167754841414
 30
0.0
 11
24.3322999106347
 21
7.287031082301639
 31
0.0
  0
LINE
  5
223C3
330
223BE
100
AcDbEntity
  8
0
  6
CONTINUOUS
100
AcDbLine
 10
21.01303906558632
 20
3.294251028173077
 30
0.0
 11
24.54048166245544
 21
6.821693625042199
 31
0.0
  0
LINE
  5
223C4
330
223BE
100
AcDbEntity
  8
0
  6
CONTINUOUS
100
AcDbLine
 10
20.46764154799817
 20
2.075334301504738
 30
0.0
 11
23.28571549467848
 21
4.89340824818505
 31
0.0
  0
LINE
  5
223C5
330
223BE
100
AcDbEntity
  8
0
  6
CONTINUOUS
100
AcDbLine
 10
19.92224403041002
 20
0.8564175748364002
 30
0.0
 11
22.74075865492779
 21
3.674932199354171
 31
0.0
  0
LINE
  5
223C6
330
223BE
100
AcDbEntity
  8
0
  6
CONTINUOUS
100
AcDbLine
 10
23.67305085490148
 20
5.280743608408048
 30
0.0
 11
24.74866341427619
 21
6.356356167782759
 31
0.0
  0
LINE
  5
223C7
330
223BE
100
AcDbEntity
  8
0
  6
CONTINUOUS
100
AcDbLine
 10
23.88118970842314
 20
4.815363252849522
 30
0.0
 11
24.95684516609694
 21
5.89101871052332
 31
0.0
  0
LINE
  5
223C8
330
223BE
100
AcDbEntity
  8
0
  6
CONTINUOUS
100
AcDbLine
 10
19.73925852647308
 20
-0.0000871381807288
 30
0.0
 11
23.4103456646501
 21
3.670999999996297
 31
0.0
  0
LINE
  5
223C9
330
223BE
100
AcDbEntity
  8
0
  6
CONTINUOUS
100
AcDbLine
 10
24.0893285619448
 20
4.349982897290997
 30
0.0
 11
25.16502691791769
 21
5.42568125326388
 31
0.0
  0
LINE
  5
223CA
330
223BE
100
AcDbEntity
  8
0
  6
CONTINUOUS
100
AcDbLine
 10
20.41282099582748
 20
-0.0000438779065108
 30
0.0
 11
21.64944178675636
 21
1.236576913022366
 31
0.0
  0
LINE
  5
223CB
330
223BE
100
AcDbEntity
  8
0
  6
CONTINUOUS
100
AcDbLine
 10
22.78126487373161
 20
2.36839999999762
 30
0.0
 11
24.08386487373029
 21
3.670999999996297
 31
0.0
  0
LINE
  5
223CC
330
223BE
100
AcDbEntity
  8
0
  6
CONTINUOUS
100
AcDbLine
 10
24.29746741546646
 20
3.884602541732471
 30
0.0
 11
25.37320866973843
 21
4.960343796004441
 31
0.0
  0
LINE
  5
223CD
330
223BE
100
AcDbEntity
  8
0
  6
CONTINUOUS
100
AcDbLine
 10
21.08638346518189
 20
-0.0000006176322938
 30
0.0
 11
21.10379033335899
 21
0.0174062505448083
 31
0.0
  0
LINE
  5
223CE
330
223BE
100
AcDbEntity
  8
0
  6
CONTINUOUS
100
AcDbLine
 10
23.4547840828118
 20
2.36839999999762
 30
0.0
 11
25.58139042155918
 21
4.495006338745002
 31
0.0
  0
LINE
  5
223CF
330
223BE
100
AcDbEntity
  8
0
  6
CONTINUOUS
100
AcDbLine
 10
29.30199999996933
 20
8.215615917155148
 30
0.0
 11
29.84948408280543
 21
8.763099999991255
 31
0.0
  0
LINE
  5
223D0
330
223BE
100
AcDbEntity
  8
0
  6
CONTINUOUS
100
AcDbLine
 10
24.12830329189199
 20
2.36839999999762
 30
0.0
 11
25.78957217337993
 21
4.029668881485562
 31
0.0
  0
LINE
  5
223D1
330
223BE
100
AcDbEntity
  8
0
  6
CONTINUOUS
100
AcDbLine
 10
29.30199999996933
 20
7.54209670807496
 30
0.0
 11
30.52300329188562
 21
8.763099999991255
 31
0.0
  0
LINE
  5
223D2
330
223BE
100
AcDbEntity
  8
0
  6
CONTINUOUS
100
AcDbLine
 10
24.80182250097217
 20
2.36839999999762
 30
0.0
 11
25.99775392520067
 21
3.564331424226122
 31
0.0
  0
LINE
  5
223D3
330
223BE
100
AcDbEntity
  8
0
  6
CONTINUOUS
100
AcDbLine
 10
29.30199999996933
 20
6.868577498994774
 30
0.0
 11
30.74199999996926
 21
8.308577498994712
 31
0.0
  0
LINE
  5
223D4
330
223BE
100
AcDbEntity
  8
0
  6
CONTINUOUS
100
AcDbLine
 10
25.13028238392013
 20
2.023340673865392
 30
0.0
 11
26.20593567702142
 21
3.098993966966683
 31
0.0
  0
LINE
  5
223D5
330
223BE
100
AcDbEntity
  8
0
  6
CONTINUOUS
100
AcDbLine
 10
25.33838066033617
 20
1.557919741201244
 30
0.0
 11
26.41411742884217
 21
2.633656509707244
 31
0.0
  0
LINE
  5
223D6
330
223BE
100
AcDbEntity
  8
0
  6
CONTINUOUS
100
AcDbLine
 10
25.54647893675221
 20
1.092498808537098
 30
0.0
 11
26.62229918066291
 21
2.168319052447804
 31
0.0
  0
LINE
  5
223D7
330
223BE
100
AcDbEntity
  8
0
  6
CONTINUOUS
100
AcDbLine
 10
25.75457721316825
 20
0.62707787587295
 30
0.0
 11
26.83048093248366
 21
1.702981595188365
 31
0.0
  0
LINE
  5
223D8
330
223BE
100
AcDbEntity
  8
0
  6
CONTINUOUS
100
AcDbLine
 10
29.30199999996933
 20
6.195058289914587
 30
0.0
 11
30.74199999996926
 21
7.635058289914522
 31
0.0
  0
LINE
  5
223D9
330
223BE
100
AcDbEntity
  8
0
  6
CONTINUOUS
100
AcDbLine
 10
29.30199999996933
 20
5.521539080834401
 30
0.0
 11
30.74199999996926
 21
6.961539080834331
 31
0.0
  0
LINE
  5
223DA
330
223BE
100
AcDbEntity
  8
0
  6
CONTINUOUS
100
AcDbLine
 10
29.30199999996933
 20
4.848019871754214
 30
0.0
 11
30.74199999996925
 21
6.288019871754143
 31
0.0
  0
LINE
  5
223DB
330
223BE
100
AcDbEntity
  8
0
  6
CONTINUOUS
100
AcDbLine
 10
29.30199999996933
 20
4.174500662674028
 30
0.0
 11
30.74199999996925
 21
5.614500662673953
 31
0.0
  0
LINE
  5
223DC
330
223BE
100
AcDbEntity
  8
0
  6
CONTINUOUS
100
AcDbLine
 10
25.96267548958429
 20
0.1616569432088024
 30
0.0
 11
27.18411854636669
 21
1.383099999991207
 31
0.0
  0
LINE
  5
223DD
330
223BE
100
AcDbEntity
  8
0
  6
CONTINUOUS
100
AcDbLine
 10
29.30199999996933
 20
3.500981453593841
 30
0.0
 11
30.74199999996925
 21
4.940981453593762
 31
0.0
  0
LINE
  5
223DE
330
223BE
100
AcDbEntity
  8
0
  6
CONTINUOUS
100
AcDbLine
 10
26.50763775544691
 20
0.0330999999912356
 30
0.0
 11
27.85763775544689
 21
1.383099999991223
 31
0.0
  0
LINE
  5
223DF
330
223BE
100
AcDbEntity
  8
0
  6
CONTINUOUS
100
AcDbLine
 10
29.30199999996933
 20
2.827462244513656
 30
0.0
 11
30.74199999996925
 21
4.267462244513574
 31
0.0
  0
LINE
  5
223E0
330
223BE
100
AcDbEntity
  8
0
  6
CONTINUOUS
100
AcDbLine
 10
27.18115696452709
 20
0.0330999999912356
 30
0.0
 11
28.55073879889363
 21
1.402681834357775
 31
0.0
  0
LINE
  5
223E1
330
223BE
100
AcDbEntity
  8
0
  6
CONTINUOUS
100
AcDbLine
 10
29.28241816560272
 20
2.134361201066866
 30
0.0
 11
30.74199999996924
 21
3.593943035433383
 31
0.0
  0
LINE
  5
223E2
330
223BE
100
AcDbEntity
  8
0
  6
CONTINUOUS
100
AcDbLine
 10
27.85467617360728
 20
0.0330999999912356
 30
0.0
 11
30.74199999996924
 21
2.920423826353195
 31
0.0
  0
LINE
  5
223E3
330
223BE
100
AcDbEntity
  8
0
  6
CONTINUOUS
100
AcDbLine
 10
28.53897559587887
 20
0.0438802131826428
 30
0.0
 11
30.73121978677781
 21
2.236124404081585
 31
0.0
  0
LINE
  5
223E4
330
223BE
100
AcDbEntity
  8
0
  6
CONTINUOUS
100
AcDbLine
 10
29.45140055588722
 20
0.2827859641107988
 30
0.0
 11
30.49231403584965
 21
1.323699444073236
 31
0.0
  0
LINE
  5
223E5
330
223BE
100
AcDbEntity
  8
0
  6
CONTINUOUS
100
AcDbLine
 10
19.59027867740337
 20
-0.0000967065718083
 30
0.0
 11
19.55485265190471
 21
0.035329318926844
 31
0.0
  0
LINE
  5
223E6
330
223BE
100
AcDbEntity
  8
0
  6
CONTINUOUS
100
AcDbLine
 10
20.26375463176586
 20
-0.0000534518541091
 30
0.0
 11
19.76305575737534
 21
0.5006454225364014
 31
0.0
  0
LINE
  5
223E7
330
223BE
100
AcDbEntity
  8
0
  6
CONTINUOUS
100
AcDbLine
 10
20.93723058612834
 20
-0.0000101971364099
 30
0.0
 11
19.97125886284597
 21
0.965961526145958
 31
0.0
  0
LINE
  5
223E8
330
223BE
100
AcDbEntity
  8
0
  6
CONTINUOUS
100
AcDbLine
 10
21.25514828313686
 20
0.355591314935257
 30
0.0
 11
20.1794619683166
 21
1.431277629755512
 31
0.0
  0
LINE
  5
223E9
330
223BE
100
AcDbEntity
  8
0
  6
CONTINUOUS
100
AcDbLine
 10
21.46338838394921
 20
0.8208704232030986
 30
0.0
 11
20.38766507378723
 21
1.896593733365069
 31
0.0
  0
LINE
  5
223EA
330
223BE
100
AcDbEntity
  8
0
  6
CONTINUOUS
100
AcDbLine
 10
21.67162848476155
 20
1.28614953147094
 30
0.0
 11
20.59586817925786
 21
2.361909836974626
 31
0.0
  0
LINE
  5
223EB
330
223BE
100
AcDbEntity
  8
0
  6
CONTINUOUS
100
AcDbLine
 10
21.8798685855739
 20
1.751428639738782
 30
0.0
 11
20.80407128472849
 21
2.827225940584183
 31
0.0
  0
LINE
  5
223EC
330
223BE
100
AcDbEntity
  8
0
  6
CONTINUOUS
100
AcDbLine
 10
22.08810868638624
 20
2.216707748006623
 30
0.0
 11
21.01227439019912
 21
3.292542044193739
 31
0.0
  0
LINE
  5
223ED
330
223BE
100
AcDbEntity
  8
0
  6
CONTINUOUS
100
AcDbLine
 10
22.60993564347543
 20
2.36839999999762
 30
0.0
 11
21.22047749566975
 21
3.757858147803296
 31
0.0
  0
LINE
  5
223EE
330
223BE
100
AcDbEntity
  8
0
  6
CONTINUOUS
100
AcDbLine
 10
23.28345485255561
 20
2.36839999999762
 30
0.0
 11
21.42868060114038
 21
4.223174251412853
 31
0.0
  0
LINE
  5
223EF
330
223BE
100
AcDbEntity
  8
0
  6
CONTINUOUS
100
AcDbLine
 10
26.29227406164219
 20
0.0330999999912356
 30
0.0
 11
25.80009199592872
 21
0.5252820657046957
 31
0.0
  0
LINE
  5
223F0
330
223BE
100
AcDbEntity
  8
0
  6
CONTINUOUS
100
AcDbLine
 10
23.9569740616358
 20
2.36839999999762
 30
0.0
 11
21.63688370661101
 21
4.688490355022409
 31
0.0
  0
LINE
  5
223F1
330
223BE
100
AcDbEntity
  8
0
  6
CONTINUOUS
100
AcDbLine
 10
26.96579327072237
 20
0.0330999999912356
 30
0.0
 11
25.2554132311971
 21
1.743480039516508
 31
0.0
  0
LINE
  5
223F2
330
223BE
100
AcDbEntity
  8
0
  6
CONTINUOUS
100
AcDbLine
 10
24.63049327071599
 20
2.36839999999762
 30
0.0
 11
23.32789327071731
 21
3.670999999996297
 31
0.0
  0
LINE
  5
223F3
330
223BE
100
AcDbEntity
  8
0
  6
CONTINUOUS
100
AcDbLine
 10
22.92098674744635
 20
4.077906523267254
 30
0.0
 11
21.84508681208164
 21
5.153806458631966
 31
0.0
  0
LINE
  5
223F4
330
223BE
100
AcDbEntity
  8
0
  6
CONTINUOUS
100
AcDbLine
 10
27.63931247980256
 20
0.0330999999912356
 30
0.0
 11
24.0014124797975
 21
3.670999999996297
 31
0.0
  0
LINE
  5
223F5
330
223BE
100
AcDbEntity
  8
0
  6
CONTINUOUS
100
AcDbLine
 10
23.129125600968
 20
4.5432868788258
 30
0.0
 11
22.05328991755227
 21
5.619122562241522
 31
0.0
  0
LINE
  5
223F6
330
223BE
100
AcDbEntity
  8
0
  6
CONTINUOUS
100
AcDbLine
 10
28.31283168888275
 20
0.0330999999912356
 30
0.0
 11
24.16488385994816
 21
4.181047828925828
 31
0.0
  0
LINE
  5
223F7
330
223BE
100
AcDbEntity
  8
0
  6
CONTINUOUS
100
AcDbLine
 10
23.33726445448964
 20
5.008667234384345
 30
0.0
 11
22.2614930230229
 21
6.084438665851079
 31
0.0
  0
LINE
  5
223F8
330
223BE
100
AcDbEntity
  8
0
  6
CONTINUOUS
100
AcDbLine
 10
28.92085740005492
 20
0.0985934978992438
 30
0.0
 11
27.63635089796295
 21
1.383099999991217
 31
0.0
  0
LINE
  5
223F9
330
223BE
100
AcDbEntity
  8
0
  6
CONTINUOUS
100
AcDbLine
 10
26.43704649509776
 20
2.582404402856405
 30
0.0
 11
23.61992702019732
 21
5.399523877756844
 31
0.0
  0
LINE
  5
223FA
330
223BE
100
AcDbEntity
  8
0
  6
CONTINUOUS
100
AcDbLine
 10
23.54540330801128
 20
5.47404758994289
 30
0.0
 11
22.46969612849353
 21
6.549754769460635
 31
0.0
  0
LINE
  5
223FB
330
223BE
100
AcDbEntity
  8
0
  6
CONTINUOUS
100
AcDbLine
 10
29.42225615078443
 20
0.2707139562499279
 30
0.0
 11
28.30987010704312
 21
1.383099999991234
 31
0.0
  0
LINE
  5
223FC
330
223BE
100
AcDbEntity
  8
0
  6
CONTINUOUS
100
AcDbLine
 10
25.89179548232307
 20
3.801174624711282
 30
0.0
 11
22.67789923396416
 21
7.015070873070191
 31
0.0
  0
LINE
  5
223FD
330
223BE
100
AcDbEntity
  8
0
  6
CONTINUOUS
100
AcDbLine
 10
29.83624534690007
 20
0.5302439692144705
 30
0.0
 11
28.85811781497101
 21
1.508371501143527
 31
0.0
  0
LINE
  5
223FE
330
223BE
100
AcDbEntity
  8
0
  6
CONTINUOUS
100
AcDbLine
 10
25.34654446954838
 20
5.01994484656616
 30
0.0
 11
22.88610233943479
 21
7.480386976679748
 31
0.0
  0
LINE
  5
223FF
330
223BE
100
AcDbEntity
  8
0
  6
CONTINUOUS
100
AcDbLine
 10
30.17865975401872
 20
0.8613487711760022
 30
0.0
 11
29.18888744090175
 21
1.851121084292977
 31
0.0
  0
LINE
  5
22400
330
223BE
100
AcDbEntity
  8
0
  6
CONTINUOUS
100
AcDbLine
 10
24.80129345677369
 20
6.238715068421037
 30
0.0
 11
23.09430544490542
 21
7.945703080289305
 31
0.0
  0
LINE
  5
22401
330
223BE
100
AcDbEntity
  8
0
  6
CONTINUOUS
100
AcDbLine
 10
30.45496647202376
 20
1.258561262251155
 30
0.0
 11
29.30199999996933
 21
2.411527734305588
 31
0.0
  0
LINE
  5
22402
330
223BE
100
AcDbEntity
  8
0
  6
CONTINUOUS
100
AcDbLine
 10
24.256042443999
 20
7.457485290275915
 30
0.0
 11
23.30250855037605
 21
8.411019183898862
 31
0.0
  0
LINE
  5
22403
330
223BE
100
AcDbEntity
  8
0
  6
CONTINUOUS
100
AcDbLine
 10
30.64868582078271
 20
1.738361122572387
 30
0.0
 11
29.30199999996933
 21
3.085046943385775
 31
0.0
  0
LINE
  5
22404
330
223BE
100
AcDbEntity
  8
0
  6
CONTINUOUS
100
AcDbLine
 10
23.71079143122431
 20
8.676255512130794
 30
0.0
 11
23.51071165584668
 21
8.876335287508416
 31
0.0
  0
LINE
  5
22405
330
223BE
100
AcDbEntity
  8
0
  6
CONTINUOUS
100
AcDbLine
 10
30.73802122914428
 20
2.322544923291007
 30
0.0
 11
29.30199999996933
 21
3.758566152465961
 31
0.0
  0
LINE
  5
22406
330
223BE
100
AcDbEntity
  8
0
  6
CONTINUOUS
100
AcDbLine
 10
30.74199999996924
 20
2.992085361546236
 30
0.0
 11
29.30199999996933
 21
4.432085361546148
 31
0.0
  0
LINE
  5
22407
330
223BE
100
AcDbEntity
  8
0
  6
CONTINUOUS
100
AcDbLine
 10
30.74199999996924
 20
3.665604570626419
 30
0.0
 11
29.30199999996933
 21
5.105604570626333
 31
0.0
  0
LINE
  5
22408
330
223BE
100
AcDbEntity
  8
0
  6
CONTINUOUS
100
AcDbLine
 10
30.74199999996925
 20
4.339123779706602
 30
0.0
 11
29.30199999996933
 21
5.77912377970652
 31
0.0
  0
LINE
  5
22409
330
223BE
100
AcDbEntity
  8
0
  6
CONTINUOUS
100
AcDbLine
 10
30.74199999996925
 20
5.012642988786785
 30
0.0
 11
29.30199999996933
 21
6.452642988786707
 31
0.0
  0
LINE
  5
2240A
330
223BE
100
AcDbEntity
  8
0
  6
CONTINUOUS
100
AcDbLine
 10
30.74199999996925
 20
5.68616219786697
 30
0.0
 11
29.30199999996933
 21
7.126162197866894
 31
0.0
  0
LINE
  5
2240B
330
223BE
100
AcDbEntity
  8
0
  6
CONTINUOUS
100
AcDbLine
 10
30.74199999996925
 20
6.359681406947153
 30
0.0
 11
29.30199999996933
 21
7.799681406947081
 31
0.0
  0
LINE
  5
2240C
330
223BE
100
AcDbEntity
  8
0
  6
CONTINUOUS
100
AcDbLine
 10
30.74199999996926
 20
7.033200616027337
 30
0.0
 11
29.30199999996933
 21
8.473200616027269
 31
0.0
  0
LINE
  5
2240D
330
223BE
100
AcDbEntity
  8
0
  6
CONTINUOUS
100
AcDbLine
 10
30.74199999996926
 20
7.706719825107518
 30
0.0
 11
29.68561982508552
 21
8.763099999991255
 31
0.0
  0
LINE
  5
2240E
330
223BE
100
AcDbEntity
  8
0
  6
CONTINUOUS
100
AcDbLine
 10
30.74199999996926
 20
8.380239034187703
 30
0.0
 11
30.35913903416571
 21
8.763099999991255
 31
0.0
  0
ENDBLK
  5
224B1
330
223BE
100
AcDbEntity
  8
0
100
AcDbBlockEnd
  0
BLOCK
  5
224B2
330
2240F
100
AcDbEntity
  8
0
100
AcDbBlockBegin
  2
*X55
 70
     1
 10
0.0
 20
0.0
 30
0.0
  3
*X55
  1

  0
LINE
  5
22410
330
2240F
100
AcDbEntity
  8
0
  6
CONTINUOUS
100
AcDbLine
 10
31.64199999996833
 20
8.535058289913598
 30
0.0
 11
31.87004171004599
 21
8.763099999991255
 31
0.0
  0
LINE
  5
22411
330
2240F
100
AcDbEntity
  8
0
  6
CONTINUOUS
100
AcDbLine
 10
31.64199999996833
 20
7.861539080833412
 30
0.0
 11
32.54356091912618
 21
8.763099999991255
 31
0.0
  0
LINE
  5
22412
330
2240F
100
AcDbEntity
  8
0
  6
CONTINUOUS
100
AcDbLine
 10
31.64199999996833
 20
7.188019871753226
 30
0.0
 11
33.08199999996839
 21
8.628019871753281
 31
0.0
  0
LINE
  5
22413
330
2240F
100
AcDbEntity
  8
0
  6
CONTINUOUS
100
AcDbLine
 10
31.64199999996833
 20
6.51450066267304
 30
0.0
 11
33.08199999996839
 21
7.954500662673095
 31
0.0
  0
LINE
  5
22414
330
2240F
100
AcDbEntity
  8
0
  6
CONTINUOUS
100
AcDbLine
 10
31.64199999996833
 20
5.840981453592853
 30
0.0
 11
33.08199999996839
 21
7.280981453592908
 31
0.0
  0
LINE
  5
22415
330
2240F
100
AcDbEntity
  8
0
  6
CONTINUOUS
100
AcDbLine
 10
31.64199999996833
 20
5.167462244512667
 30
0.0
 11
33.08199999996839
 21
6.607462244512721
 31
0.0
  0
LINE
  5
22416
330
2240F
100
AcDbEntity
  8
0
  6
CONTINUOUS
100
AcDbLine
 10
31.64199999996833
 20
4.493943035432481
 30
0.0
 11
33.08199999996839
 21
5.933943035432535
 31
0.0
  0
LINE
  5
22417
330
2240F
100
AcDbEntity
  8
0
  6
CONTINUOUS
100
AcDbLine
 10
31.64199999996833
 20
3.820423826352293
 30
0.0
 11
33.08199999996839
 21
5.260423826352348
 31
0.0
  0
LINE
  5
22418
330
2240F
100
AcDbEntity
  8
0
  6
CONTINUOUS
100
AcDbLine
 10
31.64199999996833
 20
3.146904617272106
 30
0.0
 11
33.08199999996839
 21
4.586904617272161
 31
0.0
  0
LINE
  5
22419
330
2240F
100
AcDbEntity
  8
0
  6
CONTINUOUS
100
AcDbLine
 10
36.23199999996837
 20
8.410423826352325
 30
0.0
 11
36.5846761736073
 21
8.763099999991255
 31
0.0
  0
LINE
  5
2241A
330
2240F
100
AcDbEntity
  8
0
  6
CONTINUOUS
100
AcDbLine
 10
36.23199999996837
 20
7.73690461727214
 30
0.0
 11
37.25819538268748
 21
8.763099999991255
 31
0.0
  0
LINE
  5
2241B
330
2240F
100
AcDbEntity
  8
0
  6
CONTINUOUS
100
AcDbLine
 10
31.64257403601376
 20
2.473959444237348
 30
0.0
 11
33.08199999996839
 21
3.913385408191974
 31
0.0
  0
LINE
  5
2241C
330
2240F
100
AcDbEntity
  8
0
  6
CONTINUOUS
100
AcDbLine
 10
36.23199999996837
 20
7.063385408191953
 30
0.0
 11
37.67199999996831
 21
8.503385408191894
 31
0.0
  0
LINE
  5
2241D
330
2240F
100
AcDbEntity
  8
0
  6
CONTINUOUS
100
AcDbLine
 10
31.72013636841932
 20
1.87800256756272
 30
0.0
 11
33.08199999996839
 21
3.239866199111788
 31
0.0
  0
LINE
  5
2241E
330
2240F
100
AcDbEntity
  8
0
  6
CONTINUOUS
100
AcDbLine
 10
36.23199999996837
 20
6.389866199111767
 30
0.0
 11
37.67199999996831
 21
7.829866199111708
 31
0.0
  0
LINE
  5
2241F
330
2240F
100
AcDbEntity
  8
0
  6
CONTINUOUS
100
AcDbLine
 10
31.89042734314753
 20
1.374774333210744
 30
0.0
 11
33.08199999996839
 21
2.566346990031601
 31
0.0
  0
LINE
  5
22420
330
2240F
100
AcDbEntity
  8
0
  6
CONTINUOUS
100
AcDbLine
 10
36.23199999996837
 20
5.71634699003158
 30
0.0
 11
37.67199999996831
 21
7.156346990031521
 31
0.0
  0
LINE
  5
22421
330
2240F
100
AcDbEntity
  8
0
  6
CONTINUOUS
100
AcDbLine
 10
32.14210568064475
 20
0.952933461627778
 30
0.0
 11
33.18745552475986
 21
1.998283305742888
 31
0.0
  0
LINE
  5
22422
330
2240F
100
AcDbEntity
  8
0
  6
CONTINUOUS
100
AcDbLine
 10
36.23199999996837
 20
5.042827780951393
 30
0.0
 11
37.67199999996831
 21
6.482827780951334
 31
0.0
  0
LINE
  5
22423
330
2240F
100
AcDbEntity
  8
0
  6
CONTINUOUS
100
AcDbLine
 10
32.45820639400955
 20
0.5955149659123915
 30
0.0
 11
33.47242681921943
 21
1.60973539112227
 31
0.0
  0
LINE
  5
22424
330
2240F
100
AcDbEntity
  8
0
  6
CONTINUOUS
100
AcDbLine
 10
36.23199999996837
 20
4.369308571871207
 30
0.0
 11
37.67199999996831
 21
5.809308571871147
 31
0.0
  0
LINE
  5
22425
330
2240F
100
AcDbEntity
  8
0
  6
CONTINUOUS
100
AcDbLine
 10
32.83432456621412
 20
0.2981139290367771
 30
0.0
 11
33.89722476612215
 21
1.361014128944803
 31
0.0
  0
LINE
  5
22426
330
2240F
100
AcDbEntity
  8
0
  6
CONTINUOUS
100
AcDbLine
 10
36.23199999996837
 20
3.69578936279102
 30
0.0
 11
37.67199999996831
 21
5.135789362790962
 31
0.0
  0
LINE
  5
22427
330
2240F
100
AcDbEntity
  8
0
  6
CONTINUOUS
100
AcDbLine
 10
33.2711633111245
 20
0.0614334648669672
 30
0.0
 11
34.43247338014423
 21
1.222743533886696
 31
0.0
  0
LINE
  5
22428
330
2240F
100
AcDbEntity
  8
0
  6
CONTINUOUS
100
AcDbLine
 10
36.23199999996837
 20
3.022270153710834
 30
0.0
 11
37.67199999996831
 21
4.462270153710775
 31
0.0
  0
LINE
  5
22429
330
2240F
100
AcDbEntity
  8
0
  6
CONTINUOUS
100
AcDbLine
 10
33.76515245874577
 20
-0.1180965965919523
 30
0.0
 11
35.1587445516215
 21
1.27549549628378
 31
0.0
  0
LINE
  5
2242A
330
2240F
100
AcDbEntity
  8
0
  6
CONTINUOUS
100
AcDbLine
 10
36.21639478609585
 20
2.333145730758136
 30
0.0
 11
37.67199999996831
 21
3.788750944630588
 31
0.0
  0
LINE
  5
2242B
330
2240F
100
AcDbEntity
  8
0
  6
CONTINUOUS
100
AcDbLine
 10
34.34060583368432
 20
-0.2161624307335863
 30
0.0
 11
37.67199999996831
 21
3.115231735550401
 31
0.0
  0
LINE
  5
2242C
330
2240F
100
AcDbEntity
  8
0
  6
CONTINUOUS
100
AcDbLine
 10
35.01698193613905
 20
-0.2133055373590427
 30
0.0
 11
37.66876712070525
 21
2.438479647207154
 31
0.0
  0
LINE
  5
2242D
330
2240F
100
AcDbEntity
  8
0
  6
CONTINUOUS
100
AcDbLine
 10
35.90743367693304
 20
0.0036269943547609
 30
0.0
 11
37.51723902192366
 21
1.613432339345381
 31
0.0
  0
LINE
  5
2242E
330
2240F
100
AcDbEntity
  8
0
  6
CONTINUOUS
100
AcDbLine
 10
32.55309425579761
 20
0.5074718966376706
 30
0.0
 11
32.27784730925847
 21
0.7827188431768102
 31
0.0
  0
LINE
  5
2242F
330
2240F
100
AcDbEntity
  8
0
  6
CONTINUOUS
100
AcDbLine
 10
33.87496468909684
 20
-0.1408793275813673
 30
0.0
 11
31.67993083278052
 21
2.054154528734943
 31
0.0
  0
LINE
  5
22430
330
2240F
100
AcDbEntity
  8
0
  6
CONTINUOUS
100
AcDbLine
 10
34.64362813207632
 20
-0.2360235614806649
 30
0.0
 11
31.64199999996833
 21
2.765604570627322
 31
0.0
  0
LINE
  5
22431
330
2240F
100
AcDbEntity
  8
0
  6
CONTINUOUS
100
AcDbLine
 10
35.25801106796118
 20
-0.1768872882853429
 30
0.0
 11
31.64199999996833
 21
3.439123779707508
 31
0.0
  0
LINE
  5
22432
330
2240F
100
AcDbEntity
  8
0
  6
CONTINUOUS
100
AcDbLine
 10
35.79065650332146
 20
-0.0360135145654361
 30
0.0
 11
34.54143210838231
 21
1.213210880373721
 31
0.0
  0
LINE
  5
22433
330
2240F
100
AcDbEntity
  8
0
  6
CONTINUOUS
100
AcDbLine
 10
33.08199999996839
 20
2.67264298878764
 30
0.0
 11
31.64199999996833
 21
4.112642988787695
 31
0.0
  0
LINE
  5
22434
330
2240F
100
AcDbEntity
  8
0
  6
CONTINUOUS
100
AcDbLine
 10
36.25975597779143
 20
0.1684062200447833
 30
0.0
 11
35.15395110240023
 21
1.274211095435983
 31
0.0
  0
LINE
  5
22435
330
2240F
100
AcDbEntity
  8
0
  6
CONTINUOUS
100
AcDbLine
 10
33.08199999996839
 20
3.346162197867826
 30
0.0
 11
31.64199999996833
 21
4.786162197867881
 31
0.0
  0
LINE
  5
22436
330
2240F
100
AcDbEntity
  8
0
  6
CONTINUOUS
100
AcDbLine
 10
36.67226329638774
 20
0.4294181105286579
 30
0.0
 11
35.63766478748767
 21
1.464016619428737
 31
0.0
  0
LINE
  5
22437
330
2240F
100
AcDbEntity
  8
0
  6
CONTINUOUS
100
AcDbLine
 10
33.08199999996839
 20
4.019681406948012
 30
0.0
 11
31.64199999996833
 21
5.459681406948068
 31
0.0
  0
LINE
  5
22438
330
2240F
100
AcDbEntity
  8
0
  6
CONTINUOUS
100
AcDbLine
 10
37.01677749710036
 20
0.7584231188962329
 30
0.0
 11
35.99563422741351
 21
1.779566388583076
 31
0.0
  0
LINE
  5
22439
330
2240F
100
AcDbEntity
  8
0
  6
CONTINUOUS
100
AcDbLine
 10
33.08199999996839
 20
4.693200616028199
 30
0.0
 11
31.64199999996833
 21
6.133200616028255
 31
0.0
  0
LINE
  5
2243A
330
2240F
100
AcDbEntity
  8
0
  6
CONTINUOUS
100
AcDbLine
 10
37.29859977568887
 20
1.1501200493879
 30
0.0
 11
36.20680593341555
 21
2.241913891661226
 31
0.0
  0
LINE
  5
2243B
330
2240F
100
AcDbEntity
  8
0
  6
CONTINUOUS
100
AcDbLine
 10
33.08199999996839
 20
5.366719825108386
 30
0.0
 11
31.64199999996833
 21
6.80671982510844
 31
0.0
  0
LINE
  5
2243C
330
2240F
100
AcDbEntity
  8
0
  6
CONTINUOUS
100
AcDbLine
 10
37.5148623517228
 20
1.607376682434161
 30
0.0
 11
36.23199999996837
 21
2.890239034188594
 31
0.0
  0
LINE
  5
2243D
330
2240F
100
AcDbEntity
  8
0
  6
CONTINUOUS
100
AcDbLine
 10
33.08199999996839
 20
6.040239034188573
 30
0.0
 11
31.64199999996833
 21
7.480239034188627
 31
0.0
  0
LINE
  5
2243E
330
2240F
100
AcDbEntity
  8
0
  6
CONTINUOUS
100
AcDbLine
 10
37.64705163358367
 20
2.148706609653477
 30
0.0
 11
36.23199999996837
 21
3.56375824326878
 31
0.0
  0
LINE
  5
2243F
330
2240F
100
AcDbEntity
  8
0
  6
CONTINUOUS
100
AcDbLine
 10
33.08199999996839
 20
6.713758243268758
 30
0.0
 11
31.64199999996833
 21
8.153758243268815
 31
0.0
  0
LINE
  5
22440
330
2240F
100
AcDbEntity
  8
0
  6
CONTINUOUS
100
AcDbLine
 10
37.67199999996831
 20
2.797277452349026
 30
0.0
 11
36.23199999996837
 21
4.237277452348967
 31
0.0
  0
LINE
  5
22441
330
2240F
100
AcDbEntity
  8
0
  6
CONTINUOUS
100
AcDbLine
 10
37.67199999996831
 20
3.470796661429213
 30
0.0
 11
36.23199999996837
 21
4.910796661429154
 31
0.0
  0
LINE
  5
22442
330
2240F
100
AcDbEntity
  8
0
  6
CONTINUOUS
100
AcDbLine
 10
37.67199999996831
 20
4.144315870509399
 30
0.0
 11
36.23199999996837
 21
5.58431587050934
 31
0.0
  0
LINE
  5
22443
330
2240F
100
AcDbEntity
  8
0
  6
CONTINUOUS
100
AcDbLine
 10
33.08199999996839
 20
7.387277452348945
 30
0.0
 11
31.70617745232608
 21
8.763099999991255
 31
0.0
  0
LINE
  5
22444
330
2240F
100
AcDbEntity
  8
0
  6
CONTINUOUS
100
AcDbLine
 10
33.08199999996839
 20
8.060796661429132
 30
0.0
 11
32.37969666140626
 21
8.763099999991255
 31
0.0
  0
LINE
  5
22445
330
2240F
100
AcDbEntity
  8
0
  6
CONTINUOUS
100
AcDbLine
 10
33.08199999996839
 20
8.734315870509318
 30
0.0
 11
33.05321587048645
 21
8.763099999991255
 31
0.0
  0
LINE
  5
22446
330
2240F
100
AcDbEntity
  8
0
  6
CONTINUOUS
100
AcDbLine
 10
37.67199999996831
 20
4.817835079589585
 30
0.0
 11
36.23199999996837
 21
6.257835079589526
 31
0.0
  0
LINE
  5
22447
330
2240F
100
AcDbEntity
  8
0
  6
CONTINUOUS
100
AcDbLine
 10
37.67199999996831
 20
5.491354288669771
 30
0.0
 11
36.23199999996837
 21
6.931354288669713
 31
0.0
  0
LINE
  5
22448
330
2240F
100
AcDbEntity
  8
0
  6
CONTINUOUS
100
AcDbLine
 10
37.67199999996831
 20
6.164873497749958
 30
0.0
 11
36.23199999996837
 21
7.6048734977499
 31
0.0
  0
LINE
  5
22449
330
2240F
100
AcDbEntity
  8
0
  6
CONTINUOUS
100
AcDbLine
 10
37.67199999996831
 20
6.838392706830144
 30
0.0
 11
36.23199999996837
 21
8.278392706830086
 31
0.0
  0
LINE
  5
2244A
330
2240F
100
AcDbEntity
  8
0
  6
CONTINUOUS
100
AcDbLine
 10
37.67199999996831
 20
7.511911915910332
 30
0.0
 11
36.42081191588738
 21
8.763099999991255
 31
0.0
  0
LINE
  5
2244B
330
2240F
100
AcDbEntity
  8
0
  6
CONTINUOUS
100
AcDbLine
 10
37.67199999996831
 20
8.185431124990519
 30
0.0
 11
37.09433112496757
 21
8.763099999991255
 31
0.0
  0
ENDBLK
  5
224B3
330
2240F
100
AcDbEntity
  8
0
100
AcDbBlockEnd
  0
BLOCK
  5
224B4
330
2244C
100
AcDbEntity
  8
0
100
AcDbBlockBegin
  2
*X56
 70
     1
 10
0.0
 20
0.0
 30
0.0
  3
*X56
  1

  0
LINE
  5
2244D
330
2244C
100
AcDbEntity
  8
0
  6
CONTINUOUS
100
AcDbLine
 10
38.60499999996136
 20
8.762866199104765
 30
0.0
 11
38.71672554182345
 21
8.874591740966855
 31
0.0
  0
LINE
  5
2244E
330
2244C
100
AcDbEntity
  8
0
  6
CONTINUOUS
100
AcDbLine
 10
38.60499999996136
 20
8.089346990024577
 30
0.0
 11
39.03418785440363
 21
8.518534844466847
 31
0.0
  0
LINE
  5
2244F
330
2244C
100
AcDbEntity
  8
0
  6
CONTINUOUS
100
AcDbLine
 10
38.60499999996136
 20
7.41582778094439
 30
0.0
 11
39.35165016698382
 21
8.16247794796684
 31
0.0
  0
LINE
  5
22450
330
2244C
100
AcDbEntity
  8
0
  6
CONTINUOUS
100
AcDbLine
 10
38.60499999996136
 20
6.742308571864204
 30
0.0
 11
39.66911247956399
 21
7.806421051466834
 31
0.0
  0
LINE
  5
22451
330
2244C
100
AcDbEntity
  8
0
  6
CONTINUOUS
100
AcDbLine
 10
38.60499999996136
 20
6.068789362784018
 30
0.0
 11
39.98657479214418
 21
7.450364154966827
 31
0.0
  0
LINE
  5
22452
330
2244C
100
AcDbEntity
  8
0
  6
CONTINUOUS
100
AcDbLine
 10
38.60499999996136
 20
5.395270153703832
 30
0.0
 11
40.30403710472435
 21
7.09430725846682
 31
0.0
  0
LINE
  5
22453
330
2244C
100
AcDbEntity
  8
0
  6
CONTINUOUS
100
AcDbLine
 10
38.60499999996136
 20
4.721750944623645
 30
0.0
 11
40.62149941730453
 21
6.738250361966813
 31
0.0
  0
LINE
  5
22454
330
2244C
100
AcDbEntity
  8
0
  6
CONTINUOUS
100
AcDbLine
 10
38.60499999996136
 20
4.048231735543458
 30
0.0
 11
40.93896172988471
 21
6.382193465466806
 31
0.0
  0
LINE
  5
22455
330
2244C
100
AcDbEntity
  8
0
  6
CONTINUOUS
100
AcDbLine
 10
38.60499999996136
 20
3.374712526463272
 30
0.0
 11
40.02599999995994
 21
4.795712526461843
 31
0.0
  0
LINE
  5
22456
330
2244C
100
AcDbEntity
  8
0
  6
CONTINUOUS
100
AcDbLine
 10
38.60499999996136
 20
2.701193317383085
 30
0.0
 11
40.02599999995994
 21
4.122193317381657
 31
0.0
  0
LINE
  5
22457
330
2244C
100
AcDbEntity
  8
0
  6
CONTINUOUS
100
AcDbLine
 10
40.28339754687704
 20
5.053110073378947
 30
0.0
 11
41.25642404246489
 21
6.026136568966799
 31
0.0
  0
LINE
  5
22458
330
2244C
100
AcDbEntity
  8
0
  6
CONTINUOUS
100
AcDbLine
 10
40.60085985945722
 20
4.697053176878939
 30
0.0
 11
41.57388635504507
 21
5.670079672466793
 31
0.0
  0
LINE
  5
22459
330
2244C
100
AcDbEntity
  8
0
  6
CONTINUOUS
100
AcDbLine
 10
43.57899999995641
 20
8.348712526458318
 30
0.0
 11
43.99338747348935
 21
8.763099999991255
 31
0.0
  0
LINE
  5
2245A
330
2244C
100
AcDbEntity
  8
0
  6
CONTINUOUS
100
AcDbLine
 10
43.57899999995641
 20
7.675193317378131
 30
0.0
 11
44.66690668256953
 21
8.763099999991255
 31
0.0
  0
LINE
  5
2245B
330
2244C
100
AcDbEntity
  8
0
  6
CONTINUOUS
100
AcDbLine
 10
38.60499999996136
 20
2.027674108302898
 30
0.0
 11
40.02599999995994
 21
3.44867410830147
 31
0.0
  0
LINE
  5
2245C
330
2244C
100
AcDbEntity
  8
0
  6
CONTINUOUS
100
AcDbLine
 10
38.60499999996136
 20
1.354154899222712
 30
0.0
 11
40.02599999995994
 21
2.775154899221284
 31
0.0
  0
LINE
  5
2245D
330
2244C
100
AcDbEntity
  8
0
  6
CONTINUOUS
100
AcDbLine
 10
38.60499999996136
 20
0.6806356901425255
 30
0.0
 11
40.02599999995994
 21
2.101635690141098
 31
0.0
  0
LINE
  5
2245E
330
2244C
100
AcDbEntity
  8
0
  6
CONTINUOUS
100
AcDbLine
 10
38.60499999996136
 20
0.0071164810623383
 30
0.0
 11
40.02599999995994
 21
1.428116481060911
 31
0.0
  0
LINE
  5
2245F
330
2244C
100
AcDbEntity
  8
0
  6
CONTINUOUS
100
AcDbLine
 10
40.9183221720374
 20
4.340996280378933
 30
0.0
 11
41.89134866762525
 21
5.314022775966786
 31
0.0
  0
LINE
  5
22460
330
2244C
100
AcDbEntity
  8
0
  6
CONTINUOUS
100
AcDbLine
 10
41.23578448461758
 20
3.984939383878926
 30
0.0
 11
42.20881098020543
 21
4.957965879466778
 31
0.0
  0
LINE
  5
22461
330
2244C
100
AcDbEntity
  8
0
  6
CONTINUOUS
100
AcDbLine
 10
41.55324679719776
 20
3.628882487378919
 30
0.0
 11
42.52627329278561
 21
4.601908982966772
 31
0.0
  0
LINE
  5
22462
330
2244C
100
AcDbEntity
  8
0
  6
CONTINUOUS
100
AcDbLine
 10
41.87070910977793
 20
3.272825590878912
 30
0.0
 11
42.84373560536579
 21
4.245852086466765
 31
0.0
  0
LINE
  5
22463
330
2244C
100
AcDbEntity
  8
0
  6
CONTINUOUS
100
AcDbLine
 10
43.57899999995641
 20
7.001674108297943
 30
0.0
 11
44.99999999995498
 21
8.422674108296516
 31
0.0
  0
LINE
  5
22464
330
2244C
100
AcDbEntity
  8
0
  6
CONTINUOUS
100
AcDbLine
 10
43.57899999995641
 20
6.328154899217758
 30
0.0
 11
44.99999999995498
 21
7.749154899216329
 31
0.0
  0
LINE
  5
22465
330
2244C
100
AcDbEntity
  8
0
  6
CONTINUOUS
100
AcDbLine
 10
43.57899999995641
 20
5.654635690137571
 30
0.0
 11
44.99999999995498
 21
7.075635690136142
 31
0.0
  0
LINE
  5
22466
330
2244C
100
AcDbEntity
  8
0
  6
CONTINUOUS
100
AcDbLine
 10
43.57899999995641
 20
4.981116481057384
 30
0.0
 11
44.99999999995498
 21
6.402116481055955
 31
0.0
  0
LINE
  5
22467
330
2244C
100
AcDbEntity
  8
0
  6
CONTINUOUS
100
AcDbLine
 10
39.27140272797921
 20
-0.0000000000000009
 30
0.0
 11
40.02599999995994
 21
0.7545972719807246
 31
0.0
  0
LINE
  5
22468
330
2244C
100
AcDbEntity
  8
0
  6
CONTINUOUS
100
AcDbLine
 10
39.9449219370594
 20
-0.0000000000000009
 30
0.0
 11
40.02599999995994
 21
0.0810780629005379
 31
0.0
  0
LINE
  5
22469
330
2244C
100
AcDbEntity
  8
0
  6
CONTINUOUS
100
AcDbLine
 10
42.18817142235812
 20
2.916768694378905
 30
0.0
 11
43.16119791794597
 21
3.889795189966758
 31
0.0
  0
LINE
  5
2246A
330
2244C
100
AcDbEntity
  8
0
  6
CONTINUOUS
100
AcDbLine
 10
42.50563373493829
 20
2.560711797878898
 30
0.0
 11
43.47866023052615
 21
3.533738293466751
 31
0.0
  0
LINE
  5
2246B
330
2244C
100
AcDbEntity
  8
0
  6
CONTINUOUS
100
AcDbLine
 10
43.57899999995641
 20
4.307597271977198
 30
0.0
 11
44.99999999995498
 21
5.728597271975769
 31
0.0
  0
LINE
  5
2246C
330
2244C
100
AcDbEntity
  8
0
  6
CONTINUOUS
100
AcDbLine
 10
43.57899999995641
 20
3.634078062897011
 30
0.0
 11
44.99999999995498
 21
5.055078062895582
 31
0.0
  0
LINE
  5
2246D
330
2244C
100
AcDbEntity
  8
0
  6
CONTINUOUS
100
AcDbLine
 10
42.82309604751848
 20
2.204654901378891
 30
0.0
 11
44.99999999995498
 21
4.381558853815395
 31
0.0
  0
LINE
  5
2246E
330
2244C
100
AcDbEntity
  8
0
  6
CONTINUOUS
100
AcDbLine
 10
43.14055836009865
 20
1.848598004878885
 30
0.0
 11
44.99999999995498
 21
3.70803964473521
 31
0.0
  0
LINE
  5
2246F
330
2244C
100
AcDbEntity
  8
0
  6
CONTINUOUS
100
AcDbLine
 10
43.45802067267883
 20
1.492541108378878
 30
0.0
 11
44.99999999995498
 21
3.034520435655023
 31
0.0
  0
LINE
  5
22470
330
2244C
100
AcDbEntity
  8
0
  6
CONTINUOUS
100
AcDbLine
 10
43.77548298525902
 20
1.136484211878871
 30
0.0
 11
44.99999999995498
 21
2.361001226574837
 31
0.0
  0
LINE
  5
22471
330
2244C
100
AcDbEntity
  8
0
  6
CONTINUOUS
100
AcDbLine
 10
44.09294529783919
 20
0.7804273153788639
 30
0.0
 11
44.99999999995498
 21
1.687482017494649
 31
0.0
  0
LINE
  5
22472
330
2244C
100
AcDbEntity
  8
0
  6
CONTINUOUS
100
AcDbLine
 10
44.41040761041938
 20
0.4243704188788566
 30
0.0
 11
44.99999999995498
 21
1.013962808414463
 31
0.0
  0
LINE
  5
22473
330
2244C
100
AcDbEntity
  8
0
  6
CONTINUOUS
100
AcDbLine
 10
44.72786992299955
 20
0.0683135223788494
 30
0.0
 11
44.99999999995498
 21
0.340443599334276
 31
0.0
  0
LINE
  5
22474
330
2244C
100
AcDbEntity
  8
0
  6
CONTINUOUS
100
AcDbLine
 10
39.12223903415696
 20
-0.0000000000000009
 30
0.0
 11
38.60499999996136
 21
0.5172390341955961
 31
0.0
  0
LINE
  5
22475
330
2244C
100
AcDbEntity
  8
0
  6
CONTINUOUS
100
AcDbLine
 10
39.79575824323715
 20
-0.0000000000000009
 30
0.0
 11
38.60499999996136
 21
1.190758243275783
 31
0.0
  0
LINE
  5
22476
330
2244C
100
AcDbEntity
  8
0
  6
CONTINUOUS
100
AcDbLine
 10
40.02599999995994
 20
0.443277452357397
 30
0.0
 11
38.60499999996136
 21
1.864277452355969
 31
0.0
  0
LINE
  5
22477
330
2244C
100
AcDbEntity
  8
0
  6
CONTINUOUS
100
AcDbLine
 10
40.02599999995994
 20
1.116796661437583
 30
0.0
 11
38.60499999996136
 21
2.537796661436155
 31
0.0
  0
LINE
  5
22478
330
2244C
100
AcDbEntity
  8
0
  6
CONTINUOUS
100
AcDbLine
 10
40.02599999995994
 20
1.79031587051777
 30
0.0
 11
38.60499999996136
 21
3.211315870516341
 31
0.0
  0
LINE
  5
22479
330
2244C
100
AcDbEntity
  8
0
  6
CONTINUOUS
100
AcDbLine
 10
40.02599999995994
 20
2.463835079597956
 30
0.0
 11
38.60499999996136
 21
3.884835079596527
 31
0.0
  0
LINE
  5
2247A
330
2244C
100
AcDbEntity
  8
0
  6
CONTINUOUS
100
AcDbLine
 10
40.02599999995994
 20
3.137354288678143
 30
0.0
 11
38.60499999996136
 21
4.558354288676714
 31
0.0
  0
LINE
  5
2247B
330
2244C
100
AcDbEntity
  8
0
  6
CONTINUOUS
100
AcDbLine
 10
40.02599999995994
 20
3.810873497758329
 30
0.0
 11
38.60499999996136
 21
5.2318734977569
 31
0.0
  0
LINE
  5
2247C
330
2244C
100
AcDbEntity
  8
0
  6
CONTINUOUS
100
AcDbLine
 10
40.02599999995994
 20
4.484392706838515
 30
0.0
 11
38.60499999996136
 21
5.905392706837086
 31
0.0
  0
LINE
  5
2247D
330
2244C
100
AcDbEntity
  8
0
  6
CONTINUOUS
100
AcDbLine
 10
44.99999999995498
 20
0.183911915923658
 30
0.0
 11
41.53858364506288
 21
3.64532827081576
 31
0.0
  0
LINE
  5
2247E
330
2244C
100
AcDbEntity
  8
0
  6
CONTINUOUS
100
AcDbLine
 10
40.02599999995994
 20
5.157911915918703
 30
0.0
 11
38.60499999996136
 21
6.578911915917274
 31
0.0
  0
LINE
  5
2247F
330
2244C
100
AcDbEntity
  8
0
  6
CONTINUOUS
100
AcDbLine
 10
44.99999999995498
 20
0.8574311250038447
 30
0.0
 11
38.60499999996136
 21
7.25243112499746
 31
0.0
  0
LINE
  5
22480
330
2244C
100
AcDbEntity
  8
0
  6
CONTINUOUS
100
AcDbLine
 10
44.99999999995498
 20
1.530950334084031
 30
0.0
 11
38.60499999996136
 21
7.925950334077647
 31
0.0
  0
LINE
  5
22481
330
2244C
100
AcDbEntity
  8
0
  6
CONTINUOUS
100
AcDbLine
 10
44.99999999995498
 20
2.204469543164218
 30
0.0
 11
43.57899999995641
 21
3.625469543162789
 31
0.0
  0
LINE
  5
22482
330
2244C
100
AcDbEntity
  8
0
  6
CONTINUOUS
100
AcDbLine
 10
41.89876730984767
 20
5.305702233271528
 30
0.0
 11
38.60499999996136
 21
8.599469543157834
 31
0.0
  0
LINE
  5
22483
330
2244C
100
AcDbEntity
  8
0
  6
CONTINUOUS
100
AcDbLine
 10
44.99999999995498
 20
2.877988752244405
 30
0.0
 11
43.57899999995641
 21
4.298988752242975
 31
0.0
  0
LINE
  5
22484
330
2244C
100
AcDbEntity
  8
0
  6
CONTINUOUS
100
AcDbLine
 10
44.99999999995498
 20
3.551507961324591
 30
0.0
 11
43.57899999995641
 21
4.972507961323163
 31
0.0
  0
LINE
  5
22485
330
2244C
100
AcDbEntity
  8
0
  6
CONTINUOUS
100
AcDbLine
 10
44.99999999995498
 20
4.225027170404777
 30
0.0
 11
43.57899999995641
 21
5.646027170403348
 31
0.0
  0
LINE
  5
22486
330
2244C
100
AcDbEntity
  8
0
  6
CONTINUOUS
100
AcDbLine
 10
44.99999999995498
 20
4.898546379484964
 30
0.0
 11
43.57899999995641
 21
6.319546379483535
 31
0.0
  0
LINE
  5
22487
330
2244C
100
AcDbEntity
  8
0
  6
CONTINUOUS
100
AcDbLine
 10
44.99999999995498
 20
5.572065588565151
 30
0.0
 11
43.57899999995641
 21
6.993065588563722
 31
0.0
  0
LINE
  5
22488
330
2244C
100
AcDbEntity
  8
0
  6
CONTINUOUS
100
AcDbLine
 10
44.99999999995498
 20
6.245584797645336
 30
0.0
 11
43.57899999995641
 21
7.666584797643908
 31
0.0
  0
LINE
  5
22489
330
2244C
100
AcDbEntity
  8
0
  6
CONTINUOUS
100
AcDbLine
 10
44.99999999995498
 20
6.919104006725522
 30
0.0
 11
43.57899999995641
 21
8.340104006724093
 31
0.0
  0
LINE
  5
2248A
330
2244C
100
AcDbEntity
  8
0
  6
CONTINUOUS
100
AcDbLine
 10
44.99999999995498
 20
7.592623215805709
 30
0.0
 11
43.82952321576943
 21
8.763099999991255
 31
0.0
  0
LINE
  5
2248B
330
2244C
100
AcDbEntity
  8
0
  6
CONTINUOUS
100
AcDbLine
 10
44.99999999995498
 20
8.266142424885896
 30
0.0
 11
44.50304242484962
 21
8.763099999991255
 31
0.0
  0
ENDBLK
  5
224B5
330
2244C
100
AcDbEntity
  8
0
100
AcDbBlockEnd
  0
BLOCK
  5
224B6
330
2248C
100
AcDbEntity
  8
0
100
AcDbBlockBegin
  2
*X57
 70
     1
 10
0.0
 20
0.0
 30
0.0
  3
*X57
  1

  0
LINE
  5
2248D
330
2248C
100
AcDbEntity
  8
0
  6
CONTINUOUS
100
AcDbLine
 10
0.0
 20
8.548461116714023
 30
0.0
 11
0.2146388832772324
 21
8.763099999991255
 31
0.0
  0
LINE
  5
2248E
330
2248C
100
AcDbEntity
  8
0
  6
CONTINUOUS
100
AcDbLine
 10
-0.0000000000000002
 20
7.874941907633837
 30
0.0
 11
0.8881580923574184
 21
8.763099999991255
 31
0.0
  0
LINE
  5
2248F
330
2248C
100
AcDbEntity
  8
0
  6
CONTINUOUS
100
AcDbLine
 10
0.0
 20
7.20142269855365
 30
0.0
 11
1.420999999998572
 21
8.622422698552223
 31
0.0
  0
LINE
  5
22490
330
2248C
100
AcDbEntity
  8
0
  6
CONTINUOUS
100
AcDbLine
 10
-0.0000000000000001
 20
6.527903489473465
 30
0.0
 11
1.420999999998571
 21
7.948903489472036
 31
0.0
  0
LINE
  5
22491
330
2248C
100
AcDbEntity
  8
0
  6
CONTINUOUS
100
AcDbLine
 10
-0.0000000000000002
 20
5.854384280393278
 30
0.0
 11
1.420999999998571
 21
7.275384280391849
 31
0.0
  0
LINE
  5
22492
330
2248C
100
AcDbEntity
  8
0
  6
CONTINUOUS
100
AcDbLine
 10
-0.0000000000000002
 20
5.180865071313091
 30
0.0
 11
1.420999999998571
 21
6.601865071311663
 31
0.0
  0
LINE
  5
22493
330
2248C
100
AcDbEntity
  8
0
  6
CONTINUOUS
100
AcDbLine
 10
0.0
 20
4.507345862232905
 30
0.0
 11
1.420999999998571
 21
5.928345862231477
 31
0.0
  0
LINE
  5
22494
330
2248C
100
AcDbEntity
  8
0
  6
CONTINUOUS
100
AcDbLine
 10
-0.0000000000000003
 20
3.833826653152718
 30
0.0
 11
1.420999999998571
 21
5.25482665315129
 31
0.0
  0
LINE
  5
22495
330
2248C
100
AcDbEntity
  8
0
  6
CONTINUOUS
100
AcDbLine
 10
-0.0000000000000002
 20
3.160307444072532
 30
0.0
 11
1.420999999998571
 21
4.581307444071103
 31
0.0
  0
LINE
  5
22496
330
2248C
100
AcDbEntity
  8
0
  6
CONTINUOUS
100
AcDbLine
 10
-0.0000000000000001
 20
2.486788234992345
 30
0.0
 11
1.420999999998571
 21
3.907788234990917
 31
0.0
  0
LINE
  5
22497
330
2248C
100
AcDbEntity
  8
0
  6
CONTINUOUS
100
AcDbLine
 10
-0.0000000000000006
 20
1.813269025912159
 30
0.0
 11
1.420999999998571
 21
3.234269025910731
 31
0.0
  0
LINE
  5
22498
330
2248C
100
AcDbEntity
  8
0
  6
CONTINUOUS
100
AcDbLine
 10
0.0
 20
1.139749816831973
 30
0.0
 11
1.420999999998571
 21
2.560749816830544
 31
0.0
  0
LINE
  5
22499
330
2248C
100
AcDbEntity
  8
0
  6
CONTINUOUS
100
AcDbLine
 10
0.0000000000000002
 20
0.466230607751787
 30
0.0
 11
1.420999999998571
 21
1.887230607750358
 31
0.0
  0
LINE
  5
2249A
330
2248C
100
AcDbEntity
  8
0
  6
CONTINUOUS
100
AcDbLine
 10
0.2072886013284003
 20
-0.0000000000000009
 30
0.0
 11
1.420999999998571
 21
1.213711398670171
 31
0.0
  0
LINE
  5
2249B
330
2248C
100
AcDbEntity
  8
0
  6
CONTINUOUS
100
AcDbLine
 10
0.8808078104085864
 20
-0.0000000000000009
 30
0.0
 11
1.420999999998571
 21
0.5401921895899839
 31
0.0
  0
LINE
  5
2249C
330
2248C
100
AcDbEntity
  8
0
  6
CONTINUOUS
100
AcDbLine
 10
0.0581249075061505
 20
-0.0000000000000009
 30
0.0
 11
-0.0000000000000002
 21
0.0581249075061496
 31
0.0
  0
LINE
  5
2249D
330
2248C
100
AcDbEntity
  8
0
  6
CONTINUOUS
100
AcDbLine
 10
0.7316441165863372
 20
-0.0000000000000009
 30
0.0
 11
-0.0000000000000002
 21
0.7316441165863363
 31
0.0
  0
LINE
  5
2249E
330
2248C
100
AcDbEntity
  8
0
  6
CONTINUOUS
100
AcDbLine
 10
1.405163325666523
 20
-0.0000000000000009
 30
0.0
 11
-0.0000000000000002
 21
1.405163325666523
 31
0.0
  0
LINE
  5
2249F
330
2248C
100
AcDbEntity
  8
0
  6
CONTINUOUS
100
AcDbLine
 10
1.420999999998572
 20
0.6576825347481381
 30
0.0
 11
-0.0000000000000001
 21
2.07868253474671
 31
0.0
  0
LINE
  5
224A0
330
2248C
100
AcDbEntity
  8
0
  6
CONTINUOUS
100
AcDbLine
 10
1.420999999998571
 20
1.331201743828324
 30
0.0
 11
-0.0000000000000001
 21
2.752201743826896
 31
0.0
  0
LINE
  5
224A1
330
2248C
100
AcDbEntity
  8
0
  6
CONTINUOUS
100
AcDbLine
 10
1.420999999998571
 20
2.004720952908511
 30
0.0
 11
-0.0000000000000002
 21
3.425720952907082
 31
0.0
  0
LINE
  5
224A2
330
2248C
100
AcDbEntity
  8
0
  6
CONTINUOUS
100
AcDbLine
 10
1.420999999998571
 20
2.678240161988697
 30
0.0
 11
-0.0000000000000001
 21
4.099240161987269
 31
0.0
  0
LINE
  5
224A3
330
2248C
100
AcDbEntity
  8
0
  6
CONTINUOUS
100
AcDbLine
 10
1.420999999998572
 20
3.351759371068884
 30
0.0
 11
0.0
 21
4.772759371067455
 31
0.0
  0
LINE
  5
224A4
330
2248C
100
AcDbEntity
  8
0
  6
CONTINUOUS
100
AcDbLine
 10
1.420999999998571
 20
4.02527858014907
 30
0.0
 11
-0.0000000000000003
 21
5.446278580147642
 31
0.0
  0
LINE
  5
224A5
330
2248C
100
AcDbEntity
  8
0
  6
CONTINUOUS
100
AcDbLine
 10
1.420999999998571
 20
4.698797789229257
 30
0.0
 11
0.0
 21
6.119797789227828
 31
0.0
  0
LINE
  5
224A6
330
2248C
100
AcDbEntity
  8
0
  6
CONTINUOUS
100
AcDbLine
 10
1.420999999998571
 20
5.372316998309444
 30
0.0
 11
-0.0000000000000001
 21
6.793316998308015
 31
0.0
  0
LINE
  5
224A7
330
2248C
100
AcDbEntity
  8
0
  6
CONTINUOUS
100
AcDbLine
 10
1.420999999998572
 20
6.045836207389629
 30
0.0
 11
-0.0000000000000004
 21
7.466836207388202
 31
0.0
  0
LINE
  5
224A8
330
2248C
100
AcDbEntity
  8
0
  6
CONTINUOUS
100
AcDbLine
 10
1.420999999998571
 20
6.719355416469816
 30
0.0
 11
0.0
 21
8.140355416468388
 31
0.0
  0
LINE
  5
224A9
330
2248C
100
AcDbEntity
  8
0
  6
CONTINUOUS
100
AcDbLine
 10
1.420999999998571
 20
7.392874625550003
 30
0.0
 11
0.0507746255573185
 21
8.763099999991255
 31
0.0
  0
LINE
  5
224AA
330
2248C
100
AcDbEntity
  8
0
  6
CONTINUOUS
100
AcDbLine
 10
1.420999999998571
 20
8.06639383463019
 30
0.0
 11
0.7242938346375052
 21
8.763099999991255
 31
0.0
  0
LINE
  5
224AB
330
2248C
100
AcDbEntity
  8
0
  6
CONTINUOUS
100
AcDbLine
 10
1.420999999998571
 20
8.739913043710375
 30
0.0
 11
1.397813043717691
 21
8.763099999991255
 31
0.0
  0
ENDBLK
  5
224B7
330
2248C
100
AcDbEntity
  8
0
100
AcDbBlockEnd
  0
ENDSEC
  0
SECTION
  2
ENTITIES
  0
TEXT
  5
213E4
330
18
100
AcDbEntity
  8
1TEXT
100
AcDbText
 10
463.1197283656824
 20
-477.64247299127
 30
0.0
 40
8.0
  1
SC-851-X
100
AcDbText
  0
TEXT
  5
2140B
330
18
100
AcDbEntity
  8
1TEXT
100
AcDbText
 10
498.9725697147822
 20
-488.14247299127
 30
0.0
 40
4.0
  1
表面処理：レール
 41
0.9
 72
     1
 11
516.0125697147822
 21
-488.14247299127
 31
0.0
100
AcDbText
  0
TEXT
  5
2140C
330
18
100
AcDbEntity
  8
1TEXT
100
AcDbText
 10
511.6792363814489
 20
-494.9777616507944
 30
0.0
 40
4.0
  1
鏡面
 72
     1
 11
516.0125697147822
 21
-494.9777616507944
 31
0.0
100
AcDbText
  0
LINE
  5
2140D
330
18
100
AcDbEntity
  8
1DIM
100
AcDbLine
 10
463.6125697147826
 20
-482.64247299127
 30
0.0
 11
568.6125697147826
 21
-482.64247299127
 31
0.0
  0
LINE
  5
2140E
330
18
100
AcDbEntity
  8
1DIM
100
AcDbLine
 10
463.6125697147826
 20
-496.64247299127
 30
0.0
 11
568.6125697147826
 21
-496.64247299127
 31
0.0
  0
LINE
  5
2140F
330
18
100
AcDbEntity
  8
1DIM
100
AcDbLine
 10
463.6125697147826
 20
-489.64247299127
 30
0.0
 11
568.6125697147826
 21
-489.64247299127
 31
0.0
  0
LINE
  5
21410
330
18
100
AcDbEntity
  8
1DIM
100
AcDbLine
 10
533.6125697147826
 20
-482.64247299127
 30
0.0
 11
533.6125697147826
 21
-496.6424729912699
 31
0.0
  0
TEXT
  5
21411
330
18
100
AcDbEntity
  8
1TEXT
100
AcDbText
 10
544.1459030481155
 20
-488.14247299127
 30
0.0
 40
4.0
  1
コード
 72
     1
 11
551.0125697147822
 21
-488.14247299127
 31
0.0
100
AcDbText
  0
LINE
  5
21412
330
18
100
AcDbEntity
  8
1DIM
100
AcDbLine
 10
498.6125697147826
 20
-496.6424729912699
 30
0.0
 11
498.6125697147826
 21
-482.64247299127
 31
0.0
  0
LINE
  5
21413
330
18
100
AcDbEntity
  8
1DIM
100
AcDbLine
 10
568.6125697147826
 20
-496.6424729912699
 30
0.0
 11
568.6125697147826
 21
-482.64247299127
 31
0.0
  0
TEXT
  5
21414
330
18
100
AcDbEntity
  8
1TEXT
100
AcDbText
 10
464.5459030481156
 20
-488.14247299127
 30
0.0
 40
4.0
  1
表面処理：本体
 72
     1
 11
481.0125697147822
 21
-488.14247299127
 31
0.0
100
AcDbText
  0
TEXT
  5
21415
330
18
100
AcDbEntity
  8
1TEXT
100
AcDbText
 10
471.5459030481156
 20
-494.9777616507944
 30
0.0
 40
4.0
  1
クローム
 72
     1
 11
481.0125697147822
 21
-494.9777616507944
 31
0.0
100
AcDbText
  0
LINE
  5
21416
330
18
100
AcDbEntity
  8
1DIM
100
AcDbLine
 10
463.6125697147826
 20
-496.6424729912699
 30
0.0
 11
463.6125697147826
 21
-482.64247299127
 31
0.0
  0
TEXT
  5
21417
330
18
100
AcDbEntity
  8
1TEXT
100
AcDbText
 10
536.8340974925609
 20
-495.3568299749193
 30
0.0
 40
4.0
  1
SC-851-XC
 41
0.85
 72
     1
 11
551.0125697147831
 21
-495.3568299749193
 31
0.0
100
AcDbText
  0
LINE
  5
2141D
330
18
100
AcDbEntity
  8
01
100
AcDbLine
 10
633.8162416153648
 20
-635.3194734876774
 30
0.0
 11
157.816241615363
 21
-635.3194734876774
 31
0.0
  0
LINE
  5
21D20
330
18
100
AcDbEntity
  8
01
100
AcDbLine
 10
621.3162414684688
 20
-557.1250906605953
 30
0.0
 11
620.3162417684688
 21
-556.1250906605953
 31
0.0
  0
LINE
  5
21D21
330
18
100
AcDbEntity
  8
01
100
AcDbLine
 10
624.6162416184687
 20
-557.1250906605953
 30
0.0
 11
624.6162416184687
 21
-556.1250906605953
 31
0.0
  0
LINE
  5
21D22
330
18
100
AcDbEntity
  8
01
100
AcDbLine
 10
624.6162416184687
 20
-556.1250906605953
 30
0.0
 11
617.0162416184688
 21
-556.1250906605953
 31
0.0
  0
LINE
  5
21D23
330
18
100
AcDbEntity
  8
01
100
AcDbLine
 10
624.6162416184687
 20
-557.1250906605953
 30
0.0
 11
617.0162416184688
 21
-557.1250906605953
 31
0.0
  0
LINE
  5
21D24
330
18
100
AcDbEntity
  8
01
100
AcDbLine
 10
617.0162416184688
 20
-557.1250906605953
 30
0.0
 11
617.0162416184688
 21
-556.1250906605953
 31
0.0
  0
LINE
  5
21D32
330
18
100
AcDbEntity
  8
01
100
AcDbLine
 10
171.3162414684678
 20
-557.1250906605953
 30
0.0
 11
170.3162417684678
 21
-556.1250906605953
 31
0.0
  0
LINE
  5
21D33
330
18
100
AcDbEntity
  8
01
100
AcDbLine
 10
174.6162416184678
 20
-557.1250906605953
 30
0.0
 11
174.6162416184678
 21
-556.1250906605953
 31
0.0
  0
LINE
  5
21D34
330
18
100
AcDbEntity
  8
01
100
AcDbLine
 10
174.6162416184678
 20
-556.1250906605953
 30
0.0
 11
167.0162416184679
 21
-556.1250906605953
 31
0.0
  0
LINE
  5
21D35
330
18
100
AcDbEntity
  8
01
100
AcDbLine
 10
174.6162416184678
 20
-557.1250906605953
 30
0.0
 11
167.0162416184679
 21
-557.1250906605953
 31
0.0
  0
LINE
  5
21D36
330
18
100
AcDbEntity
  8
01
100
AcDbLine
 10
167.0162416184679
 20
-557.1250906605953
 30
0.0
 11
167.0162416184679
 21
-556.1250906605953
 31
0.0
  0
LINE
  5
21D3D
330
18
100
AcDbEntity
  8
01
100
AcDbLine
 10
682.7577798150973
 20
-636.3194734876774
 30
0.0
 11
682.7577798150973
 21
-659.3194734876774
 31
0.0
  0
LINE
  5
21D3E
330
18
100
AcDbEntity
  8
01
100
AcDbLine
 10
727.0577798150972
 20
-635.0194734876775
 30
0.0
 11
727.0577798150972
 21
-660.6194734876774
 31
0.0
  0
ARC
  5
21D3F
330
18
100
AcDbEntity
  8
01
100
AcDbCircle
 10
684.0577798150972
 20
-659.3194734876774
 30
0.0
 40
1.3
100
AcDbArc
 50
180.0
 51
270.0
  0
LINE
  5
21D40
330
18
100
AcDbEntity
  8
01
100
AcDbLine
 10
727.0577798150972
 20
-660.6194734876774
 30
0.0
 11
684.0577798150972
 21
-660.6194734876774
 31
0.0
  0
LINE
  5
21D41
330
18
100
AcDbEntity
  8
01
100
AcDbLine
 10
727.0577798150972
 20
-635.0194734876775
 30
0.0
 11
684.0577798150972
 21
-635.0194734876775
 31
0.0
  0
ARC
  5
21D42
330
18
100
AcDbEntity
  8
01
100
AcDbCircle
 10
684.0577798150972
 20
-636.3194734876774
 30
0.0
 40
1.3
100
AcDbArc
 50
90.0
 51
180.0
  0
LINE
  5
21D43
330
18
100
AcDbEntity
  8
01
100
AcDbLine
 10
191.3162416153639
 20
-597.4250906605957
 30
0.0
 11
168.8162416153639
 21
-597.4250906605957
 31
0.0
  0
LINE
  5
21D44
330
18
100
AcDbEntity
  8
1PHANTOM
100
AcDbLine
 10
191.8162416153639
 20
-595.4250906605957
 30
0.0
 11
168.8162416153639
 21
-595.4250906605957
 31
0.0
  0
ARC
  5
21D45
330
18
100
AcDbEntity
  8
01
100
AcDbCircle
 10
168.8162416153639
 20
-585.4250906605957
 30
0.0
 40
12.0
100
AcDbArc
 50
180.0
 51
270.0
  0
ARC
  5
21D46
330
18
100
AcDbEntity
  8
1PHANTOM
100
AcDbCircle
 10
168.8162416153639
 20
-585.4250906605957
 30
0.0
 40
10.0
100
AcDbArc
 50
180.0
 51
270.0
  0
LINE
  5
21D47
330
18
100
AcDbEntity
  8
01
100
AcDbLine
 10
191.3162416153639
 20
-587.8250906605958
 30
0.0
 11
189.8162416153639
 21
-587.8250906605958
 31
0.0
  0
ARC
  5
21D48
330
18
100
AcDbEntity
  8
01
100
AcDbCircle
 10
191.3162416153639
 20
-588.3250906605958
 30
0.0
 40
0.5
100
AcDbArc
 50
0.0
 51
90.0
  0
LINE
  5
21D49
330
18
100
AcDbEntity
  8
01
100
AcDbLine
 10
191.8162416153639
 20
-596.9250906605957
 30
0.0
 11
191.8162416153639
 21
-588.3250906605958
 31
0.0
  0
ARC
  5
21D4A
330
18
100
AcDbEntity
  8
01
100
AcDbCircle
 10
191.3162416153639
 20
-596.9250906605957
 30
0.0
 40
0.5
100
AcDbArc
 50
270.0
 51
0.0
  0
LINE
  5
21D4B
330
18
100
AcDbEntity
  8
01
100
AcDbLine
 10
186.8162416153639
 20
-584.8250906605958
 30
0.0
 11
186.8162416153639
 21
-553.1250906605958
 31
0.0
  0
LINE
  5
21D4C
330
18
100
AcDbEntity
  8
01
100
AcDbLine
 10
156.8162416153639
 20
-585.4250906605957
 30
0.0
 11
156.8162416153639
 21
-553.1250906605958
 31
0.0
  0
LINE
  5
21D4D
330
18
100
AcDbEntity
  8
1PHANTOM
100
AcDbLine
 10
158.8162416153639
 20
-585.4250906605957
 30
0.0
 11
158.8162416153639
 21
-553.1250906605958
 31
0.0
  0
ARC
  5
21D4E
330
18
100
AcDbEntity
  8
01
100
AcDbCircle
 10
189.8162416153639
 20
-584.8250906605958
 30
0.0
 40
3.0
100
AcDbArc
 50
180.0
 51
270.0
  0
LINE
  5
21D4F
330
18
100
AcDbEntity
  8
01
100
AcDbLine
 10
186.8162416153639
 20
-553.1250906605958
 30
0.0
 11
156.8162416153639
 21
-553.1250906605958
 31
0.0
  0
CIRCLE
  5
21D50
330
18
100
AcDbEntity
  8
1PHANTOM
100
AcDbCircle
 10
167.3162416153639
 20
-571.1250906605958
 30
0.0
 40
2.25
  0
LINE
  5
21D51
330
18
100
AcDbEntity
  8
1CENTER
100
AcDbLine
 10
164.3912416153642
 20
-571.1250906605962
 30
0.0
 11
170.2412416153642
 21
-571.1250906605962
 31
0.0
  0
LINE
  5
21D52
330
18
100
AcDbEntity
  8
1CENTER
100
AcDbLine
 10
167.3162416153642
 20
-574.0500906605962
 30
0.0
 11
167.3162416153642
 21
-568.2000906605963
 31
0.0
  0
LINE
  5
21D53
330
18
100
AcDbEntity
  8
1PHANTOM
100
AcDbLine
 10
683.0577798150972
 20
-636.3194734876774
 30
0.0
 11
683.0577798150972
 21
-659.3194734876774
 31
0.0
  0
ARC
  5
21D54
330
18
100
AcDbEntity
  8
1PHANTOM
100
AcDbCircle
 10
684.0577798150972
 20
-659.3194734876774
 30
0.0
 40
1.0
100
AcDbArc
 50
180.0
 51
270.0
  0
LINE
  5
21D55
330
18
100
AcDbEntity
  8
1PHANTOM
100
AcDbLine
 10
692.0577798150972
 20
-655.3194734876774
 30
0.0
 11
692.0577798150972
 21
-659.3194734876774
 31
0.0
  0
ARC
  5
21D56
330
18
100
AcDbEntity
  8
1PHANTOM
100
AcDbCircle
 10
691.0577798150972
 20
-659.3194734876774
 30
0.0
 40
1.0
100
AcDbArc
 50
270.0
 51
0.0
  0
LINE
  5
21D57
330
18
100
AcDbEntity
  8
1PHANTOM
100
AcDbLine
 10
691.0577798150972
 20
-660.3194734876774
 30
0.0
 11
684.0577798150972
 21
-660.3194734876774
 31
0.0
  0
LINE
  5
21D58
330
18
100
AcDbEntity
  8
1PHANTOM
100
AcDbLine
 10
684.5715840770048
 20
-635.3194734876774
 30
0.0
 11
684.0577798150972
 21
-635.3194734876774
 31
0.0
  0
ARC
  5
21D59
330
18
100
AcDbEntity
  8
1PHANTOM
100
AcDbCircle
 10
684.0577798150972
 20
-636.3194734876774
 30
0.0
 40
1.0
100
AcDbArc
 50
90.0
 51
180.0
  0
ARC
  5
21D5A
330
18
100
AcDbEntity
  8
1PHANTOM
100
AcDbCircle
 10
659.9863512436688
 20
-655.3194734876774
 30
0.0
 40
32.07142857142856
100
AcDbArc
 50
0.0
 51
37.69762577267471
  0
ARC
  5
21D5B
330
18
100
AcDbEntity
  8
1PHANTOM
100
AcDbCircle
 10
684.5715840770048
 20
-636.3194734876774
 30
0.0
 40
1.0
100
AcDbArc
 50
37.69762577267711
 51
90.0
  0
LINE
  5
21D5C
330
18
100
AcDbEntity
  8
01
100
AcDbLine
 10
192.1162416153639
 20
-635.3194734876774
 30
0.0
 11
599.516241615364
 21
-635.3194734876774
 31
0.0
  0
LINE
  5
21D5D
330
18
100
AcDbEntity
  8
01
100
AcDbLine
 10
192.1162416153639
 20
-597.1250906605958
 30
0.0
 11
599.516241615364
 21
-597.1250906605958
 31
0.0
  0
ARC
  5
21D5E
330
18
100
AcDbEntity
  8
01
100
AcDbCircle
 10
599.516241615364
 20
-635.6194734876774
 30
0.0
 40
0.3
100
AcDbArc
 50
0.0
 51
90.0
  0
LINE
  5
21D5F
330
18
100
AcDbEntity
  8
01
100
AcDbLine
 10
599.816241615364
 20
-635.6194734876774
 30
0.0
 11
599.816241615364
 21
-660.0194734876775
 31
0.0
  0
ARC
  5
21D60
330
18
100
AcDbEntity
  8
01
100
AcDbCircle
 10
599.5162416153638
 20
-660.0194734876775
 30
0.0
 40
0.3
100
AcDbArc
 50
270.0
 51
0.0
  0
LINE
  5
21D61
330
18
100
AcDbEntity
  8
01
100
AcDbLine
 10
191.8162416153639
 20
-635.6194734876776
 30
0.0
 11
191.8162416153639
 21
-660.0194734876775
 31
0.0
  0
ARC
  5
21D62
330
18
100
AcDbEntity
  8
01
100
AcDbCircle
 10
192.1162416153639
 20
-635.6194734876776
 30
0.0
 40
0.3
100
AcDbArc
 50
90.0
 51
180.0
  0
LINE
  5
21D63
330
18
100
AcDbEntity
  8
01
100
AcDbLine
 10
192.1162416153639
 20
-660.3194734876774
 30
0.0
 11
599.5162416153638
 21
-660.3194734876774
 31
0.0
  0
ARC
  5
21D64
330
18
100
AcDbEntity
  8
01
100
AcDbCircle
 10
192.1162416153639
 20
-660.0194734876775
 30
0.0
 40
0.3
100
AcDbArc
 50
180.0
 51
270.0
  0
LINE
  5
21D65
330
18
100
AcDbEntity
  8
1PHANTOM
100
AcDbLine
 10
185.0662416153635
 20
-552.9250906605953
 30
0.0
 11
158.5662416153635
 21
-552.9250906605953
 31
0.0
  0
LINE
  5
21D66
330
18
100
AcDbEntity
  8
1PHANTOM
100
AcDbLine
 10
173.3162416153635
 20
-578.1250906605953
 30
0.0
 11
159.5662416153635
 21
-578.1250906605953
 31
0.0
  0
ARC
  5
21D67
330
18
100
AcDbEntity
  8
1PHANTOM
100
AcDbCircle
 10
173.3162416153635
 20
-577.1250906605953
 30
0.0
 40
1.0
100
AcDbArc
 50
270.0
 51
0.0
  0
LINE
  5
21D68
330
18
100
AcDbEntity
  8
1PHANTOM
100
AcDbLine
 10
184.5662416153635
 20
-556.1250906605953
 30
0.0
 11
159.0662416153635
 21
-556.1250906605953
 31
0.0
  0
ARC
  5
21D69
330
18
100
AcDbEntity
  8
1PHANTOM
100
AcDbCircle
 10
184.5662416153635
 20
-555.6250906605953
 30
0.0
 40
0.5
100
AcDbArc
 50
270.0
 51
0.0
  0
LINE
  5
21D6A
330
18
100
AcDbEntity
  8
1PHANTOM
100
AcDbLine
 10
158.5662416153635
 20
-577.1250906605953
 30
0.0
 11
158.5662416153635
 21
-552.9250906605953
 31
0.0
  0
ARC
  5
21D6B
330
18
100
AcDbEntity
  8
1PHANTOM
100
AcDbCircle
 10
159.0662416153635
 20
-555.6250906605953
 30
0.0
 40
0.5
100
AcDbArc
 50
180.0
 51
270.0
  0
ARC
  5
21D6C
330
18
100
AcDbEntity
  8
1PHANTOM
100
AcDbCircle
 10
159.5662416153635
 20
-577.1250906605953
 30
0.0
 40
1.0
100
AcDbArc
 50
180.0
 51
270.0
  0
LINE
  5
21D6D
330
18
100
AcDbEntity
  8
1PHANTOM
100
AcDbLine
 10
185.0662416153635
 20
-555.6250906605953
 30
0.0
 11
185.0662416153637
 21
-552.9250906605953
 31
0.0
  0
LINE
  5
21D6E
330
18
100
AcDbEntity
  8
1PHANTOM
100
AcDbLine
 10
174.3162416153635
 20
-577.1250906605953
 30
0.0
 11
174.3162416153635
 21
-556.6250906605953
 31
0.0
  0
ARC
  5
21D6F
330
18
100
AcDbEntity
  8
1PHANTOM
100
AcDbCircle
 10
174.8162416153635
 20
-556.6250906605953
 30
0.0
 40
0.5
100
AcDbArc
 50
90.0
 51
180.0
  0
LINE
  5
21D70
330
18
100
AcDbEntity
  8
1PHANTOM
100
AcDbLine
 10
727.2577798150973
 20
-637.1709205699035
 30
0.0
 11
727.2577798150973
 21
-659.1194734876774
 31
0.0
  0
LINE
  5
21D71
330
18
100
AcDbEntity
  8
1PHANTOM
100
AcDbLine
 10
724.0577798150972
 20
-637.6709205699035
 30
0.0
 11
724.0577798150972
 21
-658.6194734876774
 31
0.0
  0
ARC
  5
21D72
330
18
100
AcDbEntity
  8
1PHANTOM
100
AcDbCircle
 10
724.5577798150972
 20
-658.6194734876774
 30
0.0
 40
0.5
100
AcDbArc
 50
180.0
 51
270.0
  0
ARC
  5
21D73
330
18
100
AcDbEntity
  8
1PHANTOM
100
AcDbCircle
 10
723.5577798150972
 20
-652.6194734876774
 30
0.0
 40
0.5
100
AcDbArc
 50
270.0
 51
0.0
  0
LINE
  5
21D74
330
18
100
AcDbEntity
  8
1PHANTOM
100
AcDbLine
 10
703.0577798150972
 20
-659.1194734876774
 30
0.0
 11
727.2577798150973
 21
-659.1194734876774
 31
0.0
  0
LINE
  5
21D75
330
18
100
AcDbEntity
  8
1PHANTOM
100
AcDbLine
 10
724.5577798150972
 20
-637.1709205699035
 30
0.0
 11
727.2577798150973
 21
-637.1709205699035
 31
0.0
  0
ARC
  5
21D76
330
18
100
AcDbEntity
  8
1PHANTOM
100
AcDbCircle
 10
724.5577798150972
 20
-637.6709205699035
 30
0.0
 40
0.5
100
AcDbArc
 50
90.0
 51
180.0
  0
LINE
  5
21D77
330
18
100
AcDbEntity
  8
1PHANTOM
100
AcDbLine
 10
703.0577798150972
 20
-653.1194734876774
 30
0.0
 11
723.5577798150972
 21
-653.1194734876774
 31
0.0
  0
ARC
  5
21D78
330
18
100
AcDbEntity
  8
1PHANTOM
100
AcDbCircle
 10
703.0577798150972
 20
-654.1194734876774
 30
0.0
 40
1.0
100
AcDbArc
 50
90.0
 51
180.0
  0
LINE
  5
21D79
330
18
100
AcDbEntity
  8
1PHANTOM
100
AcDbLine
 10
702.0577798150972
 20
-654.1194734876774
 30
0.0
 11
702.0577798150972
 21
-658.1194734876774
 31
0.0
  0
ARC
  5
21D7A
330
18
100
AcDbEntity
  8
1PHANTOM
100
AcDbCircle
 10
703.0577798150972
 20
-658.1194734876774
 30
0.0
 40
1.0
100
AcDbArc
 50
180.0
 51
270.0
  0
LINE
  5
21D7B
330
18
100
AcDbEntity
  8
01
100
AcDbLine
 10
192.1162416153639
 20
-588.1250906605958
 30
0.0
 11
599.516241615364
 21
-588.1250906605958
 31
0.0
  0
ARC
  5
21D7C
330
18
100
AcDbEntity
  8
01
100
AcDbCircle
 10
599.516241615364
 20
-588.4250906605957
 30
0.0
 40
0.3
100
AcDbArc
 50
0.0
 51
90.0
  0
ARC
  5
21D7D
330
18
100
AcDbEntity
  8
01
100
AcDbCircle
 10
192.1162416153639
 20
-596.8250906605958
 30
0.0
 40
0.3
100
AcDbArc
 50
180.0
 51
270.0
  0
LINE
  5
21D7E
330
18
100
AcDbEntity
  8
01
100
AcDbLine
 10
599.816241615364
 20
-596.8250906605958
 30
0.0
 11
599.816241615364
 21
-588.4250906605957
 31
0.0
  0
ARC
  5
21D7F
330
18
100
AcDbEntity
  8
01
100
AcDbCircle
 10
599.516241615364
 20
-596.8250906605958
 30
0.0
 40
0.3
100
AcDbArc
 50
270.0
 51
0.0
  0
LINE
  5
21D80
330
18
100
AcDbEntity
  8
01
100
AcDbLine
 10
191.8162416153639
 20
-596.8250906605958
 30
0.0
 11
191.8162416153639
 21
-588.4250906605957
 31
0.0
  0
ARC
  5
21D81
330
18
100
AcDbEntity
  8
01
100
AcDbCircle
 10
192.1162416153639
 20
-588.4250906605957
 30
0.0
 40
0.3
100
AcDbArc
 50
90.0
 51
180.0
  0
LINE
  5
21D82
330
18
100
AcDbEntity
  8
01
100
AcDbLine
 10
600.316241615364
 20
-597.4250906605957
 30
0.0
 11
622.816241615364
 21
-597.4250906605957
 31
0.0
  0
ARC
  5
21D83
330
18
100
AcDbEntity
  8
01
100
AcDbCircle
 10
622.816241615364
 20
-585.4250906605957
 30
0.0
 40
12.0
100
AcDbArc
 50
270.0
 51
0.0
  0
LINE
  5
21D84
330
18
100
AcDbEntity
  8
01
100
AcDbLine
 10
600.316241615364
 20
-587.8250906605958
 30
0.0
 11
601.816241615364
 21
-587.8250906605958
 31
0.0
  0
ARC
  5
21D85
330
18
100
AcDbEntity
  8
01
100
AcDbCircle
 10
600.316241615364
 20
-588.3250906605958
 30
0.0
 40
0.5
100
AcDbArc
 50
90.0
 51
180.0
  0
LINE
  5
21D86
330
18
100
AcDbEntity
  8
01
100
AcDbLine
 10
599.816241615364
 20
-596.9250906605957
 30
0.0
 11
599.816241615364
 21
-588.3250906605958
 31
0.0
  0
ARC
  5
21D87
330
18
100
AcDbEntity
  8
01
100
AcDbCircle
 10
600.316241615364
 20
-596.9250906605957
 30
0.0
 40
0.5
100
AcDbArc
 50
180.0
 51
270.0
  0
LINE
  5
21D88
330
18
100
AcDbEntity
  8
01
100
AcDbLine
 10
604.816241615364
 20
-584.8250906605958
 30
0.0
 11
604.816241615364
 21
-553.1250906605958
 31
0.0
  0
LINE
  5
21D89
330
18
100
AcDbEntity
  8
01
100
AcDbLine
 10
634.816241615364
 20
-585.4250906605957
 30
0.0
 11
634.816241615364
 21
-553.1250906605958
 31
0.0
  0
ARC
  5
21D8A
330
18
100
AcDbEntity
  8
01
100
AcDbCircle
 10
601.816241615364
 20
-584.8250906605958
 30
0.0
 40
3.0
100
AcDbArc
 50
270.0
 51
0.0
  0
LINE
  5
21D8B
330
18
100
AcDbEntity
  8
01
100
AcDbLine
 10
604.816241615364
 20
-553.1250906605958
 30
0.0
 11
634.816241615364
 21
-553.1250906605958
 31
0.0
  0
LINE
  5
21D8C
330
18
100
AcDbEntity
  8
1PHANTOM
100
AcDbLine
 10
599.816241615364
 20
-595.4250906605957
 30
0.0
 11
622.816241615364
 21
-595.4250906605957
 31
0.0
  0
ARC
  5
21D8D
330
18
100
AcDbEntity
  8
1PHANTOM
100
AcDbCircle
 10
622.816241615364
 20
-585.4250906605957
 30
0.0
 40
10.0
100
AcDbArc
 50
270.0
 51
0.0
  0
LINE
  5
21D8E
330
18
100
AcDbEntity
  8
1PHANTOM
100
AcDbLine
 10
632.816241615364
 20
-585.4250906605957
 30
0.0
 11
632.816241615364
 21
-553.1250906605958
 31
0.0
  0
LINE
  5
21D8F
330
18
100
AcDbEntity
  8
1PHANTOM
100
AcDbLine
 10
191.8162416153639
 20
-595.4250906605957
 30
0.0
 11
599.816241615364
 21
-595.4250906605957
 31
0.0
  0
LINE
  5
21D90
330
18
100
AcDbEntity
  8
01
100
AcDbLine
 10
191.8162416153639
 20
-635.5194734876775
 30
0.0
 11
191.8162416153639
 21
-660.1194734876774
 31
0.0
  0
ARC
  5
21D91
330
18
100
AcDbEntity
  8
01
100
AcDbCircle
 10
191.3162416153639
 20
-635.5194734876775
 30
0.0
 40
0.5
100
AcDbArc
 50
0.0
 51
90.0
  0
LINE
  5
21D92
330
18
100
AcDbEntity
  8
01
100
AcDbLine
 10
191.3162416153639
 20
-660.6194734876774
 30
0.0
 11
158.1162416153639
 21
-660.6194734876774
 31
0.0
  0
ARC
  5
21D93
330
18
100
AcDbEntity
  8
01
100
AcDbCircle
 10
158.1162416153639
 20
-659.3194734876774
 30
0.0
 40
1.3
100
AcDbArc
 50
180.0
 51
270.0
  0
ARC
  5
21D94
330
18
100
AcDbEntity
  8
01
100
AcDbCircle
 10
191.3162416153639
 20
-660.1194734876774
 30
0.0
 40
0.5
100
AcDbArc
 50
270.0
 51
0.0
  0
LINE
  5
21D95
330
18
100
AcDbEntity
  8
01
100
AcDbLine
 10
191.3162416153639
 20
-635.0194734876775
 30
0.0
 11
158.1162416153639
 21
-635.0194734876775
 31
0.0
  0
LINE
  5
21D96
330
18
100
AcDbEntity
  8
01
100
AcDbLine
 10
156.8162416153639
 20
-636.3194734876774
 30
0.0
 11
156.8162416153639
 21
-659.3194734876774
 31
0.0
  0
ARC
  5
21D97
330
18
100
AcDbEntity
  8
01
100
AcDbCircle
 10
158.1162416153639
 20
-636.3194734876774
 30
0.0
 40
1.3
100
AcDbArc
 50
90.0
 51
180.0
  0
LINE
  5
21D98
330
18
100
AcDbEntity
  8
1PHANTOM
100
AcDbLine
 10
186.8162416153639
 20
-655.7412925538792
 30
0.0
 11
186.8162416153639
 21
-659.3194734876774
 31
0.0
  0
ARC
  5
21D99
330
18
100
AcDbEntity
  8
1PHANTOM
100
AcDbCircle
 10
185.516241615364
 20
-659.3194734876774
 30
0.0
 40
1.3
100
AcDbArc
 50
270.0
 51
0.0
  0
ARC
  5
21D9A
330
18
100
AcDbEntity
  8
1PHANTOM
100
AcDbCircle
 10
142.1701396921349
 20
-687.4399588990268
 30
0.0
 40
55.0
100
AcDbArc
 50
36.17771356654514
 51
72.16909173560953
  0
ARC
  5
21D9B
330
18
100
AcDbEntity
  8
1PHANTOM
100
AcDbCircle
 10
158.6135569558294
 20
-636.3194734876774
 30
0.0
 40
1.3
100
AcDbArc
 50
72.16909173561501
 51
90.0
  0
ARC
  5
21D9C
330
18
100
AcDbEntity
  8
1PHANTOM
100
AcDbCircle
 10
185.516241615364
 20
-655.7412925538792
 30
0.0
 40
1.3
100
AcDbArc
 50
0.0
 51
36.17771356654733
  0
LINE
  5
21D9D
330
18
100
AcDbEntity
  8
1PHANTOM
100
AcDbLine
 10
184.0662416153639
 20
-659.1194734876774
 30
0.0
 11
159.5662416153639
 21
-659.1194734876774
 31
0.0
  0
LINE
  5
21D9E
330
18
100
AcDbEntity
  8
1PHANTOM
100
AcDbLine
 10
173.8162416153639
 20
-653.1194734876774
 30
0.0
 11
159.0662416153639
 21
-653.1194734876774
 31
0.0
  0
ARC
  5
21D9F
330
18
100
AcDbEntity
  8
1PHANTOM
100
AcDbCircle
 10
173.8162416153639
 20
-653.6194734876774
 30
0.0
 40
0.5
100
AcDbArc
 50
0.0
 51
90.0
  0
ARC
  5
21DA0
330
18
100
AcDbEntity
  8
1PHANTOM
100
AcDbCircle
 10
159.5662416153639
 20
-658.1194734876774
 30
0.0
 40
1.0
100
AcDbArc
 50
180.0
 51
270.0
  0
LINE
  5
21DA1
330
18
100
AcDbEntity
  8
1PHANTOM
100
AcDbLine
 10
158.5662416153639
 20
-638.1709205699033
 30
0.0
 11
158.5662416153639
 21
-658.1194734876774
 31
0.0
  0
ARC
  5
21DA2
330
18
100
AcDbEntity
  8
1PHANTOM
100
AcDbCircle
 10
159.0662416153639
 20
-653.6194734876774
 30
0.0
 40
0.5
100
AcDbArc
 50
90.0
 51
180.0
  0
LINE
  5
21DA3
330
18
100
AcDbEntity
  8
1PHANTOM
100
AcDbLine
 10
185.0662416153639
 20
-656.2185056394744
 30
0.0
 11
185.0662416153639
 21
-658.1194734876774
 31
0.0
  0
ARC
  5
21DA4
330
18
100
AcDbEntity
  8
1PHANTOM
100
AcDbCircle
 10
184.0662416153639
 20
-658.1194734876774
 30
0.0
 40
1.0
100
AcDbArc
 50
270.0
 51
0.0
  0
LINE
  5
21DA5
330
18
100
AcDbEntity
  8
1PHANTOM
100
AcDbLine
 10
174.3162416153639
 20
-653.6194734876774
 30
0.0
 11
174.3162416153639
 21
-658.6194734876774
 31
0.0
  0
ARC
  5
21DA6
330
18
100
AcDbEntity
  8
1PHANTOM
100
AcDbCircle
 10
173.8162416153639
 20
-658.6194734876774
 30
0.0
 40
0.5
100
AcDbArc
 50
270.0
 51
0.0
  0
ARC
  5
21DA7
330
18
100
AcDbEntity
  8
1PHANTOM
100
AcDbCircle
 10
142.1701396921351
 20
-687.4399588990268
 30
0.0
 40
53.25
100
AcDbArc
 50
36.69389948733244
 51
70.55269620897631
  0
ARC
  5
21DA8
330
18
100
AcDbEntity
  8
1PHANTOM
100
AcDbCircle
 10
159.5662416153639
 20
-638.1709205699033
 30
0.0
 40
1.0
100
AcDbArc
 50
70.55269620897373
 51
180.0
  0
ARC
  5
21DA9
330
18
100
AcDbEntity
  8
1PHANTOM
100
AcDbCircle
 10
184.0662416153639
 20
-656.2185056394744
 30
0.0
 40
1.0
100
AcDbArc
 50
0.0
 51
36.69389948733618
  0
ARC
  5
21DAA
330
18
100
AcDbEntity
  8
1PHANTOM
100
AcDbCircle
 10
169.8162416153614
 20
-648.6194734876749
 30
0.0
 40
2.5
100
AcDbArc
 50
90.0
 51
270.0
  0
ARC
  5
21DAB
330
18
100
AcDbEntity
  8
1PHANTOM
100
AcDbCircle
 10
171.8162416153614
 20
-648.6194734876749
 30
0.0
 40
2.5
100
AcDbArc
 50
270.0
 51
90.0
  0
LINE
  5
21DAC
330
18
100
AcDbEntity
  8
1PHANTOM
100
AcDbLine
 10
169.8162416153614
 20
-651.1194734876749
 30
0.0
 11
171.8162416153614
 21
-651.1194734876749
 31
0.0
  0
LINE
  5
21DAD
330
18
100
AcDbEntity
  8
1PHANTOM
100
AcDbLine
 10
169.8162416153614
 20
-646.1194734876749
 30
0.0
 11
171.8162416153614
 21
-646.1194734876749
 31
0.0
  0
LINE
  5
21DAE
330
18
100
AcDbEntity
  8
1CENTER
100
AcDbLine
 10
166.9162416153636
 20
-648.6194734876772
 30
0.0
 11
174.7162416153636
 21
-648.6194734876772
 31
0.0
  0
LINE
  5
21DAF
330
18
100
AcDbEntity
  8
1CENTER
100
AcDbLine
 10
170.8162416153635
 20
-652.519473487677
 30
0.0
 11
170.8162416153635
 21
-644.7194734876771
 31
0.0
  0
CIRCLE
  5
21DB0
330
18
100
AcDbEntity
  8
1PHANTOM
100
AcDbCircle
 10
624.316241615364
 20
-571.1250906605958
 30
0.0
 40
2.25
  0
LINE
  5
21DB1
330
18
100
AcDbEntity
  8
1CENTER
100
AcDbLine
 10
627.2412416153637
 20
-571.1250906605962
 30
0.0
 11
621.3912416153636
 21
-571.1250906605962
 31
0.0
  0
LINE
  5
21DB2
330
18
100
AcDbEntity
  8
1CENTER
100
AcDbLine
 10
624.3162416153638
 20
-574.0500906605962
 30
0.0
 11
624.3162416153638
 21
-568.2000906605963
 31
0.0
  0
LINE
  5
21DB3
330
18
100
AcDbEntity
  8
1PHANTOM
100
AcDbLine
 10
606.5662416153644
 20
-552.9250906605953
 30
0.0
 11
633.0662416153644
 21
-552.9250906605953
 31
0.0
  0
LINE
  5
21DB4
330
18
100
AcDbEntity
  8
1PHANTOM
100
AcDbLine
 10
618.3162416153644
 20
-578.1250906605953
 30
0.0
 11
632.0662416153644
 21
-578.1250906605953
 31
0.0
  0
ARC
  5
21DB5
330
18
100
AcDbEntity
  8
1PHANTOM
100
AcDbCircle
 10
618.3162416153644
 20
-577.1250906605953
 30
0.0
 40
1.0
100
AcDbArc
 50
180.0
 51
270.0
  0
LINE
  5
21DB6
330
18
100
AcDbEntity
  8
1PHANTOM
100
AcDbLine
 10
607.0662416153644
 20
-556.1250906605953
 30
0.0
 11
632.5662416153644
 21
-556.1250906605953
 31
0.0
  0
ARC
  5
21DB7
330
18
100
AcDbEntity
  8
1PHANTOM
100
AcDbCircle
 10
607.0662416153644
 20
-555.6250906605953
 30
0.0
 40
0.5
100
AcDbArc
 50
180.0
 51
270.0
  0
LINE
  5
21DB8
330
18
100
AcDbEntity
  8
1PHANTOM
100
AcDbLine
 10
633.0662416153644
 20
-577.1250906605953
 30
0.0
 11
633.0662416153644
 21
-552.9250906605953
 31
0.0
  0
ARC
  5
21DB9
330
18
100
AcDbEntity
  8
1PHANTOM
100
AcDbCircle
 10
632.5662416153644
 20
-555.6250906605953
 30
0.0
 40
0.5
100
AcDbArc
 50
270.0
 51
0.0
  0
ARC
  5
21DBA
330
18
100
AcDbEntity
  8
1PHANTOM
100
AcDbCircle
 10
632.0662416153644
 20
-577.1250906605953
 30
0.0
 40
1.0
100
AcDbArc
 50
270.0
 51
0.0
  0
LINE
  5
21DBB
330
18
100
AcDbEntity
  8
1PHANTOM
100
AcDbLine
 10
606.5662416153644
 20
-555.6250906605953
 30
0.0
 11
606.5662416153642
 21
-552.9250906605953
 31
0.0
  0
LINE
  5
21DBC
330
18
100
AcDbEntity
  8
1PHANTOM
100
AcDbLine
 10
617.3162416153644
 20
-577.1250906605953
 30
0.0
 11
617.3162416153644
 21
-556.6250906605953
 31
0.0
  0
ARC
  5
21DBD
330
18
100
AcDbEntity
  8
1PHANTOM
100
AcDbCircle
 10
616.8162416153644
 20
-556.6250906605953
 30
0.0
 40
0.5
100
AcDbArc
 50
0.0
 51
90.0
  0
LINE
  5
21DBE
330
18
100
AcDbEntity
  8
01
100
AcDbLine
 10
599.816241615364
 20
-635.5194734876775
 30
0.0
 11
599.816241615364
 21
-660.1194734876774
 31
0.0
  0
ARC
  5
21DBF
330
18
100
AcDbEntity
  8
01
100
AcDbCircle
 10
600.316241615364
 20
-635.5194734876775
 30
0.0
 40
0.5
100
AcDbArc
 50
90.0
 51
180.0
  0
LINE
  5
21DC0
330
18
100
AcDbEntity
  8
01
100
AcDbLine
 10
600.316241615364
 20
-660.6194734876774
 30
0.0
 11
633.516241615364
 21
-660.6194734876774
 31
0.0
  0
ARC
  5
21DC1
330
18
100
AcDbEntity
  8
01
100
AcDbCircle
 10
633.516241615364
 20
-659.3194734876774
 30
0.0
 40
1.3
100
AcDbArc
 50
270.0
 51
0.0
  0
ARC
  5
21DC2
330
18
100
AcDbEntity
  8
01
100
AcDbCircle
 10
600.316241615364
 20
-660.1194734876774
 30
0.0
 40
0.5
100
AcDbArc
 50
180.0
 51
270.0
  0
LINE
  5
21DC3
330
18
100
AcDbEntity
  8
01
100
AcDbLine
 10
600.316241615364
 20
-635.0194734876775
 30
0.0
 11
633.516241615364
 21
-635.0194734876775
 31
0.0
  0
LINE
  5
21DC4
330
18
100
AcDbEntity
  8
01
100
AcDbLine
 10
634.816241615364
 20
-636.3194734876774
 30
0.0
 11
634.816241615364
 21
-659.3194734876774
 31
0.0
  0
ARC
  5
21DC5
330
18
100
AcDbEntity
  8
01
100
AcDbCircle
 10
633.516241615364
 20
-636.3194734876774
 30
0.0
 40
1.3
100
AcDbArc
 50
0.0
 51
90.0
  0
LINE
  5
21DC6
330
18
100
AcDbEntity
  8
1PHANTOM
100
AcDbLine
 10
604.816241615364
 20
-655.7412925538792
 30
0.0
 11
604.816241615364
 21
-659.3194734876774
 31
0.0
  0
ARC
  5
21DC7
330
18
100
AcDbEntity
  8
1PHANTOM
100
AcDbCircle
 10
606.116241615364
 20
-659.3194734876774
 30
0.0
 40
1.3
100
AcDbArc
 50
180.0
 51
270.0
  0
ARC
  5
21DC8
330
18
100
AcDbEntity
  8
1PHANTOM
100
AcDbCircle
 10
649.462343538593
 20
-687.4399588990268
 30
0.0
 40
55.0
100
AcDbArc
 50
107.8309082643906
 51
143.8222864334548
  0
ARC
  5
21DC9
330
18
100
AcDbEntity
  8
1PHANTOM
100
AcDbCircle
 10
633.0189262748985
 20
-636.3194734876774
 30
0.0
 40
1.3
100
AcDbArc
 50
90.0
 51
107.8309082643862
  0
ARC
  5
21DCA
330
18
100
AcDbEntity
  8
1PHANTOM
100
AcDbCircle
 10
606.116241615364
 20
-655.7412925538792
 30
0.0
 40
1.3
100
AcDbArc
 50
143.8222864334527
 51
180.0
  0
LINE
  5
21DCB
330
18
100
AcDbEntity
  8
1PHANTOM
100
AcDbLine
 10
607.566241615364
 20
-659.1194734876774
 30
0.0
 11
632.066241615364
 21
-659.1194734876774
 31
0.0
  0
LINE
  5
21DCC
330
18
100
AcDbEntity
  8
1PHANTOM
100
AcDbLine
 10
617.816241615364
 20
-653.1194734876774
 30
0.0
 11
632.566241615364
 21
-653.1194734876774
 31
0.0
  0
ARC
  5
21DCD
330
18
100
AcDbEntity
  8
1PHANTOM
100
AcDbCircle
 10
617.816241615364
 20
-653.6194734876774
 30
0.0
 40
0.5
100
AcDbArc
 50
90.0
 51
180.0
  0
ARC
  5
21DCE
330
18
100
AcDbEntity
  8
1PHANTOM
100
AcDbCircle
 10
632.066241615364
 20
-658.1194734876774
 30
0.0
 40
1.0
100
AcDbArc
 50
270.0
 51
0.0
  0
LINE
  5
21DCF
330
18
100
AcDbEntity
  8
1PHANTOM
100
AcDbLine
 10
633.066241615364
 20
-638.1709205699033
 30
0.0
 11
633.066241615364
 21
-658.1194734876774
 31
0.0
  0
ARC
  5
21DD0
330
18
100
AcDbEntity
  8
1PHANTOM
100
AcDbCircle
 10
632.566241615364
 20
-653.6194734876774
 30
0.0
 40
0.5
100
AcDbArc
 50
0.0
 51
90.0
  0
LINE
  5
21DD1
330
18
100
AcDbEntity
  8
1PHANTOM
100
AcDbLine
 10
606.566241615364
 20
-656.2185056394744
 30
0.0
 11
606.566241615364
 21
-658.1194734876774
 31
0.0
  0
ARC
  5
21DD2
330
18
100
AcDbEntity
  8
1PHANTOM
100
AcDbCircle
 10
607.566241615364
 20
-658.1194734876774
 30
0.0
 40
1.0
100
AcDbArc
 50
180.0
 51
270.0
  0
LINE
  5
21DD3
330
18
100
AcDbEntity
  8
1PHANTOM
100
AcDbLine
 10
617.316241615364
 20
-653.6194734876774
 30
0.0
 11
617.316241615364
 21
-658.6194734876774
 31
0.0
  0
ARC
  5
21DD4
330
18
100
AcDbEntity
  8
1PHANTOM
100
AcDbCircle
 10
617.816241615364
 20
-658.6194734876774
 30
0.0
 40
0.5
100
AcDbArc
 50
180.0
 51
270.0
  0
ARC
  5
21DD5
330
18
100
AcDbEntity
  8
1PHANTOM
100
AcDbCircle
 10
649.4623435385928
 20
-687.4399588990268
 30
0.0
 40
53.25
100
AcDbArc
 50
109.4473037910242
 51
143.3061005126684
  0
ARC
  5
21DD6
330
18
100
AcDbEntity
  8
1PHANTOM
100
AcDbCircle
 10
632.066241615364
 20
-638.1709205699033
 30
0.0
 40
1.0
100
AcDbArc
 50
0.0
 51
109.4473037910263
  0
ARC
  5
21DD7
330
18
100
AcDbEntity
  8
1PHANTOM
100
AcDbCircle
 10
607.566241615364
 20
-656.2185056394744
 30
0.0
 40
1.0
100
AcDbArc
 50
143.3061005126628
 51
180.0
  0
ARC
  5
21DD8
330
18
100
AcDbEntity
  8
1PHANTOM
100
AcDbCircle
 10
621.8162416153665
 20
-648.6194734876749
 30
0.0
 40
2.5
100
AcDbArc
 50
270.0
 51
90.0
  0
ARC
  5
21DD9
330
18
100
AcDbEntity
  8
1PHANTOM
100
AcDbCircle
 10
619.8162416153665
 20
-648.6194734876749
 30
0.0
 40
2.5
100
AcDbArc
 50
90.0
 51
270.0
  0
LINE
  5
21DDA
330
18
100
AcDbEntity
  8
1PHANTOM
100
AcDbLine
 10
621.8162416153665
 20
-651.1194734876749
 30
0.0
 11
619.8162416153665
 21
-651.1194734876749
 31
0.0
  0
LINE
  5
21DDB
330
18
100
AcDbEntity
  8
1PHANTOM
100
AcDbLine
 10
621.8162416153665
 20
-646.1194734876749
 30
0.0
 11
619.8162416153665
 21
-646.1194734876749
 31
0.0
  0
LINE
  5
21DDC
330
18
100
AcDbEntity
  8
1CENTER
100
AcDbLine
 10
624.7162416153643
 20
-648.6194734876772
 30
0.0
 11
616.9162416153644
 21
-648.6194734876772
 31
0.0
  0
LINE
  5
21DDD
330
18
100
AcDbEntity
  8
1CENTER
100
AcDbLine
 10
620.8162416153644
 20
-652.519473487677
 30
0.0
 11
620.8162416153644
 21
-644.7194734876771
 31
0.0
  0
LINE
  5
21DDF
330
18
100
AcDbEntity
  8
01
100
AcDbLine
 10
727.2577798150973
 20
-610.5912999023958
 30
0.0
 11
727.2577798150973
 21
-685.0476470729595
 31
0.0
  0
LINE
  5
21DE3
330
18
100
AcDbEntity
  8
01
100
AcDbLine
 10
723.0577798150972
 20
-649.1194733376772
 30
0.0
 11
724.0577798150972
 21
-648.1194736376772
 31
0.0
  0
LINE
  5
21DE4
330
18
100
AcDbEntity
  8
01
100
AcDbLine
 10
723.0577798150972
 20
-652.4194734876771
 30
0.0
 11
724.0577798150972
 21
-652.4194734876771
 31
0.0
  0
LINE
  5
21DE5
330
18
100
AcDbEntity
  8
01
100
AcDbLine
 10
724.0577798150972
 20
-652.4194734876771
 30
0.0
 11
724.0577798150972
 21
-644.8194734876772
 31
0.0
  0
LINE
  5
21DE6
330
18
100
AcDbEntity
  8
01
100
AcDbLine
 10
723.0577798150972
 20
-652.4194734876771
 30
0.0
 11
723.0577798150972
 21
-644.8194734876772
 31
0.0
  0
LINE
  5
21DE7
330
18
100
AcDbEntity
  8
01
100
AcDbLine
 10
723.0577798150972
 20
-644.8194734876772
 30
0.0
 11
724.0577798150972
 21
-644.8194734876772
 31
0.0
  0
LINE
  5
21F62
330
18
100
AcDbEntity
  8
01
100
AcDbLine
 10
739.7577798150973
 20
-610.5912999023958
 30
0.0
 11
739.7577798150973
 21
-685.0476470729593
 31
0.0
  0
LINE
  5
21F63
330
18
100
AcDbEntity
  8
01
100
AcDbLine
 10
748.7577798150973
 20
-610.5912999023958
 30
0.0
 11
748.7577798150973
 21
-685.0476470729593
 31
0.0
  0
TEXT
  5
22197
330
18
100
AcDbEntity
  8
01
  6
CONTINUOUS
100
AcDbText
 10
733.9952953259198
 20
-603.3884044405584
 30
0.0
 40
3.5
  1
PB
100
AcDbText
  0
TEXT
  5
22198
330
18
100
AcDbEntity
  8
01
  6
CONTINUOUS
100
AcDbText
 10
747.130713471085
 20
-603.3884044405584
 30
0.0
 40
3.5
  1
合板9mm以上
100
AcDbText
  0
LINE
  5
22199
330
18
100
AcDbEntity
  8
1DIM
100
AcDbLine
 10
527.2306827658447
 20
-660.3194734900637
 30
0.0
 11
537.0458307863253
 21
-660.3194734900637
 31
0.0
1001
ACAD
1000
DSTYLE
1002
{
1070
    45
1040
0.5
1002
}
  0
LINE
  5
2219A
330
18
100
AcDbEntity
  8
1DIM
100
AcDbLine
 10
527.2306827658447
 20
-635.3194734900637
 30
0.0
 11
537.0458307863253
 21
-635.3194734900637
 31
0.0
1001
ACAD
1000
DSTYLE
1002
{
1070
    45
1040
0.5
1002
}
  0
LINE
  5
2219B
330
18
100
AcDbEntity
  8
1DIM
100
AcDbLine
 10
536.0458307863253
 20
-635.3194734900637
 30
0.0
 11
536.0458307863253
 21
-626.2528068233968
 31
0.0
1001
ACAD
1000
DSTYLE
1002
{
1070
    45
1040
0.5
1002
}
  0
LINE
  5
2219C
330
18
100
AcDbEntity
  8
1DIM
100
AcDbLine
 10
536.0458307863253
 20
-658.3194734900637
 30
0.0
 11
536.0458307863253
 21
-637.3194734900637
 31
0.0
1001
ACAD
1000
DSTYLE
1002
{
1070
    45
1040
0.5
1002
}
  0
LINE
  5
221A1
330
18
100
AcDbEntity
  8
1DIM
100
AcDbLine
 10
568.9870256316229
 20
-633.9413854591937
 30
0.0
 11
572.1225533430843
 21
-621.8131369041812
 31
0.0
1001
ACAD
1000
DSTYLE
1002
{
1070
    45
1040
0.5
1002
}
  0
LINE
  5
221A2
330
18
100
AcDbEntity
  8
1DIM
100
AcDbLine
 10
572.1225533430843
 20
-621.8131369041812
 30
0.0
 11
611.8058866764177
 21
-621.8131369041812
 31
0.0
1001
ACAD
1000
DSTYLE
1002
{
1070
    45
1040
0.5
1002
}
  0
TEXT
  5
221A3
330
18
100
AcDbEntity
  8
1DIM
  6
CONTINUOUS
100
AcDbText
 10
574.589220009751
 20
-615.2798035708478
 30
0.0
 40
3.5
  1
材質：ステンレス
100
AcDbText
  0
TEXT
  5
221A4
330
18
100
AcDbEntity
  8
1DIM
  6
CONTINUOUS
100
AcDbText
 10
574.7058866764177
 20
-621.1131369041811
 30
0.0
 40
3.5
  1
仕上げ：各種仕上げ
100
AcDbText
  0
LINE
  5
221A6
330
18
100
AcDbEntity
  8
1DIM
100
AcDbLine
 10
604.9715670970514
 20
-661.2058081710767
 30
0.0
 11
598.7792061833095
 21
-671.4660214568751
 31
0.0
1001
ACAD
1000
DSTYLE
1002
{
1070
    45
1040
0.5
1002
}
  0
LINE
  5
221A7
330
18
100
AcDbEntity
  8
1DIM
100
AcDbLine
 10
598.7792061833095
 20
-671.4660214568751
 30
0.0
 11
551.5125395166428
 21
-671.4660214568751
 31
0.0
1001
ACAD
1000
DSTYLE
1002
{
1070
    45
1040
0.5
1002
}
  0
TEXT
  5
221A8
330
18
100
AcDbEntity
  8
1DIM
  6
CONTINUOUS
100
AcDbText
 10
551.2792061833094
 20
-664.9326881235417
 30
0.0
 40
3.5
  1
材質：亜鉛ダイキャスト
100
AcDbText
  0
TEXT
  5
221A9
330
18
100
AcDbEntity
  8
1DIM
  6
CONTINUOUS
100
AcDbText
 10
559.2125395166428
 20
-670.766021456875
 30
0.0
 40
3.5
  1
仕上げ：各種メッキ
100
AcDbText
  0
LINE
  5
221AA
330
18
100
AcDbEntity
  8
1DIM
100
AcDbLine
 10
682.7577798150973
 20
-659.3194734876774
 30
0.0
 11
682.7577798150973
 21
-697.8912836721927
 31
0.0
1001
ACAD
1000
DSTYLE
1002
{
1070
    45
1040
0.5
1002
}
  0
LINE
  5
221AB
330
18
100
AcDbEntity
  8
1DIM
100
AcDbLine
 10
727.2577798150973
 20
-687.6758206582399
 30
0.0
 11
727.2577798150973
 21
-697.8912836721927
 31
0.0
1001
ACAD
1000
DSTYLE
1002
{
1070
    45
1040
0.5
1002
}
  0
LINE
  5
221AC
330
18
100
AcDbEntity
  8
1DIM
100
AcDbLine
 10
684.7577798150973
 20
-696.8912836721927
 30
0.0
 11
725.2577798150973
 21
-696.8912836721927
 31
0.0
1001
ACAD
1000
DSTYLE
1002
{
1070
    45
1040
0.5
1002
}
  0
LINE
  5
221B0
330
18
100
AcDbEntity
  8
1DIM
100
AcDbLine
 10
727.2577798150973
 20
-687.6758206582399
 30
0.0
 11
727.2577798150973
 21
-685.0476470729595
 31
0.0
1001
ACAD
1000
DSTYLE
1002
{
1070
    45
1040
0.5
1002
}
  0
LINE
  5
221B1
330
18
100
AcDbEntity
  8
1DIM
100
AcDbLine
 10
709.0577617613039
 20
-662.259252652653
 30
0.0
 11
709.0577617613039
 21
-687.0476470729595
 31
0.0
1001
ACAD
1000
DSTYLE
1002
{
1070
    45
1040
0.5
1002
}
  0
LINE
  5
221B2
330
18
100
AcDbEntity
  8
1DIM
100
AcDbLine
 10
725.2577798150973
 20
-686.0476470729595
 30
0.0
 11
711.0577617613039
 21
-686.0476470729595
 31
0.0
1001
ACAD
1000
DSTYLE
1002
{
1070
    45
1040
0.5
1002
}
  0
LINE
  5
221B6
330
18
100
AcDbEntity
  8
1DIM1
100
AcDbLine
 10
156.8162416153639
 20
-659.3194734876774
 30
0.0
 11
156.8162416153639
 21
-726.4194734900652
 31
0.0
1001
ACAD
1000
DSTYLE
1002
{
1070
    40
1040
3.0
1070
    45
1040
0.5
1002
}
  0
LINE
  5
221B7
330
18
100
AcDbEntity
  8
1DIM1
100
AcDbLine
 10
634.816241615364
 20
-659.3194734876774
 30
0.0
 11
634.816241615364
 21
-726.4194734900652
 31
0.0
1001
ACAD
1000
DSTYLE
1002
{
1070
    40
1040
3.0
1070
    45
1040
0.5
1002
}
  0
LINE
  5
221B8
330
18
100
AcDbEntity
  8
1DIM1
100
AcDbLine
 10
162.8162416153639
 20
-723.4194734900652
 30
0.0
 11
628.816241615364
 21
-723.4194734900652
 31
0.0
1001
ACAD
1000
DSTYLE
1002
{
1070
    40
1040
3.0
1070
    45
1040
0.5
1002
}
  0
LINE
  5
221BC
330
18
100
AcDbEntity
  8
1DIM
100
AcDbLine
 10
634.8162416153643
 20
-553.1250906605958
 30
0.0
 11
634.8162416153643
 21
-517.1250906605958
 31
0.0
1001
ACAD
1000
DSTYLE
1002
{
1070
    45
1040
0.5
1002
}
  0
LINE
  5
221BD
330
18
100
AcDbEntity
  8
1DIM
100
AcDbLine
 10
604.816241615364
 20
-553.1250906605958
 30
0.0
 11
604.816241615364
 21
-517.1250906605958
 31
0.0
1001
ACAD
1000
DSTYLE
1002
{
1070
    45
1040
0.5
1002
}
  0
LINE
  5
221BE
330
18
100
AcDbEntity
  8
1DIM
100
AcDbLine
 10
632.8162416153643
 20
-518.1250906605958
 30
0.0
 11
606.816241615364
 21
-518.1250906605958
 31
0.0
1001
ACAD
1000
DSTYLE
1002
{
1070
    45
1040
0.5
1002
}
  0
LINE
  5
221C2
330
18
100
AcDbEntity
  8
1DIM1
100
AcDbLine
 10
170.8162416153635
 20
-652.519473487677
 30
0.0
 11
170.8162416153635
 21
-706.4194734900652
 31
0.0
1001
ACAD
1000
DSTYLE
1002
{
1070
    40
1040
3.0
1070
    45
1040
0.5
1002
}
  0
LINE
  5
221C3
330
18
100
AcDbEntity
  8
1DIM1
100
AcDbLine
 10
620.8162416153644
 20
-652.519473487677
 30
0.0
 11
620.8162416153644
 21
-706.4194734900652
 31
0.0
1001
ACAD
1000
DSTYLE
1002
{
1070
    40
1040
3.0
1070
    45
1040
0.5
1002
}
  0
LINE
  5
221C4
330
18
100
AcDbEntity
  8
1DIM1
100
AcDbLine
 10
176.8162416153635
 20
-703.4194734900652
 30
0.0
 11
614.8162416153644
 21
-703.4194734900652
 31
0.0
1001
ACAD
1000
DSTYLE
1002
{
1070
    40
1040
3.0
1070
    45
1040
0.5
1002
}
  0
LINE
  5
221C8
330
18
100
AcDbEntity
  8
0
100
AcDbLine
 10
620.8162881512624
 20
-522.1250906607577
 30
0.0
 11
619.3162881512624
 21
-527.4250871706193
 31
0.0
  0
LINE
  5
221C9
330
18
100
AcDbEntity
  8
0
100
AcDbLine
 10
619.3162881512624
 20
-527.4250871706193
 30
0.0
 11
619.3162881512626
 21
-557.1250871705113
 31
0.0
  0
LINE
  5
221CA
330
18
100
AcDbEntity
  8
0
100
AcDbLine
 10
620.8162881512624
 20
-522.1250906607577
 30
0.0
 11
622.3162881512625
 21
-527.425094151003
 31
0.0
  0
LINE
  5
221CB
330
18
100
AcDbEntity
  8
0
100
AcDbLine
 10
617.3162416153646
 20
-557.1250825168131
 30
0.0
 11
624.3162416153644
 21
-557.1250988043776
 31
0.0
  0
LINE
  5
221CC
330
18
100
AcDbEntity
  8
0
100
AcDbLine
 10
622.3162881512625
 20
-527.425094151003
 30
0.0
 11
622.3162881512626
 21
-557.125094150896
 31
0.0
  0
LINE
  5
221CD
330
18
100
AcDbEntity
  8
0
100
AcDbLine
 10
617.3162416153646
 20
-557.1250825168131
 30
0.0
 11
617.3162416153644
 21
-558.2250860070085
 31
0.0
  0
ARC
  5
221CE
330
18
100
AcDbEntity
  8
0
100
AcDbCircle
 10
618.8162416153644
 20
-558.2250860070085
 30
0.0
 40
1.5
100
AcDbArc
 50
180.0
 51
269.9998666844662
  0
LINE
  5
221CF
330
18
100
AcDbEntity
  8
0
100
AcDbLine
 10
624.3162416153644
 20
-557.1250988043776
 30
0.0
 11
624.3162416153644
 21
-558.2250953141881
 31
0.0
  0
LINE
  5
221D0
330
18
100
AcDbEntity
  8
0
100
AcDbLine
 10
618.816238125172
 20
-559.7250860070044
 30
0.0
 11
622.816238125172
 21
-559.725095314184
 31
0.0
  0
ARC
  5
221D1
330
18
100
AcDbEntity
  8
0
100
AcDbCircle
 10
622.8162416153644
 20
-558.2250953141881
 30
0.0
 40
1.5
100
AcDbArc
 50
269.9998666844662
 51
0.0
  0
LINE
  5
221D2
330
18
100
AcDbEntity
  8
1CENTER
100
AcDbLine
 10
620.8162416153644
 20
-520.6942957432923
 30
0.0
 11
620.8162416153644
 21
-560.7953670699042
 31
0.0
  0
LINE
  5
221D3
330
18
100
AcDbEntity
  8
0
100
AcDbLine
 10
619.7219178013694
 20
-524.2250881144355
 30
0.0
 11
621.6842528902448
 21
-523.4250926803845
 31
0.0
  0
LINE
  5
221D4
330
18
100
AcDbEntity
  8
0
100
AcDbLine
 10
621.6842528902448
 20
-523.4250926803845
 30
0.0
 11
621.0959763152024
 21
-523.1133228241324
 31
0.0
  0
LINE
  5
221D5
330
18
100
AcDbEntity
  8
0
100
AcDbLine
 10
618.8162881512624
 20
-546.6250860072255
 30
0.0
 11
622.8162881512624
 21
-545.8250953144072
 31
0.0
  0
LINE
  5
221D6
330
18
100
AcDbEntity
  8
0
100
AcDbLine
 10
618.8162881512624
 20
-535.4250860072211
 30
0.0
 11
622.8162881512624
 21
-534.6250953143985
 31
0.0
  0
LINE
  5
221D7
330
18
100
AcDbEntity
  8
0
100
AcDbLine
 10
618.8162881512624
 20
-532.2250860072211
 30
0.0
 11
622.8162881512624
 21
-531.4250953143985
 31
0.0
  0
LINE
  5
221D8
330
18
100
AcDbEntity
  8
0
100
AcDbLine
 10
622.8162881512624
 20
-531.4250953143985
 30
0.0
 11
622.3162881512624
 21
-531.3250941510013
 31
0.0
  0
LINE
  5
221D9
330
18
100
AcDbEntity
  8
0
100
AcDbLine
 10
619.3162881512624
 20
-530.7250871706183
 30
0.0
 11
618.8162881512624
 21
-530.6250860072211
 31
0.0
  0
LINE
  5
221DA
330
18
100
AcDbEntity
  8
0
100
AcDbLine
 10
622.8162881512624
 20
-534.6250953143985
 30
0.0
 11
622.3162881512624
 21
-534.5250941510013
 31
0.0
  0
LINE
  5
221DB
330
18
100
AcDbEntity
  8
0
100
AcDbLine
 10
622.8162881512624
 20
-533.0250953143984
 30
0.0
 11
622.3162881512624
 21
-532.9250941510013
 31
0.0
  0
LINE
  5
221DC
330
18
100
AcDbEntity
  8
0
100
AcDbLine
 10
619.3162881512624
 20
-532.3250871706182
 30
0.0
 11
618.8162881512624
 21
-532.2250860072211
 31
0.0
  0
LINE
  5
221DD
330
18
100
AcDbEntity
  8
0
100
AcDbLine
 10
619.3162881512624
 20
-533.9250871706181
 30
0.0
 11
618.8162881512624
 21
-533.825086007221
 31
0.0
  0
LINE
  5
221DE
330
18
100
AcDbEntity
  8
0
100
AcDbLine
 10
618.8162881512624
 20
-533.825086007221
 30
0.0
 11
622.8162881512624
 21
-533.0250953143984
 31
0.0
  0
LINE
  5
221DF
330
18
100
AcDbEntity
  8
0
100
AcDbLine
 10
622.1370669946516
 20
-525.0250937339902
 30
0.0
 11
621.5853175308483
 21
-524.8423295913622
 31
0.0
  0
LINE
  5
221E0
330
18
100
AcDbEntity
  8
0
100
AcDbLine
 10
622.8162881512624
 20
-528.2250953143985
 30
0.0
 11
622.3162881512624
 21
-528.1250941510013
 31
0.0
  0
LINE
  5
221E1
330
18
100
AcDbEntity
  8
0
100
AcDbLine
 10
622.8162881512624
 20
-529.8250953143985
 30
0.0
 11
622.3162881512624
 21
-529.7250941510015
 31
0.0
  0
LINE
  5
221E2
330
18
100
AcDbEntity
  8
0
100
AcDbLine
 10
622.5898810990584
 20
-526.6250947875958
 30
0.0
 11
622.0532873637873
 21
-526.4958240899659
 31
0.0
  0
LINE
  5
221E3
330
18
100
AcDbEntity
  8
0
100
AcDbLine
 10
619.7372027484711
 20
-525.9378565731813
 30
0.0
 11
619.2691042933211
 21
-525.8250870608313
 31
0.0
  0
LINE
  5
221E4
330
18
100
AcDbEntity
  8
0
100
AcDbLine
 10
619.3162881512624
 20
-529.1250871706181
 30
0.0
 11
618.8162881512624
 21
-529.025086007221
 31
0.0
  0
LINE
  5
221E5
330
18
100
AcDbEntity
  8
0
100
AcDbLine
 10
619.3162881512624
 20
-527.5250871706182
 30
0.0
 11
618.8162881512624
 21
-527.4250860072211
 31
0.0
  0
LINE
  5
221E6
330
18
100
AcDbEntity
  8
0
100
AcDbLine
 10
620.1790896420005
 20
-524.3765239108759
 30
0.0
 11
619.7219178013694
 21
-524.2250881144355
 31
0.0
  0
LINE
  5
221E7
330
18
100
AcDbEntity
  8
0
100
AcDbLine
 10
619.2691042933211
 20
-525.8250870608313
 30
0.0
 11
622.1370669946516
 21
-525.0250937339902
 31
0.0
  0
LINE
  5
221E8
330
18
100
AcDbEntity
  8
0
100
AcDbLine
 10
618.8162881512624
 20
-529.025086007221
 30
0.0
 11
622.8162881512624
 21
-528.2250953143985
 31
0.0
  0
LINE
  5
221E9
330
18
100
AcDbEntity
  8
0
100
AcDbLine
 10
618.8162881512624
 20
-527.4250860072211
 30
0.0
 11
622.5898810990584
 21
-526.6250947875958
 31
0.0
  0
LINE
  5
221EA
330
18
100
AcDbEntity
  8
0
100
AcDbLine
 10
618.8162881512624
 20
-530.6250860072211
 30
0.0
 11
622.8162881512624
 21
-529.8250953143985
 31
0.0
  0
LINE
  5
221EB
330
18
100
AcDbEntity
  8
0
100
AcDbLine
 10
618.8162881512624
 20
-543.4250860072254
 30
0.0
 11
622.8162881512624
 21
-542.6250953144072
 31
0.0
  0
LINE
  5
221EC
330
18
100
AcDbEntity
  8
0
100
AcDbLine
 10
622.8162881512624
 20
-542.6250953144072
 30
0.0
 11
622.3162881512624
 21
-542.5250941510095
 31
0.0
  0
LINE
  5
221ED
330
18
100
AcDbEntity
  8
0
100
AcDbLine
 10
619.3162881512624
 20
-541.9250871706188
 30
0.0
 11
618.8162881512624
 21
-541.8250860072211
 31
0.0
  0
LINE
  5
221EE
330
18
100
AcDbEntity
  8
0
100
AcDbLine
 10
622.8162881512624
 20
-544.2250953144073
 30
0.0
 11
622.3162881512624
 21
-544.1250941510096
 31
0.0
  0
LINE
  5
221EF
330
18
100
AcDbEntity
  8
0
100
AcDbLine
 10
622.8162881512624
 20
-545.8250953144072
 30
0.0
 11
622.3162881512624
 21
-545.7250941510096
 31
0.0
  0
LINE
  5
221F0
330
18
100
AcDbEntity
  8
0
100
AcDbLine
 10
619.3162881512624
 20
-543.5250871706231
 30
0.0
 11
618.8162881512624
 21
-543.4250860072254
 31
0.0
  0
LINE
  5
221F1
330
18
100
AcDbEntity
  8
0
100
AcDbLine
 10
619.3162881512624
 20
-545.1250871706233
 30
0.0
 11
618.8162881512624
 21
-545.0250860072256
 31
0.0
  0
LINE
  5
221F2
330
18
100
AcDbEntity
  8
0
100
AcDbLine
 10
618.8162881512624
 20
-545.0250860072256
 30
0.0
 11
622.8162881512624
 21
-544.2250953144073
 31
0.0
  0
LINE
  5
221F3
330
18
100
AcDbEntity
  8
0
100
AcDbLine
 10
622.8162881512624
 20
-537.8250953144028
 30
0.0
 11
622.3162881512624
 21
-537.7250941510051
 31
0.0
  0
LINE
  5
221F4
330
18
100
AcDbEntity
  8
0
100
AcDbLine
 10
622.8162881512624
 20
-536.2250953143985
 30
0.0
 11
622.3162881512624
 21
-536.1250941510013
 31
0.0
  0
LINE
  5
221F5
330
18
100
AcDbEntity
  8
0
100
AcDbLine
 10
622.8162881512624
 20
-541.0250953144028
 30
0.0
 11
622.3162881512624
 21
-540.9250941510052
 31
0.0
  0
LINE
  5
221F6
330
18
100
AcDbEntity
  8
0
100
AcDbLine
 10
622.8162881512624
 20
-539.4250953144029
 30
0.0
 11
622.3162881512624
 21
-539.3250941510053
 31
0.0
  0
LINE
  5
221F7
330
18
100
AcDbEntity
  8
0
100
AcDbLine
 10
619.3162881512624
 20
-535.5250871706182
 30
0.0
 11
618.8162881512624
 21
-535.4250860072211
 31
0.0
  0
LINE
  5
221F8
330
18
100
AcDbEntity
  8
0
100
AcDbLine
 10
619.3162881512624
 20
-537.1250871706188
 30
0.0
 11
618.8162881512624
 21
-537.025086007221
 31
0.0
  0
LINE
  5
221F9
330
18
100
AcDbEntity
  8
0
100
AcDbLine
 10
619.3162881512624
 20
-540.3250871706189
 30
0.0
 11
618.8162881512624
 21
-540.2250860072212
 31
0.0
  0
LINE
  5
221FA
330
18
100
AcDbEntity
  8
0
100
AcDbLine
 10
619.3162881512624
 20
-538.7250871706187
 30
0.0
 11
618.8162881512624
 21
-538.6250860072211
 31
0.0
  0
LINE
  5
221FB
330
18
100
AcDbEntity
  8
0
100
AcDbLine
 10
618.8162881512624
 20
-538.6250860072211
 30
0.0
 11
622.8162881512624
 21
-537.8250953144028
 31
0.0
  0
LINE
  5
221FC
330
18
100
AcDbEntity
  8
0
100
AcDbLine
 10
618.8162881512624
 20
-537.025086007221
 30
0.0
 11
622.8162881512624
 21
-536.2250953143985
 31
0.0
  0
LINE
  5
221FD
330
18
100
AcDbEntity
  8
0
100
AcDbLine
 10
618.8162881512624
 20
-540.2250860072212
 30
0.0
 11
622.8162881512624
 21
-539.4250953144029
 31
0.0
  0
LINE
  5
221FE
330
18
100
AcDbEntity
  8
0
100
AcDbLine
 10
618.8162881512624
 20
-541.8250860072211
 30
0.0
 11
622.8162881512624
 21
-541.0250953144028
 31
0.0
  0
LINE
  5
221FF
330
18
100
AcDbEntity
  8
0
100
AcDbLine
 10
619.3162881512624
 20
-551.5250871706273
 30
0.0
 11
618.8162881512624
 21
-551.4250860072297
 31
0.0
  0
LINE
  5
22200
330
18
100
AcDbEntity
  8
0
100
AcDbLine
 10
618.8162881512624
 20
-551.4250860072297
 30
0.0
 11
622.8162881512624
 21
-550.6250953144114
 31
0.0
  0
LINE
  5
22201
330
18
100
AcDbEntity
  8
0
100
AcDbLine
 10
622.8162881512624
 20
-550.6250953144114
 30
0.0
 11
622.3162881512624
 21
-550.5250941510137
 31
0.0
  0
LINE
  5
22202
330
18
100
AcDbEntity
  8
0
100
AcDbLine
 10
619.3162881512624
 20
-549.9250871706274
 30
0.0
 11
618.8162881512624
 21
-549.8250860072297
 31
0.0
  0
LINE
  5
22203
330
18
100
AcDbEntity
  8
0
100
AcDbLine
 10
619.3162881512624
 20
-548.3250871706275
 30
0.0
 11
618.8162881512624
 21
-548.2250860072298
 31
0.0
  0
LINE
  5
22204
330
18
100
AcDbEntity
  8
0
100
AcDbLine
 10
618.8162881512624
 20
-548.2250860072298
 30
0.0
 11
622.8162881512624
 21
-547.4250953144116
 31
0.0
  0
LINE
  5
22205
330
18
100
AcDbEntity
  8
0
100
AcDbLine
 10
622.8162881512624
 20
-549.0250953144115
 30
0.0
 11
622.3162881512624
 21
-548.9250941510138
 31
0.0
  0
LINE
  5
22206
330
18
100
AcDbEntity
  8
0
100
AcDbLine
 10
622.8162881512624
 20
-547.4250953144116
 30
0.0
 11
622.3162881512624
 21
-547.3250941510139
 31
0.0
  0
LINE
  5
22207
330
18
100
AcDbEntity
  8
0
100
AcDbLine
 10
618.8162881512624
 20
-549.8250860072297
 30
0.0
 11
622.8162881512624
 21
-549.0250953144115
 31
0.0
  0
LINE
  5
22208
330
18
100
AcDbEntity
  8
0
100
AcDbLine
 10
619.3162881512624
 20
-546.7250871706232
 30
0.0
 11
618.8162881512624
 21
-546.6250860072255
 31
0.0
  0
LINE
  5
22209
330
18
100
AcDbEntity
  8
0
100
AcDbLine
 10
619.3162881512624
 20
-553.1250871706272
 30
0.0
 11
618.8162881512624
 21
-553.0250860072296
 31
0.0
  0
LINE
  5
2220A
330
18
100
AcDbEntity
  8
0
100
AcDbLine
 10
618.8162881512624
 20
-553.0250860072296
 30
0.0
 11
622.8162881512624
 21
-552.2250953144113
 31
0.0
  0
LINE
  5
2220B
330
18
100
AcDbEntity
  8
0
100
AcDbLine
 10
622.8162881512624
 20
-552.2250953144113
 30
0.0
 11
622.3162881512624
 21
-552.1250941510136
 31
0.0
  0
LINE
  5
2220C
330
18
100
AcDbEntity
  8
0
100
AcDbLine
 10
619.3162881512624
 20
-554.7250871706271
 30
0.0
 11
618.8162881512624
 21
-554.6250860072295
 31
0.0
  0
LINE
  5
2220D
330
18
100
AcDbEntity
  8
0
100
AcDbLine
 10
618.8162881512624
 20
-554.6250860072295
 30
0.0
 11
622.8162881512624
 21
-553.8250953144112
 31
0.0
  0
LINE
  5
2220E
330
18
100
AcDbEntity
  8
0
100
AcDbLine
 10
622.8162881512624
 20
-553.8250953144112
 30
0.0
 11
622.3162881512624
 21
-553.7250941510135
 31
0.0
  0
LINE
  5
2220F
330
18
100
AcDbEntity
  8
0
100
AcDbLine
 10
619.3162881512624
 20
-556.3250871706271
 30
0.0
 11
618.8162881512624
 21
-556.2250860072294
 31
0.0
  0
LINE
  5
22210
330
18
100
AcDbEntity
  8
0
100
AcDbLine
 10
618.8162881512624
 20
-556.2250860072294
 30
0.0
 11
622.8162881512624
 21
-555.4250953144111
 31
0.0
  0
LINE
  5
22211
330
18
100
AcDbEntity
  8
0
100
AcDbLine
 10
622.8162881512624
 20
-555.4250953144111
 30
0.0
 11
622.3162881512624
 21
-555.3250941510134
 31
0.0
  0
LINE
  5
22212
330
18
100
AcDbEntity
  8
0
100
AcDbLine
 10
170.8162881512614
 20
-522.1250906607577
 30
0.0
 11
169.3162881512614
 21
-527.4250871706193
 31
0.0
  0
LINE
  5
22213
330
18
100
AcDbEntity
  8
0
100
AcDbLine
 10
169.3162881512614
 20
-527.4250871706193
 30
0.0
 11
169.3162881512616
 21
-557.1250871705113
 31
0.0
  0
LINE
  5
22214
330
18
100
AcDbEntity
  8
0
100
AcDbLine
 10
170.8162881512614
 20
-522.1250906607577
 30
0.0
 11
172.3162881512615
 21
-527.425094151003
 31
0.0
  0
LINE
  5
22215
330
18
100
AcDbEntity
  8
0
100
AcDbLine
 10
167.3162416153636
 20
-557.1250825168131
 30
0.0
 11
174.3162416153635
 21
-557.1250988043776
 31
0.0
  0
LINE
  5
22216
330
18
100
AcDbEntity
  8
0
100
AcDbLine
 10
172.3162881512615
 20
-527.425094151003
 30
0.0
 11
172.3162881512616
 21
-557.125094150896
 31
0.0
  0
LINE
  5
22217
330
18
100
AcDbEntity
  8
0
100
AcDbLine
 10
167.3162416153636
 20
-557.1250825168131
 30
0.0
 11
167.3162416153635
 21
-558.2250860070085
 31
0.0
  0
ARC
  5
22218
330
18
100
AcDbEntity
  8
0
100
AcDbCircle
 10
168.8162416153635
 20
-558.2250860070085
 30
0.0
 40
1.5
100
AcDbArc
 50
180.0
 51
269.9998666844684
  0
LINE
  5
22219
330
18
100
AcDbEntity
  8
0
100
AcDbLine
 10
174.3162416153635
 20
-557.1250988043776
 30
0.0
 11
174.3162416153635
 21
-558.2250953141881
 31
0.0
  0
LINE
  5
2221A
330
18
100
AcDbEntity
  8
0
100
AcDbLine
 10
168.8162381251711
 20
-559.7250860070044
 30
0.0
 11
172.8162381251711
 21
-559.725095314184
 31
0.0
  0
ARC
  5
2221B
330
18
100
AcDbEntity
  8
0
100
AcDbCircle
 10
172.8162416153635
 20
-558.2250953141881
 30
0.0
 40
1.5
100
AcDbArc
 50
269.9998666844684
 51
0.0
  0
LINE
  5
2221C
330
18
100
AcDbEntity
  8
1CENTER
100
AcDbLine
 10
170.8162416153635
 20
-520.6942957432923
 30
0.0
 11
170.8162416153635
 21
-560.7953670699042
 31
0.0
  0
LINE
  5
2221D
330
18
100
AcDbEntity
  8
0
100
AcDbLine
 10
169.7219178013684
 20
-524.2250881144355
 30
0.0
 11
171.6842528902438
 21
-523.4250926803845
 31
0.0
  0
LINE
  5
2221E
330
18
100
AcDbEntity
  8
0
100
AcDbLine
 10
171.6842528902438
 20
-523.4250926803845
 30
0.0
 11
171.0959763152014
 21
-523.1133228241324
 31
0.0
  0
LINE
  5
2221F
330
18
100
AcDbEntity
  8
0
100
AcDbLine
 10
168.8162881512614
 20
-546.6250860072255
 30
0.0
 11
172.8162881512614
 21
-545.8250953144072
 31
0.0
  0
LINE
  5
22220
330
18
100
AcDbEntity
  8
0
100
AcDbLine
 10
168.8162881512614
 20
-535.4250860072211
 30
0.0
 11
172.8162881512614
 21
-534.6250953143985
 31
0.0
  0
LINE
  5
22221
330
18
100
AcDbEntity
  8
0
100
AcDbLine
 10
168.8162881512614
 20
-532.2250860072211
 30
0.0
 11
172.8162881512614
 21
-531.4250953143985
 31
0.0
  0
LINE
  5
22222
330
18
100
AcDbEntity
  8
0
100
AcDbLine
 10
172.8162881512614
 20
-531.4250953143985
 30
0.0
 11
172.3162881512614
 21
-531.3250941510013
 31
0.0
  0
LINE
  5
22223
330
18
100
AcDbEntity
  8
0
100
AcDbLine
 10
169.3162881512614
 20
-530.7250871706183
 30
0.0
 11
168.8162881512614
 21
-530.6250860072211
 31
0.0
  0
LINE
  5
22224
330
18
100
AcDbEntity
  8
0
100
AcDbLine
 10
172.8162881512614
 20
-534.6250953143985
 30
0.0
 11
172.3162881512614
 21
-534.5250941510013
 31
0.0
  0
LINE
  5
22225
330
18
100
AcDbEntity
  8
0
100
AcDbLine
 10
172.8162881512614
 20
-533.0250953143984
 30
0.0
 11
172.3162881512614
 21
-532.9250941510013
 31
0.0
  0
LINE
  5
22226
330
18
100
AcDbEntity
  8
0
100
AcDbLine
 10
169.3162881512614
 20
-532.3250871706182
 30
0.0
 11
168.8162881512614
 21
-532.2250860072211
 31
0.0
  0
LINE
  5
22227
330
18
100
AcDbEntity
  8
0
100
AcDbLine
 10
169.3162881512614
 20
-533.9250871706181
 30
0.0
 11
168.8162881512614
 21
-533.825086007221
 31
0.0
  0
LINE
  5
22228
330
18
100
AcDbEntity
  8
0
100
AcDbLine
 10
168.8162881512614
 20
-533.825086007221
 30
0.0
 11
172.8162881512614
 21
-533.0250953143984
 31
0.0
  0
LINE
  5
22229
330
18
100
AcDbEntity
  8
0
100
AcDbLine
 10
172.1370669946506
 20
-525.0250937339902
 30
0.0
 11
171.5853175308474
 21
-524.8423295913622
 31
0.0
  0
LINE
  5
2222A
330
18
100
AcDbEntity
  8
0
100
AcDbLine
 10
172.8162881512614
 20
-528.2250953143985
 30
0.0
 11
172.3162881512614
 21
-528.1250941510013
 31
0.0
  0
LINE
  5
2222B
330
18
100
AcDbEntity
  8
0
100
AcDbLine
 10
172.8162881512614
 20
-529.8250953143985
 30
0.0
 11
172.3162881512614
 21
-529.7250941510015
 31
0.0
  0
LINE
  5
2222C
330
18
100
AcDbEntity
  8
0
100
AcDbLine
 10
172.5898810990574
 20
-526.6250947875958
 30
0.0
 11
172.0532873637863
 21
-526.4958240899659
 31
0.0
  0
LINE
  5
2222D
330
18
100
AcDbEntity
  8
0
100
AcDbLine
 10
169.7372027484701
 20
-525.9378565731813
 30
0.0
 11
169.2691042933201
 21
-525.8250870608313
 31
0.0
  0
LINE
  5
2222E
330
18
100
AcDbEntity
  8
0
100
AcDbLine
 10
169.3162881512614
 20
-529.1250871706181
 30
0.0
 11
168.8162881512614
 21
-529.025086007221
 31
0.0
  0
LINE
  5
2222F
330
18
100
AcDbEntity
  8
0
100
AcDbLine
 10
169.3162881512614
 20
-527.5250871706182
 30
0.0
 11
168.8162881512614
 21
-527.4250860072211
 31
0.0
  0
LINE
  5
22230
330
18
100
AcDbEntity
  8
0
100
AcDbLine
 10
170.1790896419995
 20
-524.3765239108759
 30
0.0
 11
169.7219178013684
 21
-524.2250881144355
 31
0.0
  0
LINE
  5
22231
330
18
100
AcDbEntity
  8
0
100
AcDbLine
 10
169.2691042933201
 20
-525.8250870608313
 30
0.0
 11
172.1370669946506
 21
-525.0250937339902
 31
0.0
  0
LINE
  5
22232
330
18
100
AcDbEntity
  8
0
100
AcDbLine
 10
168.8162881512614
 20
-529.025086007221
 30
0.0
 11
172.8162881512614
 21
-528.2250953143985
 31
0.0
  0
LINE
  5
22233
330
18
100
AcDbEntity
  8
0
100
AcDbLine
 10
168.8162881512614
 20
-527.4250860072211
 30
0.0
 11
172.5898810990574
 21
-526.6250947875958
 31
0.0
  0
LINE
  5
22234
330
18
100
AcDbEntity
  8
0
100
AcDbLine
 10
168.8162881512614
 20
-530.6250860072211
 30
0.0
 11
172.8162881512614
 21
-529.8250953143985
 31
0.0
  0
LINE
  5
22235
330
18
100
AcDbEntity
  8
0
100
AcDbLine
 10
168.8162881512614
 20
-543.4250860072254
 30
0.0
 11
172.8162881512614
 21
-542.6250953144072
 31
0.0
  0
LINE
  5
22236
330
18
100
AcDbEntity
  8
0
100
AcDbLine
 10
172.8162881512614
 20
-542.6250953144072
 30
0.0
 11
172.3162881512614
 21
-542.5250941510095
 31
0.0
  0
LINE
  5
22237
330
18
100
AcDbEntity
  8
0
100
AcDbLine
 10
169.3162881512614
 20
-541.9250871706188
 30
0.0
 11
168.8162881512614
 21
-541.8250860072211
 31
0.0
  0
LINE
  5
22238
330
18
100
AcDbEntity
  8
0
100
AcDbLine
 10
172.8162881512614
 20
-544.2250953144073
 30
0.0
 11
172.3162881512614
 21
-544.1250941510096
 31
0.0
  0
LINE
  5
22239
330
18
100
AcDbEntity
  8
0
100
AcDbLine
 10
172.8162881512614
 20
-545.8250953144072
 30
0.0
 11
172.3162881512614
 21
-545.7250941510096
 31
0.0
  0
LINE
  5
2223A
330
18
100
AcDbEntity
  8
0
100
AcDbLine
 10
169.3162881512614
 20
-543.5250871706231
 30
0.0
 11
168.8162881512614
 21
-543.4250860072254
 31
0.0
  0
LINE
  5
2223B
330
18
100
AcDbEntity
  8
0
100
AcDbLine
 10
169.3162881512614
 20
-545.1250871706233
 30
0.0
 11
168.8162881512614
 21
-545.0250860072256
 31
0.0
  0
LINE
  5
2223C
330
18
100
AcDbEntity
  8
0
100
AcDbLine
 10
168.8162881512614
 20
-545.0250860072256
 30
0.0
 11
172.8162881512614
 21
-544.2250953144073
 31
0.0
  0
LINE
  5
2223D
330
18
100
AcDbEntity
  8
0
100
AcDbLine
 10
172.8162881512614
 20
-537.8250953144028
 30
0.0
 11
172.3162881512614
 21
-537.7250941510051
 31
0.0
  0
LINE
  5
2223E
330
18
100
AcDbEntity
  8
0
100
AcDbLine
 10
172.8162881512614
 20
-536.2250953143985
 30
0.0
 11
172.3162881512614
 21
-536.1250941510013
 31
0.0
  0
LINE
  5
2223F
330
18
100
AcDbEntity
  8
0
100
AcDbLine
 10
172.8162881512614
 20
-541.0250953144028
 30
0.0
 11
172.3162881512614
 21
-540.9250941510052
 31
0.0
  0
LINE
  5
22240
330
18
100
AcDbEntity
  8
0
100
AcDbLine
 10
172.8162881512614
 20
-539.4250953144029
 30
0.0
 11
172.3162881512614
 21
-539.3250941510053
 31
0.0
  0
LINE
  5
22241
330
18
100
AcDbEntity
  8
0
100
AcDbLine
 10
169.3162881512614
 20
-535.5250871706182
 30
0.0
 11
168.8162881512614
 21
-535.4250860072211
 31
0.0
  0
LINE
  5
22242
330
18
100
AcDbEntity
  8
0
100
AcDbLine
 10
169.3162881512614
 20
-537.1250871706188
 30
0.0
 11
168.8162881512614
 21
-537.025086007221
 31
0.0
  0
LINE
  5
22243
330
18
100
AcDbEntity
  8
0
100
AcDbLine
 10
169.3162881512614
 20
-540.3250871706189
 30
0.0
 11
168.8162881512614
 21
-540.2250860072212
 31
0.0
  0
LINE
  5
22244
330
18
100
AcDbEntity
  8
0
100
AcDbLine
 10
169.3162881512614
 20
-538.7250871706187
 30
0.0
 11
168.8162881512614
 21
-538.6250860072211
 31
0.0
  0
LINE
  5
22245
330
18
100
AcDbEntity
  8
0
100
AcDbLine
 10
168.8162881512614
 20
-538.6250860072211
 30
0.0
 11
172.8162881512614
 21
-537.8250953144028
 31
0.0
  0
LINE
  5
22246
330
18
100
AcDbEntity
  8
0
100
AcDbLine
 10
168.8162881512614
 20
-537.025086007221
 30
0.0
 11
172.8162881512614
 21
-536.2250953143985
 31
0.0
  0
LINE
  5
22247
330
18
100
AcDbEntity
  8
0
100
AcDbLine
 10
168.8162881512614
 20
-540.2250860072212
 30
0.0
 11
172.8162881512614
 21
-539.4250953144029
 31
0.0
  0
LINE
  5
22248
330
18
100
AcDbEntity
  8
0
100
AcDbLine
 10
168.8162881512614
 20
-541.8250860072211
 30
0.0
 11
172.8162881512614
 21
-541.0250953144028
 31
0.0
  0
LINE
  5
22249
330
18
100
AcDbEntity
  8
0
100
AcDbLine
 10
169.3162881512614
 20
-551.5250871706273
 30
0.0
 11
168.8162881512614
 21
-551.4250860072297
 31
0.0
  0
LINE
  5
2224A
330
18
100
AcDbEntity
  8
0
100
AcDbLine
 10
168.8162881512614
 20
-551.4250860072297
 30
0.0
 11
172.8162881512614
 21
-550.6250953144114
 31
0.0
  0
LINE
  5
2224B
330
18
100
AcDbEntity
  8
0
100
AcDbLine
 10
172.8162881512614
 20
-550.6250953144114
 30
0.0
 11
172.3162881512614
 21
-550.5250941510137
 31
0.0
  0
LINE
  5
2224C
330
18
100
AcDbEntity
  8
0
100
AcDbLine
 10
169.3162881512614
 20
-549.9250871706274
 30
0.0
 11
168.8162881512614
 21
-549.8250860072297
 31
0.0
  0
LINE
  5
2224D
330
18
100
AcDbEntity
  8
0
100
AcDbLine
 10
169.3162881512614
 20
-548.3250871706275
 30
0.0
 11
168.8162881512614
 21
-548.2250860072298
 31
0.0
  0
LINE
  5
2224E
330
18
100
AcDbEntity
  8
0
100
AcDbLine
 10
168.8162881512614
 20
-548.2250860072298
 30
0.0
 11
172.8162881512614
 21
-547.4250953144116
 31
0.0
  0
LINE
  5
2224F
330
18
100
AcDbEntity
  8
0
100
AcDbLine
 10
172.8162881512614
 20
-549.0250953144115
 30
0.0
 11
172.3162881512614
 21
-548.9250941510138
 31
0.0
  0
LINE
  5
22250
330
18
100
AcDbEntity
  8
0
100
AcDbLine
 10
172.8162881512614
 20
-547.4250953144116
 30
0.0
 11
172.3162881512614
 21
-547.3250941510139
 31
0.0
  0
LINE
  5
22251
330
18
100
AcDbEntity
  8
0
100
AcDbLine
 10
168.8162881512614
 20
-549.8250860072297
 30
0.0
 11
172.8162881512614
 21
-549.0250953144115
 31
0.0
  0
LINE
  5
22252
330
18
100
AcDbEntity
  8
0
100
AcDbLine
 10
169.3162881512614
 20
-546.7250871706232
 30
0.0
 11
168.8162881512614
 21
-546.6250860072255
 31
0.0
  0
LINE
  5
22253
330
18
100
AcDbEntity
  8
0
100
AcDbLine
 10
169.3162881512614
 20
-553.1250871706272
 30
0.0
 11
168.8162881512614
 21
-553.0250860072296
 31
0.0
  0
LINE
  5
22254
330
18
100
AcDbEntity
  8
0
100
AcDbLine
 10
168.8162881512614
 20
-553.0250860072296
 30
0.0
 11
172.8162881512614
 21
-552.2250953144113
 31
0.0
  0
LINE
  5
22255
330
18
100
AcDbEntity
  8
0
100
AcDbLine
 10
172.8162881512614
 20
-552.2250953144113
 30
0.0
 11
172.3162881512614
 21
-552.1250941510136
 31
0.0
  0
LINE
  5
22256
330
18
100
AcDbEntity
  8
0
100
AcDbLine
 10
169.3162881512614
 20
-554.7250871706271
 30
0.0
 11
168.8162881512614
 21
-554.6250860072295
 31
0.0
  0
LINE
  5
22257
330
18
100
AcDbEntity
  8
0
100
AcDbLine
 10
168.8162881512614
 20
-554.6250860072295
 30
0.0
 11
172.8162881512614
 21
-553.8250953144112
 31
0.0
  0
LINE
  5
22258
330
18
100
AcDbEntity
  8
0
100
AcDbLine
 10
172.8162881512614
 20
-553.8250953144112
 30
0.0
 11
172.3162881512614
 21
-553.7250941510135
 31
0.0
  0
LINE
  5
22259
330
18
100
AcDbEntity
  8
0
100
AcDbLine
 10
169.3162881512614
 20
-556.3250871706271
 30
0.0
 11
168.8162881512614
 21
-556.2250860072294
 31
0.0
  0
LINE
  5
2225A
330
18
100
AcDbEntity
  8
0
100
AcDbLine
 10
168.8162881512614
 20
-556.2250860072294
 30
0.0
 11
172.8162881512614
 21
-555.4250953144111
 31
0.0
  0
LINE
  5
2225B
330
18
100
AcDbEntity
  8
0
100
AcDbLine
 10
172.8162881512614
 20
-555.4250953144111
 30
0.0
 11
172.3162881512614
 21
-555.3250941510134
 31
0.0
  0
LINE
  5
2225D
330
18
100
AcDbEntity
  8
1HATCH
100
AcDbLine
 10
710.7080124943786
 20
-652.319512113393
 30
0.0
 11
710.7078044788055
 21
-657.6695238628437
 31
0.0
  0
LINE
  5
2225E
330
18
100
AcDbEntity
  8
1HATCH
100
AcDbLine
 10
707.408012494435
 20
-652.31949070688
 30
0.0
 11
707.4078044791822
 21
-657.6694680196644
 31
0.0
  0
LINE
  5
2225F
330
18
100
AcDbEntity
  8
1HATCH
100
AcDbLine
 10
711.0580098248493
 20
-652.6695153708956
 30
0.0
 11
707.0580098249364
 21
-652.6694874493569
 31
0.0
  0
LINE
  5
22260
330
18
100
AcDbEntity
  8
0
100
AcDbLine
 10
713.0577826069845
 20
-660.0195293307671
 30
0.0
 11
705.0577826071576
 21
-660.0194734876897
 31
0.0
  0
LINE
  5
22261
330
18
100
AcDbEntity
  8
1HATCH
100
AcDbLine
 10
710.7078044788055
 20
-657.6695238628437
 30
0.0
 11
711.0578012213002
 21
-658.0195246772154
 31
0.0
  0
LINE
  5
22262
330
18
100
AcDbEntity
  8
1HATCH
100
AcDbLine
 10
707.4078044791822
 20
-657.6694680196644
 30
0.0
 11
707.0578012216467
 21
-658.019468834051
 31
0.0
  0
LINE
  5
22263
330
18
100
AcDbEntity
  8
1CENTER
100
AcDbLine
 10
709.0580307503014
 20
-650.358016250774
 30
0.0
 11
709.0577617613039
 21
-662.2592526526529
 31
0.0
  0
LINE
  5
22264
330
18
100
AcDbEntity
  8
0
100
AcDbLine
 10
758.0577798149349
 20
-648.6195200204708
 30
0.0
 11
752.7577833050732
 21
-647.1195200204708
 31
0.0
  0
LINE
  5
22265
330
18
100
AcDbEntity
  8
0
100
AcDbLine
 10
752.7577833050732
 20
-647.1195200204708
 30
0.0
 11
723.0577833051813
 21
-647.119520020471
 31
0.0
  0
LINE
  5
22266
330
18
100
AcDbEntity
  8
0
100
AcDbLine
 10
758.0577798149349
 20
-648.6195200204708
 30
0.0
 11
752.7577763246895
 21
-650.1195200204709
 31
0.0
  0
LINE
  5
22267
330
18
100
AcDbEntity
  8
0
100
AcDbLine
 10
723.0577879588794
 20
-645.119473484573
 30
0.0
 11
723.057771671315
 21
-652.1194734845728
 31
0.0
  0
LINE
  5
22268
330
18
100
AcDbEntity
  8
0
100
AcDbLine
 10
752.7577763246895
 20
-650.1195200204709
 30
0.0
 11
723.0577763247966
 21
-650.119520020471
 31
0.0
  0
LINE
  5
22269
330
18
100
AcDbEntity
  8
0
100
AcDbLine
 10
723.0577879588794
 20
-645.119473484573
 30
0.0
 11
721.957784468684
 21
-645.1194734845728
 31
0.0
  0
ARC
  5
2226A
330
18
100
AcDbEntity
  8
0
100
AcDbCircle
 10
721.957784468684
 20
-646.6194734845728
 30
0.0
 40
1.5
100
AcDbArc
 50
90.0
 51
179.9998666844663
  0
LINE
  5
2226B
330
18
100
AcDbEntity
  8
0
100
AcDbLine
 10
723.057771671315
 20
-652.1194734845728
 30
0.0
 11
721.9577751615044
 21
-652.1194734845728
 31
0.0
  0
LINE
  5
2226C
330
18
100
AcDbEntity
  8
0
100
AcDbLine
 10
720.4577844686881
 20
-646.6194699943804
 30
0.0
 11
720.4577751615085
 21
-650.6194699943804
 31
0.0
  0
ARC
  5
2226D
330
18
100
AcDbEntity
  8
0
100
AcDbCircle
 10
721.9577751615044
 20
-650.6194734845728
 30
0.0
 40
1.5
100
AcDbArc
 50
179.9998666844663
 51
270.0
  0
LINE
  5
2226E
330
18
100
AcDbEntity
  8
1CENTER
100
AcDbLine
 10
759.4885747324003
 20
-648.6194734845728
 30
0.0
 11
719.3875034057884
 21
-648.6194734845728
 31
0.0
  0
LINE
  5
2226F
330
18
100
AcDbEntity
  8
0
100
AcDbLine
 10
755.957782361257
 20
-647.5251496705778
 30
0.0
 11
756.757777795308
 21
-649.4874847594532
 31
0.0
  0
LINE
  5
22270
330
18
100
AcDbEntity
  8
0
100
AcDbLine
 10
756.757777795308
 20
-649.4874847594532
 30
0.0
 11
757.0695476515601
 21
-648.8992081844108
 31
0.0
  0
LINE
  5
22271
330
18
100
AcDbEntity
  8
0
100
AcDbLine
 10
733.557784468467
 20
-646.6195200204708
 30
0.0
 11
734.3577751612853
 21
-650.6195200204708
 31
0.0
  0
LINE
  5
22272
330
18
100
AcDbEntity
  8
0
100
AcDbLine
 10
744.7577844684714
 20
-646.6195200204708
 30
0.0
 11
745.557775161294
 21
-650.6195200204708
 31
0.0
  0
LINE
  5
22273
330
18
100
AcDbEntity
  8
0
100
AcDbLine
 10
747.9577844684715
 20
-646.6195200204708
 30
0.0
 11
748.757775161294
 21
-650.6195200204708
 31
0.0
  0
LINE
  5
22274
330
18
100
AcDbEntity
  8
0
100
AcDbLine
 10
748.757775161294
 20
-650.6195200204708
 30
0.0
 11
748.8577763246913
 21
-650.1195200204708
 31
0.0
  0
LINE
  5
22275
330
18
100
AcDbEntity
  8
0
100
AcDbLine
 10
749.4577833050743
 20
-647.1195200204708
 30
0.0
 11
749.5577844684715
 21
-646.6195200204708
 31
0.0
  0
LINE
  5
22276
330
18
100
AcDbEntity
  8
0
100
AcDbLine
 10
745.557775161294
 20
-650.6195200204708
 30
0.0
 11
745.6577763246912
 21
-650.1195200204708
 31
0.0
  0
LINE
  5
22277
330
18
100
AcDbEntity
  8
0
100
AcDbLine
 10
747.1577751612941
 20
-650.6195200204708
 30
0.0
 11
747.2577763246912
 21
-650.1195200204708
 31
0.0
  0
LINE
  5
22278
330
18
100
AcDbEntity
  8
0
100
AcDbLine
 10
747.8577833050743
 20
-647.1195200204708
 30
0.0
 11
747.9577844684715
 21
-646.6195200204708
 31
0.0
  0
LINE
  5
22279
330
18
100
AcDbEntity
  8
0
100
AcDbLine
 10
746.2577833050744
 20
-647.1195200204708
 30
0.0
 11
746.3577844684716
 21
-646.6195200204708
 31
0.0
  0
LINE
  5
2227A
330
18
100
AcDbEntity
  8
0
100
AcDbLine
 10
746.3577844684716
 20
-646.6195200204708
 30
0.0
 11
747.1577751612941
 21
-650.6195200204708
 31
0.0
  0
LINE
  5
2227B
330
18
100
AcDbEntity
  8
0
100
AcDbLine
 10
755.1577767417024
 20
-649.94029886386
 30
0.0
 11
755.3405408843304
 21
-649.3885494000567
 31
0.0
  0
LINE
  5
2227C
330
18
100
AcDbEntity
  8
0
100
AcDbLine
 10
751.9577751612941
 20
-650.6195200204708
 30
0.0
 11
752.0577763246912
 21
-650.1195200204708
 31
0.0
  0
LINE
  5
2227D
330
18
100
AcDbEntity
  8
0
100
AcDbLine
 10
750.3577751612941
 20
-650.6195200204708
 30
0.0
 11
750.457776324691
 21
-650.1195200204708
 31
0.0
  0
LINE
  5
2227E
330
18
100
AcDbEntity
  8
0
100
AcDbLine
 10
753.5577756880967
 20
-650.3931129682668
 30
0.0
 11
753.6870463857266
 21
-649.8565192329957
 31
0.0
  0
LINE
  5
2227F
330
18
100
AcDbEntity
  8
0
100
AcDbLine
 10
754.2450139025112
 20
-647.5404346176795
 30
0.0
 11
754.3577834148613
 21
-647.0723361625295
 31
0.0
  0
LINE
  5
22280
330
18
100
AcDbEntity
  8
0
100
AcDbLine
 10
751.0577833050744
 20
-647.1195200204708
 30
0.0
 11
751.1577844684715
 21
-646.6195200204708
 31
0.0
  0
LINE
  5
22281
330
18
100
AcDbEntity
  8
0
100
AcDbLine
 10
752.6577833050743
 20
-647.1195200204708
 30
0.0
 11
752.7577844684714
 21
-646.6195200204708
 31
0.0
  0
LINE
  5
22282
330
18
100
AcDbEntity
  8
0
100
AcDbLine
 10
755.8063465648166
 20
-647.9823215112089
 30
0.0
 11
755.957782361257
 21
-647.5251496705778
 31
0.0
  0
LINE
  5
22283
330
18
100
AcDbEntity
  8
0
100
AcDbLine
 10
754.3577834148613
 20
-647.0723361625295
 30
0.0
 11
755.1577767417024
 21
-649.94029886386
 31
0.0
  0
LINE
  5
22284
330
18
100
AcDbEntity
  8
0
100
AcDbLine
 10
751.1577844684715
 20
-646.6195200204708
 30
0.0
 11
751.9577751612941
 21
-650.6195200204708
 31
0.0
  0
LINE
  5
22285
330
18
100
AcDbEntity
  8
0
100
AcDbLine
 10
752.7577844684714
 20
-646.6195200204708
 30
0.0
 11
753.5577756880967
 21
-650.3931129682668
 31
0.0
  0
LINE
  5
22286
330
18
100
AcDbEntity
  8
0
100
AcDbLine
 10
749.5577844684715
 20
-646.6195200204708
 30
0.0
 11
750.3577751612941
 21
-650.6195200204708
 31
0.0
  0
LINE
  5
22287
330
18
100
AcDbEntity
  8
0
100
AcDbLine
 10
736.7577844684671
 20
-646.6195200204708
 30
0.0
 11
737.5577751612853
 21
-650.6195200204708
 31
0.0
  0
LINE
  5
22288
330
18
100
AcDbEntity
  8
0
100
AcDbLine
 10
737.5577751612853
 20
-650.6195200204708
 30
0.0
 11
737.657776324683
 21
-650.1195200204708
 31
0.0
  0
LINE
  5
22289
330
18
100
AcDbEntity
  8
0
100
AcDbLine
 10
738.2577833050738
 20
-647.1195200204708
 30
0.0
 11
738.3577844684714
 21
-646.6195200204708
 31
0.0
  0
LINE
  5
2228A
330
18
100
AcDbEntity
  8
0
100
AcDbLine
 10
735.9577751612852
 20
-650.6195200204708
 30
0.0
 11
736.0577763246829
 21
-650.1195200204708
 31
0.0
  0
LINE
  5
2228B
330
18
100
AcDbEntity
  8
0
100
AcDbLine
 10
734.3577751612853
 20
-650.6195200204708
 30
0.0
 11
734.457776324683
 21
-650.1195200204708
 31
0.0
  0
LINE
  5
2228C
330
18
100
AcDbEntity
  8
0
100
AcDbLine
 10
736.6577833050694
 20
-647.1195200204708
 30
0.0
 11
736.7577844684671
 21
-646.6195200204708
 31
0.0
  0
LINE
  5
2228D
330
18
100
AcDbEntity
  8
0
100
AcDbLine
 10
735.0577833050693
 20
-647.1195200204708
 30
0.0
 11
735.157784468467
 21
-646.6195200204708
 31
0.0
  0
LINE
  5
2228E
330
18
100
AcDbEntity
  8
0
100
AcDbLine
 10
735.157784468467
 20
-646.6195200204708
 30
0.0
 11
735.9577751612852
 21
-650.6195200204708
 31
0.0
  0
LINE
  5
2228F
330
18
100
AcDbEntity
  8
0
100
AcDbLine
 10
742.3577751612897
 20
-650.6195200204708
 30
0.0
 11
742.4577763246874
 21
-650.1195200204708
 31
0.0
  0
LINE
  5
22290
330
18
100
AcDbEntity
  8
0
100
AcDbLine
 10
743.9577751612941
 20
-650.6195200204708
 30
0.0
 11
744.0577763246912
 21
-650.1195200204708
 31
0.0
  0
LINE
  5
22291
330
18
100
AcDbEntity
  8
0
100
AcDbLine
 10
739.1577751612897
 20
-650.6195200204708
 30
0.0
 11
739.2577763246874
 21
-650.1195200204708
 31
0.0
  0
LINE
  5
22292
330
18
100
AcDbEntity
  8
0
100
AcDbLine
 10
740.7577751612896
 20
-650.6195200204708
 30
0.0
 11
740.8577763246873
 21
-650.1195200204708
 31
0.0
  0
LINE
  5
22293
330
18
100
AcDbEntity
  8
0
100
AcDbLine
 10
744.6577833050743
 20
-647.1195200204708
 30
0.0
 11
744.7577844684714
 21
-646.6195200204708
 31
0.0
  0
LINE
  5
22294
330
18
100
AcDbEntity
  8
0
100
AcDbLine
 10
743.0577833050737
 20
-647.1195200204708
 30
0.0
 11
743.1577844684715
 21
-646.6195200204708
 31
0.0
  0
LINE
  5
22295
330
18
100
AcDbEntity
  8
0
100
AcDbLine
 10
739.8577833050737
 20
-647.1195200204708
 30
0.0
 11
739.9577844684713
 21
-646.6195200204708
 31
0.0
  0
LINE
  5
22296
330
18
100
AcDbEntity
  8
0
100
AcDbLine
 10
741.4577833050738
 20
-647.1195200204708
 30
0.0
 11
741.5577844684715
 21
-646.6195200204708
 31
0.0
  0
LINE
  5
22297
330
18
100
AcDbEntity
  8
0
100
AcDbLine
 10
741.5577844684715
 20
-646.6195200204708
 30
0.0
 11
742.3577751612897
 21
-650.6195200204708
 31
0.0
  0
LINE
  5
22298
330
18
100
AcDbEntity
  8
0
100
AcDbLine
 10
743.1577844684715
 20
-646.6195200204708
 30
0.0
 11
743.9577751612941
 21
-650.6195200204708
 31
0.0
  0
LINE
  5
22299
330
18
100
AcDbEntity
  8
0
100
AcDbLine
 10
739.9577844684713
 20
-646.6195200204708
 30
0.0
 11
740.7577751612896
 21
-650.6195200204708
 31
0.0
  0
LINE
  5
2229A
330
18
100
AcDbEntity
  8
0
100
AcDbLine
 10
738.3577844684714
 20
-646.6195200204708
 30
0.0
 11
739.1577751612897
 21
-650.6195200204708
 31
0.0
  0
LINE
  5
2229B
330
18
100
AcDbEntity
  8
0
100
AcDbLine
 10
728.6577833050652
 20
-647.1195200204708
 30
0.0
 11
728.7577844684629
 21
-646.6195200204708
 31
0.0
  0
LINE
  5
2229C
330
18
100
AcDbEntity
  8
0
100
AcDbLine
 10
728.7577844684629
 20
-646.6195200204708
 30
0.0
 11
729.5577751612811
 21
-650.6195200204708
 31
0.0
  0
LINE
  5
2229D
330
18
100
AcDbEntity
  8
0
100
AcDbLine
 10
729.5577751612811
 20
-650.6195200204708
 30
0.0
 11
729.6577763246788
 21
-650.1195200204708
 31
0.0
  0
LINE
  5
2229E
330
18
100
AcDbEntity
  8
0
100
AcDbLine
 10
730.2577833050651
 20
-647.1195200204708
 30
0.0
 11
730.3577844684628
 21
-646.6195200204708
 31
0.0
  0
LINE
  5
2229F
330
18
100
AcDbEntity
  8
0
100
AcDbLine
 10
731.857783305065
 20
-647.1195200204708
 30
0.0
 11
731.9577844684627
 21
-646.6195200204708
 31
0.0
  0
LINE
  5
222A0
330
18
100
AcDbEntity
  8
0
100
AcDbLine
 10
731.9577844684627
 20
-646.6195200204708
 30
0.0
 11
732.757775161281
 21
-650.6195200204708
 31
0.0
  0
LINE
  5
222A1
330
18
100
AcDbEntity
  8
0
100
AcDbLine
 10
731.157775161281
 20
-650.6195200204708
 30
0.0
 11
731.2577763246787
 21
-650.1195200204708
 31
0.0
  0
LINE
  5
222A2
330
18
100
AcDbEntity
  8
0
100
AcDbLine
 10
732.757775161281
 20
-650.6195200204708
 30
0.0
 11
732.8577763246786
 21
-650.1195200204708
 31
0.0
  0
LINE
  5
222A3
330
18
100
AcDbEntity
  8
0
100
AcDbLine
 10
730.3577844684628
 20
-646.6195200204708
 30
0.0
 11
731.157775161281
 21
-650.6195200204708
 31
0.0
  0
LINE
  5
222A4
330
18
100
AcDbEntity
  8
0
100
AcDbLine
 10
733.4577833050694
 20
-647.1195200204708
 30
0.0
 11
733.557784468467
 21
-646.6195200204708
 31
0.0
  0
LINE
  5
222A5
330
18
100
AcDbEntity
  8
0
100
AcDbLine
 10
727.0577833050653
 20
-647.1195200204708
 30
0.0
 11
727.157784468463
 21
-646.6195200204708
 31
0.0
  0
LINE
  5
222A6
330
18
100
AcDbEntity
  8
0
100
AcDbLine
 10
727.157784468463
 20
-646.6195200204708
 30
0.0
 11
727.9577751612812
 21
-650.6195200204708
 31
0.0
  0
LINE
  5
222A7
330
18
100
AcDbEntity
  8
0
100
AcDbLine
 10
727.9577751612812
 20
-650.6195200204708
 30
0.0
 11
728.0577763246789
 21
-650.1195200204708
 31
0.0
  0
LINE
  5
222A8
330
18
100
AcDbEntity
  8
0
100
AcDbLine
 10
725.4577833050654
 20
-647.1195200204708
 30
0.0
 11
725.5577844684631
 21
-646.6195200204708
 31
0.0
  0
LINE
  5
222A9
330
18
100
AcDbEntity
  8
0
100
AcDbLine
 10
725.5577844684631
 20
-646.6195200204708
 30
0.0
 11
726.3577751612813
 21
-650.6195200204708
 31
0.0
  0
LINE
  5
222AA
330
18
100
AcDbEntity
  8
0
100
AcDbLine
 10
726.3577751612813
 20
-650.6195200204708
 30
0.0
 11
726.457776324679
 21
-650.1195200204708
 31
0.0
  0
LINE
  5
222AB
330
18
100
AcDbEntity
  8
0
100
AcDbLine
 10
723.8577833050655
 20
-647.1195200204708
 30
0.0
 11
723.9577844684632
 21
-646.6195200204708
 31
0.0
  0
LINE
  5
222AC
330
18
100
AcDbEntity
  8
0
100
AcDbLine
 10
723.9577844684632
 20
-646.6195200204708
 30
0.0
 11
724.7577751612814
 21
-650.6195200204708
 31
0.0
  0
LINE
  5
222AD
330
18
100
AcDbEntity
  8
0
100
AcDbLine
 10
724.7577751612814
 20
-650.6195200204708
 30
0.0
 11
724.8577763246791
 21
-650.1195200204708
 31
0.0
  0
LINE
  5
222AE
330
18
100
AcDbEntity
  8
1DIM
100
AcDbLine
 10
547.0228426350358
 20
-597.1250906605958
 30
0.0
 11
542.118406062766
 21
-597.1250906605958
 31
0.0
  0
LINE
  5
222AF
330
18
100
AcDbEntity
  8
1DIM
100
AcDbLine
 10
547.0228426350358
 20
-588.1250906605958
 30
0.0
 11
542.118406062766
 21
-588.1250906605958
 31
0.0
  0
LINE
  5
222B0
330
18
100
AcDbEntity
  8
1DIM
100
AcDbLine
 10
543.118406062766
 20
-588.1250906605958
 30
0.0
 11
543.118406062766
 21
-581.163118722248
 31
0.0
  0
LINE
  5
222B1
330
18
100
AcDbEntity
  8
1DIM
100
AcDbLine
 10
543.118406062766
 20
-595.1250906605958
 30
0.0
 11
543.118406062766
 21
-590.1250906605958
 31
0.0
  0
LINE
  5
222B5
330
18
100
AcDbEntity
  8
1DIM
100
AcDbLine
 10
727.0577798150972
 20
-660.6194734876774
 30
0.0
 11
780.862472150651
 21
-660.6194734876774
 31
0.0
1001
ACAD
1000
DSTYLE
1002
{
1070
    45
1040
0.5
1002
}
  0
LINE
  5
222B6
330
18
100
AcDbEntity
  8
1DIM
100
AcDbLine
 10
727.0577798150972
 20
-635.0194734876775
 30
0.0
 11
780.862472150651
 21
-635.0194734876775
 31
0.0
1001
ACAD
1000
DSTYLE
1002
{
1070
    45
1040
0.5
1002
}
  0
LINE
  5
222B7
330
18
100
AcDbEntity
  8
1DIM
100
AcDbLine
 10
779.862472150651
 20
-658.6194734876774
 30
0.0
 11
779.862472150651
 21
-637.0194734876775
 31
0.0
1001
ACAD
1000
DSTYLE
1002
{
1070
    45
1040
0.5
1002
}
  0
LINE
  5
222BB
330
18
100
AcDbEntity
  8
1DIM
100
AcDbLine
 10
759.4885747324003
 20
-648.6194734845728
 30
0.0
 11
768.6859229037212
 21
-648.6194734845728
 31
0.0
1001
ACAD
1000
DSTYLE
1002
{
1070
    45
1040
0.5
1002
}
  0
LINE
  5
222BC
330
18
100
AcDbEntity
  8
1DIM
100
AcDbLine
 10
727.0577798150972
 20
-635.0194734876775
 30
0.0
 11
768.6859229037212
 21
-635.0194734876775
 31
0.0
1001
ACAD
1000
DSTYLE
1002
{
1070
    45
1040
0.5
1002
}
  0
LINE
  5
222BD
330
18
100
AcDbEntity
  8
1DIM
100
AcDbLine
 10
767.6859229037212
 20
-646.6194734845728
 30
0.0
 11
767.6859229037212
 21
-637.0194734876775
 31
0.0
1001
ACAD
1000
DSTYLE
1002
{
1070
    45
1040
0.5
1002
}
  0
LINE
  5
222C2
330
18
100
AcDbEntity
  8
1DIM
100
AcDbLine
 10
730.58630251809
 20
-616.8644304960285
 30
0.0
 11
733.2952953259197
 21
-604.0884044405584
 31
0.0
1001
ACAD
1000
DSTYLE
1002
{
1070
    45
1040
0.5
1002
}
  0
LINE
  5
222C4
330
18
100
AcDbEntity
  8
1DIM
100
AcDbLine
 10
743.7217206632552
 20
-616.8644304960285
 30
0.0
 11
746.4307134710849
 21
-604.0884044405584
 31
0.0
1001
ACAD
1000
DSTYLE
1002
{
1070
    45
1040
0.5
1002
}
  0
LINE
  5
222C5
330
18
100
AcDbEntity
  8
0
  6
BYBLOCK
100
AcDbLine
 10
536.5817291663253
 20
-658.3194734900637
 30
0.0
 11
536.0458307863253
 21
-660.3194734900637
 31
0.0
  0
LINE
  5
222C6
330
18
100
AcDbEntity
  8
0
  6
BYBLOCK
100
AcDbLine
 10
536.0458307863253
 20
-660.3194734900637
 30
0.0
 11
535.5099324063252
 21
-658.3194734900637
 31
0.0
  0
LINE
  5
222C7
330
18
100
AcDbEntity
  8
0
  6
BYBLOCK
100
AcDbLine
 10
536.0458307863253
 20
-660.3194734900637
 30
0.0
 11
536.0458307863253
 21
-658.3194734900637
 31
0.0
  0
LINE
  5
222C8
330
18
100
AcDbEntity
  8
0
  6
BYBLOCK
100
AcDbLine
 10
535.5099324063252
 20
-637.3194734900637
 30
0.0
 11
536.0458307863253
 21
-635.3194734900637
 31
0.0
  0
LINE
  5
222C9
330
18
100
AcDbEntity
  8
0
  6
BYBLOCK
100
AcDbLine
 10
536.0458307863253
 20
-635.3194734900637
 30
0.0
 11
536.5817291663253
 21
-637.3194734900637
 31
0.0
  0
LINE
  5
222CA
330
18
100
AcDbEntity
  8
0
  6
BYBLOCK
100
AcDbLine
 10
536.0458307863253
 20
-635.3194734900637
 30
0.0
 11
536.0458307863253
 21
-637.3194734900637
 31
0.0
  0
TEXT
  5
222CB
330
18
100
AcDbEntity
  8
1DIM
  6
CONTINUOUS
100
AcDbText
 10
535.3458307863253
 20
-632.7028068233968
 30
0.0
 40
3.5
  1
25
 50
90.0
100
AcDbText
1001
ACAD
1000
DSTYLE
1002
{
1070
    45
1040
0.5
1002
}
  0
LINE
  5
222CC
330
18
100
AcDbEntity
  8
0
  6
BYBLOCK
100
AcDbLine
 10
569.5058652769873
 20
-634.0755215694874
 30
0.0
 11
568.486422848335
 21
-635.8777213942433
 31
0.0
  0
LINE
  5
222CD
330
18
100
AcDbEntity
  8
0
  6
BYBLOCK
100
AcDbLine
 10
568.486422848335
 20
-635.8777213942433
 30
0.0
 11
568.4681859862585
 21
-633.8072493489
 31
0.0
  0
LINE
  5
222CE
330
18
100
AcDbEntity
  8
0
  6
BYBLOCK
100
AcDbLine
 10
568.486422848335
 20
-635.8777213942433
 30
0.0
 11
568.9870256316229
 21
-633.9413854591937
 31
0.0
  0
LINE
  5
222CF
330
18
100
AcDbEntity
  8
0
  6
BYBLOCK
100
AcDbLine
 10
604.5127543888483
 20
-660.9289002938361
 30
0.0
 11
606.0050013733056
 21
-659.4934958173681
 31
0.0
  0
LINE
  5
222D0
330
18
100
AcDbEntity
  8
0
  6
BYBLOCK
100
AcDbLine
 10
606.0050013733056
 20
-659.4934958173681
 30
0.0
 11
605.4303798052547
 21
-661.4827160483172
 31
0.0
  0
LINE
  5
222D1
330
18
100
AcDbEntity
  8
0
  6
BYBLOCK
100
AcDbLine
 10
606.0050013733056
 20
-659.4934958173681
 30
0.0
 11
604.9715670970514
 21
-661.2058081710767
 31
0.0
  0
LINE
  5
222D2
330
18
100
AcDbEntity
  8
0
  6
BYBLOCK
100
AcDbLine
 10
684.7577798150973
 20
-697.4271820521927
 30
0.0
 11
682.7577798150973
 21
-696.8912836721927
 31
0.0
  0
LINE
  5
222D3
330
18
100
AcDbEntity
  8
0
  6
BYBLOCK
100
AcDbLine
 10
682.7577798150973
 20
-696.8912836721927
 30
0.0
 11
684.7577798150973
 21
-696.3553852921926
 31
0.0
  0
LINE
  5
222D4
330
18
100
AcDbEntity
  8
0
  6
BYBLOCK
100
AcDbLine
 10
682.7577798150973
 20
-696.8912836721927
 30
0.0
 11
684.7577798150973
 21
-696.8912836721927
 31
0.0
  0
LINE
  5
222D5
330
18
100
AcDbEntity
  8
0
  6
BYBLOCK
100
AcDbLine
 10
725.2577798150973
 20
-696.3553852921926
 30
0.0
 11
727.2577798150973
 21
-696.8912836721927
 31
0.0
  0
LINE
  5
222D6
330
18
100
AcDbEntity
  8
0
  6
BYBLOCK
100
AcDbLine
 10
727.2577798150973
 20
-696.8912836721927
 30
0.0
 11
725.2577798150973
 21
-697.4271820521927
 31
0.0
  0
LINE
  5
222D7
330
18
100
AcDbEntity
  8
0
  6
BYBLOCK
100
AcDbLine
 10
727.2577798150973
 20
-696.8912836721927
 30
0.0
 11
725.2577798150973
 21
-696.8912836721927
 31
0.0
  0
TEXT
  5
222D8
330
18
100
AcDbEntity
  8
1DIM
  6
CONTINUOUS
100
AcDbText
 10
699.7577798150973
 20
-696.1912836721928
 30
0.0
 40
3.5
  1
44.5
100
AcDbText
1001
ACAD
1000
DSTYLE
1002
{
1070
    45
1040
0.5
1002
}
  0
LINE
  5
222D9
330
18
100
AcDbEntity
  8
0
  6
BYBLOCK
100
AcDbLine
 10
725.2577798150973
 20
-685.5117486929595
 30
0.0
 11
727.2577798150973
 21
-686.0476470729595
 31
0.0
  0
LINE
  5
222DA
330
18
100
AcDbEntity
  8
0
  6
BYBLOCK
100
AcDbLine
 10
727.2577798150973
 20
-686.0476470729595
 30
0.0
 11
725.2577798150973
 21
-686.5835454529596
 31
0.0
  0
LINE
  5
222DB
330
18
100
AcDbEntity
  8
0
  6
BYBLOCK
100
AcDbLine
 10
727.2577798150973
 20
-686.0476470729595
 30
0.0
 11
725.2577798150973
 21
-686.0476470729595
 31
0.0
  0
LINE
  5
222DC
330
18
100
AcDbEntity
  8
0
  6
BYBLOCK
100
AcDbLine
 10
711.0577617613039
 20
-686.5835454529596
 30
0.0
 11
709.0577617613039
 21
-686.0476470729595
 31
0.0
  0
LINE
  5
222DD
330
18
100
AcDbEntity
  8
0
  6
BYBLOCK
100
AcDbLine
 10
709.0577617613039
 20
-686.0476470729595
 30
0.0
 11
711.0577617613039
 21
-685.5117486929595
 31
0.0
  0
LINE
  5
222DE
330
18
100
AcDbEntity
  8
0
  6
BYBLOCK
100
AcDbLine
 10
709.0577617613039
 20
-686.0476470729595
 30
0.0
 11
711.0577617613039
 21
-686.0476470729595
 31
0.0
  0
TEXT
  5
222DF
330
18
100
AcDbEntity
  8
1DIM
  6
CONTINUOUS
100
AcDbText
 10
715.8244374548673
 20
-685.3476470729595
 30
0.0
 40
3.5
  1
18
100
AcDbText
1001
ACAD
1000
DSTYLE
1002
{
1070
    45
1040
0.5
1002
}
  0
LINE
  5
222E0
330
18
100
AcDbEntity
  8
0
  6
BYBLOCK
100
AcDbLine
 10
162.8162416153639
 20
-725.0271686300653
 30
0.0
 11
156.8162416153639
 21
-723.4194734900652
 31
0.0
  0
LINE
  5
222E1
330
18
100
AcDbEntity
  8
0
  6
BYBLOCK
100
AcDbLine
 10
156.8162416153639
 20
-723.4194734900652
 30
0.0
 11
162.8162416153639
 21
-721.8117783500652
 31
0.0
  0
LINE
  5
222E2
330
18
100
AcDbEntity
  8
0
  6
BYBLOCK
100
AcDbLine
 10
156.8162416153639
 20
-723.4194734900652
 30
0.0
 11
162.8162416153639
 21
-723.4194734900652
 31
0.0
  0
LINE
  5
222E3
330
18
100
AcDbEntity
  8
0
  6
BYBLOCK
100
AcDbLine
 10
628.816241615364
 20
-721.8117783500652
 30
0.0
 11
634.816241615364
 21
-723.4194734900652
 31
0.0
  0
LINE
  5
222E4
330
18
100
AcDbEntity
  8
0
  6
BYBLOCK
100
AcDbLine
 10
634.816241615364
 20
-723.4194734900652
 30
0.0
 11
628.816241615364
 21
-725.0271686300653
 31
0.0
  0
LINE
  5
222E5
330
18
100
AcDbEntity
  8
0
  6
BYBLOCK
100
AcDbLine
 10
634.816241615364
 20
-723.4194734900652
 30
0.0
 11
628.816241615364
 21
-723.4194734900652
 31
0.0
  0
TEXT
  5
222E6
330
18
100
AcDbEntity
  8
1DIM1
  6
CONTINUOUS
100
AcDbText
 10
381.816241615364
 20
-721.3194734900652
 30
0.0
 40
10.5
  1
478
100
AcDbText
1001
ACAD
1000
DSTYLE
1002
{
1070
    40
1040
3.0
1070
    45
1040
0.5
1002
}
  0
LINE
  5
222E7
330
18
100
AcDbEntity
  8
0
  6
BYBLOCK
100
AcDbLine
 10
632.8162416153643
 20
-517.5891922805957
 30
0.0
 11
634.8162416153643
 21
-518.1250906605958
 31
0.0
  0
LINE
  5
222E8
330
18
100
AcDbEntity
  8
0
  6
BYBLOCK
100
AcDbLine
 10
634.8162416153643
 20
-518.1250906605958
 30
0.0
 11
632.8162416153643
 21
-518.6609890405958
 31
0.0
  0
LINE
  5
222E9
330
18
100
AcDbEntity
  8
0
  6
BYBLOCK
100
AcDbLine
 10
634.8162416153643
 20
-518.1250906605958
 30
0.0
 11
632.8162416153643
 21
-518.1250906605958
 31
0.0
  0
LINE
  5
222EA
330
18
100
AcDbEntity
  8
0
  6
BYBLOCK
100
AcDbLine
 10
606.816241615364
 20
-518.6609890405958
 30
0.0
 11
604.816241615364
 21
-518.1250906605958
 31
0.0
  0
LINE
  5
222EB
330
18
100
AcDbEntity
  8
0
  6
BYBLOCK
100
AcDbLine
 10
604.816241615364
 20
-518.1250906605958
 30
0.0
 11
606.816241615364
 21
-517.5891922805957
 31
0.0
  0
LINE
  5
222EC
330
18
100
AcDbEntity
  8
0
  6
BYBLOCK
100
AcDbLine
 10
604.816241615364
 20
-518.1250906605958
 30
0.0
 11
606.816241615364
 21
-518.1250906605958
 31
0.0
  0
TEXT
  5
222ED
330
18
100
AcDbEntity
  8
1DIM
  6
CONTINUOUS
100
AcDbText
 10
617.1183249486975
 20
-517.4250906605957
 30
0.0
 40
3.5
  1
30
100
AcDbText
1001
ACAD
1000
DSTYLE
1002
{
1070
    45
1040
0.5
1002
}
  0
LINE
  5
222EE
330
18
100
AcDbEntity
  8
0
  6
BYBLOCK
100
AcDbLine
 10
176.8162416153635
 20
-705.0271686300653
 30
0.0
 11
170.8162416153635
 21
-703.4194734900652
 31
0.0
  0
LINE
  5
222EF
330
18
100
AcDbEntity
  8
0
  6
BYBLOCK
100
AcDbLine
 10
170.8162416153635
 20
-703.4194734900652
 30
0.0
 11
176.8162416153635
 21
-701.8117783500652
 31
0.0
  0
LINE
  5
222F0
330
18
100
AcDbEntity
  8
0
  6
BYBLOCK
100
AcDbLine
 10
170.8162416153635
 20
-703.4194734900652
 30
0.0
 11
176.8162416153635
 21
-703.4194734900652
 31
0.0
  0
LINE
  5
222F1
330
18
100
AcDbEntity
  8
0
  6
BYBLOCK
100
AcDbLine
 10
614.8162416153644
 20
-701.8117783500652
 30
0.0
 11
620.8162416153644
 21
-703.4194734900652
 31
0.0
  0
LINE
  5
222F2
330
18
100
AcDbEntity
  8
0
  6
BYBLOCK
100
AcDbLine
 10
620.8162416153644
 20
-703.4194734900652
 30
0.0
 11
614.8162416153644
 21
-705.0271686300653
 31
0.0
  0
LINE
  5
222F3
330
18
100
AcDbEntity
  8
0
  6
BYBLOCK
100
AcDbLine
 10
620.8162416153644
 20
-703.4194734900652
 30
0.0
 11
614.8162416153644
 21
-703.4194734900652
 31
0.0
  0
TEXT
  5
222F4
330
18
100
AcDbEntity
  8
1DIM1
  6
CONTINUOUS
100
AcDbText
 10
377.1860332820307
 20
-701.3194734900652
 30
0.0
 40
10.5
  1
P450
100
AcDbText
1001
ACAD
1000
DSTYLE
1002
{
1070
    40
1040
3.0
1070
    45
1040
0.5
1002
}
  0
LINE
  5
222F5
330
18
100
AcDbEntity
  8
0
100
AcDbLine
 10
711.0578012213002
 20
-658.0195246772154
 30
0.0
 11
711.0580098248493
 21
-652.6695153708956
 31
0.0
  0
LINE
  5
222F6
330
18
100
AcDbEntity
  8
0
100
AcDbLine
 10
711.0580098248493
 20
-652.6695153708956
 30
0.0
 11
710.708012494372
 21
-652.3195129277713
 31
0.0
  0
LINE
  5
222F7
330
18
100
AcDbEntity
  8
0
100
AcDbLine
 10
710.708012494372
 20
-652.3195129277713
 30
0.0
 11
707.4080124944417
 21
-652.3194898925017
 31
0.0
  0
LINE
  5
222F8
330
18
100
AcDbEntity
  8
0
100
AcDbLine
 10
707.4080124944417
 20
-652.3194898925017
 30
0.0
 11
707.0580098249364
 21
-652.6694874493569
 31
0.0
  0
LINE
  5
222F9
330
18
100
AcDbEntity
  8
0
100
AcDbLine
 10
707.0580098249364
 20
-652.6694874493569
 30
0.0
 11
707.0578012216467
 21
-658.019468834051
 31
0.0
  0
LINE
  5
222FA
330
18
100
AcDbEntity
  8
0
100
AcDbLine
 10
707.0578012216467
 20
-658.019468834051
 30
0.0
 11
705.0577826071576
 21
-660.0194734876897
 31
0.0
  0
LINE
  5
222FB
330
18
100
AcDbEntity
  8
0
100
AcDbLine
 10
705.0577826071576
 20
-660.0194734876897
 30
0.0
 11
705.0577798150038
 21
-660.3194734876774
 31
0.0
  0
LINE
  5
222FC
330
18
100
AcDbEntity
  8
0
100
AcDbLine
 10
705.0577798150038
 20
-660.3194734876774
 30
0.0
 11
713.0577798148306
 21
-660.319529330755
 31
0.0
  0
LINE
  5
222FD
330
18
100
AcDbEntity
  8
0
100
AcDbLine
 10
713.0577798148306
 20
-660.319529330755
 30
0.0
 11
713.0577826069845
 21
-660.0195293307671
 31
0.0
  0
LINE
  5
222FE
330
18
100
AcDbEntity
  8
0
100
AcDbLine
 10
713.0577826069845
 20
-660.0195293307671
 30
0.0
 11
711.0578012213002
 21
-658.0195246772154
 31
0.0
  0
LINE
  5
222FF
330
18
100
AcDbEntity
  8
0
  6
BYBLOCK
100
AcDbLine
 10
543.654304442766
 20
-595.1250906605958
 30
0.0
 11
543.118406062766
 21
-597.1250906605958
 31
0.0
  0
LINE
  5
22300
330
18
100
AcDbEntity
  8
0
  6
BYBLOCK
100
AcDbLine
 10
543.118406062766
 20
-597.1250906605958
 30
0.0
 11
542.5825076827659
 21
-595.1250906605958
 31
0.0
  0
LINE
  5
22301
330
18
100
AcDbEntity
  8
0
  6
BYBLOCK
100
AcDbLine
 10
543.118406062766
 20
-597.1250906605958
 30
0.0
 11
543.118406062766
 21
-595.1250906605958
 31
0.0
  0
LINE
  5
22302
330
18
100
AcDbEntity
  8
0
  6
BYBLOCK
100
AcDbLine
 10
542.5825076827659
 20
-590.1250906605958
 30
0.0
 11
543.118406062766
 21
-588.1250906605958
 31
0.0
  0
LINE
  5
22303
330
18
100
AcDbEntity
  8
0
  6
BYBLOCK
100
AcDbLine
 10
543.118406062766
 20
-588.1250906605958
 30
0.0
 11
543.654304442766
 21
-590.1250906605958
 31
0.0
  0
LINE
  5
22304
330
18
100
AcDbEntity
  8
0
  6
BYBLOCK
100
AcDbLine
 10
543.118406062766
 20
-588.1250906605958
 30
0.0
 11
543.118406062766
 21
-590.1250906605958
 31
0.0
  0
TEXT
  5
22305
330
18
100
AcDbEntity
  8
1DIM
  6
CONTINUOUS
100
AcDbText
 10
542.4184060627659
 20
-584.1147390926185
 30
0.0
 40
3.5
  1
9
 50
90.0
100
AcDbText
  0
LINE
  5
22306
330
18
100
AcDbEntity
  8
0
  6
BYBLOCK
100
AcDbLine
 10
780.398370530651
 20
-658.6194734876774
 30
0.0
 11
779.862472150651
 21
-660.6194734876774
 31
0.0
  0
LINE
  5
22307
330
18
100
AcDbEntity
  8
0
  6
BYBLOCK
100
AcDbLine
 10
779.862472150651
 20
-660.6194734876774
 30
0.0
 11
779.326573770651
 21
-658.6194734876774
 31
0.0
  0
LINE
  5
22308
330
18
100
AcDbEntity
  8
0
  6
BYBLOCK
100
AcDbLine
 10
779.862472150651
 20
-660.6194734876774
 30
0.0
 11
779.862472150651
 21
-658.6194734876774
 31
0.0
  0
LINE
  5
22309
330
18
100
AcDbEntity
  8
0
  6
BYBLOCK
100
AcDbLine
 10
779.326573770651
 20
-637.0194734876775
 30
0.0
 11
779.862472150651
 21
-635.0194734876775
 31
0.0
  0
LINE
  5
2230A
330
18
100
AcDbEntity
  8
0
  6
BYBLOCK
100
AcDbLine
 10
779.862472150651
 20
-635.0194734876775
 30
0.0
 11
780.398370530651
 21
-637.0194734876775
 31
0.0
  0
LINE
  5
2230B
330
18
100
AcDbEntity
  8
0
  6
BYBLOCK
100
AcDbLine
 10
779.862472150651
 20
-635.0194734876775
 30
0.0
 11
779.862472150651
 21
-637.0194734876775
 31
0.0
  0
TEXT
  5
2230C
330
18
100
AcDbEntity
  8
1DIM
  6
CONTINUOUS
100
AcDbText
 10
779.1624721506508
 20
-653.0816262654553
 30
0.0
 40
3.5
  1
25.5
 50
90.0
100
AcDbText
1001
ACAD
1000
DSTYLE
1002
{
1070
    45
1040
0.5
1002
}
  0
LINE
  5
2230D
330
18
100
AcDbEntity
  8
0
  6
BYBLOCK
100
AcDbLine
 10
768.2218212837213
 20
-646.6194734845728
 30
0.0
 11
767.6859229037212
 21
-648.6194734845728
 31
0.0
  0
LINE
  5
2230E
330
18
100
AcDbEntity
  8
0
  6
BYBLOCK
100
AcDbLine
 10
767.6859229037212
 20
-648.6194734845728
 30
0.0
 11
767.1500245237212
 21
-646.6194734845728
 31
0.0
  0
LINE
  5
2230F
330
18
100
AcDbEntity
  8
0
  6
BYBLOCK
100
AcDbLine
 10
767.6859229037212
 20
-648.6194734845728
 30
0.0
 11
767.6859229037212
 21
-646.6194734845728
 31
0.0
  0
LINE
  5
22310
330
18
100
AcDbEntity
  8
0
  6
BYBLOCK
100
AcDbLine
 10
767.1500245237212
 20
-637.0194734876775
 30
0.0
 11
767.6859229037212
 21
-635.0194734876775
 31
0.0
  0
LINE
  5
22311
330
18
100
AcDbEntity
  8
0
  6
BYBLOCK
100
AcDbLine
 10
767.6859229037212
 20
-635.0194734876775
 30
0.0
 11
768.2218212837213
 21
-637.0194734876775
 31
0.0
  0
LINE
  5
22312
330
18
100
AcDbEntity
  8
0
  6
BYBLOCK
100
AcDbLine
 10
767.6859229037212
 20
-635.0194734876775
 30
0.0
 11
767.6859229037212
 21
-637.0194734876775
 31
0.0
  0
TEXT
  5
22313
330
18
100
AcDbEntity
  8
1DIM
  6
CONTINUOUS
100
AcDbText
 10
766.9859229037213
 20
-646.4861401527919
 30
0.0
 40
3.5
  1
13.5
 50
90.0
100
AcDbText
1001
ACAD
1000
DSTYLE
1002
{
1070
    45
1040
0.5
1002
}
  0
LINE
  5
22314
330
18
100
AcDbEntity
  8
0
  6
BYBLOCK
100
AcDbLine
 10
731.1105455393066
 20
-616.9755895190193
 30
0.0
 11
730.1714513928047
 21
-618.820932104474
 31
0.0
  0
LINE
  5
22315
330
18
100
AcDbEntity
  8
0
  6
BYBLOCK
100
AcDbLine
 10
730.1714513928047
 20
-618.820932104474
 30
0.0
 11
730.0620594968733
 21
-616.7532714730378
 31
0.0
  0
LINE
  5
22316
330
18
100
AcDbEntity
  8
0
  6
BYBLOCK
100
AcDbLine
 10
730.1714513928047
 20
-618.820932104474
 30
0.0
 11
730.58630251809
 21
-616.8644304960285
 31
0.0
  0
LINE
  5
22317
330
18
100
AcDbEntity
  8
0
  6
BYBLOCK
100
AcDbLine
 10
744.2459636844718
 20
-616.9755895190193
 30
0.0
 11
743.3068695379699
 21
-618.820932104474
 31
0.0
  0
LINE
  5
22318
330
18
100
AcDbEntity
  8
0
  6
BYBLOCK
100
AcDbLine
 10
743.3068695379699
 20
-618.820932104474
 30
0.0
 11
743.1974776420385
 21
-616.7532714730378
 31
0.0
  0
LINE
  5
22319
330
18
100
AcDbEntity
  8
0
  6
BYBLOCK
100
AcDbLine
 10
743.3068695379699
 20
-618.820932104474
 30
0.0
 11
743.7217206632552
 21
-616.8644304960285
 31
0.0
  0
VIEWPORT
  5
57
330
15
100
AcDbEntity
 67
     1
  8
0
100
AcDbViewport
 68
     1
 10
0.0
 20
0.0
 30
0.0
 40
565.988904299584
 41
297.0
 68
     1
 69
     1
1001
ACAD
1000
MVIEW
1002
{
1070
    16
1010
0.0
1020
0.0
1030
0.0
1010
0.0
1020
0.0
1030
1.0
1040
0.0
1040
297.0
1040
-4.171999999925333
1040
12.83903210976956
1040
50.0
1040
0.0
1040
0.0
1070
    16
1070
  1000
1070
     0
1070
     1
1070
     0
1070
     0
1070
     0
1070
     0
1040
0.0
1040
0.0
1040
0.0
1040
10.0
1040
10.0
1040
10.0
1040
10.0
1070
     0
1002
{
1002
}
1002
}
  0
ENDSEC
  0
SECTION
  2
OBJECTS
  0
DICTIONARY
  5
C
330
0
100
AcDbDictionary
  3
ACAD_CIP_PREVIOUS_PRODUCT_INFO
350
20B28
  3
ACAD_COLOR
350
2D0
  3
ACAD_GROUP
350
D
  3
ACAD_LAYOUT
350
2D1
  3
ACAD_MATERIAL
350
2CF
  3
ACAD_MLEADERSTYLE
350
19E18
  3
ACAD_MLINESTYLE
350
1B
  3
ACAD_PLOTSETTINGS
350
2D2
  3
ACAD_SCALELIST
350
19DF6
  3
ACAD_VISUALSTYLE
350
19DE5
  3
ACDBHEADERROUNDTRIPXREC
350
2231A
  3
ACDBVARIABLEDICTIONARY
350
37
  3
AEC_PROPERTY_SET_DEFS
350
20CE4
  3
CONTENTDICTIONARY
350
D8
  3
DRAWINGVARIABLESDICT
350
20
  3
DWGPROPS
350
2231D
1001
ACAD
1000
TREAT_AS_HARD
1070
     0
  0
DICTIONARY
  5
18FE8
330
2
100
AcDbDictionary
  3
ACAD_LAYERSTATES
360
18FE9
1001
ACAD
1000
TREAT_AS_HARD
1070
     1
  0
DICTIONARY
  5
1A20A
330
E
100
AcDbDictionary
  3
ADSK_XREC_LAYER_RECONCILED
360
1A20B
1001
ACAD
1000
TREAT_AS_HARD
1070
     1
  0
DICTIONARY
  5
1A20C
330
29
100
AcDbDictionary
  3
ADSK_XREC_LAYER_RECONCILED
360
1A20D
1001
ACAD
1000
TREAT_AS_HARD
1070
     1
  0
DICTIONARY
  5
1A20E
330
31
100
AcDbDictionary
  3
ADSK_XREC_LAYER_RECONCILED
360
1A20F
1001
ACAD
1000
TREAT_AS_HARD
1070
     1
  0
DICTIONARY
  5
1A218
330
101
100
AcDbDictionary
  3
ADSK_XREC_LAYER_RECONCILED
360
1A219
1001
ACAD
1000
TREAT_AS_HARD
1070
     1
  0
DICTIONARY
  5
1A21C
330
103
100
AcDbDictionary
  3
ADSK_XREC_LAYER_RECONCILED
360
1A21D
1001
ACAD
1000
TREAT_AS_HARD
1070
     1
  0
DICTIONARY
  5
1A236
330
26A
100
AcDbDictionary
  3
ADSK_XREC_LAYER_RECONCILED
360
1A237
1001
ACAD
1000
TREAT_AS_HARD
1070
     1
  0
DICTIONARY
  5
6E9
330
18
100
AcDbDictionary
  3
ACAD_SORTENTS
360
6EA
1001
ACAD
1000
TREAT_AS_HARD
1070
     1
  0
DICTIONARY
  5
59B
330
15
100
AcDbDictionary
  3
ACAD_SORTENTS
360
59C
1001
ACAD
1000
TREAT_AS_HARD
1070
     1
  0
XRECORD
  5
20B28
102
{ACAD_REACTORS
330
C
102
}
330
C
100
AcDbXrecord
300
ACDLT
300
2012
300
ACDLT_F_S
  0
DICTIONARY
  5
2D0
102
{ACAD_REACTORS
330
C
102
}
330
C
100
AcDbDictionary
1001
ACAD
1000
TREAT_AS_HARD
1070
     0
  0
DICTIONARY
  5
D
102
{ACAD_REACTORS
330
C
102
}
330
C
100
AcDbDictionary
1001
ACAD
1000
TREAT_AS_HARD
1070
     0
  0
DICTIONARY
  5
2D1
102
{ACAD_REACTORS
330
C
102
}
330
C
100
AcDbDictionary
1001
ACAD
1000
TREAT_AS_HARD
1070
     0
  0
DICTIONARY
  5
2CF
102
{ACAD_REACTORS
330
C
102
}
330
C
100
AcDbDictionary
  3
BYBLOCK
350
19DD5
  3
BYLAYER
350
19DCD
  3
GLOBAL
350
19DDD
1001
ACAD
1000
TREAT_AS_HARD
1070
     0
  0
DICTIONARY
  5
19E18
102
{ACAD_REACTORS
330
C
102
}
330
C
100
AcDbDictionary
  3
STANDARD
350
19E19
1001
ACAD
1000
TREAT_AS_HARD
1070
     0
  0
DICTIONARY
  5
1B
102
{ACAD_REACTORS
330
C
102
}
330
C
100
AcDbDictionary
  3
STANDARD
350
1C
1001
ACAD
1000
TREAT_AS_HARD
1070
     0
  0
DICTIONARY
  5
2D2
102
{ACAD_REACTORS
330
C
102
}
330
C
100
AcDbDictionary
1001
ACAD
1000
TREAT_AS_HARD
1070
     0
  0
DICTIONARY
  5
19DF6
102
{ACAD_REACTORS
330
C
102
}
330
C
100
AcDbDictionary
  3
A0
350
19DF7
  3
A1
350
19DF8
  3
A2
350
19DF9
  3
A3
350
19DFA
  3
A4
350
19DFB
  3
A5
350
19DFC
  3
A6
350
19DFD
  3
A7
350
19DFE
  3
A8
350
19DFF
  3
A9
350
19E00
  3
B0
350
19E01
  3
B1
350
19E02
  3
B2
350
19E03
  3
B3
350
19E04
  3
B4
350
19E05
  3
B5
350
19E06
  3
B6
350
19E07
  3
B7
350
19E08
  3
B8
350
19E09
  3
B9
350
19E0A
  3
C0
350
19E0B
  3
C1
350
19E0C
  3
C2
350
19E0D
  3
C3
350
19E0E
  3
C4
350
19E0F
  3
C5
350
19E10
  3
C6
350
19E11
  3
C7
350
19E12
  3
C8
350
19E13
  3
C9
350
19E14
  3
D0
350
19E15
  3
D1
350
19E16
  3
D2
350
19E17
1001
ACAD
1000
TREAT_AS_HARD
1070
     0
  0
DICTIONARY
  5
19DE5
102
{ACAD_REACTORS
330
C
102
}
330
C
100
AcDbDictionary
  3
2DWIREFRAME
350
19DEB
  3
3D_HIDDEN
350
19DED
  3
3DWIREFRAME
350
19DEC
  3
BASIC
350
19DEA
  3
BRIGHTEN
350
19DF1
  3
COLORCHANGE
350
19DF5
  3
CONCEPTUAL
350
19DEE
  3
DIM
350
19DF0
  3
EDGECOLOROFF
350
1E02A
  3
FACEPATTERN
350
19DF4
  3
FLAT
350
19DE6
  3
FLATWITHEDGES
350
19DE7
  3
GOURAUD
350
19DE8
  3
GOURAUDWITHEDGES
350
19DE9
  3
HIDDEN
350
1F381
  3
JITTEROFF
350
1E028
  3
LINEPATTERN
350
19DF3
  3
MODELING
350
219D4
  3
OVERHANGOFF
350
1E029
  3
REALISTIC
350
19DEF
  3
SHADED
350
1F386
  3
SHADED_WITH_EDGES
350
1F385
  3
SHADES_OF_GRAY
350
1F382
  3
SKETCHY
350
1F383
  3
THICKEN
350
19DF2
  3
WIREFRAME
350
1F380
  3
X-RAY
350
1F384
1001
ACAD
1000
TREAT_AS_HARD
1070
     0
  0
DICTIONARY
  5
2231A
102
{ACAD_REACTORS
330
C
102
}
330
C
100
AcDbDictionary
  3
COLORDICT
350
2231B
  3
MATERIALDICT
350
2231C
1001
ACAD
1000
TREAT_AS_HARD
1070
     0
  0
DICTIONARY
  5
37
102
{ACAD_REACTORS
330
C
102
}
330
C
100
AcDbDictionary
  3
CANNOSCALE
350
219EB
  3
CMLEADERSTYLE
350
1AC19
  3
CTABLESTYLE
350
4F1
  3
DIMADEC
350
38
  3
DIMASSOC
350
408
  3
HIDETEXT
350
1891
  3
INDEXCTL
350
1AC1C
  3
INTERSECTIONCOLOR
350
1895
  3
INTERSECTIONDISPLAY
350
1894
  3
LAYEREVAL
350
211C3
  3
LAYERNOTIFY
350
211C4
  3
MSLTSCALE
350
20A9B
  3
OBSCOLOR
350
1892
  3
OBSLTYPE
350
1893
  3
PROJECTNAME
350
409
  3
SORTENTS
350
1AC1B
  3
XCLIPFRAME
350
219D3
1001
ACAD
1000
TREAT_AS_HARD
1070
     0
  0
DICTIONARY
  5
20CE4
102
{ACAD_REACTORS
330
C
102
}
330
C
100
AcDbDictionary
1001
ACAD
1000
TREAT_AS_HARD
1070
     0
  0
DICTIONARY
  5
D8
102
{ACAD_REACTORS
330
C
102
}
330
C
100
AcDbDictionary
1001
CONTENTTABDATA
1070
    11
1000
Child
1000
D:\ACLT\TABset\CHILDREN.dwg
1070
     0
1070
     0
1070
     1
1000
PK
1000
D:\ACLT\TABset\PK.dwg
1070
     0
1070
     0
1070
     1
1000
Lev1
1000
D:\ACLT\TABset\Lever01.dwg
1070
     0
1070
     0
1070
     1
1000
Lev2
1000
D:\ACLT\TABset\Lever02.dwg
1070
     0
1070
     0
1070
     1
1000
L3
1000
D:\Aclt\TABset\Lever03.dwg
1070
     0
1070
     0
1070
     1
1000
Form
1000
D:\ACLT\FORMAT
1070
     1
1070
     0
1070
     1
1000
Jnt
1000
D:\ACLT\TABset\JOINTPARTS.dwg
1070
     0
1070
     0
1070
     1
1000
ISO
1000
D:\ACLT\TABset\Isome01.dwg
1070
     0
1070
     0
1070
     1
1000
R
1000
D:\ACLT\TABset\REGION.dwg
1070
     0
1070
     0
1070
     1
1000
std
1000
D:\ACLT\TABset\std_sym_all.dwg
1070
     0
1070
     0
1070
     1
1000
丸
1000
D:\Aclt\TABset\MARU.dwg
1070
     0
1070
     0
1070
     1
1001
CONTENTCURRENTTAB
1070
     0
1001
ACAD
1000
TREAT_AS_HARD
1070
     0
  0
DICTIONARY
  5
20
102
{ACAD_REACTORS
330
C
102
}
330
C
100
AcDbDictionary
1001
DRAWINGVARIABLESXDATA
1000
POLARANG
1000
0.261799387799149410000000
1000
POLARMODE
1000
1
1000
POLARSTYLE
1000
1
1001
ACAD
1000
TREAT_AS_HARD
1070
     0
  0
XRECORD
  5
2231D
102
{ACAD_REACTORS
330
C
102
}
330
C
100
AcDbXrecord
  1
DWGPROPS COOKIE
  2

  3

  4

  6

  7

  8
619
  9

300
=
301
=
302
=
303
=
304
=
305
=
306
=
307
=
308
=
309
=
 40
0.0
 41
2453033.357663484
 42
2458277.170059757
  1

 90
        0
  0
DICTIONARY
  5
18FE9
102
{ACAD_REACTORS
330
18FE8
102
}
330
18FE8
100
AcDbDictionary
1001
ACAD
1000
TREAT_AS_HARD
1070
     0
  0
ACAD_PROXY_OBJECT
  5
1A20B
102
{ACAD_REACTORS
330
1A20A
102
}
330
1A20A
100
AcDbZombieObject
 90
      499
 91
      517
 93
       34
310
40C8804040
  0
ACAD_PROXY_OBJECT
  5
1A20D
102
{ACAD_REACTORS
330
1A20C
102
}
330
1A20C
100
AcDbZombieObject
 90
      499
 91
      517
 93
       34
310
40C8804040
  0
ACAD_PROXY_OBJECT
  5
1A20F
102
{ACAD_REACTORS
330
1A20E
102
}
330
1A20E
100
AcDbZombieObject
 90
      499
 91
      517
 93
       34
310
40C8804040
  0
ACAD_PROXY_OBJECT
  5
1A219
102
{ACAD_REACTORS
330
1A218
102
}
330
1A218
100
AcDbZombieObject
 90
      499
 91
      517
 93
       34
310
40C8804040
  0
ACAD_PROXY_OBJECT
  5
1A21D
102
{ACAD_REACTORS
330
1A21C
102
}
330
1A21C
100
AcDbZombieObject
 90
      499
 91
      517
 93
       34
310
40C8804040
  0
ACAD_PROXY_OBJECT
  5
1A237
102
{ACAD_REACTORS
330
1A236
102
}
330
1A236
100
AcDbZombieObject
 90
      499
 91
      517
 93
       34
310
40C8804040
  0
SORTENTSTABLE
  5
6EA
102
{ACAD_REACTORS
330
6E9
102
}
330
6E9
100
AcDbSortentsTable
330
18
331
213E4
  5
21D58
331
2140B
  5
21D7A
331
2140C
  5
21D7B
331
2140D
  5
21D7C
331
2140E
  5
21D7D
331
2140F
  5
21D7E
331
21410
  5
21D7F
331
21411
  5
21D80
331
21412
  5
21D81
331
21413
  5
21D82
331
21414
  5
21D83
331
21415
  5
21D84
331
21416
  5
21D85
331
21417
  5
21D86
331
2141D
  5
21D87
331
21D20
  5
21D92
331
21D21
  5
21D93
331
21D22
  5
21D94
331
21D23
  5
21D95
331
21D24
  5
21D96
331
21D32
  5
21DE5
331
21D33
  5
21DE6
331
21D34
  5
21DE7
331
21D35
  5
21F62
331
21D36
  5
21F63
331
21D3D
  5
221E1
331
21D3E
  5
221E2
331
21D3F
  5
221E3
331
21D40
  5
221E4
331
21D41
  5
221E5
331
21D42
  5
221E6
331
21D43
  5
221E7
331
21D44
  5
221E8
331
21D45
  5
221E9
331
21D46
  5
221EA
331
21D47
  5
221EB
331
21D48
  5
221EC
331
21D49
  5
221ED
331
21D4A
  5
221EE
331
21D4B
  5
221EF
331
21D4C
  5
221F0
331
21D4D
  5
221F1
331
21D4E
  5
221F2
331
21D4F
  5
221F3
331
21D50
  5
221F4
331
21D51
  5
221F5
331
21D52
  5
221F6
331
21D53
  5
221F7
331
21D54
  5
221F8
331
21D55
  5
221F9
331
21D56
  5
221FA
331
21D57
  5
221FB
331
21D58
  5
221FC
331
21D59
  5
221FD
331
21D5A
  5
221FE
331
21D5B
  5
221FF
331
21D5C
  5
22200
331
21D5D
  5
22201
331
21D5E
  5
22202
331
21D5F
  5
22203
331
21D60
  5
22204
331
21D61
  5
22205
331
21D62
  5
22206
331
21D63
  5
22207
331
21D64
  5
22208
331
21D65
  5
22209
331
21D66
  5
2220A
331
21D67
  5
2220B
331
21D68
  5
2220C
331
21D69
  5
2220D
331
21D6A
  5
2220E
331
21D6B
  5
2220F
331
21D6C
  5
22210
331
21D6D
  5
22211
331
21D6E
  5
22212
331
21D6F
  5
22213
331
21D70
  5
22214
331
21D71
  5
22215
331
21D72
  5
22216
331
21D73
  5
22217
331
21D74
  5
22218
331
21D75
  5
22219
331
21D76
  5
2221A
331
21D77
  5
2221B
331
21D78
  5
2221C
331
21D79
  5
2221D
331
21D7A
  5
2221E
331
21D7B
  5
2221F
331
21D7C
  5
22220
331
21D7D
  5
22221
331
21D7E
  5
22222
331
21D7F
  5
22223
331
21D80
  5
22224
331
21D81
  5
22225
331
21D82
  5
22226
331
21D83
  5
22227
331
21D84
  5
22228
331
21D85
  5
22229
331
21D86
  5
2222A
331
21D87
  5
2222B
331
21D88
  5
2222C
331
21D89
  5
2222D
331
21D8A
  5
2222E
331
21D8B
  5
2222F
331
21D8C
  5
22230
331
21D8D
  5
22231
331
21D8E
  5
22232
331
21D8F
  5
22233
331
21D90
  5
22234
331
21D91
  5
22235
331
21D92
  5
22236
331
21D93
  5
22237
331
21D94
  5
22238
331
21D95
  5
22239
331
21D96
  5
2223A
331
21D97
  5
2223B
331
21D98
  5
2223C
331
21D99
  5
2223D
331
21D9A
  5
2223E
331
21D9B
  5
2223F
331
21D9C
  5
22240
331
21D9D
  5
22241
331
21D9E
  5
22242
331
21D9F
  5
22243
331
21DA0
  5
22244
331
21DA1
  5
22245
331
21DA2
  5
22246
331
21DA3
  5
22247
331
21DA4
  5
22248
331
21DA5
  5
22249
331
21DA6
  5
2224A
331
21DA7
  5
2224B
331
21DA8
  5
2224C
331
21DA9
  5
2224D
331
21DAA
  5
2224E
331
21DAB
  5
2224F
331
21DAC
  5
22250
331
21DAD
  5
22251
331
21DAE
  5
22252
331
21DAF
  5
22254
331
21DB0
  5
22255
331
21DB1
  5
22256
331
21DB2
  5
22257
331
21DB3
  5
22258
331
21DB4
  5
22259
331
21DB5
  5
2225A
331
21DB6
  5
2225B
331
21DB7
  5
2225C
331
21DB8
  5
2225D
331
21DB9
  5
2225E
331
21DBA
  5
2225F
331
21DBB
  5
22260
331
21DBC
  5
22261
331
21DBD
  5
22262
331
21DBE
  5
22263
331
21DBF
  5
22264
331
21DC0
  5
22265
331
21DC1
  5
22266
331
21DC2
  5
22267
331
21DC3
  5
22268
331
21DC4
  5
22269
331
21DC5
  5
2226A
331
21DC6
  5
2226B
331
21DC7
  5
2226C
331
21DC8
  5
2226D
331
21DC9
  5
2226E
331
21DCA
  5
2226F
331
21DCB
  5
22270
331
21DCC
  5
22271
331
21DCD
  5
22272
331
21DCE
  5
22273
331
21DCF
  5
22274
331
21DD0
  5
22275
331
21DD1
  5
22276
331
21DD2
  5
22277
331
21DD3
  5
22278
331
21DD4
  5
22279
331
21DD5
  5
2227A
331
21DD6
  5
2227B
331
21DD7
  5
2227C
331
21DD8
  5
2227D
331
21DD9
  5
2227E
331
21DDA
  5
2227F
331
21DDB
  5
22280
331
21DDC
  5
22281
331
21DDD
  5
22282
331
21DDF
  5
22283
331
21DE3
  5
22295
331
21DE4
  5
22296
331
21DE5
  5
22297
331
21DE6
  5
22298
331
21DE7
  5
22299
331
21F62
  5
2230E
331
21F63
  5
2230F
331
0
  5
22197
331
22197
  5
22314
331
22198
  5
22319
331
22199
  5
213E4
331
2219A
  5
2140B
331
2219B
  5
2140C
331
2219C
  5
2140D
331
0
  5
2140E
331
0
  5
2140F
331
0
  5
21410
331
0
  5
21411
331
221A1
  5
21D24
331
221A2
  5
21D35
331
221A3
  5
21D36
331
221A4
  5
21D3D
331
0
  5
21416
331
221A6
  5
21D44
331
221A7
  5
21D48
331
221A8
  5
21D49
331
221A9
  5
21D4A
331
221AA
  5
21D4E
331
221AB
  5
21D4F
331
221AC
  5
21D50
331
0
  5
21D32
331
0
  5
21D33
331
0
  5
21D34
331
221B0
  5
21D59
331
221B1
  5
21D5A
331
221B2
  5
21D5B
331
0
  5
21D3F
331
0
  5
21D40
331
0
  5
21D41
331
221B6
  5
21D66
331
221B7
  5
21D67
331
221B8
  5
21D68
331
0
  5
21D45
331
0
  5
21D46
331
0
  5
21D47
331
221BC
  5
21D70
331
221BD
  5
21D71
331
221BE
  5
21D72
331
0
  5
21D4B
331
0
  5
21D4C
331
0
  5
21D4D
331
221C2
  5
21D88
331
221C3
  5
21D89
331
221C4
  5
21D8A
331
0
  5
21D5F
331
0
  5
21D60
331
0
  5
21D61
331
221C8
  5
21D97
331
221C9
  5
21D98
331
221CA
  5
21D99
331
221CB
  5
21D9A
331
221CC
  5
21D9B
331
221CD
  5
21D9C
331
221CE
  5
21D9D
331
221CF
  5
21D9E
331
221D0
  5
21D9F
331
221D1
  5
21DA0
331
221D2
  5
21DA1
331
221D3
  5
21DA2
331
221D4
  5
21DA3
331
221D5
  5
21DA4
331
221D6
  5
21DA5
331
221D7
  5
21DA6
331
221D8
  5
21DA7
331
221D9
  5
21DA8
331
221DA
  5
21DA9
331
221DB
  5
21DAA
331
221DC
  5
21DAB
331
221DD
  5
21DAC
331
221DE
  5
21DAD
331
221DF
  5
21DAE
331
221E0
  5
21DAF
331
221E1
  5
21DB0
331
221E2
  5
21DB1
331
221E3
  5
21DB2
331
221E4
  5
21DB3
331
221E5
  5
21DB4
331
221E6
  5
21DB5
331
221E7
  5
21DB6
331
221E8
  5
21DB7
331
221E9
  5
21DB8
331
221EA
  5
21DB9
331
221EB
  5
21DBA
331
221EC
  5
21DBB
331
221ED
  5
21DBC
331
221EE
  5
21DBD
331
221EF
  5
21DBE
331
221F0
  5
21DBF
331
221F1
  5
21DC0
331
221F2
  5
21DC1
331
221F3
  5
21DC2
331
221F4
  5
21DC3
331
221F5
  5
21DC4
331
221F6
  5
21DC5
331
221F7
  5
21DC6
331
221F8
  5
21DC7
331
221F9
  5
21DC8
331
221FA
  5
21DC9
331
221FB
  5
21DCA
331
221FC
  5
21DCB
331
221FD
  5
21DCC
331
221FE
  5
21DCD
331
221FF
  5
21DCE
331
22200
  5
21DCF
331
22201
  5
21DD0
331
22202
  5
21DD1
331
22203
  5
21DD2
331
22204
  5
21DD3
331
22205
  5
21DD4
331
22206
  5
21DD5
331
22207
  5
21DD6
331
22208
  5
21DD7
331
22209
  5
21DD8
331
2220A
  5
21DD9
331
2220B
  5
21DDA
331
2220C
  5
21DDB
331
2220D
  5
21DDC
331
2220E
  5
21DDD
331
2220F
  5
21DDF
331
22210
  5
21DE3
331
22211
  5
21DE4
331
22212
  5
21F66
331
22213
  5
22198
331
22214
  5
22199
331
22215
  5
2219A
331
22216
  5
2219B
331
22217
  5
2219C
331
22218
  5
2219D
331
22219
  5
2219E
331
2221A
  5
2219F
331
2221B
  5
221A0
331
2221C
  5
221A1
331
2221D
  5
221A2
331
2221E
  5
221A3
331
2221F
  5
221A4
331
22220
  5
221A5
331
22221
  5
221A6
331
22222
  5
221A7
331
22223
  5
221A8
331
22224
  5
221A9
331
22225
  5
221AA
331
22226
  5
221AB
331
22227
  5
221AC
331
22228
  5
221AD
331
22229
  5
221AE
331
2222A
  5
221AF
331
2222B
  5
221B0
331
2222C
  5
221B1
331
2222D
  5
221B2
331
2222E
  5
221B3
331
2222F
  5
221B4
331
22230
  5
221B5
331
22231
  5
221B6
331
22232
  5
221B7
331
22233
  5
221B8
331
22234
  5
221B9
331
22235
  5
221BA
331
22236
  5
221BB
331
22237
  5
221BC
331
22238
  5
221BD
331
22239
  5
221BE
331
2223A
  5
221BF
331
2223B
  5
221C0
331
2223C
  5
221C1
331
2223D
  5
221C2
331
2223E
  5
221C3
331
2223F
  5
221C4
331
22240
  5
221C5
331
22241
  5
221C6
331
22242
  5
221C7
331
22243
  5
221C8
331
22244
  5
221C9
331
22245
  5
221CA
331
22246
  5
221CB
331
22247
  5
221CC
331
22248
  5
221CD
331
22249
  5
221CE
331
2224A
  5
221CF
331
2224B
  5
221D0
331
2224C
  5
221D1
331
2224D
  5
221D2
331
2224E
  5
221D3
331
2224F
  5
221D4
331
22250
  5
221D5
331
22251
  5
221D6
331
22252
  5
221D7
331
22253
  5
221D8
331
22254
  5
221D9
331
22255
  5
221DA
331
22256
  5
221DB
331
22257
  5
221DC
331
22258
  5
221DD
331
22259
  5
221DE
331
2225A
  5
221DF
331
2225B
  5
221E0
331
0
  5
22253
331
2225D
  5
2228E
331
2225E
  5
2228F
331
2225F
  5
22290
331
22260
  5
22291
331
22261
  5
22292
331
22262
  5
22293
331
22263
  5
22294
331
22264
  5
2229A
331
22265
  5
2229B
331
22266
  5
2229C
331
22267
  5
2229D
331
22268
  5
2229E
331
22269
  5
2229F
331
2226A
  5
222A0
331
2226B
  5
222A1
331
2226C
  5
222A2
331
2226D
  5
222A3
331
2226E
  5
222A4
331
2226F
  5
222A5
331
22270
  5
222A6
331
22271
  5
222A7
331
22272
  5
222A8
331
22273
  5
222A9
331
22274
  5
222AA
331
22275
  5
222AB
331
22276
  5
222AC
331
22277
  5
222AD
331
22278
  5
222B1
331
22279
  5
222B2
331
2227A
  5
222B3
331
2227B
  5
222B7
331
2227C
  5
222B8
331
2227D
  5
222B9
331
2227E
  5
222BD
331
2227F
  5
222BE
331
22280
  5
222C0
331
22281
  5
222C1
331
22282
  5
222C3
331
22283
  5
222C4
331
22284
  5
222C5
331
22285
  5
222C6
331
22286
  5
222C7
331
22287
  5
222C8
331
22288
  5
222C9
331
22289
  5
222CA
331
2228A
  5
222CB
331
2228B
  5
222CC
331
2228C
  5
222CD
331
2228D
  5
222CE
331
2228E
  5
222CF
331
2228F
  5
222D0
331
22290
  5
222D1
331
22291
  5
222D2
331
22292
  5
222D3
331
22293
  5
222D4
331
22294
  5
222D5
331
22295
  5
222D6
331
22296
  5
222D7
331
22297
  5
222D8
331
22298
  5
222D9
331
22299
  5
222DA
331
2229A
  5
222DB
331
2229B
  5
222DC
331
2229C
  5
222DD
331
2229D
  5
222DE
331
2229E
  5
222DF
331
2229F
  5
222E0
331
222A0
  5
222E1
331
222A1
  5
222E2
331
222A2
  5
222E3
331
222A3
  5
222E4
331
222A4
  5
222E5
331
222A5
  5
222E6
331
222A6
  5
222E7
331
222A7
  5
222E8
331
222A8
  5
222E9
331
222A9
  5
222EA
331
222AA
  5
222EB
331
222AB
  5
222EC
331
222AC
  5
222ED
331
222AD
  5
222EE
331
222AE
  5
222EF
331
222AF
  5
222F0
331
222B0
  5
222F1
331
222B1
  5
222F2
331
0
  5
222AE
331
0
  5
222AF
331
0
  5
222B0
331
222B5
  5
222FA
331
222B6
  5
222FB
331
222B7
  5
222FC
331
0
  5
222B4
331
0
  5
222B5
331
0
  5
222B6
331
222BB
  5
22304
331
222BC
  5
22305
331
222BD
  5
22306
331
0
  5
222BA
331
0
  5
222BB
331
0
  5
222BC
331
0
  5
222BF
331
222C2
  5
22313
331
0
  5
222C2
331
222C4
  5
22318
331
222C5
  5
21412
331
222C6
  5
21413
331
222C7
  5
21414
331
222C8
  5
21415
331
222C9
  5
21417
331
222CA
  5
2141D
331
222CB
  5
21D20
331
222CC
  5
21D21
331
222CD
  5
21D22
331
222CE
  5
21D23
331
222CF
  5
21D3E
331
222D0
  5
21D42
331
222D1
  5
21D43
331
222D2
  5
21D51
331
222D3
  5
21D52
331
222D4
  5
21D53
331
222D5
  5
21D54
331
222D6
  5
21D55
331
222D7
  5
21D56
331
222D8
  5
21D57
331
222D9
  5
21D5C
331
222DA
  5
21D5D
331
222DB
  5
21D5E
331
222DC
  5
21D62
331
222DD
  5
21D63
331
222DE
  5
21D64
331
222DF
  5
21D65
331
222E0
  5
21D69
331
222E1
  5
21D6A
331
222E2
  5
21D6B
331
222E3
  5
21D6C
331
222E4
  5
21D6D
331
222E5
  5
21D6E
331
222E6
  5
21D6F
331
222E7
  5
21D73
331
222E8
  5
21D74
331
222E9
  5
21D75
331
222EA
  5
21D76
331
222EB
  5
21D77
331
222EC
  5
21D78
331
222ED
  5
21D79
331
222EE
  5
21D8B
331
222EF
  5
21D8C
331
222F0
  5
21D8D
331
222F1
  5
21D8E
331
222F2
  5
21D8F
331
222F3
  5
21D90
331
222F4
  5
21D91
331
222F5
  5
22284
331
222F6
  5
22285
331
222F7
  5
22286
331
222F8
  5
22287
331
222F9
  5
22288
331
222FA
  5
22289
331
222FB
  5
2228A
331
222FC
  5
2228B
331
222FD
  5
2228C
331
222FE
  5
2228D
331
222FF
  5
222F3
331
22300
  5
222F4
331
22301
  5
222F5
331
22302
  5
222F6
331
22303
  5
222F7
331
22304
  5
222F8
331
22305
  5
222F9
331
22306
  5
222FD
331
22307
  5
222FE
331
22308
  5
222FF
331
22309
  5
22300
331
2230A
  5
22301
331
2230B
  5
22302
331
2230C
  5
22303
331
2230D
  5
22307
331
2230E
  5
22308
331
2230F
  5
22309
331
22310
  5
2230A
331
22311
  5
2230B
331
22312
  5
2230C
331
22313
  5
2230D
331
22314
  5
22310
331
22315
  5
22311
331
22316
  5
22312
331
22317
  5
22315
331
22318
  5
22316
331
22319
  5
22317
  0
SORTENTSTABLE
  5
59C
102
{ACAD_REACTORS
330
59B
102
}
330
59B
100
AcDbSortentsTable
330
15
331
57
  5
57
331
0
  5
70
  0
MATERIAL
  5
19DD5
102
{ACAD_REACTORS
330
2CF
102
}
102
{ACAD_XDICTIONARY
360
224B8
102
}
330
2CF
100
AcDbMaterial
  1
BYBLOCK
 72
     0
 73
     2
 43
0.0208333333333333
 43
0.0
 43
0.0
 43
0.0
 43
0.0
 43
0.0208333333333333
 43
0.0
 43
0.0
 43
0.0
 43
0.0
 43
1.0
 43
0.0
 43
0.0
 43
0.0
 43
0.0
 43
1.0
 77
     0
 78
     2
 47
0.0208333333333333
 47
0.0
 47
0.0
 47
0.0
 47
0.0
 47
0.0208333333333333
 47
0.0
 47
0.0
 47
0.0
 47
0.0
 47
1.0
 47
0.0
 47
0.0
 47
0.0
 47
0.0
 47
1.0
171
     0
172
     2
 49
0.0208333333333333
 49
0.0
 49
0.0
 49
0.0
 49
0.0
 49
0.0208333333333333
 49
0.0
 49
0.0
 49
0.0
 49
0.0
 49
1.0
 49
0.0
 49
0.0
 49
0.0
 49
0.0
 49
1.0
175
     0
176
     2
142
0.0208333333333333
142
0.0
142
0.0
142
0.0
142
0.0
142
0.0208333333333333
142
0.0
142
0.0
142
0.0
142
0.0
142
1.0
142
0.0
142
0.0
142
0.0
142
0.0
142
1.0
179
     0
270
     2
144
0.0208333333333333
144
0.0
144
0.0
144
0.0
144
0.0
144
0.0208333333333333
144
0.0
144
0.0
144
0.0
144
0.0
144
1.0
144
0.0
144
0.0
144
0.0
144
0.0
144
1.0
274
     2
147
0.0208333333333333
147
0.0
147
0.0
147
0.0
147
0.0
147
0.0208333333333333
147
0.0
147
0.0
147
0.0
147
0.0
147
1.0
147
0.0
147
0.0
147
0.0
147
0.0
147
1.0
  0
MATERIAL
  5
19DCD
102
{ACAD_REACTORS
330
2CF
102
}
102
{ACAD_XDICTIONARY
360
224BA
102
}
330
2CF
100
AcDbMaterial
  1
BYLAYER
 72
     0
 73
     2
 43
0.0208333333333333
 43
0.0
 43
0.0
 43
0.0
 43
0.0
 43
0.0208333333333333
 43
0.0
 43
0.0
 43
0.0
 43
0.0
 43
1.0
 43
0.0
 43
0.0
 43
0.0
 43
0.0
 43
1.0
 77
     0
 78
     2
 47
0.0208333333333333
 47
0.0
 47
0.0
 47
0.0
 47
0.0
 47
0.0208333333333333
 47
0.0
 47
0.0
 47
0.0
 47
0.0
 47
1.0
 47
0.0
 47
0.0
 47
0.0
 47
0.0
 47
1.0
171
     0
172
     2
 49
0.0208333333333333
 49
0.0
 49
0.0
 49
0.0
 49
0.0
 49
0.0208333333333333
 49
0.0
 49
0.0
 49
0.0
 49
0.0
 49
1.0
 49
0.0
 49
0.0
 49
0.0
 49
0.0
 49
1.0
175
     0
176
     2
142
0.0208333333333333
142
0.0
142
0.0
142
0.0
142
0.0
142
0.0208333333333333
142
0.0
142
0.0
142
0.0
142
0.0
142
1.0
142
0.0
142
0.0
142
0.0
142
0.0
142
1.0
179
     0
270
     2
144
0.0208333333333333
144
0.0
144
0.0
144
0.0
144
0.0
144
0.0208333333333333
144
0.0
144
0.0
144
0.0
144
0.0
144
1.0
144
0.0
144
0.0
144
0.0
144
0.0
144
1.0
274
     2
147
0.0208333333333333
147
0.0
147
0.0
147
0.0
147
0.0
147
0.0208333333333333
147
0.0
147
0.0
147
0.0
147
0.0
147
1.0
147
0.0
147
0.0
147
0.0
147
0.0
147
1.0
  0
MATERIAL
  5
19DDD
102
{ACAD_REACTORS
330
2CF
102
}
102
{ACAD_XDICTIONARY
360
224BC
102
}
330
2CF
100
AcDbMaterial
  1
GLOBAL
 72
     0
 73
     2
 43
0.0208333333333333
 43
0.0
 43
0.0
 43
0.0
 43
0.0
 43
0.0208333333333333
 43
0.0
 43
0.0
 43
0.0
 43
0.0
 43
1.0
 43
0.0
 43
0.0
 43
0.0
 43
0.0
 43
1.0
 77
     0
 78
     2
 47
0.0208333333333333
 47
0.0
 47
0.0
 47
0.0
 47
0.0
 47
0.0208333333333333
 47
0.0
 47
0.0
 47
0.0
 47
0.0
 47
1.0
 47
0.0
 47
0.0
 47
0.0
 47
0.0
 47
1.0
171
     0
172
     2
 49
0.0208333333333333
 49
0.0
 49
0.0
 49
0.0
 49
0.0
 49
0.0208333333333333
 49
0.0
 49
0.0
 49
0.0
 49
0.0
 49
1.0
 49
0.0
 49
0.0
 49
0.0
 49
0.0
 49
1.0
175
     0
176
     2
142
0.0208333333333333
142
0.0
142
0.0
142
0.0
142
0.0
142
0.0208333333333333
142
0.0
142
0.0
142
0.0
142
0.0
142
1.0
142
0.0
142
0.0
142
0.0
142
0.0
142
1.0
179
     0
270
     2
144
0.0208333333333333
144
0.0
144
0.0
144
0.0
144
0.0
144
0.0208333333333333
144
0.0
144
0.0
144
0.0
144
0.0
144
1.0
144
0.0
144
0.0
144
0.0
144
0.0
144
1.0
274
     2
147
0.0208333333333333
147
0.0
147
0.0
147
0.0
147
0.0
147
0.0208333333333333
147
0.0
147
0.0
147
0.0
147
0.0
147
1.0
147
0.0
147
0.0
147
0.0
147
0.0
147
1.0
  0
ACAD_PROXY_OBJECT
  5
19E19
102
{ACAD_REACTORS
330
19E18
102
}
330
19E18
100
AcDbZombieObject
 90
      499
 91
      512
 93
      610
310
40901902A4063FBFFFFFE000000000000002040AD7A3703D0AD73F4214DD185B99185C990000000000000104090141901A00000000000004100000000000000041025764000000000000300FC0
340
12
340
0
340
F
340
0
 94
        0
1001
ACAD_MLEADERVER
1070
     2
  0
MLINESTYLE
  5
1C
102
{ACAD_REACTORS
330
1B
102
}
330
1B
100
AcDbMlineStyle
  2
STANDARD
 70
     0
  3

 62
   256
 51
90.0
 52
90.0
 71
     2
 49
0.5
 62
   256
  6
BYLAYER
 49
-0.5
 62
   256
  6
BYLAYER
  0
ACAD_PROXY_OBJECT
  5
19DF7
102
{ACAD_REACTORS
330
19DF6
102
}
330
19DF6
100
AcDbZombieObject
 90
      499
 91
      511
 93
       41
310
903313A31580
  0
ACAD_PROXY_OBJECT
  5
19DF8
102
{ACAD_REACTORS
330
19DF6
102
}
330
19DF6
100
AcDbZombieObject
 90
      499
 91
      511
 93
      105
310
903313A324000000000000004000
  0
ACAD_PROXY_OBJECT
  5
19DF9
102
{ACAD_REACTORS
330
19DF6
102
}
330
19DF6
100
AcDbZombieObject
 90
      499
 91
      511
 93
      105
310
903313A344000000000000104000
  0
ACAD_PROXY_OBJECT
  5
19DFA
102
{ACAD_REACTORS
330
19DF6
102
}
330
19DF6
100
AcDbZombieObject
 90
      499
 91
      511
 93
      105
310
903313A354000000000000144000
  0
ACAD_PROXY_OBJECT
  5
19DFB
102
{ACAD_REACTORS
330
19DF6
102
}
330
19DF6
100
AcDbZombieObject
 90
      499
 91
      511
 93
      105
310
903313A384000000000000204000
  0
ACAD_PROXY_OBJECT
  5
19DFC
102
{ACAD_REACTORS
330
19DF6
102
}
330
19DF6
100
AcDbZombieObject
 90
      499
 91
      511
 93
      113
310
904313A31304000000000000244000
  0
ACAD_PROXY_OBJECT
  5
19DFD
102
{ACAD_REACTORS
330
19DF6
102
}
330
19DF6
100
AcDbZombieObject
 90
      499
 91
      511
 93
      113
310
904313A31364000000000000304000
  0
ACAD_PROXY_OBJECT
  5
19DFE
102
{ACAD_REACTORS
330
19DF6
102
}
330
19DF6
100
AcDbZombieObject
 90
      499
 91
      511
 93
      113
310
904313A32304000000000000344000
  0
ACAD_PROXY_OBJECT
  5
19DFF
102
{ACAD_REACTORS
330
19DF6
102
}
330
19DF6
100
AcDbZombieObject
 90
      499
 91
      511
 93
      113
310
904313A333040000000000003E4000
  0
ACAD_PROXY_OBJECT
  5
19E00
102
{ACAD_REACTORS
330
19DF6
102
}
330
19DF6
100
AcDbZombieObject
 90
      499
 91
      511
 93
      113
310
904313A34304000000000000444000
  0
ACAD_PROXY_OBJECT
  5
19E01
102
{ACAD_REACTORS
330
19DF6
102
}
330
19DF6
100
AcDbZombieObject
 90
      499
 91
      511
 93
      113
310
904313A35304000000000000494000
  0
ACAD_PROXY_OBJECT
  5
19E02
102
{ACAD_REACTORS
330
19DF6
102
}
330
19DF6
100
AcDbZombieObject
 90
      499
 91
      511
 93
      121
310
905313A3130304000000000000594000
  0
ACAD_PROXY_OBJECT
  5
19E03
102
{ACAD_REACTORS
330
19DF6
102
}
330
19DF6
100
AcDbZombieObject
 90
      499
 91
      511
 93
      105
310
903323A310000000000000010100
  0
ACAD_PROXY_OBJECT
  5
19E04
102
{ACAD_REACTORS
330
19DF6
102
}
330
19DF6
100
AcDbZombieObject
 90
      499
 91
      511
 93
      105
310
903343A310000000000000410100
  0
ACAD_PROXY_OBJECT
  5
19E05
102
{ACAD_REACTORS
330
19DF6
102
}
330
19DF6
100
AcDbZombieObject
 90
      499
 91
      511
 93
      105
310
903383A310000000000000810100
  0
ACAD_PROXY_OBJECT
  5
19E06
102
{ACAD_REACTORS
330
19DF6
102
}
330
19DF6
100
AcDbZombieObject
 90
      499
 91
      511
 93
      113
310
90431303A310000000000000910100
  0
ACAD_PROXY_OBJECT
  5
19E07
102
{ACAD_REACTORS
330
19DF6
102
}
330
19DF6
100
AcDbZombieObject
 90
      499
 91
      511
 93
      121
310
9053130303A310000000000001650100
  0
ACAD_PROXY_OBJECT
  5
19E08
102
{ACAD_REACTORS
330
19DF6
102
}
330
19DF6
100
AcDbZombieObject
 90
      499
 91
      511
 93
      257
310
90E312F31323822203D2031272D3022000000000000200FC000000000000284000
  0
ACAD_PROXY_OBJECT
  5
19E09
102
{ACAD_REACTORS
330
19DF6
102
}
330
19DF6
100
AcDbZombieObject
 90
      499
 91
      511
 93
      249
310
90D312F363422203D2031272D3022000000000000240FC000000000000284000
  0
ACAD_PROXY_OBJECT
  5
19E0A
102
{ACAD_REACTORS
330
19DF6
102
}
330
19DF6
100
AcDbZombieObject
 90
      499
 91
      511
 93
      249
310
90D312F333222203D2031272D3022000000000000280FC000000000000284000
  0
ACAD_PROXY_OBJECT
  5
19E0B
102
{ACAD_REACTORS
330
19DF6
102
}
330
19DF6
100
AcDbZombieObject
 90
      499
 91
      511
 93
      249
310
90D312F313622203D2031272D30220000000000002C0FC000000000000284000
  0
ACAD_PROXY_OBJECT
  5
19E0C
102
{ACAD_REACTORS
330
19DF6
102
}
330
19DF6
100
AcDbZombieObject
 90
      499
 91
      511
 93
      249
310
90D332F333222203D2031272D30220000000000002E0FC000000000000284000
  0
ACAD_PROXY_OBJECT
  5
19E0D
102
{ACAD_REACTORS
330
19DF6
102
}
330
19DF6
100
AcDbZombieObject
 90
      499
 91
      511
 93
      241
310
90C312F3822203D2031272D3022000000000000300FC000000000000284000
  0
ACAD_PROXY_OBJECT
  5
19E0E
102
{ACAD_REACTORS
330
19DF6
102
}
330
19DF6
100
AcDbZombieObject
 90
      499
 91
      511
 93
      249
310
90D332F313622203D2031272D3022000000000000320FC000000000000284000
  0
ACAD_PROXY_OBJECT
  5
19E0F
102
{ACAD_REACTORS
330
19DF6
102
}
330
19DF6
100
AcDbZombieObject
 90
      499
 91
      511
 93
      241
310
90C312F3422203D2031272D3022000000000000340FC000000000000284000
  0
ACAD_PROXY_OBJECT
  5
19E10
102
{ACAD_REACTORS
330
19DF6
102
}
330
19DF6
100
AcDbZombieObject
 90
      499
 91
      511
 93
      241
310
90C332F3822203D2031272D3022000000000000360FC000000000000284000
  0
ACAD_PROXY_OBJECT
  5
19E11
102
{ACAD_REACTORS
330
19DF6
102
}
330
19DF6
100
AcDbZombieObject
 90
      499
 91
      511
 93
      241
310
90C312F3222203D2031272D3022000000000000380FC000000000000284000
  0
ACAD_PROXY_OBJECT
  5
19E12
102
{ACAD_REACTORS
330
19DF6
102
}
330
19DF6
100
AcDbZombieObject
 90
      499
 91
      511
 93
      241
310
90C332F3422203D2031272D30220000000000003A0FC000000000000284000
  0
ACAD_PROXY_OBJECT
  5
19E13
102
{ACAD_REACTORS
330
19DF6
102
}
330
19DF6
100
AcDbZombieObject
 90
      499
 91
      511
 93
      161
310
90A3122203D2031272D30224000000000000284000
  0
ACAD_PROXY_OBJECT
  5
19E14
102
{ACAD_REACTORS
330
19DF6
102
}
330
19DF6
100
AcDbZombieObject
 90
      499
 91
      511
 93
      257
310
90E312D312F3222203D2031272D30220000000000003E0FC000000000000284000
  0
ACAD_PROXY_OBJECT
  5
19E15
102
{ACAD_REACTORS
330
19DF6
102
}
330
19DF6
100
AcDbZombieObject
 90
      499
 91
      511
 93
      225
310
90A3322203D2031272D302200000000000002100000000000000284000
  0
ACAD_PROXY_OBJECT
  5
19E16
102
{ACAD_REACTORS
330
19DF6
102
}
330
19DF6
100
AcDbZombieObject
 90
      499
 91
      511
 93
      225
310
90A3622203D2031272D302200000000000006100000000000000284000
  0
ACAD_PROXY_OBJECT
  5
19E17
102
{ACAD_REACTORS
330
19DF6
102
}
330
19DF6
100
AcDbZombieObject
 90
      499
 91
      511
 93
      249
310
90D31272D3022203D2031272D30220000000000000A100000000000000284000
  0
ACAD_PROXY_OBJECT
  5
19DEB
102
{ACAD_REACTORS
330
19DE5
102
}
330
19DE5
100
AcDbZombieObject
 90
      499
 91
      510
 93
      436
310
42CC9915DA5C99599C985B595049028333333333333E3BF0000000000000FB0107901411070040501600405405064090741402480A0340
1001
ACAD
1000
AcDbSavedByObjectVersion
1070
     0
  0
ACAD_PROXY_OBJECT
  5
19DED
102
{ACAD_REACTORS
330
19DE5
102
}
330
19DE5
100
AcDbZombieObject
 90
      499
 91
      510
 93
      500
310
424CD108121A5919195B90640502408333333333333E3BF0000000000000FB01079024090700405020000000000001110200405405064090740C02480A0340
1001
ACAD
1000
AcDbSavedByObjectVersion
1070
     0
  0
ACAD_PROXY_OBJECT
  5
19DEC
102
{ACAD_REACTORS
330
19DE5
102
}
330
19DE5
100
AcDbZombieObject
 90
      499
 91
      510
 93
      436
310
42CCD915DA5C99599C985B595059028333333333333E3BF0000000000000FB0107901411070040501600405405064090741402480A0340
1001
ACAD
1000
AcDbSavedByObjectVersion
1070
     0
  0
ACAD_PROXY_OBJECT
  5
19DEA
102
{ACAD_REACTORS
330
19DE5
102
}
330
19DE5
100
AcDbZombieObject
 90
      499
 91
      510
 93
      388
310
4150985CDA58D07406404333333333333E3BF0000000000000FB0107A41107004050150841D405064090741402480A0350
1001
ACAD
1000
AcDbSavedByObjectVersion
1070
     0
  0
ACAD_PROXY_OBJECT
  5
19DF1
102
{ACAD_REACTORS
330
19DE5
102
}
330
19DE5
100
AcDbZombieObject
 90
      499
 91
      510
 93
      428
310
42109C9A59DA1D195B90C409028333333333333E3BF0000000000000FB010790141107004050150841D405064090741402480A029950
1001
ACAD
1000
AcDbSavedByObjectVersion
1070
     0
  0
ACAD_PROXY_OBJECT
  5
19DF5
102
{ACAD_REACTORS
330
19DE5
102
}
330
19DE5
100
AcDbZombieObject
 90
      499
 91
      510
 93
      452
310
42D0DBDB1BDC90DA185B99D95104090240C333333333333E3BF0000000000000FB0108901411070040501508421405064090741402480A0350
1001
ACAD
1000
AcDbSavedByObjectVersion
1070
     0
  0
ACAD_PROXY_OBJECT
  5
19DEE
102
{ACAD_REACTORS
330
19DE5
102
}
330
19DE5
100
AcDbZombieObject
 90
      499
 91
      510
 93
      500
310
4290DBDB98D95C1D1D585B10940D028333333333333E3BF0000000000000FB0107902409070040501000000000000111010841D405064090740C02480A0340
1001
ACAD
1000
AcDbSavedByObjectVersion
1070
     0
  0
ACAD_PROXY_OBJECT
  5
19DF0
102
{ACAD_REACTORS
330
19DE5
102
}
330
19DE5
100
AcDbZombieObject
 90
      499
 91
      510
 93
      412
310
40D11A5B50B409028333333333333E3BF0000000000000FB010790141107004050150841D405064090741402480A02677FFFFFD0
1001
ACAD
1000
AcDbSavedByObjectVersion
1070
     0
  0
ACAD_PROXY_OBJECT
  5
1E02A
102
{ACAD_REACTORS
330
19DE5
102
}
330
19DE5
100
AcDbZombieObject
 90
      499
 91
      510
 93
      452
310
43115919D950DBDB1BDC93D999916409028333333333333E3BF0000000000000FB010790141107004050150841D405064090741402480A0350
1001
ACAD
1000
AcDbSavedByObjectVersion
1070
     0
  0
ACAD_PROXY_OBJECT
  5
19DF4
102
{ACAD_REACTORS
330
19DE5
102
}
330
19DE5
100
AcDbZombieObject
 90
      499
 91
      510
 93
      444
310
42D19858D95C185D1D195C9B90F409028333333333333E3BF0000000000000FB010790141107004050150841D405064090741402480A0350
1001
ACAD
1000
AcDbSavedByObjectVersion
1070
     0
  0
ACAD_PROXY_OBJECT
  5
19DE6
102
{ACAD_REACTORS
330
19DE5
102
}
330
19DE5
100
AcDbZombieObject
 90
      499
 91
      510
 93
      388
310
41119B185D240901404333333333333E3BF0000000000000F9010740A41107004050150841D405064090741402480A1B50
1001
ACAD
1000
AcDbSavedByObjectVersion
1070
     0
  0
ACAD_PROXY_OBJECT
  5
19DE7
102
{ACAD_REACTORS
330
19DE5
102
}
330
19DE5
100
AcDbZombieObject
 90
      499
 91
      510
 93
      476
310
43519B185D15DA5D1A115919D95CD0140901404333333333333E3BF0000000000000F9010740901411070040501600405405064090741402480A1B50
1001
ACAD
1000
AcDbSavedByObjectVersion
1070
     0
  0
ACAD_PROXY_OBJECT
  5
19DE8
102
{ACAD_REACTORS
330
19DE5
102
}
330
19DE5
100
AcDbZombieObject
 90
      499
 91
      510
 93
      412
310
41D1DBDD5C985D5910240902404333333333333E3BF0000000000000F9010740A411070040501641D405064090741402480A1B50
1001
ACAD
1000
AcDbSavedByObjectVersion
1070
     0
  0
ACAD_PROXY_OBJECT
  5
19DE9
102
{ACAD_REACTORS
330
19DE5
102
}
330
19DE5
100
AcDbZombieObject
 90
      499
 91
      510
 93
      500
310
4411DBDD5C985D5915DA5D1A115919D95CD0340902404333333333333E3BF0000000000000F9010740901411070040501600405405064090741402480A1B50
1001
ACAD
1000
AcDbSavedByObjectVersion
1070
     0
  0
ACAD_PROXY_OBJECT
  5
1F381
102
{ACAD_REACTORS
330
19DE5
102
}
330
19DE5
100
AcDbZombieObject
 90
      499
 91
      510
 93
      476
310
41921A5919195B90640502408333333333333E3BF0000000000000FB01079024090700405020000000000001110200405405064090740C02480A0340
1001
ACAD
1000
AcDbSavedByObjectVersion
1070
     0
  0
ACAD_PROXY_OBJECT
  5
1E028
102
{ACAD_REACTORS
330
19DE5
102
}
330
19DE5
100
AcDbZombieObject
 90
      499
 91
      510
 93
      428
310
42529A5D1D195C93D999914409028333333333333E3BF0000000000000FB010790141107004050150A41D405064090741402480A0350
1001
ACAD
1000
AcDbSavedByObjectVersion
1070
     0
  0
ACAD_PROXY_OBJECT
  5
19DF3
102
{ACAD_REACTORS
330
19DE5
102
}
330
19DE5
100
AcDbZombieObject
 90
      499
 91
      510
 93
      444
310
42D31A5B995C185D1D195C9B90E409028333333333333E3BF0000000000000FB010790141107004050750841D405064090741402483A0350
1001
ACAD
1000
AcDbSavedByObjectVersion
1070
     0
  0
ACAD_PROXY_OBJECT
  5
219D4
102
{ACAD_REACTORS
330
19DE5
102
}
330
19DE5
100
AcDbZombieObject
 90
      499
 91
      510
 93
      484
310
42135BD9195B1A5B99D0A409038333333333333E33F0000000000000F901074090290700405010000000000201990108421405064090741402480A1B40
1001
ACAD
1000
AcDbSavedByObjectVersion
1070
     0
  0
ACAD_PROXY_OBJECT
  5
1E029
102
{ACAD_REACTORS
330
19DE5
102
}
330
19DE5
100
AcDbZombieObject
 90
      499
 91
      510
 93
      444
310
42D3DD995C9A185B99D3D999915409028333333333333E3BF0000000000000FB010790141107004050150941D405064090741402480A0350
1001
ACAD
1000
AcDbSavedByObjectVersion
1070
     0
  0
ACAD_PROXY_OBJECT
  5
19DEF
102
{ACAD_REACTORS
330
19DE5
102
}
330
19DE5
100
AcDbZombieObject
 90
      499
 91
      510
 93
      420
310
425499585B1A5CDD1A58D08409028333333333333E3BF0000000000000FB01079019070040501508421405064090741402480A1B40
1001
ACAD
1000
AcDbSavedByObjectVersion
1070
     0
  0
ACAD_PROXY_OBJECT
  5
1F386
102
{ACAD_REACTORS
330
19DE5
102
}
330
19DE5
100
AcDbZombieObject
 90
      499
 91
      510
 93
      420
310
4194DA1859195911B40902404333333333333E3BF0000000000000F9010740A41107004050150800405405064090840C02480A0B40
1001
ACAD
1000
AcDbSavedByObjectVersion
1070
     0
  0
ACAD_PROXY_OBJECT
  5
1F385
102
{ACAD_REACTORS
330
19DE5
102
}
330
19DE5
100
AcDbZombieObject
 90
      499
 91
      510
 93
      516
310
4454DA18591959081DDA5D1A08195919D95CD1A40902404333333333333E3BF0000000000000F901074090142907004050250800405405064090740C02480A0B40
1001
ACAD
1000
AcDbSavedByObjectVersion
1070
     0
  0
ACAD_PROXY_OBJECT
  5
1F382
102
{ACAD_REACTORS
330
19DE5
102
}
330
19DE5
100
AcDbZombieObject
 90
      499
 91
      510
 93
      532
310
4394DA1859195CC81BD98811DC985E5174090240C333333333333E3BF0000000000000FB01079024090741D01000000000000111010841D405064090740C02480A0340
1001
ACAD
1000
AcDbSavedByObjectVersion
1070
     0
  0
ACAD_PROXY_OBJECT
  5
1F383
102
{ACAD_REACTORS
330
19DE5
102
}
330
19DE5
100
AcDbZombieObject
 90
      499
 91
      510
 93
      476
310
41D4DAD95D18DA1E51840502408333333333333E3BF0000000000000FB01079024090741D01000000000000111010B41D405064090741802480A0340
1001
ACAD
1000
AcDbSavedByObjectVersion
1070
     0
  0
ACAD_PROXY_OBJECT
  5
19DF2
102
{ACAD_REACTORS
330
19DE5
102
}
330
19DE5
100
AcDbZombieObject
 90
      499
 91
      510
 93
      412
310
41D51A1A58DAD95B90D409028333333333333E3BF0000000000000FB010790141107004050150C41D405064090741402480A0350
1001
ACAD
1000
AcDbSavedByObjectVersion
1070
     0
  0
ACAD_PROXY_OBJECT
  5
1F380
102
{ACAD_REACTORS
330
19DE5
102
}
330
19DE5
100
AcDbZombieObject
 90
      499
 91
      510
 93
      420
310
4255DA5C99599C985B595059028333333333333E3BF0000000000000FB0107901411070040501600405405064090740C02480A0340
1001
ACAD
1000
AcDbSavedByObjectVersion
1070
     0
  0
ACAD_PROXY_OBJECT
  5
1F384
102
{ACAD_REACTORS
330
19DE5
102
}
330
19DE5
100
AcDbZombieObject
 90
      499
 91
      510
 93
      404
310
41560B54985E51940902404000000000000E03F0000000000000FB010740501907004050150841D405064090740C02480A1B40
1001
ACAD
1000
AcDbSavedByObjectVersion
1070
     0
  0
XRECORD
  5
2231B
102
{ACAD_REACTORS
330
2231A
102
}
330
2231A
100
AcDbXrecord
340
2D0
  0
XRECORD
  5
2231C
102
{ACAD_REACTORS
330
2231A
102
}
330
2231A
100
AcDbXrecord
340
2CF
  0
DICTIONARYVAR
  5
219EB
102
{ACAD_REACTORS
330
37
102
}
330
37
100
DictionaryVariables
280
     0
  1
1:1
  0
DICTIONARYVAR
  5
1AC19
102
{ACAD_REACTORS
330
37
102
}
330
37
100
DictionaryVariables
280
     0
  1
Standard
  0
DICTIONARYVAR
  5
4F1
102
{ACAD_REACTORS
330
37
102
}
330
37
100
DictionaryVariables
280
     0
  1
Standard
  0
DICTIONARYVAR
  5
38
102
{ACAD_REACTORS
330
37
102
}
330
37
100
DictionaryVariables
280
     0
  1
-1
  0
DICTIONARYVAR
  5
408
102
{ACAD_REACTORS
330
37
102
}
330
37
100
DictionaryVariables
280
     0
  1
2
  0
DICTIONARYVAR
  5
1891
102
{ACAD_REACTORS
330
37
102
}
330
37
100
DictionaryVariables
280
     0
  1
1
  0
DICTIONARYVAR
  5
1AC1C
102
{ACAD_REACTORS
330
37
102
}
330
37
100
DictionaryVariables
280
     0
  1
0
  0
DICTIONARYVAR
  5
1895
102
{ACAD_REACTORS
330
37
102
}
330
37
100
DictionaryVariables
280
     0
  1
8
  0
DICTIONARYVAR
  5
1894
102
{ACAD_REACTORS
330
37
102
}
330
37
100
DictionaryVariables
280
     0
  1
1
  0
DICTIONARYVAR
  5
211C3
102
{ACAD_REACTORS
330
37
102
}
330
37
100
DictionaryVariables
280
     0
  1
0
  0
DICTIONARYVAR
  5
211C4
102
{ACAD_REACTORS
330
37
102
}
330
37
100
DictionaryVariables
280
     0
  1
0
  0
DICTIONARYVAR
  5
20A9B
102
{ACAD_REACTORS
330
37
102
}
330
37
100
DictionaryVariables
280
     0
  1
0
  0
DICTIONARYVAR
  5
1892
102
{ACAD_REACTORS
330
37
102
}
330
37
100
DictionaryVariables
280
     0
  1
120
  0
DICTIONARYVAR
  5
1893
102
{ACAD_REACTORS
330
37
102
}
330
37
100
DictionaryVariables
280
     0
  1
0
  0
DICTIONARYVAR
  5
409
102
{ACAD_REACTORS
330
37
102
}
330
37
100
DictionaryVariables
280
     0
  1

  0
DICTIONARYVAR
  5
1AC1B
102
{ACAD_REACTORS
330
37
102
}
330
37
100
DictionaryVariables
280
     0
  1
127
  0
DICTIONARYVAR
  5
219D3
102
{ACAD_REACTORS
330
37
102
}
330
37
100
DictionaryVariables
280
     0
  1
2
  0
DICTIONARY
  5
224B8
330
19DD5
100
AcDbDictionary
  3
ACAD_XREC_ROUNDTRIP
360
224B9
1001
ACAD
1000
TREAT_AS_HARD
1070
     1
  0
DICTIONARY
  5
224BA
330
19DCD
100
AcDbDictionary
  3
ACAD_XREC_ROUNDTRIP
360
224BB
1001
ACAD
1000
TREAT_AS_HARD
1070
     1
  0
DICTIONARY
  5
224BC
330
19DDD
100
AcDbDictionary
  3
ACAD_XREC_ROUNDTRIP
360
224BD
1001
ACAD
1000
TREAT_AS_HARD
1070
     1
  0
XRECORD
  5
224B9
102
{ACAD_REACTORS
330
224B8
102
}
330
224B8
100
AcDbXrecord
102
MATERIAL
148
0.0
149
0.0
149
0.0
 93
        0
 94
      127
282
     0
 72
     0
 77
     0
171
     0
175
     0
179
     0
273
     0
  0
XRECORD
  5
224BB
102
{ACAD_REACTORS
330
224BA
102
}
330
224BA
100
AcDbXrecord
102
MATERIAL
148
0.0
149
0.0
149
0.0
 93
        0
 94
      127
282
     0
 72
     0
 77
     0
171
     0
175
     0
179
     0
273
     0
  0
XRECORD
  5
224BD
102
{ACAD_REACTORS
330
224BC
102
}
330
224BC
100
AcDbXrecord
102
MATERIAL
148
0.0
149
0.0
149
0.0
 93
        0
 94
      127
282
     0
 72
     0
 77
     0
171
     0
175
     0
179
     0
273
     0
  0
ENDSEC
  0
EOF
