  0
SECTION
  2
HEADER
  9
$ACADVER
  1
AC1012
  9
$DWGCODEPAGE
  3
ansi_932
  9
$INSBASE
 10
0.0
 20
0.0
 30
0.0
  9
$EXTMIN
 10
249.1046988644332
 20
-240.4181496044712
 30
0.0
  9
$EXTMAX
 10
618.0210800679783
 20
73.38317476674231
 30
0.0
  9
$LIMMIN
 10
0.0
 20
0.0
  9
$LIMMAX
 10
420.0
 20
297.0
  9
$ORTHOMODE
 70
     0
  9
$REGENMODE
 70
     1
  9
$FILLMODE
 70
     1
  9
$QTEXTMODE
 70
     0
  9
$MIRRTEXT
 70
     0
  9
$DRAGMODE
 70
     2
  9
$LTSCALE
 40
0.5
  9
$OSMODE
 70
 14591
  9
$ATTMODE
 70
     1
  9
$TEXTSIZE
 40
4.0
  9
$TRACEWID
 40
1.0
  9
$TEXTSTYLE
  7
STANDARD
  9
$CLAYER
  8
1TEXT
  9
$CELTYPE
  6
BYLAYER
  9
$CECOLOR
 62
   256
  9
$CELTSCALE
 40
1.0
  9
$DELOBJ
 70
     1
  9
$DISPSILH
 70
     0
  9
$DIMSCALE
 40
1.0
  9
$DIMASZ
 40
2.0
  9
$DIMEXO
 40
0.0
  9
$DIMDLI
 40
7.0
  9
$DIMRND
 40
0.0
  9
$DIMDLE
 40
0.0
  9
$DIMEXE
 40
1.0
  9
$DIMTP
 40
0.0
  9
$DIMTM
 40
0.0
  9
$DIMTXT
 40
3.5
  9
$DIMCEN
 40
0.0
  9
$DIMTSZ
 40
0.0
  9
$DIMTOL
 70
     0
  9
$DIMLIM
 70
     0
  9
$DIMTIH
 70
     0
  9
$DIMTOH
 70
     0
  9
$DIMSE1
 70
     0
  9
$DIMSE2
 70
     0
  9
$DIMTAD
 70
     1
  9
$DIMZIN
 70
     8
  9
$DIMBLK
  1

  9
$DIMASO
 70
     1
  9
$DIMSHO
 70
     1
  9
$DIMPOST
  1
 
  9
$DIMAPOST
  1

  9
$DIMALT
 70
     0
  9
$DIMALTD
 70
     2
  9
$DIMALTF
 40
25.4
  9
$DIMLFAC
 40
1.0
  9
$DIMTOFL
 70
     1
  9
$DIMTVP
 40
0.0
  9
$DIMTIX
 70
     0
  9
$DIMSOXD
 70
     0
  9
$DIMSAH
 70
     1
  9
$DIMBLK1
  1
OPEN30
  9
$DIMBLK2
  1
OPEN30
  9
$DIMSTYLE
  2
NEWX10
  9
$DIMCLRD
 70
   256
  9
$DIMCLRE
 70
   256
  9
$DIMCLRT
 70
   201
  9
$DIMTFAC
 40
0.7
  9
$DIMGAP
 40
0.7
  9
$DIMJUST
 70
     0
  9
$DIMSD1
 70
     0
  9
$DIMSD2
 70
     0
  9
$DIMTOLJ
 70
     1
  9
$DIMTZIN
 70
     8
  9
$DIMALTZ
 70
     0
  9
$DIMALTTZ
 70
     0
  9
$DIMFIT
 70
     2
  9
$DIMUPT
 70
     0
  9
$DIMUNIT
 70
     2
  9
$DIMDEC
 70
     2
  9
$DIMTDEC
 70
     4
  9
$DIMALTU
 70
     2
  9
$DIMALTTD
 70
     2
  9
$DIMTXSTY
  7
STANDARD
  9
$DIMAUNIT
 70
     0
  9
$LUNITS
 70
     2
  9
$LUPREC
 70
     4
  9
$SKETCHINC
 40
1.0
  9
$FILLETRAD
 40
0.0
  9
$AUNITS
 70
     0
  9
$AUPREC
 70
     2
  9
$MENU
  1
acad
  9
$ELEVATION
 40
0.0
  9
$PELEVATION
 40
0.0
  9
$THICKNESS
 40
0.0
  9
$LIMCHECK
 70
     0
  9
$CHAMFERA
 40
10.0
  9
$CHAMFERB
 40
10.0
  9
$CHAMFERC
 40
20.0
  9
$CHAMFERD
 40
0.0
  9
$SKPOLY
 70
     0
  9
$TDCREATE
 40
2451318.621352917
  9
$TDUPDATE
 40
2458044.368386412
  9
$TDINDWG
 40
1.1260493866
  9
$TDUSRTIMER
 40
1.1260493866
  9
$USRTIMER
 70
     1
  9
$ANGBASE
 50
0.0
  9
$ANGDIR
 70
     0
  9
$PDMODE
 70
     0
  9
$PDSIZE
 40
0.0
  9
$PLINEWID
 40
0.0
  9
$COORDS
 70
     2
  9
$SPLFRAME
 70
     0
  9
$SPLINETYPE
 70
     6
  9
$SPLINESEGS
 70
     8
  9
$ATTDIA
 70
     0
  9
$ATTREQ
 70
     1
  9
$HANDLING
 70
     1
  9
$HANDSEED
  5
11C62
  9
$SURFTAB1
 70
     6
  9
$SURFTAB2
 70
     6
  9
$SURFTYPE
 70
     6
  9
$SURFU
 70
     6
  9
$SURFV
 70
     6
  9
$UCSNAME
  2

  9
$UCSORG
 10
0.0
 20
0.0
 30
0.0
  9
$UCSXDIR
 10
1.0
 20
0.0
 30
0.0
  9
$UCSYDIR
 10
0.0
 20
1.0
 30
0.0
  9
$PUCSNAME
  2

  9
$PUCSORG
 10
0.0
 20
0.0
 30
0.0
  9
$PUCSXDIR
 10
1.0
 20
0.0
 30
0.0
  9
$PUCSYDIR
 10
0.0
 20
1.0
 30
0.0
  9
$USERI1
 70
     0
  9
$USERI2
 70
     0
  9
$USERI3
 70
     0
  9
$USERI4
 70
     0
  9
$USERI5
 70
     0
  9
$USERR1
 40
0.0
  9
$USERR2
 40
0.0
  9
$USERR3
 40
0.0
  9
$USERR4
 40
0.0
  9
$USERR5
 40
0.0
  9
$WORLDVIEW
 70
     1
  9
$SHADEDGE
 70
     3
  9
$SHADEDIF
 70
    70
  9
$TILEMODE
 70
     1
  9
$MAXACTVP
 70
    48
  9
$PINSBASE
 10
0.0
 20
0.0
 30
0.0
  9
$PLIMCHECK
 70
     0
  9
$PEXTMIN
 10
1.000000000000000E+20
 20
1.000000000000000E+20
 30
1.000000000000000E+20
  9
$PEXTMAX
 10
-1.000000000000000E+20
 20
-1.000000000000000E+20
 30
-1.000000000000000E+20
  9
$PLIMMIN
 10
0.0
 20
0.0
  9
$PLIMMAX
 10
420.0
 20
297.0
  9
$UNITMODE
 70
     0
  9
$VISRETAIN
 70
     1
  9
$PLINEGEN
 70
     0
  9
$PSLTSCALE
 70
     1
  9
$TREEDEPTH
 70
  3020
  9
$PICKSTYLE
 70
     1
  9
$CMLSTYLE
  2
STANDARD
  9
$CMLJUST
 70
     0
  9
$CMLSCALE
 40
20.0
  9
$SAVEIMAGES
 70
     1
  0
ENDSEC
  0
SECTION
  2
CLASSES
  0
CLASS
  1
DICTIONARYVAR
  2
AcDbDictionaryVar
  3
ObjectDBX Classes
 90
        0
280
     0
281
     0
  0
CLASS
  1
IDBUFFER
  2
AcDbIdBuffer
  3
ObjectDBX Classes
 90
    32768
280
     0
281
     0
  0
CLASS
  1
LWPOLYLINE
  2
AcDbPolyline
  3
ObjectDBX Classes
 90
    32768
280
     0
281
     1
  0
CLASS
  1
ACDBDICTIONARYWDFLT
  2
AcDbDictionaryWithDefault
  3
ObjectDBX Classes
 90
    32768
280
     0
281
     0
  0
CLASS
  1
ACDBPLACEHOLDER
  2
AcDbPlaceHolder
  3
ObjectDBX Classes
 90
        0
280
     0
281
     0
  0
CLASS
  1
LAYOUT
  2
AcDbLayout
  3
ObjectDBX Classes
 90
        0
280
     0
281
     0
  0
CLASS
  1
TABLESTYLE
  2
AcDbTableStyle
  3
ObjectDBX Classes
 90
     4095
280
     0
281
     0
  0
CLASS
  1
SORTENTSTABLE
  2
AcDbSortentsTable
  3
ObjectDBX Classes
 90
    32768
280
     0
281
     0
  0
CLASS
  1
MATERIAL
  2
AcDbMaterial
  3
ObjectDBX Classes
 90
     1153
280
     0
281
     0
  0
CLASS
  1
VISUALSTYLE
  2
AcDbVisualStyle
  3
ObjectDBX Classes
 90
     4095
280
     0
281
     0
  0
CLASS
  1
SCALE
  2
AcDbScale
  3
ObjectDBX Classes
 90
     1153
280
     0
281
     0
  0
CLASS
  1
MLEADERSTYLE
  2
AcDbMLeaderStyle
  3
ACDB_MLEADERSTYLE_CLASS
 90
     4095
280
     0
281
     0
  0
CLASS
  1
CELLSTYLEMAP
  2
AcDbCellStyleMap
  3
ObjectDBX Classes
 90
     1152
280
     0
281
     0
  0
CLASS
  1
DIMASSOC
  2
AcDbDimAssoc
  3
"AcDbDimAssoc|Product Desc:     AcDim ARX App For Dimension|Company:          Autodesk, Inc.|WEB Address:      www.autodesk.com"
 90
        0
280
     0
281
     0
  0
CLASS
  1
AEC_REFEDIT_STATUS_TRACKER
  2
AecDbRefEditStatusTracker
  3
AecArchBase60|Product Desc: Autodesk Architectural Desktop 2007 |Company: Autodesk,Inc. |WEB Address: www.autodesk.com
 90
      129
280
     1
281
     0
  0
CLASS
  1
NPOCOLLECTION
  2
AcDbImpNonPersistentObjectsCollection
  3
ObjectDBX Classes
 90
     1153
280
     1
281
     0
  0
CLASS
  1
SUN
  2
AcDbSun
  3
SCENEOE
 90
     1153
280
     0
281
     0
  0
CLASS
  1
XRECORD
  2
AcDbXrecord
  3
ObjectDBX Classes
 90
    32768
280
     0
281
     0
  0
CLASS
  1
HATCH
  2
AcDbHatch
  3
ObjectDBX Classes
 90
    32768
280
     0
281
     1
  0
ENDSEC
  0
SECTION
  2
TABLES
  0
TABLE
  2
VPORT
  5
8
330
0
100
AcDbSymbolTable
 70
     1
  0
VPORT
  5
CFAB
330
8
100
AcDbSymbolTableRecord
100
AcDbViewportTableRecord
  2
*ACTIVE
 70
     0
 10
0.0
 20
0.0
 11
1.0
 21
1.0
 12
433.5628894662058
 22
-83.51748741886445
 13
0.0
 23
0.0
 14
10.0
 24
10.0
 15
10.0
 25
10.0
 16
0.0
 26
0.0
 36
1.0
 17
0.0
 27
0.0
 37
0.0
 40
336.9235272196187
 41
2.020775623268698
 42
50.0
 43
0.0
 44
0.0
 50
0.0
 51
0.0
 71
    16
 72
   100
 73
     1
 74
     1
 75
     0
 76
     0
 77
     0
 78
     0
  0
ENDTAB
  0
TABLE
  2
LTYPE
  5
5
330
0
100
AcDbSymbolTable
 70
     5
  0
LTYPE
  5
12
330
5
100
AcDbSymbolTableRecord
100
AcDbLinetypeTableRecord
  2
BYBLOCK
 70
     0
  3

 72
    65
 73
     0
 40
0.0
  0
LTYPE
  5
13
330
5
100
AcDbSymbolTableRecord
100
AcDbLinetypeTableRecord
  2
BYLAYER
 70
     0
  3

 72
    65
 73
     0
 40
0.0
  0
LTYPE
  5
14
330
5
100
AcDbSymbolTableRecord
100
AcDbLinetypeTableRecord
  2
CONTINUOUS
 70
     0
  3
Solid line
 72
    65
 73
     0
 40
0.0
  0
LTYPE
  5
6A
330
5
100
AcDbSymbolTableRecord
100
AcDbLinetypeTableRecord
  2
XREF1|CENTER2
 70
    48
  3
Center (.5x) ___ _ ___ _ ___ _ ___ _ ___ _ ___
 72
    65
 73
     4
 40
28.575
 49
19.05
 74
     0
 49
-3.175
 74
     0
 49
3.175
 74
     0
 49
-3.175
 74
     0
  0
LTYPE
  5
6A6
330
5
100
AcDbSymbolTableRecord
100
AcDbLinetypeTableRecord
  2
A3WAKUDAKE|CENTER2
 70
    48
  3
Center (.5x) ___ _ ___ _ ___ _ ___ _ ___ _ ___
 72
    65
 73
     4
 40
28.575
 49
19.05
 74
     0
 49
-3.175
 74
     0
 49
3.175
 74
     0
 49
-3.175
 74
     0
  0
LTYPE
  5
A61B
330
5
100
AcDbSymbolTableRecord
100
AcDbLinetypeTableRecord
  2
CENTER2
 70
     0
  3
Center (.5x) ___ _ ___ _ ___ _ ___ _ ___ _ ___
 72
    65
 73
     4
 40
28.575
 49
19.05
 74
     0
 49
-3.175
 74
     0
 49
3.175
 74
     0
 49
-3.175
 74
     0
  0
LTYPE
  5
EE86
330
5
100
AcDbSymbolTableRecord
100
AcDbLinetypeTableRecord
  2
PHANTOM2
 70
     0
  3
Phantom (0.5x) ___ _ _ ___ _ _ ___ _ _ ___ _ _
 72
    65
 73
     6
 40
31.75
 49
15.875
 74
     0
 49
-3.175
 74
     0
 49
3.175
 74
     0
 49
-3.175
 74
     0
 49
3.175
 74
     0
 49
-3.175
 74
     0
  0
ENDTAB
  0
TABLE
  2
LAYER
  5
2
102
{ACAD_XDICTIONARY
360
D16C
102
}
330
0
100
AcDbSymbolTable
 70
    10
  0
LAYER
  5
E
102
{ACAD_XDICTIONARY
360
D0B5
102
}
330
2
100
AcDbSymbolTableRecord
100
AcDbLayerTableRecord
  2
0
 70
     0
 62
     7
  6
CONTINUOUS
  0
LAYER
  5
29
102
{ACAD_XDICTIONARY
360
D0B7
102
}
330
2
100
AcDbSymbolTableRecord
100
AcDbLayerTableRecord
  2
1CENTER
 70
     0
 62
     7
  6
CENTER2
  0
LAYER
  5
31
102
{ACAD_XDICTIONARY
360
D0B9
102
}
330
2
100
AcDbSymbolTableRecord
100
AcDbLayerTableRecord
  2
1TEXT
 70
     0
 62
     7
  6
CONTINUOUS
  0
LAYER
  5
243
102
{ACAD_XDICTIONARY
360
D0BF
102
}
330
2
100
AcDbSymbolTableRecord
100
AcDbLayerTableRecord
  2
01
 70
     0
 62
     1
  6
CONTINUOUS
  0
LAYER
  5
24E
102
{ACAD_XDICTIONARY
360
D0C5
102
}
330
2
100
AcDbSymbolTableRecord
100
AcDbLayerTableRecord
  2
1DIM
 70
     0
 62
     7
  6
CONTINUOUS
  0
LAYER
  5
6A1
102
{ACAD_XDICTIONARY
360
D0C9
102
}
330
2
100
AcDbSymbolTableRecord
100
AcDbLayerTableRecord
  2
A3WAKUDAKE|THICK
 70
    48
 62
     7
  6
CONTINUOUS
  0
LAYER
  5
6A2
102
{ACAD_XDICTIONARY
360
D0CB
102
}
330
2
100
AcDbSymbolTableRecord
100
AcDbLayerTableRecord
  2
A3WAKUDAKE|POINT
 70
    48
 62
     7
  6
CONTINUOUS
  0
LAYER
  5
6A3
102
{ACAD_XDICTIONARY
360
D0CD
102
}
330
2
100
AcDbSymbolTableRecord
100
AcDbLayerTableRecord
  2
A3WAKUDAKE|1CENTER
 70
    48
 62
     7
  6
A3WAKUDAKE|CENTER2
  0
LAYER
  5
6A4
102
{ACAD_XDICTIONARY
360
D0CF
102
}
330
2
100
AcDbSymbolTableRecord
100
AcDbLayerTableRecord
  2
A3WAKUDAKE|0-6
 70
    48
 62
     7
  6
CONTINUOUS
  0
LAYER
  5
EE87
330
2
100
AcDbSymbolTableRecord
100
AcDbLayerTableRecord
  2
1PHANTOM
 70
     0
 62
     7
  6
PHANTOM2
  0
ENDTAB
  0
TABLE
  2
STYLE
  5
3
330
0
100
AcDbSymbolTable
 70
     3
  0
STYLE
  5
F
330
3
100
AcDbSymbolTableRecord
100
AcDbTextStyleTableRecord
  2
STANDARD
 70
     0
 40
0.0
 41
1.0
 50
0.0
 71
     0
 42
4.0
  3
txt.shx
  4
extfont.shx
  0
STYLE
  5
11292
330
3
100
AcDbSymbolTableRecord
100
AcDbTextStyleTableRecord
  2
A3WAKUDAKE|STANDARD
 70
    48
 40
0.0
 41
1.0
 50
0.0
 71
     0
 42
4.0
  3
romans.shx
  4
extfont.shx
  0
STYLE
  5
112BA
330
3
100
AcDbSymbolTableRecord
100
AcDbTextStyleTableRecord
  2
XREF1|STANDARD
 70
    48
 40
0.0
 41
1.0
 50
0.0
 71
     0
 42
4.0
  3
romans.shx
  4
extfont.shx
  0
ENDTAB
  0
TABLE
  2
VIEW
  5
6
330
0
100
AcDbSymbolTable
 70
     0
  0
ENDTAB
  0
TABLE
  2
UCS
  5
7
330
0
100
AcDbSymbolTable
 70
     0
  0
ENDTAB
  0
TABLE
  2
APPID
  5
9
330
0
100
AcDbSymbolTable
 70
    15
  0
APPID
  5
10
330
9
100
AcDbSymbolTableRecord
100
AcDbRegAppTableRecord
  2
ACAD
 70
     0
  0
APPID
  5
21
330
9
100
AcDbSymbolTableRecord
100
AcDbRegAppTableRecord
  2
DRAWINGVARIABLESXDATA
 70
     0
  0
APPID
  5
64
330
9
100
AcDbSymbolTableRecord
100
AcDbRegAppTableRecord
  2
CONTENTTABDATA
 70
     0
  0
APPID
  5
65
330
9
100
AcDbSymbolTableRecord
100
AcDbRegAppTableRecord
  2
CONTENTCURRENTTAB
 70
     0
  0
APPID
  5
66
330
9
100
AcDbSymbolTableRecord
100
AcDbRegAppTableRecord
  2
CONTENTBLOCKDESCRIPTION
 70
     0
  0
APPID
  5
67
330
9
100
AcDbSymbolTableRecord
100
AcDbRegAppTableRecord
  2
CONTENTBLOCKICON
 70
     0
  0
APPID
  5
68
330
9
100
AcDbSymbolTableRecord
100
AcDbRegAppTableRecord
  2
CONTENTLONGBLOCKNAME
 70
     0
  0
APPID
  5
2AE
330
9
100
AcDbSymbolTableRecord
100
AcDbRegAppTableRecord
  2
ACAD_PSEXT
 70
     0
  0
APPID
  5
D09F
330
9
100
AcDbSymbolTableRecord
100
AcDbRegAppTableRecord
  2
ACAD_MLEADERVER
 70
     0
  0
APPID
  5
D7D9
330
9
100
AcDbSymbolTableRecord
100
AcDbRegAppTableRecord
  2
ACAD_EXEMPT_FROM_CAD_STAND
 70
     0
  0
APPID
  5
DB3E
330
9
100
AcDbSymbolTableRecord
100
AcDbRegAppTableRecord
  2
ACAECLAYERSTANDARD
 70
     0
  0
APPID
  5
F844
330
9
100
AcDbSymbolTableRecord
100
AcDbRegAppTableRecord
  2
ACADANNOTATIVE
 70
     0
  0
APPID
  5
11304
330
9
100
AcDbSymbolTableRecord
100
AcDbRegAppTableRecord
  2
ACAD_DSTYLE_DIMRADIAL_EXTE
 70
     0
  0
APPID
  5
11306
330
9
100
AcDbSymbolTableRecord
100
AcDbRegAppTableRecord
  2
ACAD_NAV_VCDISPLAY
 70
     0
  0
APPID
  5
119F6
330
9
100
AcDbSymbolTableRecord
100
AcDbRegAppTableRecord
  2
ACAD_OBJECT_CHANGE_GUID
 70
     0
  0
ENDTAB
  0
TABLE
  2
DIMSTYLE
  5
A
330
0
100
AcDbSymbolTable
 70
     1
  0
DIMSTYLE
105
48
330
A
100
AcDbSymbolTableRecord
100
AcDbDimStyleTableRecord
  2
NEWX10
 70
     0
  3
 
  4

  5

  6
OPEN30
  7
OPEN30
 40
1.0
 41
2.0
 42
0.0
 43
7.0
 44
1.0
 45
0.0
 46
0.0
 47
0.0
 48
0.0
140
3.5
141
0.0
142
0.0
143
25.4
144
1.0
145
0.0
146
0.7
147
0.7
 71
     0
 72
     0
 73
     0
 74
     0
 75
     0
 76
     0
 77
     1
 78
     8
170
     0
171
     2
172
     1
173
     1
174
     0
175
     0
176
   256
177
   256
178
   201
179
     2
270
     2
271
     2
272
     4
273
     2
274
     2
340
F
275
     0
280
     0
281
     0
282
     0
283
     1
284
     8
285
     0
286
     0
287
     2
288
     0
  0
ENDTAB
  0
TABLE
  2
BLOCK_RECORD
  5
1
330
0
100
AcDbSymbolTable
 70
     3
  0
BLOCK_RECORD
  5
18
102
{ACAD_XDICTIONARY
360
88F
102
}
330
1
100
AcDbSymbolTableRecord
100
AcDbBlockTableRecord
  2
*MODEL_SPACE
  0
BLOCK_RECORD
  5
15
330
1
100
AcDbSymbolTableRecord
100
AcDbBlockTableRecord
  2
*PAPER_SPACE
  0
BLOCK_RECORD
  5
42
330
1
100
AcDbSymbolTableRecord
100
AcDbBlockTableRecord
  2
_OPEN30
  0
BLOCK_RECORD
  5
5B
330
1
100
AcDbSymbolTableRecord
100
AcDbBlockTableRecord
  2
XREF1
  0
BLOCK_RECORD
  5
69E
330
1
100
AcDbSymbolTableRecord
100
AcDbBlockTableRecord
  2
A3WAKUDAKE
  0
ENDTAB
  0
ENDSEC
  0
SECTION
  2
BLOCKS
  0
BLOCK
  5
19
330
18
100
AcDbEntity
  8
0
100
AcDbBlockBegin
  2
*MODEL_SPACE
 70
     0
 10
0.0
 20
0.0
 30
0.0
  3
*MODEL_SPACE
  1

  0
ENDBLK
  5
1A
330
18
100
AcDbEntity
  8
0
100
AcDbBlockEnd
  0
BLOCK
  5
16
330
15
100
AcDbEntity
 67
     1
  8
0
100
AcDbBlockBegin
  2
*PAPER_SPACE
 70
     0
 10
0.0
 20
0.0
 30
0.0
  3
*PAPER_SPACE
  1

  0
ENDBLK
  5
17
330
15
100
AcDbEntity
 67
     1
  8
0
100
AcDbBlockEnd
  0
BLOCK
  5
43
330
42
100
AcDbEntity
  8
0
100
AcDbBlockBegin
  2
_OPEN30
 70
     0
 10
0.0
 20
0.0
 30
0.0
  3
_OPEN30
  1

  0
LINE
  5
44
330
42
100
AcDbEntity
  8
0
  6
BYBLOCK
 62
     0
100
AcDbLine
 10
-1.0
 20
0.26794919
 30
0.0
 11
0.0
 21
0.0
 31
0.0
  0
LINE
  5
45
330
42
100
AcDbEntity
  8
0
  6
BYBLOCK
 62
     0
100
AcDbLine
 10
0.0
 20
0.0
 30
0.0
 11
-1.0
 21
-0.26794919
 31
0.0
  0
LINE
  5
46
330
42
100
AcDbEntity
  8
0
  6
BYBLOCK
 62
     0
100
AcDbLine
 10
0.0
 20
0.0
 30
0.0
 11
-1.0
 21
0.0
 31
0.0
  0
ENDBLK
  5
47
330
42
100
AcDbEntity
  8
0
100
AcDbBlockEnd
  0
BLOCK
  5
5C
330
5B
100
AcDbEntity
  8
0
100
AcDbBlockBegin
  2
XREF1
 70
    36
 10
0.0
 20
0.0
 30
0.0
  3
XREF1
  1
D:\ACLT\FORMAT\KAWAJUN(9)図面用.dwg
  0
ENDBLK
  5
5D
330
5B
100
AcDbEntity
  8
0
100
AcDbBlockEnd
  0
BLOCK
  5
69F
330
69E
100
AcDbEntity
  8
0
100
AcDbBlockBegin
  2
A3WAKUDAKE
 70
   100
 10
0.0
 20
0.0
 30
0.0
  3
A3WAKUDAKE
  1
D:\ACLT\FORMAT\A3WAKUdake.dwg
  0
ENDBLK
  5
6A0
330
69E
100
AcDbEntity
  8
0
100
AcDbBlockEnd
  0
ENDSEC
  0
SECTION
  2
ENTITIES
  0
LINE
  5
FF37
330
18
100
AcDbEntity
  8
1DIM
100
AcDbLine
 10
459.6952980497542
 20
-6.830426436836447
 30
0.0
 11
459.6952980497542
 21
7.169573563163557
 31
0.0
  0
TEXT
  5
FF39
330
18
100
AcDbEntity
  8
1TEXT
100
AcDbText
 10
459.6952980497542
 20
12.16957356316356
 30
0.0
 40
8.0
  1
SC-853-X
100
AcDbText
  0
TEXT
  5
FF7E
330
18
100
AcDbEntity
  8
1TEXT
100
AcDbText
 10
495.1152980497538
 20
1.669573563163557
 30
0.0
 40
4.0
  1
表面処理：アーム
 41
0.9
 72
     1
 11
512.0952980497539
 21
1.669573563163557
 31
0.0
100
AcDbText
  0
LINE
  5
FF80
330
18
100
AcDbEntity
  8
1DIM
100
AcDbLine
 10
459.6952980497542
 20
7.169573563163556
 30
0.0
 11
599.6952980497542
 21
7.169573563163557
 31
0.0
  0
LINE
  5
FF81
330
18
100
AcDbEntity
  8
1DIM
100
AcDbLine
 10
459.6952980497542
 20
-6.830426436836446
 30
0.0
 11
599.6952980497542
 21
-6.830426436836446
 31
0.0
  0
LINE
  5
FF82
330
18
100
AcDbEntity
  8
1DIM
100
AcDbLine
 10
459.6952980497542
 20
0.1695735631635573
 30
0.0
 11
599.6952980497542
 21
0.1695735631635573
 31
0.0
  0
LINE
  5
FF85
330
18
100
AcDbEntity
  8
1DIM
100
AcDbLine
 10
529.6952980497542
 20
7.169573563163557
 30
0.0
 11
529.6952980497542
 21
-6.830426436836447
 31
0.0
  0
TEXT
  5
FF86
330
18
100
AcDbEntity
  8
1TEXT
100
AcDbText
 10
575.2286313830872
 20
1.669573563163557
 30
0.0
 40
4.0
  1
コード
 72
     1
 11
582.0952980497539
 21
1.669573563163557
 31
0.0
100
AcDbText
  0
LINE
  5
FF87
330
18
100
AcDbEntity
  8
1DIM
100
AcDbLine
 10
494.6952980497542
 20
-6.830426436836447
 30
0.0
 11
494.6952980497542
 21
7.169573563163557
 31
0.0
  0
LINE
  5
FF88
330
18
100
AcDbEntity
  8
1DIM
100
AcDbLine
 10
599.6952980497542
 20
-6.830426436836447
 30
0.0
 11
599.6952980497542
 21
7.169573563163557
 31
0.0
  0
TEXT
  5
FF8A
330
18
100
AcDbEntity
  8
1TEXT
100
AcDbText
 10
460.6286313830872
 20
1.669573563163557
 30
0.0
 40
4.0
  1
表面処理：本体
 72
     1
 11
477.0952980497539
 21
1.669573563163557
 31
0.0
100
AcDbText
  0
TEXT
  5
FF8B
330
18
100
AcDbEntity
  8
1TEXT
100
AcDbText
 10
467.6286313830872
 20
-5.165715096360841
 30
0.0
 40
4.0
  1
クローム
 72
     1
 11
477.0952980497539
 21
-5.165715096360841
 31
0.0
100
AcDbText
  0
TEXT
  5
FF94
330
18
100
AcDbEntity
  8
1TEXT
100
AcDbText
 10
567.3501591608659
 20
-5.544783420485728
 30
0.0
 40
4.0
  1
SC-853-XC
 41
0.85
 72
     1
 11
582.0952980497548
 21
-5.544783420485728
 31
0.0
100
AcDbText
  0
TEXT
  5
111C9
330
18
100
AcDbEntity
  8
1TEXT
100
AcDbText
 10
530.2952980497539
 20
1.669573563163557
 30
0.0
 40
4.0
  1
表面処理：カッター
 41
0.8
 72
     1
 11
547.0952980497539
 21
1.669573563163557
 31
0.0
100
AcDbText
  0
TEXT
  5
111CA
330
18
100
AcDbEntity
  8
1TEXT
100
AcDbText
 10
542.7619647164205
 20
-5.165715096360841
 30
0.0
 40
4.0
  1
鏡面
 72
     1
 11
547.0952980497539
 21
-5.165715096360841
 31
0.0
100
AcDbText
  0
LINE
  5
111CC
330
18
100
AcDbEntity
  8
1DIM
100
AcDbLine
 10
564.6952980497542
 20
7.169573563163557
 30
0.0
 11
564.6952980497542
 21
-6.830426436836447
 31
0.0
  0
TEXT
  5
111CD
330
18
100
AcDbEntity
  8
1TEXT
100
AcDbText
 10
502.6286313830872
 20
-5.165715096360841
 30
0.0
 40
4.0
  1
クローム
 72
     1
 11
512.0952980497539
 21
-5.165715096360841
 31
0.0
100
AcDbText
  0
LINE
  5
1165B
330
18
100
AcDbEntity
  8
01
100
AcDbLine
 10
564.6047015782887
 20
-96.10948804373947
 30
0.0
 11
564.6047015782887
 21
-170.5658352143028
 31
0.0
  0
LINE
  5
11661
330
18
100
AcDbEntity
  8
1PHANTOM
100
AcDbLine
 10
346.1047014313922
 20
36.95237984943924
 30
0.0
 11
345.1047017313922
 21
37.95237984943924
 31
0.0
  0
LINE
  5
11662
330
18
100
AcDbEntity
  8
1PHANTOM
100
AcDbLine
 10
349.4047015813921
 20
36.95237984943924
 30
0.0
 11
349.4047015813921
 21
37.95237984943924
 31
0.0
  0
LINE
  5
11663
330
18
100
AcDbEntity
  8
1PHANTOM
100
AcDbLine
 10
349.4047015813921
 20
37.95237984943924
 30
0.0
 11
341.8047015813922
 21
37.95237984943924
 31
0.0
  0
LINE
  5
11664
330
18
100
AcDbEntity
  8
1PHANTOM
100
AcDbLine
 10
349.4047015813921
 20
36.95237984943924
 30
0.0
 11
341.8047015813922
 21
36.95237984943924
 31
0.0
  0
LINE
  5
11665
330
18
100
AcDbEntity
  8
1PHANTOM
100
AcDbLine
 10
341.8047015813922
 20
36.95237984943924
 30
0.0
 11
341.8047015813922
 21
37.95237984943924
 31
0.0
  0
LINE
  5
11667
330
18
100
AcDbEntity
  8
1PHANTOM
100
AcDbLine
 10
561.6047015782887
 20
-134.4715159169518
 30
0.0
 11
562.6047015782887
 21
-133.4715162169523
 31
0.0
  0
LINE
  5
11668
330
18
100
AcDbEntity
  8
1PHANTOM
100
AcDbLine
 10
561.6047015782887
 20
-137.7715160669522
 30
0.0
 11
562.6047015782887
 21
-137.7715160669522
 31
0.0
  0
LINE
  5
11669
330
18
100
AcDbEntity
  8
1PHANTOM
100
AcDbLine
 10
562.6047015782887
 20
-137.7715160669522
 30
0.0
 11
562.6047015782887
 21
-130.1715160669519
 31
0.0
  0
LINE
  5
1166A
330
18
100
AcDbEntity
  8
1PHANTOM
100
AcDbLine
 10
561.6047015782887
 20
-137.7715160669522
 30
0.0
 11
561.6047015782887
 21
-130.1715160669519
 31
0.0
  0
LINE
  5
1166B
330
18
100
AcDbEntity
  8
1PHANTOM
100
AcDbLine
 10
561.6047015782887
 20
-130.1715160669519
 30
0.0
 11
562.6047015782887
 21
-130.1715160669519
 31
0.0
  0
LINE
  5
1166D
330
18
100
AcDbEntity
  8
1PHANTOM
100
AcDbLine
 10
304.1047014313922
 20
36.95237984943924
 30
0.0
 11
303.1047017313922
 21
37.95237984943924
 31
0.0
  0
LINE
  5
1166E
330
18
100
AcDbEntity
  8
1PHANTOM
100
AcDbLine
 10
307.4047015813921
 20
36.95237984943924
 30
0.0
 11
307.4047015813921
 21
37.95237984943924
 31
0.0
  0
LINE
  5
1166F
330
18
100
AcDbEntity
  8
1PHANTOM
100
AcDbLine
 10
307.4047015813921
 20
37.95237984943924
 30
0.0
 11
299.8047015813922
 21
37.95237984943924
 31
0.0
  0
LINE
  5
11670
330
18
100
AcDbEntity
  8
1PHANTOM
100
AcDbLine
 10
307.4047015813921
 20
36.95237984943924
 30
0.0
 11
299.8047015813922
 21
36.95237984943924
 31
0.0
  0
LINE
  5
11671
330
18
100
AcDbEntity
  8
1PHANTOM
100
AcDbLine
 10
299.8047015813922
 20
36.95237984943924
 30
0.0
 11
299.8047015813922
 21
37.95237984943924
 31
0.0
  0
CIRCLE
  5
1167A
330
18
100
AcDbEntity
  8
1PHANTOM
100
AcDbCircle
 10
489.4332352168657
 20
-174.2931496044707
 30
0.0
 40
18.5
  0
CIRCLE
  5
1167B
330
18
100
AcDbEntity
  8
1PHANTOM
100
AcDbCircle
 10
489.4332352168657
 20
-174.2931496044707
 30
0.0
 40
57.5
  0
LINE
  5
1167C
330
18
100
AcDbEntity
  8
1CENTER
100
AcDbLine
 10
555.5582352168657
 20
-174.2931496044712
 30
0.0
 11
423.3082352168657
 21
-174.2931496044707
 31
0.0
  0
LINE
  5
1167D
330
18
100
AcDbEntity
  8
1CENTER
100
AcDbLine
 10
489.4332352168657
 20
-108.1681496044707
 30
0.0
 11
489.4332352168657
 21
-240.4181496044712
 31
0.0
  0
ARC
  5
1167E
330
18
100
AcDbEntity
  8
01
100
AcDbCircle
 10
385.6047021843987
 20
-132.8553267644766
 30
0.0
 40
0.5000006206713282
100
AcDbArc
 50
182.2132077439663
 51
269.9256015484615
  0
ARC
  5
1167F
330
18
100
AcDbEntity
  8
01
100
AcDbCircle
 10
399.6047018533048
 20
-127.917668718766
 30
0.0
 40
0.4999990855770094
100
AcDbArc
 50
311.6794723514531
 51
358.7218413580102
  0
ARC
  5
11680
330
18
100
AcDbEntity
  8
01
100
AcDbCircle
 10
386.25729472589
 20
-112.3880646202297
 30
0.0
 40
20.97741596169702
100
AcDbArc
 50
268.2172796272514
 51
310.6806204237346
  0
ARC
  5
11681
330
18
100
AcDbEntity
  8
01
100
AcDbCircle
 10
385.6046980721231
 20
-150.2931460407335
 30
0.0
 40
0.4999964878394788
100
AcDbArc
 50
90.01357508662237
 51
173.236311608073
  0
ARC
  5
11682
330
18
100
AcDbEntity
  8
01
100
AcDbCircle
 10
399.6047027159607
 20
-150.2931493178303
 30
0.0
 40
0.499999767217138
100
AcDbArc
 50
4.467564294019596
 51
89.98615359300963
  0
LINE
  5
11683
330
18
100
AcDbEntity
  8
01
100
AcDbLine
 10
264.2908708226392
 20
-128.2211468940068
 30
0.0
 11
264.109006008267
 21
-128.5484005681838
 31
0.0
  0
ARC
  5
11684
330
18
100
AcDbEntity
  8
01
100
AcDbCircle
 10
266.8487605850044
 20
-131.5668987405379
 30
0.0
 40
4.211569324365804
100
AcDbArc
 50
88.69315592092686
 51
127.3943337215748
  0
LINE
  5
11685
330
18
100
AcDbEntity
  8
01
100
AcDbLine
 10
385.1003971483102
 20
-128.5484005681828
 30
0.0
 11
384.9185323339386
 21
-128.2211468940068
 31
0.0
  0
ARC
  5
11686
330
18
100
AcDbEntity
  8
01
100
AcDbCircle
 10
382.3606303329581
 20
-131.5669363001643
 30
0.0
 40
4.211606597036051
100
AcDbArc
 50
52.60584431173566
 51
91.30666641807653
  0
LINE
  5
11687
330
18
100
AcDbEntity
  8
01
100
AcDbLine
 10
293.6047015782885
 20
-127.3553272602057
 30
0.0
 11
266.9544538397868
 21
-127.3553272602066
 31
0.0
  0
LINE
  5
11688
330
18
100
AcDbEntity
  8
01
100
AcDbLine
 10
382.2549492915116
 20
-127.3553272602066
 30
0.0
 11
355.6047015782885
 21
-127.3553272602066
 31
0.0
  0
SPLINE
  5
11689
330
18
100
AcDbEntity
  8
01
100
AcDbSpline
210
0.0
220
0.0
230
1.0
 70
     8
 71
     3
 72
    12
 73
     8
 74
     0
 42
0.0000000001
 43
0.0000000001
 40
0.0
 40
0.0
 40
0.0
 40
0.0
 40
0.6737725069181745
 40
1.313086574725512
 40
2.494850783644208
 40
3.552379714561479
 40
4.529130999489091
 40
4.529130999489091
 40
4.529130999489091
 40
4.529130999489091
 10
251.8399742285411
 20
-163.2811197765241
 30
0.0
 10
251.6432178635295
 20
-163.1730117241705
 30
0.0
 10
251.2669185472452
 20
-162.9483209772097
 30
0.0
 10
250.5912408270676
 20
-162.4628046111116
 30
0.0
 10
249.8918608371475
 20
-161.7978900627891
 30
0.0
 10
249.3139815965991
 20
-160.8825692646724
 30
0.0
 10
249.1393333902855
 20
-160.2180241695141
 30
0.0
 10
249.1137707528726
 20
-159.8932941874245
 30
0.0
  0
SPLINE
  5
1168A
330
18
100
AcDbEntity
  8
01
100
AcDbSpline
210
0.0
220
0.0
230
1.0
 70
     8
 71
     3
 72
    12
 73
     8
 74
     0
 42
0.0000000001
 43
0.0000000001
 40
0.0
 40
0.0
 40
0.0
 40
0.0
 40
0.4890180918741245
 40
0.9860635300473733
 40
2.060059903707836
 40
3.244164099027549
 40
4.585517864393917
 40
4.585517864393917
 40
4.585517864393917
 40
4.585517864393917
 10
400.099590624179
 20
-159.8370481077736
 30
0.0
 10
400.0897702123848
 20
-159.9998846896369
 30
0.0
 10
400.0413917064425
 20
-160.3258296571203
 30
0.0
 10
399.828499081033
 20
-160.9817924714216
 30
0.0
 10
399.3410798911091
 20
-161.7711014709807
 30
0.0
 10
398.4708453306741
 20
-162.607267590527
 30
0.0
 10
397.761226151564
 20
-163.0658366782172
 30
0.0
 10
397.3694289280194
 20
-163.2811197765332
 30
0.0
  0
SPLINE
  5
1168B
330
18
100
AcDbEntity
  8
01
100
AcDbSpline
210
0.0
220
0.0
230
1.0
 70
     8
 71
     3
 72
    15
 73
    11
 74
     0
 42
0.0000000001
 43
0.0000000001
 40
0.0
 40
0.0
 40
0.0
 40
0.0
 40
0.1123514298457256
 40
0.2394734376596541
 40
0.545416148904026
 40
0.9190220198565295
 40
1.356160025857722
 40
1.834803420642399
 40
2.349253319809911
 40
3.452127829938717
 40
3.452127829938717
 40
3.452127829938717
 40
3.452127829938717
 10
264.1047006412809
 20
-154.544323133191
 30
0.0
 10
264.1047740133091
 20
-154.5818443247572
 30
0.0
 10
264.1173264802535
 20
-154.6612859178758
 30
0.0
 10
264.1929378337459
 20
-154.8285503359343
 30
0.0
 10
264.3726664336248
 20
-155.0324518917023
 30
0.0
 10
264.6765822537295
 20
-155.2497184845452
 30
0.0
 10
265.0635628749602
 20
-155.4395851017375
 30
0.0
 10
265.515473974306
 20
-155.5935711364118
 30
0.0
 10
266.1975855643026
 20
-155.7488408808622
 30
0.0
 10
266.7371946487751
 20
-155.7926887210851
 30
0.0
 10
267.1047014473343
 20
-155.7931494337595
 30
0.0
  0
LINE
  5
1168C
330
18
100
AcDbEntity
  8
01
100
AcDbLine
 10
267.1047015769259
 20
-155.7931494337377
 30
0.0
 11
382.1047015782887
 21
-155.7931494337181
 31
0.0
  0
SPLINE
  5
1168D
330
18
100
AcDbEntity
  8
01
100
AcDbSpline
210
0.0
220
0.0
230
1.0
 70
     8
 71
     3
 72
    16
 73
    12
 74
     0
 42
0.0000000001
 43
0.0000000001
 40
0.0
 40
0.0
 40
0.0
 40
0.0
 40
0.5733332469905548
 40
1.100717913686186
 40
1.615164942398486
 40
2.095360991255251
 40
2.530991943639743
 40
2.907814471443778
 40
3.213783643393991
 40
3.34039830970939
 40
3.452796874903481
 40
3.452796874903481
 40
3.452796874903481
 40
3.452796874903481
 10
382.1047017930658
 20
-155.7931494338036
 30
0.0
 10
382.2958130410302
 20
-155.7932584332193
 30
0.0
 10
382.6627259163978
 20
-155.7768893036318
 30
0.0
 10
383.1969910154436
 20
-155.706686129638
 30
0.0
 10
383.6923735027868
 20
-155.5940816551374
 30
0.0
 10
384.1442723965636
 20
-155.4400929245944
 30
0.0
 10
384.5324287206881
 20
-155.2501422847063
 30
0.0
 10
384.8367862059608
 20
-155.0324274269879
 30
0.0
 10
385.0170848005017
 20
-154.827799996167
 30
0.0
 10
385.0922998663389
 20
-154.6605091099646
 30
0.0
 10
385.104614214282
 20
-154.5811753375838
 30
0.0
 10
385.1047017471291
 20
-154.5436494177966
 30
0.0
  0
LINE
  5
1168E
330
18
100
AcDbEntity
  8
01
100
AcDbLine
 10
385.6047015782884
 20
-149.7931494337176
 30
0.0
 11
399.6047015782887
 21
-149.7931494337176
 31
0.0
  0
LINE
  5
1168F
330
18
100
AcDbEntity
  8
01
100
AcDbLine
 10
249.1046988644332
 20
-158.5467989762728
 30
0.0
 11
249.1047012185387
 21
-158.5431494332538
 31
0.0
  0
ARC
  5
11690
330
18
100
AcDbEntity
  8
01
100
AcDbCircle
 10
261.1679409800882
 20
-145.9305532483886
 30
0.0
 40
19.69968829958271
100
AcDbArc
 50
241.9456200580837
 51
270.6759660841366
  0
ARC
  5
11691
330
18
100
AcDbEntity
  8
01
100
AcDbCircle
 10
388.0398888296936
 20
-145.9163932273855
 30
0.0
 40
19.71372219330928
100
AcDbArc
 50
269.4230859871498
 51
297.762930874255
  0
LINE
  5
11692
330
18
100
AcDbEntity
  8
01
100
AcDbLine
 10
387.7694818027913
 20
-165.6285154889274
 30
0.0
 11
324.6047015782885
 21
-165.628515488906
 31
0.0
  0
LINE
  5
11693
330
18
100
AcDbEntity
  8
01
100
AcDbLine
 10
324.6047015782891
 20
-165.628515488906
 30
0.0
 11
261.4399290449079
 21
-165.6285154889274
 31
0.0
  0
LINE
  5
11694
330
18
100
AcDbEntity
  8
01
100
AcDbLine
 10
293.6047015782889
 20
-124.5403763188433
 30
0.0
 11
293.6047015782891
 21
-142.9715160615979
 31
0.0
  0
LINE
  5
11695
330
18
100
AcDbEntity
  8
1DIM
100
AcDbLine
 10
294.604704296795
 20
-134.2214080447784
 30
0.0
 11
294.604494548704
 21
-124.5403763188433
 31
0.0
  0
LINE
  5
11696
330
18
100
AcDbEntity
  8
01
100
AcDbLine
 10
355.6047015782891
 20
-142.9715160615979
 30
0.0
 11
355.6047015782891
 21
-124.5403763188433
 31
0.0
  0
ARC
  5
11697
330
18
100
AcDbEntity
  8
1DIM
100
AcDbCircle
 10
354.7922015769065
 20
-142.5965160627711
 30
0.0
 40
0.8948638172183774
100
AcDbArc
 50
257.9052430240034
 51
335.2248595364693
  0
ARC
  5
11698
330
18
100
AcDbEntity
  8
1DIM
100
AcDbCircle
 10
300.6050124050965
 20
-134.2212098447262
 30
0.0
 40
6.000308111574927
100
AcDbArc
 50
180.0018925738946
 51
269.9970282263638
  0
ARC
  5
11699
330
18
100
AcDbEntity
  8
1DIM
100
AcDbCircle
 10
300.6046959146601
 20
-134.2215179482305
 30
0.0
 40
6.000000000001913
100
AcDbArc
 50
270.0000503348131
 51
89.99995866244419
  0
ARC
  5
1169A
330
18
100
AcDbEntity
  8
1DIM
100
AcDbCircle
 10
300.6047705122214
 20
-134.2215841658299
 30
0.0
 40
6.000066218011186
100
AcDbArc
 50
90.00067100928544
 51
179.9983181864096
  0
ARC
  5
1169B
330
18
100
AcDbEntity
  8
1DIM
100
AcDbCircle
 10
348.6047015782881
 20
-134.2215569339496
 30
0.0
 40
6.000000000139126
100
AcDbArc
 50
0.000390280717852
 51
179.9996097192822
  0
ARC
  5
1169C
330
18
100
AcDbEntity
  8
1DIM
100
AcDbCircle
 10
348.6047015782881
 20
-134.2215139332238
 30
0.0
 40
6.000000000000322
100
AcDbArc
 50
180.0000203459703
 51
359.9999796540296
  0
LINE
  5
1169D
330
18
100
AcDbEntity
  8
1DIM
100
AcDbLine
 10
354.6047015782891
 20
-143.4715160638484
 30
0.0
 11
354.604701578288
 21
-134.2215160638484
 31
0.0
  0
LINE
  5
1169E
330
18
100
AcDbEntity
  8
1DIM
100
AcDbLine
 10
294.6044521918512
 20
-134.2214080447784
 30
0.0
 11
294.6044521918512
 21
-143.4715160660135
 31
0.0
  0
LINE
  5
1169F
330
18
100
AcDbEntity
  8
1DIM
100
AcDbLine
 10
354.604701578288
 20
-134.2215160638484
 30
0.0
 11
354.6047015782889
 21
-124.5403763188433
 31
0.0
  0
ARC
  5
116A0
330
18
100
AcDbEntity
  8
1DIM
100
AcDbCircle
 10
294.3981060506075
 20
-142.6346041423003
 30
0.0
 40
0.8619746504736496
100
AcDbArc
 50
203.0080583421602
 51
283.8504055855304
  0
LINE
  5
116A1
330
18
100
AcDbEntity
  8
1DIM
100
AcDbLine
 10
294.6044521918514
 20
-143.4715160660135
 30
0.0
 11
294.6047015749625
 21
-143.971516063747
 31
0.0
  0
LINE
  5
116A2
330
18
100
AcDbEntity
  8
1DIM
100
AcDbLine
 10
354.6047015782891
 20
-143.4715160638484
 30
0.0
 11
294.6044521918512
 21
-143.4715160660135
 31
0.0
  0
LINE
  5
116A3
330
18
100
AcDbEntity
  8
1DIM
100
AcDbLine
 10
354.6047015785383
 20
-143.9715160638484
 30
0.0
 11
354.6047015782891
 21
-143.4715160638484
 31
0.0
  0
ARC
  5
116A4
330
18
100
AcDbEntity
  8
01
100
AcDbCircle
 10
294.6047015799818
 20
-142.971516062164
 30
0.0
 40
1.000000001684374
100
AcDbArc
 50
181.0969855249942
 51
269.9999998887317
  0
ARC
  5
116A5
330
18
100
AcDbEntity
  8
01
100
AcDbCircle
 10
354.6047015765989
 20
-142.9715160621681
 30
0.0
 40
1.000000001680413
100
AcDbArc
 50
270.000000111112
 51
358.7218116220195
  0
LINE
  5
116A6
330
18
100
AcDbEntity
  8
01
100
AcDbLine
 10
354.6047015785383
 20
-143.9715160638484
 30
0.0
 11
294.6047015780399
 21
-143.9715160638484
 31
0.0
  0
LINE
  5
116A7
330
18
100
AcDbEntity
  8
1DIM
100
AcDbLine
 10
389.7647997519896
 20
-165.0766209409385
 30
0.0
 11
389.7267476010713
 21
-165.099740915779
 31
0.0
  0
LINE
  5
116A8
330
18
100
AcDbEntity
  8
1DIM
100
AcDbLine
 10
259.4807593701418
 20
-165.0986029062706
 30
0.0
 11
259.4427408626626
 21
-165.0754738467813
 31
0.0
  0
LINE
  5
116A9
330
18
100
AcDbEntity
  8
1DIM
100
AcDbLine
 10
259.4307582732079
 20
-165.0680594197811
 30
0.0
 11
259.3982664083633
 21
-165.0476506439281
 31
0.0
  0
ARC
  5
116AA
330
18
100
AcDbEntity
  8
1DIM
100
AcDbCircle
 10
399.8667361885214
 20
-127.9711314921265
 30
0.0
 40
0.3276632701137876
100
AcDbArc
 50
216.8978681345546
 51
282.4188006574865
  0
LINE
  5
116AB
330
18
100
AcDbEntity
  8
1DIM
100
AcDbLine
 10
385.6047015782887
 20
-133.1053272602062
 30
0.0
 11
385.6047015782887
 21
-133.3545593863373
 31
0.0
  0
LINE
  5
116AC
330
18
100
AcDbEntity
  8
01
100
AcDbLine
 10
385.1067241239822
 20
-132.8942353731372
 30
0.0
 11
385.1051986749358
 21
-132.8746310721763
 31
0.0
  0
ARC
  5
116AD
330
18
100
AcDbEntity
  8
1DIM
100
AcDbCircle
 10
385.5109515782885
 20
-126.6056494337181
 30
0.0
 40
0.4474319082272848
100
AcDbArc
 50
204.775140568776
 51
282.0947570770335
  0
ARC
  5
116AE
330
18
100
AcDbEntity
  8
1DIM
100
AcDbCircle
 10
385.5109515782885
 20
-132.6678272602057
 30
0.0
 40
0.4474319082274814
100
AcDbArc
 50
204.7751405688909
 51
282.0947570770121
  0
ARC
  5
116AF
330
18
100
AcDbEntity
  8
1DIM
100
AcDbCircle
 10
399.6983324879766
 20
-127.7302645895047
 30
0.0
 40
0.4474977233034612
100
AcDbArc
 50
257.9226420628154
 51
335.2429937803451
  0
ARC
  5
116B0
330
18
100
AcDbEntity
  8
1DIM
100
AcDbCircle
 10
399.6984515782889
 20
-126.6056494337181
 30
0.0
 40
0.4474319082271072
100
AcDbArc
 50
257.9052429229473
 51
335.2248594312148
  0
ARC
  5
116B1
330
18
100
AcDbEntity
  8
1DIM
100
AcDbCircle
 10
385.5734515782889
 20
-126.8292338255424
 30
0.0
 40
0.4701368373501326
100
AcDbArc
 50
86.18873895056477
 51
175.5980503476841
  0
LINE
  5
116B2
330
18
100
AcDbEntity
  8
1DIM
100
AcDbLine
 10
385.6047015783114
 20
-124.5403763188433
 30
0.0
 11
385.6047015782887
 21
-126.3601367318256
 31
0.0
  0
LINE
  5
116B3
330
18
100
AcDbEntity
  8
1DIM
100
AcDbLine
 10
385.6047015782887
 20
-127.0431494337176
 30
0.0
 11
385.6047015782887
 21
-126.3601367318256
 31
0.0
  0
LINE
  5
116B4
330
18
100
AcDbEntity
  8
1DIM
100
AcDbLine
 10
399.6047015782887
 20
-126.3601367318256
 30
0.0
 11
399.6047015782887
 21
-127.0431494337176
 31
0.0
  0
LINE
  5
116B5
330
18
100
AcDbEntity
  8
1DIM
100
AcDbLine
 10
385.6047015782887
 20
-126.3601367318256
 30
0.0
 11
399.6047015782887
 21
-126.3601367318256
 31
0.0
  0
ARC
  5
116B6
330
18
100
AcDbEntity
  8
1DIM
100
AcDbCircle
 10
399.6359515782885
 20
-126.8292338255424
 30
0.0
 40
0.4701368373499629
100
AcDbArc
 50
4.401949652317516
 51
93.81126104944906
  0
LINE
  5
116B7
330
18
100
AcDbEntity
  8
1DIM
100
AcDbLine
 10
399.6047015782888
 20
-122.5643279293458
 30
0.0
 11
399.6047015782887
 21
-126.3601367318256
 31
0.0
  0
LINE
  5
116B8
330
18
100
AcDbEntity
  8
1DIM
100
AcDbLine
 10
385.6047015782887
 20
-127.0431494337176
 30
0.0
 11
385.6047015782887
 21
-133.1053272602062
 31
0.0
  0
ARC
  5
116B9
330
18
100
AcDbEntity
  8
1DIM
100
AcDbCircle
 10
386.2607626192272
 20
-112.6486055896494
 30
0.0
 40
20.46723927648853
100
AcDbArc
 50
268.1631148075367
 51
310.6899753092293
  0
LINE
  5
116BA
330
18
100
AcDbEntity
  8
1DIM
100
AcDbLine
 10
399.6047015782887
 20
-128.167857396933
 30
0.0
 11
399.6047015782887
 21
-127.0431494337176
 31
0.0
  0
LINE
  5
116BB
330
18
100
AcDbEntity
  8
1DIM
100
AcDbLine
 10
385.6047015782887
 20
-127.0431494337176
 30
0.0
 11
399.6047015782887
 21
-127.0431494337176
 31
0.0
  0
LINE
  5
116BC
330
18
100
AcDbEntity
  8
01
100
AcDbLine
 10
385.1047015782887
 20
-126.8042944747422
 30
0.0
 11
385.1047015782887
 21
-132.8553272602066
 31
0.0
  0
LINE
  5
116BD
330
18
100
AcDbEntity
  8
01
100
AcDbLine
 10
385.1047015782887
 20
-124.5403763188433
 30
0.0
 11
385.1047015782887
 21
-126.7738456217307
 31
0.0
  0
LINE
  5
116BE
330
18
100
AcDbEntity
  8
01
100
AcDbLine
 10
400.1047015782887
 20
-127.9176635617555
 30
0.0
 11
400.1047015782887
 21
-126.8042944947547
 31
0.0
  0
LINE
  5
116BF
330
18
100
AcDbEntity
  8
01
100
AcDbLine
 10
400.1047015782887
 20
-121.6671693367325
 30
0.0
 11
400.1047015782887
 21
-126.7738455970702
 31
0.0
  0
LINE
  5
116C0
330
18
100
AcDbEntity
  8
1DIM
100
AcDbLine
 10
389.6714489987594
 20
-165.1354582323829
 30
0.0
 11
389.7016137968527
 21
-165.1162677151497
 31
0.0
  0
LINE
  5
116C1
330
18
100
AcDbEntity
  8
01
100
AcDbLine
 10
389.58384528199
 20
-165.1869697732527
 30
0.0
 11
389.5908402875045
 21
-165.1828855430999
 31
0.0
  0
LINE
  5
116C2
330
18
100
AcDbEntity
  8
01
100
AcDbLine
 10
389.4524295661104
 20
-165.2505997428757
 30
0.0
 11
389.4565733191874
 21
-165.2485127066111
 31
0.0
  0
LINE
  5
116C3
330
18
100
AcDbEntity
  8
01
100
AcDbLine
 10
389.3986545932115
 20
-165.2879194304983
 30
0.0
 11
389.4257000875012
 21
-165.2669378286091
 31
0.0
  0
LINE
  5
116C4
330
18
100
AcDbEntity
  8
01
100
AcDbLine
 10
388.9326260390053
 20
-165.4731367933682
 30
0.0
 11
389.3887365989673
 21
-165.2945180991292
 31
0.0
  0
LINE
  5
116C5
330
18
100
AcDbEntity
  8
01
100
AcDbLine
 10
388.8643304717909
 20
-165.4802925735512
 30
0.0
 11
388.8666306471187
 21
-165.480016192063
 31
0.0
  0
LINE
  5
116C6
330
18
100
AcDbEntity
  8
01
100
AcDbLine
 10
388.822786258455
 20
-165.4869140934838
 30
0.0
 11
388.8336792881985
 21
-165.4847394041044
 31
0.0
  0
LINE
  5
116C7
330
18
100
AcDbEntity
  8
01
100
AcDbLine
 10
388.8131497068015
 20
-165.4892400197359
 30
0.0
 11
388.8200618870197
 21
-165.4875304125562
 31
0.0
  0
LINE
  5
116C8
330
18
100
AcDbEntity
  8
01
100
AcDbLine
 10
388.7696965755686
 20
-165.5045936253327
 30
0.0
 11
388.7885910471084
 21
-165.4971817649011
 31
0.0
  0
LINE
  5
116C9
330
18
100
AcDbEntity
  8
01
100
AcDbLine
 10
388.7369462743641
 20
-165.5147459629216
 30
0.0
 11
388.7380480633952
 21
-165.5144765266054
 31
0.0
  0
LINE
  5
116CA
330
18
100
AcDbEntity
  8
01
100
AcDbLine
 10
388.7176032911777
 20
-165.5190616071072
 30
0.0
 11
388.7196187055042
 21
-165.5186402714617
 31
0.0
  0
LINE
  5
116CB
330
18
100
AcDbEntity
  8
01
100
AcDbLine
 10
388.6737382446832
 20
-165.5276842807389
 30
0.0
 11
388.693380200792
 21
-165.5238648620684
 31
0.0
  0
LINE
  5
116CC
330
18
100
AcDbEntity
  8
01
100
AcDbLine
 10
388.6303504872781
 20
-165.5375794872607
 30
0.0
 11
388.6551153247492
 21
-165.5315693122147
 31
0.0
  0
LINE
  5
116CD
330
18
100
AcDbEntity
  8
01
100
AcDbLine
 10
388.6069774987985
 20
-165.5435884524427
 30
0.0
 11
388.627255758023
 21
-165.5383792198331
 31
0.0
  0
LINE
  5
116CE
330
18
100
AcDbEntity
  8
01
100
AcDbLine
 10
388.4984645977399
 20
-165.5618782337569
 30
0.0
 11
388.4745243616782
 21
-165.5692859645419
 31
0.0
  0
LINE
  5
116CF
330
18
100
AcDbEntity
  8
01
100
AcDbLine
 10
388.5677283274903
 20
-165.5518231210322
 30
0.0
 11
388.5123165522427
 21
-165.5595923385945
 31
0.0
  0
LINE
  5
116D0
330
18
100
AcDbEntity
  8
01
100
AcDbLine
 10
388.4773973009766
 20
-165.569392259481
 30
0.0
 11
388.4745243616782
 21
-165.5692859645419
 31
0.0
  0
LINE
  5
116D1
330
18
100
AcDbEntity
  8
1DIM
100
AcDbLine
 10
389.7496218356191
 20
-165.0907761978733
 30
0.0
 11
389.7527734305186
 21
-165.0890778402072
 31
0.0
  0
LINE
  5
116D2
330
18
100
AcDbEntity
  8
1DIM
100
AcDbLine
 10
389.7289879996838
 20
-165.0991531604268
 30
0.0
 11
389.7376828636804
 21
-165.0957213953643
 31
0.0
  0
LINE
  5
116D3
330
18
100
AcDbEntity
  8
1DIM
100
AcDbLine
 10
389.8219622394159
 20
-165.0407518680172
 30
0.0
 11
389.8155077938053
 21
-165.0447865174142
 31
0.0
  0
LINE
  5
116D4
330
18
100
AcDbEntity
  8
1DIM
100
AcDbLine
 10
259.1709521828917
 20
-164.8989665818699
 30
0.0
 11
259.2227474486529
 21
-164.9356353712155
 31
0.0
  0
LINE
  5
116D5
330
18
100
AcDbEntity
  8
1DIM
100
AcDbLine
 10
259.4876156333199
 20
-165.1026084143587
 30
0.0
 11
259.5056048311814
 21
-165.1132884846684
 31
0.0
  0
LINE
  5
116D6
330
18
100
AcDbEntity
  8
01
100
AcDbLine
 10
260.6416860877639
 20
-165.5517189618081
 30
0.0
 11
260.602423855987
 21
-165.5435959575643
 31
0.0
  0
LINE
  5
116D7
330
18
100
AcDbEntity
  8
01
100
AcDbLine
 10
260.7348787948989
 20
-165.5692859645383
 30
0.0
 11
260.6505747411104
 21
-165.5534981270312
 31
0.0
  0
LINE
  5
116D8
330
18
100
AcDbEntity
  8
01
100
AcDbLine
 10
260.516015989613
 20
-165.5239012072188
 30
0.0
 11
260.4396814192031
 21
-165.5046591339888
 31
0.0
  0
LINE
  5
116D9
330
18
100
AcDbEntity
  8
01
100
AcDbLine
 10
260.3574677444948
 20
-165.4819588132696
 30
0.0
 11
260.3403439020781
 21
-165.4769686864993
 31
0.0
  0
LINE
  5
116DA
330
18
100
AcDbEntity
  8
01
100
AcDbLine
 10
260.1419184338349
 20
-165.4264872060612
 30
0.0
 11
260.3403411580074
 21
-165.4769678794783
 31
0.0
  0
LINE
  5
116DB
330
18
100
AcDbEntity
  8
1DIM
100
AcDbLine
 10
259.5935846765293
 20
-165.1673061404122
 30
0.0
 11
259.6259746461773
 21
-165.1862294012003
 31
0.0
  0
LINE
  5
116DC
330
18
100
AcDbEntity
  8
1DIM
100
AcDbLine
 10
259.5056048765149
 20
-165.1132885114193
 30
0.0
 11
259.5255394133526
 21
-165.1285231370102
 31
0.0
  0
LINE
  5
116DD
330
18
100
AcDbEntity
  8
01
100
AcDbLine
 10
266.9349544003609
 20
-127.3560191423376
 30
0.0
 11
266.9376140718055
 21
-127.3562876805108
 31
0.0
  0
LINE
  5
116DE
330
18
100
AcDbEntity
  8
01
100
AcDbLine
 10
382.274448729412
 20
-127.3560191401766
 30
0.0
 11
382.271789050943
 21
-127.3562876792957
 31
0.0
  0
LINE
  5
116DF
330
18
100
AcDbEntity
  8
1DIM
100
AcDbLine
 10
259.1709971709739
 20
-164.8989031444976
 30
0.0
 11
259.1047015782887
 21
-164.6676635617555
 31
0.0
  0
LINE
  5
116E0
330
18
100
AcDbEntity
  8
1DIM
100
AcDbLine
 10
259.174109512304
 20
-164.8987913866927
 30
0.0
 11
259.1709971709739
 21
-164.8989031444976
 31
0.0
  0
LINE
  5
116E1
330
18
100
AcDbEntity
  8
1DIM
100
AcDbLine
 10
390.1047015782887
 20
-164.6674280383695
 30
0.0
 11
390.0352936442733
 21
-164.8987913866927
 31
0.0
  0
LINE
  5
116E2
330
18
100
AcDbEntity
  8
1DIM
100
AcDbLine
 10
263.6047015782884
 20
-154.1101367318256
 30
0.0
 11
263.604701578191
 21
-124.5403763188433
 31
0.0
  0
ARC
  5
116E3
330
18
100
AcDbEntity
  8
1DIM
100
AcDbCircle
 10
263.6359515782885
 20
-154.5792338255424
 30
0.0
 40
0.4701368373500402
100
AcDbArc
 50
4.401949652261196
 51
93.8112610494629
  0
SPLINE
  5
116E4
330
18
100
AcDbEntity
  8
1DIM
100
AcDbSpline
210
0.0
220
0.0
230
1.0
 70
     8
 71
     3
 72
    11
 73
     7
 74
     0
 42
0.0000000001
 43
0.0000000001
 40
0.0000000062954857
 40
0.0000000062954857
 40
0.0000000062954857
 40
0.0000000062954857
 40
1.27599938491643
 40
2.658222500081443
 40
4.047461295925505
 40
5.497608934113729
 40
5.497608934113729
 40
5.497608934113729
 40
5.497608934113729
 10
267.104701576715
 20
-155.8601367318788
 30
0.0
 10
266.6793865086375
 20
-155.8602085448501
 30
0.0
 10
265.7933420289233
 20
-155.7785439266027
 30
0.0
 10
264.6290833293214
 20
-155.4120633057346
 30
0.0
 10
263.8037015140168
 20
-154.8249371790262
 30
0.0
 10
263.6043156000829
 20
-154.351869753822
 30
0.0
 10
263.6047015782884
 20
-154.1101367318256
 30
0.0
  0
LINE
  5
116E5
330
18
100
AcDbEntity
  8
1DIM
100
AcDbLine
 10
267.1047015769102
 20
-155.7939173076038
 30
0.0
 11
267.1047015767457
 21
-155.8601367318788
 31
0.0
  0
LINE
  5
116E6
330
18
100
AcDbEntity
  8
1DIM
100
AcDbLine
 10
267.104701576715
 20
-155.8601367318788
 30
0.0
 11
382.1047015782887
 21
-155.8601367318261
 31
0.0
  0
LINE
  5
116E7
330
18
100
AcDbEntity
  8
1DIM
100
AcDbLine
 10
382.1047015782887
 20
-155.8601367318261
 30
0.0
 11
382.1047015782888
 21
-155.7936875276091
 31
0.0
  0
SPLINE
  5
116E8
330
18
100
AcDbEntity
  8
1DIM
100
AcDbSpline
210
0.0
220
0.0
230
1.0
 70
     8
 71
     3
 72
    11
 73
     7
 74
     0
 42
0.0000000001
 43
0.0000000001
 40
0.0000000062955313
 40
0.0000000062955313
 40
0.0000000062955313
 40
0.0000000062955313
 40
1.275999384916424
 40
2.658222500081405
 40
4.047461295925459
 40
5.497608934113693
 40
5.497608934113693
 40
5.497608934113693
 40
5.497608934113693
 10
385.6047015783944
 20
-154.1101367326128
 30
0.0
 10
385.604845204337
 20
-154.3227942666513
 30
0.0
 10
385.4415159678423
 20
-154.7658165065086
 30
0.0
 10
384.7085547261069
 20
-155.3479458563093
 30
0.0
 10
383.5343024726891
 20
-155.7606367639619
 30
0.0
 10
382.588167622282
 20
-155.8603297209283
 30
0.0
 10
382.1047015782887
 20
-155.8601367318261
 30
0.0
  0
ARC
  5
116E9
330
18
100
AcDbEntity
  8
1DIM
100
AcDbCircle
 10
385.5734515780107
 20
-154.5792338260662
 30
0.0
 40
0.4701368371128901
100
AcDbArc
 50
86.18873890174679
 51
175.5980502814813
  0
ARC
  5
116EA
330
18
100
AcDbEntity
  8
1DIM
100
AcDbCircle
 10
385.573451578289
 20
-150.3292338255424
 30
0.0
 40
0.4701368373501678
100
AcDbArc
 50
86.18873895057861
 51
175.5980503476846
  0
LINE
  5
116EB
330
18
100
AcDbEntity
  8
1DIM
100
AcDbLine
 10
385.6047015783944
 20
-154.1101367326128
 30
0.0
 11
385.6047015782887
 21
-149.8601367318256
 31
0.0
  0
LINE
  5
116EC
330
18
100
AcDbEntity
  8
1DIM
100
AcDbLine
 10
385.6046988644332
 20
-149.793917307587
 30
0.0
 11
385.6046988644333
 21
-149.8601367318256
 31
0.0
  0
LINE
  5
116ED
330
18
100
AcDbEntity
  8
1DIM
100
AcDbLine
 10
399.6047015782887
 20
-149.8601367318256
 30
0.0
 11
399.6047015782885
 21
-149.7936875276091
 31
0.0
  0
LINE
  5
116EE
330
18
100
AcDbEntity
  8
1DIM
100
AcDbLine
 10
399.6047015782887
 20
-149.8601367318256
 30
0.0
 11
385.6047015782887
 21
-149.8601367318256
 31
0.0
  0
ARC
  5
116EF
330
18
100
AcDbEntity
  8
1DIM
100
AcDbCircle
 10
399.6359515782885
 20
-150.3292338255424
 30
0.0
 40
0.4701368373499402
100
AcDbArc
 50
4.401949652317516
 51
93.81126104944906
  0
LINE
  5
116F0
330
18
100
AcDbEntity
  8
1DIM
100
AcDbLine
 10
399.6047015782889
 20
-158.1101367318261
 30
0.0
 11
399.6047015782887
 21
-149.8601367318256
 31
0.0
  0
ARC
  5
116F1
330
18
100
AcDbEntity
  8
1DIM
100
AcDbCircle
 10
399.6359515782888
 20
-158.5792338255424
 30
0.0
 40
0.4701368373497052
100
AcDbArc
 50
4.401949652263855
 51
93.81126104945274
  0
SPLINE
  5
116F2
330
18
100
AcDbEntity
  8
1DIM
100
AcDbSpline
210
0.0
220
0.0
230
1.0
 70
     8
 71
     3
 72
    17
 73
    13
 74
     0
 42
0.0000000001
 43
0.0000000001
 40
0.0
 40
0.0
 40
0.0
 40
0.0
 40
1.89536571110135
 40
3.678779813819303
 40
5.41214733057011
 40
6.941950182971929
 40
8.316561239705505
 40
9.496455921101788
 40
10.03578979594421
 40
10.55278131734617
 40
11.03542688236381
 40
11.50497667707708
 40
11.50497667707708
 40
11.50497667707708
 40
11.50497667707708
 10
390.1047015782887
 20
-162.8601367318261
 30
0.0
 10
390.7364980396686
 20
-162.8602487231792
 30
0.0
 10
391.9627774422772
 20
-162.7992109842662
 30
0.0
 10
393.7489316376837
 20
-162.5295480981267
 30
0.0
 10
395.3777281486873
 20
-162.0975034626736
 30
0.0
 10
396.813425932058
 20
-161.5145750633815
 30
0.0
 10
397.9865601028763
 20
-160.8141919416248
 30
0.0
 10
398.7563030472238
 20
-160.1178309611132
 30
0.0
 10
399.197171610643
 20
-159.5134110351137
 30
0.0
 10
399.4308982486899
 20
-159.0550401595565
 30
0.0
 10
399.5730768345441
 20
-158.5839623265683
 30
0.0
 10
399.6047254017457
 20
-158.2666821022394
 30
0.0
 10
399.6047015782889
 20
-158.1101367318261
 30
0.0
  0
LINE
  5
116F3
330
18
100
AcDbEntity
  8
1DIM
100
AcDbLine
 10
390.1047015782887
 20
-162.8601367318261
 30
0.0
 11
390.1047015782887
 21
-163.5431494337181
 31
0.0
  0
LINE
  5
116F4
330
18
100
AcDbEntity
  8
1DIM
100
AcDbLine
 10
259.1047015782887
 20
-162.8601367318261
 30
0.0
 11
390.1047015782887
 21
-162.8601367318261
 31
0.0
  0
LINE
  5
116F5
330
18
100
AcDbEntity
  8
1DIM
100
AcDbLine
 10
259.1047015782887
 20
-162.8601367318261
 30
0.0
 11
259.1047015782887
 21
-163.5431494337181
 31
0.0
  0
SPLINE
  5
116F6
330
18
100
AcDbEntity
  8
1DIM
100
AcDbSpline
210
0.0
220
0.0
230
1.0
 70
     8
 71
     3
 72
    17
 73
    13
 74
     0
 42
0.0000000001
 43
0.0000000001
 40
0.0
 40
0.0
 40
0.0
 40
0.0
 40
0.434714722604415
 40
0.9711375589553777
 40
2.00873281645437
 40
2.606464202055586
 40
3.242409918139568
 40
4.610678031574428
 40
6.160852552072097
 40
7.826625944288097
 40
9.64483184161907
 40
11.50494252598283
 40
11.50494252598283
 40
11.50494252598283
 40
11.50494252598283
 10
249.6047015782887
 20
-158.1101367318261
 30
0.0
 10
249.6045618351238
 20
-158.2552604509688
 30
0.0
 10
249.6342465533344
 20
-158.5783834422846
 30
0.0
 10
249.8279472859313
 20
-159.224510567698
 30
0.0
 10
250.2228240902768
 20
-159.8411759344599
 30
0.0
 10
250.7488856859035
 20
-160.3868454626718
 30
0.0
 10
251.4222097984035
 20
-160.9365108108113
 30
0.0
 10
252.4470470641761
 20
-161.5395947649372
 30
0.0
 10
253.8689717046859
 20
-162.1084902217071
 30
0.0
 10
255.4944973241861
 20
-162.5358780963588
 30
0.0
 10
257.2585301901319
 20
-162.8004721982475
 30
0.0
 10
258.4846594868014
 20
-162.8601120685234
 30
0.0
 10
259.1047015782887
 20
-162.8601367318261
 30
0.0
  0
ARC
  5
116F7
330
18
100
AcDbEntity
  8
1DIM
100
AcDbCircle
 10
249.5734515782888
 20
-158.5792338255424
 30
0.0
 40
0.4701368373500056
100
AcDbArc
 50
86.1887389505475
 51
175.5980503477385
  0
LINE
  5
116F8
330
18
100
AcDbEntity
  8
1DIM
100
AcDbLine
 10
249.6047015782884
 20
-122.5643279293449
 30
0.0
 11
249.6047015782887
 21
-158.1101367318261
 31
0.0
  0
LINE
  5
116F9
330
18
100
AcDbEntity
  8
01
100
AcDbLine
 10
388.6303460312655
 20
-165.5375634336151
 30
0.0
 11
388.6272515637102
 21
-165.5383659092195
 31
0.0
  0
LINE
  5
116FA
330
18
100
AcDbEntity
  8
01
100
AcDbLine
 10
388.6737400709111
 20
-165.5276905316391
 30
0.0
 11
388.655112209521
 21
-165.5315533564617
 31
0.0
  0
LINE
  5
116FB
330
18
100
AcDbEntity
  8
01
100
AcDbLine
 10
388.8131389798158
 20
-165.4891992666371
 30
0.0
 11
388.7885803571555
 21
-165.4971561948933
 31
0.0
  0
LINE
  5
116FC
330
18
100
AcDbEntity
  8
01
100
AcDbLine
 10
388.8227823524836
 20
-165.4868963849376
 30
0.0
 11
388.8200561692846
 21
-165.4875053807673
 31
0.0
  0
LINE
  5
116FD
330
18
100
AcDbEntity
  8
01
100
AcDbLine
 10
388.8519354199262
 20
-165.4819588136834
 30
0.0
 11
388.8336818894913
 21
-165.4847538507283
 31
0.0
  0
ARC
  5
116FE
330
18
100
AcDbEntity
  8
1DIM
100
AcDbCircle
 10
258.8110413429406
 20
-149.1166420085456
 30
0.0
 40
15.78636547028868
100
AcDbArc
 50
243.7967825631227
 51
271.3065538954132
  0
LINE
  5
116FF
330
18
100
AcDbEntity
  8
1DIM
100
AcDbLine
 10
259.3026223808262
 20
-164.9897684331568
 30
0.0
 11
259.2228102235892
 21
-164.9355457829588
 31
0.0
  0
LINE
  5
11700
330
18
100
AcDbEntity
  8
1DIM
100
AcDbLine
 10
259.369441838998
 20
-165.0325803559344
 30
0.0
 11
259.3405017582182
 21
-165.0158145473711
 31
0.0
  0
LINE
  5
11701
330
18
100
AcDbEntity
  8
1DIM
100
AcDbLine
 10
259.4109005194091
 20
-165.0603762324972
 30
0.0
 11
259.3979358489987
 21
-165.0482562489283
 31
0.0
  0
LINE
  5
11702
330
18
100
AcDbEntity
  8
1DIM
100
AcDbLine
 10
259.4304102329164
 20
-165.0685965115977
 30
0.0
 11
259.4221513353568
 21
-165.0652286691884
 31
0.0
  0
LINE
  5
11703
330
18
100
AcDbEntity
  8
1DIM
100
AcDbLine
 10
259.442699984408
 20
-165.0755301654262
 30
0.0
 11
259.4414902540053
 21
-165.0747049130496
 31
0.0
  0
LINE
  5
11704
330
18
100
AcDbEntity
  8
1DIM
100
AcDbLine
 10
259.4593430795189
 20
-165.090560324682
 30
0.0
 11
259.4464014052925
 21
-165.0788558691615
 31
0.0
  0
LINE
  5
11705
330
18
100
AcDbEntity
  8
1DIM
100
AcDbLine
 10
259.48041748795
 20
-165.0991526109055
 30
0.0
 11
259.471460845934
 21
-165.0956216343529
 31
0.0
  0
LINE
  5
11706
330
18
100
AcDbEntity
  8
1DIM
100
AcDbLine
 10
259.5526847223908
 20
-165.1438130679608
 30
0.0
 11
259.525548781687
 21
-165.1285072997266
 31
0.0
  0
LINE
  5
11707
330
18
100
AcDbEntity
  8
1DIM
100
AcDbLine
 10
259.5935821418217
 20
-165.1673102012837
 30
0.0
 11
259.5780050608059
 21
-165.1581386933553
 31
0.0
  0
LINE
  5
11708
330
18
100
AcDbEntity
  8
1DIM
100
AcDbLine
 10
259.6512532678419
 20
-165.2003698653771
 30
0.0
 11
259.6259841134317
 21
-165.1862122083376
 31
0.0
  0
LINE
  5
11709
330
18
100
AcDbEntity
  8
01
100
AcDbLine
 10
259.9163354831752
 20
-165.3418907589557
 30
0.0
 11
259.8511208530235
 21
-165.3102202589307
 31
0.0
  0
LINE
  5
1170A
330
18
100
AcDbEntity
  8
01
100
AcDbLine
 10
260.1419197352218
 20
-165.426477894348
 30
0.0
 11
259.9206715266076
 21
-165.3438465064974
 31
0.0
  0
LINE
  5
1170B
330
18
100
AcDbEntity
  8
01
100
AcDbLine
 10
260.5159253825873
 20
-165.5242787058933
 30
0.0
 11
260.4887293196839
 21
-165.517642067422
 31
0.0
  0
LINE
  5
1170C
330
18
100
AcDbEntity
  8
1DIM
100
AcDbLine
 10
390.0352936442733
 20
-164.8989006013808
 30
0.0
 11
389.8340482065771
 21
-165.0355365852452
 31
0.0
  0
LINE
  5
1170D
330
18
100
AcDbEntity
  8
1DIM
100
AcDbLine
 10
389.7269437550806
 20
-165.1000451054115
 30
0.0
 11
389.724135622746
 21
-165.1013941850492
 31
0.0
  0
LINE
  5
1170E
330
18
100
AcDbEntity
  8
1DIM
100
AcDbLine
 10
389.7636554078674
 20
-165.0781789897355
 30
0.0
 11
389.7527734305186
 21
-165.0890778402072
 31
0.0
  0
LINE
  5
1170F
330
18
100
AcDbEntity
  8
01
100
AcDbLine
 10
388.4783306804521
 20
-165.5689140095087
 30
0.0
 11
388.5559898733298
 21
-165.554196807745
 31
0.0
  0
ARC
  5
11710
330
18
100
AcDbEntity
  8
1DIM
100
AcDbCircle
 10
390.3991123367966
 20
-149.114804951158
 30
0.0
 40
15.78828804957699
100
AcDbArc
 50
268.6795831951501
 51
296.1979254594735
  0
LINE
  5
11711
330
18
100
AcDbEntity
  8
01
100
AcDbLine
 10
388.5698647443021
 20
-165.5513867639088
 30
0.0
 11
388.5677283274903
 21
-165.5518231210322
 31
0.0
  0
LINE
  5
11712
330
18
100
AcDbEntity
  8
01
100
AcDbLine
 10
388.588368895844
 20
-165.5475523067344
 30
0.0
 11
388.5856600842626
 21
-165.5481198052812
 31
0.0
  0
LINE
  5
11713
330
18
100
AcDbEntity
  8
01
100
AcDbLine
 10
388.6001818725457
 20
-165.5450526581144
 30
0.0
 11
388.5942839676384
 21
-165.5463057171351
 31
0.0
  0
LINE
  5
11714
330
18
100
AcDbEntity
  8
01
100
AcDbLine
 10
388.7658121403656
 20
-165.5056872507421
 30
0.0
 11
388.6933872148649
 21
-165.5239012093707
 31
0.0
  0
ARC
  5
11715
330
18
100
AcDbEntity
  8
1DIM
100
AcDbCircle
 10
387.8286849441856
 20
-161.9481671180683
 30
0.0
 40
3.678957091907959
100
AcDbArc
 50
286.148987887284
 51
300.64377764241
  0
LINE
  5
11716
330
18
100
AcDbEntity
  8
01
100
AcDbLine
 10
389.0806852693214
 20
-165.4353322769348
 30
0.0
 11
389.0284871555068
 21
-165.4572963079331
 31
0.0
  0
LINE
  5
11717
330
18
100
AcDbEntity
  8
01
100
AcDbLine
 10
389.4525652074593
 20
-165.2508646732308
 30
0.0
 11
389.4465001190262
 21
-165.2540899927499
 31
0.0
  0
LINE
  5
11718
330
18
100
AcDbEntity
  8
01
100
AcDbLine
 10
389.5942467504861
 20
-165.1810400944441
 30
0.0
 11
389.5909202978687
 21
-165.1830207098574
 31
0.0
  0
LINE
  5
11719
330
18
100
AcDbEntity
  8
1DIM
100
AcDbLine
 10
389.6453061792454
 20
-165.1498909572401
 30
0.0
 11
389.6314211959415
 21
-165.1581777956144
 31
0.0
  0
LINE
  5
1171A
330
18
100
AcDbEntity
  8
1DIM
100
AcDbLine
 10
389.6714696840913
 20
-165.1354978958816
 30
0.0
 11
389.6565458454945
 21
-165.1434973499663
 31
0.0
  0
LINE
  5
1171B
330
18
100
AcDbEntity
  8
1DIM
100
AcDbLine
 10
389.7026422341772
 20
-165.1151082107067
 30
0.0
 11
389.7016201738668
 21
-165.1162729469861
 31
0.0
  0
LINE
  5
1171C
330
18
100
AcDbEntity
  8
01
100
AcDbLine
 10
264.1047006412809
 20
-154.5443230372794
 30
0.0
 11
264.1047015782887
 21
-154.5431494337181
 31
0.0
  0
LINE
  5
1171D
330
18
100
AcDbEntity
  8
01
100
AcDbLine
 10
264.1056630584072
 20
-154.581969352153
 30
0.0
 11
264.1049430153956
 21
-154.5632084059216
 31
0.0
  0
SPLINE
  5
1171F
330
18
100
AcDbEntity
  8
1DIM
100
AcDbSpline
210
0.0
220
0.0
230
1.0
 70
     8
 71
     3
 72
    15
 73
    11
 74
     0
 42
0.0000000001
 43
0.0000000001
 40
0.0
 40
0.0
 40
0.0
 40
0.0
 40
0.9663898251540115
 40
2.021384628003206
 40
3.256006164614372
 40
4.627336106814742
 40
6.173170288352526
 40
7.755891443292811
 40
9.514335624095466
 40
11.25657122386172
 40
11.25657122386172
 40
11.25657122386172
 40
11.25657122386172
 10
249.2462981831644
 20
-159.3813550525815
 30
0.0
 10
249.3500453565501
 20
-159.6866711587459
 30
0.0
 10
249.6762106095738
 20
-160.2842299244694
 30
0.0
 10
250.4266740730438
 20
-161.0776190301412
 30
0.0
 10
251.4262430826632
 20
-161.7855036606402
 30
0.0
 10
252.668321069757
 20
-162.4032412966731
 30
0.0
 10
254.0873752367137
 20
-162.8970082075048
 30
0.0
 10
255.6757353370162
 20
-163.2671228750542
 30
0.0
 10
257.3570684090944
 20
-163.4925315195001
 30
0.0
 10
258.5239419331726
 20
-163.5431501168923
 30
0.0
 10
259.1047015782887
 20
-163.5431494337181
 30
0.0
  0
LINE
  5
11720
330
18
100
AcDbEntity
  8
1DIM
100
AcDbLine
 10
259.1047015782887
 20
-164.6676635617555
 30
0.0
 11
390.1047015782887
 21
-164.6674280383695
 31
0.0
  0
LINE
  5
11721
330
18
100
AcDbEntity
  8
1DIM
100
AcDbLine
 10
259.1047015782887
 20
-163.5431494337181
 30
0.0
 11
390.1047015782887
 21
-163.5431494337181
 31
0.0
  0
LINE
  5
11722
330
18
100
AcDbEntity
  8
1DIM
100
AcDbLine
 10
259.1047015782887
 20
-163.5431494337181
 30
0.0
 11
259.1047015782887
 21
-164.6676635617555
 31
0.0
  0
LINE
  5
11723
330
18
100
AcDbEntity
  8
1DIM
100
AcDbLine
 10
389.8144481122387
 20
-165.0455456228542
 30
0.0
 11
389.7743335411905
 21
-165.0707492919805
 31
0.0
  0
LINE
  5
11724
330
18
100
AcDbEntity
  8
1DIM
100
AcDbLine
 10
389.8115207636575
 20
-165.0482596595284
 30
0.0
 11
389.8014091342446
 21
-165.0587226645152
 31
0.0
  0
LINE
  5
11725
330
18
100
AcDbEntity
  8
01
100
AcDbLine
 10
385.1044115996658
 20
-154.5643842746686
 30
0.0
 11
385.1039375926399
 21
-154.577306310066
 31
0.0
  0
LINE
  5
11726
330
18
100
AcDbEntity
  8
01
100
AcDbLine
 10
385.1047015782887
 20
-154.5238456217812
 30
0.0
 11
385.1047015782887
 21
-150.2931494337176
 31
0.0
  0
LINE
  5
11727
330
18
100
AcDbEntity
  8
01
100
AcDbLine
 10
264.1047015782887
 20
-154.523845621748
 30
0.0
 11
264.1047015782887
 21
-124.5403763188433
 31
0.0
  0
LINE
  5
11728
330
18
100
AcDbEntity
  8
01
100
AcDbLine
 10
249.1047015782887
 20
-158.6001197551927
 30
0.0
 11
249.1047015782887
 21
-159.6674286189427
 31
0.0
  0
LINE
  5
11729
330
18
100
AcDbEntity
  8
01
100
AcDbLine
 10
249.1047015782887
 20
-121.6671693367325
 30
0.0
 11
249.1047015782887
 21
-158.5238456217485
 31
0.0
  0
LINE
  5
1172A
330
18
100
AcDbEntity
  8
1DIM
100
AcDbLine
 10
390.1047015782887
 20
-163.5431494337181
 30
0.0
 11
390.1047015782887
 21
-164.6674280383695
 31
0.0
  0
SPLINE
  5
1172C
330
18
100
AcDbEntity
  8
1DIM
100
AcDbSpline
210
0.0
220
0.0
230
1.0
 70
     8
 71
     3
 72
    17
 73
    13
 74
     0
 42
0.0000000001
 43
0.0000000001
 40
0.0
 40
0.0
 40
0.0
 40
0.0
 40
1.995121801159294
 40
3.777189278890297
 40
5.612335252303904
 40
7.230652164303413
 40
8.683630211077796
 40
9.937260426995932
 40
10.50894908104368
 40
11.04670465435362
 40
11.57809287839079
 40
12.04218519301469
 40
12.04218519301469
 40
12.04218519301469
 40
12.04218519301469
 10
390.1047015782887
 20
-163.5431494337181
 30
0.0
 10
390.7697423626892
 20
-163.5432580903016
 30
0.0
 10
392.0288525305433
 20
-163.4806198184679
 30
0.0
 10
393.8814776359435
 20
-163.2055009156365
 30
0.0
 10
395.5737924420165
 20
-162.7671064383658
 30
0.0
 10
397.0967365356344
 20
-162.1607237240014
 30
0.0
 10
398.3452091015331
 20
-161.4299349898911
 30
0.0
 10
399.1692327106136
 20
-160.7017235189282
 30
0.0
 10
399.6442472032655
 20
-160.0698791051673
 30
0.0
 10
399.9021040501134
 20
-159.58579931954
 30
0.0
 10
400.0595488412638
 20
-159.0968993520296
 30
0.0
 10
400.0995335735852
 20
-158.7661123885546
 30
0.0
 10
400.1037826576534
 20
-158.6114613562168
 30
0.0
  0
LINE
  5
1172D
330
18
100
AcDbEntity
  8
01
100
AcDbLine
 10
400.1047015782887
 20
-158.6114738381757
 30
0.0
 11
400.1047015782887
 21
-159.6676635617555
 31
0.0
  0
LINE
  5
1172E
330
18
100
AcDbEntity
  8
01
100
AcDbLine
 10
400.1047015782887
 20
-158.5238456217485
 30
0.0
 11
400.1047015782887
 21
-150.2931494337176
 31
0.0
  0
LINE
  5
1172F
330
18
100
AcDbEntity
  8
01
100
AcDbLine
 10
388.4745243616782
 20
-165.5692859645419
 30
0.0
 11
387.7694816408169
 21
-165.6285084319188
 31
0.0
  0
LINE
  5
11730
330
18
100
AcDbEntity
  8
01
100
AcDbLine
 10
388.5123931699388
 20
-165.5600991737556
 30
0.0
 11
388.4985590697714
 21
-165.5623863154651
 31
0.0
  0
LINE
  5
11731
330
18
100
AcDbEntity
  8
01
100
AcDbLine
 10
388.600211340085
 20
-165.5452255223736
 30
0.0
 11
388.6069793657847
 21
-165.5435959602228
 31
0.0
  0
LINE
  5
11732
330
18
100
AcDbEntity
  8
01
100
AcDbLine
 10
388.5884354101826
 20
-165.5478692039751
 30
0.0
 11
388.5943426875514
 21
-165.5465763231809
 31
0.0
  0
LINE
  5
11733
330
18
100
AcDbEntity
  8
01
100
AcDbLine
 10
388.5698878645765
 20
-165.5514531227809
 30
0.0
 11
388.5857272550942
 21
-165.5484380520766
 31
0.0
  0
LINE
  5
11734
330
18
100
AcDbEntity
  8
01
100
AcDbLine
 10
388.7380587135002
 20
-165.5145203966267
 30
0.0
 11
388.7697217506599
 21
-165.5046591346359
 31
0.0
  0
LINE
  5
11735
330
18
100
AcDbEntity
  8
01
100
AcDbLine
 10
388.7196241506842
 20
-165.5186642558501
 30
0.0
 11
388.7369570251112
 21
-165.5147901931414
 31
0.0
  0
LINE
  5
11736
330
18
100
AcDbEntity
  8
01
100
AcDbLine
 10
388.6933872148649
 20
-165.5239012093707
 30
0.0
 11
388.7176077403133
 21
-165.5190830138617
 31
0.0
  0
LINE
  5
11737
330
18
100
AcDbEntity
  8
01
100
AcDbLine
 10
388.8496591097911
 20
-165.4826130421698
 30
0.0
 11
388.7765497539073
 21
-165.5028506193539
 31
0.0
  0
LINE
  5
11738
330
18
100
AcDbEntity
  8
1DIM
100
AcDbLine
 10
389.6452964597839
 20
-165.1498742787621
 30
0.0
 11
389.6565388521149
 21
-165.1434847368564
 31
0.0
  0
LINE
  5
11739
330
18
100
AcDbEntity
  8
1DIM
100
AcDbLine
 10
389.5942373544276
 20
-165.1810251509851
 30
0.0
 11
389.6314147742
 21
-165.1581672527564
 31
0.0
  0
LINE
  5
1173A
330
18
100
AcDbEntity
  8
01
100
AcDbLine
 10
389.4566739399041
 20
-165.2487158105696
 30
0.0
 11
389.5838970423476
 21
-165.1870594930219
 31
0.0
  0
LINE
  5
1173B
330
18
100
AcDbEntity
  8
01
100
AcDbLine
 10
389.4260441527551
 20
-165.2674047603809
 30
0.0
 11
389.4464945991176
 21
-165.2540799486769
 31
0.0
  0
LINE
  5
1173C
330
18
100
AcDbEntity
  8
01
100
AcDbLine
 10
389.3891183993182
 20
-165.2951418547909
 30
0.0
 11
389.3990480635797
 21
-165.2884676052249
 31
0.0
  0
LINE
  5
1173D
330
18
100
AcDbEntity
  8
01
100
AcDbLine
 10
388.8666394936604
 20
-165.4800898842768
 30
0.0
 11
388.9326463900536
 21
-165.4733347342503
 31
0.0
  0
LINE
  5
1173E
330
18
100
AcDbEntity
  8
01
100
AcDbLine
 10
388.8519354199262
 20
-165.4819588136834
 30
0.0
 11
388.8643392782094
 21
-165.4803651600887
 31
0.0
  0
LINE
  5
1173F
330
18
100
AcDbEntity
  8
1DIM
100
AcDbLine
 10
389.7037983253956
 20
-165.1132884846938
 30
0.0
 11
389.7217870517723
 21
-165.1026086960196
 31
0.0
  0
LINE
  5
11740
330
18
100
AcDbEntity
  8
1DIM
100
AcDbLine
 10
389.7649099939696
 20
-165.0768902641539
 30
0.0
 11
389.7666956297097
 21
-165.075453302984
 31
0.0
  0
LINE
  5
11741
330
18
100
AcDbEntity
  8
1DIM
100
AcDbLine
 10
389.7376881150923
 20
-165.0957341146491
 30
0.0
 11
389.7496583787924
 21
-165.090851947476
 31
0.0
  0
LINE
  5
11742
330
18
100
AcDbEntity
  8
1DIM
100
AcDbLine
 10
389.7217870517724
 20
-165.1026086964466
 30
0.0
 11
389.7241010694712
 21
-165.1013272257578
 31
0.0
  0
LINE
  5
11743
330
18
100
AcDbEntity
  8
1DIM
100
AcDbLine
 10
389.7678697514235
 20
-165.0746385622415
 30
0.0
 11
389.7666956297097
 21
-165.075453302984
 31
0.0
  0
LINE
  5
11744
330
18
100
AcDbEntity
  8
1DIM
100
AcDbLine
 10
389.7724227775224
 20
-165.0719200303374
 30
0.0
 11
389.7678697514235
 21
-165.0746385622415
 31
0.0
  0
LINE
  5
11745
330
18
100
AcDbEntity
  8
1DIM
100
AcDbLine
 10
389.7743335411905
 20
-165.0707492919805
 30
0.0
 11
389.7724227775224
 21
-165.0719200303374
 31
0.0
  0
LINE
  5
11746
330
18
100
AcDbEntity
  8
1DIM
100
AcDbLine
 10
389.8014620294425
 20
-165.058805315909
 30
0.0
 11
389.7789927430034
 21
-165.0685605197095
 31
0.0
  0
LINE
  5
11747
330
18
100
AcDbEntity
  8
1DIM
100
AcDbLine
 10
389.8155070108756
 20
-165.0447870398721
 30
0.0
 11
389.8144481122387
 21
-165.0455456228542
 31
0.0
  0
LINE
  5
11748
330
18
100
AcDbEntity
  8
1DIM
100
AcDbLine
 10
389.8340750481404
 20
-165.0355960679208
 30
0.0
 11
389.8219622394159
 21
-165.0407515361503
 31
0.0
  0
LINE
  5
11749
330
18
100
AcDbEntity
  8
1DIM
100
AcDbLine
 10
390.0291854527615
 20
-164.8987913866977
 30
0.0
 11
390.0352936442733
 21
-164.8987913866927
 31
0.0
  0
LINE
  5
1174A
330
18
100
AcDbEntity
  8
1DIM
100
AcDbLine
 10
324.6047015782887
 20
-164.8987913866704
 30
0.0
 11
390.0291854527615
 21
-164.8987913866977
 31
0.0
  0
LINE
  5
1174B
330
18
100
AcDbEntity
  8
01
100
AcDbLine
 10
260.7348787948989
 20
-165.5692859645383
 30
0.0
 11
261.4399291281401
 21
-165.6285084319152
 31
0.0
  0
LINE
  5
1174C
330
18
100
AcDbEntity
  8
01
100
AcDbLine
 10
260.7348787948989
 20
-165.5692859645383
 30
0.0
 11
260.641665615933
 21
-165.5518206119514
 31
0.0
  0
LINE
  5
1174D
330
18
100
AcDbEntity
  8
01
100
AcDbLine
 10
260.5819535543279
 20
-165.5391280344329
 30
0.0
 11
260.602423855987
 21
-165.5435959575643
 31
0.0
  0
LINE
  5
1174E
330
18
100
AcDbEntity
  8
01
100
AcDbLine
 10
260.5286503262136
 20
-165.5269181582016
 30
0.0
 11
260.5819535543279
 21
-165.5391280344329
 31
0.0
  0
LINE
  5
1174F
330
18
100
AcDbEntity
  8
01
100
AcDbLine
 10
260.516015989613
 20
-165.5239012072188
 30
0.0
 11
260.5286503262136
 21
-165.5269181582016
 31
0.0
  0
LINE
  5
11750
330
18
100
AcDbEntity
  8
01
100
AcDbLine
 10
260.4885546951681
 20
-165.5184076648957
 30
0.0
 11
260.4396814192031
 21
-165.5046591339888
 31
0.0
  0
LINE
  5
11751
330
18
100
AcDbEntity
  8
01
100
AcDbLine
 10
260.4328534026703
 20
-165.5028524461859
 30
0.0
 11
260.4396814192031
 21
-165.5046591339888
 31
0.0
  0
LINE
  5
11752
330
18
100
AcDbEntity
  8
01
100
AcDbLine
 10
260.359744046786
 20
-165.4826153089948
 30
0.0
 11
260.4328534026703
 21
-165.5028524461859
 31
0.0
  0
LINE
  5
11753
330
18
100
AcDbEntity
  8
01
100
AcDbLine
 10
260.3574677444948
 20
-165.4819588132696
 30
0.0
 11
260.359744046786
 21
-165.4826153089948
 31
0.0
  0
LINE
  5
11754
330
18
100
AcDbEntity
  8
1DIM
100
AcDbLine
 10
259.5779884092273
 20
-165.1581672518864
 30
0.0
 11
259.552864331972
 21
-165.1434847359715
 31
0.0
  0
LINE
  5
11755
330
18
100
AcDbEntity
  8
1DIM
100
AcDbLine
 10
260.3574677444948
 20
-165.4819588132696
 30
0.0
 11
259.6508759493214
 21
-165.2010150879482
 31
0.0
  0
LINE
  5
11756
330
18
100
AcDbEntity
  8
1DIM
100
AcDbLine
 10
259.4850504026264
 20
-165.101175894566
 30
0.0
 11
259.4876156333199
 21
-165.1026084143587
 31
0.0
  0
LINE
  5
11757
330
18
100
AcDbEntity
  8
1DIM
100
AcDbLine
 10
259.4804412422952
 20
-165.0990943684201
 30
0.0
 11
259.4850504026264
 21
-165.101175894566
 31
0.0
  0
LINE
  5
11758
330
18
100
AcDbEntity
  8
1DIM
100
AcDbLine
 10
259.4593124413191
 20
-165.0906232349439
 30
0.0
 11
259.4714629710933
 21
-165.0956154246028
 31
0.0
  0
LINE
  5
11759
330
18
100
AcDbEntity
  8
1DIM
100
AcDbLine
 10
259.4369801200368
 20
-165.0719198700917
 30
0.0
 11
259.441532978606
 21
-165.0746382992429
 31
0.0
  0
LINE
  5
1175A
330
18
100
AcDbEntity
  8
1DIM
100
AcDbLine
 10
259.4350696153869
 20
-165.0707492919805
 30
0.0
 11
259.4369801200368
 21
-165.0719198700917
 31
0.0
  0
LINE
  5
1175B
330
18
100
AcDbEntity
  8
1DIM
100
AcDbLine
 10
259.4304290746063
 20
-165.068551431099
 30
0.0
 11
259.4350505203153
 21
-165.0707222264009
 31
0.0
  0
LINE
  5
1175C
330
18
100
AcDbEntity
  8
1DIM
100
AcDbLine
 10
259.4108672478363
 20
-165.0604425265951
 30
0.0
 11
259.4221502451809
 21
-165.0652307405708
 31
0.0
  0
LINE
  5
1175D
330
18
100
AcDbEntity
  8
1DIM
100
AcDbLine
 10
259.3950873563498
 20
-165.0456298224381
 30
0.0
 11
259.3979741230239
 21
-165.048223228041
 31
0.0
  0
LINE
  5
1175E
330
18
100
AcDbEntity
  8
1DIM
100
AcDbLine
 10
259.3938961497357
 20
-165.0447870265039
 30
0.0
 11
259.3950873563498
 21
-165.0456298224381
 31
0.0
  0
LINE
  5
1175F
330
18
100
AcDbEntity
  8
1DIM
100
AcDbLine
 10
259.3874414541987
 20
-165.040752145133
 30
0.0
 11
259.393779948599
 21
-165.0447977011895
 31
0.0
  0
LINE
  5
11760
330
18
100
AcDbEntity
  8
1DIM
100
AcDbLine
 10
259.3693477890193
 20
-165.032768596976
 30
0.0
 11
259.3874414541987
 21
-165.040752145133
 31
0.0
  0
LINE
  5
11761
330
18
100
AcDbEntity
  8
1DIM
100
AcDbLine
 10
259.3026571355467
 20
-164.9897173174718
 30
0.0
 11
259.3403914411533
 21
-165.0159829653203
 31
0.0
  0
LINE
  5
11762
330
18
100
AcDbEntity
  8
1DIM
100
AcDbLine
 10
259.174109512304
 20
-164.8987913866927
 30
0.0
 11
259.222401239302
 21
-164.9361296396683
 31
0.0
  0
LINE
  5
11763
330
18
100
AcDbEntity
  8
1DIM
100
AcDbLine
 10
259.1802177038159
 20
-164.8987913866977
 30
0.0
 11
259.174109512304
 21
-164.8987913866927
 31
0.0
  0
LINE
  5
11764
330
18
100
AcDbEntity
  8
1DIM
100
AcDbLine
 10
259.1802177038159
 20
-164.8987913866977
 30
0.0
 11
324.6047015782887
 21
-164.8987913866704
 31
0.0
  0
LINE
  5
11765
330
18
100
AcDbEntity
  8
01
100
AcDbLine
 10
324.6047015782887
 20
-164.8987913866704
 30
0.0
 11
324.6047015782889
 21
-165.6279459743141
 31
0.0
  0
LINE
  5
11766
330
18
100
AcDbEntity
  8
01
100
AcDbLine
 10
400.1046981155713
 20
30.95673190970729
 30
0.0
 11
400.1047016007914
 21
30.94949458364545
 31
0.0
  0
SPLINE
  5
11767
330
18
100
AcDbEntity
  8
01
100
AcDbSpline
210
0.0
220
0.0
230
1.0
 70
     8
 71
     3
 72
    15
 73
    11
 74
     0
 42
0.0000000001
 43
0.0000000001
 40
0.0
 40
0.0
 40
0.0
 40
0.0
 40
1.827941135629122
 40
3.63736571390832
 40
5.413407477159327
 40
7.170124882854663
 40
8.879457332997916
 40
10.51398146412455
 40
12.12704404496301
 40
13.77077867442734
 40
13.77077867442734
 40
13.77077867442734
 40
13.77077867442734
 10
390.0632656043564
 20
39.6762318775659
 30
0.0
 10
390.6726230624309
 20
39.6762563944103
 30
0.0
 10
391.8849000817301
 20
39.5794118251838
 30
0.0
 10
393.6444154483987
 20
39.15343335850457
 30
0.0
 10
395.289579441955
 20
38.45635109505383
 30
0.0
 10
396.7670498805063
 20
37.51106202870096
 30
0.0
 10
398.018925397456
 20
36.35021632876487
 30
0.0
 10
399.0073563850675
 20
35.01696143585923
 30
0.0
 10
399.7117287953064
 20
33.53763918200184
 30
0.0
 10
399.9693227176307
 20
32.47663019355741
 30
0.0
 10
400.0404295562995
 20
31.93336787357521
 30
0.0
  0
LINE
  5
11768
330
18
100
AcDbEntity
  8
01
100
AcDbLine
 10
355.6047015781475
 20
39.67628623904466
 30
0.0
 11
390.0591216503391
 21
39.67628623904466
 31
0.0
  0
LINE
  5
11769
330
18
100
AcDbEntity
  8
01
100
AcDbLine
 10
259.1522927169323
 20
39.67628623904466
 30
0.0
 11
293.6047015784303
 21
39.67628623904466
 31
0.0
  0
SPLINE
  5
1176A
330
18
100
AcDbEntity
  8
01
100
AcDbSpline
210
0.0
220
0.0
230
1.0
 70
     8
 71
     3
 72
    15
 73
    11
 74
     0
 42
0.0000000001
 43
0.0000000001
 40
0.0
 40
0.0
 40
0.0
 40
0.0
 40
1.596279701849087
 40
3.252821702668824
 40
4.889663209111889
 40
6.642026045880802
 40
8.405197232312204
 40
10.19614338967511
 40
12.01314657999019
 40
13.87181694847793
 40
13.87181694847793
 40
13.87181694847793
 40
13.87181694847793
 10
249.1567808264977
 20
31.83531263191435
 30
0.0
 10
249.2189969668481
 20
32.36372439262232
 30
0.0
 10
249.4593071055913
 20
33.42711202041573
 30
0.0
 10
250.1408153141145
 20
34.91704546455276
 30
0.0
 10
251.1311311235812
 20
36.2859363554544
 30
0.0
 10
252.3861418517527
 20
37.46940341330492
 30
0.0
 10
253.8767467341285
 20
38.43427176308614
 30
0.0
 10
255.5280430441602
 20
39.14188114571607
 30
0.0
 10
257.3036883955629
 20
39.57711567177876
 30
0.0
 10
258.5287559358082
 20
39.67637190674395
 30
0.0
 10
259.1483532639166
 20
39.67623181264025
 30
0.0
  0
LINE
  5
1176B
330
18
100
AcDbEntity
  8
01
100
AcDbLine
 10
249.1047015557855
 20
30.94949458364681
 30
0.0
 11
249.1047052352264
 21
30.95693110302909
 31
0.0
  0
LINE
  5
1176C
330
18
100
AcDbEntity
  8
01
100
AcDbLine
 10
249.1047015765964
 20
30.2998063671389
 30
0.0
 11
249.1047014756851
 21
30.30104311046262
 31
0.0
  0
LINE
  5
1176D
330
18
100
AcDbEntity
  8
01
100
AcDbLine
 10
400.104704292144
 20
30.3061276234771
 30
0.0
 11
400.1047016236001
 21
30.29980636851042
 31
0.0
  0
LINE
  5
1176E
330
18
100
AcDbEntity
  8
01
100
AcDbLine
 10
355.6047015782889
 20
39.95237984610594
 30
0.0
 11
355.6047015782889
 21
39.81724974804092
 31
0.0
  0
LINE
  5
1176F
330
18
100
AcDbEntity
  8
01
100
AcDbLine
 10
355.6047013010959
 20
28.06884696376073
 30
0.0
 11
355.6047015782887
 21
39.68220918527322
 31
0.0
  0
LINE
  5
11770
330
18
100
AcDbEntity
  8
01
100
AcDbLine
 10
355.6047015782889
 20
39.68220925388869
 30
0.0
 11
355.6010048209154
 21
39.95237984610594
 31
0.0
  0
LINE
  5
11771
330
18
100
AcDbEntity
  8
01
100
AcDbLine
 10
354.6047015816222
 20
39.95237984943924
 30
0.0
 11
355.6006564870582
 21
39.95237984611322
 31
0.0
  0
LINE
  5
11772
330
18
100
AcDbEntity
  8
01
100
AcDbLine
 10
293.6047015782889
 20
39.68220911677281
 30
0.0
 11
293.6047018554816
 21
28.06884696376073
 31
0.0
  0
LINE
  5
11773
330
18
100
AcDbEntity
  8
01
100
AcDbLine
 10
293.6083983356622
 20
39.95237984610594
 30
0.0
 11
293.6047015782889
 21
39.68220925388869
 31
0.0
  0
LINE
  5
11774
330
18
100
AcDbEntity
  8
01
100
AcDbLine
 10
294.6047015749554
 20
39.95237984943924
 30
0.0
 11
293.6087466695193
 21
39.95237984611322
 31
0.0
  0
LINE
  5
11775
330
18
100
AcDbEntity
  8
01
100
AcDbLine
 10
293.6047015782887
 20
39.81724950619446
 30
0.0
 11
293.6047015782887
 21
39.95237984610594
 31
0.0
  0
LINE
  5
11776
330
18
100
AcDbEntity
  8
01
100
AcDbLine
 10
293.6047015782887
 20
39.95237984610594
 30
0.0
 11
293.6087466695188
 21
39.95237984610594
 31
0.0
  0
LINE
  5
11777
330
18
100
AcDbEntity
  8
01
100
AcDbLine
 10
355.6006564870587
 20
39.95237984610594
 30
0.0
 11
355.6037073850836
 21
39.95237984610594
 31
0.0
  0
LINE
  5
11778
330
18
100
AcDbEntity
  8
1DIM
100
AcDbLine
 10
294.6047015749554
 20
39.95237984943924
 30
0.0
 11
294.6047015763216
 21
28.06884696376073
 31
0.0
  0
LINE
  5
11779
330
18
100
AcDbEntity
  8
01
100
AcDbLine
 10
354.6047015816222
 20
39.95237984943924
 30
0.0
 11
294.6047015749554
 21
39.95237984943924
 31
0.0
  0
LINE
  5
1177A
330
18
100
AcDbEntity
  8
1DIM
100
AcDbLine
 10
354.6047015802561
 20
28.06884696376073
 30
0.0
 11
354.6047015816222
 21
39.95237984943924
 31
0.0
  0
LINE
  5
1177B
330
18
100
AcDbEntity
  8
1DIM
100
AcDbLine
 10
399.6047015782887
 20
30.0498063685618
 30
0.0
 11
399.6047015782881
 21
22.97056798196354
 31
0.0
  0
LINE
  5
1177C
330
18
100
AcDbEntity
  8
01
100
AcDbLine
 10
400.1047015782884
 20
30.28866130643746
 30
0.0
 11
400.1047015782884
 21
20.65586515364703
 31
0.0
  0
LINE
  5
1177D
330
18
100
AcDbEntity
  8
1DIM
100
AcDbLine
 10
259.1047015782883
 20
39.6091629614466
 30
0.0
 11
259.1522926177608
 21
39.67620993645914
 31
0.0
  0
LINE
  5
1177E
330
18
100
AcDbEntity
  8
1DIM
100
AcDbLine
 10
390.1047015782884
 20
39.60929894093715
 30
0.0
 11
390.0595455303722
 21
39.6761991261842
 31
0.0
  0
LINE
  5
1177F
330
18
100
AcDbEntity
  8
1DIM
100
AcDbLine
 10
249.6047015782881
 20
30.0498063685618
 30
0.0
 11
249.6047015782884
 21
22.97056798196172
 31
0.0
  0
ARC
  5
11780
330
18
100
AcDbEntity
  8
1DIM
100
AcDbCircle
 10
249.5109515782883
 20
30.4873063685618
 30
0.0
 40
0.4474319082275601
100
AcDbArc
 50
204.7751405688863
 51
282.0947570769907
  0
SPLINE
  5
11781
330
18
100
AcDbEntity
  8
1DIM
100
AcDbSpline
210
0.0
220
0.0
230
1.0
 70
     8
 71
     3
 72
    15
 73
    11
 74
     0
 42
0.0000000001
 43
0.0000000001
 40
0.0
 40
0.0
 40
0.0
 40
0.0
 40
1.901739575455332
 40
3.727075280150308
 40
5.575929043862601
 40
7.316529829435033
 40
9.026050175266287
 40
10.66585977052459
 40
12.31866586880351
 40
13.9408129328669
 40
13.9408129328669
 40
13.9408129328669
 40
13.9408129328669
 10
259.1047015782883
 20
38.27704770451373
 30
0.0
 10
258.4707597490562
 20
38.27734271271083
 30
0.0
 10
257.2284468162732
 20
38.16902139530112
 30
0.0
 10
255.4248135171862
 20
37.69272686949807
 30
0.0
 10
253.7814361111497
 20
36.92808157993477
 30
0.0
 10
252.3374167335628
 20
35.89767153993125
 30
0.0
 10
251.164461045911
 20
34.66016810288966
 30
0.0
 10
250.2801345441962
 20
33.23606476945042
 30
0.0
 10
249.7299274834743
 20
31.6820989903531
 30
0.0
 10
249.6045736117467
 20
30.59051062488288
 30
0.0
 10
249.6047015782881
 20
30.0498063685618
 30
0.0
  0
LINE
  5
11782
330
18
100
AcDbEntity
  8
1DIM
100
AcDbLine
 10
259.1047015782883
 20
38.27704770451373
 30
0.0
 11
259.1047015782883
 21
38.96006040640623
 31
0.0
  0
LINE
  5
11783
330
18
100
AcDbEntity
  8
1DIM
100
AcDbLine
 10
293.6047016118279
 20
38.27704770451373
 30
0.0
 11
259.1047015782883
 21
38.27704770451373
 31
0.0
  0
LINE
  5
11784
330
18
100
AcDbEntity
  8
1DIM
100
AcDbLine
 10
390.1047015782884
 20
38.27704770451419
 30
0.0
 11
355.6047015447497
 21
38.27704770451373
 31
0.0
  0
ARC
  5
11785
330
18
100
AcDbEntity
  8
1DIM
100
AcDbCircle
 10
399.6984515782884
 20
30.4873063685618
 30
0.0
 40
0.447431908227128
100
AcDbArc
 50
257.9052429230235
 51
335.2248594312148
  0
LINE
  5
11786
330
18
100
AcDbEntity
  8
1DIM
100
AcDbLine
 10
390.1047015782884
 20
38.27704770451419
 30
0.0
 11
390.1047015782884
 21
38.96006040640623
 31
0.0
  0
SPLINE
  5
11787
330
18
100
AcDbEntity
  8
1DIM
100
AcDbSpline
210
0.0
220
0.0
230
1.0
 70
     8
 71
     3
 72
    14
 73
    10
 74
     0
 42
0.0000000001
 43
0.0000000001
 40
0.0
 40
0.0
 40
0.0
 40
0.0
 40
1.653353041942643
 40
3.275339422953867
 40
4.985454910242308
 40
6.680684725090764
 40
8.439503636843163
 40
10.21418306002864
 40
13.94080382793187
 40
13.94080382793187
 40
13.94080382793187
 40
13.94080382793187
 10
399.6047015782887
 20
30.0498063685618
 30
0.0
 10
399.6051465274171
 20
30.60096998921063
 30
0.0
 10
399.4766726195058
 20
31.69250135306538
 30
0.0
 10
398.9158831259823
 20
33.26752318538411
 30
0.0
 10
398.0198413764939
 20
34.69516784883763
 30
0.0
 10
396.8207529109858
 20
35.9418009911501
 30
0.0
 10
395.3888109516503
 20
36.94869347669191
 30
0.0
 10
393.1820749168108
 20
37.96526864278894
 30
0.0
 10
391.346531409251
 20
38.27713135055274
 30
0.0
 10
390.1047015782884
 20
38.27704770451419
 30
0.0
  0
SPLINE
  5
11789
330
18
100
AcDbEntity
  8
1DIM
100
AcDbSpline
210
0.0
220
0.0
230
1.0
 70
     8
 71
     3
 72
    14
 73
    10
 74
     0
 42
0.0000000001
 43
0.0000000001
 40
0.0
 40
0.0
 40
0.0
 40
0.0
 40
1.59978335251056
 40
3.276726493555649
 40
4.979577244721294
 40
6.686362578194647
 40
8.467487790959419
 40
10.23443298341216
 40
13.96493417371109
 40
13.96493417371109
 40
13.96493417371109
 40
13.96493417371109
 10
400.0713230865859
 20
31.00837755306065
 30
0.0
 10
400.020749034585
 20
31.5392010485657
 30
0.0
 10
399.8014745239635
 20
32.61547924403931
 30
0.0
 10
399.1321586829428
 20
34.14453345437687
 30
0.0
 10
398.1446366652327
 20
35.53317704368237
 30
0.0
 10
396.8865082217013
 20
36.73170504072095
 30
0.0
 10
395.4155686832295
 20
37.69537554156886
 30
0.0
 10
393.1818404790323
 20
38.66382839085099
 30
0.0
 10
391.3478885886885
 20
38.96012180925572
 30
0.0
 10
390.1047015782884
 20
38.96006040640623
 30
0.0
  0
LINE
  5
1178A
330
18
100
AcDbEntity
  8
01
100
AcDbLine
 10
400.1047015782884
 20
30.39848185988012
 30
0.0
 11
400.1047015782884
 21
30.94897708094413
 31
0.0
  0
LINE
  5
1178B
330
18
100
AcDbEntity
  8
1DIM
100
AcDbLine
 10
293.6047015955254
 20
38.96006040640623
 30
0.0
 11
259.1047015782883
 21
38.96006040640623
 31
0.0
  0
LINE
  5
1178C
330
18
100
AcDbEntity
  8
1DIM
100
AcDbLine
 10
390.1047015782884
 20
38.96006040640623
 30
0.0
 11
355.6047015610521
 21
38.96006040640623
 31
0.0
  0
LINE
  5
1178D
330
18
100
AcDbEntity
  8
1DIM
100
AcDbLine
 10
390.1047015782884
 20
38.96006040640623
 30
0.0
 11
390.1047015782884
 21
39.60929894093715
 31
0.0
  0
LINE
  5
1178E
330
18
100
AcDbEntity
  8
1DIM
100
AcDbLine
 10
355.6047015765477
 20
39.60926312954462
 30
0.0
 11
390.1047015782884
 21
39.60929894093715
 31
0.0
  0
LINE
  5
1178F
330
18
100
AcDbEntity
  8
1DIM
100
AcDbLine
 10
259.1047015782883
 20
39.6091629614466
 30
0.0
 11
293.6047015800315
 21
39.60919877283914
 31
0.0
  0
SPLINE
  5
11790
330
18
100
AcDbEntity
  8
1DIM
100
AcDbSpline
210
0.0
220
0.0
230
1.0
 70
     8
 71
     3
 72
    15
 73
    11
 74
     0
 42
0.0000000001
 43
0.0000000001
 40
0.0
 40
0.0
 40
0.0
 40
0.0
 40
2.001831132058302
 40
3.824246376824575
 40
5.776582471950474
 40
7.610967783473737
 40
9.408673642940093
 40
11.14035187419648
 40
12.86577175488636
 40
14.55620296158739
 40
14.55620296158739
 40
14.55620296158739
 40
14.55620296158739
 10
259.1047015782883
 20
38.96006040640623
 30
0.0
 10
258.437398143014
 20
38.96038649040429
 30
0.0
 10
257.162683186581
 20
38.84919504741174
 30
0.0
 10
255.2927354467053
 20
38.36404808309999
 30
0.0
 10
253.5833072770658
 20
37.58735066771169
 30
0.0
 10
252.0515116306079
 20
36.51563629250131
 30
0.0
 10
250.8024314622988
 20
35.22415730430748
 30
0.0
 10
249.8574471720566
 20
33.73818533226586
 30
0.0
 10
249.2617355583153
 20
32.11788517085279
 30
0.0
 10
249.1144077890793
 20
30.98154167847042
 30
0.0
 10
249.1056207288264
 20
30.4181407358401
 30
0.0
  0
LINE
  5
11791
330
18
100
AcDbEntity
  8
1DIM
100
AcDbLine
 10
259.1047015782883
 20
38.96006040640623
 30
0.0
 11
259.1047015782883
 21
39.6091629614466
 31
0.0
  0
LINE
  5
11793
330
18
100
AcDbEntity
  8
01
100
AcDbLine
 10
249.1047015782883
 20
30.28866124049591
 30
0.0
 11
249.1047015782883
 21
20.65586515364703
 31
0.0
  0
LINE
  5
11794
330
18
100
AcDbEntity
  8
01
100
AcDbLine
 10
249.1047015782883
 20
30.41814767987171
 30
0.0
 11
249.1047015782883
 21
30.94904490309273
 31
0.0
  0
LINE
  5
11795
330
18
100
AcDbEntity
  8
1PHANTOM
100
AcDbLine
 10
381.6047015775018
 20
-116.7931496044707
 30
0.0
 11
381.6047015775014
 21
-231.7931496044707
 31
0.0
  0
LINE
  5
11796
330
18
100
AcDbEntity
  8
1PHANTOM
100
AcDbLine
 10
267.6047015775018
 20
-116.7931496044707
 30
0.0
 11
267.6047015775023
 21
-231.7931496044707
 31
0.0
  0
LINE
  5
11797
330
18
100
AcDbEntity
  8
1PHANTOM
100
AcDbLine
 10
381.6047015775018
 20
-116.7931496044707
 30
0.0
 11
267.6047015775018
 21
-116.7931496044707
 31
0.0
  0
LINE
  5
11798
330
18
100
AcDbEntity
  8
1PHANTOM
100
AcDbLine
 10
381.6047015775014
 20
-231.7931496044707
 30
0.0
 11
267.6047015775023
 21
-231.7931496044707
 31
0.0
  0
LINE
  5
11799
330
18
100
AcDbEntity
  8
01
100
AcDbLine
 10
390.1047015782887
 20
-92.60922244022777
 30
0.0
 11
259.1047015782895
 21
-92.60922244022777
 31
0.0
  0
LINE
  5
1179A
330
18
100
AcDbEntity
  8
01
100
AcDbLine
 10
400.1047015782887
 20
-95.4824294223381
 30
0.0
 11
400.1047015782887
 21
-121.6671693367325
 31
0.0
  0
ELLIPSE
  5
1179B
330
18
100
AcDbEntity
  8
01
100
AcDbEllipse
 10
390.1047015782887
 20
-95.4824294223381
 30
0.0
 11
-10.0
 21
0.0
 31
0.0
210
0.0
220
0.0
230
1.0
 40
0.287320698211063
 41
3.141592653589793
 42
4.71238898038469
  0
ELLIPSE
  5
1179C
330
18
100
AcDbEntity
  8
01
100
AcDbEllipse
 10
390.1047015782887
 20
-119.2725832342148
 30
0.0
 11
-10.0
 21
0.0
 31
0.0
210
0.0
220
0.0
230
-1.0
 40
0.287320698211063
 41
3.141592653589793
 42
4.71238898038469
  0
ELLIPSE
  5
1179D
330
18
100
AcDbEntity
  8
01
100
AcDbEllipse
 10
390.1047015782887
 20
-121.6671693367325
 30
0.0
 11
-10.0
 21
0.0
 31
0.0
210
0.0
220
0.0
230
-1.0
 40
0.287320698211063
 41
3.141592653589793
 42
4.71238898038469
  0
LINE
  5
1179E
330
18
100
AcDbEntity
  8
01
100
AcDbLine
 10
249.1047015782895
 20
-95.4824294223381
 30
0.0
 11
249.1047015782895
 21
-121.6671693367325
 31
0.0
  0
ELLIPSE
  5
1179F
330
18
100
AcDbEntity
  8
01
100
AcDbEllipse
 10
259.1047015782895
 20
-95.4824294223381
 30
0.0
 11
10.0
 21
0.0
 31
0.0
210
0.0
220
0.0
230
-1.0
 40
0.287320698211063
 41
3.141592653589793
 42
4.71238898038469
  0
ELLIPSE
  5
117A0
330
18
100
AcDbEntity
  8
01
100
AcDbEllipse
 10
259.1047015782895
 20
-119.2725832342148
 30
0.0
 11
10.0
 21
0.0
 31
0.0
210
0.0
220
0.0
230
1.0
 40
0.287320698211063
 41
3.141592653589793
 42
4.71238898038469
  0
ELLIPSE
  5
117A1
330
18
100
AcDbEntity
  8
01
100
AcDbEllipse
 10
259.1047015782895
 20
-121.6671693367325
 30
0.0
 11
10.0
 21
0.0
 31
0.0
210
0.0
220
0.0
230
1.0
 40
0.287320698211063
 41
3.141592653589793
 42
4.71238898038469
  0
LINE
  5
117A2
330
18
100
AcDbEntity
  8
01
100
AcDbLine
 10
390.1047015782887
 20
-122.1457902163256
 30
0.0
 11
259.1047015782895
 21
-122.1457902163256
 31
0.0
  0
LINE
  5
117A3
330
18
100
AcDbEntity
  8
01
100
AcDbLine
 10
390.1047015782887
 20
-124.5403763188433
 30
0.0
 11
259.1047015782895
 21
-124.5403763188433
 31
0.0
  0
ARC
  5
117A4
330
18
100
AcDbEntity
  8
01
100
AcDbCircle
 10
300.6047006360981
 20
-132.9715181445199
 30
0.0
 40
2.5
100
AcDbArc
 50
0.0
 51
180.0203077442108
  0
ARC
  5
117A5
330
18
100
AcDbEntity
  8
01
100
AcDbCircle
 10
300.6047007931301
 20
-134.9715177519402
 30
0.0
 40
2.5
100
AcDbArc
 50
180.0
 51
0.0
  0
LINE
  5
117A6
330
18
100
AcDbEntity
  8
01
100
AcDbLine
 10
298.1047007931301
 20
-134.9715177519402
 30
0.0
 11
298.1047007931301
 21
-132.9724042370262
 31
0.0
  0
LINE
  5
117A7
330
18
100
AcDbEntity
  8
01
100
AcDbLine
 10
303.1047007931301
 20
-134.9715177519402
 30
0.0
 11
303.1047006360981
 21
-132.9715181445199
 31
0.0
  0
CIRCLE
  5
117A8
330
18
100
AcDbEntity
  8
01
100
AcDbCircle
 10
300.6046960036584
 20
-133.971516063848
 30
0.0
 40
5.5
  0
LINE
  5
117A9
330
18
100
AcDbEntity
  8
1CENTER
100
AcDbLine
 10
293.4546960036589
 20
-133.971516063848
 30
0.0
 11
307.7546960036589
 21
-133.971516063848
 31
0.0
  0
LINE
  5
117AA
330
18
100
AcDbEntity
  8
1CENTER
100
AcDbLine
 10
300.6046960036589
 20
-141.1215160638476
 30
0.0
 11
300.6046960036589
 21
-126.8215160638479
 31
0.0
  0
ARC
  5
117AB
330
18
100
AcDbEntity
  8
01
100
AcDbCircle
 10
349.6047050722474
 20
-133.9715114314085
 30
0.0
 40
2.5
100
AcDbArc
 50
269.9796922557865
 51
90.0
  0
ARC
  5
117AC
330
18
100
AcDbEntity
  8
01
100
AcDbCircle
 10
347.6047054648269
 20
-133.9715112743766
 30
0.0
 40
2.5
100
AcDbArc
 50
90.0
 51
270.0
  0
LINE
  5
117AD
330
18
100
AcDbEntity
  8
01
100
AcDbLine
 10
347.6047054648269
 20
-136.4715112743766
 30
0.0
 11
349.6038189797408
 21
-136.4715112743766
 31
0.0
  0
LINE
  5
117AE
330
18
100
AcDbEntity
  8
01
100
AcDbLine
 10
347.6047054648269
 20
-131.4715112743766
 30
0.0
 11
349.6047050722474
 21
-131.4715114314085
 31
0.0
  0
CIRCLE
  5
117AF
330
18
100
AcDbEntity
  8
01
100
AcDbCircle
 10
348.6047071529191
 20
-133.971516063848
 30
0.0
 40
5.5
  0
LINE
  5
117B0
330
18
100
AcDbEntity
  8
1CENTER
100
AcDbLine
 10
348.6047071529194
 20
-141.1215160638476
 30
0.0
 11
348.6047071529194
 21
-126.8215160638479
 31
0.0
  0
LINE
  5
117B1
330
18
100
AcDbEntity
  8
1CENTER
100
AcDbLine
 10
341.4547071529195
 20
-133.971516063848
 30
0.0
 11
355.7547071529194
 21
-133.971516063848
 31
0.0
  0
ARC
  5
117B2
330
18
100
AcDbEntity
  8
01
100
AcDbCircle
 10
503.4595145292272
 20
-156.3553272741847
 30
0.0
 40
0.5000003750660407
100
AcDbArc
 50
300.0000429793481
 51
29.99989744125345
  0
LINE
  5
117B3
330
18
100
AcDbEntity
  8
01
100
AcDbLine
 10
477.676462909401
 20
-164.695572940695
 30
0.0
 11
477.6589430126099
 21
-164.6674287869955
 31
0.0
  0
ARC
  5
117B4
330
18
100
AcDbEntity
  8
01
100
AcDbCircle
 10
478.0926049554954
 20
-164.4169973854418
 30
0.0
 40
0.5007790699942805
100
AcDbArc
 50
213.7993227119826
 51
252.6507804477558
  0
ARC
  5
117B5
330
18
100
AcDbEntity
  8
01
100
AcDbCircle
 10
477.4428532153375
 20
-163.293151088003
 30
0.0
 40
0.5000008123970612
100
AcDbArc
 50
120.000160834107
 51
209.999906906474
  0
LINE
  5
117B6
330
18
100
AcDbEntity
  8
01
100
AcDbLine
 10
478.5164903370263
 20
-165.0482625497916
 30
0.0
 11
478.4866327234585
 21
-165.040752502447
 31
0.0
  0
LINE
  5
117B7
330
18
100
AcDbEntity
  8
01
100
AcDbLine
 10
478.6401409720673
 20
-165.0788270286675
 30
0.0
 11
478.5940115489506
 21
-165.0675256484301
 31
0.0
  0
LINE
  5
117B8
330
18
100
AcDbEntity
  8
01
100
AcDbLine
 10
478.7980790657815
 20
-165.1166127528268
 30
0.0
 11
478.7243719875131
 21
-165.0991532646467
 31
0.0
  0
LINE
  5
117B9
330
18
100
AcDbEntity
  8
01
100
AcDbLine
 10
478.9162803634021
 20
-165.1439767099346
 30
0.0
 11
478.9141285926831
 21
-165.1434855464722
 31
0.0
  0
LINE
  5
117BA
330
18
100
AcDbEntity
  8
01
100
AcDbLine
 10
479.3284729787928
 20
-165.2333211334576
 30
0.0
 11
479.287524471766
 21
-165.2248655599196
 31
0.0
  0
LINE
  5
117BB
330
18
100
AcDbEntity
  8
01
100
AcDbLine
 10
479.4976615060197
 20
-165.267280513759
 30
0.0
 11
479.3576015580423
 21
-165.2392798268706
 31
0.0
  0
SPLINE
  5
117BC
330
18
100
AcDbEntity
  8
01
100
AcDbSpline
210
0.0
220
0.0
230
1.0
 70
     8
 71
     3
 72
    15
 73
    11
 74
     0
 42
0.0000000001
 43
0.0000000001
 40
0.0
 40
0.0
 40
0.0
 40
0.0
 40
1.682536289750344
 40
2.413581450512948
 40
2.977299231100032
 40
3.778767123009183
 40
4.521958451058646
 40
7.998187827164214
 40
11.75694723973995
 40
15.52091024367163
 40
15.52091024367163
 40
15.52091024367163
 40
15.52091024367163
 10
495.4453286053603
 20
-161.5694679801172
 30
0.0
 10
494.9635200396248
 20
-161.8565304426802
 30
0.0
 10
494.270839240154
 20
-162.2657774397571
 30
0.0
 10
493.4124702790585
 20
-162.7638901354703
 30
0.0
 10
492.8059148455549
 20
-163.1108141607274
 30
0.0
 10
492.1890515938015
 20
-163.4477042899362
 30
0.0
 10
490.6900435662964
 20
-164.1929441909833
 30
0.0
 10
488.1814505640949
 20
-165.1080365988564
 30
0.0
 10
484.5469922104702
 20
-165.7063792671497
 30
0.0
 10
482.0288704459966
 20
-165.63310101974
 30
0.0
 10
480.7841817572179
 20
-165.4748517175258
 30
0.0
  0
LINE
  5
117BD
330
18
100
AcDbEntity
  8
01
100
AcDbLine
 10
562.4462559825273
 20
-119.7317580441049
 30
0.0
 11
562.3896242597478
 21
-119.8324858613923
 31
0.0
  0
LINE
  5
117BE
330
18
100
AcDbEntity
  8
01
100
AcDbLine
 10
556.8160264381323
 20
-143.4715160649312
 30
0.0
 11
544.7574066124436
 21
-122.5853738576798
 31
0.0
  0
LINE
  5
117BF
330
18
100
AcDbEntity
  8
01
100
AcDbLine
 10
546.8226535252555
 20
-108.3782092951305
 30
0.0
 11
555.3547015721132
 21
-108.3782092951301
 31
0.0
  0
ARC
  5
117C0
330
18
100
AcDbEntity
  8
01
100
AcDbCircle
 10
554.7550137775278
 20
-127.2017374217221
 30
0.0
 40
0.4999999999999303
100
AcDbArc
 50
210.1145912471659
 51
300.0000000000216
  0
LINE
  5
117C1
330
18
100
AcDbEntity
  8
01
100
AcDbLine
 10
555.0050137775278
 20
-127.6347501236141
 30
0.0
 11
555.563765163722
 21
-127.3121548565359
 31
0.0
  0
LINE
  5
117C2
330
18
100
AcDbEntity
  8
01
100
AcDbLine
 10
564.6047015754356
 20
-110.9715160638484
 30
0.0
 11
564.6047015721023
 21
-112.3923832688706
 31
0.0
  0
LINE
  5
117C3
330
18
100
AcDbEntity
  8
01
100
AcDbLine
 10
564.6047015787689
 20
-135.9715160671822
 30
0.0
 11
564.6047015754356
 21
-143.9715160638484
 31
0.0
  0
LINE
  5
117C4
330
18
100
AcDbEntity
  8
01
100
AcDbLine
 10
555.3547015721132
 20
-105.4713534538523
 30
0.0
 11
555.3547015721132
 21
-108.3782092951301
 31
0.0
  0
LINE
  5
117C5
330
18
100
AcDbEntity
  8
01
100
AcDbLine
 10
555.3547015721132
 20
-108.3782092951301
 30
0.0
 11
556.3547015721132
 21
-108.3782092951301
 31
0.0
  0
LINE
  5
117C6
330
18
100
AcDbEntity
  8
01
100
AcDbLine
 10
546.8226535252553
 20
-108.3782092951305
 30
0.0
 11
547.1084512721326
 21
-105.1115261003133
 31
0.0
  0
LINE
  5
117C7
330
18
100
AcDbEntity
  8
01
100
AcDbLine
 10
545.8188336877123
 20
-108.3782092951301
 30
0.0
 11
546.8226535252555
 21
-108.3782092951305
 31
0.0
  0
ARC
  5
117C8
330
18
100
AcDbEntity
  8
01
100
AcDbCircle
 10
545.6234320168513
 20
-122.085373858763
 30
0.0
 40
0.9999999999984597
100
AcDbArc
 50
175.0000001432151
 51
209.9999999283881
  0
ARC
  5
117C9
330
18
100
AcDbEntity
  8
01
100
AcDbCircle
 10
557.6820518412914
 20
-142.9715160638493
 30
0.0
 40
0.9999999999992291
100
AcDbArc
 50
210.0000000716006
 51
269.9999999473818
  0
ARC
  5
117CA
330
18
100
AcDbEntity
  8
01
100
AcDbCircle
 10
557.3547015721134
 20
-109.971516063848
 30
0.0
 40
1.000000000000341
100
AcDbArc
 50
179.9999999999739
 51
269.999999856736
  0
LINE
  5
117CB
330
18
100
AcDbEntity
  8
01
100
AcDbLine
 10
544.6272373185433
 20
-121.9982181185055
 30
0.0
 11
545.8188336877121
 21
-108.3782092951301
 31
0.0
  0
LINE
  5
117CC
330
18
100
AcDbEntity
  8
01
100
AcDbLine
 10
545.8188336877121
 20
-108.3782092951301
 30
0.0
 11
546.3051906631093
 21
-102.8191236285284
 31
0.0
  0
LINE
  5
117CD
330
18
100
AcDbEntity
  8
01
100
AcDbLine
 10
564.6047015754356
 20
-143.9715160638484
 30
0.0
 11
557.682051840373
 21
-143.9715160638484
 31
0.0
  0
LINE
  5
117CE
330
18
100
AcDbEntity
  8
01
100
AcDbLine
 10
564.6047015787689
 20
-135.9715160671817
 30
0.0
 11
564.6047015754356
 21
-122.0923677879468
 31
0.0
  0
LINE
  5
117CF
330
18
100
AcDbEntity
  8
01
100
AcDbLine
 10
564.6047015754356
 20
-122.0923677879478
 30
0.0
 11
555.563765163722
 21
-127.3121548565359
 31
0.0
  0
LINE
  5
117D0
330
18
100
AcDbEntity
  8
01
100
AcDbLine
 10
557.354701569613
 20
-110.9715160638484
 30
0.0
 11
564.6047015754356
 21
-110.9715160638484
 31
0.0
  0
LINE
  5
117D1
330
18
100
AcDbEntity
  8
01
100
AcDbLine
 10
556.3547015721869
 20
-103.0351961766728
 30
0.0
 11
556.35470157213
 21
-108.3782092951301
 31
0.0
  0
LINE
  5
117D2
330
18
100
AcDbEntity
  8
01
100
AcDbLine
 10
556.3547015721132
 20
-108.3782092951301
 30
0.0
 11
556.3547015721132
 21
-109.9715160638484
 31
0.0
  0
LINE
  5
117D3
330
18
100
AcDbEntity
  8
01
100
AcDbLine
 10
564.6055675975471
 20
-112.3923832688706
 30
0.0
 11
562.9486732424801
 21
-113.3489916707877
 31
0.0
  0
LINE
  5
117D4
330
18
100
AcDbEntity
  8
01
100
AcDbLine
 10
554.1348647225367
 20
-127.1276077502107
 30
0.0
 11
554.3225010756595
 21
-127.4526034471664
 31
0.0
  0
LINE
  5
117D5
330
18
100
AcDbEntity
  8
01
100
AcDbLine
 10
556.6328105314254
 20
-126.6949412260046
 30
0.0
 11
556.4435882963434
 21
-126.3671987009211
 31
0.0
  0
LINE
  5
117D6
330
18
100
AcDbEntity
  8
01
100
AcDbLine
 10
564.2980445879701
 20
-118.9715160638489
 30
0.0
 11
564.2980445879701
 21
-122.2694162821272
 31
0.0
  0
LINE
  5
117D7
330
18
100
AcDbEntity
  8
01
100
AcDbLine
 10
562.848489240503
 20
-118.9715160638489
 30
0.0
 11
564.2980445879701
 21
-118.9715160638489
 31
0.0
  0
ARC
  5
117D8
330
18
100
AcDbEntity
  8
01
100
AcDbCircle
 10
545.5070222612968
 20
-110.4245106765466
 30
0.0
 40
19.33333334118789
100
AcDbArc
 50
304.4498342373876
 51
333.3200257624912
  0
LINE
  5
117D9
330
18
100
AcDbEntity
  8
01
100
AcDbLine
 10
562.7803320504719
 20
-119.1084353082247
 30
0.0
 11
562.7888193807429
 21
-119.091532448977
 31
0.0
  0
LINE
  5
117DA
330
18
100
AcDbEntity
  8
01
100
AcDbLine
 10
557.2357704021096
 20
-125.7940328310542
 30
0.0
 11
555.021515830298
 21
-127.1633356059301
 31
0.0
  0
LINE
  5
117DB
330
18
100
AcDbEntity
  8
01
100
AcDbLine
 10
559.0005655344168
 20
-124.2032449906428
 30
0.0
 11
557.2357704021089
 21
-125.7940328310542
 31
0.0
  0
LINE
  5
117DC
330
18
100
AcDbEntity
  8
01
100
AcDbLine
 10
554.8050137775061
 20
-127.2883399620805
 30
0.0
 11
555.0215201284853
 21
-127.1633399620614
 31
0.0
  0
ARC
  5
117DD
330
18
100
AcDbEntity
  8
01
100
AcDbCircle
 10
545.5713598127319
 20
-110.2951821555798
 30
0.0
 40
19.33333333333446
100
AcDbArc
 50
313.9964812640587
 51
345.7908929107228
  0
LINE
  5
117DE
330
18
100
AcDbEntity
  8
01
100
AcDbLine
 10
550.8050137775393
 20
-120.3601367318179
 30
0.0
 11
562.9293694305101
 21
-113.3601367318242
 31
0.0
  0
LINE
  5
117DF
330
18
100
AcDbEntity
  8
01
100
AcDbLine
 10
480.748612768181
 20
-165.4703134257979
 30
0.0
 11
480.7616729902933
 21
-165.4720042974623
 31
0.0
  0
LINE
  5
117E0
330
18
100
AcDbEntity
  8
01
100
AcDbLine
 10
480.7313764498252
 20
-165.4680591312317
 30
0.0
 11
480.7325200297176
 21
-165.4682093712954
 31
0.0
  0
LINE
  5
117E1
330
18
100
AcDbEntity
  8
01
100
AcDbLine
 10
479.6421734894715
 20
-165.2950508590002
 30
0.0
 11
479.643210458796
 21
-165.2952461352315
 31
0.0
  0
ARC
  5
117E2
330
18
100
AcDbEntity
  8
01
100
AcDbCircle
 10
500.618533442347
 20
-151.3058395598955
 30
0.0
 40
0.4452637170217442
100
AcDbArc
 50
291.68633114856
 51
18.0525189081579
  0
ARC
  5
117E3
330
18
100
AcDbEntity
  8
01
100
AcDbCircle
 10
554.5550137775025
 20
-126.8553272602271
 30
0.0
 40
0.4999999999681328
100
AcDbArc
 50
209.9999999993995
 51
300.0000000025748
  0
ARC
  5
117E4
330
18
100
AcDbEntity
  8
01
100
AcDbCircle
 10
563.8284289451061
 20
-114.9176883901769
 30
0.0
 40
0.500167454640561
100
AcDbArc
 50
345.7998645776801
 51
30.00778636005044
  0
LINE
  5
117E5
330
18
100
AcDbEntity
  8
01
100
AcDbLine
 10
477.9432360634117
 20
-164.8951223314107
 30
0.0
 11
477.9560180023112
 21
-164.898796632925
 31
0.0
  0
ARC
  5
117E6
330
18
100
AcDbEntity
  8
01
100
AcDbCircle
 10
551.055013777537
 20
-120.793149433719
 30
0.0
 40
0.5000000000066452
100
AcDbArc
 50
119.9999999992748
 51
209.9999999992571
  0
LINE
  5
117E7
330
18
100
AcDbEntity
  8
01
100
AcDbLine
 10
499.7288187672647
 20
-149.8489916701833
 30
0.0
 11
545.3057524634972
 21
-123.5351367318244
 31
0.0
  0
ARC
  5
117E8
330
18
100
AcDbEntity
  8
01
100
AcDbCircle
 10
499.9595149542466
 20
-150.2931494337176
 30
0.0
 40
0.4999999999998596
100
AcDbArc
 50
30.00000000001031
 51
119.9999999999934
  0
LINE
  5
117E9
330
18
100
AcDbEntity
  8
01
100
AcDbLine
 10
485.4200957918036
 20
-158.1101367318261
 30
0.0
 11
499.7095149542469
 21
-149.8601367318256
 31
0.0
  0
LINE
  5
117EA
330
18
100
AcDbEntity
  8
01
100
AcDbLine
 10
477.1933284656242
 20
-162.8598630621564
 30
0.0
 11
485.4200957918036
 21
-158.1101367318261
 31
0.0
  0
ARC
  5
117EB
330
18
100
AcDbEntity
  8
01
100
AcDbCircle
 10
563.1793694305101
 20
-113.7931494337163
 30
0.0
 40
0.4999999999999238
100
AcDbArc
 50
30.0000000000038
 51
119.999999999999
  0
LINE
  5
117EC
330
18
100
AcDbEntity
  8
01
100
AcDbLine
 10
549.3057524634963
 20
-130.4633399620984
 30
0.0
 11
495.4453286053603
 21
-161.5694679801172
 31
0.0
  0
LINE
  5
117ED
330
18
100
AcDbEntity
  8
01
100
AcDbLine
 10
478.4659888876989
 20
-165.0355369785398
 30
0.0
 11
478.4866315478231
 21
-165.0407518680172
 31
0.0
  0
LINE
  5
117EE
330
18
100
AcDbEntity
  8
01
100
AcDbLine
 10
478.6682424251475
 20
-165.0856517384791
 30
0.0
 11
478.681825122182
 21
-165.0889351968749
 31
0.0
  0
LINE
  5
117EF
330
18
100
AcDbEntity
  8
01
100
AcDbLine
 10
483.2378384466441
 20
-165.6285411519848
 30
0.0
 11
483.3450611802551
 21
-165.6281344284162
 31
0.0
  0
LINE
  5
117F0
330
18
100
AcDbEntity
  8
01
100
AcDbLine
 10
486.5541749980147
 20
-159.9349674807909
 30
0.0
 11
477.956402721294
 21
-164.8989006013808
 31
0.0
  0
LINE
  5
117F1
330
18
100
AcDbEntity
  8
01
100
AcDbLine
 10
479.8321445592691
 20
-165.3298066223351
 30
0.0
 11
479.8946113530559
 21
-165.3408111116078
 31
0.0
  0
LINE
  5
117F2
330
18
100
AcDbEntity
  8
01
100
AcDbLine
 10
479.1978123357366
 20
-165.2060135902288
 30
0.0
 11
479.2875256067017
 21
-165.2248597320481
 31
0.0
  0
LINE
  5
117F3
330
18
100
AcDbEntity
  8
01
100
AcDbLine
 10
478.9423021806546
 20
-165.1498909937482
 30
0.0
 11
479.109639995594
 21
-165.1870704118637
 31
0.0
  0
LINE
  5
117F4
330
18
100
AcDbEntity
  8
01
100
AcDbLine
 10
478.8510892354824
 20
-165.1289841003345
 30
0.0
 11
478.9141297576672
 21
-165.1434804421506
 31
0.0
  0
LINE
  5
117F5
330
18
100
AcDbEntity
  8
01
100
AcDbLine
 10
500.7830695560655
 20
-151.7195878468747
 30
0.0
 11
486.5590492766895
 21
-159.931829784131
 31
0.0
  0
LINE
  5
117F6
330
18
100
AcDbEntity
  8
01
100
AcDbLine
 10
501.0496466070625
 20
-151.1813128433337
 30
0.0
 11
503.8925276561384
 21
-156.105327260208
 31
0.0
  0
LINE
  5
117F7
330
18
100
AcDbEntity
  8
01
100
AcDbLine
 10
501.0418221460649
 20
-151.167760479344
 30
0.0
 11
500.3925276561389
 21
-150.0431494337181
 31
0.0
  0
LINE
  5
117F8
330
18
100
AcDbEntity
  8
01
100
AcDbLine
 10
550.6220010756359
 20
-121.0431494337167
 30
0.0
 11
554.122001075635
 21
-127.1053272602066
 31
0.0
  0
LINE
  5
117F9
330
18
100
AcDbEntity
  8
01
100
AcDbLine
 10
564.2614846874429
 20
-114.66742803837
 30
0.0
 11
563.6123821324021
 21
-113.5431494337163
 31
0.0
  0
LINE
  5
117FA
330
18
100
AcDbEntity
  8
01
100
AcDbLine
 10
477.0098417539594
 20
-163.5431494337181
 30
0.0
 11
477.6584763439745
 21
-164.6666174991715
 31
0.0
  0
LINE
  5
117FB
330
18
100
AcDbEntity
  8
01
100
AcDbLine
 10
478.942301335561
 20
-165.1498947300615
 30
0.0
 11
478.9162805489271
 21
-165.1439758969409
 31
0.0
  0
LINE
  5
117FC
330
18
100
AcDbEntity
  8
01
100
AcDbLine
 10
479.8321444934635
 20
-165.3298069676557
 30
0.0
 11
479.6431928147503
 21
-165.2953390521261
 31
0.0
  0
LINE
  5
117FD
330
18
100
AcDbEntity
  8
01
100
AcDbLine
 10
480.731384136432
 20
-165.4680002061614
 30
0.0
 11
479.8946113922628
 21
-165.340810888094
 31
0.0
  0
LINE
  5
117FE
330
18
100
AcDbEntity
  8
01
100
AcDbLine
 10
478.6682424420982
 20
-165.0856516595641
 30
0.0
 11
478.6401412344964
 21
-165.078825953151
 31
0.0
  0
LINE
  5
117FF
330
18
100
AcDbEntity
  8
01
100
AcDbLine
 10
478.5164904093214
 20
-165.0482622629288
 30
0.0
 11
478.5940117689551
 21
-165.0675247548288
 31
0.0
  0
LINE
  5
11800
330
18
100
AcDbEntity
  8
01
100
AcDbLine
 10
477.9560194217992
 20
-164.8987913866927
 30
0.0
 11
478.465990681926
 21
-165.0355298784229
 31
0.0
  0
LINE
  5
11801
330
18
100
AcDbEntity
  8
01
100
AcDbLine
 10
545.8875430272568
 20
-98.1643362230675
 30
0.0
 11
545.9819586058865
 21
-98.34128274963905
 31
0.0
  0
LINE
  5
11802
330
18
100
AcDbEntity
  8
01
100
AcDbLine
 10
553.5687486668631
 20
-96.06548045628188
 30
0.0
 11
553.5502185553142
 21
-95.86577063737877
 31
0.0
  0
ARC
  5
11803
330
18
100
AcDbEntity
  8
01
100
AcDbCircle
 10
544.4022857837334
 20
-99.33714660393571
 30
0.0
 40
0.4999999999938529
100
AcDbArc
 50
106.6976179333048
 51
209.5697260697862
  0
ARC
  5
11804
330
18
100
AcDbEntity
  8
01
100
AcDbCircle
 10
555.4338425918617
 20
-96.02802086282463
 30
0.0
 40
0.4999999999999574
100
AcDbArc
 50
3.825509796731262
 51
106.6976179327408
  0
LINE
  5
11805
330
18
100
AcDbEntity
  8
01
100
AcDbLine
 10
543.9674078852373
 20
-99.58388779099914
 30
0.0
 11
547.0058887679453
 21
-104.9391679396695
 31
0.0
  0
LINE
  5
11806
330
18
100
AcDbEntity
  8
01
100
AcDbLine
 10
555.290182242756
 20
-95.54910364232092
 30
0.0
 11
544.2586254346251
 21
-98.85822938343972
 31
0.0
  0
LINE
  5
11807
330
18
100
AcDbEntity
  8
01
100
AcDbLine
 10
556.3435270475082
 20
-102.1381660706311
 30
0.0
 11
555.9327285229969
 21
-95.99466179037017
 31
0.0
  0
LINE
  5
11808
330
18
100
AcDbEntity
  8
1CENTER
100
AcDbLine
 10
551.3556449378856
 20
-98.22145400826412
 30
0.0
 11
551.3556449378856
 21
-107.7736141960422
 31
0.0
  0
LINE
  5
11809
330
18
100
AcDbEntity
  8
1CENTER
100
AcDbLine
 10
551.3547767771555
 20
-95.97168648491606
 30
0.0
 11
551.3547767771555
 21
-108.9713067855964
 31
0.0
  0
LINE
  5
1180A
330
18
100
AcDbEntity
  8
1CENTER
100
AcDbLine
 10
544.8549666268156
 20
-102.4714966352562
 30
0.0
 11
557.8545869274957
 21
-102.4714966352562
 31
0.0
  0
ARC
  5
1180B
330
18
100
AcDbEntity
  8
01
100
AcDbCircle
 10
551.3546676788648
 20
-102.4717559384208
 30
0.0
 40
5.0
100
AcDbArc
 50
209.5697277903627
 51
3.82549995701452
  0
LINE
  5
1180C
330
18
100
AcDbEntity
  8
01
100
AcDbLine
 10
400.1047015782884
 20
20.65586515364703
 30
0.0
 11
400.1047015782884
 21
-42.40156383136127
 31
0.0
  0
LINE
  5
1180D
330
18
100
AcDbEntity
  8
01
100
AcDbLine
 10
249.1047015782891
 20
20.65586515364703
 30
0.0
 11
249.1047015782891
 21
-42.40156383136127
 31
0.0
  0
LINE
  5
1180E
330
18
100
AcDbEntity
  8
01
100
AcDbLine
 10
460.5923493116014
 20
-123.7502552394649
 30
0.0
 11
460.089464002914
 21
-124.6841215929603
 31
0.0
  0
LINE
  5
1180F
330
18
100
AcDbEntity
  8
01
100
AcDbLine
 10
460.089464002914
 20
-124.6841215929603
 30
0.0
 11
459.1555976493845
 21
-124.181236284222
 31
0.0
  0
LINE
  5
11810
330
18
100
AcDbEntity
  8
01
100
AcDbLine
 10
555.8462888491025
 20
-93.07896657899437
 30
0.0
 11
556.2800248366897
 21
-94.52490233111939
 31
0.0
  0
LINE
  5
11811
330
18
100
AcDbEntity
  8
01
100
AcDbLine
 10
457.8146442492306
 20
-124.0614699341249
 30
0.0
 11
457.3809082612764
 21
-122.6155341807762
 31
0.0
  0
LINE
  5
11812
330
18
100
AcDbEntity
  8
01
100
AcDbLine
 10
457.7189200768911
 20
-122.0021407028489
 30
0.0
 11
457.7185494178649
 21
-122.0022520454677
 31
0.0
  0
ARC
  5
11813
330
18
100
AcDbEntity
  8
01
100
AcDbCircle
 10
555.8011096665836
 20
-94.66856160412226
 30
0.0
 40
0.5000004407282422
100
AcDbArc
 50
286.6977360761379
 51
16.6975673283671
  0
ARC
  5
11814
330
18
100
AcDbEntity
  8
01
100
AcDbCircle
 10
458.2935618725982
 20
-123.9178086851848
 30
0.0
 40
0.5000007470222168
100
AcDbArc
 50
196.6977034341544
 51
286.6974726103589
  0
LINE
  5
11815
330
18
100
AcDbEntity
  8
01
100
AcDbLine
 10
458.4372218182094
 20
-124.3967268066294
 30
0.0
 11
555.9448046578601
 21
-95.14746889184244
 31
0.0
  0
ARC
  5
11816
330
18
100
AcDbEntity
  8
01
100
AcDbCircle
 10
1265.49065034163
 20
-2637.698339747624
 30
0.0
 40
2642.210000000609
100
AcDbArc
 50
105.5935845890687
 51
107.8016510735461
  0
ARC
  5
11817
330
18
100
AcDbEntity
  8
01
100
AcDbCircle
 10
457.8598254820328
 20
-122.4718738325128
 30
0.0
 40
0.5
100
AcDbArc
 50
107.8016510735476
 51
196.6976178320011
  0
ARC
  5
11818
330
18
100
AcDbEntity
  8
01
100
AcDbCircle
 10
555.3673716283464
 20
-93.2226269272578
 30
0.0
 40
0.5
100
AcDbArc
 50
16.69761783200109
 51
105.5935845889554
  0
LINE
  5
11868
330
18
100
AcDbEntity
  8
01
100
AcDbLine
 10
259.1047015782889
 20
-49.81454564164324
 30
0.0
 11
390.1047015782887
 21
-49.81454564164324
 31
0.0
  0
ELLIPSE
  5
11869
330
18
100
AcDbEntity
  8
01
100
AcDbEllipse
 10
259.1047015782888
 20
-42.40156383136127
 30
0.0
 11
-9.999999999999659
 21
0.0
 31
0.0
210
0.0
220
0.0
230
1.0
 40
0.7412981810282443
 41
0.0
 42
1.570796326794897
  0
ELLIPSE
  5
1186A
330
18
100
AcDbEntity
  8
01
100
AcDbEllipse
 10
390.1047015782887
 20
-42.40156383136127
 30
0.0
 11
9.999999999999659
 21
0.0
 31
0.0
210
0.0
220
0.0
230
-1.0
 40
0.7412981810282443
 41
0.0
 42
1.570796326794897
  0
LINE
  5
1186B
330
18
100
AcDbEntity
  8
01
100
AcDbLine
 10
259.1047015782888
 20
28.06884696376073
 30
0.0
 11
390.1047015782888
 21
28.06884696376073
 31
0.0
  0
ELLIPSE
  5
1186C
330
18
100
AcDbEntity
  8
01
100
AcDbEllipse
 10
259.1047015782888
 20
20.65586515364703
 30
0.0
 11
-9.999999999999659
 21
0.0
 31
0.0
210
0.0
220
0.0
230
1.0
 40
0.7412981810114051
 41
4.71238898038469
 42
6.283185307179586
  0
ELLIPSE
  5
1186D
330
18
100
AcDbEntity
  8
01
100
AcDbEllipse
 10
390.1047015782888
 20
20.65586515364703
 30
0.0
 11
9.999999999999659
 21
0.0
 31
0.0
210
0.0
220
0.0
230
-1.0
 40
0.7412981810114051
 41
4.71238898038469
 42
6.283185307179586
  0
LINE
  5
1186E
330
18
100
AcDbEntity
  8
01
100
AcDbLine
 10
259.1047015782888
 20
26.39090736805792
 30
0.0
 11
390.1047015782888
 21
26.39090736805792
 31
0.0
  0
ELLIPSE
  5
1186F
330
18
100
AcDbEntity
  8
01
100
AcDbEllipse
 10
259.1047015782888
 20
18.97792555794422
 30
0.0
 11
-9.999999999999659
 21
0.0
 31
0.0
210
0.0
220
0.0
230
1.0
 40
0.7412981810114051
 41
4.71238898038469
 42
6.283185307179586
  0
ELLIPSE
  5
11870
330
18
100
AcDbEntity
  8
01
100
AcDbEllipse
 10
390.1047015782888
 20
18.97792555794422
 30
0.0
 11
9.999999999999659
 21
0.0
 31
0.0
210
0.0
220
0.0
230
-1.0
 40
0.7412981810114051
 41
4.71238898038469
 42
6.283185307179586
  0
LINE
  5
11871
330
18
100
AcDbEntity
  8
01
100
AcDbLine
 10
293.6047017687548
 20
31.70237984278356
 30
0.0
 11
355.6047013878226
 21
31.70237984278356
 31
0.0
  0
LINE
  5
11945
330
18
100
AcDbEntity
  8
01
100
AcDbLine
 10
577.1047015782887
 20
-96.10948804373947
 30
0.0
 11
577.1047015782887
 21
-170.5658352143032
 31
0.0
  0
LINE
  5
11946
330
18
100
AcDbEntity
  8
01
100
AcDbLine
 10
586.1047015782887
 20
-96.10948804373947
 30
0.0
 11
586.1047015782887
 21
-170.5658352143032
 31
0.0
  0
TEXT
  5
11AE6
330
18
100
AcDbEntity
  8
01
  6
CONTINUOUS
100
AcDbText
 10
571.3422170891112
 20
-88.90659258190215
 30
0.0
 40
3.5
  1
PB
100
AcDbText
  0
TEXT
  5
11AE7
330
18
100
AcDbEntity
  8
01
  6
CONTINUOUS
100
AcDbText
 10
584.4776352342764
 20
-88.90659258190215
 30
0.0
 40
3.5
  1
合板9mm以上
100
AcDbText
  0
LINE
  5
11AE8
330
18
100
AcDbEntity
  8
1DIM
100
AcDbLine
 10
355.6021819360711
 20
39.95237984610594
 30
0.0
 11
415.6047015782888
 21
39.95237984610593
 31
0.0
1001
ACAD
1000
DSTYLE
1002
{
1070
    45
1040
0.5
1070
   271
1070
     0
1002
}
  0
LINE
  5
11AE9
330
18
100
AcDbEntity
  8
1DIM
100
AcDbLine
 10
324.6047015782888
 20
-49.81454564164324
 30
0.0
 11
415.6047015782888
 21
-49.81454564164324
 31
0.0
1001
ACAD
1000
DSTYLE
1002
{
1070
    45
1040
0.5
1070
   271
1070
     0
1002
}
  0
LINE
  5
11AEA
330
18
100
AcDbEntity
  8
1DIM
100
AcDbLine
 10
414.6047015782888
 20
37.95237984610593
 30
0.0
 11
414.6047015782888
 21
-47.81454564164324
 31
0.0
1001
ACAD
1000
DSTYLE
1002
{
1070
    45
1040
0.5
1070
   271
1070
     0
1002
}
  0
LINE
  5
11AEE
330
18
100
AcDbEntity
  8
0
100
AcDbLine
 10
345.6047481141858
 20
71.95237984927687
 30
0.0
 11
344.1047481141858
 21
66.6523833394152
 31
0.0
  0
LINE
  5
11AEF
330
18
100
AcDbEntity
  8
0
100
AcDbLine
 10
344.1047481141858
 20
66.6523833394152
 30
0.0
 11
344.104748114186
 21
36.95238333952332
 31
0.0
  0
LINE
  5
11AF0
330
18
100
AcDbEntity
  8
0
100
AcDbLine
 10
345.6047481141858
 20
71.95237984927687
 30
0.0
 11
347.1047481141859
 21
66.65237635903156
 31
0.0
  0
LINE
  5
11AF1
330
18
100
AcDbEntity
  8
0
100
AcDbLine
 10
342.104701578288
 20
36.95238799322141
 30
0.0
 11
349.1047015782879
 21
36.95237170565707
 31
0.0
  0
LINE
  5
11AF2
330
18
100
AcDbEntity
  8
0
100
AcDbLine
 10
347.1047481141859
 20
66.65237635903156
 30
0.0
 11
347.104748114186
 21
36.95237635913861
 31
0.0
  0
LINE
  5
11AF3
330
18
100
AcDbEntity
  8
0
100
AcDbLine
 10
342.104701578288
 20
36.95238799322141
 30
0.0
 11
342.1047015782879
 21
35.85238450302609
 31
0.0
  0
ARC
  5
11AF4
330
18
100
AcDbEntity
  8
0
100
AcDbCircle
 10
343.6047015782879
 20
35.85238450302609
 30
0.0
 40
1.5
100
AcDbArc
 50
180.0
 51
269.9998666844684
  0
LINE
  5
11AF5
330
18
100
AcDbEntity
  8
0
100
AcDbLine
 10
349.1047015782879
 20
36.95237170565707
 30
0.0
 11
349.1047015782879
 21
35.85237519584649
 31
0.0
  0
LINE
  5
11AF6
330
18
100
AcDbEntity
  8
0
100
AcDbLine
 10
343.6046980880955
 20
34.35238450303015
 30
0.0
 11
347.6046980880955
 21
34.35237519585056
 31
0.0
  0
ARC
  5
11AF7
330
18
100
AcDbEntity
  8
0
100
AcDbCircle
 10
347.6047015782879
 20
35.85237519584649
 30
0.0
 40
1.5
100
AcDbArc
 50
269.9998666844684
 51
0.0
  0
LINE
  5
11AF8
330
18
100
AcDbEntity
  8
1CENTER
100
AcDbLine
 10
345.6047015782879
 20
73.38317476674231
 30
0.0
 11
345.6047015782879
 21
33.28210344013041
 31
0.0
  0
LINE
  5
11AF9
330
18
100
AcDbEntity
  8
0
100
AcDbLine
 10
344.5103777642928
 20
69.85238239559905
 30
0.0
 11
346.4727128531682
 21
70.65237782965002
 31
0.0
  0
LINE
  5
11AFA
330
18
100
AcDbEntity
  8
0
100
AcDbLine
 10
346.4727128531682
 20
70.65237782965002
 30
0.0
 11
345.8844362781258
 21
70.96414768590213
 31
0.0
  0
LINE
  5
11AFB
330
18
100
AcDbEntity
  8
0
100
AcDbLine
 10
343.6047481141858
 20
47.45238450280905
 30
0.0
 11
347.6047481141858
 21
48.25237519562731
 31
0.0
  0
LINE
  5
11AFC
330
18
100
AcDbEntity
  8
0
100
AcDbLine
 10
343.6047481141858
 20
58.65238450281342
 30
0.0
 11
347.6047481141858
 21
59.45237519563599
 31
0.0
  0
LINE
  5
11AFD
330
18
100
AcDbEntity
  8
0
100
AcDbLine
 10
343.6047481141858
 20
61.85238450281346
 30
0.0
 11
347.6047481141858
 21
62.65237519563604
 31
0.0
  0
LINE
  5
11AFE
330
18
100
AcDbEntity
  8
0
100
AcDbLine
 10
347.6047481141858
 20
62.65237519563604
 30
0.0
 11
347.1047481141858
 21
62.75237635903326
 31
0.0
  0
LINE
  5
11AFF
330
18
100
AcDbEntity
  8
0
100
AcDbLine
 10
344.1047481141858
 20
63.35238333941626
 30
0.0
 11
343.6047481141858
 21
63.45238450281349
 31
0.0
  0
LINE
  5
11B00
330
18
100
AcDbEntity
  8
0
100
AcDbLine
 10
347.6047481141858
 20
59.45237519563599
 30
0.0
 11
347.1047481141858
 21
59.55237635903322
 31
0.0
  0
LINE
  5
11B01
330
18
100
AcDbEntity
  8
0
100
AcDbLine
 10
347.6047481141858
 20
61.05237519563613
 30
0.0
 11
347.1047481141858
 21
61.15237635903324
 31
0.0
  0
LINE
  5
11B02
330
18
100
AcDbEntity
  8
0
100
AcDbLine
 10
344.1047481141858
 20
61.75238333941635
 30
0.0
 11
343.6047481141858
 21
61.85238450281346
 31
0.0
  0
LINE
  5
11B03
330
18
100
AcDbEntity
  8
0
100
AcDbLine
 10
344.1047481141858
 20
60.15238333941645
 30
0.0
 11
343.6047481141858
 21
60.25238450281356
 31
0.0
  0
LINE
  5
11B04
330
18
100
AcDbEntity
  8
0
100
AcDbLine
 10
343.6047481141858
 20
60.25238450281356
 30
0.0
 11
347.6047481141858
 21
61.05237519563613
 31
0.0
  0
LINE
  5
11B05
330
18
100
AcDbEntity
  8
0
100
AcDbLine
 10
346.925526957575
 20
69.05237677604438
 30
0.0
 11
346.3737774937717
 21
69.23514091867239
 31
0.0
  0
LINE
  5
11B06
330
18
100
AcDbEntity
  8
0
100
AcDbLine
 10
347.6047481141858
 20
65.85237519563609
 30
0.0
 11
347.1047481141858
 21
65.9523763590332
 31
0.0
  0
LINE
  5
11B07
330
18
100
AcDbEntity
  8
0
100
AcDbLine
 10
347.6047481141858
 20
64.25237519563606
 30
0.0
 11
347.1047481141858
 21
64.35237635903306
 31
0.0
  0
LINE
  5
11B08
330
18
100
AcDbEntity
  8
0
100
AcDbLine
 10
347.3783410619818
 20
67.45237572243875
 30
0.0
 11
346.8417473267107
 21
67.58164642006861
 31
0.0
  0
LINE
  5
11B09
330
18
100
AcDbEntity
  8
0
100
AcDbLine
 10
344.5256627113945
 20
68.13961393685324
 30
0.0
 11
344.0575642562445
 21
68.25238344920328
 31
0.0
  0
LINE
  5
11B0A
330
18
100
AcDbEntity
  8
0
100
AcDbLine
 10
344.1047481141858
 20
64.9523833394164
 30
0.0
 11
343.6047481141858
 21
65.05238450281351
 31
0.0
  0
LINE
  5
11B0B
330
18
100
AcDbEntity
  8
0
100
AcDbLine
 10
344.1047481141858
 20
66.55238333941631
 30
0.0
 11
343.6047481141858
 21
66.65238450281342
 31
0.0
  0
LINE
  5
11B0C
330
18
100
AcDbEntity
  8
0
100
AcDbLine
 10
344.9675496049239
 20
69.70094659915864
 30
0.0
 11
344.5103777642928
 21
69.85238239559905
 31
0.0
  0
LINE
  5
11B0D
330
18
100
AcDbEntity
  8
0
100
AcDbLine
 10
344.0575642562445
 20
68.25238344920328
 30
0.0
 11
346.925526957575
 21
69.05237677604438
 31
0.0
  0
LINE
  5
11B0E
330
18
100
AcDbEntity
  8
0
100
AcDbLine
 10
343.6047481141858
 20
65.05238450281351
 30
0.0
 11
347.6047481141858
 21
65.85237519563609
 31
0.0
  0
LINE
  5
11B0F
330
18
100
AcDbEntity
  8
0
100
AcDbLine
 10
343.6047481141858
 20
66.65238450281342
 30
0.0
 11
347.3783410619818
 21
67.45237572243875
 31
0.0
  0
LINE
  5
11B10
330
18
100
AcDbEntity
  8
0
100
AcDbLine
 10
343.6047481141858
 20
63.45238450281349
 30
0.0
 11
347.6047481141858
 21
64.25237519563606
 31
0.0
  0
LINE
  5
11B11
330
18
100
AcDbEntity
  8
0
100
AcDbLine
 10
343.6047481141858
 20
50.6523845028091
 30
0.0
 11
347.6047481141858
 21
51.45237519562735
 31
0.0
  0
LINE
  5
11B12
330
18
100
AcDbEntity
  8
0
100
AcDbLine
 10
347.6047481141858
 20
51.45237519562735
 30
0.0
 11
347.1047481141858
 21
51.55237635902503
 31
0.0
  0
LINE
  5
11B13
330
18
100
AcDbEntity
  8
0
100
AcDbLine
 10
344.1047481141858
 20
52.15238333941576
 30
0.0
 11
343.6047481141858
 21
52.25238450281344
 31
0.0
  0
LINE
  5
11B14
330
18
100
AcDbEntity
  8
0
100
AcDbLine
 10
347.6047481141858
 20
49.85237519562722
 30
0.0
 11
347.1047481141858
 21
49.9523763590249
 31
0.0
  0
LINE
  5
11B15
330
18
100
AcDbEntity
  8
0
100
AcDbLine
 10
347.6047481141858
 20
48.25237519562731
 30
0.0
 11
347.1047481141858
 21
48.35237635902499
 31
0.0
  0
LINE
  5
11B16
330
18
100
AcDbEntity
  8
0
100
AcDbLine
 10
344.1047481141858
 20
50.55238333941142
 30
0.0
 11
343.6047481141858
 21
50.6523845028091
 31
0.0
  0
LINE
  5
11B17
330
18
100
AcDbEntity
  8
0
100
AcDbLine
 10
344.1047481141858
 20
48.95238333941128
 30
0.0
 11
343.6047481141858
 21
49.05238450280896
 31
0.0
  0
LINE
  5
11B18
330
18
100
AcDbEntity
  8
0
100
AcDbLine
 10
343.6047481141858
 20
49.05238450280896
 30
0.0
 11
347.6047481141858
 21
49.85237519562722
 31
0.0
  0
LINE
  5
11B19
330
18
100
AcDbEntity
  8
0
100
AcDbLine
 10
347.6047481141858
 20
56.25237519563174
 30
0.0
 11
347.1047481141858
 21
56.35237635902942
 31
0.0
  0
LINE
  5
11B1A
330
18
100
AcDbEntity
  8
0
100
AcDbLine
 10
347.6047481141858
 20
57.85237519563609
 30
0.0
 11
347.1047481141858
 21
57.9523763590332
 31
0.0
  0
LINE
  5
11B1B
330
18
100
AcDbEntity
  8
0
100
AcDbLine
 10
347.6047481141858
 20
53.0523751956317
 30
0.0
 11
347.1047481141858
 21
53.15237635902938
 31
0.0
  0
LINE
  5
11B1C
330
18
100
AcDbEntity
  8
0
100
AcDbLine
 10
347.6047481141858
 20
54.65237519563161
 30
0.0
 11
347.1047481141858
 21
54.75237635902928
 31
0.0
  0
LINE
  5
11B1D
330
18
100
AcDbEntity
  8
0
100
AcDbLine
 10
344.1047481141858
 20
58.55238333941631
 30
0.0
 11
343.6047481141858
 21
58.65238450281342
 31
0.0
  0
LINE
  5
11B1E
330
18
100
AcDbEntity
  8
0
100
AcDbLine
 10
344.1047481141858
 20
56.95238333941572
 30
0.0
 11
343.6047481141858
 21
57.05238450281351
 31
0.0
  0
LINE
  5
11B1F
330
18
100
AcDbEntity
  8
0
100
AcDbLine
 10
344.1047481141858
 20
53.75238333941567
 30
0.0
 11
343.6047481141858
 21
53.85238450281335
 31
0.0
  0
LINE
  5
11B20
330
18
100
AcDbEntity
  8
0
100
AcDbLine
 10
344.1047481141858
 20
55.35238333941581
 30
0.0
 11
343.6047481141858
 21
55.45238450281349
 31
0.0
  0
LINE
  5
11B21
330
18
100
AcDbEntity
  8
0
100
AcDbLine
 10
343.6047481141858
 20
55.45238450281349
 30
0.0
 11
347.6047481141858
 21
56.25237519563174
 31
0.0
  0
LINE
  5
11B22
330
18
100
AcDbEntity
  8
0
100
AcDbLine
 10
343.6047481141858
 20
57.05238450281351
 30
0.0
 11
347.6047481141858
 21
57.85237519563609
 31
0.0
  0
LINE
  5
11B23
330
18
100
AcDbEntity
  8
0
100
AcDbLine
 10
343.6047481141858
 20
53.85238450281335
 30
0.0
 11
347.6047481141858
 21
54.65237519563161
 31
0.0
  0
LINE
  5
11B24
330
18
100
AcDbEntity
  8
0
100
AcDbLine
 10
343.6047481141858
 20
52.25238450281344
 30
0.0
 11
347.6047481141858
 21
53.0523751956317
 31
0.0
  0
LINE
  5
11B25
330
18
100
AcDbEntity
  8
0
100
AcDbLine
 10
344.1047481141858
 20
42.55238333940721
 30
0.0
 11
343.6047481141858
 21
42.65238450280489
 31
0.0
  0
LINE
  5
11B26
330
18
100
AcDbEntity
  8
0
100
AcDbLine
 10
343.6047481141858
 20
42.65238450280489
 30
0.0
 11
347.6047481141858
 21
43.45237519562315
 31
0.0
  0
LINE
  5
11B27
330
18
100
AcDbEntity
  8
0
100
AcDbLine
 10
347.6047481141858
 20
43.45237519562315
 30
0.0
 11
347.1047481141858
 21
43.55237635902083
 31
0.0
  0
LINE
  5
11B28
330
18
100
AcDbEntity
  8
0
100
AcDbLine
 10
344.1047481141858
 20
44.15238333940712
 30
0.0
 11
343.6047481141858
 21
44.2523845028048
 31
0.0
  0
LINE
  5
11B29
330
18
100
AcDbEntity
  8
0
100
AcDbLine
 10
344.1047481141858
 20
45.75238333940703
 30
0.0
 11
343.6047481141858
 21
45.85238450280471
 31
0.0
  0
LINE
  5
11B2A
330
18
100
AcDbEntity
  8
0
100
AcDbLine
 10
343.6047481141858
 20
45.85238450280471
 30
0.0
 11
347.6047481141858
 21
46.65237519562297
 31
0.0
  0
LINE
  5
11B2B
330
18
100
AcDbEntity
  8
0
100
AcDbLine
 10
347.6047481141858
 20
45.05237519562306
 30
0.0
 11
347.1047481141858
 21
45.15237635902074
 31
0.0
  0
LINE
  5
11B2C
330
18
100
AcDbEntity
  8
0
100
AcDbLine
 10
347.6047481141858
 20
46.65237519562297
 30
0.0
 11
347.1047481141858
 21
46.75237635902064
 31
0.0
  0
LINE
  5
11B2D
330
18
100
AcDbEntity
  8
0
100
AcDbLine
 10
343.6047481141858
 20
44.2523845028048
 30
0.0
 11
347.6047481141858
 21
45.05237519562306
 31
0.0
  0
LINE
  5
11B2E
330
18
100
AcDbEntity
  8
0
100
AcDbLine
 10
344.1047481141858
 20
47.35238333941138
 30
0.0
 11
343.6047481141858
 21
47.45238450280905
 31
0.0
  0
LINE
  5
11B2F
330
18
100
AcDbEntity
  8
0
100
AcDbLine
 10
344.1047481141858
 20
40.95238333940731
 30
0.0
 11
343.6047481141858
 21
41.05238450280498
 31
0.0
  0
LINE
  5
11B30
330
18
100
AcDbEntity
  8
0
100
AcDbLine
 10
343.6047481141858
 20
41.05238450280498
 30
0.0
 11
347.6047481141858
 21
41.85237519562324
 31
0.0
  0
LINE
  5
11B31
330
18
100
AcDbEntity
  8
0
100
AcDbLine
 10
347.6047481141858
 20
41.85237519562324
 30
0.0
 11
347.1047481141858
 21
41.95237635902092
 31
0.0
  0
LINE
  5
11B32
330
18
100
AcDbEntity
  8
0
100
AcDbLine
 10
344.1047481141858
 20
39.3523833394074
 30
0.0
 11
343.6047481141858
 21
39.45238450280507
 31
0.0
  0
LINE
  5
11B33
330
18
100
AcDbEntity
  8
0
100
AcDbLine
 10
343.6047481141858
 20
39.45238450280507
 30
0.0
 11
347.6047481141858
 21
40.25237519562333
 31
0.0
  0
LINE
  5
11B34
330
18
100
AcDbEntity
  8
0
100
AcDbLine
 10
347.6047481141858
 20
40.25237519562333
 30
0.0
 11
347.1047481141858
 21
40.35237635902101
 31
0.0
  0
LINE
  5
11B35
330
18
100
AcDbEntity
  8
0
100
AcDbLine
 10
344.1047481141858
 20
37.75238333940749
 30
0.0
 11
343.6047481141858
 21
37.85238450280517
 31
0.0
  0
LINE
  5
11B36
330
18
100
AcDbEntity
  8
0
100
AcDbLine
 10
343.6047481141858
 20
37.85238450280517
 30
0.0
 11
347.6047481141858
 21
38.65237519562342
 31
0.0
  0
LINE
  5
11B37
330
18
100
AcDbEntity
  8
0
100
AcDbLine
 10
347.6047481141858
 20
38.65237519562342
 30
0.0
 11
347.1047481141858
 21
38.7523763590211
 31
0.0
  0
LINE
  5
11B38
330
18
100
AcDbEntity
  8
0
100
AcDbLine
 10
596.6047015781263
 20
-133.9715625997459
 30
0.0
 11
591.3047050682646
 21
-132.4715625997459
 31
0.0
  0
LINE
  5
11B39
330
18
100
AcDbEntity
  8
0
100
AcDbLine
 10
591.3047050682646
 20
-132.4715625997459
 30
0.0
 11
561.6047050683727
 21
-132.4715625997461
 31
0.0
  0
LINE
  5
11B3A
330
18
100
AcDbEntity
  8
0
100
AcDbLine
 10
596.6047015781263
 20
-133.9715625997459
 30
0.0
 11
591.304698087881
 21
-135.471562599746
 31
0.0
  0
LINE
  5
11B3B
330
18
100
AcDbEntity
  8
0
100
AcDbLine
 10
561.6047097220709
 20
-130.4715160638481
 30
0.0
 11
561.6046934345064
 21
-137.471516063848
 31
0.0
  0
LINE
  5
11B3C
330
18
100
AcDbEntity
  8
0
100
AcDbLine
 10
591.304698087881
 20
-135.471562599746
 30
0.0
 11
561.604698087988
 21
-135.4715625997461
 31
0.0
  0
LINE
  5
11B3D
330
18
100
AcDbEntity
  8
0
100
AcDbLine
 10
561.6047097220709
 20
-130.4715160638481
 30
0.0
 11
560.5047062318755
 21
-130.471516063848
 31
0.0
  0
ARC
  5
11B3E
330
18
100
AcDbEntity
  8
0
100
AcDbCircle
 10
560.5047062318755
 20
-131.971516063848
 30
0.0
 40
1.5
100
AcDbArc
 50
90.0
 51
179.9998666844684
  0
LINE
  5
11B3F
330
18
100
AcDbEntity
  8
0
100
AcDbLine
 10
561.6046934345064
 20
-137.471516063848
 30
0.0
 11
560.5046969246958
 21
-137.471516063848
 31
0.0
  0
LINE
  5
11B40
330
18
100
AcDbEntity
  8
0
100
AcDbLine
 10
559.0047062318796
 20
-131.9715125736556
 30
0.0
 11
559.0046969246999
 21
-135.9715125736556
 31
0.0
  0
ARC
  5
11B41
330
18
100
AcDbEntity
  8
0
100
AcDbCircle
 10
560.5046969246958
 20
-135.971516063848
 30
0.0
 40
1.5
100
AcDbArc
 50
179.9998666844684
 51
270.0
  0
LINE
  5
11B42
330
18
100
AcDbEntity
  8
1CENTER
100
AcDbLine
 10
598.0354964955917
 20
-133.971516063848
 30
0.0
 11
557.9344251689798
 21
-133.971516063848
 31
0.0
  0
LINE
  5
11B43
330
18
100
AcDbEntity
  8
0
100
AcDbLine
 10
594.5047041244485
 20
-132.8771922498529
 30
0.0
 11
595.3046995584995
 21
-134.8395273387283
 31
0.0
  0
LINE
  5
11B44
330
18
100
AcDbEntity
  8
0
100
AcDbLine
 10
595.3046995584995
 20
-134.8395273387283
 30
0.0
 11
595.6164694147516
 21
-134.2512507636859
 31
0.0
  0
LINE
  5
11B45
330
18
100
AcDbEntity
  8
0
100
AcDbLine
 10
572.1047062316585
 20
-131.9715625997459
 30
0.0
 11
572.9046969244768
 21
-135.9715625997459
 31
0.0
  0
LINE
  5
11B46
330
18
100
AcDbEntity
  8
0
100
AcDbLine
 10
583.3047062316629
 20
-131.9715625997459
 30
0.0
 11
584.1046969244854
 21
-135.9715625997459
 31
0.0
  0
LINE
  5
11B47
330
18
100
AcDbEntity
  8
0
100
AcDbLine
 10
586.5047062316629
 20
-131.9715625997459
 30
0.0
 11
587.3046969244855
 21
-135.9715625997459
 31
0.0
  0
LINE
  5
11B48
330
18
100
AcDbEntity
  8
0
100
AcDbLine
 10
587.3046969244855
 20
-135.9715625997459
 30
0.0
 11
587.4046980878827
 21
-135.4715625997459
 31
0.0
  0
LINE
  5
11B49
330
18
100
AcDbEntity
  8
0
100
AcDbLine
 10
588.0047050682657
 20
-132.4715625997459
 30
0.0
 11
588.1047062316629
 21
-131.9715625997459
 31
0.0
  0
LINE
  5
11B4A
330
18
100
AcDbEntity
  8
0
100
AcDbLine
 10
584.1046969244854
 20
-135.9715625997459
 30
0.0
 11
584.2046980878827
 21
-135.4715625997459
 31
0.0
  0
LINE
  5
11B4B
330
18
100
AcDbEntity
  8
0
100
AcDbLine
 10
585.7046969244856
 20
-135.9715625997459
 30
0.0
 11
585.8046980878827
 21
-135.4715625997459
 31
0.0
  0
LINE
  5
11B4C
330
18
100
AcDbEntity
  8
0
100
AcDbLine
 10
586.4047050682658
 20
-132.4715625997459
 30
0.0
 11
586.5047062316629
 21
-131.9715625997459
 31
0.0
  0
LINE
  5
11B4D
330
18
100
AcDbEntity
  8
0
100
AcDbLine
 10
584.8047050682659
 20
-132.4715625997459
 30
0.0
 11
584.904706231663
 21
-131.9715625997459
 31
0.0
  0
LINE
  5
11B4E
330
18
100
AcDbEntity
  8
0
100
AcDbLine
 10
584.904706231663
 20
-131.9715625997459
 30
0.0
 11
585.7046969244856
 21
-135.9715625997459
 31
0.0
  0
LINE
  5
11B4F
330
18
100
AcDbEntity
  8
0
100
AcDbLine
 10
593.7046985048938
 20
-135.2923414431351
 30
0.0
 11
593.8874626475218
 21
-134.7405919793318
 31
0.0
  0
LINE
  5
11B50
330
18
100
AcDbEntity
  8
0
100
AcDbLine
 10
590.5046969244855
 20
-135.9715625997459
 30
0.0
 11
590.6046980878826
 21
-135.4715625997459
 31
0.0
  0
LINE
  5
11B51
330
18
100
AcDbEntity
  8
0
100
AcDbLine
 10
588.9046969244855
 20
-135.9715625997459
 30
0.0
 11
589.0046980878825
 21
-135.4715625997459
 31
0.0
  0
LINE
  5
11B52
330
18
100
AcDbEntity
  8
0
100
AcDbLine
 10
592.1046974512882
 20
-135.7451555475419
 30
0.0
 11
592.233968148918
 21
-135.2085618122708
 31
0.0
  0
LINE
  5
11B53
330
18
100
AcDbEntity
  8
0
100
AcDbLine
 10
592.7919356657027
 20
-132.8924771969546
 30
0.0
 11
592.9047051780527
 21
-132.4243787418046
 31
0.0
  0
LINE
  5
11B54
330
18
100
AcDbEntity
  8
0
100
AcDbLine
 10
589.6047050682658
 20
-132.4715625997459
 30
0.0
 11
589.704706231663
 21
-131.9715625997459
 31
0.0
  0
LINE
  5
11B55
330
18
100
AcDbEntity
  8
0
100
AcDbLine
 10
591.2047050682658
 20
-132.4715625997459
 30
0.0
 11
591.3047062316629
 21
-131.9715625997459
 31
0.0
  0
LINE
  5
11B56
330
18
100
AcDbEntity
  8
0
100
AcDbLine
 10
594.3532683280081
 20
-133.334364090484
 30
0.0
 11
594.5047041244485
 21
-132.8771922498529
 31
0.0
  0
LINE
  5
11B57
330
18
100
AcDbEntity
  8
0
100
AcDbLine
 10
592.9047051780527
 20
-132.4243787418046
 30
0.0
 11
593.7046985048938
 21
-135.2923414431351
 31
0.0
  0
LINE
  5
11B58
330
18
100
AcDbEntity
  8
0
100
AcDbLine
 10
589.704706231663
 20
-131.9715625997459
 30
0.0
 11
590.5046969244855
 21
-135.9715625997459
 31
0.0
  0
LINE
  5
11B59
330
18
100
AcDbEntity
  8
0
100
AcDbLine
 10
591.3047062316629
 20
-131.9715625997459
 30
0.0
 11
592.1046974512882
 21
-135.7451555475419
 31
0.0
  0
LINE
  5
11B5A
330
18
100
AcDbEntity
  8
0
100
AcDbLine
 10
588.1047062316629
 20
-131.9715625997459
 30
0.0
 11
588.9046969244855
 21
-135.9715625997459
 31
0.0
  0
LINE
  5
11B5B
330
18
100
AcDbEntity
  8
0
100
AcDbLine
 10
575.3047062316585
 20
-131.9715625997459
 30
0.0
 11
576.1046969244768
 21
-135.9715625997459
 31
0.0
  0
LINE
  5
11B5C
330
18
100
AcDbEntity
  8
0
100
AcDbLine
 10
576.1046969244768
 20
-135.9715625997459
 30
0.0
 11
576.2046980878745
 21
-135.4715625997459
 31
0.0
  0
LINE
  5
11B5D
330
18
100
AcDbEntity
  8
0
100
AcDbLine
 10
576.8047050682652
 20
-132.4715625997459
 30
0.0
 11
576.9047062316629
 21
-131.9715625997459
 31
0.0
  0
LINE
  5
11B5E
330
18
100
AcDbEntity
  8
0
100
AcDbLine
 10
574.5046969244767
 20
-135.9715625997459
 30
0.0
 11
574.6046980878743
 21
-135.4715625997459
 31
0.0
  0
LINE
  5
11B5F
330
18
100
AcDbEntity
  8
0
100
AcDbLine
 10
572.9046969244768
 20
-135.9715625997459
 30
0.0
 11
573.0046980878744
 21
-135.4715625997459
 31
0.0
  0
LINE
  5
11B60
330
18
100
AcDbEntity
  8
0
100
AcDbLine
 10
575.2047050682609
 20
-132.4715625997459
 30
0.0
 11
575.3047062316585
 21
-131.9715625997459
 31
0.0
  0
LINE
  5
11B61
330
18
100
AcDbEntity
  8
0
100
AcDbLine
 10
573.6047050682607
 20
-132.4715625997459
 30
0.0
 11
573.7047062316584
 21
-131.9715625997459
 31
0.0
  0
LINE
  5
11B62
330
18
100
AcDbEntity
  8
0
100
AcDbLine
 10
573.7047062316584
 20
-131.9715625997459
 30
0.0
 11
574.5046969244767
 21
-135.9715625997459
 31
0.0
  0
LINE
  5
11B63
330
18
100
AcDbEntity
  8
0
100
AcDbLine
 10
580.9046969244812
 20
-135.9715625997459
 30
0.0
 11
581.0046980878789
 21
-135.4715625997459
 31
0.0
  0
LINE
  5
11B64
330
18
100
AcDbEntity
  8
0
100
AcDbLine
 10
582.5046969244855
 20
-135.9715625997459
 30
0.0
 11
582.6046980878826
 21
-135.4715625997459
 31
0.0
  0
LINE
  5
11B65
330
18
100
AcDbEntity
  8
0
100
AcDbLine
 10
577.7046969244811
 20
-135.9715625997459
 30
0.0
 11
577.8046980878788
 21
-135.4715625997459
 31
0.0
  0
LINE
  5
11B66
330
18
100
AcDbEntity
  8
0
100
AcDbLine
 10
579.304696924481
 20
-135.9715625997459
 30
0.0
 11
579.4046980878787
 21
-135.4715625997459
 31
0.0
  0
LINE
  5
11B67
330
18
100
AcDbEntity
  8
0
100
AcDbLine
 10
583.2047050682658
 20
-132.4715625997459
 30
0.0
 11
583.3047062316629
 21
-131.9715625997459
 31
0.0
  0
LINE
  5
11B68
330
18
100
AcDbEntity
  8
0
100
AcDbLine
 10
581.6047050682652
 20
-132.4715625997459
 30
0.0
 11
581.704706231663
 21
-131.9715625997459
 31
0.0
  0
LINE
  5
11B69
330
18
100
AcDbEntity
  8
0
100
AcDbLine
 10
578.4047050682651
 20
-132.4715625997459
 30
0.0
 11
578.5047062316628
 21
-131.9715625997459
 31
0.0
  0
LINE
  5
11B6A
330
18
100
AcDbEntity
  8
0
100
AcDbLine
 10
580.0047050682653
 20
-132.4715625997459
 30
0.0
 11
580.1047062316629
 21
-131.9715625997459
 31
0.0
  0
LINE
  5
11B6B
330
18
100
AcDbEntity
  8
0
100
AcDbLine
 10
580.1047062316629
 20
-131.9715625997459
 30
0.0
 11
580.9046969244812
 21
-135.9715625997459
 31
0.0
  0
LINE
  5
11B6C
330
18
100
AcDbEntity
  8
0
100
AcDbLine
 10
581.704706231663
 20
-131.9715625997459
 30
0.0
 11
582.5046969244855
 21
-135.9715625997459
 31
0.0
  0
LINE
  5
11B6D
330
18
100
AcDbEntity
  8
0
100
AcDbLine
 10
578.5047062316628
 20
-131.9715625997459
 30
0.0
 11
579.304696924481
 21
-135.9715625997459
 31
0.0
  0
LINE
  5
11B6E
330
18
100
AcDbEntity
  8
0
100
AcDbLine
 10
576.9047062316629
 20
-131.9715625997459
 30
0.0
 11
577.7046969244811
 21
-135.9715625997459
 31
0.0
  0
LINE
  5
11B6F
330
18
100
AcDbEntity
  8
0
100
AcDbLine
 10
567.2047050682567
 20
-132.4715625997459
 30
0.0
 11
567.3047062316543
 21
-131.9715625997459
 31
0.0
  0
LINE
  5
11B70
330
18
100
AcDbEntity
  8
0
100
AcDbLine
 10
567.3047062316543
 20
-131.9715625997459
 30
0.0
 11
568.1046969244726
 21
-135.9715625997459
 31
0.0
  0
LINE
  5
11B71
330
18
100
AcDbEntity
  8
0
100
AcDbLine
 10
568.1046969244726
 20
-135.9715625997459
 30
0.0
 11
568.2046980878703
 21
-135.4715625997459
 31
0.0
  0
LINE
  5
11B72
330
18
100
AcDbEntity
  8
0
100
AcDbLine
 10
568.8047050682566
 20
-132.4715625997459
 30
0.0
 11
568.9047062316542
 21
-131.9715625997459
 31
0.0
  0
LINE
  5
11B73
330
18
100
AcDbEntity
  8
0
100
AcDbLine
 10
570.4047050682565
 20
-132.4715625997459
 30
0.0
 11
570.5047062316542
 21
-131.9715625997459
 31
0.0
  0
LINE
  5
11B74
330
18
100
AcDbEntity
  8
0
100
AcDbLine
 10
570.5047062316542
 20
-131.9715625997459
 30
0.0
 11
571.3046969244724
 21
-135.9715625997459
 31
0.0
  0
LINE
  5
11B75
330
18
100
AcDbEntity
  8
0
100
AcDbLine
 10
569.7046969244725
 20
-135.9715625997459
 30
0.0
 11
569.8046980878702
 21
-135.4715625997459
 31
0.0
  0
LINE
  5
11B76
330
18
100
AcDbEntity
  8
0
100
AcDbLine
 10
571.3046969244724
 20
-135.9715625997459
 30
0.0
 11
571.4046980878701
 21
-135.4715625997459
 31
0.0
  0
LINE
  5
11B77
330
18
100
AcDbEntity
  8
0
100
AcDbLine
 10
568.9047062316542
 20
-131.9715625997459
 30
0.0
 11
569.7046969244725
 21
-135.9715625997459
 31
0.0
  0
LINE
  5
11B78
330
18
100
AcDbEntity
  8
0
100
AcDbLine
 10
572.0047050682608
 20
-132.4715625997459
 30
0.0
 11
572.1047062316585
 21
-131.9715625997459
 31
0.0
  0
LINE
  5
11B79
330
18
100
AcDbEntity
  8
0
100
AcDbLine
 10
565.6047050682567
 20
-132.4715625997459
 30
0.0
 11
565.7047062316544
 21
-131.9715625997459
 31
0.0
  0
LINE
  5
11B7A
330
18
100
AcDbEntity
  8
0
100
AcDbLine
 10
565.7047062316544
 20
-131.9715625997459
 30
0.0
 11
566.5046969244727
 21
-135.9715625997459
 31
0.0
  0
LINE
  5
11B7B
330
18
100
AcDbEntity
  8
0
100
AcDbLine
 10
566.5046969244727
 20
-135.9715625997459
 30
0.0
 11
566.6046980878704
 21
-135.4715625997459
 31
0.0
  0
LINE
  5
11B7C
330
18
100
AcDbEntity
  8
0
100
AcDbLine
 10
564.0047050682568
 20
-132.4715625997459
 30
0.0
 11
564.1047062316545
 21
-131.9715625997459
 31
0.0
  0
LINE
  5
11B7D
330
18
100
AcDbEntity
  8
0
100
AcDbLine
 10
564.1047062316545
 20
-131.9715625997459
 30
0.0
 11
564.9046969244728
 21
-135.9715625997459
 31
0.0
  0
LINE
  5
11B7E
330
18
100
AcDbEntity
  8
0
100
AcDbLine
 10
564.9046969244728
 20
-135.9715625997459
 30
0.0
 11
565.0046980878705
 21
-135.4715625997459
 31
0.0
  0
LINE
  5
11B7F
330
18
100
AcDbEntity
  8
0
100
AcDbLine
 10
562.4047050682569
 20
-132.4715625997459
 30
0.0
 11
562.5047062316546
 21
-131.9715625997459
 31
0.0
  0
LINE
  5
11B80
330
18
100
AcDbEntity
  8
0
100
AcDbLine
 10
562.5047062316546
 20
-131.9715625997459
 30
0.0
 11
563.3046969244729
 21
-135.9715625997459
 31
0.0
  0
LINE
  5
11B81
330
18
100
AcDbEntity
  8
0
100
AcDbLine
 10
563.3046969244729
 20
-135.9715625997459
 30
0.0
 11
563.4046980878705
 21
-135.4715625997459
 31
0.0
  0
LINE
  5
11B82
330
18
100
AcDbEntity
  8
0
100
AcDbLine
 10
303.6047481141858
 20
71.95237984927687
 30
0.0
 11
302.1047481141858
 21
66.6523833394152
 31
0.0
  0
LINE
  5
11B83
330
18
100
AcDbEntity
  8
0
100
AcDbLine
 10
302.1047481141858
 20
66.6523833394152
 30
0.0
 11
302.104748114186
 21
36.95238333952332
 31
0.0
  0
LINE
  5
11B84
330
18
100
AcDbEntity
  8
0
100
AcDbLine
 10
303.6047481141858
 20
71.95237984927687
 30
0.0
 11
305.1047481141859
 21
66.65237635903156
 31
0.0
  0
LINE
  5
11B85
330
18
100
AcDbEntity
  8
0
100
AcDbLine
 10
300.104701578288
 20
36.95238799322141
 30
0.0
 11
307.1047015782879
 21
36.95237170565707
 31
0.0
  0
LINE
  5
11B86
330
18
100
AcDbEntity
  8
0
100
AcDbLine
 10
305.1047481141859
 20
66.65237635903156
 30
0.0
 11
305.104748114186
 21
36.95237635913861
 31
0.0
  0
LINE
  5
11B87
330
18
100
AcDbEntity
  8
0
100
AcDbLine
 10
300.104701578288
 20
36.95238799322141
 30
0.0
 11
300.1047015782879
 21
35.85238450302609
 31
0.0
  0
ARC
  5
11B88
330
18
100
AcDbEntity
  8
0
100
AcDbCircle
 10
301.6047015782879
 20
35.85238450302609
 30
0.0
 40
1.5
100
AcDbArc
 50
180.0
 51
269.9998666844684
  0
LINE
  5
11B89
330
18
100
AcDbEntity
  8
0
100
AcDbLine
 10
307.1047015782879
 20
36.95237170565707
 30
0.0
 11
307.1047015782879
 21
35.85237519584649
 31
0.0
  0
LINE
  5
11B8A
330
18
100
AcDbEntity
  8
0
100
AcDbLine
 10
301.6046980880955
 20
34.35238450303015
 30
0.0
 11
305.6046980880955
 21
34.35237519585056
 31
0.0
  0
ARC
  5
11B8B
330
18
100
AcDbEntity
  8
0
100
AcDbCircle
 10
305.6047015782879
 20
35.85237519584649
 30
0.0
 40
1.5
100
AcDbArc
 50
269.9998666844684
 51
0.0
  0
LINE
  5
11B8C
330
18
100
AcDbEntity
  8
1CENTER
100
AcDbLine
 10
303.6047015782879
 20
73.38317476674231
 30
0.0
 11
303.6047015782879
 21
33.28210344013041
 31
0.0
  0
LINE
  5
11B8D
330
18
100
AcDbEntity
  8
0
100
AcDbLine
 10
302.5103777642928
 20
69.85238239559905
 30
0.0
 11
304.4727128531682
 21
70.65237782965002
 31
0.0
  0
LINE
  5
11B8E
330
18
100
AcDbEntity
  8
0
100
AcDbLine
 10
304.4727128531682
 20
70.65237782965002
 30
0.0
 11
303.8844362781258
 21
70.96414768590213
 31
0.0
  0
LINE
  5
11B8F
330
18
100
AcDbEntity
  8
0
100
AcDbLine
 10
301.6047481141858
 20
47.45238450280905
 30
0.0
 11
305.6047481141858
 21
48.25237519562731
 31
0.0
  0
LINE
  5
11B90
330
18
100
AcDbEntity
  8
0
100
AcDbLine
 10
301.6047481141858
 20
58.65238450281342
 30
0.0
 11
305.6047481141858
 21
59.45237519563599
 31
0.0
  0
LINE
  5
11B91
330
18
100
AcDbEntity
  8
0
100
AcDbLine
 10
301.6047481141858
 20
61.85238450281346
 30
0.0
 11
305.6047481141858
 21
62.65237519563604
 31
0.0
  0
LINE
  5
11B92
330
18
100
AcDbEntity
  8
0
100
AcDbLine
 10
305.6047481141858
 20
62.65237519563604
 30
0.0
 11
305.1047481141858
 21
62.75237635903326
 31
0.0
  0
LINE
  5
11B93
330
18
100
AcDbEntity
  8
0
100
AcDbLine
 10
302.1047481141858
 20
63.35238333941626
 30
0.0
 11
301.6047481141858
 21
63.45238450281349
 31
0.0
  0
LINE
  5
11B94
330
18
100
AcDbEntity
  8
0
100
AcDbLine
 10
305.6047481141858
 20
59.45237519563599
 30
0.0
 11
305.1047481141858
 21
59.55237635903322
 31
0.0
  0
LINE
  5
11B95
330
18
100
AcDbEntity
  8
0
100
AcDbLine
 10
305.6047481141858
 20
61.05237519563613
 30
0.0
 11
305.1047481141858
 21
61.15237635903324
 31
0.0
  0
LINE
  5
11B96
330
18
100
AcDbEntity
  8
0
100
AcDbLine
 10
302.1047481141858
 20
61.75238333941635
 30
0.0
 11
301.6047481141858
 21
61.85238450281346
 31
0.0
  0
LINE
  5
11B97
330
18
100
AcDbEntity
  8
0
100
AcDbLine
 10
302.1047481141858
 20
60.15238333941645
 30
0.0
 11
301.6047481141858
 21
60.25238450281356
 31
0.0
  0
LINE
  5
11B98
330
18
100
AcDbEntity
  8
0
100
AcDbLine
 10
301.6047481141858
 20
60.25238450281356
 30
0.0
 11
305.6047481141858
 21
61.05237519563613
 31
0.0
  0
LINE
  5
11B99
330
18
100
AcDbEntity
  8
0
100
AcDbLine
 10
304.925526957575
 20
69.05237677604438
 30
0.0
 11
304.3737774937717
 21
69.23514091867239
 31
0.0
  0
LINE
  5
11B9A
330
18
100
AcDbEntity
  8
0
100
AcDbLine
 10
305.6047481141858
 20
65.85237519563609
 30
0.0
 11
305.1047481141858
 21
65.9523763590332
 31
0.0
  0
LINE
  5
11B9B
330
18
100
AcDbEntity
  8
0
100
AcDbLine
 10
305.6047481141858
 20
64.25237519563606
 30
0.0
 11
305.1047481141858
 21
64.35237635903306
 31
0.0
  0
LINE
  5
11B9C
330
18
100
AcDbEntity
  8
0
100
AcDbLine
 10
305.3783410619818
 20
67.45237572243875
 30
0.0
 11
304.8417473267107
 21
67.58164642006861
 31
0.0
  0
LINE
  5
11B9D
330
18
100
AcDbEntity
  8
0
100
AcDbLine
 10
302.5256627113945
 20
68.13961393685324
 30
0.0
 11
302.0575642562445
 21
68.25238344920328
 31
0.0
  0
LINE
  5
11B9E
330
18
100
AcDbEntity
  8
0
100
AcDbLine
 10
302.1047481141858
 20
64.9523833394164
 30
0.0
 11
301.6047481141858
 21
65.05238450281351
 31
0.0
  0
LINE
  5
11B9F
330
18
100
AcDbEntity
  8
0
100
AcDbLine
 10
302.1047481141858
 20
66.55238333941631
 30
0.0
 11
301.6047481141858
 21
66.65238450281342
 31
0.0
  0
LINE
  5
11BA0
330
18
100
AcDbEntity
  8
0
100
AcDbLine
 10
302.9675496049239
 20
69.70094659915864
 30
0.0
 11
302.5103777642928
 21
69.85238239559905
 31
0.0
  0
LINE
  5
11BA1
330
18
100
AcDbEntity
  8
0
100
AcDbLine
 10
302.0575642562445
 20
68.25238344920328
 30
0.0
 11
304.925526957575
 21
69.05237677604438
 31
0.0
  0
LINE
  5
11BA2
330
18
100
AcDbEntity
  8
0
100
AcDbLine
 10
301.6047481141858
 20
65.05238450281351
 30
0.0
 11
305.6047481141858
 21
65.85237519563609
 31
0.0
  0
LINE
  5
11BA3
330
18
100
AcDbEntity
  8
0
100
AcDbLine
 10
301.6047481141858
 20
66.65238450281342
 30
0.0
 11
305.3783410619818
 21
67.45237572243875
 31
0.0
  0
LINE
  5
11BA4
330
18
100
AcDbEntity
  8
0
100
AcDbLine
 10
301.6047481141858
 20
63.45238450281349
 30
0.0
 11
305.6047481141858
 21
64.25237519563606
 31
0.0
  0
LINE
  5
11BA5
330
18
100
AcDbEntity
  8
0
100
AcDbLine
 10
301.6047481141858
 20
50.6523845028091
 30
0.0
 11
305.6047481141858
 21
51.45237519562735
 31
0.0
  0
LINE
  5
11BA6
330
18
100
AcDbEntity
  8
0
100
AcDbLine
 10
305.6047481141858
 20
51.45237519562735
 30
0.0
 11
305.1047481141858
 21
51.55237635902503
 31
0.0
  0
LINE
  5
11BA7
330
18
100
AcDbEntity
  8
0
100
AcDbLine
 10
302.1047481141858
 20
52.15238333941576
 30
0.0
 11
301.6047481141858
 21
52.25238450281344
 31
0.0
  0
LINE
  5
11BA8
330
18
100
AcDbEntity
  8
0
100
AcDbLine
 10
305.6047481141858
 20
49.85237519562722
 30
0.0
 11
305.1047481141858
 21
49.9523763590249
 31
0.0
  0
LINE
  5
11BA9
330
18
100
AcDbEntity
  8
0
100
AcDbLine
 10
305.6047481141858
 20
48.25237519562731
 30
0.0
 11
305.1047481141858
 21
48.35237635902499
 31
0.0
  0
LINE
  5
11BAA
330
18
100
AcDbEntity
  8
0
100
AcDbLine
 10
302.1047481141858
 20
50.55238333941142
 30
0.0
 11
301.6047481141858
 21
50.6523845028091
 31
0.0
  0
LINE
  5
11BAB
330
18
100
AcDbEntity
  8
0
100
AcDbLine
 10
302.1047481141858
 20
48.95238333941128
 30
0.0
 11
301.6047481141858
 21
49.05238450280896
 31
0.0
  0
LINE
  5
11BAC
330
18
100
AcDbEntity
  8
0
100
AcDbLine
 10
301.6047481141858
 20
49.05238450280896
 30
0.0
 11
305.6047481141858
 21
49.85237519562722
 31
0.0
  0
LINE
  5
11BAD
330
18
100
AcDbEntity
  8
0
100
AcDbLine
 10
305.6047481141858
 20
56.25237519563174
 30
0.0
 11
305.1047481141858
 21
56.35237635902942
 31
0.0
  0
LINE
  5
11BAE
330
18
100
AcDbEntity
  8
0
100
AcDbLine
 10
305.6047481141858
 20
57.85237519563609
 30
0.0
 11
305.1047481141858
 21
57.9523763590332
 31
0.0
  0
LINE
  5
11BAF
330
18
100
AcDbEntity
  8
0
100
AcDbLine
 10
305.6047481141858
 20
53.0523751956317
 30
0.0
 11
305.1047481141858
 21
53.15237635902938
 31
0.0
  0
LINE
  5
11BB0
330
18
100
AcDbEntity
  8
0
100
AcDbLine
 10
305.6047481141858
 20
54.65237519563161
 30
0.0
 11
305.1047481141858
 21
54.75237635902928
 31
0.0
  0
LINE
  5
11BB1
330
18
100
AcDbEntity
  8
0
100
AcDbLine
 10
302.1047481141858
 20
58.55238333941631
 30
0.0
 11
301.6047481141858
 21
58.65238450281342
 31
0.0
  0
LINE
  5
11BB2
330
18
100
AcDbEntity
  8
0
100
AcDbLine
 10
302.1047481141858
 20
56.95238333941572
 30
0.0
 11
301.6047481141858
 21
57.05238450281351
 31
0.0
  0
LINE
  5
11BB3
330
18
100
AcDbEntity
  8
0
100
AcDbLine
 10
302.1047481141858
 20
53.75238333941567
 30
0.0
 11
301.6047481141858
 21
53.85238450281335
 31
0.0
  0
LINE
  5
11BB4
330
18
100
AcDbEntity
  8
0
100
AcDbLine
 10
302.1047481141858
 20
55.35238333941581
 30
0.0
 11
301.6047481141858
 21
55.45238450281349
 31
0.0
  0
LINE
  5
11BB5
330
18
100
AcDbEntity
  8
0
100
AcDbLine
 10
301.6047481141858
 20
55.45238450281349
 30
0.0
 11
305.6047481141858
 21
56.25237519563174
 31
0.0
  0
LINE
  5
11BB6
330
18
100
AcDbEntity
  8
0
100
AcDbLine
 10
301.6047481141858
 20
57.05238450281351
 30
0.0
 11
305.6047481141858
 21
57.85237519563609
 31
0.0
  0
LINE
  5
11BB7
330
18
100
AcDbEntity
  8
0
100
AcDbLine
 10
301.6047481141858
 20
53.85238450281335
 30
0.0
 11
305.6047481141858
 21
54.65237519563161
 31
0.0
  0
LINE
  5
11BB8
330
18
100
AcDbEntity
  8
0
100
AcDbLine
 10
301.6047481141858
 20
52.25238450281344
 30
0.0
 11
305.6047481141858
 21
53.0523751956317
 31
0.0
  0
LINE
  5
11BB9
330
18
100
AcDbEntity
  8
0
100
AcDbLine
 10
302.1047481141858
 20
42.55238333940721
 30
0.0
 11
301.6047481141858
 21
42.65238450280489
 31
0.0
  0
LINE
  5
11BBA
330
18
100
AcDbEntity
  8
0
100
AcDbLine
 10
301.6047481141858
 20
42.65238450280489
 30
0.0
 11
305.6047481141858
 21
43.45237519562315
 31
0.0
  0
LINE
  5
11BBB
330
18
100
AcDbEntity
  8
0
100
AcDbLine
 10
305.6047481141858
 20
43.45237519562315
 30
0.0
 11
305.1047481141858
 21
43.55237635902083
 31
0.0
  0
LINE
  5
11BBC
330
18
100
AcDbEntity
  8
0
100
AcDbLine
 10
302.1047481141858
 20
44.15238333940712
 30
0.0
 11
301.6047481141858
 21
44.2523845028048
 31
0.0
  0
LINE
  5
11BBD
330
18
100
AcDbEntity
  8
0
100
AcDbLine
 10
302.1047481141858
 20
45.75238333940703
 30
0.0
 11
301.6047481141858
 21
45.85238450280471
 31
0.0
  0
LINE
  5
11BBE
330
18
100
AcDbEntity
  8
0
100
AcDbLine
 10
301.6047481141858
 20
45.85238450280471
 30
0.0
 11
305.6047481141858
 21
46.65237519562297
 31
0.0
  0
LINE
  5
11BBF
330
18
100
AcDbEntity
  8
0
100
AcDbLine
 10
305.6047481141858
 20
45.05237519562306
 30
0.0
 11
305.1047481141858
 21
45.15237635902074
 31
0.0
  0
LINE
  5
11BC0
330
18
100
AcDbEntity
  8
0
100
AcDbLine
 10
305.6047481141858
 20
46.65237519562297
 30
0.0
 11
305.1047481141858
 21
46.75237635902064
 31
0.0
  0
LINE
  5
11BC1
330
18
100
AcDbEntity
  8
0
100
AcDbLine
 10
301.6047481141858
 20
44.2523845028048
 30
0.0
 11
305.6047481141858
 21
45.05237519562306
 31
0.0
  0
LINE
  5
11BC2
330
18
100
AcDbEntity
  8
0
100
AcDbLine
 10
302.1047481141858
 20
47.35238333941138
 30
0.0
 11
301.6047481141858
 21
47.45238450280905
 31
0.0
  0
LINE
  5
11BC3
330
18
100
AcDbEntity
  8
0
100
AcDbLine
 10
302.1047481141858
 20
40.95238333940731
 30
0.0
 11
301.6047481141858
 21
41.05238450280498
 31
0.0
  0
LINE
  5
11BC4
330
18
100
AcDbEntity
  8
0
100
AcDbLine
 10
301.6047481141858
 20
41.05238450280498
 30
0.0
 11
305.6047481141858
 21
41.85237519562324
 31
0.0
  0
LINE
  5
11BC5
330
18
100
AcDbEntity
  8
0
100
AcDbLine
 10
305.6047481141858
 20
41.85237519562324
 30
0.0
 11
305.1047481141858
 21
41.95237635902092
 31
0.0
  0
LINE
  5
11BC6
330
18
100
AcDbEntity
  8
0
100
AcDbLine
 10
302.1047481141858
 20
39.3523833394074
 30
0.0
 11
301.6047481141858
 21
39.45238450280507
 31
0.0
  0
LINE
  5
11BC7
330
18
100
AcDbEntity
  8
0
100
AcDbLine
 10
301.6047481141858
 20
39.45238450280507
 30
0.0
 11
305.6047481141858
 21
40.25237519562333
 31
0.0
  0
LINE
  5
11BC8
330
18
100
AcDbEntity
  8
0
100
AcDbLine
 10
305.6047481141858
 20
40.25237519562333
 30
0.0
 11
305.1047481141858
 21
40.35237635902101
 31
0.0
  0
LINE
  5
11BC9
330
18
100
AcDbEntity
  8
0
100
AcDbLine
 10
302.1047481141858
 20
37.75238333940749
 30
0.0
 11
301.6047481141858
 21
37.85238450280517
 31
0.0
  0
LINE
  5
11BCA
330
18
100
AcDbEntity
  8
0
100
AcDbLine
 10
301.6047481141858
 20
37.85238450280517
 30
0.0
 11
305.6047481141858
 21
38.65237519562342
 31
0.0
  0
LINE
  5
11BCB
330
18
100
AcDbEntity
  8
0
100
AcDbLine
 10
305.6047481141858
 20
38.65237519562342
 30
0.0
 11
305.1047481141858
 21
38.7523763590211
 31
0.0
  0
LINE
  5
11BCC
330
18
100
AcDbEntity
  8
1DIM
100
AcDbLine
 10
457.3626171668801
 20
-122.4810470877228
 30
0.0
 11
457.3626171668801
 21
-54.48064706839978
 31
0.0
1001
ACAD
1000
DSTYLE
1002
{
1070
    45
1040
0.5
1070
   271
1070
     0
1002
}
  0
LINE
  5
11BCD
330
18
100
AcDbEntity
  8
1DIM
100
AcDbLine
 10
564.6047015782887
 20
-96.10948804373947
 30
0.0
 11
564.6047015782887
 21
-54.48064706839978
 31
0.0
1001
ACAD
1000
DSTYLE
1002
{
1070
    45
1040
0.5
1070
   271
1070
     0
1002
}
  0
LINE
  5
11BCE
330
18
100
AcDbEntity
  8
1DIM
100
AcDbLine
 10
459.3626171668801
 20
-55.48064706839978
 30
0.0
 11
562.6047015782887
 21
-55.48064706839978
 31
0.0
1001
ACAD
1000
DSTYLE
1002
{
1070
    45
1040
0.5
1070
   271
1070
     0
1002
}
  0
SPLINE
  5
11BD2
330
18
100
AcDbEntity
  8
1DIM
100
AcDbSpline
210
0.0
220
0.0
230
1.0
 70
     8
 71
     3
 72
     9
 73
     5
 74
     0
 42
0.000000001
 43
0.0000000001
 40
-0.0001397132740144
 40
-0.0001397132740144
 40
-0.0001397132740144
 40
-0.0001397132740144
 40
1.738182590520965
 40
3.692946700163685
 40
3.692946700163685
 40
3.692946700163685
 40
3.692946700163685
 10
249.1047015782887
 20
-159.6674286189427
 30
0.0
 10
249.1046605748123
 20
-159.9685035295051
 30
0.0
 10
249.2235997206379
 20
-160.6085606965744
 30
0.0
 10
249.590804418984
 20
-161.2295904786174
 30
0.0
 10
249.8508601021691
 20
-161.5451366037332
 30
0.0
  0
SPLINE
  5
11BD3
330
18
100
AcDbEntity
  8
1DIM
100
AcDbSpline
210
0.0
220
0.0
230
1.0
 70
     8
 71
     3
 72
     8
 73
     4
 74
     0
 42
0.000000001
 43
0.0000000001
 40
3.692946700163685
 40
3.692946700163685
 40
3.692946700163685
 40
3.692946700163685
 40
7.461010304604141
 40
7.461010304604141
 40
7.461010304604141
 40
7.461010304604141
 10
249.8508601021691
 20
-161.5451366037332
 30
0.0
 10
250.3513729238072
 20
-162.1530308251522
 30
0.0
 10
251.0981095670148
 20
-162.7126202959698
 30
0.0
 10
252.0336216795807
 20
-163.1803620958231
 30
0.0
  0
SPLINE
  5
11BD4
330
18
100
AcDbEntity
  8
1DIM
100
AcDbSpline
210
0.0
220
0.0
230
1.0
 70
     8
 71
     3
 72
     9
 73
     5
 74
     0
 42
0.000000001
 43
0.0000000001
 40
7.461010304604141
 40
7.461010304604141
 40
7.461010304604141
 40
7.461010304604141
 40
9.421511664238714
 40
11.22911951150409
 40
11.22911951150409
 40
11.22911951150409
 40
11.22911951150409
 10
252.0336216795807
 20
-163.1803620958231
 30
0.0
 10
252.51999361847
 20
-163.4235686252132
 30
0.0
 10
253.5518011813396
 20
-163.8426662357479
 30
0.0
 10
254.7274590644755
 20
-164.155096120131
 30
0.0
 10
255.3144085889093
 20
-164.2770334916072
 30
0.0
  0
SPLINE
  5
11BD5
330
18
100
AcDbEntity
  8
1DIM
100
AcDbSpline
210
0.0
220
0.0
230
1.0
 70
     8
 71
     3
 72
     8
 73
     4
 74
     0
 42
0.000000001
 43
0.0000000001
 40
11.22911951150409
 40
11.22911951150409
 40
11.22911951150409
 40
11.22911951150409
 40
14.92208616447052
 40
14.92208616447052
 40
14.92208616447052
 40
14.92208616447052
 10
255.3144085889093
 20
-164.2770334916072
 30
0.0
 10
256.5134272209185
 20
-164.526008837991
 30
0.0
 10
257.8085965566319
 20
-164.6592484943958
 30
0.0
 10
259.1047015782887
 20
-164.6676635617555
 30
0.0
  0
SPLINE
  5
11BD6
330
18
100
AcDbEntity
  8
1DIM
100
AcDbSpline
210
0.0
220
0.0
230
1.0
 70
     8
 71
     3
 72
     9
 73
     5
 74
     0
 42
0.000000001
 43
0.0000000001
 40
-0.000139713273988
 40
-0.000139713273988
 40
-0.000139713273988
 40
-0.000139713273988
 40
1.738182590521118
 40
3.692946700163718
 40
3.692946700163718
 40
3.692946700163718
 40
3.692946700163718
 10
400.1047015782887
 20
-159.6676635617555
 30
0.0
 10
400.104742581765
 20
-159.9687241256979
 30
0.0
 10
399.9858034359394
 20
-160.608748013341
 30
0.0
 10
399.6185987375933
 20
-161.2297397560551
 30
0.0
 10
399.3585430544084
 20
-161.5452648338901
 30
0.0
  0
SPLINE
  5
11BD7
330
18
100
AcDbEntity
  8
1DIM
100
AcDbSpline
210
0.0
220
0.0
230
1.0
 70
     8
 71
     3
 72
     8
 73
     4
 74
     0
 42
0.000000001
 43
0.0000000001
 40
3.692946700163718
 40
3.692946700163718
 40
3.692946700163718
 40
3.692946700163718
 40
7.4610103046042
 40
7.4610103046042
 40
7.4610103046042
 40
7.4610103046042
 10
399.3585430544084
 20
-161.5452648338901
 30
0.0
 10
398.8580302327701
 20
-162.1531184919213
 30
0.0
 10
398.1112935895625
 20
-162.7126639947278
 30
0.0
 10
397.1757814769966
 20
-163.1803618061049
 30
0.0
  0
SPLINE
  5
11BD8
330
18
100
AcDbEntity
  8
1DIM
100
AcDbSpline
210
0.0
220
0.0
230
1.0
 70
     8
 71
     3
 72
     9
 73
     5
 74
     0
 42
0.000000001
 43
0.0000000001
 40
7.4610103046042
 40
7.4610103046042
 40
7.4610103046042
 40
7.4610103046042
 40
9.4215116642389
 40
11.22911951150414
 40
11.22911951150414
 40
11.22911951150414
 40
11.22911951150414
 10
397.1757814769966
 20
-163.1803618061049
 30
0.0
 10
396.6894095381073
 20
-163.4235454504833
 30
0.0
 10
395.6576019752378
 20
-163.8425990774358
 30
0.0
 10
394.4819440921018
 20
-164.1549867698818
 30
0.0
 10
393.894994567668
 20
-164.2769046804533
 30
0.0
  0
SPLINE
  5
11BD9
330
18
100
AcDbEntity
  8
1DIM
100
AcDbSpline
210
0.0
220
0.0
230
1.0
 70
     8
 71
     3
 72
     8
 73
     4
 74
     0
 42
0.000000001
 43
0.0000000001
 40
11.22911951150414
 40
11.22911951150414
 40
11.22911951150414
 40
11.22911951150414
 40
14.92208616447057
 40
14.92208616447057
 40
14.92208616447057
 40
14.92208616447057
 10
393.894994567668
 20
-164.2769046804533
 30
0.0
 10
392.695975935659
 20
-164.525840253923
 30
0.0
 10
391.4008065999454
 20
-164.6590434428699
 30
0.0
 10
390.1047015782887
 20
-164.6674280383695
 30
0.0
  0
SPLINE
  5
11BDA
330
18
100
AcDbEntity
  8
1DIM
100
AcDbSpline
210
0.0
220
0.0
230
1.0
 70
     8
 71
     3
 72
     9
 73
     5
 74
     0
 42
0.000000001
 43
0.0000000001
 40
0.0084035216256292
 40
0.0084035216256292
 40
0.0084035216256292
 40
0.0084035216256292
 40
1.738182590521113
 40
3.692946700163734
 40
3.692946700163734
 40
3.692946700163734
 40
3.692946700163734
 10
400.1046981233086
 20
30.95673191192463
 30
0.0
 10
400.1041909681836
 20
31.48011504284659
 30
0.0
 10
399.9849539795108
 20
32.59510779075299
 30
0.0
 10
399.6185987375931
 20
33.67277735860807
 30
0.0
 10
399.3585430544082
 20
34.22139097238551
 30
0.0
  0
SPLINE
  5
11BDB
330
18
100
AcDbEntity
  8
1DIM
100
AcDbSpline
210
0.0
220
0.0
230
1.0
 70
     8
 71
     3
 72
     8
 73
     4
 74
     0
 42
0.000000001
 43
0.0000000001
 40
3.692946700163734
 40
3.692946700163734
 40
3.692946700163734
 40
3.692946700163734
 40
7.4610103046042
 40
7.4610103046042
 40
7.4610103046042
 40
7.4610103046042
 10
399.3585430544082
 20
34.22139097238551
 30
0.0
 10
398.8580302327699
 20
35.27895951097207
 30
0.0
 10
398.1112935895623
 20
36.25004363972494
 30
0.0
 10
397.1757814769963
 20
37.05961218476205
 30
0.0
  0
SPLINE
  5
11BDC
330
18
100
AcDbEntity
  8
1DIM
100
AcDbSpline
210
0.0
220
0.0
230
1.0
 70
     8
 71
     3
 72
     9
 73
     5
 74
     0
 42
0.000000001
 43
0.0000000001
 40
7.4610103046042
 40
7.4610103046042
 40
7.4610103046042
 40
7.4610103046042
 40
9.421511664238885
 40
11.22911951150415
 40
11.22911951150415
 40
11.22911951150415
 40
11.22911951150415
 10
397.1757814769963
 20
37.05961218476205
 30
0.0
 10
396.689409538107
 20
37.48090131356321
 30
0.0
 10
395.6576019752375
 20
38.20666882715568
 30
0.0
 10
394.4819440921016
 20
38.74382622792382
 30
0.0
 10
393.8949945676678
 20
38.95299214934403
 30
0.0
  0
SPLINE
  5
11BDD
330
18
100
AcDbEntity
  8
1DIM
100
AcDbSpline
210
0.0
220
0.0
230
1.0
 70
     8
 71
     3
 72
     8
 73
     4
 74
     0
 42
0.000000001
 43
0.0000000001
 40
11.22911951150415
 40
11.22911951150415
 40
11.22911951150415
 40
11.22911951150415
 40
14.92208616447054
 40
14.92208616447054
 40
14.92208616447054
 40
14.92208616447054
 10
393.8949945676678
 20
38.95299214934403
 30
0.0
 10
392.6959759356586
 20
39.38065517244058
 30
0.0
 10
391.4008065999452
 20
39.60485772222637
 30
0.0
 10
390.1047015782884
 20
39.60929894093715
 30
0.0
  0
SPLINE
  5
11BDE
330
18
100
AcDbEntity
  8
1DIM
100
AcDbSpline
210
0.0
220
0.0
230
1.0
 70
     8
 71
     3
 72
     9
 73
     5
 74
     0
 42
0.000000001
 43
0.0000000001
 40
0.008548347779082
 40
0.008548347779082
 40
0.008548347779082
 40
0.008548347779082
 40
1.738182590521124
 40
3.692946700163701
 40
3.692946700163701
 40
3.692946700163701
 40
3.692946700163701
 10
249.1047051618198
 20
30.95693110196908
 30
0.0
 10
249.1052215623301
 20
31.48026423498914
 30
0.0
 10
249.2244635771741
 20
32.59519730228749
 30
0.0
 10
249.5908044189839
 20
33.67280807130055
 30
0.0
 10
249.8508601021688
 20
34.22141256758869
 30
0.0
  0
SPLINE
  5
11BDF
330
18
100
AcDbEntity
  8
1DIM
100
AcDbSpline
210
0.0
220
0.0
230
1.0
 70
     8
 71
     3
 72
     8
 73
     4
 74
     0
 42
0.000000001
 43
0.0000000001
 40
3.692946700163701
 40
3.692946700163701
 40
3.692946700163701
 40
3.692946700163701
 40
7.461010304604132
 40
7.461010304604132
 40
7.461010304604132
 40
7.461010304604132
 10
249.8508601021688
 20
34.22141256758869
 30
0.0
 10
250.3513729238068
 20
35.2789635344875
 30
0.0
 10
251.0981095670145
 20
36.25002861670146
 30
0.0
 10
252.0336216795804
 20
37.05957810633481
 30
0.0
  0
SPLINE
  5
11BE0
330
18
100
AcDbEntity
  8
1DIM
100
AcDbSpline
210
0.0
220
0.0
230
1.0
 70
     8
 71
     3
 72
     9
 73
     5
 74
     0
 42
0.000000001
 43
0.0000000001
 40
7.461010304604132
 40
7.461010304604132
 40
7.461010304604132
 40
7.461010304604132
 40
9.421511664238881
 40
11.22911951150411
 40
11.22911951150411
 40
11.22911951150411
 40
11.22911951150411
 10
252.0336216795804
 20
37.05957810633481
 30
0.0
 10
252.5199936184699
 20
37.48085732155869
 30
0.0
 10
253.5518011813392
 20
38.20660578186744
 30
0.0
 10
254.7274590644752
 20
38.74374490547598
 30
0.0
 10
255.3144085889089
 20
38.95290239661153
 30
0.0
  0
SPLINE
  5
11BE1
330
18
100
AcDbEntity
  8
1DIM
100
AcDbSpline
210
0.0
220
0.0
230
1.0
 70
     8
 71
     3
 72
     8
 73
     4
 74
     0
 42
0.000000001
 43
0.0000000001
 40
11.22911951150411
 40
11.22911951150411
 40
11.22911951150411
 40
11.22911951150411
 40
14.9220861644705
 40
14.9220861644705
 40
14.9220861644705
 40
14.9220861644705
 10
255.3144085889089
 20
38.95290239661153
 30
0.0
 10
256.5134272209179
 20
39.38054819044692
 30
0.0
 10
257.8085965566315
 20
39.60473494286543
 30
0.0
 10
259.1047015782883
 20
39.6091629614466
 30
0.0
  0
LINE
  5
11BE2
330
18
100
AcDbEntity
  8
1DIM
100
AcDbLine
 10
479.0774615684971
 20
-113.1388097252287
 30
0.0
 11
466.8080478023141
 21
-73.7512894071519
 31
0.0
1001
ACAD_DSTYLE_DIMRADIAL_EXTE
1070
   387
1070
     1
1070
   388
1040
1.842955720062392
1070
   390
1040
1.881493750319459
1001
ACAD
1000
DSTYLE
1002
{
1070
     3
1000
(R<>)
1070
   172
1070
     0
1070
   271
1070
     0
1070
   289
1070
     3
1002
}
  0
LINE
  5
11BE5
330
18
100
AcDbEntity
  8
1DIM
100
AcDbLine
 10
564.6047015754356
 20
-110.9715160638484
 30
0.0
 11
601.5923415182916
 21
-110.9715160638484
 31
0.0
  0
LINE
  5
11BE6
330
18
100
AcDbEntity
  8
1DIM
100
AcDbLine
 10
598.0354964955917
 20
-133.971516063848
 30
0.0
 11
601.5923415182916
 21
-133.971516063848
 31
0.0
  0
LINE
  5
11BE7
330
18
100
AcDbEntity
  8
1DIM
100
AcDbLine
 10
600.5923415182916
 20
-112.9715160638484
 30
0.0
 11
600.5923415182916
 21
-131.971516063848
 31
0.0
  0
LINE
  5
11BEB
330
18
100
AcDbEntity
  8
1DIM
100
AcDbLine
 10
564.6047015754356
 20
-110.9715160638484
 30
0.0
 11
609.2528602498356
 21
-110.9715160638484
 31
0.0
  0
LINE
  5
11BEC
330
18
100
AcDbEntity
  8
1DIM
100
AcDbLine
 10
564.6047015754356
 20
-143.9715160638484
 30
0.0
 11
609.2528602498356
 21
-143.9715160638484
 31
0.0
  0
LINE
  5
11BED
330
18
100
AcDbEntity
  8
1DIM
100
AcDbLine
 10
608.2528602498356
 20
-112.9715160638484
 30
0.0
 11
608.2528602498356
 21
-141.9715160638484
 31
0.0
  0
LINE
  5
11BF1
330
18
100
AcDbEntity
  8
1DIM
100
AcDbLine
 10
483.3450611802552
 20
-165.6281344284162
 30
0.0
 11
618.0210800679783
 21
-165.6281344284162
 31
0.0
1001
ACAD
1000
DSTYLE
1002
{
1070
    45
1040
0.5
1002
}
  0
LINE
  5
11BF2
330
18
100
AcDbEntity
  8
1DIM
100
AcDbLine
 10
555.3673716283464
 20
-92.7226269272578
 30
0.0
 11
618.0210800679783
 21
-92.7226269272578
 31
0.0
1001
ACAD
1000
DSTYLE
1002
{
1070
    45
1040
0.5
1002
}
  0
LINE
  5
11BF3
330
18
100
AcDbEntity
  8
1DIM
100
AcDbLine
 10
617.0210800679783
 20
-163.6281344284162
 30
0.0
 11
617.0210800679783
 21
-94.7226269272578
 31
0.0
1001
ACAD
1000
DSTYLE
1002
{
1070
    45
1040
0.5
1002
}
  0
SOLID
  5
11BF7
330
18
100
AcDbEntity
  8
1DIM
100
AcDbTrace
 10
568.259307882689
 20
-102.4517604915864
 30
0.0
 11
567.5183731559961
 21
-104.3391202458176
 31
0.0
 12
567.6071406798739
 22
-102.313476783158
 32
0.0
 13
567.6071406798739
 23
-102.313476783158
 33
0.0
1001
ACAD
1000
DSTYLE
1002
{
1070
    45
1040
0.5
1002
}
  0
LINE
  5
11BF8
330
18
100
AcDbEntity
  8
1DIM
100
AcDbLine
 10
567.9332242812814
 20
-102.3826186373722
 30
0.0
 11
570.6422170891111
 21
-89.60659258190215
 31
0.0
1001
ACAD
1000
DSTYLE
1002
{
1070
    45
1040
0.5
1002
}
  0
SOLID
  5
11BF9
330
18
100
AcDbEntity
  8
1DIM
100
AcDbTrace
 10
581.3947260278542
 20
-102.4517604915864
 30
0.0
 11
580.6537913011613
 21
-104.3391202458176
 31
0.0
 12
580.742558825039
 22
-102.313476783158
 32
0.0
 13
580.742558825039
 23
-102.313476783158
 33
0.0
1001
ACAD
1000
DSTYLE
1002
{
1070
    45
1040
0.5
1002
}
  0
LINE
  5
11BFA
330
18
100
AcDbEntity
  8
1DIM
100
AcDbLine
 10
581.0686424264466
 20
-102.3826186373722
 30
0.0
 11
583.7776352342763
 21
-89.60659258190215
 31
0.0
1001
ACAD
1000
DSTYLE
1002
{
1070
    45
1040
0.5
1002
}
  0
LINE
  5
11BFB
330
18
100
AcDbEntity
  8
1DIM
100
AcDbLine
 10
293.6047015782887
 20
39.95237984610594
 30
0.0
 11
293.6047015782887
 21
52.00768701833679
 31
0.0
  0
LINE
  5
11BFC
330
18
100
AcDbEntity
  8
1DIM
100
AcDbLine
 10
355.6047015782889
 20
39.95237984610594
 30
0.0
 11
355.6047015782889
 21
52.00768701833679
 31
0.0
  0
LINE
  5
11BFD
330
18
100
AcDbEntity
  8
1DIM
100
AcDbLine
 10
295.6047015782887
 20
51.00768701833679
 30
0.0
 11
353.6047015782889
 21
51.00768701833679
 31
0.0
  0
LINE
  5
11C01
330
18
100
AcDbEntity
  8
1DIM
100
AcDbLine
 10
249.1047015782895
 20
-95.4824294223381
 30
0.0
 11
249.1047015782895
 21
-84.85183805941989
 31
0.0
  0
LINE
  5
11C02
330
18
100
AcDbEntity
  8
1DIM
100
AcDbLine
 10
400.1047015782887
 20
-95.4824294223381
 30
0.0
 11
400.1047015782887
 21
-84.85183805941989
 31
0.0
  0
LINE
  5
11C03
330
18
100
AcDbEntity
  8
1DIM
100
AcDbLine
 10
251.1047015782895
 20
-85.85183805941989
 30
0.0
 11
398.1047015782887
 21
-85.85183805941989
 31
0.0
  0
LINE
  5
11C07
330
18
100
AcDbEntity
  8
1DIM
100
AcDbLine
 10
293.6047015782893
 20
-142.9715160615978
 30
0.0
 11
293.6047015782893
 21
-151.5328072442659
 31
0.0
  0
LINE
  5
11C08
330
18
100
AcDbEntity
  8
1DIM
100
AcDbLine
 10
355.6044527518786
 20
-142.9938228075089
 30
0.0
 11
355.6044527518786
 21
-151.5328072442659
 31
0.0
  0
LINE
  5
11C09
330
18
100
AcDbEntity
  8
1DIM
100
AcDbLine
 10
295.6047015782893
 20
-150.5328072442659
 30
0.0
 11
353.6044527518786
 21
-150.5328072442659
 31
0.0
  0
SOLID
  5
11C0D
330
18
100
AcDbEntity
  8
1DIM
100
AcDbTrace
 10
551.5147561723128
 20
-111.9727387719169
 30
0.0
 11
552.3359982627313
 21
-113.8265652309028
 31
0.0
 12
550.9579066229346
 22
-112.3392943936194
 32
0.0
 13
550.9579066229346
 23
-112.3392943936194
 33
0.0
1001
ACAD
1000
DSTYLE
1002
{
1070
    45
1040
0.5
1002
}
  0
LINE
  5
11C0E
330
18
100
AcDbEntity
  8
1DIM
100
AcDbLine
 10
551.2363313976236
 20
-112.1560165827681
 30
0.0
 11
528.9139972621433
 21
-78.24525115328858
 31
0.0
1001
ACAD
1000
DSTYLE
1002
{
1070
    45
1040
0.5
1002
}
  0
LINE
  5
11C0F
330
18
100
AcDbEntity
  8
1DIM
100
AcDbLine
 10
528.9139972621433
 20
-78.24525115328858
 30
0.0
 11
481.6473305954767
 21
-78.24525115328858
 31
0.0
1001
ACAD
1000
DSTYLE
1002
{
1070
    45
1040
0.5
1002
}
  0
TEXT
  5
11C10
330
18
100
AcDbEntity
  8
1DIM
  6
CONTINUOUS
100
AcDbText
 10
481.4139972621433
 20
-71.71191781995523
 30
0.0
 40
3.5
  1
材質：亜鉛ダイキャスト
100
AcDbText
  0
TEXT
  5
11C11
330
18
100
AcDbEntity
  8
1DIM
  6
CONTINUOUS
100
AcDbText
 10
493.3139972621433
 20
-77.54525115328856
 30
0.0
 40
3.5
  1
仕上げ：クローム
100
AcDbText
  0
SOLID
  5
11C12
330
18
100
AcDbEntity
  8
1DIM
100
AcDbTrace
 10
475.222786780656
 20
-116.2259496090824
 30
0.0
 11
476.0440288710745
 21
-118.0797760680683
 31
0.0
 12
474.6659372312778
 22
-116.592505230785
 32
0.0
 13
474.6659372312778
 23
-116.592505230785
 33
0.0
1001
ACAD
1000
DSTYLE
1002
{
1070
    45
1040
0.5
1002
}
  0
LINE
  5
11C13
330
18
100
AcDbEntity
  8
1DIM
100
AcDbLine
 10
474.9443620059669
 20
-116.4092274199337
 30
0.0
 11
452.6220278704864
 21
-82.49846199045412
 31
0.0
1001
ACAD
1000
DSTYLE
1002
{
1070
    45
1040
0.5
1002
}
  0
LINE
  5
11C14
330
18
100
AcDbEntity
  8
1DIM
100
AcDbLine
 10
452.6220278704864
 20
-82.49846199045412
 30
0.0
 11
405.3553612038197
 21
-82.49846199045412
 31
0.0
1001
ACAD
1000
DSTYLE
1002
{
1070
    45
1040
0.5
1002
}
  0
TEXT
  5
11C15
330
18
100
AcDbEntity
  8
1DIM
  6
CONTINUOUS
100
AcDbText
 10
405.1220278704864
 20
-75.96512865712077
 30
0.0
 40
3.5
  1
材質：亜鉛ダイキャスト
100
AcDbText
  0
TEXT
  5
11C16
330
18
100
AcDbEntity
  8
1DIM
  6
CONTINUOUS
100
AcDbText
 10
417.0220278704865
 20
-81.7984619904541
 30
0.0
 40
3.5
  1
仕上げ：クローム
100
AcDbText
  0
SOLID
  5
11C17
330
18
100
AcDbEntity
  8
1DIM
100
AcDbTrace
 10
478.5721903149238
 20
-160.9909936702497
 30
0.0
 11
479.3934324053424
 21
-162.8448201292356
 31
0.0
 12
478.0153407655457
 22
-161.3575492919522
 32
0.0
 13
478.0153407655457
 23
-161.3575492919522
 33
0.0
1001
ACAD
1000
DSTYLE
1002
{
1070
    45
1040
0.5
1002
}
  0
LINE
  5
11C18
330
18
100
AcDbEntity
  8
1DIM
100
AcDbLine
 10
478.2937655402347
 20
-161.174271481101
 30
0.0
 11
455.9714314047543
 21
-127.2635060516214
 31
0.0
1001
ACAD
1000
DSTYLE
1002
{
1070
    45
1040
0.5
1002
}
  0
LINE
  5
11C19
330
18
100
AcDbEntity
  8
1DIM
100
AcDbLine
 10
455.9714314047543
 20
-127.2635060516214
 30
0.0
 11
408.7047647380876
 21
-127.2635060516214
 31
0.0
1001
ACAD
1000
DSTYLE
1002
{
1070
    45
1040
0.5
1002
}
  0
TEXT
  5
11C1A
330
18
100
AcDbEntity
  8
1DIM
  6
CONTINUOUS
100
AcDbText
 10
408.4714314047543
 20
-120.7301727182881
 30
0.0
 40
3.5
  1
材質：亜鉛ダイキャスト
100
AcDbText
  0
TEXT
  5
11C1B
330
18
100
AcDbEntity
  8
1DIM
  6
CONTINUOUS
100
AcDbText
 10
420.3714314047543
 20
-126.5635060516214
 30
0.0
 40
3.5
  1
仕上げ：クローム
100
AcDbText
  0
LINE
  5
11C1C
330
18
100
AcDbEntity
  8
0
  6
BYBLOCK
100
AcDbLine
 10
414.0688031982888
 20
37.95237984610593
 30
0.0
 11
414.6047015782888
 21
39.95237984610593
 31
0.0
  0
LINE
  5
11C1D
330
18
100
AcDbEntity
  8
0
  6
BYBLOCK
100
AcDbLine
 10
414.6047015782888
 20
39.95237984610593
 30
0.0
 11
415.1405999582888
 21
37.95237984610593
 31
0.0
  0
LINE
  5
11C1E
330
18
100
AcDbEntity
  8
0
  6
BYBLOCK
100
AcDbLine
 10
414.6047015782888
 20
39.95237984610593
 30
0.0
 11
414.6047015782888
 21
37.95237984610593
 31
0.0
  0
LINE
  5
11C1F
330
18
100
AcDbEntity
  8
0
  6
BYBLOCK
100
AcDbLine
 10
415.1405999582888
 20
-47.81454564164324
 30
0.0
 11
414.6047015782888
 21
-49.81454564164324
 31
0.0
  0
LINE
  5
11C20
330
18
100
AcDbEntity
  8
0
  6
BYBLOCK
100
AcDbLine
 10
414.6047015782888
 20
-49.81454564164324
 30
0.0
 11
414.0688031982888
 21
-47.81454564164324
 31
0.0
  0
LINE
  5
11C21
330
18
100
AcDbEntity
  8
0
  6
BYBLOCK
100
AcDbLine
 10
414.6047015782888
 20
-49.81454564164324
 30
0.0
 11
414.6047015782888
 21
-47.81454564164324
 31
0.0
  0
TEXT
  5
11C22
330
18
100
AcDbEntity
  8
1DIM
  6
CONTINUOUS
100
AcDbText
 10
413.9047015782888
 20
-30.59936993480568
 30
0.0
 40
3.5
  1
90 （ペーパー無し最小値）
 50
90.0
100
AcDbText
1001
ACAD
1000
DSTYLE
1002
{
1070
    45
1040
0.5
1070
   271
1070
     0
1002
}
  0
LINE
  5
11C23
330
18
100
AcDbEntity
  8
0
  6
BYBLOCK
100
AcDbLine
 10
459.3626171668801
 20
-56.01654544839977
 30
0.0
 11
457.3626171668801
 21
-55.48064706839978
 31
0.0
  0
LINE
  5
11C24
330
18
100
AcDbEntity
  8
0
  6
BYBLOCK
100
AcDbLine
 10
457.3626171668801
 20
-55.48064706839978
 30
0.0
 11
459.3626171668801
 21
-54.94474868839978
 31
0.0
  0
LINE
  5
11C25
330
18
100
AcDbEntity
  8
0
  6
BYBLOCK
100
AcDbLine
 10
457.3626171668801
 20
-55.48064706839978
 30
0.0
 11
459.3626171668801
 21
-55.48064706839978
 31
0.0
  0
LINE
  5
11C26
330
18
100
AcDbEntity
  8
0
  6
BYBLOCK
100
AcDbLine
 10
562.6047015782887
 20
-54.94474868839978
 30
0.0
 11
564.6047015782887
 21
-55.48064706839978
 31
0.0
  0
LINE
  5
11C27
330
18
100
AcDbEntity
  8
0
  6
BYBLOCK
100
AcDbLine
 10
564.6047015782887
 20
-55.48064706839978
 30
0.0
 11
562.6047015782887
 21
-56.01654544839977
 31
0.0
  0
LINE
  5
11C28
330
18
100
AcDbEntity
  8
0
  6
BYBLOCK
100
AcDbLine
 10
564.6047015782887
 20
-55.48064706839978
 30
0.0
 11
562.6047015782887
 21
-55.48064706839978
 31
0.0
  0
TEXT
  5
11C29
330
18
100
AcDbEntity
  8
1DIM
  6
CONTINUOUS
100
AcDbText
 10
484.1503260392511
 20
-54.78064706839977
 30
0.0
 40
3.5
  1
107 （ペーパー付き最大値）
100
AcDbText
1001
ACAD
1000
DSTYLE
1002
{
1070
    45
1040
0.5
1070
   271
1070
     0
1002
}
  0
TEXT
  5
11C2A
330
18
100
AcDbEntity
  8
1DIM
  6
CONTINUOUS
100
AcDbText
 10
468.475584216716
 20
-73.66862138866219
 30
0.0
 40
3.5
  1
(R2642)
 50
287.3020782698968
100
AcDbText
1001
ACAD_DSTYLE_DIMRADIAL_EXTE
1070
   387
1070
     1
1070
   388
1040
1.842955720062392
1070
   390
1040
1.881493750319459
1001
ACAD
1000
DSTYLE
1002
{
1070
     3
1000
(R<>)
1070
   172
1070
     0
1070
   271
1070
     0
1070
   289
1070
     3
1002
}
  0
LINE
  5
11C2B
330
18
100
AcDbEntity
  8
0
  6
BYBLOCK
100
AcDbLine
 10
479.5891105533933
 20
-112.9794284529871
 30
0.0
 11
479.6722805796747
 21
-115.0483097498272
 31
0.0
  0
LINE
  5
11C2C
330
18
100
AcDbEntity
  8
0
  6
BYBLOCK
100
AcDbLine
 10
479.6722805796747
 20
-115.0483097498272
 30
0.0
 11
478.565812583601
 21
-113.2981909974704
 31
0.0
  0
LINE
  5
11C2D
330
18
100
AcDbEntity
  8
0
  6
BYBLOCK
100
AcDbLine
 10
479.6722805796747
 20
-115.0483097498272
 30
0.0
 11
479.0774615684971
 21
-113.1388097252287
 31
0.0
  0
LINE
  5
11C2E
330
18
100
AcDbEntity
  8
0
  6
BYBLOCK
100
AcDbLine
 10
600.0564431382916
 20
-112.9715160638484
 30
0.0
 11
600.5923415182916
 21
-110.9715160638484
 31
0.0
  0
LINE
  5
11C2F
330
18
100
AcDbEntity
  8
0
  6
BYBLOCK
100
AcDbLine
 10
600.5923415182916
 20
-110.9715160638484
 30
0.0
 11
601.1282398982917
 21
-112.9715160638484
 31
0.0
  0
LINE
  5
11C30
330
18
100
AcDbEntity
  8
0
  6
BYBLOCK
100
AcDbLine
 10
600.5923415182916
 20
-110.9715160638484
 30
0.0
 11
600.5923415182916
 21
-112.9715160638484
 31
0.0
  0
LINE
  5
11C31
330
18
100
AcDbEntity
  8
0
  6
BYBLOCK
100
AcDbLine
 10
601.1282398982917
 20
-131.971516063848
 30
0.0
 11
600.5923415182916
 21
-133.971516063848
 31
0.0
  0
LINE
  5
11C32
330
18
100
AcDbEntity
  8
0
  6
BYBLOCK
100
AcDbLine
 10
600.5923415182916
 20
-133.971516063848
 30
0.0
 11
600.0564431382916
 21
-131.971516063848
 31
0.0
  0
LINE
  5
11C33
330
18
100
AcDbEntity
  8
0
  6
BYBLOCK
100
AcDbLine
 10
600.5923415182916
 20
-133.971516063848
 30
0.0
 11
600.5923415182916
 21
-131.971516063848
 31
0.0
  0
TEXT
  5
11C34
330
18
100
AcDbEntity
  8
1DIM
  6
CONTINUOUS
100
AcDbText
 10
599.8923415182916
 20
-125.3881827305148
 30
0.0
 40
3.5
  1
23
 50
90.0
100
AcDbText
  0
LINE
  5
11C35
330
18
100
AcDbEntity
  8
0
  6
BYBLOCK
100
AcDbLine
 10
607.7169618698356
 20
-112.9715160638484
 30
0.0
 11
608.2528602498356
 21
-110.9715160638484
 31
0.0
  0
LINE
  5
11C36
330
18
100
AcDbEntity
  8
0
  6
BYBLOCK
100
AcDbLine
 10
608.2528602498356
 20
-110.9715160638484
 30
0.0
 11
608.7887586298357
 21
-112.9715160638484
 31
0.0
  0
LINE
  5
11C37
330
18
100
AcDbEntity
  8
0
  6
BYBLOCK
100
AcDbLine
 10
608.2528602498356
 20
-110.9715160638484
 30
0.0
 11
608.2528602498356
 21
-112.9715160638484
 31
0.0
  0
LINE
  5
11C38
330
18
100
AcDbEntity
  8
0
  6
BYBLOCK
100
AcDbLine
 10
608.7887586298357
 20
-141.9715160638484
 30
0.0
 11
608.2528602498356
 21
-143.9715160638484
 31
0.0
  0
LINE
  5
11C39
330
18
100
AcDbEntity
  8
0
  6
BYBLOCK
100
AcDbLine
 10
608.2528602498356
 20
-143.9715160638484
 30
0.0
 11
607.7169618698356
 21
-141.9715160638484
 31
0.0
  0
LINE
  5
11C3A
330
18
100
AcDbEntity
  8
0
  6
BYBLOCK
100
AcDbLine
 10
608.2528602498356
 20
-143.9715160638484
 30
0.0
 11
608.2528602498356
 21
-141.9715160638484
 31
0.0
  0
TEXT
  5
11C3B
330
18
100
AcDbEntity
  8
1DIM
  6
CONTINUOUS
100
AcDbText
 10
607.5528602498356
 20
-130.388182730515
 30
0.0
 40
3.5
  1
33
 50
90.0
100
AcDbText
  0
LINE
  5
11C3C
330
18
100
AcDbEntity
  8
0
  6
BYBLOCK
100
AcDbLine
 10
617.5569784479784
 20
-163.6281344284162
 30
0.0
 11
617.0210800679783
 21
-165.6281344284162
 31
0.0
  0
LINE
  5
11C3D
330
18
100
AcDbEntity
  8
0
  6
BYBLOCK
100
AcDbLine
 10
617.0210800679783
 20
-165.6281344284162
 30
0.0
 11
616.4851816879783
 21
-163.6281344284162
 31
0.0
  0
LINE
  5
11C3E
330
18
100
AcDbEntity
  8
0
  6
BYBLOCK
100
AcDbLine
 10
617.0210800679783
 20
-165.6281344284162
 30
0.0
 11
617.0210800679783
 21
-163.6281344284162
 31
0.0
  0
LINE
  5
11C3F
330
18
100
AcDbEntity
  8
0
  6
BYBLOCK
100
AcDbLine
 10
616.4851816879783
 20
-94.7226269272578
 30
0.0
 11
617.0210800679783
 21
-92.7226269272578
 31
0.0
  0
LINE
  5
11C40
330
18
100
AcDbEntity
  8
0
  6
BYBLOCK
100
AcDbLine
 10
617.0210800679783
 20
-92.7226269272578
 30
0.0
 11
617.5569784479784
 21
-94.7226269272578
 31
0.0
  0
LINE
  5
11C41
330
18
100
AcDbEntity
  8
0
  6
BYBLOCK
100
AcDbLine
 10
617.0210800679783
 20
-92.7226269272578
 30
0.0
 11
617.0210800679783
 21
-94.7226269272578
 31
0.0
  0
TEXT
  5
11C42
330
18
100
AcDbEntity
  8
1DIM
  6
CONTINUOUS
100
AcDbText
 10
616.3210800679783
 20
-132.0920473445036
 30
0.0
 40
3.5
  1
73
 50
90.0
100
AcDbText
1001
ACAD
1000
DSTYLE
1002
{
1070
    45
1040
0.5
1002
}
  0
LINE
  5
11C43
330
18
100
AcDbEntity
  8
0
  6
BYBLOCK
100
AcDbLine
 10
295.6047015782887
 20
50.47178863833679
 30
0.0
 11
293.6047015782887
 21
51.00768701833679
 31
0.0
  0
LINE
  5
11C44
330
18
100
AcDbEntity
  8
0
  6
BYBLOCK
100
AcDbLine
 10
293.6047015782887
 20
51.00768701833679
 30
0.0
 11
295.6047015782887
 21
51.54358539833679
 31
0.0
  0
LINE
  5
11C45
330
18
100
AcDbEntity
  8
0
  6
BYBLOCK
100
AcDbLine
 10
293.6047015782887
 20
51.00768701833679
 30
0.0
 11
295.6047015782887
 21
51.00768701833679
 31
0.0
  0
LINE
  5
11C46
330
18
100
AcDbEntity
  8
0
  6
BYBLOCK
100
AcDbLine
 10
353.6047015782889
 20
51.54358539833679
 30
0.0
 11
355.6047015782889
 21
51.00768701833679
 31
0.0
  0
LINE
  5
11C47
330
18
100
AcDbEntity
  8
0
  6
BYBLOCK
100
AcDbLine
 10
355.6047015782889
 20
51.00768701833679
 30
0.0
 11
353.6047015782889
 21
50.47178863833679
 31
0.0
  0
LINE
  5
11C48
330
18
100
AcDbEntity
  8
0
  6
BYBLOCK
100
AcDbLine
 10
355.6047015782889
 20
51.00768701833679
 30
0.0
 11
353.6047015782889
 21
51.00768701833679
 31
0.0
  0
TEXT
  5
11C49
330
18
100
AcDbEntity
  8
1DIM
  6
CONTINUOUS
100
AcDbText
 10
321.6758821338443
 20
51.70768701833679
 30
0.0
 40
3.5
  1
62
100
AcDbText
  0
LINE
  5
11C4A
330
18
100
AcDbEntity
  8
0
  6
BYBLOCK
100
AcDbLine
 10
251.1047015782895
 20
-86.3877364394199
 30
0.0
 11
249.1047015782895
 21
-85.85183805941989
 31
0.0
  0
LINE
  5
11C4B
330
18
100
AcDbEntity
  8
0
  6
BYBLOCK
100
AcDbLine
 10
249.1047015782895
 20
-85.85183805941989
 30
0.0
 11
251.1047015782895
 21
-85.31593967941988
 31
0.0
  0
LINE
  5
11C4C
330
18
100
AcDbEntity
  8
0
  6
BYBLOCK
100
AcDbLine
 10
249.1047015782895
 20
-85.85183805941989
 30
0.0
 11
251.1047015782895
 21
-85.85183805941989
 31
0.0
  0
LINE
  5
11C4D
330
18
100
AcDbEntity
  8
0
  6
BYBLOCK
100
AcDbLine
 10
398.1047015782887
 20
-85.31593967941988
 30
0.0
 11
400.1047015782887
 21
-85.85183805941989
 31
0.0
  0
LINE
  5
11C4E
330
18
100
AcDbEntity
  8
0
  6
BYBLOCK
100
AcDbLine
 10
400.1047015782887
 20
-85.85183805941989
 30
0.0
 11
398.1047015782887
 21
-86.3877364394199
 31
0.0
  0
LINE
  5
11C4F
330
18
100
AcDbEntity
  8
0
  6
BYBLOCK
100
AcDbLine
 10
400.1047015782887
 20
-85.85183805941989
 30
0.0
 11
398.1047015782887
 21
-85.85183805941989
 31
0.0
  0
TEXT
  5
11C50
330
18
100
AcDbEntity
  8
1DIM
  6
CONTINUOUS
100
AcDbText
 10
321.0925488005113
 20
-85.1518380594199
 30
0.0
 40
3.5
  1
151
100
AcDbText
  0
LINE
  5
11C51
330
18
100
AcDbEntity
  8
0
  6
BYBLOCK
100
AcDbLine
 10
295.6047015782893
 20
-151.0687056242659
 30
0.0
 11
293.6047015782893
 21
-150.5328072442659
 31
0.0
  0
LINE
  5
11C52
330
18
100
AcDbEntity
  8
0
  6
BYBLOCK
100
AcDbLine
 10
293.6047015782893
 20
-150.5328072442659
 30
0.0
 11
295.6047015782893
 21
-149.9969088642659
 31
0.0
  0
LINE
  5
11C53
330
18
100
AcDbEntity
  8
0
  6
BYBLOCK
100
AcDbLine
 10
293.6047015782893
 20
-150.5328072442659
 30
0.0
 11
295.6047015782893
 21
-150.5328072442659
 31
0.0
  0
LINE
  5
11C54
330
18
100
AcDbEntity
  8
0
  6
BYBLOCK
100
AcDbLine
 10
353.6044527518786
 20
-149.9969088642659
 30
0.0
 11
355.6044527518786
 21
-150.5328072442659
 31
0.0
  0
LINE
  5
11C55
330
18
100
AcDbEntity
  8
0
  6
BYBLOCK
100
AcDbLine
 10
355.6044527518786
 20
-150.5328072442659
 30
0.0
 11
353.6044527518786
 21
-151.0687056242659
 31
0.0
  0
LINE
  5
11C56
330
18
100
AcDbEntity
  8
0
  6
BYBLOCK
100
AcDbLine
 10
355.6044527518786
 20
-150.5328072442659
 30
0.0
 11
353.6044527518786
 21
-150.5328072442659
 31
0.0
  0
TEXT
  5
11C57
330
18
100
AcDbEntity
  8
1DIM
  6
CONTINUOUS
100
AcDbText
 10
321.6757577206395
 20
-149.8328072442659
 30
0.0
 40
3.5
  1
62
100
AcDbText
  0
VIEWPORT
  5
57
330
15
100
AcDbEntity
 67
     1
  8
0
100
AcDbViewport
 68
     1
 10
0.0
 20
0.0
 30
0.0
 40
600.1703601108032
 41
297.0
 68
     1
 69
     1
1001
ACAD
1000
MVIEW
1002
{
1070
    16
1010
0.0
1020
0.0
1030
0.0
1010
0.0
1020
0.0
1030
1.0
1040
0.0
1040
297.0
1040
5.728000000000009
1040
25.339
1040
50.0
1040
0.0
1040
0.0
1070
    16
1070
   100
1070
     0
1070
     1
1070
     0
1070
     0
1070
     0
1070
     0
1040
0.0
1040
0.0
1040
0.0
1040
10.0
1040
10.0
1040
10.0
1040
10.0
1070
     0
1002
{
1002
}
1002
}
  0
ENDSEC
  0
SECTION
  2
OBJECTS
  0
DICTIONARY
  5
C
330
0
100
AcDbDictionary
  3
ACAD_COLOR
350
18D
  3
ACAD_GROUP
350
D
  3
ACAD_LAYOUT
350
18E
  3
ACAD_MATERIAL
350
18C
  3
ACAD_MLEADERSTYLE
350
D09D
  3
ACAD_MLINESTYLE
350
1B
  3
ACAD_PLOTSETTINGS
350
18F
  3
ACAD_SCALELIST
350
D07B
  3
ACAD_VISUALSTYLE
350
D06A
  3
ACDBHEADERROUNDTRIPXREC
350
11C58
  3
ACDBVARIABLEDICTIONARY
350
37
  3
AEC_PROPERTY_SET_DEFS
350
10751
  3
CONTENTDICTIONARY
350
D8
  3
DRAWINGVARIABLESDICT
350
20
  3
DWGPROPS
350
11C5B
1001
ACAD
1000
TREAT_AS_HARD
1070
     0
  0
DICTIONARY
  5
D16C
330
2
100
AcDbDictionary
  3
ACAD_LAYERSTATES
360
D16D
1001
ACAD
1000
TREAT_AS_HARD
1070
     1
  0
DICTIONARY
  5
D0B5
330
E
100
AcDbDictionary
  3
ADSK_XREC_LAYER_RECONCILED
360
D0B6
1001
ACAD
1000
TREAT_AS_HARD
1070
     1
  0
DICTIONARY
  5
D0B7
330
29
100
AcDbDictionary
  3
ADSK_XREC_LAYER_RECONCILED
360
D0B8
1001
ACAD
1000
TREAT_AS_HARD
1070
     1
  0
DICTIONARY
  5
D0B9
330
31
100
AcDbDictionary
  3
ADSK_XREC_LAYER_RECONCILED
360
D0BA
1001
ACAD
1000
TREAT_AS_HARD
1070
     1
  0
DICTIONARY
  5
D0BF
330
243
100
AcDbDictionary
  3
ADSK_XREC_LAYER_RECONCILED
360
D0C0
1001
ACAD
1000
TREAT_AS_HARD
1070
     1
  0
DICTIONARY
  5
D0C5
330
24E
100
AcDbDictionary
  3
ADSK_XREC_LAYER_RECONCILED
360
D0C6
1001
ACAD
1000
TREAT_AS_HARD
1070
     1
  0
DICTIONARY
  5
D0C9
330
6A1
100
AcDbDictionary
  3
ADSK_XREC_LAYER_RECONCILED
360
D0CA
1001
ACAD
1000
TREAT_AS_HARD
1070
     1
  0
DICTIONARY
  5
D0CB
330
6A2
100
AcDbDictionary
  3
ADSK_XREC_LAYER_RECONCILED
360
D0CC
1001
ACAD
1000
TREAT_AS_HARD
1070
     1
  0
DICTIONARY
  5
D0CD
330
6A3
100
AcDbDictionary
  3
ADSK_XREC_LAYER_RECONCILED
360
D0CE
1001
ACAD
1000
TREAT_AS_HARD
1070
     1
  0
DICTIONARY
  5
D0CF
330
6A4
100
AcDbDictionary
  3
ADSK_XREC_LAYER_RECONCILED
360
D0D0
1001
ACAD
1000
TREAT_AS_HARD
1070
     1
  0
DICTIONARY
  5
88F
330
18
100
AcDbDictionary
  3
ACAD_SORTENTS
360
890
1001
ACAD
1000
TREAT_AS_HARD
1070
     1
  0
DICTIONARY
  5
18D
102
{ACAD_REACTORS
330
C
102
}
330
C
100
AcDbDictionary
1001
ACAD
1000
TREAT_AS_HARD
1070
     0
  0
DICTIONARY
  5
D
102
{ACAD_REACTORS
330
C
102
}
330
C
100
AcDbDictionary
1001
ACAD
1000
TREAT_AS_HARD
1070
     0
  0
DICTIONARY
  5
18E
102
{ACAD_REACTORS
330
C
102
}
330
C
100
AcDbDictionary
1001
ACAD
1000
TREAT_AS_HARD
1070
     0
  0
DICTIONARY
  5
18C
102
{ACAD_REACTORS
330
C
102
}
330
C
100
AcDbDictionary
  3
BYBLOCK
350
D05A
  3
BYLAYER
350
D052
  3
GLOBAL
350
D062
1001
ACAD
1000
TREAT_AS_HARD
1070
     0
  0
DICTIONARY
  5
D09D
102
{ACAD_REACTORS
330
C
102
}
330
C
100
AcDbDictionary
  3
STANDARD
350
D09E
1001
ACAD
1000
TREAT_AS_HARD
1070
     0
  0
DICTIONARY
  5
1B
102
{ACAD_REACTORS
330
C
102
}
330
C
100
AcDbDictionary
  3
STANDARD
350
1C
1001
ACAD
1000
TREAT_AS_HARD
1070
     0
  0
DICTIONARY
  5
18F
102
{ACAD_REACTORS
330
C
102
}
330
C
100
AcDbDictionary
1001
ACAD
1000
TREAT_AS_HARD
1070
     0
  0
DICTIONARY
  5
D07B
102
{ACAD_REACTORS
330
C
102
}
330
C
100
AcDbDictionary
  3
A0
350
D07C
  3
A1
350
D07D
  3
A2
350
D07E
  3
A3
350
D07F
  3
A4
350
D080
  3
A5
350
D081
  3
A6
350
D082
  3
A7
350
D083
  3
A8
350
D084
  3
A9
350
D085
  3
B0
350
D086
  3
B1
350
D087
  3
B2
350
D088
  3
B3
350
D089
  3
B4
350
D08A
  3
B5
350
D08B
  3
B6
350
D08C
  3
B7
350
D08D
  3
B8
350
D08E
  3
B9
350
D08F
  3
C0
350
D090
  3
C1
350
D091
  3
C2
350
D092
  3
C3
350
D093
  3
C4
350
D094
  3
C5
350
D095
  3
C6
350
D096
  3
C7
350
D097
  3
C8
350
D098
  3
C9
350
D099
  3
D0
350
D09A
  3
D1
350
D09B
  3
D2
350
D09C
1001
ACAD
1000
TREAT_AS_HARD
1070
     0
  0
DICTIONARY
  5
D06A
102
{ACAD_REACTORS
330
C
102
}
330
C
100
AcDbDictionary
  3
2DWIREFRAME
350
D070
  3
3D_HIDDEN
350
D072
  3
3DWIREFRAME
350
D071
  3
BASIC
350
D06F
  3
BRIGHTEN
350
D076
  3
COLORCHANGE
350
D07A
  3
CONCEPTUAL
350
D073
  3
DIM
350
D075
  3
EDGECOLOROFF
350
D29F
  3
FACEPATTERN
350
D079
  3
FLAT
350
D06B
  3
FLATWITHEDGES
350
D06C
  3
GOURAUD
350
D06D
  3
GOURAUDWITHEDGES
350
D06E
  3
HIDDEN
350
1127E
  3
JITTEROFF
350
D29D
  3
LINEPATTERN
350
D078
  3
MODELING
350
11284
  3
OVERHANGOFF
350
D29E
  3
REALISTIC
350
D074
  3
SHADED
350
11283
  3
SHADED_WITH_EDGES
350
11282
  3
SHADES_OF_GRAY
350
1127F
  3
SKETCHY
350
11280
  3
THICKEN
350
D077
  3
WIREFRAME
350
1127D
  3
X-RAY
350
11281
1001
ACAD
1000
TREAT_AS_HARD
1070
     0
  0
DICTIONARY
  5
11C58
102
{ACAD_REACTORS
330
C
102
}
330
C
100
AcDbDictionary
  3
COLORDICT
350
11C59
  3
MATERIALDICT
350
11C5A
1001
ACAD
1000
TREAT_AS_HARD
1070
     0
  0
DICTIONARY
  5
37
102
{ACAD_REACTORS
330
C
102
}
330
C
100
AcDbDictionary
  3
CANNOSCALE
350
1199F
  3
CMLEADERSTYLE
350
D117
  3
CTABLESTYLE
350
29E
  3
DIMADEC
350
38
  3
DIMASSOC
350
1CE
  3
HIDETEXT
350
704E
  3
INDEXCTL
350
D11A
  3
INTERSECTIONCOLOR
350
7052
  3
INTERSECTIONDISPLAY
350
7051
  3
MSLTSCALE
350
119EF
  3
OBSCOLOR
350
704F
  3
OBSLTYPE
350
7050
  3
PROJECTNAME
350
1CF
  3
SORTENTS
350
D119
  3
XCLIPFRAME
350
1127C
1001
ACAD
1000
TREAT_AS_HARD
1070
     0
  0
DICTIONARY
  5
10751
102
{ACAD_REACTORS
330
C
102
}
330
C
100
AcDbDictionary
1001
ACAD
1000
TREAT_AS_HARD
1070
     0
  0
DICTIONARY
  5
D8
102
{ACAD_REACTORS
330
C
102
}
330
C
100
AcDbDictionary
1001
ACAD
1000
TREAT_AS_HARD
1070
     0
  0
DICTIONARY
  5
20
102
{ACAD_REACTORS
330
C
102
}
330
C
100
AcDbDictionary
1001
DRAWINGVARIABLESXDATA
1000
POLARANG
1000
0.261799387799149410000000
1000
POLARMODE
1000
1
1000
POLARSTYLE
1000
1
1001
ACAD
1000
TREAT_AS_HARD
1070
     0
  0
XRECORD
  5
11C5B
102
{ACAD_REACTORS
330
C
102
}
330
C
100
AcDbXrecord
  1
DWGPROPS COOKIE
  2

  3

  4

  6

  7

  8
619
  9

300
=
301
=
302
=
303
=
304
=
305
=
306
=
307
=
308
=
309
=
 40
0.0
 41
2451318.246352917
 42
2458043.993386412
  1

 90
        0
  0
DICTIONARY
  5
D16D
102
{ACAD_REACTORS
330
D16C
102
}
330
D16C
100
AcDbDictionary
1001
ACAD
1000
TREAT_AS_HARD
1070
     0
  0
ACAD_PROXY_OBJECT
  5
D0B6
102
{ACAD_REACTORS
330
D0B5
102
}
330
D0B5
100
AcDbZombieObject
 90
      499
 91
      517
 93
       34
310
40C8804040
  0
ACAD_PROXY_OBJECT
  5
D0B8
102
{ACAD_REACTORS
330
D0B7
102
}
330
D0B7
100
AcDbZombieObject
 90
      499
 91
      517
 93
       34
310
40C8804040
  0
ACAD_PROXY_OBJECT
  5
D0BA
102
{ACAD_REACTORS
330
D0B9
102
}
330
D0B9
100
AcDbZombieObject
 90
      499
 91
      517
 93
       34
310
40C8804040
  0
ACAD_PROXY_OBJECT
  5
D0C0
102
{ACAD_REACTORS
330
D0BF
102
}
330
D0BF
100
AcDbZombieObject
 90
      499
 91
      517
 93
       34
310
40C8804040
  0
ACAD_PROXY_OBJECT
  5
D0C6
102
{ACAD_REACTORS
330
D0C5
102
}
330
D0C5
100
AcDbZombieObject
 90
      499
 91
      517
 93
       34
310
40C8804040
  0
ACAD_PROXY_OBJECT
  5
D0CA
102
{ACAD_REACTORS
330
D0C9
102
}
330
D0C9
100
AcDbZombieObject
 90
      499
 91
      517
 93
       34
310
40C8804040
  0
ACAD_PROXY_OBJECT
  5
D0CC
102
{ACAD_REACTORS
330
D0CB
102
}
330
D0CB
100
AcDbZombieObject
 90
      499
 91
      517
 93
       34
310
40C8804040
  0
ACAD_PROXY_OBJECT
  5
D0CE
102
{ACAD_REACTORS
330
D0CD
102
}
330
D0CD
100
AcDbZombieObject
 90
      499
 91
      517
 93
       34
310
40C8804040
  0
ACAD_PROXY_OBJECT
  5
D0D0
102
{ACAD_REACTORS
330
D0CF
102
}
330
D0CF
100
AcDbZombieObject
 90
      499
 91
      517
 93
       34
310
40C8804040
  0
SORTENTSTABLE
  5
890
102
{ACAD_REACTORS
330
88F
102
}
330
88F
100
AcDbSortentsTable
330
18
331
0
  5
C618
331
FF37
  5
111C9
331
FF39
  5
111CA
331
FF7E
  5
111CC
331
FF80
  5
111CD
331
FF81
  5
1165B
331
FF82
  5
11661
331
FF85
  5
11662
331
FF86
  5
11663
331
FF87
  5
11664
331
FF88
  5
11665
331
FF8A
  5
11667
331
FF8B
  5
11668
331
FF94
  5
11669
331
111C9
  5
1166A
331
111CA
  5
1166B
331
111CC
  5
1166D
331
111CD
  5
1166E
331
1165B
  5
1166F
331
11661
  5
11670
331
11662
  5
11671
331
11663
  5
1167A
331
11664
  5
1167B
331
11665
  5
1167C
331
11667
  5
116C7
331
11668
  5
116C8
331
11669
  5
116C9
331
1166A
  5
116CA
331
1166B
  5
116CB
331
1166D
  5
11716
331
1166E
  5
11717
331
1166F
  5
11718
331
11670
  5
11719
331
11671
  5
1171A
331
1167A
  5
11774
331
1167B
  5
11775
331
1167C
  5
11776
331
1167D
  5
11777
331
1167E
  5
11778
331
1167F
  5
11779
331
11680
  5
1177A
331
11681
  5
1177B
331
11682
  5
1177C
331
11683
  5
1177D
331
11684
  5
1177E
331
11685
  5
1177F
331
11686
  5
11780
331
11687
  5
11781
331
11688
  5
11782
331
11689
  5
11783
331
1168A
  5
11784
331
1168B
  5
11785
331
1168C
  5
11786
331
1168D
  5
11787
331
1168E
  5
11789
331
1168F
  5
1178A
331
11690
  5
1178B
331
11691
  5
1178C
331
11692
  5
1178D
331
11693
  5
1178E
331
11694
  5
1178F
331
11695
  5
11790
331
11696
  5
11791
331
11697
  5
11793
331
11698
  5
11794
331
11699
  5
11795
331
1169A
  5
11796
331
1169B
  5
11797
331
1169C
  5
11798
331
1169D
  5
11799
331
1169E
  5
1179A
331
1169F
  5
1179B
331
116A0
  5
1179C
331
116A1
  5
1179D
331
116A2
  5
1179E
331
116A3
  5
1179F
331
116A4
  5
117A0
331
116A5
  5
117A1
331
116A6
  5
117A2
331
116A7
  5
117A3
331
116A8
  5
117A4
331
116A9
  5
117A5
331
116AA
  5
117A6
331
116AB
  5
117A7
331
116AC
  5
117A8
331
116AD
  5
117A9
331
116AE
  5
117AA
331
116AF
  5
117AB
331
116B0
  5
117AC
331
116B1
  5
117AD
331
116B2
  5
117AE
331
116B3
  5
117AF
331
116B4
  5
117B0
331
116B5
  5
117B1
331
116B6
  5
117B2
331
116B7
  5
117B3
331
116B8
  5
117B4
331
116B9
  5
117B5
331
116BA
  5
117B6
331
116BB
  5
117B7
331
116BC
  5
117B8
331
116BD
  5
117B9
331
116BE
  5
117BA
331
116BF
  5
117BB
331
116C0
  5
117BC
331
116C1
  5
117BD
331
116C2
  5
117BE
331
116C3
  5
117BF
331
116C4
  5
117C0
331
116C5
  5
117C1
331
116C6
  5
117C2
331
116C7
  5
117C3
331
116C8
  5
117C4
331
116C9
  5
117C5
331
116CA
  5
117C6
331
116CB
  5
117C7
331
116CC
  5
117C8
331
116CD
  5
117C9
331
116CE
  5
117CA
331
116CF
  5
117CB
331
116D0
  5
117CC
331
116D1
  5
117CD
331
116D2
  5
117CE
331
116D3
  5
117CF
331
116D4
  5
117D0
331
116D5
  5
117D1
331
116D6
  5
117D2
331
116D7
  5
117D3
331
116D8
  5
117D4
331
116D9
  5
117D5
331
116DA
  5
117D6
331
116DB
  5
117D7
331
116DC
  5
117D8
331
116DD
  5
117D9
331
116DE
  5
117DA
331
116DF
  5
117DB
331
116E0
  5
117DC
331
116E1
  5
117DD
331
116E2
  5
117DE
331
116E3
  5
117DF
331
116E4
  5
117E0
331
116E5
  5
117E1
331
116E6
  5
117E2
331
116E7
  5
117E3
331
116E8
  5
117E4
331
116E9
  5
117E5
331
116EA
  5
117E6
331
116EB
  5
117E7
331
116EC
  5
117E8
331
116ED
  5
117E9
331
116EE
  5
117EA
331
116EF
  5
117EB
331
116F0
  5
117EC
331
116F1
  5
117ED
331
116F2
  5
117EE
331
116F3
  5
117EF
331
116F4
  5
117F0
331
116F5
  5
117F1
331
116F6
  5
117F2
331
116F7
  5
117F3
331
116F8
  5
117F4
331
116F9
  5
117F5
331
116FA
  5
117F6
331
116FB
  5
117F7
331
116FC
  5
117F8
331
116FD
  5
117F9
331
116FE
  5
117FA
331
116FF
  5
117FB
331
11700
  5
117FC
331
11701
  5
117FD
331
11702
  5
117FE
331
11703
  5
117FF
331
11704
  5
11800
331
11705
  5
11801
331
11706
  5
11802
331
11707
  5
11803
331
11708
  5
11804
331
11709
  5
11805
331
1170A
  5
11806
331
1170B
  5
11807
331
1170C
  5
11808
331
1170D
  5
11809
331
1170E
  5
1180A
331
1170F
  5
1180B
331
11710
  5
1180C
331
11711
  5
1180D
331
11712
  5
1180E
331
11713
  5
1180F
331
11714
  5
11810
331
11715
  5
11811
331
11716
  5
11812
331
11717
  5
11813
331
11718
  5
11814
331
11719
  5
11815
331
1171A
  5
11816
331
1171B
  5
11817
331
1171C
  5
11818
331
1171D
  5
11868
331
1171F
  5
1186D
331
11720
  5
1186E
331
11721
  5
1186F
331
11722
  5
11870
331
11723
  5
11871
331
11724
  5
11945
331
11725
  5
11946
331
11726
  5
11949
331
11727
  5
11958
331
11728
  5
11AE8
331
11729
  5
11AE9
331
1172A
  5
11AEA
331
1172C
  5
11AEF
331
1172D
  5
11AF0
331
1172E
  5
11AF1
331
1172F
  5
11AF2
331
11730
  5
11AF3
331
11731
  5
11AF4
331
11732
  5
11AF5
331
11733
  5
11AF6
331
11734
  5
11AF7
331
11735
  5
11AF8
331
11736
  5
11AF9
331
11737
  5
11AFA
331
11738
  5
11AFB
331
11739
  5
11AFC
331
1173A
  5
11AFD
331
1173B
  5
11AFE
331
1173C
  5
11AFF
331
1173D
  5
11B00
331
1173E
  5
11B01
331
1173F
  5
11B02
331
11740
  5
11B03
331
11741
  5
11B04
331
11742
  5
11B05
331
11743
  5
11B06
331
11744
  5
11B07
331
11745
  5
11B08
331
11746
  5
11B09
331
11747
  5
11B0A
331
11748
  5
11B0B
331
11749
  5
11B0C
331
1174A
  5
11B0D
331
1174B
  5
11B0E
331
1174C
  5
11B0F
331
1174D
  5
11B10
331
1174E
  5
11B11
331
1174F
  5
11B12
331
11750
  5
11B13
331
11751
  5
11B14
331
11752
  5
11B15
331
11753
  5
11B16
331
11754
  5
11B17
331
11755
  5
11B18
331
11756
  5
11B19
331
11757
  5
11B1A
331
11758
  5
11B1B
331
11759
  5
11B1C
331
1175A
  5
11B1D
331
1175B
  5
11B1E
331
1175C
  5
11B1F
331
1175D
  5
11B20
331
1175E
  5
11B21
331
1175F
  5
11B22
331
11760
  5
11B23
331
11761
  5
11B24
331
11762
  5
11B25
331
11763
  5
11B26
331
11764
  5
11B27
331
11765
  5
11B28
331
11766
  5
11B29
331
11767
  5
11B2A
331
11768
  5
11B2B
331
11769
  5
11B2C
331
1176A
  5
11B2D
331
1176B
  5
11B2E
331
1176C
  5
11B2F
331
1176D
  5
11B30
331
1176E
  5
11B31
331
1176F
  5
11B32
331
11770
  5
11B33
331
11771
  5
11B34
331
11772
  5
11B35
331
11773
  5
11B36
331
11774
  5
11B37
331
11775
  5
11B38
331
11776
  5
11B39
331
11777
  5
11B3A
331
11778
  5
11B3B
331
11779
  5
11B3C
331
1177A
  5
11B3D
331
1177B
  5
11B3E
331
1177C
  5
11B3F
331
1177D
  5
11B40
331
1177E
  5
11B41
331
1177F
  5
11B42
331
11780
  5
11B43
331
11781
  5
11B44
331
11782
  5
11B45
331
11783
  5
11B46
331
11784
  5
11B47
331
11785
  5
11B48
331
11786
  5
11B49
331
11787
  5
11B4A
331
11789
  5
11B4F
331
1178A
  5
11B50
331
1178B
  5
11B51
331
1178C
  5
11B52
331
1178D
  5
11B53
331
1178E
  5
11B54
331
1178F
  5
11B55
331
11790
  5
11B56
331
11791
  5
11B57
331
11793
  5
11B5C
331
11794
  5
11B5D
331
11795
  5
11B5E
331
11796
  5
11B5F
331
11797
  5
11B60
331
11798
  5
11B61
331
11799
  5
11B62
331
1179A
  5
11B63
331
1179B
  5
11B64
331
1179C
  5
11B65
331
1179D
  5
11B66
331
1179E
  5
11B67
331
1179F
  5
11B68
331
117A0
  5
11B69
331
117A1
  5
11B6A
331
117A2
  5
11B6B
331
117A3
  5
11B6C
331
117A4
  5
11B6D
331
117A5
  5
11B6E
331
117A6
  5
11B6F
331
117A7
  5
11B70
331
117A8
  5
11B71
331
117A9
  5
11B72
331
117AA
  5
11B73
331
117AB
  5
11B74
331
117AC
  5
11B75
331
117AD
  5
11B76
331
117AE
  5
11B77
331
117AF
  5
11B78
331
117B0
  5
11B79
331
117B1
  5
11B7A
331
117B2
  5
11B7B
331
117B3
  5
11B7C
331
117B4
  5
11B7D
331
117B5
  5
11B7E
331
117B6
  5
11B7F
331
117B7
  5
11B80
331
117B8
  5
11B81
331
117B9
  5
11B82
331
117BA
  5
11B83
331
117BB
  5
11B84
331
117BC
  5
11B85
331
117BD
  5
11B86
331
117BE
  5
11B87
331
117BF
  5
11B88
331
117C0
  5
11B89
331
117C1
  5
11B8A
331
117C2
  5
11B8B
331
117C3
  5
11B8C
331
117C4
  5
11B8D
331
117C5
  5
11B8E
331
117C6
  5
11B8F
331
117C7
  5
11B90
331
117C8
  5
11B91
331
117C9
  5
11B92
331
117CA
  5
11B93
331
117CB
  5
11B94
331
117CC
  5
11B95
331
117CD
  5
11B96
331
117CE
  5
11B97
331
117CF
  5
11B98
331
117D0
  5
11B99
331
117D1
  5
11B9A
331
117D2
  5
11B9B
331
117D3
  5
11B9C
331
117D4
  5
11B9D
331
117D5
  5
11B9E
331
117D6
  5
11B9F
331
117D7
  5
11BA0
331
117D8
  5
11BA1
331
117D9
  5
11BA2
331
117DA
  5
11BA3
331
117DB
  5
11BA4
331
117DC
  5
11BA5
331
117DD
  5
11BA6
331
117DE
  5
11BA7
331
117DF
  5
11BA8
331
117E0
  5
11BA9
331
117E1
  5
11BAA
331
117E2
  5
11BAB
331
117E3
  5
11BAC
331
117E4
  5
11BAD
331
117E5
  5
11BAE
331
117E6
  5
11BAF
331
117E7
  5
11BB0
331
117E8
  5
11BB1
331
117E9
  5
11BB2
331
117EA
  5
11BB3
331
117EB
  5
11BB4
331
117EC
  5
11BB5
331
117ED
  5
11BB6
331
117EE
  5
11BB7
331
117EF
  5
11BB8
331
117F0
  5
11BB9
331
117F1
  5
11BBA
331
117F2
  5
11BBB
331
117F3
  5
11BBC
331
117F4
  5
11BBD
331
117F5
  5
11BBE
331
117F6
  5
11BBF
331
117F7
  5
11BC0
331
117F8
  5
11BC1
331
117F9
  5
11BC2
331
117FA
  5
11BC3
331
117FB
  5
11BC4
331
117FC
  5
11BC5
331
117FD
  5
11BC6
331
117FE
  5
11BC7
331
117FF
  5
11BC8
331
11800
  5
11BC9
331
11801
  5
11BCA
331
11802
  5
11BCB
331
11803
  5
11BCC
331
11804
  5
11BCD
331
11805
  5
11BCE
331
11806
  5
11BCF
331
11807
  5
11BD0
331
11808
  5
11BD1
331
11809
  5
11BD2
331
1180A
  5
11BD3
331
1180B
  5
11BD4
331
1180C
  5
11BD7
331
1180D
  5
11BD8
331
1180E
  5
11BD9
331
1180F
  5
11BDA
331
11810
  5
11BDB
331
11811
  5
11BDC
331
11812
  5
11BDD
331
11813
  5
11BDE
331
11814
  5
11BDF
331
11815
  5
11BE0
331
11816
  5
11BE1
331
11817
  5
11BE2
331
11818
  5
11BE3
331
11868
  5
11BEF
331
11869
  5
11BF3
331
1186A
  5
11BF4
331
1186B
  5
11BF5
331
1186C
  5
11BF6
331
1186D
  5
11BF7
331
1186E
  5
11BF8
331
1186F
  5
11BF9
331
11870
  5
11BFA
331
11871
  5
11BFB
331
11945
  5
11C23
331
11946
  5
11C24
331
0
  5
1194B
331
0
  5
11965
331
0
  5
11972
331
0
  5
11973
331
0
  5
11974
331
0
  5
11975
331
0
  5
11976
331
0
  5
11977
331
0
  5
11AE6
331
0
  5
11AE7
331
11AE6
  5
11C27
331
11AE7
  5
11C2A
331
11AE8
  5
FF37
331
11AE9
  5
FF39
331
11AEA
  5
FF7E
331
0
  5
FF80
331
0
  5
FF81
331
0
  5
FF82
331
11AEE
  5
1167D
331
11AEF
  5
1167E
331
11AF0
  5
1167F
331
11AF1
  5
11680
331
11AF2
  5
11681
331
11AF3
  5
11682
331
11AF4
  5
11683
331
11AF5
  5
11684
331
11AF6
  5
11685
331
11AF7
  5
11686
331
11AF8
  5
11687
331
11AF9
  5
11688
331
11AFA
  5
11689
331
11AFB
  5
1168A
331
11AFC
  5
1168B
331
11AFD
  5
1168C
331
11AFE
  5
1168D
331
11AFF
  5
1168E
331
11B00
  5
1168F
331
11B01
  5
11690
331
11B02
  5
11691
331
11B03
  5
11692
331
11B04
  5
11693
331
11B05
  5
11694
331
11B06
  5
11695
331
11B07
  5
11696
331
11B08
  5
11697
331
11B09
  5
11698
331
11B0A
  5
11699
331
11B0B
  5
1169A
331
11B0C
  5
1169B
331
11B0D
  5
1169C
331
11B0E
  5
1169D
331
11B0F
  5
1169E
331
11B10
  5
1169F
331
11B11
  5
116A0
331
11B12
  5
116A1
331
11B13
  5
116A2
331
11B14
  5
116A3
331
11B15
  5
116A4
331
11B16
  5
116A5
331
11B17
  5
116A6
331
11B18
  5
116A7
331
11B19
  5
116A8
331
11B1A
  5
116A9
331
11B1B
  5
116AA
331
11B1C
  5
116AB
331
11B1D
  5
116AC
331
11B1E
  5
116AD
331
11B1F
  5
116AE
331
11B20
  5
116AF
331
11B21
  5
116B0
331
11B22
  5
116B1
331
11B23
  5
116B2
331
11B24
  5
116B3
331
11B25
  5
116B4
331
11B26
  5
116B5
331
11B27
  5
116B6
331
11B28
  5
116B7
331
11B29
  5
116B8
331
11B2A
  5
116B9
331
11B2B
  5
116BA
331
11B2C
  5
116BB
331
11B2D
  5
116BC
331
11B2E
  5
116BD
331
11B2F
  5
116BE
331
11B30
  5
116BF
331
11B31
  5
116C0
331
11B32
  5
116C1
331
11B33
  5
116C2
331
11B34
  5
116C3
331
11B35
  5
116C4
331
11B36
  5
116C5
331
11B37
  5
116C6
331
11B38
  5
116CC
331
11B39
  5
116CD
331
11B3A
  5
116CE
331
11B3B
  5
116CF
331
11B3C
  5
116D0
331
11B3D
  5
116D1
331
11B3E
  5
116D2
331
11B3F
  5
116D3
331
11B40
  5
116D4
331
11B41
  5
116D5
331
11B42
  5
116D6
331
11B43
  5
116D7
331
11B44
  5
116D8
331
11B45
  5
116D9
331
11B46
  5
116DA
331
11B47
  5
116DB
331
11B48
  5
116DC
331
11B49
  5
116DD
331
11B4A
  5
116DE
331
11B4B
  5
116DF
331
11B4C
  5
116E0
331
11B4D
  5
116E1
331
11B4E
  5
116E2
331
11B4F
  5
116E3
331
11B50
  5
116E4
331
11B51
  5
116E5
331
11B52
  5
116E6
331
11B53
  5
116E7
331
11B54
  5
116E8
331
11B55
  5
116E9
331
11B56
  5
116EA
331
11B57
  5
116EB
331
11B58
  5
116EC
331
11B59
  5
116ED
331
11B5A
  5
116EE
331
11B5B
  5
116EF
331
11B5C
  5
116F0
331
11B5D
  5
116F1
331
11B5E
  5
116F2
331
11B5F
  5
116F3
331
11B60
  5
116F4
331
11B61
  5
116F5
331
11B62
  5
116F6
331
11B63
  5
116F7
331
11B64
  5
116F8
331
11B65
  5
116F9
331
11B66
  5
116FA
331
11B67
  5
116FB
331
11B68
  5
116FC
331
11B69
  5
116FD
331
11B6A
  5
116FE
331
11B6B
  5
116FF
331
11B6C
  5
11700
331
11B6D
  5
11701
331
11B6E
  5
11702
331
11B6F
  5
11703
331
11B70
  5
11704
331
11B71
  5
11705
331
11B72
  5
11706
331
11B73
  5
11707
331
11B74
  5
11708
331
11B75
  5
11709
331
11B76
  5
1170A
331
11B77
  5
1170B
331
11B78
  5
1170C
331
11B79
  5
1170D
331
11B7A
  5
1170E
331
11B7B
  5
1170F
331
11B7C
  5
11710
331
11B7D
  5
11711
331
11B7E
  5
11712
331
11B7F
  5
11713
331
11B80
  5
11714
331
11B81
  5
11715
331
11B82
  5
1171B
331
11B83
  5
1171C
331
11B84
  5
1171D
331
11B85
  5
1171F
331
11B86
  5
11720
331
11B87
  5
11721
331
11B88
  5
11722
331
11B89
  5
11723
331
11B8A
  5
11724
331
11B8B
  5
11725
331
11B8C
  5
11726
331
11B8D
  5
11727
331
11B8E
  5
11728
331
11B8F
  5
11729
331
11B90
  5
1172A
331
11B91
  5
1172C
331
11B92
  5
1172D
331
11B93
  5
1172E
331
11B94
  5
1172F
331
11B95
  5
11730
331
11B96
  5
11731
331
11B97
  5
11732
331
11B98
  5
11733
331
11B99
  5
11734
331
11B9A
  5
11735
331
11B9B
  5
11736
331
11B9C
  5
11737
331
11B9D
  5
11738
331
11B9E
  5
11739
331
11B9F
  5
1173A
331
11BA0
  5
1173B
331
11BA1
  5
1173C
331
11BA2
  5
1173D
331
11BA3
  5
1173E
331
11BA4
  5
1173F
331
11BA5
  5
11740
331
11BA6
  5
11741
331
11BA7
  5
11742
331
11BA8
  5
11743
331
11BA9
  5
11744
331
11BAA
  5
11745
331
11BAB
  5
11746
331
11BAC
  5
11747
331
11BAD
  5
11748
331
11BAE
  5
11749
331
11BAF
  5
1174A
331
11BB0
  5
1174B
331
11BB1
  5
1174C
331
11BB2
  5
1174D
331
11BB3
  5
1174E
331
11BB4
  5
1174F
331
11BB5
  5
11750
331
11BB6
  5
11751
331
11BB7
  5
11752
331
11BB8
  5
11753
331
11BB9
  5
11754
331
11BBA
  5
11755
331
11BBB
  5
11756
331
11BBC
  5
11757
331
11BBD
  5
11758
331
11BBE
  5
11759
331
11BBF
  5
1175A
331
11BC0
  5
1175B
331
11BC1
  5
1175C
331
11BC2
  5
1175D
331
11BC3
  5
1175E
331
11BC4
  5
1175F
331
11BC5
  5
11760
331
11BC6
  5
11761
331
11BC7
  5
11762
331
11BC8
  5
11766
331
11BC9
  5
11767
331
11BCA
  5
11768
331
11BCB
  5
11769
331
11BCC
  5
1176A
331
11BCD
  5
1176B
331
11BCE
  5
1176C
331
0
  5
11763
331
0
  5
11764
331
0
  5
11765
331
11BD2
  5
11869
331
11BD3
  5
1186A
331
11BD4
  5
1186B
331
11BD5
  5
1186C
331
11BD6
  5
11AEB
331
11BD7
  5
11AEC
331
11BD8
  5
11AED
331
11BD9
  5
11AEE
331
11BDA
  5
11B4B
331
11BDB
  5
11B4C
331
11BDC
  5
11B4D
331
11BDD
  5
11B4E
331
11BDE
  5
11B58
331
11BDF
  5
11B59
331
11BE0
  5
11B5A
331
11BE1
  5
11B5B
331
11BE2
  5
11BE7
331
0
  5
11BD5
331
0
  5
11BD6
331
11BE5
  5
11BFC
331
11BE6
  5
11BFD
331
11BE7
  5
11C01
331
0
  5
11BE4
331
0
  5
11BE5
331
0
  5
11BE6
331
11BEB
  5
11C0F
331
11BEC
  5
11C10
331
11BED
  5
11C11
331
0
  5
11BEA
331
0
  5
11BEB
331
0
  5
11BEC
331
11BF1
  5
11C19
331
11BF2
  5
11C1A
331
11BF3
  5
11C1B
331
0
  5
11BF0
331
0
  5
11BF1
331
0
  5
11BF2
331
11BF7
  5
11C25
331
11BF8
  5
11C26
331
11BF9
  5
11C28
331
11BFA
  5
11C29
331
11BFB
  5
11C2B
331
11BFC
  5
11C2C
331
11BFD
  5
11C2D
331
11C01
  5
11C35
331
11C02
  5
11C36
331
11C03
  5
11C37
331
11C07
  5
11C3F
331
11C08
  5
11C40
331
11C09
  5
11C41
331
11C0D
  5
11C49
331
11C0E
  5
11C4A
331
11C0F
  5
11C4B
331
11C10
  5
11C4C
331
11C11
  5
11C4D
331
11C12
  5
11C4E
331
11C13
  5
11C4F
331
11C14
  5
11C50
331
11C15
  5
11C51
331
11C16
  5
11C52
331
11C17
  5
11C53
331
11C18
  5
11C54
331
11C19
  5
11C55
331
11C1A
  5
11C56
331
11C1B
  5
11C57
331
11C1C
  5
FF85
331
11C1D
  5
FF86
331
11C1E
  5
FF87
331
11C1F
  5
FF88
331
11C20
  5
FF8A
331
11C21
  5
FF8B
331
11C22
  5
FF94
331
11C23
  5
1176D
331
11C24
  5
1176E
331
11C25
  5
1176F
331
11C26
  5
11770
331
11C27
  5
11771
331
11C28
  5
11772
331
11C29
  5
11773
331
11C2A
  5
11BE8
331
11C2B
  5
11BE9
331
11C2C
  5
11BED
331
11C2D
  5
11BEE
331
11C2E
  5
11C02
331
11C2F
  5
11C03
331
11C30
  5
11C07
331
11C31
  5
11C08
331
11C32
  5
11C09
331
11C33
  5
11C0D
331
11C34
  5
11C0E
331
11C35
  5
11C12
331
11C36
  5
11C13
331
11C37
  5
11C14
331
11C38
  5
11C15
331
11C39
  5
11C16
331
11C3A
  5
11C17
331
11C3B
  5
11C18
331
11C3C
  5
11C1C
331
11C3D
  5
11C1D
331
11C3E
  5
11C1E
331
11C3F
  5
11C1F
331
11C40
  5
11C20
331
11C41
  5
11C21
331
11C42
  5
11C22
331
11C43
  5
11C2E
331
11C44
  5
11C2F
331
11C45
  5
11C30
331
11C46
  5
11C31
331
11C47
  5
11C32
331
11C48
  5
11C33
331
11C49
  5
11C34
331
11C4A
  5
11C38
331
11C4B
  5
11C39
331
11C4C
  5
11C3A
331
11C4D
  5
11C3B
331
11C4E
  5
11C3C
331
11C4F
  5
11C3D
331
11C50
  5
11C3E
331
11C51
  5
11C42
331
11C52
  5
11C43
331
11C53
  5
11C44
331
11C54
  5
11C45
331
11C55
  5
11C46
331
11C56
  5
11C47
331
11C57
  5
11C48
  0
MATERIAL
  5
D05A
102
{ACAD_REACTORS
330
18C
102
}
102
{ACAD_XDICTIONARY
360
11C5C
102
}
330
18C
100
AcDbMaterial
  1
BYBLOCK
 72
     0
 73
     2
 43
0.0208333333333333
 43
0.0
 43
0.0
 43
0.0
 43
0.0
 43
0.0208333333333333
 43
0.0
 43
0.0
 43
0.0
 43
0.0
 43
1.0
 43
0.0
 43
0.0
 43
0.0
 43
0.0
 43
1.0
 77
     0
 78
     2
 47
0.0208333333333333
 47
0.0
 47
0.0
 47
0.0
 47
0.0
 47
0.0208333333333333
 47
0.0
 47
0.0
 47
0.0
 47
0.0
 47
1.0
 47
0.0
 47
0.0
 47
0.0
 47
0.0
 47
1.0
171
     0
172
     2
 49
0.0208333333333333
 49
0.0
 49
0.0
 49
0.0
 49
0.0
 49
0.0208333333333333
 49
0.0
 49
0.0
 49
0.0
 49
0.0
 49
1.0
 49
0.0
 49
0.0
 49
0.0
 49
0.0
 49
1.0
175
     0
176
     2
142
0.0208333333333333
142
0.0
142
0.0
142
0.0
142
0.0
142
0.0208333333333333
142
0.0
142
0.0
142
0.0
142
0.0
142
1.0
142
0.0
142
0.0
142
0.0
142
0.0
142
1.0
179
     0
270
     2
144
0.0208333333333333
144
0.0
144
0.0
144
0.0
144
0.0
144
0.0208333333333333
144
0.0
144
0.0
144
0.0
144
0.0
144
1.0
144
0.0
144
0.0
144
0.0
144
0.0
144
1.0
274
     2
147
0.0208333333333333
147
0.0
147
0.0
147
0.0
147
0.0
147
0.0208333333333333
147
0.0
147
0.0
147
0.0
147
0.0
147
1.0
147
0.0
147
0.0
147
0.0
147
0.0
147
1.0
  0
MATERIAL
  5
D052
102
{ACAD_REACTORS
330
18C
102
}
102
{ACAD_XDICTIONARY
360
11C5E
102
}
330
18C
100
AcDbMaterial
  1
BYLAYER
 72
     0
 73
     2
 43
0.0208333333333333
 43
0.0
 43
0.0
 43
0.0
 43
0.0
 43
0.0208333333333333
 43
0.0
 43
0.0
 43
0.0
 43
0.0
 43
1.0
 43
0.0
 43
0.0
 43
0.0
 43
0.0
 43
1.0
 77
     0
 78
     2
 47
0.0208333333333333
 47
0.0
 47
0.0
 47
0.0
 47
0.0
 47
0.0208333333333333
 47
0.0
 47
0.0
 47
0.0
 47
0.0
 47
1.0
 47
0.0
 47
0.0
 47
0.0
 47
0.0
 47
1.0
171
     0
172
     2
 49
0.0208333333333333
 49
0.0
 49
0.0
 49
0.0
 49
0.0
 49
0.0208333333333333
 49
0.0
 49
0.0
 49
0.0
 49
0.0
 49
1.0
 49
0.0
 49
0.0
 49
0.0
 49
0.0
 49
1.0
175
     0
176
     2
142
0.0208333333333333
142
0.0
142
0.0
142
0.0
142
0.0
142
0.0208333333333333
142
0.0
142
0.0
142
0.0
142
0.0
142
1.0
142
0.0
142
0.0
142
0.0
142
0.0
142
1.0
179
     0
270
     2
144
0.0208333333333333
144
0.0
144
0.0
144
0.0
144
0.0
144
0.0208333333333333
144
0.0
144
0.0
144
0.0
144
0.0
144
1.0
144
0.0
144
0.0
144
0.0
144
0.0
144
1.0
274
     2
147
0.0208333333333333
147
0.0
147
0.0
147
0.0
147
0.0
147
0.0208333333333333
147
0.0
147
0.0
147
0.0
147
0.0
147
1.0
147
0.0
147
0.0
147
0.0
147
0.0
147
1.0
  0
MATERIAL
  5
D062
102
{ACAD_REACTORS
330
18C
102
}
102
{ACAD_XDICTIONARY
360
11C60
102
}
330
18C
100
AcDbMaterial
  1
GLOBAL
 72
     0
 73
     2
 43
0.0208333333333333
 43
0.0
 43
0.0
 43
0.0
 43
0.0
 43
0.0208333333333333
 43
0.0
 43
0.0
 43
0.0
 43
0.0
 43
1.0
 43
0.0
 43
0.0
 43
0.0
 43
0.0
 43
1.0
 77
     0
 78
     2
 47
0.0208333333333333
 47
0.0
 47
0.0
 47
0.0
 47
0.0
 47
0.0208333333333333
 47
0.0
 47
0.0
 47
0.0
 47
0.0
 47
1.0
 47
0.0
 47
0.0
 47
0.0
 47
0.0
 47
1.0
171
     0
172
     2
 49
0.0208333333333333
 49
0.0
 49
0.0
 49
0.0
 49
0.0
 49
0.0208333333333333
 49
0.0
 49
0.0
 49
0.0
 49
0.0
 49
1.0
 49
0.0
 49
0.0
 49
0.0
 49
0.0
 49
1.0
175
     0
176
     2
142
0.0208333333333333
142
0.0
142
0.0
142
0.0
142
0.0
142
0.0208333333333333
142
0.0
142
0.0
142
0.0
142
0.0
142
1.0
142
0.0
142
0.0
142
0.0
142
0.0
142
1.0
179
     0
270
     2
144
0.0208333333333333
144
0.0
144
0.0
144
0.0
144
0.0
144
0.0208333333333333
144
0.0
144
0.0
144
0.0
144
0.0
144
1.0
144
0.0
144
0.0
144
0.0
144
0.0
144
1.0
274
     2
147
0.0208333333333333
147
0.0
147
0.0
147
0.0
147
0.0
147
0.0208333333333333
147
0.0
147
0.0
147
0.0
147
0.0
147
1.0
147
0.0
147
0.0
147
0.0
147
0.0
147
1.0
  0
ACAD_PROXY_OBJECT
  5
D09E
102
{ACAD_REACTORS
330
D09D
102
}
330
D09D
100
AcDbZombieObject
 90
      499
 91
      511
 93
      610
310
40901902A4063FBFFFFFE000000000000002040AD7A3703D0AD73F4214DD185B99185C990000000000000104090141901A00000000000004100000000000000041025764000000000000300FC0
340
12
340
0
340
F
340
0
 94
        0
1001
ACAD_MLEADERVER
1070
     2
  0
MLINESTYLE
  5
1C
102
{ACAD_REACTORS
330
1B
102
}
330
1B
100
AcDbMlineStyle
  2
STANDARD
 70
     0
  3

 62
   256
 51
90.0
 52
90.0
 71
     2
 49
0.5
 62
   256
  6
BYLAYER
 49
-0.5
 62
   256
  6
BYLAYER
  0
ACAD_PROXY_OBJECT
  5
D07C
102
{ACAD_REACTORS
330
D07B
102
}
330
D07B
100
AcDbZombieObject
 90
      499
 91
      510
 93
       41
310
903313A31580
  0
ACAD_PROXY_OBJECT
  5
D07D
102
{ACAD_REACTORS
330
D07B
102
}
330
D07B
100
AcDbZombieObject
 90
      499
 91
      510
 93
      105
310
903313A324000000000000004000
  0
ACAD_PROXY_OBJECT
  5
D07E
102
{ACAD_REACTORS
330
D07B
102
}
330
D07B
100
AcDbZombieObject
 90
      499
 91
      510
 93
      105
310
903313A344000000000000104000
  0
ACAD_PROXY_OBJECT
  5
D07F
102
{ACAD_REACTORS
330
D07B
102
}
330
D07B
100
AcDbZombieObject
 90
      499
 91
      510
 93
      105
310
903313A354000000000000144000
  0
ACAD_PROXY_OBJECT
  5
D080
102
{ACAD_REACTORS
330
D07B
102
}
330
D07B
100
AcDbZombieObject
 90
      499
 91
      510
 93
      105
310
903313A384000000000000204000
  0
ACAD_PROXY_OBJECT
  5
D081
102
{ACAD_REACTORS
330
D07B
102
}
330
D07B
100
AcDbZombieObject
 90
      499
 91
      510
 93
      113
310
904313A31304000000000000244000
  0
ACAD_PROXY_OBJECT
  5
D082
102
{ACAD_REACTORS
330
D07B
102
}
330
D07B
100
AcDbZombieObject
 90
      499
 91
      510
 93
      113
310
904313A31364000000000000304000
  0
ACAD_PROXY_OBJECT
  5
D083
102
{ACAD_REACTORS
330
D07B
102
}
330
D07B
100
AcDbZombieObject
 90
      499
 91
      510
 93
      113
310
904313A32304000000000000344000
  0
ACAD_PROXY_OBJECT
  5
D084
102
{ACAD_REACTORS
330
D07B
102
}
330
D07B
100
AcDbZombieObject
 90
      499
 91
      510
 93
      113
310
904313A333040000000000003E4000
  0
ACAD_PROXY_OBJECT
  5
D085
102
{ACAD_REACTORS
330
D07B
102
}
330
D07B
100
AcDbZombieObject
 90
      499
 91
      510
 93
      113
310
904313A34304000000000000444000
  0
ACAD_PROXY_OBJECT
  5
D086
102
{ACAD_REACTORS
330
D07B
102
}
330
D07B
100
AcDbZombieObject
 90
      499
 91
      510
 93
      113
310
904313A35304000000000000494000
  0
ACAD_PROXY_OBJECT
  5
D087
102
{ACAD_REACTORS
330
D07B
102
}
330
D07B
100
AcDbZombieObject
 90
      499
 91
      510
 93
      121
310
905313A3130304000000000000594000
  0
ACAD_PROXY_OBJECT
  5
D088
102
{ACAD_REACTORS
330
D07B
102
}
330
D07B
100
AcDbZombieObject
 90
      499
 91
      510
 93
      105
310
903323A310000000000000010100
  0
ACAD_PROXY_OBJECT
  5
D089
102
{ACAD_REACTORS
330
D07B
102
}
330
D07B
100
AcDbZombieObject
 90
      499
 91
      510
 93
      105
310
903343A310000000000000410100
  0
ACAD_PROXY_OBJECT
  5
D08A
102
{ACAD_REACTORS
330
D07B
102
}
330
D07B
100
AcDbZombieObject
 90
      499
 91
      510
 93
      105
310
903383A310000000000000810100
  0
ACAD_PROXY_OBJECT
  5
D08B
102
{ACAD_REACTORS
330
D07B
102
}
330
D07B
100
AcDbZombieObject
 90
      499
 91
      510
 93
      113
310
90431303A310000000000000910100
  0
ACAD_PROXY_OBJECT
  5
D08C
102
{ACAD_REACTORS
330
D07B
102
}
330
D07B
100
AcDbZombieObject
 90
      499
 91
      510
 93
      121
310
9053130303A310000000000001650100
  0
ACAD_PROXY_OBJECT
  5
D08D
102
{ACAD_REACTORS
330
D07B
102
}
330
D07B
100
AcDbZombieObject
 90
      499
 91
      510
 93
      257
310
90E312F31323822203D2031272D3022000000000000200FC000000000000284000
  0
ACAD_PROXY_OBJECT
  5
D08E
102
{ACAD_REACTORS
330
D07B
102
}
330
D07B
100
AcDbZombieObject
 90
      499
 91
      510
 93
      249
310
90D312F363422203D2031272D3022000000000000240FC000000000000284000
  0
ACAD_PROXY_OBJECT
  5
D08F
102
{ACAD_REACTORS
330
D07B
102
}
330
D07B
100
AcDbZombieObject
 90
      499
 91
      510
 93
      249
310
90D312F333222203D2031272D3022000000000000280FC000000000000284000
  0
ACAD_PROXY_OBJECT
  5
D090
102
{ACAD_REACTORS
330
D07B
102
}
330
D07B
100
AcDbZombieObject
 90
      499
 91
      510
 93
      249
310
90D312F313622203D2031272D30220000000000002C0FC000000000000284000
  0
ACAD_PROXY_OBJECT
  5
D091
102
{ACAD_REACTORS
330
D07B
102
}
330
D07B
100
AcDbZombieObject
 90
      499
 91
      510
 93
      249
310
90D332F333222203D2031272D30220000000000002E0FC000000000000284000
  0
ACAD_PROXY_OBJECT
  5
D092
102
{ACAD_REACTORS
330
D07B
102
}
330
D07B
100
AcDbZombieObject
 90
      499
 91
      510
 93
      241
310
90C312F3822203D2031272D3022000000000000300FC000000000000284000
  0
ACAD_PROXY_OBJECT
  5
D093
102
{ACAD_REACTORS
330
D07B
102
}
330
D07B
100
AcDbZombieObject
 90
      499
 91
      510
 93
      249
310
90D332F313622203D2031272D3022000000000000320FC000000000000284000
  0
ACAD_PROXY_OBJECT
  5
D094
102
{ACAD_REACTORS
330
D07B
102
}
330
D07B
100
AcDbZombieObject
 90
      499
 91
      510
 93
      241
310
90C312F3422203D2031272D3022000000000000340FC000000000000284000
  0
ACAD_PROXY_OBJECT
  5
D095
102
{ACAD_REACTORS
330
D07B
102
}
330
D07B
100
AcDbZombieObject
 90
      499
 91
      510
 93
      241
310
90C332F3822203D2031272D3022000000000000360FC000000000000284000
  0
ACAD_PROXY_OBJECT
  5
D096
102
{ACAD_REACTORS
330
D07B
102
}
330
D07B
100
AcDbZombieObject
 90
      499
 91
      510
 93
      241
310
90C312F3222203D2031272D3022000000000000380FC000000000000284000
  0
ACAD_PROXY_OBJECT
  5
D097
102
{ACAD_REACTORS
330
D07B
102
}
330
D07B
100
AcDbZombieObject
 90
      499
 91
      510
 93
      241
310
90C332F3422203D2031272D30220000000000003A0FC000000000000284000
  0
ACAD_PROXY_OBJECT
  5
D098
102
{ACAD_REACTORS
330
D07B
102
}
330
D07B
100
AcDbZombieObject
 90
      499
 91
      510
 93
      161
310
90A3122203D2031272D30224000000000000284000
  0
ACAD_PROXY_OBJECT
  5
D099
102
{ACAD_REACTORS
330
D07B
102
}
330
D07B
100
AcDbZombieObject
 90
      499
 91
      510
 93
      257
310
90E312D312F3222203D2031272D30220000000000003E0FC000000000000284000
  0
ACAD_PROXY_OBJECT
  5
D09A
102
{ACAD_REACTORS
330
D07B
102
}
330
D07B
100
AcDbZombieObject
 90
      499
 91
      510
 93
      225
310
90A3322203D2031272D302200000000000002100000000000000284000
  0
ACAD_PROXY_OBJECT
  5
D09B
102
{ACAD_REACTORS
330
D07B
102
}
330
D07B
100
AcDbZombieObject
 90
      499
 91
      510
 93
      225
310
90A3622203D2031272D302200000000000006100000000000000284000
  0
ACAD_PROXY_OBJECT
  5
D09C
102
{ACAD_REACTORS
330
D07B
102
}
330
D07B
100
AcDbZombieObject
 90
      499
 91
      510
 93
      249
310
90D31272D3022203D2031272D30220000000000000A100000000000000284000
  0
ACAD_PROXY_OBJECT
  5
D070
102
{ACAD_REACTORS
330
D06A
102
}
330
D06A
100
AcDbZombieObject
 90
      499
 91
      509
 93
      436
310
42CC9915DA5C99599C985B595049028333333333333E3BF0000000000000FB0107901411070040501600405405064090741402480A0340
1001
ACAD
1000
AcDbSavedByObjectVersion
1070
     0
  0
ACAD_PROXY_OBJECT
  5
D072
102
{ACAD_REACTORS
330
D06A
102
}
330
D06A
100
AcDbZombieObject
 90
      499
 91
      509
 93
      500
310
424CD108121A5919195B90640502408333333333333E3BF0000000000000FB01079024090700405020000000000001110200405405064090740C02480A0340
1001
ACAD
1000
AcDbSavedByObjectVersion
1070
     0
  0
ACAD_PROXY_OBJECT
  5
D071
102
{ACAD_REACTORS
330
D06A
102
}
330
D06A
100
AcDbZombieObject
 90
      499
 91
      509
 93
      436
310
42CCD915DA5C99599C985B595059028333333333333E3BF0000000000000FB0107901411070040501600405405064090741402480A0340
1001
ACAD
1000
AcDbSavedByObjectVersion
1070
     0
  0
ACAD_PROXY_OBJECT
  5
D06F
102
{ACAD_REACTORS
330
D06A
102
}
330
D06A
100
AcDbZombieObject
 90
      499
 91
      509
 93
      388
310
4150985CDA58D07406404333333333333E3BF0000000000000FB0107A41107004050150841D405064090741402480A0350
1001
ACAD
1000
AcDbSavedByObjectVersion
1070
     0
  0
ACAD_PROXY_OBJECT
  5
D076
102
{ACAD_REACTORS
330
D06A
102
}
330
D06A
100
AcDbZombieObject
 90
      499
 91
      509
 93
      428
310
42109C9A59DA1D195B90C409028333333333333E3BF0000000000000FB010790141107004050150841D405064090741402480A029950
1001
ACAD
1000
AcDbSavedByObjectVersion
1070
     0
  0
ACAD_PROXY_OBJECT
  5
D07A
102
{ACAD_REACTORS
330
D06A
102
}
330
D06A
100
AcDbZombieObject
 90
      499
 91
      509
 93
      452
310
42D0DBDB1BDC90DA185B99D95104090240C333333333333E3BF0000000000000FB0108901411070040501508421405064090741402480A0350
1001
ACAD
1000
AcDbSavedByObjectVersion
1070
     0
  0
ACAD_PROXY_OBJECT
  5
D073
102
{ACAD_REACTORS
330
D06A
102
}
330
D06A
100
AcDbZombieObject
 90
      499
 91
      509
 93
      500
310
4290DBDB98D95C1D1D585B10940D028333333333333E3BF0000000000000FB0107902409070040501000000000000111010841D405064090740C02480A0340
1001
ACAD
1000
AcDbSavedByObjectVersion
1070
     0
  0
ACAD_PROXY_OBJECT
  5
D075
102
{ACAD_REACTORS
330
D06A
102
}
330
D06A
100
AcDbZombieObject
 90
      499
 91
      509
 93
      412
310
40D11A5B50B409028333333333333E3BF0000000000000FB010790141107004050150841D405064090741402480A02677FFFFFD0
1001
ACAD
1000
AcDbSavedByObjectVersion
1070
     0
  0
ACAD_PROXY_OBJECT
  5
D29F
102
{ACAD_REACTORS
330
D06A
102
}
330
D06A
100
AcDbZombieObject
 90
      499
 91
      509
 93
      452
310
43115919D950DBDB1BDC93D999916409028333333333333E3BF0000000000000FB010790141107004050150841D405064090741402480A0350
1001
ACAD
1000
AcDbSavedByObjectVersion
1070
     0
  0
ACAD_PROXY_OBJECT
  5
D079
102
{ACAD_REACTORS
330
D06A
102
}
330
D06A
100
AcDbZombieObject
 90
      499
 91
      509
 93
      444
310
42D19858D95C185D1D195C9B90F409028333333333333E3BF0000000000000FB010790141107004050150841D405064090741402480A0350
1001
ACAD
1000
AcDbSavedByObjectVersion
1070
     0
  0
ACAD_PROXY_OBJECT
  5
D06B
102
{ACAD_REACTORS
330
D06A
102
}
330
D06A
100
AcDbZombieObject
 90
      499
 91
      509
 93
      388
310
41119B185D240901404333333333333E3BF0000000000000F9010740A41107004050150841D405064090741402480A1B50
1001
ACAD
1000
AcDbSavedByObjectVersion
1070
     0
  0
ACAD_PROXY_OBJECT
  5
D06C
102
{ACAD_REACTORS
330
D06A
102
}
330
D06A
100
AcDbZombieObject
 90
      499
 91
      509
 93
      476
310
43519B185D15DA5D1A115919D95CD0140901404333333333333E3BF0000000000000F9010740901411070040501600405405064090741402480A1B50
1001
ACAD
1000
AcDbSavedByObjectVersion
1070
     0
  0
ACAD_PROXY_OBJECT
  5
D06D
102
{ACAD_REACTORS
330
D06A
102
}
330
D06A
100
AcDbZombieObject
 90
      499
 91
      509
 93
      412
310
41D1DBDD5C985D5910240902404333333333333E3BF0000000000000F9010740A411070040501641D405064090741402480A1B50
1001
ACAD
1000
AcDbSavedByObjectVersion
1070
     0
  0
ACAD_PROXY_OBJECT
  5
D06E
102
{ACAD_REACTORS
330
D06A
102
}
330
D06A
100
AcDbZombieObject
 90
      499
 91
      509
 93
      500
310
4411DBDD5C985D5915DA5D1A115919D95CD0340902404333333333333E3BF0000000000000F9010740901411070040501600405405064090741402480A1B50
1001
ACAD
1000
AcDbSavedByObjectVersion
1070
     0
  0
ACAD_PROXY_OBJECT
  5
1127E
102
{ACAD_REACTORS
330
D06A
102
}
330
D06A
100
AcDbZombieObject
 90
      499
 91
      509
 93
      476
310
41921A5919195B90640502408333333333333E33F0000000000000F901079024090700405020000000000001110200405405064090740C02480A0340
1001
ACAD
1000
AcDbSavedByObjectVersion
1070
     0
  0
ACAD_PROXY_OBJECT
  5
D29D
102
{ACAD_REACTORS
330
D06A
102
}
330
D06A
100
AcDbZombieObject
 90
      499
 91
      509
 93
      428
310
42529A5D1D195C93D999914409028333333333333E3BF0000000000000FB010790141107004050150A41D405064090741402480A0350
1001
ACAD
1000
AcDbSavedByObjectVersion
1070
     0
  0
ACAD_PROXY_OBJECT
  5
D078
102
{ACAD_REACTORS
330
D06A
102
}
330
D06A
100
AcDbZombieObject
 90
      499
 91
      509
 93
      444
310
42D31A5B995C185D1D195C9B90E409028333333333333E3BF0000000000000FB010790141107004050750841D405064090741402483A0350
1001
ACAD
1000
AcDbSavedByObjectVersion
1070
     0
  0
ACAD_PROXY_OBJECT
  5
11284
102
{ACAD_REACTORS
330
D06A
102
}
330
D06A
100
AcDbZombieObject
 90
      499
 91
      509
 93
      484
310
42135BD9195B1A5B99D0A409038333333333333E33F0000000000000F901074090290700405010000000000201990108421405064090741402480A1B40
1001
ACAD
1000
AcDbSavedByObjectVersion
1070
     0
  0
ACAD_PROXY_OBJECT
  5
D29E
102
{ACAD_REACTORS
330
D06A
102
}
330
D06A
100
AcDbZombieObject
 90
      499
 91
      509
 93
      444
310
42D3DD995C9A185B99D3D999915409028333333333333E3BF0000000000000FB010790141107004050150941D405064090741402480A0350
1001
ACAD
1000
AcDbSavedByObjectVersion
1070
     0
  0
ACAD_PROXY_OBJECT
  5
D074
102
{ACAD_REACTORS
330
D06A
102
}
330
D06A
100
AcDbZombieObject
 90
      499
 91
      509
 93
      420
310
425499585B1A5CDD1A58D08409028333333333333E3BF0000000000000FB01079019070040501508421405064090741402480A1B40
1001
ACAD
1000
AcDbSavedByObjectVersion
1070
     0
  0
ACAD_PROXY_OBJECT
  5
11283
102
{ACAD_REACTORS
330
D06A
102
}
330
D06A
100
AcDbZombieObject
 90
      499
 91
      509
 93
      420
310
4194DA1859195911B40902404333333333333E33F0000000000000F9010740A41107004050150800405405064090840C02480A0B40
1001
ACAD
1000
AcDbSavedByObjectVersion
1070
     0
  0
ACAD_PROXY_OBJECT
  5
11282
102
{ACAD_REACTORS
330
D06A
102
}
330
D06A
100
AcDbZombieObject
 90
      499
 91
      509
 93
      516
310
4454DA18591959081DDA5D1A08195919D95CD1A40902404333333333333E33F0000000000000F901074090142907004050250800405405064090740C02480A0B40
1001
ACAD
1000
AcDbSavedByObjectVersion
1070
     0
  0
ACAD_PROXY_OBJECT
  5
1127F
102
{ACAD_REACTORS
330
D06A
102
}
330
D06A
100
AcDbZombieObject
 90
      499
 91
      509
 93
      532
310
4394DA1859195CC81BD98811DC985E5174090240C333333333333E33F0000000000000F901079024090741D01000000000000111010841D405064090740C02480A0340
1001
ACAD
1000
AcDbSavedByObjectVersion
1070
     0
  0
ACAD_PROXY_OBJECT
  5
11280
102
{ACAD_REACTORS
330
D06A
102
}
330
D06A
100
AcDbZombieObject
 90
      499
 91
      509
 93
      476
310
41D4DAD95D18DA1E51840502408333333333333E33F0000000000000F901079024090741D01000000000000111010B41D405064090741802480A0340
1001
ACAD
1000
AcDbSavedByObjectVersion
1070
     0
  0
ACAD_PROXY_OBJECT
  5
D077
102
{ACAD_REACTORS
330
D06A
102
}
330
D06A
100
AcDbZombieObject
 90
      499
 91
      509
 93
      412
310
41D51A1A58DAD95B90D409028333333333333E3BF0000000000000FB010790141107004050150C41D405064090741402480A0350
1001
ACAD
1000
AcDbSavedByObjectVersion
1070
     0
  0
ACAD_PROXY_OBJECT
  5
1127D
102
{ACAD_REACTORS
330
D06A
102
}
330
D06A
100
AcDbZombieObject
 90
      499
 91
      509
 93
      420
310
4255DA5C99599C985B595059028333333333333E33F0000000000000F90107901411070040501600405405064090740C02480A0340
1001
ACAD
1000
AcDbSavedByObjectVersion
1070
     0
  0
ACAD_PROXY_OBJECT
  5
11281
102
{ACAD_REACTORS
330
D06A
102
}
330
D06A
100
AcDbZombieObject
 90
      499
 91
      509
 93
      404
310
41560B54985E51940902404000000000000E03F0000000000000F9010740501907004050150841D405064090740C02480A1B40
1001
ACAD
1000
AcDbSavedByObjectVersion
1070
     0
  0
XRECORD
  5
11C59
102
{ACAD_REACTORS
330
11C58
102
}
330
11C58
100
AcDbXrecord
340
18D
  0
XRECORD
  5
11C5A
102
{ACAD_REACTORS
330
11C58
102
}
330
11C58
100
AcDbXrecord
340
18C
  0
DICTIONARYVAR
  5
1199F
102
{ACAD_REACTORS
330
37
102
}
330
37
100
DictionaryVariables
280
     0
  1
1:1
  0
DICTIONARYVAR
  5
D117
102
{ACAD_REACTORS
330
37
102
}
330
37
100
DictionaryVariables
280
     0
  1
Standard
  0
DICTIONARYVAR
  5
29E
102
{ACAD_REACTORS
330
37
102
}
330
37
100
DictionaryVariables
280
     0
  1
Standard
  0
DICTIONARYVAR
  5
38
102
{ACAD_REACTORS
330
37
102
}
330
37
100
DictionaryVariables
280
     0
  1
-1
  0
DICTIONARYVAR
  5
1CE
102
{ACAD_REACTORS
330
37
102
}
330
37
100
DictionaryVariables
280
     0
  1
2
  0
DICTIONARYVAR
  5
704E
102
{ACAD_REACTORS
330
37
102
}
330
37
100
DictionaryVariables
280
     0
  1
1
  0
DICTIONARYVAR
  5
D11A
102
{ACAD_REACTORS
330
37
102
}
330
37
100
DictionaryVariables
280
     0
  1
0
  0
DICTIONARYVAR
  5
7052
102
{ACAD_REACTORS
330
37
102
}
330
37
100
DictionaryVariables
280
     0
  1
8
  0
DICTIONARYVAR
  5
7051
102
{ACAD_REACTORS
330
37
102
}
330
37
100
DictionaryVariables
280
     0
  1
1
  0
DICTIONARYVAR
  5
119EF
102
{ACAD_REACTORS
330
37
102
}
330
37
100
DictionaryVariables
280
     0
  1
0
  0
DICTIONARYVAR
  5
704F
102
{ACAD_REACTORS
330
37
102
}
330
37
100
DictionaryVariables
280
     0
  1
8
  0
DICTIONARYVAR
  5
7050
102
{ACAD_REACTORS
330
37
102
}
330
37
100
DictionaryVariables
280
     0
  1
2
  0
DICTIONARYVAR
  5
1CF
102
{ACAD_REACTORS
330
37
102
}
330
37
100
DictionaryVariables
280
     0
  1

  0
DICTIONARYVAR
  5
D119
102
{ACAD_REACTORS
330
37
102
}
330
37
100
DictionaryVariables
280
     0
  1
127
  0
DICTIONARYVAR
  5
1127C
102
{ACAD_REACTORS
330
37
102
}
330
37
100
DictionaryVariables
280
     0
  1
2
  0
DICTIONARY
  5
11C5C
330
D05A
100
AcDbDictionary
  3
ACAD_XREC_ROUNDTRIP
360
11C5D
1001
ACAD
1000
TREAT_AS_HARD
1070
     1
  0
DICTIONARY
  5
11C5E
330
D052
100
AcDbDictionary
  3
ACAD_XREC_ROUNDTRIP
360
11C5F
1001
ACAD
1000
TREAT_AS_HARD
1070
     1
  0
DICTIONARY
  5
11C60
330
D062
100
AcDbDictionary
  3
ACAD_XREC_ROUNDTRIP
360
11C61
1001
ACAD
1000
TREAT_AS_HARD
1070
     1
  0
XRECORD
  5
11C5D
102
{ACAD_REACTORS
330
11C5C
102
}
330
11C5C
100
AcDbXrecord
102
MATERIAL
148
0.0
149
0.0
149
0.0
 93
        0
 94
      127
282
     0
 72
     0
 77
     0
171
     0
175
     0
179
     0
273
     0
  0
XRECORD
  5
11C5F
102
{ACAD_REACTORS
330
11C5E
102
}
330
11C5E
100
AcDbXrecord
102
MATERIAL
148
0.0
149
0.0
149
0.0
 93
        0
 94
      127
282
     0
 72
     0
 77
     0
171
     0
175
     0
179
     0
273
     0
  0
XRECORD
  5
11C61
102
{ACAD_REACTORS
330
11C60
102
}
330
11C60
100
AcDbXrecord
102
MATERIAL
148
0.0
149
0.0
149
0.0
 93
        0
 94
      127
282
     0
 72
     0
 77
     0
171
     0
175
     0
179
     0
273
     0
  0
ENDSEC
  0
EOF
