  0
SECTION
  2
HEADER
  9
$ACADVER
  1
AC1012
  9
$DWGCODEPAGE
  3
ansi_932
  9
$INSBASE
 10
0.0
 20
0.0
 30
0.0
  9
$EXTMIN
 10
161.016222541879
 20
-713.3772531893304
 30
0.0
  9
$EXTMAX
 10
795.2185032944293
 20
-460.025441490976
 30
0.0
  9
$LIMMIN
 10
0.0
 20
0.0
  9
$LIMMAX
 10
420.0
 20
297.0
  9
$ORTHOMODE
 70
     0
  9
$REGENMODE
 70
     1
  9
$FILLMODE
 70
     1
  9
$QTEXTMODE
 70
     0
  9
$MIRRTEXT
 70
     0
  9
$DRAGMODE
 70
     2
  9
$LTSCALE
 40
0.5
  9
$OSMODE
 70
  7471
  9
$ATTMODE
 70
     1
  9
$TEXTSIZE
 40
4.0
  9
$TRACEWID
 40
1.0
  9
$TEXTSTYLE
  7
STANDARD
  9
$CLAYER
  8
1TEXT
  9
$CELTYPE
  6
BYLAYER
  9
$CECOLOR
 62
   256
  9
$CELTSCALE
 40
1.0
  9
$DELOBJ
 70
     1
  9
$DISPSILH
 70
     0
  9
$DIMSCALE
 40
1.0
  9
$DIMASZ
 40
2.0
  9
$DIMEXO
 40
0.0
  9
$DIMDLI
 40
7.0
  9
$DIMRND
 40
0.0
  9
$DIMDLE
 40
0.0
  9
$DIMEXE
 40
1.0
  9
$DIMTP
 40
0.0
  9
$DIMTM
 40
0.0
  9
$DIMTXT
 40
3.5
  9
$DIMCEN
 40
0.0
  9
$DIMTSZ
 40
0.0
  9
$DIMTOL
 70
     0
  9
$DIMLIM
 70
     0
  9
$DIMTIH
 70
     0
  9
$DIMTOH
 70
     0
  9
$DIMSE1
 70
     0
  9
$DIMSE2
 70
     0
  9
$DIMTAD
 70
     1
  9
$DIMZIN
 70
     8
  9
$DIMBLK
  1

  9
$DIMASO
 70
     1
  9
$DIMSHO
 70
     1
  9
$DIMPOST
  1
 
  9
$DIMAPOST
  1

  9
$DIMALT
 70
     0
  9
$DIMALTD
 70
     2
  9
$DIMALTF
 40
25.4
  9
$DIMLFAC
 40
1.0
  9
$DIMTOFL
 70
     1
  9
$DIMTVP
 40
0.0
  9
$DIMTIX
 70
     0
  9
$DIMSOXD
 70
     0
  9
$DIMSAH
 70
     1
  9
$DIMBLK1
  1
OPEN30
  9
$DIMBLK2
  1
OPEN30
  9
$DIMSTYLE
  2
NEWX10
  9
$DIMCLRD
 70
   256
  9
$DIMCLRE
 70
   256
  9
$DIMCLRT
 70
   201
  9
$DIMTFAC
 40
0.7
  9
$DIMGAP
 40
0.7
  9
$DIMJUST
 70
     0
  9
$DIMSD1
 70
     0
  9
$DIMSD2
 70
     0
  9
$DIMTOLJ
 70
     1
  9
$DIMTZIN
 70
     8
  9
$DIMALTZ
 70
     0
  9
$DIMALTTZ
 70
     0
  9
$DIMFIT
 70
     2
  9
$DIMUPT
 70
     0
  9
$DIMUNIT
 70
     2
  9
$DIMDEC
 70
     2
  9
$DIMTDEC
 70
     4
  9
$DIMALTU
 70
     2
  9
$DIMALTTD
 70
     2
  9
$DIMTXSTY
  7
STANDARD
  9
$DIMAUNIT
 70
     0
  9
$LUNITS
 70
     2
  9
$LUPREC
 70
     4
  9
$SKETCHINC
 40
1.0
  9
$FILLETRAD
 40
0.0
  9
$AUNITS
 70
     0
  9
$AUPREC
 70
     2
  9
$MENU
  1
acad
  9
$ELEVATION
 40
0.0
  9
$PELEVATION
 40
0.0
  9
$THICKNESS
 40
0.0
  9
$LIMCHECK
 70
     0
  9
$CHAMFERA
 40
1.0
  9
$CHAMFERB
 40
1.0
  9
$CHAMFERC
 40
20.0
  9
$CHAMFERD
 40
0.0
  9
$SKPOLY
 70
     0
  9
$TDCREATE
 40
2453033.732663484
  9
$TDUPDATE
 40
2458092.45206287
  9
$TDINDWG
 40
2.4190426505
  9
$TDUSRTIMER
 40
2.4190426505
  9
$USRTIMER
 70
     1
  9
$ANGBASE
 50
0.0
  9
$ANGDIR
 70
     0
  9
$PDMODE
 70
     0
  9
$PDSIZE
 40
0.0
  9
$PLINEWID
 40
0.0
  9
$COORDS
 70
     3
  9
$SPLFRAME
 70
     0
  9
$SPLINETYPE
 70
     6
  9
$SPLINESEGS
 70
     8
  9
$ATTDIA
 70
     0
  9
$ATTREQ
 70
     1
  9
$HANDLING
 70
     1
  9
$HANDSEED
  5
20909
  9
$SURFTAB1
 70
     6
  9
$SURFTAB2
 70
     6
  9
$SURFTYPE
 70
     6
  9
$SURFU
 70
     6
  9
$SURFV
 70
     6
  9
$UCSNAME
  2

  9
$UCSORG
 10
0.0
 20
0.0
 30
0.0
  9
$UCSXDIR
 10
1.0
 20
0.0
 30
0.0
  9
$UCSYDIR
 10
0.0
 20
1.0
 30
0.0
  9
$PUCSNAME
  2

  9
$PUCSORG
 10
0.0
 20
0.0
 30
0.0
  9
$PUCSXDIR
 10
1.0
 20
0.0
 30
0.0
  9
$PUCSYDIR
 10
0.0
 20
1.0
 30
0.0
  9
$USERI1
 70
     0
  9
$USERI2
 70
     0
  9
$USERI3
 70
     0
  9
$USERI4
 70
     0
  9
$USERI5
 70
     0
  9
$USERR1
 40
0.0
  9
$USERR2
 40
0.0
  9
$USERR3
 40
0.0
  9
$USERR4
 40
0.0
  9
$USERR5
 40
0.0
  9
$WORLDVIEW
 70
     1
  9
$SHADEDGE
 70
     3
  9
$SHADEDIF
 70
    70
  9
$TILEMODE
 70
     1
  9
$MAXACTVP
 70
    48
  9
$PINSBASE
 10
0.0
 20
0.0
 30
0.0
  9
$PLIMCHECK
 70
     0
  9
$PEXTMIN
 10
1.000000000000000E+20
 20
1.000000000000000E+20
 30
1.000000000000000E+20
  9
$PEXTMAX
 10
-1.000000000000000E+20
 20
-1.000000000000000E+20
 30
-1.000000000000000E+20
  9
$PLIMMIN
 10
0.0
 20
0.0
  9
$PLIMMAX
 10
420.0
 20
297.0
  9
$UNITMODE
 70
     0
  9
$VISRETAIN
 70
     1
  9
$PLINEGEN
 70
     0
  9
$PSLTSCALE
 70
     1
  9
$TREEDEPTH
 70
  3020
  9
$PICKSTYLE
 70
     1
  9
$CMLSTYLE
  2
STANDARD
  9
$CMLJUST
 70
     0
  9
$CMLSCALE
 40
20.0
  9
$SAVEIMAGES
 70
     1
  0
ENDSEC
  0
SECTION
  2
CLASSES
  0
CLASS
  1
DICTIONARYVAR
  2
AcDbDictionaryVar
  3
ObjectDBX Classes
 90
        0
280
     0
281
     0
  0
CLASS
  1
IDBUFFER
  2
AcDbIdBuffer
  3
ObjectDBX Classes
 90
    32768
280
     0
281
     0
  0
CLASS
  1
LWPOLYLINE
  2
AcDbPolyline
  3
ObjectDBX Classes
 90
    32768
280
     0
281
     1
  0
CLASS
  1
ACDBDICTIONARYWDFLT
  2
AcDbDictionaryWithDefault
  3
ObjectDBX Classes
 90
    32768
280
     0
281
     0
  0
CLASS
  1
ACDBPLACEHOLDER
  2
AcDbPlaceHolder
  3
ObjectDBX Classes
 90
        0
280
     0
281
     0
  0
CLASS
  1
LAYOUT
  2
AcDbLayout
  3
ObjectDBX Classes
 90
        0
280
     0
281
     0
  0
CLASS
  1
TABLESTYLE
  2
AcDbTableStyle
  3
ObjectDBX Classes
 90
     4095
280
     0
281
     0
  0
CLASS
  1
SORTENTSTABLE
  2
AcDbSortentsTable
  3
ObjectDBX Classes
 90
    32768
280
     0
281
     0
  0
CLASS
  1
DIMASSOC
  2
AcDbDimAssoc
  3
"AcDbDimAssoc|Product Desc:     AcDim ARX App For Dimension|Company:          Autodesk, Inc.|WEB Address:      www.autodesk.com"
 90
        0
280
     0
281
     0
  0
CLASS
  1
MATERIAL
  2
AcDbMaterial
  3
ObjectDBX Classes
 90
     1153
280
     0
281
     0
  0
CLASS
  1
VISUALSTYLE
  2
AcDbVisualStyle
  3
ObjectDBX Classes
 90
     4095
280
     0
281
     0
  0
CLASS
  1
SCALE
  2
AcDbScale
  3
ObjectDBX Classes
 90
     1153
280
     0
281
     0
  0
CLASS
  1
MLEADERSTYLE
  2
AcDbMLeaderStyle
  3
ACDB_MLEADERSTYLE_CLASS
 90
     4095
280
     0
281
     0
  0
CLASS
  1
CELLSTYLEMAP
  2
AcDbCellStyleMap
  3
ObjectDBX Classes
 90
     1152
280
     0
281
     0
  0
CLASS
  1
EXACXREFPANELOBJECT
  2
ExAcXREFPanelObject
  3
EXAC_ESW
 90
     1025
280
     1
281
     0
  0
CLASS
  1
NPOCOLLECTION
  2
AcDbImpNonPersistentObjectsCollection
  3
ObjectDBX Classes
 90
     1153
280
     1
281
     0
  0
CLASS
  1
AEC_REFEDIT_STATUS_TRACKER
  2
AecDbRefEditStatusTracker
  3
AecArchBase60|Product Desc: Autodesk Architectural Desktop 2007 |Company: Autodesk,Inc. |WEB Address: www.autodesk.com
 90
      129
280
     1
281
     0
  0
CLASS
  1
SUN
  2
AcDbSun
  3
SCENEOE
 90
     1153
280
     0
281
     0
  0
CLASS
  1
XRECORD
  2
AcDbXrecord
  3
ObjectDBX Classes
 90
    32768
280
     0
281
     0
  0
CLASS
  1
HATCH
  2
AcDbHatch
  3
ObjectDBX Classes
 90
    32768
280
     0
281
     1
  0
ENDSEC
  0
SECTION
  2
TABLES
  0
TABLE
  2
VPORT
  5
8
330
0
100
AcDbSymbolTable
 70
     1
  0
VPORT
  5
19DC2
330
8
100
AcDbSymbolTableRecord
100
AcDbViewportTableRecord
  2
*ACTIVE
 70
     0
 10
0.0
 20
0.0
 11
1.0
 21
1.0
 12
478.1173629181541
 22
-586.7013473401532
 13
0.0
 23
0.0
 14
10.0
 24
10.0
 15
10.0
 25
10.0
 16
0.0
 26
0.0
 36
1.0
 17
0.0
 27
0.0
 37
0.0
 40
320.7512789280218
 41
2.122931442080378
 42
50.0
 43
0.0
 44
0.0
 50
0.0
 51
0.0
 71
    16
 72
   100
 73
     1
 74
     1
 75
     0
 76
     0
 77
     0
 78
     0
  0
ENDTAB
  0
TABLE
  2
LTYPE
  5
5
330
0
100
AcDbSymbolTable
 70
     3
  0
LTYPE
  5
12
330
5
100
AcDbSymbolTableRecord
100
AcDbLinetypeTableRecord
  2
BYBLOCK
 70
     0
  3

 72
    65
 73
     0
 40
0.0
  0
LTYPE
  5
13
330
5
100
AcDbSymbolTableRecord
100
AcDbLinetypeTableRecord
  2
BYLAYER
 70
     0
  3

 72
    65
 73
     0
 40
0.0
  0
LTYPE
  5
14
330
5
100
AcDbSymbolTableRecord
100
AcDbLinetypeTableRecord
  2
CONTINUOUS
 70
     0
  3
Solid line
 72
    65
 73
     0
 40
0.0
  0
LTYPE
  5
26
330
5
100
AcDbSymbolTableRecord
100
AcDbLinetypeTableRecord
  2
CENTER2
 70
     0
  3
Center (.5x) ___ _ ___ _ ___ _ ___ _ ___ _ ___
 72
    65
 73
     4
 40
28.575
 49
19.05
 74
     0
 49
-3.175
 74
     0
 49
3.175
 74
     0
 49
-3.175
 74
     0
  0
LTYPE
  5
100
330
5
100
AcDbSymbolTableRecord
100
AcDbLinetypeTableRecord
  2
PHANTOM2
 70
     0
  3
Phantom (0.5x) ___ _ _ ___ _ _ ___ _ _ ___ _ _
 72
    65
 73
     6
 40
31.75
 49
15.875
 74
     0
 49
-3.175
 74
     0
 49
3.175
 74
     0
 49
-3.175
 74
     0
 49
3.175
 74
     0
 49
-3.175
 74
     0
  0
ENDTAB
  0
TABLE
  2
LAYER
  5
2
102
{ACAD_XDICTIONARY
360
18FE8
102
}
330
0
100
AcDbSymbolTable
 70
     7
  0
LAYER
  5
E
102
{ACAD_XDICTIONARY
360
1A20A
102
}
330
2
100
AcDbSymbolTableRecord
100
AcDbLayerTableRecord
  2
0
 70
     0
 62
     7
  6
CONTINUOUS
  0
LAYER
  5
29
102
{ACAD_XDICTIONARY
360
1A20C
102
}
330
2
100
AcDbSymbolTableRecord
100
AcDbLayerTableRecord
  2
1CENTER
 70
     0
 62
     7
  6
CENTER2
  0
LAYER
  5
31
102
{ACAD_XDICTIONARY
360
1A20E
102
}
330
2
100
AcDbSymbolTableRecord
100
AcDbLayerTableRecord
  2
1TEXT
 70
     0
 62
     7
  6
CONTINUOUS
  0
LAYER
  5
101
102
{ACAD_XDICTIONARY
360
1A218
102
}
330
2
100
AcDbSymbolTableRecord
100
AcDbLayerTableRecord
  2
1DIM
 70
     0
 62
     7
  6
CONTINUOUS
  0
LAYER
  5
103
102
{ACAD_XDICTIONARY
360
1A21C
102
}
330
2
100
AcDbSymbolTableRecord
100
AcDbLayerTableRecord
  2
1PHANTOM
 70
     0
 62
     7
  6
PHANTOM2
  0
LAYER
  5
25F
102
{ACAD_XDICTIONARY
360
1A220
102
}
330
2
100
AcDbSymbolTableRecord
100
AcDbLayerTableRecord
  2
01
 70
     0
 62
     1
  6
CONTINUOUS
  0
LAYER
  5
26A
102
{ACAD_XDICTIONARY
360
1A236
102
}
330
2
100
AcDbSymbolTableRecord
100
AcDbLayerTableRecord
  2
1DIM1
 70
     0
 62
     7
  6
CONTINUOUS
  0
ENDTAB
  0
TABLE
  2
STYLE
  5
3
330
0
100
AcDbSymbolTable
 70
     1
  0
STYLE
  5
F
330
3
100
AcDbSymbolTableRecord
100
AcDbTextStyleTableRecord
  2
STANDARD
 70
     0
 40
0.0
 41
1.0
 50
0.0
 71
     0
 42
4.0
  3
txt.shx
  4
extfont.shx
  0
ENDTAB
  0
TABLE
  2
VIEW
  5
6
330
0
100
AcDbSymbolTable
 70
     0
  0
ENDTAB
  0
TABLE
  2
UCS
  5
7
330
0
100
AcDbSymbolTable
 70
     0
  0
ENDTAB
  0
TABLE
  2
APPID
  5
9
330
0
100
AcDbSymbolTable
 70
    15
  0
APPID
  5
10
330
9
100
AcDbSymbolTableRecord
100
AcDbRegAppTableRecord
  2
ACAD
 70
     0
  0
APPID
  5
21
330
9
100
AcDbSymbolTableRecord
100
AcDbRegAppTableRecord
  2
DRAWINGVARIABLESXDATA
 70
     0
  0
APPID
  5
64
330
9
100
AcDbSymbolTableRecord
100
AcDbRegAppTableRecord
  2
CONTENTTABDATA
 70
     0
  0
APPID
  5
65
330
9
100
AcDbSymbolTableRecord
100
AcDbRegAppTableRecord
  2
CONTENTCURRENTTAB
 70
     0
  0
APPID
  5
66
330
9
100
AcDbSymbolTableRecord
100
AcDbRegAppTableRecord
  2
CONTENTBLOCKDESCRIPTION
 70
     0
  0
APPID
  5
67
330
9
100
AcDbSymbolTableRecord
100
AcDbRegAppTableRecord
  2
CONTENTBLOCKICON
 70
     0
  0
APPID
  5
68
330
9
100
AcDbSymbolTableRecord
100
AcDbRegAppTableRecord
  2
CONTENTLONGBLOCKNAME
 70
     0
  0
APPID
  5
5A9
330
9
100
AcDbSymbolTableRecord
100
AcDbRegAppTableRecord
  2
ACAD_PSEXT
 70
     0
  0
APPID
  5
18AC
330
9
100
AcDbSymbolTableRecord
100
AcDbRegAppTableRecord
  2
ACAD_DSTYLE_DIMTEXT_FILL
 70
     0
  0
APPID
  5
19E1A
330
9
100
AcDbSymbolTableRecord
100
AcDbRegAppTableRecord
  2
ACAD_MLEADERVER
 70
     0
  0
APPID
  5
1A2FA
330
9
100
AcDbSymbolTableRecord
100
AcDbRegAppTableRecord
  2
ACAD_DSTYLE_DIMRADIAL_EXTE
 70
     0
  0
APPID
  5
1DBC1
330
9
100
AcDbSymbolTableRecord
100
AcDbRegAppTableRecord
  2
ACADANNOTATIVE
 70
     0
  0
APPID
  5
1E991
330
9
100
AcDbSymbolTableRecord
100
AcDbRegAppTableRecord
  2
ACAD_EXEMPT_FROM_CAD_STAND
 70
     0
  0
APPID
  5
1F3D2
330
9
100
AcDbSymbolTableRecord
100
AcDbRegAppTableRecord
  2
ACLAYERTOOLS
 70
     0
  0
APPID
  5
1FDE6
330
9
100
AcDbSymbolTableRecord
100
AcDbRegAppTableRecord
  2
ACDBBLOCKREPETAG
 70
     0
  0
ENDTAB
  0
TABLE
  2
DIMSTYLE
  5
A
330
0
100
AcDbSymbolTable
 70
     1
  0
DIMSTYLE
105
48
330
A
100
AcDbSymbolTableRecord
100
AcDbDimStyleTableRecord
  2
NEWX10
 70
     0
  3
 
  4

  5

  6
OPEN30
  7
OPEN30
 40
1.0
 41
2.0
 42
0.0
 43
7.0
 44
1.0
 45
0.0
 46
0.0
 47
0.0
 48
0.0
140
3.5
141
0.0
142
0.0
143
25.4
144
1.0
145
0.0
146
0.7
147
0.7
 71
     0
 72
     0
 73
     0
 74
     0
 75
     0
 76
     0
 77
     1
 78
     8
170
     0
171
     2
172
     1
173
     1
174
     0
175
     0
176
   256
177
   256
178
   201
179
     2
270
     2
271
     2
272
     4
273
     2
274
     2
340
F
275
     0
280
     0
281
     0
282
     0
283
     1
284
     8
285
     0
286
     0
287
     2
288
     0
  0
ENDTAB
  0
TABLE
  2
BLOCK_RECORD
  5
1
330
0
100
AcDbSymbolTable
 70
     8
  0
BLOCK_RECORD
  5
18
102
{ACAD_XDICTIONARY
360
6E9
102
}
330
1
100
AcDbSymbolTableRecord
100
AcDbBlockTableRecord
  2
*MODEL_SPACE
  0
BLOCK_RECORD
  5
15
102
{ACAD_XDICTIONARY
360
59B
102
}
330
1
100
AcDbSymbolTableRecord
100
AcDbBlockTableRecord
  2
*PAPER_SPACE
  0
BLOCK_RECORD
  5
42
330
1
100
AcDbSymbolTableRecord
100
AcDbBlockTableRecord
  2
_OPEN30
  0
BLOCK_RECORD
  5
1FE36
330
1
100
AcDbSymbolTableRecord
100
AcDbBlockTableRecord
  2
A3WAKUKAWAJUN2017_HYOUDAI_
  0
BLOCK_RECORD
  5
20769
330
1
100
AcDbSymbolTableRecord
100
AcDbBlockTableRecord
  2
*X44
  0
BLOCK_RECORD
  5
207B7
330
1
100
AcDbSymbolTableRecord
100
AcDbBlockTableRecord
  2
*X45
  0
BLOCK_RECORD
  5
20809
330
1
100
AcDbSymbolTableRecord
100
AcDbBlockTableRecord
  2
*X46
  0
BLOCK_RECORD
  5
2085A
330
1
100
AcDbSymbolTableRecord
100
AcDbBlockTableRecord
  2
*X47
  0
BLOCK_RECORD
  5
20897
330
1
100
AcDbSymbolTableRecord
100
AcDbBlockTableRecord
  2
*X48
  0
BLOCK_RECORD
  5
208D7
330
1
100
AcDbSymbolTableRecord
100
AcDbBlockTableRecord
  2
*X49
  0
ENDTAB
  0
ENDSEC
  0
SECTION
  2
BLOCKS
  0
BLOCK
  5
19
330
18
100
AcDbEntity
  8
0
100
AcDbBlockBegin
  2
*MODEL_SPACE
 70
     0
 10
0.0
 20
0.0
 30
0.0
  3
*MODEL_SPACE
  1

  0
ENDBLK
  5
1A
330
18
100
AcDbEntity
  8
0
100
AcDbBlockEnd
  0
BLOCK
  5
16
330
15
100
AcDbEntity
 67
     1
  8
0
100
AcDbBlockBegin
  2
*PAPER_SPACE
 70
     0
 10
0.0
 20
0.0
 30
0.0
  3
*PAPER_SPACE
  1

  0
ENDBLK
  5
17
330
15
100
AcDbEntity
 67
     1
  8
0
100
AcDbBlockEnd
  0
BLOCK
  5
43
330
42
100
AcDbEntity
  8
0
100
AcDbBlockBegin
  2
_OPEN30
 70
     0
 10
0.0
 20
0.0
 30
0.0
  3
_OPEN30
  1

  0
LINE
  5
44
330
42
100
AcDbEntity
  8
0
  6
BYBLOCK
 62
     0
100
AcDbLine
 10
-1.0
 20
0.26794919
 30
0.0
 11
0.0
 21
0.0
 31
0.0
  0
LINE
  5
45
330
42
100
AcDbEntity
  8
0
  6
BYBLOCK
 62
     0
100
AcDbLine
 10
0.0
 20
0.0
 30
0.0
 11
-1.0
 21
-0.26794919
 31
0.0
  0
LINE
  5
46
330
42
100
AcDbEntity
  8
0
  6
BYBLOCK
 62
     0
100
AcDbLine
 10
0.0
 20
0.0
 30
0.0
 11
-1.0
 21
0.0
 31
0.0
  0
ENDBLK
  5
47
330
42
100
AcDbEntity
  8
0
100
AcDbBlockEnd
  0
BLOCK
  5
20535
330
1FE36
100
AcDbEntity
  8
0
100
AcDbBlockBegin
  2
A3WAKUKAWAJUN2017_HYOUDAI_
 70
     0
 10
0.0
 20
0.0
 30
0.0
  3
A3WAKUKAWAJUN2017_HYOUDAI_
  1

  0
LINE
  5
1FE38
330
1FE36
100
AcDbEntity
  8
0
100
AcDbLine
 10
13.26299999998673
 20
-0.0001000000000317
 30
0.0
 11
9.236999999990758
 21
8.999899999990987
 31
0.0
1001
ACAD
1000
ASC_BOUNDS
1002
{
1070
    19
1005
1FE79
1002
}
  0
LINE
  5
1FE39
330
1FE36
100
AcDbEntity
  8
0
100
AcDbLine
 10
5.657999999994331
 20
0.9999999999989768
 30
0.0
 11
9.236999999990758
 21
8.999999999991019
 31
0.0
1001
ACAD
1000
ASC_BOUNDS
1002
{
1070
    19
1005
1FE79
1002
}
  0
LINE
  5
1FE3A
330
1FE36
100
AcDbEntity
  8
0
100
AcDbLine
 10
18.59199999998134
 20
-0.2368999999997641
 30
0.0
 11
16.46099999998353
 21
5.432899999994561
 31
0.0
1001
ACAD
1000
ASC_BOUNDS
1002
{
1070
    19
1005
1FE7A
1002
}
  0
LINE
  5
1FE3B
330
1FE36
100
AcDbEntity
  8
0
100
AcDbLine
 10
18.59199999998134
 20
-0.2368999999997641
 30
0.0
 11
22.38199999997767
 21
8.763099999991255
 31
0.0
1001
ACAD
1000
ASC_BOUNDS
1002
{
1070
    19
1005
1FE7A
1002
}
  0
LINE
  5
1FE3C
330
1FE36
100
AcDbEntity
  8
0
100
AcDbLine
 10
14.32899999998563
 20
-0.2368999999997641
 30
0.0
 11
16.46099999998353
 21
5.432899999994561
 31
0.0
1001
ACAD
1000
ASC_BOUNDS
1002
{
1070
    19
1005
1FE7A
1002
}
  0
LINE
  5
1FE3D
330
1FE36
100
AcDbEntity
  8
0
100
AcDbLine
 10
14.32899999998563
 20
-0.2368999999997641
 30
0.0
 11
10.53899999998941
 21
8.763099999991255
 31
0.0
1001
ACAD
1000
ASC_BOUNDS
1002
{
1070
    19
1005
1FE7A
1002
}
  0
LINE
  5
1FE3E
330
1FE36
100
AcDbEntity
  8
0
100
AcDbLine
 10
19.53899999998043
 20
-0.0001000000000317
 30
0.0
 11
23.56599999997638
 21
8.999899999990987
 31
0.0
1001
ACAD
1000
ASC_BOUNDS
1002
{
1070
    19
1005
1FE7B
1002
}
  0
LINE
  5
1FE3F
330
1FE36
100
AcDbEntity
  8
0
100
AcDbLine
 10
26.97358892824991
 20
1.383099999991202
 30
0.0
 11
23.56599999997638
 21
8.999899999990987
 31
0.0
1001
ACAD
1000
ASC_BOUNDS
1002
{
1070
    19
1005
1FE7B
1002
}
  0
LINE
  5
1FE40
330
1FE36
100
AcDbEntity
  8
0
100
AcDbLine
 10
5.657999999994331
 20
0.9999999999989768
 30
0.0
 11
3.181999999996833
 21
4.668599999995308
 31
0.0
1001
ACAD
1000
ASC_BOUNDS
1002
{
1070
    19
1005
1FE79
1002
}
  0
LINE
  5
1FE41
330
1FE36
100
AcDbEntity
  8
0
100
AcDbLine
 10
4.617999999995391
 20
-0.0001000000000317
 30
0.0
 11
1.420999999998571
 21
4.736799999995242
 31
0.0
1001
ACAD
1000
ASC_BOUNDS
1002
{
1070
    19
1005
1FE79
1002
}
  0
LINE
  5
1FE42
330
1FE36
100
AcDbEntity
  8
0
100
AcDbLine
 10
1.420999999998571
 20
8.763099999991255
 30
0.0
 11
1.420999999998571
 21
0.0
 31
0.0
1001
ACAD
1000
ASC_BOUNDS
1002
{
1070
    19
1005
1FE7E
1002
}
  0
LINE
  5
1FE43
330
1FE36
100
AcDbEntity
  8
0
100
AcDbLine
 10
0.0
 20
8.763099999991255
 30
0.0
 11
0.0
 21
0.0
 31
0.0
1001
ACAD
1000
ASC_BOUNDS
1002
{
1070
    19
1005
1FE7E
1002
}
  0
LINE
  5
1FE44
330
1FE36
100
AcDbEntity
  8
0
100
AcDbLine
 10
6.766999999993232
 20
-0.0001000000000317
 30
0.0
 11
7.826999999992154
 21
2.368399999997621
 31
0.0
1001
ACAD
1000
ASC_BOUNDS
1002
{
1070
    19
1005
1FE79
1002
}
  0
LINE
  5
1FE45
330
1FE36
100
AcDbEntity
  8
0
100
AcDbLine
 10
0.0
 20
0.0
 30
0.0
 11
1.420999999998571
 21
0.0
 31
0.0
1001
ACAD
1000
ASC_BOUNDS
1002
{
1070
    19
1005
1FE7E
1002
}
  0
LINE
  5
1FE46
330
1FE36
100
AcDbEntity
  8
0
100
AcDbLine
 10
4.617999999995391
 20
0.0
 30
0.0
 11
6.766999999993232
 21
0.0
 31
0.0
1001
ACAD
1000
ASC_BOUNDS
1002
{
1070
    19
1005
1FE79
1002
}
  0
LINE
  5
1FE47
330
1FE36
100
AcDbEntity
  8
0
100
AcDbLine
 10
11.70599999998831
 20
-0.0001000000000317
 30
0.0
 11
10.64699999998936
 21
2.368399999997621
 31
0.0
1001
ACAD
1000
ASC_BOUNDS
1002
{
1070
    19
1005
1FE79
1002
}
  0
LINE
  5
1FE48
330
1FE36
100
AcDbEntity
  8
0
100
AcDbLine
 10
7.826999999992154
 20
2.368399999997621
 30
0.0
 11
10.64699999998936
 21
2.368399999997621
 31
0.0
1001
ACAD
1000
ASC_BOUNDS
1002
{
1070
    19
1005
1FE79
1002
}
  0
LINE
  5
1FE49
330
1FE36
100
AcDbEntity
  8
0
100
AcDbLine
 10
11.70599999998831
 20
0.0
 30
0.0
 11
13.26299999998673
 21
0.0
 31
0.0
1001
ACAD
1000
ASC_BOUNDS
1002
{
1070
    19
1005
1FE79
1002
}
  0
LINE
  5
1FE4A
330
1FE36
100
AcDbEntity
  8
0
100
AcDbLine
 10
22.15599999997789
 20
2.368399999997621
 30
0.0
 11
24.97599999997499
 21
2.368399999997621
 31
0.0
1001
ACAD
1000
ASC_BOUNDS
1002
{
1070
    19
1005
1FE7B
1002
}
  0
LINE
  5
1FE4B
330
1FE36
100
AcDbEntity
  8
0
100
AcDbLine
 10
19.53899999998043
 20
0.0
 30
0.0
 11
21.09599999997886
 21
0.0
 31
0.0
1001
ACAD
1000
ASC_BOUNDS
1002
{
1070
    19
1005
1FE7B
1002
}
  0
LINE
  5
1FE4C
330
1FE36
100
AcDbEntity
  8
0
100
AcDbLine
 10
21.09599999997886
 20
-0.0001000000000317
 30
0.0
 11
22.15599999997789
 21
2.368399999997621
 31
0.0
1001
ACAD
1000
ASC_BOUNDS
1002
{
1070
    19
1005
1FE7B
1002
}
  0
LINE
  5
1FE4D
330
1FE36
100
AcDbEntity
  8
0
100
AcDbLine
 10
26.02015566812236
 20
0.0330999999912365
 30
0.0
 11
24.97599999997499
 21
2.368399999997621
 31
0.0
1001
ACAD
1000
ASC_BOUNDS
1002
{
1070
    19
1005
1FE7B
1002
}
  0
LINE
  5
1FE4E
330
1FE36
100
AcDbEntity
  8
0
100
AcDbLine
 10
14.32399999998563
 20
3.315799999996671
 30
0.0
 11
16.46099999998353
 21
8.999899999990987
 31
0.0
1001
ACAD
1000
ASC_BOUNDS
1002
{
1070
    19
1005
1FE7A
1002
}
  0
LINE
  5
1FE4F
330
1FE36
100
AcDbEntity
  8
0
100
AcDbLine
 10
6.432999999993513
 20
8.763099999991255
 30
0.0
 11
3.181999999996833
 21
4.668599999995308
 31
0.0
1001
ACAD
1000
ASC_BOUNDS
1002
{
1070
    19
1005
1FE79
1002
}
  0
LINE
  5
1FE50
330
1FE36
100
AcDbEntity
  8
0
100
AcDbLine
 10
4.617999999995391
 20
8.763099999991255
 30
0.0
 11
1.420999999998571
 21
4.736799999995242
 31
0.0
1001
ACAD
1000
ASC_BOUNDS
1002
{
1070
    19
1005
1FE79
1002
}
  0
LINE
  5
1FE51
330
1FE36
100
AcDbEntity
  8
0
100
AcDbLine
 10
0.0
 20
8.763099999991255
 30
0.0
 11
1.420999999998571
 21
8.763099999991255
 31
0.0
1001
ACAD
1000
ASC_BOUNDS
1002
{
1070
    19
1005
1FE7E
1002
}
  0
LINE
  5
1FE52
330
1FE36
100
AcDbEntity
  8
0
100
AcDbLine
 10
4.617999999995391
 20
8.763099999991255
 30
0.0
 11
6.432999999993513
 21
8.763099999991255
 31
0.0
1001
ACAD
1000
ASC_BOUNDS
1002
{
1070
    19
1005
1FE79
1002
}
  0
LINE
  5
1FE53
330
1FE36
100
AcDbEntity
  8
0
100
AcDbLine
 10
14.32399999998563
 20
3.315799999996671
 30
0.0
 11
12.02999999998792
 21
8.763099999991255
 31
0.0
1001
ACAD
1000
ASC_BOUNDS
1002
{
1070
    19
1005
1FE7A
1002
}
  0
LINE
  5
1FE54
330
1FE36
100
AcDbEntity
  8
0
100
AcDbLine
 10
10.06399999998996
 20
3.670999999996297
 30
0.0
 11
9.236999999990758
 21
5.5200999999945
 31
0.0
1001
ACAD
1000
ASC_BOUNDS
1002
{
1070
    19
1005
1FE79
1002
}
  0
LINE
  5
1FE55
330
1FE36
100
AcDbEntity
  8
0
100
AcDbLine
 10
8.409999999991555
 20
3.670999999996297
 30
0.0
 11
9.236999999990758
 21
5.5200999999945
 31
0.0
1001
ACAD
1000
ASC_BOUNDS
1002
{
1070
    19
1005
1FE79
1002
}
  0
LINE
  5
1FE56
330
1FE36
100
AcDbEntity
  8
0
100
AcDbLine
 10
8.409999999991555
 20
3.670999999996297
 30
0.0
 11
10.06399999998996
 21
3.670999999996297
 31
0.0
1001
ACAD
1000
ASC_BOUNDS
1002
{
1070
    19
1005
1FE79
1002
}
  0
LINE
  5
1FE57
330
1FE36
100
AcDbEntity
  8
0
100
AcDbLine
 10
10.53899999998941
 20
8.763099999991255
 30
0.0
 11
12.02999999998792
 21
8.763099999991255
 31
0.0
1001
ACAD
1000
ASC_BOUNDS
1002
{
1070
    19
1005
1FE7A
1002
}
  0
LINE
  5
1FE58
330
1FE36
100
AcDbEntity
  8
0
100
AcDbLine
 10
22.7389999999773
 20
3.670999999996297
 30
0.0
 11
23.56599999997638
 21
5.5200999999945
 31
0.0
1001
ACAD
1000
ASC_BOUNDS
1002
{
1070
    19
1005
1FE7B
1002
}
  0
LINE
  5
1FE59
330
1FE36
100
AcDbEntity
  8
0
100
AcDbLine
 10
22.7389999999773
 20
3.670999999996297
 30
0.0
 11
24.39299999997559
 21
3.670999999996297
 31
0.0
1001
ACAD
1000
ASC_BOUNDS
1002
{
1070
    19
1005
1FE7B
1002
}
  0
LINE
  5
1FE5A
330
1FE36
100
AcDbEntity
  8
0
100
AcDbLine
 10
18.59799999998143
 20
3.315799999996671
 30
0.0
 11
20.89099999997916
 21
8.763099999991255
 31
0.0
1001
ACAD
1000
ASC_BOUNDS
1002
{
1070
    19
1005
1FE7A
1002
}
  0
LINE
  5
1FE5B
330
1FE36
100
AcDbEntity
  8
0
100
AcDbLine
 10
18.59799999998143
 20
3.315799999996671
 30
0.0
 11
16.46099999998353
 21
8.999899999990987
 31
0.0
1001
ACAD
1000
ASC_BOUNDS
1002
{
1070
    19
1005
1FE7A
1002
}
  0
LINE
  5
1FE5C
330
1FE36
100
AcDbEntity
  8
0
100
AcDbLine
 10
20.89099999997916
 20
8.763099999991255
 30
0.0
 11
22.38199999997767
 21
8.763099999991255
 31
0.0
1001
ACAD
1000
ASC_BOUNDS
1002
{
1070
    19
1005
1FE7A
1002
}
  0
LINE
  5
1FE5D
330
1FE36
100
AcDbEntity
  8
0
100
AcDbLine
 10
24.39299999997559
 20
3.670999999996297
 30
0.0
 11
23.56599999997638
 21
5.5200999999945
 31
0.0
1001
ACAD
1000
ASC_BOUNDS
1002
{
1070
    19
1005
1FE7B
1002
}
  0
LINE
  5
1FE5E
330
1FE36
100
AcDbEntity
  8
0
100
AcDbLine
 10
44.99999999995498
 20
-0.2368999999997641
 30
0.0
 11
40.02599999995994
 21
5.341799999994635
 31
0.0
1001
ACAD
1000
ASC_BOUNDS
1002
{
1070
    19
1005
1FE7D
1002
}
  0
LINE
  5
1FE5F
330
1FE36
100
AcDbEntity
  8
0
100
AcDbLine
 10
40.02599999995994
 20
5.341799999994635
 30
0.0
 11
40.02599999995994
 21
0.0
 31
0.0
1001
ACAD
1000
ASC_BOUNDS
1002
{
1070
    19
1005
1FE7D
1002
}
  0
LINE
  5
1FE60
330
1FE36
100
AcDbEntity
  8
0
100
AcDbLine
 10
38.60499999996136
 20
8.999999999991019
 30
0.0
 11
38.60499999996136
 21
0.0
 31
0.0
1001
ACAD
1000
ASC_BOUNDS
1002
{
1070
    19
1005
1FE7D
1002
}
  0
LINE
  5
1FE61
330
1FE36
100
AcDbEntity
  8
0
100
AcDbLine
 10
44.99999999995498
 20
8.763099999991255
 30
0.0
 11
44.99999999995498
 21
-0.2368999999997641
 31
0.0
1001
ACAD
1000
ASC_BOUNDS
1002
{
1070
    19
1005
1FE7D
1002
}
  0
LINE
  5
1FE62
330
1FE36
100
AcDbEntity
  8
0
100
AcDbLine
 10
38.60499999996136
 20
0.0
 30
0.0
 11
40.02599999995994
 21
0.0
 31
0.0
1001
ACAD
1000
ASC_BOUNDS
1002
{
1070
    19
1005
1FE7D
1002
}
  0
LINE
  5
1FE63
330
1FE36
100
AcDbEntity
  8
0
100
AcDbLine
 10
43.57899999995641
 20
3.421199999996588
 30
0.0
 11
38.60499999996136
 21
8.999899999990987
 31
0.0
1001
ACAD
1000
ASC_BOUNDS
1002
{
1070
    19
1005
1FE7D
1002
}
  0
LINE
  5
1FE64
330
1FE36
100
AcDbEntity
  8
0
100
AcDbLine
 10
43.57899999995641
 20
8.763099999991255
 30
0.0
 11
43.57899999995641
 21
3.421199999996588
 31
0.0
1001
ACAD
1000
ASC_BOUNDS
1002
{
1070
    19
1005
1FE7D
1002
}
  0
LINE
  5
1FE65
330
1FE36
100
AcDbEntity
  8
0
100
AcDbLine
 10
43.57899999995641
 20
8.763099999991255
 30
0.0
 11
44.99999999995498
 21
8.763099999991255
 31
0.0
1001
ACAD
1000
ASC_BOUNDS
1002
{
1070
    19
1005
1FE7D
1002
}
  0
LINE
  5
1FE66
330
1FE36
100
AcDbEntity
  8
0
100
AcDbLine
 10
37.67199999996831
 20
8.763099999991255
 30
0.0
 11
36.23199999996837
 21
8.763099999991255
 31
0.0
  0
LINE
  5
1FE67
330
1FE36
100
AcDbEntity
  8
0
100
AcDbLine
 10
31.64199999996833
 20
8.763099999991255
 30
0.0
 11
31.64199999996833
 21
2.481619422925121
 31
0.0
  0
LINE
  5
1FE68
330
1FE36
100
AcDbEntity
  8
0
100
AcDbLine
 10
37.67199999996831
 20
8.763099999991255
 30
0.0
 11
37.67199999996831
 21
2.481619422925121
 31
0.0
  0
LINE
  5
1FE69
330
1FE36
100
AcDbEntity
  8
0
100
AcDbLine
 10
36.23199999996837
 20
8.763099999991255
 30
0.0
 11
36.23199999996837
 21
2.481619422925064
 31
0.0
  0
LINE
  5
1FE6A
330
1FE36
100
AcDbEntity
  8
0
100
AcDbLine
 10
33.08199999996839
 20
8.763099999991255
 30
0.0
 11
33.08199999996839
 21
2.481619422925121
 31
0.0
  0
ARC
  5
1FE6B
330
1FE36
100
AcDbEntity
  8
0
100
AcDbCircle
 10
34.65699999996832
 20
3.183099999991214
 30
0.0
 40
3.420000000000007
100
AcDbArc
 50
240.0000000000255
 51
299.9999999999766
  0
ARC
  5
1FE6C
330
1FE36
100
AcDbEntity
  8
0
100
AcDbCircle
 10
34.65699999996832
 20
3.183099999991214
 30
0.0
 40
1.97999999999999
100
AcDbArc
 50
240.000000000026
 51
299.9999999999703
  0
LINE
  5
1FE6D
330
1FE36
100
AcDbEntity
  8
0
100
AcDbLine
 10
33.08199999996828
 20
8.763099999991255
 30
0.0
 11
31.64199999996833
 21
8.763099999991255
 31
0.0
  0
ARC
  5
1FE6E
330
1FE36
100
AcDbEntity
  8
0
100
AcDbCircle
 10
35.06199999996829
 20
2.481619422925064
 30
0.0
 40
1.17
100
AcDbArc
 50
299.9999999999699
 51
0.0
  0
ARC
  5
1FE6F
330
1FE36
100
AcDbEntity
  8
0
100
AcDbCircle
 10
34.25199999996835
 20
2.481619422925121
 30
0.0
 40
1.17
100
AcDbArc
 50
180.0
 51
240.0000000000238
  0
ARC
  5
1FE70
330
1FE36
100
AcDbEntity
  8
0
100
AcDbCircle
 10
35.06199999996841
 20
2.481619422925121
 30
0.0
 40
2.61
100
AcDbArc
 50
299.9999999999756
 51
0.0
  0
ARC
  5
1FE71
330
1FE36
100
AcDbEntity
  8
0
100
AcDbCircle
 10
34.25199999996835
 20
2.481619422925121
 30
0.0
 40
2.61
100
AcDbArc
 50
180.0
 51
240.0000000000244
  0
LINE
  5
1FE72
330
1FE36
100
AcDbEntity
  8
0
100
AcDbLine
 10
29.30199999996933
 20
8.763099999991255
 30
0.0
 11
30.74199999996927
 21
8.763099999991255
 31
0.0
1001
ACAD
1000
ASC_BOUNDS
1002
{
1070
    19
1005
1FE7B
1002
}
  0
LINE
  5
1FE73
330
1FE36
100
AcDbEntity
  8
0
100
AcDbLine
 10
30.74199999996927
 20
8.763099999991255
 30
0.0
 11
30.74199999996927
 21
2.373099999991211
 31
0.0
1001
ACAD
1000
ASC_BOUNDS
1002
{
1070
    19
1005
1FE7B
1002
}
  0
LINE
  5
1FE74
330
1FE36
100
AcDbEntity
  8
0
100
AcDbLine
 10
26.02015566812236
 20
0.0330999999912365
 30
0.0
 11
28.40199999996923
 21
0.0330999999912365
 31
0.0
1001
ACAD
1000
ASC_BOUNDS
1002
{
1070
    19
1005
1FE7B
1002
}
  0
LINE
  5
1FE75
330
1FE36
100
AcDbEntity
  8
0
100
AcDbLine
 10
29.30199999996933
 20
8.763099999991255
 30
0.0
 11
29.30199999996933
 21
2.283099999991236
 31
0.0
1001
ACAD
1000
ASC_BOUNDS
1002
{
1070
    19
1005
1FE7B
1002
}
  0
LINE
  5
1FE76
330
1FE36
100
AcDbEntity
  8
0
100
AcDbLine
 10
26.97358892824991
 20
1.383099999991202
 30
0.0
 11
28.40199999996923
 21
1.383099999991202
 31
0.0
1001
ACAD
1000
ASC_BOUNDS
1002
{
1070
    19
1005
1FE7B
1002
}
  0
ARC
  5
1FE77
330
1FE36
100
AcDbEntity
  8
0
100
AcDbCircle
 10
28.40199999996923
 20
2.283099999991236
 30
0.0
 40
0.9
100
AcDbArc
 50
270.0
 51
0.0
1001
ACAD
1000
ASC_BOUNDS
1002
{
1070
    19
1005
1FE7B
1002
}
  0
ARC
  5
1FE78
330
1FE36
100
AcDbEntity
  8
0
100
AcDbCircle
 10
28.40199999996923
 20
2.373099999991211
 30
0.0
 40
2.34
100
AcDbArc
 50
270.0
 51
0.0
1001
ACAD
1000
ASC_BOUNDS
1002
{
1070
    19
1005
1FE7B
1002
}
  0
INSERT
  5
1FE79
330
1FE36
100
AcDbEntity
  8
0
100
AcDbBlockReference
  2
*X44
 10
0.0
 20
0.0
 30
0.0
1001
ACAD
1000
HATCH
1002
{
1070
    19
1000
ANSI37
1040
0.15
1040
0.0
1000
ASC_BOUNDS
1070
     2
1070
     2
1070
    12
1005
1FE38
1005
1FE39
1005
1FE40
1005
1FE4F
1005
1FE52
1005
1FE50
1005
1FE41
1005
1FE46
1005
1FE44
1005
1FE48
1005
1FE47
1005
1FE49
1070
     2
1070
     3
1005
1FE54
1005
1FE56
1005
1FE55
1000
ASC_SEEDPOINT
1011
3.614004224891801
1021
2.996669441146025
1031
0.0
1000
R14_HATCH_DATA
1000
1FE79
1011
1.0
1021
0.0
1031
0.0
1011
0.0
1021
1.0
1031
0.0
1011
0.0
1021
0.0
1031
1.0
1040
0.0
1010
0.0
1020
0.0
1030
1.0
1000
ANSI37
1070
     0
1070
     1
1071
        2
1071
        7
1070
     0
1070
     1
1071
       17
1040
13.26299999998673
1040
-0.0001000000000317
1040
9.236999999990758
1040
8.999899999990987
1040
9.236999999990758
1040
8.999999999991019
1040
5.657999999994331
1040
0.9999999999989768
1040
3.181999999996833
1040
4.668599999995308
1040
6.432999999993513
1040
8.763099999991255
1040
4.617999999995391
1040
8.763099999991255
1040
1.420999999998571
1040
4.736799999995242
1040
4.617999999995391
1040
-0.0001000000000317
1040
4.617999999995391
1040
0.0
1040
6.766999999993232
1040
0.0
1040
6.766999999993232
1040
-0.0001000000000317
1040
7.826999999992154
1040
2.368399999997621
1040
10.64699999998936
1040
2.368399999997621
1040
11.70599999998831
1040
-0.0001000000000317
1040
11.70599999998831
1040
0.0
1040
13.26299999998673
1040
0.0
1071
       12
1005
1FE38
1005
1FE39
1005
1FE40
1005
1FE4F
1005
1FE52
1005
1FE50
1005
1FE41
1005
1FE46
1005
1FE44
1005
1FE48
1005
1FE47
1005
1FE49
1071
       22
1070
     0
1070
     1
1071
        3
1040
9.236999999990758
1040
5.5200999999945
1040
10.06399999998996
1040
3.670999999996297
1040
8.409999999991555
1040
3.670999999996297
1071
        3
1005
1FE54
1005
1FE56
1005
1FE55
1070
     0
1070
     1
1040
0.0
1040
0.15
1070
     0
1070
     2
1040
0.7853981633974483
1040
49.29960901727088
1040
-10.17736998311392
1040
-0.3367596045400932
1040
0.3367596045400932
1070
     0
1040
2.356194490192345
1040
49.29960901727088
1040
-10.17736998311392
1040
-0.3367596045400932
1040
-0.3367596045400932
1070
     0
1040
0.0110235143455945
1071
        2
1040
3.614004224891801
1040
2.996669441146025
1040
0.0
1040
3.614004224891801
1040
2.996669441146025
1040
0.0
1002
}
  0
INSERT
  5
1FE7A
330
1FE36
100
AcDbEntity
  8
0
100
AcDbBlockReference
  2
*X45
 10
0.0
 20
0.0
 30
0.0
1001
ACAD
1000
HATCH
1002
{
1070
    19
1000
ANSI37
1040
0.15
1040
0.0
1000
ASC_BOUNDS
1070
     1
1070
     2
1070
    10
1005
1FE3A
1005
1FE3B
1005
1FE5C
1005
1FE5A
1005
1FE5B
1005
1FE4E
1005
1FE53
1005
1FE57
1005
1FE3D
1005
1FE3C
1000
ASC_SEEDPOINT
1011
14.73245321214324
1021
2.798246178283421
1031
0.0
1000
R14_HATCH_DATA
1000
1FE7A
1011
1.0
1021
0.0
1031
0.0
1011
0.0
1021
1.0
1031
0.0
1011
0.0
1021
0.0
1031
1.0
1040
0.0
1010
0.0
1020
0.0
1030
1.0
1000
ANSI37
1070
     0
1070
     1
1071
        1
1071
        7
1070
     0
1070
     1
1071
       10
1040
16.46099999998353
1040
5.432899999994561
1040
18.59199999998134
1040
-0.2368999999997641
1040
22.38199999997767
1040
8.763099999991255
1040
20.89099999997916
1040
8.763099999991255
1040
18.59799999998143
1040
3.315799999996671
1040
16.46099999998353
1040
8.999899999990987
1040
14.32399999998563
1040
3.315799999996671
1040
12.02999999998792
1040
8.763099999991255
1040
10.53899999998941
1040
8.763099999991255
1040
14.32899999998563
1040
-0.2368999999997641
1071
       10
1005
1FE3A
1005
1FE3B
1005
1FE5C
1005
1FE5A
1005
1FE5B
1005
1FE4E
1005
1FE53
1005
1FE57
1005
1FE3D
1005
1FE3C
1070
     0
1070
     1
1040
0.0
1040
0.15
1070
     0
1070
     2
1040
0.7853981633974483
1040
49.29960901727088
1040
-10.17736998311392
1040
-0.3367596045400932
1040
0.3367596045400932
1070
     0
1040
2.356194490192345
1040
49.29960901727088
1040
-10.17736998311392
1040
-0.3367596045400932
1040
-0.3367596045400932
1070
     0
1040
0.0110235143455945
1071
        1
1040
14.73245321214324
1040
2.798246178283421
1040
0.0
1002
}
  0
INSERT
  5
1FE7B
330
1FE36
100
AcDbEntity
  8
0
100
AcDbBlockReference
  2
*X46
 10
0.0
 20
0.0
 30
0.0
1001
ACAD
1000
HATCH
1002
{
1070
    19
1000
ANSI37
1040
0.15
1040
0.0
1000
ASC_BOUNDS
1070
     2
1070
     2
1070
    13
1005
1FE3E
1005
1FE4B
1005
1FE4C
1005
1FE4A
1005
1FE4D
1005
1FE74
1005
1FE78
1005
1FE73
1005
1FE72
1005
1FE75
1005
1FE77
1005
1FE76
1005
1FE3F
1070
     2
1070
     3
1005
1FE58
1005
1FE5D
1005
1FE59
1000
ASC_SEEDPOINT
1011
21.97929957367762
1021
3.294304244259308
1031
0.0
1000
R14_HATCH_DATA
1000
1FE7B
1011
1.0
1021
0.0
1031
0.0
1011
0.0
1021
1.0
1031
0.0
1011
0.0
1021
0.0
1031
1.0
1040
0.0
1010
0.0
1020
0.0
1030
1.0
1000
ANSI37
1070
     0
1070
     1
1071
        2
1071
        7
1070
     1
1070
     1
1071
       15
1040
23.56599999997638
1040
8.999899999990987
1040
0.0
1040
19.53899999998043
1040
-0.0001000000000317
1040
0.0
1040
19.53899999998043
1040
0.0
1040
0.0
1040
21.09599999997886
1040
0.0
1040
0.0
1040
21.09599999997886
1040
-0.0001000000000317
1040
0.0
1040
22.15599999997789
1040
2.368399999997621
1040
0.0
1040
24.97599999997499
1040
2.368399999997621
1040
0.0
1040
26.02015566812236
1040
0.0330999999912365
1040
0.0
1040
28.40199999996923
1040
0.0330999999912365
1040
0.414213562373095
1040
30.74199999996923
1040
2.373099999991211
1040
0.0
1040
30.74199999996927
1040
8.763099999991255
1040
0.0
1040
29.30199999996933
1040
8.763099999991255
1040
0.0
1040
29.30199999996933
1040
2.283099999991236
1040
-0.414213562373095
1040
28.40199999996923
1040
1.383099999991237
1040
0.0
1040
26.97358892824991
1040
1.383099999991202
1040
0.0
1071
       13
1005
1FE3E
1005
1FE4B
1005
1FE4C
1005
1FE4A
1005
1FE4D
1005
1FE74
1005
1FE78
1005
1FE73
1005
1FE72
1005
1FE75
1005
1FE77
1005
1FE76
1005
1FE3F
1071
       22
1070
     0
1070
     1
1071
        3
1040
22.7389999999773
1040
3.670999999996297
1040
23.56599999997638
1040
5.5200999999945
1040
24.39299999997559
1040
3.670999999996297
1071
        3
1005
1FE58
1005
1FE5D
1005
1FE59
1070
     0
1070
     1
1040
0.0
1040
0.15
1070
     0
1070
     2
1040
0.7853981633974483
1040
49.29960901727088
1040
-10.17736998311392
1040
-0.3367596045400932
1040
0.3367596045400932
1070
     0
1040
2.356194490192345
1040
49.29960901727088
1040
-10.17736998311392
1040
-0.3367596045400932
1040
-0.3367596045400932
1070
     0
1040
0.0110235143455945
1071
        2
1040
21.97929957367762
1040
3.294304244259308
1040
0.0
1040
21.97929957367762
1040
3.294304244259308
1040
0.0
1002
}
  0
INSERT
  5
1FE7C
330
1FE36
100
AcDbEntity
  8
0
100
AcDbBlockReference
  2
*X47
 10
0.0
 20
0.0
 30
0.0
1001
ACAD
1000
HATCH
1002
{
1070
    19
1000
ANSI37
1040
0.15
1040
0.0
1000
R14_HATCH_DATA
1000
1FE7C
1011
1.0
1021
0.0
1031
0.0
1011
0.0
1021
1.0
1031
0.0
1011
0.0
1021
0.0
1031
1.0
1040
0.0
1010
0.0
1020
0.0
1030
1.0
1000
ANSI37
1070
     0
1070
     1
1071
        1
1071
        7
1070
     1
1070
     1
1071
       12
1040
31.64199999996833
1040
2.481619422925121
1040
0.2679491924310942
1040
32.94699999997067
1040
0.2212931190493919
1040
0.2679491924301353
1040
36.36699999995983
1040
0.2212931190459813
1040
0.2679491924321411
1040
37.67199999996831
1040
2.481619422928361
1040
0.0
1040
37.67199999996831
1040
8.763099999991255
1040
0.0
1040
36.23199999996837
1040
8.763099999991255
1040
0.0
1040
36.23199999996837
1040
2.481619422925064
1040
-0.2679491924310291
1040
35.64699999996708
1040
1.468369700498386
1040
-0.267949192430519
1040
33.66699999997093
1040
1.468369700497703
1040
-0.267949192431809
1040
33.08199999996839
1040
2.481619422926997
1040
0.0
1040
33.08199999996839
1040
8.763099999991255
1040
0.0
1040
31.64199999996833
1040
8.763099999991255
1040
0.0
1071
        0
1070
     0
1070
     1
1040
0.0
1040
0.15
1070
     0
1070
     2
1040
0.7853981633974483
1040
49.29960901727088
1040
-10.17736998311392
1040
-0.3367596045400932
1040
0.3367596045400932
1070
     0
1040
2.356194490192345
1040
49.29960901727088
1040
-10.17736998311392
1040
-0.3367596045400932
1040
-0.3367596045400932
1070
     0
1040
0.0110235143455945
1071
        1
1040
32.30357378967278
1040
3.988785755459219
1040
0.0
1002
}
  0
INSERT
  5
1FE7D
330
1FE36
100
AcDbEntity
  8
0
100
AcDbBlockReference
  2
*X48
 10
0.0
 20
0.0
 30
0.0
1001
ACAD
1000
HATCH
1002
{
1070
    19
1000
ANSI37
1040
0.15
1040
0.0
1000
ASC_BOUNDS
1070
     1
1070
     2
1070
     8
1005
1FE5E
1005
1FE61
1005
1FE65
1005
1FE64
1005
1FE63
1005
1FE60
1005
1FE62
1005
1FE5F
1000
ASC_SEEDPOINT
1011
39.74896370716704
1021
4.484843821435049
1031
0.0
1000
R14_HATCH_DATA
1000
1FE7D
1011
1.0
1021
0.0
1031
0.0
1011
0.0
1021
1.0
1031
0.0
1011
0.0
1021
0.0
1031
1.0
1040
0.0
1010
0.0
1020
0.0
1030
1.0
1000
ANSI37
1070
     0
1070
     1
1071
        1
1071
        7
1070
     0
1070
     1
1071
        9
1040
40.02599999995994
1040
5.341799999994635
1040
44.99999999995498
1040
-0.2368999999997641
1040
44.99999999995498
1040
8.763099999991255
1040
43.57899999995641
1040
8.763099999991255
1040
43.57899999995641
1040
3.421199999996588
1040
38.60499999996136
1040
8.999899999990987
1040
38.60499999996136
1040
8.999999999991019
1040
38.60499999996136
1040
0.0
1040
40.02599999995994
1040
0.0
1071
        8
1005
1FE5E
1005
1FE61
1005
1FE65
1005
1FE64
1005
1FE63
1005
1FE60
1005
1FE62
1005
1FE5F
1070
     0
1070
     1
1040
0.0
1040
0.15
1070
     0
1070
     2
1040
0.7853981633974483
1040
49.29960901727088
1040
-10.17736998311392
1040
-0.3367596045400932
1040
0.3367596045400932
1070
     0
1040
2.356194490192345
1040
49.29960901727088
1040
-10.17736998311392
1040
-0.3367596045400932
1040
-0.3367596045400932
1070
     0
1040
0.0110235143455945
1071
        1
1040
39.74896370716704
1040
4.484843821435049
1040
0.0
1002
}
  0
INSERT
  5
1FE7E
330
1FE36
100
AcDbEntity
  8
0
100
AcDbBlockReference
  2
*X49
 10
0.0
 20
0.0
 30
0.0
1001
ACAD
1000
HATCH
1002
{
1070
    19
1000
ANSI37
1040
0.15
1040
0.0
1000
ASC_BOUNDS
1070
     1
1070
     2
1070
     4
1005
1FE42
1005
1FE51
1005
1FE43
1005
1FE45
1000
ASC_SEEDPOINT
1011
1.079051535452663
1021
4.148538732891836
1031
0.0
1000
R14_HATCH_DATA
1000
1FE7E
1011
1.0
1021
0.0
1031
0.0
1011
0.0
1021
1.0
1031
0.0
1011
0.0
1021
0.0
1031
1.0
1040
0.0
1010
0.0
1020
0.0
1030
1.0
1000
ANSI37
1070
     0
1070
     1
1071
        1
1071
        7
1070
     0
1070
     1
1071
        4
1040
1.420999999998571
1040
0.0
1040
1.420999999998571
1040
8.763099999991255
1040
0.0
1040
8.763099999991255
1040
0.0
1040
0.0
1071
        4
1005
1FE42
1005
1FE51
1005
1FE43
1005
1FE45
1070
     0
1070
     1
1040
0.0
1040
0.15
1070
     0
1070
     2
1040
0.7853981633974483
1040
49.29960901727088
1040
-10.17736998311392
1040
-0.3367596045400932
1040
0.3367596045400932
1070
     0
1040
2.356194490192345
1040
49.29960901727088
1040
-10.17736998311392
1040
-0.3367596045400932
1040
-0.3367596045400932
1070
     0
1040
0.0053004257112761
1071
        1
1040
1.079051535452663
1040
4.148538732891836
1040
0.0
1002
}
  0
ENDBLK
  5
20536
330
1FE36
100
AcDbEntity
  8
0
100
AcDbBlockEnd
  0
BLOCK
  5
208F7
330
20769
100
AcDbEntity
  8
0
100
AcDbBlockBegin
  2
*X44
 70
     1
 10
0.0
 20
0.0
 30
0.0
  3
*X44
  1

  0
LINE
  5
2076A
330
20769
100
AcDbEntity
  8
0
  6
CONTINUOUS
100
AcDbLine
 10
3.418023043697893
 20
7.251849696850613
 30
0.0
 11
4.929273346838536
 21
8.763099999991255
 31
0.0
  0
LINE
  5
2076B
330
20769
100
AcDbEntity
  8
0
  6
CONTINUOUS
100
AcDbLine
 10
1.483656411257782
 20
4.643963855330318
 30
0.0
 11
5.60279255591872
 21
8.763099999991255
 31
0.0
  0
LINE
  5
2076C
330
20769
100
AcDbEntity
  8
0
  6
CONTINUOUS
100
AcDbLine
 10
1.755053947328235
 20
4.241842182320584
 30
0.0
 11
6.276311764998907
 21
8.763099999991255
 31
0.0
  0
LINE
  5
2076D
330
20769
100
AcDbEntity
  8
0
  6
CONTINUOUS
100
AcDbLine
 10
2.026451483398688
 20
3.839720509310849
 30
0.0
 11
4.441040904851878
 21
6.254309930764039
 31
0.0
  0
LINE
  5
2076E
330
20769
100
AcDbEntity
  8
0
  6
CONTINUOUS
100
AcDbLine
 10
2.297849019469139
 20
3.437598836301114
 30
0.0
 11
3.321765168359338
 21
4.461514985191313
 31
0.0
  0
LINE
  5
2076F
330
20769
100
AcDbEntity
  8
0
  6
CONTINUOUS
100
AcDbLine
 10
2.569246555539591
 20
3.03547716329138
 30
0.0
 11
3.593163397972743
 21
4.059394005724531
 31
0.0
  0
LINE
  5
20770
330
20769
100
AcDbEntity
  8
0
  6
CONTINUOUS
100
AcDbLine
 10
2.840644091610043
 20
2.633355490281646
 30
0.0
 11
3.864561627586149
 21
3.657273026257751
 31
0.0
  0
LINE
  5
20771
330
20769
100
AcDbEntity
  8
0
  6
CONTINUOUS
100
AcDbLine
 10
3.112041627680496
 20
2.231233817271911
 30
0.0
 11
4.135959857199554
 21
3.25515204679097
 31
0.0
  0
LINE
  5
20772
330
20769
100
AcDbEntity
  8
0
  6
CONTINUOUS
100
AcDbLine
 10
3.383439163750948
 20
1.829112144262177
 30
0.0
 11
4.40735808681296
 21
2.853031067324189
 31
0.0
  0
LINE
  5
20773
330
20769
100
AcDbEntity
  8
0
  6
CONTINUOUS
100
AcDbLine
 10
3.654836699821399
 20
1.426990471252442
 30
0.0
 11
4.678756316426365
 21
2.450910087857407
 31
0.0
  0
LINE
  5
20774
330
20769
100
AcDbEntity
  8
0
  6
CONTINUOUS
100
AcDbLine
 10
3.926234235891853
 20
1.024868798242709
 30
0.0
 11
4.95015454603977
 21
2.048789108390626
 31
0.0
  0
LINE
  5
20775
330
20769
100
AcDbEntity
  8
0
  6
CONTINUOUS
100
AcDbLine
 10
4.197631771962304
 20
0.6227471252329737
 30
0.0
 11
5.221552775653176
 21
1.646668128923846
 31
0.0
  0
LINE
  5
20776
330
20769
100
AcDbEntity
  8
0
  6
CONTINUOUS
100
AcDbLine
 10
8.715877546767851
 20
7.835069736359266
 30
0.0
 11
9.435953450375058
 21
8.555145639966472
 31
0.0
  0
LINE
  5
20777
330
20769
100
AcDbEntity
  8
0
  6
CONTINUOUS
100
AcDbLine
 10
8.170620868422267
 20
6.616293848933497
 30
0.0
 11
9.644120833743461
 21
8.08979381425469
 31
0.0
  0
LINE
  5
20778
330
20769
100
AcDbEntity
  8
0
  6
CONTINUOUS
100
AcDbLine
 10
7.625364190076684
 20
5.397517961507727
 30
0.0
 11
9.852288217111864
 21
7.624441988542907
 31
0.0
  0
LINE
  5
20779
330
20769
100
AcDbEntity
  8
0
  6
CONTINUOUS
100
AcDbLine
 10
7.080107511731101
 20
4.178742074081957
 30
0.0
 11
10.06045560048027
 21
7.159090162831124
 31
0.0
  0
LINE
  5
2077A
330
20769
100
AcDbEntity
  8
0
  6
CONTINUOUS
100
AcDbLine
 10
6.534850833385518
 20
2.959966186656187
 30
0.0
 11
10.26862298384867
 21
6.693738337119342
 31
0.0
  0
LINE
  5
2077B
330
20769
100
AcDbEntity
  8
0
  6
CONTINUOUS
100
AcDbLine
 10
4.469029308032756
 20
0.2206254522232385
 30
0.0
 11
5.492951005266582
 21
1.244547149457064
 31
0.0
  0
LINE
  5
2077C
330
20769
100
AcDbEntity
  8
0
  6
CONTINUOUS
100
AcDbLine
 10
5.989594155039935
 20
1.741190299230417
 30
0.0
 11
8.806950407233131
 21
4.558546551423613
 31
0.0
  0
LINE
  5
2077D
330
20769
100
AcDbEntity
  8
0
  6
CONTINUOUS
100
AcDbLine
 10
9.401251593263643
 20
5.152847737454126
 30
0.0
 11
10.47679036721708
 21
6.228386511407559
 31
0.0
  0
LINE
  5
2077E
330
20769
100
AcDbEntity
  8
0
  6
CONTINUOUS
100
AcDbLine
 10
4.921837203428691
 20
-0.0000858614610131
 30
0.0
 11
8.592923064886001
 21
3.670999999996297
 31
0.0
  0
LINE
  5
2077F
330
20769
100
AcDbEntity
  8
0
  6
CONTINUOUS
100
AcDbLine
 10
9.609390446785305
 20
4.6874673818956
 30
0.0
 11
10.68495775058548
 21
5.763034685695775
 31
0.0
  0
LINE
  5
20780
330
20769
100
AcDbEntity
  8
0
  6
CONTINUOUS
100
AcDbLine
 10
5.595387755019432
 20
-0.0000545189504582
 30
0.0
 11
7.716137258923768
 21
2.120694984953879
 31
0.0
  0
LINE
  5
20781
330
20769
100
AcDbEntity
  8
0
  6
CONTINUOUS
100
AcDbLine
 10
6.268938306610172
 20
-0.000023176439905
 30
0.0
 11
7.170485805526503
 21
0.9015243224764267
 31
0.0
  0
LINE
  5
20782
330
20769
100
AcDbEntity
  8
0
  6
CONTINUOUS
100
AcDbLine
 10
7.963842273967511
 20
2.368399999997621
 30
0.0
 11
9.266442273966188
 21
3.670999999996297
 31
0.0
  0
LINE
  5
20783
330
20769
100
AcDbEntity
  8
0
  6
CONTINUOUS
100
AcDbLine
 10
8.637361483047696
 20
2.368399999997621
 30
0.0
 11
9.939961483046375
 21
3.670999999996297
 31
0.0
  0
LINE
  5
20784
330
20769
100
AcDbEntity
  8
0
  6
CONTINUOUS
100
AcDbLine
 10
9.817529300306965
 20
4.222087026337075
 30
0.0
 11
10.89312513395388
 21
5.297682859983993
 31
0.0
  0
LINE
  5
20785
330
20769
100
AcDbEntity
  8
0
  6
CONTINUOUS
100
AcDbLine
 10
10.02566815382863
 20
3.756706670778549
 30
0.0
 11
11.10129251732229
 21
4.832331034272211
 31
0.0
  0
LINE
  5
20786
330
20769
100
AcDbEntity
  8
0
  6
CONTINUOUS
100
AcDbLine
 10
9.310880692127883
 20
2.368399999997621
 30
0.0
 11
11.30945990069069
 21
4.366979208560428
 31
0.0
  0
LINE
  5
20787
330
20769
100
AcDbEntity
  8
0
  6
CONTINUOUS
100
AcDbLine
 10
9.98439990120807
 20
2.36839999999762
 30
0.0
 11
11.5176272840591
 21
3.901627382848645
 31
0.0
  0
LINE
  5
20788
330
20769
100
AcDbEntity
  8
0
  6
CONTINUOUS
100
AcDbLine
 10
10.65037369446246
 20
2.36085458417182
 30
0.0
 11
11.7257946674275
 21
3.436275557136862
 31
0.0
  0
LINE
  5
20789
330
20769
100
AcDbEntity
  8
0
  6
CONTINUOUS
100
AcDbLine
 10
10.85847197087848
 20
1.895433651507656
 30
0.0
 11
11.9339620507959
 21
2.97092373142508
 31
0.0
  0
LINE
  5
2078A
330
20769
100
AcDbEntity
  8
0
  6
CONTINUOUS
100
AcDbLine
 10
11.0665702472945
 20
1.430012718843491
 30
0.0
 11
12.14212943416431
 21
2.505571905713296
 31
0.0
  0
LINE
  5
2078B
330
20769
100
AcDbEntity
  8
0
  6
CONTINUOUS
100
AcDbLine
 10
11.27466852371052
 20
0.9645917861793256
 30
0.0
 11
12.35029681753271
 21
2.040220080001513
 31
0.0
  0
LINE
  5
2078C
330
20769
100
AcDbEntity
  8
0
  6
CONTINUOUS
100
AcDbLine
 10
11.48276680012654
 20
0.4991708535151611
 30
0.0
 11
12.55846420090111
 21
1.57486825428973
 31
0.0
  0
LINE
  5
2078D
330
20769
100
AcDbEntity
  8
0
  6
CONTINUOUS
100
AcDbLine
 10
11.69086507654257
 20
0.0337499208509957
 30
0.0
 11
12.76663158426952
 21
1.109516428577947
 31
0.0
  0
LINE
  5
2078E
330
20769
100
AcDbEntity
  8
0
  6
CONTINUOUS
100
AcDbLine
 10
12.33057447873954
 20
-0.0000598860322123
 30
0.0
 11
12.97479896763792
 21
0.6441646028661663
 31
0.0
  0
LINE
  5
2078F
330
20769
100
AcDbEntity
  8
0
  6
CONTINUOUS
100
AcDbLine
 10
13.00413694809395
 20
-0.0000166257579952
 30
0.0
 11
13.18296635100632
 21
0.1788127771543824
 31
0.0
  0
LINE
  5
20790
330
20769
100
AcDbEntity
  8
0
  6
CONTINUOUS
100
AcDbLine
 10
4.772852165289667
 20
-0.000092794222212
 30
0.0
 11
4.296495091028902
 21
0.4762642800385528
 31
0.0
  0
LINE
  5
20791
330
20769
100
AcDbEntity
  8
0
  6
CONTINUOUS
100
AcDbLine
 10
5.446340034776103
 20
-0.0000614546284616
 30
0.0
 11
2.898195908335625
 21
2.548082671812017
 31
0.0
  0
LINE
  5
20792
330
20769
100
AcDbEntity
  8
0
  6
CONTINUOUS
100
AcDbLine
 10
6.119827904262539
 20
-0.0000301150347113
 30
0.0
 11
1.499896725642348
 21
4.61990106358548
 31
0.0
  0
LINE
  5
20793
330
20769
100
AcDbEntity
  8
0
  6
CONTINUOUS
100
AcDbLine
 10
6.775136745476159
 20
0.0181802528318542
 30
0.0
 11
5.699826040202669
 21
1.093490958105344
 31
0.0
  0
LINE
  5
20794
330
20769
100
AcDbEntity
  8
0
  6
CONTINUOUS
100
AcDbLine
 10
6.983376846288489
 20
0.4834593610997118
 30
0.0
 11
5.908008617934405
 21
1.558827589453796
 31
0.0
  0
LINE
  5
20795
330
20769
100
AcDbEntity
  8
0
  6
CONTINUOUS
100
AcDbLine
 10
5.377063484962296
 20
1.416253513345719
 30
0.0
 11
1.702276957014131
 21
5.091040041293883
 31
0.0
  0
LINE
  5
20796
330
20769
100
AcDbEntity
  8
0
  6
CONTINUOUS
100
AcDbLine
 10
3.978745891735324
 20
3.488090315652877
 30
0.0
 11
2.000373521109399
 21
5.466462686278803
 31
0.0
  0
LINE
  5
20797
330
20769
100
AcDbEntity
  8
0
  6
CONTINUOUS
100
AcDbLine
 10
7.191616947100819
 20
0.948738469367568
 30
0.0
 11
6.11619119566614
 21
2.024164220802247
 31
0.0
  0
LINE
  5
20798
330
20769
100
AcDbEntity
  8
0
  6
CONTINUOUS
100
AcDbLine
 10
7.399857047913149
 20
1.414017577635424
 30
0.0
 11
6.324373773397875
 21
2.489500852150698
 31
0.0
  0
LINE
  5
20799
330
20769
100
AcDbEntity
  8
0
  6
CONTINUOUS
100
AcDbLine
 10
7.608097148725479
 20
1.879296685903281
 30
0.0
 11
6.53255635112961
 21
2.95483748349915
 31
0.0
  0
LINE
  5
2079A
330
20769
100
AcDbEntity
  8
0
  6
CONTINUOUS
100
AcDbLine
 10
7.816337249537808
 20
2.344575794171138
 30
0.0
 11
6.740738928861345
 21
3.420174114847601
 31
0.0
  0
LINE
  5
2079B
330
20769
100
AcDbEntity
  8
0
  6
CONTINUOUS
100
AcDbLine
 10
3.310241080789734
 20
4.830114335678653
 30
0.0
 11
2.298470085204666
 21
5.84188533126372
 31
0.0
  0
LINE
  5
2079C
330
20769
100
AcDbEntity
  8
0
  6
CONTINUOUS
100
AcDbLine
 10
3.60832983563551
 20
5.205544789913063
 30
0.0
 11
2.596566649299935
 21
6.217307976248638
 31
0.0
  0
LINE
  5
2079D
330
20769
100
AcDbEntity
  8
0
  6
CONTINUOUS
100
AcDbLine
 10
3.906418590481286
 20
5.580975244147473
 30
0.0
 11
2.894663213395203
 21
6.592730621233557
 31
0.0
  0
LINE
  5
2079E
330
20769
100
AcDbEntity
  8
0
  6
CONTINUOUS
100
AcDbLine
 10
4.204507345327062
 20
5.956405698381884
 30
0.0
 11
3.192759777490472
 21
6.968153266218474
 31
0.0
  0
LINE
  5
2079F
330
20769
100
AcDbEntity
  8
0
  6
CONTINUOUS
100
AcDbLine
 10
8.466032252791512
 20
2.368399999997621
 30
0.0
 11
6.948921506593081
 21
3.885510746196053
 31
0.0
  0
LINE
  5
207A0
330
20769
100
AcDbEntity
  8
0
  6
CONTINUOUS
100
AcDbLine
 10
9.139551461871699
 20
2.36839999999762
 30
0.0
 11
7.157104084324816
 21
4.350847377544504
 31
0.0
  0
LINE
  5
207A1
330
20769
100
AcDbEntity
  8
0
  6
CONTINUOUS
100
AcDbLine
 10
4.502596100172839
 20
6.331836152616295
 30
0.0
 11
3.49085634158574
 21
7.343575911203393
 31
0.0
  0
LINE
  5
207A2
330
20769
100
AcDbEntity
  8
0
  6
CONTINUOUS
100
AcDbLine
 10
4.800684855018615
 20
6.707266606850705
 30
0.0
 11
3.788952905681008
 21
7.718998556188312
 31
0.0
  0
LINE
  5
207A3
330
20769
100
AcDbEntity
  8
0
  6
CONTINUOUS
100
AcDbLine
 10
12.18154012887317
 20
-0.0000694579236642
 30
0.0
 11
11.32140332908496
 21
0.8600673418645499
 31
0.0
  0
LINE
  5
207A4
330
20769
100
AcDbEntity
  8
0
  6
CONTINUOUS
100
AcDbLine
 10
12.85501608323566
 20
-0.0000262032059659
 30
0.0
 11
10.77672456435345
 21
2.078265315676246
 31
0.0
  0
LINE
  5
207A5
330
20769
100
AcDbEntity
  8
0
  6
CONTINUOUS
100
AcDbLine
 10
9.813070670951886
 20
2.36839999999762
 30
0.0
 11
8.51047067095321
 21
3.670999999996297
 31
0.0
  0
LINE
  5
207A6
330
20769
100
AcDbEntity
  8
0
  6
CONTINUOUS
100
AcDbLine
 10
10.48658988003207
 20
2.36839999999762
 30
0.0
 11
9.183989880033396
 21
3.670999999996297
 31
0.0
  0
LINE
  5
207A7
330
20769
100
AcDbEntity
  8
0
  6
CONTINUOUS
100
AcDbLine
 10
8.441048632286794
 20
3.740422038662712
 30
0.0
 11
7.365286662056551
 21
4.816184008892956
 31
0.0
  0
LINE
  5
207A8
330
20769
100
AcDbEntity
  8
0
  6
CONTINUOUS
100
AcDbLine
 10
8.649187485808454
 20
4.205802394221237
 30
0.0
 11
7.573469239788285
 21
5.281520640241407
 31
0.0
  0
LINE
  5
207A9
330
20769
100
AcDbEntity
  8
0
  6
CONTINUOUS
100
AcDbLine
 10
5.098773609864391
 20
7.082697061085115
 30
0.0
 11
4.087049469776277
 21
8.09442120117323
 31
0.0
  0
LINE
  5
207AA
330
20769
100
AcDbEntity
  8
0
  6
CONTINUOUS
100
AcDbLine
 10
5.396862364710167
 20
7.458127515319526
 30
0.0
 11
4.385146033871544
 21
8.469843846158149
 31
0.0
  0
LINE
  5
207AB
330
20769
100
AcDbEntity
  8
0
  6
CONTINUOUS
100
AcDbLine
 10
13.04801363231285
 20
0.4804954567970334
 30
0.0
 11
9.85750908911358
 21
3.670999999996297
 31
0.0
  0
LINE
  5
207AC
330
20769
100
AcDbEntity
  8
0
  6
CONTINUOUS
100
AcDbLine
 10
8.857326339330116
 20
4.671182749779763
 30
0.0
 11
7.781651817520021
 21
5.746857271589858
 31
0.0
  0
LINE
  5
207AD
330
20769
100
AcDbEntity
  8
0
  6
CONTINUOUS
100
AcDbLine
 10
5.694951119555943
 20
7.833557969553937
 30
0.0
 11
4.765409089118624
 21
8.763099999991255
 31
0.0
  0
LINE
  5
207AE
330
20769
100
AcDbEntity
  8
0
  6
CONTINUOUS
100
AcDbLine
 10
12.50286117236978
 20
1.699167125820288
 30
0.0
 11
9.68611877250287
 21
4.515909525687196
 31
0.0
  0
LINE
  5
207AF
330
20769
100
AcDbEntity
  8
0
  6
CONTINUOUS
100
AcDbLine
 10
9.065465192851777
 20
5.136563105338288
 30
0.0
 11
7.989834395251757
 21
6.21219390293831
 31
0.0
  0
LINE
  5
207B0
330
20769
100
AcDbEntity
  8
0
  6
CONTINUOUS
100
AcDbLine
 10
5.993039874401719
 20
8.208988423788346
 30
0.0
 11
5.43892829819881
 21
8.763099999991255
 31
0.0
  0
LINE
  5
207B1
330
20769
100
AcDbEntity
  8
0
  6
CONTINUOUS
100
AcDbLine
 10
11.95770871242671
 20
2.917838794843543
 30
0.0
 11
8.19801697298349
 21
6.677530534286761
 31
0.0
  0
LINE
  5
207B2
330
20769
100
AcDbEntity
  8
0
  6
CONTINUOUS
100
AcDbLine
 10
6.291128629247495
 20
8.584418878022756
 30
0.0
 11
6.112447507278997
 21
8.763099999991255
 31
0.0
  0
LINE
  5
207B3
330
20769
100
AcDbEntity
  8
0
  6
CONTINUOUS
100
AcDbLine
 10
11.41255625248364
 20
4.136510463866797
 30
0.0
 11
8.406199550715227
 21
7.142867165635211
 31
0.0
  0
LINE
  5
207B4
330
20769
100
AcDbEntity
  8
0
  6
CONTINUOUS
100
AcDbLine
 10
10.86740379254057
 20
5.355182132890051
 30
0.0
 11
8.614382128446962
 21
7.608203796983664
 31
0.0
  0
LINE
  5
207B5
330
20769
100
AcDbEntity
  8
0
  6
CONTINUOUS
100
AcDbLine
 10
10.3222513325975
 20
6.573853801913305
 30
0.0
 11
8.822564706178696
 21
8.073540428332114
 31
0.0
  0
LINE
  5
207B6
330
20769
100
AcDbEntity
  8
0
  6
CONTINUOUS
100
AcDbLine
 10
9.777098872654436
 20
7.792525470936562
 30
0.0
 11
9.030747283910433
 21
8.538877059680566
 31
0.0
  0
ENDBLK
  5
208F8
330
20769
100
AcDbEntity
  8
0
100
AcDbBlockEnd
  0
BLOCK
  5
208F9
330
207B7
100
AcDbEntity
  8
0
100
AcDbBlockBegin
  2
*X45
 70
     1
 10
0.0
 20
0.0
 30
0.0
  3
*X45
  1

  0
LINE
  5
207B8
330
207B7
100
AcDbEntity
  8
0
  6
CONTINUOUS
100
AcDbLine
 10
10.67292308101235
 20
8.445076852443387
 30
0.0
 11
10.99094622856022
 21
8.763099999991255
 31
0.0
  0
LINE
  5
207B9
330
207B7
100
AcDbEntity
  8
0
  6
CONTINUOUS
100
AcDbLine
 10
10.87250383178748
 20
7.971138394138331
 30
0.0
 11
11.6644654376404
 21
8.763099999991255
 31
0.0
  0
LINE
  5
207BA
330
207B7
100
AcDbEntity
  8
0
  6
CONTINUOUS
100
AcDbLine
 10
11.07208458256261
 20
7.497199935833273
 30
0.0
 11
12.12126590876355
 21
8.546381262034211
 31
0.0
  0
LINE
  5
207BB
330
207B7
100
AcDbEntity
  8
0
  6
CONTINUOUS
100
AcDbLine
 10
11.27166533333774
 20
7.023261477528216
 30
0.0
 11
12.32085164573666
 21
8.072447789927136
 31
0.0
  0
LINE
  5
207BC
330
207B7
100
AcDbEntity
  8
0
  6
CONTINUOUS
100
AcDbLine
 10
11.47124608411287
 20
6.549323019223158
 30
0.0
 11
12.52043738270977
 21
7.59851431782006
 31
0.0
  0
LINE
  5
207BD
330
207B7
100
AcDbEntity
  8
0
  6
CONTINUOUS
100
AcDbLine
 10
11.670826834888
 20
6.075384560918101
 30
0.0
 11
12.72002311968288
 21
7.124580845712984
 31
0.0
  0
LINE
  5
207BE
330
207B7
100
AcDbEntity
  8
0
  6
CONTINUOUS
100
AcDbLine
 10
11.87040758566313
 20
5.601446102613043
 30
0.0
 11
12.91960885665599
 21
6.650647373605907
 31
0.0
  0
LINE
  5
207BF
330
207B7
100
AcDbEntity
  8
0
  6
CONTINUOUS
100
AcDbLine
 10
12.06998833643825
 20
5.127507644307986
 30
0.0
 11
13.1191945936291
 21
6.176713901498832
 31
0.0
  0
LINE
  5
207C0
330
207B7
100
AcDbEntity
  8
0
  6
CONTINUOUS
100
AcDbLine
 10
12.26956908721338
 20
4.65356918600293
 30
0.0
 11
13.31878033060221
 21
5.702780429391757
 31
0.0
  0
LINE
  5
207C1
330
207B7
100
AcDbEntity
  8
0
  6
CONTINUOUS
100
AcDbLine
 10
12.46914983798851
 20
4.179630727697873
 30
0.0
 11
13.51836606757532
 21
5.228846957284683
 31
0.0
  0
LINE
  5
207C2
330
207B7
100
AcDbEntity
  8
0
  6
CONTINUOUS
100
AcDbLine
 10
12.66873058876364
 20
3.705692269392816
 30
0.0
 11
13.71795180454843
 21
4.754913485177607
 31
0.0
  0
LINE
  5
207C3
330
207B7
100
AcDbEntity
  8
0
  6
CONTINUOUS
100
AcDbLine
 10
12.86831133953877
 20
3.231753811087759
 30
0.0
 11
13.91753754152154
 21
4.280980013070531
 31
0.0
  0
LINE
  5
207C4
330
207B7
100
AcDbEntity
  8
0
  6
CONTINUOUS
100
AcDbLine
 10
13.0678920903139
 20
2.757815352782702
 30
0.0
 11
14.11712327849465
 21
3.807046540963456
 31
0.0
  0
LINE
  5
207C5
330
207B7
100
AcDbEntity
  8
0
  6
CONTINUOUS
100
AcDbLine
 10
13.26747284108903
 20
2.283876894477644
 30
0.0
 11
14.31670901546777
 21
3.333113068856379
 31
0.0
  0
LINE
  5
207C6
330
207B7
100
AcDbEntity
  8
0
  6
CONTINUOUS
100
AcDbLine
 10
16.36767838827179
 20
8.751678487061342
 30
0.0
 11
16.50332410898388
 21
8.887324207773432
 31
0.0
  0
LINE
  5
207C7
330
207B7
100
AcDbEntity
  8
0
  6
CONTINUOUS
100
AcDbLine
 10
15.96190732182191
 20
7.67238821153127
 30
0.0
 11
16.68735328004734
 21
8.397834169756699
 31
0.0
  0
LINE
  5
207C8
330
207B7
100
AcDbEntity
  8
0
  6
CONTINUOUS
100
AcDbLine
 10
15.55613625537202
 20
6.593097936001196
 30
0.0
 11
16.87138245111079
 21
7.908344131739965
 31
0.0
  0
LINE
  5
207C9
330
207B7
100
AcDbEntity
  8
0
  6
CONTINUOUS
100
AcDbLine
 10
15.15036518892213
 20
5.513807660471122
 30
0.0
 11
17.05541162217424
 21
7.418854093723231
 31
0.0
  0
LINE
  5
207CA
330
207B7
100
AcDbEntity
  8
0
  6
CONTINUOUS
100
AcDbLine
 10
14.74459412247225
 20
4.434517384941048
 30
0.0
 11
17.2394407932377
 21
6.929364055706499
 31
0.0
  0
LINE
  5
207CB
330
207B7
100
AcDbEntity
  8
0
  6
CONTINUOUS
100
AcDbLine
 10
14.33882305602236
 20
3.355227109410975
 30
0.0
 11
17.42346996430115
 21
6.439874017689766
 31
0.0
  0
LINE
  5
207CC
330
207B7
100
AcDbEntity
  8
0
  6
CONTINUOUS
100
AcDbLine
 10
13.46705359186416
 20
1.809938436172586
 30
0.0
 11
16.0819338255367
 21
4.424818669845129
 31
0.0
  0
LINE
  5
207CD
330
207B7
100
AcDbEntity
  8
0
  6
CONTINUOUS
100
AcDbLine
 10
16.63283254238972
 20
4.975717386698149
 30
0.0
 11
17.60749913536461
 21
5.950383979673033
 31
0.0
  0
LINE
  5
207CE
330
207B7
100
AcDbEntity
  8
0
  6
CONTINUOUS
100
AcDbLine
 10
13.66663434263929
 20
1.335999977867529
 30
0.0
 11
15.67604797733754
 21
3.345413612565779
 31
0.0
  0
LINE
  5
207CF
330
207B7
100
AcDbEntity
  8
0
  6
CONTINUOUS
100
AcDbLine
 10
13.86621509341442
 20
0.8620615195624723
 30
0.0
 11
15.27016212913838
 21
2.26600855528643
 31
0.0
  0
LINE
  5
207D0
330
207B7
100
AcDbEntity
  8
0
  6
CONTINUOUS
100
AcDbLine
 10
16.81682257348267
 20
4.486188208710908
 30
0.0
 11
17.79152830642806
 21
5.460893941656299
 31
0.0
  0
LINE
  5
207D1
330
207B7
100
AcDbEntity
  8
0
  6
CONTINUOUS
100
AcDbLine
 10
17.00081260457561
 20
3.996659030723667
 30
0.0
 11
17.97555747749151
 21
4.971403903639565
 31
0.0
  0
LINE
  5
207D2
330
207B7
100
AcDbEntity
  8
0
  6
CONTINUOUS
100
AcDbLine
 10
20.74362343514722
 20
8.412989070375462
 30
0.0
 11
21.09373436476302
 21
8.763099999991256
 31
0.0
  0
LINE
  5
207D3
330
207B7
100
AcDbEntity
  8
0
  6
CONTINUOUS
100
AcDbLine
 10
20.25401257174777
 20
7.249858997895826
 30
0.0
 11
21.7672535738432
 21
8.763099999991255
 31
0.0
  0
LINE
  5
207D4
330
207B7
100
AcDbEntity
  8
0
  6
CONTINUOUS
100
AcDbLine
 10
14.06579584418955
 20
0.3881230612574149
 30
0.0
 11
14.86427628093921
 21
1.186603498007082
 31
0.0
  0
LINE
  5
207D5
330
207B7
100
AcDbEntity
  8
0
  6
CONTINUOUS
100
AcDbLine
 10
14.26537659496467
 20
-0.0858153970476412
 30
0.0
 11
14.45839043274005
 21
0.1071984407277329
 31
0.0
  0
LINE
  5
207D6
330
207B7
100
AcDbEntity
  8
0
  6
CONTINUOUS
100
AcDbLine
 10
17.18480263566856
 20
3.507129852736426
 30
0.0
 11
18.15958664855496
 21
4.481913865622833
 31
0.0
  0
LINE
  5
207D7
330
207B7
100
AcDbEntity
  8
0
  6
CONTINUOUS
100
AcDbLine
 10
17.3687926667615
 20
3.017600674749186
 30
0.0
 11
18.34361581961842
 21
3.9924238276061
 31
0.0
  0
LINE
  5
207D8
330
207B7
100
AcDbEntity
  8
0
  6
CONTINUOUS
100
AcDbLine
 10
19.76440170834832
 20
6.086728925416191
 30
0.0
 11
22.33924590259489
 21
8.661573119662755
 31
0.0
  0
LINE
  5
207D9
330
207B7
100
AcDbEntity
  8
0
  6
CONTINUOUS
100
AcDbLine
 10
19.27479084494887
 20
4.923598852936555
 30
0.0
 11
21.84929622842713
 21
7.498104236414807
 31
0.0
  0
LINE
  5
207DA
330
207B7
100
AcDbEntity
  8
0
  6
CONTINUOUS
100
AcDbLine
 10
17.55278269785445
 20
2.528071496761945
 30
0.0
 11
18.52764499068187
 21
3.502933789589366
 31
0.0
  0
LINE
  5
207DB
330
207B7
100
AcDbEntity
  8
0
  6
CONTINUOUS
100
AcDbLine
 10
18.78517998154942
 20
3.760468780456919
 30
0.0
 11
21.35934655425936
 21
6.33463535316686
 31
0.0
  0
LINE
  5
207DC
330
207B7
100
AcDbEntity
  8
0
  6
CONTINUOUS
100
AcDbLine
 10
17.73677272894739
 20
2.038542318774704
 30
0.0
 11
20.8693968800916
 21
5.171166469918914
 31
0.0
  0
LINE
  5
207DD
330
207B7
100
AcDbEntity
  8
0
  6
CONTINUOUS
100
AcDbLine
 10
17.92076276004034
 20
1.549013140787464
 30
0.0
 11
20.37944720592384
 21
4.007697586670968
 31
0.0
  0
LINE
  5
207DE
330
207B7
100
AcDbEntity
  8
0
  6
CONTINUOUS
100
AcDbLine
 10
18.10475279113329
 20
1.059483962800223
 30
0.0
 11
19.88949753175608
 21
2.84422870342302
 31
0.0
  0
LINE
  5
207DF
330
207B7
100
AcDbEntity
  8
0
  6
CONTINUOUS
100
AcDbLine
 10
18.28874282222623
 20
0.5699547848129822
 30
0.0
 11
19.39954785758832
 21
1.680759820175074
 31
0.0
  0
LINE
  5
207E0
330
207B7
100
AcDbEntity
  8
0
  6
CONTINUOUS
100
AcDbLine
 10
18.47273285331918
 20
0.0804256068257416
 30
0.0
 11
18.90959818342056
 21
0.517290936927127
 31
0.0
  0
LINE
  5
207E1
330
207B7
100
AcDbEntity
  8
0
  6
CONTINUOUS
100
AcDbLine
 10
14.3590401358224
 20
-0.1570118376323384
 30
0.0
 11
14.24903296539946
 21
-0.0470046672093929
 31
0.0
  0
LINE
  5
207E2
330
207B7
100
AcDbEntity
  8
0
  6
CONTINUOUS
100
AcDbLine
 10
14.54309291258661
 20
0.332454594683643
 30
0.0
 11
13.75908329123172
 21
1.116464216038529
 31
0.0
  0
LINE
  5
207E3
330
207B7
100
AcDbEntity
  8
0
  6
CONTINUOUS
100
AcDbLine
 10
14.72714568935081
 20
0.8219210269996244
 30
0.0
 11
13.26913361706399
 21
2.27993309928645
 31
0.0
  0
LINE
  5
207E4
330
207B7
100
AcDbEntity
  8
0
  6
CONTINUOUS
100
AcDbLine
 10
14.91119846611502
 20
1.311387459315606
 30
0.0
 11
12.77918394289625
 21
3.443401982534371
 31
0.0
  0
LINE
  5
207E5
330
207B7
100
AcDbEntity
  8
0
  6
CONTINUOUS
100
AcDbLine
 10
15.09525124287922
 20
1.800853891631587
 30
0.0
 11
12.28923426872852
 21
4.606870865782293
 31
0.0
  0
LINE
  5
207E6
330
207B7
100
AcDbEntity
  8
0
  6
CONTINUOUS
100
AcDbLine
 10
15.27930401964343
 20
2.290320323947569
 30
0.0
 11
11.79928459456078
 21
5.770339749030213
 31
0.0
  0
LINE
  5
207E7
330
207B7
100
AcDbEntity
  8
0
  6
CONTINUOUS
100
AcDbLine
 10
15.46335679640763
 20
2.77978675626355
 30
0.0
 11
14.48885470994921
 21
3.754288842721972
 31
0.0
  0
LINE
  5
207E8
330
207B7
100
AcDbEntity
  8
0
  6
CONTINUOUS
100
AcDbLine
 10
13.88507249233704
 20
4.358071060334137
 30
0.0
 11
11.30933492039305
 21
6.933808632278135
 31
0.0
  0
LINE
  5
207E9
330
207B7
100
AcDbEntity
  8
0
  6
CONTINUOUS
100
AcDbLine
 10
18.75840522805855
 20
0.1582575336928151
 30
0.0
 11
18.25383727664818
 21
0.6628254851031863
 31
0.0
  0
LINE
  5
207EA
330
207B7
100
AcDbEntity
  8
0
  6
CONTINUOUS
100
AcDbLine
 10
15.64740957317184
 20
3.269253188579531
 30
0.0
 11
14.67288388101266
 21
4.243778880738705
 31
0.0
  0
LINE
  5
207EB
330
207B7
100
AcDbEntity
  8
0
  6
CONTINUOUS
100
AcDbLine
 10
13.39509276772158
 20
5.521569994029786
 30
0.0
 11
10.81938524622531
 21
8.097277515526056
 31
0.0
  0
LINE
  5
207EC
330
207B7
100
AcDbEntity
  8
0
  6
CONTINUOUS
100
AcDbLine
 10
18.95798597883369
 20
0.6321959919978686
 30
0.0
 11
17.84825644852853
 21
1.741925522303024
 31
0.0
  0
LINE
  5
207ED
330
207B7
100
AcDbEntity
  8
0
  6
CONTINUOUS
100
AcDbLine
 10
19.15756672960882
 20
1.106134450302922
 30
0.0
 11
17.44267562040888
 21
2.821025559502861
 31
0.0
  0
LINE
  5
207EE
330
207B7
100
AcDbEntity
  8
0
  6
CONTINUOUS
100
AcDbLine
 10
15.83146234993604
 20
3.758719620895513
 30
0.0
 11
14.85691305207612
 21
4.733268918755439
 31
0.0
  0
LINE
  5
207EF
330
207B7
100
AcDbEntity
  8
0
  6
CONTINUOUS
100
AcDbLine
 10
16.01551512670025
 20
4.248186053211494
 30
0.0
 11
15.04094222313957
 21
5.222758956772172
 31
0.0
  0
LINE
  5
207F0
330
207B7
100
AcDbEntity
  8
0
  6
CONTINUOUS
100
AcDbLine
 10
12.90511304310612
 20
6.685068927725435
 30
0.0
 11
10.8270819708403
 21
8.763099999991255
 31
0.0
  0
LINE
  5
207F1
330
207B7
100
AcDbEntity
  8
0
  6
CONTINUOUS
100
AcDbLine
 10
12.41513331849066
 20
7.848567861421083
 30
0.0
 11
11.50060117992049
 21
8.763099999991255
 31
0.0
  0
LINE
  5
207F2
330
207B7
100
AcDbEntity
  8
0
  6
CONTINUOUS
100
AcDbLine
 10
19.35714748038395
 20
1.580072908607975
 30
0.0
 11
17.03709479228923
 21
3.900125596702697
 31
0.0
  0
LINE
  5
207F3
330
207B7
100
AcDbEntity
  8
0
  6
CONTINUOUS
100
AcDbLine
 10
19.55672823115909
 20
2.054011366913028
 30
0.0
 11
16.63151396416958
 21
4.979225633902534
 31
0.0
  0
LINE
  5
207F4
330
207B7
100
AcDbEntity
  8
0
  6
CONTINUOUS
100
AcDbLine
 10
16.19956790346445
 20
4.737652485527476
 30
0.0
 11
15.22497139420302
 21
5.712248994788904
 31
0.0
  0
LINE
  5
207F5
330
207B7
100
AcDbEntity
  8
0
  6
CONTINUOUS
100
AcDbLine
 10
16.38362068022866
 20
5.227118917843457
 30
0.0
 11
15.40900056526648
 21
6.201739032805637
 31
0.0
  0
LINE
  5
207F6
330
207B7
100
AcDbEntity
  8
0
  6
CONTINUOUS
100
AcDbLine
 10
19.75630898193422
 20
2.527949825218081
 30
0.0
 11
18.70774536448286
 21
3.576513442669441
 31
0.0
  0
LINE
  5
207F7
330
207B7
100
AcDbEntity
  8
0
  6
CONTINUOUS
100
AcDbLine
 10
19.95588973270936
 20
3.001888283523134
 30
0.0
 11
18.90726987211446
 21
4.050508144118028
 31
0.0
  0
LINE
  5
207F8
330
207B7
100
AcDbEntity
  8
0
  6
CONTINUOUS
100
AcDbLine
 10
20.15547048348449
 20
3.475826741828186
 30
0.0
 11
19.10679437974606
 21
4.524502845566614
 31
0.0
  0
LINE
  5
207F9
330
207B7
100
AcDbEntity
  8
0
  6
CONTINUOUS
100
AcDbLine
 10
20.35505123425962
 20
3.94976520013324
 30
0.0
 11
19.30631888737766
 21
4.998497547015201
 31
0.0
  0
LINE
  5
207FA
330
207B7
100
AcDbEntity
  8
0
  6
CONTINUOUS
100
AcDbLine
 10
20.55463198503475
 20
4.423703658438292
 30
0.0
 11
19.50584339500926
 21
5.472492248463787
 31
0.0
  0
LINE
  5
207FB
330
207B7
100
AcDbEntity
  8
0
  6
CONTINUOUS
100
AcDbLine
 10
18.37481191085755
 20
3.909446896294752
 30
0.0
 11
15.59302973632993
 21
6.691229070822371
 31
0.0
  0
LINE
  5
207FC
330
207B7
100
AcDbEntity
  8
0
  6
CONTINUOUS
100
AcDbLine
 10
17.96904084440766
 20
4.988737171824825
 30
0.0
 11
15.77705890739338
 21
7.180719108839104
 31
0.0
  0
LINE
  5
207FD
330
207B7
100
AcDbEntity
  8
0
  6
CONTINUOUS
100
AcDbLine
 10
17.56326977795777
 20
6.068027447354899
 30
0.0
 11
15.96108807845684
 21
7.670209146855838
 31
0.0
  0
LINE
  5
207FE
330
207B7
100
AcDbEntity
  8
0
  6
CONTINUOUS
100
AcDbLine
 10
17.15749871150789
 20
7.147317722884972
 30
0.0
 11
16.14511724952029
 21
8.15969918487257
 31
0.0
  0
LINE
  5
207FF
330
207B7
100
AcDbEntity
  8
0
  6
CONTINUOUS
100
AcDbLine
 10
16.751727645058
 20
8.226607998415046
 30
0.0
 11
16.32914642058374
 21
8.649189222889303
 31
0.0
  0
LINE
  5
20800
330
207B7
100
AcDbEntity
  8
0
  6
CONTINUOUS
100
AcDbLine
 10
20.75421273580989
 20
4.897642116743345
 30
0.0
 11
19.70536790264086
 21
5.946486949912374
 31
0.0
  0
LINE
  5
20801
330
207B7
100
AcDbEntity
  8
0
  6
CONTINUOUS
100
AcDbLine
 10
20.95379348658502
 20
5.371580575048398
 30
0.0
 11
19.90489241027246
 21
6.42048165136096
 31
0.0
  0
LINE
  5
20802
330
207B7
100
AcDbEntity
  8
0
  6
CONTINUOUS
100
AcDbLine
 10
21.15337423736015
 20
5.845519033353452
 30
0.0
 11
20.10441691790406
 21
6.894476352809547
 31
0.0
  0
LINE
  5
20803
330
207B7
100
AcDbEntity
  8
0
  6
CONTINUOUS
100
AcDbLine
 10
21.35295498813529
 20
6.319457491658505
 30
0.0
 11
20.30394142553566
 21
7.368471054258134
 31
0.0
  0
LINE
  5
20804
330
207B7
100
AcDbEntity
  8
0
  6
CONTINUOUS
100
AcDbLine
 10
21.55253573891042
 20
6.793395949963558
 30
0.0
 11
20.50346593316726
 21
7.842465755706721
 31
0.0
  0
LINE
  5
20805
330
207B7
100
AcDbEntity
  8
0
  6
CONTINUOUS
100
AcDbLine
 10
21.75211648968556
 20
7.267334408268612
 30
0.0
 11
20.70299044079886
 21
8.316460457155308
 31
0.0
  0
LINE
  5
20806
330
207B7
100
AcDbEntity
  8
0
  6
CONTINUOUS
100
AcDbLine
 10
21.95169724046069
 20
7.741272866573663
 30
0.0
 11
20.9298701070431
 21
8.763099999991256
 31
0.0
  0
LINE
  5
20807
330
207B7
100
AcDbEntity
  8
0
  6
CONTINUOUS
100
AcDbLine
 10
22.15127799123582
 20
8.215211324878716
 30
0.0
 11
21.60338931612328
 21
8.763099999991256
 31
0.0
  0
LINE
  5
20808
330
207B7
100
AcDbEntity
  8
0
  6
CONTINUOUS
100
AcDbLine
 10
22.35085874201096
 20
8.689149783183769
 30
0.0
 11
22.27690852520347
 21
8.763099999991255
 31
0.0
  0
ENDBLK
  5
208FA
330
207B7
100
AcDbEntity
  8
0
100
AcDbBlockEnd
  0
BLOCK
  5
208FB
330
20809
100
AcDbEntity
  8
0
100
AcDbBlockBegin
  2
*X46
 70
     1
 10
0.0
 20
0.0
 30
0.0
  3
*X46
  1

  0
LINE
  5
2080A
330
20809
100
AcDbEntity
  8
0
  6
CONTINUOUS
100
AcDbLine
 10
23.19462913593892
 20
8.169917934846424
 30
0.0
 11
23.70775465517246
 21
8.683043454079957
 31
0.0
  0
LINE
  5
2080B
330
20809
100
AcDbEntity
  8
0
  6
CONTINUOUS
100
AcDbLine
 10
22.64923161835078
 20
6.951001208178088
 30
0.0
 11
23.9159364069932
 21
8.217705996820516
 31
0.0
  0
LINE
  5
2080C
330
20809
100
AcDbEntity
  8
0
  6
CONTINUOUS
100
AcDbLine
 10
22.10383410076263
 20
5.732084481509751
 30
0.0
 11
24.12411815881395
 21
7.752368539561078
 31
0.0
  0
LINE
  5
2080D
330
20809
100
AcDbEntity
  8
0
  6
CONTINUOUS
100
AcDbLine
 10
21.55843658317447
 20
4.513167754841414
 30
0.0
 11
24.3322999106347
 21
7.287031082301639
 31
0.0
  0
LINE
  5
2080E
330
20809
100
AcDbEntity
  8
0
  6
CONTINUOUS
100
AcDbLine
 10
21.01303906558632
 20
3.294251028173077
 30
0.0
 11
24.54048166245544
 21
6.821693625042199
 31
0.0
  0
LINE
  5
2080F
330
20809
100
AcDbEntity
  8
0
  6
CONTINUOUS
100
AcDbLine
 10
20.46764154799817
 20
2.075334301504738
 30
0.0
 11
23.28571549467848
 21
4.89340824818505
 31
0.0
  0
LINE
  5
20810
330
20809
100
AcDbEntity
  8
0
  6
CONTINUOUS
100
AcDbLine
 10
19.92224403041002
 20
0.8564175748364002
 30
0.0
 11
22.74075865492779
 21
3.674932199354171
 31
0.0
  0
LINE
  5
20811
330
20809
100
AcDbEntity
  8
0
  6
CONTINUOUS
100
AcDbLine
 10
23.67305085490148
 20
5.280743608408048
 30
0.0
 11
24.74866341427619
 21
6.356356167782759
 31
0.0
  0
LINE
  5
20812
330
20809
100
AcDbEntity
  8
0
  6
CONTINUOUS
100
AcDbLine
 10
23.88118970842314
 20
4.815363252849522
 30
0.0
 11
24.95684516609694
 21
5.89101871052332
 31
0.0
  0
LINE
  5
20813
330
20809
100
AcDbEntity
  8
0
  6
CONTINUOUS
100
AcDbLine
 10
19.73925852647308
 20
-0.0000871381807288
 30
0.0
 11
23.4103456646501
 21
3.670999999996297
 31
0.0
  0
LINE
  5
20814
330
20809
100
AcDbEntity
  8
0
  6
CONTINUOUS
100
AcDbLine
 10
24.0893285619448
 20
4.349982897290997
 30
0.0
 11
25.16502691791769
 21
5.42568125326388
 31
0.0
  0
LINE
  5
20815
330
20809
100
AcDbEntity
  8
0
  6
CONTINUOUS
100
AcDbLine
 10
20.41282099582748
 20
-0.0000438779065108
 30
0.0
 11
21.64944178675636
 21
1.236576913022366
 31
0.0
  0
LINE
  5
20816
330
20809
100
AcDbEntity
  8
0
  6
CONTINUOUS
100
AcDbLine
 10
22.78126487373161
 20
2.36839999999762
 30
0.0
 11
24.08386487373029
 21
3.670999999996297
 31
0.0
  0
LINE
  5
20817
330
20809
100
AcDbEntity
  8
0
  6
CONTINUOUS
100
AcDbLine
 10
24.29746741546646
 20
3.884602541732471
 30
0.0
 11
25.37320866973843
 21
4.960343796004441
 31
0.0
  0
LINE
  5
20818
330
20809
100
AcDbEntity
  8
0
  6
CONTINUOUS
100
AcDbLine
 10
21.08638346518189
 20
-0.0000006176322938
 30
0.0
 11
21.10379033335899
 21
0.0174062505448083
 31
0.0
  0
LINE
  5
20819
330
20809
100
AcDbEntity
  8
0
  6
CONTINUOUS
100
AcDbLine
 10
23.4547840828118
 20
2.36839999999762
 30
0.0
 11
25.58139042155918
 21
4.495006338745002
 31
0.0
  0
LINE
  5
2081A
330
20809
100
AcDbEntity
  8
0
  6
CONTINUOUS
100
AcDbLine
 10
29.30199999996933
 20
8.215615917155148
 30
0.0
 11
29.84948408280543
 21
8.763099999991255
 31
0.0
  0
LINE
  5
2081B
330
20809
100
AcDbEntity
  8
0
  6
CONTINUOUS
100
AcDbLine
 10
24.12830329189199
 20
2.36839999999762
 30
0.0
 11
25.78957217337993
 21
4.029668881485562
 31
0.0
  0
LINE
  5
2081C
330
20809
100
AcDbEntity
  8
0
  6
CONTINUOUS
100
AcDbLine
 10
29.30199999996933
 20
7.54209670807496
 30
0.0
 11
30.52300329188562
 21
8.763099999991255
 31
0.0
  0
LINE
  5
2081D
330
20809
100
AcDbEntity
  8
0
  6
CONTINUOUS
100
AcDbLine
 10
24.80182250097217
 20
2.36839999999762
 30
0.0
 11
25.99775392520067
 21
3.564331424226122
 31
0.0
  0
LINE
  5
2081E
330
20809
100
AcDbEntity
  8
0
  6
CONTINUOUS
100
AcDbLine
 10
29.30199999996933
 20
6.868577498994774
 30
0.0
 11
30.74199999996926
 21
8.308577498994712
 31
0.0
  0
LINE
  5
2081F
330
20809
100
AcDbEntity
  8
0
  6
CONTINUOUS
100
AcDbLine
 10
25.13028238392013
 20
2.023340673865392
 30
0.0
 11
26.20593567702142
 21
3.098993966966683
 31
0.0
  0
LINE
  5
20820
330
20809
100
AcDbEntity
  8
0
  6
CONTINUOUS
100
AcDbLine
 10
25.33838066033617
 20
1.557919741201244
 30
0.0
 11
26.41411742884217
 21
2.633656509707244
 31
0.0
  0
LINE
  5
20821
330
20809
100
AcDbEntity
  8
0
  6
CONTINUOUS
100
AcDbLine
 10
25.54647893675221
 20
1.092498808537098
 30
0.0
 11
26.62229918066291
 21
2.168319052447804
 31
0.0
  0
LINE
  5
20822
330
20809
100
AcDbEntity
  8
0
  6
CONTINUOUS
100
AcDbLine
 10
25.75457721316825
 20
0.62707787587295
 30
0.0
 11
26.83048093248366
 21
1.702981595188365
 31
0.0
  0
LINE
  5
20823
330
20809
100
AcDbEntity
  8
0
  6
CONTINUOUS
100
AcDbLine
 10
29.30199999996933
 20
6.195058289914587
 30
0.0
 11
30.74199999996926
 21
7.635058289914522
 31
0.0
  0
LINE
  5
20824
330
20809
100
AcDbEntity
  8
0
  6
CONTINUOUS
100
AcDbLine
 10
29.30199999996933
 20
5.521539080834401
 30
0.0
 11
30.74199999996926
 21
6.961539080834331
 31
0.0
  0
LINE
  5
20825
330
20809
100
AcDbEntity
  8
0
  6
CONTINUOUS
100
AcDbLine
 10
29.30199999996933
 20
4.848019871754214
 30
0.0
 11
30.74199999996925
 21
6.288019871754143
 31
0.0
  0
LINE
  5
20826
330
20809
100
AcDbEntity
  8
0
  6
CONTINUOUS
100
AcDbLine
 10
29.30199999996933
 20
4.174500662674028
 30
0.0
 11
30.74199999996925
 21
5.614500662673953
 31
0.0
  0
LINE
  5
20827
330
20809
100
AcDbEntity
  8
0
  6
CONTINUOUS
100
AcDbLine
 10
25.96267548958429
 20
0.1616569432088024
 30
0.0
 11
27.18411854636669
 21
1.383099999991207
 31
0.0
  0
LINE
  5
20828
330
20809
100
AcDbEntity
  8
0
  6
CONTINUOUS
100
AcDbLine
 10
29.30199999996933
 20
3.500981453593841
 30
0.0
 11
30.74199999996925
 21
4.940981453593762
 31
0.0
  0
LINE
  5
20829
330
20809
100
AcDbEntity
  8
0
  6
CONTINUOUS
100
AcDbLine
 10
26.50763775544691
 20
0.0330999999912356
 30
0.0
 11
27.85763775544689
 21
1.383099999991223
 31
0.0
  0
LINE
  5
2082A
330
20809
100
AcDbEntity
  8
0
  6
CONTINUOUS
100
AcDbLine
 10
29.30199999996933
 20
2.827462244513656
 30
0.0
 11
30.74199999996925
 21
4.267462244513574
 31
0.0
  0
LINE
  5
2082B
330
20809
100
AcDbEntity
  8
0
  6
CONTINUOUS
100
AcDbLine
 10
27.18115696452709
 20
0.0330999999912356
 30
0.0
 11
28.57843169463094
 21
1.430374730095086
 31
0.0
  0
LINE
  5
2082C
330
20809
100
AcDbEntity
  8
0
  6
CONTINUOUS
100
AcDbLine
 10
29.2547252698654
 20
2.106668305329547
 30
0.0
 11
30.74199999996924
 21
3.593943035433384
 31
0.0
  0
LINE
  5
2082D
330
20809
100
AcDbEntity
  8
0
  6
CONTINUOUS
100
AcDbLine
 10
27.85467617360728
 20
0.0330999999912356
 30
0.0
 11
30.74199999996924
 21
2.920423826353195
 31
0.0
  0
LINE
  5
2082E
330
20809
100
AcDbEntity
  8
0
  6
CONTINUOUS
100
AcDbLine
 10
28.55194421293851
 20
0.0568488302422763
 30
0.0
 11
30.71825116971818
 21
2.223155787021951
 31
0.0
  0
LINE
  5
2082F
330
20809
100
AcDbEntity
  8
0
  6
CONTINUOUS
100
AcDbLine
 10
29.51480923620385
 20
0.346194644427432
 30
0.0
 11
30.42890535553301
 21
1.260290763756593
 31
0.0
  0
LINE
  5
20830
330
20809
100
AcDbEntity
  8
0
  6
CONTINUOUS
100
AcDbLine
 10
19.59027867740337
 20
-0.0000967065718083
 30
0.0
 11
19.55485265190471
 21
0.035329318926844
 31
0.0
  0
LINE
  5
20831
330
20809
100
AcDbEntity
  8
0
  6
CONTINUOUS
100
AcDbLine
 10
20.26375463176586
 20
-0.0000534518541091
 30
0.0
 11
19.76305575737534
 21
0.5006454225364014
 31
0.0
  0
LINE
  5
20832
330
20809
100
AcDbEntity
  8
0
  6
CONTINUOUS
100
AcDbLine
 10
20.93723058612834
 20
-0.0000101971364099
 30
0.0
 11
19.97125886284597
 21
0.965961526145958
 31
0.0
  0
LINE
  5
20833
330
20809
100
AcDbEntity
  8
0
  6
CONTINUOUS
100
AcDbLine
 10
21.25514828313686
 20
0.355591314935257
 30
0.0
 11
20.1794619683166
 21
1.431277629755512
 31
0.0
  0
LINE
  5
20834
330
20809
100
AcDbEntity
  8
0
  6
CONTINUOUS
100
AcDbLine
 10
21.46338838394921
 20
0.8208704232030986
 30
0.0
 11
20.38766507378723
 21
1.896593733365069
 31
0.0
  0
LINE
  5
20835
330
20809
100
AcDbEntity
  8
0
  6
CONTINUOUS
100
AcDbLine
 10
21.67162848476155
 20
1.28614953147094
 30
0.0
 11
20.59586817925786
 21
2.361909836974626
 31
0.0
  0
LINE
  5
20836
330
20809
100
AcDbEntity
  8
0
  6
CONTINUOUS
100
AcDbLine
 10
21.8798685855739
 20
1.751428639738782
 30
0.0
 11
20.80407128472849
 21
2.827225940584183
 31
0.0
  0
LINE
  5
20837
330
20809
100
AcDbEntity
  8
0
  6
CONTINUOUS
100
AcDbLine
 10
22.08810868638624
 20
2.216707748006623
 30
0.0
 11
21.01227439019912
 21
3.292542044193739
 31
0.0
  0
LINE
  5
20838
330
20809
100
AcDbEntity
  8
0
  6
CONTINUOUS
100
AcDbLine
 10
22.60993564347543
 20
2.36839999999762
 30
0.0
 11
21.22047749566975
 21
3.757858147803296
 31
0.0
  0
LINE
  5
20839
330
20809
100
AcDbEntity
  8
0
  6
CONTINUOUS
100
AcDbLine
 10
23.28345485255561
 20
2.36839999999762
 30
0.0
 11
21.42868060114038
 21
4.223174251412853
 31
0.0
  0
LINE
  5
2083A
330
20809
100
AcDbEntity
  8
0
  6
CONTINUOUS
100
AcDbLine
 10
26.29227406164219
 20
0.0330999999912356
 30
0.0
 11
25.80009199592872
 21
0.5252820657046957
 31
0.0
  0
LINE
  5
2083B
330
20809
100
AcDbEntity
  8
0
  6
CONTINUOUS
100
AcDbLine
 10
23.9569740616358
 20
2.36839999999762
 30
0.0
 11
21.63688370661101
 21
4.688490355022409
 31
0.0
  0
LINE
  5
2083C
330
20809
100
AcDbEntity
  8
0
  6
CONTINUOUS
100
AcDbLine
 10
26.96579327072237
 20
0.0330999999912356
 30
0.0
 11
25.2554132311971
 21
1.743480039516508
 31
0.0
  0
LINE
  5
2083D
330
20809
100
AcDbEntity
  8
0
  6
CONTINUOUS
100
AcDbLine
 10
24.63049327071599
 20
2.36839999999762
 30
0.0
 11
23.32789327071731
 21
3.670999999996297
 31
0.0
  0
LINE
  5
2083E
330
20809
100
AcDbEntity
  8
0
  6
CONTINUOUS
100
AcDbLine
 10
22.92098674744635
 20
4.077906523267254
 30
0.0
 11
21.84508681208164
 21
5.153806458631966
 31
0.0
  0
LINE
  5
2083F
330
20809
100
AcDbEntity
  8
0
  6
CONTINUOUS
100
AcDbLine
 10
27.63931247980256
 20
0.0330999999912356
 30
0.0
 11
24.0014124797975
 21
3.670999999996297
 31
0.0
  0
LINE
  5
20840
330
20809
100
AcDbEntity
  8
0
  6
CONTINUOUS
100
AcDbLine
 10
23.129125600968
 20
4.5432868788258
 30
0.0
 11
22.05328991755227
 21
5.619122562241522
 31
0.0
  0
LINE
  5
20841
330
20809
100
AcDbEntity
  8
0
  6
CONTINUOUS
100
AcDbLine
 10
28.31283168888275
 20
0.0330999999912356
 30
0.0
 11
24.16488385994816
 21
4.181047828925828
 31
0.0
  0
LINE
  5
20842
330
20809
100
AcDbEntity
  8
0
  6
CONTINUOUS
100
AcDbLine
 10
23.33726445448964
 20
5.008667234384345
 30
0.0
 11
22.2614930230229
 21
6.084438665851079
 31
0.0
  0
LINE
  5
20843
330
20809
100
AcDbEntity
  8
0
  6
CONTINUOUS
100
AcDbLine
 10
28.90645333830136
 20
0.1129975596528112
 30
0.0
 11
27.63635089796295
 21
1.383099999991217
 31
0.0
  0
LINE
  5
20844
330
20809
100
AcDbEntity
  8
0
  6
CONTINUOUS
100
AcDbLine
 10
26.43704649509776
 20
2.582404402856405
 30
0.0
 11
23.61992702019732
 21
5.399523877756844
 31
0.0
  0
LINE
  5
20845
330
20809
100
AcDbEntity
  8
0
  6
CONTINUOUS
100
AcDbLine
 10
23.54540330801128
 20
5.47404758994289
 30
0.0
 11
22.46969612849353
 21
6.549754769460635
 31
0.0
  0
LINE
  5
20846
330
20809
100
AcDbEntity
  8
0
  6
CONTINUOUS
100
AcDbLine
 10
29.40349360806839
 20
0.2894764989659606
 30
0.0
 11
28.30987010704312
 21
1.383099999991234
 31
0.0
  0
LINE
  5
20847
330
20809
100
AcDbEntity
  8
0
  6
CONTINUOUS
100
AcDbLine
 10
25.89179548232307
 20
3.801174624711282
 30
0.0
 11
22.67789923396416
 21
7.015070873070191
 31
0.0
  0
LINE
  5
20848
330
20809
100
AcDbEntity
  8
0
  6
CONTINUOUS
100
AcDbLine
 10
29.83195328664716
 20
0.5345360294673855
 30
0.0
 11
28.85740608974929
 21
1.50908322636525
 31
0.0
  0
LINE
  5
20849
330
20809
100
AcDbEntity
  8
0
  6
CONTINUOUS
100
AcDbLine
 10
25.34654446954838
 20
5.01994484656616
 30
0.0
 11
22.88610233943479
 21
7.480386976679748
 31
0.0
  0
LINE
  5
2084A
330
20809
100
AcDbEntity
  8
0
  6
CONTINUOUS
100
AcDbLine
 10
30.16871289118725
 20
0.8712956340074771
 30
0.0
 11
29.18680861743091
 21
1.853199907763824
 31
0.0
  0
LINE
  5
2084B
330
20809
100
AcDbEntity
  8
0
  6
CONTINUOUS
100
AcDbLine
 10
24.80129345677369
 20
6.238715068421037
 30
0.0
 11
23.09430544490542
 21
7.945703080289305
 31
0.0
  0
LINE
  5
2084C
330
20809
100
AcDbEntity
  8
0
  6
CONTINUOUS
100
AcDbLine
 10
30.43711825255073
 20
1.276409481724182
 30
0.0
 11
29.30199999996933
 21
2.411527734305588
 31
0.0
  0
LINE
  5
2084D
330
20809
100
AcDbEntity
  8
0
  6
CONTINUOUS
100
AcDbLine
 10
24.256042443999
 20
7.457485290275915
 30
0.0
 11
23.30250855037605
 21
8.411019183898862
 31
0.0
  0
LINE
  5
2084E
330
20809
100
AcDbEntity
  8
0
  6
CONTINUOUS
100
AcDbLine
 10
30.6424542258006
 20
1.744592717554502
 30
0.0
 11
29.30199999996933
 21
3.085046943385775
 31
0.0
  0
LINE
  5
2084F
330
20809
100
AcDbEntity
  8
0
  6
CONTINUOUS
100
AcDbLine
 10
23.71079143122431
 20
8.676255512130794
 30
0.0
 11
23.51071165584668
 21
8.876335287508416
 31
0.0
  0
LINE
  5
20850
330
20809
100
AcDbEntity
  8
0
  6
CONTINUOUS
100
AcDbLine
 10
30.73454365592805
 20
2.326022496507238
 30
0.0
 11
29.30199999996933
 21
3.758566152465961
 31
0.0
  0
LINE
  5
20851
330
20809
100
AcDbEntity
  8
0
  6
CONTINUOUS
100
AcDbLine
 10
30.74199999996924
 20
2.992085361546236
 30
0.0
 11
29.30199999996933
 21
4.432085361546148
 31
0.0
  0
LINE
  5
20852
330
20809
100
AcDbEntity
  8
0
  6
CONTINUOUS
100
AcDbLine
 10
30.74199999996924
 20
3.665604570626419
 30
0.0
 11
29.30199999996933
 21
5.105604570626333
 31
0.0
  0
LINE
  5
20853
330
20809
100
AcDbEntity
  8
0
  6
CONTINUOUS
100
AcDbLine
 10
30.74199999996925
 20
4.339123779706602
 30
0.0
 11
29.30199999996933
 21
5.77912377970652
 31
0.0
  0
LINE
  5
20854
330
20809
100
AcDbEntity
  8
0
  6
CONTINUOUS
100
AcDbLine
 10
30.74199999996925
 20
5.012642988786785
 30
0.0
 11
29.30199999996933
 21
6.452642988786707
 31
0.0
  0
LINE
  5
20855
330
20809
100
AcDbEntity
  8
0
  6
CONTINUOUS
100
AcDbLine
 10
30.74199999996925
 20
5.68616219786697
 30
0.0
 11
29.30199999996933
 21
7.126162197866894
 31
0.0
  0
LINE
  5
20856
330
20809
100
AcDbEntity
  8
0
  6
CONTINUOUS
100
AcDbLine
 10
30.74199999996925
 20
6.359681406947153
 30
0.0
 11
29.30199999996933
 21
7.799681406947081
 31
0.0
  0
LINE
  5
20857
330
20809
100
AcDbEntity
  8
0
  6
CONTINUOUS
100
AcDbLine
 10
30.74199999996926
 20
7.033200616027337
 30
0.0
 11
29.30199999996933
 21
8.473200616027269
 31
0.0
  0
LINE
  5
20858
330
20809
100
AcDbEntity
  8
0
  6
CONTINUOUS
100
AcDbLine
 10
30.74199999996926
 20
7.706719825107518
 30
0.0
 11
29.68561982508552
 21
8.763099999991255
 31
0.0
  0
LINE
  5
20859
330
20809
100
AcDbEntity
  8
0
  6
CONTINUOUS
100
AcDbLine
 10
30.74199999996926
 20
8.380239034187703
 30
0.0
 11
30.35913903416571
 21
8.763099999991255
 31
0.0
  0
ENDBLK
  5
208FC
330
20809
100
AcDbEntity
  8
0
100
AcDbBlockEnd
  0
BLOCK
  5
208FD
330
2085A
100
AcDbEntity
  8
0
100
AcDbBlockBegin
  2
*X47
 70
     1
 10
0.0
 20
0.0
 30
0.0
  3
*X47
  1

  0
LINE
  5
2085B
330
2085A
100
AcDbEntity
  8
0
  6
CONTINUOUS
100
AcDbLine
 10
31.64199999996833
 20
8.5350582899136
 30
0.0
 11
31.87004171004599
 21
8.763099999991255
 31
0.0
  0
LINE
  5
2085C
330
2085A
100
AcDbEntity
  8
0
  6
CONTINUOUS
100
AcDbLine
 10
31.64199999996833
 20
7.861539080833413
 30
0.0
 11
32.54356091912618
 21
8.763099999991255
 31
0.0
  0
LINE
  5
2085D
330
2085A
100
AcDbEntity
  8
0
  6
CONTINUOUS
100
AcDbLine
 10
31.64199999996833
 20
7.188019871753227
 30
0.0
 11
33.08199999996839
 21
8.628019871753281
 31
0.0
  0
LINE
  5
2085E
330
2085A
100
AcDbEntity
  8
0
  6
CONTINUOUS
100
AcDbLine
 10
31.64199999996833
 20
6.514500662673041
 30
0.0
 11
33.08199999996839
 21
7.954500662673095
 31
0.0
  0
LINE
  5
2085F
330
2085A
100
AcDbEntity
  8
0
  6
CONTINUOUS
100
AcDbLine
 10
31.64199999996833
 20
5.840981453592855
 30
0.0
 11
33.08199999996839
 21
7.28098145359291
 31
0.0
  0
LINE
  5
20860
330
2085A
100
AcDbEntity
  8
0
  6
CONTINUOUS
100
AcDbLine
 10
31.64199999996833
 20
5.167462244512668
 30
0.0
 11
33.08199999996839
 21
6.607462244512723
 31
0.0
  0
LINE
  5
20861
330
2085A
100
AcDbEntity
  8
0
  6
CONTINUOUS
100
AcDbLine
 10
31.64199999996833
 20
4.493943035432482
 30
0.0
 11
33.08199999996839
 21
5.933943035432536
 31
0.0
  0
LINE
  5
20862
330
2085A
100
AcDbEntity
  8
0
  6
CONTINUOUS
100
AcDbLine
 10
31.64199999996833
 20
3.820423826352294
 30
0.0
 11
33.08199999996839
 21
5.260423826352349
 31
0.0
  0
LINE
  5
20863
330
2085A
100
AcDbEntity
  8
0
  6
CONTINUOUS
100
AcDbLine
 10
31.64199999996833
 20
3.146904617272108
 30
0.0
 11
33.08199999996839
 21
4.586904617272163
 31
0.0
  0
LINE
  5
20864
330
2085A
100
AcDbEntity
  8
0
  6
CONTINUOUS
100
AcDbLine
 10
36.23199999996837
 20
8.410423826352327
 30
0.0
 11
36.58467617360729
 21
8.763099999991255
 31
0.0
  0
LINE
  5
20865
330
2085A
100
AcDbEntity
  8
0
  6
CONTINUOUS
100
AcDbLine
 10
36.23199999996837
 20
7.73690461727214
 30
0.0
 11
37.25819538268748
 21
8.763099999991255
 31
0.0
  0
LINE
  5
20866
330
2085A
100
AcDbEntity
  8
0
  6
CONTINUOUS
100
AcDbLine
 10
31.64295791647285
 20
2.474343324696431
 30
0.0
 11
33.08199999996839
 21
3.913385408191976
 31
0.0
  0
LINE
  5
20867
330
2085A
100
AcDbEntity
  8
0
  6
CONTINUOUS
100
AcDbLine
 10
31.72131278798881
 20
1.879178987132208
 30
0.0
 11
33.08199999996839
 21
3.239866199111789
 31
0.0
  0
LINE
  5
20868
330
2085A
100
AcDbEntity
  8
0
  6
CONTINUOUS
100
AcDbLine
 10
36.23199999996837
 20
7.063385408191953
 30
0.0
 11
37.67199999996831
 21
8.503385408191894
 31
0.0
  0
LINE
  5
20869
330
2085A
100
AcDbEntity
  8
0
  6
CONTINUOUS
100
AcDbLine
 10
36.23199999996837
 20
6.389866199111767
 30
0.0
 11
37.67199999996831
 21
7.829866199111708
 31
0.0
  0
LINE
  5
2086A
330
2085A
100
AcDbEntity
  8
0
  6
CONTINUOUS
100
AcDbLine
 10
31.90398109638795
 20
1.388328086451165
 30
0.0
 11
33.08199999996839
 21
2.566346990031603
 31
0.0
  0
LINE
  5
2086B
330
2085A
100
AcDbEntity
  8
0
  6
CONTINUOUS
100
AcDbLine
 10
36.23199999996837
 20
5.71634699003158
 30
0.0
 11
37.67199999996831
 21
7.156346990031522
 31
0.0
  0
LINE
  5
2086C
330
2085A
100
AcDbEntity
  8
0
  6
CONTINUOUS
100
AcDbLine
 10
32.15410588803598
 20
0.9649336690190076
 30
0.0
 11
33.19577568229511
 21
2.006603463278144
 31
0.0
  0
LINE
  5
2086D
330
2085A
100
AcDbEntity
  8
0
  6
CONTINUOUS
100
AcDbLine
 10
36.23199999996837
 20
5.042827780951393
 30
0.0
 11
37.67199999996831
 21
6.482827780951334
 31
0.0
  0
LINE
  5
2086E
330
2085A
100
AcDbEntity
  8
0
  6
CONTINUOUS
100
AcDbLine
 10
32.45868320364774
 20
0.5959917755505852
 30
0.0
 11
33.48433514284099
 21
1.621643714743831
 31
0.0
  0
LINE
  5
2086F
330
2085A
100
AcDbEntity
  8
0
  6
CONTINUOUS
100
AcDbLine
 10
36.23199999996837
 20
4.369308571871207
 30
0.0
 11
37.67199999996831
 21
5.809308571871148
 31
0.0
  0
LINE
  5
20870
330
2085A
100
AcDbEntity
  8
0
  6
CONTINUOUS
100
AcDbLine
 10
32.83977805121244
 20
0.3035674140350983
 30
0.0
 11
33.9144983171802
 21
1.378287680002859
 31
0.0
  0
LINE
  5
20871
330
2085A
100
AcDbEntity
  8
0
  6
CONTINUOUS
100
AcDbLine
 10
36.23199999996837
 20
3.695789362791021
 30
0.0
 11
37.67199999996831
 21
5.135789362790963
 31
0.0
  0
LINE
  5
20872
330
2085A
100
AcDbEntity
  8
0
  6
CONTINUOUS
100
AcDbLine
 10
33.28925592101007
 20
0.0795260747525335
 30
0.0
 11
34.4429104952855
 21
1.233180649027971
 31
0.0
  0
LINE
  5
20873
330
2085A
100
AcDbEntity
  8
0
  6
CONTINUOUS
100
AcDbLine
 10
36.23199999996837
 20
3.022270153710834
 30
0.0
 11
37.67199999996831
 21
4.462270153710776
 31
0.0
  0
LINE
  5
20874
330
2085A
100
AcDbEntity
  8
0
  6
CONTINUOUS
100
AcDbLine
 10
33.76550592101022
 20
-0.1177431343275011
 30
0.0
 11
35.18258581678813
 21
1.299336761450407
 31
0.0
  0
LINE
  5
20875
330
2085A
100
AcDbEntity
  8
0
  6
CONTINUOUS
100
AcDbLine
 10
36.20355631289775
 20
2.320307257560033
 30
0.0
 11
37.67199999996831
 21
3.788750944630589
 31
0.0
  0
LINE
  5
20876
330
2085A
100
AcDbEntity
  8
0
  6
CONTINUOUS
100
AcDbLine
 10
34.35908899259119
 20
-0.1976792718267175
 30
0.0
 11
37.67199999996831
 21
3.115231735550402
 31
0.0
  0
LINE
  5
20877
330
2085A
100
AcDbEntity
  8
0
  6
CONTINUOUS
100
AcDbLine
 10
35.04438808203069
 20
-0.1858993914674008
 30
0.0
 11
37.66594960818956
 21
2.435662134691464
 31
0.0
  0
LINE
  5
20878
330
2085A
100
AcDbEntity
  8
0
  6
CONTINUOUS
100
AcDbLine
 10
35.95405053101277
 20
0.0502438484344916
 30
0.0
 11
37.49337557446166
 21
1.589568891883381
 31
0.0
  0
LINE
  5
20879
330
2085A
100
AcDbEntity
  8
0
  6
CONTINUOUS
100
AcDbLine
 10
32.48400274193772
 20
0.5765634104975641
 30
0.0
 11
32.34694398754057
 21
0.7136221648947103
 31
0.0
  0
LINE
  5
2087A
330
2085A
100
AcDbEntity
  8
0
  6
CONTINUOUS
100
AcDbLine
 10
33.86697683926317
 20
-0.1328914777477044
 30
0.0
 11
31.70105830546678
 21
2.033027056048692
 31
0.0
  0
LINE
  5
2087B
330
2085A
100
AcDbEntity
  8
0
  6
CONTINUOUS
100
AcDbLine
 10
34.64261010498837
 20
-0.2350055343927187
 30
0.0
 11
31.64199999996833
 21
2.765604570627322
 31
0.0
  0
LINE
  5
2087C
330
2085A
100
AcDbEntity
  8
0
  6
CONTINUOUS
100
AcDbLine
 10
35.24112258276081
 20
-0.1599988030849646
 30
0.0
 11
31.64199999996833
 21
3.439123779707508
 31
0.0
  0
LINE
  5
2087D
330
2085A
100
AcDbEntity
  8
0
  6
CONTINUOUS
100
AcDbLine
 10
35.777520339722
 20
-0.0228773509659694
 30
0.0
 11
34.52146233972803
 21
1.233180649027998
 31
0.0
  0
LINE
  5
2087E
330
2085A
100
AcDbEntity
  8
0
  6
CONTINUOUS
100
AcDbLine
 10
33.08199999996839
 20
2.672642988787641
 30
0.0
 11
31.64199999996833
 21
4.112642988787695
 31
0.0
  0
LINE
  5
2087F
330
2085A
100
AcDbEntity
  8
0
  6
CONTINUOUS
100
AcDbLine
 10
36.25377033972294
 20
0.1743918581132773
 30
0.0
 11
35.14317118804349
 21
1.284991009792725
 31
0.0
  0
LINE
  5
20880
330
2085A
100
AcDbEntity
  8
0
  6
CONTINUOUS
100
AcDbLine
 10
33.08199999996839
 20
3.346162197867827
 30
0.0
 11
31.64199999996833
 21
4.786162197867881
 31
0.0
  0
LINE
  5
20881
330
2085A
100
AcDbEntity
  8
0
  6
CONTINUOUS
100
AcDbLine
 10
36.65748856908375
 20
0.4441928378326456
 30
0.0
 11
35.63696437513804
 21
1.464717031778358
 31
0.0
  0
LINE
  5
20882
330
2085A
100
AcDbEntity
  8
0
  6
CONTINUOUS
100
AcDbLine
 10
33.08199999996839
 20
4.019681406948013
 30
0.0
 11
31.64199999996833
 21
5.459681406948068
 31
0.0
  0
LINE
  5
20883
330
2085A
100
AcDbEntity
  8
0
  6
CONTINUOUS
100
AcDbLine
 10
37.00809517418186
 20
0.7671054418147287
 30
0.0
 11
35.99025189342645
 21
1.784948722570141
 31
0.0
  0
LINE
  5
20884
330
2085A
100
AcDbEntity
  8
0
  6
CONTINUOUS
100
AcDbLine
 10
33.08199999996839
 20
4.6932006160282
 30
0.0
 11
31.64199999996833
 21
6.133200616028255
 31
0.0
  0
LINE
  5
20885
330
2085A
100
AcDbEntity
  8
0
  6
CONTINUOUS
100
AcDbLine
 10
37.30051953569851
 20
1.148200289378269
 30
0.0
 11
36.19229254868971
 21
2.256427276387067
 31
0.0
  0
LINE
  5
20886
330
2085A
100
AcDbEntity
  8
0
  6
CONTINUOUS
100
AcDbLine
 10
33.08199999996839
 20
5.366719825108387
 30
0.0
 11
31.64199999996833
 21
6.806719825108441
 31
0.0
  0
LINE
  5
20887
330
2085A
100
AcDbEntity
  8
0
  6
CONTINUOUS
100
AcDbLine
 10
37.50488468691001
 20
1.617354347246954
 30
0.0
 11
36.23199999996837
 21
2.890239034188595
 31
0.0
  0
LINE
  5
20888
330
2085A
100
AcDbEntity
  8
0
  6
CONTINUOUS
100
AcDbLine
 10
33.08199999996839
 20
6.040239034188573
 30
0.0
 11
31.64199999996833
 21
7.480239034188628
 31
0.0
  0
LINE
  5
20889
330
2085A
100
AcDbEntity
  8
0
  6
CONTINUOUS
100
AcDbLine
 10
37.63036768068979
 20
2.165390562547355
 30
0.0
 11
36.23199999996837
 21
3.563758243268782
 31
0.0
  0
LINE
  5
2088A
330
2085A
100
AcDbEntity
  8
0
  6
CONTINUOUS
100
AcDbLine
 10
33.08199999996839
 20
6.713758243268759
 30
0.0
 11
31.64199999996833
 21
8.153758243268815
 31
0.0
  0
LINE
  5
2088B
330
2085A
100
AcDbEntity
  8
0
  6
CONTINUOUS
100
AcDbLine
 10
37.67199999996831
 20
2.797277452349027
 30
0.0
 11
36.23199999996837
 21
4.237277452348969
 31
0.0
  0
LINE
  5
2088C
330
2085A
100
AcDbEntity
  8
0
  6
CONTINUOUS
100
AcDbLine
 10
37.67199999996831
 20
3.470796661429214
 30
0.0
 11
36.23199999996837
 21
4.910796661429155
 31
0.0
  0
LINE
  5
2088D
330
2085A
100
AcDbEntity
  8
0
  6
CONTINUOUS
100
AcDbLine
 10
37.67199999996831
 20
4.1443158705094
 30
0.0
 11
36.23199999996837
 21
5.584315870509341
 31
0.0
  0
LINE
  5
2088E
330
2085A
100
AcDbEntity
  8
0
  6
CONTINUOUS
100
AcDbLine
 10
33.08199999996839
 20
7.387277452348947
 30
0.0
 11
31.70617745232608
 21
8.763099999991255
 31
0.0
  0
LINE
  5
2088F
330
2085A
100
AcDbEntity
  8
0
  6
CONTINUOUS
100
AcDbLine
 10
33.08199999996839
 20
8.060796661429134
 30
0.0
 11
32.37969666140626
 21
8.763099999991255
 31
0.0
  0
LINE
  5
20890
330
2085A
100
AcDbEntity
  8
0
  6
CONTINUOUS
100
AcDbLine
 10
33.08199999996839
 20
8.73431587050932
 30
0.0
 11
33.05321587048645
 21
8.763099999991255
 31
0.0
  0
LINE
  5
20891
330
2085A
100
AcDbEntity
  8
0
  6
CONTINUOUS
100
AcDbLine
 10
37.67199999996831
 20
4.817835079589587
 30
0.0
 11
36.23199999996837
 21
6.257835079589528
 31
0.0
  0
LINE
  5
20892
330
2085A
100
AcDbEntity
  8
0
  6
CONTINUOUS
100
AcDbLine
 10
37.67199999996831
 20
5.491354288669773
 30
0.0
 11
36.23199999996837
 21
6.931354288669715
 31
0.0
  0
LINE
  5
20893
330
2085A
100
AcDbEntity
  8
0
  6
CONTINUOUS
100
AcDbLine
 10
37.67199999996831
 20
6.164873497749959
 30
0.0
 11
36.23199999996837
 21
7.6048734977499
 31
0.0
  0
LINE
  5
20894
330
2085A
100
AcDbEntity
  8
0
  6
CONTINUOUS
100
AcDbLine
 10
37.67199999996831
 20
6.838392706830145
 30
0.0
 11
36.23199999996837
 21
8.278392706830086
 31
0.0
  0
LINE
  5
20895
330
2085A
100
AcDbEntity
  8
0
  6
CONTINUOUS
100
AcDbLine
 10
37.67199999996831
 20
7.511911915910333
 30
0.0
 11
36.42081191588738
 21
8.763099999991255
 31
0.0
  0
LINE
  5
20896
330
2085A
100
AcDbEntity
  8
0
  6
CONTINUOUS
100
AcDbLine
 10
37.67199999996831
 20
8.18543112499052
 30
0.0
 11
37.09433112496757
 21
8.763099999991255
 31
0.0
  0
ENDBLK
  5
208FE
330
2085A
100
AcDbEntity
  8
0
100
AcDbBlockEnd
  0
BLOCK
  5
208FF
330
20897
100
AcDbEntity
  8
0
100
AcDbBlockBegin
  2
*X48
 70
     1
 10
0.0
 20
0.0
 30
0.0
  3
*X48
  1

  0
LINE
  5
20898
330
20897
100
AcDbEntity
  8
0
  6
CONTINUOUS
100
AcDbLine
 10
38.60499999996136
 20
8.762866199104765
 30
0.0
 11
38.71672554182345
 21
8.874591740966855
 31
0.0
  0
LINE
  5
20899
330
20897
100
AcDbEntity
  8
0
  6
CONTINUOUS
100
AcDbLine
 10
38.60499999996136
 20
8.089346990024577
 30
0.0
 11
39.03418785440363
 21
8.518534844466847
 31
0.0
  0
LINE
  5
2089A
330
20897
100
AcDbEntity
  8
0
  6
CONTINUOUS
100
AcDbLine
 10
38.60499999996136
 20
7.41582778094439
 30
0.0
 11
39.35165016698382
 21
8.16247794796684
 31
0.0
  0
LINE
  5
2089B
330
20897
100
AcDbEntity
  8
0
  6
CONTINUOUS
100
AcDbLine
 10
38.60499999996136
 20
6.742308571864204
 30
0.0
 11
39.66911247956399
 21
7.806421051466834
 31
0.0
  0
LINE
  5
2089C
330
20897
100
AcDbEntity
  8
0
  6
CONTINUOUS
100
AcDbLine
 10
38.60499999996136
 20
6.068789362784018
 30
0.0
 11
39.98657479214418
 21
7.450364154966827
 31
0.0
  0
LINE
  5
2089D
330
20897
100
AcDbEntity
  8
0
  6
CONTINUOUS
100
AcDbLine
 10
38.60499999996136
 20
5.395270153703832
 30
0.0
 11
40.30403710472435
 21
7.09430725846682
 31
0.0
  0
LINE
  5
2089E
330
20897
100
AcDbEntity
  8
0
  6
CONTINUOUS
100
AcDbLine
 10
38.60499999996136
 20
4.721750944623645
 30
0.0
 11
40.62149941730453
 21
6.738250361966813
 31
0.0
  0
LINE
  5
2089F
330
20897
100
AcDbEntity
  8
0
  6
CONTINUOUS
100
AcDbLine
 10
38.60499999996136
 20
4.048231735543458
 30
0.0
 11
40.93896172988471
 21
6.382193465466806
 31
0.0
  0
LINE
  5
208A0
330
20897
100
AcDbEntity
  8
0
  6
CONTINUOUS
100
AcDbLine
 10
38.60499999996136
 20
3.374712526463272
 30
0.0
 11
40.02599999995994
 21
4.795712526461843
 31
0.0
  0
LINE
  5
208A1
330
20897
100
AcDbEntity
  8
0
  6
CONTINUOUS
100
AcDbLine
 10
38.60499999996136
 20
2.701193317383085
 30
0.0
 11
40.02599999995994
 21
4.122193317381657
 31
0.0
  0
LINE
  5
208A2
330
20897
100
AcDbEntity
  8
0
  6
CONTINUOUS
100
AcDbLine
 10
40.28339754687704
 20
5.053110073378947
 30
0.0
 11
41.25642404246489
 21
6.026136568966799
 31
0.0
  0
LINE
  5
208A3
330
20897
100
AcDbEntity
  8
0
  6
CONTINUOUS
100
AcDbLine
 10
40.60085985945722
 20
4.697053176878939
 30
0.0
 11
41.57388635504507
 21
5.670079672466793
 31
0.0
  0
LINE
  5
208A4
330
20897
100
AcDbEntity
  8
0
  6
CONTINUOUS
100
AcDbLine
 10
43.57899999995641
 20
8.348712526458318
 30
0.0
 11
43.99338747348935
 21
8.763099999991255
 31
0.0
  0
LINE
  5
208A5
330
20897
100
AcDbEntity
  8
0
  6
CONTINUOUS
100
AcDbLine
 10
43.57899999995641
 20
7.675193317378131
 30
0.0
 11
44.66690668256953
 21
8.763099999991255
 31
0.0
  0
LINE
  5
208A6
330
20897
100
AcDbEntity
  8
0
  6
CONTINUOUS
100
AcDbLine
 10
38.60499999996136
 20
2.027674108302898
 30
0.0
 11
40.02599999995994
 21
3.44867410830147
 31
0.0
  0
LINE
  5
208A7
330
20897
100
AcDbEntity
  8
0
  6
CONTINUOUS
100
AcDbLine
 10
38.60499999996136
 20
1.354154899222712
 30
0.0
 11
40.02599999995994
 21
2.775154899221284
 31
0.0
  0
LINE
  5
208A8
330
20897
100
AcDbEntity
  8
0
  6
CONTINUOUS
100
AcDbLine
 10
38.60499999996136
 20
0.6806356901425255
 30
0.0
 11
40.02599999995994
 21
2.101635690141098
 31
0.0
  0
LINE
  5
208A9
330
20897
100
AcDbEntity
  8
0
  6
CONTINUOUS
100
AcDbLine
 10
38.60499999996136
 20
0.0071164810623383
 30
0.0
 11
40.02599999995994
 21
1.428116481060911
 31
0.0
  0
LINE
  5
208AA
330
20897
100
AcDbEntity
  8
0
  6
CONTINUOUS
100
AcDbLine
 10
40.9183221720374
 20
4.340996280378933
 30
0.0
 11
41.89134866762525
 21
5.314022775966786
 31
0.0
  0
LINE
  5
208AB
330
20897
100
AcDbEntity
  8
0
  6
CONTINUOUS
100
AcDbLine
 10
41.23578448461758
 20
3.984939383878926
 30
0.0
 11
42.20881098020543
 21
4.957965879466778
 31
0.0
  0
LINE
  5
208AC
330
20897
100
AcDbEntity
  8
0
  6
CONTINUOUS
100
AcDbLine
 10
41.55324679719776
 20
3.628882487378919
 30
0.0
 11
42.52627329278561
 21
4.601908982966772
 31
0.0
  0
LINE
  5
208AD
330
20897
100
AcDbEntity
  8
0
  6
CONTINUOUS
100
AcDbLine
 10
41.87070910977793
 20
3.272825590878912
 30
0.0
 11
42.84373560536579
 21
4.245852086466765
 31
0.0
  0
LINE
  5
208AE
330
20897
100
AcDbEntity
  8
0
  6
CONTINUOUS
100
AcDbLine
 10
43.57899999995641
 20
7.001674108297943
 30
0.0
 11
44.99999999995498
 21
8.422674108296516
 31
0.0
  0
LINE
  5
208AF
330
20897
100
AcDbEntity
  8
0
  6
CONTINUOUS
100
AcDbLine
 10
43.57899999995641
 20
6.328154899217758
 30
0.0
 11
44.99999999995498
 21
7.749154899216329
 31
0.0
  0
LINE
  5
208B0
330
20897
100
AcDbEntity
  8
0
  6
CONTINUOUS
100
AcDbLine
 10
43.57899999995641
 20
5.654635690137571
 30
0.0
 11
44.99999999995498
 21
7.075635690136142
 31
0.0
  0
LINE
  5
208B1
330
20897
100
AcDbEntity
  8
0
  6
CONTINUOUS
100
AcDbLine
 10
43.57899999995641
 20
4.981116481057384
 30
0.0
 11
44.99999999995498
 21
6.402116481055955
 31
0.0
  0
LINE
  5
208B2
330
20897
100
AcDbEntity
  8
0
  6
CONTINUOUS
100
AcDbLine
 10
39.27140272797921
 20
-0.0000000000000009
 30
0.0
 11
40.02599999995994
 21
0.7545972719807246
 31
0.0
  0
LINE
  5
208B3
330
20897
100
AcDbEntity
  8
0
  6
CONTINUOUS
100
AcDbLine
 10
39.9449219370594
 20
-0.0000000000000009
 30
0.0
 11
40.02599999995994
 21
0.0810780629005379
 31
0.0
  0
LINE
  5
208B4
330
20897
100
AcDbEntity
  8
0
  6
CONTINUOUS
100
AcDbLine
 10
42.18817142235812
 20
2.916768694378905
 30
0.0
 11
43.16119791794597
 21
3.889795189966758
 31
0.0
  0
LINE
  5
208B5
330
20897
100
AcDbEntity
  8
0
  6
CONTINUOUS
100
AcDbLine
 10
42.50563373493829
 20
2.560711797878898
 30
0.0
 11
43.47866023052615
 21
3.533738293466751
 31
0.0
  0
LINE
  5
208B6
330
20897
100
AcDbEntity
  8
0
  6
CONTINUOUS
100
AcDbLine
 10
43.57899999995641
 20
4.307597271977198
 30
0.0
 11
44.99999999995498
 21
5.728597271975769
 31
0.0
  0
LINE
  5
208B7
330
20897
100
AcDbEntity
  8
0
  6
CONTINUOUS
100
AcDbLine
 10
43.57899999995641
 20
3.634078062897011
 30
0.0
 11
44.99999999995498
 21
5.055078062895582
 31
0.0
  0
LINE
  5
208B8
330
20897
100
AcDbEntity
  8
0
  6
CONTINUOUS
100
AcDbLine
 10
42.82309604751848
 20
2.204654901378891
 30
0.0
 11
44.99999999995498
 21
4.381558853815395
 31
0.0
  0
LINE
  5
208B9
330
20897
100
AcDbEntity
  8
0
  6
CONTINUOUS
100
AcDbLine
 10
43.14055836009865
 20
1.848598004878885
 30
0.0
 11
44.99999999995498
 21
3.70803964473521
 31
0.0
  0
LINE
  5
208BA
330
20897
100
AcDbEntity
  8
0
  6
CONTINUOUS
100
AcDbLine
 10
43.45802067267883
 20
1.492541108378878
 30
0.0
 11
44.99999999995498
 21
3.034520435655023
 31
0.0
  0
LINE
  5
208BB
330
20897
100
AcDbEntity
  8
0
  6
CONTINUOUS
100
AcDbLine
 10
43.77548298525902
 20
1.136484211878871
 30
0.0
 11
44.99999999995498
 21
2.361001226574837
 31
0.0
  0
LINE
  5
208BC
330
20897
100
AcDbEntity
  8
0
  6
CONTINUOUS
100
AcDbLine
 10
44.09294529783919
 20
0.7804273153788639
 30
0.0
 11
44.99999999995498
 21
1.687482017494649
 31
0.0
  0
LINE
  5
208BD
330
20897
100
AcDbEntity
  8
0
  6
CONTINUOUS
100
AcDbLine
 10
44.41040761041938
 20
0.4243704188788566
 30
0.0
 11
44.99999999995498
 21
1.013962808414463
 31
0.0
  0
LINE
  5
208BE
330
20897
100
AcDbEntity
  8
0
  6
CONTINUOUS
100
AcDbLine
 10
44.72786992299955
 20
0.0683135223788494
 30
0.0
 11
44.99999999995498
 21
0.340443599334276
 31
0.0
  0
LINE
  5
208BF
330
20897
100
AcDbEntity
  8
0
  6
CONTINUOUS
100
AcDbLine
 10
39.12223903415696
 20
-0.0000000000000009
 30
0.0
 11
38.60499999996136
 21
0.5172390341955961
 31
0.0
  0
LINE
  5
208C0
330
20897
100
AcDbEntity
  8
0
  6
CONTINUOUS
100
AcDbLine
 10
39.79575824323715
 20
-0.0000000000000009
 30
0.0
 11
38.60499999996136
 21
1.190758243275783
 31
0.0
  0
LINE
  5
208C1
330
20897
100
AcDbEntity
  8
0
  6
CONTINUOUS
100
AcDbLine
 10
40.02599999995994
 20
0.443277452357397
 30
0.0
 11
38.60499999996136
 21
1.864277452355969
 31
0.0
  0
LINE
  5
208C2
330
20897
100
AcDbEntity
  8
0
  6
CONTINUOUS
100
AcDbLine
 10
40.02599999995994
 20
1.116796661437583
 30
0.0
 11
38.60499999996136
 21
2.537796661436155
 31
0.0
  0
LINE
  5
208C3
330
20897
100
AcDbEntity
  8
0
  6
CONTINUOUS
100
AcDbLine
 10
40.02599999995994
 20
1.79031587051777
 30
0.0
 11
38.60499999996136
 21
3.211315870516341
 31
0.0
  0
LINE
  5
208C4
330
20897
100
AcDbEntity
  8
0
  6
CONTINUOUS
100
AcDbLine
 10
40.02599999995994
 20
2.463835079597956
 30
0.0
 11
38.60499999996136
 21
3.884835079596527
 31
0.0
  0
LINE
  5
208C5
330
20897
100
AcDbEntity
  8
0
  6
CONTINUOUS
100
AcDbLine
 10
40.02599999995994
 20
3.137354288678143
 30
0.0
 11
38.60499999996136
 21
4.558354288676714
 31
0.0
  0
LINE
  5
208C6
330
20897
100
AcDbEntity
  8
0
  6
CONTINUOUS
100
AcDbLine
 10
40.02599999995994
 20
3.810873497758329
 30
0.0
 11
38.60499999996136
 21
5.2318734977569
 31
0.0
  0
LINE
  5
208C7
330
20897
100
AcDbEntity
  8
0
  6
CONTINUOUS
100
AcDbLine
 10
40.02599999995994
 20
4.484392706838515
 30
0.0
 11
38.60499999996136
 21
5.905392706837086
 31
0.0
  0
LINE
  5
208C8
330
20897
100
AcDbEntity
  8
0
  6
CONTINUOUS
100
AcDbLine
 10
44.99999999995498
 20
0.183911915923658
 30
0.0
 11
41.53858364506288
 21
3.64532827081576
 31
0.0
  0
LINE
  5
208C9
330
20897
100
AcDbEntity
  8
0
  6
CONTINUOUS
100
AcDbLine
 10
40.02599999995994
 20
5.157911915918703
 30
0.0
 11
38.60499999996136
 21
6.578911915917274
 31
0.0
  0
LINE
  5
208CA
330
20897
100
AcDbEntity
  8
0
  6
CONTINUOUS
100
AcDbLine
 10
44.99999999995498
 20
0.8574311250038447
 30
0.0
 11
38.60499999996136
 21
7.25243112499746
 31
0.0
  0
LINE
  5
208CB
330
20897
100
AcDbEntity
  8
0
  6
CONTINUOUS
100
AcDbLine
 10
44.99999999995498
 20
1.530950334084031
 30
0.0
 11
38.60499999996136
 21
7.925950334077647
 31
0.0
  0
LINE
  5
208CC
330
20897
100
AcDbEntity
  8
0
  6
CONTINUOUS
100
AcDbLine
 10
44.99999999995498
 20
2.204469543164218
 30
0.0
 11
43.57899999995641
 21
3.625469543162789
 31
0.0
  0
LINE
  5
208CD
330
20897
100
AcDbEntity
  8
0
  6
CONTINUOUS
100
AcDbLine
 10
41.89876730984767
 20
5.305702233271528
 30
0.0
 11
38.60499999996136
 21
8.599469543157834
 31
0.0
  0
LINE
  5
208CE
330
20897
100
AcDbEntity
  8
0
  6
CONTINUOUS
100
AcDbLine
 10
44.99999999995498
 20
2.877988752244405
 30
0.0
 11
43.57899999995641
 21
4.298988752242975
 31
0.0
  0
LINE
  5
208CF
330
20897
100
AcDbEntity
  8
0
  6
CONTINUOUS
100
AcDbLine
 10
44.99999999995498
 20
3.551507961324591
 30
0.0
 11
43.57899999995641
 21
4.972507961323163
 31
0.0
  0
LINE
  5
208D0
330
20897
100
AcDbEntity
  8
0
  6
CONTINUOUS
100
AcDbLine
 10
44.99999999995498
 20
4.225027170404777
 30
0.0
 11
43.57899999995641
 21
5.646027170403348
 31
0.0
  0
LINE
  5
208D1
330
20897
100
AcDbEntity
  8
0
  6
CONTINUOUS
100
AcDbLine
 10
44.99999999995498
 20
4.898546379484964
 30
0.0
 11
43.57899999995641
 21
6.319546379483535
 31
0.0
  0
LINE
  5
208D2
330
20897
100
AcDbEntity
  8
0
  6
CONTINUOUS
100
AcDbLine
 10
44.99999999995498
 20
5.572065588565151
 30
0.0
 11
43.57899999995641
 21
6.993065588563722
 31
0.0
  0
LINE
  5
208D3
330
20897
100
AcDbEntity
  8
0
  6
CONTINUOUS
100
AcDbLine
 10
44.99999999995498
 20
6.245584797645336
 30
0.0
 11
43.57899999995641
 21
7.666584797643908
 31
0.0
  0
LINE
  5
208D4
330
20897
100
AcDbEntity
  8
0
  6
CONTINUOUS
100
AcDbLine
 10
44.99999999995498
 20
6.919104006725522
 30
0.0
 11
43.57899999995641
 21
8.340104006724093
 31
0.0
  0
LINE
  5
208D5
330
20897
100
AcDbEntity
  8
0
  6
CONTINUOUS
100
AcDbLine
 10
44.99999999995498
 20
7.592623215805709
 30
0.0
 11
43.82952321576943
 21
8.763099999991255
 31
0.0
  0
LINE
  5
208D6
330
20897
100
AcDbEntity
  8
0
  6
CONTINUOUS
100
AcDbLine
 10
44.99999999995498
 20
8.266142424885896
 30
0.0
 11
44.50304242484962
 21
8.763099999991255
 31
0.0
  0
ENDBLK
  5
20900
330
20897
100
AcDbEntity
  8
0
100
AcDbBlockEnd
  0
BLOCK
  5
20901
330
208D7
100
AcDbEntity
  8
0
100
AcDbBlockBegin
  2
*X49
 70
     1
 10
0.0
 20
0.0
 30
0.0
  3
*X49
  1

  0
LINE
  5
208D8
330
208D7
100
AcDbEntity
  8
0
  6
CONTINUOUS
100
AcDbLine
 10
0.0
 20
8.548461116714023
 30
0.0
 11
0.2146388832772324
 21
8.763099999991255
 31
0.0
  0
LINE
  5
208D9
330
208D7
100
AcDbEntity
  8
0
  6
CONTINUOUS
100
AcDbLine
 10
-0.0000000000000002
 20
7.874941907633837
 30
0.0
 11
0.8881580923574184
 21
8.763099999991255
 31
0.0
  0
LINE
  5
208DA
330
208D7
100
AcDbEntity
  8
0
  6
CONTINUOUS
100
AcDbLine
 10
0.0
 20
7.20142269855365
 30
0.0
 11
1.420999999998572
 21
8.622422698552223
 31
0.0
  0
LINE
  5
208DB
330
208D7
100
AcDbEntity
  8
0
  6
CONTINUOUS
100
AcDbLine
 10
-0.0000000000000001
 20
6.527903489473465
 30
0.0
 11
1.420999999998571
 21
7.948903489472036
 31
0.0
  0
LINE
  5
208DC
330
208D7
100
AcDbEntity
  8
0
  6
CONTINUOUS
100
AcDbLine
 10
-0.0000000000000002
 20
5.854384280393278
 30
0.0
 11
1.420999999998571
 21
7.275384280391849
 31
0.0
  0
LINE
  5
208DD
330
208D7
100
AcDbEntity
  8
0
  6
CONTINUOUS
100
AcDbLine
 10
-0.0000000000000002
 20
5.180865071313091
 30
0.0
 11
1.420999999998571
 21
6.601865071311663
 31
0.0
  0
LINE
  5
208DE
330
208D7
100
AcDbEntity
  8
0
  6
CONTINUOUS
100
AcDbLine
 10
0.0
 20
4.507345862232905
 30
0.0
 11
1.420999999998571
 21
5.928345862231477
 31
0.0
  0
LINE
  5
208DF
330
208D7
100
AcDbEntity
  8
0
  6
CONTINUOUS
100
AcDbLine
 10
-0.0000000000000003
 20
3.833826653152718
 30
0.0
 11
1.420999999998571
 21
5.25482665315129
 31
0.0
  0
LINE
  5
208E0
330
208D7
100
AcDbEntity
  8
0
  6
CONTINUOUS
100
AcDbLine
 10
-0.0000000000000002
 20
3.160307444072532
 30
0.0
 11
1.420999999998571
 21
4.581307444071103
 31
0.0
  0
LINE
  5
208E1
330
208D7
100
AcDbEntity
  8
0
  6
CONTINUOUS
100
AcDbLine
 10
-0.0000000000000001
 20
2.486788234992345
 30
0.0
 11
1.420999999998571
 21
3.907788234990917
 31
0.0
  0
LINE
  5
208E2
330
208D7
100
AcDbEntity
  8
0
  6
CONTINUOUS
100
AcDbLine
 10
-0.0000000000000006
 20
1.813269025912159
 30
0.0
 11
1.420999999998571
 21
3.234269025910731
 31
0.0
  0
LINE
  5
208E3
330
208D7
100
AcDbEntity
  8
0
  6
CONTINUOUS
100
AcDbLine
 10
0.0
 20
1.139749816831973
 30
0.0
 11
1.420999999998571
 21
2.560749816830544
 31
0.0
  0
LINE
  5
208E4
330
208D7
100
AcDbEntity
  8
0
  6
CONTINUOUS
100
AcDbLine
 10
0.0000000000000002
 20
0.466230607751787
 30
0.0
 11
1.420999999998571
 21
1.887230607750358
 31
0.0
  0
LINE
  5
208E5
330
208D7
100
AcDbEntity
  8
0
  6
CONTINUOUS
100
AcDbLine
 10
0.2072886013284003
 20
-0.0000000000000009
 30
0.0
 11
1.420999999998571
 21
1.213711398670171
 31
0.0
  0
LINE
  5
208E6
330
208D7
100
AcDbEntity
  8
0
  6
CONTINUOUS
100
AcDbLine
 10
0.8808078104085864
 20
-0.0000000000000009
 30
0.0
 11
1.420999999998571
 21
0.5401921895899839
 31
0.0
  0
LINE
  5
208E7
330
208D7
100
AcDbEntity
  8
0
  6
CONTINUOUS
100
AcDbLine
 10
0.0581249075061505
 20
-0.0000000000000009
 30
0.0
 11
-0.0000000000000002
 21
0.0581249075061496
 31
0.0
  0
LINE
  5
208E8
330
208D7
100
AcDbEntity
  8
0
  6
CONTINUOUS
100
AcDbLine
 10
0.7316441165863372
 20
-0.0000000000000009
 30
0.0
 11
-0.0000000000000002
 21
0.7316441165863363
 31
0.0
  0
LINE
  5
208E9
330
208D7
100
AcDbEntity
  8
0
  6
CONTINUOUS
100
AcDbLine
 10
1.405163325666523
 20
-0.0000000000000009
 30
0.0
 11
-0.0000000000000002
 21
1.405163325666523
 31
0.0
  0
LINE
  5
208EA
330
208D7
100
AcDbEntity
  8
0
  6
CONTINUOUS
100
AcDbLine
 10
1.420999999998572
 20
0.6576825347481381
 30
0.0
 11
-0.0000000000000001
 21
2.07868253474671
 31
0.0
  0
LINE
  5
208EB
330
208D7
100
AcDbEntity
  8
0
  6
CONTINUOUS
100
AcDbLine
 10
1.420999999998571
 20
1.331201743828324
 30
0.0
 11
-0.0000000000000001
 21
2.752201743826896
 31
0.0
  0
LINE
  5
208EC
330
208D7
100
AcDbEntity
  8
0
  6
CONTINUOUS
100
AcDbLine
 10
1.420999999998571
 20
2.004720952908511
 30
0.0
 11
-0.0000000000000002
 21
3.425720952907082
 31
0.0
  0
LINE
  5
208ED
330
208D7
100
AcDbEntity
  8
0
  6
CONTINUOUS
100
AcDbLine
 10
1.420999999998571
 20
2.678240161988697
 30
0.0
 11
-0.0000000000000001
 21
4.099240161987269
 31
0.0
  0
LINE
  5
208EE
330
208D7
100
AcDbEntity
  8
0
  6
CONTINUOUS
100
AcDbLine
 10
1.420999999998572
 20
3.351759371068884
 30
0.0
 11
0.0
 21
4.772759371067455
 31
0.0
  0
LINE
  5
208EF
330
208D7
100
AcDbEntity
  8
0
  6
CONTINUOUS
100
AcDbLine
 10
1.420999999998571
 20
4.02527858014907
 30
0.0
 11
-0.0000000000000003
 21
5.446278580147642
 31
0.0
  0
LINE
  5
208F0
330
208D7
100
AcDbEntity
  8
0
  6
CONTINUOUS
100
AcDbLine
 10
1.420999999998571
 20
4.698797789229257
 30
0.0
 11
0.0
 21
6.119797789227828
 31
0.0
  0
LINE
  5
208F1
330
208D7
100
AcDbEntity
  8
0
  6
CONTINUOUS
100
AcDbLine
 10
1.420999999998571
 20
5.372316998309444
 30
0.0
 11
-0.0000000000000001
 21
6.793316998308015
 31
0.0
  0
LINE
  5
208F2
330
208D7
100
AcDbEntity
  8
0
  6
CONTINUOUS
100
AcDbLine
 10
1.420999999998572
 20
6.045836207389629
 30
0.0
 11
-0.0000000000000004
 21
7.466836207388202
 31
0.0
  0
LINE
  5
208F3
330
208D7
100
AcDbEntity
  8
0
  6
CONTINUOUS
100
AcDbLine
 10
1.420999999998571
 20
6.719355416469816
 30
0.0
 11
0.0
 21
8.140355416468388
 31
0.0
  0
LINE
  5
208F4
330
208D7
100
AcDbEntity
  8
0
  6
CONTINUOUS
100
AcDbLine
 10
1.420999999998571
 20
7.392874625550003
 30
0.0
 11
0.0507746255573185
 21
8.763099999991255
 31
0.0
  0
LINE
  5
208F5
330
208D7
100
AcDbEntity
  8
0
  6
CONTINUOUS
100
AcDbLine
 10
1.420999999998571
 20
8.06639383463019
 30
0.0
 11
0.7242938346375052
 21
8.763099999991255
 31
0.0
  0
LINE
  5
208F6
330
208D7
100
AcDbEntity
  8
0
  6
CONTINUOUS
100
AcDbLine
 10
1.420999999998571
 20
8.739913043710375
 30
0.0
 11
1.397813043717691
 21
8.763099999991255
 31
0.0
  0
ENDBLK
  5
20902
330
208D7
100
AcDbEntity
  8
0
100
AcDbBlockEnd
  0
ENDSEC
  0
SECTION
  2
ENTITIES
  0
LINE
  5
1DBA4
102
{ACAD_REACTORS
330
1EDFD
102
}
330
18
100
AcDbEntity
  8
01
100
AcDbLine
 10
755.516241615365
 20
-597.5490796040473
 30
0.0
 11
755.516241615365
 21
-672.005426774611
 31
0.0
  0
LINE
  5
1DBA5
102
{ACAD_REACTORS
330
1EDFD
102
}
330
18
100
AcDbEntity
  8
01
100
AcDbLine
 10
764.516241615365
 20
-597.5490796040473
 30
0.0
 11
764.516241615365
 21
-672.005426774611
 31
0.0
  0
LINE
  5
1DBA6
102
{ACAD_REACTORS
330
1EDFD
102
}
330
18
100
AcDbEntity
  8
01
100
AcDbLine
 10
743.016241615365
 20
-597.5490796040473
 30
0.0
 11
743.016241615365
 21
-672.005426774611
 31
0.0
  0
LINE
  5
1F5B5
330
18
100
AcDbEntity
  8
01
100
AcDbLine
 10
743.0162416153653
 20
-642.1730334683388
 30
0.0
 11
743.0162416153653
 21
-659.8230334683382
 31
0.0
  0
TEXT
  5
1F5B6
330
18
100
AcDbEntity
  8
1TEXT
100
AcDbText
 10
513.3706615454182
 20
-468.025441490976
 30
0.0
 40
8.0
  1
SC-861-X
100
AcDbText
  0
LINE
  5
1F5B9
330
18
100
AcDbEntity
  8
1DIM
100
AcDbLine
 10
513.3706615454182
 20
-473.025441490976
 30
0.0
 11
583.3706615454182
 21
-473.025441490976
 31
0.0
  0
LINE
  5
1F5BA
330
18
100
AcDbEntity
  8
1DIM
100
AcDbLine
 10
513.3706615454182
 20
-487.025441490976
 30
0.0
 11
583.3706615454182
 21
-487.025441490976
 31
0.0
  0
LINE
  5
1F5BB
330
18
100
AcDbEntity
  8
1DIM
100
AcDbLine
 10
513.3706615454182
 20
-480.025441490976
 30
0.0
 11
583.3706615454182
 21
-480.025441490976
 31
0.0
  0
LINE
  5
1F5BC
330
18
100
AcDbEntity
  8
1DIM
100
AcDbLine
 10
548.3706615454182
 20
-473.025441490976
 30
0.0
 11
548.3706615454182
 21
-487.0254414909759
 31
0.0
  0
TEXT
  5
1F5BD
330
18
100
AcDbEntity
  8
1TEXT
100
AcDbText
 10
558.9039948787512
 20
-478.525441490976
 30
0.0
 40
4.0
  1
コード
 72
     1
 11
565.7706615454179
 21
-478.525441490976
 31
0.0
100
AcDbText
  0
LINE
  5
1F5BF
330
18
100
AcDbEntity
  8
1DIM
100
AcDbLine
 10
583.3706615454182
 20
-487.0254414909759
 30
0.0
 11
583.3706615454182
 21
-473.025441490976
 31
0.0
  0
TEXT
  5
1F5C0
330
18
100
AcDbEntity
  8
1TEXT
100
AcDbText
 10
519.9706615454179
 20
-478.525441490976
 30
0.0
 40
4.0
  1
表面処理：
 72
     1
 11
530.7706615454179
 21
-478.525441490976
 31
0.0
100
AcDbText
  0
TEXT
  5
1F5C1
330
18
100
AcDbEntity
  8
1TEXT
100
AcDbText
 10
521.3039948787512
 20
-485.3607301505004
 30
0.0
 40
4.0
  1
クローム
 72
     1
 11
530.7706615454179
 21
-485.3607301505004
 31
0.0
100
AcDbText
  0
LINE
  5
1F5C2
330
18
100
AcDbEntity
  8
1DIM
100
AcDbLine
 10
513.3706615454182
 20
-487.0254414909759
 30
0.0
 11
513.3706615454182
 21
-473.025441490976
 31
0.0
  0
TEXT
  5
1F5C3
330
18
100
AcDbEntity
  8
1TEXT
100
AcDbText
 10
551.5921893231965
 20
-485.7397984746253
 30
0.0
 40
4.0
  1
SC-861-XC
 41
0.85
 72
     1
 11
565.7706615454188
 21
-485.7397984746253
 31
0.0
100
AcDbText
  0
ARC
  5
1F5C6
330
18
100
AcDbEntity
  8
01
100
AcDbCircle
 10
725.818040388469
 20
-653.8587245580417
 30
0.0
 40
0.2035643598548219
100
AcDbArc
 50
239.3723410170423
 51
253.3688523143917
  0
ARC
  5
1F5C8
330
18
100
AcDbEntity
  8
01
100
AcDbCircle
 10
734.21638856555
 20
-658.1461198261755
 30
0.0
 40
0.2004776591324635
100
AcDbArc
 50
235.4662727985925
 51
248.0006917250083
  0
LINE
  5
1F5CB
330
18
100
AcDbEntity
  8
01
100
AcDbLine
 10
611.0162416153655
 20
-628.7729895993201
 30
0.0
 11
611.0162416153655
 21
-640.7729895993201
 31
0.0
  0
LINE
  5
1F5CC
330
18
100
AcDbEntity
  8
01
100
AcDbLine
 10
193.0162416153655
 20
-628.7729895993201
 30
0.0
 11
611.0162416153655
 21
-628.7729895993201
 31
0.0
  0
LINE
  5
1F5CD
330
18
100
AcDbEntity
  8
01
100
AcDbLine
 10
193.0162416153655
 20
-640.7729895993201
 30
0.0
 11
611.0162416153655
 21
-640.7729895993201
 31
0.0
  0
LINE
  5
1F5CE
330
18
100
AcDbEntity
  8
01
100
AcDbLine
 10
611.0162416153655
 20
-640.7729890191766
 30
0.0
 11
611.0162416153655
 21
-644.5729895993194
 31
0.0
  0
ARC
  5
1F5CF
330
18
100
AcDbEntity
  8
01
100
AcDbCircle
 10
611.2162416183457
 20
-640.7729890191766
 30
0.0
 40
0.2000000029802321
100
AcDbArc
 50
179.999999999772
 51
270.0002330150577
  0
ARC
  5
1F5D0
330
18
100
AcDbEntity
  8
01
100
AcDbCircle
 10
611.2162416183457
 20
-628.7729925477669
 30
0.0
 40
0.2000000029802327
100
AcDbArc
 50
89.99868469345958
 51
179.999999999772
  0
LINE
  5
1F5D1
330
18
100
AcDbEntity
  8
01
100
AcDbLine
 10
643.0162416153655
 20
-629.0729895993203
 30
0.0
 11
643.0162416153655
 21
-640.4729895993204
 31
0.0
  0
LINE
  5
1F5D2
330
18
100
AcDbEntity
  8
01
100
AcDbLine
 10
643.0162416153655
 20
-644.5729895993212
 30
0.0
 11
643.0162416153655
 21
-640.4729881832967
 31
0.0
  0
LINE
  5
1F5D3
330
18
100
AcDbEntity
  8
01
100
AcDbLine
 10
642.5162416156684
 20
-628.5729994343131
 30
0.0
 11
611.2162416182243
 21
-628.5729925448117
 31
0.0
  0
LINE
  5
1F5D4
330
18
100
AcDbEntity
  8
01
100
AcDbLine
 10
642.5162416188934
 20
-640.9729881830325
 30
0.0
 11
611.2162424317214
 21
-640.9729890221305
 31
0.0
  0
ARC
  5
1F5D5
330
18
100
AcDbEntity
  8
01
100
AcDbCircle
 10
642.5162416153655
 20
-629.0729994335815
 30
0.0
 40
0.4999999999999716
100
AcDbArc
 50
0.0
 51
90.00116506431712
  0
ARC
  5
1F5D6
330
18
100
AcDbEntity
  8
01
100
AcDbCircle
 10
642.5162416153655
 20
-640.4729881832967
 30
0.0
 40
0.5
100
AcDbArc
 50
269.9999426622263
 51
0.0
  0
ARC
  5
1F5D7
330
18
100
AcDbEntity
  8
01
100
AcDbCircle
 10
627.0162416153655
 20
-644.572982729212
 30
0.0
 40
16.00000000000133
100
AcDbArc
 50
180.0000246021932
 51
359.9999753982237
  0
LINE
  5
1F5D8
330
18
100
AcDbEntity
  8
01
100
AcDbLine
 10
611.0163537437013
 20
-628.7480749335531
 30
0.0
 11
611.0163113302726
 21
-628.7527687744713
 31
0.0
  0
LINE
  5
1F5D9
330
18
100
AcDbEntity
  8
01
100
AcDbLine
 10
193.016222541879
 20
-576.821330779638
 30
0.0
 11
611.0164340606516
 21
-576.821330779638
 31
0.0
  0
LINE
  5
1F5DA
330
18
100
AcDbEntity
  8
01
100
AcDbLine
 10
193.016222541879
 20
-588.821330779638
 30
0.0
 11
611.0164340606518
 21
-588.821330779638
 31
0.0
  0
LINE
  5
1F5DB
330
18
100
AcDbEntity
  8
01
100
AcDbLine
 10
743.0162419322737
 20
-628.5730083744869
 30
0.0
 11
743.0162412328918
 21
-644.5730083744869
 31
0.0
  0
ARC
  5
1F5DD
330
18
100
AcDbEntity
  8
01
100
AcDbCircle
 10
696.0162412547475
 20
-634.7730083744867
 30
0.0
 40
6.2
100
AcDbArc
 50
90.0
 51
269.9999999995567
  0
LINE
  5
1F5DF
330
18
100
AcDbEntity
  8
01
100
AcDbLine
 10
743.0162412328918
 20
-644.5730083744878
 30
0.0
 11
743.0162419322742
 21
-660.5730015043799
 31
0.0
  0
LINE
  5
1F5E1
330
18
100
AcDbEntity
  8
1CENTER
 48
0.5
100
AcDbLine
 10
402.0163283012656
 20
-619.4381150028515
 30
0.0
 11
402.0163283012656
 21
-650.1078571312659
 31
0.0
  0
LINE
  5
1F5E2
330
18
100
AcDbEntity
  8
1CENTER
 48
0.5
100
AcDbLine
 10
402.0163283012653
 20
-567.4864566083688
 30
0.0
 11
402.0163283012653
 21
-598.1561987367829
 31
0.0
  0
LINE
  5
1F5E5
330
18
100
AcDbEntity
  8
01
100
AcDbLine
 10
611.0164340606516
 20
-535.8213303512664
 30
0.0
 11
643.0164340606516
 21
-535.8213303512664
 31
0.0
  0
LINE
  5
1F5E6
330
18
100
AcDbEntity
  8
01
100
AcDbLine
 10
611.0164340606518
 20
-588.8213307796378
 30
0.0
 11
611.0164340606516
 21
-535.8213303512664
 31
0.0
  0
LINE
  5
1F5E7
330
18
100
AcDbEntity
  8
01
100
AcDbLine
 10
643.0164340606516
 20
-535.8213303512664
 30
0.0
 11
643.0164340606516
 21
-588.521330779638
 31
0.0
  0
ARC
  5
1F5E8
330
18
100
AcDbEntity
  8
01
100
AcDbCircle
 10
642.5164340606516
 20
-588.521330779638
 30
0.0
 40
0.5
100
AcDbArc
 50
270.0000000002345
 51
0.0
  0
LINE
  5
1F5E9
330
18
100
AcDbEntity
  8
01
100
AcDbLine
 10
642.5164340606516
 20
-589.021330779638
 30
0.0
 11
611.2164340636318
 21
-589.021330779638
 31
0.0
  0
ARC
  5
1F5EA
330
18
100
AcDbEntity
  8
01
100
AcDbCircle
 10
611.2164340636318
 20
-588.8213307766578
 30
0.0
 40
0.2000000029802322
100
AcDbArc
 50
180.0
 51
269.9999999997916
  0
LINE
  5
1F5EB
330
18
100
AcDbEntity
  8
1PHANTOM
 48
0.5
100
AcDbLine
 10
732.2662369845536
 20
-649.173209571201
 30
0.0
 11
727.7662369845536
 21
-649.1732097679022
 31
0.0
  0
LINE
  5
1F5EC
330
18
100
AcDbEntity
  8
1CENTER
 48
0.5
100
AcDbLine
 10
730.2162286492203
 20
-638.7489606014666
 30
0.0
 11
730.2162286492203
 21
-656.6182771040607
 31
0.0
  0
LINE
  5
1F5ED
330
18
100
AcDbEntity
  8
1PHANTOM
 48
0.5
100
AcDbLine
 10
732.2162355792323
 20
-640.5232096695246
 30
0.0
 11
732.2162355792323
 21
-649.1732096695256
 31
0.0
  0
LINE
  5
1F5EE
330
18
100
AcDbEntity
  8
1PHANTOM
 48
0.5
100
AcDbLine
 10
731.8662355792324
 20
-640.1732096695247
 30
0.0
 11
728.5662355792324
 21
-640.1732096695247
 31
0.0
  0
LINE
  5
1F5EF
330
18
100
AcDbEntity
  8
1PHANTOM
 48
0.5
100
AcDbLine
 10
733.7162355792323
 20
-650.1732096695247
 30
0.0
 11
733.7162355792323
 21
-650.7732096695246
 31
0.0
  0
ARC
  5
1F5F0
330
18
100
AcDbEntity
  8
1PHANTOM
 48
0.5
100
AcDbCircle
 10
731.7162355792323
 20
-650.7732096695246
 30
0.0
 40
2.0
100
AcDbArc
 50
269.999999999987
 51
0.0
  0
LINE
  5
1F5F1
330
18
100
AcDbEntity
  8
1PHANTOM
 48
0.5
100
AcDbLine
 10
728.2162355792323
 20
-640.5232096695246
 30
0.0
 11
728.2162355792323
 21
-649.1732096695256
 31
0.0
  0
LINE
  5
1F5F2
330
18
100
AcDbEntity
  8
1PHANTOM
 48
0.5
100
AcDbLine
 10
731.7162355792323
 20
-652.7732096695246
 30
0.0
 11
728.7162355792323
 21
-652.7732096695246
 31
0.0
  0
ARC
  5
1F5F3
330
18
100
AcDbEntity
  8
1PHANTOM
 48
0.5
100
AcDbCircle
 10
728.7162355792323
 20
-650.7732096695246
 30
0.0
 40
2.0
100
AcDbArc
 50
180.0
 51
270.0
  0
LINE
  5
1F5F4
330
18
100
AcDbEntity
  8
1PHANTOM
 48
0.5
100
AcDbLine
 10
726.7162355792323
 20
-650.1732096695247
 30
0.0
 11
726.7162355792323
 21
-650.7732096695246
 31
0.0
  0
LINE
  5
1F5F5
330
18
100
AcDbEntity
  8
1PHANTOM
 48
0.5
100
AcDbLine
 10
731.8662355792324
 20
-640.1732096695247
 30
0.0
 11
731.8662355792324
 21
-649.1732096695256
 31
0.0
  0
LINE
  5
1F5F6
330
18
100
AcDbEntity
  8
1PHANTOM
 48
0.5
100
AcDbLine
 10
728.5662355792322
 20
-640.1732096695247
 30
0.0
 11
728.5662355792322
 21
-649.1732096695256
 31
0.0
  0
LINE
  5
1F5F7
330
18
100
AcDbEntity
  8
1PHANTOM
 48
0.5
100
AcDbLine
 10
732.2162355792323
 20
-640.5232096695246
 30
0.0
 11
728.2162355792323
 21
-640.5232096695246
 31
0.0
  0
LINE
  5
1F5F8
330
18
100
AcDbEntity
  8
1PHANTOM
 48
0.5
100
AcDbLine
 10
726.6074516598367
 20
-650.1732012930587
 30
0.0
 11
733.8074516598356
 21
-650.1732180459827
 31
0.0
  0
LINE
  5
1F5F9
330
18
100
AcDbEntity
  8
1PHANTOM
 48
0.5
100
AcDbLine
 10
733.8074516598356
 20
-650.1732180459827
 30
0.0
 11
733.8074516598374
 21
-649.1732096695256
 31
0.0
  0
LINE
  5
1F5FA
330
18
100
AcDbEntity
  8
1PHANTOM
 48
0.5
100
AcDbLine
 10
726.6074516598367
 20
-649.1732096695256
 30
0.0
 11
726.6074516598367
 21
-650.1732012930587
 31
0.0
  0
LINE
  5
1F5FB
330
18
100
AcDbEntity
  8
1PHANTOM
 48
0.5
100
AcDbLine
 10
726.6074516598349
 20
-649.1732096695256
 30
0.0
 11
733.8074516598374
 21
-649.1732096695256
 31
0.0
  0
LINE
  5
1F5FC
330
18
100
AcDbEntity
  8
1PHANTOM
 48
0.5
100
AcDbLine
 10
730.1078969369321
 20
-649.1732096695265
 30
0.0
 11
729.8399477445021
 21
-650.1732096695256
 31
0.0
  0
LINE
  5
1F5FD
330
18
100
AcDbEntity
  8
1PHANTOM
 48
0.5
100
AcDbLine
 10
730.5582075871682
 20
-649.1732096695256
 30
0.0
 11
730.2902583947382
 21
-650.1732096695256
 31
0.0
  0
LINE
  5
1F5FE
330
18
100
AcDbEntity
  8
1PHANTOM
 48
0.5
100
AcDbLine
 10
728.5662355792324
 20
-640.1732096695247
 30
0.0
 11
728.2162355792323
 21
-640.5232096695246
 31
0.0
  0
LINE
  5
1F5FF
330
18
100
AcDbEntity
  8
1PHANTOM
 48
0.5
100
AcDbLine
 10
732.216235006613
 20
-640.5232090969056
 30
0.0
 11
731.8662355792324
 21
-640.1732096695247
 31
0.0
  0
LINE
  5
1F600
330
18
100
AcDbEntity
  8
1PHANTOM
 48
0.2
100
AcDbLine
 10
629.2662554404187
 20
-654.3229895993171
 30
0.0
 11
629.2662554404187
 21
-653.3229895993171
 31
0.0
  0
ARC
  5
1F601
330
18
100
AcDbEntity
  8
1PHANTOM
 48
0.2
100
AcDbCircle
 10
627.0162554404187
 20
-653.3229895993171
 30
0.0
 40
2.25
100
AcDbArc
 50
0.0
 51
179.9999999995426
  0
LINE
  5
1F602
330
18
100
AcDbEntity
  8
1PHANTOM
 48
0.2
100
AcDbLine
 10
624.7662554404187
 20
-653.3229895993171
 30
0.0
 11
624.7662554404187
 21
-654.3229895993171
 31
0.0
  0
ARC
  5
1F603
330
18
100
AcDbEntity
  8
1PHANTOM
 48
0.2
100
AcDbCircle
 10
627.0162554404187
 20
-654.3229895993171
 30
0.0
 40
2.25
100
AcDbArc
 50
180.0
 51
0.0000000004574118
  0
ARC
  5
1F604
330
18
100
AcDbEntity
  8
1PHANTOM
 48
0.2
100
AcDbCircle
 10
626.0162554404187
 20
-635.8229895993171
 30
0.0
 40
2.25
100
AcDbArc
 50
90.0
 51
269.9999999995426
  0
LINE
  5
1F605
330
18
100
AcDbEntity
  8
1PHANTOM
 48
0.2
100
AcDbLine
 10
626.0162554404187
 20
-638.0729895993171
 30
0.0
 11
628.0162554404187
 21
-638.0729895993171
 31
0.0
  0
ARC
  5
1F606
330
18
100
AcDbEntity
  8
1PHANTOM
 48
0.2
100
AcDbCircle
 10
628.0162554404187
 20
-635.8229895993171
 30
0.0
 40
2.25
100
AcDbArc
 50
270.0
 51
89.99999999954258
  0
LINE
  5
1F607
330
18
100
AcDbEntity
  8
1PHANTOM
 48
0.2
100
AcDbLine
 10
626.0162554404187
 20
-633.5729895993171
 30
0.0
 11
628.0162554404187
 21
-633.5729895993171
 31
0.0
  0
LINE
  5
1F608
330
18
100
AcDbEntity
  8
1CENTER
 48
0.5
100
AcDbLine
 10
630.9316755383084
 20
-635.8229895993171
 30
0.0
 11
623.1008046326208
 21
-635.8229895993171
 31
0.0
  0
LINE
  5
1F609
330
18
100
AcDbEntity
  8
1CENTER
 48
0.5
100
AcDbLine
 10
630.9316755383086
 20
-653.8229895993171
 30
0.0
 11
623.100804632621
 21
-653.8229895993171
 31
0.0
  0
LINE
  5
1F60A
330
18
100
AcDbEntity
  8
1CENTER
 48
0.5
100
AcDbLine
 10
627.0162400854647
 20
-657.7384250521608
 30
0.0
 11
627.0162400854647
 21
-649.9075541464734
 31
0.0
  0
LINE
  5
1F60B
330
18
100
AcDbEntity
  8
1CENTER
 48
0.5
100
AcDbLine
 10
627.0162400854647
 20
-639.7384250521608
 30
0.0
 11
627.0162400854647
 21
-631.9075541464734
 31
0.0
  0
LINE
  5
1F60C
330
18
100
AcDbEntity
  8
1PHANTOM
 48
0.5
100
AcDbLine
 10
741.0162340114132
 20
-631.1732281442872
 30
0.0
 11
741.0162340114132
 21
-631.9732281442872
 31
0.0
  0
LINE
  5
1F60D
330
18
100
AcDbEntity
  8
1PHANTOM
 48
0.5
100
AcDbLine
 10
743.0162338082612
 20
-631.9732281442872
 30
0.0
 11
741.016233808261
 21
-631.9732281442872
 31
0.0
  0
LINE
  5
1F60E
330
18
100
AcDbEntity
  8
1PHANTOM
 48
0.5
100
AcDbLine
 10
740.0162340114132
 20
-631.4732281562082
 30
0.0
 11
740.0162338256398
 21
-639.273228144289
 31
0.0
  0
LINE
  5
1F60F
330
18
100
AcDbEntity
  8
1PHANTOM
 48
0.5
100
AcDbLine
 10
740.0162338256398
 20
-648.373228144287
 30
0.0
 11
740.0162340114132
 21
-658.6732281323663
 31
0.0
  0
ARC
  5
1F610
330
18
100
AcDbEntity
  8
1PHANTOM
 48
0.5
100
AcDbCircle
 10
739.5162338256398
 20
-639.2732281442871
 30
0.0
 40
0.4999999999999991
100
AcDbArc
 50
270.0
 51
0.0000000002214684
  0
ARC
  5
1F611
330
18
100
AcDbEntity
  8
1PHANTOM
 48
0.5
100
AcDbCircle
 10
739.0162338256398
 20
-648.373228144287
 30
0.0
 40
1.0
100
AcDbArc
 50
0.0
 51
89.99999999977852
  0
LINE
  5
1F612
330
18
100
AcDbEntity
  8
1PHANTOM
 48
0.5
100
AcDbLine
 10
724.5162338256398
 20
-646.873228144287
 30
0.0
 11
724.5162338256398
 21
-640.2732281442871
 31
0.0
  0
LINE
  5
1F613
330
18
100
AcDbEntity
  8
1PHANTOM
 48
0.5
100
AcDbLine
 10
725.0162338256398
 20
-647.373228144287
 30
0.0
 11
739.0162338256398
 21
-647.373228144287
 31
0.0
  0
ARC
  5
1F614
330
18
100
AcDbEntity
  8
1PHANTOM
 48
0.5
100
AcDbCircle
 10
725.0162338256398
 20
-646.873228144287
 30
0.0
 40
0.5
100
AcDbArc
 50
180.0
 51
269.9999999997785
  0
LINE
  5
1F615
330
18
100
AcDbEntity
  8
1PHANTOM
 48
0.5
100
AcDbLine
 10
725.0162338256398
 20
-639.7732281442871
 30
0.0
 11
739.5162338256398
 21
-639.7732281442871
 31
0.0
  0
ARC
  5
1F616
330
18
100
AcDbEntity
  8
1PHANTOM
 48
0.5
100
AcDbCircle
 10
725.0162338256398
 20
-640.2732281442871
 30
0.0
 40
0.5
100
AcDbArc
 50
90.00000000022146
 51
180.0
  0
LINE
  5
1F617
330
18
100
AcDbEntity
  8
1PHANTOM
 48
0.5
100
AcDbLine
 10
725.0162338584234
 20
-647.6732281442872
 30
0.0
 11
725.0162338584234
 21
-647.373228144287
 31
0.0
  0
ARC
  5
1F618
330
18
100
AcDbEntity
  8
1PHANTOM
 48
0.5
100
AcDbCircle
 10
725.5162338584234
 20
-647.6732281442872
 30
0.0
 40
0.5
100
AcDbArc
 50
179.9999999997785
 51
270.0
  0
LINE
  5
1F619
330
18
100
AcDbEntity
  8
1PHANTOM
 48
0.5
100
AcDbLine
 10
725.5162338584234
 20
-648.1732281442872
 30
0.0
 11
739.9960352491753
 21
-648.1732281442872
 31
0.0
  0
LINE
  5
1F61A
330
18
100
AcDbEntity
  8
1PHANTOM
 48
0.5
100
AcDbLine
 10
740.3162340233343
 20
-631.1732281442872
 30
0.0
 11
740.0162340114132
 21
-631.4732281562082
 31
0.0
  0
LINE
  5
1F61B
330
18
100
AcDbEntity
  8
1PHANTOM
 48
0.5
100
AcDbLine
 10
740.3162340233343
 20
-658.9732281442872
 30
0.0
 11
740.0162340114132
 21
-658.6732281323663
 31
0.0
  0
LINE
  5
1F61C
330
18
100
AcDbEntity
  8
1PHANTOM
 48
0.5
100
AcDbLine
 10
741.0162340114132
 20
-631.1732281442872
 30
0.0
 11
740.3162340233343
 21
-631.1732281442872
 31
0.0
  0
LINE
  5
1F61D
330
18
100
AcDbEntity
  8
1PHANTOM
 48
0.5
100
AcDbLine
 10
743.0162340114134
 20
-658.9732281442872
 30
0.0
 11
740.3162340233343
 21
-658.9732281442872
 31
0.0
  0
LINE
  5
1F61E
330
18
100
AcDbEntity
  8
1PHANTOM
100
AcDbLine
 10
774.0162408502565
 20
-635.8230800042367
 30
0.0
 11
768.716244340395
 21
-634.3230800042367
 31
0.0
  0
LINE
  5
1F61F
330
18
100
AcDbEntity
  8
1PHANTOM
100
AcDbLine
 10
768.716244340395
 20
-634.3230800042367
 30
0.0
 11
740.0162443403872
 21
-634.3230800042369
 31
0.0
  0
LINE
  5
1F620
330
18
100
AcDbEntity
  8
1PHANTOM
100
AcDbLine
 10
774.0162408502565
 20
-635.8230800042367
 30
0.0
 11
768.7162373600113
 21
-637.3230800042369
 31
0.0
  0
LINE
  5
1F621
330
18
100
AcDbEntity
  8
1PHANTOM
100
AcDbLine
 10
768.7162373600113
 20
-637.3230800042369
 30
0.0
 11
740.016240850418
 21
-637.3230800042371
 31
0.0
  0
LINE
  5
1F622
330
18
100
AcDbEntity
  8
1PHANTOM
100
AcDbLine
 10
739.0162489942011
 20
-632.3230334683391
 30
0.0
 11
737.9162455040057
 21
-632.3230334683388
 31
0.0
  0
ARC
  5
1F623
330
18
100
AcDbEntity
  8
1PHANTOM
100
AcDbCircle
 10
737.9162455040057
 20
-633.8230334683388
 30
0.0
 40
1.5
100
AcDbArc
 50
90.0
 51
179.9998666844619
  0
LINE
  5
1F624
330
18
100
AcDbEntity
  8
1PHANTOM
100
AcDbLine
 10
739.0162327066366
 20
-639.3230334683388
 30
0.0
 11
737.916236196826
 21
-639.3230334683388
 31
0.0
  0
LINE
  5
1F625
330
18
100
AcDbEntity
  8
1PHANTOM
100
AcDbLine
 10
736.4162455040098
 20
-633.8230299781463
 30
0.0
 11
736.4162361968301
 21
-637.8230299781463
 31
0.0
  0
ARC
  5
1F626
330
18
100
AcDbEntity
  8
1PHANTOM
100
AcDbCircle
 10
737.916236196826
 20
-637.8230334683388
 30
0.0
 40
1.5
100
AcDbArc
 50
179.9998666844619
 51
270.0
  0
LINE
  5
1F627
330
18
100
AcDbEntity
  8
1CENTER
 48
0.5
100
AcDbLine
 10
775.4470357677219
 20
-635.8230334683388
 30
0.0
 11
735.34596444111
 21
-635.8230334683388
 31
0.0
  0
LINE
  5
1F628
330
18
100
AcDbEntity
  8
1PHANTOM
100
AcDbLine
 10
771.9162433965787
 20
-634.7287096543438
 30
0.0
 11
772.7162388306297
 21
-636.6910447432193
 31
0.0
  0
LINE
  5
1F629
330
18
100
AcDbEntity
  8
1PHANTOM
100
AcDbLine
 10
772.7162388306297
 20
-636.6910447432193
 30
0.0
 11
773.0280086868818
 21
-636.1027681681768
 31
0.0
  0
LINE
  5
1F62A
330
18
100
AcDbEntity
  8
1PHANTOM
100
AcDbLine
 10
749.5162455037887
 20
-633.8230800042367
 30
0.0
 11
750.316236196607
 21
-637.8230800042367
 31
0.0
  0
LINE
  5
1F62B
330
18
100
AcDbEntity
  8
1PHANTOM
100
AcDbLine
 10
760.7162455037931
 20
-633.8230800042367
 30
0.0
 11
761.5162361966156
 21
-637.8230800042367
 31
0.0
  0
LINE
  5
1F62C
330
18
100
AcDbEntity
  8
1PHANTOM
100
AcDbLine
 10
763.9162455037931
 20
-633.8230800042367
 30
0.0
 11
764.7162361966157
 21
-637.8230800042367
 31
0.0
  0
LINE
  5
1F62D
330
18
100
AcDbEntity
  8
1PHANTOM
100
AcDbLine
 10
764.7162361966157
 20
-637.8230800042367
 30
0.0
 11
764.816237360013
 21
-637.3230800042367
 31
0.0
  0
LINE
  5
1F62E
330
18
100
AcDbEntity
  8
1PHANTOM
100
AcDbLine
 10
765.4162443403959
 20
-634.3230800042367
 30
0.0
 11
765.516245503793
 21
-633.8230800042367
 31
0.0
  0
LINE
  5
1F62F
330
18
100
AcDbEntity
  8
1PHANTOM
100
AcDbLine
 10
761.5162361966156
 20
-637.8230800042367
 30
0.0
 11
761.6162373600127
 21
-637.3230800042367
 31
0.0
  0
LINE
  5
1F630
330
18
100
AcDbEntity
  8
1PHANTOM
100
AcDbLine
 10
763.1162361966158
 20
-637.8230800042367
 30
0.0
 11
763.2162373600129
 21
-637.3230800042367
 31
0.0
  0
LINE
  5
1F631
330
18
100
AcDbEntity
  8
1PHANTOM
100
AcDbLine
 10
763.816244340396
 20
-634.3230800042367
 30
0.0
 11
763.9162455037931
 21
-633.8230800042367
 31
0.0
  0
LINE
  5
1F632
330
18
100
AcDbEntity
  8
1PHANTOM
100
AcDbLine
 10
762.2162443403961
 20
-634.3230800042367
 30
0.0
 11
762.3162455037932
 21
-633.8230800042367
 31
0.0
  0
LINE
  5
1F633
330
18
100
AcDbEntity
  8
1PHANTOM
100
AcDbLine
 10
762.3162455037932
 20
-633.8230800042367
 30
0.0
 11
763.1162361966158
 21
-637.8230800042367
 31
0.0
  0
LINE
  5
1F634
330
18
100
AcDbEntity
  8
1PHANTOM
100
AcDbLine
 10
771.116237777024
 20
-637.1438588476259
 30
0.0
 11
771.299001919652
 21
-636.5921093838227
 31
0.0
  0
LINE
  5
1F635
330
18
100
AcDbEntity
  8
1PHANTOM
100
AcDbLine
 10
767.9162361966157
 20
-637.8230800042367
 30
0.0
 11
768.0162373600128
 21
-637.3230800042367
 31
0.0
  0
LINE
  5
1F636
330
18
100
AcDbEntity
  8
1PHANTOM
100
AcDbLine
 10
766.3162361966156
 20
-637.8230800042367
 30
0.0
 11
766.4162373600127
 21
-637.3230800042367
 31
0.0
  0
LINE
  5
1F637
330
18
100
AcDbEntity
  8
1PHANTOM
100
AcDbLine
 10
769.5162367234184
 20
-637.5966729520329
 30
0.0
 11
769.6455074210483
 21
-637.0600792167617
 31
0.0
  0
LINE
  5
1F638
330
18
100
AcDbEntity
  8
1PHANTOM
100
AcDbLine
 10
770.2034749378329
 20
-634.7439946014455
 30
0.0
 11
770.3162444501829
 21
-634.2758961462956
 31
0.0
  0
LINE
  5
1F639
330
18
100
AcDbEntity
  8
1PHANTOM
100
AcDbLine
 10
767.016244340396
 20
-634.3230800042367
 30
0.0
 11
767.1162455037932
 21
-633.8230800042367
 31
0.0
  0
LINE
  5
1F63A
330
18
100
AcDbEntity
  8
1PHANTOM
100
AcDbLine
 10
768.616244340396
 20
-634.3230800042367
 30
0.0
 11
768.7162455037931
 21
-633.8230800042367
 31
0.0
  0
LINE
  5
1F63B
330
18
100
AcDbEntity
  8
1PHANTOM
100
AcDbLine
 10
771.7648076001383
 20
-635.1858814949748
 30
0.0
 11
771.9162433965787
 21
-634.7287096543438
 31
0.0
  0
LINE
  5
1F63C
330
18
100
AcDbEntity
  8
1PHANTOM
100
AcDbLine
 10
770.3162444501829
 20
-634.2758961462956
 30
0.0
 11
771.116237777024
 21
-637.1438588476259
 31
0.0
  0
LINE
  5
1F63D
330
18
100
AcDbEntity
  8
1PHANTOM
100
AcDbLine
 10
767.1162455037932
 20
-633.8230800042367
 30
0.0
 11
767.9162361966157
 21
-637.8230800042367
 31
0.0
  0
LINE
  5
1F63E
330
18
100
AcDbEntity
  8
1PHANTOM
100
AcDbLine
 10
768.7162455037931
 20
-633.8230800042367
 30
0.0
 11
769.5162367234184
 21
-637.5966729520329
 31
0.0
  0
LINE
  5
1F63F
330
18
100
AcDbEntity
  8
1PHANTOM
100
AcDbLine
 10
765.516245503793
 20
-633.8230800042367
 30
0.0
 11
766.3162361966156
 21
-637.8230800042367
 31
0.0
  0
LINE
  5
1F640
330
18
100
AcDbEntity
  8
1PHANTOM
100
AcDbLine
 10
752.7162455037887
 20
-633.8230800042367
 30
0.0
 11
753.516236196607
 21
-637.8230800042367
 31
0.0
  0
LINE
  5
1F641
330
18
100
AcDbEntity
  8
1PHANTOM
100
AcDbLine
 10
753.516236196607
 20
-637.8230800042367
 30
0.0
 11
753.6162373600046
 21
-637.3230800042367
 31
0.0
  0
LINE
  5
1F642
330
18
100
AcDbEntity
  8
1PHANTOM
100
AcDbLine
 10
754.2162443403954
 20
-634.3230800042367
 30
0.0
 11
754.3162455037932
 21
-633.8230800042367
 31
0.0
  0
LINE
  5
1F643
330
18
100
AcDbEntity
  8
1PHANTOM
100
AcDbLine
 10
751.9162361966069
 20
-637.8230800042367
 30
0.0
 11
752.0162373600047
 21
-637.3230800042367
 31
0.0
  0
LINE
  5
1F644
330
18
100
AcDbEntity
  8
1PHANTOM
100
AcDbLine
 10
750.316236196607
 20
-637.8230800042367
 30
0.0
 11
750.4162373600047
 21
-637.3230800042367
 31
0.0
  0
LINE
  5
1F645
330
18
100
AcDbEntity
  8
1PHANTOM
100
AcDbLine
 10
752.616244340391
 20
-634.3230800042367
 30
0.0
 11
752.7162455037887
 21
-633.8230800042367
 31
0.0
  0
LINE
  5
1F646
330
18
100
AcDbEntity
  8
1PHANTOM
100
AcDbLine
 10
751.016244340391
 20
-634.3230800042367
 30
0.0
 11
751.1162455037886
 21
-633.8230800042367
 31
0.0
  0
LINE
  5
1F647
330
18
100
AcDbEntity
  8
1PHANTOM
100
AcDbLine
 10
751.1162455037886
 20
-633.8230800042367
 30
0.0
 11
751.9162361966069
 21
-637.8230800042367
 31
0.0
  0
LINE
  5
1F648
330
18
100
AcDbEntity
  8
1PHANTOM
100
AcDbLine
 10
758.3162361966115
 20
-637.8230800042367
 30
0.0
 11
758.4162373600091
 21
-637.3230800042367
 31
0.0
  0
LINE
  5
1F649
330
18
100
AcDbEntity
  8
1PHANTOM
100
AcDbLine
 10
759.9162361966157
 20
-637.8230800042367
 30
0.0
 11
760.0162373600128
 21
-637.3230800042367
 31
0.0
  0
LINE
  5
1F64A
330
18
100
AcDbEntity
  8
1PHANTOM
100
AcDbLine
 10
755.1162361966112
 20
-637.8230800042367
 30
0.0
 11
755.216237360009
 21
-637.3230800042367
 31
0.0
  0
LINE
  5
1F64B
330
18
100
AcDbEntity
  8
1PHANTOM
100
AcDbLine
 10
756.7162361966111
 20
-637.8230800042367
 30
0.0
 11
756.8162373600089
 21
-637.3230800042367
 31
0.0
  0
LINE
  5
1F64C
330
18
100
AcDbEntity
  8
1PHANTOM
100
AcDbLine
 10
760.616244340396
 20
-634.3230800042367
 30
0.0
 11
760.7162455037931
 21
-633.8230800042367
 31
0.0
  0
LINE
  5
1F64D
330
18
100
AcDbEntity
  8
1PHANTOM
100
AcDbLine
 10
759.0162443403954
 20
-634.3230800042367
 30
0.0
 11
759.1162455037932
 21
-633.8230800042367
 31
0.0
  0
LINE
  5
1F64E
330
18
100
AcDbEntity
  8
1PHANTOM
100
AcDbLine
 10
755.8162443403953
 20
-634.3230800042367
 30
0.0
 11
755.9162455037931
 21
-633.8230800042367
 31
0.0
  0
LINE
  5
1F64F
330
18
100
AcDbEntity
  8
1PHANTOM
100
AcDbLine
 10
757.4162443403955
 20
-634.3230800042367
 30
0.0
 11
757.516245503793
 21
-633.8230800042367
 31
0.0
  0
LINE
  5
1F650
330
18
100
AcDbEntity
  8
1PHANTOM
100
AcDbLine
 10
757.516245503793
 20
-633.8230800042367
 30
0.0
 11
758.3162361966115
 21
-637.8230800042367
 31
0.0
  0
LINE
  5
1F651
330
18
100
AcDbEntity
  8
1PHANTOM
100
AcDbLine
 10
759.1162455037932
 20
-633.8230800042367
 30
0.0
 11
759.9162361966157
 21
-637.8230800042367
 31
0.0
  0
LINE
  5
1F652
330
18
100
AcDbEntity
  8
1PHANTOM
100
AcDbLine
 10
755.9162455037931
 20
-633.8230800042367
 30
0.0
 11
756.7162361966111
 21
-637.8230800042367
 31
0.0
  0
LINE
  5
1F653
330
18
100
AcDbEntity
  8
1PHANTOM
100
AcDbLine
 10
754.3162455037932
 20
-633.8230800042367
 30
0.0
 11
755.1162361966112
 21
-637.8230800042367
 31
0.0
  0
LINE
  5
1F654
330
18
100
AcDbEntity
  8
1PHANTOM
100
AcDbLine
 10
744.6162443403869
 20
-634.3230800042367
 30
0.0
 11
744.7162455037846
 21
-633.8230800042367
 31
0.0
  0
LINE
  5
1F655
330
18
100
AcDbEntity
  8
1PHANTOM
100
AcDbLine
 10
744.7162455037846
 20
-633.8230800042367
 30
0.0
 11
745.5162361966027
 21
-637.8230800042367
 31
0.0
  0
LINE
  5
1F656
330
18
100
AcDbEntity
  8
1PHANTOM
100
AcDbLine
 10
745.5162361966027
 20
-637.8230800042367
 30
0.0
 11
745.6162373600005
 21
-637.3230800042367
 31
0.0
  0
LINE
  5
1F657
330
18
100
AcDbEntity
  8
1PHANTOM
100
AcDbLine
 10
746.2162443403868
 20
-634.3230800042367
 30
0.0
 11
746.3162455037846
 21
-633.8230800042367
 31
0.0
  0
LINE
  5
1F658
330
18
100
AcDbEntity
  8
1PHANTOM
100
AcDbLine
 10
747.8162443403867
 20
-634.3230800042367
 30
0.0
 11
747.9162455037845
 21
-633.8230800042367
 31
0.0
  0
LINE
  5
1F659
330
18
100
AcDbEntity
  8
1PHANTOM
100
AcDbLine
 10
747.9162455037845
 20
-633.8230800042367
 30
0.0
 11
748.7162361966025
 21
-637.8230800042367
 31
0.0
  0
LINE
  5
1F65A
330
18
100
AcDbEntity
  8
1PHANTOM
100
AcDbLine
 10
747.1162361966026
 20
-637.8230800042367
 30
0.0
 11
747.2162373600004
 21
-637.3230800042367
 31
0.0
  0
LINE
  5
1F65B
330
18
100
AcDbEntity
  8
1PHANTOM
100
AcDbLine
 10
748.7162361966025
 20
-637.8230800042367
 30
0.0
 11
748.8162373600003
 21
-637.3230800042367
 31
0.0
  0
LINE
  5
1F65C
330
18
100
AcDbEntity
  8
1PHANTOM
100
AcDbLine
 10
746.3162455037846
 20
-633.8230800042367
 30
0.0
 11
747.1162361966026
 21
-637.8230800042367
 31
0.0
  0
LINE
  5
1F65D
330
18
100
AcDbEntity
  8
1PHANTOM
100
AcDbLine
 10
749.4162443403911
 20
-634.3230800042367
 30
0.0
 11
749.5162455037887
 21
-633.8230800042367
 31
0.0
  0
LINE
  5
1F65E
330
18
100
AcDbEntity
  8
1PHANTOM
100
AcDbLine
 10
743.016244340387
 20
-634.3230800042367
 30
0.0
 11
743.1162455037847
 21
-633.8230800042367
 31
0.0
  0
LINE
  5
1F65F
330
18
100
AcDbEntity
  8
1PHANTOM
100
AcDbLine
 10
743.1162455037847
 20
-633.8230800042367
 30
0.0
 11
743.9162361966028
 21
-637.8230800042367
 31
0.0
  0
LINE
  5
1F660
330
18
100
AcDbEntity
  8
1PHANTOM
100
AcDbLine
 10
743.9162361966028
 20
-637.8230800042367
 30
0.0
 11
744.0162373600006
 21
-637.3230800042367
 31
0.0
  0
LINE
  5
1F661
330
18
100
AcDbEntity
  8
1PHANTOM
100
AcDbLine
 10
741.416244340387
 20
-634.3230800042367
 30
0.0
 11
741.5162455037848
 21
-633.8230800042367
 31
0.0
  0
LINE
  5
1F662
330
18
100
AcDbEntity
  8
1PHANTOM
100
AcDbLine
 10
741.5162455037848
 20
-633.8230800042367
 30
0.0
 11
742.3162361966029
 21
-637.8230800042367
 31
0.0
  0
LINE
  5
1F663
330
18
100
AcDbEntity
  8
1PHANTOM
100
AcDbLine
 10
742.3162361966029
 20
-637.8230800042367
 30
0.0
 11
742.4162373600007
 21
-637.3230800042367
 31
0.0
  0
LINE
  5
1F664
330
18
100
AcDbEntity
  8
1PHANTOM
100
AcDbLine
 10
740.016240850418
 20
-634.3230625541884
 30
0.0
 11
740.716236196603
 21
-637.8230800042367
 31
0.0
  0
LINE
  5
1F665
330
18
100
AcDbEntity
  8
1PHANTOM
100
AcDbLine
 10
740.716236196603
 20
-637.8230800042367
 30
0.0
 11
740.8162373600007
 21
-637.3230800042367
 31
0.0
  0
LINE
  5
1F666
330
18
100
AcDbEntity
  8
1PHANTOM
100
AcDbLine
 10
739.0162492268848
 20
-632.2230317504722
 30
0.0
 11
739.0162324739608
 21
-639.4230317504711
 31
0.0
  0
LINE
  5
1F667
330
18
100
AcDbEntity
  8
1PHANTOM
100
AcDbLine
 10
739.0162324739608
 20
-639.4230317504711
 30
0.0
 11
740.016240850418
 21
-639.4230317504729
 31
0.0
  0
LINE
  5
1F668
330
18
100
AcDbEntity
  8
1PHANTOM
100
AcDbLine
 10
740.016240850418
 20
-632.2230317504722
 30
0.0
 11
739.0162492268848
 21
-632.2230317504722
 31
0.0
  0
LINE
  5
1F669
330
18
100
AcDbEntity
  8
1PHANTOM
100
AcDbLine
 10
740.016240850418
 20
-632.2230317504703
 30
0.0
 11
740.016240850418
 21
-639.4230317504729
 31
0.0
  0
LINE
  5
1F66A
330
18
100
AcDbEntity
  8
1PHANTOM
100
AcDbLine
 10
740.016240850417
 20
-635.7234770275676
 30
0.0
 11
739.016240850418
 21
-635.4555278351376
 31
0.0
  0
LINE
  5
1F66B
330
18
100
AcDbEntity
  8
1PHANTOM
100
AcDbLine
 10
740.016240850418
 20
-636.1737876778037
 30
0.0
 11
739.016240850418
 21
-635.9058384853737
 31
0.0
  0
LINE
  5
1F66C
330
18
100
AcDbEntity
  8
1PHANTOM
100
AcDbLine
 10
774.0162339237725
 20
-653.8230817985994
 30
0.0
 11
768.7162374139109
 21
-652.3230817985994
 31
0.0
  0
LINE
  5
1F66D
330
18
100
AcDbEntity
  8
1PHANTOM
100
AcDbLine
 10
768.7162374139109
 20
-652.3230817985994
 30
0.0
 11
740.0162374139031
 21
-652.3230817985997
 31
0.0
  0
LINE
  5
1F66E
330
18
100
AcDbEntity
  8
1PHANTOM
100
AcDbLine
 10
774.0162339237725
 20
-653.8230817985994
 30
0.0
 11
768.7162304335272
 21
-655.3230817985997
 31
0.0
  0
LINE
  5
1F66F
330
18
100
AcDbEntity
  8
1PHANTOM
100
AcDbLine
 10
768.7162304335272
 20
-655.3230817985997
 30
0.0
 11
740.0162339239339
 21
-655.3230817985999
 31
0.0
  0
LINE
  5
1F670
330
18
100
AcDbEntity
  8
1PHANTOM
100
AcDbLine
 10
739.016242067717
 20
-650.3230352627019
 30
0.0
 11
737.9162385775217
 21
-650.3230352627016
 31
0.0
  0
ARC
  5
1F671
330
18
100
AcDbEntity
  8
1PHANTOM
100
AcDbCircle
 10
737.9162385775217
 20
-651.8230352627016
 30
0.0
 40
1.5
100
AcDbArc
 50
90.0
 51
179.9998666844619
  0
LINE
  5
1F672
330
18
100
AcDbEntity
  8
1PHANTOM
100
AcDbLine
 10
739.0162257801526
 20
-657.3230352627016
 30
0.0
 11
737.916229270342
 21
-657.3230352627016
 31
0.0
  0
LINE
  5
1F673
330
18
100
AcDbEntity
  8
1PHANTOM
100
AcDbLine
 10
736.4162385775257
 20
-651.8230317725091
 30
0.0
 11
736.4162292703461
 21
-655.8230317725091
 31
0.0
  0
ARC
  5
1F674
330
18
100
AcDbEntity
  8
1PHANTOM
100
AcDbCircle
 10
737.916229270342
 20
-655.8230352627016
 30
0.0
 40
1.5
100
AcDbArc
 50
179.9998666844619
 51
270.0
  0
LINE
  5
1F675
330
18
100
AcDbEntity
  8
1CENTER
 48
0.5
100
AcDbLine
 10
775.4470288412379
 20
-653.8230352627016
 30
0.0
 11
735.345957514626
 21
-653.8230352627016
 31
0.0
  0
LINE
  5
1F676
330
18
100
AcDbEntity
  8
1PHANTOM
100
AcDbLine
 10
771.9162364700946
 20
-652.7287114487066
 30
0.0
 11
772.7162319041456
 21
-654.6910465375821
 31
0.0
  0
LINE
  5
1F677
330
18
100
AcDbEntity
  8
1PHANTOM
100
AcDbLine
 10
772.7162319041456
 20
-654.6910465375821
 30
0.0
 11
773.0280017603977
 21
-654.1027699625396
 31
0.0
  0
LINE
  5
1F678
330
18
100
AcDbEntity
  8
1PHANTOM
100
AcDbLine
 10
749.5162385773046
 20
-651.8230817985994
 30
0.0
 11
750.3162292701229
 21
-655.8230817985994
 31
0.0
  0
LINE
  5
1F679
330
18
100
AcDbEntity
  8
1PHANTOM
100
AcDbLine
 10
760.716238577309
 20
-651.8230817985994
 30
0.0
 11
761.5162292701316
 21
-655.8230817985994
 31
0.0
  0
LINE
  5
1F67A
330
18
100
AcDbEntity
  8
1PHANTOM
100
AcDbLine
 10
763.9162385773091
 20
-651.8230817985994
 30
0.0
 11
764.7162292701316
 21
-655.8230817985994
 31
0.0
  0
LINE
  5
1F67B
330
18
100
AcDbEntity
  8
1PHANTOM
100
AcDbLine
 10
764.7162292701316
 20
-655.8230817985994
 30
0.0
 11
764.816230433529
 21
-655.3230817985994
 31
0.0
  0
LINE
  5
1F67C
330
18
100
AcDbEntity
  8
1PHANTOM
100
AcDbLine
 10
765.4162374139119
 20
-652.3230817985994
 30
0.0
 11
765.516238577309
 21
-651.8230817985994
 31
0.0
  0
LINE
  5
1F67D
330
18
100
AcDbEntity
  8
1PHANTOM
100
AcDbLine
 10
761.5162292701316
 20
-655.8230817985994
 30
0.0
 11
761.6162304335287
 21
-655.3230817985994
 31
0.0
  0
LINE
  5
1F67E
330
18
100
AcDbEntity
  8
1PHANTOM
100
AcDbLine
 10
763.1162292701317
 20
-655.8230817985994
 30
0.0
 11
763.2162304335288
 21
-655.3230817985994
 31
0.0
  0
LINE
  5
1F67F
330
18
100
AcDbEntity
  8
1PHANTOM
100
AcDbLine
 10
763.816237413912
 20
-652.3230817985994
 30
0.0
 11
763.9162385773091
 21
-651.8230817985994
 31
0.0
  0
LINE
  5
1F680
330
18
100
AcDbEntity
  8
1PHANTOM
100
AcDbLine
 10
762.216237413912
 20
-652.3230817985994
 30
0.0
 11
762.3162385773092
 21
-651.8230817985994
 31
0.0
  0
LINE
  5
1F681
330
18
100
AcDbEntity
  8
1PHANTOM
100
AcDbLine
 10
762.3162385773092
 20
-651.8230817985994
 30
0.0
 11
763.1162292701317
 21
-655.8230817985994
 31
0.0
  0
LINE
  5
1F682
330
18
100
AcDbEntity
  8
1PHANTOM
100
AcDbLine
 10
771.11623085054
 20
-655.1438606419887
 30
0.0
 11
771.298994993168
 21
-654.5921111781855
 31
0.0
  0
LINE
  5
1F683
330
18
100
AcDbEntity
  8
1PHANTOM
100
AcDbLine
 10
767.9162292701317
 20
-655.8230817985994
 30
0.0
 11
768.0162304335288
 21
-655.3230817985994
 31
0.0
  0
LINE
  5
1F684
330
18
100
AcDbEntity
  8
1PHANTOM
100
AcDbLine
 10
766.3162292701315
 20
-655.8230817985994
 30
0.0
 11
766.4162304335287
 21
-655.3230817985994
 31
0.0
  0
LINE
  5
1F685
330
18
100
AcDbEntity
  8
1PHANTOM
100
AcDbLine
 10
769.5162297969343
 20
-655.5966747463957
 30
0.0
 11
769.6455004945642
 21
-655.0600810111245
 31
0.0
  0
LINE
  5
1F686
330
18
100
AcDbEntity
  8
1PHANTOM
100
AcDbLine
 10
770.2034680113488
 20
-652.7439963958083
 30
0.0
 11
770.3162375236989
 21
-652.2758979406584
 31
0.0
  0
LINE
  5
1F687
330
18
100
AcDbEntity
  8
1PHANTOM
100
AcDbLine
 10
767.016237413912
 20
-652.3230817985994
 30
0.0
 11
767.1162385773091
 21
-651.8230817985994
 31
0.0
  0
LINE
  5
1F688
330
18
100
AcDbEntity
  8
1PHANTOM
100
AcDbLine
 10
768.6162374139119
 20
-652.3230817985994
 30
0.0
 11
768.716238577309
 21
-651.8230817985994
 31
0.0
  0
LINE
  5
1F689
330
18
100
AcDbEntity
  8
1PHANTOM
100
AcDbLine
 10
771.7648006736542
 20
-653.1858832893375
 30
0.0
 11
771.9162364700946
 21
-652.7287114487066
 31
0.0
  0
LINE
  5
1F68A
330
18
100
AcDbEntity
  8
1PHANTOM
100
AcDbLine
 10
770.3162375236989
 20
-652.2758979406584
 30
0.0
 11
771.11623085054
 21
-655.1438606419887
 31
0.0
  0
LINE
  5
1F68B
330
18
100
AcDbEntity
  8
1PHANTOM
100
AcDbLine
 10
767.1162385773091
 20
-651.8230817985994
 30
0.0
 11
767.9162292701317
 21
-655.8230817985994
 31
0.0
  0
LINE
  5
1F68C
330
18
100
AcDbEntity
  8
1PHANTOM
100
AcDbLine
 10
768.716238577309
 20
-651.8230817985994
 30
0.0
 11
769.5162297969343
 21
-655.5966747463957
 31
0.0
  0
LINE
  5
1F68D
330
18
100
AcDbEntity
  8
1PHANTOM
100
AcDbLine
 10
765.516238577309
 20
-651.8230817985994
 30
0.0
 11
766.3162292701315
 21
-655.8230817985994
 31
0.0
  0
LINE
  5
1F68E
330
18
100
AcDbEntity
  8
1PHANTOM
100
AcDbLine
 10
752.7162385773047
 20
-651.8230817985994
 30
0.0
 11
753.516229270123
 21
-655.8230817985994
 31
0.0
  0
LINE
  5
1F68F
330
18
100
AcDbEntity
  8
1PHANTOM
100
AcDbLine
 10
753.516229270123
 20
-655.8230817985994
 30
0.0
 11
753.6162304335205
 21
-655.3230817985994
 31
0.0
  0
LINE
  5
1F690
330
18
100
AcDbEntity
  8
1PHANTOM
100
AcDbLine
 10
754.2162374139114
 20
-652.3230817985994
 30
0.0
 11
754.3162385773092
 21
-651.8230817985994
 31
0.0
  0
LINE
  5
1F691
330
18
100
AcDbEntity
  8
1PHANTOM
100
AcDbLine
 10
751.9162292701228
 20
-655.8230817985994
 30
0.0
 11
752.0162304335206
 21
-655.3230817985994
 31
0.0
  0
LINE
  5
1F692
330
18
100
AcDbEntity
  8
1PHANTOM
100
AcDbLine
 10
750.3162292701229
 20
-655.8230817985994
 30
0.0
 11
750.4162304335207
 21
-655.3230817985994
 31
0.0
  0
LINE
  5
1F693
330
18
100
AcDbEntity
  8
1PHANTOM
100
AcDbLine
 10
752.6162374139069
 20
-652.3230817985994
 30
0.0
 11
752.7162385773047
 21
-651.8230817985994
 31
0.0
  0
LINE
  5
1F694
330
18
100
AcDbEntity
  8
1PHANTOM
100
AcDbLine
 10
751.016237413907
 20
-652.3230817985994
 30
0.0
 11
751.1162385773046
 21
-651.8230817985994
 31
0.0
  0
LINE
  5
1F695
330
18
100
AcDbEntity
  8
1PHANTOM
100
AcDbLine
 10
751.1162385773046
 20
-651.8230817985994
 30
0.0
 11
751.9162292701228
 21
-655.8230817985994
 31
0.0
  0
LINE
  5
1F696
330
18
100
AcDbEntity
  8
1PHANTOM
100
AcDbLine
 10
758.3162292701275
 20
-655.8230817985994
 30
0.0
 11
758.416230433525
 21
-655.3230817985994
 31
0.0
  0
LINE
  5
1F697
330
18
100
AcDbEntity
  8
1PHANTOM
100
AcDbLine
 10
759.9162292701317
 20
-655.8230817985994
 30
0.0
 11
760.0162304335288
 21
-655.3230817985994
 31
0.0
  0
LINE
  5
1F698
330
18
100
AcDbEntity
  8
1PHANTOM
100
AcDbLine
 10
755.1162292701272
 20
-655.8230817985994
 30
0.0
 11
755.216230433525
 21
-655.3230817985994
 31
0.0
  0
LINE
  5
1F699
330
18
100
AcDbEntity
  8
1PHANTOM
100
AcDbLine
 10
756.7162292701271
 20
-655.8230817985994
 30
0.0
 11
756.8162304335249
 21
-655.3230817985994
 31
0.0
  0
LINE
  5
1F69A
330
18
100
AcDbEntity
  8
1PHANTOM
100
AcDbLine
 10
760.6162374139119
 20
-652.3230817985994
 30
0.0
 11
760.716238577309
 21
-651.8230817985994
 31
0.0
  0
LINE
  5
1F69B
330
18
100
AcDbEntity
  8
1PHANTOM
100
AcDbLine
 10
759.0162374139113
 20
-652.3230817985994
 30
0.0
 11
759.1162385773091
 21
-651.8230817985994
 31
0.0
  0
LINE
  5
1F69C
330
18
100
AcDbEntity
  8
1PHANTOM
100
AcDbLine
 10
755.8162374139113
 20
-652.3230817985994
 30
0.0
 11
755.9162385773091
 21
-651.8230817985994
 31
0.0
  0
LINE
  5
1F69D
330
18
100
AcDbEntity
  8
1PHANTOM
100
AcDbLine
 10
757.4162374139114
 20
-652.3230817985994
 30
0.0
 11
757.516238577309
 21
-651.8230817985994
 31
0.0
  0
LINE
  5
1F69E
330
18
100
AcDbEntity
  8
1PHANTOM
100
AcDbLine
 10
757.516238577309
 20
-651.8230817985994
 30
0.0
 11
758.3162292701275
 21
-655.8230817985994
 31
0.0
  0
LINE
  5
1F69F
330
18
100
AcDbEntity
  8
1PHANTOM
100
AcDbLine
 10
759.1162385773091
 20
-651.8230817985994
 30
0.0
 11
759.9162292701317
 21
-655.8230817985994
 31
0.0
  0
LINE
  5
1F6A0
330
18
100
AcDbEntity
  8
1PHANTOM
100
AcDbLine
 10
755.9162385773091
 20
-651.8230817985994
 30
0.0
 11
756.7162292701271
 21
-655.8230817985994
 31
0.0
  0
LINE
  5
1F6A1
330
18
100
AcDbEntity
  8
1PHANTOM
100
AcDbLine
 10
754.3162385773092
 20
-651.8230817985994
 30
0.0
 11
755.1162292701272
 21
-655.8230817985994
 31
0.0
  0
LINE
  5
1F6A2
330
18
100
AcDbEntity
  8
1PHANTOM
100
AcDbLine
 10
744.6162374139028
 20
-652.3230817985994
 30
0.0
 11
744.7162385773006
 21
-651.8230817985994
 31
0.0
  0
LINE
  5
1F6A3
330
18
100
AcDbEntity
  8
1PHANTOM
100
AcDbLine
 10
744.7162385773006
 20
-651.8230817985994
 30
0.0
 11
745.5162292701186
 21
-655.8230817985994
 31
0.0
  0
LINE
  5
1F6A4
330
18
100
AcDbEntity
  8
1PHANTOM
100
AcDbLine
 10
745.5162292701186
 20
-655.8230817985994
 30
0.0
 11
745.6162304335164
 21
-655.3230817985994
 31
0.0
  0
LINE
  5
1F6A5
330
18
100
AcDbEntity
  8
1PHANTOM
100
AcDbLine
 10
746.2162374139027
 20
-652.3230817985994
 30
0.0
 11
746.3162385773005
 21
-651.8230817985994
 31
0.0
  0
LINE
  5
1F6A6
330
18
100
AcDbEntity
  8
1PHANTOM
100
AcDbLine
 10
747.8162374139026
 20
-652.3230817985994
 30
0.0
 11
747.9162385773004
 21
-651.8230817985994
 31
0.0
  0
LINE
  5
1F6A7
330
18
100
AcDbEntity
  8
1PHANTOM
100
AcDbLine
 10
747.9162385773004
 20
-651.8230817985994
 30
0.0
 11
748.7162292701184
 21
-655.8230817985994
 31
0.0
  0
LINE
  5
1F6A8
330
18
100
AcDbEntity
  8
1PHANTOM
100
AcDbLine
 10
747.1162292701185
 20
-655.8230817985994
 30
0.0
 11
747.2162304335163
 21
-655.3230817985994
 31
0.0
  0
LINE
  5
1F6A9
330
18
100
AcDbEntity
  8
1PHANTOM
100
AcDbLine
 10
748.7162292701184
 20
-655.8230817985994
 30
0.0
 11
748.8162304335162
 21
-655.3230817985994
 31
0.0
  0
LINE
  5
1F6AA
330
18
100
AcDbEntity
  8
1PHANTOM
100
AcDbLine
 10
746.3162385773005
 20
-651.8230817985994
 30
0.0
 11
747.1162292701185
 21
-655.8230817985994
 31
0.0
  0
LINE
  5
1F6AB
330
18
100
AcDbEntity
  8
1PHANTOM
100
AcDbLine
 10
749.4162374139071
 20
-652.3230817985994
 30
0.0
 11
749.5162385773046
 21
-651.8230817985994
 31
0.0
  0
LINE
  5
1F6AC
330
18
100
AcDbEntity
  8
1PHANTOM
100
AcDbLine
 10
743.0162374139029
 20
-652.3230817985994
 30
0.0
 11
743.1162385773007
 21
-651.8230817985994
 31
0.0
  0
LINE
  5
1F6AD
330
18
100
AcDbEntity
  8
1PHANTOM
100
AcDbLine
 10
743.1162385773007
 20
-651.8230817985994
 30
0.0
 11
743.9162292701187
 21
-655.8230817985994
 31
0.0
  0
LINE
  5
1F6AE
330
18
100
AcDbEntity
  8
1PHANTOM
100
AcDbLine
 10
743.9162292701187
 20
-655.8230817985994
 30
0.0
 11
744.0162304335165
 21
-655.3230817985994
 31
0.0
  0
LINE
  5
1F6AF
330
18
100
AcDbEntity
  8
1PHANTOM
100
AcDbLine
 10
741.416237413903
 20
-652.3230817985994
 30
0.0
 11
741.5162385773008
 21
-651.8230817985994
 31
0.0
  0
LINE
  5
1F6B0
330
18
100
AcDbEntity
  8
1PHANTOM
100
AcDbLine
 10
741.5162385773008
 20
-651.8230817985994
 30
0.0
 11
742.3162292701188
 21
-655.8230817985994
 31
0.0
  0
LINE
  5
1F6B1
330
18
100
AcDbEntity
  8
1PHANTOM
100
AcDbLine
 10
742.3162292701188
 20
-655.8230817985994
 30
0.0
 11
742.4162304335166
 21
-655.3230817985994
 31
0.0
  0
LINE
  5
1F6B2
330
18
100
AcDbEntity
  8
1PHANTOM
100
AcDbLine
 10
740.0162339239339
 20
-652.3230643485512
 30
0.0
 11
740.7162292701189
 21
-655.8230817985994
 31
0.0
  0
LINE
  5
1F6B3
330
18
100
AcDbEntity
  8
1PHANTOM
100
AcDbLine
 10
740.7162292701189
 20
-655.8230817985994
 30
0.0
 11
740.8162304335167
 21
-655.3230817985994
 31
0.0
  0
LINE
  5
1F6B4
330
18
100
AcDbEntity
  8
1PHANTOM
100
AcDbLine
 10
739.0162423004008
 20
-650.223033544835
 30
0.0
 11
739.0162255474768
 21
-657.4230335448339
 31
0.0
  0
LINE
  5
1F6B5
330
18
100
AcDbEntity
  8
1PHANTOM
100
AcDbLine
 10
739.0162255474768
 20
-657.4230335448339
 30
0.0
 11
740.0162339239339
 21
-657.4230335448357
 31
0.0
  0
LINE
  5
1F6B6
330
18
100
AcDbEntity
  8
1PHANTOM
100
AcDbLine
 10
740.0162339239339
 20
-650.223033544835
 30
0.0
 11
739.0162423004008
 21
-650.223033544835
 31
0.0
  0
LINE
  5
1F6B7
330
18
100
AcDbEntity
  8
1PHANTOM
100
AcDbLine
 10
740.0162339239339
 20
-650.2230335448331
 30
0.0
 11
740.0162339239339
 21
-657.4230335448357
 31
0.0
  0
LINE
  5
1F6B8
330
18
100
AcDbEntity
  8
1PHANTOM
100
AcDbLine
 10
740.016233923933
 20
-653.7234788219304
 30
0.0
 11
739.0162339239339
 21
-653.4555296295003
 31
0.0
  0
LINE
  5
1F6B9
330
18
100
AcDbEntity
  8
1PHANTOM
100
AcDbLine
 10
740.0162339239339
 20
-654.1737894721665
 30
0.0
 11
739.0162339239339
 21
-653.9058402797365
 31
0.0
  0
LINE
  5
1F6BA
330
18
100
AcDbEntity
  8
1PHANTOM
 48
0.2
100
AcDbLine
 10
174.7664011621125
 20
-654.3229895993171
 30
0.0
 11
174.7664011621125
 21
-653.3229895993171
 31
0.0
  0
ARC
  5
1F6BB
330
18
100
AcDbEntity
  8
1PHANTOM
 48
0.2
100
AcDbCircle
 10
177.0164011621125
 20
-653.3229895993171
 30
0.0
 40
2.25
100
AcDbArc
 50
0.0000000004574118
 51
180.0
  0
LINE
  5
1F6BC
330
18
100
AcDbEntity
  8
1PHANTOM
 48
0.2
100
AcDbLine
 10
179.2664011621125
 20
-653.3229895993171
 30
0.0
 11
179.2664011621125
 21
-654.3229895993171
 31
0.0
  0
ARC
  5
1F6BD
330
18
100
AcDbEntity
  8
1PHANTOM
 48
0.2
100
AcDbCircle
 10
177.0164011621125
 20
-654.3229895993171
 30
0.0
 40
2.25
100
AcDbArc
 50
179.9999999995455
 51
0.0
  0
ARC
  5
1F6BE
330
18
100
AcDbEntity
  8
1PHANTOM
 48
0.2
100
AcDbCircle
 10
178.0164011621125
 20
-635.8229895993171
 30
0.0
 40
2.25
100
AcDbArc
 50
270.0000000004559
 51
90.0
  0
LINE
  5
1F6BF
330
18
100
AcDbEntity
  8
1PHANTOM
 48
0.2
100
AcDbLine
 10
178.0164011621125
 20
-638.0729895993171
 30
0.0
 11
176.0164011621125
 21
-638.0729895993171
 31
0.0
  0
ARC
  5
1F6C0
330
18
100
AcDbEntity
  8
1PHANTOM
 48
0.2
100
AcDbCircle
 10
176.0164011621125
 20
-635.8229895993171
 30
0.0
 40
2.25
100
AcDbArc
 50
90.00000000045596
 51
270.0
  0
LINE
  5
1F6C1
330
18
100
AcDbEntity
  8
1PHANTOM
 48
0.2
100
AcDbLine
 10
178.0164011621125
 20
-633.5729895993171
 30
0.0
 11
176.0164011621125
 21
-633.5729895993171
 31
0.0
  0
LINE
  5
1F6C2
330
18
100
AcDbEntity
  8
1CENTER
 48
0.5
100
AcDbLine
 10
173.1009810642229
 20
-635.8229895993171
 30
0.0
 11
180.9318519699102
 21
-635.8229895993171
 31
0.0
  0
LINE
  5
1F6C3
330
18
100
AcDbEntity
  8
1CENTER
 48
0.5
100
AcDbLine
 10
173.1009810642224
 20
-653.8229895993171
 30
0.0
 11
180.9318519699102
 21
-653.8229895993171
 31
0.0
  0
LINE
  5
1F6C4
330
18
100
AcDbEntity
  8
1CENTER
 48
0.5
100
AcDbLine
 10
177.0164165170663
 20
-657.7384250521608
 30
0.0
 11
177.0164165170663
 21
-649.9075541464734
 31
0.0
  0
LINE
  5
1F6C5
330
18
100
AcDbEntity
  8
1CENTER
 48
0.5
100
AcDbLine
 10
177.0164165170665
 20
-639.7384250521608
 30
0.0
 11
177.0164165170665
 21
-631.9075541464734
 31
0.0
  0
LINE
  5
1F6C6
330
18
100
AcDbEntity
  8
1PHANTOM
 48
0.5
100
AcDbLine
 10
613.4164340725727
 20
-538.8213303512666
 30
0.0
 11
622.2664340606516
 21
-538.8213303512666
 31
0.0
  0
LINE
  5
1F6C7
330
18
100
AcDbEntity
  8
1PHANTOM
 48
0.5
100
AcDbLine
 10
631.7664340606516
 20
-538.8213303512665
 30
0.0
 11
640.6164340487308
 21
-538.8213303512666
 31
0.0
  0
LINE
  5
1F6C8
330
18
100
AcDbEntity
  8
1PHANTOM
 48
0.5
100
AcDbLine
 10
631.2664340606516
 20
-554.3213305610813
 30
0.0
 11
622.7664340606516
 21
-554.3213305610813
 31
0.0
  0
LINE
  5
1F6C9
330
18
100
AcDbEntity
  8
1PHANTOM
 48
0.5
100
AcDbLine
 10
631.7664340606516
 20
-553.8213305610813
 30
0.0
 11
631.7664340606516
 21
-538.8213303512665
 31
0.0
  0
ARC
  5
1F6CA
330
18
100
AcDbEntity
  8
1PHANTOM
 48
0.5
100
AcDbCircle
 10
631.2664340606516
 20
-553.8213305610813
 30
0.0
 40
0.5
100
AcDbArc
 50
270.0
 51
359.9999999997655
  0
LINE
  5
1F6CB
330
18
100
AcDbEntity
  8
1PHANTOM
 48
0.5
100
AcDbLine
 10
622.2664340606516
 20
-553.8213305610813
 30
0.0
 11
622.2664340606516
 21
-538.8213303512665
 31
0.0
  0
ARC
  5
1F6CC
330
18
100
AcDbEntity
  8
1PHANTOM
 48
0.5
100
AcDbCircle
 10
622.7664340606516
 20
-553.8213305610813
 30
0.0
 40
0.5
100
AcDbArc
 50
180.0000000002215
 51
270.0
  0
LINE
  5
1F6CD
330
18
100
AcDbEntity
  8
1PHANTOM
 48
0.5
100
AcDbLine
 10
613.1164340606517
 20
-538.5213303393455
 30
0.0
 11
613.4164340725727
 21
-538.8213303512666
 31
0.0
  0
LINE
  5
1F6CE
330
18
100
AcDbEntity
  8
1PHANTOM
 48
0.5
100
AcDbLine
 10
640.9164340606517
 20
-538.5213303393455
 30
0.0
 11
640.6164340487308
 21
-538.8213303512666
 31
0.0
  0
LINE
  5
1F6CF
330
18
100
AcDbEntity
  8
1PHANTOM
 48
0.5
100
AcDbLine
 10
613.1164340606517
 20
-535.8213303512664
 30
0.0
 11
613.1164340606517
 21
-538.5213303393456
 31
0.0
  0
LINE
  5
1F6D0
330
18
100
AcDbEntity
  8
1PHANTOM
 48
0.5
100
AcDbLine
 10
640.9164340606517
 20
-535.8213303512664
 30
0.0
 11
640.9164340606517
 21
-538.5213303393456
 31
0.0
  0
LINE
  5
1F6D1
330
18
100
AcDbEntity
  8
1PHANTOM
100
AcDbLine
 10
627.0164805965494
 20
-504.8213317501926
 30
0.0
 11
625.5164805965494
 21
-510.1213282600542
 31
0.0
  0
LINE
  5
1F6D2
330
18
100
AcDbEntity
  8
1PHANTOM
100
AcDbLine
 10
625.5164805965494
 20
-510.1213282600542
 30
0.0
 11
625.5164805965496
 21
-538.8213282600619
 31
0.0
  0
LINE
  5
1F6D3
330
18
100
AcDbEntity
  8
1PHANTOM
100
AcDbLine
 10
627.0164805965494
 20
-504.8213317501926
 30
0.0
 11
628.5164805965496
 21
-510.1213352404378
 31
0.0
  0
LINE
  5
1F6D4
330
18
100
AcDbEntity
  8
1PHANTOM
100
AcDbLine
 10
628.5164805965496
 20
-510.1213352404378
 30
0.0
 11
628.5164805965499
 21
-538.8213317500312
 31
0.0
  0
LINE
  5
1F6D5
330
18
100
AcDbEntity
  8
1PHANTOM
100
AcDbLine
 10
623.5164340606518
 20
-539.821323606248
 30
0.0
 11
623.5164340606516
 21
-540.9213270964434
 31
0.0
  0
ARC
  5
1F6D6
330
18
100
AcDbEntity
  8
1PHANTOM
100
AcDbCircle
 10
625.0164340606516
 20
-540.9213270964434
 30
0.0
 40
1.5
100
AcDbArc
 50
180.0
 51
269.9998666844619
  0
LINE
  5
1F6D7
330
18
100
AcDbEntity
  8
1PHANTOM
100
AcDbLine
 10
630.5164340606516
 20
-539.8213398938125
 30
0.0
 11
630.5164340606516
 21
-540.9213364036231
 31
0.0
  0
LINE
  5
1F6D8
330
18
100
AcDbEntity
  8
1PHANTOM
100
AcDbLine
 10
625.0164305704591
 20
-542.4213270964393
 30
0.0
 11
629.0164305704591
 21
-542.421336403619
 31
0.0
  0
ARC
  5
1F6D9
330
18
100
AcDbEntity
  8
1PHANTOM
100
AcDbCircle
 10
629.0164340606516
 20
-540.9213364036231
 30
0.0
 40
1.5
100
AcDbArc
 50
269.9998666844619
 51
0.0
  0
LINE
  5
1F6DA
330
18
100
AcDbEntity
  8
1CENTER
 48
0.5
100
AcDbLine
 10
627.0164340606516
 20
-503.3905368327272
 30
0.0
 11
627.0164340606516
 21
-543.4916081593391
 31
0.0
  0
LINE
  5
1F6DB
330
18
100
AcDbEntity
  8
1PHANTOM
100
AcDbLine
 10
625.9221102466565
 20
-506.9213292038704
 30
0.0
 11
627.8844453355321
 21
-506.1213337698194
 31
0.0
  0
LINE
  5
1F6DC
330
18
100
AcDbEntity
  8
1PHANTOM
100
AcDbLine
 10
627.8844453355321
 20
-506.1213337698194
 30
0.0
 11
627.2961687604895
 21
-505.8095639135673
 31
0.0
  0
LINE
  5
1F6DD
330
18
100
AcDbEntity
  8
1PHANTOM
100
AcDbLine
 10
625.0164805965494
 20
-529.3213270966604
 30
0.0
 11
629.0164805965494
 21
-528.5213364038422
 31
0.0
  0
LINE
  5
1F6DE
330
18
100
AcDbEntity
  8
1PHANTOM
100
AcDbLine
 10
625.0164805965494
 20
-518.121327096656
 30
0.0
 11
629.0164805965494
 21
-517.3213364038335
 31
0.0
  0
LINE
  5
1F6DF
330
18
100
AcDbEntity
  8
1PHANTOM
100
AcDbLine
 10
625.0164805965494
 20
-514.921327096656
 30
0.0
 11
629.0164805965494
 21
-514.1213364038334
 31
0.0
  0
LINE
  5
1F6E0
330
18
100
AcDbEntity
  8
1PHANTOM
100
AcDbLine
 10
629.0164805965494
 20
-514.1213364038334
 30
0.0
 11
628.5164805965494
 21
-514.0213352404361
 31
0.0
  0
LINE
  5
1F6E1
330
18
100
AcDbEntity
  8
1PHANTOM
100
AcDbLine
 10
625.5164805965494
 20
-513.4213282600532
 30
0.0
 11
625.0164805965494
 21
-513.3213270966561
 31
0.0
  0
LINE
  5
1F6E2
330
18
100
AcDbEntity
  8
1PHANTOM
100
AcDbLine
 10
629.0164805965494
 20
-517.3213364038335
 30
0.0
 11
628.5164805965494
 21
-517.2213352404364
 31
0.0
  0
LINE
  5
1F6E3
330
18
100
AcDbEntity
  8
1PHANTOM
100
AcDbLine
 10
629.0164805965494
 20
-515.7213364038333
 30
0.0
 11
628.5164805965494
 21
-515.6213352404362
 31
0.0
  0
LINE
  5
1F6E4
330
18
100
AcDbEntity
  8
1PHANTOM
100
AcDbLine
 10
625.5164805965494
 20
-515.0213282600531
 30
0.0
 11
625.0164805965494
 21
-514.921327096656
 31
0.0
  0
LINE
  5
1F6E5
330
18
100
AcDbEntity
  8
1PHANTOM
100
AcDbLine
 10
625.5164805965494
 20
-516.621328260053
 30
0.0
 11
625.0164805965494
 21
-516.5213270966559
 31
0.0
  0
LINE
  5
1F6E6
330
18
100
AcDbEntity
  8
1PHANTOM
100
AcDbLine
 10
625.0164805965494
 20
-516.5213270966559
 30
0.0
 11
629.0164805965494
 21
-515.7213364038333
 31
0.0
  0
LINE
  5
1F6E7
330
18
100
AcDbEntity
  8
1PHANTOM
100
AcDbLine
 10
628.3372594399386
 20
-507.7213348234251
 30
0.0
 11
627.7855099761355
 21
-507.5385706807971
 31
0.0
  0
LINE
  5
1F6E8
330
18
100
AcDbEntity
  8
1PHANTOM
100
AcDbLine
 10
629.0164805965494
 20
-510.9213364038334
 30
0.0
 11
628.5164805965494
 21
-510.8213352404363
 31
0.0
  0
LINE
  5
1F6E9
330
18
100
AcDbEntity
  8
1PHANTOM
100
AcDbLine
 10
629.0164805965494
 20
-512.5213364038335
 30
0.0
 11
628.5164805965494
 21
-512.4213352404364
 31
0.0
  0
LINE
  5
1F6EA
330
18
100
AcDbEntity
  8
1PHANTOM
100
AcDbLine
 10
628.7900735443457
 20
-509.3213358770307
 30
0.0
 11
628.2534798090744
 21
-509.1920651794009
 31
0.0
  0
LINE
  5
1F6EB
330
18
100
AcDbEntity
  8
1PHANTOM
100
AcDbLine
 10
625.9373951937582
 20
-508.6340976626162
 30
0.0
 11
625.4692967386084
 21
-508.5213281502662
 31
0.0
  0
LINE
  5
1F6EC
330
18
100
AcDbEntity
  8
1PHANTOM
100
AcDbLine
 10
625.5164805965494
 20
-511.8213282600531
 30
0.0
 11
625.0164805965494
 21
-511.721327096656
 31
0.0
  0
LINE
  5
1F6ED
330
18
100
AcDbEntity
  8
1PHANTOM
100
AcDbLine
 10
625.5164805965494
 20
-510.2213282600532
 30
0.0
 11
625.0164805965494
 21
-510.121327096656
 31
0.0
  0
LINE
  5
1F6EE
330
18
100
AcDbEntity
  8
1PHANTOM
100
AcDbLine
 10
626.3792820872875
 20
-507.0727650003108
 30
0.0
 11
625.9221102466565
 21
-506.9213292038704
 31
0.0
  0
LINE
  5
1F6EF
330
18
100
AcDbEntity
  8
1PHANTOM
100
AcDbLine
 10
625.4692967386084
 20
-508.5213281502662
 30
0.0
 11
628.3372594399386
 21
-507.7213348234251
 31
0.0
  0
LINE
  5
1F6F0
330
18
100
AcDbEntity
  8
1PHANTOM
100
AcDbLine
 10
625.0164805965494
 20
-511.721327096656
 30
0.0
 11
629.0164805965494
 21
-510.9213364038334
 31
0.0
  0
LINE
  5
1F6F1
330
18
100
AcDbEntity
  8
1PHANTOM
100
AcDbLine
 10
625.0164805965494
 20
-510.121327096656
 30
0.0
 11
628.7900735443457
 21
-509.3213358770307
 31
0.0
  0
LINE
  5
1F6F2
330
18
100
AcDbEntity
  8
1PHANTOM
100
AcDbLine
 10
625.0164805965494
 20
-513.3213270966561
 30
0.0
 11
629.0164805965494
 21
-512.5213364038335
 31
0.0
  0
LINE
  5
1F6F3
330
18
100
AcDbEntity
  8
1PHANTOM
100
AcDbLine
 10
625.0164805965494
 20
-526.1213270966604
 30
0.0
 11
629.0164805965494
 21
-525.3213364038421
 31
0.0
  0
LINE
  5
1F6F4
330
18
100
AcDbEntity
  8
1PHANTOM
100
AcDbLine
 10
629.0164805965494
 20
-525.3213364038421
 30
0.0
 11
628.5164805965494
 21
-525.2213352404445
 31
0.0
  0
LINE
  5
1F6F5
330
18
100
AcDbEntity
  8
1PHANTOM
100
AcDbLine
 10
625.5164805965494
 20
-524.6213282600537
 30
0.0
 11
625.0164805965494
 21
-524.5213270966559
 31
0.0
  0
LINE
  5
1F6F6
330
18
100
AcDbEntity
  8
1PHANTOM
100
AcDbLine
 10
629.0164805965494
 20
-526.9213364038422
 30
0.0
 11
628.5164805965494
 21
-526.8213352404445
 31
0.0
  0
LINE
  5
1F6F7
330
18
100
AcDbEntity
  8
1PHANTOM
100
AcDbLine
 10
629.0164805965494
 20
-528.5213364038422
 30
0.0
 11
628.5164805965494
 21
-528.4213352404444
 31
0.0
  0
LINE
  5
1F6F8
330
18
100
AcDbEntity
  8
1PHANTOM
100
AcDbLine
 10
625.5164805965494
 20
-526.2213282600582
 30
0.0
 11
625.0164805965494
 21
-526.1213270966604
 31
0.0
  0
LINE
  5
1F6F9
330
18
100
AcDbEntity
  8
1PHANTOM
100
AcDbLine
 10
625.5164805965494
 20
-527.8213282600581
 30
0.0
 11
625.0164805965494
 21
-527.7213270966605
 31
0.0
  0
LINE
  5
1F6FA
330
18
100
AcDbEntity
  8
1PHANTOM
100
AcDbLine
 10
625.0164805965494
 20
-527.7213270966605
 30
0.0
 11
629.0164805965494
 21
-526.9213364038422
 31
0.0
  0
LINE
  5
1F6FB
330
18
100
AcDbEntity
  8
1PHANTOM
100
AcDbLine
 10
629.0164805965494
 20
-520.5213364038376
 30
0.0
 11
628.5164805965494
 21
-520.42133524044
 31
0.0
  0
LINE
  5
1F6FC
330
18
100
AcDbEntity
  8
1PHANTOM
100
AcDbLine
 10
629.0164805965494
 20
-518.9213364038334
 30
0.0
 11
628.5164805965494
 21
-518.8213352404363
 31
0.0
  0
LINE
  5
1F6FD
330
18
100
AcDbEntity
  8
1PHANTOM
100
AcDbLine
 10
629.0164805965494
 20
-523.7213364038379
 30
0.0
 11
628.5164805965494
 21
-523.6213352404401
 31
0.0
  0
LINE
  5
1F6FE
330
18
100
AcDbEntity
  8
1PHANTOM
100
AcDbLine
 10
629.0164805965494
 20
-522.121336403838
 30
0.0
 11
628.5164805965494
 21
-522.0213352404402
 31
0.0
  0
LINE
  5
1F6FF
330
18
100
AcDbEntity
  8
1PHANTOM
100
AcDbLine
 10
625.5164805965494
 20
-518.2213282600532
 30
0.0
 11
625.0164805965494
 21
-518.121327096656
 31
0.0
  0
LINE
  5
1F700
330
18
100
AcDbEntity
  8
1PHANTOM
100
AcDbLine
 10
625.5164805965494
 20
-519.8213282600537
 30
0.0
 11
625.0164805965494
 21
-519.721327096656
 31
0.0
  0
LINE
  5
1F701
330
18
100
AcDbEntity
  8
1PHANTOM
100
AcDbLine
 10
625.5164805965494
 20
-523.0213282600538
 30
0.0
 11
625.0164805965494
 21
-522.921327096656
 31
0.0
  0
LINE
  5
1F702
330
18
100
AcDbEntity
  8
1PHANTOM
100
AcDbLine
 10
625.5164805965494
 20
-521.4213282600537
 30
0.0
 11
625.0164805965494
 21
-521.3213270966561
 31
0.0
  0
LINE
  5
1F703
330
18
100
AcDbEntity
  8
1PHANTOM
100
AcDbLine
 10
625.0164805965494
 20
-521.3213270966561
 30
0.0
 11
629.0164805965494
 21
-520.5213364038376
 31
0.0
  0
LINE
  5
1F704
330
18
100
AcDbEntity
  8
1PHANTOM
100
AcDbLine
 10
625.0164805965494
 20
-519.721327096656
 30
0.0
 11
629.0164805965494
 21
-518.9213364038334
 31
0.0
  0
LINE
  5
1F705
330
18
100
AcDbEntity
  8
1PHANTOM
100
AcDbLine
 10
625.0164805965494
 20
-522.921327096656
 30
0.0
 11
629.0164805965494
 21
-522.121336403838
 31
0.0
  0
LINE
  5
1F706
330
18
100
AcDbEntity
  8
1PHANTOM
100
AcDbLine
 10
625.0164805965494
 20
-524.5213270966559
 30
0.0
 11
629.0164805965494
 21
-523.7213364038379
 31
0.0
  0
LINE
  5
1F707
330
18
100
AcDbEntity
  8
1PHANTOM
100
AcDbLine
 10
625.5164805965494
 20
-534.2213282600623
 30
0.0
 11
625.0164805965494
 21
-534.1213270966645
 31
0.0
  0
LINE
  5
1F708
330
18
100
AcDbEntity
  8
1PHANTOM
100
AcDbLine
 10
625.0164805965494
 20
-534.1213270966645
 30
0.0
 11
629.0164805965494
 21
-533.3213364038464
 31
0.0
  0
LINE
  5
1F709
330
18
100
AcDbEntity
  8
1PHANTOM
100
AcDbLine
 10
629.0164805965494
 20
-533.3213364038464
 30
0.0
 11
628.5164805965494
 21
-533.2213352404486
 31
0.0
  0
LINE
  5
1F70A
330
18
100
AcDbEntity
  8
1PHANTOM
100
AcDbLine
 10
625.5164805965494
 20
-532.6213282600623
 30
0.0
 11
625.0164805965494
 21
-532.5213270966645
 31
0.0
  0
LINE
  5
1F70B
330
18
100
AcDbEntity
  8
1PHANTOM
100
AcDbLine
 10
625.5164805965494
 20
-531.0213282600624
 30
0.0
 11
625.0164805965494
 21
-530.9213270966646
 31
0.0
  0
LINE
  5
1F70C
330
18
100
AcDbEntity
  8
1PHANTOM
100
AcDbLine
 10
625.0164805965494
 20
-530.9213270966646
 30
0.0
 11
629.0164805965494
 21
-530.1213364038466
 31
0.0
  0
LINE
  5
1F70D
330
18
100
AcDbEntity
  8
1PHANTOM
100
AcDbLine
 10
629.0164805965494
 20
-531.7213364038465
 30
0.0
 11
628.5164805965494
 21
-531.6213352404487
 31
0.0
  0
LINE
  5
1F70E
330
18
100
AcDbEntity
  8
1PHANTOM
100
AcDbLine
 10
629.0164805965494
 20
-530.1213364038466
 30
0.0
 11
628.5164805965494
 21
-530.0213352404488
 31
0.0
  0
LINE
  5
1F70F
330
18
100
AcDbEntity
  8
1PHANTOM
100
AcDbLine
 10
625.0164805965494
 20
-532.5213270966645
 30
0.0
 11
629.0164805965494
 21
-531.7213364038465
 31
0.0
  0
LINE
  5
1F710
330
18
100
AcDbEntity
  8
1PHANTOM
100
AcDbLine
 10
625.5164805965494
 20
-529.421328260058
 30
0.0
 11
625.0164805965494
 21
-529.3213270966604
 31
0.0
  0
LINE
  5
1F711
330
18
100
AcDbEntity
  8
1PHANTOM
100
AcDbLine
 10
625.5164805965494
 20
-535.8213282600622
 30
0.0
 11
625.0164805965494
 21
-535.7213270966644
 31
0.0
  0
LINE
  5
1F712
330
18
100
AcDbEntity
  8
1PHANTOM
100
AcDbLine
 10
625.0164805965494
 20
-535.7213270966644
 30
0.0
 11
629.0164805965494
 21
-534.9213364038463
 31
0.0
  0
LINE
  5
1F713
330
18
100
AcDbEntity
  8
1PHANTOM
100
AcDbLine
 10
629.0164805965494
 20
-534.9213364038463
 30
0.0
 11
628.5164805965494
 21
-534.8213352404485
 31
0.0
  0
LINE
  5
1F714
330
18
100
AcDbEntity
  8
1PHANTOM
100
AcDbLine
 10
625.5164805965494
 20
-537.4213282600621
 30
0.0
 11
625.0164805965494
 21
-537.3213270966643
 31
0.0
  0
LINE
  5
1F715
330
18
100
AcDbEntity
  8
1PHANTOM
100
AcDbLine
 10
625.0164805965494
 20
-537.3213270966643
 30
0.0
 11
629.0164805965494
 21
-536.5213364038462
 31
0.0
  0
LINE
  5
1F716
330
18
100
AcDbEntity
  8
1PHANTOM
100
AcDbLine
 10
629.0164805965494
 20
-536.5213364038462
 30
0.0
 11
628.5164805965494
 21
-536.4213352404485
 31
0.0
  0
LINE
  5
1F717
330
18
100
AcDbEntity
  8
1PHANTOM
100
AcDbLine
 10
625.5164631465011
 20
-538.8213317500312
 30
0.0
 11
629.0164805965494
 21
-538.1213364038462
 31
0.0
  0
LINE
  5
1F718
330
18
100
AcDbEntity
  8
1PHANTOM
100
AcDbLine
 10
629.0164805965494
 20
-538.1213364038462
 30
0.0
 11
628.5164805965494
 21
-538.0213352404484
 31
0.0
  0
LINE
  5
1F719
330
18
100
AcDbEntity
  8
1PHANTOM
100
AcDbLine
 10
623.4164323427849
 20
-539.8213233735643
 30
0.0
 11
630.6164323427838
 21
-539.8213401264883
 31
0.0
  0
LINE
  5
1F71A
330
18
100
AcDbEntity
  8
1PHANTOM
100
AcDbLine
 10
630.6164323427838
 20
-539.8213401264883
 30
0.0
 11
630.6164323427856
 21
-538.8213317500312
 31
0.0
  0
LINE
  5
1F71B
330
18
100
AcDbEntity
  8
1PHANTOM
100
AcDbLine
 10
623.4164323427849
 20
-538.8213317500312
 30
0.0
 11
623.4164323427849
 21
-539.8213233735643
 31
0.0
  0
LINE
  5
1F71C
330
18
100
AcDbEntity
  8
1PHANTOM
100
AcDbLine
 10
623.4164323427831
 20
-538.8213317500312
 30
0.0
 11
630.6164323427856
 21
-538.8213317500312
 31
0.0
  0
LINE
  5
1F71D
330
18
100
AcDbEntity
  8
1PHANTOM
100
AcDbLine
 10
626.9168776198803
 20
-538.8213317500321
 30
0.0
 11
626.6489284274503
 21
-539.8213317500312
 31
0.0
  0
LINE
  5
1F71E
330
18
100
AcDbEntity
  8
1PHANTOM
100
AcDbLine
 10
627.3671882701165
 20
-538.8213317500312
 30
0.0
 11
627.0992390776864
 21
-539.8213317500312
 31
0.0
  0
LINE
  5
1F71F
330
18
100
AcDbEntity
  8
1PHANTOM
 48
0.5
100
AcDbLine
 10
163.4162225537998
 20
-538.8213303512666
 30
0.0
 11
172.266222541879
 21
-538.8213303512666
 31
0.0
  0
LINE
  5
1F720
330
18
100
AcDbEntity
  8
1PHANTOM
 48
0.5
100
AcDbLine
 10
181.766222541879
 20
-538.8213303512665
 30
0.0
 11
190.6162225299581
 21
-538.8213303512666
 31
0.0
  0
LINE
  5
1F721
330
18
100
AcDbEntity
  8
1PHANTOM
 48
0.5
100
AcDbLine
 10
181.266222541879
 20
-554.3213305610813
 30
0.0
 11
172.766222541879
 21
-554.3213305610813
 31
0.0
  0
LINE
  5
1F722
330
18
100
AcDbEntity
  8
1PHANTOM
 48
0.5
100
AcDbLine
 10
181.766222541879
 20
-553.8213305610813
 30
0.0
 11
181.766222541879
 21
-538.8213303512665
 31
0.0
  0
ARC
  5
1F723
330
18
100
AcDbEntity
  8
1PHANTOM
 48
0.5
100
AcDbCircle
 10
181.266222541879
 20
-553.8213305610813
 30
0.0
 40
0.5
100
AcDbArc
 50
270.0
 51
359.9999999997655
  0
LINE
  5
1F724
330
18
100
AcDbEntity
  8
1PHANTOM
 48
0.5
100
AcDbLine
 10
172.266222541879
 20
-553.8213305610813
 30
0.0
 11
172.266222541879
 21
-538.8213303512665
 31
0.0
  0
ARC
  5
1F725
330
18
100
AcDbEntity
  8
1PHANTOM
 48
0.5
100
AcDbCircle
 10
172.766222541879
 20
-553.8213305610813
 30
0.0
 40
0.5
100
AcDbArc
 50
180.0000000002215
 51
270.0
  0
LINE
  5
1F726
330
18
100
AcDbEntity
  8
1PHANTOM
 48
0.5
100
AcDbLine
 10
163.1162225418789
 20
-538.5213303393455
 30
0.0
 11
163.4162225537998
 21
-538.8213303512666
 31
0.0
  0
LINE
  5
1F727
330
18
100
AcDbEntity
  8
1PHANTOM
 48
0.5
100
AcDbLine
 10
190.9162225418791
 20
-538.5213303393455
 30
0.0
 11
190.6162225299581
 21
-538.8213303512666
 31
0.0
  0
LINE
  5
1F728
330
18
100
AcDbEntity
  8
1PHANTOM
 48
0.5
100
AcDbLine
 10
163.1162225418789
 20
-535.8213303512664
 30
0.0
 11
163.1162225418789
 21
-538.5213303393456
 31
0.0
  0
LINE
  5
1F729
330
18
100
AcDbEntity
  8
1PHANTOM
 48
0.5
100
AcDbLine
 10
190.9162225418791
 20
-535.8213303512664
 30
0.0
 11
190.9162225418791
 21
-538.5213303393456
 31
0.0
  0
LINE
  5
1F72A
330
18
100
AcDbEntity
  8
1PHANTOM
100
AcDbLine
 10
177.0162690777768
 20
-504.8213317501926
 30
0.0
 11
175.5162690777768
 21
-510.1213282600542
 31
0.0
  0
LINE
  5
1F72B
330
18
100
AcDbEntity
  8
1PHANTOM
100
AcDbLine
 10
175.5162690777768
 20
-510.1213282600542
 30
0.0
 11
175.516269077777
 21
-538.8213282600619
 31
0.0
  0
LINE
  5
1F72C
330
18
100
AcDbEntity
  8
1PHANTOM
100
AcDbLine
 10
177.0162690777768
 20
-504.8213317501926
 30
0.0
 11
178.516269077777
 21
-510.1213352404378
 31
0.0
  0
LINE
  5
1F72D
330
18
100
AcDbEntity
  8
1PHANTOM
100
AcDbLine
 10
178.516269077777
 20
-510.1213352404378
 30
0.0
 11
178.5162690777772
 21
-538.8213317500312
 31
0.0
  0
LINE
  5
1F72E
330
18
100
AcDbEntity
  8
1PHANTOM
100
AcDbLine
 10
173.5162225418792
 20
-539.821323606248
 30
0.0
 11
173.516222541879
 21
-540.9213270964434
 31
0.0
  0
ARC
  5
1F72F
330
18
100
AcDbEntity
  8
1PHANTOM
100
AcDbCircle
 10
175.016222541879
 20
-540.9213270964434
 30
0.0
 40
1.5
100
AcDbArc
 50
180.0
 51
269.9998666844619
  0
LINE
  5
1F730
330
18
100
AcDbEntity
  8
1PHANTOM
100
AcDbLine
 10
180.516222541879
 20
-539.8213398938125
 30
0.0
 11
180.516222541879
 21
-540.9213364036231
 31
0.0
  0
LINE
  5
1F731
330
18
100
AcDbEntity
  8
1PHANTOM
100
AcDbLine
 10
175.0162190516864
 20
-542.4213270964393
 30
0.0
 11
179.0162190516864
 21
-542.421336403619
 31
0.0
  0
ARC
  5
1F732
330
18
100
AcDbEntity
  8
1PHANTOM
100
AcDbCircle
 10
179.016222541879
 20
-540.9213364036231
 30
0.0
 40
1.5
100
AcDbArc
 50
269.9998666844619
 51
0.0
  0
LINE
  5
1F733
330
18
100
AcDbEntity
  8
1CENTER
 48
0.5
100
AcDbLine
 10
177.016222541879
 20
-503.3905368327272
 30
0.0
 11
177.016222541879
 21
-543.4916081593391
 31
0.0
  0
LINE
  5
1F734
330
18
100
AcDbEntity
  8
1PHANTOM
100
AcDbLine
 10
175.9218987278839
 20
-506.9213292038704
 30
0.0
 11
177.8842338167594
 21
-506.1213337698194
 31
0.0
  0
LINE
  5
1F735
330
18
100
AcDbEntity
  8
1PHANTOM
100
AcDbLine
 10
177.8842338167594
 20
-506.1213337698194
 30
0.0
 11
177.2959572417169
 21
-505.8095639135673
 31
0.0
  0
LINE
  5
1F736
330
18
100
AcDbEntity
  8
1PHANTOM
100
AcDbLine
 10
175.0162690777768
 20
-529.3213270966604
 30
0.0
 11
179.0162690777768
 21
-528.5213364038422
 31
0.0
  0
LINE
  5
1F737
330
18
100
AcDbEntity
  8
1PHANTOM
100
AcDbLine
 10
175.0162690777768
 20
-518.121327096656
 30
0.0
 11
179.0162690777768
 21
-517.3213364038335
 31
0.0
  0
LINE
  5
1F738
330
18
100
AcDbEntity
  8
1PHANTOM
100
AcDbLine
 10
175.0162690777768
 20
-514.921327096656
 30
0.0
 11
179.0162690777768
 21
-514.1213364038334
 31
0.0
  0
LINE
  5
1F739
330
18
100
AcDbEntity
  8
1PHANTOM
100
AcDbLine
 10
179.0162690777768
 20
-514.1213364038334
 30
0.0
 11
178.5162690777768
 21
-514.0213352404361
 31
0.0
  0
LINE
  5
1F73A
330
18
100
AcDbEntity
  8
1PHANTOM
100
AcDbLine
 10
175.5162690777768
 20
-513.4213282600532
 30
0.0
 11
175.0162690777768
 21
-513.3213270966561
 31
0.0
  0
LINE
  5
1F73B
330
18
100
AcDbEntity
  8
1PHANTOM
100
AcDbLine
 10
179.0162690777768
 20
-517.3213364038335
 30
0.0
 11
178.5162690777768
 21
-517.2213352404364
 31
0.0
  0
LINE
  5
1F73C
330
18
100
AcDbEntity
  8
1PHANTOM
100
AcDbLine
 10
179.0162690777768
 20
-515.7213364038333
 30
0.0
 11
178.5162690777768
 21
-515.6213352404362
 31
0.0
  0
LINE
  5
1F73D
330
18
100
AcDbEntity
  8
1PHANTOM
100
AcDbLine
 10
175.5162690777768
 20
-515.0213282600531
 30
0.0
 11
175.0162690777768
 21
-514.921327096656
 31
0.0
  0
LINE
  5
1F73E
330
18
100
AcDbEntity
  8
1PHANTOM
100
AcDbLine
 10
175.5162690777768
 20
-516.621328260053
 30
0.0
 11
175.0162690777768
 21
-516.5213270966559
 31
0.0
  0
LINE
  5
1F73F
330
18
100
AcDbEntity
  8
1PHANTOM
100
AcDbLine
 10
175.0162690777768
 20
-516.5213270966559
 30
0.0
 11
179.0162690777768
 21
-515.7213364038333
 31
0.0
  0
LINE
  5
1F740
330
18
100
AcDbEntity
  8
1PHANTOM
100
AcDbLine
 10
178.337047921166
 20
-507.7213348234251
 30
0.0
 11
177.7852984573628
 21
-507.5385706807971
 31
0.0
  0
LINE
  5
1F741
330
18
100
AcDbEntity
  8
1PHANTOM
100
AcDbLine
 10
179.0162690777768
 20
-510.9213364038334
 30
0.0
 11
178.5162690777768
 21
-510.8213352404363
 31
0.0
  0
LINE
  5
1F742
330
18
100
AcDbEntity
  8
1PHANTOM
100
AcDbLine
 10
179.0162690777768
 20
-512.5213364038335
 30
0.0
 11
178.5162690777768
 21
-512.4213352404364
 31
0.0
  0
LINE
  5
1F743
330
18
100
AcDbEntity
  8
1PHANTOM
100
AcDbLine
 10
178.789862025573
 20
-509.3213358770307
 30
0.0
 11
178.2532682903018
 21
-509.1920651794009
 31
0.0
  0
LINE
  5
1F744
330
18
100
AcDbEntity
  8
1PHANTOM
100
AcDbLine
 10
175.9371836749856
 20
-508.6340976626162
 30
0.0
 11
175.4690852198357
 21
-508.5213281502662
 31
0.0
  0
LINE
  5
1F745
330
18
100
AcDbEntity
  8
1PHANTOM
100
AcDbLine
 10
175.5162690777768
 20
-511.8213282600531
 30
0.0
 11
175.0162690777768
 21
-511.721327096656
 31
0.0
  0
LINE
  5
1F746
330
18
100
AcDbEntity
  8
1PHANTOM
100
AcDbLine
 10
175.5162690777768
 20
-510.2213282600532
 30
0.0
 11
175.0162690777768
 21
-510.121327096656
 31
0.0
  0
LINE
  5
1F747
330
18
100
AcDbEntity
  8
1PHANTOM
100
AcDbLine
 10
176.3790705685149
 20
-507.0727650003108
 30
0.0
 11
175.9218987278839
 21
-506.9213292038704
 31
0.0
  0
LINE
  5
1F748
330
18
100
AcDbEntity
  8
1PHANTOM
100
AcDbLine
 10
175.4690852198357
 20
-508.5213281502662
 30
0.0
 11
178.337047921166
 21
-507.7213348234251
 31
0.0
  0
LINE
  5
1F749
330
18
100
AcDbEntity
  8
1PHANTOM
100
AcDbLine
 10
175.0162690777768
 20
-511.721327096656
 30
0.0
 11
179.0162690777768
 21
-510.9213364038334
 31
0.0
  0
LINE
  5
1F74A
330
18
100
AcDbEntity
  8
1PHANTOM
100
AcDbLine
 10
175.0162690777768
 20
-510.121327096656
 30
0.0
 11
178.789862025573
 21
-509.3213358770307
 31
0.0
  0
LINE
  5
1F74B
330
18
100
AcDbEntity
  8
1PHANTOM
100
AcDbLine
 10
175.0162690777768
 20
-513.3213270966561
 30
0.0
 11
179.0162690777768
 21
-512.5213364038335
 31
0.0
  0
LINE
  5
1F74C
330
18
100
AcDbEntity
  8
1PHANTOM
100
AcDbLine
 10
175.0162690777768
 20
-526.1213270966604
 30
0.0
 11
179.0162690777768
 21
-525.3213364038421
 31
0.0
  0
LINE
  5
1F74D
330
18
100
AcDbEntity
  8
1PHANTOM
100
AcDbLine
 10
179.0162690777768
 20
-525.3213364038421
 30
0.0
 11
178.5162690777768
 21
-525.2213352404445
 31
0.0
  0
LINE
  5
1F74E
330
18
100
AcDbEntity
  8
1PHANTOM
100
AcDbLine
 10
175.5162690777768
 20
-524.6213282600537
 30
0.0
 11
175.0162690777768
 21
-524.5213270966559
 31
0.0
  0
LINE
  5
1F74F
330
18
100
AcDbEntity
  8
1PHANTOM
100
AcDbLine
 10
179.0162690777768
 20
-526.9213364038422
 30
0.0
 11
178.5162690777768
 21
-526.8213352404445
 31
0.0
  0
LINE
  5
1F750
330
18
100
AcDbEntity
  8
1PHANTOM
100
AcDbLine
 10
179.0162690777768
 20
-528.5213364038422
 30
0.0
 11
178.5162690777768
 21
-528.4213352404444
 31
0.0
  0
LINE
  5
1F751
330
18
100
AcDbEntity
  8
1PHANTOM
100
AcDbLine
 10
175.5162690777768
 20
-526.2213282600582
 30
0.0
 11
175.0162690777768
 21
-526.1213270966604
 31
0.0
  0
LINE
  5
1F752
330
18
100
AcDbEntity
  8
1PHANTOM
100
AcDbLine
 10
175.5162690777768
 20
-527.8213282600581
 30
0.0
 11
175.0162690777768
 21
-527.7213270966605
 31
0.0
  0
LINE
  5
1F753
330
18
100
AcDbEntity
  8
1PHANTOM
100
AcDbLine
 10
175.0162690777768
 20
-527.7213270966605
 30
0.0
 11
179.0162690777768
 21
-526.9213364038422
 31
0.0
  0
LINE
  5
1F754
330
18
100
AcDbEntity
  8
1PHANTOM
100
AcDbLine
 10
179.0162690777768
 20
-520.5213364038376
 30
0.0
 11
178.5162690777768
 21
-520.42133524044
 31
0.0
  0
LINE
  5
1F755
330
18
100
AcDbEntity
  8
1PHANTOM
100
AcDbLine
 10
179.0162690777768
 20
-518.9213364038334
 30
0.0
 11
178.5162690777768
 21
-518.8213352404363
 31
0.0
  0
LINE
  5
1F756
330
18
100
AcDbEntity
  8
1PHANTOM
100
AcDbLine
 10
179.0162690777768
 20
-523.7213364038379
 30
0.0
 11
178.5162690777768
 21
-523.6213352404401
 31
0.0
  0
LINE
  5
1F757
330
18
100
AcDbEntity
  8
1PHANTOM
100
AcDbLine
 10
179.0162690777768
 20
-522.121336403838
 30
0.0
 11
178.5162690777768
 21
-522.0213352404402
 31
0.0
  0
LINE
  5
1F758
330
18
100
AcDbEntity
  8
1PHANTOM
100
AcDbLine
 10
175.5162690777768
 20
-518.2213282600532
 30
0.0
 11
175.0162690777768
 21
-518.121327096656
 31
0.0
  0
LINE
  5
1F759
330
18
100
AcDbEntity
  8
1PHANTOM
100
AcDbLine
 10
175.5162690777768
 20
-519.8213282600537
 30
0.0
 11
175.0162690777768
 21
-519.721327096656
 31
0.0
  0
LINE
  5
1F75A
330
18
100
AcDbEntity
  8
1PHANTOM
100
AcDbLine
 10
175.5162690777768
 20
-523.0213282600538
 30
0.0
 11
175.0162690777768
 21
-522.921327096656
 31
0.0
  0
LINE
  5
1F75B
330
18
100
AcDbEntity
  8
1PHANTOM
100
AcDbLine
 10
175.5162690777768
 20
-521.4213282600537
 30
0.0
 11
175.0162690777768
 21
-521.3213270966561
 31
0.0
  0
LINE
  5
1F75C
330
18
100
AcDbEntity
  8
1PHANTOM
100
AcDbLine
 10
175.0162690777768
 20
-521.3213270966561
 30
0.0
 11
179.0162690777768
 21
-520.5213364038376
 31
0.0
  0
LINE
  5
1F75D
330
18
100
AcDbEntity
  8
1PHANTOM
100
AcDbLine
 10
175.0162690777768
 20
-519.721327096656
 30
0.0
 11
179.0162690777768
 21
-518.9213364038334
 31
0.0
  0
LINE
  5
1F75E
330
18
100
AcDbEntity
  8
1PHANTOM
100
AcDbLine
 10
175.0162690777768
 20
-522.921327096656
 30
0.0
 11
179.0162690777768
 21
-522.121336403838
 31
0.0
  0
LINE
  5
1F75F
330
18
100
AcDbEntity
  8
1PHANTOM
100
AcDbLine
 10
175.0162690777768
 20
-524.5213270966559
 30
0.0
 11
179.0162690777768
 21
-523.7213364038379
 31
0.0
  0
LINE
  5
1F760
330
18
100
AcDbEntity
  8
1PHANTOM
100
AcDbLine
 10
175.5162690777768
 20
-534.2213282600623
 30
0.0
 11
175.0162690777768
 21
-534.1213270966645
 31
0.0
  0
LINE
  5
1F761
330
18
100
AcDbEntity
  8
1PHANTOM
100
AcDbLine
 10
175.0162690777768
 20
-534.1213270966645
 30
0.0
 11
179.0162690777768
 21
-533.3213364038464
 31
0.0
  0
LINE
  5
1F762
330
18
100
AcDbEntity
  8
1PHANTOM
100
AcDbLine
 10
179.0162690777768
 20
-533.3213364038464
 30
0.0
 11
178.5162690777768
 21
-533.2213352404486
 31
0.0
  0
LINE
  5
1F763
330
18
100
AcDbEntity
  8
1PHANTOM
100
AcDbLine
 10
175.5162690777768
 20
-532.6213282600623
 30
0.0
 11
175.0162690777768
 21
-532.5213270966645
 31
0.0
  0
LINE
  5
1F764
330
18
100
AcDbEntity
  8
1PHANTOM
100
AcDbLine
 10
175.5162690777768
 20
-531.0213282600624
 30
0.0
 11
175.0162690777768
 21
-530.9213270966646
 31
0.0
  0
LINE
  5
1F765
330
18
100
AcDbEntity
  8
1PHANTOM
100
AcDbLine
 10
175.0162690777768
 20
-530.9213270966646
 30
0.0
 11
179.0162690777768
 21
-530.1213364038466
 31
0.0
  0
LINE
  5
1F766
330
18
100
AcDbEntity
  8
1PHANTOM
100
AcDbLine
 10
179.0162690777768
 20
-531.7213364038465
 30
0.0
 11
178.5162690777768
 21
-531.6213352404487
 31
0.0
  0
LINE
  5
1F767
330
18
100
AcDbEntity
  8
1PHANTOM
100
AcDbLine
 10
179.0162690777768
 20
-530.1213364038466
 30
0.0
 11
178.5162690777768
 21
-530.0213352404488
 31
0.0
  0
LINE
  5
1F768
330
18
100
AcDbEntity
  8
1PHANTOM
100
AcDbLine
 10
175.0162690777768
 20
-532.5213270966645
 30
0.0
 11
179.0162690777768
 21
-531.7213364038465
 31
0.0
  0
LINE
  5
1F769
330
18
100
AcDbEntity
  8
1PHANTOM
100
AcDbLine
 10
175.5162690777768
 20
-529.421328260058
 30
0.0
 11
175.0162690777768
 21
-529.3213270966604
 31
0.0
  0
LINE
  5
1F76A
330
18
100
AcDbEntity
  8
1PHANTOM
100
AcDbLine
 10
175.5162690777768
 20
-535.8213282600622
 30
0.0
 11
175.0162690777768
 21
-535.7213270966644
 31
0.0
  0
LINE
  5
1F76B
330
18
100
AcDbEntity
  8
1PHANTOM
100
AcDbLine
 10
175.0162690777768
 20
-535.7213270966644
 30
0.0
 11
179.0162690777768
 21
-534.9213364038463
 31
0.0
  0
LINE
  5
1F76C
330
18
100
AcDbEntity
  8
1PHANTOM
100
AcDbLine
 10
179.0162690777768
 20
-534.9213364038463
 30
0.0
 11
178.5162690777768
 21
-534.8213352404485
 31
0.0
  0
LINE
  5
1F76D
330
18
100
AcDbEntity
  8
1PHANTOM
100
AcDbLine
 10
175.5162690777768
 20
-537.4213282600621
 30
0.0
 11
175.0162690777768
 21
-537.3213270966643
 31
0.0
  0
LINE
  5
1F76E
330
18
100
AcDbEntity
  8
1PHANTOM
100
AcDbLine
 10
175.0162690777768
 20
-537.3213270966643
 30
0.0
 11
179.0162690777768
 21
-536.5213364038462
 31
0.0
  0
LINE
  5
1F76F
330
18
100
AcDbEntity
  8
1PHANTOM
100
AcDbLine
 10
179.0162690777768
 20
-536.5213364038462
 30
0.0
 11
178.5162690777768
 21
-536.4213352404485
 31
0.0
  0
LINE
  5
1F770
330
18
100
AcDbEntity
  8
1PHANTOM
100
AcDbLine
 10
175.5162516277285
 20
-538.8213317500312
 30
0.0
 11
179.0162690777768
 21
-538.1213364038462
 31
0.0
  0
LINE
  5
1F771
330
18
100
AcDbEntity
  8
1PHANTOM
100
AcDbLine
 10
179.0162690777768
 20
-538.1213364038462
 30
0.0
 11
178.5162690777768
 21
-538.0213352404484
 31
0.0
  0
LINE
  5
1F772
330
18
100
AcDbEntity
  8
1PHANTOM
100
AcDbLine
 10
173.4162208240123
 20
-539.8213233735643
 30
0.0
 11
180.6162208240112
 21
-539.8213401264883
 31
0.0
  0
LINE
  5
1F773
330
18
100
AcDbEntity
  8
1PHANTOM
100
AcDbLine
 10
180.6162208240112
 20
-539.8213401264883
 30
0.0
 11
180.616220824013
 21
-538.8213317500312
 31
0.0
  0
LINE
  5
1F774
330
18
100
AcDbEntity
  8
1PHANTOM
100
AcDbLine
 10
173.4162208240123
 20
-538.8213317500312
 30
0.0
 11
173.4162208240123
 21
-539.8213233735643
 31
0.0
  0
LINE
  5
1F775
330
18
100
AcDbEntity
  8
1PHANTOM
100
AcDbLine
 10
173.4162208240105
 20
-538.8213317500312
 30
0.0
 11
180.616220824013
 21
-538.8213317500312
 31
0.0
  0
LINE
  5
1F776
330
18
100
AcDbEntity
  8
1PHANTOM
100
AcDbLine
 10
176.9166661011077
 20
-538.8213317500321
 30
0.0
 11
176.6487169086777
 21
-539.8213317500312
 31
0.0
  0
LINE
  5
1F777
330
18
100
AcDbEntity
  8
1PHANTOM
100
AcDbLine
 10
177.3669767513438
 20
-538.8213317500312
 30
0.0
 11
177.0990275589138
 21
-539.8213317500312
 31
0.0
  0
LINE
  5
1F778
330
18
100
AcDbEntity
  8
01
100
AcDbLine
 10
193.016222541879
 20
-535.8213303512664
 30
0.0
 11
161.016222541879
 21
-535.8213303512664
 31
0.0
  0
LINE
  5
1F779
330
18
100
AcDbEntity
  8
01
100
AcDbLine
 10
193.016222541879
 20
-588.8213307796378
 30
0.0
 11
193.016222541879
 21
-535.8213303512664
 31
0.0
  0
LINE
  5
1F77A
330
18
100
AcDbEntity
  8
01
100
AcDbLine
 10
161.016222541879
 20
-535.8213303512664
 30
0.0
 11
161.016222541879
 21
-588.521330779638
 31
0.0
  0
ARC
  5
1F77B
330
18
100
AcDbEntity
  8
01
100
AcDbCircle
 10
161.516222541879
 20
-588.521330779638
 30
0.0
 40
0.5
100
AcDbArc
 50
180.0
 51
269.9999999997655
  0
LINE
  5
1F77C
330
18
100
AcDbEntity
  8
01
100
AcDbLine
 10
161.516222541879
 20
-589.021330779638
 30
0.0
 11
192.8162225388987
 21
-589.021330779638
 31
0.0
  0
ARC
  5
1F77D
330
18
100
AcDbEntity
  8
01
100
AcDbCircle
 10
192.8162225388987
 20
-588.8213307766578
 30
0.0
 40
0.2000000029802322
100
AcDbArc
 50
270.0000000002084
 51
0.0
  0
LINE
  5
1F780
330
18
100
AcDbEntity
  8
01
100
AcDbLine
 10
193.0164149871655
 20
-628.7729895993201
 30
0.0
 11
193.0164149871655
 21
-640.7729895993201
 31
0.0
  0
LINE
  5
1F781
330
18
100
AcDbEntity
  8
01
100
AcDbLine
 10
193.0164149871655
 20
-640.7729890191766
 30
0.0
 11
193.0164149871655
 21
-644.5729895993194
 31
0.0
  0
ARC
  5
1F782
330
18
100
AcDbEntity
  8
01
100
AcDbCircle
 10
192.8164149841853
 20
-640.7729890191766
 30
0.0
 40
0.2000000029802321
100
AcDbArc
 50
269.9997669849586
 51
0.0000000002279822
  0
ARC
  5
1F783
330
18
100
AcDbEntity
  8
01
100
AcDbCircle
 10
192.8164149841853
 20
-628.7729925477669
 30
0.0
 40
0.2000000029802327
100
AcDbArc
 50
0.0000000002279822
 51
90.00131530654042
  0
LINE
  5
1F784
330
18
100
AcDbEntity
  8
01
100
AcDbLine
 10
161.0164149871655
 20
-629.0729895993203
 30
0.0
 11
161.0164149871655
 21
-640.4729895993204
 31
0.0
  0
LINE
  5
1F785
330
18
100
AcDbEntity
  8
01
100
AcDbLine
 10
161.0164149871655
 20
-644.5729895993212
 30
0.0
 11
161.0164149871655
 21
-640.4729881832967
 31
0.0
  0
LINE
  5
1F786
330
18
100
AcDbEntity
  8
01
100
AcDbLine
 10
161.5164149868626
 20
-628.5729994343131
 30
0.0
 11
192.8164149843067
 21
-628.5729925448117
 31
0.0
  0
LINE
  5
1F787
330
18
100
AcDbEntity
  8
01
100
AcDbLine
 10
161.5164149836376
 20
-640.9729881830325
 30
0.0
 11
192.8164141708096
 21
-640.9729890221305
 31
0.0
  0
ARC
  5
1F788
330
18
100
AcDbEntity
  8
01
100
AcDbCircle
 10
161.5164149871655
 20
-629.0729994335815
 30
0.0
 40
0.4999999999999716
100
AcDbArc
 50
89.9988349356829
 51
180.0
  0
ARC
  5
1F789
330
18
100
AcDbEntity
  8
01
100
AcDbCircle
 10
161.5164149871655
 20
-640.4729881832967
 30
0.0
 40
0.5
100
AcDbArc
 50
180.0
 51
270.0000573377737
  0
ARC
  5
1F78A
330
18
100
AcDbEntity
  8
01
100
AcDbCircle
 10
177.0164149871655
 20
-644.572982729212
 30
0.0
 40
16.00000000000133
100
AcDbArc
 50
180.0000246017763
 51
359.9999753978068
  0
LINE
  5
1F78B
330
18
100
AcDbEntity
  8
01
100
AcDbLine
 10
193.0163028588297
 20
-628.7480749335531
 30
0.0
 11
193.0163452722584
 21
-628.7527687744713
 31
0.0
  0
CIRCLE
  5
1F932
330
18
100
AcDbEntity
  8
1PHANTOM
100
AcDbCircle
 10
627.0162554404188
 20
-645.0729895993171
 30
0.0
 40
13.9
  0
CIRCLE
  5
1FA7A
330
18
100
AcDbEntity
  8
1PHANTOM
100
AcDbCircle
 10
177.0164011621123
 20
-645.0729895993171
 30
0.0
 40
13.9
  0
TEXT
  5
2064F
330
18
100
AcDbEntity
  8
01
  6
CONTINUOUS
100
AcDbText
 10
749.7537571261875
 20
-590.34618414221
 30
0.0
 40
3.5
  1
PB
100
AcDbText
  0
TEXT
  5
20650
330
18
100
AcDbEntity
  8
01
  6
CONTINUOUS
100
AcDbText
 10
762.8891752713527
 20
-590.34618414221
 30
0.0
 40
3.5
  1
合板9mm以上
100
AcDbText
  0
LINE
  5
20651
330
18
100
AcDbEntity
  8
01
100
AcDbLine
 10
631.0162176750448
 20
-655.5968848629919
 30
0.0
 11
630.946454491451
 21
-656.0112525387732
 31
0.0
  0
LINE
  5
20652
330
18
100
AcDbEntity
  8
01
100
AcDbLine
 10
630.946454491451
 20
-656.0112525387732
 30
0.0
 11
630.7407049797323
 21
-656.4358436032263
 31
0.0
  0
LINE
  5
20653
330
18
100
AcDbEntity
  8
01
100
AcDbLine
 10
630.7407049797323
 20
-656.4358436032263
 30
0.0
 11
630.4043402336385
 21
-656.8548194333044
 31
0.0
  0
LINE
  5
20654
330
18
100
AcDbEntity
  8
01
100
AcDbLine
 10
630.4043402336385
 20
-656.8548194333044
 30
0.0
 11
629.9426092766073
 21
-657.2512732907263
 31
0.0
  0
LINE
  5
20655
330
18
100
AcDbEntity
  8
01
100
AcDbLine
 10
629.9426092766073
 20
-657.2512732907263
 30
0.0
 11
629.3602118156698
 21
-657.6041175290076
 31
0.0
  0
LINE
  5
20656
330
18
100
AcDbEntity
  8
01
100
AcDbLine
 10
629.3602118156698
 20
-657.6041175290076
 30
0.0
 11
628.667157616451
 21
-657.8884803219763
 31
0.0
  0
LINE
  5
20657
330
18
100
AcDbEntity
  8
01
100
AcDbLine
 10
628.667157616451
 20
-657.8884803219763
 30
0.0
 11
627.8832831047323
 21
-658.0771705075232
 31
0.0
  0
LINE
  5
20658
330
18
100
AcDbEntity
  8
01
100
AcDbLine
 10
627.8832831047323
 20
-658.0771705075232
 30
0.0
 11
627.0460028312948
 21
-658.1464454098669
 31
0.0
  0
LINE
  5
20659
330
18
100
AcDbEntity
  8
01
100
AcDbLine
 10
627.0460028312948
 20
-658.1464454098669
 30
0.0
 11
626.2067694328573
 21
-658.0861426754919
 31
0.0
  0
LINE
  5
2065A
330
18
100
AcDbEntity
  8
01
100
AcDbLine
 10
626.2067694328573
 20
-658.0861426754919
 30
0.0
 11
625.4177069328573
 21
-657.9051124020544
 31
0.0
  0
LINE
  5
2065B
330
18
100
AcDbEntity
  8
01
100
AcDbLine
 10
625.4177069328573
 20
-657.9051124020544
 30
0.0
 11
624.7173895500448
 21
-657.6265174313513
 31
0.0
  0
LINE
  5
2065C
330
18
100
AcDbEntity
  8
01
100
AcDbLine
 10
624.7173895500448
 20
-657.6265174313513
 30
0.0
 11
624.1269354484823
 21
-657.2777015133826
 31
0.0
  0
LINE
  5
2065D
330
18
100
AcDbEntity
  8
01
100
AcDbLine
 10
624.1269354484823
 20
-657.2777015133826
 30
0.0
 11
623.6567206047323
 21
-656.8836890622107
 31
0.0
  0
LINE
  5
2065E
330
18
100
AcDbEntity
  8
01
100
AcDbLine
 10
623.6567206047323
 20
-656.8836890622107
 30
0.0
 11
623.311444725826
 21
-656.4653235836951
 31
0.0
  0
LINE
  5
2065F
330
18
100
AcDbEntity
  8
01
100
AcDbLine
 10
623.311444725826
 20
-656.4653235836951
 30
0.0
 11
623.0962347648885
 21
-656.0408545895544
 31
0.0
  0
LINE
  5
20660
330
18
100
AcDbEntity
  8
01
100
AcDbLine
 10
623.0962347648885
 20
-656.0408545895544
 30
0.0
 11
623.0163397453573
 21
-655.5973426266638
 31
0.0
  0
LINE
  5
20661
330
18
100
AcDbEntity
  8
01
100
AcDbLine
 10
623.0163397453573
 20
-655.5973426266638
 30
0.0
 11
623.0745672844198
 21
-655.2892981930701
 31
0.0
  0
LINE
  5
20662
330
18
100
AcDbEntity
  8
01
100
AcDbLine
 10
623.0745672844198
 20
-655.2892981930701
 30
0.0
 11
623.2579168937948
 21
-655.0015784665076
 31
0.0
  0
LINE
  5
20663
330
18
100
AcDbEntity
  8
01
100
AcDbLine
 10
623.2579168937948
 20
-655.0015784665076
 30
0.0
 11
623.5847601555135
 21
-654.7330542965857
 31
0.0
  0
LINE
  5
20664
330
18
100
AcDbEntity
  8
01
100
AcDbLine
 10
623.5847601555135
 20
-654.7330542965857
 30
0.0
 11
624.060224022701
 21
-654.4981299801794
 31
0.0
  0
LINE
  5
20665
330
18
100
AcDbEntity
  8
01
100
AcDbLine
 10
624.060224022701
 20
-654.4981299801794
 30
0.0
 11
624.6697210930135
 21
-654.3092261715857
 31
0.0
  0
LINE
  5
20666
330
18
100
AcDbEntity
  8
01
100
AcDbLine
 10
624.6697210930135
 20
-654.3092261715857
 30
0.0
 11
625.3865790031698
 21
-654.1721717282263
 31
0.0
  0
LINE
  5
20667
330
18
100
AcDbEntity
  8
01
100
AcDbLine
 10
625.3865790031698
 20
-654.1721717282263
 30
0.0
 11
626.1791815422323
 21
-654.0895911618201
 31
0.0
  0
LINE
  5
20668
330
18
100
AcDbEntity
  8
01
100
AcDbLine
 10
626.1791815422323
 20
-654.0895911618201
 30
0.0
 11
627.0106024406698
 21
-654.0619117184607
 31
0.0
  0
LINE
  5
20669
330
18
100
AcDbEntity
  8
01
100
AcDbLine
 10
627.0106024406698
 20
-654.0619117184607
 30
0.0
 11
627.8422674797323
 21
-654.0889502926794
 31
0.0
  0
LINE
  5
2066A
330
18
100
AcDbEntity
  8
01
100
AcDbLine
 10
627.8422674797323
 20
-654.0889502926794
 30
0.0
 11
628.6354803703573
 21
-654.1707679196326
 31
0.0
  0
LINE
  5
2066B
330
18
100
AcDbEntity
  8
01
100
AcDbLine
 10
628.6354803703573
 20
-654.1707679196326
 30
0.0
 11
629.3539862297323
 21
-654.3069373532263
 31
0.0
  0
LINE
  5
2066C
330
18
100
AcDbEntity
  8
01
100
AcDbLine
 10
629.3539862297323
 20
-654.3069373532263
 30
0.0
 11
629.9649481437948
 21
-654.4953223629919
 31
0.0
  0
LINE
  5
2066D
330
18
100
AcDbEntity
  8
01
100
AcDbLine
 10
629.9649481437948
 20
-654.4953223629919
 30
0.0
 11
630.4421820305135
 21
-654.7296973629919
 31
0.0
  0
LINE
  5
2066E
330
18
100
AcDbEntity
  8
01
100
AcDbLine
 10
630.4421820305135
 20
-654.7296973629919
 30
0.0
 11
630.7712835930135
 21
-654.9977942868201
 31
0.0
  0
LINE
  5
2066F
330
18
100
AcDbEntity
  8
01
100
AcDbLine
 10
630.7712835930135
 20
-654.9977942868201
 30
0.0
 11
630.9565252922323
 21
-655.2853309079138
 31
0.0
  0
LINE
  5
20670
330
18
100
AcDbEntity
  8
01
100
AcDbLine
 10
630.9565252922323
 20
-655.2853309079138
 30
0.0
 11
631.0162176750448
 21
-655.5968848629919
 31
0.0
  0
LINE
  5
20671
330
18
100
AcDbEntity
  8
01
100
AcDbLine
 10
725.7597783759884
 20
-654.0537732353117
 30
0.0
 11
725.8129818088382
 21
-654.0710094731545
 31
0.0
  0
LINE
  5
20672
330
18
100
AcDbEntity
  8
01
100
AcDbLine
 10
725.8129818088382
 20
-654.0710094731545
 30
0.0
 11
725.9966976291507
 21
-654.1314647954201
 31
0.0
  0
LINE
  5
20673
330
18
100
AcDbEntity
  8
01
100
AcDbLine
 10
725.9966976291507
 20
-654.1314647954201
 30
0.0
 11
726.2980892307132
 21
-654.2333935063576
 31
0.0
  0
LINE
  5
20674
330
18
100
AcDbEntity
  8
01
100
AcDbLine
 10
726.2980892307132
 20
-654.2333935063576
 30
0.0
 11
726.7051937229007
 21
-654.3771618169045
 31
0.0
  0
LINE
  5
20675
330
18
100
AcDbEntity
  8
01
100
AcDbLine
 10
726.7051937229007
 20
-654.3771618169045
 30
0.0
 11
727.2015316135257
 21
-654.5617931645608
 31
0.0
  0
LINE
  5
20676
330
18
100
AcDbEntity
  8
01
100
AcDbLine
 10
727.2015316135257
 20
-654.5617931645608
 30
0.0
 11
727.7675716525882
 21
-654.7856090825295
 31
0.0
  0
LINE
  5
20677
330
18
100
AcDbEntity
  8
01
100
AcDbLine
 10
727.7675716525882
 20
-654.7856090825295
 30
0.0
 11
728.3836605197757
 21
-655.0458324712014
 31
0.0
  0
LINE
  5
20678
330
18
100
AcDbEntity
  8
01
100
AcDbLine
 10
728.3836605197757
 20
-655.0458324712014
 30
0.0
 11
729.0295345432132
 21
-655.3377636235451
 31
0.0
  0
LINE
  5
20679
330
18
100
AcDbEntity
  8
01
100
AcDbLine
 10
729.0295345432132
 20
-655.3377636235451
 30
0.0
 11
729.6874935275882
 21
-655.6555736821389
 31
0.0
  0
LINE
  5
2067A
330
18
100
AcDbEntity
  8
01
100
AcDbLine
 10
729.6874935275882
 20
-655.6555736821389
 30
0.0
 11
730.3422786838382
 21
-655.9925792973733
 31
0.0
  0
LINE
  5
2067B
330
18
100
AcDbEntity
  8
01
100
AcDbLine
 10
730.3422786838382
 20
-655.9925792973733
 30
0.0
 11
730.9808284885257
 21
-656.3410595219826
 31
0.0
  0
LINE
  5
2067C
330
18
100
AcDbEntity
  8
01
100
AcDbLine
 10
730.9808284885257
 20
-656.3410595219826
 30
0.0
 11
731.5920345432132
 21
-656.6926830571389
 31
0.0
  0
LINE
  5
2067D
330
18
100
AcDbEntity
  8
01
100
AcDbLine
 10
731.5920345432132
 20
-656.6926830571389
 30
0.0
 11
732.1655208713382
 21
-657.0383556645608
 31
0.0
  0
LINE
  5
2067E
330
18
100
AcDbEntity
  8
01
100
AcDbLine
 10
732.1655208713382
 20
-657.0383556645608
 30
0.0
 11
732.6907894260257
 21
-657.3678539555764
 31
0.0
  0
LINE
  5
2067F
330
18
100
AcDbEntity
  8
01
100
AcDbLine
 10
732.6907894260257
 20
-657.3678539555764
 30
0.0
 11
733.1555111057132
 21
-657.669276074717
 31
0.0
  0
LINE
  5
20680
330
18
100
AcDbEntity
  8
01
100
AcDbLine
 10
733.1555111057132
 20
-657.669276074717
 30
0.0
 11
733.5455257541507
 21
-657.9292248051858
 31
0.0
  0
LINE
  5
20681
330
18
100
AcDbEntity
  8
01
100
AcDbLine
 10
733.5455257541507
 20
-657.9292248051858
 30
0.0
 11
733.8441097385257
 21
-658.1323803227639
 31
0.0
  0
LINE
  5
20682
330
18
100
AcDbEntity
  8
01
100
AcDbLine
 10
733.8441097385257
 20
-658.1323803227639
 30
0.0
 11
734.0340511447757
 21
-658.2634838383889
 31
0.0
  0
LINE
  5
20683
330
18
100
AcDbEntity
  8
01
100
AcDbLine
 10
734.0340511447757
 20
-658.2634838383889
 30
0.0
 11
734.1027767307132
 21
-658.3112743657326
 31
0.0
  0
LINE
  5
20684
330
18
100
AcDbEntity
  8
01
100
AcDbLine
 10
696.0189144260257
 20
-640.9730480473733
 30
0.0
 11
697.9490902072757
 21
-641.0508068364358
 31
0.0
  0
LINE
  5
20685
330
18
100
AcDbEntity
  8
01
100
AcDbLine
 10
697.9490902072757
 20
-641.0508068364358
 30
0.0
 11
699.8674251682132
 21
-641.2787731450295
 31
0.0
  0
LINE
  5
20686
330
18
100
AcDbEntity
  8
01
100
AcDbLine
 10
699.8674251682132
 20
-641.2787731450295
 30
0.0
 11
701.7636654025882
 21
-641.6466930669045
 31
0.0
  0
LINE
  5
20687
330
18
100
AcDbEntity
  8
01
100
AcDbLine
 10
701.7636654025882
 20
-641.6466930669045
 30
0.0
 11
703.6310970432132
 21
-642.1413524907326
 31
0.0
  0
LINE
  5
20688
330
18
100
AcDbEntity
  8
01
100
AcDbLine
 10
703.6310970432132
 20
-642.1413524907326
 30
0.0
 11
705.4659359104007
 21
-642.7473400395608
 31
0.0
  0
LINE
  5
20689
330
18
100
AcDbEntity
  8
01
100
AcDbLine
 10
705.4659359104007
 20
-642.7473400395608
 30
0.0
 11
707.2658626682132
 21
-643.4493664067483
 31
0.0
  0
LINE
  5
2068A
330
18
100
AcDbEntity
  8
01
100
AcDbLine
 10
707.2658626682132
 20
-643.4493664067483
 30
0.0
 11
709.0317318088382
 21
-644.2326000493264
 31
0.0
  0
LINE
  5
2068B
330
18
100
AcDbEntity
  8
01
100
AcDbLine
 10
709.0317318088382
 20
-644.2326000493264
 30
0.0
 11
710.7664730197757
 21
-645.0837047856545
 31
0.0
  0
LINE
  5
2068C
330
18
100
AcDbEntity
  8
01
100
AcDbLine
 10
710.7664730197757
 20
-645.0837047856545
 30
0.0
 11
712.4733821994632
 21
-645.9897411626076
 31
0.0
  0
LINE
  5
2068D
330
18
100
AcDbEntity
  8
01
100
AcDbLine
 10
712.4733821994632
 20
-645.9897411626076
 30
0.0
 11
714.1562435275882
 21
-646.9390209477639
 31
0.0
  0
LINE
  5
2068E
330
18
100
AcDbEntity
  8
01
100
AcDbLine
 10
714.1562435275882
 20
-646.9390209477639
 30
0.0
 11
715.8200618869632
 21
-647.9214428227639
 31
0.0
  0
LINE
  5
2068F
330
18
100
AcDbEntity
  8
01
100
AcDbLine
 10
715.8200618869632
 20
-647.9214428227639
 30
0.0
 11
717.4697200900882
 21
-648.9275158208108
 31
0.0
  0
LINE
  5
20690
330
18
100
AcDbEntity
  8
01
100
AcDbLine
 10
717.4697200900882
 20
-648.9275158208108
 30
0.0
 11
719.1102230197757
 21
-649.9484813969826
 31
0.0
  0
LINE
  5
20691
330
18
100
AcDbEntity
  8
01
100
AcDbLine
 10
719.1102230197757
 20
-649.9484813969826
 30
0.0
 11
720.7465755588382
 21
-650.975916699717
 31
0.0
  0
LINE
  5
20692
330
18
100
AcDbEntity
  8
01
100
AcDbLine
 10
720.7465755588382
 20
-650.975916699717
 30
0.0
 11
722.3841488010257
 21
-652.0016430180764
 31
0.0
  0
LINE
  5
20693
330
18
100
AcDbEntity
  8
01
100
AcDbLine
 10
722.3841488010257
 20
-652.0016430180764
 30
0.0
 11
724.0274593479007
 21
-653.0180614751076
 31
0.0
  0
LINE
  5
20694
330
18
100
AcDbEntity
  8
01
100
AcDbLine
 10
724.0274593479007
 20
-653.0180614751076
 30
0.0
 11
725.7143489963382
 21
-654.0339000981545
 31
0.0
  0
LINE
  5
20695
330
18
100
AcDbEntity
  8
01
100
AcDbLine
 10
743.0162288791507
 20
-660.5730236333108
 30
0.0
 11
741.5079280979007
 21
-660.3966625493264
 31
0.0
  0
LINE
  5
20696
330
18
100
AcDbEntity
  8
01
100
AcDbLine
 10
741.5079280979007
 20
-660.3966625493264
 30
0.0
 11
740.0122005588382
 21
-660.134608105967
 31
0.0
  0
LINE
  5
20697
330
18
100
AcDbEntity
  8
01
100
AcDbLine
 10
740.0122005588382
 20
-660.134608105967
 30
0.0
 11
738.5324642307132
 21
-659.793299512217
 31
0.0
  0
LINE
  5
20698
330
18
100
AcDbEntity
  8
01
100
AcDbLine
 10
738.5324642307132
 20
-659.793299512217
 30
0.0
 11
737.0714046604007
 21
-659.3791149419045
 31
0.0
  0
LINE
  5
20699
330
18
100
AcDbEntity
  8
01
100
AcDbLine
 10
737.0714046604007
 20
-659.3791149419045
 30
0.0
 11
735.6307308322757
 21
-658.8988598149514
 31
0.0
  0
LINE
  5
2069A
330
18
100
AcDbEntity
  8
01
100
AcDbLine
 10
735.6307308322757
 20
-658.8988598149514
 30
0.0
 11
734.1412288791507
 21
-658.3320263188576
 31
0.0
  0
LINE
  5
2069B
330
18
100
AcDbEntity
  8
01
100
AcDbLine
 10
743.0162288791525
 20
-644.573023633276
 30
0.0
 11
740.865960324465
 21
-644.3060863774166
 31
0.0
  0
LINE
  5
2069C
330
18
100
AcDbEntity
  8
01
100
AcDbLine
 10
740.865960324465
 20
-644.3060863774166
 30
0.0
 11
738.7379085666525
 21
-643.9003551762447
 31
0.0
  0
LINE
  5
2069D
330
18
100
AcDbEntity
  8
01
100
AcDbLine
 10
738.7379085666525
 20
-643.9003551762447
 30
0.0
 11
736.6378109104025
 21
-643.3698070805416
 31
0.0
  0
LINE
  5
2069E
330
18
100
AcDbEntity
  8
01
100
AcDbLine
 10
736.6378109104025
 20
-643.3698070805416
 30
0.0
 11
734.5687191135275
 21
-642.7314098637447
 31
0.0
  0
LINE
  5
2069F
330
18
100
AcDbEntity
  8
01
100
AcDbLine
 10
734.5687191135275
 20
-642.7314098637447
 30
0.0
 11
732.5306331760275
 21
-642.0010326664791
 31
0.0
  0
LINE
  5
206A0
330
18
100
AcDbEntity
  8
01
100
AcDbLine
 10
732.5306331760275
 20
-642.0010326664791
 30
0.0
 11
730.5220882541525
 21
-641.1939342778072
 31
0.0
  0
LINE
  5
206A1
330
18
100
AcDbEntity
  8
01
100
AcDbLine
 10
730.5220882541525
 20
-641.1939342778072
 30
0.0
 11
728.5399105197775
 21
-640.3246715824947
 31
0.0
  0
LINE
  5
206A2
330
18
100
AcDbEntity
  8
01
100
AcDbLine
 10
728.5399105197775
 20
-640.3246715824947
 30
0.0
 11
726.57909509009
 21
-639.4071605961666
 31
0.0
  0
LINE
  5
206A3
330
18
100
AcDbEntity
  8
01
100
AcDbLine
 10
726.57909509009
 20
-639.4071605961666
 30
0.0
 11
724.63427087134
 21
-638.4545849125728
 31
0.0
  0
LINE
  5
206A4
330
18
100
AcDbEntity
  8
01
100
AcDbLine
 10
724.63427087134
 20
-638.4545849125728
 30
0.0
 11
722.699456418215
 21
-637.479517773901
 31
0.0
  0
LINE
  5
206A5
330
18
100
AcDbEntity
  8
01
100
AcDbLine
 10
722.699456418215
 20
-637.479517773901
 30
0.0
 11
720.76805993384
 21
-636.4950207035885
 31
0.0
  0
LINE
  5
206A6
330
18
100
AcDbEntity
  8
01
100
AcDbLine
 10
720.76805993384
 20
-636.4950207035885
 30
0.0
 11
718.83348962134
 21
-635.514185742651
 31
0.0
  0
LINE
  5
206A7
330
18
100
AcDbEntity
  8
01
100
AcDbLine
 10
718.83348962134
 20
-635.514185742651
 30
0.0
 11
716.88866540259
 21
-634.549097852026
 31
0.0
  0
LINE
  5
206A8
330
18
100
AcDbEntity
  8
01
100
AcDbLine
 10
716.88866540259
 20
-634.549097852026
 30
0.0
 11
714.927483761965
 21
-633.6115673344478
 31
0.0
  0
LINE
  5
206A9
330
18
100
AcDbEntity
  8
01
100
AcDbLine
 10
714.927483761965
 20
-633.6115673344478
 30
0.0
 11
712.9446956760275
 21
-632.7133739750728
 31
0.0
  0
LINE
  5
206AA
330
18
100
AcDbEntity
  8
01
100
AcDbLine
 10
712.9446956760275
 20
-632.7133739750728
 30
0.0
 11
710.935784543215
 21
-631.8667858403072
 31
0.0
  0
LINE
  5
206AB
330
18
100
AcDbEntity
  8
01
100
AcDbLine
 10
710.935784543215
 20
-631.8667858403072
 30
0.0
 11
708.897698605715
 21
-631.0848034184322
 31
0.0
  0
LINE
  5
206AC
330
18
100
AcDbEntity
  8
01
100
AcDbLine
 10
708.897698605715
 20
-631.0848034184322
 30
0.0
 11
706.827386105715
 21
-630.3807628910885
 31
0.0
  0
LINE
  5
206AD
330
18
100
AcDbEntity
  8
01
100
AcDbLine
 10
706.827386105715
 20
-630.3807628910885
 30
0.0
 11
704.7235042697775
 21
-629.769556836401
 31
0.0
  0
LINE
  5
206AE
330
18
100
AcDbEntity
  8
01
100
AcDbLine
 10
704.7235042697775
 20
-629.769556836401
 30
0.0
 11
702.58739587134
 21
-629.267359570776
 31
0.0
  0
LINE
  5
206AF
330
18
100
AcDbEntity
  8
01
100
AcDbLine
 10
702.58739587134
 20
-629.267359570776
 30
0.0
 11
700.4222347385275
 21
-628.8905895512447
 31
0.0
  0
LINE
  5
206B0
330
18
100
AcDbEntity
  8
01
100
AcDbLine
 10
700.4222347385275
 20
-628.8905895512447
 30
0.0
 11
698.23388024634
 21
-628.6547497074947
 31
0.0
  0
LINE
  5
206B1
330
18
100
AcDbEntity
  8
01
100
AcDbLine
 10
698.23388024634
 20
-628.6547497074947
 30
0.0
 11
696.0162288791525
 21
-628.573023633276
 31
0.0
  0
LINE
  5
206B2
330
18
100
AcDbEntity
  8
01
100
AcDbLine
 10
743.0162288791525
 20
-644.573023633276
 30
0.0
 11
738.7772152072775
 21
-644.1938122074947
 31
0.0
  0
LINE
  5
206B3
330
18
100
AcDbEntity
  8
01
100
AcDbLine
 10
738.7772152072775
 20
-644.1938122074947
 30
0.0
 11
734.5399105197775
 21
-643.7926281254635
 31
0.0
  0
LINE
  5
206B4
330
18
100
AcDbEntity
  8
01
100
AcDbLine
 10
734.5399105197775
 20
-643.7926281254635
 30
0.0
 11
730.30321618384
 21
-643.3848217289791
 31
0.0
  0
LINE
  5
206B5
330
18
100
AcDbEntity
  8
01
100
AcDbLine
 10
730.30321618384
 20
-643.3848217289791
 30
0.0
 11
726.06542321509
 21
-642.9835766117916
 31
0.0
  0
LINE
  5
206B6
330
18
100
AcDbEntity
  8
01
100
AcDbLine
 10
726.06542321509
 20
-642.9835766117916
 30
0.0
 11
721.8262874729025
 21
-642.5990856449947
 31
0.0
  0
LINE
  5
206B7
330
18
100
AcDbEntity
  8
01
100
AcDbLine
 10
721.8262874729025
 20
-642.5990856449947
 30
0.0
 11
717.58690759009
 21
-642.230250195776
 31
0.0
  0
LINE
  5
206B8
330
18
100
AcDbEntity
  8
01
100
AcDbLine
 10
717.58690759009
 20
-642.230250195776
 30
0.0
 11
713.3489925510275
 21
-641.8724010746822
 31
0.0
  0
LINE
  5
206B9
330
18
100
AcDbEntity
  8
01
100
AcDbLine
 10
713.3489925510275
 20
-641.8724010746822
 30
0.0
 11
709.1133968479025
 21
-641.5349682133541
 31
0.0
  0
LINE
  5
206BA
330
18
100
AcDbEntity
  8
01
100
AcDbLine
 10
709.1133968479025
 20
-641.5349682133541
 30
0.0
 11
704.877679074465
 21
-641.249781445776
 31
0.0
  0
LINE
  5
206BB
330
18
100
AcDbEntity
  8
01
100
AcDbLine
 10
704.877679074465
 20
-641.249781445776
 30
0.0
 11
700.6397640354025
 21
-641.0529430668697
 31
0.0
  0
LINE
  5
206BC
330
18
100
AcDbEntity
  8
01
100
AcDbLine
 10
700.6397640354025
 20
-641.0529430668697
 30
0.0
 11
696.0162288791525
 21
-640.9730175297603
 31
0.0
  0
LINE
  5
206BD
330
18
100
AcDbEntity
  8
01
100
AcDbLine
 10
743.0162288791525
 20
-628.573023633276
 30
0.0
 11
731.52098962134
 21
-628.5729625981197
 31
0.0
  0
LINE
  5
206BE
330
18
100
AcDbEntity
  8
01
100
AcDbLine
 10
731.52098962134
 20
-628.5729625981197
 30
0.0
 11
720.0257503635275
 21
-628.5729625981197
 31
0.0
  0
LINE
  5
206BF
330
18
100
AcDbEntity
  8
01
100
AcDbLine
 10
720.0257503635275
 20
-628.5729625981197
 30
0.0
 11
708.530511105715
 21
-628.5732067387447
 31
0.0
  0
LINE
  5
206C0
330
18
100
AcDbEntity
  8
01
100
AcDbLine
 10
708.530511105715
 20
-628.5732067387447
 30
0.0
 11
696.0162288791525
 21
-628.5729931156978
 31
0.0
  0
LINE
  5
206C1
330
18
100
AcDbEntity
  8
01
100
AcDbLine
 10
173.0164389274862
 20
-655.5968848629919
 30
0.0
 11
173.08620211108
 21
-656.0112525387732
 31
0.0
  0
LINE
  5
206C2
330
18
100
AcDbEntity
  8
01
100
AcDbLine
 10
173.08620211108
 20
-656.0112525387732
 30
0.0
 11
173.2919516227987
 21
-656.4358436032263
 31
0.0
  0
LINE
  5
206C3
330
18
100
AcDbEntity
  8
01
100
AcDbLine
 10
173.2919516227987
 20
-656.4358436032263
 30
0.0
 11
173.6283163688925
 21
-656.8548194333044
 31
0.0
  0
LINE
  5
206C4
330
18
100
AcDbEntity
  8
01
100
AcDbLine
 10
173.6283163688925
 20
-656.8548194333044
 30
0.0
 11
174.0900473259237
 21
-657.2512732907263
 31
0.0
  0
LINE
  5
206C5
330
18
100
AcDbEntity
  8
01
100
AcDbLine
 10
174.0900473259237
 20
-657.2512732907263
 30
0.0
 11
174.6724447868612
 21
-657.6041175290076
 31
0.0
  0
LINE
  5
206C6
330
18
100
AcDbEntity
  8
01
100
AcDbLine
 10
174.6724447868612
 20
-657.6041175290076
 30
0.0
 11
175.36549898608
 21
-657.8884803219763
 31
0.0
  0
LINE
  5
206C7
330
18
100
AcDbEntity
  8
01
100
AcDbLine
 10
175.36549898608
 20
-657.8884803219763
 30
0.0
 11
176.1493734977987
 21
-658.0771705075232
 31
0.0
  0
LINE
  5
206C8
330
18
100
AcDbEntity
  8
01
100
AcDbLine
 10
176.1493734977987
 20
-658.0771705075232
 30
0.0
 11
176.9866537712362
 21
-658.1464454098669
 31
0.0
  0
LINE
  5
206C9
330
18
100
AcDbEntity
  8
01
100
AcDbLine
 10
176.9866537712362
 20
-658.1464454098669
 30
0.0
 11
177.8258871696737
 21
-658.0861426754919
 31
0.0
  0
LINE
  5
206CA
330
18
100
AcDbEntity
  8
01
100
AcDbLine
 10
177.8258871696737
 20
-658.0861426754919
 30
0.0
 11
178.6149496696737
 21
-657.9051124020544
 31
0.0
  0
LINE
  5
206CB
330
18
100
AcDbEntity
  8
01
100
AcDbLine
 10
178.6149496696737
 20
-657.9051124020544
 30
0.0
 11
179.3152670524862
 21
-657.6265174313513
 31
0.0
  0
LINE
  5
206CC
330
18
100
AcDbEntity
  8
01
100
AcDbLine
 10
179.3152670524862
 20
-657.6265174313513
 30
0.0
 11
179.9057211540487
 21
-657.2777015133826
 31
0.0
  0
LINE
  5
206CD
330
18
100
AcDbEntity
  8
01
100
AcDbLine
 10
179.9057211540487
 20
-657.2777015133826
 30
0.0
 11
180.3759359977987
 21
-656.8836890622107
 31
0.0
  0
LINE
  5
206CE
330
18
100
AcDbEntity
  8
01
100
AcDbLine
 10
180.3759359977987
 20
-656.8836890622107
 30
0.0
 11
180.721211876705
 21
-656.4653235836951
 31
0.0
  0
LINE
  5
206CF
330
18
100
AcDbEntity
  8
01
100
AcDbLine
 10
180.721211876705
 20
-656.4653235836951
 30
0.0
 11
180.9364218376425
 21
-656.0408545895544
 31
0.0
  0
LINE
  5
206D0
330
18
100
AcDbEntity
  8
01
100
AcDbLine
 10
180.9364218376425
 20
-656.0408545895544
 30
0.0
 11
181.0163168571737
 21
-655.5973426266638
 31
0.0
  0
LINE
  5
206D1
330
18
100
AcDbEntity
  8
01
100
AcDbLine
 10
181.0163168571737
 20
-655.5973426266638
 30
0.0
 11
180.9580893181112
 21
-655.2892981930701
 31
0.0
  0
LINE
  5
206D2
330
18
100
AcDbEntity
  8
01
100
AcDbLine
 10
180.9580893181112
 20
-655.2892981930701
 30
0.0
 11
180.7747397087362
 21
-655.0015784665076
 31
0.0
  0
LINE
  5
206D3
330
18
100
AcDbEntity
  8
01
100
AcDbLine
 10
180.7747397087362
 20
-655.0015784665076
 30
0.0
 11
180.4478964470175
 21
-654.7330542965857
 31
0.0
  0
LINE
  5
206D4
330
18
100
AcDbEntity
  8
01
100
AcDbLine
 10
180.4478964470175
 20
-654.7330542965857
 30
0.0
 11
179.97243257983
 21
-654.4981299801794
 31
0.0
  0
LINE
  5
206D5
330
18
100
AcDbEntity
  8
01
100
AcDbLine
 10
179.97243257983
 20
-654.4981299801794
 30
0.0
 11
179.3629355095175
 21
-654.3092261715857
 31
0.0
  0
LINE
  5
206D6
330
18
100
AcDbEntity
  8
01
100
AcDbLine
 10
179.3629355095175
 20
-654.3092261715857
 30
0.0
 11
178.6460775993612
 21
-654.1721717282263
 31
0.0
  0
LINE
  5
206D7
330
18
100
AcDbEntity
  8
01
100
AcDbLine
 10
178.6460775993612
 20
-654.1721717282263
 30
0.0
 11
177.8534750602987
 21
-654.0895911618201
 31
0.0
  0
LINE
  5
206D8
330
18
100
AcDbEntity
  8
01
100
AcDbLine
 10
177.8534750602987
 20
-654.0895911618201
 30
0.0
 11
177.0220541618612
 21
-654.0619117184607
 31
0.0
  0
LINE
  5
206D9
330
18
100
AcDbEntity
  8
01
100
AcDbLine
 10
177.0220541618612
 20
-654.0619117184607
 30
0.0
 11
176.1903891227987
 21
-654.0889502926794
 31
0.0
  0
LINE
  5
206DA
330
18
100
AcDbEntity
  8
01
100
AcDbLine
 10
176.1903891227987
 20
-654.0889502926794
 30
0.0
 11
175.3971762321737
 21
-654.1707679196326
 31
0.0
  0
LINE
  5
206DB
330
18
100
AcDbEntity
  8
01
100
AcDbLine
 10
175.3971762321737
 20
-654.1707679196326
 30
0.0
 11
174.6786703727987
 21
-654.3069373532263
 31
0.0
  0
LINE
  5
206DC
330
18
100
AcDbEntity
  8
01
100
AcDbLine
 10
174.6786703727987
 20
-654.3069373532263
 30
0.0
 11
174.0677084587362
 21
-654.4953223629919
 31
0.0
  0
LINE
  5
206DD
330
18
100
AcDbEntity
  8
01
100
AcDbLine
 10
174.0677084587362
 20
-654.4953223629919
 30
0.0
 11
173.5904745720175
 21
-654.7296973629919
 31
0.0
  0
LINE
  5
206DE
330
18
100
AcDbEntity
  8
01
100
AcDbLine
 10
173.5904745720175
 20
-654.7296973629919
 30
0.0
 11
173.2613730095175
 21
-654.9977942868201
 31
0.0
  0
LINE
  5
206DF
330
18
100
AcDbEntity
  8
01
100
AcDbLine
 10
173.2613730095175
 20
-654.9977942868201
 30
0.0
 11
173.0761313102987
 21
-655.2853309079138
 31
0.0
  0
LINE
  5
206E0
330
18
100
AcDbEntity
  8
01
100
AcDbLine
 10
173.0761313102987
 20
-655.2853309079138
 30
0.0
 11
173.0164389274862
 21
-655.5968848629919
 31
0.0
  0
LINE
  5
206E1
330
18
100
AcDbEntity
  8
1DIM1
100
AcDbLine
 10
177.0164165170663
 20
-657.7384250521608
 30
0.0
 11
177.0164165170663
 21
-683.3772531893304
 31
0.0
1001
ACAD
1000
DSTYLE
1002
{
1070
    40
1040
3.0
1070
    45
1040
0.5
1002
}
  0
LINE
  5
206E2
330
18
100
AcDbEntity
  8
1DIM1
100
AcDbLine
 10
627.0162400854647
 20
-657.7384250521608
 30
0.0
 11
627.0162400854647
 21
-683.3772531893304
 31
0.0
1001
ACAD
1000
DSTYLE
1002
{
1070
    40
1040
3.0
1070
    45
1040
0.5
1002
}
  0
LINE
  5
206E3
330
18
100
AcDbEntity
  8
1DIM1
100
AcDbLine
 10
183.0164165170663
 20
-680.3772531893304
 30
0.0
 11
621.0162400854647
 21
-680.3772531893304
 31
0.0
1001
ACAD
1000
DSTYLE
1002
{
1070
    40
1040
3.0
1070
    45
1040
0.5
1002
}
  0
SOLID
  5
206E7
330
18
100
AcDbEntity
  8
1DIM
100
AcDbTrace
 10
577.5097482874638
 20
-626.9200874614852
 30
0.0
 11
576.6864228483344
 21
-628.7729895993201
 31
0.0
 12
576.8643029757807
 22
-626.7532198670558
 32
0.0
 13
576.8643029757807
 23
-626.7532198670558
 33
0.0
1001
ACAD
1000
DSTYLE
1002
{
1070
    45
1040
0.5
1002
}
  0
LINE
  5
206E8
330
18
100
AcDbEntity
  8
1DIM
100
AcDbLine
 10
577.1870256316222
 20
-626.8366536642706
 30
0.0
 11
580.3225533430837
 21
-614.7084051092579
 31
0.0
1001
ACAD
1000
DSTYLE
1002
{
1070
    45
1040
0.5
1002
}
  0
LINE
  5
206E9
330
18
100
AcDbEntity
  8
1DIM
100
AcDbLine
 10
580.3225533430837
 20
-614.7084051092579
 30
0.0
 11
615.3392200097503
 21
-614.7084051092579
 31
0.0
1001
ACAD
1000
DSTYLE
1002
{
1070
    45
1040
0.5
1002
}
  0
TEXT
  5
206EA
330
18
100
AcDbEntity
  8
1DIM
  6
CONTINUOUS
100
AcDbText
 10
582.7892200097504
 20
-608.1750717759245
 30
0.0
 40
3.5
  1
材質：ステンレス
100
AcDbText
  0
TEXT
  5
206EB
330
18
100
AcDbEntity
  8
1DIM
  6
CONTINUOUS
100
AcDbText
 10
582.905886676417
 20
-614.0084051092579
 30
0.0
 40
3.5
  1
仕上げ：鏡面
100
AcDbText
  0
SOLID
  5
206EC
330
18
100
AcDbEntity
  8
1DIM
100
AcDbTrace
 10
610.8599801967329
 20
-652.1254301923119
 30
0.0
 11
612.1943012721067
 21
-650.598767695581
 31
0.0
 12
611.4272394429901
 22
-652.4756606763935
 32
0.0
 13
611.4272394429901
 23
-652.4756606763935
 33
0.0
1001
ACAD
1000
DSTYLE
1002
{
1070
    45
1040
0.5
1002
}
  0
LINE
  5
206ED
330
18
100
AcDbEntity
  8
1DIM
100
AcDbLine
 10
611.1436098198615
 20
-652.3005454343528
 30
0.0
 11
607.3630618080879
 21
-658.4238011561405
 31
0.0
1001
ACAD
1000
DSTYLE
1002
{
1070
    45
1040
0.5
1002
}
  0
LINE
  5
206EE
330
18
100
AcDbEntity
  8
1DIM
100
AcDbLine
 10
607.3630618080879
 20
-658.4238011561405
 30
0.0
 11
560.0963951414212
 21
-658.4238011561405
 31
0.0
1001
ACAD
1000
DSTYLE
1002
{
1070
    45
1040
0.5
1002
}
  0
TEXT
  5
206EF
330
18
100
AcDbEntity
  8
1DIM
  6
CONTINUOUS
100
AcDbText
 10
559.8630618080878
 20
-651.8904678228071
 30
0.0
 40
3.5
  1
材質：亜鉛ダイキャスト
100
AcDbText
  0
TEXT
  5
206F0
330
18
100
AcDbEntity
  8
1DIM
  6
CONTINUOUS
100
AcDbText
 10
571.7630618080879
 20
-657.7238011561404
 30
0.0
 40
3.5
  1
仕上げ：クローム
100
AcDbText
  0
LINE
  5
206F1
330
18
100
AcDbEntity
  8
1DIM
100
AcDbLine
 10
534.7188985148118
 20
-588.821330779638
 30
0.0
 11
545.2458307863245
 21
-588.821330779638
 31
0.0
1001
ACAD
1000
DSTYLE
1002
{
1070
     3
1000
φ<>
1070
    45
1040
0.5
1002
}
  0
LINE
  5
206F2
330
18
100
AcDbEntity
  8
1DIM
100
AcDbLine
 10
534.7188985148118
 20
-576.821330779638
 30
0.0
 11
545.2458307863245
 21
-576.821330779638
 31
0.0
1001
ACAD
1000
DSTYLE
1002
{
1070
     3
1000
φ<>
1070
    45
1040
0.5
1002
}
  0
LINE
  5
206F3
330
18
100
AcDbEntity
  8
1DIM
100
AcDbLine
 10
544.2458307863245
 20
-586.821330779638
 30
0.0
 11
544.2458307863245
 21
-578.821330779638
 31
0.0
1001
ACAD
1000
DSTYLE
1002
{
1070
     3
1000
φ<>
1070
    45
1040
0.5
1002
}
  0
LINE
  5
206F4
330
18
100
AcDbEntity
  8
1DIM
100
AcDbLine
 10
544.2458307863245
 20
-576.821330779638
 30
0.0
 11
544.2458307863245
 21
-563.7546641129712
 31
0.0
1001
ACAD
1000
DSTYLE
1002
{
1070
     3
1000
φ<>
1070
    45
1040
0.5
1002
}
  0
LINE
  5
206F8
330
18
100
AcDbEntity
  8
1DIM
100
AcDbLine
 10
689.8162412547474
 20
-634.7730083744867
 30
0.0
 11
689.8162412547474
 21
-684.6130915992863
 31
0.0
1001
ACAD
1000
DSTYLE
1002
{
1070
    45
1040
0.5
1002
}
  0
LINE
  5
206F9
330
18
100
AcDbEntity
  8
1DIM
100
AcDbLine
 10
743.016241615365
 20
-672.005426774611
 30
0.0
 11
743.016241615365
 21
-684.6130915992863
 31
0.0
1001
ACAD
1000
DSTYLE
1002
{
1070
    45
1040
0.5
1002
}
  0
LINE
  5
206FA
330
18
100
AcDbEntity
  8
1DIM
100
AcDbLine
 10
691.8162412547474
 20
-683.6130915992863
 30
0.0
 11
741.016241615365
 21
-683.6130915992863
 31
0.0
1001
ACAD
1000
DSTYLE
1002
{
1070
    45
1040
0.5
1002
}
  0
LINE
  5
206FE
330
18
100
AcDbEntity
  8
1DIM
100
AcDbLine
 10
743.016241615365
 20
-672.005426774611
 30
0.0
 11
743.016241615365
 21
-676.5775225768967
 31
0.0
1001
ACAD
1000
DSTYLE
1002
{
1070
    45
1040
0.5
1002
}
  0
LINE
  5
206FF
330
18
100
AcDbEntity
  8
1DIM
100
AcDbLine
 10
730.2162286492203
 20
-656.6182771040607
 30
0.0
 11
730.2162286492203
 21
-676.5775225768967
 31
0.0
1001
ACAD
1000
DSTYLE
1002
{
1070
    45
1040
0.5
1002
}
  0
LINE
  5
20700
330
18
100
AcDbEntity
  8
1DIM
100
AcDbLine
 10
741.016241615365
 20
-675.5775225768967
 30
0.0
 11
732.2162286492203
 21
-675.5775225768967
 31
0.0
1001
ACAD
1000
DSTYLE
1002
{
1070
    45
1040
0.5
1002
}
  0
LINE
  5
20704
330
18
100
AcDbEntity
  8
1DIM
100
AcDbLine
 10
775.4470357677219
 20
-635.8230334683388
 30
0.0
 11
785.516241615365
 21
-635.8230334683388
 31
0.0
1001
ACAD
1000
DSTYLE
1002
{
1070
    45
1040
0.5
1070
   271
1070
     0
1002
}
  0
LINE
  5
20705
330
18
100
AcDbEntity
  8
1DIM
100
AcDbLine
 10
743.0162419322737
 20
-628.5730083744869
 30
0.0
 11
785.516241615365
 21
-628.5730083744869
 31
0.0
1001
ACAD
1000
DSTYLE
1002
{
1070
    45
1040
0.5
1070
   271
1070
     0
1002
}
  0
LINE
  5
20706
330
18
100
AcDbEntity
  8
1DIM
100
AcDbLine
 10
784.516241615365
 20
-633.8230334683388
 30
0.0
 11
784.516241615365
 21
-630.5730083744869
 31
0.0
1001
ACAD
1000
DSTYLE
1002
{
1070
    45
1040
0.5
1070
   271
1070
     0
1002
}
  0
LINE
  5
2070A
330
18
100
AcDbEntity
  8
1DIM1
100
AcDbLine
 10
161.0164149871656
 20
-644.5729895993239
 30
0.0
 11
161.0164149871656
 21
-713.3772531893304
 31
0.0
1001
ACAD
1000
DSTYLE
1002
{
1070
    40
1040
3.0
1070
    45
1040
0.5
1002
}
  0
LINE
  5
2070B
330
18
100
AcDbEntity
  8
1DIM1
100
AcDbLine
 10
643.0162416153655
 20
-644.5729895993212
 30
0.0
 11
643.0162416153655
 21
-713.3772531893304
 31
0.0
1001
ACAD
1000
DSTYLE
1002
{
1070
    40
1040
3.0
1070
    45
1040
0.5
1002
}
  0
LINE
  5
2070C
330
18
100
AcDbEntity
  8
1DIM1
100
AcDbLine
 10
167.0164149871656
 20
-710.3772531893304
 30
0.0
 11
637.0162416153655
 21
-710.3772531893304
 31
0.0
1001
ACAD
1000
DSTYLE
1002
{
1070
    40
1040
3.0
1070
    45
1040
0.5
1002
}
  0
SOLID
  5
20710
330
18
100
AcDbEntity
  8
1DIM
100
AcDbTrace
 10
746.6708479197653
 20
-603.8913520518943
 30
0.0
 11
745.9299131930724
 21
-605.7787118061254
 31
0.0
 12
746.0186807169501
 22
-603.7530683434658
 32
0.0
 13
746.0186807169501
 23
-603.7530683434658
 33
0.0
1001
ACAD
1000
DSTYLE
1002
{
1070
    45
1040
0.5
1002
}
  0
LINE
  5
20711
330
18
100
AcDbEntity
  8
1DIM
100
AcDbLine
 10
746.3447643183576
 20
-603.82221019768
 30
0.0
 11
749.0537571261874
 21
-591.04618414221
 31
0.0
1001
ACAD
1000
DSTYLE
1002
{
1070
    45
1040
0.5
1002
}
  0
SOLID
  5
20712
330
18
100
AcDbEntity
  8
1DIM
100
AcDbTrace
 10
759.8062660649305
 20
-603.8913520518943
 30
0.0
 11
759.0653313382376
 21
-605.7787118061254
 31
0.0
 12
759.1540988621153
 22
-603.7530683434658
 32
0.0
 13
759.1540988621153
 23
-603.7530683434658
 33
0.0
1001
ACAD
1000
DSTYLE
1002
{
1070
    45
1040
0.5
1002
}
  0
LINE
  5
20713
330
18
100
AcDbEntity
  8
1DIM
100
AcDbLine
 10
759.4801824635229
 20
-603.82221019768
 30
0.0
 11
762.1891752713526
 21
-591.04618414221
 31
0.0
1001
ACAD
1000
DSTYLE
1002
{
1070
    45
1040
0.5
1002
}
  0
LINE
  5
20714
330
18
100
AcDbEntity
  8
1DIM
100
AcDbLine
 10
775.4470288412379
 20
-653.8230352627016
 30
0.0
 11
785.516241615365
 21
-653.8230352627016
 31
0.0
1001
ACAD
1000
DSTYLE
1002
{
1070
    45
1040
0.5
1002
}
  0
LINE
  5
20715
330
18
100
AcDbEntity
  8
1DIM
100
AcDbLine
 10
775.4470357677219
 20
-635.8230334683388
 30
0.0
 11
785.516241615365
 21
-635.8230334683388
 31
0.0
1001
ACAD
1000
DSTYLE
1002
{
1070
    45
1040
0.5
1002
}
  0
LINE
  5
20716
330
18
100
AcDbEntity
  8
1DIM
100
AcDbLine
 10
784.516241615365
 20
-651.8230352627016
 30
0.0
 11
784.516241615365
 21
-637.8230334683388
 31
0.0
1001
ACAD
1000
DSTYLE
1002
{
1070
    45
1040
0.5
1002
}
  0
LINE
  5
2071A
330
18
100
AcDbEntity
  8
1DIM
100
AcDbLine
 10
611.0164340606516
 20
-535.8213303512664
 30
0.0
 11
611.0164340606516
 21
-499.8213303512664
 31
0.0
  0
LINE
  5
2071B
330
18
100
AcDbEntity
  8
1DIM
100
AcDbLine
 10
643.0164340606516
 20
-535.8213303512664
 30
0.0
 11
643.0164340606516
 21
-499.8213303512664
 31
0.0
  0
LINE
  5
2071C
330
18
100
AcDbEntity
  8
1DIM
100
AcDbLine
 10
613.0164340606516
 20
-500.8213303512664
 30
0.0
 11
641.0164340606516
 21
-500.8213303512664
 31
0.0
  0
LINE
  5
20720
330
18
100
AcDbEntity
  8
1DIM
100
AcDbLine
 10
743.0162288791507
 20
-660.5730236333108
 30
0.0
 11
795.2185032944293
 21
-660.5730236333108
 31
0.0
  0
LINE
  5
20721
330
18
100
AcDbEntity
  8
1DIM
100
AcDbLine
 10
743.0162419322737
 20
-628.5730083744869
 30
0.0
 11
795.2185032944293
 21
-628.5730083744869
 31
0.0
  0
LINE
  5
20722
330
18
100
AcDbEntity
  8
1DIM
100
AcDbLine
 10
794.2185032944293
 20
-658.5730236333108
 30
0.0
 11
794.2185032944293
 21
-630.5730083744869
 31
0.0
  0
LINE
  5
20726
330
18
100
AcDbEntity
  8
0
  6
BYBLOCK
100
AcDbLine
 10
183.0164165170663
 20
-681.9849483293305
 30
0.0
 11
177.0164165170663
 21
-680.3772531893304
 31
0.0
  0
LINE
  5
20727
330
18
100
AcDbEntity
  8
0
  6
BYBLOCK
100
AcDbLine
 10
177.0164165170663
 20
-680.3772531893304
 30
0.0
 11
183.0164165170663
 21
-678.7695580493304
 31
0.0
  0
LINE
  5
20728
330
18
100
AcDbEntity
  8
0
  6
BYBLOCK
100
AcDbLine
 10
177.0164165170663
 20
-680.3772531893304
 30
0.0
 11
183.0164165170663
 21
-680.3772531893304
 31
0.0
  0
LINE
  5
20729
330
18
100
AcDbEntity
  8
0
  6
BYBLOCK
100
AcDbLine
 10
621.0162400854647
 20
-678.7695580493304
 30
0.0
 11
627.0162400854647
 21
-680.3772531893304
 31
0.0
  0
LINE
  5
2072A
330
18
100
AcDbEntity
  8
0
  6
BYBLOCK
100
AcDbLine
 10
627.0162400854647
 20
-680.3772531893304
 30
0.0
 11
621.0162400854647
 21
-681.9849483293305
 31
0.0
  0
LINE
  5
2072B
330
18
100
AcDbEntity
  8
0
  6
BYBLOCK
100
AcDbLine
 10
627.0162400854647
 20
-680.3772531893304
 30
0.0
 11
621.0162400854647
 21
-680.3772531893304
 31
0.0
  0
TEXT
  5
2072C
330
18
100
AcDbEntity
  8
1DIM1
  6
CONTINUOUS
100
AcDbText
 10
383.3861199679322
 20
-678.2772531893304
 30
0.0
 40
10.5
  1
P450
100
AcDbText
1001
ACAD
1000
DSTYLE
1002
{
1070
    40
1040
3.0
1070
    45
1040
0.5
1002
}
  0
LINE
  5
2072D
330
18
100
AcDbEntity
  8
0
  6
BYBLOCK
100
AcDbLine
 10
544.7817291663246
 20
-586.821330779638
 30
0.0
 11
544.2458307863245
 21
-588.821330779638
 31
0.0
  0
LINE
  5
2072E
330
18
100
AcDbEntity
  8
0
  6
BYBLOCK
100
AcDbLine
 10
544.2458307863245
 20
-588.821330779638
 30
0.0
 11
543.7099324063245
 21
-586.821330779638
 31
0.0
  0
LINE
  5
2072F
330
18
100
AcDbEntity
  8
0
  6
BYBLOCK
100
AcDbLine
 10
544.2458307863245
 20
-588.821330779638
 30
0.0
 11
544.2458307863245
 21
-586.821330779638
 31
0.0
  0
LINE
  5
20730
330
18
100
AcDbEntity
  8
0
  6
BYBLOCK
100
AcDbLine
 10
543.7099324063245
 20
-578.821330779638
 30
0.0
 11
544.2458307863245
 21
-576.821330779638
 31
0.0
  0
LINE
  5
20731
330
18
100
AcDbEntity
  8
0
  6
BYBLOCK
100
AcDbLine
 10
544.2458307863245
 20
-576.821330779638
 30
0.0
 11
544.7817291663246
 21
-578.821330779638
 31
0.0
  0
LINE
  5
20732
330
18
100
AcDbEntity
  8
0
  6
BYBLOCK
100
AcDbLine
 10
544.2458307863245
 20
-576.821330779638
 30
0.0
 11
544.2458307863245
 21
-578.821330779638
 31
0.0
  0
TEXT
  5
20733
330
18
100
AcDbEntity
  8
1DIM
  6
CONTINUOUS
100
AcDbText
 10
543.5458307863246
 20
-574.1879974463044
 30
0.0
 40
3.5
  1
φ12
 50
90.0
100
AcDbText
1001
ACAD
1000
DSTYLE
1002
{
1070
     3
1000
φ<>
1070
    45
1040
0.5
1002
}
  0
LINE
  5
20734
330
18
100
AcDbEntity
  8
0
  6
BYBLOCK
100
AcDbLine
 10
691.8162412547474
 20
-684.1489899792864
 30
0.0
 11
689.8162412547474
 21
-683.6130915992863
 31
0.0
  0
LINE
  5
20735
330
18
100
AcDbEntity
  8
0
  6
BYBLOCK
100
AcDbLine
 10
689.8162412547474
 20
-683.6130915992863
 30
0.0
 11
691.8162412547474
 21
-683.0771932192863
 31
0.0
  0
LINE
  5
20736
330
18
100
AcDbEntity
  8
0
  6
BYBLOCK
100
AcDbLine
 10
689.8162412547474
 20
-683.6130915992863
 30
0.0
 11
691.8162412547474
 21
-683.6130915992863
 31
0.0
  0
LINE
  5
20737
330
18
100
AcDbEntity
  8
0
  6
BYBLOCK
100
AcDbLine
 10
741.016241615365
 20
-683.0771932192863
 30
0.0
 11
743.016241615365
 21
-683.6130915992863
 31
0.0
  0
LINE
  5
20738
330
18
100
AcDbEntity
  8
0
  6
BYBLOCK
100
AcDbLine
 10
743.016241615365
 20
-683.6130915992863
 30
0.0
 11
741.016241615365
 21
-684.1489899792864
 31
0.0
  0
LINE
  5
20739
330
18
100
AcDbEntity
  8
0
  6
BYBLOCK
100
AcDbLine
 10
743.016241615365
 20
-683.6130915992863
 30
0.0
 11
741.016241615365
 21
-683.6130915992863
 31
0.0
  0
TEXT
  5
2073A
330
18
100
AcDbEntity
  8
1DIM
  6
CONTINUOUS
100
AcDbText
 10
713.4874219906118
 20
-682.9130915992864
 30
0.0
 40
3.5
  1
53
100
AcDbText
1001
ACAD
1000
DSTYLE
1002
{
1070
    45
1040
0.5
1002
}
  0
LINE
  5
2073B
330
18
100
AcDbEntity
  8
0
  6
BYBLOCK
100
AcDbLine
 10
741.016241615365
 20
-675.0416241968967
 30
0.0
 11
743.016241615365
 21
-675.5775225768967
 31
0.0
  0
LINE
  5
2073C
330
18
100
AcDbEntity
  8
0
  6
BYBLOCK
100
AcDbLine
 10
743.016241615365
 20
-675.5775225768967
 30
0.0
 11
741.016241615365
 21
-676.1134209568968
 31
0.0
  0
LINE
  5
2073D
330
18
100
AcDbEntity
  8
0
  6
BYBLOCK
100
AcDbLine
 10
743.016241615365
 20
-675.5775225768967
 30
0.0
 11
741.016241615365
 21
-675.5775225768967
 31
0.0
  0
LINE
  5
2073E
330
18
100
AcDbEntity
  8
0
  6
BYBLOCK
100
AcDbLine
 10
732.2162286492203
 20
-676.1134209568968
 30
0.0
 11
730.2162286492203
 21
-675.5775225768967
 31
0.0
  0
LINE
  5
2073F
330
18
100
AcDbEntity
  8
0
  6
BYBLOCK
100
AcDbLine
 10
730.2162286492203
 20
-675.5775225768967
 30
0.0
 11
732.2162286492203
 21
-675.0416241968967
 31
0.0
  0
LINE
  5
20740
330
18
100
AcDbEntity
  8
0
  6
BYBLOCK
100
AcDbLine
 10
730.2162286492203
 20
-675.5775225768967
 30
0.0
 11
732.2162286492203
 21
-675.5775225768967
 31
0.0
  0
TEXT
  5
20741
330
18
100
AcDbEntity
  8
1DIM
  6
CONTINUOUS
100
AcDbText
 10
734.2829017989592
 20
-674.8775225768967
 30
0.0
 40
3.5
  1
13
100
AcDbText
1001
ACAD
1000
DSTYLE
1002
{
1070
    45
1040
0.5
1002
}
  0
LINE
  5
20742
330
18
100
AcDbEntity
  8
0
  6
BYBLOCK
100
AcDbLine
 10
785.052139995365
 20
-633.8230334683388
 30
0.0
 11
784.516241615365
 21
-635.8230334683388
 31
0.0
  0
LINE
  5
20743
330
18
100
AcDbEntity
  8
0
  6
BYBLOCK
100
AcDbLine
 10
784.516241615365
 20
-635.8230334683388
 30
0.0
 11
783.9803432353649
 21
-633.8230334683388
 31
0.0
  0
LINE
  5
20744
330
18
100
AcDbEntity
  8
0
  6
BYBLOCK
100
AcDbLine
 10
784.516241615365
 20
-635.8230334683388
 30
0.0
 11
784.516241615365
 21
-633.8230334683388
 31
0.0
  0
LINE
  5
20745
330
18
100
AcDbEntity
  8
0
  6
BYBLOCK
100
AcDbLine
 10
783.9803432353649
 20
-630.5730083744869
 30
0.0
 11
784.516241615365
 21
-628.5730083744869
 31
0.0
  0
LINE
  5
20746
330
18
100
AcDbEntity
  8
0
  6
BYBLOCK
100
AcDbLine
 10
784.516241615365
 20
-628.5730083744869
 30
0.0
 11
785.052139995365
 21
-630.5730083744869
 31
0.0
  0
LINE
  5
20747
330
18
100
AcDbEntity
  8
0
  6
BYBLOCK
100
AcDbLine
 10
784.516241615365
 20
-628.5730083744869
 30
0.0
 11
784.516241615365
 21
-630.5730083744869
 31
0.0
  0
TEXT
  5
20748
330
18
100
AcDbEntity
  8
1DIM
  6
CONTINUOUS
100
AcDbText
 10
783.8162416153649
 20
-633.3646875880795
 30
0.0
 40
3.5
  1
8
 50
90.0
100
AcDbText
1001
ACAD
1000
DSTYLE
1002
{
1070
    45
1040
0.5
1070
   271
1070
     0
1002
}
  0
LINE
  5
20749
330
18
100
AcDbEntity
  8
0
  6
BYBLOCK
100
AcDbLine
 10
167.0164149871656
 20
-711.9849483293305
 30
0.0
 11
161.0164149871656
 21
-710.3772531893304
 31
0.0
  0
LINE
  5
2074A
330
18
100
AcDbEntity
  8
0
  6
BYBLOCK
100
AcDbLine
 10
161.0164149871656
 20
-710.3772531893304
 30
0.0
 11
167.0164149871656
 21
-708.7695580493304
 31
0.0
  0
LINE
  5
2074B
330
18
100
AcDbEntity
  8
0
  6
BYBLOCK
100
AcDbLine
 10
161.0164149871656
 20
-710.3772531893304
 30
0.0
 11
167.0164149871656
 21
-710.3772531893304
 31
0.0
  0
LINE
  5
2074C
330
18
100
AcDbEntity
  8
0
  6
BYBLOCK
100
AcDbLine
 10
637.0162416153655
 20
-708.7695580493304
 30
0.0
 11
643.0162416153655
 21
-710.3772531893304
 31
0.0
  0
LINE
  5
2074D
330
18
100
AcDbEntity
  8
0
  6
BYBLOCK
100
AcDbLine
 10
643.0162416153655
 20
-710.3772531893304
 30
0.0
 11
637.0162416153655
 21
-711.9849483293305
 31
0.0
  0
LINE
  5
2074E
330
18
100
AcDbEntity
  8
0
  6
BYBLOCK
100
AcDbLine
 10
643.0162416153655
 20
-710.3772531893304
 30
0.0
 11
637.0162416153655
 21
-710.3772531893304
 31
0.0
  0
TEXT
  5
2074F
330
18
100
AcDbEntity
  8
1DIM1
  6
CONTINUOUS
100
AcDbText
 10
388.0163283012656
 20
-708.2772531893304
 30
0.0
 40
10.5
  1
482
100
AcDbText
1001
ACAD
1000
DSTYLE
1002
{
1070
    40
1040
3.0
1070
    45
1040
0.5
1002
}
  0
LINE
  5
20750
330
18
100
AcDbEntity
  8
0
  6
BYBLOCK
100
AcDbLine
 10
785.052139995365
 20
-651.8230352627016
 30
0.0
 11
784.516241615365
 21
-653.8230352627016
 31
0.0
  0
LINE
  5
20751
330
18
100
AcDbEntity
  8
0
  6
BYBLOCK
100
AcDbLine
 10
784.516241615365
 20
-653.8230352627016
 30
0.0
 11
783.9803432353649
 21
-651.8230352627016
 31
0.0
  0
LINE
  5
20752
330
18
100
AcDbEntity
  8
0
  6
BYBLOCK
100
AcDbLine
 10
784.516241615365
 20
-653.8230352627016
 30
0.0
 11
784.516241615365
 21
-651.8230352627016
 31
0.0
  0
LINE
  5
20753
330
18
100
AcDbEntity
  8
0
  6
BYBLOCK
100
AcDbLine
 10
783.9803432353649
 20
-637.8230334683388
 30
0.0
 11
784.516241615365
 21
-635.8230334683388
 31
0.0
  0
LINE
  5
20754
330
18
100
AcDbEntity
  8
0
  6
BYBLOCK
100
AcDbLine
 10
784.516241615365
 20
-635.8230334683388
 30
0.0
 11
785.052139995365
 21
-637.8230334683388
 31
0.0
  0
LINE
  5
20755
330
18
100
AcDbEntity
  8
0
  6
BYBLOCK
100
AcDbLine
 10
784.516241615365
 20
-635.8230334683388
 30
0.0
 11
784.516241615365
 21
-637.8230334683388
 31
0.0
  0
TEXT
  5
20756
330
18
100
AcDbEntity
  8
1DIM
  6
CONTINUOUS
100
AcDbText
 10
783.8162416153649
 20
-648.9063676988535
 30
0.0
 40
3.5
  1
P18
 50
90.0
100
AcDbText
1001
ACAD
1000
DSTYLE
1002
{
1070
    45
1040
0.5
1002
}
  0
LINE
  5
20757
330
18
100
AcDbEntity
  8
0
  6
BYBLOCK
100
AcDbLine
 10
613.0164340606516
 20
-501.3572287312664
 30
0.0
 11
611.0164340606516
 21
-500.8213303512664
 31
0.0
  0
LINE
  5
20758
330
18
100
AcDbEntity
  8
0
  6
BYBLOCK
100
AcDbLine
 10
611.0164340606516
 20
-500.8213303512664
 30
0.0
 11
613.0164340606516
 21
-500.2854319712664
 31
0.0
  0
LINE
  5
20759
330
18
100
AcDbEntity
  8
0
  6
BYBLOCK
100
AcDbLine
 10
611.0164340606516
 20
-500.8213303512664
 30
0.0
 11
613.0164340606516
 21
-500.8213303512664
 31
0.0
  0
LINE
  5
2075A
330
18
100
AcDbEntity
  8
0
  6
BYBLOCK
100
AcDbLine
 10
641.0164340606516
 20
-500.2854319712664
 30
0.0
 11
643.0164340606516
 21
-500.8213303512664
 31
0.0
  0
LINE
  5
2075B
330
18
100
AcDbEntity
  8
0
  6
BYBLOCK
100
AcDbLine
 10
643.0164340606516
 20
-500.8213303512664
 30
0.0
 11
641.0164340606516
 21
-501.3572287312664
 31
0.0
  0
LINE
  5
2075C
330
18
100
AcDbEntity
  8
0
  6
BYBLOCK
100
AcDbLine
 10
643.0164340606516
 20
-500.8213303512664
 30
0.0
 11
641.0164340606516
 21
-500.8213303512664
 31
0.0
  0
TEXT
  5
2075D
330
18
100
AcDbEntity
  8
1DIM
  6
CONTINUOUS
100
AcDbText
 10
624.099767393985
 20
-500.1213303512664
 30
0.0
 40
3.5
  1
32
100
AcDbText
  0
LINE
  5
2075E
330
18
100
AcDbEntity
  8
0
  6
BYBLOCK
100
AcDbLine
 10
794.7544016744293
 20
-658.5730236333108
 30
0.0
 11
794.2185032944293
 21
-660.5730236333108
 31
0.0
  0
LINE
  5
2075F
330
18
100
AcDbEntity
  8
0
  6
BYBLOCK
100
AcDbLine
 10
794.2185032944293
 20
-660.5730236333108
 30
0.0
 11
793.6826049144292
 21
-658.5730236333108
 31
0.0
  0
LINE
  5
20760
330
18
100
AcDbEntity
  8
0
  6
BYBLOCK
100
AcDbLine
 10
794.2185032944293
 20
-660.5730236333108
 30
0.0
 11
794.2185032944293
 21
-658.5730236333108
 31
0.0
  0
LINE
  5
20761
330
18
100
AcDbEntity
  8
0
  6
BYBLOCK
100
AcDbLine
 10
793.6826049144292
 20
-630.5730083744869
 30
0.0
 11
794.2185032944293
 21
-628.5730083744869
 31
0.0
  0
LINE
  5
20762
330
18
100
AcDbEntity
  8
0
  6
BYBLOCK
100
AcDbLine
 10
794.2185032944293
 20
-628.5730083744869
 30
0.0
 11
794.7544016744293
 21
-630.5730083744869
 31
0.0
  0
LINE
  5
20763
330
18
100
AcDbEntity
  8
0
  6
BYBLOCK
100
AcDbLine
 10
794.2185032944293
 20
-628.5730083744869
 30
0.0
 11
794.2185032944293
 21
-630.5730083744869
 31
0.0
  0
TEXT
  5
20764
330
18
100
AcDbEntity
  8
1DIM
  6
CONTINUOUS
100
AcDbText
 10
793.5185032944293
 20
-647.4896826705653
 30
0.0
 40
3.5
  1
32
 50
90.0
100
AcDbText
  0
VIEWPORT
  5
57
330
15
100
AcDbEntity
 67
     1
  8
0
100
AcDbViewport
 68
     1
 10
0.0
 20
0.0
 30
0.0
 40
630.5106382978724
 41
297.0
 68
     1
 69
     1
1001
ACAD
1000
MVIEW
1002
{
1070
    16
1010
0.0
1020
0.0
1030
0.0
1010
0.0
1020
0.0
1030
1.0
1040
0.0
1040
297.0
1040
-4.171999999925333
1040
12.83903210976956
1040
50.0
1040
0.0
1040
0.0
1070
    16
1070
   100
1070
     0
1070
     1
1070
     0
1070
     0
1070
     0
1070
     0
1040
0.0
1040
0.0
1040
0.0
1040
10.0
1040
10.0
1040
10.0
1040
10.0
1070
     0
1002
{
1002
}
1002
}
  0
ENDSEC
  0
SECTION
  2
OBJECTS
  0
DICTIONARY
  5
C
330
0
100
AcDbDictionary
  3
ACAD_COLOR
350
2D0
  3
ACAD_GROUP
350
D
  3
ACAD_LAYOUT
350
2D1
  3
ACAD_MATERIAL
350
2CF
  3
ACAD_MLEADERSTYLE
350
19E18
  3
ACAD_MLINESTYLE
350
1B
  3
ACAD_PLOTSETTINGS
350
2D2
  3
ACAD_SCALELIST
350
19DF6
  3
ACAD_VISUALSTYLE
350
19DE5
  3
ACDBHEADERROUNDTRIPXREC
350
20765
  3
ACDBVARIABLEDICTIONARY
350
37
  3
AEC_PROPERTY_SET_DEFS
350
1F5B0
  3
CONTENTDICTIONARY
350
D8
  3
DRAWINGVARIABLESDICT
350
20
  3
DWGPROPS
350
20768
1001
ACAD
1000
TREAT_AS_HARD
1070
     0
  0
DICTIONARY
  5
18FE8
330
2
100
AcDbDictionary
  3
ACAD_LAYERSTATES
360
18FE9
1001
ACAD
1000
TREAT_AS_HARD
1070
     1
  0
DICTIONARY
  5
1A20A
330
E
100
AcDbDictionary
  3
ADSK_XREC_LAYER_RECONCILED
360
1A20B
1001
ACAD
1000
TREAT_AS_HARD
1070
     1
  0
DICTIONARY
  5
1A20C
330
29
100
AcDbDictionary
  3
ADSK_XREC_LAYER_RECONCILED
360
1A20D
1001
ACAD
1000
TREAT_AS_HARD
1070
     1
  0
DICTIONARY
  5
1A20E
330
31
100
AcDbDictionary
  3
ADSK_XREC_LAYER_RECONCILED
360
1A20F
1001
ACAD
1000
TREAT_AS_HARD
1070
     1
  0
DICTIONARY
  5
1A218
330
101
100
AcDbDictionary
  3
ADSK_XREC_LAYER_RECONCILED
360
1A219
1001
ACAD
1000
TREAT_AS_HARD
1070
     1
  0
DICTIONARY
  5
1A21C
330
103
100
AcDbDictionary
  3
ADSK_XREC_LAYER_RECONCILED
360
1A21D
1001
ACAD
1000
TREAT_AS_HARD
1070
     1
  0
DICTIONARY
  5
1A220
330
25F
100
AcDbDictionary
  3
ADSK_XREC_LAYER_RECONCILED
360
1A221
1001
ACAD
1000
TREAT_AS_HARD
1070
     1
  0
DICTIONARY
  5
1A236
330
26A
100
AcDbDictionary
  3
ADSK_XREC_LAYER_RECONCILED
360
1A237
1001
ACAD
1000
TREAT_AS_HARD
1070
     1
  0
DICTIONARY
  5
6E9
330
18
100
AcDbDictionary
  3
ACAD_SORTENTS
360
6EA
1001
ACAD
1000
TREAT_AS_HARD
1070
     1
  0
DICTIONARY
  5
59B
330
15
100
AcDbDictionary
  3
ACAD_SORTENTS
360
59C
1001
ACAD
1000
TREAT_AS_HARD
1070
     1
  0
DICTIONARY
  5
2D0
102
{ACAD_REACTORS
330
C
102
}
330
C
100
AcDbDictionary
1001
ACAD
1000
TREAT_AS_HARD
1070
     0
  0
DICTIONARY
  5
D
102
{ACAD_REACTORS
330
C
102
}
330
C
100
AcDbDictionary
  3
*A126
350
1EDFD
1001
ACAD
1000
TREAT_AS_HARD
1070
     0
  0
DICTIONARY
  5
2D1
102
{ACAD_REACTORS
330
C
102
}
330
C
100
AcDbDictionary
1001
ACAD
1000
TREAT_AS_HARD
1070
     0
  0
DICTIONARY
  5
2CF
102
{ACAD_REACTORS
330
C
102
}
330
C
100
AcDbDictionary
  3
BYBLOCK
350
19DD5
  3
BYLAYER
350
19DCD
  3
GLOBAL
350
19DDD
1001
ACAD
1000
TREAT_AS_HARD
1070
     0
  0
DICTIONARY
  5
19E18
102
{ACAD_REACTORS
330
C
102
}
330
C
100
AcDbDictionary
  3
STANDARD
350
19E19
1001
ACAD
1000
TREAT_AS_HARD
1070
     0
  0
DICTIONARY
  5
1B
102
{ACAD_REACTORS
330
C
102
}
330
C
100
AcDbDictionary
  3
STANDARD
350
1C
1001
ACAD
1000
TREAT_AS_HARD
1070
     0
  0
DICTIONARY
  5
2D2
102
{ACAD_REACTORS
330
C
102
}
330
C
100
AcDbDictionary
1001
ACAD
1000
TREAT_AS_HARD
1070
     0
  0
DICTIONARY
  5
19DF6
102
{ACAD_REACTORS
330
C
102
}
330
C
100
AcDbDictionary
  3
A0
350
19DF7
  3
A1
350
19DF8
  3
A2
350
19DF9
  3
A3
350
19DFA
  3
A4
350
19DFB
  3
A5
350
19DFC
  3
A6
350
19DFD
  3
A7
350
19DFE
  3
A8
350
19DFF
  3
A9
350
19E00
  3
B0
350
19E01
  3
B1
350
19E02
  3
B2
350
19E03
  3
B3
350
19E04
  3
B4
350
19E05
  3
B5
350
19E06
  3
B6
350
19E07
  3
B7
350
19E08
  3
B8
350
19E09
  3
B9
350
19E0A
  3
C0
350
19E0B
  3
C1
350
19E0C
  3
C2
350
19E0D
  3
C3
350
19E0E
  3
C4
350
19E0F
  3
C5
350
19E10
  3
C6
350
19E11
  3
C7
350
19E12
  3
C8
350
19E13
  3
C9
350
19E14
  3
D0
350
19E15
  3
D1
350
19E16
  3
D2
350
19E17
1001
ACAD
1000
TREAT_AS_HARD
1070
     0
  0
DICTIONARY
  5
19DE5
102
{ACAD_REACTORS
330
C
102
}
330
C
100
AcDbDictionary
  3
2DWIREFRAME
350
19DEB
  3
3D_HIDDEN
350
19DED
  3
3DWIREFRAME
350
19DEC
  3
BASIC
350
19DEA
  3
BRIGHTEN
350
19DF1
  3
COLORCHANGE
350
19DF5
  3
CONCEPTUAL
350
19DEE
  3
DIM
350
19DF0
  3
EDGECOLOROFF
350
1E02A
  3
FACEPATTERN
350
19DF4
  3
FLAT
350
19DE6
  3
FLATWITHEDGES
350
19DE7
  3
GOURAUD
350
19DE8
  3
GOURAUDWITHEDGES
350
19DE9
  3
HIDDEN
350
1FDB3
  3
JITTEROFF
350
1E028
  3
LINEPATTERN
350
19DF3
  3
MODELING
350
1FDB9
  3
OVERHANGOFF
350
1E029
  3
REALISTIC
350
19DEF
  3
SHADED
350
1FDB8
  3
SHADED_WITH_EDGES
350
1FDB7
  3
SHADES_OF_GRAY
350
1FDB4
  3
SKETCHY
350
1FDB5
  3
THICKEN
350
19DF2
  3
WIREFRAME
350
1FDB2
  3
X-RAY
350
1FDB6
1001
ACAD
1000
TREAT_AS_HARD
1070
     0
  0
DICTIONARY
  5
20765
102
{ACAD_REACTORS
330
C
102
}
330
C
100
AcDbDictionary
  3
COLORDICT
350
20766
  3
MATERIALDICT
350
20767
1001
ACAD
1000
TREAT_AS_HARD
1070
     0
  0
DICTIONARY
  5
37
102
{ACAD_REACTORS
330
C
102
}
330
C
100
AcDbDictionary
  3
CANNOSCALE
350
1AC1A
  3
CMLEADERSTYLE
350
1AC19
  3
CTABLESTYLE
350
4F1
  3
DIMADEC
350
38
  3
DIMASSOC
350
408
  3
HIDETEXT
350
1891
  3
INDEXCTL
350
1AC1C
  3
INTERSECTIONCOLOR
350
1895
  3
INTERSECTIONDISPLAY
350
1894
  3
MSLTSCALE
350
205DB
  3
OBSCOLOR
350
1892
  3
OBSLTYPE
350
1893
  3
PROJECTNAME
350
409
  3
SORTENTS
350
1AC1B
  3
XCLIPFRAME
350
1FDB1
1001
ACAD
1000
TREAT_AS_HARD
1070
     0
  0
DICTIONARY
  5
1F5B0
102
{ACAD_REACTORS
330
C
102
}
330
C
100
AcDbDictionary
1001
ACAD
1000
TREAT_AS_HARD
1070
     0
  0
DICTIONARY
  5
D8
102
{ACAD_REACTORS
330
C
102
}
330
C
100
AcDbDictionary
1001
CONTENTTABDATA
1070
    11
1000
Child
1000
D:\ACLT\TABset\CHILDREN.dwg
1070
     0
1070
     0
1070
     1
1000
PK
1000
D:\ACLT\TABset\PK.dwg
1070
     0
1070
     0
1070
     1
1000
Lev1
1000
D:\ACLT\TABset\Lever01.dwg
1070
     0
1070
     0
1070
     1
1000
Lev2
1000
D:\ACLT\TABset\Lever02.dwg
1070
     0
1070
     0
1070
     1
1000
L3
1000
D:\Aclt\TABset\Lever03.dwg
1070
     0
1070
     0
1070
     1
1000
Form
1000
D:\ACLT\FORMAT
1070
     1
1070
     0
1070
     1
1000
Jnt
1000
D:\ACLT\TABset\JOINTPARTS.dwg
1070
     0
1070
     0
1070
     1
1000
ISO
1000
D:\ACLT\TABset\Isome01.dwg
1070
     0
1070
     0
1070
     1
1000
R
1000
D:\ACLT\TABset\REGION.dwg
1070
     0
1070
     0
1070
     1
1000
std
1000
D:\ACLT\TABset\std_sym_all.dwg
1070
     0
1070
     0
1070
     1
1000
丸
1000
D:\Aclt\TABset\MARU.dwg
1070
     0
1070
     0
1070
     1
1001
CONTENTCURRENTTAB
1070
     0
1001
ACAD
1000
TREAT_AS_HARD
1070
     0
  0
DICTIONARY
  5
20
102
{ACAD_REACTORS
330
C
102
}
330
C
100
AcDbDictionary
1001
DRAWINGVARIABLESXDATA
1000
POLARANG
1000
0.261799387799149410000000
1000
POLARMODE
1000
1
1000
POLARSTYLE
1000
1
1001
ACAD
1000
TREAT_AS_HARD
1070
     0
  0
XRECORD
  5
20768
102
{ACAD_REACTORS
330
C
102
}
330
C
100
AcDbXrecord
  1
DWGPROPS COOKIE
  2

  3

  4

  6

  7

  8
3684
  9

300
=
301
=
302
=
303
=
304
=
305
=
306
=
307
=
308
=
309
=
 40
0.0
 41
2453033.357663484
 42
2458092.07706287
  1

 90
        0
  0
DICTIONARY
  5
18FE9
102
{ACAD_REACTORS
330
18FE8
102
}
330
18FE8
100
AcDbDictionary
  3
_LAYISO_STATE
350
1FD19
1001
ACLAYERTOOLS
1000
2D3
1000
0
1001
ACAD
1000
TREAT_AS_HARD
1070
     0
  0
ACAD_PROXY_OBJECT
  5
1A20B
102
{ACAD_REACTORS
330
1A20A
102
}
330
1A20A
100
AcDbZombieObject
 90
      499
 91
      518
 93
       34
310
40C8804040
  0
ACAD_PROXY_OBJECT
  5
1A20D
102
{ACAD_REACTORS
330
1A20C
102
}
330
1A20C
100
AcDbZombieObject
 90
      499
 91
      518
 93
       34
310
40C8804040
  0
ACAD_PROXY_OBJECT
  5
1A20F
102
{ACAD_REACTORS
330
1A20E
102
}
330
1A20E
100
AcDbZombieObject
 90
      499
 91
      518
 93
       34
310
40C8804040
  0
ACAD_PROXY_OBJECT
  5
1A219
102
{ACAD_REACTORS
330
1A218
102
}
330
1A218
100
AcDbZombieObject
 90
      499
 91
      518
 93
       34
310
40C8804040
  0
ACAD_PROXY_OBJECT
  5
1A21D
102
{ACAD_REACTORS
330
1A21C
102
}
330
1A21C
100
AcDbZombieObject
 90
      499
 91
      518
 93
       34
310
40C8804040
  0
ACAD_PROXY_OBJECT
  5
1A221
102
{ACAD_REACTORS
330
1A220
102
}
330
1A220
100
AcDbZombieObject
 90
      499
 91
      518
 93
       34
310
40C8804040
  0
ACAD_PROXY_OBJECT
  5
1A237
102
{ACAD_REACTORS
330
1A236
102
}
330
1A236
100
AcDbZombieObject
 90
      499
 91
      518
 93
       34
310
40C8804040
  0
SORTENTSTABLE
  5
6EA
102
{ACAD_REACTORS
330
6E9
102
}
330
6E9
100
AcDbSortentsTable
330
18
331
0
  5
99AB
331
0
  5
AB53
331
0
  5
AB54
331
0
  5
ECB5
331
0
  5
1D308
331
0
  5
1DB93
331
1DBA4
  5
1F5FD
331
1DBA5
  5
1F5FE
331
1DBA6
  5
1F5FF
331
0
  5
1E232
331
0
  5
1E233
331
0
  5
1E234
331
0
  5
1E236
331
0
  5
1E7B5
331
0
  5
1E7B6
331
0
  5
1EC3D
331
0
  5
1E7B8
331
0
  5
1F5B6
331
1F5B5
  5
1F62E
331
1F5B6
  5
1F62F
331
1F5B9
  5
1F630
331
1F5BA
  5
1F631
331
1F5BB
  5
1F632
331
1F5BC
  5
1F633
331
1F5BD
  5
1F634
331
1F5BF
  5
1F635
331
1F5C0
  5
1F636
331
1F5C1
  5
1F637
331
1F5C2
  5
1F638
331
1F5C3
  5
1F639
331
1F5C6
  5
1F65A
331
1F5C8
  5
1F66E
331
1F5CB
  5
1F686
331
1F5CC
  5
1F687
331
1F5CD
  5
1F688
331
1F5CE
  5
1F689
331
1F5CF
  5
1F68A
331
1F5D0
  5
1F68B
331
1F5D1
  5
1F68C
331
1F5D2
  5
1F68D
331
1F5D3
  5
1F68E
331
1F5D4
  5
1F68F
331
1F5D5
  5
1F690
331
1F5D6
  5
1F691
331
1F5D7
  5
1F692
331
1F5D8
  5
1F693
331
1F5D9
  5
1F694
331
1F5DA
  5
1F695
331
1F5DB
  5
1F696
331
1F5DD
  5
1F6AE
331
1F5DF
  5
1F6BA
331
1F5E1
  5
1F6BF
331
1F5E2
  5
1F6C0
331
1F5E5
  5
1F6C1
331
1F5E6
  5
1F6C2
331
1F5E7
  5
1F6C3
331
1F5E8
  5
1F6C4
331
1F5E9
  5
1F6C5
331
1F5EA
  5
1F6C6
331
1F5EB
  5
1F6C7
331
1F5EC
  5
1F6C8
331
1F5ED
  5
1F6C9
331
1F5EE
  5
1F6CA
331
1F5EF
  5
1F6CB
331
1F5F0
  5
1F6CC
331
1F5F1
  5
1F6CD
331
1F5F2
  5
1F6CE
331
1F5F3
  5
1F6CF
331
1F5F4
  5
1F6D0
331
1F5F5
  5
1F6D1
331
1F5F6
  5
1F6D2
331
1F5F7
  5
1F6D3
331
1F5F8
  5
1F6D4
331
1F5F9
  5
1F6D5
331
1F5FA
  5
1F6D6
331
1F5FB
  5
1F6D7
331
1F5FC
  5
1F6D8
331
1F5FD
  5
1F6D9
331
1F5FE
  5
1F6DA
331
1F5FF
  5
1F6DB
331
1F600
  5
1F6DC
331
1F601
  5
1F6DD
331
1F602
  5
1F6DE
331
1F603
  5
1F6DF
331
1F604
  5
1F6E0
331
1F605
  5
1F6E1
331
1F606
  5
1F6E2
331
1F607
  5
1F6E3
331
1F608
  5
1F6E4
331
1F609
  5
1F6E5
331
1F60A
  5
1F6E6
331
1F60B
  5
1F6E7
331
1F60C
  5
1F6E8
331
1F60D
  5
1F6E9
331
1F60E
  5
1F6EA
331
1F60F
  5
1F6EB
331
1F610
  5
1F6EC
331
1F611
  5
1F6ED
331
1F612
  5
1F6EE
331
1F613
  5
1F6EF
331
1F614
  5
1F6F0
331
1F615
  5
1F6F1
331
1F616
  5
1F6F2
331
1F617
  5
1F6F3
331
1F618
  5
1F6F4
331
1F619
  5
1F6F5
331
1F61A
  5
1F6F6
331
1F61B
  5
1F6F7
331
1F61C
  5
1F6F8
331
1F61D
  5
1F6F9
331
1F61E
  5
1F6FA
331
1F61F
  5
1F6FB
331
1F620
  5
1F6FC
331
1F621
  5
1F6FD
331
1F622
  5
1F6FE
331
1F623
  5
1F6FF
331
1F624
  5
1F700
331
1F625
  5
1F701
331
1F626
  5
1F702
331
1F627
  5
1F703
331
1F628
  5
1F704
331
1F629
  5
1F705
331
1F62A
  5
1F706
331
1F62B
  5
1F707
331
1F62C
  5
1F708
331
1F62D
  5
1F709
331
1F62E
  5
1F70A
331
1F62F
  5
1F70B
331
1F630
  5
1F70C
331
1F631
  5
1F70D
331
1F632
  5
1F70E
331
1F633
  5
1F70F
331
1F634
  5
1F710
331
1F635
  5
1F711
331
1F636
  5
1F712
331
1F637
  5
1F713
331
1F638
  5
1F714
331
1F639
  5
1F715
331
1F63A
  5
1F716
331
1F63B
  5
1F717
331
1F63C
  5
1F718
331
1F63D
  5
1F719
331
1F63E
  5
1F71A
331
1F63F
  5
1F71B
331
1F640
  5
1F71C
331
1F641
  5
1F71D
331
1F642
  5
1F71E
331
1F643
  5
1F71F
331
1F644
  5
1F720
331
1F645
  5
1F721
331
1F646
  5
1F722
331
1F647
  5
1F723
331
1F648
  5
1F724
331
1F649
  5
1F725
331
1F64A
  5
1F726
331
1F64B
  5
1F727
331
1F64C
  5
1F728
331
1F64D
  5
1F729
331
1F64E
  5
1F72A
331
1F64F
  5
1F72B
331
1F650
  5
1F72C
331
1F651
  5
1F72D
331
1F652
  5
1F72E
331
1F653
  5
1F72F
331
1F654
  5
1F730
331
1F655
  5
1F731
331
1F656
  5
1F732
331
1F657
  5
1F733
331
1F658
  5
1F734
331
1F659
  5
1F735
331
1F65A
  5
1F736
331
1F65B
  5
1F737
331
1F65C
  5
1F738
331
1F65D
  5
1F739
331
1F65E
  5
1F73A
331
1F65F
  5
1F73B
331
1F660
  5
1F73C
331
1F661
  5
1F73D
331
1F662
  5
1F73E
331
1F663
  5
1F73F
331
1F664
  5
1F740
331
1F665
  5
1F741
331
1F666
  5
1F742
331
1F667
  5
1F743
331
1F668
  5
1F744
331
1F669
  5
1F745
331
1F66A
  5
1F746
331
1F66B
  5
1F747
331
1F66C
  5
1F748
331
1F66D
  5
1F749
331
1F66E
  5
1F74A
331
1F66F
  5
1F74B
331
1F670
  5
1F74C
331
1F671
  5
1F74D
331
1F672
  5
1F74E
331
1F673
  5
1F74F
331
1F674
  5
1F750
331
1F675
  5
1F751
331
1F676
  5
1F752
331
1F677
  5
1F753
331
1F678
  5
1F754
331
1F679
  5
1F755
331
1F67A
  5
1F756
331
1F67B
  5
1F757
331
1F67C
  5
1F758
331
1F67D
  5
1F759
331
1F67E
  5
1F75A
331
1F67F
  5
1F75B
331
1F680
  5
1F75C
331
1F681
  5
1F75D
331
1F682
  5
1F75E
331
1F683
  5
1F75F
331
1F684
  5
1F760
331
1F685
  5
1F761
331
1F686
  5
1F762
331
1F687
  5
1F763
331
1F688
  5
1F764
331
1F689
  5
1F765
331
1F68A
  5
1F766
331
1F68B
  5
1F767
331
1F68C
  5
1F768
331
1F68D
  5
1F769
331
1F68E
  5
1F76A
331
1F68F
  5
1F76B
331
1F690
  5
1F76C
331
1F691
  5
1F76D
331
1F692
  5
1F76E
331
1F693
  5
1F76F
331
1F694
  5
1F770
331
1F695
  5
1F771
331
1F696
  5
1F772
331
1F697
  5
1F773
331
1F698
  5
1F774
331
1F699
  5
1F775
331
1F69A
  5
1F776
331
1F69B
  5
1F777
331
1F69C
  5
1F778
331
1F69D
  5
1F779
331
1F69E
  5
1F77A
331
1F69F
  5
1F77B
331
1F6A0
  5
1F77C
331
1F6A1
  5
1F77D
331
1F6A2
  5
1F780
331
1F6A3
  5
1F781
331
1F6A4
  5
1F782
331
1F6A5
  5
1F783
331
1F6A6
  5
1F784
331
1F6A7
  5
1F785
331
1F6A8
  5
1F786
331
1F6A9
  5
1F787
331
1F6AA
  5
1F788
331
1F6AB
  5
1F789
331
1F6AC
  5
1F78A
331
1F6AD
  5
1F78B
331
1F6AE
  5
1F932
331
1F6AF
  5
1FA7A
331
1F6B0
  5
2054C
331
1F6B1
  5
2055B
331
1F6B2
  5
2064F
331
1F6B3
  5
20650
331
1F6B4
  5
20651
331
1F6B5
  5
20652
331
1F6B6
  5
20653
331
1F6B7
  5
20654
331
1F6B8
  5
20655
331
1F6B9
  5
20656
331
1F6BA
  5
20657
331
1F6BB
  5
20658
331
1F6BC
  5
20659
331
1F6BD
  5
2065A
331
1F6BE
  5
2065B
331
1F6BF
  5
2065C
331
1F6C0
  5
2065D
331
1F6C1
  5
2065E
331
1F6C2
  5
2065F
331
1F6C3
  5
20660
331
1F6C4
  5
20661
331
1F6C5
  5
20662
331
1F6C6
  5
20663
331
1F6C7
  5
20664
331
1F6C8
  5
20665
331
1F6C9
  5
20666
331
1F6CA
  5
20667
331
1F6CB
  5
20668
331
1F6CC
  5
20669
331
1F6CD
  5
2066A
331
1F6CE
  5
2066B
331
1F6CF
  5
2066C
331
1F6D0
  5
2066D
331
1F6D1
  5
2066E
331
1F6D2
  5
2066F
331
1F6D3
  5
20670
331
1F6D4
  5
20671
331
1F6D5
  5
20672
331
1F6D6
  5
20673
331
1F6D7
  5
20674
331
1F6D8
  5
20675
331
1F6D9
  5
20676
331
1F6DA
  5
20677
331
1F6DB
  5
20678
331
1F6DC
  5
20679
331
1F6DD
  5
2067A
331
1F6DE
  5
2067B
331
1F6DF
  5
2067C
331
1F6E0
  5
2067D
331
1F6E1
  5
2067E
331
1F6E2
  5
2067F
331
1F6E3
  5
20680
331
1F6E4
  5
20681
331
1F6E5
  5
20682
331
1F6E6
  5
20683
331
1F6E7
  5
20684
331
1F6E8
  5
20685
331
1F6E9
  5
20686
331
1F6EA
  5
20687
331
1F6EB
  5
20688
331
1F6EC
  5
20689
331
1F6ED
  5
2068A
331
1F6EE
  5
2068B
331
1F6EF
  5
2068C
331
1F6F0
  5
2068D
331
1F6F1
  5
2068E
331
1F6F2
  5
2068F
331
1F6F3
  5
20690
331
1F6F4
  5
20691
331
1F6F5
  5
20692
331
1F6F6
  5
20693
331
1F6F7
  5
20694
331
1F6F8
  5
20695
331
1F6F9
  5
20696
331
1F6FA
  5
20697
331
1F6FB
  5
20698
331
1F6FC
  5
20699
331
1F6FD
  5
2069A
331
1F6FE
  5
2069B
331
1F6FF
  5
2069C
331
1F700
  5
2069D
331
1F701
  5
2069E
331
1F702
  5
2069F
331
1F703
  5
206A0
331
1F704
  5
206A1
331
1F705
  5
206A2
331
1F706
  5
206A3
331
1F707
  5
206A4
331
1F708
  5
206A5
331
1F709
  5
206A6
331
1F70A
  5
206A7
331
1F70B
  5
206A8
331
1F70C
  5
206A9
331
1F70D
  5
206AA
331
1F70E
  5
206AB
331
1F70F
  5
206AC
331
1F710
  5
206AD
331
1F711
  5
206AE
331
1F712
  5
206AF
331
1F713
  5
206B0
331
1F714
  5
206B1
331
1F715
  5
206B2
331
1F716
  5
206B3
331
1F717
  5
206B4
331
1F718
  5
206B5
331
1F719
  5
206B6
331
1F71A
  5
206B7
331
1F71B
  5
206B8
331
1F71C
  5
206B9
331
1F71D
  5
206BA
331
1F71E
  5
206BB
331
1F71F
  5
206BC
331
1F720
  5
206BD
331
1F721
  5
206BE
331
1F722
  5
206BF
331
1F723
  5
206C0
331
1F724
  5
206C1
331
1F725
  5
206C2
331
1F726
  5
206C3
331
1F727
  5
206C4
331
1F728
  5
206C5
331
1F729
  5
206C6
331
1F72A
  5
206C7
331
1F72B
  5
206C8
331
1F72C
  5
206C9
331
1F72D
  5
206CA
331
1F72E
  5
206CB
331
1F72F
  5
206CC
331
1F730
  5
206CD
331
1F731
  5
206CE
331
1F732
  5
206CF
331
1F733
  5
206D0
331
1F734
  5
206D1
331
1F735
  5
206D2
331
1F736
  5
206D3
331
1F737
  5
206D4
331
1F738
  5
206D5
331
1F739
  5
206D6
331
1F73A
  5
206D7
331
1F73B
  5
206D8
331
1F73C
  5
206D9
331
1F73D
  5
206DA
331
1F73E
  5
206DB
331
1F73F
  5
206DC
331
1F740
  5
206DD
331
1F741
  5
206DE
331
1F742
  5
206E1
331
1F743
  5
206E2
331
1F744
  5
206E3
331
1F745
  5
206E4
331
1F746
  5
206E5
331
1F747
  5
206E6
331
1F748
  5
206E7
331
1F749
  5
206E8
331
1F74A
  5
206E9
331
1F74B
  5
206EA
331
1F74C
  5
206EB
331
1F74D
  5
206EC
331
1F74E
  5
206ED
331
1F74F
  5
206EE
331
1F750
  5
206EF
331
1F751
  5
206F0
331
1F752
  5
206F1
331
1F753
  5
206F2
331
1F754
  5
206F3
331
1F755
  5
206F4
331
1F756
  5
206F5
331
1F757
  5
206F6
331
1F758
  5
206F7
331
1F759
  5
206F8
331
1F75A
  5
206F9
331
1F75B
  5
206FA
331
1F75C
  5
206FB
331
1F75D
  5
206FC
331
1F75E
  5
206FD
331
1F75F
  5
206FE
331
1F760
  5
206FF
331
1F761
  5
20700
331
1F762
  5
20701
331
1F763
  5
20702
331
1F764
  5
20703
331
1F765
  5
20704
331
1F766
  5
20705
331
1F767
  5
20706
331
1F768
  5
20707
331
1F769
  5
20708
331
1F76A
  5
20709
331
1F76B
  5
2070A
331
1F76C
  5
2070B
331
1F76D
  5
2070C
331
1F76E
  5
2070D
331
1F76F
  5
2070E
331
1F770
  5
2070F
331
1F771
  5
20710
331
1F772
  5
20711
331
1F773
  5
20712
331
1F774
  5
20713
331
1F775
  5
20714
331
1F776
  5
20715
331
1F777
  5
20716
331
1F778
  5
20717
331
1F779
  5
20718
331
1F77A
  5
20719
331
1F77B
  5
2071A
331
1F77C
  5
2071B
331
1F77D
  5
2071C
331
1F780
  5
20743
331
1F781
  5
20744
331
1F782
  5
20745
331
1F783
  5
20746
331
1F784
  5
20747
331
1F785
  5
20748
331
1F786
  5
20749
331
1F787
  5
2074A
331
1F788
  5
2074B
331
1F789
  5
2074C
331
1F78A
  5
2074D
331
1F78B
  5
2074E
331
1F932
  5
2074F
331
1FA7A
  5
20750
331
0
  5
206DF
331
0
  5
206E0
331
2064F
  5
1F620
331
20650
  5
1F623
331
20651
  5
1F63A
331
20652
  5
1F63B
331
20653
  5
1F63C
331
20654
  5
1F63D
331
20655
  5
1F63E
331
20656
  5
1F63F
331
20657
  5
1F640
331
20658
  5
1F641
331
20659
  5
1F642
331
2065A
  5
1F643
331
2065B
  5
1F644
331
2065C
  5
1F645
331
2065D
  5
1F646
331
2065E
  5
1F647
331
2065F
  5
1F648
331
20660
  5
1F649
331
20661
  5
1F64A
331
20662
  5
1F64B
331
20663
  5
1F64C
331
20664
  5
1F64D
331
20665
  5
1F64E
331
20666
  5
1F64F
331
20667
  5
1F650
331
20668
  5
1F651
331
20669
  5
1F652
331
2066A
  5
1F653
331
2066B
  5
1F654
331
2066C
  5
1F655
331
2066D
  5
1F656
331
2066E
  5
1F657
331
2066F
  5
1F658
331
20670
  5
1F659
331
20671
  5
1F65B
331
20672
  5
1F65C
331
20673
  5
1F65D
331
20674
  5
1F65E
331
20675
  5
1F65F
331
20676
  5
1F660
331
20677
  5
1F661
331
20678
  5
1F662
331
20679
  5
1F663
331
2067A
  5
1F664
331
2067B
  5
1F665
331
2067C
  5
1F666
331
2067D
  5
1F667
331
2067E
  5
1F668
331
2067F
  5
1F669
331
20680
  5
1F66A
331
20681
  5
1F66B
331
20682
  5
1F66C
331
20683
  5
1F66D
331
20684
  5
1F66F
331
20685
  5
1F670
331
20686
  5
1F671
331
20687
  5
1F672
331
20688
  5
1F673
331
20689
  5
1F674
331
2068A
  5
1F675
331
2068B
  5
1F676
331
2068C
  5
1F677
331
2068D
  5
1F678
331
2068E
  5
1F679
331
2068F
  5
1F67A
331
20690
  5
1F67B
331
20691
  5
1F67C
331
20692
  5
1F67D
331
20693
  5
1F67E
331
20694
  5
1F67F
331
20695
  5
1F680
331
20696
  5
1F681
331
20697
  5
1F682
331
20698
  5
1F683
331
20699
  5
1F684
331
2069A
  5
1F685
331
2069B
  5
1F697
331
2069C
  5
1F698
331
2069D
  5
1F699
331
2069E
  5
1F69A
331
2069F
  5
1F69B
331
206A0
  5
1F69C
331
206A1
  5
1F69D
331
206A2
  5
1F69E
331
206A3
  5
1F69F
331
206A4
  5
1F6A0
331
206A5
  5
1F6A1
331
206A6
  5
1F6A2
331
206A7
  5
1F6A3
331
206A8
  5
1F6A4
331
206A9
  5
1F6A5
331
206AA
  5
1F6A6
331
206AB
  5
1F6A7
331
206AC
  5
1F6A8
331
206AD
  5
1F6A9
331
206AE
  5
1F6AA
331
206AF
  5
1F6AB
331
206B0
  5
1F6AC
331
206B1
  5
1F6AD
331
206B2
  5
1F6AF
331
206B3
  5
1F6B0
331
206B4
  5
1F6B1
331
206B5
  5
1F6B2
331
206B6
  5
1F6B3
331
206B7
  5
1F6B4
331
206B8
  5
1F6B5
331
206B9
  5
1F6B6
331
206BA
  5
1F6B7
331
206BB
  5
1F6B8
331
206BC
  5
1F6B9
331
206BD
  5
1F6BB
331
206BE
  5
1F6BC
331
206BF
  5
1F6BD
331
206C0
  5
1F6BE
331
206C1
  5
20720
331
206C2
  5
20721
331
206C3
  5
20722
331
206C4
  5
20726
331
206C5
  5
20727
331
206C6
  5
20728
331
206C7
  5
20729
331
206C8
  5
2072A
331
206C9
  5
2072B
331
206CA
  5
2072C
331
206CB
  5
2072D
331
206CC
  5
2072E
331
206CD
  5
2072F
331
206CE
  5
20730
331
206CF
  5
20731
331
206D0
  5
20732
331
206D1
  5
20733
331
206D2
  5
20734
331
206D3
  5
20735
331
206D4
  5
20736
331
206D5
  5
20737
331
206D6
  5
20738
331
206D7
  5
20739
331
206D8
  5
2073A
331
206D9
  5
2073B
331
206DA
  5
2073C
331
206DB
  5
2073D
331
206DC
  5
2073E
331
206DD
  5
2073F
331
206DE
  5
20740
331
206DF
  5
20741
331
206E0
  5
20742
331
206E1
  5
1DBA8
331
206E2
  5
1DF13
331
206E3
  5
1DFD9
331
0
  5
1E7B7
331
0
  5
1F5B5
331
0
  5
1F5B9
331
206E7
  5
1F5C2
331
206E8
  5
1F5C3
331
206E9
  5
1F5C6
331
206EA
  5
1F5C8
331
206EB
  5
1F5CB
331
206EC
  5
1F5CC
331
206ED
  5
1F5CD
331
206EE
  5
1F5D1
331
206EF
  5
1F5D2
331
206F0
  5
1F5D3
331
206F1
  5
1F5D7
331
206F2
  5
1F5D8
331
206F3
  5
1F5D9
331
206F4
  5
1F5DA
331
0
  5
1F5CE
331
0
  5
1F5CF
331
0
  5
1F5D0
331
206F8
  5
1F5ED
331
206F9
  5
1F5F1
331
206FA
  5
1F5F2
331
0
  5
1F5D4
331
0
  5
1F5D5
331
0
  5
1F5D6
331
206FE
  5
1F600
331
206FF
  5
1F601
331
20700
  5
1F602
331
0
  5
1F5DF
331
0
  5
1F5E1
331
0
  5
1F5E2
331
20704
  5
1F60A
331
20705
  5
1F60B
331
20706
  5
1F60C
331
0
  5
1F5E8
331
0
  5
1F5E9
331
0
  5
1F5EA
331
2070A
  5
1F614
331
2070B
  5
1F615
331
2070C
  5
1F616
331
0
  5
1F5EE
331
0
  5
1F5EF
331
0
  5
1F5F0
331
20710
  5
1F61E
331
20711
  5
1F61F
331
20712
  5
1F621
331
20713
  5
1F622
331
20714
  5
1F624
331
20715
  5
1F625
331
20716
  5
1F626
331
0
  5
1F5FA
331
0
  5
1F5FB
331
0
  5
1F5FC
331
2071A
  5
20751
331
2071B
  5
20752
331
2071C
  5
20753
331
20720
  5
2075B
331
20721
  5
2075C
331
20722
  5
2075D
331
20726
  5
1F5BA
331
20727
  5
1F5BB
331
20728
  5
1F5BC
331
20729
  5
1F5BD
331
2072A
  5
1F5BF
331
2072B
  5
1F5C0
331
2072C
  5
1F5C1
331
2072D
  5
1F5DB
331
2072E
  5
1F5DD
331
2072F
  5
1F5E5
331
20730
  5
1F5E6
331
20731
  5
1F5E7
331
20732
  5
1F5EB
331
20733
  5
1F5EC
331
20734
  5
1F5F3
331
20735
  5
1F5F4
331
20736
  5
1F5F5
331
20737
  5
1F5F6
331
20738
  5
1F5F7
331
20739
  5
1F5F8
331
2073A
  5
1F5F9
331
2073B
  5
1F603
331
2073C
  5
1F604
331
2073D
  5
1F605
331
2073E
  5
1F606
331
2073F
  5
1F607
331
20740
  5
1F608
331
20741
  5
1F609
331
20742
  5
1F60D
331
20743
  5
1F60E
331
20744
  5
1F60F
331
20745
  5
1F610
331
20746
  5
1F611
331
20747
  5
1F612
331
20748
  5
1F613
331
20749
  5
1F617
331
2074A
  5
1F618
331
2074B
  5
1F619
331
2074C
  5
1F61A
331
2074D
  5
1F61B
331
2074E
  5
1F61C
331
2074F
  5
1F61D
331
20750
  5
1F627
331
20751
  5
1F628
331
20752
  5
1F629
331
20753
  5
1F62A
331
20754
  5
1F62B
331
20755
  5
1F62C
331
20756
  5
1F62D
331
20757
  5
20754
331
20758
  5
20755
331
20759
  5
20756
331
2075A
  5
20757
331
2075B
  5
20758
331
2075C
  5
20759
331
2075D
  5
2075A
  0
SORTENTSTABLE
  5
59C
102
{ACAD_REACTORS
330
59B
102
}
330
59B
100
AcDbSortentsTable
330
15
331
57
  5
57
331
0
  5
70
  0
GROUP
  5
1EDFD
102
{ACAD_REACTORS
330
D
102
}
330
D
100
AcDbGroup
300

 70
     1
 71
     1
340
1DBA6
340
1DBA5
340
1DBA4
  0
MATERIAL
  5
19DD5
102
{ACAD_REACTORS
330
2CF
102
}
102
{ACAD_XDICTIONARY
360
20903
102
}
330
2CF
100
AcDbMaterial
  1
BYBLOCK
 72
     0
 73
     2
 43
0.0208333333333333
 43
0.0
 43
0.0
 43
0.0
 43
0.0
 43
0.0208333333333333
 43
0.0
 43
0.0
 43
0.0
 43
0.0
 43
1.0
 43
0.0
 43
0.0
 43
0.0
 43
0.0
 43
1.0
 77
     0
 78
     2
 47
0.0208333333333333
 47
0.0
 47
0.0
 47
0.0
 47
0.0
 47
0.0208333333333333
 47
0.0
 47
0.0
 47
0.0
 47
0.0
 47
1.0
 47
0.0
 47
0.0
 47
0.0
 47
0.0
 47
1.0
171
     0
172
     2
 49
0.0208333333333333
 49
0.0
 49
0.0
 49
0.0
 49
0.0
 49
0.0208333333333333
 49
0.0
 49
0.0
 49
0.0
 49
0.0
 49
1.0
 49
0.0
 49
0.0
 49
0.0
 49
0.0
 49
1.0
175
     0
176
     2
142
0.0208333333333333
142
0.0
142
0.0
142
0.0
142
0.0
142
0.0208333333333333
142
0.0
142
0.0
142
0.0
142
0.0
142
1.0
142
0.0
142
0.0
142
0.0
142
0.0
142
1.0
179
     0
270
     2
144
0.0208333333333333
144
0.0
144
0.0
144
0.0
144
0.0
144
0.0208333333333333
144
0.0
144
0.0
144
0.0
144
0.0
144
1.0
144
0.0
144
0.0
144
0.0
144
0.0
144
1.0
274
     2
147
0.0208333333333333
147
0.0
147
0.0
147
0.0
147
0.0
147
0.0208333333333333
147
0.0
147
0.0
147
0.0
147
0.0
147
1.0
147
0.0
147
0.0
147
0.0
147
0.0
147
1.0
  0
MATERIAL
  5
19DCD
102
{ACAD_REACTORS
330
2CF
102
}
102
{ACAD_XDICTIONARY
360
20905
102
}
330
2CF
100
AcDbMaterial
  1
BYLAYER
 72
     0
 73
     2
 43
0.0208333333333333
 43
0.0
 43
0.0
 43
0.0
 43
0.0
 43
0.0208333333333333
 43
0.0
 43
0.0
 43
0.0
 43
0.0
 43
1.0
 43
0.0
 43
0.0
 43
0.0
 43
0.0
 43
1.0
 77
     0
 78
     2
 47
0.0208333333333333
 47
0.0
 47
0.0
 47
0.0
 47
0.0
 47
0.0208333333333333
 47
0.0
 47
0.0
 47
0.0
 47
0.0
 47
1.0
 47
0.0
 47
0.0
 47
0.0
 47
0.0
 47
1.0
171
     0
172
     2
 49
0.0208333333333333
 49
0.0
 49
0.0
 49
0.0
 49
0.0
 49
0.0208333333333333
 49
0.0
 49
0.0
 49
0.0
 49
0.0
 49
1.0
 49
0.0
 49
0.0
 49
0.0
 49
0.0
 49
1.0
175
     0
176
     2
142
0.0208333333333333
142
0.0
142
0.0
142
0.0
142
0.0
142
0.0208333333333333
142
0.0
142
0.0
142
0.0
142
0.0
142
1.0
142
0.0
142
0.0
142
0.0
142
0.0
142
1.0
179
     0
270
     2
144
0.0208333333333333
144
0.0
144
0.0
144
0.0
144
0.0
144
0.0208333333333333
144
0.0
144
0.0
144
0.0
144
0.0
144
1.0
144
0.0
144
0.0
144
0.0
144
0.0
144
1.0
274
     2
147
0.0208333333333333
147
0.0
147
0.0
147
0.0
147
0.0
147
0.0208333333333333
147
0.0
147
0.0
147
0.0
147
0.0
147
1.0
147
0.0
147
0.0
147
0.0
147
0.0
147
1.0
  0
MATERIAL
  5
19DDD
102
{ACAD_REACTORS
330
2CF
102
}
102
{ACAD_XDICTIONARY
360
20907
102
}
330
2CF
100
AcDbMaterial
  1
GLOBAL
 72
     0
 73
     2
 43
0.0208333333333333
 43
0.0
 43
0.0
 43
0.0
 43
0.0
 43
0.0208333333333333
 43
0.0
 43
0.0
 43
0.0
 43
0.0
 43
1.0
 43
0.0
 43
0.0
 43
0.0
 43
0.0
 43
1.0
 77
     0
 78
     2
 47
0.0208333333333333
 47
0.0
 47
0.0
 47
0.0
 47
0.0
 47
0.0208333333333333
 47
0.0
 47
0.0
 47
0.0
 47
0.0
 47
1.0
 47
0.0
 47
0.0
 47
0.0
 47
0.0
 47
1.0
171
     0
172
     2
 49
0.0208333333333333
 49
0.0
 49
0.0
 49
0.0
 49
0.0
 49
0.0208333333333333
 49
0.0
 49
0.0
 49
0.0
 49
0.0
 49
1.0
 49
0.0
 49
0.0
 49
0.0
 49
0.0
 49
1.0
175
     0
176
     2
142
0.0208333333333333
142
0.0
142
0.0
142
0.0
142
0.0
142
0.0208333333333333
142
0.0
142
0.0
142
0.0
142
0.0
142
1.0
142
0.0
142
0.0
142
0.0
142
0.0
142
1.0
179
     0
270
     2
144
0.0208333333333333
144
0.0
144
0.0
144
0.0
144
0.0
144
0.0208333333333333
144
0.0
144
0.0
144
0.0
144
0.0
144
1.0
144
0.0
144
0.0
144
0.0
144
0.0
144
1.0
274
     2
147
0.0208333333333333
147
0.0
147
0.0
147
0.0
147
0.0
147
0.0208333333333333
147
0.0
147
0.0
147
0.0
147
0.0
147
1.0
147
0.0
147
0.0
147
0.0
147
0.0
147
1.0
  0
ACAD_PROXY_OBJECT
  5
19E19
102
{ACAD_REACTORS
330
19E18
102
}
330
19E18
100
AcDbZombieObject
 90
      499
 91
      512
 93
      610
310
40901902A4063FBFFFFFE000000000000002040AD7A3703D0AD73F4214DD185B99185C990000000000000104090141901A00000000000004100000000000000041025764000000000000300FC0
340
12
340
0
340
F
340
0
 94
        0
1001
ACAD_MLEADERVER
1070
     2
  0
MLINESTYLE
  5
1C
102
{ACAD_REACTORS
330
1B
102
}
330
1B
100
AcDbMlineStyle
  2
STANDARD
 70
     0
  3

 62
   256
 51
90.0
 52
90.0
 71
     2
 49
0.5
 62
   256
  6
BYLAYER
 49
-0.5
 62
   256
  6
BYLAYER
  0
ACAD_PROXY_OBJECT
  5
19DF7
102
{ACAD_REACTORS
330
19DF6
102
}
330
19DF6
100
AcDbZombieObject
 90
      499
 91
      511
 93
       41
310
903313A31580
  0
ACAD_PROXY_OBJECT
  5
19DF8
102
{ACAD_REACTORS
330
19DF6
102
}
330
19DF6
100
AcDbZombieObject
 90
      499
 91
      511
 93
      105
310
903313A324000000000000004000
  0
ACAD_PROXY_OBJECT
  5
19DF9
102
{ACAD_REACTORS
330
19DF6
102
}
330
19DF6
100
AcDbZombieObject
 90
      499
 91
      511
 93
      105
310
903313A344000000000000104000
  0
ACAD_PROXY_OBJECT
  5
19DFA
102
{ACAD_REACTORS
330
19DF6
102
}
330
19DF6
100
AcDbZombieObject
 90
      499
 91
      511
 93
      105
310
903313A354000000000000144000
  0
ACAD_PROXY_OBJECT
  5
19DFB
102
{ACAD_REACTORS
330
19DF6
102
}
330
19DF6
100
AcDbZombieObject
 90
      499
 91
      511
 93
      105
310
903313A384000000000000204000
  0
ACAD_PROXY_OBJECT
  5
19DFC
102
{ACAD_REACTORS
330
19DF6
102
}
330
19DF6
100
AcDbZombieObject
 90
      499
 91
      511
 93
      113
310
904313A31304000000000000244000
  0
ACAD_PROXY_OBJECT
  5
19DFD
102
{ACAD_REACTORS
330
19DF6
102
}
330
19DF6
100
AcDbZombieObject
 90
      499
 91
      511
 93
      113
310
904313A31364000000000000304000
  0
ACAD_PROXY_OBJECT
  5
19DFE
102
{ACAD_REACTORS
330
19DF6
102
}
330
19DF6
100
AcDbZombieObject
 90
      499
 91
      511
 93
      113
310
904313A32304000000000000344000
  0
ACAD_PROXY_OBJECT
  5
19DFF
102
{ACAD_REACTORS
330
19DF6
102
}
330
19DF6
100
AcDbZombieObject
 90
      499
 91
      511
 93
      113
310
904313A333040000000000003E4000
  0
ACAD_PROXY_OBJECT
  5
19E00
102
{ACAD_REACTORS
330
19DF6
102
}
330
19DF6
100
AcDbZombieObject
 90
      499
 91
      511
 93
      113
310
904313A34304000000000000444000
  0
ACAD_PROXY_OBJECT
  5
19E01
102
{ACAD_REACTORS
330
19DF6
102
}
330
19DF6
100
AcDbZombieObject
 90
      499
 91
      511
 93
      113
310
904313A35304000000000000494000
  0
ACAD_PROXY_OBJECT
  5
19E02
102
{ACAD_REACTORS
330
19DF6
102
}
330
19DF6
100
AcDbZombieObject
 90
      499
 91
      511
 93
      121
310
905313A3130304000000000000594000
  0
ACAD_PROXY_OBJECT
  5
19E03
102
{ACAD_REACTORS
330
19DF6
102
}
330
19DF6
100
AcDbZombieObject
 90
      499
 91
      511
 93
      105
310
903323A310000000000000010100
  0
ACAD_PROXY_OBJECT
  5
19E04
102
{ACAD_REACTORS
330
19DF6
102
}
330
19DF6
100
AcDbZombieObject
 90
      499
 91
      511
 93
      105
310
903343A310000000000000410100
  0
ACAD_PROXY_OBJECT
  5
19E05
102
{ACAD_REACTORS
330
19DF6
102
}
330
19DF6
100
AcDbZombieObject
 90
      499
 91
      511
 93
      105
310
903383A310000000000000810100
  0
ACAD_PROXY_OBJECT
  5
19E06
102
{ACAD_REACTORS
330
19DF6
102
}
330
19DF6
100
AcDbZombieObject
 90
      499
 91
      511
 93
      113
310
90431303A310000000000000910100
  0
ACAD_PROXY_OBJECT
  5
19E07
102
{ACAD_REACTORS
330
19DF6
102
}
330
19DF6
100
AcDbZombieObject
 90
      499
 91
      511
 93
      121
310
9053130303A310000000000001650100
  0
ACAD_PROXY_OBJECT
  5
19E08
102
{ACAD_REACTORS
330
19DF6
102
}
330
19DF6
100
AcDbZombieObject
 90
      499
 91
      511
 93
      257
310
90E312F31323822203D2031272D3022000000000000200FC000000000000284000
  0
ACAD_PROXY_OBJECT
  5
19E09
102
{ACAD_REACTORS
330
19DF6
102
}
330
19DF6
100
AcDbZombieObject
 90
      499
 91
      511
 93
      249
310
90D312F363422203D2031272D3022000000000000240FC000000000000284000
  0
ACAD_PROXY_OBJECT
  5
19E0A
102
{ACAD_REACTORS
330
19DF6
102
}
330
19DF6
100
AcDbZombieObject
 90
      499
 91
      511
 93
      249
310
90D312F333222203D2031272D3022000000000000280FC000000000000284000
  0
ACAD_PROXY_OBJECT
  5
19E0B
102
{ACAD_REACTORS
330
19DF6
102
}
330
19DF6
100
AcDbZombieObject
 90
      499
 91
      511
 93
      249
310
90D312F313622203D2031272D30220000000000002C0FC000000000000284000
  0
ACAD_PROXY_OBJECT
  5
19E0C
102
{ACAD_REACTORS
330
19DF6
102
}
330
19DF6
100
AcDbZombieObject
 90
      499
 91
      511
 93
      249
310
90D332F333222203D2031272D30220000000000002E0FC000000000000284000
  0
ACAD_PROXY_OBJECT
  5
19E0D
102
{ACAD_REACTORS
330
19DF6
102
}
330
19DF6
100
AcDbZombieObject
 90
      499
 91
      511
 93
      241
310
90C312F3822203D2031272D3022000000000000300FC000000000000284000
  0
ACAD_PROXY_OBJECT
  5
19E0E
102
{ACAD_REACTORS
330
19DF6
102
}
330
19DF6
100
AcDbZombieObject
 90
      499
 91
      511
 93
      249
310
90D332F313622203D2031272D3022000000000000320FC000000000000284000
  0
ACAD_PROXY_OBJECT
  5
19E0F
102
{ACAD_REACTORS
330
19DF6
102
}
330
19DF6
100
AcDbZombieObject
 90
      499
 91
      511
 93
      241
310
90C312F3422203D2031272D3022000000000000340FC000000000000284000
  0
ACAD_PROXY_OBJECT
  5
19E10
102
{ACAD_REACTORS
330
19DF6
102
}
330
19DF6
100
AcDbZombieObject
 90
      499
 91
      511
 93
      241
310
90C332F3822203D2031272D3022000000000000360FC000000000000284000
  0
ACAD_PROXY_OBJECT
  5
19E11
102
{ACAD_REACTORS
330
19DF6
102
}
330
19DF6
100
AcDbZombieObject
 90
      499
 91
      511
 93
      241
310
90C312F3222203D2031272D3022000000000000380FC000000000000284000
  0
ACAD_PROXY_OBJECT
  5
19E12
102
{ACAD_REACTORS
330
19DF6
102
}
330
19DF6
100
AcDbZombieObject
 90
      499
 91
      511
 93
      241
310
90C332F3422203D2031272D30220000000000003A0FC000000000000284000
  0
ACAD_PROXY_OBJECT
  5
19E13
102
{ACAD_REACTORS
330
19DF6
102
}
330
19DF6
100
AcDbZombieObject
 90
      499
 91
      511
 93
      161
310
90A3122203D2031272D30224000000000000284000
  0
ACAD_PROXY_OBJECT
  5
19E14
102
{ACAD_REACTORS
330
19DF6
102
}
330
19DF6
100
AcDbZombieObject
 90
      499
 91
      511
 93
      257
310
90E312D312F3222203D2031272D30220000000000003E0FC000000000000284000
  0
ACAD_PROXY_OBJECT
  5
19E15
102
{ACAD_REACTORS
330
19DF6
102
}
330
19DF6
100
AcDbZombieObject
 90
      499
 91
      511
 93
      225
310
90A3322203D2031272D302200000000000002100000000000000284000
  0
ACAD_PROXY_OBJECT
  5
19E16
102
{ACAD_REACTORS
330
19DF6
102
}
330
19DF6
100
AcDbZombieObject
 90
      499
 91
      511
 93
      225
310
90A3622203D2031272D302200000000000006100000000000000284000
  0
ACAD_PROXY_OBJECT
  5
19E17
102
{ACAD_REACTORS
330
19DF6
102
}
330
19DF6
100
AcDbZombieObject
 90
      499
 91
      511
 93
      249
310
90D31272D3022203D2031272D30220000000000000A100000000000000284000
  0
ACAD_PROXY_OBJECT
  5
19DEB
102
{ACAD_REACTORS
330
19DE5
102
}
330
19DE5
100
AcDbZombieObject
 90
      499
 91
      510
 93
      436
310
42CC9915DA5C99599C985B595049028333333333333E3BF0000000000000FB0107901411070040501600405405064090741402480A0340
1001
ACAD
1000
AcDbSavedByObjectVersion
1070
     0
  0
ACAD_PROXY_OBJECT
  5
19DED
102
{ACAD_REACTORS
330
19DE5
102
}
330
19DE5
100
AcDbZombieObject
 90
      499
 91
      510
 93
      500
310
424CD108121A5919195B90640502408333333333333E3BF0000000000000FB01079024090700405020000000000001110200405405064090740C02480A0340
1001
ACAD
1000
AcDbSavedByObjectVersion
1070
     0
  0
ACAD_PROXY_OBJECT
  5
19DEC
102
{ACAD_REACTORS
330
19DE5
102
}
330
19DE5
100
AcDbZombieObject
 90
      499
 91
      510
 93
      436
310
42CCD915DA5C99599C985B595059028333333333333E3BF0000000000000FB0107901411070040501600405405064090741402480A0340
1001
ACAD
1000
AcDbSavedByObjectVersion
1070
     0
  0
ACAD_PROXY_OBJECT
  5
19DEA
102
{ACAD_REACTORS
330
19DE5
102
}
330
19DE5
100
AcDbZombieObject
 90
      499
 91
      510
 93
      388
310
4150985CDA58D07406404333333333333E3BF0000000000000FB0107A41107004050150841D405064090741402480A0350
1001
ACAD
1000
AcDbSavedByObjectVersion
1070
     0
  0
ACAD_PROXY_OBJECT
  5
19DF1
102
{ACAD_REACTORS
330
19DE5
102
}
330
19DE5
100
AcDbZombieObject
 90
      499
 91
      510
 93
      428
310
42109C9A59DA1D195B90C409028333333333333E3BF0000000000000FB010790141107004050150841D405064090741402480A029950
1001
ACAD
1000
AcDbSavedByObjectVersion
1070
     0
  0
ACAD_PROXY_OBJECT
  5
19DF5
102
{ACAD_REACTORS
330
19DE5
102
}
330
19DE5
100
AcDbZombieObject
 90
      499
 91
      510
 93
      452
310
42D0DBDB1BDC90DA185B99D95104090240C333333333333E3BF0000000000000FB0108901411070040501508421405064090741402480A0350
1001
ACAD
1000
AcDbSavedByObjectVersion
1070
     0
  0
ACAD_PROXY_OBJECT
  5
19DEE
102
{ACAD_REACTORS
330
19DE5
102
}
330
19DE5
100
AcDbZombieObject
 90
      499
 91
      510
 93
      500
310
4290DBDB98D95C1D1D585B10940D028333333333333E3BF0000000000000FB0107902409070040501000000000000111010841D405064090740C02480A0340
1001
ACAD
1000
AcDbSavedByObjectVersion
1070
     0
  0
ACAD_PROXY_OBJECT
  5
19DF0
102
{ACAD_REACTORS
330
19DE5
102
}
330
19DE5
100
AcDbZombieObject
 90
      499
 91
      510
 93
      412
310
40D11A5B50B409028333333333333E3BF0000000000000FB010790141107004050150841D405064090741402480A02677FFFFFD0
1001
ACAD
1000
AcDbSavedByObjectVersion
1070
     0
  0
ACAD_PROXY_OBJECT
  5
1E02A
102
{ACAD_REACTORS
330
19DE5
102
}
330
19DE5
100
AcDbZombieObject
 90
      499
 91
      510
 93
      452
310
43115919D950DBDB1BDC93D999916409028333333333333E3BF0000000000000FB010790141107004050150841D405064090741402480A0350
1001
ACAD
1000
AcDbSavedByObjectVersion
1070
     0
  0
ACAD_PROXY_OBJECT
  5
19DF4
102
{ACAD_REACTORS
330
19DE5
102
}
330
19DE5
100
AcDbZombieObject
 90
      499
 91
      510
 93
      444
310
42D19858D95C185D1D195C9B90F409028333333333333E3BF0000000000000FB010790141107004050150841D405064090741402480A0350
1001
ACAD
1000
AcDbSavedByObjectVersion
1070
     0
  0
ACAD_PROXY_OBJECT
  5
19DE6
102
{ACAD_REACTORS
330
19DE5
102
}
330
19DE5
100
AcDbZombieObject
 90
      499
 91
      510
 93
      388
310
41119B185D240901404333333333333E3BF0000000000000F9010740A41107004050150841D405064090741402480A1B50
1001
ACAD
1000
AcDbSavedByObjectVersion
1070
     0
  0
ACAD_PROXY_OBJECT
  5
19DE7
102
{ACAD_REACTORS
330
19DE5
102
}
330
19DE5
100
AcDbZombieObject
 90
      499
 91
      510
 93
      476
310
43519B185D15DA5D1A115919D95CD0140901404333333333333E3BF0000000000000F9010740901411070040501600405405064090741402480A1B50
1001
ACAD
1000
AcDbSavedByObjectVersion
1070
     0
  0
ACAD_PROXY_OBJECT
  5
19DE8
102
{ACAD_REACTORS
330
19DE5
102
}
330
19DE5
100
AcDbZombieObject
 90
      499
 91
      510
 93
      412
310
41D1DBDD5C985D5910240902404333333333333E3BF0000000000000F9010740A411070040501641D405064090741402480A1B50
1001
ACAD
1000
AcDbSavedByObjectVersion
1070
     0
  0
ACAD_PROXY_OBJECT
  5
19DE9
102
{ACAD_REACTORS
330
19DE5
102
}
330
19DE5
100
AcDbZombieObject
 90
      499
 91
      510
 93
      500
310
4411DBDD5C985D5915DA5D1A115919D95CD0340902404333333333333E3BF0000000000000F9010740901411070040501600405405064090741402480A1B50
1001
ACAD
1000
AcDbSavedByObjectVersion
1070
     0
  0
ACAD_PROXY_OBJECT
  5
1FDB3
102
{ACAD_REACTORS
330
19DE5
102
}
330
19DE5
100
AcDbZombieObject
 90
      499
 91
      510
 93
      476
310
41921A5919195B90640502408333333333333E33F0000000000000F901079024090700405020000000000001110200405405064090740C02480A0340
1001
ACAD
1000
AcDbSavedByObjectVersion
1070
     0
  0
ACAD_PROXY_OBJECT
  5
1E028
102
{ACAD_REACTORS
330
19DE5
102
}
330
19DE5
100
AcDbZombieObject
 90
      499
 91
      510
 93
      428
310
42529A5D1D195C93D999914409028333333333333E3BF0000000000000FB010790141107004050150A41D405064090741402480A0350
1001
ACAD
1000
AcDbSavedByObjectVersion
1070
     0
  0
ACAD_PROXY_OBJECT
  5
19DF3
102
{ACAD_REACTORS
330
19DE5
102
}
330
19DE5
100
AcDbZombieObject
 90
      499
 91
      510
 93
      444
310
42D31A5B995C185D1D195C9B90E409028333333333333E3BF0000000000000FB010790141107004050750841D405064090741402483A0350
1001
ACAD
1000
AcDbSavedByObjectVersion
1070
     0
  0
ACAD_PROXY_OBJECT
  5
1FDB9
102
{ACAD_REACTORS
330
19DE5
102
}
330
19DE5
100
AcDbZombieObject
 90
      499
 91
      510
 93
      484
310
42135BD9195B1A5B99D0A409038333333333333E33F0000000000000F901074090290700405010000000000201990108421405064090741402480A1B40
1001
ACAD
1000
AcDbSavedByObjectVersion
1070
     0
  0
ACAD_PROXY_OBJECT
  5
1E029
102
{ACAD_REACTORS
330
19DE5
102
}
330
19DE5
100
AcDbZombieObject
 90
      499
 91
      510
 93
      444
310
42D3DD995C9A185B99D3D999915409028333333333333E3BF0000000000000FB010790141107004050150941D405064090741402480A0350
1001
ACAD
1000
AcDbSavedByObjectVersion
1070
     0
  0
ACAD_PROXY_OBJECT
  5
19DEF
102
{ACAD_REACTORS
330
19DE5
102
}
330
19DE5
100
AcDbZombieObject
 90
      499
 91
      510
 93
      420
310
425499585B1A5CDD1A58D08409028333333333333E3BF0000000000000FB01079019070040501508421405064090741402480A1B40
1001
ACAD
1000
AcDbSavedByObjectVersion
1070
     0
  0
ACAD_PROXY_OBJECT
  5
1FDB8
102
{ACAD_REACTORS
330
19DE5
102
}
330
19DE5
100
AcDbZombieObject
 90
      499
 91
      510
 93
      420
310
4194DA1859195911B40902404333333333333E33F0000000000000F9010740A41107004050150800405405064090840C02480A0B40
1001
ACAD
1000
AcDbSavedByObjectVersion
1070
     0
  0
ACAD_PROXY_OBJECT
  5
1FDB7
102
{ACAD_REACTORS
330
19DE5
102
}
330
19DE5
100
AcDbZombieObject
 90
      499
 91
      510
 93
      516
310
4454DA18591959081DDA5D1A08195919D95CD1A40902404333333333333E33F0000000000000F901074090142907004050250800405405064090740C02480A0B40
1001
ACAD
1000
AcDbSavedByObjectVersion
1070
     0
  0
ACAD_PROXY_OBJECT
  5
1FDB4
102
{ACAD_REACTORS
330
19DE5
102
}
330
19DE5
100
AcDbZombieObject
 90
      499
 91
      510
 93
      532
310
4394DA1859195CC81BD98811DC985E5174090240C333333333333E33F0000000000000F901079024090741D01000000000000111010841D405064090740C02480A0340
1001
ACAD
1000
AcDbSavedByObjectVersion
1070
     0
  0
ACAD_PROXY_OBJECT
  5
1FDB5
102
{ACAD_REACTORS
330
19DE5
102
}
330
19DE5
100
AcDbZombieObject
 90
      499
 91
      510
 93
      476
310
41D4DAD95D18DA1E51840502408333333333333E33F0000000000000F901079024090741D01000000000000111010B41D405064090741802480A0340
1001
ACAD
1000
AcDbSavedByObjectVersion
1070
     0
  0
ACAD_PROXY_OBJECT
  5
19DF2
102
{ACAD_REACTORS
330
19DE5
102
}
330
19DE5
100
AcDbZombieObject
 90
      499
 91
      510
 93
      412
310
41D51A1A58DAD95B90D409028333333333333E3BF0000000000000FB010790141107004050150C41D405064090741402480A0350
1001
ACAD
1000
AcDbSavedByObjectVersion
1070
     0
  0
ACAD_PROXY_OBJECT
  5
1FDB2
102
{ACAD_REACTORS
330
19DE5
102
}
330
19DE5
100
AcDbZombieObject
 90
      499
 91
      510
 93
      420
310
4255DA5C99599C985B595059028333333333333E33F0000000000000F90107901411070040501600405405064090740C02480A0340
1001
ACAD
1000
AcDbSavedByObjectVersion
1070
     0
  0
ACAD_PROXY_OBJECT
  5
1FDB6
102
{ACAD_REACTORS
330
19DE5
102
}
330
19DE5
100
AcDbZombieObject
 90
      499
 91
      510
 93
      404
310
41560B54985E51940902404000000000000E03F0000000000000F9010740501907004050150841D405064090740C02480A1B40
1001
ACAD
1000
AcDbSavedByObjectVersion
1070
     0
  0
XRECORD
  5
20766
102
{ACAD_REACTORS
330
20765
102
}
330
20765
100
AcDbXrecord
340
2D0
  0
XRECORD
  5
20767
102
{ACAD_REACTORS
330
20765
102
}
330
20765
100
AcDbXrecord
340
2CF
  0
DICTIONARYVAR
  5
1AC1A
102
{ACAD_REACTORS
330
37
102
}
330
37
100
DictionaryVariables
280
     0
  1
1:1
  0
DICTIONARYVAR
  5
1AC19
102
{ACAD_REACTORS
330
37
102
}
330
37
100
DictionaryVariables
280
     0
  1
Standard
  0
DICTIONARYVAR
  5
4F1
102
{ACAD_REACTORS
330
37
102
}
330
37
100
DictionaryVariables
280
     0
  1
Standard
  0
DICTIONARYVAR
  5
38
102
{ACAD_REACTORS
330
37
102
}
330
37
100
DictionaryVariables
280
     0
  1
-1
  0
DICTIONARYVAR
  5
408
102
{ACAD_REACTORS
330
37
102
}
330
37
100
DictionaryVariables
280
     0
  1
2
  0
DICTIONARYVAR
  5
1891
102
{ACAD_REACTORS
330
37
102
}
330
37
100
DictionaryVariables
280
     0
  1
1
  0
DICTIONARYVAR
  5
1AC1C
102
{ACAD_REACTORS
330
37
102
}
330
37
100
DictionaryVariables
280
     0
  1
0
  0
DICTIONARYVAR
  5
1895
102
{ACAD_REACTORS
330
37
102
}
330
37
100
DictionaryVariables
280
     0
  1
8
  0
DICTIONARYVAR
  5
1894
102
{ACAD_REACTORS
330
37
102
}
330
37
100
DictionaryVariables
280
     0
  1
1
  0
DICTIONARYVAR
  5
205DB
102
{ACAD_REACTORS
330
37
102
}
330
37
100
DictionaryVariables
280
     0
  1
0
  0
DICTIONARYVAR
  5
1892
102
{ACAD_REACTORS
330
37
102
}
330
37
100
DictionaryVariables
280
     0
  1
8
  0
DICTIONARYVAR
  5
1893
102
{ACAD_REACTORS
330
37
102
}
330
37
100
DictionaryVariables
280
     0
  1
2
  0
DICTIONARYVAR
  5
409
102
{ACAD_REACTORS
330
37
102
}
330
37
100
DictionaryVariables
280
     0
  1

  0
DICTIONARYVAR
  5
1AC1B
102
{ACAD_REACTORS
330
37
102
}
330
37
100
DictionaryVariables
280
     0
  1
127
  0
DICTIONARYVAR
  5
1FDB1
102
{ACAD_REACTORS
330
37
102
}
330
37
100
DictionaryVariables
280
     0
  1
2
  0
ACAD_PROXY_OBJECT
  5
1FD19
102
{ACAD_REACTORS
330
18FE9
102
}
102
{ACAD_XDICTIONARY
360
1FD1A
102
}
330
18FE9
100
AcDbZombieObject
 90
      499
 91
      518
 93
    15578
310
25C1C00016C005C080000B404000098880400B804200098C541210539513D352807EA5C000000000001680024000000F8001C01C807F7FD2C045000000000000000040010009A41197CDD28078418000000000001680024000000F8001C01C807F7FD2C045000000000000000040010009A41197CDD2807801800000000000
310
1680024000000F8001C01C807F7FD2C045000000000000000040010009A41197CDD28077C18000000000001680024000000F8037401C807F7FD2C078818000000000000040018009A41197CC8C8C528077818000000000001680024000000F8001C01C807F7FD2C045000000000000000040010009A41197CDD28077418000
310
000000001680024000000F803F001C807F7FD2C045000000000000000040018009A41197CC8D4C92806EC10000000000001680024000000F8037401C807F7FD2C05A800000000000000040018009A41197CC8C8C52804E80C000000000001680004000000F8000401C807F7FD2C05D008000000000000040010009A41197CC
310
52805DC08000000000001680024000000F8002001C807F7FD2C045000000000000000040010009A41197CE12805D808000000000001680024000000F803F001C807F7FD2C045000000000000000040018009A41197CC8D4C92805D408000000000001680024000000F8002401C807F7FD2C045000000000000000040010009
310
A41197CE52805CC08000000000001680024000000F8001C01C807F7FD2C045000000000000000040010009A41197CDD2805C808000000000001680024000000F8001C01C807F7FD2C057008000000000000040010009A41197CDD2805C408000000000001680024000000F8001C01C807F7FD2C056C0800000000000004001
310
0009A41197CDD2805C008000000000001680024000000F8001C01C807F7FD2C056808000000000000040010009A41197CDD2805BC08000000000001680024000000F8001C01C807F7FD2C056408000000000000040010009A41197CDD2805B808000000000001680024000000F8001C01C807F7FD2C0560080000000000000
310
40010009A41197CDD2805B408000000000001680024000000F8002001C807F7FD2C045000000000000000040010009A41197CE12805B008000000000001680024000000F8002001C807F7FD2C045000000000000000040010009A41197CE12805AC08000000000001680024000000F8002001C807F7FD2C045000000000000
310
000040010009A41197CE12805A808000000000001680024000000F8002001C807F7FD2C045000000000000000040010009A41197CE12805A408000000000001680024000000F8001C01C807F7FD2C045000000000000000040010009A41197CDD2805A008000000000001680024000000F8035401C807F7FD2C04500000000
310
0000000040018009A41197CC8C4CD28059C08000000000001680024000000F8003C01C807F7FD2C045000000000000000040014009A41197CC4D528059808000000000001680024000000F8017C01C807F7FD2C045000000000000000040014009A41197CE4D528059408000000000001680024000000F8023C01C807F7FD2
310
C045000000000000000040018009A41197CC4D0CD28059008000000000001680024000000F8001801C807F7FD2C045000000000000000040010009A41197CD928058C08000000000001680024000000F8001401C807F7FD2C045000000000000000040010009A41197CD528058808000000000001680024000000F8001001C
310
807F7FD2C045000000000000000040010009A41197CD128058408000000000001680024000000F8000C01C807F7FD2C045000000000000000040010009A41197CCD28058008000000000001680024000000F8000801C807F7FD2C045000000000000000040010009A41197CC928057C08000000000001680020000000F8000
310
401C807F7FD2C045000000000000000040010009A41197CC528055408000000000001680024000000F8001C01C807F7FD2C057408000000000000040010009A41197CDD28040C04000000000001680020000000F803F801C807F7FD2C040004000000000000040018009A41197CC8D4D128040804000000000001680024000
310
000F8002001C807F7FD2C07FC00000000000000040010009A41197CE128040404000000000001680024000000F8002001C807F7FD2C045000000000000000040010009A41197CE128069000000000000001680024000000F8001C01C807F7FD2C045000000000000000040010009A41197CDD2805800000000000000168000
310
4000000F8001C01C807F7FD2C045000000000000000040010009A41197CDD2804D000000000000001680024000000F803F401C807F7FD2C045000000000000000040018009A41197CC8D4CD2804CC00000000000001680024000000F8000401C807F7FD2C045000000000000000040010009A41197CC52804C800000000000
310
001680024000000F8037401C807F7FD2C045000000000000000040018009A41197CC8C8C52804C400000000000001680024000000F8032401C807F7FD2C045000000000000000040018009A41197CC8C0C52804A400000000000001680020000000F8037401C807F7FD2C045000000000000000040018009A41197CC8C8C52
310
8043800000000000001680024000000F8001C01C807F7FD2C045000000000000000040010009A41197CDC0
  0
DICTIONARY
  5
20903
330
19DD5
100
AcDbDictionary
  3
ACAD_XREC_ROUNDTRIP
360
20904
1001
ACAD
1000
TREAT_AS_HARD
1070
     1
  0
DICTIONARY
  5
20905
330
19DCD
100
AcDbDictionary
  3
ACAD_XREC_ROUNDTRIP
360
20906
1001
ACAD
1000
TREAT_AS_HARD
1070
     1
  0
DICTIONARY
  5
20907
330
19DDD
100
AcDbDictionary
  3
ACAD_XREC_ROUNDTRIP
360
20908
1001
ACAD
1000
TREAT_AS_HARD
1070
     1
  0
DICTIONARY
  5
1FD1A
330
1FD19
100
AcDbDictionary
  3
ACADLAYERSTATEANNOSCALE
360
1FD1B
1001
ACAD
1000
TREAT_AS_HARD
1070
     1
  0
XRECORD
  5
20904
102
{ACAD_REACTORS
330
20903
102
}
330
20903
100
AcDbXrecord
102
MATERIAL
148
0.0
149
0.0
149
0.0
 93
        0
 94
      127
282
     0
 72
     0
 77
     0
171
     0
175
     0
179
     0
273
     0
  0
XRECORD
  5
20906
102
{ACAD_REACTORS
330
20905
102
}
330
20905
100
AcDbXrecord
102
MATERIAL
148
0.0
149
0.0
149
0.0
 93
        0
 94
      127
282
     0
 72
     0
 77
     0
171
     0
175
     0
179
     0
273
     0
  0
XRECORD
  5
20908
102
{ACAD_REACTORS
330
20907
102
}
330
20907
100
AcDbXrecord
102
MATERIAL
148
0.0
149
0.0
149
0.0
 93
        0
 94
      127
282
     0
 72
     0
 77
     0
171
     0
175
     0
179
     0
273
     0
  0
XRECORD
  5
1FD1B
102
{ACAD_REACTORS
330
1FD1A
102
}
330
1FD1A
100
AcDbXrecord
330
19DF7
  0
ENDSEC
  0
EOF
