  0
SECTION
  2
HEADER
  9
$ACADVER
  1
AC1012
  9
$DWGCODEPAGE
  3
ansi_932
  9
$INSBASE
 10
0.0
 20
0.0
 30
0.0
  9
$EXTMIN
 10
158.0162267609558
 20
-743.567039652224
 30
0.0
  9
$EXTMAX
 10
795.516241615365
 20
-496.6164692401553
 30
0.0
  9
$LIMMIN
 10
0.0
 20
0.0
  9
$LIMMAX
 10
420.0
 20
297.0
  9
$ORTHOMODE
 70
     0
  9
$REGENMODE
 70
     1
  9
$FILLMODE
 70
     1
  9
$QTEXTMODE
 70
     0
  9
$MIRRTEXT
 70
     0
  9
$DRAGMODE
 70
     2
  9
$LTSCALE
 40
0.5
  9
$OSMODE
 70
 14463
  9
$ATTMODE
 70
     1
  9
$TEXTSIZE
 40
4.0
  9
$TRACEWID
 40
1.0
  9
$TEXTSTYLE
  7
STANDARD
  9
$CLAYER
  8
1TEXT
  9
$CELTYPE
  6
BYLAYER
  9
$CECOLOR
 62
   256
  9
$CELTSCALE
 40
1.0
  9
$DELOBJ
 70
     1
  9
$DISPSILH
 70
     0
  9
$DIMSCALE
 40
1.0
  9
$DIMASZ
 40
2.0
  9
$DIMEXO
 40
0.0
  9
$DIMDLI
 40
7.0
  9
$DIMRND
 40
0.0
  9
$DIMDLE
 40
0.0
  9
$DIMEXE
 40
1.0
  9
$DIMTP
 40
0.0
  9
$DIMTM
 40
0.0
  9
$DIMTXT
 40
3.5
  9
$DIMCEN
 40
0.0
  9
$DIMTSZ
 40
0.0
  9
$DIMTOL
 70
     0
  9
$DIMLIM
 70
     0
  9
$DIMTIH
 70
     0
  9
$DIMTOH
 70
     0
  9
$DIMSE1
 70
     0
  9
$DIMSE2
 70
     0
  9
$DIMTAD
 70
     1
  9
$DIMZIN
 70
     8
  9
$DIMBLK
  1

  9
$DIMASO
 70
     1
  9
$DIMSHO
 70
     1
  9
$DIMPOST
  1
 
  9
$DIMAPOST
  1

  9
$DIMALT
 70
     0
  9
$DIMALTD
 70
     2
  9
$DIMALTF
 40
25.4
  9
$DIMLFAC
 40
1.0
  9
$DIMTOFL
 70
     1
  9
$DIMTVP
 40
0.0
  9
$DIMTIX
 70
     0
  9
$DIMSOXD
 70
     0
  9
$DIMSAH
 70
     1
  9
$DIMBLK1
  1
OPEN30
  9
$DIMBLK2
  1
OPEN30
  9
$DIMSTYLE
  2
NEWX10
  9
$DIMCLRD
 70
   256
  9
$DIMCLRE
 70
   256
  9
$DIMCLRT
 70
   201
  9
$DIMTFAC
 40
0.7
  9
$DIMGAP
 40
0.7
  9
$DIMJUST
 70
     0
  9
$DIMSD1
 70
     0
  9
$DIMSD2
 70
     0
  9
$DIMTOLJ
 70
     1
  9
$DIMTZIN
 70
     8
  9
$DIMALTZ
 70
     0
  9
$DIMALTTZ
 70
     0
  9
$DIMFIT
 70
     2
  9
$DIMUPT
 70
     0
  9
$DIMUNIT
 70
     2
  9
$DIMDEC
 70
     2
  9
$DIMTDEC
 70
     4
  9
$DIMALTU
 70
     2
  9
$DIMALTTD
 70
     2
  9
$DIMTXSTY
  7
STANDARD
  9
$DIMAUNIT
 70
     0
  9
$LUNITS
 70
     2
  9
$LUPREC
 70
     4
  9
$SKETCHINC
 40
1.0
  9
$FILLETRAD
 40
0.0
  9
$AUNITS
 70
     0
  9
$AUPREC
 70
     2
  9
$MENU
  1
acad
  9
$ELEVATION
 40
0.0
  9
$PELEVATION
 40
0.0
  9
$THICKNESS
 40
0.0
  9
$LIMCHECK
 70
     0
  9
$CHAMFERA
 40
1.0
  9
$CHAMFERB
 40
1.0
  9
$CHAMFERC
 40
20.0
  9
$CHAMFERD
 40
0.0
  9
$SKPOLY
 70
     0
  9
$TDCREATE
 40
2453033.732663484
  9
$TDUPDATE
 40
2458129.497948206
  9
$TDINDWG
 40
2.5427726505
  9
$TDUSRTIMER
 40
2.5427726505
  9
$USRTIMER
 70
     1
  9
$ANGBASE
 50
0.0
  9
$ANGDIR
 70
     0
  9
$PDMODE
 70
     0
  9
$PDSIZE
 40
0.0
  9
$PLINEWID
 40
0.0
  9
$COORDS
 70
     2
  9
$SPLFRAME
 70
     0
  9
$SPLINETYPE
 70
     6
  9
$SPLINESEGS
 70
     8
  9
$ATTDIA
 70
     0
  9
$ATTREQ
 70
     1
  9
$HANDLING
 70
     1
  9
$HANDSEED
  5
22C13
  9
$SURFTAB1
 70
     6
  9
$SURFTAB2
 70
     6
  9
$SURFTYPE
 70
     6
  9
$SURFU
 70
     6
  9
$SURFV
 70
     6
  9
$UCSNAME
  2

  9
$UCSORG
 10
0.0
 20
0.0
 30
0.0
  9
$UCSXDIR
 10
1.0
 20
0.0
 30
0.0
  9
$UCSYDIR
 10
0.0
 20
1.0
 30
0.0
  9
$PUCSNAME
  2

  9
$PUCSORG
 10
0.0
 20
0.0
 30
0.0
  9
$PUCSXDIR
 10
1.0
 20
0.0
 30
0.0
  9
$PUCSYDIR
 10
0.0
 20
1.0
 30
0.0
  9
$USERI1
 70
     0
  9
$USERI2
 70
     0
  9
$USERI3
 70
     0
  9
$USERI4
 70
     0
  9
$USERI5
 70
     0
  9
$USERR1
 40
0.0
  9
$USERR2
 40
0.0
  9
$USERR3
 40
0.0
  9
$USERR4
 40
0.0
  9
$USERR5
 40
0.0
  9
$WORLDVIEW
 70
     1
  9
$SHADEDGE
 70
     3
  9
$SHADEDIF
 70
    70
  9
$TILEMODE
 70
     1
  9
$MAXACTVP
 70
    48
  9
$PINSBASE
 10
0.0
 20
0.0
 30
0.0
  9
$PLIMCHECK
 70
     0
  9
$PEXTMIN
 10
1.000000000000000E+20
 20
1.000000000000000E+20
 30
1.000000000000000E+20
  9
$PEXTMAX
 10
-1.000000000000000E+20
 20
-1.000000000000000E+20
 30
-1.000000000000000E+20
  9
$PLIMMIN
 10
0.0
 20
0.0
  9
$PLIMMAX
 10
420.0
 20
297.0
  9
$UNITMODE
 70
     0
  9
$VISRETAIN
 70
     1
  9
$PLINEGEN
 70
     0
  9
$PSLTSCALE
 70
     1
  9
$TREEDEPTH
 70
  3020
  9
$PICKSTYLE
 70
     0
  9
$CMLSTYLE
  2
STANDARD
  9
$CMLJUST
 70
     0
  9
$CMLSCALE
 40
20.0
  9
$SAVEIMAGES
 70
     1
  0
ENDSEC
  0
SECTION
  2
CLASSES
  0
CLASS
  1
DICTIONARYVAR
  2
AcDbDictionaryVar
  3
ObjectDBX Classes
 90
        0
280
     0
281
     0
  0
CLASS
  1
IDBUFFER
  2
AcDbIdBuffer
  3
ObjectDBX Classes
 90
    32768
280
     0
281
     0
  0
CLASS
  1
LWPOLYLINE
  2
AcDbPolyline
  3
ObjectDBX Classes
 90
    32768
280
     0
281
     1
  0
CLASS
  1
ACDBDICTIONARYWDFLT
  2
AcDbDictionaryWithDefault
  3
ObjectDBX Classes
 90
    32768
280
     0
281
     0
  0
CLASS
  1
ACDBPLACEHOLDER
  2
AcDbPlaceHolder
  3
ObjectDBX Classes
 90
        0
280
     0
281
     0
  0
CLASS
  1
LAYOUT
  2
AcDbLayout
  3
ObjectDBX Classes
 90
        0
280
     0
281
     0
  0
CLASS
  1
TABLESTYLE
  2
AcDbTableStyle
  3
ObjectDBX Classes
 90
     4095
280
     0
281
     0
  0
CLASS
  1
SORTENTSTABLE
  2
AcDbSortentsTable
  3
ObjectDBX Classes
 90
    32768
280
     0
281
     0
  0
CLASS
  1
DIMASSOC
  2
AcDbDimAssoc
  3
"AcDbDimAssoc|Product Desc:     AcDim ARX App For Dimension|Company:          Autodesk, Inc.|WEB Address:      www.autodesk.com"
 90
        0
280
     0
281
     0
  0
CLASS
  1
MATERIAL
  2
AcDbMaterial
  3
ObjectDBX Classes
 90
     1153
280
     0
281
     0
  0
CLASS
  1
VISUALSTYLE
  2
AcDbVisualStyle
  3
ObjectDBX Classes
 90
     4095
280
     0
281
     0
  0
CLASS
  1
SCALE
  2
AcDbScale
  3
ObjectDBX Classes
 90
     1153
280
     0
281
     0
  0
CLASS
  1
MLEADERSTYLE
  2
AcDbMLeaderStyle
  3
ACDB_MLEADERSTYLE_CLASS
 90
     4095
280
     0
281
     0
  0
CLASS
  1
CELLSTYLEMAP
  2
AcDbCellStyleMap
  3
ObjectDBX Classes
 90
     1152
280
     0
281
     0
  0
CLASS
  1
EXACXREFPANELOBJECT
  2
ExAcXREFPanelObject
  3
EXAC_ESW
 90
     1025
280
     1
281
     0
  0
CLASS
  1
NPOCOLLECTION
  2
AcDbImpNonPersistentObjectsCollection
  3
ObjectDBX Classes
 90
     1153
280
     1
281
     0
  0
CLASS
  1
AEC_REFEDIT_STATUS_TRACKER
  2
AecDbRefEditStatusTracker
  3
AecArchBase60|Product Desc: Autodesk Architectural Desktop 2007 |Company: Autodesk,Inc. |WEB Address: www.autodesk.com
 90
      129
280
     1
281
     0
  0
CLASS
  1
SUN
  2
AcDbSun
  3
SCENEOE
 90
     1153
280
     0
281
     0
  0
CLASS
  1
XRECORD
  2
AcDbXrecord
  3
ObjectDBX Classes
 90
    32768
280
     0
281
     0
  0
CLASS
  1
HATCH
  2
AcDbHatch
  3
ObjectDBX Classes
 90
    32768
280
     0
281
     1
  0
ENDSEC
  0
SECTION
  2
TABLES
  0
TABLE
  2
VPORT
  5
8
330
0
100
AcDbSymbolTable
 70
     1
  0
VPORT
  5
19DC2
330
8
100
AcDbSymbolTableRecord
100
AcDbViewportTableRecord
  2
*ACTIVE
 70
     0
 10
0.0
 20
0.0
 11
1.0
 21
1.0
 12
476.7662341881603
 22
-620.0917544461896
 13
0.0
 23
0.0
 14
10.0
 24
10.0
 15
10.0
 25
10.0
 16
0.0
 26
0.0
 36
1.0
 17
0.0
 27
0.0
 37
0.0
 40
306.4191852220754
 41
2.233782129742962
 42
50.0
 43
0.0
 44
0.0
 50
0.0
 51
0.0
 71
    16
 72
   100
 73
     1
 74
     1
 75
     0
 76
     0
 77
     0
 78
     0
1001
ACAD_NAV_VCDISPLAY
1070
     3
  0
ENDTAB
  0
TABLE
  2
LTYPE
  5
5
330
0
100
AcDbSymbolTable
 70
     3
  0
LTYPE
  5
12
330
5
100
AcDbSymbolTableRecord
100
AcDbLinetypeTableRecord
  2
BYBLOCK
 70
     0
  3

 72
    65
 73
     0
 40
0.0
  0
LTYPE
  5
13
330
5
100
AcDbSymbolTableRecord
100
AcDbLinetypeTableRecord
  2
BYLAYER
 70
     0
  3

 72
    65
 73
     0
 40
0.0
  0
LTYPE
  5
14
330
5
100
AcDbSymbolTableRecord
100
AcDbLinetypeTableRecord
  2
CONTINUOUS
 70
     0
  3
Solid line
 72
    65
 73
     0
 40
0.0
  0
LTYPE
  5
26
330
5
100
AcDbSymbolTableRecord
100
AcDbLinetypeTableRecord
  2
CENTER2
 70
     0
  3
Center (.5x) ___ _ ___ _ ___ _ ___ _ ___ _ ___
 72
    65
 73
     4
 40
28.575
 49
19.05
 74
     0
 49
-3.175
 74
     0
 49
3.175
 74
     0
 49
-3.175
 74
     0
  0
LTYPE
  5
100
330
5
100
AcDbSymbolTableRecord
100
AcDbLinetypeTableRecord
  2
PHANTOM2
 70
     0
  3
Phantom (0.5x) ___ _ _ ___ _ _ ___ _ _ ___ _ _
 72
    65
 73
     6
 40
31.75
 49
15.875
 74
     0
 49
-3.175
 74
     0
 49
3.175
 74
     0
 49
-3.175
 74
     0
 49
3.175
 74
     0
 49
-3.175
 74
     0
  0
ENDTAB
  0
TABLE
  2
LAYER
  5
2
102
{ACAD_XDICTIONARY
360
18FE8
102
}
330
0
100
AcDbSymbolTable
 70
     8
  0
LAYER
  5
E
102
{ACAD_XDICTIONARY
360
1A20A
102
}
330
2
100
AcDbSymbolTableRecord
100
AcDbLayerTableRecord
  2
0
 70
     0
 62
     7
  6
CONTINUOUS
  0
LAYER
  5
29
102
{ACAD_XDICTIONARY
360
1A20C
102
}
330
2
100
AcDbSymbolTableRecord
100
AcDbLayerTableRecord
  2
1CENTER
 70
     0
 62
     7
  6
CENTER2
  0
LAYER
  5
31
102
{ACAD_XDICTIONARY
360
1A20E
102
}
330
2
100
AcDbSymbolTableRecord
100
AcDbLayerTableRecord
  2
1TEXT
 70
     0
 62
     7
  6
CONTINUOUS
  0
LAYER
  5
101
102
{ACAD_XDICTIONARY
360
1A218
102
}
330
2
100
AcDbSymbolTableRecord
100
AcDbLayerTableRecord
  2
1DIM
 70
     0
 62
     7
  6
CONTINUOUS
  0
LAYER
  5
103
102
{ACAD_XDICTIONARY
360
1A21C
102
}
330
2
100
AcDbSymbolTableRecord
100
AcDbLayerTableRecord
  2
1PHANTOM
 70
     0
 62
     7
  6
PHANTOM2
  0
LAYER
  5
25F
102
{ACAD_XDICTIONARY
360
1A220
102
}
330
2
100
AcDbSymbolTableRecord
100
AcDbLayerTableRecord
  2
01
 70
     0
 62
     1
  6
CONTINUOUS
  0
LAYER
  5
26A
102
{ACAD_XDICTIONARY
360
1A236
102
}
330
2
100
AcDbSymbolTableRecord
100
AcDbLayerTableRecord
  2
1DIM1
 70
     0
 62
     7
  6
CONTINUOUS
  0
LAYER
  5
26D
102
{ACAD_XDICTIONARY
360
1A23C
102
}
330
2
100
AcDbSymbolTableRecord
100
AcDbLayerTableRecord
  2
1HATCH
 70
     0
 62
     7
  6
CONTINUOUS
  0
ENDTAB
  0
TABLE
  2
STYLE
  5
3
330
0
100
AcDbSymbolTable
 70
     1
  0
STYLE
  5
F
330
3
100
AcDbSymbolTableRecord
100
AcDbTextStyleTableRecord
  2
STANDARD
 70
     0
 40
0.0
 41
1.0
 50
0.0
 71
     0
 42
4.0
  3
txt.shx
  4
extfont.shx
  0
ENDTAB
  0
TABLE
  2
VIEW
  5
6
330
0
100
AcDbSymbolTable
 70
     0
  0
ENDTAB
  0
TABLE
  2
UCS
  5
7
330
0
100
AcDbSymbolTable
 70
     0
  0
ENDTAB
  0
TABLE
  2
APPID
  5
9
330
0
100
AcDbSymbolTable
 70
    17
  0
APPID
  5
10
330
9
100
AcDbSymbolTableRecord
100
AcDbRegAppTableRecord
  2
ACAD
 70
     0
  0
APPID
  5
21
330
9
100
AcDbSymbolTableRecord
100
AcDbRegAppTableRecord
  2
DRAWINGVARIABLESXDATA
 70
     0
  0
APPID
  5
64
330
9
100
AcDbSymbolTableRecord
100
AcDbRegAppTableRecord
  2
CONTENTTABDATA
 70
     0
  0
APPID
  5
65
330
9
100
AcDbSymbolTableRecord
100
AcDbRegAppTableRecord
  2
CONTENTCURRENTTAB
 70
     0
  0
APPID
  5
66
330
9
100
AcDbSymbolTableRecord
100
AcDbRegAppTableRecord
  2
CONTENTBLOCKDESCRIPTION
 70
     0
  0
APPID
  5
67
330
9
100
AcDbSymbolTableRecord
100
AcDbRegAppTableRecord
  2
CONTENTBLOCKICON
 70
     0
  0
APPID
  5
68
330
9
100
AcDbSymbolTableRecord
100
AcDbRegAppTableRecord
  2
CONTENTLONGBLOCKNAME
 70
     0
  0
APPID
  5
5A9
330
9
100
AcDbSymbolTableRecord
100
AcDbRegAppTableRecord
  2
ACAD_PSEXT
 70
     0
  0
APPID
  5
18AC
330
9
100
AcDbSymbolTableRecord
100
AcDbRegAppTableRecord
  2
ACAD_DSTYLE_DIMTEXT_FILL
 70
     0
  0
APPID
  5
19E1A
330
9
100
AcDbSymbolTableRecord
100
AcDbRegAppTableRecord
  2
ACAD_MLEADERVER
 70
     0
  0
APPID
  5
1A2FA
330
9
100
AcDbSymbolTableRecord
100
AcDbRegAppTableRecord
  2
ACAD_DSTYLE_DIMRADIAL_EXTE
 70
     0
  0
APPID
  5
1DBC1
330
9
100
AcDbSymbolTableRecord
100
AcDbRegAppTableRecord
  2
ACADANNOTATIVE
 70
     0
  0
APPID
  5
1E991
330
9
100
AcDbSymbolTableRecord
100
AcDbRegAppTableRecord
  2
ACAD_EXEMPT_FROM_CAD_STAND
 70
     0
  0
APPID
  5
21A21
330
9
100
AcDbSymbolTableRecord
100
AcDbRegAppTableRecord
  2
ACAD_NAV_VCDISPLAY
 70
     0
  0
APPID
  5
226C2
330
9
100
AcDbSymbolTableRecord
100
AcDbRegAppTableRecord
  2
ACDBBLOCKREPETAG
 70
     0
  0
APPID
  5
226C3
330
9
100
AcDbSymbolTableRecord
100
AcDbRegAppTableRecord
  2
ACAD_DSTYLE_DIMJAG
 70
     0
  0
APPID
  5
226C4
330
9
100
AcDbSymbolTableRecord
100
AcDbRegAppTableRecord
  2
ACAD_DSTYLE_DIMTALN
 70
     0
  0
ENDTAB
  0
TABLE
  2
DIMSTYLE
  5
A
330
0
100
AcDbSymbolTable
 70
     2
  0
DIMSTYLE
105
48
330
A
100
AcDbSymbolTableRecord
100
AcDbDimStyleTableRecord
  2
NEWX10
 70
     0
  3
 
  4

  5

  6
OPEN30
  7
OPEN30
 40
1.0
 41
2.0
 42
0.0
 43
7.0
 44
1.0
 45
0.0
 46
0.0
 47
0.0
 48
0.0
140
3.5
141
0.0
142
0.0
143
25.4
144
1.0
145
0.0
146
0.7
147
0.7
 71
     0
 72
     0
 73
     0
 74
     0
 75
     0
 76
     0
 77
     1
 78
     8
170
     0
171
     2
172
     1
173
     1
174
     0
175
     0
176
   256
177
   256
178
   201
179
     2
270
     2
271
     2
272
     4
273
     2
274
     2
340
F
275
     0
280
     0
281
     0
282
     0
283
     1
284
     8
285
     0
286
     0
287
     2
288
     0
  0
DIMSTYLE
105
1F415
330
A
100
AcDbSymbolTableRecord
100
AcDbDimStyleTableRecord
  2
ISO-25
 70
     0
  3

  4

  5

  6

  7

 40
1.0
 41
2.5
 42
0.625
 43
3.75
 44
1.25
 45
0.0
 46
0.0
 47
0.0
 48
0.0
140
2.5
141
2.5
142
0.0
143
0.03937007874016
144
1.0
145
0.0
146
1.0
147
0.625
 71
     0
 72
     0
 73
     0
 74
     0
 75
     0
 76
     0
 77
     1
 78
     8
170
     0
171
     3
172
     1
173
     0
174
     0
175
     0
176
     0
177
     0
178
     0
270
     2
271
     2
272
     2
273
     2
274
     3
340
F
275
     0
280
     0
281
     0
282
     0
283
     0
284
     8
285
     0
286
     0
287
     3
288
     0
  0
ENDTAB
  0
TABLE
  2
BLOCK_RECORD
  5
1
330
0
100
AcDbSymbolTable
 70
     8
  0
BLOCK_RECORD
  5
18
102
{ACAD_XDICTIONARY
360
6E9
102
}
330
1
100
AcDbSymbolTableRecord
100
AcDbBlockTableRecord
  2
*MODEL_SPACE
  0
BLOCK_RECORD
  5
15
102
{ACAD_XDICTIONARY
360
59B
102
}
330
1
100
AcDbSymbolTableRecord
100
AcDbBlockTableRecord
  2
*PAPER_SPACE
  0
BLOCK_RECORD
  5
42
330
1
100
AcDbSymbolTableRecord
100
AcDbBlockTableRecord
  2
_OPEN30
  0
BLOCK_RECORD
  5
22270
330
1
100
AcDbSymbolTableRecord
100
AcDbBlockTableRecord
  2
A3WAKUKAWAJUN2017_HYOUDAI_
  0
BLOCK_RECORD
  5
22A73
330
1
100
AcDbSymbolTableRecord
100
AcDbBlockTableRecord
  2
*X47
  0
BLOCK_RECORD
  5
22AC1
330
1
100
AcDbSymbolTableRecord
100
AcDbBlockTableRecord
  2
*X48
  0
BLOCK_RECORD
  5
22B13
330
1
100
AcDbSymbolTableRecord
100
AcDbBlockTableRecord
  2
*X49
  0
BLOCK_RECORD
  5
22B64
330
1
100
AcDbSymbolTableRecord
100
AcDbBlockTableRecord
  2
*X50
  0
BLOCK_RECORD
  5
22BA1
330
1
100
AcDbSymbolTableRecord
100
AcDbBlockTableRecord
  2
*X51
  0
BLOCK_RECORD
  5
22BE1
330
1
100
AcDbSymbolTableRecord
100
AcDbBlockTableRecord
  2
*X52
  0
ENDTAB
  0
ENDSEC
  0
SECTION
  2
BLOCKS
  0
BLOCK
  5
19
330
18
100
AcDbEntity
  8
0
100
AcDbBlockBegin
  2
*MODEL_SPACE
 70
     0
 10
0.0
 20
0.0
 30
0.0
  3
*MODEL_SPACE
  1

  0
ENDBLK
  5
1A
330
18
100
AcDbEntity
  8
0
100
AcDbBlockEnd
  0
BLOCK
  5
16
330
15
100
AcDbEntity
 67
     1
  8
0
100
AcDbBlockBegin
  2
*PAPER_SPACE
 70
     0
 10
0.0
 20
0.0
 30
0.0
  3
*PAPER_SPACE
  1

  0
ENDBLK
  5
17
330
15
100
AcDbEntity
 67
     1
  8
0
100
AcDbBlockEnd
  0
BLOCK
  5
43
330
42
100
AcDbEntity
  8
0
100
AcDbBlockBegin
  2
_OPEN30
 70
     0
 10
0.0
 20
0.0
 30
0.0
  3
_OPEN30
  1

  0
LINE
  5
44
330
42
100
AcDbEntity
  8
0
  6
BYBLOCK
 62
     0
100
AcDbLine
 10
-1.0
 20
0.26794919
 30
0.0
 11
0.0
 21
0.0
 31
0.0
  0
LINE
  5
45
330
42
100
AcDbEntity
  8
0
  6
BYBLOCK
 62
     0
100
AcDbLine
 10
0.0
 20
0.0
 30
0.0
 11
-1.0
 21
-0.26794919
 31
0.0
  0
LINE
  5
46
330
42
100
AcDbEntity
  8
0
  6
BYBLOCK
 62
     0
100
AcDbLine
 10
0.0
 20
0.0
 30
0.0
 11
-1.0
 21
0.0
 31
0.0
  0
ENDBLK
  5
47
330
42
100
AcDbEntity
  8
0
100
AcDbBlockEnd
  0
BLOCK
  5
22271
330
22270
100
AcDbEntity
  8
0
100
AcDbBlockBegin
  2
A3WAKUKAWAJUN2017_HYOUDAI_
 70
     0
 10
0.0
 20
0.0
 30
0.0
  3
A3WAKUKAWAJUN2017_HYOUDAI_
  1

  0
LINE
  5
22272
330
22270
100
AcDbEntity
  8
0
100
AcDbLine
 10
13.26299999998673
 20
-0.0001000000000317
 30
0.0
 11
9.236999999990758
 21
8.999899999990987
 31
0.0
1001
ACAD
1000
ASC_BOUNDS
1002
{
1070
    19
1005
222B3
1002
}
  0
LINE
  5
22273
330
22270
100
AcDbEntity
  8
0
100
AcDbLine
 10
5.657999999994331
 20
0.9999999999989768
 30
0.0
 11
9.236999999990758
 21
8.999999999991019
 31
0.0
1001
ACAD
1000
ASC_BOUNDS
1002
{
1070
    19
1005
222B3
1002
}
  0
LINE
  5
22274
330
22270
100
AcDbEntity
  8
0
100
AcDbLine
 10
18.59199999998134
 20
-0.2368999999997641
 30
0.0
 11
16.46099999998353
 21
5.432899999994561
 31
0.0
1001
ACAD
1000
ASC_BOUNDS
1002
{
1070
    19
1005
222B4
1002
}
  0
LINE
  5
22275
330
22270
100
AcDbEntity
  8
0
100
AcDbLine
 10
18.59199999998134
 20
-0.2368999999997641
 30
0.0
 11
22.38199999997767
 21
8.763099999991255
 31
0.0
1001
ACAD
1000
ASC_BOUNDS
1002
{
1070
    19
1005
222B4
1002
}
  0
LINE
  5
22276
330
22270
100
AcDbEntity
  8
0
100
AcDbLine
 10
14.32899999998563
 20
-0.2368999999997641
 30
0.0
 11
16.46099999998353
 21
5.432899999994561
 31
0.0
1001
ACAD
1000
ASC_BOUNDS
1002
{
1070
    19
1005
222B4
1002
}
  0
LINE
  5
22277
330
22270
100
AcDbEntity
  8
0
100
AcDbLine
 10
14.32899999998563
 20
-0.2368999999997641
 30
0.0
 11
10.53899999998941
 21
8.763099999991255
 31
0.0
1001
ACAD
1000
ASC_BOUNDS
1002
{
1070
    19
1005
222B4
1002
}
  0
LINE
  5
22278
330
22270
100
AcDbEntity
  8
0
100
AcDbLine
 10
19.53899999998043
 20
-0.0001000000000317
 30
0.0
 11
23.56599999997638
 21
8.999899999990987
 31
0.0
1001
ACAD
1000
ASC_BOUNDS
1002
{
1070
    19
1005
222B5
1002
}
  0
LINE
  5
22279
330
22270
100
AcDbEntity
  8
0
100
AcDbLine
 10
26.97358892824991
 20
1.383099999991202
 30
0.0
 11
23.56599999997638
 21
8.999899999990987
 31
0.0
1001
ACAD
1000
ASC_BOUNDS
1002
{
1070
    19
1005
222B5
1002
}
  0
LINE
  5
2227A
330
22270
100
AcDbEntity
  8
0
100
AcDbLine
 10
5.657999999994331
 20
0.9999999999989768
 30
0.0
 11
3.181999999996833
 21
4.668599999995308
 31
0.0
1001
ACAD
1000
ASC_BOUNDS
1002
{
1070
    19
1005
222B3
1002
}
  0
LINE
  5
2227B
330
22270
100
AcDbEntity
  8
0
100
AcDbLine
 10
4.617999999995391
 20
-0.0001000000000317
 30
0.0
 11
1.420999999998571
 21
4.736799999995242
 31
0.0
1001
ACAD
1000
ASC_BOUNDS
1002
{
1070
    19
1005
222B3
1002
}
  0
LINE
  5
2227C
330
22270
100
AcDbEntity
  8
0
100
AcDbLine
 10
1.420999999998571
 20
8.763099999991255
 30
0.0
 11
1.420999999998571
 21
0.0
 31
0.0
1001
ACAD
1000
ASC_BOUNDS
1002
{
1070
    19
1005
222B8
1002
}
  0
LINE
  5
2227D
330
22270
100
AcDbEntity
  8
0
100
AcDbLine
 10
0.0
 20
8.763099999991255
 30
0.0
 11
0.0
 21
0.0
 31
0.0
1001
ACAD
1000
ASC_BOUNDS
1002
{
1070
    19
1005
222B8
1002
}
  0
LINE
  5
2227E
330
22270
100
AcDbEntity
  8
0
100
AcDbLine
 10
6.766999999993232
 20
-0.0001000000000317
 30
0.0
 11
7.826999999992154
 21
2.368399999997621
 31
0.0
1001
ACAD
1000
ASC_BOUNDS
1002
{
1070
    19
1005
222B3
1002
}
  0
LINE
  5
2227F
330
22270
100
AcDbEntity
  8
0
100
AcDbLine
 10
0.0
 20
0.0
 30
0.0
 11
1.420999999998571
 21
0.0
 31
0.0
1001
ACAD
1000
ASC_BOUNDS
1002
{
1070
    19
1005
222B8
1002
}
  0
LINE
  5
22280
330
22270
100
AcDbEntity
  8
0
100
AcDbLine
 10
4.617999999995391
 20
0.0
 30
0.0
 11
6.766999999993232
 21
0.0
 31
0.0
1001
ACAD
1000
ASC_BOUNDS
1002
{
1070
    19
1005
222B3
1002
}
  0
LINE
  5
22281
330
22270
100
AcDbEntity
  8
0
100
AcDbLine
 10
11.70599999998831
 20
-0.0001000000000317
 30
0.0
 11
10.64699999998936
 21
2.368399999997621
 31
0.0
1001
ACAD
1000
ASC_BOUNDS
1002
{
1070
    19
1005
222B3
1002
}
  0
LINE
  5
22282
330
22270
100
AcDbEntity
  8
0
100
AcDbLine
 10
7.826999999992154
 20
2.368399999997621
 30
0.0
 11
10.64699999998936
 21
2.368399999997621
 31
0.0
1001
ACAD
1000
ASC_BOUNDS
1002
{
1070
    19
1005
222B3
1002
}
  0
LINE
  5
22283
330
22270
100
AcDbEntity
  8
0
100
AcDbLine
 10
11.70599999998831
 20
0.0
 30
0.0
 11
13.26299999998673
 21
0.0
 31
0.0
1001
ACAD
1000
ASC_BOUNDS
1002
{
1070
    19
1005
222B3
1002
}
  0
LINE
  5
22284
330
22270
100
AcDbEntity
  8
0
100
AcDbLine
 10
22.15599999997789
 20
2.368399999997621
 30
0.0
 11
24.97599999997499
 21
2.368399999997621
 31
0.0
1001
ACAD
1000
ASC_BOUNDS
1002
{
1070
    19
1005
222B5
1002
}
  0
LINE
  5
22285
330
22270
100
AcDbEntity
  8
0
100
AcDbLine
 10
19.53899999998043
 20
0.0
 30
0.0
 11
21.09599999997886
 21
0.0
 31
0.0
1001
ACAD
1000
ASC_BOUNDS
1002
{
1070
    19
1005
222B5
1002
}
  0
LINE
  5
22286
330
22270
100
AcDbEntity
  8
0
100
AcDbLine
 10
21.09599999997886
 20
-0.0001000000000317
 30
0.0
 11
22.15599999997789
 21
2.368399999997621
 31
0.0
1001
ACAD
1000
ASC_BOUNDS
1002
{
1070
    19
1005
222B5
1002
}
  0
LINE
  5
22287
330
22270
100
AcDbEntity
  8
0
100
AcDbLine
 10
26.02015566812236
 20
0.0330999999912365
 30
0.0
 11
24.97599999997499
 21
2.368399999997621
 31
0.0
1001
ACAD
1000
ASC_BOUNDS
1002
{
1070
    19
1005
222B5
1002
}
  0
LINE
  5
22288
330
22270
100
AcDbEntity
  8
0
100
AcDbLine
 10
14.32399999998563
 20
3.315799999996671
 30
0.0
 11
16.46099999998353
 21
8.999899999990987
 31
0.0
1001
ACAD
1000
ASC_BOUNDS
1002
{
1070
    19
1005
222B4
1002
}
  0
LINE
  5
22289
330
22270
100
AcDbEntity
  8
0
100
AcDbLine
 10
6.432999999993513
 20
8.763099999991255
 30
0.0
 11
3.181999999996833
 21
4.668599999995308
 31
0.0
1001
ACAD
1000
ASC_BOUNDS
1002
{
1070
    19
1005
222B3
1002
}
  0
LINE
  5
2228A
330
22270
100
AcDbEntity
  8
0
100
AcDbLine
 10
4.617999999995391
 20
8.763099999991255
 30
0.0
 11
1.420999999998571
 21
4.736799999995242
 31
0.0
1001
ACAD
1000
ASC_BOUNDS
1002
{
1070
    19
1005
222B3
1002
}
  0
LINE
  5
2228B
330
22270
100
AcDbEntity
  8
0
100
AcDbLine
 10
0.0
 20
8.763099999991255
 30
0.0
 11
1.420999999998571
 21
8.763099999991255
 31
0.0
1001
ACAD
1000
ASC_BOUNDS
1002
{
1070
    19
1005
222B8
1002
}
  0
LINE
  5
2228C
330
22270
100
AcDbEntity
  8
0
100
AcDbLine
 10
4.617999999995391
 20
8.763099999991255
 30
0.0
 11
6.432999999993513
 21
8.763099999991255
 31
0.0
1001
ACAD
1000
ASC_BOUNDS
1002
{
1070
    19
1005
222B3
1002
}
  0
LINE
  5
2228D
330
22270
100
AcDbEntity
  8
0
100
AcDbLine
 10
14.32399999998563
 20
3.315799999996671
 30
0.0
 11
12.02999999998792
 21
8.763099999991255
 31
0.0
1001
ACAD
1000
ASC_BOUNDS
1002
{
1070
    19
1005
222B4
1002
}
  0
LINE
  5
2228E
330
22270
100
AcDbEntity
  8
0
100
AcDbLine
 10
10.06399999998996
 20
3.670999999996297
 30
0.0
 11
9.236999999990758
 21
5.5200999999945
 31
0.0
1001
ACAD
1000
ASC_BOUNDS
1002
{
1070
    19
1005
222B3
1002
}
  0
LINE
  5
2228F
330
22270
100
AcDbEntity
  8
0
100
AcDbLine
 10
8.409999999991555
 20
3.670999999996297
 30
0.0
 11
9.236999999990758
 21
5.5200999999945
 31
0.0
1001
ACAD
1000
ASC_BOUNDS
1002
{
1070
    19
1005
222B3
1002
}
  0
LINE
  5
22290
330
22270
100
AcDbEntity
  8
0
100
AcDbLine
 10
8.409999999991555
 20
3.670999999996297
 30
0.0
 11
10.06399999998996
 21
3.670999999996297
 31
0.0
1001
ACAD
1000
ASC_BOUNDS
1002
{
1070
    19
1005
222B3
1002
}
  0
LINE
  5
22291
330
22270
100
AcDbEntity
  8
0
100
AcDbLine
 10
10.53899999998941
 20
8.763099999991255
 30
0.0
 11
12.02999999998792
 21
8.763099999991255
 31
0.0
1001
ACAD
1000
ASC_BOUNDS
1002
{
1070
    19
1005
222B4
1002
}
  0
LINE
  5
22292
330
22270
100
AcDbEntity
  8
0
100
AcDbLine
 10
22.7389999999773
 20
3.670999999996297
 30
0.0
 11
23.56599999997638
 21
5.5200999999945
 31
0.0
1001
ACAD
1000
ASC_BOUNDS
1002
{
1070
    19
1005
222B5
1002
}
  0
LINE
  5
22293
330
22270
100
AcDbEntity
  8
0
100
AcDbLine
 10
22.7389999999773
 20
3.670999999996297
 30
0.0
 11
24.39299999997559
 21
3.670999999996297
 31
0.0
1001
ACAD
1000
ASC_BOUNDS
1002
{
1070
    19
1005
222B5
1002
}
  0
LINE
  5
22294
330
22270
100
AcDbEntity
  8
0
100
AcDbLine
 10
18.59799999998143
 20
3.315799999996671
 30
0.0
 11
20.89099999997916
 21
8.763099999991255
 31
0.0
1001
ACAD
1000
ASC_BOUNDS
1002
{
1070
    19
1005
222B4
1002
}
  0
LINE
  5
22295
330
22270
100
AcDbEntity
  8
0
100
AcDbLine
 10
18.59799999998143
 20
3.315799999996671
 30
0.0
 11
16.46099999998353
 21
8.999899999990987
 31
0.0
1001
ACAD
1000
ASC_BOUNDS
1002
{
1070
    19
1005
222B4
1002
}
  0
LINE
  5
22296
330
22270
100
AcDbEntity
  8
0
100
AcDbLine
 10
20.89099999997916
 20
8.763099999991255
 30
0.0
 11
22.38199999997767
 21
8.763099999991255
 31
0.0
1001
ACAD
1000
ASC_BOUNDS
1002
{
1070
    19
1005
222B4
1002
}
  0
LINE
  5
22297
330
22270
100
AcDbEntity
  8
0
100
AcDbLine
 10
24.39299999997559
 20
3.670999999996297
 30
0.0
 11
23.56599999997638
 21
5.5200999999945
 31
0.0
1001
ACAD
1000
ASC_BOUNDS
1002
{
1070
    19
1005
222B5
1002
}
  0
LINE
  5
22298
330
22270
100
AcDbEntity
  8
0
100
AcDbLine
 10
44.99999999995498
 20
-0.2368999999997641
 30
0.0
 11
40.02599999995994
 21
5.341799999994635
 31
0.0
1001
ACAD
1000
ASC_BOUNDS
1002
{
1070
    19
1005
222B7
1002
}
  0
LINE
  5
22299
330
22270
100
AcDbEntity
  8
0
100
AcDbLine
 10
40.02599999995994
 20
5.341799999994635
 30
0.0
 11
40.02599999995994
 21
0.0
 31
0.0
1001
ACAD
1000
ASC_BOUNDS
1002
{
1070
    19
1005
222B7
1002
}
  0
LINE
  5
2229A
330
22270
100
AcDbEntity
  8
0
100
AcDbLine
 10
38.60499999996136
 20
8.999999999991019
 30
0.0
 11
38.60499999996136
 21
0.0
 31
0.0
1001
ACAD
1000
ASC_BOUNDS
1002
{
1070
    19
1005
222B7
1002
}
  0
LINE
  5
2229B
330
22270
100
AcDbEntity
  8
0
100
AcDbLine
 10
44.99999999995498
 20
8.763099999991255
 30
0.0
 11
44.99999999995498
 21
-0.2368999999997641
 31
0.0
1001
ACAD
1000
ASC_BOUNDS
1002
{
1070
    19
1005
222B7
1002
}
  0
LINE
  5
2229C
330
22270
100
AcDbEntity
  8
0
100
AcDbLine
 10
38.60499999996136
 20
0.0
 30
0.0
 11
40.02599999995994
 21
0.0
 31
0.0
1001
ACAD
1000
ASC_BOUNDS
1002
{
1070
    19
1005
222B7
1002
}
  0
LINE
  5
2229D
330
22270
100
AcDbEntity
  8
0
100
AcDbLine
 10
43.57899999995641
 20
3.421199999996588
 30
0.0
 11
38.60499999996136
 21
8.999899999990987
 31
0.0
1001
ACAD
1000
ASC_BOUNDS
1002
{
1070
    19
1005
222B7
1002
}
  0
LINE
  5
2229E
330
22270
100
AcDbEntity
  8
0
100
AcDbLine
 10
43.57899999995641
 20
8.763099999991255
 30
0.0
 11
43.57899999995641
 21
3.421199999996588
 31
0.0
1001
ACAD
1000
ASC_BOUNDS
1002
{
1070
    19
1005
222B7
1002
}
  0
LINE
  5
2229F
330
22270
100
AcDbEntity
  8
0
100
AcDbLine
 10
43.57899999995641
 20
8.763099999991255
 30
0.0
 11
44.99999999995498
 21
8.763099999991255
 31
0.0
1001
ACAD
1000
ASC_BOUNDS
1002
{
1070
    19
1005
222B7
1002
}
  0
LINE
  5
222A0
330
22270
100
AcDbEntity
  8
0
100
AcDbLine
 10
37.67199999996831
 20
8.763099999991255
 30
0.0
 11
36.23199999996837
 21
8.763099999991255
 31
0.0
  0
LINE
  5
222A1
330
22270
100
AcDbEntity
  8
0
100
AcDbLine
 10
31.64199999996833
 20
8.763099999991255
 30
0.0
 11
31.64199999996833
 21
2.481619422925121
 31
0.0
  0
LINE
  5
222A2
330
22270
100
AcDbEntity
  8
0
100
AcDbLine
 10
37.67199999996831
 20
8.763099999991255
 30
0.0
 11
37.67199999996831
 21
2.481619422925121
 31
0.0
  0
LINE
  5
222A3
330
22270
100
AcDbEntity
  8
0
100
AcDbLine
 10
36.23199999996837
 20
8.763099999991255
 30
0.0
 11
36.23199999996837
 21
2.481619422925064
 31
0.0
  0
LINE
  5
222A4
330
22270
100
AcDbEntity
  8
0
100
AcDbLine
 10
33.08199999996839
 20
8.763099999991255
 30
0.0
 11
33.08199999996839
 21
2.481619422925121
 31
0.0
  0
ARC
  5
222A5
330
22270
100
AcDbEntity
  8
0
100
AcDbCircle
 10
34.65699999996832
 20
3.183099999991214
 30
0.0
 40
3.420000000000007
100
AcDbArc
 50
240.0000000000255
 51
299.9999999999766
  0
ARC
  5
222A6
330
22270
100
AcDbEntity
  8
0
100
AcDbCircle
 10
34.65699999996832
 20
3.183099999991214
 30
0.0
 40
1.97999999999999
100
AcDbArc
 50
240.000000000026
 51
299.9999999999703
  0
LINE
  5
222A7
330
22270
100
AcDbEntity
  8
0
100
AcDbLine
 10
33.08199999996828
 20
8.763099999991255
 30
0.0
 11
31.64199999996833
 21
8.763099999991255
 31
0.0
  0
ARC
  5
222A8
330
22270
100
AcDbEntity
  8
0
100
AcDbCircle
 10
35.06199999996829
 20
2.481619422925064
 30
0.0
 40
1.17
100
AcDbArc
 50
299.9999999999699
 51
0.0
  0
ARC
  5
222A9
330
22270
100
AcDbEntity
  8
0
100
AcDbCircle
 10
34.25199999996835
 20
2.481619422925121
 30
0.0
 40
1.17
100
AcDbArc
 50
180.0
 51
240.0000000000238
  0
ARC
  5
222AA
330
22270
100
AcDbEntity
  8
0
100
AcDbCircle
 10
35.06199999996841
 20
2.481619422925121
 30
0.0
 40
2.61
100
AcDbArc
 50
299.9999999999756
 51
0.0
  0
ARC
  5
222AB
330
22270
100
AcDbEntity
  8
0
100
AcDbCircle
 10
34.25199999996835
 20
2.481619422925121
 30
0.0
 40
2.61
100
AcDbArc
 50
180.0
 51
240.0000000000244
  0
LINE
  5
222AC
330
22270
100
AcDbEntity
  8
0
100
AcDbLine
 10
29.30199999996933
 20
8.763099999991255
 30
0.0
 11
30.74199999996927
 21
8.763099999991255
 31
0.0
1001
ACAD
1000
ASC_BOUNDS
1002
{
1070
    19
1005
222B5
1002
}
  0
LINE
  5
222AD
330
22270
100
AcDbEntity
  8
0
100
AcDbLine
 10
30.74199999996927
 20
8.763099999991255
 30
0.0
 11
30.74199999996927
 21
2.373099999991211
 31
0.0
1001
ACAD
1000
ASC_BOUNDS
1002
{
1070
    19
1005
222B5
1002
}
  0
LINE
  5
222AE
330
22270
100
AcDbEntity
  8
0
100
AcDbLine
 10
26.02015566812236
 20
0.0330999999912365
 30
0.0
 11
28.40199999996923
 21
0.0330999999912365
 31
0.0
1001
ACAD
1000
ASC_BOUNDS
1002
{
1070
    19
1005
222B5
1002
}
  0
LINE
  5
222AF
330
22270
100
AcDbEntity
  8
0
100
AcDbLine
 10
29.30199999996933
 20
8.763099999991255
 30
0.0
 11
29.30199999996933
 21
2.283099999991236
 31
0.0
1001
ACAD
1000
ASC_BOUNDS
1002
{
1070
    19
1005
222B5
1002
}
  0
LINE
  5
222B0
330
22270
100
AcDbEntity
  8
0
100
AcDbLine
 10
26.97358892824991
 20
1.383099999991202
 30
0.0
 11
28.40199999996923
 21
1.383099999991202
 31
0.0
1001
ACAD
1000
ASC_BOUNDS
1002
{
1070
    19
1005
222B5
1002
}
  0
ARC
  5
222B1
330
22270
100
AcDbEntity
  8
0
100
AcDbCircle
 10
28.40199999996923
 20
2.283099999991236
 30
0.0
 40
0.9
100
AcDbArc
 50
270.0
 51
0.0
1001
ACAD
1000
ASC_BOUNDS
1002
{
1070
    19
1005
222B5
1002
}
  0
ARC
  5
222B2
330
22270
100
AcDbEntity
  8
0
100
AcDbCircle
 10
28.40199999996923
 20
2.373099999991211
 30
0.0
 40
2.34
100
AcDbArc
 50
270.0
 51
0.0
1001
ACAD
1000
ASC_BOUNDS
1002
{
1070
    19
1005
222B5
1002
}
  0
INSERT
  5
222B3
330
22270
100
AcDbEntity
  8
0
100
AcDbBlockReference
  2
*X47
 10
0.0
 20
0.0
 30
0.0
1001
ACAD
1000
HATCH
1002
{
1070
    19
1000
ANSI37
1040
0.15
1040
0.0
1000
ASC_BOUNDS
1070
     2
1070
     2
1070
    12
1005
22272
1005
22273
1005
2227A
1005
22289
1005
2228C
1005
2228A
1005
2227B
1005
22280
1005
2227E
1005
22282
1005
22281
1005
22283
1070
     2
1070
     3
1005
2228E
1005
22290
1005
2228F
1000
ASC_SEEDPOINT
1011
3.614004224891801
1021
2.996669441146025
1031
0.0
1000
R14_HATCH_DATA
1000
222B3
1011
1.0
1021
0.0
1031
0.0
1011
0.0
1021
1.0
1031
0.0
1011
0.0
1021
0.0
1031
1.0
1040
0.0
1010
0.0
1020
0.0
1030
1.0
1000
ANSI37
1070
     0
1070
     1
1071
        2
1071
        7
1070
     0
1070
     1
1071
       17
1040
13.26299999998673
1040
-0.0001000000000317
1040
9.236999999990758
1040
8.999899999990987
1040
9.236999999990758
1040
8.999999999991019
1040
5.657999999994331
1040
0.9999999999989768
1040
3.181999999996833
1040
4.668599999995308
1040
6.432999999993513
1040
8.763099999991255
1040
4.617999999995391
1040
8.763099999991255
1040
1.420999999998571
1040
4.736799999995242
1040
4.617999999995391
1040
-0.0001000000000317
1040
4.617999999995391
1040
0.0
1040
6.766999999993232
1040
0.0
1040
6.766999999993232
1040
-0.0001000000000317
1040
7.826999999992154
1040
2.368399999997621
1040
10.64699999998936
1040
2.368399999997621
1040
11.70599999998831
1040
-0.0001000000000317
1040
11.70599999998831
1040
0.0
1040
13.26299999998673
1040
0.0
1071
       12
1005
22272
1005
22273
1005
2227A
1005
22289
1005
2228C
1005
2228A
1005
2227B
1005
22280
1005
2227E
1005
22282
1005
22281
1005
22283
1071
       22
1070
     0
1070
     1
1071
        3
1040
9.236999999990758
1040
5.5200999999945
1040
10.06399999998996
1040
3.670999999996297
1040
8.409999999991555
1040
3.670999999996297
1071
        3
1005
2228E
1005
22290
1005
2228F
1070
     0
1070
     1
1040
0.0
1040
0.15
1070
     0
1070
     2
1040
0.7853981633974483
1040
49.29960901727088
1040
-10.17736998311392
1040
-0.3367596045400932
1040
0.3367596045400932
1070
     0
1040
2.356194490192345
1040
49.29960901727088
1040
-10.17736998311392
1040
-0.3367596045400932
1040
-0.3367596045400932
1070
     0
1040
0.0110235143455945
1071
        2
1040
3.614004224891801
1040
2.996669441146025
1040
0.0
1040
3.614004224891801
1040
2.996669441146025
1040
0.0
1002
}
  0
INSERT
  5
222B4
330
22270
100
AcDbEntity
  8
0
100
AcDbBlockReference
  2
*X48
 10
0.0
 20
0.0
 30
0.0
1001
ACAD
1000
HATCH
1002
{
1070
    19
1000
ANSI37
1040
0.15
1040
0.0
1000
ASC_BOUNDS
1070
     1
1070
     2
1070
    10
1005
22274
1005
22275
1005
22296
1005
22294
1005
22295
1005
22288
1005
2228D
1005
22291
1005
22277
1005
22276
1000
ASC_SEEDPOINT
1011
14.73245321214324
1021
2.798246178283421
1031
0.0
1000
R14_HATCH_DATA
1000
222B4
1011
1.0
1021
0.0
1031
0.0
1011
0.0
1021
1.0
1031
0.0
1011
0.0
1021
0.0
1031
1.0
1040
0.0
1010
0.0
1020
0.0
1030
1.0
1000
ANSI37
1070
     0
1070
     1
1071
        1
1071
        7
1070
     0
1070
     1
1071
       10
1040
16.46099999998353
1040
5.432899999994561
1040
18.59199999998134
1040
-0.2368999999997641
1040
22.38199999997767
1040
8.763099999991255
1040
20.89099999997916
1040
8.763099999991255
1040
18.59799999998143
1040
3.315799999996671
1040
16.46099999998353
1040
8.999899999990987
1040
14.32399999998563
1040
3.315799999996671
1040
12.02999999998792
1040
8.763099999991255
1040
10.53899999998941
1040
8.763099999991255
1040
14.32899999998563
1040
-0.2368999999997641
1071
       10
1005
22274
1005
22275
1005
22296
1005
22294
1005
22295
1005
22288
1005
2228D
1005
22291
1005
22277
1005
22276
1070
     0
1070
     1
1040
0.0
1040
0.15
1070
     0
1070
     2
1040
0.7853981633974483
1040
49.29960901727088
1040
-10.17736998311392
1040
-0.3367596045400932
1040
0.3367596045400932
1070
     0
1040
2.356194490192345
1040
49.29960901727088
1040
-10.17736998311392
1040
-0.3367596045400932
1040
-0.3367596045400932
1070
     0
1040
0.0110235143455945
1071
        1
1040
14.73245321214324
1040
2.798246178283421
1040
0.0
1002
}
  0
INSERT
  5
222B5
330
22270
100
AcDbEntity
  8
0
100
AcDbBlockReference
  2
*X49
 10
0.0
 20
0.0
 30
0.0
1001
ACAD
1000
HATCH
1002
{
1070
    19
1000
ANSI37
1040
0.15
1040
0.0
1000
ASC_BOUNDS
1070
     2
1070
     2
1070
    13
1005
22278
1005
22285
1005
22286
1005
22284
1005
22287
1005
222AE
1005
222B2
1005
222AD
1005
222AC
1005
222AF
1005
222B1
1005
222B0
1005
22279
1070
     2
1070
     3
1005
22292
1005
22297
1005
22293
1000
ASC_SEEDPOINT
1011
21.97929957367762
1021
3.294304244259308
1031
0.0
1000
R14_HATCH_DATA
1000
222B5
1011
1.0
1021
0.0
1031
0.0
1011
0.0
1021
1.0
1031
0.0
1011
0.0
1021
0.0
1031
1.0
1040
0.0
1010
0.0
1020
0.0
1030
1.0
1000
ANSI37
1070
     0
1070
     1
1071
        2
1071
        7
1070
     1
1070
     1
1071
       15
1040
23.56599999997638
1040
8.999899999990987
1040
0.0
1040
19.53899999998043
1040
-0.0001000000000317
1040
0.0
1040
19.53899999998043
1040
0.0
1040
0.0
1040
21.09599999997886
1040
0.0
1040
0.0
1040
21.09599999997886
1040
-0.0001000000000317
1040
0.0
1040
22.15599999997789
1040
2.368399999997621
1040
0.0
1040
24.97599999997499
1040
2.368399999997621
1040
0.0
1040
26.02015566812236
1040
0.0330999999912365
1040
0.0
1040
28.40199999996923
1040
0.0330999999912365
1040
0.414213562373095
1040
30.74199999996923
1040
2.373099999991211
1040
0.0
1040
30.74199999996927
1040
8.763099999991255
1040
0.0
1040
29.30199999996933
1040
8.763099999991255
1040
0.0
1040
29.30199999996933
1040
2.283099999991236
1040
-0.414213562373095
1040
28.40199999996923
1040
1.383099999991237
1040
0.0
1040
26.97358892824991
1040
1.383099999991202
1040
0.0
1071
       13
1005
22278
1005
22285
1005
22286
1005
22284
1005
22287
1005
222AE
1005
222B2
1005
222AD
1005
222AC
1005
222AF
1005
222B1
1005
222B0
1005
22279
1071
       22
1070
     0
1070
     1
1071
        3
1040
22.7389999999773
1040
3.670999999996297
1040
23.56599999997638
1040
5.5200999999945
1040
24.39299999997559
1040
3.670999999996297
1071
        3
1005
22292
1005
22297
1005
22293
1070
     0
1070
     1
1040
0.0
1040
0.15
1070
     0
1070
     2
1040
0.7853981633974483
1040
49.29960901727088
1040
-10.17736998311392
1040
-0.3367596045400932
1040
0.3367596045400932
1070
     0
1040
2.356194490192345
1040
49.29960901727088
1040
-10.17736998311392
1040
-0.3367596045400932
1040
-0.3367596045400932
1070
     0
1040
0.0110235143455945
1071
        2
1040
21.97929957367762
1040
3.294304244259308
1040
0.0
1040
21.97929957367762
1040
3.294304244259308
1040
0.0
1002
}
  0
INSERT
  5
222B6
330
22270
100
AcDbEntity
  8
0
100
AcDbBlockReference
  2
*X50
 10
0.0
 20
0.0
 30
0.0
1001
ACAD
1000
HATCH
1002
{
1070
    19
1000
ANSI37
1040
0.15
1040
0.0
1000
R14_HATCH_DATA
1000
222B6
1011
1.0
1021
0.0
1031
0.0
1011
0.0
1021
1.0
1031
0.0
1011
0.0
1021
0.0
1031
1.0
1040
0.0
1010
0.0
1020
0.0
1030
1.0
1000
ANSI37
1070
     0
1070
     1
1071
        1
1071
        7
1070
     1
1070
     1
1071
       12
1040
31.64199999996833
1040
2.481619422925121
1040
0.2679491924310942
1040
32.94699999997067
1040
0.2212931190493919
1040
0.2679491924301353
1040
36.36699999995983
1040
0.2212931190459813
1040
0.2679491924321411
1040
37.67199999996831
1040
2.481619422928361
1040
0.0
1040
37.67199999996831
1040
8.763099999991255
1040
0.0
1040
36.23199999996837
1040
8.763099999991255
1040
0.0
1040
36.23199999996837
1040
2.481619422925064
1040
-0.2679491924310291
1040
35.64699999996708
1040
1.468369700498386
1040
-0.267949192430519
1040
33.66699999997093
1040
1.468369700497703
1040
-0.267949192431809
1040
33.08199999996839
1040
2.481619422926997
1040
0.0
1040
33.08199999996839
1040
8.763099999991255
1040
0.0
1040
31.64199999996833
1040
8.763099999991255
1040
0.0
1071
        0
1070
     0
1070
     1
1040
0.0
1040
0.15
1070
     0
1070
     2
1040
0.7853981633974483
1040
49.29960901727088
1040
-10.17736998311392
1040
-0.3367596045400932
1040
0.3367596045400932
1070
     0
1040
2.356194490192345
1040
49.29960901727088
1040
-10.17736998311392
1040
-0.3367596045400932
1040
-0.3367596045400932
1070
     0
1040
0.0110235143455945
1071
        1
1040
32.30357378967278
1040
3.988785755459219
1040
0.0
1002
}
  0
INSERT
  5
222B7
330
22270
100
AcDbEntity
  8
0
100
AcDbBlockReference
  2
*X51
 10
0.0
 20
0.0
 30
0.0
1001
ACAD
1000
HATCH
1002
{
1070
    19
1000
ANSI37
1040
0.15
1040
0.0
1000
ASC_BOUNDS
1070
     1
1070
     2
1070
     8
1005
22298
1005
2229B
1005
2229F
1005
2229E
1005
2229D
1005
2229A
1005
2229C
1005
22299
1000
ASC_SEEDPOINT
1011
39.74896370716704
1021
4.484843821435049
1031
0.0
1000
R14_HATCH_DATA
1000
222B7
1011
1.0
1021
0.0
1031
0.0
1011
0.0
1021
1.0
1031
0.0
1011
0.0
1021
0.0
1031
1.0
1040
0.0
1010
0.0
1020
0.0
1030
1.0
1000
ANSI37
1070
     0
1070
     1
1071
        1
1071
        7
1070
     0
1070
     1
1071
        9
1040
40.02599999995994
1040
5.341799999994635
1040
44.99999999995498
1040
-0.2368999999997641
1040
44.99999999995498
1040
8.763099999991255
1040
43.57899999995641
1040
8.763099999991255
1040
43.57899999995641
1040
3.421199999996588
1040
38.60499999996136
1040
8.999899999990987
1040
38.60499999996136
1040
8.999999999991019
1040
38.60499999996136
1040
0.0
1040
40.02599999995994
1040
0.0
1071
        8
1005
22298
1005
2229B
1005
2229F
1005
2229E
1005
2229D
1005
2229A
1005
2229C
1005
22299
1070
     0
1070
     1
1040
0.0
1040
0.15
1070
     0
1070
     2
1040
0.7853981633974483
1040
49.29960901727088
1040
-10.17736998311392
1040
-0.3367596045400932
1040
0.3367596045400932
1070
     0
1040
2.356194490192345
1040
49.29960901727088
1040
-10.17736998311392
1040
-0.3367596045400932
1040
-0.3367596045400932
1070
     0
1040
0.0110235143455945
1071
        1
1040
39.74896370716704
1040
4.484843821435049
1040
0.0
1002
}
  0
INSERT
  5
222B8
330
22270
100
AcDbEntity
  8
0
100
AcDbBlockReference
  2
*X52
 10
0.0
 20
0.0
 30
0.0
1001
ACAD
1000
HATCH
1002
{
1070
    19
1000
ANSI37
1040
0.15
1040
0.0
1000
ASC_BOUNDS
1070
     1
1070
     2
1070
     4
1005
2227C
1005
2228B
1005
2227D
1005
2227F
1000
ASC_SEEDPOINT
1011
1.079051535452663
1021
4.148538732891836
1031
0.0
1000
R14_HATCH_DATA
1000
222B8
1011
1.0
1021
0.0
1031
0.0
1011
0.0
1021
1.0
1031
0.0
1011
0.0
1021
0.0
1031
1.0
1040
0.0
1010
0.0
1020
0.0
1030
1.0
1000
ANSI37
1070
     0
1070
     1
1071
        1
1071
        7
1070
     0
1070
     1
1071
        4
1040
1.420999999998571
1040
0.0
1040
1.420999999998571
1040
8.763099999991255
1040
0.0
1040
8.763099999991255
1040
0.0
1040
0.0
1071
        4
1005
2227C
1005
2228B
1005
2227D
1005
2227F
1070
     0
1070
     1
1040
0.0
1040
0.15
1070
     0
1070
     2
1040
0.7853981633974483
1040
49.29960901727088
1040
-10.17736998311392
1040
-0.3367596045400932
1040
0.3367596045400932
1070
     0
1040
2.356194490192345
1040
49.29960901727088
1040
-10.17736998311392
1040
-0.3367596045400932
1040
-0.3367596045400932
1070
     0
1040
0.0053004257112761
1071
        1
1040
1.079051535452663
1040
4.148538732891836
1040
0.0
1002
}
  0
ENDBLK
  5
222B9
330
22270
100
AcDbEntity
  8
0
100
AcDbBlockEnd
  0
BLOCK
  5
22C01
330
22A73
100
AcDbEntity
  8
0
100
AcDbBlockBegin
  2
*X47
 70
     1
 10
0.0
 20
0.0
 30
0.0
  3
*X47
  1

  0
LINE
  5
22A74
330
22A73
100
AcDbEntity
  8
0
  6
CONTINUOUS
100
AcDbLine
 10
3.418023043697893
 20
7.251849696850613
 30
0.0
 11
4.929273346838536
 21
8.763099999991255
 31
0.0
  0
LINE
  5
22A75
330
22A73
100
AcDbEntity
  8
0
  6
CONTINUOUS
100
AcDbLine
 10
1.483656411257782
 20
4.643963855330318
 30
0.0
 11
5.60279255591872
 21
8.763099999991255
 31
0.0
  0
LINE
  5
22A76
330
22A73
100
AcDbEntity
  8
0
  6
CONTINUOUS
100
AcDbLine
 10
1.755053947328235
 20
4.241842182320584
 30
0.0
 11
6.276311764998907
 21
8.763099999991255
 31
0.0
  0
LINE
  5
22A77
330
22A73
100
AcDbEntity
  8
0
  6
CONTINUOUS
100
AcDbLine
 10
2.026451483398688
 20
3.839720509310849
 30
0.0
 11
4.441040904851878
 21
6.254309930764039
 31
0.0
  0
LINE
  5
22A78
330
22A73
100
AcDbEntity
  8
0
  6
CONTINUOUS
100
AcDbLine
 10
2.297849019469139
 20
3.437598836301114
 30
0.0
 11
3.321765168359338
 21
4.461514985191313
 31
0.0
  0
LINE
  5
22A79
330
22A73
100
AcDbEntity
  8
0
  6
CONTINUOUS
100
AcDbLine
 10
2.569246555539591
 20
3.03547716329138
 30
0.0
 11
3.593163397972743
 21
4.059394005724531
 31
0.0
  0
LINE
  5
22A7A
330
22A73
100
AcDbEntity
  8
0
  6
CONTINUOUS
100
AcDbLine
 10
2.840644091610043
 20
2.633355490281646
 30
0.0
 11
3.864561627586149
 21
3.657273026257751
 31
0.0
  0
LINE
  5
22A7B
330
22A73
100
AcDbEntity
  8
0
  6
CONTINUOUS
100
AcDbLine
 10
3.112041627680496
 20
2.231233817271911
 30
0.0
 11
4.135959857199554
 21
3.25515204679097
 31
0.0
  0
LINE
  5
22A7C
330
22A73
100
AcDbEntity
  8
0
  6
CONTINUOUS
100
AcDbLine
 10
3.383439163750948
 20
1.829112144262177
 30
0.0
 11
4.40735808681296
 21
2.853031067324189
 31
0.0
  0
LINE
  5
22A7D
330
22A73
100
AcDbEntity
  8
0
  6
CONTINUOUS
100
AcDbLine
 10
3.654836699821399
 20
1.426990471252442
 30
0.0
 11
4.678756316426365
 21
2.450910087857407
 31
0.0
  0
LINE
  5
22A7E
330
22A73
100
AcDbEntity
  8
0
  6
CONTINUOUS
100
AcDbLine
 10
3.926234235891853
 20
1.024868798242709
 30
0.0
 11
4.95015454603977
 21
2.048789108390626
 31
0.0
  0
LINE
  5
22A7F
330
22A73
100
AcDbEntity
  8
0
  6
CONTINUOUS
100
AcDbLine
 10
4.197631771962304
 20
0.6227471252329737
 30
0.0
 11
5.221552775653176
 21
1.646668128923846
 31
0.0
  0
LINE
  5
22A80
330
22A73
100
AcDbEntity
  8
0
  6
CONTINUOUS
100
AcDbLine
 10
8.715877546767851
 20
7.835069736359266
 30
0.0
 11
9.435953450375058
 21
8.555145639966472
 31
0.0
  0
LINE
  5
22A81
330
22A73
100
AcDbEntity
  8
0
  6
CONTINUOUS
100
AcDbLine
 10
8.170620868422267
 20
6.616293848933497
 30
0.0
 11
9.644120833743461
 21
8.08979381425469
 31
0.0
  0
LINE
  5
22A82
330
22A73
100
AcDbEntity
  8
0
  6
CONTINUOUS
100
AcDbLine
 10
7.625364190076684
 20
5.397517961507727
 30
0.0
 11
9.852288217111864
 21
7.624441988542907
 31
0.0
  0
LINE
  5
22A83
330
22A73
100
AcDbEntity
  8
0
  6
CONTINUOUS
100
AcDbLine
 10
7.080107511731101
 20
4.178742074081957
 30
0.0
 11
10.06045560048027
 21
7.159090162831124
 31
0.0
  0
LINE
  5
22A84
330
22A73
100
AcDbEntity
  8
0
  6
CONTINUOUS
100
AcDbLine
 10
6.534850833385518
 20
2.959966186656187
 30
0.0
 11
10.26862298384867
 21
6.693738337119342
 31
0.0
  0
LINE
  5
22A85
330
22A73
100
AcDbEntity
  8
0
  6
CONTINUOUS
100
AcDbLine
 10
4.469029308032756
 20
0.2206254522232385
 30
0.0
 11
5.492951005266582
 21
1.244547149457064
 31
0.0
  0
LINE
  5
22A86
330
22A73
100
AcDbEntity
  8
0
  6
CONTINUOUS
100
AcDbLine
 10
5.989594155039935
 20
1.741190299230417
 30
0.0
 11
8.806950407233131
 21
4.558546551423613
 31
0.0
  0
LINE
  5
22A87
330
22A73
100
AcDbEntity
  8
0
  6
CONTINUOUS
100
AcDbLine
 10
9.401251593263643
 20
5.152847737454126
 30
0.0
 11
10.47679036721708
 21
6.228386511407559
 31
0.0
  0
LINE
  5
22A88
330
22A73
100
AcDbEntity
  8
0
  6
CONTINUOUS
100
AcDbLine
 10
4.921837203428691
 20
-0.0000858614610131
 30
0.0
 11
8.592923064886001
 21
3.670999999996297
 31
0.0
  0
LINE
  5
22A89
330
22A73
100
AcDbEntity
  8
0
  6
CONTINUOUS
100
AcDbLine
 10
9.609390446785305
 20
4.6874673818956
 30
0.0
 11
10.68495775058548
 21
5.763034685695775
 31
0.0
  0
LINE
  5
22A8A
330
22A73
100
AcDbEntity
  8
0
  6
CONTINUOUS
100
AcDbLine
 10
5.595387755019432
 20
-0.0000545189504582
 30
0.0
 11
7.716137258923768
 21
2.120694984953879
 31
0.0
  0
LINE
  5
22A8B
330
22A73
100
AcDbEntity
  8
0
  6
CONTINUOUS
100
AcDbLine
 10
6.268938306610172
 20
-0.000023176439905
 30
0.0
 11
7.170485805526503
 21
0.9015243224764267
 31
0.0
  0
LINE
  5
22A8C
330
22A73
100
AcDbEntity
  8
0
  6
CONTINUOUS
100
AcDbLine
 10
7.963842273967511
 20
2.368399999997621
 30
0.0
 11
9.266442273966188
 21
3.670999999996297
 31
0.0
  0
LINE
  5
22A8D
330
22A73
100
AcDbEntity
  8
0
  6
CONTINUOUS
100
AcDbLine
 10
8.637361483047696
 20
2.368399999997621
 30
0.0
 11
9.939961483046375
 21
3.670999999996297
 31
0.0
  0
LINE
  5
22A8E
330
22A73
100
AcDbEntity
  8
0
  6
CONTINUOUS
100
AcDbLine
 10
9.817529300306965
 20
4.222087026337075
 30
0.0
 11
10.89312513395388
 21
5.297682859983993
 31
0.0
  0
LINE
  5
22A8F
330
22A73
100
AcDbEntity
  8
0
  6
CONTINUOUS
100
AcDbLine
 10
10.02566815382863
 20
3.756706670778549
 30
0.0
 11
11.10129251732229
 21
4.832331034272211
 31
0.0
  0
LINE
  5
22A90
330
22A73
100
AcDbEntity
  8
0
  6
CONTINUOUS
100
AcDbLine
 10
9.310880692127883
 20
2.368399999997621
 30
0.0
 11
11.30945990069069
 21
4.366979208560428
 31
0.0
  0
LINE
  5
22A91
330
22A73
100
AcDbEntity
  8
0
  6
CONTINUOUS
100
AcDbLine
 10
9.98439990120807
 20
2.36839999999762
 30
0.0
 11
11.5176272840591
 21
3.901627382848645
 31
0.0
  0
LINE
  5
22A92
330
22A73
100
AcDbEntity
  8
0
  6
CONTINUOUS
100
AcDbLine
 10
10.65037369446246
 20
2.36085458417182
 30
0.0
 11
11.7257946674275
 21
3.436275557136862
 31
0.0
  0
LINE
  5
22A93
330
22A73
100
AcDbEntity
  8
0
  6
CONTINUOUS
100
AcDbLine
 10
10.85847197087848
 20
1.895433651507656
 30
0.0
 11
11.9339620507959
 21
2.97092373142508
 31
0.0
  0
LINE
  5
22A94
330
22A73
100
AcDbEntity
  8
0
  6
CONTINUOUS
100
AcDbLine
 10
11.0665702472945
 20
1.430012718843491
 30
0.0
 11
12.14212943416431
 21
2.505571905713296
 31
0.0
  0
LINE
  5
22A95
330
22A73
100
AcDbEntity
  8
0
  6
CONTINUOUS
100
AcDbLine
 10
11.27466852371052
 20
0.9645917861793256
 30
0.0
 11
12.35029681753271
 21
2.040220080001513
 31
0.0
  0
LINE
  5
22A96
330
22A73
100
AcDbEntity
  8
0
  6
CONTINUOUS
100
AcDbLine
 10
11.48276680012654
 20
0.4991708535151611
 30
0.0
 11
12.55846420090111
 21
1.57486825428973
 31
0.0
  0
LINE
  5
22A97
330
22A73
100
AcDbEntity
  8
0
  6
CONTINUOUS
100
AcDbLine
 10
11.69086507654257
 20
0.0337499208509957
 30
0.0
 11
12.76663158426952
 21
1.109516428577947
 31
0.0
  0
LINE
  5
22A98
330
22A73
100
AcDbEntity
  8
0
  6
CONTINUOUS
100
AcDbLine
 10
12.33057447873954
 20
-0.0000598860322123
 30
0.0
 11
12.97479896763792
 21
0.6441646028661663
 31
0.0
  0
LINE
  5
22A99
330
22A73
100
AcDbEntity
  8
0
  6
CONTINUOUS
100
AcDbLine
 10
13.00413694809395
 20
-0.0000166257579952
 30
0.0
 11
13.18296635100632
 21
0.1788127771543824
 31
0.0
  0
LINE
  5
22A9A
330
22A73
100
AcDbEntity
  8
0
  6
CONTINUOUS
100
AcDbLine
 10
4.772852165289667
 20
-0.000092794222212
 30
0.0
 11
4.296495091028902
 21
0.4762642800385528
 31
0.0
  0
LINE
  5
22A9B
330
22A73
100
AcDbEntity
  8
0
  6
CONTINUOUS
100
AcDbLine
 10
5.446340034776103
 20
-0.0000614546284616
 30
0.0
 11
2.898195908335625
 21
2.548082671812017
 31
0.0
  0
LINE
  5
22A9C
330
22A73
100
AcDbEntity
  8
0
  6
CONTINUOUS
100
AcDbLine
 10
6.119827904262539
 20
-0.0000301150347113
 30
0.0
 11
1.499896725642348
 21
4.61990106358548
 31
0.0
  0
LINE
  5
22A9D
330
22A73
100
AcDbEntity
  8
0
  6
CONTINUOUS
100
AcDbLine
 10
6.775136745476159
 20
0.0181802528318542
 30
0.0
 11
5.699826040202669
 21
1.093490958105344
 31
0.0
  0
LINE
  5
22A9E
330
22A73
100
AcDbEntity
  8
0
  6
CONTINUOUS
100
AcDbLine
 10
6.983376846288489
 20
0.4834593610997118
 30
0.0
 11
5.908008617934405
 21
1.558827589453796
 31
0.0
  0
LINE
  5
22A9F
330
22A73
100
AcDbEntity
  8
0
  6
CONTINUOUS
100
AcDbLine
 10
5.377063484962296
 20
1.416253513345719
 30
0.0
 11
1.702276957014131
 21
5.091040041293883
 31
0.0
  0
LINE
  5
22AA0
330
22A73
100
AcDbEntity
  8
0
  6
CONTINUOUS
100
AcDbLine
 10
3.978745891735324
 20
3.488090315652877
 30
0.0
 11
2.000373521109399
 21
5.466462686278803
 31
0.0
  0
LINE
  5
22AA1
330
22A73
100
AcDbEntity
  8
0
  6
CONTINUOUS
100
AcDbLine
 10
7.191616947100819
 20
0.948738469367568
 30
0.0
 11
6.11619119566614
 21
2.024164220802247
 31
0.0
  0
LINE
  5
22AA2
330
22A73
100
AcDbEntity
  8
0
  6
CONTINUOUS
100
AcDbLine
 10
7.399857047913149
 20
1.414017577635424
 30
0.0
 11
6.324373773397875
 21
2.489500852150698
 31
0.0
  0
LINE
  5
22AA3
330
22A73
100
AcDbEntity
  8
0
  6
CONTINUOUS
100
AcDbLine
 10
7.608097148725479
 20
1.879296685903281
 30
0.0
 11
6.53255635112961
 21
2.95483748349915
 31
0.0
  0
LINE
  5
22AA4
330
22A73
100
AcDbEntity
  8
0
  6
CONTINUOUS
100
AcDbLine
 10
7.816337249537808
 20
2.344575794171138
 30
0.0
 11
6.740738928861345
 21
3.420174114847601
 31
0.0
  0
LINE
  5
22AA5
330
22A73
100
AcDbEntity
  8
0
  6
CONTINUOUS
100
AcDbLine
 10
3.310241080789734
 20
4.830114335678653
 30
0.0
 11
2.298470085204666
 21
5.84188533126372
 31
0.0
  0
LINE
  5
22AA6
330
22A73
100
AcDbEntity
  8
0
  6
CONTINUOUS
100
AcDbLine
 10
3.60832983563551
 20
5.205544789913063
 30
0.0
 11
2.596566649299935
 21
6.217307976248638
 31
0.0
  0
LINE
  5
22AA7
330
22A73
100
AcDbEntity
  8
0
  6
CONTINUOUS
100
AcDbLine
 10
3.906418590481286
 20
5.580975244147473
 30
0.0
 11
2.894663213395203
 21
6.592730621233557
 31
0.0
  0
LINE
  5
22AA8
330
22A73
100
AcDbEntity
  8
0
  6
CONTINUOUS
100
AcDbLine
 10
4.204507345327062
 20
5.956405698381884
 30
0.0
 11
3.192759777490472
 21
6.968153266218474
 31
0.0
  0
LINE
  5
22AA9
330
22A73
100
AcDbEntity
  8
0
  6
CONTINUOUS
100
AcDbLine
 10
8.466032252791512
 20
2.368399999997621
 30
0.0
 11
6.948921506593081
 21
3.885510746196053
 31
0.0
  0
LINE
  5
22AAA
330
22A73
100
AcDbEntity
  8
0
  6
CONTINUOUS
100
AcDbLine
 10
9.139551461871699
 20
2.36839999999762
 30
0.0
 11
7.157104084324816
 21
4.350847377544504
 31
0.0
  0
LINE
  5
22AAB
330
22A73
100
AcDbEntity
  8
0
  6
CONTINUOUS
100
AcDbLine
 10
4.502596100172839
 20
6.331836152616295
 30
0.0
 11
3.49085634158574
 21
7.343575911203393
 31
0.0
  0
LINE
  5
22AAC
330
22A73
100
AcDbEntity
  8
0
  6
CONTINUOUS
100
AcDbLine
 10
4.800684855018615
 20
6.707266606850705
 30
0.0
 11
3.788952905681008
 21
7.718998556188312
 31
0.0
  0
LINE
  5
22AAD
330
22A73
100
AcDbEntity
  8
0
  6
CONTINUOUS
100
AcDbLine
 10
12.18154012887317
 20
-0.0000694579236642
 30
0.0
 11
11.32140332908496
 21
0.8600673418645499
 31
0.0
  0
LINE
  5
22AAE
330
22A73
100
AcDbEntity
  8
0
  6
CONTINUOUS
100
AcDbLine
 10
12.85501608323566
 20
-0.0000262032059659
 30
0.0
 11
10.77672456435345
 21
2.078265315676246
 31
0.0
  0
LINE
  5
22AAF
330
22A73
100
AcDbEntity
  8
0
  6
CONTINUOUS
100
AcDbLine
 10
9.813070670951886
 20
2.36839999999762
 30
0.0
 11
8.51047067095321
 21
3.670999999996297
 31
0.0
  0
LINE
  5
22AB0
330
22A73
100
AcDbEntity
  8
0
  6
CONTINUOUS
100
AcDbLine
 10
10.48658988003207
 20
2.36839999999762
 30
0.0
 11
9.183989880033396
 21
3.670999999996297
 31
0.0
  0
LINE
  5
22AB1
330
22A73
100
AcDbEntity
  8
0
  6
CONTINUOUS
100
AcDbLine
 10
8.441048632286794
 20
3.740422038662712
 30
0.0
 11
7.365286662056551
 21
4.816184008892956
 31
0.0
  0
LINE
  5
22AB2
330
22A73
100
AcDbEntity
  8
0
  6
CONTINUOUS
100
AcDbLine
 10
8.649187485808454
 20
4.205802394221237
 30
0.0
 11
7.573469239788285
 21
5.281520640241407
 31
0.0
  0
LINE
  5
22AB3
330
22A73
100
AcDbEntity
  8
0
  6
CONTINUOUS
100
AcDbLine
 10
5.098773609864391
 20
7.082697061085115
 30
0.0
 11
4.087049469776277
 21
8.09442120117323
 31
0.0
  0
LINE
  5
22AB4
330
22A73
100
AcDbEntity
  8
0
  6
CONTINUOUS
100
AcDbLine
 10
5.396862364710167
 20
7.458127515319526
 30
0.0
 11
4.385146033871544
 21
8.469843846158149
 31
0.0
  0
LINE
  5
22AB5
330
22A73
100
AcDbEntity
  8
0
  6
CONTINUOUS
100
AcDbLine
 10
13.04801363231285
 20
0.4804954567970334
 30
0.0
 11
9.85750908911358
 21
3.670999999996297
 31
0.0
  0
LINE
  5
22AB6
330
22A73
100
AcDbEntity
  8
0
  6
CONTINUOUS
100
AcDbLine
 10
8.857326339330116
 20
4.671182749779763
 30
0.0
 11
7.781651817520021
 21
5.746857271589858
 31
0.0
  0
LINE
  5
22AB7
330
22A73
100
AcDbEntity
  8
0
  6
CONTINUOUS
100
AcDbLine
 10
5.694951119555943
 20
7.833557969553937
 30
0.0
 11
4.765409089118624
 21
8.763099999991255
 31
0.0
  0
LINE
  5
22AB8
330
22A73
100
AcDbEntity
  8
0
  6
CONTINUOUS
100
AcDbLine
 10
12.50286117236978
 20
1.699167125820288
 30
0.0
 11
9.68611877250287
 21
4.515909525687196
 31
0.0
  0
LINE
  5
22AB9
330
22A73
100
AcDbEntity
  8
0
  6
CONTINUOUS
100
AcDbLine
 10
9.065465192851777
 20
5.136563105338288
 30
0.0
 11
7.989834395251757
 21
6.21219390293831
 31
0.0
  0
LINE
  5
22ABA
330
22A73
100
AcDbEntity
  8
0
  6
CONTINUOUS
100
AcDbLine
 10
5.993039874401719
 20
8.208988423788346
 30
0.0
 11
5.43892829819881
 21
8.763099999991255
 31
0.0
  0
LINE
  5
22ABB
330
22A73
100
AcDbEntity
  8
0
  6
CONTINUOUS
100
AcDbLine
 10
11.95770871242671
 20
2.917838794843543
 30
0.0
 11
8.19801697298349
 21
6.677530534286761
 31
0.0
  0
LINE
  5
22ABC
330
22A73
100
AcDbEntity
  8
0
  6
CONTINUOUS
100
AcDbLine
 10
6.291128629247495
 20
8.584418878022756
 30
0.0
 11
6.112447507278997
 21
8.763099999991255
 31
0.0
  0
LINE
  5
22ABD
330
22A73
100
AcDbEntity
  8
0
  6
CONTINUOUS
100
AcDbLine
 10
11.41255625248364
 20
4.136510463866797
 30
0.0
 11
8.406199550715227
 21
7.142867165635211
 31
0.0
  0
LINE
  5
22ABE
330
22A73
100
AcDbEntity
  8
0
  6
CONTINUOUS
100
AcDbLine
 10
10.86740379254057
 20
5.355182132890051
 30
0.0
 11
8.614382128446962
 21
7.608203796983664
 31
0.0
  0
LINE
  5
22ABF
330
22A73
100
AcDbEntity
  8
0
  6
CONTINUOUS
100
AcDbLine
 10
10.3222513325975
 20
6.573853801913305
 30
0.0
 11
8.822564706178696
 21
8.073540428332114
 31
0.0
  0
LINE
  5
22AC0
330
22A73
100
AcDbEntity
  8
0
  6
CONTINUOUS
100
AcDbLine
 10
9.777098872654436
 20
7.792525470936562
 30
0.0
 11
9.030747283910433
 21
8.538877059680566
 31
0.0
  0
ENDBLK
  5
22C02
330
22A73
100
AcDbEntity
  8
0
100
AcDbBlockEnd
  0
BLOCK
  5
22C03
330
22AC1
100
AcDbEntity
  8
0
100
AcDbBlockBegin
  2
*X48
 70
     1
 10
0.0
 20
0.0
 30
0.0
  3
*X48
  1

  0
LINE
  5
22AC2
330
22AC1
100
AcDbEntity
  8
0
  6
CONTINUOUS
100
AcDbLine
 10
10.67292308101235
 20
8.445076852443387
 30
0.0
 11
10.99094622856022
 21
8.763099999991255
 31
0.0
  0
LINE
  5
22AC3
330
22AC1
100
AcDbEntity
  8
0
  6
CONTINUOUS
100
AcDbLine
 10
10.87250383178748
 20
7.971138394138331
 30
0.0
 11
11.6644654376404
 21
8.763099999991255
 31
0.0
  0
LINE
  5
22AC4
330
22AC1
100
AcDbEntity
  8
0
  6
CONTINUOUS
100
AcDbLine
 10
11.07208458256261
 20
7.497199935833273
 30
0.0
 11
12.12126590876355
 21
8.546381262034211
 31
0.0
  0
LINE
  5
22AC5
330
22AC1
100
AcDbEntity
  8
0
  6
CONTINUOUS
100
AcDbLine
 10
11.27166533333774
 20
7.023261477528216
 30
0.0
 11
12.32085164573666
 21
8.072447789927136
 31
0.0
  0
LINE
  5
22AC6
330
22AC1
100
AcDbEntity
  8
0
  6
CONTINUOUS
100
AcDbLine
 10
11.47124608411287
 20
6.549323019223158
 30
0.0
 11
12.52043738270977
 21
7.59851431782006
 31
0.0
  0
LINE
  5
22AC7
330
22AC1
100
AcDbEntity
  8
0
  6
CONTINUOUS
100
AcDbLine
 10
11.670826834888
 20
6.075384560918101
 30
0.0
 11
12.72002311968288
 21
7.124580845712984
 31
0.0
  0
LINE
  5
22AC8
330
22AC1
100
AcDbEntity
  8
0
  6
CONTINUOUS
100
AcDbLine
 10
11.87040758566313
 20
5.601446102613043
 30
0.0
 11
12.91960885665599
 21
6.650647373605907
 31
0.0
  0
LINE
  5
22AC9
330
22AC1
100
AcDbEntity
  8
0
  6
CONTINUOUS
100
AcDbLine
 10
12.06998833643825
 20
5.127507644307986
 30
0.0
 11
13.1191945936291
 21
6.176713901498832
 31
0.0
  0
LINE
  5
22ACA
330
22AC1
100
AcDbEntity
  8
0
  6
CONTINUOUS
100
AcDbLine
 10
12.26956908721338
 20
4.65356918600293
 30
0.0
 11
13.31878033060221
 21
5.702780429391757
 31
0.0
  0
LINE
  5
22ACB
330
22AC1
100
AcDbEntity
  8
0
  6
CONTINUOUS
100
AcDbLine
 10
12.46914983798851
 20
4.179630727697873
 30
0.0
 11
13.51836606757532
 21
5.228846957284683
 31
0.0
  0
LINE
  5
22ACC
330
22AC1
100
AcDbEntity
  8
0
  6
CONTINUOUS
100
AcDbLine
 10
12.66873058876364
 20
3.705692269392816
 30
0.0
 11
13.71795180454843
 21
4.754913485177607
 31
0.0
  0
LINE
  5
22ACD
330
22AC1
100
AcDbEntity
  8
0
  6
CONTINUOUS
100
AcDbLine
 10
12.86831133953877
 20
3.231753811087759
 30
0.0
 11
13.91753754152154
 21
4.280980013070531
 31
0.0
  0
LINE
  5
22ACE
330
22AC1
100
AcDbEntity
  8
0
  6
CONTINUOUS
100
AcDbLine
 10
13.0678920903139
 20
2.757815352782702
 30
0.0
 11
14.11712327849465
 21
3.807046540963456
 31
0.0
  0
LINE
  5
22ACF
330
22AC1
100
AcDbEntity
  8
0
  6
CONTINUOUS
100
AcDbLine
 10
13.26747284108903
 20
2.283876894477644
 30
0.0
 11
14.31670901546777
 21
3.333113068856379
 31
0.0
  0
LINE
  5
22AD0
330
22AC1
100
AcDbEntity
  8
0
  6
CONTINUOUS
100
AcDbLine
 10
16.36767838827179
 20
8.751678487061342
 30
0.0
 11
16.50332410898388
 21
8.887324207773432
 31
0.0
  0
LINE
  5
22AD1
330
22AC1
100
AcDbEntity
  8
0
  6
CONTINUOUS
100
AcDbLine
 10
15.96190732182191
 20
7.67238821153127
 30
0.0
 11
16.68735328004734
 21
8.397834169756699
 31
0.0
  0
LINE
  5
22AD2
330
22AC1
100
AcDbEntity
  8
0
  6
CONTINUOUS
100
AcDbLine
 10
15.55613625537202
 20
6.593097936001196
 30
0.0
 11
16.87138245111079
 21
7.908344131739965
 31
0.0
  0
LINE
  5
22AD3
330
22AC1
100
AcDbEntity
  8
0
  6
CONTINUOUS
100
AcDbLine
 10
15.15036518892213
 20
5.513807660471122
 30
0.0
 11
17.05541162217424
 21
7.418854093723231
 31
0.0
  0
LINE
  5
22AD4
330
22AC1
100
AcDbEntity
  8
0
  6
CONTINUOUS
100
AcDbLine
 10
14.74459412247225
 20
4.434517384941048
 30
0.0
 11
17.2394407932377
 21
6.929364055706499
 31
0.0
  0
LINE
  5
22AD5
330
22AC1
100
AcDbEntity
  8
0
  6
CONTINUOUS
100
AcDbLine
 10
14.33882305602236
 20
3.355227109410975
 30
0.0
 11
17.42346996430115
 21
6.439874017689766
 31
0.0
  0
LINE
  5
22AD6
330
22AC1
100
AcDbEntity
  8
0
  6
CONTINUOUS
100
AcDbLine
 10
13.46705359186416
 20
1.809938436172586
 30
0.0
 11
16.0819338255367
 21
4.424818669845129
 31
0.0
  0
LINE
  5
22AD7
330
22AC1
100
AcDbEntity
  8
0
  6
CONTINUOUS
100
AcDbLine
 10
16.63283254238972
 20
4.975717386698149
 30
0.0
 11
17.60749913536461
 21
5.950383979673033
 31
0.0
  0
LINE
  5
22AD8
330
22AC1
100
AcDbEntity
  8
0
  6
CONTINUOUS
100
AcDbLine
 10
13.66663434263929
 20
1.335999977867529
 30
0.0
 11
15.67604797733754
 21
3.345413612565779
 31
0.0
  0
LINE
  5
22AD9
330
22AC1
100
AcDbEntity
  8
0
  6
CONTINUOUS
100
AcDbLine
 10
13.86621509341442
 20
0.8620615195624723
 30
0.0
 11
15.27016212913838
 21
2.26600855528643
 31
0.0
  0
LINE
  5
22ADA
330
22AC1
100
AcDbEntity
  8
0
  6
CONTINUOUS
100
AcDbLine
 10
16.81682257348267
 20
4.486188208710908
 30
0.0
 11
17.79152830642806
 21
5.460893941656299
 31
0.0
  0
LINE
  5
22ADB
330
22AC1
100
AcDbEntity
  8
0
  6
CONTINUOUS
100
AcDbLine
 10
17.00081260457561
 20
3.996659030723667
 30
0.0
 11
17.97555747749151
 21
4.971403903639565
 31
0.0
  0
LINE
  5
22ADC
330
22AC1
100
AcDbEntity
  8
0
  6
CONTINUOUS
100
AcDbLine
 10
20.74362343514722
 20
8.412989070375462
 30
0.0
 11
21.09373436476302
 21
8.763099999991256
 31
0.0
  0
LINE
  5
22ADD
330
22AC1
100
AcDbEntity
  8
0
  6
CONTINUOUS
100
AcDbLine
 10
20.25401257174777
 20
7.249858997895826
 30
0.0
 11
21.7672535738432
 21
8.763099999991255
 31
0.0
  0
LINE
  5
22ADE
330
22AC1
100
AcDbEntity
  8
0
  6
CONTINUOUS
100
AcDbLine
 10
14.06579584418955
 20
0.3881230612574149
 30
0.0
 11
14.86427628093921
 21
1.186603498007082
 31
0.0
  0
LINE
  5
22ADF
330
22AC1
100
AcDbEntity
  8
0
  6
CONTINUOUS
100
AcDbLine
 10
14.26537659496467
 20
-0.0858153970476412
 30
0.0
 11
14.45839043274005
 21
0.1071984407277329
 31
0.0
  0
LINE
  5
22AE0
330
22AC1
100
AcDbEntity
  8
0
  6
CONTINUOUS
100
AcDbLine
 10
17.18480263566856
 20
3.507129852736426
 30
0.0
 11
18.15958664855496
 21
4.481913865622833
 31
0.0
  0
LINE
  5
22AE1
330
22AC1
100
AcDbEntity
  8
0
  6
CONTINUOUS
100
AcDbLine
 10
17.3687926667615
 20
3.017600674749186
 30
0.0
 11
18.34361581961842
 21
3.9924238276061
 31
0.0
  0
LINE
  5
22AE2
330
22AC1
100
AcDbEntity
  8
0
  6
CONTINUOUS
100
AcDbLine
 10
19.76440170834832
 20
6.086728925416191
 30
0.0
 11
22.33924590259489
 21
8.661573119662755
 31
0.0
  0
LINE
  5
22AE3
330
22AC1
100
AcDbEntity
  8
0
  6
CONTINUOUS
100
AcDbLine
 10
19.27479084494887
 20
4.923598852936555
 30
0.0
 11
21.84929622842713
 21
7.498104236414807
 31
0.0
  0
LINE
  5
22AE4
330
22AC1
100
AcDbEntity
  8
0
  6
CONTINUOUS
100
AcDbLine
 10
17.55278269785445
 20
2.528071496761945
 30
0.0
 11
18.52764499068187
 21
3.502933789589366
 31
0.0
  0
LINE
  5
22AE5
330
22AC1
100
AcDbEntity
  8
0
  6
CONTINUOUS
100
AcDbLine
 10
18.78517998154942
 20
3.760468780456919
 30
0.0
 11
21.35934655425936
 21
6.33463535316686
 31
0.0
  0
LINE
  5
22AE6
330
22AC1
100
AcDbEntity
  8
0
  6
CONTINUOUS
100
AcDbLine
 10
17.73677272894739
 20
2.038542318774704
 30
0.0
 11
20.8693968800916
 21
5.171166469918914
 31
0.0
  0
LINE
  5
22AE7
330
22AC1
100
AcDbEntity
  8
0
  6
CONTINUOUS
100
AcDbLine
 10
17.92076276004034
 20
1.549013140787464
 30
0.0
 11
20.37944720592384
 21
4.007697586670968
 31
0.0
  0
LINE
  5
22AE8
330
22AC1
100
AcDbEntity
  8
0
  6
CONTINUOUS
100
AcDbLine
 10
18.10475279113329
 20
1.059483962800223
 30
0.0
 11
19.88949753175608
 21
2.84422870342302
 31
0.0
  0
LINE
  5
22AE9
330
22AC1
100
AcDbEntity
  8
0
  6
CONTINUOUS
100
AcDbLine
 10
18.28874282222623
 20
0.5699547848129822
 30
0.0
 11
19.39954785758832
 21
1.680759820175074
 31
0.0
  0
LINE
  5
22AEA
330
22AC1
100
AcDbEntity
  8
0
  6
CONTINUOUS
100
AcDbLine
 10
18.47273285331918
 20
0.0804256068257416
 30
0.0
 11
18.90959818342056
 21
0.517290936927127
 31
0.0
  0
LINE
  5
22AEB
330
22AC1
100
AcDbEntity
  8
0
  6
CONTINUOUS
100
AcDbLine
 10
14.3590401358224
 20
-0.1570118376323384
 30
0.0
 11
14.24903296539946
 21
-0.0470046672093929
 31
0.0
  0
LINE
  5
22AEC
330
22AC1
100
AcDbEntity
  8
0
  6
CONTINUOUS
100
AcDbLine
 10
14.54309291258661
 20
0.332454594683643
 30
0.0
 11
13.75908329123172
 21
1.116464216038529
 31
0.0
  0
LINE
  5
22AED
330
22AC1
100
AcDbEntity
  8
0
  6
CONTINUOUS
100
AcDbLine
 10
14.72714568935081
 20
0.8219210269996244
 30
0.0
 11
13.26913361706399
 21
2.27993309928645
 31
0.0
  0
LINE
  5
22AEE
330
22AC1
100
AcDbEntity
  8
0
  6
CONTINUOUS
100
AcDbLine
 10
14.91119846611502
 20
1.311387459315606
 30
0.0
 11
12.77918394289625
 21
3.443401982534371
 31
0.0
  0
LINE
  5
22AEF
330
22AC1
100
AcDbEntity
  8
0
  6
CONTINUOUS
100
AcDbLine
 10
15.09525124287922
 20
1.800853891631587
 30
0.0
 11
12.28923426872852
 21
4.606870865782293
 31
0.0
  0
LINE
  5
22AF0
330
22AC1
100
AcDbEntity
  8
0
  6
CONTINUOUS
100
AcDbLine
 10
15.27930401964343
 20
2.290320323947569
 30
0.0
 11
11.79928459456078
 21
5.770339749030213
 31
0.0
  0
LINE
  5
22AF1
330
22AC1
100
AcDbEntity
  8
0
  6
CONTINUOUS
100
AcDbLine
 10
15.46335679640763
 20
2.77978675626355
 30
0.0
 11
14.48885470994921
 21
3.754288842721972
 31
0.0
  0
LINE
  5
22AF2
330
22AC1
100
AcDbEntity
  8
0
  6
CONTINUOUS
100
AcDbLine
 10
13.88507249233704
 20
4.358071060334137
 30
0.0
 11
11.30933492039305
 21
6.933808632278135
 31
0.0
  0
LINE
  5
22AF3
330
22AC1
100
AcDbEntity
  8
0
  6
CONTINUOUS
100
AcDbLine
 10
18.75840522805855
 20
0.1582575336928151
 30
0.0
 11
18.25383727664818
 21
0.6628254851031863
 31
0.0
  0
LINE
  5
22AF4
330
22AC1
100
AcDbEntity
  8
0
  6
CONTINUOUS
100
AcDbLine
 10
15.64740957317184
 20
3.269253188579531
 30
0.0
 11
14.67288388101266
 21
4.243778880738705
 31
0.0
  0
LINE
  5
22AF5
330
22AC1
100
AcDbEntity
  8
0
  6
CONTINUOUS
100
AcDbLine
 10
13.39509276772158
 20
5.521569994029786
 30
0.0
 11
10.81938524622531
 21
8.097277515526056
 31
0.0
  0
LINE
  5
22AF6
330
22AC1
100
AcDbEntity
  8
0
  6
CONTINUOUS
100
AcDbLine
 10
18.95798597883369
 20
0.6321959919978686
 30
0.0
 11
17.84825644852853
 21
1.741925522303024
 31
0.0
  0
LINE
  5
22AF7
330
22AC1
100
AcDbEntity
  8
0
  6
CONTINUOUS
100
AcDbLine
 10
19.15756672960882
 20
1.106134450302922
 30
0.0
 11
17.44267562040888
 21
2.821025559502861
 31
0.0
  0
LINE
  5
22AF8
330
22AC1
100
AcDbEntity
  8
0
  6
CONTINUOUS
100
AcDbLine
 10
15.83146234993604
 20
3.758719620895513
 30
0.0
 11
14.85691305207612
 21
4.733268918755439
 31
0.0
  0
LINE
  5
22AF9
330
22AC1
100
AcDbEntity
  8
0
  6
CONTINUOUS
100
AcDbLine
 10
16.01551512670025
 20
4.248186053211494
 30
0.0
 11
15.04094222313957
 21
5.222758956772172
 31
0.0
  0
LINE
  5
22AFA
330
22AC1
100
AcDbEntity
  8
0
  6
CONTINUOUS
100
AcDbLine
 10
12.90511304310612
 20
6.685068927725435
 30
0.0
 11
10.8270819708403
 21
8.763099999991255
 31
0.0
  0
LINE
  5
22AFB
330
22AC1
100
AcDbEntity
  8
0
  6
CONTINUOUS
100
AcDbLine
 10
12.41513331849066
 20
7.848567861421083
 30
0.0
 11
11.50060117992049
 21
8.763099999991255
 31
0.0
  0
LINE
  5
22AFC
330
22AC1
100
AcDbEntity
  8
0
  6
CONTINUOUS
100
AcDbLine
 10
19.35714748038395
 20
1.580072908607975
 30
0.0
 11
17.03709479228923
 21
3.900125596702697
 31
0.0
  0
LINE
  5
22AFD
330
22AC1
100
AcDbEntity
  8
0
  6
CONTINUOUS
100
AcDbLine
 10
19.55672823115909
 20
2.054011366913028
 30
0.0
 11
16.63151396416958
 21
4.979225633902534
 31
0.0
  0
LINE
  5
22AFE
330
22AC1
100
AcDbEntity
  8
0
  6
CONTINUOUS
100
AcDbLine
 10
16.19956790346445
 20
4.737652485527476
 30
0.0
 11
15.22497139420302
 21
5.712248994788904
 31
0.0
  0
LINE
  5
22AFF
330
22AC1
100
AcDbEntity
  8
0
  6
CONTINUOUS
100
AcDbLine
 10
16.38362068022866
 20
5.227118917843457
 30
0.0
 11
15.40900056526648
 21
6.201739032805637
 31
0.0
  0
LINE
  5
22B00
330
22AC1
100
AcDbEntity
  8
0
  6
CONTINUOUS
100
AcDbLine
 10
19.75630898193422
 20
2.527949825218081
 30
0.0
 11
18.70774536448286
 21
3.576513442669441
 31
0.0
  0
LINE
  5
22B01
330
22AC1
100
AcDbEntity
  8
0
  6
CONTINUOUS
100
AcDbLine
 10
19.95588973270936
 20
3.001888283523134
 30
0.0
 11
18.90726987211446
 21
4.050508144118028
 31
0.0
  0
LINE
  5
22B02
330
22AC1
100
AcDbEntity
  8
0
  6
CONTINUOUS
100
AcDbLine
 10
20.15547048348449
 20
3.475826741828186
 30
0.0
 11
19.10679437974606
 21
4.524502845566614
 31
0.0
  0
LINE
  5
22B03
330
22AC1
100
AcDbEntity
  8
0
  6
CONTINUOUS
100
AcDbLine
 10
20.35505123425962
 20
3.94976520013324
 30
0.0
 11
19.30631888737766
 21
4.998497547015201
 31
0.0
  0
LINE
  5
22B04
330
22AC1
100
AcDbEntity
  8
0
  6
CONTINUOUS
100
AcDbLine
 10
20.55463198503475
 20
4.423703658438292
 30
0.0
 11
19.50584339500926
 21
5.472492248463787
 31
0.0
  0
LINE
  5
22B05
330
22AC1
100
AcDbEntity
  8
0
  6
CONTINUOUS
100
AcDbLine
 10
18.37481191085755
 20
3.909446896294752
 30
0.0
 11
15.59302973632993
 21
6.691229070822371
 31
0.0
  0
LINE
  5
22B06
330
22AC1
100
AcDbEntity
  8
0
  6
CONTINUOUS
100
AcDbLine
 10
17.96904084440766
 20
4.988737171824825
 30
0.0
 11
15.77705890739338
 21
7.180719108839104
 31
0.0
  0
LINE
  5
22B07
330
22AC1
100
AcDbEntity
  8
0
  6
CONTINUOUS
100
AcDbLine
 10
17.56326977795777
 20
6.068027447354899
 30
0.0
 11
15.96108807845684
 21
7.670209146855838
 31
0.0
  0
LINE
  5
22B08
330
22AC1
100
AcDbEntity
  8
0
  6
CONTINUOUS
100
AcDbLine
 10
17.15749871150789
 20
7.147317722884972
 30
0.0
 11
16.14511724952029
 21
8.15969918487257
 31
0.0
  0
LINE
  5
22B09
330
22AC1
100
AcDbEntity
  8
0
  6
CONTINUOUS
100
AcDbLine
 10
16.751727645058
 20
8.226607998415046
 30
0.0
 11
16.32914642058374
 21
8.649189222889303
 31
0.0
  0
LINE
  5
22B0A
330
22AC1
100
AcDbEntity
  8
0
  6
CONTINUOUS
100
AcDbLine
 10
20.75421273580989
 20
4.897642116743345
 30
0.0
 11
19.70536790264086
 21
5.946486949912374
 31
0.0
  0
LINE
  5
22B0B
330
22AC1
100
AcDbEntity
  8
0
  6
CONTINUOUS
100
AcDbLine
 10
20.95379348658502
 20
5.371580575048398
 30
0.0
 11
19.90489241027246
 21
6.42048165136096
 31
0.0
  0
LINE
  5
22B0C
330
22AC1
100
AcDbEntity
  8
0
  6
CONTINUOUS
100
AcDbLine
 10
21.15337423736015
 20
5.845519033353452
 30
0.0
 11
20.10441691790406
 21
6.894476352809547
 31
0.0
  0
LINE
  5
22B0D
330
22AC1
100
AcDbEntity
  8
0
  6
CONTINUOUS
100
AcDbLine
 10
21.35295498813529
 20
6.319457491658505
 30
0.0
 11
20.30394142553566
 21
7.368471054258134
 31
0.0
  0
LINE
  5
22B0E
330
22AC1
100
AcDbEntity
  8
0
  6
CONTINUOUS
100
AcDbLine
 10
21.55253573891042
 20
6.793395949963558
 30
0.0
 11
20.50346593316726
 21
7.842465755706721
 31
0.0
  0
LINE
  5
22B0F
330
22AC1
100
AcDbEntity
  8
0
  6
CONTINUOUS
100
AcDbLine
 10
21.75211648968556
 20
7.267334408268612
 30
0.0
 11
20.70299044079886
 21
8.316460457155308
 31
0.0
  0
LINE
  5
22B10
330
22AC1
100
AcDbEntity
  8
0
  6
CONTINUOUS
100
AcDbLine
 10
21.95169724046069
 20
7.741272866573663
 30
0.0
 11
20.9298701070431
 21
8.763099999991256
 31
0.0
  0
LINE
  5
22B11
330
22AC1
100
AcDbEntity
  8
0
  6
CONTINUOUS
100
AcDbLine
 10
22.15127799123582
 20
8.215211324878716
 30
0.0
 11
21.60338931612328
 21
8.763099999991256
 31
0.0
  0
LINE
  5
22B12
330
22AC1
100
AcDbEntity
  8
0
  6
CONTINUOUS
100
AcDbLine
 10
22.35085874201096
 20
8.689149783183769
 30
0.0
 11
22.27690852520347
 21
8.763099999991255
 31
0.0
  0
ENDBLK
  5
22C04
330
22AC1
100
AcDbEntity
  8
0
100
AcDbBlockEnd
  0
BLOCK
  5
22C05
330
22B13
100
AcDbEntity
  8
0
100
AcDbBlockBegin
  2
*X49
 70
     1
 10
0.0
 20
0.0
 30
0.0
  3
*X49
  1

  0
LINE
  5
22B14
330
22B13
100
AcDbEntity
  8
0
  6
CONTINUOUS
100
AcDbLine
 10
23.19462913593892
 20
8.169917934846424
 30
0.0
 11
23.70775465517246
 21
8.683043454079957
 31
0.0
  0
LINE
  5
22B15
330
22B13
100
AcDbEntity
  8
0
  6
CONTINUOUS
100
AcDbLine
 10
22.64923161835078
 20
6.951001208178088
 30
0.0
 11
23.9159364069932
 21
8.217705996820516
 31
0.0
  0
LINE
  5
22B16
330
22B13
100
AcDbEntity
  8
0
  6
CONTINUOUS
100
AcDbLine
 10
22.10383410076263
 20
5.732084481509751
 30
0.0
 11
24.12411815881395
 21
7.752368539561078
 31
0.0
  0
LINE
  5
22B17
330
22B13
100
AcDbEntity
  8
0
  6
CONTINUOUS
100
AcDbLine
 10
21.55843658317447
 20
4.513167754841414
 30
0.0
 11
24.3322999106347
 21
7.287031082301639
 31
0.0
  0
LINE
  5
22B18
330
22B13
100
AcDbEntity
  8
0
  6
CONTINUOUS
100
AcDbLine
 10
21.01303906558632
 20
3.294251028173077
 30
0.0
 11
24.54048166245544
 21
6.821693625042199
 31
0.0
  0
LINE
  5
22B19
330
22B13
100
AcDbEntity
  8
0
  6
CONTINUOUS
100
AcDbLine
 10
20.46764154799817
 20
2.075334301504738
 30
0.0
 11
23.28571549467848
 21
4.89340824818505
 31
0.0
  0
LINE
  5
22B1A
330
22B13
100
AcDbEntity
  8
0
  6
CONTINUOUS
100
AcDbLine
 10
19.92224403041002
 20
0.8564175748364002
 30
0.0
 11
22.74075865492779
 21
3.674932199354171
 31
0.0
  0
LINE
  5
22B1B
330
22B13
100
AcDbEntity
  8
0
  6
CONTINUOUS
100
AcDbLine
 10
23.67305085490148
 20
5.280743608408048
 30
0.0
 11
24.74866341427619
 21
6.356356167782759
 31
0.0
  0
LINE
  5
22B1C
330
22B13
100
AcDbEntity
  8
0
  6
CONTINUOUS
100
AcDbLine
 10
23.88118970842314
 20
4.815363252849522
 30
0.0
 11
24.95684516609694
 21
5.89101871052332
 31
0.0
  0
LINE
  5
22B1D
330
22B13
100
AcDbEntity
  8
0
  6
CONTINUOUS
100
AcDbLine
 10
19.73925852647308
 20
-0.0000871381807288
 30
0.0
 11
23.4103456646501
 21
3.670999999996297
 31
0.0
  0
LINE
  5
22B1E
330
22B13
100
AcDbEntity
  8
0
  6
CONTINUOUS
100
AcDbLine
 10
24.0893285619448
 20
4.349982897290997
 30
0.0
 11
25.16502691791769
 21
5.42568125326388
 31
0.0
  0
LINE
  5
22B1F
330
22B13
100
AcDbEntity
  8
0
  6
CONTINUOUS
100
AcDbLine
 10
20.41282099582748
 20
-0.0000438779065108
 30
0.0
 11
21.64944178675636
 21
1.236576913022366
 31
0.0
  0
LINE
  5
22B20
330
22B13
100
AcDbEntity
  8
0
  6
CONTINUOUS
100
AcDbLine
 10
22.78126487373161
 20
2.36839999999762
 30
0.0
 11
24.08386487373029
 21
3.670999999996297
 31
0.0
  0
LINE
  5
22B21
330
22B13
100
AcDbEntity
  8
0
  6
CONTINUOUS
100
AcDbLine
 10
24.29746741546646
 20
3.884602541732471
 30
0.0
 11
25.37320866973843
 21
4.960343796004441
 31
0.0
  0
LINE
  5
22B22
330
22B13
100
AcDbEntity
  8
0
  6
CONTINUOUS
100
AcDbLine
 10
21.08638346518189
 20
-0.0000006176322938
 30
0.0
 11
21.10379033335899
 21
0.0174062505448083
 31
0.0
  0
LINE
  5
22B23
330
22B13
100
AcDbEntity
  8
0
  6
CONTINUOUS
100
AcDbLine
 10
23.4547840828118
 20
2.36839999999762
 30
0.0
 11
25.58139042155918
 21
4.495006338745002
 31
0.0
  0
LINE
  5
22B24
330
22B13
100
AcDbEntity
  8
0
  6
CONTINUOUS
100
AcDbLine
 10
29.30199999996933
 20
8.215615917155148
 30
0.0
 11
29.84948408280543
 21
8.763099999991255
 31
0.0
  0
LINE
  5
22B25
330
22B13
100
AcDbEntity
  8
0
  6
CONTINUOUS
100
AcDbLine
 10
24.12830329189199
 20
2.36839999999762
 30
0.0
 11
25.78957217337993
 21
4.029668881485562
 31
0.0
  0
LINE
  5
22B26
330
22B13
100
AcDbEntity
  8
0
  6
CONTINUOUS
100
AcDbLine
 10
29.30199999996933
 20
7.54209670807496
 30
0.0
 11
30.52300329188562
 21
8.763099999991255
 31
0.0
  0
LINE
  5
22B27
330
22B13
100
AcDbEntity
  8
0
  6
CONTINUOUS
100
AcDbLine
 10
24.80182250097217
 20
2.36839999999762
 30
0.0
 11
25.99775392520067
 21
3.564331424226122
 31
0.0
  0
LINE
  5
22B28
330
22B13
100
AcDbEntity
  8
0
  6
CONTINUOUS
100
AcDbLine
 10
29.30199999996933
 20
6.868577498994774
 30
0.0
 11
30.74199999996926
 21
8.308577498994712
 31
0.0
  0
LINE
  5
22B29
330
22B13
100
AcDbEntity
  8
0
  6
CONTINUOUS
100
AcDbLine
 10
25.13028238392013
 20
2.023340673865392
 30
0.0
 11
26.20593567702142
 21
3.098993966966683
 31
0.0
  0
LINE
  5
22B2A
330
22B13
100
AcDbEntity
  8
0
  6
CONTINUOUS
100
AcDbLine
 10
25.33838066033617
 20
1.557919741201244
 30
0.0
 11
26.41411742884217
 21
2.633656509707244
 31
0.0
  0
LINE
  5
22B2B
330
22B13
100
AcDbEntity
  8
0
  6
CONTINUOUS
100
AcDbLine
 10
25.54647893675221
 20
1.092498808537098
 30
0.0
 11
26.62229918066291
 21
2.168319052447804
 31
0.0
  0
LINE
  5
22B2C
330
22B13
100
AcDbEntity
  8
0
  6
CONTINUOUS
100
AcDbLine
 10
25.75457721316825
 20
0.62707787587295
 30
0.0
 11
26.83048093248366
 21
1.702981595188365
 31
0.0
  0
LINE
  5
22B2D
330
22B13
100
AcDbEntity
  8
0
  6
CONTINUOUS
100
AcDbLine
 10
29.30199999996933
 20
6.195058289914587
 30
0.0
 11
30.74199999996926
 21
7.635058289914522
 31
0.0
  0
LINE
  5
22B2E
330
22B13
100
AcDbEntity
  8
0
  6
CONTINUOUS
100
AcDbLine
 10
29.30199999996933
 20
5.521539080834401
 30
0.0
 11
30.74199999996926
 21
6.961539080834331
 31
0.0
  0
LINE
  5
22B2F
330
22B13
100
AcDbEntity
  8
0
  6
CONTINUOUS
100
AcDbLine
 10
29.30199999996933
 20
4.848019871754214
 30
0.0
 11
30.74199999996925
 21
6.288019871754143
 31
0.0
  0
LINE
  5
22B30
330
22B13
100
AcDbEntity
  8
0
  6
CONTINUOUS
100
AcDbLine
 10
29.30199999996933
 20
4.174500662674028
 30
0.0
 11
30.74199999996925
 21
5.614500662673953
 31
0.0
  0
LINE
  5
22B31
330
22B13
100
AcDbEntity
  8
0
  6
CONTINUOUS
100
AcDbLine
 10
25.96267548958429
 20
0.1616569432088024
 30
0.0
 11
27.18411854636669
 21
1.383099999991207
 31
0.0
  0
LINE
  5
22B32
330
22B13
100
AcDbEntity
  8
0
  6
CONTINUOUS
100
AcDbLine
 10
29.30199999996933
 20
3.500981453593841
 30
0.0
 11
30.74199999996925
 21
4.940981453593762
 31
0.0
  0
LINE
  5
22B33
330
22B13
100
AcDbEntity
  8
0
  6
CONTINUOUS
100
AcDbLine
 10
26.50763775544691
 20
0.0330999999912356
 30
0.0
 11
27.85763775544689
 21
1.383099999991223
 31
0.0
  0
LINE
  5
22B34
330
22B13
100
AcDbEntity
  8
0
  6
CONTINUOUS
100
AcDbLine
 10
29.30199999996933
 20
2.827462244513656
 30
0.0
 11
30.74199999996925
 21
4.267462244513574
 31
0.0
  0
LINE
  5
22B35
330
22B13
100
AcDbEntity
  8
0
  6
CONTINUOUS
100
AcDbLine
 10
27.18115696452709
 20
0.0330999999912356
 30
0.0
 11
28.55073879889363
 21
1.402681834357775
 31
0.0
  0
LINE
  5
22B36
330
22B13
100
AcDbEntity
  8
0
  6
CONTINUOUS
100
AcDbLine
 10
29.28241816560272
 20
2.134361201066866
 30
0.0
 11
30.74199999996924
 21
3.593943035433383
 31
0.0
  0
LINE
  5
22B37
330
22B13
100
AcDbEntity
  8
0
  6
CONTINUOUS
100
AcDbLine
 10
27.85467617360728
 20
0.0330999999912356
 30
0.0
 11
30.74199999996924
 21
2.920423826353195
 31
0.0
  0
LINE
  5
22B38
330
22B13
100
AcDbEntity
  8
0
  6
CONTINUOUS
100
AcDbLine
 10
28.53897559587887
 20
0.0438802131826428
 30
0.0
 11
30.73121978677781
 21
2.236124404081585
 31
0.0
  0
LINE
  5
22B39
330
22B13
100
AcDbEntity
  8
0
  6
CONTINUOUS
100
AcDbLine
 10
29.45140055588722
 20
0.2827859641107988
 30
0.0
 11
30.49231403584965
 21
1.323699444073236
 31
0.0
  0
LINE
  5
22B3A
330
22B13
100
AcDbEntity
  8
0
  6
CONTINUOUS
100
AcDbLine
 10
19.59027867740337
 20
-0.0000967065718083
 30
0.0
 11
19.55485265190471
 21
0.035329318926844
 31
0.0
  0
LINE
  5
22B3B
330
22B13
100
AcDbEntity
  8
0
  6
CONTINUOUS
100
AcDbLine
 10
20.26375463176586
 20
-0.0000534518541091
 30
0.0
 11
19.76305575737534
 21
0.5006454225364014
 31
0.0
  0
LINE
  5
22B3C
330
22B13
100
AcDbEntity
  8
0
  6
CONTINUOUS
100
AcDbLine
 10
20.93723058612834
 20
-0.0000101971364099
 30
0.0
 11
19.97125886284597
 21
0.965961526145958
 31
0.0
  0
LINE
  5
22B3D
330
22B13
100
AcDbEntity
  8
0
  6
CONTINUOUS
100
AcDbLine
 10
21.25514828313686
 20
0.355591314935257
 30
0.0
 11
20.1794619683166
 21
1.431277629755512
 31
0.0
  0
LINE
  5
22B3E
330
22B13
100
AcDbEntity
  8
0
  6
CONTINUOUS
100
AcDbLine
 10
21.46338838394921
 20
0.8208704232030986
 30
0.0
 11
20.38766507378723
 21
1.896593733365069
 31
0.0
  0
LINE
  5
22B3F
330
22B13
100
AcDbEntity
  8
0
  6
CONTINUOUS
100
AcDbLine
 10
21.67162848476155
 20
1.28614953147094
 30
0.0
 11
20.59586817925786
 21
2.361909836974626
 31
0.0
  0
LINE
  5
22B40
330
22B13
100
AcDbEntity
  8
0
  6
CONTINUOUS
100
AcDbLine
 10
21.8798685855739
 20
1.751428639738782
 30
0.0
 11
20.80407128472849
 21
2.827225940584183
 31
0.0
  0
LINE
  5
22B41
330
22B13
100
AcDbEntity
  8
0
  6
CONTINUOUS
100
AcDbLine
 10
22.08810868638624
 20
2.216707748006623
 30
0.0
 11
21.01227439019912
 21
3.292542044193739
 31
0.0
  0
LINE
  5
22B42
330
22B13
100
AcDbEntity
  8
0
  6
CONTINUOUS
100
AcDbLine
 10
22.60993564347543
 20
2.36839999999762
 30
0.0
 11
21.22047749566975
 21
3.757858147803296
 31
0.0
  0
LINE
  5
22B43
330
22B13
100
AcDbEntity
  8
0
  6
CONTINUOUS
100
AcDbLine
 10
23.28345485255561
 20
2.36839999999762
 30
0.0
 11
21.42868060114038
 21
4.223174251412853
 31
0.0
  0
LINE
  5
22B44
330
22B13
100
AcDbEntity
  8
0
  6
CONTINUOUS
100
AcDbLine
 10
26.29227406164219
 20
0.0330999999912356
 30
0.0
 11
25.80009199592872
 21
0.5252820657046957
 31
0.0
  0
LINE
  5
22B45
330
22B13
100
AcDbEntity
  8
0
  6
CONTINUOUS
100
AcDbLine
 10
23.9569740616358
 20
2.36839999999762
 30
0.0
 11
21.63688370661101
 21
4.688490355022409
 31
0.0
  0
LINE
  5
22B46
330
22B13
100
AcDbEntity
  8
0
  6
CONTINUOUS
100
AcDbLine
 10
26.96579327072237
 20
0.0330999999912356
 30
0.0
 11
25.2554132311971
 21
1.743480039516508
 31
0.0
  0
LINE
  5
22B47
330
22B13
100
AcDbEntity
  8
0
  6
CONTINUOUS
100
AcDbLine
 10
24.63049327071599
 20
2.36839999999762
 30
0.0
 11
23.32789327071731
 21
3.670999999996297
 31
0.0
  0
LINE
  5
22B48
330
22B13
100
AcDbEntity
  8
0
  6
CONTINUOUS
100
AcDbLine
 10
22.92098674744635
 20
4.077906523267254
 30
0.0
 11
21.84508681208164
 21
5.153806458631966
 31
0.0
  0
LINE
  5
22B49
330
22B13
100
AcDbEntity
  8
0
  6
CONTINUOUS
100
AcDbLine
 10
27.63931247980256
 20
0.0330999999912356
 30
0.0
 11
24.0014124797975
 21
3.670999999996297
 31
0.0
  0
LINE
  5
22B4A
330
22B13
100
AcDbEntity
  8
0
  6
CONTINUOUS
100
AcDbLine
 10
23.129125600968
 20
4.5432868788258
 30
0.0
 11
22.05328991755227
 21
5.619122562241522
 31
0.0
  0
LINE
  5
22B4B
330
22B13
100
AcDbEntity
  8
0
  6
CONTINUOUS
100
AcDbLine
 10
28.31283168888275
 20
0.0330999999912356
 30
0.0
 11
24.16488385994816
 21
4.181047828925828
 31
0.0
  0
LINE
  5
22B4C
330
22B13
100
AcDbEntity
  8
0
  6
CONTINUOUS
100
AcDbLine
 10
23.33726445448964
 20
5.008667234384345
 30
0.0
 11
22.2614930230229
 21
6.084438665851079
 31
0.0
  0
LINE
  5
22B4D
330
22B13
100
AcDbEntity
  8
0
  6
CONTINUOUS
100
AcDbLine
 10
28.92085740005492
 20
0.0985934978992438
 30
0.0
 11
27.63635089796295
 21
1.383099999991217
 31
0.0
  0
LINE
  5
22B4E
330
22B13
100
AcDbEntity
  8
0
  6
CONTINUOUS
100
AcDbLine
 10
26.43704649509776
 20
2.582404402856405
 30
0.0
 11
23.61992702019732
 21
5.399523877756844
 31
0.0
  0
LINE
  5
22B4F
330
22B13
100
AcDbEntity
  8
0
  6
CONTINUOUS
100
AcDbLine
 10
23.54540330801128
 20
5.47404758994289
 30
0.0
 11
22.46969612849353
 21
6.549754769460635
 31
0.0
  0
LINE
  5
22B50
330
22B13
100
AcDbEntity
  8
0
  6
CONTINUOUS
100
AcDbLine
 10
29.42225615078443
 20
0.2707139562499279
 30
0.0
 11
28.30987010704312
 21
1.383099999991234
 31
0.0
  0
LINE
  5
22B51
330
22B13
100
AcDbEntity
  8
0
  6
CONTINUOUS
100
AcDbLine
 10
25.89179548232307
 20
3.801174624711282
 30
0.0
 11
22.67789923396416
 21
7.015070873070191
 31
0.0
  0
LINE
  5
22B52
330
22B13
100
AcDbEntity
  8
0
  6
CONTINUOUS
100
AcDbLine
 10
29.83624534690007
 20
0.5302439692144705
 30
0.0
 11
28.85811781497101
 21
1.508371501143527
 31
0.0
  0
LINE
  5
22B53
330
22B13
100
AcDbEntity
  8
0
  6
CONTINUOUS
100
AcDbLine
 10
25.34654446954838
 20
5.01994484656616
 30
0.0
 11
22.88610233943479
 21
7.480386976679748
 31
0.0
  0
LINE
  5
22B54
330
22B13
100
AcDbEntity
  8
0
  6
CONTINUOUS
100
AcDbLine
 10
30.17865975401872
 20
0.8613487711760022
 30
0.0
 11
29.18888744090175
 21
1.851121084292977
 31
0.0
  0
LINE
  5
22B55
330
22B13
100
AcDbEntity
  8
0
  6
CONTINUOUS
100
AcDbLine
 10
24.80129345677369
 20
6.238715068421037
 30
0.0
 11
23.09430544490542
 21
7.945703080289305
 31
0.0
  0
LINE
  5
22B56
330
22B13
100
AcDbEntity
  8
0
  6
CONTINUOUS
100
AcDbLine
 10
30.45496647202376
 20
1.258561262251155
 30
0.0
 11
29.30199999996933
 21
2.411527734305588
 31
0.0
  0
LINE
  5
22B57
330
22B13
100
AcDbEntity
  8
0
  6
CONTINUOUS
100
AcDbLine
 10
24.256042443999
 20
7.457485290275915
 30
0.0
 11
23.30250855037605
 21
8.411019183898862
 31
0.0
  0
LINE
  5
22B58
330
22B13
100
AcDbEntity
  8
0
  6
CONTINUOUS
100
AcDbLine
 10
30.64868582078271
 20
1.738361122572387
 30
0.0
 11
29.30199999996933
 21
3.085046943385775
 31
0.0
  0
LINE
  5
22B59
330
22B13
100
AcDbEntity
  8
0
  6
CONTINUOUS
100
AcDbLine
 10
23.71079143122431
 20
8.676255512130794
 30
0.0
 11
23.51071165584668
 21
8.876335287508416
 31
0.0
  0
LINE
  5
22B5A
330
22B13
100
AcDbEntity
  8
0
  6
CONTINUOUS
100
AcDbLine
 10
30.73802122914428
 20
2.322544923291007
 30
0.0
 11
29.30199999996933
 21
3.758566152465961
 31
0.0
  0
LINE
  5
22B5B
330
22B13
100
AcDbEntity
  8
0
  6
CONTINUOUS
100
AcDbLine
 10
30.74199999996924
 20
2.992085361546236
 30
0.0
 11
29.30199999996933
 21
4.432085361546148
 31
0.0
  0
LINE
  5
22B5C
330
22B13
100
AcDbEntity
  8
0
  6
CONTINUOUS
100
AcDbLine
 10
30.74199999996924
 20
3.665604570626419
 30
0.0
 11
29.30199999996933
 21
5.105604570626333
 31
0.0
  0
LINE
  5
22B5D
330
22B13
100
AcDbEntity
  8
0
  6
CONTINUOUS
100
AcDbLine
 10
30.74199999996925
 20
4.339123779706602
 30
0.0
 11
29.30199999996933
 21
5.77912377970652
 31
0.0
  0
LINE
  5
22B5E
330
22B13
100
AcDbEntity
  8
0
  6
CONTINUOUS
100
AcDbLine
 10
30.74199999996925
 20
5.012642988786785
 30
0.0
 11
29.30199999996933
 21
6.452642988786707
 31
0.0
  0
LINE
  5
22B5F
330
22B13
100
AcDbEntity
  8
0
  6
CONTINUOUS
100
AcDbLine
 10
30.74199999996925
 20
5.68616219786697
 30
0.0
 11
29.30199999996933
 21
7.126162197866894
 31
0.0
  0
LINE
  5
22B60
330
22B13
100
AcDbEntity
  8
0
  6
CONTINUOUS
100
AcDbLine
 10
30.74199999996925
 20
6.359681406947153
 30
0.0
 11
29.30199999996933
 21
7.799681406947081
 31
0.0
  0
LINE
  5
22B61
330
22B13
100
AcDbEntity
  8
0
  6
CONTINUOUS
100
AcDbLine
 10
30.74199999996926
 20
7.033200616027337
 30
0.0
 11
29.30199999996933
 21
8.473200616027269
 31
0.0
  0
LINE
  5
22B62
330
22B13
100
AcDbEntity
  8
0
  6
CONTINUOUS
100
AcDbLine
 10
30.74199999996926
 20
7.706719825107518
 30
0.0
 11
29.68561982508552
 21
8.763099999991255
 31
0.0
  0
LINE
  5
22B63
330
22B13
100
AcDbEntity
  8
0
  6
CONTINUOUS
100
AcDbLine
 10
30.74199999996926
 20
8.380239034187703
 30
0.0
 11
30.35913903416571
 21
8.763099999991255
 31
0.0
  0
ENDBLK
  5
22C06
330
22B13
100
AcDbEntity
  8
0
100
AcDbBlockEnd
  0
BLOCK
  5
22C07
330
22B64
100
AcDbEntity
  8
0
100
AcDbBlockBegin
  2
*X50
 70
     1
 10
0.0
 20
0.0
 30
0.0
  3
*X50
  1

  0
LINE
  5
22B65
330
22B64
100
AcDbEntity
  8
0
  6
CONTINUOUS
100
AcDbLine
 10
31.64199999996833
 20
8.535058289913598
 30
0.0
 11
31.87004171004599
 21
8.763099999991255
 31
0.0
  0
LINE
  5
22B66
330
22B64
100
AcDbEntity
  8
0
  6
CONTINUOUS
100
AcDbLine
 10
31.64199999996833
 20
7.861539080833412
 30
0.0
 11
32.54356091912618
 21
8.763099999991255
 31
0.0
  0
LINE
  5
22B67
330
22B64
100
AcDbEntity
  8
0
  6
CONTINUOUS
100
AcDbLine
 10
31.64199999996833
 20
7.188019871753226
 30
0.0
 11
33.08199999996839
 21
8.628019871753281
 31
0.0
  0
LINE
  5
22B68
330
22B64
100
AcDbEntity
  8
0
  6
CONTINUOUS
100
AcDbLine
 10
31.64199999996833
 20
6.51450066267304
 30
0.0
 11
33.08199999996839
 21
7.954500662673095
 31
0.0
  0
LINE
  5
22B69
330
22B64
100
AcDbEntity
  8
0
  6
CONTINUOUS
100
AcDbLine
 10
31.64199999996833
 20
5.840981453592853
 30
0.0
 11
33.08199999996839
 21
7.280981453592908
 31
0.0
  0
LINE
  5
22B6A
330
22B64
100
AcDbEntity
  8
0
  6
CONTINUOUS
100
AcDbLine
 10
31.64199999996833
 20
5.167462244512667
 30
0.0
 11
33.08199999996839
 21
6.607462244512721
 31
0.0
  0
LINE
  5
22B6B
330
22B64
100
AcDbEntity
  8
0
  6
CONTINUOUS
100
AcDbLine
 10
31.64199999996833
 20
4.493943035432481
 30
0.0
 11
33.08199999996839
 21
5.933943035432535
 31
0.0
  0
LINE
  5
22B6C
330
22B64
100
AcDbEntity
  8
0
  6
CONTINUOUS
100
AcDbLine
 10
31.64199999996833
 20
3.820423826352293
 30
0.0
 11
33.08199999996839
 21
5.260423826352348
 31
0.0
  0
LINE
  5
22B6D
330
22B64
100
AcDbEntity
  8
0
  6
CONTINUOUS
100
AcDbLine
 10
31.64199999996833
 20
3.146904617272106
 30
0.0
 11
33.08199999996839
 21
4.586904617272161
 31
0.0
  0
LINE
  5
22B6E
330
22B64
100
AcDbEntity
  8
0
  6
CONTINUOUS
100
AcDbLine
 10
36.23199999996837
 20
8.410423826352325
 30
0.0
 11
36.5846761736073
 21
8.763099999991255
 31
0.0
  0
LINE
  5
22B6F
330
22B64
100
AcDbEntity
  8
0
  6
CONTINUOUS
100
AcDbLine
 10
36.23199999996837
 20
7.73690461727214
 30
0.0
 11
37.25819538268748
 21
8.763099999991255
 31
0.0
  0
LINE
  5
22B70
330
22B64
100
AcDbEntity
  8
0
  6
CONTINUOUS
100
AcDbLine
 10
31.64257403601376
 20
2.473959444237348
 30
0.0
 11
33.08199999996839
 21
3.913385408191974
 31
0.0
  0
LINE
  5
22B71
330
22B64
100
AcDbEntity
  8
0
  6
CONTINUOUS
100
AcDbLine
 10
36.23199999996837
 20
7.063385408191953
 30
0.0
 11
37.67199999996831
 21
8.503385408191894
 31
0.0
  0
LINE
  5
22B72
330
22B64
100
AcDbEntity
  8
0
  6
CONTINUOUS
100
AcDbLine
 10
31.72013636841932
 20
1.87800256756272
 30
0.0
 11
33.08199999996839
 21
3.239866199111788
 31
0.0
  0
LINE
  5
22B73
330
22B64
100
AcDbEntity
  8
0
  6
CONTINUOUS
100
AcDbLine
 10
36.23199999996837
 20
6.389866199111767
 30
0.0
 11
37.67199999996831
 21
7.829866199111708
 31
0.0
  0
LINE
  5
22B74
330
22B64
100
AcDbEntity
  8
0
  6
CONTINUOUS
100
AcDbLine
 10
31.89042734314753
 20
1.374774333210744
 30
0.0
 11
33.08199999996839
 21
2.566346990031601
 31
0.0
  0
LINE
  5
22B75
330
22B64
100
AcDbEntity
  8
0
  6
CONTINUOUS
100
AcDbLine
 10
36.23199999996837
 20
5.71634699003158
 30
0.0
 11
37.67199999996831
 21
7.156346990031521
 31
0.0
  0
LINE
  5
22B76
330
22B64
100
AcDbEntity
  8
0
  6
CONTINUOUS
100
AcDbLine
 10
32.14210568064475
 20
0.952933461627778
 30
0.0
 11
33.18745552475986
 21
1.998283305742888
 31
0.0
  0
LINE
  5
22B77
330
22B64
100
AcDbEntity
  8
0
  6
CONTINUOUS
100
AcDbLine
 10
36.23199999996837
 20
5.042827780951393
 30
0.0
 11
37.67199999996831
 21
6.482827780951334
 31
0.0
  0
LINE
  5
22B78
330
22B64
100
AcDbEntity
  8
0
  6
CONTINUOUS
100
AcDbLine
 10
32.45820639400955
 20
0.5955149659123915
 30
0.0
 11
33.47242681921943
 21
1.60973539112227
 31
0.0
  0
LINE
  5
22B79
330
22B64
100
AcDbEntity
  8
0
  6
CONTINUOUS
100
AcDbLine
 10
36.23199999996837
 20
4.369308571871207
 30
0.0
 11
37.67199999996831
 21
5.809308571871147
 31
0.0
  0
LINE
  5
22B7A
330
22B64
100
AcDbEntity
  8
0
  6
CONTINUOUS
100
AcDbLine
 10
32.83432456621412
 20
0.2981139290367771
 30
0.0
 11
33.89722476612215
 21
1.361014128944803
 31
0.0
  0
LINE
  5
22B7B
330
22B64
100
AcDbEntity
  8
0
  6
CONTINUOUS
100
AcDbLine
 10
36.23199999996837
 20
3.69578936279102
 30
0.0
 11
37.67199999996831
 21
5.135789362790962
 31
0.0
  0
LINE
  5
22B7C
330
22B64
100
AcDbEntity
  8
0
  6
CONTINUOUS
100
AcDbLine
 10
33.2711633111245
 20
0.0614334648669672
 30
0.0
 11
34.43247338014423
 21
1.222743533886696
 31
0.0
  0
LINE
  5
22B7D
330
22B64
100
AcDbEntity
  8
0
  6
CONTINUOUS
100
AcDbLine
 10
36.23199999996837
 20
3.022270153710834
 30
0.0
 11
37.67199999996831
 21
4.462270153710775
 31
0.0
  0
LINE
  5
22B7E
330
22B64
100
AcDbEntity
  8
0
  6
CONTINUOUS
100
AcDbLine
 10
33.76515245874577
 20
-0.1180965965919523
 30
0.0
 11
35.1587445516215
 21
1.27549549628378
 31
0.0
  0
LINE
  5
22B7F
330
22B64
100
AcDbEntity
  8
0
  6
CONTINUOUS
100
AcDbLine
 10
36.21639478609585
 20
2.333145730758136
 30
0.0
 11
37.67199999996831
 21
3.788750944630588
 31
0.0
  0
LINE
  5
22B80
330
22B64
100
AcDbEntity
  8
0
  6
CONTINUOUS
100
AcDbLine
 10
34.34060583368432
 20
-0.2161624307335863
 30
0.0
 11
37.67199999996831
 21
3.115231735550401
 31
0.0
  0
LINE
  5
22B81
330
22B64
100
AcDbEntity
  8
0
  6
CONTINUOUS
100
AcDbLine
 10
35.01698193613905
 20
-0.2133055373590427
 30
0.0
 11
37.66876712070525
 21
2.438479647207154
 31
0.0
  0
LINE
  5
22B82
330
22B64
100
AcDbEntity
  8
0
  6
CONTINUOUS
100
AcDbLine
 10
35.90743367693304
 20
0.0036269943547609
 30
0.0
 11
37.51723902192366
 21
1.613432339345381
 31
0.0
  0
LINE
  5
22B83
330
22B64
100
AcDbEntity
  8
0
  6
CONTINUOUS
100
AcDbLine
 10
32.55309425579761
 20
0.5074718966376706
 30
0.0
 11
32.27784730925847
 21
0.7827188431768102
 31
0.0
  0
LINE
  5
22B84
330
22B64
100
AcDbEntity
  8
0
  6
CONTINUOUS
100
AcDbLine
 10
33.87496468909684
 20
-0.1408793275813673
 30
0.0
 11
31.67993083278052
 21
2.054154528734943
 31
0.0
  0
LINE
  5
22B85
330
22B64
100
AcDbEntity
  8
0
  6
CONTINUOUS
100
AcDbLine
 10
34.64362813207632
 20
-0.2360235614806649
 30
0.0
 11
31.64199999996833
 21
2.765604570627322
 31
0.0
  0
LINE
  5
22B86
330
22B64
100
AcDbEntity
  8
0
  6
CONTINUOUS
100
AcDbLine
 10
35.25801106796118
 20
-0.1768872882853429
 30
0.0
 11
31.64199999996833
 21
3.439123779707508
 31
0.0
  0
LINE
  5
22B87
330
22B64
100
AcDbEntity
  8
0
  6
CONTINUOUS
100
AcDbLine
 10
35.79065650332146
 20
-0.0360135145654361
 30
0.0
 11
34.54143210838231
 21
1.213210880373721
 31
0.0
  0
LINE
  5
22B88
330
22B64
100
AcDbEntity
  8
0
  6
CONTINUOUS
100
AcDbLine
 10
33.08199999996839
 20
2.67264298878764
 30
0.0
 11
31.64199999996833
 21
4.112642988787695
 31
0.0
  0
LINE
  5
22B89
330
22B64
100
AcDbEntity
  8
0
  6
CONTINUOUS
100
AcDbLine
 10
36.25975597779143
 20
0.1684062200447833
 30
0.0
 11
35.15395110240023
 21
1.274211095435983
 31
0.0
  0
LINE
  5
22B8A
330
22B64
100
AcDbEntity
  8
0
  6
CONTINUOUS
100
AcDbLine
 10
33.08199999996839
 20
3.346162197867826
 30
0.0
 11
31.64199999996833
 21
4.786162197867881
 31
0.0
  0
LINE
  5
22B8B
330
22B64
100
AcDbEntity
  8
0
  6
CONTINUOUS
100
AcDbLine
 10
36.67226329638774
 20
0.4294181105286579
 30
0.0
 11
35.63766478748767
 21
1.464016619428737
 31
0.0
  0
LINE
  5
22B8C
330
22B64
100
AcDbEntity
  8
0
  6
CONTINUOUS
100
AcDbLine
 10
33.08199999996839
 20
4.019681406948012
 30
0.0
 11
31.64199999996833
 21
5.459681406948068
 31
0.0
  0
LINE
  5
22B8D
330
22B64
100
AcDbEntity
  8
0
  6
CONTINUOUS
100
AcDbLine
 10
37.01677749710036
 20
0.7584231188962329
 30
0.0
 11
35.99563422741351
 21
1.779566388583076
 31
0.0
  0
LINE
  5
22B8E
330
22B64
100
AcDbEntity
  8
0
  6
CONTINUOUS
100
AcDbLine
 10
33.08199999996839
 20
4.693200616028199
 30
0.0
 11
31.64199999996833
 21
6.133200616028255
 31
0.0
  0
LINE
  5
22B8F
330
22B64
100
AcDbEntity
  8
0
  6
CONTINUOUS
100
AcDbLine
 10
37.29859977568887
 20
1.1501200493879
 30
0.0
 11
36.20680593341555
 21
2.241913891661226
 31
0.0
  0
LINE
  5
22B90
330
22B64
100
AcDbEntity
  8
0
  6
CONTINUOUS
100
AcDbLine
 10
33.08199999996839
 20
5.366719825108386
 30
0.0
 11
31.64199999996833
 21
6.80671982510844
 31
0.0
  0
LINE
  5
22B91
330
22B64
100
AcDbEntity
  8
0
  6
CONTINUOUS
100
AcDbLine
 10
37.5148623517228
 20
1.607376682434161
 30
0.0
 11
36.23199999996837
 21
2.890239034188594
 31
0.0
  0
LINE
  5
22B92
330
22B64
100
AcDbEntity
  8
0
  6
CONTINUOUS
100
AcDbLine
 10
33.08199999996839
 20
6.040239034188573
 30
0.0
 11
31.64199999996833
 21
7.480239034188627
 31
0.0
  0
LINE
  5
22B93
330
22B64
100
AcDbEntity
  8
0
  6
CONTINUOUS
100
AcDbLine
 10
37.64705163358367
 20
2.148706609653477
 30
0.0
 11
36.23199999996837
 21
3.56375824326878
 31
0.0
  0
LINE
  5
22B94
330
22B64
100
AcDbEntity
  8
0
  6
CONTINUOUS
100
AcDbLine
 10
33.08199999996839
 20
6.713758243268758
 30
0.0
 11
31.64199999996833
 21
8.153758243268815
 31
0.0
  0
LINE
  5
22B95
330
22B64
100
AcDbEntity
  8
0
  6
CONTINUOUS
100
AcDbLine
 10
37.67199999996831
 20
2.797277452349026
 30
0.0
 11
36.23199999996837
 21
4.237277452348967
 31
0.0
  0
LINE
  5
22B96
330
22B64
100
AcDbEntity
  8
0
  6
CONTINUOUS
100
AcDbLine
 10
37.67199999996831
 20
3.470796661429213
 30
0.0
 11
36.23199999996837
 21
4.910796661429154
 31
0.0
  0
LINE
  5
22B97
330
22B64
100
AcDbEntity
  8
0
  6
CONTINUOUS
100
AcDbLine
 10
37.67199999996831
 20
4.144315870509399
 30
0.0
 11
36.23199999996837
 21
5.58431587050934
 31
0.0
  0
LINE
  5
22B98
330
22B64
100
AcDbEntity
  8
0
  6
CONTINUOUS
100
AcDbLine
 10
33.08199999996839
 20
7.387277452348945
 30
0.0
 11
31.70617745232608
 21
8.763099999991255
 31
0.0
  0
LINE
  5
22B99
330
22B64
100
AcDbEntity
  8
0
  6
CONTINUOUS
100
AcDbLine
 10
33.08199999996839
 20
8.060796661429132
 30
0.0
 11
32.37969666140626
 21
8.763099999991255
 31
0.0
  0
LINE
  5
22B9A
330
22B64
100
AcDbEntity
  8
0
  6
CONTINUOUS
100
AcDbLine
 10
33.08199999996839
 20
8.734315870509318
 30
0.0
 11
33.05321587048645
 21
8.763099999991255
 31
0.0
  0
LINE
  5
22B9B
330
22B64
100
AcDbEntity
  8
0
  6
CONTINUOUS
100
AcDbLine
 10
37.67199999996831
 20
4.817835079589585
 30
0.0
 11
36.23199999996837
 21
6.257835079589526
 31
0.0
  0
LINE
  5
22B9C
330
22B64
100
AcDbEntity
  8
0
  6
CONTINUOUS
100
AcDbLine
 10
37.67199999996831
 20
5.491354288669771
 30
0.0
 11
36.23199999996837
 21
6.931354288669713
 31
0.0
  0
LINE
  5
22B9D
330
22B64
100
AcDbEntity
  8
0
  6
CONTINUOUS
100
AcDbLine
 10
37.67199999996831
 20
6.164873497749958
 30
0.0
 11
36.23199999996837
 21
7.6048734977499
 31
0.0
  0
LINE
  5
22B9E
330
22B64
100
AcDbEntity
  8
0
  6
CONTINUOUS
100
AcDbLine
 10
37.67199999996831
 20
6.838392706830144
 30
0.0
 11
36.23199999996837
 21
8.278392706830086
 31
0.0
  0
LINE
  5
22B9F
330
22B64
100
AcDbEntity
  8
0
  6
CONTINUOUS
100
AcDbLine
 10
37.67199999996831
 20
7.511911915910332
 30
0.0
 11
36.42081191588738
 21
8.763099999991255
 31
0.0
  0
LINE
  5
22BA0
330
22B64
100
AcDbEntity
  8
0
  6
CONTINUOUS
100
AcDbLine
 10
37.67199999996831
 20
8.185431124990519
 30
0.0
 11
37.09433112496757
 21
8.763099999991255
 31
0.0
  0
ENDBLK
  5
22C08
330
22B64
100
AcDbEntity
  8
0
100
AcDbBlockEnd
  0
BLOCK
  5
22C09
330
22BA1
100
AcDbEntity
  8
0
100
AcDbBlockBegin
  2
*X51
 70
     1
 10
0.0
 20
0.0
 30
0.0
  3
*X51
  1

  0
LINE
  5
22BA2
330
22BA1
100
AcDbEntity
  8
0
  6
CONTINUOUS
100
AcDbLine
 10
38.60499999996136
 20
8.762866199104765
 30
0.0
 11
38.71672554182345
 21
8.874591740966855
 31
0.0
  0
LINE
  5
22BA3
330
22BA1
100
AcDbEntity
  8
0
  6
CONTINUOUS
100
AcDbLine
 10
38.60499999996136
 20
8.089346990024577
 30
0.0
 11
39.03418785440363
 21
8.518534844466847
 31
0.0
  0
LINE
  5
22BA4
330
22BA1
100
AcDbEntity
  8
0
  6
CONTINUOUS
100
AcDbLine
 10
38.60499999996136
 20
7.41582778094439
 30
0.0
 11
39.35165016698382
 21
8.16247794796684
 31
0.0
  0
LINE
  5
22BA5
330
22BA1
100
AcDbEntity
  8
0
  6
CONTINUOUS
100
AcDbLine
 10
38.60499999996136
 20
6.742308571864204
 30
0.0
 11
39.66911247956399
 21
7.806421051466834
 31
0.0
  0
LINE
  5
22BA6
330
22BA1
100
AcDbEntity
  8
0
  6
CONTINUOUS
100
AcDbLine
 10
38.60499999996136
 20
6.068789362784018
 30
0.0
 11
39.98657479214418
 21
7.450364154966827
 31
0.0
  0
LINE
  5
22BA7
330
22BA1
100
AcDbEntity
  8
0
  6
CONTINUOUS
100
AcDbLine
 10
38.60499999996136
 20
5.395270153703832
 30
0.0
 11
40.30403710472435
 21
7.09430725846682
 31
0.0
  0
LINE
  5
22BA8
330
22BA1
100
AcDbEntity
  8
0
  6
CONTINUOUS
100
AcDbLine
 10
38.60499999996136
 20
4.721750944623645
 30
0.0
 11
40.62149941730453
 21
6.738250361966813
 31
0.0
  0
LINE
  5
22BA9
330
22BA1
100
AcDbEntity
  8
0
  6
CONTINUOUS
100
AcDbLine
 10
38.60499999996136
 20
4.048231735543458
 30
0.0
 11
40.93896172988471
 21
6.382193465466806
 31
0.0
  0
LINE
  5
22BAA
330
22BA1
100
AcDbEntity
  8
0
  6
CONTINUOUS
100
AcDbLine
 10
38.60499999996136
 20
3.374712526463272
 30
0.0
 11
40.02599999995994
 21
4.795712526461843
 31
0.0
  0
LINE
  5
22BAB
330
22BA1
100
AcDbEntity
  8
0
  6
CONTINUOUS
100
AcDbLine
 10
38.60499999996136
 20
2.701193317383085
 30
0.0
 11
40.02599999995994
 21
4.122193317381657
 31
0.0
  0
LINE
  5
22BAC
330
22BA1
100
AcDbEntity
  8
0
  6
CONTINUOUS
100
AcDbLine
 10
40.28339754687704
 20
5.053110073378947
 30
0.0
 11
41.25642404246489
 21
6.026136568966799
 31
0.0
  0
LINE
  5
22BAD
330
22BA1
100
AcDbEntity
  8
0
  6
CONTINUOUS
100
AcDbLine
 10
40.60085985945722
 20
4.697053176878939
 30
0.0
 11
41.57388635504507
 21
5.670079672466793
 31
0.0
  0
LINE
  5
22BAE
330
22BA1
100
AcDbEntity
  8
0
  6
CONTINUOUS
100
AcDbLine
 10
43.57899999995641
 20
8.348712526458318
 30
0.0
 11
43.99338747348935
 21
8.763099999991255
 31
0.0
  0
LINE
  5
22BAF
330
22BA1
100
AcDbEntity
  8
0
  6
CONTINUOUS
100
AcDbLine
 10
43.57899999995641
 20
7.675193317378131
 30
0.0
 11
44.66690668256953
 21
8.763099999991255
 31
0.0
  0
LINE
  5
22BB0
330
22BA1
100
AcDbEntity
  8
0
  6
CONTINUOUS
100
AcDbLine
 10
38.60499999996136
 20
2.027674108302898
 30
0.0
 11
40.02599999995994
 21
3.44867410830147
 31
0.0
  0
LINE
  5
22BB1
330
22BA1
100
AcDbEntity
  8
0
  6
CONTINUOUS
100
AcDbLine
 10
38.60499999996136
 20
1.354154899222712
 30
0.0
 11
40.02599999995994
 21
2.775154899221284
 31
0.0
  0
LINE
  5
22BB2
330
22BA1
100
AcDbEntity
  8
0
  6
CONTINUOUS
100
AcDbLine
 10
38.60499999996136
 20
0.6806356901425255
 30
0.0
 11
40.02599999995994
 21
2.101635690141098
 31
0.0
  0
LINE
  5
22BB3
330
22BA1
100
AcDbEntity
  8
0
  6
CONTINUOUS
100
AcDbLine
 10
38.60499999996136
 20
0.0071164810623383
 30
0.0
 11
40.02599999995994
 21
1.428116481060911
 31
0.0
  0
LINE
  5
22BB4
330
22BA1
100
AcDbEntity
  8
0
  6
CONTINUOUS
100
AcDbLine
 10
40.9183221720374
 20
4.340996280378933
 30
0.0
 11
41.89134866762525
 21
5.314022775966786
 31
0.0
  0
LINE
  5
22BB5
330
22BA1
100
AcDbEntity
  8
0
  6
CONTINUOUS
100
AcDbLine
 10
41.23578448461758
 20
3.984939383878926
 30
0.0
 11
42.20881098020543
 21
4.957965879466778
 31
0.0
  0
LINE
  5
22BB6
330
22BA1
100
AcDbEntity
  8
0
  6
CONTINUOUS
100
AcDbLine
 10
41.55324679719776
 20
3.628882487378919
 30
0.0
 11
42.52627329278561
 21
4.601908982966772
 31
0.0
  0
LINE
  5
22BB7
330
22BA1
100
AcDbEntity
  8
0
  6
CONTINUOUS
100
AcDbLine
 10
41.87070910977793
 20
3.272825590878912
 30
0.0
 11
42.84373560536579
 21
4.245852086466765
 31
0.0
  0
LINE
  5
22BB8
330
22BA1
100
AcDbEntity
  8
0
  6
CONTINUOUS
100
AcDbLine
 10
43.57899999995641
 20
7.001674108297943
 30
0.0
 11
44.99999999995498
 21
8.422674108296516
 31
0.0
  0
LINE
  5
22BB9
330
22BA1
100
AcDbEntity
  8
0
  6
CONTINUOUS
100
AcDbLine
 10
43.57899999995641
 20
6.328154899217758
 30
0.0
 11
44.99999999995498
 21
7.749154899216329
 31
0.0
  0
LINE
  5
22BBA
330
22BA1
100
AcDbEntity
  8
0
  6
CONTINUOUS
100
AcDbLine
 10
43.57899999995641
 20
5.654635690137571
 30
0.0
 11
44.99999999995498
 21
7.075635690136142
 31
0.0
  0
LINE
  5
22BBB
330
22BA1
100
AcDbEntity
  8
0
  6
CONTINUOUS
100
AcDbLine
 10
43.57899999995641
 20
4.981116481057384
 30
0.0
 11
44.99999999995498
 21
6.402116481055955
 31
0.0
  0
LINE
  5
22BBC
330
22BA1
100
AcDbEntity
  8
0
  6
CONTINUOUS
100
AcDbLine
 10
39.27140272797921
 20
-0.0000000000000009
 30
0.0
 11
40.02599999995994
 21
0.7545972719807246
 31
0.0
  0
LINE
  5
22BBD
330
22BA1
100
AcDbEntity
  8
0
  6
CONTINUOUS
100
AcDbLine
 10
39.9449219370594
 20
-0.0000000000000009
 30
0.0
 11
40.02599999995994
 21
0.0810780629005379
 31
0.0
  0
LINE
  5
22BBE
330
22BA1
100
AcDbEntity
  8
0
  6
CONTINUOUS
100
AcDbLine
 10
42.18817142235812
 20
2.916768694378905
 30
0.0
 11
43.16119791794597
 21
3.889795189966758
 31
0.0
  0
LINE
  5
22BBF
330
22BA1
100
AcDbEntity
  8
0
  6
CONTINUOUS
100
AcDbLine
 10
42.50563373493829
 20
2.560711797878898
 30
0.0
 11
43.47866023052615
 21
3.533738293466751
 31
0.0
  0
LINE
  5
22BC0
330
22BA1
100
AcDbEntity
  8
0
  6
CONTINUOUS
100
AcDbLine
 10
43.57899999995641
 20
4.307597271977198
 30
0.0
 11
44.99999999995498
 21
5.728597271975769
 31
0.0
  0
LINE
  5
22BC1
330
22BA1
100
AcDbEntity
  8
0
  6
CONTINUOUS
100
AcDbLine
 10
43.57899999995641
 20
3.634078062897011
 30
0.0
 11
44.99999999995498
 21
5.055078062895582
 31
0.0
  0
LINE
  5
22BC2
330
22BA1
100
AcDbEntity
  8
0
  6
CONTINUOUS
100
AcDbLine
 10
42.82309604751848
 20
2.204654901378891
 30
0.0
 11
44.99999999995498
 21
4.381558853815395
 31
0.0
  0
LINE
  5
22BC3
330
22BA1
100
AcDbEntity
  8
0
  6
CONTINUOUS
100
AcDbLine
 10
43.14055836009865
 20
1.848598004878885
 30
0.0
 11
44.99999999995498
 21
3.70803964473521
 31
0.0
  0
LINE
  5
22BC4
330
22BA1
100
AcDbEntity
  8
0
  6
CONTINUOUS
100
AcDbLine
 10
43.45802067267883
 20
1.492541108378878
 30
0.0
 11
44.99999999995498
 21
3.034520435655023
 31
0.0
  0
LINE
  5
22BC5
330
22BA1
100
AcDbEntity
  8
0
  6
CONTINUOUS
100
AcDbLine
 10
43.77548298525902
 20
1.136484211878871
 30
0.0
 11
44.99999999995498
 21
2.361001226574837
 31
0.0
  0
LINE
  5
22BC6
330
22BA1
100
AcDbEntity
  8
0
  6
CONTINUOUS
100
AcDbLine
 10
44.09294529783919
 20
0.7804273153788639
 30
0.0
 11
44.99999999995498
 21
1.687482017494649
 31
0.0
  0
LINE
  5
22BC7
330
22BA1
100
AcDbEntity
  8
0
  6
CONTINUOUS
100
AcDbLine
 10
44.41040761041938
 20
0.4243704188788566
 30
0.0
 11
44.99999999995498
 21
1.013962808414463
 31
0.0
  0
LINE
  5
22BC8
330
22BA1
100
AcDbEntity
  8
0
  6
CONTINUOUS
100
AcDbLine
 10
44.72786992299955
 20
0.0683135223788494
 30
0.0
 11
44.99999999995498
 21
0.340443599334276
 31
0.0
  0
LINE
  5
22BC9
330
22BA1
100
AcDbEntity
  8
0
  6
CONTINUOUS
100
AcDbLine
 10
39.12223903415696
 20
-0.0000000000000009
 30
0.0
 11
38.60499999996136
 21
0.5172390341955961
 31
0.0
  0
LINE
  5
22BCA
330
22BA1
100
AcDbEntity
  8
0
  6
CONTINUOUS
100
AcDbLine
 10
39.79575824323715
 20
-0.0000000000000009
 30
0.0
 11
38.60499999996136
 21
1.190758243275783
 31
0.0
  0
LINE
  5
22BCB
330
22BA1
100
AcDbEntity
  8
0
  6
CONTINUOUS
100
AcDbLine
 10
40.02599999995994
 20
0.443277452357397
 30
0.0
 11
38.60499999996136
 21
1.864277452355969
 31
0.0
  0
LINE
  5
22BCC
330
22BA1
100
AcDbEntity
  8
0
  6
CONTINUOUS
100
AcDbLine
 10
40.02599999995994
 20
1.116796661437583
 30
0.0
 11
38.60499999996136
 21
2.537796661436155
 31
0.0
  0
LINE
  5
22BCD
330
22BA1
100
AcDbEntity
  8
0
  6
CONTINUOUS
100
AcDbLine
 10
40.02599999995994
 20
1.79031587051777
 30
0.0
 11
38.60499999996136
 21
3.211315870516341
 31
0.0
  0
LINE
  5
22BCE
330
22BA1
100
AcDbEntity
  8
0
  6
CONTINUOUS
100
AcDbLine
 10
40.02599999995994
 20
2.463835079597956
 30
0.0
 11
38.60499999996136
 21
3.884835079596527
 31
0.0
  0
LINE
  5
22BCF
330
22BA1
100
AcDbEntity
  8
0
  6
CONTINUOUS
100
AcDbLine
 10
40.02599999995994
 20
3.137354288678143
 30
0.0
 11
38.60499999996136
 21
4.558354288676714
 31
0.0
  0
LINE
  5
22BD0
330
22BA1
100
AcDbEntity
  8
0
  6
CONTINUOUS
100
AcDbLine
 10
40.02599999995994
 20
3.810873497758329
 30
0.0
 11
38.60499999996136
 21
5.2318734977569
 31
0.0
  0
LINE
  5
22BD1
330
22BA1
100
AcDbEntity
  8
0
  6
CONTINUOUS
100
AcDbLine
 10
40.02599999995994
 20
4.484392706838515
 30
0.0
 11
38.60499999996136
 21
5.905392706837086
 31
0.0
  0
LINE
  5
22BD2
330
22BA1
100
AcDbEntity
  8
0
  6
CONTINUOUS
100
AcDbLine
 10
44.99999999995498
 20
0.183911915923658
 30
0.0
 11
41.53858364506288
 21
3.64532827081576
 31
0.0
  0
LINE
  5
22BD3
330
22BA1
100
AcDbEntity
  8
0
  6
CONTINUOUS
100
AcDbLine
 10
40.02599999995994
 20
5.157911915918703
 30
0.0
 11
38.60499999996136
 21
6.578911915917274
 31
0.0
  0
LINE
  5
22BD4
330
22BA1
100
AcDbEntity
  8
0
  6
CONTINUOUS
100
AcDbLine
 10
44.99999999995498
 20
0.8574311250038447
 30
0.0
 11
38.60499999996136
 21
7.25243112499746
 31
0.0
  0
LINE
  5
22BD5
330
22BA1
100
AcDbEntity
  8
0
  6
CONTINUOUS
100
AcDbLine
 10
44.99999999995498
 20
1.530950334084031
 30
0.0
 11
38.60499999996136
 21
7.925950334077647
 31
0.0
  0
LINE
  5
22BD6
330
22BA1
100
AcDbEntity
  8
0
  6
CONTINUOUS
100
AcDbLine
 10
44.99999999995498
 20
2.204469543164218
 30
0.0
 11
43.57899999995641
 21
3.625469543162789
 31
0.0
  0
LINE
  5
22BD7
330
22BA1
100
AcDbEntity
  8
0
  6
CONTINUOUS
100
AcDbLine
 10
41.89876730984767
 20
5.305702233271528
 30
0.0
 11
38.60499999996136
 21
8.599469543157834
 31
0.0
  0
LINE
  5
22BD8
330
22BA1
100
AcDbEntity
  8
0
  6
CONTINUOUS
100
AcDbLine
 10
44.99999999995498
 20
2.877988752244405
 30
0.0
 11
43.57899999995641
 21
4.298988752242975
 31
0.0
  0
LINE
  5
22BD9
330
22BA1
100
AcDbEntity
  8
0
  6
CONTINUOUS
100
AcDbLine
 10
44.99999999995498
 20
3.551507961324591
 30
0.0
 11
43.57899999995641
 21
4.972507961323163
 31
0.0
  0
LINE
  5
22BDA
330
22BA1
100
AcDbEntity
  8
0
  6
CONTINUOUS
100
AcDbLine
 10
44.99999999995498
 20
4.225027170404777
 30
0.0
 11
43.57899999995641
 21
5.646027170403348
 31
0.0
  0
LINE
  5
22BDB
330
22BA1
100
AcDbEntity
  8
0
  6
CONTINUOUS
100
AcDbLine
 10
44.99999999995498
 20
4.898546379484964
 30
0.0
 11
43.57899999995641
 21
6.319546379483535
 31
0.0
  0
LINE
  5
22BDC
330
22BA1
100
AcDbEntity
  8
0
  6
CONTINUOUS
100
AcDbLine
 10
44.99999999995498
 20
5.572065588565151
 30
0.0
 11
43.57899999995641
 21
6.993065588563722
 31
0.0
  0
LINE
  5
22BDD
330
22BA1
100
AcDbEntity
  8
0
  6
CONTINUOUS
100
AcDbLine
 10
44.99999999995498
 20
6.245584797645336
 30
0.0
 11
43.57899999995641
 21
7.666584797643908
 31
0.0
  0
LINE
  5
22BDE
330
22BA1
100
AcDbEntity
  8
0
  6
CONTINUOUS
100
AcDbLine
 10
44.99999999995498
 20
6.919104006725522
 30
0.0
 11
43.57899999995641
 21
8.340104006724093
 31
0.0
  0
LINE
  5
22BDF
330
22BA1
100
AcDbEntity
  8
0
  6
CONTINUOUS
100
AcDbLine
 10
44.99999999995498
 20
7.592623215805709
 30
0.0
 11
43.82952321576943
 21
8.763099999991255
 31
0.0
  0
LINE
  5
22BE0
330
22BA1
100
AcDbEntity
  8
0
  6
CONTINUOUS
100
AcDbLine
 10
44.99999999995498
 20
8.266142424885896
 30
0.0
 11
44.50304242484962
 21
8.763099999991255
 31
0.0
  0
ENDBLK
  5
22C0A
330
22BA1
100
AcDbEntity
  8
0
100
AcDbBlockEnd
  0
BLOCK
  5
22C0B
330
22BE1
100
AcDbEntity
  8
0
100
AcDbBlockBegin
  2
*X52
 70
     1
 10
0.0
 20
0.0
 30
0.0
  3
*X52
  1

  0
LINE
  5
22BE2
330
22BE1
100
AcDbEntity
  8
0
  6
CONTINUOUS
100
AcDbLine
 10
0.0
 20
8.548461116714023
 30
0.0
 11
0.2146388832772324
 21
8.763099999991255
 31
0.0
  0
LINE
  5
22BE3
330
22BE1
100
AcDbEntity
  8
0
  6
CONTINUOUS
100
AcDbLine
 10
-0.0000000000000002
 20
7.874941907633837
 30
0.0
 11
0.8881580923574184
 21
8.763099999991255
 31
0.0
  0
LINE
  5
22BE4
330
22BE1
100
AcDbEntity
  8
0
  6
CONTINUOUS
100
AcDbLine
 10
0.0
 20
7.20142269855365
 30
0.0
 11
1.420999999998572
 21
8.622422698552223
 31
0.0
  0
LINE
  5
22BE5
330
22BE1
100
AcDbEntity
  8
0
  6
CONTINUOUS
100
AcDbLine
 10
-0.0000000000000001
 20
6.527903489473465
 30
0.0
 11
1.420999999998571
 21
7.948903489472036
 31
0.0
  0
LINE
  5
22BE6
330
22BE1
100
AcDbEntity
  8
0
  6
CONTINUOUS
100
AcDbLine
 10
-0.0000000000000002
 20
5.854384280393278
 30
0.0
 11
1.420999999998571
 21
7.275384280391849
 31
0.0
  0
LINE
  5
22BE7
330
22BE1
100
AcDbEntity
  8
0
  6
CONTINUOUS
100
AcDbLine
 10
-0.0000000000000002
 20
5.180865071313091
 30
0.0
 11
1.420999999998571
 21
6.601865071311663
 31
0.0
  0
LINE
  5
22BE8
330
22BE1
100
AcDbEntity
  8
0
  6
CONTINUOUS
100
AcDbLine
 10
0.0
 20
4.507345862232905
 30
0.0
 11
1.420999999998571
 21
5.928345862231477
 31
0.0
  0
LINE
  5
22BE9
330
22BE1
100
AcDbEntity
  8
0
  6
CONTINUOUS
100
AcDbLine
 10
-0.0000000000000003
 20
3.833826653152718
 30
0.0
 11
1.420999999998571
 21
5.25482665315129
 31
0.0
  0
LINE
  5
22BEA
330
22BE1
100
AcDbEntity
  8
0
  6
CONTINUOUS
100
AcDbLine
 10
-0.0000000000000002
 20
3.160307444072532
 30
0.0
 11
1.420999999998571
 21
4.581307444071103
 31
0.0
  0
LINE
  5
22BEB
330
22BE1
100
AcDbEntity
  8
0
  6
CONTINUOUS
100
AcDbLine
 10
-0.0000000000000001
 20
2.486788234992345
 30
0.0
 11
1.420999999998571
 21
3.907788234990917
 31
0.0
  0
LINE
  5
22BEC
330
22BE1
100
AcDbEntity
  8
0
  6
CONTINUOUS
100
AcDbLine
 10
-0.0000000000000006
 20
1.813269025912159
 30
0.0
 11
1.420999999998571
 21
3.234269025910731
 31
0.0
  0
LINE
  5
22BED
330
22BE1
100
AcDbEntity
  8
0
  6
CONTINUOUS
100
AcDbLine
 10
0.0
 20
1.139749816831973
 30
0.0
 11
1.420999999998571
 21
2.560749816830544
 31
0.0
  0
LINE
  5
22BEE
330
22BE1
100
AcDbEntity
  8
0
  6
CONTINUOUS
100
AcDbLine
 10
0.0000000000000002
 20
0.466230607751787
 30
0.0
 11
1.420999999998571
 21
1.887230607750358
 31
0.0
  0
LINE
  5
22BEF
330
22BE1
100
AcDbEntity
  8
0
  6
CONTINUOUS
100
AcDbLine
 10
0.2072886013284003
 20
-0.0000000000000009
 30
0.0
 11
1.420999999998571
 21
1.213711398670171
 31
0.0
  0
LINE
  5
22BF0
330
22BE1
100
AcDbEntity
  8
0
  6
CONTINUOUS
100
AcDbLine
 10
0.8808078104085864
 20
-0.0000000000000009
 30
0.0
 11
1.420999999998571
 21
0.5401921895899839
 31
0.0
  0
LINE
  5
22BF1
330
22BE1
100
AcDbEntity
  8
0
  6
CONTINUOUS
100
AcDbLine
 10
0.0581249075061505
 20
-0.0000000000000009
 30
0.0
 11
-0.0000000000000002
 21
0.0581249075061496
 31
0.0
  0
LINE
  5
22BF2
330
22BE1
100
AcDbEntity
  8
0
  6
CONTINUOUS
100
AcDbLine
 10
0.7316441165863372
 20
-0.0000000000000009
 30
0.0
 11
-0.0000000000000002
 21
0.7316441165863363
 31
0.0
  0
LINE
  5
22BF3
330
22BE1
100
AcDbEntity
  8
0
  6
CONTINUOUS
100
AcDbLine
 10
1.405163325666523
 20
-0.0000000000000009
 30
0.0
 11
-0.0000000000000002
 21
1.405163325666523
 31
0.0
  0
LINE
  5
22BF4
330
22BE1
100
AcDbEntity
  8
0
  6
CONTINUOUS
100
AcDbLine
 10
1.420999999998572
 20
0.6576825347481381
 30
0.0
 11
-0.0000000000000001
 21
2.07868253474671
 31
0.0
  0
LINE
  5
22BF5
330
22BE1
100
AcDbEntity
  8
0
  6
CONTINUOUS
100
AcDbLine
 10
1.420999999998571
 20
1.331201743828324
 30
0.0
 11
-0.0000000000000001
 21
2.752201743826896
 31
0.0
  0
LINE
  5
22BF6
330
22BE1
100
AcDbEntity
  8
0
  6
CONTINUOUS
100
AcDbLine
 10
1.420999999998571
 20
2.004720952908511
 30
0.0
 11
-0.0000000000000002
 21
3.425720952907082
 31
0.0
  0
LINE
  5
22BF7
330
22BE1
100
AcDbEntity
  8
0
  6
CONTINUOUS
100
AcDbLine
 10
1.420999999998571
 20
2.678240161988697
 30
0.0
 11
-0.0000000000000001
 21
4.099240161987269
 31
0.0
  0
LINE
  5
22BF8
330
22BE1
100
AcDbEntity
  8
0
  6
CONTINUOUS
100
AcDbLine
 10
1.420999999998572
 20
3.351759371068884
 30
0.0
 11
0.0
 21
4.772759371067455
 31
0.0
  0
LINE
  5
22BF9
330
22BE1
100
AcDbEntity
  8
0
  6
CONTINUOUS
100
AcDbLine
 10
1.420999999998571
 20
4.02527858014907
 30
0.0
 11
-0.0000000000000003
 21
5.446278580147642
 31
0.0
  0
LINE
  5
22BFA
330
22BE1
100
AcDbEntity
  8
0
  6
CONTINUOUS
100
AcDbLine
 10
1.420999999998571
 20
4.698797789229257
 30
0.0
 11
0.0
 21
6.119797789227828
 31
0.0
  0
LINE
  5
22BFB
330
22BE1
100
AcDbEntity
  8
0
  6
CONTINUOUS
100
AcDbLine
 10
1.420999999998571
 20
5.372316998309444
 30
0.0
 11
-0.0000000000000001
 21
6.793316998308015
 31
0.0
  0
LINE
  5
22BFC
330
22BE1
100
AcDbEntity
  8
0
  6
CONTINUOUS
100
AcDbLine
 10
1.420999999998572
 20
6.045836207389629
 30
0.0
 11
-0.0000000000000004
 21
7.466836207388202
 31
0.0
  0
LINE
  5
22BFD
330
22BE1
100
AcDbEntity
  8
0
  6
CONTINUOUS
100
AcDbLine
 10
1.420999999998571
 20
6.719355416469816
 30
0.0
 11
0.0
 21
8.140355416468388
 31
0.0
  0
LINE
  5
22BFE
330
22BE1
100
AcDbEntity
  8
0
  6
CONTINUOUS
100
AcDbLine
 10
1.420999999998571
 20
7.392874625550003
 30
0.0
 11
0.0507746255573185
 21
8.763099999991255
 31
0.0
  0
LINE
  5
22BFF
330
22BE1
100
AcDbEntity
  8
0
  6
CONTINUOUS
100
AcDbLine
 10
1.420999999998571
 20
8.06639383463019
 30
0.0
 11
0.7242938346375052
 21
8.763099999991255
 31
0.0
  0
LINE
  5
22C00
330
22BE1
100
AcDbEntity
  8
0
  6
CONTINUOUS
100
AcDbLine
 10
1.420999999998571
 20
8.739913043710375
 30
0.0
 11
1.397813043717691
 21
8.763099999991255
 31
0.0
  0
ENDBLK
  5
22C0C
330
22BE1
100
AcDbEntity
  8
0
100
AcDbBlockEnd
  0
ENDSEC
  0
SECTION
  2
ENTITIES
  0
LINE
  5
1D8CA
330
18
100
AcDbEntity
  8
01
100
AcDbLine
 10
743.016241615365
 20
-650.6713303512659
 30
0.0
 11
743.016241615365
 21
-672.8213303512673
 31
0.0
  0
LINE
  5
1D90A
330
18
100
AcDbEntity
  8
01
100
AcDbLine
 10
743.016241615365
 20
-653.1713303512665
 30
0.0
 11
743.016241615365
 21
-670.8213303512659
 31
0.0
  0
TEXT
  5
1DB9B
330
18
100
AcDbEntity
  8
1TEXT
100
AcDbText
 10
505.3878387279848
 20
-509.5489420581065
 30
0.0
 40
8.0
  1
SC-871-X
100
AcDbText
  0
LINE
  5
1DBA4
330
18
100
AcDbEntity
  8
01
100
AcDbLine
 10
755.516241615365
 20
-618.5931567659845
 30
0.0
 11
755.516241615365
 21
-693.0495039365483
 31
0.0
  0
LINE
  5
1DBA6
330
18
100
AcDbEntity
  8
01
100
AcDbLine
 10
743.016241615365
 20
-618.5931567659845
 30
0.0
 11
743.016241615365
 21
-693.0495039365483
 31
0.0
  0
LINE
  5
1EE56
330
18
100
AcDbEntity
  8
1DIM
100
AcDbLine
 10
506.487953709173
 20
-513.1263147418331
 30
0.0
 11
576.487953709173
 21
-513.1263147418331
 31
0.0
  0
LINE
  5
1EE57
330
18
100
AcDbEntity
  8
1DIM
100
AcDbLine
 10
506.487953709173
 20
-527.1263147418331
 30
0.0
 11
576.487953709173
 21
-527.1263147418329
 31
0.0
  0
LINE
  5
1EE58
330
18
100
AcDbEntity
  8
1DIM
100
AcDbLine
 10
506.487953709173
 20
-520.1263147418331
 30
0.0
 11
576.487953709173
 21
-520.1263147418329
 31
0.0
  0
LINE
  5
1EE5B
330
18
100
AcDbEntity
  8
1DIM
100
AcDbLine
 10
576.487953709173
 20
-513.1263147418331
 30
0.0
 11
576.487953709173
 21
-527.1263147418329
 31
0.0
  0
TEXT
  5
1EE5D
330
18
100
AcDbEntity
  8
1TEXT
100
AcDbText
 10
552.2839581342764
 20
-518.4953805299288
 30
0.0
 40
4.0
  1
コード
 72
     1
 11
559.1506248009431
 21
-518.4953805299288
 31
0.0
100
AcDbText
  0
LINE
  5
1EE5E
330
18
100
AcDbEntity
  8
1DIM
100
AcDbLine
 10
541.487953709173
 20
-527.1263147418329
 30
0.0
 11
541.487953709173
 21
-513.1263147418331
 31
0.0
  0
TEXT
  5
1EE62
330
18
100
AcDbEntity
  8
1TEXT
100
AcDbText
 10
514.621287042506
 20
-518.6263147418331
 30
0.0
 40
4.0
  1
表面処理
 72
     1
 11
523.8879537091726
 21
-518.6263147418331
 31
0.0
100
AcDbText
  0
TEXT
  5
1EE63
330
18
100
AcDbEntity
  8
1TEXT
100
AcDbText
 10
514.4212870425059
 20
-525.4616034013575
 30
0.0
 40
4.0
  1
クローム
 72
     1
 11
523.8879537091726
 21
-525.4616034013575
 31
0.0
100
AcDbText
  0
LINE
  5
1EE65
330
18
100
AcDbEntity
  8
1DIM
100
AcDbLine
 10
506.487953709173
 20
-527.1263147418329
 30
0.0
 11
506.487953709173
 21
-513.1263147418331
 31
0.0
  0
TEXT
  5
1EE71
330
18
100
AcDbEntity
  8
1TEXT
100
AcDbText
 10
544.9839581342765
 20
-525.6000643237262
 30
0.0
 40
4.0
  1
SC-871-XC
 41
0.85
 72
     1
 11
559.1506248009431
 21
-525.6000643237262
 31
0.0
100
AcDbText
  0
ARC
  5
209BA
330
18
100
AcDbEntity
  8
01
  6
CONTINUOUS
100
AcDbCircle
 10
642.0162368864159
 20
-662.1788989562117
 30
0.0
 40
1.0
100
AcDbArc
 50
270.0
 51
0.0
  0
SPLINE
  5
209BB
330
18
100
AcDbEntity
  8
01
  6
CONTINUOUS
100
AcDbSpline
210
0.0
220
0.0
230
1.0
 70
     8
 71
     3
 72
    12
 73
     8
 74
     0
 42
0.0000000001
 43
0.0000000001
 40
0.0
 40
0.0
 40
0.0
 40
0.0
 40
0.235385443938116
 40
0.4585254199039515
 40
0.6977421236934369
 40
0.9060361994230787
 40
1.0
 40
1.0
 40
1.0
 40
1.0
 10
608.016225514781
 20
-662.5324522315293
 30
0.0
 10
608.0241280803499
 20
-662.6146507400296
 30
0.0
 10
608.0395220959493
 20
-662.7747715401733
 30
0.0
 10
608.1735137993404
 20
-662.9895533953008
 30
0.0
 10
608.3670526383434
 20
-663.1268967039812
 30
0.0
 10
608.5505420028716
 20
-663.1817463559872
 30
0.0
 10
608.649536082139
 20
-663.1738742781677
 30
0.0
 10
608.680310664546
 20
-663.1714270620375
 30
0.0
  0
LINE
  5
209BC
330
18
100
AcDbEntity
  8
01
  6
CONTINUOUS
100
AcDbLine
 10
608.6626974920149
 20
-663.1788990630537
 30
0.0
 11
642.0162348131056
 21
-663.1788990630537
 31
0.0
  0
LINE
  5
209BD
330
18
100
AcDbEntity
  8
01
  6
CONTINUOUS
100
AcDbLine
 10
159.0162375996227
 20
-663.1788990630537
 30
0.0
 11
192.3697898218746
 21
-663.1788990630537
 31
0.0
  0
ARC
  5
209BE
330
18
100
AcDbEntity
  8
01
  6
CONTINUOUS
100
AcDbCircle
 10
159.0162368864159
 20
-662.1788989562117
 30
0.0
 40
1.0
100
AcDbArc
 50
180.0
 51
270.0
  0
SPLINE
  5
209BF
330
18
100
AcDbEntity
  8
01
  6
CONTINUOUS
100
AcDbSpline
210
0.0
220
0.0
230
1.0
 70
     8
 71
     3
 72
    12
 73
     8
 74
     0
 42
0.0000000001
 43
0.0000000001
 40
0.0
 40
0.0
 40
0.0
 40
0.0
 40
0.1926606050418077
 40
0.421032053454782
 40
0.6438224724870307
 40
0.8557090377877796
 40
1.0
 40
1.0
 40
1.0
 40
1.0
 10
192.3567988032813
 20
-663.1710917859107
 30
0.0
 10
192.4208968402975
 20
-663.1707453520589
 30
0.0
 10
192.5609738848056
 20
-663.1699882706828
 30
0.0
 10
192.7676900784831
 20
-663.0681122821379
 30
0.0
 10
192.927634697407
 20
-662.896741828008
 30
0.0
 10
193.0060162050829
 20
-662.7054498709857
 30
0.0
 10
193.0132906405412
 20
-662.582329489279
 30
0.0
 10
193.0162375847215
 20
-662.5324522315293
 30
0.0
  0
ARC
  5
209C0
330
18
100
AcDbEntity
  8
01
  6
CONTINUOUS
100
AcDbCircle
 10
607.5162368864161
 20
-662.6031630249237
 30
0.0
 40
0.5
100
AcDbArc
 50
270.0
 51
0.0
  0
LINE
  5
209C1
330
18
100
AcDbEntity
  8
01
  6
CONTINUOUS
100
AcDbLine
 10
193.5162367353553
 20
-663.1031629799634
 30
0.0
 11
607.5162319520826
 21
-663.1031629799634
 31
0.0
  0
ARC
  5
209C2
330
18
100
AcDbEntity
  8
01
  6
CONTINUOUS
100
AcDbCircle
 10
193.516236886416
 20
-662.6031630249237
 30
0.0
 40
0.5
100
AcDbArc
 50
180.0
 51
270.0
  0
LINE
  5
209C3
330
18
100
AcDbEntity
  8
01
  6
CONTINUOUS
100
AcDbLine
 10
607.5162319520826
 20
-643.0112800731092
 30
0.0
 11
193.5162367353553
 21
-643.0112800731092
 31
0.0
  0
ARC
  5
209C4
330
18
100
AcDbEntity
  8
01
  6
CONTINUOUS
100
AcDbCircle
 10
607.5162368864161
 20
-643.511279932887
 30
0.0
 40
0.5
100
AcDbArc
 50
0.0
 51
90.0
  0
ARC
  5
209C5
330
18
100
AcDbEntity
  8
01
  6
CONTINUOUS
100
AcDbCircle
 10
193.516236886416
 20
-643.511279932887
 30
0.0
 40
0.5
100
AcDbArc
 50
90.0
 51
180.0
  0
LINE
  5
209CF
330
18
100
AcDbEntity
  8
01
  6
CONTINUOUS
100
AcDbLine
 10
643.0162368864159
 20
-662.1788989562117
 30
0.0
 11
643.0162517408247
 21
-643.5213300569683
 31
0.0
  0
LINE
  5
209D2
330
18
100
AcDbEntity
  8
01
  6
CONTINUOUS
100
AcDbLine
 10
608.016225514781
 20
-643.1677767245799
 30
0.0
 11
608.016225514781
 21
-662.5324522315293
 31
0.0
  0
LINE
  5
209DE
330
18
100
AcDbEntity
  8
01
  6
CONTINUOUS
100
AcDbLine
 10
642.0162348131056
 20
-642.5213308243781
 30
0.0
 11
608.5162488798018
 21
-642.5213308243781
 31
0.0
  0
ARC
  5
209E0
330
18
100
AcDbEntity
  8
01
  6
CONTINUOUS
100
AcDbCircle
 10
642.0162368864159
 20
-643.5213304392257
 30
0.0
 40
1.0
100
AcDbArc
 50
0.0
 51
90.0
  0
ARC
  5
209E1
330
18
100
AcDbEntity
  8
01
  6
CONTINUOUS
100
AcDbCircle
 10
608.5162368864161
 20
-643.0213304392257
 30
0.0
 40
0.5000000000001137
100
AcDbArc
 50
90.0
 51
180.0
  0
LINE
  5
209E2
330
18
100
AcDbEntity
  8
01
  6
CONTINUOUS
100
AcDbLine
 10
608.016225514781
 20
-643.0213299750119
 30
0.0
 11
608.016225514781
 21
-643.1677767245799
 31
0.0
  0
LINE
  5
209E3
330
18
100
AcDbEntity
  8
01
  6
CONTINUOUS
100
AcDbLine
 10
634.9149970392103
 20
-668.459448701027
 30
0.0
 11
639.3843023160811
 21
-663.1788990630537
 31
0.0
  0
LINE
  5
209E9
330
18
100
AcDbEntity
  8
01
  6
CONTINUOUS
100
AcDbLine
 10
611.6481749395247
 20
-663.1788990630537
 30
0.0
 11
616.1174802163954
 21
-668.459448701027
 31
0.0
  0
ARC
  5
209EB
330
18
100
AcDbEntity
  8
01
  6
CONTINUOUS
100
AcDbCircle
 10
618.4074018779787
 20
-666.5213304392257
 30
0.0
 40
3.000000000000048
100
AcDbArc
 50
220.2436471518234
 51
270.0
  0
ARC
  5
209EC
330
18
100
AcDbEntity
  8
01
  6
CONTINUOUS
100
AcDbCircle
 10
632.6250718948535
 20
-666.5213304392257
 30
0.0
 40
3.0
100
AcDbArc
 50
270.0
 51
319.7563528481766
  0
LINE
  5
209EE
330
18
100
AcDbEntity
  8
01
  6
CONTINUOUS
100
AcDbLine
 10
618.4074012616987
 20
-669.5213305934101
 30
0.0
 11
632.625075993907
 21
-669.5213305934101
 31
0.0
  0
LINE
  5
20A00
330
18
100
AcDbEntity
  8
01
  6
CONTINUOUS
100
AcDbLine
 10
193.0162375847215
 20
-643.1677767245799
 30
0.0
 11
193.0162375847215
 21
-662.5324522315293
 31
0.0
  0
LINE
  5
20A02
330
18
100
AcDbEntity
  8
01
  6
CONTINUOUS
100
AcDbLine
 10
158.0162368864159
 20
-662.1788989562117
 30
0.0
 11
158.0162374357099
 21
-643.5213300569683
 31
0.0
  0
ARC
  5
20A06
330
18
100
AcDbEntity
  8
01
  6
CONTINUOUS
100
AcDbCircle
 10
159.0162368864159
 20
-643.5213304392257
 30
0.0
 40
1.0
100
AcDbArc
 50
90.0
 51
179.9999999999967
  0
ARC
  5
20A09
330
18
100
AcDbEntity
  8
01
  6
CONTINUOUS
100
AcDbCircle
 10
192.5162368864159
 20
-643.0213304392257
 30
0.0
 40
0.5
100
AcDbArc
 50
0.0
 51
90.0
  0
LINE
  5
20A0A
330
18
100
AcDbEntity
  8
01
  6
CONTINUOUS
100
AcDbLine
 10
193.0162375847215
 20
-643.0213299750119
 30
0.0
 11
193.0162375847215
 21
-643.1677767245799
 31
0.0
  0
LINE
  5
20A0B
330
18
100
AcDbEntity
  8
01
  6
CONTINUOUS
100
AcDbLine
 10
159.0162375996227
 20
-642.5213308243781
 30
0.0
 11
192.5162365714426
 21
-642.5213308243781
 31
0.0
  0
LINE
  5
20A0C
330
18
100
AcDbEntity
  8
01
  6
CONTINUOUS
100
AcDbLine
 10
166.1174893433566
 20
-668.459448701027
 30
0.0
 11
161.648179409873
 21
-663.1788990630537
 31
0.0
  0
LINE
  5
20A11
330
18
100
AcDbEntity
  8
01
  6
CONTINUOUS
100
AcDbLine
 10
189.3842946792359
 20
-663.1788990630537
 30
0.0
 11
184.914984280091
 21
-668.459448701027
 31
0.0
  0
ARC
  5
20A13
330
18
100
AcDbEntity
  8
01
  6
CONTINUOUS
100
AcDbCircle
 10
182.6250718948533
 20
-666.5213304392257
 30
0.0
 40
3.0
100
AcDbArc
 50
270.0
 51
319.7563528481766
  0
ARC
  5
20A15
330
18
100
AcDbEntity
  8
01
  6
CONTINUOUS
100
AcDbCircle
 10
168.4074018779785
 20
-666.5213304392257
 30
0.0
 40
3.0
100
AcDbArc
 50
220.2436471518234
 51
270.0
  0
LINE
  5
20A17
330
18
100
AcDbEntity
  8
01
  6
CONTINUOUS
100
AcDbLine
 10
182.6250720823521
 20
-669.5213305934101
 30
0.0
 11
168.4074020067567
 21
-669.5213305934101
 31
0.0
  0
ARC
  5
20A36
330
18
100
AcDbEntity
  8
01
  6
CONTINUOUS
100
AcDbCircle
 10
608.516226760956
 20
-591.1249882271919
 30
0.0
 40
0.5000000000001137
100
AcDbArc
 50
180.0
 51
270.0
  0
ARC
  5
20A37
330
18
100
AcDbEntity
  8
01
  6
CONTINUOUS
100
AcDbCircle
 10
642.0162267609558
 20
-590.6249882271919
 30
0.0
 40
1.0
100
AcDbArc
 50
270.0
 51
0.0
  0
LINE
  5
20A38
330
18
100
AcDbEntity
  8
01
  6
CONTINUOUS
100
AcDbLine
 10
608.5162387543417
 20
-591.6249887919755
 30
0.0
 11
642.0162246876455
 21
-591.6249887919755
 31
0.0
  0
ARC
  5
20A39
330
18
100
AcDbEntity
  8
01
  6
CONTINUOUS
100
AcDbCircle
 10
192.5162267609558
 20
-591.1249882271919
 30
0.0
 40
0.5
100
AcDbArc
 50
270.0
 51
0.0
  0
ARC
  5
20A3A
330
18
100
AcDbEntity
  8
01
  6
CONTINUOUS
100
AcDbCircle
 10
159.0162267609558
 20
-590.6249882271919
 30
0.0
 40
1.0
100
AcDbArc
 50
180.0
 51
270.0
  0
LINE
  5
20A3B
330
18
100
AcDbEntity
  8
01
  6
CONTINUOUS
100
AcDbLine
 10
159.0162274741626
 20
-591.6249887919755
 30
0.0
 11
192.5162264459825
 21
-591.6249887919755
 31
0.0
  0
LINE
  5
20A3C
330
18
100
AcDbEntity
  8
01
  6
CONTINUOUS
100
AcDbLine
 10
607.5162218266225
 20
-571.457369802031
 30
0.0
 11
193.5162266098952
 21
-571.457369802031
 31
0.0
  0
ARC
  5
20A3D
330
18
100
AcDbEntity
  8
01
  6
CONTINUOUS
100
AcDbCircle
 10
193.5162267609559
 20
-571.9573692038671
 30
0.0
 40
0.5
100
AcDbArc
 50
90.0
 51
180.0
  0
ARC
  5
20A3E
330
18
100
AcDbEntity
  8
01
  6
CONTINUOUS
100
AcDbCircle
 10
607.516226760956
 20
-571.9573692038672
 30
0.0
 40
0.5
100
AcDbArc
 50
0.0
 51
90.0
  0
LINE
  5
20A3F
330
18
100
AcDbEntity
  8
01
  6
CONTINUOUS
100
AcDbLine
 10
193.5162266098952
 20
-591.5492536402078
 30
0.0
 11
607.5162218266225
 21
-591.5492536402078
 31
0.0
  0
ARC
  5
20A40
330
18
100
AcDbEntity
  8
01
  6
CONTINUOUS
100
AcDbCircle
 10
193.5162267609559
 20
-591.0492522959038
 30
0.0
 40
0.5
100
AcDbArc
 50
180.0
 51
270.0
  0
ARC
  5
20A41
330
18
100
AcDbEntity
  8
01
  6
CONTINUOUS
100
AcDbCircle
 10
607.516226760956
 20
-591.049252295904
 30
0.0
 40
0.4999999999999432
100
AcDbArc
 50
270.0
 51
0.0000000000065138
  0
LINE
  5
20A42
330
18
100
AcDbEntity
  8
01
  6
CONTINUOUS
100
AcDbLine
 10
643.0162416153646
 20
-577.9071176326604
 30
0.0
 11
643.0162416153646
 21
-535.8213303512664
 31
0.0
  0
LINE
  5
20A45
330
18
100
AcDbEntity
  8
01
  6
CONTINUOUS
100
AcDbLine
 10
643.0162416153646
 20
-535.8213303512664
 30
0.0
 11
642.0162246876455
 21
-535.8213303512664
 31
0.0
  0
LINE
  5
20A48
330
18
100
AcDbEntity
  8
01
  6
CONTINUOUS
100
AcDbLine
 10
608.0162153893209
 20
-535.8213303512664
 30
0.0
 11
608.0162153893209
 21
-577.9071176326604
 31
0.0
  0
LINE
  5
20A49
330
18
100
AcDbEntity
  8
01
  6
CONTINUOUS
100
AcDbLine
 10
608.5162387543417
 20
-535.8213303512664
 30
0.0
 11
608.0162153893209
 21
-535.8213303512664
 31
0.0
  0
LINE
  5
20A4B
330
18
100
AcDbEntity
  8
01
  6
CONTINUOUS
100
AcDbLine
 10
608.5162387543417
 20
-535.8213303512664
 30
0.0
 11
642.0162246876455
 21
-535.8213303512664
 31
0.0
  0
LINE
  5
20A4F
330
18
100
AcDbEntity
  8
01
  6
CONTINUOUS
100
AcDbLine
 10
608.0162153893209
 20
-577.9071176326604
 30
0.0
 11
608.0162153893209
 21
-578.2606700337262
 31
0.0
  0
LINE
  5
20A52
330
18
100
AcDbEntity
  8
01
  6
CONTINUOUS
100
AcDbLine
 10
643.0162416153646
 20
-590.6249867654176
 30
0.0
 11
643.0162416153646
 21
-577.9071176326604
 31
0.0
  0
LINE
  5
20A55
330
18
100
AcDbEntity
  8
01
  6
CONTINUOUS
100
AcDbLine
 10
608.0162153893209
 20
-578.2606700337262
 30
0.0
 11
608.0162153893209
 21
-590.9785428917737
 31
0.0
  0
LINE
  5
20A59
330
18
100
AcDbEntity
  8
01
  6
CONTINUOUS
100
AcDbLine
 10
608.0162153893209
 20
-590.9785428917737
 30
0.0
 11
608.0162153893209
 21
-591.1249877786965
 31
0.0
  0
LINE
  5
20A5A
330
18
100
AcDbEntity
  8
01
  6
CONTINUOUS
100
AcDbLine
 10
193.0162274592614
 20
-535.8213303512664
 30
0.0
 11
193.0162274592614
 21
-577.9071176326604
 31
0.0
  0
LINE
  5
20A5D
330
18
100
AcDbEntity
  8
01
  6
CONTINUOUS
100
AcDbLine
 10
192.5162264459825
 20
-535.8213303512664
 30
0.0
 11
193.0162274592614
 21
-535.8213303512664
 31
0.0
  0
LINE
  5
20A60
330
18
100
AcDbEntity
  8
1PHANTOM
 48
0.3
100
AcDbLine
 10
192.5162264459825
 20
-535.8213303512664
 30
0.0
 11
159.0162274741626
 21
-535.8213303512664
 31
0.0
  0
LINE
  5
20A62
330
18
100
AcDbEntity
  8
01
  6
CONTINUOUS
100
AcDbLine
 10
158.0162273102498
 20
-577.9071176326604
 30
0.0
 11
158.0162273102498
 21
-535.8213303512664
 31
0.0
  0
LINE
  5
20A63
330
18
100
AcDbEntity
  8
01
  6
CONTINUOUS
100
AcDbLine
 10
158.0162273102498
 20
-535.8213303512664
 30
0.0
 11
159.0162274741626
 21
-535.8213303512664
 31
0.0
  0
LINE
  5
20A65
330
18
100
AcDbEntity
  8
01
  6
CONTINUOUS
100
AcDbLine
 10
193.0162274592614
 20
-577.9071176326604
 30
0.0
 11
193.0162274592614
 21
-578.2606700337262
 31
0.0
  0
LINE
  5
20A6C
330
18
100
AcDbEntity
  8
01
  6
CONTINUOUS
100
AcDbLine
 10
158.0162273102498
 20
-590.6249867654176
 30
0.0
 11
158.0162273102498
 21
-577.9071176326604
 31
0.0
  0
LINE
  5
20A6E
330
18
100
AcDbEntity
  8
01
  6
CONTINUOUS
100
AcDbLine
 10
193.0162274592614
 20
-578.2606700337262
 30
0.0
 11
193.0162274592614
 21
-590.9785428917737
 31
0.0
  0
LINE
  5
20A71
330
18
100
AcDbEntity
  8
01
  6
CONTINUOUS
100
AcDbLine
 10
193.0162274592614
 20
-590.9785428917737
 30
0.0
 11
193.0162274592614
 21
-591.1249877786965
 31
0.0
  0
LINE
  5
20A8E
330
18
100
AcDbEntity
  8
01
  6
CONTINUOUS
100
AcDbLine
 10
743.016241615365
 20
-642.5213308243781
 30
0.0
 11
700.9304543339709
 21
-642.5213308243781
 31
0.0
  0
LINE
  5
20A8F
330
18
100
AcDbEntity
  8
01
  6
CONTINUOUS
100
AcDbLine
 10
743.016241615365
 20
-669.5213305934101
 30
0.0
 11
743.016241615365
 21
-642.5213308243781
 31
0.0
  0
LINE
  5
20A92
330
18
100
AcDbEntity
  8
01
  6
CONTINUOUS
100
AcDbLine
 10
698.224064459751
 20
-659.5213303512662
 30
0.0
 11
731.5528309286634
 21
-659.5213303512662
 31
0.0
  0
LINE
  5
20A9B
330
18
100
AcDbEntity
  8
01
  6
CONTINUOUS
100
AcDbLine
 10
700.2233495318393
 20
-642.8142233921915
 30
0.0
 11
687.5054766737918
 21
-655.5320952025011
 31
0.0
  0
LINE
  5
20A9D
330
18
100
AcDbEntity
  8
01
  6
CONTINUOUS
100
AcDbLine
 10
694.8593859874705
 20
-662.8860055639177
 30
0.0
 11
698.224064459751
 21
-659.5213303512662
 31
0.0
  0
ARC
  5
20A9F
330
18
100
AcDbEntity
  8
01
  6
CONTINUOUS
100
AcDbCircle
 10
700.9304552944585
 20
-643.5213304392257
 30
0.0
 40
1.0
100
AcDbArc
 50
90.0
 51
135.0
  0
ARC
  5
20AA1
330
18
100
AcDbEntity
  8
01
  6
CONTINUOUS
100
AcDbCircle
 10
688.2125837394395
 20
-656.2392019942448
 30
0.0
 40
0.9999999999999277
100
AcDbArc
 50
134.9999999999954
 51
225.0000000000046
  0
ARC
  5
20AA2
330
18
100
AcDbEntity
  8
01
  6
CONTINUOUS
100
AcDbCircle
 10
694.1522807014065
 20
-662.1788989562118
 30
0.0
 40
1.000000000000048
100
AcDbArc
 50
225.0
 51
315.0000000000092
  0
LINE
  5
20AA4
330
18
100
AcDbEntity
  8
01
  6
CONTINUOUS
100
AcDbLine
 10
687.5054766737918
 20
-656.9463087648853
 30
0.0
 11
693.4451726579169
 21
-662.8860055639177
 31
0.0
  0
LINE
  5
20AA8
330
18
100
AcDbEntity
  8
01
  6
CONTINUOUS
100
AcDbLine
 10
731.5162415930132
 20
-659.5213303512662
 30
0.0
 11
740.5154272296528
 21
-668.5205155222445
 31
0.0
  0
ARC
  5
20AAB
330
18
100
AcDbEntity
  8
01
  6
CONTINUOUS
100
AcDbCircle
 10
741.9304552944587
 20
-668.5213304392257
 30
0.0
 40
1.000000000000048
100
AcDbArc
 50
224.9999999999954
 51
270.0
  0
LINE
  5
20AAD
330
18
100
AcDbEntity
  8
01
  6
CONTINUOUS
100
AcDbLine
 10
741.9304554664592
 20
-669.5213305934101
 30
0.0
 11
743.016241615365
 21
-669.5213305934101
 31
0.0
  0
LINE
  5
20AAF
330
18
100
AcDbEntity
  8
01
100
AcDbLine
 10
643.0162517408247
 20
-656.239201983693
 30
0.0
 11
158.0162374357099
 21
-656.2392019836932
 31
0.0
  0
LINE
  5
20AB0
330
18
100
AcDbEntity
  8
01
100
AcDbLine
 10
158.0162273102497
 20
-578.3213289356565
 30
0.0
 11
643.0162416153647
 21
-578.3213289356565
 31
0.0
  0
LINE
  5
20ACE
330
18
100
AcDbEntity
  8
01
100
AcDbLine
 10
186.0162271633541
 20
-539.8213303512664
 30
0.0
 11
185.0162274633541
 21
-538.8213303512664
 31
0.0
  0
LINE
  5
20ACF
330
18
100
AcDbEntity
  8
01
100
AcDbLine
 10
189.3162273133541
 20
-539.8213303512664
 30
0.0
 11
189.3162273133541
 21
-538.8213303512664
 31
0.0
  0
LINE
  5
20AD0
330
18
100
AcDbEntity
  8
01
100
AcDbLine
 10
189.3162273133541
 20
-538.8213303512664
 30
0.0
 11
181.7162273133542
 21
-538.8213303512664
 31
0.0
  0
LINE
  5
20AD1
330
18
100
AcDbEntity
  8
01
100
AcDbLine
 10
189.3162273133541
 20
-539.8213303512664
 30
0.0
 11
181.7162273133542
 21
-539.8213303512664
 31
0.0
  0
LINE
  5
20AD2
330
18
100
AcDbEntity
  8
01
100
AcDbLine
 10
181.7162273133542
 20
-539.8213303512664
 30
0.0
 11
181.7162273133542
 21
-538.8213303512664
 31
0.0
  0
LINE
  5
20AD5
330
18
100
AcDbEntity
  8
1PHANTOM
 48
0.3
100
AcDbLine
 10
161.2662273102498
 20
-538.8213303512664
 30
0.0
 11
160.2662273102498
 21
-538.8213303512664
 31
0.0
  0
LINE
  5
20AD6
330
18
100
AcDbEntity
  8
1PHANTOM
 48
0.3
100
AcDbLine
 10
160.2662273102498
 20
-538.8213303512664
 30
0.0
 11
160.2662273102498
 21
-535.8213303512664
 31
0.0
  0
LINE
  5
20AD7
330
18
100
AcDbEntity
  8
1PHANTOM
 48
0.3
100
AcDbLine
 10
161.2662273102498
 20
-538.8213303512664
 30
0.0
 11
170.0162273102498
 21
-538.8213303512664
 31
0.0
  0
LINE
  5
20AD8
330
18
100
AcDbEntity
  8
1PHANTOM
 48
0.3
100
AcDbLine
 10
181.0162273102498
 20
-538.8213303512664
 30
0.0
 11
189.7662273102498
 21
-538.8213303512664
 31
0.0
  0
LINE
  5
20AD9
330
18
100
AcDbEntity
  8
1PHANTOM
 48
0.3
100
AcDbLine
 10
190.7662273102498
 20
-535.8213303512664
 30
0.0
 11
190.7662273102498
 21
-538.8213303512664
 31
0.0
  0
LINE
  5
20ADA
330
18
100
AcDbEntity
  8
1PHANTOM
 48
0.3
100
AcDbLine
 10
190.7662273102498
 20
-538.8213303512664
 30
0.0
 11
189.7662273102498
 21
-538.8213303512664
 31
0.0
  0
LINE
  5
20ADB
330
18
100
AcDbEntity
  8
1PHANTOM
 48
0.3
100
AcDbLine
 10
170.0162273102498
 20
-559.8213303512664
 30
0.0
 11
170.0162273102498
 21
-538.8213303512664
 31
0.0
  0
LINE
  5
20ADC
330
18
100
AcDbEntity
  8
1PHANTOM
 48
0.3
100
AcDbLine
 10
181.0162273102498
 20
-538.8213303512664
 30
0.0
 11
181.0162273102498
 21
-559.8213303512664
 31
0.0
  0
CIRCLE
  5
20ADD
330
18
100
AcDbEntity
  8
1PHANTOM
 48
0.3
100
AcDbCircle
 10
175.5162273102498
 20
-553.8213303512664
 30
0.0
 40
1.650000000000006
  0
LINE
  5
20ADF
330
18
100
AcDbEntity
  8
01
100
AcDbLine
 10
166.0162271633541
 20
-539.8213303512664
 30
0.0
 11
165.0162274633541
 21
-538.8213303512664
 31
0.0
  0
LINE
  5
20AE0
330
18
100
AcDbEntity
  8
01
100
AcDbLine
 10
169.3162273133541
 20
-539.8213303512664
 30
0.0
 11
169.3162273133541
 21
-538.8213303512664
 31
0.0
  0
LINE
  5
20AE1
330
18
100
AcDbEntity
  8
01
100
AcDbLine
 10
169.3162273133541
 20
-538.8213303512664
 30
0.0
 11
161.7162273133542
 21
-538.8213303512664
 31
0.0
  0
LINE
  5
20AE2
330
18
100
AcDbEntity
  8
01
100
AcDbLine
 10
169.3162273133541
 20
-539.8213303512664
 30
0.0
 11
161.7162273133542
 21
-539.8213303512664
 31
0.0
  0
LINE
  5
20AE3
330
18
100
AcDbEntity
  8
01
100
AcDbLine
 10
161.7162273133542
 20
-539.8213303512664
 30
0.0
 11
161.7162273133542
 21
-538.8213303512664
 31
0.0
  0
LINE
  5
20AE5
330
18
100
AcDbEntity
  8
1PHANTOM
 48
0.3
100
AcDbLine
 10
181.0162273102498
 20
-559.8213303512664
 30
0.0
 11
170.0162273102498
 21
-559.8213303512664
 31
0.0
  0
LINE
  5
20AE6
330
18
100
AcDbEntity
  8
1PHANTOM
 48
0.3
100
AcDbLine
 10
160.2662273102498
 20
-535.8213303512664
 30
0.0
 11
190.7662273102498
 21
-535.8213303512664
 31
0.0
  0
LINE
  5
20C3F
330
18
100
AcDbEntity
  8
01
100
AcDbLine
 10
636.0162152424252
 20
-539.8213303512664
 30
0.0
 11
635.0162155424252
 21
-538.8213303512664
 31
0.0
  0
LINE
  5
20C40
330
18
100
AcDbEntity
  8
01
100
AcDbLine
 10
639.3162153924252
 20
-539.8213303512664
 30
0.0
 11
639.3162153924252
 21
-538.8213303512664
 31
0.0
  0
LINE
  5
20C41
330
18
100
AcDbEntity
  8
01
100
AcDbLine
 10
639.3162153924252
 20
-538.8213303512664
 30
0.0
 11
631.7162153924253
 21
-538.8213303512664
 31
0.0
  0
LINE
  5
20C42
330
18
100
AcDbEntity
  8
01
100
AcDbLine
 10
639.3162153924252
 20
-539.8213303512664
 30
0.0
 11
631.7162153924253
 21
-539.8213303512664
 31
0.0
  0
LINE
  5
20C43
330
18
100
AcDbEntity
  8
01
100
AcDbLine
 10
631.7162153924253
 20
-539.8213303512664
 30
0.0
 11
631.7162153924253
 21
-538.8213303512664
 31
0.0
  0
LINE
  5
20C46
330
18
100
AcDbEntity
  8
1PHANTOM
 48
0.3
100
AcDbLine
 10
611.2662153893209
 20
-538.8213303512664
 30
0.0
 11
610.2662153893209
 21
-538.8213303512664
 31
0.0
  0
LINE
  5
20C47
330
18
100
AcDbEntity
  8
1PHANTOM
 48
0.3
100
AcDbLine
 10
610.2662153893209
 20
-538.8213303512664
 30
0.0
 11
610.2662153893209
 21
-535.8213303512664
 31
0.0
  0
LINE
  5
20C48
330
18
100
AcDbEntity
  8
1PHANTOM
 48
0.3
100
AcDbLine
 10
611.2662153893209
 20
-538.8213303512664
 30
0.0
 11
620.0162153893209
 21
-538.8213303512664
 31
0.0
  0
LINE
  5
20C49
330
18
100
AcDbEntity
  8
1PHANTOM
 48
0.3
100
AcDbLine
 10
631.0162153893209
 20
-538.8213303512664
 30
0.0
 11
639.7662153893209
 21
-538.8213303512664
 31
0.0
  0
LINE
  5
20C4A
330
18
100
AcDbEntity
  8
1PHANTOM
 48
0.3
100
AcDbLine
 10
640.7662153893209
 20
-535.8213303512664
 30
0.0
 11
640.7662153893209
 21
-538.8213303512664
 31
0.0
  0
LINE
  5
20C4B
330
18
100
AcDbEntity
  8
1PHANTOM
 48
0.3
100
AcDbLine
 10
640.7662153893209
 20
-538.8213303512664
 30
0.0
 11
639.7662153893209
 21
-538.8213303512664
 31
0.0
  0
LINE
  5
20C4C
330
18
100
AcDbEntity
  8
1PHANTOM
 48
0.3
100
AcDbLine
 10
620.0162153893209
 20
-559.8213303512664
 30
0.0
 11
620.0162153893209
 21
-538.8213303512664
 31
0.0
  0
LINE
  5
20C4D
330
18
100
AcDbEntity
  8
1PHANTOM
 48
0.3
100
AcDbLine
 10
631.0162153893209
 20
-538.8213303512664
 30
0.0
 11
631.0162153893209
 21
-559.8213303512664
 31
0.0
  0
CIRCLE
  5
20C4E
330
18
100
AcDbEntity
  8
1PHANTOM
 48
0.3
100
AcDbCircle
 10
625.5162153893209
 20
-553.8213303512664
 30
0.0
 40
1.650000000000006
  0
LINE
  5
20C50
330
18
100
AcDbEntity
  8
01
100
AcDbLine
 10
616.0162152424252
 20
-539.8213303512664
 30
0.0
 11
615.0162155424252
 21
-538.8213303512664
 31
0.0
  0
LINE
  5
20C51
330
18
100
AcDbEntity
  8
01
100
AcDbLine
 10
619.3162153924252
 20
-539.8213303512664
 30
0.0
 11
619.3162153924252
 21
-538.8213303512664
 31
0.0
  0
LINE
  5
20C52
330
18
100
AcDbEntity
  8
01
100
AcDbLine
 10
619.3162153924252
 20
-538.8213303512664
 30
0.0
 11
611.7162153924253
 21
-538.8213303512664
 31
0.0
  0
LINE
  5
20C53
330
18
100
AcDbEntity
  8
01
100
AcDbLine
 10
619.3162153924252
 20
-539.8213303512664
 30
0.0
 11
611.7162153924253
 21
-539.8213303512664
 31
0.0
  0
LINE
  5
20C54
330
18
100
AcDbEntity
  8
01
100
AcDbLine
 10
611.7162153924253
 20
-539.8213303512664
 30
0.0
 11
611.7162153924253
 21
-538.8213303512664
 31
0.0
  0
LINE
  5
20C57
330
18
100
AcDbEntity
  8
1PHANTOM
 48
0.3
100
AcDbLine
 10
620.0162153893209
 20
-559.8213303512664
 30
0.0
 11
631.0162153893209
 21
-559.8213303512664
 31
0.0
  0
ARC
  5
213AB
330
18
100
AcDbEntity
  8
1PHANTOM
 48
0.3
100
AcDbCircle
 10
170.51623743571
 20
-657.2392019836931
 30
0.0
 40
0.5
100
AcDbArc
 50
180.0
 51
270.0
  0
ARC
  5
213AC
330
18
100
AcDbEntity
  8
1PHANTOM
 48
0.3
100
AcDbCircle
 10
180.51623743571
 20
-657.2392019836931
 30
0.0
 40
0.5
100
AcDbArc
 50
270.0
 51
0.0
  0
LINE
  5
213AD
330
18
100
AcDbEntity
  8
1PHANTOM
 48
0.3
100
AcDbLine
 10
180.51623743571
 20
-657.7392019836931
 30
0.0
 11
170.51623743571
 21
-657.7392019836931
 31
0.0
  0
ELLIPSE
  5
213AE
330
18
100
AcDbEntity
  8
1PHANTOM
 48
0.3
100
AcDbEllipse
 10
180.51623743571
 20
-646.7916433424998
 30
0.0
 11
0.0
 21
0.5000761640219764
 31
0.0
210
0.0
220
0.0
230
1.0
 40
0.9998476951563461
 41
4.712388980384704
 42
4.729842272904671
  0
LINE
  5
213AF
330
18
100
AcDbEntity
  8
1PHANTOM
 48
0.3
100
AcDbLine
 10
181.01623743571
 20
-646.2392019836932
 30
0.0
 11
181.01623743571
 21
-664.2383907142095
 31
0.0
  0
LINE
  5
213B0
330
18
100
AcDbEntity
  8
1PHANTOM
 48
0.3
100
AcDbLine
 10
161.26623743571
 20
-646.2392019836932
 30
0.0
 11
189.76623743571
 21
-646.2392019836932
 31
0.0
  0
ELLIPSE
  5
213B1
330
18
100
AcDbEntity
  8
1PHANTOM
 48
0.3
100
AcDbEllipse
 10
170.51623743571
 20
-646.7916433424998
 30
0.0
 11
0.0
 21
0.5000761640219764
 31
0.0
210
0.0
220
0.0
230
1.0
 40
0.9998476951563461
 41
1.55334303427493
 42
1.570796326794897
  0
LINE
  5
213B2
330
18
100
AcDbEntity
  8
1PHANTOM
 48
0.3
100
AcDbLine
 10
170.01623743571
 20
-664.2383907142095
 30
0.0
 11
170.01623743571
 21
-646.2392019836932
 31
0.0
  0
LINE
  5
213B3
330
18
100
AcDbEntity
  8
1PHANTOM
 48
0.3
100
AcDbLine
 10
170.51623743571
 20
-665.1633871977829
 30
0.0
 11
166.8457149956874
 21
-665.1633871977829
 31
0.0
  0
LINE
  5
213B4
330
18
100
AcDbEntity
  8
1PHANTOM
 48
0.3
100
AcDbLine
 10
184.1867598757325
 20
-665.1633871977829
 30
0.0
 11
180.51623743571
 21
-665.1633871977829
 31
0.0
  0
ELLIPSE
  5
213B5
330
18
100
AcDbEntity
  8
1PHANTOM
 48
0.3
100
AcDbEllipse
 10
170.51623743571
 20
-664.2383907142095
 30
0.0
 11
0.0
 21
-0.7865255551980681
 31
0.0
210
0.0
220
0.0
230
1.0
 40
0.6357072528610805
 41
4.712388980384699
 42
5.594260918964756
  0
ELLIPSE
  5
213B6
330
18
100
AcDbEntity
  8
1PHANTOM
 48
0.3
100
AcDbEllipse
 10
170.51623743571
 20
-664.8455335713523
 30
0.0
 11
0.4706286003337823
 21
-0.4706286003337539
 31
0.0
210
0.0
220
0.0
230
1.0
 40
0.358765396110367
 41
4.367926786277256
 42
5.056851174492103
  0
ELLIPSE
  5
213B7
330
18
100
AcDbEntity
  8
1PHANTOM
 48
0.3
100
AcDbEllipse
 10
180.51623743571
 20
-664.8455335713523
 30
0.0
 11
0.4706286003337822
 21
0.4706286003337822
 31
0.0
210
0.0
220
0.0
230
1.0
 40
0.3587653961103862
 41
4.367926786277371
 42
5.05685117449214
  0
ELLIPSE
  5
213B8
330
18
100
AcDbEntity
  8
1PHANTOM
 48
0.3
100
AcDbEllipse
 10
180.51623743571
 20
-664.2383907142095
 30
0.0
 11
0.0
 21
-0.7865255551980681
 31
0.0
210
0.0
220
0.0
230
1.0
 40
0.6357072528610805
 41
0.6889243882148468
 42
1.570796326794897
  0
LINE
  5
213B9
330
18
100
AcDbEntity
  8
1PHANTOM
 48
0.3
100
AcDbLine
 10
190.5182088478958
 20
-658.8221382986812
 30
0.0
 11
185.3495800566428
 21
-664.7182037346289
 31
0.0
  0
ELLIPSE
  5
213BA
330
18
100
AcDbEntity
  8
1PHANTOM
 48
0.3
100
AcDbEllipse
 10
184.597608644457
 20
-664.0590080161543
 30
0.0
 11
0.7995572801930848
 21
0.9120875640720953
 31
0.0
210
0.0
220
0.0
230
1.0
 40
0.8244508990218034
 41
3.573997479501292
 42
4.71238898038471
  0
ARC
  5
213BB
330
18
100
AcDbEntity
  8
1PHANTOM
 48
0.3
100
AcDbCircle
 10
189.76623743571
 20
-658.1629425802067
 30
0.0
 40
1.0
100
AcDbArc
 50
318.7614374770179
 51
0.0
  0
ELLIPSE
  5
213BC
330
18
100
AcDbEntity
  8
1PHANTOM
 48
0.3
100
AcDbEllipse
 10
166.4348662269625
 20
-664.0590080161543
 30
0.0
 11
-0.7995572801930564
 21
0.9120875640720669
 31
0.0
210
0.0
220
0.0
230
1.0
 40
0.8244508990218307
 41
1.57079632679492
 42
2.709187827678361
  0
CIRCLE
  5
213BD
330
18
100
AcDbEntity
  8
1PHANTOM
 48
0.3
100
AcDbCircle
 10
165.51623743571
 20
-656.2392019836932
 30
0.0
 40
2.25
  0
CIRCLE
  5
213BE
330
18
100
AcDbEntity
  8
1PHANTOM
 48
0.3
100
AcDbCircle
 10
185.51623743571
 20
-656.2392019836932
 30
0.0
 40
2.25
  0
LINE
  5
213BF
330
18
100
AcDbEntity
  8
1PHANTOM
 48
0.3
100
AcDbLine
 10
165.6828948147767
 20
-664.7182037346289
 30
0.0
 11
160.5142660235241
 21
-658.8221382986812
 31
0.0
  0
ARC
  5
213C0
330
18
100
AcDbEntity
  8
1PHANTOM
 48
0.3
100
AcDbCircle
 10
161.26623743571
 20
-658.1629425802067
 30
0.0
 40
1.0
100
AcDbArc
 50
180.0
 51
221.2385625229821
  0
LINE
  5
213C1
330
18
100
AcDbEntity
  8
1PHANTOM
 48
0.3
100
AcDbLine
 10
190.76623743571
 20
-647.2829919740577
 30
0.0
 11
190.76623743571
 21
-658.1629425802067
 31
0.0
  0
LINE
  5
213C2
330
18
100
AcDbEntity
  8
1PHANTOM
 48
0.3
100
AcDbLine
 10
160.26623743571
 20
-658.1629425802067
 30
0.0
 11
160.26623743571
 21
-647.2829919740577
 31
0.0
  0
LINE
  5
213C3
330
18
100
AcDbEntity
  8
1PHANTOM
 48
0.3
100
AcDbLine
 10
166.7174804356713
 20
-665.8983977021678
 30
0.0
 11
165.6828948147767
 21
-664.7182037346289
 31
0.0
  0
LINE
  5
213C4
330
18
100
AcDbEntity
  8
1PHANTOM
 48
0.3
100
AcDbLine
 10
184.3149944357482
 20
-665.8983977021678
 30
0.0
 11
185.3495800566428
 21
-664.7182037346289
 31
0.0
  0
ELLIPSE
  5
213C5
330
18
100
AcDbEntity
  8
1PHANTOM
 48
0.3
100
AcDbEllipse
 10
189.76623743571
 20
-647.2393543117372
 30
0.0
 11
0.0
 21
1.000152328043924
 31
0.0
210
0.0
220
0.0
230
1.0
 40
0.9998476951563745
 41
4.712388980384704
 42
6.283185307179586
  0
LINE
  5
213C6
330
18
100
AcDbEntity
  8
1PHANTOM
 48
0.3
100
AcDbLine
 10
190.76623743571
 20
-647.2393543117372
 30
0.0
 11
190.76623743571
 21
-647.2829919740577
 31
0.0
  0
ELLIPSE
  5
213C7
330
18
100
AcDbEntity
  8
1PHANTOM
 48
0.3
100
AcDbEllipse
 10
161.26623743571
 20
-647.2393543117372
 30
0.0
 11
0.0
 21
1.000152328043924
 31
0.0
210
0.0
220
0.0
230
1.0
 40
0.9998476951563745
 41
0.0
 42
1.570796326794897
  0
LINE
  5
213C8
330
18
100
AcDbEntity
  8
1PHANTOM
 48
0.3
100
AcDbLine
 10
160.26623743571
 20
-647.2829919740577
 30
0.0
 11
160.26623743571
 21
-647.2393543117372
 31
0.0
  0
ARC
  5
213C9
330
18
100
AcDbEntity
  8
1PHANTOM
 48
0.3
100
AcDbCircle
 10
183.5630230235623
 20
-665.2392019836933
 30
0.0
 40
1.0
100
AcDbArc
 50
270.0
 51
318.7614374770179
  0
ARC
  5
213CA
330
18
100
AcDbEntity
  8
1PHANTOM
 48
0.3
100
AcDbCircle
 10
167.4694518478572
 20
-665.2392019836933
 30
0.0
 40
1.0
100
AcDbArc
 50
221.2385625229821
 51
270.0
  0
LINE
  5
213CB
330
18
100
AcDbEntity
  8
1PHANTOM
 48
0.3
100
AcDbLine
 10
183.5630230235623
 20
-666.2392019836933
 30
0.0
 11
167.4694518478572
 21
-666.2392019836933
 31
0.0
  0
LINE
  5
213D4
330
18
100
AcDbEntity
  8
1DIM
  6
PHANTOM2
100
AcDbLine
 10
725.0162841853765
 20
-657.7450709477798
 30
0.0
 11
725.0162841853765
 21
-646.8214826793103
 31
0.0
  0
LINE
  5
213DB
330
18
100
AcDbEntity
  8
1DIM
  6
PHANTOM2
100
AcDbLine
 10
740.0162841853765
 20
-657.7450709477798
 30
0.0
 11
740.0162841853765
 21
-658.0746688070171
 31
0.0
  0
LINE
  5
213DE
330
18
100
AcDbEntity
  8
1DIM
  6
PHANTOM2
100
AcDbLine
 10
740.0162841853765
 20
-658.0713303512664
 30
0.0
 11
740.0162841853765
 21
-653.5713303512664
 31
0.0
  0
LINE
  5
213DF
330
18
100
AcDbEntity
  8
1PHANTOM
 48
0.3
100
AcDbLine
 10
718.5162841853765
 20
-647.2316767051233
 30
0.0
 11
718.5162841853765
 21
-656.3213303512663
 31
0.0
  0
LINE
  5
213E0
330
18
100
AcDbEntity
  8
1PHANTOM
 48
0.3
100
AcDbLine
 10
719.5162841853765
 20
-657.3213303512663
 30
0.0
 11
733.7803219634487
 21
-657.3213303512663
 31
0.0
  0
LINE
  5
213E1
330
18
100
AcDbEntity
  8
1PHANTOM
 48
0.3
100
AcDbLine
 10
740.7162783936152
 20
-665.4570376041275
 30
0.0
 11
734.1662870812572
 21
-657.5034767248358
 31
0.0
  0
LINE
  5
213E2
330
18
100
AcDbEntity
  8
1PHANTOM
 48
0.3
100
AcDbLine
 10
741.4882086292323
 20
-665.8213303512664
 30
0.0
 11
743.0162841853765
 21
-665.8213303512664
 31
0.0
  0
ARC
  5
213E3
330
18
100
AcDbEntity
  8
1PHANTOM
 48
0.3
100
AcDbCircle
 10
741.4882086292323
 20
-664.8213303512664
 30
0.0
 40
1.0
100
AcDbArc
 50
219.4724598483472
 51
270.0
  0
LINE
  5
213E5
330
18
100
AcDbEntity
  8
1PHANTOM
 48
0.3
100
AcDbLine
 10
740.5075579821579
 20
-645.8651203300308
 30
0.0
 11
719.4988317789393
 21
-646.231829009967
 31
0.0
  0
LINE
  5
213E6
330
18
100
AcDbEntity
  8
1PHANTOM
 48
0.3
100
AcDbLine
 10
740.5075579821579
 20
-645.8651203300308
 30
0.0
 11
743.0162841853765
 21
-645.8213303512664
 31
0.0
  0
LINE
  5
213EA
330
18
100
AcDbEntity
  8
1DIM
  6
PHANTOM2
100
AcDbLine
 10
740.0162841853765
 20
-658.0746688070171
 30
0.0
 11
740.0162841853765
 21
-657.7450709477798
 31
0.0
  0
LINE
  5
213EC
330
18
100
AcDbEntity
  8
1DIM
  6
PHANTOM2
100
AcDbLine
 10
740.0162841853765
 20
-658.0713303512664
 30
0.0
 11
740.0162841853765
 21
-653.5713303512664
 31
0.0
  0
ARC
  5
213ED
330
18
100
AcDbEntity
  8
1PHANTOM
 48
0.3
100
AcDbCircle
 10
719.5162841853765
 20
-656.3213303512663
 30
0.0
 40
1.0
100
AcDbArc
 50
180.0
 51
270.0
  0
ARC
  5
213EE
330
18
100
AcDbEntity
  8
1PHANTOM
 48
0.3
100
AcDbCircle
 10
719.5162841853765
 20
-656.3213303512663
 30
0.0
 40
1.0
100
AcDbArc
 50
180.0
 51
270.0
  0
ARC
  5
213EF
330
18
100
AcDbEntity
  8
1PHANTOM
 48
0.3
100
AcDbCircle
 10
719.5162841853765
 20
-647.2316767051233
 30
0.0
 40
1.0
100
AcDbArc
 50
91.00000000000176
 51
180.0
  0
ARC
  5
213F0
330
18
100
AcDbEntity
  8
1PHANTOM
 48
0.3
100
AcDbCircle
 10
719.5162841853765
 20
-647.2316767051233
 30
0.0
 40
1.0
100
AcDbArc
 50
91.00000000000176
 51
180.0
  0
ARC
  5
213F7
330
18
100
AcDbEntity
  8
1PHANTOM
 48
0.3
100
AcDbCircle
 10
733.7803219634487
 20
-657.8213303512663
 30
0.0
 40
0.5
100
AcDbArc
 50
39.4724598483391
 51
90.0
  0
ARC
  5
213F8
330
18
100
AcDbEntity
  8
1PHANTOM
 48
0.3
100
AcDbCircle
 10
733.7803219634487
 20
-657.8213303512663
 30
0.0
 40
0.5
100
AcDbArc
 50
39.4724598483391
 51
90.0
  0
LINE
  5
21424
330
18
100
AcDbEntity
  8
01
100
AcDbLine
 10
739.0162841853765
 20
-656.3213302043707
 30
0.0
 11
740.0162841853765
 21
-655.3213305043707
 31
0.0
  0
LINE
  5
21425
330
18
100
AcDbEntity
  8
01
100
AcDbLine
 10
739.0162841853765
 20
-659.6213303543707
 30
0.0
 11
740.0162841853765
 21
-659.6213303543707
 31
0.0
  0
LINE
  5
21426
330
18
100
AcDbEntity
  8
01
100
AcDbLine
 10
740.0162841853765
 20
-659.6213303543707
 30
0.0
 11
740.0162841853765
 21
-652.0213303543708
 31
0.0
  0
LINE
  5
21427
330
18
100
AcDbEntity
  8
01
100
AcDbLine
 10
739.0162841853765
 20
-659.6213303543707
 30
0.0
 11
739.0162841853765
 21
-652.0213303543708
 31
0.0
  0
LINE
  5
21428
330
18
100
AcDbEntity
  8
01
100
AcDbLine
 10
739.0162841853765
 20
-652.0213303543708
 30
0.0
 11
740.0162841853765
 21
-652.0213303543708
 31
0.0
  0
ARC
  5
214BC
330
18
100
AcDbEntity
  8
1PHANTOM
 48
0.3
100
AcDbCircle
 10
620.5162517408247
 20
-657.2392019836929
 30
0.0
 40
0.5
100
AcDbArc
 50
180.0
 51
270.0
  0
ARC
  5
214BD
330
18
100
AcDbEntity
  8
1PHANTOM
 48
0.3
100
AcDbCircle
 10
630.5162517408247
 20
-657.2392019836929
 30
0.0
 40
0.5
100
AcDbArc
 50
270.0
 51
0.0
  0
LINE
  5
214BE
330
18
100
AcDbEntity
  8
1PHANTOM
 48
0.3
100
AcDbLine
 10
630.5162517408247
 20
-657.7392019836929
 30
0.0
 11
620.5162517408247
 21
-657.7392019836929
 31
0.0
  0
ELLIPSE
  5
214BF
330
18
100
AcDbEntity
  8
1PHANTOM
 48
0.3
100
AcDbEllipse
 10
630.5162517408247
 20
-646.7916433424996
 30
0.0
 11
0.0
 21
0.5000761640219764
 31
0.0
210
0.0
220
0.0
230
1.0
 40
0.9998476951563461
 41
4.712388980384704
 42
4.729842272904671
  0
LINE
  5
214C0
330
18
100
AcDbEntity
  8
1PHANTOM
 48
0.3
100
AcDbLine
 10
631.0162517408247
 20
-646.239201983693
 30
0.0
 11
631.0162517408247
 21
-664.2383907142092
 31
0.0
  0
LINE
  5
214C1
330
18
100
AcDbEntity
  8
1PHANTOM
 48
0.3
100
AcDbLine
 10
611.2662517408247
 20
-646.239201983693
 30
0.0
 11
639.7662517408247
 21
-646.239201983693
 31
0.0
  0
ELLIPSE
  5
214C2
330
18
100
AcDbEntity
  8
1PHANTOM
 48
0.3
100
AcDbEllipse
 10
620.5162517408247
 20
-646.7916433424996
 30
0.0
 11
0.0
 21
0.5000761640219764
 31
0.0
210
0.0
220
0.0
230
1.0
 40
0.9998476951563461
 41
1.55334303427493
 42
1.570796326794897
  0
LINE
  5
214C3
330
18
100
AcDbEntity
  8
1PHANTOM
 48
0.3
100
AcDbLine
 10
620.0162517408247
 20
-664.2383907142092
 30
0.0
 11
620.0162517408247
 21
-646.239201983693
 31
0.0
  0
LINE
  5
214C4
330
18
100
AcDbEntity
  8
1PHANTOM
 48
0.3
100
AcDbLine
 10
620.5162517408247
 20
-665.1633871977826
 30
0.0
 11
616.8457293008022
 21
-665.1633871977826
 31
0.0
  0
LINE
  5
214C5
330
18
100
AcDbEntity
  8
1PHANTOM
 48
0.3
100
AcDbLine
 10
634.1867741808472
 20
-665.1633871977826
 30
0.0
 11
630.5162517408247
 21
-665.1633871977826
 31
0.0
  0
ELLIPSE
  5
214C6
330
18
100
AcDbEntity
  8
1PHANTOM
 48
0.3
100
AcDbEllipse
 10
620.5162517408247
 20
-664.2383907142092
 30
0.0
 11
0.0
 21
-0.7865255551980681
 31
0.0
210
0.0
220
0.0
230
1.0
 40
0.6357072528610805
 41
4.712388980384699
 42
5.594260918964756
  0
ELLIPSE
  5
214C7
330
18
100
AcDbEntity
  8
1PHANTOM
 48
0.3
100
AcDbEllipse
 10
620.5162517408247
 20
-664.8455335713521
 30
0.0
 11
0.4706286003337823
 21
-0.4706286003337539
 31
0.0
210
0.0
220
0.0
230
1.0
 40
0.358765396110367
 41
4.367926786277256
 42
5.056851174492103
  0
ELLIPSE
  5
214C8
330
18
100
AcDbEntity
  8
1PHANTOM
 48
0.3
100
AcDbEllipse
 10
630.5162517408247
 20
-664.8455335713521
 30
0.0
 11
0.4706286003337822
 21
0.4706286003337822
 31
0.0
210
0.0
220
0.0
230
1.0
 40
0.3587653961103862
 41
4.367926786277371
 42
5.05685117449214
  0
ELLIPSE
  5
214C9
330
18
100
AcDbEntity
  8
1PHANTOM
 48
0.3
100
AcDbEllipse
 10
630.5162517408247
 20
-664.2383907142092
 30
0.0
 11
0.0
 21
-0.7865255551980681
 31
0.0
210
0.0
220
0.0
230
1.0
 40
0.6357072528610805
 41
0.6889243882148468
 42
1.570796326794897
  0
LINE
  5
214CA
330
18
100
AcDbEntity
  8
1PHANTOM
 48
0.3
100
AcDbLine
 10
640.5182231530106
 20
-658.822138298681
 30
0.0
 11
635.3495943617576
 21
-664.7182037346287
 31
0.0
  0
ELLIPSE
  5
214CB
330
18
100
AcDbEntity
  8
1PHANTOM
 48
0.3
100
AcDbEllipse
 10
634.5976229495717
 20
-664.059008016154
 30
0.0
 11
0.7995572801930848
 21
0.9120875640720953
 31
0.0
210
0.0
220
0.0
230
1.0
 40
0.8244508990218034
 41
3.573997479501292
 42
4.71238898038471
  0
ARC
  5
214CC
330
18
100
AcDbEntity
  8
1PHANTOM
 48
0.3
100
AcDbCircle
 10
639.7662517408247
 20
-658.1629425802065
 30
0.0
 40
1.0
100
AcDbArc
 50
318.7614374770179
 51
0.0
  0
ELLIPSE
  5
214CD
330
18
100
AcDbEntity
  8
1PHANTOM
 48
0.3
100
AcDbEllipse
 10
616.4348805320773
 20
-664.059008016154
 30
0.0
 11
-0.7995572801930564
 21
0.9120875640720669
 31
0.0
210
0.0
220
0.0
230
1.0
 40
0.8244508990218307
 41
1.57079632679492
 42
2.709187827678361
  0
CIRCLE
  5
214CE
330
18
100
AcDbEntity
  8
1PHANTOM
 48
0.3
100
AcDbCircle
 10
615.5162517408247
 20
-656.239201983693
 30
0.0
 40
2.25
  0
CIRCLE
  5
214CF
330
18
100
AcDbEntity
  8
1PHANTOM
 48
0.3
100
AcDbCircle
 10
635.5162517408247
 20
-656.239201983693
 30
0.0
 40
2.25
  0
LINE
  5
214D0
330
18
100
AcDbEntity
  8
1PHANTOM
 48
0.3
100
AcDbLine
 10
615.6829091198914
 20
-664.7182037346287
 30
0.0
 11
610.5142803286388
 21
-658.822138298681
 31
0.0
  0
ARC
  5
214D1
330
18
100
AcDbEntity
  8
1PHANTOM
 48
0.3
100
AcDbCircle
 10
611.2662517408247
 20
-658.1629425802065
 30
0.0
 40
1.0
100
AcDbArc
 50
180.0
 51
221.2385625229821
  0
LINE
  5
214D2
330
18
100
AcDbEntity
  8
1PHANTOM
 48
0.3
100
AcDbLine
 10
640.7662517408247
 20
-647.2829919740575
 30
0.0
 11
640.7662517408247
 21
-658.1629425802065
 31
0.0
  0
LINE
  5
214D3
330
18
100
AcDbEntity
  8
1PHANTOM
 48
0.3
100
AcDbLine
 10
610.2662517408247
 20
-658.1629425802065
 30
0.0
 11
610.2662517408247
 21
-647.2829919740575
 31
0.0
  0
LINE
  5
214D5
330
18
100
AcDbEntity
  8
1PHANTOM
 48
0.3
100
AcDbLine
 10
616.717494740786
 20
-665.8983977021676
 30
0.0
 11
615.6829091198914
 21
-664.7182037346287
 31
0.0
  0
LINE
  5
214D6
330
18
100
AcDbEntity
  8
1PHANTOM
 48
0.3
100
AcDbLine
 10
634.3150087408629
 20
-665.8983977021676
 30
0.0
 11
635.3495943617576
 21
-664.7182037346287
 31
0.0
  0
ELLIPSE
  5
214D7
330
18
100
AcDbEntity
  8
1PHANTOM
 48
0.3
100
AcDbEllipse
 10
639.7662517408247
 20
-647.239354311737
 30
0.0
 11
0.0
 21
1.000152328043924
 31
0.0
210
0.0
220
0.0
230
1.0
 40
0.9998476951563745
 41
4.712388980384704
 42
6.283185307179586
  0
LINE
  5
214D8
330
18
100
AcDbEntity
  8
1PHANTOM
 48
0.3
100
AcDbLine
 10
640.7662517408247
 20
-647.239354311737
 30
0.0
 11
640.7662517408247
 21
-647.2829919740575
 31
0.0
  0
ELLIPSE
  5
214D9
330
18
100
AcDbEntity
  8
1PHANTOM
 48
0.3
100
AcDbEllipse
 10
611.2662517408247
 20
-647.239354311737
 30
0.0
 11
0.0
 21
1.000152328043924
 31
0.0
210
0.0
220
0.0
230
1.0
 40
0.9998476951563745
 41
0.0
 42
1.570796326794897
  0
LINE
  5
214DA
330
18
100
AcDbEntity
  8
1PHANTOM
 48
0.3
100
AcDbLine
 10
610.2662517408247
 20
-647.2829919740575
 30
0.0
 11
610.2662517408247
 21
-647.239354311737
 31
0.0
  0
ARC
  5
214DB
330
18
100
AcDbEntity
  8
1PHANTOM
 48
0.3
100
AcDbCircle
 10
633.5630373286771
 20
-665.2392019836931
 30
0.0
 40
1.0
100
AcDbArc
 50
270.0
 51
318.7614374770179
  0
ARC
  5
214DC
330
18
100
AcDbEntity
  8
1PHANTOM
 48
0.3
100
AcDbCircle
 10
617.4694661529719
 20
-665.2392019836931
 30
0.0
 40
1.0
100
AcDbArc
 50
221.2385625229821
 51
270.0
  0
LINE
  5
214DD
330
18
100
AcDbEntity
  8
1PHANTOM
 48
0.3
100
AcDbLine
 10
633.5630373286771
 20
-666.2392019836931
 30
0.0
 11
617.4694661529719
 21
-666.2392019836931
 31
0.0
  0
LINE
  5
21840
330
18
100
AcDbEntity
  8
1CENTER
100
AcDbLine
 10
632.591251740825
 20
-656.239201983693
 30
0.0
 11
638.441251740825
 21
-656.239201983693
 31
0.0
  0
LINE
  5
21841
330
18
100
AcDbEntity
  8
1CENTER
100
AcDbLine
 10
635.5162517408249
 20
-659.164201983693
 30
0.0
 11
635.5162517408249
 21
-653.314201983693
 31
0.0
  0
LINE
  5
21842
330
18
100
AcDbEntity
  8
1CENTER
100
AcDbLine
 10
612.591251740825
 20
-656.239201983693
 30
0.0
 11
618.441251740825
 21
-656.239201983693
 31
0.0
  0
LINE
  5
21843
330
18
100
AcDbEntity
  8
1CENTER
100
AcDbLine
 10
615.5162517408249
 20
-659.164201983693
 30
0.0
 11
615.5162517408249
 21
-653.314201983693
 31
0.0
  0
LINE
  5
21844
330
18
100
AcDbEntity
  8
1CENTER
100
AcDbLine
 10
182.59123743571
 20
-656.239201983693
 30
0.0
 11
188.44123743571
 21
-656.239201983693
 31
0.0
  0
LINE
  5
21845
330
18
100
AcDbEntity
  8
1CENTER
100
AcDbLine
 10
185.51623743571
 20
-659.164201983693
 30
0.0
 11
185.51623743571
 21
-653.314201983693
 31
0.0
  0
LINE
  5
21846
330
18
100
AcDbEntity
  8
1CENTER
100
AcDbLine
 10
162.59123743571
 20
-656.239201983693
 30
0.0
 11
168.44123743571
 21
-656.239201983693
 31
0.0
  0
LINE
  5
21847
330
18
100
AcDbEntity
  8
1CENTER
100
AcDbLine
 10
165.51623743571
 20
-659.164201983693
 30
0.0
 11
165.51623743571
 21
-653.314201983693
 31
0.0
  0
LINE
  5
21D2F
330
18
100
AcDbEntity
  8
01
100
AcDbLine
 10
764.516241615365
 20
-618.5931567659845
 30
0.0
 11
764.516241615365
 21
-693.0495039365483
 31
0.0
  0
TEXT
  5
22842
330
18
100
AcDbEntity
  8
01
  6
CONTINUOUS
100
AcDbText
 10
749.7537571261875
 20
-611.3902613041472
 30
0.0
 40
3.5
  1
PB
100
AcDbText
  0
TEXT
  5
22843
330
18
100
AcDbEntity
  8
01
  6
CONTINUOUS
100
AcDbText
 10
762.8891752713527
 20
-611.3902613041472
 30
0.0
 40
3.5
  1
合板9mm以上
100
AcDbText
  0
LINE
  5
22844
330
18
100
AcDbEntity
  8
01
  6
CONTINUOUS
100
AcDbLine
 10
740.5154272296528
 20
-668.5205155222445
 30
0.0
 11
740.8139300846557
 21
-668.81901930857
 31
0.0
  0
LINE
  5
22845
330
18
100
AcDbEntity
  8
01
  6
CONTINUOUS
100
AcDbLine
 10
740.8139300846557
 20
-668.81901930857
 30
0.0
 11
741.0377571673195
 21
-669.0428459255725
 31
0.0
  0
LINE
  5
22846
330
18
100
AcDbEntity
  8
01
  6
CONTINUOUS
100
AcDbLine
 10
741.0377571673195
 20
-669.0428459255725
 30
0.0
 11
741.1763994337122
 21
-669.1814881919652
 31
0.0
  0
LINE
  5
22847
330
18
100
AcDbEntity
  8
01
  6
CONTINUOUS
100
AcDbLine
 10
741.1763994337122
 20
-669.1814881919652
 30
0.0
 11
741.2233483360211
 21
-669.2284370942741
 31
0.0
  0
LINE
  5
22849
330
18
100
AcDbEntity
  8
01
100
AcDbLine
 10
729.0162249268487
 20
-659.2213582726811
 30
0.0
 11
721.0162249270219
 21
-659.2213024296036
 31
0.0
  0
LINE
  5
2284A
330
18
100
AcDbEntity
  8
1HATCH
100
AcDbLine
 10
723.3664548142992
 20
-649.5213196487939
 30
0.0
 11
723.3662467990465
 21
-656.8712969615783
 31
0.0
  0
LINE
  5
2284B
330
18
100
AcDbEntity
  8
1HATCH
100
AcDbLine
 10
726.6664548142429
 20
-649.521341055307
 30
0.0
 11
726.6662467986698
 21
-656.8713528047576
 31
0.0
  0
LINE
  5
2284C
330
18
100
AcDbEntity
  8
1CENTER
100
AcDbLine
 10
725.0164730701657
 20
-647.5598451926879
 30
0.0
 11
725.0162040811682
 21
-661.4610815945668
 31
0.0
  0
LINE
  5
2284D
330
18
100
AcDbEntity
  8
1HATCH
100
AcDbLine
 10
727.0164521447135
 20
-649.8713443128097
 30
0.0
 11
723.0164521448007
 21
-649.871316391271
 31
0.0
  0
LINE
  5
2284E
330
18
100
AcDbEntity
  8
1HATCH
100
AcDbLine
 10
726.6662467986698
 20
-656.8713528047576
 30
0.0
 11
727.0162435411645
 21
-657.2213536191293
 31
0.0
  0
LINE
  5
2284F
330
18
100
AcDbEntity
  8
1HATCH
100
AcDbLine
 10
723.3662467990465
 20
-656.8712969615783
 30
0.0
 11
723.016243541511
 21
-657.2212977759651
 31
0.0
  0
LINE
  5
22850
330
18
100
AcDbEntity
  8
01
100
AcDbLine
 10
721.016222134868
 20
-659.5213024295914
 30
0.0
 11
729.0162221346949
 21
-659.521358272669
 31
0.0
  0
LINE
  5
22851
330
18
100
AcDbEntity
  8
01
100
AcDbLine
 10
729.0162221346949
 20
-659.521358272669
 30
0.0
 11
729.0162249268487
 21
-659.2213582726811
 31
0.0
  0
LINE
  5
22852
330
18
100
AcDbEntity
  8
01
100
AcDbLine
 10
729.0162249268487
 20
-659.2213582726811
 30
0.0
 11
727.0162435411645
 21
-657.2213536191293
 31
0.0
  0
LINE
  5
22853
330
18
100
AcDbEntity
  8
01
100
AcDbLine
 10
727.0162435411645
 20
-657.2213536191293
 30
0.0
 11
727.0164521447135
 21
-649.8713443128097
 31
0.0
  0
LINE
  5
22854
330
18
100
AcDbEntity
  8
01
100
AcDbLine
 10
727.0164521447135
 20
-649.8713443128097
 30
0.0
 11
726.6664548142363
 21
-649.5213418696852
 31
0.0
  0
LINE
  5
22855
330
18
100
AcDbEntity
  8
01
100
AcDbLine
 10
726.6664548142363
 20
-649.5213418696852
 30
0.0
 11
723.3664548143059
 21
-649.5213188344158
 31
0.0
  0
LINE
  5
22856
330
18
100
AcDbEntity
  8
01
100
AcDbLine
 10
723.3664548143059
 20
-649.5213188344158
 30
0.0
 11
723.0164521448007
 21
-649.871316391271
 31
0.0
  0
LINE
  5
22857
330
18
100
AcDbEntity
  8
01
100
AcDbLine
 10
723.0164521448007
 20
-649.871316391271
 30
0.0
 11
723.016243541511
 21
-657.221297775965
 31
0.0
  0
LINE
  5
22858
330
18
100
AcDbEntity
  8
01
100
AcDbLine
 10
723.016243541511
 20
-657.221297775965
 30
0.0
 11
721.0162249270219
 21
-659.2213024296036
 31
0.0
  0
LINE
  5
22859
330
18
100
AcDbEntity
  8
01
100
AcDbLine
 10
721.0162249270219
 20
-659.2213024296036
 30
0.0
 11
721.016222134868
 21
-659.5213024295914
 31
0.0
  0
LINE
  5
2285A
330
18
100
AcDbEntity
  8
1DIM1
100
AcDbLine
 10
175.7191697833716
 20
-669.5213305934101
 30
0.0
 11
175.7191697833716
 21
-720.0295976486816
 31
0.0
1001
ACAD
1000
DSTYLE
1002
{
1070
    40
1040
3.0
1070
    45
1040
0.5
1002
}
  0
LINE
  5
2285B
330
18
100
AcDbEntity
  8
1DIM1
100
AcDbLine
 10
625.4700039484428
 20
-669.5213305934101
 30
0.0
 11
625.4700039484428
 21
-720.0295976486816
 31
0.0
1001
ACAD
1000
DSTYLE
1002
{
1070
    40
1040
3.0
1070
    45
1040
0.5
1002
}
  0
LINE
  5
2285C
330
18
100
AcDbEntity
  8
1DIM1
100
AcDbLine
 10
181.7191697833716
 20
-717.0295976486816
 30
0.0
 11
619.4700039484428
 21
-717.0295976486816
 31
0.0
1001
ACAD
1000
DSTYLE
1002
{
1070
    40
1040
3.0
1070
    45
1040
0.5
1002
}
  0
LINE
  5
22860
330
18
100
AcDbEntity
  8
1DIM
100
AcDbLine
 10
546.8844450989222
 20
-663.1031629799634
 30
0.0
 11
556.6995931194027
 21
-663.1031629799634
 31
0.0
1001
ACAD
1000
DSTYLE
1002
{
1070
    45
1040
0.5
1002
}
  0
LINE
  5
22861
330
18
100
AcDbEntity
  8
1DIM
100
AcDbLine
 10
546.8844450989222
 20
-643.0112800731092
 30
0.0
 11
556.6995931194027
 21
-643.0112800731092
 31
0.0
1001
ACAD
1000
DSTYLE
1002
{
1070
    45
1040
0.5
1002
}
  0
LINE
  5
22862
330
18
100
AcDbEntity
  8
1DIM
100
AcDbLine
 10
555.6995931194027
 20
-661.1031629799634
 30
0.0
 11
555.6995931194027
 21
-645.0112800731092
 31
0.0
1001
ACAD
1000
DSTYLE
1002
{
1070
    45
1040
0.5
1002
}
  0
LINE
  5
22863
330
18
100
AcDbEntity
  8
1DIM
100
AcDbLine
 10
555.6995931194027
 20
-643.0112800731092
 30
0.0
 11
555.6995931194027
 21
-633.9446134064425
 31
0.0
1001
ACAD
1000
DSTYLE
1002
{
1070
    45
1040
0.5
1002
}
  0
SOLID
  5
22867
330
18
100
AcDbEntity
  8
1DIM
100
AcDbTrace
 10
589.3854038303821
 20
-653.104530797215
 30
0.0
 11
588.1401851814126
 21
-654.7047000468164
 31
0.0
 12
588.79912090354
 22
-652.7871717353655
 32
0.0
 13
588.79912090354
 23
-652.7871717353655
 33
0.0
1001
ACAD
1000
DSTYLE
1002
{
1070
    45
1040
0.5
1002
}
  0
LINE
  5
22868
330
18
100
AcDbEntity
  8
1DIM
100
AcDbLine
 10
589.092262366961
 20
-652.9458512662902
 30
0.0
 11
600.4468816383633
 21
-631.9695495945527
 31
0.0
1001
ACAD
1000
DSTYLE
1002
{
1070
    45
1040
0.5
1002
}
  0
LINE
  5
22869
330
18
100
AcDbEntity
  8
1DIM
100
AcDbLine
 10
600.4468816383633
 20
-631.9695495945527
 30
0.0
 11
635.4635483050299
 21
-631.9695495945527
 31
0.0
1001
ACAD
1000
DSTYLE
1002
{
1070
    45
1040
0.5
1002
}
  0
TEXT
  5
2286A
330
18
100
AcDbEntity
  8
1DIM
  6
CONTINUOUS
100
AcDbText
 10
602.91354830503
 20
-625.4362162612193
 30
0.0
 40
3.5
  1
材質：ステンレス
100
AcDbText
1001
ACADANNOTATIVE
1000
AnnotativeData
1002
{
1070
     1
1070
     0
1002
}
  0
TEXT
  5
2286B
330
18
100
AcDbEntity
  8
1DIM
  6
CONTINUOUS
100
AcDbText
 10
603.0302149716966
 20
-631.2695495945527
 30
0.0
 40
3.5
  1
仕上げ：鏡面
100
AcDbText
1001
ACADANNOTATIVE
1000
AnnotativeData
1002
{
1070
     1
1070
     0
1002
}
  0
SOLID
  5
2286C
330
18
100
AcDbEntity
  8
1DIM
100
AcDbTrace
 10
612.9070137045977
 20
-667.763582729727
 30
0.0
 11
614.2229848757455
 21
-666.2210747110058
 31
0.0
 12
613.4784201523531
 22
-668.107005378817
 32
0.0
 13
613.4784201523531
 23
-668.107005378817
 33
0.0
1001
ACAD
1000
DSTYLE
1002
{
1070
    45
1040
0.5
1002
}
  0
LINE
  5
2286D
330
18
100
AcDbEntity
  8
1DIM
100
AcDbLine
 10
613.1927169284754
 20
-667.9352940542719
 30
0.0
 11
606.2614849581532
 21
-679.4678783180777
 31
0.0
1001
ACAD
1000
DSTYLE
1002
{
1070
    45
1040
0.5
1002
}
  0
LINE
  5
2286E
330
18
100
AcDbEntity
  8
1DIM
100
AcDbLine
 10
606.2614849581532
 20
-679.4678783180777
 30
0.0
 11
558.9948182914866
 21
-679.4678783180777
 31
0.0
1001
ACAD
1000
DSTYLE
1002
{
1070
    45
1040
0.5
1002
}
  0
TEXT
  5
2286F
330
18
100
AcDbEntity
  8
1DIM
  6
CONTINUOUS
100
AcDbText
 10
558.7614849581531
 20
-672.9345449847443
 30
0.0
 40
3.5
  1
材質：亜鉛ダイキャスト
100
AcDbText
  0
TEXT
  5
22870
330
18
100
AcDbEntity
  8
1DIM
  6
CONTINUOUS
100
AcDbText
 10
566.6948182914865
 20
-678.7678783180777
 30
0.0
 40
3.5
  1
仕上げ：各種メッキ
100
AcDbText
  0
LINE
  5
22871
330
18
100
AcDbEntity
  8
1DIM
100
AcDbLine
 10
607.5162218266225
 20
-591.5492536402078
 30
0.0
 11
557.3458050603763
 21
-591.5492536402078
 31
0.0
1001
ACAD
1000
DSTYLE
1002
{
1070
    45
1040
0.5
1002
}
  0
LINE
  5
22872
330
18
100
AcDbEntity
  8
1DIM
100
AcDbLine
 10
607.5162218266225
 20
-571.457369802031
 30
0.0
 11
557.3458050603763
 21
-571.457369802031
 31
0.0
1001
ACAD
1000
DSTYLE
1002
{
1070
    45
1040
0.5
1002
}
  0
LINE
  5
22873
330
18
100
AcDbEntity
  8
1DIM
100
AcDbLine
 10
558.3458050603763
 20
-589.5492536402078
 30
0.0
 11
558.3458050603763
 21
-573.457369802031
 31
0.0
1001
ACAD
1000
DSTYLE
1002
{
1070
    45
1040
0.5
1002
}
  0
LINE
  5
22874
330
18
100
AcDbEntity
  8
1DIM
100
AcDbLine
 10
558.3458050603763
 20
-571.457369802031
 30
0.0
 11
558.3458050603763
 21
-556.4650297160384
 31
0.0
1001
ACAD
1000
DSTYLE
1002
{
1070
    45
1040
0.5
1002
}
  0
LINE
  5
22878
330
18
100
AcDbEntity
  8
1DIM
100
AcDbLine
 10
687.2125837394397
 20
-656.2392019942448
 30
0.0
 11
687.2125837394397
 21
-695.3399445857708
 31
0.0
1001
ACAD
1000
DSTYLE
1002
{
1070
    45
1040
0.5
1002
}
  0
LINE
  5
22879
330
18
100
AcDbEntity
  8
1DIM
100
AcDbLine
 10
743.016241615365
 20
-693.0495039365483
 30
0.0
 11
743.016241615365
 21
-695.3399445857708
 31
0.0
1001
ACAD
1000
DSTYLE
1002
{
1070
    45
1040
0.5
1002
}
  0
LINE
  5
2287A
330
18
100
AcDbEntity
  8
1DIM
100
AcDbLine
 10
689.2125837394397
 20
-694.3399445857708
 30
0.0
 11
741.016241615365
 21
-694.3399445857708
 31
0.0
1001
ACAD
1000
DSTYLE
1002
{
1070
    45
1040
0.5
1002
}
  0
LINE
  5
2287E
330
18
100
AcDbEntity
  8
1DIM
100
AcDbLine
 10
615.5162517408249
 20
-659.164201983693
 30
0.0
 11
615.5162517408249
 21
-687.3724074851034
 31
0.0
1001
ACAD
1000
DSTYLE
1002
{
1070
    40
1040
1.0
1070
    45
1040
0.5
1002
}
  0
LINE
  5
2287F
330
18
100
AcDbEntity
  8
1DIM
100
AcDbLine
 10
635.5162517408241
 20
-656.239201983693
 30
0.0
 11
635.5162517408241
 21
-687.3724074851034
 31
0.0
1001
ACAD
1000
DSTYLE
1002
{
1070
    40
1040
1.0
1070
    45
1040
0.5
1002
}
  0
LINE
  5
22880
330
18
100
AcDbEntity
  8
1DIM
100
AcDbLine
 10
617.5162517408249
 20
-686.3724074851034
 30
0.0
 11
633.5162517408241
 21
-686.3724074851034
 31
0.0
1001
ACAD
1000
DSTYLE
1002
{
1070
    40
1040
1.0
1070
    45
1040
0.5
1002
}
  0
LINE
  5
22884
330
18
100
AcDbEntity
  8
1DIM
100
AcDbLine
 10
743.016241615365
 20
-693.0495039365483
 30
0.0
 11
743.016241615365
 21
-682.7682042096078
 31
0.0
1001
ACAD
1000
DSTYLE
1002
{
1070
    45
1040
0.5
1002
}
  0
LINE
  5
22885
330
18
100
AcDbEntity
  8
1DIM
100
AcDbLine
 10
725.0162040811682
 20
-661.4610815945668
 30
0.0
 11
725.0162040811682
 21
-684.7682042096078
 31
0.0
1001
ACAD
1000
DSTYLE
1002
{
1070
    45
1040
0.5
1002
}
  0
LINE
  5
22886
330
18
100
AcDbEntity
  8
1DIM
100
AcDbLine
 10
741.016241615365
 20
-683.7682042096078
 30
0.0
 11
727.0162040811682
 21
-683.7682042096078
 31
0.0
1001
ACAD
1000
DSTYLE
1002
{
1070
    45
1040
0.5
1002
}
  0
LINE
  5
2288A
330
18
100
AcDbEntity
  8
1DIM
100
AcDbLine
 10
775.388698938391
 20
-655.8213303512664
 30
0.0
 11
785.516241615365
 21
-655.8213303512664
 31
0.0
1001
ACAD
1000
DSTYLE
1002
{
1070
    45
1040
0.5
1070
   271
1070
     0
1002
}
  0
LINE
  5
2288B
330
18
100
AcDbEntity
  8
1DIM
100
AcDbLine
 10
743.016241615365
 20
-642.5213308243781
 30
0.0
 11
785.516241615365
 21
-642.5213308243782
 31
0.0
1001
ACAD
1000
DSTYLE
1002
{
1070
    45
1040
0.5
1070
   271
1070
     0
1002
}
  0
LINE
  5
2288C
330
18
100
AcDbEntity
  8
1DIM
100
AcDbLine
 10
784.516241615365
 20
-653.8213303512664
 30
0.0
 11
784.516241615365
 21
-644.5213308243782
 31
0.0
1001
ACAD
1000
DSTYLE
1002
{
1070
    45
1040
0.5
1070
   271
1070
     0
1002
}
  0
LINE
  5
22890
330
18
100
AcDbEntity
  8
1DIM1
100
AcDbLine
 10
158.0162370003238
 20
-658.3098532646488
 30
0.0
 11
158.0162370003238
 21
-743.567039652224
 31
0.0
1001
ACAD
1000
DSTYLE
1002
{
1070
    40
1040
3.0
1070
    45
1040
0.5
1002
}
  0
LINE
  5
22891
330
18
100
AcDbEntity
  8
1DIM1
100
AcDbLine
 10
643.0162416153653
 20
-652.9748735941021
 30
0.0
 11
643.0162416153653
 21
-743.567039652224
 31
0.0
1001
ACAD
1000
DSTYLE
1002
{
1070
    40
1040
3.0
1070
    45
1040
0.5
1002
}
  0
LINE
  5
22892
330
18
100
AcDbEntity
  8
1DIM1
100
AcDbLine
 10
164.0162370003238
 20
-740.567039652224
 30
0.0
 11
637.0162416153653
 21
-740.567039652224
 31
0.0
1001
ACAD
1000
DSTYLE
1002
{
1070
    40
1040
3.0
1070
    45
1040
0.5
1002
}
  0
LINE
  5
22896
330
18
100
AcDbEntity
  8
1DIM
100
AcDbLine
 10
743.016241615365
 20
-669.5213305934101
 30
0.0
 11
795.516241615365
 21
-669.5213305934102
 31
0.0
1001
ACAD
1000
DSTYLE
1002
{
1070
    45
1040
0.5
1002
}
  0
LINE
  5
22897
330
18
100
AcDbEntity
  8
1DIM
100
AcDbLine
 10
743.016241615365
 20
-642.5213308243781
 30
0.0
 11
795.516241615365
 21
-642.5213308243782
 31
0.0
1001
ACAD
1000
DSTYLE
1002
{
1070
    45
1040
0.5
1002
}
  0
LINE
  5
22898
330
18
100
AcDbEntity
  8
1DIM
100
AcDbLine
 10
794.516241615365
 20
-667.5213305934102
 30
0.0
 11
794.516241615365
 21
-644.5213308243782
 31
0.0
1001
ACAD
1000
DSTYLE
1002
{
1070
    45
1040
0.5
1002
}
  0
LINE
  5
2289C
330
18
100
AcDbEntity
  8
1DIM
100
AcDbLine
 10
643.0162416153646
 20
-535.8213303512664
 30
0.0
 11
643.0162416153646
 21
-499.8213303512664
 31
0.0
1001
ACAD
1000
DSTYLE
1002
{
1070
    45
1040
0.5
1002
}
  0
LINE
  5
2289D
330
18
100
AcDbEntity
  8
1DIM
100
AcDbLine
 10
608.0162153893209
 20
-535.8213303512664
 30
0.0
 11
608.0162153893209
 21
-499.8213303512664
 31
0.0
1001
ACAD
1000
DSTYLE
1002
{
1070
    45
1040
0.5
1002
}
  0
LINE
  5
2289E
330
18
100
AcDbEntity
  8
1DIM
100
AcDbLine
 10
641.0162416153646
 20
-500.8213303512664
 30
0.0
 11
610.0162153893209
 21
-500.8213303512664
 31
0.0
1001
ACAD
1000
DSTYLE
1002
{
1070
    45
1040
0.5
1002
}
  0
SOLID
  5
228A2
330
18
100
AcDbEntity
  8
1DIM
100
AcDbTrace
 10
746.6708479197653
 20
-624.9354292138315
 30
0.0
 11
745.9299131930724
 21
-626.8227889680627
 31
0.0
 12
746.0186807169501
 22
-624.797145505403
 32
0.0
 13
746.0186807169501
 23
-624.797145505403
 33
0.0
1001
ACAD
1000
DSTYLE
1002
{
1070
    45
1040
0.5
1002
}
  0
LINE
  5
228A3
330
18
100
AcDbEntity
  8
1DIM
100
AcDbLine
 10
746.3447643183576
 20
-624.8662873596172
 30
0.0
 11
749.0537571261874
 21
-612.0902613041472
 31
0.0
1001
ACAD
1000
DSTYLE
1002
{
1070
    45
1040
0.5
1002
}
  0
SOLID
  5
228A4
330
18
100
AcDbEntity
  8
1DIM
100
AcDbTrace
 10
759.8062660649305
 20
-624.9354292138315
 30
0.0
 11
759.0653313382376
 21
-626.8227889680627
 31
0.0
 12
759.1540988621153
 22
-624.797145505403
 32
0.0
 13
759.1540988621153
 23
-624.797145505403
 33
0.0
1001
ACAD
1000
DSTYLE
1002
{
1070
    45
1040
0.5
1002
}
  0
LINE
  5
228A5
330
18
100
AcDbEntity
  8
1DIM
100
AcDbLine
 10
759.4801824635229
 20
-624.8662873596172
 30
0.0
 11
762.1891752713526
 21
-612.0902613041472
 31
0.0
1001
ACAD
1000
DSTYLE
1002
{
1070
    45
1040
0.5
1002
}
  0
LINE
  5
228A6
330
18
100
AcDbEntity
  8
0
100
AcDbLine
 10
185.5162738461477
 20
-504.8213303514287
 30
0.0
 11
184.0162738461477
 21
-510.1213268612904
 31
0.0
  0
LINE
  5
228A7
330
18
100
AcDbEntity
  8
0
100
AcDbLine
 10
184.0162738461477
 20
-510.1213268612904
 30
0.0
 11
184.016273846148
 21
-539.8213268611823
 31
0.0
  0
LINE
  5
228A8
330
18
100
AcDbEntity
  8
0
100
AcDbLine
 10
185.5162738461477
 20
-504.8213303514287
 30
0.0
 11
187.0162738461478
 21
-510.1213338416741
 31
0.0
  0
LINE
  5
228A9
330
18
100
AcDbEntity
  8
0
100
AcDbLine
 10
182.0162273102499
 20
-539.8213222074842
 30
0.0
 11
189.0162273102498
 21
-539.8213384950486
 31
0.0
  0
LINE
  5
228AA
330
18
100
AcDbEntity
  8
0
100
AcDbLine
 10
187.0162738461478
 20
-510.1213338416741
 30
0.0
 11
187.016273846148
 21
-539.821333841567
 31
0.0
  0
LINE
  5
228AB
330
18
100
AcDbEntity
  8
0
100
AcDbLine
 10
182.0162273102499
 20
-539.8213222074842
 30
0.0
 11
182.0162273102498
 21
-540.9213256976795
 31
0.0
  0
ARC
  5
228AC
330
18
100
AcDbEntity
  8
0
100
AcDbCircle
 10
183.5162273102498
 20
-540.9213256976795
 30
0.0
 40
1.5
100
AcDbArc
 50
180.0
 51
269.9998666844684
  0
LINE
  5
228AD
330
18
100
AcDbEntity
  8
0
100
AcDbLine
 10
189.0162273102498
 20
-539.8213384950486
 30
0.0
 11
189.0162273102498
 21
-540.9213350048592
 31
0.0
  0
LINE
  5
228AE
330
18
100
AcDbEntity
  8
0
100
AcDbLine
 10
183.5162238200574
 20
-542.4213256976755
 30
0.0
 11
187.5162238200574
 21
-542.4213350048551
 31
0.0
  0
ARC
  5
228AF
330
18
100
AcDbEntity
  8
0
100
AcDbCircle
 10
187.5162273102498
 20
-540.9213350048592
 30
0.0
 40
1.5
100
AcDbArc
 50
269.9998666844684
 51
0.0
  0
LINE
  5
228B0
330
18
100
AcDbEntity
  8
1CENTER
100
AcDbLine
 10
185.5162273102498
 20
-503.3905354339634
 30
0.0
 11
185.5162273102498
 21
-543.4916067605752
 31
0.0
  0
LINE
  5
228B1
330
18
100
AcDbEntity
  8
0
100
AcDbLine
 10
184.4219034962547
 20
-506.9213278051066
 30
0.0
 11
186.3842385851302
 21
-506.1213323710556
 31
0.0
  0
LINE
  5
228B2
330
18
100
AcDbEntity
  8
0
100
AcDbLine
 10
186.3842385851302
 20
-506.1213323710556
 30
0.0
 11
185.7959620100877
 21
-505.8095625148035
 31
0.0
  0
LINE
  5
228B3
330
18
100
AcDbEntity
  8
0
100
AcDbLine
 10
183.5162738461477
 20
-529.3213256978966
 30
0.0
 11
187.5162738461477
 21
-528.5213350050783
 31
0.0
  0
LINE
  5
228B4
330
18
100
AcDbEntity
  8
0
100
AcDbLine
 10
183.5162738461477
 20
-518.1213256978922
 30
0.0
 11
187.5162738461477
 21
-517.3213350050696
 31
0.0
  0
LINE
  5
228B5
330
18
100
AcDbEntity
  8
0
100
AcDbLine
 10
183.5162738461477
 20
-514.9213256978921
 30
0.0
 11
187.5162738461477
 21
-514.1213350050696
 31
0.0
  0
LINE
  5
228B6
330
18
100
AcDbEntity
  8
0
100
AcDbLine
 10
187.5162738461477
 20
-514.1213350050696
 30
0.0
 11
187.0162738461477
 21
-514.0213338416723
 31
0.0
  0
LINE
  5
228B7
330
18
100
AcDbEntity
  8
0
100
AcDbLine
 10
184.0162738461477
 20
-513.4213268612893
 30
0.0
 11
183.5162738461477
 21
-513.3213256978921
 31
0.0
  0
LINE
  5
228B8
330
18
100
AcDbEntity
  8
0
100
AcDbLine
 10
187.5162738461477
 20
-517.3213350050696
 30
0.0
 11
187.0162738461477
 21
-517.2213338416724
 31
0.0
  0
LINE
  5
228B9
330
18
100
AcDbEntity
  8
0
100
AcDbLine
 10
187.5162738461477
 20
-515.7213350050695
 30
0.0
 11
187.0162738461477
 21
-515.6213338416724
 31
0.0
  0
LINE
  5
228BA
330
18
100
AcDbEntity
  8
0
100
AcDbLine
 10
184.0162738461477
 20
-515.0213268612893
 30
0.0
 11
183.5162738461477
 21
-514.9213256978921
 31
0.0
  0
LINE
  5
228BB
330
18
100
AcDbEntity
  8
0
100
AcDbLine
 10
184.0162738461477
 20
-516.6213268612892
 30
0.0
 11
183.5162738461477
 21
-516.521325697892
 31
0.0
  0
LINE
  5
228BC
330
18
100
AcDbEntity
  8
0
100
AcDbLine
 10
183.5162738461477
 20
-516.521325697892
 30
0.0
 11
187.5162738461477
 21
-515.7213350050695
 31
0.0
  0
LINE
  5
228BD
330
18
100
AcDbEntity
  8
0
100
AcDbLine
 10
186.837052689537
 20
-507.7213334246612
 30
0.0
 11
186.2853032257337
 21
-507.5385692820332
 31
0.0
  0
LINE
  5
228BE
330
18
100
AcDbEntity
  8
0
100
AcDbLine
 10
187.5162738461477
 20
-510.9213350050695
 30
0.0
 11
187.0162738461477
 21
-510.8213338416724
 31
0.0
  0
LINE
  5
228BF
330
18
100
AcDbEntity
  8
0
100
AcDbLine
 10
187.5162738461477
 20
-512.5213350050695
 30
0.0
 11
187.0162738461477
 21
-512.4213338416725
 31
0.0
  0
LINE
  5
228C0
330
18
100
AcDbEntity
  8
0
100
AcDbLine
 10
187.2898667939438
 20
-509.3213344782669
 30
0.0
 11
186.7532730586726
 21
-509.192063780637
 31
0.0
  0
LINE
  5
228C1
330
18
100
AcDbEntity
  8
0
100
AcDbLine
 10
184.4371884433564
 20
-508.6340962638524
 30
0.0
 11
183.9690899882065
 21
-508.5213267515023
 31
0.0
  0
LINE
  5
228C2
330
18
100
AcDbEntity
  8
0
100
AcDbLine
 10
184.0162738461477
 20
-511.8213268612892
 30
0.0
 11
183.5162738461477
 21
-511.7213256978921
 31
0.0
  0
LINE
  5
228C3
330
18
100
AcDbEntity
  8
0
100
AcDbLine
 10
184.0162738461477
 20
-510.2213268612893
 30
0.0
 11
183.5162738461477
 21
-510.1213256978922
 31
0.0
  0
LINE
  5
228C4
330
18
100
AcDbEntity
  8
0
100
AcDbLine
 10
184.8790753368858
 20
-507.072763601547
 30
0.0
 11
184.4219034962547
 21
-506.9213278051066
 31
0.0
  0
LINE
  5
228C5
330
18
100
AcDbEntity
  8
0
100
AcDbLine
 10
183.9690899882065
 20
-508.5213267515023
 30
0.0
 11
186.837052689537
 21
-507.7213334246612
 31
0.0
  0
LINE
  5
228C6
330
18
100
AcDbEntity
  8
0
100
AcDbLine
 10
183.5162738461477
 20
-511.7213256978921
 30
0.0
 11
187.5162738461477
 21
-510.9213350050695
 31
0.0
  0
LINE
  5
228C7
330
18
100
AcDbEntity
  8
0
100
AcDbLine
 10
183.5162738461477
 20
-510.1213256978922
 30
0.0
 11
187.2898667939438
 21
-509.3213344782669
 31
0.0
  0
LINE
  5
228C8
330
18
100
AcDbEntity
  8
0
100
AcDbLine
 10
183.5162738461477
 20
-513.3213256978921
 30
0.0
 11
187.5162738461477
 21
-512.5213350050695
 31
0.0
  0
LINE
  5
228C9
330
18
100
AcDbEntity
  8
0
100
AcDbLine
 10
183.5162738461477
 20
-526.1213256978965
 30
0.0
 11
187.5162738461477
 21
-525.3213350050783
 31
0.0
  0
LINE
  5
228CA
330
18
100
AcDbEntity
  8
0
100
AcDbLine
 10
187.5162738461477
 20
-525.3213350050783
 30
0.0
 11
187.0162738461477
 21
-525.2213338416806
 31
0.0
  0
LINE
  5
228CB
330
18
100
AcDbEntity
  8
0
100
AcDbLine
 10
184.0162738461477
 20
-524.6213268612898
 30
0.0
 11
183.5162738461477
 21
-524.5213256978922
 31
0.0
  0
LINE
  5
228CC
330
18
100
AcDbEntity
  8
0
100
AcDbLine
 10
187.5162738461477
 20
-526.9213350050784
 30
0.0
 11
187.0162738461477
 21
-526.8213338416807
 31
0.0
  0
LINE
  5
228CD
330
18
100
AcDbEntity
  8
0
100
AcDbLine
 10
187.5162738461477
 20
-528.5213350050783
 30
0.0
 11
187.0162738461477
 21
-528.4213338416806
 31
0.0
  0
LINE
  5
228CE
330
18
100
AcDbEntity
  8
0
100
AcDbLine
 10
184.0162738461477
 20
-526.2213268612942
 30
0.0
 11
183.5162738461477
 21
-526.1213256978965
 31
0.0
  0
LINE
  5
228CF
330
18
100
AcDbEntity
  8
0
100
AcDbLine
 10
184.0162738461477
 20
-527.8213268612943
 30
0.0
 11
183.5162738461477
 21
-527.7213256978966
 31
0.0
  0
LINE
  5
228D0
330
18
100
AcDbEntity
  8
0
100
AcDbLine
 10
183.5162738461477
 20
-527.7213256978966
 30
0.0
 11
187.5162738461477
 21
-526.9213350050784
 31
0.0
  0
LINE
  5
228D1
330
18
100
AcDbEntity
  8
0
100
AcDbLine
 10
187.5162738461477
 20
-520.5213350050739
 30
0.0
 11
187.0162738461477
 21
-520.4213338416762
 31
0.0
  0
LINE
  5
228D2
330
18
100
AcDbEntity
  8
0
100
AcDbLine
 10
187.5162738461477
 20
-518.9213350050695
 30
0.0
 11
187.0162738461477
 21
-518.8213338416724
 31
0.0
  0
LINE
  5
228D3
330
18
100
AcDbEntity
  8
0
100
AcDbLine
 10
187.5162738461477
 20
-523.7213350050739
 30
0.0
 11
187.0162738461477
 21
-523.6213338416762
 31
0.0
  0
LINE
  5
228D4
330
18
100
AcDbEntity
  8
0
100
AcDbLine
 10
187.5162738461477
 20
-522.121335005074
 30
0.0
 11
187.0162738461477
 21
-522.0213338416763
 31
0.0
  0
LINE
  5
228D5
330
18
100
AcDbEntity
  8
0
100
AcDbLine
 10
184.0162738461477
 20
-518.2213268612893
 30
0.0
 11
183.5162738461477
 21
-518.1213256978922
 31
0.0
  0
LINE
  5
228D6
330
18
100
AcDbEntity
  8
0
100
AcDbLine
 10
184.0162738461477
 20
-519.8213268612899
 30
0.0
 11
183.5162738461477
 21
-519.7213256978921
 31
0.0
  0
LINE
  5
228D7
330
18
100
AcDbEntity
  8
0
100
AcDbLine
 10
184.0162738461477
 20
-523.0213268612899
 30
0.0
 11
183.5162738461477
 21
-522.9213256978923
 31
0.0
  0
LINE
  5
228D8
330
18
100
AcDbEntity
  8
0
100
AcDbLine
 10
184.0162738461477
 20
-521.4213268612898
 30
0.0
 11
183.5162738461477
 21
-521.3213256978921
 31
0.0
  0
LINE
  5
228D9
330
18
100
AcDbEntity
  8
0
100
AcDbLine
 10
183.5162738461477
 20
-521.3213256978921
 30
0.0
 11
187.5162738461477
 21
-520.5213350050739
 31
0.0
  0
LINE
  5
228DA
330
18
100
AcDbEntity
  8
0
100
AcDbLine
 10
183.5162738461477
 20
-519.7213256978921
 30
0.0
 11
187.5162738461477
 21
-518.9213350050695
 31
0.0
  0
LINE
  5
228DB
330
18
100
AcDbEntity
  8
0
100
AcDbLine
 10
183.5162738461477
 20
-522.9213256978923
 30
0.0
 11
187.5162738461477
 21
-522.121335005074
 31
0.0
  0
LINE
  5
228DC
330
18
100
AcDbEntity
  8
0
100
AcDbLine
 10
183.5162738461477
 20
-524.5213256978922
 30
0.0
 11
187.5162738461477
 21
-523.7213350050739
 31
0.0
  0
LINE
  5
228DD
330
18
100
AcDbEntity
  8
0
100
AcDbLine
 10
184.0162738461477
 20
-534.2213268612984
 30
0.0
 11
183.5162738461477
 21
-534.1213256979007
 31
0.0
  0
LINE
  5
228DE
330
18
100
AcDbEntity
  8
0
100
AcDbLine
 10
183.5162738461477
 20
-534.1213256979007
 30
0.0
 11
187.5162738461477
 21
-533.3213350050825
 31
0.0
  0
LINE
  5
228DF
330
18
100
AcDbEntity
  8
0
100
AcDbLine
 10
187.5162738461477
 20
-533.3213350050825
 30
0.0
 11
187.0162738461477
 21
-533.2213338416848
 31
0.0
  0
LINE
  5
228E0
330
18
100
AcDbEntity
  8
0
100
AcDbLine
 10
184.0162738461477
 20
-532.6213268612985
 30
0.0
 11
183.5162738461477
 21
-532.5213256979008
 31
0.0
  0
LINE
  5
228E1
330
18
100
AcDbEntity
  8
0
100
AcDbLine
 10
184.0162738461477
 20
-531.0213268612986
 30
0.0
 11
183.5162738461477
 21
-530.9213256979009
 31
0.0
  0
LINE
  5
228E2
330
18
100
AcDbEntity
  8
0
100
AcDbLine
 10
183.5162738461477
 20
-530.9213256979009
 30
0.0
 11
187.5162738461477
 21
-530.1213350050826
 31
0.0
  0
LINE
  5
228E3
330
18
100
AcDbEntity
  8
0
100
AcDbLine
 10
187.5162738461477
 20
-531.7213350050826
 30
0.0
 11
187.0162738461477
 21
-531.6213338416849
 31
0.0
  0
LINE
  5
228E4
330
18
100
AcDbEntity
  8
0
100
AcDbLine
 10
187.5162738461477
 20
-530.1213350050826
 30
0.0
 11
187.0162738461477
 21
-530.021333841685
 31
0.0
  0
LINE
  5
228E5
330
18
100
AcDbEntity
  8
0
100
AcDbLine
 10
183.5162738461477
 20
-532.5213256979008
 30
0.0
 11
187.5162738461477
 21
-531.7213350050826
 31
0.0
  0
LINE
  5
228E6
330
18
100
AcDbEntity
  8
0
100
AcDbLine
 10
184.0162738461477
 20
-529.4213268612942
 30
0.0
 11
183.5162738461477
 21
-529.3213256978966
 31
0.0
  0
LINE
  5
228E7
330
18
100
AcDbEntity
  8
0
100
AcDbLine
 10
184.0162738461477
 20
-535.8213268612983
 30
0.0
 11
183.5162738461477
 21
-535.7213256979006
 31
0.0
  0
LINE
  5
228E8
330
18
100
AcDbEntity
  8
0
100
AcDbLine
 10
183.5162738461477
 20
-535.7213256979006
 30
0.0
 11
187.5162738461477
 21
-534.9213350050824
 31
0.0
  0
LINE
  5
228E9
330
18
100
AcDbEntity
  8
0
100
AcDbLine
 10
187.5162738461477
 20
-534.9213350050824
 30
0.0
 11
187.0162738461477
 21
-534.8213338416847
 31
0.0
  0
LINE
  5
228EA
330
18
100
AcDbEntity
  8
0
100
AcDbLine
 10
184.0162738461477
 20
-537.4213268612982
 30
0.0
 11
183.5162738461477
 21
-537.3213256979005
 31
0.0
  0
LINE
  5
228EB
330
18
100
AcDbEntity
  8
0
100
AcDbLine
 10
183.5162738461477
 20
-537.3213256979005
 30
0.0
 11
187.5162738461477
 21
-536.5213350050823
 31
0.0
  0
LINE
  5
228EC
330
18
100
AcDbEntity
  8
0
100
AcDbLine
 10
187.5162738461477
 20
-536.5213350050823
 30
0.0
 11
187.0162738461477
 21
-536.4213338416846
 31
0.0
  0
LINE
  5
228ED
330
18
100
AcDbEntity
  8
0
100
AcDbLine
 10
184.0162738461477
 20
-539.0213268612981
 30
0.0
 11
183.5162738461477
 21
-538.9213256979004
 31
0.0
  0
LINE
  5
228EE
330
18
100
AcDbEntity
  8
0
100
AcDbLine
 10
183.5162738461477
 20
-538.9213256979004
 30
0.0
 11
187.5162738461477
 21
-538.1213350050822
 31
0.0
  0
LINE
  5
228EF
330
18
100
AcDbEntity
  8
0
100
AcDbLine
 10
187.5162738461477
 20
-538.1213350050822
 30
0.0
 11
187.0162738461477
 21
-538.0213338416845
 31
0.0
  0
LINE
  5
228F0
330
18
100
AcDbEntity
  8
0
100
AcDbLine
 10
165.5162738461477
 20
-504.8213303514287
 30
0.0
 11
164.0162738461477
 21
-510.1213268612904
 31
0.0
  0
LINE
  5
228F1
330
18
100
AcDbEntity
  8
0
100
AcDbLine
 10
164.0162738461477
 20
-510.1213268612904
 30
0.0
 11
164.016273846148
 21
-539.8213268611823
 31
0.0
  0
LINE
  5
228F2
330
18
100
AcDbEntity
  8
0
100
AcDbLine
 10
165.5162738461477
 20
-504.8213303514287
 30
0.0
 11
167.0162738461478
 21
-510.1213338416741
 31
0.0
  0
LINE
  5
228F3
330
18
100
AcDbEntity
  8
0
100
AcDbLine
 10
162.0162273102499
 20
-539.8213222074842
 30
0.0
 11
169.0162273102498
 21
-539.8213384950486
 31
0.0
  0
LINE
  5
228F4
330
18
100
AcDbEntity
  8
0
100
AcDbLine
 10
167.0162738461478
 20
-510.1213338416741
 30
0.0
 11
167.016273846148
 21
-539.821333841567
 31
0.0
  0
LINE
  5
228F5
330
18
100
AcDbEntity
  8
0
100
AcDbLine
 10
162.0162273102499
 20
-539.8213222074842
 30
0.0
 11
162.0162273102498
 21
-540.9213256976795
 31
0.0
  0
ARC
  5
228F6
330
18
100
AcDbEntity
  8
0
100
AcDbCircle
 10
163.5162273102498
 20
-540.9213256976795
 30
0.0
 40
1.5
100
AcDbArc
 50
180.0
 51
269.9998666844684
  0
LINE
  5
228F7
330
18
100
AcDbEntity
  8
0
100
AcDbLine
 10
169.0162273102498
 20
-539.8213384950486
 30
0.0
 11
169.0162273102498
 21
-540.9213350048592
 31
0.0
  0
LINE
  5
228F8
330
18
100
AcDbEntity
  8
0
100
AcDbLine
 10
163.5162238200574
 20
-542.4213256976755
 30
0.0
 11
167.5162238200574
 21
-542.4213350048551
 31
0.0
  0
ARC
  5
228F9
330
18
100
AcDbEntity
  8
0
100
AcDbCircle
 10
167.5162273102498
 20
-540.9213350048592
 30
0.0
 40
1.5
100
AcDbArc
 50
269.9998666844684
 51
0.0
  0
LINE
  5
228FA
330
18
100
AcDbEntity
  8
1CENTER
100
AcDbLine
 10
165.5162273102498
 20
-503.3905354339634
 30
0.0
 11
165.5162273102498
 21
-543.4916067605752
 31
0.0
  0
LINE
  5
228FB
330
18
100
AcDbEntity
  8
0
100
AcDbLine
 10
164.4219034962547
 20
-506.9213278051066
 30
0.0
 11
166.3842385851302
 21
-506.1213323710556
 31
0.0
  0
LINE
  5
228FC
330
18
100
AcDbEntity
  8
0
100
AcDbLine
 10
166.3842385851302
 20
-506.1213323710556
 30
0.0
 11
165.7959620100877
 21
-505.8095625148035
 31
0.0
  0
LINE
  5
228FD
330
18
100
AcDbEntity
  8
0
100
AcDbLine
 10
163.5162738461477
 20
-529.3213256978966
 30
0.0
 11
167.5162738461477
 21
-528.5213350050783
 31
0.0
  0
LINE
  5
228FE
330
18
100
AcDbEntity
  8
0
100
AcDbLine
 10
163.5162738461477
 20
-518.1213256978922
 30
0.0
 11
167.5162738461477
 21
-517.3213350050696
 31
0.0
  0
LINE
  5
228FF
330
18
100
AcDbEntity
  8
0
100
AcDbLine
 10
163.5162738461477
 20
-514.9213256978921
 30
0.0
 11
167.5162738461477
 21
-514.1213350050696
 31
0.0
  0
LINE
  5
22900
330
18
100
AcDbEntity
  8
0
100
AcDbLine
 10
167.5162738461477
 20
-514.1213350050696
 30
0.0
 11
167.0162738461477
 21
-514.0213338416723
 31
0.0
  0
LINE
  5
22901
330
18
100
AcDbEntity
  8
0
100
AcDbLine
 10
164.0162738461477
 20
-513.4213268612893
 30
0.0
 11
163.5162738461477
 21
-513.3213256978921
 31
0.0
  0
LINE
  5
22902
330
18
100
AcDbEntity
  8
0
100
AcDbLine
 10
167.5162738461477
 20
-517.3213350050696
 30
0.0
 11
167.0162738461477
 21
-517.2213338416724
 31
0.0
  0
LINE
  5
22903
330
18
100
AcDbEntity
  8
0
100
AcDbLine
 10
167.5162738461477
 20
-515.7213350050695
 30
0.0
 11
167.0162738461477
 21
-515.6213338416724
 31
0.0
  0
LINE
  5
22904
330
18
100
AcDbEntity
  8
0
100
AcDbLine
 10
164.0162738461477
 20
-515.0213268612893
 30
0.0
 11
163.5162738461477
 21
-514.9213256978921
 31
0.0
  0
LINE
  5
22905
330
18
100
AcDbEntity
  8
0
100
AcDbLine
 10
164.0162738461477
 20
-516.6213268612892
 30
0.0
 11
163.5162738461477
 21
-516.521325697892
 31
0.0
  0
LINE
  5
22906
330
18
100
AcDbEntity
  8
0
100
AcDbLine
 10
163.5162738461477
 20
-516.521325697892
 30
0.0
 11
167.5162738461477
 21
-515.7213350050695
 31
0.0
  0
LINE
  5
22907
330
18
100
AcDbEntity
  8
0
100
AcDbLine
 10
166.837052689537
 20
-507.7213334246612
 30
0.0
 11
166.2853032257337
 21
-507.5385692820332
 31
0.0
  0
LINE
  5
22908
330
18
100
AcDbEntity
  8
0
100
AcDbLine
 10
167.5162738461477
 20
-510.9213350050695
 30
0.0
 11
167.0162738461477
 21
-510.8213338416724
 31
0.0
  0
LINE
  5
22909
330
18
100
AcDbEntity
  8
0
100
AcDbLine
 10
167.5162738461477
 20
-512.5213350050695
 30
0.0
 11
167.0162738461477
 21
-512.4213338416725
 31
0.0
  0
LINE
  5
2290A
330
18
100
AcDbEntity
  8
0
100
AcDbLine
 10
167.2898667939438
 20
-509.3213344782669
 30
0.0
 11
166.7532730586726
 21
-509.192063780637
 31
0.0
  0
LINE
  5
2290B
330
18
100
AcDbEntity
  8
0
100
AcDbLine
 10
164.4371884433564
 20
-508.6340962638524
 30
0.0
 11
163.9690899882065
 21
-508.5213267515023
 31
0.0
  0
LINE
  5
2290C
330
18
100
AcDbEntity
  8
0
100
AcDbLine
 10
164.0162738461477
 20
-511.8213268612892
 30
0.0
 11
163.5162738461477
 21
-511.7213256978921
 31
0.0
  0
LINE
  5
2290D
330
18
100
AcDbEntity
  8
0
100
AcDbLine
 10
164.0162738461477
 20
-510.2213268612893
 30
0.0
 11
163.5162738461477
 21
-510.1213256978922
 31
0.0
  0
LINE
  5
2290E
330
18
100
AcDbEntity
  8
0
100
AcDbLine
 10
164.8790753368858
 20
-507.072763601547
 30
0.0
 11
164.4219034962547
 21
-506.9213278051066
 31
0.0
  0
LINE
  5
2290F
330
18
100
AcDbEntity
  8
0
100
AcDbLine
 10
163.9690899882065
 20
-508.5213267515023
 30
0.0
 11
166.837052689537
 21
-507.7213334246612
 31
0.0
  0
LINE
  5
22910
330
18
100
AcDbEntity
  8
0
100
AcDbLine
 10
163.5162738461477
 20
-511.7213256978921
 30
0.0
 11
167.5162738461477
 21
-510.9213350050695
 31
0.0
  0
LINE
  5
22911
330
18
100
AcDbEntity
  8
0
100
AcDbLine
 10
163.5162738461477
 20
-510.1213256978922
 30
0.0
 11
167.2898667939438
 21
-509.3213344782669
 31
0.0
  0
LINE
  5
22912
330
18
100
AcDbEntity
  8
0
100
AcDbLine
 10
163.5162738461477
 20
-513.3213256978921
 30
0.0
 11
167.5162738461477
 21
-512.5213350050695
 31
0.0
  0
LINE
  5
22913
330
18
100
AcDbEntity
  8
0
100
AcDbLine
 10
163.5162738461477
 20
-526.1213256978965
 30
0.0
 11
167.5162738461477
 21
-525.3213350050783
 31
0.0
  0
LINE
  5
22914
330
18
100
AcDbEntity
  8
0
100
AcDbLine
 10
167.5162738461477
 20
-525.3213350050783
 30
0.0
 11
167.0162738461477
 21
-525.2213338416806
 31
0.0
  0
LINE
  5
22915
330
18
100
AcDbEntity
  8
0
100
AcDbLine
 10
164.0162738461477
 20
-524.6213268612898
 30
0.0
 11
163.5162738461477
 21
-524.5213256978922
 31
0.0
  0
LINE
  5
22916
330
18
100
AcDbEntity
  8
0
100
AcDbLine
 10
167.5162738461477
 20
-526.9213350050784
 30
0.0
 11
167.0162738461477
 21
-526.8213338416807
 31
0.0
  0
LINE
  5
22917
330
18
100
AcDbEntity
  8
0
100
AcDbLine
 10
167.5162738461477
 20
-528.5213350050783
 30
0.0
 11
167.0162738461477
 21
-528.4213338416806
 31
0.0
  0
LINE
  5
22918
330
18
100
AcDbEntity
  8
0
100
AcDbLine
 10
164.0162738461477
 20
-526.2213268612942
 30
0.0
 11
163.5162738461477
 21
-526.1213256978965
 31
0.0
  0
LINE
  5
22919
330
18
100
AcDbEntity
  8
0
100
AcDbLine
 10
164.0162738461477
 20
-527.8213268612943
 30
0.0
 11
163.5162738461477
 21
-527.7213256978966
 31
0.0
  0
LINE
  5
2291A
330
18
100
AcDbEntity
  8
0
100
AcDbLine
 10
163.5162738461477
 20
-527.7213256978966
 30
0.0
 11
167.5162738461477
 21
-526.9213350050784
 31
0.0
  0
LINE
  5
2291B
330
18
100
AcDbEntity
  8
0
100
AcDbLine
 10
167.5162738461477
 20
-520.5213350050739
 30
0.0
 11
167.0162738461477
 21
-520.4213338416762
 31
0.0
  0
LINE
  5
2291C
330
18
100
AcDbEntity
  8
0
100
AcDbLine
 10
167.5162738461477
 20
-518.9213350050695
 30
0.0
 11
167.0162738461477
 21
-518.8213338416724
 31
0.0
  0
LINE
  5
2291D
330
18
100
AcDbEntity
  8
0
100
AcDbLine
 10
167.5162738461477
 20
-523.7213350050739
 30
0.0
 11
167.0162738461477
 21
-523.6213338416762
 31
0.0
  0
LINE
  5
2291E
330
18
100
AcDbEntity
  8
0
100
AcDbLine
 10
167.5162738461477
 20
-522.121335005074
 30
0.0
 11
167.0162738461477
 21
-522.0213338416763
 31
0.0
  0
LINE
  5
2291F
330
18
100
AcDbEntity
  8
0
100
AcDbLine
 10
164.0162738461477
 20
-518.2213268612893
 30
0.0
 11
163.5162738461477
 21
-518.1213256978922
 31
0.0
  0
LINE
  5
22920
330
18
100
AcDbEntity
  8
0
100
AcDbLine
 10
164.0162738461477
 20
-519.8213268612899
 30
0.0
 11
163.5162738461477
 21
-519.7213256978921
 31
0.0
  0
LINE
  5
22921
330
18
100
AcDbEntity
  8
0
100
AcDbLine
 10
164.0162738461477
 20
-523.0213268612899
 30
0.0
 11
163.5162738461477
 21
-522.9213256978923
 31
0.0
  0
LINE
  5
22922
330
18
100
AcDbEntity
  8
0
100
AcDbLine
 10
164.0162738461477
 20
-521.4213268612898
 30
0.0
 11
163.5162738461477
 21
-521.3213256978921
 31
0.0
  0
LINE
  5
22923
330
18
100
AcDbEntity
  8
0
100
AcDbLine
 10
163.5162738461477
 20
-521.3213256978921
 30
0.0
 11
167.5162738461477
 21
-520.5213350050739
 31
0.0
  0
LINE
  5
22924
330
18
100
AcDbEntity
  8
0
100
AcDbLine
 10
163.5162738461477
 20
-519.7213256978921
 30
0.0
 11
167.5162738461477
 21
-518.9213350050695
 31
0.0
  0
LINE
  5
22925
330
18
100
AcDbEntity
  8
0
100
AcDbLine
 10
163.5162738461477
 20
-522.9213256978923
 30
0.0
 11
167.5162738461477
 21
-522.121335005074
 31
0.0
  0
LINE
  5
22926
330
18
100
AcDbEntity
  8
0
100
AcDbLine
 10
163.5162738461477
 20
-524.5213256978922
 30
0.0
 11
167.5162738461477
 21
-523.7213350050739
 31
0.0
  0
LINE
  5
22927
330
18
100
AcDbEntity
  8
0
100
AcDbLine
 10
164.0162738461477
 20
-534.2213268612984
 30
0.0
 11
163.5162738461477
 21
-534.1213256979007
 31
0.0
  0
LINE
  5
22928
330
18
100
AcDbEntity
  8
0
100
AcDbLine
 10
163.5162738461477
 20
-534.1213256979007
 30
0.0
 11
167.5162738461477
 21
-533.3213350050825
 31
0.0
  0
LINE
  5
22929
330
18
100
AcDbEntity
  8
0
100
AcDbLine
 10
167.5162738461477
 20
-533.3213350050825
 30
0.0
 11
167.0162738461477
 21
-533.2213338416848
 31
0.0
  0
LINE
  5
2292A
330
18
100
AcDbEntity
  8
0
100
AcDbLine
 10
164.0162738461477
 20
-532.6213268612985
 30
0.0
 11
163.5162738461477
 21
-532.5213256979008
 31
0.0
  0
LINE
  5
2292B
330
18
100
AcDbEntity
  8
0
100
AcDbLine
 10
164.0162738461477
 20
-531.0213268612986
 30
0.0
 11
163.5162738461477
 21
-530.9213256979009
 31
0.0
  0
LINE
  5
2292C
330
18
100
AcDbEntity
  8
0
100
AcDbLine
 10
163.5162738461477
 20
-530.9213256979009
 30
0.0
 11
167.5162738461477
 21
-530.1213350050826
 31
0.0
  0
LINE
  5
2292D
330
18
100
AcDbEntity
  8
0
100
AcDbLine
 10
167.5162738461477
 20
-531.7213350050826
 30
0.0
 11
167.0162738461477
 21
-531.6213338416849
 31
0.0
  0
LINE
  5
2292E
330
18
100
AcDbEntity
  8
0
100
AcDbLine
 10
167.5162738461477
 20
-530.1213350050826
 30
0.0
 11
167.0162738461477
 21
-530.021333841685
 31
0.0
  0
LINE
  5
2292F
330
18
100
AcDbEntity
  8
0
100
AcDbLine
 10
163.5162738461477
 20
-532.5213256979008
 30
0.0
 11
167.5162738461477
 21
-531.7213350050826
 31
0.0
  0
LINE
  5
22930
330
18
100
AcDbEntity
  8
0
100
AcDbLine
 10
164.0162738461477
 20
-529.4213268612942
 30
0.0
 11
163.5162738461477
 21
-529.3213256978966
 31
0.0
  0
LINE
  5
22931
330
18
100
AcDbEntity
  8
0
100
AcDbLine
 10
164.0162738461477
 20
-535.8213268612983
 30
0.0
 11
163.5162738461477
 21
-535.7213256979006
 31
0.0
  0
LINE
  5
22932
330
18
100
AcDbEntity
  8
0
100
AcDbLine
 10
163.5162738461477
 20
-535.7213256979006
 30
0.0
 11
167.5162738461477
 21
-534.9213350050824
 31
0.0
  0
LINE
  5
22933
330
18
100
AcDbEntity
  8
0
100
AcDbLine
 10
167.5162738461477
 20
-534.9213350050824
 30
0.0
 11
167.0162738461477
 21
-534.8213338416847
 31
0.0
  0
LINE
  5
22934
330
18
100
AcDbEntity
  8
0
100
AcDbLine
 10
164.0162738461477
 20
-537.4213268612982
 30
0.0
 11
163.5162738461477
 21
-537.3213256979005
 31
0.0
  0
LINE
  5
22935
330
18
100
AcDbEntity
  8
0
100
AcDbLine
 10
163.5162738461477
 20
-537.3213256979005
 30
0.0
 11
167.5162738461477
 21
-536.5213350050823
 31
0.0
  0
LINE
  5
22936
330
18
100
AcDbEntity
  8
0
100
AcDbLine
 10
167.5162738461477
 20
-536.5213350050823
 30
0.0
 11
167.0162738461477
 21
-536.4213338416846
 31
0.0
  0
LINE
  5
22937
330
18
100
AcDbEntity
  8
0
100
AcDbLine
 10
164.0162738461477
 20
-539.0213268612981
 30
0.0
 11
163.5162738461477
 21
-538.9213256979004
 31
0.0
  0
LINE
  5
22938
330
18
100
AcDbEntity
  8
0
100
AcDbLine
 10
163.5162738461477
 20
-538.9213256979004
 30
0.0
 11
167.5162738461477
 21
-538.1213350050822
 31
0.0
  0
LINE
  5
22939
330
18
100
AcDbEntity
  8
0
100
AcDbLine
 10
167.5162738461477
 20
-538.1213350050822
 30
0.0
 11
167.0162738461477
 21
-538.0213338416845
 31
0.0
  0
LINE
  5
2293A
330
18
100
AcDbEntity
  8
0
100
AcDbLine
 10
635.5162619252188
 20
-504.8213303514287
 30
0.0
 11
634.0162619252188
 21
-510.1213268612904
 31
0.0
  0
LINE
  5
2293B
330
18
100
AcDbEntity
  8
0
100
AcDbLine
 10
634.0162619252188
 20
-510.1213268612904
 30
0.0
 11
634.016261925219
 21
-539.8213268611823
 31
0.0
  0
LINE
  5
2293C
330
18
100
AcDbEntity
  8
0
100
AcDbLine
 10
635.5162619252188
 20
-504.8213303514287
 30
0.0
 11
637.0162619252189
 21
-510.1213338416741
 31
0.0
  0
LINE
  5
2293D
330
18
100
AcDbEntity
  8
0
100
AcDbLine
 10
632.016215389321
 20
-539.8213222074842
 30
0.0
 11
639.0162153893209
 21
-539.8213384950486
 31
0.0
  0
LINE
  5
2293E
330
18
100
AcDbEntity
  8
0
100
AcDbLine
 10
637.0162619252189
 20
-510.1213338416741
 30
0.0
 11
637.016261925219
 21
-539.821333841567
 31
0.0
  0
LINE
  5
2293F
330
18
100
AcDbEntity
  8
0
100
AcDbLine
 10
632.016215389321
 20
-539.8213222074842
 30
0.0
 11
632.0162153893209
 21
-540.9213256976795
 31
0.0
  0
ARC
  5
22940
330
18
100
AcDbEntity
  8
0
100
AcDbCircle
 10
633.5162153893209
 20
-540.9213256976795
 30
0.0
 40
1.5
100
AcDbArc
 50
180.0
 51
269.9998666844662
  0
LINE
  5
22941
330
18
100
AcDbEntity
  8
0
100
AcDbLine
 10
639.0162153893209
 20
-539.8213384950486
 30
0.0
 11
639.0162153893209
 21
-540.9213350048592
 31
0.0
  0
LINE
  5
22942
330
18
100
AcDbEntity
  8
0
100
AcDbLine
 10
633.5162118991285
 20
-542.4213256976755
 30
0.0
 11
637.5162118991285
 21
-542.4213350048551
 31
0.0
  0
ARC
  5
22943
330
18
100
AcDbEntity
  8
0
100
AcDbCircle
 10
637.5162153893209
 20
-540.9213350048592
 30
0.0
 40
1.5
100
AcDbArc
 50
269.9998666844662
 51
0.0
  0
LINE
  5
22944
330
18
100
AcDbEntity
  8
1CENTER
100
AcDbLine
 10
635.5162153893209
 20
-503.3905354339634
 30
0.0
 11
635.5162153893209
 21
-543.4916067605752
 31
0.0
  0
LINE
  5
22945
330
18
100
AcDbEntity
  8
0
100
AcDbLine
 10
634.4218915753258
 20
-506.9213278051066
 30
0.0
 11
636.3842266642013
 21
-506.1213323710556
 31
0.0
  0
LINE
  5
22946
330
18
100
AcDbEntity
  8
0
100
AcDbLine
 10
636.3842266642013
 20
-506.1213323710556
 30
0.0
 11
635.7959500891589
 21
-505.8095625148035
 31
0.0
  0
LINE
  5
22947
330
18
100
AcDbEntity
  8
0
100
AcDbLine
 10
633.5162619252188
 20
-529.3213256978966
 30
0.0
 11
637.5162619252188
 21
-528.5213350050783
 31
0.0
  0
LINE
  5
22948
330
18
100
AcDbEntity
  8
0
100
AcDbLine
 10
633.5162619252188
 20
-518.1213256978922
 30
0.0
 11
637.5162619252188
 21
-517.3213350050696
 31
0.0
  0
LINE
  5
22949
330
18
100
AcDbEntity
  8
0
100
AcDbLine
 10
633.5162619252188
 20
-514.9213256978921
 30
0.0
 11
637.5162619252188
 21
-514.1213350050696
 31
0.0
  0
LINE
  5
2294A
330
18
100
AcDbEntity
  8
0
100
AcDbLine
 10
637.5162619252188
 20
-514.1213350050696
 30
0.0
 11
637.0162619252188
 21
-514.0213338416723
 31
0.0
  0
LINE
  5
2294B
330
18
100
AcDbEntity
  8
0
100
AcDbLine
 10
634.0162619252188
 20
-513.4213268612893
 30
0.0
 11
633.5162619252188
 21
-513.3213256978921
 31
0.0
  0
LINE
  5
2294C
330
18
100
AcDbEntity
  8
0
100
AcDbLine
 10
637.5162619252188
 20
-517.3213350050696
 30
0.0
 11
637.0162619252188
 21
-517.2213338416724
 31
0.0
  0
LINE
  5
2294D
330
18
100
AcDbEntity
  8
0
100
AcDbLine
 10
637.5162619252188
 20
-515.7213350050695
 30
0.0
 11
637.0162619252188
 21
-515.6213338416724
 31
0.0
  0
LINE
  5
2294E
330
18
100
AcDbEntity
  8
0
100
AcDbLine
 10
634.0162619252188
 20
-515.0213268612893
 30
0.0
 11
633.5162619252188
 21
-514.9213256978921
 31
0.0
  0
LINE
  5
2294F
330
18
100
AcDbEntity
  8
0
100
AcDbLine
 10
634.0162619252188
 20
-516.6213268612892
 30
0.0
 11
633.5162619252188
 21
-516.521325697892
 31
0.0
  0
LINE
  5
22950
330
18
100
AcDbEntity
  8
0
100
AcDbLine
 10
633.5162619252188
 20
-516.521325697892
 30
0.0
 11
637.5162619252188
 21
-515.7213350050695
 31
0.0
  0
LINE
  5
22951
330
18
100
AcDbEntity
  8
0
100
AcDbLine
 10
636.8370407686081
 20
-507.7213334246612
 30
0.0
 11
636.2852913048048
 21
-507.5385692820332
 31
0.0
  0
LINE
  5
22952
330
18
100
AcDbEntity
  8
0
100
AcDbLine
 10
637.5162619252188
 20
-510.9213350050695
 30
0.0
 11
637.0162619252188
 21
-510.8213338416724
 31
0.0
  0
LINE
  5
22953
330
18
100
AcDbEntity
  8
0
100
AcDbLine
 10
637.5162619252188
 20
-512.5213350050695
 30
0.0
 11
637.0162619252188
 21
-512.4213338416725
 31
0.0
  0
LINE
  5
22954
330
18
100
AcDbEntity
  8
0
100
AcDbLine
 10
637.2898548730149
 20
-509.3213344782669
 30
0.0
 11
636.7532611377437
 21
-509.192063780637
 31
0.0
  0
LINE
  5
22955
330
18
100
AcDbEntity
  8
0
100
AcDbLine
 10
634.4371765224275
 20
-508.6340962638524
 30
0.0
 11
633.9690780672776
 21
-508.5213267515023
 31
0.0
  0
LINE
  5
22956
330
18
100
AcDbEntity
  8
0
100
AcDbLine
 10
634.0162619252188
 20
-511.8213268612892
 30
0.0
 11
633.5162619252188
 21
-511.7213256978921
 31
0.0
  0
LINE
  5
22957
330
18
100
AcDbEntity
  8
0
100
AcDbLine
 10
634.0162619252188
 20
-510.2213268612893
 30
0.0
 11
633.5162619252188
 21
-510.1213256978922
 31
0.0
  0
LINE
  5
22958
330
18
100
AcDbEntity
  8
0
100
AcDbLine
 10
634.8790634159569
 20
-507.072763601547
 30
0.0
 11
634.4218915753258
 21
-506.9213278051066
 31
0.0
  0
LINE
  5
22959
330
18
100
AcDbEntity
  8
0
100
AcDbLine
 10
633.9690780672776
 20
-508.5213267515023
 30
0.0
 11
636.8370407686081
 21
-507.7213334246612
 31
0.0
  0
LINE
  5
2295A
330
18
100
AcDbEntity
  8
0
100
AcDbLine
 10
633.5162619252188
 20
-511.7213256978921
 30
0.0
 11
637.5162619252188
 21
-510.9213350050695
 31
0.0
  0
LINE
  5
2295B
330
18
100
AcDbEntity
  8
0
100
AcDbLine
 10
633.5162619252188
 20
-510.1213256978922
 30
0.0
 11
637.2898548730149
 21
-509.3213344782669
 31
0.0
  0
LINE
  5
2295C
330
18
100
AcDbEntity
  8
0
100
AcDbLine
 10
633.5162619252188
 20
-513.3213256978921
 30
0.0
 11
637.5162619252188
 21
-512.5213350050695
 31
0.0
  0
LINE
  5
2295D
330
18
100
AcDbEntity
  8
0
100
AcDbLine
 10
633.5162619252188
 20
-526.1213256978965
 30
0.0
 11
637.5162619252188
 21
-525.3213350050783
 31
0.0
  0
LINE
  5
2295E
330
18
100
AcDbEntity
  8
0
100
AcDbLine
 10
637.5162619252188
 20
-525.3213350050783
 30
0.0
 11
637.0162619252188
 21
-525.2213338416806
 31
0.0
  0
LINE
  5
2295F
330
18
100
AcDbEntity
  8
0
100
AcDbLine
 10
634.0162619252188
 20
-524.6213268612898
 30
0.0
 11
633.5162619252188
 21
-524.5213256978922
 31
0.0
  0
LINE
  5
22960
330
18
100
AcDbEntity
  8
0
100
AcDbLine
 10
637.5162619252188
 20
-526.9213350050784
 30
0.0
 11
637.0162619252188
 21
-526.8213338416807
 31
0.0
  0
LINE
  5
22961
330
18
100
AcDbEntity
  8
0
100
AcDbLine
 10
637.5162619252188
 20
-528.5213350050783
 30
0.0
 11
637.0162619252188
 21
-528.4213338416806
 31
0.0
  0
LINE
  5
22962
330
18
100
AcDbEntity
  8
0
100
AcDbLine
 10
634.0162619252188
 20
-526.2213268612942
 30
0.0
 11
633.5162619252188
 21
-526.1213256978965
 31
0.0
  0
LINE
  5
22963
330
18
100
AcDbEntity
  8
0
100
AcDbLine
 10
634.0162619252188
 20
-527.8213268612943
 30
0.0
 11
633.5162619252188
 21
-527.7213256978966
 31
0.0
  0
LINE
  5
22964
330
18
100
AcDbEntity
  8
0
100
AcDbLine
 10
633.5162619252188
 20
-527.7213256978966
 30
0.0
 11
637.5162619252188
 21
-526.9213350050784
 31
0.0
  0
LINE
  5
22965
330
18
100
AcDbEntity
  8
0
100
AcDbLine
 10
637.5162619252188
 20
-520.5213350050739
 30
0.0
 11
637.0162619252188
 21
-520.4213338416762
 31
0.0
  0
LINE
  5
22966
330
18
100
AcDbEntity
  8
0
100
AcDbLine
 10
637.5162619252188
 20
-518.9213350050695
 30
0.0
 11
637.0162619252188
 21
-518.8213338416724
 31
0.0
  0
LINE
  5
22967
330
18
100
AcDbEntity
  8
0
100
AcDbLine
 10
637.5162619252188
 20
-523.7213350050739
 30
0.0
 11
637.0162619252188
 21
-523.6213338416762
 31
0.0
  0
LINE
  5
22968
330
18
100
AcDbEntity
  8
0
100
AcDbLine
 10
637.5162619252188
 20
-522.121335005074
 30
0.0
 11
637.0162619252188
 21
-522.0213338416763
 31
0.0
  0
LINE
  5
22969
330
18
100
AcDbEntity
  8
0
100
AcDbLine
 10
634.0162619252188
 20
-518.2213268612893
 30
0.0
 11
633.5162619252188
 21
-518.1213256978922
 31
0.0
  0
LINE
  5
2296A
330
18
100
AcDbEntity
  8
0
100
AcDbLine
 10
634.0162619252188
 20
-519.8213268612899
 30
0.0
 11
633.5162619252188
 21
-519.7213256978921
 31
0.0
  0
LINE
  5
2296B
330
18
100
AcDbEntity
  8
0
100
AcDbLine
 10
634.0162619252188
 20
-523.0213268612899
 30
0.0
 11
633.5162619252188
 21
-522.9213256978923
 31
0.0
  0
LINE
  5
2296C
330
18
100
AcDbEntity
  8
0
100
AcDbLine
 10
634.0162619252188
 20
-521.4213268612898
 30
0.0
 11
633.5162619252188
 21
-521.3213256978921
 31
0.0
  0
LINE
  5
2296D
330
18
100
AcDbEntity
  8
0
100
AcDbLine
 10
633.5162619252188
 20
-521.3213256978921
 30
0.0
 11
637.5162619252188
 21
-520.5213350050739
 31
0.0
  0
LINE
  5
2296E
330
18
100
AcDbEntity
  8
0
100
AcDbLine
 10
633.5162619252188
 20
-519.7213256978921
 30
0.0
 11
637.5162619252188
 21
-518.9213350050695
 31
0.0
  0
LINE
  5
2296F
330
18
100
AcDbEntity
  8
0
100
AcDbLine
 10
633.5162619252188
 20
-522.9213256978923
 30
0.0
 11
637.5162619252188
 21
-522.121335005074
 31
0.0
  0
LINE
  5
22970
330
18
100
AcDbEntity
  8
0
100
AcDbLine
 10
633.5162619252188
 20
-524.5213256978922
 30
0.0
 11
637.5162619252188
 21
-523.7213350050739
 31
0.0
  0
LINE
  5
22971
330
18
100
AcDbEntity
  8
0
100
AcDbLine
 10
634.0162619252188
 20
-534.2213268612984
 30
0.0
 11
633.5162619252188
 21
-534.1213256979007
 31
0.0
  0
LINE
  5
22972
330
18
100
AcDbEntity
  8
0
100
AcDbLine
 10
633.5162619252188
 20
-534.1213256979007
 30
0.0
 11
637.5162619252188
 21
-533.3213350050825
 31
0.0
  0
LINE
  5
22973
330
18
100
AcDbEntity
  8
0
100
AcDbLine
 10
637.5162619252188
 20
-533.3213350050825
 30
0.0
 11
637.0162619252188
 21
-533.2213338416848
 31
0.0
  0
LINE
  5
22974
330
18
100
AcDbEntity
  8
0
100
AcDbLine
 10
634.0162619252188
 20
-532.6213268612985
 30
0.0
 11
633.5162619252188
 21
-532.5213256979008
 31
0.0
  0
LINE
  5
22975
330
18
100
AcDbEntity
  8
0
100
AcDbLine
 10
634.0162619252188
 20
-531.0213268612986
 30
0.0
 11
633.5162619252188
 21
-530.9213256979009
 31
0.0
  0
LINE
  5
22976
330
18
100
AcDbEntity
  8
0
100
AcDbLine
 10
633.5162619252188
 20
-530.9213256979009
 30
0.0
 11
637.5162619252188
 21
-530.1213350050826
 31
0.0
  0
LINE
  5
22977
330
18
100
AcDbEntity
  8
0
100
AcDbLine
 10
637.5162619252188
 20
-531.7213350050826
 30
0.0
 11
637.0162619252188
 21
-531.6213338416849
 31
0.0
  0
LINE
  5
22978
330
18
100
AcDbEntity
  8
0
100
AcDbLine
 10
637.5162619252188
 20
-530.1213350050826
 30
0.0
 11
637.0162619252188
 21
-530.021333841685
 31
0.0
  0
LINE
  5
22979
330
18
100
AcDbEntity
  8
0
100
AcDbLine
 10
633.5162619252188
 20
-532.5213256979008
 30
0.0
 11
637.5162619252188
 21
-531.7213350050826
 31
0.0
  0
LINE
  5
2297A
330
18
100
AcDbEntity
  8
0
100
AcDbLine
 10
634.0162619252188
 20
-529.4213268612942
 30
0.0
 11
633.5162619252188
 21
-529.3213256978966
 31
0.0
  0
LINE
  5
2297B
330
18
100
AcDbEntity
  8
0
100
AcDbLine
 10
634.0162619252188
 20
-535.8213268612983
 30
0.0
 11
633.5162619252188
 21
-535.7213256979006
 31
0.0
  0
LINE
  5
2297C
330
18
100
AcDbEntity
  8
0
100
AcDbLine
 10
633.5162619252188
 20
-535.7213256979006
 30
0.0
 11
637.5162619252188
 21
-534.9213350050824
 31
0.0
  0
LINE
  5
2297D
330
18
100
AcDbEntity
  8
0
100
AcDbLine
 10
637.5162619252188
 20
-534.9213350050824
 30
0.0
 11
637.0162619252188
 21
-534.8213338416847
 31
0.0
  0
LINE
  5
2297E
330
18
100
AcDbEntity
  8
0
100
AcDbLine
 10
634.0162619252188
 20
-537.4213268612982
 30
0.0
 11
633.5162619252188
 21
-537.3213256979005
 31
0.0
  0
LINE
  5
2297F
330
18
100
AcDbEntity
  8
0
100
AcDbLine
 10
633.5162619252188
 20
-537.3213256979005
 30
0.0
 11
637.5162619252188
 21
-536.5213350050823
 31
0.0
  0
LINE
  5
22980
330
18
100
AcDbEntity
  8
0
100
AcDbLine
 10
637.5162619252188
 20
-536.5213350050823
 30
0.0
 11
637.0162619252188
 21
-536.4213338416846
 31
0.0
  0
LINE
  5
22981
330
18
100
AcDbEntity
  8
0
100
AcDbLine
 10
634.0162619252188
 20
-539.0213268612981
 30
0.0
 11
633.5162619252188
 21
-538.9213256979004
 31
0.0
  0
LINE
  5
22982
330
18
100
AcDbEntity
  8
0
100
AcDbLine
 10
633.5162619252188
 20
-538.9213256979004
 30
0.0
 11
637.5162619252188
 21
-538.1213350050822
 31
0.0
  0
LINE
  5
22983
330
18
100
AcDbEntity
  8
0
100
AcDbLine
 10
637.5162619252188
 20
-538.1213350050822
 30
0.0
 11
637.0162619252188
 21
-538.0213338416845
 31
0.0
  0
LINE
  5
22984
330
18
100
AcDbEntity
  8
0
100
AcDbLine
 10
615.5162619252188
 20
-504.8213303514287
 30
0.0
 11
614.0162619252188
 21
-510.1213268612904
 31
0.0
  0
LINE
  5
22985
330
18
100
AcDbEntity
  8
0
100
AcDbLine
 10
614.0162619252188
 20
-510.1213268612904
 30
0.0
 11
614.016261925219
 21
-539.8213268611823
 31
0.0
  0
LINE
  5
22986
330
18
100
AcDbEntity
  8
0
100
AcDbLine
 10
615.5162619252188
 20
-504.8213303514287
 30
0.0
 11
617.0162619252189
 21
-510.1213338416741
 31
0.0
  0
LINE
  5
22987
330
18
100
AcDbEntity
  8
0
100
AcDbLine
 10
612.016215389321
 20
-539.8213222074842
 30
0.0
 11
619.0162153893209
 21
-539.8213384950486
 31
0.0
  0
LINE
  5
22988
330
18
100
AcDbEntity
  8
0
100
AcDbLine
 10
617.0162619252189
 20
-510.1213338416741
 30
0.0
 11
617.016261925219
 21
-539.821333841567
 31
0.0
  0
LINE
  5
22989
330
18
100
AcDbEntity
  8
0
100
AcDbLine
 10
612.016215389321
 20
-539.8213222074842
 30
0.0
 11
612.0162153893209
 21
-540.9213256976795
 31
0.0
  0
ARC
  5
2298A
330
18
100
AcDbEntity
  8
0
100
AcDbCircle
 10
613.5162153893209
 20
-540.9213256976795
 30
0.0
 40
1.5
100
AcDbArc
 50
180.0
 51
269.9998666844662
  0
LINE
  5
2298B
330
18
100
AcDbEntity
  8
0
100
AcDbLine
 10
619.0162153893209
 20
-539.8213384950486
 30
0.0
 11
619.0162153893209
 21
-540.9213350048592
 31
0.0
  0
LINE
  5
2298C
330
18
100
AcDbEntity
  8
0
100
AcDbLine
 10
613.5162118991285
 20
-542.4213256976755
 30
0.0
 11
617.5162118991285
 21
-542.4213350048551
 31
0.0
  0
ARC
  5
2298D
330
18
100
AcDbEntity
  8
0
100
AcDbCircle
 10
617.5162153893209
 20
-540.9213350048592
 30
0.0
 40
1.5
100
AcDbArc
 50
269.9998666844662
 51
0.0
  0
LINE
  5
2298E
330
18
100
AcDbEntity
  8
1CENTER
100
AcDbLine
 10
615.5162153893209
 20
-503.3905354339634
 30
0.0
 11
615.5162153893209
 21
-543.4916067605752
 31
0.0
  0
LINE
  5
2298F
330
18
100
AcDbEntity
  8
0
100
AcDbLine
 10
614.4218915753258
 20
-506.9213278051066
 30
0.0
 11
616.3842266642013
 21
-506.1213323710556
 31
0.0
  0
LINE
  5
22990
330
18
100
AcDbEntity
  8
0
100
AcDbLine
 10
616.3842266642013
 20
-506.1213323710556
 30
0.0
 11
615.7959500891589
 21
-505.8095625148035
 31
0.0
  0
LINE
  5
22991
330
18
100
AcDbEntity
  8
0
100
AcDbLine
 10
613.5162619252188
 20
-529.3213256978966
 30
0.0
 11
617.5162619252188
 21
-528.5213350050783
 31
0.0
  0
LINE
  5
22992
330
18
100
AcDbEntity
  8
0
100
AcDbLine
 10
613.5162619252188
 20
-518.1213256978922
 30
0.0
 11
617.5162619252188
 21
-517.3213350050696
 31
0.0
  0
LINE
  5
22993
330
18
100
AcDbEntity
  8
0
100
AcDbLine
 10
613.5162619252188
 20
-514.9213256978921
 30
0.0
 11
617.5162619252188
 21
-514.1213350050696
 31
0.0
  0
LINE
  5
22994
330
18
100
AcDbEntity
  8
0
100
AcDbLine
 10
617.5162619252188
 20
-514.1213350050696
 30
0.0
 11
617.0162619252188
 21
-514.0213338416723
 31
0.0
  0
LINE
  5
22995
330
18
100
AcDbEntity
  8
0
100
AcDbLine
 10
614.0162619252188
 20
-513.4213268612893
 30
0.0
 11
613.5162619252188
 21
-513.3213256978921
 31
0.0
  0
LINE
  5
22996
330
18
100
AcDbEntity
  8
0
100
AcDbLine
 10
617.5162619252188
 20
-517.3213350050696
 30
0.0
 11
617.0162619252188
 21
-517.2213338416724
 31
0.0
  0
LINE
  5
22997
330
18
100
AcDbEntity
  8
0
100
AcDbLine
 10
617.5162619252188
 20
-515.7213350050695
 30
0.0
 11
617.0162619252188
 21
-515.6213338416724
 31
0.0
  0
LINE
  5
22998
330
18
100
AcDbEntity
  8
0
100
AcDbLine
 10
614.0162619252188
 20
-515.0213268612893
 30
0.0
 11
613.5162619252188
 21
-514.9213256978921
 31
0.0
  0
LINE
  5
22999
330
18
100
AcDbEntity
  8
0
100
AcDbLine
 10
614.0162619252188
 20
-516.6213268612892
 30
0.0
 11
613.5162619252188
 21
-516.521325697892
 31
0.0
  0
LINE
  5
2299A
330
18
100
AcDbEntity
  8
0
100
AcDbLine
 10
613.5162619252188
 20
-516.521325697892
 30
0.0
 11
617.5162619252188
 21
-515.7213350050695
 31
0.0
  0
LINE
  5
2299B
330
18
100
AcDbEntity
  8
0
100
AcDbLine
 10
616.8370407686081
 20
-507.7213334246612
 30
0.0
 11
616.2852913048048
 21
-507.5385692820332
 31
0.0
  0
LINE
  5
2299C
330
18
100
AcDbEntity
  8
0
100
AcDbLine
 10
617.5162619252188
 20
-510.9213350050695
 30
0.0
 11
617.0162619252188
 21
-510.8213338416724
 31
0.0
  0
LINE
  5
2299D
330
18
100
AcDbEntity
  8
0
100
AcDbLine
 10
617.5162619252188
 20
-512.5213350050695
 30
0.0
 11
617.0162619252188
 21
-512.4213338416725
 31
0.0
  0
LINE
  5
2299E
330
18
100
AcDbEntity
  8
0
100
AcDbLine
 10
617.2898548730149
 20
-509.3213344782669
 30
0.0
 11
616.7532611377437
 21
-509.192063780637
 31
0.0
  0
LINE
  5
2299F
330
18
100
AcDbEntity
  8
0
100
AcDbLine
 10
614.4371765224275
 20
-508.6340962638524
 30
0.0
 11
613.9690780672776
 21
-508.5213267515023
 31
0.0
  0
LINE
  5
229A0
330
18
100
AcDbEntity
  8
0
100
AcDbLine
 10
614.0162619252188
 20
-511.8213268612892
 30
0.0
 11
613.5162619252188
 21
-511.7213256978921
 31
0.0
  0
LINE
  5
229A1
330
18
100
AcDbEntity
  8
0
100
AcDbLine
 10
614.0162619252188
 20
-510.2213268612893
 30
0.0
 11
613.5162619252188
 21
-510.1213256978922
 31
0.0
  0
LINE
  5
229A2
330
18
100
AcDbEntity
  8
0
100
AcDbLine
 10
614.8790634159569
 20
-507.072763601547
 30
0.0
 11
614.4218915753258
 21
-506.9213278051066
 31
0.0
  0
LINE
  5
229A3
330
18
100
AcDbEntity
  8
0
100
AcDbLine
 10
613.9690780672776
 20
-508.5213267515023
 30
0.0
 11
616.8370407686081
 21
-507.7213334246612
 31
0.0
  0
LINE
  5
229A4
330
18
100
AcDbEntity
  8
0
100
AcDbLine
 10
613.5162619252188
 20
-511.7213256978921
 30
0.0
 11
617.5162619252188
 21
-510.9213350050695
 31
0.0
  0
LINE
  5
229A5
330
18
100
AcDbEntity
  8
0
100
AcDbLine
 10
613.5162619252188
 20
-510.1213256978922
 30
0.0
 11
617.2898548730149
 21
-509.3213344782669
 31
0.0
  0
LINE
  5
229A6
330
18
100
AcDbEntity
  8
0
100
AcDbLine
 10
613.5162619252188
 20
-513.3213256978921
 30
0.0
 11
617.5162619252188
 21
-512.5213350050695
 31
0.0
  0
LINE
  5
229A7
330
18
100
AcDbEntity
  8
0
100
AcDbLine
 10
613.5162619252188
 20
-526.1213256978965
 30
0.0
 11
617.5162619252188
 21
-525.3213350050783
 31
0.0
  0
LINE
  5
229A8
330
18
100
AcDbEntity
  8
0
100
AcDbLine
 10
617.5162619252188
 20
-525.3213350050783
 30
0.0
 11
617.0162619252188
 21
-525.2213338416806
 31
0.0
  0
LINE
  5
229A9
330
18
100
AcDbEntity
  8
0
100
AcDbLine
 10
614.0162619252188
 20
-524.6213268612898
 30
0.0
 11
613.5162619252188
 21
-524.5213256978922
 31
0.0
  0
LINE
  5
229AA
330
18
100
AcDbEntity
  8
0
100
AcDbLine
 10
617.5162619252188
 20
-526.9213350050784
 30
0.0
 11
617.0162619252188
 21
-526.8213338416807
 31
0.0
  0
LINE
  5
229AB
330
18
100
AcDbEntity
  8
0
100
AcDbLine
 10
617.5162619252188
 20
-528.5213350050783
 30
0.0
 11
617.0162619252188
 21
-528.4213338416806
 31
0.0
  0
LINE
  5
229AC
330
18
100
AcDbEntity
  8
0
100
AcDbLine
 10
614.0162619252188
 20
-526.2213268612942
 30
0.0
 11
613.5162619252188
 21
-526.1213256978965
 31
0.0
  0
LINE
  5
229AD
330
18
100
AcDbEntity
  8
0
100
AcDbLine
 10
614.0162619252188
 20
-527.8213268612943
 30
0.0
 11
613.5162619252188
 21
-527.7213256978966
 31
0.0
  0
LINE
  5
229AE
330
18
100
AcDbEntity
  8
0
100
AcDbLine
 10
613.5162619252188
 20
-527.7213256978966
 30
0.0
 11
617.5162619252188
 21
-526.9213350050784
 31
0.0
  0
LINE
  5
229AF
330
18
100
AcDbEntity
  8
0
100
AcDbLine
 10
617.5162619252188
 20
-520.5213350050739
 30
0.0
 11
617.0162619252188
 21
-520.4213338416762
 31
0.0
  0
LINE
  5
229B0
330
18
100
AcDbEntity
  8
0
100
AcDbLine
 10
617.5162619252188
 20
-518.9213350050695
 30
0.0
 11
617.0162619252188
 21
-518.8213338416724
 31
0.0
  0
LINE
  5
229B1
330
18
100
AcDbEntity
  8
0
100
AcDbLine
 10
617.5162619252188
 20
-523.7213350050739
 30
0.0
 11
617.0162619252188
 21
-523.6213338416762
 31
0.0
  0
LINE
  5
229B2
330
18
100
AcDbEntity
  8
0
100
AcDbLine
 10
617.5162619252188
 20
-522.121335005074
 30
0.0
 11
617.0162619252188
 21
-522.0213338416763
 31
0.0
  0
LINE
  5
229B3
330
18
100
AcDbEntity
  8
0
100
AcDbLine
 10
614.0162619252188
 20
-518.2213268612893
 30
0.0
 11
613.5162619252188
 21
-518.1213256978922
 31
0.0
  0
LINE
  5
229B4
330
18
100
AcDbEntity
  8
0
100
AcDbLine
 10
614.0162619252188
 20
-519.8213268612899
 30
0.0
 11
613.5162619252188
 21
-519.7213256978921
 31
0.0
  0
LINE
  5
229B5
330
18
100
AcDbEntity
  8
0
100
AcDbLine
 10
614.0162619252188
 20
-523.0213268612899
 30
0.0
 11
613.5162619252188
 21
-522.9213256978923
 31
0.0
  0
LINE
  5
229B6
330
18
100
AcDbEntity
  8
0
100
AcDbLine
 10
614.0162619252188
 20
-521.4213268612898
 30
0.0
 11
613.5162619252188
 21
-521.3213256978921
 31
0.0
  0
LINE
  5
229B7
330
18
100
AcDbEntity
  8
0
100
AcDbLine
 10
613.5162619252188
 20
-521.3213256978921
 30
0.0
 11
617.5162619252188
 21
-520.5213350050739
 31
0.0
  0
LINE
  5
229B8
330
18
100
AcDbEntity
  8
0
100
AcDbLine
 10
613.5162619252188
 20
-519.7213256978921
 30
0.0
 11
617.5162619252188
 21
-518.9213350050695
 31
0.0
  0
LINE
  5
229B9
330
18
100
AcDbEntity
  8
0
100
AcDbLine
 10
613.5162619252188
 20
-522.9213256978923
 30
0.0
 11
617.5162619252188
 21
-522.121335005074
 31
0.0
  0
LINE
  5
229BA
330
18
100
AcDbEntity
  8
0
100
AcDbLine
 10
613.5162619252188
 20
-524.5213256978922
 30
0.0
 11
617.5162619252188
 21
-523.7213350050739
 31
0.0
  0
LINE
  5
229BB
330
18
100
AcDbEntity
  8
0
100
AcDbLine
 10
614.0162619252188
 20
-534.2213268612984
 30
0.0
 11
613.5162619252188
 21
-534.1213256979007
 31
0.0
  0
LINE
  5
229BC
330
18
100
AcDbEntity
  8
0
100
AcDbLine
 10
613.5162619252188
 20
-534.1213256979007
 30
0.0
 11
617.5162619252188
 21
-533.3213350050825
 31
0.0
  0
LINE
  5
229BD
330
18
100
AcDbEntity
  8
0
100
AcDbLine
 10
617.5162619252188
 20
-533.3213350050825
 30
0.0
 11
617.0162619252188
 21
-533.2213338416848
 31
0.0
  0
LINE
  5
229BE
330
18
100
AcDbEntity
  8
0
100
AcDbLine
 10
614.0162619252188
 20
-532.6213268612985
 30
0.0
 11
613.5162619252188
 21
-532.5213256979008
 31
0.0
  0
LINE
  5
229BF
330
18
100
AcDbEntity
  8
0
100
AcDbLine
 10
614.0162619252188
 20
-531.0213268612986
 30
0.0
 11
613.5162619252188
 21
-530.9213256979009
 31
0.0
  0
LINE
  5
229C0
330
18
100
AcDbEntity
  8
0
100
AcDbLine
 10
613.5162619252188
 20
-530.9213256979009
 30
0.0
 11
617.5162619252188
 21
-530.1213350050826
 31
0.0
  0
LINE
  5
229C1
330
18
100
AcDbEntity
  8
0
100
AcDbLine
 10
617.5162619252188
 20
-531.7213350050826
 30
0.0
 11
617.0162619252188
 21
-531.6213338416849
 31
0.0
  0
LINE
  5
229C2
330
18
100
AcDbEntity
  8
0
100
AcDbLine
 10
617.5162619252188
 20
-530.1213350050826
 30
0.0
 11
617.0162619252188
 21
-530.021333841685
 31
0.0
  0
LINE
  5
229C3
330
18
100
AcDbEntity
  8
0
100
AcDbLine
 10
613.5162619252188
 20
-532.5213256979008
 30
0.0
 11
617.5162619252188
 21
-531.7213350050826
 31
0.0
  0
LINE
  5
229C4
330
18
100
AcDbEntity
  8
0
100
AcDbLine
 10
614.0162619252188
 20
-529.4213268612942
 30
0.0
 11
613.5162619252188
 21
-529.3213256978966
 31
0.0
  0
LINE
  5
229C5
330
18
100
AcDbEntity
  8
0
100
AcDbLine
 10
614.0162619252188
 20
-535.8213268612983
 30
0.0
 11
613.5162619252188
 21
-535.7213256979006
 31
0.0
  0
LINE
  5
229C6
330
18
100
AcDbEntity
  8
0
100
AcDbLine
 10
613.5162619252188
 20
-535.7213256979006
 30
0.0
 11
617.5162619252188
 21
-534.9213350050824
 31
0.0
  0
LINE
  5
229C7
330
18
100
AcDbEntity
  8
0
100
AcDbLine
 10
617.5162619252188
 20
-534.9213350050824
 30
0.0
 11
617.0162619252188
 21
-534.8213338416847
 31
0.0
  0
LINE
  5
229C8
330
18
100
AcDbEntity
  8
0
100
AcDbLine
 10
614.0162619252188
 20
-537.4213268612982
 30
0.0
 11
613.5162619252188
 21
-537.3213256979005
 31
0.0
  0
LINE
  5
229C9
330
18
100
AcDbEntity
  8
0
100
AcDbLine
 10
613.5162619252188
 20
-537.3213256979005
 30
0.0
 11
617.5162619252188
 21
-536.5213350050823
 31
0.0
  0
LINE
  5
229CA
330
18
100
AcDbEntity
  8
0
100
AcDbLine
 10
617.5162619252188
 20
-536.5213350050823
 30
0.0
 11
617.0162619252188
 21
-536.4213338416846
 31
0.0
  0
LINE
  5
229CB
330
18
100
AcDbEntity
  8
0
100
AcDbLine
 10
614.0162619252188
 20
-539.0213268612981
 30
0.0
 11
613.5162619252188
 21
-538.9213256979004
 31
0.0
  0
LINE
  5
229CC
330
18
100
AcDbEntity
  8
0
100
AcDbLine
 10
613.5162619252188
 20
-538.9213256979004
 30
0.0
 11
617.5162619252188
 21
-538.1213350050822
 31
0.0
  0
LINE
  5
229CD
330
18
100
AcDbEntity
  8
0
100
AcDbLine
 10
617.5162619252188
 20
-538.1213350050822
 30
0.0
 11
617.0162619252188
 21
-538.0213338416845
 31
0.0
  0
LINE
  5
229CE
330
18
100
AcDbEntity
  8
0
100
AcDbLine
 10
774.0162841852142
 20
-655.8213768871643
 30
0.0
 11
768.7162876753525
 21
-654.3213768871643
 31
0.0
  0
LINE
  5
229CF
330
18
100
AcDbEntity
  8
0
100
AcDbLine
 10
768.7162876753525
 20
-654.3213768871643
 30
0.0
 11
739.0162876754606
 21
-654.3213768871645
 31
0.0
  0
LINE
  5
229D0
330
18
100
AcDbEntity
  8
0
100
AcDbLine
 10
774.0162841852142
 20
-655.8213768871643
 30
0.0
 11
768.7162806949689
 21
-657.3213768871644
 31
0.0
  0
LINE
  5
229D1
330
18
100
AcDbEntity
  8
0
100
AcDbLine
 10
739.0162923291588
 20
-652.3213303512665
 30
0.0
 11
739.0162760415943
 21
-659.3213303512664
 31
0.0
  0
LINE
  5
229D2
330
18
100
AcDbEntity
  8
0
100
AcDbLine
 10
768.7162806949689
 20
-657.3213768871644
 30
0.0
 11
739.0162806950759
 21
-657.3213768871645
 31
0.0
  0
LINE
  5
229D3
330
18
100
AcDbEntity
  8
0
100
AcDbLine
 10
739.0162923291588
 20
-652.3213303512665
 30
0.0
 11
737.9162888389634
 21
-652.3213303512664
 31
0.0
  0
ARC
  5
229D4
330
18
100
AcDbEntity
  8
0
100
AcDbCircle
 10
737.9162888389634
 20
-653.8213303512664
 30
0.0
 40
1.5
100
AcDbArc
 50
90.0
 51
179.9998666844663
  0
LINE
  5
229D5
330
18
100
AcDbEntity
  8
0
100
AcDbLine
 10
739.0162760415943
 20
-659.3213303512664
 30
0.0
 11
737.9162795317837
 21
-659.3213303512664
 31
0.0
  0
LINE
  5
229D6
330
18
100
AcDbEntity
  8
0
100
AcDbLine
 10
736.4162888389675
 20
-653.821326861074
 30
0.0
 11
736.4162795317878
 21
-657.821326861074
 31
0.0
  0
ARC
  5
229D7
330
18
100
AcDbEntity
  8
0
100
AcDbCircle
 10
737.9162795317837
 20
-657.8213303512664
 30
0.0
 40
1.5
100
AcDbArc
 50
179.9998666844663
 51
270.0
  0
LINE
  5
229D8
330
18
100
AcDbEntity
  8
1CENTER
100
AcDbLine
 10
775.4470791026796
 20
-655.8213303512664
 30
0.0
 11
735.3460077760677
 21
-655.8213303512664
 31
0.0
  0
LINE
  5
229D9
330
18
100
AcDbEntity
  8
0
100
AcDbLine
 10
771.9162867315364
 20
-654.7270065372713
 30
0.0
 11
772.7162821655874
 21
-656.6893416261468
 31
0.0
  0
LINE
  5
229DA
330
18
100
AcDbEntity
  8
0
100
AcDbLine
 10
772.7162821655874
 20
-656.6893416261468
 30
0.0
 11
773.0280520218395
 21
-656.1010650511043
 31
0.0
  0
LINE
  5
229DB
330
18
100
AcDbEntity
  8
0
100
AcDbLine
 10
749.5162888387464
 20
-653.8213768871643
 30
0.0
 11
750.3162795315646
 21
-657.8213768871643
 31
0.0
  0
LINE
  5
229DC
330
18
100
AcDbEntity
  8
0
100
AcDbLine
 10
760.7162888387508
 20
-653.8213768871643
 30
0.0
 11
761.5162795315733
 21
-657.8213768871643
 31
0.0
  0
LINE
  5
229DD
330
18
100
AcDbEntity
  8
0
100
AcDbLine
 10
763.9162888387508
 20
-653.8213768871643
 30
0.0
 11
764.7162795315734
 21
-657.8213768871643
 31
0.0
  0
LINE
  5
229DE
330
18
100
AcDbEntity
  8
0
100
AcDbLine
 10
764.7162795315734
 20
-657.8213768871643
 30
0.0
 11
764.8162806949706
 21
-657.3213768871643
 31
0.0
  0
LINE
  5
229DF
330
18
100
AcDbEntity
  8
0
100
AcDbLine
 10
765.4162876753536
 20
-654.3213768871643
 30
0.0
 11
765.5162888387508
 21
-653.8213768871643
 31
0.0
  0
LINE
  5
229E0
330
18
100
AcDbEntity
  8
0
100
AcDbLine
 10
761.5162795315733
 20
-657.8213768871643
 30
0.0
 11
761.6162806949706
 21
-657.3213768871643
 31
0.0
  0
LINE
  5
229E1
330
18
100
AcDbEntity
  8
0
100
AcDbLine
 10
763.1162795315735
 20
-657.8213768871643
 30
0.0
 11
763.2162806949706
 21
-657.3213768871643
 31
0.0
  0
LINE
  5
229E2
330
18
100
AcDbEntity
  8
0
100
AcDbLine
 10
763.8162876753537
 20
-654.3213768871643
 30
0.0
 11
763.9162888387508
 21
-653.8213768871643
 31
0.0
  0
LINE
  5
229E3
330
18
100
AcDbEntity
  8
0
100
AcDbLine
 10
762.2162876753538
 20
-654.3213768871643
 30
0.0
 11
762.3162888387509
 21
-653.8213768871643
 31
0.0
  0
LINE
  5
229E4
330
18
100
AcDbEntity
  8
0
100
AcDbLine
 10
762.3162888387509
 20
-653.8213768871643
 30
0.0
 11
763.1162795315735
 21
-657.8213768871643
 31
0.0
  0
LINE
  5
229E5
330
18
100
AcDbEntity
  8
0
100
AcDbLine
 10
771.1162811119817
 20
-657.1421557305536
 30
0.0
 11
771.2990452546097
 21
-656.5904062667503
 31
0.0
  0
LINE
  5
229E6
330
18
100
AcDbEntity
  8
0
100
AcDbLine
 10
767.9162795315734
 20
-657.8213768871643
 30
0.0
 11
768.0162806949705
 21
-657.3213768871643
 31
0.0
  0
LINE
  5
229E7
330
18
100
AcDbEntity
  8
0
100
AcDbLine
 10
766.3162795315734
 20
-657.8213768871643
 30
0.0
 11
766.4162806949704
 21
-657.3213768871643
 31
0.0
  0
LINE
  5
229E8
330
18
100
AcDbEntity
  8
0
100
AcDbLine
 10
769.5162800583761
 20
-657.5949698349604
 30
0.0
 11
769.645550756006
 21
-657.0583760996892
 31
0.0
  0
LINE
  5
229E9
330
18
100
AcDbEntity
  8
0
100
AcDbLine
 10
770.2035182727906
 20
-654.742291484373
 30
0.0
 11
770.3162877851406
 21
-654.274193029223
 31
0.0
  0
LINE
  5
229EA
330
18
100
AcDbEntity
  8
0
100
AcDbLine
 10
767.0162876753537
 20
-654.3213768871643
 30
0.0
 11
767.1162888387508
 21
-653.8213768871643
 31
0.0
  0
LINE
  5
229EB
330
18
100
AcDbEntity
  8
0
100
AcDbLine
 10
768.6162876753536
 20
-654.3213768871643
 30
0.0
 11
768.7162888387508
 21
-653.8213768871643
 31
0.0
  0
LINE
  5
229EC
330
18
100
AcDbEntity
  8
0
100
AcDbLine
 10
771.764850935096
 20
-655.1841783779024
 30
0.0
 11
771.9162867315364
 21
-654.7270065372713
 31
0.0
  0
LINE
  5
229ED
330
18
100
AcDbEntity
  8
0
100
AcDbLine
 10
770.3162877851406
 20
-654.274193029223
 30
0.0
 11
771.1162811119817
 21
-657.1421557305536
 31
0.0
  0
LINE
  5
229EE
330
18
100
AcDbEntity
  8
0
100
AcDbLine
 10
767.1162888387508
 20
-653.8213768871643
 30
0.0
 11
767.9162795315734
 21
-657.8213768871643
 31
0.0
  0
LINE
  5
229EF
330
18
100
AcDbEntity
  8
0
100
AcDbLine
 10
768.7162888387508
 20
-653.8213768871643
 30
0.0
 11
769.5162800583761
 21
-657.5949698349604
 31
0.0
  0
LINE
  5
229F0
330
18
100
AcDbEntity
  8
0
100
AcDbLine
 10
765.5162888387508
 20
-653.8213768871643
 30
0.0
 11
766.3162795315734
 21
-657.8213768871643
 31
0.0
  0
LINE
  5
229F1
330
18
100
AcDbEntity
  8
0
100
AcDbLine
 10
752.7162888387464
 20
-653.8213768871643
 30
0.0
 11
753.5162795315647
 21
-657.8213768871643
 31
0.0
  0
LINE
  5
229F2
330
18
100
AcDbEntity
  8
0
100
AcDbLine
 10
753.5162795315647
 20
-657.8213768871643
 30
0.0
 11
753.6162806949624
 21
-657.3213768871643
 31
0.0
  0
LINE
  5
229F3
330
18
100
AcDbEntity
  8
0
100
AcDbLine
 10
754.2162876753531
 20
-654.3213768871643
 30
0.0
 11
754.3162888387508
 21
-653.8213768871643
 31
0.0
  0
LINE
  5
229F4
330
18
100
AcDbEntity
  8
0
100
AcDbLine
 10
751.9162795315646
 20
-657.8213768871643
 30
0.0
 11
752.0162806949622
 21
-657.3213768871643
 31
0.0
  0
LINE
  5
229F5
330
18
100
AcDbEntity
  8
0
100
AcDbLine
 10
750.3162795315646
 20
-657.8213768871643
 30
0.0
 11
750.4162806949623
 21
-657.3213768871643
 31
0.0
  0
LINE
  5
229F6
330
18
100
AcDbEntity
  8
0
100
AcDbLine
 10
752.6162876753488
 20
-654.3213768871643
 30
0.0
 11
752.7162888387464
 21
-653.8213768871643
 31
0.0
  0
LINE
  5
229F7
330
18
100
AcDbEntity
  8
0
100
AcDbLine
 10
751.0162876753486
 20
-654.3213768871643
 30
0.0
 11
751.1162888387463
 21
-653.8213768871643
 31
0.0
  0
LINE
  5
229F8
330
18
100
AcDbEntity
  8
0
100
AcDbLine
 10
751.1162888387463
 20
-653.8213768871643
 30
0.0
 11
751.9162795315646
 21
-657.8213768871643
 31
0.0
  0
LINE
  5
229F9
330
18
100
AcDbEntity
  8
0
100
AcDbLine
 10
758.3162795315691
 20
-657.8213768871643
 30
0.0
 11
758.4162806949668
 21
-657.3213768871643
 31
0.0
  0
LINE
  5
229FA
330
18
100
AcDbEntity
  8
0
100
AcDbLine
 10
759.9162795315734
 20
-657.8213768871643
 30
0.0
 11
760.0162806949705
 21
-657.3213768871643
 31
0.0
  0
LINE
  5
229FB
330
18
100
AcDbEntity
  8
0
100
AcDbLine
 10
755.116279531569
 20
-657.8213768871643
 30
0.0
 11
755.2162806949667
 21
-657.3213768871643
 31
0.0
  0
LINE
  5
229FC
330
18
100
AcDbEntity
  8
0
100
AcDbLine
 10
756.716279531569
 20
-657.8213768871643
 30
0.0
 11
756.8162806949666
 21
-657.3213768871643
 31
0.0
  0
LINE
  5
229FD
330
18
100
AcDbEntity
  8
0
100
AcDbLine
 10
760.6162876753536
 20
-654.3213768871643
 30
0.0
 11
760.7162888387508
 21
-653.8213768871643
 31
0.0
  0
LINE
  5
229FE
330
18
100
AcDbEntity
  8
0
100
AcDbLine
 10
759.016287675353
 20
-654.3213768871643
 30
0.0
 11
759.1162888387508
 21
-653.8213768871643
 31
0.0
  0
LINE
  5
229FF
330
18
100
AcDbEntity
  8
0
100
AcDbLine
 10
755.816287675353
 20
-654.3213768871643
 30
0.0
 11
755.9162888387507
 21
-653.8213768871643
 31
0.0
  0
LINE
  5
22A00
330
18
100
AcDbEntity
  8
0
100
AcDbLine
 10
757.4162876753531
 20
-654.3213768871643
 30
0.0
 11
757.5162888387508
 21
-653.8213768871643
 31
0.0
  0
LINE
  5
22A01
330
18
100
AcDbEntity
  8
0
100
AcDbLine
 10
757.5162888387508
 20
-653.8213768871643
 30
0.0
 11
758.3162795315691
 21
-657.8213768871643
 31
0.0
  0
LINE
  5
22A02
330
18
100
AcDbEntity
  8
0
100
AcDbLine
 10
759.1162888387508
 20
-653.8213768871643
 30
0.0
 11
759.9162795315734
 21
-657.8213768871643
 31
0.0
  0
LINE
  5
22A03
330
18
100
AcDbEntity
  8
0
100
AcDbLine
 10
755.9162888387507
 20
-653.8213768871643
 30
0.0
 11
756.716279531569
 21
-657.8213768871643
 31
0.0
  0
LINE
  5
22A04
330
18
100
AcDbEntity
  8
0
100
AcDbLine
 10
754.3162888387508
 20
-653.8213768871643
 30
0.0
 11
755.116279531569
 21
-657.8213768871643
 31
0.0
  0
LINE
  5
22A05
330
18
100
AcDbEntity
  8
0
100
AcDbLine
 10
744.6162876753446
 20
-654.3213768871643
 30
0.0
 11
744.7162888387422
 21
-653.8213768871643
 31
0.0
  0
LINE
  5
22A06
330
18
100
AcDbEntity
  8
0
100
AcDbLine
 10
744.7162888387422
 20
-653.8213768871643
 30
0.0
 11
745.5162795315605
 21
-657.8213768871643
 31
0.0
  0
LINE
  5
22A07
330
18
100
AcDbEntity
  8
0
100
AcDbLine
 10
745.5162795315605
 20
-657.8213768871643
 30
0.0
 11
745.6162806949582
 21
-657.3213768871643
 31
0.0
  0
LINE
  5
22A08
330
18
100
AcDbEntity
  8
0
100
AcDbLine
 10
746.2162876753445
 20
-654.3213768871643
 30
0.0
 11
746.3162888387421
 21
-653.8213768871643
 31
0.0
  0
LINE
  5
22A09
330
18
100
AcDbEntity
  8
0
100
AcDbLine
 10
747.8162876753444
 20
-654.3213768871643
 30
0.0
 11
747.916288838742
 21
-653.8213768871643
 31
0.0
  0
LINE
  5
22A0A
330
18
100
AcDbEntity
  8
0
100
AcDbLine
 10
747.916288838742
 20
-653.8213768871643
 30
0.0
 11
748.7162795315603
 21
-657.8213768871643
 31
0.0
  0
LINE
  5
22A0B
330
18
100
AcDbEntity
  8
0
100
AcDbLine
 10
747.1162795315604
 20
-657.8213768871643
 30
0.0
 11
747.2162806949581
 21
-657.3213768871643
 31
0.0
  0
LINE
  5
22A0C
330
18
100
AcDbEntity
  8
0
100
AcDbLine
 10
748.7162795315603
 20
-657.8213768871643
 30
0.0
 11
748.816280694958
 21
-657.3213768871643
 31
0.0
  0
LINE
  5
22A0D
330
18
100
AcDbEntity
  8
0
100
AcDbLine
 10
746.3162888387421
 20
-653.8213768871643
 30
0.0
 11
747.1162795315604
 21
-657.8213768871643
 31
0.0
  0
LINE
  5
22A0E
330
18
100
AcDbEntity
  8
0
100
AcDbLine
 10
749.4162876753487
 20
-654.3213768871643
 30
0.0
 11
749.5162888387464
 21
-653.8213768871643
 31
0.0
  0
LINE
  5
22A0F
330
18
100
AcDbEntity
  8
0
100
AcDbLine
 10
743.0162876753446
 20
-654.3213768871643
 30
0.0
 11
743.1162888387423
 21
-653.8213768871643
 31
0.0
  0
LINE
  5
22A10
330
18
100
AcDbEntity
  8
0
100
AcDbLine
 10
743.1162888387423
 20
-653.8213768871643
 30
0.0
 11
743.9162795315606
 21
-657.8213768871643
 31
0.0
  0
LINE
  5
22A11
330
18
100
AcDbEntity
  8
0
100
AcDbLine
 10
743.9162795315606
 20
-657.8213768871643
 30
0.0
 11
744.0162806949583
 21
-657.3213768871643
 31
0.0
  0
LINE
  5
22A12
330
18
100
AcDbEntity
  8
0
100
AcDbLine
 10
741.4162876753447
 20
-654.3213768871643
 30
0.0
 11
741.5162888387424
 21
-653.8213768871643
 31
0.0
  0
LINE
  5
22A13
330
18
100
AcDbEntity
  8
0
100
AcDbLine
 10
741.5162888387424
 20
-653.8213768871643
 30
0.0
 11
742.3162795315607
 21
-657.8213768871643
 31
0.0
  0
LINE
  5
22A14
330
18
100
AcDbEntity
  8
0
100
AcDbLine
 10
742.3162795315607
 20
-657.8213768871643
 30
0.0
 11
742.4162806949583
 21
-657.3213768871643
 31
0.0
  0
LINE
  5
22A15
330
18
100
AcDbEntity
  8
0
100
AcDbLine
 10
739.8162876753448
 20
-654.3213768871643
 30
0.0
 11
739.9162888387425
 21
-653.8213768871643
 31
0.0
  0
LINE
  5
22A16
330
18
100
AcDbEntity
  8
0
100
AcDbLine
 10
739.9162888387425
 20
-653.8213768871643
 30
0.0
 11
740.7162795315608
 21
-657.8213768871643
 31
0.0
  0
LINE
  5
22A17
330
18
100
AcDbEntity
  8
0
100
AcDbLine
 10
740.7162795315608
 20
-657.8213768871643
 30
0.0
 11
740.8162806949584
 21
-657.3213768871643
 31
0.0
  0
LINE
  5
22A18
330
18
100
AcDbEntity
  8
1DIM1
100
AcDbLine
 10
185.51623743571
 20
-659.164201983693
 30
0.0
 11
185.51623743571
 21
-694.2557562281136
 31
0.0
1001
ACAD
1000
DSTYLE
1002
{
1070
    40
1040
3.0
1070
    45
1040
0.5
1002
}
  0
LINE
  5
22A19
330
18
100
AcDbEntity
  8
1DIM1
100
AcDbLine
 10
615.5162517408249
 20
-659.164201983693
 30
0.0
 11
615.5162517408249
 21
-694.2557562281136
 31
0.0
1001
ACAD
1000
DSTYLE
1002
{
1070
    40
1040
3.0
1070
    45
1040
0.5
1002
}
  0
LINE
  5
22A1A
330
18
100
AcDbEntity
  8
1DIM1
100
AcDbLine
 10
191.51623743571
 20
-691.2557562281136
 30
0.0
 11
609.5162517408249
 21
-691.2557562281136
 31
0.0
1001
ACAD
1000
DSTYLE
1002
{
1070
    40
1040
3.0
1070
    45
1040
0.5
1002
}
  0
SOLID
  5
22A1E
330
18
100
AcDbEntity
  8
1DIM
100
AcDbTrace
 10
534.5354608195313
 20
-586.4902682221683
 30
0.0
 11
533.3338950741331
 21
-584.8570655799354
 31
0.0
 12
535.000198663207
 22
-586.0122899997563
 32
0.0
 13
535.000198663207
 23
-586.0122899997563
 33
0.0
1001
ACAD
1000
DSTYLE
1002
{
1070
    45
1040
0.5
1002
}
  0
LINE
  5
22A1F
330
18
100
AcDbEntity
  8
1DIM
100
AcDbLine
 10
534.7678297413692
 20
-586.2512791109623
 30
0.0
 11
555.0916500614378
 21
-606.0121133664159
 31
0.0
1001
ACAD
1000
DSTYLE
1002
{
1070
    45
1040
0.5
1002
}
  0
LINE
  5
22A20
330
18
100
AcDbEntity
  8
1DIM
100
AcDbLine
 10
555.0916500614378
 20
-606.0121133664159
 30
0.0
 11
594.6249833947711
 21
-606.0121133664159
 31
0.0
1001
ACAD
1000
DSTYLE
1002
{
1070
    45
1040
0.5
1002
}
  0
TEXT
  5
22A21
330
18
100
AcDbEntity
  8
1DIM
  6
CONTINUOUS
100
AcDbText
 10
557.7916500614378
 20
-605.3121133664158
 30
0.0
 40
3.5
  1
10×19　角パイプ
100
AcDbText
  0
LINE
  5
22A22
330
18
100
AcDbEntity
  8
0
  6
BYBLOCK
100
AcDbLine
 10
181.7191697833716
 20
-718.6372927886816
 30
0.0
 11
175.7191697833716
 21
-717.0295976486816
 31
0.0
  0
LINE
  5
22A23
330
18
100
AcDbEntity
  8
0
  6
BYBLOCK
100
AcDbLine
 10
175.7191697833716
 20
-717.0295976486816
 30
0.0
 11
181.7191697833716
 21
-715.4219025086816
 31
0.0
  0
LINE
  5
22A24
330
18
100
AcDbEntity
  8
0
  6
BYBLOCK
100
AcDbLine
 10
175.7191697833716
 20
-717.0295976486816
 30
0.0
 11
181.7191697833716
 21
-717.0295976486816
 31
0.0
  0
LINE
  5
22A25
330
18
100
AcDbEntity
  8
0
  6
BYBLOCK
100
AcDbLine
 10
619.4700039484428
 20
-715.4219025086816
 30
0.0
 11
625.4700039484428
 21
-717.0295976486816
 31
0.0
  0
LINE
  5
22A26
330
18
100
AcDbEntity
  8
0
  6
BYBLOCK
100
AcDbLine
 10
625.4700039484428
 20
-717.0295976486816
 30
0.0
 11
619.4700039484428
 21
-718.6372927886816
 31
0.0
  0
LINE
  5
22A27
330
18
100
AcDbEntity
  8
0
  6
BYBLOCK
100
AcDbLine
 10
625.4700039484428
 20
-717.0295976486816
 30
0.0
 11
619.4700039484428
 21
-717.0295976486816
 31
0.0
  0
TEXT
  5
22A28
330
18
100
AcDbEntity
  8
1DIM1
  6
CONTINUOUS
100
AcDbText
 10
381.9643785325739
 20
-714.9295976486816
 30
0.0
 40
10.5
  1
P450
100
AcDbText
1001
ACAD
1000
DSTYLE
1002
{
1070
    40
1040
3.0
1070
    45
1040
0.5
1002
}
  0
LINE
  5
22A29
330
18
100
AcDbEntity
  8
0
  6
BYBLOCK
100
AcDbLine
 10
556.2354914994028
 20
-661.1031629799634
 30
0.0
 11
555.6995931194027
 21
-663.1031629799634
 31
0.0
  0
LINE
  5
22A2A
330
18
100
AcDbEntity
  8
0
  6
BYBLOCK
100
AcDbLine
 10
555.6995931194027
 20
-663.1031629799634
 30
0.0
 11
555.1636947394027
 21
-661.1031629799634
 31
0.0
  0
LINE
  5
22A2B
330
18
100
AcDbEntity
  8
0
  6
BYBLOCK
100
AcDbLine
 10
555.6995931194027
 20
-663.1031629799634
 30
0.0
 11
555.6995931194027
 21
-661.1031629799634
 31
0.0
  0
LINE
  5
22A2C
330
18
100
AcDbEntity
  8
0
  6
BYBLOCK
100
AcDbLine
 10
555.1636947394027
 20
-645.0112800731092
 30
0.0
 11
555.6995931194027
 21
-643.0112800731092
 31
0.0
  0
LINE
  5
22A2D
330
18
100
AcDbEntity
  8
0
  6
BYBLOCK
100
AcDbLine
 10
555.6995931194027
 20
-643.0112800731092
 30
0.0
 11
556.2354914994028
 21
-645.0112800731092
 31
0.0
  0
LINE
  5
22A2E
330
18
100
AcDbEntity
  8
0
  6
BYBLOCK
100
AcDbLine
 10
555.6995931194027
 20
-643.0112800731092
 30
0.0
 11
555.6995931194027
 21
-645.0112800731092
 31
0.0
  0
TEXT
  5
22A2F
330
18
100
AcDbEntity
  8
1DIM
  6
CONTINUOUS
100
AcDbText
 10
554.9995931194028
 20
-640.1758634064425
 30
0.0
 40
3.5
  1
20
 50
90.0
100
AcDbText
1001
ACAD
1000
DSTYLE
1002
{
1070
    45
1040
0.5
1002
}
  0
LINE
  5
22A30
330
18
100
AcDbEntity
  8
0
  6
BYBLOCK
100
AcDbLine
 10
558.8817034403763
 20
-589.5492536402078
 30
0.0
 11
558.3458050603763
 21
-591.5492536402078
 31
0.0
  0
LINE
  5
22A31
330
18
100
AcDbEntity
  8
0
  6
BYBLOCK
100
AcDbLine
 10
558.3458050603763
 20
-591.5492536402078
 30
0.0
 11
557.8099066803762
 21
-589.5492536402078
 31
0.0
  0
LINE
  5
22A32
330
18
100
AcDbEntity
  8
0
  6
BYBLOCK
100
AcDbLine
 10
558.3458050603763
 20
-591.5492536402078
 30
0.0
 11
558.3458050603763
 21
-589.5492536402078
 31
0.0
  0
LINE
  5
22A33
330
18
100
AcDbEntity
  8
0
  6
BYBLOCK
100
AcDbLine
 10
557.8099066803762
 20
-573.457369802031
 30
0.0
 11
558.3458050603763
 21
-571.457369802031
 31
0.0
  0
LINE
  5
22A34
330
18
100
AcDbEntity
  8
0
  6
BYBLOCK
100
AcDbLine
 10
558.3458050603763
 20
-571.457369802031
 30
0.0
 11
558.8817034403763
 21
-573.457369802031
 31
0.0
  0
LINE
  5
22A35
330
18
100
AcDbEntity
  8
0
  6
BYBLOCK
100
AcDbLine
 10
558.3458050603763
 20
-571.457369802031
 30
0.0
 11
558.3458050603763
 21
-573.457369802031
 31
0.0
  0
TEXT
  5
22A36
330
18
100
AcDbEntity
  8
1DIM
  6
CONTINUOUS
100
AcDbText
 10
557.6458050603763
 20
-562.6962797160384
 30
0.0
 40
3.5
  1
20
 50
90.0
100
AcDbText
1001
ACAD
1000
DSTYLE
1002
{
1070
    45
1040
0.5
1002
}
  0
LINE
  5
22A37
330
18
100
AcDbEntity
  8
0
  6
BYBLOCK
100
AcDbLine
 10
689.2125837394397
 20
-694.8758429657709
 30
0.0
 11
687.2125837394397
 21
-694.3399445857708
 31
0.0
  0
LINE
  5
22A38
330
18
100
AcDbEntity
  8
0
  6
BYBLOCK
100
AcDbLine
 10
687.2125837394397
 20
-694.3399445857708
 30
0.0
 11
689.2125837394397
 21
-693.8040462057708
 31
0.0
  0
LINE
  5
22A39
330
18
100
AcDbEntity
  8
0
  6
BYBLOCK
100
AcDbLine
 10
687.2125837394397
 20
-694.3399445857708
 30
0.0
 11
689.2125837394397
 21
-694.3399445857708
 31
0.0
  0
LINE
  5
22A3A
330
18
100
AcDbEntity
  8
0
  6
BYBLOCK
100
AcDbLine
 10
741.016241615365
 20
-693.8040462057708
 30
0.0
 11
743.016241615365
 21
-694.3399445857708
 31
0.0
  0
LINE
  5
22A3B
330
18
100
AcDbEntity
  8
0
  6
BYBLOCK
100
AcDbLine
 10
743.016241615365
 20
-694.3399445857708
 30
0.0
 11
741.016241615365
 21
-694.8758429657709
 31
0.0
  0
LINE
  5
22A3C
330
18
100
AcDbEntity
  8
0
  6
BYBLOCK
100
AcDbLine
 10
743.016241615365
 20
-694.3399445857708
 30
0.0
 11
741.016241615365
 21
-694.3399445857708
 31
0.0
  0
TEXT
  5
22A3D
330
18
100
AcDbEntity
  8
1DIM
  6
CONTINUOUS
100
AcDbText
 10
712.1855932329578
 20
-693.6399445857709
 30
0.0
 40
3.5
  1
56
100
AcDbText
1001
ACAD
1000
DSTYLE
1002
{
1070
    45
1040
0.5
1002
}
  0
LINE
  5
22A3E
330
18
100
AcDbEntity
  8
0
  6
BYBLOCK
100
AcDbLine
 10
617.5162517408249
 20
-686.9083058651034
 30
0.0
 11
615.5162517408249
 21
-686.3724074851034
 31
0.0
  0
LINE
  5
22A3F
330
18
100
AcDbEntity
  8
0
  6
BYBLOCK
100
AcDbLine
 10
615.5162517408249
 20
-686.3724074851034
 30
0.0
 11
617.5162517408249
 21
-685.8365091051033
 31
0.0
  0
LINE
  5
22A40
330
18
100
AcDbEntity
  8
0
  6
BYBLOCK
100
AcDbLine
 10
615.5162517408249
 20
-686.3724074851034
 30
0.0
 11
617.5162517408249
 21
-686.3724074851034
 31
0.0
  0
LINE
  5
22A41
330
18
100
AcDbEntity
  8
0
  6
BYBLOCK
100
AcDbLine
 10
633.5162517408241
 20
-685.8365091051033
 30
0.0
 11
635.5162517408241
 21
-686.3724074851034
 31
0.0
  0
LINE
  5
22A42
330
18
100
AcDbEntity
  8
0
  6
BYBLOCK
100
AcDbLine
 10
635.5162517408241
 20
-686.3724074851034
 30
0.0
 11
633.5162517408241
 21
-686.9083058651034
 31
0.0
  0
LINE
  5
22A43
330
18
100
AcDbEntity
  8
0
  6
BYBLOCK
100
AcDbLine
 10
635.5162517408241
 20
-686.3724074851034
 30
0.0
 11
633.5162517408241
 21
-686.3724074851034
 31
0.0
  0
TEXT
  5
22A44
330
18
100
AcDbEntity
  8
1DIM
  6
CONTINUOUS
100
AcDbText
 10
621.0220872817762
 20
-685.6724074851033
 30
0.0
 40
3.5
  1
P20
100
AcDbText
1001
ACAD
1000
DSTYLE
1002
{
1070
    40
1040
1.0
1070
    45
1040
0.5
1002
}
  0
LINE
  5
22A45
330
18
100
AcDbEntity
  8
0
  6
BYBLOCK
100
AcDbLine
 10
741.016241615365
 20
-683.2323058296078
 30
0.0
 11
743.016241615365
 21
-683.7682042096078
 31
0.0
  0
LINE
  5
22A46
330
18
100
AcDbEntity
  8
0
  6
BYBLOCK
100
AcDbLine
 10
743.016241615365
 20
-683.7682042096078
 30
0.0
 11
741.016241615365
 21
-684.3041025896079
 31
0.0
  0
LINE
  5
22A47
330
18
100
AcDbEntity
  8
0
  6
BYBLOCK
100
AcDbLine
 10
743.016241615365
 20
-683.7682042096078
 30
0.0
 11
741.016241615365
 21
-683.7682042096078
 31
0.0
  0
LINE
  5
22A48
330
18
100
AcDbEntity
  8
0
  6
BYBLOCK
100
AcDbLine
 10
727.0162040811682
 20
-684.3041025896079
 30
0.0
 11
725.0162040811682
 21
-683.7682042096078
 31
0.0
  0
LINE
  5
22A49
330
18
100
AcDbEntity
  8
0
  6
BYBLOCK
100
AcDbLine
 10
725.0162040811682
 20
-683.7682042096078
 30
0.0
 11
727.0162040811682
 21
-683.2323058296078
 31
0.0
  0
LINE
  5
22A4A
330
18
100
AcDbEntity
  8
0
  6
BYBLOCK
100
AcDbLine
 10
725.0162040811682
 20
-683.7682042096078
 30
0.0
 11
727.0162040811682
 21
-683.7682042096078
 31
0.0
  0
TEXT
  5
22A4B
330
18
100
AcDbEntity
  8
1DIM
  6
CONTINUOUS
100
AcDbText
 10
731.6828895149332
 20
-683.0682042096078
 30
0.0
 40
3.5
  1
18
100
AcDbText
1001
ACAD
1000
DSTYLE
1002
{
1070
    45
1040
0.5
1002
}
  0
LINE
  5
22A4C
330
18
100
AcDbEntity
  8
0
  6
BYBLOCK
100
AcDbLine
 10
785.052139995365
 20
-653.8213303512664
 30
0.0
 11
784.516241615365
 21
-655.8213303512664
 31
0.0
  0
LINE
  5
22A4D
330
18
100
AcDbEntity
  8
0
  6
BYBLOCK
100
AcDbLine
 10
784.516241615365
 20
-655.8213303512664
 30
0.0
 11
783.9803432353649
 21
-653.8213303512664
 31
0.0
  0
LINE
  5
22A4E
330
18
100
AcDbEntity
  8
0
  6
BYBLOCK
100
AcDbLine
 10
784.516241615365
 20
-655.8213303512664
 30
0.0
 11
784.516241615365
 21
-653.8213303512664
 31
0.0
  0
LINE
  5
22A4F
330
18
100
AcDbEntity
  8
0
  6
BYBLOCK
100
AcDbLine
 10
783.9803432353649
 20
-644.5213308243782
 30
0.0
 11
784.516241615365
 21
-642.5213308243782
 31
0.0
  0
LINE
  5
22A50
330
18
100
AcDbEntity
  8
0
  6
BYBLOCK
100
AcDbLine
 10
784.516241615365
 20
-642.5213308243782
 30
0.0
 11
785.052139995365
 21
-644.5213308243782
 31
0.0
  0
LINE
  5
22A51
330
18
100
AcDbEntity
  8
0
  6
BYBLOCK
100
AcDbLine
 10
784.516241615365
 20
-642.5213308243782
 30
0.0
 11
784.516241615365
 21
-644.5213308243782
 31
0.0
  0
TEXT
  5
22A52
330
18
100
AcDbEntity
  8
1DIM
  6
CONTINUOUS
100
AcDbText
 10
783.816241615365
 20
-651.5046639211554
 30
0.0
 40
3.5
  1
14
 50
90.0
100
AcDbText
1001
ACAD
1000
DSTYLE
1002
{
1070
    45
1040
0.5
1070
   271
1070
     0
1002
}
  0
LINE
  5
22A53
330
18
100
AcDbEntity
  8
0
  6
BYBLOCK
100
AcDbLine
 10
164.0162370003238
 20
-742.1747347922241
 30
0.0
 11
158.0162370003238
 21
-740.567039652224
 31
0.0
  0
LINE
  5
22A54
330
18
100
AcDbEntity
  8
0
  6
BYBLOCK
100
AcDbLine
 10
158.0162370003238
 20
-740.567039652224
 30
0.0
 11
164.0162370003238
 21
-738.959344512224
 31
0.0
  0
LINE
  5
22A55
330
18
100
AcDbEntity
  8
0
  6
BYBLOCK
100
AcDbLine
 10
158.0162370003238
 20
-740.567039652224
 30
0.0
 11
164.0162370003238
 21
-740.567039652224
 31
0.0
  0
LINE
  5
22A56
330
18
100
AcDbEntity
  8
0
  6
BYBLOCK
100
AcDbLine
 10
637.0162416153653
 20
-738.959344512224
 30
0.0
 11
643.0162416153653
 21
-740.567039652224
 31
0.0
  0
LINE
  5
22A57
330
18
100
AcDbEntity
  8
0
  6
BYBLOCK
100
AcDbLine
 10
643.0162416153653
 20
-740.567039652224
 30
0.0
 11
637.0162416153653
 21
-742.1747347922241
 31
0.0
  0
LINE
  5
22A58
330
18
100
AcDbEntity
  8
0
  6
BYBLOCK
100
AcDbLine
 10
643.0162416153653
 20
-740.567039652224
 30
0.0
 11
637.0162416153653
 21
-740.567039652224
 31
0.0
  0
TEXT
  5
22A59
330
18
100
AcDbEntity
  8
1DIM1
  6
CONTINUOUS
100
AcDbText
 10
386.5162393078446
 20
-738.467039652224
 30
0.0
 40
10.5
  1
485
100
AcDbText
1001
ACAD
1000
DSTYLE
1002
{
1070
    40
1040
3.0
1070
    45
1040
0.5
1002
}
  0
LINE
  5
22A5A
330
18
100
AcDbEntity
  8
0
  6
BYBLOCK
100
AcDbLine
 10
795.052139995365
 20
-667.5213305934102
 30
0.0
 11
794.516241615365
 21
-669.5213305934102
 31
0.0
  0
LINE
  5
22A5B
330
18
100
AcDbEntity
  8
0
  6
BYBLOCK
100
AcDbLine
 10
794.516241615365
 20
-669.5213305934102
 30
0.0
 11
793.9803432353649
 21
-667.5213305934102
 31
0.0
  0
LINE
  5
22A5C
330
18
100
AcDbEntity
  8
0
  6
BYBLOCK
100
AcDbLine
 10
794.516241615365
 20
-669.5213305934102
 30
0.0
 11
794.516241615365
 21
-667.5213305934102
 31
0.0
  0
LINE
  5
22A5D
330
18
100
AcDbEntity
  8
0
  6
BYBLOCK
100
AcDbLine
 10
793.9803432353649
 20
-644.5213308243782
 30
0.0
 11
794.516241615365
 21
-642.5213308243782
 31
0.0
  0
LINE
  5
22A5E
330
18
100
AcDbEntity
  8
0
  6
BYBLOCK
100
AcDbLine
 10
794.516241615365
 20
-642.5213308243782
 30
0.0
 11
795.052139995365
 21
-644.5213308243782
 31
0.0
  0
LINE
  5
22A5F
330
18
100
AcDbEntity
  8
0
  6
BYBLOCK
100
AcDbLine
 10
794.516241615365
 20
-642.5213308243782
 30
0.0
 11
794.516241615365
 21
-644.5213308243782
 31
0.0
  0
TEXT
  5
22A60
330
18
100
AcDbEntity
  8
1DIM
  6
CONTINUOUS
100
AcDbText
 10
793.816241615365
 20
-658.9379973755605
 30
0.0
 40
3.5
  1
27
 50
90.0
100
AcDbText
1001
ACAD
1000
DSTYLE
1002
{
1070
    45
1040
0.5
1002
}
  0
LINE
  5
22A61
330
18
100
AcDbEntity
  8
0
  6
BYBLOCK
100
AcDbLine
 10
641.0162416153646
 20
-500.2854319712664
 30
0.0
 11
643.0162416153646
 21
-500.8213303512664
 31
0.0
  0
LINE
  5
22A62
330
18
100
AcDbEntity
  8
0
  6
BYBLOCK
100
AcDbLine
 10
643.0162416153646
 20
-500.8213303512664
 30
0.0
 11
641.0162416153646
 21
-501.3572287312664
 31
0.0
  0
LINE
  5
22A63
330
18
100
AcDbEntity
  8
0
  6
BYBLOCK
100
AcDbLine
 10
643.0162416153646
 20
-500.8213303512664
 30
0.0
 11
641.0162416153646
 21
-500.8213303512664
 31
0.0
  0
LINE
  5
22A64
330
18
100
AcDbEntity
  8
0
  6
BYBLOCK
100
AcDbLine
 10
610.0162153893209
 20
-501.3572287312664
 30
0.0
 11
608.0162153893209
 21
-500.8213303512664
 31
0.0
  0
LINE
  5
22A65
330
18
100
AcDbEntity
  8
0
  6
BYBLOCK
100
AcDbLine
 10
608.0162153893209
 20
-500.8213303512664
 30
0.0
 11
610.0162153893209
 21
-500.2854319712664
 31
0.0
  0
LINE
  5
22A66
330
18
100
AcDbEntity
  8
0
  6
BYBLOCK
100
AcDbLine
 10
608.0162153893209
 20
-500.8213303512664
 30
0.0
 11
610.0162153893209
 21
-500.8213303512664
 31
0.0
  0
TEXT
  5
22A67
330
18
100
AcDbEntity
  8
1DIM
  6
CONTINUOUS
100
AcDbText
 10
622.5995618356761
 20
-500.1213303512664
 30
0.0
 40
3.5
  1
35
100
AcDbText
1001
ACAD
1000
DSTYLE
1002
{
1070
    45
1040
0.5
1002
}
  0
LINE
  5
22A68
330
18
100
AcDbEntity
  8
0
  6
BYBLOCK
100
AcDbLine
 10
191.51623743571
 20
-692.8634513681136
 30
0.0
 11
185.51623743571
 21
-691.2557562281136
 31
0.0
  0
LINE
  5
22A69
330
18
100
AcDbEntity
  8
0
  6
BYBLOCK
100
AcDbLine
 10
185.51623743571
 20
-691.2557562281136
 30
0.0
 11
191.51623743571
 21
-689.6480610881135
 31
0.0
  0
LINE
  5
22A6A
330
18
100
AcDbEntity
  8
0
  6
BYBLOCK
100
AcDbLine
 10
185.51623743571
 20
-691.2557562281136
 30
0.0
 11
191.51623743571
 21
-691.2557562281136
 31
0.0
  0
LINE
  5
22A6B
330
18
100
AcDbEntity
  8
0
  6
BYBLOCK
100
AcDbLine
 10
609.5162517408249
 20
-689.6480610881135
 30
0.0
 11
615.5162517408249
 21
-691.2557562281136
 31
0.0
  0
LINE
  5
22A6C
330
18
100
AcDbEntity
  8
0
  6
BYBLOCK
100
AcDbLine
 10
615.5162517408249
 20
-691.2557562281136
 30
0.0
 11
609.5162517408249
 21
-692.8634513681136
 31
0.0
  0
LINE
  5
22A6D
330
18
100
AcDbEntity
  8
0
  6
BYBLOCK
100
AcDbLine
 10
615.5162517408249
 20
-691.2557562281136
 30
0.0
 11
609.5162517408249
 21
-691.2557562281136
 31
0.0
  0
TEXT
  5
22A6E
330
18
100
AcDbEntity
  8
1DIM1
  6
CONTINUOUS
100
AcDbText
 10
387.1724945882675
 20
-689.1557562281135
 30
0.0
 40
10.5
  1
430
100
AcDbText
1001
ACAD
1000
DSTYLE
1002
{
1070
    40
1040
3.0
1070
    45
1040
0.5
1002
}
  0
VIEWPORT
  5
57
330
15
100
AcDbEntity
 67
     1
  8
0
100
AcDbViewport
 68
     1
 10
0.0
 20
0.0
 30
0.0
 40
663.4332925336597
 41
297.0
 68
     1
 69
     1
1001
ACAD
1000
MVIEW
1002
{
1070
    16
1010
0.0
1020
0.0
1030
0.0
1010
0.0
1020
0.0
1030
1.0
1040
0.0
1040
297.0
1040
-4.171999999999855
1040
12.83899999999988
1040
50.0
1040
0.0
1040
0.0
1070
    16
1070
   100
1070
     0
1070
     1
1070
     0
1070
     0
1070
     0
1070
     0
1040
0.0
1040
0.0
1040
0.0
1040
10.0
1040
10.0
1040
10.0
1040
10.0
1070
     0
1002
{
1002
}
1002
}
  0
ENDSEC
  0
SECTION
  2
OBJECTS
  0
DICTIONARY
  5
C
330
0
100
AcDbDictionary
  3
ACAD_CIP_PREVIOUS_PRODUCT_INFO
350
21D94
  3
ACAD_COLOR
350
2D0
  3
ACAD_GROUP
350
D
  3
ACAD_LAYOUT
350
2D1
  3
ACAD_MATERIAL
350
2CF
  3
ACAD_MLEADERSTYLE
350
19E18
  3
ACAD_MLINESTYLE
350
1B
  3
ACAD_PLOTSETTINGS
350
2D2
  3
ACAD_SCALELIST
350
19DF6
  3
ACAD_VISUALSTYLE
350
19DE5
  3
ACDBHEADERROUNDTRIPXREC
350
22A6F
  3
ACDBVARIABLEDICTIONARY
350
37
  3
AEC_PROPERTY_SET_DEFS
350
1FE46
  3
CONTENTDICTIONARY
350
D8
  3
DRAWINGVARIABLESDICT
350
20
  3
DWGPROPS
350
22A72
1001
ACAD
1000
TREAT_AS_HARD
1070
     0
  0
DICTIONARY
  5
18FE8
330
2
100
AcDbDictionary
  3
ACAD_LAYERSTATES
360
18FE9
1001
ACAD
1000
TREAT_AS_HARD
1070
     1
  0
DICTIONARY
  5
1A20A
330
E
100
AcDbDictionary
  3
ADSK_XREC_LAYER_RECONCILED
360
1A20B
1001
ACAD
1000
TREAT_AS_HARD
1070
     1
  0
DICTIONARY
  5
1A20C
330
29
100
AcDbDictionary
  3
ADSK_XREC_LAYER_RECONCILED
360
1A20D
1001
ACAD
1000
TREAT_AS_HARD
1070
     1
  0
DICTIONARY
  5
1A20E
330
31
100
AcDbDictionary
  3
ADSK_XREC_LAYER_RECONCILED
360
1A20F
1001
ACAD
1000
TREAT_AS_HARD
1070
     1
  0
DICTIONARY
  5
1A218
330
101
100
AcDbDictionary
  3
ADSK_XREC_LAYER_RECONCILED
360
1A219
1001
ACAD
1000
TREAT_AS_HARD
1070
     1
  0
DICTIONARY
  5
1A21C
330
103
100
AcDbDictionary
  3
ADSK_XREC_LAYER_RECONCILED
360
1A21D
1001
ACAD
1000
TREAT_AS_HARD
1070
     1
  0
DICTIONARY
  5
1A220
330
25F
100
AcDbDictionary
  3
ADSK_XREC_LAYER_RECONCILED
360
1A221
1001
ACAD
1000
TREAT_AS_HARD
1070
     1
  0
DICTIONARY
  5
1A236
330
26A
100
AcDbDictionary
  3
ADSK_XREC_LAYER_RECONCILED
360
1A237
1001
ACAD
1000
TREAT_AS_HARD
1070
     1
  0
DICTIONARY
  5
1A23C
330
26D
100
AcDbDictionary
  3
ADSK_XREC_LAYER_RECONCILED
360
1A23D
1001
ACAD
1000
TREAT_AS_HARD
1070
     1
  0
DICTIONARY
  5
6E9
330
18
100
AcDbDictionary
  3
ACAD_SORTENTS
360
6EA
1001
ACAD
1000
TREAT_AS_HARD
1070
     1
  0
DICTIONARY
  5
59B
330
15
100
AcDbDictionary
  3
ACAD_SORTENTS
360
59C
1001
ACAD
1000
TREAT_AS_HARD
1070
     1
  0
XRECORD
  5
21D94
102
{ACAD_REACTORS
330
C
102
}
330
C
100
AcDbXrecord
300
ACDLT
300
2012
300
ACDLT_F_S
  0
DICTIONARY
  5
2D0
102
{ACAD_REACTORS
330
C
102
}
330
C
100
AcDbDictionary
1001
ACAD
1000
TREAT_AS_HARD
1070
     0
  0
DICTIONARY
  5
D
102
{ACAD_REACTORS
330
C
102
}
330
C
100
AcDbDictionary
1001
ACAD
1000
TREAT_AS_HARD
1070
     0
  0
DICTIONARY
  5
2D1
102
{ACAD_REACTORS
330
C
102
}
330
C
100
AcDbDictionary
1001
ACAD
1000
TREAT_AS_HARD
1070
     0
  0
DICTIONARY
  5
2CF
102
{ACAD_REACTORS
330
C
102
}
330
C
100
AcDbDictionary
  3
BYBLOCK
350
19DD5
  3
BYLAYER
350
19DCD
  3
GLOBAL
350
19DDD
1001
ACAD
1000
TREAT_AS_HARD
1070
     0
  0
DICTIONARY
  5
19E18
102
{ACAD_REACTORS
330
C
102
}
330
C
100
AcDbDictionary
  3
STANDARD
350
19E19
1001
ACAD
1000
TREAT_AS_HARD
1070
     0
  0
DICTIONARY
  5
1B
102
{ACAD_REACTORS
330
C
102
}
330
C
100
AcDbDictionary
  3
STANDARD
350
1C
1001
ACAD
1000
TREAT_AS_HARD
1070
     0
  0
DICTIONARY
  5
2D2
102
{ACAD_REACTORS
330
C
102
}
330
C
100
AcDbDictionary
1001
ACAD
1000
TREAT_AS_HARD
1070
     0
  0
DICTIONARY
  5
19DF6
102
{ACAD_REACTORS
330
C
102
}
330
C
100
AcDbDictionary
  3
A0
350
19DF7
  3
A1
350
19DF8
  3
A2
350
19DF9
  3
A3
350
19DFA
  3
A4
350
19DFB
  3
A5
350
19DFC
  3
A6
350
19DFD
  3
A7
350
19DFE
  3
A8
350
19DFF
  3
A9
350
19E00
  3
B0
350
19E01
  3
B1
350
19E02
  3
B2
350
19E03
  3
B3
350
19E04
  3
B4
350
19E05
  3
B5
350
19E06
  3
B6
350
19E07
  3
B7
350
19E08
  3
B8
350
19E09
  3
B9
350
19E0A
  3
C0
350
19E0B
  3
C1
350
19E0C
  3
C2
350
19E0D
  3
C3
350
19E0E
  3
C4
350
19E0F
  3
C5
350
19E10
  3
C6
350
19E11
  3
C7
350
19E12
  3
C8
350
19E13
  3
C9
350
19E14
  3
D0
350
19E15
  3
D1
350
19E16
  3
D2
350
19E17
1001
ACAD
1000
TREAT_AS_HARD
1070
     0
  0
DICTIONARY
  5
19DE5
102
{ACAD_REACTORS
330
C
102
}
330
C
100
AcDbDictionary
  3
2DWIREFRAME
350
19DEB
  3
3D_HIDDEN
350
19DED
  3
3DWIREFRAME
350
19DEC
  3
BASIC
350
19DEA
  3
BRIGHTEN
350
19DF1
  3
COLORCHANGE
350
19DF5
  3
CONCEPTUAL
350
19DEE
  3
DIM
350
19DF0
  3
EDGECOLOROFF
350
1E02A
  3
FACEPATTERN
350
19DF4
  3
FLAT
350
19DE6
  3
FLATWITHEDGES
350
19DE7
  3
GOURAUD
350
19DE8
  3
GOURAUDWITHEDGES
350
19DE9
  3
HIDDEN
350
21D79
  3
JITTEROFF
350
1E028
  3
LINEPATTERN
350
19DF3
  3
MODELING
350
227AD
  3
OVERHANGOFF
350
1E029
  3
REALISTIC
350
19DEF
  3
SHADED
350
21D7E
  3
SHADED_WITH_EDGES
350
21D7D
  3
SHADES_OF_GRAY
350
21D7A
  3
SKETCHY
350
21D7B
  3
THICKEN
350
19DF2
  3
WIREFRAME
350
21D78
  3
X-RAY
350
21D7C
1001
ACAD
1000
TREAT_AS_HARD
1070
     0
  0
DICTIONARY
  5
22A6F
102
{ACAD_REACTORS
330
C
102
}
330
C
100
AcDbDictionary
  3
COLORDICT
350
22A70
  3
MATERIALDICT
350
22A71
1001
ACAD
1000
TREAT_AS_HARD
1070
     0
  0
DICTIONARY
  5
37
102
{ACAD_REACTORS
330
C
102
}
330
C
100
AcDbDictionary
  3
CANNOSCALE
350
1AC1A
  3
CMLEADERSTYLE
350
1AC19
  3
CTABLESTYLE
350
4F1
  3
DIMADEC
350
38
  3
DIMASSOC
350
408
  3
HIDETEXT
350
1891
  3
INDEXCTL
350
1AC1C
  3
INTERSECTIONCOLOR
350
1895
  3
INTERSECTIONDISPLAY
350
1894
  3
MSLTSCALE
350
227B3
  3
OBSCOLOR
350
1892
  3
OBSLTYPE
350
1893
  3
PROJECTNAME
350
409
  3
SORTENTS
350
1AC1B
  3
XCLIPFRAME
350
227AC
1001
ACAD
1000
TREAT_AS_HARD
1070
     0
  0
DICTIONARY
  5
1FE46
102
{ACAD_REACTORS
330
C
102
}
330
C
100
AcDbDictionary
1001
ACAD
1000
TREAT_AS_HARD
1070
     0
  0
DICTIONARY
  5
D8
102
{ACAD_REACTORS
330
C
102
}
330
C
100
AcDbDictionary
1001
CONTENTTABDATA
1070
    11
1000
Child
1000
D:\ACLT\TABset\CHILDREN.dwg
1070
     0
1070
     0
1070
     1
1000
PK
1000
D:\ACLT\TABset\PK.dwg
1070
     0
1070
     0
1070
     1
1000
Lev1
1000
D:\ACLT\TABset\Lever01.dwg
1070
     0
1070
     0
1070
     1
1000
Lev2
1000
D:\ACLT\TABset\Lever02.dwg
1070
     0
1070
     0
1070
     1
1000
L3
1000
D:\Aclt\TABset\Lever03.dwg
1070
     0
1070
     0
1070
     1
1000
Form
1000
D:\ACLT\FORMAT
1070
     1
1070
     0
1070
     1
1000
Jnt
1000
D:\ACLT\TABset\JOINTPARTS.dwg
1070
     0
1070
     0
1070
     1
1000
ISO
1000
D:\ACLT\TABset\Isome01.dwg
1070
     0
1070
     0
1070
     1
1000
R
1000
D:\ACLT\TABset\REGION.dwg
1070
     0
1070
     0
1070
     1
1000
std
1000
D:\ACLT\TABset\std_sym_all.dwg
1070
     0
1070
     0
1070
     1
1000
丸
1000
D:\Aclt\TABset\MARU.dwg
1070
     0
1070
     0
1070
     1
1001
CONTENTCURRENTTAB
1070
     0
1001
ACAD
1000
TREAT_AS_HARD
1070
     0
  0
DICTIONARY
  5
20
102
{ACAD_REACTORS
330
C
102
}
330
C
100
AcDbDictionary
1001
DRAWINGVARIABLESXDATA
1000
POLARANG
1000
0.261799387799149410000000
1000
POLARMODE
1000
1
1000
POLARSTYLE
1000
1
1001
ACAD
1000
TREAT_AS_HARD
1070
     0
  0
XRECORD
  5
22A72
102
{ACAD_REACTORS
330
C
102
}
330
C
100
AcDbXrecord
  1
DWGPROPS COOKIE
  2

  3

  4

  6

  7

  8
3684
  9

300
=
301
=
302
=
303
=
304
=
305
=
306
=
307
=
308
=
309
=
 40
0.0
 41
2453033.357663484
 42
2458129.122948206
  1

 90
        0
  0
DICTIONARY
  5
18FE9
102
{ACAD_REACTORS
330
18FE8
102
}
330
18FE8
100
AcDbDictionary
1001
ACAD
1000
TREAT_AS_HARD
1070
     0
  0
ACAD_PROXY_OBJECT
  5
1A20B
102
{ACAD_REACTORS
330
1A20A
102
}
330
1A20A
100
AcDbZombieObject
 90
      499
 91
      518
 93
       34
310
40C8804040
  0
ACAD_PROXY_OBJECT
  5
1A20D
102
{ACAD_REACTORS
330
1A20C
102
}
330
1A20C
100
AcDbZombieObject
 90
      499
 91
      518
 93
       34
310
40C8804040
  0
ACAD_PROXY_OBJECT
  5
1A20F
102
{ACAD_REACTORS
330
1A20E
102
}
330
1A20E
100
AcDbZombieObject
 90
      499
 91
      518
 93
       34
310
40C8804040
  0
ACAD_PROXY_OBJECT
  5
1A219
102
{ACAD_REACTORS
330
1A218
102
}
330
1A218
100
AcDbZombieObject
 90
      499
 91
      518
 93
       34
310
40C8804040
  0
ACAD_PROXY_OBJECT
  5
1A21D
102
{ACAD_REACTORS
330
1A21C
102
}
330
1A21C
100
AcDbZombieObject
 90
      499
 91
      518
 93
       34
310
40C8804040
  0
ACAD_PROXY_OBJECT
  5
1A221
102
{ACAD_REACTORS
330
1A220
102
}
330
1A220
100
AcDbZombieObject
 90
      499
 91
      518
 93
       34
310
40C8804040
  0
ACAD_PROXY_OBJECT
  5
1A237
102
{ACAD_REACTORS
330
1A236
102
}
330
1A236
100
AcDbZombieObject
 90
      499
 91
      518
 93
       34
310
40C8804040
  0
ACAD_PROXY_OBJECT
  5
1A23D
102
{ACAD_REACTORS
330
1A23C
102
}
330
1A23C
100
AcDbZombieObject
 90
      499
 91
      518
 93
       34
310
40C8804040
  0
SORTENTSTABLE
  5
6EA
102
{ACAD_REACTORS
330
6E9
102
}
330
6E9
100
AcDbSortentsTable
330
18
331
0
  5
99AB
331
0
  5
AB53
331
0
  5
AB54
331
0
  5
ECB5
331
0
  5
1D308
331
0
  5
1D523
331
1D8CA
  5
20A5A
331
1D90A
  5
20A5D
331
0
  5
1DB93
331
0
  5
1DB96
331
1DB9B
  5
20AD6
331
1DBA4
  5
20AD7
331
1DBA6
  5
20AD9
331
0
  5
1E234
331
0
  5
1E235
331
0
  5
1E236
331
0
  5
1E7B5
331
0
  5
1E7B6
331
0
  5
1E7B7
331
0
  5
1E7B8
331
0
  5
1EE58
331
0
  5
1EE57
331
1EE56
  5
213C1
331
1EE57
  5
213C2
331
1EE58
  5
213C3
331
1EE5B
  5
213C5
331
1EE5D
  5
213C6
331
1EE5E
  5
213C7
331
1EE62
  5
213C8
331
1EE63
  5
213C9
331
1EE65
  5
213CA
331
1EE71
  5
213CB
331
209BA
  5
213CC
331
209BB
  5
213CD
331
209BC
  5
213D6
331
209BD
  5
213DD
331
209BE
  5
213E0
331
209BF
  5
213E1
331
209C0
  5
213E2
331
209C1
  5
213E3
331
209C2
  5
213E4
331
209C3
  5
213E5
331
209C4
  5
213E7
331
209C5
  5
213E8
331
209CF
  5
213EC
331
209D2
  5
213EE
331
209DE
  5
213EF
331
209E0
  5
213F0
331
209E1
  5
213F1
331
209E2
  5
213F2
331
209E3
  5
213F9
331
209E9
  5
213FA
331
209EB
  5
21417
331
209EC
  5
21425
331
209EE
  5
21427
331
20A00
  5
21428
331
20A02
  5
21429
331
20A06
  5
21442
331
20A09
  5
214BC
331
20A0A
  5
214BD
331
20A0B
  5
214BF
331
20A0C
  5
214C0
331
20A11
  5
214C1
331
20A13
  5
214C2
331
20A15
  5
214C3
331
20A17
  5
214C4
331
20A36
  5
214C5
331
20A37
  5
214C6
331
20A38
  5
214C7
331
20A39
  5
214C8
331
20A3A
  5
214C9
331
20A3B
  5
214CA
331
20A3C
  5
214CB
331
20A3D
  5
214CC
331
20A3E
  5
214CD
331
20A3F
  5
214CE
331
20A40
  5
214CF
331
20A41
  5
214D0
331
20A42
  5
214D1
331
20A45
  5
214D2
331
20A48
  5
214D3
331
20A49
  5
214D5
331
20A4B
  5
214D7
331
20A4F
  5
214D8
331
20A52
  5
214D9
331
20A55
  5
214DA
331
20A59
  5
214DB
331
20A5A
  5
214DC
331
20A5D
  5
214DD
331
20A60
  5
21840
331
20A62
  5
21841
331
20A63
  5
21842
331
20A65
  5
21843
331
20A6C
  5
21844
331
20A6E
  5
21845
331
20A71
  5
21846
331
20A8E
  5
21847
331
20A8F
  5
21C08
331
20A92
  5
21C09
331
20A9B
  5
21E0A
331
20A9D
  5
21EDB
331
20A9F
  5
21EDC
331
20AA1
  5
22842
331
20AA2
  5
22843
331
20AA4
  5
22844
331
20AA8
  5
22845
331
20AAB
  5
22846
331
0
  5
20AD2
331
20AAD
  5
2284B
331
20AAF
  5
2284C
331
20AB0
  5
2284D
331
20ACE
  5
2284E
331
20ACF
  5
2284F
331
20AD0
  5
22850
331
20AD1
  5
22851
331
20AD2
  5
22852
331
0
  5
20AE2
331
20AD5
  5
228A0
331
20AD6
  5
228A1
331
20AD7
  5
228A2
331
20AD8
  5
228A3
331
20AD9
  5
228A4
331
20ADA
  5
228A5
331
20ADB
  5
228A6
331
20ADC
  5
228A7
331
20ADD
  5
228A8
331
20ADF
  5
228A9
331
20AE0
  5
228AA
331
20AE1
  5
228AB
331
20AE2
  5
228AC
331
20AE3
  5
228AD
331
0
  5
20C46
331
20AE5
  5
228F8
331
20AE6
  5
228F9
331
20C3F
  5
228FA
331
20C40
  5
228FB
331
20C41
  5
228FC
331
20C42
  5
228FD
331
20C43
  5
228FE
331
0
  5
20C4F
331
20C46
  5
22949
331
20C47
  5
2294A
331
20C48
  5
2294B
331
20C49
  5
2294C
331
20C4A
  5
2294D
331
20C4B
  5
2294E
331
20C4C
  5
2294F
331
20C4D
  5
22950
331
20C4E
  5
22951
331
20C50
  5
22952
331
20C51
  5
22953
331
20C52
  5
22954
331
20C53
  5
22955
331
20C54
  5
22956
331
0
  5
213B2
331
20C57
  5
229A1
331
213AB
  5
229A2
331
213AC
  5
229A3
331
213AD
  5
229A4
331
213AE
  5
229A5
331
213AF
  5
229A6
331
213B0
  5
229A7
331
213B1
  5
229A8
331
213B2
  5
229A9
331
213B3
  5
229AA
331
213B4
  5
229AB
331
213B5
  5
229AC
331
213B6
  5
229AD
331
213B7
  5
229AE
331
213B8
  5
229AF
331
213B9
  5
229B0
331
213BA
  5
229B1
331
213BB
  5
229B2
331
213BC
  5
229B3
331
213BD
  5
229B4
331
213BE
  5
229B5
331
213BF
  5
229B6
331
213C0
  5
229B7
331
213C1
  5
229B8
331
213C2
  5
229B9
331
213C3
  5
229BA
331
213C4
  5
229BB
331
213C5
  5
229BC
331
213C6
  5
229BD
331
213C7
  5
229BE
331
213C8
  5
229BF
331
213C9
  5
229C0
331
213CA
  5
229C1
331
213CB
  5
229C2
331
213D4
  5
229C3
331
213DB
  5
229C4
331
213DE
  5
229C5
331
213DF
  5
229C6
331
213E0
  5
229C7
331
213E1
  5
229C8
331
213E2
  5
229C9
331
213E3
  5
229CA
331
213E5
  5
229CB
331
213E6
  5
229CC
331
213EA
  5
229CD
331
213EC
  5
229CE
331
213ED
  5
229CF
331
213EE
  5
229D0
331
213EF
  5
229D1
331
213F0
  5
229D2
331
213F7
  5
229D3
331
213F8
  5
229D4
331
0
  5
21426
331
21424
  5
229E6
331
21425
  5
229E7
331
21426
  5
229E8
331
21427
  5
229E9
331
21428
  5
229EA
331
0
  5
214D6
331
214BC
  5
22A38
331
214BD
  5
22A39
331
214BE
  5
22A3A
331
214BF
  5
22A3B
331
214C0
  5
22A3C
331
214C1
  5
22A3D
331
214C2
  5
22A3E
331
214C3
  5
22A3F
331
214C4
  5
22A40
331
214C5
  5
22A41
331
214C6
  5
22A42
331
214C7
  5
22A43
331
214C8
  5
22A44
331
214C9
  5
22A45
331
214CA
  5
22A46
331
214CB
  5
22A47
331
214CC
  5
22A48
331
214CD
  5
22A49
331
214CE
  5
22A4A
331
214CF
  5
22A4B
331
214D0
  5
22A4C
331
214D1
  5
22A4D
331
214D2
  5
22A4E
331
214D3
  5
22A4F
331
214D5
  5
22A50
331
214D6
  5
22A51
331
214D7
  5
22A52
331
214D8
  5
22A53
331
214D9
  5
22A54
331
214DA
  5
22A55
331
214DB
  5
22A56
331
214DC
  5
22A57
331
214DD
  5
22A58
331
21840
  5
22A59
331
21841
  5
22A5A
331
21842
  5
22A5B
331
21843
  5
22A5C
331
21844
  5
22A5D
331
21845
  5
22A5E
331
21846
  5
22A5F
331
21847
  5
22A60
331
21D2F
  5
20AD8
331
0
  5
22857
331
0
  5
22858
331
0
  5
22859
331
22842
  5
213BD
331
22843
  5
213C0
331
22844
  5
22847
331
22845
  5
22848
331
22846
  5
22849
331
22847
  5
2284A
331
0
  5
214BE
331
22849
  5
229DF
331
2284A
  5
229E0
331
2284B
  5
229E1
331
2284C
  5
229E2
331
2284D
  5
229E3
331
2284E
  5
229E4
331
2284F
  5
229E5
331
22850
  5
229D5
331
22851
  5
229D6
331
22852
  5
229D7
331
22853
  5
229D8
331
22854
  5
229D9
331
22855
  5
229DA
331
22856
  5
229DB
331
22857
  5
229DC
331
22858
  5
229DD
331
22859
  5
229DE
331
2285A
  5
1D8CE
331
2285B
  5
1D910
331
2285C
  5
1DB9F
331
0
  5
1DBA8
331
0
  5
1DF13
331
0
  5
1E233
331
22860
  5
209BC
331
22861
  5
209BD
331
22862
  5
209BE
331
22863
  5
209BF
331
0
  5
1EE62
331
0
  5
1EE63
331
0
  5
1EE65
331
22867
  5
209E2
331
22868
  5
209E3
331
22869
  5
209E9
331
2286A
  5
209EB
331
2286B
  5
209EC
331
2286C
  5
20A06
331
2286D
  5
20A0A
331
2286E
  5
20A0B
331
2286F
  5
20A15
331
22870
  5
20A17
331
22871
  5
20A36
331
22872
  5
20A37
331
22873
  5
20A38
331
22874
  5
20A39
331
0
  5
209D6
331
0
  5
209E0
331
0
  5
209E1
331
22878
  5
20A60
331
22879
  5
20A6C
331
2287A
  5
20A71
331
0
  5
209EE
331
0
  5
209F6
331
0
  5
20A02
331
2287E
  5
20AA8
331
2287F
  5
20AAC
331
22880
  5
20AAF
331
0
  5
20A0C
331
0
  5
20A11
331
0
  5
20A13
331
22884
  5
20ADB
331
22885
  5
20ADC
331
22886
  5
20ADD
331
0
  5
20A3B
331
0
  5
20A3C
331
0
  5
20A3D
331
2288A
  5
20AE7
331
2288B
  5
20AE8
331
2288C
  5
20AE9
331
0
  5
20A41
331
0
  5
20A42
331
0
  5
20A45
331
22890
  5
20C45
331
22891
  5
20C48
331
22892
  5
20C49
331
0
  5
20A52
331
0
  5
20A55
331
0
  5
20A59
331
22896
  5
20C53
331
22897
  5
20C54
331
22898
  5
20C55
331
0
  5
20A62
331
0
  5
20A63
331
0
  5
20A65
331
2289C
  5
213B0
331
2289D
  5
213B1
331
2289E
  5
213B3
331
0
  5
20A8D
331
0
  5
20A8E
331
0
  5
20A8F
331
228A2
  5
213BB
331
228A3
  5
213BC
331
228A4
  5
213BE
331
228A5
  5
213BF
331
228A6
  5
22853
331
228A7
  5
22854
331
228A8
  5
22855
331
228A9
  5
22856
331
228AA
  5
2285A
331
228AB
  5
2285B
331
228AC
  5
2285C
331
228AD
  5
2285D
331
228AE
  5
2285E
331
228AF
  5
2285F
331
228B0
  5
22860
331
228B1
  5
22861
331
228B2
  5
22862
331
228B3
  5
22863
331
228B4
  5
22864
331
228B5
  5
22865
331
228B6
  5
22866
331
228B7
  5
22867
331
228B8
  5
22868
331
228B9
  5
22869
331
228BA
  5
2286A
331
228BB
  5
2286B
331
228BC
  5
2286C
331
228BD
  5
2286D
331
228BE
  5
2286E
331
228BF
  5
2286F
331
228C0
  5
22870
331
228C1
  5
22871
331
228C2
  5
22872
331
228C3
  5
22873
331
228C4
  5
22874
331
228C5
  5
22875
331
228C6
  5
22876
331
228C7
  5
22877
331
228C8
  5
22878
331
228C9
  5
22879
331
228CA
  5
2287A
331
228CB
  5
2287B
331
228CC
  5
2287C
331
228CD
  5
2287D
331
228CE
  5
2287E
331
228CF
  5
2287F
331
228D0
  5
22880
331
228D1
  5
22881
331
228D2
  5
22882
331
228D3
  5
22883
331
228D4
  5
22884
331
228D5
  5
22885
331
228D6
  5
22886
331
228D7
  5
22887
331
228D8
  5
22888
331
228D9
  5
22889
331
228DA
  5
2288A
331
228DB
  5
2288B
331
228DC
  5
2288C
331
228DD
  5
2288D
331
228DE
  5
2288E
331
228DF
  5
2288F
331
228E0
  5
22890
331
228E1
  5
22891
331
228E2
  5
22892
331
228E3
  5
22893
331
228E4
  5
22894
331
228E5
  5
22895
331
228E6
  5
22896
331
228E7
  5
22897
331
228E8
  5
22898
331
228E9
  5
22899
331
228EA
  5
2289A
331
228EB
  5
2289B
331
228EC
  5
2289C
331
228ED
  5
2289D
331
228EE
  5
2289E
331
228EF
  5
2289F
331
228F0
  5
228AE
331
228F1
  5
228AF
331
228F2
  5
228B0
331
228F3
  5
228B1
331
228F4
  5
228B2
331
228F5
  5
228B3
331
228F6
  5
228B4
331
228F7
  5
228B5
331
228F8
  5
228B6
331
228F9
  5
228B7
331
228FA
  5
228B8
331
228FB
  5
228B9
331
228FC
  5
228BA
331
228FD
  5
228BB
331
228FE
  5
228BC
331
228FF
  5
228BD
331
22900
  5
228BE
331
22901
  5
228BF
331
22902
  5
228C0
331
22903
  5
228C1
331
22904
  5
228C2
331
22905
  5
228C3
331
22906
  5
228C4
331
22907
  5
228C5
331
22908
  5
228C6
331
22909
  5
228C7
331
2290A
  5
228C8
331
2290B
  5
228C9
331
2290C
  5
228CA
331
2290D
  5
228CB
331
2290E
  5
228CC
331
2290F
  5
228CD
331
22910
  5
228CE
331
22911
  5
228CF
331
22912
  5
228D0
331
22913
  5
228D1
331
22914
  5
228D2
331
22915
  5
228D3
331
22916
  5
228D4
331
22917
  5
228D5
331
22918
  5
228D6
331
22919
  5
228D7
331
2291A
  5
228D8
331
2291B
  5
228D9
331
2291C
  5
228DA
331
2291D
  5
228DB
331
2291E
  5
228DC
331
2291F
  5
228DD
331
22920
  5
228DE
331
22921
  5
228DF
331
22922
  5
228E0
331
22923
  5
228E1
331
22924
  5
228E2
331
22925
  5
228E3
331
22926
  5
228E4
331
22927
  5
228E5
331
22928
  5
228E6
331
22929
  5
228E7
331
2292A
  5
228E8
331
2292B
  5
228E9
331
2292C
  5
228EA
331
2292D
  5
228EB
331
2292E
  5
228EC
331
2292F
  5
228ED
331
22930
  5
228EE
331
22931
  5
228EF
331
22932
  5
228F0
331
22933
  5
228F1
331
22934
  5
228F2
331
22935
  5
228F3
331
22936
  5
228F4
331
22937
  5
228F5
331
22938
  5
228F6
331
22939
  5
228F7
331
2293A
  5
228FF
331
2293B
  5
22900
331
2293C
  5
22901
331
2293D
  5
22902
331
2293E
  5
22903
331
2293F
  5
22904
331
22940
  5
22905
331
22941
  5
22906
331
22942
  5
22907
331
22943
  5
22908
331
22944
  5
22909
331
22945
  5
2290A
331
22946
  5
2290B
331
22947
  5
2290C
331
22948
  5
2290D
331
22949
  5
2290E
331
2294A
  5
2290F
331
2294B
  5
22910
331
2294C
  5
22911
331
2294D
  5
22912
331
2294E
  5
22913
331
2294F
  5
22914
331
22950
  5
22915
331
22951
  5
22916
331
22952
  5
22917
331
22953
  5
22918
331
22954
  5
22919
331
22955
  5
2291A
331
22956
  5
2291B
331
22957
  5
2291C
331
22958
  5
2291D
331
22959
  5
2291E
331
2295A
  5
2291F
331
2295B
  5
22920
331
2295C
  5
22921
331
2295D
  5
22922
331
2295E
  5
22923
331
2295F
  5
22924
331
22960
  5
22925
331
22961
  5
22926
331
22962
  5
22927
331
22963
  5
22928
331
22964
  5
22929
331
22965
  5
2292A
331
22966
  5
2292B
331
22967
  5
2292C
331
22968
  5
2292D
331
22969
  5
2292E
331
2296A
  5
2292F
331
2296B
  5
22930
331
2296C
  5
22931
331
2296D
  5
22932
331
2296E
  5
22933
331
2296F
  5
22934
331
22970
  5
22935
331
22971
  5
22936
331
22972
  5
22937
331
22973
  5
22938
331
22974
  5
22939
331
22975
  5
2293A
331
22976
  5
2293B
331
22977
  5
2293C
331
22978
  5
2293D
331
22979
  5
2293E
331
2297A
  5
2293F
331
2297B
  5
22940
331
2297C
  5
22941
331
2297D
  5
22942
331
2297E
  5
22943
331
2297F
  5
22944
331
22980
  5
22945
331
22981
  5
22946
331
22982
  5
22947
331
22983
  5
22948
331
22984
  5
22957
331
22985
  5
22958
331
22986
  5
22959
331
22987
  5
2295A
331
22988
  5
2295B
331
22989
  5
2295C
331
2298A
  5
2295D
331
2298B
  5
2295E
331
2298C
  5
2295F
331
2298D
  5
22960
331
2298E
  5
22961
331
2298F
  5
22962
331
22990
  5
22963
331
22991
  5
22964
331
22992
  5
22965
331
22993
  5
22966
331
22994
  5
22967
331
22995
  5
22968
331
22996
  5
22969
331
22997
  5
2296A
331
22998
  5
2296B
331
22999
  5
2296C
331
2299A
  5
2296D
331
2299B
  5
2296E
331
2299C
  5
2296F
331
2299D
  5
22970
331
2299E
  5
22971
331
2299F
  5
22972
331
229A0
  5
22973
331
229A1
  5
22974
331
229A2
  5
22975
331
229A3
  5
22976
331
229A4
  5
22977
331
229A5
  5
22978
331
229A6
  5
22979
331
229A7
  5
2297A
331
229A8
  5
2297B
331
229A9
  5
2297C
331
229AA
  5
2297D
331
229AB
  5
2297E
331
229AC
  5
2297F
331
229AD
  5
22980
331
229AE
  5
22981
331
229AF
  5
22982
331
229B0
  5
22983
331
229B1
  5
22984
331
229B2
  5
22985
331
229B3
  5
22986
331
229B4
  5
22987
331
229B5
  5
22988
331
229B6
  5
22989
331
229B7
  5
2298A
331
229B8
  5
2298B
331
229B9
  5
2298C
331
229BA
  5
2298D
331
229BB
  5
2298E
331
229BC
  5
2298F
331
229BD
  5
22990
331
229BE
  5
22991
331
229BF
  5
22992
331
229C0
  5
22993
331
229C1
  5
22994
331
229C2
  5
22995
331
229C3
  5
22996
331
229C4
  5
22997
331
229C5
  5
22998
331
229C6
  5
22999
331
229C7
  5
2299A
331
229C8
  5
2299B
331
229C9
  5
2299C
331
229CA
  5
2299D
331
229CB
  5
2299E
331
229CC
  5
2299F
331
229CD
  5
229A0
331
229CE
  5
229EB
331
229CF
  5
229EC
331
229D0
  5
229ED
331
229D1
  5
229EE
331
229D2
  5
229EF
331
229D3
  5
229F0
331
229D4
  5
229F1
331
229D5
  5
229F2
331
229D6
  5
229F3
331
229D7
  5
229F4
331
229D8
  5
229F5
331
229D9
  5
229F6
331
229DA
  5
229F7
331
229DB
  5
229F8
331
229DC
  5
229F9
331
229DD
  5
229FA
331
229DE
  5
229FB
331
229DF
  5
229FC
331
229E0
  5
229FD
331
229E1
  5
229FE
331
229E2
  5
229FF
331
229E3
  5
22A00
331
229E4
  5
22A01
331
229E5
  5
22A02
331
229E6
  5
22A03
331
229E7
  5
22A04
331
229E8
  5
22A05
331
229E9
  5
22A06
331
229EA
  5
22A07
331
229EB
  5
22A08
331
229EC
  5
22A09
331
229ED
  5
22A0A
331
229EE
  5
22A0B
331
229EF
  5
22A0C
331
229F0
  5
22A0D
331
229F1
  5
22A0E
331
229F2
  5
22A0F
331
229F3
  5
22A10
331
229F4
  5
22A11
331
229F5
  5
22A12
331
229F6
  5
22A13
331
229F7
  5
22A14
331
229F8
  5
22A15
331
229F9
  5
22A16
331
229FA
  5
22A17
331
229FB
  5
22A18
331
229FC
  5
22A19
331
229FD
  5
22A1A
331
229FE
  5
22A1E
331
229FF
  5
22A1F
331
22A00
  5
22A20
331
22A01
  5
22A21
331
22A02
  5
22A22
331
22A03
  5
22A23
331
22A04
  5
22A24
331
22A05
  5
22A25
331
22A06
  5
22A26
331
22A07
  5
22A27
331
22A08
  5
22A28
331
22A09
  5
22A29
331
22A0A
  5
22A2A
331
22A0B
  5
22A2B
331
22A0C
  5
22A2C
331
22A0D
  5
22A2D
331
22A0E
  5
22A2E
331
22A0F
  5
22A2F
331
22A10
  5
22A30
331
22A11
  5
22A31
331
22A12
  5
22A32
331
22A13
  5
22A33
331
22A14
  5
22A34
331
22A15
  5
22A35
331
22A16
  5
22A36
331
22A17
  5
22A37
331
22A18
  5
22A61
331
22A19
  5
22A62
331
22A1A
  5
22A63
331
22A1E
  5
22A6B
331
22A1F
  5
22A6C
331
22A20
  5
22A6D
331
22A21
  5
22A6E
331
22A22
  5
1EE56
331
22A23
  5
1EE5B
331
22A24
  5
1EE5D
331
22A25
  5
1EE5E
331
22A26
  5
1EE71
331
22A27
  5
209BA
331
22A28
  5
209BB
331
22A29
  5
209C0
331
22A2A
  5
209C1
331
22A2B
  5
209C2
331
22A2C
  5
209C3
331
22A2D
  5
209C4
331
22A2E
  5
209C5
331
22A2F
  5
209CF
331
22A30
  5
20A3A
331
22A31
  5
20A3E
331
22A32
  5
20A3F
331
22A33
  5
20A40
331
22A34
  5
20A48
331
22A35
  5
20A49
331
22A36
  5
20A4B
331
22A37
  5
20A8C
331
22A38
  5
20A92
331
22A39
  5
20A93
331
22A3A
  5
20A9F
331
22A3B
  5
20AA3
331
22A3C
  5
20AA5
331
22A3D
  5
20AA6
331
22A3E
  5
20AB0
331
22A3F
  5
20ACE
331
22A40
  5
20AD0
331
22A41
  5
20AD1
331
22A42
  5
20AD3
331
22A43
  5
20AD4
331
22A44
  5
20AD5
331
22A45
  5
20ADE
331
22A46
  5
20ADF
331
22A47
  5
20AE0
331
22A48
  5
20AE1
331
22A49
  5
20AE3
331
22A4A
  5
20AE5
331
22A4B
  5
20AE6
331
22A4C
  5
20AEA
331
22A4D
  5
20C3F
331
22A4E
  5
20C40
331
22A4F
  5
20C41
331
22A50
  5
20C42
331
22A51
  5
20C43
331
22A52
  5
20C44
331
22A53
  5
20C4A
331
22A54
  5
20C4B
331
22A55
  5
20C4C
331
22A56
  5
20C4D
331
22A57
  5
20C4E
331
22A58
  5
20C50
331
22A59
  5
20C52
331
22A5A
  5
20C57
331
22A5B
  5
20D36
331
22A5C
  5
20D37
331
22A5D
  5
213AC
331
22A5E
  5
213AD
331
22A5F
  5
213AE
331
22A60
  5
213AF
331
22A61
  5
213B4
331
22A62
  5
213B5
331
22A63
  5
213B6
331
22A64
  5
213B7
331
22A65
  5
213B8
331
22A66
  5
213B9
331
22A67
  5
213BA
331
22A68
  5
22A64
331
22A69
  5
22A65
331
22A6A
  5
22A66
331
22A6B
  5
22A67
331
22A6C
  5
22A68
331
22A6D
  5
22A69
331
22A6E
  5
22A6A
  0
SORTENTSTABLE
  5
59C
102
{ACAD_REACTORS
330
59B
102
}
330
59B
100
AcDbSortentsTable
330
15
331
57
  5
57
331
0
  5
70
  0
MATERIAL
  5
19DD5
102
{ACAD_REACTORS
330
2CF
102
}
102
{ACAD_XDICTIONARY
360
22C0D
102
}
330
2CF
100
AcDbMaterial
  1
BYBLOCK
 72
     0
 73
     2
 43
0.0208333333333333
 43
0.0
 43
0.0
 43
0.0
 43
0.0
 43
0.0208333333333333
 43
0.0
 43
0.0
 43
0.0
 43
0.0
 43
1.0
 43
0.0
 43
0.0
 43
0.0
 43
0.0
 43
1.0
 77
     0
 78
     2
 47
0.0208333333333333
 47
0.0
 47
0.0
 47
0.0
 47
0.0
 47
0.0208333333333333
 47
0.0
 47
0.0
 47
0.0
 47
0.0
 47
1.0
 47
0.0
 47
0.0
 47
0.0
 47
0.0
 47
1.0
171
     0
172
     2
 49
0.0208333333333333
 49
0.0
 49
0.0
 49
0.0
 49
0.0
 49
0.0208333333333333
 49
0.0
 49
0.0
 49
0.0
 49
0.0
 49
1.0
 49
0.0
 49
0.0
 49
0.0
 49
0.0
 49
1.0
175
     0
176
     2
142
0.0208333333333333
142
0.0
142
0.0
142
0.0
142
0.0
142
0.0208333333333333
142
0.0
142
0.0
142
0.0
142
0.0
142
1.0
142
0.0
142
0.0
142
0.0
142
0.0
142
1.0
179
     0
270
     2
144
0.0208333333333333
144
0.0
144
0.0
144
0.0
144
0.0
144
0.0208333333333333
144
0.0
144
0.0
144
0.0
144
0.0
144
1.0
144
0.0
144
0.0
144
0.0
144
0.0
144
1.0
274
     2
147
0.0208333333333333
147
0.0
147
0.0
147
0.0
147
0.0
147
0.0208333333333333
147
0.0
147
0.0
147
0.0
147
0.0
147
1.0
147
0.0
147
0.0
147
0.0
147
0.0
147
1.0
  0
MATERIAL
  5
19DCD
102
{ACAD_REACTORS
330
2CF
102
}
102
{ACAD_XDICTIONARY
360
22C0F
102
}
330
2CF
100
AcDbMaterial
  1
BYLAYER
 72
     0
 73
     2
 43
0.0208333333333333
 43
0.0
 43
0.0
 43
0.0
 43
0.0
 43
0.0208333333333333
 43
0.0
 43
0.0
 43
0.0
 43
0.0
 43
1.0
 43
0.0
 43
0.0
 43
0.0
 43
0.0
 43
1.0
 77
     0
 78
     2
 47
0.0208333333333333
 47
0.0
 47
0.0
 47
0.0
 47
0.0
 47
0.0208333333333333
 47
0.0
 47
0.0
 47
0.0
 47
0.0
 47
1.0
 47
0.0
 47
0.0
 47
0.0
 47
0.0
 47
1.0
171
     0
172
     2
 49
0.0208333333333333
 49
0.0
 49
0.0
 49
0.0
 49
0.0
 49
0.0208333333333333
 49
0.0
 49
0.0
 49
0.0
 49
0.0
 49
1.0
 49
0.0
 49
0.0
 49
0.0
 49
0.0
 49
1.0
175
     0
176
     2
142
0.0208333333333333
142
0.0
142
0.0
142
0.0
142
0.0
142
0.0208333333333333
142
0.0
142
0.0
142
0.0
142
0.0
142
1.0
142
0.0
142
0.0
142
0.0
142
0.0
142
1.0
179
     0
270
     2
144
0.0208333333333333
144
0.0
144
0.0
144
0.0
144
0.0
144
0.0208333333333333
144
0.0
144
0.0
144
0.0
144
0.0
144
1.0
144
0.0
144
0.0
144
0.0
144
0.0
144
1.0
274
     2
147
0.0208333333333333
147
0.0
147
0.0
147
0.0
147
0.0
147
0.0208333333333333
147
0.0
147
0.0
147
0.0
147
0.0
147
1.0
147
0.0
147
0.0
147
0.0
147
0.0
147
1.0
  0
MATERIAL
  5
19DDD
102
{ACAD_REACTORS
330
2CF
102
}
102
{ACAD_XDICTIONARY
360
22C11
102
}
330
2CF
100
AcDbMaterial
  1
GLOBAL
 72
     0
 73
     2
 43
0.0208333333333333
 43
0.0
 43
0.0
 43
0.0
 43
0.0
 43
0.0208333333333333
 43
0.0
 43
0.0
 43
0.0
 43
0.0
 43
1.0
 43
0.0
 43
0.0
 43
0.0
 43
0.0
 43
1.0
 77
     0
 78
     2
 47
0.0208333333333333
 47
0.0
 47
0.0
 47
0.0
 47
0.0
 47
0.0208333333333333
 47
0.0
 47
0.0
 47
0.0
 47
0.0
 47
1.0
 47
0.0
 47
0.0
 47
0.0
 47
0.0
 47
1.0
171
     0
172
     2
 49
0.0208333333333333
 49
0.0
 49
0.0
 49
0.0
 49
0.0
 49
0.0208333333333333
 49
0.0
 49
0.0
 49
0.0
 49
0.0
 49
1.0
 49
0.0
 49
0.0
 49
0.0
 49
0.0
 49
1.0
175
     0
176
     2
142
0.0208333333333333
142
0.0
142
0.0
142
0.0
142
0.0
142
0.0208333333333333
142
0.0
142
0.0
142
0.0
142
0.0
142
1.0
142
0.0
142
0.0
142
0.0
142
0.0
142
1.0
179
     0
270
     2
144
0.0208333333333333
144
0.0
144
0.0
144
0.0
144
0.0
144
0.0208333333333333
144
0.0
144
0.0
144
0.0
144
0.0
144
1.0
144
0.0
144
0.0
144
0.0
144
0.0
144
1.0
274
     2
147
0.0208333333333333
147
0.0
147
0.0
147
0.0
147
0.0
147
0.0208333333333333
147
0.0
147
0.0
147
0.0
147
0.0
147
1.0
147
0.0
147
0.0
147
0.0
147
0.0
147
1.0
  0
ACAD_PROXY_OBJECT
  5
19E19
102
{ACAD_REACTORS
330
19E18
102
}
330
19E18
100
AcDbZombieObject
 90
      499
 91
      512
 93
      610
310
40901902A4063FBFFFFFE000000000000002040AD7A3703D0AD73F4214DD185B99185C990000000000000104090141901A00000000000004100000000000000041025764000000000000300FC0
340
12
340
0
340
F
340
0
 94
        0
1001
ACAD_MLEADERVER
1070
     2
  0
MLINESTYLE
  5
1C
102
{ACAD_REACTORS
330
1B
102
}
330
1B
100
AcDbMlineStyle
  2
STANDARD
 70
     0
  3

 62
   256
 51
90.0
 52
90.0
 71
     2
 49
0.5
 62
   256
  6
BYLAYER
 49
-0.5
 62
   256
  6
BYLAYER
  0
ACAD_PROXY_OBJECT
  5
19DF7
102
{ACAD_REACTORS
330
19DF6
102
}
330
19DF6
100
AcDbZombieObject
 90
      499
 91
      511
 93
       41
310
903313A31580
  0
ACAD_PROXY_OBJECT
  5
19DF8
102
{ACAD_REACTORS
330
19DF6
102
}
330
19DF6
100
AcDbZombieObject
 90
      499
 91
      511
 93
      105
310
903313A324000000000000004000
  0
ACAD_PROXY_OBJECT
  5
19DF9
102
{ACAD_REACTORS
330
19DF6
102
}
330
19DF6
100
AcDbZombieObject
 90
      499
 91
      511
 93
      105
310
903313A344000000000000104000
  0
ACAD_PROXY_OBJECT
  5
19DFA
102
{ACAD_REACTORS
330
19DF6
102
}
330
19DF6
100
AcDbZombieObject
 90
      499
 91
      511
 93
      105
310
903313A354000000000000144000
  0
ACAD_PROXY_OBJECT
  5
19DFB
102
{ACAD_REACTORS
330
19DF6
102
}
330
19DF6
100
AcDbZombieObject
 90
      499
 91
      511
 93
      105
310
903313A384000000000000204000
  0
ACAD_PROXY_OBJECT
  5
19DFC
102
{ACAD_REACTORS
330
19DF6
102
}
330
19DF6
100
AcDbZombieObject
 90
      499
 91
      511
 93
      113
310
904313A31304000000000000244000
  0
ACAD_PROXY_OBJECT
  5
19DFD
102
{ACAD_REACTORS
330
19DF6
102
}
330
19DF6
100
AcDbZombieObject
 90
      499
 91
      511
 93
      113
310
904313A31364000000000000304000
  0
ACAD_PROXY_OBJECT
  5
19DFE
102
{ACAD_REACTORS
330
19DF6
102
}
330
19DF6
100
AcDbZombieObject
 90
      499
 91
      511
 93
      113
310
904313A32304000000000000344000
  0
ACAD_PROXY_OBJECT
  5
19DFF
102
{ACAD_REACTORS
330
19DF6
102
}
330
19DF6
100
AcDbZombieObject
 90
      499
 91
      511
 93
      113
310
904313A333040000000000003E4000
  0
ACAD_PROXY_OBJECT
  5
19E00
102
{ACAD_REACTORS
330
19DF6
102
}
330
19DF6
100
AcDbZombieObject
 90
      499
 91
      511
 93
      113
310
904313A34304000000000000444000
  0
ACAD_PROXY_OBJECT
  5
19E01
102
{ACAD_REACTORS
330
19DF6
102
}
330
19DF6
100
AcDbZombieObject
 90
      499
 91
      511
 93
      113
310
904313A35304000000000000494000
  0
ACAD_PROXY_OBJECT
  5
19E02
102
{ACAD_REACTORS
330
19DF6
102
}
330
19DF6
100
AcDbZombieObject
 90
      499
 91
      511
 93
      121
310
905313A3130304000000000000594000
  0
ACAD_PROXY_OBJECT
  5
19E03
102
{ACAD_REACTORS
330
19DF6
102
}
330
19DF6
100
AcDbZombieObject
 90
      499
 91
      511
 93
      105
310
903323A310000000000000010100
  0
ACAD_PROXY_OBJECT
  5
19E04
102
{ACAD_REACTORS
330
19DF6
102
}
330
19DF6
100
AcDbZombieObject
 90
      499
 91
      511
 93
      105
310
903343A310000000000000410100
  0
ACAD_PROXY_OBJECT
  5
19E05
102
{ACAD_REACTORS
330
19DF6
102
}
330
19DF6
100
AcDbZombieObject
 90
      499
 91
      511
 93
      105
310
903383A310000000000000810100
  0
ACAD_PROXY_OBJECT
  5
19E06
102
{ACAD_REACTORS
330
19DF6
102
}
330
19DF6
100
AcDbZombieObject
 90
      499
 91
      511
 93
      113
310
90431303A310000000000000910100
  0
ACAD_PROXY_OBJECT
  5
19E07
102
{ACAD_REACTORS
330
19DF6
102
}
330
19DF6
100
AcDbZombieObject
 90
      499
 91
      511
 93
      121
310
9053130303A310000000000001650100
  0
ACAD_PROXY_OBJECT
  5
19E08
102
{ACAD_REACTORS
330
19DF6
102
}
330
19DF6
100
AcDbZombieObject
 90
      499
 91
      511
 93
      257
310
90E312F31323822203D2031272D3022000000000000200FC000000000000284000
  0
ACAD_PROXY_OBJECT
  5
19E09
102
{ACAD_REACTORS
330
19DF6
102
}
330
19DF6
100
AcDbZombieObject
 90
      499
 91
      511
 93
      249
310
90D312F363422203D2031272D3022000000000000240FC000000000000284000
  0
ACAD_PROXY_OBJECT
  5
19E0A
102
{ACAD_REACTORS
330
19DF6
102
}
330
19DF6
100
AcDbZombieObject
 90
      499
 91
      511
 93
      249
310
90D312F333222203D2031272D3022000000000000280FC000000000000284000
  0
ACAD_PROXY_OBJECT
  5
19E0B
102
{ACAD_REACTORS
330
19DF6
102
}
330
19DF6
100
AcDbZombieObject
 90
      499
 91
      511
 93
      249
310
90D312F313622203D2031272D30220000000000002C0FC000000000000284000
  0
ACAD_PROXY_OBJECT
  5
19E0C
102
{ACAD_REACTORS
330
19DF6
102
}
330
19DF6
100
AcDbZombieObject
 90
      499
 91
      511
 93
      249
310
90D332F333222203D2031272D30220000000000002E0FC000000000000284000
  0
ACAD_PROXY_OBJECT
  5
19E0D
102
{ACAD_REACTORS
330
19DF6
102
}
330
19DF6
100
AcDbZombieObject
 90
      499
 91
      511
 93
      241
310
90C312F3822203D2031272D3022000000000000300FC000000000000284000
  0
ACAD_PROXY_OBJECT
  5
19E0E
102
{ACAD_REACTORS
330
19DF6
102
}
330
19DF6
100
AcDbZombieObject
 90
      499
 91
      511
 93
      249
310
90D332F313622203D2031272D3022000000000000320FC000000000000284000
  0
ACAD_PROXY_OBJECT
  5
19E0F
102
{ACAD_REACTORS
330
19DF6
102
}
330
19DF6
100
AcDbZombieObject
 90
      499
 91
      511
 93
      241
310
90C312F3422203D2031272D3022000000000000340FC000000000000284000
  0
ACAD_PROXY_OBJECT
  5
19E10
102
{ACAD_REACTORS
330
19DF6
102
}
330
19DF6
100
AcDbZombieObject
 90
      499
 91
      511
 93
      241
310
90C332F3822203D2031272D3022000000000000360FC000000000000284000
  0
ACAD_PROXY_OBJECT
  5
19E11
102
{ACAD_REACTORS
330
19DF6
102
}
330
19DF6
100
AcDbZombieObject
 90
      499
 91
      511
 93
      241
310
90C312F3222203D2031272D3022000000000000380FC000000000000284000
  0
ACAD_PROXY_OBJECT
  5
19E12
102
{ACAD_REACTORS
330
19DF6
102
}
330
19DF6
100
AcDbZombieObject
 90
      499
 91
      511
 93
      241
310
90C332F3422203D2031272D30220000000000003A0FC000000000000284000
  0
ACAD_PROXY_OBJECT
  5
19E13
102
{ACAD_REACTORS
330
19DF6
102
}
330
19DF6
100
AcDbZombieObject
 90
      499
 91
      511
 93
      161
310
90A3122203D2031272D30224000000000000284000
  0
ACAD_PROXY_OBJECT
  5
19E14
102
{ACAD_REACTORS
330
19DF6
102
}
330
19DF6
100
AcDbZombieObject
 90
      499
 91
      511
 93
      257
310
90E312D312F3222203D2031272D30220000000000003E0FC000000000000284000
  0
ACAD_PROXY_OBJECT
  5
19E15
102
{ACAD_REACTORS
330
19DF6
102
}
330
19DF6
100
AcDbZombieObject
 90
      499
 91
      511
 93
      225
310
90A3322203D2031272D302200000000000002100000000000000284000
  0
ACAD_PROXY_OBJECT
  5
19E16
102
{ACAD_REACTORS
330
19DF6
102
}
330
19DF6
100
AcDbZombieObject
 90
      499
 91
      511
 93
      225
310
90A3622203D2031272D302200000000000006100000000000000284000
  0
ACAD_PROXY_OBJECT
  5
19E17
102
{ACAD_REACTORS
330
19DF6
102
}
330
19DF6
100
AcDbZombieObject
 90
      499
 91
      511
 93
      249
310
90D31272D3022203D2031272D30220000000000000A100000000000000284000
  0
ACAD_PROXY_OBJECT
  5
19DEB
102
{ACAD_REACTORS
330
19DE5
102
}
330
19DE5
100
AcDbZombieObject
 90
      499
 91
      510
 93
      436
310
42CC9915DA5C99599C985B595049028333333333333E3BF0000000000000FB0107901411070040501600405405064090741402480A0340
1001
ACAD
1000
AcDbSavedByObjectVersion
1070
     0
  0
ACAD_PROXY_OBJECT
  5
19DED
102
{ACAD_REACTORS
330
19DE5
102
}
330
19DE5
100
AcDbZombieObject
 90
      499
 91
      510
 93
      500
310
424CD108121A5919195B90640502408333333333333E3BF0000000000000FB01079024090700405020000000000001110200405405064090740C02480A0340
1001
ACAD
1000
AcDbSavedByObjectVersion
1070
     0
  0
ACAD_PROXY_OBJECT
  5
19DEC
102
{ACAD_REACTORS
330
19DE5
102
}
330
19DE5
100
AcDbZombieObject
 90
      499
 91
      510
 93
      436
310
42CCD915DA5C99599C985B595059028333333333333E3BF0000000000000FB0107901411070040501600405405064090741402480A0340
1001
ACAD
1000
AcDbSavedByObjectVersion
1070
     0
  0
ACAD_PROXY_OBJECT
  5
19DEA
102
{ACAD_REACTORS
330
19DE5
102
}
330
19DE5
100
AcDbZombieObject
 90
      499
 91
      510
 93
      388
310
4150985CDA58D07406404333333333333E3BF0000000000000FB0107A41107004050150841D405064090741402480A0350
1001
ACAD
1000
AcDbSavedByObjectVersion
1070
     0
  0
ACAD_PROXY_OBJECT
  5
19DF1
102
{ACAD_REACTORS
330
19DE5
102
}
330
19DE5
100
AcDbZombieObject
 90
      499
 91
      510
 93
      428
310
42109C9A59DA1D195B90C409028333333333333E3BF0000000000000FB010790141107004050150841D405064090741402480A029950
1001
ACAD
1000
AcDbSavedByObjectVersion
1070
     0
  0
ACAD_PROXY_OBJECT
  5
19DF5
102
{ACAD_REACTORS
330
19DE5
102
}
330
19DE5
100
AcDbZombieObject
 90
      499
 91
      510
 93
      452
310
42D0DBDB1BDC90DA185B99D95104090240C333333333333E3BF0000000000000FB0108901411070040501508421405064090741402480A0350
1001
ACAD
1000
AcDbSavedByObjectVersion
1070
     0
  0
ACAD_PROXY_OBJECT
  5
19DEE
102
{ACAD_REACTORS
330
19DE5
102
}
330
19DE5
100
AcDbZombieObject
 90
      499
 91
      510
 93
      500
310
4290DBDB98D95C1D1D585B10940D028333333333333E3BF0000000000000FB0107902409070040501000000000000111010841D405064090740C02480A0340
1001
ACAD
1000
AcDbSavedByObjectVersion
1070
     0
  0
ACAD_PROXY_OBJECT
  5
19DF0
102
{ACAD_REACTORS
330
19DE5
102
}
330
19DE5
100
AcDbZombieObject
 90
      499
 91
      510
 93
      412
310
40D11A5B50B409028333333333333E3BF0000000000000FB010790141107004050150841D405064090741402480A02677FFFFFD0
1001
ACAD
1000
AcDbSavedByObjectVersion
1070
     0
  0
ACAD_PROXY_OBJECT
  5
1E02A
102
{ACAD_REACTORS
330
19DE5
102
}
330
19DE5
100
AcDbZombieObject
 90
      499
 91
      510
 93
      452
310
43115919D950DBDB1BDC93D999916409028333333333333E3BF0000000000000FB010790141107004050150841D405064090741402480A0350
1001
ACAD
1000
AcDbSavedByObjectVersion
1070
     0
  0
ACAD_PROXY_OBJECT
  5
19DF4
102
{ACAD_REACTORS
330
19DE5
102
}
330
19DE5
100
AcDbZombieObject
 90
      499
 91
      510
 93
      444
310
42D19858D95C185D1D195C9B90F409028333333333333E3BF0000000000000FB010790141107004050150841D405064090741402480A0350
1001
ACAD
1000
AcDbSavedByObjectVersion
1070
     0
  0
ACAD_PROXY_OBJECT
  5
19DE6
102
{ACAD_REACTORS
330
19DE5
102
}
330
19DE5
100
AcDbZombieObject
 90
      499
 91
      510
 93
      388
310
41119B185D240901404333333333333E3BF0000000000000F9010740A41107004050150841D405064090741402480A1B50
1001
ACAD
1000
AcDbSavedByObjectVersion
1070
     0
  0
ACAD_PROXY_OBJECT
  5
19DE7
102
{ACAD_REACTORS
330
19DE5
102
}
330
19DE5
100
AcDbZombieObject
 90
      499
 91
      510
 93
      476
310
43519B185D15DA5D1A115919D95CD0140901404333333333333E3BF0000000000000F9010740901411070040501600405405064090741402480A1B50
1001
ACAD
1000
AcDbSavedByObjectVersion
1070
     0
  0
ACAD_PROXY_OBJECT
  5
19DE8
102
{ACAD_REACTORS
330
19DE5
102
}
330
19DE5
100
AcDbZombieObject
 90
      499
 91
      510
 93
      412
310
41D1DBDD5C985D5910240902404333333333333E3BF0000000000000F9010740A411070040501641D405064090741402480A1B50
1001
ACAD
1000
AcDbSavedByObjectVersion
1070
     0
  0
ACAD_PROXY_OBJECT
  5
19DE9
102
{ACAD_REACTORS
330
19DE5
102
}
330
19DE5
100
AcDbZombieObject
 90
      499
 91
      510
 93
      500
310
4411DBDD5C985D5915DA5D1A115919D95CD0340902404333333333333E3BF0000000000000F9010740901411070040501600405405064090741402480A1B50
1001
ACAD
1000
AcDbSavedByObjectVersion
1070
     0
  0
ACAD_PROXY_OBJECT
  5
21D79
102
{ACAD_REACTORS
330
19DE5
102
}
330
19DE5
100
AcDbZombieObject
 90
      499
 91
      510
 93
      476
310
41921A5919195B90640502408333333333333E3BF0000000000000FB01079024090700405020000000000001110200405405064090740C02480A0340
1001
ACAD
1000
AcDbSavedByObjectVersion
1070
     0
  0
ACAD_PROXY_OBJECT
  5
1E028
102
{ACAD_REACTORS
330
19DE5
102
}
330
19DE5
100
AcDbZombieObject
 90
      499
 91
      510
 93
      428
310
42529A5D1D195C93D999914409028333333333333E3BF0000000000000FB010790141107004050150A41D405064090741402480A0350
1001
ACAD
1000
AcDbSavedByObjectVersion
1070
     0
  0
ACAD_PROXY_OBJECT
  5
19DF3
102
{ACAD_REACTORS
330
19DE5
102
}
330
19DE5
100
AcDbZombieObject
 90
      499
 91
      510
 93
      444
310
42D31A5B995C185D1D195C9B90E409028333333333333E3BF0000000000000FB010790141107004050750841D405064090741402483A0350
1001
ACAD
1000
AcDbSavedByObjectVersion
1070
     0
  0
ACAD_PROXY_OBJECT
  5
227AD
102
{ACAD_REACTORS
330
19DE5
102
}
330
19DE5
100
AcDbZombieObject
 90
      499
 91
      510
 93
      484
310
42135BD9195B1A5B99D0A409038333333333333E33F0000000000000F901074090290700405010000000000201990108421405064090741402480A1B40
1001
ACAD
1000
AcDbSavedByObjectVersion
1070
     0
  0
ACAD_PROXY_OBJECT
  5
1E029
102
{ACAD_REACTORS
330
19DE5
102
}
330
19DE5
100
AcDbZombieObject
 90
      499
 91
      510
 93
      444
310
42D3DD995C9A185B99D3D999915409028333333333333E3BF0000000000000FB010790141107004050150941D405064090741402480A0350
1001
ACAD
1000
AcDbSavedByObjectVersion
1070
     0
  0
ACAD_PROXY_OBJECT
  5
19DEF
102
{ACAD_REACTORS
330
19DE5
102
}
330
19DE5
100
AcDbZombieObject
 90
      499
 91
      510
 93
      420
310
425499585B1A5CDD1A58D08409028333333333333E3BF0000000000000FB01079019070040501508421405064090741402480A1B40
1001
ACAD
1000
AcDbSavedByObjectVersion
1070
     0
  0
ACAD_PROXY_OBJECT
  5
21D7E
102
{ACAD_REACTORS
330
19DE5
102
}
330
19DE5
100
AcDbZombieObject
 90
      499
 91
      510
 93
      420
310
4194DA1859195911B40902404333333333333E3BF0000000000000F9010740A41107004050150800405405064090840C02480A0B40
1001
ACAD
1000
AcDbSavedByObjectVersion
1070
     0
  0
ACAD_PROXY_OBJECT
  5
21D7D
102
{ACAD_REACTORS
330
19DE5
102
}
330
19DE5
100
AcDbZombieObject
 90
      499
 91
      510
 93
      516
310
4454DA18591959081DDA5D1A08195919D95CD1A40902404333333333333E3BF0000000000000F901074090142907004050250800405405064090740C02480A0B40
1001
ACAD
1000
AcDbSavedByObjectVersion
1070
     0
  0
ACAD_PROXY_OBJECT
  5
21D7A
102
{ACAD_REACTORS
330
19DE5
102
}
330
19DE5
100
AcDbZombieObject
 90
      499
 91
      510
 93
      532
310
4394DA1859195CC81BD98811DC985E5174090240C333333333333E3BF0000000000000FB01079024090741D01000000000000111010841D405064090740C02480A0340
1001
ACAD
1000
AcDbSavedByObjectVersion
1070
     0
  0
ACAD_PROXY_OBJECT
  5
21D7B
102
{ACAD_REACTORS
330
19DE5
102
}
330
19DE5
100
AcDbZombieObject
 90
      499
 91
      510
 93
      476
310
41D4DAD95D18DA1E51840502408333333333333E3BF0000000000000FB01079024090741D01000000000000111010B41D405064090741802480A0340
1001
ACAD
1000
AcDbSavedByObjectVersion
1070
     0
  0
ACAD_PROXY_OBJECT
  5
19DF2
102
{ACAD_REACTORS
330
19DE5
102
}
330
19DE5
100
AcDbZombieObject
 90
      499
 91
      510
 93
      412
310
41D51A1A58DAD95B90D409028333333333333E3BF0000000000000FB010790141107004050150C41D405064090741402480A0350
1001
ACAD
1000
AcDbSavedByObjectVersion
1070
     0
  0
ACAD_PROXY_OBJECT
  5
21D78
102
{ACAD_REACTORS
330
19DE5
102
}
330
19DE5
100
AcDbZombieObject
 90
      499
 91
      510
 93
      420
310
4255DA5C99599C985B595059028333333333333E3BF0000000000000FB0107901411070040501600405405064090740C02480A0340
1001
ACAD
1000
AcDbSavedByObjectVersion
1070
     0
  0
ACAD_PROXY_OBJECT
  5
21D7C
102
{ACAD_REACTORS
330
19DE5
102
}
330
19DE5
100
AcDbZombieObject
 90
      499
 91
      510
 93
      404
310
41560B54985E51940902404000000000000E03F0000000000000FB010740501907004050150841D405064090740C02480A1B40
1001
ACAD
1000
AcDbSavedByObjectVersion
1070
     0
  0
XRECORD
  5
22A70
102
{ACAD_REACTORS
330
22A6F
102
}
330
22A6F
100
AcDbXrecord
340
2D0
  0
XRECORD
  5
22A71
102
{ACAD_REACTORS
330
22A6F
102
}
330
22A6F
100
AcDbXrecord
340
2CF
  0
DICTIONARYVAR
  5
1AC1A
102
{ACAD_REACTORS
330
37
102
}
330
37
100
DictionaryVariables
280
     0
  1
1:1
  0
DICTIONARYVAR
  5
1AC19
102
{ACAD_REACTORS
330
37
102
}
330
37
100
DictionaryVariables
280
     0
  1
Standard
  0
DICTIONARYVAR
  5
4F1
102
{ACAD_REACTORS
330
37
102
}
330
37
100
DictionaryVariables
280
     0
  1
Standard
  0
DICTIONARYVAR
  5
38
102
{ACAD_REACTORS
330
37
102
}
330
37
100
DictionaryVariables
280
     0
  1
-1
  0
DICTIONARYVAR
  5
408
102
{ACAD_REACTORS
330
37
102
}
330
37
100
DictionaryVariables
280
     0
  1
2
  0
DICTIONARYVAR
  5
1891
102
{ACAD_REACTORS
330
37
102
}
330
37
100
DictionaryVariables
280
     0
  1
1
  0
DICTIONARYVAR
  5
1AC1C
102
{ACAD_REACTORS
330
37
102
}
330
37
100
DictionaryVariables
280
     0
  1
0
  0
DICTIONARYVAR
  5
1895
102
{ACAD_REACTORS
330
37
102
}
330
37
100
DictionaryVariables
280
     0
  1
8
  0
DICTIONARYVAR
  5
1894
102
{ACAD_REACTORS
330
37
102
}
330
37
100
DictionaryVariables
280
     0
  1
1
  0
DICTIONARYVAR
  5
227B3
102
{ACAD_REACTORS
330
37
102
}
330
37
100
DictionaryVariables
280
     0
  1
0
  0
DICTIONARYVAR
  5
1892
102
{ACAD_REACTORS
330
37
102
}
330
37
100
DictionaryVariables
280
     0
  1
8
  0
DICTIONARYVAR
  5
1893
102
{ACAD_REACTORS
330
37
102
}
330
37
100
DictionaryVariables
280
     0
  1
2
  0
DICTIONARYVAR
  5
409
102
{ACAD_REACTORS
330
37
102
}
330
37
100
DictionaryVariables
280
     0
  1

  0
DICTIONARYVAR
  5
1AC1B
102
{ACAD_REACTORS
330
37
102
}
330
37
100
DictionaryVariables
280
     0
  1
127
  0
DICTIONARYVAR
  5
227AC
102
{ACAD_REACTORS
330
37
102
}
330
37
100
DictionaryVariables
280
     0
  1
2
  0
DICTIONARY
  5
22C0D
330
19DD5
100
AcDbDictionary
  3
ACAD_XREC_ROUNDTRIP
360
22C0E
1001
ACAD
1000
TREAT_AS_HARD
1070
     1
  0
DICTIONARY
  5
22C0F
330
19DCD
100
AcDbDictionary
  3
ACAD_XREC_ROUNDTRIP
360
22C10
1001
ACAD
1000
TREAT_AS_HARD
1070
     1
  0
DICTIONARY
  5
22C11
330
19DDD
100
AcDbDictionary
  3
ACAD_XREC_ROUNDTRIP
360
22C12
1001
ACAD
1000
TREAT_AS_HARD
1070
     1
  0
XRECORD
  5
22C0E
102
{ACAD_REACTORS
330
22C0D
102
}
330
22C0D
100
AcDbXrecord
102
MATERIAL
148
0.0
149
0.0
149
0.0
 93
        0
 94
      127
282
     0
 72
     0
 77
     0
171
     0
175
     0
179
     0
273
     0
  0
XRECORD
  5
22C10
102
{ACAD_REACTORS
330
22C0F
102
}
330
22C0F
100
AcDbXrecord
102
MATERIAL
148
0.0
149
0.0
149
0.0
 93
        0
 94
      127
282
     0
 72
     0
 77
     0
171
     0
175
     0
179
     0
273
     0
  0
XRECORD
  5
22C12
102
{ACAD_REACTORS
330
22C11
102
}
330
22C11
100
AcDbXrecord
102
MATERIAL
148
0.0
149
0.0
149
0.0
 93
        0
 94
      127
282
     0
 72
     0
 77
     0
171
     0
175
     0
179
     0
273
     0
  0
ENDSEC
  0
EOF
