  0
SECTION
  2
HEADER
  9
$ACADVER
  1
AC1015
  9
$ACADMAINTVER
 70
    20
  9
$DWGCODEPAGE
  3
ANSI_932
  9
$INSBASE
 10
0.0
 20
0.0
 30
0.0
  9
$EXTMIN
 10
165.0162416153649
 20
-734.6604890422086
 30
0.0
  9
$EXTMAX
 10
792.2812689286456
 20
-460.0254414909761
 30
0.0
  9
$LIMMIN
 10
0.0
 20
0.0
  9
$LIMMAX
 10
420.0
 20
297.0
  9
$ORTHOMODE
 70
     1
  9
$REGENMODE
 70
     1
  9
$FILLMODE
 70
     1
  9
$QTEXTMODE
 70
     0
  9
$MIRRTEXT
 70
     0
  9
$LTSCALE
 40
0.5
  9
$ATTMODE
 70
     1
  9
$TEXTSIZE
 40
4.0
  9
$TRACEWID
 40
1.0
  9
$TEXTSTYLE
  7
STANDARD
  9
$CLAYER
  8
1TEXT
  9
$CELTYPE
  6
BYLAYER
  9
$CECOLOR
 62
   256
  9
$CELTSCALE
 40
1.0
  9
$DISPSILH
 70
     0
  9
$DIMSCALE
 40
1.0
  9
$DIMASZ
 40
2.0
  9
$DIMEXO
 40
0.0
  9
$DIMDLI
 40
7.0
  9
$DIMRND
 40
0.0
  9
$DIMDLE
 40
0.0
  9
$DIMEXE
 40
1.0
  9
$DIMTP
 40
0.0
  9
$DIMTM
 40
0.0
  9
$DIMTXT
 40
3.5
  9
$DIMCEN
 40
0.0
  9
$DIMTSZ
 40
0.0
  9
$DIMTOL
 70
     0
  9
$DIMLIM
 70
     0
  9
$DIMTIH
 70
     0
  9
$DIMTOH
 70
     0
  9
$DIMSE1
 70
     0
  9
$DIMSE2
 70
     0
  9
$DIMTAD
 70
     1
  9
$DIMZIN
 70
     8
  9
$DIMBLK
  1

  9
$DIMASO
 70
     1
  9
$DIMSHO
 70
     1
  9
$DIMPOST
  1
 
  9
$DIMAPOST
  1

  9
$DIMALT
 70
     0
  9
$DIMALTD
 70
     2
  9
$DIMALTF
 40
25.4
  9
$DIMLFAC
 40
1.0
  9
$DIMTOFL
 70
     1
  9
$DIMTVP
 40
0.0
  9
$DIMTIX
 70
     0
  9
$DIMSOXD
 70
     0
  9
$DIMSAH
 70
     1
  9
$DIMBLK1
  1
OPEN30
  9
$DIMBLK2
  1
OPEN30
  9
$DIMSTYLE
  2
NEWX10
  9
$DIMCLRD
 70
   256
  9
$DIMCLRE
 70
   256
  9
$DIMCLRT
 70
   201
  9
$DIMTFAC
 40
0.7
  9
$DIMGAP
 40
0.7
  9
$DIMJUST
 70
     0
  9
$DIMSD1
 70
     0
  9
$DIMSD2
 70
     0
  9
$DIMTOLJ
 70
     1
  9
$DIMTZIN
 70
     8
  9
$DIMALTZ
 70
     0
  9
$DIMALTTZ
 70
     0
  9
$DIMUPT
 70
     0
  9
$DIMDEC
 70
     2
  9
$DIMTDEC
 70
     4
  9
$DIMALTU
 70
     2
  9
$DIMALTTD
 70
     2
  9
$DIMTXSTY
  7
STANDARD
  9
$DIMAUNIT
 70
     0
  9
$DIMADEC
 70
     2
  9
$DIMALTRND
 40
0.0
  9
$DIMAZIN
 70
     2
  9
$DIMDSEP
 70
    46
  9
$DIMATFIT
 70
     2
  9
$DIMFRAC
 70
     0
  9
$DIMLDRBLK
  1

  9
$DIMLUNIT
 70
     2
  9
$DIMLWD
 70
    -2
  9
$DIMLWE
 70
    -2
  9
$DIMTMOVE
 70
     0
  9
$LUNITS
 70
     2
  9
$LUPREC
 70
     4
  9
$SKETCHINC
 40
1.0
  9
$FILLETRAD
 40
0.0
  9
$AUNITS
 70
     0
  9
$AUPREC
 70
     2
  9
$MENU
  1
acad
  9
$ELEVATION
 40
0.0
  9
$PELEVATION
 40
0.0
  9
$THICKNESS
 40
0.0
  9
$LIMCHECK
 70
     0
  9
$CHAMFERA
 40
1.0
  9
$CHAMFERB
 40
1.0
  9
$CHAMFERC
 40
20.0
  9
$CHAMFERD
 40
0.0
  9
$SKPOLY
 70
     0
  9
$TDCREATE
 40
2453033.732663484
  9
$TDUCREATE
 40
2453033.357663484
  9
$TDUPDATE
 40
2457351.718405486
  9
$TDUUPDATE
 40
2457351.343405486
  9
$TDINDWG
 40
2.5555309259
  9
$TDUSRTIMER
 40
2.5555309259
  9
$USRTIMER
 70
     1
  9
$ANGBASE
 50
0.0
  9
$ANGDIR
 70
     0
  9
$PDMODE
 70
     0
  9
$PDSIZE
 40
0.0
  9
$PLINEWID
 40
0.0
  9
$SPLFRAME
 70
     0
  9
$SPLINETYPE
 70
     6
  9
$SPLINESEGS
 70
     8
  9
$HANDSEED
  5
2231C
  9
$SURFTAB1
 70
     6
  9
$SURFTAB2
 70
     6
  9
$SURFTYPE
 70
     6
  9
$SURFU
 70
     6
  9
$SURFV
 70
     6
  9
$UCSBASE
  2

  9
$UCSNAME
  2

  9
$UCSORG
 10
0.0
 20
0.0
 30
0.0
  9
$UCSXDIR
 10
1.0
 20
0.0
 30
0.0
  9
$UCSYDIR
 10
0.0
 20
1.0
 30
0.0
  9
$UCSORTHOREF
  2

  9
$UCSORTHOVIEW
 70
     0
  9
$UCSORGTOP
 10
0.0
 20
0.0
 30
0.0
  9
$UCSORGBOTTOM
 10
0.0
 20
0.0
 30
0.0
  9
$UCSORGLEFT
 10
0.0
 20
0.0
 30
0.0
  9
$UCSORGRIGHT
 10
0.0
 20
0.0
 30
0.0
  9
$UCSORGFRONT
 10
0.0
 20
0.0
 30
0.0
  9
$UCSORGBACK
 10
0.0
 20
0.0
 30
0.0
  9
$PUCSBASE
  2

  9
$PUCSNAME
  2

  9
$PUCSORG
 10
0.0
 20
0.0
 30
0.0
  9
$PUCSXDIR
 10
1.0
 20
0.0
 30
0.0
  9
$PUCSYDIR
 10
0.0
 20
1.0
 30
0.0
  9
$PUCSORTHOREF
  2

  9
$PUCSORTHOVIEW
 70
     0
  9
$PUCSORGTOP
 10
0.0
 20
0.0
 30
0.0
  9
$PUCSORGBOTTOM
 10
0.0
 20
0.0
 30
0.0
  9
$PUCSORGLEFT
 10
0.0
 20
0.0
 30
0.0
  9
$PUCSORGRIGHT
 10
0.0
 20
0.0
 30
0.0
  9
$PUCSORGFRONT
 10
0.0
 20
0.0
 30
0.0
  9
$PUCSORGBACK
 10
0.0
 20
0.0
 30
0.0
  9
$USERI1
 70
     0
  9
$USERI2
 70
     0
  9
$USERI3
 70
     0
  9
$USERI4
 70
     0
  9
$USERI5
 70
     0
  9
$USERR1
 40
0.0
  9
$USERR2
 40
0.0
  9
$USERR3
 40
0.0
  9
$USERR4
 40
0.0
  9
$USERR5
 40
0.0
  9
$WORLDVIEW
 70
     1
  9
$SHADEDGE
 70
     3
  9
$SHADEDIF
 70
    70
  9
$TILEMODE
 70
     1
  9
$MAXACTVP
 70
    48
  9
$PINSBASE
 10
0.0
 20
0.0
 30
0.0
  9
$PLIMCHECK
 70
     0
  9
$PEXTMIN
 10
1.000000000000000E+20
 20
1.000000000000000E+20
 30
1.000000000000000E+20
  9
$PEXTMAX
 10
-1.000000000000000E+20
 20
-1.000000000000000E+20
 30
-1.000000000000000E+20
  9
$PLIMMIN
 10
0.0
 20
0.0
  9
$PLIMMAX
 10
420.0
 20
297.0
  9
$UNITMODE
 70
     0
  9
$VISRETAIN
 70
     1
  9
$PLINEGEN
 70
     0
  9
$PSLTSCALE
 70
     1
  9
$TREEDEPTH
 70
  3020
  9
$CMLSTYLE
  2
STANDARD
  9
$CMLJUST
 70
     0
  9
$CMLSCALE
 40
20.0
  9
$PROXYGRAPHICS
 70
     1
  9
$MEASUREMENT
 70
     1
  9
$CELWEIGHT
370
    -1
  9
$ENDCAPS
280
     0
  9
$JOINSTYLE
280
     0
  9
$LWDISPLAY
290
     0
  9
$INSUNITS
 70
     0
  9
$HYPERLINKBASE
  1

  9
$STYLESHEET
  1

  9
$XEDIT
290
     1
  9
$CEPSNTYPE
380
     0
  9
$PSTYLEMODE
290
     1
  9
$FINGERPRINTGUID
  2
{7FF825AD-D9F8-4ECB-8BCF-6AF9BEBE9593}
  9
$VERSIONGUID
  2
{FF7540DB-685E-4BAA-A61A-D93713BD14E7}
  9
$EXTNAMES
290
     1
  9
$PSVPSCALE
 40
0.0
  9
$OLESTARTUP
290
     0
  0
ENDSEC
  0
SECTION
  2
CLASSES
  0
CLASS
  1
DICTIONARYVAR
  2
AcDbDictionaryVar
  3
ObjectDBX Classes
 90
        0
280
     0
281
     0
  0
CLASS
  1
IDBUFFER
  2
AcDbIdBuffer
  3
ObjectDBX Classes
 90
    32768
280
     0
281
     0
  0
CLASS
  1
ACDBDICTIONARYWDFLT
  2
AcDbDictionaryWithDefault
  3
ObjectDBX Classes
 90
        0
280
     0
281
     0
  0
CLASS
  1
ACDBPLACEHOLDER
  2
AcDbPlaceHolder
  3
ObjectDBX Classes
 90
        0
280
     0
281
     0
  0
CLASS
  1
LAYOUT
  2
AcDbLayout
  3
ObjectDBX Classes
 90
        0
280
     0
281
     0
  0
CLASS
  1
TABLESTYLE
  2
AcDbTableStyle
  3
ObjectDBX Classes
 90
     4095
280
     0
281
     0
  0
CLASS
  1
SORTENTSTABLE
  2
AcDbSortentsTable
  3
ObjectDBX Classes
 90
        0
280
     0
281
     0
  0
CLASS
  1
DIMASSOC
  2
AcDbDimAssoc
  3
"AcDbDimAssoc|Product Desc:     AcDim ARX App For Dimension|Company:          Autodesk, Inc.|WEB Address:      www.autodesk.com"
 90
        0
280
     0
281
     0
  0
CLASS
  1
MATERIAL
  2
AcDbMaterial
  3
ObjectDBX Classes
 90
     1153
280
     0
281
     0
  0
CLASS
  1
VISUALSTYLE
  2
AcDbVisualStyle
  3
ObjectDBX Classes
 90
     4095
280
     0
281
     0
  0
CLASS
  1
SCALE
  2
AcDbScale
  3
ObjectDBX Classes
 90
     1153
280
     0
281
     0
  0
CLASS
  1
MLEADERSTYLE
  2
AcDbMLeaderStyle
  3
ACDB_MLEADERSTYLE_CLASS
 90
     4095
280
     0
281
     0
  0
CLASS
  1
CELLSTYLEMAP
  2
AcDbCellStyleMap
  3
ObjectDBX Classes
 90
     1152
280
     0
281
     0
  0
CLASS
  1
EXACXREFPANELOBJECT
  2
ExAcXREFPanelObject
  3
EXAC_ESW
 90
    33793
280
     0
281
     0
  0
CLASS
  1
NPOCOLLECTION
  2
AcDbImpNonPersistentObjectsCollection
  3
ObjectDBX Classes
 90
     1153
280
     0
281
     0
  0
CLASS
  1
AEC_REFEDIT_STATUS_TRACKER
  2
AecDbRefEditStatusTracker
  3
AecArchBase60|Product Desc: Autodesk Architectural Desktop 2007 |Company: Autodesk,Inc. |WEB Address: www.autodesk.com
 90
      129
280
     0
281
     0
  0
ENDSEC
  0
SECTION
  2
TABLES
  0
TABLE
  2
VPORT
  5
8
102
{ACAD_XDICTIONARY
360
1ABDC
102
}
330
0
100
AcDbSymbolTable
 70
     1
  0
VPORT
  5
19DC2
330
8
100
AcDbSymbolTableRecord
100
AcDbViewportTableRecord
  2
*Active
 70
     0
 10
0.0
 20
0.0
 11
1.0
 21
1.0
 12
478.6526196223877
 22
-597.3439824739746
 13
0.0
 23
0.0
 14
10.0
 24
10.0
 15
10.0
 25
10.0
 16
0.0
 26
0.0
 36
1.0
 17
0.0
 27
0.0
 37
0.0
 40
292.084270240403
 41
2.598984771573603
 42
50.0
 43
0.0
 44
0.0
 50
0.0
 51
0.0
 71
     0
 72
   100
 73
     1
 74
     1
 75
     0
 76
     0
 77
     0
 78
     0
281
     0
 65
     1
110
0.0
120
0.0
130
0.0
111
1.0
121
0.0
131
0.0
112
0.0
122
1.0
132
0.0
 79
     0
146
0.0
  0
ENDTAB
  0
TABLE
  2
LTYPE
  5
5
330
0
100
AcDbSymbolTable
 70
    19
  0
LTYPE
  5
12
330
5
100
AcDbSymbolTableRecord
100
AcDbLinetypeTableRecord
  2
BYBLOCK
 70
     0
  3

 72
    65
 73
     0
 40
0.0
  0
LTYPE
  5
13
330
5
100
AcDbSymbolTableRecord
100
AcDbLinetypeTableRecord
  2
BYLAYER
 70
     0
  3

 72
    65
 73
     0
 40
0.0
  0
LTYPE
  5
14
330
5
100
AcDbSymbolTableRecord
100
AcDbLinetypeTableRecord
  2
CONTINUOUS
 70
     0
  3
Solid line
 72
    65
 73
     0
 40
0.0
  0
LTYPE
  5
26
330
5
100
AcDbSymbolTableRecord
100
AcDbLinetypeTableRecord
  2
CENTER2
 70
     0
  3
Center (.5x) ___ _ ___ _ ___ _ ___ _ ___ _ ___
 72
    65
 73
     4
 40
28.575
 49
19.05
 74
     0
 49
-3.174999999999999
 74
     0
 49
3.174999999999999
 74
     0
 49
-3.174999999999999
 74
     0
  0
LTYPE
  5
FF
330
5
100
AcDbSymbolTableRecord
100
AcDbLinetypeTableRecord
  2
HIDDEN
 70
     0
  3
Hidden __ __ __ __ __ __ __ __ __ __ __ __ __ _
 72
    65
 73
     2
 40
9.524999999999998
 49
6.349999999999999
 74
     0
 49
-3.174999999999999
 74
     0
  0
LTYPE
  5
100
330
5
100
AcDbSymbolTableRecord
100
AcDbLinetypeTableRecord
  2
PHANTOM2
 70
     0
  3
Phantom (.5x) ___ _ _ ___ _ _ ___ _ _ ___ _ _
 72
    65
 73
     6
 40
31.75
 49
15.875
 74
     0
 49
-3.174999999999999
 74
     0
 49
3.174999999999999
 74
     0
 49
-3.174999999999999
 74
     0
 49
3.174999999999999
 74
     0
 49
-3.174999999999999
 74
     0
  0
ENDTAB
  0
TABLE
  2
LAYER
  5
2
102
{ACAD_XDICTIONARY
360
18FE8
102
}
330
0
100
AcDbSymbolTable
 70
    44
  0
LAYER
  5
E
102
{ACAD_XDICTIONARY
360
1A20A
102
}
330
2
100
AcDbSymbolTableRecord
100
AcDbLayerTableRecord
  2
0
 70
     0
 62
     7
  6
CONTINUOUS
370
    -3
390
2CE
  0
LAYER
  5
29
102
{ACAD_XDICTIONARY
360
1A20C
102
}
330
2
100
AcDbSymbolTableRecord
100
AcDbLayerTableRecord
  2
1CENTER
 70
     0
 62
     7
  6
CENTER2
370
    -3
390
2CE
  0
LAYER
  5
31
102
{ACAD_XDICTIONARY
360
1A20E
102
}
330
2
100
AcDbSymbolTableRecord
100
AcDbLayerTableRecord
  2
1TEXT
 70
     0
 62
     7
  6
CONTINUOUS
370
    -3
390
2CE
  0
LAYER
  5
101
102
{ACAD_XDICTIONARY
360
1A218
102
}
330
2
100
AcDbSymbolTableRecord
100
AcDbLayerTableRecord
  2
1DIM
 70
     0
 62
     7
  6
CONTINUOUS
370
    -3
390
2CE
  0
LAYER
  5
103
102
{ACAD_XDICTIONARY
360
1A21C
102
}
330
2
100
AcDbSymbolTableRecord
100
AcDbLayerTableRecord
  2
1PHANTOM
 70
     0
 62
     7
  6
PHANTOM2
370
    -3
390
2CE
  0
LAYER
  5
25F
102
{ACAD_XDICTIONARY
360
1A220
102
}
330
2
100
AcDbSymbolTableRecord
100
AcDbLayerTableRecord
  2
01
 70
     0
 62
     1
  6
CONTINUOUS
370
    -3
390
2CE
  0
LAYER
  5
26A
102
{ACAD_XDICTIONARY
360
1A236
102
}
330
2
100
AcDbSymbolTableRecord
100
AcDbLayerTableRecord
  2
1DIM1
 70
     0
 62
     7
  6
CONTINUOUS
370
    -3
390
2CE
  0
LAYER
  5
26D
102
{ACAD_XDICTIONARY
360
1A23C
102
}
330
2
100
AcDbSymbolTableRecord
100
AcDbLayerTableRecord
  2
1HATCH
 70
     0
 62
     7
  6
CONTINUOUS
370
    -3
390
2CE
  0
ENDTAB
  0
TABLE
  2
STYLE
  5
3
330
0
100
AcDbSymbolTable
 70
    25
  0
STYLE
  5
F
330
3
100
AcDbSymbolTableRecord
100
AcDbTextStyleTableRecord
  2
STANDARD
 70
     0
 40
0.0
 41
1.0
 50
0.0
 71
     0
 42
4.0
  3
txt.shx
  4
extfont.shx
  0
ENDTAB
  0
TABLE
  2
VIEW
  5
6
330
0
100
AcDbSymbolTable
 70
     8
  0
ENDTAB
  0
TABLE
  2
UCS
  5
7
330
0
100
AcDbSymbolTable
 70
     0
  0
ENDTAB
  0
TABLE
  2
APPID
  5
9
330
0
100
AcDbSymbolTable
 70
    14
  0
APPID
  5
10
330
9
100
AcDbSymbolTableRecord
100
AcDbRegAppTableRecord
  2
ACAD
 70
     0
  0
APPID
  5
21
330
9
100
AcDbSymbolTableRecord
100
AcDbRegAppTableRecord
  2
DRAWINGVARIABLESXDATA
 70
     0
  0
APPID
  5
64
330
9
100
AcDbSymbolTableRecord
100
AcDbRegAppTableRecord
  2
CONTENTTABDATA
 70
     0
  0
APPID
  5
65
330
9
100
AcDbSymbolTableRecord
100
AcDbRegAppTableRecord
  2
CONTENTCURRENTTAB
 70
     0
  0
APPID
  5
66
330
9
100
AcDbSymbolTableRecord
100
AcDbRegAppTableRecord
  2
CONTENTBLOCKDESCRIPTION
 70
     0
  0
APPID
  5
67
330
9
100
AcDbSymbolTableRecord
100
AcDbRegAppTableRecord
  2
CONTENTBLOCKICON
 70
     0
  0
APPID
  5
68
330
9
100
AcDbSymbolTableRecord
100
AcDbRegAppTableRecord
  2
CONTENTLONGBLOCKNAME
 70
     0
  0
APPID
  5
5A9
330
9
100
AcDbSymbolTableRecord
100
AcDbRegAppTableRecord
  2
ACAD_PSEXT
 70
     0
  0
APPID
  5
18AC
330
9
100
AcDbSymbolTableRecord
100
AcDbRegAppTableRecord
  2
ACAD_DSTYLE_DIMTEXT_FILL
 70
     0
  0
APPID
  5
19E1A
330
9
100
AcDbSymbolTableRecord
100
AcDbRegAppTableRecord
  2
ACAD_MLEADERVER
 70
     0
  0
APPID
  5
1A2FA
330
9
100
AcDbSymbolTableRecord
100
AcDbRegAppTableRecord
  2
ACAD_DSTYLE_DIMRADIAL_EXTENSION
 70
     0
  0
APPID
  5
1DBC1
330
9
100
AcDbSymbolTableRecord
100
AcDbRegAppTableRecord
  2
AcadAnnotative
 70
     0
  0
APPID
  5
1E991
330
9
100
AcDbSymbolTableRecord
100
AcDbRegAppTableRecord
  2
ACAD_EXEMPT_FROM_CAD_STANDARDS
 70
     0
  0
APPID
  5
21721
330
9
100
AcDbSymbolTableRecord
100
AcDbRegAppTableRecord
  2
ACAD_NAV_VCDISPLAY
 70
     0
  0
ENDTAB
  0
TABLE
  2
DIMSTYLE
  5
A
330
0
100
AcDbSymbolTable
 70
    10
100
AcDbDimStyleTable
 71
     1
340
48
  0
DIMSTYLE
105
48
330
A
100
AcDbSymbolTableRecord
100
AcDbDimStyleTableRecord
  2
NEWX10
 70
     0
  3
 
 41
2.0
 42
0.0
 43
7.0
 44
1.0
 73
     0
 74
     0
 77
     1
 78
     8
 79
     2
140
3.5
141
0.0
146
0.7
147
0.7
172
     1
173
     1
176
   256
177
   256
178
   201
179
     2
271
     2
284
     8
289
     2
340
F
343
42
344
42
  0
ENDTAB
  0
TABLE
  2
BLOCK_RECORD
  5
1
330
0
100
AcDbSymbolTable
 70
    37
  0
BLOCK_RECORD
  5
18
102
{ACAD_XDICTIONARY
360
6E9
102
}
330
1
100
AcDbSymbolTableRecord
100
AcDbBlockTableRecord
  2
*MODEL_SPACE
340
2D3
  0
BLOCK_RECORD
  5
15
102
{ACAD_XDICTIONARY
360
59B
102
}
330
1
100
AcDbSymbolTableRecord
100
AcDbBlockTableRecord
  2
*PAPER_SPACE
340
2D4
  0
BLOCK_RECORD
  5
42
330
1
100
AcDbSymbolTableRecord
100
AcDbBlockTableRecord
  2
_OPEN30
340
0
310
2800000020000000200000000100080000000000000400000000000000000000000000000000000000000000000080000080000000808000800000008000800080800000C0C0C000C0DCC000F0CAA6000020400000206000002080000020A0000020C0000020E00000400000004020000040400000406000004080000040A0
310
000040C0000040E00000600000006020000060400000606000006080000060A0000060C0000060E00000800000008020000080400000806000008080000080A0000080C0000080E00000A0000000A0200000A0400000A0600000A0800000A0A00000A0C00000A0E00000C0000000C0200000C0400000C0600000C0800000C0
310
A00000C0C00000C0E00000E0000000E0200000E0400000E0600000E0800000E0A00000E0C00000E0E00040000000400020004000400040006000400080004000A0004000C0004000E00040200000402020004020400040206000402080004020A0004020C0004020E000404000004040200040404000404060004040800040
310
40A0004040C0004040E00040600000406020004060400040606000406080004060A0004060C0004060E00040800000408020004080400040806000408080004080A0004080C0004080E00040A0000040A0200040A0400040A0600040A0800040A0A00040A0C00040A0E00040C0000040C0200040C0400040C0600040C08000
310
40C0A00040C0C00040C0E00040E0000040E0200040E0400040E0600040E0800040E0A00040E0C00040E0E00080000000800020008000400080006000800080008000A0008000C0008000E00080200000802020008020400080206000802080008020A0008020C0008020E00080400000804020008040400080406000804080
310
008040A0008040C0008040E00080600000806020008060400080606000806080008060A0008060C0008060E00080800000808020008080400080806000808080008080A0008080C0008080E00080A0000080A0200080A0400080A0600080A0800080A0A00080A0C00080A0E00080C0000080C0200080C0400080C0600080C0
310
800080C0A00080C0C00080C0E00080E0000080E0200080E0400080E0600080E0800080E0A00080E0C00080E0E000C0000000C0002000C0004000C0006000C0008000C000A000C000C000C000E000C0200000C0202000C0204000C0206000C0208000C020A000C020C000C020E000C0400000C0402000C0404000C0406000C0
310
408000C040A000C040C000C040E000C0600000C0602000C0604000C0606000C0608000C060A000C060C000C060E000C0800000C0802000C0804000C0806000C0808000C080A000C080C000C080E000C0A00000C0A02000C0A04000C0A06000C0A08000C0A0A000C0A0C000C0A0E000C0C00000C0C02000C0C04000C0C06000
310
C0C08000C0C0A000F0FBFF00A4A0A000808080000000FF0000FF000000FFFF00FF000000FF00FF00FFFF0000FFFFFF0051515151515151515151515151515151515151515151515151515151515151515151515151515151515151515151515151515151515151515151515151515151515151515151515151515151515151
310
51515151515151515151515151515151515151515151515151515151515151515151515151515151515151515151515151515151515151515151515151515151515151515151515151515151515151515151515151515151515151515151515151515151515151515151515151515151515151515151515151515151515151
310
515151515151515151515151515151515151515151515151515151515151515151515151515151515151515151515151515151FFFF5151515151515151515151515151515151515151515151515151515151515151FFFFFFFF5151515151515151515151515151515151515151515151515151515151515151FFFFFFFF5151
310
515151515151515151515151515151515151515151515151515151515151FFFFFF5151515151515151515151515151515151515151515151515151515151515151FFFFFFFF5151515151515151515151515151515151515151515151515151515151515151FFFFFF5151515151515151515151515151515151515151515151
310
515151515151515151FFFFFFFF5151515151515151515151515151515151515151515151515151515151515151FFFFFFFF51515151FFFFFFFFFFFFFFFFFFFFFFFFFFFFFFFFFFFFFFFFFFFFFFFFFFFFFFFFFFFF51515151515151515151515151515151515151515151515151FFFFFFFF515151515151515151515151515151
310
515151515151515151FFFFFFFF515151515151515151515151515151515151515151515151FFFFFFFF515151515151515151515151515151515151515151515151FFFFFFFF515151515151515151515151515151515151515151515151FFFFFFFF515151515151515151515151515151515151515151515151FFFFFFFF5151
310
5151515151515151515151515151515151515151515151FFFFFF5151515151515151515151515151515151515151515151515151515151515151515151515151515151515151515151515151515151515151515151515151515151515151515151515151515151515151515151515151515151515151515151515151515151
310
51515151515151515151515151515151515151515151515151515151515151515151515151515151515151515151515151515151515151515151515151515151515151515151515151515151515151515151515151515151515151515151515151515151515151515151515151515151515151515151515151515151515151
310
5151515151515151515151515151515151515151515151515151515151515151515151515151515151515151515151515151515151515151
  0
ENDTAB
  0
ENDSEC
  0
SECTION
  2
BLOCKS
  0
BLOCK
  5
19
330
18
100
AcDbEntity
  8
0
100
AcDbBlockBegin
  2
*MODEL_SPACE
 70
     0
 10
0.0
 20
0.0
 30
0.0
  3
*MODEL_SPACE
  1

  0
ENDBLK
  5
1A
330
18
100
AcDbEntity
  8
0
100
AcDbBlockEnd
  0
BLOCK
  5
16
330
15
100
AcDbEntity
 67
     1
  8
0
100
AcDbBlockBegin
  2
*PAPER_SPACE
 70
     0
 10
0.0
 20
0.0
 30
0.0
  3
*PAPER_SPACE
  1

  0
ENDBLK
  5
17
330
15
100
AcDbEntity
 67
     1
  8
0
100
AcDbBlockEnd
  0
BLOCK
  5
43
330
42
100
AcDbEntity
  8
0
100
AcDbBlockBegin
  2
_OPEN30
 70
     0
 10
0.0
 20
0.0
 30
0.0
  3
_OPEN30
  1

  0
LINE
  5
44
330
42
100
AcDbEntity
  8
0
  6
ByBlock
 62
     0
100
AcDbLine
 10
-1.0
 20
0.26794919
 30
0.0
 11
0.0
 21
0.0
 31
0.0
  0
LINE
  5
45
330
42
100
AcDbEntity
  8
0
  6
ByBlock
 62
     0
100
AcDbLine
 10
0.0
 20
0.0
 30
0.0
 11
-1.0
 21
-0.26794919
 31
0.0
  0
LINE
  5
46
330
42
100
AcDbEntity
  8
0
  6
ByBlock
 62
     0
100
AcDbLine
 10
0.0
 20
0.0
 30
0.0
 11
-1.0
 21
0.0
 31
0.0
  0
ENDBLK
  5
47
330
42
100
AcDbEntity
  8
0
100
AcDbBlockEnd
  0
ENDSEC
  0
SECTION
  2
ENTITIES
  0
TEXT
  5
1DB9B
330
18
100
AcDbEntity
  8
1TEXT
100
AcDbText
 10
513.3706615454181
 20
-468.025441490976
 30
0.0
 40
8.0
  1
SC-881-X
100
AcDbText
  0
LINE
  5
1DBA4
102
{ACAD_REACTORS
330
1EDFD
102
}
330
18
100
AcDbEntity
  8
01
100
AcDbLine
 10
755.5162416153649
 20
-618.5931567659845
 30
0.0
 11
755.5162416153649
 21
-693.0495039365482
 31
0.0
  0
LINE
  5
1DBA5
102
{ACAD_REACTORS
330
1EDFD
102
}
330
18
100
AcDbEntity
  8
01
100
AcDbLine
 10
764.5162416153649
 20
-618.5931567659845
 30
0.0
 11
764.5162416153649
 21
-693.0495039365482
 31
0.0
  0
LINE
  5
1DBA6
102
{ACAD_REACTORS
330
1EDFD
102
}
330
18
100
AcDbEntity
  8
01
100
AcDbLine
 10
743.0162416153649
 20
-618.5931567659845
 30
0.0
 11
743.0162416153649
 21
-693.0495039365482
 31
0.0
  0
LINE
  5
1E9CD
102
{ACAD_REACTORS
330
1E9D3
102
}
330
18
100
AcDbEntity
  8
01
100
AcDbLine
 10
739.0162416153649
 20
-656.3213302043707
 30
0.0
 11
740.0162416153649
 21
-655.3213305043707
 31
0.0
  0
LINE
  5
1E9CE
102
{ACAD_REACTORS
330
1E9D3
102
}
330
18
100
AcDbEntity
  8
01
100
AcDbLine
 10
739.0162416153649
 20
-659.6213303543707
 30
0.0
 11
740.0162416153649
 21
-659.6213303543707
 31
0.0
  0
LINE
  5
1E9CF
102
{ACAD_REACTORS
330
1E9D3
102
}
330
18
100
AcDbEntity
  8
01
100
AcDbLine
 10
740.0162416153649
 20
-659.6213303543707
 30
0.0
 11
740.0162416153649
 21
-652.0213303543707
 31
0.0
  0
LINE
  5
1E9D0
102
{ACAD_REACTORS
330
1E9D3
102
}
330
18
100
AcDbEntity
  8
01
100
AcDbLine
 10
739.0162416153649
 20
-659.6213303543707
 30
0.0
 11
739.0162416153649
 21
-652.0213303543707
 31
0.0
  0
LINE
  5
1E9D1
102
{ACAD_REACTORS
330
1E9D3
102
}
330
18
100
AcDbEntity
  8
01
100
AcDbLine
 10
739.0162416153649
 20
-652.0213303543707
 30
0.0
 11
740.0162416153649
 21
-652.0213303543707
 31
0.0
  0
LINE
  5
1E9D4
102
{ACAD_REACTORS
330
1E9DA
102
}
330
18
100
AcDbEntity
  8
01
100
AcDbLine
 10
629.5162414684693
 20
-539.8213303512664
 30
0.0
 11
628.5162417684692
 21
-538.8213303512664
 31
0.0
  0
LINE
  5
1E9D5
102
{ACAD_REACTORS
330
1E9DA
102
}
330
18
100
AcDbEntity
  8
01
100
AcDbLine
 10
632.8162416184692
 20
-539.8213303512664
 30
0.0
 11
632.8162416184692
 21
-538.8213303512664
 31
0.0
  0
LINE
  5
1E9D6
102
{ACAD_REACTORS
330
1E9DA
102
}
330
18
100
AcDbEntity
  8
01
100
AcDbLine
 10
632.8162416184692
 20
-538.8213303512664
 30
0.0
 11
625.2162416184693
 21
-538.8213303512664
 31
0.0
  0
LINE
  5
1E9D7
102
{ACAD_REACTORS
330
1E9DA
102
}
330
18
100
AcDbEntity
  8
01
100
AcDbLine
 10
632.8162416184692
 20
-539.8213303512664
 30
0.0
 11
625.2162416184693
 21
-539.8213303512664
 31
0.0
  0
LINE
  5
1E9D8
102
{ACAD_REACTORS
330
1E9DA
102
}
330
18
100
AcDbEntity
  8
01
100
AcDbLine
 10
625.2162416184693
 20
-539.8213303512664
 30
0.0
 11
625.2162416184693
 21
-538.8213303512664
 31
0.0
  0
LINE
  5
1EE56
330
18
100
AcDbEntity
  8
1DIM
100
AcDbLine
 10
514.1139767908746
 20
-471.9283012434967
 30
0.0
 11
584.1139767908747
 21
-471.9283012434967
 31
0.0
  0
LINE
  5
1EE57
330
18
100
AcDbEntity
  8
1DIM
100
AcDbLine
 10
514.1139767908746
 20
-485.9283012434968
 30
0.0
 11
584.1139767908747
 21
-485.9283012434968
 31
0.0
  0
LINE
  5
1EE58
330
18
100
AcDbEntity
  8
1DIM
100
AcDbLine
 10
514.1139767908746
 20
-478.9283012434967
 30
0.0
 11
584.1139767908747
 21
-478.9283012434967
 31
0.0
  0
LINE
  5
1EE5B
330
18
100
AcDbEntity
  8
1DIM
100
AcDbLine
 10
584.1139767908746
 20
-471.9283012434967
 30
0.0
 11
584.1139767908746
 21
-485.9283012434968
 31
0.0
  0
TEXT
  5
1EE5D
330
18
100
AcDbEntity
  8
1TEXT
100
AcDbText
 10
560.0526872584289
 20
-477.4283012434968
 30
0.0
 40
4.0
  1
コード
 72
     1
 11
566.8526872584289
 21
-477.4283012434968
 31
0.0
100
AcDbText
  0
LINE
  5
1EE5E
330
18
100
AcDbEntity
  8
1DIM
100
AcDbLine
 10
549.1139767908746
 20
-485.9283012434968
 30
0.0
 11
549.1139767908746
 21
-471.9283012434967
 31
0.0
  0
TEXT
  5
1EE62
330
18
100
AcDbEntity
  8
1TEXT
100
AcDbText
 10
522.4473101242075
 20
-477.4283012434968
 30
0.0
 40
4.0
  1
表面処理
 72
     1
 11
531.5139767908743
 21
-477.4283012434968
 31
0.0
100
AcDbText
  0
TEXT
  5
1EE63
330
18
100
AcDbEntity
  8
1TEXT
100
AcDbText
 10
522.1806434575409
 20
-484.2635899030211
 30
0.0
 40
4.0
  1
クローム
 72
     1
 11
531.5139767908743
 21
-484.2635899030211
 31
0.0
100
AcDbText
  0
LINE
  5
1EE65
330
18
100
AcDbEntity
  8
1DIM
100
AcDbLine
 10
514.1139767908746
 20
-485.9283012434968
 30
0.0
 11
514.1139767908746
 21
-471.9283012434967
 31
0.0
  0
TEXT
  5
1EE71
330
18
100
AcDbEntity
  8
1TEXT
100
AcDbText
 10
552.6860205917622
 20
-484.642658227146
 30
0.0
 40
4.0
  1
SC-881-XC
 41
0.85
 72
     1
 11
566.8526872584289
 21
-484.642658227146
 31
0.0
100
AcDbText
  0
LINE
  5
1FFFA
330
18
100
AcDbEntity
  8
1CENTER
100
AcDbLine
 10
624.477854212403
 20
-655.8213303512664
 30
0.0
 11
633.5546290183271
 21
-655.8213303512664
 31
0.0
  0
LINE
  5
1FFFD
330
18
100
AcDbEntity
  8
01
  6
Continuous
370
    15
100
AcDbLine
 10
726.666241615365
 20
-664.2213303512662
 30
0.0
 11
726.666241615365
 21
-660.8213303512664
 31
0.0
  0
LINE
  5
20000
330
18
100
AcDbEntity
  8
1PHANTOM
 48
0.3
100
AcDbLine
 10
739.5597225038656
 20
-646.578177531288
 30
0.0
 11
718.564943176014
 21
-658.3876916968954
 31
0.0
  0
LINE
  5
20002
330
18
100
AcDbEntity
  8
01
  6
Continuous
370
    15
100
AcDbLine
 10
743.0162416153649
 20
-667.3213303512664
 30
0.0
 11
743.0162416153649
 21
-646.3213303512661
 31
0.0
  0
LINE
  5
20003
330
18
100
AcDbEntity
  8
1DIM
370
    15
100
AcDbLine
 10
723.0162416153649
 20
-664.5713303512664
 30
0.0
 11
723.0162416153649
 21
-660.8213303512662
 31
0.0
  0
LINE
  5
20004
330
18
100
AcDbEntity
  8
1DIM
370
    15
100
AcDbLine
 10
727.0162416153649
 20
-664.5713303512664
 30
0.0
 11
727.0162416153649
 21
-660.8213303512662
 31
0.0
  0
LINE
  5
20005
330
18
100
AcDbEntity
  8
1PHANTOM
 48
0.3
100
AcDbLine
 10
743.0162416153649
 20
-646.3213303512661
 30
0.0
 11
740.5402418796057
 21
-646.3213303512661
 31
0.0
  0
ARC
  5
20006
330
18
100
AcDbEntity
  8
1PHANTOM
 48
0.3
100
AcDbCircle
 10
740.5402418796057
 20
-648.3213303512662
 30
0.0
 40
2.0
100
AcDbArc
 50
90.0
 51
119.3576515328268
  0
LINE
  5
20007
330
18
100
AcDbEntity
  8
1PHANTOM
 48
0.3
100
AcDbLine
 10
716.0162416153649
 20
-663.3213303512664
 30
0.0
 11
716.0162416153649
 21
-662.7455737468408
 31
0.0
  0
ARC
  5
20008
330
18
100
AcDbEntity
  8
1PHANTOM
 48
0.3
100
AcDbCircle
 10
721.0162416153649
 20
-662.7455737468408
 30
0.0
 40
5.0
100
AcDbArc
 50
119.3576515328268
 51
180.0
  0
LINE
  5
20009
330
18
100
AcDbEntity
  8
1PHANTOM
 48
0.3
100
AcDbLine
 10
716.0162416153649
 20
-663.3213303512664
 30
0.0
 11
716.0162416153649
 21
-663.8213303512664
 31
0.0
  0
LINE
  5
2000B
330
18
100
AcDbEntity
  8
1PHANTOM
 48
0.3
100
AcDbLine
 10
717.0162416153649
 20
-664.8213303512664
 30
0.0
 11
740.0162416153649
 21
-664.8213303512664
 31
0.0
  0
LINE
  5
2000C
330
18
100
AcDbEntity
  8
01
  6
Continuous
370
    15
100
AcDbLine
 10
740.0162416153649
 20
-658.0713303512664
 30
0.0
 11
740.0162416153649
 21
-653.5713303512664
 31
0.0
  0
LINE
  5
2000E
330
18
100
AcDbEntity
  8
01
  6
Continuous
370
    15
100
AcDbLine
 10
740.0162416153649
 20
-653.5713303512664
 30
0.0
 11
740.0162416153649
 21
-658.0713303512664
 31
0.0
  0
LINE
  5
20015
330
18
100
AcDbEntity
  8
1PHANTOM
 48
0.3
100
AcDbLine
 10
740.0162416153649
 20
-666.8213303512664
 30
0.0
 11
743.0162416153649
 21
-666.8213303512664
 31
0.0
  0
LINE
  5
20018
330
18
100
AcDbEntity
  8
1PHANTOM
 48
0.3
100
AcDbLine
 10
740.0162416153649
 20
-664.8213303512664
 30
0.0
 11
740.0162416153649
 21
-666.8213303512662
 31
0.0
  0
LINE
  5
20019
330
18
100
AcDbEntity
  8
01
  6
Continuous
370
    15
100
AcDbLine
 10
743.0162416153649
 20
-658.0713303512664
 30
0.0
 11
740.0162416153649
 21
-658.0713303512664
 31
0.0
  0
LINE
  5
2001A
330
18
100
AcDbEntity
  8
01
  6
Continuous
370
    15
100
AcDbLine
 10
743.0162416153649
 20
-653.5713303512664
 30
0.0
 11
740.0162416153649
 21
-653.5713303512664
 31
0.0
  0
LINE
  5
2001B
330
18
100
AcDbEntity
  8
1CENTER
370
    15
100
AcDbLine
 10
743.0162416153649
 20
-655.8213303512664
 30
0.0
 11
740.0162416153649
 21
-655.8213303512664
 31
0.0
  0
LINE
  5
2001C
330
18
100
AcDbEntity
  8
1PHANTOM
 48
0.3
100
AcDbLine
 10
740.0162416153649
 20
-666.8213303512664
 30
0.0
 11
740.0162416153649
 21
-666.3213303512663
 31
0.0
  0
ARC
  5
2001D
330
18
100
AcDbEntity
  8
1PHANTOM
 48
0.3
100
AcDbCircle
 10
717.0162416153649
 20
-663.8213303512664
 30
0.0
 40
1.0
100
AcDbArc
 50
180.0
 51
270.0
  0
LINE
  5
20060
330
18
100
AcDbEntity
  8
01
  6
Continuous
370
    15
100
AcDbLine
 10
743.0162416153649
 20
-670.0213298997612
 30
0.0
 11
687.8922051714795
 21
-663.1308257444532
 31
0.0
  0
LINE
  5
20068
330
18
100
AcDbEntity
  8
01
  6
Continuous
370
    15
100
AcDbLine
 10
743.0162416153649
 20
-670.0213298997612
 30
0.0
 11
743.0162416153649
 21
-642.5213300487728
 31
0.0
  0
LINE
  5
20069
330
18
100
AcDbEntity
  8
01
  6
Continuous
370
    15
100
AcDbLine
 10
687.0162398868302
 20
-662.1385481073291
 30
0.0
 11
687.0162398868302
 21
-652.8659746463488
 31
0.0
  0
LINE
  5
2006A
330
18
100
AcDbEntity
  8
01
  6
Continuous
370
    15
100
AcDbLine
 10
743.0162416153649
 20
-642.5213300487728
 30
0.0
 11
687.8489866270776
 21
-651.8800606809836
 31
0.0
  0
ARC
  5
2006B
330
18
100
AcDbEntity
  8
01
  6
Continuous
370
    15
100
AcDbCircle
 10
688.0162398868302
 20
-652.8659746463488
 30
0.0
 40
1.0
100
AcDbArc
 50
99.62815600256494
 51
180.0
  0
ARC
  5
2006E
330
18
100
AcDbEntity
  8
01
  6
Continuous
370
    15
100
AcDbCircle
 10
688.0162398868302
 20
-662.1385480015986
 30
0.0
 40
1.0
100
AcDbArc
 50
180.0
 51
262.874983651095
  0
LINE
  5
20081
330
18
100
AcDbEntity
  8
1DIM
  6
HIDDEN
370
    15
100
AcDbLine
 10
622.5605001750194
 20
-535.8213303512664
 30
0.0
 11
621.7207358451254
 21
-535.8213303512664
 31
0.0
  0
LINE
  5
20084
330
18
100
AcDbEntity
  8
1DIM
  6
HIDDEN
370
    15
100
AcDbLine
 10
622.5605001750194
 20
-535.8213303512664
 30
0.0
 11
635.4719830557106
 21
-535.8213303512664
 31
0.0
  0
LINE
  5
20087
330
18
100
AcDbEntity
  8
1DIM
  6
HIDDEN
370
    15
100
AcDbLine
 10
636.3117473856046
 20
-535.8213303512664
 30
0.0
 11
635.4719830557106
 21
-535.8213303512664
 31
0.0
  0
LINE
  5
200A5
330
18
100
AcDbEntity
  8
1DIM
  6
HIDDEN
370
    15
100
AcDbLine
 10
618.4264772854709
 20
-535.8213303512664
 30
0.0
 11
621.7207358451254
 21
-535.8213303512664
 31
0.0
  0
LINE
  5
200A6
330
18
100
AcDbEntity
  8
1DIM
  6
HIDDEN
370
    15
100
AcDbLine
 10
639.6060059452592
 20
-535.8213303512664
 30
0.0
 11
636.3117473856046
 21
-535.8213303512664
 31
0.0
  0
LINE
  5
200AF
330
18
100
AcDbEntity
  8
1PHANTOM
 48
0.3
100
AcDbLine
 10
618.2662416153649
 20
-535.8213303512664
 30
0.0
 11
618.2607747631891
 21
-552.8213303512663
 31
0.0
  0
LINE
  5
200B0
330
18
100
AcDbEntity
  8
1DIM
  6
HIDDEN
370
    15
100
AcDbLine
 10
618.4264772854709
 20
-535.8213303512664
 30
0.0
 11
618.2662416153649
 21
-535.8213303512664
 31
0.0
  0
LINE
  5
200B1
330
18
100
AcDbEntity
  8
1PHANTOM
 48
0.3
100
AcDbLine
 10
639.7662416153649
 20
-552.8213303512663
 30
0.0
 11
639.7662416153649
 21
-535.8213303512664
 31
0.0
  0
LINE
  5
200B2
330
18
100
AcDbEntity
  8
1DIM
  6
HIDDEN
370
    15
100
AcDbLine
 10
639.7662416153649
 20
-535.8213303512664
 30
0.0
 11
639.6060059452592
 21
-535.8213303512664
 31
0.0
  0
LINE
  5
200BD
330
18
100
AcDbEntity
  8
1PHANTOM
 48
0.3
100
AcDbLine
 10
618.2662416153649
 20
-562.8213303512664
 30
0.0
 11
639.7662416153649
 21
-562.8213303512664
 31
0.0
  0
LINE
  5
200BF
330
18
100
AcDbEntity
  8
1PHANTOM
 48
0.3
100
AcDbLine
 10
639.7662416153649
 20
-552.8213303512663
 30
0.0
 11
640.2662416153649
 21
-552.8213303512663
 31
0.0
  0
LINE
  5
200C0
330
18
100
AcDbEntity
  8
1PHANTOM
 48
0.3
100
AcDbLine
 10
639.7662416153649
 20
-562.8213303512664
 30
0.0
 11
639.7662416153649
 21
-562.4362287634296
 31
0.0
  0
LINE
  5
200C6
330
18
100
AcDbEntity
  8
1PHANTOM
 48
0.3
100
AcDbLine
 10
616.7662416153649
 20
-561.3213303512663
 30
0.0
 11
616.7662416153649
 21
-553.8213303512663
 31
0.0
  0
ARC
  5
200C7
330
18
100
AcDbEntity
  8
1PHANTOM
 48
0.3
100
AcDbCircle
 10
617.7662416153649
 20
-553.8213303512663
 30
0.0
 40
1.0
100
AcDbArc
 50
90.0
 51
180.0
  0
LINE
  5
200C9
330
18
100
AcDbEntity
  8
1PHANTOM
 48
0.3
100
AcDbLine
 10
641.2662416153649
 20
-560.57764930933
 30
0.0
 11
641.2662416153649
 21
-553.6540748952628
 31
0.0
  0
ARC
  5
200CA
330
18
100
AcDbEntity
  8
1PHANTOM
 48
0.3
100
AcDbCircle
 10
640.2662416153649
 20
-553.8213303512663
 30
0.0
 40
1.0
100
AcDbArc
 50
0.0
 51
90.0
  0
CIRCLE
  5
200CC
330
18
100
AcDbEntity
  8
1PHANTOM
 48
0.3
100
AcDbCircle
 10
629.0162416153649
 20
-553.8213303512663
 30
0.0
 40
1.649999999999977
  0
ARC
  5
200CD
330
18
100
AcDbEntity
  8
1PHANTOM
 48
0.3
100
AcDbCircle
 10
639.7662416153649
 20
-561.3213303512663
 30
0.0
 40
1.500000000000014
100
AcDbArc
 50
270.0
 51
0.0
  0
LINE
  5
200CE
330
18
100
AcDbEntity
  8
1PHANTOM
 48
0.3
100
AcDbLine
 10
641.2662416153649
 20
-560.7449047653335
 30
0.0
 11
641.2662416153649
 21
-561.3213303512663
 31
0.0
  0
ARC
  5
200CF
330
18
100
AcDbEntity
  8
1PHANTOM
 48
0.3
100
AcDbCircle
 10
618.2662416153649
 20
-561.3213303512663
 30
0.0
 40
1.500000000000014
100
AcDbArc
 50
180.0
 51
270.0
  0
LINE
  5
200DB
330
18
100
AcDbEntity
  8
01
  6
Continuous
370
    15
100
AcDbLine
 10
635.9643996484257
 20
-535.8213303512664
 30
0.0
 11
622.0680835823042
 21
-535.8213303512664
 31
0.0
  0
LINE
  5
200DC
330
18
100
AcDbEntity
  8
01
370
    15
100
AcDbLine
 10
621.2111973072116
 20
-535.8213303512664
 30
0.0
 11
615.0341020000093
 21
-591.0734590973039
 31
0.0
  0
LINE
  5
200DE
330
18
100
AcDbEntity
  8
01
  6
Continuous
370
    15
100
AcDbLine
 10
622.0680835823042
 20
-535.8213303512664
 30
0.0
 11
621.2111973072116
 21
-535.8213303512664
 31
0.0
  0
LINE
  5
200E1
330
18
100
AcDbEntity
  8
01
  6
Continuous
370
    15
100
AcDbLine
 10
636.8212859235183
 20
-535.8213303512664
 30
0.0
 11
635.9643996484257
 21
-535.8213303512664
 31
0.0
  0
LINE
  5
200E3
330
18
100
AcDbEntity
  8
01
  6
Continuous
370
    15
100
AcDbLine
 10
621.2111973072116
 20
-535.8213303512664
 30
0.0
 11
615.1777979990644
 21
-535.8213303512664
 31
0.0
  0
LINE
  5
200E5
330
18
100
AcDbEntity
  8
01
  6
Continuous
370
    15
100
AcDbLine
 10
642.8546852316655
 20
-535.8213303512664
 30
0.0
 11
636.8212859235183
 21
-535.8213303512664
 31
0.0
  0
LINE
  5
200E7
330
18
100
AcDbEntity
  8
01
  6
Continuous
370
    15
100
AcDbLine
 10
616.0162416153649
 20
-591.8213303512661
 30
0.0
 11
642.0162416153649
 21
-591.8213303512661
 31
0.0
  0
ARC
  5
200E8
330
18
100
AcDbEntity
  8
01
  6
Continuous
370
    15
100
AcDbCircle
 10
642.0162416153649
 20
-590.8213303512662
 30
0.0
 40
1.0
100
AcDbArc
 50
270.0
 51
0.0
  0
LINE
  5
200EC
330
18
100
AcDbEntity
  8
01
  6
Continuous
370
    15
100
AcDbLine
 10
615.0162416153649
 20
-535.8213303512664
 30
0.0
 11
615.0162416153649
 21
-591.4213303512662
 31
0.0
  0
ARC
  5
200ED
330
18
100
AcDbEntity
  8
01
370
    15
100
AcDbCircle
 10
614.7162416153649
 20
-591.4213303512662
 30
0.0
 40
0.3
100
AcDbArc
 50
270.0
 51
0.0
  0
ARC
  5
200EE
330
18
100
AcDbEntity
  8
01
  6
Continuous
370
    15
100
AcDbCircle
 10
616.0162416153649
 20
-590.8213303512662
 30
0.0
 40
1.0
100
AcDbArc
 50
180.0
 51
270.0
  0
LINE
  5
200EF
330
18
100
AcDbEntity
  8
01
  6
Continuous
370
    15
100
AcDbLine
 10
615.1777979990644
 20
-535.8213303512664
 30
0.0
 11
615.0162416153649
 21
-535.8213303512664
 31
0.0
  0
LINE
  5
200F0
330
18
100
AcDbEntity
  8
01
  6
Continuous
370
    15
100
AcDbLine
 10
643.0162416153649
 20
-590.8213303512662
 30
0.0
 11
643.0162416153649
 21
-535.8213303512664
 31
0.0
  0
LINE
  5
200F2
330
18
100
AcDbEntity
  8
01
  6
Continuous
370
    15
100
AcDbLine
 10
643.0162416153649
 20
-535.8213303512664
 30
0.0
 11
642.8546852316655
 21
-535.8213303512664
 31
0.0
  0
LINE
  5
200F3
330
18
100
AcDbEntity
  8
01
100
AcDbLine
 10
614.7162416153649
 20
-591.7213303512662
 30
0.0
 11
404.0162416153649
 21
-591.7213303512662
 31
0.0
  0
LINE
  5
200F4
330
18
100
AcDbEntity
  8
01
100
AcDbLine
 10
615.0162416153649
 20
-572.7213303512662
 30
0.0
 11
404.0162416153649
 21
-572.7213303512662
 31
0.0
  0
LINE
  5
200F7
330
18
100
AcDbEntity
  8
01
370
    15
100
AcDbLine
 10
614.7162407510976
 20
-662.821330218873
 30
0.0
 11
404.0162416153649
 21
-662.821330218873
 31
0.0
  0
ARC
  5
200F8
330
18
100
AcDbEntity
  8
01
370
    15
100
AcDbCircle
 10
614.7162407510976
 20
-662.521330218873
 30
0.0
 40
0.3
100
AcDbArc
 50
270.0
 51
0.0
  0
LINE
  5
200F9
330
18
100
AcDbEntity
  8
01
370
    15
100
AcDbLine
 10
614.7162407510976
 20
-652.821330218873
 30
0.0
 11
404.0162416153649
 21
-652.821330218873
 31
0.0
  0
ARC
  5
200FA
330
18
100
AcDbEntity
  8
01
370
    15
100
AcDbCircle
 10
614.7162407510976
 20
-653.121330218873
 30
0.0
 40
0.3
100
AcDbArc
 50
0.0
 51
90.0
  0
ARC
  5
200FB
330
18
100
AcDbEntity
  8
01
370
    15
100
AcDbCircle
 10
642.0162416153649
 20
-653.0213302153929
 30
0.0
 40
1.0
100
AcDbArc
 50
0.0
 51
90.0
  0
ARC
  5
200FC
330
18
100
AcDbEntity
  8
01
370
    15
100
AcDbCircle
 10
616.0162407510975
 20
-653.0213302153927
 30
0.0
 40
1.0
100
AcDbArc
 50
90.0
 51
180.0
  0
SPLINE
  5
200FD
330
18
100
AcDbEntity
  8
01
  6
Continuous
370
    15
100
AcDbSpline
210
0.0
220
0.0
230
1.0
 70
     8
 71
     3
 72
    14
 73
    10
 74
     0
 42
0.0000000001
 43
0.0000000001
 40
0.0
 40
0.0
 40
0.0
 40
0.0
 40
0.25
 40
0.25
 40
0.5
 40
0.5
 40
0.75
 40
0.75
 40
1.0
 40
1.0
 40
1.0
 40
1.0
 10
643.0162411832313
 20
-652.8177702881171
 30
0.0
 10
643.0162411832313
 20
-652.7669798289316
 30
0.0
 10
643.0125230293071
 20
-652.7180387251494
 30
0.0
 10
642.9983874774494
 20
-652.6230773289296
 30
0.0
 10
642.9879700795164
 20
-652.5770570364925
 30
0.0
 10
642.9611731034821
 20
-652.4871593635027
 30
0.0
 10
642.9447672673765
 20
-652.4431983546312
 30
0.0
 10
642.9050889772871
 20
-652.3568801983881
 30
0.0
 10
642.8818165233039
 20
-652.3145230510167
 30
0.0
 10
642.8546847995318
 20
-652.2727819375216
 30
0.0
  0
SPLINE
  5
200FE
330
18
100
AcDbEntity
  8
01
  6
Continuous
370
    15
100
AcDbSpline
210
0.0
220
0.0
230
1.0
 70
     8
 71
     3
 72
    14
 73
    10
 74
     0
 42
0.0000000001
 43
0.0000000001
 40
0.0
 40
0.0
 40
0.0
 40
0.0
 40
0.25
 40
0.25
 40
0.5
 40
0.5
 40
0.75
 40
0.75
 40
1.0
 40
1.0
 40
1.0
 40
1.0
 10
615.0162411832313
 20
-652.8177702881171
 30
0.0
 10
615.0162411832313
 20
-652.7669798289316
 30
0.0
 10
615.0199593371559
 20
-652.7180387251494
 30
0.0
 10
615.034094889013
 20
-652.6230773289296
 30
0.0
 10
615.044512286946
 20
-652.5770570364925
 30
0.0
 10
615.0713092629804
 20
-652.4871593635027
 30
0.0
 10
615.0877150990865
 20
-652.4431983546312
 30
0.0
 10
615.1273933891758
 20
-652.3568801983881
 30
0.0
 10
615.1506658431591
 20
-652.3145230510167
 30
0.0
 10
615.1777975669307
 20
-652.2727819375216
 30
0.0
  0
LINE
  5
200FF
330
18
100
AcDbEntity
  8
01
  6
Continuous
370
    15
100
AcDbLine
 10
635.9735550639285
 20
-642.5213300487728
 30
0.0
 11
622.058927302534
 21
-642.5213300487728
 31
0.0
  0
ARC
  5
20100
330
18
100
AcDbEntity
  8
01
  6
Continuous
370
    15
100
AcDbCircle
 10
635.9735550639285
 20
-643.5213300487728
 30
0.0
 40
1.0
100
AcDbArc
 50
33.02386927335152
 51
90.0
  0
LINE
  5
20101
330
18
100
AcDbEntity
  8
01
  6
Continuous
370
    15
100
AcDbLine
 10
621.2204837025707
 20
-642.9763416730434
 30
0.0
 11
615.1777972781161
 21
-652.272781716171
 31
0.0
  0
ARC
  5
20102
330
18
100
AcDbEntity
  8
01
  6
Continuous
370
    15
100
AcDbCircle
 10
622.058927302534
 20
-643.5213300487728
 30
0.0
 40
1.0
100
AcDbArc
 50
90.0
 51
146.9761307266485
  0
LINE
  5
20103
330
18
100
AcDbEntity
  8
01
  6
Continuous
370
    15
100
AcDbLine
 10
642.8546850883464
 20
-652.272781716171
 30
0.0
 11
636.8119986638922
 21
-642.9763416730434
 31
0.0
  0
LINE
  5
20104
330
18
100
AcDbEntity
  8
01
  6
Continuous
370
    15
100
AcDbLine
 10
615.0162407510975
 20
-653.121330218873
 30
0.0
 11
615.0162407510975
 21
-669.0213298997612
 31
0.0
  0
ARC
  5
20105
330
18
100
AcDbEntity
  8
01
370
    15
100
AcDbCircle
 10
616.0162407510975
 20
-662.0213300902312
 30
0.0
 40
1.0
100
AcDbArc
 50
180.0
 51
270.0
  0
ARC
  5
20106
330
18
100
AcDbEntity
  8
01
  6
Continuous
370
    15
100
AcDbCircle
 10
616.0162407510975
 20
-669.0213298997612
 30
0.0
 40
1.0
100
AcDbArc
 50
180.0
 51
270.0
  0
ELLIPSE
  5
20107
330
18
100
AcDbEntity
  8
01
  6
Continuous
370
    15
100
AcDbEllipse
 10
629.0162411832312
 20
-667.7713302201359
 30
0.0
 11
-4.250000000000007
 21
0.0
 31
0.0
210
0.0
220
0.0
230
-1.0
 40
0.1249999999999998
 41
0.0
 42
6.283185307179586
  0
LINE
  5
20108
330
18
100
AcDbEntity
  8
01
  6
Continuous
370
    15
100
AcDbLine
 10
616.0162407510975
 20
-670.0213298997612
 30
0.0
 11
642.0162416153649
 21
-670.0213298997612
 31
0.0
  0
LINE
  5
20109
330
18
100
AcDbEntity
  8
01
  6
Continuous
370
    15
100
AcDbLine
 10
643.0162416153649
 20
-669.0213298997612
 30
0.0
 11
643.0162416153649
 21
-653.0213302153929
 31
0.0
  0
ARC
  5
2010A
330
18
100
AcDbEntity
  8
01
370
    15
100
AcDbCircle
 10
642.0162416153649
 20
-662.0213300902312
 30
0.0
 40
1.0
100
AcDbArc
 50
270.0
 51
0.0
  0
ARC
  5
2010B
330
18
100
AcDbEntity
  8
01
  6
Continuous
370
    15
100
AcDbCircle
 10
642.0162416153649
 20
-669.0213298997612
 30
0.0
 40
1.0
100
AcDbArc
 50
270.0
 51
0.0
  0
LINE
  5
2010C
330
18
100
AcDbEntity
  8
1CENTER
370
    15
100
AcDbLine
 10
629.0162416153649
 20
-658.7138145938929
 30
0.0
 11
629.0162416153649
 21
-652.957986114572
 31
0.0
  0
LINE
  5
2010D
330
18
100
AcDbEntity
  8
01
100
AcDbLine
 10
616.0162407510975
 20
-652.0213302153926
 30
0.0
 11
642.0162416153649
 21
-652.0213302153926
 31
0.0
  0
LINE
  5
2010E
330
18
100
AcDbEntity
  8
01
100
AcDbLine
 10
616.0162407510975
 20
-663.0213300902312
 30
0.0
 11
642.0162416153649
 21
-663.0213300902312
 31
0.0
  0
LINE
  5
2010F
330
18
100
AcDbEntity
  8
1CENTER
370
    15
100
AcDbLine
 10
730.989141530535
 20
-655.8213303512664
 30
0.0
 11
743.582547866817
 21
-655.8213303512664
 31
0.0
  0
LINE
  5
2011B
330
18
100
AcDbEntity
  8
1CENTER
100
AcDbLine
 10
776.6134144036137
 20
-655.8213303512664
 30
0.0
 11
734.9822234031588
 21
-655.8213303512664
 31
0.0
  0
LINE
  5
2015D
330
18
100
AcDbEntity
  8
1CENTER
370
    15
100
AcDbLine
 10
629.0162416153649
 20
-547.8484304360963
 30
0.0
 11
629.0162416153649
 21
-535.2550240998144
 31
0.0
  0
LINE
  5
204D0
330
18
100
AcDbEntity
  8
01
370
    15
100
AcDbLine
 10
636.8212859235183
 20
-535.8213303512664
 30
0.0
 11
642.9983812307206
 21
-591.0734590973039
 31
0.0
  0
LINE
  5
20564
330
18
100
AcDbEntity
  8
1CENTER
370
    15
100
AcDbLine
 10
725.0162416153649
 20
-668.7304573854053
 30
0.0
 11
725.0162416153649
 21
-659.5558581846708
 31
0.0
  0
LINE
  5
20C41
330
18
100
AcDbEntity
  8
1PHANTOM
 48
0.3
100
AcDbLine
 10
617.7662416153649
 20
-552.8213303512663
 30
0.0
 11
618.2607747631891
 21
-552.8213303512663
 31
0.0
  0
LINE
  5
20EE7
330
18
100
AcDbEntity
  8
1PHANTOM
 48
0.3
100
AcDbLine
 10
641.0162416153649
 20
-662.8213303512612
 30
0.0
 11
639.5162416153649
 21
-662.8213303512612
 31
0.0
  0
LINE
  5
20EF0
330
18
100
AcDbEntity
  8
1PHANTOM
 48
0.3
100
AcDbLine
 10
641.0162416153649
 20
-660.8213303512611
 30
0.0
 11
641.0162416153649
 21
-662.8213303512612
 31
0.0
  0
SPLINE
  5
20EF1
330
18
100
AcDbEntity
  8
1PHANTOM
 48
0.3
100
AcDbSpline
210
0.0
220
0.0
230
1.0
 70
    24
 71
     3
 72
    18
 73
    14
 74
     0
 42
0.0000000001
 43
0.0000000001
 40
0.0
 40
0.0
 40
0.0
 40
0.0
 40
0.1250000000000009
 40
0.1250000000000009
 40
0.2500000000000019
 40
0.2500000000000019
 40
0.5000000000000038
 40
0.5000000000000038
 40
0.6250000000000038
 40
0.6250000000000038
 40
0.7500000000000039
 40
0.7500000000000039
 40
1.0
 40
1.0
 40
1.0
 40
1.0
 10
639.5162416153649
 20
-660.8213303512611
 30
0.0
 10
639.6221290312174
 20
-660.8213303512611
 30
0.0
 10
639.7259439116225
 20
-660.8213303512611
 30
0.0
 10
639.929620543137
 20
-660.8213303512611
 30
0.0
 10
640.0303634204419
 20
-660.8213303512611
 30
0.0
 10
640.3129004132015
 20
-660.8213303512611
 30
0.0
 10
640.4814536360405
 20
-660.8213303512611
 30
0.0
 10
640.6831647935392
 20
-660.8213303512611
 30
0.0
 10
640.7430924870669
 20
-660.8213303512611
 30
0.0
 10
640.844061660454
 20
-660.8213303512611
 30
0.0
 10
640.8856411999265
 20
-660.8213303512611
 30
0.0
 10
640.9853098428972
 20
-660.8213303512611
 30
0.0
 10
641.0162416153649
 20
-660.8213303512611
 30
0.0
 10
641.0162416153649
 20
-660.8213303512611
 30
0.0
  0
LINE
  5
20EF3
330
18
100
AcDbEntity
  8
1PHANTOM
 48
0.3
100
AcDbLine
 10
639.5162416153649
 20
-662.8213303512612
 30
0.0
 11
639.5162416153649
 21
-665.8213303512611
 31
0.0
  0
LINE
  5
20EF4
330
18
100
AcDbEntity
  8
1PHANTOM
 48
0.3
100
AcDbLine
 10
639.5162416153649
 20
-652.4164502568601
 30
0.0
 11
639.5162416153649
 21
-660.8213303512611
 31
0.0
  0
LINE
  5
20EFD
330
18
100
AcDbEntity
  8
1PHANTOM
 48
0.3
100
AcDbLine
 10
636.1447798791462
 20
-646.9068028659096
 30
0.0
 11
639.3560059452591
 21
-651.8734991814974
 31
0.0
  0
ARC
  5
20F00
330
18
100
AcDbEntity
  8
1PHANTOM
 48
0.3
100
AcDbCircle
 10
638.5162416153649
 20
-652.4164502568601
 30
0.0
 40
1.0
100
AcDbArc
 50
0.0
 51
32.88475819754097
  0
LINE
  5
20F0C
330
18
100
AcDbEntity
  8
1PHANTOM
 48
0.3
100
AcDbLine
 10
629.0162416153649
 20
-646.3213303512612
 30
0.0
 11
635.2219830557104
 21
-646.3213303512612
 31
0.0
  0
ARC
  5
20F0D
330
18
100
AcDbEntity
  8
1PHANTOM
 48
0.3
100
AcDbCircle
 10
635.2219830557104
 20
-647.3213303512611
 30
0.0
 40
1.000000000000005
100
AcDbArc
 50
32.88475819754097
 51
90.0
  0
LINE
  5
20F0E
330
18
100
AcDbEntity
  8
1PHANTOM
 48
0.3
100
AcDbLine
 10
636.0617473856047
 20
-646.7783792758987
 30
0.0
 11
636.1447798791462
 21
-646.9068028659096
 31
0.0
  0
LINE
  5
20F10
330
18
100
AcDbEntity
  8
1PHANTOM
 48
0.3
100
AcDbLine
 10
629.0162416153649
 20
-658.0713303512611
 30
0.0
 11
631.0162416153649
 21
-658.0713303512611
 31
0.0
  0
ARC
  5
20F11
330
18
100
AcDbEntity
  8
1PHANTOM
 48
0.3
100
AcDbCircle
 10
631.0162416153649
 20
-655.8213303512611
 30
0.0
 40
2.25
100
AcDbArc
 50
270.0
 51
90.0
  0
LINE
  5
20F12
330
18
100
AcDbEntity
  8
1PHANTOM
 48
0.3
100
AcDbLine
 10
631.0162416153649
 20
-653.5713303512611
 30
0.0
 11
629.0162416153649
 21
-653.5713303512611
 31
0.0
  0
LINE
  5
20F13
330
18
100
AcDbEntity
  8
1PHANTOM
 48
0.3
100
AcDbLine
 10
629.0162416153649
 20
-666.8213303512612
 30
0.0
 11
638.5162416153649
 21
-666.8213303512612
 31
0.0
  0
ARC
  5
20F14
330
18
100
AcDbEntity
  8
1PHANTOM
 48
0.3
100
AcDbCircle
 10
638.5162416153649
 20
-665.8213303512611
 30
0.0
 40
1.0
100
AcDbArc
 50
270.0
 51
0.0
  0
LINE
  5
20F1E
330
18
100
AcDbEntity
  8
1PHANTOM
 48
0.3
100
AcDbLine
 10
617.0162416153649
 20
-662.8213303512612
 30
0.0
 11
618.5162416153649
 21
-662.8213303512612
 31
0.0
  0
LINE
  5
20F27
330
18
100
AcDbEntity
  8
1PHANTOM
 48
0.3
100
AcDbLine
 10
617.0162416153649
 20
-660.8213303512611
 30
0.0
 11
617.0162416153649
 21
-662.8213303512612
 31
0.0
  0
SPLINE
  5
20F28
330
18
100
AcDbEntity
  8
1PHANTOM
 48
0.3
100
AcDbSpline
210
0.0
220
0.0
230
1.0
 70
    24
 71
     3
 72
    18
 73
    14
 74
     0
 42
0.0000000001
 43
0.0000000001
 40
0.0
 40
0.0
 40
0.0
 40
0.0
 40
0.1250000000000009
 40
0.1250000000000009
 40
0.2500000000000019
 40
0.2500000000000019
 40
0.5000000000000038
 40
0.5000000000000038
 40
0.6250000000000038
 40
0.6250000000000038
 40
0.7500000000000039
 40
0.7500000000000039
 40
1.0
 40
1.0
 40
1.0
 40
1.0
 10
618.5162416153649
 20
-660.8213303512611
 30
0.0
 10
618.4103541995124
 20
-660.8213303512611
 30
0.0
 10
618.3065393191074
 20
-660.8213303512611
 30
0.0
 10
618.1028626875928
 20
-660.8213303512611
 30
0.0
 10
618.0021198102878
 20
-660.8213303512611
 30
0.0
 10
617.7195828175284
 20
-660.8213303512611
 30
0.0
 10
617.5510295946893
 20
-660.8213303512611
 30
0.0
 10
617.3493184371906
 20
-660.8213303512611
 30
0.0
 10
617.2893907436629
 20
-660.8213303512611
 30
0.0
 10
617.1884215702759
 20
-660.8213303512611
 30
0.0
 10
617.1468420308033
 20
-660.8213303512611
 30
0.0
 10
617.0471733878327
 20
-660.8213303512611
 30
0.0
 10
617.0162416153649
 20
-660.8213303512611
 30
0.0
 10
617.0162416153649
 20
-660.8213303512611
 30
0.0
  0
LINE
  5
20F2A
330
18
100
AcDbEntity
  8
1PHANTOM
 48
0.3
100
AcDbLine
 10
618.5162416153649
 20
-662.8213303512612
 30
0.0
 11
618.5162416153649
 21
-665.8213303512611
 31
0.0
  0
LINE
  5
20F2B
330
18
100
AcDbEntity
  8
1PHANTOM
 48
0.3
100
AcDbLine
 10
618.5162416153649
 20
-652.4164502568601
 30
0.0
 11
618.5162416153649
 21
-660.8213303512611
 31
0.0
  0
ELLIPSE
  5
20F2D
330
18
100
AcDbEntity
  8
1DIM
  6
PHANTOM2
 48
0.5
370
    15
100
AcDbEllipse
 10
620.5162416153649
 20
-651.3976083519289
 30
0.0
 11
-0.5
 21
0.0
 31
0.0
210
0.0
220
0.0
230
-1.0
 40
0.5624976562597795
 41
0.0
 42
0.3488129253307387
  0
LINE
  5
20F34
330
18
100
AcDbEntity
  8
1PHANTOM
 48
0.3
100
AcDbLine
 10
621.8877033515837
 20
-646.9068028659096
 30
0.0
 11
618.6764772854708
 21
-651.8734991814974
 31
0.0
  0
ARC
  5
20F37
330
18
100
AcDbEntity
  8
1PHANTOM
 48
0.3
100
AcDbCircle
 10
619.516241615365
 20
-652.4164502568601
 30
0.0
 40
1.0
100
AcDbArc
 50
147.115241802459
 51
180.0
  0
LINE
  5
20F43
330
18
100
AcDbEntity
  8
1PHANTOM
 48
0.3
100
AcDbLine
 10
629.0162416153649
 20
-646.3213303512612
 30
0.0
 11
622.8105001750194
 21
-646.3213303512612
 31
0.0
  0
ARC
  5
20F44
330
18
100
AcDbEntity
  8
1PHANTOM
 48
0.3
100
AcDbCircle
 10
622.8105001750194
 20
-647.3213303512611
 30
0.0
 40
1.000000000000005
100
AcDbArc
 50
90.0
 51
147.115241802459
  0
LINE
  5
20F45
330
18
100
AcDbEntity
  8
1PHANTOM
 48
0.3
100
AcDbLine
 10
621.9707358451252
 20
-646.7783792758987
 30
0.0
 11
621.8877033515837
 21
-646.9068028659096
 31
0.0
  0
LINE
  5
20F47
330
18
100
AcDbEntity
  8
1PHANTOM
 48
0.3
100
AcDbLine
 10
629.0162416153649
 20
-658.0713303512611
 30
0.0
 11
627.0162416153649
 21
-658.0713303512611
 31
0.0
  0
ARC
  5
20F48
330
18
100
AcDbEntity
  8
1PHANTOM
 48
0.3
100
AcDbCircle
 10
627.0162416153649
 20
-655.8213303512611
 30
0.0
 40
2.25
100
AcDbArc
 50
90.0
 51
270.0
  0
LINE
  5
20F49
330
18
100
AcDbEntity
  8
1PHANTOM
 48
0.3
100
AcDbLine
 10
627.0162416153649
 20
-653.5713303512611
 30
0.0
 11
629.0162416153649
 21
-653.5713303512611
 31
0.0
  0
LINE
  5
20F4A
330
18
100
AcDbEntity
  8
1PHANTOM
 48
0.3
100
AcDbLine
 10
629.0162416153649
 20
-666.8213303512612
 30
0.0
 11
619.516241615365
 21
-666.8213303512612
 31
0.0
  0
ARC
  5
20F4B
330
18
100
AcDbEntity
  8
1PHANTOM
 48
0.3
100
AcDbCircle
 10
619.516241615365
 20
-665.8213303512611
 30
0.0
 40
1.0
100
AcDbArc
 50
180.0
 51
270.0
  0
LINE
  5
217C4
102
{ACAD_REACTORS
330
21889
102
}
330
18
100
AcDbEntity
  8
01
100
AcDbLine
 10
178.5162417622606
 20
-539.8213303512664
 30
0.0
 11
179.5162414622606
 21
-538.8213303512664
 31
0.0
  0
LINE
  5
217C5
102
{ACAD_REACTORS
330
21889
102
}
330
18
100
AcDbEntity
  8
01
100
AcDbLine
 10
175.2162416122606
 20
-539.8213303512664
 30
0.0
 11
175.2162416122606
 21
-538.8213303512664
 31
0.0
  0
LINE
  5
217C6
102
{ACAD_REACTORS
330
21889
102
}
330
18
100
AcDbEntity
  8
01
100
AcDbLine
 10
175.2162416122606
 20
-538.8213303512664
 30
0.0
 11
182.8162416122605
 21
-538.8213303512664
 31
0.0
  0
LINE
  5
217C7
102
{ACAD_REACTORS
330
21889
102
}
330
18
100
AcDbEntity
  8
01
100
AcDbLine
 10
175.2162416122606
 20
-539.8213303512664
 30
0.0
 11
182.8162416122605
 21
-539.8213303512664
 31
0.0
  0
LINE
  5
217C8
102
{ACAD_REACTORS
330
21889
102
}
330
18
100
AcDbEntity
  8
01
100
AcDbLine
 10
182.8162416122605
 20
-539.8213303512664
 30
0.0
 11
182.8162416122605
 21
-538.8213303512664
 31
0.0
  0
LINE
  5
217CA
330
18
100
AcDbEntity
  8
1CENTER
100
AcDbLine
 10
183.5546290183268
 20
-655.8213303512664
 30
0.0
 11
174.4778542124028
 21
-655.8213303512664
 31
0.0
  0
LINE
  5
217CB
330
18
100
AcDbEntity
  8
1DIM
  6
HIDDEN
370
    15
100
AcDbLine
 10
185.4719830557104
 20
-535.8213303512664
 30
0.0
 11
186.3117473856044
 21
-535.8213303512664
 31
0.0
  0
LINE
  5
217CC
330
18
100
AcDbEntity
  8
1DIM
  6
HIDDEN
370
    15
100
AcDbLine
 10
185.4719830557104
 20
-535.8213303512664
 30
0.0
 11
172.5605001750192
 21
-535.8213303512664
 31
0.0
  0
LINE
  5
217CD
330
18
100
AcDbEntity
  8
1DIM
  6
HIDDEN
370
    15
100
AcDbLine
 10
171.7207358451252
 20
-535.8213303512664
 30
0.0
 11
172.5605001750192
 21
-535.8213303512664
 31
0.0
  0
ARC
  5
217D3
330
18
100
AcDbEntity
  8
1DIM
370
    15
100
AcDbCircle
 10
170.2662416153649
 20
-547.8457621767351
 30
0.0
 40
0.5
100
AcDbArc
 50
160.0144915389327
 51
180.0
  0
ARC
  5
217D7
330
18
100
AcDbEntity
  8
1DIM
  6
HIDDEN
370
    15
100
AcDbCircle
 10
187.7662416153649
 20
-547.8457621767351
 30
0.0
 40
0.5
100
AcDbArc
 50
0.000000000000007
 51
19.98550846106726
  0
LINE
  5
217D9
330
18
100
AcDbEntity
  8
1DIM
  6
HIDDEN
370
    15
100
AcDbLine
 10
189.6060059452589
 20
-535.8213303512664
 30
0.0
 11
186.3117473856044
 21
-535.8213303512664
 31
0.0
  0
LINE
  5
217DA
330
18
100
AcDbEntity
  8
1DIM
  6
HIDDEN
370
    15
100
AcDbLine
 10
168.4264772854707
 20
-535.8213303512664
 30
0.0
 11
171.7207358451252
 21
-535.8213303512664
 31
0.0
  0
LINE
  5
217DB
330
18
100
AcDbEntity
  8
1PHANTOM
 48
0.3
100
AcDbLine
 10
189.7662416153649
 20
-535.8213303512664
 30
0.0
 11
189.7717084675407
 21
-552.8213303512663
 31
0.0
  0
LINE
  5
217DC
330
18
100
AcDbEntity
  8
1DIM
  6
HIDDEN
370
    15
100
AcDbLine
 10
189.6060059452589
 20
-535.8213303512664
 30
0.0
 11
189.7662416153649
 21
-535.8213303512664
 31
0.0
  0
LINE
  5
217DD
330
18
100
AcDbEntity
  8
1PHANTOM
 48
0.3
100
AcDbLine
 10
168.2662416153649
 20
-552.8213303512663
 30
0.0
 11
168.2662416153649
 21
-535.8213303512664
 31
0.0
  0
LINE
  5
217DE
330
18
100
AcDbEntity
  8
1DIM
  6
HIDDEN
370
    15
100
AcDbLine
 10
168.2662416153649
 20
-535.8213303512664
 30
0.0
 11
168.4264772854707
 21
-535.8213303512664
 31
0.0
  0
LINE
  5
217DF
330
18
100
AcDbEntity
  8
1PHANTOM
 48
0.3
100
AcDbLine
 10
189.7662416153649
 20
-562.8213303512664
 30
0.0
 11
168.2662416153649
 21
-562.8213303512664
 31
0.0
  0
LINE
  5
217E0
330
18
100
AcDbEntity
  8
1PHANTOM
 48
0.3
100
AcDbLine
 10
168.2662416153649
 20
-552.8213303512663
 30
0.0
 11
167.7662416153649
 21
-552.8213303512663
 31
0.0
  0
LINE
  5
217E1
330
18
100
AcDbEntity
  8
1DIM
  6
HIDDEN
370
    15
100
AcDbLine
 10
168.2662416153649
 20
-562.8213303512664
 30
0.0
 11
168.2662416153649
 21
-562.4362287634296
 31
0.0
  0
LINE
  5
217E2
330
18
100
AcDbEntity
  8
1PHANTOM
 48
0.3
100
AcDbLine
 10
191.2662416153649
 20
-561.3213303512663
 30
0.0
 11
191.2662416153649
 21
-553.8213303512663
 31
0.0
  0
ARC
  5
217E3
330
18
100
AcDbEntity
  8
1PHANTOM
 48
0.3
100
AcDbCircle
 10
190.2662416153649
 20
-553.8213303512663
 30
0.0
 40
1.0
100
AcDbArc
 50
0.000000000000007
 51
90.0
  0
LINE
  5
217E4
330
18
100
AcDbEntity
  8
1PHANTOM
 48
0.3
100
AcDbLine
 10
166.7662416153649
 20
-560.57764930933
 30
0.0
 11
166.7662416153649
 21
-553.6540748952628
 31
0.0
  0
ARC
  5
217E5
330
18
100
AcDbEntity
  8
1PHANTOM
 48
0.3
100
AcDbCircle
 10
167.7662416153649
 20
-553.8213303512663
 30
0.0
 40
1.0
100
AcDbArc
 50
90.0
 51
180.0
  0
CIRCLE
  5
217E6
330
18
100
AcDbEntity
  8
1PHANTOM
 48
0.3
100
AcDbCircle
 10
179.0162416153649
 20
-553.8213303512663
 30
0.0
 40
1.649999999999977
  0
ARC
  5
217E7
330
18
100
AcDbEntity
  8
1PHANTOM
 48
0.3
100
AcDbCircle
 10
168.2662416153649
 20
-561.3213303512663
 30
0.0
 40
1.500000000000014
100
AcDbArc
 50
180.0
 51
270.0
  0
LINE
  5
217E8
330
18
100
AcDbEntity
  8
1PHANTOM
 48
0.3
100
AcDbLine
 10
166.7662416153649
 20
-560.7449047653335
 30
0.0
 11
166.7662416153649
 21
-561.3213303512663
 31
0.0
  0
ARC
  5
217E9
330
18
100
AcDbEntity
  8
1PHANTOM
 48
0.3
100
AcDbCircle
 10
189.7662416153649
 20
-561.3213303512663
 30
0.0
 40
1.500000000000014
100
AcDbArc
 50
270.0
 51
0.000000000000007
  0
LINE
  5
217EA
330
18
100
AcDbEntity
  8
01
  6
Continuous
370
    15
100
AcDbLine
 10
172.0680835823042
 20
-535.8213303512664
 30
0.0
 11
185.9643996484257
 21
-535.8213303512664
 31
0.0
  0
LINE
  5
217EB
330
18
100
AcDbEntity
  8
01
370
    15
100
AcDbLine
 10
186.8212859235183
 20
-535.8213303512664
 30
0.0
 11
192.9983812307206
 21
-591.0734590973039
 31
0.0
  0
LINE
  5
217EC
330
18
100
AcDbEntity
  8
01
  6
Continuous
370
    15
100
AcDbLine
 10
185.9643996484257
 20
-535.8213303512664
 30
0.0
 11
186.8212859235183
 21
-535.8213303512664
 31
0.0
  0
LINE
  5
217ED
330
18
100
AcDbEntity
  8
01
  6
Continuous
370
    15
100
AcDbLine
 10
171.2111973072116
 20
-535.8213303512664
 30
0.0
 11
172.0680835823042
 21
-535.8213303512664
 31
0.0
  0
LINE
  5
217EE
330
18
100
AcDbEntity
  8
01
  6
Continuous
370
    15
100
AcDbLine
 10
186.8212859235183
 20
-535.8213303512664
 30
0.0
 11
192.8546852316655
 21
-535.8213303512664
 31
0.0
  0
LINE
  5
217EF
330
18
100
AcDbEntity
  8
01
  6
Continuous
370
    15
100
AcDbLine
 10
165.1777979990644
 20
-535.8213303512664
 30
0.0
 11
171.2111973072116
 21
-535.8213303512664
 31
0.0
  0
LINE
  5
217F0
330
18
100
AcDbEntity
  8
01
  6
Continuous
370
    15
100
AcDbLine
 10
192.0162416153649
 20
-591.8213303512661
 30
0.0
 11
166.0162416153649
 21
-591.8213303512661
 31
0.0
  0
ARC
  5
217F1
330
18
100
AcDbEntity
  8
01
  6
Continuous
370
    15
100
AcDbCircle
 10
166.0162416153649
 20
-590.8213303512662
 30
0.0
 40
1.0
100
AcDbArc
 50
180.0
 51
270.0
  0
LINE
  5
217F2
330
18
100
AcDbEntity
  8
01
  6
Continuous
370
    15
100
AcDbLine
 10
193.0162416153649
 20
-535.8213303512664
 30
0.0
 11
193.0162416153649
 21
-591.4213303512662
 31
0.0
  0
ARC
  5
217F3
330
18
100
AcDbEntity
  8
01
370
    15
100
AcDbCircle
 10
193.3162416153649
 20
-591.4213303512662
 30
0.0
 40
0.3
100
AcDbArc
 50
180.0
 51
270.0
  0
ARC
  5
217F4
330
18
100
AcDbEntity
  8
01
  6
Continuous
370
    15
100
AcDbCircle
 10
192.0162416153649
 20
-590.8213303512662
 30
0.0
 40
1.0
100
AcDbArc
 50
270.0
 51
0.000000000000007
  0
LINE
  5
217F5
330
18
100
AcDbEntity
  8
01
  6
Continuous
370
    15
100
AcDbLine
 10
192.8546852316655
 20
-535.8213303512664
 30
0.0
 11
193.0162416153649
 21
-535.8213303512664
 31
0.0
  0
LINE
  5
217F6
330
18
100
AcDbEntity
  8
01
  6
Continuous
370
    15
100
AcDbLine
 10
165.0162416153649
 20
-590.8213303512662
 30
0.0
 11
165.0162416153649
 21
-535.8213303512664
 31
0.0
  0
LINE
  5
217F7
330
18
100
AcDbEntity
  8
1CENTER
370
    15
100
AcDbLine
 10
179.0162416153649
 20
-594.1397553585213
 30
0.0
 11
179.0162416153649
 21
-533.5625371667068
 31
0.0
  0
LINE
  5
217F8
330
18
100
AcDbEntity
  8
01
  6
Continuous
370
    15
100
AcDbLine
 10
165.0162416153649
 20
-535.8213303512664
 30
0.0
 11
165.1777979990644
 21
-535.8213303512664
 31
0.0
  0
LINE
  5
217F9
330
18
100
AcDbEntity
  8
01
100
AcDbLine
 10
193.3162416153649
 20
-591.7213303512662
 30
0.0
 11
404.0162416153648
 21
-591.7213303512662
 31
0.0
  0
LINE
  5
217FA
330
18
100
AcDbEntity
  8
01
100
AcDbLine
 10
193.0162416153649
 20
-572.7213303512662
 30
0.0
 11
404.0162416153649
 21
-572.7213303512662
 31
0.0
  0
LINE
  5
217FB
330
18
100
AcDbEntity
  8
01
370
    15
100
AcDbLine
 10
193.3162424796322
 20
-662.821330218873
 30
0.0
 11
404.0162416153649
 21
-662.821330218873
 31
0.0
  0
ARC
  5
217FC
330
18
100
AcDbEntity
  8
01
370
    15
100
AcDbCircle
 10
193.3162424796322
 20
-662.521330218873
 30
0.0
 40
0.3
100
AcDbArc
 50
180.0
 51
270.0
  0
LINE
  5
217FD
330
18
100
AcDbEntity
  8
01
370
    15
100
AcDbLine
 10
193.3162424796322
 20
-652.821330218873
 30
0.0
 11
404.0162416153649
 21
-652.821330218873
 31
0.0
  0
ARC
  5
217FE
330
18
100
AcDbEntity
  8
01
370
    15
100
AcDbCircle
 10
193.3162424796322
 20
-653.121330218873
 30
0.0
 40
0.3
100
AcDbArc
 50
90.0
 51
180.0
  0
ARC
  5
217FF
330
18
100
AcDbEntity
  8
01
370
    15
100
AcDbCircle
 10
166.0162416153649
 20
-653.0213302153929
 30
0.0
 40
1.0
100
AcDbArc
 50
90.0
 51
180.0
  0
ARC
  5
21800
330
18
100
AcDbEntity
  8
01
370
    15
100
AcDbCircle
 10
192.0162424796323
 20
-653.0213302153927
 30
0.0
 40
1.0
100
AcDbArc
 50
0.000000000000007
 51
90.0
  0
SPLINE
  5
21801
330
18
100
AcDbEntity
  8
01
  6
Continuous
370
    15
100
AcDbSpline
210
0.0
220
0.0
230
1.0
 70
     8
 71
     3
 72
    14
 73
    10
 74
     0
 42
0.0000000001
 43
0.0000000001
 40
0.0
 40
0.0
 40
0.0
 40
0.0
 40
0.25
 40
0.25
 40
0.5
 40
0.5
 40
0.75
 40
0.75
 40
1.0
 40
1.0
 40
1.0
 40
1.0
 10
165.0162420474986
 20
-652.8177702881171
 30
0.0
 10
165.0162420474986
 20
-652.7669798289316
 30
0.0
 10
165.0199602014228
 20
-652.7180387251494
 30
0.0
 10
165.0340957532804
 20
-652.6230773289296
 30
0.0
 10
165.0445131512134
 20
-652.5770570364925
 30
0.0
 10
165.0713101272478
 20
-652.4871593635027
 30
0.0
 10
165.0877159633534
 20
-652.4431983546312
 30
0.0
 10
165.1273942534427
 20
-652.3568801983881
 30
0.0
 10
165.150666707426
 20
-652.3145230510167
 30
0.0
 10
165.1777984311981
 20
-652.2727819375216
 30
0.0
  0
SPLINE
  5
21802
330
18
100
AcDbEntity
  8
01
  6
Continuous
370
    15
100
AcDbSpline
210
0.0
220
0.0
230
1.0
 70
     8
 71
     3
 72
    14
 73
    10
 74
     0
 42
0.0000000001
 43
0.0000000001
 40
0.0
 40
0.0
 40
0.0
 40
0.0
 40
0.25
 40
0.25
 40
0.5
 40
0.5
 40
0.75
 40
0.75
 40
1.0
 40
1.0
 40
1.0
 40
1.0
 10
193.0162420474986
 20
-652.8177702881171
 30
0.0
 10
193.0162420474986
 20
-652.7669798289316
 30
0.0
 10
193.012523893574
 20
-652.7180387251494
 30
0.0
 10
192.9983883417168
 20
-652.6230773289296
 30
0.0
 10
192.9879709437838
 20
-652.5770570364925
 30
0.0
 10
192.9611739677494
 20
-652.4871593635027
 30
0.0
 10
192.9447681316434
 20
-652.4431983546312
 30
0.0
 10
192.905089841554
 20
-652.3568801983881
 30
0.0
 10
192.8818173875708
 20
-652.3145230510167
 30
0.0
 10
192.8546856637991
 20
-652.2727819375216
 30
0.0
  0
LINE
  5
21803
330
18
100
AcDbEntity
  8
01
  6
Continuous
370
    15
100
AcDbLine
 10
172.0589281668013
 20
-642.5213300487728
 30
0.0
 11
185.9735559281959
 21
-642.5213300487728
 31
0.0
  0
ARC
  5
21804
330
18
100
AcDbEntity
  8
01
  6
Continuous
370
    15
100
AcDbCircle
 10
172.0589281668013
 20
-643.5213300487728
 30
0.0
 40
1.0
100
AcDbArc
 50
90.0
 51
146.9761307266479
  0
LINE
  5
21805
330
18
100
AcDbEntity
  8
01
  6
Continuous
370
    15
100
AcDbLine
 10
186.8119995281591
 20
-642.9763416730434
 30
0.0
 11
192.8546859526137
 21
-652.272781716171
 31
0.0
  0
ARC
  5
21806
330
18
100
AcDbEntity
  8
01
  6
Continuous
370
    15
100
AcDbCircle
 10
185.9735559281959
 20
-643.5213300487728
 30
0.0
 40
1.0
100
AcDbArc
 50
33.02386927335203
 51
90.0
  0
LINE
  5
21807
330
18
100
AcDbEntity
  8
01
  6
Continuous
370
    15
100
AcDbLine
 10
165.1777981423835
 20
-652.272781716171
 30
0.0
 11
171.2204845668376
 21
-642.9763416730434
 31
0.0
  0
LINE
  5
21808
330
18
100
AcDbEntity
  8
01
  6
Continuous
370
    15
100
AcDbLine
 10
193.0162424796323
 20
-653.121330218873
 30
0.0
 11
193.0162424796323
 21
-669.0213298997612
 31
0.0
  0
ARC
  5
21809
330
18
100
AcDbEntity
  8
01
370
    15
100
AcDbCircle
 10
192.0162424796323
 20
-662.0213300902312
 30
0.0
 40
1.0
100
AcDbArc
 50
270.0
 51
0.000000000000007
  0
ARC
  5
2180A
330
18
100
AcDbEntity
  8
01
  6
Continuous
370
    15
100
AcDbCircle
 10
192.0162424796323
 20
-669.0213298997612
 30
0.0
 40
1.0
100
AcDbArc
 50
270.0
 51
0.000000000000007
  0
ELLIPSE
  5
2180B
330
18
100
AcDbEntity
  8
01
  6
Continuous
370
    15
100
AcDbEllipse
 10
179.0162420474986
 20
-667.7713302201359
 30
0.0
 11
4.250000000000007
 21
0.0
 31
0.0
210
0.0
220
0.0
230
1.0
 40
0.1249999999999998
 41
0.0
 42
6.283185307179586
  0
LINE
  5
2180C
330
18
100
AcDbEntity
  8
01
  6
Continuous
370
    15
100
AcDbLine
 10
192.0162424796323
 20
-670.0213298997612
 30
0.0
 11
166.0162416153649
 21
-670.0213298997612
 31
0.0
  0
LINE
  5
2180D
330
18
100
AcDbEntity
  8
01
  6
Continuous
370
    15
100
AcDbLine
 10
165.0162416153649
 20
-669.0213298997612
 30
0.0
 11
165.0162416153649
 21
-653.0213302153929
 31
0.0
  0
ARC
  5
2180E
330
18
100
AcDbEntity
  8
01
370
    15
100
AcDbCircle
 10
166.0162416153649
 20
-662.0213300902312
 30
0.0
 40
1.0
100
AcDbArc
 50
180.0
 51
270.0
  0
ARC
  5
2180F
330
18
100
AcDbEntity
  8
01
  6
Continuous
370
    15
100
AcDbCircle
 10
166.0162416153649
 20
-669.0213298997612
 30
0.0
 40
1.0
100
AcDbArc
 50
180.0
 51
270.0
  0
LINE
  5
21810
330
18
100
AcDbEntity
  8
1CENTER
370
    15
100
AcDbLine
 10
179.0162416153649
 20
-658.7138145938929
 30
0.0
 11
179.0162416153649
 21
-652.957986114572
 31
0.0
  0
LINE
  5
21811
330
18
100
AcDbEntity
  8
01
100
AcDbLine
 10
192.0162424796323
 20
-652.0213302153926
 30
0.0
 11
166.0162416153649
 21
-652.0213302153926
 31
0.0
  0
LINE
  5
21812
330
18
100
AcDbEntity
  8
01
100
AcDbLine
 10
192.0162424796323
 20
-663.0213300902312
 30
0.0
 11
166.0162416153649
 21
-663.0213300902312
 31
0.0
  0
LINE
  5
21813
330
18
100
AcDbEntity
  8
1CENTER
370
    15
100
AcDbLine
 10
179.0162416153649
 20
-547.8484304360963
 30
0.0
 11
179.0162416153649
 21
-535.2550240998144
 31
0.0
  0
LINE
  5
21814
330
18
100
AcDbEntity
  8
01
370
    15
100
AcDbLine
 10
171.2111973072116
 20
-535.8213303512664
 30
0.0
 11
165.0341020000093
 21
-591.0734590973039
 31
0.0
  0
LINE
  5
21815
330
18
100
AcDbEntity
  8
1PHANTOM
 48
0.3
100
AcDbLine
 10
190.2662416153649
 20
-552.8213303512663
 30
0.0
 11
189.7717084675407
 21
-552.8213303512663
 31
0.0
  0
LINE
  5
21816
330
18
100
AcDbEntity
  8
1PHANTOM
 48
0.3
100
AcDbLine
 10
167.0162416153649
 20
-662.8213303512612
 30
0.0
 11
168.5162416153649
 21
-662.8213303512612
 31
0.0
  0
LINE
  5
2181B
330
18
100
AcDbEntity
  8
1PHANTOM
 48
0.3
100
AcDbLine
 10
167.0162416153649
 20
-660.8213303512611
 30
0.0
 11
167.0162416153649
 21
-662.8213303512612
 31
0.0
  0
SPLINE
  5
2181C
330
18
100
AcDbEntity
  8
1PHANTOM
 48
0.3
100
AcDbSpline
210
0.0
220
0.0
230
1.0
 70
    24
 71
     3
 72
    18
 73
    14
 74
     0
 42
0.0000000001
 43
0.0000000001
 40
0.0
 40
0.0
 40
0.0
 40
0.0
 40
0.1250000000000009
 40
0.1250000000000009
 40
0.2500000000000019
 40
0.2500000000000019
 40
0.5000000000000038
 40
0.5000000000000038
 40
0.6250000000000038
 40
0.6250000000000038
 40
0.7500000000000039
 40
0.7500000000000039
 40
1.0
 40
1.0
 40
1.0
 40
1.0
 10
168.5162416153649
 20
-660.8213303512611
 30
0.0
 10
168.4103541995124
 20
-660.8213303512611
 30
0.0
 10
168.3065393191074
 20
-660.8213303512611
 30
0.0
 10
168.1028626875928
 20
-660.8213303512611
 30
0.0
 10
168.0021198102879
 20
-660.8213303512611
 30
0.0
 10
167.7195828175283
 20
-660.8213303512611
 30
0.0
 10
167.5510295946893
 20
-660.8213303512611
 30
0.0
 10
167.3493184371906
 20
-660.8213303512611
 30
0.0
 10
167.2893907436629
 20
-660.8213303512611
 30
0.0
 10
167.1884215702758
 20
-660.8213303512611
 30
0.0
 10
167.1468420308033
 20
-660.8213303512611
 30
0.0
 10
167.0471733878327
 20
-660.8213303512611
 30
0.0
 10
167.0162416153649
 20
-660.8213303512611
 30
0.0
 10
167.0162416153649
 20
-660.8213303512611
 30
0.0
  0
LINE
  5
2181E
330
18
100
AcDbEntity
  8
1PHANTOM
 48
0.3
100
AcDbLine
 10
168.5162416153649
 20
-662.8213303512612
 30
0.0
 11
168.5162416153649
 21
-665.8213303512611
 31
0.0
  0
LINE
  5
2181F
330
18
100
AcDbEntity
  8
1PHANTOM
 48
0.3
100
AcDbLine
 10
168.5162416153649
 20
-652.4164502568601
 30
0.0
 11
168.5162416153649
 21
-660.8213303512611
 31
0.0
  0
ELLIPSE
  5
21820
330
18
100
AcDbEntity
  8
1DIM
  6
PHANTOM2
 48
0.5
370
    15
100
AcDbEllipse
 10
170.5162416153649
 20
-651.3976083519289
 30
0.0
 11
-0.5
 21
0.0
 31
0.0
210
0.0
220
0.0
230
-1.0
 40
0.5624976562597795
 41
0.0
 42
0.3488129253307387
  0
LINE
  5
21823
330
18
100
AcDbEntity
  8
1PHANTOM
 48
0.3
100
AcDbLine
 10
171.8877033515837
 20
-646.9068028659096
 30
0.0
 11
168.6764772854708
 21
-651.8734991814974
 31
0.0
  0
ARC
  5
21824
330
18
100
AcDbEntity
  8
1PHANTOM
 48
0.3
100
AcDbCircle
 10
169.5162416153649
 20
-652.4164502568601
 30
0.0
 40
1.0
100
AcDbArc
 50
147.1152418024579
 51
180.0
  0
LINE
  5
21826
330
18
100
AcDbEntity
  8
1PHANTOM
 48
0.3
100
AcDbLine
 10
179.0162416153649
 20
-646.3213303512612
 30
0.0
 11
172.8105001750194
 21
-646.3213303512612
 31
0.0
  0
ARC
  5
21827
330
18
100
AcDbEntity
  8
1PHANTOM
 48
0.3
100
AcDbCircle
 10
172.8105001750194
 20
-647.3213303512611
 30
0.0
 40
1.000000000000005
100
AcDbArc
 50
90.0
 51
147.1152418024579
  0
LINE
  5
21828
330
18
100
AcDbEntity
  8
1PHANTOM
 48
0.3
100
AcDbLine
 10
171.9707358451252
 20
-646.7783792758987
 30
0.0
 11
171.8877033515837
 21
-646.9068028659096
 31
0.0
  0
LINE
  5
21829
330
18
100
AcDbEntity
  8
1PHANTOM
 48
0.3
100
AcDbLine
 10
179.0162416153649
 20
-658.0713303512611
 30
0.0
 11
177.0162416153649
 21
-658.0713303512611
 31
0.0
  0
ARC
  5
2182A
330
18
100
AcDbEntity
  8
1PHANTOM
 48
0.3
100
AcDbCircle
 10
177.0162416153649
 20
-655.8213303512611
 30
0.0
 40
2.25
100
AcDbArc
 50
90.0
 51
270.0
  0
LINE
  5
2182B
330
18
100
AcDbEntity
  8
1PHANTOM
 48
0.3
100
AcDbLine
 10
177.0162416153649
 20
-653.5713303512611
 30
0.0
 11
179.0162416153649
 21
-653.5713303512611
 31
0.0
  0
LINE
  5
2182C
330
18
100
AcDbEntity
  8
1PHANTOM
 48
0.3
100
AcDbLine
 10
179.0162416153649
 20
-666.8213303512612
 30
0.0
 11
169.5162416153649
 21
-666.8213303512612
 31
0.0
  0
ARC
  5
2182D
330
18
100
AcDbEntity
  8
1PHANTOM
 48
0.3
100
AcDbCircle
 10
169.5162416153649
 20
-665.8213303512611
 30
0.0
 40
1.0
100
AcDbArc
 50
180.0
 51
270.0
  0
LINE
  5
2182E
330
18
100
AcDbEntity
  8
1PHANTOM
 48
0.3
100
AcDbLine
 10
191.0162416153649
 20
-662.8213303512612
 30
0.0
 11
189.5162416153649
 21
-662.8213303512612
 31
0.0
  0
LINE
  5
21833
330
18
100
AcDbEntity
  8
1PHANTOM
 48
0.3
100
AcDbLine
 10
191.0162416153649
 20
-660.8213303512611
 30
0.0
 11
191.0162416153649
 21
-662.8213303512612
 31
0.0
  0
SPLINE
  5
21834
330
18
100
AcDbEntity
  8
1PHANTOM
 48
0.3
100
AcDbSpline
210
0.0
220
0.0
230
1.0
 70
    24
 71
     3
 72
    18
 73
    14
 74
     0
 42
0.0000000001
 43
0.0000000001
 40
0.0
 40
0.0
 40
0.0
 40
0.0
 40
0.1250000000000009
 40
0.1250000000000009
 40
0.2500000000000019
 40
0.2500000000000019
 40
0.5000000000000038
 40
0.5000000000000038
 40
0.6250000000000038
 40
0.6250000000000038
 40
0.7500000000000039
 40
0.7500000000000039
 40
1.0
 40
1.0
 40
1.0
 40
1.0
 10
189.5162416153649
 20
-660.8213303512611
 30
0.0
 10
189.6221290312174
 20
-660.8213303512611
 30
0.0
 10
189.7259439116225
 20
-660.8213303512611
 30
0.0
 10
189.929620543137
 20
-660.8213303512611
 30
0.0
 10
190.0303634204419
 20
-660.8213303512611
 30
0.0
 10
190.3129004132015
 20
-660.8213303512611
 30
0.0
 10
190.4814536360405
 20
-660.8213303512611
 30
0.0
 10
190.6831647935393
 20
-660.8213303512611
 30
0.0
 10
190.743092487067
 20
-660.8213303512611
 30
0.0
 10
190.844061660454
 20
-660.8213303512611
 30
0.0
 10
190.8856411999265
 20
-660.8213303512611
 30
0.0
 10
190.9853098428972
 20
-660.8213303512611
 30
0.0
 10
191.0162416153649
 20
-660.8213303512611
 30
0.0
 10
191.0162416153649
 20
-660.8213303512611
 30
0.0
  0
LINE
  5
21836
330
18
100
AcDbEntity
  8
1PHANTOM
 48
0.3
100
AcDbLine
 10
189.5162416153649
 20
-662.8213303512612
 30
0.0
 11
189.5162416153649
 21
-665.8213303512611
 31
0.0
  0
LINE
  5
21837
330
18
100
AcDbEntity
  8
1PHANTOM
 48
0.3
100
AcDbLine
 10
189.5162416153649
 20
-652.4164502568601
 30
0.0
 11
189.5162416153649
 21
-660.8213303512611
 31
0.0
  0
ELLIPSE
  5
21838
330
18
100
AcDbEntity
  8
1DIM
  6
PHANTOM2
 48
0.5
370
    15
100
AcDbEllipse
 10
187.5162416153649
 20
-651.3976083519289
 30
0.0
 11
0.5
 21
0.0
 31
0.0
210
0.0
220
0.0
230
1.0
 40
0.5624976562597795
 41
0.0
 42
0.3488129253307387
  0
LINE
  5
2183B
330
18
100
AcDbEntity
  8
1PHANTOM
 48
0.3
100
AcDbLine
 10
186.1447798791462
 20
-646.9068028659096
 30
0.0
 11
189.3560059452591
 21
-651.8734991814974
 31
0.0
  0
ARC
  5
2183C
330
18
100
AcDbEntity
  8
1DIM
  6
PHANTOM2
 48
0.5
370
    15
100
AcDbCircle
 10
188.5162416153649
 20
-652.4164502568601
 30
0.0
 40
1.0
100
AcDbArc
 50
0.000000000000007
 51
32.88475819754208
  0
LINE
  5
2183E
330
18
100
AcDbEntity
  8
1PHANTOM
 48
0.3
100
AcDbLine
 10
179.0162416153649
 20
-646.3213303512612
 30
0.0
 11
185.2219830557104
 21
-646.3213303512612
 31
0.0
  0
ARC
  5
2183F
330
18
100
AcDbEntity
  8
1PHANTOM
 48
0.3
100
AcDbCircle
 10
185.2219830557104
 20
-647.3213303512611
 30
0.0
 40
1.000000000000005
100
AcDbArc
 50
32.88475819754208
 51
90.0
  0
LINE
  5
21840
330
18
100
AcDbEntity
  8
1PHANTOM
 48
0.3
100
AcDbLine
 10
186.0617473856047
 20
-646.7783792758987
 30
0.0
 11
186.1447798791462
 21
-646.9068028659096
 31
0.0
  0
LINE
  5
21841
330
18
100
AcDbEntity
  8
1PHANTOM
 48
0.3
100
AcDbLine
 10
179.0162416153649
 20
-658.0713303512611
 30
0.0
 11
181.0162416153649
 21
-658.0713303512611
 31
0.0
  0
ARC
  5
21842
330
18
100
AcDbEntity
  8
1PHANTOM
 48
0.3
100
AcDbCircle
 10
181.0162416153649
 20
-655.8213303512611
 30
0.0
 40
2.25
100
AcDbArc
 50
270.0
 51
90.0
  0
LINE
  5
21843
330
18
100
AcDbEntity
  8
1PHANTOM
 48
0.3
100
AcDbLine
 10
181.0162416153649
 20
-653.5713303512611
 30
0.0
 11
179.0162416153649
 21
-653.5713303512611
 31
0.0
  0
LINE
  5
21844
330
18
100
AcDbEntity
  8
1PHANTOM
 48
0.3
100
AcDbLine
 10
179.0162416153649
 20
-666.8213303512612
 30
0.0
 11
188.5162416153649
 21
-666.8213303512612
 31
0.0
  0
ARC
  5
21845
330
18
100
AcDbEntity
  8
1PHANTOM
 48
0.3
100
AcDbCircle
 10
188.5162416153649
 20
-665.8213303512611
 30
0.0
 40
1.0
100
AcDbArc
 50
270.0
 51
0.000000000000007
  0
LINE
  5
22058
330
18
100
AcDbEntity
  8
01
  6
Continuous
370
    15
100
AcDbLine
 10
687.2180640649458
 20
-652.2635500806487
 30
0.0
 11
743.0026277310367
 21
-652.2635500806487
 31
0.0
  0
TEXT
  5
22151
330
18
100
AcDbEntity
  8
01
100
AcDbText
 10
763.9874671862395
 20
-607.1663973902787
 30
0.0
 40
3.5
  1
合板9mm以上
100
AcDbText
  0
TEXT
  5
22152
330
18
100
AcDbEntity
  8
01
100
AcDbText
 10
750.8520490410743
 20
-607.1663973902787
 30
0.0
 40
3.5
  1
PB
100
AcDbText
  0
LINE
  5
22154
330
18
100
AcDbEntity
  8
1HATCH
100
AcDbLine
 10
726.6664485066298
 20
-658.8640914212772
 30
0.0
 11
726.6662404910568
 21
-664.2141031707279
 31
0.0
  0
LINE
  5
22155
330
18
100
AcDbEntity
  8
1HATCH
100
AcDbLine
 10
723.3664485066862
 20
-658.8640700147642
 30
0.0
 11
723.3662404914334
 21
-664.2140473275486
 31
0.0
  0
LINE
  5
22156
330
18
100
AcDbEntity
  8
1HATCH
100
AcDbLine
 10
727.0164458371005
 20
-659.2140946787799
 30
0.0
 11
723.0164458371876
 21
-659.2140667572412
 31
0.0
  0
LINE
  5
22157
330
18
100
AcDbEntity
  8
01
100
AcDbLine
 10
729.0162186192357
 20
-666.5641086386514
 30
0.0
 11
721.0162186194088
 21
-666.5640527955739
 31
0.0
  0
LINE
  5
22158
330
18
100
AcDbEntity
  8
1HATCH
100
AcDbLine
 10
726.6662404910568
 20
-664.2141031707279
 30
0.0
 11
727.0162372335514
 21
-664.5641039850996
 31
0.0
  0
LINE
  5
22159
330
18
100
AcDbEntity
  8
1HATCH
100
AcDbLine
 10
723.3662404914334
 20
-664.2140473275486
 30
0.0
 11
723.016237233898
 21
-664.5640481419353
 31
0.0
  0
LINE
  5
2215A
330
18
100
AcDbEntity
  8
1CENTER
100
AcDbLine
 10
725.0164667625527
 20
-656.9025955586583
 30
0.0
 11
725.0161977735551
 21
-668.8038319605372
 31
0.0
  0
LINE
  5
2215D
330
18
100
AcDbEntity
  8
01
100
AcDbLine
 10
727.0164458371005
 20
-659.2140946787799
 30
0.0
 11
727.0162372335514
 21
-664.5641039850996
 31
0.0
  0
LINE
  5
2215E
330
18
100
AcDbEntity
  8
01
100
AcDbLine
 10
726.6664485066232
 20
-658.8640922356555
 30
0.0
 11
727.0164458371005
 21
-659.2140946787799
 31
0.0
  0
LINE
  5
2215F
330
18
100
AcDbEntity
  8
01
100
AcDbLine
 10
729.0162186192357
 20
-666.5641086386514
 30
0.0
 11
727.0162372335514
 21
-664.5641039850996
 31
0.0
  0
LINE
  5
22160
330
18
100
AcDbEntity
  8
01
100
AcDbLine
 10
726.6664485066232
 20
-658.8640922356555
 30
0.0
 11
723.3664485066928
 21
-658.864069200386
 31
0.0
  0
LINE
  5
22161
330
18
100
AcDbEntity
  8
01
100
AcDbLine
 10
729.0162186192357
 20
-666.5641086386514
 30
0.0
 11
729.0162158270818
 21
-666.8641086386393
 31
0.0
  0
LINE
  5
22162
330
18
100
AcDbEntity
  8
01
100
AcDbLine
 10
723.3664485066928
 20
-658.864069200386
 30
0.0
 11
723.0164458371876
 21
-659.2140667572412
 31
0.0
  0
LINE
  5
22163
330
18
100
AcDbEntity
  8
01
100
AcDbLine
 10
729.0162158270818
 20
-666.8641086386393
 30
0.0
 11
721.016215827255
 21
-666.8640527955617
 31
0.0
  0
LINE
  5
22164
330
18
100
AcDbEntity
  8
01
100
AcDbLine
 10
723.0164458371876
 20
-659.2140667572412
 30
0.0
 11
723.016237233898
 21
-664.5640481419353
 31
0.0
  0
LINE
  5
22165
330
18
100
AcDbEntity
  8
01
100
AcDbLine
 10
721.0162186194088
 20
-666.5640527955739
 30
0.0
 11
721.016215827255
 21
-666.8640527955617
 31
0.0
  0
LINE
  5
22166
330
18
100
AcDbEntity
  8
01
100
AcDbLine
 10
721.0162186194088
 20
-666.5640527955739
 30
0.0
 11
723.016237233898
 21
-664.5640481419353
 31
0.0
  0
LINE
  5
22167
330
18
100
AcDbEntity
  8
1DIM
100
AcDbLine
 10
776.6134138646109
 20
-655.8213303512664
 30
0.0
 11
782.909794167669
 21
-655.8213303512664
 31
0.0
  0
LINE
  5
22168
330
18
100
AcDbEntity
  8
1DIM
100
AcDbLine
 10
743.0162416153649
 20
-642.5213300487728
 30
0.0
 11
782.909794167669
 21
-642.5213300487729
 31
0.0
  0
LINE
  5
22169
330
18
100
AcDbEntity
  8
1DIM
100
AcDbLine
 10
781.909794167669
 20
-653.8213303512663
 30
0.0
 11
781.909794167669
 21
-644.5213300487729
 31
0.0
  0
SOLID
  5
2216D
330
18
100
AcDbEntity
  8
1DIM
100
AcDbTrace
 10
760.9045579798173
 20
-620.7115652999631
 30
0.0
 11
760.1636232531244
 21
-622.5989250541942
 31
0.0
 12
760.2523907770022
 22
-620.5732815915346
 32
0.0
 13
760.2523907770022
 23
-620.5732815915346
 33
0.0
1001
ACAD
1000
DSTYLE
1002
{
1070
    45
1040
0.5
1002
}
  0
SOLID
  5
2216F
330
18
100
AcDbEntity
  8
1DIM
100
AcDbTrace
 10
747.7691398346522
 20
-620.7115652999631
 30
0.0
 11
747.0282051079593
 21
-622.5989250541942
 31
0.0
 12
747.116972631837
 22
-620.5732815915346
 32
0.0
 13
747.116972631837
 23
-620.5732815915346
 33
0.0
1001
ACAD
1000
DSTYLE
1002
{
1070
    45
1040
0.5
1002
}
  0
LINE
  5
22171
330
18
100
AcDbEntity
  8
1DIM1
100
AcDbLine
 10
165.0162416153649
 20
-669.0213298997612
 30
0.0
 11
165.0162416153649
 21
-734.6604890422086
 31
0.0
  0
LINE
  5
22172
330
18
100
AcDbEntity
  8
1DIM1
100
AcDbLine
 10
643.0162416153649
 20
-669.0213298997612
 30
0.0
 11
643.0162416153649
 21
-734.6604890422086
 31
0.0
  0
LINE
  5
22173
330
18
100
AcDbEntity
  8
1DIM1
100
AcDbLine
 10
171.0162416153649
 20
-731.6604890422086
 30
0.0
 11
637.0162416153649
 21
-731.6604890422086
 31
0.0
  0
LINE
  5
22177
330
18
100
AcDbEntity
  8
1DIM1
100
AcDbLine
 10
179.0162416153649
 20
-658.7138145938929
 30
0.0
 11
179.0162416153649
 21
-709.5163932448427
 31
0.0
  0
LINE
  5
22178
330
18
100
AcDbEntity
  8
1DIM1
100
AcDbLine
 10
629.0162416153649
 20
-658.7138145938929
 30
0.0
 11
629.0162416153649
 21
-709.5163932448427
 31
0.0
  0
LINE
  5
22179
330
18
100
AcDbEntity
  8
1DIM1
100
AcDbLine
 10
185.0162416153649
 20
-706.5163932448426
 30
0.0
 11
623.0162416153649
 21
-706.5163932448426
 31
0.0
  0
LINE
  5
2217D
330
18
100
AcDbEntity
  8
0
100
AcDbLine
 10
179.016195079467
 20
-504.8213303514287
 30
0.0
 11
180.516195079467
 21
-510.1213268612903
 31
0.0
  0
LINE
  5
2217E
330
18
100
AcDbEntity
  8
0
100
AcDbLine
 10
180.516195079467
 20
-510.1213268612903
 30
0.0
 11
180.5161950794668
 21
-539.8213268611823
 31
0.0
  0
LINE
  5
2217F
330
18
100
AcDbEntity
  8
0
100
AcDbLine
 10
179.016195079467
 20
-504.8213303514287
 30
0.0
 11
177.5161950794669
 21
-510.121333841674
 31
0.0
  0
LINE
  5
22180
330
18
100
AcDbEntity
  8
0
100
AcDbLine
 10
182.5162416153648
 20
-539.8213222074843
 30
0.0
 11
175.5162416153649
 21
-539.8213384950484
 31
0.0
  0
LINE
  5
22181
330
18
100
AcDbEntity
  8
0
100
AcDbLine
 10
177.5161950794669
 20
-510.121333841674
 30
0.0
 11
177.5161950794668
 21
-539.821333841567
 31
0.0
  0
LINE
  5
22182
330
18
100
AcDbEntity
  8
0
100
AcDbLine
 10
182.5162416153648
 20
-539.8213222074843
 30
0.0
 11
182.5162416153649
 21
-540.9213256976795
 31
0.0
  0
ARC
  5
22183
330
18
100
AcDbEntity
  8
0
100
AcDbCircle
 10
181.0162416153649
 20
-540.9213256976795
 30
0.0
 40
1.5
100
AcDbArc
 50
270.0001333155316
 51
0.0
  0
LINE
  5
22184
330
18
100
AcDbEntity
  8
0
100
AcDbLine
 10
175.5162416153649
 20
-539.8213384950484
 30
0.0
 11
175.5162416153649
 21
-540.9213350048591
 31
0.0
  0
LINE
  5
22185
330
18
100
AcDbEntity
  8
0
100
AcDbLine
 10
181.0162451055573
 20
-542.4213256976754
 30
0.0
 11
177.0162451055573
 21
-542.421335004855
 31
0.0
  0
ARC
  5
22186
330
18
100
AcDbEntity
  8
0
100
AcDbCircle
 10
177.0162416153649
 20
-540.9213350048591
 30
0.0
 40
1.5
100
AcDbArc
 50
180.0
 51
270.0001333155316
  0
LINE
  5
22187
330
18
100
AcDbEntity
  8
1CENTER
100
AcDbLine
 10
179.0162416153649
 20
-503.3905354339633
 30
0.0
 11
179.0162416153649
 21
-543.4916067605752
 31
0.0
  0
LINE
  5
22188
330
18
100
AcDbEntity
  8
0
100
AcDbLine
 10
180.11056542936
 20
-506.9213278051065
 30
0.0
 11
178.1482303404846
 21
-506.1213323710555
 31
0.0
  0
LINE
  5
22189
330
18
100
AcDbEntity
  8
0
100
AcDbLine
 10
178.1482303404846
 20
-506.1213323710555
 30
0.0
 11
178.736506915527
 21
-505.8095625148034
 31
0.0
  0
LINE
  5
2218A
330
18
100
AcDbEntity
  8
0
100
AcDbLine
 10
181.016195079467
 20
-529.3213256978965
 30
0.0
 11
177.016195079467
 21
-528.5213350050782
 31
0.0
  0
LINE
  5
2218B
330
18
100
AcDbEntity
  8
0
100
AcDbLine
 10
181.016195079467
 20
-518.1213256978922
 30
0.0
 11
177.016195079467
 21
-517.3213350050696
 31
0.0
  0
LINE
  5
2218C
330
18
100
AcDbEntity
  8
0
100
AcDbLine
 10
181.016195079467
 20
-514.9213256978921
 30
0.0
 11
177.016195079467
 21
-514.1213350050695
 31
0.0
  0
LINE
  5
2218D
330
18
100
AcDbEntity
  8
0
100
AcDbLine
 10
177.016195079467
 20
-514.1213350050695
 30
0.0
 11
177.516195079467
 21
-514.0213338416723
 31
0.0
  0
LINE
  5
2218E
330
18
100
AcDbEntity
  8
0
100
AcDbLine
 10
180.516195079467
 20
-513.4213268612893
 30
0.0
 11
181.016195079467
 21
-513.3213256978921
 31
0.0
  0
LINE
  5
2218F
330
18
100
AcDbEntity
  8
0
100
AcDbLine
 10
177.016195079467
 20
-517.3213350050696
 30
0.0
 11
177.516195079467
 21
-517.2213338416724
 31
0.0
  0
LINE
  5
22190
330
18
100
AcDbEntity
  8
0
100
AcDbLine
 10
177.016195079467
 20
-515.7213350050694
 30
0.0
 11
177.516195079467
 21
-515.6213338416724
 31
0.0
  0
LINE
  5
22191
330
18
100
AcDbEntity
  8
0
100
AcDbLine
 10
180.516195079467
 20
-515.0213268612892
 30
0.0
 11
181.016195079467
 21
-514.9213256978921
 31
0.0
  0
LINE
  5
22192
330
18
100
AcDbEntity
  8
0
100
AcDbLine
 10
180.516195079467
 20
-516.6213268612891
 30
0.0
 11
181.016195079467
 21
-516.521325697892
 31
0.0
  0
LINE
  5
22193
330
18
100
AcDbEntity
  8
0
100
AcDbLine
 10
181.016195079467
 20
-516.521325697892
 30
0.0
 11
177.016195079467
 21
-515.7213350050694
 31
0.0
  0
LINE
  5
22194
330
18
100
AcDbEntity
  8
0
100
AcDbLine
 10
177.6954162360778
 20
-507.7213334246612
 30
0.0
 11
178.247165699881
 21
-507.5385692820332
 31
0.0
  0
LINE
  5
22195
330
18
100
AcDbEntity
  8
0
100
AcDbLine
 10
177.016195079467
 20
-510.9213350050695
 30
0.0
 11
177.516195079467
 21
-510.8213338416724
 31
0.0
  0
LINE
  5
22196
330
18
100
AcDbEntity
  8
0
100
AcDbLine
 10
177.016195079467
 20
-512.5213350050695
 30
0.0
 11
177.516195079467
 21
-512.4213338416725
 31
0.0
  0
LINE
  5
22197
330
18
100
AcDbEntity
  8
0
100
AcDbLine
 10
177.242602131671
 20
-509.3213344782668
 30
0.0
 11
177.7791958669421
 21
-509.192063780637
 31
0.0
  0
LINE
  5
22198
330
18
100
AcDbEntity
  8
0
100
AcDbLine
 10
180.0952804822583
 20
-508.6340962638523
 30
0.0
 11
180.5633789374082
 21
-508.5213267515023
 31
0.0
  0
LINE
  5
22199
330
18
100
AcDbEntity
  8
0
100
AcDbLine
 10
180.516195079467
 20
-511.8213268612891
 30
0.0
 11
181.016195079467
 21
-511.7213256978921
 31
0.0
  0
LINE
  5
2219A
330
18
100
AcDbEntity
  8
0
100
AcDbLine
 10
180.516195079467
 20
-510.2213268612892
 30
0.0
 11
181.016195079467
 21
-510.1213256978922
 31
0.0
  0
LINE
  5
2219B
330
18
100
AcDbEntity
  8
0
100
AcDbLine
 10
179.6533935887289
 20
-507.0727636015469
 30
0.0
 11
180.11056542936
 21
-506.9213278051065
 31
0.0
  0
LINE
  5
2219C
330
18
100
AcDbEntity
  8
0
100
AcDbLine
 10
180.5633789374082
 20
-508.5213267515023
 30
0.0
 11
177.6954162360778
 21
-507.7213334246612
 31
0.0
  0
LINE
  5
2219D
330
18
100
AcDbEntity
  8
0
100
AcDbLine
 10
181.016195079467
 20
-511.7213256978921
 30
0.0
 11
177.016195079467
 21
-510.9213350050695
 31
0.0
  0
LINE
  5
2219E
330
18
100
AcDbEntity
  8
0
100
AcDbLine
 10
181.016195079467
 20
-510.1213256978922
 30
0.0
 11
177.242602131671
 21
-509.3213344782668
 31
0.0
  0
LINE
  5
2219F
330
18
100
AcDbEntity
  8
0
100
AcDbLine
 10
181.016195079467
 20
-513.3213256978921
 30
0.0
 11
177.016195079467
 21
-512.5213350050695
 31
0.0
  0
LINE
  5
221A0
330
18
100
AcDbEntity
  8
0
100
AcDbLine
 10
181.016195079467
 20
-526.1213256978964
 30
0.0
 11
177.016195079467
 21
-525.3213350050782
 31
0.0
  0
LINE
  5
221A1
330
18
100
AcDbEntity
  8
0
100
AcDbLine
 10
177.016195079467
 20
-525.3213350050782
 30
0.0
 11
177.516195079467
 21
-525.2213338416805
 31
0.0
  0
LINE
  5
221A2
330
18
100
AcDbEntity
  8
0
100
AcDbLine
 10
180.516195079467
 20
-524.6213268612898
 30
0.0
 11
181.016195079467
 21
-524.5213256978921
 31
0.0
  0
LINE
  5
221A3
330
18
100
AcDbEntity
  8
0
100
AcDbLine
 10
177.016195079467
 20
-526.9213350050783
 30
0.0
 11
177.516195079467
 21
-526.8213338416806
 31
0.0
  0
LINE
  5
221A4
330
18
100
AcDbEntity
  8
0
100
AcDbLine
 10
177.016195079467
 20
-528.5213350050782
 30
0.0
 11
177.516195079467
 21
-528.4213338416805
 31
0.0
  0
LINE
  5
221A5
330
18
100
AcDbEntity
  8
0
100
AcDbLine
 10
180.516195079467
 20
-526.2213268612941
 30
0.0
 11
181.016195079467
 21
-526.1213256978964
 31
0.0
  0
LINE
  5
221A6
330
18
100
AcDbEntity
  8
0
100
AcDbLine
 10
180.516195079467
 20
-527.8213268612943
 30
0.0
 11
181.016195079467
 21
-527.7213256978966
 31
0.0
  0
LINE
  5
221A7
330
18
100
AcDbEntity
  8
0
100
AcDbLine
 10
181.016195079467
 20
-527.7213256978966
 30
0.0
 11
177.016195079467
 21
-526.9213350050783
 31
0.0
  0
LINE
  5
221A8
330
18
100
AcDbEntity
  8
0
100
AcDbLine
 10
177.016195079467
 20
-520.5213350050739
 30
0.0
 11
177.516195079467
 21
-520.4213338416762
 31
0.0
  0
LINE
  5
221A9
330
18
100
AcDbEntity
  8
0
100
AcDbLine
 10
177.016195079467
 20
-518.9213350050695
 30
0.0
 11
177.516195079467
 21
-518.8213338416724
 31
0.0
  0
LINE
  5
221AA
330
18
100
AcDbEntity
  8
0
100
AcDbLine
 10
177.016195079467
 20
-523.7213350050739
 30
0.0
 11
177.516195079467
 21
-523.6213338416762
 31
0.0
  0
LINE
  5
221AB
330
18
100
AcDbEntity
  8
0
100
AcDbLine
 10
177.016195079467
 20
-522.121335005074
 30
0.0
 11
177.516195079467
 21
-522.0213338416763
 31
0.0
  0
LINE
  5
221AC
330
18
100
AcDbEntity
  8
0
100
AcDbLine
 10
180.516195079467
 20
-518.2213268612892
 30
0.0
 11
181.016195079467
 21
-518.1213256978922
 31
0.0
  0
LINE
  5
221AD
330
18
100
AcDbEntity
  8
0
100
AcDbLine
 10
180.516195079467
 20
-519.8213268612899
 30
0.0
 11
181.016195079467
 21
-519.7213256978921
 31
0.0
  0
LINE
  5
221AE
330
18
100
AcDbEntity
  8
0
100
AcDbLine
 10
180.516195079467
 20
-523.0213268612899
 30
0.0
 11
181.016195079467
 21
-522.9213256978922
 31
0.0
  0
LINE
  5
221AF
330
18
100
AcDbEntity
  8
0
100
AcDbLine
 10
180.516195079467
 20
-521.4213268612898
 30
0.0
 11
181.016195079467
 21
-521.3213256978921
 31
0.0
  0
LINE
  5
221B0
330
18
100
AcDbEntity
  8
0
100
AcDbLine
 10
181.016195079467
 20
-521.3213256978921
 30
0.0
 11
177.016195079467
 21
-520.5213350050739
 31
0.0
  0
LINE
  5
221B1
330
18
100
AcDbEntity
  8
0
100
AcDbLine
 10
181.016195079467
 20
-519.7213256978921
 30
0.0
 11
177.016195079467
 21
-518.9213350050695
 31
0.0
  0
LINE
  5
221B2
330
18
100
AcDbEntity
  8
0
100
AcDbLine
 10
181.016195079467
 20
-522.9213256978922
 30
0.0
 11
177.016195079467
 21
-522.121335005074
 31
0.0
  0
LINE
  5
221B3
330
18
100
AcDbEntity
  8
0
100
AcDbLine
 10
181.016195079467
 20
-524.5213256978921
 30
0.0
 11
177.016195079467
 21
-523.7213350050739
 31
0.0
  0
LINE
  5
221B4
330
18
100
AcDbEntity
  8
0
100
AcDbLine
 10
180.516195079467
 20
-534.2213268612984
 30
0.0
 11
181.016195079467
 21
-534.1213256979007
 31
0.0
  0
LINE
  5
221B5
330
18
100
AcDbEntity
  8
0
100
AcDbLine
 10
181.016195079467
 20
-534.1213256979007
 30
0.0
 11
177.016195079467
 21
-533.3213350050824
 31
0.0
  0
LINE
  5
221B6
330
18
100
AcDbEntity
  8
0
100
AcDbLine
 10
177.016195079467
 20
-533.3213350050824
 30
0.0
 11
177.516195079467
 21
-533.2213338416847
 31
0.0
  0
LINE
  5
221B7
330
18
100
AcDbEntity
  8
0
100
AcDbLine
 10
180.516195079467
 20
-532.6213268612985
 30
0.0
 11
181.016195079467
 21
-532.5213256979008
 31
0.0
  0
LINE
  5
221B8
330
18
100
AcDbEntity
  8
0
100
AcDbLine
 10
180.516195079467
 20
-531.0213268612986
 30
0.0
 11
181.016195079467
 21
-530.9213256979009
 31
0.0
  0
LINE
  5
221B9
330
18
100
AcDbEntity
  8
0
100
AcDbLine
 10
181.016195079467
 20
-530.9213256979009
 30
0.0
 11
177.016195079467
 21
-530.1213350050826
 31
0.0
  0
LINE
  5
221BA
330
18
100
AcDbEntity
  8
0
100
AcDbLine
 10
177.016195079467
 20
-531.7213350050825
 30
0.0
 11
177.516195079467
 21
-531.6213338416848
 31
0.0
  0
LINE
  5
221BB
330
18
100
AcDbEntity
  8
0
100
AcDbLine
 10
177.016195079467
 20
-530.1213350050826
 30
0.0
 11
177.516195079467
 21
-530.0213338416849
 31
0.0
  0
LINE
  5
221BC
330
18
100
AcDbEntity
  8
0
100
AcDbLine
 10
181.016195079467
 20
-532.5213256979008
 30
0.0
 11
177.016195079467
 21
-531.7213350050825
 31
0.0
  0
LINE
  5
221BD
330
18
100
AcDbEntity
  8
0
100
AcDbLine
 10
180.516195079467
 20
-529.4213268612942
 30
0.0
 11
181.016195079467
 21
-529.3213256978965
 31
0.0
  0
LINE
  5
221BE
330
18
100
AcDbEntity
  8
0
100
AcDbLine
 10
180.516195079467
 20
-535.8213268612983
 30
0.0
 11
181.016195079467
 21
-535.7213256979006
 31
0.0
  0
LINE
  5
221BF
330
18
100
AcDbEntity
  8
0
100
AcDbLine
 10
181.016195079467
 20
-535.7213256979006
 30
0.0
 11
177.016195079467
 21
-534.9213350050823
 31
0.0
  0
LINE
  5
221C0
330
18
100
AcDbEntity
  8
0
100
AcDbLine
 10
177.016195079467
 20
-534.9213350050823
 30
0.0
 11
177.516195079467
 21
-534.8213338416846
 31
0.0
  0
LINE
  5
221C1
330
18
100
AcDbEntity
  8
0
100
AcDbLine
 10
180.516195079467
 20
-537.4213268612982
 30
0.0
 11
181.016195079467
 21
-537.3213256979005
 31
0.0
  0
LINE
  5
221C2
330
18
100
AcDbEntity
  8
0
100
AcDbLine
 10
181.016195079467
 20
-537.3213256979005
 30
0.0
 11
177.016195079467
 21
-536.5213350050822
 31
0.0
  0
LINE
  5
221C3
330
18
100
AcDbEntity
  8
0
100
AcDbLine
 10
177.016195079467
 20
-536.5213350050822
 30
0.0
 11
177.516195079467
 21
-536.4213338416845
 31
0.0
  0
LINE
  5
221C4
330
18
100
AcDbEntity
  8
0
100
AcDbLine
 10
180.516195079467
 20
-539.021326861298
 30
0.0
 11
181.016195079467
 21
-538.9213256979004
 31
0.0
  0
LINE
  5
221C5
330
18
100
AcDbEntity
  8
0
100
AcDbLine
 10
181.016195079467
 20
-538.9213256979004
 30
0.0
 11
177.016195079467
 21
-538.1213350050821
 31
0.0
  0
LINE
  5
221C6
330
18
100
AcDbEntity
  8
0
100
AcDbLine
 10
177.016195079467
 20
-538.1213350050821
 30
0.0
 11
177.516195079467
 21
-538.0213338416845
 31
0.0
  0
LINE
  5
221C7
330
18
100
AcDbEntity
  8
1DIM
100
AcDbLine
 10
743.0162416153649
 20
-642.5213300487728
 30
0.0
 11
792.2812689286456
 21
-642.5213300487729
 31
0.0
  0
LINE
  5
221C8
330
18
100
AcDbEntity
  8
1DIM
100
AcDbLine
 10
743.0162416153649
 20
-670.0213298997612
 30
0.0
 11
792.2812689286456
 21
-670.0213298997613
 31
0.0
  0
LINE
  5
221C9
330
18
100
AcDbEntity
  8
1DIM
100
AcDbLine
 10
791.2812689286456
 20
-644.5213300487729
 30
0.0
 11
791.2812689286456
 21
-668.0213298997613
 31
0.0
  0
LINE
  5
221CD
330
18
100
AcDbEntity
  8
1DIM
100
AcDbLine
 10
743.0162416153649
 20
-670.0213298997612
 30
0.0
 11
743.0162416153649
 21
-683.3219593765718
 31
0.0
  0
LINE
  5
221CE
330
18
100
AcDbEntity
  8
1DIM
100
AcDbLine
 10
725.0162416153649
 20
-667.7713300304337
 30
0.0
 11
725.0162416153649
 21
-683.3219593765718
 31
0.0
  0
LINE
  5
221CF
330
18
100
AcDbEntity
  8
1DIM
100
AcDbLine
 10
741.0162416153649
 20
-682.3219593765718
 30
0.0
 11
727.0162416153649
 21
-682.3219593765718
 31
0.0
  0
LINE
  5
221D3
330
18
100
AcDbEntity
  8
0
100
AcDbLine
 10
629.0162881512628
 20
-504.8213303514287
 30
0.0
 11
627.5162881512629
 21
-510.1213268612903
 31
0.0
  0
LINE
  5
221D4
330
18
100
AcDbEntity
  8
0
100
AcDbLine
 10
627.5162881512629
 20
-510.1213268612903
 30
0.0
 11
627.516288151263
 21
-539.8213268611823
 31
0.0
  0
LINE
  5
221D5
330
18
100
AcDbEntity
  8
0
100
AcDbLine
 10
629.0162881512628
 20
-504.8213303514287
 30
0.0
 11
630.516288151263
 21
-510.121333841674
 31
0.0
  0
LINE
  5
221D6
330
18
100
AcDbEntity
  8
0
100
AcDbLine
 10
625.516241615365
 20
-539.8213222074842
 30
0.0
 11
632.5162416153649
 21
-539.8213384950486
 31
0.0
  0
LINE
  5
221D7
330
18
100
AcDbEntity
  8
0
100
AcDbLine
 10
630.516288151263
 20
-510.121333841674
 30
0.0
 11
630.5162881512631
 21
-539.821333841567
 31
0.0
  0
LINE
  5
221D8
330
18
100
AcDbEntity
  8
0
100
AcDbLine
 10
625.516241615365
 20
-539.8213222074842
 30
0.0
 11
625.5162416153649
 21
-540.9213256976795
 31
0.0
  0
ARC
  5
221D9
330
18
100
AcDbEntity
  8
0
100
AcDbCircle
 10
627.0162416153649
 20
-540.9213256976795
 30
0.0
 40
1.5
100
AcDbArc
 50
180.0
 51
269.9998666844684
  0
LINE
  5
221DA
330
18
100
AcDbEntity
  8
0
100
AcDbLine
 10
632.5162416153649
 20
-539.8213384950486
 30
0.0
 11
632.5162416153649
 21
-540.9213350048592
 31
0.0
  0
LINE
  5
221DB
330
18
100
AcDbEntity
  8
0
100
AcDbLine
 10
627.0162381251725
 20
-542.4213256976754
 30
0.0
 11
631.0162381251725
 21
-542.421335004855
 31
0.0
  0
ARC
  5
221DC
330
18
100
AcDbEntity
  8
0
100
AcDbCircle
 10
631.0162416153649
 20
-540.9213350048592
 30
0.0
 40
1.5
100
AcDbArc
 50
269.9998666844684
 51
0.0
  0
LINE
  5
221DD
330
18
100
AcDbEntity
  8
1CENTER
100
AcDbLine
 10
629.0162416153649
 20
-503.3905354339633
 30
0.0
 11
629.0162416153649
 21
-543.4916067605752
 31
0.0
  0
LINE
  5
221DE
330
18
100
AcDbEntity
  8
0
100
AcDbLine
 10
627.9219178013699
 20
-506.9213278051065
 30
0.0
 11
629.8842528902452
 21
-506.1213323710555
 31
0.0
  0
LINE
  5
221DF
330
18
100
AcDbEntity
  8
0
100
AcDbLine
 10
629.8842528902452
 20
-506.1213323710555
 30
0.0
 11
629.2959763152029
 21
-505.8095625148034
 31
0.0
  0
LINE
  5
221E0
330
18
100
AcDbEntity
  8
0
100
AcDbLine
 10
627.0162881512629
 20
-529.3213256978965
 30
0.0
 11
631.0162881512629
 21
-528.5213350050782
 31
0.0
  0
LINE
  5
221E1
330
18
100
AcDbEntity
  8
0
100
AcDbLine
 10
627.0162881512629
 20
-518.1213256978922
 30
0.0
 11
631.0162881512629
 21
-517.3213350050696
 31
0.0
  0
LINE
  5
221E2
330
18
100
AcDbEntity
  8
0
100
AcDbLine
 10
627.0162881512629
 20
-514.9213256978921
 30
0.0
 11
631.0162881512629
 21
-514.1213350050695
 31
0.0
  0
LINE
  5
221E3
330
18
100
AcDbEntity
  8
0
100
AcDbLine
 10
631.0162881512629
 20
-514.1213350050695
 30
0.0
 11
630.5162881512629
 21
-514.0213338416723
 31
0.0
  0
LINE
  5
221E4
330
18
100
AcDbEntity
  8
0
100
AcDbLine
 10
627.5162881512629
 20
-513.4213268612893
 30
0.0
 11
627.0162881512629
 21
-513.3213256978921
 31
0.0
  0
LINE
  5
221E5
330
18
100
AcDbEntity
  8
0
100
AcDbLine
 10
631.0162881512629
 20
-517.3213350050696
 30
0.0
 11
630.5162881512629
 21
-517.2213338416724
 31
0.0
  0
LINE
  5
221E6
330
18
100
AcDbEntity
  8
0
100
AcDbLine
 10
631.0162881512629
 20
-515.7213350050694
 30
0.0
 11
630.5162881512629
 21
-515.6213338416724
 31
0.0
  0
LINE
  5
221E7
330
18
100
AcDbEntity
  8
0
100
AcDbLine
 10
627.5162881512629
 20
-515.0213268612892
 30
0.0
 11
627.0162881512629
 21
-514.9213256978921
 31
0.0
  0
LINE
  5
221E8
330
18
100
AcDbEntity
  8
0
100
AcDbLine
 10
627.5162881512629
 20
-516.6213268612891
 30
0.0
 11
627.0162881512629
 21
-516.521325697892
 31
0.0
  0
LINE
  5
221E9
330
18
100
AcDbEntity
  8
0
100
AcDbLine
 10
627.0162881512629
 20
-516.521325697892
 30
0.0
 11
631.0162881512629
 21
-515.7213350050694
 31
0.0
  0
LINE
  5
221EA
330
18
100
AcDbEntity
  8
0
100
AcDbLine
 10
630.3370669946521
 20
-507.7213334246612
 30
0.0
 11
629.7853175308488
 21
-507.5385692820332
 31
0.0
  0
LINE
  5
221EB
330
18
100
AcDbEntity
  8
0
100
AcDbLine
 10
631.0162881512629
 20
-510.9213350050695
 30
0.0
 11
630.5162881512629
 21
-510.8213338416724
 31
0.0
  0
LINE
  5
221EC
330
18
100
AcDbEntity
  8
0
100
AcDbLine
 10
631.0162881512629
 20
-512.5213350050695
 30
0.0
 11
630.5162881512629
 21
-512.4213338416725
 31
0.0
  0
LINE
  5
221ED
330
18
100
AcDbEntity
  8
0
100
AcDbLine
 10
630.7898810990589
 20
-509.3213344782668
 30
0.0
 11
630.2532873637877
 21
-509.192063780637
 31
0.0
  0
LINE
  5
221EE
330
18
100
AcDbEntity
  8
0
100
AcDbLine
 10
627.9372027484716
 20
-508.6340962638523
 30
0.0
 11
627.4691042933215
 21
-508.5213267515023
 31
0.0
  0
LINE
  5
221EF
330
18
100
AcDbEntity
  8
0
100
AcDbLine
 10
627.5162881512629
 20
-511.8213268612891
 30
0.0
 11
627.0162881512629
 21
-511.7213256978921
 31
0.0
  0
LINE
  5
221F0
330
18
100
AcDbEntity
  8
0
100
AcDbLine
 10
627.5162881512629
 20
-510.2213268612892
 30
0.0
 11
627.0162881512629
 21
-510.1213256978922
 31
0.0
  0
LINE
  5
221F1
330
18
100
AcDbEntity
  8
0
100
AcDbLine
 10
628.3790896420009
 20
-507.0727636015469
 30
0.0
 11
627.9219178013699
 21
-506.9213278051065
 31
0.0
  0
LINE
  5
221F2
330
18
100
AcDbEntity
  8
0
100
AcDbLine
 10
627.4691042933215
 20
-508.5213267515023
 30
0.0
 11
630.3370669946521
 21
-507.7213334246612
 31
0.0
  0
LINE
  5
221F3
330
18
100
AcDbEntity
  8
0
100
AcDbLine
 10
627.0162881512629
 20
-511.7213256978921
 30
0.0
 11
631.0162881512629
 21
-510.9213350050695
 31
0.0
  0
LINE
  5
221F4
330
18
100
AcDbEntity
  8
0
100
AcDbLine
 10
627.0162881512629
 20
-510.1213256978922
 30
0.0
 11
630.7898810990589
 21
-509.3213344782668
 31
0.0
  0
LINE
  5
221F5
330
18
100
AcDbEntity
  8
0
100
AcDbLine
 10
627.0162881512629
 20
-513.3213256978921
 30
0.0
 11
631.0162881512629
 21
-512.5213350050695
 31
0.0
  0
LINE
  5
221F6
330
18
100
AcDbEntity
  8
0
100
AcDbLine
 10
627.0162881512629
 20
-526.1213256978964
 30
0.0
 11
631.0162881512629
 21
-525.3213350050782
 31
0.0
  0
LINE
  5
221F7
330
18
100
AcDbEntity
  8
0
100
AcDbLine
 10
631.0162881512629
 20
-525.3213350050782
 30
0.0
 11
630.5162881512629
 21
-525.2213338416805
 31
0.0
  0
LINE
  5
221F8
330
18
100
AcDbEntity
  8
0
100
AcDbLine
 10
627.5162881512629
 20
-524.6213268612898
 30
0.0
 11
627.0162881512629
 21
-524.5213256978921
 31
0.0
  0
LINE
  5
221F9
330
18
100
AcDbEntity
  8
0
100
AcDbLine
 10
631.0162881512629
 20
-526.9213350050783
 30
0.0
 11
630.5162881512629
 21
-526.8213338416806
 31
0.0
  0
LINE
  5
221FA
330
18
100
AcDbEntity
  8
0
100
AcDbLine
 10
631.0162881512629
 20
-528.5213350050782
 30
0.0
 11
630.5162881512629
 21
-528.4213338416805
 31
0.0
  0
LINE
  5
221FB
330
18
100
AcDbEntity
  8
0
100
AcDbLine
 10
627.5162881512629
 20
-526.2213268612941
 30
0.0
 11
627.0162881512629
 21
-526.1213256978964
 31
0.0
  0
LINE
  5
221FC
330
18
100
AcDbEntity
  8
0
100
AcDbLine
 10
627.5162881512629
 20
-527.8213268612943
 30
0.0
 11
627.0162881512629
 21
-527.7213256978966
 31
0.0
  0
LINE
  5
221FD
330
18
100
AcDbEntity
  8
0
100
AcDbLine
 10
627.0162881512629
 20
-527.7213256978966
 30
0.0
 11
631.0162881512629
 21
-526.9213350050783
 31
0.0
  0
LINE
  5
221FE
330
18
100
AcDbEntity
  8
0
100
AcDbLine
 10
631.0162881512629
 20
-520.5213350050739
 30
0.0
 11
630.5162881512629
 21
-520.4213338416762
 31
0.0
  0
LINE
  5
221FF
330
18
100
AcDbEntity
  8
0
100
AcDbLine
 10
631.0162881512629
 20
-518.9213350050695
 30
0.0
 11
630.5162881512629
 21
-518.8213338416724
 31
0.0
  0
LINE
  5
22200
330
18
100
AcDbEntity
  8
0
100
AcDbLine
 10
631.0162881512629
 20
-523.7213350050739
 30
0.0
 11
630.5162881512629
 21
-523.6213338416762
 31
0.0
  0
LINE
  5
22201
330
18
100
AcDbEntity
  8
0
100
AcDbLine
 10
631.0162881512629
 20
-522.121335005074
 30
0.0
 11
630.5162881512629
 21
-522.0213338416763
 31
0.0
  0
LINE
  5
22202
330
18
100
AcDbEntity
  8
0
100
AcDbLine
 10
627.5162881512629
 20
-518.2213268612892
 30
0.0
 11
627.0162881512629
 21
-518.1213256978922
 31
0.0
  0
LINE
  5
22203
330
18
100
AcDbEntity
  8
0
100
AcDbLine
 10
627.5162881512629
 20
-519.8213268612899
 30
0.0
 11
627.0162881512629
 21
-519.7213256978921
 31
0.0
  0
LINE
  5
22204
330
18
100
AcDbEntity
  8
0
100
AcDbLine
 10
627.5162881512629
 20
-523.0213268612899
 30
0.0
 11
627.0162881512629
 21
-522.9213256978922
 31
0.0
  0
LINE
  5
22205
330
18
100
AcDbEntity
  8
0
100
AcDbLine
 10
627.5162881512629
 20
-521.4213268612898
 30
0.0
 11
627.0162881512629
 21
-521.3213256978921
 31
0.0
  0
LINE
  5
22206
330
18
100
AcDbEntity
  8
0
100
AcDbLine
 10
627.0162881512629
 20
-521.3213256978921
 30
0.0
 11
631.0162881512629
 21
-520.5213350050739
 31
0.0
  0
LINE
  5
22207
330
18
100
AcDbEntity
  8
0
100
AcDbLine
 10
627.0162881512629
 20
-519.7213256978921
 30
0.0
 11
631.0162881512629
 21
-518.9213350050695
 31
0.0
  0
LINE
  5
22208
330
18
100
AcDbEntity
  8
0
100
AcDbLine
 10
627.0162881512629
 20
-522.9213256978922
 30
0.0
 11
631.0162881512629
 21
-522.121335005074
 31
0.0
  0
LINE
  5
22209
330
18
100
AcDbEntity
  8
0
100
AcDbLine
 10
627.0162881512629
 20
-524.5213256978921
 30
0.0
 11
631.0162881512629
 21
-523.7213350050739
 31
0.0
  0
LINE
  5
2220A
330
18
100
AcDbEntity
  8
0
100
AcDbLine
 10
627.5162881512629
 20
-534.2213268612984
 30
0.0
 11
627.0162881512629
 21
-534.1213256979007
 31
0.0
  0
LINE
  5
2220B
330
18
100
AcDbEntity
  8
0
100
AcDbLine
 10
627.0162881512629
 20
-534.1213256979007
 30
0.0
 11
631.0162881512629
 21
-533.3213350050824
 31
0.0
  0
LINE
  5
2220C
330
18
100
AcDbEntity
  8
0
100
AcDbLine
 10
631.0162881512629
 20
-533.3213350050824
 30
0.0
 11
630.5162881512629
 21
-533.2213338416847
 31
0.0
  0
LINE
  5
2220D
330
18
100
AcDbEntity
  8
0
100
AcDbLine
 10
627.5162881512629
 20
-532.6213268612985
 30
0.0
 11
627.0162881512629
 21
-532.5213256979008
 31
0.0
  0
LINE
  5
2220E
330
18
100
AcDbEntity
  8
0
100
AcDbLine
 10
627.5162881512629
 20
-531.0213268612986
 30
0.0
 11
627.0162881512629
 21
-530.9213256979009
 31
0.0
  0
LINE
  5
2220F
330
18
100
AcDbEntity
  8
0
100
AcDbLine
 10
627.0162881512629
 20
-530.9213256979009
 30
0.0
 11
631.0162881512629
 21
-530.1213350050826
 31
0.0
  0
LINE
  5
22210
330
18
100
AcDbEntity
  8
0
100
AcDbLine
 10
631.0162881512629
 20
-531.7213350050825
 30
0.0
 11
630.5162881512629
 21
-531.6213338416848
 31
0.0
  0
LINE
  5
22211
330
18
100
AcDbEntity
  8
0
100
AcDbLine
 10
631.0162881512629
 20
-530.1213350050826
 30
0.0
 11
630.5162881512629
 21
-530.0213338416849
 31
0.0
  0
LINE
  5
22212
330
18
100
AcDbEntity
  8
0
100
AcDbLine
 10
627.0162881512629
 20
-532.5213256979008
 30
0.0
 11
631.0162881512629
 21
-531.7213350050825
 31
0.0
  0
LINE
  5
22213
330
18
100
AcDbEntity
  8
0
100
AcDbLine
 10
627.5162881512629
 20
-529.4213268612942
 30
0.0
 11
627.0162881512629
 21
-529.3213256978965
 31
0.0
  0
LINE
  5
22214
330
18
100
AcDbEntity
  8
0
100
AcDbLine
 10
627.5162881512629
 20
-535.8213268612983
 30
0.0
 11
627.0162881512629
 21
-535.7213256979006
 31
0.0
  0
LINE
  5
22215
330
18
100
AcDbEntity
  8
0
100
AcDbLine
 10
627.0162881512629
 20
-535.7213256979006
 30
0.0
 11
631.0162881512629
 21
-534.9213350050823
 31
0.0
  0
LINE
  5
22216
330
18
100
AcDbEntity
  8
0
100
AcDbLine
 10
631.0162881512629
 20
-534.9213350050823
 30
0.0
 11
630.5162881512629
 21
-534.8213338416846
 31
0.0
  0
LINE
  5
22217
330
18
100
AcDbEntity
  8
0
100
AcDbLine
 10
627.5162881512629
 20
-537.4213268612982
 30
0.0
 11
627.0162881512629
 21
-537.3213256979005
 31
0.0
  0
LINE
  5
22218
330
18
100
AcDbEntity
  8
0
100
AcDbLine
 10
627.0162881512629
 20
-537.3213256979005
 30
0.0
 11
631.0162881512629
 21
-536.5213350050822
 31
0.0
  0
LINE
  5
22219
330
18
100
AcDbEntity
  8
0
100
AcDbLine
 10
631.0162881512629
 20
-536.5213350050822
 30
0.0
 11
630.5162881512629
 21
-536.4213338416845
 31
0.0
  0
LINE
  5
2221A
330
18
100
AcDbEntity
  8
0
100
AcDbLine
 10
627.5162881512629
 20
-539.021326861298
 30
0.0
 11
627.0162881512629
 21
-538.9213256979004
 31
0.0
  0
LINE
  5
2221B
330
18
100
AcDbEntity
  8
0
100
AcDbLine
 10
627.0162881512629
 20
-538.9213256979004
 30
0.0
 11
631.0162881512629
 21
-538.1213350050821
 31
0.0
  0
LINE
  5
2221C
330
18
100
AcDbEntity
  8
0
100
AcDbLine
 10
631.0162881512629
 20
-538.1213350050821
 30
0.0
 11
630.5162881512629
 21
-538.0213338416845
 31
0.0
  0
LINE
  5
2221D
330
18
100
AcDbEntity
  8
0
100
AcDbLine
 10
774.0162416152026
 20
-655.8213768871643
 30
0.0
 11
768.7162451053409
 21
-654.3213768871643
 31
0.0
  0
LINE
  5
2221E
330
18
100
AcDbEntity
  8
0
100
AcDbLine
 10
768.7162451053409
 20
-654.3213768871643
 30
0.0
 11
739.0162451054489
 21
-654.3213768871645
 31
0.0
  0
LINE
  5
2221F
330
18
100
AcDbEntity
  8
0
100
AcDbLine
 10
774.0162416152026
 20
-655.8213768871643
 30
0.0
 11
768.7162381249573
 21
-657.3213768871644
 31
0.0
  0
LINE
  5
22220
330
18
100
AcDbEntity
  8
0
100
AcDbLine
 10
739.0162497591472
 20
-652.3213303512664
 30
0.0
 11
739.0162334715827
 21
-659.3213303512664
 31
0.0
  0
LINE
  5
22221
330
18
100
AcDbEntity
  8
0
100
AcDbLine
 10
768.7162381249573
 20
-657.3213768871644
 30
0.0
 11
739.0162381250643
 21
-657.3213768871645
 31
0.0
  0
LINE
  5
22222
330
18
100
AcDbEntity
  8
0
100
AcDbLine
 10
739.0162497591472
 20
-652.3213303512664
 30
0.0
 11
737.9162462689517
 21
-652.3213303512664
 31
0.0
  0
ARC
  5
22223
330
18
100
AcDbEntity
  8
0
100
AcDbCircle
 10
737.9162462689517
 20
-653.8213303512663
 30
0.0
 40
1.5
100
AcDbArc
 50
90.0
 51
179.9998666844684
  0
LINE
  5
22224
330
18
100
AcDbEntity
  8
0
100
AcDbLine
 10
739.0162334715827
 20
-659.3213303512664
 30
0.0
 11
737.9162369617721
 21
-659.3213303512664
 31
0.0
  0
LINE
  5
22225
330
18
100
AcDbEntity
  8
0
100
AcDbLine
 10
736.4162462689558
 20
-653.8213268610739
 30
0.0
 11
736.4162369617762
 21
-657.8213268610739
 31
0.0
  0
ARC
  5
22226
330
18
100
AcDbEntity
  8
0
100
AcDbCircle
 10
737.9162369617721
 20
-657.8213303512663
 30
0.0
 40
1.5
100
AcDbArc
 50
179.9998666844684
 51
270.0
  0
LINE
  5
22227
330
18
100
AcDbEntity
  8
1CENTER
100
AcDbLine
 10
775.447036532668
 20
-655.8213303512664
 30
0.0
 11
735.3459652060561
 21
-655.8213303512664
 31
0.0
  0
LINE
  5
22228
330
18
100
AcDbEntity
  8
0
100
AcDbLine
 10
771.9162441615248
 20
-654.7270065372713
 30
0.0
 11
772.7162395955757
 21
-656.6893416261467
 31
0.0
  0
LINE
  5
22229
330
18
100
AcDbEntity
  8
0
100
AcDbLine
 10
772.7162395955757
 20
-656.6893416261467
 30
0.0
 11
773.0280094518279
 21
-656.1010650511043
 31
0.0
  0
LINE
  5
2222A
330
18
100
AcDbEntity
  8
0
100
AcDbLine
 10
749.5162462687347
 20
-653.8213768871643
 30
0.0
 11
750.316236961553
 21
-657.8213768871643
 31
0.0
  0
LINE
  5
2222B
330
18
100
AcDbEntity
  8
0
100
AcDbLine
 10
760.7162462687391
 20
-653.8213768871643
 30
0.0
 11
761.5162369615617
 21
-657.8213768871643
 31
0.0
  0
LINE
  5
2222C
330
18
100
AcDbEntity
  8
0
100
AcDbLine
 10
763.9162462687392
 20
-653.8213768871643
 30
0.0
 11
764.7162369615617
 21
-657.8213768871643
 31
0.0
  0
LINE
  5
2222D
330
18
100
AcDbEntity
  8
0
100
AcDbLine
 10
764.7162369615617
 20
-657.8213768871643
 30
0.0
 11
764.816238124959
 21
-657.3213768871643
 31
0.0
  0
LINE
  5
2222E
330
18
100
AcDbEntity
  8
0
100
AcDbLine
 10
765.4162451053419
 20
-654.3213768871643
 30
0.0
 11
765.5162462687392
 21
-653.8213768871643
 31
0.0
  0
LINE
  5
2222F
330
18
100
AcDbEntity
  8
0
100
AcDbLine
 10
761.5162369615617
 20
-657.8213768871643
 30
0.0
 11
761.6162381249589
 21
-657.3213768871643
 31
0.0
  0
LINE
  5
22230
330
18
100
AcDbEntity
  8
0
100
AcDbLine
 10
763.1162369615618
 20
-657.8213768871643
 30
0.0
 11
763.216238124959
 21
-657.3213768871643
 31
0.0
  0
LINE
  5
22231
330
18
100
AcDbEntity
  8
0
100
AcDbLine
 10
763.816245105342
 20
-654.3213768871643
 30
0.0
 11
763.9162462687392
 21
-653.8213768871643
 31
0.0
  0
LINE
  5
22232
330
18
100
AcDbEntity
  8
0
100
AcDbLine
 10
762.2162451053421
 20
-654.3213768871643
 30
0.0
 11
762.3162462687393
 21
-653.8213768871643
 31
0.0
  0
LINE
  5
22233
330
18
100
AcDbEntity
  8
0
100
AcDbLine
 10
762.3162462687393
 20
-653.8213768871643
 30
0.0
 11
763.1162369615618
 21
-657.8213768871643
 31
0.0
  0
LINE
  5
22234
330
18
100
AcDbEntity
  8
0
100
AcDbLine
 10
771.1162385419701
 20
-657.1421557305535
 30
0.0
 11
771.2990026845981
 21
-656.5904062667502
 31
0.0
  0
LINE
  5
22235
330
18
100
AcDbEntity
  8
0
100
AcDbLine
 10
767.9162369615617
 20
-657.8213768871643
 30
0.0
 11
768.0162381249589
 21
-657.3213768871643
 31
0.0
  0
LINE
  5
22236
330
18
100
AcDbEntity
  8
0
100
AcDbLine
 10
766.3162369615617
 20
-657.8213768871643
 30
0.0
 11
766.4162381249588
 21
-657.3213768871643
 31
0.0
  0
LINE
  5
22237
330
18
100
AcDbEntity
  8
0
100
AcDbLine
 10
769.5162374883644
 20
-657.5949698349603
 30
0.0
 11
769.6455081859943
 21
-657.0583760996892
 31
0.0
  0
LINE
  5
22238
330
18
100
AcDbEntity
  8
0
100
AcDbLine
 10
770.203475702779
 20
-654.742291484373
 30
0.0
 11
770.316245215129
 21
-654.274193029223
 31
0.0
  0
LINE
  5
22239
330
18
100
AcDbEntity
  8
0
100
AcDbLine
 10
767.0162451053421
 20
-654.3213768871643
 30
0.0
 11
767.1162462687392
 21
-653.8213768871643
 31
0.0
  0
LINE
  5
2223A
330
18
100
AcDbEntity
  8
0
100
AcDbLine
 10
768.616245105342
 20
-654.3213768871643
 30
0.0
 11
768.7162462687391
 21
-653.8213768871643
 31
0.0
  0
LINE
  5
2223B
330
18
100
AcDbEntity
  8
0
100
AcDbLine
 10
771.7648083650844
 20
-655.1841783779024
 30
0.0
 11
771.9162441615248
 21
-654.7270065372713
 31
0.0
  0
LINE
  5
2223C
330
18
100
AcDbEntity
  8
0
100
AcDbLine
 10
770.316245215129
 20
-654.274193029223
 30
0.0
 11
771.1162385419701
 21
-657.1421557305535
 31
0.0
  0
LINE
  5
2223D
330
18
100
AcDbEntity
  8
0
100
AcDbLine
 10
767.1162462687392
 20
-653.8213768871643
 30
0.0
 11
767.9162369615617
 21
-657.8213768871643
 31
0.0
  0
LINE
  5
2223E
330
18
100
AcDbEntity
  8
0
100
AcDbLine
 10
768.7162462687391
 20
-653.8213768871643
 30
0.0
 11
769.5162374883644
 21
-657.5949698349603
 31
0.0
  0
LINE
  5
2223F
330
18
100
AcDbEntity
  8
0
100
AcDbLine
 10
765.5162462687392
 20
-653.8213768871643
 30
0.0
 11
766.3162369615617
 21
-657.8213768871643
 31
0.0
  0
LINE
  5
22240
330
18
100
AcDbEntity
  8
0
100
AcDbLine
 10
752.7162462687348
 20
-653.8213768871643
 30
0.0
 11
753.516236961553
 21
-657.8213768871643
 31
0.0
  0
LINE
  5
22241
330
18
100
AcDbEntity
  8
0
100
AcDbLine
 10
753.516236961553
 20
-657.8213768871643
 30
0.0
 11
753.6162381249507
 21
-657.3213768871643
 31
0.0
  0
LINE
  5
22242
330
18
100
AcDbEntity
  8
0
100
AcDbLine
 10
754.2162451053415
 20
-654.3213768871643
 30
0.0
 11
754.3162462687392
 21
-653.8213768871643
 31
0.0
  0
LINE
  5
22243
330
18
100
AcDbEntity
  8
0
100
AcDbLine
 10
751.9162369615529
 20
-657.8213768871643
 30
0.0
 11
752.0162381249506
 21
-657.3213768871643
 31
0.0
  0
LINE
  5
22244
330
18
100
AcDbEntity
  8
0
100
AcDbLine
 10
750.316236961553
 20
-657.8213768871643
 30
0.0
 11
750.4162381249507
 21
-657.3213768871643
 31
0.0
  0
LINE
  5
22245
330
18
100
AcDbEntity
  8
0
100
AcDbLine
 10
752.6162451053371
 20
-654.3213768871643
 30
0.0
 11
752.7162462687348
 21
-653.8213768871643
 31
0.0
  0
LINE
  5
22246
330
18
100
AcDbEntity
  8
0
100
AcDbLine
 10
751.0162451053369
 20
-654.3213768871643
 30
0.0
 11
751.1162462687346
 21
-653.8213768871643
 31
0.0
  0
LINE
  5
22247
330
18
100
AcDbEntity
  8
0
100
AcDbLine
 10
751.1162462687346
 20
-653.8213768871643
 30
0.0
 11
751.9162369615529
 21
-657.8213768871643
 31
0.0
  0
LINE
  5
22248
330
18
100
AcDbEntity
  8
0
100
AcDbLine
 10
758.3162369615575
 20
-657.8213768871643
 30
0.0
 11
758.4162381249551
 21
-657.3213768871643
 31
0.0
  0
LINE
  5
22249
330
18
100
AcDbEntity
  8
0
100
AcDbLine
 10
759.9162369615618
 20
-657.8213768871643
 30
0.0
 11
760.0162381249589
 21
-657.3213768871643
 31
0.0
  0
LINE
  5
2224A
330
18
100
AcDbEntity
  8
0
100
AcDbLine
 10
755.1162369615574
 20
-657.8213768871643
 30
0.0
 11
755.2162381249551
 21
-657.3213768871643
 31
0.0
  0
LINE
  5
2224B
330
18
100
AcDbEntity
  8
0
100
AcDbLine
 10
756.7162369615573
 20
-657.8213768871643
 30
0.0
 11
756.816238124955
 21
-657.3213768871643
 31
0.0
  0
LINE
  5
2224C
330
18
100
AcDbEntity
  8
0
100
AcDbLine
 10
760.616245105342
 20
-654.3213768871643
 30
0.0
 11
760.7162462687391
 21
-653.8213768871643
 31
0.0
  0
LINE
  5
2224D
330
18
100
AcDbEntity
  8
0
100
AcDbLine
 10
759.0162451053414
 20
-654.3213768871643
 30
0.0
 11
759.1162462687393
 21
-653.8213768871643
 31
0.0
  0
LINE
  5
2224E
330
18
100
AcDbEntity
  8
0
100
AcDbLine
 10
755.8162451053414
 20
-654.3213768871643
 30
0.0
 11
755.9162462687391
 21
-653.8213768871643
 31
0.0
  0
LINE
  5
2224F
330
18
100
AcDbEntity
  8
0
100
AcDbLine
 10
757.4162451053415
 20
-654.3213768871643
 30
0.0
 11
757.5162462687392
 21
-653.8213768871643
 31
0.0
  0
LINE
  5
22250
330
18
100
AcDbEntity
  8
0
100
AcDbLine
 10
757.5162462687392
 20
-653.8213768871643
 30
0.0
 11
758.3162369615575
 21
-657.8213768871643
 31
0.0
  0
LINE
  5
22251
330
18
100
AcDbEntity
  8
0
100
AcDbLine
 10
759.1162462687393
 20
-653.8213768871643
 30
0.0
 11
759.9162369615618
 21
-657.8213768871643
 31
0.0
  0
LINE
  5
22252
330
18
100
AcDbEntity
  8
0
100
AcDbLine
 10
755.9162462687391
 20
-653.8213768871643
 30
0.0
 11
756.7162369615573
 21
-657.8213768871643
 31
0.0
  0
LINE
  5
22253
330
18
100
AcDbEntity
  8
0
100
AcDbLine
 10
754.3162462687392
 20
-653.8213768871643
 30
0.0
 11
755.1162369615574
 21
-657.8213768871643
 31
0.0
  0
LINE
  5
22254
330
18
100
AcDbEntity
  8
0
100
AcDbLine
 10
744.6162451053329
 20
-654.3213768871643
 30
0.0
 11
744.7162462687306
 21
-653.8213768871643
 31
0.0
  0
LINE
  5
22255
330
18
100
AcDbEntity
  8
0
100
AcDbLine
 10
744.7162462687306
 20
-653.8213768871643
 30
0.0
 11
745.5162369615488
 21
-657.8213768871643
 31
0.0
  0
LINE
  5
22256
330
18
100
AcDbEntity
  8
0
100
AcDbLine
 10
745.5162369615488
 20
-657.8213768871643
 30
0.0
 11
745.6162381249465
 21
-657.3213768871643
 31
0.0
  0
LINE
  5
22257
330
18
100
AcDbEntity
  8
0
100
AcDbLine
 10
746.2162451053329
 20
-654.3213768871643
 30
0.0
 11
746.3162462687305
 21
-653.8213768871643
 31
0.0
  0
LINE
  5
22258
330
18
100
AcDbEntity
  8
0
100
AcDbLine
 10
747.8162451053328
 20
-654.3213768871643
 30
0.0
 11
747.9162462687305
 21
-653.8213768871643
 31
0.0
  0
LINE
  5
22259
330
18
100
AcDbEntity
  8
0
100
AcDbLine
 10
747.9162462687305
 20
-653.8213768871643
 30
0.0
 11
748.7162369615487
 21
-657.8213768871643
 31
0.0
  0
LINE
  5
2225A
330
18
100
AcDbEntity
  8
0
100
AcDbLine
 10
747.1162369615488
 20
-657.8213768871643
 30
0.0
 11
747.2162381249464
 21
-657.3213768871643
 31
0.0
  0
LINE
  5
2225B
330
18
100
AcDbEntity
  8
0
100
AcDbLine
 10
748.7162369615487
 20
-657.8213768871643
 30
0.0
 11
748.8162381249463
 21
-657.3213768871643
 31
0.0
  0
LINE
  5
2225C
330
18
100
AcDbEntity
  8
0
100
AcDbLine
 10
746.3162462687305
 20
-653.8213768871643
 30
0.0
 11
747.1162369615488
 21
-657.8213768871643
 31
0.0
  0
LINE
  5
2225D
330
18
100
AcDbEntity
  8
0
100
AcDbLine
 10
749.416245105337
 20
-654.3213768871643
 30
0.0
 11
749.5162462687347
 21
-653.8213768871643
 31
0.0
  0
LINE
  5
2225E
330
18
100
AcDbEntity
  8
0
100
AcDbLine
 10
743.016245105333
 20
-654.3213768871643
 30
0.0
 11
743.1162462687307
 21
-653.8213768871643
 31
0.0
  0
LINE
  5
2225F
330
18
100
AcDbEntity
  8
0
100
AcDbLine
 10
743.1162462687307
 20
-653.8213768871643
 30
0.0
 11
743.9162369615489
 21
-657.8213768871643
 31
0.0
  0
LINE
  5
22260
330
18
100
AcDbEntity
  8
0
100
AcDbLine
 10
743.9162369615489
 20
-657.8213768871643
 30
0.0
 11
744.0162381249466
 21
-657.3213768871643
 31
0.0
  0
LINE
  5
22261
330
18
100
AcDbEntity
  8
0
100
AcDbLine
 10
741.4162451053331
 20
-654.3213768871643
 30
0.0
 11
741.5162462687308
 21
-653.8213768871643
 31
0.0
  0
LINE
  5
22262
330
18
100
AcDbEntity
  8
0
100
AcDbLine
 10
741.5162462687308
 20
-653.8213768871643
 30
0.0
 11
742.316236961549
 21
-657.8213768871643
 31
0.0
  0
LINE
  5
22263
330
18
100
AcDbEntity
  8
0
100
AcDbLine
 10
742.316236961549
 20
-657.8213768871643
 30
0.0
 11
742.4162381249467
 21
-657.3213768871643
 31
0.0
  0
LINE
  5
22264
330
18
100
AcDbEntity
  8
0
100
AcDbLine
 10
739.8162451053332
 20
-654.3213768871643
 30
0.0
 11
739.9162462687309
 21
-653.8213768871643
 31
0.0
  0
LINE
  5
22265
330
18
100
AcDbEntity
  8
0
100
AcDbLine
 10
739.9162462687309
 20
-653.8213768871643
 30
0.0
 11
740.7162369615491
 21
-657.8213768871643
 31
0.0
  0
LINE
  5
22266
330
18
100
AcDbEntity
  8
0
100
AcDbLine
 10
740.7162369615491
 20
-657.8213768871643
 30
0.0
 11
740.8162381249468
 21
-657.3213768871643
 31
0.0
  0
LINE
  5
22267
330
18
100
AcDbEntity
  8
1DIM
100
AcDbLine
 10
643.0162416153649
 20
-535.8213303512664
 30
0.0
 11
643.0162416153649
 21
-499.8956144825074
 31
0.0
  0
LINE
  5
22268
330
18
100
AcDbEntity
  8
1DIM
100
AcDbLine
 10
615.0162416153649
 20
-535.8213303512664
 30
0.0
 11
615.0162416153649
 21
-499.8956144825074
 31
0.0
  0
LINE
  5
22269
330
18
100
AcDbEntity
  8
1DIM
100
AcDbLine
 10
641.0162416153649
 20
-500.8956144825074
 30
0.0
 11
617.0162416153649
 21
-500.8956144825074
 31
0.0
  0
LINE
  5
2226D
330
18
100
AcDbEntity
  8
1DIM
100
AcDbLine
 10
687.0162398868302
 20
-655.8213303512664
 30
0.0
 11
687.0162398868302
 21
-694.1674798975696
 31
0.0
  0
LINE
  5
2226E
330
18
100
AcDbEntity
  8
1DIM
100
AcDbLine
 10
743.1042871225474
 20
-693.1723307732954
 30
0.0
 11
743.1042871225474
 21
-692.1674798975695
 31
0.0
  0
LINE
  5
2226F
330
18
100
AcDbEntity
  8
1DIM
100
AcDbLine
 10
689.0162398868302
 20
-693.1674798975696
 30
0.0
 11
741.1042871225475
 21
-693.1674798975696
 31
0.0
  0
LINE
  5
22273
330
18
100
AcDbEntity
  8
1DIM
100
AcDbLine
 10
561.7735539780695
 20
-591.7213303512662
 30
0.0
 11
575.6550188207874
 21
-591.7213303512662
 31
0.0
  0
LINE
  5
22274
330
18
100
AcDbEntity
  8
1DIM
100
AcDbLine
 10
562.172822766026
 20
-572.7213303512662
 30
0.0
 11
575.6550188207874
 21
-572.7213303512662
 31
0.0
  0
LINE
  5
22275
330
18
100
AcDbEntity
  8
1DIM
100
AcDbLine
 10
574.6550188207874
 20
-589.7213303512662
 30
0.0
 11
574.6550188207874
 21
-574.7213303512662
 31
0.0
  0
LINE
  5
22276
330
18
100
AcDbEntity
  8
1DIM
100
AcDbLine
 10
574.6550188207874
 20
-572.7213303512662
 30
0.0
 11
574.6550188207874
 21
-556.2933298090064
 31
0.0
  0
TEXT
  5
2227A
330
18
100
AcDbEntity
  8
1DIM
100
AcDbText
 10
566.9289023731807
 20
-671.8833071356454
 30
0.0
 40
3.5
  1
材質：亜鉛ダイキャスト
100
AcDbText
  0
TEXT
  5
2227B
330
18
100
AcDbEntity
  8
1DIM
100
AcDbText
 10
575.0955690398475
 20
-677.7166404689787
 30
0.0
 40
3.5
  1
仕上げ：各種メッキ
100
AcDbText
  0
SOLID
  5
2227C
330
18
100
AcDbEntity
  8
1DIM
100
AcDbTrace
 10
617.6924874284925
 20
-672.1182695051502
 30
0.0
 11
619.0268085038663
 21
-670.5916070084193
 31
0.0
 12
618.2597466747497
 22
-672.4684999892319
 32
0.0
 13
618.2597466747497
 23
-672.4684999892319
 33
0.0
1001
ACAD
1000
DSTYLE
1002
{
1070
    45
1040
0.5
1002
}
  0
TEXT
  5
2227E
330
18
100
AcDbEntity
  8
1DIM
100
AcDbText
 10
576.5649122119242
 20
-634.2296090601679
 30
0.0
 40
3.5
  1
材質：ステンレス
100
AcDbText
  0
TEXT
  5
2227F
330
18
100
AcDbEntity
  8
1DIM
100
AcDbText
 10
576.5649122119242
 20
-640.0629423935013
 30
0.0
 40
3.5
  1
仕上げ：各種仕上げ
100
AcDbText
  0
SOLID
  5
22280
330
18
100
AcDbEntity
  8
1DIM
100
AcDbTrace
 10
571.0521071563043
 20
-652.9746247457286
 30
0.0
 11
570.2287817171749
 21
-654.8275268835635
 31
0.0
 12
570.4066618446212
 22
-652.8077571512993
 32
0.0
 13
570.4066618446212
 23
-652.8077571512993
 33
0.0
1001
ACAD
1000
DSTYLE
1002
{
1070
    45
1040
0.5
1002
}
  0
LINE
  5
22282
330
18
100
AcDbEntity
  8
1DIM
100
AcDbLine
 10
546.3736005549235
 20
-662.821330218873
 30
0.0
 11
553.307867060861
 21
-662.821330218873
 31
0.0
  0
LINE
  5
22283
330
18
100
AcDbEntity
  8
1DIM
100
AcDbLine
 10
534.0560457770764
 20
-652.821330218873
 30
0.0
 11
553.307867060861
 21
-652.821330218873
 31
0.0
  0
LINE
  5
22284
330
18
100
AcDbEntity
  8
1DIM
100
AcDbLine
 10
552.307867060861
 20
-660.8213302188731
 30
0.0
 11
552.307867060861
 21
-654.821330218873
 31
0.0
  0
LINE
  5
22285
330
18
100
AcDbEntity
  8
1DIM
100
AcDbLine
 10
552.307867060861
 20
-652.821330218873
 30
0.0
 11
552.307867060861
 21
-642.3774905213467
 31
0.0
  0
TEXT
  5
22289
330
18
100
AcDbEntity
  8
1DIM
100
AcDbText
 10
551.607867060861
 20
-647.7024905213466
 30
0.0
 40
3.5
  1
10
 50
90.0
100
AcDbText
  0
LINE
  5
2228A
330
18
100
AcDbEntity
  8
0
  6
ByBlock
100
AcDbLine
 10
551.7719686808609
 20
-654.821330218873
 30
0.0
 11
552.307867060861
 21
-652.821330218873
 31
0.0
  0
LINE
  5
2228B
330
18
100
AcDbEntity
  8
0
  6
ByBlock
100
AcDbLine
 10
552.307867060861
 20
-652.821330218873
 30
0.0
 11
552.843765440861
 21
-654.821330218873
 31
0.0
  0
LINE
  5
2228C
330
18
100
AcDbEntity
  8
0
  6
ByBlock
100
AcDbLine
 10
552.307867060861
 20
-652.821330218873
 30
0.0
 11
552.307867060861
 21
-654.821330218873
 31
0.0
  0
LINE
  5
2228D
330
18
100
AcDbEntity
  8
0
  6
ByBlock
100
AcDbLine
 10
552.843765440861
 20
-660.8213302188731
 30
0.0
 11
552.307867060861
 21
-662.821330218873
 31
0.0
  0
LINE
  5
2228E
330
18
100
AcDbEntity
  8
0
  6
ByBlock
100
AcDbLine
 10
552.307867060861
 20
-662.821330218873
 30
0.0
 11
551.7719686808609
 21
-660.8213302188731
 31
0.0
  0
LINE
  5
2228F
330
18
100
AcDbEntity
  8
0
  6
ByBlock
100
AcDbLine
 10
552.307867060861
 20
-662.821330218873
 30
0.0
 11
552.307867060861
 21
-660.8213302188731
 31
0.0
  0
LINE
  5
22290
330
18
100
AcDbEntity
  8
1DIM
100
AcDbLine
 10
570.7293845004627
 20
-652.891190948514
 30
0.0
 11
573.8649122119242
 21
-640.7629423935013
 31
0.0
1001
ACAD
1000
DSTYLE
1002
{
1070
    45
1040
0.5
1002
}
  0
LINE
  5
22291
330
18
100
AcDbEntity
  8
1DIM
100
AcDbLine
 10
573.8649122119242
 20
-640.7629423935013
 30
0.0
 11
576.5649122119242
 21
-640.7629423935013
 31
0.0
1001
ACAD
1000
DSTYLE
1002
{
1070
    45
1040
0.5
1002
}
  0
LINE
  5
22292
330
18
100
AcDbEntity
  8
1DIM
100
AcDbLine
 10
617.9761170516211
 20
-672.2933847471911
 30
0.0
 11
614.1955690398475
 21
-678.4166404689788
 31
0.0
1001
ACAD
1000
DSTYLE
1002
{
1070
    45
1040
0.5
1002
}
  0
LINE
  5
22293
330
18
100
AcDbEntity
  8
1DIM
100
AcDbLine
 10
614.1955690398475
 20
-678.4166404689788
 30
0.0
 11
611.4955690398475
 21
-678.4166404689788
 31
0.0
1001
ACAD
1000
DSTYLE
1002
{
1070
    45
1040
0.5
1002
}
  0
TEXT
  5
22294
330
18
100
AcDbEntity
  8
1DIM
100
AcDbText
 10
573.9550188207874
 20
-561.8266631423396
 30
0.0
 40
3.5
  1
19
 50
90.0
100
AcDbText
  0
LINE
  5
22295
330
18
100
AcDbEntity
  8
0
  6
ByBlock
100
AcDbLine
 10
574.1191204407873
 20
-574.7213303512662
 30
0.0
 11
574.6550188207874
 21
-572.7213303512662
 31
0.0
  0
LINE
  5
22296
330
18
100
AcDbEntity
  8
0
  6
ByBlock
100
AcDbLine
 10
574.6550188207874
 20
-572.7213303512662
 30
0.0
 11
575.1909172007874
 21
-574.7213303512662
 31
0.0
  0
LINE
  5
22297
330
18
100
AcDbEntity
  8
0
  6
ByBlock
100
AcDbLine
 10
574.6550188207874
 20
-572.7213303512662
 30
0.0
 11
574.6550188207874
 21
-574.7213303512662
 31
0.0
  0
LINE
  5
22298
330
18
100
AcDbEntity
  8
0
  6
ByBlock
100
AcDbLine
 10
575.1909172007874
 20
-589.7213303512662
 30
0.0
 11
574.6550188207874
 21
-591.7213303512662
 31
0.0
  0
LINE
  5
22299
330
18
100
AcDbEntity
  8
0
  6
ByBlock
100
AcDbLine
 10
574.6550188207874
 20
-591.7213303512662
 30
0.0
 11
574.1191204407873
 21
-589.7213303512662
 31
0.0
  0
LINE
  5
2229A
330
18
100
AcDbEntity
  8
0
  6
ByBlock
100
AcDbLine
 10
574.6550188207874
 20
-591.7213303512662
 30
0.0
 11
574.6550188207874
 21
-589.7213303512662
 31
0.0
  0
TEXT
  5
2229B
330
18
100
AcDbEntity
  8
1DIM
100
AcDbText
 10
712.1435968380223
 20
-692.4674798975695
 30
0.0
 40
3.5
  1
56
100
AcDbText
  0
LINE
  5
2229C
330
18
100
AcDbEntity
  8
0
  6
ByBlock
100
AcDbLine
 10
741.1042871225475
 20
-692.6315815175695
 30
0.0
 11
743.1042871225474
 21
-693.1674798975696
 31
0.0
  0
LINE
  5
2229D
330
18
100
AcDbEntity
  8
0
  6
ByBlock
100
AcDbLine
 10
743.1042871225474
 20
-693.1674798975696
 30
0.0
 11
741.1042871225475
 21
-693.7033782775696
 31
0.0
  0
LINE
  5
2229E
330
18
100
AcDbEntity
  8
0
  6
ByBlock
100
AcDbLine
 10
743.1042871225474
 20
-693.1674798975696
 30
0.0
 11
741.1042871225475
 21
-693.1674798975696
 31
0.0
  0
LINE
  5
2229F
330
18
100
AcDbEntity
  8
0
  6
ByBlock
100
AcDbLine
 10
689.0162398868302
 20
-693.7033782775696
 30
0.0
 11
687.0162398868302
 21
-693.1674798975696
 31
0.0
  0
LINE
  5
222A0
330
18
100
AcDbEntity
  8
0
  6
ByBlock
100
AcDbLine
 10
687.0162398868302
 20
-693.1674798975696
 30
0.0
 11
689.0162398868302
 21
-692.6315815175695
 31
0.0
  0
LINE
  5
222A1
330
18
100
AcDbEntity
  8
0
  6
ByBlock
100
AcDbLine
 10
687.0162398868302
 20
-693.1674798975696
 30
0.0
 11
689.0162398868302
 21
-693.1674798975696
 31
0.0
  0
TEXT
  5
222A2
330
18
100
AcDbEntity
  8
1DIM
100
AcDbText
 10
626.0995749486983
 20
-500.1956144825074
 30
0.0
 40
3.5
  1
28
100
AcDbText
  0
LINE
  5
222A3
330
18
100
AcDbEntity
  8
0
  6
ByBlock
100
AcDbLine
 10
617.0162416153649
 20
-501.4315128625074
 30
0.0
 11
615.0162416153649
 21
-500.8956144825074
 31
0.0
  0
LINE
  5
222A4
330
18
100
AcDbEntity
  8
0
  6
ByBlock
100
AcDbLine
 10
615.0162416153649
 20
-500.8956144825074
 30
0.0
 11
617.0162416153649
 21
-500.3597161025074
 31
0.0
  0
LINE
  5
222A5
330
18
100
AcDbEntity
  8
0
  6
ByBlock
100
AcDbLine
 10
615.0162416153649
 20
-500.8956144825074
 30
0.0
 11
617.0162416153649
 21
-500.8956144825074
 31
0.0
  0
LINE
  5
222A6
330
18
100
AcDbEntity
  8
0
  6
ByBlock
100
AcDbLine
 10
641.0162416153649
 20
-500.3597161025074
 30
0.0
 11
643.0162416153649
 21
-500.8956144825074
 31
0.0
  0
LINE
  5
222A7
330
18
100
AcDbEntity
  8
0
  6
ByBlock
100
AcDbLine
 10
643.0162416153649
 20
-500.8956144825074
 30
0.0
 11
641.0162416153649
 21
-501.4315128625074
 31
0.0
  0
LINE
  5
222A8
330
18
100
AcDbEntity
  8
0
  6
ByBlock
100
AcDbLine
 10
643.0162416153649
 20
-500.8956144825074
 30
0.0
 11
641.0162416153649
 21
-500.8956144825074
 31
0.0
  0
TEXT
  5
222A9
330
18
100
AcDbEntity
  8
1DIM
100
AcDbText
 10
731.6829082820316
 20
-681.6219593765717
 30
0.0
 40
3.5
  1
18
100
AcDbText
  0
LINE
  5
222AA
330
18
100
AcDbEntity
  8
0
  6
ByBlock
100
AcDbLine
 10
727.0162416153649
 20
-682.8578577565719
 30
0.0
 11
725.0162416153649
 21
-682.3219593765718
 31
0.0
  0
LINE
  5
222AB
330
18
100
AcDbEntity
  8
0
  6
ByBlock
100
AcDbLine
 10
725.0162416153649
 20
-682.3219593765718
 30
0.0
 11
727.0162416153649
 21
-681.7860609965718
 31
0.0
  0
LINE
  5
222AC
330
18
100
AcDbEntity
  8
0
  6
ByBlock
100
AcDbLine
 10
725.0162416153649
 20
-682.3219593765718
 30
0.0
 11
727.0162416153649
 21
-682.3219593765718
 31
0.0
  0
LINE
  5
222AD
330
18
100
AcDbEntity
  8
0
  6
ByBlock
100
AcDbLine
 10
741.0162416153649
 20
-681.7860609965718
 30
0.0
 11
743.0162416153649
 21
-682.3219593765718
 31
0.0
  0
LINE
  5
222AE
330
18
100
AcDbEntity
  8
0
  6
ByBlock
100
AcDbLine
 10
743.0162416153649
 20
-682.3219593765718
 30
0.0
 11
741.0162416153649
 21
-682.8578577565719
 31
0.0
  0
LINE
  5
222AF
330
18
100
AcDbEntity
  8
0
  6
ByBlock
100
AcDbLine
 10
743.0162416153649
 20
-682.3219593765718
 30
0.0
 11
741.0162416153649
 21
-682.3219593765718
 31
0.0
  0
TEXT
  5
222B0
330
18
100
AcDbEntity
  8
1DIM
100
AcDbText
 10
790.5812689286457
 20
-661.5213299742669
 30
0.0
 40
3.5
  1
27.5
 50
90.0
100
AcDbText
  0
LINE
  5
222B1
330
18
100
AcDbEntity
  8
0
  6
ByBlock
100
AcDbLine
 10
791.8171673086456
 20
-668.0213298997613
 30
0.0
 11
791.2812689286456
 21
-670.0213298997613
 31
0.0
  0
LINE
  5
222B2
330
18
100
AcDbEntity
  8
0
  6
ByBlock
100
AcDbLine
 10
791.2812689286456
 20
-670.0213298997613
 30
0.0
 11
790.7453705486456
 21
-668.0213298997613
 31
0.0
  0
LINE
  5
222B3
330
18
100
AcDbEntity
  8
0
  6
ByBlock
100
AcDbLine
 10
791.2812689286456
 20
-670.0213298997613
 30
0.0
 11
791.2812689286456
 21
-668.0213298997613
 31
0.0
  0
LINE
  5
222B4
330
18
100
AcDbEntity
  8
0
  6
ByBlock
100
AcDbLine
 10
790.7453705486456
 20
-644.5213300487729
 30
0.0
 11
791.2812689286456
 21
-642.5213300487729
 31
0.0
  0
LINE
  5
222B5
330
18
100
AcDbEntity
  8
0
  6
ByBlock
100
AcDbLine
 10
791.2812689286456
 20
-642.5213300487729
 30
0.0
 11
791.8171673086456
 21
-644.5213300487729
 31
0.0
  0
LINE
  5
222B6
330
18
100
AcDbEntity
  8
0
  6
ByBlock
100
AcDbLine
 10
791.2812689286456
 20
-642.5213300487729
 30
0.0
 11
791.2812689286456
 21
-644.5213300487729
 31
0.0
  0
TEXT
  5
222B7
330
18
100
AcDbEntity
  8
1DIM1
100
AcDbText
 10
380.391241615365
 20
-704.4163932448427
 30
0.0
 40
10.5
  1
P=450
100
AcDbText
  0
LINE
  5
222B8
330
18
100
AcDbEntity
  8
0
  6
ByBlock
100
AcDbLine
 10
623.0162416153649
 20
-704.9086981048426
 30
0.0
 11
629.0162416153649
 21
-706.5163932448426
 31
0.0
  0
LINE
  5
222B9
330
18
100
AcDbEntity
  8
0
  6
ByBlock
100
AcDbLine
 10
629.0162416153649
 20
-706.5163932448426
 30
0.0
 11
623.0162416153649
 21
-708.1240883848427
 31
0.0
  0
LINE
  5
222BA
330
18
100
AcDbEntity
  8
0
  6
ByBlock
100
AcDbLine
 10
629.0162416153649
 20
-706.5163932448426
 30
0.0
 11
623.0162416153649
 21
-706.5163932448426
 31
0.0
  0
LINE
  5
222BB
330
18
100
AcDbEntity
  8
0
  6
ByBlock
100
AcDbLine
 10
185.0162416153649
 20
-708.1240883848427
 30
0.0
 11
179.0162416153649
 21
-706.5163932448426
 31
0.0
  0
LINE
  5
222BC
330
18
100
AcDbEntity
  8
0
  6
ByBlock
100
AcDbLine
 10
179.0162416153649
 20
-706.5163932448426
 30
0.0
 11
185.0162416153649
 21
-704.9086981048426
 31
0.0
  0
LINE
  5
222BD
330
18
100
AcDbEntity
  8
0
  6
ByBlock
100
AcDbLine
 10
179.0162416153649
 20
-706.5163932448426
 30
0.0
 11
185.0162416153649
 21
-706.5163932448426
 31
0.0
  0
TEXT
  5
222BE
330
18
100
AcDbEntity
  8
1DIM1
100
AcDbText
 10
390.016241615365
 20
-729.5604890422086
 30
0.0
 40
10.5
  1
478
100
AcDbText
  0
LINE
  5
222BF
330
18
100
AcDbEntity
  8
0
  6
ByBlock
100
AcDbLine
 10
637.0162416153649
 20
-730.0527939022085
 30
0.0
 11
643.0162416153649
 21
-731.6604890422086
 31
0.0
  0
LINE
  5
222C0
330
18
100
AcDbEntity
  8
0
  6
ByBlock
100
AcDbLine
 10
643.0162416153649
 20
-731.6604890422086
 30
0.0
 11
637.0162416153649
 21
-733.2681841822086
 31
0.0
  0
LINE
  5
222C1
330
18
100
AcDbEntity
  8
0
  6
ByBlock
100
AcDbLine
 10
643.0162416153649
 20
-731.6604890422086
 30
0.0
 11
637.0162416153649
 21
-731.6604890422086
 31
0.0
  0
LINE
  5
222C2
330
18
100
AcDbEntity
  8
0
  6
ByBlock
100
AcDbLine
 10
171.0162416153649
 20
-733.2681841822086
 30
0.0
 11
165.0162416153649
 21
-731.6604890422086
 31
0.0
  0
LINE
  5
222C3
330
18
100
AcDbEntity
  8
0
  6
ByBlock
100
AcDbLine
 10
165.0162416153649
 20
-731.6604890422086
 30
0.0
 11
171.0162416153649
 21
-730.0527939022085
 31
0.0
  0
LINE
  5
222C4
330
18
100
AcDbEntity
  8
0
  6
ByBlock
100
AcDbLine
 10
165.0162416153649
 20
-731.6604890422086
 30
0.0
 11
171.0162416153649
 21
-731.6604890422086
 31
0.0
  0
LINE
  5
222C5
330
18
100
AcDbEntity
  8
1DIM
100
AcDbLine
 10
747.4430562332445
 20
-620.6424234457488
 30
0.0
 11
750.1520490410743
 21
-607.8663973902788
 31
0.0
1001
ACAD
1000
DSTYLE
1002
{
1070
    45
1040
0.5
1002
}
  0
LINE
  5
222C6
330
18
100
AcDbEntity
  8
1DIM
100
AcDbLine
 10
760.5784743784097
 20
-620.6424234457488
 30
0.0
 11
763.2874671862395
 21
-607.8663973902788
 31
0.0
1001
ACAD
1000
DSTYLE
1002
{
1070
    45
1040
0.5
1002
}
  0
TEXT
  5
222C7
330
18
100
AcDbEntity
  8
1DIM
100
AcDbText
 10
781.209794167669
 20
-653.6651514998799
 30
0.0
 40
3.5
  1
13.5
 50
90.0
100
AcDbText
  0
LINE
  5
222C8
330
18
100
AcDbEntity
  8
0
  6
ByBlock
100
AcDbLine
 10
781.3738957876689
 20
-644.5213300487729
 30
0.0
 11
781.909794167669
 21
-642.5213300487729
 31
0.0
  0
LINE
  5
222C9
330
18
100
AcDbEntity
  8
0
  6
ByBlock
100
AcDbLine
 10
781.909794167669
 20
-642.5213300487729
 30
0.0
 11
782.445692547669
 21
-644.5213300487729
 31
0.0
  0
LINE
  5
222CA
330
18
100
AcDbEntity
  8
0
  6
ByBlock
100
AcDbLine
 10
781.909794167669
 20
-642.5213300487729
 30
0.0
 11
781.909794167669
 21
-644.5213300487729
 31
0.0
  0
LINE
  5
222CB
330
18
100
AcDbEntity
  8
0
  6
ByBlock
100
AcDbLine
 10
782.445692547669
 20
-653.8213303512663
 30
0.0
 11
781.909794167669
 21
-655.8213303512664
 31
0.0
  0
LINE
  5
222CC
330
18
100
AcDbEntity
  8
0
  6
ByBlock
100
AcDbLine
 10
781.909794167669
 20
-655.8213303512664
 30
0.0
 11
781.3738957876689
 21
-653.8213303512663
 31
0.0
  0
LINE
  5
222CD
330
18
100
AcDbEntity
  8
0
  6
ByBlock
100
AcDbLine
 10
781.909794167669
 20
-655.8213303512664
 30
0.0
 11
781.909794167669
 21
-653.8213303512663
 31
0.0
  0
VIEWPORT
  5
57
102
{ACAD_XDICTIONARY
360
222EE
102
}
330
15
100
AcDbEntity
 67
     1
  8
0
100
AcDbViewport
 10
-12.71820606546885
 20
10.09248672500371
 30
0.0
 40
736.490401357184
 41
283.3761895846978
 68
     1
 69
     1
 12
-12.71820606546885
 22
10.09248672500371
 13
0.0
 23
0.0
 14
10.0
 24
10.0
 15
10.0
 25
10.0
 16
0.0
 26
0.0
 36
1.0
 17
0.0
 27
0.0
 37
0.0
 42
50.0
 43
0.0
 44
0.0
 45
283.3761895846978
 50
0.0
 51
0.0
 72
   100
 90
    32800
  1

281
     0
 71
     1
 74
     0
110
0.0
120
0.0
130
0.0
111
1.0
121
0.0
131
0.0
112
0.0
122
1.0
132
0.0
 79
     0
146
0.0
  0
ENDSEC
  0
SECTION
  2
OBJECTS
  0
DICTIONARY
  5
C
330
0
100
AcDbDictionary
281
     1
  3
ACAD_COLOR
350
2D0
  3
ACAD_GROUP
350
D
  3
ACAD_LAYOUT
350
2D1
  3
ACAD_MATERIAL
350
2CF
  3
ACAD_MLEADERSTYLE
350
19E18
  3
ACAD_MLINESTYLE
350
1B
  3
ACAD_PLOTSETTINGS
350
2D2
  3
ACAD_PLOTSTYLENAME
350
2CD
  3
ACAD_SCALELIST
350
19DF6
  3
ACAD_TABLESTYLE
350
4D6
  3
ACAD_VISUALSTYLE
350
19DE5
  3
ACDB_RECOMPOSE_DATA
350
222EC
  3
ACDBVARIABLEDICTIONARY
350
37
  3
AEC_PROPERTY_SET_DEFS
350
20EE3
  3
CONTENTDICTIONARY
350
D8
  3
DRAWINGVARIABLESDICT
350
20
  3
DWGPROPS
350
222ED
  0
DICTIONARY
  5
1ABDC
330
8
100
AcDbDictionary
280
     1
281
     1
  0
DICTIONARY
  5
18FE8
330
2
100
AcDbDictionary
280
     1
281
     1
  3
ACAD_LAYERSTATES
360
18FE9
  0
DICTIONARY
  5
1A20A
330
E
100
AcDbDictionary
280
     1
281
     1
  3
ADSK_XREC_LAYER_RECONCILED
360
1A20B
  0
DICTIONARY
  5
1A20C
330
29
100
AcDbDictionary
280
     1
281
     1
  3
ADSK_XREC_LAYER_RECONCILED
360
1A20D
  0
DICTIONARY
  5
1A20E
330
31
100
AcDbDictionary
280
     1
281
     1
  3
ADSK_XREC_LAYER_RECONCILED
360
1A20F
  0
DICTIONARY
  5
1A218
330
101
100
AcDbDictionary
280
     1
281
     1
  3
ADSK_XREC_LAYER_RECONCILED
360
1A219
  0
DICTIONARY
  5
1A21C
330
103
100
AcDbDictionary
280
     1
281
     1
  3
ADSK_XREC_LAYER_RECONCILED
360
1A21D
  0
DICTIONARY
  5
1A220
330
25F
100
AcDbDictionary
280
     1
281
     1
  3
ADSK_XREC_LAYER_RECONCILED
360
1A221
  0
DICTIONARY
  5
1A236
330
26A
100
AcDbDictionary
280
     1
281
     1
  3
ADSK_XREC_LAYER_RECONCILED
360
1A237
  0
DICTIONARY
  5
1A23C
330
26D
100
AcDbDictionary
280
     1
281
     1
  3
ADSK_XREC_LAYER_RECONCILED
360
1A23D
  0
DICTIONARY
  5
6E9
330
18
100
AcDbDictionary
280
     1
281
     1
  3
ACAD_SORTENTS
360
6EA
  0
DICTIONARY
  5
59B
330
15
100
AcDbDictionary
280
     1
281
     1
  3
ACAD_SORTENTS
360
59C
  0
DICTIONARY
  5
222EE
330
57
100
AcDbDictionary
280
     1
281
     1
  3
ACAD_XREC_ROUNDTRIP
360
222EF
  0
DICTIONARY
  5
2D0
102
{ACAD_REACTORS
330
C
102
}
330
C
100
AcDbDictionary
281
     1
  0
DICTIONARY
  5
D
102
{ACAD_REACTORS
330
C
102
}
330
C
100
AcDbDictionary
281
     1
  3
*A1
350
5EE
  3
*A10
350
81AE
  3
*A100
350
10E81
  3
*A101
350
BB97
  3
*A102
350
F4F7
  3
*A103
350
F8B3
  3
*A104
350
13C9E
  3
*A105
350
F503
  3
*A106
350
14D24
  3
*A107
350
174ED
  3
*A108
350
F4FF
  3
*A109
350
F505
  3
*A11
350
1A0BF
  3
*A110
350
81BC
  3
*A111
350
14D30
  3
*A112
350
FC47
  3
*A113
350
1497
  3
*A114
350
DF07
  3
*A115
350
F8B2
  3
*A116
350
186B
  3
*A117
350
1CCF7
  3
*A118
350
1C66F
  3
*A119
350
F8B1
  3
*A12
350
FC48
  3
*A120
350
1BC09
  3
*A121
350
81BA
  3
*A122
350
F0D4
  3
*A123
350
F520
  3
*A124
350
124E7
  3
*A125
350
F8BC
  3
*A126
350
1451F
  3
*A127
350
15212
  3
*A128
350
1BE4C
  3
*A129
350
FC3F
  3
*A13
350
14859
  3
*A130
350
AC77
  3
*A131
350
1486C
  3
*A132
350
1EBDF
  3
*A133
350
F504
  3
*A134
350
10A04
  3
*A135
350
1CDCE
  3
*A136
350
1E9F2
  3
*A137
350
1568F
  3
*A138
350
F507
  3
*A139
350
1EBE0
  3
*A14
350
81BD
  3
*A140
350
F10B
  3
*A141
350
F500
  3
*A142
350
F114
  3
*A143
350
14B81
  3
*A144
350
1C632
  3
*A145
350
14C1A
  3
*A146
350
FC38
  3
*A147
350
81B0
  3
*A148
350
743E
  3
*A149
350
DB60
  3
*A15
350
1EF1B
  3
*A150
350
12035
  3
*A151
350
81BF
  3
*A152
350
1568D
  3
*A153
350
81C1
  3
*A154
350
F8B7
  3
*A155
350
14673
  3
*A156
350
15539
  3
*A157
350
81E5
  3
*A158
350
F8AB
  3
*A159
350
120AE
  3
*A16
350
1C374
  3
*A160
350
14DA0
  3
*A161
350
F0DA
  3
*A162
350
1451C
  3
*A163
350
DFC0
  3
*A164
350
13E95
  3
*A165
350
81BE
  3
*A166
350
FC39
  3
*A167
350
13C9C
  3
*A168
350
1568C
  3
*A169
350
F0D9
  3
*A17
350
1EDFD
  3
*A170
350
1451E
  3
*A171
350
F0D7
  3
*A172
350
F4FE
  3
*A173
350
F0DE
  3
*A174
350
14B87
  3
*A175
350
81E6
  3
*A176
350
F127
  3
*A177
350
14B85
  3
*A178
350
DFC1
  3
*A179
350
1EEFF
  3
*A18
350
DB59
  3
*A180
350
13E93
  3
*A181
350
10AD2
  3
*A182
350
14B89
  3
*A183
350
DB9F
  3
*A184
350
1BC45
  3
*A185
350
10E76
  3
*A186
350
124E3
  3
*A187
350
11960
  3
*A188
350
81E8
  3
*A189
350
1A10A
  3
*A19
350
1E9DA
  3
*A190
350
81B5
  3
*A191
350
81B9
  3
*A192
350
15536
  3
*A193
350
1195D
  3
*A194
350
DB47
  3
*A195
350
1195E
  3
*A196
350
F0DD
  3
*A197
350
1CCF6
  3
*A198
350
14DA1
  3
*A199
350
14D23
  3
*A2
350
1068E
  3
*A20
350
F0D6
  3
*A200
350
17552
  3
*A201
350
1EF00
  3
*A202
350
DBFE
  3
*A203
350
14864
  3
*A204
350
13E92
  3
*A205
350
14703
  3
*A206
350
F8B5
  3
*A207
350
14B84
  3
*A208
350
F130
  3
*A209
350
14B8B
  3
*A21
350
F11E
  3
*A210
350
124E1
  3
*A211
350
F502
  3
*A212
350
81C0
  3
*A213
350
1195B
  3
*A214
350
13C9D
  3
*A215
350
743D
  3
*A216
350
FC43
  3
*A217
350
F102
  3
*A218
350
F0D2
  3
*A219
350
124E4
  3
*A22
350
81BB
  3
*A220
350
1499
  3
*A221
350
1568E
  3
*A222
350
1A145
  3
*A223
350
F151
  3
*A224
350
14C18
  3
*A225
350
124E0
  3
*A226
350
1EBE1
  3
*A227
350
14B8A
  3
*A228
350
F148
  3
*A229
350
13E94
  3
*A23
350
F4FD
  3
*A230
350
F8B9
  3
*A231
350
81AC
  3
*A232
350
FC4A
  3
*A233
350
F0D8
  3
*A234
350
124DF
  3
*A235
350
1C44B
  3
*A236
350
81AF
  3
*A237
350
FC3C
  3
*A238
350
F0F9
  3
*A239
350
1EF01
  3
*A24
350
67CA
  3
*A240
350
67C9
  3
*A241
350
1C6E9
  3
*A242
350
E0AF
  3
*A243
350
14C1B
  3
*A244
350
1EF02
  3
*A245
350
1EF03
  3
*A246
350
11794
  3
*A247
350
14520
  3
*A248
350
81B7
  3
*A249
350
1EF04
  3
*A25
350
1E980
  3
*A250
350
1EF05
  3
*A251
350
183C2
  3
*A252
350
15FDF
  3
*A253
350
124E6
  3
*A254
350
16F01
  3
*A255
350
DFC2
  3
*A256
350
193C4
  3
*A257
350
FC3B
  3
*A258
350
1EF06
  3
*A259
350
10E82
  3
*A26
350
1C6AC
  3
*A260
350
1EF07
  3
*A261
350
F8BA
  3
*A262
350
1EF16
  3
*A263
350
1EF17
  3
*A264
350
F8AF
  3
*A265
350
1EBF5
  3
*A266
350
1EF18
  3
*A267
350
FC3E
  3
*A268
350
E0B5
  3
*A269
350
1EF19
  3
*A27
350
1BE8E
  3
*A270
350
F0D5
  3
*A271
350
1E7BB
  3
*A272
350
F15A
  3
*A273
350
1496
  3
*A274
350
DC1D
  3
*A275
350
F8BB
  3
*A276
350
13C9F
  3
*A277
350
F8BE
  3
*A278
350
F0DB
  3
*A279
350
14B8C
  3
*A28
350
11E9B
  3
*A280
350
FC4B
  3
*A281
350
14865
  3
*A282
350
1EBDE
  3
*A283
350
F8BD
  3
*A284
350
743F
  3
*A285
350
81B6
  3
*A286
350
FC49
  3
*A287
350
120B1
  3
*A288
350
F13A
  3
*A289
350
109FB
  3
*A29
350
1EE53
  3
*A290
350
1C411
  3
*A291
350
FC3D
  3
*A292
350
F8B0
  3
*A293
350
120B0
  3
*A294
350
F6A
  3
*A295
350
FC42
  3
*A296
350
81B8
  3
*A297
350
17881
  3
*A298
350
FC41
  3
*A299
350
11959
  3
*A3
350
15690
  3
*A30
350
81AB
  3
*A300
350
14B86
  3
*A301
350
15537
  3
*A302
350
1195A
  3
*A303
350
FC40
  3
*A304
350
124DE
  3
*A305
350
F4F8
  3
*A306
350
81E7
  3
*A307
350
14C19
  3
*A308
350
81B1
  3
*A309
350
17882
  3
*A31
350
16EFF
  3
*A310
350
1EF1A
  3
*A311
350
1177F
  3
*A32
350
F8AD
  3
*A33
350
124E5
  3
*A34
350
14B82
  3
*A35
350
1EBE2
  3
*A36
350
F0D0
  3
*A37
350
16F00
  3
*A38
350
F0D1
  3
*A39
350
81C3
  3
*A4
350
F506
  3
*A40
350
7440
  3
*A41
350
1EE6C
  3
*A42
350
F4F9
  3
*A43
350
10AA0
  3
*A44
350
11E77
  3
*A45
350
F4FC
  3
*A46
350
F4F5
  3
*A47
350
81C2
  3
*A48
350
120AF
  3
*A49
350
1451D
  3
*A5
350
F8AC
  3
*A50
350
1486B
  3
*A51
350
1E9D3
  3
*A52
350
F4FB
  3
*A53
350
F163
  3
*A54
350
81B3
  3
*A55
350
BB90
  3
*A56
350
F4F6
  3
*A57
350
F8AE
  3
*A58
350
F8B4
  3
*A59
350
13CA0
  3
*A6
350
124E2
  3
*A60
350
FC45
  3
*A61
350
DB52
  3
*A62
350
21889
  3
*A63
350
FC46
  3
*A64
350
6E39
  3
*A65
350
DC31
  3
*A66
350
F0DC
  3
*A67
350
FC3A
  3
*A68
350
6FE0
  3
*A69
350
1195F
  3
*A7
350
DF09
  3
*A70
350
1178D
  3
*A71
350
67CB
  3
*A72
350
F0CE
  3
*A73
350
81B4
  3
*A74
350
11319
  3
*A75
350
DC05
  3
*A76
350
F501
  3
*A77
350
F0D3
  3
*A78
350
F8B6
  3
*A79
350
FC44
  3
*A8
350
DFC3
  3
*A80
350
81B2
  3
*A81
350
1498
  3
*A82
350
F69
  3
*A83
350
15538
  3
*A84
350
1E9F1
  3
*A85
350
14702
  3
*A86
350
16EFE
  3
*A87
350
11786
  3
*A88
350
14C1C
  3
*A89
350
14B88
  3
*A9
350
14C1D
  3
*A90
350
DC1C
  3
*A91
350
14B83
  3
*A92
350
81AD
  3
*A93
350
13E96
  3
*A94
350
16F02
  3
*A95
350
DF0A
  3
*A96
350
F8B8
  3
*A97
350
F4FA
  3
*A98
350
F0CF
  3
*A99
350
1195C
  0
DICTIONARY
  5
2D1
102
{ACAD_REACTORS
330
C
102
}
330
C
100
AcDbDictionary
281
     1
  3
Model
350
2D3
  3
レイアウト1
350
2D4
  0
DICTIONARY
  5
2CF
102
{ACAD_REACTORS
330
C
102
}
330
C
100
AcDbDictionary
281
     1
  3
ByBlock
350
19DD5
  3
ByLayer
350
19DCD
  3
Global
350
19DDD
  0
DICTIONARY
  5
19E18
102
{ACAD_REACTORS
330
C
102
}
330
C
100
AcDbDictionary
281
     1
  3
Standard
350
19E19
  0
DICTIONARY
  5
1B
102
{ACAD_REACTORS
330
C
102
}
330
C
100
AcDbDictionary
281
     1
  3
STANDARD
350
1C
  0
DICTIONARY
  5
2D2
102
{ACAD_REACTORS
330
C
102
}
330
C
100
AcDbDictionary
281
     1
  0
ACDBDICTIONARYWDFLT
  5
2CD
102
{ACAD_REACTORS
330
C
102
}
330
C
100
AcDbDictionary
281
     1
  3
Normal
350
2CE
100
AcDbDictionaryWithDefault
340
2CE
  0
DICTIONARY
  5
19DF6
102
{ACAD_REACTORS
330
C
102
}
330
C
100
AcDbDictionary
281
     1
  3
A0
350
19DF7
  3
A1
350
19DF8
  3
A2
350
19DF9
  3
A3
350
19DFA
  3
A4
350
19DFB
  3
A5
350
19DFC
  3
A6
350
19DFD
  3
A7
350
19DFE
  3
A8
350
19DFF
  3
A9
350
19E00
  3
B0
350
19E01
  3
B1
350
19E02
  3
B2
350
19E03
  3
B3
350
19E04
  3
B4
350
19E05
  3
B5
350
19E06
  3
B6
350
19E07
  3
B7
350
19E08
  3
B8
350
19E09
  3
B9
350
19E0A
  3
C0
350
19E0B
  3
C1
350
19E0C
  3
C2
350
19E0D
  3
C3
350
19E0E
  3
C4
350
19E0F
  3
C5
350
19E10
  3
C6
350
19E11
  3
C7
350
19E12
  3
C8
350
19E13
  3
C9
350
19E14
  3
D0
350
19E15
  3
D1
350
19E16
  3
D2
350
19E17
  0
DICTIONARY
  5
4D6
102
{ACAD_REACTORS
330
C
102
}
330
C
100
AcDbDictionary
281
     1
  3
Standard
350
4D7
  0
DICTIONARY
  5
19DE5
102
{ACAD_REACTORS
330
C
102
}
330
C
100
AcDbDictionary
281
     1
  3
2dWireframe
350
19DEB
  3
3D Hidden
350
19DED
  3
3dWireframe
350
19DEC
  3
Basic
350
19DEA
  3
Brighten
350
19DF1
  3
ColorChange
350
19DF5
  3
Conceptual
350
19DEE
  3
Dim
350
19DF0
  3
EdgeColorOff
350
1E02A
  3
Facepattern
350
19DF4
  3
Flat
350
19DE6
  3
FlatWithEdges
350
19DE7
  3
Gouraud
350
19DE8
  3
GouraudWithEdges
350
19DE9
  3
JitterOff
350
1E028
  3
Linepattern
350
19DF3
  3
OverhangOff
350
1E029
  3
Realistic
350
19DEF
  3
Thicken
350
19DF2
  0
XRECORD
  5
222EC
102
{ACAD_REACTORS
330
C
102
}
330
C
100
AcDbXrecord
280
     1
 90
        1
330
4D7
  0
DICTIONARY
  5
37
102
{ACAD_REACTORS
330
C
102
}
330
C
100
AcDbDictionary
281
     1
  3
CANNOSCALE
350
1AC1A
  3
CMLEADERSTYLE
350
1AC19
  3
CTABLESTYLE
350
4F1
  3
DIMADEC
350
38
  3
DIMASSOC
350
408
  3
HIDETEXT
350
1891
  3
INDEXCTL
350
1AC1C
  3
INTERSECTIONCOLOR
350
1895
  3
INTERSECTIONDISPLAY
350
1894
  3
OBSCOLOR
350
1892
  3
OBSLTYPE
350
1893
  3
PROJECTNAME
350
409
  3
SORTENTS
350
1AC1B
  3
XCLIPFRAME
350
222EA
  0
DICTIONARY
  5
20EE3
102
{ACAD_REACTORS
330
C
102
}
330
C
100
AcDbDictionary
281
     1
  0
DICTIONARY
  5
D8
102
{ACAD_REACTORS
330
C
102
}
330
C
100
AcDbDictionary
281
     1
1001
CONTENTTABDATA
1070
    11
1000
Child
1000
D:\ACLT\TABset\CHILDREN.dwg
1070
     0
1070
     0
1070
     1
1000
PK
1000
D:\ACLT\TABset\PK.dwg
1070
     0
1070
     0
1070
     1
1000
Lev1
1000
D:\ACLT\TABset\Lever01.dwg
1070
     0
1070
     0
1070
     1
1000
Lev2
1000
D:\ACLT\TABset\Lever02.dwg
1070
     0
1070
     0
1070
     1
1000
L3
1000
D:\Aclt\TABset\Lever03.dwg
1070
     0
1070
     0
1070
     1
1000
Form
1000
D:\ACLT\FORMAT
1070
     1
1070
     0
1070
     1
1000
Jnt
1000
D:\ACLT\TABset\JOINTPARTS.dwg
1070
     0
1070
     0
1070
     1
1000
ISO
1000
D:\ACLT\TABset\Isome01.dwg
1070
     0
1070
     0
1070
     1
1000
R
1000
D:\ACLT\TABset\REGION.dwg
1070
     0
1070
     0
1070
     1
1000
std
1000
D:\ACLT\TABset\std_sym_all.dwg
1070
     0
1070
     0
1070
     1
1000
丸
1000
D:\Aclt\TABset\MARU.dwg
1070
     0
1070
     0
1070
     1
1001
CONTENTCURRENTTAB
1070
     0
  0
DICTIONARY
  5
20
102
{ACAD_REACTORS
330
C
102
}
330
C
100
AcDbDictionary
281
     1
1001
DRAWINGVARIABLESXDATA
1000
POLARANG
1000
0.261799387799149410000000
1000
POLARMODE
1000
1
1000
POLARSTYLE
1000
1
  0
XRECORD
  5
222ED
102
{ACAD_REACTORS
330
C
102
}
330
C
100
AcDbXrecord
280
     1
  1
DWGPROPS COOKIE
  2

  3

  4

  6

  7

  8
3684
  9

300
=
301
=
302
=
303
=
304
=
305
=
306
=
307
=
308
=
309
=
 40
2.555530752314814
 41
2453033.732663484
 42
2457351.718405486
  1

 90
        0
  0
DICTIONARY
  5
18FE9
102
{ACAD_REACTORS
330
18FE8
102
}
330
18FE8
100
AcDbDictionary
281
     1
  0
XRECORD
  5
1A20B
102
{ACAD_REACTORS
330
1A20A
102
}
330
1A20A
100
AcDbXrecord
280
     1
290
     1
  0
XRECORD
  5
1A20D
102
{ACAD_REACTORS
330
1A20C
102
}
330
1A20C
100
AcDbXrecord
280
     1
290
     1
  0
XRECORD
  5
1A20F
102
{ACAD_REACTORS
330
1A20E
102
}
330
1A20E
100
AcDbXrecord
280
     1
290
     1
  0
XRECORD
  5
1A219
102
{ACAD_REACTORS
330
1A218
102
}
330
1A218
100
AcDbXrecord
280
     1
290
     1
  0
XRECORD
  5
1A21D
102
{ACAD_REACTORS
330
1A21C
102
}
330
1A21C
100
AcDbXrecord
280
     1
290
     1
  0
XRECORD
  5
1A221
102
{ACAD_REACTORS
330
1A220
102
}
330
1A220
100
AcDbXrecord
280
     1
290
     1
  0
XRECORD
  5
1A237
102
{ACAD_REACTORS
330
1A236
102
}
330
1A236
100
AcDbXrecord
280
     1
290
     1
  0
XRECORD
  5
1A23D
102
{ACAD_REACTORS
330
1A23C
102
}
330
1A23C
100
AcDbXrecord
280
     1
290
     1
  0
SORTENTSTABLE
  5
6EA
102
{ACAD_REACTORS
330
6E9
102
}
330
6E9
100
AcDbSortentsTable
330
18
331
2225F
  5
20F48
331
2229E
  5
2007B
331
222A6
  5
200C1
331
22267
  5
200B0
331
222AE
  5
221A7
331
2226F
  5
2001B
331
222B6
  5
221C8
331
2216F
  5
222B8
331
221AE
  5
22222
331
221E5
  5
217E7
331
22224
  5
200EF
331
22177
  5
2229E
331
221B6
  5
2222A
331
221ED
  5
217EF
331
2222C
  5
200FB
331
221BE
  5
22232
331
2217F
  5
221F3
331
221F5
  5
217F7
331
22234
  5
20103
331
20006
  5
21840
331
221C6
  5
2223A
331
22187
  5
221FB
331
221FD
  5
217FF
331
2223C
  5
2010B
331
200F2
  5
22182
331
2000E
  5
2188A
331
200FA
  5
22188
331
20102
  5
22190
331
1DBA6
  5
200AE
331
20F00
  5
221D3
331
217EE
  5
22256
331
20F47
  5
221E7
331
2182D
  5
2228D
331
217F6
  5
2225E
331
20F10
  5
221D7
331
217FE
  5
22266
331
21806
  5
2226E
331
217C7
  5
221EF
331
222BE
  5
222B7
331
2227F
  5
1EE5E
331
222C6
  5
222BE
331
2228F
  5
1E9D9
331
22297
  5
20015
331
2218F
  5
22203
331
22158
  5
221BC
331
221CE
  5
221A1
331
22205
  5
21807
331
22244
  5
20564
331
2220D
  5
2180F
331
2224C
  5
20F01
331
22197
  5
2220B
331
22160
  5
221B1
331
221D6
  5
217D3
331
22215
  5
2181B
331
22254
  5
20F1E
331
2219F
  5
22213
331
221DE
  5
217DF
331
2010A
  5
22198
331
221A7
  5
2221B
331
2221D
  5
200E3
331
2006E
  5
22159
331
1EE58
  5
21829
331
1E9D1
  5
200E1
331
200DB
  5
22175
331
200E3
  5
22179
331
21845
  5
2229D
331
2180E
  5
22276
331
20F28
  5
221DE
331
21816
  5
2227E
331
217D7
  5
22240
331
20EF1
  5
221CF
331
2181E
  5
22281
331
217DF
  5
22247
331
217E7
  5
2224F
331
22258
  5
20F2D
331
22260
  5
20F49
331
2229F
  5
20068
331
222A7
  5
200C7
331
22268
  5
200B1
331
222AF
  5
221A8
331
222B7
  5
222AA
331
22168
  5
222C1
331
221AF
  5
22223
331
221E6
  5
217E8
331
22225
  5
200F0
331
22178
  5
2229F
331
221B7
  5
2222B
331
221EE
  5
217F0
331
2222D
  5
200FC
331
221BF
  5
22233
331
22180
  5
221F4
331
221F6
  5
217F8
331
22235
  5
20104
331
20007
  5
21841
331
221C7
  5
221C0
331
221FE
  5
21800
331
2223D
  5
2010C
331
200F3
  5
22183
331
200FB
  5
22189
331
20103
  5
22191
331
21826
  5
22286
331
217EF
  5
22257
331
20F48
  5
221E8
331
2182E
  5
2228E
331
217F7
  5
2225F
331
20F11
  5
221D8
331
21836
  5
22291
331
217FF
  5
22267
331
2183E
  5
22296
331
21807
  5
2226F
331
222BF
  5
222B4
331
22280
  5
1EE56
331
222C7
  5
222CC
331
22290
  5
1EE58
331
22151
  5
222BF
331
22188
  5
221FC
331
22190
  5
22204
331
22159
  5
221BD
331
221CF
  5
221A2
331
22206
  5
21808
331
22245
  5
20B86
331
2220E
  5
21810
331
2224D
  5
20F0C
331
22198
  5
2220C
331
22161
  5
221B2
331
221D7
  5
217D7
331
22216
  5
2181C
331
22255
  5
20F1F
331
221A0
  5
22214
331
221DF
  5
217E0
331
2010B
  5
22199
331
2221E
  5
200E5
331
2011B
  5
2219E
331
200CC
  5
22171
331
200DC
  5
22176
331
20087
  5
2215E
331
217C8
  5
221F0
331
2180F
  5
22277
331
2181F
  5
22282
331
217E0
  5
22248
331
22259
  5
20F2E
331
22298
  5
20008
331
22261
  5
20F4A
331
222A0
  5
20069
331
222A8
  5
200C8
331
22269
  5
200B2
331
222B0
  5
221CC
331
22169
  5
222C2
331
221A8
  5
2221C
331
22171
  5
222AB
331
221B0
  5
22224
331
221E7
  5
217E9
331
22226
  5
200F1
331
22179
  5
222A0
331
221B8
  5
2222C
331
221EF
  5
217F1
331
2222E
  5
200FD
331
20000
  5
21838
331
221C0
  5
22234
331
22181
  5
221F5
331
221F7
  5
217F9
331
22236
  5
20105
331
200EC
  5
2217D
331
200A5
  5
22162
331
20008
  5
21842
331
221FF
  5
21801
331
2223E
  5
2010D
331
200F4
  5
22184
331
1EE71
  5
21834
331
200FC
  5
2218A
331
20018
  5
21966
331
20104
  5
22192
331
200BD
  5
2216A
331
217E8
  5
22250
331
21827
  5
22287
331
217F0
  5
22258
331
20F49
  5
221E9
331
20564
  5
22155
331
217F8
  5
22260
331
20F12
  5
221D9
331
21837
  5
22292
331
21800
  5
22268
331
2183F
  5
22297
331
222B8
  5
222A7
331
222C0
  5
222B5
331
222C8
  5
222C9
331
22289
  5
1E9E7
331
22291
  5
1EE5B
331
22152
  5
222BB
331
22189
  5
221FD
331
221C8
  5
221C1
331
22191
  5
22205
331
2215A
  5
221BE
331
22207
  5
21809
331
22246
  5
20EE8
331
2220F
  5
21811
331
2224E
  5
20F0E
331
22199
  5
2220D
331
22162
  5
221B3
331
221D8
  5
217D9
331
20060
  5
22153
331
221A1
  5
22215
331
22217
  5
2181E
331
22256
  5
20F20
331
2010C
  5
2219A
331
20068
  5
22154
331
2221F
  5
200E7
331
200CD
  5
22172
331
200E5
  5
2217A
331
21808
  5
22270
331
21810
  5
22278
331
20F2A
  5
221DF
331
217D9
  5
22241
331
20EF3
  5
221D0
331
217E1
  5
22249
331
2225A
  5
20F32
331
22299
  5
20009
331
22262
  5
20F4B
331
222A1
  5
2006A
331
222A9
  5
221AC
331
222B1
  5
221C9
331
221A9
  5
2221D
331
221E0
  5
217E1
331
22172
  5
222AC
331
221B1
  5
22225
331
221E8
  5
217EA
331
22227
  5
200F4
331
221B9
  5
2222D
331
221F0
  5
217F2
331
2222F
  5
200FE
331
1EE62
  5
2182D
331
221C1
  5
22235
331
22182
  5
221F6
331
221F8
  5
217FA
331
22237
  5
20106
331
200ED
  5
2217E
331
200A6
  5
22164
331
20009
  5
21843
331
2223F
  5
2010E
331
200FD
  5
2218B
331
20019
  5
21968
331
20105
  5
22193
331
21820
  5
22283
331
217E9
  5
22251
331
21828
  5
22288
331
217F1
  5
22259
331
20F4A
  5
221EA
331
217F9
  5
22261
331
20F13
  5
221DA
331
21838
  5
22293
331
21801
  5
22269
331
222B9
  5
222A8
331
2227A
  5
1FFFA
331
222C1
  5
222B6
331
22282
  5
1DB9F
331
222C9
  5
222CA
331
2228A
  5
1E9DB
331
22292
  5
1EE65
331
2218A
  5
221FE
331
221C9
  5
221C2
331
22200
  5
21802
331
22192
  5
22206
331
22208
  5
2180A
331
22247
  5
20EE9
331
22210
  5
21812
331
2224F
  5
20F10
331
2219A
  5
2220E
331
22163
  5
221B4
331
221D9
  5
217DA
331
221A2
  5
22216
331
22218
  5
2181F
331
22257
  5
20F29
331
2010D
  5
2219B
331
200C6
  5
2216D
331
20069
  5
22156
331
200CE
  5
22173
331
20081
  5
2215A
331
1EE5B
  5
2182A
331
1E9D4
  5
217C6
331
2015D
  5
2219F
331
200DE
  5
22177
331
1FFFA
  5
21836
331
21840
  5
22298
331
21809
  5
22271
331
217CA
  5
2223B
331
21811
  5
22279
331
20F2B
  5
221E0
331
217DA
  5
22242
331
20EF4
  5
221D1
331
217E2
  5
2224A
331
2225B
  5
20F38
331
2229A
  5
2000B
331
22263
  5
215B8
331
222A2
  5
200CE
331
222AA
  5
221A9
331
222B2
  5
221CA
331
22273
  5
20000
331
221AA
  5
2221E
331
221E1
  5
217E2
331
22220
  5
200E8
331
22173
  5
222AD
331
221B2
  5
22226
331
221E9
  5
217EB
331
22228
  5
200F5
331
221BA
  5
2222E
331
221F1
  5
217F3
331
22230
  5
200FF
331
20002
  5
2183B
331
1EE63
  5
2182E
331
221C2
  5
22236
331
22183
  5
221F7
331
221F9
  5
217FB
331
22238
  5
20107
331
200EE
  5
2217F
331
200AF
  5
22166
331
200FE
  5
2218C
331
2001A
  5
21E6D
331
20106
  5
22194
331
200BF
  5
2216B
331
217EA
  5
22252
331
20F43
  5
221E4
331
21829
  5
22289
331
217F2
  5
2225A
331
20F4B
  5
221EB
331
20F0C
  5
221D4
331
217FA
  5
22262
331
20F14
  5
221DB
331
21802
  5
2226A
331
222BA
  5
222A9
331
2227B
  5
1FFFD
331
222C2
  5
222B1
331
22283
  5
1DBA8
331
222CA
  5
222CB
331
2228B
  5
1E9E5
331
22293
  5
1EE71
331
2218B
  5
221FF
331
22154
  5
221B8
331
22201
  5
21803
331
22240
  5
2011B
331
22193
  5
22207
331
22209
  5
2180B
331
22248
  5
20EF2
331
22211
  5
21813
331
22250
  5
20F11
331
2219B
  5
2220F
331
22164
  5
221B5
331
221DA
  5
217DB
331
221A3
  5
22217
331
22219
  5
21820
331
2010E
  5
2219C
331
200C7
  5
2216E
331
2006A
  5
22157
331
1E9CD
  5
200CF
331
200CF
  5
22174
331
1E9D5
  5
217C7
331
200E7
  5
2217B
331
21841
  5
22299
331
2180A
  5
22272
331
217CB
  5
2223C
331
21812
  5
2227A
331
217D3
  5
2223F
331
217DB
  5
22243
331
20F34
  5
221E2
331
217E3
  5
2224B
331
20EFD
  5
221D2
331
2225C
  5
20F43
331
2229B
  5
20084
331
22264
  5
215B9
331
222A3
  5
200CA
331
222AB
  5
221AA
331
222B3
  5
221CB
331
22274
  5
20002
331
221AB
  5
2221F
331
221E2
  5
217E3
331
22221
  5
200EC
331
221B3
  5
22227
331
221EA
  5
217EC
331
22229
  5
200F8
331
221BB
  5
2222F
331
221F2
  5
217F4
331
22231
  5
20100
331
20003
  5
2183C
331
221C3
  5
22237
331
22184
  5
221F8
331
221FA
  5
217FC
331
22239
  5
20108
331
200EF
  5
22180
331
2000B
  5
21844
331
200F7
  5
22185
331
200B0
  5
22167
331
200FF
  5
2218D
331
2001B
  5
22058
331
20107
  5
22195
331
1DB9B
  5
20087
331
217EB
  5
22253
331
20F44
  5
221E5
331
2182A
  5
2228A
331
217F3
  5
2225B
331
20F0D
  5
221D5
331
217FB
  5
22263
331
21803
  5
2226B
331
217C4
  5
221EC
331
222BB
  5
222A4
331
2227C
  5
1EE62
331
222C3
  5
222B2
331
22284
  5
1DF13
331
222CB
  5
222C6
331
2228C
  5
1E9E6
331
22294
  5
20018
331
22058
  5
222CD
331
2218C
  5
22200
331
22155
  5
221B9
331
22202
  5
21804
331
22241
  5
2015D
331
2220A
  5
2180C
331
22249
  5
20EF3
331
22194
  5
22208
331
2215D
  5
221AE
331
221D3
  5
217CB
331
22212
  5
21814
331
22251
  5
20F12
331
2219C
  5
22210
331
22165
  5
221B6
331
221DB
  5
217DC
331
200C0
  5
2216C
331
221A4
  5
22218
331
2221A
  5
21823
331
2010F
  5
2219D
331
2006B
  5
22158
331
1E9CE
  5
200D0
331
1EE5D
  5
2182B
331
1E9D6
  5
217C8
331
21842
  5
2229A
331
2180B
  5
22273
331
217CC
  5
2223D
331
21813
  5
2227B
331
20F2D
  5
221E1
331
2181B
  5
2227F
331
217DC
  5
22244
331
204D0
  5
221AD
331
217E4
  5
2224C
331
2225D
  5
20F45
331
2229C
  5
2006B
331
22265
  5
217C4
331
222A4
  5
200CC
331
222AC
  5
221AB
331
2226D
  5
20019
331
222B4
  5
221C6
331
22275
  5
20003
331
2216D
  5
222BC
331
221AC
  5
22220
331
221E3
  5
217E5
331
22222
  5
200ED
331
221B4
  5
22228
331
221EB
  5
217ED
331
2222A
  5
200F9
331
221BC
  5
22230
331
2217D
  5
221F1
331
221F3
  5
217F5
331
22232
  5
20101
331
200E8
  5
2217C
331
20004
  5
2183E
331
1EE65
  5
21833
331
221C4
  5
22238
331
22185
  5
221F9
331
221FB
  5
217FD
331
2223A
  5
20109
331
200F0
  5
22181
331
2000C
  5
21845
331
200F8
  5
22186
331
200B1
  5
22168
331
20100
  5
2218E
331
2001C
  5
22151
331
1DBA4
  5
2008F
331
21823
  5
22284
331
217EC
  5
22254
331
20F45
  5
221E6
331
2182B
  5
2228B
331
217F4
  5
2225C
331
20F0E
  5
221D6
331
21833
  5
2228F
331
217FC
  5
22264
331
2183B
  5
22294
331
21804
  5
2226C
331
217C5
  5
221ED
331
20F1E
  5
221DC
331
222BC
  5
222A5
331
222C4
  5
222B3
331
22285
  5
1DFD9
331
222CC
  5
222C7
331
2228D
  5
1E9D6
331
22295
  5
2000C
331
2218D
  5
22201
331
22156
  5
221BA
331
22203
  5
21805
331
22242
  5
201AB
331
2220B
  5
2180D
331
2224A
  5
20EF6
331
22195
  5
22209
331
2215E
  5
221AF
331
221D4
  5
217CC
331
22213
  5
21815
331
22252
  5
20F13
331
2219D
  5
22211
331
22166
  5
221B7
331
221DC
  5
217DD
331
20108
  5
22196
331
221A5
  5
22219
331
2221B
  5
21824
331
200C9
  5
2216F
331
1EE56
  5
21827
331
1E9CF
  5
200DC
331
20084
  5
2215D
331
1EE5E
  5
2182C
331
1E9D7
  5
217C9
331
200E1
  5
22178
331
1FFFD
  5
21837
331
21843
  5
2229B
331
2180C
  5
22274
331
217CD
  5
2223E
331
21814
  5
2227C
331
20EE7
  5
221CD
331
2181C
  5
22280
331
217DD
  5
22245
331
217E5
  5
2224D
331
2225E
  5
20F47
331
2229D
  5
2006E
331
22266
  5
217C5
331
222A5
  5
200CD
331
222AD
  5
221A6
331
2226E
  5
2001A
331
222B5
  5
221C7
331
22276
  5
20004
331
221AD
  5
22221
331
221E4
  5
217E6
331
22223
  5
200EE
331
221B5
  5
22229
331
221EC
  5
217EE
331
2222B
  5
200FA
331
221BD
  5
22231
331
2217E
  5
221F2
331
221F4
  5
217F6
331
22233
  5
20102
331
20005
  5
2183F
331
221C5
  5
22239
331
22186
  5
221FA
331
221FC
  5
217FE
331
2223B
  5
2010A
331
200F9
  5
22187
331
200B2
  5
22169
331
20015
  5
218A2
331
20101
  5
2218F
331
2001D
  5
22152
331
1DBA5
  5
200A6
331
21824
  5
22285
331
217ED
  5
22255
331
2182C
  5
2228C
331
217F5
  5
2225D
331
21834
  5
22290
331
217FD
  5
22265
331
20C41
  5
221BF
331
2183C
  5
22295
331
21805
  5
2226D
331
217C6
  5
221EE
331
222BD
  5
222A6
331
2227E
  5
1EE5D
331
222C5
  5
222BA
331
222CD
  5
222C8
331
2228E
  5
1E9D7
331
22296
  5
2000E
331
2218E
  5
22202
331
22157
  5
221BB
331
221CD
  5
221A0
331
22204
  5
21806
331
22243
  5
20217
331
2220C
  5
2180E
331
2224B
  5
20EF7
331
22196
  5
2220A
331
2215F
  5
221B0
331
221D5
  5
217CD
331
22214
  5
21816
331
22253
  5
20F14
331
22167
  5
222C0
331
2219E
  5
22212
331
221DD
  5
217DE
331
20109
  5
22197
331
221A6
  5
2221A
331
2221C
  5
21826
331
200CA
  5
22170
331
1EE57
  5
21828
331
1E9D0
  5
200DE
331
1E9D8
  5
217CA
331
21844
  5
2229C
331
2180D
  5
22275
331
20F27
  5
221DD
331
21815
  5
2227D
331
20EF0
  5
221CE
331
217DE
  5
22246
331
20F37
  5
221E3
331
217E6
  5
2224E
  0
SORTENTSTABLE
  5
59C
102
{ACAD_REACTORS
330
59B
102
}
330
59B
100
AcDbSortentsTable
330
15
331
57
  5
57
  0
XRECORD
  5
222EF
102
{ACAD_REACTORS
330
222EE
102
}
330
222EE
100
AcDbXrecord
280
     1
102
SHADEPLOT
 70
     0
  0
GROUP
  5
5EE
102
{ACAD_REACTORS
330
D
102
}
330
D
100
AcDbGroup
300

 70
     1
 71
     1
  0
GROUP
  5
81AE
102
{ACAD_REACTORS
330
D
102
}
330
D
100
AcDbGroup
300

 70
     1
 71
     1
  0
GROUP
  5
10E81
102
{ACAD_REACTORS
330
D
102
}
330
D
100
AcDbGroup
300

 70
     1
 71
     1
  0
GROUP
  5
BB97
102
{ACAD_REACTORS
330
D
102
}
330
D
100
AcDbGroup
300

 70
     1
 71
     1
  0
GROUP
  5
F4F7
102
{ACAD_REACTORS
330
D
102
}
330
D
100
AcDbGroup
300

 70
     1
 71
     1
  0
GROUP
  5
F8B3
102
{ACAD_REACTORS
330
D
102
}
330
D
100
AcDbGroup
300

 70
     1
 71
     1
  0
GROUP
  5
13C9E
102
{ACAD_REACTORS
330
D
102
}
330
D
100
AcDbGroup
300

 70
     1
 71
     1
  0
GROUP
  5
F503
102
{ACAD_REACTORS
330
D
102
}
330
D
100
AcDbGroup
300

 70
     1
 71
     1
  0
GROUP
  5
14D24
102
{ACAD_REACTORS
330
D
102
}
330
D
100
AcDbGroup
300

 70
     1
 71
     1
  0
GROUP
  5
174ED
102
{ACAD_REACTORS
330
D
102
}
330
D
100
AcDbGroup
300

 70
     1
 71
     1
  0
GROUP
  5
F4FF
102
{ACAD_REACTORS
330
D
102
}
330
D
100
AcDbGroup
300

 70
     1
 71
     1
  0
GROUP
  5
F505
102
{ACAD_REACTORS
330
D
102
}
330
D
100
AcDbGroup
300

 70
     1
 71
     1
  0
GROUP
  5
1A0BF
102
{ACAD_REACTORS
330
D
102
}
330
D
100
AcDbGroup
300

 70
     1
 71
     1
  0
GROUP
  5
81BC
102
{ACAD_REACTORS
330
D
102
}
330
D
100
AcDbGroup
300

 70
     1
 71
     1
  0
GROUP
  5
14D30
102
{ACAD_REACTORS
330
D
102
}
330
D
100
AcDbGroup
300

 70
     1
 71
     1
  0
GROUP
  5
FC47
102
{ACAD_REACTORS
330
D
102
}
330
D
100
AcDbGroup
300

 70
     1
 71
     1
  0
GROUP
  5
1497
102
{ACAD_REACTORS
330
D
102
}
330
D
100
AcDbGroup
300

 70
     1
 71
     1
  0
GROUP
  5
DF07
102
{ACAD_REACTORS
330
D
102
}
330
D
100
AcDbGroup
300

 70
     1
 71
     1
  0
GROUP
  5
F8B2
102
{ACAD_REACTORS
330
D
102
}
330
D
100
AcDbGroup
300

 70
     1
 71
     1
  0
GROUP
  5
186B
102
{ACAD_REACTORS
330
D
102
}
330
D
100
AcDbGroup
300

 70
     1
 71
     1
  0
GROUP
  5
1CCF7
102
{ACAD_REACTORS
330
D
102
}
330
D
100
AcDbGroup
300

 70
     1
 71
     1
  0
GROUP
  5
1C66F
102
{ACAD_REACTORS
330
D
102
}
330
D
100
AcDbGroup
300

 70
     1
 71
     1
  0
GROUP
  5
F8B1
102
{ACAD_REACTORS
330
D
102
}
330
D
100
AcDbGroup
300

 70
     1
 71
     1
  0
GROUP
  5
FC48
102
{ACAD_REACTORS
330
D
102
}
330
D
100
AcDbGroup
300

 70
     1
 71
     1
  0
GROUP
  5
1BC09
102
{ACAD_REACTORS
330
D
102
}
330
D
100
AcDbGroup
300

 70
     1
 71
     1
  0
GROUP
  5
81BA
102
{ACAD_REACTORS
330
D
102
}
330
D
100
AcDbGroup
300

 70
     1
 71
     1
  0
GROUP
  5
F0D4
102
{ACAD_REACTORS
330
D
102
}
330
D
100
AcDbGroup
300

 70
     1
 71
     1
  0
GROUP
  5
F520
102
{ACAD_REACTORS
330
D
102
}
330
D
100
AcDbGroup
300

 70
     1
 71
     1
  0
GROUP
  5
124E7
102
{ACAD_REACTORS
330
D
102
}
330
D
100
AcDbGroup
300

 70
     1
 71
     1
  0
GROUP
  5
F8BC
102
{ACAD_REACTORS
330
D
102
}
330
D
100
AcDbGroup
300

 70
     1
 71
     1
  0
GROUP
  5
1451F
102
{ACAD_REACTORS
330
D
102
}
330
D
100
AcDbGroup
300

 70
     1
 71
     1
  0
GROUP
  5
15212
102
{ACAD_REACTORS
330
D
102
}
330
D
100
AcDbGroup
300

 70
     1
 71
     1
  0
GROUP
  5
1BE4C
102
{ACAD_REACTORS
330
D
102
}
330
D
100
AcDbGroup
300

 70
     1
 71
     1
  0
GROUP
  5
FC3F
102
{ACAD_REACTORS
330
D
102
}
330
D
100
AcDbGroup
300

 70
     1
 71
     1
  0
GROUP
  5
14859
102
{ACAD_REACTORS
330
D
102
}
330
D
100
AcDbGroup
300

 70
     1
 71
     1
  0
GROUP
  5
AC77
102
{ACAD_REACTORS
330
D
102
}
330
D
100
AcDbGroup
300

 70
     1
 71
     1
  0
GROUP
  5
1486C
102
{ACAD_REACTORS
330
D
102
}
330
D
100
AcDbGroup
300

 70
     1
 71
     1
  0
GROUP
  5
1EBDF
102
{ACAD_REACTORS
330
D
102
}
330
D
100
AcDbGroup
300

 70
     1
 71
     1
  0
GROUP
  5
F504
102
{ACAD_REACTORS
330
D
102
}
330
D
100
AcDbGroup
300

 70
     1
 71
     1
  0
GROUP
  5
10A04
102
{ACAD_REACTORS
330
D
102
}
330
D
100
AcDbGroup
300

 70
     1
 71
     1
  0
GROUP
  5
1CDCE
102
{ACAD_REACTORS
330
D
102
}
330
D
100
AcDbGroup
300

 70
     1
 71
     1
  0
GROUP
  5
1E9F2
102
{ACAD_REACTORS
330
D
102
}
330
D
100
AcDbGroup
300

 70
     1
 71
     1
  0
GROUP
  5
1568F
102
{ACAD_REACTORS
330
D
102
}
330
D
100
AcDbGroup
300

 70
     1
 71
     1
  0
GROUP
  5
F507
102
{ACAD_REACTORS
330
D
102
}
330
D
100
AcDbGroup
300

 70
     1
 71
     1
  0
GROUP
  5
1EBE0
102
{ACAD_REACTORS
330
D
102
}
330
D
100
AcDbGroup
300

 70
     1
 71
     1
  0
GROUP
  5
81BD
102
{ACAD_REACTORS
330
D
102
}
330
D
100
AcDbGroup
300

 70
     1
 71
     1
  0
GROUP
  5
F10B
102
{ACAD_REACTORS
330
D
102
}
330
D
100
AcDbGroup
300

 70
     1
 71
     1
  0
GROUP
  5
F500
102
{ACAD_REACTORS
330
D
102
}
330
D
100
AcDbGroup
300

 70
     1
 71
     1
  0
GROUP
  5
F114
102
{ACAD_REACTORS
330
D
102
}
330
D
100
AcDbGroup
300

 70
     1
 71
     1
  0
GROUP
  5
14B81
102
{ACAD_REACTORS
330
D
102
}
330
D
100
AcDbGroup
300

 70
     1
 71
     1
  0
GROUP
  5
1C632
102
{ACAD_REACTORS
330
D
102
}
330
D
100
AcDbGroup
300

 70
     1
 71
     1
  0
GROUP
  5
14C1A
102
{ACAD_REACTORS
330
D
102
}
330
D
100
AcDbGroup
300

 70
     1
 71
     1
  0
GROUP
  5
FC38
102
{ACAD_REACTORS
330
D
102
}
330
D
100
AcDbGroup
300

 70
     1
 71
     1
  0
GROUP
  5
81B0
102
{ACAD_REACTORS
330
D
102
}
330
D
100
AcDbGroup
300

 70
     1
 71
     1
  0
GROUP
  5
743E
102
{ACAD_REACTORS
330
D
102
}
330
D
100
AcDbGroup
300

 70
     1
 71
     1
  0
GROUP
  5
DB60
102
{ACAD_REACTORS
330
D
102
}
330
D
100
AcDbGroup
300

 70
     1
 71
     1
  0
GROUP
  5
1EF1B
102
{ACAD_REACTORS
330
D
102
}
330
D
100
AcDbGroup
300

 70
     1
 71
     1
  0
GROUP
  5
12035
102
{ACAD_REACTORS
330
D
102
}
330
D
100
AcDbGroup
300

 70
     1
 71
     1
  0
GROUP
  5
81BF
102
{ACAD_REACTORS
330
D
102
}
330
D
100
AcDbGroup
300

 70
     1
 71
     1
  0
GROUP
  5
1568D
102
{ACAD_REACTORS
330
D
102
}
330
D
100
AcDbGroup
300

 70
     1
 71
     1
  0
GROUP
  5
81C1
102
{ACAD_REACTORS
330
D
102
}
330
D
100
AcDbGroup
300

 70
     1
 71
     1
  0
GROUP
  5
F8B7
102
{ACAD_REACTORS
330
D
102
}
330
D
100
AcDbGroup
300

 70
     1
 71
     1
  0
GROUP
  5
14673
102
{ACAD_REACTORS
330
D
102
}
330
D
100
AcDbGroup
300

 70
     1
 71
     1
  0
GROUP
  5
15539
102
{ACAD_REACTORS
330
D
102
}
330
D
100
AcDbGroup
300

 70
     1
 71
     1
  0
GROUP
  5
81E5
102
{ACAD_REACTORS
330
D
102
}
330
D
100
AcDbGroup
300

 70
     1
 71
     1
  0
GROUP
  5
F8AB
102
{ACAD_REACTORS
330
D
102
}
330
D
100
AcDbGroup
300

 70
     1
 71
     1
  0
GROUP
  5
120AE
102
{ACAD_REACTORS
330
D
102
}
330
D
100
AcDbGroup
300

 70
     1
 71
     1
  0
GROUP
  5
1C374
102
{ACAD_REACTORS
330
D
102
}
330
D
100
AcDbGroup
300

 70
     1
 71
     1
  0
GROUP
  5
14DA0
102
{ACAD_REACTORS
330
D
102
}
330
D
100
AcDbGroup
300

 70
     1
 71
     1
  0
GROUP
  5
F0DA
102
{ACAD_REACTORS
330
D
102
}
330
D
100
AcDbGroup
300

 70
     1
 71
     1
  0
GROUP
  5
1451C
102
{ACAD_REACTORS
330
D
102
}
330
D
100
AcDbGroup
300

 70
     1
 71
     1
  0
GROUP
  5
DFC0
102
{ACAD_REACTORS
330
D
102
}
330
D
100
AcDbGroup
300

 70
     1
 71
     1
  0
GROUP
  5
13E95
102
{ACAD_REACTORS
330
D
102
}
330
D
100
AcDbGroup
300

 70
     1
 71
     1
  0
GROUP
  5
81BE
102
{ACAD_REACTORS
330
D
102
}
330
D
100
AcDbGroup
300

 70
     1
 71
     1
  0
GROUP
  5
FC39
102
{ACAD_REACTORS
330
D
102
}
330
D
100
AcDbGroup
300

 70
     1
 71
     1
  0
GROUP
  5
13C9C
102
{ACAD_REACTORS
330
D
102
}
330
D
100
AcDbGroup
300

 70
     1
 71
     1
  0
GROUP
  5
1568C
102
{ACAD_REACTORS
330
D
102
}
330
D
100
AcDbGroup
300

 70
     1
 71
     1
  0
GROUP
  5
F0D9
102
{ACAD_REACTORS
330
D
102
}
330
D
100
AcDbGroup
300

 70
     1
 71
     1
  0
GROUP
  5
1EDFD
102
{ACAD_REACTORS
330
D
102
}
330
D
100
AcDbGroup
300

 70
     1
 71
     1
340
1DBA6
340
1DBA5
340
1DBA4
  0
GROUP
  5
1451E
102
{ACAD_REACTORS
330
D
102
}
330
D
100
AcDbGroup
300

 70
     1
 71
     1
  0
GROUP
  5
F0D7
102
{ACAD_REACTORS
330
D
102
}
330
D
100
AcDbGroup
300

 70
     1
 71
     1
  0
GROUP
  5
F4FE
102
{ACAD_REACTORS
330
D
102
}
330
D
100
AcDbGroup
300

 70
     1
 71
     1
  0
GROUP
  5
F0DE
102
{ACAD_REACTORS
330
D
102
}
330
D
100
AcDbGroup
300

 70
     1
 71
     1
  0
GROUP
  5
14B87
102
{ACAD_REACTORS
330
D
102
}
330
D
100
AcDbGroup
300

 70
     1
 71
     1
  0
GROUP
  5
81E6
102
{ACAD_REACTORS
330
D
102
}
330
D
100
AcDbGroup
300

 70
     1
 71
     1
  0
GROUP
  5
F127
102
{ACAD_REACTORS
330
D
102
}
330
D
100
AcDbGroup
300

 70
     1
 71
     1
  0
GROUP
  5
14B85
102
{ACAD_REACTORS
330
D
102
}
330
D
100
AcDbGroup
300

 70
     1
 71
     1
  0
GROUP
  5
DFC1
102
{ACAD_REACTORS
330
D
102
}
330
D
100
AcDbGroup
300

 70
     1
 71
     1
  0
GROUP
  5
1EEFF
102
{ACAD_REACTORS
330
D
102
}
330
D
100
AcDbGroup
300

 70
     1
 71
     1
  0
GROUP
  5
DB59
102
{ACAD_REACTORS
330
D
102
}
330
D
100
AcDbGroup
300

 70
     1
 71
     1
  0
GROUP
  5
13E93
102
{ACAD_REACTORS
330
D
102
}
330
D
100
AcDbGroup
300

 70
     1
 71
     1
  0
GROUP
  5
10AD2
102
{ACAD_REACTORS
330
D
102
}
330
D
100
AcDbGroup
300

 70
     1
 71
     1
  0
GROUP
  5
14B89
102
{ACAD_REACTORS
330
D
102
}
330
D
100
AcDbGroup
300

 70
     1
 71
     1
  0
GROUP
  5
DB9F
102
{ACAD_REACTORS
330
D
102
}
330
D
100
AcDbGroup
300

 70
     1
 71
     1
  0
GROUP
  5
1BC45
102
{ACAD_REACTORS
330
D
102
}
330
D
100
AcDbGroup
300

 70
     1
 71
     1
  0
GROUP
  5
10E76
102
{ACAD_REACTORS
330
D
102
}
330
D
100
AcDbGroup
300

 70
     1
 71
     1
  0
GROUP
  5
124E3
102
{ACAD_REACTORS
330
D
102
}
330
D
100
AcDbGroup
300

 70
     1
 71
     1
  0
GROUP
  5
11960
102
{ACAD_REACTORS
330
D
102
}
330
D
100
AcDbGroup
300

 70
     1
 71
     1
  0
GROUP
  5
81E8
102
{ACAD_REACTORS
330
D
102
}
330
D
100
AcDbGroup
300

 70
     1
 71
     1
  0
GROUP
  5
1A10A
102
{ACAD_REACTORS
330
D
102
}
330
D
100
AcDbGroup
300

 70
     1
 71
     1
  0
GROUP
  5
1E9DA
102
{ACAD_REACTORS
330
D
102
}
330
D
100
AcDbGroup
300

 70
     1
 71
     1
340
1E9D8
340
1E9D7
340
1E9D6
340
1E9D5
340
1E9D4
  0
GROUP
  5
81B5
102
{ACAD_REACTORS
330
D
102
}
330
D
100
AcDbGroup
300

 70
     1
 71
     1
  0
GROUP
  5
81B9
102
{ACAD_REACTORS
330
D
102
}
330
D
100
AcDbGroup
300

 70
     1
 71
     1
  0
GROUP
  5
15536
102
{ACAD_REACTORS
330
D
102
}
330
D
100
AcDbGroup
300

 70
     1
 71
     1
  0
GROUP
  5
1195D
102
{ACAD_REACTORS
330
D
102
}
330
D
100
AcDbGroup
300

 70
     1
 71
     1
  0
GROUP
  5
DB47
102
{ACAD_REACTORS
330
D
102
}
330
D
100
AcDbGroup
300

 70
     1
 71
     1
  0
GROUP
  5
1195E
102
{ACAD_REACTORS
330
D
102
}
330
D
100
AcDbGroup
300

 70
     1
 71
     1
  0
GROUP
  5
F0DD
102
{ACAD_REACTORS
330
D
102
}
330
D
100
AcDbGroup
300

 70
     1
 71
     1
  0
GROUP
  5
1CCF6
102
{ACAD_REACTORS
330
D
102
}
330
D
100
AcDbGroup
300

 70
     1
 71
     1
  0
GROUP
  5
14DA1
102
{ACAD_REACTORS
330
D
102
}
330
D
100
AcDbGroup
300

 70
     1
 71
     1
  0
GROUP
  5
14D23
102
{ACAD_REACTORS
330
D
102
}
330
D
100
AcDbGroup
300

 70
     1
 71
     1
  0
GROUP
  5
1068E
102
{ACAD_REACTORS
330
D
102
}
330
D
100
AcDbGroup
300

 70
     1
 71
     1
  0
GROUP
  5
F0D6
102
{ACAD_REACTORS
330
D
102
}
330
D
100
AcDbGroup
300

 70
     1
 71
     1
  0
GROUP
  5
17552
102
{ACAD_REACTORS
330
D
102
}
330
D
100
AcDbGroup
300

 70
     1
 71
     1
  0
GROUP
  5
1EF00
102
{ACAD_REACTORS
330
D
102
}
330
D
100
AcDbGroup
300

 70
     1
 71
     1
  0
GROUP
  5
DBFE
102
{ACAD_REACTORS
330
D
102
}
330
D
100
AcDbGroup
300

 70
     1
 71
     1
  0
GROUP
  5
14864
102
{ACAD_REACTORS
330
D
102
}
330
D
100
AcDbGroup
300

 70
     1
 71
     1
  0
GROUP
  5
13E92
102
{ACAD_REACTORS
330
D
102
}
330
D
100
AcDbGroup
300

 70
     1
 71
     1
  0
GROUP
  5
14703
102
{ACAD_REACTORS
330
D
102
}
330
D
100
AcDbGroup
300

 70
     1
 71
     1
  0
GROUP
  5
F8B5
102
{ACAD_REACTORS
330
D
102
}
330
D
100
AcDbGroup
300

 70
     1
 71
     1
  0
GROUP
  5
14B84
102
{ACAD_REACTORS
330
D
102
}
330
D
100
AcDbGroup
300

 70
     1
 71
     1
  0
GROUP
  5
F130
102
{ACAD_REACTORS
330
D
102
}
330
D
100
AcDbGroup
300

 70
     1
 71
     1
  0
GROUP
  5
14B8B
102
{ACAD_REACTORS
330
D
102
}
330
D
100
AcDbGroup
300

 70
     1
 71
     1
  0
GROUP
  5
F11E
102
{ACAD_REACTORS
330
D
102
}
330
D
100
AcDbGroup
300

 70
     1
 71
     1
  0
GROUP
  5
124E1
102
{ACAD_REACTORS
330
D
102
}
330
D
100
AcDbGroup
300

 70
     1
 71
     1
  0
GROUP
  5
F502
102
{ACAD_REACTORS
330
D
102
}
330
D
100
AcDbGroup
300

 70
     1
 71
     1
  0
GROUP
  5
81C0
102
{ACAD_REACTORS
330
D
102
}
330
D
100
AcDbGroup
300

 70
     1
 71
     1
  0
GROUP
  5
1195B
102
{ACAD_REACTORS
330
D
102
}
330
D
100
AcDbGroup
300

 70
     1
 71
     1
  0
GROUP
  5
13C9D
102
{ACAD_REACTORS
330
D
102
}
330
D
100
AcDbGroup
300

 70
     1
 71
     1
  0
GROUP
  5
743D
102
{ACAD_REACTORS
330
D
102
}
330
D
100
AcDbGroup
300

 70
     1
 71
     1
  0
GROUP
  5
FC43
102
{ACAD_REACTORS
330
D
102
}
330
D
100
AcDbGroup
300

 70
     1
 71
     1
  0
GROUP
  5
F102
102
{ACAD_REACTORS
330
D
102
}
330
D
100
AcDbGroup
300

 70
     1
 71
     1
  0
GROUP
  5
F0D2
102
{ACAD_REACTORS
330
D
102
}
330
D
100
AcDbGroup
300

 70
     1
 71
     1
  0
GROUP
  5
124E4
102
{ACAD_REACTORS
330
D
102
}
330
D
100
AcDbGroup
300

 70
     1
 71
     1
  0
GROUP
  5
81BB
102
{ACAD_REACTORS
330
D
102
}
330
D
100
AcDbGroup
300

 70
     1
 71
     1
  0
GROUP
  5
1499
102
{ACAD_REACTORS
330
D
102
}
330
D
100
AcDbGroup
300

 70
     1
 71
     1
  0
GROUP
  5
1568E
102
{ACAD_REACTORS
330
D
102
}
330
D
100
AcDbGroup
300

 70
     1
 71
     1
  0
GROUP
  5
1A145
102
{ACAD_REACTORS
330
D
102
}
330
D
100
AcDbGroup
300

 70
     1
 71
     1
  0
GROUP
  5
F151
102
{ACAD_REACTORS
330
D
102
}
330
D
100
AcDbGroup
300

 70
     1
 71
     1
  0
GROUP
  5
14C18
102
{ACAD_REACTORS
330
D
102
}
330
D
100
AcDbGroup
300

 70
     1
 71
     1
  0
GROUP
  5
124E0
102
{ACAD_REACTORS
330
D
102
}
330
D
100
AcDbGroup
300

 70
     1
 71
     1
  0
GROUP
  5
1EBE1
102
{ACAD_REACTORS
330
D
102
}
330
D
100
AcDbGroup
300

 70
     1
 71
     1
  0
GROUP
  5
14B8A
102
{ACAD_REACTORS
330
D
102
}
330
D
100
AcDbGroup
300

 70
     1
 71
     1
  0
GROUP
  5
F148
102
{ACAD_REACTORS
330
D
102
}
330
D
100
AcDbGroup
300

 70
     1
 71
     1
  0
GROUP
  5
13E94
102
{ACAD_REACTORS
330
D
102
}
330
D
100
AcDbGroup
300

 70
     1
 71
     1
  0
GROUP
  5
F4FD
102
{ACAD_REACTORS
330
D
102
}
330
D
100
AcDbGroup
300

 70
     1
 71
     1
  0
GROUP
  5
F8B9
102
{ACAD_REACTORS
330
D
102
}
330
D
100
AcDbGroup
300

 70
     1
 71
     1
  0
GROUP
  5
81AC
102
{ACAD_REACTORS
330
D
102
}
330
D
100
AcDbGroup
300

 70
     1
 71
     1
  0
GROUP
  5
FC4A
102
{ACAD_REACTORS
330
D
102
}
330
D
100
AcDbGroup
300

 70
     1
 71
     1
  0
GROUP
  5
F0D8
102
{ACAD_REACTORS
330
D
102
}
330
D
100
AcDbGroup
300

 70
     1
 71
     1
  0
GROUP
  5
124DF
102
{ACAD_REACTORS
330
D
102
}
330
D
100
AcDbGroup
300

 70
     1
 71
     1
  0
GROUP
  5
1C44B
102
{ACAD_REACTORS
330
D
102
}
330
D
100
AcDbGroup
300

 70
     1
 71
     1
  0
GROUP
  5
81AF
102
{ACAD_REACTORS
330
D
102
}
330
D
100
AcDbGroup
300

 70
     1
 71
     1
  0
GROUP
  5
FC3C
102
{ACAD_REACTORS
330
D
102
}
330
D
100
AcDbGroup
300

 70
     1
 71
     1
  0
GROUP
  5
F0F9
102
{ACAD_REACTORS
330
D
102
}
330
D
100
AcDbGroup
300

 70
     1
 71
     1
  0
GROUP
  5
1EF01
102
{ACAD_REACTORS
330
D
102
}
330
D
100
AcDbGroup
300

 70
     1
 71
     1
  0
GROUP
  5
67CA
102
{ACAD_REACTORS
330
D
102
}
330
D
100
AcDbGroup
300

 70
     1
 71
     1
  0
GROUP
  5
67C9
102
{ACAD_REACTORS
330
D
102
}
330
D
100
AcDbGroup
300

 70
     1
 71
     1
  0
GROUP
  5
1C6E9
102
{ACAD_REACTORS
330
D
102
}
330
D
100
AcDbGroup
300

 70
     1
 71
     1
  0
GROUP
  5
E0AF
102
{ACAD_REACTORS
330
D
102
}
330
D
100
AcDbGroup
300

 70
     1
 71
     1
  0
GROUP
  5
14C1B
102
{ACAD_REACTORS
330
D
102
}
330
D
100
AcDbGroup
300

 70
     1
 71
     1
  0
GROUP
  5
1EF02
102
{ACAD_REACTORS
330
D
102
}
330
D
100
AcDbGroup
300

 70
     1
 71
     1
  0
GROUP
  5
1EF03
102
{ACAD_REACTORS
330
D
102
}
330
D
100
AcDbGroup
300

 70
     1
 71
     1
  0
GROUP
  5
11794
102
{ACAD_REACTORS
330
D
102
}
330
D
100
AcDbGroup
300

 70
     1
 71
     1
  0
GROUP
  5
14520
102
{ACAD_REACTORS
330
D
102
}
330
D
100
AcDbGroup
300

 70
     1
 71
     1
  0
GROUP
  5
81B7
102
{ACAD_REACTORS
330
D
102
}
330
D
100
AcDbGroup
300

 70
     1
 71
     1
  0
GROUP
  5
1EF04
102
{ACAD_REACTORS
330
D
102
}
330
D
100
AcDbGroup
300

 70
     1
 71
     1
  0
GROUP
  5
1E980
102
{ACAD_REACTORS
330
D
102
}
330
D
100
AcDbGroup
300

 70
     1
 71
     1
  0
GROUP
  5
1EF05
102
{ACAD_REACTORS
330
D
102
}
330
D
100
AcDbGroup
300

 70
     1
 71
     1
  0
GROUP
  5
183C2
102
{ACAD_REACTORS
330
D
102
}
330
D
100
AcDbGroup
300

 70
     1
 71
     1
  0
GROUP
  5
15FDF
102
{ACAD_REACTORS
330
D
102
}
330
D
100
AcDbGroup
300

 70
     1
 71
     1
  0
GROUP
  5
124E6
102
{ACAD_REACTORS
330
D
102
}
330
D
100
AcDbGroup
300

 70
     1
 71
     1
  0
GROUP
  5
16F01
102
{ACAD_REACTORS
330
D
102
}
330
D
100
AcDbGroup
300

 70
     1
 71
     1
  0
GROUP
  5
DFC2
102
{ACAD_REACTORS
330
D
102
}
330
D
100
AcDbGroup
300

 70
     1
 71
     1
  0
GROUP
  5
193C4
102
{ACAD_REACTORS
330
D
102
}
330
D
100
AcDbGroup
300

 70
     1
 71
     1
  0
GROUP
  5
FC3B
102
{ACAD_REACTORS
330
D
102
}
330
D
100
AcDbGroup
300

 70
     1
 71
     1
  0
GROUP
  5
1EF06
102
{ACAD_REACTORS
330
D
102
}
330
D
100
AcDbGroup
300

 70
     1
 71
     1
  0
GROUP
  5
10E82
102
{ACAD_REACTORS
330
D
102
}
330
D
100
AcDbGroup
300

 70
     1
 71
     1
  0
GROUP
  5
1C6AC
102
{ACAD_REACTORS
330
D
102
}
330
D
100
AcDbGroup
300

 70
     1
 71
     1
  0
GROUP
  5
1EF07
102
{ACAD_REACTORS
330
D
102
}
330
D
100
AcDbGroup
300

 70
     1
 71
     1
  0
GROUP
  5
F8BA
102
{ACAD_REACTORS
330
D
102
}
330
D
100
AcDbGroup
300

 70
     1
 71
     1
  0
GROUP
  5
1EF16
102
{ACAD_REACTORS
330
D
102
}
330
D
100
AcDbGroup
300

 70
     1
 71
     1
  0
GROUP
  5
1EF17
102
{ACAD_REACTORS
330
D
102
}
330
D
100
AcDbGroup
300

 70
     1
 71
     1
  0
GROUP
  5
F8AF
102
{ACAD_REACTORS
330
D
102
}
330
D
100
AcDbGroup
300

 70
     1
 71
     1
  0
GROUP
  5
1EBF5
102
{ACAD_REACTORS
330
D
102
}
330
D
100
AcDbGroup
300

 70
     1
 71
     1
  0
GROUP
  5
1EF18
102
{ACAD_REACTORS
330
D
102
}
330
D
100
AcDbGroup
300

 70
     1
 71
     1
  0
GROUP
  5
FC3E
102
{ACAD_REACTORS
330
D
102
}
330
D
100
AcDbGroup
300

 70
     1
 71
     1
  0
GROUP
  5
E0B5
102
{ACAD_REACTORS
330
D
102
}
330
D
100
AcDbGroup
300

 70
     1
 71
     1
  0
GROUP
  5
1EF19
102
{ACAD_REACTORS
330
D
102
}
330
D
100
AcDbGroup
300

 70
     1
 71
     1
  0
GROUP
  5
1BE8E
102
{ACAD_REACTORS
330
D
102
}
330
D
100
AcDbGroup
300

 70
     1
 71
     1
  0
GROUP
  5
F0D5
102
{ACAD_REACTORS
330
D
102
}
330
D
100
AcDbGroup
300

 70
     1
 71
     1
  0
GROUP
  5
1E7BB
102
{ACAD_REACTORS
330
D
102
}
330
D
100
AcDbGroup
300

 70
     1
 71
     1
  0
GROUP
  5
F15A
102
{ACAD_REACTORS
330
D
102
}
330
D
100
AcDbGroup
300

 70
     1
 71
     1
  0
GROUP
  5
1496
102
{ACAD_REACTORS
330
D
102
}
330
D
100
AcDbGroup
300

 70
     1
 71
     1
  0
GROUP
  5
DC1D
102
{ACAD_REACTORS
330
D
102
}
330
D
100
AcDbGroup
300

 70
     1
 71
     1
  0
GROUP
  5
F8BB
102
{ACAD_REACTORS
330
D
102
}
330
D
100
AcDbGroup
300

 70
     1
 71
     1
  0
GROUP
  5
13C9F
102
{ACAD_REACTORS
330
D
102
}
330
D
100
AcDbGroup
300

 70
     1
 71
     1
  0
GROUP
  5
F8BE
102
{ACAD_REACTORS
330
D
102
}
330
D
100
AcDbGroup
300

 70
     1
 71
     1
  0
GROUP
  5
F0DB
102
{ACAD_REACTORS
330
D
102
}
330
D
100
AcDbGroup
300

 70
     1
 71
     1
  0
GROUP
  5
14B8C
102
{ACAD_REACTORS
330
D
102
}
330
D
100
AcDbGroup
300

 70
     1
 71
     1
  0
GROUP
  5
11E9B
102
{ACAD_REACTORS
330
D
102
}
330
D
100
AcDbGroup
300

 70
     1
 71
     1
  0
GROUP
  5
FC4B
102
{ACAD_REACTORS
330
D
102
}
330
D
100
AcDbGroup
300

 70
     1
 71
     1
  0
GROUP
  5
14865
102
{ACAD_REACTORS
330
D
102
}
330
D
100
AcDbGroup
300

 70
     1
 71
     1
  0
GROUP
  5
1EBDE
102
{ACAD_REACTORS
330
D
102
}
330
D
100
AcDbGroup
300

 70
     1
 71
     1
  0
GROUP
  5
F8BD
102
{ACAD_REACTORS
330
D
102
}
330
D
100
AcDbGroup
300

 70
     1
 71
     1
  0
GROUP
  5
743F
102
{ACAD_REACTORS
330
D
102
}
330
D
100
AcDbGroup
300

 70
     1
 71
     1
  0
GROUP
  5
81B6
102
{ACAD_REACTORS
330
D
102
}
330
D
100
AcDbGroup
300

 70
     1
 71
     1
  0
GROUP
  5
FC49
102
{ACAD_REACTORS
330
D
102
}
330
D
100
AcDbGroup
300

 70
     1
 71
     1
  0
GROUP
  5
120B1
102
{ACAD_REACTORS
330
D
102
}
330
D
100
AcDbGroup
300

 70
     1
 71
     1
  0
GROUP
  5
F13A
102
{ACAD_REACTORS
330
D
102
}
330
D
100
AcDbGroup
300

 70
     1
 71
     1
  0
GROUP
  5
109FB
102
{ACAD_REACTORS
330
D
102
}
330
D
100
AcDbGroup
300

 70
     1
 71
     1
  0
GROUP
  5
1EE53
102
{ACAD_REACTORS
330
D
102
}
330
D
100
AcDbGroup
300

 70
     1
 71
     1
  0
GROUP
  5
1C411
102
{ACAD_REACTORS
330
D
102
}
330
D
100
AcDbGroup
300

 70
     1
 71
     1
  0
GROUP
  5
FC3D
102
{ACAD_REACTORS
330
D
102
}
330
D
100
AcDbGroup
300

 70
     1
 71
     1
  0
GROUP
  5
F8B0
102
{ACAD_REACTORS
330
D
102
}
330
D
100
AcDbGroup
300

 70
     1
 71
     1
  0
GROUP
  5
120B0
102
{ACAD_REACTORS
330
D
102
}
330
D
100
AcDbGroup
300

 70
     1
 71
     1
  0
GROUP
  5
F6A
102
{ACAD_REACTORS
330
D
102
}
330
D
100
AcDbGroup
300

 70
     1
 71
     1
  0
GROUP
  5
FC42
102
{ACAD_REACTORS
330
D
102
}
330
D
100
AcDbGroup
300

 70
     1
 71
     1
  0
GROUP
  5
81B8
102
{ACAD_REACTORS
330
D
102
}
330
D
100
AcDbGroup
300

 70
     1
 71
     1
  0
GROUP
  5
17881
102
{ACAD_REACTORS
330
D
102
}
330
D
100
AcDbGroup
300

 70
     1
 71
     1
  0
GROUP
  5
FC41
102
{ACAD_REACTORS
330
D
102
}
330
D
100
AcDbGroup
300

 70
     1
 71
     1
  0
GROUP
  5
11959
102
{ACAD_REACTORS
330
D
102
}
330
D
100
AcDbGroup
300

 70
     1
 71
     1
  0
GROUP
  5
15690
102
{ACAD_REACTORS
330
D
102
}
330
D
100
AcDbGroup
300

 70
     1
 71
     1
  0
GROUP
  5
81AB
102
{ACAD_REACTORS
330
D
102
}
330
D
100
AcDbGroup
300

 70
     1
 71
     1
  0
GROUP
  5
14B86
102
{ACAD_REACTORS
330
D
102
}
330
D
100
AcDbGroup
300

 70
     1
 71
     1
  0
GROUP
  5
15537
102
{ACAD_REACTORS
330
D
102
}
330
D
100
AcDbGroup
300

 70
     1
 71
     1
  0
GROUP
  5
1195A
102
{ACAD_REACTORS
330
D
102
}
330
D
100
AcDbGroup
300

 70
     1
 71
     1
  0
GROUP
  5
FC40
102
{ACAD_REACTORS
330
D
102
}
330
D
100
AcDbGroup
300

 70
     1
 71
     1
  0
GROUP
  5
124DE
102
{ACAD_REACTORS
330
D
102
}
330
D
100
AcDbGroup
300

 70
     1
 71
     1
  0
GROUP
  5
F4F8
102
{ACAD_REACTORS
330
D
102
}
330
D
100
AcDbGroup
300

 70
     1
 71
     1
  0
GROUP
  5
81E7
102
{ACAD_REACTORS
330
D
102
}
330
D
100
AcDbGroup
300

 70
     1
 71
     1
  0
GROUP
  5
14C19
102
{ACAD_REACTORS
330
D
102
}
330
D
100
AcDbGroup
300

 70
     1
 71
     1
  0
GROUP
  5
81B1
102
{ACAD_REACTORS
330
D
102
}
330
D
100
AcDbGroup
300

 70
     1
 71
     1
  0
GROUP
  5
17882
102
{ACAD_REACTORS
330
D
102
}
330
D
100
AcDbGroup
300

 70
     1
 71
     1
  0
GROUP
  5
16EFF
102
{ACAD_REACTORS
330
D
102
}
330
D
100
AcDbGroup
300

 70
     1
 71
     1
  0
GROUP
  5
1EF1A
102
{ACAD_REACTORS
330
D
102
}
330
D
100
AcDbGroup
300

 70
     1
 71
     1
  0
GROUP
  5
1177F
102
{ACAD_REACTORS
330
D
102
}
330
D
100
AcDbGroup
300

 70
     1
 71
     1
  0
GROUP
  5
F8AD
102
{ACAD_REACTORS
330
D
102
}
330
D
100
AcDbGroup
300

 70
     1
 71
     1
  0
GROUP
  5
124E5
102
{ACAD_REACTORS
330
D
102
}
330
D
100
AcDbGroup
300

 70
     1
 71
     1
  0
GROUP
  5
14B82
102
{ACAD_REACTORS
330
D
102
}
330
D
100
AcDbGroup
300

 70
     1
 71
     1
  0
GROUP
  5
1EBE2
102
{ACAD_REACTORS
330
D
102
}
330
D
100
AcDbGroup
300

 70
     1
 71
     1
  0
GROUP
  5
F0D0
102
{ACAD_REACTORS
330
D
102
}
330
D
100
AcDbGroup
300

 70
     1
 71
     1
  0
GROUP
  5
16F00
102
{ACAD_REACTORS
330
D
102
}
330
D
100
AcDbGroup
300

 70
     1
 71
     1
  0
GROUP
  5
F0D1
102
{ACAD_REACTORS
330
D
102
}
330
D
100
AcDbGroup
300

 70
     1
 71
     1
  0
GROUP
  5
81C3
102
{ACAD_REACTORS
330
D
102
}
330
D
100
AcDbGroup
300

 70
     1
 71
     1
  0
GROUP
  5
F506
102
{ACAD_REACTORS
330
D
102
}
330
D
100
AcDbGroup
300

 70
     1
 71
     1
  0
GROUP
  5
7440
102
{ACAD_REACTORS
330
D
102
}
330
D
100
AcDbGroup
300

 70
     1
 71
     1
  0
GROUP
  5
1EE6C
102
{ACAD_REACTORS
330
D
102
}
330
D
100
AcDbGroup
300

 70
     1
 71
     1
  0
GROUP
  5
F4F9
102
{ACAD_REACTORS
330
D
102
}
330
D
100
AcDbGroup
300

 70
     1
 71
     1
  0
GROUP
  5
10AA0
102
{ACAD_REACTORS
330
D
102
}
330
D
100
AcDbGroup
300

 70
     1
 71
     1
  0
GROUP
  5
11E77
102
{ACAD_REACTORS
330
D
102
}
330
D
100
AcDbGroup
300

 70
     1
 71
     1
  0
GROUP
  5
F4FC
102
{ACAD_REACTORS
330
D
102
}
330
D
100
AcDbGroup
300

 70
     1
 71
     1
  0
GROUP
  5
F4F5
102
{ACAD_REACTORS
330
D
102
}
330
D
100
AcDbGroup
300

 70
     1
 71
     1
  0
GROUP
  5
81C2
102
{ACAD_REACTORS
330
D
102
}
330
D
100
AcDbGroup
300

 70
     1
 71
     1
  0
GROUP
  5
120AF
102
{ACAD_REACTORS
330
D
102
}
330
D
100
AcDbGroup
300

 70
     1
 71
     1
  0
GROUP
  5
1451D
102
{ACAD_REACTORS
330
D
102
}
330
D
100
AcDbGroup
300

 70
     1
 71
     1
  0
GROUP
  5
F8AC
102
{ACAD_REACTORS
330
D
102
}
330
D
100
AcDbGroup
300

 70
     1
 71
     1
  0
GROUP
  5
1486B
102
{ACAD_REACTORS
330
D
102
}
330
D
100
AcDbGroup
300

 70
     1
 71
     1
  0
GROUP
  5
1E9D3
102
{ACAD_REACTORS
330
D
102
}
330
D
100
AcDbGroup
300

 70
     1
 71
     1
340
1E9D1
340
1E9D0
340
1E9CF
340
1E9CE
340
1E9CD
  0
GROUP
  5
F4FB
102
{ACAD_REACTORS
330
D
102
}
330
D
100
AcDbGroup
300

 70
     1
 71
     1
  0
GROUP
  5
F163
102
{ACAD_REACTORS
330
D
102
}
330
D
100
AcDbGroup
300

 70
     1
 71
     1
  0
GROUP
  5
81B3
102
{ACAD_REACTORS
330
D
102
}
330
D
100
AcDbGroup
300

 70
     1
 71
     1
  0
GROUP
  5
BB90
102
{ACAD_REACTORS
330
D
102
}
330
D
100
AcDbGroup
300

 70
     1
 71
     1
  0
GROUP
  5
F4F6
102
{ACAD_REACTORS
330
D
102
}
330
D
100
AcDbGroup
300

 70
     1
 71
     1
  0
GROUP
  5
F8AE
102
{ACAD_REACTORS
330
D
102
}
330
D
100
AcDbGroup
300

 70
     1
 71
     1
  0
GROUP
  5
F8B4
102
{ACAD_REACTORS
330
D
102
}
330
D
100
AcDbGroup
300

 70
     1
 71
     1
  0
GROUP
  5
13CA0
102
{ACAD_REACTORS
330
D
102
}
330
D
100
AcDbGroup
300

 70
     1
 71
     1
  0
GROUP
  5
124E2
102
{ACAD_REACTORS
330
D
102
}
330
D
100
AcDbGroup
300

 70
     1
 71
     1
  0
GROUP
  5
FC45
102
{ACAD_REACTORS
330
D
102
}
330
D
100
AcDbGroup
300

 70
     1
 71
     1
  0
GROUP
  5
DB52
102
{ACAD_REACTORS
330
D
102
}
330
D
100
AcDbGroup
300

 70
     1
 71
     1
  0
GROUP
  5
21889
102
{ACAD_REACTORS
330
D
102
}
330
D
100
AcDbGroup
300

 70
     1
 71
     1
340
217C8
340
217C7
340
217C6
340
217C5
340
217C4
  0
GROUP
  5
FC46
102
{ACAD_REACTORS
330
D
102
}
330
D
100
AcDbGroup
300

 70
     1
 71
     1
  0
GROUP
  5
6E39
102
{ACAD_REACTORS
330
D
102
}
330
D
100
AcDbGroup
300

 70
     1
 71
     1
  0
GROUP
  5
DC31
102
{ACAD_REACTORS
330
D
102
}
330
D
100
AcDbGroup
300

 70
     1
 71
     1
  0
GROUP
  5
F0DC
102
{ACAD_REACTORS
330
D
102
}
330
D
100
AcDbGroup
300

 70
     1
 71
     1
  0
GROUP
  5
FC3A
102
{ACAD_REACTORS
330
D
102
}
330
D
100
AcDbGroup
300

 70
     1
 71
     1
  0
GROUP
  5
6FE0
102
{ACAD_REACTORS
330
D
102
}
330
D
100
AcDbGroup
300

 70
     1
 71
     1
  0
GROUP
  5
1195F
102
{ACAD_REACTORS
330
D
102
}
330
D
100
AcDbGroup
300

 70
     1
 71
     1
  0
GROUP
  5
DF09
102
{ACAD_REACTORS
330
D
102
}
330
D
100
AcDbGroup
300

 70
     1
 71
     1
  0
GROUP
  5
1178D
102
{ACAD_REACTORS
330
D
102
}
330
D
100
AcDbGroup
300

 70
     1
 71
     1
  0
GROUP
  5
67CB
102
{ACAD_REACTORS
330
D
102
}
330
D
100
AcDbGroup
300

 70
     1
 71
     1
  0
GROUP
  5
F0CE
102
{ACAD_REACTORS
330
D
102
}
330
D
100
AcDbGroup
300

 70
     1
 71
     1
  0
GROUP
  5
81B4
102
{ACAD_REACTORS
330
D
102
}
330
D
100
AcDbGroup
300

 70
     1
 71
     1
  0
GROUP
  5
11319
102
{ACAD_REACTORS
330
D
102
}
330
D
100
AcDbGroup
300

 70
     1
 71
     1
  0
GROUP
  5
DC05
102
{ACAD_REACTORS
330
D
102
}
330
D
100
AcDbGroup
300

 70
     1
 71
     1
  0
GROUP
  5
F501
102
{ACAD_REACTORS
330
D
102
}
330
D
100
AcDbGroup
300

 70
     1
 71
     1
  0
GROUP
  5
F0D3
102
{ACAD_REACTORS
330
D
102
}
330
D
100
AcDbGroup
300

 70
     1
 71
     1
  0
GROUP
  5
F8B6
102
{ACAD_REACTORS
330
D
102
}
330
D
100
AcDbGroup
300

 70
     1
 71
     1
  0
GROUP
  5
FC44
102
{ACAD_REACTORS
330
D
102
}
330
D
100
AcDbGroup
300

 70
     1
 71
     1
  0
GROUP
  5
DFC3
102
{ACAD_REACTORS
330
D
102
}
330
D
100
AcDbGroup
300

 70
     1
 71
     1
  0
GROUP
  5
81B2
102
{ACAD_REACTORS
330
D
102
}
330
D
100
AcDbGroup
300

 70
     1
 71
     1
  0
GROUP
  5
1498
102
{ACAD_REACTORS
330
D
102
}
330
D
100
AcDbGroup
300

 70
     1
 71
     1
  0
GROUP
  5
F69
102
{ACAD_REACTORS
330
D
102
}
330
D
100
AcDbGroup
300

 70
     1
 71
     1
  0
GROUP
  5
15538
102
{ACAD_REACTORS
330
D
102
}
330
D
100
AcDbGroup
300

 70
     1
 71
     1
  0
GROUP
  5
1E9F1
102
{ACAD_REACTORS
330
D
102
}
330
D
100
AcDbGroup
300

 70
     1
 71
     1
  0
GROUP
  5
14702
102
{ACAD_REACTORS
330
D
102
}
330
D
100
AcDbGroup
300

 70
     1
 71
     1
  0
GROUP
  5
16EFE
102
{ACAD_REACTORS
330
D
102
}
330
D
100
AcDbGroup
300

 70
     1
 71
     1
  0
GROUP
  5
11786
102
{ACAD_REACTORS
330
D
102
}
330
D
100
AcDbGroup
300

 70
     1
 71
     1
  0
GROUP
  5
14C1C
102
{ACAD_REACTORS
330
D
102
}
330
D
100
AcDbGroup
300

 70
     1
 71
     1
  0
GROUP
  5
14B88
102
{ACAD_REACTORS
330
D
102
}
330
D
100
AcDbGroup
300

 70
     1
 71
     1
  0
GROUP
  5
14C1D
102
{ACAD_REACTORS
330
D
102
}
330
D
100
AcDbGroup
300

 70
     1
 71
     1
  0
GROUP
  5
DC1C
102
{ACAD_REACTORS
330
D
102
}
330
D
100
AcDbGroup
300

 70
     1
 71
     1
  0
GROUP
  5
14B83
102
{ACAD_REACTORS
330
D
102
}
330
D
100
AcDbGroup
300

 70
     1
 71
     1
  0
GROUP
  5
81AD
102
{ACAD_REACTORS
330
D
102
}
330
D
100
AcDbGroup
300

 70
     1
 71
     1
  0
GROUP
  5
13E96
102
{ACAD_REACTORS
330
D
102
}
330
D
100
AcDbGroup
300

 70
     1
 71
     1
  0
GROUP
  5
16F02
102
{ACAD_REACTORS
330
D
102
}
330
D
100
AcDbGroup
300

 70
     1
 71
     1
  0
GROUP
  5
DF0A
102
{ACAD_REACTORS
330
D
102
}
330
D
100
AcDbGroup
300

 70
     1
 71
     1
  0
GROUP
  5
F8B8
102
{ACAD_REACTORS
330
D
102
}
330
D
100
AcDbGroup
300

 70
     1
 71
     1
  0
GROUP
  5
F4FA
102
{ACAD_REACTORS
330
D
102
}
330
D
100
AcDbGroup
300

 70
     1
 71
     1
  0
GROUP
  5
F0CF
102
{ACAD_REACTORS
330
D
102
}
330
D
100
AcDbGroup
300

 70
     1
 71
     1
  0
GROUP
  5
1195C
102
{ACAD_REACTORS
330
D
102
}
330
D
100
AcDbGroup
300

 70
     1
 71
     1
  0
LAYOUT
  5
2D3
102
{ACAD_XDICTIONARY
360
1E441
102
}
102
{ACAD_REACTORS
330
2D1
102
}
330
2D1
100
AcDbPlotSettings
  1

  2
EPSON LP-9600S
  4
A4
  6

 40
5.873749732971191
 41
5.873747825622558
 42
5.873748779296875
 43
5.873748779296875
 44
209.9733276367187
 45
297.0106506347656
 46
0.0
 47
0.0
 48
0.0
 49
0.0
140
0.0
141
0.0
142
1.0
143
14.39645349335178
 70
 11952
 72
     1
 73
     1
 74
     0
  7
A3for2004.ctb
 75
     0
147
0.0694615517955027
148
1927.839108383867
149
3094.661789558366
100
AcDbLayout
  1
Model
 70
     1
 71
     0
 10
0.0
 20
0.0
 11
12.0
 21
9.0
 12
0.0
 22
0.0
 32
0.0
 14
0.0
 24
0.0
 34
0.0
 15
0.0
 25
0.0
 35
0.0
146
0.0
 13
0.0
 23
0.0
 33
0.0
 16
1.0
 26
0.0
 36
0.0
 17
0.0
 27
1.0
 37
0.0
 76
     0
330
18
331
19DC2
1001
ACAD_PSEXT
1000
EPSON LP-9600S
1000
EPSON LP-9600S
1000
172.16.5.152:raw
1000

1070
     0
  0
LAYOUT
  5
2D4
102
{ACAD_XDICTIONARY
360
1E041
102
}
102
{ACAD_REACTORS
330
2D1
102
}
330
2D1
100
AcDbPlotSettings
  1

  2
EPSON LP-9600S
  4
A3
  6

 40
5.873749732971191
 41
5.873747825622558
 42
5.873748779296875
 43
5.873748779296875
 44
297.0106506347656
 45
419.9466552734374
 46
0.0
 47
0.0
 48
0.0
 49
0.0
140
0.0
141
0.0
142
1.0
143
0.9876218188428531
 70
   688
 72
     1
 73
     1
 74
     1
  7
A3for2004.ctb
 75
     0
147
1.012533320873418
148
214.291403832631
149
130.1739883871544
100
AcDbLayout
  1
レイアウト1
 70
     1
 71
     1
 10
0.0
 20
0.0
 11
420.0
 21
297.0
 12
0.0
 22
0.0
 32
0.0
 14
1.000000000000000E+20
 24
1.000000000000000E+20
 34
1.000000000000000E+20
 15
-1.000000000000000E+20
 25
-1.000000000000000E+20
 35
-1.000000000000000E+20
146
0.0
 13
0.0
 23
0.0
 33
0.0
 16
1.0
 26
0.0
 36
0.0
 17
0.0
 27
1.0
 37
0.0
 76
     0
330
15
331
57
1001
ACAD_PSEXT
1000
EPSON LP-9600S
1000
EPSON LP-9600S
1000
172.16.5.152:raw
1000

1070
     0
  0
MATERIAL
  5
19DD5
102
{ACAD_XDICTIONARY
360
19DD6
102
}
102
{ACAD_REACTORS
330
2CF
102
}
330
2CF
100
AcDbMaterial
  1
ByBlock
 72
     0
 43
0.0208333333333333
 43
0.0
 43
0.0
 43
0.0
 43
0.0
 43
0.0208333333333333
 43
0.0
 43
0.0
 43
0.0
 43
0.0
 43
1.0
 43
0.0
 43
0.0
 43
0.0
 43
0.0
 43
1.0
 77
     0
 47
0.0208333333333333
 47
0.0
 47
0.0
 47
0.0
 47
0.0
 47
0.0208333333333333
 47
0.0
 47
0.0
 47
0.0
 47
0.0
 47
1.0
 47
0.0
 47
0.0
 47
0.0
 47
0.0
 47
1.0
171
     0
 49
0.0208333333333333
 49
0.0
 49
0.0
 49
0.0
 49
0.0
 49
0.0208333333333333
 49
0.0
 49
0.0
 49
0.0
 49
0.0
 49
1.0
 49
0.0
 49
0.0
 49
0.0
 49
0.0
 49
1.0
175
     0
142
0.0208333333333333
142
0.0
142
0.0
142
0.0
142
0.0
142
0.0208333333333333
142
0.0
142
0.0
142
0.0
142
0.0
142
1.0
142
0.0
142
0.0
142
0.0
142
0.0
142
1.0
179
     0
144
0.0208333333333333
144
0.0
144
0.0
144
0.0
144
0.0
144
0.0208333333333333
144
0.0
144
0.0
144
0.0
144
0.0
144
1.0
144
0.0
144
0.0
144
0.0
144
0.0
144
1.0
147
0.0208333333333333
147
0.0
147
0.0
147
0.0
147
0.0
147
0.0208333333333333
147
0.0
147
0.0
147
0.0
147
0.0
147
1.0
147
0.0
147
0.0
147
0.0
147
0.0
147
1.0
  0
MATERIAL
  5
19DCD
102
{ACAD_XDICTIONARY
360
19DCE
102
}
102
{ACAD_REACTORS
330
2CF
102
}
330
2CF
100
AcDbMaterial
  1
ByLayer
 72
     0
 43
0.0208333333333333
 43
0.0
 43
0.0
 43
0.0
 43
0.0
 43
0.0208333333333333
 43
0.0
 43
0.0
 43
0.0
 43
0.0
 43
1.0
 43
0.0
 43
0.0
 43
0.0
 43
0.0
 43
1.0
 77
     0
 47
0.0208333333333333
 47
0.0
 47
0.0
 47
0.0
 47
0.0
 47
0.0208333333333333
 47
0.0
 47
0.0
 47
0.0
 47
0.0
 47
1.0
 47
0.0
 47
0.0
 47
0.0
 47
0.0
 47
1.0
171
     0
 49
0.0208333333333333
 49
0.0
 49
0.0
 49
0.0
 49
0.0
 49
0.0208333333333333
 49
0.0
 49
0.0
 49
0.0
 49
0.0
 49
1.0
 49
0.0
 49
0.0
 49
0.0
 49
0.0
 49
1.0
175
     0
142
0.0208333333333333
142
0.0
142
0.0
142
0.0
142
0.0
142
0.0208333333333333
142
0.0
142
0.0
142
0.0
142
0.0
142
1.0
142
0.0
142
0.0
142
0.0
142
0.0
142
1.0
179
     0
144
0.0208333333333333
144
0.0
144
0.0
144
0.0
144
0.0
144
0.0208333333333333
144
0.0
144
0.0
144
0.0
144
0.0
144
1.0
144
0.0
144
0.0
144
0.0
144
0.0
144
1.0
147
0.0208333333333333
147
0.0
147
0.0
147
0.0
147
0.0
147
0.0208333333333333
147
0.0
147
0.0
147
0.0
147
0.0
147
1.0
147
0.0
147
0.0
147
0.0
147
0.0
147
1.0
  0
MATERIAL
  5
19DDD
102
{ACAD_XDICTIONARY
360
19DDE
102
}
102
{ACAD_REACTORS
330
2CF
102
}
330
2CF
100
AcDbMaterial
  1
Global
 72
     0
 43
0.0208333333333333
 43
0.0
 43
0.0
 43
0.0
 43
0.0
 43
0.0208333333333333
 43
0.0
 43
0.0
 43
0.0
 43
0.0
 43
1.0
 43
0.0
 43
0.0
 43
0.0
 43
0.0
 43
1.0
 77
     0
 47
0.0208333333333333
 47
0.0
 47
0.0
 47
0.0
 47
0.0
 47
0.0208333333333333
 47
0.0
 47
0.0
 47
0.0
 47
0.0
 47
1.0
 47
0.0
 47
0.0
 47
0.0
 47
0.0
 47
1.0
171
     0
 49
0.0208333333333333
 49
0.0
 49
0.0
 49
0.0
 49
0.0
 49
0.0208333333333333
 49
0.0
 49
0.0
 49
0.0
 49
0.0
 49
1.0
 49
0.0
 49
0.0
 49
0.0
 49
0.0
 49
1.0
175
     0
142
0.0208333333333333
142
0.0
142
0.0
142
0.0
142
0.0
142
0.0208333333333333
142
0.0
142
0.0
142
0.0
142
0.0
142
1.0
142
0.0
142
0.0
142
0.0
142
0.0
142
1.0
179
     0
144
0.0208333333333333
144
0.0
144
0.0
144
0.0
144
0.0
144
0.0208333333333333
144
0.0
144
0.0
144
0.0
144
0.0
144
1.0
144
0.0
144
0.0
144
0.0
144
0.0
144
1.0
147
0.0208333333333333
147
0.0
147
0.0
147
0.0
147
0.0
147
0.0208333333333333
147
0.0
147
0.0
147
0.0
147
0.0
147
1.0
147
0.0
147
0.0
147
0.0
147
0.0
147
1.0
  0
MLEADERSTYLE
  5
19E19
102
{ACAD_REACTORS
330
19E18
102
}
330
19E18
100
AcDbMLeaderStyle
170
     2
171
     1
172
     0
 90
        2
 40
0.0
 41
0.0
173
     1
 91
-1056964608
340
12
 92
       -2
290
     1
 42
2.0
291
     1
 43
0.36
  3
Standard
 44
4.0
300

342
F
174
     1
178
     6
175
     1
176
     0
 93
-1056964608
 45
4.0
292
     0
297
     0
 46
4.0
 94
-1056964608
 47
1.0
 49
1.0
140
1.0
293
     1
141
0.0
294
     1
177
     0
142
1.0
295
     0
296
     0
143
0.125
1001
ACAD_MLEADERVER
1070
     2
  0
MLINESTYLE
  5
1C
102
{ACAD_REACTORS
330
1B
102
}
330
1B
100
AcDbMlineStyle
  2
STANDARD
 70
     0
  3

 62
   256
 51
90.0
 52
90.0
 71
     2
 49
0.5
 62
   256
  6
BYLAYER
 49
-0.5
 62
   256
  6
BYLAYER
  0
ACDBPLACEHOLDER
  5
2CE
102
{ACAD_REACTORS
330
2CD
102
}
330
2CD
  0
SCALE
  5
19DF7
102
{ACAD_REACTORS
330
19DF6
102
}
330
19DF6
100
AcDbScale
 70
     0
300
1:1
140
1.0
141
1.0
290
     1
  0
SCALE
  5
19DF8
102
{ACAD_REACTORS
330
19DF6
102
}
330
19DF6
100
AcDbScale
 70
     0
300
1:2
140
1.0
141
2.0
290
     0
  0
SCALE
  5
19DF9
102
{ACAD_REACTORS
330
19DF6
102
}
330
19DF6
100
AcDbScale
 70
     0
300
1:4
140
1.0
141
4.0
290
     0
  0
SCALE
  5
19DFA
102
{ACAD_REACTORS
330
19DF6
102
}
330
19DF6
100
AcDbScale
 70
     0
300
1:5
140
1.0
141
5.0
290
     0
  0
SCALE
  5
19DFB
102
{ACAD_REACTORS
330
19DF6
102
}
330
19DF6
100
AcDbScale
 70
     0
300
1:8
140
1.0
141
8.0
290
     0
  0
SCALE
  5
19DFC
102
{ACAD_REACTORS
330
19DF6
102
}
330
19DF6
100
AcDbScale
 70
     0
300
1:10
140
1.0
141
10.0
290
     0
  0
SCALE
  5
19DFD
102
{ACAD_REACTORS
330
19DF6
102
}
330
19DF6
100
AcDbScale
 70
     0
300
1:16
140
1.0
141
16.0
290
     0
  0
SCALE
  5
19DFE
102
{ACAD_REACTORS
330
19DF6
102
}
330
19DF6
100
AcDbScale
 70
     0
300
1:20
140
1.0
141
20.0
290
     0
  0
SCALE
  5
19DFF
102
{ACAD_REACTORS
330
19DF6
102
}
330
19DF6
100
AcDbScale
 70
     0
300
1:30
140
1.0
141
30.0
290
     0
  0
SCALE
  5
19E00
102
{ACAD_REACTORS
330
19DF6
102
}
330
19DF6
100
AcDbScale
 70
     0
300
1:40
140
1.0
141
40.0
290
     0
  0
SCALE
  5
19E01
102
{ACAD_REACTORS
330
19DF6
102
}
330
19DF6
100
AcDbScale
 70
     0
300
1:50
140
1.0
141
50.0
290
     0
  0
SCALE
  5
19E02
102
{ACAD_REACTORS
330
19DF6
102
}
330
19DF6
100
AcDbScale
 70
     0
300
1:100
140
1.0
141
100.0
290
     0
  0
SCALE
  5
19E03
102
{ACAD_REACTORS
330
19DF6
102
}
330
19DF6
100
AcDbScale
 70
     0
300
2:1
140
2.0
141
1.0
290
     0
  0
SCALE
  5
19E04
102
{ACAD_REACTORS
330
19DF6
102
}
330
19DF6
100
AcDbScale
 70
     0
300
4:1
140
4.0
141
1.0
290
     0
  0
SCALE
  5
19E05
102
{ACAD_REACTORS
330
19DF6
102
}
330
19DF6
100
AcDbScale
 70
     0
300
8:1
140
8.0
141
1.0
290
     0
  0
SCALE
  5
19E06
102
{ACAD_REACTORS
330
19DF6
102
}
330
19DF6
100
AcDbScale
 70
     0
300
10:1
140
10.0
141
1.0
290
     0
  0
SCALE
  5
19E07
102
{ACAD_REACTORS
330
19DF6
102
}
330
19DF6
100
AcDbScale
 70
     0
300
100:1
140
100.0
141
1.0
290
     0
  0
SCALE
  5
19E08
102
{ACAD_REACTORS
330
19DF6
102
}
330
19DF6
100
AcDbScale
 70
     0
300
1/128" = 1'-0"
140
0.0078125
141
12.0
290
     0
  0
SCALE
  5
19E09
102
{ACAD_REACTORS
330
19DF6
102
}
330
19DF6
100
AcDbScale
 70
     0
300
1/64" = 1'-0"
140
0.015625
141
12.0
290
     0
  0
SCALE
  5
19E0A
102
{ACAD_REACTORS
330
19DF6
102
}
330
19DF6
100
AcDbScale
 70
     0
300
1/32" = 1'-0"
140
0.03125
141
12.0
290
     0
  0
SCALE
  5
19E0B
102
{ACAD_REACTORS
330
19DF6
102
}
330
19DF6
100
AcDbScale
 70
     0
300
1/16" = 1'-0"
140
0.0625
141
12.0
290
     0
  0
SCALE
  5
19E0C
102
{ACAD_REACTORS
330
19DF6
102
}
330
19DF6
100
AcDbScale
 70
     0
300
3/32" = 1'-0"
140
0.09375
141
12.0
290
     0
  0
SCALE
  5
19E0D
102
{ACAD_REACTORS
330
19DF6
102
}
330
19DF6
100
AcDbScale
 70
     0
300
1/8" = 1'-0"
140
0.125
141
12.0
290
     0
  0
SCALE
  5
19E0E
102
{ACAD_REACTORS
330
19DF6
102
}
330
19DF6
100
AcDbScale
 70
     0
300
3/16" = 1'-0"
140
0.1875
141
12.0
290
     0
  0
SCALE
  5
19E0F
102
{ACAD_REACTORS
330
19DF6
102
}
330
19DF6
100
AcDbScale
 70
     0
300
1/4" = 1'-0"
140
0.25
141
12.0
290
     0
  0
SCALE
  5
19E10
102
{ACAD_REACTORS
330
19DF6
102
}
330
19DF6
100
AcDbScale
 70
     0
300
3/8" = 1'-0"
140
0.375
141
12.0
290
     0
  0
SCALE
  5
19E11
102
{ACAD_REACTORS
330
19DF6
102
}
330
19DF6
100
AcDbScale
 70
     0
300
1/2" = 1'-0"
140
0.5
141
12.0
290
     0
  0
SCALE
  5
19E12
102
{ACAD_REACTORS
330
19DF6
102
}
330
19DF6
100
AcDbScale
 70
     0
300
3/4" = 1'-0"
140
0.75
141
12.0
290
     0
  0
SCALE
  5
19E13
102
{ACAD_REACTORS
330
19DF6
102
}
330
19DF6
100
AcDbScale
 70
     0
300
1" = 1'-0"
140
1.0
141
12.0
290
     0
  0
SCALE
  5
19E14
102
{ACAD_REACTORS
330
19DF6
102
}
330
19DF6
100
AcDbScale
 70
     0
300
1-1/2" = 1'-0"
140
1.5
141
12.0
290
     0
  0
SCALE
  5
19E15
102
{ACAD_REACTORS
330
19DF6
102
}
330
19DF6
100
AcDbScale
 70
     0
300
3" = 1'-0"
140
3.0
141
12.0
290
     0
  0
SCALE
  5
19E16
102
{ACAD_REACTORS
330
19DF6
102
}
330
19DF6
100
AcDbScale
 70
     0
300
6" = 1'-0"
140
6.0
141
12.0
290
     0
  0
SCALE
  5
19E17
102
{ACAD_REACTORS
330
19DF6
102
}
330
19DF6
100
AcDbScale
 70
     0
300
1'-0" = 1'-0"
140
12.0
141
12.0
290
     0
  0
TABLESTYLE
  5
4D7
102
{ACAD_XDICTIONARY
360
1ABD4
102
}
102
{ACAD_REACTORS
330
4D6
102
}
330
4D6
100
AcDbTableStyle
  3
Standard
 70
     0
 71
     0
 40
1.5
 41
1.5
280
     0
281
     0
  7
STANDARD
140
4.5
170
     2
 62
     0
 63
     7
283
     0
274
    -2
284
     1
 64
     0
275
    -2
285
     1
 65
     0
276
    -2
286
     1
 66
     0
277
    -2
287
     1
 67
     0
278
    -2
288
     1
 68
     0
279
    -2
289
     1
 69
     0
  7
STANDARD
140
6.0
170
     5
 62
     0
 63
     7
283
     0
274
    -2
284
     1
 64
     0
275
    -2
285
     1
 65
     0
276
    -2
286
     1
 66
     0
277
    -2
287
     1
 67
     0
278
    -2
288
     1
 68
     0
279
    -2
289
     1
 69
     0
  7
STANDARD
140
4.5
170
     5
 62
     0
 63
     7
283
     0
274
    -2
284
     1
 64
     0
275
    -2
285
     1
 65
     0
276
    -2
286
     1
 66
     0
277
    -2
287
     1
 67
     0
278
    -2
288
     1
 68
     0
279
    -2
289
     1
 69
     0
1001
ACAD
1000
AcRTDxfName
1000
TABLESTYLE
1000
AcRTDxfName
1000
TABLESTYLE
1000
AcRTDxfName
1000
TABLESTYLE
1000
AcRTDxfName
1000
TABLESTYLE
1000
AcRTDxfName
1000
TABLESTYLE
  0
VISUALSTYLE
  5
19DEB
102
{ACAD_XDICTIONARY
360
22300
102
}
102
{ACAD_REACTORS
330
19DE5
102
}
330
19DE5
100
AcDbVisualStyle
  2
2dWireframe
 70
     4
 71
     0
 72
     2
 73
     0
 90
        0
 40
-0.6
 41
-30.0
 62
     5
 63
     7
 74
     1
 91
        4
 64
     7
 65
   257
 75
     1
175
     1
 42
1.0
 92
        0
 66
   257
 43
1.0
 76
     1
 77
     6
 78
     2
 67
     7
 79
     5
170
     0
171
     0
290
     0
174
     0
 93
        1
 44
0.0
173
     0
291
     0
 45
0.0
1001
ACAD
1000
AcDbSavedByObjectVersion
1070
     0
  0
VISUALSTYLE
  5
19DED
102
{ACAD_XDICTIONARY
360
22304
102
}
102
{ACAD_REACTORS
330
19DE5
102
}
330
19DE5
100
AcDbVisualStyle
  2
3D Hidden
 70
     6
 71
     1
 72
     2
 73
     2
 90
        0
 40
-0.6
 41
-30.0
 62
     5
 63
     7
 74
     2
 91
        2
 64
     7
 65
   257
 75
     2
175
     1
 42
40.0
 92
        0
 66
   257
 43
1.0
 76
     1
 77
     6
 78
     2
 67
     7
 79
     3
170
     0
171
     0
290
     0
174
     0
 93
        1
 44
0.0
173
     0
291
     0
 45
0.0
1001
ACAD
1000
AcDbSavedByObjectVersion
1070
     0
  0
VISUALSTYLE
  5
19DEC
102
{ACAD_XDICTIONARY
360
22302
102
}
102
{ACAD_REACTORS
330
19DE5
102
}
330
19DE5
100
AcDbVisualStyle
  2
3dWireframe
 70
     5
 71
     0
 72
     2
 73
     0
 90
        0
 40
-0.6
 41
-30.0
 62
     5
 63
     7
 74
     1
 91
        4
 64
     7
 65
   257
 75
     1
175
     1
 42
1.0
 92
        0
 66
   257
 43
1.0
 76
     1
 77
     6
 78
     2
 67
     7
 79
     5
170
     0
171
     0
290
     0
174
     0
 93
        1
 44
0.0
173
     0
291
     0
 45
0.0
1001
ACAD
1000
AcDbSavedByObjectVersion
1070
     0
  0
VISUALSTYLE
  5
19DEA
102
{ACAD_XDICTIONARY
360
222FE
102
}
102
{ACAD_REACTORS
330
19DE5
102
}
330
19DE5
100
AcDbVisualStyle
  2
Basic
 70
     7
 71
     1
 72
     0
 73
     1
 90
        0
 40
-0.6
 41
-30.0
 62
     5
 63
     7
 74
     0
 91
        4
 64
     7
 65
   257
 75
     1
175
     1
 42
1.0
 92
        8
 66
     7
 43
1.0
 76
     1
 77
     6
 78
     2
 67
     7
 79
     5
170
     0
171
     0
290
     0
174
     0
 93
        1
 44
0.0
173
     0
291
     1
 45
0.0
1001
ACAD
1000
AcDbSavedByObjectVersion
1070
     0
  0
VISUALSTYLE
  5
19DF1
102
{ACAD_XDICTIONARY
360
2230C
102
}
102
{ACAD_REACTORS
330
19DE5
102
}
330
19DE5
100
AcDbVisualStyle
  2
Brighten
 70
    12
 71
     2
 72
     2
 73
     0
 90
        0
 40
-0.6
 41
-30.0
 62
     5
 63
     7
 74
     1
 91
        4
 64
     7
 65
   257
 75
     1
175
     1
 42
1.0
 92
        8
 66
     7
 43
1.0
 76
     1
 77
     6
 78
     2
 67
     7
 79
     5
170
     0
171
     0
290
     0
174
     0
 93
        1
 44
50.0
173
     0
291
     1
 45
0.0
1001
ACAD
1000
AcDbSavedByObjectVersion
1070
     0
  0
VISUALSTYLE
  5
19DF5
102
{ACAD_XDICTIONARY
360
22314
102
}
102
{ACAD_REACTORS
330
19DE5
102
}
330
19DE5
100
AcDbVisualStyle
  2
ColorChange
 70
    16
 71
     2
 72
     2
 73
     3
 90
        0
 40
-0.6
 41
-30.0
 62
     5
 63
     8
 74
     1
 91
        4
 64
     7
 65
   257
 75
     1
175
     1
 42
1.0
 92
        8
 66
     8
 43
1.0
 76
     1
 77
     6
 78
     2
 67
     7
 79
     5
170
     0
171
     0
290
     0
174
     0
 93
        1
 44
0.0
173
     0
291
     1
 45
0.0
1001
ACAD
1000
AcDbSavedByObjectVersion
1070
     0
  0
VISUALSTYLE
  5
19DEE
102
{ACAD_XDICTIONARY
360
22306
102
}
102
{ACAD_REACTORS
330
19DE5
102
}
330
19DE5
100
AcDbVisualStyle
  2
Conceptual
 70
     9
 71
     3
 72
     2
 73
     0
 90
        0
 40
-0.6
 41
-30.0
 62
     5
 63
     7
 74
     2
 91
        2
 64
     7
 65
   257
 75
     1
175
     1
 42
40.0
 92
        8
 66
     7
 43
1.0
 76
     1
 77
     6
 78
     2
 67
     7
 79
     3
170
     0
171
     0
290
     0
174
     0
 93
        1
 44
0.0
173
     0
291
     0
 45
0.0
1001
ACAD
1000
AcDbSavedByObjectVersion
1070
     0
  0
VISUALSTYLE
  5
19DF0
102
{ACAD_XDICTIONARY
360
2230A
102
}
102
{ACAD_REACTORS
330
19DE5
102
}
330
19DE5
100
AcDbVisualStyle
  2
Dim
 70
    11
 71
     2
 72
     2
 73
     0
 90
        0
 40
-0.6
 41
-30.0
 62
     5
 63
     7
 74
     1
 91
        4
 64
     7
 65
   257
 75
     1
175
     1
 42
1.0
 92
        8
 66
     7
 43
1.0
 76
     1
 77
     6
 78
     2
 67
     7
 79
     5
170
     0
171
     0
290
     0
174
     0
 93
        1
 44
-50.0
173
     0
291
     1
 45
0.0
1001
ACAD
1000
AcDbSavedByObjectVersion
1070
     0
  0
VISUALSTYLE
  5
1E02A
102
{ACAD_XDICTIONARY
360
2231A
102
}
102
{ACAD_REACTORS
330
19DE5
102
}
330
19DE5
100
AcDbVisualStyle
  2
EdgeColorOff
 70
    22
 71
     2
 72
     2
 73
     0
 90
        0
 40
-0.6
 41
-30.0
 62
     5
 63
     7
 74
     1
 91
        4
 64
     7
 65
   257
 75
     1
175
     1
 42
1.0
 92
        8
 66
     7
 43
1.0
 76
     1
 77
     6
 78
     2
 67
     7
 79
     5
170
     0
171
     0
290
     0
174
     0
 93
        1
 44
0.0
173
     0
291
     1
 45
0.0
1001
ACAD
1000
AcDbSavedByObjectVersion
1070
     0
  0
VISUALSTYLE
  5
19DF4
102
{ACAD_XDICTIONARY
360
22312
102
}
102
{ACAD_REACTORS
330
19DE5
102
}
330
19DE5
100
AcDbVisualStyle
  2
Facepattern
 70
    15
 71
     2
 72
     2
 73
     0
 90
        0
 40
-0.6
 41
-30.0
 62
     5
 63
     7
 74
     1
 91
        4
 64
     7
 65
   257
 75
     1
175
     1
 42
1.0
 92
        8
 66
     7
 43
1.0
 76
     1
 77
     6
 78
     2
 67
     7
 79
     5
170
     0
171
     0
290
     0
174
     0
 93
        1
 44
0.0
173
     0
291
     1
 45
0.0
1001
ACAD
1000
AcDbSavedByObjectVersion
1070
     0
  0
VISUALSTYLE
  5
19DE6
102
{ACAD_XDICTIONARY
360
222F6
102
}
102
{ACAD_REACTORS
330
19DE5
102
}
330
19DE5
100
AcDbVisualStyle
  2
Flat
 70
     0
 71
     2
 72
     1
 73
     1
 90
        2
 40
-0.6
 41
30.0
 62
     5
 63
     7
 74
     0
 91
        4
 64
     7
 65
   257
 75
     1
175
     1
 42
1.0
 92
        8
 66
     7
 43
1.0
 76
     1
 77
     6
 78
     2
 67
     7
 79
     5
170
     0
171
     0
290
     0
174
     0
 93
       13
 44
0.0
173
     0
291
     1
 45
0.0
1001
ACAD
1000
AcDbSavedByObjectVersion
1070
     0
  0
VISUALSTYLE
  5
19DE7
102
{ACAD_XDICTIONARY
360
222F8
102
}
102
{ACAD_REACTORS
330
19DE5
102
}
330
19DE5
100
AcDbVisualStyle
  2
FlatWithEdges
 70
     1
 71
     2
 72
     1
 73
     1
 90
        2
 40
-0.6
 41
30.0
 62
     5
 63
     7
 74
     1
 91
        4
 64
     7
 65
   257
 75
     1
175
     1
 42
1.0
 92
        0
 66
   257
 43
1.0
 76
     1
 77
     6
 78
     2
 67
     7
 79
     5
170
     0
171
     0
290
     0
174
     0
 93
       13
 44
0.0
173
     0
291
     1
 45
0.0
1001
ACAD
1000
AcDbSavedByObjectVersion
1070
     0
  0
VISUALSTYLE
  5
19DE8
102
{ACAD_XDICTIONARY
360
222FA
102
}
102
{ACAD_REACTORS
330
19DE5
102
}
330
19DE5
100
AcDbVisualStyle
  2
Gouraud
 70
     2
 71
     2
 72
     2
 73
     1
 90
        2
 40
-0.6
 41
30.0
 62
     5
 63
     7
 74
     0
 91
        4
 64
     7
 65
   257
 75
     1
175
     1
 42
1.0
 92
        0
 66
     7
 43
1.0
 76
     1
 77
     6
 78
     2
 67
     7
 79
     5
170
     0
171
     0
290
     0
174
     0
 93
       13
 44
0.0
173
     0
291
     1
 45
0.0
1001
ACAD
1000
AcDbSavedByObjectVersion
1070
     0
  0
VISUALSTYLE
  5
19DE9
102
{ACAD_XDICTIONARY
360
222FC
102
}
102
{ACAD_REACTORS
330
19DE5
102
}
330
19DE5
100
AcDbVisualStyle
  2
GouraudWithEdges
 70
     3
 71
     2
 72
     2
 73
     1
 90
        2
 40
-0.6
 41
30.0
 62
     5
 63
     7
 74
     1
 91
        4
 64
     7
 65
   257
 75
     1
175
     1
 42
1.0
 92
        0
 66
   257
 43
1.0
 76
     1
 77
     6
 78
     2
 67
     7
 79
     5
170
     0
171
     0
290
     0
174
     0
 93
       13
 44
0.0
173
     0
291
     1
 45
0.0
1001
ACAD
1000
AcDbSavedByObjectVersion
1070
     0
  0
VISUALSTYLE
  5
1E028
102
{ACAD_XDICTIONARY
360
22316
102
}
102
{ACAD_REACTORS
330
19DE5
102
}
330
19DE5
100
AcDbVisualStyle
  2
JitterOff
 70
    20
 71
     2
 72
     2
 73
     0
 90
        0
 40
-0.6
 41
-30.0
 62
     5
 63
     7
 74
     1
 91
        4
 64
     7
 65
   257
 75
     1
175
     1
 42
1.0
 92
       10
 66
     7
 43
1.0
 76
     1
 77
     6
 78
     2
 67
     7
 79
     5
170
     0
171
     0
290
     0
174
     0
 93
        1
 44
0.0
173
     0
291
     1
 45
0.0
1001
ACAD
1000
AcDbSavedByObjectVersion
1070
     0
  0
VISUALSTYLE
  5
19DF3
102
{ACAD_XDICTIONARY
360
22310
102
}
102
{ACAD_REACTORS
330
19DE5
102
}
330
19DE5
100
AcDbVisualStyle
  2
Linepattern
 70
    14
 71
     2
 72
     2
 73
     0
 90
        0
 40
-0.6
 41
-30.0
 62
     5
 63
     7
 74
     1
 91
        4
 64
     7
 65
   257
 75
     7
175
     7
 42
1.0
 92
        8
 66
     7
 43
1.0
 76
     1
 77
     6
 78
     2
 67
     7
 79
     5
170
     0
171
     0
290
     0
174
     0
 93
        1
 44
0.0
173
     0
291
     1
 45
0.0
1001
ACAD
1000
AcDbSavedByObjectVersion
1070
     0
  0
VISUALSTYLE
  5
1E029
102
{ACAD_XDICTIONARY
360
22318
102
}
102
{ACAD_REACTORS
330
19DE5
102
}
330
19DE5
100
AcDbVisualStyle
  2
OverhangOff
 70
    21
 71
     2
 72
     2
 73
     0
 90
        0
 40
-0.6
 41
-30.0
 62
     5
 63
     7
 74
     1
 91
        4
 64
     7
 65
   257
 75
     1
175
     1
 42
1.0
 92
        9
 66
     7
 43
1.0
 76
     1
 77
     6
 78
     2
 67
     7
 79
     5
170
     0
171
     0
290
     0
174
     0
 93
        1
 44
0.0
173
     0
291
     1
 45
0.0
1001
ACAD
1000
AcDbSavedByObjectVersion
1070
     0
  0
VISUALSTYLE
  5
19DEF
102
{ACAD_XDICTIONARY
360
22308
102
}
102
{ACAD_REACTORS
330
19DE5
102
}
330
19DE5
100
AcDbVisualStyle
  2
Realistic
 70
     8
 71
     2
 72
     2
 73
     0
 90
        0
 40
-0.6
 41
-30.0
 62
     5
 63
     7
 74
     1
 91
        0
 64
     7
 65
   257
 75
     1
175
     1
 42
1.0
 92
        8
 66
     8
 43
1.0
 76
     1
 77
     6
 78
     2
 67
     7
 79
     5
170
     0
171
     0
290
     0
174
     0
 93
       13
 44
0.0
173
     0
291
     0
 45
0.0
1001
ACAD
1000
AcDbSavedByObjectVersion
1070
     0
  0
VISUALSTYLE
  5
19DF2
102
{ACAD_XDICTIONARY
360
2230E
102
}
102
{ACAD_REACTORS
330
19DE5
102
}
330
19DE5
100
AcDbVisualStyle
  2
Thicken
 70
    13
 71
     2
 72
     2
 73
     0
 90
        0
 40
-0.6
 41
-30.0
 62
     5
 63
     7
 74
     1
 91
        4
 64
     7
 65
   257
 75
     1
175
     1
 42
1.0
 92
       12
 66
     7
 43
1.0
 76
     1
 77
     6
 78
     2
 67
     7
 79
     5
170
     0
171
     0
290
     0
174
     0
 93
        1
 44
0.0
173
     0
291
     1
 45
0.0
1001
ACAD
1000
AcDbSavedByObjectVersion
1070
     0
  0
DICTIONARYVAR
  5
1AC1A
102
{ACAD_REACTORS
330
37
102
}
330
37
100
DictionaryVariables
280
     0
  1
1:1
  0
DICTIONARYVAR
  5
1AC19
102
{ACAD_REACTORS
330
37
102
}
330
37
100
DictionaryVariables
280
     0
  1
STANDARD
  0
DICTIONARYVAR
  5
4F1
102
{ACAD_REACTORS
330
37
102
}
330
37
100
DictionaryVariables
280
     0
  1
STANDARD
  0
DICTIONARYVAR
  5
38
102
{ACAD_REACTORS
330
37
102
}
330
37
100
DictionaryVariables
280
     0
  1
-1
  0
DICTIONARYVAR
  5
408
102
{ACAD_REACTORS
330
37
102
}
330
37
100
DictionaryVariables
280
     0
  1
2
  0
DICTIONARYVAR
  5
1891
102
{ACAD_REACTORS
330
37
102
}
330
37
100
DictionaryVariables
280
     0
  1
1
  0
DICTIONARYVAR
  5
1AC1C
102
{ACAD_REACTORS
330
37
102
}
330
37
100
DictionaryVariables
280
     0
  1
0
  0
DICTIONARYVAR
  5
1895
102
{ACAD_REACTORS
330
37
102
}
330
37
100
DictionaryVariables
280
     0
  1
8
  0
DICTIONARYVAR
  5
1894
102
{ACAD_REACTORS
330
37
102
}
330
37
100
DictionaryVariables
280
     0
  1
1
  0
DICTIONARYVAR
  5
1892
102
{ACAD_REACTORS
330
37
102
}
330
37
100
DictionaryVariables
280
     0
  1
8
  0
DICTIONARYVAR
  5
1893
102
{ACAD_REACTORS
330
37
102
}
330
37
100
DictionaryVariables
280
     0
  1
2
  0
DICTIONARYVAR
  5
409
102
{ACAD_REACTORS
330
37
102
}
330
37
100
DictionaryVariables
280
     0
  1

  0
DICTIONARYVAR
  5
1AC1B
102
{ACAD_REACTORS
330
37
102
}
330
37
100
DictionaryVariables
280
     0
  1
127
  0
DICTIONARYVAR
  5
222EA
102
{ACAD_REACTORS
330
37
102
}
330
37
100
DictionaryVariables
280
     0
  1
2
  0
DICTIONARY
  5
1E441
330
2D3
100
AcDbDictionary
280
     1
281
     1
  3
ACAD_XREC_ROUNDTRIP
360
222F0
  3
ADSK_XREC_LAYOUTTHUMBNAIL
360
1E442
  0
DICTIONARY
  5
1E041
330
2D4
100
AcDbDictionary
280
     1
281
     1
  3
ACAD_XREC_ROUNDTRIP
360
222F1
  3
ADSK_XREC_LAYOUTTHUMBNAIL
360
1E042
  0
DICTIONARY
  5
19DD6
330
19DD5
100
AcDbDictionary
280
     1
281
     1
  3
ACAD_XREC_ROUNDTRIP
360
222F4
  3
BUMPTILE
360
19DD8
  3
DIFFUSETILE
360
19DD7
  3
OPACITYTILE
360
19DDB
  3
REFLECTIONTILE
360
19DDA
  3
REFRACTIONTILE
360
19DDC
  3
SPECULARTILE
360
19DD9
  0
DICTIONARY
  5
19DCE
330
19DCD
100
AcDbDictionary
280
     1
281
     1
  3
ACAD_XREC_ROUNDTRIP
360
222F3
  3
BUMPTILE
360
19DD0
  3
DIFFUSETILE
360
19DCF
  3
OPACITYTILE
360
19DD3
  3
REFLECTIONTILE
360
19DD2
  3
REFRACTIONTILE
360
19DD4
  3
SPECULARTILE
360
19DD1
  0
DICTIONARY
  5
19DDE
330
19DDD
100
AcDbDictionary
280
     1
281
     1
  3
ACAD_XREC_ROUNDTRIP
360
222F5
  3
BUMPTILE
360
19DE0
  3
DIFFUSETILE
360
19DDF
  3
OPACITYTILE
360
19DE3
  3
REFLECTIONTILE
360
19DE2
  3
REFRACTIONTILE
360
19DE4
  3
SPECULARTILE
360
19DE1
  0
DICTIONARY
  5
1ABD4
330
4D7
100
AcDbDictionary
280
     1
281
     1
  3
ACAD_ROUNDTRIP_2008_TABLESTYLE_CELLSTYLEMAP
360
222EB
  3
ACAD_XREC_ROUNDTRIP
360
222F2
  0
DICTIONARY
  5
22300
330
19DEB
100
AcDbDictionary
280
     1
281
     1
  3
ACAD_XREC_ROUNDTRIP
360
22301
  0
DICTIONARY
  5
22304
330
19DED
100
AcDbDictionary
280
     1
281
     1
  3
ACAD_XREC_ROUNDTRIP
360
22305
  0
DICTIONARY
  5
22302
330
19DEC
100
AcDbDictionary
280
     1
281
     1
  3
ACAD_XREC_ROUNDTRIP
360
22303
  0
DICTIONARY
  5
222FE
330
19DEA
100
AcDbDictionary
280
     1
281
     1
  3
ACAD_XREC_ROUNDTRIP
360
222FF
  0
DICTIONARY
  5
2230C
330
19DF1
100
AcDbDictionary
280
     1
281
     1
  3
ACAD_XREC_ROUNDTRIP
360
2230D
  0
DICTIONARY
  5
22314
330
19DF5
100
AcDbDictionary
280
     1
281
     1
  3
ACAD_XREC_ROUNDTRIP
360
22315
  0
DICTIONARY
  5
22306
330
19DEE
100
AcDbDictionary
280
     1
281
     1
  3
ACAD_XREC_ROUNDTRIP
360
22307
  0
DICTIONARY
  5
2230A
330
19DF0
100
AcDbDictionary
280
     1
281
     1
  3
ACAD_XREC_ROUNDTRIP
360
2230B
  0
DICTIONARY
  5
2231A
330
1E02A
100
AcDbDictionary
280
     1
281
     1
  3
ACAD_XREC_ROUNDTRIP
360
2231B
  0
DICTIONARY
  5
22312
330
19DF4
100
AcDbDictionary
280
     1
281
     1
  3
ACAD_XREC_ROUNDTRIP
360
22313
  0
DICTIONARY
  5
222F6
330
19DE6
100
AcDbDictionary
280
     1
281
     1
  3
ACAD_XREC_ROUNDTRIP
360
222F7
  0
DICTIONARY
  5
222F8
330
19DE7
100
AcDbDictionary
280
     1
281
     1
  3
ACAD_XREC_ROUNDTRIP
360
222F9
  0
DICTIONARY
  5
222FA
330
19DE8
100
AcDbDictionary
280
     1
281
     1
  3
ACAD_XREC_ROUNDTRIP
360
222FB
  0
DICTIONARY
  5
222FC
330
19DE9
100
AcDbDictionary
280
     1
281
     1
  3
ACAD_XREC_ROUNDTRIP
360
222FD
  0
DICTIONARY
  5
22316
330
1E028
100
AcDbDictionary
280
     1
281
     1
  3
ACAD_XREC_ROUNDTRIP
360
22317
  0
DICTIONARY
  5
22310
330
19DF3
100
AcDbDictionary
280
     1
281
     1
  3
ACAD_XREC_ROUNDTRIP
360
22311
  0
DICTIONARY
  5
22318
330
1E029
100
AcDbDictionary
280
     1
281
     1
  3
ACAD_XREC_ROUNDTRIP
360
22319
  0
DICTIONARY
  5
22308
330
19DEF
100
AcDbDictionary
280
     1
281
     1
  3
ACAD_XREC_ROUNDTRIP
360
22309
  0
DICTIONARY
  5
2230E
330
19DF2
100
AcDbDictionary
280
     1
281
     1
  3
ACAD_XREC_ROUNDTRIP
360
2230F
  0
XRECORD
  5
222F0
102
{ACAD_REACTORS
330
1E441
102
}
330
1E441
100
AcDbXrecord
280
     1
102
SHADEPLOT
 70
     0
102
SHADEPLOTRESLEVEL
 70
     2
102
SHADEPLOTCUSTOMDPI
 70
   300
  0
XRECORD
  5
1E442
102
{ACAD_REACTORS
330
1E441
102
}
330
1E441
100
AcDbXrecord
280
     1
310
280000000001000062000000010008000000000000620000000000000000000000010000000000000000000000000000FFFFFF000000000000000000000000000000000000000000000000000000000000000000330000006600000099000000CC000000FF00000000330000333300006633000099330000CC330000FF3300
310
0000660000336600006666000099660000CC660000FF66000000990000339900006699000099990000CC990000FF99000000CC000033CC000066CC000099CC0000CCCC0000FFCC000000FF000033FF000066FF000099FF0000CCFF0000FFFF000000003300330033006600330099003300CC003300FF003300003333003333
310
33006633330099333300CC333300FF33330000663300336633006666330099663300CC663300FF66330000993300339933006699330099993300CC993300FF99330000CC330033CC330066CC330099CC3300CCCC3300FFCC330000FF330033FF330066FF330099FF3300CCFF3300FFFF330000006600330066006600660099
310
006600CC006600FF00660000336600333366006633660099336600CC336600FF33660000666600336666006666660099666600CC666600FF66660000996600339966006699660099996600CC996600FF99660000CC660033CC660066CC660099CC6600CCCC6600FFCC660000FF660033FF660066FF660099FF6600CCFF6600
310
FFFF660000009900330099006600990099009900CC009900FF00990000339900333399006633990099339900CC339900FF33990000669900336699006666990099669900CC669900FF66990000999900339999006699990099999900CC999900FF99990000CC990033CC990066CC990099CC9900CCCC9900FFCC990000FF99
310
0033FF990066FF990099FF9900CCFF9900FFFF99000000CC003300CC006600CC009900CC00CC00CC00FF00CC000033CC003333CC006633CC009933CC00CC33CC00FF33CC000066CC003366CC006666CC009966CC00CC66CC00FF66CC000099CC003399CC006699CC009999CC00CC99CC00FF99CC0000CCCC0033CCCC0066CC
310
CC0099CCCC00CCCCCC00FFCCCC0000FFCC0033FFCC0066FFCC0099FFCC00CCFFCC00FFFFCC000000FF003300FF006600FF009900FF00CC00FF00FF00FF000033FF003333FF006633FF009933FF00CC33FF00FF33FF000066FF003366FF006666FF009966FF00CC66FF00FF66FF000099FF003399FF006699FF009999FF00CC
310
99FF00FF99FF0000CCFF0033CCFF0066CCFF0099CCFF00CCCCFF00FFCCFF0000FFFF0033FFFF0066FFFF0099FFFF00CCFFFF00FFFFFF00000000000D0D0D001A1A1A00282828003535350043434300505050005D5D5D006B6B6B00787878008686860093939300A1A1A100AEAEAE00BBBBBB00C9C9C900D6D6D600E4E4E400
310
F1F1F100FFFFFF0000000000000000000000000000000000000000000000000000000000000000000000000000000000E2E2E2E2E2E2E2E2E2E2E2E2E2E2E2E2E2E2E2E2E2E2E2E2E2E2E2E2E2E2E2E2E2E2E2E2E2E2E2E2E2E2E2E2E2E2E2E2E2E2E2E2E2E2E2E2E2E2E2E2E2E2E2E2E2E2E2E2E2E2E2E2E2E2E2E2E2E2E2
310
E2E2E2E2E2E2E2E2E2E2E2E2E2E2E2E2E2E2E2E2E2E2E2E2E2E2E2E2E2E2E2E2E2E2E2E2E2E2E2E2E2E2E2E2E2E2E2E2E2E2E2E2E2E2E2E2E2E2E2E2E2E2E2E2E2E2E2E2E2E2E2E2E2E2E2E2E2E2E2E2E2E2E2E2E2E2E2E2E2E2E2E2E2E2E2E2E2E2E2E2E2E2E2E2E2E2E2E2E2E2E2E2E2E2E2E2E2E2E2E2E2E2E2E2E2E2E2
310
E2E2E2E2E2E2E2E2E2E2E2E2E2E2E2E2E2E2E2E2E2E2E2E2E2E2E2E2E2E2E2E2E2E2E2E2E2E2E2E2E2E2E2E2E2E2E2E2E2E2E2E2E2E2E2E2E2E2E2E2E2E2E2E2E2E2E2E2E2E2E2E2E2E2E2E2E2E2E2E2E2E2E2E2E2E2E2E2E2E2E2E2E2E2E2E2E2E2E2E2E2E2E2E2E2E2E2E2E2E2E2E2E2E2E2E2E2E2E2E2E2E2E2E2E2E2E2
310
E2E2E2E2E2E2E2E2E2E2E2E2E2E2E2E2E2E2E2E2E2E2E2E2E2E2E2E2E2E2E2E2E2E2E2E2E2E2E2E2E2E2E2E2E2E2E2E2E2E2E2E2E2E2E2E2E2E2E2E2E2E2E2E2E2E2E2E2E2E2E2E2E2E2E2E2E2E2E2E2E2E2E2E2E2E2E2E2E2E2E2E2E2E2E2E2E2E2E2E2E2E2E2E2E2E2E2E2E2E2E2E2E2E2E2E2E2E2E2E2E2E2E2E2E2E2E2
310
E2E2E2E2E2E2E2E2E2E2E2E2E2E2E2E2E2E2E2E2E2E2E2E2E2E2E2E2E2E2E2E2E2E2E2E2E2E2E2E2E2E2E2E2E2E2E2E2E2E2E2E2E2E2E2E2E2E2E2E2E2E2E2E2E2E2E2E2E2E2E2E2E2E2E2E2E2E2E2E2E2E2E2E2E2E2E2E2E2E2E2E2E2E2E2E2E2E2E2E2E2E2E2E2E2E2E2E2E2E2E2E2E2E2E2E2E2E2E2E2E2E2E2E2E2E2E2
310
E2E2E2E2E2E2E2E2E2E2E2E2E2E2E2E2E2E2E2E2E2E2E2E2E2E2E2E2E2E2E2E2E2E2E2E2E2E2E2E2E2E2E2E2E2E2E2E2E2E2E2E2E2E2E2E2E2E2E2E2E2E2E2E2E2E2E2E2E2E2E2E2E2E2E2E2E2E2E2E2E2E2E2E2E2E2E2E2E2E2E2E2E2E2E2E2E2E2E2E2E2E2E2E2E2E2E2E2E2E2E2E2E2E2E2E2E2E2E2E2E2E2E2E2E2E2E2
310
E2E2E2E2E2E2E2E2E2E2E2E2E2E2E2E2E2E2E2E2E2E2E2E2E2E2E2E2E2E2E2E2E2E2E2E2E2E2E2E2E2E2E2E2E2E2E2E2E2E2E2E2E2E2E2E2E2E2E2E2E2E2E2E2E2E2E2E2E2E2E2E2E2E2E2E2F5E2F5E2E2E2E2E2E2E2E2E2E2E2E2E2E2E2E2E2E2E2E2E2E2E2E2E2E2E2E2E2E2E2E2E2E2E2E2E2E2E2E2E2E2E2E2E2E2E2E2
310
E2E2E2E2E2E2E2E2E2E2E2E2E2E2E2E2E2E2E2E2E2E2E2E2E2E2E2E2E2E2E2E2E2E2E2E2E2E2E2E2E2E2E2E2E2E2E2E2E2E2E2E2E2E2E2E2E2E2E2E2E2E2E2E2E2E2E2E2E2E2E2E2E2E2E2E2E2E2E2E2E2E2E2E2E2E2E2E2E2E2E2E2E2E2E2E2E2E2E2E2E2E2E2E2E2E2E2E2F5E2F5E2E2E2E2E2E2E2E2E2E2E2E2E2E2E2E2
310
E2E2E2E2E2E2E2E2E2E2E2E2E2E2E2E2E2E2E2E2E2E2E2E2E2E2E2E2E2E2E2E2E2E2E2E2E2E2E2E2E2E2E2E2E2E2E2E2E2E2E2E2E2E2E2E2E2E2E2E2E2E2E2E2E2E2E2E2E2E2E2E2E2E2E2E2E2E2F5F5F5F5F5F5F5F5F5F5F5F5F5F5F5F5F5F5F5F5F5F5F5F5F5F5F5F5F5F5F5F5F5F5F5F5F5F5F5F5F5F5F5F5F5F5F5F5F5
310
F5F5F5F5F5F5F5F5F5F5F5F5F5F5F5F5F5F5F5F5F5F5F5F5F5F5F5F5F5F5F5F5F5F5F5F5F5F5F5F5F5F5F5F5F5F5F5F5F5F5F5F5F5F5F5F5F5F5F5F5F5F5F5F5F5F5F5F5F5F5F5F5F5F5F5F5F5F5F5F5F5F5F5F5F5F5F5F5F5F5F5F5F5F5F5F5F5F5F5F5F5F5F5F5F5F5F5F5F5F5F5F5F5E2E2E2E2E2E2E2E2E2E2E2E2E2E2
310
E2E2E2E2E2E2E2E2E2E2E2E2E2E2E2E2E2E2E2E2E2E2E2E2E2E2E2E2E2E2E2E2E2E2E2E2E2E2E2E2E2E2E2E2E2E2E2E2E2E2E2E2E2E2E2E2E2E2E2E2E2E2E2E2E2E2E2E2E2E2E2E2E2E2E2E2E2E2E2E2F5E2E2E2E2E2E2E2E2E2E2E2E2E2E2E2E2E2E2E2E2E2E2E2E2E2E2E2E2E2E2E2E2E2E2E2E2E2E2E2E2E2E2E2E2E2E2
310
E2E2E2E2E2E2E2E2E2E2E2E2E2E2E2E2E2E2E2E2E2E2E2E2E2E2E2E2E2E2F5E2E2F5E2E2F5F5F5E2E2E2E2E2E2E2E2E2E2E2E2E2E2E2E2E2E2E2E2E2E2E2E2E2E2E2E2E2E2E2E2E2E2E2E2E2E2E2E2E2E2E2E2E2E2E2E2E2E2E2E2E2E2E2E2E2E2E2E2E2E2E2E2E2E2E2E2E2E2E2E2E2E2E2F5E2E2E2E2E2E2E2E2E2E2E2E2
310
E2E2E2E2E2E2E2E2E2E2E2E2E2E2E2E2E2E2E2E2E2E2E2E2E2E2E2E2E2E2E2E2E2E2E2E2E2E2E2E2E2E2E2E2E2E2E2E2E2E2E2E2E2E2E2E2E2E2E2E2E2E2E2E2E2E2E2E2E2E2E2E2E2E2E2E2E2E2E2E2E2E2F5E2E2E2E2E2E2E2E2E2E2E2E2E2E2E2E2E2E2E2E2E2E2E2E2E2E2E2E2E2E2E2E2E2E2E2E2E2E2E2E2E2E2E2E2
310
E2E2E2E2E2E2E2E2E2E2E2E2E2E2E2E2E2E2E2E2E2E2E2E2E2E2E2E2E2E2E2F5F5F5E2E2F5E2F5F5F5E2E2E2E2E2E2E2E2E2E2E2E2E2E2E2E2E2E2E2E2E2E2E2E2E2E2E2E2E2E2E2E2E2E2E2E2E2E2E2E2E2E2E2E2E2E2E2E2E2E2E2E2E2E2E2E2E2E2E2E2E2E2E2E2E2E2E2E2E2E2E2E2E2E2E2F5E2E2E2E2E2E2E2E2E2E2
310
E2E2E2E2E2E2E2E2E2E2E2E2E2E2E2E2E2E2E2E2E2E2E2E2E2E2E2E2E2E2E2E2E2E2E2E2E2E2E2E2E2E2E2E2E2E2E2E2E2E2E2E2E2E2E2E2E2E2E2E2E2E2E2E2E2E2E2E2E2E2E2E2E2E2E2E2E2E2E2E2E2E2E2E2F5E2E2E2E2E2E2E2E2E2E2E2E2E2E2E2E2E2E2E2E2E2E2E2E2E2E2E2E2E2E2E2E2E2E2E2E2E2E2E2E2E2E2
310
E2E2E2E2E2E2E2E2E2E2E2E2E2E2E2E2E2E2E2E2E2E2E2E2E2E2E2E2E2E2E2E2E2E2F5E2E2E2F5E2F5E2F5E2E2E2E2E2E2E2E2E2E2E2E2E2E2E2E2E2E2E2E2E2E2E2E2E2E2E2E2E2E2E2E2E2E2E2E2E2E2E2E2E2E2E2E2E2E2E2E2E2E2E2E2E2E2E2E2E2E2E2E2E2E2E2E2E2E2E2E2E2E2E2E2E2E2E2F5E2E2E2E2E2E2E2E2
310
E2E2E2E2E2E2E2E2E2E2E2E2E2E2E2E2E2E2E2E2E2E2E2E2E2E2E2E2E2E2E2E2E2E2E2E2E2E2E2E2E2E2E2E2E2E2E2E2E2E2E2E2E2E2E2E2E2E2E2E2E2E2E2E2E2E2E2E2E2E2E2E2E2E2E2E2E2E2E2E2E2E2E2E2E2E2F5E2E2E2E2E2E2E2E2E2E2E2E2E2E2E2E2E2E2E2E2E2E2E2E2E2E2E2E2E2E2E2E2E2E2E2E2E2E2E2E2
310
E2E2E2E2E2E2E2E2E2E2E2E2E2E2E2E2E2E2E2E2E2E2E2E2E2E2E2E2E2E2E2E2E2E2E2E2F5E2F5F5F5F5F5F5F5E2E2E2E2E2E2E2E2E2E2E2E2E2E2E2E2E2E2E2E2E2E2E2E2E2E2E2E2E2E2E2E2E2E2E2E2E2E2E2E2E2E2E2E2E2E2E2E2E2E2E2E2E2E2E2E2E2E2E2E2E2E2E2E2E2E2E2E2E2E2E2E2E2E2E2F5E2E2E2E2E2E2
310
E2E2E2E2E2E2E2E2E2E2E2E2E2E2E2E2E2E2E2E2E2E2E2E2E2E2E2E2E2E2E2E2E2E2E2E2E2E2E2E2E2E2E2E2E2E2E2E2E2E2E2E2E2E2E2E2E2E2E2E2E2E2E2E2E2E2E2E2E2E2E2E2E2E2E2E2E2E2E2E2E2E2E2E2E2E2E2E2F5E2E2E2E2E2E2E2E2E2E2E2E2E2E2E2E2E2E2E2E2E2E2E2E2E2E2E2E2E2E2E2E2E2E2E2E2E2E2
310
E2E2E2E2E2E2E2E2E2E2E2E2E2E2E2E2E2E2E2E2E2E2E2E2E2E2E2E2E2E2E2E2E2E2E2E2E2E2E2E2E2E2E2E2E2E2E2E2E2E2E2E2E2E2E2E2E2E2E2E2E2E2E2E2E2E2E2E2E2E2E2E2E2E2E2E2E2E2E2E2E2E2E2E2E2E2E2E2E2E2E2E2E2E2E2E2E2E2E2E2E2E2E2E2E2E2E2E2E2E2E2E2E2E2E2E2E2E2E2E2E2E2F5E2E2E2E2
310
E2E2E2E2E2E2E2E2E2E2E2E2E2E2E2E2E2E2E2E2E2E2E2E2E2E2E2E2E2E2E2E2E2E2E2E2E2E2E2E2E2E2E2E2E2E2E2E2E2E2E2E2E2E2E2E2E2E2E2E2E2E2E2E2E2E2E2E2E2E2E2E2E2E2E2E2E2E2E2E2E2E2E2E2E2E2E2E2E2E2F5E2E2E2E2E2E2E2E2E2E2E2E2E2E2E2E2E2E2E2E2E2E2E2E2E2E2E2E2E2E2E2E2E2E2E2E2
310
E2E2E2E2E2E2E2E2E2E2E2E2E2E2E2E2E2E2E2E2E2E2E2E2E2E2E2E2E2E2E2E2E2E2E2E2E2E2E2E2E2E2E2E2E2E2E2E2E2E2E2E2E2E2E2E2E2E2E2E2E2E2E2E2E2E2E2E2E2E2E2E2E2E2E2E2E2E2E2E2E2E2E2E2E2E2E2E2E2E2E2E2E2E2E2E2E2E2E2E2E2E2E2E2E2E2E2E2E2E2E2E2E2E2E2E2E2E2E2E2E2E2E2E2F5E2E2
310
E2E2E2E2E2E2E2E2E2E2E2E2E2E2E2E2E2E2E2E2E2E2E2E2E2E2E2E2E2E2E2E2E2E2E2E2E2E2E2E2E2E2E2E2E2E2E2E2E2E2E2E2E2E2E2E2E2E2E2E2E2E2E2E2E2E2E2E2E2E2E2E2E2E2E2E2E2E2E2E2E2E2E2E2E2E2E2E2E2E2E2E2F5E2E2E2E2F5E2E2E2E2E2E2E2E2E2E2E2E2E2E2E2E2E2E2E2E2E2E2E2E2E2E2E2E2E2
310
E2E2E2E2E2E2E2E2E2E2E2E2E2E2E2E2E2E2E2E2E2E2E2E2E2E2E2E2E2E2E2E2E2E2E2E2E2E2E2E2E2E2E2E2E2E2E2E2E2E2E2E2E2E2E2E2E2E2E2E2E2E2E2E2E2E2E2E2E2E2E2E2E2E2E2E2E2E2E2E2E2E2E2E2E2E2E2E2E2E2E2E2E2E2E2E2E2E2E2E2E2E2E2E2E2E2E2E2E2E2E2E2E2E2E2E2E2E2E2E2E2F5E2E2E2E2F5
310
E2E2E2E2E2E2E2E2E2E2E2E2E2E2E2E2E2E2E2E2E2E2E2E2E2E2E2E2E2E2E2E2E2E2E2E2E2E2E2E2E2E2E2E2E2E2E2E2E2E2E2E2E2E2E2E2E2E2E2E2E2E2E2E2E2E2E2E2E2E2E2E2E2E2E2E2E2E2E2E2E2E2E2E2E2E2E2E2E2E2E2E2E2E2F5E2E2E2E2F5F5F5F5F5F5F5F5F5F5F5F5F5F5F5F5F5F5F5F5F5F5F5F5F5F5F5F5
310
F5F5F5F5F5F5F5F5F5F5F5F5F5F5F5F5F5F5F5F5F5F5F5F5F5F5F5F5F5F5F5F5F5F5F5F5F5F5F5F5F5F5F5F5F5F5F5F5F5F5F5F5F5F5F5F5F5F5F5F5F5F5F5F5F5F5F5F5F5F5F5F5F5F5F5F5F5F5F5F5F5F5F5F5F5F5F5F5F5F5F5F5F5F5F5F5F5F5F5F5F5F5F5F5F5F5F5F5F5F5F5F5F5F5F5F5F5F5F5F5F5F5F5F5E2E2E2
310
E2F5E2E2E2E2E2E2E2E2E2E2E2E2E2E2E2E2E2E2E2E2E2E2E2E2E2E2E2E2E2E2E2E2E2E2E2E2E2E2E2E2E2E2E2E2E2E2E2E2E2E2E2E2E2E2E2E2E2E2E2E2E2E2E2E2E2E2E2E2E2E2E2E2E2E2E2E2E2E2E2E2E2E2E2E2E2E2E2E2E2E2E2E2E2E2F5E2E2E2E2F5F5F5E2E2E2E2E2E2E2E2E2E2E2E2E2E2E2E2E2E2E2E2E2E2E2
310
E2E2E2E2E2E2E2E2E2E2E2E2E2E2E2E2E2E2E2E2E2E2E2E2E2E2E2E2E2E2E2E2E2E2E2E2E2E2E2E2E2F5E2E2E2E2E2E2E2E2F5E2E2F5F5E2F5F5E2E2E2E2E2E2E2E2E2E2E2E2E2E2E2E2E2E2E2E2E2E2E2E2E2E2E2E2E2E2E2E2E2E2E2E2E2E2E2E2E2E2E2E2E2E2E2E2E2E2E2E2E2E2E2E2E2E2E2E2E2E2E2E2E2F5F5F5E2
310
E2E2E2F5E2E2E2E2E2E2E2E2E2E2E2E2E2E2E2E2E2E2E2E2E2E2E2E2E2E2E2E2E2E2E2E2E2E2E2E2E2E2E2E2E2E2E2E2E2E2E2E2E2E2E2E2E2E2E2E2E2E2E2E2E2E2E2E2E2E2E2E2E2E2E2E2E2E2E2E2E2E2E2E2E2E2E2E2E2E2E2E2E2E2E2E2E2E2F5E2E2E2E2F5E2E2E2E2E2E2E2E2E2E2E2E2E2E2E2E2E2E2E2E2E2E2E2
310
E2E2E2E2E2E2E2E2E2E2E2E2E2E2E2E2E2E2E2E2E2E2E2E2E2E2E2E2E2E2E2E2E2E2E2E2E2E2E2E2E2E2E2F5E2E2E2F5F5F5E2F5F5F5F5E2F5E2F5F5E2E2E2E2E2E2E2E2E2E2E2E2E2E2E2E2E2E2E2E2E2E2E2E2E2E2E2E2E2E2E2E2E2E2E2E2E2E2E2E2E2E2E2E2E2E2E2E2E2E2E2E2E2E2E2E2E2E2E2E2E2E2E2E2E2E2E2
310
F5E2E2E2E2F5E2E2E2E2E2E2E2E2E2E2E2E2E2E2E2E2E2E2E2E2E2E2E2E2E2E2E2E2E2E2E2E2E2E2E2E2E2E2E2E2E2E2E2E2E2E2E2E2E2E2E2E2E2E2E2E2E2E2E2E2E2E2E2E2E2E2E2E2E2E2E2E2E2E2E2E2E2E2E2E2E2E2E2E2E2E2E2E2E2E2E2E2E2E2F5E2E2E2E2F5E2E2E2E2E2E2E2E2E2E2E2E2E2E2E2E2E2E2E2E2E2
310
E2E2E2E2E2E2E2E2E2E2E2E2E2E2E2E2E2E2E2E2E2E2E2E2E2E2E2E2E2E2E2E2E2E2E2E2E2E2E2E2E2E2E2E2E2F5F5F5F5F5F5F5E2E2F5E2F5F5F5E2F5F5E2E2E2E2E2E2E2E2E2E2E2E2E2E2E2E2E2E2E2E2E2E2E2E2E2E2E2E2E2E2E2E2E2E2E2E2E2E2E2E2E2E2E2E2E2E2E2E2E2E2E2E2E2E2E2E2E2E2E2E2E2E2E2E2E2
310
E2E2F5E2E2E2E2F5E2E2E2E2E2E2E2E2E2E2E2E2E2E2E2E2E2E2E2E2E2E2E2E2E2E2E2E2E2E2E2E2E2E2E2E2E2E2E2E2E2E2E2E2E2E2E2E2E2E2E2E2E2E2E2E2E2E2E2E2E2E2E2E2E2E2E2E2E2E2E2E2E2E2E2E2E2E2E2E2E2E2E2E2E2E2E2E2E2E2E2E2E2E2F5E2E2E2E2F5E2E2E2E2E2E2E2E2E2E2E2E2E2E2E2E2E2E2E2
310
E2E2E2E2E2E2E2E2E2E2E2E2E2E2E2E2E2E2E2E2E2E2E2E2E2E2E2E2E2E2E2E2E2E2E2E2E2E2E2E2E2E2E2E2E2E2E2F5F5F5F5E2E2E2E2E2F5E2F5F5F5E2F5F5E2E2E2E2E2E2E2E2E2E2E2E2E2E2E2E2E2E2E2E2E2E2E2E2E2E2E2E2E2E2E2E2E2E2E2E2E2E2E2E2E2E2E2E2E2E2E2E2E2E2E2E2E2E2E2E2E2E2E2E2E2E2E2
310
E2E2E2E2F5E2E2E2E2F5E2E2E2E2E2E2E2E2E2E2E2E2E2F5F5E2E2E2E2E2E2E2E2E2E2E2E2E2E2E2E2E2F5E2E2E2E2E2E2E2E2E2E2E2E2E2E2E2E2E2E2E2E2E2E2E2E2E2E2E2E2E2E2E2E2E2E2E2E2E2E2E2E2E2E2E2E2E2E2E2E2E2E2E2E2E2E2E2E2E2E2E2E2E2F5E2E2E2E2F5E2E2E2E2E2E2E2E2E2E2E2E2E2E2E2E2E2
310
E2E2E2E2E2E2E2E2E2E2E2E2E2E2E2E2E2E2E2E2E2E2E2E2E2E2E2E2E2E2E2E2E2E2E2E2E2E2E2E2E2E2E2E2E2E2E2E2E2E2E2E2E2E2E2E2E2E2E2E2E2E2E2E2E2E2E2E2E2E2E2E2E2E2E2E2E2E2E2E2E2E2E2E2E2E2E2E2E2E2E2E2E2E2E2E2E2E2E2E2E2E2E2E2E2E2E2E2E2E2E2E2E2E2E2E2E2E2E2E2E2E2E2E2E2E2E2
310
E2E2E2E2E2E2F5E2E2E2E2F5E2E2E2E2E2E2E2E2E2E2E2E2E2F5F5F5F5F5F5F5F5F5F5F5F5F5F5F5F5F5F5F5BEE2E2E2E2BEE2E2BEE2E2E2E2E2E2E2E2E2E2E2E2E2E2E2E2E2E2E2E2E2E2E2E2E2E2E2E2E2E2E2E2E2E2E2E2E2E2E2E2E2E2E2E2E2E2E2E2E2E2E2E2E2F5E2E2E2E2F5E2E2E2E2E2E2E2E2E2E2E2E2E2E2E2
310
E2E2E2E2E2E2E2E2E2E2E2E2E2E2E2E2E2E2E2E2E2E2E2E2E2E2E2E2E2E2E2E2E2E2E2E2E2E2E2E2E2E2E2E2E2E2E2E2E2E2E2E2E2E2E2E2E2E2E2E2E2E2E2E2E2E2E2E2E2E2E2E2E2E2E2E2E2E2E2E2E2E2E2E2E2E2E2E2E2E2E2E2E2E2E2E2E2E2E2E2E2E2E2E2E2E2E2E2E2E2E2E2E2E2E2E2E2E2E2E2E2E2E2E2E2E2E2
310
E2E2E2E2E2E2E2E2F5E2E2E2E2F5E2E2E2E2E2E2E2E2E2E2E2E2E2F5E2E2E2E2E2E2E2E2F5F5F5E2E2E2E2E2E2E2BEE2E2E2E2BEE2E2BEE2E2E2E2E2E2E2E2E2E2E2E2E2E2E2E2E2E2E2E2E2E2E2E2E2E2E2E2E2E2E2E2E2E2E2E2E2E2E2E2E2E2E2E2E2E2E2E2E2E2E2E2E2F5E2E2E2E2F5E2E2E2E2E2E2E2E2E2E2E2E2E2
310
E2E2E2E2E2E2E2E2E2E2E2E2E2E2E2E2E2E2E2E2E2E2E2E2E2E2E2E2E2E2E2E2E2E2E2E2E2E2E2E2E2E2E2E2E2E2E2E2E2E2E2E2E2E2E2E2E2E2E2E2E2E2E2E2E2E2E2E2E2E2E2E2E2E2E2E2E2E2E2E2E2E2E2E2E2E2E2E2E2E2E2E2E2E2E2E2E2E2E2E2E2E2E2E2E2E2E2E2E2E2E2E2E2E2E2E2E2E2E2E2E2E2E2E2E2E2E2
310
E2E2E2E2E2E2E2E2E2E2F5E2E2E2E2F5E2E2E2E2E2E2E2E2E2E2E2E2E2F5E2E2E2E2E2E2E2E2E2E2E2E2E2E2E2E2E2E2BEE2E2E2E2BEE2E2BEE2E2E2E2E2E2E2E2E2E2E2E2E2E2E2E2E2E2E2E2E2E2E2E2E2E2E2E2E2E2E2E2E2E2E2E2E2E2E2E2E2E2E2E2E2E2E2E2E2E2E2E2E2F5E2E2E2E2F5E2E2E2E2E2E2E2E2E2E2E2
310
E2E2E2E2E2E2E2E2E2E2E2E2E2E2E2E2E2E2E2E2E2E2E2E2E2E2E2E2E2E2E2E2E2E2E2E2E2E2E2E2E2E2E2E2E2E2E2E2E2E2E2E2E2E2E2E2E2E2E2E2E2E2E2E2E2E2E2E2E2E2E2E2E2E2E2E2E2E2E2E2E2E2E2E2E2E2E2E2E2E2E2E2E2E2E2E2E2E2E2E2E2E2E2E2E2E2E2E2E2E2E2E2E2E2E2E2E2E2E2E2E2E2E2E2E2E2E2
310
E2E2E2E2E2E2E2E2E2E2E2E2F5E2E2E2E2F5E2E2E2E2E2E2E2E2E2E2E2E2E2F5E2E2E2E2E2E2E2E2E2E2E2E2F5F5F5F5F5F5F5E2E2E2E2BEE2E2BEE2E2E2E2E2E2E2E2E2E2E2E2E2E2E2E2E2E2E2E2E2E2E2E2E2E2E2E2E2E2E2E2E2E2E2E2E2E2E2E2E2E2E2E2E2E2E2E2E2E2E2E2E2F5E2E2E2E2F5E2E2E2E2E2E2E2E2E2
310
E2E2E2E2E2E2E2E2E2E2E2E2E2E2E2E2E2E2E2E2E2E2E2E2E2E2E2E2E2E2E2E2E2E2E2E2E2E2E2E2E2E2E2E2E2E2E2E2E2E2E2E2E2E2E2E2E2E2E2E2E2E2E2E2E2E2E2E2E2E2E2E2E2E2E2E2E2E2E2E2E2E2E2E2E2E2E2E2E2E2E2E2E2E2E2E2E2E2E2E2E2E2E2E2E2E2E2E2E2E2E2E2E2E2E2E2E2E2E2E2E2E2E2E2E2E2E2
310
E2E2E2E2E2E2E2E2E2E2E2E2E2E2F5E2E2E2E2F5E2E2E2E2E2E2E2E2E2E2E2E2E2F5E2E2E2E2E2E2E2E2E2E2E2E2F5E2F5F5F5E2F5E2E2E2E2BEE2E2BEE2E2E2E2E2E2E2E2E2E2E2E2E2E2E2E2E2E2E2E2E2E2E2E2E2E2E2E2E2E2E2E2E2E2E2E2E2E2E2E2E2E2E2E2E2E2E2E2E2E2E2E2E2F5E2E2E2E2F5E2E2E2E2E2E2E2
310
E2E2E2E2E2E2E2E2E2E2E2E2E2E2E2E2E2E2E2E2E2E2E2E2E2E2E2E2E2E2E2E2E2E2E2E2E2E2E2E2E2E2E2E2E2E2E2E2E2E2E2E2E2E2E2E2E2E2E2E2E2E2E2E2E2E2E2E2E2E2E2E2E2E2E2E2E2E2E2E2E2E2E2E2E2E2E2E2E2E2E2E2E2E2E2E2E2E2E2E2E2E2E2E2E2E2E2E2E2E2E2E2E2E2E2E2E2E2E2E2E2E2E2E2E2F5F5
310
F5F5F5F5F5F5F5F5F5F5F5F5E2E2E2E2F5E2E2E2E2F5E2E2E2E2E2E2E2E2E2E2E2E2E2F5E2E2E2E2E2E2E2E2E2E2E2E2F5E2E2F5F5E2F5E2E2E2E2BEE2E2BEE2E2E2E2E2E2E2E2E2E2E2E2E2E2E2E2E2E2E2E2E2E2E2E2E2E2E2E2E2E2E2E2E2E2E2E2E2E2E2E2E2E2E2E2E2E2E2E2E2E2E2E2E2F5E2E2E2E2F5E2E2E2E2E2
310
E2E2E2E2E2E2E2E2E2E2E2E2E2E2E2E2E2E2E2E2E2E2E2E2E2E2E2E2E2E2E2E2E2E2E2E2E2E2E2E2E2E2E2E2E2E2E2E2E2E2E2E2E2E2E2E2E2E2E2E2E2E2E2E2E2E2E2E2E2E2E2E2E2E2E2E2E2E2E2E2E2E2E2E2E2E2E2E2E2E2E2E2E2E2E2E2E2E2E2E2E2E2E2E2E2E2E2E2E2E2E2E2E2E2E2E2E2E2E2E2E2E2E2E2E2E2E2
310
F5F5F5F5F5F5F5F5F5F5E2F5F5E2F5E2E2E2F5E2E2E2E2F5E2E2E2E2E2E2E2E2E2E2E2E2E2F5E2E2E2E2E2E2E2E2E2E2E2E2F5E2E2E2E2E2F5E2E2E2E2BEE2E2BEE2E2E2E2E2E2E2E2E2E2E2E2E2E2E2E2E2E2E2E2E2E2E2E2E2E2E2E2E2E2E2E2E2E2E2E2E2E2E2E2E2E2E2E2E2E2E2E2E2E2E2E2E2F5BEBEBEBEF5BEBEBE
310
BEE2E2E2E2E2E2E2E2E2E2E2E2E2E2E2E2E2E2E2E2E2E2E2E2E2E2E2E2E2E2E2E2E2E2E2E2E2E2E2E2E2E2E2E2E2E2E2E2E2E2E2E2E2E2E2E2E2E2E2E2E2E2E2E2E2E2E2E2E2E2E2E2E2E2E2E2E2E2E2E2E2E2E2E2E2E2E2E2E2E2E2E2E2E2E2E2E2E2E2E2E2E2E2E2E2E2E2E2E2E2E2E2E2E2E2E2E2E2E2E2E2E2E2E2E2F5
310
F5F5F5F5F5F5F5F5F5F5F5F5F5F5F5E2BEBEBEBEF5BEBEBEBEF5E2E2E2E2E2E2E2E2E2E2E2E2E2F5E2E2E2E2E2E2E2E2E2E2E2E2F5E2E2E2BEBEF5F5F5F5F5F5F5F5F5F5F5F5F5F5F5F5F5F5E2E2E2E2E2E2E2E2E2E2E2E2E2E2E2E2E2E2E2E2E2E2E2E2E2E2E2E2E2E2E2E2E2E2E2E2E2E2E2E2E2E2E2E2F5E2F5F5F5F5F5
310
F5F5BEBEE2E2E2E2E2E2E2E2E2E2E2E2E2E2E2E2E2E2E2E2E2E2E2E2E2E2E2E2E2E2E2E2E2E2E2E2E2E2E2E2E2E2E2E2E2E2E2E2E2E2E2E2E2E2E2E2E2E2E2E2E2E2E2E2E2E2E2E2E2E2E2E2E2E2E2E2E2E2E2E2E2E2E2E2E2E2E2E2E2E2E2E2E2E2E2E2E2E2E2E2E2E2E2E2E2E2E2E2E2E2E2E2E2E2E2E2E2E2E2E2E2E2E2
310
E2F5F5F5F5F5F5F5F5F5F5F5F5E2F5F5F5BEBEF5F5F5F5F5F5F5BEF5E2E2E2E2E2E2E2E2E2E2E2E2E2F5E2E2E2E2E2E2E2E2E2E2BEBEF5BEBEBEE2F5BEE2E2E2E2BEE2E2BEE2E2E2E2E2E2E2F5F5E2E2E2E2E2E2E2E2E2E2E2E2E2E2E2E2E2E2E2E2E2E2E2E2E2E2E2E2E2E2E2E2E2E2E2E2E2E2E2E2E2E2E2E2BEF5E2E2E2
310
F5E2E2F5E2BEE2E2E2E2E2E2E2E2E2E2E2E2E2E2E2E2E2E2E2E2E2E2E2E2E2E2E2E2E2E2E2E2E2E2E2E2E2E2E2E2E2E2E2E2E2E2E2E2E2E2E2E2E2E2E2E2E2E2E2E2E2E2E2E2E2E2E2E2E2E2E2E2E2E2E2E2E2E2E2E2E2E2E2E2E2E2E2E2E2E2E2E2E2E2E2E2E2E2E2E2E2E2E2E2E2E2E2E2E2E2E2E2E2E2E2E2E2E2E2E2E2
310
E2E2E2E2E2E2E2E2E2E2E2E2E2E2E2E2E2E2E2BEF5F5E2E2F5E2E2F5F5BEE2E2E2E2E2E2E2E2E2E2E2E2E2F5E2E2E2E2BEBEBEBEBEBEF5BEF5F5BEF5F5F5BEE2E2E2E2BEE2E2BEE2E2E2E2E2E2E2E2F5E2E2E2E2E2E2E2E2E2E2E2E2E2E2E2E2E2E2E2E2E2E2E2E2E2E2E2E2E2E2E2E2E2E2E2E2E2E2E2E2E2E2E2E2BEF5BE
310
BEBEF5BEBEF5F5BEBEBEBEBEBEBEBEBEBEBEBEBEBEBEBEBEBEBEBEBEBEBEBEBEBEBEBEBEBEBEBEBEBEBEBEBEBEBEBEBEBEBEBEBEBEBEBEBEBEBEBEBEBEBEBEBEBEBEBEBEBEBEBEBEBEBEBEBEBEBEBEBEBEBEBEBEBEBEBEBEBEBEBEBEBEBEBEBEBEBEBEBEBEBEBEBEBEBEBEBEBEBEBEBEBEBEBEBEBEBEBEBEBEBEBEBEBEBEBE
310
BEBEBEBEBEBEBEBEBEBEBEBEBEBEBEBEBEBEBEBEBEBEF5BEBEBEF5BEBEBEF5BEE2E2E2E2E2E2E2E2E2E2E2E2E2BEBEBEBEBEE2E2E2E2E2F5E2E2F5F5E2E2E2E2BEE2E2E2E2BEE2E2BEE2E2E2E2E2E2F5F5F5E2E2E2E2E2E2E2E2E2E2E2E2E2E2E2E2E2E2E2E2E2E2E2E2E2E2E2E2E2E2E2E2E2E2E2E2E2E2E2E2E2E2E2E2BE
310
F5E2E2F5F5F5E2F5E2BEE2E2E2E2E2E2E2E2E2E2E2E2E2E2E2E2E2E2E2E2E2E2E2E2E2E2E2E2E2E2E2E2E2E2E2E2E2E2E2E2E2E2E2E2E2E2E2E2E2E2E2E2E2E2E2E2E2E2E2E2E2E2E2E2E2E2E2E2E2E2E2E2E2E2E2E2E2E2E2E2E2E2E2E2E2E2E2E2E2E2E2E2E2E2E2E2E2E2E2E2E2E2E2E2E2E2E2E2E2E2E2E2E2E2E2E2E2
310
E2E2F5E2E2E2E2E2E2E2E2E2E2E2E2E2E2E2E2E2E2E2E2BEF5E2E2F5F5F5E2E2F5BEE2E2E2E2E2E2E2E2E2E2E2E2E2BEE2E2E2E2E2E2E2E2E2F5F5E2F5F5E2E2F5BEBEF5F5F5F5F5F5F5F5F5E2E2E2E2E2F5F5F5E2E2E2E2E2E2E2E2E2E2E2E2E2E2E2E2E2E2E2E2E2E2E2E2E2E2E2E2E2E2E2E2E2E2E2E2E2E2E2E2E2E2E2
310
E2BEF5E2F5F5F5F5E2F5E2BEE2E2E2E2E2E2E2E2E2E2E2E2E2E2E2E2E2E2E2E2E2E2E2E2E2E2E2E2E2E2E2E2E2E2E2E2E2E2E2E2E2E2E2E2E2E2E2E2E2E2E2E2E2E2E2E2E2E2E2E2E2E2E2E2E2E2E2E2E2E2E2E2E2E2E2E2E2E2E2E2E2E2E2E2E2E2E2E2E2E2E2E2E2E2E2E2E2E2E2E2E2E2E2E2E2E2E2E2E2E2E2E2E2E2E2
310
E2E2E2E2F5E2E2E2E2E2F5E2E2E2E2E2E2E2E2E2E2E2E2E2E2BEF5E2F5F5F5F5F5E2F5BEE2E2E2E2E2E2E2E2E2E2E2E2E2BEE2E2E2E2E2E2E2E2E2E2E2F5F5E2F5F5F5F5F5F5F5F5F5F5F5F5F5F5F5F5F5F5F5F5F5F5E2E2E2E2E2E2E2E2E2E2E2E2E2E2E2E2E2E2E2E2E2E2E2E2E2E2E2E2E2E2E2E2E2E2E2E2E2E2E2E2E2
310
E2E2E2BEF5BEBEF5F5F5BEF5BEBEBEBEBEBEBEBEBEBEBEBEBEBEBEBEBEBEBEBEBEBEBEBEBEBEBEBEBEBEBEBEBEBEBEBEBEBEBEBEBEBEBEBEBEBEBEBEBEBEBEBEBEBEBEBEBEBEBEBEBEBEBEBEBEBEBEBEBEBEBEBEBEBEBEBEBEBEBEBEBEBEBEBEBEBEBEBEBEBEBEBEBEBEBEBEBEBEBEBEBEBEBEBEBEBEBEBEBEBEBEBEBEBEBE
310
BEBEBEBEBEBEBEBEBEBEBEBEBEBEBEBEBEBEBEBEBEBEBEBEBEBEBEBEF5F5BEF5F5F5BEF5F5BEE2E2E2E2E2E2E2E2E2E2E2E2E2BEBEBEBEBEBEBEBEBEBEBEBEBEBEBEBEBEBEBEBEF5F5F5F5F5F5F5F5F5F5E2F5F5F5F5F5F5E2E2E2E2E2E2E2E2E2E2E2E2E2E2E2E2E2E2E2E2E2E2E2E2E2E2E2E2E2E2E2E2E2E2E2E2E2E2E2
310
E2E2E2E2E2E2BEF5E2E2E2E2E2F5E2E2E2E2E2E2E2E2E2E2E2E2E2E2E2E2E2E2E2E2E2E2E2E2E2E2E2E2E2E2E2E2E2E2E2E2E2E2E2E2E2E2E2E2E2E2E2E2E2E2E2E2E2E2E2E2E2E2E2E2E2E2E2E2E2E2E2E2E2E2E2E2E2E2E2E2E2E2E2E2E2E2E2E2E2E2E2E2E2E2E2E2E2E2E2E2E2E2E2E2E2E2E2E2E2E2E2E2E2E2E2E2E2
310
E2E2E2E2E2E2E2E2F5E2E2E2E2E2F5E2E2E2E2E2E2E2E2E2E2E2E2E2E2E2BEF5E2E2E2E2E2F5BEE2E2E2E2E2E2E2E2E2E2E2E2E2E2E2E2E2E2BEBEBEBEBEBEE2E2E2E2E2E2F5E2E2BEE2E2E2E2BEE2E2BEE2E2E2F5F5E2F5F5F5E2E2E2E2E2E2E2E2E2E2E2E2E2E2E2E2E2E2E2E2E2E2E2E2E2E2E2E2E2E2E2E2E2E2E2E2E2
310
E2E2E2E2E2E2E2E2BEF5F5F5F5F5F5F5E2E2E2E2E2E2E2E2E2E2E2E2E2E2E2E2E2E2E2E2E2E2E2E2E2E2E2E2E2E2E2E2E2E2E2E2E2E2E2E2E2E2E2E2E2E2E2E2E2E2E2E2E2E2E2E2E2E2E2E2E2E2E2E2E2E2E2E2E2E2E2E2E2E2E2E2E2E2E2E2E2E2E2E2E2E2E2E2E2E2E2E2E2E2E2E2E2E2E2E2E2E2E2E2E2E2E2E2E2E2E2
310
E2E2E2E2E2E2E2E2E2F5F5E2E2E2E2E2E2F5E2E2E2E2E2E2E2E2E2E2E2E2E2E2BEF5F5F5F5F5F5F5BEE2E2E2E2E2E2E2E2E2E2E2E2E2E2E2E2E2E2E2E2E2E2E2E2BEBEBEBEBEBEE2F5F5BEE2E2E2E2BEE2E2BEE2E2E2F5F5E2E2E2F5E2E2E2E2E2E2E2E2E2E2E2E2E2E2E2E2E2E2E2E2E2E2E2E2E2E2E2E2E2E2E2E2E2E2E2
310
E2E2E2E2E2E2E2E2E2E2E2BEBEBEBEBEBEE2E2E2E2E2E2E2E2E2E2E2E2E2E2E2E2E2E2E2E2E2E2E2E2E2E2E2E2E2E2E2E2E2E2E2E2E2E2E2E2E2E2E2E2E2E2E2E2E2E2E2E2E2E2E2E2E2E2E2E2E2E2E2E2E2E2E2E2E2E2E2E2E2E2E2E2E2E2E2E2E2E2E2E2E2E2E2E2E2E2E2E2E2E2E2E2E2E2E2E2E2E2E2E2E2E2E2E2E2E2
310
E2E2E2E2E2E2E2E2E2E2E2F5F5E2E2E2E2E2E2F5E2E2E2E2E2E2E2E2E2E2E2E2E2E2E2BEBEBEBEBEBEBEE2E2E2E2E2E2E2E2E2E2E2E2E2E2E2E2E2E2E2E2E2E2E2E2E2E2E2E2E2E2E2BEBEBEF5F5F5F5F5F5F5F5F5F5F5F5F5F5F5F5F5F5E2E2E2E2E2E2E2E2E2E2E2E2E2E2E2E2E2E2E2E2E2E2E2E2E2E2E2E2E2E2E2E2E2
310
E2E2E2E2E2E2E2E2E2E2E2E2E2E2E2E2E2E2E2E2E2E2E2E2E2E2E2E2E2E2E2E2E2E2E2E2E2E2E2E2E2E2E2E2E2E2E2E2E2E2E2E2E2E2E2E2E2E2E2E2E2E2E2E2E2E2E2E2E2E2E2E2E2E2E2E2E2E2E2E2E2E2E2E2E2E2E2E2E2E2E2E2E2E2E2E2E2E2E2E2E2E2E2E2E2E2E2E2E2E2E2E2E2E2E2E2E2E2E2E2E2E2E2E2E2E2E2
310
E2E2E2E2E2E2E2E2E2E2E2E2E2E2F5E2E2E2E2E2E2F5F5F5F5F5F5F5F5F5F5F5F5F5F5E2E2E2E2E2E2E2E2E2E2E2E2E2E2E2E2E2E2E2E2E2E2E2E2E2E2E2E2E2E2E2E2E2E2E2E2E2E2E2E2E2E2E2BEE2E2E2E2BEE2E2BEE2E2E2E2E2E2E2E2E2E2E2E2E2E2E2E2E2E2E2E2E2E2E2E2E2E2E2E2E2E2E2E2E2E2E2E2E2E2E2E2
310
E2E2E2E2E2E2E2E2E2E2E2E2E2E2E2E2E2E2E2E2E2E2E2E2E2E2E2E2E2E2E2E2E2E2E2E2E2E2E2E2E2E2E2E2E2E2E2E2E2E2E2E2E2E2E2E2E2E2E2E2E2E2E2E2E2E2E2E2E2E2E2E2E2E2E2E2E2E2E2E2E2E2E2E2E2E2E2E2E2E2E2E2E2E2E2E2E2E2E2E2E2E2E2E2E2E2E2E2E2E2E2E2E2E2E2E2E2E2E2E2E2E2E2E2E2E2E2
310
E2E2E2E2E2E2E2E2E2E2E2E2E2E2E2E2E2E2E2E2E2E2E2E2F5F5F5F5F5F5F5F5F5F5F5F5F5F5E2E2E2E2E2E2E2E2E2E2E2E2E2E2E2E2E2E2E2E2E2E2E2E2E2E2E2E2E2E2E2E2E2E2E2E2E2E2E2E2E2E2BEE2E2E2E2BEE2E2BEE2E2E2E2E2E2E2E2E2E2E2E2E2E2E2E2E2E2E2E2E2E2E2E2E2E2E2E2E2E2E2E2E2E2E2E2E2E2
310
E2E2E2E2E2E2E2E2E2E2E2E2E2E2E2E2E2E2E2E2E2E2E2E2E2E2E2E2E2E2E2E2E2E2E2E2E2E2E2E2E2E2E2E2E2E2E2E2E2E2E2E2E2E2E2E2E2E2E2E2E2E2E2E2E2E2E2E2E2E2E2E2E2E2E2E2E2E2E2E2E2E2E2E2E2E2E2E2E2E2E2E2E2E2E2E2E2E2E2E2E2E2E2E2E2E2E2E2E2E2E2E2E2E2E2E2E2E2E2E2E2E2E2E2E2E2E2
310
E2E2E2E2E2E2E2E2E2E2E2E2E2E2E2E2E2E2E2E2E2E2E2E2E2E2F5F5F5F5F5F5F5F5F5F5F5F5E2E2E2E2E2E2E2E2E2E2E2E2E2E2E2E2E2E2E2E2E2E2E2E2E2E2E2E2E2E2E2E2E2E2E2E2E2E2E2E2E2E2E2E2BEE2E2E2E2BEE2E2BEE2E2E2E2E2E2E2E2E2E2E2E2E2E2E2E2E2E2E2E2E2E2E2E2E2E2E2E2E2E2E2E2E2E2E2E2
310
E2E2E2E2E2E2E2E2E2E2E2E2E2E2E2E2E2E2E2E2E2E2E2E2E2E2E2E2E2E2E2E2E2E2E2E2E2E2E2E2E2E2E2E2E2E2E2E2E2E2E2E2E2E2E2E2E2E2E2E2E2E2E2E2E2E2E2E2E2E2E2E2E2E2E2E2E2E2E2E2E2E2E2E2E2E2E2E2E2E2E2E2E2E2E2E2E2E2E2E2E2E2E2E2E2E2E2E2E2E2E2E2E2E2E2E2E2E2E2E2E2E2E2E2E2E2E2
310
E2E2E2E2E2E2E2E2E2E2E2E2E2E2E2E2E2E2E2E2E2E2E2E2E2E2E2E2F5F5F5F5F5F5F5F5F5F5F5F5E2E2E2E2E2E2E2E2E2E2E2E2E2E2E2E2E2E2E2E2E2E2E2E2E2E2E2E2E2E2E2E2E2E2E2E2E2E2E2E2E2E2E2E2BEE2E2E2E2BEE2E2BEE2E2E2E2E2E2E2E2E2E2E2E2E2E2E2E2E2E2E2E2E2E2E2E2E2E2E2E2E2E2E2E2E2E2
310
E2E2E2E2E2E2E2E2E2E2E2E2E2E2E2E2E2E2E2E2E2E2E2E2E2E2E2E2E2E2E2E2E2E2E2E2E2E2E2E2E2E2E2E2E2E2E2E2E2E2E2E2E2E2E2E2E2E2E2E2E2E2E2E2E2E2E2E2E2E2E2E2E2E2E2E2E2E2E2E2E2E2E2E2E2E2E2E2E2E2E2E2E2E2E2E2E2E2E2E2E2E2E2E2E2E2E2E2E2E2E2E2E2E2E2E2E2E2E2E2E2E2E2E2E2E2E2
310
E2E2E2E2E2E2E2E2E2E2E2E2E2E2E2E2E2E2E2E2E2E2E2E2E2E2E2E2E2E2E2E2E2E2E2E2E2E2E2E2E2E2E2E2E2E2E2E2E2E2E2E2E2E2E2E2E2E2E2E2E2E2E2E2E2E2E2E2E2E2E2E2E2E2E2E2E2E2E2E2E2E2E2E2E2E2BEE2E2E2E2BEE2E2BEE2E2E2E2E2E2E2E2E2E2E2E2E2E2E2E2E2E2E2E2E2E2E2E2E2E2E2E2E2E2E2E2
310
E2E2E2E2E2E2E2E2E2E2E2E2E2E2E2E2E2E2E2E2E2E2E2E2E2E2E2E2E2E2E2E2E2E2E2E2E2E2E2E2E2E2E2E2E2E2E2E2E2E2E2E2E2E2E2E2E2E2E2E2E2E2E2E2E2E2E2E2E2E2E2E2E2E2E2E2E2E2E2E2E2E2E2E2E2E2E2E2E2E2E2E2E2E2E2E2E2E2E2E2E2E2E2E2E2E2E2E2E2E2E2E2E2E2E2E2E2E2E2E2E2E2E2E2E2E2E2
310
E2E2E2E2E2E2E2E2E2E2E2E2E2E2E2E2E2E2E2E2E2E2E2E2E2E2E2E2E2E2E2E2E2E2E2E2E2E2E2E2E2E2E2E2E2E2E2E2E2E2E2E2E2E2E2E2E2E2E2E2E2E2E2E2E2E2E2E2E2E2E2E2E2E2E2E2E2E2E2E2E2E2E2E2E2E2E2E2BEE2E2E2E2BEE2E2BEE2E2E2E2E2E2E2E2E2E2E2E2E2E2E2E2E2E2E2E2E2E2E2E2E2E2E2E2E2E2
310
E2E2E2E2E2E2E2E2E2E2E2E2E2E2E2E2E2E2E2E2E2E2E2E2E2E2E2E2E2E2E2E2E2E2E2E2E2E2E2E2E2E2E2E2E2E2E2E2E2E2E2E2E2E2E2E2E2E2E2E2E2E2E2E2E2E2E2E2E2E2E2E2E2E2E2E2E2E2E2E2E2E2E2E2E2E2E2E2E2E2E2E2E2E2E2E2E2E2E2E2E2E2E2E2E2E2E2E2E2E2E2E2E2E2E2E2E2E2E2E2E2E2E2E2E2E2E2
310
E2E2E2E2E2E2E2E2E2E2E2E2E2E2E2E2E2E2E2E2E2E2E2E2E2E2E2E2E2E2E2E2E2E2E2E2E2E2E2E2E2E2E2E2E2E2E2E2E2E2E2E2E2E2E2E2E2E2E2E2E2E2E2E2E2E2E2E2E2E2E2E2E2E2E2E2E2E2E2E2E2E2E2E2E2E2E2E2E2E2BEE2F5E2E2BEF5E2BEE2E2E2E2E2E2E2E2E2E2E2E2E2E2E2E2E2E2E2E2E2E2E2E2E2E2E2E2
310
E2E2E2E2E2E2E2E2E2E2E2E2E2E2E2E2E2E2E2E2E2E2E2E2E2E2E2E2E2E2E2E2E2E2E2E2E2E2E2E2E2E2E2E2E2E2E2E2E2E2E2E2E2E2E2E2E2E2E2E2E2E2E2E2E2E2E2E2E2E2E2E2E2E2E2E2E2E2E2E2E2E2E2E2E2E2E2E2E2E2E2E2E2E2E2E2E2E2E2E2E2E2E2E2E2E2E2E2E2E2E2E2E2E2E2E2E2E2E2E2E2E2E2E2E2E2E2
310
E2E2E2E2E2E2E2E2E2E2E2E2E2E2E2E2E2E2E2E2E2E2E2E2E2E2E2E2E2E2E2E2E2E2E2E2E2E2E2E2E2E2E2E2E2E2E2E2E2E2E2E2E2E2E2E2E2E2E2E2E2E2E2E2E2E2E2E2E2E2E2E2E2E2E2E2E2E2E2E2E2E2E2E2E2E2E2E2E2E2E2E2BEE2F5E2E2BEF5E2BEE2E2E2E2E2E2E2E2E2E2E2E2E2E2E2E2E2E2E2E2E2E2E2E2E2E2
310
E2E2E2E2E2E2E2E2E2E2E2E2E2E2E2E2E2E2E2E2E2E2E2E2E2E2E2E2E2E2E2E2E2E2E2E2E2E2E2E2E2E2E2E2E2E2E2E2E2E2E2E2E2E2E2E2E2E2E2E2E2E2E2E2E2E2E2E2E2E2E2E2E2E2E2E2E2E2E2E2E2E2E2E2E2E2E2E2E2E2E2E2E2E2E2E2E2E2E2E2E2E2E2E2E2E2E2E2E2E2E2E2E2E2E2E2E2E2E2E2E2E2E2E2E2E2E2
310
E2E2E2E2E2E2E2E2E2E2E2E2E2E2E2E2E2E2E2E2E2E2E2E2E2E2E2E2E2E2E2E2E2E2E2E2E2E2E2E2E2E2E2E2E2E2E2E2E2E2E2E2E2E2E2E2E2E2E2E2E2E2E2E2E2E2E2E2E2E2E2E2E2E2E2E2E2E2E2E2E2E2E2E2E2E2E2E2E2E2E2E2E2E2E2E2F5E2E2E2F5E2E2E2E2E2E2E2E2E2E2E2E2E2E2E2E2E2E2E2E2E2E2E2E2E2E2
310
E2E2E2E2E2E2E2E2E2E2E2E2E2E2E2E2E2E2E2E2E2E2E2E2E2E2E2E2E2E2E2E2E2E2E2E2E2E2E2E2E2E2E2E2E2E2E2E2E2E2E2E2E2E2E2E2E2E2E2E2E2E2E2E2E2E2E2E2E2E2E2E2E2E2E2E2E2E2E2E2E2E2E2E2E2E2E2E2E2E2E2E2E2E2E2E2E2E2E2E2E2E2E2E2E2E2E2E2E2E2E2E2E2E2E2E2E2E2E2E2E2E2E2E2E2E2E2
310
E2E2E2E2E2E2E2E2E2E2E2E2E2E2E2E2E2E2E2E2E2E2E2E2E2E2E2E2E2E2E2E2E2E2E2E2E2E2E2E2E2E2E2E2E2E2E2E2E2E2E2E2E2E2E2E2E2E2E2E2E2E2E2E2E2E2E2E2E2E2E2E2E2E2E2E2E2E2E2E2E2E2E2E2E2E2E2E2E2E2E2E2E2E2E2E2E2E2E2F5E2E2E2F5E2E2E2E2E2E2E2E2E2E2E2E2E2E2E2E2E2E2E2E2E2E2E2
310
E2E2E2E2E2E2E2E2E2E2E2E2E2E2E2E2E2E2E2E2E2E2E2E2E2E2E2E2E2E2E2E2E2E2E2E2E2E2E2E2E2E2E2E2E2E2E2E2E2E2E2E2E2E2E2E2E2E2E2E2E2E2E2E2E2E2E2E2E2E2E2E2E2E2E2E2E2E2E2E2E2E2E2E2E2E2E2E2E2E2E2E2E2E2E2E2E2E2E2E2E2E2E2E2E2E2E2E2E2E2E2E2E2E2E2E2E2E2E2E2E2E2E2E2E2E2E2
310
E2E2E2E2E2E2E2E2E2E2E2E2E2E2E2E2E2E2E2E2E2E2E2E2E2E2E2E2E2E2E2E2E2E2E2E2E2E2E2E2E2E2E2E2E2E2E2E2E2E2E2E2E2E2E2E2E2E2E2E2E2E2E2E2E2E2E2E2E2E2E2E2E2E2E2E2E2E2E2E2E2E2E2E2E2E2E2E2E2E2E2E2E2E2E2E2E2E2E2E2E2F5E2E2E2F5E2E2E2E2E2E2E2E2E2E2E2E2E2E2E2E2E2E2E2E2E2
310
E2E2E2E2E2E2E2E2E2E2E2E2E2E2E2E2E2E2E2E2E2E2E2E2E2E2E2E2E2E2E2E2E2E2E2E2E2E2E2E2E2E2E2E2E2E2E2E2E2E2E2E2E2E2E2E2E2E2E2E2E2E2E2E2E2E2E2E2E2E2E2E2E2E2E2E2E2E2E2E2E2E2E2E2E2E2E2E2E2E2E2E2E2E2E2E2E2E2E2E2E2E2E2E2E2E2E2E2E2E2E2E2E2E2E2E2E2E2E2E2E2E2E2E2E2E2E2
310
E2E2E2E2E2E2E2E2E2E2E2E2E2E2E2E2E2E2E2E2E2E2E2E2E2E2E2E2E2E2E2E2E2E2E2E2E2E2E2E2E2E2E2E2E2E2E2E2E2E2E2E2E2E2E2E2E2E2E2E2E2E2E2E2E2E2E2E2E2E2E2E2E2E2E2E2E2E2E2E2E2E2E2E2E2E2E2E2E2E2E2E2E2E2E2E2E2E2E2E2E2E2E2BEBEBEE2F5BEBEBEBEBEBEBEBEBEE2E2E2E2E2E2E2E2E2E2
310
E2E2E2E2E2E2E2E2E2E2E2E2E2E2E2E2E2E2E2E2E2E2E2E2E2E2E2E2E2E2E2E2E2E2E2E2E2E2E2E2E2E2E2E2E2E2E2E2E2E2E2E2E2E2E2E2E2E2E2E2E2E2E2E2E2E2E2E2E2E2E2E2E2E2E2E2E2E2E2E2E2E2E2E2E2E2E2E2E2E2E2E2E2E2E2E2E2E2E2E2E2E2E2E2E2E2E2E2E2E2E2E2E2E2E2E2E2E2E2E2E2E2E2E2E2E2E2
310
E2E2E2E2E2E2E2E2E2E2E2E2E2E2E2E2E2E2E2E2E2E2E2E2E2E2E2E2E2E2E2E2E2E2E2E2E2E2E2E2E2E2E2E2E2E2E2E2E2E2E2E2E2E2E2E2E2E2E2E2E2E2E2E2E2E2E2E2E2E2E2E2E2E2E2E2E2E2E2E2E2E2E2E2E2E2E2E2E2E2E2E2E2E2E2E2E2E2E2E2E2E2E2E2E2BEBEBEE2BEBEBEBEBEBEBEBEBEBEE2E2E2E2E2E2E2E2
310
E2E2E2E2E2E2E2E2E2E2E2E2E2E2E2E2E2E2E2E2E2E2E2E2E2E2E2E2E2E2E2E2E2E2E2E2E2E2E2E2E2E2E2E2E2E2E2E2E2E2E2E2E2E2E2E2E2E2E2E2E2E2E2E2E2E2E2E2E2E2E2E2E2E2E2E2E2E2E2E2E2E2E2E2E2E2E2E2E2E2E2E2E2E2E2E2E2E2E2E2E2E2E2E2E2E2E2E2E2E2E2E2E2E2E2E2E2E2E2E2E2E2E2E2E2E2E2
310
E2E2E2E2E2E2E2E2E2E2E2E2E2E2E2E2E2E2E2E2E2E2E2E2E2E2E2E2E2E2E2E2E2E2E2E2E2E2E2E2E2E2E2E2E2E2E2E2E2E2E2E2E2E2E2E2E2E2E2E2E2E2E2E2E2E2E2E2E2E2E2E2E2E2E2E2E2E2E2E2E2E2E2E2E2E2E2E2E2E2E2E2E2E2E2E2E2E2E2E2E2E2E2E2E2E2E2E2E2E2E2E2E2E2E2E2E2E2E2E2E2E2E2E2E2E2E2
310
E2E2E2E2E2E2E2E2E2E2E2E2E2E2E2E2E2E2E2E2E2E2E2E2E2E2E2E2E2E2E2E2E2E2E2E2E2E2E2E2E2E2E2E2E2E2E2E2E2E2E2E2E2E2E2E2E2E2E2E2E2E2E2E2E2E2E2E2E2E2E2E2E2E2E2E2E2E2E2E2E2E2E2E2E2E2E2E2E2E2E2E2E2E2E2E2E2E2E2E2E2E2E2E2E2E2E2E2E2E2E2E2E2E2E2E2E2E2E2E2E2E2E2E2E2E2E2
310
E2E2E2E2E2E2E2E2E2E2E2E2E2E2E2E2E2E2E2E2E2E2E2E2E2E2E2E2E2E2E2E2E2E2E2E2E2E2E2E2E2E2E2E2E2E2E2E2E2E2E2E2E2E2E2E2E2E2E2E2E2E2E2E2E2E2E2E2E2E2E2E2E2E2E2E2E2E2E2E2E2E2E2E2E2E2E2E2E2E2E2E2E2E2E2E2E2E2E2E2E2E2E2E2E2E2E2E2E2E2E2E2E2E2E2E2E2E2E2E2E2E2E2E2E2E2E2
310
E2E2E2E2E2E2E2E2E2E2E2E2E2E2E2E2E2E2E2E2E2E2E2E2E2E2E2E2E2E2E2E2E2E2E2E2E2E2E2E2E2E2E2E2E2E2E2E2E2E2E2E2E2E2E2E2E2E2E2E2E2E2E2E2E2E2E2E2E2E2E2E2E2E2E2E2E2E2E2E2E2E2E2E2E2E2E2E2E2E2E2E2E2E2E2E2E2E2E2E2E2E2E2E2E2E2E2E2E2E2E2E2E2E2E2E2E2E2E2E2E2E2E2E2E2E2E2
310
E2E2E2E2E2E2E2E2E2E2E2E2E2E2E2E2E2E2E2E2E2E2E2E2E2E2E2E2E2E2E2E2E2E2E2E2E2E2E2E2E2E2E2E2E2E2E2E2E2E2E2E2E2E2E2E2E2E2E2E2E2E2E2E2E2E2E2E2E2E2E2E2E2E2E2E2E2E2E2E2E2E2E2E2E2E2E2E2E2E2E2E2E2E2E2E2E2E2E2E2E2E2E2E2E2E2E2E2E2E2E2E2E2E2E2E2E2E2E2E2E2E2E2E2E2E2E2
310
E2E2E2E2E2E2E2E2E2E2E2E2E2E2E2E2E2E2E2E2E2E2E2E2E2E2E2E2E2E2E2E2E2E2E2E2E2E2E2E2E2E2E2BEBEBEBEBEF5BEBEBEBEBEBEBEBEBEBEBEBEBEBEBEBEBEBEBEBEBEBEBEBEBEBEBEBEBEBEBEBEBEBEBEBEBEBEBEBEBEBEBEBEBEBEBEBEBEBEBEBEBEBEBEBEBEBEBEBEBEBEBEBEBEBEBEBEBEBEBEBEBEBEBEBEBEBE
310
BEBEBEBEBEBEBEBEBEBEBEBEBEBEBEBEBEBEBEBEBEBEBEBEBEBEBEBEBEBEBEBEBEBEBEBEBEBEBEBEBEBEBEBEBEBEBEBEBEBEBEBEBEBEBEBEBEBEBEBEBEBEBEBEBEBEBEBEBEBEBEBEBEBEBEBEBEE2E2E2E2E2E2E2E2E2E2E2E2E2E2E2E2E2E2E2E2E2E2E2E2E2E2E2E2E2E2E2E2E2E2E2E2E2E2E2E2E2E2E2E2E2E2E2E2E2E2
310
E2E2E2E2E2E2E2E2E2E2E2E2E2E2E2E2E2E2E2E2E2E2E2E2E2E2E2E2E2E2E2E2E2E2E2E2E2E2E2E2E2E2E2E2E2BEE2E2E2E2F5E2E2E2BEBEE2E2E2E2E2E2E2E2E2E2E2E2E2E2E2E2E2E2E2E2E2E2E2E2E2E2E2E2E2E2E2E2E2E2E2E2E2E2E2E2E2E2E2E2E2E2E2E2E2E2E2E2E2E2E2E2E2E2E2E2E2E2E2E2E2E2E2E2E2E2E2
310
E2E2E2E2E2E2E2E2E2E2E2E2E2E2E2E2E2E2E2E2E2E2E2E2E2E2E2E2E2E2E2E2E2E2E2E2E2E2E2E2E2E2E2E2E2E2E2E2E2E2E2E2E2E2E2E2F5E2E2E2E2E2E2E2E2E2E2E2E2BEBEE2E2E2E2E2E2E2BEBEE2E2E2E2E2E2E2E2E2E2E2E2E2E2E2E2E2E2E2E2E2E2E2E2E2E2E2E2E2E2E2E2E2E2E2E2E2E2E2E2E2E2E2E2E2E2E2
310
E2E2E2E2E2E2E2E2E2E2E2E2E2E2E2E2E2E2E2E2E2E2E2E2E2E2E2E2E2E2E2E2E2E2E2E2E2E2E2E2E2E2E2E2E2E2E2BEE2E2E2E2F5E2E2E2E2BEE2E2E2E2E2E2E2E2E2E2E2E2E2E2E2E2E2E2E2E2E2E2E2E2E2E2E2E2E2E2E2E2E2E2E2E2E2E2E2E2E2E2E2E2E2E2E2E2E2E2E2E2E2E2E2E2E2E2E2E2E2E2E2E2E2E2E2E2E2
310
E2E2E2E2E2E2E2E2E2E2E2E2E2E2E2E2E2E2E2E2E2E2E2E2E2E2E2E2E2E2E2E2E2E2E2E2E2E2E2E2E2E2E2E2E2E2E2E2E2E2E2E2E2E2E2E2E2E2F5E2E2E2E2E2E2E2E2E2E2E2E2BEE2E2E2E2E2E2E2E2E2BEE2E2E2E2E2E2E2E2E2E2E2E2E2E2E2E2E2E2E2E2E2E2E2E2E2E2E2E2E2E2E2E2E2E2E2E2E2E2E2E2E2E2E2E2E2
310
E2E2E2E2E2E2E2E2E2E2E2E2E2E2E2E2E2E2E2E2E2E2E2E2E2E2E2E2E2E2E2E2E2E2E2E2E2E2E2E2E2E2E2E2E2E2E2E2E2BEE2E2E2E2F5E2E2E2E2BEE2E2E2E2E2E2E2E2E2E2E2E2E2E2E2E2E2E2E2E2E2E2E2E2E2E2E2E2E2E2E2E2E2E2E2E2E2E2E2E2E2E2E2E2E2E2E2E2E2E2E2E2E2E2E2E2E2E2E2E2E2E2E2E2E2E2E2
310
E2E2E2E2E2E2E2E2E2E2E2E2E2E2E2E2E2E2E2E2E2E2E2E2E2E2E2E2E2E2E2E2E2E2E2E2E2E2E2E2E2E2E2E2E2E2E2E2E2E2E2E2E2E2E2E2E2E2E2E2F5E2E2E2E2E2E2E2E2E2E2E2E2BEE2E2E2E2E2E2E2E2E2BEE2E2E2E2E2E2E2E2E2E2E2E2E2E2E2E2E2E2E2E2E2E2E2E2E2E2E2E2E2E2E2E2E2E2E2E2E2E2E2E2E2E2E2
310
E2E2E2E2E2E2E2E2E2E2E2E2E2E2E2E2E2E2E2E2E2E2E2E2E2E2E2E2E2E2E2E2E2E2E2E2E2E2E2E2E2E2E2E2E2E2E2E2E2E2E2BEE2E2E2E2F5E2E2E2BEBEE2E2E2E2E2E2E2E2E2E2E2E2E2E2E2E2E2E2E2E2E2E2E2E2E2E2E2E2E2E2E2E2E2E2E2E2E2E2E2E2E2E2E2E2E2E2E2E2E2E2E2E2E2E2E2E2E2E2E2E2E2E2E2E2E2
310
E2E2E2E2E2E2E2E2E2E2E2E2E2E2E2E2E2E2E2E2E2E2E2E2E2E2E2E2E2E2E2E2E2E2E2E2E2E2E2E2E2E2E2E2E2E2E2E2E2E2E2E2E2E2E2E2E2E2E2E2E2E2F5E2E2E2E2E2E2E2E2E2E2E2E2BEE2E2E2E2E2E2E2E2E2BEE2E2E2E2E2E2E2E2E2E2E2E2E2E2E2E2E2E2E2E2E2E2E2E2E2E2E2E2E2E2E2E2E2E2E2E2E2E2E2E2E2
310
E2E2E2E2E2E2E2E2E2E2E2E2E2E2E2E2E2E2E2E2E2E2E2E2E2E2E2E2E2E2E2E2E2E2E2E2E2E2E2E2E2E2E2E2E2E2E2E2E2E2E2E2E2BEE2E2E2E2F5E2E2E2BEBEE2E2E2E2E2E2E2E2E2E2E2E2E2E2E2E2E2E2E2E2E2E2E2E2E2E2E2E2E2E2E2E2E2E2E2E2E2E2E2E2E2E2E2E2E2E2E2E2E2E2E2E2E2E2E2E2E2E2E2E2E2E2E2
310
E2E2E2E2E2E2E2E2E2E2E2E2E2E2E2E2E2E2E2E2E2E2E2E2E2E2E2E2E2E2E2E2E2E2E2E2E2E2E2E2E2E2E2E2E2E2E2E2E2E2E2E2E2E2E2E2E2E2E2E2E2E2E2E2F5E2E2E2E2E2E2E2E2E2E2E2E2BEE2E2E2E2E2E2E2E2E2BEE2E2E2E2E2E2E2E2E2E2E2E2E2E2E2E2E2E2E2E2E2E2E2E2E2E2E2E2E2E2E2E2E2E2E2E2E2E2E2
310
E2E2E2E2E2E2E2E2E2E2E2E2E2E2E2E2E2E2E2E2E2E2E2E2E2E2E2E2E2E2E2E2E2E2E2E2E2E2E2E2E2E2E2E2E2E2E2E2E2E2E2E2E2E2E2BEBEE2E2E2F5E2E2E2BEBEE2E2E2E2E2E2E2E2E2E2E2E2E2E2E2E2E2E2E2E2E2E2E2E2E2E2E2E2E2E2E2E2E2E2E2E2E2E2E2E2E2E2E2E2E2E2E2E2E2E2E2E2E2E2E2E2E2E2E2E2E2
310
E2E2E2E2E2E2E2E2E2E2E2E2E2E2E2E2E2E2E2E2E2E2E2E2E2E2E2E2E2E2E2E2E2E2E2E2E2E2E2E2E2E2E2E2E2E2E2E2E2E2E2E2E2E2E2E2E2E2E2E2E2E2E2E2E2E2F5E2E2E2E2E2E2E2E2E2E2E2E2BEBEE2E2E2E2E2E2E2BEBEE2E2E2E2E2E2E2E2E2E2E2E2E2E2E2E2E2E2E2E2E2E2E2E2E2E2E2E2E2E2E2E2E2E2E2E2E2
310
E2E2E2E2E2E2E2E2E2E2E2E2E2E2E2E2E2E2E2E2E2E2E2E2E2E2E2E2E2E2E2E2E2E2E2E2E2E2E2E2E2E2E2E2E2E2E2E2E2E2E2E2E2E2E2E2E2BEBEE2E2E2F5E2E2E2BEBEBEBEBEBEBEBEBEBEBEBEBEBEBEBEBEBEBEBEBEBEBEBEBEBEBEBEBEBEBEBEBEBEBEBEBEBEBEBEBEBEBEBEBEBEBEBEBEBEBEBEBEBEBEBEBEBEBEBEBE
310
BEBEBEBEBEBEBEBEBEBEBEBEBEBEBEBEBEBEBEBEBEBEBEBEBEBEBEBEBEBEBEBEBEBEBEBEBEBEBEBEBEBEBEBEBEBEBEBEBEBEBEBEBEBEBEBEBEBEBEBEBEBEBEBEBEBEBEBEBEBEBEBEBEBEBEBEBEBEBEBEBEBEBEE2E2E2E2E2E2E2BEBEE2E2E2E2E2E2E2E2E2E2E2E2E2E2E2E2E2E2E2E2E2E2E2E2E2E2E2E2E2E2E2E2E2E2E2
310
E2E2E2E2E2E2E2E2E2E2E2E2E2E2E2E2E2E2E2E2E2E2E2E2E2E2E2E2E2E2E2E2E2E2E2E2E2E2E2E2E2E2E2E2E2E2E2E2E2E2E2E2E2E2E2E2E2E2E2BEBEE2E2E2F5E2E2E2BEBEE2E2E2E2E2E2E2E2E2E2E2E2E2E2E2E2E2E2E2E2E2E2E2E2E2E2E2E2E2E2E2E2E2E2E2E2E2E2E2E2E2E2E2E2E2E2E2E2E2E2E2E2E2E2E2E2E2
310
E2E2E2E2E2E2E2E2E2E2E2E2E2E2E2E2E2E2E2E2E2E2E2E2E2E2E2E2E2E2E2E2E2E2E2E2E2E2E2E2E2E2E2E2E2E2E2E2E2E2E2E2E2E2E2E2E2E2E2E2E2E2E2E2E2E2E2E2E2E2F5E2E2E2E2E2E2E2E2E2E2E2E2BEBEE2E2E2E2E2E2E2BEBEE2E2E2E2E2E2E2E2E2E2E2E2E2E2E2E2E2E2E2E2E2E2E2E2E2E2E2E2E2E2E2E2E2
310
E2E2E2E2E2E2E2E2E2E2E2E2E2E2E2E2E2E2E2E2E2E2E2E2E2E2E2E2E2E2E2E2E2E2E2E2E2E2E2E2E2E2E2E2E2E2E2E2E2E2E2E2E2E2E2E2E2E2E2E2E2BEBEE2E2E2F5E2E2E2BEBEE2E2E2E2E2E2E2E2E2E2E2E2E2E2E2E2E2E2E2E2E2E2E2E2E2E2E2E2E2E2E2E2E2E2E2E2E2E2E2E2E2E2E2E2E2E2E2E2E2E2E2E2E2E2E2
310
E2E2E2E2E2E2E2E2E2E2E2E2E2E2E2E2E2E2E2E2E2E2E2E2E2E2E2E2E2E2E2E2E2E2E2E2E2E2E2E2E2E2E2E2E2E2E2E2E2E2E2E2E2E2E2E2E2E2E2E2E2E2E2E2E2E2E2E2E2E2E2E2F5E2E2E2E2E2E2E2E2E2E2E2E2BEBEE2E2E2E2E2E2E2BEBEE2E2E2E2E2E2E2E2E2E2E2E2E2E2E2E2E2E2E2E2E2E2E2E2E2E2E2E2E2E2E2
310
E2E2E2E2E2E2E2E2E2E2E2E2E2E2E2E2E2E2E2E2E2E2E2E2E2E2E2E2E2E2E2E2E2E2E2E2E2E2E2E2E2E2E2E2E2E2E2E2E2E2E2E2E2E2E2E2E2E2E2E2E2E2E2BEBEF5F5F5F5F5F5BEF5BEE2E2E2E2E2E2E2E2E2E2E2E2E2E2E2E2E2E2E2E2E2E2E2E2E2E2E2E2E2E2E2E2E2E2E2E2E2E2E2E2E2E2E2E2E2E2E2E2E2E2E2E2E2
310
E2E2E2E2E2E2E2E2E2E2E2E2E2E2E2E2E2E2E2E2E2E2E2E2E2E2E2E2E2E2E2E2E2E2E2E2E2E2E2E2E2E2E2E2E2E2E2E2E2E2E2E2E2E2E2E2E2E2E2E2E2E2E2E2E2E2E2E2E2E2E2E2F5F5F5E2E2E2E2E2E2E2E2E2E2E2E2BEBEF5F5F5F5F5F5F5BEBEE2E2E2E2E2E2E2E2E2E2E2E2E2E2E2E2E2E2E2E2E2E2E2E2E2E2E2E2E2
310
E2E2E2E2E2E2E2E2E2E2E2E2E2E2E2E2E2E2E2E2E2E2E2E2E2E2E2E2E2E2E2E2E2E2E2E2E2E2E2E2E2E2E2E2E2E2E2E2E2E2E2E2E2E2E2E2E2E2E2E2E2E2E2E2E2BEBEE2E2E2F5E2E2BEF5BEE2E2E2E2E2E2E2E2E2E2E2E2E2E2E2E2E2E2E2E2E2E2E2E2E2E2E2E2E2E2E2E2E2E2E2E2E2E2E2E2E2E2E2E2E2E2E2E2E2E2E2
310
E2E2E2E2E2E2E2E2E2E2E2E2E2E2E2E2E2E2E2E2E2E2E2E2E2E2E2E2E2E2E2E2E2E2E2E2E2E2E2E2E2E2E2E2E2E2E2E2E2E2E2E2E2E2E2E2E2E2E2E2E2E2E2E2E2E2E2E2E2E2E2E2E2E2F5F5F5E2E2E2E2E2E2E2E2E2E2E2E2BEBEE2E2E2E2E2E2E2BEBEE2E2E2E2E2E2E2E2E2E2E2E2E2E2E2E2E2E2E2E2E2E2E2E2E2E2E2
310
E2E2E2E2E2E2E2E2E2E2E2E2E2E2E2E2E2E2E2E2E2E2E2E2E2E2E2E2E2E2E2E2E2E2E2E2E2E2E2E2E2E2E2E2E2E2E2E2E2E2E2E2E2E2E2E2E2E2E2E2E2E2E2E2E2E2E2BEBEE2E2E2F5E2E2BEF5BEE2E2E2E2E2E2E2E2E2E2E2E2E2E2E2E2E2E2E2E2E2E2E2E2E2E2E2E2E2E2E2E2E2E2E2E2E2E2E2E2E2E2E2E2E2E2E2E2E2
310
E2E2E2E2E2E2E2E2E2E2E2E2E2E2E2E2E2E2E2E2E2E2E2E2E2E2E2E2E2E2E2E2E2E2E2E2E2E2E2E2E2E2E2E2E2E2E2E2E2E2E2E2E2E2E2E2E2E2E2E2E2E2E2E2E2E2E2E2E2E2E2E2E2E2E2E2F5F5F5E2E2E2E2E2E2E2E2E2E2E2E2BEBEE2E2E2F5E2E2E2BEBEE2E2E2E2E2E2E2E2E2E2E2E2E2E2E2E2E2E2E2E2E2E2E2E2E2
310
E2E2E2E2E2E2E2E2E2E2E2E2E2E2E2E2E2E2E2E2E2E2E2E2E2E2E2E2E2E2E2E2E2E2E2E2E2E2E2E2E2E2E2E2E2E2E2E2E2E2E2E2E2E2E2E2E2E2E2E2E2E2E2E2E2E2E2E2E2BEBEE2E2F5F5E2E2F5F5BEE2E2E2E2E2E2E2E2E2E2E2E2E2E2E2E2E2E2E2E2E2E2E2E2E2E2E2E2E2E2E2E2E2E2E2E2E2E2E2E2E2E2E2E2E2E2E2
310
E2E2E2E2E2E2E2E2E2E2E2E2E2E2E2E2E2E2E2E2E2E2E2E2E2E2E2E2E2E2E2E2E2E2E2E2E2E2E2E2E2E2E2E2E2E2E2E2E2E2E2E2E2E2E2E2E2E2E2E2E2E2E2E2E2E2E2E2E2E2E2E2E2E2E2E2E2E2E2E2E2E2E2E2E2E2E2E2E2E2E2E2E2BEF5E2E2F5F5F5E2E2BEBEE2E2E2E2E2E2E2E2E2E2E2E2E2E2E2E2E2E2E2E2E2E2E2
310
E2E2E2E2E2E2E2E2E2E2E2E2E2E2E2E2E2E2E2E2E2E2E2E2E2E2E2E2E2E2E2E2E2E2E2E2E2E2E2E2E2E2E2E2E2E2E2E2E2E2E2E2E2E2E2E2E2E2E2E2E2E2E2E2E2E2E2E2E2E2E2BEBEE2E2E2F5E2E2BEE2BEE2E2E2E2E2E2E2E2E2E2E2E2E2E2E2E2E2E2E2E2E2E2E2E2E2E2E2E2E2E2E2E2E2E2E2E2E2E2E2E2E2E2E2E2E2
310
E2E2E2E2E2E2E2E2E2E2E2E2E2E2E2E2E2E2E2E2E2E2E2E2E2E2E2E2E2E2E2E2E2E2E2E2E2E2E2E2E2E2E2E2E2E2E2E2E2E2E2E2E2E2E2E2E2E2E2E2E2E2E2E2E2E2E2E2E2E2E2E2E2E2E2E2E2E2E2E2E2E2E2E2E2E2E2E2E2E2E2E2E2E2E2BEBEE2E2E2F5E2E2E2BEBEE2E2E2E2E2E2E2E2E2E2E2E2E2E2E2E2E2E2E2E2E2
310
E2E2E2E2E2E2E2E2E2E2E2E2E2E2E2E2E2E2E2E2E2E2E2E2E2E2E2E2E2E2E2E2E2E2E2E2E2E2E2E2E2E2E2E2E2E2E2E2E2E2E2E2E2E2E2E2E2E2E2E2E2E2E2E2E2E2E2E2E2E2E2E2E2BEF5BEE2E2F5E2E2BEE2BEE2E2E2E2E2E2E2E2E2E2E2E2E2E2E2E2E2E2E2E2E2E2E2E2E2E2E2E2E2E2E2E2E2E2E2E2E2E2E2E2E2E2E2
310
E2E2E2E2E2E2E2E2E2E2E2E2E2E2E2E2E2E2E2E2E2E2E2E2E2E2E2E2E2E2E2E2E2E2E2E2E2E2E2E2E2E2E2E2E2E2E2E2E2E2E2E2E2E2E2E2E2E2E2E2E2E2E2E2E2E2E2E2E2E2E2E2E2E2E2E2E2E2E2E2E2E2E2E2E2E2E2E2E2E2E2E2E2E2E2E2E2BEF5BEE2E2F5E2E2BEF5BEE2E2E2E2E2E2E2E2E2E2E2E2E2E2E2E2E2E2E2
310
E2E2E2E2E2E2E2E2E2E2E2E2E2E2E2E2E2E2E2E2E2E2E2E2E2E2E2E2E2E2E2E2E2E2E2E2E2E2E2E2E2E2E2E2E2E2E2E2E2E2E2E2E2E2E2E2E2E2E2E2E2E2E2E2E2E2E2E2E2E2E2E2E2E2E2BEF5BEE2E2F5E2BEF5E2BEE2E2E2E2E2E2E2E2E2E2E2E2E2E2E2E2E2E2E2E2E2E2E2E2E2E2E2E2E2E2E2E2E2E2E2E2E2E2E2E2E2
310
E2E2E2E2E2E2E2E2E2E2E2E2E2E2E2E2E2E2E2E2E2E2E2E2E2E2E2E2E2E2E2E2E2E2E2E2E2E2E2E2E2E2E2E2E2E2E2E2E2E2E2E2E2E2E2E2E2E2E2E2E2E2E2E2E2E2E2E2E2E2E2E2E2E2E2E2E2E2E2E2E2E2E2E2E2E2E2E2E2E2E2E2E2E2E2E2E2E2E2BEF5BEE2E2F5E2E2BEF5BEE2E2E2E2E2E2E2E2E2E2E2E2E2E2E2E2E2
310
E2E2E2E2E2E2E2E2E2E2E2E2E2E2E2E2E2E2E2E2E2E2E2E2E2E2E2E2E2E2E2E2E2E2E2E2E2E2E2E2E2E2E2E2E2E2E2E2E2E2E2E2E2E2E2E2E2E2E2E2E2E2E2E2E2E2E2E2E2E2E2E2E2E2E2E2E2BEF5BEE2F5F5F5BEF5E2BEE2E2E2E2E2E2E2E2E2E2E2E2E2E2E2E2E2E2E2E2E2E2E2E2E2E2E2E2E2E2E2E2E2E2E2E2E2E2E2
310
E2E2E2E2E2E2E2E2E2E2E2E2E2E2E2E2E2E2E2E2E2E2E2E2E2E2E2E2E2E2E2E2E2E2E2E2E2E2E2E2E2E2E2E2E2E2E2E2E2E2E2E2E2E2E2E2E2E2E2E2E2E2E2E2E2E2E2E2E2E2E2E2E2E2E2E2E2E2E2E2E2E2E2E2E2E2E2E2E2E2E2E2E2E2E2E2E2E2E2E2E2BEF5BEE2F5F5F5E2BEF5BEE2E2E2E2E2E2E2E2E2E2E2E2E2E2E2
310
E2E2E2E2E2E2E2E2E2E2E2E2E2E2E2E2E2E2E2E2E2E2E2E2E2E2E2E2E2E2E2E2E2E2E2E2E2E2E2E2E2E2E2E2E2E2E2E2E2E2E2E2E2E2E2E2E2E2E2E2E2E2E2E2E2E2E2E2E2E2E2E2E2E2E2E2E2E2E2BEF5BEE2F5F5F5BEF5E2BEE2E2E2E2E2E2E2E2E2E2E2E2E2E2E2E2E2E2E2E2E2E2E2E2E2E2E2E2E2E2E2E2E2E2E2E2E2
310
E2E2E2E2E2E2E2E2E2E2E2E2E2E2E2E2E2E2E2E2E2E2E2E2E2E2E2E2E2E2E2E2E2E2E2E2E2E2E2E2E2E2E2E2E2E2E2E2E2E2E2E2E2E2E2E2E2E2E2E2E2E2E2E2E2E2E2E2E2E2E2E2E2E2E2E2E2E2E2E2E2E2E2E2E2E2E2E2E2E2E2E2E2E2E2E2E2E2E2E2E2E2E2BEF5BEE2F5F5F5E2BEF5BEE2E2E2E2E2E2E2E2E2E2E2E2E2
310
E2E2E2E2E2E2E2E2E2E2E2E2E2E2E2E2E2E2E2E2E2E2E2E2E2E2E2E2E2E2E2E2E2E2E2E2E2E2E2E2E2E2E2E2E2E2E2E2E2E2E2E2E2E2E2E2E2E2E2E2E2E2E2E2E2E2E2E2E2E2E2E2E2E2E2E2E2E2E2E2E2BEBEBEBEBEF5BEBEBEBEBEE2E2E2E2E2E2E2E2E2E2E2E2E2E2E2E2E2E2E2E2E2E2E2E2E2E2E2E2E2E2E2E2E2E2E2
310
E2E2E2E2E2E2E2E2E2E2E2E2E2E2E2E2E2E2E2E2E2E2E2E2E2E2E2E2E2E2E2E2E2E2E2E2E2E2E2E2E2E2E2E2E2E2E2E2E2E2E2E2E2E2E2E2E2E2E2E2E2E2E2E2E2E2E2E2E2E2E2E2E2E2E2E2E2E2E2E2E2E2E2E2E2E2E2E2E2E2E2E2E2E2E2E2E2E2E2E2E2E2E2E2E2BEBEBEBEBEF5BEBEBEBEBEE2E2E2E2E2E2E2E2E2E2E2
310
E2E2E2E2E2E2E2E2E2E2E2E2E2E2E2E2E2E2E2E2E2E2E2E2E2E2E2E2E2E2E2E2E2E2E2E2E2E2E2E2E2E2E2E2E2E2E2E2E2E2E2E2E2E2E2E2E2E2E2E2E2E2E2E2E2E2E2E2E2E2E2E2E2E2E2E2E2E2E2E2E2E2E2E2E2E2E2F5F5F5E2E2E2E2E2E2E2E2E2E2E2E2E2E2E2E2E2E2E2E2E2E2E2E2E2E2E2E2E2E2E2E2E2E2E2E2E2
310
E2E2E2E2E2E2E2E2E2E2E2E2E2E2E2E2E2E2E2E2E2E2E2E2E2E2E2E2E2E2E2E2E2E2E2E2E2E2E2E2E2E2E2E2E2E2E2E2E2E2E2E2E2E2E2E2E2E2E2E2E2E2E2E2E2E2E2E2E2E2E2E2E2E2E2E2E2E2E2E2E2E2E2E2E2E2E2E2E2E2E2E2E2E2E2E2E2E2E2E2E2E2E2E2E2E2E2F5E2E2E2F5F5F5E2E2E2F5E2E2E2E2E2E2E2E2E2
310
E2E2E2E2E2E2E2E2E2E2E2E2E2E2E2E2E2E2E2E2E2E2E2E2E2E2E2E2E2E2E2E2E2E2E2E2E2E2E2E2E2E2E2E2E2E2E2E2E2E2E2E2E2E2E2E2E2E2E2E2E2E2E2E2E2E2E2E2E2E2E2E2E2E2E2E2E2E2E2E2E2E2E2E2E2E2E2E2E2F5F5F5E2E2E2E2E2E2E2E2E2E2E2E2E2E2E2E2E2E2E2E2E2E2E2E2E2E2E2E2E2E2E2E2E2E2E2
310
E2E2E2E2E2E2E2E2E2E2E2E2E2E2E2E2E2E2E2E2E2E2E2E2E2E2E2E2E2E2E2E2E2E2E2E2E2E2E2E2E2E2E2E2E2E2E2E2E2E2E2E2E2E2E2E2E2E2E2E2E2E2E2E2E2E2E2E2E2E2E2E2E2E2E2E2E2E2E2E2E2E2E2E2E2E2E2E2E2E2E2E2E2E2E2E2E2E2E2E2E2E2E2E2E2E2E2E2E2F5E2E2E2F5F5F5E2E2E2F5E2E2E2E2E2E2E2
310
E2E2E2E2E2E2E2E2E2E2E2E2E2E2E2E2E2E2E2E2E2E2E2E2E2E2E2E2E2E2E2E2E2E2E2E2E2E2E2E2E2E2E2E2E2E2E2E2E2E2E2E2E2E2E2E2E2E2E2E2E2E2E2E2E2E2E2E2E2E2E2E2E2E2E2E2E2E2E2E2E2E2E2E2E2E2E2E2E2E2E2F5F5F5E2E2E2E2E2E2E2E2E2E2E2E2E2E2E2E2E2E2E2E2E2E2E2E2E2E2E2E2E2E2E2E2E2
310
E2E2E2E2E2E2E2E2E2E2E2E2E2E2E2E2E2E2E2E2E2E2E2E2E2E2E2E2E2E2E2E2E2E2E2E2E2E2E2E2E2E2E2E2E2E2E2E2E2E2E2E2E2E2E2E2E2E2E2E2E2E2E2E2E2E2E2E2E2E2E2E2E2E2E2E2E2E2E2E2E2E2E2E2E2E2E2E2E2E2E2E2E2E2E2E2E2E2E2E2E2E2E2E2E2E2E2E2E2E2E2F5E2E2E2F5F5F5E2E2E2F5E2E2E2E2E2
310
E2E2E2E2E2E2E2E2E2E2E2E2E2E2E2E2E2E2E2E2E2E2E2E2E2E2E2E2E2E2E2E2E2E2E2E2E2E2E2E2E2E2E2E2E2E2E2E2E2E2E2E2E2E2E2E2E2E2E2E2E2E2E2E2E2E2E2E2E2E2E2E2E2E2E2E2E2E2E2E2E2E2E2E2E2E2E2E2E2E2E2E2E2F5F5F5E2E2E2E2E2E2E2E2E2E2E2E2E2E2E2E2E2E2E2E2E2E2E2E2E2E2E2E2E2E2E2
310
E2E2E2E2E2E2E2E2E2E2E2E2E2E2E2E2E2E2E2E2E2E2E2E2E2E2E2E2E2E2E2E2E2E2E2E2E2E2E2E2E2E2E2E2E2E2E2E2E2E2E2E2E2E2E2E2E2E2E2E2E2E2E2E2E2E2E2E2E2E2E2E2E2E2E2E2E2E2E2E2E2E2E2E2E2E2E2E2E2E2E2E2E2E2E2E2E2E2E2E2E2E2E2E2E2E2E2E2E2E2E2E2E2F5E2E2E2F5F5F5E2E2E2F5E2E2E2
310
E2E2E2E2E2E2E2E2E2E2E2E2E2E2E2E2E2E2E2E2E2E2E2E2E2E2E2E2E2E2E2E2E2E2E2E2E2E2E2E2E2E2E2E2E2E2E2E2E2E2E2E2E2E2E2E2E2E2E2E2E2E2E2E2E2E2E2E2E2E2E2E2E2E2E2E2E2E2E2E2E2E2E2E2E2E2E2E2E2E2E2E2E2E2E2F5F5F5E2E2E2E2E2E2E2E2E2E2E2E2E2E2E2E2E2E2E2E2E2E2E2E2E2E2E2E2E2
310
E2E2E2E2E2E2E2E2E2E2E2E2E2E2E2E2E2E2E2E2E2E2E2E2E2E2E2E2E2E2E2E2E2E2E2E2E2E2E2E2E2E2E2E2E2E2E2E2E2E2E2E2E2E2E2E2E2E2E2E2E2E2E2E2E2E2E2E2E2E2E2E2E2E2E2E2E2E2E2E2E2E2E2E2E2E2E2E2E2E2E2E2E2E2E2E2E2E2E2E2E2E2E2E2E2E2E2E2E2E2E2E2E2E2E2F5E2E2E2F5F5F5E2E2E2F5E2
310
E2E2E2E2E2E2E2E2E2E2E2E2E2E2E2E2E2E2E2E2E2E2E2E2E2E2E2E2E2E2E2E2E2E2E2E2E2E2E2E2E2E2E2E2E2E2E2E2E2E2E2E2E2E2E2E2E2E2E2E2E2E2E2E2E2E2E2E2E2E2E2E2E2E2E2E2E2E2E2E2E2E2E2E2E2E2E2E2E2E2E2E2E2E2E2E2E2F5F5F5E2E2E2E2E2E2E2E2E2E2E2E2E2E2E2E2E2E2E2E2E2E2E2E2E2E2E2
310
E2E2E2E2E2E2E2E2E2E2E2E2E2E2E2E2E2E2E2E2E2E2E2E2E2E2E2E2E2E2E2E2E2E2E2E2E2E2E2E2E2E2E2E2E2E2E2E2E2E2E2E2E2E2E2E2E2E2E2E2E2E2E2E2E2E2E2E2E2E2E2E2E2E2E2E2E2E2E2E2E2E2E2E2E2E2E2E2E2E2E2E2E2E2E2E2E2E2E2E2E2E2E2E2E2E2E2E2E2E2E2E2E2E2E2E2E2F5E2E2E2F5F5F5E2E2E2
310
F5E2E2E2E2E2E2E2E2E2E2E2E2E2E2E2E2E2E2E2E2E2E2E2E2E2E2E2E2E2E2E2E2E2E2E2E2E2E2E2E2E2E2E2E2E2E2E2E2E2E2E2E2E2E2E2E2E2E2E2E2E2E2E2E2E2E2E2E2E2E2E2E2E2E2E2E2E2E2E2E2E2E2E2E2E2E2E2E2E2E2E2E2E2E2E2E2E2E2F5F5F5E2E2E2E2E2E2E2E2E2E2E2E2E2E2E2E2E2E2E2E2E2E2E2E2E2
310
E2E2E2E2E2E2E2E2E2E2E2E2E2E2E2E2E2E2E2E2E2E2E2E2E2E2E2E2E2E2E2E2E2E2E2E2E2E2E2E2E2E2E2E2E2E2E2E2E2E2E2E2E2E2E2E2E2E2E2E2E2E2E2E2E2E2E2E2E2E2E2E2E2E2E2E2E2E2E2E2E2E2E2E2E2E2E2E2E2E2E2E2E2E2E2E2E2E2E2E2E2E2E2E2E2E2E2E2E2E2E2E2E2E2E2E2E2E2E2F5E2E2E2F5F5F5E2
310
E2E2F5E2E2E2E2E2E2E2E2E2E2E2E2E2E2E2E2E2E2E2E2E2E2E2E2E2E2E2E2E2E2E2E2E2E2E2E2E2E2E2E2E2E2E2E2E2E2E2E2E2E2E2E2E2E2E2E2E2E2E2E2E2E2E2E2E2E2E2E2E2E2E2E2E2E2E2E2E2E2E2E2E2E2E2E2E2E2E2E2E2E2E2E2E2E2E2E2E2E2F5F5F5E2E2E2E2E2E2E2E2E2E2E2E2E2E2E2E2E2E2E2E2E2E2E2
310
E2E2E2E2E2E2E2E2E2E2E2E2E2E2E2E2E2E2E2E2E2E2E2E2E2E2E2E2E2E2E2E2E2E2E2E2E2E2E2E2E2E2E2E2E2E2E2E2E2E2E2E2E2E2E2E2E2E2E2E2E2E2E2E2E2E2E2E2E2E2E2E2E2E2E2E2E2E2E2E2E2E2E2E2E2E2E2E2E2E2E2E2E2E2E2E2E2E2E2E2E2E2E2E2E2E2E2E2E2E2E2E2E2E2E2E2E2E2E2E2E2F5E2E2E2F5F5
310
F5E2E2E2F5E2E2E2E2E2E2E2E2E2E2E2E2E2E2E2E2E2E2E2E2E2E2E2E2E2E2E2E2E2E2E2E2E2E2E2E2E2E2E2E2E2E2E2E2E2E2E2E2E2E2E2E2E2E2E2E2E2E2E2E2E2E2E2E2E2E2E2E2E2E2E2E2E2E2E2E2E2E2E2E2E2E2E2E2E2E2E2E2E2E2E2E2E2E2E2E2E2E2F5F5E2E2E2E2E2E2E2E2E2E2E2E2E2E2E2E2E2E2E2E2E2E2
310
E2E2E2E2E2E2E2E2E2E2E2E2E2E2E2E2E2E2E2E2E2E2E2E2E2E2E2E2E2E2E2E2E2E2E2E2E2E2E2E2E2E2E2E2E2E2E2E2E2E2E2E2E2E2E2E2E2E2E2E2E2E2E2E2E2E2E2E2E2E2E2E2E2E2E2E2E2E2E2E2E2E2E2E2E2E2E2E2E2E2E2E2E2E2E2E2E2E2E2E2E2E2E2E2E2E2E2E2E2E2E2E2E2E2E2E2E2E2E2E2E2E2E2F5E2E2E2
310
F5F5F5E2E2E2F5E2E2E2E2E2E2E2E2E2E2E2E2E2E2E2E2E2E2E2E2E2E2E2E2E2E2E2E2E2E2E2E2E2E2E2E2E2E2E2E2E2E2E2E2E2E2E2E2E2E2E2E2E2E2E2E2E2E2E2E2E2E2E2E2E2E2E2E2E2E2E2E2E2E2E2E2E2E2E2E2E2E2E2E2E2E2E2E2E2E2E2E2E2E2E2E2E2E2E2F5E2E2E2E2E2E2E2E2E2E2E2E2E2E2E2E2E2E2E2E2
310
E2E2E2E2E2E2E2E2E2E2E2E2E2E2E2E2E2E2E2E2E2E2E2E2E2E2E2E2E2E2E2E2E2E2E2E2E2E2E2E2E2E2E2E2E2E2E2E2E2E2E2E2E2E2E2E2E2E2E2E2E2E2E2E2E2E2E2E2E2E2E2E2E2E2E2E2E2E2E2E2E2E2E2E2E2E2E2E2E2E2E2E2E2E2E2E2E2E2E2E2E2E2E2E2E2E2E2E2E2E2E2E2E2E2E2E2E2E2E2E2E2E2E2E2E2F5E2
310
E2E2E2F5E2E2E2E2F5E2E2E2E2E2E2E2E2E2E2E2E2E2E2E2E2E2E2E2E2E2E2E2E2E2E2E2E2E2E2E2E2E2E2E2E2E2E2E2E2E2E2E2E2E2E2E2E2E2E2E2E2E2E2E2E2E2E2E2E2E2E2E2E2E2E2E2E2E2E2E2E2E2E2E2E2E2E2E2E2E2E2E2E2E2E2E2E2E2E2E2E2E2E2E2E2E2E2E2F5E2E2E2E2E2E2E2E2E2E2E2E2E2E2E2E2E2E2
310
E2E2E2E2E2E2E2E2E2E2E2E2E2E2E2E2E2E2E2E2E2E2E2E2E2E2E2E2E2E2E2E2E2E2E2E2E2E2E2E2E2E2E2E2E2E2E2E2E2E2E2E2E2E2E2E2E2E2E2E2E2E2E2E2E2E2E2E2E2E2E2E2E2E2E2E2E2E2E2E2E2E2E2E2E2E2E2E2E2E2E2E2E2E2E2E2E2E2E2E2E2E2E2E2E2E2E2E2E2E2E2E2E2E2E2E2E2E2E2E2E2E2E2E2E2E2E2
310
F5F5E2E2E2F5E2E2E2F5F5E2E2E2E2E2E2E2E2E2E2E2E2E2E2E2E2E2E2E2E2E2E2E2E2E2E2E2E2E2E2E2E2E2E2E2E2E2E2E2E2E2E2E2E2E2E2E2E2E2E2E2E2E2E2E2E2E2E2E2E2E2E2E2E2E2E2E2E2E2E2E2E2E2E2E2E2E2E2E2E2E2E2E2E2E2E2E2E2E2E2E2E2E2E2E2E2E2E2E2E2E2E2E2E2E2E2E2E2E2E2E2E2E2E2E2E2
310
E2E2E2E2E2E2E2E2E2E2E2E2E2E2E2E2E2E2E2E2E2E2E2E2E2E2E2E2E2E2E2E2E2E2E2E2E2E2E2E2E2E2E2E2E2E2E2E2E2E2E2E2E2E2E2E2E2E2E2E2E2E2E2E2E2E2E2E2E2E2E2E2E2E2E2E2E2E2E2E2E2E2E2E2E2E2E2E2E2E2E2E2E2E2E2E2E2E2E2E2E2E2E2E2E2E2E2E2E2E2E2E2E2E2E2E2E2E2E2E2E2E2E2E2E2E2E2
310
E2E2F5F5F5F5F5F5F5F5F5F5F5E2E2E2E2E2E2E2E2E2E2E2E2E2E2E2E2E2E2E2E2E2E2E2E2E2E2E2E2E2E2E2E2E2E2E2E2E2E2E2E2E2E2E2E2E2E2E2E2E2E2E2E2E2E2E2E2E2E2E2E2E2E2E2E2E2E2E2E2E2E2E2E2E2E2E2E2E2E2E2E2E2E2E2E2E2E2E2E2E2E2E2E2E2E2E2E2E2E2E2E2E2E2E2E2E2E2E2E2E2E2E2E2E2E2
310
E2E2E2E2E2E2E2E2E2E2E2E2E2E2E2E2E2E2E2E2E2E2E2E2E2E2E2E2E2E2E2E2E2E2E2E2E2E2E2E2E2E2E2E2E2E2E2E2E2E2E2E2E2E2E2E2E2E2E2E2E2E2E2E2E2E2E2E2E2E2E2E2E2E2E2E2E2E2E2E2E2E2E2E2E2E2E2E2E2E2E2E2E2E2E2E2E2E2E2E2E2E2E2E2E2E2E2E2E2E2E2E2E2E2E2E2E2E2E2E2E2E2E2E2E2E2E2
310
E2E2E2E2E2E2E2E2F5F5F5E2E2E2E2E2E2E2E2E2E2E2E2E2E2E2E2E2E2E2E2E2E2E2E2E2E2E2E2E2E2E2E2E2E2E2E2E2E2E2E2E2E2E2E2E2E2E2E2E2E2E2E2E2E2E2E2E2E2E2E2E2E2E2E2E2E2E2E2E2E2E2E2E2E2E2E2E2E2E2E2E2E2E2E2E2E2E2E2E2E2E2E2E2E2E2E2E2E2E2E2E2E2E2E2E2E2E2E2E2E2E2E2E2E2E2E2
310
E2E2E2E2E2E2E2E2E2E2E2E2E2E2E2E2E2E2E2E2E2E2E2E2E2E2E2E2E2E2E2E2E2E2E2E2E2E2E2E2E2E2E2E2E2E2E2E2E2E2E2E2E2E2E2E2E2E2E2E2E2E2E2E2E2E2E2E2E2E2E2E2E2E2E2E2E2E2E2E2E2E2E2E2E2E2E2E2E2E2E2E2E2E2E2E2E2E2E2E2E2E2E2E2E2E2E2E2E2E2E2E2E2E2E2E2E2E2E2E2E2E2E2E2E2E2E2
310
E2E2E2E2E2E2E2E2E2E2E2E2E2E2E2E2E2E2E2E2E2E2E2E2E2E2E2E2E2E2E2E2E2E2E2E2E2E2E2E2E2E2E2E2E2E2E2E2E2E2E2E2E2E2E2E2E2E2E2E2E2E2E2E2E2E2E2E2E2E2E2E2E2E2E2E2E2E2E2E2E2E2E2E2E2E2E2E2E2E2E2E2E2E2E2E2E2E2E2E2E2E2E2E2E2E2E2E2E2E2E2E2E2E2E2E2E2E2E2E2E2E2E2E2E2E2E2
310
E2E2E2E2E2E2E2E2E2E2E2E2E2E2E2E2E2E2E2E2E2E2E2E2E2E2E2E2E2E2E2E2E2E2E2E2E2E2E2E2E2E2E2E2E2E2E2E2E2E2E2E2E2E2E2E2E2E2E2E2E2E2E2E2E2E2E2E2E2E2E2E2E2E2E2E2E2E2E2E2E2E2E2E2E2E2E2E2E2E2E2E2E2E2E2E2E2E2E2E2E2E2E2E2E2E2E2E2E2E2E2E2E2E2E2E2E2E2E2E2E2E2E2E2E2E2E2
310
E2E2E2E2E2E2E2E2E2E2E2E2E2E2E2E2E2E2E2E2E2E2E2E2E2E2E2E2E2E2E2E2E2E2E2E2E2E2E2E2E2E2E2E2E2E2E2E2E2E2E2E2E2E2E2E2E2E2E2E2E2E2E2E2E2E2E2E2E2E2E2E2E2E2E2E2E2E2E2E2E2E2E2E2E2E2E2E2E2E2E2E2E2E2E2E2E2E2E2E2E2E2E2E2E2E2E2E2E2E2E2E2E2E2E2E2E2E2E2E2E2E2E2E2E2E2E2
310
E2E2E2E2E2E2E2E2E2E2E2E2E2E2E2E2E2E2E2E2E2E2E2E2E2E2E2E2E2E2E2E2E2E2E2E2E2E2E2E2E2E2E2E2E2E2E2E2E2E2E2E2E2E2E2E2E2E2E2E2E2E2E2E2E2E2E2E2E2E2E2E2E2E2E2E2E2E2E2E2E2E2E2E2E2E2E2E2E2E2E2E2E2E2E2E2E2E2E2E2E2E2E2E2E2E2E2E2E2E2E2E2E2E2E2E2E2E2E2E2E2E2E2E2E2E2E2
310
E2E2E2E2E2E2E2E2E2E2E2E2E2E2E2E2E2E2E2E2E2E2E2E2E2E2E2E2E2E2E2E2E2E2E2E2E2E2E2E2E2E2E2E2E2E2E2E2E2E2E2E2E2E2E2E2E2E2E2E2E2E2E2E2E2E2E2E2E2E2E2E2E2E2E2E2E2E2E2E2E2E2E2E2E2E2E2E2E2E2E2E2E2E2E2E2E2E2E2E2E2E2E2E2E2E2E2E2E2E2E2E2E2E2E2E2E2E2E2E2E2E2E2E2E2E2E2
310
E2E2E2E2E2E2E2E2E2E2E2E2E2E2E2E2E2E2E2E2E2E2E2E2E2E2E2E2E2E2E2E2E2E2E2E2E2E2E2E2E2E2E2E2E2E2E2E2E2E2E2E2E2E2E2E2E2E2E2E2E2E2E2E2E2E2E2E2E2E2E2E2E2E2E2E2E2E2E2E2E2E2E2E2E2E2E2E2E2E2E2E2E2E2E2E2E2E2E2E2E2E2E2E2E2F5F5F5F5F5F5F5F5F5F5F5F5F5F5F5F5F5F5F5F5F5F5
310
F5F5F5E2E2E2E2E2E2E2E2E2E2E2E2E2E2E2E2E2E2E2E2E2E2E2E2E2E2E2E2E2E2E2E2E2E2E2E2E2E2E2E2E2E2E2E2E2E2E2E2E2E2E2E2E2E2E2E2E2E2E2E2E2E2E2E2E2E2E2E2E2E2E2E2E2E2E2E2E2E2E2E2E2E2E2E2E2E2E2E2E2E2E2E2E2E2E2E2E2E2E2E2E2E2E2E2E2E2E2E2E2E2E2E2E2E2E2E2E2E2E2E2E2E2E2E2
310
E2E2E2E2E2E2E2E2E2E2E2E2E2E2E2E2E2E2E2E2E2E2E2E2E2E2E2E2E2E2E2E2E2E2E2E2E2E2E2E2E2E2E2E2E2E2E2E2E2E2E2E2E2E2E2E2E2E2E2E2E2E2E2E2E2E2E2E2E2E2E2E2E2E2E2E2E2E2E2E2E2E2E2E2E2E2E2E2E2E2E2E2E2E2E2E2E2E2E2E2E2E2E2E2E2E2E2F5E2E2F5F5F5F5F5E2F5E2E2F5F5F5F5F5F5F5F5
310
F5F5F5F5F5E2E2E2E2E2E2E2E2E2E2E2E2E2E2E2E2E2E2E2E2E2E2E2E2E2E2E2E2E2E2E2E2E2E2E2E2E2E2E2E2E2E2E2E2E2E2E2E2E2E2E2E2E2E2E2E2E2E2E2E2E2E2E2E2E2E2E2E2E2E2E2E2E2E2E2E2E2E2E2E2E2E2E2E2E2E2E2E2E2E2E2E2E2E2E2E2E2E2E2E2E2E2E2E2E2E2E2E2E2E2E2E2E2E2E2E2E2E2E2E2E2E2
310
E2E2E2E2E2E2E2E2E2E2E2E2E2E2E2E2E2E2E2E2E2E2E2E2E2E2E2E2E2E2E2E2E2E2E2E2E2E2E2E2E2E2E2E2E2E2E2E2E2E2E2E2E2E2E2E2E2E2E2E2E2E2E2E2E2E2E2E2E2E2E2E2E2E2E2E2E2E2E2E2E2E2E2E2E2E2E2E2E2E2E2E2E2E2E2E2E2E2E2E2E2E2E2E2E2E2E2E2E2F5F5F5F5F5F5F5F5F5F5F5F5F5F5F5F5F5F5
310
F5F5F5F5F5F5F5E2E2E2E2E2E2E2E2E2E2E2E2E2E2E2E2E2E2E2E2E2E2E2E2E2E2E2E2E2E2E2E2E2E2E2E2E2E2E2E2E2E2E2E2E2E2E2E2E2E2E2E2E2E2E2E2E2E2E2E2E2E2E2E2E2E2E2E2E2E2E2E2E2E2E2E2E2E2E2E2E2E2E2E2E2E2E2E2E2E2E2E2E2E2E2E2E2E2E2E2E2E2E2E2E2E2E2E2E2E2E2E2E2E2E2E2E2E2E2E2
310
E2E2E2E2E2E2E2E2E2E2E2E2E2E2E2E2E2E2E2E2E2E2E2E2E2E2E2E2E2E2E2E2E2E2E2E2E2E2E2E2E2E2E2E2E2E2E2E2E2E2E2E2E2E2E2E2E2E2E2E2E2E2E2E2E2E2E2E2E2E2E2E2E2E2E2E2E2E2E2E2E2E2E2E2E2E2E2E2E2E2E2E2E2E2E2E2E2E2E2E2E2E2E2E2E2E2E2E2E2E2E2F5E2E2F5F5F5F5F5F5F5E2E2F5E2E2E2
310
F5F5F5F5F5E2E2E2F5E2E2E2E2E2E2E2E2E2E2E2E2E2E2E2E2E2E2E2E2E2E2E2E2E2E2E2E2E2E2E2E2E2E2E2E2E2E2E2E2E2E2E2E2E2E2E2E2E2E2E2E2E2E2E2E2E2E2E2E2E2E2E2E2E2E2E2E2E2E2E2E2E2E2E2E2E2E2E2E2E2E2E2E2E2E2E2E2E2E2E2E2E2E2E2E2E2E2E2E2E2E2E2E2E2E2E2E2E2E2E2E2E2E2E2E2E2E2
310
E2E2E2E2E2E2E2E2E2E2E2E2E2E2E2E2E2E2E2E2E2E2E2E2E2E2E2E2E2E2E2E2E2E2E2E2E2E2E2E2E2E2E2E2E2E2E2E2E2E2E2E2E2E2E2E2E2E2E2E2E2E2E2E2E2E2E2E2E2E2E2E2E2E2E2E2E2E2E2E2E2E2E2E2E2E2E2E2E2E2E2E2E2E2E2E2E2E2E2E2E2E2E2E2E2E2E2E2E2E2E2E2E2F5F5F5F5F5F5F5F5F5F5F5F5F5F5
310
F5F5F5F5F5F5F5F5F5F5F5E2E2E2E2E2E2E2E2E2E2E2E2E2E2E2E2E2E2E2E2E2E2E2E2E2E2E2E2E2E2E2E2E2E2E2E2E2E2E2E2E2E2E2E2E2E2E2E2E2E2E2E2E2E2E2E2E2E2E2E2E2E2E2E2E2E2E2E2E2E2E2E2E2E2E2E2E2E2E2E2E2E2E2E2E2E2E2E2E2E2E2E2E2E2E2E2E2E2E2E2E2E2E2E2E2E2E2E2E2E2E2E2E2E2E2E2
310
E2E2E2E2E2E2E2E2E2E2E2E2E2E2E2E2E2E2E2E2E2E2E2E2E2E2E2E2E2E2E2E2E2E2E2E2E2E2E2E2E2E2E2E2E2E2E2E2E2E2E2E2E2E2E2E2E2E2E2E2E2E2E2E2E2E2E2E2E2E2E2E2E2E2E2E2E2E2E2E2E2E2E2E2E2E2E2E2E2E2E2E2E2E2E2E2E2E2E2E2E2E2E2E2E2E2E2E2E2E2E2E2E2E2E2E2F5F5F5F5E2E2E2E2F5F5F5
310
F5E2F5E2E2E2F5E2F5E2E2E2E2E2E2E2E2E2E2E2E2E2E2E2E2E2E2E2E2E2E2E2E2E2E2E2E2E2E2E2E2E2E2E2E2E2E2E2E2E2E2E2E2E2E2E2E2E2E2E2E2E2E2E2E2E2E2E2E2E2E2E2E2E2E2E2E2E2E2E2E2E2E2E2E2E2E2E2E2E2E2E2E2E2E2E2E2E2E2E2E2E2E2E2E2E2E2E2E2E2E2E2E2E2E2E2E2E2E2E2E2E2E2E2E2E2E2
310
E2E2E2E2E2E2E2E2E2E2E2E2E2E2E2E2E2E2E2E2E2E2E2E2E2E2E2E2E2E2E2E2E2E2E2E2E2E2E2E2E2E2E2E2E2E2E2E2E2E2E2E2E2E2E2E2E2E2E2E2E2E2E2E2E2E2E2E2E2E2E2E2E2E2E2E2E2E2E2E2E2E2E2E2E2E2E2E2E2E2E2E2E2E2E2E2E2E2E2E2E2E2E2E2E2E2E2E2E2E2E2E2E2E2E2E2E2F5E2F5F5E2F5E2E2F5E2
310
F5F5E2F5F5E2E2E2E2F5E2E2E2E2E2E2E2E2E2E2E2E2E2E2E2E2E2E2E2E2E2E2E2E2E2E2E2E2E2E2E2E2E2E2E2E2E2E2E2E2E2E2E2E2E2E2E2E2E2E2E2E2E2E2E2E2E2E2E2E2E2E2E2E2E2E2E2E2E2E2E2E2E2E2E2E2E2E2E2E2E2E2E2E2E2E2E2E2E2E2E2E2E2E2E2E2E2E2E2E2E2E2E2E2E2E2E2E2E2E2E2E2E2E2E2E2E2
310
E2E2E2E2E2E2E2E2E2E2E2E2E2E2E2E2E2E2E2E2E2E2E2E2E2E2E2E2E2E2E2E2E2E2E2E2E2E2E2E2E2E2E2E2E2E2E2E2E2E2E2E2E2E2E2E2E2E2E2E2E2E2E2E2E2E2E2E2E2E2E2E2E2E2E2E2E2E2E2E2E2E2E2E2E2E2E2E2E2E2E2E2E2E2E2E2E2E2E2E2E2E2E2E2E2E2E2E2E2E2E2E2E2E2E2E2E2E2E2E2F5E2F5E2E2F5F5
310
F5F5F5F5F5F5F5F5F5F5E2F5E2E2E2E2E2E2E2E2E2E2E2E2E2E2E2E2E2E2E2E2E2E2E2E2E2E2E2E2E2E2E2E2E2E2E2E2E2E2E2E2E2E2E2E2E2E2E2E2E2E2E2E2E2E2E2E2E2E2E2E2E2E2E2E2E2E2E2E2E2E2E2E2E2E2E2E2E2E2E2E2E2E2E2E2E2E2E2E2E2E2E2E2E2E2E2E2E2E2E2E2E2E2E2E2E2E2E2E2E2E2E2E2E2E2E2
310
E2E2E2E2E2E2E2E2E2E2E2E2E2E2E2E2E2E2E2E2E2E2E2E2E2E2E2E2E2E2E2E2E2E2E2E2E2E2E2E2E2E2E2E2E2E2E2E2E2E2E2E2E2E2E2E2E2E2E2E2E2E2E2E2E2E2E2E2E2E2E2E2E2E2E2E2E2E2E2E2E2E2E2E2E2E2E2E2E2E2E2E2E2E2E2E2E2E2E2E2E2E2E2E2E2E2E2E2E2E2E2E2E2E2E2E2E2E2E2E2E2F5F5F5F5F5F5
310
E2E2F5F5F5F5F5F5F5E2E2E2F5E2F5E2E2E2E2E2E2E2E2E2E2E2E2E2E2E2E2E2E2E2E2E2E2E2E2E2E2E2E2E2E2E2E2E2E2E2E2E2E2E2E2E2E2E2E2E2E2E2E2E2E2E2E2E2E2E2E2E2E2E2E2E2E2E2E2E2E2E2E2E2E2E2E2E2E2E2E2E2E2E2E2E2E2E2E2E2E2E2E2E2E2E2E2E2E2E2E2E2E2E2E2E2E2E2E2E2E2E2E2E2E2E2E2
310
E2E2E2E2E2E2E2E2E2E2E2E2E2E2E2E2E2E2E2E2E2E2E2E2E2E2E2E2E2E2E2E2E2E2E2E2E2E2E2E2E2E2E2E2E2E2E2E2E2E2E2E2E2E2E2E2E2E2E2E2E2E2E2E2E2E2E2E2E2E2E2E2E2E2E2E2E2E2E2E2E2E2E2E2E2E2E2E2E2E2E2E2E2E2E2E2E2E2E2E2E2E2E2E2E2E2E2E2E2E2E2E2E2E2E2E2E2E2E2E2E2E2E2E2E2E2E2
310
E2E2E2E2E2E2E2E2E2E2E2E2E2E2E2E2E2E2E2E2E2E2E2E2E2E2E2E2E2E2E2E2E2E2E2E2E2E2E2E2E2E2E2E2E2E2E2E2E2E2E2E2E2E2E2E2E2E2E2E2E2E2E2E2E2E2E2E2E2E2E2E2E2E2E2E2E2E2E2E2E2E2E2E2E2E2E2E2E2E2E2E2E2E2E2E2E2E2E2E2E2E2E2E2E2E2E2E2E2E2E2E2E2E2E2E2E2E2E2E2E2E2E2E2E2E2E2
310
E2E2E2E2E2E2E2E2E2E2E2E2E2E2E2E2E2E2E2E2E2E2E2E2E2E2E2E2E2E2E2E2E2E2E2E2E2E2E2E2E2E2E2E2E2E2E2E2E2E2E2E2E2E2E2E2E2E2E2E2E2E2E2E2E2E2E2E2E2E2E2E2E2E2E2E2E2E2E2E2E2E2E2E2E2E2E2E2E2E2E2E2E2E2E2E2E2E2E2E2E2E2E2E2E2E2E2E2E2E2E2E2E2E2E2E2E2E2E2E2E2E2E2E2E2E2E2
310
E2E2E2E2E2E2E2E2E2E2E2E2E2E2E2E2E2E2E2E2E2E2E2E2E2E2E2E2E2E2E2E2E2E2E2E2E2E2E2E2E2E2E2E2E2E2E2E2E2E2E2E2E2E2E2E2E2E2E2E2E2E2E2E2E2E2E2E2E2E2E2E2E2E2E2E2E2E2E2E2E2E2E2E2E2E2E2E2E2E2E2E2E2E2E2E2E2E2E2E2E2E2E2E2E2E2E2E2E2E2E2E2E2E2E2E2E2E2E2E2E2E2E2E2E2E2E2
310
E2E2E2E2E2E2E2E2E2E2E2E2E2E2E2E2E2E2E2E2E2E2E2E2E2E2E2E2E2E2E2E2E2E2E2E2E2E2E2E2E2E2E2E2E2E2E2E2E2E2E2E2E2E2E2E2E2E2E2E2E2E2E2E2E2E2E2E2E2E2E2E2E2E2E2E2E2E2E2E2E2E2E2E2E2E2E2E2E2E2E2E2E2E2E2E2E2E2E2E2E2E2E2E2E2E2E2E2E2E2E2E2E2E2E2E2E2E2E2E2E2E2E2E2E2E2E2
310
E2E2E2E2E2E2E2E2E2E2E2E2E2E2E2E2E2E2E2E2E2E2E2E2E2E2E2E2E2E2E2E2E2E2E2E2E2E2E2E2E2E2E2E2E2E2E2E2E2E2E2E2E2E2E2E2E2E2E2E2E2E2E2E2E2E2E2E2E2E2E2E2E2E2E2E2E2E2E2E2E2E2E2E2E2E2E2E2E2E2E2E2E2E2E2E2E2E2E2E2E2E2E2E2E2E2E2E2E2E2E2E2E2E2E2E2E2
  0
XRECORD
  5
222F1
102
{ACAD_REACTORS
330
1E041
102
}
330
1E041
100
AcDbXrecord
280
     1
102
SHADEPLOT
 70
     0
102
SHADEPLOTRESLEVEL
 70
     2
102
SHADEPLOTCUSTOMDPI
 70
   300
  0
XRECORD
  5
1E042
102
{ACAD_REACTORS
330
1E041
102
}
330
1E041
100
AcDbXrecord
280
     1
310
28000000B40000007F00000001000800000000004C590000000000000000000000010000000000003F3F3F0000000000FFFFFF000000000000000000000000000000000000000000000000000000000000000000330000006600000099000000CC000000FF00000000330000333300006633000099330000CC330000FF3300
310
0000660000336600006666000099660000CC660000FF66000000990000339900006699000099990000CC990000FF99000000CC000033CC000066CC000099CC0000CCCC0000FFCC000000FF000033FF000066FF000099FF0000CCFF0000FFFF000000003300330033006600330099003300CC003300FF003300003333003333
310
33006633330099333300CC333300FF33330000663300336633006666330099663300CC663300FF66330000993300339933006699330099993300CC993300FF99330000CC330033CC330066CC330099CC3300CCCC3300FFCC330000FF330033FF330066FF330099FF3300CCFF3300FFFF330000006600330066006600660099
310
006600CC006600FF00660000336600333366006633660099336600CC336600FF33660000666600336666006666660099666600CC666600FF66660000996600339966006699660099996600CC996600FF99660000CC660033CC660066CC660099CC6600CCCC6600FFCC660000FF660033FF660066FF660099FF6600CCFF6600
310
FFFF660000009900330099006600990099009900CC009900FF00990000339900333399006633990099339900CC339900FF33990000669900336699006666990099669900CC669900FF66990000999900339999006699990099999900CC999900FF99990000CC990033CC990066CC990099CC9900CCCC9900FFCC990000FF99
310
0033FF990066FF990099FF9900CCFF9900FFFF99000000CC003300CC006600CC009900CC00CC00CC00FF00CC000033CC003333CC006633CC009933CC00CC33CC00FF33CC000066CC003366CC006666CC009966CC00CC66CC00FF66CC000099CC003399CC006699CC009999CC00CC99CC00FF99CC0000CCCC0033CCCC0066CC
310
CC0099CCCC00CCCCCC00FFCCCC0000FFCC0033FFCC0066FFCC0099FFCC00CCFFCC00FFFFCC000000FF003300FF006600FF009900FF00CC00FF00FF00FF000033FF003333FF006633FF009933FF00CC33FF00FF33FF000066FF003366FF006666FF009966FF00CC66FF00FF66FF000099FF003399FF006699FF009999FF00CC
310
99FF00FF99FF0000CCFF0033CCFF0066CCFF0099CCFF00CCCCFF00FFCCFF0000FFFF0033FFFF0066FFFF0099FFFF00CCFFFF00FFFFFF00000000000D0D0D001A1A1A00282828003535350043434300505050005D5D5D006B6B6B00787878008686860093939300A1A1A100AEAEAE00BBBBBB00C9C9C900D6D6D600E4E4E400
310
F1F1F100FFFFFF0000000000000000000000000000000000000000000000000000000000000000000000000000000000E7E7E7E7E7E7E7E7E7E7E7E7E7E7E7E7E7E7E7E7E7E7E7E7E7E7E7E7E7E7E7E7E7E7E7E7E7E7E7E7E7E7E7E7E7E7E7E7E7E7E7E7E7E7E7E7E7E7E7E7E7E7E7E7E7E7E7E7E7E7E7E7E7E7E7E7E7E7E7
310
E7E7E7E7E7E7E7E7E7E7E7E7E7E7E7E7E7E7E7E7E7E7E7E7E7E7E7E7E7E7E7E7E7E7E7E7E7E7E7E7E7E7E7E7E7E7E7E7E7E7E7E7E7E7E7E7E7E7E7E7E7E7E7E7E7E7E7E7E7E7E7E7E7E7E7E7E7E7E7E7E7E7E7E7E7E7E7E7E7E7E7E7E7E7E7E7E7E7E7E7E7E7E7E7E7E7E7E7E7E7E7E7E7E7E7E7E7E7E7E7E7E7E7E7E7E7E7
310
E7E7E7E7E7E7E7E7E7E7E7E7E7E7E7E7E7E7E7E7E7E7E7E7E7E7E7E7E7E7E7E7E7E7E7E7E7E7E7E7E7E7E7E7E7E7E7E7E7E7E7E7E7E7E7E7E7E7E7E7E7E7E7E7E7E7E7E7E7E7E7E7E7E7E7E7E7E7E7E7E7E7E7E7E7E7E7E7E7E7E7E7E7E7E7E7E7E7E7E7E7E7E7E7E7E7E7E7E7E7E7E7E7E7E7E7E7E7E7E7E7E7E7E7E7E7E7
310
E7E7E7E7E7E7E7E7E7E7E7E7E7E7E7E7E7E7E7E7E7E7E7E7E7E7E7E7E7E7E7E7E7E7E7E7E7E7E7E7E7E7E7E7E7E7E7E7E7E7E7E7E7E7E7E7E7E7E7E7E7E7E7E7E7E7E7E7E7E7E7E7E7E7E7E7E7E7E7E7E7E7E7E7E7E7E7E7E7E7E7E7E7E7E7E7E7E7E7E7E7E7E7E7E7E7E7E7E7E7E7E7E7E7E7E7E7E7E7E7E7E7E7E7E7E7E7
310
E7E7E7E7E7E7E7E7E7E7E7E7E7E7E7E7E7E7E7E7E7E7E7E7E7E7E7E7E7E7E7E7E7E7E7E7E7E7E7E7E7E7E7E7E7E7E7E7E7E7E7E7E7E7E7E7E7E7E7E7E7E7E7E7E7E7E7E7E7E7E7E7E7E7E7E7E7E7E7E7E7E7E7E7E7E7E7E7E7E7E7E7E7E7E7E7E7E7E7E7E7E7E7E7E7E7E7E7E7E7E7E7E7E7E7E7E7E7E7E7E7E7E7E7E7E7E7
310
E7E7E7E7E7E7E7E7E7E7E7E7E7E7E7E7E7E7E7E7E7E7E7E7E7E7E7E7E7E7E7E7E7E7E7E7E7E7E7E7E7E7E7E7E7E7E7E7E7E7E7E7E7E7E7E7E7E7E7E7E7E7E7E7E7E7E7E7E7E7E7E7E7E7E7E7E7E7E7E7E7E7E7E7E7E7E7E7E7E7E7E7E7E7E7E7E7E7E7E7E7E7E7E7E7E7E7E7E7E7E7E7E7E7E7E7E7E7E7E7E7E7E7E7E7E7E7
310
E7E7E7E7E7E7E7E7E7E7E7E7E7E7E7E7E7E7E7E7E7E7E7E7E7E7E7E7E7E7E7E7E7E7E7E7E7E7E7E7E7E7E7E7E7E7E7E7E7E7E7E7E7E7E7E7E7E7E7E7E7E7E7E7E7E7E7E7E7E7E7E7E7E7E7E7E7E7E7E7E7E7E7E7E7E7E7E7E7E7E7E7E7E7E7E7E7E7E7E7E7E7E7E7E7E7E7E7E7E7E7E7E7E7E7E7E7E7E7E7E7E7E7E7E7E7E7
310
E7E7E7E7E7E7E7E7E7E7E7E7E7E7E7E7E7E7E7E7E7E7E7E7E7E7E7E7E7E7E7E7E7E7E7E7E7E7E7E7E7E7E7E7E7E7E7E7E7E7E7E7E7E7E7E7E7E7E7E7E7E7E7E7E7E7E7E7E7E7E7E7E7E7E7E7E7E7E7E7E7E7E7E7E7E7E7E7E7E7E7E7E7E7E7E7E7E7E7E7E7E7E7E7E7E7E7E7E7E7E7E7E7E7E7E7E7E7E7E7E7E7E7E7E7E7E7
310
E7E7E7E7E7E7E7E7E7E7E7E7E7E7E7E7E7E7E7E7E7E7E7E7E7E7E7E7E7E7E7E7E7E7E7E7E7E7E7E7E7E7E7E7E7E7E7E7E7E7E7E7E7E7E7E7E7E7E7E7E7E7E7E7E7E7E7E7E7E7E7E7E7E7E7E7E7E7E7E7E7E7E7E7E7E7E7E7E7E7E7E7E7E7E7E7E7E7E7E7E7E7E7E7E7E7E7E7E7E7E7E7E7E7E7E7E7E7E7E7E7E7E7E7E7E7E7
310
E7E7E7E7E7E7E7E7E7E7E7E7E7E7E7E7E7E7E7E7E7E7E7E7E7E7E7E7E7E7E7E7E7E7E7E7E7E7E7E7E7E7E7E7E7E7E7E7E7E7E7E7E7E7E7E7E7E7E7E7E7E7E7E7E7E7E7E7E7E7E7E7E7E7E7E7E7E7E7E7E7E7E7E7E7E7E7E7E7E7E7E7E7E7E7E7E7E7E7E7E7E7E7E7E7E7E7E7E7E7E7E7E7E7E7E7E7E7E7E7E7E7E7E7E7E7E7
310
E7E7E7E7E7E7E7E7E7E7E7E7E7E7E7E7E7E7E7E7E7E7E7E7E7E7E7E7E7E7E7E7E7E7E7E7E7E7E7E7E7E7E7E7E7E7E7E7E7E7E7E7E7E7E7E7E7E7E7E7E7E7E7E7E7E7E7E7E7E7E7E7E7E7E7E7E7E7E7E7E7E7E7E7E7E7E7E7E7E7E7E7E7E7E7E7E7E7E7E7E7E7E7E7E7E7E7E7E7E7E7E7E7E7E7E7E7E7E7E7E7E7E7E7E7E7E7
310
E7E7E7E7E7E7E7E7E7E7E7E7E7E7E7E7E7E7E7E7E7E7E7E7E7E7E7E7E7E7E7E7E7E7E7E7E7E7E7E7E7E7E7E7E7E7E7E7E7E7E7E7E7E7E7E7E7E7E7E7E7E7E7E7E7E7E7E7E7E7E7E7E7E7E7E7E7E7E7E7E7E7E7E7E7E7E7E7E7E7E7E7E7E7E7E7E7E7E7E7E7E7E7E7E7E7E7E7E7E7E7E7E7E7E7E7E7E7E7E7E7E7E7E7E7E7E7
310
E7E7E7E7E7E7E7E7E7E7E7E7E7E7E7E7E7E7E7E7E7E7E7E7E7E7E7E7E7E7E7E7E7E7E7E7E7E7E7E7E7E7E7E7E7E7E7E7E7E7E7E7E7E7E7E7E7E7E7E7E7E7E7E7E7E7E7E7E7E7E7E7E7E7E7E7E7E7E7E7E7E7E7E7E7E7E7E7E7E7E7E7E7E7E7E7E7E7E7E7E7E7E7E7E7E7E7E7E7E7E7E7E7E7E7E7E7E7E7E7E7E7E7E7E7E7E7
310
E7E7E7E7E7E7E7E7E7E7E7E7E7E7E7E7E7E7E7E7E7E7E7E7E7E7E7E7E7E7E7E7E7E7E7E7E7E7E7E7E7E7E7E7E7E7E7E7E7E7E7E7E7E7E7E7E7E7E7E7E7E7E7E7E7E7E7E7E7E7E7E7E7E7E7E7E7E7E7E7E7E7E7E7E7E7E7E7E7E7E7E7E7E7E7E7E7E7E7E7E7E7E7E7E7E7E7E7E7E7E7E7E7E7E7E7E7E7E7E7E7E7E7E7E7E7E7
310
E7E7E7E7E7E7E7E7E7E7E7E7E7E7E7E7E7E7E7E7E7E7E7E7E7E7E7E7E7E7E7E7E7E7E7E7E7E7E7E7E7E7E7E7E7E7E7E7E7E7E7E7E7E7E7E7E7E7E7E7E7E7E7E7E7E7E7E7E7E7E7E7E7E7E7E7E7E7E7E7E7E7E7E7E7E7E7E7E7E7E7E7E7E7E7E7E7E7E7E7E7E7E7E7E7E7E7E7E7E7E7E7E7E7E7E7E7E7E7E7E7E7E7E7E7E7E7
310
E7E7E7E7E7E7E7E7E7E7E7E7E7E7E7E7E7E7E7E7E7E7E7E7E7E7E7E7E7E7E7E7E7E7E7E7E7E7E7E7E7E7E7E7E7E7E7E7E7E7E7E7E7E7E7E7E7E7E7E7E7E7E7E7E7E7E7E7E7E7E7E7E7E7E7E7E7E7E7E7E7E7E7E7E7E7E7E7E7E7E7E7E7E7E7E7E7E7E7E7E7E7E7E7E7E7E7E7E7E7E7E7E7E7E7E7E7E7E7E7E7E7E7E7E7E7E7
310
E7E7E7E7E7E7E7E7E7E7E7E7E7E7E7E7E7E7E7E7E7E7E7E7E7E7E7E7E7E7E7E7E7E7E7E7E7E7E7E7E7E7E7E7E7E7E7E7E7E7E7E7E7E7E7E7E7E7E7E7E7E7E7E7E7E7E7E7E7E7E7E7E7E7E7E7E7E7E7E7E7E7E7E7E7E7E7E7E7E7E7E7E7E7E7E7E7E7E7E7E7E7E7E7E7E7E7E7E7E7E7E7E7E7E7E7E7E7E7E7E7E7E7E7E7E7E7
310
E7E7E7E7E7E7E7E7E7E7E7E7E7E7E7E7E7E7E7E7E7E7E7E7E7E7E7E7E7E7E7E7E7E7E7E7E7E7E7E7E7E7E7E7E7E7E7E7E7E7E7E7E7E7E7E7E7E7E7E7E7E7E7E7E7E7E7E7E7E7E7E7E7E7E7E7E7E7E7E7E7E7E7E7E7E7E7E7E7E7E7E7E7E7E7E7E7E7E7E7E7E7E7E7E7E7E7E7E7E7E7E7E7E7E7E7E7E7E7E7E7E7E7E7E7E7E7
310
E7E7E7E7E7E7E7E7E7E7E7E7E7E7E7E7E7E7E7E7E7E7E7E7E7E7E7E7E7E7E7E7E7E7E7E7E7E7E7E7E7E7E7E7E7E7E7E7E7E7E7E7E7E7E7E7E7E7E7E7E7E7E7E7E7E7E7E7E7E7E7E7E7E7E7E7E7E7E7E7E7E7E7E7E7E7E7E7E7E7E7E7E7E7E7E7E7E7E7E7E7E7E7E7E7E7E7E7E7E7E7E7E7E7E7E7E7E7E7E7E7E7E7E7E7E7E7
310
E7E7E7E7E7E7E7E7E7E7E7E7E7E7E7E7E7E7E7E7E7E7E7E7E7E7E7E7E7E7E7E7E7E7E7E7E7E7E7E7E7E7E7E7E7E7E7E7E7E7E7E7E7E7E7E7E7E7E7E7E7E7E7E7E7E7E7E7E7E7E7E7E7E7E7E7E7E7E7E7E7E7E7E7E7E7E7E7E7E7E7E7E7E7E7E7E7E7E7E7E7E7E7E7E7E7E7E7E7E7E7E7E7E7E7E7E7E7E7E7E7E7E7E7E7E7E7
310
E7E7E7E7E7E7E7E7E7E7E7E7E7E7E7E7E7E7E7E7E7E7E7E7E7E7E7E7E7E7E7E7E7E7E7E7E7E7E7E7E7E7E7E7E7E7E7E7E7E7E7E7E7E7E7E7E7E7E7E7E7E7E7E7E7E7E7E7E7E7E7E7E7E7E7E7E7E7E7E7E7E7E7E7E7E7E7E7E7E7E7E7E7E7E7E7E7E7E7E7E7E7E7E7E7E7E7E7E7E7E7E7E7E7E7E7E7E7E7E7E7E7E7E7E7E7E7
310
E7E7E7E7E7E7E7E7E7E7E7E7E7E7E7E7E7E7E7E7E7E7E7E7E7E7E7E7E7E7E7E7E7E7E7E7E7E7E7E7E7E7E7E7E7E7E7E7E7E7E7E7E7E7E7E7E7E7E7E7E7E7E7E7E7E7E7E7E7E7E7E7E7E7E7E7E7E7E7E7E7E7E7E7E7E7E7E7E7E7E7E7E7E7E7E7E7E7E7E7E7E7E7E7E7E7E7E7E7E7E7E7E7E7E7E7E7E7E7E7E7E7E7E7E7E7E7
310
E7E7E7E7E7E7E7E7E7E7E7E7E7E7E7E7E7E7E7E7E7E7E7E7E7E7E7E7E7E7E7E7E7E7E7E7E7E7E7E7E7E7E7E7E7E7E7E7E7E7E7E7E7E7E7E7E7E7E7E7E7E7E7E7E7E7E7E7E7E7E7E7E7E7E7E7E7E7E7E7E7E7E7E7E7E7E7E7E7E7E7E7E7E7E7E7E7E7E7E7E7E7E7E7E7E7E7E7E7E7E7E7E7E7E7E7E7E7E7E7E7E7E7E7E7E7E7
310
E7E7E7E7E7E7E7E7E7E7E7E7E7E7E7E7E7E7E7E7E7E7E7E7E7E7E7E7E7E7E7E7E7E7E7E7E7E7E7E7E7E7E7E7E7E7E7E7E7E7E7E7E7E7E7E7E7E7E7E7E7E7E7E7E7E7E7E7E7E7E7E7E7E7E7E7E7E7E7E7E7E7E7E7E7E7E7E7E7E7E7E7E7E7E7E7E7E7E7E7E7E7E7E7E7E7E7E7E7E7E7E7E7E7E7E7E7E7E7E7E7E7E7E7E7E7E7
310
E7E7E7E7E7E7E7E7E7E7E7E7E7E7E7E7E7E7E7E7E7E7E7E7E7E7E7E7E7E7E7E7E7E7E7E7E7E7E7E7E7E7E7E7E7E7E7E7E7E7E7E7E7E7E7E7E7E7E7E7E7E7E7E7E7E7E7E7E7E7E7E7E7E7E7E7E7E7E7E7E7E7E7E7E7E7E7E7E7E7E7E7E7E7E7E7E7E7E7E7E7E7E7E7E7E7E7E7E7E7E7E7E7E7E7E7E7E7E7E7E7E7E7E7E7E7E7
310
E7E7E7E7E7E7E7E7E7E7E7E7E7E7E7E7E7E7E7E7E7E7E7E7E7E7E7E7E7E7E7E7E7E7E7E7E7E7E7E7E7E7E7E7E7E7E7E7E7E7E7E7E7E7E7E7E7E7E7E7E7E7E7E7E7E7E7E7E7E7E7E7E7E7E7E7E7E7E7E7E7E7E7E7E7E7E7E7E7E7E7E7E7E7E7E7E7E7E7E7E7E7E7E7E7E7E7E7E7E7E7E7E7E7E7E7E7E7E7E7E7E7E7E7E7E7E7
310
E7E7E7E7E7E7E7E7E7E7E7E7E7E7E7E7E7E7E7E7E7E7E7E7E7E7E7E7E7E7E7E7E7E7E7E7E7E7E7E7E7E7E7E7E7E7E7E7E7E7E7E7E7E7E7E7E7E7E7E7E7E7E7E7E7E7E7E7E7E7E7E7E7E7E7E7E7E7E7E7E7E7E7E7E7E7E7E7E7E7E7E7E7E7E7E7E7E7E7E7E7E7E7E7E7E7E7E7E7E7E7E7E7E7E7E7E7E7E7E7E7E7E7E7E7E7E7
310
E7E7E7E7E7E7E7E7E7E7E7E7E7E7E7E7E7E7E7E7E7E7E7E7E7E7E7E7E7E7E7E7E7E7E7E7E7E7E7E7E7E7E7E7E7E7E7E7E7E7E7E7E7E7E7E7E7E7E7E7E7E7E7E7E7E7E7E7E7E7E7E7E7E7E7E7E7E7E7E7E7E7E7E7E7E7E7E7E7E7E7E7E7E7E7E7E7E7E7E7E7E7E7E7E7E7E7E7E7E7E7E7E7E7E7E7E7E7E7E7E7E7E7E7E7E7E7
310
E7E7E7E7E7E7E7E7E7E7E7E7E7E7E7E7E7E7E7E7E7E7E7E7E7E7E7E7E7E7E7E7E7E7E7E7E7E7E7E7E7E7E7E7E7E7E7E7E7E7E7E7E7E7E7E7E7E7E7E7E7E7E7E7E7E7E7E7E7E7E7E7E7E7E7E7E7E7E7E7E7E7E7E7E7E7E7E7E7E7E7E7E7E7E7E7E7E7E7E7E7E7E7E7E7E7E7E7E7E7E7E7E7E7E7E7E7E7E7E7E7E7E7E7E7E7E7
310
E7E7E7E7E7E7E7E7E7E7E7E7E7E7E7E7E7E7E7E7E7E7E7E7E7E7E7E7E7E7E7E7E7E7E7E7E7E7E7E7E7E7E7E7E7E7E7E7E7E7E7E7E7E7E7E7E7E7E7E7E7E7E7E7E7E7E7E7E7E7E7E7E7E7E7E7E7E7E7E7E7E7E7E7E7E7E7E7E7E7E7E7E7E7E7E7E7E7E7E7E7E7E7E7E7E7E7E7E7E7E7E7E7E7E7E7E7E7E7E7E7E7E7E7E7E7E7
310
E7E7E7E7E7E7E7E7E7E7E7E7E7E7E7E7E7E7E7E7E7E7E7E7E7E7E7E7E7E7E7E7E7E7E7E7E7E7E7E7E7E7E7E7E7E7E7E7E7E7E7E7E7E7E7E7E7E7E7E7E7E7E7E7E7E7E7E7E7E7E7E7E7E7E7E7E7E7E7E7E7E7E7E7E7E7E7E7E7E7E7E7E7E7E7E7E7E7E7E7E7E7E7E7E7E7E7E7E7E7E7E7E7E7E7E7E7E7E7E7E7E7E7E7E7E7E7
310
E7E7E7E7E7E7E7E7E7E7E7E7E7E7E7E7E7E7E7E7E7E7E7E7E7E7E7E7E7E7E7E7E7E7E7E7E7E7E7E7E7E7E7E7E7E7E7E7E7E7E7E7E7E7E7E7E7E7E7E7E7E7E7E7E7E7E7E7E7E7E7E7E7E7E7E7E7E7E7E7E7E7E7E7E7E7E7E7E7E7E7E7E7E7E7E7E7E7E7E7E7E7E7E7E7E7E7E7E7E7E7E7E7E7E7E7E7E7E7E7E7E7E7E7E7E7E7
310
E7E7E7E7E7E7E7E7E7E7E7E7E7E7E7E7E7E7E7E7E7E7E7E7E7E7E7E7E7E7E7E7E7E7E7E7E7E7E7E7E7E7E7E7E7E7E7E7E7E7E7E7E7E7E7E7E7E7E7E7E7E7E7E7E7E7E7E7E7E7E7E7E7E7E7E7E7E7E7E7E7E7E7E7E7E7E7E7E7E7E7E7E7E7E7E7E7E7E7E7E7E7E7E7E7E7E7E7E7E7E7E7E7E7E7E7E7E7E7E7E7E7E7E7E7E7E7
310
E7E7E7E7E7E7E7E7E7E7E7E7E7E7E7E7E7E7E7E7E7E7E7E7E7E7E7E7E7E7E7E7E7E7E7E7E7E7E7E7E7E7E7E7E7E7E7E7E7E7E7E7E7E7E7E7E7E7E7E7E7E7E7E7E7E7E7E7E7E7E7E7E7E7E7E7E7E7E7E7E7E7E7E7E7E7E7E7E7E7E7E7E7E7E7E7E7E7E7E7E7E7E7E7E7E7E7E7E7E7E7E7E7E7E7E7E7E7E7E7E7E7E7E7E7E7E7
310
E7E7E7E7E7E7E7E7E7E7E7E7E7E7E7E7E7E7E7E7E7E7E7E7E7E7E7E7E7E7E7E7E7E7E7E7E7E7E7E7E7E7E7E7E7E7E7E7E7E7E7E7E7E7E7E7E7E7E7E7E7E7E7E7E7E7E7E7E7E7E7E7E7E7E7E7E7E7E7E7E7E7E7E7E7E7E7E7E7E7E7E7E7E7E7E7E7E7E7E7E7E7E7E7E7E7E7E7E7E7E7E7E7E7E7E7E7E7E7E7E7E7E7E7E7E7E7
310
E7E7E7E7E7E7E7E7E7E7E7E7E7E7E7E7E7E7E7E7E7E7E7E7E7E7E7E7E7E7E7E7E7E7E7E7E7E7E7E7E7E7E7E7E7E7E7E7E7E7E7E7E7E7E7E7E7E7E7E7E7E7E7E7E7E7E7E7E7E7E7E7E7E7E7E7E7E7E7E7E7E7E7E7E7E7E7E7E7E7E7E7E7E7E7E7E7E7E7E7E7E7E7E7E7E7E7E7E7E7E7E7E7E7E7E7E7E7E7E7E7E7E7E7E7E7E7
310
E7E7E7E7E7E7E7E7E7E7E7E7E7E7E7E7E7E7E7E7E7E7E7E7E7E7E7E7E7E7E7E7E7E7E7E7E7E7E7E7E7E7E7E7E7E7E7E7E7E7E7E7E7E7E7E7E7E7E7E7E7E7E7E7E7E7E7E7E7E7E7E7E7E7E7E7E7E7E7E7E7E7E7E7E7E7E7E7E7E7E7E7E7E7E7E7E7E7E7E7E7E7E7E7E7E7E7E7E7E7E7E7E7E7E7E7E7E7E7E7E7E7E7E7E7E7E7
310
E7E7E7E7E7E7E7E7E7E7E7E7E7E7E7E7E7E7E7E7E7E7E7E7E7E7E7E7E7E7E7E7E7E7E7E7E7E7E7E7E7E7E7E7E7E7E7E7E7E7E7E7E7E7E7E7E7E7E7E7E7E7E7E7E7E7E7E7E7E7E7E7E7E7E7E7E7E7E7E7E7E7E7E7E7E7E7E7E7E7E7E7E7E7E7E7E7E7E7E7E7E7E7E7E7E7E7E7E7E7E7E7E7E7E7E7E7E7E7E7E7E7E7E7E7E7E7
310
E7E7E7E7E7E7E7E7E7E7E7E7E7E7E7E7E7E7E7E7E7E7E7E7E7E7E7E7E7E7E7E7E7E7E7E7E7E7E7E7E7E7E7E7E7E7E7E7E7E7E7E7E7E7E7E7E7E7E7E7E7E7E7E7E7E7E7E7E7E7E7E7E7E7E7E7E7E7E7E7E7E7E7E7E7E7E7E7E7E7E7E7E7E7E7E7E7E7E7E7E7E7E7E7E7E7E7E7E7E7E7E7E7E7E7E7E7E7E7E7E7E7E7E7E7E7E7
310
E7E7E7E7E7E7E7E7E7E7E7E7E7E7E7E7E7E7E7E7E7E7E7E7E7E7E7E7E7E7E7E7E7E7E7E7E7E7E7E7E7E7E7E7E7E7E7E7E7E7E7E7E7E7E7E7E7E7E7E7E7E7E7E7E7E7E7E7E7E7E7E7E7E7E7E7E7E7E7E7E7E7E7E7E7E7E7E7E7E7E7E7E7E7E7E7E7E7E7E7E7E7E7E7E7E7E7E7E7E7E7E7E7E7E7E7E7E7E7E7E7E7E7E7E7E7E7
310
E7E7E7E7E7E7E7E7E7E7E7E7E7E7E7E7E7E7E7E7E7E7E7E7E7E7E7E7E7E7E7E7E7E7E7E7E7E7E7E7E7E7E7E7E7E7E7E7E7E7E7E7E7E7E7E7E7E7E7E7E7E7E7E7E7E7E7E7E7E7E7E7E7E7E7E7E7E7E7E7E7E7E7E7E7E7E7E7E7E7E7E7E7E7E7E7E7E7E7E7E7E7E7E7E7E7E7E7E7E7E7E7E7E7E7E7E7E7E7E7E7E7E7E7E7E7E7
310
E7E7E7E7E7E7E7E7E7E7E7E7E7E7E7E7E7E7E7E7E7E7E7E7E7E7E7E7E7E7E7E7E7E7E7E7E7E7E7E7E7E7E7E7E7E7E7E7E7E7E7E7E7E7E7E7E7E7E7E7E7E7E7E7E7E7E7E7E7E7E7E7E7E7E7E7E7E7E7E7E7E7E7E7E7E7E7E7E7E7E7E7E7E7E7E7E7E7E7E7E7E7E7E7E7E7E7E7E7E7E7E7E7E7E7E7E7E7E7E7E7E7E7E7E7E7E7
310
E7E7E7E7E7E7E7E7E7E7E7E7E7E7E7E7E7E7E7E7E7E7E7E7E7E7E7E7E7E7E7E7E7E7E7E7E7E7E7E7E7E7E7E7E7E7E7E7E7E7E7E7E7E7E7E7E7E7E7E7E7E7E7E7E7E7E7E7E7E7E7E7E7E7E7E7E7E7E7E7E7E7E7E7E7E7E7E7E7E7E7E7E7E7E7E7E7E7E7E7E7E7E7E7E7E7E7E7E7E7E7E7E7E7E7E7E7E7E7E7E7E7E7E7E7E7E7
310
E7E7E7E7E7E7E7E7E7E7E7E7E7E7E7E7E7E7E7E7E7E7E7E7E7E7E7E7E7E7E7E7E7E7E7E7E7E7E7E7E7E7E7E7E7E7E7E7E7E7E7E7E7E7E7E7E7E7E7E7E7E7E7E7E7E7E7E7E7E7E7E7E7E7E7E7E7E7E7E7E7E7E7E7E7E7E7E7E7E7E7E7E7E7E7E7E7E7E7E7E7E7E7E7E7E7E7E7E7E7E7E7E7E7E7E7E7E7E7E7E7E7E7E7E7E7E7
310
E7E7E7E7E7E7E7E7E7E7E7E7E7E7E7E7E7E7E7E7E7E7E7E7E7E7E7E7E7E7E7E7E7E7E7E7E7E7E7E7E7E7E7E7E7E7E7E7E7E7E7E7E7E7E7E7E7E7E7E7E7E7E7E7E7E7E7E7E7E7E7E7E7E7E7E7E7E7E7E7E7E7E7E7E7E7E7E7E7E7E7E7E7E7E7E7E7E7E7E7E7E7E7E7E7E7E7E7E7E7E7E7E7E7E7E7E7E7E7E7E7E7E7E7E7E7E7
310
E7E7E7E7E7E7E7E7E7E7E7E7E7E7E7E7E7E7E7E7E7E7E7E7E7E7E7E7E7E7E7E7E7E7E7E7E7E7E7E7E7E7E7E7E7E7E7E7E7E7E7E7E7E7E7E7E7E7E7E7E7E7E7E7E7E7E7E7E7E7E7E7E7E7E7E7E7E7E7E7E7E7E7E7E7E7E7E7E7E7E7E7E7E7E7E7E7E7E7E7E7E7E7E7E7E7E7E7E7E7E7E7E7E7E7E7E7E7E7E7E7E7E7E7E7E7E7
310
E7E7E7E7E7E7E7E7E7E7E7E7E7E7E7E7E7E7E7E7E7E7E7E7E7E7E7E7E7E7E7E7E7E7E7E7E7E7E7E7E7E7E7E7E7E7E7E7E7E7E7E7E7E7E7E7E7E7E7E7E7E7E7E7E7E7E7E7E7E7E7E7E7E7E7E7E7E7E7E7E7E7E7E7E7E7E7E7E7E7E7E7E7E7E7E7E7E7E7E7E7E7E7E7E7E7E7E7E7E7E7E7E7E7E7E7E7E7E7E7E7E7E7E7E7E7E7
310
E7E7E7E7E7E7E7E7E7E7E7E7E7E7E7E7E7E7E7E7E7E7E7E7E7E7E7E7E7E7E7E7E7E7E7E7E7E7E7E7E7E7E7E7E7E7E7E7E7E7E7E7E7E7E7E7E7E7E7E7E7E7E7E7E7E7E7E7E7E7E7E7E7E7E7E7E7E7E7E7E7E7E7E7E7E7E7E7E7E7E7E7E7E7E7E7E7E7E7E7E7E7E7E7E7E7E7E7E7E7E7E7E7E7E7E7E7E7E7E7E7E7E7E7E7E7E7
310
E7E7E7E7E7E7E7E7E7E7E7E7E7E7E7E7E7E7E7E7E7E7E7E7E7E7E7E7E7E7E7E7E7E7E7E7E7E7E7E7E7E7E7E7E7E7E7E7E7E7E7E7E7E7E7E7E7E7E7E7E7E7E7E7E7E7E7E7E7E7E7E7E7E7E7E7E7E7E7E7E7E7E7E7E7E7E7E7E7E7E7E7E7E7E7E7E7E7E7E7E7E7E7E7E7E7E7E7E7E7E7E7E7E7E7E7E7E7E7E7E7E7E7E7E7E7E7
310
E7E7E7E7E7E7E7E7E7E7E7E7E7E7E7E7E7E7E7E7E7E7E7E7E7E7E7E7E7E7E7E7E7E7E7E7E7E7E7E7E7E7E7E7E7E7E7E7E7E7E7E7E7E7E7E7E7E7E7E7E7E7E7E7E7E7E7E7E7E7E7E7E7E7E7E7E7E7E7E7E7E7E7E7E7E7E7E7E7E7E7E7E7E7E7E7E7E7E7E7E7E7E7E7E7E7E7E7E7E7E7E7E7E7E7E7E7E7E7E7E7E7E7E7E7E7E7
310
E7E7E7E7E7E7E7E7E7E7E7E7E7E7E7E7E7E7E7E7E7E7E7E7E7E7E7E7E7E7E7E7E7E7E7E7E7E7E7E7E7E7E7E7E7E7E7E7E7E7E7E7E7E7E7E7E7E7E7E7E7E7E7E7E7E7E7E7E7E7E7E7E7E7E7E7E7E7E7E7E7E7E7E7E7E7E7E7E7E7E7E7E7E7E7E7E7E7E7E7E7E7E7E7E7E7E7E7E7E7E7E7E7E7E7E7E7E7E7E7E7E7E7E7E7E7E7
310
E7E7E7E7E7E7E7E7E7E7E7E7E7E7E7E7E7E7E7E7E7E7E7E7E7E7E7E7E7E7E7E7E7E7E7E7E7E7E7E7E7E7E7E7E7E7E7E7E7E7E7E7E7E7E7E7E7E7E7E7E7E7E7E7E7E7E7E7E7E7E7E7E7E7E7E7E7E7E7E7E7E7E7E7E7E7E7E7E7E7E7E7E7E7E7E7E7E7E7E7E7E7E7E7E7E7E7E7E7E7E7E7E7E7E7E7E7E7E7E7E7E7E7E7E7E7E7
310
E7E7E7E7E7E7E7E7E7E7E7E7E7E7E7E7E7E7E7E7E7E7E7E7E7E7E7E7E7E7E7E7E7E7E7E7E7E7E7E7E7E7E7E7E7E7E7E7E7E7E7E7E7E7E7E7E7E7E7E7E7E7E7E7E7E7E7E7E7E7E7E7E7E7E7E7E7E7E7E7E7E7E7E7E7E7E7E7E7E7E7E7E7E7E7E7E7E7E7E7E7E7E7E7E7E7E7E7E7E7E7E7E7E7E7E7E7E7E7E7E7E7E7E7E7E7E7
310
E7E7E7E7E7E7E7E7E7E7E7E7E7E7E7E7E7E7E7E7E7E7E7E7E7E7E7E7E7E7E7E7E7E7E7E7E7E7E7E7E7E7E7E7E7E7E7E7E7E7E7E7E7E7E7E7E7E7E7E7E7E7E7E7E7E7E7E7E7E7E7E7E7E7E7E7E7E7E7E7E7E7E7E7E7E7E7E7E7E7E7E7E7E7E7E7E7E7E7E7E7E7E7E7E7E7E7E7E7E7E7E7E7E7E7E7E7E7E7E7E7E7E7E7E7E7E7
310
E7E7E7E7E7E7E7E7E7E7E7E7E7E7E7E7E7E7E7E7E7E7E7E7E7E7E7E7E7E7E7E7E7E7E7E7E7E7E7E7E7E7E7E7E7E7E7E7E7E7E7E7E7E7E7E7E7E7E7E7E7E7E7E7E7E7E7E7E7E7E7E7E7E7E7E7E7E7E7E7E7E7E7E7E7E7E7E7E7E7E7E7E7E7E7E7E7E7E7E7E7E7E7E7E7E7E7E7E7E7E7E7E7E7E7E7E7E7E7E7E7E7E7E7E7E7E7
310
E7E7E7E7E7E7E7E7E7E7E7E7E7E7E7E7E7E7E7E7E7E7E7E7E7E7E7E7E7E7E7E7E7E7E7E7E7E7E7E7E7E7E7E7E7E7E7E7E7E7E7E7E7E7E7E7E7E7E7E7E7E7E7E7E7E7E7E7E7E7E7E7E7E7E7E7E7E7E7E7E7E7E7E7E7E7E7E7E7E7E7E7E7E7E7E7E7E7E7E7E7E7E7E7E7E7E7E7E7E7E7E7E7E7E7E7E7E7E7E7E7E7E7E7E7E7E7
310
E7E7E7E7E7E7E7E7E7E7E7E7E7E7E7E7E7E7E7E7E7E7E7E7E7E7E7E7E7E7E7E7E7E7E7E7E7E7E7E7E7E7E7E7E7E7E7E7E7E7E7E7E7E7E7E7E7E7E7E7E7E7E7E7E7E7E7E7E7E7E7E7E7E7E7E7E7E7E7E7E7E7E7E7E7E7E7E7E7E7E7E7E7E7E7E7E7E7E7E7E7E7E7E7E7E7E7E7E7E7E7E7E7E7E7E7E7E7E7E7E7E7E7E7E7E7E7
310
E7E7E7E7E7E7E7E7E7E7E7E7E7E7E7E7E7E7E7E7E7E7E7E7E7E7E7E7E7E7E7E7E7E7E7E7E7E7E7E7E7E7E7E7E7E7E7E7E7E7E7E7E7E7E7E7E7E7E7E7E7E7E7E7E7E7E7E7E7E7E7E7E7E7E7E7E7E7E7E7E7E7E7E7E7E7E7E7E7E7E7E7E7E7E7E7E7E7E7E7E7E7E7E7E7E7E7E7E7E7E7E7E7E7E7E7E7E7E7E7E7E7E7E7E7E7E7
310
E7E7E7E7E7E7E7E7E7E7E7E7E7E7E7E7E7E7E7E7E7E7E7E7E7E7E7E7E7E7E7E7E7E7E7E7E7E7E7E7E7E7E7E7E7E7E7E7E7E7E7E7E7E7E7E7E7E7E7E7E7E7E7E7E7E7E7E7E7E7E7E7E7E7E7E7E7E7E7E7E7E7E7E7E7E7E7E7E7E7E7E7E7E7E7E7E7E7E7E7E7E7E7E7E7E7E7E7E7E7E7E7E7E7E7E7E7E7E7E7E7E7E7E7E7E7E7
310
E7E7E7E7E7E7E7E7E7E7E7E7E7E7E7E7E7E7E7E7E7E7E7E7E7E7E7E7E7E7E7E7E7E7E7E7E7E7E7E7E7E7E7E7E7E7E7E7E7E7E7E7E7E7E7E7E7E7E7E7E7E7E7E7E7E7E7E7E7E7E7E7E7E7E7E7E7E7E7E7E7E7E7E7E7E7E7E7E7E7E7E7E7E7E7E7E7E7E7E7E7E7E7E7E7E7E7E7E7E7E7E7E7E7E7E7E7E7E7E7E7E7E7E7E7E7E7
310
E7E7E7E7E7E7E7E7E7E7E7E7E7E7E7E7E7E7E7E7E7E7E7E7E7E7E7E7E7E7E7E7E7E7E7E7E7E7E7E7E7E7E7E7E7E7E7E7E7E7E7E7E7E7E7E7E7E7E7E7E7E7E7E7E7E7E7E7E7E7E7E7E7E7E7E7E7E7E7E7E7E7E7E7E7E7E7E7E7E7E7E7E7E7E7E7E7E7E7E7E7E7E7E7E7E7E7E7E7E7E7E7E7E7E7E7E7E7E7E7E7E7E7E7E7E7E7
310
E7E7E7E7E7E7E7E7E7E7E7E7E7E7E7E7E7E7E7E7E7E7E7E7E7E7E7E7E7E7E7E7E7E7E7E7E7E7E7E7E7E7E7E7E7E7E7E7E7E7E7E7E7E7E7E7E7E7E7E7E7E7E7E7E7E7E7E7E7E7E7E7E7E7E7E7E7E7E7E7E7E7E7E7E7E7E7E7E7E7E7E7E7E7E7E7E7E7E7E7E7E7E7E7E7E7E7E7E7E7E7E7E7E7E7E7E7E7E7E7E7E7E7E7E7E7E7
310
E7E7E7E7E7E7E7E7E7E7E7E7E7E7E7E7E7E7E7E7E7E7E7E7E7E7E7E7E7E7E7E7E7E7E7E7E7E7E7E7E7E7E7E7E7E7E7E7E7E7E7E7E7E7E7E7E7E7E7E7E7E7E7E7E7E7E7E7E7E7E7E7E7E7E7E7E7E7E7E7E7E7E7E7E7E7E7E7E7E7E7E7E7E7E7E7E7E7E7E7E7E7E7E7E7E7E7E7E7E7E7E7E7E7E7E7E7E7E7E7E7E7E7E7E7E7E7
310
E7E7E7E7E7E7E7E7E7E7E7E7E7E7E7E7E7E7E7E7E7E7E7E7E7E7E7E7E7E7E7E7E7E7E7E7E7E7E7E7E7E7E7E7E7E7E7E7E7E7E7E7E7E7E7E7E7E7E7E7E7E7E7E7E7E7E7E7E7E7E7E7E7E7E7E7E7E7E7E7E7E7E7E7E7E7E7E7E7E7E7E7E7E7E7E7E7E7E7E7E7E7E7E7E7E7E7E7E7E7E7E7E7E7E7E7E7E7E7E7E7E7E7E7E7E7E7
310
E7E7E7E7E7E7E7E7E7E7E7E7E7E7E7E7E7E7E7E7E7E7E7E7E7E7E7E7E7E7E7E7E7E7E7E7E7E7E7E7E7E7E7E7E7E7E7E7E7E7E7E7E7E7E7E7E7E7E7E7E7E7E7E7E7E7E7E7E7E7E7E7E7E7E7E7E7E7E7E7E7E7E7E7E7E7E7E7E7E7E7E7E7E7E7E7E7E7E7E7E7E7E7E7E7E7E7E7E7E7E7E7E7E7E7E7E7E7E7E7E7E7E7E7E7E7E7
310
E7E7E7E7E7E7E7E7E7E7E7E7E7E7E7E7E7E7E7E7E7E7E7E7E7E7E7E7E7E7E7E7E7E7E7E7E7E7E7E7E7E7E7E7E7E7E7E7E7E7E7E7E7E7E7E7E7E7E7E7E7E7E7E7E7E7E7E7E7E7E7E7E7E7E7E7E7E7E7E7E7E7E7E7E7E7E7E7E7E7E7E7E7E7E7E7E7E7E7E7E7E7E7E7E7E7E7E7E7E7E7E7E7E7E7E7E7E7E7E7E7E7E7E7E7E7E7
310
E7E7E7E7E7E7E7E7E7E7E7E7E7E7E7E7E7E7E7E7E7E7E7E7E7E7E7E7E7E7E7E7E7E7E7E7E7E7E7E7E7E7E7E7E7E7E7E7E7E7E7E7E7E7E7E7E7E7E7E7E7E7E7E7E7E7E7E7E7E7E7E7E7E7E7E7E7E7E7E7E7E7E7E7E7E7E7E7E7E7E7E7E7E7E7E7E7E7E7E7E7E7E7E7E7E7E7E7E7E7E7E7E7E7E7E7E7E7E7E7E7E7E7E7E7E7E7
310
E7E7E7E7E7E7E7E7E7E7E7E7E7E7E7E7E7E7E7E7E7E7E7E7E7E7E7E7E7E7E7E7E7E7E7E7E7E7E7E7E7E7E7E7E7E7E7E7E7E7E7E7E7E7E7E7E7E7E7E7E7E7E7E7E7E7E7E7E7E7E7E7E7E7E7E7E7E7E7E7E7E7E7E7E7E7E7E7E7E7E7E7E7E7E7E7E7E7E7E7E7E7E7E7E7E7E7E7E7E7E7E7E7E7E7E7E7E7E7E7E7E7E7E7E7E7E7
310
E7E7E7E7E7E7E7E7E7E7E7E7E7E7E7E7E7E7E7E7E7E7E7E7E7E7E7E7E7E7E7E7E7E7E7E7E7E7E7E7E7E7E7E7E7E7E7E7E7E7E7E7E7E7E7E7E7E7E7E7E7E7E7E7E7E7E7E7E7E7E7E7E7E7E7E7E7E7E7E7E7E7E7E7E7E7E7E7E7E7E7E7E7E7E7E7E7E7E7E7E7E7E7E7E7E7E7E7E7E7E7E7E7E7E7E7E7E7E7E7E7E7E7E7E7E7E7
310
E7E7E7E7E7E7E7E7E7E7E7E7E7E7E7E7E7E7E7E7E7E7E7E7E7E7E7E7E7E7E7E7E7E7E7E7E7E7E7E7E7E7E7E7E7E7E7E7E7E7E7E7E7E7E7E7E7E7E7E7E7E7E7E7E7E7E7E7E7E7E7E7E7E7E7E7E7E7E7E7E7E7E7E7E7E7E7E7E7E7E7E7E7E7E7E7E7E7E7E7E7E7E7E7E7E7E7E7E7E7E7E7E7E7E7E7E7E7E7E7E7E7E7E7E7E7E7
310
E7E7E7E7E7E7E7E7E7E7E7E7E7E7E7E7E7E7E7E7E7E7E7E7E7E7E7E7E7E7E7E7E7E7E7E7E7E7E7E7E7E7E7E7E7E7E7E7E7E7E7E7E7E7E7E7E7E7E7E7E7E7E7E7E7E7E7E7E7E7E7E7E7E7E7E7E7E7E7E7E7E7E7E7E7E7E7E7E7E7E7E7E7E7E7E7E7E7E7E7E7E7E7E7E7E7E7E7E7E7E7E7E7E7E7E7E7E7E7E7E7E7E7E7E7E7E7
310
E7E7E7E7E7E7E7E7E7E7E7E7E7E7E7E7E7E7E7E7E7E7E7E7E7E7E7E7E7E7E7E7E7E7E7E7E7E7E7E7E7E7E7E7E7E7E7E7E7E7E7E7E7E7E7E7E7E7E7E7E7E7E7E7E7E7E7E7E7E7E7E7E7E7E7E7E7E7E7E7E7E7E7E7E7E7E7E7E7E7E7E7E7E7E7E7E7E7E7E7E7E7E7E7E7E7E7E7E7E7E7E7E7E7E7E7E7E7E7E7E7E7E7E7E7E7E7
310
E7E7E7E7E7E7E7E7E7E7E7E7E7E7E7E7E7E7E7E7E7E7E7E7E7E7E7E7E7E7E7E7E7E7E7E7E7E7E7E7E7E7E7E7E7E7E7E7E7E7E7E7E7E7E7E7E7E7E7E7E7E7E7E7E7E7E7E7E7E7E7E7E7E7E7E7E7E7E7E7E7E7E7E7E7E7E7E7E7E7E7E7E7E7E7E7E7E7E7E7E7E7E7E7E7E7E7E7E7E7E7E7E7E7E7E7E7E7E7E7E7E7E7E7E7E7E7
310
E7E7E7E7E7E7E7E7E7E7E7E7E7E7E7E7E7E7E7E7E7E7E7E7E7E7E7E7E7E7E7E7E7E7E7E7E7E7E7E7E7E7E7E7E7E7E7E7E7E7E7E7E7E7E7E7E7E7E7E7E7E7E7E7E7E7E7E7E7E7E7E7E7E7E7E7E7E7E7E7E7E7E7E7E7E7E7E7E7E7E7E7E7E7E7E7E7E7E7E7E7E7E7E7E7E7E7E7E7E7E7E7E7E7E7E7E7E7E7E7E7E7E7E7E7E7E7
310
E7E7E7E7E7E7E7E7E7E7E7E7E7E7E7E7E7E7E7E7E7E7E7E7E7E7E7E7E7E7E7E7E7E7E7E7E7E7E7E7E7E7E7E7E7E7E7E7E7E7E7E7E7E7E7E7E7E7E7E7E7E7E7E7E7E7E7E7E7E7E7E7E7E7E7E7E7E7E7E7E7E7E7E7E7E7E7E7E7E7E7E7E7E7E7E7E7E7E7E7E7E7E7E7E7E7E7E7E7E7E7E7E7E7E7E7E7E7E7E7E7E7E7E7E7E7E7
310
E7E7E7E7E7E7E7E7E7E7E7E7E7E7E7E7E7E7E7E7E7E7E7E7E7E7E7E7E7E7E7E7E7E7E7E7E7E7E7E7E7E7E7E7E7E7E7E7E7E7E7E7E7E7E7E7E7E7E7E7E7E7E7E7E7E7E7E7E7E7E7E7E7E7E7E7E7E7E7E7E7E7E7E7E7E7E7E7E7E7E7E7E7E7E7E7E7E7E7E7E7E7E7E7E7E7E7E7E7E7E7E7E7E7E7E7E7E7E7E7E7E7E7E7E7E7E7
310
E7E7E7E7E7E7E7E7E7E7E7E7E7E7E7E7E7E7E7E7E7E7E7E7E7E7E7E7E7E7E7E7E7E7E7E7E7E7E7E7E7E7E7E7E7E7E7E7E7E7E7E7E7E7E7E7E7E7E7E7E7E7E7E7E7E7E7E7E7E7E7E7E7E7E7E7E7E7E7E7E7E7E7E7E7E7E7E7E7E7E7E7E7E7E7E7E7E7E7E7E7E7E7E7E7E7E7E7E7E7E7E7E7E7E7E7E7E7E7E7E7E7E7E7E7E7E7
310
E7E7E7E7E7E7E7E7E7E7E7E7E7E7E7E7E7E7E7E7E7E7E7E7E7E7E7E7E7E7E7E7E7E7E7E7E7E7E7E7E7E7E7E7E7E7E7E7E7E7E7E7E7E7E7E7E7E7E7E7E7E7E7E7E7E7E7E7E7E7E7E7E7E7E7E7E7E7E7E7E7E7E7E7E7E7E7E7E7E7E7E7E7E7E7E7E7E7E7E7E7E7E7E7E7E7E7E7E7E7E7E7E7E7E7E7E7E7E7E7E7E7E7E7E7E7E7
310
E7E7E7E7E7E7E7E7E7E7E7E7E7E7E7E7E7E7E7E7E7E7E7E7E7E7E7E7E7E7E7E7E7E7E7E7E7E7E7E7E7E7E7E7E7E7E7E7E7E7E7E7E7E7E7E7E7E7E7E7E7E7E7E7E7E7E7E7E7E7E7E7E7E7E7E7E7E7E7E7E7E7E7E7E7E7E7E7E7E7E7E7E7E7E7E7E7E7E7E7E7E7E7E7E7E7E7E7E7E7E7E7E7E7E7E7E7E7E7E7E7E7E7E7E7E7E7
310
E7E7E7E7E7E7E7E7E7E7E7E7E7E7E7E7E7E7E7E7E7E7E7E7E7E7E7E7E7E7E7E7E7E7E7E7E7E7E7E7E7E7E7E7E7E7E7E7E7E7E7E7E7E7E7E7E7E7E7E7E7E7E7E7E7E7E7E7E7E7E7E7E7E7E7E7E7E7E7E7E7E7E7E7E7E7E7E7E7E7E7E7E7E7E7E7E7E7E7E7E7E7E7E7E7E7E7E7E7E7E7E7E7E7E7E7E7E7E7E7E7E7E7E7E7E7E7
310
E7E7E7E7E7E7E7E7E7E7E7E7E7E7E7E7E7E7E7E7E7E7E7E7E7E7E7E7E7E7E7E7E7E7E7E7E7E7E7E7E7E7E7E7E7E7E7E7E7E7E7E7E7E7E7E7E7E7E7E7E7E7E7E7E7E7E7E7E7E7E7E7E7E7E7E7E7E7E7E7E7E7E7E7E7E7E7E7E7E7E7E7E7E7E7E7E7E7E7E7E7E7E7E7E7E7E7E7E7E7E7E7E7E7E7E7E7E7E7E7E7E7E7E7E7E7E7
310
E7E7E7E7E7E7E7E7E7E7E7E7E7E7E7E7E7E7E7E7E7E7E7E7E7E7E7E7E7E7E7E7E7E7E7E7E7E7E7E7E7E7E7E7E7E7E7E7E7E7E7E7E7E7E7E7E7E7E7E7E7E7E7E7E7E7E7E7E7E7E7E7E7E7E7E7E7E7E7E7E7E7E7E7E7E7E7E7E7E7E7E7E7E7E7E7E7E7E7E7E7E7E7E7E7E7E7E7E7E7E7E7E7E7E7E7E7E7E7E7E7E7E7E7E7E7E7
310
E7E7E7E7E7E7E7E7E7E7E7E7E7E7E7E7E7E7E7E7E7E7E7E7E7E7E7E7E7E7E7E7E7E7E7E7E7E7E7E7E7E7E7E7E7E7E7E7E7E7E7E7E7E7E7E7E7E7E7E7E7E7E7E7E7E7E7E7E7E7E7E7E7E7E7E7E7E7E7E7E7E7E7E7E7E7E7E7E7E7E7E7E7E7E7E7E7E7E7E7E7E7E7E7E7E7E7E7E7E7E7E7E7E7E7E7E7E7E7E7E7E7E7E7E7E7E7
310
E7E7E7E7E7E7E7E7E7E7E7E7E7E7E7E7E7E7E7E7E7E7E7E7E7E7E7E7E7E7E7E7E7E7E7E7E7E7E7E7E7E7E7E7E7E7E7E7E7E7E7E7E7E7E7E7E7E7E7E7E7E7E7E7E7E7E7E7E7E7E7E7E7E7E7E7E7E7E7E7E7E7E7E7E7E7E7E7E7E7E7E7E7E7E7E7E7E7E7E7E7E7E7E7E7E7E7E7E7E7E7E7E7E7E7E7E7E7E7E7E7E7E7E7E7E7E7
310
E7E7E7E7E7E7E7E7E7E7E7E7E7E7E7E7E7E7E7E7E7E7E7E7E7E7E7E7E7E7E7E7E7E7E7E7E7E7E7E7E7E7E7E7E7E7E7E7E7E7E7E7E7E7E7E7E7E7E7E7E7E7E7E7E7E7E7E7E7E7E7E7E7E7E7E7E7E7E7E7E7E7E7E7E7E7E7E7E7E7E7E7E7E7E7E7E7E7E7E7E7E7E7E7E7E7E7E7E7E7E7E7E7E7E7E7E7E7E7E7E7E7E7E7E7E7E7
310
E7E7E7E7E7E7E7E7E7E7E7E7E7E7E7E7E7E7E7E7E7E7E7E7E7E7E7E7E7E7E7E7E7E7E7E7E7E7E7E7E7E7E7E7E7E7E7E7E7E7E7E7E7E7E7E7E7E7E7E7E7E7E7E7E7E7E7E7E7E7E7E7E7E7E7E7E7E7E7E7E7E7E7E7E7E7E7E7E7E7E7E7E7E7E7E7E7E7E7E7E7E7E7E7E7E7E7E7E7E7E7E7E7E7E7E7E7E7E7E7E7E7E7E7E7E7E7
310
E7E7E7E7E7E7E7E7E7E7E7E7E7E7E7E7E7E7E7E7E7E7E7E7E7E7E7E7E7E7E7E7E7E7E7E7E7E7E7E7E7E7E7E7E7E7E7E7E7E7E7E7E7E7E7E7E7E7E7E7E7E7E7E7E7E7E7E7E7E7E7E7E7E7E7E7E7E7E7E7E7E7E7E7E7E7E7E7E7E7E7E7E7E7E7E7E7E7E7E7E7E7E7E7E7E7E7E7E7E7E7E7E7E7E7E7E7E7E7E7E7E7E7E7E7E7E7
310
E7E7E7E7E7E7E7E7E7E7E7E7E7E7E7E7E7E7E7E7E7E7E7E7E7E7E7E7E7E7E7E7E7E7E7E7E7E7E7E7E7E7E7E7E7E7E7E7E7E7E7E7E7E7E7E7E7E7E7E7E7E7E7E7E7E7E7E7E7E7E7E7E7E7E7E7E7E7E7E7E7E7E7E7E7E7E7E7E7E7E7E7E7E7E7E7E7E7E7E7E7E7E7E7E7E7E7E7E7E7E7E7E7E7E7E7E7E7E7E7E7E7E7E7E7E7E7
310
E7E7E7E7E7E7E7E7E7E7E7E7E7E7E7E7E7E7E7E7E7E7E7E7E7E7E7E7E7E7E7E7E7E7E7E7E7E7E7E7E7E7E7E7E7E7E7E7E7E7E7E7E7E7E7E7E7E7E7E7E7E7E7E7E7E7E7E7E7E7E7E7E7E7E7E7E7E7E7E7E7E7E7E7E7E7E7E7E7E7E7E7E7E7E7E7E7E7E7E7E7E7E7E7E7E7E7E7E7E7E7E7E7E7E7E7E7E7E7E7E7E7E7E7E7E7E7
310
E7E7E7E7E7E7E7E7E7E7E7E7E7E7E7E7E7E7E7E7E7E7E7E7E7E7E7E7E7E7E7E7E7E7E7E7E7E7E7E7E7E7E7E7E7E7E7E7E7E7E7E7E7E7E7E7E7E7E7E7E7E7E7E7E7E7E7E7E7E7E7E7E7E7E7E7E7E7E7E7E7E7E7E7E7E7E7E7E7E7E7E7E7E7E7E7E7E7E7E7E7E7E7E7E7E7E7E7E7E7E7E7E7E7E7E7E7E7E7E7E7E7E7E7E7E7E7
310
E7E7E7E7E7E7E7E7E7E7E7E7E7E7E7E7E7E7E7E7E7E7E7E7E7E7E7E7E7E7E7E7E7E7E7E7E7E7E7E7E7E7E7E7E7E7E7E7E7E7E7E7E7E7E7E7E7E7E7E7E7E7E7E7E7E7E7E7E7E7E7E7E7E7E7E7E7E7E7E7E7E7E7E7E7E7E7E7E7E7E7E7E7E7E7E7E7E7E7E7E7E7E7E7E7E7E7E7E7E7E7E7E7E7E7E7E7E7E7E7E7E7E7E7E7E7E7
310
E7E7E7E7E7E7E7E7E7E7E7E7E7E7E7E7E7E7E7E7E7E7E7E7E7E7E7E7E7E7E7E7E7E7E7E7E7E7E7E7E7E7E7E7E7E7E7E7E7E7E7E7E7E7E7E7E7E7E7E7E7E7E7E7E7E7E7E7E7E7E7E7E7E7E7E7E7E7E7E7E7E7E7E7E7E7E7E7E7E7E7E7E7E7E7E7E7E7E7E7E7E7E7E7E7E7E7E7E7E7E7E7E7E7E7E7E7E7E7E7E7E7E7E7E7E7E7
310
E7E7E7E7E7E7E7E7E7E7E7E7E7E7E7E7E7E7E7E7E7E7E7E7E7E7E7E7E7E7E7E7E7E7E7E7E7E7E7E7E7E7E7E7E7E7E7E7E7E7E7E7E7E7E7E7E7E7E7E7E7E7E7E7E7E7E7E7E7E7E7E7E7E7E7E7E7E7E7E7E7E7E7E7E7E7E7E7E7E7E7E7E7E7E7E7E7E7E7E7E7E7E7E7E7E7E7E7E7E7E7E7E7E7E7E7E7E7E7E7E7E7E7E7E7E7E7
310
E7E7E7E7E7E7E7E7E7E7E7E7E7E7E7E7E7E7E7E7E7E7E7E7E7E7E7E7E7E7E7E7E7E7E7E7E7E7E7E7E7E7E7E7E7E7E7E7E7E7E7E7E7E7E7E7E7E7E7E7E7E7E7E7E7E7E7E7E7E7E7E7E7E7E7E7E7E7E7E7E7E7E7E7E7E7E7E7E7E7E7E7E7E7E7E7E7E7E7E7E7E7E7E7E7E7E7E7E7E7E7E7E7E7E7E7E7E7E7E7E7E7E7E7E7E7E7
310
E7E7E7E7E7E7E7E7E7E7E7E7E7E7E7E7E7E7E7E7E7E7E7E7E7E7E7E7E7E7E7E7E7E7E7E7E7E7E7E7E7E7E7E7E7E7E7E7E7E7E7E7E7E7E7E7E7E7E7E7E7E7E7E7E7E7E7E7E7E7E7E7E7E7E7E7E7E7E7E7E7E7E7E7E7E7E7E7E7E7E7E7E7E7E7E7E7E7E7E7E7E7E7E7E7E7E7E7E7E7E7E7E7E7E7E7E7E7E7E7E7E7E7E7E7E7E7
310
E7E7E7E7E7E7E7E7E7E7E7E7E7E7E7E7E7E7E7E7E7E7E7E7E7E7E7E7E7E7E7E7E7E7E7E7E7E7E7E7E7E7E7E7E7E7E7E7E7E7E7E7E7E7E7E7E7E7E7E7E7E7E7E7E7E7E7E7E7E7E7E7E7E7E7E7E7E7E7E7E7E7E7E7E7E7E7E7E7E7E7E7E7E7E7E7E7E7E7E7E7E7E7E7E7E7E7E7E7E7E7E7E7E7E7E7E7E7E7E7E7E7E7E7E7E7E7
310
E7E7E7E7E7E7E7E7E7E7E7E7E7E7E7E7E7E7E7E7E7E7E7E7E7E7E7E7E7E7E7E7E7E7E7E7E7E7E7E7E7E7E7E7E7E7E7E7E7E7E7E7E7E7E7E7E7E7E7E7E7E7E7E7E7E7E7E7E7E7E7E7E7E7E7E7E7E7E7E7E7E7E7E7E7E7E7E7E7E7E7E7E7E7E7E7E7E7E7E7E7E7E7E7E7E7E7E7E7E7E7E7E7E7E7E7E7E7E7E7E7E7E7E7E7E7E7
310
E7E7E7E7E7E7E7E7E7E7E7E7E7E7E7E7E7E7E7E7E7E7E7E7E7E7E7E7E7E7E7E7E7E7E7E7E7E7E7E7E7E7E7E7E7E7E7E7E7E7E7E7E7E7E7E7E7E7E7E7E7E7E7E7E7E7E7E7E7E7E7E7E7E7E7E7E7E7E7E7E7E7E7E7E7E7E7E7E7E7E7E7E7E7E7E7E7E7E7E7E7E7E7E7E7E7E7E7E7E7E7E7E7E7E7E7E7E7E7E7E7E7E7E7E7E7E7
310
E7E7E7E7E7E7E7E7E7E7E7E7E7E7E7E7E7E7E7E7E7E7E7E7E7E7E7E7E7E7E7E7E7E7E7E7E7E7E7E7E7E7E7E7E7E7E7E7E7E7E7E7E7E7E7E7E7E7E7E7E7E7E7E7E7E7E7E7E7E7E7E7E7E7E7E7E7E7E7E7E7E7E7E7E7E7E7E7E7E7E7E7E7E7E7E7E7E7E7E7E7E7E7E7E7E7E7E7E7E7E7E7E7E7E7E7E7E7E7E7E7E7E7E7E7E7E7
310
E7E7E7E7E7E7E7E7E7E7E7E7E7E7E7E7E7E7E7E7E7E7E7E7E7E7E7E7E7E7E7E7E7E7E7E7E7E7E7E7E7E7E7E7E7E7E7E7E7E7E7E7E7E7E7E7E7E7E7E7E7E7E7E7E7E7E7E7E7E7E7E7E7E7E7E7E7E7E7E7E7E7E7E7E7E7E7E7E7E7E7E7E7E7E7E7E7E7E7E7E7E7E7E7E7E7E7E7E7E7E7E7E7E7E7E7E7E7E7E7E7E7E7E7E7E7E7
310
E7E7E7E7E7E7E7E7E7E7E7E7E7E7E7E7E7E7E7E7E7E7E7E7E7E7E7E7E7E7E7E7E7E7E7E7E7E7E7E7E7E7E7E7E7E7E7E7E7E7E7E7E7E7E7E7E7E7E7E7E7E7E7E7E7E7E7E7E7E7E7E7E7E7E7E7E7E7E7E7E7E7E7E7E7E7E7E7E7E7E7E7E7E7E7E7E7E7E7E7E7E7E7E7E7E7E7E7E7E7E7E7E7E7E7E7E7E7E7E7E7E7E7E7E7E7E7
310
E7E7E7E7E7E7E7E7E7E7E7E7E7E7E7E7E7E7E7E7E7E7E7E7E7E7E7E7E7E7E7E7E7E7E7E7E7E7E7E7E7E7E7E7E7E7E7E7E7E7E7E7E7E7E7E7E7E7E7E7E7E7E7E7E7E7E7E7E7E7E7E7E7E7E7E7E7E7E7E7E7E7E7E7E7E7E7E7E7E7E7E7E7E7E7E7E7E7E7E7E7E7E7E7E7E7E7E7E7E7E7E7E7E7E7E7E7E7E7E7E7E7E7E7E7E7E7
310
E7E7E7E7E7E7E7E7E7E7E7E7E7E7E7E7E7E7E7E7E7E7E7E7E7E7E7E7E7E7E7E7E7E7E7E7E7E7E7E7E7E7E7E7E7E7E7E7E7E7E7E7E7E7E7E7E7E7E7E7E7E7E7E7E7E7E7E7E7E7E7E7E7E7E7E7E7E7E7E7E7E7E7E7E7E7E7E7E7E7E7E7E7E7E7E7E7E7E7E7E7E7E7E7E7E7E7E7E7E7E7E7E7E7E7E7E7E7E7E7E7E7E7E7E7E7E7
310
E7E7E7E7E7E7E7E7E7E7E7E7E7E7E7E7E7E7E7E7E7E7E7E7E7E7E7E7E7E7E7E7E7E7E7E7E7E7E7E7E7E7E7E7E7E7E7E7E7E7E7E7E7E7E7E7E7E7E7E7E7E7E7E7E7E7E7E7E7E7E7E7E7E7E7E7E7E7E7E7E7E7E7E7E7E7E7E7E7E7E7E7E7E7E7E7E7E7E7E7E7E7E7E7E7E7E7E7E7E7E7E7E7E7E7E7E7E7E7E7E7E7E7E7E7E7E7
310
E7E7E7E7E7E7E7E7E7E7E7E7E7E7E7E7E7E7E7E7E7E7E7E7E7E7E7E7E7E7E7E7E7E7E7E7E7E7E7E7E7E7E7E7E7E7E7E7E7E7E7E7E7E7E7E7E7E7E7E7E7E7E7E7E7E7E7E7E7E7E7E7E7E7E7E7E7E7E7E7E7E7E7E7E7E7E7E7E7E7E7E7E7E7E7E7E7E7E7E7E7E7E7E7E7E7E7E7E7E7E7E7E7E7E7E7E7E7E7E7E7E7E7E7E7E7E7
310
E7E7E7E7E7E7E7E7E7E7E7E7E7E7E7E7E7E7E7E7E7E7E7E7E7E7E7E7E7E7E7E7E7E7E7E7E7E7E7E7E7E7E7E7E7E7E7E7E7E7E7E7E7E7E7E7E7E7E7E7E7E7E7E7E7E7E7E7E7E7E7E7E7E7E7E7E7E7E7E7E7E7E7E7E7E7E7E7E7E7E7E7E7E7E7E7E7E7E7E7E7E7E7E7E7E7E7E7E7E7E7E7E7E7E7E7E7E7E7E7E7E7E7E7E7E7E7
310
E7E7E7E7E7E7E7E7E7E7E7E7E7E7E7E7E7E7E7E7E7E7E7E7E7E7E7E7E7E7E7E7E7E7E7E7E7E7E7E7E7E7E7E7E7E7E7E7E7E7E7E7E7E7E7E7E7E7E7E7E7E7E7E7E7E7E7E7E7E7E7E7E7E7E7E7E7E7E7E7E7E7E7E7E7E7E7E7E7E7E7E7E7E7E7E7E7E7E7E7E7E7E7E7E7E7E7E7E7E7E7E7E7E7E7E7E7E7E7E7E7E7E7E7E7E7E7
310
E7E7E7E7E7E7E7E7E7E7E7E7E7E7E7E7E7E7E7E7E7E7E7E7E7E7E7E7E7E7E7E7E7E7E7E7E7E7E7E7E7E7E7E7E7E7E7E7E7E7E7E7E7E7E7E7E7E7E7E7E7E7E7E7E7E7E7E7E7E7E7E7E7E7E7E7E7E7E7E7E7E7E7E7E7E7E7E7E7E7E7E7E7E7E7E7E7E7E7E7E7E7E7E7E7E7E7E7E7E7E7E7E7E7E7E7E7E7E7E7E7E7E7E7E7E7E7
310
E7E7E7E7E7E7E7E7E7E7E7E7E7E7E7E7E7E7E7E7E7E7E7E7E7E7E7E7E7E7E7E7E7E7E7E7E7E7E7E7E7E7E7E7E7E7E7E7E7E7E7E7E7E7E7E7E7E7E7E7E7E7E7E7E7E7E7E7E7E7E7E7E7E7E7E7E7E7E7E7E7E7E7E7E7E7E7E7E7E7E7E7E7E7E7E7E7E7E7E7E7E7E7E7E7E7E7E7E7E7E7E7E7E7E7E7E7E7E7E7E7E7E7E7E7E7E7
310
E7E7E7E7E7E7E7E7E7E7E7E7E7E7E7E7E7E7E7E7E7E7E7E7E7E7E7E7E7E7E7E7E7E7E7E7E7E7E7E7E7E7E7E7E7E7E7E7E7E7E7E7E7E7E7E7E7E7E7E7E7E7E7E7E7E7E7E7E7E7E7E7E7E7E7E7E7E7E7E7E7E7E7E7E7E7E7E7E7E7E7E7E7E7E7E7E7E7E7E7E7E7E7E7E7E7E7E7E7E7E7E7E7E7E7E7E7E7E7E7E7E7E7E7E7E7E7
310
E7E7E7E7E7E7E7E7E7E7E7E7E7E7E7E7E7E7E7E7E7E7E7E7E7E7E7E7E7E7E7E7E7E7E7E7E7E7E7E7E7E7E7E7E7E7E7E7E7E7E7E7E7E7E7E7E7E7E7E7E7E7E7E7E7E7E7E7E7E7E7E7E7E7E7E7E7E7E7E7E7E7E7E7E7E7E7E7E7E7E7E7E7E7E7E7E7E7E7E7E7E7E7E7E7E7E7E7E7E7E7E7E7E7E7E7E7E7E7E7E7E7E7E7E7E7E7
310
E7E7E7E7E7E7E7E7E7E7E7E7E7E7E7E7E7E7E7E7E7E7E7E7E7E7E7E7E7E7E7E7E7E7E7E7E7E7E7E7E7E7E7E7E7E7E7E7E7E7E7E7E7E7E7E7E7E7E7E7E7E7E7E7E7E7E7E7E7E7E7E7E7E7E7E7E7E7E7E7E7E7E7E7E7E7E7E7E7E7E7E7E7E7E7E7E7E7E7E7E7E7E7E7E7E7E7E7E7E7E7E7E7E7E7E7E7E7E7E7E7E7E7E7E7E7E7
310
E7E7E7E7E7E7E7E7E7E7E7E7E7E7E7E7E7E7E7E7E7E7E7E7E7E7E7E7E7E7E7E7E7E7E7E7E7E7E7E7E7E7E7E7E7E7E7E7E7E7E7E7E7E7E7E7E7E7E7E7E7E7E7E7E7E7E7E7E7E7E7E7E7E7E7E7E7E7E7E7E7E7E7E7E7E7E7E7E7E7E7E7E7E7E7E7E7E7E7E7E7E7E7E7E7E7E7E7E7E7E7E7E7E7E7E7E7E7E7E7E7E7E7E7E7E7E7
310
E7E7E7E7E7E7E7E7E7E7E7E7E7E7E7E7E7E7E7E7E7E7E7E7E7E7E7E7E7E7E7E7E7E7E7E7E7E7E7E7E7E7E7E7E7E7E7E7E7E7E7E7E7E7E7E7E7E7E7E7E7E7E7E7E7E7E7E7E7E7E7E7E7E7E7E7E7E7E7E7E7E7E7E7E7E7E7E7E7E7E7E7E7E7E7E7E7E7E7E7E7E7E7E7E7E7E7E7E7E7E7E7E7E7E7E7E7E7E7E7E7E7E7E7E7E7E7
310
E7E7E7E7E7E7E7E7E7E7E7E7E7E7E7E7E7E7E7E7E7E7E7E7E7E7E7E7E7E7E7E7E7E7E7E7E7E7E7E7E7E7E7E7E7E7E7E7E7E7E7E7E7E7E7E7E7E7E7E7E7E7E7E7E7E7E7E7E7E7E7E7E7E7E7E7E7E7E7E7E7E7E7E7E7E7E7E7E7E7E7E7E7E7E7E7E7E7E7E7E7E7E7E7E7E7E7E7E7E7E7E7E7E7E7E7E7E7E7E7E7E7E7E7E7E7E7
310
E7E7E7E7E7E7E7E7E7E7E7E7E7E7E7E7E7E7E7E7E7E7E7E7E7E7E7E7E7E7E7E7E7E7E7E7E7E7E7E7E7E7E7E7E7E7E7E7E7E7E7E7E7E7E7E7E7E7E7E7E7E7E7E7E7E7E7E7E7E7E7E7E7E7E7E7E7E7E7E7E7E7E7E7E7E7E7E7E7E7E7E7E7E7E7E7E7E7E7E7E7E7E7E7E7E7E7E7E7E7E7E7E7E7E7E7E7E7E7E7E7E7E7E7E7E7E7
310
E7E7E7E7E7E7E7E7E7E7E7E7E7E7E7E7E7E7E7E7E7E7E7E7E7E7E7E7E7E7E7E7E7E7E7E7E7E7E7E7E7E7E7E7E7E7E7E7E7E7E7E7E7E7E7E7E7E7E7E7E7E7E7E7E7E7E7E7E7E7E7E7E7E7E7E7E7E7E7E7E7E7E7E7E7E7E7E7E7E7E7E7E7E7E7E7E7E7E7E7E7E7E7E7E7E7E7E7E7E7E7E7E7E7E7E7E7E7E7E7E7E7E7E7E7E7E7
310
E7E7E7E7E7E7E7E7E7E7E7E7E7E7E7E7E7E7E7E7E7E7E7E7E7E7E7E7E7E7E7E7E7E7E7E7E7E7E7E7E7E7E7E7E7E7E7E7E7E7E7E7E7E7E7E7E7E7E7E7E7E7E7E7E7E7E7E7E7E7E7E7E7E7E7E7E7E7E7E7E7E7E7E7E7E7E7E7E7E7E7E7E7E7E7E7E7E7E7E7E7E7E7E7E7E7E7E7E7E7E7E7E7E7E7E7E7E7E7E7E7E7E7E7E7E7E7
310
E7E7E7E7E7E7E7E7E7E7E7E7E7E7E7E7E7E7E7E7E7E7E7E7E7E7E7E7E7E7E7E7E7E7E7E7E7E7E7E7E7E7E7E7E7E7E7E7E7E7E7E7E7E7E7E7E7E7E7E7E7E7E7E7E7E7E7E7E7E7E7E7E7E7E7E7E7E7E7E7E7E7E7E7E7E7E7E7E7E7E7E7E7E7E7E7E7E7E7E7E7E7E7E7E7E7E7E7E7E7E7E7E7E7E7E7E7E7E7E7E7E7E7E7E7E7E7
310
E7E7E7E7E7E7E7E7E7E7E7E7E7E7E7E7E7E7E7E7E7E7E7E7E7E7E7E7E7E7E7E7E7E7E7E7E7E7E7E7E7E7E7E7E7E7E7E7E7E7E7E7E7E7E7E7E7E7E7E7E7E7E7E7E7E7E7E7E7E7E7E7E7E7E7E7E7E7E7E7E7E7E7E7E7E7E7E7E7E7E7E7E7E7E7E7E7E7E7E7E7E7E7E7E7E7E7E7E7E7E7E7E7E7E7E7E7E7E7E7E7E7E7E7E7E7E7
310
E7E7E7E7E7E7E7E7E7E7E7E7E7E7E7E7E7E7E7E7E7E7E7E7E7E7E7E7E7E7E7E7E7E7E7E7E7E7E7E7E7E7E7E7E7E7E7E7E7E7E7E7E7E7E7E7E7E7E7E7E7E7E7E7E7E7E7E7E7E7E7E7E7E7E7E7E7E7E7E7E7E7E7E7E7E7E7E7E7E7E7E7E7E7E7E7E7E7E7E7E7E7E7E7E7E7E7E7E7E7E7E7E7E7E7E7E7E7E7E7E7E7E7E7E7E7E7
310
E7E7E7E7E7E7E7E7E7E7E7E7E7E7E7E7E7E7E7E7E7E7E7E7E7E7E7E7E7E7E7E7E7E7E7E7E7E7E7E7E7E7E7E7E7E7E7E7E7E7E7E7E7E7E7E7E7E7E7E7E7E7E7E7E7E7E7E7E7E7E7E7E7E7E7E7E7E7E7E7E7E7E7E7E7E7E7E7E7E7E7E7E7E7E7E7E7E7E7E7E7E7E7E7E7E7E7E7E7E7E7E7E7E7E7E7E7E7E7E7E7E7E7E7E7E7E7
310
E7E7E7E7E7E7E7E7E7E7E7E7E7E7E7E7E7E7E7E7E7E7E7E7E7E7E7E7E7E7E7E7E7E7E7E7E7E7E7E7E7E7E7E7E7E7E7E7E7E7E7E7E7E7E7E7E7E7E7E7E7E7E7E7E7E7E7E7E7E7E7E7E7E7E7E7E7E7E7E7E7E7E7E7E7E7E7E7E7E7E7E7E7E7E7E7E7E7E7E7E7E7E7E7E7E7E7E7E7E7E7E7E7E7E7E7E7E7E7E7E7E7E7E7E7E7E7
310
E7E7E7E7E7E7E7E7E7E7E7E7E7E7E7E7E7E7E7E7E7E7E7E7E7E7E7E7E7E7E7E7E7E7E7E7E7E7E7E7E7E7E7E7E7E7E7E7E7E7E7E7E7E7E7E7E7E7E7E7E7E7E7E7E7E7E7E7E7E7E7E7E7E7E7E7E7E7E7E7E7E7E7E7E7E7E7E7E7E7E7E7E7E7E7E7E7E7E7E7E7E7E7E7E7E7E7E7E7E7E7E7E7E7E7E7E7E7E7E7E7E7E7E7E7E7E7
310
E7E7E7E7E7E7E7E7E7E7E7E7E7E7E7E7E7E7E7E7E7E7E7E7E7E7E7E7E7E7E7E7E7E7E7E7E7E7E7E7E7E7E7E7E7E7E7E7E7E7E7E7E7E7E7E7E7E7E7E7E7E7E7E7E7E7E7E7E7E7E7E7E7E7E7E7E7E7E7E7E7E7E7E7E7E7E7E7E7E7E7E7E7E7E7E7E7E7E7E7E7E7E7E7E7E7E7E7E7E7E7E7E7E7E7E7E7E7E7E7E7E7E7E7E7E7E7
310
E7E7E7E7E7E7E7E7E7E7E7E7E7E7E7E7E7E7E7E7E7E7E7E7E7E7E7E7E7E7E7E7E7E7E7E7E7E7E7E7E7E7E7E7E7E7E7E7E7E7E7E7E7E7E7E7E7E7E7E7E7E7E7E7E7E7E7E7E7E7E7E7E7E7E7E7E7E7E7E7E7E7E7E7E7E7E7E7E7E7E7E7E7E7E7E7E7E7E7E7E7E7E7E7E7E7E7E7E7E7E7E7E7E7E7E7E7E7E7E7E7E7E7E7E7E7E7
310
E7E7E7E7E7E7E7E7E7E7E7E7E7E7E7E7E7E7E7E7E7E7E7E7E7E7E7E7E7E7E7E7E7E7E7E7E7E7E7E7E7E7E7E7E7E7E7E7E7E7E7E7E7E7E7E7E7E7E7E7E7E7E7E7E7E7E7E7E7E7E7E7E7E7E7E7E7E7E7E7E7E7E7E7E7E7E7E7E7E7E7E7E7E7E7E7E7E7E7E7E7E7E7E7E7E7E7E7E7E7E7E7E7E7E7E7E7E7E7E7E7E7E7E7E7E7E7
310
E7E7E7E7E7E7E7E7E7E7E7E7E7E7E7E7E7E7E7E7E7E7E7E7E7E7E7E7E7E7E7E7E7E7E7E7E7E7E7E7E7E7E7E7E7E7E7E7E7E7E7E7E7E7E7E7E7E7E7E7E7E7E7E7E7E7E7E7E7E7E7E7E7E7E7E7E7E7E7E7E7E7E7E7E7E7E7E7E7E7E7E7E7E7E7E7E7E7E7E7E7E7E7E7E7E7E7E7E7E7E7E7E7E7E7E7E7E7E7E7E7E7E7E7E7E7E7
310
E7E7E7E7E7E7E7E7E7E7E7E7E7E7E7E7E7E7E7E7E7E7E7E7E7E7E7E7E7E7E7E7E7E7E7E7E7E7E7E7E7E7E7E7E7E7E7E7E7E7E7E7E7E7E7E7E7E7E7E7E7E7E7E7E7E7E7E7E7E7E7E7E7E7E7E7E7E7E7E7E7E7E7E7E7E7E7E7E7E7E7E7E7E7E7E7E7E7E7E7E7E7E7E7E7E7E7E7E7E7E7E7E7E7E7E7E7E7E7E7E7E7E7E7E7E7E7
310
E7E7E7E7E7E7E7E7E7E7E7E7E7E7E7E7E7E7E7E7E7E7E7E7E7E7E7E7E7E7E7E7E7E7E7E7E7E7E7E7E7E7E7E7E7E7E7E7E7E7E7E7E7E7E7E7E7E7E7E7E7E7E7E7E7E7E7E7E7E7E7E7E7E7E7E7E7E7E7E7E7E7E7E7E7E7E7E7E7E7E7E7E7E7E7E7E7E7E7E7E7E7E7E7E7E7E7E7E7E7E7E7E7E7E7E7E7E7E7E7E7E7E7E7E7E7E7
310
E7E7E7E7E7E7E7E7E7E7E7E7E7E7E7E7E7E7E7E7E7E7E7E7E7E7E7E7E7E7E7E7E7E7E7E7E7E7E7E7E7E7E7E7E7E7E7E7E7E7E7E7E7E7E7E7E7E7E7E7E7E7E7E7E7E7E7E7E7E7E7E7E7E7E7E7E7E7E7E7E7E7E7E7E7E7E7E7E7E7E7E7E7E7E7E7E7E7E7E7E7E7E7E7E7E7E7E7E7E7E7E7E7E7E7E7E7E7E7E7E7E7E7E7E7E7E7
310
E7E7E7E7E7E7E7E7E7E7E7E7E7E7E7E7E7E7E7E7E7E7E7E7E7E7E7E7E7E7E7E7E7E7E7E7E7E7E7E7E7E7E7E7E7E7E7E7E7E7E7E7E7E7E7E7E7E7E7E7E7E7E7E7E7E7E7E7E7E7E7E7E7E7E7E7E7E7E7E7E7E7E7E7E7E7E7E7E7E7E7E7E7E7E7E7E7E7E7E7E7E7E7E7E7E7E7E7E7E7E7E7E7E7E7E7E7E7E7E7E7E7E7E7E7E7E7
310
E7E7E7E7E7E7E7E7E7E7E7E7E7E7E7E7E7E7E7E7E7E7E7E7E7E7E7E7E7E7E7E7E7E7E7E7E7E7E7E7E7E7E7E7E7E7E7E7E7E7E7E7E7E7E7E7E7E7E7E7E7E7E7E7E7E7E7E7E7E7E7E7E7E7E7E7E7E7E7E7E7E7E7E7E7E7E7E7E7E7E7E7E7E7E7E7E7E7E7E7E7E7E7E7E7E7E7E7E7E7E7E7E7E7E7E7E7E7E7E7E7E7E7E7E7E7E7
310
E7E7E7E7E7E7E7E7E7E7E7E7E7E7E7E7E7E7E7E7E7E7E7E7E7E7E7E7E7E7E7E7E7E7E7E7E7E7E7E7E7E7E7E7E7E7E7E7E7E7E7E7E7E7E7E7E7E7E7E7E7E7E7E7E7E7E7E7E7E7E7E7E7E7E7E7E7E7E7E7E7E7E7E7E7E7E7E7E7E7E7E7E7E7E7E7E7E7E7E7E7E7E7E7E7E7E7E7E7E7E7E7E7E7E7E7E7E7E7E7E7E7E7E7E7E7E7
310
E7E7E7E7E7E7E7E7E7E7E7E7E7E7E7E7E7E7E7E7E7E7E7E7E7E7E7E7E7E7E7E7E7E7E7E7E7E7E7E7E7E7E7E7E7E7E7E7E7E7E7E7E7E7E7E7E7E7E7E7E7E7E7E7E7E7E7E7E7E7E7E7E7E7E7E7E7E7E7E7E7E7E7E7E7E7E7E7E7E7E7E7E7E7E7E7E7E7E7E7E7E7E7E7E7E7E7E7E7E7E7E7E7E7E7E7E7E7E7E7E7E7E7E7E7E7E7
310
E7E7E7E7E7E7E7E7E7E7E7E7E7E7E7E7E7E7E7E7E7E7E7E7E7E7E7E7E7E7E7E7E7E7E7E7E7E7E7E7E7E7E7E7E7E7E7E7E7E7E7E7E7E7E7E7E7E7E7E7E7E7E7E7E7E7E7E7E7E7E7E7E7E7E7E7E7E7E7E7E7E7E7E7E7E7E7E7E7E7E7E7E7E7E7E7E7E7E7E7E7E7E7E7E7E7E7E7E7E7E7E7E7E7E7E7E7E7E7E7E7E7E7E7E7E7E7
310
E7E7E7E7E7E7E7E7E7E7E7E7E7E7E7E7E7E7E7E7E7E7E7E7E7E7E7E7E7E7E7E7E7E7E7E7E7E7E7E7E7E7E7E7E7E7E7E7E7E7E7E7E7E7E7E7E7E7E7E7E7E7E7E7E7E7E7E7E7E7E7E7E7E7E7E7E7E7E7E7E7E7E7E7E7E7E7E7E7E7E7E7E7E7E7E7E7E7E7E7E7E7E7E7E7E7E7E7E7E7E7E7E7E7E7E7E7E7E7E7E7E7E7E7E7E7E7
310
E7E7E7E7E7E7E7E7E7E7E7E7E7E7E7E7E7E7E7E7E7E7E7E7E7E7E7E7E7E7E7E7E7E7E7E7E7E7E7E7E7E7E7E7E7E7E7E7E7E7E7E7E7E7E7E7E7E7E7E7E7E7E7E7E7E7E7E7E7E7E7E7E7E7E7E7E7E7E7E7E7E7E7E7E7E7E7E7E7E7E7E7E7E7E7E7E7E7E7E7E7E7E7E7E7E7E7E7E7E7E7E7E7E7E7E7E7E7E7E7E7E7E7E7E7E7E7
310
E7E7E7E7E7E7E7E7E7E7E7E7E7E7E7E7E7E7E7E7E7E7E7E7E7E7E7E7E7E7E7E7E7E7E7E7E7E7E7E7E7E7E7E7E7E7E7E7E7E7E7E7E7E7E7E7E7E7E7E7E7E7E7E7E7E7E7E7E7E7E7E7E7E7E7E7E7E7E7E7E7E7E7E7E7E7E7E7E7E7E7E7E7E7E7E7E7E7E7E7E7E7E7E7E7E7E7E7E7E7E7E7E7E7E7E7E7E7E7E7E7E7E7E7E7E7E7
310
E7E7E7E7E7E7E7E7E7E7E7E7E7E7E7E7E7E7E7E7E7E7E7E7E7E7E7E7E7E7E7E7E7E7E7E7E7E7E7E7E7E7E7E7E7E7E7E7E7E7E7E7E7E7E7E7E7E7E7E7E7E7E7E7E7E7E7E7E7E7E7E7E7E7E7E7E7E7E7E7E7E7E7E7E7E7E7E7E7E7E7E7E7E7E7E7E7E7E7E7E7E7E7E7E7E7E7E7E7E7E7E7E7E7E7E7E7E7E7E7E7E7E7E7E7E7E7
310
E7E7E7E7E7E7E7E7E7E7E7E7E7E7E7E7E7E7E7E7E7E7E7E7E7E7E7E7E7E7E7E7E7E7E7E7E7E7E7E7E7E7E7E7E7E7E7E7E7E7E7E7E7E7E7E7E7E7E7E7E7E7E7E7E7E7E7E7E7E7E7E7E7E7E7E7E7E7E7E7E7E7E7E7E7E7E7E7E7E7E7E7E7E7E7E7E7E7E7E7E7E7E7E7E7E7E7E7E7E7E7E7E7E7E7E7E7E7E7E7E7E7E7E7E7E7E7
310
E7E7E7E7E7E7E7E7E7E7E7E7E7E7E7E7E7E7E7E7E7E7E7E7E7E7E7E7E7E7E7E7E7E7E7E7E7E7E7E7E7E7E7E7E7E7E7E7E7E7E7E7E7E7E7E7E7E7E7E7E7E7E7E7E7E7E7E7E7E7E7E7E7E7E7E7E7E7E7E7E7E7E7E7E7E7E7E7E7E7E7E7E7E7E7E7E7E7E7E7E7E7E7E7E7E7E7E7E7E7E7E7E7E7E7E7E7E7E7E7E7E7E7E7E7E7E7
310
E7E7E7E7E7E7E7E7E7E7E7E7E7E7E7E7E7E7E7E7E7E7E7E7E7E7E7E7E7E7E7E7E7E7E7E7E7E7E7E7E7E7E7E7E7E7E7E7E7E7E7E7E7E7E7E7E7E7E7E7E7E7E7E7E7E7E7E7E7E7E7E7E7E7E7E7E7E7E7E7E7E7E7E7E7E7E7E7E7E7E7E7E7E7E7E7E7E7E7E7E7E7E7E7E7E7E7E7E7E7E7E7E7E7E7E7E7E7E7E7E7E7E7E7E7E7E7
310
E7E7E7E7E7E7E7E7E7E7E7E7E7E7E7E7E7E7E7E7E7E7E7E7E7E7E7E7E7E7E7E7E7E7E7E7E7E7E7E7E7E7E7E7E7E7E7E7E7E7E7E7E7E7E7E7E7E7E7E7E7E7E7E7E7E7E7E7E7E7E7E7E7E7E7E7E7E7E7E7E7E7E7E7E7E7E7E7E7E7E7E7E7E7E7E7E7E7E7E7E7E7E7E7E7E7E7E7E7E7E7E7E7E7E7E7E7E7E7E7E7E7E7E7E7E7E7
310
E7E7E7E7E7E7E7E7E7E7E7E7E7E7E7E7E7E7E7E7E7E7E7E7E7E7E7E7E7E7E7E7E7E7E7E7E7E7E7E7E7E7E7E7E7E7E7E7E7E7E7E7E7E7E7E7E7E7E7E7E7E7E7E7E7E7E7E7E7E7E7E7E7E7E7E7E7E7E7E7E7E7E7E7E7E7E7E7E7E7E7E7E7E7E7E7E7E7E7E7E7E7E7E7E7E7E7E7E7E7E7E7E7E7E7E7E7E7E7E7E7E7E7E7E7E7E7
310
E7E7E7E7E7E7E7E7E7E7E7E7E7E7E7E7E7E7E7E7E7E7E7E7E7E7E7E7E7E7E7E7E7E7E7E7E7E7E7E7E7E7E7E7E7E7E7E7E7E7E7E7E7E7E7E7E7E7E7E7E7E7E7E7E7E7E7E7E7E7E7E7E7E7E7E7E7E7E7E7E7E7E7E7E7E7E7E7E7E7E7E7E7E7E7E7E7E7E7E7E7E7E7E7E7E7E7E7E7E7E7E7E7E7E7E7E7E7E7E7E7E7E7E7E7E7E7
310
E7E7E7E7E7E7E7E7E7E7E7E7E7E7E7E7E7E7E7E7E7E7E7E7E7E7E7E7E7E7E7E7E7E7E7E7E7E7E7E7E7E7E7E7E7E7E7E7E7E7E7E7E7E7E7E7E7E7E7E7E7E7E7E7E7E7E7E7E7E7E7E7E7E7E7E7E7E7E7E7E7E7E7E7E7E7E7E7E7E7E7E7E7E7E7E7E7E7E7E7E7E7E7E7E7E7E7E7E7E7E7E7E7E7E7E7E7E7E7E7E7E7E7E7E7E7E7
310
E7E7E7E7E7E7E7E7E7E7E7E7E7E7E7E7E7E7E7E7E7E7E7E7E7E7E7E7E7E7E7E7E7E7E7E7E7E7E7E7E7E7E7E7E7E7E7E7E7E7E7E7E7E7E7E7E7E7E7E7E7E7E7E7E7E7E7E7E7E7E7E7E7E7E7E7E7E7E7E7E7E7E7E7E7E7E7E7E7E7E7E7E7E7E7E7E7E7E7E7E7E7E7E7E7E7E7E7E7E7E7E7E7E7E7E7E7E7E7E7E7E7E7E7E7E7E7
310
E7E7E7E7E7E7E7E7E7E7E7E7E7E7E7E7E7E7E7E7E7E7E7E7E7E7E7E7E7E7E7E7E7E7E7E7E7E7E7E7E7E7E7E7E7E7E7E7E7E7E7E7E7E7E7E7E7E7E7E7E7E7E7E7E7E7E7E7E7E7E7E7E7E7E7E7E7E7E7E7E7E7E7E7E7E7E7E7E7E7E7E7E7E7E7E7E7E7E7E7E7E7E7E7E7E7E7E7E7E7E7E7E7E7E7E7E7E7E7E7E7E7E7E7E7E7E7
310
E7E7E7E7E7E7E7E7E7E7E7E7E7E7E7E7E7E7E7E7E7E7E7E7E7E7E7E7E7E7E7E7E7E7E7E7E7E7E7E7E7E7E7E7E7E7E7E7E7E7E7E7E7E7E7E7E7E7E7E7E7E7E7E7E7E7E7E7E7E7E7E7E7E7E7E7E7E7E7E7E7E7E7E7E7E7E7E7E7E7E7E7E7E7E7E7E7E7E7E7E7E7E7E7E7E7E7E7E7E7E7E7E7E7E7E7E7E7E7E7E7E7E7E7E7E7E7
310
E7E7E7E7E7E7E7E7E7E7E7E7E7E7E7E7E7E7E7E7E7E7E7E7E7E7E7E7E7E7E7E7E7E7E7E7E7E7E7E7E7E7E7E7E7E7E7E7E7E7E7E7E7E7E7E7E7E7E7E7E7E7E7E7E7E7E7E7E7E7E7E7E7E7E7E7E7E7E7E7E7E7E7E7E7E7E7E7E7E7E7E7E7E7E7E7E7E7E7E7E7E7E7E7E7E7E7E7E7E7E7E7E7E7E7E7E7E7E7E7E7E7E7E7E7E7E7
310
E7E7E7E7E7E7E7E7E7E7E7E7E7E7E7E7E7E7E7E7E7E7E7E7E7E7E7E7E7E7E7E7E7E7E7E7E7E7E7E7E7E7E7E7E7E7E7E7E7E7E7E7E7E7E7E7E7E7E7E7E7E7E7E7E7E7E7E7E7E7E7E7E7E7E7E7E7E7E7E7E7E7E7E7E7E7E7E7E7E7E7E7E7E7E7E7E7E7E7E7E7E7E7E7E7E7E7E7E7E7E7E7E7E7E7E7E7E7E7E7E7E7E7E7E7E7E7
310
E7E7E7E7E7E7E7E7E7E7E7E7E7E7E7E7E7E7E7E7E7E7E7E7E7E7E7E7E7E7E7E7E7E7E7E7E7E7E7E7E7E7E7E7E7E7E7E7E7E7E7E7E7E7E7E7E7E7E7E7E7E7E7E7E7E7E7E7E7E7E7E7E7E7E7E7E7E7E7E7E7E7E7E7E7E7E7E7E7E7E7E7E7E7E7E7E7E7E7E7E7E7E7E7E7E7E7E7E7E7E7E7E7E7E7E7E7E7E7E7E7E7E7E7E7E7E7
310
E7E7E7E7E7E7E7E7E7E7E7E7E7E7E7E7E7E7E7E7E7E7E7E7E7E7E7E7E7E7E7E7E7E7E7E7E7E7E7E7E7E7E7E7E7E7E7E7E7E7E7E7E7E7E7E7E7E7E7E7E7E7E7E7E7E7E7E7E7E7E7E7E7E7E7E7E7E7E7E7E7E7E7E7E7E7E7E7E7E7E7E7E7E7E7E7E7E7E7E7E7E7E7E7E7E7E7E7E7E7E7E7E7E7E7E7E7E7E7E7E7E7E7E7E7E7E7
310
E7E7E7E7E7E7E7E7E7E7E7E7E7E7E7E7E7E7E7E7E7E7E7E7E7E7E7E7E7E7E7E7E7E7E7E7E7E7E7E7E7E7E7E7E7E7E7E7E7E7E7E7E7E7E7E7E7E7E7E7E7E7E7E7E7E7E7E7E7E7E7E7E7E7E7E7E7E7E7E7E7E7E7E7E7E7E7E7E7E7E7E7E7E7E7E7E7E7E7E7E7E7E7E7E7E7E7E7E7E7E7E7E7E7E7E7E7E7E7E7E7E7E7E7E7E7E7
310
E7E7E7E7E7E7E7E7E7E7E7E7E7E7E7E7E7E7E7E7E7E7E7E7E7E7E7E7E7E7E7E7E7E7E7E7E7E7E7E7E7E7E7E7E7E7E7E7E7E7E7E7E7E7E7E7E7E7E7E7E7E7E7E7E7E7E7E7E7E7E7E7E7E7E7E7E7E7E7E7E7E7E7E7E7E7E7E7E7E7E7E7E7E7E7E7E7E7E7E7E7E7E7E7E7E7E7E7E7E7E7E7E7E7E7E7E7E7E7E7E7E7E7E7E7E7E7
310
E7E7E7E7E7E7E7E7E7E7E7E7E7E7E7E7E7E7E7E7E7E7E7E7E7E7E7E7E7E7E7E7E7E7E7E7E7E7E7E7E7E7E7E7E7E7E7E7E7E7E7E7E7E7E7E7E7E7E7E7E7E7E7E7E7E7E7E7E7E7E7E7E7E7E7E7E7E7E7E7E7E7E7E7E7E7E7E7E7E7E7E7E7E7E7E7E7E7E7E7E7E7E7E7E7E7E7E7E7E7E7E7E7E7E7E7E7E7E7E7E7E7E7E7E7E7E7
310
E7E7E7E7E7E7E7E7E7E7E7E7E7E7E7E7E7E7E7E7E7E7E7E7E7E7E7E7E7E7E7E7E7E7E7E7E7E7E7E7E7E7E7E7E7E7E7E7E7E7E7E7E7E7E7E7E7E7E7E7E7E7E7E7E7E7E7E7E7E7E7E7E7E7E7E7E7E7E7E7E7E7E7E7E7E7E7E7E7E7E7E7E7E7E7E7E7E7E7E7E7E7E7E7E7E7E7E7E7E7E7E7E7E7E7E7E7E7E7E7E7E7E7E7E7E7E7
310
E7E7E7E7E7E7E7E7E7E7E7E7E7E7E7E7E7E7E7E7E7E7E7E7E7E7E7E7E7E7E7E7E7E7E7E7E7E7E7E7E7E7E7E7E7E7E7E7E7E7E7E7E7E7E7E7E7E7E7E7E7E7E7E7E7E7E7E7E7E7E7E7E7E7E7E7E7E7E7E7E7E7E7E7E7E7E7E7E7E7E7E7E7E7E7E7E7E7E7E7E7E7E7E7E7E7E7E7E7E7E7E7E7E7E7E7E7E7E7E7E7E7E7E7E7E7E7
310
E7E7E7E7E7E7E7E7E7E7E7E7E7E7E7E7E7E7E7E7E7E7E7E7E7E7E7E7E7E7E7E7E7E7E7E7E7E7E7E7E7E7E7E7E7E7E7E7E7E7E7E7E7E7E7E7E7E7E7E7E7E7E7E7E7E7E7E7E7E7E7E7E7E7E7E7E7E7E7E7E7E7E7E7E7E7E7E7E7E7E7E7E7E7E7E7E7E7E7E7E7E7E7E7E7E7E7E7E7E7E7E7E7E7E7E7E7E7E7E7E7E7E7E7E7E7E7
310
E7E7E7E7E7E7E7E7E7E7E7E7E7E7E7E7E7E7E7E7E7E7E7E7E7E7E7E7E7E7E7E7E7E7E7E7E7E7E7E7E7E7E7E7E7E7E7E7E7E7E7E7E7E7E7E7E7E7E7E7E7E7E7E7E7E7E7E7E7E7E7E7E7E7E7E7E7E7E7E7E7E7E7E7E7E7E7E7E7E7E7E7E7E7E7E7E7E7E7E7E7E7E7E7E7E7E7E7E7E7E7E7E7E7E7E7E7E7E7E7E7E7E7E7E7E7E7
310
E7E7E7E7E7E7E7E7E7E7E7E7E7E7E7E7E7E7E7E7E7E7E7E7E7E7E7E7E7E7E7E7E7E7E7E7E7E7E7E7E7E7E7E7E7E7E7E7E7E7E7E7E7E7E7E7E7E7E7E7E7E7E7E7E7E7E7E7E7E7E7E7E7E7E7E7E7E7E7E7E7E7E7E7E7E7E7E7E7E7E7E7E7E7E7E7E7E7E7E7E7E7E7E7E7E7E7E7E7E7E7E7E7E7E7E7E7E7E7E7E7E7E7E7E7E7E7
310
E7E7E7E7E7E7E7E7E7E7E7E7E7E7E7E7E7E7E7E7E7E7E7E7E7E7E7E7E7E7E7E7E7E7E7E7E7E7E7E7E7E7E7E7E7E7E7E7E7E7E7E7E7E7E7E7E7E7E7E7E7E7E7E7E7E7E7E7E7E7E7E7E7E7E7E7E7E7E7E7E7E7E7E7E7E7E7E7E7E7E7E7E7E7E7E7E7E7E7E7E7E7E7E7E7E7E7E7E7E7E7E7E7E7E7E7E7E7E7E7E7E7E7E7E7E7E7
310
E7E7E7E7E7E7E7E7E7E7E7E7E7E7E7E7E7E7E7E7E7E7E7E7E7E7E7E7E7E7E7E7E7E7E7E7E7E7E7E7E7E7E7E7E7E7E7E7E7E7E7E7E7E7E7E7E7E7E7E7E7E7E7E7E7E7E7E7E7E7E7E7E7E7E7E7E7E7E7E7E7E7E7E7E7E7E7E7E7E7E7E7E7E7E7E7E7E7E7E7E7E7E7E7E7E7E7E7E7E7E7E7E7E7E7E7E7E7E7E7E7E7E7E7E7E7E7
310
E7E7E7E7E7E7E7E7E7E7E7E7E7E7E7E7E7E7E7E7E7E7E7E7E7E7E7E7E7E7E7E7E7E7E7E7E7E7E7E7E7E7E7E7E7E7E7E7E7E7E7E7E7E7E7E7E7E7E7E7E7E7E7E7E7E7E7E7E7E7E7E7E7E7E7E7E7E7E7E7E7E7E7E7E7E7E7E7E7E7E7E7E7E7E7E7E7E7E7E7E7E7E7E7E7E7E7E7E7E7E7E7E7E7E7E7E7E7E7E7E7E7E7E7E7E7E7
310
E7E7E7E7E7E7E7E7E7E7E7E7E7E7E7E7E7E7E7E7E7E7E7E7E7E7E7E7E7E7E7E7E7E7E7E7E7E7E7E7E7E7E7E7E7E7E7E7E7E7E7E7E7E7E7E7E7E7E7E7E7E7E7E7E7E7E7E7E7E7E7E7E7E7E7E7E7E7E7E7E7E7E7E7E7E7E7E7E7E7E7E7E7E7E7E7E7E7E7E7E7E7E7E7E7E7E7E7E7E7E7E7E7E7E7E7E7E7E7E7E7E7E7E7E7E7E7
310
E7E7E7E7E7E7E7E7E7E7E7E7E7E7E7E7E7E7E7E7E7E7E7E7E7E7E7E7E7E7E7E7E7E7E7E7E7E7E7E7E7E7E7E7E7E7E7E7E7E7E7E7E7E7E7E7E7E7E7E7E7E7E7E7E7E7E7E7E7E7E7E7E7E7E7E7E7E7E7E7E7E7E7E7E7E7E7E7E7E7E7E7E7E7E7E7E7E7E7E7E7E7E7E7E7E7E7E7E7E7E7E7E7E7E7E7E7E7E7E7E7E7E7E7E7E7E7
310
E7E7E7E7E7E7E7E7E7E7E7E7E7E7E7E7E7E7E7E7E7E7E7E7E7E7E7E7E7E7E7E7E7E7E7E7E7E7E7E7E7E7E7E7E7E7E7E7E7E7E7E7E7E7E7E7E7E7E7E7E7E7E7E7E7E7E7E7E7E7E7E7E7E7E7E7E7E7E7E7E7E7E7E7E7E7E7E7E7E7E7E7E7E7E7E7E7E7E7E7E7E7E7E7E7E7E7E7E7E7E7E7E7E7E7E7E7E7E7E7E7E7E7E7E7E7E7
310
E7E7E7E7E7E7E7E7E7E7E7E7E7E7E7E7E7E7E7E7E7E7E7E7E7E7E7E7E7E7E7E7E7E7E7E7E7E7E7E7E7E7E7E7E7E7E7E7E7E7E7E7E7E7E7E7E7E7E7E7E7E7E7E7E7E7E7E7E7E7E7E7E7E7E7E7E7E7E7E7E7E7E7E7E7E7E7E7E7E7E7E7E7E7E7E7E7E7E7E7E7E7E7E7E7E7E7E7E7E7E7E7E7E7E7E7E7E7E7E7E7E7E7E7E7E7E7
310
E7E7E7E7E7E7E7E7E7E7E7E7E7E7E7E7E7E7E7E7E7E7E7E7E7E7E7E7E7E7E7E7E7E7E7E7E7E7E7E7E7E7E7E7E7E7E7E7E7E7E7E7E7E7E7E7E7E7E7E7E7E7E7E7E7E7E7E7E7E7E7E7E7E7E7E7E7E7E7E7E7E7E7E7E7E7E7E7E7E7E7E7E7E7E7E7E7E7E7E7E7E7E7E7E7E7E7E7E7E7E7E7E7E7E7E7E7E7E7E7E7E7E7E7E7E7E7
310
E7E7E7E7E7E7E7E7E7E7E7E7E7E7E7E7E7E7E7E7E7E7E7E7E7E7E7E7E7E7E7E7E7E7E7E7E7E7E7E7E7E7E7E7E7E7E7E7E7E7E7E7E7E7E7E7E7E7E7E7E7E7E7E7E7E7E7E7E7E7E7E7E7E7E7E7E7E7E7E7E7E7E7E7E7E7E7E7E7E7E7E7E7E7E7E7E7E7E7E7E7E7E7E7E7E7E7E7E7E7E7E7E7E7E7E7E7E7E7E7E7E7E7E7E7E7E7
310
E7E7E7E7E7E7E7E7E7E7E7E7E7E7E7E7E7E7E7E7E7E7E7E7E7E7E7E7E7E7E7E7E7E7E7E7E7E7E7E7E7E7E7E7E7E7E7E7E7E7E7E7E7E7E7E7E7E7E7E7E7E7E7E7E7E7E7E7E7E7E7E7E7E7E7E7E7E7E7E7E7E7E7E7E7E7E7E7E7E7E7E7E7E7E7E7E7E7E7E7E7E7E7E7E7E7E7E7E7E7E7E7E7E7E7E7E7E7E7E7E7E7E7E7E7E7E7
310
E7E7E7E7E7E7E7E7E7E7E7E7E7E7E7E7E7E7E7E7E7E7E7E7E7E7E7E7E7E7E7E7E7E7E7E7E7E7E7E7E7E7E7E7E7E7E7E7E7E7E7E7E7E7E7E7E7E7E7E7E7E7E7E7E7E7E7E7E7E7E7E7E7E7E7E7E7E7E7E7E7E7E7E7E7E7E7E7E7E7E7E7E7E7E7E7E7E7E7E7E7E7E7E7E7E7E7E7E7E7E7E7E7E7E7E7E7E7E7E7E7E7E7E7E7E7E7
310
E7E7E7E7E7E7E7E7E7E7E7E7E7E7E7E7E7E7E7E7E7E7E7E7E7E7E7E7E7E7E7E7E7E7E7E7E7E7E7E7E7E7E7E7E7E7E7E7E7E7E7E7E7E7E7E7E7E7E7E7E7E7E7E7E7E7E7E7E7E7E7E7E7E7E7E7E7E7E7E7E7E7E7E7E7E7E7E7E7E7E7E7E7E7E7E7E7E7E7E7E7E7E7E7E7E7E7E7E7E7E7E7E7E7E7E7E7E7E7E7E7E7E7E7E7E7E7
310
E7E7E7E7E7E7E7E7E7E7E7E7E7E7E7E7E7E7E7E7E7E7E7E7E7E7E7E7E7E7E7E7E7E7E7E7E7E7E7E7E7E7E7E7E7E7E7E7E7E7E7E7E7E7E7E7E7E7E7E7E7E7E7E7E7E7E7E7E7E7E7E7E7E7E7E7E7E7E7E7E7E7E7E7E7E7E7E7E7E7E7E7E7E7E7E7E7E7E7E7E7E7E7E7E7E7E7E7E7E7E7E7E7E7E7E7E7E7E7E7E7E7E7E7E7E7E7
310
E7E7E7E7E7E7E7E7E7E7E7E7E7E7E7E7E7E7E7E7E7E7E7E7E7E7E7E7E7E7E7E7E7E7E7E7E7E7E7E7E7E7E7E7E7E7E7E7E7E7E7E7E7E7E7E7E7E7E7E7E7E7E7E7E7E7E7E7E7E7E7E7E7E7E7E7E7E7E7E7E7E7E7E7E7E7E7E7E7E7E7E7E7E7E7E7E7E7E7E7E7E7E7E7E7E7E7E7E7E7E7E7E7E7E7E7E7E7E7E7E7E7E7E7E7E7E7
310
E7E7E7E7E7E7E7E7E7E7E7E7E7E7E7E7E7E7E7E7E7E7E7E7E7E7E7E7E7E7E7E7E7E7E7E7E7E7E7E7E7E7E7E7E7E7E7E7E7E7E7E7E7E7E7E7E7E7E7E7E7E7E7E7E7E7E7E7E7E7E7E7E7E7E7E7E7E7E7E7E7E7E7E7E7E7E7E7E7E7E7E7E7E7E7E7E7E7E7E7E7E7E7E7E7E7E7E7E7E7E7E7E7E7E7E7E7E7E7E7E7E7E7E7E7E7E7
310
E7E7E7E7E7E7E7E7E7E7E7E7E7E7E7E7E7E7E7E7E7E7E7E7E7E7E7E7E7E7E7E7E7E7E7E7E7E7E7E7E7E7E7E7E7E7E7E7E7E7E7E7E7E7E7E7E7E7E7E7E7E7E7E7E7E7E7E7E7E7E7E7E7E7E7E7E7E7E7E7E7E7E7E7E7E7E7E7E7E7E7E7E7E7E7E7E7E7E7E7E7E7E7E7E7E7E7E7E7E7E7E7E7E7E7E7E7E7E7E7E7E7E7E7E7E7E7
310
E7E7E7E7E7E7E7E7E7E7E7E7E7E7E7E7E7E7E7E7E7E7E7E7E7E7E7E7E7E7E7E7E7E7E7E7E7E7E7E7E7E7E7E7E7E7E7E7E7E7E7E7E7E7E7E7E7E7E7E7E7E7E7E7E7E7E7E7E7E7E7E7E7E7E7E7E7E7E7E7E7E7E7E7E7E7E7E7E7E7E7E7E7E7E7E7E7E7E7E7E7E7E7E7E7E7E7E7E7E7E7E7E7E7E7E7E7E7E7E7E7E7E7E7E7E7E7
310
E7E7E7E7E7E7E7E7E7E7E7E7E7E7E7E7E7E7E7E7E7E7E7E7E7E7E7E7E7E7E7E7E7E7E7E7E7E7E7E7E7E7E7E7E7E7E7E7E7E7E7E7E7E7E7E7E7E7E7E7E7E7E7E7E7E7E7E7E7E7E7E7E7E7E7E7E7E7E7E7E7E7E7E7E7E7E7E7E7E7E7E7E7E7E7E7E7E7E7E7E7E7E7E7E7E7E7E7E7E7E7E7E7E7E7E7E7E7E7E7E7E7E7E7E7E7E7
310
E7E7E7E7E7E7E7E7E7E7E7E7E7E7E7E7E7E7E7E7E7E7E7E7E7E7E7E7E7E7E7E7E7E7E7E7E7E7E7E7E7E7E7E7E7E7E7E7
  0
XRECORD
  5
222F4
102
{ACAD_REACTORS
330
19DD6
102
}
330
19DD6
100
AcDbXrecord
280
     1
102
MATERIAL
148
0.0
149
0.0
149
0.0
 93
        0
 94
      127
282
     0
 72
     0
 77
     0
171
     0
175
     0
179
     0
273
     0
  0
XRECORD
  5
19DD8
102
{ACAD_REACTORS
330
19DD6
102
}
330
19DD6
100
AcDbXrecord
280
     1
270
     1
271
     1
  0
XRECORD
  5
19DD7
102
{ACAD_REACTORS
330
19DD6
102
}
330
19DD6
100
AcDbXrecord
280
     1
270
     1
271
     1
  0
XRECORD
  5
19DDB
102
{ACAD_REACTORS
330
19DD6
102
}
330
19DD6
100
AcDbXrecord
280
     1
270
     1
271
     1
  0
XRECORD
  5
19DDA
102
{ACAD_REACTORS
330
19DD6
102
}
330
19DD6
100
AcDbXrecord
280
     1
270
     1
271
     1
  0
XRECORD
  5
19DDC
102
{ACAD_REACTORS
330
19DD6
102
}
330
19DD6
100
AcDbXrecord
280
     1
270
     1
271
     1
  0
XRECORD
  5
19DD9
102
{ACAD_REACTORS
330
19DD6
102
}
330
19DD6
100
AcDbXrecord
280
     1
270
     1
271
     1
  0
XRECORD
  5
222F3
102
{ACAD_REACTORS
330
19DCE
102
}
330
19DCE
100
AcDbXrecord
280
     1
102
MATERIAL
148
0.0
149
0.0
149
0.0
 93
        0
 94
      127
282
     0
 72
     0
 77
     0
171
     0
175
     0
179
     0
273
     0
  0
XRECORD
  5
19DD0
102
{ACAD_REACTORS
330
19DCE
102
}
330
19DCE
100
AcDbXrecord
280
     1
270
     1
271
     1
  0
XRECORD
  5
19DCF
102
{ACAD_REACTORS
330
19DCE
102
}
330
19DCE
100
AcDbXrecord
280
     1
270
     1
271
     1
  0
XRECORD
  5
19DD3
102
{ACAD_REACTORS
330
19DCE
102
}
330
19DCE
100
AcDbXrecord
280
     1
270
     1
271
     1
  0
XRECORD
  5
19DD2
102
{ACAD_REACTORS
330
19DCE
102
}
330
19DCE
100
AcDbXrecord
280
     1
270
     1
271
     1
  0
XRECORD
  5
19DD4
102
{ACAD_REACTORS
330
19DCE
102
}
330
19DCE
100
AcDbXrecord
280
     1
270
     1
271
     1
  0
XRECORD
  5
19DD1
102
{ACAD_REACTORS
330
19DCE
102
}
330
19DCE
100
AcDbXrecord
280
     1
270
     1
271
     1
  0
XRECORD
  5
222F5
102
{ACAD_REACTORS
330
19DDE
102
}
330
19DDE
100
AcDbXrecord
280
     1
102
MATERIAL
148
0.0
149
0.0
149
0.0
 93
        0
 94
      127
282
     0
 72
     0
 77
     0
171
     0
175
     0
179
     0
273
     0
  0
XRECORD
  5
19DE0
102
{ACAD_REACTORS
330
19DDE
102
}
330
19DDE
100
AcDbXrecord
280
     1
270
     1
271
     1
  0
XRECORD
  5
19DDF
102
{ACAD_REACTORS
330
19DDE
102
}
330
19DDE
100
AcDbXrecord
280
     1
270
     1
271
     1
  0
XRECORD
  5
19DE3
102
{ACAD_REACTORS
330
19DDE
102
}
330
19DDE
100
AcDbXrecord
280
     1
270
     1
271
     1
  0
XRECORD
  5
19DE2
102
{ACAD_REACTORS
330
19DDE
102
}
330
19DDE
100
AcDbXrecord
280
     1
270
     1
271
     1
  0
XRECORD
  5
19DE4
102
{ACAD_REACTORS
330
19DDE
102
}
330
19DDE
100
AcDbXrecord
280
     1
270
     1
271
     1
  0
XRECORD
  5
19DE1
102
{ACAD_REACTORS
330
19DDE
102
}
330
19DDE
100
AcDbXrecord
280
     1
270
     1
271
     1
  0
CELLSTYLEMAP
  5
222EB
102
{ACAD_REACTORS
330
1ABD4
102
}
330
1ABD4
100
AcDbCellStyleMap
 90
        3
300
CELLSTYLE
  1
TABLEFORMAT_BEGIN
 90
        5
170
     1
 91
        0
 92
    32768
 62
   257
 93
        1
300
CONTENTFORMAT
  1
CONTENTFORMAT_BEGIN
 90
        0
 91
        0
 92
        4
 93
        0
300

 40
0.0
140
1.0
 94
        5
 62
     0
340
F
144
6.0
309
CONTENTFORMAT_END
171
     1
301
MARGIN
  1
CELLMARGIN_BEGIN
 40
1.5
 40
1.5
 40
1.5
 40
1.5
 40
0.18
 40
0.18
309
CELLMARGIN_END
 94
        6
 95
        1
302
GRIDFORMAT
  1
GRIDFORMAT_BEGIN
 90
        0
 91
        1
 62
     0
 92
       -2
340
0
 93
        0
 40
0.045
309
GRIDFORMAT_END
 95
        2
302
GRIDFORMAT
  1
GRIDFORMAT_BEGIN
 90
        0
 91
        1
 62
     0
 92
       -2
340
0
 93
        0
 40
0.045
309
GRIDFORMAT_END
 95
        4
302
GRIDFORMAT
  1
GRIDFORMAT_BEGIN
 90
        0
 91
        1
 62
     0
 92
       -2
340
0
 93
        0
 40
0.045
309
GRIDFORMAT_END
 95
        8
302
GRIDFORMAT
  1
GRIDFORMAT_BEGIN
 90
        0
 91
        1
 62
     0
 92
       -2
340
0
 93
        0
 40
0.045
309
GRIDFORMAT_END
 95
       16
302
GRIDFORMAT
  1
GRIDFORMAT_BEGIN
 90
        0
 91
        1
 62
     0
 92
       -2
340
0
 93
        0
 40
0.045
309
GRIDFORMAT_END
 95
       32
302
GRIDFORMAT
  1
GRIDFORMAT_BEGIN
 90
        0
 91
        1
 62
     0
 92
       -2
340
0
 93
        0
 40
0.045
309
GRIDFORMAT_END
309
TABLEFORMAT_END
  1
CELLSTYLE_BEGIN
 90
        1
 91
        1
300
_TITLE
309
CELLSTYLE_END
300
CELLSTYLE
  1
TABLEFORMAT_BEGIN
 90
        5
170
     1
 91
        0
 92
        0
 62
   257
 93
        1
300
CONTENTFORMAT
  1
CONTENTFORMAT_BEGIN
 90
        0
 91
        0
 92
        4
 93
        0
300

 40
0.0
140
1.0
 94
        5
 62
     0
340
F
144
4.5
309
CONTENTFORMAT_END
171
     1
301
MARGIN
  1
CELLMARGIN_BEGIN
 40
1.5
 40
1.5
 40
1.5
 40
1.5
 40
0.18
 40
0.18
309
CELLMARGIN_END
 94
        6
 95
        1
302
GRIDFORMAT
  1
GRIDFORMAT_BEGIN
 90
        0
 91
        1
 62
     0
 92
       -2
340
0
 93
        0
 40
0.045
309
GRIDFORMAT_END
 95
        2
302
GRIDFORMAT
  1
GRIDFORMAT_BEGIN
 90
        0
 91
        1
 62
     0
 92
       -2
340
0
 93
        0
 40
0.045
309
GRIDFORMAT_END
 95
        4
302
GRIDFORMAT
  1
GRIDFORMAT_BEGIN
 90
        0
 91
        1
 62
     0
 92
       -2
340
0
 93
        0
 40
0.045
309
GRIDFORMAT_END
 95
        8
302
GRIDFORMAT
  1
GRIDFORMAT_BEGIN
 90
        0
 91
        1
 62
     0
 92
       -2
340
0
 93
        0
 40
0.045
309
GRIDFORMAT_END
 95
       16
302
GRIDFORMAT
  1
GRIDFORMAT_BEGIN
 90
        0
 91
        1
 62
     0
 92
       -2
340
0
 93
        0
 40
0.045
309
GRIDFORMAT_END
 95
       32
302
GRIDFORMAT
  1
GRIDFORMAT_BEGIN
 90
        0
 91
        1
 62
     0
 92
       -2
340
0
 93
        0
 40
0.045
309
GRIDFORMAT_END
309
TABLEFORMAT_END
  1
CELLSTYLE_BEGIN
 90
        2
 91
        1
300
_HEADER
309
CELLSTYLE_END
300
CELLSTYLE
  1
TABLEFORMAT_BEGIN
 90
        5
170
     1
 91
        0
 92
        0
 62
   257
 93
        1
300
CONTENTFORMAT
  1
CONTENTFORMAT_BEGIN
 90
        0
 91
        0
 92
        4
 93
        0
300

 40
0.0
140
1.0
 94
        2
 62
     0
340
F
144
4.5
309
CONTENTFORMAT_END
171
     1
301
MARGIN
  1
CELLMARGIN_BEGIN
 40
1.5
 40
1.5
 40
1.5
 40
1.5
 40
0.18
 40
0.18
309
CELLMARGIN_END
 94
        6
 95
        1
302
GRIDFORMAT
  1
GRIDFORMAT_BEGIN
 90
        0
 91
        1
 62
     0
 92
       -2
340
0
 93
        0
 40
0.045
309
GRIDFORMAT_END
 95
        2
302
GRIDFORMAT
  1
GRIDFORMAT_BEGIN
 90
        0
 91
        1
 62
     0
 92
       -2
340
0
 93
        0
 40
0.045
309
GRIDFORMAT_END
 95
        4
302
GRIDFORMAT
  1
GRIDFORMAT_BEGIN
 90
        0
 91
        1
 62
     0
 92
       -2
340
0
 93
        0
 40
0.045
309
GRIDFORMAT_END
 95
        8
302
GRIDFORMAT
  1
GRIDFORMAT_BEGIN
 90
        0
 91
        1
 62
     0
 92
       -2
340
0
 93
        0
 40
0.045
309
GRIDFORMAT_END
 95
       16
302
GRIDFORMAT
  1
GRIDFORMAT_BEGIN
 90
        0
 91
        1
 62
     0
 92
       -2
340
0
 93
        0
 40
0.045
309
GRIDFORMAT_END
 95
       32
302
GRIDFORMAT
  1
GRIDFORMAT_BEGIN
 90
        0
 91
        1
 62
     0
 92
       -2
340
0
 93
        0
 40
0.045
309
GRIDFORMAT_END
309
TABLEFORMAT_END
  1
CELLSTYLE_BEGIN
 90
        3
 91
        2
300
_DATA
309
CELLSTYLE_END
  0
XRECORD
  5
222F2
102
{ACAD_REACTORS
330
1ABD4
102
}
330
1ABD4
100
AcDbXrecord
280
     1
102
ACAD_ROUNDTRIP_PRE2007_TABLESTYLE
 90
        4
 91
        0
  1

 92
        4
 93
        0
  2

 94
        4
 95
        0
  3

  0
XRECORD
  5
22301
102
{ACAD_REACTORS
330
22300
102
}
330
22300
100
AcDbXrecord
280
     1
102
RTVSPropertyOp0
 70
     1
102
RTVSPropertyOp1
 70
     1
102
RTVSPropertyOp2
 70
     1
102
RTVSPropertyOp3
 70
     1
102
RTVSPropertyOp4
 70
     1
102
RTVSPropertyOp5
 70
     1
102
RTVSPropertyOp6
 70
     1
102
RTVSPropertyOp7
 70
     1
102
RTVSPropertyOp8
 70
     1
102
RTVSPropertyOp9
 70
     1
102
RTVSPropertyOp10
 70
     1
102
RTVSPropertyOp11
 70
     1
102
RTVSPropertyOp12
 70
     1
102
RTVSPropertyOp13
 70
     1
102
RTVSPropertyOp14
 70
     1
102
RTVSPropertyOp15
 70
     1
102
RTVSPropertyOp16
 70
     1
102
RTVSPropertyOp17
 70
     1
102
RTVSPropertyOp18
 70
     1
102
RTVSPropertyOp19
 70
     1
102
RTVSPropertyOp20
 70
     1
102
RTVSPropertyOp21
 70
     1
102
RTVSPropertyOp22
 70
     1
102
RTVSPropertyOp23
 70
     1
102
RTVSPropertyOp24
 70
     1
102
RTVSPropertyOp25
 70
     1
102
RTVSPropertyOp26
 70
     1
102
RTVSPropertyOp27
 70
     1
  0
XRECORD
  5
22305
102
{ACAD_REACTORS
330
22304
102
}
330
22304
100
AcDbXrecord
280
     1
102
RTVSPropertyOp0
 70
     1
102
RTVSPropertyOp1
 70
     1
102
RTVSPropertyOp2
 70
     1
102
RTVSPropertyOp3
 70
     1
102
RTVSPropertyOp4
 70
     1
102
RTVSPropertyOp5
 70
     1
102
RTVSPropertyOp6
 70
     1
102
RTVSPropertyOp7
 70
     1
102
RTVSPropertyOp8
 70
     1
102
RTVSPropertyOp9
 70
     1
102
RTVSPropertyOp10
 70
     1
102
RTVSPropertyOp11
 70
     1
102
RTVSPropertyOp12
 70
     1
102
RTVSPropertyOp13
 70
     1
102
RTVSPropertyOp14
 70
     1
102
RTVSPropertyOp15
 70
     1
102
RTVSPropertyOp16
 70
     1
102
RTVSPropertyOp17
 70
     1
102
RTVSPropertyOp18
 70
     1
102
RTVSPropertyOp19
 70
     1
102
RTVSPropertyOp20
 70
     1
102
RTVSPropertyOp21
 70
     1
102
RTVSPropertyOp22
 70
     1
102
RTVSPropertyOp23
 70
     1
102
RTVSPropertyOp24
 70
     1
102
RTVSPropertyOp25
 70
     1
102
RTVSPropertyOp26
 70
     1
102
RTVSPropertyOp27
 70
     1
  0
XRECORD
  5
22303
102
{ACAD_REACTORS
330
22302
102
}
330
22302
100
AcDbXrecord
280
     1
102
RTVSPropertyOp0
 70
     1
102
RTVSPropertyOp1
 70
     1
102
RTVSPropertyOp2
 70
     1
102
RTVSPropertyOp3
 70
     1
102
RTVSPropertyOp4
 70
     1
102
RTVSPropertyOp5
 70
     1
102
RTVSPropertyOp6
 70
     1
102
RTVSPropertyOp7
 70
     1
102
RTVSPropertyOp8
 70
     1
102
RTVSPropertyOp9
 70
     1
102
RTVSPropertyOp10
 70
     1
102
RTVSPropertyOp11
 70
     1
102
RTVSPropertyOp12
 70
     1
102
RTVSPropertyOp13
 70
     1
102
RTVSPropertyOp14
 70
     1
102
RTVSPropertyOp15
 70
     1
102
RTVSPropertyOp16
 70
     1
102
RTVSPropertyOp17
 70
     1
102
RTVSPropertyOp18
 70
     1
102
RTVSPropertyOp19
 70
     1
102
RTVSPropertyOp20
 70
     1
102
RTVSPropertyOp21
 70
     1
102
RTVSPropertyOp22
 70
     1
102
RTVSPropertyOp23
 70
     1
102
RTVSPropertyOp24
 70
     1
102
RTVSPropertyOp25
 70
     1
102
RTVSPropertyOp26
 70
     1
102
RTVSPropertyOp27
 70
     1
  0
XRECORD
  5
222FF
102
{ACAD_REACTORS
330
222FE
102
}
330
222FE
100
AcDbXrecord
280
     1
102
RTVSPropertyOp0
 70
     1
102
RTVSPropertyOp1
 70
     1
102
RTVSPropertyOp2
 70
     1
102
RTVSPropertyOp3
 70
     1
102
RTVSPropertyOp4
 70
     1
102
RTVSPropertyOp5
 70
     1
102
RTVSPropertyOp6
 70
     1
102
RTVSPropertyOp7
 70
     1
102
RTVSPropertyOp8
 70
     1
102
RTVSPropertyOp9
 70
     1
102
RTVSPropertyOp10
 70
     1
102
RTVSPropertyOp11
 70
     1
102
RTVSPropertyOp12
 70
     1
102
RTVSPropertyOp13
 70
     1
102
RTVSPropertyOp14
 70
     1
102
RTVSPropertyOp15
 70
     1
102
RTVSPropertyOp16
 70
     1
102
RTVSPropertyOp17
 70
     1
102
RTVSPropertyOp18
 70
     1
102
RTVSPropertyOp19
 70
     1
102
RTVSPropertyOp20
 70
     1
102
RTVSPropertyOp21
 70
     1
102
RTVSPropertyOp22
 70
     1
102
RTVSPropertyOp23
 70
     1
102
RTVSPropertyOp24
 70
     1
102
RTVSPropertyOp25
 70
     1
102
RTVSPropertyOp26
 70
     1
102
RTVSPropertyOp27
 70
     1
  0
XRECORD
  5
2230D
102
{ACAD_REACTORS
330
2230C
102
}
330
2230C
100
AcDbXrecord
280
     1
102
RTVSPropertyOp0
 70
     1
102
RTVSPropertyOp1
 70
     1
102
RTVSPropertyOp2
 70
     1
102
RTVSPropertyOp3
 70
     1
102
RTVSPropertyOp4
 70
     1
102
RTVSPropertyOp5
 70
     1
102
RTVSPropertyOp6
 70
     1
102
RTVSPropertyOp7
 70
     1
102
RTVSPropertyOp8
 70
     1
102
RTVSPropertyOp9
 70
     1
102
RTVSPropertyOp10
 70
     1
102
RTVSPropertyOp11
 70
     1
102
RTVSPropertyOp12
 70
     1
102
RTVSPropertyOp13
 70
     1
102
RTVSPropertyOp14
 70
     1
102
RTVSPropertyOp15
 70
     1
102
RTVSPropertyOp16
 70
     1
102
RTVSPropertyOp17
 70
     1
102
RTVSPropertyOp18
 70
     1
102
RTVSPropertyOp19
 70
     1
102
RTVSPropertyOp20
 70
     1
102
RTVSPropertyOp21
 70
     1
102
RTVSPropertyOp22
 70
     1
102
RTVSPropertyOp23
 70
     1
102
RTVSPropertyOp24
 70
     1
102
RTVSPropertyOp25
 70
     1
102
RTVSPropertyOp26
 70
     1
102
RTVSPropertyOp27
 70
     1
  0
XRECORD
  5
22315
102
{ACAD_REACTORS
330
22314
102
}
330
22314
100
AcDbXrecord
280
     1
102
RTVSPropertyOp0
 70
     1
102
RTVSPropertyOp1
 70
     1
102
RTVSPropertyOp2
 70
     1
102
RTVSPropertyOp3
 70
     1
102
RTVSPropertyOp4
 70
     1
102
RTVSPropertyOp5
 70
     1
102
RTVSPropertyOp6
 70
     1
102
RTVSPropertyOp7
 70
     1
102
RTVSPropertyOp8
 70
     1
102
RTVSPropertyOp9
 70
     1
102
RTVSPropertyOp10
 70
     1
102
RTVSPropertyOp11
 70
     1
102
RTVSPropertyOp12
 70
     1
102
RTVSPropertyOp13
 70
     1
102
RTVSPropertyOp14
 70
     1
102
RTVSPropertyOp15
 70
     1
102
RTVSPropertyOp16
 70
     1
102
RTVSPropertyOp17
 70
     1
102
RTVSPropertyOp18
 70
     1
102
RTVSPropertyOp19
 70
     1
102
RTVSPropertyOp20
 70
     1
102
RTVSPropertyOp21
 70
     1
102
RTVSPropertyOp22
 70
     1
102
RTVSPropertyOp23
 70
     1
102
RTVSPropertyOp24
 70
     1
102
RTVSPropertyOp25
 70
     1
102
RTVSPropertyOp26
 70
     1
102
RTVSPropertyOp27
 70
     1
  0
XRECORD
  5
22307
102
{ACAD_REACTORS
330
22306
102
}
330
22306
100
AcDbXrecord
280
     1
102
RTVSPropertyOp0
 70
     1
102
RTVSPropertyOp1
 70
     1
102
RTVSPropertyOp2
 70
     1
102
RTVSPropertyOp3
 70
     1
102
RTVSPropertyOp4
 70
     1
102
RTVSPropertyOp5
 70
     1
102
RTVSPropertyOp6
 70
     1
102
RTVSPropertyOp7
 70
     1
102
RTVSPropertyOp8
 70
     1
102
RTVSPropertyOp9
 70
     1
102
RTVSPropertyOp10
 70
     1
102
RTVSPropertyOp11
 70
     1
102
RTVSPropertyOp12
 70
     1
102
RTVSPropertyOp13
 70
     1
102
RTVSPropertyOp14
 70
     1
102
RTVSPropertyOp15
 70
     1
102
RTVSPropertyOp16
 70
     1
102
RTVSPropertyOp17
 70
     1
102
RTVSPropertyOp18
 70
     1
102
RTVSPropertyOp19
 70
     1
102
RTVSPropertyOp20
 70
     1
102
RTVSPropertyOp21
 70
     1
102
RTVSPropertyOp22
 70
     1
102
RTVSPropertyOp23
 70
     1
102
RTVSPropertyOp24
 70
     1
102
RTVSPropertyOp25
 70
     1
102
RTVSPropertyOp26
 70
     1
102
RTVSPropertyOp27
 70
     1
  0
XRECORD
  5
2230B
102
{ACAD_REACTORS
330
2230A
102
}
330
2230A
100
AcDbXrecord
280
     1
102
RTVSPropertyOp0
 70
     1
102
RTVSPropertyOp1
 70
     1
102
RTVSPropertyOp2
 70
     1
102
RTVSPropertyOp3
 70
     1
102
RTVSPropertyOp4
 70
     1
102
RTVSPropertyOp5
 70
     1
102
RTVSPropertyOp6
 70
     1
102
RTVSPropertyOp7
 70
     1
102
RTVSPropertyOp8
 70
     1
102
RTVSPropertyOp9
 70
     1
102
RTVSPropertyOp10
 70
     1
102
RTVSPropertyOp11
 70
     1
102
RTVSPropertyOp12
 70
     1
102
RTVSPropertyOp13
 70
     1
102
RTVSPropertyOp14
 70
     1
102
RTVSPropertyOp15
 70
     1
102
RTVSPropertyOp16
 70
     1
102
RTVSPropertyOp17
 70
     1
102
RTVSPropertyOp18
 70
     1
102
RTVSPropertyOp19
 70
     1
102
RTVSPropertyOp20
 70
     1
102
RTVSPropertyOp21
 70
     1
102
RTVSPropertyOp22
 70
     1
102
RTVSPropertyOp23
 70
     1
102
RTVSPropertyOp24
 70
     1
102
RTVSPropertyOp25
 70
     1
102
RTVSPropertyOp26
 70
     1
102
RTVSPropertyOp27
 70
     1
  0
XRECORD
  5
2231B
102
{ACAD_REACTORS
330
2231A
102
}
330
2231A
100
AcDbXrecord
280
     1
102
RTVSPropertyOp0
 70
     0
102
RTVSPropertyOp1
 70
     0
102
RTVSPropertyOp2
 70
     0
102
RTVSPropertyOp3
 70
     0
102
RTVSPropertyOp4
 70
     0
102
RTVSPropertyOp5
 70
     0
102
RTVSPropertyOp6
 70
     0
102
RTVSPropertyOp7
 70
     0
102
RTVSPropertyOp8
 70
     0
102
RTVSPropertyOp9
 70
     0
102
RTVSPropertyOp10
 70
     0
102
RTVSPropertyOp11
 70
     0
102
RTVSPropertyOp12
 70
     0
102
RTVSPropertyOp13
 70
     0
102
RTVSPropertyOp14
 70
     2
102
RTVSPropertyOp15
 70
     0
102
RTVSPropertyOp16
 70
     0
102
RTVSPropertyOp17
 70
     0
102
RTVSPropertyOp18
 70
     0
102
RTVSPropertyOp19
 70
     0
102
RTVSPropertyOp20
 70
     0
102
RTVSPropertyOp21
 70
     0
102
RTVSPropertyOp22
 70
     0
102
RTVSPropertyOp23
 70
     0
102
RTVSPropertyOp24
 70
     0
102
RTVSPropertyOp25
 70
     0
102
RTVSPropertyOp26
 70
     0
102
RTVSPropertyOp27
 70
     0
  0
XRECORD
  5
22313
102
{ACAD_REACTORS
330
22312
102
}
330
22312
100
AcDbXrecord
280
     1
102
RTVSPropertyOp0
 70
     1
102
RTVSPropertyOp1
 70
     1
102
RTVSPropertyOp2
 70
     1
102
RTVSPropertyOp3
 70
     1
102
RTVSPropertyOp4
 70
     1
102
RTVSPropertyOp5
 70
     1
102
RTVSPropertyOp6
 70
     1
102
RTVSPropertyOp7
 70
     1
102
RTVSPropertyOp8
 70
     1
102
RTVSPropertyOp9
 70
     1
102
RTVSPropertyOp10
 70
     1
102
RTVSPropertyOp11
 70
     1
102
RTVSPropertyOp12
 70
     1
102
RTVSPropertyOp13
 70
     1
102
RTVSPropertyOp14
 70
     1
102
RTVSPropertyOp15
 70
     1
102
RTVSPropertyOp16
 70
     1
102
RTVSPropertyOp17
 70
     1
102
RTVSPropertyOp18
 70
     1
102
RTVSPropertyOp19
 70
     1
102
RTVSPropertyOp20
 70
     1
102
RTVSPropertyOp21
 70
     1
102
RTVSPropertyOp22
 70
     1
102
RTVSPropertyOp23
 70
     1
102
RTVSPropertyOp24
 70
     1
102
RTVSPropertyOp25
 70
     1
102
RTVSPropertyOp26
 70
     1
102
RTVSPropertyOp27
 70
     1
  0
XRECORD
  5
222F7
102
{ACAD_REACTORS
330
222F6
102
}
330
222F6
100
AcDbXrecord
280
     1
102
RTVSPropertyOp0
 70
     1
102
RTVSPropertyOp1
 70
     1
102
RTVSPropertyOp2
 70
     1
102
RTVSPropertyOp3
 70
     1
102
RTVSPropertyOp4
 70
     1
102
RTVSPropertyOp5
 70
     1
102
RTVSPropertyOp6
 70
     1
102
RTVSPropertyOp7
 70
     1
102
RTVSPropertyOp8
 70
     1
102
RTVSPropertyOp9
 70
     1
102
RTVSPropertyOp10
 70
     1
102
RTVSPropertyOp11
 70
     1
102
RTVSPropertyOp12
 70
     1
102
RTVSPropertyOp13
 70
     1
102
RTVSPropertyOp14
 70
     1
102
RTVSPropertyOp15
 70
     1
102
RTVSPropertyOp16
 70
     1
102
RTVSPropertyOp17
 70
     1
102
RTVSPropertyOp18
 70
     1
102
RTVSPropertyOp19
 70
     1
102
RTVSPropertyOp20
 70
     1
102
RTVSPropertyOp21
 70
     1
102
RTVSPropertyOp22
 70
     1
102
RTVSPropertyOp23
 70
     1
102
RTVSPropertyOp24
 70
     1
102
RTVSPropertyOp25
 70
     1
102
RTVSPropertyOp26
 70
     1
102
RTVSPropertyOp27
 70
     1
  0
XRECORD
  5
222F9
102
{ACAD_REACTORS
330
222F8
102
}
330
222F8
100
AcDbXrecord
280
     1
102
RTVSPropertyOp0
 70
     1
102
RTVSPropertyOp1
 70
     1
102
RTVSPropertyOp2
 70
     1
102
RTVSPropertyOp3
 70
     1
102
RTVSPropertyOp4
 70
     1
102
RTVSPropertyOp5
 70
     1
102
RTVSPropertyOp6
 70
     1
102
RTVSPropertyOp7
 70
     1
102
RTVSPropertyOp8
 70
     1
102
RTVSPropertyOp9
 70
     1
102
RTVSPropertyOp10
 70
     1
102
RTVSPropertyOp11
 70
     1
102
RTVSPropertyOp12
 70
     1
102
RTVSPropertyOp13
 70
     1
102
RTVSPropertyOp14
 70
     1
102
RTVSPropertyOp15
 70
     1
102
RTVSPropertyOp16
 70
     1
102
RTVSPropertyOp17
 70
     1
102
RTVSPropertyOp18
 70
     1
102
RTVSPropertyOp19
 70
     1
102
RTVSPropertyOp20
 70
     1
102
RTVSPropertyOp21
 70
     1
102
RTVSPropertyOp22
 70
     1
102
RTVSPropertyOp23
 70
     1
102
RTVSPropertyOp24
 70
     1
102
RTVSPropertyOp25
 70
     1
102
RTVSPropertyOp26
 70
     1
102
RTVSPropertyOp27
 70
     1
  0
XRECORD
  5
222FB
102
{ACAD_REACTORS
330
222FA
102
}
330
222FA
100
AcDbXrecord
280
     1
102
RTVSPropertyOp0
 70
     1
102
RTVSPropertyOp1
 70
     1
102
RTVSPropertyOp2
 70
     1
102
RTVSPropertyOp3
 70
     1
102
RTVSPropertyOp4
 70
     1
102
RTVSPropertyOp5
 70
     1
102
RTVSPropertyOp6
 70
     1
102
RTVSPropertyOp7
 70
     1
102
RTVSPropertyOp8
 70
     1
102
RTVSPropertyOp9
 70
     1
102
RTVSPropertyOp10
 70
     1
102
RTVSPropertyOp11
 70
     1
102
RTVSPropertyOp12
 70
     1
102
RTVSPropertyOp13
 70
     1
102
RTVSPropertyOp14
 70
     1
102
RTVSPropertyOp15
 70
     1
102
RTVSPropertyOp16
 70
     1
102
RTVSPropertyOp17
 70
     1
102
RTVSPropertyOp18
 70
     1
102
RTVSPropertyOp19
 70
     1
102
RTVSPropertyOp20
 70
     1
102
RTVSPropertyOp21
 70
     1
102
RTVSPropertyOp22
 70
     1
102
RTVSPropertyOp23
 70
     1
102
RTVSPropertyOp24
 70
     1
102
RTVSPropertyOp25
 70
     1
102
RTVSPropertyOp26
 70
     1
102
RTVSPropertyOp27
 70
     1
  0
XRECORD
  5
222FD
102
{ACAD_REACTORS
330
222FC
102
}
330
222FC
100
AcDbXrecord
280
     1
102
RTVSPropertyOp0
 70
     1
102
RTVSPropertyOp1
 70
     1
102
RTVSPropertyOp2
 70
     1
102
RTVSPropertyOp3
 70
     1
102
RTVSPropertyOp4
 70
     1
102
RTVSPropertyOp5
 70
     1
102
RTVSPropertyOp6
 70
     1
102
RTVSPropertyOp7
 70
     1
102
RTVSPropertyOp8
 70
     1
102
RTVSPropertyOp9
 70
     1
102
RTVSPropertyOp10
 70
     1
102
RTVSPropertyOp11
 70
     1
102
RTVSPropertyOp12
 70
     1
102
RTVSPropertyOp13
 70
     1
102
RTVSPropertyOp14
 70
     1
102
RTVSPropertyOp15
 70
     1
102
RTVSPropertyOp16
 70
     1
102
RTVSPropertyOp17
 70
     1
102
RTVSPropertyOp18
 70
     1
102
RTVSPropertyOp19
 70
     1
102
RTVSPropertyOp20
 70
     1
102
RTVSPropertyOp21
 70
     1
102
RTVSPropertyOp22
 70
     1
102
RTVSPropertyOp23
 70
     1
102
RTVSPropertyOp24
 70
     1
102
RTVSPropertyOp25
 70
     1
102
RTVSPropertyOp26
 70
     1
102
RTVSPropertyOp27
 70
     1
  0
XRECORD
  5
22317
102
{ACAD_REACTORS
330
22316
102
}
330
22316
100
AcDbXrecord
280
     1
102
RTVSPropertyOp0
 70
     0
102
RTVSPropertyOp1
 70
     0
102
RTVSPropertyOp2
 70
     0
102
RTVSPropertyOp3
 70
     0
102
RTVSPropertyOp4
 70
     0
102
RTVSPropertyOp5
 70
     0
102
RTVSPropertyOp6
 70
     0
102
RTVSPropertyOp7
 70
     0
102
RTVSPropertyOp8
 70
     0
102
RTVSPropertyOp9
 70
     0
102
RTVSPropertyOp10
 70
     0
102
RTVSPropertyOp11
 70
     0
102
RTVSPropertyOp12
 70
     0
102
RTVSPropertyOp13
 70
     0
102
RTVSPropertyOp14
 70
     2
102
RTVSPropertyOp15
 70
     0
102
RTVSPropertyOp16
 70
     0
102
RTVSPropertyOp17
 70
     0
102
RTVSPropertyOp18
 70
     0
102
RTVSPropertyOp19
 70
     0
102
RTVSPropertyOp20
 70
     0
102
RTVSPropertyOp21
 70
     0
102
RTVSPropertyOp22
 70
     0
102
RTVSPropertyOp23
 70
     0
102
RTVSPropertyOp24
 70
     0
102
RTVSPropertyOp25
 70
     0
102
RTVSPropertyOp26
 70
     0
102
RTVSPropertyOp27
 70
     0
  0
XRECORD
  5
22311
102
{ACAD_REACTORS
330
22310
102
}
330
22310
100
AcDbXrecord
280
     1
102
RTVSPropertyOp0
 70
     1
102
RTVSPropertyOp1
 70
     1
102
RTVSPropertyOp2
 70
     1
102
RTVSPropertyOp3
 70
     1
102
RTVSPropertyOp4
 70
     1
102
RTVSPropertyOp5
 70
     1
102
RTVSPropertyOp6
 70
     1
102
RTVSPropertyOp7
 70
     1
102
RTVSPropertyOp8
 70
     1
102
RTVSPropertyOp9
 70
     1
102
RTVSPropertyOp10
 70
     1
102
RTVSPropertyOp11
 70
     1
102
RTVSPropertyOp12
 70
     1
102
RTVSPropertyOp13
 70
     1
102
RTVSPropertyOp14
 70
     1
102
RTVSPropertyOp15
 70
     1
102
RTVSPropertyOp16
 70
     1
102
RTVSPropertyOp17
 70
     1
102
RTVSPropertyOp18
 70
     1
102
RTVSPropertyOp19
 70
     1
102
RTVSPropertyOp20
 70
     1
102
RTVSPropertyOp21
 70
     1
102
RTVSPropertyOp22
 70
     1
102
RTVSPropertyOp23
 70
     1
102
RTVSPropertyOp24
 70
     1
102
RTVSPropertyOp25
 70
     1
102
RTVSPropertyOp26
 70
     1
102
RTVSPropertyOp27
 70
     1
  0
XRECORD
  5
22319
102
{ACAD_REACTORS
330
22318
102
}
330
22318
100
AcDbXrecord
280
     1
102
RTVSPropertyOp0
 70
     0
102
RTVSPropertyOp1
 70
     0
102
RTVSPropertyOp2
 70
     0
102
RTVSPropertyOp3
 70
     0
102
RTVSPropertyOp4
 70
     0
102
RTVSPropertyOp5
 70
     0
102
RTVSPropertyOp6
 70
     0
102
RTVSPropertyOp7
 70
     0
102
RTVSPropertyOp8
 70
     0
102
RTVSPropertyOp9
 70
     0
102
RTVSPropertyOp10
 70
     0
102
RTVSPropertyOp11
 70
     0
102
RTVSPropertyOp12
 70
     0
102
RTVSPropertyOp13
 70
     0
102
RTVSPropertyOp14
 70
     2
102
RTVSPropertyOp15
 70
     0
102
RTVSPropertyOp16
 70
     0
102
RTVSPropertyOp17
 70
     0
102
RTVSPropertyOp18
 70
     0
102
RTVSPropertyOp19
 70
     0
102
RTVSPropertyOp20
 70
     0
102
RTVSPropertyOp21
 70
     0
102
RTVSPropertyOp22
 70
     0
102
RTVSPropertyOp23
 70
     0
102
RTVSPropertyOp24
 70
     0
102
RTVSPropertyOp25
 70
     0
102
RTVSPropertyOp26
 70
     0
102
RTVSPropertyOp27
 70
     0
  0
XRECORD
  5
22309
102
{ACAD_REACTORS
330
22308
102
}
330
22308
100
AcDbXrecord
280
     1
102
RTVSPropertyOp0
 70
     1
102
RTVSPropertyOp1
 70
     1
102
RTVSPropertyOp2
 70
     1
102
RTVSPropertyOp3
 70
     1
102
RTVSPropertyOp4
 70
     1
102
RTVSPropertyOp5
 70
     1
102
RTVSPropertyOp6
 70
     1
102
RTVSPropertyOp7
 70
     1
102
RTVSPropertyOp8
 70
     1
102
RTVSPropertyOp9
 70
     1
102
RTVSPropertyOp10
 70
     1
102
RTVSPropertyOp11
 70
     1
102
RTVSPropertyOp12
 70
     1
102
RTVSPropertyOp13
 70
     1
102
RTVSPropertyOp14
 70
     1
102
RTVSPropertyOp15
 70
     1
102
RTVSPropertyOp16
 70
     1
102
RTVSPropertyOp17
 70
     1
102
RTVSPropertyOp18
 70
     1
102
RTVSPropertyOp19
 70
     1
102
RTVSPropertyOp20
 70
     1
102
RTVSPropertyOp21
 70
     1
102
RTVSPropertyOp22
 70
     1
102
RTVSPropertyOp23
 70
     1
102
RTVSPropertyOp24
 70
     1
102
RTVSPropertyOp25
 70
     1
102
RTVSPropertyOp26
 70
     1
102
RTVSPropertyOp27
 70
     1
  0
XRECORD
  5
2230F
102
{ACAD_REACTORS
330
2230E
102
}
330
2230E
100
AcDbXrecord
280
     1
102
RTVSPropertyOp0
 70
     1
102
RTVSPropertyOp1
 70
     1
102
RTVSPropertyOp2
 70
     1
102
RTVSPropertyOp3
 70
     1
102
RTVSPropertyOp4
 70
     1
102
RTVSPropertyOp5
 70
     1
102
RTVSPropertyOp6
 70
     1
102
RTVSPropertyOp7
 70
     1
102
RTVSPropertyOp8
 70
     1
102
RTVSPropertyOp9
 70
     1
102
RTVSPropertyOp10
 70
     1
102
RTVSPropertyOp11
 70
     1
102
RTVSPropertyOp12
 70
     1
102
RTVSPropertyOp13
 70
     1
102
RTVSPropertyOp14
 70
     1
102
RTVSPropertyOp15
 70
     1
102
RTVSPropertyOp16
 70
     1
102
RTVSPropertyOp17
 70
     1
102
RTVSPropertyOp18
 70
     1
102
RTVSPropertyOp19
 70
     1
102
RTVSPropertyOp20
 70
     1
102
RTVSPropertyOp21
 70
     1
102
RTVSPropertyOp22
 70
     1
102
RTVSPropertyOp23
 70
     1
102
RTVSPropertyOp24
 70
     1
102
RTVSPropertyOp25
 70
     1
102
RTVSPropertyOp26
 70
     1
102
RTVSPropertyOp27
 70
     1
  0
ENDSEC
  0
EOF
