  0
SECTION
  2
HEADER
  9
$ACADVER
  1
AC1015
  9
$ACADMAINTVER
 70
    20
  9
$DWGCODEPAGE
  3
ANSI_932
  9
$INSBASE
 10
0.0
 20
0.0
 30
0.0
  9
$EXTMIN
 10
400.0120047284647
 20
-720.8213440219346
 30
0.0
  9
$EXTMAX
 10
765.516241615365
 20
-514.9739772994519
 30
0.0
  9
$LIMMIN
 10
0.0
 20
0.0
  9
$LIMMAX
 10
420.0
 20
297.0
  9
$ORTHOMODE
 70
     0
  9
$REGENMODE
 70
     1
  9
$FILLMODE
 70
     1
  9
$QTEXTMODE
 70
     0
  9
$MIRRTEXT
 70
     0
  9
$LTSCALE
 40
0.5
  9
$ATTMODE
 70
     1
  9
$TEXTSIZE
 40
4.0
  9
$TRACEWID
 40
1.0
  9
$TEXTSTYLE
  7
STANDARD
  9
$CLAYER
  8
1TEXT
  9
$CELTYPE
  6
BYLAYER
  9
$CECOLOR
 62
   256
  9
$CELTSCALE
 40
1.0
  9
$DISPSILH
 70
     0
  9
$DIMSCALE
 40
1.0
  9
$DIMASZ
 40
2.0
  9
$DIMEXO
 40
0.0
  9
$DIMDLI
 40
7.0
  9
$DIMRND
 40
0.0
  9
$DIMDLE
 40
0.0
  9
$DIMEXE
 40
1.0
  9
$DIMTP
 40
0.0
  9
$DIMTM
 40
0.0
  9
$DIMTXT
 40
3.5
  9
$DIMCEN
 40
0.0
  9
$DIMTSZ
 40
0.0
  9
$DIMTOL
 70
     0
  9
$DIMLIM
 70
     0
  9
$DIMTIH
 70
     0
  9
$DIMTOH
 70
     0
  9
$DIMSE1
 70
     0
  9
$DIMSE2
 70
     0
  9
$DIMTAD
 70
     1
  9
$DIMZIN
 70
     8
  9
$DIMBLK
  1

  9
$DIMASO
 70
     1
  9
$DIMSHO
 70
     1
  9
$DIMPOST
  1
 
  9
$DIMAPOST
  1

  9
$DIMALT
 70
     0
  9
$DIMALTD
 70
     2
  9
$DIMALTF
 40
25.4
  9
$DIMLFAC
 40
1.0
  9
$DIMTOFL
 70
     1
  9
$DIMTVP
 40
0.0
  9
$DIMTIX
 70
     0
  9
$DIMSOXD
 70
     0
  9
$DIMSAH
 70
     1
  9
$DIMBLK1
  1
OPEN30
  9
$DIMBLK2
  1
OPEN30
  9
$DIMSTYLE
  2
NEWX10
  9
$DIMCLRD
 70
   256
  9
$DIMCLRE
 70
   256
  9
$DIMCLRT
 70
   201
  9
$DIMTFAC
 40
0.7
  9
$DIMGAP
 40
0.7
  9
$DIMJUST
 70
     0
  9
$DIMSD1
 70
     0
  9
$DIMSD2
 70
     0
  9
$DIMTOLJ
 70
     1
  9
$DIMTZIN
 70
     8
  9
$DIMALTZ
 70
     0
  9
$DIMALTTZ
 70
     0
  9
$DIMUPT
 70
     0
  9
$DIMDEC
 70
     2
  9
$DIMTDEC
 70
     4
  9
$DIMALTU
 70
     2
  9
$DIMALTTD
 70
     2
  9
$DIMTXSTY
  7
STANDARD
  9
$DIMAUNIT
 70
     0
  9
$DIMADEC
 70
     2
  9
$DIMALTRND
 40
0.0
  9
$DIMAZIN
 70
     2
  9
$DIMDSEP
 70
    46
  9
$DIMATFIT
 70
     2
  9
$DIMFRAC
 70
     0
  9
$DIMLDRBLK
  1

  9
$DIMLUNIT
 70
     2
  9
$DIMLWD
 70
    -2
  9
$DIMLWE
 70
    -2
  9
$DIMTMOVE
 70
     0
  9
$LUNITS
 70
     2
  9
$LUPREC
 70
     4
  9
$SKETCHINC
 40
1.0
  9
$FILLETRAD
 40
0.0
  9
$AUNITS
 70
     0
  9
$AUPREC
 70
     2
  9
$MENU
  1
acad
  9
$ELEVATION
 40
0.0
  9
$PELEVATION
 40
0.0
  9
$THICKNESS
 40
0.0
  9
$LIMCHECK
 70
     0
  9
$CHAMFERA
 40
1.0
  9
$CHAMFERB
 40
1.0
  9
$CHAMFERC
 40
20.0
  9
$CHAMFERD
 40
0.0
  9
$SKPOLY
 70
     0
  9
$TDCREATE
 40
2453033.732663484
  9
$TDUCREATE
 40
2453033.357663484
  9
$TDUPDATE
 40
2457662.601414746
  9
$TDUUPDATE
 40
2457662.226414746
  9
$TDINDWG
 40
2.5849836921
  9
$TDUSRTIMER
 40
2.5849836921
  9
$USRTIMER
 70
     1
  9
$ANGBASE
 50
0.0
  9
$ANGDIR
 70
     0
  9
$PDMODE
 70
     0
  9
$PDSIZE
 40
0.0
  9
$PLINEWID
 40
0.0
  9
$SPLFRAME
 70
     0
  9
$SPLINETYPE
 70
     6
  9
$SPLINESEGS
 70
     8
  9
$HANDSEED
  5
204A4
  9
$SURFTAB1
 70
     6
  9
$SURFTAB2
 70
     6
  9
$SURFTYPE
 70
     6
  9
$SURFU
 70
     6
  9
$SURFV
 70
     6
  9
$UCSBASE
  2

  9
$UCSNAME
  2

  9
$UCSORG
 10
0.0
 20
0.0
 30
0.0
  9
$UCSXDIR
 10
1.0
 20
0.0
 30
0.0
  9
$UCSYDIR
 10
0.0
 20
1.0
 30
0.0
  9
$UCSORTHOREF
  2

  9
$UCSORTHOVIEW
 70
     0
  9
$UCSORGTOP
 10
0.0
 20
0.0
 30
0.0
  9
$UCSORGBOTTOM
 10
0.0
 20
0.0
 30
0.0
  9
$UCSORGLEFT
 10
0.0
 20
0.0
 30
0.0
  9
$UCSORGRIGHT
 10
0.0
 20
0.0
 30
0.0
  9
$UCSORGFRONT
 10
0.0
 20
0.0
 30
0.0
  9
$UCSORGBACK
 10
0.0
 20
0.0
 30
0.0
  9
$PUCSBASE
  2

  9
$PUCSNAME
  2

  9
$PUCSORG
 10
0.0
 20
0.0
 30
0.0
  9
$PUCSXDIR
 10
1.0
 20
0.0
 30
0.0
  9
$PUCSYDIR
 10
0.0
 20
1.0
 30
0.0
  9
$PUCSORTHOREF
  2

  9
$PUCSORTHOVIEW
 70
     0
  9
$PUCSORGTOP
 10
0.0
 20
0.0
 30
0.0
  9
$PUCSORGBOTTOM
 10
0.0
 20
0.0
 30
0.0
  9
$PUCSORGLEFT
 10
0.0
 20
0.0
 30
0.0
  9
$PUCSORGRIGHT
 10
0.0
 20
0.0
 30
0.0
  9
$PUCSORGFRONT
 10
0.0
 20
0.0
 30
0.0
  9
$PUCSORGBACK
 10
0.0
 20
0.0
 30
0.0
  9
$USERI1
 70
     0
  9
$USERI2
 70
     0
  9
$USERI3
 70
     0
  9
$USERI4
 70
     0
  9
$USERI5
 70
     0
  9
$USERR1
 40
0.0
  9
$USERR2
 40
0.0
  9
$USERR3
 40
0.0
  9
$USERR4
 40
0.0
  9
$USERR5
 40
0.0
  9
$WORLDVIEW
 70
     1
  9
$SHADEDGE
 70
     3
  9
$SHADEDIF
 70
    70
  9
$TILEMODE
 70
     1
  9
$MAXACTVP
 70
    48
  9
$PINSBASE
 10
0.0
 20
0.0
 30
0.0
  9
$PLIMCHECK
 70
     0
  9
$PEXTMIN
 10
1.000000000000000E+20
 20
1.000000000000000E+20
 30
1.000000000000000E+20
  9
$PEXTMAX
 10
-1.000000000000000E+20
 20
-1.000000000000000E+20
 30
-1.000000000000000E+20
  9
$PLIMMIN
 10
0.0
 20
0.0
  9
$PLIMMAX
 10
420.0
 20
297.0
  9
$UNITMODE
 70
     0
  9
$VISRETAIN
 70
     1
  9
$PLINEGEN
 70
     0
  9
$PSLTSCALE
 70
     1
  9
$TREEDEPTH
 70
  3020
  9
$CMLSTYLE
  2
STANDARD
  9
$CMLJUST
 70
     0
  9
$CMLSCALE
 40
20.0
  9
$PROXYGRAPHICS
 70
     1
  9
$MEASUREMENT
 70
     1
  9
$CELWEIGHT
370
    -1
  9
$ENDCAPS
280
     0
  9
$JOINSTYLE
280
     0
  9
$LWDISPLAY
290
     0
  9
$INSUNITS
 70
     0
  9
$HYPERLINKBASE
  1

  9
$STYLESHEET
  1

  9
$XEDIT
290
     1
  9
$CEPSNTYPE
380
     0
  9
$PSTYLEMODE
290
     1
  9
$FINGERPRINTGUID
  2
{7FF825AD-D9F8-4ECB-8BCF-6AF9BEBE9593}
  9
$VERSIONGUID
  2
{EABDE435-C2B5-4F1A-A43A-0E91C8BB45C4}
  9
$EXTNAMES
290
     1
  9
$PSVPSCALE
 40
0.0
  9
$OLESTARTUP
290
     0
  0
ENDSEC
  0
SECTION
  2
CLASSES
  0
CLASS
  1
DICTIONARYVAR
  2
AcDbDictionaryVar
  3
ObjectDBX Classes
 90
        0
280
     0
281
     0
  0
CLASS
  1
IDBUFFER
  2
AcDbIdBuffer
  3
ObjectDBX Classes
 90
    32768
280
     0
281
     0
  0
CLASS
  1
ACDBDICTIONARYWDFLT
  2
AcDbDictionaryWithDefault
  3
ObjectDBX Classes
 90
        0
280
     0
281
     0
  0
CLASS
  1
ACDBPLACEHOLDER
  2
AcDbPlaceHolder
  3
ObjectDBX Classes
 90
        0
280
     0
281
     0
  0
CLASS
  1
LAYOUT
  2
AcDbLayout
  3
ObjectDBX Classes
 90
        0
280
     0
281
     0
  0
CLASS
  1
TABLESTYLE
  2
AcDbTableStyle
  3
ObjectDBX Classes
 90
     4095
280
     0
281
     0
  0
CLASS
  1
SORTENTSTABLE
  2
AcDbSortentsTable
  3
ObjectDBX Classes
 90
        0
280
     0
281
     0
  0
CLASS
  1
DIMASSOC
  2
AcDbDimAssoc
  3
"AcDbDimAssoc|Product Desc:     AcDim ARX App For Dimension|Company:          Autodesk, Inc.|WEB Address:      www.autodesk.com"
 90
    32768
280
     0
281
     0
  0
CLASS
  1
MATERIAL
  2
AcDbMaterial
  3
ObjectDBX Classes
 90
     1153
280
     0
281
     0
  0
CLASS
  1
VISUALSTYLE
  2
AcDbVisualStyle
  3
ObjectDBX Classes
 90
     4095
280
     0
281
     0
  0
CLASS
  1
SCALE
  2
AcDbScale
  3
ObjectDBX Classes
 90
     1153
280
     0
281
     0
  0
CLASS
  1
MLEADERSTYLE
  2
AcDbMLeaderStyle
  3
ACDB_MLEADERSTYLE_CLASS
 90
     4095
280
     0
281
     0
  0
CLASS
  1
CELLSTYLEMAP
  2
AcDbCellStyleMap
  3
ObjectDBX Classes
 90
     1152
280
     0
281
     0
  0
CLASS
  1
EXACXREFPANELOBJECT
  2
ExAcXREFPanelObject
  3
EXAC_ESW
 90
    33793
280
     0
281
     0
  0
CLASS
  1
NPOCOLLECTION
  2
AcDbImpNonPersistentObjectsCollection
  3
ObjectDBX Classes
 90
     1153
280
     0
281
     0
  0
CLASS
  1
AEC_REFEDIT_STATUS_TRACKER
  2
AecDbRefEditStatusTracker
  3
AecArchBase60|Product Desc: Autodesk Architectural Desktop 2007 |Company: Autodesk,Inc. |WEB Address: www.autodesk.com
 90
      129
280
     0
281
     0
  0
ENDSEC
  0
SECTION
  2
TABLES
  0
TABLE
  2
VPORT
  5
8
102
{ACAD_XDICTIONARY
360
1ABDC
102
}
330
0
100
AcDbSymbolTable
 70
     1
  0
VPORT
  5
19DC2
330
8
100
AcDbSymbolTableRecord
100
AcDbViewportTableRecord
  2
*Active
 70
     0
 10
0.0
 20
0.0
 11
1.0
 21
1.0
 12
582.7634915829325
 22
-617.8837220658902
 13
0.0
 23
0.0
 14
10.0
 24
10.0
 15
10.0
 25
10.0
 16
0.0
 26
0.0
 36
1.0
 17
0.0
 27
0.0
 37
0.0
 40
218.319061480516
 41
2.102137767220902
 42
50.0
 43
0.0
 44
0.0
 50
0.0
 51
0.0
 71
     0
 72
   100
 73
     1
 74
     1
 75
     0
 76
     0
 77
     0
 78
     0
281
     0
 65
     1
110
0.0
120
0.0
130
0.0
111
1.0
121
0.0
131
0.0
112
0.0
122
1.0
132
0.0
 79
     0
146
0.0
  0
ENDTAB
  0
TABLE
  2
LTYPE
  5
5
330
0
100
AcDbSymbolTable
 70
    18
  0
LTYPE
  5
12
330
5
100
AcDbSymbolTableRecord
100
AcDbLinetypeTableRecord
  2
BYBLOCK
 70
     0
  3

 72
    65
 73
     0
 40
0.0
  0
LTYPE
  5
13
330
5
100
AcDbSymbolTableRecord
100
AcDbLinetypeTableRecord
  2
BYLAYER
 70
     0
  3

 72
    65
 73
     0
 40
0.0
  0
LTYPE
  5
14
330
5
100
AcDbSymbolTableRecord
100
AcDbLinetypeTableRecord
  2
CONTINUOUS
 70
     0
  3
Solid line
 72
    65
 73
     0
 40
0.0
  0
LTYPE
  5
26
330
5
100
AcDbSymbolTableRecord
100
AcDbLinetypeTableRecord
  2
CENTER2
 70
     0
  3
Center (.5x) ___ _ ___ _ ___ _ ___ _ ___ _ ___
 72
    65
 73
     4
 40
28.575
 49
19.05
 74
     0
 49
-3.174999999999999
 74
     0
 49
3.174999999999999
 74
     0
 49
-3.174999999999999
 74
     0
  0
LTYPE
  5
100
330
5
100
AcDbSymbolTableRecord
100
AcDbLinetypeTableRecord
  2
PHANTOM2
 70
     0
  3
Phantom (.5x) ___ _ _ ___ _ _ ___ _ _ ___ _ _
 72
    65
 73
     6
 40
31.75
 49
15.875
 74
     0
 49
-3.174999999999999
 74
     0
 49
3.174999999999999
 74
     0
 49
-3.174999999999999
 74
     0
 49
3.174999999999999
 74
     0
 49
-3.174999999999999
 74
     0
  0
ENDTAB
  0
TABLE
  2
LAYER
  5
2
102
{ACAD_XDICTIONARY
360
18FE8
102
}
330
0
100
AcDbSymbolTable
 70
    45
  0
LAYER
  5
E
102
{ACAD_XDICTIONARY
360
1A20A
102
}
330
2
100
AcDbSymbolTableRecord
100
AcDbLayerTableRecord
  2
0
 70
     0
 62
     7
  6
CONTINUOUS
370
    -3
390
2CE
  0
LAYER
  5
29
102
{ACAD_XDICTIONARY
360
1A20C
102
}
330
2
100
AcDbSymbolTableRecord
100
AcDbLayerTableRecord
  2
1CENTER
 70
     0
 62
     7
  6
CENTER2
370
    -3
390
2CE
  0
LAYER
  5
31
102
{ACAD_XDICTIONARY
360
1A20E
102
}
330
2
100
AcDbSymbolTableRecord
100
AcDbLayerTableRecord
  2
1TEXT
 70
     0
 62
     7
  6
CONTINUOUS
370
    -3
390
2CE
  0
LAYER
  5
101
102
{ACAD_XDICTIONARY
360
1A218
102
}
330
2
100
AcDbSymbolTableRecord
100
AcDbLayerTableRecord
  2
1DIM
 70
     0
 62
     7
  6
CONTINUOUS
370
    -3
390
2CE
  0
LAYER
  5
103
102
{ACAD_XDICTIONARY
360
1A21C
102
}
330
2
100
AcDbSymbolTableRecord
100
AcDbLayerTableRecord
  2
1PHANTOM
 70
     0
 62
     7
  6
PHANTOM2
370
    -3
390
2CE
  0
LAYER
  5
25F
102
{ACAD_XDICTIONARY
360
1A220
102
}
330
2
100
AcDbSymbolTableRecord
100
AcDbLayerTableRecord
  2
01
 70
     0
 62
     1
  6
CONTINUOUS
370
    -3
390
2CE
  0
LAYER
  5
26D
102
{ACAD_XDICTIONARY
360
1A23C
102
}
330
2
100
AcDbSymbolTableRecord
100
AcDbLayerTableRecord
  2
1HATCH
 70
     0
 62
     7
  6
CONTINUOUS
370
    -3
390
2CE
  0
ENDTAB
  0
TABLE
  2
STYLE
  5
3
330
0
100
AcDbSymbolTable
 70
    25
  0
STYLE
  5
F
330
3
100
AcDbSymbolTableRecord
100
AcDbTextStyleTableRecord
  2
STANDARD
 70
     0
 40
0.0
 41
1.0
 50
0.0
 71
     0
 42
4.0
  3
txt.shx
  4
extfont.shx
  0
ENDTAB
  0
TABLE
  2
VIEW
  5
6
330
0
100
AcDbSymbolTable
 70
     5
  0
ENDTAB
  0
TABLE
  2
UCS
  5
7
330
0
100
AcDbSymbolTable
 70
     0
  0
ENDTAB
  0
TABLE
  2
APPID
  5
9
330
0
100
AcDbSymbolTable
 70
    13
  0
APPID
  5
10
330
9
100
AcDbSymbolTableRecord
100
AcDbRegAppTableRecord
  2
ACAD
 70
     0
  0
APPID
  5
21
330
9
100
AcDbSymbolTableRecord
100
AcDbRegAppTableRecord
  2
DRAWINGVARIABLESXDATA
 70
     0
  0
APPID
  5
64
330
9
100
AcDbSymbolTableRecord
100
AcDbRegAppTableRecord
  2
CONTENTTABDATA
 70
     0
  0
APPID
  5
65
330
9
100
AcDbSymbolTableRecord
100
AcDbRegAppTableRecord
  2
CONTENTCURRENTTAB
 70
     0
  0
APPID
  5
66
330
9
100
AcDbSymbolTableRecord
100
AcDbRegAppTableRecord
  2
CONTENTBLOCKDESCRIPTION
 70
     0
  0
APPID
  5
67
330
9
100
AcDbSymbolTableRecord
100
AcDbRegAppTableRecord
  2
CONTENTBLOCKICON
 70
     0
  0
APPID
  5
68
330
9
100
AcDbSymbolTableRecord
100
AcDbRegAppTableRecord
  2
CONTENTLONGBLOCKNAME
 70
     0
  0
APPID
  5
5A9
330
9
100
AcDbSymbolTableRecord
100
AcDbRegAppTableRecord
  2
ACAD_PSEXT
 70
     0
  0
APPID
  5
18AC
330
9
100
AcDbSymbolTableRecord
100
AcDbRegAppTableRecord
  2
ACAD_DSTYLE_DIMTEXT_FILL
 70
     0
  0
APPID
  5
19E1A
330
9
100
AcDbSymbolTableRecord
100
AcDbRegAppTableRecord
  2
ACAD_MLEADERVER
 70
     0
  0
APPID
  5
1A2FA
330
9
100
AcDbSymbolTableRecord
100
AcDbRegAppTableRecord
  2
ACAD_DSTYLE_DIMRADIAL_EXTENSION
 70
     0
  0
APPID
  5
1DBC1
330
9
100
AcDbSymbolTableRecord
100
AcDbRegAppTableRecord
  2
AcadAnnotative
 70
     0
  0
APPID
  5
1E991
330
9
100
AcDbSymbolTableRecord
100
AcDbRegAppTableRecord
  2
ACAD_EXEMPT_FROM_CAD_STANDARDS
 70
     0
  0
ENDTAB
  0
TABLE
  2
DIMSTYLE
  5
A
330
0
100
AcDbSymbolTable
 70
    10
100
AcDbDimStyleTable
 71
     1
340
48
  0
DIMSTYLE
105
48
330
A
100
AcDbSymbolTableRecord
100
AcDbDimStyleTableRecord
  2
NEWX10
 70
     0
  3
 
 41
2.0
 42
0.0
 43
7.0
 44
1.0
 73
     0
 74
     0
 77
     1
 78
     8
 79
     2
140
3.5
141
0.0
146
0.7
147
0.7
172
     1
173
     1
176
   256
177
   256
178
   201
179
     2
271
     2
284
     8
289
     2
340
F
343
42
344
42
  0
ENDTAB
  0
TABLE
  2
BLOCK_RECORD
  5
1
330
0
100
AcDbSymbolTable
 70
    40
  0
BLOCK_RECORD
  5
18
102
{ACAD_XDICTIONARY
360
6E9
102
}
330
1
100
AcDbSymbolTableRecord
100
AcDbBlockTableRecord
  2
*MODEL_SPACE
340
2D3
  0
BLOCK_RECORD
  5
15
102
{ACAD_XDICTIONARY
360
59B
102
}
330
1
100
AcDbSymbolTableRecord
100
AcDbBlockTableRecord
  2
*PAPER_SPACE
340
2D4
  0
BLOCK_RECORD
  5
42
330
1
100
AcDbSymbolTableRecord
100
AcDbBlockTableRecord
  2
_OPEN30
340
0
310
2800000020000000200000000100080000000000000400000000000000000000000000000000000000000000000080000080000000808000800000008000800080800000C0C0C000C0DCC000F0CAA6000020400000206000002080000020A0000020C0000020E00000400000004020000040400000406000004080000040A0
310
000040C0000040E00000600000006020000060400000606000006080000060A0000060C0000060E00000800000008020000080400000806000008080000080A0000080C0000080E00000A0000000A0200000A0400000A0600000A0800000A0A00000A0C00000A0E00000C0000000C0200000C0400000C0600000C0800000C0
310
A00000C0C00000C0E00000E0000000E0200000E0400000E0600000E0800000E0A00000E0C00000E0E00040000000400020004000400040006000400080004000A0004000C0004000E00040200000402020004020400040206000402080004020A0004020C0004020E000404000004040200040404000404060004040800040
310
40A0004040C0004040E00040600000406020004060400040606000406080004060A0004060C0004060E00040800000408020004080400040806000408080004080A0004080C0004080E00040A0000040A0200040A0400040A0600040A0800040A0A00040A0C00040A0E00040C0000040C0200040C0400040C0600040C08000
310
40C0A00040C0C00040C0E00040E0000040E0200040E0400040E0600040E0800040E0A00040E0C00040E0E00080000000800020008000400080006000800080008000A0008000C0008000E00080200000802020008020400080206000802080008020A0008020C0008020E00080400000804020008040400080406000804080
310
008040A0008040C0008040E00080600000806020008060400080606000806080008060A0008060C0008060E00080800000808020008080400080806000808080008080A0008080C0008080E00080A0000080A0200080A0400080A0600080A0800080A0A00080A0C00080A0E00080C0000080C0200080C0400080C0600080C0
310
800080C0A00080C0C00080C0E00080E0000080E0200080E0400080E0600080E0800080E0A00080E0C00080E0E000C0000000C0002000C0004000C0006000C0008000C000A000C000C000C000E000C0200000C0202000C0204000C0206000C0208000C020A000C020C000C020E000C0400000C0402000C0404000C0406000C0
310
408000C040A000C040C000C040E000C0600000C0602000C0604000C0606000C0608000C060A000C060C000C060E000C0800000C0802000C0804000C0806000C0808000C080A000C080C000C080E000C0A00000C0A02000C0A04000C0A06000C0A08000C0A0A000C0A0C000C0A0E000C0C00000C0C02000C0C04000C0C06000
310
C0C08000C0C0A000F0FBFF00A4A0A000808080000000FF0000FF000000FFFF00FF000000FF00FF00FFFF0000FFFFFF0051515151515151515151515151515151515151515151515151515151515151515151515151515151515151515151515151515151515151515151515151515151515151515151515151515151515151
310
51515151515151515151515151515151515151515151515151515151515151515151515151515151515151515151515151515151515151515151515151515151515151515151515151515151515151515151515151515151515151515151515151515151515151515151515151515151515151515151515151515151515151
310
515151515151515151515151515151515151515151515151515151515151515151515151515151515151515151515151515151FFFF5151515151515151515151515151515151515151515151515151515151515151FFFFFFFF5151515151515151515151515151515151515151515151515151515151515151FFFFFFFF5151
310
515151515151515151515151515151515151515151515151515151515151FFFFFF5151515151515151515151515151515151515151515151515151515151515151FFFFFFFF5151515151515151515151515151515151515151515151515151515151515151FFFFFF5151515151515151515151515151515151515151515151
310
515151515151515151FFFFFFFF5151515151515151515151515151515151515151515151515151515151515151FFFFFFFF51515151FFFFFFFFFFFFFFFFFFFFFFFFFFFFFFFFFFFFFFFFFFFFFFFFFFFFFFFFFFFF51515151515151515151515151515151515151515151515151FFFFFFFF515151515151515151515151515151
310
515151515151515151FFFFFFFF515151515151515151515151515151515151515151515151FFFFFFFF515151515151515151515151515151515151515151515151FFFFFFFF515151515151515151515151515151515151515151515151FFFFFFFF515151515151515151515151515151515151515151515151FFFFFFFF5151
310
5151515151515151515151515151515151515151515151FFFFFF5151515151515151515151515151515151515151515151515151515151515151515151515151515151515151515151515151515151515151515151515151515151515151515151515151515151515151515151515151515151515151515151515151515151
310
51515151515151515151515151515151515151515151515151515151515151515151515151515151515151515151515151515151515151515151515151515151515151515151515151515151515151515151515151515151515151515151515151515151515151515151515151515151515151515151515151515151515151
310
5151515151515151515151515151515151515151515151515151515151515151515151515151515151515151515151515151515151515151
  0
ENDTAB
  0
ENDSEC
  0
SECTION
  2
BLOCKS
  0
BLOCK
  5
19
330
18
100
AcDbEntity
  8
0
100
AcDbBlockBegin
  2
*MODEL_SPACE
 70
     0
 10
0.0
 20
0.0
 30
0.0
  3
*MODEL_SPACE
  1

  0
ENDBLK
  5
1A
330
18
100
AcDbEntity
  8
0
100
AcDbBlockEnd
  0
BLOCK
  5
16
330
15
100
AcDbEntity
 67
     1
  8
0
100
AcDbBlockBegin
  2
*PAPER_SPACE
 70
     0
 10
0.0
 20
0.0
 30
0.0
  3
*PAPER_SPACE
  1

  0
ENDBLK
  5
17
330
15
100
AcDbEntity
 67
     1
  8
0
100
AcDbBlockEnd
  0
BLOCK
  5
43
330
42
100
AcDbEntity
  8
0
100
AcDbBlockBegin
  2
_OPEN30
 70
     0
 10
0.0
 20
0.0
 30
0.0
  3
_OPEN30
  1

  0
LINE
  5
44
330
42
100
AcDbEntity
  8
0
  6
ByBlock
 62
     0
100
AcDbLine
 10
-1.0
 20
0.26794919
 30
0.0
 11
0.0
 21
0.0
 31
0.0
  0
LINE
  5
45
330
42
100
AcDbEntity
  8
0
  6
ByBlock
 62
     0
100
AcDbLine
 10
0.0
 20
0.0
 30
0.0
 11
-1.0
 21
-0.26794919
 31
0.0
  0
LINE
  5
46
330
42
100
AcDbEntity
  8
0
  6
ByBlock
 62
     0
100
AcDbLine
 10
0.0
 20
0.0
 30
0.0
 11
-1.0
 21
0.0
 31
0.0
  0
ENDBLK
  5
47
330
42
100
AcDbEntity
  8
0
100
AcDbBlockEnd
  0
ENDSEC
  0
SECTION
  2
ENTITIES
  0
LINE
  5
1D8CA
330
18
100
AcDbEntity
  8
01
100
AcDbLine
 10
713.0162416153649
 20
-650.6713303512658
 30
0.0
 11
713.0162416153649
 21
-672.8213303512672
 31
0.0
  0
LINE
  5
1D90A
330
18
100
AcDbEntity
  8
01
100
AcDbLine
 10
713.0162416153649
 20
-653.1713303512665
 30
0.0
 11
713.0162416153649
 21
-670.8213303512659
 31
0.0
  0
TEXT
  5
1DB93
330
18
100
AcDbEntity
  8
1TEXT
100
AcDbText
 10
682.1769459223725
 20
-550.5974309396749
 30
0.0
 40
4.0
  1
表面処理
 72
     1
 11
691.2436125890392
 21
-550.5974309396749
 31
0.0
100
AcDbText
  0
LINE
  5
1DB94
330
18
100
AcDbEntity
  8
1DIM
100
AcDbLine
 10
673.8436125890391
 20
-545.0974309396749
 30
0.0
 11
743.8436125890391
 21
-545.0974309396749
 31
0.0
  0
LINE
  5
1DB95
330
18
100
AcDbEntity
  8
1DIM
100
AcDbLine
 10
673.8436125890391
 20
-559.0974309396749
 30
0.0
 11
743.8436125890391
 21
-559.0974309396749
 31
0.0
  0
LINE
  5
1DB96
330
18
100
AcDbEntity
  8
1DIM
100
AcDbLine
 10
673.8436125890391
 20
-552.0974309396749
 30
0.0
 11
743.8436125890391
 21
-552.0974309396749
 31
0.0
  0
LINE
  5
1DB97
330
18
100
AcDbEntity
  8
1DIM
100
AcDbLine
 10
708.8436125890391
 20
-545.0974309396749
 30
0.0
 11
708.8436125890388
 21
-559.0974309396749
 31
0.0
  0
TEXT
  5
1DB98
330
18
100
AcDbEntity
  8
1TEXT
100
AcDbText
 10
719.4436125890392
 20
-550.5974309396749
 30
0.0
 40
4.0
  1
コード
 72
     1
 11
726.2436125890392
 21
-550.5974309396749
 31
0.0
100
AcDbText
  0
LINE
  5
1DB99
330
18
100
AcDbEntity
  8
1DIM
100
AcDbLine
 10
673.8436125890391
 20
-559.0974309396749
 30
0.0
 11
673.8436125890391
 21
-545.0974309396749
 31
0.0
  0
LINE
  5
1DB9A
330
18
100
AcDbEntity
  8
1DIM
100
AcDbLine
 10
743.843612589039
 20
-559.0974309396749
 30
0.0
 11
743.8436125890391
 21
-545.0974309396749
 31
0.0
  0
TEXT
  5
1DB9B
330
18
100
AcDbEntity
  8
1TEXT
100
AcDbText
 10
673.8436125890391
 20
-540.0974309396749
 30
0.0
 40
8.0
  1
SC-900-X
100
AcDbText
  0
TEXT
  5
1DB9C
330
18
100
AcDbEntity
  8
1TEXT
100
AcDbText
 10
681.9102792557059
 20
-557.4327195991992
 30
0.0
 40
4.0
  1
クローム
 72
     1
 11
691.2436125890392
 21
-557.4327195991992
 31
0.0
100
AcDbText
  0
TEXT
  5
1DB9D
330
18
100
AcDbEntity
  8
1TEXT
100
AcDbText
 10
712.0769459223728
 20
-557.8117879233242
 30
0.0
 40
4.0
  1
SC-900-XC
 41
0.85
 72
     1
 11
726.2436125890395
 21
-557.8117879233242
 31
0.0
100
AcDbText
  0
LINE
  5
1DBA4
102
{ACAD_REACTORS
330
1EDFD
102
}
330
18
100
AcDbEntity
  8
01
100
AcDbLine
 10
725.5162416153649
 20
-618.5931567659845
 30
0.0
 11
725.5162416153649
 21
-693.0495039365482
 31
0.0
  0
LINE
  5
1DBA5
102
{ACAD_REACTORS
330
1EDFD
102
}
330
18
100
AcDbEntity
  8
01
100
AcDbLine
 10
734.5162416153649
 20
-618.5931567659845
 30
0.0
 11
734.5162416153649
 21
-693.0495039365482
 31
0.0
  0
LINE
  5
1DBA6
102
{ACAD_REACTORS
330
1EDFD
102
}
330
18
100
AcDbEntity
  8
01
100
AcDbLine
 10
713.0162416153649
 20
-618.5931567659845
 30
0.0
 11
713.0162416153649
 21
-693.0495039365482
 31
0.0
  0
LINE
  5
1E7B5
102
{ACAD_REACTORS
330
1E7BB
102
}
330
18
100
AcDbEntity
  8
01
100
AcDbLine
 10
511.5162414684686
 20
-551.4047722167549
 30
0.0
 11
510.5162417684685
 21
-550.4047722167549
 31
0.0
  0
LINE
  5
1E7B6
102
{ACAD_REACTORS
330
1E7BB
102
}
330
18
100
AcDbEntity
  8
01
100
AcDbLine
 10
514.8162416184685
 20
-551.4047722167549
 30
0.0
 11
514.8162416184685
 21
-550.4047722167549
 31
0.0
  0
LINE
  5
1E7B7
102
{ACAD_REACTORS
330
1E7BB
102
}
330
18
100
AcDbEntity
  8
01
100
AcDbLine
 10
514.8162416184685
 20
-550.4047722167549
 30
0.0
 11
507.2162416184686
 21
-550.4047722167549
 31
0.0
  0
LINE
  5
1E7B8
102
{ACAD_REACTORS
330
1E7BB
102
}
330
18
100
AcDbEntity
  8
01
100
AcDbLine
 10
514.8162416184685
 20
-551.4047722167549
 30
0.0
 11
507.2162416184686
 21
-551.4047722167549
 31
0.0
  0
LINE
  5
1E7B9
102
{ACAD_REACTORS
330
1E7BB
102
}
330
18
100
AcDbEntity
  8
01
100
AcDbLine
 10
507.2162416184686
 20
-551.4047722167549
 30
0.0
 11
507.2162416184686
 21
-550.4047722167549
 31
0.0
  0
LINE
  5
1E9CD
102
{ACAD_REACTORS
330
1E9D3
102
}
330
18
100
AcDbEntity
  8
01
100
AcDbLine
 10
710.0162416153649
 20
-656.321330855355
 30
0.0
 11
711.0162416153649
 21
-655.3213311553549
 31
0.0
  0
LINE
  5
1E9CE
102
{ACAD_REACTORS
330
1E9D3
102
}
330
18
100
AcDbEntity
  8
01
100
AcDbLine
 10
710.0162416153649
 20
-659.6213310053549
 30
0.0
 11
711.0162416153649
 21
-659.6213310053549
 31
0.0
  0
LINE
  5
1E9CF
102
{ACAD_REACTORS
330
1E9D3
102
}
330
18
100
AcDbEntity
  8
01
100
AcDbLine
 10
711.0162416153649
 20
-659.6213310053549
 30
0.0
 11
711.0162416153649
 21
-652.0213310053549
 31
0.0
  0
LINE
  5
1E9D0
102
{ACAD_REACTORS
330
1E9D3
102
}
330
18
100
AcDbEntity
  8
01
100
AcDbLine
 10
710.0162416153649
 20
-659.6213310053549
 30
0.0
 11
710.0162416153649
 21
-652.0213310053549
 31
0.0
  0
LINE
  5
1E9D1
102
{ACAD_REACTORS
330
1E9D3
102
}
330
18
100
AcDbEntity
  8
01
100
AcDbLine
 10
710.0162416153649
 20
-652.0213310053549
 30
0.0
 11
711.0162416153649
 21
-652.0213310053549
 31
0.0
  0
LINE
  5
1E9D4
102
{ACAD_REACTORS
330
1E9DA
102
}
330
18
100
AcDbEntity
  8
01
100
AcDbLine
 10
489.5162414684685
 20
-551.4047722167549
 30
0.0
 11
488.5162417684686
 21
-550.4047722167549
 31
0.0
  0
LINE
  5
1E9D5
102
{ACAD_REACTORS
330
1E9DA
102
}
330
18
100
AcDbEntity
  8
01
100
AcDbLine
 10
492.8162416184685
 20
-551.4047722167549
 30
0.0
 11
492.8162416184685
 21
-550.4047722167549
 31
0.0
  0
LINE
  5
1E9D6
102
{ACAD_REACTORS
330
1E9DA
102
}
330
18
100
AcDbEntity
  8
01
100
AcDbLine
 10
492.8162416184685
 20
-550.4047722167549
 30
0.0
 11
485.2162416184686
 21
-550.4047722167549
 31
0.0
  0
LINE
  5
1E9D7
102
{ACAD_REACTORS
330
1E9DA
102
}
330
18
100
AcDbEntity
  8
01
100
AcDbLine
 10
492.8162416184685
 20
-551.4047722167549
 30
0.0
 11
485.2162416184686
 21
-551.4047722167549
 31
0.0
  0
LINE
  5
1E9D8
102
{ACAD_REACTORS
330
1E9DA
102
}
330
18
100
AcDbEntity
  8
01
100
AcDbLine
 10
485.2162416184686
 20
-551.4047722167549
 30
0.0
 11
485.2162416184686
 21
-550.4047722167549
 31
0.0
  0
ARC
  5
1FEC1
330
18
100
AcDbEntity
  8
01
100
AcDbCircle
 10
500.0162416153509
 20
-821.3888915825076
 30
0.0
 40
172.5675612988347
100
AcDbArc
 50
87.54825303436618
 51
90.0
  0
ARC
  5
1FEC2
330
18
100
AcDbEntity
  8
01
100
AcDbCircle
 10
507.3341707358728
 20
-650.4779251639725
 30
0.0
 40
1.500000000000232
100
AcDbArc
 50
3.90307614101767
 51
87.54829562591124
  0
ARC
  5
1FEC3
330
18
100
AcDbEntity
  8
01
100
AcDbCircle
 10
429.016241615361
 20
-655.8213302836725
 30
0.0
 40
79.99999999999225
100
AcDbArc
 50
356.0969238589758
 51
356.3702924498514
  0
ARC
  5
1FEC4
330
18
100
AcDbEntity
  8
01
100
AcDbCircle
 10
429.016241615361
 20
-655.8213302836725
 30
0.0
 40
79.99999999999225
100
AcDbArc
 50
3.629707550122375
 51
3.903076141024169
  0
ARC
  5
1FEC5
330
18
100
AcDbEntity
  8
1PHANTOM
100
AcDbCircle
 10
507.3341707358728
 20
-661.1647354033732
 30
0.0
 40
1.5000000000002
100
AcDbArc
 50
272.4517043740887
 51
356.0969238589823
  0
ARC
  5
1FEC6
330
18
100
AcDbEntity
  8
1PHANTOM
100
AcDbCircle
 10
500.0162416153498
 20
-490.2537689848051
 30
0.0
 40
172.5675612988677
100
AcDbArc
 50
270.0
 51
272.4517469656338
  0
ARC
  5
1FEC7
330
18
100
AcDbEntity
  8
1PHANTOM
100
AcDbCircle
 10
500.0162416153512
 20
-490.2537689848531
 30
0.0
 40
172.5675612988196
100
AcDbArc
 50
267.5482527018331
 51
270.0
  0
ARC
  5
1FEC8
330
18
100
AcDbEntity
  8
1PHANTOM
100
AcDbCircle
 10
492.6983124948334
 20
-661.1647354033732
 30
0.0
 40
1.499999999999946
100
AcDbArc
 50
183.9030761410176
 51
267.5482573698265
  0
ARC
  5
1FEC9
330
18
100
AcDbEntity
  8
01
100
AcDbCircle
 10
571.0162416153466
 20
-655.8213302836726
 30
0.0
 40
79.99999999999339
100
AcDbArc
 50
176.0969238589758
 51
176.3702924498776
  0
ARC
  5
1FECA
330
18
100
AcDbEntity
  8
01
100
AcDbCircle
 10
571.0162416153466
 20
-655.8213302836726
 30
0.0
 40
79.99999999999339
100
AcDbArc
 50
183.6297075501486
 51
183.9030761410241
  0
ARC
  5
1FECB
330
18
100
AcDbEntity
  8
01
100
AcDbCircle
 10
492.6983124948334
 20
-650.4779251639725
 30
0.0
 40
1.499999999999989
100
AcDbArc
 50
92.45174263017357
 51
176.0969238589823
  0
ARC
  5
1FECC
330
18
100
AcDbEntity
  8
01
100
AcDbCircle
 10
500.0162416153499
 20
-821.3888915824655
 30
0.0
 40
172.5675612987925
100
AcDbArc
 50
90.0
 51
92.45174729816687
  0
ARC
  5
1FECD
330
18
100
AcDbEntity
  8
01
100
AcDbCircle
 10
880.0162416154153
 20
-655.8213302836613
 30
0.0
 40
400.0000000000621
100
AcDbArc
 50
177.3982623877186
 51
179.2837841038024
  0
ARC
  5
1FECE
330
18
100
AcDbEntity
  8
01
100
AcDbCircle
 10
880.0162416154153
 20
-655.8213302836613
 30
0.0
 40
400.0000000000621
100
AcDbArc
 50
180.7162158961975
 51
182.6017376122814
  0
ARC
  5
1FECF
330
18
100
AcDbEntity
  8
01
100
AcDbCircle
 10
481.9270179635739
 20
-637.7321066318947
 30
0.0
 40
1.5
100
AcDbArc
 50
92.60173761227816
 51
177.3982623877186
  0
ARC
  5
1FED0
330
18
100
AcDbEntity
  8
01
100
AcDbCircle
 10
500.0162416153649
 20
-1035.821330283655
 30
0.0
 40
399.9999999999825
100
AcDbArc
 50
87.39826238772185
 51
92.60173761228141
  0
ARC
  5
1FED1
330
18
100
AcDbEntity
  8
01
100
AcDbCircle
 10
518.1054652671313
 20
-637.7321066318935
 30
0.0
 40
1.5
100
AcDbArc
 50
2.601737612287915
 51
87.39826238772185
  0
ARC
  5
1FED2
330
18
100
AcDbEntity
  8
01
100
AcDbCircle
 10
120.0162416153021
 20
-655.8213302836852
 30
0.0
 40
400.000000000051
100
AcDbArc
 50
357.3982623877186
 51
359.2837841038025
  0
ARC
  5
1FED3
330
18
100
AcDbEntity
  8
01
100
AcDbCircle
 10
123.5162416153021
 20
-655.8213302836852
 30
0.0
 40
400.000000000051
100
AcDbArc
 50
359.7362870524964
 51
0.2637129475036535
  0
ARC
  5
1FED4
330
18
100
AcDbEntity
  8
01
100
AcDbCircle
 10
120.0162416153021
 20
-655.8213302836852
 30
0.0
 40
400.000000000051
100
AcDbArc
 50
0.7162158961975461
 51
2.601737612287915
  0
ARC
  5
1FED5
330
18
100
AcDbEntity
  8
01
100
AcDbCircle
 10
500.0162416153413
 20
-275.8213302836548
 30
0.0
 40
400.0000000000181
100
AcDbArc
 50
267.3982623877218
 51
272.6017376122814
  0
ARC
  5
1FED6
330
18
100
AcDbEntity
  8
01
100
AcDbCircle
 10
481.927017963575
 20
-673.9105539354523
 30
0.0
 40
1.5
100
AcDbArc
 50
182.6017376122814
 51
267.3982623877251
  0
ARC
  5
1FED7
330
18
100
AcDbEntity
  8
01
100
AcDbCircle
 10
518.1054652671327
 20
-673.9105539354511
 30
0.0
 40
1.5
100
AcDbArc
 50
272.6017376122749
 51
357.3982623877186
  0
ARC
  5
1FED8
330
18
100
AcDbEntity
  8
01
100
AcDbCircle
 10
522.0162416153649
 20
-651.3213302836825
 30
0.0
 40
0.5
100
AcDbArc
 50
0.0
 51
89.99999999997069
  0
LINE
  5
1FEDA
330
18
100
AcDbEntity
  8
01
100
AcDbLine
 10
522.5162416153649
 20
-651.3213302836825
 30
0.0
 11
522.5162416153648
 21
-660.3213302836884
 31
0.0
  0
SPLINE
  5
1FEDB
330
18
100
AcDbEntity
  8
01
370
    15
100
AcDbSpline
210
0.0
220
0.0
230
1.0
 70
     8
 71
     3
 72
    22
 73
    18
 74
     0
 42
0.0000000001
 43
0.0000000001
 40
0.0000297380153135
 40
0.0000297380153135
 40
0.0000297380153135
 40
0.0000297380153135
 40
0.1240426904935427
 40
0.239981683919139
 40
0.3407645606199624
 40
0.42776643463445
 40
0.5104237464844669
 40
0.5899417881719655
 40
0.6479840862777908
 40
0.7034654747331484
 40
0.7537017283707571
 40
0.7994851713477633
 40
0.8489380521469074
 40
0.9007092431998087
 40
0.9520010290835951
 40
0.9780422736314626
 40
1.0
 40
1.0
 40
1.0
 40
1.0
 10
522.0162416153652
 20
-650.8213302836825
 30
0.0
 10
517.8785868548284
 20
-650.8197920422295
 30
0.0
 10
516.6447924031987
 20
-650.8168155229741
 30
0.0
 10
514.8935193405575
 20
-650.8104715080698
 30
0.0
 10
513.3358498854676
 20
-650.8027025018109
 30
0.0
 10
511.9550051375013
 20
-650.7933347599275
 30
0.0
 10
510.6953943851792
 20
-650.7819992916084
 30
0.0
 10
509.6034465978842
 20
-650.7687320410013
 30
0.0
 10
508.6770636637004
 20
-650.7541423315103
 30
0.0
 10
507.921778069154
 20
-650.7391595831136
 30
0.0
 10
507.2626696290468
 20
-650.7228345876852
 30
0.0
 10
506.6718672217445
 20
-650.7043692829218
 30
0.0
 10
506.1872564810972
 20
-650.6854616844848
 30
0.0
 10
505.8141617779148
 20
-650.6669096455948
 30
0.0
 10
505.6285094548431
 20
-650.655002678696
 30
0.0
 10
505.5521516813116
 20
-650.6492690020734
 30
0.0
 10
505.546512676855
 20
-650.6490109203757
 30
0.0
 10
505.5439330441152
 20
-650.6488928576922
 30
0.0
  0
ARC
  5
1FEDC
330
18
100
AcDbEntity
  8
01
100
AcDbCircle
 10
522.0162416153649
 20
-660.3213302836884
 30
0.0
 40
0.5
100
AcDbArc
 50
270.000000000026
 51
0.0
  0
SPLINE
  5
1FEDD
330
18
100
AcDbEntity
  8
01
370
    15
100
AcDbSpline
210
0.0
220
0.0
230
1.0
 70
     8
 71
     3
 72
    22
 73
    18
 74
     0
 42
0.0000000001
 43
0.0000000001
 40
0.0000297380153135
 40
0.0000297380153135
 40
0.0000297380153135
 40
0.0000297380153135
 40
0.1240426904935427
 40
0.239981683919139
 40
0.3407645606199624
 40
0.42776643463445
 40
0.5104237464844669
 40
0.5899417881719655
 40
0.6479840862777908
 40
0.7034654747331484
 40
0.7537017283707571
 40
0.7994851713477633
 40
0.8489380521469074
 40
0.9007092431998087
 40
0.9520010290835951
 40
0.9780422736314626
 40
1.0
 40
1.0
 40
1.0
 40
1.0
 10
522.0162416153652
 20
-660.8213302836884
 30
0.0
 10
517.8785868548284
 20
-660.8228685251414
 30
0.0
 10
516.6447924031987
 20
-660.8258450443968
 30
0.0
 10
514.8935193405575
 20
-660.8321890593011
 30
0.0
 10
513.3358498854676
 20
-660.83995806556
 30
0.0
 10
511.9550051375013
 20
-660.8493258074433
 30
0.0
 10
510.6953943851792
 20
-660.8606612757625
 30
0.0
 10
509.6034465978842
 20
-660.8739285263696
 30
0.0
 10
508.6770636637004
 20
-660.8885182358606
 30
0.0
 10
507.921778069154
 20
-660.9035009842573
 30
0.0
 10
507.2626696290468
 20
-660.9198259796857
 30
0.0
 10
506.6718672217445
 20
-660.9382912844491
 30
0.0
 10
506.1872564810972
 20
-660.9571988828861
 30
0.0
 10
505.8141617779148
 20
-660.9757509217761
 30
0.0
 10
505.6285094548431
 20
-660.9876578886749
 30
0.0
 10
505.5521516813116
 20
-660.9933915652975
 30
0.0
 10
505.546512676855
 20
-660.9936496469952
 30
0.0
 10
505.5439330441152
 20
-660.9937677096787
 30
0.0
  0
ARC
  5
1FEDE
330
18
100
AcDbEntity
  8
01
100
AcDbCircle
 10
478.016241615365
 20
-651.3213302836825
 30
0.0
 40
0.5
100
AcDbArc
 50
90.00000000002605
 51
180.0
  0
LINE
  5
1FEDF
330
18
100
AcDbEntity
  8
01
100
AcDbLine
 10
477.5162416153649
 20
-651.3213302836825
 30
0.0
 11
477.516241615365
 21
-660.3213302836884
 31
0.0
  0
SPLINE
  5
1FEE0
330
18
100
AcDbEntity
  8
01
370
    15
100
AcDbSpline
210
0.0
220
0.0
230
1.0
 70
     8
 71
     3
 72
    22
 73
    18
 74
     0
 42
0.0000000001
 43
0.0000000001
 40
0.0000297380153135
 40
0.0000297380153135
 40
0.0000297380153135
 40
0.0000297380153135
 40
0.1240426904935427
 40
0.239981683919139
 40
0.3407645606199624
 40
0.42776643463445
 40
0.5104237464844669
 40
0.5899417881719655
 40
0.6479840862777908
 40
0.7034654747331484
 40
0.7537017283707571
 40
0.7994851713477633
 40
0.8489380521469074
 40
0.9007092431998087
 40
0.9520010290835951
 40
0.9780422736314626
 40
1.0
 40
1.0
 40
1.0
 40
1.0
 10
478.0162416153647
 20
-650.8213302836825
 30
0.0
 10
482.1538963759014
 20
-650.8197920422295
 30
0.0
 10
483.3876908275311
 20
-650.8168155229741
 30
0.0
 10
485.1389638901724
 20
-650.8104715080698
 30
0.0
 10
486.6966333452622
 20
-650.8027025018109
 30
0.0
 10
488.0774780932285
 20
-650.7933347599275
 30
0.0
 10
489.3370888455506
 20
-650.7819992916084
 30
0.0
 10
490.4290366328456
 20
-650.7687320410013
 30
0.0
 10
491.3554195670295
 20
-650.7541423315103
 30
0.0
 10
492.1107051615758
 20
-650.7391595831136
 30
0.0
 10
492.7698136016831
 20
-650.7228345876852
 30
0.0
 10
493.3606160089853
 20
-650.7043692829218
 30
0.0
 10
493.8452267496327
 20
-650.6854616844848
 30
0.0
 10
494.2183214528149
 20
-650.6669096455948
 30
0.0
 10
494.4039737758867
 20
-650.655002678696
 30
0.0
 10
494.4803315494183
 20
-650.6492690020734
 30
0.0
 10
494.4859705538749
 20
-650.6490109203757
 30
0.0
 10
494.4885501866146
 20
-650.6488928576922
 30
0.0
  0
ARC
  5
1FEE1
330
18
100
AcDbEntity
  8
01
100
AcDbCircle
 10
478.016241615365
 20
-660.3213302836884
 30
0.0
 40
0.5
100
AcDbArc
 50
180.0
 51
269.9999999999739
  0
SPLINE
  5
1FEE2
330
18
100
AcDbEntity
  8
01
370
    15
100
AcDbSpline
210
0.0
220
0.0
230
1.0
 70
     8
 71
     3
 72
    22
 73
    18
 74
     0
 42
0.0000000001
 43
0.0000000001
 40
0.0000297380153135
 40
0.0000297380153135
 40
0.0000297380153135
 40
0.0000297380153135
 40
0.1240426904935427
 40
0.239981683919139
 40
0.3407645606199624
 40
0.42776643463445
 40
0.5104237464844669
 40
0.5899417881719655
 40
0.6479840862777908
 40
0.7034654747331484
 40
0.7537017283707571
 40
0.7994851713477633
 40
0.8489380521469074
 40
0.9007092431998087
 40
0.9520010290835951
 40
0.9780422736314626
 40
1.0
 40
1.0
 40
1.0
 40
1.0
 10
478.016241615365
 20
-660.8213302836884
 30
0.0
 10
482.1538963759014
 20
-660.8228685251414
 30
0.0
 10
483.3876908275311
 20
-660.8258450443968
 30
0.0
 10
485.1389638901724
 20
-660.8321890593011
 30
0.0
 10
486.6966333452622
 20
-660.83995806556
 30
0.0
 10
488.0774780932285
 20
-660.8493258074433
 30
0.0
 10
489.3370888455506
 20
-660.8606612757625
 30
0.0
 10
490.4290366328456
 20
-660.8739285263696
 30
0.0
 10
491.3554195670295
 20
-660.8885182358606
 30
0.0
 10
492.1107051615758
 20
-660.9035009842573
 30
0.0
 10
492.7698136016831
 20
-660.9198259796857
 30
0.0
 10
493.3606160089853
 20
-660.9382912844491
 30
0.0
 10
493.8452267496327
 20
-660.9571988828861
 30
0.0
 10
494.2183214528149
 20
-660.9757509217761
 30
0.0
 10
494.4039737758867
 20
-660.9876578886749
 30
0.0
 10
494.4803315494183
 20
-660.9933915652975
 30
0.0
 10
494.4859705538749
 20
-660.9936496469952
 30
0.0
 10
494.4885501866146
 20
-660.9937677096787
 30
0.0
  0
SPLINE
  5
1FEE3
330
18
100
AcDbEntity
  8
01
  6
Continuous
370
    15
100
AcDbSpline
210
0.0
220
0.0
230
1.0
 70
     8
 71
     3
 72
    38
 73
    34
 74
     0
 42
0.0000000001
 43
0.0000000001
 40
0.0
 40
0.0
 40
0.0
 40
0.0
 40
0.0625
 40
0.0625
 40
0.125
 40
0.125
 40
0.1875
 40
0.1875
 40
0.25
 40
0.25
 40
0.3125
 40
0.3125
 40
0.375
 40
0.375
 40
0.4375
 40
0.4375
 40
0.5
 40
0.5
 40
0.5625
 40
0.5625
 40
0.625
 40
0.625
 40
0.6875
 40
0.6875
 40
0.75
 40
0.75
 40
0.8125
 40
0.8125
 40
0.875
 40
0.875
 40
0.9375
 40
0.9375
 40
1.0
 40
1.0
 40
1.0
 40
1.0
 10
500.0162896144988
 20
-662.509281395881
 30
0.0
 10
499.7353244138418
 20
-662.5095805206999
 30
0.0
 10
499.4590845225611
 20
-662.5070214913285
 30
0.0
 10
498.9156648372112
 20
-662.4963548168302
 30
0.0
 10
498.6456459523817
 20
-662.4881201445109
 30
0.0
 10
498.1311372259017
 20
-662.4664329714135
 30
0.0
 10
497.887160999031
 20
-662.4531540711124
 30
0.0
 10
497.4254918129193
 20
-662.4219175123941
 30
0.0
 10
497.2071249371135
 20
-662.4038029354852
 30
0.0
 10
496.815736704303
 20
-662.3648282116739
 30
0.0
 10
496.6400711197268
 20
-662.343830124199
 30
0.0
 10
496.3297153529068
 20
-662.2994513772908
 30
0.0
 10
496.1980031653094
 20
-662.2764993844927
 30
0.0
 10
495.9860286026472
 20
-662.2311166420877
 30
0.0
 10
495.9043048328772
 20
-662.2081817986579
 30
0.0
 10
495.794386380651
 20
-662.1643210312595
 30
0.0
 10
495.7665986064332
 20
-662.1436960716687
 30
0.0
 10
495.7659188516315
 20
-662.1056546562875
 30
0.0
 10
495.7930529530632
 20
-662.088908737141
 30
0.0
 10
495.9001391312241
 20
-662.0599133272626
 30
0.0
 10
495.9813922271994
 20
-662.0475411174768
 30
0.0
 10
496.1939481634742
 20
-662.0280314467064
 30
0.0
 10
496.3241492086251
 20
-662.0207952478657
 30
0.0
 10
496.6320020714471
 20
-662.0102405833629
 30
0.0
 10
496.8113070510505
 20
-662.0069868660155
 30
0.0
 10
497.2031508124673
 20
-662.0034012722586
 30
0.0
 10
497.4170280966271
 20
-662.0029516884088
 30
0.0
 10
497.8815560698548
 20
-662.0030678365976
 30
0.0
 10
498.1288703984557
 20
-662.0036462153019
 30
0.0
 10
498.6403491069664
 20
-662.0047843399687
 30
0.0
 10
498.9079859808765
 20
-662.0051931453245
 30
0.0
 10
499.4575304098579
 20
-662.0052276781934
 30
0.0
 10
499.7353762659975
 20
-662.0048247326454
 30
0.0
 10
500.0163199127741
 20
-662.0040577426737
 30
0.0
  0
SPLINE
  5
1FEE4
330
18
100
AcDbEntity
  8
01
  6
Continuous
370
    15
100
AcDbSpline
210
0.0
220
0.0
230
1.0
 70
     8
 71
     3
 72
    38
 73
    34
 74
     0
 42
0.0000000001
 43
0.0000000001
 40
0.0
 40
0.0
 40
0.0
 40
0.0
 40
0.0625000000000001
 40
0.0625000000000001
 40
0.1250000000000002
 40
0.1250000000000002
 40
0.1875000000000003
 40
0.1875000000000003
 40
0.2500000000000004
 40
0.2500000000000004
 40
0.3125000000000005
 40
0.3125000000000005
 40
0.3750000000000007
 40
0.3750000000000007
 40
0.4375000000000008
 40
0.4375000000000008
 40
0.5000000000000009
 40
0.5000000000000009
 40
0.562500000000001
 40
0.562500000000001
 40
0.6250000000000011
 40
0.6250000000000011
 40
0.6875000000000013
 40
0.6875000000000013
 40
0.750000000000001
 40
0.750000000000001
 40
0.8125000000000007
 40
0.8125000000000007
 40
0.8750000000000005
 40
0.8750000000000005
 40
0.9375000000000003
 40
0.9375000000000003
 40
1.0
 40
1.0
 40
1.0
 40
1.0
 10
500.0163199127707
 20
-662.0040580937857
 30
0.0
 10
500.2972715015504
 20
-662.0048250102966
 30
0.0
 10
500.5735255165648
 20
-662.0052238768168
 30
0.0
 10
501.1170224699931
 20
-662.0051974460181
 30
0.0
 10
501.3870836152667
 20
-662.0047949386749
 30
0.0
 10
501.9020209253142
 20
-662.003650512569
 30
0.0
 10
502.1462412053581
 20
-662.0030780021212
 30
0.0
 10
502.6084177614742
 20
-662.0029446948462
 30
0.0
 10
502.8272081481335
 20
-662.0033922780017
 30
0.0
 10
503.219290920668
 20
-662.0069587692426
 30
0.0
 10
503.395198570536
 20
-662.0101073259652
 30
0.0
 10
503.7057761468735
 20
-662.0206590057904
 30
0.0
 10
503.8376527084072
 20
-662.0279889341193
 30
0.0
 10
504.0492755545159
 20
-662.0473314043927
 30
0.0
 10
504.1305989344205
 20
-662.059537187386
 30
0.0
 10
504.2394901124176
 20
-662.0888150485003
 30
0.0
 10
504.2666081705744
 20
-662.1056707387602
 30
0.0
 10
504.2658961789103
 20
-662.1437131913892
 30
0.0
 10
504.2380999688866
 20
-662.1642303308899
 30
0.0
 10
504.1299600571303
 20
-662.2075810542374
 30
0.0
 10
504.0483248365331
 20
-662.2306759211446
 30
0.0
 10
503.8354106739099
 20
-662.2763518506708
 30
0.0
 10
503.7052118837874
 20
-662.2990371238215
 30
0.0
 10
503.397719146925
 20
-662.3431423345735
 30
0.0
 10
503.2187116455616
 20
-662.3646106184458
 30
0.0
 10
502.8275304861333
 20
-662.4036138479011
 30
0.0
 10
502.6140708099696
 20
-662.4213820224647
 30
0.0
 10
502.1505048201868
 20
-662.4528621839258
 30
0.0
 10
501.9031257549524
 20
-662.4663317007984
 30
0.0
 10
501.3920553929516
 20
-662.4879284350202
 30
0.0
 10
501.1249941141265
 20
-662.4961592315587
 30
0.0
 10
500.5751902384695
 20
-662.507021892808
 30
0.0
 10
500.2972626629408
 20
-662.5095801379726
 30
0.0
 10
500.0162896144986
 20
-662.5092814682428
 30
0.0
  0
LINE
  5
1FEE5
330
18
100
AcDbEntity
  8
01
100
AcDbLine
 10
476.5120047284646
 20
-651.1213303512663
 30
0.0
 11
476.5120047284646
 21
-660.5213303512663
 31
0.0
  0
ARC
  5
1FEE6
330
18
100
AcDbEntity
  8
01
100
AcDbCircle
 10
476.2120047284647
 20
-660.5213303512663
 30
0.0
 40
0.3
100
AcDbArc
 50
270.0
 51
0.0
  0
ARC
  5
1FEE7
330
18
100
AcDbEntity
  8
01
100
AcDbCircle
 10
476.2120047284647
 20
-651.1213303512663
 30
0.0
 40
0.3
100
AcDbArc
 50
0.0
 51
90.0
  0
LINE
  5
1FEE8
330
18
100
AcDbEntity
  8
01
100
AcDbLine
 10
523.5120047284647
 20
-651.1213303512663
 30
0.0
 11
523.5120047284647
 21
-660.5213303512662
 31
0.0
  0
LINE
  5
1FEE9
330
18
100
AcDbEntity
  8
01
100
AcDbLine
 10
400.0120047284647
 20
-675.8213303512662
 30
0.0
 11
400.0120047284647
 21
-695.8213303512662
 31
0.0
  0
LINE
  5
1FEEA
330
18
100
AcDbEntity
  8
01
100
AcDbLine
 10
410.0120047284646
 20
-675.8213303512662
 30
0.0
 11
410.0120047284646
 21
-695.8213303512662
 31
0.0
  0
LINE
  5
1FEEB
330
18
100
AcDbEntity
  8
01
100
AcDbLine
 10
600.0120047284647
 20
-675.8213303512662
 30
0.0
 11
600.0120047284647
 21
-695.8213303512662
 31
0.0
  0
LINE
  5
1FEEC
330
18
100
AcDbEntity
  8
01
100
AcDbLine
 10
590.0120047284647
 20
-675.8213303512662
 30
0.0
 11
590.0120047284647
 21
-695.8213303512662
 31
0.0
  0
ARC
  5
1FEED
330
18
100
AcDbEntity
  8
01
100
AcDbCircle
 10
575.0120047284647
 20
-675.8213303512662
 30
0.0
 40
25.0
100
AcDbArc
 50
0.0
 51
90.0
  0
ARC
  5
1FEEE
330
18
100
AcDbEntity
  8
01
100
AcDbCircle
 10
575.0120047284647
 20
-675.8213303512662
 30
0.0
 40
15.0
100
AcDbArc
 50
0.0
 51
90.0
  0
LINE
  5
1FEEF
330
18
100
AcDbEntity
  8
01
100
AcDbLine
 10
425.0120047284647
 20
-720.8213303512662
 30
0.0
 11
575.0120047284647
 21
-720.8213303512662
 31
0.0
  0
LINE
  5
1FEF0
330
18
100
AcDbEntity
  8
01
100
AcDbLine
 10
425.0120047284647
 20
-710.8213303512663
 30
0.0
 11
575.0120047284647
 21
-710.8213303512663
 31
0.0
  0
ARC
  5
1FEF1
330
18
100
AcDbEntity
  8
01
100
AcDbCircle
 10
575.0120047284647
 20
-695.8213303512662
 30
0.0
 40
25.0
100
AcDbArc
 50
270.0
 51
0.0
  0
ARC
  5
1FEF2
330
18
100
AcDbEntity
  8
01
100
AcDbCircle
 10
575.0120047284647
 20
-695.8213303512662
 30
0.0
 40
15.0
100
AcDbArc
 50
270.0
 51
0.0
  0
ARC
  5
1FEF3
330
18
100
AcDbEntity
  8
01
100
AcDbCircle
 10
425.0120047284647
 20
-695.8213303512662
 30
0.0
 40
25.0
100
AcDbArc
 50
180.0
 51
270.0
  0
ARC
  5
1FEF4
330
18
100
AcDbEntity
  8
01
100
AcDbCircle
 10
425.0120047284647
 20
-695.8213303512662
 30
0.0
 40
15.0
100
AcDbArc
 50
180.0
 51
270.0
  0
LINE
  5
1FEF5
330
18
100
AcDbEntity
  8
01
100
AcDbLine
 10
425.0120047284647
 20
-650.8213303512662
 30
0.0
 11
476.2120047284647
 21
-650.8213303512662
 31
0.0
  0
LINE
  5
1FEF6
330
18
100
AcDbEntity
  8
01
100
AcDbLine
 10
523.8120047284646
 20
-650.8213303512662
 30
0.0
 11
575.0120047284647
 21
-650.8213303512662
 31
0.0
  0
ARC
  5
1FEF7
330
18
100
AcDbEntity
  8
01
100
AcDbCircle
 10
523.8120047284646
 20
-651.1213303512663
 30
0.0
 40
0.3
100
AcDbArc
 50
90.0
 51
180.0
  0
LINE
  5
1FEF9
330
18
100
AcDbEntity
  8
01
100
AcDbLine
 10
425.0120047284647
 20
-660.8213303512663
 30
0.0
 11
476.2120047284647
 21
-660.8213303512663
 31
0.0
  0
LINE
  5
1FEFA
330
18
100
AcDbEntity
  8
01
100
AcDbLine
 10
523.8120047284646
 20
-660.8213303512663
 30
0.0
 11
575.0120047284647
 21
-660.8213303512663
 31
0.0
  0
ARC
  5
1FEFB
330
18
100
AcDbEntity
  8
01
100
AcDbCircle
 10
523.8120047284646
 20
-660.5213303512663
 30
0.0
 40
0.3
100
AcDbArc
 50
180.0
 51
270.0
  0
ARC
  5
1FEFC
330
18
100
AcDbEntity
  8
01
100
AcDbCircle
 10
425.0120047284647
 20
-675.8213303512662
 30
0.0
 40
25.0
100
AcDbArc
 50
90.0
 51
180.0
  0
ARC
  5
1FEFD
330
18
100
AcDbEntity
  8
01
100
AcDbCircle
 10
425.0120047284647
 20
-675.8213303512662
 30
0.0
 40
15.0
100
AcDbArc
 50
90.0
 51
180.0
  0
LINE
  5
1FEFE
330
18
100
AcDbEntity
  8
01
100
AcDbLine
 10
522.5162416153648
 20
-660.8213302836855
 30
0.0
 11
523.5162416153648
 21
-660.8213302836855
 31
0.0
  0
LINE
  5
1FEFF
330
18
100
AcDbEntity
  8
01
100
AcDbLine
 10
522.5162416153648
 20
-650.8213302836854
 30
0.0
 11
523.5162416153648
 21
-650.8213302836854
 31
0.0
  0
LINE
  5
1FF00
330
18
100
AcDbEntity
  8
01
100
AcDbLine
 10
522.5162416153648
 20
-650.8213302836854
 30
0.0
 11
522.5162416153648
 21
-660.8213302836855
 31
0.0
  0
LINE
  5
1FF01
330
18
100
AcDbEntity
  8
01
100
AcDbLine
 10
523.5162416153648
 20
-650.8213302836854
 30
0.0
 11
523.5162416153648
 21
-660.8213302836855
 31
0.0
  0
LINE
  5
1FF02
330
18
100
AcDbEntity
  8
01
100
AcDbLine
 10
476.5162416153532
 20
-660.8213302836613
 30
0.0
 11
477.5162416153532
 21
-660.8213302836613
 31
0.0
  0
LINE
  5
1FF03
330
18
100
AcDbEntity
  8
01
100
AcDbLine
 10
476.5162416153532
 20
-650.8213302836614
 30
0.0
 11
477.5162416153532
 21
-650.8213302836614
 31
0.0
  0
LINE
  5
1FF04
330
18
100
AcDbEntity
  8
01
100
AcDbLine
 10
476.5162416153532
 20
-650.8213302836614
 30
0.0
 11
476.5162416153532
 21
-660.8213302836613
 31
0.0
  0
LINE
  5
1FF05
330
18
100
AcDbEntity
  8
01
100
AcDbLine
 10
477.5162416153532
 20
-650.8213302836614
 30
0.0
 11
477.5162416153532
 21
-660.8213302836613
 31
0.0
  0
LINE
  5
1FF06
330
18
100
AcDbEntity
  8
1PHANTOM
370
    15
100
AcDbLine
 10
505.5162416153649
 20
-658.8213302800605
 30
0.0
 11
504.0258762770299
 21
-659.8213303512663
 31
0.0
  0
LINE
  5
1FF07
330
18
100
AcDbEntity
  8
1PHANTOM
370
    15
100
AcDbLine
 10
503.016241615365
 20
-658.8213303512662
 30
0.0
 11
504.0258762770299
 21
-659.8213303512663
 31
0.0
  0
LINE
  5
1FF08
330
18
100
AcDbEntity
  8
1PHANTOM
370
    15
100
AcDbLine
 10
503.016241615365
 20
-658.8213303512662
 30
0.0
 11
497.0162416153649
 21
-658.8213303512662
 31
0.0
  0
LINE
  5
1FF09
330
18
100
AcDbEntity
  8
1PHANTOM
370
    15
100
AcDbLine
 10
496.0162416153649
 20
-659.8213303512663
 30
0.0
 11
497.0162416153649
 21
-658.8213303512662
 31
0.0
  0
LINE
  5
1FF0A
330
18
100
AcDbEntity
  8
1PHANTOM
370
    15
100
AcDbLine
 10
496.0162416153649
 20
-659.8213303512663
 30
0.0
 11
494.5162416153649
 21
-658.8213303423656
 31
0.0
  0
LINE
  5
1FF0B
330
18
100
AcDbEntity
  8
1PHANTOM
370
    15
100
AcDbLine
 10
505.5162416153649
 20
-653.3213303512663
 30
0.0
 11
505.5162416153649
 21
-658.8213302800605
 31
0.0
  0
LINE
  5
1FF0C
330
18
100
AcDbEntity
  8
1PHANTOM
370
    15
100
AcDbLine
 10
494.5162416153649
 20
-658.8213303423656
 30
0.0
 11
494.5162416153649
 21
-653.3213303512663
 31
0.0
  0
LINE
  5
1FF0D
330
18
100
AcDbEntity
  8
1PHANTOM
370
    15
100
AcDbLine
 10
494.5162416153649
 20
-653.3213303512663
 30
0.0
 11
496.0258762770298
 21
-652.3213303512664
 31
0.0
  0
LINE
  5
1FF0E
330
18
100
AcDbEntity
  8
1PHANTOM
370
    15
100
AcDbLine
 10
496.0258762770298
 20
-652.3213303512664
 30
0.0
 11
504.0258762770299
 21
-652.3213303512664
 31
0.0
  0
LINE
  5
1FF0F
330
18
100
AcDbEntity
  8
1PHANTOM
370
    15
100
AcDbLine
 10
505.5162416153649
 20
-653.3213303512662
 30
0.0
 11
504.0258762770299
 21
-652.3213303512664
 31
0.0
  0
CIRCLE
  5
1FF10
330
18
100
AcDbEntity
  8
1PHANTOM
370
    15
100
AcDbCircle
 10
511.0162416153649
 20
-655.8213303512663
 30
0.0
 40
2.25
  0
CIRCLE
  5
1FF11
330
18
100
AcDbEntity
  8
1PHANTOM
370
    15
100
AcDbCircle
 10
489.0162416153649
 20
-655.8213303512663
 30
0.0
 40
2.25
  0
LINE
  5
1FF12
330
18
100
AcDbEntity
  8
1CENTER
100
AcDbLine
 10
505.4912416153644
 20
-655.8213303512664
 30
0.0
 11
516.5412416153644
 21
-655.8213303512664
 31
0.0
  0
LINE
  5
1FF13
330
18
100
AcDbEntity
  8
1CENTER
100
AcDbLine
 10
511.0162416153644
 20
-661.3463303512664
 30
0.0
 11
511.0162416153644
 21
-650.2963303512663
 31
0.0
  0
LINE
  5
1FF14
330
18
100
AcDbEntity
  8
1CENTER
100
AcDbLine
 10
483.4912416153654
 20
-655.8213303512664
 30
0.0
 11
494.5412416153645
 21
-655.8213303512664
 31
0.0
  0
LINE
  5
1FF15
330
18
100
AcDbEntity
  8
1CENTER
100
AcDbLine
 10
489.0162416153654
 20
-661.3463303512664
 30
0.0
 11
489.0162416153654
 21
-650.2963303512663
 31
0.0
  0
LINE
  5
1FF82
330
18
100
AcDbEntity
  8
01
  6
Continuous
370
    15
100
AcDbLine
 10
713.0162351055229
 20
-635.8213303512675
 30
0.0
 11
705.7421001351375
 21
-635.8213327189409
 31
0.0
  0
ARC
  5
1FF83
330
18
100
AcDbEntity
  8
01
  6
Continuous
370
    15
100
AcDbCircle
 10
904.0386962972524
 20
-655.5712681749658
 30
0.0
 40
199.9999999999952
100
AcDbArc
 50
174.5411864488173
 51
180.0715211994959
  0
ARC
  5
1FF84
330
18
100
AcDbEntity
  8
01
370
    15
100
AcDbCircle
 10
702.7033745908323
 20
-647.4264395475192
 30
0.0
 40
1.5
100
AcDbArc
 50
273.401567601886
 51
357.6834169936209
  0
ARC
  5
1FF85
330
18
100
AcDbEntity
  8
01
  6
Continuous
370
    15
100
AcDbCircle
 10
705.7421003955313
 20
-636.6213327189407
 30
0.0
 40
0.8
100
AcDbArc
 50
90.00001864931844
 51
174.5411864488108
  0
LINE
  5
1FF86
330
18
100
AcDbEntity
  8
01
  6
Continuous
370
    15
100
AcDbLine
 10
713.0162481252069
 20
-675.8213303512654
 30
0.0
 11
713.0162351055229
 21
-635.8213303512675
 31
0.0
  0
LINE
  5
1FF88
330
18
100
AcDbEntity
  8
01
  6
Continuous
370
    15
100
AcDbLine
 10
713.0162481252069
 20
-675.8213303512653
 30
0.0
 11
705.7421131548216
 21
-675.8213327189388
 31
0.0
  0
ARC
  5
1FF89
330
18
100
AcDbEntity
  8
01
  6
Continuous
370
    15
100
AcDbCircle
 10
904.0386964599985
 20
-656.0712681749667
 30
0.0
 40
199.9999999999952
100
AcDbArc
 50
179.9282817137791
 51
185.4588508498266
  0
ARC
  5
1FF8A
330
18
100
AcDbEntity
  8
01
370
    15
100
AcDbCircle
 10
702.7033800557759
 20
-664.2162278685255
 30
0.0
 40
1.5
100
AcDbArc
 50
2.316620305027772
 51
86.59846969676483
  0
ARC
  5
1FF8B
330
18
100
AcDbEntity
  8
01
  6
Continuous
370
    15
100
AcDbCircle
 10
705.742112894428
 20
-675.0213327189388
 30
0.0
 40
0.8
100
AcDbArc
 50
185.4588508498396
 51
270.0000186493185
  0
LINE
  5
1FF8C
330
18
100
AcDbEntity
  8
01
100
AcDbLine
 10
702.7923796088349
 20
-662.7188705031796
 30
0.0
 11
676.016241615367
 21
-661.1273571014911
 31
0.0
  0
LINE
  5
1FF8D
330
18
100
AcDbEntity
  8
01
100
AcDbLine
 10
702.7923751186476
 20
-648.9237968549273
 30
0.0
 11
670.7195731893172
 21
-650.8301529972409
 31
0.0
  0
LINE
  5
1FF8E
330
18
100
AcDbEntity
  8
1CENTER
100
AcDbLine
 10
671.0162394996681
 20
-649.3213440219351
 30
0.0
 11
671.0162437310653
 21
-662.3213440219345
 31
0.0
  0
LINE
  5
1FF8F
330
18
100
AcDbEntity
  8
1CENTER
100
AcDbLine
 10
664.5162416153672
 20
-655.8213461376335
 30
0.0
 11
677.5162416153665
 21
-655.8213419062361
 31
0.0
  0
ARC
  5
1FF90
330
18
100
AcDbEntity
  8
01
100
AcDbCircle
 10
671.016241615367
 20
-655.8213440219347
 30
0.0
 40
5.0
100
AcDbArc
 50
359.9999999999935
 51
180.0
  0
ARC
  5
1FF92
330
18
100
AcDbEntity
  8
01
100
AcDbCircle
 10
671.016241615367
 20
-715.8213440219347
 30
0.0
 40
5.0
100
AcDbArc
 50
180.0
 51
359.9999999999935
  0
LINE
  5
1FF93
330
18
100
AcDbEntity
  8
01
100
AcDbLine
 10
666.016241615367
 20
-655.8213440219347
 30
0.0
 11
666.016241615367
 21
-715.8213440219347
 31
0.0
  0
LINE
  5
1FF94
330
18
100
AcDbEntity
  8
01
100
AcDbLine
 10
676.0162416153669
 20
-655.8213440219347
 30
0.0
 11
676.0162416153669
 21
-715.8213440219347
 31
0.0
  0
LINE
  5
1FF95
330
18
100
AcDbEntity
  8
1CENTER
100
AcDbLine
 10
664.5162416153672
 20
-655.8213440219347
 30
0.0
 11
677.5162416153672
 21
-655.8213440219347
 31
0.0
  0
LINE
  5
1FF96
330
18
100
AcDbEntity
  8
1CENTER
100
AcDbLine
 10
671.0162416153671
 20
-662.3213440219346
 30
0.0
 11
671.0162416153671
 21
-649.3213440219347
 31
0.0
  0
LINE
  5
1FF98
330
18
100
AcDbEntity
  8
1PHANTOM
370
    15
100
AcDbLine
 10
711.019366327886
 20
-672.824455689436
 30
0.0
 11
710.5162416153649
 21
-672.3213308197721
 31
0.0
  0
LINE
  5
1FF99
330
18
100
AcDbEntity
  8
1PHANTOM
370
    15
100
AcDbLine
 10
710.5162416153649
 20
-639.3213302668466
 30
0.0
 11
711.019366327886
 21
-638.8182055260092
 31
0.0
  0
LINE
  5
1FF9A
330
18
100
AcDbEntity
  8
1PHANTOM
370
    15
100
AcDbLine
 10
710.5162416153638
 20
-672.3213303512721
 30
0.0
 11
711.0162416153649
 21
-672.8213303512664
 31
0.0
  0
LINE
  5
1FF9B
330
18
100
AcDbEntity
  8
1PHANTOM
370
    15
100
AcDbLine
 10
713.0162416153649
 20
-638.8213303512664
 30
0.0
 11
711.0162416153649
 21
-638.8213303512664
 31
0.0
  0
LINE
  5
1FF9C
330
18
100
AcDbEntity
  8
1PHANTOM
370
    15
100
AcDbLine
 10
711.0162416153649
 20
-638.8213303512664
 30
0.0
 11
710.5162416153639
 21
-639.3213303512604
 31
0.0
  0
LINE
  5
1FF9D
330
18
100
AcDbEntity
  8
1PHANTOM
370
    15
100
AcDbLine
 10
710.5162416153649
 20
-651.3213303512664
 30
0.0
 11
709.5162416153649
 21
-652.3213303512664
 31
0.0
  0
LINE
  5
1FF9E
330
18
100
AcDbEntity
  8
1PHANTOM
370
    15
100
AcDbLine
 10
709.5162416153649
 20
-652.3213303512664
 30
0.0
 11
691.0162416153649
 21
-652.3213303512664
 31
0.0
  0
LINE
  5
1FF9F
330
18
100
AcDbEntity
  8
1PHANTOM
370
    15
100
AcDbLine
 10
710.5162416153648
 20
-661.1076542504272
 30
0.0
 11
710.5162416153638
 21
-672.3213303512721
 31
0.0
  0
LINE
  5
1FFA0
330
18
100
AcDbEntity
  8
1PHANTOM
370
    15
100
AcDbLine
 10
710.5162416153639
 20
-639.3213303512604
 30
0.0
 11
710.5162416153649
 21
-651.3213303512664
 31
0.0
  0
LINE
  5
1FFA1
330
18
100
AcDbEntity
  8
1PHANTOM
370
    15
100
AcDbLine
 10
711.0162416153649
 20
-672.8213303512664
 30
0.0
 11
713.0162416153649
 21
-672.8213303512664
 31
0.0
  0
LINE
  5
1FFA2
330
18
100
AcDbEntity
  8
1PHANTOM
370
    15
100
AcDbLine
 10
691.0162416153649
 20
-652.3213303512664
 30
0.0
 11
690.0162416153649
 21
-653.3213303512663
 31
0.0
  0
LINE
  5
1FFA3
330
18
100
AcDbEntity
  8
1PHANTOM
370
    15
100
AcDbLine
 10
690.0162416153649
 20
-653.3213303512663
 30
0.0
 11
690.0162416153649
 21
-657.8213303512663
 31
0.0
  0
LINE
  5
1FFA4
330
18
100
AcDbEntity
  8
1PHANTOM
370
    15
100
AcDbLine
 10
710.5162416153649
 20
-661.1076542504275
 30
0.0
 11
709.5162416153649
 21
-659.8213303512664
 31
0.0
  0
LINE
  5
1FFA5
330
18
100
AcDbEntity
  8
1PHANTOM
370
    15
100
AcDbLine
 10
692.0162416153649
 20
-659.8213303512664
 30
0.0
 11
709.5162416153649
 21
-659.8213303512664
 31
0.0
  0
LINE
  5
1FFA6
330
18
100
AcDbEntity
  8
1PHANTOM
370
    15
100
AcDbLine
 10
690.0162416153649
 20
-657.8213303512663
 30
0.0
 11
692.0162416153649
 21
-659.8213303512664
 31
0.0
  0
LINE
  5
1FFA7
330
18
100
AcDbEntity
  8
1PHANTOM
100
AcDbLine
 10
713.0162416153649
 20
-672.8213303512664
 30
0.0
 11
713.0162416153649
 21
-638.8213303512664
 31
0.0
  0
LINE
  5
200A2
330
18
100
AcDbEntity
  8
1PHANTOM
370
    15
100
AcDbLine
 10
483.0131167901079
 20
-550.4016475042338
 30
0.0
 11
483.5162415309453
 21
-550.9047722167549
 31
0.0
  0
LINE
  5
200A3
330
18
100
AcDbEntity
  8
1PHANTOM
370
    15
100
AcDbLine
 10
516.5162420838706
 20
-550.9047722167549
 30
0.0
 11
517.0193669535345
 21
-550.4016475042338
 31
0.0
  0
LINE
  5
200A4
330
18
100
AcDbEntity
  8
1PHANTOM
370
    15
100
AcDbLine
 10
516.5162416997845
 20
-550.9047722167549
 30
0.0
 11
517.019366440622
 21
-550.4016475042338
 31
0.0
  0
LINE
  5
200A5
330
18
100
AcDbEntity
  8
1PHANTOM
370
    15
100
AcDbLine
 10
483.0131162771952
 20
-550.4016475042338
 30
0.0
 11
483.5162411468592
 21
-550.9047722167549
 31
0.0
  0
LINE
  5
200A6
330
18
100
AcDbEntity
  8
1PHANTOM
370
    15
100
AcDbLine
 10
483.0162416153649
 20
-548.404772216755
 30
0.0
 11
483.0162416153649
 21
-550.4047722167549
 31
0.0
  0
LINE
  5
200A7
330
18
100
AcDbEntity
  8
1PHANTOM
370
    15
100
AcDbLine
 10
483.0162416153649
 20
-548.404772216755
 30
0.0
 11
517.0162416153649
 21
-548.404772216755
 31
0.0
  0
LINE
  5
200A8
330
18
100
AcDbEntity
  8
1PHANTOM
370
    15
100
AcDbLine
 10
483.5162411468587
 20
-550.9047722167545
 30
0.0
 11
493.5162416153646
 21
-550.9047722167546
 31
0.0
  0
LINE
  5
200A9
330
18
100
AcDbEntity
  8
1PHANTOM
370
    15
100
AcDbLine
 10
506.5162416153651
 20
-550.9047722167547
 30
0.0
 11
516.5162416997845
 21
-550.9047722167549
 31
0.0
  0
LINE
  5
200AA
330
18
100
AcDbEntity
  8
1PHANTOM
370
    15
100
AcDbLine
 10
517.0162416153649
 20
-550.4047722167549
 30
0.0
 11
517.0162416153649
 21
-548.404772216755
 31
0.0
  0
LINE
  5
200AB
330
18
100
AcDbEntity
  8
1PHANTOM
370
    15
100
AcDbLine
 10
493.5162416153649
 20
-550.9047722167549
 30
0.0
 11
494.5162416153649
 21
-551.9047722167549
 31
0.0
  0
LINE
  5
200AC
330
18
100
AcDbEntity
  8
1PHANTOM
370
    15
100
AcDbLine
 10
505.5162416153649
 20
-551.9047722167549
 30
0.0
 11
506.5162416153649
 21
-550.9047722167549
 31
0.0
  0
LINE
  5
200AD
330
18
100
AcDbEntity
  8
1PHANTOM
370
    15
100
AcDbLine
 10
505.5162416153649
 20
-570.4047722879606
 30
0.0
 11
505.5162416153649
 21
-551.9047722167549
 31
0.0
  0
LINE
  5
200AE
330
18
100
AcDbEntity
  8
1PHANTOM
370
    15
100
AcDbLine
 10
494.5162416153649
 20
-570.404772276093
 30
0.0
 11
495.5162416153649
 21
-571.4047722167549
 31
0.0
  0
LINE
  5
200AF
330
18
100
AcDbEntity
  8
1PHANTOM
370
    15
100
AcDbLine
 10
504.5162416153649
 20
-571.4047722167549
 30
0.0
 11
505.5162416153649
 21
-570.4047722879606
 31
0.0
  0
LINE
  5
200B0
330
18
100
AcDbEntity
  8
1PHANTOM
370
    15
100
AcDbLine
 10
495.5162416153649
 20
-571.4047722167549
 30
0.0
 11
504.5162416153649
 21
-571.4047722167549
 31
0.0
  0
CIRCLE
  5
200B1
330
18
100
AcDbEntity
  8
1PHANTOM
370
    15
100
AcDbCircle
 10
500.0162416153649
 20
-566.2047722167549
 30
0.0
 40
1.650000000000005
  0
LINE
  5
200B2
330
18
100
AcDbEntity
  8
1PHANTOM
370
    15
100
AcDbLine
 10
494.5162416153649
 20
-551.9047722167549
 30
0.0
 11
494.5162416153649
 21
-570.404772276093
 31
0.0
  0
LINE
  5
200B5
330
18
100
AcDbEntity
  8
01
  6
Continuous
370
    15
100
AcDbLine
 10
480.0162435342763
 20
-548.404772216755
 30
0.0
 11
480.0162435342764
 21
-555.6798244977307
 31
0.0
  0
LINE
  5
200B6
330
18
100
AcDbEntity
  8
01
  6
Continuous
370
    15
100
AcDbLine
 10
520.016243534276
 20
-555.6798244977307
 30
0.0
 11
520.016243534276
 21
-548.404772216755
 31
0.0
  0
LINE
  5
200B7
330
18
100
AcDbEntity
  8
01
370
    15
100
AcDbLine
 10
481.5162233850609
 20
-595.4047711403358
 30
0.0
 11
518.5162233850637
 21
-595.4047711403358
 31
0.0
  0
LINE
  5
200B8
330
18
100
AcDbEntity
  8
01
370
    15
100
AcDbLine
 10
517.0162302459302
 20
-585.4047711403358
 30
0.0
 11
518.5162269135093
 21
-585.4047711403358
 31
0.0
  0
ARC
  5
200B9
330
18
100
AcDbEntity
  8
01
370
    15
100
AcDbCircle
 10
481.5162269135066
 20
-585.9047711403357
 30
0.0
 40
0.5
100
AcDbArc
 50
90.0
 51
179.9999775372174
  0
ARC
  5
200BA
330
18
100
AcDbEntity
  8
01
370
    15
100
AcDbCircle
 10
518.5162269135093
 20
-585.9047711403357
 30
0.0
 40
0.5
100
AcDbArc
 50
359.9999775372174
 51
90.0
  0
LINE
  5
200BB
330
18
100
AcDbEntity
  8
01
  6
Continuous
370
    15
100
AcDbLine
 10
520.016243534276
 20
-548.404772216755
 30
0.0
 11
480.0162435342763
 21
-548.404772216755
 31
0.0
  0
LINE
  5
200BE
330
18
100
AcDbEntity
  8
01
370
     0
100
AcDbLine
 10
491.016230245927
 20
-577.404774276732
 30
0.0
 11
491.0162378661057
 21
-557.9679988316323
 31
0.0
  0
ARC
  5
200BF
330
18
100
AcDbEntity
  8
01
370
     0
100
AcDbCircle
 10
483.0162302459277
 20
-577.4047711403357
 30
0.0
 40
8.0
100
AcDbArc
 50
270.0
 51
359.9999775372174
  0
LINE
  5
200C0
330
18
100
AcDbEntity
  8
01
370
     0
100
AcDbLine
 10
509.0162302459309
 20
-577.4047680039395
 30
0.0
 11
509.016237866107
 21
-557.9679987582819
 31
0.0
  0
ARC
  5
200C1
330
18
100
AcDbEntity
  8
01
370
     0
100
AcDbCircle
 10
517.0162302459302
 20
-577.4047711403357
 30
0.0
 40
8.0
100
AcDbArc
 50
179.9999775372174
 51
270.0
  0
LINE
  5
200C2
330
18
100
AcDbEntity
  8
01
370
     0
100
AcDbLine
 10
481.0162233850609
 20
-594.904770944311
 30
0.0
 11
481.0162269135067
 21
-585.904770944311
 31
0.0
  0
ARC
  5
200C3
330
18
100
AcDbEntity
  8
01
370
     0
100
AcDbCircle
 10
481.5162233850609
 20
-594.9047711403358
 30
0.0
 40
0.5
100
AcDbArc
 50
179.9999775372174
 51
270.0
  0
LINE
  5
200C4
330
18
100
AcDbEntity
  8
01
370
     0
100
AcDbLine
 10
519.0162233850636
 20
-594.9047713363605
 30
0.0
 11
519.0162269135093
 21
-585.9047713363605
 31
0.0
  0
ARC
  5
200C5
330
18
100
AcDbEntity
  8
01
370
     0
100
AcDbCircle
 10
518.5162233850637
 20
-594.9047711403358
 30
0.0
 40
0.5
100
AcDbArc
 50
270.0
 51
359.9999775372174
  0
LINE
  5
200C6
330
18
100
AcDbEntity
  8
01
100
AcDbLine
 10
481.5162269135066
 20
-585.4047711403358
 30
0.0
 11
483.0162302459277
 21
-585.4047711403358
 31
0.0
  0
ARC
  5
200C7
330
18
100
AcDbEntity
  8
01
100
AcDbCircle
 10
500.0162435342763
 20
-357.407284795431
 30
0.0
 40
200.0
100
AcDbArc
 50
272.7974176273111
 51
275.5310715248382
  0
ARC
  5
200C8
330
18
100
AcDbEntity
  8
01
100
AcDbCircle
 10
509.816237866107
 20
-557.9679990719215
 30
0.0
 40
0.8
100
AcDbArc
 50
92.79741762732086
 51
179.9999775372174
  0
ARC
  5
200C9
330
18
100
AcDbEntity
  8
01
100
AcDbCircle
 10
480.8162435342763
 20
-555.6798244977307
 30
0.0
 40
0.8
100
AcDbArc
 50
180.0
 51
264.4689284751617
  0
ARC
  5
200CA
330
18
100
AcDbEntity
  8
01
100
AcDbCircle
 10
519.2162435342761
 20
-555.6798244977307
 30
0.0
 40
0.8
100
AcDbArc
 50
275.531071524835
 51
0.0
  0
ARC
  5
200CB
330
18
100
AcDbEntity
  8
01
100
AcDbCircle
 10
500.016243534299
 20
-357.407284795431
 30
0.0
 40
200.0
100
AcDbArc
 50
264.4689284751585
 51
267.2025791341406
  0
ARC
  5
200CC
330
18
100
AcDbEntity
  8
01
100
AcDbCircle
 10
490.2162378661058
 20
-557.9679985179928
 30
0.0
 40
0.8
100
AcDbArc
 50
359.9999775372174
 51
87.20257913414057
  0
LINE
  5
200CD
330
18
100
AcDbEntity
  8
01
100
AcDbLine
 10
595.0162251492847
 20
-595.4047722167549
 30
0.0
 11
520.3162251492847
 21
-595.4047722167549
 31
0.0
  0
ARC
  5
200CE
330
18
100
AcDbEntity
  8
01
100
AcDbCircle
 10
520.3162251492847
 20
-595.104772216755
 30
0.0
 40
0.3
100
AcDbArc
 50
180.0
 51
270.0
  0
ARC
  5
200CF
330
18
100
AcDbEntity
  8
01
100
AcDbCircle
 10
405.0162251492848
 20
-590.404772216755
 30
0.0
 40
5.0
100
AcDbArc
 50
180.0
 51
270.0
  0
LINE
  5
200D0
330
18
100
AcDbEntity
  8
01
100
AcDbLine
 10
595.0162251492847
 20
-585.4047722167549
 30
0.0
 11
520.3162251492847
 21
-585.4047722167549
 31
0.0
  0
ARC
  5
200D1
330
18
100
AcDbEntity
  8
01
100
AcDbCircle
 10
520.3162251492847
 20
-585.7047722167549
 30
0.0
 40
0.3
100
AcDbArc
 50
90.0
 51
180.0
  0
ARC
  5
200D2
330
18
100
AcDbEntity
  8
01
100
AcDbCircle
 10
405.0162251492848
 20
-590.404772216755
 30
0.0
 40
5.0
100
AcDbArc
 50
90.0
 51
180.0
  0
ARC
  5
200D6
330
18
100
AcDbEntity
  8
01
100
AcDbCircle
 10
595.0162251492847
 20
-590.404772216755
 30
0.0
 40
5.0
100
AcDbArc
 50
270.0
 51
0.0
  0
ARC
  5
200D7
330
18
100
AcDbEntity
  8
01
100
AcDbCircle
 10
595.0162251492847
 20
-590.404772216755
 30
0.0
 40
5.0
100
AcDbArc
 50
0.0
 51
90.0
  0
LINE
  5
200D8
330
18
100
AcDbEntity
  8
01
100
AcDbLine
 10
520.0162251492847
 20
-595.104772216755
 30
0.0
 11
520.0162251492847
 21
-585.7047722167549
 31
0.0
  0
LINE
  5
200D9
330
18
100
AcDbEntity
  8
01
100
AcDbLine
 10
480.0162251492848
 20
-595.104772216755
 30
0.0
 11
480.0162251492848
 21
-585.7047722167549
 31
0.0
  0
LINE
  5
200DA
330
18
100
AcDbEntity
  8
01
100
AcDbLine
 10
405.0162251492848
 20
-585.4047722167549
 30
0.0
 11
479.4162251492847
 21
-585.4047722167549
 31
0.0
  0
ARC
  5
200DB
330
18
100
AcDbEntity
  8
01
100
AcDbCircle
 10
479.7162251492848
 20
-585.7047722167549
 30
0.0
 40
0.3
100
AcDbArc
 50
0.0
 51
90.0
  0
LINE
  5
200DC
330
18
100
AcDbEntity
  8
01
100
AcDbLine
 10
405.0162251492848
 20
-595.4047722167549
 30
0.0
 11
479.4162251492847
 21
-595.4047722167549
 31
0.0
  0
ARC
  5
200DD
330
18
100
AcDbEntity
  8
01
100
AcDbCircle
 10
479.7162251492848
 20
-595.104772216755
 30
0.0
 40
0.3
100
AcDbArc
 50
270.0
 51
0.0
  0
LINE
  5
200DE
330
18
100
AcDbEntity
  8
01
100
AcDbLine
 10
479.4162251492847
 20
-585.4047722167549
 30
0.0
 11
479.7162251492848
 21
-585.4047722167549
 31
0.0
  0
LINE
  5
200DF
330
18
100
AcDbEntity
  8
01
100
AcDbLine
 10
479.4162251492847
 20
-595.4047722167549
 30
0.0
 11
479.7162251492848
 21
-595.4047722167549
 31
0.0
  0
LINE
  5
200E0
330
18
100
AcDbEntity
  8
01
100
AcDbLine
 10
519.0162251492861
 20
-595.4047722167549
 30
0.0
 11
520.0162251492861
 21
-595.4047722167549
 31
0.0
  0
LINE
  5
200E1
330
18
100
AcDbEntity
  8
01
100
AcDbLine
 10
519.0162251492861
 20
-585.4047722167549
 30
0.0
 11
520.0162251492861
 21
-585.4047722167549
 31
0.0
  0
LINE
  5
200E2
330
18
100
AcDbEntity
  8
01
100
AcDbLine
 10
519.0162251492861
 20
-585.4047722167549
 30
0.0
 11
519.0162251492861
 21
-595.4047722167549
 31
0.0
  0
LINE
  5
200E3
330
18
100
AcDbEntity
  8
01
100
AcDbLine
 10
520.0162251492861
 20
-585.4047722167549
 30
0.0
 11
520.0162251492861
 21
-595.4047722167549
 31
0.0
  0
LINE
  5
200E4
330
18
100
AcDbEntity
  8
01
100
AcDbLine
 10
480.0162251492848
 20
-595.4047722167549
 30
0.0
 11
481.0162251492847
 21
-595.4047722167549
 31
0.0
  0
LINE
  5
200E5
330
18
100
AcDbEntity
  8
01
100
AcDbLine
 10
480.0162251492848
 20
-585.4047722167549
 30
0.0
 11
481.0162251492847
 21
-585.4047722167549
 31
0.0
  0
LINE
  5
200E6
330
18
100
AcDbEntity
  8
01
100
AcDbLine
 10
480.0162251492848
 20
-585.4047722167549
 30
0.0
 11
480.0162251492848
 21
-595.4047722167549
 31
0.0
  0
LINE
  5
200E7
330
18
100
AcDbEntity
  8
01
100
AcDbLine
 10
481.0162251492847
 20
-585.4047722167549
 30
0.0
 11
481.0162251492847
 21
-595.4047722167549
 31
0.0
  0
ARC
  5
20124
330
18
100
AcDbEntity
  8
1PHANTOM
370
    15
100
AcDbCircle
 10
485.0162416153649
 20
-670.8213303512662
 30
0.0
 40
2.000000000000028
100
AcDbArc
 50
180.0
 51
270.0
  0
LINE
  5
20125
330
18
100
AcDbEntity
  8
1PHANTOM
370
    15
100
AcDbLine
 10
483.0162416153649
 20
-640.8213303512663
 30
0.0
 11
483.0162416153649
 21
-670.8213303512662
 31
0.0
  0
ARC
  5
20126
330
18
100
AcDbEntity
  8
1PHANTOM
370
    15
100
AcDbCircle
 10
485.0162416153649
 20
-640.8213303512663
 30
0.0
 40
2.000000000000028
100
AcDbArc
 50
90.0
 51
180.0
  0
LINE
  5
20127
330
18
100
AcDbEntity
  8
1PHANTOM
370
    15
100
AcDbLine
 10
515.0162416153649
 20
-638.8213303512663
 30
0.0
 11
485.0162416153649
 21
-638.8213303512663
 31
0.0
  0
ARC
  5
20128
330
18
100
AcDbEntity
  8
1PHANTOM
370
    15
100
AcDbCircle
 10
515.0162416153649
 20
-640.8213303512663
 30
0.0
 40
2.000000000000028
100
AcDbArc
 50
0.0
 51
90.0
  0
LINE
  5
20129
330
18
100
AcDbEntity
  8
1PHANTOM
370
    15
100
AcDbLine
 10
517.0162416153649
 20
-670.8213303512662
 30
0.0
 11
517.0162416153649
 21
-640.8213303512663
 31
0.0
  0
ARC
  5
2012A
330
18
100
AcDbEntity
  8
1PHANTOM
370
    15
100
AcDbCircle
 10
515.0162416153649
 20
-670.8213303512662
 30
0.0
 40
2.000000000000028
100
AcDbArc
 50
270.0
 51
0.0
  0
LINE
  5
2012B
330
18
100
AcDbEntity
  8
1PHANTOM
370
    15
100
AcDbLine
 10
485.0162416153649
 20
-672.8213303512663
 30
0.0
 11
515.0162416153649
 21
-672.8213303512663
 31
0.0
  0
LINE
  5
202B4
330
18
100
AcDbEntity
  8
01
100
AcDbLine
 10
699.0162249268488
 20
-661.5213582699356
 30
0.0
 11
691.016224927022
 21
-661.5213024268581
 31
0.0
  0
LINE
  5
202B5
330
18
100
AcDbEntity
  8
1HATCH
100
AcDbLine
 10
693.3664548142993
 20
-651.8213196460484
 30
0.0
 11
693.3662467990465
 21
-659.1712969588328
 31
0.0
  0
LINE
  5
202B6
330
18
100
AcDbEntity
  8
1HATCH
100
AcDbLine
 10
696.666454814243
 20
-651.8213410525614
 30
0.0
 11
696.6662467986699
 21
-659.1713528020122
 31
0.0
  0
LINE
  5
202B7
330
18
100
AcDbEntity
  8
1CENTER
100
AcDbLine
 10
695.0164730701658
 20
-649.8598451899424
 30
0.0
 11
695.0162040811683
 21
-663.7610815918214
 31
0.0
  0
LINE
  5
202B8
330
18
100
AcDbEntity
  8
1HATCH
100
AcDbLine
 10
697.0164521447136
 20
-652.1713443100641
 30
0.0
 11
693.0164521448008
 21
-652.1713163885253
 31
0.0
  0
LINE
  5
202B9
330
18
100
AcDbEntity
  8
1HATCH
100
AcDbLine
 10
696.6662467986699
 20
-659.1713528020122
 30
0.0
 11
697.0162435411646
 21
-659.5213536163838
 31
0.0
  0
LINE
  5
202BA
330
18
100
AcDbEntity
  8
1HATCH
100
AcDbLine
 10
693.3662467990465
 20
-659.1712969588328
 30
0.0
 11
693.0162435415111
 21
-659.5212977732196
 31
0.0
  0
TEXT
  5
202BD
330
18
100
AcDbEntity
  8
01
100
AcDbText
 10
732.8891752713526
 20
-611.3902613041472
 30
0.0
 40
3.5
  1
合板9mm以上
100
AcDbText
  0
TEXT
  5
202BE
330
18
100
AcDbEntity
  8
01
100
AcDbText
 10
719.7537571261874
 20
-611.3902613041472
 30
0.0
 40
3.5
  1
PB
100
AcDbText
  0
LINE
  5
202BF
330
18
100
AcDbEntity
  8
01
100
AcDbLine
 10
699.016222134695
 20
-661.8213582699235
 30
0.0
 11
691.0162221348681
 21
-661.8213024268459
 31
0.0
  0
LINE
  5
202C0
330
18
100
AcDbEntity
  8
01
100
AcDbLine
 10
699.0162249268488
 20
-661.5213582699356
 30
0.0
 11
699.016222134695
 21
-661.8213582699235
 31
0.0
  0
LINE
  5
202C1
330
18
100
AcDbEntity
  8
01
100
AcDbLine
 10
691.016224927022
 20
-661.5213024268581
 30
0.0
 11
691.0162221348681
 21
-661.8213024268459
 31
0.0
  0
LINE
  5
202C2
330
18
100
AcDbEntity
  8
01
100
AcDbLine
 10
699.0162249268488
 20
-661.5213582699356
 30
0.0
 11
697.0162435411646
 21
-659.5213536163838
 31
0.0
  0
LINE
  5
202C3
330
18
100
AcDbEntity
  8
01
100
AcDbLine
 10
691.016224927022
 20
-661.5213024268581
 30
0.0
 11
693.0162435415111
 21
-659.5212977732196
 31
0.0
  0
LINE
  5
202C4
330
18
100
AcDbEntity
  8
01
100
AcDbLine
 10
697.0164521447136
 20
-652.1713443100641
 30
0.0
 11
697.0162435411646
 21
-659.5213536163838
 31
0.0
  0
LINE
  5
202C5
330
18
100
AcDbEntity
  8
01
100
AcDbLine
 10
693.0164521448008
 20
-652.1713163885253
 30
0.0
 11
693.0162435415111
 21
-659.5212977732196
 31
0.0
  0
LINE
  5
202C6
330
18
100
AcDbEntity
  8
01
100
AcDbLine
 10
696.6664548142364
 20
-651.8213418669397
 30
0.0
 11
697.0164521447136
 21
-652.1713443100641
 31
0.0
  0
LINE
  5
202C7
330
18
100
AcDbEntity
  8
01
100
AcDbLine
 10
693.366454814306
 20
-651.8213188316702
 30
0.0
 11
693.0164521448008
 21
-652.1713163885253
 31
0.0
  0
LINE
  5
202C8
330
18
100
AcDbEntity
  8
01
100
AcDbLine
 10
696.6664548142364
 20
-651.8213418669397
 30
0.0
 11
693.366454814306
 21
-651.8213188316702
 31
0.0
  0
LINE
  5
202C9
330
18
100
AcDbEntity
  8
1DIM
100
AcDbLine
 10
663.0162416153649
 20
-655.8213303512664
 30
0.0
 11
642.0162416153649
 21
-655.8213303512664
 31
0.0
  0
LINE
  5
202CA
330
18
100
AcDbEntity
  8
1DIM
100
AcDbLine
 10
713.0162351055229
 20
-635.8213303512675
 30
0.0
 11
642.0162416153649
 21
-635.8213303512675
 31
0.0
  0
LINE
  5
202CB
330
18
100
AcDbEntity
  8
1DIM
100
AcDbLine
 10
643.0162416153649
 20
-653.8213303512663
 30
0.0
 11
643.0162416153649
 21
-637.8213303512675
 31
0.0
  0
LINE
  5
202CF
330
18
100
AcDbEntity
  8
1DIM
100
AcDbLine
 10
671.0162416153671
 20
-655.8213440219349
 30
0.0
 11
671.0162416153671
 21
-614.8213303512663
 31
0.0
  0
LINE
  5
202D0
330
18
100
AcDbEntity
  8
1DIM
100
AcDbLine
 10
713.0162416153649
 20
-618.5931567659845
 30
0.0
 11
713.0162416153649
 21
-614.8213303512663
 31
0.0
  0
LINE
  5
202D1
330
18
100
AcDbEntity
  8
1DIM
100
AcDbLine
 10
673.0162416153672
 20
-615.8213303512662
 30
0.0
 11
711.0162416153649
 21
-615.8213303512662
 31
0.0
  0
LINE
  5
202D5
330
18
100
AcDbEntity
  8
1DIM
100
AcDbLine
 10
594.8129276904109
 20
-595.400637521506
 30
0.0
 11
611.0162416153649
 21
-595.400637521506
 31
0.0
  0
LINE
  5
202D6
330
18
100
AcDbEntity
  8
1DIM
100
AcDbLine
 10
594.8200891926584
 20
-585.4047722167549
 30
0.0
 11
611.0162416153649
 21
-585.4047722167549
 31
0.0
  0
LINE
  5
202D7
330
18
100
AcDbEntity
  8
1DIM
100
AcDbLine
 10
610.0162416153649
 20
-593.400637521506
 30
0.0
 11
610.0162416153649
 21
-587.4047722167549
 31
0.0
  0
LINE
  5
202D8
330
18
100
AcDbEntity
  8
1DIM
100
AcDbLine
 10
610.0162416153649
 20
-585.4047722167549
 30
0.0
 11
610.0162416153649
 21
-572.3381055500882
 31
0.0
  0
LINE
  5
202DC
330
18
100
AcDbEntity
  8
1DIM
100
AcDbLine
 10
575.0120047284647
 20
-650.8213303512662
 30
0.0
 11
611.0162416153649
 21
-650.8213303512662
 31
0.0
  0
LINE
  5
202DD
330
18
100
AcDbEntity
  8
1DIM
100
AcDbLine
 10
575.0120047284647
 20
-720.8213303512662
 30
0.0
 11
611.0162416153649
 21
-720.8213303512662
 31
0.0
  0
LINE
  5
202DE
330
18
100
AcDbEntity
  8
1DIM
100
AcDbLine
 10
610.0162416153649
 20
-652.8213303512663
 30
0.0
 11
610.0162416153649
 21
-718.8213303512663
 31
0.0
  0
LINE
  5
202E2
330
18
100
AcDbEntity
  8
1DIM
100
AcDbLine
 10
500.0162416153649
 20
-635.8213303512664
 30
0.0
 11
621.0162416153649
 21
-635.8213303512664
 31
0.0
  0
LINE
  5
202E3
330
18
100
AcDbEntity
  8
1DIM
100
AcDbLine
 10
575.0120047284647
 20
-720.8213303512662
 30
0.0
 11
621.0162416153649
 21
-720.8213303512662
 31
0.0
  0
LINE
  5
202E4
330
18
100
AcDbEntity
  8
1DIM
100
AcDbLine
 10
620.0162416153649
 20
-637.8213303512664
 30
0.0
 11
620.0162416153649
 21
-718.8213303512663
 31
0.0
  0
LINE
  5
202E8
330
18
100
AcDbEntity
  8
1DIM
100
AcDbLine
 10
400.0162416153649
 20
-675.3610843368338
 30
0.0
 11
400.0162416153649
 21
-614.8213303512663
 31
0.0
  0
LINE
  5
202E9
330
18
100
AcDbEntity
  8
1DIM
100
AcDbLine
 10
600.0120047284647
 20
-675.8213303512662
 30
0.0
 11
600.0120047284647
 21
-614.8213303512663
 31
0.0
  0
LINE
  5
202EA
330
18
100
AcDbEntity
  8
1DIM
100
AcDbLine
 10
402.0162416153649
 20
-615.8213303512662
 30
0.0
 11
598.0120047284647
 21
-615.8213303512662
 31
0.0
  0
LINE
  5
202EE
330
18
100
AcDbEntity
  8
1DIM
100
AcDbLine
 10
489.0162416153649
 20
-655.8213303512663
 30
0.0
 11
489.0162416153649
 21
-702.4213303512676
 31
0.0
  0
LINE
  5
202EF
330
18
100
AcDbEntity
  8
1DIM
100
AcDbLine
 10
511.0162416153644
 20
-655.8213303512663
 30
0.0
 11
511.0162416153644
 21
-702.4213303512676
 31
0.0
  0
LINE
  5
202F0
330
18
100
AcDbEntity
  8
1DIM
100
AcDbLine
 10
491.0162416153649
 20
-701.4213303512677
 30
0.0
 11
509.0162416153645
 21
-701.4213303512677
 31
0.0
  0
LINE
  5
202F4
330
18
100
AcDbEntity
  8
0
100
AcDbLine
 10
489.0162881512622
 20
-516.4047722169173
 30
0.0
 11
487.5162881512621
 21
-521.704768726779
 31
0.0
  0
LINE
  5
202F5
330
18
100
AcDbEntity
  8
0
100
AcDbLine
 10
487.5162881512621
 20
-521.704768726779
 30
0.0
 11
487.5162881512624
 21
-551.4047687266709
 31
0.0
  0
LINE
  5
202F6
330
18
100
AcDbEntity
  8
0
100
AcDbLine
 10
489.0162881512622
 20
-516.4047722169173
 30
0.0
 11
490.5162881512622
 21
-521.7047757071626
 31
0.0
  0
LINE
  5
202F7
330
18
100
AcDbEntity
  8
0
100
AcDbLine
 10
485.5162416153643
 20
-551.4047640729727
 30
0.0
 11
492.5162416153642
 21
-551.4047803605372
 31
0.0
  0
LINE
  5
202F8
330
18
100
AcDbEntity
  8
0
100
AcDbLine
 10
490.5162881512622
 20
-521.7047757071626
 30
0.0
 11
490.5162881512624
 21
-551.4047757070556
 31
0.0
  0
LINE
  5
202F9
330
18
100
AcDbEntity
  8
0
100
AcDbLine
 10
485.5162416153643
 20
-551.4047640729727
 30
0.0
 11
485.5162416153643
 21
-552.5047675631681
 31
0.0
  0
ARC
  5
202FA
330
18
100
AcDbEntity
  8
0
100
AcDbCircle
 10
487.0162416153642
 20
-552.5047675631681
 30
0.0
 40
1.5
100
AcDbArc
 50
180.0
 51
269.9998666844684
  0
LINE
  5
202FB
330
18
100
AcDbEntity
  8
0
100
AcDbLine
 10
492.5162416153642
 20
-551.4047803605372
 30
0.0
 11
492.5162416153642
 21
-552.5047768703477
 31
0.0
  0
LINE
  5
202FC
330
18
100
AcDbEntity
  8
0
100
AcDbLine
 10
487.0162381251718
 20
-554.0047675631639
 30
0.0
 11
491.0162381251718
 21
-554.0047768703437
 31
0.0
  0
ARC
  5
202FD
330
18
100
AcDbEntity
  8
0
100
AcDbCircle
 10
491.0162416153642
 20
-552.5047768703477
 30
0.0
 40
1.5
100
AcDbArc
 50
269.9998666844684
 51
0.0
  0
LINE
  5
202FE
330
18
100
AcDbEntity
  8
1CENTER
100
AcDbLine
 10
489.0162416153642
 20
-514.9739772994519
 30
0.0
 11
489.0162416153642
 21
-555.0750486260637
 31
0.0
  0
LINE
  5
202FF
330
18
100
AcDbEntity
  8
0
100
AcDbLine
 10
487.9219178013691
 20
-518.5047696705951
 30
0.0
 11
489.8842528902446
 21
-517.7047742365441
 31
0.0
  0
LINE
  5
20300
330
18
100
AcDbEntity
  8
0
100
AcDbLine
 10
489.8842528902446
 20
-517.7047742365441
 30
0.0
 11
489.2959763152021
 21
-517.393004380292
 31
0.0
  0
LINE
  5
20301
330
18
100
AcDbEntity
  8
0
100
AcDbLine
 10
487.0162881512621
 20
-540.9047675633851
 30
0.0
 11
491.0162881512621
 21
-540.1047768705669
 31
0.0
  0
LINE
  5
20302
330
18
100
AcDbEntity
  8
0
100
AcDbLine
 10
487.0162881512621
 20
-529.7047675633807
 30
0.0
 11
491.0162881512621
 21
-528.9047768705581
 31
0.0
  0
LINE
  5
20303
330
18
100
AcDbEntity
  8
0
100
AcDbLine
 10
487.0162881512621
 20
-526.5047675633807
 30
0.0
 11
491.0162881512621
 21
-525.7047768705581
 31
0.0
  0
LINE
  5
20304
330
18
100
AcDbEntity
  8
0
100
AcDbLine
 10
491.0162881512621
 20
-525.7047768705581
 30
0.0
 11
490.5162881512621
 21
-525.6047757071609
 31
0.0
  0
LINE
  5
20305
330
18
100
AcDbEntity
  8
0
100
AcDbLine
 10
487.5162881512621
 20
-525.0047687267779
 30
0.0
 11
487.0162881512621
 21
-524.9047675633806
 31
0.0
  0
LINE
  5
20306
330
18
100
AcDbEntity
  8
0
100
AcDbLine
 10
491.0162881512621
 20
-528.9047768705581
 30
0.0
 11
490.5162881512621
 21
-528.8047757071609
 31
0.0
  0
LINE
  5
20307
330
18
100
AcDbEntity
  8
0
100
AcDbLine
 10
491.0162881512621
 20
-527.304776870558
 30
0.0
 11
490.5162881512621
 21
-527.2047757071609
 31
0.0
  0
LINE
  5
20308
330
18
100
AcDbEntity
  8
0
100
AcDbLine
 10
487.5162881512621
 20
-526.6047687267778
 30
0.0
 11
487.0162881512621
 21
-526.5047675633807
 31
0.0
  0
LINE
  5
20309
330
18
100
AcDbEntity
  8
0
100
AcDbLine
 10
487.5162881512621
 20
-528.2047687267777
 30
0.0
 11
487.0162881512621
 21
-528.1047675633806
 31
0.0
  0
LINE
  5
2030A
330
18
100
AcDbEntity
  8
0
100
AcDbLine
 10
487.0162881512621
 20
-528.1047675633806
 30
0.0
 11
491.0162881512621
 21
-527.304776870558
 31
0.0
  0
LINE
  5
2030B
330
18
100
AcDbEntity
  8
0
100
AcDbLine
 10
490.3370669946514
 20
-519.3047752901498
 30
0.0
 11
489.7853175308481
 21
-519.1220111475217
 31
0.0
  0
LINE
  5
2030C
330
18
100
AcDbEntity
  8
0
100
AcDbLine
 10
491.0162881512621
 20
-522.504776870558
 30
0.0
 11
490.5162881512621
 21
-522.4047757071609
 31
0.0
  0
LINE
  5
2030D
330
18
100
AcDbEntity
  8
0
100
AcDbLine
 10
491.0162881512621
 20
-524.104776870558
 30
0.0
 11
490.5162881512621
 21
-524.0047757071611
 31
0.0
  0
LINE
  5
2030E
330
18
100
AcDbEntity
  8
0
100
AcDbLine
 10
490.7898810990582
 20
-520.9047763437554
 30
0.0
 11
490.2532873637871
 21
-520.7755056461255
 31
0.0
  0
LINE
  5
2030F
330
18
100
AcDbEntity
  8
0
100
AcDbLine
 10
487.9372027484708
 20
-520.2175381293409
 30
0.0
 11
487.4691042933209
 21
-520.1047686169909
 31
0.0
  0
LINE
  5
20310
330
18
100
AcDbEntity
  8
0
100
AcDbLine
 10
487.5162881512621
 20
-523.4047687267778
 30
0.0
 11
487.0162881512621
 21
-523.3047675633806
 31
0.0
  0
LINE
  5
20311
330
18
100
AcDbEntity
  8
0
100
AcDbLine
 10
487.5162881512621
 20
-521.8047687267779
 30
0.0
 11
487.0162881512621
 21
-521.7047675633807
 31
0.0
  0
LINE
  5
20312
330
18
100
AcDbEntity
  8
0
100
AcDbLine
 10
488.3790896420002
 20
-518.6562054670355
 30
0.0
 11
487.9219178013691
 21
-518.5047696705951
 31
0.0
  0
LINE
  5
20313
330
18
100
AcDbEntity
  8
0
100
AcDbLine
 10
487.4691042933209
 20
-520.1047686169909
 30
0.0
 11
490.3370669946514
 21
-519.3047752901498
 31
0.0
  0
LINE
  5
20314
330
18
100
AcDbEntity
  8
0
100
AcDbLine
 10
487.0162881512621
 20
-523.3047675633806
 30
0.0
 11
491.0162881512621
 21
-522.504776870558
 31
0.0
  0
LINE
  5
20315
330
18
100
AcDbEntity
  8
0
100
AcDbLine
 10
487.0162881512621
 20
-521.7047675633807
 30
0.0
 11
490.7898810990582
 21
-520.9047763437554
 31
0.0
  0
LINE
  5
20316
330
18
100
AcDbEntity
  8
0
100
AcDbLine
 10
487.0162881512621
 20
-524.9047675633806
 30
0.0
 11
491.0162881512621
 21
-524.104776870558
 31
0.0
  0
LINE
  5
20317
330
18
100
AcDbEntity
  8
0
100
AcDbLine
 10
487.0162881512621
 20
-537.7047675633851
 30
0.0
 11
491.0162881512621
 21
-536.9047768705668
 31
0.0
  0
LINE
  5
20318
330
18
100
AcDbEntity
  8
0
100
AcDbLine
 10
491.0162881512621
 20
-536.9047768705668
 30
0.0
 11
490.5162881512621
 21
-536.8047757071691
 31
0.0
  0
LINE
  5
20319
330
18
100
AcDbEntity
  8
0
100
AcDbLine
 10
487.5162881512621
 20
-536.2047687267784
 30
0.0
 11
487.0162881512621
 21
-536.1047675633807
 31
0.0
  0
LINE
  5
2031A
330
18
100
AcDbEntity
  8
0
100
AcDbLine
 10
491.0162881512621
 20
-538.5047768705669
 30
0.0
 11
490.5162881512621
 21
-538.4047757071693
 31
0.0
  0
LINE
  5
2031B
330
18
100
AcDbEntity
  8
0
100
AcDbLine
 10
491.0162881512621
 20
-540.1047768705669
 30
0.0
 11
490.5162881512621
 21
-540.0047757071692
 31
0.0
  0
LINE
  5
2031C
330
18
100
AcDbEntity
  8
0
100
AcDbLine
 10
487.5162881512621
 20
-537.8047687267828
 30
0.0
 11
487.0162881512621
 21
-537.7047675633851
 31
0.0
  0
LINE
  5
2031D
330
18
100
AcDbEntity
  8
0
100
AcDbLine
 10
487.5162881512621
 20
-539.4047687267828
 30
0.0
 11
487.0162881512621
 21
-539.3047675633852
 31
0.0
  0
LINE
  5
2031E
330
18
100
AcDbEntity
  8
0
100
AcDbLine
 10
487.0162881512621
 20
-539.3047675633852
 30
0.0
 11
491.0162881512621
 21
-538.5047768705669
 31
0.0
  0
LINE
  5
2031F
330
18
100
AcDbEntity
  8
0
100
AcDbLine
 10
491.0162881512621
 20
-532.1047768705624
 30
0.0
 11
490.5162881512621
 21
-532.0047757071647
 31
0.0
  0
LINE
  5
20320
330
18
100
AcDbEntity
  8
0
100
AcDbLine
 10
491.0162881512621
 20
-530.5047768705581
 30
0.0
 11
490.5162881512621
 21
-530.4047757071609
 31
0.0
  0
LINE
  5
20321
330
18
100
AcDbEntity
  8
0
100
AcDbLine
 10
491.0162881512621
 20
-535.3047768705624
 30
0.0
 11
490.5162881512621
 21
-535.2047757071647
 31
0.0
  0
LINE
  5
20322
330
18
100
AcDbEntity
  8
0
100
AcDbLine
 10
491.0162881512621
 20
-533.7047768705625
 30
0.0
 11
490.5162881512621
 21
-533.6047757071648
 31
0.0
  0
LINE
  5
20323
330
18
100
AcDbEntity
  8
0
100
AcDbLine
 10
487.5162881512621
 20
-529.8047687267779
 30
0.0
 11
487.0162881512621
 21
-529.7047675633807
 31
0.0
  0
LINE
  5
20324
330
18
100
AcDbEntity
  8
0
100
AcDbLine
 10
487.5162881512621
 20
-531.4047687267784
 30
0.0
 11
487.0162881512621
 21
-531.3047675633806
 31
0.0
  0
LINE
  5
20325
330
18
100
AcDbEntity
  8
0
100
AcDbLine
 10
487.5162881512621
 20
-534.6047687267785
 30
0.0
 11
487.0162881512621
 21
-534.5047675633808
 31
0.0
  0
LINE
  5
20326
330
18
100
AcDbEntity
  8
0
100
AcDbLine
 10
487.5162881512621
 20
-533.0047687267783
 30
0.0
 11
487.0162881512621
 21
-532.9047675633806
 31
0.0
  0
LINE
  5
20327
330
18
100
AcDbEntity
  8
0
100
AcDbLine
 10
487.0162881512621
 20
-532.9047675633806
 30
0.0
 11
491.0162881512621
 21
-532.1047768705624
 31
0.0
  0
LINE
  5
20328
330
18
100
AcDbEntity
  8
0
100
AcDbLine
 10
487.0162881512621
 20
-531.3047675633806
 30
0.0
 11
491.0162881512621
 21
-530.5047768705581
 31
0.0
  0
LINE
  5
20329
330
18
100
AcDbEntity
  8
0
100
AcDbLine
 10
487.0162881512621
 20
-534.5047675633808
 30
0.0
 11
491.0162881512621
 21
-533.7047768705625
 31
0.0
  0
LINE
  5
2032A
330
18
100
AcDbEntity
  8
0
100
AcDbLine
 10
487.0162881512621
 20
-536.1047675633807
 30
0.0
 11
491.0162881512621
 21
-535.3047768705624
 31
0.0
  0
LINE
  5
2032B
330
18
100
AcDbEntity
  8
0
100
AcDbLine
 10
487.5162881512621
 20
-545.8047687267869
 30
0.0
 11
487.0162881512621
 21
-545.7047675633893
 31
0.0
  0
LINE
  5
2032C
330
18
100
AcDbEntity
  8
0
100
AcDbLine
 10
487.0162881512621
 20
-545.7047675633893
 30
0.0
 11
491.0162881512621
 21
-544.9047768705709
 31
0.0
  0
LINE
  5
2032D
330
18
100
AcDbEntity
  8
0
100
AcDbLine
 10
491.0162881512621
 20
-544.9047768705709
 30
0.0
 11
490.5162881512621
 21
-544.8047757071733
 31
0.0
  0
LINE
  5
2032E
330
18
100
AcDbEntity
  8
0
100
AcDbLine
 10
487.5162881512621
 20
-544.204768726787
 30
0.0
 11
487.0162881512621
 21
-544.1047675633893
 31
0.0
  0
LINE
  5
2032F
330
18
100
AcDbEntity
  8
0
100
AcDbLine
 10
487.5162881512621
 20
-542.6047687267871
 30
0.0
 11
487.0162881512621
 21
-542.5047675633894
 31
0.0
  0
LINE
  5
20330
330
18
100
AcDbEntity
  8
0
100
AcDbLine
 10
487.0162881512621
 20
-542.5047675633894
 30
0.0
 11
491.0162881512621
 21
-541.7047768705712
 31
0.0
  0
LINE
  5
20331
330
18
100
AcDbEntity
  8
0
100
AcDbLine
 10
491.0162881512621
 20
-543.3047768705711
 30
0.0
 11
490.5162881512621
 21
-543.2047757071734
 31
0.0
  0
LINE
  5
20332
330
18
100
AcDbEntity
  8
0
100
AcDbLine
 10
491.0162881512621
 20
-541.7047768705712
 30
0.0
 11
490.5162881512621
 21
-541.6047757071735
 31
0.0
  0
LINE
  5
20333
330
18
100
AcDbEntity
  8
0
100
AcDbLine
 10
487.0162881512621
 20
-544.1047675633893
 30
0.0
 11
491.0162881512621
 21
-543.3047768705711
 31
0.0
  0
LINE
  5
20334
330
18
100
AcDbEntity
  8
0
100
AcDbLine
 10
487.5162881512621
 20
-541.0047687267828
 30
0.0
 11
487.0162881512621
 21
-540.9047675633851
 31
0.0
  0
LINE
  5
20335
330
18
100
AcDbEntity
  8
0
100
AcDbLine
 10
487.5162881512621
 20
-547.4047687267868
 30
0.0
 11
487.0162881512621
 21
-547.3047675633892
 31
0.0
  0
LINE
  5
20336
330
18
100
AcDbEntity
  8
0
100
AcDbLine
 10
487.0162881512621
 20
-547.3047675633892
 30
0.0
 11
491.0162881512621
 21
-546.5047768705709
 31
0.0
  0
LINE
  5
20337
330
18
100
AcDbEntity
  8
0
100
AcDbLine
 10
491.0162881512621
 20
-546.5047768705709
 30
0.0
 11
490.5162881512621
 21
-546.4047757071732
 31
0.0
  0
LINE
  5
20338
330
18
100
AcDbEntity
  8
0
100
AcDbLine
 10
487.5162881512621
 20
-549.0047687267868
 30
0.0
 11
487.0162881512621
 21
-548.9047675633891
 31
0.0
  0
LINE
  5
20339
330
18
100
AcDbEntity
  8
0
100
AcDbLine
 10
487.0162881512621
 20
-548.9047675633891
 30
0.0
 11
491.0162881512621
 21
-548.1047768705708
 31
0.0
  0
LINE
  5
2033A
330
18
100
AcDbEntity
  8
0
100
AcDbLine
 10
491.0162881512621
 20
-548.1047768705708
 30
0.0
 11
490.5162881512621
 21
-548.0047757071731
 31
0.0
  0
LINE
  5
2033B
330
18
100
AcDbEntity
  8
0
100
AcDbLine
 10
487.5162881512621
 20
-550.6047687267867
 30
0.0
 11
487.0162881512621
 21
-550.504767563389
 31
0.0
  0
LINE
  5
2033C
330
18
100
AcDbEntity
  8
0
100
AcDbLine
 10
487.0162881512621
 20
-550.504767563389
 30
0.0
 11
491.0162881512621
 21
-549.7047768705707
 31
0.0
  0
LINE
  5
2033D
330
18
100
AcDbEntity
  8
0
100
AcDbLine
 10
491.0162881512621
 20
-549.7047768705707
 30
0.0
 11
490.5162881512621
 21
-549.604775707173
 31
0.0
  0
LINE
  5
2033E
330
18
100
AcDbEntity
  8
0
100
AcDbLine
 10
745.0162416152026
 20
-655.8213775381485
 30
0.0
 11
739.7162451053409
 21
-654.3213775381485
 31
0.0
  0
LINE
  5
2033F
330
18
100
AcDbEntity
  8
0
100
AcDbLine
 10
739.7162451053409
 20
-654.3213775381485
 30
0.0
 11
710.0162451054489
 21
-654.3213775381488
 31
0.0
  0
LINE
  5
20340
330
18
100
AcDbEntity
  8
0
100
AcDbLine
 10
745.0162416152026
 20
-655.8213775381485
 30
0.0
 11
739.7162381249573
 21
-657.3213775381486
 31
0.0
  0
LINE
  5
20341
330
18
100
AcDbEntity
  8
0
100
AcDbLine
 10
710.0162497591472
 20
-652.3213310022507
 30
0.0
 11
710.0162334715827
 21
-659.3213310022506
 31
0.0
  0
LINE
  5
20342
330
18
100
AcDbEntity
  8
0
100
AcDbLine
 10
739.7162381249573
 20
-657.3213775381486
 30
0.0
 11
710.0162381250643
 21
-657.3213775381487
 31
0.0
  0
LINE
  5
20343
330
18
100
AcDbEntity
  8
0
100
AcDbLine
 10
710.0162497591472
 20
-652.3213310022507
 30
0.0
 11
708.9162462689517
 21
-652.3213310022506
 31
0.0
  0
ARC
  5
20344
330
18
100
AcDbEntity
  8
0
100
AcDbCircle
 10
708.9162462689517
 20
-653.8213310022506
 30
0.0
 40
1.5
100
AcDbArc
 50
90.0
 51
179.9998666844684
  0
LINE
  5
20345
330
18
100
AcDbEntity
  8
0
100
AcDbLine
 10
710.0162334715827
 20
-659.3213310022506
 30
0.0
 11
708.9162369617721
 21
-659.3213310022506
 31
0.0
  0
LINE
  5
20346
330
18
100
AcDbEntity
  8
0
100
AcDbLine
 10
707.4162462689558
 20
-653.8213275120583
 30
0.0
 11
707.4162369617762
 21
-657.8213275120582
 31
0.0
  0
ARC
  5
20347
330
18
100
AcDbEntity
  8
0
100
AcDbCircle
 10
708.9162369617721
 20
-657.8213310022506
 30
0.0
 40
1.5
100
AcDbArc
 50
179.9998666844684
 51
270.0
  0
LINE
  5
20348
330
18
100
AcDbEntity
  8
1CENTER
100
AcDbLine
 10
746.447036532668
 20
-655.8213310022506
 30
0.0
 11
706.3459652060561
 21
-655.8213310022506
 31
0.0
  0
LINE
  5
20349
330
18
100
AcDbEntity
  8
0
100
AcDbLine
 10
742.9162441615248
 20
-654.7270071882556
 30
0.0
 11
743.7162395955757
 21
-656.6893422771309
 31
0.0
  0
LINE
  5
2034A
330
18
100
AcDbEntity
  8
0
100
AcDbLine
 10
743.7162395955757
 20
-656.6893422771309
 30
0.0
 11
744.0280094518278
 21
-656.1010657020886
 31
0.0
  0
LINE
  5
2034B
330
18
100
AcDbEntity
  8
0
100
AcDbLine
 10
720.5162462687347
 20
-653.8213775381485
 30
0.0
 11
721.316236961553
 21
-657.8213775381485
 31
0.0
  0
LINE
  5
2034C
330
18
100
AcDbEntity
  8
0
100
AcDbLine
 10
731.7162462687392
 20
-653.8213775381485
 30
0.0
 11
732.5162369615617
 21
-657.8213775381485
 31
0.0
  0
LINE
  5
2034D
330
18
100
AcDbEntity
  8
0
100
AcDbLine
 10
734.9162462687392
 20
-653.8213775381485
 30
0.0
 11
735.7162369615617
 21
-657.8213775381485
 31
0.0
  0
LINE
  5
2034E
330
18
100
AcDbEntity
  8
0
100
AcDbLine
 10
735.7162369615617
 20
-657.8213775381485
 30
0.0
 11
735.816238124959
 21
-657.3213775381486
 31
0.0
  0
LINE
  5
2034F
330
18
100
AcDbEntity
  8
0
100
AcDbLine
 10
736.4162451053419
 20
-654.3213775381485
 30
0.0
 11
736.5162462687392
 21
-653.8213775381485
 31
0.0
  0
LINE
  5
20350
330
18
100
AcDbEntity
  8
0
100
AcDbLine
 10
732.5162369615617
 20
-657.8213775381485
 30
0.0
 11
732.6162381249589
 21
-657.3213775381486
 31
0.0
  0
LINE
  5
20351
330
18
100
AcDbEntity
  8
0
100
AcDbLine
 10
734.1162369615618
 20
-657.8213775381485
 30
0.0
 11
734.216238124959
 21
-657.3213775381486
 31
0.0
  0
LINE
  5
20352
330
18
100
AcDbEntity
  8
0
100
AcDbLine
 10
734.816245105342
 20
-654.3213775381485
 30
0.0
 11
734.9162462687392
 21
-653.8213775381485
 31
0.0
  0
LINE
  5
20353
330
18
100
AcDbEntity
  8
0
100
AcDbLine
 10
733.2162451053421
 20
-654.3213775381485
 30
0.0
 11
733.3162462687393
 21
-653.8213775381485
 31
0.0
  0
LINE
  5
20354
330
18
100
AcDbEntity
  8
0
100
AcDbLine
 10
733.3162462687393
 20
-653.8213775381485
 30
0.0
 11
734.1162369615618
 21
-657.8213775381485
 31
0.0
  0
LINE
  5
20355
330
18
100
AcDbEntity
  8
0
100
AcDbLine
 10
742.1162385419701
 20
-657.1421563815378
 30
0.0
 11
742.299002684598
 21
-656.5904069177345
 31
0.0
  0
LINE
  5
20356
330
18
100
AcDbEntity
  8
0
100
AcDbLine
 10
738.9162369615618
 20
-657.8213775381485
 30
0.0
 11
739.0162381249589
 21
-657.3213775381486
 31
0.0
  0
LINE
  5
20357
330
18
100
AcDbEntity
  8
0
100
AcDbLine
 10
737.3162369615617
 20
-657.8213775381485
 30
0.0
 11
737.4162381249588
 21
-657.3213775381486
 31
0.0
  0
LINE
  5
20358
330
18
100
AcDbEntity
  8
0
100
AcDbLine
 10
740.5162374883644
 20
-657.5949704859445
 30
0.0
 11
740.6455081859943
 21
-657.0583767506734
 31
0.0
  0
LINE
  5
20359
330
18
100
AcDbEntity
  8
0
100
AcDbLine
 10
741.203475702779
 20
-654.7422921353573
 30
0.0
 11
741.316245215129
 21
-654.2741936802073
 31
0.0
  0
LINE
  5
2035A
330
18
100
AcDbEntity
  8
0
100
AcDbLine
 10
738.0162451053421
 20
-654.3213775381485
 30
0.0
 11
738.1162462687392
 21
-653.8213775381485
 31
0.0
  0
LINE
  5
2035B
330
18
100
AcDbEntity
  8
0
100
AcDbLine
 10
739.616245105342
 20
-654.3213775381485
 30
0.0
 11
739.7162462687391
 21
-653.8213775381485
 31
0.0
  0
LINE
  5
2035C
330
18
100
AcDbEntity
  8
0
100
AcDbLine
 10
742.7648083650844
 20
-655.1841790288866
 30
0.0
 11
742.9162441615248
 21
-654.7270071882556
 31
0.0
  0
LINE
  5
2035D
330
18
100
AcDbEntity
  8
0
100
AcDbLine
 10
741.316245215129
 20
-654.2741936802073
 30
0.0
 11
742.1162385419701
 21
-657.1421563815378
 31
0.0
  0
LINE
  5
2035E
330
18
100
AcDbEntity
  8
0
100
AcDbLine
 10
738.1162462687392
 20
-653.8213775381485
 30
0.0
 11
738.9162369615618
 21
-657.8213775381485
 31
0.0
  0
LINE
  5
2035F
330
18
100
AcDbEntity
  8
0
100
AcDbLine
 10
739.7162462687391
 20
-653.8213775381485
 30
0.0
 11
740.5162374883644
 21
-657.5949704859445
 31
0.0
  0
LINE
  5
20360
330
18
100
AcDbEntity
  8
0
100
AcDbLine
 10
736.5162462687392
 20
-653.8213775381485
 30
0.0
 11
737.3162369615617
 21
-657.8213775381485
 31
0.0
  0
LINE
  5
20361
330
18
100
AcDbEntity
  8
0
100
AcDbLine
 10
723.7162462687348
 20
-653.8213775381485
 30
0.0
 11
724.516236961553
 21
-657.8213775381485
 31
0.0
  0
LINE
  5
20362
330
18
100
AcDbEntity
  8
0
100
AcDbLine
 10
724.516236961553
 20
-657.8213775381485
 30
0.0
 11
724.6162381249507
 21
-657.3213775381486
 31
0.0
  0
LINE
  5
20363
330
18
100
AcDbEntity
  8
0
100
AcDbLine
 10
725.2162451053415
 20
-654.3213775381485
 30
0.0
 11
725.3162462687392
 21
-653.8213775381485
 31
0.0
  0
LINE
  5
20364
330
18
100
AcDbEntity
  8
0
100
AcDbLine
 10
722.9162369615529
 20
-657.8213775381485
 30
0.0
 11
723.0162381249506
 21
-657.3213775381486
 31
0.0
  0
LINE
  5
20365
330
18
100
AcDbEntity
  8
0
100
AcDbLine
 10
721.316236961553
 20
-657.8213775381485
 30
0.0
 11
721.4162381249507
 21
-657.3213775381486
 31
0.0
  0
LINE
  5
20366
330
18
100
AcDbEntity
  8
0
100
AcDbLine
 10
723.6162451053371
 20
-654.3213775381485
 30
0.0
 11
723.7162462687348
 21
-653.8213775381485
 31
0.0
  0
LINE
  5
20367
330
18
100
AcDbEntity
  8
0
100
AcDbLine
 10
722.0162451053369
 20
-654.3213775381485
 30
0.0
 11
722.1162462687346
 21
-653.8213775381485
 31
0.0
  0
LINE
  5
20368
330
18
100
AcDbEntity
  8
0
100
AcDbLine
 10
722.1162462687346
 20
-653.8213775381485
 30
0.0
 11
722.9162369615529
 21
-657.8213775381485
 31
0.0
  0
LINE
  5
20369
330
18
100
AcDbEntity
  8
0
100
AcDbLine
 10
729.3162369615575
 20
-657.8213775381485
 30
0.0
 11
729.4162381249551
 21
-657.3213775381486
 31
0.0
  0
LINE
  5
2036A
330
18
100
AcDbEntity
  8
0
100
AcDbLine
 10
730.9162369615618
 20
-657.8213775381485
 30
0.0
 11
731.0162381249589
 21
-657.3213775381486
 31
0.0
  0
LINE
  5
2036B
330
18
100
AcDbEntity
  8
0
100
AcDbLine
 10
726.1162369615574
 20
-657.8213775381485
 30
0.0
 11
726.2162381249551
 21
-657.3213775381486
 31
0.0
  0
LINE
  5
2036C
330
18
100
AcDbEntity
  8
0
100
AcDbLine
 10
727.7162369615573
 20
-657.8213775381485
 30
0.0
 11
727.816238124955
 21
-657.3213775381486
 31
0.0
  0
LINE
  5
2036D
330
18
100
AcDbEntity
  8
0
100
AcDbLine
 10
731.616245105342
 20
-654.3213775381485
 30
0.0
 11
731.7162462687392
 21
-653.8213775381485
 31
0.0
  0
LINE
  5
2036E
330
18
100
AcDbEntity
  8
0
100
AcDbLine
 10
730.0162451053414
 20
-654.3213775381485
 30
0.0
 11
730.1162462687392
 21
-653.8213775381485
 31
0.0
  0
LINE
  5
2036F
330
18
100
AcDbEntity
  8
0
100
AcDbLine
 10
726.8162451053414
 20
-654.3213775381485
 30
0.0
 11
726.9162462687391
 21
-653.8213775381485
 31
0.0
  0
LINE
  5
20370
330
18
100
AcDbEntity
  8
0
100
AcDbLine
 10
728.4162451053415
 20
-654.3213775381485
 30
0.0
 11
728.5162462687392
 21
-653.8213775381485
 31
0.0
  0
LINE
  5
20371
330
18
100
AcDbEntity
  8
0
100
AcDbLine
 10
728.5162462687392
 20
-653.8213775381485
 30
0.0
 11
729.3162369615575
 21
-657.8213775381485
 31
0.0
  0
LINE
  5
20372
330
18
100
AcDbEntity
  8
0
100
AcDbLine
 10
730.1162462687392
 20
-653.8213775381485
 30
0.0
 11
730.9162369615618
 21
-657.8213775381485
 31
0.0
  0
LINE
  5
20373
330
18
100
AcDbEntity
  8
0
100
AcDbLine
 10
726.9162462687391
 20
-653.8213775381485
 30
0.0
 11
727.7162369615573
 21
-657.8213775381485
 31
0.0
  0
LINE
  5
20374
330
18
100
AcDbEntity
  8
0
100
AcDbLine
 10
725.3162462687392
 20
-653.8213775381485
 30
0.0
 11
726.1162369615574
 21
-657.8213775381485
 31
0.0
  0
LINE
  5
20375
330
18
100
AcDbEntity
  8
0
100
AcDbLine
 10
715.6162451053329
 20
-654.3213775381485
 30
0.0
 11
715.7162462687306
 21
-653.8213775381485
 31
0.0
  0
LINE
  5
20376
330
18
100
AcDbEntity
  8
0
100
AcDbLine
 10
715.7162462687306
 20
-653.8213775381485
 30
0.0
 11
716.5162369615488
 21
-657.8213775381485
 31
0.0
  0
LINE
  5
20377
330
18
100
AcDbEntity
  8
0
100
AcDbLine
 10
716.5162369615488
 20
-657.8213775381485
 30
0.0
 11
716.6162381249465
 21
-657.3213775381486
 31
0.0
  0
LINE
  5
20378
330
18
100
AcDbEntity
  8
0
100
AcDbLine
 10
717.2162451053329
 20
-654.3213775381485
 30
0.0
 11
717.3162462687305
 21
-653.8213775381485
 31
0.0
  0
LINE
  5
20379
330
18
100
AcDbEntity
  8
0
100
AcDbLine
 10
718.8162451053328
 20
-654.3213775381485
 30
0.0
 11
718.9162462687304
 21
-653.8213775381485
 31
0.0
  0
LINE
  5
2037A
330
18
100
AcDbEntity
  8
0
100
AcDbLine
 10
718.9162462687304
 20
-653.8213775381485
 30
0.0
 11
719.7162369615487
 21
-657.8213775381485
 31
0.0
  0
LINE
  5
2037B
330
18
100
AcDbEntity
  8
0
100
AcDbLine
 10
718.1162369615488
 20
-657.8213775381485
 30
0.0
 11
718.2162381249464
 21
-657.3213775381486
 31
0.0
  0
LINE
  5
2037C
330
18
100
AcDbEntity
  8
0
100
AcDbLine
 10
719.7162369615487
 20
-657.8213775381485
 30
0.0
 11
719.8162381249463
 21
-657.3213775381486
 31
0.0
  0
LINE
  5
2037D
330
18
100
AcDbEntity
  8
0
100
AcDbLine
 10
717.3162462687305
 20
-653.8213775381485
 30
0.0
 11
718.1162369615488
 21
-657.8213775381485
 31
0.0
  0
LINE
  5
2037E
330
18
100
AcDbEntity
  8
0
100
AcDbLine
 10
720.416245105337
 20
-654.3213775381485
 30
0.0
 11
720.5162462687347
 21
-653.8213775381485
 31
0.0
  0
LINE
  5
2037F
330
18
100
AcDbEntity
  8
0
100
AcDbLine
 10
714.016245105333
 20
-654.3213775381485
 30
0.0
 11
714.1162462687307
 21
-653.8213775381485
 31
0.0
  0
LINE
  5
20380
330
18
100
AcDbEntity
  8
0
100
AcDbLine
 10
714.1162462687307
 20
-653.8213775381485
 30
0.0
 11
714.9162369615489
 21
-657.8213775381485
 31
0.0
  0
LINE
  5
20381
330
18
100
AcDbEntity
  8
0
100
AcDbLine
 10
714.9162369615489
 20
-657.8213775381485
 30
0.0
 11
715.0162381249466
 21
-657.3213775381486
 31
0.0
  0
LINE
  5
20382
330
18
100
AcDbEntity
  8
0
100
AcDbLine
 10
712.4162451053331
 20
-654.3213775381485
 30
0.0
 11
712.5162462687308
 21
-653.8213775381485
 31
0.0
  0
LINE
  5
20383
330
18
100
AcDbEntity
  8
0
100
AcDbLine
 10
712.5162462687308
 20
-653.8213775381485
 30
0.0
 11
713.316236961549
 21
-657.8213775381485
 31
0.0
  0
LINE
  5
20384
330
18
100
AcDbEntity
  8
0
100
AcDbLine
 10
713.316236961549
 20
-657.8213775381485
 30
0.0
 11
713.4162381249467
 21
-657.3213775381486
 31
0.0
  0
LINE
  5
20385
330
18
100
AcDbEntity
  8
0
100
AcDbLine
 10
710.8162451053332
 20
-654.3213775381485
 30
0.0
 11
710.9162462687309
 21
-653.8213775381485
 31
0.0
  0
LINE
  5
20386
330
18
100
AcDbEntity
  8
0
100
AcDbLine
 10
710.9162462687309
 20
-653.8213775381485
 30
0.0
 11
711.7162369615491
 21
-657.8213775381485
 31
0.0
  0
LINE
  5
20387
330
18
100
AcDbEntity
  8
0
100
AcDbLine
 10
711.7162369615491
 20
-657.8213775381485
 30
0.0
 11
711.8162381249468
 21
-657.3213775381486
 31
0.0
  0
LINE
  5
20388
330
18
100
AcDbEntity
  8
0
100
AcDbLine
 10
511.0162881512621
 20
-516.4047722169173
 30
0.0
 11
509.5162881512622
 21
-521.704768726779
 31
0.0
  0
LINE
  5
20389
330
18
100
AcDbEntity
  8
0
100
AcDbLine
 10
509.5162881512622
 20
-521.704768726779
 30
0.0
 11
509.5162881512623
 21
-551.4047687266709
 31
0.0
  0
LINE
  5
2038A
330
18
100
AcDbEntity
  8
0
100
AcDbLine
 10
511.0162881512621
 20
-516.4047722169173
 30
0.0
 11
512.5162881512623
 21
-521.7047757071626
 31
0.0
  0
LINE
  5
2038B
330
18
100
AcDbEntity
  8
0
100
AcDbLine
 10
507.5162416153643
 20
-551.4047640729727
 30
0.0
 11
514.5162416153643
 21
-551.4047803605372
 31
0.0
  0
LINE
  5
2038C
330
18
100
AcDbEntity
  8
0
100
AcDbLine
 10
512.5162881512623
 20
-521.7047757071626
 30
0.0
 11
512.5162881512624
 21
-551.4047757070556
 31
0.0
  0
LINE
  5
2038D
330
18
100
AcDbEntity
  8
0
100
AcDbLine
 10
507.5162416153643
 20
-551.4047640729727
 30
0.0
 11
507.5162416153642
 21
-552.5047675631681
 31
0.0
  0
ARC
  5
2038E
330
18
100
AcDbEntity
  8
0
100
AcDbCircle
 10
509.0162416153642
 20
-552.5047675631681
 30
0.0
 40
1.5
100
AcDbArc
 50
180.0
 51
269.9998666844684
  0
LINE
  5
2038F
330
18
100
AcDbEntity
  8
0
100
AcDbLine
 10
514.5162416153643
 20
-551.4047803605372
 30
0.0
 11
514.5162416153643
 21
-552.5047768703477
 31
0.0
  0
LINE
  5
20390
330
18
100
AcDbEntity
  8
0
100
AcDbLine
 10
509.0162381251718
 20
-554.0047675631639
 30
0.0
 11
513.0162381251718
 21
-554.0047768703437
 31
0.0
  0
ARC
  5
20391
330
18
100
AcDbEntity
  8
0
100
AcDbCircle
 10
513.0162416153642
 20
-552.5047768703477
 30
0.0
 40
1.5
100
AcDbArc
 50
269.9998666844684
 51
0.0
  0
LINE
  5
20392
330
18
100
AcDbEntity
  8
1CENTER
100
AcDbLine
 10
511.0162416153642
 20
-514.9739772994519
 30
0.0
 11
511.0162416153642
 21
-555.0750486260637
 31
0.0
  0
LINE
  5
20393
330
18
100
AcDbEntity
  8
0
100
AcDbLine
 10
509.9219178013692
 20
-518.5047696705951
 30
0.0
 11
511.8842528902446
 21
-517.7047742365441
 31
0.0
  0
LINE
  5
20394
330
18
100
AcDbEntity
  8
0
100
AcDbLine
 10
511.8842528902446
 20
-517.7047742365441
 30
0.0
 11
511.2959763152022
 21
-517.393004380292
 31
0.0
  0
LINE
  5
20395
330
18
100
AcDbEntity
  8
0
100
AcDbLine
 10
509.0162881512622
 20
-540.9047675633851
 30
0.0
 11
513.0162881512622
 21
-540.1047768705669
 31
0.0
  0
LINE
  5
20396
330
18
100
AcDbEntity
  8
0
100
AcDbLine
 10
509.0162881512622
 20
-529.7047675633807
 30
0.0
 11
513.0162881512622
 21
-528.9047768705581
 31
0.0
  0
LINE
  5
20397
330
18
100
AcDbEntity
  8
0
100
AcDbLine
 10
509.0162881512622
 20
-526.5047675633807
 30
0.0
 11
513.0162881512622
 21
-525.7047768705581
 31
0.0
  0
LINE
  5
20398
330
18
100
AcDbEntity
  8
0
100
AcDbLine
 10
513.0162881512622
 20
-525.7047768705581
 30
0.0
 11
512.5162881512621
 21
-525.6047757071609
 31
0.0
  0
LINE
  5
20399
330
18
100
AcDbEntity
  8
0
100
AcDbLine
 10
509.5162881512622
 20
-525.0047687267779
 30
0.0
 11
509.0162881512622
 21
-524.9047675633806
 31
0.0
  0
LINE
  5
2039A
330
18
100
AcDbEntity
  8
0
100
AcDbLine
 10
513.0162881512622
 20
-528.9047768705581
 30
0.0
 11
512.5162881512621
 21
-528.8047757071609
 31
0.0
  0
LINE
  5
2039B
330
18
100
AcDbEntity
  8
0
100
AcDbLine
 10
513.0162881512622
 20
-527.304776870558
 30
0.0
 11
512.5162881512621
 21
-527.2047757071609
 31
0.0
  0
LINE
  5
2039C
330
18
100
AcDbEntity
  8
0
100
AcDbLine
 10
509.5162881512622
 20
-526.6047687267778
 30
0.0
 11
509.0162881512622
 21
-526.5047675633807
 31
0.0
  0
LINE
  5
2039D
330
18
100
AcDbEntity
  8
0
100
AcDbLine
 10
509.5162881512622
 20
-528.2047687267777
 30
0.0
 11
509.0162881512622
 21
-528.1047675633806
 31
0.0
  0
LINE
  5
2039E
330
18
100
AcDbEntity
  8
0
100
AcDbLine
 10
509.0162881512622
 20
-528.1047675633806
 30
0.0
 11
513.0162881512622
 21
-527.304776870558
 31
0.0
  0
LINE
  5
2039F
330
18
100
AcDbEntity
  8
0
100
AcDbLine
 10
512.3370669946514
 20
-519.3047752901498
 30
0.0
 11
511.7853175308481
 21
-519.1220111475217
 31
0.0
  0
LINE
  5
203A0
330
18
100
AcDbEntity
  8
0
100
AcDbLine
 10
513.0162881512622
 20
-522.504776870558
 30
0.0
 11
512.5162881512621
 21
-522.4047757071609
 31
0.0
  0
LINE
  5
203A1
330
18
100
AcDbEntity
  8
0
100
AcDbLine
 10
513.0162881512622
 20
-524.104776870558
 30
0.0
 11
512.5162881512621
 21
-524.0047757071611
 31
0.0
  0
LINE
  5
203A2
330
18
100
AcDbEntity
  8
0
100
AcDbLine
 10
512.7898810990582
 20
-520.9047763437554
 30
0.0
 11
512.2532873637871
 21
-520.7755056461255
 31
0.0
  0
LINE
  5
203A3
330
18
100
AcDbEntity
  8
0
100
AcDbLine
 10
509.9372027484709
 20
-520.2175381293409
 30
0.0
 11
509.4691042933209
 21
-520.1047686169909
 31
0.0
  0
LINE
  5
203A4
330
18
100
AcDbEntity
  8
0
100
AcDbLine
 10
509.5162881512622
 20
-523.4047687267778
 30
0.0
 11
509.0162881512622
 21
-523.3047675633806
 31
0.0
  0
LINE
  5
203A5
330
18
100
AcDbEntity
  8
0
100
AcDbLine
 10
509.5162881512622
 20
-521.8047687267779
 30
0.0
 11
509.0162881512622
 21
-521.7047675633807
 31
0.0
  0
LINE
  5
203A6
330
18
100
AcDbEntity
  8
0
100
AcDbLine
 10
510.3790896420003
 20
-518.6562054670355
 30
0.0
 11
509.9219178013692
 21
-518.5047696705951
 31
0.0
  0
LINE
  5
203A7
330
18
100
AcDbEntity
  8
0
100
AcDbLine
 10
509.4691042933209
 20
-520.1047686169909
 30
0.0
 11
512.3370669946514
 21
-519.3047752901498
 31
0.0
  0
LINE
  5
203A8
330
18
100
AcDbEntity
  8
0
100
AcDbLine
 10
509.0162881512622
 20
-523.3047675633806
 30
0.0
 11
513.0162881512622
 21
-522.504776870558
 31
0.0
  0
LINE
  5
203A9
330
18
100
AcDbEntity
  8
0
100
AcDbLine
 10
509.0162881512622
 20
-521.7047675633807
 30
0.0
 11
512.7898810990582
 21
-520.9047763437554
 31
0.0
  0
LINE
  5
203AA
330
18
100
AcDbEntity
  8
0
100
AcDbLine
 10
509.0162881512622
 20
-524.9047675633806
 30
0.0
 11
513.0162881512622
 21
-524.104776870558
 31
0.0
  0
LINE
  5
203AB
330
18
100
AcDbEntity
  8
0
100
AcDbLine
 10
509.0162881512622
 20
-537.7047675633851
 30
0.0
 11
513.0162881512622
 21
-536.9047768705668
 31
0.0
  0
LINE
  5
203AC
330
18
100
AcDbEntity
  8
0
100
AcDbLine
 10
513.0162881512622
 20
-536.9047768705668
 30
0.0
 11
512.5162881512621
 21
-536.8047757071691
 31
0.0
  0
LINE
  5
203AD
330
18
100
AcDbEntity
  8
0
100
AcDbLine
 10
509.5162881512622
 20
-536.2047687267784
 30
0.0
 11
509.0162881512622
 21
-536.1047675633807
 31
0.0
  0
LINE
  5
203AE
330
18
100
AcDbEntity
  8
0
100
AcDbLine
 10
513.0162881512622
 20
-538.5047768705669
 30
0.0
 11
512.5162881512621
 21
-538.4047757071693
 31
0.0
  0
LINE
  5
203AF
330
18
100
AcDbEntity
  8
0
100
AcDbLine
 10
513.0162881512622
 20
-540.1047768705669
 30
0.0
 11
512.5162881512621
 21
-540.0047757071692
 31
0.0
  0
LINE
  5
203B0
330
18
100
AcDbEntity
  8
0
100
AcDbLine
 10
509.5162881512622
 20
-537.8047687267828
 30
0.0
 11
509.0162881512622
 21
-537.7047675633851
 31
0.0
  0
LINE
  5
203B1
330
18
100
AcDbEntity
  8
0
100
AcDbLine
 10
509.5162881512622
 20
-539.4047687267828
 30
0.0
 11
509.0162881512622
 21
-539.3047675633852
 31
0.0
  0
LINE
  5
203B2
330
18
100
AcDbEntity
  8
0
100
AcDbLine
 10
509.0162881512622
 20
-539.3047675633852
 30
0.0
 11
513.0162881512622
 21
-538.5047768705669
 31
0.0
  0
LINE
  5
203B3
330
18
100
AcDbEntity
  8
0
100
AcDbLine
 10
513.0162881512622
 20
-532.1047768705624
 30
0.0
 11
512.5162881512621
 21
-532.0047757071647
 31
0.0
  0
LINE
  5
203B4
330
18
100
AcDbEntity
  8
0
100
AcDbLine
 10
513.0162881512622
 20
-530.5047768705581
 30
0.0
 11
512.5162881512621
 21
-530.4047757071609
 31
0.0
  0
LINE
  5
203B5
330
18
100
AcDbEntity
  8
0
100
AcDbLine
 10
513.0162881512622
 20
-535.3047768705624
 30
0.0
 11
512.5162881512621
 21
-535.2047757071647
 31
0.0
  0
LINE
  5
203B6
330
18
100
AcDbEntity
  8
0
100
AcDbLine
 10
513.0162881512622
 20
-533.7047768705625
 30
0.0
 11
512.5162881512621
 21
-533.6047757071648
 31
0.0
  0
LINE
  5
203B7
330
18
100
AcDbEntity
  8
0
100
AcDbLine
 10
509.5162881512622
 20
-529.8047687267779
 30
0.0
 11
509.0162881512622
 21
-529.7047675633807
 31
0.0
  0
LINE
  5
203B8
330
18
100
AcDbEntity
  8
0
100
AcDbLine
 10
509.5162881512622
 20
-531.4047687267784
 30
0.0
 11
509.0162881512622
 21
-531.3047675633806
 31
0.0
  0
LINE
  5
203B9
330
18
100
AcDbEntity
  8
0
100
AcDbLine
 10
509.5162881512622
 20
-534.6047687267785
 30
0.0
 11
509.0162881512622
 21
-534.5047675633808
 31
0.0
  0
LINE
  5
203BA
330
18
100
AcDbEntity
  8
0
100
AcDbLine
 10
509.5162881512622
 20
-533.0047687267783
 30
0.0
 11
509.0162881512622
 21
-532.9047675633806
 31
0.0
  0
LINE
  5
203BB
330
18
100
AcDbEntity
  8
0
100
AcDbLine
 10
509.0162881512622
 20
-532.9047675633806
 30
0.0
 11
513.0162881512622
 21
-532.1047768705624
 31
0.0
  0
LINE
  5
203BC
330
18
100
AcDbEntity
  8
0
100
AcDbLine
 10
509.0162881512622
 20
-531.3047675633806
 30
0.0
 11
513.0162881512622
 21
-530.5047768705581
 31
0.0
  0
LINE
  5
203BD
330
18
100
AcDbEntity
  8
0
100
AcDbLine
 10
509.0162881512622
 20
-534.5047675633808
 30
0.0
 11
513.0162881512622
 21
-533.7047768705625
 31
0.0
  0
LINE
  5
203BE
330
18
100
AcDbEntity
  8
0
100
AcDbLine
 10
509.0162881512622
 20
-536.1047675633807
 30
0.0
 11
513.0162881512622
 21
-535.3047768705624
 31
0.0
  0
LINE
  5
203BF
330
18
100
AcDbEntity
  8
0
100
AcDbLine
 10
509.5162881512622
 20
-545.8047687267869
 30
0.0
 11
509.0162881512622
 21
-545.7047675633893
 31
0.0
  0
LINE
  5
203C0
330
18
100
AcDbEntity
  8
0
100
AcDbLine
 10
509.0162881512622
 20
-545.7047675633893
 30
0.0
 11
513.0162881512622
 21
-544.9047768705709
 31
0.0
  0
LINE
  5
203C1
330
18
100
AcDbEntity
  8
0
100
AcDbLine
 10
513.0162881512622
 20
-544.9047768705709
 30
0.0
 11
512.5162881512621
 21
-544.8047757071733
 31
0.0
  0
LINE
  5
203C2
330
18
100
AcDbEntity
  8
0
100
AcDbLine
 10
509.5162881512622
 20
-544.204768726787
 30
0.0
 11
509.0162881512622
 21
-544.1047675633893
 31
0.0
  0
LINE
  5
203C3
330
18
100
AcDbEntity
  8
0
100
AcDbLine
 10
509.5162881512622
 20
-542.6047687267871
 30
0.0
 11
509.0162881512622
 21
-542.5047675633894
 31
0.0
  0
LINE
  5
203C4
330
18
100
AcDbEntity
  8
0
100
AcDbLine
 10
509.0162881512622
 20
-542.5047675633894
 30
0.0
 11
513.0162881512622
 21
-541.7047768705712
 31
0.0
  0
LINE
  5
203C5
330
18
100
AcDbEntity
  8
0
100
AcDbLine
 10
513.0162881512622
 20
-543.3047768705711
 30
0.0
 11
512.5162881512621
 21
-543.2047757071734
 31
0.0
  0
LINE
  5
203C6
330
18
100
AcDbEntity
  8
0
100
AcDbLine
 10
513.0162881512622
 20
-541.7047768705712
 30
0.0
 11
512.5162881512621
 21
-541.6047757071735
 31
0.0
  0
LINE
  5
203C7
330
18
100
AcDbEntity
  8
0
100
AcDbLine
 10
509.0162881512622
 20
-544.1047675633893
 30
0.0
 11
513.0162881512622
 21
-543.3047768705711
 31
0.0
  0
LINE
  5
203C8
330
18
100
AcDbEntity
  8
0
100
AcDbLine
 10
509.5162881512622
 20
-541.0047687267828
 30
0.0
 11
509.0162881512622
 21
-540.9047675633851
 31
0.0
  0
LINE
  5
203C9
330
18
100
AcDbEntity
  8
0
100
AcDbLine
 10
509.5162881512622
 20
-547.4047687267868
 30
0.0
 11
509.0162881512622
 21
-547.3047675633892
 31
0.0
  0
LINE
  5
203CA
330
18
100
AcDbEntity
  8
0
100
AcDbLine
 10
509.0162881512622
 20
-547.3047675633892
 30
0.0
 11
513.0162881512622
 21
-546.5047768705709
 31
0.0
  0
LINE
  5
203CB
330
18
100
AcDbEntity
  8
0
100
AcDbLine
 10
513.0162881512622
 20
-546.5047768705709
 30
0.0
 11
512.5162881512621
 21
-546.4047757071732
 31
0.0
  0
LINE
  5
203CC
330
18
100
AcDbEntity
  8
0
100
AcDbLine
 10
509.5162881512622
 20
-549.0047687267868
 30
0.0
 11
509.0162881512622
 21
-548.9047675633891
 31
0.0
  0
LINE
  5
203CD
330
18
100
AcDbEntity
  8
0
100
AcDbLine
 10
509.0162881512622
 20
-548.9047675633891
 30
0.0
 11
513.0162881512622
 21
-548.1047768705708
 31
0.0
  0
LINE
  5
203CE
330
18
100
AcDbEntity
  8
0
100
AcDbLine
 10
513.0162881512622
 20
-548.1047768705708
 30
0.0
 11
512.5162881512621
 21
-548.0047757071731
 31
0.0
  0
LINE
  5
203CF
330
18
100
AcDbEntity
  8
0
100
AcDbLine
 10
509.5162881512622
 20
-550.6047687267867
 30
0.0
 11
509.0162881512622
 21
-550.504767563389
 31
0.0
  0
LINE
  5
203D0
330
18
100
AcDbEntity
  8
0
100
AcDbLine
 10
509.0162881512622
 20
-550.504767563389
 30
0.0
 11
513.0162881512622
 21
-549.7047768705707
 31
0.0
  0
LINE
  5
203D1
330
18
100
AcDbEntity
  8
0
100
AcDbLine
 10
513.0162881512622
 20
-549.7047768705707
 30
0.0
 11
512.5162881512621
 21
-549.604775707173
 31
0.0
  0
SOLID
  5
203D2
330
18
100
AcDbEntity
  8
1DIM
100
AcDbTrace
 10
729.8062660649304
 20
-624.9354292138315
 30
0.0
 11
729.0653313382375
 21
-626.8227889680627
 31
0.0
 12
729.1540988621153
 22
-624.797145505403
 32
0.0
 13
729.1540988621153
 23
-624.797145505403
 33
0.0
1001
ACAD
1000
DSTYLE
1002
{
1070
    45
1040
0.5
1002
}
  0
SOLID
  5
203D4
330
18
100
AcDbEntity
  8
1DIM
100
AcDbTrace
 10
716.6708479197652
 20
-624.9354292138315
 30
0.0
 11
715.9299131930723
 21
-626.8227889680627
 31
0.0
 12
716.0186807169501
 22
-624.797145505403
 32
0.0
 13
716.0186807169501
 23
-624.797145505403
 33
0.0
1001
ACAD
1000
DSTYLE
1002
{
1070
    45
1040
0.5
1002
}
  0
LINE
  5
203D6
330
18
100
AcDbEntity
  8
1DIM
100
AcDbLine
 10
520.016243534276
 20
-548.404772216755
 30
0.0
 11
520.016243534276
 21
-532.4047722167549
 31
0.0
  0
LINE
  5
203D7
330
18
100
AcDbEntity
  8
1DIM
100
AcDbLine
 10
480.0162435342763
 20
-548.404772216755
 30
0.0
 11
480.0162435342763
 21
-532.4047722167549
 31
0.0
  0
LINE
  5
203D8
330
18
100
AcDbEntity
  8
1DIM
100
AcDbLine
 10
518.0162435342761
 20
-533.4047722167549
 30
0.0
 11
482.0162435342764
 21
-533.4047722167549
 31
0.0
  0
LINE
  5
203DC
330
18
100
AcDbEntity
  8
1DIM
100
AcDbLine
 10
713.0162416153649
 20
-675.8213303512675
 30
0.0
 11
765.516241615365
 21
-675.8213303512675
 31
0.0
  0
LINE
  5
203DD
330
18
100
AcDbEntity
  8
1DIM
100
AcDbLine
 10
713.0162351055229
 20
-635.8213303512675
 30
0.0
 11
765.516241615365
 21
-635.8213303512675
 31
0.0
  0
LINE
  5
203DE
330
18
100
AcDbEntity
  8
1DIM
100
AcDbLine
 10
764.5162416153649
 20
-673.8213303512675
 30
0.0
 11
764.5162416153649
 21
-637.8213303512675
 31
0.0
  0
LINE
  5
203E2
330
18
100
AcDbEntity
  8
1DIM
100
AcDbLine
 10
745.3886991128217
 20
-655.8213310022506
 30
0.0
 11
755.5162416153649
 21
-655.8213310022506
 31
0.0
  0
LINE
  5
203E3
330
18
100
AcDbEntity
  8
1DIM
100
AcDbLine
 10
713.0162351055229
 20
-635.8213303512675
 30
0.0
 11
755.5162416153649
 21
-635.8213303512675
 31
0.0
  0
LINE
  5
203E4
330
18
100
AcDbEntity
  8
1DIM
100
AcDbLine
 10
754.5162416153649
 20
-653.8213310022506
 30
0.0
 11
754.5162416153649
 21
-637.8213303512675
 31
0.0
  0
LINE
  5
203E8
330
18
100
AcDbEntity
  8
1DIM
100
AcDbLine
 10
713.0162416153649
 20
-693.0495039365482
 30
0.0
 11
713.0162416153649
 21
-702.4213303512676
 31
0.0
  0
LINE
  5
203E9
330
18
100
AcDbEntity
  8
1DIM
100
AcDbLine
 10
695.0162040811683
 20
-663.7610815918214
 30
0.0
 11
695.0162040811683
 21
-702.4213303512676
 31
0.0
  0
LINE
  5
203EA
330
18
100
AcDbEntity
  8
1DIM
100
AcDbLine
 10
711.0162416153649
 20
-701.4213303512677
 30
0.0
 11
697.0162040811683
 21
-701.4213303512677
 31
0.0
  0
LINE
  5
203EE
330
18
100
AcDbEntity
  8
1DIM
100
AcDbLine
 10
666.016241615367
 20
-655.8213456493954
 30
0.0
 11
666.016241615367
 21
-604.8213303512662
 31
0.0
  0
LINE
  5
203EF
330
18
100
AcDbEntity
  8
1DIM
100
AcDbLine
 10
713.0162416153649
 20
-618.5931567659845
 30
0.0
 11
713.0162416153649
 21
-604.8213303512662
 31
0.0
  0
LINE
  5
203F0
330
18
100
AcDbEntity
  8
1DIM
100
AcDbLine
 10
668.0162416153669
 20
-605.8213303512663
 30
0.0
 11
711.0162416153649
 21
-605.8213303512663
 31
0.0
  0
TEXT
  5
203F4
330
18
100
AcDbEntity
  8
1DIM
100
AcDbText
 10
627.0305147508277
 20
-595.1637488334337
 30
0.0
 40
3.5
  1
材質：亜鉛ダイキャスト
100
AcDbText
  0
TEXT
  5
203F5
330
18
100
AcDbEntity
  8
1DIM
100
AcDbText
 10
639.163848084161
 20
-600.997082166767
 30
0.0
 40
3.5
  1
仕上げ：クローム
100
AcDbText
  0
SOLID
  5
203F6
330
18
100
AcDbEntity
  8
1DIM
100
AcDbTrace
 10
691.9620433715344
 20
-647.9628614705892
 30
0.0
 11
692.3506453287045
 21
-649.9528613776231
 31
0.0
 12
691.3376435074787
 22
-648.1964621003219
 32
0.0
 13
691.3376435074787
 23
-648.1964621003219
 33
0.0
1001
ACAD
1000
DSTYLE
1002
{
1070
    45
1040
0.5
1002
}
  0
TEXT
  5
203F8
330
18
100
AcDbEntity
  8
1DIM
100
AcDbText
 10
623.8564277135306
 20
-617.514525862441
 30
0.0
 40
3.5
  1
材質：真鍮
100
AcDbText
  0
TEXT
  5
203F9
330
18
100
AcDbEntity
  8
1DIM
100
AcDbText
 10
611.4897610468641
 20
-623.3478591957744
 30
0.0
 40
3.5
  1
仕上げ：クローム
100
AcDbText
  0
SOLID
  5
203FA
330
18
100
AcDbEntity
  8
1DIM
100
AcDbTrace
 10
665.8775334351028
 20
-651.3975624656228
 30
0.0
 11
666.7380373732087
 21
-653.2334938596611
 31
0.0
 12
665.3286099526098
 22
-651.7758843587403
 32
0.0
 13
665.3286099526098
 23
-651.7758843587403
 33
0.0
1001
ACAD
1000
DSTYLE
1002
{
1070
    45
1040
0.5
1002
}
  0
LINE
  5
203FC
330
18
100
AcDbEntity
  8
1DIM
100
AcDbLine
 10
665.6030716938563
 20
-651.5867234121815
 30
0.0
 11
646.6230943801974
 21
-624.0478591957744
 31
0.0
1001
ACAD
1000
DSTYLE
1002
{
1070
    45
1040
0.5
1002
}
  0
LINE
  5
203FD
330
18
100
AcDbEntity
  8
1DIM
100
AcDbLine
 10
646.6230943801974
 20
-624.0478591957744
 30
0.0
 11
643.9230943801974
 21
-624.0478591957744
 31
0.0
1001
ACAD
1000
DSTYLE
1002
{
1070
    45
1040
0.5
1002
}
  0
LINE
  5
203FE
330
18
100
AcDbEntity
  8
1DIM
100
AcDbLine
 10
691.6498434395065
 20
-648.0796617854556
 30
0.0
 11
674.2971814174943
 21
-601.6970821667671
 31
0.0
1001
ACAD
1000
DSTYLE
1002
{
1070
    45
1040
0.5
1002
}
  0
LINE
  5
203FF
330
18
100
AcDbEntity
  8
1DIM
100
AcDbLine
 10
674.2971814174943
 20
-601.6970821667671
 30
0.0
 11
671.5971814174943
 21
-601.6970821667671
 31
0.0
1001
ACAD
1000
DSTYLE
1002
{
1070
    45
1040
0.5
1002
}
  0
TEXT
  5
20400
330
18
100
AcDbEntity
  8
1DIM
100
AcDbText
 10
686.5995749486993
 20
-605.1213303512662
 30
0.0
 40
3.5
  1
47
100
AcDbText
  0
LINE
  5
20401
330
18
100
AcDbEntity
  8
0
  6
ByBlock
100
AcDbLine
 10
711.0162416153649
 20
-605.2854319712662
 30
0.0
 11
713.0162416153649
 21
-605.8213303512663
 31
0.0
  0
LINE
  5
20402
330
18
100
AcDbEntity
  8
0
  6
ByBlock
100
AcDbLine
 10
713.0162416153649
 20
-605.8213303512663
 30
0.0
 11
711.0162416153649
 21
-606.3572287312663
 31
0.0
  0
LINE
  5
20403
330
18
100
AcDbEntity
  8
0
  6
ByBlock
100
AcDbLine
 10
713.0162416153649
 20
-605.8213303512663
 30
0.0
 11
711.0162416153649
 21
-605.8213303512663
 31
0.0
  0
LINE
  5
20404
330
18
100
AcDbEntity
  8
0
  6
ByBlock
100
AcDbLine
 10
668.0162416153669
 20
-606.3572287312663
 30
0.0
 11
666.016241615367
 21
-605.8213303512663
 31
0.0
  0
LINE
  5
20405
330
18
100
AcDbEntity
  8
0
  6
ByBlock
100
AcDbLine
 10
666.016241615367
 20
-605.8213303512663
 30
0.0
 11
668.0162416153669
 21
-605.2854319712662
 31
0.0
  0
LINE
  5
20406
330
18
100
AcDbEntity
  8
0
  6
ByBlock
100
AcDbLine
 10
666.016241615367
 20
-605.8213303512663
 30
0.0
 11
668.0162416153669
 21
-605.8213303512663
 31
0.0
  0
TEXT
  5
20407
330
18
100
AcDbEntity
  8
1DIM
100
AcDbText
 10
701.6828895149331
 20
-700.7213303512676
 30
0.0
 40
3.5
  1
18
100
AcDbText
  0
LINE
  5
20408
330
18
100
AcDbEntity
  8
0
  6
ByBlock
100
AcDbLine
 10
697.0162040811683
 20
-701.9572287312676
 30
0.0
 11
695.0162040811683
 21
-701.4213303512677
 31
0.0
  0
LINE
  5
20409
330
18
100
AcDbEntity
  8
0
  6
ByBlock
100
AcDbLine
 10
695.0162040811683
 20
-701.4213303512677
 30
0.0
 11
697.0162040811683
 21
-700.8854319712676
 31
0.0
  0
LINE
  5
2040A
330
18
100
AcDbEntity
  8
0
  6
ByBlock
100
AcDbLine
 10
695.0162040811683
 20
-701.4213303512677
 30
0.0
 11
697.0162040811683
 21
-701.4213303512677
 31
0.0
  0
LINE
  5
2040B
330
18
100
AcDbEntity
  8
0
  6
ByBlock
100
AcDbLine
 10
711.0162416153649
 20
-700.8854319712676
 30
0.0
 11
713.0162416153649
 21
-701.4213303512677
 31
0.0
  0
LINE
  5
2040C
330
18
100
AcDbEntity
  8
0
  6
ByBlock
100
AcDbLine
 10
713.0162416153649
 20
-701.4213303512677
 30
0.0
 11
711.0162416153649
 21
-701.9572287312676
 31
0.0
  0
LINE
  5
2040D
330
18
100
AcDbEntity
  8
0
  6
ByBlock
100
AcDbLine
 10
713.0162416153649
 20
-701.4213303512677
 30
0.0
 11
711.0162416153649
 21
-701.4213303512677
 31
0.0
  0
TEXT
  5
2040E
330
18
100
AcDbEntity
  8
1DIM
100
AcDbText
 10
753.816241615365
 20
-648.4463306767589
 30
0.0
 40
3.5
  1
20
 50
90.0
100
AcDbText
  0
LINE
  5
2040F
330
18
100
AcDbEntity
  8
0
  6
ByBlock
100
AcDbLine
 10
753.9803432353648
 20
-637.8213303512675
 30
0.0
 11
754.5162416153649
 21
-635.8213303512675
 31
0.0
  0
LINE
  5
20410
330
18
100
AcDbEntity
  8
0
  6
ByBlock
100
AcDbLine
 10
754.5162416153649
 20
-635.8213303512675
 30
0.0
 11
755.052139995365
 21
-637.8213303512675
 31
0.0
  0
LINE
  5
20411
330
18
100
AcDbEntity
  8
0
  6
ByBlock
100
AcDbLine
 10
754.5162416153649
 20
-635.8213303512675
 30
0.0
 11
754.5162416153649
 21
-637.8213303512675
 31
0.0
  0
LINE
  5
20412
330
18
100
AcDbEntity
  8
0
  6
ByBlock
100
AcDbLine
 10
755.052139995365
 20
-653.8213310022506
 30
0.0
 11
754.5162416153649
 21
-655.8213310022506
 31
0.0
  0
LINE
  5
20413
330
18
100
AcDbEntity
  8
0
  6
ByBlock
100
AcDbLine
 10
754.5162416153649
 20
-655.8213310022506
 30
0.0
 11
753.9803432353648
 21
-653.8213310022506
 31
0.0
  0
LINE
  5
20414
330
18
100
AcDbEntity
  8
0
  6
ByBlock
100
AcDbLine
 10
754.5162416153649
 20
-655.8213310022506
 30
0.0
 11
754.5162416153649
 21
-653.8213310022506
 31
0.0
  0
TEXT
  5
20415
330
18
100
AcDbEntity
  8
1DIM
100
AcDbText
 10
763.816241615365
 20
-658.4463303512674
 30
0.0
 40
3.5
  1
40
 50
90.0
100
AcDbText
  0
LINE
  5
20416
330
18
100
AcDbEntity
  8
0
  6
ByBlock
100
AcDbLine
 10
763.9803432353649
 20
-637.8213303512675
 30
0.0
 11
764.5162416153649
 21
-635.8213303512675
 31
0.0
  0
LINE
  5
20417
330
18
100
AcDbEntity
  8
0
  6
ByBlock
100
AcDbLine
 10
764.5162416153649
 20
-635.8213303512675
 30
0.0
 11
765.052139995365
 21
-637.8213303512675
 31
0.0
  0
LINE
  5
20418
330
18
100
AcDbEntity
  8
0
  6
ByBlock
100
AcDbLine
 10
764.5162416153649
 20
-635.8213303512675
 30
0.0
 11
764.5162416153649
 21
-637.8213303512675
 31
0.0
  0
LINE
  5
20419
330
18
100
AcDbEntity
  8
0
  6
ByBlock
100
AcDbLine
 10
765.052139995365
 20
-673.8213303512675
 30
0.0
 11
764.5162416153649
 21
-675.8213303512675
 31
0.0
  0
LINE
  5
2041A
330
18
100
AcDbEntity
  8
0
  6
ByBlock
100
AcDbLine
 10
764.5162416153649
 20
-675.8213303512675
 30
0.0
 11
763.9803432353649
 21
-673.8213303512675
 31
0.0
  0
LINE
  5
2041B
330
18
100
AcDbEntity
  8
0
  6
ByBlock
100
AcDbLine
 10
764.5162416153649
 20
-675.8213303512675
 30
0.0
 11
764.5162416153649
 21
-673.8213303512675
 31
0.0
  0
TEXT
  5
2041C
330
18
100
AcDbEntity
  8
1DIM
100
AcDbText
 10
497.3912416153649
 20
-532.7047722167549
 30
0.0
 40
3.5
  1
40
100
AcDbText
  0
LINE
  5
2041D
330
18
100
AcDbEntity
  8
0
  6
ByBlock
100
AcDbLine
 10
482.0162435342764
 20
-533.940670596755
 30
0.0
 11
480.0162435342763
 21
-533.4047722167549
 31
0.0
  0
LINE
  5
2041E
330
18
100
AcDbEntity
  8
0
  6
ByBlock
100
AcDbLine
 10
480.0162435342763
 20
-533.4047722167549
 30
0.0
 11
482.0162435342764
 21
-532.8688738367548
 31
0.0
  0
LINE
  5
2041F
330
18
100
AcDbEntity
  8
0
  6
ByBlock
100
AcDbLine
 10
480.0162435342763
 20
-533.4047722167549
 30
0.0
 11
482.0162435342764
 21
-533.4047722167549
 31
0.0
  0
LINE
  5
20420
330
18
100
AcDbEntity
  8
0
  6
ByBlock
100
AcDbLine
 10
518.0162435342761
 20
-532.8688738367548
 30
0.0
 11
520.016243534276
 21
-533.4047722167549
 31
0.0
  0
LINE
  5
20421
330
18
100
AcDbEntity
  8
0
  6
ByBlock
100
AcDbLine
 10
520.016243534276
 20
-533.4047722167549
 30
0.0
 11
518.0162435342761
 21
-533.940670596755
 31
0.0
  0
LINE
  5
20422
330
18
100
AcDbEntity
  8
0
  6
ByBlock
100
AcDbLine
 10
520.016243534276
 20
-533.4047722167549
 30
0.0
 11
518.0162435342761
 21
-533.4047722167549
 31
0.0
  0
LINE
  5
20423
330
18
100
AcDbEntity
  8
1DIM
100
AcDbLine
 10
716.3447643183576
 20
-624.8662873596172
 30
0.0
 11
719.0537571261874
 21
-612.0902613041472
 31
0.0
1001
ACAD
1000
DSTYLE
1002
{
1070
    45
1040
0.5
1002
}
  0
LINE
  5
20424
330
18
100
AcDbEntity
  8
1DIM
100
AcDbLine
 10
729.4801824635229
 20
-624.8662873596172
 30
0.0
 11
732.1891752713526
 21
-612.0902613041472
 31
0.0
1001
ACAD
1000
DSTYLE
1002
{
1070
    45
1040
0.5
1002
}
  0
TEXT
  5
20425
330
18
100
AcDbEntity
  8
1DIM
100
AcDbText
 10
495.349574948698
 20
-700.7213303512676
 30
0.0
 40
3.5
  1
P22
100
AcDbText
  0
LINE
  5
20426
330
18
100
AcDbEntity
  8
0
  6
ByBlock
100
AcDbLine
 10
509.0162416153645
 20
-700.8854319712676
 30
0.0
 11
511.0162416153644
 21
-701.4213303512677
 31
0.0
  0
LINE
  5
20427
330
18
100
AcDbEntity
  8
0
  6
ByBlock
100
AcDbLine
 10
511.0162416153644
 20
-701.4213303512677
 30
0.0
 11
509.0162416153645
 21
-701.9572287312676
 31
0.0
  0
LINE
  5
20428
330
18
100
AcDbEntity
  8
0
  6
ByBlock
100
AcDbLine
 10
511.0162416153644
 20
-701.4213303512677
 30
0.0
 11
509.0162416153645
 21
-701.4213303512677
 31
0.0
  0
LINE
  5
20429
330
18
100
AcDbEntity
  8
0
  6
ByBlock
100
AcDbLine
 10
491.0162416153649
 20
-701.9572287312676
 30
0.0
 11
489.0162416153649
 21
-701.4213303512677
 31
0.0
  0
LINE
  5
2042A
330
18
100
AcDbEntity
  8
0
  6
ByBlock
100
AcDbLine
 10
489.0162416153649
 20
-701.4213303512677
 30
0.0
 11
491.0162416153649
 21
-700.8854319712676
 31
0.0
  0
LINE
  5
2042B
330
18
100
AcDbEntity
  8
0
  6
ByBlock
100
AcDbLine
 10
489.0162416153649
 20
-701.4213303512677
 30
0.0
 11
491.0162416153649
 21
-701.4213303512677
 31
0.0
  0
TEXT
  5
2042C
330
18
100
AcDbEntity
  8
1DIM
100
AcDbText
 10
495.9307898385815
 20
-615.1213303512662
 30
0.0
 40
3.5
  1
200
100
AcDbText
  0
LINE
  5
2042D
330
18
100
AcDbEntity
  8
0
  6
ByBlock
100
AcDbLine
 10
598.0120047284647
 20
-615.2854319712662
 30
0.0
 11
600.0120047284647
 21
-615.8213303512662
 31
0.0
  0
LINE
  5
2042E
330
18
100
AcDbEntity
  8
0
  6
ByBlock
100
AcDbLine
 10
600.0120047284647
 20
-615.8213303512662
 30
0.0
 11
598.0120047284647
 21
-616.3572287312663
 31
0.0
  0
LINE
  5
2042F
330
18
100
AcDbEntity
  8
0
  6
ByBlock
100
AcDbLine
 10
600.0120047284647
 20
-615.8213303512662
 30
0.0
 11
598.0120047284647
 21
-615.8213303512662
 31
0.0
  0
LINE
  5
20430
330
18
100
AcDbEntity
  8
0
  6
ByBlock
100
AcDbLine
 10
402.0162416153649
 20
-616.3572287312663
 30
0.0
 11
400.0162416153649
 21
-615.8213303512662
 31
0.0
  0
LINE
  5
20431
330
18
100
AcDbEntity
  8
0
  6
ByBlock
100
AcDbLine
 10
400.0162416153649
 20
-615.8213303512662
 30
0.0
 11
402.0162416153649
 21
-615.2854319712662
 31
0.0
  0
LINE
  5
20432
330
18
100
AcDbEntity
  8
0
  6
ByBlock
100
AcDbLine
 10
400.0162416153649
 20
-615.8213303512662
 30
0.0
 11
402.0162416153649
 21
-615.8213303512662
 31
0.0
  0
TEXT
  5
20433
330
18
100
AcDbEntity
  8
1DIM
100
AcDbText
 10
619.316241615365
 20
-681.2379970179327
 30
0.0
 40
3.5
  1
85
 50
90.0
100
AcDbText
  0
LINE
  5
20434
330
18
100
AcDbEntity
  8
0
  6
ByBlock
100
AcDbLine
 10
620.5521399953649
 20
-718.8213303512663
 30
0.0
 11
620.0162416153649
 21
-720.8213303512662
 31
0.0
  0
LINE
  5
20435
330
18
100
AcDbEntity
  8
0
  6
ByBlock
100
AcDbLine
 10
620.0162416153649
 20
-720.8213303512662
 30
0.0
 11
619.4803432353649
 21
-718.8213303512663
 31
0.0
  0
LINE
  5
20436
330
18
100
AcDbEntity
  8
0
  6
ByBlock
100
AcDbLine
 10
620.0162416153649
 20
-720.8213303512662
 30
0.0
 11
620.0162416153649
 21
-718.8213303512663
 31
0.0
  0
LINE
  5
20437
330
18
100
AcDbEntity
  8
0
  6
ByBlock
100
AcDbLine
 10
619.4803432353649
 20
-637.8213303512664
 30
0.0
 11
620.0162416153649
 21
-635.8213303512664
 31
0.0
  0
LINE
  5
20438
330
18
100
AcDbEntity
  8
0
  6
ByBlock
100
AcDbLine
 10
620.0162416153649
 20
-635.8213303512664
 30
0.0
 11
620.5521399953649
 21
-637.8213303512664
 31
0.0
  0
LINE
  5
20439
330
18
100
AcDbEntity
  8
0
  6
ByBlock
100
AcDbLine
 10
620.0162416153649
 20
-635.8213303512664
 30
0.0
 11
620.0162416153649
 21
-637.8213303512664
 31
0.0
  0
TEXT
  5
2043A
330
18
100
AcDbEntity
  8
1DIM
100
AcDbText
 10
609.316241615365
 20
-688.4463303512661
 30
0.0
 40
3.5
  1
70
 50
90.0
100
AcDbText
  0
LINE
  5
2043B
330
18
100
AcDbEntity
  8
0
  6
ByBlock
100
AcDbLine
 10
610.552139995365
 20
-718.8213303512663
 30
0.0
 11
610.0162416153649
 21
-720.8213303512662
 31
0.0
  0
LINE
  5
2043C
330
18
100
AcDbEntity
  8
0
  6
ByBlock
100
AcDbLine
 10
610.0162416153649
 20
-720.8213303512662
 30
0.0
 11
609.4803432353649
 21
-718.8213303512663
 31
0.0
  0
LINE
  5
2043D
330
18
100
AcDbEntity
  8
0
  6
ByBlock
100
AcDbLine
 10
610.0162416153649
 20
-720.8213303512662
 30
0.0
 11
610.0162416153649
 21
-718.8213303512663
 31
0.0
  0
LINE
  5
2043E
330
18
100
AcDbEntity
  8
0
  6
ByBlock
100
AcDbLine
 10
609.4803432353649
 20
-652.8213303512663
 30
0.0
 11
610.0162416153649
 21
-650.8213303512662
 31
0.0
  0
LINE
  5
2043F
330
18
100
AcDbEntity
  8
0
  6
ByBlock
100
AcDbLine
 10
610.0162416153649
 20
-650.8213303512662
 30
0.0
 11
610.552139995365
 21
-652.8213303512663
 31
0.0
  0
LINE
  5
20440
330
18
100
AcDbEntity
  8
0
  6
ByBlock
100
AcDbLine
 10
610.0162416153649
 20
-650.8213303512662
 30
0.0
 11
610.0162416153649
 21
-652.8213303512663
 31
0.0
  0
TEXT
  5
20441
330
18
100
AcDbEntity
  8
1DIM
100
AcDbText
 10
609.316241615365
 20
-582.3631055500881
 30
0.0
 40
3.5
  1
\U+03C610
 50
90.0
100
AcDbText
  0
LINE
  5
20442
330
18
100
AcDbEntity
  8
0
  6
ByBlock
100
AcDbLine
 10
609.4803432353649
 20
-587.4047722167549
 30
0.0
 11
610.0162416153649
 21
-585.4047722167549
 31
0.0
  0
LINE
  5
20443
330
18
100
AcDbEntity
  8
0
  6
ByBlock
100
AcDbLine
 10
610.0162416153649
 20
-585.4047722167549
 30
0.0
 11
610.552139995365
 21
-587.4047722167549
 31
0.0
  0
LINE
  5
20444
330
18
100
AcDbEntity
  8
0
  6
ByBlock
100
AcDbLine
 10
610.0162416153649
 20
-585.4047722167549
 30
0.0
 11
610.0162416153649
 21
-587.4047722167549
 31
0.0
  0
LINE
  5
20445
330
18
100
AcDbEntity
  8
0
  6
ByBlock
100
AcDbLine
 10
610.552139995365
 20
-593.400637521506
 30
0.0
 11
610.0162416153649
 21
-595.400637521506
 31
0.0
  0
LINE
  5
20446
330
18
100
AcDbEntity
  8
0
  6
ByBlock
100
AcDbLine
 10
610.0162416153649
 20
-595.400637521506
 30
0.0
 11
609.4803432353649
 21
-593.400637521506
 31
0.0
  0
LINE
  5
20447
330
18
100
AcDbEntity
  8
0
  6
ByBlock
100
AcDbLine
 10
610.0162416153649
 20
-595.400637521506
 30
0.0
 11
610.0162416153649
 21
-593.400637521506
 31
0.0
  0
TEXT
  5
20448
330
18
100
AcDbEntity
  8
1DIM
100
AcDbText
 10
689.0995749486994
 20
-615.1213303512662
 30
0.0
 40
3.5
  1
42
100
AcDbText
  0
LINE
  5
20449
330
18
100
AcDbEntity
  8
0
  6
ByBlock
100
AcDbLine
 10
711.0162416153649
 20
-615.2854319712662
 30
0.0
 11
713.0162416153649
 21
-615.8213303512662
 31
0.0
  0
LINE
  5
2044A
330
18
100
AcDbEntity
  8
0
  6
ByBlock
100
AcDbLine
 10
713.0162416153649
 20
-615.8213303512662
 30
0.0
 11
711.0162416153649
 21
-616.3572287312663
 31
0.0
  0
LINE
  5
2044B
330
18
100
AcDbEntity
  8
0
  6
ByBlock
100
AcDbLine
 10
713.0162416153649
 20
-615.8213303512662
 30
0.0
 11
711.0162416153649
 21
-615.8213303512662
 31
0.0
  0
LINE
  5
2044C
330
18
100
AcDbEntity
  8
0
  6
ByBlock
100
AcDbLine
 10
673.0162416153672
 20
-616.3572287312663
 30
0.0
 11
671.0162416153671
 21
-615.8213303512662
 31
0.0
  0
LINE
  5
2044D
330
18
100
AcDbEntity
  8
0
  6
ByBlock
100
AcDbLine
 10
671.0162416153671
 20
-615.8213303512662
 30
0.0
 11
673.0162416153672
 21
-615.2854319712662
 31
0.0
  0
LINE
  5
2044E
330
18
100
AcDbEntity
  8
0
  6
ByBlock
100
AcDbLine
 10
671.0162416153671
 20
-615.8213303512662
 30
0.0
 11
673.0162416153672
 21
-615.8213303512662
 31
0.0
  0
TEXT
  5
2044F
330
18
100
AcDbEntity
  8
1DIM
100
AcDbText
 10
642.316241615365
 20
-648.4463303512669
 30
0.0
 40
3.5
  1
20
 50
90.0
100
AcDbText
  0
LINE
  5
20450
330
18
100
AcDbEntity
  8
0
  6
ByBlock
100
AcDbLine
 10
642.4803432353648
 20
-637.8213303512675
 30
0.0
 11
643.0162416153649
 21
-635.8213303512675
 31
0.0
  0
LINE
  5
20451
330
18
100
AcDbEntity
  8
0
  6
ByBlock
100
AcDbLine
 10
643.0162416153649
 20
-635.8213303512675
 30
0.0
 11
643.552139995365
 21
-637.8213303512675
 31
0.0
  0
LINE
  5
20452
330
18
100
AcDbEntity
  8
0
  6
ByBlock
100
AcDbLine
 10
643.0162416153649
 20
-635.8213303512675
 30
0.0
 11
643.0162416153649
 21
-637.8213303512675
 31
0.0
  0
LINE
  5
20453
330
18
100
AcDbEntity
  8
0
  6
ByBlock
100
AcDbLine
 10
643.552139995365
 20
-653.8213303512663
 30
0.0
 11
643.0162416153649
 21
-655.8213303512664
 31
0.0
  0
LINE
  5
20454
330
18
100
AcDbEntity
  8
0
  6
ByBlock
100
AcDbLine
 10
643.0162416153649
 20
-655.8213303512664
 30
0.0
 11
642.4803432353648
 21
-653.8213303512663
 31
0.0
  0
LINE
  5
20455
330
18
100
AcDbEntity
  8
0
  6
ByBlock
100
AcDbLine
 10
643.0162416153649
 20
-655.8213303512664
 30
0.0
 11
643.0162416153649
 21
-653.8213303512663
 31
0.0
  0
VIEWPORT
  5
57
102
{ACAD_XDICTIONARY
360
20476
102
}
330
15
100
AcDbEntity
 67
     1
  8
0
100
AcDbViewport
 10
-12.01452565928304
 20
10.09248672500371
 30
0.0
 40
593.9062628208138
 41
282.5249001667374
 68
     1
 69
     1
 12
-12.01452565928304
 22
10.09248672500371
 13
0.0
 23
0.0
 14
10.0
 24
10.0
 15
10.0
 25
10.0
 16
0.0
 26
0.0
 36
1.0
 17
0.0
 27
0.0
 37
0.0
 42
50.0
 43
0.0
 44
0.0
 45
282.5249001667374
 50
0.0
 51
0.0
 72
   100
 90
    32800
  1

281
     0
 71
     1
 74
     0
110
0.0
120
0.0
130
0.0
111
1.0
121
0.0
131
0.0
112
0.0
122
1.0
132
0.0
 79
     0
146
0.0
  0
ENDSEC
  0
SECTION
  2
OBJECTS
  0
DICTIONARY
  5
C
330
0
100
AcDbDictionary
281
     1
  3
ACAD_COLOR
350
2D0
  3
ACAD_GROUP
350
D
  3
ACAD_LAYOUT
350
2D1
  3
ACAD_MATERIAL
350
2CF
  3
ACAD_MLEADERSTYLE
350
19E18
  3
ACAD_MLINESTYLE
350
1B
  3
ACAD_PLOTSETTINGS
350
2D2
  3
ACAD_PLOTSTYLENAME
350
2CD
  3
ACAD_SCALELIST
350
19DF6
  3
ACAD_TABLESTYLE
350
4D6
  3
ACAD_VISUALSTYLE
350
19DE5
  3
ACDB_RECOMPOSE_DATA
350
20474
  3
ACDBVARIABLEDICTIONARY
350
37
  3
AEC_PROPERTY_SET_DEFS
350
1FEBD
  3
CONTENTDICTIONARY
350
D8
  3
DRAWINGVARIABLESDICT
350
20
  3
DWGPROPS
350
20475
  0
DICTIONARY
  5
1ABDC
330
8
100
AcDbDictionary
280
     1
281
     1
  0
DICTIONARY
  5
18FE8
330
2
100
AcDbDictionary
280
     1
281
     1
  3
ACAD_LAYERSTATES
360
18FE9
  0
DICTIONARY
  5
1A20A
330
E
100
AcDbDictionary
280
     1
281
     1
  3
ADSK_XREC_LAYER_RECONCILED
360
1A20B
  0
DICTIONARY
  5
1A20C
330
29
100
AcDbDictionary
280
     1
281
     1
  3
ADSK_XREC_LAYER_RECONCILED
360
1A20D
  0
DICTIONARY
  5
1A20E
330
31
100
AcDbDictionary
280
     1
281
     1
  3
ADSK_XREC_LAYER_RECONCILED
360
1A20F
  0
DICTIONARY
  5
1A218
330
101
100
AcDbDictionary
280
     1
281
     1
  3
ADSK_XREC_LAYER_RECONCILED
360
1A219
  0
DICTIONARY
  5
1A21C
330
103
100
AcDbDictionary
280
     1
281
     1
  3
ADSK_XREC_LAYER_RECONCILED
360
1A21D
  0
DICTIONARY
  5
1A220
330
25F
100
AcDbDictionary
280
     1
281
     1
  3
ADSK_XREC_LAYER_RECONCILED
360
1A221
  0
DICTIONARY
  5
1A23C
330
26D
100
AcDbDictionary
280
     1
281
     1
  3
ADSK_XREC_LAYER_RECONCILED
360
1A23D
  0
DICTIONARY
  5
6E9
330
18
100
AcDbDictionary
280
     1
281
     1
  3
ACAD_SORTENTS
360
6EA
  0
DICTIONARY
  5
59B
330
15
100
AcDbDictionary
280
     1
281
     1
  3
ACAD_SORTENTS
360
59C
  0
DICTIONARY
  5
20476
330
57
100
AcDbDictionary
280
     1
281
     1
  3
ACAD_XREC_ROUNDTRIP
360
20477
  0
DICTIONARY
  5
2D0
102
{ACAD_REACTORS
330
C
102
}
330
C
100
AcDbDictionary
281
     1
  0
DICTIONARY
  5
D
102
{ACAD_REACTORS
330
C
102
}
330
C
100
AcDbDictionary
281
     1
  3
*A1
350
5EE
  3
*A10
350
F127
  3
*A100
350
1EBE1
  3
*A101
350
F500
  3
*A102
350
F15A
  3
*A103
350
14864
  3
*A104
350
FC3E
  3
*A105
350
14C1D
  3
*A106
350
E0AF
  3
*A107
350
13E92
  3
*A108
350
F8B5
  3
*A109
350
67C9
  3
*A11
350
DC31
  3
*A110
350
14673
  3
*A111
350
F130
  3
*A112
350
13E95
  3
*A113
350
F4F7
  3
*A114
350
81B5
  3
*A115
350
14B8C
  3
*A116
350
1C6AC
  3
*A117
350
BB97
  3
*A118
350
124E1
  3
*A119
350
13C9D
  3
*A12
350
F8AB
  3
*A120
350
1C66F
  3
*A121
350
F8AD
  3
*A122
350
FC47
  3
*A123
350
FC3C
  3
*A124
350
F8B4
  3
*A125
350
FC40
  3
*A126
350
F0D2
  3
*A127
350
F0D4
  3
*A128
350
743D
  3
*A129
350
193C4
  3
*A13
350
DC1D
  3
*A130
350
F102
  3
*A131
350
F8AE
  3
*A132
350
124E4
  3
*A133
350
1568E
  3
*A134
350
81E5
  3
*A135
350
13CA0
  3
*A136
350
1499
  3
*A137
350
1A10A
  3
*A138
350
1A145
  3
*A139
350
10E82
  3
*A14
350
FC39
  3
*A140
350
F0D5
  3
*A141
350
15FDF
  3
*A142
350
F148
  3
*A143
350
14C18
  3
*A144
350
1EBE2
  3
*A145
350
81B7
  3
*A146
350
F4F6
  3
*A147
350
F8B9
  3
*A148
350
11E9B
  3
*A149
350
16F01
  3
*A15
350
14C1A
  3
*A150
350
124E7
  3
*A151
350
81C0
  3
*A152
350
1EF1B
  3
*A153
350
81AC
  3
*A154
350
FC4A
  3
*A155
350
124DF
  3
*A156
350
1EBDE
  3
*A157
350
F151
  3
*A158
350
81AF
  3
*A159
350
E0B5
  3
*A16
350
81AB
  3
*A160
350
DFC2
  3
*A161
350
DC1C
  3
*A162
350
14C1B
  3
*A163
350
124E5
  3
*A164
350
F0D3
  3
*A165
350
F8BB
  3
*A166
350
1C374
  3
*A167
350
FC44
  3
*A168
350
1497
  3
*A169
350
1EF02
  3
*A17
350
F8AC
  3
*A170
350
1EF03
  3
*A171
350
1EF04
  3
*A172
350
1EF05
  3
*A173
350
10E81
  3
*A174
350
14520
  3
*A175
350
14B86
  3
*A176
350
1FBA4
  3
*A177
350
1EF06
  3
*A178
350
1177F
  3
*A179
350
F4FC
  3
*A18
350
DB60
  3
*A180
350
F505
  3
*A181
350
F0DB
  3
*A182
350
109FB
  3
*A183
350
FC4B
  3
*A184
350
FC43
  3
*A185
350
14B8B
  3
*A186
350
10AD2
  3
*A187
350
F8B1
  3
*A188
350
14865
  3
*A189
350
1C411
  3
*A19
350
1195B
  3
*A190
350
1195C
  3
*A191
350
F8BD
  3
*A192
350
DFC3
  3
*A193
350
14B89
  3
*A194
350
16F00
  3
*A195
350
81B6
  3
*A196
350
FC49
  3
*A197
350
14B82
  3
*A198
350
1C44B
  3
*A199
350
F13A
  3
*A2
350
11794
  3
*A20
350
1568C
  3
*A200
350
1BE8E
  3
*A201
350
81BB
  3
*A202
350
F8BC
  3
*A203
350
F6A
  3
*A204
350
1E9DA
  3
*A205
350
17881
  3
*A206
350
DB9F
  3
*A207
350
1EDFD
  3
*A208
350
15537
  3
*A209
350
16EFF
  3
*A21
350
81BF
  3
*A210
350
14B84
  3
*A211
350
FC41
  3
*A212
350
124E3
  3
*A213
350
7440
  3
*A214
350
14C19
  3
*A215
350
DF09
  3
*A216
350
F0D6
  3
*A217
350
FC42
  3
*A218
350
11959
  3
*A219
350
1068E
  3
*A22
350
81C1
  3
*A220
350
1E7BB
  3
*A221
350
13C9F
  3
*A222
350
124DE
  3
*A223
350
1E9D3
  3
*A224
350
81BC
  3
*A225
350
F4F8
  3
*A226
350
81C2
  3
*A227
350
DC05
  3
*A228
350
14859
  3
*A229
350
F0DE
  3
*A23
350
1568D
  3
*A230
350
81E7
  3
*A231
350
81BA
  3
*A232
350
11E77
  3
*A233
350
F4FD
  3
*A234
350
81E6
  3
*A235
350
6E39
  3
*A236
350
81B1
  3
*A237
350
17882
  3
*A238
350
15690
  3
*A239
350
1451D
  3
*A24
350
F0DC
  3
*A240
350
124E2
  3
*A241
350
FC3D
  3
*A242
350
120AE
  3
*A243
350
120AF
  3
*A244
350
F0D1
  3
*A245
350
FC3F
  3
*A246
350
1CDCE
  3
*A247
350
1EF07
  3
*A248
350
FC3B
  3
*A249
350
14B85
  3
*A25
350
F11E
  3
*A250
350
F0D0
  3
*A251
350
81C3
  3
*A252
350
F4F9
  3
*A253
350
10AA0
  3
*A254
350
1EE53
  3
*A255
350
14B8A
  3
*A256
350
14B88
  3
*A257
350
DF07
  3
*A258
350
1486B
  3
*A259
350
FC46
  3
*A26
350
1EBE0
  3
*A260
350
13E93
  3
*A261
350
1178D
  3
*A262
350
F4FE
  3
*A263
350
67CB
  3
*A264
350
1195E
  3
*A265
350
81B8
  3
*A266
350
F69
  3
*A267
350
11960
  3
*A268
350
F0CE
  3
*A269
350
81AE
  3
*A27
350
81E8
  3
*A270
350
11319
  3
*A271
350
14D24
  3
*A272
350
1451F
  3
*A273
350
1EBDF
  3
*A274
350
F501
  3
*A275
350
F8B6
  3
*A276
350
AC77
  3
*A277
350
81B4
  3
*A278
350
81B2
  3
*A279
350
81AD
  3
*A28
350
1E9F2
  3
*A280
350
81B9
  3
*A281
350
1E9F1
  3
*A282
350
F10B
  3
*A283
350
14C1C
  3
*A284
350
1EF16
  3
*A285
350
F8BA
  3
*A286
350
81BD
  3
*A287
350
F4FB
  3
*A288
350
743F
  3
*A289
350
14B83
  3
*A29
350
F8AF
  3
*A290
350
F8B7
  3
*A291
350
15212
  3
*A292
350
F503
  3
*A293
350
1CCF7
  3
*A294
350
1CCF6
  3
*A295
350
11786
  3
*A296
350
12035
  3
*A297
350
15538
  3
*A298
350
1BE4C
  3
*A299
350
13E96
  3
*A3
350
81B0
  3
*A30
350
13E94
  3
*A300
350
16F02
  3
*A301
350
F8B2
  3
*A302
350
14703
  3
*A303
350
DB59
  3
*A304
350
1496
  3
*A305
350
DF0A
  3
*A306
350
14702
  3
*A307
350
F520
  3
*A308
350
1BC09
  3
*A309
350
F4F5
  3
*A31
350
15539
  3
*A310
350
F4FA
  3
*A311
350
F0CF
  3
*A312
350
F8B3
  3
*A313
350
14B81
  3
*A314
350
13C9E
  3
*A315
350
1498
  3
*A316
350
1C6E9
  3
*A317
350
F114
  3
*A318
350
F504
  3
*A319
350
15536
  3
*A32
350
1E980
  3
*A320
350
FC45
  3
*A321
350
1EF17
  3
*A322
350
67CA
  3
*A323
350
124E6
  3
*A324
350
10A04
  3
*A325
350
1568F
  3
*A326
350
F507
  3
*A327
350
F0F9
  3
*A328
350
1195A
  3
*A329
350
FC38
  3
*A33
350
17552
  3
*A330
350
1C632
  3
*A34
350
1FCC1
  3
*A35
350
F8BE
  3
*A36
350
1FCC5
  3
*A37
350
1EBF5
  3
*A38
350
1FCC6
  3
*A39
350
1FCC7
  3
*A4
350
16EFE
  3
*A40
350
10E76
  3
*A41
350
1EF18
  3
*A42
350
1FCC8
  3
*A43
350
F4FF
  3
*A44
350
1FCC9
  3
*A45
350
14B87
  3
*A46
350
F502
  3
*A47
350
F0D7
  3
*A48
350
1FCCA
  3
*A49
350
1FCCB
  3
*A5
350
DB47
  3
*A50
350
14DA0
  3
*A51
350
1FCCC
  3
*A52
350
1FCCD
  3
*A53
350
183C2
  3
*A54
350
1FCCE
  3
*A55
350
1EEFF
  3
*A56
350
1FCCF
  3
*A57
350
81B3
  3
*A58
350
F163
  3
*A59
350
14D30
  3
*A6
350
743E
  3
*A60
350
1F855
  3
*A61
350
1FCD0
  3
*A62
350
1FCD1
  3
*A63
350
1FCD2
  3
*A64
350
1FCD3
  3
*A65
350
F506
  3
*A66
350
1FCD4
  3
*A67
350
1FCD5
  3
*A68
350
F0D8
  3
*A69
350
F0DA
  3
*A7
350
1F0AE
  3
*A70
350
1FCD6
  3
*A71
350
1451C
  3
*A72
350
1EF00
  3
*A73
350
120B1
  3
*A74
350
186B
  3
*A75
350
6FE0
  3
*A76
350
F8B8
  3
*A77
350
FC3A
  3
*A78
350
DFC0
  3
*A79
350
1BC45
  3
*A8
350
FC48
  3
*A80
350
81BE
  3
*A81
350
13C9C
  3
*A82
350
F0D9
  3
*A83
350
120B0
  3
*A84
350
124E0
  3
*A85
350
1451E
  3
*A86
350
1F89B
  3
*A87
350
DFC1
  3
*A88
350
1195D
  3
*A89
350
1EF1A
  3
*A9
350
14DA1
  3
*A90
350
BB90
  3
*A91
350
1A0BF
  3
*A92
350
F8B0
  3
*A93
350
F0DD
  3
*A94
350
14D23
  3
*A95
350
1486C
  3
*A96
350
1195F
  3
*A97
350
174ED
  3
*A98
350
DB52
  3
*A99
350
DBFE
  0
DICTIONARY
  5
2D1
102
{ACAD_REACTORS
330
C
102
}
330
C
100
AcDbDictionary
281
     1
  3
Model
350
2D3
  3
レイアウト1
350
2D4
  0
DICTIONARY
  5
2CF
102
{ACAD_REACTORS
330
C
102
}
330
C
100
AcDbDictionary
281
     1
  3
ByBlock
350
19DD5
  3
ByLayer
350
19DCD
  3
Global
350
19DDD
  0
DICTIONARY
  5
19E18
102
{ACAD_REACTORS
330
C
102
}
330
C
100
AcDbDictionary
281
     1
  3
Standard
350
19E19
  0
DICTIONARY
  5
1B
102
{ACAD_REACTORS
330
C
102
}
330
C
100
AcDbDictionary
281
     1
  3
STANDARD
350
1C
  0
DICTIONARY
  5
2D2
102
{ACAD_REACTORS
330
C
102
}
330
C
100
AcDbDictionary
281
     1
  0
ACDBDICTIONARYWDFLT
  5
2CD
102
{ACAD_REACTORS
330
C
102
}
330
C
100
AcDbDictionary
281
     1
  3
Normal
350
2CE
100
AcDbDictionaryWithDefault
340
2CE
  0
DICTIONARY
  5
19DF6
102
{ACAD_REACTORS
330
C
102
}
330
C
100
AcDbDictionary
281
     1
  3
A0
350
19DF7
  3
A1
350
19DF8
  3
A2
350
19DF9
  3
A3
350
19DFA
  3
A4
350
19DFB
  3
A5
350
19DFC
  3
A6
350
19DFD
  3
A7
350
19DFE
  3
A8
350
19DFF
  3
A9
350
19E00
  3
B0
350
19E01
  3
B1
350
19E02
  3
B2
350
19E03
  3
B3
350
19E04
  3
B4
350
19E05
  3
B5
350
19E06
  3
B6
350
19E07
  3
B7
350
19E08
  3
B8
350
19E09
  3
B9
350
19E0A
  3
C0
350
19E0B
  3
C1
350
19E0C
  3
C2
350
19E0D
  3
C3
350
19E0E
  3
C4
350
19E0F
  3
C5
350
19E10
  3
C6
350
19E11
  3
C7
350
19E12
  3
C8
350
19E13
  3
C9
350
19E14
  3
D0
350
19E15
  3
D1
350
19E16
  3
D2
350
19E17
  0
DICTIONARY
  5
4D6
102
{ACAD_REACTORS
330
C
102
}
330
C
100
AcDbDictionary
281
     1
  3
Standard
350
4D7
  0
DICTIONARY
  5
19DE5
102
{ACAD_REACTORS
330
C
102
}
330
C
100
AcDbDictionary
281
     1
  3
2dWireframe
350
19DEB
  3
3D Hidden
350
19DED
  3
3dWireframe
350
19DEC
  3
Basic
350
19DEA
  3
Brighten
350
19DF1
  3
ColorChange
350
19DF5
  3
Conceptual
350
19DEE
  3
Dim
350
19DF0
  3
EdgeColorOff
350
1E02A
  3
Facepattern
350
19DF4
  3
Flat
350
19DE6
  3
FlatWithEdges
350
19DE7
  3
Gouraud
350
19DE8
  3
GouraudWithEdges
350
19DE9
  3
JitterOff
350
1E028
  3
Linepattern
350
19DF3
  3
OverhangOff
350
1E029
  3
Realistic
350
19DEF
  3
Thicken
350
19DF2
  0
XRECORD
  5
20474
102
{ACAD_REACTORS
330
C
102
}
330
C
100
AcDbXrecord
280
     1
 90
        1
330
4D7
  0
DICTIONARY
  5
37
102
{ACAD_REACTORS
330
C
102
}
330
C
100
AcDbDictionary
281
     1
  3
CANNOSCALE
350
1AC1A
  3
CMLEADERSTYLE
350
1AC19
  3
CTABLESTYLE
350
4F1
  3
DIMADEC
350
38
  3
DIMASSOC
350
408
  3
HIDETEXT
350
1891
  3
INDEXCTL
350
1AC1C
  3
INTERSECTIONCOLOR
350
1895
  3
INTERSECTIONDISPLAY
350
1894
  3
OBSCOLOR
350
1892
  3
OBSLTYPE
350
1893
  3
PROJECTNAME
350
409
  3
SORTENTS
350
1AC1B
  3
XCLIPFRAME
350
20472
  0
DICTIONARY
  5
1FEBD
102
{ACAD_REACTORS
330
C
102
}
330
C
100
AcDbDictionary
281
     1
  0
DICTIONARY
  5
D8
102
{ACAD_REACTORS
330
C
102
}
330
C
100
AcDbDictionary
281
     1
1001
CONTENTTABDATA
1070
    11
1000
Child
1000
D:\ACLT\TABset\CHILDREN.dwg
1070
     0
1070
     0
1070
     1
1000
PK
1000
D:\ACLT\TABset\PK.dwg
1070
     0
1070
     0
1070
     1
1000
Lev1
1000
D:\ACLT\TABset\Lever01.dwg
1070
     0
1070
     0
1070
     1
1000
Lev2
1000
D:\ACLT\TABset\Lever02.dwg
1070
     0
1070
     0
1070
     1
1000
L3
1000
D:\Aclt\TABset\Lever03.dwg
1070
     0
1070
     0
1070
     1
1000
Form
1000
D:\ACLT\FORMAT
1070
     1
1070
     0
1070
     1
1000
Jnt
1000
D:\ACLT\TABset\JOINTPARTS.dwg
1070
     0
1070
     0
1070
     1
1000
ISO
1000
D:\ACLT\TABset\Isome01.dwg
1070
     0
1070
     0
1070
     1
1000
R
1000
D:\ACLT\TABset\REGION.dwg
1070
     0
1070
     0
1070
     1
1000
std
1000
D:\ACLT\TABset\std_sym_all.dwg
1070
     0
1070
     0
1070
     1
1000
丸
1000
D:\Aclt\TABset\MARU.dwg
1070
     0
1070
     0
1070
     1
1001
CONTENTCURRENTTAB
1070
     0
  0
DICTIONARY
  5
20
102
{ACAD_REACTORS
330
C
102
}
330
C
100
AcDbDictionary
281
     1
1001
DRAWINGVARIABLESXDATA
1000
POLARANG
1000
0.261799387799149410000000
1000
POLARMODE
1000
1
1000
POLARSTYLE
1000
1
  0
XRECORD
  5
20475
102
{ACAD_REACTORS
330
C
102
}
330
C
100
AcDbXrecord
280
     1
  1
DWGPROPS COOKIE
  2

  3

  4

  6

  7

  8
3684
  9

300
=
301
=
302
=
303
=
304
=
305
=
306
=
307
=
308
=
309
=
 40
2.584983692129629
 41
2453033.732663484
 42
2457662.601414746
  1

 90
        0
  0
DICTIONARY
  5
18FE9
102
{ACAD_REACTORS
330
18FE8
102
}
330
18FE8
100
AcDbDictionary
281
     1
  0
XRECORD
  5
1A20B
102
{ACAD_REACTORS
330
1A20A
102
}
330
1A20A
100
AcDbXrecord
280
     1
290
     1
  0
XRECORD
  5
1A20D
102
{ACAD_REACTORS
330
1A20C
102
}
330
1A20C
100
AcDbXrecord
280
     1
290
     1
  0
XRECORD
  5
1A20F
102
{ACAD_REACTORS
330
1A20E
102
}
330
1A20E
100
AcDbXrecord
280
     1
290
     1
  0
XRECORD
  5
1A219
102
{ACAD_REACTORS
330
1A218
102
}
330
1A218
100
AcDbXrecord
280
     1
290
     1
  0
XRECORD
  5
1A21D
102
{ACAD_REACTORS
330
1A21C
102
}
330
1A21C
100
AcDbXrecord
280
     1
290
     1
  0
XRECORD
  5
1A221
102
{ACAD_REACTORS
330
1A220
102
}
330
1A220
100
AcDbXrecord
280
     1
290
     1
  0
XRECORD
  5
1A23D
102
{ACAD_REACTORS
330
1A23C
102
}
330
1A23C
100
AcDbXrecord
280
     1
290
     1
  0
SORTENTSTABLE
  5
6EA
102
{ACAD_REACTORS
330
6E9
102
}
330
6E9
100
AcDbSortentsTable
330
18
331
200E0
  5
20446
331
1FF09
  5
203CC
331
20381
  5
202D4
331
2032E
  5
2031A
331
203A9
  5
1FF9E
331
200AD
  5
20418
331
20424
  5
1FF07
331
1FEDE
  5
203A2
331
2034E
  5
200DC
331
1FF89
  5
203DF
331
203C9
  5
200BB
331
20444
  5
2036A
331
202FB
  5
202E7
331
1FEFE
  5
203C1
331
20376
  5
202C9
331
1E7B5
  5
1FF09
331
20323
  5
2030F
331
1E9D5
  5
202DC
331
2039E
  5
1FF92
331
1DB93
  5
1E9D9
331
203FC
  5
1DB97
331
200E4
  5
2044A
331
20453
  5
2037F
331
2030A
  5
202F6
331
1FF0D
  5
203D0
331
20385
  5
202D8
331
203D8
  5
1FEF5
331
1FF9B
  5
203EF
331
20332
  5
2031E
331
202BF
  5
203FC
331
202D7
  5
20360
331
203AD
  5
1FFA2
331
20400
  5
1E9D8
331
200B1
  5
2041C
331
20428
  5
20335
331
1FEE2
  5
203A6
331
20352
  5
200E0
331
1FF8D
  5
203E3
331
203CD
  5
200C1
331
200D9
  5
2043F
331
20448
  5
20378
331
202FF
  5
202EB
331
1FF02
  5
203C5
331
2037A
  5
202CD
331
1E7B9
  5
1FF0D
331
1DB97
  5
1E9E8
331
20327
  5
20313
331
203F5
  5
1DBA0
331
200C0
  5
20427
331
1FEE9
  5
203AD
331
20361
  5
2012B
331
2030E
  5
202FA
331
1FF11
  5
203D4
331
20389
  5
1FF0F
331
203DC
  5
1FEE6
331
1FF9F
  5
203F3
331
20336
  5
20322
331
202C3
  5
20400
331
203B1
  5
1FFA6
331
20404
  5
1E9D0
331
200B5
  5
2041E
331
2042C
  5
20343
331
1FEE6
  5
203AA
331
20356
  5
200E4
331
200DD
  5
20443
331
2044C
  5
20372
331
20303
  5
202EF
331
203D1
  5
200C5
331
1FF06
  5
203C9
331
2037E
  5
202D1
331
1DB9B
  5
1FEC5
331
200C4
  5
2042B
331
20433
  5
20350
331
202EA
  5
20339
331
203B8
  5
200A8
331
1FEED
  5
203B1
331
20365
  5
202B6
331
20124
  5
2044E
331
20312
  5
202FE
331
1FF15
  5
203D8
331
2038D
  5
1FF13
331
1FFA3
  5
203F7
331
1FEC2
  5
20387
331
2033A
  5
20326
331
200B9
  5
20422
331
202C7
  5
20404
331
203B5
  5
200A5
331
20307
  5
202F3
331
2035A
  5
20124
331
20408
  5
1FED4
331
1FED1
  5
20396
331
20341
  5
200CE
331
200C8
  5
2042F
331
20437
  5
2034A
331
202EE
  5
2032A
331
203BC
  5
200AC
331
1FEF1
  5
203B5
331
20369
  5
202BA
331
20128
  5
20452
331
20316
  5
20302
331
20391
  5
1FF83
331
203E4
  5
1FEDB
331
1FFA7
  5
203FB
331
1FEC6
  5
2038B
331
202E3
  5
20345
331
2033E
  5
200CB
331
2035E
  5
20128
331
2040C
  5
1FED2
331
202CA
  5
2037A
331
203A0
  5
1FF94
331
200A4
  5
2040F
331
1FED5
  5
2039A
331
20345
  5
200D2
331
200CC
  5
20433
331
2043B
  5
2035A
331
203C0
  5
200B0
331
1FEF5
  5
203B9
331
2036D
  5
202C0
331
2041B
  5
1FEEE
331
2031A
  5
20306
331
20395
  5
1FF88
331
1FECA
  5
2038F
331
20410
  5
1FEE3
331
203E8
  5
1FECB
331
1FF92
  5
203E7
331
20329
  5
20315
331
202B6
  5
20408
331
203A4
  5
1FF99
331
200A8
  5
20413
331
20349
  5
200D7
331
1FF84
  5
203DB
331
203C4
  5
200B6
331
2041F
  5
1FEFF
331
200D0
  5
20437
331
2043F
  5
20358
331
1FEF9
  5
203BC
331
20371
  5
202C4
331
202F6
  5
202E2
331
2031E
  5
2030A
331
1E9D0
  5
200C9
331
20399
  5
1FF8C
331
1FECE
  5
20393
331
20414
  5
1FEE1
331
1FF08
  5
203CB
331
20380
  5
202D3
331
1FF96
  5
203EB
331
2032D
  5
20319
331
202BA
  5
2040C
331
203A8
  5
1FF9D
331
200AC
  5
20417
331
1FEDD
  5
203A1
331
2034D
  5
200DB
331
1FF88
  5
203DE
331
203C8
  5
200BA
331
20423
  5
1FF03
331
20443
  5
20369
331
202FA
  5
202E6
331
1FEFD
  5
203C0
331
20375
  5
202C8
331
20322
  5
2030E
331
1E9D4
  5
202DB
331
2039D
  5
1FF90
331
203F0
  5
1E7B7
331
200E3
  5
20449
331
20452
  5
20384
331
20309
  5
202F5
331
1FF0C
  5
203CF
331
20384
  5
202D7
331
1FF9A
  5
203EE
331
20331
  5
2031D
331
203AC
  5
1FFA1
331
202D6
  5
2035F
331
202BE
  5
1FF04
331
200B0
  5
2041B
331
20427
  5
20334
331
1FEE1
  5
203A5
331
20351
  5
200DF
331
1FF8C
  5
203E2
331
203CC
  5
200C0
331
200D8
  5
2043E
331
20447
  5
20367
331
202FE
  5
202EA
331
1FF01
  5
203C4
331
20379
  5
202CC
331
1E7B8
  5
1FF0C
331
1DB96
  5
1E9E7
331
203FF
  5
1DB9E
331
20326
  5
20312
331
203F4
  5
1DB9F
331
1FEE8
  5
203AC
331
20360
  5
2012A
331
200E7
  5
2044D
331
2030D
  5
202F9
331
1FF10
  5
203D3
331
20388
  5
1FF0E
331
1FF9E
  5
203F2
331
20335
  5
20321
331
202C2
  5
203FF
331
203B0
  5
1FFA5
331
20403
  5
1E9D7
331
2042B
  5
20332
331
1FEE5
  5
203A9
331
20355
  5
200E3
331
200DC
  5
20442
331
2044B
  5
20377
331
20302
  5
202EE
331
203D0
  5
200C4
331
1FF05
  5
203C8
331
2037D
  5
202D0
331
1DB9A
  5
1FEC4
331
1D8CA
  5
1DBA1
331
200C3
  5
2042A
331
20432
  5
2033F
331
202E9
  5
20338
331
1FEEC
  5
203B0
331
20364
  5
202B5
331
20311
  5
202FD
331
1FF14
  5
203D7
331
2038C
  5
1FF12
331
1FFA2
  5
203F6
331
1FEC1
  5
20386
331
20339
  5
20325
331
202C6
  5
20403
331
202DE
  5
20353
331
200B8
  5
20421
331
2042F
  5
20342
331
203B4
  5
200A3
331
20359
  5
200E7
331
2044F
  5
20385
331
20306
  5
202F2
331
203D4
  5
1FF01
331
20407
  5
1FED7
331
1FED0
  5
20395
331
20340
  5
200CD
331
200C7
  5
2042E
331
20436
  5
2034F
331
203BB
  5
200AB
331
1FEF0
  5
203B4
331
20368
  5
202B9
331
20127
  5
20451
331
20315
  5
20301
331
20390
  5
1FF82
331
203E3
  5
1FEDA
331
1FFA6
  5
203FA
331
1FEC5
  5
2038A
331
202E2
  5
20344
331
2033D
  5
20329
331
2035D
  5
20127
331
2040B
  5
1FED1
331
1D90A
  5
1DBA8
331
202C9
  5
20379
331
200A3
  5
2040E
331
1FED4
  5
20399
331
20344
  5
200D1
331
200CB
  5
20432
331
2043A
  5
2035D
331
203BF
  5
200AF
331
1FEF4
  5
203B8
331
2036C
  5
202BF
331
2012B
  5
20455
331
20319
  5
20305
331
20394
  5
1FF86
331
2041A
  5
1FEED
331
1FEC9
  5
2038E
331
2040F
  5
1FEE2
331
1DBA6
  5
1FECA
331
20328
  5
20314
331
202B5
  5
20407
331
203A3
  5
1FF98
331
200A7
  5
20412
331
1FED8
  5
2039D
331
20348
  5
200D6
331
1FF83
  5
203DA
331
203C3
  5
200B5
331
2041E
  5
1FEFE
331
200CF
  5
20436
331
2043E
  5
20357
331
2031D
  5
20309
331
20370
  5
202C3
331
202F5
  5
202E1
331
1E9CF
  5
200C8
331
20398
  5
1FF8B
331
1FECD
  5
20392
331
20413
  5
1FEE0
331
1FF95
  5
203EA
331
2032C
  5
20318
331
202B9
  5
2040B
331
202D1
  5
2036E
331
203A7
  5
1FF9C
331
200AB
  5
20416
331
1FEDC
  5
203A0
331
2034C
  5
200DA
331
20442
  5
20368
331
202F9
  5
202E5
331
203C7
  5
200B9
331
1FEFC
  5
203BF
331
20374
  5
202C7
331
20422
  5
1FEFC
331
203FA
  5
1D8CE
331
20321
  5
2030D
331
2039C
  5
1FF8F
331
20417
  5
1FEF0
331
203EF
  5
1DFD9
331
200E2
  5
20448
331
20451
  5
20383
331
20308
  5
202F4
331
1FF0B
  5
203CE
331
20383
  5
202D6
331
1FF99
  5
203ED
331
20330
  5
2031C
331
203AB
  5
1FFA0
331
202D5
  5
2035E
331
202BD
  5
1FF08
331
200AF
  5
2041A
331
20426
  5
20333
331
1FEE0
  5
203A4
331
20350
  5
200DE
331
1FF8B
  5
203E1
331
203CB
  5
200BF
331
200D7
  5
2043D
331
20446
  5
20366
331
202FD
  5
202E9
331
1FF00
  5
203C3
331
20378
  5
202CB
331
1E7B7
  5
1FF0B
331
20325
  5
20311
331
1E9D7
  5
202DE
331
1DB95
  5
1E9E6
331
203FE
  5
1DB9D
331
200E6
  5
2044C
331
20455
  5
20381
331
2030C
  5
202F8
331
1FF0F
  5
203D2
331
20387
  5
202DA
331
1FF9D
  5
203F1
331
20334
  5
20320
331
202C1
  5
203FE
331
203AF
  5
1FFA4
331
20402
  5
1E9D6
331
2042A
  5
20331
331
1FEE4
  5
203A8
331
20354
  5
200E2
331
1FF8F
  5
203E5
331
203CF
  5
200C3
331
200DB
  5
20441
331
2044A
  5
20376
331
20301
  5
202ED
331
1FF04
  5
203C7
331
2037C
  5
202CF
331
1DB99
  5
1FEC3
331
200C2
  5
20429
331
20431
  5
2033E
331
202E8
  5
20337
331
1FEEB
  5
203AF
331
20363
  5
202B4
331
20310
  5
202FC
331
1FF13
  5
203D6
331
2038B
  5
1FF11
331
203DE
  5
1FEE8
331
1FFA1
  5
203F5
331
20338
  5
20324
331
202C5
  5
20402
331
202DD
  5
20352
331
203B3
  5
200A2
331
20406
  5
1E9D2
331
200B7
  5
20420
331
2042E
  5
20341
331
20358
  5
200E6
331
200DF
  5
20445
331
2044E
  5
20374
331
20305
  5
202F1
331
1DB9D
  5
1FEC7
331
200C6
  5
2042D
331
20435
  5
2034E
331
203BA
  5
200AA
331
1FEEF
  5
203B3
331
20367
  5
202B8
331
20126
  5
20450
331
20314
  5
20300
331
2038F
  5
1FF15
331
203E2
  5
1FED8
331
1FFA5
  5
203F9
331
1FEC4
  5
20389
331
2033C
  5
20328
331
200BB
  5
20424
331
203B7
  5
200A7
331
2035C
  5
20126
331
203D7
  5
1FEF4
331
2040A
  5
1FED6
331
202C8
  5
20405
331
200A2
  5
2040D
331
1FED3
  5
20398
331
20343
  5
200D0
331
200CA
  5
20431
331
20439
  5
2034C
331
202F0
  5
2032C
331
203BE
  5
200AE
331
1FEF3
  5
203B7
331
2036B
  5
202BE
331
2012A
  5
20454
331
20318
  5
20304
331
20393
  5
1FF85
331
20419
  5
1FEEC
331
1FEC8
  5
2038D
331
2040E
  5
1FEE5
331
200BF
  5
20426
331
1DBA5
  5
1FEC9
331
1FF90
  5
203E6
331
202B4
  5
20406
331
203A2
  5
1FF96
331
200A6
  5
20411
331
1FED7
  5
2039C
331
20347
  5
200D5
331
1FF82
  5
203D9
331
203C2
  5
200B2
331
2041D
  5
1FEFD
331
200CE
  5
20435
331
2043D
  5
2035C
331
1FEF7
  5
203BB
331
2036F
  5
202C2
331
202F4
  5
202E0
331
2031C
  5
20308
331
1E9CE
  5
200C7
331
20397
  5
1FF8A
331
1FECC
  5
20391
331
20412
  5
1FEDF
331
203EA
  5
1FECD
331
1FF94
  5
203E9
331
2032B
  5
20317
331
202B8
  5
2040A
331
202D0
  5
2036D
331
203A6
  5
1FF9B
331
200AA
  5
20415
331
1FEDB
  5
2039F
331
2034B
  5
200D9
331
1FF86
  5
203DD
331
203C6
  5
200B8
331
200D2
  5
20439
331
20441
  5
2036B
331
202F8
  5
202E4
331
20421
  5
1FEFB
331
1FEFB
  5
203BE
331
20373
  5
202C6
331
203F9
  5
1DB9A
331
20320
  5
2030C
331
2039B
  5
1FF8E
331
20416
  5
1FEEF
331
203EE
  5
1DF13
331
200E1
  5
20447
331
20450
  5
20382
331
1FF0A
  5
203CD
331
20382
  5
202D5
331
1FF98
  5
203EC
331
2032F
  5
2031B
331
203AA
  5
1FF9F
331
200AE
  5
20419
331
20425
  5
20336
331
1FEDF
  5
203A3
331
2034F
  5
200DD
331
1FF8A
  5
203E0
331
203CA
  5
200BE
331
200D6
  5
2043C
331
20445
  5
20365
331
202FC
  5
202E8
331
1FEFF
  5
203C2
331
20377
  5
202CA
331
1E7B6
  5
1FF0A
331
20324
  5
20310
331
1E9D6
  5
202DD
331
2039F
  5
1FF93
331
1DB94
  5
1E9E5
331
203FD
  5
1DB98
331
200E5
  5
2044B
331
20454
  5
20380
331
2030B
  5
202F7
331
1FF0E
  5
203D1
331
20386
  5
202D9
331
1FF9C
  5
203F0
331
20333
  5
2031F
331
202C0
  5
203FD
331
202D8
  5
20361
331
203AE
  5
1FFA3
331
20401
  5
1E9D5
331
200B2
  5
2041D
331
20429
  5
20330
331
1FEE3
  5
203A7
331
20353
  5
200E1
331
1FF8E
  5
203E4
331
203CE
  5
200C2
331
200DA
  5
20440
331
20449
  5
20375
331
20300
  5
202EC
331
1FF03
  5
203C6
331
2037B
  5
202CE
331
1DB98
  5
1F3FF
331
203F6
  5
1DB9B
331
200C1
  5
20428
331
20430
  5
2033D
331
1FEEA
  5
203AE
331
20362
  5
202B3
331
2030F
  5
202FB
331
1FF12
  5
203D5
331
2038A
  5
1FF10
331
203DD
  5
1FEE7
331
1FFA0
  5
203F4
331
20337
  5
20323
331
202C4
  5
20401
331
202DC
  5
20351
331
203B2
  5
1FFA7
331
20405
  5
1E9D1
331
200B6
  5
2041F
331
2042D
  5
20340
331
1FEE7
  5
203AB
331
20357
  5
200E5
331
200DE
  5
20444
331
2044D
  5
20373
331
20304
  5
202F0
331
1FF07
  5
203CA
331
2037F
  5
202D2
331
203D2
  5
1FF05
331
1DB9C
  5
1FEC6
331
200C5
  5
2042C
331
20434
  5
2034D
331
203B9
  5
200A9
331
1FEEE
  5
203B2
331
20366
  5
202B7
331
20125
  5
2044F
331
20313
  5
202FF
331
2038E
  5
1FF14
331
1FFA4
  5
203F8
331
1FEC3
  5
20388
331
2033B
  5
20327
331
200BA
  5
20423
331
203B6
  5
200A6
331
2035B
  5
20125
331
203D6
  5
1FEF3
331
20409
  5
1FED5
331
1FED2
  5
20397
331
20342
  5
200CF
331
200C9
  5
20430
331
20438
  5
2034B
331
202EF
  5
2032B
331
203BD
  5
200AD
331
1FEF2
  5
203B6
331
2036A
  5
202BD
331
20129
  5
20453
331
20317
  5
20303
331
20392
  5
1FF84
331
20418
  5
1FEF1
331
1FEC7
  5
2038C
331
202E4
  5
20346
331
2033F
  5
200CC
331
2040D
  5
1FED3
331
200BE
  5
20425
331
2035F
  5
20129
331
1DBA4
  5
1FEC8
331
1E9D8
  5
202DF
331
202CB
  5
2037B
331
203A1
  5
1FF95
331
200A5
  5
20410
331
1FED6
  5
2039B
331
20346
  5
200D4
331
200CD
  5
20434
331
2043C
  5
2035B
331
203C1
  5
200B1
331
2041C
  5
1FF00
331
1FEF6
  5
203BA
331
2036E
  5
202C1
331
2031B
  5
20307
331
1E9CD
  5
200C6
331
20396
  5
1FF89
331
1FECB
  5
20390
331
20411
  5
1FEE4
331
203E9
  5
1FECC
331
1FF93
  5
203E8
331
2032A
  5
20316
331
202B7
  5
20409
331
202CF
  5
2036C
331
203A5
  5
1FF9A
331
200A9
  5
20414
331
1FEDA
  5
2039E
331
2034A
  5
200D8
331
1FF85
  5
203DC
331
203C5
  5
200B7
331
200D1
  5
20438
331
20440
  5
20359
331
202F7
  5
202E3
331
20420
  5
1FEFA
331
1FEFA
  5
203BD
331
20372
  5
202C5
331
2031F
  5
2030B
331
1E9D1
  5
200CA
331
2039A
  5
1FF8D
331
1FECF
  5
20394
331
20415
  5
1FEF2
331
203F8
  5
1DB99
  0
SORTENTSTABLE
  5
59C
102
{ACAD_REACTORS
330
59B
102
}
330
59B
100
AcDbSortentsTable
330
15
331
57
  5
57
  0
XRECORD
  5
20477
102
{ACAD_REACTORS
330
20476
102
}
330
20476
100
AcDbXrecord
280
     1
102
SHADEPLOT
 70
     0
  0
GROUP
  5
5EE
102
{ACAD_REACTORS
330
D
102
}
330
D
100
AcDbGroup
300

 70
     1
 71
     1
  0
GROUP
  5
F127
102
{ACAD_REACTORS
330
D
102
}
330
D
100
AcDbGroup
300

 70
     1
 71
     1
  0
GROUP
  5
1EBE1
102
{ACAD_REACTORS
330
D
102
}
330
D
100
AcDbGroup
300

 70
     1
 71
     1
  0
GROUP
  5
F500
102
{ACAD_REACTORS
330
D
102
}
330
D
100
AcDbGroup
300

 70
     1
 71
     1
  0
GROUP
  5
F15A
102
{ACAD_REACTORS
330
D
102
}
330
D
100
AcDbGroup
300

 70
     1
 71
     1
  0
GROUP
  5
14864
102
{ACAD_REACTORS
330
D
102
}
330
D
100
AcDbGroup
300

 70
     1
 71
     1
  0
GROUP
  5
FC3E
102
{ACAD_REACTORS
330
D
102
}
330
D
100
AcDbGroup
300

 70
     1
 71
     1
  0
GROUP
  5
14C1D
102
{ACAD_REACTORS
330
D
102
}
330
D
100
AcDbGroup
300

 70
     1
 71
     1
  0
GROUP
  5
E0AF
102
{ACAD_REACTORS
330
D
102
}
330
D
100
AcDbGroup
300

 70
     1
 71
     1
  0
GROUP
  5
13E92
102
{ACAD_REACTORS
330
D
102
}
330
D
100
AcDbGroup
300

 70
     1
 71
     1
  0
GROUP
  5
F8B5
102
{ACAD_REACTORS
330
D
102
}
330
D
100
AcDbGroup
300

 70
     1
 71
     1
  0
GROUP
  5
67C9
102
{ACAD_REACTORS
330
D
102
}
330
D
100
AcDbGroup
300

 70
     1
 71
     1
  0
GROUP
  5
DC31
102
{ACAD_REACTORS
330
D
102
}
330
D
100
AcDbGroup
300

 70
     1
 71
     1
  0
GROUP
  5
14673
102
{ACAD_REACTORS
330
D
102
}
330
D
100
AcDbGroup
300

 70
     1
 71
     1
  0
GROUP
  5
F130
102
{ACAD_REACTORS
330
D
102
}
330
D
100
AcDbGroup
300

 70
     1
 71
     1
  0
GROUP
  5
13E95
102
{ACAD_REACTORS
330
D
102
}
330
D
100
AcDbGroup
300

 70
     1
 71
     1
  0
GROUP
  5
F4F7
102
{ACAD_REACTORS
330
D
102
}
330
D
100
AcDbGroup
300

 70
     1
 71
     1
  0
GROUP
  5
81B5
102
{ACAD_REACTORS
330
D
102
}
330
D
100
AcDbGroup
300

 70
     1
 71
     1
  0
GROUP
  5
14B8C
102
{ACAD_REACTORS
330
D
102
}
330
D
100
AcDbGroup
300

 70
     1
 71
     1
  0
GROUP
  5
1C6AC
102
{ACAD_REACTORS
330
D
102
}
330
D
100
AcDbGroup
300

 70
     1
 71
     1
  0
GROUP
  5
BB97
102
{ACAD_REACTORS
330
D
102
}
330
D
100
AcDbGroup
300

 70
     1
 71
     1
  0
GROUP
  5
124E1
102
{ACAD_REACTORS
330
D
102
}
330
D
100
AcDbGroup
300

 70
     1
 71
     1
  0
GROUP
  5
13C9D
102
{ACAD_REACTORS
330
D
102
}
330
D
100
AcDbGroup
300

 70
     1
 71
     1
  0
GROUP
  5
F8AB
102
{ACAD_REACTORS
330
D
102
}
330
D
100
AcDbGroup
300

 70
     1
 71
     1
  0
GROUP
  5
1C66F
102
{ACAD_REACTORS
330
D
102
}
330
D
100
AcDbGroup
300

 70
     1
 71
     1
  0
GROUP
  5
F8AD
102
{ACAD_REACTORS
330
D
102
}
330
D
100
AcDbGroup
300

 70
     1
 71
     1
  0
GROUP
  5
FC47
102
{ACAD_REACTORS
330
D
102
}
330
D
100
AcDbGroup
300

 70
     1
 71
     1
  0
GROUP
  5
FC3C
102
{ACAD_REACTORS
330
D
102
}
330
D
100
AcDbGroup
300

 70
     1
 71
     1
  0
GROUP
  5
F8B4
102
{ACAD_REACTORS
330
D
102
}
330
D
100
AcDbGroup
300

 70
     1
 71
     1
  0
GROUP
  5
FC40
102
{ACAD_REACTORS
330
D
102
}
330
D
100
AcDbGroup
300

 70
     1
 71
     1
  0
GROUP
  5
F0D2
102
{ACAD_REACTORS
330
D
102
}
330
D
100
AcDbGroup
300

 70
     1
 71
     1
  0
GROUP
  5
F0D4
102
{ACAD_REACTORS
330
D
102
}
330
D
100
AcDbGroup
300

 70
     1
 71
     1
  0
GROUP
  5
743D
102
{ACAD_REACTORS
330
D
102
}
330
D
100
AcDbGroup
300

 70
     1
 71
     1
  0
GROUP
  5
193C4
102
{ACAD_REACTORS
330
D
102
}
330
D
100
AcDbGroup
300

 70
     1
 71
     1
  0
GROUP
  5
DC1D
102
{ACAD_REACTORS
330
D
102
}
330
D
100
AcDbGroup
300

 70
     1
 71
     1
  0
GROUP
  5
F102
102
{ACAD_REACTORS
330
D
102
}
330
D
100
AcDbGroup
300

 70
     1
 71
     1
  0
GROUP
  5
F8AE
102
{ACAD_REACTORS
330
D
102
}
330
D
100
AcDbGroup
300

 70
     1
 71
     1
  0
GROUP
  5
124E4
102
{ACAD_REACTORS
330
D
102
}
330
D
100
AcDbGroup
300

 70
     1
 71
     1
  0
GROUP
  5
1568E
102
{ACAD_REACTORS
330
D
102
}
330
D
100
AcDbGroup
300

 70
     1
 71
     1
  0
GROUP
  5
81E5
102
{ACAD_REACTORS
330
D
102
}
330
D
100
AcDbGroup
300

 70
     1
 71
     1
  0
GROUP
  5
13CA0
102
{ACAD_REACTORS
330
D
102
}
330
D
100
AcDbGroup
300

 70
     1
 71
     1
  0
GROUP
  5
1499
102
{ACAD_REACTORS
330
D
102
}
330
D
100
AcDbGroup
300

 70
     1
 71
     1
  0
GROUP
  5
1A10A
102
{ACAD_REACTORS
330
D
102
}
330
D
100
AcDbGroup
300

 70
     1
 71
     1
  0
GROUP
  5
1A145
102
{ACAD_REACTORS
330
D
102
}
330
D
100
AcDbGroup
300

 70
     1
 71
     1
  0
GROUP
  5
10E82
102
{ACAD_REACTORS
330
D
102
}
330
D
100
AcDbGroup
300

 70
     1
 71
     1
  0
GROUP
  5
FC39
102
{ACAD_REACTORS
330
D
102
}
330
D
100
AcDbGroup
300

 70
     1
 71
     1
  0
GROUP
  5
F0D5
102
{ACAD_REACTORS
330
D
102
}
330
D
100
AcDbGroup
300

 70
     1
 71
     1
  0
GROUP
  5
15FDF
102
{ACAD_REACTORS
330
D
102
}
330
D
100
AcDbGroup
300

 70
     1
 71
     1
  0
GROUP
  5
F148
102
{ACAD_REACTORS
330
D
102
}
330
D
100
AcDbGroup
300

 70
     1
 71
     1
  0
GROUP
  5
14C18
102
{ACAD_REACTORS
330
D
102
}
330
D
100
AcDbGroup
300

 70
     1
 71
     1
  0
GROUP
  5
1EBE2
102
{ACAD_REACTORS
330
D
102
}
330
D
100
AcDbGroup
300

 70
     1
 71
     1
  0
GROUP
  5
81B7
102
{ACAD_REACTORS
330
D
102
}
330
D
100
AcDbGroup
300

 70
     1
 71
     1
  0
GROUP
  5
F4F6
102
{ACAD_REACTORS
330
D
102
}
330
D
100
AcDbGroup
300

 70
     1
 71
     1
  0
GROUP
  5
F8B9
102
{ACAD_REACTORS
330
D
102
}
330
D
100
AcDbGroup
300

 70
     1
 71
     1
  0
GROUP
  5
11E9B
102
{ACAD_REACTORS
330
D
102
}
330
D
100
AcDbGroup
300

 70
     1
 71
     1
  0
GROUP
  5
16F01
102
{ACAD_REACTORS
330
D
102
}
330
D
100
AcDbGroup
300

 70
     1
 71
     1
  0
GROUP
  5
14C1A
102
{ACAD_REACTORS
330
D
102
}
330
D
100
AcDbGroup
300

 70
     1
 71
     1
  0
GROUP
  5
124E7
102
{ACAD_REACTORS
330
D
102
}
330
D
100
AcDbGroup
300

 70
     1
 71
     1
  0
GROUP
  5
81C0
102
{ACAD_REACTORS
330
D
102
}
330
D
100
AcDbGroup
300

 70
     1
 71
     1
  0
GROUP
  5
1EF1B
102
{ACAD_REACTORS
330
D
102
}
330
D
100
AcDbGroup
300

 70
     1
 71
     1
  0
GROUP
  5
81AC
102
{ACAD_REACTORS
330
D
102
}
330
D
100
AcDbGroup
300

 70
     1
 71
     1
  0
GROUP
  5
FC4A
102
{ACAD_REACTORS
330
D
102
}
330
D
100
AcDbGroup
300

 70
     1
 71
     1
  0
GROUP
  5
124DF
102
{ACAD_REACTORS
330
D
102
}
330
D
100
AcDbGroup
300

 70
     1
 71
     1
  0
GROUP
  5
1EBDE
102
{ACAD_REACTORS
330
D
102
}
330
D
100
AcDbGroup
300

 70
     1
 71
     1
  0
GROUP
  5
F151
102
{ACAD_REACTORS
330
D
102
}
330
D
100
AcDbGroup
300

 70
     1
 71
     1
  0
GROUP
  5
81AF
102
{ACAD_REACTORS
330
D
102
}
330
D
100
AcDbGroup
300

 70
     1
 71
     1
  0
GROUP
  5
E0B5
102
{ACAD_REACTORS
330
D
102
}
330
D
100
AcDbGroup
300

 70
     1
 71
     1
  0
GROUP
  5
81AB
102
{ACAD_REACTORS
330
D
102
}
330
D
100
AcDbGroup
300

 70
     1
 71
     1
  0
GROUP
  5
DFC2
102
{ACAD_REACTORS
330
D
102
}
330
D
100
AcDbGroup
300

 70
     1
 71
     1
  0
GROUP
  5
DC1C
102
{ACAD_REACTORS
330
D
102
}
330
D
100
AcDbGroup
300

 70
     1
 71
     1
  0
GROUP
  5
14C1B
102
{ACAD_REACTORS
330
D
102
}
330
D
100
AcDbGroup
300

 70
     1
 71
     1
  0
GROUP
  5
124E5
102
{ACAD_REACTORS
330
D
102
}
330
D
100
AcDbGroup
300

 70
     1
 71
     1
  0
GROUP
  5
F0D3
102
{ACAD_REACTORS
330
D
102
}
330
D
100
AcDbGroup
300

 70
     1
 71
     1
  0
GROUP
  5
F8BB
102
{ACAD_REACTORS
330
D
102
}
330
D
100
AcDbGroup
300

 70
     1
 71
     1
  0
GROUP
  5
1C374
102
{ACAD_REACTORS
330
D
102
}
330
D
100
AcDbGroup
300

 70
     1
 71
     1
  0
GROUP
  5
FC44
102
{ACAD_REACTORS
330
D
102
}
330
D
100
AcDbGroup
300

 70
     1
 71
     1
  0
GROUP
  5
1497
102
{ACAD_REACTORS
330
D
102
}
330
D
100
AcDbGroup
300

 70
     1
 71
     1
  0
GROUP
  5
1EF02
102
{ACAD_REACTORS
330
D
102
}
330
D
100
AcDbGroup
300

 70
     1
 71
     1
  0
GROUP
  5
F8AC
102
{ACAD_REACTORS
330
D
102
}
330
D
100
AcDbGroup
300

 70
     1
 71
     1
  0
GROUP
  5
1EF03
102
{ACAD_REACTORS
330
D
102
}
330
D
100
AcDbGroup
300

 70
     1
 71
     1
  0
GROUP
  5
1EF04
102
{ACAD_REACTORS
330
D
102
}
330
D
100
AcDbGroup
300

 70
     1
 71
     1
  0
GROUP
  5
1EF05
102
{ACAD_REACTORS
330
D
102
}
330
D
100
AcDbGroup
300

 70
     1
 71
     1
  0
GROUP
  5
10E81
102
{ACAD_REACTORS
330
D
102
}
330
D
100
AcDbGroup
300

 70
     1
 71
     1
  0
GROUP
  5
14520
102
{ACAD_REACTORS
330
D
102
}
330
D
100
AcDbGroup
300

 70
     1
 71
     1
  0
GROUP
  5
14B86
102
{ACAD_REACTORS
330
D
102
}
330
D
100
AcDbGroup
300

 70
     1
 71
     1
  0
GROUP
  5
1FBA4
102
{ACAD_REACTORS
330
D
102
}
330
D
100
AcDbGroup
300

 70
     1
 71
     1
  0
GROUP
  5
1EF06
102
{ACAD_REACTORS
330
D
102
}
330
D
100
AcDbGroup
300

 70
     1
 71
     1
  0
GROUP
  5
1177F
102
{ACAD_REACTORS
330
D
102
}
330
D
100
AcDbGroup
300

 70
     1
 71
     1
  0
GROUP
  5
F4FC
102
{ACAD_REACTORS
330
D
102
}
330
D
100
AcDbGroup
300

 70
     1
 71
     1
  0
GROUP
  5
DB60
102
{ACAD_REACTORS
330
D
102
}
330
D
100
AcDbGroup
300

 70
     1
 71
     1
  0
GROUP
  5
F505
102
{ACAD_REACTORS
330
D
102
}
330
D
100
AcDbGroup
300

 70
     1
 71
     1
  0
GROUP
  5
F0DB
102
{ACAD_REACTORS
330
D
102
}
330
D
100
AcDbGroup
300

 70
     1
 71
     1
  0
GROUP
  5
109FB
102
{ACAD_REACTORS
330
D
102
}
330
D
100
AcDbGroup
300

 70
     1
 71
     1
  0
GROUP
  5
FC4B
102
{ACAD_REACTORS
330
D
102
}
330
D
100
AcDbGroup
300

 70
     1
 71
     1
  0
GROUP
  5
FC43
102
{ACAD_REACTORS
330
D
102
}
330
D
100
AcDbGroup
300

 70
     1
 71
     1
  0
GROUP
  5
14B8B
102
{ACAD_REACTORS
330
D
102
}
330
D
100
AcDbGroup
300

 70
     1
 71
     1
  0
GROUP
  5
10AD2
102
{ACAD_REACTORS
330
D
102
}
330
D
100
AcDbGroup
300

 70
     1
 71
     1
  0
GROUP
  5
F8B1
102
{ACAD_REACTORS
330
D
102
}
330
D
100
AcDbGroup
300

 70
     1
 71
     1
  0
GROUP
  5
14865
102
{ACAD_REACTORS
330
D
102
}
330
D
100
AcDbGroup
300

 70
     1
 71
     1
  0
GROUP
  5
1C411
102
{ACAD_REACTORS
330
D
102
}
330
D
100
AcDbGroup
300

 70
     1
 71
     1
  0
GROUP
  5
1195B
102
{ACAD_REACTORS
330
D
102
}
330
D
100
AcDbGroup
300

 70
     1
 71
     1
  0
GROUP
  5
1195C
102
{ACAD_REACTORS
330
D
102
}
330
D
100
AcDbGroup
300

 70
     1
 71
     1
  0
GROUP
  5
F8BD
102
{ACAD_REACTORS
330
D
102
}
330
D
100
AcDbGroup
300

 70
     1
 71
     1
  0
GROUP
  5
DFC3
102
{ACAD_REACTORS
330
D
102
}
330
D
100
AcDbGroup
300

 70
     1
 71
     1
  0
GROUP
  5
14B89
102
{ACAD_REACTORS
330
D
102
}
330
D
100
AcDbGroup
300

 70
     1
 71
     1
  0
GROUP
  5
16F00
102
{ACAD_REACTORS
330
D
102
}
330
D
100
AcDbGroup
300

 70
     1
 71
     1
  0
GROUP
  5
81B6
102
{ACAD_REACTORS
330
D
102
}
330
D
100
AcDbGroup
300

 70
     1
 71
     1
  0
GROUP
  5
FC49
102
{ACAD_REACTORS
330
D
102
}
330
D
100
AcDbGroup
300

 70
     1
 71
     1
  0
GROUP
  5
14B82
102
{ACAD_REACTORS
330
D
102
}
330
D
100
AcDbGroup
300

 70
     1
 71
     1
  0
GROUP
  5
1C44B
102
{ACAD_REACTORS
330
D
102
}
330
D
100
AcDbGroup
300

 70
     1
 71
     1
  0
GROUP
  5
F13A
102
{ACAD_REACTORS
330
D
102
}
330
D
100
AcDbGroup
300

 70
     1
 71
     1
  0
GROUP
  5
11794
102
{ACAD_REACTORS
330
D
102
}
330
D
100
AcDbGroup
300

 70
     1
 71
     1
  0
GROUP
  5
1568C
102
{ACAD_REACTORS
330
D
102
}
330
D
100
AcDbGroup
300

 70
     1
 71
     1
  0
GROUP
  5
1BE8E
102
{ACAD_REACTORS
330
D
102
}
330
D
100
AcDbGroup
300

 70
     1
 71
     1
  0
GROUP
  5
81BB
102
{ACAD_REACTORS
330
D
102
}
330
D
100
AcDbGroup
300

 70
     1
 71
     1
  0
GROUP
  5
F8BC
102
{ACAD_REACTORS
330
D
102
}
330
D
100
AcDbGroup
300

 70
     1
 71
     1
  0
GROUP
  5
F6A
102
{ACAD_REACTORS
330
D
102
}
330
D
100
AcDbGroup
300

 70
     1
 71
     1
  0
GROUP
  5
1E9DA
102
{ACAD_REACTORS
330
D
102
}
330
D
100
AcDbGroup
300

 70
     1
 71
     1
340
1E9D8
340
1E9D7
340
1E9D6
340
1E9D5
340
1E9D4
  0
GROUP
  5
17881
102
{ACAD_REACTORS
330
D
102
}
330
D
100
AcDbGroup
300

 70
     1
 71
     1
  0
GROUP
  5
DB9F
102
{ACAD_REACTORS
330
D
102
}
330
D
100
AcDbGroup
300

 70
     1
 71
     1
  0
GROUP
  5
1EDFD
102
{ACAD_REACTORS
330
D
102
}
330
D
100
AcDbGroup
300

 70
     1
 71
     1
340
1DBA6
340
1DBA5
340
1DBA4
  0
GROUP
  5
15537
102
{ACAD_REACTORS
330
D
102
}
330
D
100
AcDbGroup
300

 70
     1
 71
     1
  0
GROUP
  5
16EFF
102
{ACAD_REACTORS
330
D
102
}
330
D
100
AcDbGroup
300

 70
     1
 71
     1
  0
GROUP
  5
81BF
102
{ACAD_REACTORS
330
D
102
}
330
D
100
AcDbGroup
300

 70
     1
 71
     1
  0
GROUP
  5
14B84
102
{ACAD_REACTORS
330
D
102
}
330
D
100
AcDbGroup
300

 70
     1
 71
     1
  0
GROUP
  5
FC41
102
{ACAD_REACTORS
330
D
102
}
330
D
100
AcDbGroup
300

 70
     1
 71
     1
  0
GROUP
  5
124E3
102
{ACAD_REACTORS
330
D
102
}
330
D
100
AcDbGroup
300

 70
     1
 71
     1
  0
GROUP
  5
7440
102
{ACAD_REACTORS
330
D
102
}
330
D
100
AcDbGroup
300

 70
     1
 71
     1
  0
GROUP
  5
14C19
102
{ACAD_REACTORS
330
D
102
}
330
D
100
AcDbGroup
300

 70
     1
 71
     1
  0
GROUP
  5
DF09
102
{ACAD_REACTORS
330
D
102
}
330
D
100
AcDbGroup
300

 70
     1
 71
     1
  0
GROUP
  5
F0D6
102
{ACAD_REACTORS
330
D
102
}
330
D
100
AcDbGroup
300

 70
     1
 71
     1
  0
GROUP
  5
FC42
102
{ACAD_REACTORS
330
D
102
}
330
D
100
AcDbGroup
300

 70
     1
 71
     1
  0
GROUP
  5
11959
102
{ACAD_REACTORS
330
D
102
}
330
D
100
AcDbGroup
300

 70
     1
 71
     1
  0
GROUP
  5
1068E
102
{ACAD_REACTORS
330
D
102
}
330
D
100
AcDbGroup
300

 70
     1
 71
     1
  0
GROUP
  5
81C1
102
{ACAD_REACTORS
330
D
102
}
330
D
100
AcDbGroup
300

 70
     1
 71
     1
  0
GROUP
  5
1E7BB
102
{ACAD_REACTORS
330
D
102
}
330
D
100
AcDbGroup
300

 70
     1
 71
     1
340
1E7B9
340
1E7B8
340
1E7B7
340
1E7B6
340
1E7B5
  0
GROUP
  5
13C9F
102
{ACAD_REACTORS
330
D
102
}
330
D
100
AcDbGroup
300

 70
     1
 71
     1
  0
GROUP
  5
124DE
102
{ACAD_REACTORS
330
D
102
}
330
D
100
AcDbGroup
300

 70
     1
 71
     1
  0
GROUP
  5
1E9D3
102
{ACAD_REACTORS
330
D
102
}
330
D
100
AcDbGroup
300

 70
     1
 71
     1
340
1E9D1
340
1E9D0
340
1E9CF
340
1E9CE
340
1E9CD
  0
GROUP
  5
81BC
102
{ACAD_REACTORS
330
D
102
}
330
D
100
AcDbGroup
300

 70
     1
 71
     1
  0
GROUP
  5
F4F8
102
{ACAD_REACTORS
330
D
102
}
330
D
100
AcDbGroup
300

 70
     1
 71
     1
  0
GROUP
  5
81C2
102
{ACAD_REACTORS
330
D
102
}
330
D
100
AcDbGroup
300

 70
     1
 71
     1
  0
GROUP
  5
DC05
102
{ACAD_REACTORS
330
D
102
}
330
D
100
AcDbGroup
300

 70
     1
 71
     1
  0
GROUP
  5
14859
102
{ACAD_REACTORS
330
D
102
}
330
D
100
AcDbGroup
300

 70
     1
 71
     1
  0
GROUP
  5
F0DE
102
{ACAD_REACTORS
330
D
102
}
330
D
100
AcDbGroup
300

 70
     1
 71
     1
  0
GROUP
  5
1568D
102
{ACAD_REACTORS
330
D
102
}
330
D
100
AcDbGroup
300

 70
     1
 71
     1
  0
GROUP
  5
81E7
102
{ACAD_REACTORS
330
D
102
}
330
D
100
AcDbGroup
300

 70
     1
 71
     1
  0
GROUP
  5
81BA
102
{ACAD_REACTORS
330
D
102
}
330
D
100
AcDbGroup
300

 70
     1
 71
     1
  0
GROUP
  5
11E77
102
{ACAD_REACTORS
330
D
102
}
330
D
100
AcDbGroup
300

 70
     1
 71
     1
  0
GROUP
  5
F4FD
102
{ACAD_REACTORS
330
D
102
}
330
D
100
AcDbGroup
300

 70
     1
 71
     1
  0
GROUP
  5
81E6
102
{ACAD_REACTORS
330
D
102
}
330
D
100
AcDbGroup
300

 70
     1
 71
     1
  0
GROUP
  5
6E39
102
{ACAD_REACTORS
330
D
102
}
330
D
100
AcDbGroup
300

 70
     1
 71
     1
  0
GROUP
  5
81B1
102
{ACAD_REACTORS
330
D
102
}
330
D
100
AcDbGroup
300

 70
     1
 71
     1
  0
GROUP
  5
17882
102
{ACAD_REACTORS
330
D
102
}
330
D
100
AcDbGroup
300

 70
     1
 71
     1
  0
GROUP
  5
15690
102
{ACAD_REACTORS
330
D
102
}
330
D
100
AcDbGroup
300

 70
     1
 71
     1
  0
GROUP
  5
1451D
102
{ACAD_REACTORS
330
D
102
}
330
D
100
AcDbGroup
300

 70
     1
 71
     1
  0
GROUP
  5
F0DC
102
{ACAD_REACTORS
330
D
102
}
330
D
100
AcDbGroup
300

 70
     1
 71
     1
  0
GROUP
  5
124E2
102
{ACAD_REACTORS
330
D
102
}
330
D
100
AcDbGroup
300

 70
     1
 71
     1
  0
GROUP
  5
FC3D
102
{ACAD_REACTORS
330
D
102
}
330
D
100
AcDbGroup
300

 70
     1
 71
     1
  0
GROUP
  5
120AE
102
{ACAD_REACTORS
330
D
102
}
330
D
100
AcDbGroup
300

 70
     1
 71
     1
  0
GROUP
  5
120AF
102
{ACAD_REACTORS
330
D
102
}
330
D
100
AcDbGroup
300

 70
     1
 71
     1
  0
GROUP
  5
F0D1
102
{ACAD_REACTORS
330
D
102
}
330
D
100
AcDbGroup
300

 70
     1
 71
     1
  0
GROUP
  5
FC3F
102
{ACAD_REACTORS
330
D
102
}
330
D
100
AcDbGroup
300

 70
     1
 71
     1
  0
GROUP
  5
1CDCE
102
{ACAD_REACTORS
330
D
102
}
330
D
100
AcDbGroup
300

 70
     1
 71
     1
  0
GROUP
  5
1EF07
102
{ACAD_REACTORS
330
D
102
}
330
D
100
AcDbGroup
300

 70
     1
 71
     1
  0
GROUP
  5
FC3B
102
{ACAD_REACTORS
330
D
102
}
330
D
100
AcDbGroup
300

 70
     1
 71
     1
  0
GROUP
  5
14B85
102
{ACAD_REACTORS
330
D
102
}
330
D
100
AcDbGroup
300

 70
     1
 71
     1
  0
GROUP
  5
F11E
102
{ACAD_REACTORS
330
D
102
}
330
D
100
AcDbGroup
300

 70
     1
 71
     1
  0
GROUP
  5
F0D0
102
{ACAD_REACTORS
330
D
102
}
330
D
100
AcDbGroup
300

 70
     1
 71
     1
  0
GROUP
  5
81C3
102
{ACAD_REACTORS
330
D
102
}
330
D
100
AcDbGroup
300

 70
     1
 71
     1
  0
GROUP
  5
F4F9
102
{ACAD_REACTORS
330
D
102
}
330
D
100
AcDbGroup
300

 70
     1
 71
     1
  0
GROUP
  5
10AA0
102
{ACAD_REACTORS
330
D
102
}
330
D
100
AcDbGroup
300

 70
     1
 71
     1
  0
GROUP
  5
1EE53
102
{ACAD_REACTORS
330
D
102
}
330
D
100
AcDbGroup
300

 70
     1
 71
     1
  0
GROUP
  5
14B8A
102
{ACAD_REACTORS
330
D
102
}
330
D
100
AcDbGroup
300

 70
     1
 71
     1
  0
GROUP
  5
14B88
102
{ACAD_REACTORS
330
D
102
}
330
D
100
AcDbGroup
300

 70
     1
 71
     1
  0
GROUP
  5
DF07
102
{ACAD_REACTORS
330
D
102
}
330
D
100
AcDbGroup
300

 70
     1
 71
     1
  0
GROUP
  5
1486B
102
{ACAD_REACTORS
330
D
102
}
330
D
100
AcDbGroup
300

 70
     1
 71
     1
  0
GROUP
  5
FC46
102
{ACAD_REACTORS
330
D
102
}
330
D
100
AcDbGroup
300

 70
     1
 71
     1
  0
GROUP
  5
1EBE0
102
{ACAD_REACTORS
330
D
102
}
330
D
100
AcDbGroup
300

 70
     1
 71
     1
  0
GROUP
  5
13E93
102
{ACAD_REACTORS
330
D
102
}
330
D
100
AcDbGroup
300

 70
     1
 71
     1
  0
GROUP
  5
1178D
102
{ACAD_REACTORS
330
D
102
}
330
D
100
AcDbGroup
300

 70
     1
 71
     1
  0
GROUP
  5
F4FE
102
{ACAD_REACTORS
330
D
102
}
330
D
100
AcDbGroup
300

 70
     1
 71
     1
  0
GROUP
  5
67CB
102
{ACAD_REACTORS
330
D
102
}
330
D
100
AcDbGroup
300

 70
     1
 71
     1
  0
GROUP
  5
1195E
102
{ACAD_REACTORS
330
D
102
}
330
D
100
AcDbGroup
300

 70
     1
 71
     1
  0
GROUP
  5
81B8
102
{ACAD_REACTORS
330
D
102
}
330
D
100
AcDbGroup
300

 70
     1
 71
     1
  0
GROUP
  5
F69
102
{ACAD_REACTORS
330
D
102
}
330
D
100
AcDbGroup
300

 70
     1
 71
     1
  0
GROUP
  5
11960
102
{ACAD_REACTORS
330
D
102
}
330
D
100
AcDbGroup
300

 70
     1
 71
     1
  0
GROUP
  5
F0CE
102
{ACAD_REACTORS
330
D
102
}
330
D
100
AcDbGroup
300

 70
     1
 71
     1
  0
GROUP
  5
81AE
102
{ACAD_REACTORS
330
D
102
}
330
D
100
AcDbGroup
300

 70
     1
 71
     1
  0
GROUP
  5
81E8
102
{ACAD_REACTORS
330
D
102
}
330
D
100
AcDbGroup
300

 70
     1
 71
     1
  0
GROUP
  5
11319
102
{ACAD_REACTORS
330
D
102
}
330
D
100
AcDbGroup
300

 70
     1
 71
     1
  0
GROUP
  5
14D24
102
{ACAD_REACTORS
330
D
102
}
330
D
100
AcDbGroup
300

 70
     1
 71
     1
  0
GROUP
  5
1451F
102
{ACAD_REACTORS
330
D
102
}
330
D
100
AcDbGroup
300

 70
     1
 71
     1
  0
GROUP
  5
1EBDF
102
{ACAD_REACTORS
330
D
102
}
330
D
100
AcDbGroup
300

 70
     1
 71
     1
  0
GROUP
  5
F501
102
{ACAD_REACTORS
330
D
102
}
330
D
100
AcDbGroup
300

 70
     1
 71
     1
  0
GROUP
  5
F8B6
102
{ACAD_REACTORS
330
D
102
}
330
D
100
AcDbGroup
300

 70
     1
 71
     1
  0
GROUP
  5
AC77
102
{ACAD_REACTORS
330
D
102
}
330
D
100
AcDbGroup
300

 70
     1
 71
     1
  0
GROUP
  5
81B4
102
{ACAD_REACTORS
330
D
102
}
330
D
100
AcDbGroup
300

 70
     1
 71
     1
  0
GROUP
  5
81B2
102
{ACAD_REACTORS
330
D
102
}
330
D
100
AcDbGroup
300

 70
     1
 71
     1
  0
GROUP
  5
81AD
102
{ACAD_REACTORS
330
D
102
}
330
D
100
AcDbGroup
300

 70
     1
 71
     1
  0
GROUP
  5
1E9F2
102
{ACAD_REACTORS
330
D
102
}
330
D
100
AcDbGroup
300

 70
     1
 71
     1
  0
GROUP
  5
81B9
102
{ACAD_REACTORS
330
D
102
}
330
D
100
AcDbGroup
300

 70
     1
 71
     1
  0
GROUP
  5
1E9F1
102
{ACAD_REACTORS
330
D
102
}
330
D
100
AcDbGroup
300

 70
     1
 71
     1
  0
GROUP
  5
F10B
102
{ACAD_REACTORS
330
D
102
}
330
D
100
AcDbGroup
300

 70
     1
 71
     1
  0
GROUP
  5
14C1C
102
{ACAD_REACTORS
330
D
102
}
330
D
100
AcDbGroup
300

 70
     1
 71
     1
  0
GROUP
  5
1EF16
102
{ACAD_REACTORS
330
D
102
}
330
D
100
AcDbGroup
300

 70
     1
 71
     1
  0
GROUP
  5
F8BA
102
{ACAD_REACTORS
330
D
102
}
330
D
100
AcDbGroup
300

 70
     1
 71
     1
  0
GROUP
  5
81BD
102
{ACAD_REACTORS
330
D
102
}
330
D
100
AcDbGroup
300

 70
     1
 71
     1
  0
GROUP
  5
F4FB
102
{ACAD_REACTORS
330
D
102
}
330
D
100
AcDbGroup
300

 70
     1
 71
     1
  0
GROUP
  5
743F
102
{ACAD_REACTORS
330
D
102
}
330
D
100
AcDbGroup
300

 70
     1
 71
     1
  0
GROUP
  5
14B83
102
{ACAD_REACTORS
330
D
102
}
330
D
100
AcDbGroup
300

 70
     1
 71
     1
  0
GROUP
  5
F8AF
102
{ACAD_REACTORS
330
D
102
}
330
D
100
AcDbGroup
300

 70
     1
 71
     1
  0
GROUP
  5
F8B7
102
{ACAD_REACTORS
330
D
102
}
330
D
100
AcDbGroup
300

 70
     1
 71
     1
  0
GROUP
  5
15212
102
{ACAD_REACTORS
330
D
102
}
330
D
100
AcDbGroup
300

 70
     1
 71
     1
  0
GROUP
  5
F503
102
{ACAD_REACTORS
330
D
102
}
330
D
100
AcDbGroup
300

 70
     1
 71
     1
  0
GROUP
  5
1CCF7
102
{ACAD_REACTORS
330
D
102
}
330
D
100
AcDbGroup
300

 70
     1
 71
     1
  0
GROUP
  5
1CCF6
102
{ACAD_REACTORS
330
D
102
}
330
D
100
AcDbGroup
300

 70
     1
 71
     1
  0
GROUP
  5
11786
102
{ACAD_REACTORS
330
D
102
}
330
D
100
AcDbGroup
300

 70
     1
 71
     1
  0
GROUP
  5
12035
102
{ACAD_REACTORS
330
D
102
}
330
D
100
AcDbGroup
300

 70
     1
 71
     1
  0
GROUP
  5
15538
102
{ACAD_REACTORS
330
D
102
}
330
D
100
AcDbGroup
300

 70
     1
 71
     1
  0
GROUP
  5
1BE4C
102
{ACAD_REACTORS
330
D
102
}
330
D
100
AcDbGroup
300

 70
     1
 71
     1
  0
GROUP
  5
13E96
102
{ACAD_REACTORS
330
D
102
}
330
D
100
AcDbGroup
300

 70
     1
 71
     1
  0
GROUP
  5
81B0
102
{ACAD_REACTORS
330
D
102
}
330
D
100
AcDbGroup
300

 70
     1
 71
     1
  0
GROUP
  5
13E94
102
{ACAD_REACTORS
330
D
102
}
330
D
100
AcDbGroup
300

 70
     1
 71
     1
  0
GROUP
  5
16F02
102
{ACAD_REACTORS
330
D
102
}
330
D
100
AcDbGroup
300

 70
     1
 71
     1
  0
GROUP
  5
F8B2
102
{ACAD_REACTORS
330
D
102
}
330
D
100
AcDbGroup
300

 70
     1
 71
     1
  0
GROUP
  5
14703
102
{ACAD_REACTORS
330
D
102
}
330
D
100
AcDbGroup
300

 70
     1
 71
     1
  0
GROUP
  5
DB59
102
{ACAD_REACTORS
330
D
102
}
330
D
100
AcDbGroup
300

 70
     1
 71
     1
  0
GROUP
  5
1496
102
{ACAD_REACTORS
330
D
102
}
330
D
100
AcDbGroup
300

 70
     1
 71
     1
  0
GROUP
  5
DF0A
102
{ACAD_REACTORS
330
D
102
}
330
D
100
AcDbGroup
300

 70
     1
 71
     1
  0
GROUP
  5
14702
102
{ACAD_REACTORS
330
D
102
}
330
D
100
AcDbGroup
300

 70
     1
 71
     1
  0
GROUP
  5
F520
102
{ACAD_REACTORS
330
D
102
}
330
D
100
AcDbGroup
300

 70
     1
 71
     1
  0
GROUP
  5
1BC09
102
{ACAD_REACTORS
330
D
102
}
330
D
100
AcDbGroup
300

 70
     1
 71
     1
  0
GROUP
  5
F4F5
102
{ACAD_REACTORS
330
D
102
}
330
D
100
AcDbGroup
300

 70
     1
 71
     1
  0
GROUP
  5
15539
102
{ACAD_REACTORS
330
D
102
}
330
D
100
AcDbGroup
300

 70
     1
 71
     1
  0
GROUP
  5
F4FA
102
{ACAD_REACTORS
330
D
102
}
330
D
100
AcDbGroup
300

 70
     1
 71
     1
  0
GROUP
  5
F0CF
102
{ACAD_REACTORS
330
D
102
}
330
D
100
AcDbGroup
300

 70
     1
 71
     1
  0
GROUP
  5
F8B3
102
{ACAD_REACTORS
330
D
102
}
330
D
100
AcDbGroup
300

 70
     1
 71
     1
  0
GROUP
  5
14B81
102
{ACAD_REACTORS
330
D
102
}
330
D
100
AcDbGroup
300

 70
     1
 71
     1
  0
GROUP
  5
13C9E
102
{ACAD_REACTORS
330
D
102
}
330
D
100
AcDbGroup
300

 70
     1
 71
     1
  0
GROUP
  5
1498
102
{ACAD_REACTORS
330
D
102
}
330
D
100
AcDbGroup
300

 70
     1
 71
     1
  0
GROUP
  5
1C6E9
102
{ACAD_REACTORS
330
D
102
}
330
D
100
AcDbGroup
300

 70
     1
 71
     1
  0
GROUP
  5
F114
102
{ACAD_REACTORS
330
D
102
}
330
D
100
AcDbGroup
300

 70
     1
 71
     1
  0
GROUP
  5
F504
102
{ACAD_REACTORS
330
D
102
}
330
D
100
AcDbGroup
300

 70
     1
 71
     1
  0
GROUP
  5
15536
102
{ACAD_REACTORS
330
D
102
}
330
D
100
AcDbGroup
300

 70
     1
 71
     1
  0
GROUP
  5
1E980
102
{ACAD_REACTORS
330
D
102
}
330
D
100
AcDbGroup
300

 70
     1
 71
     1
  0
GROUP
  5
FC45
102
{ACAD_REACTORS
330
D
102
}
330
D
100
AcDbGroup
300

 70
     1
 71
     1
  0
GROUP
  5
1EF17
102
{ACAD_REACTORS
330
D
102
}
330
D
100
AcDbGroup
300

 70
     1
 71
     1
  0
GROUP
  5
67CA
102
{ACAD_REACTORS
330
D
102
}
330
D
100
AcDbGroup
300

 70
     1
 71
     1
  0
GROUP
  5
124E6
102
{ACAD_REACTORS
330
D
102
}
330
D
100
AcDbGroup
300

 70
     1
 71
     1
  0
GROUP
  5
10A04
102
{ACAD_REACTORS
330
D
102
}
330
D
100
AcDbGroup
300

 70
     1
 71
     1
  0
GROUP
  5
1568F
102
{ACAD_REACTORS
330
D
102
}
330
D
100
AcDbGroup
300

 70
     1
 71
     1
  0
GROUP
  5
F507
102
{ACAD_REACTORS
330
D
102
}
330
D
100
AcDbGroup
300

 70
     1
 71
     1
  0
GROUP
  5
F0F9
102
{ACAD_REACTORS
330
D
102
}
330
D
100
AcDbGroup
300

 70
     1
 71
     1
  0
GROUP
  5
1195A
102
{ACAD_REACTORS
330
D
102
}
330
D
100
AcDbGroup
300

 70
     1
 71
     1
  0
GROUP
  5
FC38
102
{ACAD_REACTORS
330
D
102
}
330
D
100
AcDbGroup
300

 70
     1
 71
     1
  0
GROUP
  5
17552
102
{ACAD_REACTORS
330
D
102
}
330
D
100
AcDbGroup
300

 70
     1
 71
     1
  0
GROUP
  5
1C632
102
{ACAD_REACTORS
330
D
102
}
330
D
100
AcDbGroup
300

 70
     1
 71
     1
  0
GROUP
  5
1FCC1
102
{ACAD_REACTORS
330
D
102
}
330
D
100
AcDbGroup
300

 70
     1
 71
     1
  0
GROUP
  5
F8BE
102
{ACAD_REACTORS
330
D
102
}
330
D
100
AcDbGroup
300

 70
     1
 71
     1
  0
GROUP
  5
1FCC5
102
{ACAD_REACTORS
330
D
102
}
330
D
100
AcDbGroup
300

 70
     1
 71
     1
  0
GROUP
  5
1EBF5
102
{ACAD_REACTORS
330
D
102
}
330
D
100
AcDbGroup
300

 70
     1
 71
     1
  0
GROUP
  5
1FCC6
102
{ACAD_REACTORS
330
D
102
}
330
D
100
AcDbGroup
300

 70
     1
 71
     1
  0
GROUP
  5
1FCC7
102
{ACAD_REACTORS
330
D
102
}
330
D
100
AcDbGroup
300

 70
     1
 71
     1
  0
GROUP
  5
16EFE
102
{ACAD_REACTORS
330
D
102
}
330
D
100
AcDbGroup
300

 70
     1
 71
     1
  0
GROUP
  5
10E76
102
{ACAD_REACTORS
330
D
102
}
330
D
100
AcDbGroup
300

 70
     1
 71
     1
  0
GROUP
  5
1EF18
102
{ACAD_REACTORS
330
D
102
}
330
D
100
AcDbGroup
300

 70
     1
 71
     1
  0
GROUP
  5
1FCC8
102
{ACAD_REACTORS
330
D
102
}
330
D
100
AcDbGroup
300

 70
     1
 71
     1
  0
GROUP
  5
F4FF
102
{ACAD_REACTORS
330
D
102
}
330
D
100
AcDbGroup
300

 70
     1
 71
     1
  0
GROUP
  5
1FCC9
102
{ACAD_REACTORS
330
D
102
}
330
D
100
AcDbGroup
300

 70
     1
 71
     1
  0
GROUP
  5
14B87
102
{ACAD_REACTORS
330
D
102
}
330
D
100
AcDbGroup
300

 70
     1
 71
     1
  0
GROUP
  5
F502
102
{ACAD_REACTORS
330
D
102
}
330
D
100
AcDbGroup
300

 70
     1
 71
     1
  0
GROUP
  5
F0D7
102
{ACAD_REACTORS
330
D
102
}
330
D
100
AcDbGroup
300

 70
     1
 71
     1
  0
GROUP
  5
1FCCA
102
{ACAD_REACTORS
330
D
102
}
330
D
100
AcDbGroup
300

 70
     1
 71
     1
  0
GROUP
  5
1FCCB
102
{ACAD_REACTORS
330
D
102
}
330
D
100
AcDbGroup
300

 70
     1
 71
     1
  0
GROUP
  5
DB47
102
{ACAD_REACTORS
330
D
102
}
330
D
100
AcDbGroup
300

 70
     1
 71
     1
  0
GROUP
  5
14DA0
102
{ACAD_REACTORS
330
D
102
}
330
D
100
AcDbGroup
300

 70
     1
 71
     1
  0
GROUP
  5
1FCCC
102
{ACAD_REACTORS
330
D
102
}
330
D
100
AcDbGroup
300

 70
     1
 71
     1
  0
GROUP
  5
1FCCD
102
{ACAD_REACTORS
330
D
102
}
330
D
100
AcDbGroup
300

 70
     1
 71
     1
  0
GROUP
  5
183C2
102
{ACAD_REACTORS
330
D
102
}
330
D
100
AcDbGroup
300

 70
     1
 71
     1
  0
GROUP
  5
1FCCE
102
{ACAD_REACTORS
330
D
102
}
330
D
100
AcDbGroup
300

 70
     1
 71
     1
  0
GROUP
  5
1EEFF
102
{ACAD_REACTORS
330
D
102
}
330
D
100
AcDbGroup
300

 70
     1
 71
     1
  0
GROUP
  5
1FCCF
102
{ACAD_REACTORS
330
D
102
}
330
D
100
AcDbGroup
300

 70
     1
 71
     1
  0
GROUP
  5
81B3
102
{ACAD_REACTORS
330
D
102
}
330
D
100
AcDbGroup
300

 70
     1
 71
     1
  0
GROUP
  5
F163
102
{ACAD_REACTORS
330
D
102
}
330
D
100
AcDbGroup
300

 70
     1
 71
     1
  0
GROUP
  5
14D30
102
{ACAD_REACTORS
330
D
102
}
330
D
100
AcDbGroup
300

 70
     1
 71
     1
  0
GROUP
  5
743E
102
{ACAD_REACTORS
330
D
102
}
330
D
100
AcDbGroup
300

 70
     1
 71
     1
  0
GROUP
  5
1F855
102
{ACAD_REACTORS
330
D
102
}
330
D
100
AcDbGroup
300

 70
     1
 71
     1
  0
GROUP
  5
1FCD0
102
{ACAD_REACTORS
330
D
102
}
330
D
100
AcDbGroup
300

 70
     1
 71
     1
  0
GROUP
  5
1FCD1
102
{ACAD_REACTORS
330
D
102
}
330
D
100
AcDbGroup
300

 70
     1
 71
     1
  0
GROUP
  5
1FCD2
102
{ACAD_REACTORS
330
D
102
}
330
D
100
AcDbGroup
300

 70
     1
 71
     1
  0
GROUP
  5
1FCD3
102
{ACAD_REACTORS
330
D
102
}
330
D
100
AcDbGroup
300

 70
     1
 71
     1
  0
GROUP
  5
F506
102
{ACAD_REACTORS
330
D
102
}
330
D
100
AcDbGroup
300

 70
     1
 71
     1
  0
GROUP
  5
1FCD4
102
{ACAD_REACTORS
330
D
102
}
330
D
100
AcDbGroup
300

 70
     1
 71
     1
  0
GROUP
  5
1FCD5
102
{ACAD_REACTORS
330
D
102
}
330
D
100
AcDbGroup
300

 70
     1
 71
     1
  0
GROUP
  5
F0D8
102
{ACAD_REACTORS
330
D
102
}
330
D
100
AcDbGroup
300

 70
     1
 71
     1
  0
GROUP
  5
F0DA
102
{ACAD_REACTORS
330
D
102
}
330
D
100
AcDbGroup
300

 70
     1
 71
     1
  0
GROUP
  5
1F0AE
102
{ACAD_REACTORS
330
D
102
}
330
D
100
AcDbGroup
300

 70
     1
 71
     1
  0
GROUP
  5
1FCD6
102
{ACAD_REACTORS
330
D
102
}
330
D
100
AcDbGroup
300

 70
     1
 71
     1
  0
GROUP
  5
1451C
102
{ACAD_REACTORS
330
D
102
}
330
D
100
AcDbGroup
300

 70
     1
 71
     1
  0
GROUP
  5
1EF00
102
{ACAD_REACTORS
330
D
102
}
330
D
100
AcDbGroup
300

 70
     1
 71
     1
  0
GROUP
  5
120B1
102
{ACAD_REACTORS
330
D
102
}
330
D
100
AcDbGroup
300

 70
     1
 71
     1
  0
GROUP
  5
186B
102
{ACAD_REACTORS
330
D
102
}
330
D
100
AcDbGroup
300

 70
     1
 71
     1
  0
GROUP
  5
6FE0
102
{ACAD_REACTORS
330
D
102
}
330
D
100
AcDbGroup
300

 70
     1
 71
     1
  0
GROUP
  5
F8B8
102
{ACAD_REACTORS
330
D
102
}
330
D
100
AcDbGroup
300

 70
     1
 71
     1
  0
GROUP
  5
FC3A
102
{ACAD_REACTORS
330
D
102
}
330
D
100
AcDbGroup
300

 70
     1
 71
     1
  0
GROUP
  5
DFC0
102
{ACAD_REACTORS
330
D
102
}
330
D
100
AcDbGroup
300

 70
     1
 71
     1
  0
GROUP
  5
1BC45
102
{ACAD_REACTORS
330
D
102
}
330
D
100
AcDbGroup
300

 70
     1
 71
     1
  0
GROUP
  5
FC48
102
{ACAD_REACTORS
330
D
102
}
330
D
100
AcDbGroup
300

 70
     1
 71
     1
  0
GROUP
  5
81BE
102
{ACAD_REACTORS
330
D
102
}
330
D
100
AcDbGroup
300

 70
     1
 71
     1
  0
GROUP
  5
13C9C
102
{ACAD_REACTORS
330
D
102
}
330
D
100
AcDbGroup
300

 70
     1
 71
     1
  0
GROUP
  5
F0D9
102
{ACAD_REACTORS
330
D
102
}
330
D
100
AcDbGroup
300

 70
     1
 71
     1
  0
GROUP
  5
120B0
102
{ACAD_REACTORS
330
D
102
}
330
D
100
AcDbGroup
300

 70
     1
 71
     1
  0
GROUP
  5
124E0
102
{ACAD_REACTORS
330
D
102
}
330
D
100
AcDbGroup
300

 70
     1
 71
     1
  0
GROUP
  5
1451E
102
{ACAD_REACTORS
330
D
102
}
330
D
100
AcDbGroup
300

 70
     1
 71
     1
  0
GROUP
  5
1F89B
102
{ACAD_REACTORS
330
D
102
}
330
D
100
AcDbGroup
300

 70
     1
 71
     1
  0
GROUP
  5
DFC1
102
{ACAD_REACTORS
330
D
102
}
330
D
100
AcDbGroup
300

 70
     1
 71
     1
  0
GROUP
  5
1195D
102
{ACAD_REACTORS
330
D
102
}
330
D
100
AcDbGroup
300

 70
     1
 71
     1
  0
GROUP
  5
1EF1A
102
{ACAD_REACTORS
330
D
102
}
330
D
100
AcDbGroup
300

 70
     1
 71
     1
  0
GROUP
  5
14DA1
102
{ACAD_REACTORS
330
D
102
}
330
D
100
AcDbGroup
300

 70
     1
 71
     1
  0
GROUP
  5
BB90
102
{ACAD_REACTORS
330
D
102
}
330
D
100
AcDbGroup
300

 70
     1
 71
     1
  0
GROUP
  5
1A0BF
102
{ACAD_REACTORS
330
D
102
}
330
D
100
AcDbGroup
300

 70
     1
 71
     1
  0
GROUP
  5
F8B0
102
{ACAD_REACTORS
330
D
102
}
330
D
100
AcDbGroup
300

 70
     1
 71
     1
  0
GROUP
  5
F0DD
102
{ACAD_REACTORS
330
D
102
}
330
D
100
AcDbGroup
300

 70
     1
 71
     1
  0
GROUP
  5
14D23
102
{ACAD_REACTORS
330
D
102
}
330
D
100
AcDbGroup
300

 70
     1
 71
     1
  0
GROUP
  5
1486C
102
{ACAD_REACTORS
330
D
102
}
330
D
100
AcDbGroup
300

 70
     1
 71
     1
  0
GROUP
  5
1195F
102
{ACAD_REACTORS
330
D
102
}
330
D
100
AcDbGroup
300

 70
     1
 71
     1
  0
GROUP
  5
174ED
102
{ACAD_REACTORS
330
D
102
}
330
D
100
AcDbGroup
300

 70
     1
 71
     1
  0
GROUP
  5
DB52
102
{ACAD_REACTORS
330
D
102
}
330
D
100
AcDbGroup
300

 70
     1
 71
     1
  0
GROUP
  5
DBFE
102
{ACAD_REACTORS
330
D
102
}
330
D
100
AcDbGroup
300

 70
     1
 71
     1
  0
LAYOUT
  5
2D3
102
{ACAD_XDICTIONARY
360
1E441
102
}
102
{ACAD_REACTORS
330
2D1
102
}
330
2D1
100
AcDbPlotSettings
  1

  2
EPSON LP-9600S
  4
A4
  6

 40
5.873749732971191
 41
5.873747825622558
 42
5.873748779296875
 43
5.873748779296875
 44
209.9733276367187
 45
297.0106506347656
 46
0.0
 47
0.0
 48
0.0
 49
0.0
140
0.0
141
0.0
142
1.0
143
14.39645349335178
 70
 11952
 72
     1
 73
     1
 74
     0
  7
A3for2004.ctb
 75
     0
147
0.0694615517955027
148
1927.839108383867
149
3094.661789558366
100
AcDbLayout
  1
Model
 70
     1
 71
     0
 10
0.0
 20
0.0
 11
12.0
 21
9.0
 12
0.0
 22
0.0
 32
0.0
 14
0.0
 24
0.0
 34
0.0
 15
0.0
 25
0.0
 35
0.0
146
0.0
 13
0.0
 23
0.0
 33
0.0
 16
1.0
 26
0.0
 36
0.0
 17
0.0
 27
1.0
 37
0.0
 76
     0
330
18
331
19DC2
1001
ACAD_PSEXT
1000
EPSON LP-9600S
1000
EPSON LP-9600S
1000
172.16.5.152:raw
1000

1070
     0
  0
LAYOUT
  5
2D4
102
{ACAD_XDICTIONARY
360
1E041
102
}
102
{ACAD_REACTORS
330
2D1
102
}
330
2D1
100
AcDbPlotSettings
  1

  2
EPSON LP-9600S
  4
A3
  6

 40
5.873749732971191
 41
5.873747825622558
 42
5.873748779296875
 43
5.873748779296875
 44
297.0106506347656
 45
419.9466552734374
 46
0.0
 47
0.0
 48
0.0
 49
0.0
140
0.0
141
0.0
142
1.0
143
0.9876218188428531
 70
   688
 72
     1
 73
     1
 74
     1
  7
A3for2004.ctb
 75
     0
147
1.012533320873418
148
214.291403832631
149
130.1739883871544
100
AcDbLayout
  1
レイアウト1
 70
     1
 71
     1
 10
0.0
 20
0.0
 11
420.0
 21
297.0
 12
0.0
 22
0.0
 32
0.0
 14
1.000000000000000E+20
 24
1.000000000000000E+20
 34
1.000000000000000E+20
 15
-1.000000000000000E+20
 25
-1.000000000000000E+20
 35
-1.000000000000000E+20
146
0.0
 13
0.0
 23
0.0
 33
0.0
 16
1.0
 26
0.0
 36
0.0
 17
0.0
 27
1.0
 37
0.0
 76
     0
330
15
331
57
1001
ACAD_PSEXT
1000
EPSON LP-9600S
1000
EPSON LP-9600S
1000
172.16.5.152:raw
1000

1070
     0
  0
MATERIAL
  5
19DD5
102
{ACAD_XDICTIONARY
360
19DD6
102
}
102
{ACAD_REACTORS
330
2CF
102
}
330
2CF
100
AcDbMaterial
  1
ByBlock
 72
     0
 43
0.0208333333333333
 43
0.0
 43
0.0
 43
0.0
 43
0.0
 43
0.0208333333333333
 43
0.0
 43
0.0
 43
0.0
 43
0.0
 43
1.0
 43
0.0
 43
0.0
 43
0.0
 43
0.0
 43
1.0
 77
     0
 47
0.0208333333333333
 47
0.0
 47
0.0
 47
0.0
 47
0.0
 47
0.0208333333333333
 47
0.0
 47
0.0
 47
0.0
 47
0.0
 47
1.0
 47
0.0
 47
0.0
 47
0.0
 47
0.0
 47
1.0
171
     0
 49
0.0208333333333333
 49
0.0
 49
0.0
 49
0.0
 49
0.0
 49
0.0208333333333333
 49
0.0
 49
0.0
 49
0.0
 49
0.0
 49
1.0
 49
0.0
 49
0.0
 49
0.0
 49
0.0
 49
1.0
175
     0
142
0.0208333333333333
142
0.0
142
0.0
142
0.0
142
0.0
142
0.0208333333333333
142
0.0
142
0.0
142
0.0
142
0.0
142
1.0
142
0.0
142
0.0
142
0.0
142
0.0
142
1.0
179
     0
144
0.0208333333333333
144
0.0
144
0.0
144
0.0
144
0.0
144
0.0208333333333333
144
0.0
144
0.0
144
0.0
144
0.0
144
1.0
144
0.0
144
0.0
144
0.0
144
0.0
144
1.0
147
0.0208333333333333
147
0.0
147
0.0
147
0.0
147
0.0
147
0.0208333333333333
147
0.0
147
0.0
147
0.0
147
0.0
147
1.0
147
0.0
147
0.0
147
0.0
147
0.0
147
1.0
  0
MATERIAL
  5
19DCD
102
{ACAD_XDICTIONARY
360
19DCE
102
}
102
{ACAD_REACTORS
330
2CF
102
}
330
2CF
100
AcDbMaterial
  1
ByLayer
 72
     0
 43
0.0208333333333333
 43
0.0
 43
0.0
 43
0.0
 43
0.0
 43
0.0208333333333333
 43
0.0
 43
0.0
 43
0.0
 43
0.0
 43
1.0
 43
0.0
 43
0.0
 43
0.0
 43
0.0
 43
1.0
 77
     0
 47
0.0208333333333333
 47
0.0
 47
0.0
 47
0.0
 47
0.0
 47
0.0208333333333333
 47
0.0
 47
0.0
 47
0.0
 47
0.0
 47
1.0
 47
0.0
 47
0.0
 47
0.0
 47
0.0
 47
1.0
171
     0
 49
0.0208333333333333
 49
0.0
 49
0.0
 49
0.0
 49
0.0
 49
0.0208333333333333
 49
0.0
 49
0.0
 49
0.0
 49
0.0
 49
1.0
 49
0.0
 49
0.0
 49
0.0
 49
0.0
 49
1.0
175
     0
142
0.0208333333333333
142
0.0
142
0.0
142
0.0
142
0.0
142
0.0208333333333333
142
0.0
142
0.0
142
0.0
142
0.0
142
1.0
142
0.0
142
0.0
142
0.0
142
0.0
142
1.0
179
     0
144
0.0208333333333333
144
0.0
144
0.0
144
0.0
144
0.0
144
0.0208333333333333
144
0.0
144
0.0
144
0.0
144
0.0
144
1.0
144
0.0
144
0.0
144
0.0
144
0.0
144
1.0
147
0.0208333333333333
147
0.0
147
0.0
147
0.0
147
0.0
147
0.0208333333333333
147
0.0
147
0.0
147
0.0
147
0.0
147
1.0
147
0.0
147
0.0
147
0.0
147
0.0
147
1.0
  0
MATERIAL
  5
19DDD
102
{ACAD_XDICTIONARY
360
19DDE
102
}
102
{ACAD_REACTORS
330
2CF
102
}
330
2CF
100
AcDbMaterial
  1
Global
 72
     0
 43
0.0208333333333333
 43
0.0
 43
0.0
 43
0.0
 43
0.0
 43
0.0208333333333333
 43
0.0
 43
0.0
 43
0.0
 43
0.0
 43
1.0
 43
0.0
 43
0.0
 43
0.0
 43
0.0
 43
1.0
 77
     0
 47
0.0208333333333333
 47
0.0
 47
0.0
 47
0.0
 47
0.0
 47
0.0208333333333333
 47
0.0
 47
0.0
 47
0.0
 47
0.0
 47
1.0
 47
0.0
 47
0.0
 47
0.0
 47
0.0
 47
1.0
171
     0
 49
0.0208333333333333
 49
0.0
 49
0.0
 49
0.0
 49
0.0
 49
0.0208333333333333
 49
0.0
 49
0.0
 49
0.0
 49
0.0
 49
1.0
 49
0.0
 49
0.0
 49
0.0
 49
0.0
 49
1.0
175
     0
142
0.0208333333333333
142
0.0
142
0.0
142
0.0
142
0.0
142
0.0208333333333333
142
0.0
142
0.0
142
0.0
142
0.0
142
1.0
142
0.0
142
0.0
142
0.0
142
0.0
142
1.0
179
     0
144
0.0208333333333333
144
0.0
144
0.0
144
0.0
144
0.0
144
0.0208333333333333
144
0.0
144
0.0
144
0.0
144
0.0
144
1.0
144
0.0
144
0.0
144
0.0
144
0.0
144
1.0
147
0.0208333333333333
147
0.0
147
0.0
147
0.0
147
0.0
147
0.0208333333333333
147
0.0
147
0.0
147
0.0
147
0.0
147
1.0
147
0.0
147
0.0
147
0.0
147
0.0
147
1.0
  0
MLEADERSTYLE
  5
19E19
102
{ACAD_REACTORS
330
19E18
102
}
330
19E18
100
AcDbMLeaderStyle
170
     2
171
     1
172
     0
 90
        2
 40
0.0
 41
0.0
173
     1
 91
-1056964608
340
12
 92
       -2
290
     1
 42
2.0
291
     1
 43
0.36
  3
Standard
 44
4.0
300

342
F
174
     1
178
     6
175
     1
176
     0
 93
-1056964608
 45
4.0
292
     0
297
     0
 46
4.0
 94
-1056964608
 47
1.0
 49
1.0
140
1.0
293
     1
141
0.0
294
     1
177
     0
142
1.0
295
     0
296
     0
143
0.125
1001
ACAD_MLEADERVER
1070
     2
  0
MLINESTYLE
  5
1C
102
{ACAD_REACTORS
330
1B
102
}
330
1B
100
AcDbMlineStyle
  2
STANDARD
 70
     0
  3

 62
   256
 51
90.0
 52
90.0
 71
     2
 49
0.5
 62
   256
  6
BYLAYER
 49
-0.5
 62
   256
  6
BYLAYER
  0
ACDBPLACEHOLDER
  5
2CE
102
{ACAD_REACTORS
330
2CD
102
}
330
2CD
  0
SCALE
  5
19DF7
102
{ACAD_REACTORS
330
19DF6
102
}
330
19DF6
100
AcDbScale
 70
     0
300
1:1
140
1.0
141
1.0
290
     1
  0
SCALE
  5
19DF8
102
{ACAD_REACTORS
330
19DF6
102
}
330
19DF6
100
AcDbScale
 70
     0
300
1:2
140
1.0
141
2.0
290
     0
  0
SCALE
  5
19DF9
102
{ACAD_REACTORS
330
19DF6
102
}
330
19DF6
100
AcDbScale
 70
     0
300
1:4
140
1.0
141
4.0
290
     0
  0
SCALE
  5
19DFA
102
{ACAD_REACTORS
330
19DF6
102
}
330
19DF6
100
AcDbScale
 70
     0
300
1:5
140
1.0
141
5.0
290
     0
  0
SCALE
  5
19DFB
102
{ACAD_REACTORS
330
19DF6
102
}
330
19DF6
100
AcDbScale
 70
     0
300
1:8
140
1.0
141
8.0
290
     0
  0
SCALE
  5
19DFC
102
{ACAD_REACTORS
330
19DF6
102
}
330
19DF6
100
AcDbScale
 70
     0
300
1:10
140
1.0
141
10.0
290
     0
  0
SCALE
  5
19DFD
102
{ACAD_REACTORS
330
19DF6
102
}
330
19DF6
100
AcDbScale
 70
     0
300
1:16
140
1.0
141
16.0
290
     0
  0
SCALE
  5
19DFE
102
{ACAD_REACTORS
330
19DF6
102
}
330
19DF6
100
AcDbScale
 70
     0
300
1:20
140
1.0
141
20.0
290
     0
  0
SCALE
  5
19DFF
102
{ACAD_REACTORS
330
19DF6
102
}
330
19DF6
100
AcDbScale
 70
     0
300
1:30
140
1.0
141
30.0
290
     0
  0
SCALE
  5
19E00
102
{ACAD_REACTORS
330
19DF6
102
}
330
19DF6
100
AcDbScale
 70
     0
300
1:40
140
1.0
141
40.0
290
     0
  0
SCALE
  5
19E01
102
{ACAD_REACTORS
330
19DF6
102
}
330
19DF6
100
AcDbScale
 70
     0
300
1:50
140
1.0
141
50.0
290
     0
  0
SCALE
  5
19E02
102
{ACAD_REACTORS
330
19DF6
102
}
330
19DF6
100
AcDbScale
 70
     0
300
1:100
140
1.0
141
100.0
290
     0
  0
SCALE
  5
19E03
102
{ACAD_REACTORS
330
19DF6
102
}
330
19DF6
100
AcDbScale
 70
     0
300
2:1
140
2.0
141
1.0
290
     0
  0
SCALE
  5
19E04
102
{ACAD_REACTORS
330
19DF6
102
}
330
19DF6
100
AcDbScale
 70
     0
300
4:1
140
4.0
141
1.0
290
     0
  0
SCALE
  5
19E05
102
{ACAD_REACTORS
330
19DF6
102
}
330
19DF6
100
AcDbScale
 70
     0
300
8:1
140
8.0
141
1.0
290
     0
  0
SCALE
  5
19E06
102
{ACAD_REACTORS
330
19DF6
102
}
330
19DF6
100
AcDbScale
 70
     0
300
10:1
140
10.0
141
1.0
290
     0
  0
SCALE
  5
19E07
102
{ACAD_REACTORS
330
19DF6
102
}
330
19DF6
100
AcDbScale
 70
     0
300
100:1
140
100.0
141
1.0
290
     0
  0
SCALE
  5
19E08
102
{ACAD_REACTORS
330
19DF6
102
}
330
19DF6
100
AcDbScale
 70
     0
300
1/128" = 1'-0"
140
0.0078125
141
12.0
290
     0
  0
SCALE
  5
19E09
102
{ACAD_REACTORS
330
19DF6
102
}
330
19DF6
100
AcDbScale
 70
     0
300
1/64" = 1'-0"
140
0.015625
141
12.0
290
     0
  0
SCALE
  5
19E0A
102
{ACAD_REACTORS
330
19DF6
102
}
330
19DF6
100
AcDbScale
 70
     0
300
1/32" = 1'-0"
140
0.03125
141
12.0
290
     0
  0
SCALE
  5
19E0B
102
{ACAD_REACTORS
330
19DF6
102
}
330
19DF6
100
AcDbScale
 70
     0
300
1/16" = 1'-0"
140
0.0625
141
12.0
290
     0
  0
SCALE
  5
19E0C
102
{ACAD_REACTORS
330
19DF6
102
}
330
19DF6
100
AcDbScale
 70
     0
300
3/32" = 1'-0"
140
0.09375
141
12.0
290
     0
  0
SCALE
  5
19E0D
102
{ACAD_REACTORS
330
19DF6
102
}
330
19DF6
100
AcDbScale
 70
     0
300
1/8" = 1'-0"
140
0.125
141
12.0
290
     0
  0
SCALE
  5
19E0E
102
{ACAD_REACTORS
330
19DF6
102
}
330
19DF6
100
AcDbScale
 70
     0
300
3/16" = 1'-0"
140
0.1875
141
12.0
290
     0
  0
SCALE
  5
19E0F
102
{ACAD_REACTORS
330
19DF6
102
}
330
19DF6
100
AcDbScale
 70
     0
300
1/4" = 1'-0"
140
0.25
141
12.0
290
     0
  0
SCALE
  5
19E10
102
{ACAD_REACTORS
330
19DF6
102
}
330
19DF6
100
AcDbScale
 70
     0
300
3/8" = 1'-0"
140
0.375
141
12.0
290
     0
  0
SCALE
  5
19E11
102
{ACAD_REACTORS
330
19DF6
102
}
330
19DF6
100
AcDbScale
 70
     0
300
1/2" = 1'-0"
140
0.5
141
12.0
290
     0
  0
SCALE
  5
19E12
102
{ACAD_REACTORS
330
19DF6
102
}
330
19DF6
100
AcDbScale
 70
     0
300
3/4" = 1'-0"
140
0.75
141
12.0
290
     0
  0
SCALE
  5
19E13
102
{ACAD_REACTORS
330
19DF6
102
}
330
19DF6
100
AcDbScale
 70
     0
300
1" = 1'-0"
140
1.0
141
12.0
290
     0
  0
SCALE
  5
19E14
102
{ACAD_REACTORS
330
19DF6
102
}
330
19DF6
100
AcDbScale
 70
     0
300
1-1/2" = 1'-0"
140
1.5
141
12.0
290
     0
  0
SCALE
  5
19E15
102
{ACAD_REACTORS
330
19DF6
102
}
330
19DF6
100
AcDbScale
 70
     0
300
3" = 1'-0"
140
3.0
141
12.0
290
     0
  0
SCALE
  5
19E16
102
{ACAD_REACTORS
330
19DF6
102
}
330
19DF6
100
AcDbScale
 70
     0
300
6" = 1'-0"
140
6.0
141
12.0
290
     0
  0
SCALE
  5
19E17
102
{ACAD_REACTORS
330
19DF6
102
}
330
19DF6
100
AcDbScale
 70
     0
300
1'-0" = 1'-0"
140
12.0
141
12.0
290
     0
  0
TABLESTYLE
  5
4D7
102
{ACAD_XDICTIONARY
360
1ABD4
102
}
102
{ACAD_REACTORS
330
4D6
102
}
330
4D6
100
AcDbTableStyle
  3
Standard
 70
     0
 71
     0
 40
1.5
 41
1.5
280
     0
281
     0
  7
STANDARD
140
4.5
170
     2
 62
     0
 63
     7
283
     0
274
    -2
284
     1
 64
     0
275
    -2
285
     1
 65
     0
276
    -2
286
     1
 66
     0
277
    -2
287
     1
 67
     0
278
    -2
288
     1
 68
     0
279
    -2
289
     1
 69
     0
  7
STANDARD
140
6.0
170
     5
 62
     0
 63
     7
283
     0
274
    -2
284
     1
 64
     0
275
    -2
285
     1
 65
     0
276
    -2
286
     1
 66
     0
277
    -2
287
     1
 67
     0
278
    -2
288
     1
 68
     0
279
    -2
289
     1
 69
     0
  7
STANDARD
140
4.5
170
     5
 62
     0
 63
     7
283
     0
274
    -2
284
     1
 64
     0
275
    -2
285
     1
 65
     0
276
    -2
286
     1
 66
     0
277
    -2
287
     1
 67
     0
278
    -2
288
     1
 68
     0
279
    -2
289
     1
 69
     0
1001
ACAD
1000
AcRTDxfName
1000
TABLESTYLE
1000
AcRTDxfName
1000
TABLESTYLE
1000
AcRTDxfName
1000
TABLESTYLE
1000
AcRTDxfName
1000
TABLESTYLE
1000
AcRTDxfName
1000
TABLESTYLE
  0
VISUALSTYLE
  5
19DEB
102
{ACAD_XDICTIONARY
360
20488
102
}
102
{ACAD_REACTORS
330
19DE5
102
}
330
19DE5
100
AcDbVisualStyle
  2
2dWireframe
 70
     4
 71
     0
 72
     2
 73
     0
 90
        0
 40
-0.6
 41
-30.0
 62
     5
 63
     7
 74
     1
 91
        4
 64
     7
 65
   257
 75
     1
175
     1
 42
1.0
 92
        0
 66
   257
 43
1.0
 76
     1
 77
     6
 78
     2
 67
     7
 79
     5
170
     0
171
     0
290
     0
174
     0
 93
        1
 44
0.0
173
     0
291
     0
 45
0.0
1001
ACAD
1000
AcDbSavedByObjectVersion
1070
     0
  0
VISUALSTYLE
  5
19DED
102
{ACAD_XDICTIONARY
360
2048C
102
}
102
{ACAD_REACTORS
330
19DE5
102
}
330
19DE5
100
AcDbVisualStyle
  2
3D Hidden
 70
     6
 71
     1
 72
     2
 73
     2
 90
        0
 40
-0.6
 41
-30.0
 62
     5
 63
     7
 74
     2
 91
        2
 64
     7
 65
   257
 75
     2
175
     1
 42
40.0
 92
        0
 66
   257
 43
1.0
 76
     1
 77
     6
 78
     2
 67
     7
 79
     3
170
     0
171
     0
290
     0
174
     0
 93
        1
 44
0.0
173
     0
291
     0
 45
0.0
1001
ACAD
1000
AcDbSavedByObjectVersion
1070
     0
  0
VISUALSTYLE
  5
19DEC
102
{ACAD_XDICTIONARY
360
2048A
102
}
102
{ACAD_REACTORS
330
19DE5
102
}
330
19DE5
100
AcDbVisualStyle
  2
3dWireframe
 70
     5
 71
     0
 72
     2
 73
     0
 90
        0
 40
-0.6
 41
-30.0
 62
     5
 63
     7
 74
     1
 91
        4
 64
     7
 65
   257
 75
     1
175
     1
 42
1.0
 92
        0
 66
   257
 43
1.0
 76
     1
 77
     6
 78
     2
 67
     7
 79
     5
170
     0
171
     0
290
     0
174
     0
 93
        1
 44
0.0
173
     0
291
     0
 45
0.0
1001
ACAD
1000
AcDbSavedByObjectVersion
1070
     0
  0
VISUALSTYLE
  5
19DEA
102
{ACAD_XDICTIONARY
360
20486
102
}
102
{ACAD_REACTORS
330
19DE5
102
}
330
19DE5
100
AcDbVisualStyle
  2
Basic
 70
     7
 71
     1
 72
     0
 73
     1
 90
        0
 40
-0.6
 41
-30.0
 62
     5
 63
     7
 74
     0
 91
        4
 64
     7
 65
   257
 75
     1
175
     1
 42
1.0
 92
        8
 66
     7
 43
1.0
 76
     1
 77
     6
 78
     2
 67
     7
 79
     5
170
     0
171
     0
290
     0
174
     0
 93
        1
 44
0.0
173
     0
291
     1
 45
0.0
1001
ACAD
1000
AcDbSavedByObjectVersion
1070
     0
  0
VISUALSTYLE
  5
19DF1
102
{ACAD_XDICTIONARY
360
20494
102
}
102
{ACAD_REACTORS
330
19DE5
102
}
330
19DE5
100
AcDbVisualStyle
  2
Brighten
 70
    12
 71
     2
 72
     2
 73
     0
 90
        0
 40
-0.6
 41
-30.0
 62
     5
 63
     7
 74
     1
 91
        4
 64
     7
 65
   257
 75
     1
175
     1
 42
1.0
 92
        8
 66
     7
 43
1.0
 76
     1
 77
     6
 78
     2
 67
     7
 79
     5
170
     0
171
     0
290
     0
174
     0
 93
        1
 44
50.0
173
     0
291
     1
 45
0.0
1001
ACAD
1000
AcDbSavedByObjectVersion
1070
     0
  0
VISUALSTYLE
  5
19DF5
102
{ACAD_XDICTIONARY
360
2049C
102
}
102
{ACAD_REACTORS
330
19DE5
102
}
330
19DE5
100
AcDbVisualStyle
  2
ColorChange
 70
    16
 71
     2
 72
     2
 73
     3
 90
        0
 40
-0.6
 41
-30.0
 62
     5
 63
     8
 74
     1
 91
        4
 64
     7
 65
   257
 75
     1
175
     1
 42
1.0
 92
        8
 66
     8
 43
1.0
 76
     1
 77
     6
 78
     2
 67
     7
 79
     5
170
     0
171
     0
290
     0
174
     0
 93
        1
 44
0.0
173
     0
291
     1
 45
0.0
1001
ACAD
1000
AcDbSavedByObjectVersion
1070
     0
  0
VISUALSTYLE
  5
19DEE
102
{ACAD_XDICTIONARY
360
2048E
102
}
102
{ACAD_REACTORS
330
19DE5
102
}
330
19DE5
100
AcDbVisualStyle
  2
Conceptual
 70
     9
 71
     3
 72
     2
 73
     0
 90
        0
 40
-0.6
 41
-30.0
 62
     5
 63
     7
 74
     2
 91
        2
 64
     7
 65
   257
 75
     1
175
     1
 42
40.0
 92
        8
 66
     7
 43
1.0
 76
     1
 77
     6
 78
     2
 67
     7
 79
     3
170
     0
171
     0
290
     0
174
     0
 93
        1
 44
0.0
173
     0
291
     0
 45
0.0
1001
ACAD
1000
AcDbSavedByObjectVersion
1070
     0
  0
VISUALSTYLE
  5
19DF0
102
{ACAD_XDICTIONARY
360
20492
102
}
102
{ACAD_REACTORS
330
19DE5
102
}
330
19DE5
100
AcDbVisualStyle
  2
Dim
 70
    11
 71
     2
 72
     2
 73
     0
 90
        0
 40
-0.6
 41
-30.0
 62
     5
 63
     7
 74
     1
 91
        4
 64
     7
 65
   257
 75
     1
175
     1
 42
1.0
 92
        8
 66
     7
 43
1.0
 76
     1
 77
     6
 78
     2
 67
     7
 79
     5
170
     0
171
     0
290
     0
174
     0
 93
        1
 44
-50.0
173
     0
291
     1
 45
0.0
1001
ACAD
1000
AcDbSavedByObjectVersion
1070
     0
  0
VISUALSTYLE
  5
1E02A
102
{ACAD_XDICTIONARY
360
204A2
102
}
102
{ACAD_REACTORS
330
19DE5
102
}
330
19DE5
100
AcDbVisualStyle
  2
EdgeColorOff
 70
    22
 71
     2
 72
     2
 73
     0
 90
        0
 40
-0.6
 41
-30.0
 62
     5
 63
     7
 74
     1
 91
        4
 64
     7
 65
   257
 75
     1
175
     1
 42
1.0
 92
        8
 66
     7
 43
1.0
 76
     1
 77
     6
 78
     2
 67
     7
 79
     5
170
     0
171
     0
290
     0
174
     0
 93
        1
 44
0.0
173
     0
291
     1
 45
0.0
1001
ACAD
1000
AcDbSavedByObjectVersion
1070
     0
  0
VISUALSTYLE
  5
19DF4
102
{ACAD_XDICTIONARY
360
2049A
102
}
102
{ACAD_REACTORS
330
19DE5
102
}
330
19DE5
100
AcDbVisualStyle
  2
Facepattern
 70
    15
 71
     2
 72
     2
 73
     0
 90
        0
 40
-0.6
 41
-30.0
 62
     5
 63
     7
 74
     1
 91
        4
 64
     7
 65
   257
 75
     1
175
     1
 42
1.0
 92
        8
 66
     7
 43
1.0
 76
     1
 77
     6
 78
     2
 67
     7
 79
     5
170
     0
171
     0
290
     0
174
     0
 93
        1
 44
0.0
173
     0
291
     1
 45
0.0
1001
ACAD
1000
AcDbSavedByObjectVersion
1070
     0
  0
VISUALSTYLE
  5
19DE6
102
{ACAD_XDICTIONARY
360
2047E
102
}
102
{ACAD_REACTORS
330
19DE5
102
}
330
19DE5
100
AcDbVisualStyle
  2
Flat
 70
     0
 71
     2
 72
     1
 73
     1
 90
        2
 40
-0.6
 41
30.0
 62
     5
 63
     7
 74
     0
 91
        4
 64
     7
 65
   257
 75
     1
175
     1
 42
1.0
 92
        8
 66
     7
 43
1.0
 76
     1
 77
     6
 78
     2
 67
     7
 79
     5
170
     0
171
     0
290
     0
174
     0
 93
       13
 44
0.0
173
     0
291
     1
 45
0.0
1001
ACAD
1000
AcDbSavedByObjectVersion
1070
     0
  0
VISUALSTYLE
  5
19DE7
102
{ACAD_XDICTIONARY
360
20480
102
}
102
{ACAD_REACTORS
330
19DE5
102
}
330
19DE5
100
AcDbVisualStyle
  2
FlatWithEdges
 70
     1
 71
     2
 72
     1
 73
     1
 90
        2
 40
-0.6
 41
30.0
 62
     5
 63
     7
 74
     1
 91
        4
 64
     7
 65
   257
 75
     1
175
     1
 42
1.0
 92
        0
 66
   257
 43
1.0
 76
     1
 77
     6
 78
     2
 67
     7
 79
     5
170
     0
171
     0
290
     0
174
     0
 93
       13
 44
0.0
173
     0
291
     1
 45
0.0
1001
ACAD
1000
AcDbSavedByObjectVersion
1070
     0
  0
VISUALSTYLE
  5
19DE8
102
{ACAD_XDICTIONARY
360
20482
102
}
102
{ACAD_REACTORS
330
19DE5
102
}
330
19DE5
100
AcDbVisualStyle
  2
Gouraud
 70
     2
 71
     2
 72
     2
 73
     1
 90
        2
 40
-0.6
 41
30.0
 62
     5
 63
     7
 74
     0
 91
        4
 64
     7
 65
   257
 75
     1
175
     1
 42
1.0
 92
        0
 66
     7
 43
1.0
 76
     1
 77
     6
 78
     2
 67
     7
 79
     5
170
     0
171
     0
290
     0
174
     0
 93
       13
 44
0.0
173
     0
291
     1
 45
0.0
1001
ACAD
1000
AcDbSavedByObjectVersion
1070
     0
  0
VISUALSTYLE
  5
19DE9
102
{ACAD_XDICTIONARY
360
20484
102
}
102
{ACAD_REACTORS
330
19DE5
102
}
330
19DE5
100
AcDbVisualStyle
  2
GouraudWithEdges
 70
     3
 71
     2
 72
     2
 73
     1
 90
        2
 40
-0.6
 41
30.0
 62
     5
 63
     7
 74
     1
 91
        4
 64
     7
 65
   257
 75
     1
175
     1
 42
1.0
 92
        0
 66
   257
 43
1.0
 76
     1
 77
     6
 78
     2
 67
     7
 79
     5
170
     0
171
     0
290
     0
174
     0
 93
       13
 44
0.0
173
     0
291
     1
 45
0.0
1001
ACAD
1000
AcDbSavedByObjectVersion
1070
     0
  0
VISUALSTYLE
  5
1E028
102
{ACAD_XDICTIONARY
360
2049E
102
}
102
{ACAD_REACTORS
330
19DE5
102
}
330
19DE5
100
AcDbVisualStyle
  2
JitterOff
 70
    20
 71
     2
 72
     2
 73
     0
 90
        0
 40
-0.6
 41
-30.0
 62
     5
 63
     7
 74
     1
 91
        4
 64
     7
 65
   257
 75
     1
175
     1
 42
1.0
 92
       10
 66
     7
 43
1.0
 76
     1
 77
     6
 78
     2
 67
     7
 79
     5
170
     0
171
     0
290
     0
174
     0
 93
        1
 44
0.0
173
     0
291
     1
 45
0.0
1001
ACAD
1000
AcDbSavedByObjectVersion
1070
     0
  0
VISUALSTYLE
  5
19DF3
102
{ACAD_XDICTIONARY
360
20498
102
}
102
{ACAD_REACTORS
330
19DE5
102
}
330
19DE5
100
AcDbVisualStyle
  2
Linepattern
 70
    14
 71
     2
 72
     2
 73
     0
 90
        0
 40
-0.6
 41
-30.0
 62
     5
 63
     7
 74
     1
 91
        4
 64
     7
 65
   257
 75
     7
175
     7
 42
1.0
 92
        8
 66
     7
 43
1.0
 76
     1
 77
     6
 78
     2
 67
     7
 79
     5
170
     0
171
     0
290
     0
174
     0
 93
        1
 44
0.0
173
     0
291
     1
 45
0.0
1001
ACAD
1000
AcDbSavedByObjectVersion
1070
     0
  0
VISUALSTYLE
  5
1E029
102
{ACAD_XDICTIONARY
360
204A0
102
}
102
{ACAD_REACTORS
330
19DE5
102
}
330
19DE5
100
AcDbVisualStyle
  2
OverhangOff
 70
    21
 71
     2
 72
     2
 73
     0
 90
        0
 40
-0.6
 41
-30.0
 62
     5
 63
     7
 74
     1
 91
        4
 64
     7
 65
   257
 75
     1
175
     1
 42
1.0
 92
        9
 66
     7
 43
1.0
 76
     1
 77
     6
 78
     2
 67
     7
 79
     5
170
     0
171
     0
290
     0
174
     0
 93
        1
 44
0.0
173
     0
291
     1
 45
0.0
1001
ACAD
1000
AcDbSavedByObjectVersion
1070
     0
  0
VISUALSTYLE
  5
19DEF
102
{ACAD_XDICTIONARY
360
20490
102
}
102
{ACAD_REACTORS
330
19DE5
102
}
330
19DE5
100
AcDbVisualStyle
  2
Realistic
 70
     8
 71
     2
 72
     2
 73
     0
 90
        0
 40
-0.6
 41
-30.0
 62
     5
 63
     7
 74
     1
 91
        0
 64
     7
 65
   257
 75
     1
175
     1
 42
1.0
 92
        8
 66
     8
 43
1.0
 76
     1
 77
     6
 78
     2
 67
     7
 79
     5
170
     0
171
     0
290
     0
174
     0
 93
       13
 44
0.0
173
     0
291
     0
 45
0.0
1001
ACAD
1000
AcDbSavedByObjectVersion
1070
     0
  0
VISUALSTYLE
  5
19DF2
102
{ACAD_XDICTIONARY
360
20496
102
}
102
{ACAD_REACTORS
330
19DE5
102
}
330
19DE5
100
AcDbVisualStyle
  2
Thicken
 70
    13
 71
     2
 72
     2
 73
     0
 90
        0
 40
-0.6
 41
-30.0
 62
     5
 63
     7
 74
     1
 91
        4
 64
     7
 65
   257
 75
     1
175
     1
 42
1.0
 92
       12
 66
     7
 43
1.0
 76
     1
 77
     6
 78
     2
 67
     7
 79
     5
170
     0
171
     0
290
     0
174
     0
 93
        1
 44
0.0
173
     0
291
     1
 45
0.0
1001
ACAD
1000
AcDbSavedByObjectVersion
1070
     0
  0
DICTIONARYVAR
  5
1AC1A
102
{ACAD_REACTORS
330
37
102
}
330
37
100
DictionaryVariables
280
     0
  1
1:1
  0
DICTIONARYVAR
  5
1AC19
102
{ACAD_REACTORS
330
37
102
}
330
37
100
DictionaryVariables
280
     0
  1
STANDARD
  0
DICTIONARYVAR
  5
4F1
102
{ACAD_REACTORS
330
37
102
}
330
37
100
DictionaryVariables
280
     0
  1
STANDARD
  0
DICTIONARYVAR
  5
38
102
{ACAD_REACTORS
330
37
102
}
330
37
100
DictionaryVariables
280
     0
  1
-1
  0
DICTIONARYVAR
  5
408
102
{ACAD_REACTORS
330
37
102
}
330
37
100
DictionaryVariables
280
     0
  1
2
  0
DICTIONARYVAR
  5
1891
102
{ACAD_REACTORS
330
37
102
}
330
37
100
DictionaryVariables
280
     0
  1
1
  0
DICTIONARYVAR
  5
1AC1C
102
{ACAD_REACTORS
330
37
102
}
330
37
100
DictionaryVariables
280
     0
  1
0
  0
DICTIONARYVAR
  5
1895
102
{ACAD_REACTORS
330
37
102
}
330
37
100
DictionaryVariables
280
     0
  1
8
  0
DICTIONARYVAR
  5
1894
102
{ACAD_REACTORS
330
37
102
}
330
37
100
DictionaryVariables
280
     0
  1
1
  0
DICTIONARYVAR
  5
1892
102
{ACAD_REACTORS
330
37
102
}
330
37
100
DictionaryVariables
280
     0
  1
8
  0
DICTIONARYVAR
  5
1893
102
{ACAD_REACTORS
330
37
102
}
330
37
100
DictionaryVariables
280
     0
  1
2
  0
DICTIONARYVAR
  5
409
102
{ACAD_REACTORS
330
37
102
}
330
37
100
DictionaryVariables
280
     0
  1

  0
DICTIONARYVAR
  5
1AC1B
102
{ACAD_REACTORS
330
37
102
}
330
37
100
DictionaryVariables
280
     0
  1
127
  0
DICTIONARYVAR
  5
20472
102
{ACAD_REACTORS
330
37
102
}
330
37
100
DictionaryVariables
280
     0
  1
2
  0
DICTIONARY
  5
1E441
330
2D3
100
AcDbDictionary
280
     1
281
     1
  3
ACAD_XREC_ROUNDTRIP
360
20478
  3
ADSK_XREC_LAYOUTTHUMBNAIL
360
1E442
  0
DICTIONARY
  5
1E041
330
2D4
100
AcDbDictionary
280
     1
281
     1
  3
ACAD_XREC_ROUNDTRIP
360
20479
  3
ADSK_XREC_LAYOUTTHUMBNAIL
360
1E042
  0
DICTIONARY
  5
19DD6
330
19DD5
100
AcDbDictionary
280
     1
281
     1
  3
ACAD_XREC_ROUNDTRIP
360
2047C
  3
BUMPTILE
360
19DD8
  3
DIFFUSETILE
360
19DD7
  3
OPACITYTILE
360
19DDB
  3
REFLECTIONTILE
360
19DDA
  3
REFRACTIONTILE
360
19DDC
  3
SPECULARTILE
360
19DD9
  0
DICTIONARY
  5
19DCE
330
19DCD
100
AcDbDictionary
280
     1
281
     1
  3
ACAD_XREC_ROUNDTRIP
360
2047B
  3
BUMPTILE
360
19DD0
  3
DIFFUSETILE
360
19DCF
  3
OPACITYTILE
360
19DD3
  3
REFLECTIONTILE
360
19DD2
  3
REFRACTIONTILE
360
19DD4
  3
SPECULARTILE
360
19DD1
  0
DICTIONARY
  5
19DDE
330
19DDD
100
AcDbDictionary
280
     1
281
     1
  3
ACAD_XREC_ROUNDTRIP
360
2047D
  3
BUMPTILE
360
19DE0
  3
DIFFUSETILE
360
19DDF
  3
OPACITYTILE
360
19DE3
  3
REFLECTIONTILE
360
19DE2
  3
REFRACTIONTILE
360
19DE4
  3
SPECULARTILE
360
19DE1
  0
DICTIONARY
  5
1ABD4
330
4D7
100
AcDbDictionary
280
     1
281
     1
  3
ACAD_ROUNDTRIP_2008_TABLESTYLE_CELLSTYLEMAP
360
20473
  3
ACAD_XREC_ROUNDTRIP
360
2047A
  0
DICTIONARY
  5
20488
330
19DEB
100
AcDbDictionary
280
     1
281
     1
  3
ACAD_XREC_ROUNDTRIP
360
20489
  0
DICTIONARY
  5
2048C
330
19DED
100
AcDbDictionary
280
     1
281
     1
  3
ACAD_XREC_ROUNDTRIP
360
2048D
  0
DICTIONARY
  5
2048A
330
19DEC
100
AcDbDictionary
280
     1
281
     1
  3
ACAD_XREC_ROUNDTRIP
360
2048B
  0
DICTIONARY
  5
20486
330
19DEA
100
AcDbDictionary
280
     1
281
     1
  3
ACAD_XREC_ROUNDTRIP
360
20487
  0
DICTIONARY
  5
20494
330
19DF1
100
AcDbDictionary
280
     1
281
     1
  3
ACAD_XREC_ROUNDTRIP
360
20495
  0
DICTIONARY
  5
2049C
330
19DF5
100
AcDbDictionary
280
     1
281
     1
  3
ACAD_XREC_ROUNDTRIP
360
2049D
  0
DICTIONARY
  5
2048E
330
19DEE
100
AcDbDictionary
280
     1
281
     1
  3
ACAD_XREC_ROUNDTRIP
360
2048F
  0
DICTIONARY
  5
20492
330
19DF0
100
AcDbDictionary
280
     1
281
     1
  3
ACAD_XREC_ROUNDTRIP
360
20493
  0
DICTIONARY
  5
204A2
330
1E02A
100
AcDbDictionary
280
     1
281
     1
  3
ACAD_XREC_ROUNDTRIP
360
204A3
  0
DICTIONARY
  5
2049A
330
19DF4
100
AcDbDictionary
280
     1
281
     1
  3
ACAD_XREC_ROUNDTRIP
360
2049B
  0
DICTIONARY
  5
2047E
330
19DE6
100
AcDbDictionary
280
     1
281
     1
  3
ACAD_XREC_ROUNDTRIP
360
2047F
  0
DICTIONARY
  5
20480
330
19DE7
100
AcDbDictionary
280
     1
281
     1
  3
ACAD_XREC_ROUNDTRIP
360
20481
  0
DICTIONARY
  5
20482
330
19DE8
100
AcDbDictionary
280
     1
281
     1
  3
ACAD_XREC_ROUNDTRIP
360
20483
  0
DICTIONARY
  5
20484
330
19DE9
100
AcDbDictionary
280
     1
281
     1
  3
ACAD_XREC_ROUNDTRIP
360
20485
  0
DICTIONARY
  5
2049E
330
1E028
100
AcDbDictionary
280
     1
281
     1
  3
ACAD_XREC_ROUNDTRIP
360
2049F
  0
DICTIONARY
  5
20498
330
19DF3
100
AcDbDictionary
280
     1
281
     1
  3
ACAD_XREC_ROUNDTRIP
360
20499
  0
DICTIONARY
  5
204A0
330
1E029
100
AcDbDictionary
280
     1
281
     1
  3
ACAD_XREC_ROUNDTRIP
360
204A1
  0
DICTIONARY
  5
20490
330
19DEF
100
AcDbDictionary
280
     1
281
     1
  3
ACAD_XREC_ROUNDTRIP
360
20491
  0
DICTIONARY
  5
20496
330
19DF2
100
AcDbDictionary
280
     1
281
     1
  3
ACAD_XREC_ROUNDTRIP
360
20497
  0
XRECORD
  5
20478
102
{ACAD_REACTORS
330
1E441
102
}
330
1E441
100
AcDbXrecord
280
     1
102
SHADEPLOT
 70
     0
102
SHADEPLOTRESLEVEL
 70
     2
102
SHADEPLOTCUSTOMDPI
 70
   300
  0
XRECORD
  5
1E442
102
{ACAD_REACTORS
330
1E441
102
}
330
1E441
100
AcDbXrecord
280
     1
310
280000000001000079000000010008000000000000790000000000000000000000010000000000000000000000000000FFFFFF000000000000000000000000000000000000000000000000000000000000000000330000006600000099000000CC000000FF00000000330000333300006633000099330000CC330000FF3300
310
0000660000336600006666000099660000CC660000FF66000000990000339900006699000099990000CC990000FF99000000CC000033CC000066CC000099CC0000CCCC0000FFCC000000FF000033FF000066FF000099FF0000CCFF0000FFFF000000003300330033006600330099003300CC003300FF003300003333003333
310
33006633330099333300CC333300FF33330000663300336633006666330099663300CC663300FF66330000993300339933006699330099993300CC993300FF99330000CC330033CC330066CC330099CC3300CCCC3300FFCC330000FF330033FF330066FF330099FF3300CCFF3300FFFF330000006600330066006600660099
310
006600CC006600FF00660000336600333366006633660099336600CC336600FF33660000666600336666006666660099666600CC666600FF66660000996600339966006699660099996600CC996600FF99660000CC660033CC660066CC660099CC6600CCCC6600FFCC660000FF660033FF660066FF660099FF6600CCFF6600
310
FFFF660000009900330099006600990099009900CC009900FF00990000339900333399006633990099339900CC339900FF33990000669900336699006666990099669900CC669900FF66990000999900339999006699990099999900CC999900FF99990000CC990033CC990066CC990099CC9900CCCC9900FFCC990000FF99
310
0033FF990066FF990099FF9900CCFF9900FFFF99000000CC003300CC006600CC009900CC00CC00CC00FF00CC000033CC003333CC006633CC009933CC00CC33CC00FF33CC000066CC003366CC006666CC009966CC00CC66CC00FF66CC000099CC003399CC006699CC009999CC00CC99CC00FF99CC0000CCCC0033CCCC0066CC
310
CC0099CCCC00CCCCCC00FFCCCC0000FFCC0033FFCC0066FFCC0099FFCC00CCFFCC00FFFFCC000000FF003300FF006600FF009900FF00CC00FF00FF00FF000033FF003333FF006633FF009933FF00CC33FF00FF33FF000066FF003366FF006666FF009966FF00CC66FF00FF66FF000099FF003399FF006699FF009999FF00CC
310
99FF00FF99FF0000CCFF0033CCFF0066CCFF0099CCFF00CCCCFF00FFCCFF0000FFFF0033FFFF0066FFFF0099FFFF00CCFFFF00FFFFFF00000000000D0D0D001A1A1A00282828003535350043434300505050005D5D5D006B6B6B00787878008686860093939300A1A1A100AEAEAE00BBBBBB00C9C9C900D6D6D600E4E4E400
310
F1F1F100FFFFFF0000000000000000000000000000000000000000000000000000000000000000000000000000000000E2E2E2E2E2E2E2E2E2E2E2E2E2E2E2E2E2E2E2E2E2E2E2E2E2E2E2E2E2E2E2E2E2E2E2E2E2E2E2E2E2E2E2E2E2E2E2E2E2E2E2E2E2E2E2E2E2E2E2E2E2E2E2E2E2E2E2E2E2E2E2E2E2E2E2E2E2E2E2
310
E2E2E2E2E2E2E2E2E2E2E2E2E2E2E2E2E2E2E2E2E2E2E2E2E2E2E2E2E2E2E2E2E2E2E2E2E2E2E2E2E2E2E2E2E2E2E2E2E2E2E2E2E2E2E2E2E2E2E2E2E2E2E2E2E2E2E2E2E2E2E2E2E2E2E2E2E2E2E2E2E2E2E2E2E2E2E2E2E2E2E2E2E2E2E2E2E2E2E2E2E2E2E2E2E2E2E2E2E2E2E2E2E2E2E2E2E2E2E2E2E2E2E2E2E2E2E2
310
E2E2E2E2E2E2E2E2E2E2E2E2E2E2E2E2E2E2E2E2E2E2E2E2E2E2E2E2E2E2E2E2E2E2E2E2E2E2E2E2E2E2E2E2E2E2E2E2E2E2E2E2E2E2E2E2E2E2E2E2E2E2E2E2E2E2E2E2E2E2E2E2E2E2E2E2E2E2E2E2E2E2E2E2E2E2E2E2E2E2E2E2E2E2E2E2E2E2E2E2E2E2E2E2E2E2E2E2E2E2E2E2E2E2E2E2E2E2E2E2E2E2E2E2E2E2E2
310
E2E2E2E2E2E2E2E2E2E2E2E2E2E2E2E2E2E2E2E2E2E2E2E2E2E2E2E2E2E2E2E2E2E2E2E2E2E2E2E2E2E2E2E2E2E2E2E2E2E2E2E2E2E2E2E2E2E2E2E2E2E2E2E2E2E2E2E2E2E2E2E2E2E2E2E2E2E2E2E2E2E2E2E2E2E2E2E2E2E2E2E2E2E2E2E2E2E2E2E2E2E2E2E2E2E2E2E2E2E2E2E2E2E2E2E2E2E2E2E2E2E2E2E2E2E2E2
310
E2E2E2E2E2E2E2E2E2E2E2E2E2E2E2E2E2E2E2E2E2E2E2E2E2E2E2E2E2E2E2E2E2E2E2E2E2E2E2E2E2E2E2E2E2E2E2E2E2E2E2E2E2E2E2E2E2E2E2E2E2E2E2E2E2E2E2E2E2E2E2E2E2E2E2E2E2E2E2E2E2E2E2E2E2E2E2E2E2E2E2E2E2E2E2E2E2E2E2E2E2E2E2E2E2E2E2E2E2E2E2E2E2E2E2E2E2E2E2E2E2E2E2E2E2E2E2
310
E2E2E2E2E2E2E2E2E2E2E2E2E2E2E2E2E2E2E2E2E2E2E2E2E2E2E2E2E2E2E2E2E2E2E2E2E2E2E2E2E2E2E2E2E2E2E2E2E2E2E2E2E2E2E2E2E2E2E2E2E2E2E2E2E2E2E2E2E2E2E2E2E2E2E2E2E2E2E2E2E2E2E2E2E2E2E2E2E2E2E2E2E2E2E2E2E2E2E2E2E2E2E2E2E2E2E2E2E2E2E2E2E2E2E2E2E2E2E2E2E2E2E2E2E2E2E2
310
E2E2E2E2E2E2E2E2E2E2E2E2E2E2E2E2E2E2E2E2E2E2E2E2E2E2E2E2E2E2E2E2E2E2E2E2E2E2E2E2E2E2E2E2E2E2E2E2E2E2E2E2E2E2E2E2E2E2E2E2E2E2E2E2E2E2E2E2E2E2E2E2E2E2E2E2E2E2E2E2E2E2E2E2E2E2E2E2E2E2E2E2E2BEBEBEBEBEBEBEBEBEBEBEBEBEBEBEBEBEBEBEBEBEBEBEBEBEBEBEBEBEBEBEBEBEBE
310
BEBEBEBEBEBEBEBEBEBEBEBEBEBEBEBEBEBEBEBEBEBEBEBEBEBEBEBEBEBEBEBEBEBEBEBEBEBEBEBEBEBEBEBEBEBEBEBEBEBEBEBEF5F5F5F5F5F5F5F5F5F5F5F5F5F5F5F5F5F5F5F5F5F5F5F5F5E2E2E2E2E2E2E2E2E2E2E2E2E2E2E2E2E2E2E2E2E2E2E2E2E2E2BEBEBEE2E2E2E2E2E2E2E2E2E2E2E2E2E2E2E2E2E2E2E2E2
310
E2E2E2E2E2E2E2E2E2E2E2E2E2E2E2E2E2E2E2E2E2E2E2E2E2E2E2E2E2E2E2E2E2E2E2E2E2E2E2E2E2E2E2E2E2E2E2E2E2E2E2E2E2E2E2E2E2E2E2E2E2E2E2E2E2E2E2E2E2E2E2E2E2E2E2E2E2E2E2E2E2E2E2E2E2E2E2E2E2E2E2BEBEBEBEE2E2E2E2E2E2E2E2E2E2E2E2E2E2E2E2E2E2E2E2E2E2E2E2E2E2E2E2E2E2E2E2
310
E2E2E2E2E2E2E2E2E2E2E2E2E2E2E2E2E2E2E2E2E2E2E2E2E2E2E2E2E2E2E2E2E2E2E2E2E2E2E2E2E2E2E2E2E2E2E2E2E2E2E2E2E2E2BEBEBEBEE2E2E2E2E2E2E2E2E2E2E2E2E2E2F5E2E2E2E2F5E2E2E2E2E2E2E2E2E2E2E2E2E2E2E2E2E2E2E2E2E2E2E2E2E2E2BEE2E2E2BEE2E2E2E2E2E2E2E2E2E2E2E2E2E2E2E2E2E2
310
E2E2E2E2E2E2E2E2E2E2E2E2E2E2E2E2E2E2E2E2E2E2E2E2E2E2E2E2E2E2E2E2E2E2E2E2E2E2E2E2E2E2E2E2E2E2E2E2E2E2E2E2E2E2E2E2E2E2E2E2E2E2E2E2E2E2E2E2E2E2E2E2E2E2E2E2E2E2E2E2E2E2E2E2E2E2E2E2E2E2E2BEBEE2E2E2E2E2E2E2E2E2E2E2E2E2E2E2E2E2E2E2E2E2E2E2E2E2E2E2E2E2E2E2E2E2E2
310
E2E2E2E2E2E2E2E2E2E2E2E2E2E2E2E2E2E2E2E2E2E2E2E2E2E2E2E2E2E2E2E2E2E2E2E2E2E2E2E2E2E2E2E2E2E2E2E2E2E2E2E2E2E2E2E2E2E2E2E2BEBEE2E2E2E2E2E2E2E2E2E2E2F5F5E2E2E2E2F5E2E2E2E2E2E2E2E2E2E2E2E2E2E2E2E2E2E2E2E2E2E2E2E2E2E2BEE2E2E2BEE2E2E2E2E2E2E2E2E2E2E2E2E2E2E2E2
310
E2E2E2E2E2E2E2E2E2E2E2E2E2E2E2E2E2E2E2E2E2E2E2E2E2E2E2E2E2E2E2E2E2E2E2E2E2E2E2E2E2E2E2E2E2E2E2E2E2E2E2E2E2E2E2E2E2E2E2E2E2E2E2E2E2E2E2E2E2E2E2E2E2E2E2E2E2E2E2E2E2E2E2E2E2E2E2E2E2E2E2E2BEE2E2E2E2E2E2E2E2E2E2E2E2E2E2E2E2E2E2E2E2E2E2E2E2E2E2E2E2E2E2E2E2E2E2
310
E2E2E2E2E2E2E2E2E2E2E2E2E2E2E2E2E2E2E2E2E2E2E2E2E2E2E2E2E2E2E2E2E2E2E2E2E2E2E2E2E2E2E2E2E2E2E2E2E2E2E2E2E2E2E2E2E2E2E2E2E2E2E2E2BEE2E2E2E2E2E2E2E2E2E2E2F5E2E2E2E2F5E2E2E2E2E2E2E2E2E2E2E2E2E2E2E2E2E2E2E2E2E2E2E2E2E2BEE2E2E2E2BEBEE2E2E2E2E2E2E2E2E2E2E2E2E2
310
E2E2E2E2E2E2E2E2E2E2E2E2E2E2E2E2E2E2E2E2E2E2E2E2E2E2E2E2E2E2E2E2E2E2E2E2E2E2E2E2E2E2E2E2E2E2E2E2E2E2E2E2E2E2E2E2E2E2E2E2E2E2E2E2E2E2E2E2E2E2E2E2E2E2E2E2E2E2E2E2E2E2E2E2E2E2E2E2E2E2E2E2E2BEE2E2E2E2E2E2E2E2E2E2E2E2E2E2E2E2E2E2E2E2E2E2E2E2E2E2E2E2E2E2E2E2E2
310
E2E2E2E2E2E2E2E2E2E2E2E2E2E2E2E2E2E2E2E2E2E2E2E2E2E2E2E2E2E2E2E2E2E2E2E2E2E2E2E2E2E2E2E2E2E2E2E2E2E2E2E2E2E2E2E2E2E2E2E2E2E2E2E2E2E2E2BEE2E2E2E2E2E2E2E2E2E2F5E2E2E2E2F5E2E2E2E2E2E2E2E2E2E2E2E2E2E2E2E2E2E2E2E2E2E2E2E2E2BEE2E2E2E2BEE2E2E2E2E2E2E2E2E2E2E2E2
310
E2E2E2E2E2E2E2E2E2E2E2E2E2E2E2E2E2E2E2E2E2E2E2E2E2E2E2E2E2E2E2E2E2E2E2E2E2E2E2E2E2E2E2E2E2E2E2E2E2E2E2E2E2E2E2E2E2E2E2E2E2E2E2E2E2E2E2E2E2E2E2E2E2E2E2E2E2E2E2E2E2E2E2E2E2E2E2E2E2E2E2E2E2E2BEE2E2E2E2E2E2E2E2E2E2E2E2E2E2E2E2E2E2E2E2E2E2E2E2E2E2E2E2E2E2E2E2
310
E2E2E2E2E2E2E2E2E2E2E2E2E2E2E2E2E2E2E2E2E2E2E2E2E2E2E2E2E2E2E2E2E2E2E2E2E2E2E2E2E2E2E2E2E2E2E2E2E2E2E2E2E2E2E2E2E2E2E2E2E2E2E2E2E2E2E2E2E2E2BEE2E2E2E2E2E2E2E2E2F5E2E2E2E2F5E2E2E2E2E2E2E2E2E2E2E2E2E2E2E2E2E2E2E2E2E2E2E2E2E2BEE2E2E2E2BEE2E2E2E2E2E2E2E2E2E2
310
E2E2E2E2E2E2E2E2E2E2E2E2E2E2E2E2E2E2E2E2E2E2E2E2E2E2E2E2E2E2E2E2E2E2E2E2E2E2E2E2E2E2E2E2E2E2E2E2E2E2E2E2E2E2E2E2E2E2E2E2E2E2E2E2E2E2E2E2E2E2E2E2E2E2E2E2E2E2E2E2E2E2E2E2E2E2E2E2E2E2E2E2E2E2E2BEE2E2E2E2E2E2E2E2E2BEBEBEBEBEBEBEBEBEBEBEBEBEBEBEBEBEBEBEBEBEBE
310
BEBEBEBEBEBEBEBEBEBEBEBEBEBEBEBEBEBEBEBEBEBEBEBEBEBEBEBEBEBEBEBEBEBEBEBEBEBEBEBEBEBEBEBEBEBEBEBEBEBEBEBEBEBEBEBEBEBEBEBEBEBEBEBEE2E2E2E2E2E2E2E2E2BEE2E2E2E2E2E2E2E2F5E2E2E2E2F5E2E2E2E2E2E2E2E2E2E2E2E2E2E2E2E2E2E2E2E2E2E2E2E2E2BEE2E2E2E2BEE2E2E2E2E2E2E2E2
310
E2E2E2E2E2E2E2E2E2E2E2E2E2E2E2E2E2E2E2E2E2E2E2E2E2E2E2E2E2E2E2E2E2E2E2E2E2E2E2E2E2E2E2E2E2E2E2E2E2E2E2E2E2E2E2E2E2E2E2E2E2E2E2E2E2E2E2E2E2E2E2E2E2E2E2E2E2E2E2E2E2E2E2E2E2E2E2E2E2E2E2E2E2E2E2E2BEE2E2E2E2E2E2E2BEBEBEE2E2E2E2E2E2E2E2E2E2E2E2E2E2E2E2E2E2E2E2
310
E2E2E2E2E2E2E2E2E2E2E2E2E2E2E2E2E2E2E2E2E2E2E2E2E2E2E2E2E2E2E2E2E2E2E2E2E2E2E2E2E2E2E2E2E2E2E2E2E2E2E2E2E2E2E2E2E2E2E2E2E2E2E2E2E2E2BEBEBEE2E2E2E2E2E2E2BEE2E2E2E2E2E2E2F5E2E2E2E2F5E2E2E2E2E2E2E2E2E2E2E2E2E2E2E2E2E2E2E2E2E2E2E2E2E2BEE2E2E2E2BEE2E2E2E2E2E2
310
E2E2E2E2E2E2E2E2E2E2E2E2E2E2E2E2E2E2E2E2E2E2E2E2E2E2E2E2E2E2E2E2E2E2E2E2E2E2E2E2E2E2E2E2E2E2E2E2E2E2E2E2E2E2E2E2E2E2E2E2E2E2E2E2E2E2E2E2E2E2E2E2E2E2E2E2E2E2E2E2E2E2E2E2E2E2E2E2E2E2E2E2E2E2E2E2E2E2BEE2E2E2E2E2BEBEE2E2E2E2E2E2E2E2E2E2E2E2E2E2E2E2E2E2E2E2E2
310
E2E2E2E2E2E2E2E2E2E2E2E2E2E2E2E2E2E2E2E2E2E2E2E2E2E2E2E2E2E2E2E2E2E2E2E2E2E2E2E2E2E2E2E2E2E2E2E2E2E2E2E2E2E2E2E2E2E2E2E2E2E2E2E2E2E2E2E2E2E2E2BEBEE2E2E2E2E2BEE2E2E2E2E2E2E2F5E2E2E2E2F5E2E2E2E2E2E2E2E2E2E2E2E2E2E2E2E2E2E2E2E2E2E2E2E2E2BEE2E2E2E2BEE2E2E2E2
310
E2E2E2E2E2E2E2E2E2E2E2E2E2E2E2E2E2E2E2E2E2E2E2E2E2E2E2E2E2E2E2E2E2E2E2E2E2E2E2E2E2E2E2E2E2E2E2E2E2E2E2E2E2E2E2E2E2E2E2E2E2E2E2E2E2E2E2E2E2E2E2E2E2E2E2E2E2E2E2E2E2E2E2E2E2E2E2E2E2E2E2E2E2E2E2E2E2E2E2BEE2E2E2E2E2E2BEE2E2E2E2E2E2E2E2E2E2E2E2E2E2E2E2E2E2E2E2
310
E2E2E2E2E2E2E2E2E2E2E2E2E2E2E2E2E2E2E2E2E2E2E2E2E2E2E2E2E2E2E2E2E2E2E2E2E2E2E2E2E2E2E2E2E2E2E2E2E2E2E2E2E2E2E2E2E2E2E2E2E2E2E2E2E2E2E2E2E2E2E2E2E2E2BEE2E2E2E2E2E2BEE2E2E2E2E2E2F5E2E2E2E2F5E2E2E2E2E2E2E2E2E2E2E2E2E2E2E2E2E2E2E2E2E2E2E2E2E2BEE2E2E2E2BEE2E2
310
E2E2E2E2E2E2E2E2E2E2E2E2E2E2E2E2E2E2E2E2E2E2E2E2E2E2E2E2E2E2E2E2E2E2E2E2E2E2E2E2E2E2E2E2E2E2E2E2E2E2E2E2E2E2E2E2E2E2E2E2E2E2E2E2E2E2E2E2E2E2E2E2E2E2E2E2E2E2E2E2E2E2E2E2E2E2E2E2E2E2E2E2E2E2E2E2E2E2E2E2E2BEE2E2E2E2E2BEE2E2E2E2E2E2E2E2E2E2E2E2E2E2E2E2E2E2E2
310
E2E2E2E2E2E2E2E2E2E2E2E2E2E2E2E2E2E2E2E2E2E2E2E2E2E2E2E2E2E2E2E2E2E2E2E2E2E2E2E2E2E2E2E2E2E2E2E2E2E2E2E2E2E2E2E2E2E2E2E2E2E2E2E2E2E2E2E2E2E2E2E2E2E2E2E2E2BEE2E2E2E2E2BEE2E2E2E2E2E2F5E2E2E2E2F5E2E2E2E2E2E2E2E2E2E2E2E2E2E2E2E2E2E2E2E2E2E2E2E2E2BEE2E2E2E2BE
310
E2E2E2E2E2E2E2E2E2E2E2E2E2E2E2E2E2E2E2E2E2E2E2E2E2E2E2E2E2E2E2E2E2E2E2E2E2E2E2E2E2E2E2E2E2E2E2E2E2E2E2E2E2E2E2E2E2E2E2E2E2E2E2E2E2E2E2E2E2E2E2E2E2E2E2E2E2E2E2E2E2E2E2E2E2E2E2E2E2E2E2E2E2E2E2E2E2E2E2E2E2E2E2BEE2E2E2E2E2BEE2E2E2E2E2E2E2E2E2E2E2E2E2E2E2E2E2
310
E2E2E2E2E2E2E2E2E2E2E2E2E2E2E2E2E2E2E2E2E2E2E2E2F5F5F5F5F5F5F5F5F5F5F5F5F5F5E2E2E2E2E2E2E2E2E2E2E2E2E2E2E2E2E2E2E2E2E2E2E2E2E2E2E2E2E2E2E2E2E2E2E2E2E2E2E2E2E2BEE2E2E2E2E2BEE2E2E2E2E2E2F5E2E2E2E2F5E2E2E2E2E2E2E2E2E2E2E2E2E2E2E2E2E2E2E2E2E2E2E2E2E2BEE2E2E2
310
E2BEE2E2E2E2E2E2E2E2E2E2F5F5F5F5F5F5F5F5F5F5F5E2E2E2E2E2E2E2E2E2E2E2E2E2E2E2E2E2E2E2E2E2E2E2E2E2E2E2E2E2E2E2E2E2E2E2E2E2E2E2E2E2E2E2E2E2E2E2E2E2E2E2E2E2E2E2E2E2E2E2E2E2E2E2E2E2E2E2E2E2E2E2E2E2E2E2E2E2E2E2E2E2E2BEE2E2E2E2E2BEE2E2E2E2E2E2E2E2E2E2E2E2E2E2E2
310
E2E2E2E2E2E2E2E2E2E2E2E2E2E2E2E2E2E2E2E2E2E2E2E2E2E2F5E2E2E2F5F5F5F5F5F5E2E2E2F5E2E2E2E2E2E2E2E2E2E2E2E2E2E2E2E2E2E2E2E2E2E2E2E2E2E2E2E2E2E2E2E2E2E2E2E2E2E2E2E2E2BEE2E2E2E2E2BEE2E2E2E2E2E2F5E2E2E2E2F5E2E2E2E2E2E2E2E2E2E2E2E2E2E2E2E2E2E2E2E2E2E2E2E2E2BEE2
310
E2E2E2BEE2E2E2E2E2E2E2E2E2E2F5E2E2E2F5F5F5E2E2E2F5E2E2E2E2E2E2E2E2E2E2E2E2E2E2E2E2E2E2E2E2E2E2E2E2E2E2E2E2E2E2E2E2E2E2E2E2E2E2E2E2E2E2E2E2E2E2E2E2E2E2E2E2E2E2E2E2E2E2E2E2E2E2E2E2E2E2E2E2E2E2E2E2E2E2E2E2E2E2E2E2E2BEE2E2E2E2E2BEE2E2E2E2E2E2E2E2E2E2E2E2E2E2
310
E2E2E2E2E2E2E2E2E2E2E2E2E2E2E2E2E2E2E2E2E2E2E2E2E2E2E2E2F5E2E2E2F5F5F5F5F5F5E2E2E2F5E2E2E2E2E2E2E2E2E2E2E2E2E2E2E2E2E2E2E2E2E2E2E2E2E2E2E2E2E2E2E2E2E2E2E2E2E2E2E2E2E2E2BEE2E2E2E2E2BEE2E2E2E2E2F5E2E2E2E2F5E2E2E2E2E2E2E2E2E2E2E2E2E2E2E2E2E2E2E2E2E2E2E2E2E2
310
BEE2E2E2E2BEE2E2E2E2E2E2E2E2E2E2F5E2E2E2F5F5F5E2E2E2F5E2E2E2E2E2E2E2E2E2E2E2E2E2E2E2E2E2E2E2E2E2E2E2E2E2E2E2E2E2E2E2E2E2E2E2E2E2E2E2E2E2E2E2E2E2E2E2E2E2E2E2E2E2E2E2E2E2E2E2E2E2E2E2E2E2E2E2E2E2E2E2E2E2E2E2E2E2E2E2E2E2BEE2E2E2E2E2BEE2E2E2E2E2E2E2E2E2E2E2E2
310
E2E2E2E2E2E2E2E2E2E2E2E2E2E2E2E2E2E2E2E2E2E2E2E2E2E2E2E2E2E2F5E2E2E2E2E2E2E2E2E2E2E2E2F5E2E2E2E2E2E2E2E2E2E2E2E2E2E2E2E2E2E2E2E2E2E2E2E2E2E2E2E2E2E2E2E2E2E2E2E2E2E2E2E2E2E2BEBEE2E2E2E2BEE2E2E2E2E2F5E2E2E2E2F5E2E2E2E2E2E2E2E2E2E2E2E2E2E2E2E2E2E2E2E2E2E2E2
310
E2E2BEE2E2E2E2BEE2E2E2E2E2E2E2E2E2E2F5E2E2E2E2E2E2E2E2E2F5E2E2E2E2E2E2E2E2E2E2E2E2E2E2E2E2E2E2E2E2E2E2E2E2E2E2E2E2E2E2E2E2E2E2E2E2E2E2E2E2E2E2E2E2E2E2E2E2E2E2E2E2E2E2E2E2E2E2E2E2E2E2E2E2E2E2E2E2E2E2E2E2E2E2E2E2E2E2E2E2E2BEE2E2E2E2E2BEE2E2E2E2E2E2E2E2E2E2
310
E2E2E2E2E2E2E2E2E2E2E2E2E2E2E2E2E2E2E2E2E2E2E2E2E2E2E2E2E2E2E2E2F5E2E2E2E2E2E2E2E2E2E2E2E2F5E2E2E2E2E2E2E2E2E2E2E2E2E2E2E2E2E2E2E2E2E2E2E2E2E2E2E2E2E2E2E2E2E2E2E2E2E2E2E2E2E2E2E2BEE2E2E2E2BEE2E2E2E2E2F5E2E2E2E2F5E2E2E2E2E2E2E2E2E2E2E2E2E2E2E2E2E2E2E2E2E2
310
E2E2E2E2BEE2E2E2E2BEE2E2E2E2E2E2E2E2E2E2F5E2E2E2E2E2E2E2E2E2F5E2E2E2E2E2E2E2E2E2E2E2E2E2E2E2E2E2E2E2E2E2E2E2E2E2E2E2E2E2E2E2E2E2E2E2E2E2E2E2E2E2E2E2E2E2E2E2E2E2E2E2E2E2E2E2E2E2E2E2E2E2E2E2E2E2E2E2E2E2E2E2E2E2E2E2E2E2E2E2E2E2BEE2E2E2E2E2BEE2E2E2E2E2E2E2E2
310
E2E2E2E2E2E2E2E2E2E2E2E2E2E2E2E2E2E2E2E2E2E2E2E2E2E2E2E2E2E2E2E2E2E2F5E2E2E2E2E2E2E2E2E2E2E2E2F5E2E2E2E2E2E2E2E2E2E2E2E2E2E2E2E2E2E2E2E2E2E2E2E2E2E2E2E2E2E2E2E2E2E2E2E2E2E2E2E2E2E2E2BEE2E2E2E2BEE2E2E2E2E2F5E2E2E2E2F5E2E2E2E2E2E2E2E2E2E2E2E2E2E2E2E2E2E2E2
310
E2E2E2E2E2E2BEE2E2E2E2BEE2E2E2E2E2E2E2E2E2E2F5E2E2E2E2E2E2E2E2E2F5E2E2E2E2E2E2BEE2E2E2E2BEE2E2E2E2E2E2E2E2E2E2E2E2E2E2E2E2E2E2E2E2E2E2E2E2E2E2E2E2E2E2E2E2E2E2E2E2E2E2E2E2E2E2E2E2E2E2E2E2E2E2E2E2E2E2E2E2E2E2E2E2E2E2E2E2E2E2E2E2E2BEE2E2E2E2E2BEE2E2E2E2E2E2
310
E2E2E2E2E2E2E2E2E2E2E2E2E2E2E2E2E2E2E2E2E2E2E2E2E2E2E2E2E2E2E2E2E2E2E2E2F5E2E2E2E2E2E2E2E2E2E2E2E2F5E2E2E2E2E2E2E2E2E2E2E2E2E2E2E2E2E2E2E2E2E2E2E2E2E2E2E2E2E2E2E2E2E2E2E2E2E2E2E2E2E2E2E2BEE2E2E2E2BEE2E2E2E2E2F5E2E2E2E2F5E2E2E2E2E2E2E2E2E2E2E2E2E2E2E2E2E2
310
E2E2E2E2E2E2E2E2BEE2E2E2E2BEE2E2E2E2E2E2E2E2E2E2F5E2E2E2E2E2E2E2E2E2BEE2E2E2E2E2E2BEE2E2E2E2BEE2E2E2E2E2E2E2E2E2E2E2E2E2E2E2E2E2E2E2E2E2E2E2E2E2E2E2E2E2E2E2E2E2E2E2E2E2E2E2E2E2E2E2E2E2E2E2E2E2E2E2E2E2E2E2E2E2E2E2E2E2E2E2E2E2E2E2E2E2BEE2E2E2E2E2BEE2E2E2E2
310
E2E2E2E2E2E2E2E2E2E2E2E2E2E2E2E2E2E2E2E2E2E2E2E2E2E2E2E2E2E2E2E2E2E2E2E2E2E2F5E2E2E2E2E2E2E2E2E2E2E2E2F5E2E2E2E2E2E2E2E2E2E2E2E2E2E2E2E2E2E2E2E2E2E2E2E2E2E2E2E2E2E2E2E2E2E2E2E2E2E2E2E2E2E2E2BEE2E2E2E2BEE2E2F5E2E2F5E2E2E2E2F5E2E2E2E2E2E2E2E2E2E2E2E2E2E2E2
310
E2E2E2E2E2E2E2E2E2E2BEE2E2E2E2BEE2E2E2E2E2E2E2E2E2E2F5E2E2E2E2E2E2E2E2E2BEE2E2E2E2E2E2BEE2E2E2E2BEE2E2E2E2E2E2E2E2E2E2E2E2E2E2E2E2E2E2E2E2E2E2E2E2E2E2E2E2E2E2E2E2E2E2E2E2E2E2E2E2E2E2E2E2E2E2E2E2E2E2E2E2E2E2E2E2E2E2E2E2E2E2E2E2E2E2E2E2E2BEE2E2E2E2E2BEE2E2
310
E2E2E2E2E2E2E2E2E2E2E2E2E2E2E2E2E2E2E2E2E2E2E2E2E2E2E2E2E2E2E2E2E2E2E2E2E2E2E2E2F5E2E2E2E2E2E2E2E2E2E2E2E2F5E2E2E2E2E2E2E2E2E2E2E2E2E2E2E2E2E2E2E2E2E2E2E2E2E2E2E2E2E2E2E2E2E2E2E2E2E2E2E2E2E2E2E2BEE2E2E2E2BEE2E2F5F5F5F5E2E2E2E2F5E2E2E2E2E2E2E2E2E2E2E2E2E2
310
E2E2E2E2E2E2E2E2E2E2E2E2BEE2E2E2E2BEE2E2E2E2E2E2E2E2E2E2F5E2E2E2E2E2E2E2E2E2BEE2E2E2E2E2E2BEE2E2E2E2BEE2E2E2E2E2E2E2E2E2E2E2E2E2E2E2E2E2E2E2E2E2E2E2E2E2E2E2E2E2E2E2E2E2E2E2E2E2E2E2E2E2E2E2E2E2E2E2E2E2E2E2E2E2E2E2E2E2E2E2E2E2E2E2E2E2E2E2E2E2BEE2E2E2E2E2BE
310
E2E2E2E2E2E2E2E2E2E2E2E2E2E2E2E2E2E2E2E2E2E2E2E2E2E2E2E2E2E2E2E2E2E2E2E2E2E2E2E2E2E2F5E2E2E2E2E2E2E2E2E2E2E2E2F5E2E2E2E2E2E2E2E2E2E2E2E2E2E2E2E2E2E2E2E2E2E2E2E2E2E2E2E2E2E2E2E2E2E2E2E2E2E2E2E2E2E2E2BEE2E2E2E2BEE2E2F5F5F5F5E2E2E2E2F5E2E2E2E2E2E2E2E2E2E2E2
310
E2E2E2E2E2E2E2E2E2E2E2E2E2E2BEE2E2E2E2BEE2E2E2E2E2E2E2E2E2E2F5E2E2E2E2E2E2E2E2E2BEE2E2E2E2E2E2BEE2E2E2E2BEE2E2E2E2E2E2E2E2E2E2E2E2E2E2E2E2E2E2E2E2E2E2E2E2E2E2E2E2E2E2E2E2E2E2E2E2E2E2E2E2E2E2E2E2E2E2E2E2E2E2E2E2E2E2E2E2E2E2E2E2E2E2E2E2E2E2E2E2E2BEE2E2E2E2
310
E2BEE2E2E2E2E2E2E2E2E2E2E2E2E2E2E2E2E2E2E2E2E2E2E2E2E2E2E2E2E2E2E2E2E2E2E2E2E2E2E2E2E2E2F5E2E2E2E2E2E2E2E2E2E2E2E2F5E2E2E2E2E2E2E2E2E2E2E2E2E2E2E2E2E2E2E2E2E2E2E2E2E2E2E2E2E2E2E2E2E2E2E2E2E2E2E2E2E2E2E2BEE2E2E2E2BEE2E2F5F5F5F5E2E2E2E2F5E2E2E2E2E2E2E2E2E2
310
E2E2E2E2E2E2E2E2E2E2E2E2E2E2E2E2BEE2E2E2E2BEE2E2E2E2E2E2E2E2E2E2F5E2E2E2E2E2E2E2E2E2BEE2E2E2E2E2E2BEE2E2E2E2BEE2E2E2E2E2E2E2E2E2E2E2E2E2E2E2E2E2E2E2E2E2E2E2E2E2E2E2E2E2E2E2E2E2E2E2E2E2E2E2E2E2E2E2E2E2E2E2E2E2E2E2E2E2E2E2E2E2E2E2E2E2E2E2E2E2E2E2E2E2BEE2E2
310
E2E2E2BEE2E2E2E2E2E2E2E2E2E2E2E2E2E2E2E2E2E2E2E2E2E2E2E2E2E2E2E2E2E2E2E2E2E2E2E2E2E2E2E2E2E2F5E2E2E2E2E2E2E2E2E2E2E2E2F5E2E2E2E2E2E2E2E2E2E2E2E2E2E2E2E2E2E2E2E2E2E2E2E2E2E2E2E2E2E2E2E2E2E2E2E2E2E2E2E2E2E2E2BEE2E2E2E2BEE2E2E2E2E2F5E2E2F5F5F5E2E2E2E2E2E2E2
310
E2E2E2E2E2E2E2E2E2E2E2E2E2E2E2E2E2E2BEE2E2E2E2BEE2E2E2E2E2E2E2E2E2E2F5E2E2E2E2E2E2E2E2E2BEE2E2E2E2E2E2BEE2E2E2E2BEE2E2E2E2E2E2E2E2E2E2E2E2E2E2E2E2E2E2E2E2E2E2E2E2E2E2E2E2E2E2E2E2E2E2E2E2E2E2E2E2E2E2E2E2E2E2E2E2E2E2E2E2E2E2E2E2E2E2E2E2E2E2E2E2E2E2E2E2E2BE
310
E2E2E2E2E2BEE2E2E2E2E2E2E2E2E2E2E2E2E2E2E2E2E2E2E2E2E2E2E2E2E2E2E2E2E2E2E2E2E2E2E2E2E2E2E2BEBEBEBEBEBEBEBEBEBEBEBEBEBEBEBEBEBEBEBEBEE2E2E2E2E2E2E2E2E2E2E2E2E2E2E2E2E2E2E2E2E2E2E2E2E2E2E2E2E2E2E2E2E2E2E2E2E2E2E2BEE2E2E2E2BEE2E2E2E2E2F5E2E2F5F5F5E2E2E2E2E2
310
E2E2E2E2E2E2E2E2E2E2E2E2E2E2E2E2E2E2E2E2BEE2E2E2E2BEE2E2E2E2E2E2E2E2E2E2F5E2E2E2E2E2E2E2E2E2BEE2E2E2E2E2E2BEE2E2E2E2BEE2E2E2E2E2E2E2E2E2E2E2E2E2E2E2E2E2E2E2E2E2E2E2E2E2E2E2E2E2E2E2E2E2E2E2E2E2E2E2E2E2E2E2E2E2E2E2E2E2E2E2E2E2E2E2E2E2E2E2E2E2E2E2E2E2E2E2E2
310
E2BEE2E2E2E2E2BEE2E2E2E2E2E2E2E2E2E2E2E2E2E2E2E2E2E2E2E2E2E2E2E2E2E2E2E2E2E2E2E2E2E2E2E2E2E2E2E2E2E2F5E2E2E2E2E2E2E2E2E2E2E2E2F5E2E2E2E2E2E2E2E2E2E2E2E2E2E2E2E2E2E2E2E2E2E2E2E2E2E2E2E2E2E2E2E2E2E2E2E2E2E2E2E2E2E2E2BEE2E2E2E2BEE2E2E2E2E2F5E2E2F5F5F5E2E2E2
310
E2E2E2E2E2E2E2E2E2E2E2E2E2E2E2E2E2E2E2E2E2E2BEE2E2E2E2BEE2E2E2E2E2E2E2E2E2E2F5E2E2E2E2E2E2E2E2E2BEE2E2E2E2E2E2BEE2E2E2E2BEE2E2E2E2E2E2E2E2E2E2E2E2E2E2E2E2E2E2E2E2E2E2E2E2E2E2E2E2E2E2E2E2E2E2E2E2E2E2E2E2E2E2E2E2E2E2E2E2E2E2E2E2E2E2E2E2E2E2E2E2E2E2E2E2E2E2
310
E2E2E2BEE2E2E2E2E2BEE2E2E2E2E2E2E2E2E2E2E2E2E2E2E2E2E2E2E2E2E2E2E2E2E2E2E2E2E2E2E2E2E2E2E2E2E2E2BEE2E2E2F5E2E2E2E2E2E2E2E2E2E2E2E2F5E2E2E2BEE2E2E2E2E2E2E2E2E2E2E2E2E2E2E2E2E2E2E2E2E2E2E2E2E2E2E2E2E2E2E2E2E2E2E2E2E2E2BEBEE2E2E2E2BEE2E2E2E2E2F5E2E2F5F5F5E2
310
E2E2E2E2E2E2E2E2E2E2E2E2E2E2E2E2E2E2E2E2E2E2E2E2BEE2E2E2E2BEE2E2E2E2E2E2E2E2E2E2F5E2E2E2E2E2BEBEBEBEBEF5F5F5F5F5F5F5F5F5F5F5F5F5F5F5F5F5F5F5F5F5F5F5F5F5F5F5F5F5E2E2E2E2E2E2E2E2E2E2E2E2E2E2E2E2E2E2E2E2E2E2E2E2E2E2E2E2E2E2E2E2E2E2E2E2E2E2E2E2E2E2E2E2E2E2E2
310
E2E2E2E2E2BEE2E2E2E2E2BEE2E2E2E2E2E2E2E2E2E2E2E2E2E2E2E2E2E2E2E2E2E2E2E2E2E2E2E2E2E2E2E2E2E2E2E2E2BEE2E2BEE2F5E2E2E2E2E2E2E2E2E2E2E2E2F5E2BEE2E2BEE2E2E2E2E2E2E2E2E2E2E2E2E2E2E2E2E2E2E2E2E2E2E2E2E2E2E2E2E2E2E2E2E2E2E2E2E2BEE2E2E2E2E2BEE2E2E2E2E2F5E2E2E2E2
310
F5E2E2E2E2E2E2E2E2E2E2E2E2E2E2E2E2E2E2E2E2E2E2E2E2E2BEE2E2E2E2BEE2E2E2E2E2E2E2E2E2E2F5E2E2E2E2E2BEE2E2E2BEE2E2E2E2E2E2BEE2E2E2E2BEE2E2E2E2E2E2E2E2E2E2E2E2E2E2E2F5F5E2E2E2E2E2E2E2E2E2E2E2E2E2E2E2E2E2E2E2E2E2E2E2E2E2E2E2E2E2E2E2E2E2E2E2E2E2E2E2E2E2E2E2E2E2
310
E2E2E2E2E2E2E2F5BEE2E2E2E2E2BEE2E2E2E2E2E2E2E2E2E2E2E2E2E2E2E2E2E2E2E2E2E2E2E2E2E2E2E2E2E2E2E2E2E2E2E2E2E2F5F5F5F5F5F5F5F5F5F5F5F5F5F5F5F5F5F5F5F5E2E2E2E2E2E2E2E2E2E2E2E2E2E2E2E2E2E2E2E2E2E2E2E2E2E2E2E2E2E2E2E2E2E2E2E2E2E2BEE2E2E2E2E2BEF5E2E2E2E2E2F5E2E2
310
E2E2F5E2E2E2E2E2E2E2E2E2E2E2E2E2E2E2E2E2E2E2E2E2E2E2E2E2BEE2E2E2E2BEE2E2E2E2E2E2E2E2E2E2F5E2E2E2E2E2BEE2F5F5F5E2E2E2E2E2E2BEE2E2E2E2BEE2E2E2E2E2E2E2E2E2E2E2E2E2E2E2F5E2E2E2E2E2E2E2E2E2E2E2E2E2E2E2E2E2E2E2E2E2E2E2E2E2E2E2E2E2E2E2E2E2E2E2E2E2E2E2E2E2E2E2E2
310
E2E2E2E2E2E2E2E2E2F5BEE2E2E2E2E2BEE2E2E2E2E2E2E2E2E2E2E2E2E2E2E2E2E2E2E2E2E2E2E2E2E2E2E2E2E2E2E2E2E2E2E2E2E2E2F5BEE2F5E2E2E2E2E2E2E2E2E2E2E2E2F5E2BEF5E2E2E2E2E2E2E2E2E2E2E2E2E2E2E2E2E2E2E2E2E2E2E2E2E2E2E2E2E2E2E2E2E2E2E2E2E2E2BEE2E2E2E2E2BEF5E2E2E2E2E2F5
310
E2E2E2E2F5E2E2E2E2E2E2E2E2E2E2E2E2E2E2E2E2E2E2E2E2E2E2E2E2E2BEE2E2E2E2BEE2E2E2E2E2E2E2E2E2E2F5E2E2E2E2E2BEE2F5E2F5E2E2E2E2E2E2BEE2E2E2E2BEE2E2E2E2E2E2E2E2E2E2E2E2E2E2E2F5E2E2E2E2E2E2E2E2E2E2E2E2E2E2E2E2E2E2E2E2E2E2E2E2E2E2E2E2E2E2E2E2E2E2E2E2E2E2E2E2E2E2
310
E2E2E2E2E2E2E2E2E2E2E2F5BEE2E2E2E2E2BEE2E2E2E2E2E2E2E2E2E2E2E2E2E2E2E2E2E2E2E2E2E2E2E2E2E2E2E2E2E2E2E2E2E2E2E2E2E2F5BEE2F5E2E2E2E2E2E2E2E2E2E2E2E2F5E2BEF5E2E2E2E2E2E2E2E2E2E2E2E2E2E2E2E2E2E2E2E2E2E2E2E2E2E2E2E2E2E2E2E2E2E2E2E2E2E2BEE2E2E2E2E2BEF5E2E2E2E2
310
E2F5E2E2E2E2F5E2E2E2E2E2E2E2E2E2E2E2E2E2E2E2E2E2E2E2E2E2E2E2E2E2BEE2E2E2E2BEE2E2E2E2E2E2E2E2E2E2F5E2E2E2E2E2BEE2F5E2F5E2E2E2E2E2E2BEE2E2E2E2BEE2E2E2E2E2E2E2E2E2E2E2E2E2E2E2F5E2E2E2E2E2E2E2E2E2E2E2E2E2E2E2E2E2E2E2E2E2E2E2E2E2E2E2E2E2E2E2E2E2E2E2E2E2E2E2E2
310
E2E2E2E2E2E2E2E2E2E2E2E2E2F5BEE2E2E2E2E2E2BEE2E2E2E2E2E2E2E2E2E2E2E2E2E2E2E2E2E2E2E2E2E2E2E2E2E2E2E2E2E2E2E2E2E2E2E2E2F5BEE2F5E2E2E2E2E2E2E2E2E2E2E2E2F5E2BEF5E2E2E2E2E2E2E2E2E2E2E2E2E2E2E2E2E2E2E2E2E2E2E2E2E2E2E2E2E2E2E2E2E2E2E2E2E2BEE2E2E2E2E2E2BEF5E2E2
310
E2E2E2F5E2E2E2E2F5E2E2E2E2E2E2E2E2E2E2E2E2E2E2E2E2E2E2E2E2E2E2E2E2E2BEE2E2E2E2BEE2E2E2E2E2E2E2E2E2E2F5E2E2E2E2E2BEE2F5E2F5E2E2E2E2E2E2BEE2E2E2E2BEE2E2E2E2E2E2E2E2E2E2E2E2E2E2E2F5E2E2E2E2E2E2E2E2E2E2E2E2E2E2E2E2E2E2E2E2E2E2E2E2E2E2E2E2E2E2E2E2E2E2E2E2E2E2
310
E2E2E2E2E2E2E2E2E2E2E2E2E2E2E2F5E2BEE2E2E2E2E2BEBEE2E2E2E2E2E2E2E2E2E2E2E2E2E2E2E2E2E2E2E2E2E2E2E2E2E2E2E2E2E2E2E2E2E2E2E2F5BEE2F5E2E2E2E2E2E2E2E2E2E2E2E2F5E2BEF5E2E2E2E2E2E2E2E2E2E2E2E2E2E2E2E2E2E2E2E2E2E2E2E2E2E2E2E2E2E2E2E2E2E2E2E2BEBEE2E2E2E2E2BEE2F5
310
E2E2E2E2E2F5E2E2E2E2F5E2E2E2E2E2E2E2E2E2E2E2E2E2E2E2E2E2E2E2E2E2E2E2E2E2BEE2E2E2E2BEE2E2E2E2E2E2E2E2E2E2F5E2E2E2E2E2BEE2F5E2F5E2E2E2E2E2E2BEE2E2E2E2BEE2E2E2E2E2E2E2E2E2E2E2E2E2E2E2F5E2E2E2E2E2E2E2E2E2E2E2E2E2E2E2E2E2E2E2E2E2E2E2E2E2E2E2E2E2E2E2E2E2E2E2E2
310
E2E2E2E2E2E2E2E2E2E2E2E2E2E2E2E2E2F5E2BEE2E2E2E2E2E2E2BEBEBEE2E2E2E2E2E2E2E2E2E2E2E2E2E2E2E2E2E2E2E2E2E2E2E2E2E2E2E2E2E2E2E2E2F5BEE2F5E2F5F5F5F5BEBEF5F5F5F5E2F5E2BEF5E2E2E2E2E2E2E2E2E2E2E2E2E2E2E2E2E2E2E2E2E2E2E2E2E2E2E2E2E2E2E2E2E2BEBEBEE2E2E2E2E2E2E2BE
310
E2F5E2E2E2E2E2F5E2E2E2E2F5E2E2E2E2E2E2E2E2E2E2E2E2E2E2E2E2E2E2E2E2E2E2E2E2E2BEE2E2E2E2BEE2E2E2E2E2E2E2BEBEBEF5BEBEBEBEBEBEE2F5E2F5E2E2E2E2E2E2BEE2E2E2E2BEE2E2E2E2E2E2E2E2E2E2E2E2E2E2E2F5E2E2E2E2E2E2E2E2E2E2E2E2E2E2E2E2E2E2E2E2E2E2E2E2E2E2E2E2E2E2E2E2E2E2
310
E2E2E2E2E2E2E2E2E2E2E2E2E2E2E2E2E2E2E2F5E2E2BEE2E2E2E2E2E2E2E2E2BEBEBEBEBEBEBEBEBEBEBEBEBEBEBEBEBEBEBEBEBEBEBEBEBEBEBEBEBEBEBEBEBEF5BEBEF5BEBEBEBEBEBEBEBEBEBEBEBEF5BEBEF5BEBEBEBEBEBEBEBEBEBEBEBEBEBEBEBEBEBEBEBEBEBEBEBEBEBEBEBEBEBEBEBEBEE2E2E2E2E2E2E2E2E2
310
BEE2E2F5E2E2E2E2E2F5E2E2E2E2F5E2E2E2E2E2E2E2E2E2E2E2E2E2E2E2E2E2E2E2E2E2E2E2E2E2BEE2E2F5E2BEBEBEBEBEBEBEBEE2BEBEF5BEBEE2BEE2BEE2F5E2F5E2E2E2E2E2E2BEE2E2E2E2BEE2E2E2E2E2E2E2E2E2E2E2E2E2E2E2F5E2E2E2E2E2E2E2E2E2E2E2E2E2E2E2E2E2E2E2E2E2E2E2E2E2E2E2E2E2E2E2E2
310
E2E2E2E2E2E2E2E2E2E2E2E2E2E2E2E2E2E2E2E2E2F5E2E2E2BEE2E2E2E2E2E2E2E2E2E2E2E2E2E2E2E2E2E2E2E2E2E2E2E2E2E2E2E2E2E2E2E2E2E2E2E2E2BEBEE2E2F5E2E2F5E2E2F5F5F5F5F5F5F5F5E2E2F5E2E2F5E2E2BEBEE2E2E2E2E2E2E2E2E2E2E2E2E2E2E2E2E2E2E2E2E2E2E2E2E2E2E2E2E2E2E2E2E2E2E2E2
310
E2BEE2E2E2F5E2E2E2E2E2F5E2E2E2E2F5E2E2E2E2E2E2E2E2E2E2E2E2E2E2E2E2E2E2E2E2E2E2E2E2E2BEE2E2F5E2BEE2E2E2E2E2E2E2E2F5F5F5F5F5F5F5F5F5F5F5BEF5E2E2E2E2E2E2BEE2E2E2E2BEE2E2E2E2E2E2E2E2E2E2E2E2E2E2E2F5E2E2E2E2E2E2E2E2E2E2E2E2E2E2E2E2E2E2E2E2E2E2E2E2E2E2E2E2E2E2
310
E2E2E2E2E2E2E2E2E2E2E2E2E2E2E2E2E2E2E2E2E2E2E2F5E2E2E2E2BEE2E2E2E2E2E2E2E2E2E2E2E2E2E2E2E2E2E2E2E2E2E2E2E2E2E2E2E2E2E2E2E2E2E2E2E2BEBEE2E2F5E2E2F5F5E2F5E2E2E2E2E2E2F5E2F5F5E2E2F5BEE2BEBEE2E2E2E2E2E2E2E2E2E2E2E2E2E2E2E2E2E2E2E2E2E2E2E2E2E2E2E2E2E2E2E2E2E2
310
E2E2BEE2E2E2E2F5E2E2E2E2E2F5E2E2E2E2F5E2E2E2E2E2E2E2E2E2E2E2E2E2E2E2E2E2E2E2E2E2E2E2E2E2BEE2E2F5E2BEE2E2E2E2E2E2E2F5E2F5F5F5E2E2E2E2BEF5F5F5F5F5F5F5F5F5F5F5F5F5F5F5F5F5F5F5F5E2E2E2E2E2E2E2E2E2E2F5F5E2E2E2E2E2E2E2E2E2E2E2E2E2E2E2E2E2E2E2E2E2E2E2E2E2E2E2E2
310
E2E2E2E2E2E2E2E2E2E2E2E2E2E2E2E2E2E2E2E2E2E2E2E2E2F5E2E2E2E2E2BEE2E2E2E2E2E2E2E2E2E2E2E2E2E2E2E2E2E2E2E2E2E2E2E2E2E2E2E2E2E2E2E2E2E2E2BEBEE2E2F5F5F5F5F5F5F5E2E2E2E2E2E2F5F5F5F5F5F5F5BEE2BEBEE2E2E2E2E2E2E2E2E2E2E2E2E2E2E2E2E2E2E2E2E2E2E2E2E2E2E2E2E2E2E2E2
310
E2E2E2BEE2E2E2E2E2F5E2E2E2E2E2F5E2E2E2E2F5E2E2E2E2E2E2E2E2E2E2E2F5F5F5F5F5F5F5F5F5F5F5F5F5F5F5F5F5F5F5F5F5E2E2E2E2E2E2F5E2F5F5F5E2E2E2E2BEF5F5F5F5F5F5F5F5F5F5F5F5F5F5F5F5F5F5F5F5F5F5F5F5F5F5F5E2E2F5F5F5E2E2E2E2E2E2E2E2E2E2E2E2E2E2E2E2E2E2E2E2E2E2E2E2E2E2
310
E2E2E2E2E2E2E2E2E2E2E2E2E2E2E2E2E2E2E2E2E2E2E2E2E2E2E2F5E2E2E2E2E2E2BEBEE2E2E2E2E2E2E2E2E2E2E2E2E2E2E2E2E2E2E2E2E2E2E2E2E2E2E2E2E2E2E2E2E2BEBEE2E2F5E2F5F5F5E2F5E2E2E2E2E2E2F5E2F5F5F5E2F5BEE2BEBEE2E2E2E2E2E2E2E2E2E2E2E2E2E2E2E2E2E2E2E2E2E2E2E2E2E2E2E2E2E2
310
E2E2E2BEBEE2E2E2E2E2E2F5E2E2E2E2E2F5E2E2E2E2F5E2E2E2E2E2E2E2E2E2E2E2E2F5E2E2E2E2E2E2E2E2E2E2E2E2F5BEE2F5E2E2BEE2E2E2E2E2E2F5E2F5F5F5E2E2E2E2BEF5F5F5F5F5F5F5F5F5F5F5F5F5F5F5F5F5F5F5F5E2E2E2E2E2E2F5E2E2F5F5F5E2E2E2E2E2E2E2E2E2E2E2E2E2E2E2E2E2E2E2E2E2E2E2E2
310
E2E2E2E2E2E2E2E2E2E2E2E2E2E2E2E2E2E2E2E2E2E2E2E2E2E2E2E2E2F5E2E2E2E2E2E2E2E2BEBEBEBEE2E2E2E2E2E2E2E2E2E2E2E2E2E2E2E2E2E2E2E2E2E2E2E2E2E2E2E2E2BEBEE2E2F5E2E2F5E2E2F5F5F5F5F5F5F5F5E2E2F5E2E2F5E2E2BEBEE2E2E2E2E2E2E2E2E2E2E2E2E2E2E2E2E2E2E2E2E2E2E2E2E2E2E2E2
310
E2BEBEBEBEE2E2E2E2E2E2E2E2F5E2E2E2E2F5F5E2E2E2E2F5E2E2E2E2E2E2E2E2E2E2E2E2F5E2E2E2E2E2E2E2E2E2E2E2F5F5BEE2F5E2BEE2E2E2E2E2E2E2F5F5F5F5F5F5F5F5F5F5F5F5BEF5E2E2E2E2E2E2BEE2E2E2E2BEE2E2E2E2E2E2E2E2E2E2F5E2E2F5F5F5E2E2E2E2E2E2E2E2E2E2E2E2E2E2E2E2E2E2E2E2E2E2
310
E2E2E2E2E2E2E2E2E2E2E2E2E2E2E2E2E2E2E2E2E2E2E2E2E2E2E2E2E2E2E2F5E2E2E2E2E2E2E2E2E2E2E2E2BEBEBEBEBEBEBEBEBEBEBEBEBEBEBEBEBEBEBEBEBEBEBEBEBEBEBEBEBEBEBEBEBEF5BEBEF5BEBEBEE2E2E2E2E2E2BEBEBEF5BEBEF5BEBEBEBEBEBEBEBEBEBEBEBEBEBEBEBEBEBEBEBEBEBEBEBEBEBEBEBEBEBE
310
BEBEBEF5F5F5F5F5F5F5F5F5F5F5F5F5F5F5F5F5F5F5E2E2E2E2F5E2E2E2E2E2E2E2E2E2E2E2E2F5E2E2E2E2E2E2E2E2E2E2E2F5F5E2BEF5BEBEBEBEBEBEBEE2E2E2F5E2F5E2E2E2E2E2BEE2F5E2F5E2E2E2E2E2E2BEE2E2E2E2BEE2E2E2E2E2E2E2E2E2E2F5E2E2E2E2F5E2E2E2E2E2E2E2E2E2E2E2E2E2E2E2E2E2E2E2E2
310
E2E2E2E2E2E2E2E2E2E2E2E2E2E2E2E2E2E2E2E2E2E2E2E2E2E2E2E2E2E2E2E2E2F5E2E2E2E2E2E2E2E2E2E2E2E2E2E2E2E2E2E2E2E2E2E2E2E2E2E2E2E2E2E2E2E2E2E2E2E2E2E2E2E2E2E2E2E2E2F5BEE2E2E2BEE2E2E2E2E2E2E2E2BEE2E2E2BEF5E2E2E2E2E2E2E2E2E2E2E2E2E2E2E2E2E2E2E2E2E2E2E2E2E2E2E2E2
310
E2E2E2E2E2E2E2E2E2E2E2E2E2E2E2E2E2F5E2E2E2E2E2E2E2E2E2E2F5E2E2E2E2E2E2E2E2E2E2F5F5F5E2E2E2E2E2E2E2E2E2E2E2F5F5E2E2F5E2E2E2E2E2E2E2BEBEBEBEBEBEBEBEBEBEE2BEE2F5E2F5E2E2E2E2E2E2BEE2E2E2E2BEE2E2E2E2E2E2E2E2F5F5F5E2E2E2E2F5E2E2E2E2E2E2E2E2E2E2E2E2E2E2E2E2E2E2
310
E2E2E2E2E2E2E2E2E2E2E2E2E2E2E2E2E2E2E2E2E2E2E2E2E2E2E2E2E2E2E2E2E2E2E2F5E2E2E2E2E2E2E2E2E2E2E2E2E2E2E2E2E2E2E2E2E2E2E2E2E2E2E2E2E2E2E2E2E2E2E2E2E2E2E2E2E2E2E2E2E2F5BEE2E2E2E2BEBEBEBEBEBEBEBEBEE2E2E2BEF5E2E2E2E2E2E2E2E2E2E2E2E2E2E2E2E2E2E2E2E2E2E2E2E2E2E2
310
E2E2E2E2E2E2E2E2E2E2E2E2E2E2E2E2E2E2E2F5E2E2E2E2E2E2E2E2E2E2F5E2E2E2E2E2E2E2E2E2E2F5F5F5E2E2E2E2E2E2E2E2E2E2F5E2F5E2E2F5E2E2E2E2E2E2E2E2E2E2F5E2E2E2E2E2E2BEBEE2F5E2F5E2E2E2E2E2E2BEE2E2E2E2BEE2E2E2E2E2E2E2E2F5F5F5E2E2E2E2F5E2E2E2E2E2E2E2E2E2E2E2E2E2E2E2E2
310
E2E2E2E2E2E2E2E2E2E2E2E2E2E2E2E2E2E2E2E2E2E2E2E2E2E2E2E2E2E2E2E2E2E2E2E2E2F5E2E2E2E2E2E2E2E2E2E2E2E2E2E2E2E2E2E2E2E2E2E2E2E2E2E2E2E2E2E2E2E2E2E2E2E2E2E2E2E2E2E2E2E2E2F5BEE2E2E2E2E2E2E2E2E2E2E2E2E2E2E2E2BEF5E2E2E2E2E2E2E2E2E2E2E2E2E2E2E2E2E2E2E2E2E2E2E2E2
310
E2E2E2E2E2E2E2E2E2E2E2E2E2E2E2E2E2E2E2E2E2F5E2E2E2E2E2E2E2E2E2E2F5E2E2E2E2E2E2E2E2E2E2F5F5F5E2E2E2E2E2E2E2E2E2F5E2E2F5E2E2F5E2E2E2E2E2E2E2E2E2F5E2E2E2E2E2E2E2E2BEE2F5E2F5E2E2E2E2E2E2BEE2E2E2E2BEE2E2E2E2E2E2E2E2F5F5F5E2E2E2E2F5E2E2E2E2E2E2E2E2E2E2E2E2E2E2
310
E2E2E2E2E2E2E2E2E2E2E2E2E2E2E2E2E2E2E2E2E2E2E2E2E2E2E2E2E2E2E2E2E2E2E2E2E2E2E2F5E2E2E2E2E2E2E2E2E2E2E2E2E2E2E2E2E2E2E2E2E2E2E2E2E2E2E2E2E2E2E2E2E2E2E2E2E2E2E2E2E2E2E2E2E2F5BEE2E2E2E2E2E2E2E2E2E2E2E2E2E2E2E2BEF5E2E2E2E2E2E2E2E2E2E2E2E2E2E2E2E2E2E2E2E2E2E2
310
E2E2E2E2E2E2E2E2E2E2E2E2E2E2E2E2E2E2E2E2E2E2E2F5E2E2E2E2E2E2E2E2E2E2F5E2E2E2E2E2E2E2E2E2E2F5F5F5E2E2E2E2E2E2E2E2E2F5E2E2F5E2E2F5E2E2E2E2E2E2E2E2E2F5E2E2E2E2E2E2E2E2BEE2F5E2F5E2E2E2E2E2E2BEE2E2E2E2BEE2E2E2E2E2E2E2E2F5F5F5E2E2E2E2F5E2E2E2E2E2E2E2E2E2E2E2E2
310
E2E2E2E2E2E2E2E2E2E2E2E2E2E2E2E2E2E2E2E2E2E2E2E2E2E2E2E2E2E2E2E2E2E2E2E2E2E2E2E2E2F5E2E2E2E2E2E2E2E2E2E2E2E2E2E2E2E2E2E2E2E2E2E2E2E2E2E2E2E2E2E2E2E2E2E2E2E2E2E2E2E2E2E2E2E2E2F5BEE2E2E2E2E2E2E2E2E2E2E2E2E2E2E2E2BEF5E2E2E2E2E2E2E2E2E2E2E2E2E2E2E2E2E2E2E2E2
310
E2E2E2E2E2E2E2E2E2E2E2E2E2E2E2E2E2E2E2E2E2E2E2E2E2F5E2E2E2E2E2E2E2E2E2E2F5E2E2E2E2E2E2E2E2E2E2E2E2F5E2E2E2E2E2E2E2E2F5E2E2E2F5E2E2F5E2E2E2E2E2E2E2E2F5E2E2E2E2E2E2E2E2E2BEE2F5E2F5E2E2E2E2E2E2BEE2E2E2E2BEE2E2E2E2E2E2E2E2E2E2F5E2E2E2E2F5E2E2E2E2E2E2E2E2E2E2
310
E2E2E2E2E2E2E2E2E2E2E2E2E2E2E2E2E2E2E2E2E2E2E2E2E2E2E2E2E2E2E2E2E2E2E2E2E2E2E2E2E2E2E2F5E2E2E2E2E2E2E2E2E2E2E2E2E2E2E2E2E2E2E2E2E2E2E2E2E2E2E2E2E2E2E2E2E2E2E2E2E2E2E2E2E2E2E2E2E2F5F5F5F5F5F5F5F5F5F5F5F5F5F5F5F5F5F5F5F5E2E2E2E2E2E2E2E2E2E2E2E2E2E2E2E2E2E2
310
E2E2E2E2E2E2E2E2E2E2E2E2E2E2E2E2E2E2E2E2E2E2E2E2E2E2E2F5E2E2E2E2E2E2E2E2E2E2F5E2E2E2E2E2E2E2E2E2E2E2E2F5E2E2E2E2E2E2E2F5E2E2E2E2F5E2E2F5E2E2E2E2E2E2E2E2F5E2E2E2E2E2E2E2E2E2BEE2F5F5F5E2E2E2E2E2E2BEE2E2E2E2BEE2E2E2E2E2E2E2E2E2E2F5E2E2E2E2F5E2E2E2E2E2E2E2E2
310
E2E2E2E2E2E2E2E2E2E2E2E2E2E2E2E2E2E2E2E2E2E2E2E2E2E2E2E2E2E2E2E2E2E2E2E2E2E2E2E2E2E2E2E2E2F5E2E2E2E2E2E2E2E2E2E2E2E2E2E2E2E2E2E2E2E2E2E2E2E2E2E2E2E2E2E2E2E2E2E2E2E2E2E2E2E2E2E2E2BEE2E2BEE2E2E2E2E2E2E2E2E2E2E2E2E2E2E2E2BEE2E2BEE2E2E2E2E2E2E2E2E2E2E2E2E2E2
310
E2E2E2E2E2E2E2E2E2E2E2E2E2E2E2E2E2E2E2E2E2E2E2E2E2E2E2E2E2F5E2E2E2E2E2E2E2E2E2E2F5E2E2E2E2E2E2E2E2E2E2E2E2F5E2E2E2E2E2E2E2F5E2E2E2E2F5E2E2F5E2E2E2E2E2E2E2E2F5E2E2E2E2E2E2E2E2E2BEE2E2E2BEE2E2E2E2E2E2BEE2E2E2E2BEE2E2E2E2E2E2E2E2E2E2F5E2E2E2E2F5F5E2E2E2E2E2
310
E2E2E2E2E2E2E2E2E2E2E2E2E2E2E2E2E2E2E2E2E2E2E2E2E2E2E2E2E2E2E2E2E2E2E2E2E2E2E2E2E2E2E2E2E2E2E2F5E2E2E2E2E2E2E2E2E2E2E2E2E2E2E2E2E2E2E2E2E2E2E2E2E2E2E2E2E2E2E2E2E2E2E2E2E2E2E2E2E2E2E2E2BEE2E2E2E2E2E2E2E2E2E2F5F5F5F5F5F5F5F5F5F5BEF5F5F5F5F5F5F5F5F5F5F5F5F5
310
F5F5F5F5F5F5F5F5F5F5F5F5F5F5F5F5F5F5F5F5F5F5F5F5F5F5F5F5F5F5F5F5F5F5F5F5F5F5F5F5F5F5F5F5E2E2E2E2E2E2E2E2E2E2F5F5F5F5F5F5F5F5F5F5F5F5F5F5F5F5F5F5F5F5F5F5F5F5F5F5F5F5F5F5F5F5F5F5F5F5BEBEBEBEBEF5F5F5F5F5F5F5F5F5F5F5F5F5F5F5F5F5F5F5F5F5F5F5F5F5F5F5F5F5E2E2E2
310
E2E2E2E2E2E2E2E2E2E2E2E2E2E2E2E2E2E2E2E2E2E2E2E2E2E2E2E2E2E2E2E2E2E2E2E2E2E2E2E2E2E2E2E2E2E2E2E2E2F5E2E2E2E2E2E2E2E2E2E2E2E2E2E2E2E2E2E2E2E2E2E2E2E2E2E2E2E2E2E2E2E2E2E2E2E2E2E2E2E2E2E2E2E2E2E2E2E2E2E2E2E2E2E2E2E2E2E2E2E2E2E2E2E2E2E2E2E2E2E2E2E2E2E2E2E2E2
310
E2E2E2E2E2E2E2E2E2E2E2E2E2E2E2E2E2E2E2E2E2E2E2E2E2E2E2E2E2E2E2E2E2F5E2E2E2E2E2E2E2E2E2E2E2E2E2E2E2E2E2E2E2E2E2E2E2E2E2E2E2E2E2F5E2E2E2E2E2E2F5E2E2F5E2E2E2E2E2E2E2F5E2E2E2E2E2E2E2E2E2E2E2E2E2E2BEE2E2E2E2E2E2BEE2E2E2E2BEE2E2E2E2E2E2E2E2E2E2E2E2E2E2E2E2E2E2
310
E2E2E2E2E2E2E2E2E2E2E2E2E2E2E2E2E2E2E2E2E2E2E2E2E2E2E2E2E2E2E2E2E2E2E2E2E2E2E2E2E2E2E2E2E2E2E2E2E2E2E2F5E2E2E2E2E2E2E2E2E2E2E2E2E2E2E2E2E2E2E2E2E2E2E2E2E2E2E2E2E2E2E2E2E2E2E2E2E2E2E2E2E2E2E2E2E2BEBEBEBEBEBEBEBEBEBEBEBEBEBEBEBEBEBEBEBEBEE2E2E2E2E2E2E2E2E2
310
E2E2E2E2E2E2E2E2E2E2E2E2E2E2E2E2E2E2E2E2E2E2E2E2E2E2E2E2E2E2E2E2E2E2E2F5E2E2E2E2E2E2E2E2E2E2E2E2E2E2E2E2E2E2E2E2E2E2E2E2E2E2E2E2F5E2E2E2E2E2E2E2F5E2E2F5E2E2E2E2E2E2E2F5E2E2E2E2E2E2E2E2E2E2E2E2E2E2BEE2E2E2E2E2E2BEE2E2E2E2BEE2E2E2E2E2E2E2E2E2E2E2E2E2E2E2E2
310
E2E2E2E2E2E2E2E2E2E2E2E2E2E2E2E2E2E2E2E2E2E2E2E2E2E2E2E2E2E2E2E2E2E2E2E2E2E2E2E2E2E2E2E2E2E2E2E2E2E2E2E2E2F5E2E2E2E2E2E2E2E2E2E2E2E2E2E2E2E2E2E2E2E2E2E2E2E2E2E2E2E2E2E2E2E2E2E2E2E2E2E2E2E2E2E2E2E2E2E2E2E2E2E2E2E2E2E2E2E2E2E2E2E2E2E2E2E2E2E2E2E2E2E2E2E2E2
310
E2E2E2E2E2E2E2E2E2E2E2E2E2E2E2E2E2E2E2E2E2E2E2E2E2E2E2E2E2E2E2E2E2E2E2E2E2F5E2E2E2E2E2E2E2E2E2E2E2E2E2E2E2E2E2E2E2E2E2E2E2E2E2E2E2E2F5E2E2E2E2E2E2E2F5E2E2F5E2E2E2E2E2E2F5E2E2E2E2E2E2E2E2E2E2E2E2E2E2E2BEE2E2E2E2E2E2BEE2E2E2E2BEE2E2E2E2E2E2E2E2E2E2E2E2E2E2
310
E2E2E2E2E2E2E2E2E2E2E2E2E2E2E2E2E2E2E2E2E2E2E2E2E2E2E2E2E2E2E2E2E2E2E2E2E2E2E2E2E2E2E2E2E2E2E2E2E2E2E2E2E2E2E2F5E2E2E2E2E2E2E2E2E2E2E2E2E2E2E2E2E2E2E2E2E2E2E2E2E2E2E2E2E2E2E2E2E2E2E2E2E2E2E2E2E2E2E2E2E2E2E2E2E2E2E2E2E2E2E2E2E2E2E2E2E2E2E2E2E2E2E2E2E2E2E2
310
E2E2E2E2E2E2E2E2E2E2E2E2E2E2E2E2E2E2E2E2E2E2E2E2E2E2E2E2E2E2E2E2E2E2E2E2E2E2E2F5E2E2E2E2E2E2E2E2E2E2E2E2E2E2E2E2E2E2E2E2E2E2E2E2E2E2E2F5E2E2E2E2E2E2E2E2F5E2E2F5E2E2E2E2E2E2F5E2E2E2E2E2E2E2E2E2E2E2E2E2E2E2BEE2E2E2E2E2E2BEE2E2E2E2BEE2E2E2E2E2E2E2E2E2E2E2E2
310
E2E2E2E2E2E2E2E2E2E2E2E2E2E2E2E2E2E2E2E2E2E2E2E2E2E2E2E2E2E2E2E2E2E2E2E2E2E2E2E2E2E2E2E2E2E2E2E2E2E2E2E2E2E2E2E2E2F5E2E2E2E2E2E2E2E2E2E2E2E2E2E2E2E2E2E2E2E2E2E2E2E2E2E2E2E2E2E2E2E2E2E2E2E2E2E2E2E2E2E2E2E2E2E2E2E2E2E2E2E2E2E2E2E2E2E2E2E2E2E2E2E2E2E2E2E2E2
310
E2E2E2E2E2E2E2E2E2E2E2E2E2E2E2E2E2E2E2E2E2E2E2E2E2E2E2E2E2E2E2E2E2E2E2E2E2E2E2E2E2F5E2E2E2E2E2E2E2E2E2E2E2E2E2E2E2E2E2E2E2E2E2E2E2E2E2E2F5E2E2E2E2E2E2E2E2E2F5E2E2F5E2E2E2E2E2F5E2E2E2E2E2E2E2E2E2E2E2E2E2E2E2E2BEF5E2E2E2E2E2BEE2F5E2E2BEE2E2E2E2E2E2E2E2E2E2
310
E2E2E2E2E2E2E2E2E2E2E2E2E2E2E2E2E2E2E2E2E2E2E2E2E2E2E2E2E2E2E2E2E2E2E2E2E2E2E2E2E2E2E2E2E2E2E2E2E2E2E2E2E2E2E2E2E2E2E2F5E2E2E2E2E2E2E2E2E2E2E2E2E2E2E2E2E2E2E2E2E2E2E2E2E2E2E2E2E2E2E2E2E2E2E2E2E2E2E2E2E2E2E2E2E2E2E2E2E2E2E2E2E2E2E2E2E2E2E2E2E2E2E2E2E2E2E2
310
E2E2E2E2E2E2E2E2E2E2E2E2E2E2E2E2E2E2E2E2E2E2E2E2E2E2E2E2E2E2E2E2E2E2E2E2E2E2E2E2E2E2E2F5E2E2E2E2E2E2E2E2E2E2E2E2E2E2E2E2E2E2E2E2E2E2E2E2E2E2F5E2E2E2E2E2E2E2E2E2F5E2E2F5E2E2E2E2E2F5E2E2E2E2E2E2E2E2E2E2E2E2E2E2E2E2BEE2F5E2E2E2E2BEE2F5E2E2BEE2E2E2E2E2E2E2E2
310
E2E2E2E2E2E2E2E2E2E2E2E2E2E2E2E2E2E2E2E2E2E2E2E2E2E2E2E2E2E2E2E2E2E2E2E2E2E2E2E2E2E2E2E2E2E2E2E2E2E2E2E2E2E2E2E2E2E2E2E2E2F5E2E2E2E2E2E2E2E2E2E2E2E2E2E2E2E2E2E2E2E2E2E2E2E2E2E2E2E2E2E2E2E2E2E2E2E2E2E2E2E2E2E2E2E2E2E2E2E2E2E2E2E2E2E2E2E2E2E2E2E2E2E2E2E2E2
310
E2E2E2E2E2E2E2E2E2E2E2E2E2E2E2E2E2E2E2E2E2E2E2E2E2E2E2E2E2E2E2E2E2E2E2E2E2E2E2E2E2E2E2E2E2F5E2E2E2E2E2E2F5F5F5F5F5F5E2F5E2F5F5F5F5F5E2E2F5F5F5F5E2E2E2E2E2E2E2E2E2E2F5E2E2F5E2E2E2E2E2F5E2E2E2E2E2E2E2E2E2E2E2E2E2E2E2E2BEE2F5E2E2E2E2BEE2F5E2E2BEE2E2E2E2E2E2
310
E2E2E2E2E2E2E2E2E2E2E2E2E2E2E2E2E2E2E2E2E2E2E2E2E2E2E2E2E2E2E2E2E2E2E2E2E2E2E2E2E2E2E2E2E2E2E2E2E2E2E2E2E2E2E2E2E2E2E2E2E2E2E2F5E2E2E2E2E2E2E2E2E2E2E2E2E2E2E2E2E2E2E2E2E2E2E2E2E2E2E2E2E2E2E2E2E2E2E2E2E2E2E2E2E2E2E2E2E2E2E2E2E2E2E2E2E2E2E2E2E2E2E2E2E2E2E2
310
E2E2E2E2E2E2E2E2E2E2E2E2E2E2E2E2E2E2E2E2E2E2E2E2E2E2E2E2E2E2E2E2E2E2E2E2E2E2E2E2E2E2E2E2E2E2E2F5E2E2E2E2E2F5F5F5E2F5F5F5F5F5E2F5F5F5E2F5F5F5E2F5E2E2E2E2E2E2E2E2E2E2E2E2F5E2E2F5E2E2E2E2F5E2E2E2E2E2E2E2E2E2E2E2E2E2E2E2E2E2BEE2F5E2E2E2E2BEE2E2F5E2BEE2E2E2E2
310
E2E2E2E2E2E2E2E2E2E2E2E2E2E2E2E2E2E2E2E2E2E2E2E2E2E2E2E2E2E2E2E2E2E2E2E2E2E2E2E2E2E2E2E2E2E2E2E2E2E2E2E2E2E2E2E2E2E2E2E2E2E2E2E2E2F5E2E2E2E2E2E2E2E2E2E2E2E2E2E2E2E2E2E2E2E2E2E2E2E2E2E2E2E2E2E2E2E2E2E2E2E2E2E2E2E2E2E2E2E2E2E2E2E2E2E2E2E2E2E2E2E2E2E2E2E2E2
310
E2E2E2E2E2E2E2E2E2E2E2E2E2E2E2E2E2E2E2E2E2E2E2E2E2E2E2E2E2E2E2E2E2E2E2E2E2E2E2E2E2E2E2E2E2E2E2E2E2F5E2E2E2E2E2E2F5F5E2F5F5F5F5E2E2E2F5F5F5F5E2E2E2F5E2E2E2E2E2E2E2E2E2E2E2E2F5E2E2F5E2E2E2E2F5E2E2E2E2E2E2E2E2E2E2E2E2E2E2E2E2E2BEE2F5E2E2E2E2BEE2E2F5E2BEE2E2
310
E2E2E2E2E2E2E2E2E2E2E2E2E2E2E2E2E2E2E2E2E2E2E2E2E2E2E2E2E2E2E2E2E2E2E2E2E2E2E2E2E2E2E2E2E2E2E2E2E2E2E2E2E2E2E2E2E2E2E2E2E2E2E2E2E2E2E2F5E2E2E2E2E2E2E2E2E2E2E2E2E2E2E2E2E2E2E2E2E2E2E2E2E2E2E2E2E2E2E2E2E2E2E2E2E2E2E2E2E2E2E2E2E2E2E2E2E2E2E2E2E2E2E2E2E2E2E2
310
E2E2E2E2E2E2E2E2E2E2E2E2E2E2E2E2E2E2E2E2E2E2E2E2E2E2E2E2E2E2E2E2E2E2E2E2E2E2E2E2E2E2E2E2E2E2E2E2E2E2E2F5E2E2E2E2E2E2E2E2E2E2E2E2F5F5F5F5F5E2F5F5F5F5F5F5E2E2E2E2E2E2E2E2E2E2E2E2F5E2E2F5E2E2E2F5E2E2E2E2E2E2E2E2E2E2E2E2E2E2E2E2E2E2F5E2E2F5E2E2E2BEE2E2F5E2BE
310
E2E2E2E2E2E2E2E2E2E2E2E2E2E2E2E2E2E2E2E2E2E2E2E2E2E2E2E2E2E2E2E2E2E2E2E2E2E2E2E2E2E2E2E2E2E2E2E2E2E2E2E2E2E2E2E2E2E2E2E2E2E2E2E2E2E2E2E2E2F5F5F5F5F5F5F5F5F5F5F5F5F5F5F5F5F5F5F5F5F5F5F5F5F5F5F5F5F5F5F5F5F5F5F5F5F5F5F5F5F5F5F5F5F5F5F5F5F5F5F5F5F5F5F5F5F5F5
310
F5F5F5F5F5F5F5F5F5F5F5F5F5F5F5F5F5F5F5F5F5F5F5F5F5F5F5F5F5F5F5F5F5F5F5F5F5F5F5F5F5F5F5F5F5F5F5F5F5F5F5F5F5F5E2E2E2E2E2E2E2E2E2E2E2E2E2F5F5F5F5E2F5F5F5F5F5F5E2E2E2E2E2E2E2E2E2E2E2E2F5E2E2F5F5F5F5F5F5F5F5F5F5F5F5F5F5F5F5F5F5F5F5F5F5F5F5E2E2F5E2E2E2E2E2E2F5
310
E2E2E2E2E2E2E2E2E2E2E2E2E2E2E2E2E2E2E2E2E2E2E2E2E2E2E2E2E2E2E2E2E2E2E2E2E2E2E2E2E2E2E2E2E2E2E2E2E2E2E2E2E2E2E2E2E2E2E2E2E2E2E2E2E2E2E2E2E2E2E2F5E2E2E2E2E2E2E2E2E2E2E2E2E2E2E2E2E2E2E2E2E2E2E2E2E2E2E2E2E2E2E2E2E2E2E2E2E2E2E2E2E2E2E2E2E2E2E2E2E2E2E2E2F5F5F5
310
F5F5F5E2E2E2E2E2E2E2E2E2E2E2E2E2E2E2E2E2E2E2E2E2E2E2E2E2E2E2E2E2E2E2E2E2E2E2E2E2E2E2E2E2E2E2E2E2E2E2E2E2E2E2E2F5E2E2E2E2E2E2E2E2E2E2E2E2F5F5F5F5F5E2F5F5F5F5F5F5E2E2E2E2E2E2E2E2E2E2E2E2F5E2E2F5E2E2E2F5E2E2E2E2E2F5F5F5F5E2E2E2E2E2E2E2E2E2F5E2E2F5E2E2E2E2E2
310
E2E2F5E2E2E2E2E2E2E2E2E2E2E2E2E2E2E2E2E2E2E2E2E2E2E2E2E2E2E2E2E2E2E2E2E2E2E2E2E2E2E2E2E2E2E2E2E2E2E2E2E2E2E2E2E2E2E2E2E2E2E2E2E2E2E2E2E2E2E2E2E2E2E2E2E2E2E2E2E2E2E2E2E2E2E2E2E2E2E2E2E2E2E2E2E2E2E2E2E2E2E2E2E2E2E2E2E2E2E2E2E2E2E2E2E2E2E2E2E2E2E2E2E2E2E2F5
310
F5F5F5F5F5E2E2E2E2E2E2E2E2E2E2E2E2E2E2E2E2E2E2E2E2E2E2E2E2E2E2E2E2E2E2E2E2E2E2E2E2E2E2E2E2E2E2E2E2E2E2E2E2E2E2E2E2E2E2E2E2E2E2E2E2E2E2E2E2E2E2E2E2E2E2E2E2E2E2E2E2E2E2E2E2E2E2E2E2E2E2E2E2E2F5E2E2E2E2E2F5E2E2E2E2E2E2E2F5F5F5E2E2E2E2E2E2E2E2E2F5E2E2F5E2E2E2
310
E2E2E2E2F5E2E2E2E2E2E2E2E2E2E2E2E2E2E2E2E2E2E2E2E2E2E2E2E2E2E2E2E2E2E2E2E2E2E2E2E2E2E2E2E2E2E2E2E2E2E2E2E2E2E2E2E2E2E2E2E2E2E2E2E2E2E2E2E2E2E2E2E2E2E2E2E2E2E2E2E2E2E2E2E2E2E2E2E2E2E2E2E2E2E2E2E2E2E2E2E2E2E2E2E2E2E2E2E2E2E2E2E2E2E2E2E2E2E2E2E2E2E2E2E2E2E2
310
E2E2E2E2E2E2E2E2E2E2E2E2E2E2E2E2E2E2E2E2E2E2E2E2E2E2E2E2E2E2E2E2E2E2E2E2E2E2E2E2E2E2E2E2E2E2E2E2E2E2E2E2E2E2E2E2E2E2E2E2E2E2E2E2E2E2E2E2E2E2E2E2E2E2E2E2E2E2E2E2E2E2E2E2E2E2E2E2E2E2E2E2E2E2E2E2F5E2E2E2E2E2F5E2E2E2E2E2E2E2E2E2E2E2E2E2E2E2E2E2E2E2F5E2E2E2BE
310
E2BEBEE2E2E2BEBEBEBEBEBEBEBEBEBEBEBEBEBEBEBEE2E2E2E2E2E2E2E2E2E2E2E2E2E2E2E2E2E2E2E2E2E2E2E2E2E2E2E2E2E2E2E2E2E2E2E2E2E2E2E2E2E2E2E2E2E2E2E2E2E2E2E2E2E2E2E2E2E2E2E2E2E2E2E2E2E2E2E2E2E2E2E2E2E2E2E2E2E2E2E2E2E2E2E2E2E2E2E2E2E2E2E2E2E2E2E2E2E2E2E2E2E2E2E2E2
310
E2E2E2E2E2E2E2E2E2E2E2E2E2E2E2E2E2E2E2E2E2E2E2E2E2E2E2E2E2E2E2E2E2E2E2E2E2E2E2E2E2E2E2E2E2E2E2E2E2E2E2E2E2E2E2E2E2E2E2E2E2E2E2E2E2E2E2E2E2E2E2E2E2E2E2E2E2E2E2E2E2E2E2E2E2E2E2E2E2E2E2E2E2E2E2E2E2E2F5E2E2E2E2E2F5E2E2E2E2E2E2E2E2E2E2E2E2E2E2E2E2E2E2E2F5E2E2
310
E2BEBEBEBEE2E2E2BEBEBEBEBEBEBEBEBEBEBEBEBEE2BEE2E2E2E2E2E2E2E2E2E2E2E2E2E2E2E2E2E2E2E2E2E2E2E2E2E2E2E2E2E2E2E2E2E2E2E2E2E2E2E2E2E2E2E2E2E2E2E2E2E2E2E2E2E2E2E2E2E2E2E2E2E2E2E2E2E2E2E2E2E2E2E2E2E2E2E2E2E2E2E2E2E2E2E2E2E2E2E2E2E2E2E2E2E2E2E2E2E2E2E2E2E2E2E2
310
E2E2E2E2E2E2E2E2E2E2E2E2E2E2E2E2E2E2E2E2E2E2E2E2E2E2E2E2E2E2E2E2E2E2E2E2E2E2E2E2E2E2E2E2E2E2E2E2E2E2E2E2E2E2E2E2E2E2E2E2E2E2E2E2E2E2E2E2E2E2E2E2E2E2E2E2E2E2E2E2E2E2E2E2E2E2E2E2E2E2E2E2E2E2E2E2E2E2E2E2F5F5E2E2E2F5E2E2E2E2E2E2E2E2E2E2E2E2E2E2E2E2E2E2E2F5F5
310
E2E2E2E2E2E2E2E2E2E2E2E2E2E2E2E2E2E2E2E2E2E2E2E2E2E2E2E2E2E2E2E2E2E2E2E2E2E2E2E2E2E2E2E2E2E2E2E2E2E2E2E2E2E2E2E2E2E2E2E2E2E2E2E2E2E2E2E2E2E2E2E2E2E2E2E2E2E2E2E2E2E2E2E2E2E2E2E2E2E2E2E2E2E2E2E2E2E2E2E2E2E2E2E2E2E2E2E2E2E2E2E2E2E2E2E2E2E2E2E2E2E2E2E2E2E2E2
310
E2E2E2E2E2E2E2E2E2E2E2E2E2E2E2E2E2E2E2E2E2E2E2E2E2E2E2E2E2E2E2E2E2E2E2E2E2E2E2E2E2E2E2E2E2E2E2E2E2E2E2E2E2E2E2E2E2E2E2E2E2E2E2E2E2E2E2E2E2E2E2E2E2E2E2E2E2E2E2E2E2E2E2E2E2E2E2E2E2E2E2E2E2E2E2E2E2E2E2E2E2E2F5F5F5F5F5F5F5F5F5F5F5F5F5F5F5F5F5F5F5F5F5F5F5F5F5
310
F5F5E2E2E2E2E2E2E2E2E2E2E2E2E2E2E2E2E2E2E2E2E2E2E2E2E2E2E2E2E2E2E2E2E2E2E2E2E2E2E2E2E2E2E2E2E2E2E2E2E2E2E2E2E2E2E2E2E2E2E2E2E2E2E2E2E2E2E2E2E2E2E2E2E2E2E2E2E2E2E2E2E2E2E2E2E2E2E2E2E2E2E2E2E2E2E2E2E2E2E2E2E2E2E2E2E2E2E2E2E2E2E2E2E2E2E2E2E2E2E2E2E2E2E2E2E2
310
E2E2E2E2E2E2E2E2E2E2E2E2E2E2E2E2E2E2E2E2E2E2E2E2E2E2E2E2E2E2E2E2E2E2E2E2E2E2E2E2E2E2E2E2E2E2E2E2E2E2E2E2E2E2E2E2E2E2E2E2E2E2E2E2E2E2E2E2E2E2E2E2E2E2E2E2E2E2E2E2E2E2E2E2E2E2E2E2E2E2E2E2E2E2E2E2E2E2E2E2E2E2E2E2E2E2E2E2F5E2E2E2E2E2E2F5F5E2F5E2E2E2E2E2E2E2E2
310
E2E2E2E2E2E2E2E2E2E2E2E2E2E2E2E2E2E2E2E2E2E2E2E2E2E2E2E2E2E2E2E2E2E2E2E2E2E2E2E2E2E2E2E2E2E2E2E2E2E2E2E2E2E2E2E2E2E2E2E2E2E2E2E2E2E2E2E2E2E2E2E2E2E2E2E2E2E2E2E2E2E2E2E2E2E2E2E2E2E2E2E2E2E2E2E2E2E2E2E2E2E2E2E2E2E2E2E2E2E2E2E2E2E2E2E2E2E2E2E2E2E2E2E2E2E2E2
310
E2E2E2E2E2E2E2E2E2E2E2E2E2E2E2E2E2E2E2E2E2E2E2E2E2E2E2E2E2E2E2E2E2E2E2E2E2E2E2E2E2E2E2E2E2E2E2E2E2E2E2E2E2E2E2E2E2E2E2E2E2E2E2E2E2E2E2E2E2E2E2E2E2E2E2E2E2E2E2E2E2E2E2E2E2E2E2E2E2E2E2F5F5F5F5F5F5E2E2E2E2F5E2E2E2E2E2F5E2F5F5E2E2E2E2E2E2E2F5F5F5E2E2E2E2E2E2
310
E2E2E2E2E2E2E2E2E2E2E2E2E2E2E2E2E2E2E2E2E2E2E2E2E2E2E2E2E2E2E2E2E2E2E2E2E2E2E2E2E2E2E2E2E2E2E2E2E2E2E2E2E2E2E2E2E2E2E2E2E2E2E2E2E2E2E2E2E2E2E2E2E2E2E2E2E2E2E2E2E2E2E2E2E2E2E2E2E2E2E2E2E2E2E2E2E2E2E2E2E2E2E2E2E2E2E2E2E2E2E2E2E2E2E2E2E2E2E2E2E2E2E2E2E2E2E2
310
E2E2E2E2E2E2E2E2E2E2E2E2E2E2E2E2E2E2E2E2E2E2E2E2E2E2E2E2E2E2E2E2E2E2E2E2E2E2E2E2E2E2E2E2E2E2E2E2E2E2E2E2E2E2E2E2E2E2E2E2E2E2E2E2E2E2E2E2E2E2E2E2E2E2E2E2E2E2E2E2E2E2E2E2E2E2E2E2E2E2E2E2E2F5F5F5F5F5F5F5E2F5E2F5E2F5F5F5F5E2F5F5E2E2E2E2E2E2E2E2E2E2E2E2E2E2E2
310
E2E2E2E2E2E2E2E2E2E2E2E2E2E2E2E2E2E2E2E2E2E2E2E2E2E2E2E2E2E2E2E2E2E2E2E2E2E2E2E2E2E2E2E2E2E2E2E2E2E2E2E2E2E2E2E2E2E2E2E2E2E2E2E2E2E2E2E2E2E2E2E2E2E2E2E2E2E2E2E2E2E2E2E2E2E2E2E2E2E2E2E2E2E2E2E2E2E2E2E2E2E2E2E2E2E2E2E2E2E2E2E2E2E2E2E2E2E2E2E2E2E2E2E2E2E2E2
310
E2E2E2E2E2E2E2E2E2E2E2E2E2E2E2E2E2E2E2E2E2E2E2E2E2E2E2E2E2E2E2E2E2E2E2E2E2E2E2E2E2E2E2E2E2E2E2E2E2E2E2E2E2E2E2E2E2E2E2E2E2E2E2E2E2E2E2E2E2E2E2E2E2E2E2E2E2E2E2E2E2E2E2E2E2E2E2E2E2E2E2E2E2E2E2F5F5E2F5E2F5F5E2F5E2F5F5F5F5E2E2E2F5E2E2E2E2E2E2E2E2E2E2E2E2E2E2
310
E2E2E2E2E2E2E2E2E2E2E2E2E2E2E2E2E2E2E2E2E2E2E2E2E2E2E2E2E2E2E2E2E2E2E2E2E2E2E2E2E2E2E2E2E2E2E2E2E2E2E2E2E2E2E2E2E2E2E2E2E2E2E2E2E2E2E2E2E2E2E2E2E2E2E2E2E2E2E2E2E2E2E2E2E2E2E2E2E2E2E2E2E2E2BEBEBEBEBEBEBEBEBEBEBEBEBEBEBEBEBEBEBEBEBEBEBEBEBEBEBEBEBEBEBEBEBE
310
BEBEBEBEBEBEBEBEBEBEBEBEBEBEBEBEBEBEBEBEBEBEBEBEBEBEBEBEBEBEBEBEBEBEBEBEBEBEBEBEBEBEBEBEBEBEBEBEBEBEBEBEBEBEBEBEBEBEBEBEBEBEBEBEBEBEBEBEBEBEBEBEBEF5F5F5F5F5F5F5F5F5E2E2E2E2E2E2E2E2F5F5F5E2F5E2E2F5F5F5F5F5E2E2E2E2E2E2E2E2F5E2E2E2E2E2E2E2E2E2E2E2E2E2E2E2E2
310
E2E2E2E2E2E2E2E2E2E2E2E2E2E2E2E2E2E2E2E2E2E2E2E2E2E2E2E2E2E2E2E2E2E2E2E2E2E2E2E2E2E2E2E2E2E2E2E2E2E2E2E2E2E2E2E2E2E2E2E2E2E2E2E2E2E2E2E2E2E2E2E2E2E2E2E2E2E2E2E2E2E2E2E2E2E2E2E2E2E2E2E2E2E2E2BEE2E2E2E2E2E2E2E2E2E2E2E2E2E2E2E2E2E2E2E2E2E2E2E2E2E2E2E2E2E2E2
310
E2E2E2E2E2E2E2E2E2E2BEBEE2E2E2E2E2E2E2E2E2E2E2E2E2E2E2E2E2E2E2E2BEBEE2E2E2E2E2E2E2E2E2E2E2E2E2E2E2E2E2E2E2E2E2E2E2E2E2E2E2E2E2E2E2E2E2E2E2E2E2E2E2E2E2BEE2E2E2E2E2E2F5F5E2E2E2E2E2E2E2E2F5F5F5F5F5E2F5F5F5F5F5F5F5F5F5F5E2F5F5F5F5F5F5F5F5F5E2E2E2E2E2E2E2E2E2
310
E2E2E2E2E2E2E2E2E2E2E2E2E2E2E2E2E2E2E2E2E2E2E2E2E2E2E2E2E2E2E2E2E2E2E2E2E2E2E2E2E2E2E2E2E2E2E2E2E2E2E2E2E2E2E2E2E2E2E2E2E2E2E2E2E2E2E2E2E2E2E2E2E2E2E2E2E2E2E2E2E2E2E2E2E2E2E2E2E2E2E2E2E2E2E2E2BEE2E2E2E2E2E2E2E2E2E2E2E2E2E2E2E2E2E2E2E2E2E2E2E2E2E2E2E2E2E2
310
E2E2E2E2E2E2E2E2E2E2E2E2BEBEE2E2E2E2E2E2E2E2E2E2E2E2E2E2E2E2E2E2E2E2BEBEE2E2E2E2E2E2E2E2E2E2E2E2E2E2E2E2E2E2E2E2E2E2E2E2E2E2E2E2E2E2E2E2E2E2E2E2E2E2E2E2E2E2BEE2E2E2E2E2E2F5E2E2E2E2E2E2E2E2F5F5F5F5F5E2F5F5F5F5F5F5F5F5F5F5F5F5F5F5E2F5F5E2F5E2E2E2E2E2E2E2E2
310
E2E2E2E2E2E2E2E2E2E2E2E2E2E2E2E2E2E2E2E2E2E2E2E2E2E2E2E2E2E2E2E2E2E2E2E2E2E2E2E2E2E2E2E2E2E2E2E2E2E2E2E2E2E2E2E2E2E2E2E2E2E2E2E2E2E2E2E2E2E2E2E2E2E2E2E2E2E2E2E2E2E2E2E2E2E2E2E2E2E2E2E2E2E2E2E2E2BEE2E2E2E2E2E2E2E2E2E2E2E2E2E2E2E2E2E2E2E2E2E2E2E2E2E2E2E2E2
310
E2E2E2E2E2E2E2E2E2E2E2E2E2E2BEBEE2E2E2E2E2E2E2E2E2E2E2E2E2E2E2E2E2E2E2E2BEBEE2E2E2E2E2E2E2E2E2E2E2E2E2E2E2E2E2E2E2E2E2E2E2E2E2E2E2E2E2E2E2E2E2E2E2E2E2E2E2E2E2E2E2BEE2E2E2E2E2F5E2E2E2E2E2E2E2E2E2E2E2E2E2E2E2E2E2E2E2E2E2E2E2E2E2E2E2E2E2E2E2E2E2E2E2E2E2E2E2
310
E2E2E2E2E2E2E2E2E2E2E2E2E2E2E2E2E2E2E2E2E2E2E2E2E2E2E2E2E2E2E2E2E2E2E2E2E2E2E2E2E2E2E2E2E2E2E2E2E2E2E2E2E2E2E2E2E2E2E2E2E2E2E2E2E2E2E2E2E2E2E2E2E2E2E2E2E2E2E2E2E2E2E2E2E2E2E2E2E2E2E2E2E2E2E2E2E2E2E2E2BEE2E2E2E2E2E2E2E2E2E2E2E2E2E2E2E2E2E2E2E2E2E2E2E2E2E2
310
E2E2E2E2E2E2E2E2E2E2E2E2E2E2E2E2BEBEE2E2E2E2E2E2E2E2E2E2E2E2E2E2E2E2E2E2E2E2BEBEE2E2E2E2E2E2E2E2E2E2E2E2E2E2E2E2E2E2E2E2E2E2E2E2E2E2E2E2E2E2E2E2E2E2E2E2E2E2E2E2E2E2BEE2E2E2E2E2E2F5E2E2E2E2E2E2E2E2E2E2E2E2E2E2E2E2E2E2E2E2E2E2E2E2E2E2E2E2E2E2E2E2E2E2E2E2E2
310
E2E2E2E2E2E2E2E2E2E2E2E2E2E2E2E2E2E2E2E2E2E2E2E2E2E2E2E2E2E2E2E2E2E2E2E2E2E2E2E2E2E2E2E2E2E2E2E2E2E2E2E2E2E2E2E2E2E2E2E2E2E2E2E2E2E2E2E2E2E2E2E2E2E2E2E2E2E2E2E2E2E2E2E2E2E2E2E2E2E2E2E2E2E2E2E2E2E2E2E2E2E2E2BEE2E2E2E2E2E2E2E2E2E2E2E2E2E2E2E2E2E2E2E2E2E2E2
310
E2E2E2E2E2E2E2E2E2E2E2E2E2E2E2E2E2E2BEBEE2E2E2E2E2E2E2E2E2E2E2E2E2E2E2E2E2E2E2E2BEBEE2E2E2E2E2E2E2E2E2E2E2E2E2E2E2E2E2E2E2E2E2E2E2E2E2E2E2E2E2E2E2E2E2E2E2E2E2E2E2E2E2BEE2E2E2E2E2E2F5F5E2E2E2E2E2E2E2E2E2E2E2E2E2E2E2E2E2E2E2E2E2E2E2E2E2E2E2E2E2E2E2E2E2E2E2
310
E2E2E2E2E2E2E2E2E2E2E2E2E2E2E2E2E2E2E2E2E2E2E2E2E2E2E2E2E2E2E2E2E2E2E2E2E2E2E2E2E2E2E2E2E2E2E2E2E2E2E2E2E2E2E2E2E2E2E2E2E2E2E2E2E2E2E2E2E2E2E2E2E2E2E2E2E2E2E2E2E2E2E2E2E2E2E2E2E2E2E2E2E2E2E2E2E2E2E2E2E2E2E2E2E2E2BEBEBEBEBEBEBEBEBEBEBEBEBEBEBEBEBEBEBEBEBE
310
BEBEBEBEBEBEBEBEBEBEBEBEBEBEBEBEBEBEBEBEBEBEBEE2E2E2E2E2E2E2E2E2E2E2E2E2E2E2E2E2BEBEBEBEBEBEBEBEBEBEBEBEBEBEBEBEBEBEBEBEBEBEBEBEBEBEBEBEBEBEBEBEBEBEBEBEBEBEBEBEBEBEBEBEBEF5F5F5F5F5F5F5F5F5E2E2E2E2E2E2E2E2E2E2E2E2E2E2E2E2E2E2E2E2E2E2E2E2E2E2E2E2E2E2E2E2E2
310
E2E2E2E2E2E2E2E2E2E2E2E2E2E2E2E2E2E2E2E2E2E2E2E2E2E2E2E2E2E2E2E2E2E2E2E2E2E2E2E2E2E2E2E2E2E2E2E2E2E2E2E2E2E2E2E2E2E2E2E2E2E2E2E2E2E2E2E2E2E2E2E2E2E2E2E2E2E2E2E2E2E2E2E2E2E2E2E2E2E2E2E2E2E2E2E2E2E2E2E2E2E2E2E2E2E2E2E2E2E2E2E2E2E2E2E2E2E2E2E2E2E2E2E2E2E2E2
310
E2E2E2E2E2E2E2E2E2E2E2E2E2E2E2E2E2E2E2E2E2E2E2E2E2BEE2E2E2E2E2E2E2E2E2E2E2E2E2E2BEBEE2E2E2E2E2E2E2E2E2E2E2E2E2E2E2E2E2E2E2E2E2E2E2E2E2E2E2E2E2E2E2E2E2E2E2E2E2E2E2E2E2E2E2E2E2E2E2E2E2E2E2E2E2F5E2E2E2E2E2E2E2E2E2E2E2E2E2E2E2E2E2E2E2E2E2E2E2E2E2E2E2E2E2E2E2
310
E2E2E2E2E2E2E2E2E2E2E2E2E2E2E2E2E2E2E2E2E2E2E2E2E2E2E2E2E2E2E2E2E2E2E2E2E2E2E2E2E2E2E2E2E2E2E2E2E2E2E2E2E2E2E2E2E2E2E2E2E2E2E2E2E2E2E2E2E2E2E2E2E2E2E2E2E2E2E2E2E2E2E2E2E2E2E2E2E2E2E2E2E2E2E2E2E2E2E2E2E2E2E2E2E2E2E2E2E2E2E2E2E2E2E2E2E2E2E2E2E2E2E2E2E2E2E2
310
E2E2E2E2E2E2E2E2E2E2E2E2E2E2E2E2E2E2E2E2E2E2E2E2E2E2E2E2BEE2E2E2E2E2E2E2E2E2E2E2E2E2BEE2E2E2E2E2E2E2E2E2E2E2E2E2E2E2E2E2E2E2E2E2E2E2E2E2E2E2E2E2E2E2E2E2E2E2E2E2E2E2E2E2E2E2E2E2E2E2E2E2E2E2E2F5F5F5E2E2E2E2E2E2E2E2E2E2E2E2E2E2E2E2E2E2E2E2E2E2E2E2E2E2E2E2E2
310
E2E2E2E2E2E2E2E2E2E2E2E2E2E2E2E2E2E2E2E2E2E2E2E2E2E2E2E2E2E2E2E2E2E2E2E2E2E2E2E2E2E2E2E2E2E2E2E2E2E2E2E2E2E2E2E2E2E2E2E2E2E2E2E2E2E2E2E2E2E2E2E2E2E2E2E2E2E2E2E2E2E2E2E2E2E2E2E2E2E2E2E2E2E2E2E2E2E2E2E2E2E2E2E2E2E2E2E2E2E2E2E2E2E2E2E2E2E2E2E2E2E2E2E2E2E2E2
310
E2E2E2E2E2E2E2E2E2E2E2E2E2E2E2E2E2E2E2E2E2E2E2E2E2E2E2E2E2E2E2BEE2E2E2E2E2E2E2E2E2E2E2BEE2E2E2E2E2E2E2E2E2E2E2E2E2E2E2E2E2E2E2E2E2E2E2E2E2E2E2E2E2E2E2E2E2E2E2E2E2E2E2E2E2E2E2E2E2E2E2E2E2E2E2E2F5F5F5F5E2E2E2E2E2E2E2E2E2E2E2E2E2E2E2E2E2E2E2E2E2E2E2E2E2E2E2
310
E2E2E2E2E2E2E2E2E2E2E2E2E2E2E2E2E2E2E2E2E2E2E2E2E2E2E2E2E2E2E2E2E2E2E2E2E2E2E2E2E2E2E2E2E2E2E2E2E2E2E2E2E2E2E2E2E2E2E2E2E2E2E2E2E2E2E2E2E2E2E2E2E2E2E2E2E2E2E2E2E2E2E2E2E2E2E2E2E2E2E2E2E2E2E2E2E2E2E2E2E2E2E2E2E2E2E2E2E2E2E2E2E2E2E2E2E2E2E2E2E2E2E2E2E2E2E2
310
E2E2E2E2E2E2E2E2E2E2E2E2E2E2E2E2E2E2E2E2E2E2E2E2E2E2E2E2E2E2E2E2E2E2BEBEE2E2E2E2E2E2E2E2E2BEE2E2E2E2E2E2E2E2E2E2E2E2E2E2E2E2E2E2E2E2E2E2E2E2E2E2E2E2E2E2E2E2E2E2E2E2E2E2E2E2E2E2E2E2E2E2E2E2E2E2E2E2F5F5F5F5E2E2E2E2E2E2E2E2E2E2E2E2E2E2E2E2E2E2E2E2E2E2E2E2E2
310
E2E2E2E2E2E2E2E2E2E2E2E2E2E2E2E2E2E2E2E2E2E2E2E2E2E2E2E2E2E2E2E2E2E2E2E2E2E2E2E2E2E2E2E2E2E2E2E2E2E2E2E2E2E2E2E2E2E2E2E2E2E2E2E2E2E2E2E2E2E2E2E2E2E2E2E2E2E2E2E2E2E2E2E2E2E2E2E2E2E2E2E2E2E2E2E2E2E2E2E2E2E2E2E2E2E2E2E2E2E2E2E2E2E2E2E2E2E2E2E2E2E2E2E2E2E2E2
310
E2E2E2E2E2E2E2E2E2E2E2E2E2E2E2E2E2E2E2E2E2E2E2E2E2E2E2E2E2E2E2E2E2E2E2E2E2BEE2E2E2E2E2E2E2E2E2BEE2E2E2E2E2E2E2E2E2E2E2E2E2E2E2E2E2E2E2E2E2E2E2E2E2E2E2E2E2E2E2E2E2E2E2E2E2E2E2E2E2E2E2E2E2E2E2E2E2E2E2E2F5F5F5F5E2E2E2E2E2E2E2E2E2E2E2E2E2E2E2E2E2E2E2E2E2E2E2
310
E2E2E2E2E2E2E2E2E2E2E2E2E2E2E2E2E2E2E2E2E2E2E2E2E2E2E2E2E2E2E2E2E2E2E2E2E2E2E2E2E2E2E2E2E2E2E2E2E2E2E2E2E2E2E2E2E2E2E2E2E2E2E2E2E2E2E2E2E2E2E2E2E2E2E2E2E2E2E2E2E2E2E2E2E2E2E2E2E2E2E2E2E2E2E2E2E2E2E2E2E2E2E2E2E2E2E2E2E2E2E2E2E2E2E2E2E2E2E2E2E2E2E2E2E2E2E2
310
E2E2E2E2E2E2E2E2E2E2E2E2E2E2E2E2E2E2E2E2E2E2E2E2E2E2E2E2E2E2E2E2E2E2E2E2E2E2E2BEE2E2E2E2E2E2E2E2E2BEE2E2E2E2E2E2E2E2E2E2E2E2E2E2E2E2E2E2E2E2E2E2E2E2E2E2E2E2E2E2E2E2E2E2E2E2E2E2E2E2E2E2E2E2E2E2E2E2E2E2E2E2F5F5F5F5E2E2E2E2E2E2E2E2E2E2E2E2E2E2E2E2E2E2E2E2E2
310
E2E2E2E2E2E2E2E2E2E2E2E2E2E2E2E2E2E2E2E2E2E2E2E2E2E2E2E2E2E2E2E2E2E2E2E2E2E2E2E2E2E2E2E2E2E2E2E2E2E2E2E2E2E2E2E2E2E2E2E2E2E2E2E2E2E2E2E2E2E2E2E2E2E2E2E2E2E2E2E2E2E2E2E2E2E2E2E2E2E2E2E2E2E2E2E2E2E2E2E2E2E2E2E2E2E2E2E2E2E2E2E2E2E2E2E2E2E2E2E2E2E2E2E2E2E2E2
310
E2E2E2E2E2E2E2E2E2E2E2E2E2E2E2E2E2E2E2E2E2E2E2E2E2E2E2E2E2E2E2E2E2E2E2E2E2E2E2E2E2BEE2E2E2E2E2E2E2E2E2BEE2E2E2E2E2E2E2E2E2E2E2E2E2E2E2E2E2E2E2E2E2E2E2E2E2E2E2E2E2E2E2E2E2E2E2E2E2E2E2E2E2E2E2E2E2E2E2E2E2E2E2E2E2E2E2F5E2E2E2E2E2E2E2E2E2E2E2E2E2E2E2E2E2E2E2
310
E2E2E2E2E2E2E2E2E2E2E2E2E2E2E2E2E2E2E2E2E2E2E2E2E2E2E2E2E2E2E2E2E2E2E2E2E2E2E2E2E2E2E2E2E2E2E2E2E2E2E2E2E2E2E2E2E2E2E2E2E2E2E2E2E2E2E2E2E2E2E2E2E2E2E2E2E2E2E2E2E2E2E2E2E2E2E2E2E2E2E2E2E2E2E2E2E2E2E2E2E2E2E2E2E2E2E2E2E2E2E2E2E2E2E2E2E2E2E2E2E2E2E2E2E2E2E2
310
E2E2E2E2E2E2E2E2E2E2E2E2E2E2E2E2E2E2E2E2E2E2E2E2E2E2E2E2E2E2E2E2E2E2E2E2E2E2E2E2E2E2E2BEF5F5F5F5F5F5F5F5E2BEE2E2E2E2E2E2E2E2E2E2E2E2E2E2E2E2E2E2E2E2E2E2E2E2E2E2E2E2E2E2E2E2E2E2E2E2E2E2E2E2E2E2E2E2E2E2E2E2E2E2E2E2E2E2E2E2E2E2E2E2E2E2E2E2E2E2E2E2E2E2E2E2E2
310
E2E2E2E2E2E2E2E2E2E2E2E2E2E2E2E2E2E2E2E2E2E2E2E2E2E2E2E2E2E2E2E2E2E2E2E2E2E2E2E2E2E2E2E2E2E2E2E2E2E2E2E2E2E2E2E2E2E2E2E2E2E2E2E2E2E2E2E2E2E2E2E2E2E2E2E2E2E2E2E2E2E2E2E2E2E2E2E2E2E2E2E2E2E2E2E2E2E2E2E2E2E2E2E2E2E2E2E2E2E2E2E2E2E2E2E2E2E2E2E2E2E2E2E2E2E2E2
310
E2E2E2E2E2E2E2E2E2E2E2E2E2E2E2E2E2E2E2E2E2E2E2E2E2E2E2E2E2E2E2E2E2E2E2E2E2E2E2E2E2E2E2E2E2BEF5E2E2E2F5E2E2F5E2BEE2E2E2E2E2E2E2E2E2E2E2E2E2E2E2E2E2E2E2E2E2E2E2E2E2E2E2E2E2E2E2E2E2E2E2E2E2E2E2E2E2E2E2E2E2E2E2E2E2E2E2E2E2E2E2E2E2E2E2E2E2E2E2E2E2E2E2E2E2E2E2
310
E2E2E2E2E2E2E2E2E2E2E2E2E2E2E2E2E2E2E2E2E2E2E2E2E2E2E2E2E2E2E2E2E2E2E2E2E2E2E2E2E2E2E2E2E2E2E2E2E2E2E2E2E2E2E2E2E2E2E2E2E2E2E2E2E2E2E2E2E2E2E2E2E2E2E2E2E2E2E2E2E2E2E2E2E2E2E2E2E2E2E2E2E2E2E2E2E2E2E2E2E2E2E2E2E2E2E2E2E2E2E2E2E2E2E2E2E2E2E2E2E2E2E2E2E2E2E2
310
E2E2E2E2E2E2E2E2E2E2E2E2E2E2E2E2E2E2E2E2E2E2E2E2E2E2E2E2E2E2E2E2E2E2E2E2E2E2E2E2E2E2E2E2E2E2E2BEF5E2E2F5F5E2E2F5E2BEE2E2E2E2E2E2E2E2E2E2E2E2E2E2E2E2E2E2E2E2E2E2E2E2E2E2E2E2E2E2E2E2E2E2E2E2E2E2E2E2E2E2E2E2E2E2E2E2E2E2E2E2E2E2E2E2E2E2E2E2E2E2E2E2E2E2E2E2E2
310
E2E2E2E2E2E2E2E2E2E2E2E2E2E2E2E2E2E2E2E2E2E2E2E2E2E2E2E2E2E2E2E2E2E2E2E2E2E2E2E2E2E2E2E2E2E2E2E2E2E2E2E2E2E2E2E2E2E2E2E2E2E2E2E2E2E2E2E2E2E2E2E2E2E2E2E2E2E2E2E2E2E2E2E2E2E2E2E2E2E2E2E2E2E2E2E2E2E2E2E2E2E2E2E2E2E2E2E2E2E2E2E2E2E2E2E2E2E2E2E2E2E2E2E2E2E2E2
310
E2E2E2E2E2E2E2E2E2E2E2E2E2E2E2E2E2E2E2E2E2E2E2E2E2E2E2E2E2E2E2E2E2E2E2E2E2E2E2E2E2E2E2E2E2E2E2E2E2BEF5E2E2F5F5E2E2F5E2BEE2E2E2E2E2E2E2E2E2E2E2E2E2E2E2E2E2E2E2E2E2E2E2E2E2E2E2E2E2E2E2E2E2E2E2E2E2E2E2E2E2E2E2E2E2E2E2E2E2E2E2E2E2E2E2E2E2E2E2E2E2E2E2E2E2E2E2
310
E2E2E2E2E2E2E2E2E2E2E2E2E2E2E2E2E2E2E2E2E2E2E2E2E2E2E2E2E2E2E2E2E2E2E2E2E2E2E2E2E2E2E2E2E2E2E2E2E2E2E2E2E2E2E2E2E2E2E2E2E2E2E2E2E2E2E2E2E2E2E2E2E2E2E2E2E2E2E2E2E2E2E2E2E2E2E2E2E2E2E2E2E2E2E2E2E2E2E2E2E2E2E2E2E2E2E2E2E2E2E2E2E2E2E2E2E2E2E2E2E2E2E2E2E2E2E2
310
E2E2E2E2E2E2E2E2E2E2E2E2E2E2E2E2E2E2E2E2E2E2E2E2E2E2E2E2E2E2E2E2E2E2E2E2E2E2E2E2E2E2E2E2E2E2E2E2E2E2E2BEF5E2E2E2E2E2E2F5E2BEE2E2E2E2E2E2E2E2E2E2E2E2E2E2E2E2E2E2E2E2E2E2E2E2E2E2E2E2E2E2E2E2E2E2E2E2E2E2E2E2E2E2E2E2E2E2E2E2E2E2E2E2E2E2E2E2E2E2E2E2E2E2E2E2E2
310
E2E2E2E2E2E2E2E2E2E2E2E2E2E2E2E2E2E2E2E2E2E2E2E2E2E2E2E2E2E2E2E2E2E2E2E2E2E2E2E2E2E2E2E2E2E2E2E2E2E2E2E2E2E2E2E2E2E2E2E2E2E2E2E2E2E2E2E2E2E2E2E2E2E2E2E2E2E2E2E2E2E2E2E2E2E2E2E2E2E2E2E2E2E2E2E2E2E2E2E2E2E2E2E2E2E2E2E2E2E2E2E2E2E2E2E2E2E2E2E2E2E2E2E2E2E2E2
310
E2E2E2E2E2E2E2E2E2E2E2E2E2E2E2E2E2E2E2E2E2E2E2E2E2E2E2E2E2E2E2E2E2E2E2E2E2E2E2E2E2E2E2E2E2E2E2E2E2E2E2E2E2BEF5E2E2E2E2E2E2F5E2BEE2E2E2E2E2E2E2E2E2E2E2E2E2E2E2E2E2E2E2E2E2E2E2E2E2E2E2E2E2E2E2E2E2E2E2E2E2E2E2E2E2E2E2E2E2E2E2E2E2E2E2E2E2E2E2E2E2E2E2E2E2E2E2
310
E2E2E2E2E2E2E2E2E2E2E2E2E2E2E2E2E2E2E2E2E2E2E2E2E2E2E2E2E2E2E2E2E2E2E2E2E2E2E2E2E2E2E2E2E2E2E2E2E2E2E2E2E2E2E2E2E2E2E2E2E2E2E2E2E2E2E2E2E2E2E2E2E2E2E2E2E2E2E2E2E2E2E2E2E2E2E2E2E2E2E2E2E2E2E2E2E2E2E2E2E2E2E2E2E2E2E2E2E2E2E2E2E2E2E2E2E2E2E2E2E2E2E2E2E2E2E2
310
E2E2E2E2E2E2E2E2E2E2E2E2E2E2E2E2E2E2E2E2E2E2E2E2E2E2E2E2E2E2E2E2E2E2E2E2E2E2E2E2E2E2E2E2E2E2E2E2E2E2E2E2E2BEBEBEF5E2E2E2E2E2E2F5E2BEBEBEE2E2E2E2E2E2E2E2E2E2E2E2E2E2E2E2E2E2E2E2E2E2E2E2E2E2E2E2E2E2E2E2E2E2E2E2E2E2E2E2E2E2E2E2E2E2E2E2E2E2E2E2E2E2E2E2E2E2E2
310
E2E2E2E2E2E2E2E2E2E2E2E2E2E2E2E2E2E2E2E2E2E2E2E2E2E2E2E2E2F5F5F5F5F5F5F5F5F5F5F5F5F5F5F5F5F5F5F5F5F5F5F5F5F5F5F5F5F5F5F5F5F5F5F5F5F5F5F5F5E2E2E2E2E2E2E2E2E2E2E2E2E2E2E2E2E2E2E2E2E2E2E2E2E2E2E2E2E2E2E2E2E2E2E2E2E2E2E2E2E2E2E2E2E2E2E2E2E2E2E2E2E2E2E2E2E2E2
310
E2E2E2E2E2E2E2E2E2E2E2E2E2E2E2E2E2E2E2E2E2E2E2E2E2E2E2E2E2E2E2E2E2E2E2E2E2E2E2E2E2E2E2E2E2E2E2E2E2E2E2BEBEBEBEE2BEBEF5E2E2E2E2E2E2F5E2BEE2E2BEBEBEBEE2E2E2E2E2E2E2E2E2E2E2E2E2E2E2E2E2E2E2E2E2E2E2E2E2E2E2E2E2E2E2E2E2E2E2E2E2E2E2E2E2E2E2E2E2E2E2E2E2E2E2E2E2
310
E2E2E2E2E2E2E2E2E2E2E2E2E2E2E2E2E2E2E2E2E2E2E2E2E2E2E2E2E2E2E2F5E2E2E2E2F5E2E2E2E2E2E2E2F5E2F5E2E2E2E2F5F5F5F5F5E2E2F5F5F5F5F5E2E2F5F5F5F5E2F5E2E2E2E2E2E2E2E2E2E2E2E2E2E2E2E2E2E2E2E2E2E2E2E2E2E2E2E2E2E2E2E2E2E2E2E2E2E2E2E2E2E2E2E2E2E2E2E2E2E2E2E2E2E2E2E2
310
E2E2E2E2E2E2E2E2E2E2E2E2E2E2E2E2E2E2E2E2E2E2E2E2E2E2E2E2E2E2E2E2E2E2E2E2E2E2E2E2E2E2E2E2E2E2E2E2E2E2E2E2BEBEE2E2E2E2E2E2F5E2E2E2E2E2E2F5E2E2E2E2E2E2BEBEE2E2E2E2E2E2E2E2E2E2E2E2E2E2E2E2E2E2E2E2E2E2E2E2E2E2E2E2E2E2E2E2E2E2E2E2E2E2E2E2E2E2E2E2E2E2E2E2E2E2E2
310
E2E2E2E2E2E2E2E2E2E2E2E2E2E2E2E2E2E2E2E2E2E2E2E2E2E2E2E2E2E2E2E2E2F5E2E2E2E2F5F5E2F5F5F5F5F5E2F5E2E2E2E2E2F5E2F5F5E2F5F5F5F5F5F5F5F5F5E2F5F5E2E2F5E2E2E2E2E2E2E2E2E2E2E2E2E2E2E2E2E2E2E2E2E2E2E2E2E2E2E2E2E2E2E2E2E2E2E2E2E2E2E2E2E2E2E2E2E2E2E2E2E2E2E2E2E2E2
310
E2E2E2E2E2E2E2E2E2E2E2E2E2E2E2E2E2E2E2E2E2E2E2E2E2E2E2E2E2E2E2E2E2E2E2E2E2E2E2E2E2E2E2E2E2E2E2E2E2E2E2E2E2E2BEE2E2E2F5F5F5F5F5E2E2E2E2E2E2F5E2F5F5F5E2E2E2BEE2E2E2E2E2E2E2E2E2E2E2E2E2E2E2E2E2E2E2E2E2E2E2E2E2E2E2E2E2E2E2E2E2E2E2E2E2E2E2E2E2E2E2E2E2E2E2E2E2
310
E2E2E2E2E2E2E2E2E2E2E2E2E2E2E2E2E2E2E2E2E2E2E2E2E2E2E2E2E2E2E2E2E2E2E2F5E2E2E2E2F5F5E2F5F5E2E2E2E2F5E2E2E2E2E2F5F5F5F5F5E2E2F5F5F5F5F5E2E2F5F5F5F5E2F5E2E2E2E2E2E2E2E2E2E2E2E2E2E2E2E2E2E2E2E2E2E2E2E2E2E2E2E2E2E2E2E2E2E2E2E2E2E2E2E2E2E2E2E2E2E2E2E2E2E2E2E2
310
E2E2E2E2E2E2E2E2E2E2E2E2E2E2E2E2E2E2E2E2E2E2E2E2E2E2E2E2E2E2E2E2E2E2E2E2E2E2E2E2E2E2E2E2E2E2E2E2E2E2E2E2E2E2E2E2BEE2E2F5F5F5E2F5F5E2E2E2E2E2E2F5F5F5F5F5F5E2E2BEE2E2E2E2E2E2E2E2E2E2E2E2E2E2E2E2E2E2E2E2E2E2E2E2E2E2E2E2E2E2E2E2E2E2E2E2E2E2E2E2E2E2E2E2E2E2E2
310
E2E2E2E2E2E2E2E2E2E2E2E2E2E2E2E2E2E2E2E2E2E2E2E2E2E2E2E2E2E2E2E2E2E2E2E2E2F5F5F5F5F5F5F5F5F5F5F5F5F5F5F5F5F5F5F5F5F5F5F5F5F5F5F5F5F5F5F5F5F5F5F5F5F5F5F5F5E2E2E2E2E2E2E2E2E2E2E2E2E2E2E2E2E2E2E2E2E2E2E2E2E2E2E2E2E2E2E2E2E2E2E2E2E2E2E2E2E2E2E2E2E2E2E2E2E2E2
310
E2E2E2E2E2E2E2E2E2E2E2E2E2E2E2E2E2E2E2E2E2E2E2E2E2E2E2E2E2E2E2E2E2E2E2E2E2E2E2E2E2E2E2E2E2E2E2E2E2E2E2E2E2E2E2E2E2E2BEE2F5F5F5F5F5F5F5E2E2E2E2E2E2F5F5F5F5F5F5F5E2BEE2E2E2E2E2E2E2E2E2E2E2E2E2E2E2E2E2E2E2E2E2E2E2E2E2E2E2E2E2E2E2E2E2E2E2E2E2E2E2E2E2E2E2E2E2
310
E2E2E2E2E2E2E2E2E2E2E2E2E2E2E2E2E2E2E2E2E2E2E2E2E2E2E2E2E2E2E2E2E2E2E2E2E2E2E2F5E2E2E2E2F5F5F5F5F5F5F5F5F5F5F5E2E2E2E2F5E2E2E2E2E2F5F5E2E2E2E2F5E2E2E2E2E2E2F5E2E2E2E2E2E2E2E2E2E2E2E2E2E2E2E2E2E2E2E2E2E2E2E2E2E2E2E2E2E2E2E2E2E2E2E2E2E2E2E2E2E2E2E2E2E2E2E2
310
E2E2E2E2E2E2E2E2E2E2E2E2E2E2E2E2E2E2E2E2E2E2E2E2E2E2E2E2E2E2E2E2E2E2E2E2E2E2E2E2E2E2E2E2E2E2E2E2E2E2E2E2E2E2E2E2E2E2E2E2BEBEBEBEBEBEBEBEBEBEBEBEBEBEBEBEBEBEBEBEBEBEBEBEE2E2E2E2E2E2E2E2E2E2E2E2E2E2E2E2E2E2E2E2E2E2E2E2E2E2E2E2E2E2E2E2E2E2E2E2E2E2E2E2E2E2E2
310
E2E2E2E2E2E2E2E2E2E2E2E2E2E2E2E2E2E2E2E2E2E2E2E2E2E2E2E2E2E2E2E2E2E2E2E2E2E2E2E2E2F5E2E2E2E2F5F5F5F5F5F5F5F5F5F5F5E2E2E2E2F5E2E2E2E2E2E2F5F5F5F5E2F5E2E2E2E2E2E2F5E2E2E2E2E2E2E2E2E2E2E2E2E2E2E2E2E2E2E2E2E2E2E2E2E2E2E2E2E2E2E2E2E2E2E2E2E2E2E2E2E2E2E2E2E2E2
310
E2E2E2E2E2E2E2E2E2E2E2E2E2E2E2E2E2E2E2E2E2E2E2E2E2E2E2E2E2E2E2E2E2E2E2E2E2E2E2E2E2E2E2E2E2E2E2E2E2E2E2E2E2E2E2E2E2E2E2E2E2E2F5E2E2E2F5F5F5F5E2E2E2E2E2E2E2E2E2F5F5F5E2E2E2F5E2E2E2E2E2E2E2E2E2E2E2E2E2E2E2E2E2E2E2E2E2E2E2E2E2E2E2E2E2E2E2E2E2E2E2E2E2E2E2E2E2
310
E2E2E2E2E2E2E2E2E2E2E2E2E2E2E2E2E2E2E2E2E2E2E2E2E2E2E2E2E2E2E2E2E2E2E2E2E2E2E2E2E2E2E2F5E2E2E2E2F5F5F5F5F5F5F5F5F5F5F5E2E2E2E2F5E2E2E2E2E2F5F5E2E2E2E2F5F5E2E2E2E2E2F5E2E2E2E2E2E2E2E2E2E2E2E2E2E2E2E2E2E2E2E2E2E2E2E2E2E2E2E2E2E2E2E2E2E2E2E2E2E2E2E2E2E2E2E2
310
E2E2E2E2E2E2E2E2E2E2E2E2E2E2E2E2E2E2E2E2E2E2E2E2E2E2E2E2E2E2E2E2E2E2E2E2E2E2E2E2E2E2E2E2E2E2E2E2E2E2E2E2E2E2E2E2E2E2E2E2E2E2E2E2F5E2E2E2F5F5F5F5E2E2E2E2E2E2E2E2E2F5F5F5E2E2E2F5E2E2E2E2E2E2E2E2E2E2E2E2E2E2E2E2E2E2E2E2E2E2E2E2E2E2E2E2E2E2E2E2E2E2E2E2E2E2E2
310
E2E2E2E2E2E2E2E2E2E2E2E2E2E2E2E2E2E2E2E2E2E2E2E2E2E2E2E2E2E2E2E2E2E2E2E2E2E2E2E2E2E2E2E2E2F5F5F5F5F5F5F5F5F5F5F5F5F5F5F5F5F5F5F5F5F5F5F5F5F5F5F5F5F5F5F5F5F5F5F5F5F5F5F5F5E2E2E2E2E2E2E2E2E2E2E2E2E2E2E2E2E2E2E2E2E2E2E2E2E2E2E2E2E2E2E2E2E2E2E2E2E2E2E2E2E2E2
310
E2E2E2E2E2E2E2E2E2E2E2E2E2E2E2E2E2E2E2E2E2E2E2E2E2E2E2E2E2E2E2E2E2E2E2E2E2E2E2E2E2E2E2E2E2E2E2E2E2E2E2E2E2E2E2E2E2E2E2E2E2E2E2E2E2E2F5E2E2E2F5F5F5F5E2E2E2E2E2E2E2E2E2F5F5F5E2E2E2F5E2E2E2E2E2E2E2E2E2E2E2E2E2E2E2E2E2E2E2E2E2E2E2E2E2E2E2E2E2E2E2E2E2E2E2E2E2
310
E2E2E2E2E2E2E2E2E2E2E2E2E2E2E2E2E2E2E2E2E2E2E2E2E2E2E2E2E2E2E2E2E2E2E2E2E2E2E2E2E2E2E2E2E2E2E2E2E2E2E2E2E2E2E2E2E2E2E2E2E2E2E2E2E2E2E2E2E2E2E2E2E2E2E2E2E2E2E2E2E2E2E2E2E2E2E2E2E2E2E2E2E2E2E2E2E2E2E2E2E2E2E2E2E2E2E2E2E2E2E2E2E2E2E2E2E2E2E2E2E2E2E2E2E2E2E2
310
E2E2E2E2E2E2E2E2E2E2E2E2E2E2E2E2E2E2E2E2E2E2E2E2E2E2E2E2E2E2E2E2E2E2E2E2E2E2E2E2E2E2E2E2E2E2E2E2E2E2E2E2E2E2E2E2E2E2E2E2E2E2E2E2E2E2E2E2F5E2E2E2F5F5F5F5E2E2E2E2E2E2E2E2E2F5F5F5E2E2E2F5E2E2E2E2E2E2E2E2E2E2E2E2E2E2E2E2E2E2E2E2E2E2E2E2E2E2E2E2E2E2E2E2E2E2E2
310
E2E2E2E2E2E2E2E2E2E2E2E2E2E2E2E2E2E2E2E2E2E2E2E2E2E2E2E2E2E2E2E2E2E2E2E2E2E2E2E2E2E2E2E2E2E2E2E2E2E2E2E2E2E2E2E2E2E2E2E2E2E2E2E2E2E2E2E2E2E2E2E2E2E2E2E2E2E2E2E2E2E2E2E2E2E2E2E2E2E2E2E2E2E2E2E2E2E2E2E2E2E2E2E2E2E2E2E2E2E2E2E2E2E2E2E2E2E2E2E2E2E2E2E2E2E2E2
310
E2E2E2E2E2E2E2E2E2E2E2E2E2E2E2E2E2E2E2E2E2E2E2E2E2E2E2E2E2E2E2E2E2E2E2E2E2E2E2E2E2E2E2E2E2E2E2E2E2E2E2E2E2E2E2E2E2E2E2E2E2E2E2E2E2E2E2E2E2E2F5E2E2E2F5F5F5F5E2E2E2E2E2E2E2E2E2F5F5F5E2E2E2F5E2E2E2E2E2E2E2E2E2E2E2E2E2E2E2E2E2E2E2E2E2E2E2E2E2E2E2E2E2E2E2E2E2
310
E2E2E2E2E2E2E2E2E2E2E2E2E2E2E2E2E2E2E2E2E2E2E2E2E2E2E2E2E2E2E2E2E2E2E2E2E2E2E2E2E2E2E2E2E2E2E2E2E2E2E2F5F5F5F5E2F5F5F5F5E2E2E2E2E2F5F5E2E2F5F5F5E2F5F5F5E2E2E2E2E2F5E2E2F5E2E2E2E2E2E2E2E2E2E2E2E2E2E2E2E2E2E2E2E2E2E2E2E2E2E2E2E2E2E2E2E2E2E2E2E2E2E2E2E2E2E2
310
E2E2E2E2E2E2E2E2E2E2E2E2E2E2E2E2E2E2E2E2E2E2E2E2E2E2E2E2E2E2E2E2E2E2E2E2E2E2E2E2E2E2E2E2E2E2E2E2E2E2E2E2E2E2E2E2E2E2E2E2E2E2E2E2E2E2E2E2E2E2E2E2F5E2E2E2F5F5F5F5E2E2E2E2E2E2E2E2E2F5F5F5E2E2E2F5E2E2E2E2E2E2E2E2E2E2E2E2E2E2E2E2E2E2E2E2E2E2E2E2E2E2E2E2E2E2E2
310
E2E2E2E2E2E2E2E2E2E2E2E2E2E2E2E2E2E2E2E2E2E2E2E2E2E2E2E2E2E2E2E2E2E2E2E2E2E2E2E2E2E2E2E2E2E2E2E2E2E2E2E2E2E2E2F5E2E2F5E2E2E2E2E2E2E2E2E2E2F5E2F5E2F5E2F5E2F5E2E2E2E2E2E2F5F5E2E2E2E2E2E2E2E2E2E2E2E2E2E2E2E2E2E2E2E2E2E2E2E2E2E2E2E2E2E2E2E2E2E2E2E2E2E2E2E2E2
310
E2E2E2E2E2E2E2E2E2E2E2E2E2E2E2E2E2E2E2E2E2E2E2E2E2E2E2E2E2E2E2E2E2E2E2E2E2E2E2E2E2E2E2E2E2E2E2E2E2E2E2E2E2E2E2E2E2E2E2E2E2E2E2E2E2E2E2E2E2E2E2E2E2E2F5E2E2E2F5F5F5F5E2E2E2E2E2E2E2E2E2F5F5F5E2E2E2F5E2E2E2E2E2E2E2E2E2E2E2E2E2E2E2E2E2E2E2E2E2E2E2E2E2E2E2E2E2
310
E2E2E2E2E2E2E2E2E2E2E2E2E2E2E2E2E2E2E2E2E2E2E2E2E2E2E2E2E2E2E2E2E2E2E2E2E2E2E2E2E2E2E2E2E2E2E2E2E2E2E2E2E2E2E2E2F5E2E2E2F5E2E2E2F5F5F5F5E2F5F5F5E2F5E2F5E2F5E2F5F5F5F5F5E2E2E2F5E2E2E2E2E2E2E2E2E2E2E2E2E2E2E2E2E2E2E2E2E2E2E2E2E2E2E2E2E2E2E2E2E2E2E2E2E2E2E2
310
E2E2E2E2E2E2E2E2E2E2E2E2E2E2E2E2E2E2E2E2E2E2E2E2E2E2E2E2E2E2E2E2E2E2E2E2E2E2E2E2E2E2E2E2E2E2E2E2E2E2E2E2E2E2E2E2E2E2E2E2E2E2E2E2E2E2E2E2E2E2E2E2E2E2E2E2F5F5F5F5F5F5F5F5F5F5F5F5F5F5F5F5F5F5F5F5F5F5F5F5E2E2E2E2E2E2E2E2E2E2E2E2E2E2E2E2E2E2E2E2E2E2E2E2E2E2E2
310
E2E2E2E2E2E2E2E2E2E2E2E2E2E2E2E2E2E2E2E2E2E2E2E2E2E2E2E2E2E2E2E2E2E2E2E2E2E2E2E2E2E2E2E2E2E2E2E2E2E2E2E2E2E2E2E2E2F5E2E2F5E2F5E2E2F5E2E2E2E2F5E2E2F5E2F5E2F5E2F5E2F5E2E2E2E2E2E2F5F5E2E2E2E2E2E2E2E2E2E2E2E2E2E2E2E2E2E2E2E2E2E2E2E2E2E2E2E2E2E2E2E2E2E2E2E2E2
310
E2E2E2E2E2E2E2E2E2E2E2E2E2E2E2E2E2E2E2E2E2E2E2E2E2E2E2E2E2E2E2E2E2E2E2E2E2E2E2E2E2E2E2E2E2E2E2E2E2E2E2E2E2E2E2E2E2E2E2E2E2E2E2E2E2E2E2E2E2E2E2E2E2E2E2E2E2E2F5F5F5E2F5F5F5F5E2E2F5F5F5F5E2E2E2F5F5F5E2E2F5F5E2E2E2E2E2E2E2E2E2E2E2E2E2E2E2E2E2E2E2E2E2E2E2E2E2
310
E2E2E2E2E2E2E2E2E2E2E2E2E2E2E2E2E2E2E2E2E2E2E2E2E2E2E2E2E2E2E2E2E2E2E2E2E2E2E2E2E2E2E2E2E2E2E2E2E2E2E2E2E2E2E2E2E2E2E2E2F5F5E2E2F5F5F5E2E2E2E2E2E2F5F5F5E2E2F5E2E2F5F5E2E2E2E2E2E2F5E2E2F5E2E2E2E2E2E2E2E2E2E2E2E2E2E2E2E2E2E2E2E2E2E2E2E2E2E2E2E2E2E2E2E2E2E2
310
E2E2E2E2E2E2E2E2E2E2E2E2E2E2E2E2E2E2E2E2E2E2E2E2E2E2E2E2E2E2E2E2E2E2E2E2E2E2E2E2E2E2E2E2E2E2E2E2E2E2E2E2E2E2E2E2E2E2E2E2E2E2E2E2E2E2E2E2E2E2E2E2E2E2E2E2E2E2E2E2E2E2E2E2F5F5F5F5E2E2E2F5F5F5E2E2E2F5F5F5E2E2E2E2E2E2E2E2E2E2E2E2E2E2E2E2E2E2E2E2E2E2E2E2E2E2E2
310
E2E2E2E2E2E2E2E2E2E2E2E2E2E2E2E2E2E2E2E2E2E2E2E2E2E2E2E2E2E2E2E2E2E2E2E2E2E2E2E2E2E2E2E2E2E2E2E2E2E2E2E2E2E2E2E2E2E2E2E2E2E2E2E2E2E2E2E2E2E2E2E2E2E2E2E2E2E2E2E2E2E2E2E2E2E2E2E2E2E2E2E2E2E2E2E2E2E2E2E2E2E2E2E2E2E2E2E2E2E2E2E2E2E2E2E2E2E2E2E2E2E2E2E2E2E2E2
310
E2E2E2E2E2E2E2E2E2E2E2E2E2E2E2E2E2E2E2E2E2E2E2E2E2E2E2E2E2E2E2E2E2E2E2E2E2E2E2E2E2E2E2E2E2E2E2E2E2E2E2E2E2E2E2E2E2E2E2E2E2E2E2E2E2E2E2E2E2E2E2E2E2E2E2E2E2E2E2E2E2E2E2E2E2E2F5F5F5F5E2E2E2F5F5F5E2E2E2F5F5F5E2E2E2E2E2E2E2E2E2E2E2E2E2E2E2E2E2E2E2E2E2E2E2E2E2
310
E2E2E2E2E2E2E2E2E2E2E2E2E2E2E2E2E2E2E2E2E2E2E2E2E2E2E2E2E2E2E2E2E2E2E2E2E2E2E2E2E2E2E2E2E2E2E2E2E2E2E2E2E2E2E2E2E2E2E2E2E2E2E2E2E2E2E2E2E2E2E2E2E2E2E2E2E2E2E2E2E2E2E2E2E2E2E2E2E2E2E2E2E2E2E2E2E2E2E2E2E2E2E2E2E2E2E2E2E2E2E2E2E2E2E2E2E2E2E2E2E2E2E2E2E2E2E2
310
E2E2E2E2E2E2E2E2E2E2E2E2E2E2E2E2E2E2E2E2E2E2E2E2E2E2E2E2E2E2E2E2E2E2E2E2E2E2E2E2E2E2E2E2E2E2E2E2E2E2E2E2E2E2E2E2E2E2E2E2E2E2E2E2E2E2E2E2E2E2E2E2E2E2E2E2E2E2E2E2E2E2E2E2E2E2E2E2F5F5F5F5E2E2E2E2E2E2E2E2E2F5F5F5E2E2E2E2E2E2E2E2E2E2E2E2E2E2E2E2E2E2E2E2E2E2E2
310
E2E2E2E2E2E2E2E2E2E2E2E2E2E2E2E2E2E2E2E2E2E2E2E2E2E2E2E2E2E2E2E2E2E2E2E2E2E2E2E2E2E2E2E2E2E2E2E2E2E2E2E2E2E2E2E2E2E2E2E2E2E2E2E2E2E2E2E2E2E2E2E2E2E2E2E2E2E2E2E2E2E2E2E2E2E2E2E2E2E2E2E2E2E2E2E2E2E2E2E2E2E2E2E2E2E2E2E2E2E2E2E2E2E2E2E2E2E2E2E2E2E2E2E2E2E2E2
310
E2E2E2E2E2E2E2E2E2E2E2E2E2E2E2E2E2E2E2E2E2E2E2E2E2E2E2E2E2E2E2E2E2E2E2E2E2E2E2E2E2E2E2E2E2E2E2E2E2E2E2E2E2E2E2E2E2E2E2E2E2E2E2E2E2E2E2E2E2E2E2E2E2E2E2E2E2E2E2E2E2E2E2E2E2E2E2E2E2E2F5F5F5F5E2E2E2E2E2E2E2E2E2F5F5F5E2E2E2E2E2E2E2E2E2E2E2E2E2E2E2E2E2E2E2E2E2
310
E2E2E2E2E2E2E2E2E2E2E2E2E2E2E2E2E2E2E2E2E2E2E2E2E2E2E2E2E2E2E2E2E2E2E2E2E2E2E2E2E2E2E2E2E2E2E2E2E2E2E2E2E2E2E2E2E2E2E2E2E2E2E2E2E2E2E2E2E2E2E2E2E2E2E2E2E2E2E2E2E2E2E2E2E2E2E2E2E2E2E2E2E2E2E2E2E2E2E2E2E2E2E2E2E2E2E2E2E2E2E2E2E2E2E2E2E2E2E2E2E2E2E2E2E2E2E2
310
E2E2E2E2E2E2E2E2E2E2E2E2E2E2E2E2E2E2E2E2E2E2E2E2E2E2E2E2E2E2E2E2E2E2E2E2E2E2E2E2E2E2E2E2E2E2E2E2E2E2E2E2E2E2E2E2E2E2E2E2E2E2E2E2E2E2E2E2E2E2E2E2E2E2E2E2E2E2E2E2E2E2E2E2E2E2E2E2E2E2E2E2F5F5F5F5E2E2E2E2E2E2E2E2E2F5F5F5E2E2E2E2E2E2E2E2E2E2E2E2E2E2E2E2E2E2E2
310
E2E2E2E2E2E2E2E2E2E2E2E2E2E2E2E2E2E2E2E2E2E2E2E2E2E2E2E2E2E2E2E2E2E2E2E2E2E2E2E2E2E2E2E2E2E2E2E2E2E2E2E2E2E2E2E2E2E2E2E2E2E2E2E2E2E2E2E2E2E2E2E2E2E2E2E2E2E2E2E2E2E2E2E2E2E2E2E2E2E2E2E2E2E2E2E2E2E2E2E2E2E2E2E2E2E2E2E2E2E2E2E2E2E2E2E2E2E2E2E2E2E2E2E2E2E2E2
310
E2E2E2E2E2E2E2E2E2E2E2E2E2E2E2E2E2E2E2E2E2E2E2E2E2E2E2E2E2E2E2E2E2E2E2E2E2E2E2E2E2E2E2E2E2E2E2E2E2E2E2E2E2E2E2E2E2E2E2E2E2E2E2E2E2E2E2E2E2E2E2E2E2E2E2E2E2E2E2E2E2E2E2E2E2E2E2E2E2E2E2E2E2E2F5F5F5E2E2E2E2E2E2E2E2E2E2F5F5F5E2E2E2E2E2E2E2E2E2E2E2E2E2E2E2E2E2
310
E2E2E2E2E2E2E2E2E2E2E2E2E2E2E2E2E2E2E2E2E2E2E2E2E2E2E2E2E2E2E2E2E2E2E2E2E2E2E2E2E2E2E2E2E2E2E2E2E2E2E2E2E2E2E2E2E2E2E2E2E2E2E2E2E2E2E2E2E2E2E2E2E2E2E2E2E2E2E2E2E2E2E2E2E2E2E2E2E2E2E2E2E2E2E2E2E2E2E2E2E2E2E2E2E2E2E2E2E2E2E2E2E2E2E2E2E2E2E2E2E2E2E2E2E2E2E2
310
E2E2E2E2E2E2E2E2E2E2E2E2E2E2E2E2E2E2E2E2E2E2E2E2E2E2E2E2E2E2E2E2E2E2E2E2E2E2E2E2E2E2E2E2E2E2E2E2E2E2E2E2E2E2E2E2E2E2E2E2E2E2E2E2E2E2E2E2E2E2E2E2E2E2E2E2E2E2E2E2E2E2E2E2E2E2E2E2E2E2E2E2E2E2E2E2E2F5F5E2E2E2E2E2E2E2E2E2E2F5F5E2E2E2E2E2E2E2E2E2E2E2E2E2E2E2E2
310
E2E2E2E2E2E2E2E2E2E2E2E2E2E2E2E2E2E2E2E2E2E2E2E2E2E2E2E2E2E2E2E2E2E2E2E2E2E2E2E2E2E2E2E2E2E2E2E2E2E2E2E2E2E2E2E2E2E2E2E2E2E2E2E2E2E2E2E2E2E2E2E2E2E2E2E2E2E2E2E2E2E2E2E2E2E2E2E2E2E2E2E2E2E2E2E2E2E2E2E2E2E2E2E2E2E2E2E2E2E2E2E2E2E2E2E2E2E2E2E2E2E2E2E2E2E2E2
310
E2E2E2E2E2E2E2E2E2E2E2E2E2E2E2E2E2E2E2E2E2E2E2E2E2E2E2E2E2E2E2E2E2E2E2E2E2E2E2E2E2E2E2E2E2E2E2E2E2E2E2E2E2E2E2E2E2E2E2E2E2E2E2E2E2E2E2E2E2E2E2E2E2E2E2E2E2E2E2E2E2E2E2E2E2E2E2E2E2E2E2E2E2E2E2E2E2E2E2F5F5E2E2E2E2E2E2E2E2E2E2F5F5E2E2E2E2E2E2E2E2E2E2E2E2E2E2
310
E2E2E2E2E2E2E2E2E2E2E2E2E2E2E2E2E2E2E2E2E2E2E2E2E2E2E2E2E2E2E2E2E2E2E2E2E2E2E2E2E2E2E2E2E2E2E2E2E2E2E2E2E2E2E2E2E2E2E2E2E2E2E2E2E2E2E2E2E2E2E2E2E2E2E2E2E2E2E2E2E2E2E2E2E2E2E2E2E2E2E2E2E2E2E2E2E2E2E2E2E2E2E2E2E2E2E2E2E2E2E2E2E2E2E2E2E2E2E2E2E2E2E2E2E2E2E2
310
E2E2E2E2E2E2E2E2E2E2E2E2E2E2E2E2E2E2E2E2E2E2E2E2E2E2E2E2E2E2E2E2E2E2E2E2E2E2E2E2E2E2E2E2E2E2E2E2E2E2E2E2E2E2E2E2E2E2E2E2E2E2E2E2E2E2E2E2E2E2E2E2E2E2E2E2E2E2E2E2E2E2E2E2E2E2E2E2E2E2E2E2E2E2E2E2E2E2E2E2E2F5E2E2E2E2E2E2E2E2E2E2E2E2F5E2E2E2E2E2E2E2E2E2E2E2E2
310
E2E2E2E2E2E2E2E2E2E2E2E2E2E2E2E2E2E2E2E2E2E2E2E2E2E2E2E2E2E2E2E2E2E2E2E2E2E2E2E2E2E2E2E2E2E2E2E2E2E2E2E2E2E2E2E2E2E2E2E2E2E2E2E2E2E2E2E2E2E2E2E2E2E2E2E2E2E2E2E2E2E2E2E2E2E2E2E2E2E2E2E2E2E2E2E2E2E2E2E2E2E2E2E2E2E2E2E2E2E2E2E2E2E2E2E2E2E2E2E2E2E2E2E2E2E2E2
310
E2E2E2E2E2E2E2E2E2E2E2E2E2E2E2E2E2E2E2E2E2E2E2E2E2E2E2E2E2E2E2E2E2E2E2E2E2E2E2E2E2E2E2E2E2E2E2E2E2E2E2E2E2E2E2E2E2E2E2E2E2E2E2E2E2E2E2E2E2E2E2E2E2E2E2E2E2E2E2E2E2E2E2E2E2E2E2E2E2E2E2E2E2E2E2E2E2E2E2E2E2E2E2F5E2E2E2E2E2E2E2E2E2E2E2E2F5E2E2E2E2E2E2E2E2E2E2
310
E2E2E2E2E2E2E2E2E2E2E2E2E2E2E2E2E2E2E2E2E2E2E2E2E2E2E2E2E2E2E2E2E2E2E2E2E2E2E2E2E2E2E2E2E2E2E2E2E2E2E2E2E2E2E2E2E2E2E2E2E2E2E2E2E2E2E2E2E2E2E2E2E2E2E2E2E2E2E2E2E2E2E2E2E2E2E2E2E2E2E2E2E2E2E2E2E2E2E2E2E2E2E2E2E2E2E2E2E2E2E2E2E2E2E2E2E2E2E2E2E2E2E2E2E2E2E2
310
E2E2E2E2E2E2E2E2E2E2E2E2E2E2E2E2E2E2E2E2E2E2E2E2E2E2E2E2E2E2E2E2E2E2E2E2E2E2E2E2E2E2E2E2E2E2E2E2E2E2E2E2E2E2E2E2E2E2E2E2E2E2E2E2E2E2E2E2E2E2E2E2E2E2E2E2E2E2E2E2E2E2E2E2E2E2E2E2E2E2E2E2E2E2E2E2E2E2E2E2E2E2E2E2E2E2E2E2E2E2E2E2E2E2E2E2E2E2E2E2E2E2E2E2E2E2E2
310
E2E2E2E2E2E2E2E2E2E2E2E2E2E2E2E2E2E2E2E2E2E2E2E2E2E2E2E2E2E2E2E2E2E2E2E2E2E2E2E2E2E2E2E2E2E2E2E2E2E2E2E2E2E2E2E2E2E2E2E2E2E2E2E2E2E2E2E2E2E2E2E2E2E2E2E2E2E2E2E2E2E2E2E2E2E2E2E2E2E2E2E2E2E2E2E2E2E2E2E2E2E2E2E2E2E2E2E2E2E2E2E2E2E2E2E2E2E2E2E2E2E2E2E2E2E2E2
310
E2E2E2E2E2E2E2E2E2E2E2E2E2E2E2E2E2E2E2E2E2E2E2E2E2E2E2E2E2E2E2E2E2E2E2E2E2E2E2E2E2E2E2E2E2E2E2E2E2E2E2E2E2E2E2E2E2E2E2E2E2E2E2E2E2E2E2E2E2E2E2E2E2E2E2E2E2E2E2E2E2E2E2E2E2E2E2E2E2E2E2E2E2E2E2E2E2E2E2E2E2E2E2E2E2E2E2E2E2E2E2E2E2E2E2E2E2E2E2E2E2E2E2E2E2E2E2
310
E2E2E2E2E2E2E2E2E2E2E2E2E2E2E2E2E2E2E2E2E2E2E2E2E2E2E2E2E2E2E2E2E2E2E2E2E2E2E2E2E2E2E2E2E2E2E2E2E2E2E2E2E2E2E2E2E2E2E2E2E2E2E2E2E2E2E2E2E2E2E2E2E2E2E2E2E2E2E2E2E2E2E2E2E2E2E2E2E2E2E2E2E2E2E2E2E2E2E2E2E2E2E2E2E2E2E2E2E2E2E2E2E2E2E2E2E2E2E2E2E2E2E2E2E2E2E2
310
E2E2E2E2E2E2E2E2E2E2E2E2E2E2E2E2E2E2E2E2E2E2E2E2E2E2E2E2E2E2E2E2E2E2E2E2E2E2E2E2E2E2E2E2E2E2E2E2E2E2E2E2E2E2E2E2E2E2E2E2E2E2E2E2E2E2E2E2E2E2E2E2E2E2E2E2E2E2E2E2E2E2E2E2E2E2E2E2E2E2E2E2E2E2E2E2E2E2E2E2E2E2E2E2E2E2E2E2E2E2E2E2E2E2E2E2E2E2E2E2E2E2E2E2E2E2E2
310
E2E2E2E2E2E2E2E2E2E2E2E2E2E2E2E2E2E2E2E2E2E2E2E2E2E2E2E2E2E2E2E2E2E2E2E2E2E2E2E2E2E2E2E2E2E2E2E2E2E2E2E2E2E2E2E2E2E2E2E2E2E2E2E2E2E2E2E2E2E2E2E2E2E2E2E2E2E2E2E2E2E2E2E2E2E2E2E2E2E2E2E2E2E2E2E2E2E2E2E2E2E2E2E2E2E2E2E2E2E2E2E2E2E2E2E2E2E2E2E2E2E2E2E2E2E2E2
310
E2E2E2E2E2E2E2E2E2E2E2E2E2E2E2E2E2E2E2E2E2E2E2E2E2E2E2E2E2E2E2E2E2E2E2E2
  0
XRECORD
  5
20479
102
{ACAD_REACTORS
330
1E041
102
}
330
1E041
100
AcDbXrecord
280
     1
102
SHADEPLOT
 70
     0
102
SHADEPLOTRESLEVEL
 70
     2
102
SHADEPLOTCUSTOMDPI
 70
   300
  0
XRECORD
  5
1E042
102
{ACAD_REACTORS
330
1E041
102
}
330
1E041
100
AcDbXrecord
280
     1
310
28000000B40000007F00000001000800000000004C590000000000000000000000010000000000003F3F3F0000000000FFFFFF000000000000000000000000000000000000000000000000000000000000000000330000006600000099000000CC000000FF00000000330000333300006633000099330000CC330000FF3300
310
0000660000336600006666000099660000CC660000FF66000000990000339900006699000099990000CC990000FF99000000CC000033CC000066CC000099CC0000CCCC0000FFCC000000FF000033FF000066FF000099FF0000CCFF0000FFFF000000003300330033006600330099003300CC003300FF003300003333003333
310
33006633330099333300CC333300FF33330000663300336633006666330099663300CC663300FF66330000993300339933006699330099993300CC993300FF99330000CC330033CC330066CC330099CC3300CCCC3300FFCC330000FF330033FF330066FF330099FF3300CCFF3300FFFF330000006600330066006600660099
310
006600CC006600FF00660000336600333366006633660099336600CC336600FF33660000666600336666006666660099666600CC666600FF66660000996600339966006699660099996600CC996600FF99660000CC660033CC660066CC660099CC6600CCCC6600FFCC660000FF660033FF660066FF660099FF6600CCFF6600
310
FFFF660000009900330099006600990099009900CC009900FF00990000339900333399006633990099339900CC339900FF33990000669900336699006666990099669900CC669900FF66990000999900339999006699990099999900CC999900FF99990000CC990033CC990066CC990099CC9900CCCC9900FFCC990000FF99
310
0033FF990066FF990099FF9900CCFF9900FFFF99000000CC003300CC006600CC009900CC00CC00CC00FF00CC000033CC003333CC006633CC009933CC00CC33CC00FF33CC000066CC003366CC006666CC009966CC00CC66CC00FF66CC000099CC003399CC006699CC009999CC00CC99CC00FF99CC0000CCCC0033CCCC0066CC
310
CC0099CCCC00CCCCCC00FFCCCC0000FFCC0033FFCC0066FFCC0099FFCC00CCFFCC00FFFFCC000000FF003300FF006600FF009900FF00CC00FF00FF00FF000033FF003333FF006633FF009933FF00CC33FF00FF33FF000066FF003366FF006666FF009966FF00CC66FF00FF66FF000099FF003399FF006699FF009999FF00CC
310
99FF00FF99FF0000CCFF0033CCFF0066CCFF0099CCFF00CCCCFF00FFCCFF0000FFFF0033FFFF0066FFFF0099FFFF00CCFFFF00FFFFFF00000000000D0D0D001A1A1A00282828003535350043434300505050005D5D5D006B6B6B00787878008686860093939300A1A1A100AEAEAE00BBBBBB00C9C9C900D6D6D600E4E4E400
310
F1F1F100FFFFFF0000000000000000000000000000000000000000000000000000000000000000000000000000000000E7E7E7E7E7E7E7E7E7E7E7E7E7E7E7E7E7E7E7E7E7E7E7E7E7E7E7E7E7E7E7E7E7E7E7E7E7E7E7E7E7E7E7E7E7E7E7E7E7E7E7E7E7E7E7E7E7E7E7E7E7E7E7E7E7E7E7E7E7E7E7E7E7E7E7E7E7E7E7
310
E7E7E7E7E7E7E7E7E7E7E7E7E7E7E7E7E7E7E7E7E7E7E7E7E7E7E7E7E7E7E7E7E7E7E7E7E7E7E7E7E7E7E7E7E7E7E7E7E7E7E7E7E7E7E7E7E7E7E7E7E7E7E7E7E7E7E7E7E7E7E7E7E7E7E7E7E7E7E7E7E7E7E7E7E7E7E7E7E7E7E7E7E7E7E7E7E7E7E7E7E7E7E7E7E7E7E7E7E7E7E7E7E7E7E7E7E7E7E7E7E7E7E7E7E7E7E7
310
E7E7E7E7E7E7E7E7E7E7E7E7E7E7E7E7E7E7E7E7E7E7E7E7E7E7E7E7E7E7E7E7E7E7E7E7E7E7E7E7E7E7E7E7E7E7E7E7E7E7E7E7E7E7E7E7E7E7E7E7E7E7E7E7E7E7E7E7E7E7E7E7E7E7E7E7E7E7E7E7E7E7E7E7E7E7E7E7E7E7E7E7E7E7E7E7E7E7E7E7E7E7E7E7E7E7E7E7E7E7E7E7E7E7E7E7E7E7E7E7E7E7E7E7E7E7E7
310
E7E7E7E7E7E7E7E7E7E7E7E7E7E7E7E7E7E7E7E7E7E7E7E7E7E7E7E7E7E7E7E7E7E7E7E7E7E7E7E7E7E7E7E7E7E7E7E7E7E7E7E7E7E7E7E7E7E7E7E7E7E7E7E7E7E7E7E7E7E7E7E7E7E7E7E7E7E7E7E7E7E7E7E7E7E7E7E7E7E7E7E7E7E7E7E7E7E7E7E7E7E7E7E7E7E7E7E7E7E7E7E7E7E7E7E7E7E7E7E7E7E7E7E7E7E7E7
310
E7E7E7E7E7E7E7E7E7E7E7E7E7E7E7E7E7E7E7E7E7E7E7E7E7E7E7E7E7E7E7E7E7E7E7E7E7E7E7E7E7E7E7E7E7E7E7E7E7E7E7E7E7E7E7E7E7E7E7E7E7E7E7E7E7E7E7E7E7E7E7E7E7E7E7E7E7E7E7E7E7E7E7E7E7E7E7E7E7E7E7E7E7E7E7E7E7E7E7E7E7E7E7E7E7E7E7E7E7E7E7E7E7E7E7E7E7E7E7E7E7E7E7E7E7E7E7
310
E7E7E7E7E7E7E7E7E7E7E7E7E7E7E7E7E7E7E7E7E7E7E7E7E7E7E7E7E7E7E7E7E7E7E7E7E7E7E7E7E7E7E7E7E7E7E7E7E7E7E7E7E7E7E7E7E7E7E7E7E7E7E7E7E7E7E7E7E7E7E7E7E7E7E7E7E7E7E7E7E7E7E7E7E7E7E7E7E7E7E7E7E7E7E7E7E7E7E7E7E7E7E7E7E7E7E7E7E7E7E7E7E7E7E7E7E7E7E7E7E7E7E7E7E7E7E7
310
E7E7E7E7E7E7E7E7E7E7E7E7E7E7E7E7E7E7E7E7E7E7E7E7E7E7E7E7E7E7E7E7E7E7E7E7E7E7E7E7E7E7E7E7E7E7E7E7E7E7E7E7E7E7E7E7E7E7E7E7E7E7E7E7E7E7E7E7E7E7E7E7E7E7E7E7E7E7E7E7E7E7E7E7E7E7E7E7E7E7E7E7E7E7E7E7E7E7E7E7E7E7E7E7E7E7E7E7E7E7E7E7E7E7E7E7E7E7E7E7E7E7E7E7E7E7E7
310
E7E7E7E7E7E7E7E7E7E7E7E7E7E7E7E7E7E7E7E7E7E7E7E7E7E7E7E7E7E7E7E7E7E7E7E7E7E7E7E7E7E7E7E7E7E7E7E7E7E7E7E7E7E7E7E7E7E7E7E7E7E7E7E7E7E7E7E7E7E7E7E7E7E7E7E7E7E7E7E7E7E7E7E7E7E7E7E7E7E7E7E7E7E7E7E7E7E7E7E7E7E7E7E7E7E7E7E7E7E7E7E7E7E7E7E7E7E7E7E7E7E7E7E7E7E7E7
310
E7E7E7E7E7E7E7E7E7E7E7E7E7E7E7E7E7E7E7E7E7E7E7E7E7E7E7E7E7E7E7E7E7E7E7E7E7E7E7E7E7E7E7E7E7E7E7E7E7E7E7E7E7E7E7E7E7E7E7E7E7E7E7E7E7E7E7E7E7E7E7E7E7E7E7E7E7E7E7E7E7E7E7E7E7E7E7E7E7E7E7E7E7E7E7E7E7E7E7E7E7E7E7E7E7E7E7E7E7E7E7E7E7E7E7E7E7E7E7E7E7E7E7E7E7E7E7
310
E7E7E7E7E7E7E7E7E7E7E7E7E7E7E7E7E7E7E7E7E7E7E7E7E7E7E7E7E7E7E7E7E7E7E7E7E7E7E7E7E7E7E7E7E7E7E7E7E7E7E7E7E7E7E7E7E7E7E7E7E7E7E7E7E7E7E7E7E7E7E7E7E7E7E7E7E7E7E7E7E7E7E7E7E7E7E7E7E7E7E7E7E7E7E7E7E7E7E7E7E7E7E7E7E7E7E7E7E7E7E7E7E7E7E7E7E7E7E7E7E7E7E7E7E7E7E7
310
E7E7E7E7E7E7E7E7E7E7E7E7E7E7E7E7E7E7E7E7E7E7E7E7E7E7E7E7E7E7E7E7E7E7E7E7E7E7E7E7E7E7E7E7E7E7E7E7E7E7E7E7E7E7E7E7E7E7E7E7E7E7E7E7E7E7E7E7E7E7E7E7E7E7E7E7E7E7E7E7E7E7E7E7E7E7E7E7E7E7E7E7E7E7E7E7E7E7E7E7E7E7E7E7E7E7E7E7E7E7E7E7E7E7E7E7E7E7E7E7E7E7E7E7E7E7E7
310
E7E7E7E7E7E7E7E7E7E7E7E7E7E7E7E7E7E7E7E7E7E7E7E7E7E7E7E7E7E7E7E7E7E7E7E7E7E7E7E7E7E7E7E7E7E7E7E7E7E7E7E7E7E7E7E7E7E7E7E7E7E7E7E7E7E7E7E7E7E7E7E7E7E7E7E7E7E7E7E7E7E7E7E7E7E7E7E7E7E7E7E7E7E7E7E7E7E7E7E7E7E7E7E7E7E7E7E7E7E7E7E7E7E7E7E7E7E7E7E7E7E7E7E7E7E7E7
310
E7E7E7E7E7E7E7E7E7E7E7E7E7E7E7E7E7E7E7E7E7E7E7E7E7E7E7E7E7E7E7E7E7E7E7E7E7E7E7E7E7E7E7E7E7E7E7E7E7E7E7E7E7E7E7E7E7E7E7E7E7E7E7E7E7E7E7E7E7E7E7E7E7E7E7E7E7E7E7E7E7E7E7E7E7E7E7E7E7E7E7E7E7E7E7E7E7E7E7E7E7E7E7E7E7E7E7E7E7E7E7E7E7E7E7E7E7E7E7E7E7E7E7E7E7E7E7
310
E7E7E7E7E7E7E7E7E7E7E7E7E7E7E7E7E7E7E7E7E7E7E7E7E7E7E7E7E7E7E7E7E7E7E7E7E7E7E7E7E7E7E7E7E7E7E7E7E7E7E7E7E7E7E7E7E7E7E7E7E7E7E7E7E7E7E7E7E7E7E7E7E7E7E7E7E7E7E7E7E7E7E7E7E7E7E7E7E7E7E7E7E7E7E7E7E7E7E7E7E7E7E7E7E7E7E7E7E7E7E7E7E7E7E7E7E7E7E7E7E7E7E7E7E7E7E7
310
E7E7E7E7E7E7E7E7E7E7E7E7E7E7E7E7E7E7E7E7E7E7E7E7E7E7E7E7E7E7E7E7E7E7E7E7E7E7E7E7E7E7E7E7E7E7E7E7E7E7E7E7E7E7E7E7E7E7E7E7E7E7E7E7E7E7E7E7E7E7E7E7E7E7E7E7E7E7E7E7E7E7E7E7E7E7E7E7E7E7E7E7E7E7E7E7E7E7E7E7E7E7E7E7E7E7E7E7E7E7E7E7E7E7E7E7E7E7E7E7E7E7E7E7E7E7E7
310
E7E7E7E7E7E7E7E7E7E7E7E7E7E7E7E7E7E7E7E7E7E7E7E7E7E7E7E7E7E7E7E7E7E7E7E7E7E7E7E7E7E7E7E7E7E7E7E7E7E7E7E7E7E7E7E7E7E7E7E7E7E7E7E7E7E7E7E7E7E7E7E7E7E7E7E7E7E7E7E7E7E7E7E7E7E7E7E7E7E7E7E7E7E7E7E7E7E7E7E7E7E7E7E7E7E7E7E7E7E7E7E7E7E7E7E7E7E7E7E7E7E7E7E7E7E7E7
310
E7E7E7E7E7E7E7E7E7E7E7E7E7E7E7E7E7E7E7E7E7E7E7E7E7E7E7E7E7E7E7E7E7E7E7E7E7E7E7E7E7E7E7E7E7E7E7E7E7E7E7E7E7E7E7E7E7E7E7E7E7E7E7E7E7E7E7E7E7E7E7E7E7E7E7E7E7E7E7E7E7E7E7E7E7E7E7E7E7E7E7E7E7E7E7E7E7E7E7E7E7E7E7E7E7E7E7E7E7E7E7E7E7E7E7E7E7E7E7E7E7E7E7E7E7E7E7
310
E7E7E7E7E7E7E7E7E7E7E7E7E7E7E7E7E7E7E7E7E7E7E7E7E7E7E7E7E7E7E7E7E7E7E7E7E7E7E7E7E7E7E7E7E7E7E7E7E7E7E7E7E7E7E7E7E7E7E7E7E7E7E7E7E7E7E7E7E7E7E7E7E7E7E7E7E7E7E7E7E7E7E7E7E7E7E7E7E7E7E7E7E7E7E7E7E7E7E7E7E7E7E7E7E7E7E7E7E7E7E7E7E7E7E7E7E7E7E7E7E7E7E7E7E7E7E7
310
E7E7E7E7E7E7E7E7E7E7E7E7E7E7E7E7E7E7E7E7E7E7E7E7E7E7E7E7E7E7E7E7E7E7E7E7E7E7E7E7E7E7E7E7E7E7E7E7E7E7E7E7E7E7E7E7E7E7E7E7E7E7E7E7E7E7E7E7E7E7E7E7E7E7E7E7E7E7E7E7E7E7E7E7E7E7E7E7E7E7E7E7E7E7E7E7E7E7E7E7E7E7E7E7E7E7E7E7E7E7E7E7E7E7E7E7E7E7E7E7E7E7E7E7E7E7E7
310
E7E7E7E7E7E7E7E7E7E7E7E7E7E7E7E7E7E7E7E7E7E7E7E7E7E7E7E7E7E7E7E7E7E7E7E7E7E7E7E7E7E7E7E7E7E7E7E7E7E7E7E7E7E7E7E7E7E7E7E7E7E7E7E7E7E7E7E7E7E7E7E7E7E7E7E7E7E7E7E7E7E7E7E7E7E7E7E7E7E7E7E7E7E7E7E7E7E7E7E7E7E7E7E7E7E7E7E7E7E7E7E7E7E7E7E7E7E7E7E7E7E7E7E7E7E7E7
310
E7E7E7E7E7E7E7E7E7E7E7E7E7E7E7E7E7E7E7E7E7E7E7E7E7E7E7E7E7E7E7E7E7E7E7E7E7E7E7E7E7E7E7E7E7E7E7E7E7E7E7E7E7E7E7E7E7E7E7E7E7E7E7E7E7E7E7E7E7E7E7E7E7E7E7E7E7E7E7E7E7E7E7E7E7E7E7E7E7E7E7E7E7E7E7E7E7E7E7E7E7E7E7E7E7E7E7E7E7E7E7E7E7E7E7E7E7E7E7E7E7E7E7E7E7E7E7
310
E7E7E7E7E7E7E7E7E7E7E7E7E7E7E7E7E7E7E7E7E7E7E7E7E7E7E7E7E7E7E7E7E7E7E7E7E7E7E7E7E7E7E7E7E7E7E7E7E7E7E7E7E7E7E7E7E7E7E7E7E7E7E7E7E7E7E7E7E7E7E7E7E7E7E7E7E7E7E7E7E7E7E7E7E7E7E7E7E7E7E7E7E7E7E7E7E7E7E7E7E7E7E7E7E7E7E7E7E7E7E7E7E7E7E7E7E7E7E7E7E7E7E7E7E7E7E7
310
E7E7E7E7E7E7E7E7E7E7E7E7E7E7E7E7E7E7E7E7E7E7E7E7E7E7E7E7E7E7E7E7E7E7E7E7E7E7E7E7E7E7E7E7E7E7E7E7E7E7E7E7E7E7E7E7E7E7E7E7E7E7E7E7E7E7E7E7E7E7E7E7E7E7E7E7E7E7E7E7E7E7E7E7E7E7E7E7E7E7E7E7E7E7E7E7E7E7E7E7E7E7E7E7E7E7E7E7E7E7E7E7E7E7E7E7E7E7E7E7E7E7E7E7E7E7E7
310
E7E7E7E7E7E7E7E7E7E7E7E7E7E7E7E7E7E7E7E7E7E7E7E7E7E7E7E7E7E7E7E7E7E7E7E7E7E7E7E7E7E7E7E7E7E7E7E7E7E7E7E7E7E7E7E7E7E7E7E7E7E7E7E7E7E7E7E7E7E7E7E7E7E7E7E7E7E7E7E7E7E7E7E7E7E7E7E7E7E7E7E7E7E7E7E7E7E7E7E7E7E7E7E7E7E7E7E7E7E7E7E7E7E7E7E7E7E7E7E7E7E7E7E7E7E7E7
310
E7E7E7E7E7E7E7E7E7E7E7E7E7E7E7E7E7E7E7E7E7E7E7E7E7E7E7E7E7E7E7E7E7E7E7E7E7E7E7E7E7E7E7E7E7E7E7E7E7E7E7E7E7E7E7E7E7E7E7E7E7E7E7E7E7E7E7E7E7E7E7E7E7E7E7E7E7E7E7E7E7E7E7E7E7E7E7E7E7E7E7E7E7E7E7E7E7E7E7E7E7E7E7E7E7E7E7E7E7E7E7E7E7E7E7E7E7E7E7E7E7E7E7E7E7E7E7
310
E7E7E7E7E7E7E7E7E7E7E7E7E7E7E7E7E7E7E7E7E7E7E7E7E7E7E7E7E7E7E7E7E7E7E7E7E7E7E7E7E7E7E7E7E7E7E7E7E7E7E7E7E7E7E7E7E7E7E7E7E7E7E7E7E7E7E7E7E7E7E7E7E7E7E7E7E7E7E7E7E7E7E7E7E7E7E7E7E7E7E7E7E7E7E7E7E7E7E7E7E7E7E7E7E7E7E7E7E7E7E7E7E7E7E7E7E7E7E7E7E7E7E7E7E7E7E7
310
E7E7E7E7E7E7E7E7E7E7E7E7E7E7E7E7E7E7E7E7E7E7E7E7E7E7E7E7E7E7E7E7E7E7E7E7E7E7E7E7E7E7E7E7E7E7E7E7E7E7E7E7E7E7E7E7E7E7E7E7E7E7E7E7E7E7E7E7E7E7E7E7E7E7E7E7E7E7E7E7E7E7E7E7E7E7E7E7E7E7E7E7E7E7E7E7E7E7E7E7E7E7E7E7E7E7E7E7E7E7E7E7E7E7E7E7E7E7E7E7E7E7E7E7E7E7E7
310
E7E7E7E7E7E7E7E7E7E7E7E7E7E7E7E7E7E7E7E7E7E7E7E7E7E7E7E7E7E7E7E7E7E7E7E7E7E7E7E7E7E7E7E7E7E7E7E7E7E7E7E7E7E7E7E7E7E7E7E7E7E7E7E7E7E7E7E7E7E7E7E7E7E7E7E7E7E7E7E7E7E7E7E7E7E7E7E7E7E7E7E7E7E7E7E7E7E7E7E7E7E7E7E7E7E7E7E7E7E7E7E7E7E7E7E7E7E7E7E7E7E7E7E7E7E7E7
310
E7E7E7E7E7E7E7E7E7E7E7E7E7E7E7E7E7E7E7E7E7E7E7E7E7E7E7E7E7E7E7E7E7E7E7E7E7E7E7E7E7E7E7E7E7E7E7E7E7E7E7E7E7E7E7E7E7E7E7E7E7E7E7E7E7E7E7E7E7E7E7E7E7E7E7E7E7E7E7E7E7E7E7E7E7E7E7E7E7E7E7E7E7E7E7E7E7E7E7E7E7E7E7E7E7E7E7E7E7E7E7E7E7E7E7E7E7E7E7E7E7E7E7E7E7E7E7
310
E7E7E7E7E7E7E7E7E7E7E7E7E7E7E7E7E7E7E7E7E7E7E7E7E7E7E7E7E7E7E7E7E7E7E7E7E7E7E7E7E7E7E7E7E7E7E7E7E7E7E7E7E7E7E7E7E7E7E7E7E7E7E7E7E7E7E7E7E7E7E7E7E7E7E7E7E7E7E7E7E7E7E7E7E7E7E7E7E7E7E7E7E7E7E7E7E7E7E7E7E7E7E7E7E7E7E7E7E7E7E7E7E7E7E7E7E7E7E7E7E7E7E7E7E7E7E7
310
E7E7E7E7E7E7E7E7E7E7E7E7E7E7E7E7E7E7E7E7E7E7E7E7E7E7E7E7E7E7E7E7E7E7E7E7E7E7E7E7E7E7E7E7E7E7E7E7E7E7E7E7E7E7E7E7E7E7E7E7E7E7E7E7E7E7E7E7E7E7E7E7E7E7E7E7E7E7E7E7E7E7E7E7E7E7E7E7E7E7E7E7E7E7E7E7E7E7E7E7E7E7E7E7E7E7E7E7E7E7E7E7E7E7E7E7E7E7E7E7E7E7E7E7E7E7E7
310
E7E7E7E7E7E7E7E7E7E7E7E7E7E7E7E7E7E7E7E7E7E7E7E7E7E7E7E7E7E7E7E7E7E7E7E7E7E7E7E7E7E7E7E7E7E7E7E7E7E7E7E7E7E7E7E7E7E7E7E7E7E7E7E7E7E7E7E7E7E7E7E7E7E7E7E7E7E7E7E7E7E7E7E7E7E7E7E7E7E7E7E7E7E7E7E7E7E7E7E7E7E7E7E7E7E7E7E7E7E7E7E7E7E7E7E7E7E7E7E7E7E7E7E7E7E7E7
310
E7E7E7E7E7E7E7E7E7E7E7E7E7E7E7E7E7E7E7E7E7E7E7E7E7E7E7E7E7E7E7E7E7E7E7E7E7E7E7E7E7E7E7E7E7E7E7E7E7E7E7E7E7E7E7E7E7E7E7E7E7E7E7E7E7E7E7E7E7E7E7E7E7E7E7E7E7E7E7E7E7E7E7E7E7E7E7E7E7E7E7E7E7E7E7E7E7E7E7E7E7E7E7E7E7E7E7E7E7E7E7E7E7E7E7E7E7E7E7E7E7E7E7E7E7E7E7
310
E7E7E7E7E7E7E7E7E7E7E7E7E7E7E7E7E7E7E7E7E7E7E7E7E7E7E7E7E7E7E7E7E7E7E7E7E7E7E7E7E7E7E7E7E7E7E7E7E7E7E7E7E7E7E7E7E7E7E7E7E7E7E7E7E7E7E7E7E7E7E7E7E7E7E7E7E7E7E7E7E7E7E7E7E7E7E7E7E7E7E7E7E7E7E7E7E7E7E7E7E7E7E7E7E7E7E7E7E7E7E7E7E7E7E7E7E7E7E7E7E7E7E7E7E7E7E7
310
E7E7E7E7E7E7E7E7E7E7E7E7E7E7E7E7E7E7E7E7E7E7E7E7E7E7E7E7E7E7E7E7E7E7E7E7E7E7E7E7E7E7E7E7E7E7E7E7E7E7E7E7E7E7E7E7E7E7E7E7E7E7E7E7E7E7E7E7E7E7E7E7E7E7E7E7E7E7E7E7E7E7E7E7E7E7E7E7E7E7E7E7E7E7E7E7E7E7E7E7E7E7E7E7E7E7E7E7E7E7E7E7E7E7E7E7E7E7E7E7E7E7E7E7E7E7E7
310
E7E7E7E7E7E7E7E7E7E7E7E7E7E7E7E7E7E7E7E7E7E7E7E7E7E7E7E7E7E7E7E7E7E7E7E7E7E7E7E7E7E7E7E7E7E7E7E7E7E7E7E7E7E7E7E7E7E7E7E7E7E7E7E7E7E7E7E7E7E7E7E7E7E7E7E7E7E7E7E7E7E7E7E7E7E7E7E7E7E7E7E7E7E7E7E7E7E7E7E7E7E7E7E7E7E7E7E7E7E7E7E7E7E7E7E7E7E7E7E7E7E7E7E7E7E7E7
310
E7E7E7E7E7E7E7E7E7E7E7E7E7E7E7E7E7E7E7E7E7E7E7E7E7E7E7E7E7E7E7E7E7E7E7E7E7E7E7E7E7E7E7E7E7E7E7E7E7E7E7E7E7E7E7E7E7E7E7E7E7E7E7E7E7E7E7E7E7E7E7E7E7E7E7E7E7E7E7E7E7E7E7E7E7E7E7E7E7E7E7E7E7E7E7E7E7E7E7E7E7E7E7E7E7E7E7E7E7E7E7E7E7E7E7E7E7E7E7E7E7E7E7E7E7E7E7
310
E7E7E7E7E7E7E7E7E7E7E7E7E7E7E7E7E7E7E7E7E7E7E7E7E7E7E7E7E7E7E7E7E7E7E7E7E7E7E7E7E7E7E7E7E7E7E7E7E7E7E7E7E7E7E7E7E7E7E7E7E7E7E7E7E7E7E7E7E7E7E7E7E7E7E7E7E7E7E7E7E7E7E7E7E7E7E7E7E7E7E7E7E7E7E7E7E7E7E7E7E7E7E7E7E7E7E7E7E7E7E7E7E7E7E7E7E7E7E7E7E7E7E7E7E7E7E7
310
E7E7E7E7E7E7E7E7E7E7E7E7E7E7E7E7E7E7E7E7E7E7E7E7E7E7E7E7E7E7E7E7E7E7E7E7E7E7E7E7E7E7E7E7E7E7E7E7E7E7E7E7E7E7E7E7E7E7E7E7E7E7E7E7E7E7E7E7E7E7E7E7E7E7E7E7E7E7E7E7E7E7E7E7E7E7E7E7E7E7E7E7E7E7E7E7E7E7E7E7E7E7E7E7E7E7E7E7E7E7E7E7E7E7E7E7E7E7E7E7E7E7E7E7E7E7E7
310
E7E7E7E7E7E7E7E7E7E7E7E7E7E7E7E7E7E7E7E7E7E7E7E7E7E7E7E7E7E7E7E7E7E7E7E7E7E7E7E7E7E7E7E7E7E7E7E7E7E7E7E7E7E7E7E7E7E7E7E7E7E7E7E7E7E7E7E7E7E7E7E7E7E7E7E7E7E7E7E7E7E7E7E7E7E7E7E7E7E7E7E7E7E7E7E7E7E7E7E7E7E7E7E7E7E7E7E7E7E7E7E7E7E7E7E7E7E7E7E7E7E7E7E7E7E7E7
310
E7E7E7E7E7E7E7E7E7E7E7E7E7E7E7E7E7E7E7E7E7E7E7E7E7E7E7E7E7E7E7E7E7E7E7E7E7E7E7E7E7E7E7E7E7E7E7E7E7E7E7E7E7E7E7E7E7E7E7E7E7E7E7E7E7E7E7E7E7E7E7E7E7E7E7E7E7E7E7E7E7E7E7E7E7E7E7E7E7E7E7E7E7E7E7E7E7E7E7E7E7E7E7E7E7E7E7E7E7E7E7E7E7E7E7E7E7E7E7E7E7E7E7E7E7E7E7
310
E7E7E7E7E7E7E7E7E7E7E7E7E7E7E7E7E7E7E7E7E7E7E7E7E7E7E7E7E7E7E7E7E7E7E7E7E7E7E7E7E7E7E7E7E7E7E7E7E7E7E7E7E7E7E7E7E7E7E7E7E7E7E7E7E7E7E7E7E7E7E7E7E7E7E7E7E7E7E7E7E7E7E7E7E7E7E7E7E7E7E7E7E7E7E7E7E7E7E7E7E7E7E7E7E7E7E7E7E7E7E7E7E7E7E7E7E7E7E7E7E7E7E7E7E7E7E7
310
E7E7E7E7E7E7E7E7E7E7E7E7E7E7E7E7E7E7E7E7E7E7E7E7E7E7E7E7E7E7E7E7E7E7E7E7E7E7E7E7E7E7E7E7E7E7E7E7E7E7E7E7E7E7E7E7E7E7E7E7E7E7E7E7E7E7E7E7E7E7E7E7E7E7E7E7E7E7E7E7E7E7E7E7E7E7E7E7E7E7E7E7E7E7E7E7E7E7E7E7E7E7E7E7E7E7E7E7E7E7E7E7E7E7E7E7E7E7E7E7E7E7E7E7E7E7E7
310
E7E7E7E7E7E7E7E7E7E7E7E7E7E7E7E7E7E7E7E7E7E7E7E7E7E7E7E7E7E7E7E7E7E7E7E7E7E7E7E7E7E7E7E7E7E7E7E7E7E7E7E7E7E7E7E7E7E7E7E7E7E7E7E7E7E7E7E7E7E7E7E7E7E7E7E7E7E7E7E7E7E7E7E7E7E7E7E7E7E7E7E7E7E7E7E7E7E7E7E7E7E7E7E7E7E7E7E7E7E7E7E7E7E7E7E7E7E7E7E7E7E7E7E7E7E7E7
310
E7E7E7E7E7E7E7E7E7E7E7E7E7E7E7E7E7E7E7E7E7E7E7E7E7E7E7E7E7E7E7E7E7E7E7E7E7E7E7E7E7E7E7E7E7E7E7E7E7E7E7E7E7E7E7E7E7E7E7E7E7E7E7E7E7E7E7E7E7E7E7E7E7E7E7E7E7E7E7E7E7E7E7E7E7E7E7E7E7E7E7E7E7E7E7E7E7E7E7E7E7E7E7E7E7E7E7E7E7E7E7E7E7E7E7E7E7E7E7E7E7E7E7E7E7E7E7
310
E7E7E7E7E7E7E7E7E7E7E7E7E7E7E7E7E7E7E7E7E7E7E7E7E7E7E7E7E7E7E7E7E7E7E7E7E7E7E7E7E7E7E7E7E7E7E7E7E7E7E7E7E7E7E7E7E7E7E7E7E7E7E7E7E7E7E7E7E7E7E7E7E7E7E7E7E7E7E7E7E7E7E7E7E7E7E7E7E7E7E7E7E7E7E7E7E7E7E7E7E7E7E7E7E7E7E7E7E7E7E7E7E7E7E7E7E7E7E7E7E7E7E7E7E7E7E7
310
E7E7E7E7E7E7E7E7E7E7E7E7E7E7E7E7E7E7E7E7E7E7E7E7E7E7E7E7E7E7E7E7E7E7E7E7E7E7E7E7E7E7E7E7E7E7E7E7E7E7E7E7E7E7E7E7E7E7E7E7E7E7E7E7E7E7E7E7E7E7E7E7E7E7E7E7E7E7E7E7E7E7E7E7E7E7E7E7E7E7E7E7E7E7E7E7E7E7E7E7E7E7E7E7E7E7E7E7E7E7E7E7E7E7E7E7E7E7E7E7E7E7E7E7E7E7E7
310
E7E7E7E7E7E7E7E7E7E7E7E7E7E7E7E7E7E7E7E7E7E7E7E7E7E7E7E7E7E7E7E7E7E7E7E7E7E7E7E7E7E7E7E7E7E7E7E7E7E7E7E7E7E7E7E7E7E7E7E7E7E7E7E7E7E7E7E7E7E7E7E7E7E7E7E7E7E7E7E7E7E7E7E7E7E7E7E7E7E7E7E7E7E7E7E7E7E7E7E7E7E7E7E7E7E7E7E7E7E7E7E7E7E7E7E7E7E7E7E7E7E7E7E7E7E7E7
310
E7E7E7E7E7E7E7E7E7E7E7E7E7E7E7E7E7E7E7E7E7E7E7E7E7E7E7E7E7E7E7E7E7E7E7E7E7E7E7E7E7E7E7E7E7E7E7E7E7E7E7E7E7E7E7E7E7E7E7E7E7E7E7E7E7E7E7E7E7E7E7E7E7E7E7E7E7E7E7E7E7E7E7E7E7E7E7E7E7E7E7E7E7E7E7E7E7E7E7E7E7E7E7E7E7E7E7E7E7E7E7E7E7E7E7E7E7E7E7E7E7E7E7E7E7E7E7
310
E7E7E7E7E7E7E7E7E7E7E7E7E7E7E7E7E7E7E7E7E7E7E7E7E7E7E7E7E7E7E7E7E7E7E7E7E7E7E7E7E7E7E7E7E7E7E7E7E7E7E7E7E7E7E7E7E7E7E7E7E7E7E7E7E7E7E7E7E7E7E7E7E7E7E7E7E7E7E7E7E7E7E7E7E7E7E7E7E7E7E7E7E7E7E7E7E7E7E7E7E7E7E7E7E7E7E7E7E7E7E7E7E7E7E7E7E7E7E7E7E7E7E7E7E7E7E7
310
E7E7E7E7E7E7E7E7E7E7E7E7E7E7E7E7E7E7E7E7E7E7E7E7E7E7E7E7E7E7E7E7E7E7E7E7E7E7E7E7E7E7E7E7E7E7E7E7E7E7E7E7E7E7E7E7E7E7E7E7E7E7E7E7E7E7E7E7E7E7E7E7E7E7E7E7E7E7E7E7E7E7E7E7E7E7E7E7E7E7E7E7E7E7E7E7E7E7E7E7E7E7E7E7E7E7E7E7E7E7E7E7E7E7E7E7E7E7E7E7E7E7E7E7E7E7E7
310
E7E7E7E7E7E7E7E7E7E7E7E7E7E7E7E7E7E7E7E7E7E7E7E7E7E7E7E7E7E7E7E7E7E7E7E7E7E7E7E7E7E7E7E7E7E7E7E7E7E7E7E7E7E7E7E7E7E7E7E7E7E7E7E7E7E7E7E7E7E7E7E7E7E7E7E7E7E7E7E7E7E7E7E7E7E7E7E7E7E7E7E7E7E7E7E7E7E7E7E7E7E7E7E7E7E7E7E7E7E7E7E7E7E7E7E7E7E7E7E7E7E7E7E7E7E7E7
310
E7E7E7E7E7E7E7E7E7E7E7E7E7E7E7E7E7E7E7E7E7E7E7E7E7E7E7E7E7E7E7E7E7E7E7E7E7E7E7E7E7E7E7E7E7E7E7E7E7E7E7E7E7E7E7E7E7E7E7E7E7E7E7E7E7E7E7E7E7E7E7E7E7E7E7E7E7E7E7E7E7E7E7E7E7E7E7E7E7E7E7E7E7E7E7E7E7E7E7E7E7E7E7E7E7E7E7E7E7E7E7E7E7E7E7E7E7E7E7E7E7E7E7E7E7E7E7
310
E7E7E7E7E7E7E7E7E7E7E7E7E7E7E7E7E7E7E7E7E7E7E7E7E7E7E7E7E7E7E7E7E7E7E7E7E7E7E7E7E7E7E7E7E7E7E7E7E7E7E7E7E7E7E7E7E7E7E7E7E7E7E7E7E7E7E7E7E7E7E7E7E7E7E7E7E7E7E7E7E7E7E7E7E7E7E7E7E7E7E7E7E7E7E7E7E7E7E7E7E7E7E7E7E7E7E7E7E7E7E7E7E7E7E7E7E7E7E7E7E7E7E7E7E7E7E7
310
E7E7E7E7E7E7E7E7E7E7E7E7E7E7E7E7E7E7E7E7E7E7E7E7E7E7E7E7E7E7E7E7E7E7E7E7E7E7E7E7E7E7E7E7E7E7E7E7E7E7E7E7E7E7E7E7E7E7E7E7E7E7E7E7E7E7E7E7E7E7E7E7E7E7E7E7E7E7E7E7E7E7E7E7E7E7E7E7E7E7E7E7E7E7E7E7E7E7E7E7E7E7E7E7E7E7E7E7E7E7E7E7E7E7E7E7E7E7E7E7E7E7E7E7E7E7E7
310
E7E7E7E7E7E7E7E7E7E7E7E7E7E7E7E7E7E7E7E7E7E7E7E7E7E7E7E7E7E7E7E7E7E7E7E7E7E7E7E7E7E7E7E7E7E7E7E7E7E7E7E7E7E7E7E7E7E7E7E7E7E7E7E7E7E7E7E7E7E7E7E7E7E7E7E7E7E7E7E7E7E7E7E7E7E7E7E7E7E7E7E7E7E7E7E7E7E7E7E7E7E7E7E7E7E7E7E7E7E7E7E7E7E7E7E7E7E7E7E7E7E7E7E7E7E7E7
310
E7E7E7E7E7E7E7E7E7E7E7E7E7E7E7E7E7E7E7E7E7E7E7E7E7E7E7E7E7E7E7E7E7E7E7E7E7E7E7E7E7E7E7E7E7E7E7E7E7E7E7E7E7E7E7E7E7E7E7E7E7E7E7E7E7E7E7E7E7E7E7E7E7E7E7E7E7E7E7E7E7E7E7E7E7E7E7E7E7E7E7E7E7E7E7E7E7E7E7E7E7E7E7E7E7E7E7E7E7E7E7E7E7E7E7E7E7E7E7E7E7E7E7E7E7E7E7
310
E7E7E7E7E7E7E7E7E7E7E7E7E7E7E7E7E7E7E7E7E7E7E7E7E7E7E7E7E7E7E7E7E7E7E7E7E7E7E7E7E7E7E7E7E7E7E7E7E7E7E7E7E7E7E7E7E7E7E7E7E7E7E7E7E7E7E7E7E7E7E7E7E7E7E7E7E7E7E7E7E7E7E7E7E7E7E7E7E7E7E7E7E7E7E7E7E7E7E7E7E7E7E7E7E7E7E7E7E7E7E7E7E7E7E7E7E7E7E7E7E7E7E7E7E7E7E7
310
E7E7E7E7E7E7E7E7E7E7E7E7E7E7E7E7E7E7E7E7E7E7E7E7E7E7E7E7E7E7E7E7E7E7E7E7E7E7E7E7E7E7E7E7E7E7E7E7E7E7E7E7E7E7E7E7E7E7E7E7E7E7E7E7E7E7E7E7E7E7E7E7E7E7E7E7E7E7E7E7E7E7E7E7E7E7E7E7E7E7E7E7E7E7E7E7E7E7E7E7E7E7E7E7E7E7E7E7E7E7E7E7E7E7E7E7E7E7E7E7E7E7E7E7E7E7E7
310
E7E7E7E7E7E7E7E7E7E7E7E7E7E7E7E7E7E7E7E7E7E7E7E7E7E7E7E7E7E7E7E7E7E7E7E7E7E7E7E7E7E7E7E7E7E7E7E7E7E7E7E7E7E7E7E7E7E7E7E7E7E7E7E7E7E7E7E7E7E7E7E7E7E7E7E7E7E7E7E7E7E7E7E7E7E7E7E7E7E7E7E7E7E7E7E7E7E7E7E7E7E7E7E7E7E7E7E7E7E7E7E7E7E7E7E7E7E7E7E7E7E7E7E7E7E7E7
310
E7E7E7E7E7E7E7E7E7E7E7E7E7E7E7E7E7E7E7E7E7E7E7E7E7E7E7E7E7E7E7E7E7E7E7E7E7E7E7E7E7E7E7E7E7E7E7E7E7E7E7E7E7E7E7E7E7E7E7E7E7E7E7E7E7E7E7E7E7E7E7E7E7E7E7E7E7E7E7E7E7E7E7E7E7E7E7E7E7E7E7E7E7E7E7E7E7E7E7E7E7E7E7E7E7E7E7E7E7E7E7E7E7E7E7E7E7E7E7E7E7E7E7E7E7E7E7
310
E7E7E7E7E7E7E7E7E7E7E7E7E7E7E7E7E7E7E7E7E7E7E7E7E7E7E7E7E7E7E7E7E7E7E7E7E7E7E7E7E7E7E7E7E7E7E7E7E7E7E7E7E7E7E7E7E7E7E7E7E7E7E7E7E7E7E7E7E7E7E7E7E7E7E7E7E7E7E7E7E7E7E7E7E7E7E7E7E7E7E7E7E7E7E7E7E7E7E7E7E7E7E7E7E7E7E7E7E7E7E7E7E7E7E7E7E7E7E7E7E7E7E7E7E7E7E7
310
E7E7E7E7E7E7E7E7E7E7E7E7E7E7E7E7E7E7E7E7E7E7E7E7E7E7E7E7E7E7E7E7E7E7E7E7E7E7E7E7E7E7E7E7E7E7E7E7E7E7E7E7E7E7E7E7E7E7E7E7E7E7E7E7E7E7E7E7E7E7E7E7E7E7E7E7E7E7E7E7E7E7E7E7E7E7E7E7E7E7E7E7E7E7E7E7E7E7E7E7E7E7E7E7E7E7E7E7E7E7E7E7E7E7E7E7E7E7E7E7E7E7E7E7E7E7E7
310
E7E7E7E7E7E7E7E7E7E7E7E7E7E7E7E7E7E7E7E7E7E7E7E7E7E7E7E7E7E7E7E7E7E7E7E7E7E7E7E7E7E7E7E7E7E7E7E7E7E7E7E7E7E7E7E7E7E7E7E7E7E7E7E7E7E7E7E7E7E7E7E7E7E7E7E7E7E7E7E7E7E7E7E7E7E7E7E7E7E7E7E7E7E7E7E7E7E7E7E7E7E7E7E7E7E7E7E7E7E7E7E7E7E7E7E7E7E7E7E7E7E7E7E7E7E7E7
310
E7E7E7E7E7E7E7E7E7E7E7E7E7E7E7E7E7E7E7E7E7E7E7E7E7E7E7E7E7E7E7E7E7E7E7E7E7E7E7E7E7E7E7E7E7E7E7E7E7E7E7E7E7E7E7E7E7E7E7E7E7E7E7E7E7E7E7E7E7E7E7E7E7E7E7E7E7E7E7E7E7E7E7E7E7E7E7E7E7E7E7E7E7E7E7E7E7E7E7E7E7E7E7E7E7E7E7E7E7E7E7E7E7E7E7E7E7E7E7E7E7E7E7E7E7E7E7
310
E7E7E7E7E7E7E7E7E7E7E7E7E7E7E7E7E7E7E7E7E7E7E7E7E7E7E7E7E7E7E7E7E7E7E7E7E7E7E7E7E7E7E7E7E7E7E7E7E7E7E7E7E7E7E7E7E7E7E7E7E7E7E7E7E7E7E7E7E7E7E7E7E7E7E7E7E7E7E7E7E7E7E7E7E7E7E7E7E7E7E7E7E7E7E7E7E7E7E7E7E7E7E7E7E7E7E7E7E7E7E7E7E7E7E7E7E7E7E7E7E7E7E7E7E7E7E7
310
E7E7E7E7E7E7E7E7E7E7E7E7E7E7E7E7E7E7E7E7E7E7E7E7E7E7E7E7E7E7E7E7E7E7E7E7E7E7E7E7E7E7E7E7E7E7E7E7E7E7E7E7E7E7E7E7E7E7E7E7E7E7E7E7E7E7E7E7E7E7E7E7E7E7E7E7E7E7E7E7E7E7E7E7E7E7E7E7E7E7E7E7E7E7E7E7E7E7E7E7E7E7E7E7E7E7E7E7E7E7E7E7E7E7E7E7E7E7E7E7E7E7E7E7E7E7E7
310
E7E7E7E7E7E7E7E7E7E7E7E7E7E7E7E7E7E7E7E7E7E7E7E7E7E7E7E7E7E7E7E7E7E7E7E7E7E7E7E7E7E7E7E7E7E7E7E7E7E7E7E7E7E7E7E7E7E7E7E7E7E7E7E7E7E7E7E7E7E7E7E7E7E7E7E7E7E7E7E7E7E7E7E7E7E7E7E7E7E7E7E7E7E7E7E7E7E7E7E7E7E7E7E7E7E7E7E7E7E7E7E7E7E7E7E7E7E7E7E7E7E7E7E7E7E7E7
310
E7E7E7E7E7E7E7E7E7E7E7E7E7E7E7E7E7E7E7E7E7E7E7E7E7E7E7E7E7E7E7E7E7E7E7E7E7E7E7E7E7E7E7E7E7E7E7E7E7E7E7E7E7E7E7E7E7E7E7E7E7E7E7E7E7E7E7E7E7E7E7E7E7E7E7E7E7E7E7E7E7E7E7E7E7E7E7E7E7E7E7E7E7E7E7E7E7E7E7E7E7E7E7E7E7E7E7E7E7E7E7E7E7E7E7E7E7E7E7E7E7E7E7E7E7E7E7
310
E7E7E7E7E7E7E7E7E7E7E7E7E7E7E7E7E7E7E7E7E7E7E7E7E7E7E7E7E7E7E7E7E7E7E7E7E7E7E7E7E7E7E7E7E7E7E7E7E7E7E7E7E7E7E7E7E7E7E7E7E7E7E7E7E7E7E7E7E7E7E7E7E7E7E7E7E7E7E7E7E7E7E7E7E7E7E7E7E7E7E7E7E7E7E7E7E7E7E7E7E7E7E7E7E7E7E7E7E7E7E7E7E7E7E7E7E7E7E7E7E7E7E7E7E7E7E7
310
E7E7E7E7E7E7E7E7E7E7E7E7E7E7E7E7E7E7E7E7E7E7E7E7E7E7E7E7E7E7E7E7E7E7E7E7E7E7E7E7E7E7E7E7E7E7E7E7E7E7E7E7E7E7E7E7E7E7E7E7E7E7E7E7E7E7E7E7E7E7E7E7E7E7E7E7E7E7E7E7E7E7E7E7E7E7E7E7E7E7E7E7E7E7E7E7E7E7E7E7E7E7E7E7E7E7E7E7E7E7E7E7E7E7E7E7E7E7E7E7E7E7E7E7E7E7E7
310
E7E7E7E7E7E7E7E7E7E7E7E7E7E7E7E7E7E7E7E7E7E7E7E7E7E7E7E7E7E7E7E7E7E7E7E7E7E7E7E7E7E7E7E7E7E7E7E7E7E7E7E7E7E7E7E7E7E7E7E7E7E7E7E7E7E7E7E7E7E7E7E7E7E7E7E7E7E7E7E7E7E7E7E7E7E7E7E7E7E7E7E7E7E7E7E7E7E7E7E7E7E7E7E7E7E7E7E7E7E7E7E7E7E7E7E7E7E7E7E7E7E7E7E7E7E7E7
310
E7E7E7E7E7E7E7E7E7E7E7E7E7E7E7E7E7E7E7E7E7E7E7E7E7E7E7E7E7E7E7E7E7E7E7E7E7E7E7E7E7E7E7E7E7E7E7E7E7E7E7E7E7E7E7E7E7E7E7E7E7E7E7E7E7E7E7E7E7E7E7E7E7E7E7E7E7E7E7E7E7E7E7E7E7E7E7E7E7E7E7E7E7E7E7E7E7E7E7E7E7E7E7E7E7E7E7E7E7E7E7E7E7E7E7E7E7E7E7E7E7E7E7E7E7E7E7
310
E7E7E7E7E7E7E7E7E7E7E7E7E7E7E7E7E7E7E7E7E7E7E7E7E7E7E7E7E7E7E7E7E7E7E7E7E7E7E7E7E7E7E7E7E7E7E7E7E7E7E7E7E7E7E7E7E7E7E7E7E7E7E7E7E7E7E7E7E7E7E7E7E7E7E7E7E7E7E7E7E7E7E7E7E7E7E7E7E7E7E7E7E7E7E7E7E7E7E7E7E7E7E7E7E7E7E7E7E7E7E7E7E7E7E7E7E7E7E7E7E7E7E7E7E7E7E7
310
E7E7E7E7E7E7E7E7E7E7E7E7E7E7E7E7E7E7E7E7E7E7E7E7E7E7E7E7E7E7E7E7E7E7E7E7E7E7E7E7E7E7E7E7E7E7E7E7E7E7E7E7E7E7E7E7E7E7E7E7E7E7E7E7E7E7E7E7E7E7E7E7E7E7E7E7E7E7E7E7E7E7E7E7E7E7E7E7E7E7E7E7E7E7E7E7E7E7E7E7E7E7E7E7E7E7E7E7E7E7E7E7E7E7E7E7E7E7E7E7E7E7E7E7E7E7E7
310
E7E7E7E7E7E7E7E7E7E7E7E7E7E7E7E7E7E7E7E7E7E7E7E7E7E7E7E7E7E7E7E7E7E7E7E7E7E7E7E7E7E7E7E7E7E7E7E7E7E7E7E7E7E7E7E7E7E7E7E7E7E7E7E7E7E7E7E7E7E7E7E7E7E7E7E7E7E7E7E7E7E7E7E7E7E7E7E7E7E7E7E7E7E7E7E7E7E7E7E7E7E7E7E7E7E7E7E7E7E7E7E7E7E7E7E7E7E7E7E7E7E7E7E7E7E7E7
310
E7E7E7E7E7E7E7E7E7E7E7E7E7E7E7E7E7E7E7E7E7E7E7E7E7E7E7E7E7E7E7E7E7E7E7E7E7E7E7E7E7E7E7E7E7E7E7E7E7E7E7E7E7E7E7E7E7E7E7E7E7E7E7E7E7E7E7E7E7E7E7E7E7E7E7E7E7E7E7E7E7E7E7E7E7E7E7E7E7E7E7E7E7E7E7E7E7E7E7E7E7E7E7E7E7E7E7E7E7E7E7E7E7E7E7E7E7E7E7E7E7E7E7E7E7E7E7
310
E7E7E7E7E7E7E7E7E7E7E7E7E7E7E7E7E7E7E7E7E7E7E7E7E7E7E7E7E7E7E7E7E7E7E7E7E7E7E7E7E7E7E7E7E7E7E7E7E7E7E7E7E7E7E7E7E7E7E7E7E7E7E7E7E7E7E7E7E7E7E7E7E7E7E7E7E7E7E7E7E7E7E7E7E7E7E7E7E7E7E7E7E7E7E7E7E7E7E7E7E7E7E7E7E7E7E7E7E7E7E7E7E7E7E7E7E7E7E7E7E7E7E7E7E7E7E7
310
E7E7E7E7E7E7E7E7E7E7E7E7E7E7E7E7E7E7E7E7E7E7E7E7E7E7E7E7E7E7E7E7E7E7E7E7E7E7E7E7E7E7E7E7E7E7E7E7E7E7E7E7E7E7E7E7E7E7E7E7E7E7E7E7E7E7E7E7E7E7E7E7E7E7E7E7E7E7E7E7E7E7E7E7E7E7E7E7E7E7E7E7E7E7E7E7E7E7E7E7E7E7E7E7E7E7E7E7E7E7E7E7E7E7E7E7E7E7E7E7E7E7E7E7E7E7E7
310
E7E7E7E7E7E7E7E7E7E7E7E7E7E7E7E7E7E7E7E7E7E7E7E7E7E7E7E7E7E7E7E7E7E7E7E7E7E7E7E7E7E7E7E7E7E7E7E7E7E7E7E7E7E7E7E7E7E7E7E7E7E7E7E7E7E7E7E7E7E7E7E7E7E7E7E7E7E7E7E7E7E7E7E7E7E7E7E7E7E7E7E7E7E7E7E7E7E7E7E7E7E7E7E7E7E7E7E7E7E7E7E7E7E7E7E7E7E7E7E7E7E7E7E7E7E7E7
310
E7E7E7E7E7E7E7E7E7E7E7E7E7E7E7E7E7E7E7E7E7E7E7E7E7E7E7E7E7E7E7E7E7E7E7E7E7E7E7E7E7E7E7E7E7E7E7E7E7E7E7E7E7E7E7E7E7E7E7E7E7E7E7E7E7E7E7E7E7E7E7E7E7E7E7E7E7E7E7E7E7E7E7E7E7E7E7E7E7E7E7E7E7E7E7E7E7E7E7E7E7E7E7E7E7E7E7E7E7E7E7E7E7E7E7E7E7E7E7E7E7E7E7E7E7E7E7
310
E7E7E7E7E7E7E7E7E7E7E7E7E7E7E7E7E7E7E7E7E7E7E7E7E7E7E7E7E7E7E7E7E7E7E7E7E7E7E7E7E7E7E7E7E7E7E7E7E7E7E7E7E7E7E7E7E7E7E7E7E7E7E7E7E7E7E7E7E7E7E7E7E7E7E7E7E7E7E7E7E7E7E7E7E7E7E7E7E7E7E7E7E7E7E7E7E7E7E7E7E7E7E7E7E7E7E7E7E7E7E7E7E7E7E7E7E7E7E7E7E7E7E7E7E7E7E7
310
E7E7E7E7E7E7E7E7E7E7E7E7E7E7E7E7E7E7E7E7E7E7E7E7E7E7E7E7E7E7E7E7E7E7E7E7E7E7E7E7E7E7E7E7E7E7E7E7E7E7E7E7E7E7E7E7E7E7E7E7E7E7E7E7E7E7E7E7E7E7E7E7E7E7E7E7E7E7E7E7E7E7E7E7E7E7E7E7E7E7E7E7E7E7E7E7E7E7E7E7E7E7E7E7E7E7E7E7E7E7E7E7E7E7E7E7E7E7E7E7E7E7E7E7E7E7E7
310
E7E7E7E7E7E7E7E7E7E7E7E7E7E7E7E7E7E7E7E7E7E7E7E7E7E7E7E7E7E7E7E7E7E7E7E7E7E7E7E7E7E7E7E7E7E7E7E7E7E7E7E7E7E7E7E7E7E7E7E7E7E7E7E7E7E7E7E7E7E7E7E7E7E7E7E7E7E7E7E7E7E7E7E7E7E7E7E7E7E7E7E7E7E7E7E7E7E7E7E7E7E7E7E7E7E7E7E7E7E7E7E7E7E7E7E7E7E7E7E7E7E7E7E7E7E7E7
310
E7E7E7E7E7E7E7E7E7E7E7E7E7E7E7E7E7E7E7E7E7E7E7E7E7E7E7E7E7E7E7E7E7E7E7E7E7E7E7E7E7E7E7E7E7E7E7E7E7E7E7E7E7E7E7E7E7E7E7E7E7E7E7E7E7E7E7E7E7E7E7E7E7E7E7E7E7E7E7E7E7E7E7E7E7E7E7E7E7E7E7E7E7E7E7E7E7E7E7E7E7E7E7E7E7E7E7E7E7E7E7E7E7E7E7E7E7E7E7E7E7E7E7E7E7E7E7
310
E7E7E7E7E7E7E7E7E7E7E7E7E7E7E7E7E7E7E7E7E7E7E7E7E7E7E7E7E7E7E7E7E7E7E7E7E7E7E7E7E7E7E7E7E7E7E7E7E7E7E7E7E7E7E7E7E7E7E7E7E7E7E7E7E7E7E7E7E7E7E7E7E7E7E7E7E7E7E7E7E7E7E7E7E7E7E7E7E7E7E7E7E7E7E7E7E7E7E7E7E7E7E7E7E7E7E7E7E7E7E7E7E7E7E7E7E7E7E7E7E7E7E7E7E7E7E7
310
E7E7E7E7E7E7E7E7E7E7E7E7E7E7E7E7E7E7E7E7E7E7E7E7E7E7E7E7E7E7E7E7E7E7E7E7E7E7E7E7E7E7E7E7E7E7E7E7E7E7E7E7E7E7E7E7E7E7E7E7E7E7E7E7E7E7E7E7E7E7E7E7E7E7E7E7E7E7E7E7E7E7E7E7E7E7E7E7E7E7E7E7E7E7E7E7E7E7E7E7E7E7E7E7E7E7E7E7E7E7E7E7E7E7E7E7E7E7E7E7E7E7E7E7E7E7E7
310
E7E7E7E7E7E7E7E7E7E7E7E7E7E7E7E7E7E7E7E7E7E7E7E7E7E7E7E7E7E7E7E7E7E7E7E7E7E7E7E7E7E7E7E7E7E7E7E7E7E7E7E7E7E7E7E7E7E7E7E7E7E7E7E7E7E7E7E7E7E7E7E7E7E7E7E7E7E7E7E7E7E7E7E7E7E7E7E7E7E7E7E7E7E7E7E7E7E7E7E7E7E7E7E7E7E7E7E7E7E7E7E7E7E7E7E7E7E7E7E7E7E7E7E7E7E7E7
310
E7E7E7E7E7E7E7E7E7E7E7E7E7E7E7E7E7E7E7E7E7E7E7E7E7E7E7E7E7E7E7E7E7E7E7E7E7E7E7E7E7E7E7E7E7E7E7E7E7E7E7E7E7E7E7E7E7E7E7E7E7E7E7E7E7E7E7E7E7E7E7E7E7E7E7E7E7E7E7E7E7E7E7E7E7E7E7E7E7E7E7E7E7E7E7E7E7E7E7E7E7E7E7E7E7E7E7E7E7E7E7E7E7E7E7E7E7E7E7E7E7E7E7E7E7E7E7
310
E7E7E7E7E7E7E7E7E7E7E7E7E7E7E7E7E7E7E7E7E7E7E7E7E7E7E7E7E7E7E7E7E7E7E7E7E7E7E7E7E7E7E7E7E7E7E7E7E7E7E7E7E7E7E7E7E7E7E7E7E7E7E7E7E7E7E7E7E7E7E7E7E7E7E7E7E7E7E7E7E7E7E7E7E7E7E7E7E7E7E7E7E7E7E7E7E7E7E7E7E7E7E7E7E7E7E7E7E7E7E7E7E7E7E7E7E7E7E7E7E7E7E7E7E7E7E7
310
E7E7E7E7E7E7E7E7E7E7E7E7E7E7E7E7E7E7E7E7E7E7E7E7E7E7E7E7E7E7E7E7E7E7E7E7E7E7E7E7E7E7E7E7E7E7E7E7E7E7E7E7E7E7E7E7E7E7E7E7E7E7E7E7E7E7E7E7E7E7E7E7E7E7E7E7E7E7E7E7E7E7E7E7E7E7E7E7E7E7E7E7E7E7E7E7E7E7E7E7E7E7E7E7E7E7E7E7E7E7E7E7E7E7E7E7E7E7E7E7E7E7E7E7E7E7E7
310
E7E7E7E7E7E7E7E7E7E7E7E7E7E7E7E7E7E7E7E7E7E7E7E7E7E7E7E7E7E7E7E7E7E7E7E7E7E7E7E7E7E7E7E7E7E7E7E7E7E7E7E7E7E7E7E7E7E7E7E7E7E7E7E7E7E7E7E7E7E7E7E7E7E7E7E7E7E7E7E7E7E7E7E7E7E7E7E7E7E7E7E7E7E7E7E7E7E7E7E7E7E7E7E7E7E7E7E7E7E7E7E7E7E7E7E7E7E7E7E7E7E7E7E7E7E7E7
310
E7E7E7E7E7E7E7E7E7E7E7E7E7E7E7E7E7E7E7E7E7E7E7E7E7E7E7E7E7E7E7E7E7E7E7E7E7E7E7E7E7E7E7E7E7E7E7E7E7E7E7E7E7E7E7E7E7E7E7E7E7E7E7E7E7E7E7E7E7E7E7E7E7E7E7E7E7E7E7E7E7E7E7E7E7E7E7E7E7E7E7E7E7E7E7E7E7E7E7E7E7E7E7E7E7E7E7E7E7E7E7E7E7E7E7E7E7E7E7E7E7E7E7E7E7E7E7
310
E7E7E7E7E7E7E7E7E7E7E7E7E7E7E7E7E7E7E7E7E7E7E7E7E7E7E7E7E7E7E7E7E7E7E7E7E7E7E7E7E7E7E7E7E7E7E7E7E7E7E7E7E7E7E7E7E7E7E7E7E7E7E7E7E7E7E7E7E7E7E7E7E7E7E7E7E7E7E7E7E7E7E7E7E7E7E7E7E7E7E7E7E7E7E7E7E7E7E7E7E7E7E7E7E7E7E7E7E7E7E7E7E7E7E7E7E7E7E7E7E7E7E7E7E7E7E7
310
E7E7E7E7E7E7E7E7E7E7E7E7E7E7E7E7E7E7E7E7E7E7E7E7E7E7E7E7E7E7E7E7E7E7E7E7E7E7E7E7E7E7E7E7E7E7E7E7E7E7E7E7E7E7E7E7E7E7E7E7E7E7E7E7E7E7E7E7E7E7E7E7E7E7E7E7E7E7E7E7E7E7E7E7E7E7E7E7E7E7E7E7E7E7E7E7E7E7E7E7E7E7E7E7E7E7E7E7E7E7E7E7E7E7E7E7E7E7E7E7E7E7E7E7E7E7E7
310
E7E7E7E7E7E7E7E7E7E7E7E7E7E7E7E7E7E7E7E7E7E7E7E7E7E7E7E7E7E7E7E7E7E7E7E7E7E7E7E7E7E7E7E7E7E7E7E7E7E7E7E7E7E7E7E7E7E7E7E7E7E7E7E7E7E7E7E7E7E7E7E7E7E7E7E7E7E7E7E7E7E7E7E7E7E7E7E7E7E7E7E7E7E7E7E7E7E7E7E7E7E7E7E7E7E7E7E7E7E7E7E7E7E7E7E7E7E7E7E7E7E7E7E7E7E7E7
310
E7E7E7E7E7E7E7E7E7E7E7E7E7E7E7E7E7E7E7E7E7E7E7E7E7E7E7E7E7E7E7E7E7E7E7E7E7E7E7E7E7E7E7E7E7E7E7E7E7E7E7E7E7E7E7E7E7E7E7E7E7E7E7E7E7E7E7E7E7E7E7E7E7E7E7E7E7E7E7E7E7E7E7E7E7E7E7E7E7E7E7E7E7E7E7E7E7E7E7E7E7E7E7E7E7E7E7E7E7E7E7E7E7E7E7E7E7E7E7E7E7E7E7E7E7E7E7
310
E7E7E7E7E7E7E7E7E7E7E7E7E7E7E7E7E7E7E7E7E7E7E7E7E7E7E7E7E7E7E7E7E7E7E7E7E7E7E7E7E7E7E7E7E7E7E7E7E7E7E7E7E7E7E7E7E7E7E7E7E7E7E7E7E7E7E7E7E7E7E7E7E7E7E7E7E7E7E7E7E7E7E7E7E7E7E7E7E7E7E7E7E7E7E7E7E7E7E7E7E7E7E7E7E7E7E7E7E7E7E7E7E7E7E7E7E7E7E7E7E7E7E7E7E7E7E7
310
E7E7E7E7E7E7E7E7E7E7E7E7E7E7E7E7E7E7E7E7E7E7E7E7E7E7E7E7E7E7E7E7E7E7E7E7E7E7E7E7E7E7E7E7E7E7E7E7E7E7E7E7E7E7E7E7E7E7E7E7E7E7E7E7E7E7E7E7E7E7E7E7E7E7E7E7E7E7E7E7E7E7E7E7E7E7E7E7E7E7E7E7E7E7E7E7E7E7E7E7E7E7E7E7E7E7E7E7E7E7E7E7E7E7E7E7E7E7E7E7E7E7E7E7E7E7E7
310
E7E7E7E7E7E7E7E7E7E7E7E7E7E7E7E7E7E7E7E7E7E7E7E7E7E7E7E7E7E7E7E7E7E7E7E7E7E7E7E7E7E7E7E7E7E7E7E7E7E7E7E7E7E7E7E7E7E7E7E7E7E7E7E7E7E7E7E7E7E7E7E7E7E7E7E7E7E7E7E7E7E7E7E7E7E7E7E7E7E7E7E7E7E7E7E7E7E7E7E7E7E7E7E7E7E7E7E7E7E7E7E7E7E7E7E7E7E7E7E7E7E7E7E7E7E7E7
310
E7E7E7E7E7E7E7E7E7E7E7E7E7E7E7E7E7E7E7E7E7E7E7E7E7E7E7E7E7E7E7E7E7E7E7E7E7E7E7E7E7E7E7E7E7E7E7E7E7E7E7E7E7E7E7E7E7E7E7E7E7E7E7E7E7E7E7E7E7E7E7E7E7E7E7E7E7E7E7E7E7E7E7E7E7E7E7E7E7E7E7E7E7E7E7E7E7E7E7E7E7E7E7E7E7E7E7E7E7E7E7E7E7E7E7E7E7E7E7E7E7E7E7E7E7E7E7
310
E7E7E7E7E7E7E7E7E7E7E7E7E7E7E7E7E7E7E7E7E7E7E7E7E7E7E7E7E7E7E7E7E7E7E7E7E7E7E7E7E7E7E7E7E7E7E7E7E7E7E7E7E7E7E7E7E7E7E7E7E7E7E7E7E7E7E7E7E7E7E7E7E7E7E7E7E7E7E7E7E7E7E7E7E7E7E7E7E7E7E7E7E7E7E7E7E7E7E7E7E7E7E7E7E7E7E7E7E7E7E7E7E7E7E7E7E7E7E7E7E7E7E7E7E7E7E7
310
E7E7E7E7E7E7E7E7E7E7E7E7E7E7E7E7E7E7E7E7E7E7E7E7E7E7E7E7E7E7E7E7E7E7E7E7E7E7E7E7E7E7E7E7E7E7E7E7E7E7E7E7E7E7E7E7E7E7E7E7E7E7E7E7E7E7E7E7E7E7E7E7E7E7E7E7E7E7E7E7E7E7E7E7E7E7E7E7E7E7E7E7E7E7E7E7E7E7E7E7E7E7E7E7E7E7E7E7E7E7E7E7E7E7E7E7E7E7E7E7E7E7E7E7E7E7E7
310
E7E7E7E7E7E7E7E7E7E7E7E7E7E7E7E7E7E7E7E7E7E7E7E7E7E7E7E7E7E7E7E7E7E7E7E7E7E7E7E7E7E7E7E7E7E7E7E7E7E7E7E7E7E7E7E7E7E7E7E7E7E7E7E7E7E7E7E7E7E7E7E7E7E7E7E7E7E7E7E7E7E7E7E7E7E7E7E7E7E7E7E7E7E7E7E7E7E7E7E7E7E7E7E7E7E7E7E7E7E7E7E7E7E7E7E7E7E7E7E7E7E7E7E7E7E7E7
310
E7E7E7E7E7E7E7E7E7E7E7E7E7E7E7E7E7E7E7E7E7E7E7E7E7E7E7E7E7E7E7E7E7E7E7E7E7E7E7E7E7E7E7E7E7E7E7E7E7E7E7E7E7E7E7E7E7E7E7E7E7E7E7E7E7E7E7E7E7E7E7E7E7E7E7E7E7E7E7E7E7E7E7E7E7E7E7E7E7E7E7E7E7E7E7E7E7E7E7E7E7E7E7E7E7E7E7E7E7E7E7E7E7E7E7E7E7E7E7E7E7E7E7E7E7E7E7
310
E7E7E7E7E7E7E7E7E7E7E7E7E7E7E7E7E7E7E7E7E7E7E7E7E7E7E7E7E7E7E7E7E7E7E7E7E7E7E7E7E7E7E7E7E7E7E7E7E7E7E7E7E7E7E7E7E7E7E7E7E7E7E7E7E7E7E7E7E7E7E7E7E7E7E7E7E7E7E7E7E7E7E7E7E7E7E7E7E7E7E7E7E7E7E7E7E7E7E7E7E7E7E7E7E7E7E7E7E7E7E7E7E7E7E7E7E7E7E7E7E7E7E7E7E7E7E7
310
E7E7E7E7E7E7E7E7E7E7E7E7E7E7E7E7E7E7E7E7E7E7E7E7E7E7E7E7E7E7E7E7E7E7E7E7E7E7E7E7E7E7E7E7E7E7E7E7E7E7E7E7E7E7E7E7E7E7E7E7E7E7E7E7E7E7E7E7E7E7E7E7E7E7E7E7E7E7E7E7E7E7E7E7E7E7E7E7E7E7E7E7E7E7E7E7E7E7E7E7E7E7E7E7E7E7E7E7E7E7E7E7E7E7E7E7E7E7E7E7E7E7E7E7E7E7E7
310
E7E7E7E7E7E7E7E7E7E7E7E7E7E7E7E7E7E7E7E7E7E7E7E7E7E7E7E7E7E7E7E7E7E7E7E7E7E7E7E7E7E7E7E7E7E7E7E7E7E7E7E7E7E7E7E7E7E7E7E7E7E7E7E7E7E7E7E7E7E7E7E7E7E7E7E7E7E7E7E7E7E7E7E7E7E7E7E7E7E7E7E7E7E7E7E7E7E7E7E7E7E7E7E7E7E7E7E7E7E7E7E7E7E7E7E7E7E7E7E7E7E7E7E7E7E7E7
310
E7E7E7E7E7E7E7E7E7E7E7E7E7E7E7E7E7E7E7E7E7E7E7E7E7E7E7E7E7E7E7E7E7E7E7E7E7E7E7E7E7E7E7E7E7E7E7E7E7E7E7E7E7E7E7E7E7E7E7E7E7E7E7E7E7E7E7E7E7E7E7E7E7E7E7E7E7E7E7E7E7E7E7E7E7E7E7E7E7E7E7E7E7E7E7E7E7E7E7E7E7E7E7E7E7E7E7E7E7E7E7E7E7E7E7E7E7E7E7E7E7E7E7E7E7E7E7
310
E7E7E7E7E7E7E7E7E7E7E7E7E7E7E7E7E7E7E7E7E7E7E7E7E7E7E7E7E7E7E7E7E7E7E7E7E7E7E7E7E7E7E7E7E7E7E7E7E7E7E7E7E7E7E7E7E7E7E7E7E7E7E7E7E7E7E7E7E7E7E7E7E7E7E7E7E7E7E7E7E7E7E7E7E7E7E7E7E7E7E7E7E7E7E7E7E7E7E7E7E7E7E7E7E7E7E7E7E7E7E7E7E7E7E7E7E7E7E7E7E7E7E7E7E7E7E7
310
E7E7E7E7E7E7E7E7E7E7E7E7E7E7E7E7E7E7E7E7E7E7E7E7E7E7E7E7E7E7E7E7E7E7E7E7E7E7E7E7E7E7E7E7E7E7E7E7E7E7E7E7E7E7E7E7E7E7E7E7E7E7E7E7E7E7E7E7E7E7E7E7E7E7E7E7E7E7E7E7E7E7E7E7E7E7E7E7E7E7E7E7E7E7E7E7E7E7E7E7E7E7E7E7E7E7E7E7E7E7E7E7E7E7E7E7E7E7E7E7E7E7E7E7E7E7E7
310
E7E7E7E7E7E7E7E7E7E7E7E7E7E7E7E7E7E7E7E7E7E7E7E7E7E7E7E7E7E7E7E7E7E7E7E7E7E7E7E7E7E7E7E7E7E7E7E7E7E7E7E7E7E7E7E7E7E7E7E7E7E7E7E7E7E7E7E7E7E7E7E7E7E7E7E7E7E7E7E7E7E7E7E7E7E7E7E7E7E7E7E7E7E7E7E7E7E7E7E7E7E7E7E7E7E7E7E7E7E7E7E7E7E7E7E7E7E7E7E7E7E7E7E7E7E7E7
310
E7E7E7E7E7E7E7E7E7E7E7E7E7E7E7E7E7E7E7E7E7E7E7E7E7E7E7E7E7E7E7E7E7E7E7E7E7E7E7E7E7E7E7E7E7E7E7E7E7E7E7E7E7E7E7E7E7E7E7E7E7E7E7E7E7E7E7E7E7E7E7E7E7E7E7E7E7E7E7E7E7E7E7E7E7E7E7E7E7E7E7E7E7E7E7E7E7E7E7E7E7E7E7E7E7E7E7E7E7E7E7E7E7E7E7E7E7E7E7E7E7E7E7E7E7E7E7
310
E7E7E7E7E7E7E7E7E7E7E7E7E7E7E7E7E7E7E7E7E7E7E7E7E7E7E7E7E7E7E7E7E7E7E7E7E7E7E7E7E7E7E7E7E7E7E7E7E7E7E7E7E7E7E7E7E7E7E7E7E7E7E7E7E7E7E7E7E7E7E7E7E7E7E7E7E7E7E7E7E7E7E7E7E7E7E7E7E7E7E7E7E7E7E7E7E7E7E7E7E7E7E7E7E7E7E7E7E7E7E7E7E7E7E7E7E7E7E7E7E7E7E7E7E7E7E7
310
E7E7E7E7E7E7E7E7E7E7E7E7E7E7E7E7E7E7E7E7E7E7E7E7E7E7E7E7E7E7E7E7E7E7E7E7E7E7E7E7E7E7E7E7E7E7E7E7E7E7E7E7E7E7E7E7E7E7E7E7E7E7E7E7E7E7E7E7E7E7E7E7E7E7E7E7E7E7E7E7E7E7E7E7E7E7E7E7E7E7E7E7E7E7E7E7E7E7E7E7E7E7E7E7E7E7E7E7E7E7E7E7E7E7E7E7E7E7E7E7E7E7E7E7E7E7E7
310
E7E7E7E7E7E7E7E7E7E7E7E7E7E7E7E7E7E7E7E7E7E7E7E7E7E7E7E7E7E7E7E7E7E7E7E7E7E7E7E7E7E7E7E7E7E7E7E7E7E7E7E7E7E7E7E7E7E7E7E7E7E7E7E7E7E7E7E7E7E7E7E7E7E7E7E7E7E7E7E7E7E7E7E7E7E7E7E7E7E7E7E7E7E7E7E7E7E7E7E7E7E7E7E7E7E7E7E7E7E7E7E7E7E7E7E7E7E7E7E7E7E7E7E7E7E7E7
310
E7E7E7E7E7E7E7E7E7E7E7E7E7E7E7E7E7E7E7E7E7E7E7E7E7E7E7E7E7E7E7E7E7E7E7E7E7E7E7E7E7E7E7E7E7E7E7E7E7E7E7E7E7E7E7E7E7E7E7E7E7E7E7E7E7E7E7E7E7E7E7E7E7E7E7E7E7E7E7E7E7E7E7E7E7E7E7E7E7E7E7E7E7E7E7E7E7E7E7E7E7E7E7E7E7E7E7E7E7E7E7E7E7E7E7E7E7E7E7E7E7E7E7E7E7E7E7
310
E7E7E7E7E7E7E7E7E7E7E7E7E7E7E7E7E7E7E7E7E7E7E7E7E7E7E7E7E7E7E7E7E7E7E7E7E7E7E7E7E7E7E7E7E7E7E7E7E7E7E7E7E7E7E7E7E7E7E7E7E7E7E7E7E7E7E7E7E7E7E7E7E7E7E7E7E7E7E7E7E7E7E7E7E7E7E7E7E7E7E7E7E7E7E7E7E7E7E7E7E7E7E7E7E7E7E7E7E7E7E7E7E7E7E7E7E7E7E7E7E7E7E7E7E7E7E7
310
E7E7E7E7E7E7E7E7E7E7E7E7E7E7E7E7E7E7E7E7E7E7E7E7E7E7E7E7E7E7E7E7E7E7E7E7E7E7E7E7E7E7E7E7E7E7E7E7E7E7E7E7E7E7E7E7E7E7E7E7E7E7E7E7E7E7E7E7E7E7E7E7E7E7E7E7E7E7E7E7E7E7E7E7E7E7E7E7E7E7E7E7E7E7E7E7E7E7E7E7E7E7E7E7E7E7E7E7E7E7E7E7E7E7E7E7E7E7E7E7E7E7E7E7E7E7E7
310
E7E7E7E7E7E7E7E7E7E7E7E7E7E7E7E7E7E7E7E7E7E7E7E7E7E7E7E7E7E7E7E7E7E7E7E7E7E7E7E7E7E7E7E7E7E7E7E7E7E7E7E7E7E7E7E7E7E7E7E7E7E7E7E7E7E7E7E7E7E7E7E7E7E7E7E7E7E7E7E7E7E7E7E7E7E7E7E7E7E7E7E7E7E7E7E7E7E7E7E7E7E7E7E7E7E7E7E7E7E7E7E7E7E7E7E7E7E7E7E7E7E7E7E7E7E7E7
310
E7E7E7E7E7E7E7E7E7E7E7E7E7E7E7E7E7E7E7E7E7E7E7E7E7E7E7E7E7E7E7E7E7E7E7E7E7E7E7E7E7E7E7E7E7E7E7E7E7E7E7E7E7E7E7E7E7E7E7E7E7E7E7E7E7E7E7E7E7E7E7E7E7E7E7E7E7E7E7E7E7E7E7E7E7E7E7E7E7E7E7E7E7E7E7E7E7E7E7E7E7E7E7E7E7E7E7E7E7E7E7E7E7E7E7E7E7E7E7E7E7E7E7E7E7E7E7
310
E7E7E7E7E7E7E7E7E7E7E7E7E7E7E7E7E7E7E7E7E7E7E7E7E7E7E7E7E7E7E7E7E7E7E7E7E7E7E7E7E7E7E7E7E7E7E7E7E7E7E7E7E7E7E7E7E7E7E7E7E7E7E7E7E7E7E7E7E7E7E7E7E7E7E7E7E7E7E7E7E7E7E7E7E7E7E7E7E7E7E7E7E7E7E7E7E7E7E7E7E7E7E7E7E7E7E7E7E7E7E7E7E7E7E7E7E7E7E7E7E7E7E7E7E7E7E7
310
E7E7E7E7E7E7E7E7E7E7E7E7E7E7E7E7E7E7E7E7E7E7E7E7E7E7E7E7E7E7E7E7E7E7E7E7E7E7E7E7E7E7E7E7E7E7E7E7E7E7E7E7E7E7E7E7E7E7E7E7E7E7E7E7E7E7E7E7E7E7E7E7E7E7E7E7E7E7E7E7E7E7E7E7E7E7E7E7E7E7E7E7E7E7E7E7E7E7E7E7E7E7E7E7E7E7E7E7E7E7E7E7E7E7E7E7E7E7E7E7E7E7E7E7E7E7E7
310
E7E7E7E7E7E7E7E7E7E7E7E7E7E7E7E7E7E7E7E7E7E7E7E7E7E7E7E7E7E7E7E7E7E7E7E7E7E7E7E7E7E7E7E7E7E7E7E7E7E7E7E7E7E7E7E7E7E7E7E7E7E7E7E7E7E7E7E7E7E7E7E7E7E7E7E7E7E7E7E7E7E7E7E7E7E7E7E7E7E7E7E7E7E7E7E7E7E7E7E7E7E7E7E7E7E7E7E7E7E7E7E7E7E7E7E7E7E7E7E7E7E7E7E7E7E7E7
310
E7E7E7E7E7E7E7E7E7E7E7E7E7E7E7E7E7E7E7E7E7E7E7E7E7E7E7E7E7E7E7E7E7E7E7E7E7E7E7E7E7E7E7E7E7E7E7E7E7E7E7E7E7E7E7E7E7E7E7E7E7E7E7E7E7E7E7E7E7E7E7E7E7E7E7E7E7E7E7E7E7E7E7E7E7E7E7E7E7E7E7E7E7E7E7E7E7E7E7E7E7E7E7E7E7E7E7E7E7E7E7E7E7E7E7E7E7E7E7E7E7E7E7E7E7E7E7
310
E7E7E7E7E7E7E7E7E7E7E7E7E7E7E7E7E7E7E7E7E7E7E7E7E7E7E7E7E7E7E7E7E7E7E7E7E7E7E7E7E7E7E7E7E7E7E7E7E7E7E7E7E7E7E7E7E7E7E7E7E7E7E7E7E7E7E7E7E7E7E7E7E7E7E7E7E7E7E7E7E7E7E7E7E7E7E7E7E7E7E7E7E7E7E7E7E7E7E7E7E7E7E7E7E7E7E7E7E7E7E7E7E7E7E7E7E7E7E7E7E7E7E7E7E7E7E7
310
E7E7E7E7E7E7E7E7E7E7E7E7E7E7E7E7E7E7E7E7E7E7E7E7E7E7E7E7E7E7E7E7E7E7E7E7E7E7E7E7E7E7E7E7E7E7E7E7E7E7E7E7E7E7E7E7E7E7E7E7E7E7E7E7E7E7E7E7E7E7E7E7E7E7E7E7E7E7E7E7E7E7E7E7E7E7E7E7E7E7E7E7E7E7E7E7E7E7E7E7E7E7E7E7E7E7E7E7E7E7E7E7E7E7E7E7E7E7E7E7E7E7E7E7E7E7E7
310
E7E7E7E7E7E7E7E7E7E7E7E7E7E7E7E7E7E7E7E7E7E7E7E7E7E7E7E7E7E7E7E7E7E7E7E7E7E7E7E7E7E7E7E7E7E7E7E7E7E7E7E7E7E7E7E7E7E7E7E7E7E7E7E7E7E7E7E7E7E7E7E7E7E7E7E7E7E7E7E7E7E7E7E7E7E7E7E7E7E7E7E7E7E7E7E7E7E7E7E7E7E7E7E7E7E7E7E7E7E7E7E7E7E7E7E7E7E7E7E7E7E7E7E7E7E7E7
310
E7E7E7E7E7E7E7E7E7E7E7E7E7E7E7E7E7E7E7E7E7E7E7E7E7E7E7E7E7E7E7E7E7E7E7E7E7E7E7E7E7E7E7E7E7E7E7E7E7E7E7E7E7E7E7E7E7E7E7E7E7E7E7E7E7E7E7E7E7E7E7E7E7E7E7E7E7E7E7E7E7E7E7E7E7E7E7E7E7E7E7E7E7E7E7E7E7E7E7E7E7E7E7E7E7E7E7E7E7E7E7E7E7E7E7E7E7E7E7E7E7E7E7E7E7E7E7
310
E7E7E7E7E7E7E7E7E7E7E7E7E7E7E7E7E7E7E7E7E7E7E7E7E7E7E7E7E7E7E7E7E7E7E7E7E7E7E7E7E7E7E7E7E7E7E7E7E7E7E7E7E7E7E7E7E7E7E7E7E7E7E7E7E7E7E7E7E7E7E7E7E7E7E7E7E7E7E7E7E7E7E7E7E7E7E7E7E7E7E7E7E7E7E7E7E7E7E7E7E7E7E7E7E7E7E7E7E7E7E7E7E7E7E7E7E7E7E7E7E7E7E7E7E7E7E7
310
E7E7E7E7E7E7E7E7E7E7E7E7E7E7E7E7E7E7E7E7E7E7E7E7E7E7E7E7E7E7E7E7E7E7E7E7E7E7E7E7E7E7E7E7E7E7E7E7E7E7E7E7E7E7E7E7E7E7E7E7E7E7E7E7E7E7E7E7E7E7E7E7E7E7E7E7E7E7E7E7E7E7E7E7E7E7E7E7E7E7E7E7E7E7E7E7E7E7E7E7E7E7E7E7E7E7E7E7E7E7E7E7E7E7E7E7E7E7E7E7E7E7E7E7E7E7E7
310
E7E7E7E7E7E7E7E7E7E7E7E7E7E7E7E7E7E7E7E7E7E7E7E7E7E7E7E7E7E7E7E7E7E7E7E7E7E7E7E7E7E7E7E7E7E7E7E7E7E7E7E7E7E7E7E7E7E7E7E7E7E7E7E7E7E7E7E7E7E7E7E7E7E7E7E7E7E7E7E7E7E7E7E7E7E7E7E7E7E7E7E7E7E7E7E7E7E7E7E7E7E7E7E7E7E7E7E7E7E7E7E7E7E7E7E7E7E7E7E7E7E7E7E7E7E7E7
310
E7E7E7E7E7E7E7E7E7E7E7E7E7E7E7E7E7E7E7E7E7E7E7E7E7E7E7E7E7E7E7E7E7E7E7E7E7E7E7E7E7E7E7E7E7E7E7E7E7E7E7E7E7E7E7E7E7E7E7E7E7E7E7E7E7E7E7E7E7E7E7E7E7E7E7E7E7E7E7E7E7E7E7E7E7E7E7E7E7E7E7E7E7E7E7E7E7E7E7E7E7E7E7E7E7E7E7E7E7E7E7E7E7E7E7E7E7E7E7E7E7E7E7E7E7E7E7
310
E7E7E7E7E7E7E7E7E7E7E7E7E7E7E7E7E7E7E7E7E7E7E7E7E7E7E7E7E7E7E7E7E7E7E7E7E7E7E7E7E7E7E7E7E7E7E7E7E7E7E7E7E7E7E7E7E7E7E7E7E7E7E7E7E7E7E7E7E7E7E7E7E7E7E7E7E7E7E7E7E7E7E7E7E7E7E7E7E7E7E7E7E7E7E7E7E7E7E7E7E7E7E7E7E7E7E7E7E7E7E7E7E7E7E7E7E7E7E7E7E7E7E7E7E7E7E7
310
E7E7E7E7E7E7E7E7E7E7E7E7E7E7E7E7E7E7E7E7E7E7E7E7E7E7E7E7E7E7E7E7E7E7E7E7E7E7E7E7E7E7E7E7E7E7E7E7E7E7E7E7E7E7E7E7E7E7E7E7E7E7E7E7E7E7E7E7E7E7E7E7E7E7E7E7E7E7E7E7E7E7E7E7E7E7E7E7E7E7E7E7E7E7E7E7E7E7E7E7E7E7E7E7E7E7E7E7E7E7E7E7E7E7E7E7E7E7E7E7E7E7E7E7E7E7E7
310
E7E7E7E7E7E7E7E7E7E7E7E7E7E7E7E7E7E7E7E7E7E7E7E7E7E7E7E7E7E7E7E7E7E7E7E7E7E7E7E7E7E7E7E7E7E7E7E7E7E7E7E7E7E7E7E7E7E7E7E7E7E7E7E7E7E7E7E7E7E7E7E7E7E7E7E7E7E7E7E7E7E7E7E7E7E7E7E7E7E7E7E7E7E7E7E7E7E7E7E7E7E7E7E7E7E7E7E7E7E7E7E7E7E7E7E7E7E7E7E7E7E7E7E7E7E7E7
310
E7E7E7E7E7E7E7E7E7E7E7E7E7E7E7E7E7E7E7E7E7E7E7E7E7E7E7E7E7E7E7E7E7E7E7E7E7E7E7E7E7E7E7E7E7E7E7E7E7E7E7E7E7E7E7E7E7E7E7E7E7E7E7E7E7E7E7E7E7E7E7E7E7E7E7E7E7E7E7E7E7E7E7E7E7E7E7E7E7E7E7E7E7E7E7E7E7E7E7E7E7E7E7E7E7E7E7E7E7E7E7E7E7E7E7E7E7E7E7E7E7E7E7E7E7E7E7
310
E7E7E7E7E7E7E7E7E7E7E7E7E7E7E7E7E7E7E7E7E7E7E7E7E7E7E7E7E7E7E7E7E7E7E7E7E7E7E7E7E7E7E7E7E7E7E7E7E7E7E7E7E7E7E7E7E7E7E7E7E7E7E7E7E7E7E7E7E7E7E7E7E7E7E7E7E7E7E7E7E7E7E7E7E7E7E7E7E7E7E7E7E7E7E7E7E7E7E7E7E7E7E7E7E7E7E7E7E7E7E7E7E7E7E7E7E7E7E7E7E7E7E7E7E7E7E7
310
E7E7E7E7E7E7E7E7E7E7E7E7E7E7E7E7E7E7E7E7E7E7E7E7E7E7E7E7E7E7E7E7E7E7E7E7E7E7E7E7E7E7E7E7E7E7E7E7E7E7E7E7E7E7E7E7E7E7E7E7E7E7E7E7E7E7E7E7E7E7E7E7E7E7E7E7E7E7E7E7E7E7E7E7E7E7E7E7E7E7E7E7E7E7E7E7E7E7E7E7E7E7E7E7E7E7E7E7E7E7E7E7E7E7E7E7E7E7E7E7E7E7E7E7E7E7E7
310
E7E7E7E7E7E7E7E7E7E7E7E7E7E7E7E7E7E7E7E7E7E7E7E7E7E7E7E7E7E7E7E7E7E7E7E7E7E7E7E7E7E7E7E7E7E7E7E7E7E7E7E7E7E7E7E7E7E7E7E7E7E7E7E7E7E7E7E7E7E7E7E7E7E7E7E7E7E7E7E7E7E7E7E7E7E7E7E7E7E7E7E7E7E7E7E7E7E7E7E7E7E7E7E7E7E7E7E7E7E7E7E7E7E7E7E7E7E7E7E7E7E7E7E7E7E7E7
310
E7E7E7E7E7E7E7E7E7E7E7E7E7E7E7E7E7E7E7E7E7E7E7E7E7E7E7E7E7E7E7E7E7E7E7E7E7E7E7E7E7E7E7E7E7E7E7E7E7E7E7E7E7E7E7E7E7E7E7E7E7E7E7E7E7E7E7E7E7E7E7E7E7E7E7E7E7E7E7E7E7E7E7E7E7E7E7E7E7E7E7E7E7E7E7E7E7E7E7E7E7E7E7E7E7E7E7E7E7E7E7E7E7E7E7E7E7E7E7E7E7E7E7E7E7E7E7
310
E7E7E7E7E7E7E7E7E7E7E7E7E7E7E7E7E7E7E7E7E7E7E7E7E7E7E7E7E7E7E7E7E7E7E7E7E7E7E7E7E7E7E7E7E7E7E7E7E7E7E7E7E7E7E7E7E7E7E7E7E7E7E7E7E7E7E7E7E7E7E7E7E7E7E7E7E7E7E7E7E7E7E7E7E7E7E7E7E7E7E7E7E7E7E7E7E7E7E7E7E7E7E7E7E7E7E7E7E7E7E7E7E7E7E7E7E7E7E7E7E7E7E7E7E7E7E7
310
E7E7E7E7E7E7E7E7E7E7E7E7E7E7E7E7E7E7E7E7E7E7E7E7E7E7E7E7E7E7E7E7E7E7E7E7E7E7E7E7E7E7E7E7E7E7E7E7E7E7E7E7E7E7E7E7E7E7E7E7E7E7E7E7E7E7E7E7E7E7E7E7E7E7E7E7E7E7E7E7E7E7E7E7E7E7E7E7E7E7E7E7E7E7E7E7E7E7E7E7E7E7E7E7E7E7E7E7E7E7E7E7E7E7E7E7E7E7E7E7E7E7E7E7E7E7E7
310
E7E7E7E7E7E7E7E7E7E7E7E7E7E7E7E7E7E7E7E7E7E7E7E7E7E7E7E7E7E7E7E7E7E7E7E7E7E7E7E7E7E7E7E7E7E7E7E7E7E7E7E7E7E7E7E7E7E7E7E7E7E7E7E7E7E7E7E7E7E7E7E7E7E7E7E7E7E7E7E7E7E7E7E7E7E7E7E7E7E7E7E7E7E7E7E7E7E7E7E7E7E7E7E7E7E7E7E7E7E7E7E7E7E7E7E7E7E7E7E7E7E7E7E7E7E7E7
310
E7E7E7E7E7E7E7E7E7E7E7E7E7E7E7E7E7E7E7E7E7E7E7E7E7E7E7E7E7E7E7E7E7E7E7E7E7E7E7E7E7E7E7E7E7E7E7E7E7E7E7E7E7E7E7E7E7E7E7E7E7E7E7E7E7E7E7E7E7E7E7E7E7E7E7E7E7E7E7E7E7E7E7E7E7E7E7E7E7E7E7E7E7E7E7E7E7E7E7E7E7E7E7E7E7E7E7E7E7E7E7E7E7E7E7E7E7E7E7E7E7E7E7E7E7E7E7
310
E7E7E7E7E7E7E7E7E7E7E7E7E7E7E7E7E7E7E7E7E7E7E7E7E7E7E7E7E7E7E7E7E7E7E7E7E7E7E7E7E7E7E7E7E7E7E7E7E7E7E7E7E7E7E7E7E7E7E7E7E7E7E7E7E7E7E7E7E7E7E7E7E7E7E7E7E7E7E7E7E7E7E7E7E7E7E7E7E7E7E7E7E7E7E7E7E7E7E7E7E7E7E7E7E7E7E7E7E7E7E7E7E7E7E7E7E7E7E7E7E7E7E7E7E7E7E7
310
E7E7E7E7E7E7E7E7E7E7E7E7E7E7E7E7E7E7E7E7E7E7E7E7E7E7E7E7E7E7E7E7E7E7E7E7E7E7E7E7E7E7E7E7E7E7E7E7E7E7E7E7E7E7E7E7E7E7E7E7E7E7E7E7E7E7E7E7E7E7E7E7E7E7E7E7E7E7E7E7E7E7E7E7E7E7E7E7E7E7E7E7E7E7E7E7E7E7E7E7E7E7E7E7E7E7E7E7E7E7E7E7E7E7E7E7E7E7E7E7E7E7E7E7E7E7E7
310
E7E7E7E7E7E7E7E7E7E7E7E7E7E7E7E7E7E7E7E7E7E7E7E7E7E7E7E7E7E7E7E7E7E7E7E7E7E7E7E7E7E7E7E7E7E7E7E7E7E7E7E7E7E7E7E7E7E7E7E7E7E7E7E7E7E7E7E7E7E7E7E7E7E7E7E7E7E7E7E7E7E7E7E7E7E7E7E7E7E7E7E7E7E7E7E7E7E7E7E7E7E7E7E7E7E7E7E7E7E7E7E7E7E7E7E7E7E7E7E7E7E7E7E7E7E7E7
310
E7E7E7E7E7E7E7E7E7E7E7E7E7E7E7E7E7E7E7E7E7E7E7E7E7E7E7E7E7E7E7E7E7E7E7E7E7E7E7E7E7E7E7E7E7E7E7E7E7E7E7E7E7E7E7E7E7E7E7E7E7E7E7E7E7E7E7E7E7E7E7E7E7E7E7E7E7E7E7E7E7E7E7E7E7E7E7E7E7E7E7E7E7E7E7E7E7E7E7E7E7E7E7E7E7E7E7E7E7E7E7E7E7E7E7E7E7E7E7E7E7E7E7E7E7E7E7
310
E7E7E7E7E7E7E7E7E7E7E7E7E7E7E7E7E7E7E7E7E7E7E7E7E7E7E7E7E7E7E7E7E7E7E7E7E7E7E7E7E7E7E7E7E7E7E7E7E7E7E7E7E7E7E7E7E7E7E7E7E7E7E7E7E7E7E7E7E7E7E7E7E7E7E7E7E7E7E7E7E7E7E7E7E7E7E7E7E7E7E7E7E7E7E7E7E7E7E7E7E7E7E7E7E7E7E7E7E7E7E7E7E7E7E7E7E7E7E7E7E7E7E7E7E7E7E7
310
E7E7E7E7E7E7E7E7E7E7E7E7E7E7E7E7E7E7E7E7E7E7E7E7E7E7E7E7E7E7E7E7E7E7E7E7E7E7E7E7E7E7E7E7E7E7E7E7E7E7E7E7E7E7E7E7E7E7E7E7E7E7E7E7E7E7E7E7E7E7E7E7E7E7E7E7E7E7E7E7E7E7E7E7E7E7E7E7E7E7E7E7E7E7E7E7E7E7E7E7E7E7E7E7E7E7E7E7E7E7E7E7E7E7E7E7E7E7E7E7E7E7E7E7E7E7E7
310
E7E7E7E7E7E7E7E7E7E7E7E7E7E7E7E7E7E7E7E7E7E7E7E7E7E7E7E7E7E7E7E7E7E7E7E7E7E7E7E7E7E7E7E7E7E7E7E7E7E7E7E7E7E7E7E7E7E7E7E7E7E7E7E7E7E7E7E7E7E7E7E7E7E7E7E7E7E7E7E7E7E7E7E7E7E7E7E7E7E7E7E7E7E7E7E7E7E7E7E7E7E7E7E7E7E7E7E7E7E7E7E7E7E7E7E7E7E7E7E7E7E7E7E7E7E7E7
310
E7E7E7E7E7E7E7E7E7E7E7E7E7E7E7E7E7E7E7E7E7E7E7E7E7E7E7E7E7E7E7E7E7E7E7E7E7E7E7E7E7E7E7E7E7E7E7E7E7E7E7E7E7E7E7E7E7E7E7E7E7E7E7E7E7E7E7E7E7E7E7E7E7E7E7E7E7E7E7E7E7E7E7E7E7E7E7E7E7E7E7E7E7E7E7E7E7E7E7E7E7E7E7E7E7E7E7E7E7E7E7E7E7E7E7E7E7E7E7E7E7E7E7E7E7E7E7
310
E7E7E7E7E7E7E7E7E7E7E7E7E7E7E7E7E7E7E7E7E7E7E7E7E7E7E7E7E7E7E7E7E7E7E7E7E7E7E7E7E7E7E7E7E7E7E7E7E7E7E7E7E7E7E7E7E7E7E7E7E7E7E7E7E7E7E7E7E7E7E7E7E7E7E7E7E7E7E7E7E7E7E7E7E7E7E7E7E7E7E7E7E7E7E7E7E7E7E7E7E7E7E7E7E7E7E7E7E7E7E7E7E7E7E7E7E7E7E7E7E7E7E7E7E7E7E7
310
E7E7E7E7E7E7E7E7E7E7E7E7E7E7E7E7E7E7E7E7E7E7E7E7E7E7E7E7E7E7E7E7E7E7E7E7E7E7E7E7E7E7E7E7E7E7E7E7E7E7E7E7E7E7E7E7E7E7E7E7E7E7E7E7E7E7E7E7E7E7E7E7E7E7E7E7E7E7E7E7E7E7E7E7E7E7E7E7E7E7E7E7E7E7E7E7E7E7E7E7E7E7E7E7E7E7E7E7E7E7E7E7E7E7E7E7E7E7E7E7E7E7E7E7E7E7E7
310
E7E7E7E7E7E7E7E7E7E7E7E7E7E7E7E7E7E7E7E7E7E7E7E7E7E7E7E7E7E7E7E7E7E7E7E7E7E7E7E7E7E7E7E7E7E7E7E7E7E7E7E7E7E7E7E7E7E7E7E7E7E7E7E7E7E7E7E7E7E7E7E7E7E7E7E7E7E7E7E7E7E7E7E7E7E7E7E7E7E7E7E7E7E7E7E7E7E7E7E7E7E7E7E7E7E7E7E7E7E7E7E7E7E7E7E7E7E7E7E7E7E7E7E7E7E7E7
310
E7E7E7E7E7E7E7E7E7E7E7E7E7E7E7E7E7E7E7E7E7E7E7E7E7E7E7E7E7E7E7E7E7E7E7E7E7E7E7E7E7E7E7E7E7E7E7E7E7E7E7E7E7E7E7E7E7E7E7E7E7E7E7E7E7E7E7E7E7E7E7E7E7E7E7E7E7E7E7E7E7E7E7E7E7E7E7E7E7E7E7E7E7E7E7E7E7E7E7E7E7E7E7E7E7E7E7E7E7E7E7E7E7E7E7E7E7E7E7E7E7E7E7E7E7E7E7
310
E7E7E7E7E7E7E7E7E7E7E7E7E7E7E7E7E7E7E7E7E7E7E7E7E7E7E7E7E7E7E7E7E7E7E7E7E7E7E7E7E7E7E7E7E7E7E7E7E7E7E7E7E7E7E7E7E7E7E7E7E7E7E7E7E7E7E7E7E7E7E7E7E7E7E7E7E7E7E7E7E7E7E7E7E7E7E7E7E7E7E7E7E7E7E7E7E7E7E7E7E7E7E7E7E7E7E7E7E7E7E7E7E7E7E7E7E7E7E7E7E7E7E7E7E7E7E7
310
E7E7E7E7E7E7E7E7E7E7E7E7E7E7E7E7E7E7E7E7E7E7E7E7E7E7E7E7E7E7E7E7E7E7E7E7E7E7E7E7E7E7E7E7E7E7E7E7E7E7E7E7E7E7E7E7E7E7E7E7E7E7E7E7E7E7E7E7E7E7E7E7E7E7E7E7E7E7E7E7E7E7E7E7E7E7E7E7E7E7E7E7E7E7E7E7E7E7E7E7E7E7E7E7E7E7E7E7E7E7E7E7E7E7E7E7E7E7E7E7E7E7E7E7E7E7E7
310
E7E7E7E7E7E7E7E7E7E7E7E7E7E7E7E7E7E7E7E7E7E7E7E7E7E7E7E7E7E7E7E7E7E7E7E7E7E7E7E7E7E7E7E7E7E7E7E7E7E7E7E7E7E7E7E7E7E7E7E7E7E7E7E7E7E7E7E7E7E7E7E7E7E7E7E7E7E7E7E7E7E7E7E7E7E7E7E7E7E7E7E7E7E7E7E7E7E7E7E7E7E7E7E7E7E7E7E7E7E7E7E7E7E7E7E7E7E7E7E7E7E7E7E7E7E7E7
310
E7E7E7E7E7E7E7E7E7E7E7E7E7E7E7E7E7E7E7E7E7E7E7E7E7E7E7E7E7E7E7E7E7E7E7E7E7E7E7E7E7E7E7E7E7E7E7E7E7E7E7E7E7E7E7E7E7E7E7E7E7E7E7E7E7E7E7E7E7E7E7E7E7E7E7E7E7E7E7E7E7E7E7E7E7E7E7E7E7E7E7E7E7E7E7E7E7E7E7E7E7E7E7E7E7E7E7E7E7E7E7E7E7E7E7E7E7E7E7E7E7E7E7E7E7E7E7
310
E7E7E7E7E7E7E7E7E7E7E7E7E7E7E7E7E7E7E7E7E7E7E7E7E7E7E7E7E7E7E7E7E7E7E7E7E7E7E7E7E7E7E7E7E7E7E7E7E7E7E7E7E7E7E7E7E7E7E7E7E7E7E7E7E7E7E7E7E7E7E7E7E7E7E7E7E7E7E7E7E7E7E7E7E7E7E7E7E7E7E7E7E7E7E7E7E7E7E7E7E7E7E7E7E7E7E7E7E7E7E7E7E7E7E7E7E7E7E7E7E7E7E7E7E7E7E7
310
E7E7E7E7E7E7E7E7E7E7E7E7E7E7E7E7E7E7E7E7E7E7E7E7E7E7E7E7E7E7E7E7E7E7E7E7E7E7E7E7E7E7E7E7E7E7E7E7E7E7E7E7E7E7E7E7E7E7E7E7E7E7E7E7E7E7E7E7E7E7E7E7E7E7E7E7E7E7E7E7E7E7E7E7E7E7E7E7E7E7E7E7E7E7E7E7E7E7E7E7E7E7E7E7E7E7E7E7E7E7E7E7E7E7E7E7E7E7E7E7E7E7E7E7E7E7E7
310
E7E7E7E7E7E7E7E7E7E7E7E7E7E7E7E7E7E7E7E7E7E7E7E7E7E7E7E7E7E7E7E7E7E7E7E7E7E7E7E7E7E7E7E7E7E7E7E7E7E7E7E7E7E7E7E7E7E7E7E7E7E7E7E7E7E7E7E7E7E7E7E7E7E7E7E7E7E7E7E7E7E7E7E7E7E7E7E7E7E7E7E7E7E7E7E7E7E7E7E7E7E7E7E7E7E7E7E7E7E7E7E7E7E7E7E7E7E7E7E7E7E7E7E7E7E7E7
310
E7E7E7E7E7E7E7E7E7E7E7E7E7E7E7E7E7E7E7E7E7E7E7E7E7E7E7E7E7E7E7E7E7E7E7E7E7E7E7E7E7E7E7E7E7E7E7E7E7E7E7E7E7E7E7E7E7E7E7E7E7E7E7E7E7E7E7E7E7E7E7E7E7E7E7E7E7E7E7E7E7E7E7E7E7E7E7E7E7E7E7E7E7E7E7E7E7E7E7E7E7E7E7E7E7E7E7E7E7E7E7E7E7E7E7E7E7E7E7E7E7E7E7E7E7E7E7
310
E7E7E7E7E7E7E7E7E7E7E7E7E7E7E7E7E7E7E7E7E7E7E7E7E7E7E7E7E7E7E7E7E7E7E7E7E7E7E7E7E7E7E7E7E7E7E7E7E7E7E7E7E7E7E7E7E7E7E7E7E7E7E7E7E7E7E7E7E7E7E7E7E7E7E7E7E7E7E7E7E7E7E7E7E7E7E7E7E7E7E7E7E7E7E7E7E7E7E7E7E7E7E7E7E7E7E7E7E7E7E7E7E7E7E7E7E7E7E7E7E7E7E7E7E7E7E7
310
E7E7E7E7E7E7E7E7E7E7E7E7E7E7E7E7E7E7E7E7E7E7E7E7E7E7E7E7E7E7E7E7E7E7E7E7E7E7E7E7E7E7E7E7E7E7E7E7E7E7E7E7E7E7E7E7E7E7E7E7E7E7E7E7E7E7E7E7E7E7E7E7E7E7E7E7E7E7E7E7E7E7E7E7E7E7E7E7E7E7E7E7E7E7E7E7E7E7E7E7E7E7E7E7E7E7E7E7E7E7E7E7E7E7E7E7E7E7E7E7E7E7E7E7E7E7E7
310
E7E7E7E7E7E7E7E7E7E7E7E7E7E7E7E7E7E7E7E7E7E7E7E7E7E7E7E7E7E7E7E7E7E7E7E7E7E7E7E7E7E7E7E7E7E7E7E7E7E7E7E7E7E7E7E7E7E7E7E7E7E7E7E7E7E7E7E7E7E7E7E7E7E7E7E7E7E7E7E7E7E7E7E7E7E7E7E7E7E7E7E7E7E7E7E7E7E7E7E7E7E7E7E7E7E7E7E7E7E7E7E7E7E7E7E7E7E7E7E7E7E7E7E7E7E7E7
310
E7E7E7E7E7E7E7E7E7E7E7E7E7E7E7E7E7E7E7E7E7E7E7E7E7E7E7E7E7E7E7E7E7E7E7E7E7E7E7E7E7E7E7E7E7E7E7E7E7E7E7E7E7E7E7E7E7E7E7E7E7E7E7E7E7E7E7E7E7E7E7E7E7E7E7E7E7E7E7E7E7E7E7E7E7E7E7E7E7E7E7E7E7E7E7E7E7E7E7E7E7E7E7E7E7E7E7E7E7E7E7E7E7E7E7E7E7E7E7E7E7E7E7E7E7E7E7
310
E7E7E7E7E7E7E7E7E7E7E7E7E7E7E7E7E7E7E7E7E7E7E7E7E7E7E7E7E7E7E7E7E7E7E7E7E7E7E7E7E7E7E7E7E7E7E7E7E7E7E7E7E7E7E7E7E7E7E7E7E7E7E7E7E7E7E7E7E7E7E7E7E7E7E7E7E7E7E7E7E7E7E7E7E7E7E7E7E7E7E7E7E7E7E7E7E7E7E7E7E7E7E7E7E7E7E7E7E7E7E7E7E7E7E7E7E7E7E7E7E7E7E7E7E7E7E7
310
E7E7E7E7E7E7E7E7E7E7E7E7E7E7E7E7E7E7E7E7E7E7E7E7E7E7E7E7E7E7E7E7E7E7E7E7E7E7E7E7E7E7E7E7E7E7E7E7E7E7E7E7E7E7E7E7E7E7E7E7E7E7E7E7E7E7E7E7E7E7E7E7E7E7E7E7E7E7E7E7E7E7E7E7E7E7E7E7E7E7E7E7E7E7E7E7E7E7E7E7E7E7E7E7E7E7E7E7E7E7E7E7E7E7E7E7E7E7E7E7E7E7E7E7E7E7E7
310
E7E7E7E7E7E7E7E7E7E7E7E7E7E7E7E7E7E7E7E7E7E7E7E7E7E7E7E7E7E7E7E7E7E7E7E7E7E7E7E7E7E7E7E7E7E7E7E7E7E7E7E7E7E7E7E7E7E7E7E7E7E7E7E7E7E7E7E7E7E7E7E7E7E7E7E7E7E7E7E7E7E7E7E7E7E7E7E7E7E7E7E7E7E7E7E7E7E7E7E7E7E7E7E7E7E7E7E7E7E7E7E7E7E7E7E7E7E7E7E7E7E7E7E7E7E7E7
310
E7E7E7E7E7E7E7E7E7E7E7E7E7E7E7E7E7E7E7E7E7E7E7E7E7E7E7E7E7E7E7E7E7E7E7E7E7E7E7E7E7E7E7E7E7E7E7E7E7E7E7E7E7E7E7E7E7E7E7E7E7E7E7E7E7E7E7E7E7E7E7E7E7E7E7E7E7E7E7E7E7E7E7E7E7E7E7E7E7E7E7E7E7E7E7E7E7E7E7E7E7E7E7E7E7E7E7E7E7E7E7E7E7E7E7E7E7E7E7E7E7E7E7E7E7E7E7
310
E7E7E7E7E7E7E7E7E7E7E7E7E7E7E7E7E7E7E7E7E7E7E7E7E7E7E7E7E7E7E7E7E7E7E7E7E7E7E7E7E7E7E7E7E7E7E7E7E7E7E7E7E7E7E7E7E7E7E7E7E7E7E7E7E7E7E7E7E7E7E7E7E7E7E7E7E7E7E7E7E7E7E7E7E7E7E7E7E7E7E7E7E7E7E7E7E7E7E7E7E7E7E7E7E7E7E7E7E7E7E7E7E7E7E7E7E7E7E7E7E7E7E7E7E7E7E7
310
E7E7E7E7E7E7E7E7E7E7E7E7E7E7E7E7E7E7E7E7E7E7E7E7E7E7E7E7E7E7E7E7E7E7E7E7E7E7E7E7E7E7E7E7E7E7E7E7E7E7E7E7E7E7E7E7E7E7E7E7E7E7E7E7E7E7E7E7E7E7E7E7E7E7E7E7E7E7E7E7E7E7E7E7E7E7E7E7E7E7E7E7E7E7E7E7E7E7E7E7E7E7E7E7E7E7E7E7E7E7E7E7E7E7E7E7E7E7E7E7E7E7E7E7E7E7E7
310
E7E7E7E7E7E7E7E7E7E7E7E7E7E7E7E7E7E7E7E7E7E7E7E7E7E7E7E7E7E7E7E7E7E7E7E7E7E7E7E7E7E7E7E7E7E7E7E7E7E7E7E7E7E7E7E7E7E7E7E7E7E7E7E7E7E7E7E7E7E7E7E7E7E7E7E7E7E7E7E7E7E7E7E7E7E7E7E7E7E7E7E7E7E7E7E7E7E7E7E7E7E7E7E7E7E7E7E7E7E7E7E7E7E7E7E7E7E7E7E7E7E7E7E7E7E7E7
310
E7E7E7E7E7E7E7E7E7E7E7E7E7E7E7E7E7E7E7E7E7E7E7E7E7E7E7E7E7E7E7E7E7E7E7E7E7E7E7E7E7E7E7E7E7E7E7E7E7E7E7E7E7E7E7E7E7E7E7E7E7E7E7E7E7E7E7E7E7E7E7E7E7E7E7E7E7E7E7E7E7E7E7E7E7E7E7E7E7E7E7E7E7E7E7E7E7E7E7E7E7E7E7E7E7E7E7E7E7E7E7E7E7E7E7E7E7E7E7E7E7E7E7E7E7E7E7
310
E7E7E7E7E7E7E7E7E7E7E7E7E7E7E7E7E7E7E7E7E7E7E7E7E7E7E7E7E7E7E7E7E7E7E7E7E7E7E7E7E7E7E7E7E7E7E7E7E7E7E7E7E7E7E7E7E7E7E7E7E7E7E7E7E7E7E7E7E7E7E7E7E7E7E7E7E7E7E7E7E7E7E7E7E7E7E7E7E7E7E7E7E7E7E7E7E7E7E7E7E7E7E7E7E7E7E7E7E7E7E7E7E7E7E7E7E7E7E7E7E7E7E7E7E7E7E7
310
E7E7E7E7E7E7E7E7E7E7E7E7E7E7E7E7E7E7E7E7E7E7E7E7E7E7E7E7E7E7E7E7E7E7E7E7E7E7E7E7E7E7E7E7E7E7E7E7E7E7E7E7E7E7E7E7E7E7E7E7E7E7E7E7E7E7E7E7E7E7E7E7E7E7E7E7E7E7E7E7E7E7E7E7E7E7E7E7E7E7E7E7E7E7E7E7E7E7E7E7E7E7E7E7E7E7E7E7E7E7E7E7E7E7E7E7E7E7E7E7E7E7E7E7E7E7E7
310
E7E7E7E7E7E7E7E7E7E7E7E7E7E7E7E7E7E7E7E7E7E7E7E7E7E7E7E7E7E7E7E7E7E7E7E7E7E7E7E7E7E7E7E7E7E7E7E7E7E7E7E7E7E7E7E7E7E7E7E7E7E7E7E7E7E7E7E7E7E7E7E7E7E7E7E7E7E7E7E7E7E7E7E7E7E7E7E7E7E7E7E7E7E7E7E7E7E7E7E7E7E7E7E7E7E7E7E7E7E7E7E7E7E7E7E7E7E7E7E7E7E7E7E7E7E7E7
310
E7E7E7E7E7E7E7E7E7E7E7E7E7E7E7E7E7E7E7E7E7E7E7E7E7E7E7E7E7E7E7E7E7E7E7E7E7E7E7E7E7E7E7E7E7E7E7E7
  0
XRECORD
  5
2047C
102
{ACAD_REACTORS
330
19DD6
102
}
330
19DD6
100
AcDbXrecord
280
     1
102
MATERIAL
148
0.0
149
0.0
149
0.0
 93
        0
 94
      127
282
     0
 72
     0
 77
     0
171
     0
175
     0
179
     0
273
     0
  0
XRECORD
  5
19DD8
102
{ACAD_REACTORS
330
19DD6
102
}
330
19DD6
100
AcDbXrecord
280
     1
270
     1
271
     1
  0
XRECORD
  5
19DD7
102
{ACAD_REACTORS
330
19DD6
102
}
330
19DD6
100
AcDbXrecord
280
     1
270
     1
271
     1
  0
XRECORD
  5
19DDB
102
{ACAD_REACTORS
330
19DD6
102
}
330
19DD6
100
AcDbXrecord
280
     1
270
     1
271
     1
  0
XRECORD
  5
19DDA
102
{ACAD_REACTORS
330
19DD6
102
}
330
19DD6
100
AcDbXrecord
280
     1
270
     1
271
     1
  0
XRECORD
  5
19DDC
102
{ACAD_REACTORS
330
19DD6
102
}
330
19DD6
100
AcDbXrecord
280
     1
270
     1
271
     1
  0
XRECORD
  5
19DD9
102
{ACAD_REACTORS
330
19DD6
102
}
330
19DD6
100
AcDbXrecord
280
     1
270
     1
271
     1
  0
XRECORD
  5
2047B
102
{ACAD_REACTORS
330
19DCE
102
}
330
19DCE
100
AcDbXrecord
280
     1
102
MATERIAL
148
0.0
149
0.0
149
0.0
 93
        0
 94
      127
282
     0
 72
     0
 77
     0
171
     0
175
     0
179
     0
273
     0
  0
XRECORD
  5
19DD0
102
{ACAD_REACTORS
330
19DCE
102
}
330
19DCE
100
AcDbXrecord
280
     1
270
     1
271
     1
  0
XRECORD
  5
19DCF
102
{ACAD_REACTORS
330
19DCE
102
}
330
19DCE
100
AcDbXrecord
280
     1
270
     1
271
     1
  0
XRECORD
  5
19DD3
102
{ACAD_REACTORS
330
19DCE
102
}
330
19DCE
100
AcDbXrecord
280
     1
270
     1
271
     1
  0
XRECORD
  5
19DD2
102
{ACAD_REACTORS
330
19DCE
102
}
330
19DCE
100
AcDbXrecord
280
     1
270
     1
271
     1
  0
XRECORD
  5
19DD4
102
{ACAD_REACTORS
330
19DCE
102
}
330
19DCE
100
AcDbXrecord
280
     1
270
     1
271
     1
  0
XRECORD
  5
19DD1
102
{ACAD_REACTORS
330
19DCE
102
}
330
19DCE
100
AcDbXrecord
280
     1
270
     1
271
     1
  0
XRECORD
  5
2047D
102
{ACAD_REACTORS
330
19DDE
102
}
330
19DDE
100
AcDbXrecord
280
     1
102
MATERIAL
148
0.0
149
0.0
149
0.0
 93
        0
 94
      127
282
     0
 72
     0
 77
     0
171
     0
175
     0
179
     0
273
     0
  0
XRECORD
  5
19DE0
102
{ACAD_REACTORS
330
19DDE
102
}
330
19DDE
100
AcDbXrecord
280
     1
270
     1
271
     1
  0
XRECORD
  5
19DDF
102
{ACAD_REACTORS
330
19DDE
102
}
330
19DDE
100
AcDbXrecord
280
     1
270
     1
271
     1
  0
XRECORD
  5
19DE3
102
{ACAD_REACTORS
330
19DDE
102
}
330
19DDE
100
AcDbXrecord
280
     1
270
     1
271
     1
  0
XRECORD
  5
19DE2
102
{ACAD_REACTORS
330
19DDE
102
}
330
19DDE
100
AcDbXrecord
280
     1
270
     1
271
     1
  0
XRECORD
  5
19DE4
102
{ACAD_REACTORS
330
19DDE
102
}
330
19DDE
100
AcDbXrecord
280
     1
270
     1
271
     1
  0
XRECORD
  5
19DE1
102
{ACAD_REACTORS
330
19DDE
102
}
330
19DDE
100
AcDbXrecord
280
     1
270
     1
271
     1
  0
CELLSTYLEMAP
  5
20473
102
{ACAD_REACTORS
330
1ABD4
102
}
330
1ABD4
100
AcDbCellStyleMap
 90
        3
300
CELLSTYLE
  1
TABLEFORMAT_BEGIN
 90
        5
170
     1
 91
        0
 92
    32768
 62
   257
 93
        1
300
CONTENTFORMAT
  1
CONTENTFORMAT_BEGIN
 90
        0
 91
        0
 92
        4
 93
        0
300

 40
0.0
140
1.0
 94
        5
 62
     0
340
F
144
6.0
309
CONTENTFORMAT_END
171
     1
301
MARGIN
  1
CELLMARGIN_BEGIN
 40
1.5
 40
1.5
 40
1.5
 40
1.5
 40
0.18
 40
0.18
309
CELLMARGIN_END
 94
        6
 95
        1
302
GRIDFORMAT
  1
GRIDFORMAT_BEGIN
 90
        0
 91
        1
 62
     0
 92
       -2
340
0
 93
        0
 40
0.045
309
GRIDFORMAT_END
 95
        2
302
GRIDFORMAT
  1
GRIDFORMAT_BEGIN
 90
        0
 91
        1
 62
     0
 92
       -2
340
0
 93
        0
 40
0.045
309
GRIDFORMAT_END
 95
        4
302
GRIDFORMAT
  1
GRIDFORMAT_BEGIN
 90
        0
 91
        1
 62
     0
 92
       -2
340
0
 93
        0
 40
0.045
309
GRIDFORMAT_END
 95
        8
302
GRIDFORMAT
  1
GRIDFORMAT_BEGIN
 90
        0
 91
        1
 62
     0
 92
       -2
340
0
 93
        0
 40
0.045
309
GRIDFORMAT_END
 95
       16
302
GRIDFORMAT
  1
GRIDFORMAT_BEGIN
 90
        0
 91
        1
 62
     0
 92
       -2
340
0
 93
        0
 40
0.045
309
GRIDFORMAT_END
 95
       32
302
GRIDFORMAT
  1
GRIDFORMAT_BEGIN
 90
        0
 91
        1
 62
     0
 92
       -2
340
0
 93
        0
 40
0.045
309
GRIDFORMAT_END
309
TABLEFORMAT_END
  1
CELLSTYLE_BEGIN
 90
        1
 91
        1
300
_TITLE
309
CELLSTYLE_END
300
CELLSTYLE
  1
TABLEFORMAT_BEGIN
 90
        5
170
     1
 91
        0
 92
        0
 62
   257
 93
        1
300
CONTENTFORMAT
  1
CONTENTFORMAT_BEGIN
 90
        0
 91
        0
 92
        4
 93
        0
300

 40
0.0
140
1.0
 94
        5
 62
     0
340
F
144
4.5
309
CONTENTFORMAT_END
171
     1
301
MARGIN
  1
CELLMARGIN_BEGIN
 40
1.5
 40
1.5
 40
1.5
 40
1.5
 40
0.18
 40
0.18
309
CELLMARGIN_END
 94
        6
 95
        1
302
GRIDFORMAT
  1
GRIDFORMAT_BEGIN
 90
        0
 91
        1
 62
     0
 92
       -2
340
0
 93
        0
 40
0.045
309
GRIDFORMAT_END
 95
        2
302
GRIDFORMAT
  1
GRIDFORMAT_BEGIN
 90
        0
 91
        1
 62
     0
 92
       -2
340
0
 93
        0
 40
0.045
309
GRIDFORMAT_END
 95
        4
302
GRIDFORMAT
  1
GRIDFORMAT_BEGIN
 90
        0
 91
        1
 62
     0
 92
       -2
340
0
 93
        0
 40
0.045
309
GRIDFORMAT_END
 95
        8
302
GRIDFORMAT
  1
GRIDFORMAT_BEGIN
 90
        0
 91
        1
 62
     0
 92
       -2
340
0
 93
        0
 40
0.045
309
GRIDFORMAT_END
 95
       16
302
GRIDFORMAT
  1
GRIDFORMAT_BEGIN
 90
        0
 91
        1
 62
     0
 92
       -2
340
0
 93
        0
 40
0.045
309
GRIDFORMAT_END
 95
       32
302
GRIDFORMAT
  1
GRIDFORMAT_BEGIN
 90
        0
 91
        1
 62
     0
 92
       -2
340
0
 93
        0
 40
0.045
309
GRIDFORMAT_END
309
TABLEFORMAT_END
  1
CELLSTYLE_BEGIN
 90
        2
 91
        1
300
_HEADER
309
CELLSTYLE_END
300
CELLSTYLE
  1
TABLEFORMAT_BEGIN
 90
        5
170
     1
 91
        0
 92
        0
 62
   257
 93
        1
300
CONTENTFORMAT
  1
CONTENTFORMAT_BEGIN
 90
        0
 91
        0
 92
        4
 93
        0
300

 40
0.0
140
1.0
 94
        2
 62
     0
340
F
144
4.5
309
CONTENTFORMAT_END
171
     1
301
MARGIN
  1
CELLMARGIN_BEGIN
 40
1.5
 40
1.5
 40
1.5
 40
1.5
 40
0.18
 40
0.18
309
CELLMARGIN_END
 94
        6
 95
        1
302
GRIDFORMAT
  1
GRIDFORMAT_BEGIN
 90
        0
 91
        1
 62
     0
 92
       -2
340
0
 93
        0
 40
0.045
309
GRIDFORMAT_END
 95
        2
302
GRIDFORMAT
  1
GRIDFORMAT_BEGIN
 90
        0
 91
        1
 62
     0
 92
       -2
340
0
 93
        0
 40
0.045
309
GRIDFORMAT_END
 95
        4
302
GRIDFORMAT
  1
GRIDFORMAT_BEGIN
 90
        0
 91
        1
 62
     0
 92
       -2
340
0
 93
        0
 40
0.045
309
GRIDFORMAT_END
 95
        8
302
GRIDFORMAT
  1
GRIDFORMAT_BEGIN
 90
        0
 91
        1
 62
     0
 92
       -2
340
0
 93
        0
 40
0.045
309
GRIDFORMAT_END
 95
       16
302
GRIDFORMAT
  1
GRIDFORMAT_BEGIN
 90
        0
 91
        1
 62
     0
 92
       -2
340
0
 93
        0
 40
0.045
309
GRIDFORMAT_END
 95
       32
302
GRIDFORMAT
  1
GRIDFORMAT_BEGIN
 90
        0
 91
        1
 62
     0
 92
       -2
340
0
 93
        0
 40
0.045
309
GRIDFORMAT_END
309
TABLEFORMAT_END
  1
CELLSTYLE_BEGIN
 90
        3
 91
        2
300
_DATA
309
CELLSTYLE_END
  0
XRECORD
  5
2047A
102
{ACAD_REACTORS
330
1ABD4
102
}
330
1ABD4
100
AcDbXrecord
280
     1
102
ACAD_ROUNDTRIP_PRE2007_TABLESTYLE
 90
        4
 91
        0
  1

 92
        4
 93
        0
  2

 94
        4
 95
        0
  3

  0
XRECORD
  5
20489
102
{ACAD_REACTORS
330
20488
102
}
330
20488
100
AcDbXrecord
280
     1
102
RTVSPropertyOp0
 70
     1
102
RTVSPropertyOp1
 70
     1
102
RTVSPropertyOp2
 70
     1
102
RTVSPropertyOp3
 70
     1
102
RTVSPropertyOp4
 70
     1
102
RTVSPropertyOp5
 70
     1
102
RTVSPropertyOp6
 70
     1
102
RTVSPropertyOp7
 70
     1
102
RTVSPropertyOp8
 70
     1
102
RTVSPropertyOp9
 70
     1
102
RTVSPropertyOp10
 70
     1
102
RTVSPropertyOp11
 70
     1
102
RTVSPropertyOp12
 70
     1
102
RTVSPropertyOp13
 70
     1
102
RTVSPropertyOp14
 70
     1
102
RTVSPropertyOp15
 70
     1
102
RTVSPropertyOp16
 70
     1
102
RTVSPropertyOp17
 70
     1
102
RTVSPropertyOp18
 70
     1
102
RTVSPropertyOp19
 70
     1
102
RTVSPropertyOp20
 70
     1
102
RTVSPropertyOp21
 70
     1
102
RTVSPropertyOp22
 70
     1
102
RTVSPropertyOp23
 70
     1
102
RTVSPropertyOp24
 70
     1
102
RTVSPropertyOp25
 70
     1
102
RTVSPropertyOp26
 70
     1
102
RTVSPropertyOp27
 70
     1
  0
XRECORD
  5
2048D
102
{ACAD_REACTORS
330
2048C
102
}
330
2048C
100
AcDbXrecord
280
     1
102
RTVSPropertyOp0
 70
     1
102
RTVSPropertyOp1
 70
     1
102
RTVSPropertyOp2
 70
     1
102
RTVSPropertyOp3
 70
     1
102
RTVSPropertyOp4
 70
     1
102
RTVSPropertyOp5
 70
     1
102
RTVSPropertyOp6
 70
     1
102
RTVSPropertyOp7
 70
     1
102
RTVSPropertyOp8
 70
     1
102
RTVSPropertyOp9
 70
     1
102
RTVSPropertyOp10
 70
     1
102
RTVSPropertyOp11
 70
     1
102
RTVSPropertyOp12
 70
     1
102
RTVSPropertyOp13
 70
     1
102
RTVSPropertyOp14
 70
     1
102
RTVSPropertyOp15
 70
     1
102
RTVSPropertyOp16
 70
     1
102
RTVSPropertyOp17
 70
     1
102
RTVSPropertyOp18
 70
     1
102
RTVSPropertyOp19
 70
     1
102
RTVSPropertyOp20
 70
     1
102
RTVSPropertyOp21
 70
     1
102
RTVSPropertyOp22
 70
     1
102
RTVSPropertyOp23
 70
     1
102
RTVSPropertyOp24
 70
     1
102
RTVSPropertyOp25
 70
     1
102
RTVSPropertyOp26
 70
     1
102
RTVSPropertyOp27
 70
     1
  0
XRECORD
  5
2048B
102
{ACAD_REACTORS
330
2048A
102
}
330
2048A
100
AcDbXrecord
280
     1
102
RTVSPropertyOp0
 70
     1
102
RTVSPropertyOp1
 70
     1
102
RTVSPropertyOp2
 70
     1
102
RTVSPropertyOp3
 70
     1
102
RTVSPropertyOp4
 70
     1
102
RTVSPropertyOp5
 70
     1
102
RTVSPropertyOp6
 70
     1
102
RTVSPropertyOp7
 70
     1
102
RTVSPropertyOp8
 70
     1
102
RTVSPropertyOp9
 70
     1
102
RTVSPropertyOp10
 70
     1
102
RTVSPropertyOp11
 70
     1
102
RTVSPropertyOp12
 70
     1
102
RTVSPropertyOp13
 70
     1
102
RTVSPropertyOp14
 70
     1
102
RTVSPropertyOp15
 70
     1
102
RTVSPropertyOp16
 70
     1
102
RTVSPropertyOp17
 70
     1
102
RTVSPropertyOp18
 70
     1
102
RTVSPropertyOp19
 70
     1
102
RTVSPropertyOp20
 70
     1
102
RTVSPropertyOp21
 70
     1
102
RTVSPropertyOp22
 70
     1
102
RTVSPropertyOp23
 70
     1
102
RTVSPropertyOp24
 70
     1
102
RTVSPropertyOp25
 70
     1
102
RTVSPropertyOp26
 70
     1
102
RTVSPropertyOp27
 70
     1
  0
XRECORD
  5
20487
102
{ACAD_REACTORS
330
20486
102
}
330
20486
100
AcDbXrecord
280
     1
102
RTVSPropertyOp0
 70
     1
102
RTVSPropertyOp1
 70
     1
102
RTVSPropertyOp2
 70
     1
102
RTVSPropertyOp3
 70
     1
102
RTVSPropertyOp4
 70
     1
102
RTVSPropertyOp5
 70
     1
102
RTVSPropertyOp6
 70
     1
102
RTVSPropertyOp7
 70
     1
102
RTVSPropertyOp8
 70
     1
102
RTVSPropertyOp9
 70
     1
102
RTVSPropertyOp10
 70
     1
102
RTVSPropertyOp11
 70
     1
102
RTVSPropertyOp12
 70
     1
102
RTVSPropertyOp13
 70
     1
102
RTVSPropertyOp14
 70
     1
102
RTVSPropertyOp15
 70
     1
102
RTVSPropertyOp16
 70
     1
102
RTVSPropertyOp17
 70
     1
102
RTVSPropertyOp18
 70
     1
102
RTVSPropertyOp19
 70
     1
102
RTVSPropertyOp20
 70
     1
102
RTVSPropertyOp21
 70
     1
102
RTVSPropertyOp22
 70
     1
102
RTVSPropertyOp23
 70
     1
102
RTVSPropertyOp24
 70
     1
102
RTVSPropertyOp25
 70
     1
102
RTVSPropertyOp26
 70
     1
102
RTVSPropertyOp27
 70
     1
  0
XRECORD
  5
20495
102
{ACAD_REACTORS
330
20494
102
}
330
20494
100
AcDbXrecord
280
     1
102
RTVSPropertyOp0
 70
     1
102
RTVSPropertyOp1
 70
     1
102
RTVSPropertyOp2
 70
     1
102
RTVSPropertyOp3
 70
     1
102
RTVSPropertyOp4
 70
     1
102
RTVSPropertyOp5
 70
     1
102
RTVSPropertyOp6
 70
     1
102
RTVSPropertyOp7
 70
     1
102
RTVSPropertyOp8
 70
     1
102
RTVSPropertyOp9
 70
     1
102
RTVSPropertyOp10
 70
     1
102
RTVSPropertyOp11
 70
     1
102
RTVSPropertyOp12
 70
     1
102
RTVSPropertyOp13
 70
     1
102
RTVSPropertyOp14
 70
     1
102
RTVSPropertyOp15
 70
     1
102
RTVSPropertyOp16
 70
     1
102
RTVSPropertyOp17
 70
     1
102
RTVSPropertyOp18
 70
     1
102
RTVSPropertyOp19
 70
     1
102
RTVSPropertyOp20
 70
     1
102
RTVSPropertyOp21
 70
     1
102
RTVSPropertyOp22
 70
     1
102
RTVSPropertyOp23
 70
     1
102
RTVSPropertyOp24
 70
     1
102
RTVSPropertyOp25
 70
     1
102
RTVSPropertyOp26
 70
     1
102
RTVSPropertyOp27
 70
     1
  0
XRECORD
  5
2049D
102
{ACAD_REACTORS
330
2049C
102
}
330
2049C
100
AcDbXrecord
280
     1
102
RTVSPropertyOp0
 70
     1
102
RTVSPropertyOp1
 70
     1
102
RTVSPropertyOp2
 70
     1
102
RTVSPropertyOp3
 70
     1
102
RTVSPropertyOp4
 70
     1
102
RTVSPropertyOp5
 70
     1
102
RTVSPropertyOp6
 70
     1
102
RTVSPropertyOp7
 70
     1
102
RTVSPropertyOp8
 70
     1
102
RTVSPropertyOp9
 70
     1
102
RTVSPropertyOp10
 70
     1
102
RTVSPropertyOp11
 70
     1
102
RTVSPropertyOp12
 70
     1
102
RTVSPropertyOp13
 70
     1
102
RTVSPropertyOp14
 70
     1
102
RTVSPropertyOp15
 70
     1
102
RTVSPropertyOp16
 70
     1
102
RTVSPropertyOp17
 70
     1
102
RTVSPropertyOp18
 70
     1
102
RTVSPropertyOp19
 70
     1
102
RTVSPropertyOp20
 70
     1
102
RTVSPropertyOp21
 70
     1
102
RTVSPropertyOp22
 70
     1
102
RTVSPropertyOp23
 70
     1
102
RTVSPropertyOp24
 70
     1
102
RTVSPropertyOp25
 70
     1
102
RTVSPropertyOp26
 70
     1
102
RTVSPropertyOp27
 70
     1
  0
XRECORD
  5
2048F
102
{ACAD_REACTORS
330
2048E
102
}
330
2048E
100
AcDbXrecord
280
     1
102
RTVSPropertyOp0
 70
     1
102
RTVSPropertyOp1
 70
     1
102
RTVSPropertyOp2
 70
     1
102
RTVSPropertyOp3
 70
     1
102
RTVSPropertyOp4
 70
     1
102
RTVSPropertyOp5
 70
     1
102
RTVSPropertyOp6
 70
     1
102
RTVSPropertyOp7
 70
     1
102
RTVSPropertyOp8
 70
     1
102
RTVSPropertyOp9
 70
     1
102
RTVSPropertyOp10
 70
     1
102
RTVSPropertyOp11
 70
     1
102
RTVSPropertyOp12
 70
     1
102
RTVSPropertyOp13
 70
     1
102
RTVSPropertyOp14
 70
     1
102
RTVSPropertyOp15
 70
     1
102
RTVSPropertyOp16
 70
     1
102
RTVSPropertyOp17
 70
     1
102
RTVSPropertyOp18
 70
     1
102
RTVSPropertyOp19
 70
     1
102
RTVSPropertyOp20
 70
     1
102
RTVSPropertyOp21
 70
     1
102
RTVSPropertyOp22
 70
     1
102
RTVSPropertyOp23
 70
     1
102
RTVSPropertyOp24
 70
     1
102
RTVSPropertyOp25
 70
     1
102
RTVSPropertyOp26
 70
     1
102
RTVSPropertyOp27
 70
     1
  0
XRECORD
  5
20493
102
{ACAD_REACTORS
330
20492
102
}
330
20492
100
AcDbXrecord
280
     1
102
RTVSPropertyOp0
 70
     1
102
RTVSPropertyOp1
 70
     1
102
RTVSPropertyOp2
 70
     1
102
RTVSPropertyOp3
 70
     1
102
RTVSPropertyOp4
 70
     1
102
RTVSPropertyOp5
 70
     1
102
RTVSPropertyOp6
 70
     1
102
RTVSPropertyOp7
 70
     1
102
RTVSPropertyOp8
 70
     1
102
RTVSPropertyOp9
 70
     1
102
RTVSPropertyOp10
 70
     1
102
RTVSPropertyOp11
 70
     1
102
RTVSPropertyOp12
 70
     1
102
RTVSPropertyOp13
 70
     1
102
RTVSPropertyOp14
 70
     1
102
RTVSPropertyOp15
 70
     1
102
RTVSPropertyOp16
 70
     1
102
RTVSPropertyOp17
 70
     1
102
RTVSPropertyOp18
 70
     1
102
RTVSPropertyOp19
 70
     1
102
RTVSPropertyOp20
 70
     1
102
RTVSPropertyOp21
 70
     1
102
RTVSPropertyOp22
 70
     1
102
RTVSPropertyOp23
 70
     1
102
RTVSPropertyOp24
 70
     1
102
RTVSPropertyOp25
 70
     1
102
RTVSPropertyOp26
 70
     1
102
RTVSPropertyOp27
 70
     1
  0
XRECORD
  5
204A3
102
{ACAD_REACTORS
330
204A2
102
}
330
204A2
100
AcDbXrecord
280
     1
102
RTVSPropertyOp0
 70
     0
102
RTVSPropertyOp1
 70
     0
102
RTVSPropertyOp2
 70
     0
102
RTVSPropertyOp3
 70
     0
102
RTVSPropertyOp4
 70
     0
102
RTVSPropertyOp5
 70
     0
102
RTVSPropertyOp6
 70
     0
102
RTVSPropertyOp7
 70
     0
102
RTVSPropertyOp8
 70
     0
102
RTVSPropertyOp9
 70
     0
102
RTVSPropertyOp10
 70
     0
102
RTVSPropertyOp11
 70
     0
102
RTVSPropertyOp12
 70
     0
102
RTVSPropertyOp13
 70
     0
102
RTVSPropertyOp14
 70
     2
102
RTVSPropertyOp15
 70
     0
102
RTVSPropertyOp16
 70
     0
102
RTVSPropertyOp17
 70
     0
102
RTVSPropertyOp18
 70
     0
102
RTVSPropertyOp19
 70
     0
102
RTVSPropertyOp20
 70
     0
102
RTVSPropertyOp21
 70
     0
102
RTVSPropertyOp22
 70
     0
102
RTVSPropertyOp23
 70
     0
102
RTVSPropertyOp24
 70
     0
102
RTVSPropertyOp25
 70
     0
102
RTVSPropertyOp26
 70
     0
102
RTVSPropertyOp27
 70
     0
  0
XRECORD
  5
2049B
102
{ACAD_REACTORS
330
2049A
102
}
330
2049A
100
AcDbXrecord
280
     1
102
RTVSPropertyOp0
 70
     1
102
RTVSPropertyOp1
 70
     1
102
RTVSPropertyOp2
 70
     1
102
RTVSPropertyOp3
 70
     1
102
RTVSPropertyOp4
 70
     1
102
RTVSPropertyOp5
 70
     1
102
RTVSPropertyOp6
 70
     1
102
RTVSPropertyOp7
 70
     1
102
RTVSPropertyOp8
 70
     1
102
RTVSPropertyOp9
 70
     1
102
RTVSPropertyOp10
 70
     1
102
RTVSPropertyOp11
 70
     1
102
RTVSPropertyOp12
 70
     1
102
RTVSPropertyOp13
 70
     1
102
RTVSPropertyOp14
 70
     1
102
RTVSPropertyOp15
 70
     1
102
RTVSPropertyOp16
 70
     1
102
RTVSPropertyOp17
 70
     1
102
RTVSPropertyOp18
 70
     1
102
RTVSPropertyOp19
 70
     1
102
RTVSPropertyOp20
 70
     1
102
RTVSPropertyOp21
 70
     1
102
RTVSPropertyOp22
 70
     1
102
RTVSPropertyOp23
 70
     1
102
RTVSPropertyOp24
 70
     1
102
RTVSPropertyOp25
 70
     1
102
RTVSPropertyOp26
 70
     1
102
RTVSPropertyOp27
 70
     1
  0
XRECORD
  5
2047F
102
{ACAD_REACTORS
330
2047E
102
}
330
2047E
100
AcDbXrecord
280
     1
102
RTVSPropertyOp0
 70
     1
102
RTVSPropertyOp1
 70
     1
102
RTVSPropertyOp2
 70
     1
102
RTVSPropertyOp3
 70
     1
102
RTVSPropertyOp4
 70
     1
102
RTVSPropertyOp5
 70
     1
102
RTVSPropertyOp6
 70
     1
102
RTVSPropertyOp7
 70
     1
102
RTVSPropertyOp8
 70
     1
102
RTVSPropertyOp9
 70
     1
102
RTVSPropertyOp10
 70
     1
102
RTVSPropertyOp11
 70
     1
102
RTVSPropertyOp12
 70
     1
102
RTVSPropertyOp13
 70
     1
102
RTVSPropertyOp14
 70
     1
102
RTVSPropertyOp15
 70
     1
102
RTVSPropertyOp16
 70
     1
102
RTVSPropertyOp17
 70
     1
102
RTVSPropertyOp18
 70
     1
102
RTVSPropertyOp19
 70
     1
102
RTVSPropertyOp20
 70
     1
102
RTVSPropertyOp21
 70
     1
102
RTVSPropertyOp22
 70
     1
102
RTVSPropertyOp23
 70
     1
102
RTVSPropertyOp24
 70
     1
102
RTVSPropertyOp25
 70
     1
102
RTVSPropertyOp26
 70
     1
102
RTVSPropertyOp27
 70
     1
  0
XRECORD
  5
20481
102
{ACAD_REACTORS
330
20480
102
}
330
20480
100
AcDbXrecord
280
     1
102
RTVSPropertyOp0
 70
     1
102
RTVSPropertyOp1
 70
     1
102
RTVSPropertyOp2
 70
     1
102
RTVSPropertyOp3
 70
     1
102
RTVSPropertyOp4
 70
     1
102
RTVSPropertyOp5
 70
     1
102
RTVSPropertyOp6
 70
     1
102
RTVSPropertyOp7
 70
     1
102
RTVSPropertyOp8
 70
     1
102
RTVSPropertyOp9
 70
     1
102
RTVSPropertyOp10
 70
     1
102
RTVSPropertyOp11
 70
     1
102
RTVSPropertyOp12
 70
     1
102
RTVSPropertyOp13
 70
     1
102
RTVSPropertyOp14
 70
     1
102
RTVSPropertyOp15
 70
     1
102
RTVSPropertyOp16
 70
     1
102
RTVSPropertyOp17
 70
     1
102
RTVSPropertyOp18
 70
     1
102
RTVSPropertyOp19
 70
     1
102
RTVSPropertyOp20
 70
     1
102
RTVSPropertyOp21
 70
     1
102
RTVSPropertyOp22
 70
     1
102
RTVSPropertyOp23
 70
     1
102
RTVSPropertyOp24
 70
     1
102
RTVSPropertyOp25
 70
     1
102
RTVSPropertyOp26
 70
     1
102
RTVSPropertyOp27
 70
     1
  0
XRECORD
  5
20483
102
{ACAD_REACTORS
330
20482
102
}
330
20482
100
AcDbXrecord
280
     1
102
RTVSPropertyOp0
 70
     1
102
RTVSPropertyOp1
 70
     1
102
RTVSPropertyOp2
 70
     1
102
RTVSPropertyOp3
 70
     1
102
RTVSPropertyOp4
 70
     1
102
RTVSPropertyOp5
 70
     1
102
RTVSPropertyOp6
 70
     1
102
RTVSPropertyOp7
 70
     1
102
RTVSPropertyOp8
 70
     1
102
RTVSPropertyOp9
 70
     1
102
RTVSPropertyOp10
 70
     1
102
RTVSPropertyOp11
 70
     1
102
RTVSPropertyOp12
 70
     1
102
RTVSPropertyOp13
 70
     1
102
RTVSPropertyOp14
 70
     1
102
RTVSPropertyOp15
 70
     1
102
RTVSPropertyOp16
 70
     1
102
RTVSPropertyOp17
 70
     1
102
RTVSPropertyOp18
 70
     1
102
RTVSPropertyOp19
 70
     1
102
RTVSPropertyOp20
 70
     1
102
RTVSPropertyOp21
 70
     1
102
RTVSPropertyOp22
 70
     1
102
RTVSPropertyOp23
 70
     1
102
RTVSPropertyOp24
 70
     1
102
RTVSPropertyOp25
 70
     1
102
RTVSPropertyOp26
 70
     1
102
RTVSPropertyOp27
 70
     1
  0
XRECORD
  5
20485
102
{ACAD_REACTORS
330
20484
102
}
330
20484
100
AcDbXrecord
280
     1
102
RTVSPropertyOp0
 70
     1
102
RTVSPropertyOp1
 70
     1
102
RTVSPropertyOp2
 70
     1
102
RTVSPropertyOp3
 70
     1
102
RTVSPropertyOp4
 70
     1
102
RTVSPropertyOp5
 70
     1
102
RTVSPropertyOp6
 70
     1
102
RTVSPropertyOp7
 70
     1
102
RTVSPropertyOp8
 70
     1
102
RTVSPropertyOp9
 70
     1
102
RTVSPropertyOp10
 70
     1
102
RTVSPropertyOp11
 70
     1
102
RTVSPropertyOp12
 70
     1
102
RTVSPropertyOp13
 70
     1
102
RTVSPropertyOp14
 70
     1
102
RTVSPropertyOp15
 70
     1
102
RTVSPropertyOp16
 70
     1
102
RTVSPropertyOp17
 70
     1
102
RTVSPropertyOp18
 70
     1
102
RTVSPropertyOp19
 70
     1
102
RTVSPropertyOp20
 70
     1
102
RTVSPropertyOp21
 70
     1
102
RTVSPropertyOp22
 70
     1
102
RTVSPropertyOp23
 70
     1
102
RTVSPropertyOp24
 70
     1
102
RTVSPropertyOp25
 70
     1
102
RTVSPropertyOp26
 70
     1
102
RTVSPropertyOp27
 70
     1
  0
XRECORD
  5
2049F
102
{ACAD_REACTORS
330
2049E
102
}
330
2049E
100
AcDbXrecord
280
     1
102
RTVSPropertyOp0
 70
     0
102
RTVSPropertyOp1
 70
     0
102
RTVSPropertyOp2
 70
     0
102
RTVSPropertyOp3
 70
     0
102
RTVSPropertyOp4
 70
     0
102
RTVSPropertyOp5
 70
     0
102
RTVSPropertyOp6
 70
     0
102
RTVSPropertyOp7
 70
     0
102
RTVSPropertyOp8
 70
     0
102
RTVSPropertyOp9
 70
     0
102
RTVSPropertyOp10
 70
     0
102
RTVSPropertyOp11
 70
     0
102
RTVSPropertyOp12
 70
     0
102
RTVSPropertyOp13
 70
     0
102
RTVSPropertyOp14
 70
     2
102
RTVSPropertyOp15
 70
     0
102
RTVSPropertyOp16
 70
     0
102
RTVSPropertyOp17
 70
     0
102
RTVSPropertyOp18
 70
     0
102
RTVSPropertyOp19
 70
     0
102
RTVSPropertyOp20
 70
     0
102
RTVSPropertyOp21
 70
     0
102
RTVSPropertyOp22
 70
     0
102
RTVSPropertyOp23
 70
     0
102
RTVSPropertyOp24
 70
     0
102
RTVSPropertyOp25
 70
     0
102
RTVSPropertyOp26
 70
     0
102
RTVSPropertyOp27
 70
     0
  0
XRECORD
  5
20499
102
{ACAD_REACTORS
330
20498
102
}
330
20498
100
AcDbXrecord
280
     1
102
RTVSPropertyOp0
 70
     1
102
RTVSPropertyOp1
 70
     1
102
RTVSPropertyOp2
 70
     1
102
RTVSPropertyOp3
 70
     1
102
RTVSPropertyOp4
 70
     1
102
RTVSPropertyOp5
 70
     1
102
RTVSPropertyOp6
 70
     1
102
RTVSPropertyOp7
 70
     1
102
RTVSPropertyOp8
 70
     1
102
RTVSPropertyOp9
 70
     1
102
RTVSPropertyOp10
 70
     1
102
RTVSPropertyOp11
 70
     1
102
RTVSPropertyOp12
 70
     1
102
RTVSPropertyOp13
 70
     1
102
RTVSPropertyOp14
 70
     1
102
RTVSPropertyOp15
 70
     1
102
RTVSPropertyOp16
 70
     1
102
RTVSPropertyOp17
 70
     1
102
RTVSPropertyOp18
 70
     1
102
RTVSPropertyOp19
 70
     1
102
RTVSPropertyOp20
 70
     1
102
RTVSPropertyOp21
 70
     1
102
RTVSPropertyOp22
 70
     1
102
RTVSPropertyOp23
 70
     1
102
RTVSPropertyOp24
 70
     1
102
RTVSPropertyOp25
 70
     1
102
RTVSPropertyOp26
 70
     1
102
RTVSPropertyOp27
 70
     1
  0
XRECORD
  5
204A1
102
{ACAD_REACTORS
330
204A0
102
}
330
204A0
100
AcDbXrecord
280
     1
102
RTVSPropertyOp0
 70
     0
102
RTVSPropertyOp1
 70
     0
102
RTVSPropertyOp2
 70
     0
102
RTVSPropertyOp3
 70
     0
102
RTVSPropertyOp4
 70
     0
102
RTVSPropertyOp5
 70
     0
102
RTVSPropertyOp6
 70
     0
102
RTVSPropertyOp7
 70
     0
102
RTVSPropertyOp8
 70
     0
102
RTVSPropertyOp9
 70
     0
102
RTVSPropertyOp10
 70
     0
102
RTVSPropertyOp11
 70
     0
102
RTVSPropertyOp12
 70
     0
102
RTVSPropertyOp13
 70
     0
102
RTVSPropertyOp14
 70
     2
102
RTVSPropertyOp15
 70
     0
102
RTVSPropertyOp16
 70
     0
102
RTVSPropertyOp17
 70
     0
102
RTVSPropertyOp18
 70
     0
102
RTVSPropertyOp19
 70
     0
102
RTVSPropertyOp20
 70
     0
102
RTVSPropertyOp21
 70
     0
102
RTVSPropertyOp22
 70
     0
102
RTVSPropertyOp23
 70
     0
102
RTVSPropertyOp24
 70
     0
102
RTVSPropertyOp25
 70
     0
102
RTVSPropertyOp26
 70
     0
102
RTVSPropertyOp27
 70
     0
  0
XRECORD
  5
20491
102
{ACAD_REACTORS
330
20490
102
}
330
20490
100
AcDbXrecord
280
     1
102
RTVSPropertyOp0
 70
     1
102
RTVSPropertyOp1
 70
     1
102
RTVSPropertyOp2
 70
     1
102
RTVSPropertyOp3
 70
     1
102
RTVSPropertyOp4
 70
     1
102
RTVSPropertyOp5
 70
     1
102
RTVSPropertyOp6
 70
     1
102
RTVSPropertyOp7
 70
     1
102
RTVSPropertyOp8
 70
     1
102
RTVSPropertyOp9
 70
     1
102
RTVSPropertyOp10
 70
     1
102
RTVSPropertyOp11
 70
     1
102
RTVSPropertyOp12
 70
     1
102
RTVSPropertyOp13
 70
     1
102
RTVSPropertyOp14
 70
     1
102
RTVSPropertyOp15
 70
     1
102
RTVSPropertyOp16
 70
     1
102
RTVSPropertyOp17
 70
     1
102
RTVSPropertyOp18
 70
     1
102
RTVSPropertyOp19
 70
     1
102
RTVSPropertyOp20
 70
     1
102
RTVSPropertyOp21
 70
     1
102
RTVSPropertyOp22
 70
     1
102
RTVSPropertyOp23
 70
     1
102
RTVSPropertyOp24
 70
     1
102
RTVSPropertyOp25
 70
     1
102
RTVSPropertyOp26
 70
     1
102
RTVSPropertyOp27
 70
     1
  0
XRECORD
  5
20497
102
{ACAD_REACTORS
330
20496
102
}
330
20496
100
AcDbXrecord
280
     1
102
RTVSPropertyOp0
 70
     1
102
RTVSPropertyOp1
 70
     1
102
RTVSPropertyOp2
 70
     1
102
RTVSPropertyOp3
 70
     1
102
RTVSPropertyOp4
 70
     1
102
RTVSPropertyOp5
 70
     1
102
RTVSPropertyOp6
 70
     1
102
RTVSPropertyOp7
 70
     1
102
RTVSPropertyOp8
 70
     1
102
RTVSPropertyOp9
 70
     1
102
RTVSPropertyOp10
 70
     1
102
RTVSPropertyOp11
 70
     1
102
RTVSPropertyOp12
 70
     1
102
RTVSPropertyOp13
 70
     1
102
RTVSPropertyOp14
 70
     1
102
RTVSPropertyOp15
 70
     1
102
RTVSPropertyOp16
 70
     1
102
RTVSPropertyOp17
 70
     1
102
RTVSPropertyOp18
 70
     1
102
RTVSPropertyOp19
 70
     1
102
RTVSPropertyOp20
 70
     1
102
RTVSPropertyOp21
 70
     1
102
RTVSPropertyOp22
 70
     1
102
RTVSPropertyOp23
 70
     1
102
RTVSPropertyOp24
 70
     1
102
RTVSPropertyOp25
 70
     1
102
RTVSPropertyOp26
 70
     1
102
RTVSPropertyOp27
 70
     1
  0
ENDSEC
  0
EOF
