  0
SECTION
  2
HEADER
  9
$ACADVER
  1
AC1012
  9
$DWGCODEPAGE
  3
ansi_932
  9
$INSBASE
 10
0.0
 20
0.0
 30
0.0
  9
$EXTMIN
 10
147.0162416153643
 20
-769.6837272986982
 30
0.0
  9
$EXTMAX
 10
825.1087369900479
 20
-505.3932300613673
 30
0.0
  9
$LIMMIN
 10
0.0
 20
0.0
  9
$LIMMAX
 10
420.0
 20
297.0
  9
$ORTHOMODE
 70
     0
  9
$REGENMODE
 70
     1
  9
$FILLMODE
 70
     1
  9
$QTEXTMODE
 70
     0
  9
$MIRRTEXT
 70
     0
  9
$DRAGMODE
 70
     2
  9
$LTSCALE
 40
0.5
  9
$OSMODE
 70
 14463
  9
$ATTMODE
 70
     1
  9
$TEXTSIZE
 40
4.0
  9
$TRACEWID
 40
1.0
  9
$TEXTSTYLE
  7
STANDARD
  9
$CLAYER
  8
1TEXT
  9
$CELTYPE
  6
BYLAYER
  9
$CECOLOR
 62
   256
  9
$CELTSCALE
 40
1.0
  9
$DELOBJ
 70
     1
  9
$DISPSILH
 70
     0
  9
$DIMSCALE
 40
1.0
  9
$DIMASZ
 40
2.0
  9
$DIMEXO
 40
0.0
  9
$DIMDLI
 40
7.0
  9
$DIMRND
 40
0.0
  9
$DIMDLE
 40
0.0
  9
$DIMEXE
 40
1.0
  9
$DIMTP
 40
0.0
  9
$DIMTM
 40
0.0
  9
$DIMTXT
 40
3.5
  9
$DIMCEN
 40
0.0
  9
$DIMTSZ
 40
0.0
  9
$DIMTOL
 70
     0
  9
$DIMLIM
 70
     0
  9
$DIMTIH
 70
     0
  9
$DIMTOH
 70
     0
  9
$DIMSE1
 70
     0
  9
$DIMSE2
 70
     0
  9
$DIMTAD
 70
     1
  9
$DIMZIN
 70
     8
  9
$DIMBLK
  1

  9
$DIMASO
 70
     1
  9
$DIMSHO
 70
     1
  9
$DIMPOST
  1
 
  9
$DIMAPOST
  1

  9
$DIMALT
 70
     0
  9
$DIMALTD
 70
     2
  9
$DIMALTF
 40
25.4
  9
$DIMLFAC
 40
1.0
  9
$DIMTOFL
 70
     1
  9
$DIMTVP
 40
0.0
  9
$DIMTIX
 70
     0
  9
$DIMSOXD
 70
     0
  9
$DIMSAH
 70
     1
  9
$DIMBLK1
  1
OPEN30
  9
$DIMBLK2
  1
OPEN30
  9
$DIMSTYLE
  2
NEWX10
  9
$DIMCLRD
 70
   256
  9
$DIMCLRE
 70
   256
  9
$DIMCLRT
 70
   201
  9
$DIMTFAC
 40
0.7
  9
$DIMGAP
 40
0.7
  9
$DIMJUST
 70
     0
  9
$DIMSD1
 70
     0
  9
$DIMSD2
 70
     0
  9
$DIMTOLJ
 70
     1
  9
$DIMTZIN
 70
     8
  9
$DIMALTZ
 70
     0
  9
$DIMALTTZ
 70
     0
  9
$DIMFIT
 70
     2
  9
$DIMUPT
 70
     0
  9
$DIMUNIT
 70
     2
  9
$DIMDEC
 70
     2
  9
$DIMTDEC
 70
     4
  9
$DIMALTU
 70
     2
  9
$DIMALTTD
 70
     2
  9
$DIMTXSTY
  7
STANDARD
  9
$DIMAUNIT
 70
     0
  9
$LUNITS
 70
     2
  9
$LUPREC
 70
     4
  9
$SKETCHINC
 40
1.0
  9
$FILLETRAD
 40
0.0
  9
$AUNITS
 70
     0
  9
$AUPREC
 70
     2
  9
$MENU
  1
acad
  9
$ELEVATION
 40
0.0
  9
$PELEVATION
 40
0.0
  9
$THICKNESS
 40
0.0
  9
$LIMCHECK
 70
     0
  9
$CHAMFERA
 40
1.0
  9
$CHAMFERB
 40
1.0
  9
$CHAMFERC
 40
20.0
  9
$CHAMFERD
 40
0.0
  9
$SKPOLY
 70
     0
  9
$TDCREATE
 40
2453033.732663484
  9
$TDUPDATE
 40
2458274.580843773
  9
$TDINDWG
 40
2.3800550926
  9
$TDUSRTIMER
 40
2.3800550926
  9
$USRTIMER
 70
     1
  9
$ANGBASE
 50
0.0
  9
$ANGDIR
 70
     0
  9
$PDMODE
 70
     0
  9
$PDSIZE
 40
0.0
  9
$PLINEWID
 40
0.0
  9
$COORDS
 70
     2
  9
$SPLFRAME
 70
     0
  9
$SPLINETYPE
 70
     6
  9
$SPLINESEGS
 70
     8
  9
$ATTDIA
 70
     0
  9
$ATTREQ
 70
     1
  9
$HANDLING
 70
     1
  9
$HANDSEED
  5
20727
  9
$SURFTAB1
 70
     6
  9
$SURFTAB2
 70
     6
  9
$SURFTYPE
 70
     6
  9
$SURFU
 70
     6
  9
$SURFV
 70
     6
  9
$UCSNAME
  2

  9
$UCSORG
 10
0.0
 20
0.0
 30
0.0
  9
$UCSXDIR
 10
1.0
 20
0.0
 30
0.0
  9
$UCSYDIR
 10
0.0
 20
1.0
 30
0.0
  9
$PUCSNAME
  2

  9
$PUCSORG
 10
0.0
 20
0.0
 30
0.0
  9
$PUCSXDIR
 10
1.0
 20
0.0
 30
0.0
  9
$PUCSYDIR
 10
0.0
 20
1.0
 30
0.0
  9
$USERI1
 70
     0
  9
$USERI2
 70
     0
  9
$USERI3
 70
     0
  9
$USERI4
 70
     0
  9
$USERI5
 70
     0
  9
$USERR1
 40
0.0
  9
$USERR2
 40
0.0
  9
$USERR3
 40
0.0
  9
$USERR4
 40
0.0
  9
$USERR5
 40
0.0
  9
$WORLDVIEW
 70
     1
  9
$SHADEDGE
 70
     3
  9
$SHADEDIF
 70
    70
  9
$TILEMODE
 70
     1
  9
$MAXACTVP
 70
    48
  9
$PINSBASE
 10
0.0
 20
0.0
 30
0.0
  9
$PLIMCHECK
 70
     0
  9
$PEXTMIN
 10
1.000000000000000E+20
 20
1.000000000000000E+20
 30
1.000000000000000E+20
  9
$PEXTMAX
 10
-1.000000000000000E+20
 20
-1.000000000000000E+20
 30
-1.000000000000000E+20
  9
$PLIMMIN
 10
0.0
 20
0.0
  9
$PLIMMAX
 10
420.0
 20
297.0
  9
$UNITMODE
 70
     0
  9
$VISRETAIN
 70
     1
  9
$PLINEGEN
 70
     0
  9
$PSLTSCALE
 70
     1
  9
$TREEDEPTH
 70
  3020
  9
$PICKSTYLE
 70
     1
  9
$CMLSTYLE
  2
STANDARD
  9
$CMLJUST
 70
     0
  9
$CMLSCALE
 40
20.0
  9
$SAVEIMAGES
 70
     1
  0
ENDSEC
  0
SECTION
  2
CLASSES
  0
CLASS
  1
DICTIONARYVAR
  2
AcDbDictionaryVar
  3
ObjectDBX Classes
 90
        0
280
     0
281
     0
  0
CLASS
  1
IDBUFFER
  2
AcDbIdBuffer
  3
ObjectDBX Classes
 90
    32768
280
     0
281
     0
  0
CLASS
  1
LWPOLYLINE
  2
AcDbPolyline
  3
ObjectDBX Classes
 90
    32768
280
     0
281
     1
  0
CLASS
  1
ACDBDICTIONARYWDFLT
  2
AcDbDictionaryWithDefault
  3
ObjectDBX Classes
 90
    32768
280
     0
281
     0
  0
CLASS
  1
ACDBPLACEHOLDER
  2
AcDbPlaceHolder
  3
ObjectDBX Classes
 90
        0
280
     0
281
     0
  0
CLASS
  1
LAYOUT
  2
AcDbLayout
  3
ObjectDBX Classes
 90
        0
280
     0
281
     0
  0
CLASS
  1
TABLESTYLE
  2
AcDbTableStyle
  3
ObjectDBX Classes
 90
     4095
280
     0
281
     0
  0
CLASS
  1
SORTENTSTABLE
  2
AcDbSortentsTable
  3
ObjectDBX Classes
 90
    32768
280
     0
281
     0
  0
CLASS
  1
DIMASSOC
  2
AcDbDimAssoc
  3
"AcDbDimAssoc|Product Desc:     AcDim ARX App For Dimension|Company:          Autodesk, Inc.|WEB Address:      www.autodesk.com"
 90
        0
280
     0
281
     0
  0
CLASS
  1
MATERIAL
  2
AcDbMaterial
  3
ObjectDBX Classes
 90
     1153
280
     0
281
     0
  0
CLASS
  1
VISUALSTYLE
  2
AcDbVisualStyle
  3
ObjectDBX Classes
 90
     4095
280
     0
281
     0
  0
CLASS
  1
SCALE
  2
AcDbScale
  3
ObjectDBX Classes
 90
     1153
280
     0
281
     0
  0
CLASS
  1
MLEADERSTYLE
  2
AcDbMLeaderStyle
  3
ACDB_MLEADERSTYLE_CLASS
 90
     4095
280
     0
281
     0
  0
CLASS
  1
CELLSTYLEMAP
  2
AcDbCellStyleMap
  3
ObjectDBX Classes
 90
     1152
280
     0
281
     0
  0
CLASS
  1
EXACXREFPANELOBJECT
  2
ExAcXREFPanelObject
  3
EXAC_ESW
 90
     1025
280
     1
281
     0
  0
CLASS
  1
NPOCOLLECTION
  2
AcDbImpNonPersistentObjectsCollection
  3
ObjectDBX Classes
 90
     1153
280
     1
281
     0
  0
CLASS
  1
SUN
  2
AcDbSun
  3
SCENEOE
 90
     1153
280
     0
281
     0
  0
CLASS
  1
XRECORD
  2
AcDbXrecord
  3
ObjectDBX Classes
 90
    32768
280
     0
281
     0
  0
CLASS
  1
HATCH
  2
AcDbHatch
  3
ObjectDBX Classes
 90
    32768
280
     0
281
     1
  0
ENDSEC
  0
SECTION
  2
TABLES
  0
TABLE
  2
VPORT
  5
8
330
0
100
AcDbSymbolTable
 70
     1
  0
VPORT
  5
19DC2
330
8
100
AcDbSymbolTableRecord
100
AcDbViewportTableRecord
  2
*ACTIVE
 70
     0
 10
0.0
 20
0.0
 11
1.0
 21
1.0
 12
486.0624893027061
 22
-637.5384786800328
 13
0.0
 23
0.0
 14
10.0
 24
10.0
 15
10.0
 25
10.0
 16
0.0
 26
0.0
 36
1.0
 17
0.0
 27
0.0
 37
0.0
 40
389.0272968886019
 41
1.871481028151775
 42
50.0
 43
0.0
 44
0.0
 50
0.0
 51
0.0
 71
    16
 72
   100
 73
     1
 74
     1
 75
     0
 76
     0
 77
     0
 78
     0
  0
ENDTAB
  0
TABLE
  2
LTYPE
  5
5
330
0
100
AcDbSymbolTable
 70
     4
  0
LTYPE
  5
12
330
5
100
AcDbSymbolTableRecord
100
AcDbLinetypeTableRecord
  2
BYBLOCK
 70
     0
  3

 72
    65
 73
     0
 40
0.0
  0
LTYPE
  5
13
330
5
100
AcDbSymbolTableRecord
100
AcDbLinetypeTableRecord
  2
BYLAYER
 70
     0
  3

 72
    65
 73
     0
 40
0.0
  0
LTYPE
  5
14
330
5
100
AcDbSymbolTableRecord
100
AcDbLinetypeTableRecord
  2
CONTINUOUS
 70
     0
  3
Solid line
 72
    65
 73
     0
 40
0.0
  0
LTYPE
  5
26
330
5
100
AcDbSymbolTableRecord
100
AcDbLinetypeTableRecord
  2
CENTER2
 70
     0
  3
Center (.5x) ___ _ ___ _ ___ _ ___ _ ___ _ ___
 72
    65
 73
     4
 40
28.575
 49
19.05
 74
     0
 49
-3.175
 74
     0
 49
3.175
 74
     0
 49
-3.175
 74
     0
  0
LTYPE
  5
FF
330
5
100
AcDbSymbolTableRecord
100
AcDbLinetypeTableRecord
  2
HIDDEN
 70
     0
  3
Hidden __ __ __ __ __ __ __ __ __ __ __ __ __ _
 72
    65
 73
     2
 40
9.524999999999999
 49
6.35
 74
     0
 49
-3.175
 74
     0
  0
LTYPE
  5
100
330
5
100
AcDbSymbolTableRecord
100
AcDbLinetypeTableRecord
  2
PHANTOM2
 70
     0
  3
Phantom (0.5x) ___ _ _ ___ _ _ ___ _ _ ___ _ _
 72
    65
 73
     6
 40
31.75
 49
15.875
 74
     0
 49
-3.175
 74
     0
 49
3.175
 74
     0
 49
-3.175
 74
     0
 49
3.175
 74
     0
 49
-3.175
 74
     0
  0
ENDTAB
  0
TABLE
  2
LAYER
  5
2
102
{ACAD_XDICTIONARY
360
18FE8
102
}
330
0
100
AcDbSymbolTable
 70
     9
  0
LAYER
  5
E
102
{ACAD_XDICTIONARY
360
1A20A
102
}
330
2
100
AcDbSymbolTableRecord
100
AcDbLayerTableRecord
  2
0
 70
     0
 62
     7
  6
CONTINUOUS
  0
LAYER
  5
29
102
{ACAD_XDICTIONARY
360
1A20C
102
}
330
2
100
AcDbSymbolTableRecord
100
AcDbLayerTableRecord
  2
1CENTER
 70
     0
 62
     7
  6
CENTER2
  0
LAYER
  5
31
102
{ACAD_XDICTIONARY
360
1A20E
102
}
330
2
100
AcDbSymbolTableRecord
100
AcDbLayerTableRecord
  2
1TEXT
 70
     0
 62
     7
  6
CONTINUOUS
  0
LAYER
  5
101
102
{ACAD_XDICTIONARY
360
1A218
102
}
330
2
100
AcDbSymbolTableRecord
100
AcDbLayerTableRecord
  2
1DIM
 70
     0
 62
     7
  6
CONTINUOUS
  0
LAYER
  5
102
102
{ACAD_XDICTIONARY
360
1A21A
102
}
330
2
100
AcDbSymbolTableRecord
100
AcDbLayerTableRecord
  2
1HIDDEN
 70
     0
 62
     7
  6
HIDDEN
  0
LAYER
  5
103
102
{ACAD_XDICTIONARY
360
1A21C
102
}
330
2
100
AcDbSymbolTableRecord
100
AcDbLayerTableRecord
  2
1PHANTOM
 70
     0
 62
     7
  6
PHANTOM2
  0
LAYER
  5
25F
102
{ACAD_XDICTIONARY
360
1A220
102
}
330
2
100
AcDbSymbolTableRecord
100
AcDbLayerTableRecord
  2
01
 70
     0
 62
     1
  6
CONTINUOUS
  0
LAYER
  5
26A
102
{ACAD_XDICTIONARY
360
1A236
102
}
330
2
100
AcDbSymbolTableRecord
100
AcDbLayerTableRecord
  2
1DIM1
 70
     0
 62
     7
  6
CONTINUOUS
  0
LAYER
  5
26D
102
{ACAD_XDICTIONARY
360
1A23C
102
}
330
2
100
AcDbSymbolTableRecord
100
AcDbLayerTableRecord
  2
1HATCH
 70
     0
 62
     7
  6
CONTINUOUS
  0
ENDTAB
  0
TABLE
  2
STYLE
  5
3
330
0
100
AcDbSymbolTable
 70
     1
  0
STYLE
  5
F
330
3
100
AcDbSymbolTableRecord
100
AcDbTextStyleTableRecord
  2
STANDARD
 70
     0
 40
0.0
 41
1.0
 50
0.0
 71
     0
 42
4.0
  3
txt.shx
  4
extfont.shx
  0
ENDTAB
  0
TABLE
  2
VIEW
  5
6
330
0
100
AcDbSymbolTable
 70
     0
  0
ENDTAB
  0
TABLE
  2
UCS
  5
7
330
0
100
AcDbSymbolTable
 70
     0
  0
ENDTAB
  0
TABLE
  2
APPID
  5
9
330
0
100
AcDbSymbolTable
 70
    14
  0
APPID
  5
10
330
9
100
AcDbSymbolTableRecord
100
AcDbRegAppTableRecord
  2
ACAD
 70
     0
  0
APPID
  5
21
330
9
100
AcDbSymbolTableRecord
100
AcDbRegAppTableRecord
  2
DRAWINGVARIABLESXDATA
 70
     0
  0
APPID
  5
64
330
9
100
AcDbSymbolTableRecord
100
AcDbRegAppTableRecord
  2
CONTENTTABDATA
 70
     0
  0
APPID
  5
65
330
9
100
AcDbSymbolTableRecord
100
AcDbRegAppTableRecord
  2
CONTENTCURRENTTAB
 70
     0
  0
APPID
  5
66
330
9
100
AcDbSymbolTableRecord
100
AcDbRegAppTableRecord
  2
CONTENTBLOCKDESCRIPTION
 70
     0
  0
APPID
  5
67
330
9
100
AcDbSymbolTableRecord
100
AcDbRegAppTableRecord
  2
CONTENTBLOCKICON
 70
     0
  0
APPID
  5
68
330
9
100
AcDbSymbolTableRecord
100
AcDbRegAppTableRecord
  2
CONTENTLONGBLOCKNAME
 70
     0
  0
APPID
  5
5A9
330
9
100
AcDbSymbolTableRecord
100
AcDbRegAppTableRecord
  2
ACAD_PSEXT
 70
     0
  0
APPID
  5
18AC
330
9
100
AcDbSymbolTableRecord
100
AcDbRegAppTableRecord
  2
ACAD_DSTYLE_DIMTEXT_FILL
 70
     0
  0
APPID
  5
19E1A
330
9
100
AcDbSymbolTableRecord
100
AcDbRegAppTableRecord
  2
ACAD_MLEADERVER
 70
     0
  0
APPID
  5
1A2FA
330
9
100
AcDbSymbolTableRecord
100
AcDbRegAppTableRecord
  2
ACAD_DSTYLE_DIMRADIAL_EXTE
 70
     0
  0
APPID
  5
1DBC1
330
9
100
AcDbSymbolTableRecord
100
AcDbRegAppTableRecord
  2
ACADANNOTATIVE
 70
     0
  0
APPID
  5
1E991
330
9
100
AcDbSymbolTableRecord
100
AcDbRegAppTableRecord
  2
ACAD_EXEMPT_FROM_CAD_STAND
 70
     0
  0
APPID
  5
1FBBD
330
9
100
AcDbSymbolTableRecord
100
AcDbRegAppTableRecord
  2
ACDBBLOCKREPETAG
 70
     0
  0
ENDTAB
  0
TABLE
  2
DIMSTYLE
  5
A
330
0
100
AcDbSymbolTable
 70
     1
  0
DIMSTYLE
105
48
330
A
100
AcDbSymbolTableRecord
100
AcDbDimStyleTableRecord
  2
NEWX10
 70
     0
  3
 
  4

  5

  6
OPEN30
  7
OPEN30
 40
1.0
 41
2.0
 42
0.0
 43
7.0
 44
1.0
 45
0.0
 46
0.0
 47
0.0
 48
0.0
140
3.5
141
0.0
142
0.0
143
25.4
144
1.0
145
0.0
146
0.7
147
0.7
 71
     0
 72
     0
 73
     0
 74
     0
 75
     0
 76
     0
 77
     1
 78
     8
170
     0
171
     2
172
     1
173
     1
174
     0
175
     0
176
   256
177
   256
178
   201
179
     2
270
     2
271
     2
272
     4
273
     2
274
     2
340
F
275
     0
280
     0
281
     0
282
     0
283
     1
284
     8
285
     0
286
     0
287
     2
288
     0
  0
ENDTAB
  0
TABLE
  2
BLOCK_RECORD
  5
1
330
0
100
AcDbSymbolTable
 70
     8
  0
BLOCK_RECORD
  5
18
102
{ACAD_XDICTIONARY
360
6E9
102
}
330
1
100
AcDbSymbolTableRecord
100
AcDbBlockTableRecord
  2
*MODEL_SPACE
  0
BLOCK_RECORD
  5
15
102
{ACAD_XDICTIONARY
360
59B
102
}
330
1
100
AcDbSymbolTableRecord
100
AcDbBlockTableRecord
  2
*PAPER_SPACE
  0
BLOCK_RECORD
  5
42
330
1
100
AcDbSymbolTableRecord
100
AcDbBlockTableRecord
  2
_OPEN30
  0
BLOCK_RECORD
  5
1FC0D
330
1
100
AcDbSymbolTableRecord
100
AcDbBlockTableRecord
  2
A3WAKUKAWAJUN2017_HYOUDAI_
  0
BLOCK_RECORD
  5
20587
330
1
100
AcDbSymbolTableRecord
100
AcDbBlockTableRecord
  2
*X44
  0
BLOCK_RECORD
  5
205D5
330
1
100
AcDbSymbolTableRecord
100
AcDbBlockTableRecord
  2
*X45
  0
BLOCK_RECORD
  5
20627
330
1
100
AcDbSymbolTableRecord
100
AcDbBlockTableRecord
  2
*X46
  0
BLOCK_RECORD
  5
20678
330
1
100
AcDbSymbolTableRecord
100
AcDbBlockTableRecord
  2
*X47
  0
BLOCK_RECORD
  5
206B5
330
1
100
AcDbSymbolTableRecord
100
AcDbBlockTableRecord
  2
*X48
  0
BLOCK_RECORD
  5
206F5
330
1
100
AcDbSymbolTableRecord
100
AcDbBlockTableRecord
  2
*X49
  0
ENDTAB
  0
ENDSEC
  0
SECTION
  2
BLOCKS
  0
BLOCK
  5
19
330
18
100
AcDbEntity
  8
0
100
AcDbBlockBegin
  2
*MODEL_SPACE
 70
     0
 10
0.0
 20
0.0
 30
0.0
  3
*MODEL_SPACE
  1

  0
ENDBLK
  5
1A
330
18
100
AcDbEntity
  8
0
100
AcDbBlockEnd
  0
BLOCK
  5
16
330
15
100
AcDbEntity
 67
     1
  8
0
100
AcDbBlockBegin
  2
*PAPER_SPACE
 70
     0
 10
0.0
 20
0.0
 30
0.0
  3
*PAPER_SPACE
  1

  0
ENDBLK
  5
17
330
15
100
AcDbEntity
 67
     1
  8
0
100
AcDbBlockEnd
  0
BLOCK
  5
43
330
42
100
AcDbEntity
  8
0
100
AcDbBlockBegin
  2
_OPEN30
 70
     0
 10
0.0
 20
0.0
 30
0.0
  3
_OPEN30
  1

  0
LINE
  5
44
330
42
100
AcDbEntity
  8
0
  6
BYBLOCK
 62
     0
100
AcDbLine
 10
-1.0
 20
0.26794919
 30
0.0
 11
0.0
 21
0.0
 31
0.0
  0
LINE
  5
45
330
42
100
AcDbEntity
  8
0
  6
BYBLOCK
 62
     0
100
AcDbLine
 10
0.0
 20
0.0
 30
0.0
 11
-1.0
 21
-0.26794919
 31
0.0
  0
LINE
  5
46
330
42
100
AcDbEntity
  8
0
  6
BYBLOCK
 62
     0
100
AcDbLine
 10
0.0
 20
0.0
 30
0.0
 11
-1.0
 21
0.0
 31
0.0
  0
ENDBLK
  5
47
330
42
100
AcDbEntity
  8
0
100
AcDbBlockEnd
  0
BLOCK
  5
2030C
330
1FC0D
100
AcDbEntity
  8
0
100
AcDbBlockBegin
  2
A3WAKUKAWAJUN2017_HYOUDAI_
 70
     0
 10
0.0
 20
0.0
 30
0.0
  3
A3WAKUKAWAJUN2017_HYOUDAI_
  1

  0
LINE
  5
1FC0F
330
1FC0D
100
AcDbEntity
  8
0
100
AcDbLine
 10
13.26299999998673
 20
-0.0001000000000317
 30
0.0
 11
9.236999999990758
 21
8.999899999990987
 31
0.0
1001
ACAD
1000
ASC_BOUNDS
1002
{
1070
    19
1005
1FC50
1002
}
  0
LINE
  5
1FC10
330
1FC0D
100
AcDbEntity
  8
0
100
AcDbLine
 10
5.657999999994331
 20
0.9999999999989768
 30
0.0
 11
9.236999999990758
 21
8.999999999991019
 31
0.0
1001
ACAD
1000
ASC_BOUNDS
1002
{
1070
    19
1005
1FC50
1002
}
  0
LINE
  5
1FC11
330
1FC0D
100
AcDbEntity
  8
0
100
AcDbLine
 10
18.59199999998134
 20
-0.2368999999997641
 30
0.0
 11
16.46099999998353
 21
5.432899999994561
 31
0.0
1001
ACAD
1000
ASC_BOUNDS
1002
{
1070
    19
1005
1FC51
1002
}
  0
LINE
  5
1FC12
330
1FC0D
100
AcDbEntity
  8
0
100
AcDbLine
 10
18.59199999998134
 20
-0.2368999999997641
 30
0.0
 11
22.38199999997767
 21
8.763099999991255
 31
0.0
1001
ACAD
1000
ASC_BOUNDS
1002
{
1070
    19
1005
1FC51
1002
}
  0
LINE
  5
1FC13
330
1FC0D
100
AcDbEntity
  8
0
100
AcDbLine
 10
14.32899999998563
 20
-0.2368999999997641
 30
0.0
 11
16.46099999998353
 21
5.432899999994561
 31
0.0
1001
ACAD
1000
ASC_BOUNDS
1002
{
1070
    19
1005
1FC51
1002
}
  0
LINE
  5
1FC14
330
1FC0D
100
AcDbEntity
  8
0
100
AcDbLine
 10
14.32899999998563
 20
-0.2368999999997641
 30
0.0
 11
10.53899999998941
 21
8.763099999991255
 31
0.0
1001
ACAD
1000
ASC_BOUNDS
1002
{
1070
    19
1005
1FC51
1002
}
  0
LINE
  5
1FC15
330
1FC0D
100
AcDbEntity
  8
0
100
AcDbLine
 10
19.53899999998043
 20
-0.0001000000000317
 30
0.0
 11
23.56599999997638
 21
8.999899999990987
 31
0.0
1001
ACAD
1000
ASC_BOUNDS
1002
{
1070
    19
1005
1FC52
1002
}
  0
LINE
  5
1FC16
330
1FC0D
100
AcDbEntity
  8
0
100
AcDbLine
 10
26.97358892824991
 20
1.383099999991202
 30
0.0
 11
23.56599999997638
 21
8.999899999990987
 31
0.0
1001
ACAD
1000
ASC_BOUNDS
1002
{
1070
    19
1005
1FC52
1002
}
  0
LINE
  5
1FC17
330
1FC0D
100
AcDbEntity
  8
0
100
AcDbLine
 10
5.657999999994331
 20
0.9999999999989768
 30
0.0
 11
3.181999999996833
 21
4.668599999995308
 31
0.0
1001
ACAD
1000
ASC_BOUNDS
1002
{
1070
    19
1005
1FC50
1002
}
  0
LINE
  5
1FC18
330
1FC0D
100
AcDbEntity
  8
0
100
AcDbLine
 10
4.617999999995391
 20
-0.0001000000000317
 30
0.0
 11
1.420999999998571
 21
4.736799999995242
 31
0.0
1001
ACAD
1000
ASC_BOUNDS
1002
{
1070
    19
1005
1FC50
1002
}
  0
LINE
  5
1FC19
330
1FC0D
100
AcDbEntity
  8
0
100
AcDbLine
 10
1.420999999998571
 20
8.763099999991255
 30
0.0
 11
1.420999999998571
 21
0.0
 31
0.0
1001
ACAD
1000
ASC_BOUNDS
1002
{
1070
    19
1005
1FC55
1002
}
  0
LINE
  5
1FC1A
330
1FC0D
100
AcDbEntity
  8
0
100
AcDbLine
 10
0.0
 20
8.763099999991255
 30
0.0
 11
0.0
 21
0.0
 31
0.0
1001
ACAD
1000
ASC_BOUNDS
1002
{
1070
    19
1005
1FC55
1002
}
  0
LINE
  5
1FC1B
330
1FC0D
100
AcDbEntity
  8
0
100
AcDbLine
 10
6.766999999993232
 20
-0.0001000000000317
 30
0.0
 11
7.826999999992154
 21
2.368399999997621
 31
0.0
1001
ACAD
1000
ASC_BOUNDS
1002
{
1070
    19
1005
1FC50
1002
}
  0
LINE
  5
1FC1C
330
1FC0D
100
AcDbEntity
  8
0
100
AcDbLine
 10
0.0
 20
0.0
 30
0.0
 11
1.420999999998571
 21
0.0
 31
0.0
1001
ACAD
1000
ASC_BOUNDS
1002
{
1070
    19
1005
1FC55
1002
}
  0
LINE
  5
1FC1D
330
1FC0D
100
AcDbEntity
  8
0
100
AcDbLine
 10
4.617999999995391
 20
0.0
 30
0.0
 11
6.766999999993232
 21
0.0
 31
0.0
1001
ACAD
1000
ASC_BOUNDS
1002
{
1070
    19
1005
1FC50
1002
}
  0
LINE
  5
1FC1E
330
1FC0D
100
AcDbEntity
  8
0
100
AcDbLine
 10
11.70599999998831
 20
-0.0001000000000317
 30
0.0
 11
10.64699999998936
 21
2.368399999997621
 31
0.0
1001
ACAD
1000
ASC_BOUNDS
1002
{
1070
    19
1005
1FC50
1002
}
  0
LINE
  5
1FC1F
330
1FC0D
100
AcDbEntity
  8
0
100
AcDbLine
 10
7.826999999992154
 20
2.368399999997621
 30
0.0
 11
10.64699999998936
 21
2.368399999997621
 31
0.0
1001
ACAD
1000
ASC_BOUNDS
1002
{
1070
    19
1005
1FC50
1002
}
  0
LINE
  5
1FC20
330
1FC0D
100
AcDbEntity
  8
0
100
AcDbLine
 10
11.70599999998831
 20
0.0
 30
0.0
 11
13.26299999998673
 21
0.0
 31
0.0
1001
ACAD
1000
ASC_BOUNDS
1002
{
1070
    19
1005
1FC50
1002
}
  0
LINE
  5
1FC21
330
1FC0D
100
AcDbEntity
  8
0
100
AcDbLine
 10
22.15599999997789
 20
2.368399999997621
 30
0.0
 11
24.97599999997499
 21
2.368399999997621
 31
0.0
1001
ACAD
1000
ASC_BOUNDS
1002
{
1070
    19
1005
1FC52
1002
}
  0
LINE
  5
1FC22
330
1FC0D
100
AcDbEntity
  8
0
100
AcDbLine
 10
19.53899999998043
 20
0.0
 30
0.0
 11
21.09599999997886
 21
0.0
 31
0.0
1001
ACAD
1000
ASC_BOUNDS
1002
{
1070
    19
1005
1FC52
1002
}
  0
LINE
  5
1FC23
330
1FC0D
100
AcDbEntity
  8
0
100
AcDbLine
 10
21.09599999997886
 20
-0.0001000000000317
 30
0.0
 11
22.15599999997789
 21
2.368399999997621
 31
0.0
1001
ACAD
1000
ASC_BOUNDS
1002
{
1070
    19
1005
1FC52
1002
}
  0
LINE
  5
1FC24
330
1FC0D
100
AcDbEntity
  8
0
100
AcDbLine
 10
26.02015566812236
 20
0.0330999999912365
 30
0.0
 11
24.97599999997499
 21
2.368399999997621
 31
0.0
1001
ACAD
1000
ASC_BOUNDS
1002
{
1070
    19
1005
1FC52
1002
}
  0
LINE
  5
1FC25
330
1FC0D
100
AcDbEntity
  8
0
100
AcDbLine
 10
14.32399999998563
 20
3.315799999996671
 30
0.0
 11
16.46099999998353
 21
8.999899999990987
 31
0.0
1001
ACAD
1000
ASC_BOUNDS
1002
{
1070
    19
1005
1FC51
1002
}
  0
LINE
  5
1FC26
330
1FC0D
100
AcDbEntity
  8
0
100
AcDbLine
 10
6.432999999993513
 20
8.763099999991255
 30
0.0
 11
3.181999999996833
 21
4.668599999995308
 31
0.0
1001
ACAD
1000
ASC_BOUNDS
1002
{
1070
    19
1005
1FC50
1002
}
  0
LINE
  5
1FC27
330
1FC0D
100
AcDbEntity
  8
0
100
AcDbLine
 10
4.617999999995391
 20
8.763099999991255
 30
0.0
 11
1.420999999998571
 21
4.736799999995242
 31
0.0
1001
ACAD
1000
ASC_BOUNDS
1002
{
1070
    19
1005
1FC50
1002
}
  0
LINE
  5
1FC28
330
1FC0D
100
AcDbEntity
  8
0
100
AcDbLine
 10
0.0
 20
8.763099999991255
 30
0.0
 11
1.420999999998571
 21
8.763099999991255
 31
0.0
1001
ACAD
1000
ASC_BOUNDS
1002
{
1070
    19
1005
1FC55
1002
}
  0
LINE
  5
1FC29
330
1FC0D
100
AcDbEntity
  8
0
100
AcDbLine
 10
4.617999999995391
 20
8.763099999991255
 30
0.0
 11
6.432999999993513
 21
8.763099999991255
 31
0.0
1001
ACAD
1000
ASC_BOUNDS
1002
{
1070
    19
1005
1FC50
1002
}
  0
LINE
  5
1FC2A
330
1FC0D
100
AcDbEntity
  8
0
100
AcDbLine
 10
14.32399999998563
 20
3.315799999996671
 30
0.0
 11
12.02999999998792
 21
8.763099999991255
 31
0.0
1001
ACAD
1000
ASC_BOUNDS
1002
{
1070
    19
1005
1FC51
1002
}
  0
LINE
  5
1FC2B
330
1FC0D
100
AcDbEntity
  8
0
100
AcDbLine
 10
10.06399999998996
 20
3.670999999996297
 30
0.0
 11
9.236999999990758
 21
5.5200999999945
 31
0.0
1001
ACAD
1000
ASC_BOUNDS
1002
{
1070
    19
1005
1FC50
1002
}
  0
LINE
  5
1FC2C
330
1FC0D
100
AcDbEntity
  8
0
100
AcDbLine
 10
8.409999999991555
 20
3.670999999996297
 30
0.0
 11
9.236999999990758
 21
5.5200999999945
 31
0.0
1001
ACAD
1000
ASC_BOUNDS
1002
{
1070
    19
1005
1FC50
1002
}
  0
LINE
  5
1FC2D
330
1FC0D
100
AcDbEntity
  8
0
100
AcDbLine
 10
8.409999999991555
 20
3.670999999996297
 30
0.0
 11
10.06399999998996
 21
3.670999999996297
 31
0.0
1001
ACAD
1000
ASC_BOUNDS
1002
{
1070
    19
1005
1FC50
1002
}
  0
LINE
  5
1FC2E
330
1FC0D
100
AcDbEntity
  8
0
100
AcDbLine
 10
10.53899999998941
 20
8.763099999991255
 30
0.0
 11
12.02999999998792
 21
8.763099999991255
 31
0.0
1001
ACAD
1000
ASC_BOUNDS
1002
{
1070
    19
1005
1FC51
1002
}
  0
LINE
  5
1FC2F
330
1FC0D
100
AcDbEntity
  8
0
100
AcDbLine
 10
22.7389999999773
 20
3.670999999996297
 30
0.0
 11
23.56599999997638
 21
5.5200999999945
 31
0.0
1001
ACAD
1000
ASC_BOUNDS
1002
{
1070
    19
1005
1FC52
1002
}
  0
LINE
  5
1FC30
330
1FC0D
100
AcDbEntity
  8
0
100
AcDbLine
 10
22.7389999999773
 20
3.670999999996297
 30
0.0
 11
24.39299999997559
 21
3.670999999996297
 31
0.0
1001
ACAD
1000
ASC_BOUNDS
1002
{
1070
    19
1005
1FC52
1002
}
  0
LINE
  5
1FC31
330
1FC0D
100
AcDbEntity
  8
0
100
AcDbLine
 10
18.59799999998143
 20
3.315799999996671
 30
0.0
 11
20.89099999997916
 21
8.763099999991255
 31
0.0
1001
ACAD
1000
ASC_BOUNDS
1002
{
1070
    19
1005
1FC51
1002
}
  0
LINE
  5
1FC32
330
1FC0D
100
AcDbEntity
  8
0
100
AcDbLine
 10
18.59799999998143
 20
3.315799999996671
 30
0.0
 11
16.46099999998353
 21
8.999899999990987
 31
0.0
1001
ACAD
1000
ASC_BOUNDS
1002
{
1070
    19
1005
1FC51
1002
}
  0
LINE
  5
1FC33
330
1FC0D
100
AcDbEntity
  8
0
100
AcDbLine
 10
20.89099999997916
 20
8.763099999991255
 30
0.0
 11
22.38199999997767
 21
8.763099999991255
 31
0.0
1001
ACAD
1000
ASC_BOUNDS
1002
{
1070
    19
1005
1FC51
1002
}
  0
LINE
  5
1FC34
330
1FC0D
100
AcDbEntity
  8
0
100
AcDbLine
 10
24.39299999997559
 20
3.670999999996297
 30
0.0
 11
23.56599999997638
 21
5.5200999999945
 31
0.0
1001
ACAD
1000
ASC_BOUNDS
1002
{
1070
    19
1005
1FC52
1002
}
  0
LINE
  5
1FC35
330
1FC0D
100
AcDbEntity
  8
0
100
AcDbLine
 10
44.99999999995498
 20
-0.2368999999997641
 30
0.0
 11
40.02599999995994
 21
5.341799999994635
 31
0.0
1001
ACAD
1000
ASC_BOUNDS
1002
{
1070
    19
1005
1FC54
1002
}
  0
LINE
  5
1FC36
330
1FC0D
100
AcDbEntity
  8
0
100
AcDbLine
 10
40.02599999995994
 20
5.341799999994635
 30
0.0
 11
40.02599999995994
 21
0.0
 31
0.0
1001
ACAD
1000
ASC_BOUNDS
1002
{
1070
    19
1005
1FC54
1002
}
  0
LINE
  5
1FC37
330
1FC0D
100
AcDbEntity
  8
0
100
AcDbLine
 10
38.60499999996136
 20
8.999999999991019
 30
0.0
 11
38.60499999996136
 21
0.0
 31
0.0
1001
ACAD
1000
ASC_BOUNDS
1002
{
1070
    19
1005
1FC54
1002
}
  0
LINE
  5
1FC38
330
1FC0D
100
AcDbEntity
  8
0
100
AcDbLine
 10
44.99999999995498
 20
8.763099999991255
 30
0.0
 11
44.99999999995498
 21
-0.2368999999997641
 31
0.0
1001
ACAD
1000
ASC_BOUNDS
1002
{
1070
    19
1005
1FC54
1002
}
  0
LINE
  5
1FC39
330
1FC0D
100
AcDbEntity
  8
0
100
AcDbLine
 10
38.60499999996136
 20
0.0
 30
0.0
 11
40.02599999995994
 21
0.0
 31
0.0
1001
ACAD
1000
ASC_BOUNDS
1002
{
1070
    19
1005
1FC54
1002
}
  0
LINE
  5
1FC3A
330
1FC0D
100
AcDbEntity
  8
0
100
AcDbLine
 10
43.57899999995641
 20
3.421199999996588
 30
0.0
 11
38.60499999996136
 21
8.999899999990987
 31
0.0
1001
ACAD
1000
ASC_BOUNDS
1002
{
1070
    19
1005
1FC54
1002
}
  0
LINE
  5
1FC3B
330
1FC0D
100
AcDbEntity
  8
0
100
AcDbLine
 10
43.57899999995641
 20
8.763099999991255
 30
0.0
 11
43.57899999995641
 21
3.421199999996588
 31
0.0
1001
ACAD
1000
ASC_BOUNDS
1002
{
1070
    19
1005
1FC54
1002
}
  0
LINE
  5
1FC3C
330
1FC0D
100
AcDbEntity
  8
0
100
AcDbLine
 10
43.57899999995641
 20
8.763099999991255
 30
0.0
 11
44.99999999995498
 21
8.763099999991255
 31
0.0
1001
ACAD
1000
ASC_BOUNDS
1002
{
1070
    19
1005
1FC54
1002
}
  0
LINE
  5
1FC3D
330
1FC0D
100
AcDbEntity
  8
0
100
AcDbLine
 10
37.67199999996831
 20
8.763099999991255
 30
0.0
 11
36.23199999996837
 21
8.763099999991255
 31
0.0
  0
LINE
  5
1FC3E
330
1FC0D
100
AcDbEntity
  8
0
100
AcDbLine
 10
31.64199999996833
 20
8.763099999991255
 30
0.0
 11
31.64199999996833
 21
2.481619422925121
 31
0.0
  0
LINE
  5
1FC3F
330
1FC0D
100
AcDbEntity
  8
0
100
AcDbLine
 10
37.67199999996831
 20
8.763099999991255
 30
0.0
 11
37.67199999996831
 21
2.481619422925121
 31
0.0
  0
LINE
  5
1FC40
330
1FC0D
100
AcDbEntity
  8
0
100
AcDbLine
 10
36.23199999996837
 20
8.763099999991255
 30
0.0
 11
36.23199999996837
 21
2.481619422925064
 31
0.0
  0
LINE
  5
1FC41
330
1FC0D
100
AcDbEntity
  8
0
100
AcDbLine
 10
33.08199999996839
 20
8.763099999991255
 30
0.0
 11
33.08199999996839
 21
2.481619422925121
 31
0.0
  0
ARC
  5
1FC42
330
1FC0D
100
AcDbEntity
  8
0
100
AcDbCircle
 10
34.65699999996832
 20
3.183099999991214
 30
0.0
 40
3.420000000000007
100
AcDbArc
 50
240.0000000000255
 51
299.9999999999766
  0
ARC
  5
1FC43
330
1FC0D
100
AcDbEntity
  8
0
100
AcDbCircle
 10
34.65699999996832
 20
3.183099999991214
 30
0.0
 40
1.97999999999999
100
AcDbArc
 50
240.000000000026
 51
299.9999999999703
  0
LINE
  5
1FC44
330
1FC0D
100
AcDbEntity
  8
0
100
AcDbLine
 10
33.08199999996828
 20
8.763099999991255
 30
0.0
 11
31.64199999996833
 21
8.763099999991255
 31
0.0
  0
ARC
  5
1FC45
330
1FC0D
100
AcDbEntity
  8
0
100
AcDbCircle
 10
35.06199999996829
 20
2.481619422925064
 30
0.0
 40
1.17
100
AcDbArc
 50
299.9999999999699
 51
0.0
  0
ARC
  5
1FC46
330
1FC0D
100
AcDbEntity
  8
0
100
AcDbCircle
 10
34.25199999996835
 20
2.481619422925121
 30
0.0
 40
1.17
100
AcDbArc
 50
180.0
 51
240.0000000000238
  0
ARC
  5
1FC47
330
1FC0D
100
AcDbEntity
  8
0
100
AcDbCircle
 10
35.06199999996841
 20
2.481619422925121
 30
0.0
 40
2.61
100
AcDbArc
 50
299.9999999999756
 51
0.0
  0
ARC
  5
1FC48
330
1FC0D
100
AcDbEntity
  8
0
100
AcDbCircle
 10
34.25199999996835
 20
2.481619422925121
 30
0.0
 40
2.61
100
AcDbArc
 50
180.0
 51
240.0000000000244
  0
LINE
  5
1FC49
330
1FC0D
100
AcDbEntity
  8
0
100
AcDbLine
 10
29.30199999996933
 20
8.763099999991255
 30
0.0
 11
30.74199999996927
 21
8.763099999991255
 31
0.0
1001
ACAD
1000
ASC_BOUNDS
1002
{
1070
    19
1005
1FC52
1002
}
  0
LINE
  5
1FC4A
330
1FC0D
100
AcDbEntity
  8
0
100
AcDbLine
 10
30.74199999996927
 20
8.763099999991255
 30
0.0
 11
30.74199999996927
 21
2.373099999991211
 31
0.0
1001
ACAD
1000
ASC_BOUNDS
1002
{
1070
    19
1005
1FC52
1002
}
  0
LINE
  5
1FC4B
330
1FC0D
100
AcDbEntity
  8
0
100
AcDbLine
 10
26.02015566812236
 20
0.0330999999912365
 30
0.0
 11
28.40199999996923
 21
0.0330999999912365
 31
0.0
1001
ACAD
1000
ASC_BOUNDS
1002
{
1070
    19
1005
1FC52
1002
}
  0
LINE
  5
1FC4C
330
1FC0D
100
AcDbEntity
  8
0
100
AcDbLine
 10
29.30199999996933
 20
8.763099999991255
 30
0.0
 11
29.30199999996933
 21
2.283099999991236
 31
0.0
1001
ACAD
1000
ASC_BOUNDS
1002
{
1070
    19
1005
1FC52
1002
}
  0
LINE
  5
1FC4D
330
1FC0D
100
AcDbEntity
  8
0
100
AcDbLine
 10
26.97358892824991
 20
1.383099999991202
 30
0.0
 11
28.40199999996923
 21
1.383099999991202
 31
0.0
1001
ACAD
1000
ASC_BOUNDS
1002
{
1070
    19
1005
1FC52
1002
}
  0
ARC
  5
1FC4E
330
1FC0D
100
AcDbEntity
  8
0
100
AcDbCircle
 10
28.40199999996923
 20
2.283099999991236
 30
0.0
 40
0.9
100
AcDbArc
 50
270.0
 51
0.0
1001
ACAD
1000
ASC_BOUNDS
1002
{
1070
    19
1005
1FC52
1002
}
  0
ARC
  5
1FC4F
330
1FC0D
100
AcDbEntity
  8
0
100
AcDbCircle
 10
28.40199999996923
 20
2.373099999991211
 30
0.0
 40
2.34
100
AcDbArc
 50
270.0
 51
0.0
1001
ACAD
1000
ASC_BOUNDS
1002
{
1070
    19
1005
1FC52
1002
}
  0
INSERT
  5
1FC50
330
1FC0D
100
AcDbEntity
  8
0
100
AcDbBlockReference
  2
*X44
 10
0.0
 20
0.0
 30
0.0
1001
ACAD
1000
HATCH
1002
{
1070
    19
1000
ANSI37
1040
0.15
1040
0.0
1000
ASC_BOUNDS
1070
     2
1070
     2
1070
    12
1005
1FC0F
1005
1FC10
1005
1FC17
1005
1FC26
1005
1FC29
1005
1FC27
1005
1FC18
1005
1FC1D
1005
1FC1B
1005
1FC1F
1005
1FC1E
1005
1FC20
1070
     2
1070
     3
1005
1FC2B
1005
1FC2D
1005
1FC2C
1000
ASC_SEEDPOINT
1011
3.614004224891801
1021
2.996669441146025
1031
0.0
1000
R14_HATCH_DATA
1000
1FC50
1011
1.0
1021
0.0
1031
0.0
1011
0.0
1021
1.0
1031
0.0
1011
0.0
1021
0.0
1031
1.0
1040
0.0
1010
0.0
1020
0.0
1030
1.0
1000
ANSI37
1070
     0
1070
     1
1071
        2
1071
        7
1070
     0
1070
     1
1071
       17
1040
13.26299999998673
1040
-0.0001000000000317
1040
9.236999999990758
1040
8.999899999990987
1040
9.236999999990758
1040
8.999999999991019
1040
5.657999999994331
1040
0.9999999999989768
1040
3.181999999996833
1040
4.668599999995308
1040
6.432999999993513
1040
8.763099999991255
1040
4.617999999995391
1040
8.763099999991255
1040
1.420999999998571
1040
4.736799999995242
1040
4.617999999995391
1040
-0.0001000000000317
1040
4.617999999995391
1040
0.0
1040
6.766999999993232
1040
0.0
1040
6.766999999993232
1040
-0.0001000000000317
1040
7.826999999992154
1040
2.368399999997621
1040
10.64699999998936
1040
2.368399999997621
1040
11.70599999998831
1040
-0.0001000000000317
1040
11.70599999998831
1040
0.0
1040
13.26299999998673
1040
0.0
1071
       12
1005
1FC0F
1005
1FC10
1005
1FC17
1005
1FC26
1005
1FC29
1005
1FC27
1005
1FC18
1005
1FC1D
1005
1FC1B
1005
1FC1F
1005
1FC1E
1005
1FC20
1071
       22
1070
     0
1070
     1
1071
        3
1040
9.236999999990758
1040
5.5200999999945
1040
10.06399999998996
1040
3.670999999996297
1040
8.409999999991555
1040
3.670999999996297
1071
        3
1005
1FC2B
1005
1FC2D
1005
1FC2C
1070
     0
1070
     1
1040
0.0
1040
0.15
1070
     0
1070
     2
1040
0.7853981633974483
1040
49.29960901727088
1040
-10.17736998311392
1040
-0.3367596045400932
1040
0.3367596045400932
1070
     0
1040
2.356194490192345
1040
49.29960901727088
1040
-10.17736998311392
1040
-0.3367596045400932
1040
-0.3367596045400932
1070
     0
1040
0.0110235143455945
1071
        2
1040
3.614004224891801
1040
2.996669441146025
1040
0.0
1040
3.614004224891801
1040
2.996669441146025
1040
0.0
1002
}
  0
INSERT
  5
1FC51
330
1FC0D
100
AcDbEntity
  8
0
100
AcDbBlockReference
  2
*X45
 10
0.0
 20
0.0
 30
0.0
1001
ACAD
1000
HATCH
1002
{
1070
    19
1000
ANSI37
1040
0.15
1040
0.0
1000
ASC_BOUNDS
1070
     1
1070
     2
1070
    10
1005
1FC11
1005
1FC12
1005
1FC33
1005
1FC31
1005
1FC32
1005
1FC25
1005
1FC2A
1005
1FC2E
1005
1FC14
1005
1FC13
1000
ASC_SEEDPOINT
1011
14.73245321214324
1021
2.798246178283421
1031
0.0
1000
R14_HATCH_DATA
1000
1FC51
1011
1.0
1021
0.0
1031
0.0
1011
0.0
1021
1.0
1031
0.0
1011
0.0
1021
0.0
1031
1.0
1040
0.0
1010
0.0
1020
0.0
1030
1.0
1000
ANSI37
1070
     0
1070
     1
1071
        1
1071
        7
1070
     0
1070
     1
1071
       10
1040
16.46099999998353
1040
5.432899999994561
1040
18.59199999998134
1040
-0.2368999999997641
1040
22.38199999997767
1040
8.763099999991255
1040
20.89099999997916
1040
8.763099999991255
1040
18.59799999998143
1040
3.315799999996671
1040
16.46099999998353
1040
8.999899999990987
1040
14.32399999998563
1040
3.315799999996671
1040
12.02999999998792
1040
8.763099999991255
1040
10.53899999998941
1040
8.763099999991255
1040
14.32899999998563
1040
-0.2368999999997641
1071
       10
1005
1FC11
1005
1FC12
1005
1FC33
1005
1FC31
1005
1FC32
1005
1FC25
1005
1FC2A
1005
1FC2E
1005
1FC14
1005
1FC13
1070
     0
1070
     1
1040
0.0
1040
0.15
1070
     0
1070
     2
1040
0.7853981633974483
1040
49.29960901727088
1040
-10.17736998311392
1040
-0.3367596045400932
1040
0.3367596045400932
1070
     0
1040
2.356194490192345
1040
49.29960901727088
1040
-10.17736998311392
1040
-0.3367596045400932
1040
-0.3367596045400932
1070
     0
1040
0.0110235143455945
1071
        1
1040
14.73245321214324
1040
2.798246178283421
1040
0.0
1002
}
  0
INSERT
  5
1FC52
330
1FC0D
100
AcDbEntity
  8
0
100
AcDbBlockReference
  2
*X46
 10
0.0
 20
0.0
 30
0.0
1001
ACAD
1000
HATCH
1002
{
1070
    19
1000
ANSI37
1040
0.15
1040
0.0
1000
ASC_BOUNDS
1070
     2
1070
     2
1070
    13
1005
1FC15
1005
1FC22
1005
1FC23
1005
1FC21
1005
1FC24
1005
1FC4B
1005
1FC4F
1005
1FC4A
1005
1FC49
1005
1FC4C
1005
1FC4E
1005
1FC4D
1005
1FC16
1070
     2
1070
     3
1005
1FC2F
1005
1FC34
1005
1FC30
1000
ASC_SEEDPOINT
1011
21.97929957367762
1021
3.294304244259308
1031
0.0
1000
R14_HATCH_DATA
1000
1FC52
1011
1.0
1021
0.0
1031
0.0
1011
0.0
1021
1.0
1031
0.0
1011
0.0
1021
0.0
1031
1.0
1040
0.0
1010
0.0
1020
0.0
1030
1.0
1000
ANSI37
1070
     0
1070
     1
1071
        2
1071
        7
1070
     1
1070
     1
1071
       15
1040
23.56599999997638
1040
8.999899999990987
1040
0.0
1040
19.53899999998043
1040
-0.0001000000000317
1040
0.0
1040
19.53899999998043
1040
0.0
1040
0.0
1040
21.09599999997886
1040
0.0
1040
0.0
1040
21.09599999997886
1040
-0.0001000000000317
1040
0.0
1040
22.15599999997789
1040
2.368399999997621
1040
0.0
1040
24.97599999997499
1040
2.368399999997621
1040
0.0
1040
26.02015566812236
1040
0.0330999999912365
1040
0.0
1040
28.40199999996923
1040
0.0330999999912365
1040
0.414213562373095
1040
30.74199999996923
1040
2.373099999991211
1040
0.0
1040
30.74199999996927
1040
8.763099999991255
1040
0.0
1040
29.30199999996933
1040
8.763099999991255
1040
0.0
1040
29.30199999996933
1040
2.283099999991236
1040
-0.414213562373095
1040
28.40199999996923
1040
1.383099999991237
1040
0.0
1040
26.97358892824991
1040
1.383099999991202
1040
0.0
1071
       13
1005
1FC15
1005
1FC22
1005
1FC23
1005
1FC21
1005
1FC24
1005
1FC4B
1005
1FC4F
1005
1FC4A
1005
1FC49
1005
1FC4C
1005
1FC4E
1005
1FC4D
1005
1FC16
1071
       22
1070
     0
1070
     1
1071
        3
1040
22.7389999999773
1040
3.670999999996297
1040
23.56599999997638
1040
5.5200999999945
1040
24.39299999997559
1040
3.670999999996297
1071
        3
1005
1FC2F
1005
1FC34
1005
1FC30
1070
     0
1070
     1
1040
0.0
1040
0.15
1070
     0
1070
     2
1040
0.7853981633974483
1040
49.29960901727088
1040
-10.17736998311392
1040
-0.3367596045400932
1040
0.3367596045400932
1070
     0
1040
2.356194490192345
1040
49.29960901727088
1040
-10.17736998311392
1040
-0.3367596045400932
1040
-0.3367596045400932
1070
     0
1040
0.0110235143455945
1071
        2
1040
21.97929957367762
1040
3.294304244259308
1040
0.0
1040
21.97929957367762
1040
3.294304244259308
1040
0.0
1002
}
  0
INSERT
  5
1FC53
330
1FC0D
100
AcDbEntity
  8
0
100
AcDbBlockReference
  2
*X47
 10
0.0
 20
0.0
 30
0.0
1001
ACAD
1000
HATCH
1002
{
1070
    19
1000
ANSI37
1040
0.15
1040
0.0
1000
R14_HATCH_DATA
1000
1FC53
1011
1.0
1021
0.0
1031
0.0
1011
0.0
1021
1.0
1031
0.0
1011
0.0
1021
0.0
1031
1.0
1040
0.0
1010
0.0
1020
0.0
1030
1.0
1000
ANSI37
1070
     0
1070
     1
1071
        1
1071
        7
1070
     1
1070
     1
1071
       12
1040
31.64199999996833
1040
2.481619422925121
1040
0.2679491924310942
1040
32.94699999997067
1040
0.2212931190493919
1040
0.2679491924301353
1040
36.36699999995983
1040
0.2212931190459813
1040
0.2679491924321411
1040
37.67199999996831
1040
2.481619422928361
1040
0.0
1040
37.67199999996831
1040
8.763099999991255
1040
0.0
1040
36.23199999996837
1040
8.763099999991255
1040
0.0
1040
36.23199999996837
1040
2.481619422925064
1040
-0.2679491924310291
1040
35.64699999996708
1040
1.468369700498386
1040
-0.267949192430519
1040
33.66699999997093
1040
1.468369700497703
1040
-0.267949192431809
1040
33.08199999996839
1040
2.481619422926997
1040
0.0
1040
33.08199999996839
1040
8.763099999991255
1040
0.0
1040
31.64199999996833
1040
8.763099999991255
1040
0.0
1071
        0
1070
     0
1070
     1
1040
0.0
1040
0.15
1070
     0
1070
     2
1040
0.7853981633974483
1040
49.29960901727088
1040
-10.17736998311392
1040
-0.3367596045400932
1040
0.3367596045400932
1070
     0
1040
2.356194490192345
1040
49.29960901727088
1040
-10.17736998311392
1040
-0.3367596045400932
1040
-0.3367596045400932
1070
     0
1040
0.0110235143455945
1071
        1
1040
32.30357378967278
1040
3.988785755459219
1040
0.0
1002
}
  0
INSERT
  5
1FC54
330
1FC0D
100
AcDbEntity
  8
0
100
AcDbBlockReference
  2
*X48
 10
0.0
 20
0.0
 30
0.0
1001
ACAD
1000
HATCH
1002
{
1070
    19
1000
ANSI37
1040
0.15
1040
0.0
1000
ASC_BOUNDS
1070
     1
1070
     2
1070
     8
1005
1FC35
1005
1FC38
1005
1FC3C
1005
1FC3B
1005
1FC3A
1005
1FC37
1005
1FC39
1005
1FC36
1000
ASC_SEEDPOINT
1011
39.74896370716704
1021
4.484843821435049
1031
0.0
1000
R14_HATCH_DATA
1000
1FC54
1011
1.0
1021
0.0
1031
0.0
1011
0.0
1021
1.0
1031
0.0
1011
0.0
1021
0.0
1031
1.0
1040
0.0
1010
0.0
1020
0.0
1030
1.0
1000
ANSI37
1070
     0
1070
     1
1071
        1
1071
        7
1070
     0
1070
     1
1071
        9
1040
40.02599999995994
1040
5.341799999994635
1040
44.99999999995498
1040
-0.2368999999997641
1040
44.99999999995498
1040
8.763099999991255
1040
43.57899999995641
1040
8.763099999991255
1040
43.57899999995641
1040
3.421199999996588
1040
38.60499999996136
1040
8.999899999990987
1040
38.60499999996136
1040
8.999999999991019
1040
38.60499999996136
1040
0.0
1040
40.02599999995994
1040
0.0
1071
        8
1005
1FC35
1005
1FC38
1005
1FC3C
1005
1FC3B
1005
1FC3A
1005
1FC37
1005
1FC39
1005
1FC36
1070
     0
1070
     1
1040
0.0
1040
0.15
1070
     0
1070
     2
1040
0.7853981633974483
1040
49.29960901727088
1040
-10.17736998311392
1040
-0.3367596045400932
1040
0.3367596045400932
1070
     0
1040
2.356194490192345
1040
49.29960901727088
1040
-10.17736998311392
1040
-0.3367596045400932
1040
-0.3367596045400932
1070
     0
1040
0.0110235143455945
1071
        1
1040
39.74896370716704
1040
4.484843821435049
1040
0.0
1002
}
  0
INSERT
  5
1FC55
330
1FC0D
100
AcDbEntity
  8
0
100
AcDbBlockReference
  2
*X49
 10
0.0
 20
0.0
 30
0.0
1001
ACAD
1000
HATCH
1002
{
1070
    19
1000
ANSI37
1040
0.15
1040
0.0
1000
ASC_BOUNDS
1070
     1
1070
     2
1070
     4
1005
1FC19
1005
1FC28
1005
1FC1A
1005
1FC1C
1000
ASC_SEEDPOINT
1011
1.079051535452663
1021
4.148538732891836
1031
0.0
1000
R14_HATCH_DATA
1000
1FC55
1011
1.0
1021
0.0
1031
0.0
1011
0.0
1021
1.0
1031
0.0
1011
0.0
1021
0.0
1031
1.0
1040
0.0
1010
0.0
1020
0.0
1030
1.0
1000
ANSI37
1070
     0
1070
     1
1071
        1
1071
        7
1070
     0
1070
     1
1071
        4
1040
1.420999999998571
1040
0.0
1040
1.420999999998571
1040
8.763099999991255
1040
0.0
1040
8.763099999991255
1040
0.0
1040
0.0
1071
        4
1005
1FC19
1005
1FC28
1005
1FC1A
1005
1FC1C
1070
     0
1070
     1
1040
0.0
1040
0.15
1070
     0
1070
     2
1040
0.7853981633974483
1040
49.29960901727088
1040
-10.17736998311392
1040
-0.3367596045400932
1040
0.3367596045400932
1070
     0
1040
2.356194490192345
1040
49.29960901727088
1040
-10.17736998311392
1040
-0.3367596045400932
1040
-0.3367596045400932
1070
     0
1040
0.0053004257112761
1071
        1
1040
1.079051535452663
1040
4.148538732891836
1040
0.0
1002
}
  0
ENDBLK
  5
2030D
330
1FC0D
100
AcDbEntity
  8
0
100
AcDbBlockEnd
  0
BLOCK
  5
20715
330
20587
100
AcDbEntity
  8
0
100
AcDbBlockBegin
  2
*X44
 70
     1
 10
0.0
 20
0.0
 30
0.0
  3
*X44
  1

  0
LINE
  5
20588
330
20587
100
AcDbEntity
  8
0
  6
CONTINUOUS
100
AcDbLine
 10
3.418023043697893
 20
7.251849696850613
 30
0.0
 11
4.929273346838536
 21
8.763099999991255
 31
0.0
  0
LINE
  5
20589
330
20587
100
AcDbEntity
  8
0
  6
CONTINUOUS
100
AcDbLine
 10
1.483656411257782
 20
4.643963855330318
 30
0.0
 11
5.60279255591872
 21
8.763099999991255
 31
0.0
  0
LINE
  5
2058A
330
20587
100
AcDbEntity
  8
0
  6
CONTINUOUS
100
AcDbLine
 10
1.755053947328235
 20
4.241842182320584
 30
0.0
 11
6.276311764998907
 21
8.763099999991255
 31
0.0
  0
LINE
  5
2058B
330
20587
100
AcDbEntity
  8
0
  6
CONTINUOUS
100
AcDbLine
 10
2.026451483398688
 20
3.839720509310849
 30
0.0
 11
4.441040904851878
 21
6.254309930764039
 31
0.0
  0
LINE
  5
2058C
330
20587
100
AcDbEntity
  8
0
  6
CONTINUOUS
100
AcDbLine
 10
2.297849019469139
 20
3.437598836301114
 30
0.0
 11
3.321765168359338
 21
4.461514985191313
 31
0.0
  0
LINE
  5
2058D
330
20587
100
AcDbEntity
  8
0
  6
CONTINUOUS
100
AcDbLine
 10
2.569246555539591
 20
3.03547716329138
 30
0.0
 11
3.593163397972743
 21
4.059394005724531
 31
0.0
  0
LINE
  5
2058E
330
20587
100
AcDbEntity
  8
0
  6
CONTINUOUS
100
AcDbLine
 10
2.840644091610043
 20
2.633355490281646
 30
0.0
 11
3.864561627586149
 21
3.657273026257751
 31
0.0
  0
LINE
  5
2058F
330
20587
100
AcDbEntity
  8
0
  6
CONTINUOUS
100
AcDbLine
 10
3.112041627680496
 20
2.231233817271911
 30
0.0
 11
4.135959857199554
 21
3.25515204679097
 31
0.0
  0
LINE
  5
20590
330
20587
100
AcDbEntity
  8
0
  6
CONTINUOUS
100
AcDbLine
 10
3.383439163750948
 20
1.829112144262177
 30
0.0
 11
4.40735808681296
 21
2.853031067324189
 31
0.0
  0
LINE
  5
20591
330
20587
100
AcDbEntity
  8
0
  6
CONTINUOUS
100
AcDbLine
 10
3.654836699821399
 20
1.426990471252442
 30
0.0
 11
4.678756316426365
 21
2.450910087857407
 31
0.0
  0
LINE
  5
20592
330
20587
100
AcDbEntity
  8
0
  6
CONTINUOUS
100
AcDbLine
 10
3.926234235891853
 20
1.024868798242709
 30
0.0
 11
4.95015454603977
 21
2.048789108390626
 31
0.0
  0
LINE
  5
20593
330
20587
100
AcDbEntity
  8
0
  6
CONTINUOUS
100
AcDbLine
 10
4.197631771962304
 20
0.6227471252329737
 30
0.0
 11
5.221552775653176
 21
1.646668128923846
 31
0.0
  0
LINE
  5
20594
330
20587
100
AcDbEntity
  8
0
  6
CONTINUOUS
100
AcDbLine
 10
8.715877546767851
 20
7.835069736359266
 30
0.0
 11
9.435953450375058
 21
8.555145639966472
 31
0.0
  0
LINE
  5
20595
330
20587
100
AcDbEntity
  8
0
  6
CONTINUOUS
100
AcDbLine
 10
8.170620868422267
 20
6.616293848933497
 30
0.0
 11
9.644120833743461
 21
8.08979381425469
 31
0.0
  0
LINE
  5
20596
330
20587
100
AcDbEntity
  8
0
  6
CONTINUOUS
100
AcDbLine
 10
7.625364190076684
 20
5.397517961507727
 30
0.0
 11
9.852288217111864
 21
7.624441988542907
 31
0.0
  0
LINE
  5
20597
330
20587
100
AcDbEntity
  8
0
  6
CONTINUOUS
100
AcDbLine
 10
7.080107511731101
 20
4.178742074081957
 30
0.0
 11
10.06045560048027
 21
7.159090162831124
 31
0.0
  0
LINE
  5
20598
330
20587
100
AcDbEntity
  8
0
  6
CONTINUOUS
100
AcDbLine
 10
6.534850833385518
 20
2.959966186656187
 30
0.0
 11
10.26862298384867
 21
6.693738337119342
 31
0.0
  0
LINE
  5
20599
330
20587
100
AcDbEntity
  8
0
  6
CONTINUOUS
100
AcDbLine
 10
4.469029308032756
 20
0.2206254522232385
 30
0.0
 11
5.492951005266582
 21
1.244547149457064
 31
0.0
  0
LINE
  5
2059A
330
20587
100
AcDbEntity
  8
0
  6
CONTINUOUS
100
AcDbLine
 10
5.989594155039935
 20
1.741190299230417
 30
0.0
 11
8.806950407233131
 21
4.558546551423613
 31
0.0
  0
LINE
  5
2059B
330
20587
100
AcDbEntity
  8
0
  6
CONTINUOUS
100
AcDbLine
 10
9.401251593263643
 20
5.152847737454126
 30
0.0
 11
10.47679036721708
 21
6.228386511407559
 31
0.0
  0
LINE
  5
2059C
330
20587
100
AcDbEntity
  8
0
  6
CONTINUOUS
100
AcDbLine
 10
4.921837203428691
 20
-0.0000858614610131
 30
0.0
 11
8.592923064886001
 21
3.670999999996297
 31
0.0
  0
LINE
  5
2059D
330
20587
100
AcDbEntity
  8
0
  6
CONTINUOUS
100
AcDbLine
 10
9.609390446785305
 20
4.6874673818956
 30
0.0
 11
10.68495775058548
 21
5.763034685695775
 31
0.0
  0
LINE
  5
2059E
330
20587
100
AcDbEntity
  8
0
  6
CONTINUOUS
100
AcDbLine
 10
5.595387755019432
 20
-0.0000545189504582
 30
0.0
 11
7.716137258923768
 21
2.120694984953879
 31
0.0
  0
LINE
  5
2059F
330
20587
100
AcDbEntity
  8
0
  6
CONTINUOUS
100
AcDbLine
 10
6.268938306610172
 20
-0.000023176439905
 30
0.0
 11
7.170485805526503
 21
0.9015243224764267
 31
0.0
  0
LINE
  5
205A0
330
20587
100
AcDbEntity
  8
0
  6
CONTINUOUS
100
AcDbLine
 10
7.963842273967511
 20
2.368399999997621
 30
0.0
 11
9.266442273966188
 21
3.670999999996297
 31
0.0
  0
LINE
  5
205A1
330
20587
100
AcDbEntity
  8
0
  6
CONTINUOUS
100
AcDbLine
 10
8.637361483047696
 20
2.368399999997621
 30
0.0
 11
9.939961483046375
 21
3.670999999996297
 31
0.0
  0
LINE
  5
205A2
330
20587
100
AcDbEntity
  8
0
  6
CONTINUOUS
100
AcDbLine
 10
9.817529300306965
 20
4.222087026337075
 30
0.0
 11
10.89312513395388
 21
5.297682859983993
 31
0.0
  0
LINE
  5
205A3
330
20587
100
AcDbEntity
  8
0
  6
CONTINUOUS
100
AcDbLine
 10
10.02566815382863
 20
3.756706670778549
 30
0.0
 11
11.10129251732229
 21
4.832331034272211
 31
0.0
  0
LINE
  5
205A4
330
20587
100
AcDbEntity
  8
0
  6
CONTINUOUS
100
AcDbLine
 10
9.310880692127883
 20
2.368399999997621
 30
0.0
 11
11.30945990069069
 21
4.366979208560428
 31
0.0
  0
LINE
  5
205A5
330
20587
100
AcDbEntity
  8
0
  6
CONTINUOUS
100
AcDbLine
 10
9.98439990120807
 20
2.36839999999762
 30
0.0
 11
11.5176272840591
 21
3.901627382848645
 31
0.0
  0
LINE
  5
205A6
330
20587
100
AcDbEntity
  8
0
  6
CONTINUOUS
100
AcDbLine
 10
10.65037369446246
 20
2.36085458417182
 30
0.0
 11
11.7257946674275
 21
3.436275557136862
 31
0.0
  0
LINE
  5
205A7
330
20587
100
AcDbEntity
  8
0
  6
CONTINUOUS
100
AcDbLine
 10
10.85847197087848
 20
1.895433651507656
 30
0.0
 11
11.9339620507959
 21
2.97092373142508
 31
0.0
  0
LINE
  5
205A8
330
20587
100
AcDbEntity
  8
0
  6
CONTINUOUS
100
AcDbLine
 10
11.0665702472945
 20
1.430012718843491
 30
0.0
 11
12.14212943416431
 21
2.505571905713296
 31
0.0
  0
LINE
  5
205A9
330
20587
100
AcDbEntity
  8
0
  6
CONTINUOUS
100
AcDbLine
 10
11.27466852371052
 20
0.9645917861793256
 30
0.0
 11
12.35029681753271
 21
2.040220080001513
 31
0.0
  0
LINE
  5
205AA
330
20587
100
AcDbEntity
  8
0
  6
CONTINUOUS
100
AcDbLine
 10
11.48276680012654
 20
0.4991708535151611
 30
0.0
 11
12.55846420090111
 21
1.57486825428973
 31
0.0
  0
LINE
  5
205AB
330
20587
100
AcDbEntity
  8
0
  6
CONTINUOUS
100
AcDbLine
 10
11.69086507654257
 20
0.0337499208509957
 30
0.0
 11
12.76663158426952
 21
1.109516428577947
 31
0.0
  0
LINE
  5
205AC
330
20587
100
AcDbEntity
  8
0
  6
CONTINUOUS
100
AcDbLine
 10
12.33057447873954
 20
-0.0000598860322123
 30
0.0
 11
12.97479896763792
 21
0.6441646028661663
 31
0.0
  0
LINE
  5
205AD
330
20587
100
AcDbEntity
  8
0
  6
CONTINUOUS
100
AcDbLine
 10
13.00413694809395
 20
-0.0000166257579952
 30
0.0
 11
13.18296635100632
 21
0.1788127771543824
 31
0.0
  0
LINE
  5
205AE
330
20587
100
AcDbEntity
  8
0
  6
CONTINUOUS
100
AcDbLine
 10
4.772852165289667
 20
-0.000092794222212
 30
0.0
 11
4.296495091028902
 21
0.4762642800385528
 31
0.0
  0
LINE
  5
205AF
330
20587
100
AcDbEntity
  8
0
  6
CONTINUOUS
100
AcDbLine
 10
5.446340034776103
 20
-0.0000614546284616
 30
0.0
 11
2.898195908335625
 21
2.548082671812017
 31
0.0
  0
LINE
  5
205B0
330
20587
100
AcDbEntity
  8
0
  6
CONTINUOUS
100
AcDbLine
 10
6.119827904262539
 20
-0.0000301150347113
 30
0.0
 11
1.499896725642348
 21
4.61990106358548
 31
0.0
  0
LINE
  5
205B1
330
20587
100
AcDbEntity
  8
0
  6
CONTINUOUS
100
AcDbLine
 10
6.775136745476159
 20
0.0181802528318542
 30
0.0
 11
5.699826040202669
 21
1.093490958105344
 31
0.0
  0
LINE
  5
205B2
330
20587
100
AcDbEntity
  8
0
  6
CONTINUOUS
100
AcDbLine
 10
6.983376846288489
 20
0.4834593610997118
 30
0.0
 11
5.908008617934405
 21
1.558827589453796
 31
0.0
  0
LINE
  5
205B3
330
20587
100
AcDbEntity
  8
0
  6
CONTINUOUS
100
AcDbLine
 10
5.377063484962296
 20
1.416253513345719
 30
0.0
 11
1.702276957014131
 21
5.091040041293883
 31
0.0
  0
LINE
  5
205B4
330
20587
100
AcDbEntity
  8
0
  6
CONTINUOUS
100
AcDbLine
 10
3.978745891735324
 20
3.488090315652877
 30
0.0
 11
2.000373521109399
 21
5.466462686278803
 31
0.0
  0
LINE
  5
205B5
330
20587
100
AcDbEntity
  8
0
  6
CONTINUOUS
100
AcDbLine
 10
7.191616947100819
 20
0.948738469367568
 30
0.0
 11
6.11619119566614
 21
2.024164220802247
 31
0.0
  0
LINE
  5
205B6
330
20587
100
AcDbEntity
  8
0
  6
CONTINUOUS
100
AcDbLine
 10
7.399857047913149
 20
1.414017577635424
 30
0.0
 11
6.324373773397875
 21
2.489500852150698
 31
0.0
  0
LINE
  5
205B7
330
20587
100
AcDbEntity
  8
0
  6
CONTINUOUS
100
AcDbLine
 10
7.608097148725479
 20
1.879296685903281
 30
0.0
 11
6.53255635112961
 21
2.95483748349915
 31
0.0
  0
LINE
  5
205B8
330
20587
100
AcDbEntity
  8
0
  6
CONTINUOUS
100
AcDbLine
 10
7.816337249537808
 20
2.344575794171138
 30
0.0
 11
6.740738928861345
 21
3.420174114847601
 31
0.0
  0
LINE
  5
205B9
330
20587
100
AcDbEntity
  8
0
  6
CONTINUOUS
100
AcDbLine
 10
3.310241080789734
 20
4.830114335678653
 30
0.0
 11
2.298470085204666
 21
5.84188533126372
 31
0.0
  0
LINE
  5
205BA
330
20587
100
AcDbEntity
  8
0
  6
CONTINUOUS
100
AcDbLine
 10
3.60832983563551
 20
5.205544789913063
 30
0.0
 11
2.596566649299935
 21
6.217307976248638
 31
0.0
  0
LINE
  5
205BB
330
20587
100
AcDbEntity
  8
0
  6
CONTINUOUS
100
AcDbLine
 10
3.906418590481286
 20
5.580975244147473
 30
0.0
 11
2.894663213395203
 21
6.592730621233557
 31
0.0
  0
LINE
  5
205BC
330
20587
100
AcDbEntity
  8
0
  6
CONTINUOUS
100
AcDbLine
 10
4.204507345327062
 20
5.956405698381884
 30
0.0
 11
3.192759777490472
 21
6.968153266218474
 31
0.0
  0
LINE
  5
205BD
330
20587
100
AcDbEntity
  8
0
  6
CONTINUOUS
100
AcDbLine
 10
8.466032252791512
 20
2.368399999997621
 30
0.0
 11
6.948921506593081
 21
3.885510746196053
 31
0.0
  0
LINE
  5
205BE
330
20587
100
AcDbEntity
  8
0
  6
CONTINUOUS
100
AcDbLine
 10
9.139551461871699
 20
2.36839999999762
 30
0.0
 11
7.157104084324816
 21
4.350847377544504
 31
0.0
  0
LINE
  5
205BF
330
20587
100
AcDbEntity
  8
0
  6
CONTINUOUS
100
AcDbLine
 10
4.502596100172839
 20
6.331836152616295
 30
0.0
 11
3.49085634158574
 21
7.343575911203393
 31
0.0
  0
LINE
  5
205C0
330
20587
100
AcDbEntity
  8
0
  6
CONTINUOUS
100
AcDbLine
 10
4.800684855018615
 20
6.707266606850705
 30
0.0
 11
3.788952905681008
 21
7.718998556188312
 31
0.0
  0
LINE
  5
205C1
330
20587
100
AcDbEntity
  8
0
  6
CONTINUOUS
100
AcDbLine
 10
12.18154012887317
 20
-0.0000694579236642
 30
0.0
 11
11.32140332908496
 21
0.8600673418645499
 31
0.0
  0
LINE
  5
205C2
330
20587
100
AcDbEntity
  8
0
  6
CONTINUOUS
100
AcDbLine
 10
12.85501608323566
 20
-0.0000262032059659
 30
0.0
 11
10.77672456435345
 21
2.078265315676246
 31
0.0
  0
LINE
  5
205C3
330
20587
100
AcDbEntity
  8
0
  6
CONTINUOUS
100
AcDbLine
 10
9.813070670951886
 20
2.36839999999762
 30
0.0
 11
8.51047067095321
 21
3.670999999996297
 31
0.0
  0
LINE
  5
205C4
330
20587
100
AcDbEntity
  8
0
  6
CONTINUOUS
100
AcDbLine
 10
10.48658988003207
 20
2.36839999999762
 30
0.0
 11
9.183989880033396
 21
3.670999999996297
 31
0.0
  0
LINE
  5
205C5
330
20587
100
AcDbEntity
  8
0
  6
CONTINUOUS
100
AcDbLine
 10
8.441048632286794
 20
3.740422038662712
 30
0.0
 11
7.365286662056551
 21
4.816184008892956
 31
0.0
  0
LINE
  5
205C6
330
20587
100
AcDbEntity
  8
0
  6
CONTINUOUS
100
AcDbLine
 10
8.649187485808454
 20
4.205802394221237
 30
0.0
 11
7.573469239788285
 21
5.281520640241407
 31
0.0
  0
LINE
  5
205C7
330
20587
100
AcDbEntity
  8
0
  6
CONTINUOUS
100
AcDbLine
 10
5.098773609864391
 20
7.082697061085115
 30
0.0
 11
4.087049469776277
 21
8.09442120117323
 31
0.0
  0
LINE
  5
205C8
330
20587
100
AcDbEntity
  8
0
  6
CONTINUOUS
100
AcDbLine
 10
5.396862364710167
 20
7.458127515319526
 30
0.0
 11
4.385146033871544
 21
8.469843846158149
 31
0.0
  0
LINE
  5
205C9
330
20587
100
AcDbEntity
  8
0
  6
CONTINUOUS
100
AcDbLine
 10
13.04801363231285
 20
0.4804954567970334
 30
0.0
 11
9.85750908911358
 21
3.670999999996297
 31
0.0
  0
LINE
  5
205CA
330
20587
100
AcDbEntity
  8
0
  6
CONTINUOUS
100
AcDbLine
 10
8.857326339330116
 20
4.671182749779763
 30
0.0
 11
7.781651817520021
 21
5.746857271589858
 31
0.0
  0
LINE
  5
205CB
330
20587
100
AcDbEntity
  8
0
  6
CONTINUOUS
100
AcDbLine
 10
5.694951119555943
 20
7.833557969553937
 30
0.0
 11
4.765409089118624
 21
8.763099999991255
 31
0.0
  0
LINE
  5
205CC
330
20587
100
AcDbEntity
  8
0
  6
CONTINUOUS
100
AcDbLine
 10
12.50286117236978
 20
1.699167125820288
 30
0.0
 11
9.68611877250287
 21
4.515909525687196
 31
0.0
  0
LINE
  5
205CD
330
20587
100
AcDbEntity
  8
0
  6
CONTINUOUS
100
AcDbLine
 10
9.065465192851777
 20
5.136563105338288
 30
0.0
 11
7.989834395251757
 21
6.21219390293831
 31
0.0
  0
LINE
  5
205CE
330
20587
100
AcDbEntity
  8
0
  6
CONTINUOUS
100
AcDbLine
 10
5.993039874401719
 20
8.208988423788346
 30
0.0
 11
5.43892829819881
 21
8.763099999991255
 31
0.0
  0
LINE
  5
205CF
330
20587
100
AcDbEntity
  8
0
  6
CONTINUOUS
100
AcDbLine
 10
11.95770871242671
 20
2.917838794843543
 30
0.0
 11
8.19801697298349
 21
6.677530534286761
 31
0.0
  0
LINE
  5
205D0
330
20587
100
AcDbEntity
  8
0
  6
CONTINUOUS
100
AcDbLine
 10
6.291128629247495
 20
8.584418878022756
 30
0.0
 11
6.112447507278997
 21
8.763099999991255
 31
0.0
  0
LINE
  5
205D1
330
20587
100
AcDbEntity
  8
0
  6
CONTINUOUS
100
AcDbLine
 10
11.41255625248364
 20
4.136510463866797
 30
0.0
 11
8.406199550715227
 21
7.142867165635211
 31
0.0
  0
LINE
  5
205D2
330
20587
100
AcDbEntity
  8
0
  6
CONTINUOUS
100
AcDbLine
 10
10.86740379254057
 20
5.355182132890051
 30
0.0
 11
8.614382128446962
 21
7.608203796983664
 31
0.0
  0
LINE
  5
205D3
330
20587
100
AcDbEntity
  8
0
  6
CONTINUOUS
100
AcDbLine
 10
10.3222513325975
 20
6.573853801913305
 30
0.0
 11
8.822564706178696
 21
8.073540428332114
 31
0.0
  0
LINE
  5
205D4
330
20587
100
AcDbEntity
  8
0
  6
CONTINUOUS
100
AcDbLine
 10
9.777098872654436
 20
7.792525470936562
 30
0.0
 11
9.030747283910433
 21
8.538877059680566
 31
0.0
  0
ENDBLK
  5
20716
330
20587
100
AcDbEntity
  8
0
100
AcDbBlockEnd
  0
BLOCK
  5
20717
330
205D5
100
AcDbEntity
  8
0
100
AcDbBlockBegin
  2
*X45
 70
     1
 10
0.0
 20
0.0
 30
0.0
  3
*X45
  1

  0
LINE
  5
205D6
330
205D5
100
AcDbEntity
  8
0
  6
CONTINUOUS
100
AcDbLine
 10
10.67292308101235
 20
8.445076852443387
 30
0.0
 11
10.99094622856022
 21
8.763099999991255
 31
0.0
  0
LINE
  5
205D7
330
205D5
100
AcDbEntity
  8
0
  6
CONTINUOUS
100
AcDbLine
 10
10.87250383178748
 20
7.971138394138331
 30
0.0
 11
11.6644654376404
 21
8.763099999991255
 31
0.0
  0
LINE
  5
205D8
330
205D5
100
AcDbEntity
  8
0
  6
CONTINUOUS
100
AcDbLine
 10
11.07208458256261
 20
7.497199935833273
 30
0.0
 11
12.12126590876355
 21
8.546381262034211
 31
0.0
  0
LINE
  5
205D9
330
205D5
100
AcDbEntity
  8
0
  6
CONTINUOUS
100
AcDbLine
 10
11.27166533333774
 20
7.023261477528216
 30
0.0
 11
12.32085164573666
 21
8.072447789927136
 31
0.0
  0
LINE
  5
205DA
330
205D5
100
AcDbEntity
  8
0
  6
CONTINUOUS
100
AcDbLine
 10
11.47124608411287
 20
6.549323019223158
 30
0.0
 11
12.52043738270977
 21
7.59851431782006
 31
0.0
  0
LINE
  5
205DB
330
205D5
100
AcDbEntity
  8
0
  6
CONTINUOUS
100
AcDbLine
 10
11.670826834888
 20
6.075384560918101
 30
0.0
 11
12.72002311968288
 21
7.124580845712984
 31
0.0
  0
LINE
  5
205DC
330
205D5
100
AcDbEntity
  8
0
  6
CONTINUOUS
100
AcDbLine
 10
11.87040758566313
 20
5.601446102613043
 30
0.0
 11
12.91960885665599
 21
6.650647373605907
 31
0.0
  0
LINE
  5
205DD
330
205D5
100
AcDbEntity
  8
0
  6
CONTINUOUS
100
AcDbLine
 10
12.06998833643825
 20
5.127507644307986
 30
0.0
 11
13.1191945936291
 21
6.176713901498832
 31
0.0
  0
LINE
  5
205DE
330
205D5
100
AcDbEntity
  8
0
  6
CONTINUOUS
100
AcDbLine
 10
12.26956908721338
 20
4.65356918600293
 30
0.0
 11
13.31878033060221
 21
5.702780429391757
 31
0.0
  0
LINE
  5
205DF
330
205D5
100
AcDbEntity
  8
0
  6
CONTINUOUS
100
AcDbLine
 10
12.46914983798851
 20
4.179630727697873
 30
0.0
 11
13.51836606757532
 21
5.228846957284683
 31
0.0
  0
LINE
  5
205E0
330
205D5
100
AcDbEntity
  8
0
  6
CONTINUOUS
100
AcDbLine
 10
12.66873058876364
 20
3.705692269392816
 30
0.0
 11
13.71795180454843
 21
4.754913485177607
 31
0.0
  0
LINE
  5
205E1
330
205D5
100
AcDbEntity
  8
0
  6
CONTINUOUS
100
AcDbLine
 10
12.86831133953877
 20
3.231753811087759
 30
0.0
 11
13.91753754152154
 21
4.280980013070531
 31
0.0
  0
LINE
  5
205E2
330
205D5
100
AcDbEntity
  8
0
  6
CONTINUOUS
100
AcDbLine
 10
13.0678920903139
 20
2.757815352782702
 30
0.0
 11
14.11712327849465
 21
3.807046540963456
 31
0.0
  0
LINE
  5
205E3
330
205D5
100
AcDbEntity
  8
0
  6
CONTINUOUS
100
AcDbLine
 10
13.26747284108903
 20
2.283876894477644
 30
0.0
 11
14.31670901546777
 21
3.333113068856379
 31
0.0
  0
LINE
  5
205E4
330
205D5
100
AcDbEntity
  8
0
  6
CONTINUOUS
100
AcDbLine
 10
16.36767838827179
 20
8.751678487061342
 30
0.0
 11
16.50332410898388
 21
8.887324207773432
 31
0.0
  0
LINE
  5
205E5
330
205D5
100
AcDbEntity
  8
0
  6
CONTINUOUS
100
AcDbLine
 10
15.96190732182191
 20
7.67238821153127
 30
0.0
 11
16.68735328004734
 21
8.397834169756699
 31
0.0
  0
LINE
  5
205E6
330
205D5
100
AcDbEntity
  8
0
  6
CONTINUOUS
100
AcDbLine
 10
15.55613625537202
 20
6.593097936001196
 30
0.0
 11
16.87138245111079
 21
7.908344131739965
 31
0.0
  0
LINE
  5
205E7
330
205D5
100
AcDbEntity
  8
0
  6
CONTINUOUS
100
AcDbLine
 10
15.15036518892213
 20
5.513807660471122
 30
0.0
 11
17.05541162217424
 21
7.418854093723231
 31
0.0
  0
LINE
  5
205E8
330
205D5
100
AcDbEntity
  8
0
  6
CONTINUOUS
100
AcDbLine
 10
14.74459412247225
 20
4.434517384941048
 30
0.0
 11
17.2394407932377
 21
6.929364055706499
 31
0.0
  0
LINE
  5
205E9
330
205D5
100
AcDbEntity
  8
0
  6
CONTINUOUS
100
AcDbLine
 10
14.33882305602236
 20
3.355227109410975
 30
0.0
 11
17.42346996430115
 21
6.439874017689766
 31
0.0
  0
LINE
  5
205EA
330
205D5
100
AcDbEntity
  8
0
  6
CONTINUOUS
100
AcDbLine
 10
13.46705359186416
 20
1.809938436172586
 30
0.0
 11
16.0819338255367
 21
4.424818669845129
 31
0.0
  0
LINE
  5
205EB
330
205D5
100
AcDbEntity
  8
0
  6
CONTINUOUS
100
AcDbLine
 10
16.63283254238972
 20
4.975717386698149
 30
0.0
 11
17.60749913536461
 21
5.950383979673033
 31
0.0
  0
LINE
  5
205EC
330
205D5
100
AcDbEntity
  8
0
  6
CONTINUOUS
100
AcDbLine
 10
13.66663434263929
 20
1.335999977867529
 30
0.0
 11
15.67604797733754
 21
3.345413612565779
 31
0.0
  0
LINE
  5
205ED
330
205D5
100
AcDbEntity
  8
0
  6
CONTINUOUS
100
AcDbLine
 10
13.86621509341442
 20
0.8620615195624723
 30
0.0
 11
15.27016212913838
 21
2.26600855528643
 31
0.0
  0
LINE
  5
205EE
330
205D5
100
AcDbEntity
  8
0
  6
CONTINUOUS
100
AcDbLine
 10
16.81682257348267
 20
4.486188208710908
 30
0.0
 11
17.79152830642806
 21
5.460893941656299
 31
0.0
  0
LINE
  5
205EF
330
205D5
100
AcDbEntity
  8
0
  6
CONTINUOUS
100
AcDbLine
 10
17.00081260457561
 20
3.996659030723667
 30
0.0
 11
17.97555747749151
 21
4.971403903639565
 31
0.0
  0
LINE
  5
205F0
330
205D5
100
AcDbEntity
  8
0
  6
CONTINUOUS
100
AcDbLine
 10
20.74362343514722
 20
8.412989070375462
 30
0.0
 11
21.09373436476302
 21
8.763099999991256
 31
0.0
  0
LINE
  5
205F1
330
205D5
100
AcDbEntity
  8
0
  6
CONTINUOUS
100
AcDbLine
 10
20.25401257174777
 20
7.249858997895826
 30
0.0
 11
21.7672535738432
 21
8.763099999991255
 31
0.0
  0
LINE
  5
205F2
330
205D5
100
AcDbEntity
  8
0
  6
CONTINUOUS
100
AcDbLine
 10
14.06579584418955
 20
0.3881230612574149
 30
0.0
 11
14.86427628093921
 21
1.186603498007082
 31
0.0
  0
LINE
  5
205F3
330
205D5
100
AcDbEntity
  8
0
  6
CONTINUOUS
100
AcDbLine
 10
14.26537659496467
 20
-0.0858153970476412
 30
0.0
 11
14.45839043274005
 21
0.1071984407277329
 31
0.0
  0
LINE
  5
205F4
330
205D5
100
AcDbEntity
  8
0
  6
CONTINUOUS
100
AcDbLine
 10
17.18480263566856
 20
3.507129852736426
 30
0.0
 11
18.15958664855496
 21
4.481913865622833
 31
0.0
  0
LINE
  5
205F5
330
205D5
100
AcDbEntity
  8
0
  6
CONTINUOUS
100
AcDbLine
 10
17.3687926667615
 20
3.017600674749186
 30
0.0
 11
18.34361581961842
 21
3.9924238276061
 31
0.0
  0
LINE
  5
205F6
330
205D5
100
AcDbEntity
  8
0
  6
CONTINUOUS
100
AcDbLine
 10
19.76440170834832
 20
6.086728925416191
 30
0.0
 11
22.33924590259489
 21
8.661573119662755
 31
0.0
  0
LINE
  5
205F7
330
205D5
100
AcDbEntity
  8
0
  6
CONTINUOUS
100
AcDbLine
 10
19.27479084494887
 20
4.923598852936555
 30
0.0
 11
21.84929622842713
 21
7.498104236414807
 31
0.0
  0
LINE
  5
205F8
330
205D5
100
AcDbEntity
  8
0
  6
CONTINUOUS
100
AcDbLine
 10
17.55278269785445
 20
2.528071496761945
 30
0.0
 11
18.52764499068187
 21
3.502933789589366
 31
0.0
  0
LINE
  5
205F9
330
205D5
100
AcDbEntity
  8
0
  6
CONTINUOUS
100
AcDbLine
 10
18.78517998154942
 20
3.760468780456919
 30
0.0
 11
21.35934655425936
 21
6.33463535316686
 31
0.0
  0
LINE
  5
205FA
330
205D5
100
AcDbEntity
  8
0
  6
CONTINUOUS
100
AcDbLine
 10
17.73677272894739
 20
2.038542318774704
 30
0.0
 11
20.8693968800916
 21
5.171166469918914
 31
0.0
  0
LINE
  5
205FB
330
205D5
100
AcDbEntity
  8
0
  6
CONTINUOUS
100
AcDbLine
 10
17.92076276004034
 20
1.549013140787464
 30
0.0
 11
20.37944720592384
 21
4.007697586670968
 31
0.0
  0
LINE
  5
205FC
330
205D5
100
AcDbEntity
  8
0
  6
CONTINUOUS
100
AcDbLine
 10
18.10475279113329
 20
1.059483962800223
 30
0.0
 11
19.88949753175608
 21
2.84422870342302
 31
0.0
  0
LINE
  5
205FD
330
205D5
100
AcDbEntity
  8
0
  6
CONTINUOUS
100
AcDbLine
 10
18.28874282222623
 20
0.5699547848129822
 30
0.0
 11
19.39954785758832
 21
1.680759820175074
 31
0.0
  0
LINE
  5
205FE
330
205D5
100
AcDbEntity
  8
0
  6
CONTINUOUS
100
AcDbLine
 10
18.47273285331918
 20
0.0804256068257416
 30
0.0
 11
18.90959818342056
 21
0.517290936927127
 31
0.0
  0
LINE
  5
205FF
330
205D5
100
AcDbEntity
  8
0
  6
CONTINUOUS
100
AcDbLine
 10
14.3590401358224
 20
-0.1570118376323384
 30
0.0
 11
14.24903296539946
 21
-0.0470046672093929
 31
0.0
  0
LINE
  5
20600
330
205D5
100
AcDbEntity
  8
0
  6
CONTINUOUS
100
AcDbLine
 10
14.54309291258661
 20
0.332454594683643
 30
0.0
 11
13.75908329123172
 21
1.116464216038529
 31
0.0
  0
LINE
  5
20601
330
205D5
100
AcDbEntity
  8
0
  6
CONTINUOUS
100
AcDbLine
 10
14.72714568935081
 20
0.8219210269996244
 30
0.0
 11
13.26913361706399
 21
2.27993309928645
 31
0.0
  0
LINE
  5
20602
330
205D5
100
AcDbEntity
  8
0
  6
CONTINUOUS
100
AcDbLine
 10
14.91119846611502
 20
1.311387459315606
 30
0.0
 11
12.77918394289625
 21
3.443401982534371
 31
0.0
  0
LINE
  5
20603
330
205D5
100
AcDbEntity
  8
0
  6
CONTINUOUS
100
AcDbLine
 10
15.09525124287922
 20
1.800853891631587
 30
0.0
 11
12.28923426872852
 21
4.606870865782293
 31
0.0
  0
LINE
  5
20604
330
205D5
100
AcDbEntity
  8
0
  6
CONTINUOUS
100
AcDbLine
 10
15.27930401964343
 20
2.290320323947569
 30
0.0
 11
11.79928459456078
 21
5.770339749030213
 31
0.0
  0
LINE
  5
20605
330
205D5
100
AcDbEntity
  8
0
  6
CONTINUOUS
100
AcDbLine
 10
15.46335679640763
 20
2.77978675626355
 30
0.0
 11
14.48885470994921
 21
3.754288842721972
 31
0.0
  0
LINE
  5
20606
330
205D5
100
AcDbEntity
  8
0
  6
CONTINUOUS
100
AcDbLine
 10
13.88507249233704
 20
4.358071060334137
 30
0.0
 11
11.30933492039305
 21
6.933808632278135
 31
0.0
  0
LINE
  5
20607
330
205D5
100
AcDbEntity
  8
0
  6
CONTINUOUS
100
AcDbLine
 10
18.75840522805855
 20
0.1582575336928151
 30
0.0
 11
18.25383727664818
 21
0.6628254851031863
 31
0.0
  0
LINE
  5
20608
330
205D5
100
AcDbEntity
  8
0
  6
CONTINUOUS
100
AcDbLine
 10
15.64740957317184
 20
3.269253188579531
 30
0.0
 11
14.67288388101266
 21
4.243778880738705
 31
0.0
  0
LINE
  5
20609
330
205D5
100
AcDbEntity
  8
0
  6
CONTINUOUS
100
AcDbLine
 10
13.39509276772158
 20
5.521569994029786
 30
0.0
 11
10.81938524622531
 21
8.097277515526056
 31
0.0
  0
LINE
  5
2060A
330
205D5
100
AcDbEntity
  8
0
  6
CONTINUOUS
100
AcDbLine
 10
18.95798597883369
 20
0.6321959919978686
 30
0.0
 11
17.84825644852853
 21
1.741925522303024
 31
0.0
  0
LINE
  5
2060B
330
205D5
100
AcDbEntity
  8
0
  6
CONTINUOUS
100
AcDbLine
 10
19.15756672960882
 20
1.106134450302922
 30
0.0
 11
17.44267562040888
 21
2.821025559502861
 31
0.0
  0
LINE
  5
2060C
330
205D5
100
AcDbEntity
  8
0
  6
CONTINUOUS
100
AcDbLine
 10
15.83146234993604
 20
3.758719620895513
 30
0.0
 11
14.85691305207612
 21
4.733268918755439
 31
0.0
  0
LINE
  5
2060D
330
205D5
100
AcDbEntity
  8
0
  6
CONTINUOUS
100
AcDbLine
 10
16.01551512670025
 20
4.248186053211494
 30
0.0
 11
15.04094222313957
 21
5.222758956772172
 31
0.0
  0
LINE
  5
2060E
330
205D5
100
AcDbEntity
  8
0
  6
CONTINUOUS
100
AcDbLine
 10
12.90511304310612
 20
6.685068927725435
 30
0.0
 11
10.8270819708403
 21
8.763099999991255
 31
0.0
  0
LINE
  5
2060F
330
205D5
100
AcDbEntity
  8
0
  6
CONTINUOUS
100
AcDbLine
 10
12.41513331849066
 20
7.848567861421083
 30
0.0
 11
11.50060117992049
 21
8.763099999991255
 31
0.0
  0
LINE
  5
20610
330
205D5
100
AcDbEntity
  8
0
  6
CONTINUOUS
100
AcDbLine
 10
19.35714748038395
 20
1.580072908607975
 30
0.0
 11
17.03709479228923
 21
3.900125596702697
 31
0.0
  0
LINE
  5
20611
330
205D5
100
AcDbEntity
  8
0
  6
CONTINUOUS
100
AcDbLine
 10
19.55672823115909
 20
2.054011366913028
 30
0.0
 11
16.63151396416958
 21
4.979225633902534
 31
0.0
  0
LINE
  5
20612
330
205D5
100
AcDbEntity
  8
0
  6
CONTINUOUS
100
AcDbLine
 10
16.19956790346445
 20
4.737652485527476
 30
0.0
 11
15.22497139420302
 21
5.712248994788904
 31
0.0
  0
LINE
  5
20613
330
205D5
100
AcDbEntity
  8
0
  6
CONTINUOUS
100
AcDbLine
 10
16.38362068022866
 20
5.227118917843457
 30
0.0
 11
15.40900056526648
 21
6.201739032805637
 31
0.0
  0
LINE
  5
20614
330
205D5
100
AcDbEntity
  8
0
  6
CONTINUOUS
100
AcDbLine
 10
19.75630898193422
 20
2.527949825218081
 30
0.0
 11
18.70774536448286
 21
3.576513442669441
 31
0.0
  0
LINE
  5
20615
330
205D5
100
AcDbEntity
  8
0
  6
CONTINUOUS
100
AcDbLine
 10
19.95588973270936
 20
3.001888283523134
 30
0.0
 11
18.90726987211446
 21
4.050508144118028
 31
0.0
  0
LINE
  5
20616
330
205D5
100
AcDbEntity
  8
0
  6
CONTINUOUS
100
AcDbLine
 10
20.15547048348449
 20
3.475826741828186
 30
0.0
 11
19.10679437974606
 21
4.524502845566614
 31
0.0
  0
LINE
  5
20617
330
205D5
100
AcDbEntity
  8
0
  6
CONTINUOUS
100
AcDbLine
 10
20.35505123425962
 20
3.94976520013324
 30
0.0
 11
19.30631888737766
 21
4.998497547015201
 31
0.0
  0
LINE
  5
20618
330
205D5
100
AcDbEntity
  8
0
  6
CONTINUOUS
100
AcDbLine
 10
20.55463198503475
 20
4.423703658438292
 30
0.0
 11
19.50584339500926
 21
5.472492248463787
 31
0.0
  0
LINE
  5
20619
330
205D5
100
AcDbEntity
  8
0
  6
CONTINUOUS
100
AcDbLine
 10
18.37481191085755
 20
3.909446896294752
 30
0.0
 11
15.59302973632993
 21
6.691229070822371
 31
0.0
  0
LINE
  5
2061A
330
205D5
100
AcDbEntity
  8
0
  6
CONTINUOUS
100
AcDbLine
 10
17.96904084440766
 20
4.988737171824825
 30
0.0
 11
15.77705890739338
 21
7.180719108839104
 31
0.0
  0
LINE
  5
2061B
330
205D5
100
AcDbEntity
  8
0
  6
CONTINUOUS
100
AcDbLine
 10
17.56326977795777
 20
6.068027447354899
 30
0.0
 11
15.96108807845684
 21
7.670209146855838
 31
0.0
  0
LINE
  5
2061C
330
205D5
100
AcDbEntity
  8
0
  6
CONTINUOUS
100
AcDbLine
 10
17.15749871150789
 20
7.147317722884972
 30
0.0
 11
16.14511724952029
 21
8.15969918487257
 31
0.0
  0
LINE
  5
2061D
330
205D5
100
AcDbEntity
  8
0
  6
CONTINUOUS
100
AcDbLine
 10
16.751727645058
 20
8.226607998415046
 30
0.0
 11
16.32914642058374
 21
8.649189222889303
 31
0.0
  0
LINE
  5
2061E
330
205D5
100
AcDbEntity
  8
0
  6
CONTINUOUS
100
AcDbLine
 10
20.75421273580989
 20
4.897642116743345
 30
0.0
 11
19.70536790264086
 21
5.946486949912374
 31
0.0
  0
LINE
  5
2061F
330
205D5
100
AcDbEntity
  8
0
  6
CONTINUOUS
100
AcDbLine
 10
20.95379348658502
 20
5.371580575048398
 30
0.0
 11
19.90489241027246
 21
6.42048165136096
 31
0.0
  0
LINE
  5
20620
330
205D5
100
AcDbEntity
  8
0
  6
CONTINUOUS
100
AcDbLine
 10
21.15337423736015
 20
5.845519033353452
 30
0.0
 11
20.10441691790406
 21
6.894476352809547
 31
0.0
  0
LINE
  5
20621
330
205D5
100
AcDbEntity
  8
0
  6
CONTINUOUS
100
AcDbLine
 10
21.35295498813529
 20
6.319457491658505
 30
0.0
 11
20.30394142553566
 21
7.368471054258134
 31
0.0
  0
LINE
  5
20622
330
205D5
100
AcDbEntity
  8
0
  6
CONTINUOUS
100
AcDbLine
 10
21.55253573891042
 20
6.793395949963558
 30
0.0
 11
20.50346593316726
 21
7.842465755706721
 31
0.0
  0
LINE
  5
20623
330
205D5
100
AcDbEntity
  8
0
  6
CONTINUOUS
100
AcDbLine
 10
21.75211648968556
 20
7.267334408268612
 30
0.0
 11
20.70299044079886
 21
8.316460457155308
 31
0.0
  0
LINE
  5
20624
330
205D5
100
AcDbEntity
  8
0
  6
CONTINUOUS
100
AcDbLine
 10
21.95169724046069
 20
7.741272866573663
 30
0.0
 11
20.9298701070431
 21
8.763099999991256
 31
0.0
  0
LINE
  5
20625
330
205D5
100
AcDbEntity
  8
0
  6
CONTINUOUS
100
AcDbLine
 10
22.15127799123582
 20
8.215211324878716
 30
0.0
 11
21.60338931612328
 21
8.763099999991256
 31
0.0
  0
LINE
  5
20626
330
205D5
100
AcDbEntity
  8
0
  6
CONTINUOUS
100
AcDbLine
 10
22.35085874201096
 20
8.689149783183769
 30
0.0
 11
22.27690852520347
 21
8.763099999991255
 31
0.0
  0
ENDBLK
  5
20718
330
205D5
100
AcDbEntity
  8
0
100
AcDbBlockEnd
  0
BLOCK
  5
20719
330
20627
100
AcDbEntity
  8
0
100
AcDbBlockBegin
  2
*X46
 70
     1
 10
0.0
 20
0.0
 30
0.0
  3
*X46
  1

  0
LINE
  5
20628
330
20627
100
AcDbEntity
  8
0
  6
CONTINUOUS
100
AcDbLine
 10
23.19462913593892
 20
8.169917934846424
 30
0.0
 11
23.70775465517246
 21
8.683043454079957
 31
0.0
  0
LINE
  5
20629
330
20627
100
AcDbEntity
  8
0
  6
CONTINUOUS
100
AcDbLine
 10
22.64923161835078
 20
6.951001208178088
 30
0.0
 11
23.9159364069932
 21
8.217705996820516
 31
0.0
  0
LINE
  5
2062A
330
20627
100
AcDbEntity
  8
0
  6
CONTINUOUS
100
AcDbLine
 10
22.10383410076263
 20
5.732084481509751
 30
0.0
 11
24.12411815881395
 21
7.752368539561078
 31
0.0
  0
LINE
  5
2062B
330
20627
100
AcDbEntity
  8
0
  6
CONTINUOUS
100
AcDbLine
 10
21.55843658317447
 20
4.513167754841414
 30
0.0
 11
24.3322999106347
 21
7.287031082301639
 31
0.0
  0
LINE
  5
2062C
330
20627
100
AcDbEntity
  8
0
  6
CONTINUOUS
100
AcDbLine
 10
21.01303906558632
 20
3.294251028173077
 30
0.0
 11
24.54048166245544
 21
6.821693625042199
 31
0.0
  0
LINE
  5
2062D
330
20627
100
AcDbEntity
  8
0
  6
CONTINUOUS
100
AcDbLine
 10
20.46764154799817
 20
2.075334301504738
 30
0.0
 11
23.28571549467848
 21
4.89340824818505
 31
0.0
  0
LINE
  5
2062E
330
20627
100
AcDbEntity
  8
0
  6
CONTINUOUS
100
AcDbLine
 10
19.92224403041002
 20
0.8564175748364002
 30
0.0
 11
22.74075865492779
 21
3.674932199354171
 31
0.0
  0
LINE
  5
2062F
330
20627
100
AcDbEntity
  8
0
  6
CONTINUOUS
100
AcDbLine
 10
23.67305085490148
 20
5.280743608408048
 30
0.0
 11
24.74866341427619
 21
6.356356167782759
 31
0.0
  0
LINE
  5
20630
330
20627
100
AcDbEntity
  8
0
  6
CONTINUOUS
100
AcDbLine
 10
23.88118970842314
 20
4.815363252849522
 30
0.0
 11
24.95684516609694
 21
5.89101871052332
 31
0.0
  0
LINE
  5
20631
330
20627
100
AcDbEntity
  8
0
  6
CONTINUOUS
100
AcDbLine
 10
19.73925852647308
 20
-0.0000871381807288
 30
0.0
 11
23.4103456646501
 21
3.670999999996297
 31
0.0
  0
LINE
  5
20632
330
20627
100
AcDbEntity
  8
0
  6
CONTINUOUS
100
AcDbLine
 10
24.0893285619448
 20
4.349982897290997
 30
0.0
 11
25.16502691791769
 21
5.42568125326388
 31
0.0
  0
LINE
  5
20633
330
20627
100
AcDbEntity
  8
0
  6
CONTINUOUS
100
AcDbLine
 10
20.41282099582748
 20
-0.0000438779065108
 30
0.0
 11
21.64944178675636
 21
1.236576913022366
 31
0.0
  0
LINE
  5
20634
330
20627
100
AcDbEntity
  8
0
  6
CONTINUOUS
100
AcDbLine
 10
22.78126487373161
 20
2.36839999999762
 30
0.0
 11
24.08386487373029
 21
3.670999999996297
 31
0.0
  0
LINE
  5
20635
330
20627
100
AcDbEntity
  8
0
  6
CONTINUOUS
100
AcDbLine
 10
24.29746741546646
 20
3.884602541732471
 30
0.0
 11
25.37320866973843
 21
4.960343796004441
 31
0.0
  0
LINE
  5
20636
330
20627
100
AcDbEntity
  8
0
  6
CONTINUOUS
100
AcDbLine
 10
21.08638346518189
 20
-0.0000006176322938
 30
0.0
 11
21.10379033335899
 21
0.0174062505448083
 31
0.0
  0
LINE
  5
20637
330
20627
100
AcDbEntity
  8
0
  6
CONTINUOUS
100
AcDbLine
 10
23.4547840828118
 20
2.36839999999762
 30
0.0
 11
25.58139042155918
 21
4.495006338745002
 31
0.0
  0
LINE
  5
20638
330
20627
100
AcDbEntity
  8
0
  6
CONTINUOUS
100
AcDbLine
 10
29.30199999996933
 20
8.215615917155148
 30
0.0
 11
29.84948408280543
 21
8.763099999991255
 31
0.0
  0
LINE
  5
20639
330
20627
100
AcDbEntity
  8
0
  6
CONTINUOUS
100
AcDbLine
 10
24.12830329189199
 20
2.36839999999762
 30
0.0
 11
25.78957217337993
 21
4.029668881485562
 31
0.0
  0
LINE
  5
2063A
330
20627
100
AcDbEntity
  8
0
  6
CONTINUOUS
100
AcDbLine
 10
29.30199999996933
 20
7.54209670807496
 30
0.0
 11
30.52300329188562
 21
8.763099999991255
 31
0.0
  0
LINE
  5
2063B
330
20627
100
AcDbEntity
  8
0
  6
CONTINUOUS
100
AcDbLine
 10
24.80182250097217
 20
2.36839999999762
 30
0.0
 11
25.99775392520067
 21
3.564331424226122
 31
0.0
  0
LINE
  5
2063C
330
20627
100
AcDbEntity
  8
0
  6
CONTINUOUS
100
AcDbLine
 10
29.30199999996933
 20
6.868577498994774
 30
0.0
 11
30.74199999996926
 21
8.308577498994712
 31
0.0
  0
LINE
  5
2063D
330
20627
100
AcDbEntity
  8
0
  6
CONTINUOUS
100
AcDbLine
 10
25.13028238392013
 20
2.023340673865392
 30
0.0
 11
26.20593567702142
 21
3.098993966966683
 31
0.0
  0
LINE
  5
2063E
330
20627
100
AcDbEntity
  8
0
  6
CONTINUOUS
100
AcDbLine
 10
25.33838066033617
 20
1.557919741201244
 30
0.0
 11
26.41411742884217
 21
2.633656509707244
 31
0.0
  0
LINE
  5
2063F
330
20627
100
AcDbEntity
  8
0
  6
CONTINUOUS
100
AcDbLine
 10
25.54647893675221
 20
1.092498808537098
 30
0.0
 11
26.62229918066291
 21
2.168319052447804
 31
0.0
  0
LINE
  5
20640
330
20627
100
AcDbEntity
  8
0
  6
CONTINUOUS
100
AcDbLine
 10
25.75457721316825
 20
0.62707787587295
 30
0.0
 11
26.83048093248366
 21
1.702981595188365
 31
0.0
  0
LINE
  5
20641
330
20627
100
AcDbEntity
  8
0
  6
CONTINUOUS
100
AcDbLine
 10
29.30199999996933
 20
6.195058289914587
 30
0.0
 11
30.74199999996926
 21
7.635058289914522
 31
0.0
  0
LINE
  5
20642
330
20627
100
AcDbEntity
  8
0
  6
CONTINUOUS
100
AcDbLine
 10
29.30199999996933
 20
5.521539080834401
 30
0.0
 11
30.74199999996926
 21
6.961539080834331
 31
0.0
  0
LINE
  5
20643
330
20627
100
AcDbEntity
  8
0
  6
CONTINUOUS
100
AcDbLine
 10
29.30199999996933
 20
4.848019871754214
 30
0.0
 11
30.74199999996925
 21
6.288019871754143
 31
0.0
  0
LINE
  5
20644
330
20627
100
AcDbEntity
  8
0
  6
CONTINUOUS
100
AcDbLine
 10
29.30199999996933
 20
4.174500662674028
 30
0.0
 11
30.74199999996925
 21
5.614500662673953
 31
0.0
  0
LINE
  5
20645
330
20627
100
AcDbEntity
  8
0
  6
CONTINUOUS
100
AcDbLine
 10
25.96267548958429
 20
0.1616569432088024
 30
0.0
 11
27.18411854636669
 21
1.383099999991207
 31
0.0
  0
LINE
  5
20646
330
20627
100
AcDbEntity
  8
0
  6
CONTINUOUS
100
AcDbLine
 10
29.30199999996933
 20
3.500981453593841
 30
0.0
 11
30.74199999996925
 21
4.940981453593762
 31
0.0
  0
LINE
  5
20647
330
20627
100
AcDbEntity
  8
0
  6
CONTINUOUS
100
AcDbLine
 10
26.50763775544691
 20
0.0330999999912356
 30
0.0
 11
27.85763775544689
 21
1.383099999991223
 31
0.0
  0
LINE
  5
20648
330
20627
100
AcDbEntity
  8
0
  6
CONTINUOUS
100
AcDbLine
 10
29.30199999996933
 20
2.827462244513656
 30
0.0
 11
30.74199999996925
 21
4.267462244513574
 31
0.0
  0
LINE
  5
20649
330
20627
100
AcDbEntity
  8
0
  6
CONTINUOUS
100
AcDbLine
 10
27.18115696452709
 20
0.0330999999912356
 30
0.0
 11
28.55073879889363
 21
1.402681834357775
 31
0.0
  0
LINE
  5
2064A
330
20627
100
AcDbEntity
  8
0
  6
CONTINUOUS
100
AcDbLine
 10
29.28241816560272
 20
2.134361201066866
 30
0.0
 11
30.74199999996924
 21
3.593943035433383
 31
0.0
  0
LINE
  5
2064B
330
20627
100
AcDbEntity
  8
0
  6
CONTINUOUS
100
AcDbLine
 10
27.85467617360728
 20
0.0330999999912356
 30
0.0
 11
30.74199999996924
 21
2.920423826353195
 31
0.0
  0
LINE
  5
2064C
330
20627
100
AcDbEntity
  8
0
  6
CONTINUOUS
100
AcDbLine
 10
28.53897559587887
 20
0.0438802131826428
 30
0.0
 11
30.73121978677781
 21
2.236124404081585
 31
0.0
  0
LINE
  5
2064D
330
20627
100
AcDbEntity
  8
0
  6
CONTINUOUS
100
AcDbLine
 10
29.45140055588722
 20
0.2827859641107988
 30
0.0
 11
30.49231403584965
 21
1.323699444073236
 31
0.0
  0
LINE
  5
2064E
330
20627
100
AcDbEntity
  8
0
  6
CONTINUOUS
100
AcDbLine
 10
19.59027867740337
 20
-0.0000967065718083
 30
0.0
 11
19.55485265190471
 21
0.035329318926844
 31
0.0
  0
LINE
  5
2064F
330
20627
100
AcDbEntity
  8
0
  6
CONTINUOUS
100
AcDbLine
 10
20.26375463176586
 20
-0.0000534518541091
 30
0.0
 11
19.76305575737534
 21
0.5006454225364014
 31
0.0
  0
LINE
  5
20650
330
20627
100
AcDbEntity
  8
0
  6
CONTINUOUS
100
AcDbLine
 10
20.93723058612834
 20
-0.0000101971364099
 30
0.0
 11
19.97125886284597
 21
0.965961526145958
 31
0.0
  0
LINE
  5
20651
330
20627
100
AcDbEntity
  8
0
  6
CONTINUOUS
100
AcDbLine
 10
21.25514828313686
 20
0.355591314935257
 30
0.0
 11
20.1794619683166
 21
1.431277629755512
 31
0.0
  0
LINE
  5
20652
330
20627
100
AcDbEntity
  8
0
  6
CONTINUOUS
100
AcDbLine
 10
21.46338838394921
 20
0.8208704232030986
 30
0.0
 11
20.38766507378723
 21
1.896593733365069
 31
0.0
  0
LINE
  5
20653
330
20627
100
AcDbEntity
  8
0
  6
CONTINUOUS
100
AcDbLine
 10
21.67162848476155
 20
1.28614953147094
 30
0.0
 11
20.59586817925786
 21
2.361909836974626
 31
0.0
  0
LINE
  5
20654
330
20627
100
AcDbEntity
  8
0
  6
CONTINUOUS
100
AcDbLine
 10
21.8798685855739
 20
1.751428639738782
 30
0.0
 11
20.80407128472849
 21
2.827225940584183
 31
0.0
  0
LINE
  5
20655
330
20627
100
AcDbEntity
  8
0
  6
CONTINUOUS
100
AcDbLine
 10
22.08810868638624
 20
2.216707748006623
 30
0.0
 11
21.01227439019912
 21
3.292542044193739
 31
0.0
  0
LINE
  5
20656
330
20627
100
AcDbEntity
  8
0
  6
CONTINUOUS
100
AcDbLine
 10
22.60993564347543
 20
2.36839999999762
 30
0.0
 11
21.22047749566975
 21
3.757858147803296
 31
0.0
  0
LINE
  5
20657
330
20627
100
AcDbEntity
  8
0
  6
CONTINUOUS
100
AcDbLine
 10
23.28345485255561
 20
2.36839999999762
 30
0.0
 11
21.42868060114038
 21
4.223174251412853
 31
0.0
  0
LINE
  5
20658
330
20627
100
AcDbEntity
  8
0
  6
CONTINUOUS
100
AcDbLine
 10
26.29227406164219
 20
0.0330999999912356
 30
0.0
 11
25.80009199592872
 21
0.5252820657046957
 31
0.0
  0
LINE
  5
20659
330
20627
100
AcDbEntity
  8
0
  6
CONTINUOUS
100
AcDbLine
 10
23.9569740616358
 20
2.36839999999762
 30
0.0
 11
21.63688370661101
 21
4.688490355022409
 31
0.0
  0
LINE
  5
2065A
330
20627
100
AcDbEntity
  8
0
  6
CONTINUOUS
100
AcDbLine
 10
26.96579327072237
 20
0.0330999999912356
 30
0.0
 11
25.2554132311971
 21
1.743480039516508
 31
0.0
  0
LINE
  5
2065B
330
20627
100
AcDbEntity
  8
0
  6
CONTINUOUS
100
AcDbLine
 10
24.63049327071599
 20
2.36839999999762
 30
0.0
 11
23.32789327071731
 21
3.670999999996297
 31
0.0
  0
LINE
  5
2065C
330
20627
100
AcDbEntity
  8
0
  6
CONTINUOUS
100
AcDbLine
 10
22.92098674744635
 20
4.077906523267254
 30
0.0
 11
21.84508681208164
 21
5.153806458631966
 31
0.0
  0
LINE
  5
2065D
330
20627
100
AcDbEntity
  8
0
  6
CONTINUOUS
100
AcDbLine
 10
27.63931247980256
 20
0.0330999999912356
 30
0.0
 11
24.0014124797975
 21
3.670999999996297
 31
0.0
  0
LINE
  5
2065E
330
20627
100
AcDbEntity
  8
0
  6
CONTINUOUS
100
AcDbLine
 10
23.129125600968
 20
4.5432868788258
 30
0.0
 11
22.05328991755227
 21
5.619122562241522
 31
0.0
  0
LINE
  5
2065F
330
20627
100
AcDbEntity
  8
0
  6
CONTINUOUS
100
AcDbLine
 10
28.31283168888275
 20
0.0330999999912356
 30
0.0
 11
24.16488385994816
 21
4.181047828925828
 31
0.0
  0
LINE
  5
20660
330
20627
100
AcDbEntity
  8
0
  6
CONTINUOUS
100
AcDbLine
 10
23.33726445448964
 20
5.008667234384345
 30
0.0
 11
22.2614930230229
 21
6.084438665851079
 31
0.0
  0
LINE
  5
20661
330
20627
100
AcDbEntity
  8
0
  6
CONTINUOUS
100
AcDbLine
 10
28.92085740005492
 20
0.0985934978992438
 30
0.0
 11
27.63635089796295
 21
1.383099999991217
 31
0.0
  0
LINE
  5
20662
330
20627
100
AcDbEntity
  8
0
  6
CONTINUOUS
100
AcDbLine
 10
26.43704649509776
 20
2.582404402856405
 30
0.0
 11
23.61992702019732
 21
5.399523877756844
 31
0.0
  0
LINE
  5
20663
330
20627
100
AcDbEntity
  8
0
  6
CONTINUOUS
100
AcDbLine
 10
23.54540330801128
 20
5.47404758994289
 30
0.0
 11
22.46969612849353
 21
6.549754769460635
 31
0.0
  0
LINE
  5
20664
330
20627
100
AcDbEntity
  8
0
  6
CONTINUOUS
100
AcDbLine
 10
29.42225615078443
 20
0.2707139562499279
 30
0.0
 11
28.30987010704312
 21
1.383099999991234
 31
0.0
  0
LINE
  5
20665
330
20627
100
AcDbEntity
  8
0
  6
CONTINUOUS
100
AcDbLine
 10
25.89179548232307
 20
3.801174624711282
 30
0.0
 11
22.67789923396416
 21
7.015070873070191
 31
0.0
  0
LINE
  5
20666
330
20627
100
AcDbEntity
  8
0
  6
CONTINUOUS
100
AcDbLine
 10
29.83624534690007
 20
0.5302439692144705
 30
0.0
 11
28.85811781497101
 21
1.508371501143527
 31
0.0
  0
LINE
  5
20667
330
20627
100
AcDbEntity
  8
0
  6
CONTINUOUS
100
AcDbLine
 10
25.34654446954838
 20
5.01994484656616
 30
0.0
 11
22.88610233943479
 21
7.480386976679748
 31
0.0
  0
LINE
  5
20668
330
20627
100
AcDbEntity
  8
0
  6
CONTINUOUS
100
AcDbLine
 10
30.17865975401872
 20
0.8613487711760022
 30
0.0
 11
29.18888744090175
 21
1.851121084292977
 31
0.0
  0
LINE
  5
20669
330
20627
100
AcDbEntity
  8
0
  6
CONTINUOUS
100
AcDbLine
 10
24.80129345677369
 20
6.238715068421037
 30
0.0
 11
23.09430544490542
 21
7.945703080289305
 31
0.0
  0
LINE
  5
2066A
330
20627
100
AcDbEntity
  8
0
  6
CONTINUOUS
100
AcDbLine
 10
30.45496647202376
 20
1.258561262251155
 30
0.0
 11
29.30199999996933
 21
2.411527734305588
 31
0.0
  0
LINE
  5
2066B
330
20627
100
AcDbEntity
  8
0
  6
CONTINUOUS
100
AcDbLine
 10
24.256042443999
 20
7.457485290275915
 30
0.0
 11
23.30250855037605
 21
8.411019183898862
 31
0.0
  0
LINE
  5
2066C
330
20627
100
AcDbEntity
  8
0
  6
CONTINUOUS
100
AcDbLine
 10
30.64868582078271
 20
1.738361122572387
 30
0.0
 11
29.30199999996933
 21
3.085046943385775
 31
0.0
  0
LINE
  5
2066D
330
20627
100
AcDbEntity
  8
0
  6
CONTINUOUS
100
AcDbLine
 10
23.71079143122431
 20
8.676255512130794
 30
0.0
 11
23.51071165584668
 21
8.876335287508416
 31
0.0
  0
LINE
  5
2066E
330
20627
100
AcDbEntity
  8
0
  6
CONTINUOUS
100
AcDbLine
 10
30.73802122914428
 20
2.322544923291007
 30
0.0
 11
29.30199999996933
 21
3.758566152465961
 31
0.0
  0
LINE
  5
2066F
330
20627
100
AcDbEntity
  8
0
  6
CONTINUOUS
100
AcDbLine
 10
30.74199999996924
 20
2.992085361546236
 30
0.0
 11
29.30199999996933
 21
4.432085361546148
 31
0.0
  0
LINE
  5
20670
330
20627
100
AcDbEntity
  8
0
  6
CONTINUOUS
100
AcDbLine
 10
30.74199999996924
 20
3.665604570626419
 30
0.0
 11
29.30199999996933
 21
5.105604570626333
 31
0.0
  0
LINE
  5
20671
330
20627
100
AcDbEntity
  8
0
  6
CONTINUOUS
100
AcDbLine
 10
30.74199999996925
 20
4.339123779706602
 30
0.0
 11
29.30199999996933
 21
5.77912377970652
 31
0.0
  0
LINE
  5
20672
330
20627
100
AcDbEntity
  8
0
  6
CONTINUOUS
100
AcDbLine
 10
30.74199999996925
 20
5.012642988786785
 30
0.0
 11
29.30199999996933
 21
6.452642988786707
 31
0.0
  0
LINE
  5
20673
330
20627
100
AcDbEntity
  8
0
  6
CONTINUOUS
100
AcDbLine
 10
30.74199999996925
 20
5.68616219786697
 30
0.0
 11
29.30199999996933
 21
7.126162197866894
 31
0.0
  0
LINE
  5
20674
330
20627
100
AcDbEntity
  8
0
  6
CONTINUOUS
100
AcDbLine
 10
30.74199999996925
 20
6.359681406947153
 30
0.0
 11
29.30199999996933
 21
7.799681406947081
 31
0.0
  0
LINE
  5
20675
330
20627
100
AcDbEntity
  8
0
  6
CONTINUOUS
100
AcDbLine
 10
30.74199999996926
 20
7.033200616027337
 30
0.0
 11
29.30199999996933
 21
8.473200616027269
 31
0.0
  0
LINE
  5
20676
330
20627
100
AcDbEntity
  8
0
  6
CONTINUOUS
100
AcDbLine
 10
30.74199999996926
 20
7.706719825107518
 30
0.0
 11
29.68561982508552
 21
8.763099999991255
 31
0.0
  0
LINE
  5
20677
330
20627
100
AcDbEntity
  8
0
  6
CONTINUOUS
100
AcDbLine
 10
30.74199999996926
 20
8.380239034187703
 30
0.0
 11
30.35913903416571
 21
8.763099999991255
 31
0.0
  0
ENDBLK
  5
2071A
330
20627
100
AcDbEntity
  8
0
100
AcDbBlockEnd
  0
BLOCK
  5
2071B
330
20678
100
AcDbEntity
  8
0
100
AcDbBlockBegin
  2
*X47
 70
     1
 10
0.0
 20
0.0
 30
0.0
  3
*X47
  1

  0
LINE
  5
20679
330
20678
100
AcDbEntity
  8
0
  6
CONTINUOUS
100
AcDbLine
 10
31.64199999996833
 20
8.535058289913598
 30
0.0
 11
31.87004171004599
 21
8.763099999991255
 31
0.0
  0
LINE
  5
2067A
330
20678
100
AcDbEntity
  8
0
  6
CONTINUOUS
100
AcDbLine
 10
31.64199999996833
 20
7.861539080833412
 30
0.0
 11
32.54356091912618
 21
8.763099999991255
 31
0.0
  0
LINE
  5
2067B
330
20678
100
AcDbEntity
  8
0
  6
CONTINUOUS
100
AcDbLine
 10
31.64199999996833
 20
7.188019871753226
 30
0.0
 11
33.08199999996839
 21
8.628019871753281
 31
0.0
  0
LINE
  5
2067C
330
20678
100
AcDbEntity
  8
0
  6
CONTINUOUS
100
AcDbLine
 10
31.64199999996833
 20
6.51450066267304
 30
0.0
 11
33.08199999996839
 21
7.954500662673095
 31
0.0
  0
LINE
  5
2067D
330
20678
100
AcDbEntity
  8
0
  6
CONTINUOUS
100
AcDbLine
 10
31.64199999996833
 20
5.840981453592853
 30
0.0
 11
33.08199999996839
 21
7.280981453592908
 31
0.0
  0
LINE
  5
2067E
330
20678
100
AcDbEntity
  8
0
  6
CONTINUOUS
100
AcDbLine
 10
31.64199999996833
 20
5.167462244512667
 30
0.0
 11
33.08199999996839
 21
6.607462244512721
 31
0.0
  0
LINE
  5
2067F
330
20678
100
AcDbEntity
  8
0
  6
CONTINUOUS
100
AcDbLine
 10
31.64199999996833
 20
4.493943035432481
 30
0.0
 11
33.08199999996839
 21
5.933943035432535
 31
0.0
  0
LINE
  5
20680
330
20678
100
AcDbEntity
  8
0
  6
CONTINUOUS
100
AcDbLine
 10
31.64199999996833
 20
3.820423826352293
 30
0.0
 11
33.08199999996839
 21
5.260423826352348
 31
0.0
  0
LINE
  5
20681
330
20678
100
AcDbEntity
  8
0
  6
CONTINUOUS
100
AcDbLine
 10
31.64199999996833
 20
3.146904617272106
 30
0.0
 11
33.08199999996839
 21
4.586904617272161
 31
0.0
  0
LINE
  5
20682
330
20678
100
AcDbEntity
  8
0
  6
CONTINUOUS
100
AcDbLine
 10
36.23199999996837
 20
8.410423826352325
 30
0.0
 11
36.5846761736073
 21
8.763099999991255
 31
0.0
  0
LINE
  5
20683
330
20678
100
AcDbEntity
  8
0
  6
CONTINUOUS
100
AcDbLine
 10
36.23199999996837
 20
7.73690461727214
 30
0.0
 11
37.25819538268748
 21
8.763099999991255
 31
0.0
  0
LINE
  5
20684
330
20678
100
AcDbEntity
  8
0
  6
CONTINUOUS
100
AcDbLine
 10
31.64257403601376
 20
2.473959444237348
 30
0.0
 11
33.08199999996839
 21
3.913385408191974
 31
0.0
  0
LINE
  5
20685
330
20678
100
AcDbEntity
  8
0
  6
CONTINUOUS
100
AcDbLine
 10
36.23199999996837
 20
7.063385408191953
 30
0.0
 11
37.67199999996831
 21
8.503385408191894
 31
0.0
  0
LINE
  5
20686
330
20678
100
AcDbEntity
  8
0
  6
CONTINUOUS
100
AcDbLine
 10
31.72013636841932
 20
1.87800256756272
 30
0.0
 11
33.08199999996839
 21
3.239866199111788
 31
0.0
  0
LINE
  5
20687
330
20678
100
AcDbEntity
  8
0
  6
CONTINUOUS
100
AcDbLine
 10
36.23199999996837
 20
6.389866199111767
 30
0.0
 11
37.67199999996831
 21
7.829866199111708
 31
0.0
  0
LINE
  5
20688
330
20678
100
AcDbEntity
  8
0
  6
CONTINUOUS
100
AcDbLine
 10
31.89042734314753
 20
1.374774333210744
 30
0.0
 11
33.08199999996839
 21
2.566346990031601
 31
0.0
  0
LINE
  5
20689
330
20678
100
AcDbEntity
  8
0
  6
CONTINUOUS
100
AcDbLine
 10
36.23199999996837
 20
5.71634699003158
 30
0.0
 11
37.67199999996831
 21
7.156346990031521
 31
0.0
  0
LINE
  5
2068A
330
20678
100
AcDbEntity
  8
0
  6
CONTINUOUS
100
AcDbLine
 10
32.14210568064475
 20
0.952933461627778
 30
0.0
 11
33.18745552475986
 21
1.998283305742888
 31
0.0
  0
LINE
  5
2068B
330
20678
100
AcDbEntity
  8
0
  6
CONTINUOUS
100
AcDbLine
 10
36.23199999996837
 20
5.042827780951393
 30
0.0
 11
37.67199999996831
 21
6.482827780951334
 31
0.0
  0
LINE
  5
2068C
330
20678
100
AcDbEntity
  8
0
  6
CONTINUOUS
100
AcDbLine
 10
32.45820639400955
 20
0.5955149659123915
 30
0.0
 11
33.47242681921943
 21
1.60973539112227
 31
0.0
  0
LINE
  5
2068D
330
20678
100
AcDbEntity
  8
0
  6
CONTINUOUS
100
AcDbLine
 10
36.23199999996837
 20
4.369308571871207
 30
0.0
 11
37.67199999996831
 21
5.809308571871147
 31
0.0
  0
LINE
  5
2068E
330
20678
100
AcDbEntity
  8
0
  6
CONTINUOUS
100
AcDbLine
 10
32.83432456621412
 20
0.2981139290367771
 30
0.0
 11
33.89722476612215
 21
1.361014128944803
 31
0.0
  0
LINE
  5
2068F
330
20678
100
AcDbEntity
  8
0
  6
CONTINUOUS
100
AcDbLine
 10
36.23199999996837
 20
3.69578936279102
 30
0.0
 11
37.67199999996831
 21
5.135789362790962
 31
0.0
  0
LINE
  5
20690
330
20678
100
AcDbEntity
  8
0
  6
CONTINUOUS
100
AcDbLine
 10
33.2711633111245
 20
0.0614334648669672
 30
0.0
 11
34.43247338014423
 21
1.222743533886696
 31
0.0
  0
LINE
  5
20691
330
20678
100
AcDbEntity
  8
0
  6
CONTINUOUS
100
AcDbLine
 10
36.23199999996837
 20
3.022270153710834
 30
0.0
 11
37.67199999996831
 21
4.462270153710775
 31
0.0
  0
LINE
  5
20692
330
20678
100
AcDbEntity
  8
0
  6
CONTINUOUS
100
AcDbLine
 10
33.76515245874577
 20
-0.1180965965919523
 30
0.0
 11
35.1587445516215
 21
1.27549549628378
 31
0.0
  0
LINE
  5
20693
330
20678
100
AcDbEntity
  8
0
  6
CONTINUOUS
100
AcDbLine
 10
36.21639478609585
 20
2.333145730758136
 30
0.0
 11
37.67199999996831
 21
3.788750944630588
 31
0.0
  0
LINE
  5
20694
330
20678
100
AcDbEntity
  8
0
  6
CONTINUOUS
100
AcDbLine
 10
34.34060583368432
 20
-0.2161624307335863
 30
0.0
 11
37.67199999996831
 21
3.115231735550401
 31
0.0
  0
LINE
  5
20695
330
20678
100
AcDbEntity
  8
0
  6
CONTINUOUS
100
AcDbLine
 10
35.01698193613905
 20
-0.2133055373590427
 30
0.0
 11
37.66876712070525
 21
2.438479647207154
 31
0.0
  0
LINE
  5
20696
330
20678
100
AcDbEntity
  8
0
  6
CONTINUOUS
100
AcDbLine
 10
35.90743367693304
 20
0.0036269943547609
 30
0.0
 11
37.51723902192366
 21
1.613432339345381
 31
0.0
  0
LINE
  5
20697
330
20678
100
AcDbEntity
  8
0
  6
CONTINUOUS
100
AcDbLine
 10
32.55309425579761
 20
0.5074718966376706
 30
0.0
 11
32.27784730925847
 21
0.7827188431768102
 31
0.0
  0
LINE
  5
20698
330
20678
100
AcDbEntity
  8
0
  6
CONTINUOUS
100
AcDbLine
 10
33.87496468909684
 20
-0.1408793275813673
 30
0.0
 11
31.67993083278052
 21
2.054154528734943
 31
0.0
  0
LINE
  5
20699
330
20678
100
AcDbEntity
  8
0
  6
CONTINUOUS
100
AcDbLine
 10
34.64362813207632
 20
-0.2360235614806649
 30
0.0
 11
31.64199999996833
 21
2.765604570627322
 31
0.0
  0
LINE
  5
2069A
330
20678
100
AcDbEntity
  8
0
  6
CONTINUOUS
100
AcDbLine
 10
35.25801106796118
 20
-0.1768872882853429
 30
0.0
 11
31.64199999996833
 21
3.439123779707508
 31
0.0
  0
LINE
  5
2069B
330
20678
100
AcDbEntity
  8
0
  6
CONTINUOUS
100
AcDbLine
 10
35.79065650332146
 20
-0.0360135145654361
 30
0.0
 11
34.54143210838231
 21
1.213210880373721
 31
0.0
  0
LINE
  5
2069C
330
20678
100
AcDbEntity
  8
0
  6
CONTINUOUS
100
AcDbLine
 10
33.08199999996839
 20
2.67264298878764
 30
0.0
 11
31.64199999996833
 21
4.112642988787695
 31
0.0
  0
LINE
  5
2069D
330
20678
100
AcDbEntity
  8
0
  6
CONTINUOUS
100
AcDbLine
 10
36.25975597779143
 20
0.1684062200447833
 30
0.0
 11
35.15395110240023
 21
1.274211095435983
 31
0.0
  0
LINE
  5
2069E
330
20678
100
AcDbEntity
  8
0
  6
CONTINUOUS
100
AcDbLine
 10
33.08199999996839
 20
3.346162197867826
 30
0.0
 11
31.64199999996833
 21
4.786162197867881
 31
0.0
  0
LINE
  5
2069F
330
20678
100
AcDbEntity
  8
0
  6
CONTINUOUS
100
AcDbLine
 10
36.67226329638774
 20
0.4294181105286579
 30
0.0
 11
35.63766478748767
 21
1.464016619428737
 31
0.0
  0
LINE
  5
206A0
330
20678
100
AcDbEntity
  8
0
  6
CONTINUOUS
100
AcDbLine
 10
33.08199999996839
 20
4.019681406948012
 30
0.0
 11
31.64199999996833
 21
5.459681406948068
 31
0.0
  0
LINE
  5
206A1
330
20678
100
AcDbEntity
  8
0
  6
CONTINUOUS
100
AcDbLine
 10
37.01677749710036
 20
0.7584231188962329
 30
0.0
 11
35.99563422741351
 21
1.779566388583076
 31
0.0
  0
LINE
  5
206A2
330
20678
100
AcDbEntity
  8
0
  6
CONTINUOUS
100
AcDbLine
 10
33.08199999996839
 20
4.693200616028199
 30
0.0
 11
31.64199999996833
 21
6.133200616028255
 31
0.0
  0
LINE
  5
206A3
330
20678
100
AcDbEntity
  8
0
  6
CONTINUOUS
100
AcDbLine
 10
37.29859977568887
 20
1.1501200493879
 30
0.0
 11
36.20680593341555
 21
2.241913891661226
 31
0.0
  0
LINE
  5
206A4
330
20678
100
AcDbEntity
  8
0
  6
CONTINUOUS
100
AcDbLine
 10
33.08199999996839
 20
5.366719825108386
 30
0.0
 11
31.64199999996833
 21
6.80671982510844
 31
0.0
  0
LINE
  5
206A5
330
20678
100
AcDbEntity
  8
0
  6
CONTINUOUS
100
AcDbLine
 10
37.5148623517228
 20
1.607376682434161
 30
0.0
 11
36.23199999996837
 21
2.890239034188594
 31
0.0
  0
LINE
  5
206A6
330
20678
100
AcDbEntity
  8
0
  6
CONTINUOUS
100
AcDbLine
 10
33.08199999996839
 20
6.040239034188573
 30
0.0
 11
31.64199999996833
 21
7.480239034188627
 31
0.0
  0
LINE
  5
206A7
330
20678
100
AcDbEntity
  8
0
  6
CONTINUOUS
100
AcDbLine
 10
37.64705163358367
 20
2.148706609653477
 30
0.0
 11
36.23199999996837
 21
3.56375824326878
 31
0.0
  0
LINE
  5
206A8
330
20678
100
AcDbEntity
  8
0
  6
CONTINUOUS
100
AcDbLine
 10
33.08199999996839
 20
6.713758243268758
 30
0.0
 11
31.64199999996833
 21
8.153758243268815
 31
0.0
  0
LINE
  5
206A9
330
20678
100
AcDbEntity
  8
0
  6
CONTINUOUS
100
AcDbLine
 10
37.67199999996831
 20
2.797277452349026
 30
0.0
 11
36.23199999996837
 21
4.237277452348967
 31
0.0
  0
LINE
  5
206AA
330
20678
100
AcDbEntity
  8
0
  6
CONTINUOUS
100
AcDbLine
 10
37.67199999996831
 20
3.470796661429213
 30
0.0
 11
36.23199999996837
 21
4.910796661429154
 31
0.0
  0
LINE
  5
206AB
330
20678
100
AcDbEntity
  8
0
  6
CONTINUOUS
100
AcDbLine
 10
37.67199999996831
 20
4.144315870509399
 30
0.0
 11
36.23199999996837
 21
5.58431587050934
 31
0.0
  0
LINE
  5
206AC
330
20678
100
AcDbEntity
  8
0
  6
CONTINUOUS
100
AcDbLine
 10
33.08199999996839
 20
7.387277452348945
 30
0.0
 11
31.70617745232608
 21
8.763099999991255
 31
0.0
  0
LINE
  5
206AD
330
20678
100
AcDbEntity
  8
0
  6
CONTINUOUS
100
AcDbLine
 10
33.08199999996839
 20
8.060796661429132
 30
0.0
 11
32.37969666140626
 21
8.763099999991255
 31
0.0
  0
LINE
  5
206AE
330
20678
100
AcDbEntity
  8
0
  6
CONTINUOUS
100
AcDbLine
 10
33.08199999996839
 20
8.734315870509318
 30
0.0
 11
33.05321587048645
 21
8.763099999991255
 31
0.0
  0
LINE
  5
206AF
330
20678
100
AcDbEntity
  8
0
  6
CONTINUOUS
100
AcDbLine
 10
37.67199999996831
 20
4.817835079589585
 30
0.0
 11
36.23199999996837
 21
6.257835079589526
 31
0.0
  0
LINE
  5
206B0
330
20678
100
AcDbEntity
  8
0
  6
CONTINUOUS
100
AcDbLine
 10
37.67199999996831
 20
5.491354288669771
 30
0.0
 11
36.23199999996837
 21
6.931354288669713
 31
0.0
  0
LINE
  5
206B1
330
20678
100
AcDbEntity
  8
0
  6
CONTINUOUS
100
AcDbLine
 10
37.67199999996831
 20
6.164873497749958
 30
0.0
 11
36.23199999996837
 21
7.6048734977499
 31
0.0
  0
LINE
  5
206B2
330
20678
100
AcDbEntity
  8
0
  6
CONTINUOUS
100
AcDbLine
 10
37.67199999996831
 20
6.838392706830144
 30
0.0
 11
36.23199999996837
 21
8.278392706830086
 31
0.0
  0
LINE
  5
206B3
330
20678
100
AcDbEntity
  8
0
  6
CONTINUOUS
100
AcDbLine
 10
37.67199999996831
 20
7.511911915910332
 30
0.0
 11
36.42081191588738
 21
8.763099999991255
 31
0.0
  0
LINE
  5
206B4
330
20678
100
AcDbEntity
  8
0
  6
CONTINUOUS
100
AcDbLine
 10
37.67199999996831
 20
8.185431124990519
 30
0.0
 11
37.09433112496757
 21
8.763099999991255
 31
0.0
  0
ENDBLK
  5
2071C
330
20678
100
AcDbEntity
  8
0
100
AcDbBlockEnd
  0
BLOCK
  5
2071D
330
206B5
100
AcDbEntity
  8
0
100
AcDbBlockBegin
  2
*X48
 70
     1
 10
0.0
 20
0.0
 30
0.0
  3
*X48
  1

  0
LINE
  5
206B6
330
206B5
100
AcDbEntity
  8
0
  6
CONTINUOUS
100
AcDbLine
 10
38.60499999996136
 20
8.762866199104765
 30
0.0
 11
38.71672554182345
 21
8.874591740966855
 31
0.0
  0
LINE
  5
206B7
330
206B5
100
AcDbEntity
  8
0
  6
CONTINUOUS
100
AcDbLine
 10
38.60499999996136
 20
8.089346990024577
 30
0.0
 11
39.03418785440363
 21
8.518534844466847
 31
0.0
  0
LINE
  5
206B8
330
206B5
100
AcDbEntity
  8
0
  6
CONTINUOUS
100
AcDbLine
 10
38.60499999996136
 20
7.41582778094439
 30
0.0
 11
39.35165016698382
 21
8.16247794796684
 31
0.0
  0
LINE
  5
206B9
330
206B5
100
AcDbEntity
  8
0
  6
CONTINUOUS
100
AcDbLine
 10
38.60499999996136
 20
6.742308571864204
 30
0.0
 11
39.66911247956399
 21
7.806421051466834
 31
0.0
  0
LINE
  5
206BA
330
206B5
100
AcDbEntity
  8
0
  6
CONTINUOUS
100
AcDbLine
 10
38.60499999996136
 20
6.068789362784018
 30
0.0
 11
39.98657479214418
 21
7.450364154966827
 31
0.0
  0
LINE
  5
206BB
330
206B5
100
AcDbEntity
  8
0
  6
CONTINUOUS
100
AcDbLine
 10
38.60499999996136
 20
5.395270153703832
 30
0.0
 11
40.30403710472435
 21
7.09430725846682
 31
0.0
  0
LINE
  5
206BC
330
206B5
100
AcDbEntity
  8
0
  6
CONTINUOUS
100
AcDbLine
 10
38.60499999996136
 20
4.721750944623645
 30
0.0
 11
40.62149941730453
 21
6.738250361966813
 31
0.0
  0
LINE
  5
206BD
330
206B5
100
AcDbEntity
  8
0
  6
CONTINUOUS
100
AcDbLine
 10
38.60499999996136
 20
4.048231735543458
 30
0.0
 11
40.93896172988471
 21
6.382193465466806
 31
0.0
  0
LINE
  5
206BE
330
206B5
100
AcDbEntity
  8
0
  6
CONTINUOUS
100
AcDbLine
 10
38.60499999996136
 20
3.374712526463272
 30
0.0
 11
40.02599999995994
 21
4.795712526461843
 31
0.0
  0
LINE
  5
206BF
330
206B5
100
AcDbEntity
  8
0
  6
CONTINUOUS
100
AcDbLine
 10
38.60499999996136
 20
2.701193317383085
 30
0.0
 11
40.02599999995994
 21
4.122193317381657
 31
0.0
  0
LINE
  5
206C0
330
206B5
100
AcDbEntity
  8
0
  6
CONTINUOUS
100
AcDbLine
 10
40.28339754687704
 20
5.053110073378947
 30
0.0
 11
41.25642404246489
 21
6.026136568966799
 31
0.0
  0
LINE
  5
206C1
330
206B5
100
AcDbEntity
  8
0
  6
CONTINUOUS
100
AcDbLine
 10
40.60085985945722
 20
4.697053176878939
 30
0.0
 11
41.57388635504507
 21
5.670079672466793
 31
0.0
  0
LINE
  5
206C2
330
206B5
100
AcDbEntity
  8
0
  6
CONTINUOUS
100
AcDbLine
 10
43.57899999995641
 20
8.348712526458318
 30
0.0
 11
43.99338747348935
 21
8.763099999991255
 31
0.0
  0
LINE
  5
206C3
330
206B5
100
AcDbEntity
  8
0
  6
CONTINUOUS
100
AcDbLine
 10
43.57899999995641
 20
7.675193317378131
 30
0.0
 11
44.66690668256953
 21
8.763099999991255
 31
0.0
  0
LINE
  5
206C4
330
206B5
100
AcDbEntity
  8
0
  6
CONTINUOUS
100
AcDbLine
 10
38.60499999996136
 20
2.027674108302898
 30
0.0
 11
40.02599999995994
 21
3.44867410830147
 31
0.0
  0
LINE
  5
206C5
330
206B5
100
AcDbEntity
  8
0
  6
CONTINUOUS
100
AcDbLine
 10
38.60499999996136
 20
1.354154899222712
 30
0.0
 11
40.02599999995994
 21
2.775154899221284
 31
0.0
  0
LINE
  5
206C6
330
206B5
100
AcDbEntity
  8
0
  6
CONTINUOUS
100
AcDbLine
 10
38.60499999996136
 20
0.6806356901425255
 30
0.0
 11
40.02599999995994
 21
2.101635690141098
 31
0.0
  0
LINE
  5
206C7
330
206B5
100
AcDbEntity
  8
0
  6
CONTINUOUS
100
AcDbLine
 10
38.60499999996136
 20
0.0071164810623383
 30
0.0
 11
40.02599999995994
 21
1.428116481060911
 31
0.0
  0
LINE
  5
206C8
330
206B5
100
AcDbEntity
  8
0
  6
CONTINUOUS
100
AcDbLine
 10
40.9183221720374
 20
4.340996280378933
 30
0.0
 11
41.89134866762525
 21
5.314022775966786
 31
0.0
  0
LINE
  5
206C9
330
206B5
100
AcDbEntity
  8
0
  6
CONTINUOUS
100
AcDbLine
 10
41.23578448461758
 20
3.984939383878926
 30
0.0
 11
42.20881098020543
 21
4.957965879466778
 31
0.0
  0
LINE
  5
206CA
330
206B5
100
AcDbEntity
  8
0
  6
CONTINUOUS
100
AcDbLine
 10
41.55324679719776
 20
3.628882487378919
 30
0.0
 11
42.52627329278561
 21
4.601908982966772
 31
0.0
  0
LINE
  5
206CB
330
206B5
100
AcDbEntity
  8
0
  6
CONTINUOUS
100
AcDbLine
 10
41.87070910977793
 20
3.272825590878912
 30
0.0
 11
42.84373560536579
 21
4.245852086466765
 31
0.0
  0
LINE
  5
206CC
330
206B5
100
AcDbEntity
  8
0
  6
CONTINUOUS
100
AcDbLine
 10
43.57899999995641
 20
7.001674108297943
 30
0.0
 11
44.99999999995498
 21
8.422674108296516
 31
0.0
  0
LINE
  5
206CD
330
206B5
100
AcDbEntity
  8
0
  6
CONTINUOUS
100
AcDbLine
 10
43.57899999995641
 20
6.328154899217758
 30
0.0
 11
44.99999999995498
 21
7.749154899216329
 31
0.0
  0
LINE
  5
206CE
330
206B5
100
AcDbEntity
  8
0
  6
CONTINUOUS
100
AcDbLine
 10
43.57899999995641
 20
5.654635690137571
 30
0.0
 11
44.99999999995498
 21
7.075635690136142
 31
0.0
  0
LINE
  5
206CF
330
206B5
100
AcDbEntity
  8
0
  6
CONTINUOUS
100
AcDbLine
 10
43.57899999995641
 20
4.981116481057384
 30
0.0
 11
44.99999999995498
 21
6.402116481055955
 31
0.0
  0
LINE
  5
206D0
330
206B5
100
AcDbEntity
  8
0
  6
CONTINUOUS
100
AcDbLine
 10
39.27140272797921
 20
-0.0000000000000009
 30
0.0
 11
40.02599999995994
 21
0.7545972719807246
 31
0.0
  0
LINE
  5
206D1
330
206B5
100
AcDbEntity
  8
0
  6
CONTINUOUS
100
AcDbLine
 10
39.9449219370594
 20
-0.0000000000000009
 30
0.0
 11
40.02599999995994
 21
0.0810780629005379
 31
0.0
  0
LINE
  5
206D2
330
206B5
100
AcDbEntity
  8
0
  6
CONTINUOUS
100
AcDbLine
 10
42.18817142235812
 20
2.916768694378905
 30
0.0
 11
43.16119791794597
 21
3.889795189966758
 31
0.0
  0
LINE
  5
206D3
330
206B5
100
AcDbEntity
  8
0
  6
CONTINUOUS
100
AcDbLine
 10
42.50563373493829
 20
2.560711797878898
 30
0.0
 11
43.47866023052615
 21
3.533738293466751
 31
0.0
  0
LINE
  5
206D4
330
206B5
100
AcDbEntity
  8
0
  6
CONTINUOUS
100
AcDbLine
 10
43.57899999995641
 20
4.307597271977198
 30
0.0
 11
44.99999999995498
 21
5.728597271975769
 31
0.0
  0
LINE
  5
206D5
330
206B5
100
AcDbEntity
  8
0
  6
CONTINUOUS
100
AcDbLine
 10
43.57899999995641
 20
3.634078062897011
 30
0.0
 11
44.99999999995498
 21
5.055078062895582
 31
0.0
  0
LINE
  5
206D6
330
206B5
100
AcDbEntity
  8
0
  6
CONTINUOUS
100
AcDbLine
 10
42.82309604751848
 20
2.204654901378891
 30
0.0
 11
44.99999999995498
 21
4.381558853815395
 31
0.0
  0
LINE
  5
206D7
330
206B5
100
AcDbEntity
  8
0
  6
CONTINUOUS
100
AcDbLine
 10
43.14055836009865
 20
1.848598004878885
 30
0.0
 11
44.99999999995498
 21
3.70803964473521
 31
0.0
  0
LINE
  5
206D8
330
206B5
100
AcDbEntity
  8
0
  6
CONTINUOUS
100
AcDbLine
 10
43.45802067267883
 20
1.492541108378878
 30
0.0
 11
44.99999999995498
 21
3.034520435655023
 31
0.0
  0
LINE
  5
206D9
330
206B5
100
AcDbEntity
  8
0
  6
CONTINUOUS
100
AcDbLine
 10
43.77548298525902
 20
1.136484211878871
 30
0.0
 11
44.99999999995498
 21
2.361001226574837
 31
0.0
  0
LINE
  5
206DA
330
206B5
100
AcDbEntity
  8
0
  6
CONTINUOUS
100
AcDbLine
 10
44.09294529783919
 20
0.7804273153788639
 30
0.0
 11
44.99999999995498
 21
1.687482017494649
 31
0.0
  0
LINE
  5
206DB
330
206B5
100
AcDbEntity
  8
0
  6
CONTINUOUS
100
AcDbLine
 10
44.41040761041938
 20
0.4243704188788566
 30
0.0
 11
44.99999999995498
 21
1.013962808414463
 31
0.0
  0
LINE
  5
206DC
330
206B5
100
AcDbEntity
  8
0
  6
CONTINUOUS
100
AcDbLine
 10
44.72786992299955
 20
0.0683135223788494
 30
0.0
 11
44.99999999995498
 21
0.340443599334276
 31
0.0
  0
LINE
  5
206DD
330
206B5
100
AcDbEntity
  8
0
  6
CONTINUOUS
100
AcDbLine
 10
39.12223903415696
 20
-0.0000000000000009
 30
0.0
 11
38.60499999996136
 21
0.5172390341955961
 31
0.0
  0
LINE
  5
206DE
330
206B5
100
AcDbEntity
  8
0
  6
CONTINUOUS
100
AcDbLine
 10
39.79575824323715
 20
-0.0000000000000009
 30
0.0
 11
38.60499999996136
 21
1.190758243275783
 31
0.0
  0
LINE
  5
206DF
330
206B5
100
AcDbEntity
  8
0
  6
CONTINUOUS
100
AcDbLine
 10
40.02599999995994
 20
0.443277452357397
 30
0.0
 11
38.60499999996136
 21
1.864277452355969
 31
0.0
  0
LINE
  5
206E0
330
206B5
100
AcDbEntity
  8
0
  6
CONTINUOUS
100
AcDbLine
 10
40.02599999995994
 20
1.116796661437583
 30
0.0
 11
38.60499999996136
 21
2.537796661436155
 31
0.0
  0
LINE
  5
206E1
330
206B5
100
AcDbEntity
  8
0
  6
CONTINUOUS
100
AcDbLine
 10
40.02599999995994
 20
1.79031587051777
 30
0.0
 11
38.60499999996136
 21
3.211315870516341
 31
0.0
  0
LINE
  5
206E2
330
206B5
100
AcDbEntity
  8
0
  6
CONTINUOUS
100
AcDbLine
 10
40.02599999995994
 20
2.463835079597956
 30
0.0
 11
38.60499999996136
 21
3.884835079596527
 31
0.0
  0
LINE
  5
206E3
330
206B5
100
AcDbEntity
  8
0
  6
CONTINUOUS
100
AcDbLine
 10
40.02599999995994
 20
3.137354288678143
 30
0.0
 11
38.60499999996136
 21
4.558354288676714
 31
0.0
  0
LINE
  5
206E4
330
206B5
100
AcDbEntity
  8
0
  6
CONTINUOUS
100
AcDbLine
 10
40.02599999995994
 20
3.810873497758329
 30
0.0
 11
38.60499999996136
 21
5.2318734977569
 31
0.0
  0
LINE
  5
206E5
330
206B5
100
AcDbEntity
  8
0
  6
CONTINUOUS
100
AcDbLine
 10
40.02599999995994
 20
4.484392706838515
 30
0.0
 11
38.60499999996136
 21
5.905392706837086
 31
0.0
  0
LINE
  5
206E6
330
206B5
100
AcDbEntity
  8
0
  6
CONTINUOUS
100
AcDbLine
 10
44.99999999995498
 20
0.183911915923658
 30
0.0
 11
41.53858364506288
 21
3.64532827081576
 31
0.0
  0
LINE
  5
206E7
330
206B5
100
AcDbEntity
  8
0
  6
CONTINUOUS
100
AcDbLine
 10
40.02599999995994
 20
5.157911915918703
 30
0.0
 11
38.60499999996136
 21
6.578911915917274
 31
0.0
  0
LINE
  5
206E8
330
206B5
100
AcDbEntity
  8
0
  6
CONTINUOUS
100
AcDbLine
 10
44.99999999995498
 20
0.8574311250038447
 30
0.0
 11
38.60499999996136
 21
7.25243112499746
 31
0.0
  0
LINE
  5
206E9
330
206B5
100
AcDbEntity
  8
0
  6
CONTINUOUS
100
AcDbLine
 10
44.99999999995498
 20
1.530950334084031
 30
0.0
 11
38.60499999996136
 21
7.925950334077647
 31
0.0
  0
LINE
  5
206EA
330
206B5
100
AcDbEntity
  8
0
  6
CONTINUOUS
100
AcDbLine
 10
44.99999999995498
 20
2.204469543164218
 30
0.0
 11
43.57899999995641
 21
3.625469543162789
 31
0.0
  0
LINE
  5
206EB
330
206B5
100
AcDbEntity
  8
0
  6
CONTINUOUS
100
AcDbLine
 10
41.89876730984767
 20
5.305702233271528
 30
0.0
 11
38.60499999996136
 21
8.599469543157834
 31
0.0
  0
LINE
  5
206EC
330
206B5
100
AcDbEntity
  8
0
  6
CONTINUOUS
100
AcDbLine
 10
44.99999999995498
 20
2.877988752244405
 30
0.0
 11
43.57899999995641
 21
4.298988752242975
 31
0.0
  0
LINE
  5
206ED
330
206B5
100
AcDbEntity
  8
0
  6
CONTINUOUS
100
AcDbLine
 10
44.99999999995498
 20
3.551507961324591
 30
0.0
 11
43.57899999995641
 21
4.972507961323163
 31
0.0
  0
LINE
  5
206EE
330
206B5
100
AcDbEntity
  8
0
  6
CONTINUOUS
100
AcDbLine
 10
44.99999999995498
 20
4.225027170404777
 30
0.0
 11
43.57899999995641
 21
5.646027170403348
 31
0.0
  0
LINE
  5
206EF
330
206B5
100
AcDbEntity
  8
0
  6
CONTINUOUS
100
AcDbLine
 10
44.99999999995498
 20
4.898546379484964
 30
0.0
 11
43.57899999995641
 21
6.319546379483535
 31
0.0
  0
LINE
  5
206F0
330
206B5
100
AcDbEntity
  8
0
  6
CONTINUOUS
100
AcDbLine
 10
44.99999999995498
 20
5.572065588565151
 30
0.0
 11
43.57899999995641
 21
6.993065588563722
 31
0.0
  0
LINE
  5
206F1
330
206B5
100
AcDbEntity
  8
0
  6
CONTINUOUS
100
AcDbLine
 10
44.99999999995498
 20
6.245584797645336
 30
0.0
 11
43.57899999995641
 21
7.666584797643908
 31
0.0
  0
LINE
  5
206F2
330
206B5
100
AcDbEntity
  8
0
  6
CONTINUOUS
100
AcDbLine
 10
44.99999999995498
 20
6.919104006725522
 30
0.0
 11
43.57899999995641
 21
8.340104006724093
 31
0.0
  0
LINE
  5
206F3
330
206B5
100
AcDbEntity
  8
0
  6
CONTINUOUS
100
AcDbLine
 10
44.99999999995498
 20
7.592623215805709
 30
0.0
 11
43.82952321576943
 21
8.763099999991255
 31
0.0
  0
LINE
  5
206F4
330
206B5
100
AcDbEntity
  8
0
  6
CONTINUOUS
100
AcDbLine
 10
44.99999999995498
 20
8.266142424885896
 30
0.0
 11
44.50304242484962
 21
8.763099999991255
 31
0.0
  0
ENDBLK
  5
2071E
330
206B5
100
AcDbEntity
  8
0
100
AcDbBlockEnd
  0
BLOCK
  5
2071F
330
206F5
100
AcDbEntity
  8
0
100
AcDbBlockBegin
  2
*X49
 70
     1
 10
0.0
 20
0.0
 30
0.0
  3
*X49
  1

  0
LINE
  5
206F6
330
206F5
100
AcDbEntity
  8
0
  6
CONTINUOUS
100
AcDbLine
 10
0.0
 20
8.548461116714023
 30
0.0
 11
0.2146388832772324
 21
8.763099999991255
 31
0.0
  0
LINE
  5
206F7
330
206F5
100
AcDbEntity
  8
0
  6
CONTINUOUS
100
AcDbLine
 10
-0.0000000000000002
 20
7.874941907633837
 30
0.0
 11
0.8881580923574184
 21
8.763099999991255
 31
0.0
  0
LINE
  5
206F8
330
206F5
100
AcDbEntity
  8
0
  6
CONTINUOUS
100
AcDbLine
 10
0.0
 20
7.20142269855365
 30
0.0
 11
1.420999999998572
 21
8.622422698552223
 31
0.0
  0
LINE
  5
206F9
330
206F5
100
AcDbEntity
  8
0
  6
CONTINUOUS
100
AcDbLine
 10
-0.0000000000000001
 20
6.527903489473465
 30
0.0
 11
1.420999999998571
 21
7.948903489472036
 31
0.0
  0
LINE
  5
206FA
330
206F5
100
AcDbEntity
  8
0
  6
CONTINUOUS
100
AcDbLine
 10
-0.0000000000000002
 20
5.854384280393278
 30
0.0
 11
1.420999999998571
 21
7.275384280391849
 31
0.0
  0
LINE
  5
206FB
330
206F5
100
AcDbEntity
  8
0
  6
CONTINUOUS
100
AcDbLine
 10
-0.0000000000000002
 20
5.180865071313091
 30
0.0
 11
1.420999999998571
 21
6.601865071311663
 31
0.0
  0
LINE
  5
206FC
330
206F5
100
AcDbEntity
  8
0
  6
CONTINUOUS
100
AcDbLine
 10
0.0
 20
4.507345862232905
 30
0.0
 11
1.420999999998571
 21
5.928345862231477
 31
0.0
  0
LINE
  5
206FD
330
206F5
100
AcDbEntity
  8
0
  6
CONTINUOUS
100
AcDbLine
 10
-0.0000000000000003
 20
3.833826653152718
 30
0.0
 11
1.420999999998571
 21
5.25482665315129
 31
0.0
  0
LINE
  5
206FE
330
206F5
100
AcDbEntity
  8
0
  6
CONTINUOUS
100
AcDbLine
 10
-0.0000000000000002
 20
3.160307444072532
 30
0.0
 11
1.420999999998571
 21
4.581307444071103
 31
0.0
  0
LINE
  5
206FF
330
206F5
100
AcDbEntity
  8
0
  6
CONTINUOUS
100
AcDbLine
 10
-0.0000000000000001
 20
2.486788234992345
 30
0.0
 11
1.420999999998571
 21
3.907788234990917
 31
0.0
  0
LINE
  5
20700
330
206F5
100
AcDbEntity
  8
0
  6
CONTINUOUS
100
AcDbLine
 10
-0.0000000000000006
 20
1.813269025912159
 30
0.0
 11
1.420999999998571
 21
3.234269025910731
 31
0.0
  0
LINE
  5
20701
330
206F5
100
AcDbEntity
  8
0
  6
CONTINUOUS
100
AcDbLine
 10
0.0
 20
1.139749816831973
 30
0.0
 11
1.420999999998571
 21
2.560749816830544
 31
0.0
  0
LINE
  5
20702
330
206F5
100
AcDbEntity
  8
0
  6
CONTINUOUS
100
AcDbLine
 10
0.0000000000000002
 20
0.466230607751787
 30
0.0
 11
1.420999999998571
 21
1.887230607750358
 31
0.0
  0
LINE
  5
20703
330
206F5
100
AcDbEntity
  8
0
  6
CONTINUOUS
100
AcDbLine
 10
0.2072886013284003
 20
-0.0000000000000009
 30
0.0
 11
1.420999999998571
 21
1.213711398670171
 31
0.0
  0
LINE
  5
20704
330
206F5
100
AcDbEntity
  8
0
  6
CONTINUOUS
100
AcDbLine
 10
0.8808078104085864
 20
-0.0000000000000009
 30
0.0
 11
1.420999999998571
 21
0.5401921895899839
 31
0.0
  0
LINE
  5
20705
330
206F5
100
AcDbEntity
  8
0
  6
CONTINUOUS
100
AcDbLine
 10
0.0581249075061505
 20
-0.0000000000000009
 30
0.0
 11
-0.0000000000000002
 21
0.0581249075061496
 31
0.0
  0
LINE
  5
20706
330
206F5
100
AcDbEntity
  8
0
  6
CONTINUOUS
100
AcDbLine
 10
0.7316441165863372
 20
-0.0000000000000009
 30
0.0
 11
-0.0000000000000002
 21
0.7316441165863363
 31
0.0
  0
LINE
  5
20707
330
206F5
100
AcDbEntity
  8
0
  6
CONTINUOUS
100
AcDbLine
 10
1.405163325666523
 20
-0.0000000000000009
 30
0.0
 11
-0.0000000000000002
 21
1.405163325666523
 31
0.0
  0
LINE
  5
20708
330
206F5
100
AcDbEntity
  8
0
  6
CONTINUOUS
100
AcDbLine
 10
1.420999999998572
 20
0.6576825347481381
 30
0.0
 11
-0.0000000000000001
 21
2.07868253474671
 31
0.0
  0
LINE
  5
20709
330
206F5
100
AcDbEntity
  8
0
  6
CONTINUOUS
100
AcDbLine
 10
1.420999999998571
 20
1.331201743828324
 30
0.0
 11
-0.0000000000000001
 21
2.752201743826896
 31
0.0
  0
LINE
  5
2070A
330
206F5
100
AcDbEntity
  8
0
  6
CONTINUOUS
100
AcDbLine
 10
1.420999999998571
 20
2.004720952908511
 30
0.0
 11
-0.0000000000000002
 21
3.425720952907082
 31
0.0
  0
LINE
  5
2070B
330
206F5
100
AcDbEntity
  8
0
  6
CONTINUOUS
100
AcDbLine
 10
1.420999999998571
 20
2.678240161988697
 30
0.0
 11
-0.0000000000000001
 21
4.099240161987269
 31
0.0
  0
LINE
  5
2070C
330
206F5
100
AcDbEntity
  8
0
  6
CONTINUOUS
100
AcDbLine
 10
1.420999999998572
 20
3.351759371068884
 30
0.0
 11
0.0
 21
4.772759371067455
 31
0.0
  0
LINE
  5
2070D
330
206F5
100
AcDbEntity
  8
0
  6
CONTINUOUS
100
AcDbLine
 10
1.420999999998571
 20
4.02527858014907
 30
0.0
 11
-0.0000000000000003
 21
5.446278580147642
 31
0.0
  0
LINE
  5
2070E
330
206F5
100
AcDbEntity
  8
0
  6
CONTINUOUS
100
AcDbLine
 10
1.420999999998571
 20
4.698797789229257
 30
0.0
 11
0.0
 21
6.119797789227828
 31
0.0
  0
LINE
  5
2070F
330
206F5
100
AcDbEntity
  8
0
  6
CONTINUOUS
100
AcDbLine
 10
1.420999999998571
 20
5.372316998309444
 30
0.0
 11
-0.0000000000000001
 21
6.793316998308015
 31
0.0
  0
LINE
  5
20710
330
206F5
100
AcDbEntity
  8
0
  6
CONTINUOUS
100
AcDbLine
 10
1.420999999998572
 20
6.045836207389629
 30
0.0
 11
-0.0000000000000004
 21
7.466836207388202
 31
0.0
  0
LINE
  5
20711
330
206F5
100
AcDbEntity
  8
0
  6
CONTINUOUS
100
AcDbLine
 10
1.420999999998571
 20
6.719355416469816
 30
0.0
 11
0.0
 21
8.140355416468388
 31
0.0
  0
LINE
  5
20712
330
206F5
100
AcDbEntity
  8
0
  6
CONTINUOUS
100
AcDbLine
 10
1.420999999998571
 20
7.392874625550003
 30
0.0
 11
0.0507746255573185
 21
8.763099999991255
 31
0.0
  0
LINE
  5
20713
330
206F5
100
AcDbEntity
  8
0
  6
CONTINUOUS
100
AcDbLine
 10
1.420999999998571
 20
8.06639383463019
 30
0.0
 11
0.7242938346375052
 21
8.763099999991255
 31
0.0
  0
LINE
  5
20714
330
206F5
100
AcDbEntity
  8
0
  6
CONTINUOUS
100
AcDbLine
 10
1.420999999998571
 20
8.739913043710375
 30
0.0
 11
1.397813043717691
 21
8.763099999991255
 31
0.0
  0
ENDBLK
  5
20720
330
206F5
100
AcDbEntity
  8
0
100
AcDbBlockEnd
  0
ENDSEC
  0
SECTION
  2
ENTITIES
  0
LINE
  5
1D8CA
330
18
100
AcDbEntity
  8
01
100
AcDbLine
 10
772.6087369900479
 20
-677.2449347648751
 30
0.0
 11
772.6087369900479
 21
-699.3949347648766
 31
0.0
  0
LINE
  5
1D90A
330
18
100
AcDbEntity
  8
01
100
AcDbLine
 10
772.6087369900479
 20
-679.7449347648758
 30
0.0
 11
772.6087369900479
 21
-697.3949347648752
 31
0.0
  0
LINE
  5
1DBA4
102
{ACAD_REACTORS
330
1EDFD
102
}
330
18
100
AcDbEntity
  8
01
100
AcDbLine
 10
785.1087369900479
 20
-645.1667611795938
 30
0.0
 11
785.1087369900479
 21
-719.6231083501575
 31
0.0
  0
LINE
  5
1DBA5
102
{ACAD_REACTORS
330
1EDFD
102
}
330
18
100
AcDbEntity
  8
01
100
AcDbLine
 10
794.1087369900479
 20
-645.1667611795938
 30
0.0
 11
794.1087369900479
 21
-719.6231083501575
 31
0.0
  0
LINE
  5
1DBA6
102
{ACAD_REACTORS
330
1EDFD
102
}
330
18
100
AcDbEntity
  8
01
100
AcDbLine
 10
772.6087369900479
 20
-645.1667611795938
 30
0.0
 11
772.6087369900479
 21
-719.6231083501575
 31
0.0
  0
LINE
  5
1E7B5
102
{ACAD_REACTORS
330
1E7BB
102
}
330
18
100
AcDbEntity
  8
01
100
AcDbLine
 10
620.5162414653646
 20
-547.5932300613673
 30
0.0
 11
619.5162417653646
 21
-546.5932300613673
 31
0.0
  0
LINE
  5
1E7B6
102
{ACAD_REACTORS
330
1E7BB
102
}
330
18
100
AcDbEntity
  8
01
100
AcDbLine
 10
623.8162416153646
 20
-547.5932300613673
 30
0.0
 11
623.8162416153646
 21
-546.5932300613673
 31
0.0
  0
LINE
  5
1E7B7
102
{ACAD_REACTORS
330
1E7BB
102
}
330
18
100
AcDbEntity
  8
01
100
AcDbLine
 10
623.8162416153646
 20
-546.5932300613673
 30
0.0
 11
616.2162416153647
 21
-546.5932300613673
 31
0.0
  0
LINE
  5
1E7B8
102
{ACAD_REACTORS
330
1E7BB
102
}
330
18
100
AcDbEntity
  8
01
100
AcDbLine
 10
623.8162416153646
 20
-547.5932300613673
 30
0.0
 11
616.2162416153647
 21
-547.5932300613673
 31
0.0
  0
LINE
  5
1E7B9
102
{ACAD_REACTORS
330
1E7BB
102
}
330
18
100
AcDbEntity
  8
01
100
AcDbLine
 10
616.2162416153647
 20
-547.5932300613673
 30
0.0
 11
616.2162416153647
 21
-546.5932300613673
 31
0.0
  0
LINE
  5
1E9CD
102
{ACAD_REACTORS
330
1E9D3
102
}
330
18
100
AcDbEntity
  8
01
100
AcDbLine
 10
769.6087369900479
 20
-668.8949346148759
 30
0.0
 11
770.6087369900479
 21
-667.8949349148759
 31
0.0
  0
LINE
  5
1E9CE
102
{ACAD_REACTORS
330
1E9D3
102
}
330
18
100
AcDbEntity
  8
01
100
AcDbLine
 10
769.6087369900479
 20
-672.1949347648758
 30
0.0
 11
770.6087369900479
 21
-672.1949347648758
 31
0.0
  0
LINE
  5
1E9CF
102
{ACAD_REACTORS
330
1E9D3
102
}
330
18
100
AcDbEntity
  8
01
100
AcDbLine
 10
770.6087369900479
 20
-672.1949347648758
 30
0.0
 11
770.6087369900479
 21
-664.5949347648759
 31
0.0
  0
LINE
  5
1E9D0
102
{ACAD_REACTORS
330
1E9D3
102
}
330
18
100
AcDbEntity
  8
01
100
AcDbLine
 10
769.6087369900479
 20
-672.1949347648758
 30
0.0
 11
769.6087369900479
 21
-664.5949347648759
 31
0.0
  0
LINE
  5
1E9D1
102
{ACAD_REACTORS
330
1E9D3
102
}
330
18
100
AcDbEntity
  8
01
100
AcDbLine
 10
769.6087369900479
 20
-664.5949347648759
 30
0.0
 11
770.6087369900479
 21
-664.5949347648759
 31
0.0
  0
LINE
  5
1E9E5
102
{ACAD_REACTORS
330
1E9F2
102
}
330
18
100
AcDbEntity
  8
01
100
AcDbLine
 10
170.5162414684687
 20
-547.5932300613678
 30
0.0
 11
169.5162417684687
 21
-546.5932300613678
 31
0.0
  0
LINE
  5
1E9E6
102
{ACAD_REACTORS
330
1E9F2
102
}
330
18
100
AcDbEntity
  8
01
100
AcDbLine
 10
173.8162416184687
 20
-547.5932300613678
 30
0.0
 11
173.8162416184687
 21
-546.5932300613678
 31
0.0
  0
LINE
  5
1E9E7
102
{ACAD_REACTORS
330
1E9F2
102
}
330
18
100
AcDbEntity
  8
01
100
AcDbLine
 10
173.8162416184687
 20
-546.5932300613678
 30
0.0
 11
166.2162416184688
 21
-546.5932300613678
 31
0.0
  0
LINE
  5
1E9E8
102
{ACAD_REACTORS
330
1E9F2
102
}
330
18
100
AcDbEntity
  8
01
100
AcDbLine
 10
173.8162416184687
 20
-547.5932300613678
 30
0.0
 11
166.2162416184688
 21
-547.5932300613678
 31
0.0
  0
LINE
  5
1E9E9
102
{ACAD_REACTORS
330
1E9F2
102
}
330
18
100
AcDbEntity
  8
01
100
AcDbLine
 10
166.2162416184688
 20
-547.5932300613678
 30
0.0
 11
166.2162416184688
 21
-546.5932300613678
 31
0.0
  0
LINE
  5
1EBEF
102
{ACAD_REACTORS
330
1EBF5
102
}
330
18
100
AcDbEntity
  8
01
100
AcDbLine
 10
769.6087369900479
 20
-696.8949346148759
 30
0.0
 11
770.6087369900479
 21
-695.8949349148759
 31
0.0
  0
LINE
  5
1EBF0
102
{ACAD_REACTORS
330
1EBF5
102
}
330
18
100
AcDbEntity
  8
01
100
AcDbLine
 10
769.6087369900479
 20
-700.1949347648758
 30
0.0
 11
770.6087369900479
 21
-700.1949347648758
 31
0.0
  0
LINE
  5
1EBF1
102
{ACAD_REACTORS
330
1EBF5
102
}
330
18
100
AcDbEntity
  8
01
100
AcDbLine
 10
770.6087369900479
 20
-700.1949347648758
 30
0.0
 11
770.6087369900479
 21
-692.5949347648759
 31
0.0
  0
LINE
  5
1EBF2
102
{ACAD_REACTORS
330
1EBF5
102
}
330
18
100
AcDbEntity
  8
01
100
AcDbLine
 10
769.6087369900479
 20
-700.1949347648758
 30
0.0
 11
769.6087369900479
 21
-692.5949347648759
 31
0.0
  0
LINE
  5
1EBF3
102
{ACAD_REACTORS
330
1EBF5
102
}
330
18
100
AcDbEntity
  8
01
100
AcDbLine
 10
769.6087369900479
 20
-692.5949347648759
 30
0.0
 11
770.6087369900479
 21
-692.5949347648759
 31
0.0
  0
LINE
  5
1F6BB
330
18
100
AcDbEntity
  8
01
  6
CONTINUOUS
100
AcDbLine
 10
597.0162416153651
 20
-544.5932300613673
 30
0.0
 11
597.0162416153651
 21
-551.8792184135443
 31
0.0
  0
LINE
  5
1F6BC
330
18
100
AcDbEntity
  8
01
  6
CONTINUOUS
100
AcDbLine
 10
643.0162416153646
 20
-551.8792184135443
 30
0.0
 11
643.0162416153646
 21
-544.5932300613673
 31
0.0
  0
SPLINE
  5
1F6BD
330
18
100
AcDbEntity
  8
01
  6
CONTINUOUS
100
AcDbSpline
210
0.0
220
0.0
230
1.0
 70
     8
 71
     3
 72
    39
 73
    35
 74
     0
 42
0.0000000001
 43
0.0000000001
 40
0.0
 40
0.0
 40
0.0
 40
0.0
 40
0.0103787302789554
 40
0.041048211088819
 40
0.0707819636056506
 40
0.0996191566735113
 40
0.1878436770049804
 40
0.2746953056021217
 40
0.382858910402315
 40
0.4888729161083183
 40
0.5216970093458904
 40
0.553996919905639
 40
0.5826143148337323
 40
0.6074969743857046
 40
0.6290246034841691
 40
0.6467032524225416
 40
0.6623322610414936
 40
0.678827382910661
 40
0.6935907040303776
 40
0.7105393075072972
 40
0.7303474766866658
 40
0.7541729167482134
 40
0.7822722075103066
 40
0.8147362986428167
 40
0.8359645939276302
 40
0.8544573300634766
 40
0.8705876252960019
 40
0.8823295607750931
 40
0.8923632907639629
 40
0.9040990354600358
 40
0.9213137740449853
 40
0.9440803835233799
 40
0.972340347640411
 40
1.0
 40
1.0
 40
1.0
 40
1.0
 10
609.5161276842466
 20
-595.8385256501056
 30
0.0
 10
609.5161279048891
 20
-595.9984180339459
 30
0.0
 10
609.5161287775347
 20
-596.6307975396237
 30
0.0
 10
609.516130379666
 20
-597.7212547994875
 30
0.0
 10
609.5161325386582
 20
-599.0959803165694
 30
0.0
 10
609.5161366201567
 20
-601.3578813066063
 30
0.0
 10
609.51614050177
 20
-604.4937997035341
 30
0.0
 10
609.5162044999722
 20
-608.8326564906749
 30
0.0
 10
609.5167080085387
 20
-613.4241885267645
 30
0.0
 10
609.5186621711412
 20
-617.1768935652877
 30
0.0
 10
609.5211595439939
 20
-619.7678559238173
 30
0.0
 10
609.5224136422542
 20
-621.1908607789283
 30
0.0
 10
609.5254194772554
 20
-622.4570503249957
 30
0.0
 10
609.5312525166971
 20
-623.5200558763067
 30
0.0
 10
609.5383350347759
 20
-624.3645185949574
 30
0.0
 10
609.5529961330924
 20
-625.0180389857062
 30
0.0
 10
609.5273401219199
 20
-625.4590107509702
 30
0.0
 10
609.4680293484118
 20
-625.8790718048083
 30
0.0
 10
609.3449555645354
 20
-626.4172440212291
 30
0.0
 10
609.1323052998762
 20
-627.074572410129
 30
0.0
 10
608.7671306443806
 20
-627.891722408149
 30
0.0
 10
608.1989184497681
 20
-628.8328418681197
 30
0.0
 10
607.3605149298039
 20
-629.8598875787242
 30
0.0
 10
606.380358247671
 20
-630.7240470401946
 30
0.0
 10
605.4125524145913
 20
-631.3582746015268
 30
0.0
 10
604.6140810955642
 20
-631.7708650731831
 30
0.0
 10
603.9217482584479
 20
-632.0514597137786
 30
0.0
 10
603.34162439336
 20
-632.2390099537535
 30
0.0
 10
602.8220748626557
 20
-632.372174440157
 30
0.0
 10
602.216547047454
 20
-632.4949716935558
 30
0.0
 10
601.4067711977825
 20
-632.5762893068743
 30
0.0
 10
600.3395566027345
 20
-632.63638998183
 30
0.0
 10
599.1083313987995
 20
-632.712089075122
 30
0.0
 10
598.2323422395223
 20
-632.7564559163849
 30
0.0
 10
597.7990496466357
 20
-632.7784011921744
 30
0.0
  0
SPLINE
  5
1F6BE
330
18
100
AcDbEntity
  8
01
  6
CONTINUOUS
100
AcDbSpline
210
0.0
220
0.0
230
1.0
 70
     8
 71
     3
 72
     9
 73
     5
 74
     0
 42
0.0000000001
 43
0.0000000001
 40
0.0
 40
0.0
 40
0.0
 40
0.0
 40
0.5022431869473326
 40
1.0
 40
1.0
 40
1.0
 40
1.0
 10
609.5242113639863
 20
-583.1670485428416
 30
0.0
 10
609.5309454101427
 20
-583.2783625005258
 30
0.0
 10
609.5443533494274
 20
-583.4999960847675
 30
0.0
 10
609.5785393025442
 20
-583.9167995804579
 30
0.0
 10
609.5955555936187
 20
-584.124266360142
 30
0.0
  0
SPLINE
  5
1F6BF
330
18
100
AcDbEntity
  8
01
  6
CONTINUOUS
100
AcDbSpline
210
0.0
220
0.0
230
1.0
 70
     8
 71
     3
 72
    11
 73
     7
 74
     0
 42
0.0000000001
 43
0.0000000001
 40
0.0
 40
0.0
 40
0.0
 40
0.0
 40
0.2484438056433609
 40
0.5026088973427139
 40
0.7554293429871114
 40
1.0
 40
1.0
 40
1.0
 40
1.0
 10
597.8012387237115
 20
-632.7790968821186
 30
0.0
 10
597.7656946600512
 20
-632.7848063201667
 30
0.0
 10
597.6937880065623
 20
-632.7963566760083
 30
0.0
 10
597.5946880848485
 20
-632.8723909909824
 30
0.0
 10
597.5277182302013
 20
-632.983702513802
 30
0.0
 10
597.5200246179172
 20
-633.0673954920809
 30
0.0
 10
597.5162416153646
 20
-633.1085479103201
 30
0.0
  0
SPLINE
  5
1F6C0
330
18
100
AcDbEntity
  8
01
  6
CONTINUOUS
100
AcDbSpline
210
0.0
220
0.0
230
1.0
 70
     8
 71
     3
 72
    16
 73
    12
 74
     0
 42
0.0000000001
 43
0.0000000001
 40
0.0
 40
0.0
 40
0.0
 40
0.0
 40
0.5514700395603309
 40
0.6765291610844407
 40
0.6926082128777925
 40
0.6986609609743492
 40
0.7036335666062757
 40
0.7217313647068502
 40
0.8340241395602834
 40
0.9122391710782228
 40
1.0
 40
1.0
 40
1.0
 40
1.0
 10
597.5162416153646
 20
-646.0645825128327
 30
0.0
 10
597.5194881305476
 20
-646.1154791268208
 30
0.0
 10
597.5234708712871
 20
-646.1779177746047
 30
0.0
 10
597.555327120446
 20
-646.2430173378862
 30
0.0
 10
597.5709806463403
 20
-646.265904836376
 30
0.0
 10
597.5747915348313
 20
-646.2711518396078
 30
0.0
 10
597.5797500315141
 20
-646.2777718577545
 30
0.0
 10
597.6068266754071
 20
-646.3114511579207
 30
0.0
 10
597.6571217584853
 20
-646.352192190665
 30
0.0
 10
597.7375125116989
 20
-646.3869197143468
 30
0.0
 10
597.7890112947696
 20
-646.3909498984206
 30
0.0
 10
597.8162416153648
 20
-646.3930808847826
 30
0.0
  0
LINE
  5
1F6C1
330
18
100
AcDbEntity
  8
01
  6
CONTINUOUS
100
AcDbLine
 10
643.0162416153646
 20
-544.5932300613673
 30
0.0
 11
597.0162416153651
 21
-544.5932300613673
 31
0.0
  0
LINE
  5
1F6C2
330
18
100
AcDbEntity
  8
01
  6
CONTINUOUS
100
AcDbLine
 10
609.5472500814533
 20
-583.534963610831
 30
0.0
 11
609.5388743893784
 21
-583.4009468969525
 31
0.0
  0
SPLINE
  5
1F6C3
330
18
100
AcDbEntity
  8
01
  6
CONTINUOUS
100
AcDbSpline
210
0.0
220
0.0
230
1.0
 70
     8
 71
     3
 72
    23
 73
    19
 74
     0
 42
0.0000000001
 43
0.0000000001
 40
0.0
 40
0.0
 40
0.0
 40
0.0
 40
0.0649965825792777
 40
0.1299828120926508
 40
0.194938933146295
 40
0.2598590385508234
 40
0.3247461562240017
 40
0.3895919578909151
 40
0.4544136973749088
 40
0.5193481282987438
 40
0.584263480257023
 40
0.6491713523825524
 40
0.7141509998198916
 40
0.7789415048992897
 40
0.8438131834624315
 40
0.9086935409116912
 40
0.9736252960625369
 40
1.0
 40
1.0
 40
1.0
 40
1.0
 10
609.5161132254254
 20
-583.0432303517956
 30
0.0
 10
609.5177057108438
 20
-583.0670134759367
 30
0.0
 10
609.5208904280191
 20
-583.1145759358931
 30
0.0
 10
609.5451590580267
 20
-583.4940500889633
 30
0.0
 10
609.5799733334841
 20
-584.0844883373738
 30
0.0
 10
609.6215620560854
 20
-584.8854829006187
 30
0.0
 10
609.6628029456108
 20
-585.8615094693997
 30
0.0
 10
609.6993284795806
 20
-586.9778322162414
 30
0.0
 10
609.7209797429025
 20
-588.1935135213301
 30
0.0
 10
609.7348486197463
 20
-589.46104588975
 30
0.0
 10
609.7417625726923
 20
-590.7361344187713
 30
0.0
 10
609.7298101090707
 20
-591.9682016247842
 30
0.0
 10
609.7092403135428
 20
-593.103037198005
 30
0.0
 10
609.6901246567352
 20
-594.1168570813686
 30
0.0
 10
609.6483392474267
 20
-594.956938846599
 30
0.0
 10
609.609185462363
 20
-595.5845476734656
 30
0.0
 10
609.5756767508203
 20
-595.9513271285534
 30
0.0
 10
609.5616049171788
 20
-596.0180059558519
 30
0.0
 10
609.557540139617
 20
-596.037266743604
 30
0.0
  0
SPLINE
  5
1F6C4
330
18
100
AcDbEntity
  8
01
  6
CONTINUOUS
100
AcDbSpline
210
0.0
220
0.0
230
1.0
 70
     8
 71
     3
 72
     9
 73
     5
 74
     0
 42
0.0000000001
 43
0.0000000001
 40
0.0
 40
0.0
 40
0.0
 40
0.0
 40
0.5284561371747096
 40
0.9999999999999999
 40
0.9999999999999999
 40
0.9999999999999999
 40
0.9999999999999999
 10
630.4928674266355
 20
-644.9067389315812
 30
0.0
 10
630.5000254150866
 20
-644.8926289838417
 30
0.0
 10
630.5135705098407
 20
-644.8659286642753
 30
0.0
 10
630.5150671795961
 20
-644.7315881841148
 30
0.0
 10
630.5157729250343
 20
-644.668240755166
 30
0.0
  0
ARC
  5
1F6C5
330
18
100
AcDbEntity
  8
01
  6
CONTINUOUS
100
AcDbCircle
 10
628.9937490198147
 20
-644.8938066450609
 30
0.0
 40
1.499174186579271
100
AcDbArc
 50
269.994005439654
 51
359.5057448070066
  0
ARC
  5
1F6C6
330
18
100
AcDbEntity
  8
01
100
AcDbCircle
 10
608.0161132254254
 20
-555.0624865914696
 30
0.0
 40
1.5
100
AcDbArc
 50
0.0
 51
86.58578767235005
  0
ARC
  5
1F6C7
330
18
100
AcDbEntity
  8
01
100
AcDbCircle
 10
632.0157729250343
 20
-555.0625222123165
 30
0.0
 40
1.5
100
AcDbArc
 50
93.41404224824299
 51
180.0
  0
ARC
  5
1F6C8
330
18
100
AcDbEntity
  8
01
100
AcDbCircle
 10
620.0162416153646
 20
-353.9201317314727
 30
0.0
 40
200.0
100
AcDbArc
 50
263.6013346602093
 51
276.3986653397906
  0
ARC
  5
1F6C9
330
18
100
AcDbEntity
  8
01
100
AcDbCircle
 10
597.8162416153648
 20
-551.8792184135443
 30
0.0
 40
0.8
100
AcDbArc
 50
180.0
 51
263.6013346601995
  0
ARC
  5
1F6CA
330
18
100
AcDbEntity
  8
01
100
AcDbCircle
 10
642.2162416153649
 20
-551.8792184135443
 30
0.0
 40
0.8
100
AcDbArc
 50
276.3986653397924
 51
0.0
  0
LINE
  5
1F6CB
330
18
100
AcDbEntity
  8
01
100
AcDbLine
 10
597.8162416153648
 20
-646.3930808847826
 30
0.0
 11
628.9935921689923
 21
-646.3929808234349
 31
0.0
  0
LINE
  5
1F6CC
330
18
100
AcDbEntity
  8
01
100
AcDbLine
 10
630.5157729250343
 20
-644.668240755166
 30
0.0
 11
630.5157729250343
 21
-555.0625222123165
 31
0.0
  0
LINE
  5
1F6CD
330
18
100
AcDbEntity
  8
01
100
AcDbLine
 10
609.5161132254254
 20
-583.0432303517956
 30
0.0
 11
609.5161132254254
 21
-555.0624865914696
 31
0.0
  0
LINE
  5
1F6D0
330
18
100
AcDbEntity
  8
01
100
AcDbLine
 10
609.6059459814126
 20
-595.5932300613673
 30
0.0
 11
180.5163555464824
 21
-595.5932300613673
 31
0.0
  0
LINE
  5
1F6D1
330
18
100
AcDbEntity
  8
01
100
AcDbLine
 10
609.5528973840544
 20
-583.5932300613673
 30
0.0
 11
180.4369276371106
 21
-583.5932300613673
 31
0.0
  0
LINE
  5
1F6D3
330
18
100
AcDbEntity
  8
01
100
AcDbLine
 10
597.2162416153644
 20
-646.0932300613673
 30
0.0
 11
192.8162416153648
 21
-646.0932300613673
 31
0.0
  0
ARC
  5
1F6D4
330
18
100
AcDbEntity
  8
01
100
AcDbCircle
 10
597.2162416153644
 20
-645.7932300613672
 30
0.0
 40
0.3
100
AcDbArc
 50
270.0
 51
0.0
  0
LINE
  5
1F6D5
330
18
100
AcDbEntity
  8
01
100
AcDbLine
 10
597.2162416153644
 20
-633.0932300613673
 30
0.0
 11
192.8162416153648
 21
-633.0932300613673
 31
0.0
  0
LINE
  5
1F6D6
330
18
100
AcDbEntity
  8
1PHANTOM
100
AcDbLine
 10
599.7630767556136
 20
-546.5900659834431
 30
0.0
 11
600.2662409906891
 21
-547.0932300613673
 31
0.0
  0
LINE
  5
1F6D7
330
18
100
AcDbEntity
  8
1PHANTOM
100
AcDbLine
 10
639.766241727925
 20
-547.0932300613673
 30
0.0
 11
640.269405834167
 21
-546.5900659834431
 31
0.0
  0
LINE
  5
1F6D8
330
18
100
AcDbEntity
  8
1PHANTOM
100
AcDbLine
 10
599.7630773965632
 20
-546.5900659834431
 30
0.0
 11
600.2662415028046
 21
-547.0932300613673
 31
0.0
  0
LINE
  5
1F6D9
330
18
100
AcDbEntity
  8
1PHANTOM
100
AcDbLine
 10
639.766242240041
 20
-547.0932300613673
 30
0.0
 11
640.269406475116
 21
-546.5900659834431
 31
0.0
  0
LINE
  5
1F6DA
330
18
100
AcDbEntity
  8
1PHANTOM
100
AcDbLine
 10
640.2662416153646
 20
-546.5932300613673
 30
0.0
 11
640.2662416153646
 21
-544.5932300613673
 31
0.0
  0
LINE
  5
1F6DB
330
18
100
AcDbEntity
  8
1PHANTOM
100
AcDbLine
 10
599.7662416153646
 20
-544.5932300613673
 30
0.0
 11
599.7662416153646
 21
-546.5932300613673
 31
0.0
  0
LINE
  5
1F6DC
330
18
100
AcDbEntity
  8
1PHANTOM
100
AcDbLine
 10
612.5340929115016
 20
-548.0750512505904
 30
0.0
 11
611.5342581579487
 21
-547.0932300613673
 31
0.0
  0
LINE
  5
1F6DD
330
18
100
AcDbEntity
  8
1PHANTOM
100
AcDbLine
 10
628.498225072781
 20
-547.0932300613673
 30
0.0
 11
627.4983903192322
 21
-548.0750512505896
 31
0.0
  0
LINE
  5
1F6DE
330
18
100
AcDbEntity
  8
1PHANTOM
100
AcDbLine
 10
627.4983903192322
 20
-548.0750512505896
 30
0.0
 11
627.0340929096617
 21
-573.6114088750348
 31
0.0
  0
CIRCLE
  5
1F6DF
330
18
100
AcDbEntity
  8
1PHANTOM
100
AcDbCircle
 10
620.0162416153646
 20
-562.3932300613673
 30
0.0
 40
1.649999999999991
  0
LINE
  5
1F6E0
330
18
100
AcDbEntity
  8
1PHANTOM
100
AcDbLine
 10
612.998390321068
 20
-573.6114088750347
 30
0.0
 11
612.5340929115016
 21
-548.0750512505904
 31
0.0
  0
LINE
  5
1F6E1
330
18
100
AcDbEntity
  8
1PHANTOM
100
AcDbLine
 10
613.998225072781
 20
-574.5932300613673
 30
0.0
 11
626.0342581579487
 21
-574.5932300613673
 31
0.0
  0
LINE
  5
1F6E2
330
18
100
AcDbEntity
  8
1PHANTOM
100
AcDbLine
 10
613.998225072781
 20
-574.5932300613673
 30
0.0
 11
612.998390321068
 21
-573.6114088750347
 31
0.0
  0
LINE
  5
1F6E3
330
18
100
AcDbEntity
  8
1PHANTOM
100
AcDbLine
 10
627.0340929096617
 20
-573.6114088750348
 30
0.0
 11
626.0342581579487
 21
-574.5932300613673
 31
0.0
  0
LINE
  5
1F6E4
330
18
100
AcDbEntity
  8
1PHANTOM
100
AcDbLine
 10
599.7662416153646
 20
-546.5932300613673
 30
0.0
 11
600.2662416153637
 21
-547.0932300613673
 31
0.0
  0
LINE
  5
1F6E5
330
18
100
AcDbEntity
  8
1PHANTOM
100
AcDbLine
 10
639.766241615366
 20
-547.0932300613673
 30
0.0
 11
640.2662416153646
 21
-546.5932300613673
 31
0.0
  0
LINE
  5
1F6E6
330
18
100
AcDbEntity
  8
1PHANTOM
100
AcDbLine
 10
599.7662416153646
 20
-544.5932300613673
 30
0.0
 11
640.2662416153646
 21
-544.5932300613673
 31
0.0
  0
LINE
  5
1F6E7
330
18
100
AcDbEntity
  8
1PHANTOM
100
AcDbLine
 10
600.2662416153637
 20
-547.0932300613673
 30
0.0
 11
611.5342581579487
 21
-547.0932300613673
 31
0.0
  0
LINE
  5
1F6E8
330
18
100
AcDbEntity
  8
1PHANTOM
100
AcDbLine
 10
628.498225072781
 20
-547.0932300613673
 30
0.0
 11
639.766241615366
 21
-547.0932300613673
 31
0.0
  0
LINE
  5
1F6E9
330
18
100
AcDbEntity
  8
1CENTER
100
AcDbLine
 10
617.8712416154951
 20
-562.3932300613671
 30
0.0
 11
622.161241615235
 21
-562.3932300613671
 31
0.0
  0
LINE
  5
1F6EA
330
18
100
AcDbEntity
  8
1CENTER
100
AcDbLine
 10
620.0162416153646
 20
-564.5382300612371
 30
0.0
 11
620.0162416153646
 21
-560.2482300614971
 31
0.0
  0
LINE
  5
1F6EB
330
18
100
AcDbEntity
  8
01
  6
CONTINUOUS
100
AcDbLine
 10
193.0162416153642
 20
-544.5932300613673
 30
0.0
 11
193.0162416153642
 21
-551.8792184135443
 31
0.0
  0
LINE
  5
1F6EC
330
18
100
AcDbEntity
  8
01
  6
CONTINUOUS
100
AcDbLine
 10
147.0162416153644
 20
-551.8792184135443
 30
0.0
 11
147.0162416153644
 21
-544.5932300613673
 31
0.0
  0
SPLINE
  5
1F6ED
330
18
100
AcDbEntity
  8
01
  6
CONTINUOUS
100
AcDbSpline
210
0.0
220
0.0
230
1.0
 70
     8
 71
     3
 72
    39
 73
    35
 74
     0
 42
0.0000000001
 43
0.0000000001
 40
0.0
 40
0.0
 40
0.0
 40
0.0
 40
0.0103787302789554
 40
0.041048211088819
 40
0.0707819636056506
 40
0.0996191566735113
 40
0.1878436770049804
 40
0.2746953056021217
 40
0.382858910402315
 40
0.4888729161083183
 40
0.5216970093458904
 40
0.553996919905639
 40
0.5826143148337323
 40
0.6074969743857046
 40
0.6290246034841691
 40
0.6467032524225416
 40
0.6623322610414936
 40
0.678827382910661
 40
0.6935907040303776
 40
0.7105393075072972
 40
0.7303474766866658
 40
0.7541729167482134
 40
0.7822722075103066
 40
0.8147362986428167
 40
0.8359645939276302
 40
0.8544573300634766
 40
0.8705876252960019
 40
0.8823295607750931
 40
0.8923632907639629
 40
0.9040990354600358
 40
0.9213137740449853
 40
0.9440803835233799
 40
0.972340347640411
 40
1.0
 40
1.0
 40
1.0
 40
1.0
 10
180.5163555464824
 20
-595.8385256501056
 30
0.0
 10
180.5163553258403
 20
-595.9984180339459
 30
0.0
 10
180.5163544531947
 20
-596.6307975396237
 30
0.0
 10
180.5163528510634
 20
-597.7212547994875
 30
0.0
 10
180.5163506920708
 20
-599.0959803165694
 30
0.0
 10
180.5163466105728
 20
-601.3578813066063
 30
0.0
 10
180.516342728959
 20
-604.4937997035341
 30
0.0
 10
180.516278730757
 20
-608.8326564906749
 30
0.0
 10
180.5157752221908
 20
-613.4241885267645
 30
0.0
 10
180.5138210595883
 20
-617.1768935652877
 30
0.0
 10
180.5113236867353
 20
-619.7678559238173
 30
0.0
 10
180.5100695884748
 20
-621.1908607789283
 30
0.0
 10
180.5070637534736
 20
-622.4570503249957
 30
0.0
 10
180.5012307140321
 20
-623.5200558763067
 30
0.0
 10
180.4941481959534
 20
-624.3645185949574
 30
0.0
 10
180.479487097637
 20
-625.0180389857062
 30
0.0
 10
180.5051431088093
 20
-625.4590107509702
 30
0.0
 10
180.5644538823174
 20
-625.8790718048083
 30
0.0
 10
180.6875276661938
 20
-626.4172440212291
 30
0.0
 10
180.900177930853
 20
-627.074572410129
 30
0.0
 10
181.2653525863486
 20
-627.891722408149
 30
0.0
 10
181.8335647809611
 20
-628.8328418681197
 30
0.0
 10
182.6719683009251
 20
-629.8598875787242
 30
0.0
 10
183.6521249830582
 20
-630.7240470401946
 30
0.0
 10
184.6199308161379
 20
-631.3582746015268
 30
0.0
 10
185.4184021351648
 20
-631.7708650731831
 30
0.0
 10
186.1107349722813
 20
-632.0514597137786
 30
0.0
 10
186.6908588373692
 20
-632.2390099537535
 30
0.0
 10
187.2104083680736
 20
-632.372174440157
 30
0.0
 10
187.815936183275
 20
-632.4949716935558
 30
0.0
 10
188.6257120329465
 20
-632.5762893068743
 30
0.0
 10
189.6929266279947
 20
-632.63638998183
 30
0.0
 10
190.9241518319297
 20
-632.712089075122
 30
0.0
 10
191.8001409912067
 20
-632.7564559163849
 30
0.0
 10
192.2334335840933
 20
-632.7784011921744
 30
0.0
  0
SPLINE
  5
1F6EE
330
18
100
AcDbEntity
  8
01
  6
CONTINUOUS
100
AcDbSpline
210
0.0
220
0.0
230
1.0
 70
     8
 71
     3
 72
     9
 73
     5
 74
     0
 42
0.0000000001
 43
0.0000000001
 40
0.0
 40
0.0
 40
0.0
 40
0.0
 40
0.5022431869473326
 40
1.0
 40
1.0
 40
1.0
 40
1.0
 10
180.5082718667429
 20
-583.1670485428416
 30
0.0
 10
180.5015378205865
 20
-583.2783625005258
 30
0.0
 10
180.4881298813016
 20
-583.4999960847675
 30
0.0
 10
180.453943928185
 20
-583.9167995804579
 30
0.0
 10
180.4369276371106
 20
-584.124266360142
 30
0.0
  0
SPLINE
  5
1F6EF
330
18
100
AcDbEntity
  8
01
  6
CONTINUOUS
100
AcDbSpline
210
0.0
220
0.0
230
1.0
 70
     8
 71
     3
 72
    11
 73
     7
 74
     0
 42
0.0000000001
 43
0.0000000001
 40
0.0
 40
0.0
 40
0.0
 40
0.0
 40
0.2484438056433609
 40
0.5026088973427139
 40
0.7554293429871114
 40
1.0
 40
1.0
 40
1.0
 40
1.0
 10
192.2312445070174
 20
-632.7790968821186
 30
0.0
 10
192.2667885706783
 20
-632.7848063201667
 30
0.0
 10
192.3386952241669
 20
-632.7963566760083
 30
0.0
 10
192.4377951458807
 20
-632.8723909909824
 30
0.0
 10
192.5047650005279
 20
-632.983702513802
 30
0.0
 10
192.512458612812
 20
-633.0673954920809
 30
0.0
 10
192.5162416153646
 20
-633.1085479103201
 30
0.0
  0
SPLINE
  5
1F6F0
330
18
100
AcDbEntity
  8
01
  6
CONTINUOUS
100
AcDbSpline
210
0.0
220
0.0
230
1.0
 70
     8
 71
     3
 72
    16
 73
    12
 74
     0
 42
0.0000000001
 43
0.0000000001
 40
0.0
 40
0.0
 40
0.0
 40
0.0
 40
0.5514700395603309
 40
0.6765291610844407
 40
0.6926082128777925
 40
0.6986609609743492
 40
0.7036335666062757
 40
0.7217313647068502
 40
0.8340241395602834
 40
0.9122391710782228
 40
1.0
 40
1.0
 40
1.0
 40
1.0
 10
192.5162416153646
 20
-646.0645825128327
 30
0.0
 10
192.5129951001816
 20
-646.1154791268208
 30
0.0
 10
192.5090123594421
 20
-646.1779177746047
 30
0.0
 10
192.4771561102832
 20
-646.2430173378862
 30
0.0
 10
192.4615025843887
 20
-646.265904836376
 30
0.0
 10
192.4576916958977
 20
-646.2711518396078
 30
0.0
 10
192.4527331992151
 20
-646.2777718577545
 30
0.0
 10
192.4256565553221
 20
-646.3114511579207
 30
0.0
 10
192.3753614722439
 20
-646.352192190665
 30
0.0
 10
192.2949707190305
 20
-646.3869197143468
 30
0.0
 10
192.2434719359596
 20
-646.3909498984206
 30
0.0
 10
192.2162416153647
 20
-646.3930808847826
 30
0.0
  0
LINE
  5
1F6F1
330
18
100
AcDbEntity
  8
01
  6
CONTINUOUS
100
AcDbLine
 10
147.0162416153644
 20
-544.5932300613673
 30
0.0
 11
193.0162416153642
 21
-544.5932300613673
 31
0.0
  0
LINE
  5
1F6F2
330
18
100
AcDbEntity
  8
01
  6
CONTINUOUS
100
AcDbLine
 10
180.4852331492759
 20
-583.534963610831
 30
0.0
 11
180.4936088413508
 21
-583.4009468969525
 31
0.0
  0
SPLINE
  5
1F6F3
330
18
100
AcDbEntity
  8
01
  6
CONTINUOUS
100
AcDbSpline
210
0.0
220
0.0
230
1.0
 70
     8
 71
     3
 72
    23
 73
    19
 74
     0
 42
0.0000000001
 43
0.0000000001
 40
0.0
 40
0.0
 40
0.0
 40
0.0
 40
0.0649965825792777
 40
0.1299828120926508
 40
0.194938933146295
 40
0.2598590385508234
 40
0.3247461562240017
 40
0.3895919578909151
 40
0.4544136973749088
 40
0.5193481282987438
 40
0.584263480257023
 40
0.6491713523825524
 40
0.7141509998198916
 40
0.7789415048992897
 40
0.8438131834624315
 40
0.9086935409116912
 40
0.9736252960625369
 40
1.0
 40
1.0
 40
1.0
 40
1.0
 10
180.5163700053038
 20
-583.0432303517956
 30
0.0
 10
180.5147775198855
 20
-583.0670134759367
 30
0.0
 10
180.5115928027101
 20
-583.1145759358931
 30
0.0
 10
180.4873241727025
 20
-583.4940500889633
 30
0.0
 10
180.4525098972451
 20
-584.0844883373738
 30
0.0
 10
180.4109211746438
 20
-584.8854829006187
 30
0.0
 10
180.3696802851184
 20
-585.8615094693997
 30
0.0
 10
180.3331547511486
 20
-586.9778322162414
 30
0.0
 10
180.3115034878269
 20
-588.1935135213301
 30
0.0
 10
180.2976346109826
 20
-589.46104588975
 30
0.0
 10
180.2907206580369
 20
-590.7361344187713
 30
0.0
 10
180.3026731216585
 20
-591.9682016247842
 30
0.0
 10
180.3232429171865
 20
-593.103037198005
 30
0.0
 10
180.3423585739943
 20
-594.1168570813686
 30
0.0
 10
180.3841439833025
 20
-594.956938846599
 30
0.0
 10
180.4232977683664
 20
-595.5845476734656
 30
0.0
 10
180.4568064799089
 20
-595.9513271285534
 30
0.0
 10
180.4708783135502
 20
-596.0180059558519
 30
0.0
 10
180.4749430911122
 20
-596.037266743604
 30
0.0
  0
SPLINE
  5
1F6F4
330
18
100
AcDbEntity
  8
01
  6
CONTINUOUS
100
AcDbSpline
210
0.0
220
0.0
230
1.0
 70
     8
 71
     3
 72
     9
 73
     5
 74
     0
 42
0.0000000001
 43
0.0000000001
 40
0.0
 40
0.0
 40
0.0
 40
0.0
 40
0.5284561371747096
 40
0.9999999999999999
 40
0.9999999999999999
 40
0.9999999999999999
 40
0.9999999999999999
 10
159.5396158040937
 20
-644.9067389315812
 30
0.0
 10
159.5324578156424
 20
-644.8926289838417
 30
0.0
 10
159.5189127208885
 20
-644.8659286642753
 30
0.0
 10
159.5174160511331
 20
-644.7315881841148
 30
0.0
 10
159.5167103056951
 20
-644.668240755166
 30
0.0
  0
SPLINE
  5
1F6F5
330
18
100
AcDbEntity
  8
01
  6
CONTINUOUS
100
AcDbSpline
210
0.0
220
0.0
230
1.0
 70
    24
 71
     3
 72
    14
 73
    10
 74
     0
 42
0.0000000001
 43
0.0000000001
 40
0.0
 40
0.0
 40
0.0
 40
0.0
 40
0.25
 40
0.25
 40
0.5
 40
0.5
 40
0.75
 40
0.75
 40
1.0
 40
1.0
 40
1.0
 40
1.0
 10
192.5162416153646
 20
-633.1085478523775
 30
0.0
 10
192.5162416153642
 20
-633.2017503592289
 30
0.0
 10
192.5162416153639
 20
-633.5160555947117
 30
0.0
 10
192.5162416153648
 20
-634.5239504906735
 30
0.0
 10
192.5162416153653
 20
-635.2149032723119
 30
0.0
 10
192.5162416153635
 20
-636.8497234142656
 30
0.0
 10
192.5162416153637
 20
-637.7926224925778
 30
0.0
 10
192.5162416153648
 20
-639.7356138111963
 30
0.0
 10
192.5162416153646
 20
-640.7346945883502
 30
0.0
 10
192.5162416153646
 20
-641.6628125936445
 30
0.0
  0
SPLINE
  5
1F6F6
330
18
100
AcDbEntity
  8
01
  6
CONTINUOUS
100
AcDbSpline
210
0.0
220
0.0
230
1.0
 70
     8
 71
     3
 72
    14
 73
    10
 74
     0
 42
0.0000000001
 43
0.0000000001
 40
0.0
 40
0.0
 40
0.0
 40
0.0
 40
0.0000151356703542
 40
0.1666735252200514
 40
0.3333485647988532
 40
0.5000006050297688
 40
0.6666739553556768
 40
0.8333349669006844
 40
1.0
 40
1.0
 40
1.0
 40
1.0
 10
192.5162416153646
 20
-646.0645716260728
 30
0.0
 10
192.5162416153648
 20
-646.0645717066768
 30
0.0
 10
192.5162416150088
 20
-646.0654593153163
 30
0.0
 10
192.5162416155297
 20
-645.8482584783598
 30
0.0
 10
192.5162416153205
 20
-645.4044533673277
 30
0.0
 10
192.5162416153764
 20
-644.7162124363855
 30
0.0
 10
192.5162416153614
 20
-643.8471428620377
 30
0.0
 10
192.5162416153653
 20
-642.8241740099227
 30
0.0
 10
192.5162416153648
 20
-642.0499353198427
 30
0.0
 10
192.5162416153646
 20
-641.6628113042362
 30
0.0
  0
ARC
  5
1F6F7
330
18
100
AcDbEntity
  8
01
  6
CONTINUOUS
100
AcDbCircle
 10
161.0387342109148
 20
-644.8938066450609
 30
0.0
 40
1.499174186579271
100
AcDbArc
 50
180.4942551929803
 51
270.0059945603352
  0
ARC
  5
1F6F8
330
18
100
AcDbEntity
  8
01
100
AcDbCircle
 10
182.0163700053038
 20
-555.0624865914696
 30
0.0
 40
1.5
100
AcDbArc
 50
93.41421232764996
 51
180.0
  0
ARC
  5
1F6F9
330
18
100
AcDbEntity
  8
01
100
AcDbCircle
 10
158.0167103056951
 20
-555.0625222123165
 30
0.0
 40
1.5
100
AcDbArc
 50
0.0
 51
86.58595775175702
  0
ARC
  5
1F6FA
330
18
100
AcDbEntity
  8
01
100
AcDbCircle
 10
170.0162416153644
 20
-353.9201317314727
 30
0.0
 40
200.0
100
AcDbArc
 50
263.6013346602094
 51
276.3986653397906
  0
ARC
  5
1F6FB
330
18
100
AcDbEntity
  8
01
100
AcDbCircle
 10
192.2162416153642
 20
-551.8792184135443
 30
0.0
 40
0.8
100
AcDbArc
 50
276.3986653398046
 51
0.0
  0
ARC
  5
1F6FC
330
18
100
AcDbEntity
  8
01
100
AcDbCircle
 10
147.8162416153643
 20
-551.8792184135443
 30
0.0
 40
0.8
100
AcDbArc
 50
180.0
 51
263.6013346602096
  0
LINE
  5
1F6FD
330
18
100
AcDbEntity
  8
01
100
AcDbLine
 10
192.2162416153647
 20
-646.3930808847826
 30
0.0
 11
161.0388910617366
 21
-646.3929808234349
 31
0.0
  0
LINE
  5
1F6FE
330
18
100
AcDbEntity
  8
01
100
AcDbLine
 10
159.5167103056951
 20
-644.668240755166
 30
0.0
 11
159.5167103056951
 21
-555.0625222123165
 31
0.0
  0
LINE
  5
1F6FF
330
18
100
AcDbEntity
  8
01
100
AcDbLine
 10
180.5163700053038
 20
-583.0432303517956
 30
0.0
 11
180.5163700053038
 21
-555.0624865914696
 31
0.0
  0
LINE
  5
1F701
330
18
100
AcDbEntity
  8
1PHANTOM
100
AcDbLine
 10
190.2694064751156
 20
-546.5900659834431
 30
0.0
 11
189.7662422400401
 21
-547.0932300613673
 31
0.0
  0
LINE
  5
1F702
330
18
100
AcDbEntity
  8
1PHANTOM
100
AcDbLine
 10
150.2662415028042
 20
-547.0932300613673
 30
0.0
 11
149.7630773965625
 21
-546.5900659834431
 31
0.0
  0
LINE
  5
1F703
330
18
100
AcDbEntity
  8
1PHANTOM
100
AcDbLine
 10
190.2694058341663
 20
-546.5900659834431
 30
0.0
 11
189.7662417279244
 21
-547.0932300613673
 31
0.0
  0
LINE
  5
1F704
330
18
100
AcDbEntity
  8
1PHANTOM
100
AcDbLine
 10
150.2662409906884
 20
-547.0932300613673
 30
0.0
 11
149.7630767556132
 21
-546.5900659834431
 31
0.0
  0
LINE
  5
1F705
330
18
100
AcDbEntity
  8
1PHANTOM
100
AcDbLine
 10
149.7662416153644
 20
-546.5932300613673
 30
0.0
 11
149.7662416153644
 21
-544.5932300613673
 31
0.0
  0
LINE
  5
1F706
330
18
100
AcDbEntity
  8
1PHANTOM
100
AcDbLine
 10
190.2662416153644
 20
-544.5932300613673
 30
0.0
 11
190.2662416153644
 21
-546.5932300613673
 31
0.0
  0
LINE
  5
1F707
330
18
100
AcDbEntity
  8
1PHANTOM
100
AcDbLine
 10
177.4983903192276
 20
-548.0750512505904
 30
0.0
 11
178.4982250727805
 21
-547.0932300613673
 31
0.0
  0
LINE
  5
1F708
330
18
100
AcDbEntity
  8
1PHANTOM
100
AcDbLine
 10
161.534258157948
 20
-547.0932300613673
 30
0.0
 11
162.5340929114971
 21
-548.0750512505896
 31
0.0
  0
LINE
  5
1F709
330
18
100
AcDbEntity
  8
1PHANTOM
100
AcDbLine
 10
162.5340929114971
 20
-548.0750512505896
 30
0.0
 11
162.9983903210675
 21
-573.6114088750348
 31
0.0
  0
CIRCLE
  5
1F70A
330
18
100
AcDbEntity
  8
1PHANTOM
100
AcDbCircle
 10
170.0162416153644
 20
-562.3932300613673
 30
0.0
 40
1.649999999999991
  0
LINE
  5
1F70B
330
18
100
AcDbEntity
  8
1PHANTOM
100
AcDbLine
 10
177.0340929096612
 20
-573.6114088750347
 30
0.0
 11
177.4983903192276
 21
-548.0750512505904
 31
0.0
  0
LINE
  5
1F70C
330
18
100
AcDbEntity
  8
1PHANTOM
100
AcDbLine
 10
176.034258157948
 20
-574.5932300613673
 30
0.0
 11
163.9982250727805
 21
-574.5932300613673
 31
0.0
  0
LINE
  5
1F70D
330
18
100
AcDbEntity
  8
1PHANTOM
100
AcDbLine
 10
176.034258157948
 20
-574.5932300613673
 30
0.0
 11
177.0340929096612
 21
-573.6114088750347
 31
0.0
  0
LINE
  5
1F70E
330
18
100
AcDbEntity
  8
1PHANTOM
100
AcDbLine
 10
162.9983903210675
 20
-573.6114088750348
 30
0.0
 11
163.9982250727805
 21
-574.5932300613673
 31
0.0
  0
LINE
  5
1F70F
330
18
100
AcDbEntity
  8
1PHANTOM
100
AcDbLine
 10
190.2662416153644
 20
-546.5932300613673
 30
0.0
 11
189.7662416153655
 21
-547.0932300613673
 31
0.0
  0
LINE
  5
1F710
330
18
100
AcDbEntity
  8
1PHANTOM
100
AcDbLine
 10
150.2662416153632
 20
-547.0932300613673
 30
0.0
 11
149.7662416153644
 21
-546.5932300613673
 31
0.0
  0
LINE
  5
1F711
330
18
100
AcDbEntity
  8
1PHANTOM
100
AcDbLine
 10
190.2662416153644
 20
-544.5932300613673
 30
0.0
 11
149.7662416153644
 21
-544.5932300613673
 31
0.0
  0
LINE
  5
1F712
330
18
100
AcDbEntity
  8
1PHANTOM
100
AcDbLine
 10
189.7662416153655
 20
-547.0932300613673
 30
0.0
 11
178.4982250727805
 21
-547.0932300613673
 31
0.0
  0
LINE
  5
1F713
330
18
100
AcDbEntity
  8
1PHANTOM
100
AcDbLine
 10
161.534258157948
 20
-547.0932300613673
 30
0.0
 11
150.2662416153632
 21
-547.0932300613673
 31
0.0
  0
LINE
  5
1F714
330
18
100
AcDbEntity
  8
1CENTER
100
AcDbLine
 10
172.1612416152343
 20
-562.3932300613671
 30
0.0
 11
167.8712416154945
 21
-562.3932300613671
 31
0.0
  0
LINE
  5
1F715
330
18
100
AcDbEntity
  8
1CENTER
100
AcDbLine
 10
170.0162416153644
 20
-564.5382300612371
 30
0.0
 11
170.0162416153644
 21
-560.2482300614971
 31
0.0
  0
LINE
  5
1F716
330
18
100
AcDbEntity
  8
01
100
AcDbLine
 10
597.5162416153646
 20
-633.1085479103201
 30
0.0
 11
597.5162416153646
 21
-646.0645825128327
 31
0.0
  0
LINE
  5
1F717
330
18
100
AcDbEntity
  8
01
100
AcDbLine
 10
597.5162416153646
 20
-633.3932300613673
 30
0.0
 11
597.5162416153646
 21
-645.7932300613672
 31
0.0
  0
ARC
  5
1F718
330
18
100
AcDbEntity
  8
01
100
AcDbCircle
 10
597.2162416153644
 20
-633.3932300613673
 30
0.0
 40
0.3
100
AcDbArc
 50
0.0
 51
90.0
  0
ARC
  5
1F719
330
18
100
AcDbEntity
  8
01
100
AcDbCircle
 10
192.8162416153648
 20
-645.7932300613672
 30
0.0
 40
0.3
100
AcDbArc
 50
180.0
 51
270.0
  0
LINE
  5
1F71A
330
18
100
AcDbEntity
  8
01
100
AcDbLine
 10
192.5162416153646
 20
-633.3932300613673
 30
0.0
 11
192.5162416153646
 21
-645.7932300613672
 31
0.0
  0
ARC
  5
1F71B
330
18
100
AcDbEntity
  8
01
100
AcDbCircle
 10
192.8162416153648
 20
-633.3932300613673
 30
0.0
 40
0.3
100
AcDbArc
 50
90.0
 51
180.0
  0
ARC
  5
1F7BF
330
18
100
AcDbEntity
  8
01
100
AcDbCircle
 10
143.0162416153653
 20
-682.3949347648756
 30
0.0
 40
500.0
100
AcDbArc
 50
357.5792776145636
 51
2.420722385436339
  0
ARC
  5
1F7C0
330
18
100
AcDbEntity
  8
01
100
AcDbCircle
 10
1097.016241615365
 20
-682.3949347648756
 30
0.0
 40
500.0
100
AcDbArc
 50
177.5792776145637
 51
179.3124341435924
  0
ARC
  5
1F7C1
330
18
100
AcDbEntity
  8
01
100
AcDbCircle
 10
1097.016241615365
 20
-682.3949347648756
 30
0.0
 40
500.0
100
AcDbArc
 50
180.6875658564075
 51
180.9740751735221
  0
ARC
  5
1F7C2
330
18
100
AcDbEntity
  8
01
100
AcDbCircle
 10
598.9610933327699
 20
-703.4500830474708
 30
0.0
 40
1.5
100
AcDbArc
 50
190.5653228771321
 51
267.5792776145374
  0
LINE
  5
1F7C3
330
18
100
AcDbEntity
  8
1PHANTOM
100
AcDbLine
 10
640.2662416153653
 20
-700.1449347648756
 30
0.0
 11
640.2662416153653
 21
-664.6449347648756
 31
0.0
  0
ARC
  5
1F7C4
330
18
100
AcDbEntity
  8
1PHANTOM
100
AcDbCircle
 10
637.7662416153653
 20
-664.6449347648756
 30
0.0
 40
2.5
100
AcDbArc
 50
0.0
 51
90.0
  0
LINE
  5
1F7C5
330
18
100
AcDbEntity
  8
1PHANTOM
100
AcDbLine
 10
599.7662416153653
 20
-700.1449347648756
 30
0.0
 11
599.7662416153653
 21
-664.6449347648756
 31
0.0
  0
ARC
  5
1F7C6
330
18
100
AcDbEntity
  8
01
100
AcDbCircle
 10
620.0162416153653
 20
-205.3949347648756
 30
0.0
 40
500.0
100
AcDbArc
 50
267.5792776145505
 51
272.4207223854495
  0
ARC
  5
1F7C7
330
18
100
AcDbEntity
  8
01
100
AcDbCircle
 10
641.0713898979602
 20
-703.4500830474708
 30
0.0
 40
1.5
100
AcDbArc
 50
272.4207223854496
 51
357.5792776145504
  0
ARC
  5
1F7C8
330
18
100
AcDbEntity
  8
01
100
AcDbCircle
 10
620.0162416153653
 20
-1159.394934764876
 30
0.0
 40
500.0
100
AcDbArc
 50
87.57927761455052
 51
92.42072238543648
  0
ARC
  5
1F7C9
330
18
100
AcDbEntity
  8
01
100
AcDbCircle
 10
641.0713898979602
 20
-661.3397864822803
 30
0.0
 40
1.5
100
AcDbArc
 50
2.420722385436519
 51
87.57927761455046
  0
ARC
  5
1F7CA
330
18
100
AcDbEntity
  8
01
100
AcDbCircle
 10
598.9610933327699
 20
-661.3397864822803
 30
0.0
 40
1.5
100
AcDbArc
 50
92.42072238543652
 51
177.5792776145505
  0
SPLINE
  5
1F7CD
330
18
100
AcDbEntity
  8
01
  6
CONTINUOUS
100
AcDbSpline
210
0.0
220
0.0
230
1.0
 70
     8
 71
     3
 72
    30
 73
    26
 74
     0
 42
0.0000000001
 43
0.0000000001
 40
0.0
 40
0.0
 40
0.0
 40
0.0
 40
0.0271687803894764
 40
0.0835080122544042
 40
0.1291045104433483
 40
0.1769693978592756
 40
0.2204812663643666
 40
0.2575423634169069
 40
0.2895211739500319
 40
0.3228125666202318
 40
0.3480644490376241
 40
0.3713648677209361
 40
0.390499812217817
 40
0.4163611539838553
 40
0.4460771264239771
 40
0.4788128382482101
 40
0.5088417830620728
 40
0.5354136531349458
 40
0.5639241870292697
 40
0.6055462311980491
 40
0.660051559544289
 40
0.7279655444413407
 40
0.8099322374690827
 40
0.9056225592339558
 40
1.0
 40
1.0
 40
1.0
 40
1.0
 10
609.7844207360613
 20
-688.9796045929577
 30
0.0
 10
609.7801986385657
 20
-688.977697377018
 30
0.0
 10
609.7672212813059
 20
-688.9718352142793
 30
0.0
 10
609.7433204626373
 20
-689.0287993530908
 30
0.0
 10
609.6432814577129
 20
-689.1464361078988
 30
0.0
 10
609.4605303896351
 20
-689.2928032880368
 30
0.0
 10
609.2136042993279
 20
-689.4474091513683
 30
0.0
 10
608.9286628598265
 20
-689.5986563949054
 30
0.0
 10
608.6082897887604
 20
-689.7468216044961
 30
0.0
 10
608.4604058518989
 20
-689.8086918401018
 30
0.0
 10
608.4311209822108
 20
-689.8156383760384
 30
0.0
 10
608.3547910211341
 20
-689.8369861953468
 30
0.0
 10
608.1956123382224
 20
-689.8792024260998
 30
0.0
 10
607.9092861151366
 20
-689.9457789316793
 30
0.0
 10
607.5605724525253
 20
-690.0160167119193
 30
0.0
 10
607.1501919625894
 20
-690.0870887098092
 30
0.0
 10
606.7189450423375
 20
-690.1519070957431
 30
0.0
 10
606.2782996976075
 20
-690.2105704153296
 30
0.0
 10
605.7398009952344
 20
-690.2741493995763
 30
0.0
 10
605.0148667342855
 20
-690.3460039547977
 30
0.0
 10
604.0345552421104
 20
-690.4223575568403
 30
0.0
 10
602.7860273101642
 20
-690.489895839504
 30
0.0
 10
601.2661036409745
 20
-690.5327875686571
 30
0.0
 10
599.5801933067096
 20
-690.5706823195064
 30
0.0
 10
598.3990977584162
 20
-690.5842571510641
 30
0.0
 10
598.0162414841743
 20
-690.5914810639676
 30
0.0
  0
ARC
  5
1F7CE
330
18
100
AcDbEntity
  8
01
100
AcDbCircle
 10
530.5162416153653
 20
-682.3949347648756
 30
0.0
 40
100.0
100
AcDbArc
 50
0.0
 51
4.535036154568987
  0
ARC
  5
1F7CF
330
18
100
AcDbEntity
  8
01
100
AcDbCircle
 10
620.0162416153653
 20
-852.8949347648756
 30
0.0
 40
180.0
100
AcDbArc
 50
87.20902099333283
 51
92.79097900666719
  0
ARC
  5
1F7D0
330
18
100
AcDbEntity
  8
01
100
AcDbCircle
 10
628.7078548510531
 20
-674.6066685795734
 30
0.0
 40
1.5
100
AcDbArc
 50
4.535036154569003
 51
87.20902099333287
  0
ARC
  5
1F7D1
330
18
100
AcDbEntity
  8
01
100
AcDbCircle
 10
709.5162416153653
 20
-682.3949347648756
 30
0.0
 40
100.0
100
AcDbArc
 50
175.464963845431
 51
180.0
  0
ARC
  5
1F7D2
330
18
100
AcDbEntity
  8
01
100
AcDbCircle
 10
611.324628379678
 20
-674.6066685795734
 30
0.0
 40
1.5
100
AcDbArc
 50
92.79097900666714
 51
175.464963845431
  0
LINE
  5
1F7D3
330
18
100
AcDbEntity
  8
01
100
AcDbLine
 10
609.5162416153653
 20
-682.3949347648756
 30
0.0
 11
609.5162416153653
 21
-689.2472380869177
 31
0.0
  0
LINE
  5
1F7D4
330
18
100
AcDbEntity
  8
01
100
AcDbLine
 10
630.5162416153653
 20
-682.3949347648756
 30
0.0
 11
630.5156690245021
 21
-702.6915233807487
 31
0.0
  0
ARC
  5
1F7D5
330
18
100
AcDbEntity
  8
01
  6
CONTINUOUS
100
AcDbCircle
 10
598.0162414841743
 20
-703.6914810647631
 30
0.0
 40
0.5
100
AcDbArc
 50
179.9999999996483
 51
269.996768130441
  0
LINE
  5
1F7D6
330
18
100
AcDbEntity
  8
01
100
AcDbLine
 10
597.5162414841743
 20
-703.6914810647601
 30
0.0
 11
597.5162414841743
 21
-691.0914810639676
 31
0.0
  0
ARC
  5
1F7D7
330
18
100
AcDbEntity
  8
01
100
AcDbCircle
 10
598.0162414841743
 20
-691.0914810639676
 30
0.0
 40
0.5
100
AcDbArc
 50
90.0
 51
180.0
  0
LINE
  5
1F7D8
330
18
100
AcDbEntity
  8
01
100
AcDbLine
 10
598.0162132807918
 20
-704.1914810639677
 30
0.0
 11
629.0156690250988
 21
-704.1914810639677
 31
0.0
  0
ARC
  5
1F7D9
330
18
100
AcDbEntity
  8
01
100
AcDbCircle
 10
629.0156690250988
 20
-702.6914810639677
 30
0.0
 40
1.5
100
AcDbArc
 50
270.0
 51
359.9983836180309
  0
LINE
  5
1F7DB
330
18
100
AcDbEntity
  8
01
100
AcDbLine
 10
597.2162414841741
 20
-703.8949347648756
 30
0.0
 11
192.8162417465564
 21
-703.8949347648756
 31
0.0
  0
ARC
  5
1F7DC
330
18
100
AcDbEntity
  8
01
100
AcDbCircle
 10
597.2162414841741
 20
-703.5949347648757
 30
0.0
 40
0.3
100
AcDbArc
 50
270.0
 51
0.0
  0
ARC
  5
1F7DD
330
18
100
AcDbEntity
  8
01
100
AcDbCircle
 10
192.8162417465564
 20
-703.5949347648756
 30
0.0
 40
0.3
100
AcDbArc
 50
180.0
 51
270.0
  0
LINE
  5
1F7DE
330
18
100
AcDbEntity
  8
01
100
AcDbLine
 10
597.2162414841741
 20
-690.8949347648756
 30
0.0
 11
192.8162417465564
 21
-690.8949347648756
 31
0.0
  0
ARC
  5
1F7DF
330
18
100
AcDbEntity
  8
01
100
AcDbCircle
 10
597.2162414841741
 20
-691.1949347648756
 30
0.0
 40
0.3
100
AcDbArc
 50
0.0
 51
90.0
  0
ARC
  5
1F7E0
330
18
100
AcDbEntity
  8
01
100
AcDbCircle
 10
192.8162417465564
 20
-691.1949347648756
 30
0.0
 40
0.3
100
AcDbArc
 50
90.0
 51
180.0
  0
LINE
  5
1F7E1
330
18
100
AcDbEntity
  8
01
100
AcDbLine
 10
609.5162416153653
 20
-688.3949347648756
 30
0.0
 11
180.5162416153653
 21
-688.3949347648756
 31
0.0
  0
LINE
  5
1F7E2
330
18
100
AcDbEntity
  8
01
100
AcDbLine
 10
609.6964039076229
 20
-676.3949347648756
 30
0.0
 11
180.3360793231075
 21
-676.3949347648756
 31
0.0
  0
CIRCLE
  5
1F7E3
330
18
100
AcDbEntity
  8
1HIDDEN
100
AcDbCircle
 10
620.0162416153653
 20
-668.3949347648756
 30
0.0
 40
2.25
  0
CIRCLE
  5
1F7E4
330
18
100
AcDbEntity
  8
1HIDDEN
100
AcDbCircle
 10
620.0162416153653
 20
-696.3949347648756
 30
0.0
 40
2.25
  0
LINE
  5
1F7E5
330
18
100
AcDbEntity
  8
1CENTER
100
AcDbLine
 10
617.0912416153651
 20
-668.3949347648759
 30
0.0
 11
622.9412416153655
 21
-668.3949347648759
 31
0.0
  0
LINE
  5
1F7E6
330
18
100
AcDbEntity
  8
1CENTER
100
AcDbLine
 10
620.0162416153653
 20
-671.3199347648758
 30
0.0
 11
620.0162416153653
 21
-665.4699347648759
 31
0.0
  0
LINE
  5
1F7E7
330
18
100
AcDbEntity
  8
1CENTER
100
AcDbLine
 10
617.0912416153651
 20
-696.3949347648759
 30
0.0
 11
622.9412416153655
 21
-696.3949347648759
 31
0.0
  0
LINE
  5
1F7E8
330
18
100
AcDbEntity
  8
1CENTER
100
AcDbLine
 10
620.0162416153653
 20
-699.3199347648759
 30
0.0
 11
620.0162416153653
 21
-693.4699347648759
 31
0.0
  0
LINE
  5
1F7E9
330
18
100
AcDbEntity
  8
1PHANTOM
100
AcDbLine
 10
602.2662416153653
 20
-702.6449347648756
 30
0.0
 11
637.7662416153653
 21
-702.6449347648756
 31
0.0
  0
ARC
  5
1F7EA
330
18
100
AcDbEntity
  8
1PHANTOM
100
AcDbCircle
 10
602.2662416153653
 20
-700.1449347648756
 30
0.0
 40
2.5
100
AcDbArc
 50
180.0
 51
270.0
  0
ARC
  5
1F7EB
330
18
100
AcDbEntity
  8
1PHANTOM
100
AcDbCircle
 10
637.7662416153653
 20
-700.1449347648756
 30
0.0
 40
2.5
100
AcDbArc
 50
270.0
 51
0.0
  0
LINE
  5
1F7EC
330
18
100
AcDbEntity
  8
1PHANTOM
100
AcDbLine
 10
602.2662416153653
 20
-662.1449347648756
 30
0.0
 11
637.7662416153653
 21
-662.1449347648756
 31
0.0
  0
ARC
  5
1F7ED
330
18
100
AcDbEntity
  8
1PHANTOM
100
AcDbCircle
 10
602.2662416153653
 20
-664.6449347648756
 30
0.0
 40
2.5
100
AcDbArc
 50
90.0
 51
180.0
  0
ARC
  5
1F7EE
330
18
100
AcDbEntity
  8
01
100
AcDbCircle
 10
647.0162416153653
 20
-682.3949347648756
 30
0.0
 40
500.0
100
AcDbArc
 50
177.5792776145637
 51
182.4207223854363
  0
ARC
  5
1F7EF
330
18
100
AcDbEntity
  8
01
100
AcDbCircle
 10
-306.9837583846347
 20
-682.3949347648756
 30
0.0
 40
500.0
100
AcDbArc
 50
359.0259248264779
 51
359.3124341435924
  0
ARC
  5
1F7F0
330
18
100
AcDbEntity
  8
01
100
AcDbCircle
 10
-306.9837583846347
 20
-682.3949347648756
 30
0.0
 40
500.0
100
AcDbArc
 50
0.6875658564075208
 51
2.420722385436339
  0
ARC
  5
1F7F1
330
18
100
AcDbEntity
  8
01
100
AcDbCircle
 10
191.0713898979607
 20
-703.4500830474708
 30
0.0
 40
1.5
100
AcDbArc
 50
272.4207223854496
 51
349.4346771228679
  0
LINE
  5
1F7F2
330
18
100
AcDbEntity
  8
1PHANTOM
100
AcDbLine
 10
149.7662416153653
 20
-700.1449347648756
 30
0.0
 11
149.7662416153653
 21
-664.6449347648756
 31
0.0
  0
ARC
  5
1F7F3
330
18
100
AcDbEntity
  8
1PHANTOM
100
AcDbCircle
 10
152.2662416153653
 20
-664.6449347648756
 30
0.0
 40
2.5
100
AcDbArc
 50
90.0
 51
180.0
  0
LINE
  5
1F7F4
330
18
100
AcDbEntity
  8
1PHANTOM
100
AcDbLine
 10
190.2662416153653
 20
-700.1449347648756
 30
0.0
 11
190.2662416153653
 21
-664.6449347648756
 31
0.0
  0
ARC
  5
1F7F5
330
18
100
AcDbEntity
  8
01
100
AcDbCircle
 10
170.0162416153653
 20
-205.3949347648756
 30
0.0
 40
500.0
100
AcDbArc
 50
267.5792776145505
 51
272.4207223854365
  0
ARC
  5
1F7F6
330
18
100
AcDbEntity
  8
01
100
AcDbCircle
 10
148.9610933327701
 20
-703.4500830474708
 30
0.0
 40
1.5
100
AcDbArc
 50
182.4207223854495
 51
267.5792776145504
  0
ARC
  5
1F7F7
330
18
100
AcDbEntity
  8
01
100
AcDbCircle
 10
170.0162416153653
 20
-1159.394934764876
 30
0.0
 40
500.0
100
AcDbArc
 50
87.57927761456354
 51
92.42072238544947
  0
ARC
  5
1F7F8
330
18
100
AcDbEntity
  8
01
100
AcDbCircle
 10
148.9610933327701
 20
-661.3397864822803
 30
0.0
 40
1.5
100
AcDbArc
 50
92.42072238543652
 51
177.5792776145636
  0
ARC
  5
1F7F9
330
18
100
AcDbEntity
  8
01
100
AcDbCircle
 10
191.0713898979607
 20
-661.3397864822803
 30
0.0
 40
1.5
100
AcDbArc
 50
2.420722385449489
 51
87.57927761456348
  0
SPLINE
  5
1F7FB
330
18
100
AcDbEntity
  8
01
  6
CONTINUOUS
100
AcDbSpline
210
0.0
220
0.0
230
1.0
 70
     8
 71
     3
 72
    30
 73
    26
 74
     0
 42
0.0000000001
 43
0.0000000001
 40
0.0
 40
0.0
 40
0.0
 40
0.0
 40
0.0271687803894764
 40
0.0835080122544042
 40
0.1291045104433483
 40
0.1769693978592756
 40
0.2204812663643666
 40
0.2575423634169069
 40
0.2895211739500319
 40
0.3228125666202318
 40
0.3480644490376241
 40
0.3713648677209361
 40
0.390499812217817
 40
0.4163611539838553
 40
0.4460771264239771
 40
0.4788128382482101
 40
0.5088417830620728
 40
0.5354136531349458
 40
0.5639241870292697
 40
0.6055462311980491
 40
0.660051559544289
 40
0.7279655444413407
 40
0.8099322374690827
 40
0.9056225592339558
 40
1.0
 40
1.0
 40
1.0
 40
1.0
 10
180.2480624946693
 20
-688.9796045929577
 30
0.0
 10
180.2522845921651
 20
-688.977697377018
 30
0.0
 10
180.2652619494247
 20
-688.9718352142793
 30
0.0
 10
180.2891627680933
 20
-689.0287993530908
 30
0.0
 10
180.3892017730179
 20
-689.1464361078988
 30
0.0
 10
180.5719528410953
 20
-689.2928032880368
 30
0.0
 10
180.8188789314027
 20
-689.4474091513683
 30
0.0
 10
181.1038203709038
 20
-689.5986563949054
 30
0.0
 10
181.4241934419701
 20
-689.7468216044961
 30
0.0
 10
181.5720773788319
 20
-689.8086918401018
 30
0.0
 10
181.6013622485195
 20
-689.8156383760384
 30
0.0
 10
181.6776922095964
 20
-689.8369861953468
 30
0.0
 10
181.8368708925084
 20
-689.8792024260998
 30
0.0
 10
182.1231971155939
 20
-689.9457789316793
 30
0.0
 10
182.4719107782053
 20
-690.0160167119193
 30
0.0
 10
182.8822912681412
 20
-690.0870887098092
 30
0.0
 10
183.3135381883928
 20
-690.1519070957431
 30
0.0
 10
183.7541835331231
 20
-690.2105704153296
 30
0.0
 10
184.2926822354962
 20
-690.2741493995763
 30
0.0
 10
185.017616496445
 20
-690.3460039547977
 30
0.0
 10
185.9979279886202
 20
-690.4223575568403
 30
0.0
 10
187.2464559205664
 20
-690.489895839504
 30
0.0
 10
188.7663795897558
 20
-690.5327875686571
 30
0.0
 10
190.4522899240212
 20
-690.5706823195064
 30
0.0
 10
191.6333854723146
 20
-690.5842571510641
 30
0.0
 10
192.0162417465565
 20
-690.5914810639676
 30
0.0
  0
ARC
  5
1F7FC
330
18
100
AcDbEntity
  8
01
100
AcDbCircle
 10
259.5162416153653
 20
-682.3949347648756
 30
0.0
 40
100.0
100
AcDbArc
 50
175.464963845431
 51
180.0
  0
ARC
  5
1F7FD
330
18
100
AcDbEntity
  8
01
100
AcDbCircle
 10
170.0162416153653
 20
-852.8949347648756
 30
0.0
 40
180.0
100
AcDbArc
 50
87.20902099333281
 51
92.79097900666719
  0
ARC
  5
1F7FE
330
18
100
AcDbEntity
  8
01
100
AcDbCircle
 10
161.3246283796775
 20
-674.6066685795734
 30
0.0
 40
1.5
100
AcDbArc
 50
92.79097900666714
 51
175.4649638454309
  0
ARC
  5
1F7FF
330
18
100
AcDbEntity
  8
01
100
AcDbCircle
 10
80.51624161536529
 20
-682.3949347648756
 30
0.0
 40
100.0
100
AcDbArc
 50
0.0
 51
4.535036154568983
  0
ARC
  5
1F800
330
18
100
AcDbEntity
  8
01
100
AcDbCircle
 10
178.7078548510528
 20
-674.6066685795734
 30
0.0
 40
1.5
100
AcDbArc
 50
4.535036154569088
 51
87.20902099333287
  0
LINE
  5
1F801
330
18
100
AcDbEntity
  8
01
100
AcDbLine
 10
180.5162416153653
 20
-682.3949347648756
 30
0.0
 11
180.5162416153653
 21
-689.2472380869177
 31
0.0
  0
LINE
  5
1F802
330
18
100
AcDbEntity
  8
01
100
AcDbLine
 10
159.5162416153653
 20
-682.3949347648756
 30
0.0
 11
159.5168142062284
 21
-702.6915233807487
 31
0.0
  0
ARC
  5
1F803
330
18
100
AcDbEntity
  8
01
  6
CONTINUOUS
100
AcDbCircle
 10
192.0162417465565
 20
-703.6914810647631
 30
0.0
 40
0.5
100
AcDbArc
 50
270.0032318695721
 51
0.0000000003387164
  0
LINE
  5
1F804
330
18
100
AcDbEntity
  8
01
100
AcDbLine
 10
192.5162417465565
 20
-703.6914810647601
 30
0.0
 11
192.5162417465565
 21
-691.0914810639676
 31
0.0
  0
ARC
  5
1F805
330
18
100
AcDbEntity
  8
01
100
AcDbCircle
 10
192.0162417465565
 20
-691.0914810639676
 30
0.0
 40
0.5
100
AcDbArc
 50
0.0
 51
90.0
  0
LINE
  5
1F806
330
18
100
AcDbEntity
  8
01
100
AcDbLine
 10
192.0162699499388
 20
-704.1914810639677
 30
0.0
 11
161.0168142056316
 21
-704.1914810639677
 31
0.0
  0
ARC
  5
1F807
330
18
100
AcDbEntity
  8
01
100
AcDbCircle
 10
161.0168142056316
 20
-702.6914810639677
 30
0.0
 40
1.5
100
AcDbArc
 50
180.0016163819691
 51
270.0
  0
CIRCLE
  5
1F808
330
18
100
AcDbEntity
  8
1HIDDEN
100
AcDbCircle
 10
170.0162416153653
 20
-668.3949347648756
 30
0.0
 40
2.25
  0
CIRCLE
  5
1F809
330
18
100
AcDbEntity
  8
1HIDDEN
100
AcDbCircle
 10
170.0162416153653
 20
-696.3949347648756
 30
0.0
 40
2.25
  0
LINE
  5
1F80A
330
18
100
AcDbEntity
  8
1CENTER
100
AcDbLine
 10
172.9412416153655
 20
-668.3949347648759
 30
0.0
 11
167.0912416153653
 21
-668.3949347648759
 31
0.0
  0
LINE
  5
1F80B
330
18
100
AcDbEntity
  8
1CENTER
100
AcDbLine
 10
170.0162416153653
 20
-671.3199347648758
 30
0.0
 11
170.0162416153653
 21
-665.4699347648759
 31
0.0
  0
LINE
  5
1F80C
330
18
100
AcDbEntity
  8
1CENTER
100
AcDbLine
 10
172.9412416153652
 20
-696.3949347648759
 30
0.0
 11
167.0912416153653
 21
-696.3949347648759
 31
0.0
  0
LINE
  5
1F80D
330
18
100
AcDbEntity
  8
1CENTER
100
AcDbLine
 10
170.0162416153653
 20
-699.3199347648759
 30
0.0
 11
170.0162416153653
 21
-693.4699347648759
 31
0.0
  0
LINE
  5
1F80E
330
18
100
AcDbEntity
  8
1PHANTOM
100
AcDbLine
 10
187.7662416153653
 20
-702.6449347648756
 30
0.0
 11
152.2662416153653
 21
-702.6449347648756
 31
0.0
  0
ARC
  5
1F80F
330
18
100
AcDbEntity
  8
1PHANTOM
100
AcDbCircle
 10
187.7662416153653
 20
-700.1449347648756
 30
0.0
 40
2.5
100
AcDbArc
 50
270.0
 51
0.0
  0
ARC
  5
1F810
330
18
100
AcDbEntity
  8
1PHANTOM
100
AcDbCircle
 10
152.2662416153653
 20
-700.1449347648756
 30
0.0
 40
2.5
100
AcDbArc
 50
180.0
 51
270.0
  0
LINE
  5
1F811
330
18
100
AcDbEntity
  8
1PHANTOM
100
AcDbLine
 10
187.7662416153653
 20
-662.1449347648756
 30
0.0
 11
152.2662416153653
 21
-662.1449347648756
 31
0.0
  0
ARC
  5
1F812
330
18
100
AcDbEntity
  8
1PHANTOM
100
AcDbCircle
 10
187.7662416153653
 20
-664.6449347648756
 30
0.0
 40
2.5
100
AcDbArc
 50
0.0
 51
90.0
  0
LINE
  5
1F813
330
18
100
AcDbEntity
  8
01
100
AcDbLine
 10
192.5162417465565
 20
-691.1949347648756
 30
0.0
 11
192.5162417465565
 21
-703.5949347648756
 31
0.0
  0
LINE
  5
1F814
330
18
100
AcDbEntity
  8
01
100
AcDbLine
 10
597.5162414841743
 20
-691.1949347648756
 30
0.0
 11
597.5162414841743
 21
-703.5949347648757
 31
0.0
  0
LINE
  5
1F879
330
18
100
AcDbEntity
  8
01
  6
CONTINUOUS
100
AcDbLine
 10
772.608736990048
 20
-659.3949347648759
 30
0.0
 11
765.3227486378711
 21
-659.3949347648759
 31
0.0
  0
LINE
  5
1F87A
330
18
100
AcDbEntity
  8
01
  6
CONTINUOUS
100
AcDbLine
 10
765.3227486378711
 20
-705.3949347648754
 30
0.0
 11
772.608736990048
 21
-705.3949347648754
 31
0.0
  0
LINE
  5
1F87B
330
18
100
AcDbEntity
  8
01
  6
CONTINUOUS
100
AcDbLine
 10
772.608736990048
 20
-705.3949347648754
 30
0.0
 11
772.608736990048
 21
-659.3949347648759
 31
0.0
  0
ARC
  5
1F87C
330
18
100
AcDbEntity
  8
01
100
AcDbCircle
 10
762.0793154010763
 20
-671.4497998503016
 30
0.0
 40
1.5
100
AcDbArc
 50
271.5643835046709
 51
356.8862589287689
  0
ARC
  5
1F87D
330
18
100
AcDbEntity
  8
01
100
AcDbCircle
 10
762.0793054662641
 20
-693.3398870479873
 30
0.0
 40
1.5
100
AcDbArc
 50
3.11368906388155
 51
88.4356164953291
  0
ARC
  5
1F87E
330
18
100
AcDbEntity
  8
01
100
AcDbCircle
 10
765.3227486378711
 20
-660.1949347648756
 30
0.0
 40
0.8
100
AcDbArc
 50
90.0
 51
173.6013346601914
  0
ARC
  5
1F87F
330
18
100
AcDbEntity
  8
01
100
AcDbCircle
 10
765.3227486378711
 20
-704.5949347648757
 30
0.0
 40
0.8
100
AcDbArc
 50
186.3986653397924
 51
270.0
  0
ARC
  5
1F880
330
18
100
AcDbEntity
  8
01
100
AcDbCircle
 10
963.2818353199426
 20
-682.3949347648745
 30
0.0
 40
200.0
100
AcDbArc
 50
173.601334660208
 51
186.398665339792
  0
LINE
  5
1F881
330
18
100
AcDbEntity
  8
01
100
AcDbLine
 10
762.1202657770062
 20
-672.9492407683479
 30
0.0
 11
729.0948426179881
 21
-673.8511792691083
 31
0.0
  0
ARC
  5
1F882
330
18
100
AcDbEntity
  8
01
100
AcDbCircle
 10
729.6408476303856
 20
-693.8437248430578
 30
0.0
 40
20.0
100
AcDbArc
 50
91.56438350467087
 51
108.5654739290741
  0
LINE
  5
1F883
330
18
100
AcDbEntity
  8
01
100
AcDbLine
 10
723.2730849857954
 20
-674.8845160277574
 30
0.0
 11
675.443456394899
 21
-690.9488848109072
 31
0.0
  0
LINE
  5
1F884
330
18
100
AcDbEntity
  8
01
100
AcDbLine
 10
679.3307964083793
 20
-703.9732712840682
 30
0.0
 11
727.7416118074672
 21
-691.3004169288856
 31
0.0
  0
ARC
  5
1F885
330
18
100
AcDbEntity
  8
01
100
AcDbCircle
 10
730.2740521285424
 20
-700.9744412218156
 30
0.0
 40
10.0
100
AcDbArc
 50
88.43561649532913
 51
104.6695606873223
  0
LINE
  5
1F886
330
18
100
AcDbEntity
  8
01
100
AcDbLine
 10
730.5470546347418
 20
-690.9781684348409
 30
0.0
 11
762.1202558421938
 21
-691.840446129941
 31
0.0
  0
ARC
  5
1F887
330
18
100
AcDbEntity
  8
01
100
AcDbCircle
 10
677.608736990048
 20
-697.3949347648754
 30
0.0
 40
6.8
100
AcDbArc
 50
108.5654739290745
 51
284.6695606873226
  0
LINE
  5
1F888
330
18
100
AcDbEntity
  8
1PHANTOM
100
AcDbLine
 10
770.108736990048
 20
-702.1449348774358
 30
0.0
 11
770.6119010679723
 21
-702.6480989836778
 31
0.0
  0
LINE
  5
1F889
330
18
100
AcDbEntity
  8
1PHANTOM
100
AcDbLine
 10
770.6119010679723
 20
-662.1417699051244
 30
0.0
 11
770.108736990048
 21
-662.6449341401999
 31
0.0
  0
LINE
  5
1F88A
330
18
100
AcDbEntity
  8
1PHANTOM
100
AcDbLine
 10
770.108736990048
 20
-702.1449353895518
 30
0.0
 11
770.6119010679723
 21
-702.6480996246269
 31
0.0
  0
LINE
  5
1F88B
330
18
100
AcDbEntity
  8
1PHANTOM
100
AcDbLine
 10
770.6119010679723
 20
-662.141770546074
 30
0.0
 11
770.108736990048
 21
-662.6449346523154
 31
0.0
  0
LINE
  5
1F88C
330
18
100
AcDbEntity
  8
1PHANTOM
100
AcDbLine
 10
772.608736990048
 20
-662.1449347648754
 30
0.0
 11
772.608736990048
 21
-702.6449347648754
 31
0.0
  0
LINE
  5
1F88D
330
18
100
AcDbEntity
  8
1PHANTOM
100
AcDbLine
 10
772.608736990048
 20
-702.6449347648754
 30
0.0
 11
770.608736990048
 21
-702.6449347648754
 31
0.0
  0
LINE
  5
1F88E
330
18
100
AcDbEntity
  8
1PHANTOM
100
AcDbLine
 10
772.608736990048
 20
-662.1449347648754
 30
0.0
 11
770.608736990048
 21
-662.1449347648754
 31
0.0
  0
LINE
  5
1F88F
330
18
100
AcDbEntity
  8
1PHANTOM
100
AcDbLine
 10
770.108736990048
 20
-675.4306374626344
 30
0.0
 11
769.1450766081549
 21
-676.4299769605809
 31
0.0
  0
LINE
  5
1F890
330
18
100
AcDbEntity
  8
1PHANTOM
100
AcDbLine
 10
770.108736990048
 20
-688.3949347648754
 30
0.0
 11
769.1087369900484
 21
-687.3949347648754
 31
0.0
  0
LINE
  5
1F891
330
18
100
AcDbEntity
  8
1PHANTOM
100
AcDbLine
 10
743.5723973719406
 20
-677.3598925691708
 30
0.0
 11
769.1450766081549
 21
-676.4299769605809
 31
0.0
  0
LINE
  5
1F892
330
18
100
AcDbEntity
  8
1PHANTOM
100
AcDbLine
 10
769.1087369900484
 20
-687.3949347648754
 30
0.0
 11
743.608736990048
 21
-687.3949347648754
 31
0.0
  0
LINE
  5
1F893
330
18
100
AcDbEntity
  8
1PHANTOM
100
AcDbLine
 10
743.608736990048
 20
-687.3949347648754
 30
0.0
 11
742.608736990048
 21
-686.3949347648754
 31
0.0
  0
LINE
  5
1F894
330
18
100
AcDbEntity
  8
1PHANTOM
100
AcDbLine
 10
742.608736990048
 20
-678.3592320671169
 30
0.0
 11
743.5723973719406
 21
-677.3598925691708
 31
0.0
  0
LINE
  5
1F895
330
18
100
AcDbEntity
  8
1PHANTOM
100
AcDbLine
 10
770.108736990048
 20
-702.1449347648772
 30
0.0
 11
770.608736990048
 21
-702.6449347648754
 31
0.0
  0
LINE
  5
1F896
330
18
100
AcDbEntity
  8
1PHANTOM
100
AcDbLine
 10
770.608736990048
 20
-662.1449347648754
 30
0.0
 11
770.108736990048
 21
-662.6449347648745
 31
0.0
  0
LINE
  5
1F897
330
18
100
AcDbEntity
  8
1PHANTOM
100
AcDbLine
 10
770.108736990048
 20
-662.6449347648745
 30
0.0
 11
770.108736990048
 21
-675.4306374626344
 31
0.0
  0
LINE
  5
1F898
330
18
100
AcDbEntity
  8
1PHANTOM
100
AcDbLine
 10
770.108736990048
 20
-688.3949347648754
 30
0.0
 11
770.108736990048
 21
-702.1449353895518
 31
0.0
  0
LINE
  5
1F899
330
18
100
AcDbEntity
  8
1PHANTOM
100
AcDbLine
 10
742.608736990048
 20
-678.3592320671169
 30
0.0
 11
742.608736990048
 21
-686.3949347648754
 31
0.0
  0
TEXT
  5
203B0
330
18
100
AcDbEntity
  8
01
  6
CONTINUOUS
100
AcDbText
 10
779.3462525008704
 20
-637.9638657177564
 30
0.0
 40
3.5
  1
PB
100
AcDbText
  0
TEXT
  5
203B1
330
18
100
AcDbEntity
  8
01
  6
CONTINUOUS
100
AcDbText
 10
792.4816706460356
 20
-637.9638657177564
 30
0.0
 40
3.5
  1
合板9mm以上
100
AcDbText
  0
LINE
  5
203B2
330
18
100
AcDbEntity
  8
1DIM1
100
AcDbLine
 10
170.0162416153653
 20
-682.3949347648756
 30
0.0
 11
170.0162416153653
 21
-739.5096327665051
 31
0.0
1001
ACAD
1000
DSTYLE
1002
{
1070
    40
1040
3.0
1070
    45
1040
0.5
1002
}
  0
LINE
  5
203B3
330
18
100
AcDbEntity
  8
1DIM1
100
AcDbLine
 10
620.0162416153653
 20
-682.3949347648756
 30
0.0
 11
620.0162416153653
 21
-739.5096327665051
 31
0.0
1001
ACAD
1000
DSTYLE
1002
{
1070
    40
1040
3.0
1070
    45
1040
0.5
1002
}
  0
LINE
  5
203B4
330
18
100
AcDbEntity
  8
1DIM1
100
AcDbLine
 10
176.0162416153653
 20
-736.5096327665051
 30
0.0
 11
614.0162416153653
 21
-736.5096327665051
 31
0.0
1001
ACAD
1000
DSTYLE
1002
{
1070
    40
1040
3.0
1070
    45
1040
0.5
1002
}
  0
SOLID
  5
203B8
330
18
100
AcDbEntity
  8
1DIM
100
AcDbTrace
 10
498.5763722153868
 20
-682.4744701859745
 30
0.0
 11
497.7530467762572
 21
-684.3273723238094
 31
0.0
 12
497.9309269037036
 22
-682.3076025915452
 32
0.0
 13
497.9309269037036
 23
-682.3076025915452
 33
0.0
1001
ACAD
1000
DSTYLE
1002
{
1070
    45
1040
0.5
1002
}
  0
LINE
  5
203B9
330
18
100
AcDbEntity
  8
1DIM
100
AcDbLine
 10
498.2536495595451
 20
-682.3910363887599
 30
0.0
 11
501.3891772710066
 21
-670.2627878337472
 31
0.0
1001
ACAD
1000
DSTYLE
1002
{
1070
    45
1040
0.5
1002
}
  0
LINE
  5
203BA
330
18
100
AcDbEntity
  8
1DIM
100
AcDbLine
 10
501.3891772710066
 20
-670.2627878337472
 30
0.0
 11
541.0725106043399
 21
-670.2627878337472
 31
0.0
1001
ACAD
1000
DSTYLE
1002
{
1070
    45
1040
0.5
1002
}
  0
TEXT
  5
203BB
330
18
100
AcDbEntity
  8
1DIM
  6
CONTINUOUS
100
AcDbText
 10
503.8558439376732
 20
-663.7294545004138
 30
0.0
 40
3.5
  1
材質：ステンレス
100
AcDbText
  0
TEXT
  5
203BC
330
18
100
AcDbEntity
  8
1DIM
  6
CONTINUOUS
100
AcDbText
 10
503.9725106043399
 20
-669.5627878337472
 30
0.0
 40
3.5
  1
仕上げ：各種仕上げ
100
AcDbText
  0
SOLID
  5
203BD
330
18
100
AcDbEntity
  8
1DIM
100
AcDbTrace
 10
596.6723610852581
 20
-666.8764475029554
 30
0.0
 11
597.2001708210748
 21
-668.8341318477588
 31
0.0
 12
596.0659666888796
 22
-667.1534498142908
 32
0.0
 13
596.0659666888796
 23
-667.1534498142908
 33
0.0
1001
ACAD
1000
DSTYLE
1002
{
1070
    45
1040
0.5
1002
}
  0
LINE
  5
203BE
330
18
100
AcDbEntity
  8
1DIM
100
AcDbLine
 10
596.3691638870689
 20
-667.0149486586231
 30
0.0
 11
593.5266001463884
 21
-660.7922037458168
 31
0.0
1001
ACAD
1000
DSTYLE
1002
{
1070
    45
1040
0.5
1002
}
  0
LINE
  5
203BF
330
18
100
AcDbEntity
  8
1DIM
100
AcDbLine
 10
593.5266001463884
 20
-660.7922037458168
 30
0.0
 11
546.2599334797218
 21
-660.7922037458168
 31
0.0
1001
ACAD
1000
DSTYLE
1002
{
1070
    45
1040
0.5
1002
}
  0
TEXT
  5
203C0
330
18
100
AcDbEntity
  8
1DIM
  6
CONTINUOUS
100
AcDbText
 10
546.0266001463883
 20
-654.2588704124834
 30
0.0
 40
3.5
  1
材質：亜鉛ダイキャスト
100
AcDbText
  0
TEXT
  5
203C1
330
18
100
AcDbEntity
  8
1DIM
  6
CONTINUOUS
100
AcDbText
 10
553.9599334797217
 20
-660.0922037458167
 30
0.0
 40
3.5
  1
仕上げ：各種メッキ
100
AcDbText
  0
LINE
  5
203C2
330
18
100
AcDbEntity
  8
1DIM
100
AcDbLine
 10
534.7188985148118
 20
-595.5932300613673
 30
0.0
 11
545.2458307863246
 21
-595.5932300613673
 31
0.0
1001
ACAD
1000
DSTYLE
1002
{
1070
     3
1000
φ<>
1070
    45
1040
0.5
1002
}
  0
LINE
  5
203C3
330
18
100
AcDbEntity
  8
1DIM
100
AcDbLine
 10
534.7188985148118
 20
-583.5932300613673
 30
0.0
 11
545.2458307863246
 21
-583.5932300613673
 31
0.0
1001
ACAD
1000
DSTYLE
1002
{
1070
     3
1000
φ<>
1070
    45
1040
0.5
1002
}
  0
LINE
  5
203C4
330
18
100
AcDbEntity
  8
1DIM
100
AcDbLine
 10
544.2458307863246
 20
-583.5932300613673
 30
0.0
 11
544.2458307863246
 21
-570.6432300613671
 31
0.0
1001
ACAD
1000
DSTYLE
1002
{
1070
     3
1000
φ<>
1070
    45
1040
0.5
1002
}
  0
LINE
  5
203C5
330
18
100
AcDbEntity
  8
1DIM
100
AcDbLine
 10
544.2458307863246
 20
-593.5932300613673
 30
0.0
 11
544.2458307863246
 21
-585.5932300613673
 31
0.0
1001
ACAD
1000
DSTYLE
1002
{
1070
     3
1000
φ<>
1070
    45
1040
0.5
1002
}
  0
LINE
  5
203C9
330
18
100
AcDbEntity
  8
1DIM
100
AcDbLine
 10
670.808736990048
 20
-697.3949347648754
 30
0.0
 11
670.808736990048
 21
-722.1678887287101
 31
0.0
1001
ACAD
1000
DSTYLE
1002
{
1070
    45
1040
0.5
1002
}
  0
LINE
  5
203CA
330
18
100
AcDbEntity
  8
1DIM
100
AcDbLine
 10
772.6087369900479
 20
-719.6231083501575
 30
0.0
 11
772.6087369900479
 21
-722.1678887287101
 31
0.0
1001
ACAD
1000
DSTYLE
1002
{
1070
    45
1040
0.5
1002
}
  0
LINE
  5
203CB
330
18
100
AcDbEntity
  8
1DIM
100
AcDbLine
 10
672.808736990048
 20
-721.1678887287101
 30
0.0
 11
770.6087369900479
 21
-721.1678887287101
 31
0.0
1001
ACAD
1000
DSTYLE
1002
{
1070
    45
1040
0.5
1002
}
  0
LINE
  5
203CF
330
18
100
AcDbEntity
  8
1DIM
100
AcDbLine
 10
772.6087369900479
 20
-719.6231083501575
 30
0.0
 11
772.6087369900479
 21
-715.088454188262
 31
0.0
1001
ACAD
1000
DSTYLE
1002
{
1070
    45
1040
0.5
1002
}
  0
LINE
  5
203D0
330
18
100
AcDbEntity
  8
1DIM
100
AcDbLine
 10
754.6087189362546
 20
-692.9807562907522
 30
0.0
 11
754.6087189362546
 21
-717.088454188262
 31
0.0
1001
ACAD
1000
DSTYLE
1002
{
1070
    45
1040
0.5
1002
}
  0
LINE
  5
203D1
330
18
100
AcDbEntity
  8
1DIM
100
AcDbLine
 10
770.6087369900479
 20
-716.088454188262
 30
0.0
 11
756.6087189362546
 21
-716.088454188262
 31
0.0
1001
ACAD
1000
DSTYLE
1002
{
1070
    45
1040
0.5
1002
}
  0
LINE
  5
203D5
330
18
100
AcDbEntity
  8
1DIM
100
AcDbLine
 10
806.0395319073509
 20
-668.3949347617715
 30
0.0
 11
815.1087369900479
 21
-668.3949347617715
 31
0.0
1001
ACAD
1000
DSTYLE
1002
{
1070
    45
1040
0.5
1070
   271
1070
     0
1002
}
  0
LINE
  5
203D6
330
18
100
AcDbEntity
  8
1DIM
100
AcDbLine
 10
772.6087369900479
 20
-659.3949347648759
 30
0.0
 11
815.1087369900479
 21
-659.3949347648759
 31
0.0
1001
ACAD
1000
DSTYLE
1002
{
1070
    45
1040
0.5
1070
   271
1070
     0
1002
}
  0
LINE
  5
203D7
330
18
100
AcDbEntity
  8
1DIM
100
AcDbLine
 10
814.1087369900479
 20
-666.3949347617715
 30
0.0
 11
814.1087369900479
 21
-661.3949347648759
 31
0.0
1001
ACAD
1000
DSTYLE
1002
{
1070
    45
1040
0.5
1070
   271
1070
     0
1002
}
  0
LINE
  5
203DB
330
18
100
AcDbEntity
  8
1DIM1
100
AcDbLine
 10
147.0162416153653
 20
-682.3949347648755
 30
0.0
 11
147.0162416153653
 21
-769.6837272986982
 31
0.0
1001
ACAD
1000
DSTYLE
1002
{
1070
    40
1040
3.0
1070
    45
1040
0.5
1002
}
  0
LINE
  5
203DC
330
18
100
AcDbEntity
  8
1DIM1
100
AcDbLine
 10
643.0162416153653
 20
-679.5484780077113
 30
0.0
 11
643.0162416153653
 21
-769.6837272986982
 31
0.0
1001
ACAD
1000
DSTYLE
1002
{
1070
    40
1040
3.0
1070
    45
1040
0.5
1002
}
  0
LINE
  5
203DD
330
18
100
AcDbEntity
  8
1DIM1
100
AcDbLine
 10
153.0162416153653
 20
-766.6837272986982
 30
0.0
 11
637.0162416153653
 21
-766.6837272986982
 31
0.0
1001
ACAD
1000
DSTYLE
1002
{
1070
    40
1040
3.0
1070
    45
1040
0.5
1002
}
  0
LINE
  5
203E1
330
18
100
AcDbEntity
  8
1DIM
100
AcDbLine
 10
772.6087369900479
 20
-705.3949347648754
 30
0.0
 11
825.1087369900479
 21
-705.3949347648754
 31
0.0
1001
ACAD
1000
DSTYLE
1002
{
1070
    45
1040
0.5
1002
}
  0
LINE
  5
203E2
330
18
100
AcDbEntity
  8
1DIM
100
AcDbLine
 10
772.6087369900479
 20
-659.3949347648759
 30
0.0
 11
825.1087369900479
 21
-659.3949347648759
 31
0.0
1001
ACAD
1000
DSTYLE
1002
{
1070
    45
1040
0.5
1002
}
  0
LINE
  5
203E3
330
18
100
AcDbEntity
  8
1DIM
100
AcDbLine
 10
824.1087369900479
 20
-703.3949347648754
 30
0.0
 11
824.1087369900479
 21
-661.3949347648759
 31
0.0
1001
ACAD
1000
DSTYLE
1002
{
1070
    45
1040
0.5
1002
}
  0
LINE
  5
203E7
330
18
100
AcDbEntity
  8
1DIM
100
AcDbLine
 10
643.0162416153646
 20
-544.5932300613673
 30
0.0
 11
643.0162416153646
 21
-508.5932300613673
 31
0.0
1001
ACAD
1000
DSTYLE
1002
{
1070
    45
1040
0.5
1002
}
  0
LINE
  5
203E8
330
18
100
AcDbEntity
  8
1DIM
100
AcDbLine
 10
597.0162416153651
 20
-544.5932300613673
 30
0.0
 11
597.0162416153651
 21
-508.5932300613673
 31
0.0
1001
ACAD
1000
DSTYLE
1002
{
1070
    45
1040
0.5
1002
}
  0
LINE
  5
203E9
330
18
100
AcDbEntity
  8
1DIM
100
AcDbLine
 10
641.0162416153646
 20
-509.5932300613673
 30
0.0
 11
599.0162416153651
 21
-509.5932300613673
 31
0.0
1001
ACAD
1000
DSTYLE
1002
{
1070
    45
1040
0.5
1002
}
  0
SOLID
  5
203ED
330
18
100
AcDbEntity
  8
1DIM
100
AcDbTrace
 10
776.2633432944482
 20
-651.5090336274408
 30
0.0
 11
775.5224085677553
 21
-653.3963933816719
 31
0.0
 12
775.6111760916331
 22
-651.3707499190123
 32
0.0
 13
775.6111760916331
 23
-651.3707499190123
 33
0.0
1001
ACAD
1000
DSTYLE
1002
{
1070
    45
1040
0.5
1002
}
  0
LINE
  5
203EE
330
18
100
AcDbEntity
  8
1DIM
100
AcDbLine
 10
775.9372596930406
 20
-651.4398917732265
 30
0.0
 11
778.6462525008703
 21
-638.6638657177565
 31
0.0
1001
ACAD
1000
DSTYLE
1002
{
1070
    45
1040
0.5
1002
}
  0
SOLID
  5
203EF
330
18
100
AcDbEntity
  8
1DIM
100
AcDbTrace
 10
789.3987614396134
 20
-651.5090336274408
 30
0.0
 11
788.6578267129205
 21
-653.3963933816719
 31
0.0
 12
788.7465942367983
 22
-651.3707499190123
 32
0.0
 13
788.7465942367983
 23
-651.3707499190123
 33
0.0
1001
ACAD
1000
DSTYLE
1002
{
1070
    45
1040
0.5
1002
}
  0
LINE
  5
203F0
330
18
100
AcDbEntity
  8
1DIM
100
AcDbLine
 10
789.0726778382058
 20
-651.4398917732265
 30
0.0
 11
791.7816706460355
 21
-638.6638657177565
 31
0.0
1001
ACAD
1000
DSTYLE
1002
{
1070
    45
1040
0.5
1002
}
  0
LINE
  5
203F2
330
18
100
AcDbEntity
  8
1HATCH
100
AcDbLine
 10
756.2589696693293
 20
-683.0410157514923
 30
0.0
 11
756.2587616537562
 21
-688.391027500943
 31
0.0
  0
LINE
  5
203F3
330
18
100
AcDbEntity
  8
1HATCH
100
AcDbLine
 10
752.9589696693856
 20
-683.0409943449793
 30
0.0
 11
752.9587616541329
 21
-688.3909716577637
 31
0.0
  0
LINE
  5
203F4
330
18
100
AcDbEntity
  8
1HATCH
100
AcDbLine
 10
756.6089669997999
 20
-683.3910190089949
 30
0.0
 11
752.6089669998871
 21
-683.3909910874562
 31
0.0
  0
LINE
  5
203F5
330
18
100
AcDbEntity
  8
0
100
AcDbLine
 10
758.6087397819351
 20
-690.7410329688664
 30
0.0
 11
750.6087397821083
 21
-690.740977125789
 31
0.0
  0
LINE
  5
203F6
330
18
100
AcDbEntity
  8
1HATCH
100
AcDbLine
 10
756.2587616537562
 20
-688.391027500943
 30
0.0
 11
756.6087583962509
 21
-688.7410283153147
 31
0.0
  0
LINE
  5
203F7
330
18
100
AcDbEntity
  8
1HATCH
100
AcDbLine
 10
752.9587616541329
 20
-688.3909716577637
 30
0.0
 11
752.6087583965974
 21
-688.7409724721504
 31
0.0
  0
LINE
  5
203F8
330
18
100
AcDbEntity
  8
1CENTER
100
AcDbLine
 10
754.6089879252521
 20
-681.0795198888733
 30
0.0
 11
754.6087189362546
 21
-692.9807562907522
 31
0.0
  0
LINE
  5
203F9
330
18
100
AcDbEntity
  8
0
100
AcDbLine
 10
620.0162881481582
 20
-512.5932300615297
 30
0.0
 11
618.5162881481582
 21
-517.8932265713913
 31
0.0
  0
LINE
  5
203FA
330
18
100
AcDbEntity
  8
0
100
AcDbLine
 10
618.5162881481582
 20
-517.8932265713913
 30
0.0
 11
618.5162881481584
 21
-547.5932265712833
 31
0.0
  0
LINE
  5
203FB
330
18
100
AcDbEntity
  8
0
100
AcDbLine
 10
620.0162881481582
 20
-512.5932300615297
 30
0.0
 11
621.5162881481583
 21
-517.893233551775
 31
0.0
  0
LINE
  5
203FC
330
18
100
AcDbEntity
  8
0
100
AcDbLine
 10
616.5162416122604
 20
-547.5932219175851
 30
0.0
 11
623.5162416122603
 21
-547.5932382051495
 31
0.0
  0
LINE
  5
203FD
330
18
100
AcDbEntity
  8
0
100
AcDbLine
 10
621.5162881481583
 20
-517.893233551775
 30
0.0
 11
621.5162881481584
 21
-547.5932335516679
 31
0.0
  0
LINE
  5
203FE
330
18
100
AcDbEntity
  8
0
100
AcDbLine
 10
616.5162416122604
 20
-547.5932219175851
 30
0.0
 11
616.5162416122603
 21
-548.6932254077805
 31
0.0
  0
ARC
  5
203FF
330
18
100
AcDbEntity
  8
0
100
AcDbCircle
 10
618.0162416122603
 20
-548.6932254077805
 30
0.0
 40
1.5
100
AcDbArc
 50
180.0
 51
269.9998666844662
  0
LINE
  5
20400
330
18
100
AcDbEntity
  8
0
100
AcDbLine
 10
623.5162416122603
 20
-547.5932382051495
 30
0.0
 11
623.5162416122603
 21
-548.6932347149601
 31
0.0
  0
LINE
  5
20401
330
18
100
AcDbEntity
  8
0
100
AcDbLine
 10
618.0162381220679
 20
-550.1932254077764
 30
0.0
 11
622.0162381220679
 21
-550.193234714956
 31
0.0
  0
ARC
  5
20402
330
18
100
AcDbEntity
  8
0
100
AcDbCircle
 10
622.0162416122603
 20
-548.6932347149601
 30
0.0
 40
1.5
100
AcDbArc
 50
269.9998666844662
 51
0.0
  0
LINE
  5
20403
330
18
100
AcDbEntity
  8
1CENTER
100
AcDbLine
 10
620.0162416122603
 20
-511.1624351440643
 30
0.0
 11
620.0162416122603
 21
-551.2635064706761
 31
0.0
  0
LINE
  5
20404
330
18
100
AcDbEntity
  8
0
100
AcDbLine
 10
618.9219177982652
 20
-514.6932275152075
 30
0.0
 11
620.8842528871406
 21
-513.8932320811565
 31
0.0
  0
LINE
  5
20405
330
18
100
AcDbEntity
  8
0
100
AcDbLine
 10
620.8842528871406
 20
-513.8932320811565
 30
0.0
 11
620.2959763120982
 21
-513.5814622249044
 31
0.0
  0
LINE
  5
20406
330
18
100
AcDbEntity
  8
0
100
AcDbLine
 10
618.0162881481582
 20
-537.0932254079975
 30
0.0
 11
622.0162881481582
 21
-536.2932347151792
 31
0.0
  0
LINE
  5
20407
330
18
100
AcDbEntity
  8
0
100
AcDbLine
 10
618.0162881481582
 20
-525.8932254079931
 30
0.0
 11
622.0162881481582
 21
-525.0932347151705
 31
0.0
  0
LINE
  5
20408
330
18
100
AcDbEntity
  8
0
100
AcDbLine
 10
618.0162881481582
 20
-522.693225407993
 30
0.0
 11
622.0162881481582
 21
-521.8932347151705
 31
0.0
  0
LINE
  5
20409
330
18
100
AcDbEntity
  8
0
100
AcDbLine
 10
622.0162881481582
 20
-521.8932347151705
 30
0.0
 11
621.5162881481582
 21
-521.7932335517733
 31
0.0
  0
LINE
  5
2040A
330
18
100
AcDbEntity
  8
0
100
AcDbLine
 10
618.5162881481582
 20
-521.1932265713903
 30
0.0
 11
618.0162881481582
 21
-521.093225407993
 31
0.0
  0
LINE
  5
2040B
330
18
100
AcDbEntity
  8
0
100
AcDbLine
 10
622.0162881481582
 20
-525.0932347151705
 30
0.0
 11
621.5162881481582
 21
-524.9932335517733
 31
0.0
  0
LINE
  5
2040C
330
18
100
AcDbEntity
  8
0
100
AcDbLine
 10
622.0162881481582
 20
-523.4932347151704
 30
0.0
 11
621.5162881481582
 21
-523.3932335517733
 31
0.0
  0
LINE
  5
2040D
330
18
100
AcDbEntity
  8
0
100
AcDbLine
 10
618.5162881481582
 20
-522.7932265713902
 30
0.0
 11
618.0162881481582
 21
-522.693225407993
 31
0.0
  0
LINE
  5
2040E
330
18
100
AcDbEntity
  8
0
100
AcDbLine
 10
618.5162881481582
 20
-524.3932265713901
 30
0.0
 11
618.0162881481582
 21
-524.293225407993
 31
0.0
  0
LINE
  5
2040F
330
18
100
AcDbEntity
  8
0
100
AcDbLine
 10
618.0162881481582
 20
-524.293225407993
 30
0.0
 11
622.0162881481582
 21
-523.4932347151704
 31
0.0
  0
LINE
  5
20410
330
18
100
AcDbEntity
  8
0
100
AcDbLine
 10
621.3370669915474
 20
-515.4932331347621
 30
0.0
 11
620.7853175277442
 21
-515.3104689921341
 31
0.0
  0
LINE
  5
20411
330
18
100
AcDbEntity
  8
0
100
AcDbLine
 10
622.0162881481582
 20
-518.6932347151704
 30
0.0
 11
621.5162881481582
 21
-518.5932335517733
 31
0.0
  0
LINE
  5
20412
330
18
100
AcDbEntity
  8
0
100
AcDbLine
 10
622.0162881481582
 20
-520.2932347151705
 30
0.0
 11
621.5162881481582
 21
-520.1932335517735
 31
0.0
  0
LINE
  5
20413
330
18
100
AcDbEntity
  8
0
100
AcDbLine
 10
621.7898810959542
 20
-517.0932341883678
 30
0.0
 11
621.2532873606831
 21
-516.9639634907379
 31
0.0
  0
LINE
  5
20414
330
18
100
AcDbEntity
  8
0
100
AcDbLine
 10
618.9372027453669
 20
-516.4059959739533
 30
0.0
 11
618.4691042902169
 21
-516.2932264616032
 31
0.0
  0
LINE
  5
20415
330
18
100
AcDbEntity
  8
0
100
AcDbLine
 10
618.5162881481582
 20
-519.5932265713901
 30
0.0
 11
618.0162881481582
 21
-519.493225407993
 31
0.0
  0
LINE
  5
20416
330
18
100
AcDbEntity
  8
0
100
AcDbLine
 10
618.5162881481582
 20
-517.9932265713902
 30
0.0
 11
618.0162881481582
 21
-517.8932254079931
 31
0.0
  0
LINE
  5
20417
330
18
100
AcDbEntity
  8
0
100
AcDbLine
 10
619.3790896388963
 20
-514.8446633116479
 30
0.0
 11
618.9219177982652
 21
-514.6932275152075
 31
0.0
  0
LINE
  5
20418
330
18
100
AcDbEntity
  8
0
100
AcDbLine
 10
618.4691042902169
 20
-516.2932264616032
 30
0.0
 11
621.3370669915474
 21
-515.4932331347621
 31
0.0
  0
LINE
  5
20419
330
18
100
AcDbEntity
  8
0
100
AcDbLine
 10
618.0162881481582
 20
-519.493225407993
 30
0.0
 11
622.0162881481582
 21
-518.6932347151704
 31
0.0
  0
LINE
  5
2041A
330
18
100
AcDbEntity
  8
0
100
AcDbLine
 10
618.0162881481582
 20
-517.8932254079931
 30
0.0
 11
621.7898810959542
 21
-517.0932341883678
 31
0.0
  0
LINE
  5
2041B
330
18
100
AcDbEntity
  8
0
100
AcDbLine
 10
618.0162881481582
 20
-521.093225407993
 30
0.0
 11
622.0162881481582
 21
-520.2932347151705
 31
0.0
  0
LINE
  5
2041C
330
18
100
AcDbEntity
  8
0
100
AcDbLine
 10
618.0162881481582
 20
-533.8932254079974
 30
0.0
 11
622.0162881481582
 21
-533.0932347151792
 31
0.0
  0
LINE
  5
2041D
330
18
100
AcDbEntity
  8
0
100
AcDbLine
 10
622.0162881481582
 20
-533.0932347151792
 30
0.0
 11
621.5162881481582
 21
-532.9932335517815
 31
0.0
  0
LINE
  5
2041E
330
18
100
AcDbEntity
  8
0
100
AcDbLine
 10
618.5162881481582
 20
-532.3932265713908
 30
0.0
 11
618.0162881481582
 21
-532.2932254079931
 31
0.0
  0
LINE
  5
2041F
330
18
100
AcDbEntity
  8
0
100
AcDbLine
 10
622.0162881481582
 20
-534.6932347151793
 30
0.0
 11
621.5162881481582
 21
-534.5932335517816
 31
0.0
  0
LINE
  5
20420
330
18
100
AcDbEntity
  8
0
100
AcDbLine
 10
622.0162881481582
 20
-536.2932347151792
 30
0.0
 11
621.5162881481582
 21
-536.1932335517815
 31
0.0
  0
LINE
  5
20421
330
18
100
AcDbEntity
  8
0
100
AcDbLine
 10
618.5162881481582
 20
-533.9932265713951
 30
0.0
 11
618.0162881481582
 21
-533.8932254079974
 31
0.0
  0
LINE
  5
20422
330
18
100
AcDbEntity
  8
0
100
AcDbLine
 10
618.5162881481582
 20
-535.5932265713952
 30
0.0
 11
618.0162881481582
 21
-535.4932254079976
 31
0.0
  0
LINE
  5
20423
330
18
100
AcDbEntity
  8
0
100
AcDbLine
 10
618.0162881481582
 20
-535.4932254079976
 30
0.0
 11
622.0162881481582
 21
-534.6932347151793
 31
0.0
  0
LINE
  5
20424
330
18
100
AcDbEntity
  8
0
100
AcDbLine
 10
622.0162881481582
 20
-528.2932347151748
 30
0.0
 11
621.5162881481582
 21
-528.1932335517771
 31
0.0
  0
LINE
  5
20425
330
18
100
AcDbEntity
  8
0
100
AcDbLine
 10
622.0162881481582
 20
-526.6932347151704
 30
0.0
 11
621.5162881481582
 21
-526.5932335517733
 31
0.0
  0
LINE
  5
20426
330
18
100
AcDbEntity
  8
0
100
AcDbLine
 10
622.0162881481582
 20
-531.4932347151748
 30
0.0
 11
621.5162881481582
 21
-531.3932335517771
 31
0.0
  0
LINE
  5
20427
330
18
100
AcDbEntity
  8
0
100
AcDbLine
 10
622.0162881481582
 20
-529.8932347151749
 30
0.0
 11
621.5162881481582
 21
-529.7932335517772
 31
0.0
  0
LINE
  5
20428
330
18
100
AcDbEntity
  8
0
100
AcDbLine
 10
618.5162881481582
 20
-525.9932265713902
 30
0.0
 11
618.0162881481582
 21
-525.8932254079931
 31
0.0
  0
LINE
  5
20429
330
18
100
AcDbEntity
  8
0
100
AcDbLine
 10
618.5162881481582
 20
-527.5932265713908
 30
0.0
 11
618.0162881481582
 21
-527.493225407993
 31
0.0
  0
LINE
  5
2042A
330
18
100
AcDbEntity
  8
0
100
AcDbLine
 10
618.5162881481582
 20
-530.7932265713908
 30
0.0
 11
618.0162881481582
 21
-530.6932254079932
 31
0.0
  0
LINE
  5
2042B
330
18
100
AcDbEntity
  8
0
100
AcDbLine
 10
618.5162881481582
 20
-529.1932265713907
 30
0.0
 11
618.0162881481582
 21
-529.093225407993
 31
0.0
  0
LINE
  5
2042C
330
18
100
AcDbEntity
  8
0
100
AcDbLine
 10
618.0162881481582
 20
-529.093225407993
 30
0.0
 11
622.0162881481582
 21
-528.2932347151748
 31
0.0
  0
LINE
  5
2042D
330
18
100
AcDbEntity
  8
0
100
AcDbLine
 10
618.0162881481582
 20
-527.493225407993
 30
0.0
 11
622.0162881481582
 21
-526.6932347151704
 31
0.0
  0
LINE
  5
2042E
330
18
100
AcDbEntity
  8
0
100
AcDbLine
 10
618.0162881481582
 20
-530.6932254079932
 30
0.0
 11
622.0162881481582
 21
-529.8932347151749
 31
0.0
  0
LINE
  5
2042F
330
18
100
AcDbEntity
  8
0
100
AcDbLine
 10
618.0162881481582
 20
-532.2932254079931
 30
0.0
 11
622.0162881481582
 21
-531.4932347151748
 31
0.0
  0
LINE
  5
20430
330
18
100
AcDbEntity
  8
0
100
AcDbLine
 10
618.5162881481582
 20
-541.9932265713993
 30
0.0
 11
618.0162881481582
 21
-541.8932254080016
 31
0.0
  0
LINE
  5
20431
330
18
100
AcDbEntity
  8
0
100
AcDbLine
 10
618.0162881481582
 20
-541.8932254080016
 30
0.0
 11
622.0162881481582
 21
-541.0932347151834
 31
0.0
  0
LINE
  5
20432
330
18
100
AcDbEntity
  8
0
100
AcDbLine
 10
622.0162881481582
 20
-541.0932347151834
 30
0.0
 11
621.5162881481582
 21
-540.9932335517857
 31
0.0
  0
LINE
  5
20433
330
18
100
AcDbEntity
  8
0
100
AcDbLine
 10
618.5162881481582
 20
-540.3932265713994
 30
0.0
 11
618.0162881481582
 21
-540.2932254080017
 31
0.0
  0
LINE
  5
20434
330
18
100
AcDbEntity
  8
0
100
AcDbLine
 10
618.5162881481582
 20
-538.7932265713995
 30
0.0
 11
618.0162881481582
 21
-538.6932254080018
 31
0.0
  0
LINE
  5
20435
330
18
100
AcDbEntity
  8
0
100
AcDbLine
 10
618.0162881481582
 20
-538.6932254080018
 30
0.0
 11
622.0162881481582
 21
-537.8932347151836
 31
0.0
  0
LINE
  5
20436
330
18
100
AcDbEntity
  8
0
100
AcDbLine
 10
622.0162881481582
 20
-539.4932347151835
 30
0.0
 11
621.5162881481582
 21
-539.3932335517858
 31
0.0
  0
LINE
  5
20437
330
18
100
AcDbEntity
  8
0
100
AcDbLine
 10
622.0162881481582
 20
-537.8932347151836
 30
0.0
 11
621.5162881481582
 21
-537.7932335517859
 31
0.0
  0
LINE
  5
20438
330
18
100
AcDbEntity
  8
0
100
AcDbLine
 10
618.0162881481582
 20
-540.2932254080017
 30
0.0
 11
622.0162881481582
 21
-539.4932347151835
 31
0.0
  0
LINE
  5
20439
330
18
100
AcDbEntity
  8
0
100
AcDbLine
 10
618.5162881481582
 20
-537.1932265713951
 30
0.0
 11
618.0162881481582
 21
-537.0932254079975
 31
0.0
  0
LINE
  5
2043A
330
18
100
AcDbEntity
  8
0
100
AcDbLine
 10
618.5162881481582
 20
-543.5932265713992
 30
0.0
 11
618.0162881481582
 21
-543.4932254080015
 31
0.0
  0
LINE
  5
2043B
330
18
100
AcDbEntity
  8
0
100
AcDbLine
 10
618.0162881481582
 20
-543.4932254080015
 30
0.0
 11
622.0162881481582
 21
-542.6932347151833
 31
0.0
  0
LINE
  5
2043C
330
18
100
AcDbEntity
  8
0
100
AcDbLine
 10
622.0162881481582
 20
-542.6932347151833
 30
0.0
 11
621.5162881481582
 21
-542.5932335517856
 31
0.0
  0
LINE
  5
2043D
330
18
100
AcDbEntity
  8
0
100
AcDbLine
 10
618.5162881481582
 20
-545.1932265713991
 30
0.0
 11
618.0162881481582
 21
-545.0932254080014
 31
0.0
  0
LINE
  5
2043E
330
18
100
AcDbEntity
  8
0
100
AcDbLine
 10
618.0162881481582
 20
-545.0932254080014
 30
0.0
 11
622.0162881481582
 21
-544.2932347151832
 31
0.0
  0
LINE
  5
2043F
330
18
100
AcDbEntity
  8
0
100
AcDbLine
 10
622.0162881481582
 20
-544.2932347151832
 30
0.0
 11
621.5162881481582
 21
-544.1932335517855
 31
0.0
  0
LINE
  5
20440
330
18
100
AcDbEntity
  8
0
100
AcDbLine
 10
618.5162881481582
 20
-546.793226571399
 30
0.0
 11
618.0162881481582
 21
-546.6932254080014
 31
0.0
  0
LINE
  5
20441
330
18
100
AcDbEntity
  8
0
100
AcDbLine
 10
618.0162881481582
 20
-546.6932254080014
 30
0.0
 11
622.0162881481582
 21
-545.8932347151831
 31
0.0
  0
LINE
  5
20442
330
18
100
AcDbEntity
  8
0
100
AcDbLine
 10
622.0162881481582
 20
-545.8932347151831
 30
0.0
 11
621.5162881481582
 21
-545.7932335517854
 31
0.0
  0
LINE
  5
20443
330
18
100
AcDbEntity
  8
0
100
AcDbLine
 10
804.6087369898855
 20
-668.3949812976695
 30
0.0
 11
799.3087404800239
 21
-666.8949812976695
 31
0.0
  0
LINE
  5
20444
330
18
100
AcDbEntity
  8
0
100
AcDbLine
 10
799.3087404800239
 20
-666.8949812976695
 30
0.0
 11
769.6087404801319
 21
-666.8949812976697
 31
0.0
  0
LINE
  5
20445
330
18
100
AcDbEntity
  8
0
100
AcDbLine
 10
804.6087369898855
 20
-668.3949812976695
 30
0.0
 11
799.3087334996402
 21
-669.8949812976696
 31
0.0
  0
LINE
  5
20446
330
18
100
AcDbEntity
  8
0
100
AcDbLine
 10
769.6087451338301
 20
-664.8949347617717
 30
0.0
 11
769.6087288462656
 21
-671.8949347617715
 31
0.0
  0
LINE
  5
20447
330
18
100
AcDbEntity
  8
0
100
AcDbLine
 10
799.3087334996402
 20
-669.8949812976696
 30
0.0
 11
769.6087334997472
 21
-669.8949812976697
 31
0.0
  0
LINE
  5
20448
330
18
100
AcDbEntity
  8
0
100
AcDbLine
 10
769.6087451338301
 20
-664.8949347617717
 30
0.0
 11
768.5087416436347
 21
-664.8949347617715
 31
0.0
  0
ARC
  5
20449
330
18
100
AcDbEntity
  8
0
100
AcDbCircle
 10
768.5087416436347
 20
-666.3949347617715
 30
0.0
 40
1.5
100
AcDbArc
 50
90.0
 51
179.9998666844663
  0
LINE
  5
2044A
330
18
100
AcDbEntity
  8
0
100
AcDbLine
 10
769.6087288462656
 20
-671.8949347617715
 30
0.0
 11
768.5087323364551
 21
-671.8949347617715
 31
0.0
  0
LINE
  5
2044B
330
18
100
AcDbEntity
  8
0
100
AcDbLine
 10
767.0087416436388
 20
-666.3949312715791
 30
0.0
 11
767.0087323364592
 21
-670.3949312715791
 31
0.0
  0
ARC
  5
2044C
330
18
100
AcDbEntity
  8
0
100
AcDbCircle
 10
768.5087323364551
 20
-670.3949347617715
 30
0.0
 40
1.5
100
AcDbArc
 50
179.9998666844663
 51
270.0
  0
LINE
  5
2044D
330
18
100
AcDbEntity
  8
1CENTER
100
AcDbLine
 10
806.0395319073509
 20
-668.3949347617715
 30
0.0
 11
765.938460580739
 21
-668.3949347617715
 31
0.0
  0
LINE
  5
2044E
330
18
100
AcDbEntity
  8
0
100
AcDbLine
 10
802.5087395362077
 20
-667.3006109477765
 30
0.0
 11
803.3087349702587
 21
-669.2629460366519
 31
0.0
  0
LINE
  5
2044F
330
18
100
AcDbEntity
  8
0
100
AcDbLine
 10
803.3087349702587
 20
-669.2629460366519
 30
0.0
 11
803.6205048265108
 21
-668.6746694616095
 31
0.0
  0
LINE
  5
20450
330
18
100
AcDbEntity
  8
0
100
AcDbLine
 10
780.1087416434177
 20
-666.3949812976695
 30
0.0
 11
780.908732336236
 21
-670.3949812976695
 31
0.0
  0
LINE
  5
20451
330
18
100
AcDbEntity
  8
0
100
AcDbLine
 10
791.3087416434221
 20
-666.3949812976695
 30
0.0
 11
792.1087323362447
 21
-670.3949812976695
 31
0.0
  0
LINE
  5
20452
330
18
100
AcDbEntity
  8
0
100
AcDbLine
 10
794.5087416434221
 20
-666.3949812976695
 30
0.0
 11
795.3087323362447
 21
-670.3949812976695
 31
0.0
  0
LINE
  5
20453
330
18
100
AcDbEntity
  8
0
100
AcDbLine
 10
795.3087323362447
 20
-670.3949812976695
 30
0.0
 11
795.4087334996419
 21
-669.8949812976695
 31
0.0
  0
LINE
  5
20454
330
18
100
AcDbEntity
  8
0
100
AcDbLine
 10
796.0087404800249
 20
-666.8949812976695
 30
0.0
 11
796.1087416434221
 21
-666.3949812976695
 31
0.0
  0
LINE
  5
20455
330
18
100
AcDbEntity
  8
0
100
AcDbLine
 10
792.1087323362447
 20
-670.3949812976695
 30
0.0
 11
792.2087334996419
 21
-669.8949812976695
 31
0.0
  0
LINE
  5
20456
330
18
100
AcDbEntity
  8
0
100
AcDbLine
 10
793.7087323362448
 20
-670.3949812976695
 30
0.0
 11
793.8087334996419
 21
-669.8949812976695
 31
0.0
  0
LINE
  5
20457
330
18
100
AcDbEntity
  8
0
100
AcDbLine
 10
794.408740480025
 20
-666.8949812976695
 30
0.0
 11
794.5087416434221
 21
-666.3949812976695
 31
0.0
  0
LINE
  5
20458
330
18
100
AcDbEntity
  8
0
100
AcDbLine
 10
792.8087404800251
 20
-666.8949812976695
 30
0.0
 11
792.9087416434222
 21
-666.3949812976695
 31
0.0
  0
LINE
  5
20459
330
18
100
AcDbEntity
  8
0
100
AcDbLine
 10
792.9087416434222
 20
-666.3949812976695
 30
0.0
 11
793.7087323362448
 21
-670.3949812976695
 31
0.0
  0
LINE
  5
2045A
330
18
100
AcDbEntity
  8
0
100
AcDbLine
 10
801.708733916653
 20
-669.7157601410587
 30
0.0
 11
801.891498059281
 21
-669.1640106772554
 31
0.0
  0
LINE
  5
2045B
330
18
100
AcDbEntity
  8
0
100
AcDbLine
 10
798.5087323362447
 20
-670.3949812976695
 30
0.0
 11
798.6087334996419
 21
-669.8949812976695
 31
0.0
  0
LINE
  5
2045C
330
18
100
AcDbEntity
  8
0
100
AcDbLine
 10
796.9087323362447
 20
-670.3949812976695
 30
0.0
 11
797.0087334996417
 21
-669.8949812976695
 31
0.0
  0
LINE
  5
2045D
330
18
100
AcDbEntity
  8
0
100
AcDbLine
 10
800.1087328630474
 20
-670.1685742454655
 30
0.0
 11
800.2380035606773
 21
-669.6319805101944
 31
0.0
  0
LINE
  5
2045E
330
18
100
AcDbEntity
  8
0
100
AcDbLine
 10
800.7959710774619
 20
-667.3158958948782
 30
0.0
 11
800.9087405898119
 21
-666.8477974397282
 31
0.0
  0
LINE
  5
2045F
330
18
100
AcDbEntity
  8
0
100
AcDbLine
 10
797.6087404800251
 20
-666.8949812976695
 30
0.0
 11
797.7087416434222
 21
-666.3949812976695
 31
0.0
  0
LINE
  5
20460
330
18
100
AcDbEntity
  8
0
100
AcDbLine
 10
799.208740480025
 20
-666.8949812976695
 30
0.0
 11
799.3087416434221
 21
-666.3949812976695
 31
0.0
  0
LINE
  5
20461
330
18
100
AcDbEntity
  8
0
100
AcDbLine
 10
802.3573037397673
 20
-667.7577827884076
 30
0.0
 11
802.5087395362077
 21
-667.3006109477765
 31
0.0
  0
LINE
  5
20462
330
18
100
AcDbEntity
  8
0
100
AcDbLine
 10
800.9087405898119
 20
-666.8477974397282
 30
0.0
 11
801.708733916653
 21
-669.7157601410587
 31
0.0
  0
LINE
  5
20463
330
18
100
AcDbEntity
  8
0
100
AcDbLine
 10
797.7087416434222
 20
-666.3949812976695
 30
0.0
 11
798.5087323362447
 21
-670.3949812976695
 31
0.0
  0
LINE
  5
20464
330
18
100
AcDbEntity
  8
0
100
AcDbLine
 10
799.3087416434221
 20
-666.3949812976695
 30
0.0
 11
800.1087328630474
 21
-670.1685742454655
 31
0.0
  0
LINE
  5
20465
330
18
100
AcDbEntity
  8
0
100
AcDbLine
 10
796.1087416434221
 20
-666.3949812976695
 30
0.0
 11
796.9087323362447
 21
-670.3949812976695
 31
0.0
  0
LINE
  5
20466
330
18
100
AcDbEntity
  8
0
100
AcDbLine
 10
783.3087416434178
 20
-666.3949812976695
 30
0.0
 11
784.108732336236
 21
-670.3949812976695
 31
0.0
  0
LINE
  5
20467
330
18
100
AcDbEntity
  8
0
100
AcDbLine
 10
784.108732336236
 20
-670.3949812976695
 30
0.0
 11
784.2087334996337
 21
-669.8949812976695
 31
0.0
  0
LINE
  5
20468
330
18
100
AcDbEntity
  8
0
100
AcDbLine
 10
784.8087404800244
 20
-666.8949812976695
 30
0.0
 11
784.9087416434221
 21
-666.3949812976695
 31
0.0
  0
LINE
  5
20469
330
18
100
AcDbEntity
  8
0
100
AcDbLine
 10
782.5087323362359
 20
-670.3949812976695
 30
0.0
 11
782.6087334996336
 21
-669.8949812976695
 31
0.0
  0
LINE
  5
2046A
330
18
100
AcDbEntity
  8
0
100
AcDbLine
 10
780.908732336236
 20
-670.3949812976695
 30
0.0
 11
781.0087334996336
 21
-669.8949812976695
 31
0.0
  0
LINE
  5
2046B
330
18
100
AcDbEntity
  8
0
100
AcDbLine
 10
783.2087404800201
 20
-666.8949812976695
 30
0.0
 11
783.3087416434178
 21
-666.3949812976695
 31
0.0
  0
LINE
  5
2046C
330
18
100
AcDbEntity
  8
0
100
AcDbLine
 10
781.60874048002
 20
-666.8949812976695
 30
0.0
 11
781.7087416434176
 21
-666.3949812976695
 31
0.0
  0
LINE
  5
2046D
330
18
100
AcDbEntity
  8
0
100
AcDbLine
 10
781.7087416434176
 20
-666.3949812976695
 30
0.0
 11
782.5087323362359
 21
-670.3949812976695
 31
0.0
  0
LINE
  5
2046E
330
18
100
AcDbEntity
  8
0
100
AcDbLine
 10
788.9087323362404
 20
-670.3949812976695
 30
0.0
 11
789.0087334996381
 21
-669.8949812976695
 31
0.0
  0
LINE
  5
2046F
330
18
100
AcDbEntity
  8
0
100
AcDbLine
 10
790.5087323362447
 20
-670.3949812976695
 30
0.0
 11
790.6087334996419
 21
-669.8949812976695
 31
0.0
  0
LINE
  5
20470
330
18
100
AcDbEntity
  8
0
100
AcDbLine
 10
785.7087323362404
 20
-670.3949812976695
 30
0.0
 11
785.808733499638
 21
-669.8949812976695
 31
0.0
  0
LINE
  5
20471
330
18
100
AcDbEntity
  8
0
100
AcDbLine
 10
787.3087323362403
 20
-670.3949812976695
 30
0.0
 11
787.408733499638
 21
-669.8949812976695
 31
0.0
  0
LINE
  5
20472
330
18
100
AcDbEntity
  8
0
100
AcDbLine
 10
791.208740480025
 20
-666.8949812976695
 30
0.0
 11
791.3087416434221
 21
-666.3949812976695
 31
0.0
  0
LINE
  5
20473
330
18
100
AcDbEntity
  8
0
100
AcDbLine
 10
789.6087404800244
 20
-666.8949812976695
 30
0.0
 11
789.7087416434222
 21
-666.3949812976695
 31
0.0
  0
LINE
  5
20474
330
18
100
AcDbEntity
  8
0
100
AcDbLine
 10
786.4087404800243
 20
-666.8949812976695
 30
0.0
 11
786.508741643422
 21
-666.3949812976695
 31
0.0
  0
LINE
  5
20475
330
18
100
AcDbEntity
  8
0
100
AcDbLine
 10
788.0087404800245
 20
-666.8949812976695
 30
0.0
 11
788.1087416434221
 21
-666.3949812976695
 31
0.0
  0
LINE
  5
20476
330
18
100
AcDbEntity
  8
0
100
AcDbLine
 10
788.1087416434221
 20
-666.3949812976695
 30
0.0
 11
788.9087323362404
 21
-670.3949812976695
 31
0.0
  0
LINE
  5
20477
330
18
100
AcDbEntity
  8
0
100
AcDbLine
 10
789.7087416434222
 20
-666.3949812976695
 30
0.0
 11
790.5087323362447
 21
-670.3949812976695
 31
0.0
  0
LINE
  5
20478
330
18
100
AcDbEntity
  8
0
100
AcDbLine
 10
786.508741643422
 20
-666.3949812976695
 30
0.0
 11
787.3087323362403
 21
-670.3949812976695
 31
0.0
  0
LINE
  5
20479
330
18
100
AcDbEntity
  8
0
100
AcDbLine
 10
784.9087416434221
 20
-666.3949812976695
 30
0.0
 11
785.7087323362404
 21
-670.3949812976695
 31
0.0
  0
LINE
  5
2047A
330
18
100
AcDbEntity
  8
0
100
AcDbLine
 10
775.2087404800159
 20
-666.8949812976695
 30
0.0
 11
775.3087416434136
 21
-666.3949812976695
 31
0.0
  0
LINE
  5
2047B
330
18
100
AcDbEntity
  8
0
100
AcDbLine
 10
775.3087416434136
 20
-666.3949812976695
 30
0.0
 11
776.1087323362318
 21
-670.3949812976695
 31
0.0
  0
LINE
  5
2047C
330
18
100
AcDbEntity
  8
0
100
AcDbLine
 10
776.1087323362318
 20
-670.3949812976695
 30
0.0
 11
776.2087334996295
 21
-669.8949812976695
 31
0.0
  0
LINE
  5
2047D
330
18
100
AcDbEntity
  8
0
100
AcDbLine
 10
776.8087404800158
 20
-666.8949812976695
 30
0.0
 11
776.9087416434135
 21
-666.3949812976695
 31
0.0
  0
LINE
  5
2047E
330
18
100
AcDbEntity
  8
0
100
AcDbLine
 10
778.4087404800157
 20
-666.8949812976695
 30
0.0
 11
778.5087416434134
 21
-666.3949812976695
 31
0.0
  0
LINE
  5
2047F
330
18
100
AcDbEntity
  8
0
100
AcDbLine
 10
778.5087416434134
 20
-666.3949812976695
 30
0.0
 11
779.3087323362316
 21
-670.3949812976695
 31
0.0
  0
LINE
  5
20480
330
18
100
AcDbEntity
  8
0
100
AcDbLine
 10
777.7087323362317
 20
-670.3949812976695
 30
0.0
 11
777.8087334996294
 21
-669.8949812976695
 31
0.0
  0
LINE
  5
20481
330
18
100
AcDbEntity
  8
0
100
AcDbLine
 10
779.3087323362316
 20
-670.3949812976695
 30
0.0
 11
779.4087334996293
 21
-669.8949812976695
 31
0.0
  0
LINE
  5
20482
330
18
100
AcDbEntity
  8
0
100
AcDbLine
 10
776.9087416434135
 20
-666.3949812976695
 30
0.0
 11
777.7087323362317
 21
-670.3949812976695
 31
0.0
  0
LINE
  5
20483
330
18
100
AcDbEntity
  8
0
100
AcDbLine
 10
780.00874048002
 20
-666.8949812976695
 30
0.0
 11
780.1087416434177
 21
-666.3949812976695
 31
0.0
  0
LINE
  5
20484
330
18
100
AcDbEntity
  8
0
100
AcDbLine
 10
773.608740480016
 20
-666.8949812976695
 30
0.0
 11
773.7087416434136
 21
-666.3949812976695
 31
0.0
  0
LINE
  5
20485
330
18
100
AcDbEntity
  8
0
100
AcDbLine
 10
773.7087416434136
 20
-666.3949812976695
 30
0.0
 11
774.5087323362319
 21
-670.3949812976695
 31
0.0
  0
LINE
  5
20486
330
18
100
AcDbEntity
  8
0
100
AcDbLine
 10
774.5087323362319
 20
-670.3949812976695
 30
0.0
 11
774.6087334996296
 21
-669.8949812976695
 31
0.0
  0
LINE
  5
20487
330
18
100
AcDbEntity
  8
0
100
AcDbLine
 10
772.0087404800161
 20
-666.8949812976695
 30
0.0
 11
772.1087416434137
 21
-666.3949812976695
 31
0.0
  0
LINE
  5
20488
330
18
100
AcDbEntity
  8
0
100
AcDbLine
 10
772.1087416434137
 20
-666.3949812976695
 30
0.0
 11
772.908732336232
 21
-670.3949812976695
 31
0.0
  0
LINE
  5
20489
330
18
100
AcDbEntity
  8
0
100
AcDbLine
 10
772.908732336232
 20
-670.3949812976695
 30
0.0
 11
773.0087334996297
 21
-669.8949812976695
 31
0.0
  0
LINE
  5
2048A
330
18
100
AcDbEntity
  8
0
100
AcDbLine
 10
770.4087404800161
 20
-666.8949812976695
 30
0.0
 11
770.5087416434138
 21
-666.3949812976695
 31
0.0
  0
LINE
  5
2048B
330
18
100
AcDbEntity
  8
0
100
AcDbLine
 10
770.5087416434138
 20
-666.3949812976695
 30
0.0
 11
771.3087323362321
 21
-670.3949812976695
 31
0.0
  0
LINE
  5
2048C
330
18
100
AcDbEntity
  8
0
100
AcDbLine
 10
771.3087323362321
 20
-670.3949812976695
 30
0.0
 11
771.4087334996298
 21
-669.8949812976695
 31
0.0
  0
LINE
  5
2048D
330
18
100
AcDbEntity
  8
0
100
AcDbLine
 10
170.0162881512623
 20
-512.5932300615301
 30
0.0
 11
168.5162881512623
 21
-517.8932265713918
 31
0.0
  0
LINE
  5
2048E
330
18
100
AcDbEntity
  8
0
100
AcDbLine
 10
168.5162881512623
 20
-517.8932265713918
 30
0.0
 11
168.5162881512625
 21
-547.5932265712837
 31
0.0
  0
LINE
  5
2048F
330
18
100
AcDbEntity
  8
0
100
AcDbLine
 10
170.0162881512623
 20
-512.5932300615301
 30
0.0
 11
171.5162881512624
 21
-517.8932335517754
 31
0.0
  0
LINE
  5
20490
330
18
100
AcDbEntity
  8
0
100
AcDbLine
 10
166.5162416153645
 20
-547.5932219175855
 30
0.0
 11
173.5162416153644
 21
-547.59323820515
 31
0.0
  0
LINE
  5
20491
330
18
100
AcDbEntity
  8
0
100
AcDbLine
 10
171.5162881512624
 20
-517.8932335517754
 30
0.0
 11
171.5162881512625
 21
-547.5932335516684
 31
0.0
  0
LINE
  5
20492
330
18
100
AcDbEntity
  8
0
100
AcDbLine
 10
166.5162416153645
 20
-547.5932219175855
 30
0.0
 11
166.5162416153644
 21
-548.6932254077809
 31
0.0
  0
ARC
  5
20493
330
18
100
AcDbEntity
  8
0
100
AcDbCircle
 10
168.0162416153644
 20
-548.6932254077809
 30
0.0
 40
1.5
100
AcDbArc
 50
180.0
 51
269.9998666844684
  0
LINE
  5
20494
330
18
100
AcDbEntity
  8
0
100
AcDbLine
 10
173.5162416153644
 20
-547.59323820515
 30
0.0
 11
173.5162416153644
 21
-548.6932347149606
 31
0.0
  0
LINE
  5
20495
330
18
100
AcDbEntity
  8
0
100
AcDbLine
 10
168.016238125172
 20
-550.1932254077768
 30
0.0
 11
172.016238125172
 21
-550.1932347149565
 31
0.0
  0
ARC
  5
20496
330
18
100
AcDbEntity
  8
0
100
AcDbCircle
 10
172.0162416153644
 20
-548.6932347149606
 30
0.0
 40
1.5
100
AcDbArc
 50
269.9998666844684
 51
0.0
  0
LINE
  5
20497
330
18
100
AcDbEntity
  8
1CENTER
100
AcDbLine
 10
170.0162416153644
 20
-511.1624351440647
 30
0.0
 11
170.0162416153644
 21
-551.2635064706766
 31
0.0
  0
LINE
  5
20498
330
18
100
AcDbEntity
  8
0
100
AcDbLine
 10
168.9219178013693
 20
-514.6932275152079
 30
0.0
 11
170.8842528902447
 21
-513.893232081157
 31
0.0
  0
LINE
  5
20499
330
18
100
AcDbEntity
  8
0
100
AcDbLine
 10
170.8842528902447
 20
-513.893232081157
 30
0.0
 11
170.2959763152023
 21
-513.5814622249048
 31
0.0
  0
LINE
  5
2049A
330
18
100
AcDbEntity
  8
0
100
AcDbLine
 10
168.0162881512623
 20
-537.0932254079979
 30
0.0
 11
172.0162881512623
 21
-536.2932347151797
 31
0.0
  0
LINE
  5
2049B
330
18
100
AcDbEntity
  8
0
100
AcDbLine
 10
168.0162881512623
 20
-525.8932254079936
 30
0.0
 11
172.0162881512623
 21
-525.093234715171
 31
0.0
  0
LINE
  5
2049C
330
18
100
AcDbEntity
  8
0
100
AcDbLine
 10
168.0162881512623
 20
-522.6932254079935
 30
0.0
 11
172.0162881512623
 21
-521.8932347151709
 31
0.0
  0
LINE
  5
2049D
330
18
100
AcDbEntity
  8
0
100
AcDbLine
 10
172.0162881512623
 20
-521.8932347151709
 30
0.0
 11
171.5162881512623
 21
-521.7932335517737
 31
0.0
  0
LINE
  5
2049E
330
18
100
AcDbEntity
  8
0
100
AcDbLine
 10
168.5162881512623
 20
-521.1932265713907
 30
0.0
 11
168.0162881512623
 21
-521.0932254079935
 31
0.0
  0
LINE
  5
2049F
330
18
100
AcDbEntity
  8
0
100
AcDbLine
 10
172.0162881512623
 20
-525.093234715171
 30
0.0
 11
171.5162881512623
 21
-524.9932335517738
 31
0.0
  0
LINE
  5
204A0
330
18
100
AcDbEntity
  8
0
100
AcDbLine
 10
172.0162881512623
 20
-523.4932347151708
 30
0.0
 11
171.5162881512623
 21
-523.3932335517737
 31
0.0
  0
LINE
  5
204A1
330
18
100
AcDbEntity
  8
0
100
AcDbLine
 10
168.5162881512623
 20
-522.7932265713906
 30
0.0
 11
168.0162881512623
 21
-522.6932254079935
 31
0.0
  0
LINE
  5
204A2
330
18
100
AcDbEntity
  8
0
100
AcDbLine
 10
168.5162881512623
 20
-524.3932265713905
 30
0.0
 11
168.0162881512623
 21
-524.2932254079934
 31
0.0
  0
LINE
  5
204A3
330
18
100
AcDbEntity
  8
0
100
AcDbLine
 10
168.0162881512623
 20
-524.2932254079934
 30
0.0
 11
172.0162881512623
 21
-523.4932347151708
 31
0.0
  0
LINE
  5
204A4
330
18
100
AcDbEntity
  8
0
100
AcDbLine
 10
171.3370669946515
 20
-515.4932331347626
 30
0.0
 11
170.7853175308483
 21
-515.3104689921346
 31
0.0
  0
LINE
  5
204A5
330
18
100
AcDbEntity
  8
0
100
AcDbLine
 10
172.0162881512623
 20
-518.6932347151709
 30
0.0
 11
171.5162881512623
 21
-518.5932335517738
 31
0.0
  0
LINE
  5
204A6
330
18
100
AcDbEntity
  8
0
100
AcDbLine
 10
172.0162881512623
 20
-520.2932347151709
 30
0.0
 11
171.5162881512623
 21
-520.1932335517739
 31
0.0
  0
LINE
  5
204A7
330
18
100
AcDbEntity
  8
0
100
AcDbLine
 10
171.7898810990583
 20
-517.0932341883682
 30
0.0
 11
171.2532873637872
 21
-516.9639634907384
 31
0.0
  0
LINE
  5
204A8
330
18
100
AcDbEntity
  8
0
100
AcDbLine
 10
168.937202748471
 20
-516.4059959739537
 30
0.0
 11
168.469104293321
 21
-516.2932264616037
 31
0.0
  0
LINE
  5
204A9
330
18
100
AcDbEntity
  8
0
100
AcDbLine
 10
168.5162881512623
 20
-519.5932265713906
 30
0.0
 11
168.0162881512623
 21
-519.4932254079935
 31
0.0
  0
LINE
  5
204AA
330
18
100
AcDbEntity
  8
0
100
AcDbLine
 10
168.5162881512623
 20
-517.9932265713907
 30
0.0
 11
168.0162881512623
 21
-517.8932254079936
 31
0.0
  0
LINE
  5
204AB
330
18
100
AcDbEntity
  8
0
100
AcDbLine
 10
169.3790896420004
 20
-514.8446633116483
 30
0.0
 11
168.9219178013693
 21
-514.6932275152079
 31
0.0
  0
LINE
  5
204AC
330
18
100
AcDbEntity
  8
0
100
AcDbLine
 10
168.469104293321
 20
-516.2932264616037
 30
0.0
 11
171.3370669946515
 21
-515.4932331347626
 31
0.0
  0
LINE
  5
204AD
330
18
100
AcDbEntity
  8
0
100
AcDbLine
 10
168.0162881512623
 20
-519.4932254079935
 30
0.0
 11
172.0162881512623
 21
-518.6932347151709
 31
0.0
  0
LINE
  5
204AE
330
18
100
AcDbEntity
  8
0
100
AcDbLine
 10
168.0162881512623
 20
-517.8932254079936
 30
0.0
 11
171.7898810990583
 21
-517.0932341883682
 31
0.0
  0
LINE
  5
204AF
330
18
100
AcDbEntity
  8
0
100
AcDbLine
 10
168.0162881512623
 20
-521.0932254079935
 30
0.0
 11
172.0162881512623
 21
-520.2932347151709
 31
0.0
  0
LINE
  5
204B0
330
18
100
AcDbEntity
  8
0
100
AcDbLine
 10
168.0162881512623
 20
-533.8932254079979
 30
0.0
 11
172.0162881512623
 21
-533.0932347151796
 31
0.0
  0
LINE
  5
204B1
330
18
100
AcDbEntity
  8
0
100
AcDbLine
 10
172.0162881512623
 20
-533.0932347151796
 30
0.0
 11
171.5162881512623
 21
-532.9932335517819
 31
0.0
  0
LINE
  5
204B2
330
18
100
AcDbEntity
  8
0
100
AcDbLine
 10
168.5162881512623
 20
-532.3932265713912
 30
0.0
 11
168.0162881512623
 21
-532.2932254079935
 31
0.0
  0
LINE
  5
204B3
330
18
100
AcDbEntity
  8
0
100
AcDbLine
 10
172.0162881512623
 20
-534.6932347151798
 30
0.0
 11
171.5162881512623
 21
-534.5932335517821
 31
0.0
  0
LINE
  5
204B4
330
18
100
AcDbEntity
  8
0
100
AcDbLine
 10
172.0162881512623
 20
-536.2932347151797
 30
0.0
 11
171.5162881512623
 21
-536.193233551782
 31
0.0
  0
LINE
  5
204B5
330
18
100
AcDbEntity
  8
0
100
AcDbLine
 10
168.5162881512623
 20
-533.9932265713956
 30
0.0
 11
168.0162881512623
 21
-533.8932254079979
 31
0.0
  0
LINE
  5
204B6
330
18
100
AcDbEntity
  8
0
100
AcDbLine
 10
168.5162881512623
 20
-535.5932265713957
 30
0.0
 11
168.0162881512623
 21
-535.493225407998
 31
0.0
  0
LINE
  5
204B7
330
18
100
AcDbEntity
  8
0
100
AcDbLine
 10
168.0162881512623
 20
-535.493225407998
 30
0.0
 11
172.0162881512623
 21
-534.6932347151798
 31
0.0
  0
LINE
  5
204B8
330
18
100
AcDbEntity
  8
0
100
AcDbLine
 10
172.0162881512623
 20
-528.2932347151752
 30
0.0
 11
171.5162881512623
 21
-528.1932335517776
 31
0.0
  0
LINE
  5
204B9
330
18
100
AcDbEntity
  8
0
100
AcDbLine
 10
172.0162881512623
 20
-526.6932347151709
 30
0.0
 11
171.5162881512623
 21
-526.5932335517738
 31
0.0
  0
LINE
  5
204BA
330
18
100
AcDbEntity
  8
0
100
AcDbLine
 10
172.0162881512623
 20
-531.4932347151753
 30
0.0
 11
171.5162881512623
 21
-531.3932335517776
 31
0.0
  0
LINE
  5
204BB
330
18
100
AcDbEntity
  8
0
100
AcDbLine
 10
172.0162881512623
 20
-529.8932347151754
 30
0.0
 11
171.5162881512623
 21
-529.7932335517777
 31
0.0
  0
LINE
  5
204BC
330
18
100
AcDbEntity
  8
0
100
AcDbLine
 10
168.5162881512623
 20
-525.9932265713907
 30
0.0
 11
168.0162881512623
 21
-525.8932254079936
 31
0.0
  0
LINE
  5
204BD
330
18
100
AcDbEntity
  8
0
100
AcDbLine
 10
168.5162881512623
 20
-527.5932265713913
 30
0.0
 11
168.0162881512623
 21
-527.4932254079935
 31
0.0
  0
LINE
  5
204BE
330
18
100
AcDbEntity
  8
0
100
AcDbLine
 10
168.5162881512623
 20
-530.7932265713913
 30
0.0
 11
168.0162881512623
 21
-530.6932254079936
 31
0.0
  0
LINE
  5
204BF
330
18
100
AcDbEntity
  8
0
100
AcDbLine
 10
168.5162881512623
 20
-529.1932265713912
 30
0.0
 11
168.0162881512623
 21
-529.0932254079935
 31
0.0
  0
LINE
  5
204C0
330
18
100
AcDbEntity
  8
0
100
AcDbLine
 10
168.0162881512623
 20
-529.0932254079935
 30
0.0
 11
172.0162881512623
 21
-528.2932347151752
 31
0.0
  0
LINE
  5
204C1
330
18
100
AcDbEntity
  8
0
100
AcDbLine
 10
168.0162881512623
 20
-527.4932254079935
 30
0.0
 11
172.0162881512623
 21
-526.6932347151709
 31
0.0
  0
LINE
  5
204C2
330
18
100
AcDbEntity
  8
0
100
AcDbLine
 10
168.0162881512623
 20
-530.6932254079936
 30
0.0
 11
172.0162881512623
 21
-529.8932347151754
 31
0.0
  0
LINE
  5
204C3
330
18
100
AcDbEntity
  8
0
100
AcDbLine
 10
168.0162881512623
 20
-532.2932254079935
 30
0.0
 11
172.0162881512623
 21
-531.4932347151753
 31
0.0
  0
LINE
  5
204C4
330
18
100
AcDbEntity
  8
0
100
AcDbLine
 10
168.5162881512623
 20
-541.9932265713998
 30
0.0
 11
168.0162881512623
 21
-541.8932254080021
 31
0.0
  0
LINE
  5
204C5
330
18
100
AcDbEntity
  8
0
100
AcDbLine
 10
168.0162881512623
 20
-541.8932254080021
 30
0.0
 11
172.0162881512623
 21
-541.0932347151838
 31
0.0
  0
LINE
  5
204C6
330
18
100
AcDbEntity
  8
0
100
AcDbLine
 10
172.0162881512623
 20
-541.0932347151838
 30
0.0
 11
171.5162881512623
 21
-540.9932335517861
 31
0.0
  0
LINE
  5
204C7
330
18
100
AcDbEntity
  8
0
100
AcDbLine
 10
168.5162881512623
 20
-540.3932265713999
 30
0.0
 11
168.0162881512623
 21
-540.2932254080022
 31
0.0
  0
LINE
  5
204C8
330
18
100
AcDbEntity
  8
0
100
AcDbLine
 10
168.5162881512623
 20
-538.7932265713999
 30
0.0
 11
168.0162881512623
 21
-538.6932254080023
 31
0.0
  0
LINE
  5
204C9
330
18
100
AcDbEntity
  8
0
100
AcDbLine
 10
168.0162881512623
 20
-538.6932254080023
 30
0.0
 11
172.0162881512623
 21
-537.893234715184
 31
0.0
  0
LINE
  5
204CA
330
18
100
AcDbEntity
  8
0
100
AcDbLine
 10
172.0162881512623
 20
-539.4932347151839
 30
0.0
 11
171.5162881512623
 21
-539.3932335517862
 31
0.0
  0
LINE
  5
204CB
330
18
100
AcDbEntity
  8
0
100
AcDbLine
 10
172.0162881512623
 20
-537.893234715184
 30
0.0
 11
171.5162881512623
 21
-537.7932335517863
 31
0.0
  0
LINE
  5
204CC
330
18
100
AcDbEntity
  8
0
100
AcDbLine
 10
168.0162881512623
 20
-540.2932254080022
 30
0.0
 11
172.0162881512623
 21
-539.4932347151839
 31
0.0
  0
LINE
  5
204CD
330
18
100
AcDbEntity
  8
0
100
AcDbLine
 10
168.5162881512623
 20
-537.1932265713956
 30
0.0
 11
168.0162881512623
 21
-537.0932254079979
 31
0.0
  0
LINE
  5
204CE
330
18
100
AcDbEntity
  8
0
100
AcDbLine
 10
168.5162881512623
 20
-543.5932265713997
 30
0.0
 11
168.0162881512623
 21
-543.493225408002
 31
0.0
  0
LINE
  5
204CF
330
18
100
AcDbEntity
  8
0
100
AcDbLine
 10
168.0162881512623
 20
-543.493225408002
 30
0.0
 11
172.0162881512623
 21
-542.6932347151837
 31
0.0
  0
LINE
  5
204D0
330
18
100
AcDbEntity
  8
0
100
AcDbLine
 10
172.0162881512623
 20
-542.6932347151837
 30
0.0
 11
171.5162881512623
 21
-542.593233551786
 31
0.0
  0
LINE
  5
204D1
330
18
100
AcDbEntity
  8
0
100
AcDbLine
 10
168.5162881512623
 20
-545.1932265713996
 30
0.0
 11
168.0162881512623
 21
-545.0932254080019
 31
0.0
  0
LINE
  5
204D2
330
18
100
AcDbEntity
  8
0
100
AcDbLine
 10
168.0162881512623
 20
-545.0932254080019
 30
0.0
 11
172.0162881512623
 21
-544.2932347151836
 31
0.0
  0
LINE
  5
204D3
330
18
100
AcDbEntity
  8
0
100
AcDbLine
 10
172.0162881512623
 20
-544.2932347151836
 30
0.0
 11
171.5162881512623
 21
-544.193233551786
 31
0.0
  0
LINE
  5
204D4
330
18
100
AcDbEntity
  8
0
100
AcDbLine
 10
168.5162881512623
 20
-546.7932265713995
 30
0.0
 11
168.0162881512623
 21
-546.6932254080018
 31
0.0
  0
LINE
  5
204D5
330
18
100
AcDbEntity
  8
0
100
AcDbLine
 10
168.0162881512623
 20
-546.6932254080018
 30
0.0
 11
172.0162881512623
 21
-545.8932347151836
 31
0.0
  0
LINE
  5
204D6
330
18
100
AcDbEntity
  8
0
100
AcDbLine
 10
172.0162881512623
 20
-545.8932347151836
 30
0.0
 11
171.5162881512623
 21
-545.7932335517859
 31
0.0
  0
LINE
  5
204D7
330
18
100
AcDbEntity
  8
0
100
AcDbLine
 10
804.6087369898855
 20
-696.3949812976695
 30
0.0
 11
799.3087404800239
 21
-694.8949812976695
 31
0.0
  0
LINE
  5
204D8
330
18
100
AcDbEntity
  8
0
100
AcDbLine
 10
799.3087404800239
 20
-694.8949812976695
 30
0.0
 11
769.6087404801319
 21
-694.8949812976697
 31
0.0
  0
LINE
  5
204D9
330
18
100
AcDbEntity
  8
0
100
AcDbLine
 10
804.6087369898855
 20
-696.3949812976695
 30
0.0
 11
799.3087334996402
 21
-697.8949812976696
 31
0.0
  0
LINE
  5
204DA
330
18
100
AcDbEntity
  8
0
100
AcDbLine
 10
769.6087451338301
 20
-692.8949347617717
 30
0.0
 11
769.6087288462656
 21
-699.8949347617715
 31
0.0
  0
LINE
  5
204DB
330
18
100
AcDbEntity
  8
0
100
AcDbLine
 10
799.3087334996402
 20
-697.8949812976696
 30
0.0
 11
769.6087334997472
 21
-697.8949812976697
 31
0.0
  0
LINE
  5
204DC
330
18
100
AcDbEntity
  8
0
100
AcDbLine
 10
769.6087451338301
 20
-692.8949347617717
 30
0.0
 11
768.5087416436347
 21
-692.8949347617715
 31
0.0
  0
ARC
  5
204DD
330
18
100
AcDbEntity
  8
0
100
AcDbCircle
 10
768.5087416436347
 20
-694.3949347617715
 30
0.0
 40
1.5
100
AcDbArc
 50
90.0
 51
179.9998666844663
  0
LINE
  5
204DE
330
18
100
AcDbEntity
  8
0
100
AcDbLine
 10
769.6087288462656
 20
-699.8949347617715
 30
0.0
 11
768.5087323364551
 21
-699.8949347617715
 31
0.0
  0
LINE
  5
204DF
330
18
100
AcDbEntity
  8
0
100
AcDbLine
 10
767.0087416436388
 20
-694.3949312715791
 30
0.0
 11
767.0087323364592
 21
-698.3949312715791
 31
0.0
  0
ARC
  5
204E0
330
18
100
AcDbEntity
  8
0
100
AcDbCircle
 10
768.5087323364551
 20
-698.3949347617715
 30
0.0
 40
1.5
100
AcDbArc
 50
179.9998666844663
 51
270.0
  0
LINE
  5
204E1
330
18
100
AcDbEntity
  8
1CENTER
100
AcDbLine
 10
806.0395319073509
 20
-696.3949347617715
 30
0.0
 11
765.938460580739
 21
-696.3949347617715
 31
0.0
  0
LINE
  5
204E2
330
18
100
AcDbEntity
  8
0
100
AcDbLine
 10
802.5087395362077
 20
-695.3006109477765
 30
0.0
 11
803.3087349702587
 21
-697.2629460366519
 31
0.0
  0
LINE
  5
204E3
330
18
100
AcDbEntity
  8
0
100
AcDbLine
 10
803.3087349702587
 20
-697.2629460366519
 30
0.0
 11
803.6205048265108
 21
-696.6746694616095
 31
0.0
  0
LINE
  5
204E4
330
18
100
AcDbEntity
  8
0
100
AcDbLine
 10
780.1087416434177
 20
-694.3949812976695
 30
0.0
 11
780.908732336236
 21
-698.3949812976695
 31
0.0
  0
LINE
  5
204E5
330
18
100
AcDbEntity
  8
0
100
AcDbLine
 10
791.3087416434221
 20
-694.3949812976695
 30
0.0
 11
792.1087323362447
 21
-698.3949812976695
 31
0.0
  0
LINE
  5
204E6
330
18
100
AcDbEntity
  8
0
100
AcDbLine
 10
794.5087416434221
 20
-694.3949812976695
 30
0.0
 11
795.3087323362447
 21
-698.3949812976695
 31
0.0
  0
LINE
  5
204E7
330
18
100
AcDbEntity
  8
0
100
AcDbLine
 10
795.3087323362447
 20
-698.3949812976695
 30
0.0
 11
795.4087334996419
 21
-697.8949812976695
 31
0.0
  0
LINE
  5
204E8
330
18
100
AcDbEntity
  8
0
100
AcDbLine
 10
796.0087404800249
 20
-694.8949812976695
 30
0.0
 11
796.1087416434221
 21
-694.3949812976695
 31
0.0
  0
LINE
  5
204E9
330
18
100
AcDbEntity
  8
0
100
AcDbLine
 10
792.1087323362447
 20
-698.3949812976695
 30
0.0
 11
792.2087334996419
 21
-697.8949812976695
 31
0.0
  0
LINE
  5
204EA
330
18
100
AcDbEntity
  8
0
100
AcDbLine
 10
793.7087323362448
 20
-698.3949812976695
 30
0.0
 11
793.8087334996419
 21
-697.8949812976695
 31
0.0
  0
LINE
  5
204EB
330
18
100
AcDbEntity
  8
0
100
AcDbLine
 10
794.408740480025
 20
-694.8949812976695
 30
0.0
 11
794.5087416434221
 21
-694.3949812976695
 31
0.0
  0
LINE
  5
204EC
330
18
100
AcDbEntity
  8
0
100
AcDbLine
 10
792.8087404800251
 20
-694.8949812976695
 30
0.0
 11
792.9087416434222
 21
-694.3949812976695
 31
0.0
  0
LINE
  5
204ED
330
18
100
AcDbEntity
  8
0
100
AcDbLine
 10
792.9087416434222
 20
-694.3949812976695
 30
0.0
 11
793.7087323362448
 21
-698.3949812976695
 31
0.0
  0
LINE
  5
204EE
330
18
100
AcDbEntity
  8
0
100
AcDbLine
 10
801.708733916653
 20
-697.7157601410587
 30
0.0
 11
801.891498059281
 21
-697.1640106772554
 31
0.0
  0
LINE
  5
204EF
330
18
100
AcDbEntity
  8
0
100
AcDbLine
 10
798.5087323362447
 20
-698.3949812976695
 30
0.0
 11
798.6087334996419
 21
-697.8949812976695
 31
0.0
  0
LINE
  5
204F0
330
18
100
AcDbEntity
  8
0
100
AcDbLine
 10
796.9087323362447
 20
-698.3949812976695
 30
0.0
 11
797.0087334996417
 21
-697.8949812976695
 31
0.0
  0
LINE
  5
204F1
330
18
100
AcDbEntity
  8
0
100
AcDbLine
 10
800.1087328630474
 20
-698.1685742454655
 30
0.0
 11
800.2380035606773
 21
-697.6319805101944
 31
0.0
  0
LINE
  5
204F2
330
18
100
AcDbEntity
  8
0
100
AcDbLine
 10
800.7959710774619
 20
-695.3158958948782
 30
0.0
 11
800.9087405898119
 21
-694.8477974397282
 31
0.0
  0
LINE
  5
204F3
330
18
100
AcDbEntity
  8
0
100
AcDbLine
 10
797.6087404800251
 20
-694.8949812976695
 30
0.0
 11
797.7087416434222
 21
-694.3949812976695
 31
0.0
  0
LINE
  5
204F4
330
18
100
AcDbEntity
  8
0
100
AcDbLine
 10
799.208740480025
 20
-694.8949812976695
 30
0.0
 11
799.3087416434221
 21
-694.3949812976695
 31
0.0
  0
LINE
  5
204F5
330
18
100
AcDbEntity
  8
0
100
AcDbLine
 10
802.3573037397673
 20
-695.7577827884076
 30
0.0
 11
802.5087395362077
 21
-695.3006109477765
 31
0.0
  0
LINE
  5
204F6
330
18
100
AcDbEntity
  8
0
100
AcDbLine
 10
800.9087405898119
 20
-694.8477974397282
 30
0.0
 11
801.708733916653
 21
-697.7157601410587
 31
0.0
  0
LINE
  5
204F7
330
18
100
AcDbEntity
  8
0
100
AcDbLine
 10
797.7087416434222
 20
-694.3949812976695
 30
0.0
 11
798.5087323362447
 21
-698.3949812976695
 31
0.0
  0
LINE
  5
204F8
330
18
100
AcDbEntity
  8
0
100
AcDbLine
 10
799.3087416434221
 20
-694.3949812976695
 30
0.0
 11
800.1087328630474
 21
-698.1685742454655
 31
0.0
  0
LINE
  5
204F9
330
18
100
AcDbEntity
  8
0
100
AcDbLine
 10
796.1087416434221
 20
-694.3949812976695
 30
0.0
 11
796.9087323362447
 21
-698.3949812976695
 31
0.0
  0
LINE
  5
204FA
330
18
100
AcDbEntity
  8
0
100
AcDbLine
 10
783.3087416434178
 20
-694.3949812976695
 30
0.0
 11
784.108732336236
 21
-698.3949812976695
 31
0.0
  0
LINE
  5
204FB
330
18
100
AcDbEntity
  8
0
100
AcDbLine
 10
784.108732336236
 20
-698.3949812976695
 30
0.0
 11
784.2087334996337
 21
-697.8949812976695
 31
0.0
  0
LINE
  5
204FC
330
18
100
AcDbEntity
  8
0
100
AcDbLine
 10
784.8087404800244
 20
-694.8949812976695
 30
0.0
 11
784.9087416434221
 21
-694.3949812976695
 31
0.0
  0
LINE
  5
204FD
330
18
100
AcDbEntity
  8
0
100
AcDbLine
 10
782.5087323362359
 20
-698.3949812976695
 30
0.0
 11
782.6087334996336
 21
-697.8949812976695
 31
0.0
  0
LINE
  5
204FE
330
18
100
AcDbEntity
  8
0
100
AcDbLine
 10
780.908732336236
 20
-698.3949812976695
 30
0.0
 11
781.0087334996336
 21
-697.8949812976695
 31
0.0
  0
LINE
  5
204FF
330
18
100
AcDbEntity
  8
0
100
AcDbLine
 10
783.2087404800201
 20
-694.8949812976695
 30
0.0
 11
783.3087416434178
 21
-694.3949812976695
 31
0.0
  0
LINE
  5
20500
330
18
100
AcDbEntity
  8
0
100
AcDbLine
 10
781.60874048002
 20
-694.8949812976695
 30
0.0
 11
781.7087416434176
 21
-694.3949812976695
 31
0.0
  0
LINE
  5
20501
330
18
100
AcDbEntity
  8
0
100
AcDbLine
 10
781.7087416434176
 20
-694.3949812976695
 30
0.0
 11
782.5087323362359
 21
-698.3949812976695
 31
0.0
  0
LINE
  5
20502
330
18
100
AcDbEntity
  8
0
100
AcDbLine
 10
788.9087323362404
 20
-698.3949812976695
 30
0.0
 11
789.0087334996381
 21
-697.8949812976695
 31
0.0
  0
LINE
  5
20503
330
18
100
AcDbEntity
  8
0
100
AcDbLine
 10
790.5087323362447
 20
-698.3949812976695
 30
0.0
 11
790.6087334996419
 21
-697.8949812976695
 31
0.0
  0
LINE
  5
20504
330
18
100
AcDbEntity
  8
0
100
AcDbLine
 10
785.7087323362404
 20
-698.3949812976695
 30
0.0
 11
785.808733499638
 21
-697.8949812976695
 31
0.0
  0
LINE
  5
20505
330
18
100
AcDbEntity
  8
0
100
AcDbLine
 10
787.3087323362403
 20
-698.3949812976695
 30
0.0
 11
787.408733499638
 21
-697.8949812976695
 31
0.0
  0
LINE
  5
20506
330
18
100
AcDbEntity
  8
0
100
AcDbLine
 10
791.208740480025
 20
-694.8949812976695
 30
0.0
 11
791.3087416434221
 21
-694.3949812976695
 31
0.0
  0
LINE
  5
20507
330
18
100
AcDbEntity
  8
0
100
AcDbLine
 10
789.6087404800244
 20
-694.8949812976695
 30
0.0
 11
789.7087416434222
 21
-694.3949812976695
 31
0.0
  0
LINE
  5
20508
330
18
100
AcDbEntity
  8
0
100
AcDbLine
 10
786.4087404800243
 20
-694.8949812976695
 30
0.0
 11
786.508741643422
 21
-694.3949812976695
 31
0.0
  0
LINE
  5
20509
330
18
100
AcDbEntity
  8
0
100
AcDbLine
 10
788.0087404800245
 20
-694.8949812976695
 30
0.0
 11
788.1087416434221
 21
-694.3949812976695
 31
0.0
  0
LINE
  5
2050A
330
18
100
AcDbEntity
  8
0
100
AcDbLine
 10
788.1087416434221
 20
-694.3949812976695
 30
0.0
 11
788.9087323362404
 21
-698.3949812976695
 31
0.0
  0
LINE
  5
2050B
330
18
100
AcDbEntity
  8
0
100
AcDbLine
 10
789.7087416434222
 20
-694.3949812976695
 30
0.0
 11
790.5087323362447
 21
-698.3949812976695
 31
0.0
  0
LINE
  5
2050C
330
18
100
AcDbEntity
  8
0
100
AcDbLine
 10
786.508741643422
 20
-694.3949812976695
 30
0.0
 11
787.3087323362403
 21
-698.3949812976695
 31
0.0
  0
LINE
  5
2050D
330
18
100
AcDbEntity
  8
0
100
AcDbLine
 10
784.9087416434221
 20
-694.3949812976695
 30
0.0
 11
785.7087323362404
 21
-698.3949812976695
 31
0.0
  0
LINE
  5
2050E
330
18
100
AcDbEntity
  8
0
100
AcDbLine
 10
775.2087404800159
 20
-694.8949812976695
 30
0.0
 11
775.3087416434136
 21
-694.3949812976695
 31
0.0
  0
LINE
  5
2050F
330
18
100
AcDbEntity
  8
0
100
AcDbLine
 10
775.3087416434136
 20
-694.3949812976695
 30
0.0
 11
776.1087323362318
 21
-698.3949812976695
 31
0.0
  0
LINE
  5
20510
330
18
100
AcDbEntity
  8
0
100
AcDbLine
 10
776.1087323362318
 20
-698.3949812976695
 30
0.0
 11
776.2087334996295
 21
-697.8949812976695
 31
0.0
  0
LINE
  5
20511
330
18
100
AcDbEntity
  8
0
100
AcDbLine
 10
776.8087404800158
 20
-694.8949812976695
 30
0.0
 11
776.9087416434135
 21
-694.3949812976695
 31
0.0
  0
LINE
  5
20512
330
18
100
AcDbEntity
  8
0
100
AcDbLine
 10
778.4087404800157
 20
-694.8949812976695
 30
0.0
 11
778.5087416434134
 21
-694.3949812976695
 31
0.0
  0
LINE
  5
20513
330
18
100
AcDbEntity
  8
0
100
AcDbLine
 10
778.5087416434134
 20
-694.3949812976695
 30
0.0
 11
779.3087323362316
 21
-698.3949812976695
 31
0.0
  0
LINE
  5
20514
330
18
100
AcDbEntity
  8
0
100
AcDbLine
 10
777.7087323362317
 20
-698.3949812976695
 30
0.0
 11
777.8087334996294
 21
-697.8949812976695
 31
0.0
  0
LINE
  5
20515
330
18
100
AcDbEntity
  8
0
100
AcDbLine
 10
779.3087323362316
 20
-698.3949812976695
 30
0.0
 11
779.4087334996293
 21
-697.8949812976695
 31
0.0
  0
LINE
  5
20516
330
18
100
AcDbEntity
  8
0
100
AcDbLine
 10
776.9087416434135
 20
-694.3949812976695
 30
0.0
 11
777.7087323362317
 21
-698.3949812976695
 31
0.0
  0
LINE
  5
20517
330
18
100
AcDbEntity
  8
0
100
AcDbLine
 10
780.00874048002
 20
-694.8949812976695
 30
0.0
 11
780.1087416434177
 21
-694.3949812976695
 31
0.0
  0
LINE
  5
20518
330
18
100
AcDbEntity
  8
0
100
AcDbLine
 10
773.608740480016
 20
-694.8949812976695
 30
0.0
 11
773.7087416434136
 21
-694.3949812976695
 31
0.0
  0
LINE
  5
20519
330
18
100
AcDbEntity
  8
0
100
AcDbLine
 10
773.7087416434136
 20
-694.3949812976695
 30
0.0
 11
774.5087323362319
 21
-698.3949812976695
 31
0.0
  0
LINE
  5
2051A
330
18
100
AcDbEntity
  8
0
100
AcDbLine
 10
774.5087323362319
 20
-698.3949812976695
 30
0.0
 11
774.6087334996296
 21
-697.8949812976695
 31
0.0
  0
LINE
  5
2051B
330
18
100
AcDbEntity
  8
0
100
AcDbLine
 10
772.0087404800161
 20
-694.8949812976695
 30
0.0
 11
772.1087416434137
 21
-694.3949812976695
 31
0.0
  0
LINE
  5
2051C
330
18
100
AcDbEntity
  8
0
100
AcDbLine
 10
772.1087416434137
 20
-694.3949812976695
 30
0.0
 11
772.908732336232
 21
-698.3949812976695
 31
0.0
  0
LINE
  5
2051D
330
18
100
AcDbEntity
  8
0
100
AcDbLine
 10
772.908732336232
 20
-698.3949812976695
 30
0.0
 11
773.0087334996297
 21
-697.8949812976695
 31
0.0
  0
LINE
  5
2051E
330
18
100
AcDbEntity
  8
0
100
AcDbLine
 10
770.4087404800161
 20
-694.8949812976695
 30
0.0
 11
770.5087416434138
 21
-694.3949812976695
 31
0.0
  0
LINE
  5
2051F
330
18
100
AcDbEntity
  8
0
100
AcDbLine
 10
770.5087416434138
 20
-694.3949812976695
 30
0.0
 11
771.3087323362321
 21
-698.3949812976695
 31
0.0
  0
LINE
  5
20520
330
18
100
AcDbEntity
  8
0
100
AcDbLine
 10
771.3087323362321
 20
-698.3949812976695
 30
0.0
 11
771.4087334996298
 21
-697.8949812976695
 31
0.0
  0
LINE
  5
20521
330
18
100
AcDbEntity
  8
1DIM
100
AcDbLine
 10
806.0395319073509
 20
-696.3949347617715
 30
0.0
 11
815.1087369900479
 21
-696.3949347617715
 31
0.0
1001
ACAD
1000
DSTYLE
1002
{
1070
    45
1040
0.5
1002
}
  0
LINE
  5
20522
330
18
100
AcDbEntity
  8
1DIM
100
AcDbLine
 10
806.0395319073509
 20
-668.3949347617715
 30
0.0
 11
815.1087369900479
 21
-668.3949347617715
 31
0.0
1001
ACAD
1000
DSTYLE
1002
{
1070
    45
1040
0.5
1002
}
  0
LINE
  5
20523
330
18
100
AcDbEntity
  8
1DIM
100
AcDbLine
 10
814.1087369900479
 20
-694.3949347617715
 30
0.0
 11
814.1087369900479
 21
-670.3949347617715
 31
0.0
1001
ACAD
1000
DSTYLE
1002
{
1070
    45
1040
0.5
1002
}
  0
LINE
  5
20527
330
18
100
AcDbEntity
  8
1DIM
100
AcDbLine
 10
534.7188985148118
 20
-646.0932300613673
 30
0.0
 11
545.2458307863246
 21
-646.0932300613673
 31
0.0
1001
ACAD
1000
DSTYLE
1002
{
1070
     3
1000
φ<>
1070
    45
1040
0.5
1002
}
  0
LINE
  5
20528
330
18
100
AcDbEntity
  8
1DIM
100
AcDbLine
 10
534.7188985148118
 20
-633.0932300613673
 30
0.0
 11
545.2458307863246
 21
-633.0932300613673
 31
0.0
1001
ACAD
1000
DSTYLE
1002
{
1070
     3
1000
φ<>
1070
    45
1040
0.5
1002
}
  0
LINE
  5
20529
330
18
100
AcDbEntity
  8
1DIM
100
AcDbLine
 10
544.2458307863246
 20
-633.0932300613673
 30
0.0
 11
544.2458307863246
 21
-620.1432300613671
 31
0.0
1001
ACAD
1000
DSTYLE
1002
{
1070
     3
1000
φ<>
1070
    45
1040
0.5
1002
}
  0
LINE
  5
2052A
330
18
100
AcDbEntity
  8
1DIM
100
AcDbLine
 10
544.2458307863246
 20
-644.0932300613673
 30
0.0
 11
544.2458307863246
 21
-635.0932300613673
 31
0.0
1001
ACAD
1000
DSTYLE
1002
{
1070
     3
1000
φ<>
1070
    45
1040
0.5
1002
}
  0
SOLID
  5
2052E
330
18
100
AcDbEntity
  8
1DIM
100
AcDbTrace
 10
540.4492929667447
 20
-703.9013374938309
 30
0.0
 11
539.5919876843799
 21
-702.0639102805948
 31
0.0
 12
540.9988744800988
 22
-703.5239721474836
 32
0.0
 13
540.9988744800988
 23
-703.5239721474836
 33
0.0
1001
ACAD
1000
DSTYLE
1002
{
1070
    45
1040
0.5
1002
}
  0
LINE
  5
2052F
330
18
100
AcDbEntity
  8
1DIM
100
AcDbLine
 10
540.7240837234217
 20
-703.7126548206572
 30
0.0
 11
553.700592471713
 21
-722.6111821628481
 31
0.0
1001
ACAD
1000
DSTYLE
1002
{
1070
    45
1040
0.5
1002
}
  0
LINE
  5
20530
330
18
100
AcDbEntity
  8
1DIM
100
AcDbLine
 10
553.700592471713
 20
-722.6111821628481
 30
0.0
 11
593.3839258050464
 21
-722.6111821628481
 31
0.0
1001
ACAD
1000
DSTYLE
1002
{
1070
    45
1040
0.5
1002
}
  0
TEXT
  5
20531
330
18
100
AcDbEntity
  8
1DIM
  6
CONTINUOUS
100
AcDbText
 10
556.1672591383797
 20
-716.0778488295147
 30
0.0
 40
3.5
  1
材質：ステンレス
100
AcDbText
  0
TEXT
  5
20532
330
18
100
AcDbEntity
  8
1DIM
  6
CONTINUOUS
100
AcDbText
 10
556.2839258050464
 20
-721.911182162848
 30
0.0
 40
3.5
  1
仕上げ：各種仕上げ
100
AcDbText
  0
LINE
  5
20533
330
18
100
AcDbEntity
  8
0
  6
BYBLOCK
100
AcDbLine
 10
176.0162416153653
 20
-738.1173279065051
 30
0.0
 11
170.0162416153653
 21
-736.5096327665051
 31
0.0
  0
LINE
  5
20534
330
18
100
AcDbEntity
  8
0
  6
BYBLOCK
100
AcDbLine
 10
170.0162416153653
 20
-736.5096327665051
 30
0.0
 11
176.0162416153653
 21
-734.9019376265051
 31
0.0
  0
LINE
  5
20535
330
18
100
AcDbEntity
  8
0
  6
BYBLOCK
100
AcDbLine
 10
170.0162416153653
 20
-736.5096327665051
 30
0.0
 11
176.0162416153653
 21
-736.5096327665051
 31
0.0
  0
LINE
  5
20536
330
18
100
AcDbEntity
  8
0
  6
BYBLOCK
100
AcDbLine
 10
614.0162416153653
 20
-734.9019376265051
 30
0.0
 11
620.0162416153653
 21
-736.5096327665051
 31
0.0
  0
LINE
  5
20537
330
18
100
AcDbEntity
  8
0
  6
BYBLOCK
100
AcDbLine
 10
620.0162416153653
 20
-736.5096327665051
 30
0.0
 11
614.0162416153653
 21
-738.1173279065051
 31
0.0
  0
LINE
  5
20538
330
18
100
AcDbEntity
  8
0
  6
BYBLOCK
100
AcDbLine
 10
620.0162416153653
 20
-736.5096327665051
 30
0.0
 11
614.0162416153653
 21
-736.5096327665051
 31
0.0
  0
TEXT
  5
20539
330
18
100
AcDbEntity
  8
1DIM1
  6
CONTINUOUS
100
AcDbText
 10
376.386033282032
 20
-734.4096327665051
 30
0.0
 40
10.5
  1
P450
100
AcDbText
1001
ACAD
1000
DSTYLE
1002
{
1070
    40
1040
3.0
1070
    45
1040
0.5
1002
}
  0
LINE
  5
2053A
330
18
100
AcDbEntity
  8
0
  6
BYBLOCK
100
AcDbLine
 10
544.7817291663247
 20
-593.5932300613673
 30
0.0
 11
544.2458307863246
 21
-595.5932300613673
 31
0.0
  0
LINE
  5
2053B
330
18
100
AcDbEntity
  8
0
  6
BYBLOCK
100
AcDbLine
 10
544.2458307863246
 20
-595.5932300613673
 30
0.0
 11
543.7099324063246
 21
-593.5932300613673
 31
0.0
  0
LINE
  5
2053C
330
18
100
AcDbEntity
  8
0
  6
BYBLOCK
100
AcDbLine
 10
544.2458307863246
 20
-595.5932300613673
 30
0.0
 11
544.2458307863246
 21
-593.5932300613673
 31
0.0
  0
LINE
  5
2053D
330
18
100
AcDbEntity
  8
0
  6
BYBLOCK
100
AcDbLine
 10
543.7099324063246
 20
-585.5932300613673
 30
0.0
 11
544.2458307863246
 21
-583.5932300613673
 31
0.0
  0
LINE
  5
2053E
330
18
100
AcDbEntity
  8
0
  6
BYBLOCK
100
AcDbLine
 10
544.2458307863246
 20
-583.5932300613673
 30
0.0
 11
544.7817291663247
 21
-585.5932300613673
 31
0.0
  0
LINE
  5
2053F
330
18
100
AcDbEntity
  8
0
  6
BYBLOCK
100
AcDbLine
 10
544.2458307863246
 20
-583.5932300613673
 30
0.0
 11
544.2458307863246
 21
-585.5932300613673
 31
0.0
  0
TEXT
  5
20540
330
18
100
AcDbEntity
  8
1DIM
  6
CONTINUOUS
100
AcDbText
 10
543.5458307863246
 20
-580.9598967280339
 30
0.0
 40
3.5
  1
φ12
 50
90.0
100
AcDbText
1001
ACAD
1000
DSTYLE
1002
{
1070
     3
1000
φ<>
1070
    45
1040
0.5
1002
}
  0
LINE
  5
20541
330
18
100
AcDbEntity
  8
0
  6
BYBLOCK
100
AcDbLine
 10
672.808736990048
 20
-721.7037871087101
 30
0.0
 11
670.808736990048
 21
-721.1678887287101
 31
0.0
  0
LINE
  5
20542
330
18
100
AcDbEntity
  8
0
  6
BYBLOCK
100
AcDbLine
 10
670.808736990048
 20
-721.1678887287101
 30
0.0
 11
672.808736990048
 21
-720.63199034871
 31
0.0
  0
LINE
  5
20543
330
18
100
AcDbEntity
  8
0
  6
BYBLOCK
100
AcDbLine
 10
670.808736990048
 20
-721.1678887287101
 30
0.0
 11
672.808736990048
 21
-721.1678887287101
 31
0.0
  0
LINE
  5
20544
330
18
100
AcDbEntity
  8
0
  6
BYBLOCK
100
AcDbLine
 10
770.6087369900479
 20
-720.63199034871
 30
0.0
 11
772.6087369900479
 21
-721.1678887287101
 31
0.0
  0
LINE
  5
20545
330
18
100
AcDbEntity
  8
0
  6
BYBLOCK
100
AcDbLine
 10
772.6087369900479
 20
-721.1678887287101
 30
0.0
 11
770.6087369900479
 21
-721.7037871087101
 31
0.0
  0
LINE
  5
20546
330
18
100
AcDbEntity
  8
0
  6
BYBLOCK
100
AcDbLine
 10
772.6087369900479
 20
-721.1678887287101
 30
0.0
 11
770.6087369900479
 21
-721.1678887287101
 31
0.0
  0
TEXT
  5
20547
330
18
100
AcDbEntity
  8
1DIM
  6
CONTINUOUS
100
AcDbText
 10
717.9170703233814
 20
-720.46788872871
 30
0.0
 40
3.5
  1
102
100
AcDbText
1001
ACAD
1000
DSTYLE
1002
{
1070
    45
1040
0.5
1002
}
  0
LINE
  5
20548
330
18
100
AcDbEntity
  8
0
  6
BYBLOCK
100
AcDbLine
 10
770.6087369900479
 20
-715.5525558082619
 30
0.0
 11
772.6087369900479
 21
-716.088454188262
 31
0.0
  0
LINE
  5
20549
330
18
100
AcDbEntity
  8
0
  6
BYBLOCK
100
AcDbLine
 10
772.6087369900479
 20
-716.088454188262
 30
0.0
 11
770.6087369900479
 21
-716.624352568262
 31
0.0
  0
LINE
  5
2054A
330
18
100
AcDbEntity
  8
0
  6
BYBLOCK
100
AcDbLine
 10
772.6087369900479
 20
-716.088454188262
 30
0.0
 11
770.6087369900479
 21
-716.088454188262
 31
0.0
  0
LINE
  5
2054B
330
18
100
AcDbEntity
  8
0
  6
BYBLOCK
100
AcDbLine
 10
756.6087189362546
 20
-716.624352568262
 30
0.0
 11
754.6087189362546
 21
-716.088454188262
 31
0.0
  0
LINE
  5
2054C
330
18
100
AcDbEntity
  8
0
  6
BYBLOCK
100
AcDbLine
 10
754.6087189362546
 20
-716.088454188262
 30
0.0
 11
756.6087189362546
 21
-715.5525558082619
 31
0.0
  0
LINE
  5
2054D
330
18
100
AcDbEntity
  8
0
  6
BYBLOCK
100
AcDbLine
 10
754.6087189362546
 20
-716.088454188262
 30
0.0
 11
756.6087189362546
 21
-716.088454188262
 31
0.0
  0
TEXT
  5
2054E
330
18
100
AcDbEntity
  8
1DIM
  6
CONTINUOUS
100
AcDbText
 10
761.2753946298179
 20
-715.3884541882619
 30
0.0
 40
3.5
  1
18
100
AcDbText
1001
ACAD
1000
DSTYLE
1002
{
1070
    45
1040
0.5
1002
}
  0
LINE
  5
2054F
330
18
100
AcDbEntity
  8
0
  6
BYBLOCK
100
AcDbLine
 10
814.6446353700479
 20
-666.3949347617715
 30
0.0
 11
814.1087369900479
 21
-668.3949347617715
 31
0.0
  0
LINE
  5
20550
330
18
100
AcDbEntity
  8
0
  6
BYBLOCK
100
AcDbLine
 10
814.1087369900479
 20
-668.3949347617715
 30
0.0
 11
813.5728386100478
 21
-666.3949347617715
 31
0.0
  0
LINE
  5
20551
330
18
100
AcDbEntity
  8
0
  6
BYBLOCK
100
AcDbLine
 10
814.1087369900479
 20
-668.3949347617715
 30
0.0
 11
814.1087369900479
 21
-666.3949347617715
 31
0.0
  0
LINE
  5
20552
330
18
100
AcDbEntity
  8
0
  6
BYBLOCK
100
AcDbLine
 10
813.5728386100478
 20
-661.3949347648759
 30
0.0
 11
814.1087369900479
 21
-659.3949347648759
 31
0.0
  0
LINE
  5
20553
330
18
100
AcDbEntity
  8
0
  6
BYBLOCK
100
AcDbLine
 10
814.1087369900479
 20
-659.3949347648759
 30
0.0
 11
814.6446353700479
 21
-661.3949347648759
 31
0.0
  0
LINE
  5
20554
330
18
100
AcDbEntity
  8
0
  6
BYBLOCK
100
AcDbLine
 10
814.1087369900479
 20
-659.3949347648759
 30
0.0
 11
814.1087369900479
 21
-661.3949347648759
 31
0.0
  0
TEXT
  5
20555
330
18
100
AcDbEntity
  8
1DIM
  6
CONTINUOUS
100
AcDbText
 10
813.4087369900478
 20
-665.0632218003606
 30
0.0
 40
3.5
  1
9
 50
90.0
100
AcDbText
1001
ACAD
1000
DSTYLE
1002
{
1070
    45
1040
0.5
1070
   271
1070
     0
1002
}
  0
LINE
  5
20556
330
18
100
AcDbEntity
  8
0
  6
BYBLOCK
100
AcDbLine
 10
153.0162416153653
 20
-768.2914224386982
 30
0.0
 11
147.0162416153653
 21
-766.6837272986982
 31
0.0
  0
LINE
  5
20557
330
18
100
AcDbEntity
  8
0
  6
BYBLOCK
100
AcDbLine
 10
147.0162416153653
 20
-766.6837272986982
 30
0.0
 11
153.0162416153653
 21
-765.0760321586981
 31
0.0
  0
LINE
  5
20558
330
18
100
AcDbEntity
  8
0
  6
BYBLOCK
100
AcDbLine
 10
147.0162416153653
 20
-766.6837272986982
 30
0.0
 11
153.0162416153653
 21
-766.6837272986982
 31
0.0
  0
LINE
  5
20559
330
18
100
AcDbEntity
  8
0
  6
BYBLOCK
100
AcDbLine
 10
637.0162416153653
 20
-765.0760321586981
 30
0.0
 11
643.0162416153653
 21
-766.6837272986982
 31
0.0
  0
LINE
  5
2055A
330
18
100
AcDbEntity
  8
0
  6
BYBLOCK
100
AcDbLine
 10
643.0162416153653
 20
-766.6837272986982
 30
0.0
 11
637.0162416153653
 21
-768.2914224386982
 31
0.0
  0
LINE
  5
2055B
330
18
100
AcDbEntity
  8
0
  6
BYBLOCK
100
AcDbLine
 10
643.0162416153653
 20
-766.6837272986982
 30
0.0
 11
637.0162416153653
 21
-766.6837272986982
 31
0.0
  0
TEXT
  5
2055C
330
18
100
AcDbEntity
  8
1DIM1
  6
CONTINUOUS
100
AcDbText
 10
381.0138110598097
 20
-764.5837272986981
 30
0.0
 40
10.5
  1
496
100
AcDbText
1001
ACAD
1000
DSTYLE
1002
{
1070
    40
1040
3.0
1070
    45
1040
0.5
1002
}
  0
LINE
  5
2055D
330
18
100
AcDbEntity
  8
0
  6
BYBLOCK
100
AcDbLine
 10
824.6446353700479
 20
-703.3949347648754
 30
0.0
 11
824.1087369900479
 21
-705.3949347648754
 31
0.0
  0
LINE
  5
2055E
330
18
100
AcDbEntity
  8
0
  6
BYBLOCK
100
AcDbLine
 10
824.1087369900479
 20
-705.3949347648754
 30
0.0
 11
823.5728386100478
 21
-703.3949347648754
 31
0.0
  0
LINE
  5
2055F
330
18
100
AcDbEntity
  8
0
  6
BYBLOCK
100
AcDbLine
 10
824.1087369900479
 20
-705.3949347648754
 30
0.0
 11
824.1087369900479
 21
-703.3949347648754
 31
0.0
  0
LINE
  5
20560
330
18
100
AcDbEntity
  8
0
  6
BYBLOCK
100
AcDbLine
 10
823.5728386100478
 20
-661.3949347648759
 30
0.0
 11
824.1087369900479
 21
-659.3949347648759
 31
0.0
  0
LINE
  5
20561
330
18
100
AcDbEntity
  8
0
  6
BYBLOCK
100
AcDbLine
 10
824.1087369900479
 20
-659.3949347648759
 30
0.0
 11
824.6446353700479
 21
-661.3949347648759
 31
0.0
  0
LINE
  5
20562
330
18
100
AcDbEntity
  8
0
  6
BYBLOCK
100
AcDbLine
 10
824.1087369900479
 20
-659.3949347648759
 30
0.0
 11
824.1087369900479
 21
-661.3949347648759
 31
0.0
  0
TEXT
  5
20563
330
18
100
AcDbEntity
  8
1DIM
  6
CONTINUOUS
100
AcDbText
 10
823.4087369900478
 20
-685.3116014315423
 30
0.0
 40
3.5
  1
46
 50
90.0
100
AcDbText
1001
ACAD
1000
DSTYLE
1002
{
1070
    45
1040
0.5
1002
}
  0
LINE
  5
20564
330
18
100
AcDbEntity
  8
0
  6
BYBLOCK
100
AcDbLine
 10
641.0162416153646
 20
-509.0573316813673
 30
0.0
 11
643.0162416153646
 21
-509.5932300613673
 31
0.0
  0
LINE
  5
20565
330
18
100
AcDbEntity
  8
0
  6
BYBLOCK
100
AcDbLine
 10
643.0162416153646
 20
-509.5932300613673
 30
0.0
 11
641.0162416153646
 21
-510.1291284413673
 31
0.0
  0
LINE
  5
20566
330
18
100
AcDbEntity
  8
0
  6
BYBLOCK
100
AcDbLine
 10
643.0162416153646
 20
-509.5932300613673
 30
0.0
 11
641.0162416153646
 21
-509.5932300613673
 31
0.0
  0
LINE
  5
20567
330
18
100
AcDbEntity
  8
0
  6
BYBLOCK
100
AcDbLine
 10
599.0162416153651
 20
-510.1291284413673
 30
0.0
 11
597.0162416153651
 21
-509.5932300613673
 31
0.0
  0
LINE
  5
20568
330
18
100
AcDbEntity
  8
0
  6
BYBLOCK
100
AcDbLine
 10
597.0162416153651
 20
-509.5932300613673
 30
0.0
 11
599.0162416153651
 21
-509.0573316813673
 31
0.0
  0
LINE
  5
20569
330
18
100
AcDbEntity
  8
0
  6
BYBLOCK
100
AcDbLine
 10
597.0162416153651
 20
-509.5932300613673
 30
0.0
 11
599.0162416153651
 21
-509.5932300613673
 31
0.0
  0
TEXT
  5
2056A
330
18
100
AcDbEntity
  8
1DIM
  6
CONTINUOUS
100
AcDbText
 10
617.0995749486982
 20
-508.8932300613673
 30
0.0
 40
3.5
  1
46
100
AcDbText
1001
ACAD
1000
DSTYLE
1002
{
1070
    45
1040
0.5
1002
}
  0
LINE
  5
2056B
330
18
100
AcDbEntity
  8
0
100
AcDbLine
 10
756.6087583962509
 20
-688.7410283153147
 30
0.0
 11
756.6089669997999
 21
-683.3910190089949
 31
0.0
  0
LINE
  5
2056C
330
18
100
AcDbEntity
  8
0
100
AcDbLine
 10
756.6089669997999
 20
-683.3910190089949
 30
0.0
 11
756.2589696693227
 21
-683.0410165658704
 31
0.0
  0
LINE
  5
2056D
330
18
100
AcDbEntity
  8
0
100
AcDbLine
 10
756.2589696693227
 20
-683.0410165658704
 30
0.0
 11
752.9589696693923
 21
-683.0409935306011
 31
0.0
  0
LINE
  5
2056E
330
18
100
AcDbEntity
  8
0
100
AcDbLine
 10
752.9589696693923
 20
-683.0409935306011
 30
0.0
 11
752.6089669998871
 21
-683.3909910874562
 31
0.0
  0
LINE
  5
2056F
330
18
100
AcDbEntity
  8
0
100
AcDbLine
 10
752.6089669998871
 20
-683.3909910874562
 30
0.0
 11
752.6087583965974
 21
-688.7409724721504
 31
0.0
  0
LINE
  5
20570
330
18
100
AcDbEntity
  8
0
100
AcDbLine
 10
752.6087583965974
 20
-688.7409724721504
 30
0.0
 11
750.6087397821083
 21
-690.740977125789
 31
0.0
  0
LINE
  5
20571
330
18
100
AcDbEntity
  8
0
100
AcDbLine
 10
750.6087397821083
 20
-690.740977125789
 30
0.0
 11
750.6087369899544
 21
-691.0409771257767
 31
0.0
  0
LINE
  5
20572
330
18
100
AcDbEntity
  8
0
100
AcDbLine
 10
750.6087369899544
 20
-691.0409771257767
 30
0.0
 11
758.6087369897813
 21
-691.0410329688543
 31
0.0
  0
LINE
  5
20573
330
18
100
AcDbEntity
  8
0
100
AcDbLine
 10
758.6087369897813
 20
-691.0410329688543
 30
0.0
 11
758.6087397819351
 21
-690.7410329688664
 31
0.0
  0
LINE
  5
20574
330
18
100
AcDbEntity
  8
0
100
AcDbLine
 10
758.6087397819351
 20
-690.7410329688664
 30
0.0
 11
756.6087583962509
 21
-688.7410283153147
 31
0.0
  0
LINE
  5
20575
330
18
100
AcDbEntity
  8
0
  6
BYBLOCK
100
AcDbLine
 10
814.6446353700479
 20
-694.3949347617715
 30
0.0
 11
814.1087369900479
 21
-696.3949347617715
 31
0.0
  0
LINE
  5
20576
330
18
100
AcDbEntity
  8
0
  6
BYBLOCK
100
AcDbLine
 10
814.1087369900479
 20
-696.3949347617715
 30
0.0
 11
813.5728386100478
 21
-694.3949347617715
 31
0.0
  0
LINE
  5
20577
330
18
100
AcDbEntity
  8
0
  6
BYBLOCK
100
AcDbLine
 10
814.1087369900479
 20
-696.3949347617715
 30
0.0
 11
814.1087369900479
 21
-694.3949347617715
 31
0.0
  0
LINE
  5
20578
330
18
100
AcDbEntity
  8
0
  6
BYBLOCK
100
AcDbLine
 10
813.5728386100478
 20
-670.3949347617715
 30
0.0
 11
814.1087369900479
 21
-668.3949347617715
 31
0.0
  0
LINE
  5
20579
330
18
100
AcDbEntity
  8
0
  6
BYBLOCK
100
AcDbLine
 10
814.1087369900479
 20
-668.3949347617715
 30
0.0
 11
814.6446353700479
 21
-670.3949347617715
 31
0.0
  0
LINE
  5
2057A
330
18
100
AcDbEntity
  8
0
  6
BYBLOCK
100
AcDbLine
 10
814.1087369900479
 20
-668.3949347617715
 30
0.0
 11
814.1087369900479
 21
-670.3949347617715
 31
0.0
  0
TEXT
  5
2057B
330
18
100
AcDbEntity
  8
1DIM
  6
CONTINUOUS
100
AcDbText
 10
813.4087369900478
 20
-687.0616014284382
 30
0.0
 40
3.5
  1
P28
 50
90.0
100
AcDbText
1001
ACAD
1000
DSTYLE
1002
{
1070
    45
1040
0.5
1002
}
  0
LINE
  5
2057C
330
18
100
AcDbEntity
  8
0
  6
BYBLOCK
100
AcDbLine
 10
544.7817291663247
 20
-644.0932300613673
 30
0.0
 11
544.2458307863246
 21
-646.0932300613673
 31
0.0
  0
LINE
  5
2057D
330
18
100
AcDbEntity
  8
0
  6
BYBLOCK
100
AcDbLine
 10
544.2458307863246
 20
-646.0932300613673
 30
0.0
 11
543.7099324063246
 21
-644.0932300613673
 31
0.0
  0
LINE
  5
2057E
330
18
100
AcDbEntity
  8
0
  6
BYBLOCK
100
AcDbLine
 10
544.2458307863246
 20
-646.0932300613673
 30
0.0
 11
544.2458307863246
 21
-644.0932300613673
 31
0.0
  0
LINE
  5
2057F
330
18
100
AcDbEntity
  8
0
  6
BYBLOCK
100
AcDbLine
 10
543.7099324063246
 20
-635.0932300613673
 30
0.0
 11
544.2458307863246
 21
-633.0932300613673
 31
0.0
  0
LINE
  5
20580
330
18
100
AcDbEntity
  8
0
  6
BYBLOCK
100
AcDbLine
 10
544.2458307863246
 20
-633.0932300613673
 30
0.0
 11
544.7817291663247
 21
-635.0932300613673
 31
0.0
  0
LINE
  5
20581
330
18
100
AcDbEntity
  8
0
  6
BYBLOCK
100
AcDbLine
 10
544.2458307863246
 20
-633.0932300613673
 30
0.0
 11
544.2458307863246
 21
-635.0932300613673
 31
0.0
  0
TEXT
  5
20582
330
18
100
AcDbEntity
  8
1DIM
  6
CONTINUOUS
100
AcDbText
 10
543.5458307863246
 20
-630.4598967280339
 30
0.0
 40
3.5
  1
φ13
 50
90.0
100
AcDbText
1001
ACAD
1000
DSTYLE
1002
{
1070
     3
1000
φ<>
1070
    45
1040
0.5
1002
}
  0
VIEWPORT
  5
57
330
15
100
AcDbEntity
 67
     1
  8
0
100
AcDbViewport
 68
     1
 10
0.0
 20
0.0
 30
0.0
 40
555.8298653610772
 41
297.0
 68
     1
 69
     1
1001
ACAD
1000
MVIEW
1002
{
1070
    16
1010
0.0
1020
0.0
1030
0.0
1010
0.0
1020
0.0
1030
1.0
1040
0.0
1040
297.0
1040
-4.171999999925276
1040
12.839
1040
50.0
1040
0.0
1040
0.0
1070
    16
1070
   100
1070
     0
1070
     1
1070
     0
1070
     0
1070
     0
1070
     0
1040
0.0
1040
0.0
1040
0.0
1040
10.0
1040
10.0
1040
10.0
1040
10.0
1070
     0
1002
{
1002
}
1002
}
  0
ENDSEC
  0
SECTION
  2
OBJECTS
  0
DICTIONARY
  5
C
330
0
100
AcDbDictionary
  3
ACAD_COLOR
350
2D0
  3
ACAD_GROUP
350
D
  3
ACAD_LAYOUT
350
2D1
  3
ACAD_MATERIAL
350
2CF
  3
ACAD_MLEADERSTYLE
350
19E18
  3
ACAD_MLINESTYLE
350
1B
  3
ACAD_PLOTSETTINGS
350
2D2
  3
ACAD_SCALELIST
350
19DF6
  3
ACAD_VISUALSTYLE
350
19DE5
  3
ACDBHEADERROUNDTRIPXREC
350
20583
  3
ACDBVARIABLEDICTIONARY
350
37
  3
CONTENTDICTIONARY
350
D8
  3
DRAWINGVARIABLESDICT
350
20
  3
DWGPROPS
350
20586
1001
ACAD
1000
TREAT_AS_HARD
1070
     0
  0
DICTIONARY
  5
18FE8
330
2
100
AcDbDictionary
  3
ACAD_LAYERSTATES
360
18FE9
1001
ACAD
1000
TREAT_AS_HARD
1070
     1
  0
DICTIONARY
  5
1A20A
330
E
100
AcDbDictionary
  3
ADSK_XREC_LAYER_RECONCILED
360
1A20B
1001
ACAD
1000
TREAT_AS_HARD
1070
     1
  0
DICTIONARY
  5
1A20C
330
29
100
AcDbDictionary
  3
ADSK_XREC_LAYER_RECONCILED
360
1A20D
1001
ACAD
1000
TREAT_AS_HARD
1070
     1
  0
DICTIONARY
  5
1A20E
330
31
100
AcDbDictionary
  3
ADSK_XREC_LAYER_RECONCILED
360
1A20F
1001
ACAD
1000
TREAT_AS_HARD
1070
     1
  0
DICTIONARY
  5
1A218
330
101
100
AcDbDictionary
  3
ADSK_XREC_LAYER_RECONCILED
360
1A219
1001
ACAD
1000
TREAT_AS_HARD
1070
     1
  0
DICTIONARY
  5
1A21A
330
102
100
AcDbDictionary
  3
ADSK_XREC_LAYER_RECONCILED
360
1A21B
1001
ACAD
1000
TREAT_AS_HARD
1070
     1
  0
DICTIONARY
  5
1A21C
330
103
100
AcDbDictionary
  3
ADSK_XREC_LAYER_RECONCILED
360
1A21D
1001
ACAD
1000
TREAT_AS_HARD
1070
     1
  0
DICTIONARY
  5
1A220
330
25F
100
AcDbDictionary
  3
ADSK_XREC_LAYER_RECONCILED
360
1A221
1001
ACAD
1000
TREAT_AS_HARD
1070
     1
  0
DICTIONARY
  5
1A236
330
26A
100
AcDbDictionary
  3
ADSK_XREC_LAYER_RECONCILED
360
1A237
1001
ACAD
1000
TREAT_AS_HARD
1070
     1
  0
DICTIONARY
  5
1A23C
330
26D
100
AcDbDictionary
  3
ADSK_XREC_LAYER_RECONCILED
360
1A23D
1001
ACAD
1000
TREAT_AS_HARD
1070
     1
  0
DICTIONARY
  5
6E9
330
18
100
AcDbDictionary
  3
ACAD_SORTENTS
360
6EA
1001
ACAD
1000
TREAT_AS_HARD
1070
     1
  0
DICTIONARY
  5
59B
330
15
100
AcDbDictionary
  3
ACAD_SORTENTS
360
59C
1001
ACAD
1000
TREAT_AS_HARD
1070
     1
  0
DICTIONARY
  5
2D0
102
{ACAD_REACTORS
330
C
102
}
330
C
100
AcDbDictionary
1001
ACAD
1000
TREAT_AS_HARD
1070
     0
  0
DICTIONARY
  5
D
102
{ACAD_REACTORS
330
C
102
}
330
C
100
AcDbDictionary
  3
*A103
350
1E7BB
  3
*A177
350
1E9D3
  3
*A246
350
1E9F2
  3
*A288
350
1EDFD
  3
*A95
350
1EBF5
1001
ACAD
1000
TREAT_AS_HARD
1070
     0
  0
DICTIONARY
  5
2D1
102
{ACAD_REACTORS
330
C
102
}
330
C
100
AcDbDictionary
1001
ACAD
1000
TREAT_AS_HARD
1070
     0
  0
DICTIONARY
  5
2CF
102
{ACAD_REACTORS
330
C
102
}
330
C
100
AcDbDictionary
  3
BYBLOCK
350
19DD5
  3
BYLAYER
350
19DCD
  3
GLOBAL
350
19DDD
1001
ACAD
1000
TREAT_AS_HARD
1070
     0
  0
DICTIONARY
  5
19E18
102
{ACAD_REACTORS
330
C
102
}
330
C
100
AcDbDictionary
  3
STANDARD
350
19E19
1001
ACAD
1000
TREAT_AS_HARD
1070
     0
  0
DICTIONARY
  5
1B
102
{ACAD_REACTORS
330
C
102
}
330
C
100
AcDbDictionary
  3
STANDARD
350
1C
1001
ACAD
1000
TREAT_AS_HARD
1070
     0
  0
DICTIONARY
  5
2D2
102
{ACAD_REACTORS
330
C
102
}
330
C
100
AcDbDictionary
1001
ACAD
1000
TREAT_AS_HARD
1070
     0
  0
DICTIONARY
  5
19DF6
102
{ACAD_REACTORS
330
C
102
}
330
C
100
AcDbDictionary
  3
A0
350
19DF7
  3
A1
350
19DF8
  3
A2
350
19DF9
  3
A3
350
19DFA
  3
A4
350
19DFB
  3
A5
350
19DFC
  3
A6
350
19DFD
  3
A7
350
19DFE
  3
A8
350
19DFF
  3
A9
350
19E00
  3
B0
350
19E01
  3
B1
350
19E02
  3
B2
350
19E03
  3
B3
350
19E04
  3
B4
350
19E05
  3
B5
350
19E06
  3
B6
350
19E07
  3
B7
350
19E08
  3
B8
350
19E09
  3
B9
350
19E0A
  3
C0
350
19E0B
  3
C1
350
19E0C
  3
C2
350
19E0D
  3
C3
350
19E0E
  3
C4
350
19E0F
  3
C5
350
19E10
  3
C6
350
19E11
  3
C7
350
19E12
  3
C8
350
19E13
  3
C9
350
19E14
  3
D0
350
19E15
  3
D1
350
19E16
  3
D2
350
19E17
1001
ACAD
1000
TREAT_AS_HARD
1070
     0
  0
DICTIONARY
  5
19DE5
102
{ACAD_REACTORS
330
C
102
}
330
C
100
AcDbDictionary
  3
2DWIREFRAME
350
19DEB
  3
3D_HIDDEN
350
19DED
  3
3DWIREFRAME
350
19DEC
  3
BASIC
350
19DEA
  3
BRIGHTEN
350
19DF1
  3
COLORCHANGE
350
19DF5
  3
CONCEPTUAL
350
19DEE
  3
DIM
350
19DF0
  3
EDGECOLOROFF
350
1E02A
  3
FACEPATTERN
350
19DF4
  3
FLAT
350
19DE6
  3
FLATWITHEDGES
350
19DE7
  3
GOURAUD
350
19DE8
  3
GOURAUDWITHEDGES
350
19DE9
  3
HIDDEN
350
1FB87
  3
JITTEROFF
350
1E028
  3
LINEPATTERN
350
19DF3
  3
MODELING
350
1FB8D
  3
OVERHANGOFF
350
1E029
  3
REALISTIC
350
19DEF
  3
SHADED
350
1FB8C
  3
SHADED_WITH_EDGES
350
1FB8B
  3
SHADES_OF_GRAY
350
1FB88
  3
SKETCHY
350
1FB89
  3
THICKEN
350
19DF2
  3
WIREFRAME
350
1FB86
  3
X-RAY
350
1FB8A
1001
ACAD
1000
TREAT_AS_HARD
1070
     0
  0
DICTIONARY
  5
20583
102
{ACAD_REACTORS
330
C
102
}
330
C
100
AcDbDictionary
  3
COLORDICT
350
20584
  3
MATERIALDICT
350
20585
1001
ACAD
1000
TREAT_AS_HARD
1070
     0
  0
DICTIONARY
  5
37
102
{ACAD_REACTORS
330
C
102
}
330
C
100
AcDbDictionary
  3
CANNOSCALE
350
1AC1A
  3
CMLEADERSTYLE
350
1AC19
  3
CTABLESTYLE
350
4F1
  3
DIMADEC
350
38
  3
DIMASSOC
350
408
  3
HIDETEXT
350
1891
  3
INDEXCTL
350
1AC1C
  3
INTERSECTIONCOLOR
350
1895
  3
INTERSECTIONDISPLAY
350
1894
  3
MSLTSCALE
350
1FB8F
  3
OBSCOLOR
350
1892
  3
OBSLTYPE
350
1893
  3
PROJECTNAME
350
409
  3
SORTENTS
350
1AC1B
  3
XCLIPFRAME
350
1FB85
1001
ACAD
1000
TREAT_AS_HARD
1070
     0
  0
DICTIONARY
  5
D8
102
{ACAD_REACTORS
330
C
102
}
330
C
100
AcDbDictionary
1001
CONTENTTABDATA
1070
    11
1000
Child
1000
D:\ACLT\TABset\CHILDREN.dwg
1070
     0
1070
     0
1070
     1
1000
PK
1000
D:\ACLT\TABset\PK.dwg
1070
     0
1070
     0
1070
     1
1000
Lev1
1000
D:\ACLT\TABset\Lever01.dwg
1070
     0
1070
     0
1070
     1
1000
Lev2
1000
D:\ACLT\TABset\Lever02.dwg
1070
     0
1070
     0
1070
     1
1000
L3
1000
D:\Aclt\TABset\Lever03.dwg
1070
     0
1070
     0
1070
     1
1000
Form
1000
D:\ACLT\FORMAT
1070
     1
1070
     0
1070
     1
1000
Jnt
1000
D:\ACLT\TABset\JOINTPARTS.dwg
1070
     0
1070
     0
1070
     1
1000
ISO
1000
D:\ACLT\TABset\Isome01.dwg
1070
     0
1070
     0
1070
     1
1000
R
1000
D:\ACLT\TABset\REGION.dwg
1070
     0
1070
     0
1070
     1
1000
std
1000
D:\ACLT\TABset\std_sym_all.dwg
1070
     0
1070
     0
1070
     1
1000
丸
1000
D:\Aclt\TABset\MARU.dwg
1070
     0
1070
     0
1070
     1
1001
CONTENTCURRENTTAB
1070
     0
1001
ACAD
1000
TREAT_AS_HARD
1070
     0
  0
DICTIONARY
  5
20
102
{ACAD_REACTORS
330
C
102
}
330
C
100
AcDbDictionary
1001
DRAWINGVARIABLESXDATA
1000
POLARANG
1000
0.261799387799149410000000
1000
POLARMODE
1000
1
1000
POLARSTYLE
1000
1
1001
ACAD
1000
TREAT_AS_HARD
1070
     0
  0
XRECORD
  5
20586
102
{ACAD_REACTORS
330
C
102
}
330
C
100
AcDbXrecord
  1
DWGPROPS COOKIE
  2

  3

  4

  6

  7

  8
3684
  9

300
=
301
=
302
=
303
=
304
=
305
=
306
=
307
=
308
=
309
=
 40
0.0
 41
2453033.357663484
 42
2458274.205843773
  1

 90
        0
  0
DICTIONARY
  5
18FE9
102
{ACAD_REACTORS
330
18FE8
102
}
330
18FE8
100
AcDbDictionary
1001
ACAD
1000
TREAT_AS_HARD
1070
     0
  0
ACAD_PROXY_OBJECT
  5
1A20B
102
{ACAD_REACTORS
330
1A20A
102
}
330
1A20A
100
AcDbZombieObject
 90
      499
 91
      517
 93
       34
310
40C8804040
  0
ACAD_PROXY_OBJECT
  5
1A20D
102
{ACAD_REACTORS
330
1A20C
102
}
330
1A20C
100
AcDbZombieObject
 90
      499
 91
      517
 93
       34
310
40C8804040
  0
ACAD_PROXY_OBJECT
  5
1A20F
102
{ACAD_REACTORS
330
1A20E
102
}
330
1A20E
100
AcDbZombieObject
 90
      499
 91
      517
 93
       34
310
40C8804040
  0
ACAD_PROXY_OBJECT
  5
1A219
102
{ACAD_REACTORS
330
1A218
102
}
330
1A218
100
AcDbZombieObject
 90
      499
 91
      517
 93
       34
310
40C8804040
  0
ACAD_PROXY_OBJECT
  5
1A21B
102
{ACAD_REACTORS
330
1A21A
102
}
330
1A21A
100
AcDbZombieObject
 90
      499
 91
      517
 93
       34
310
40C8804040
  0
ACAD_PROXY_OBJECT
  5
1A21D
102
{ACAD_REACTORS
330
1A21C
102
}
330
1A21C
100
AcDbZombieObject
 90
      499
 91
      517
 93
       34
310
40C8804040
  0
ACAD_PROXY_OBJECT
  5
1A221
102
{ACAD_REACTORS
330
1A220
102
}
330
1A220
100
AcDbZombieObject
 90
      499
 91
      517
 93
       34
310
40C8804040
  0
ACAD_PROXY_OBJECT
  5
1A237
102
{ACAD_REACTORS
330
1A236
102
}
330
1A236
100
AcDbZombieObject
 90
      499
 91
      517
 93
       34
310
40C8804040
  0
ACAD_PROXY_OBJECT
  5
1A23D
102
{ACAD_REACTORS
330
1A23C
102
}
330
1A23C
100
AcDbZombieObject
 90
      499
 91
      517
 93
       34
310
40C8804040
  0
SORTENTSTABLE
  5
6EA
102
{ACAD_REACTORS
330
6E9
102
}
330
6E9
100
AcDbSortentsTable
330
18
331
0
  5
99AB
331
0
  5
AB53
331
0
  5
AB54
331
0
  5
ECB5
331
0
  5
1D308
331
1D8CA
  5
1F6D3
331
1D90A
  5
1F6D4
331
0
  5
1DB93
331
1DBA4
  5
1F6E8
331
1DBA5
  5
1F6E9
331
1DBA6
  5
1F6EA
331
0
  5
1E233
331
0
  5
1E234
331
0
  5
1E235
331
0
  5
1E236
331
0
  5
1E5CE
331
0
  5
1E7B6
331
0
  5
1E7B7
331
0
  5
1E7BA
331
0
  5
1E7B9
331
0
  5
1E9CE
331
1E7B5
  5
1F7DC
331
1E7B6
  5
1F7DD
331
1E7B7
  5
1F7DE
331
1E7B8
  5
1F7DF
331
1E7B9
  5
1F7E0
331
0
  5
1E9D5
331
1E9CD
  5
1F890
331
1E9CE
  5
1F891
331
1E9CF
  5
1F892
331
1E9D0
  5
1F893
331
1E9D1
  5
1F894
331
0
  5
1E9EB
331
1E9E5
  5
203F5
331
1E9E6
  5
203F6
331
1E9E7
  5
203F7
331
1E9E8
  5
203F8
331
1E9E9
  5
203F9
331
0
  5
1EBF2
331
1EBEF
  5
20444
331
1EBF0
  5
20445
331
1EBF1
  5
20446
331
1EBF2
  5
20447
331
1EBF3
  5
20448
331
0
  5
1F6BB
331
0
  5
1F6BC
331
1F6BB
  5
204A0
331
1F6BC
  5
204A1
331
1F6BD
  5
204A2
331
1F6BE
  5
204A3
331
1F6BF
  5
204A4
331
1F6C0
  5
204A5
331
1F6C1
  5
204A6
331
1F6C2
  5
204A7
331
1F6C3
  5
204A8
331
1F6C4
  5
204A9
331
1F6C5
  5
204AA
331
1F6C6
  5
204AB
331
1F6C7
  5
204AC
331
1F6C8
  5
204AD
331
1F6C9
  5
204AE
331
1F6CA
  5
204AF
331
1F6CB
  5
204B0
331
1F6CC
  5
204B1
331
1F6CD
  5
204B2
331
1F6D0
  5
204B3
331
1F6D1
  5
204B4
331
1F6D3
  5
204B5
331
1F6D4
  5
204B6
331
1F6D5
  5
204B7
331
1F6D6
  5
204BB
331
1F6D7
  5
204BC
331
1F6D8
  5
204BD
331
1F6D9
  5
204BE
331
1F6DA
  5
204BF
331
1F6DB
  5
204C0
331
1F6DC
  5
204C1
331
1F6DD
  5
204C2
331
1F6DE
  5
204C3
331
1F6DF
  5
204C4
331
1F6E0
  5
204C5
331
1F6E1
  5
204C6
331
1F6E2
  5
204C7
331
1F6E3
  5
204C8
331
1F6E4
  5
204C9
331
1F6E5
  5
204CA
331
1F6E6
  5
204CB
331
1F6E7
  5
204CC
331
1F6E8
  5
204CD
331
1F6E9
  5
204CE
331
1F6EA
  5
204CF
331
1F6EB
  5
204D0
331
1F6EC
  5
204D1
331
1F6ED
  5
204D2
331
1F6EE
  5
204D3
331
1F6EF
  5
204D4
331
1F6F0
  5
204D5
331
1F6F1
  5
204D6
331
1F6F2
  5
204D7
331
1F6F3
  5
204D8
331
1F6F4
  5
204D9
331
1F6F5
  5
204DA
331
1F6F6
  5
204DB
331
1F6F7
  5
204DC
331
1F6F8
  5
204DD
331
1F6F9
  5
204DE
331
1F6FA
  5
204DF
331
1F6FB
  5
204E0
331
1F6FC
  5
204E1
331
1F6FD
  5
204E2
331
1F6FE
  5
204E3
331
1F6FF
  5
204E4
331
1F701
  5
204E5
331
1F702
  5
204E6
331
1F703
  5
204E7
331
1F704
  5
204E8
331
1F705
  5
204E9
331
1F706
  5
204EA
331
1F707
  5
204EB
331
1F708
  5
204EC
331
1F709
  5
204ED
331
1F70A
  5
204EE
331
1F70B
  5
204EF
331
1F70C
  5
204F0
331
1F70D
  5
204F1
331
1F70E
  5
204F2
331
1F70F
  5
204F3
331
1F710
  5
204F4
331
1F711
  5
204F5
331
1F712
  5
204F6
331
1F713
  5
204F7
331
1F714
  5
204F8
331
1F715
  5
204F9
331
1F716
  5
204FA
331
1F717
  5
204FB
331
1F718
  5
204FC
331
1F719
  5
204FD
331
1F71A
  5
204FE
331
1F71B
  5
204FF
331
0
  5
1F7C0
331
1F7BF
  5
2050B
331
1F7C0
  5
2050C
331
1F7C1
  5
2050D
331
1F7C2
  5
2050E
331
1F7C3
  5
2050F
331
1F7C4
  5
20510
331
1F7C5
  5
20511
331
1F7C6
  5
20512
331
1F7C7
  5
20513
331
1F7C8
  5
20514
331
1F7C9
  5
20515
331
1F7CA
  5
20516
331
1F7CD
  5
20517
331
1F7CE
  5
20518
331
1F7CF
  5
20519
331
1F7D0
  5
2051A
331
1F7D1
  5
2051B
331
1F7D2
  5
2051C
331
1F7D3
  5
2051D
331
1F7D4
  5
2051E
331
1F7D5
  5
2051F
331
1F7D6
  5
20520
331
1F7D7
  5
20521
331
1F7D8
  5
20522
331
1F7D9
  5
20523
331
1F7DB
  5
20524
331
1F7DC
  5
20525
331
1F7DD
  5
20526
331
1F7DE
  5
20527
331
1F7DF
  5
20528
331
1F7E0
  5
20529
331
1F7E1
  5
2052A
331
1F7E2
  5
2052B
331
1F7E3
  5
2052C
331
1F7E4
  5
2052D
331
1F7E5
  5
2052E
331
1F7E6
  5
2052F
331
1F7E7
  5
20530
331
1F7E8
  5
20531
331
1F7E9
  5
20532
331
1F7EA
  5
20533
331
1F7EB
  5
20534
331
1F7EC
  5
20535
331
1F7ED
  5
20536
331
1F7EE
  5
20537
331
1F7EF
  5
20538
331
1F7F0
  5
20539
331
1F7F1
  5
2053A
331
1F7F2
  5
2053B
331
1F7F3
  5
2053C
331
1F7F4
  5
2053D
331
1F7F5
  5
2053E
331
1F7F6
  5
2053F
331
1F7F7
  5
20540
331
1F7F8
  5
20541
331
1F7F9
  5
20542
331
1F7FB
  5
20543
331
1F7FC
  5
20544
331
1F7FD
  5
20545
331
1F7FE
  5
20546
331
1F7FF
  5
20547
331
1F800
  5
20548
331
1F801
  5
20549
331
1F802
  5
2054A
331
1F803
  5
2054B
331
1F804
  5
2054C
331
1F805
  5
2054D
331
1F806
  5
2054E
331
1F807
  5
2054F
331
1F808
  5
20550
331
1F809
  5
20551
331
1F80A
  5
20552
331
1F80B
  5
20553
331
1F80C
  5
20554
331
1F80D
  5
20555
331
1F80E
  5
20556
331
1F80F
  5
20557
331
1F810
  5
20558
331
1F811
  5
20559
331
1F812
  5
2055A
331
1F813
  5
2055B
331
1F814
  5
2055C
331
0
  5
1F879
331
0
  5
1F87A
331
1F879
  5
20562
331
1F87A
  5
20563
331
1F87B
  5
20564
331
1F87C
  5
20565
331
1F87D
  5
20566
331
1F87E
  5
20567
331
1F87F
  5
20568
331
1F880
  5
20569
331
1F881
  5
2056A
331
1F882
  5
2056B
331
1F883
  5
2056C
331
1F884
  5
2056D
331
1F885
  5
2056E
331
1F886
  5
2056F
331
1F887
  5
20570
331
1F888
  5
20571
331
1F889
  5
20572
331
1F88A
  5
20573
331
1F88B
  5
20574
331
1F88C
  5
20575
331
1F88D
  5
20576
331
1F88E
  5
20577
331
1F88F
  5
20578
331
1F890
  5
20579
331
1F891
  5
2057A
331
1F892
  5
2057B
331
1F893
  5
2057C
331
1F894
  5
2057D
331
1F895
  5
2057E
331
1F896
  5
2057F
331
1F897
  5
20580
331
1F898
  5
20581
331
1F899
  5
20582
331
203B0
  5
1F7C4
331
203B1
  5
1F7C7
331
203B2
  5
1D8CE
331
203B3
  5
1D910
331
203B4
  5
1DF13
331
0
  5
1DFD9
331
0
  5
1E232
331
0
  5
1E7B8
331
203B8
  5
1E9D7
331
203B9
  5
1E9D8
331
203BA
  5
1E9D9
331
203BB
  5
1E9EA
331
203BC
  5
1E9EC
331
203BD
  5
1E9ED
331
203BE
  5
1E9EE
331
203BF
  5
1EBF4
331
203C0
  5
1EBF6
331
203C1
  5
1EC3D
331
203C2
  5
1EC77
331
203C3
  5
1F6BD
331
203C4
  5
1F6C1
331
203C5
  5
1F6C2
331
0
  5
1E9EF
331
0
  5
1EBF1
331
0
  5
1EBF3
331
203C9
  5
1F6D5
331
203CA
  5
1F6D9
331
203CB
  5
1F6DA
331
0
  5
1F6BE
331
0
  5
1F6BF
331
0
  5
1F6C0
331
203CF
  5
1F6EC
331
203D0
  5
1F6ED
331
203D1
  5
1F6EE
331
0
  5
1F6C7
331
0
  5
1F6C8
331
0
  5
1F6C9
331
203D5
  5
1F6F6
331
203D6
  5
1F6F7
331
203D7
  5
1F6F8
331
0
  5
1F6CD
331
0
  5
1F6D0
331
0
  5
1F6D1
331
203DB
  5
1F701
331
203DC
  5
1F702
331
203DD
  5
1F703
331
0
  5
1F6D6
331
0
  5
1F6D7
331
0
  5
1F6D8
331
203E1
  5
1F70B
331
203E2
  5
1F70C
331
203E3
  5
1F70D
331
0
  5
1F6DC
331
0
  5
1F6DD
331
0
  5
1F6DE
331
203E7
  5
1F715
331
203E8
  5
1F716
331
203E9
  5
1F717
331
0
  5
1F6E2
331
0
  5
1F6E3
331
0
  5
1F6E4
331
203ED
  5
1F7C2
331
203EE
  5
1F7C3
331
203EF
  5
1F7C5
331
203F0
  5
1F7C6
331
0
  5
1F6EB
331
203F2
  5
1F7D4
331
203F3
  5
1F7D5
331
203F4
  5
1F7D6
331
203F5
  5
1F7D7
331
203F6
  5
1F7D8
331
203F7
  5
1F7D9
331
203F8
  5
1F7DB
331
203F9
  5
1F7E1
331
203FA
  5
1F7E2
331
203FB
  5
1F7E3
331
203FC
  5
1F7E4
331
203FD
  5
1F7E5
331
203FE
  5
1F7E6
331
203FF
  5
1F7E7
331
20400
  5
1F7E8
331
20401
  5
1F7E9
331
20402
  5
1F7EA
331
20403
  5
1F7EB
331
20404
  5
1F7EC
331
20405
  5
1F7ED
331
20406
  5
1F7EE
331
20407
  5
1F7EF
331
20408
  5
1F7F0
331
20409
  5
1F7F1
331
2040A
  5
1F7F2
331
2040B
  5
1F7F3
331
2040C
  5
1F7F4
331
2040D
  5
1F7F5
331
2040E
  5
1F7F6
331
2040F
  5
1F7F7
331
20410
  5
1F7F8
331
20411
  5
1F7F9
331
20412
  5
1F7FB
331
20413
  5
1F7FC
331
20414
  5
1F7FD
331
20415
  5
1F7FE
331
20416
  5
1F7FF
331
20417
  5
1F800
331
20418
  5
1F801
331
20419
  5
1F802
331
2041A
  5
1F803
331
2041B
  5
1F804
331
2041C
  5
1F805
331
2041D
  5
1F806
331
2041E
  5
1F807
331
2041F
  5
1F808
331
20420
  5
1F809
331
20421
  5
1F80A
331
20422
  5
1F80B
331
20423
  5
1F80C
331
20424
  5
1F80D
331
20425
  5
1F80E
331
20426
  5
1F80F
331
20427
  5
1F810
331
20428
  5
1F811
331
20429
  5
1F812
331
2042A
  5
1F813
331
2042B
  5
1F814
331
2042C
  5
1F82A
331
2042D
  5
1F82B
331
2042E
  5
1F87B
331
2042F
  5
1F87C
331
20430
  5
1F87D
331
20431
  5
1F87E
331
20432
  5
1F87F
331
20433
  5
1F880
331
20434
  5
1F881
331
20435
  5
1F882
331
20436
  5
1F883
331
20437
  5
1F884
331
20438
  5
1F885
331
20439
  5
1F886
331
2043A
  5
1F887
331
2043B
  5
1F888
331
2043C
  5
1F889
331
2043D
  5
1F88A
331
2043E
  5
1F88B
331
2043F
  5
1F88C
331
20440
  5
1F88D
331
20441
  5
1F88E
331
20442
  5
1F88F
331
20443
  5
1F895
331
20444
  5
1F896
331
20445
  5
1F897
331
20446
  5
1F898
331
20447
  5
1F899
331
20448
  5
203B0
331
20449
  5
203B1
331
2044A
  5
203B2
331
2044B
  5
203B3
331
2044C
  5
203B4
331
2044D
  5
203B5
331
2044E
  5
203B6
331
2044F
  5
203B7
331
20450
  5
203B8
331
20451
  5
203B9
331
20452
  5
203BA
331
20453
  5
203BB
331
20454
  5
203BC
331
20455
  5
203BD
331
20456
  5
203BE
331
20457
  5
203BF
331
20458
  5
203C0
331
20459
  5
203C1
331
2045A
  5
203C2
331
2045B
  5
203C3
331
2045C
  5
203C4
331
2045D
  5
203C5
331
2045E
  5
203C6
331
2045F
  5
203C7
331
20460
  5
203C8
331
20461
  5
203C9
331
20462
  5
203CA
331
20463
  5
203CB
331
20464
  5
203CC
331
20465
  5
203CD
331
20466
  5
203CE
331
20467
  5
203CF
331
20468
  5
203D0
331
20469
  5
203D1
331
2046A
  5
203D2
331
2046B
  5
203D3
331
2046C
  5
203D4
331
2046D
  5
203D5
331
2046E
  5
203D6
331
2046F
  5
203D7
331
20470
  5
203D8
331
20471
  5
203D9
331
20472
  5
203DA
331
20473
  5
203DB
331
20474
  5
203DC
331
20475
  5
203DD
331
20476
  5
203DE
331
20477
  5
203DF
331
20478
  5
203E0
331
20479
  5
203E1
331
2047A
  5
203E2
331
2047B
  5
203E3
331
2047C
  5
203E4
331
2047D
  5
203E5
331
2047E
  5
203E6
331
2047F
  5
203E7
331
20480
  5
203E8
331
20481
  5
203E9
331
20482
  5
203EA
331
20483
  5
203EB
331
20484
  5
203EC
331
20485
  5
203ED
331
20486
  5
203EE
331
20487
  5
203EF
331
20488
  5
203F0
331
20489
  5
203F1
331
2048A
  5
203F2
331
2048B
  5
203F3
331
2048C
  5
203F4
331
2048D
  5
203FA
331
2048E
  5
203FB
331
2048F
  5
203FC
331
20490
  5
203FD
331
20491
  5
203FE
331
20492
  5
203FF
331
20493
  5
20400
331
20494
  5
20401
331
20495
  5
20402
331
20496
  5
20403
331
20497
  5
20404
331
20498
  5
20405
331
20499
  5
20406
331
2049A
  5
20407
331
2049B
  5
20408
331
2049C
  5
20409
331
2049D
  5
2040A
331
2049E
  5
2040B
331
2049F
  5
2040C
331
204A0
  5
2040D
331
204A1
  5
2040E
331
204A2
  5
2040F
331
204A3
  5
20410
331
204A4
  5
20411
331
204A5
  5
20412
331
204A6
  5
20413
331
204A7
  5
20414
331
204A8
  5
20415
331
204A9
  5
20416
331
204AA
  5
20417
331
204AB
  5
20418
331
204AC
  5
20419
331
204AD
  5
2041A
331
204AE
  5
2041B
331
204AF
  5
2041C
331
204B0
  5
2041D
331
204B1
  5
2041E
331
204B2
  5
2041F
331
204B3
  5
20420
331
204B4
  5
20421
331
204B5
  5
20422
331
204B6
  5
20423
331
204B7
  5
20424
331
204B8
  5
20425
331
204B9
  5
20426
331
204BA
  5
20427
331
204BB
  5
20428
331
204BC
  5
20429
331
204BD
  5
2042A
331
204BE
  5
2042B
331
204BF
  5
2042C
331
204C0
  5
2042D
331
204C1
  5
2042E
331
204C2
  5
2042F
331
204C3
  5
20430
331
204C4
  5
20431
331
204C5
  5
20432
331
204C6
  5
20433
331
204C7
  5
20434
331
204C8
  5
20435
331
204C9
  5
20436
331
204CA
  5
20437
331
204CB
  5
20438
331
204CC
  5
20439
331
204CD
  5
2043A
331
204CE
  5
2043B
331
204CF
  5
2043C
331
204D0
  5
2043D
331
204D1
  5
2043E
331
204D2
  5
2043F
331
204D3
  5
20440
331
204D4
  5
20441
331
204D5
  5
20442
331
204D6
  5
20443
331
204D7
  5
20449
331
204D8
  5
2044A
331
204D9
  5
2044B
331
204DA
  5
2044C
331
204DB
  5
2044D
331
204DC
  5
2044E
331
204DD
  5
2044F
331
204DE
  5
20450
331
204DF
  5
20451
331
204E0
  5
20452
331
204E1
  5
20453
331
204E2
  5
20457
331
204E3
  5
20458
331
204E4
  5
20459
331
204E5
  5
2045A
331
204E6
  5
2045B
331
204E7
  5
2045C
331
204E8
  5
2045D
331
204E9
  5
2045E
331
204EA
  5
2045F
331
204EB
  5
20460
331
204EC
  5
20461
331
204ED
  5
20462
331
204EE
  5
20463
331
204EF
  5
20464
331
204F0
  5
20465
331
204F1
  5
20466
331
204F2
  5
20467
331
204F3
  5
20468
331
204F4
  5
20469
331
204F5
  5
2046A
331
204F6
  5
2046B
331
204F7
  5
2046C
331
204F8
  5
2046D
331
204F9
  5
2046E
331
204FA
  5
2046F
331
204FB
  5
20470
331
204FC
  5
20471
331
204FD
  5
20472
331
204FE
  5
20473
331
204FF
  5
20474
331
20500
  5
20475
331
20501
  5
20476
331
20502
  5
20477
331
20503
  5
20478
331
20504
  5
20479
331
20505
  5
2047A
331
20506
  5
2047B
331
20507
  5
2047C
331
20508
  5
2047D
331
20509
  5
2047E
331
2050A
  5
2047F
331
2050B
  5
20480
331
2050C
  5
20481
331
2050D
  5
20482
331
2050E
  5
20483
331
2050F
  5
20484
331
20510
  5
20485
331
20511
  5
20486
331
20512
  5
20487
331
20513
  5
20488
331
20514
  5
20489
331
20515
  5
2048A
331
20516
  5
2048B
331
20517
  5
2048C
331
20518
  5
2048D
331
20519
  5
2048E
331
2051A
  5
2048F
331
2051B
  5
20490
331
2051C
  5
20491
331
2051D
  5
20492
331
2051E
  5
20493
331
2051F
  5
20494
331
20520
  5
20495
331
20521
  5
20496
331
20522
  5
20497
331
20523
  5
20498
331
0
  5
20454
331
0
  5
20455
331
0
  5
20456
331
20527
  5
20500
331
20528
  5
20501
331
20529
  5
20502
331
2052A
  5
20503
331
0
  5
204B8
331
0
  5
204B9
331
0
  5
204BA
331
2052E
  5
2055D
331
2052F
  5
2055E
331
20530
  5
2055F
331
20531
  5
20560
331
20532
  5
20561
331
20533
  5
1E7ED
331
20534
  5
1E9CF
331
20535
  5
1E9D0
331
20536
  5
1E9D1
331
20537
  5
1E9D2
331
20538
  5
1E9D4
331
20539
  5
1E9D6
331
2053A
  5
1F6C3
331
2053B
  5
1F6C4
331
2053C
  5
1F6C5
331
2053D
  5
1F6C6
331
2053E
  5
1F6CA
331
2053F
  5
1F6CB
331
20540
  5
1F6CC
331
20541
  5
1F6DB
331
20542
  5
1F6DF
331
20543
  5
1F6E0
331
20544
  5
1F6E1
331
20545
  5
1F6E5
331
20546
  5
1F6E6
331
20547
  5
1F6E7
331
20548
  5
1F6EF
331
20549
  5
1F6F0
331
2054A
  5
1F6F1
331
2054B
  5
1F6F2
331
2054C
  5
1F6F3
331
2054D
  5
1F6F4
331
2054E
  5
1F6F5
331
2054F
  5
1F6F9
331
20550
  5
1F6FA
331
20551
  5
1F6FB
331
20552
  5
1F6FC
331
20553
  5
1F6FD
331
20554
  5
1F6FE
331
20555
  5
1F6FF
331
20556
  5
1F704
331
20557
  5
1F705
331
20558
  5
1F706
331
20559
  5
1F707
331
2055A
  5
1F708
331
2055B
  5
1F709
331
2055C
  5
1F70A
331
2055D
  5
1F70E
331
2055E
  5
1F70F
331
2055F
  5
1F710
331
20560
  5
1F711
331
20561
  5
1F712
331
20562
  5
1F713
331
20563
  5
1F714
331
20564
  5
1F718
331
20565
  5
1F719
331
20566
  5
1F71A
331
20567
  5
1F71B
331
20568
  5
1F739
331
20569
  5
1F7BF
331
2056A
  5
1F7C1
331
2056B
  5
1F7C8
331
2056C
  5
1F7C9
331
2056D
  5
1F7CA
331
2056E
  5
1F7CD
331
2056F
  5
1F7CE
331
20570
  5
1F7CF
331
20571
  5
1F7D0
331
20572
  5
1F7D1
331
20573
  5
1F7D2
331
20574
  5
1F7D3
331
20575
  5
20499
331
20576
  5
2049A
331
20577
  5
2049B
331
20578
  5
2049C
331
20579
  5
2049D
331
2057A
  5
2049E
331
2057B
  5
2049F
331
2057C
  5
20504
331
2057D
  5
20505
331
2057E
  5
20506
331
2057F
  5
20507
331
20580
  5
20508
331
20581
  5
20509
331
20582
  5
2050A
  0
SORTENTSTABLE
  5
59C
102
{ACAD_REACTORS
330
59B
102
}
330
59B
100
AcDbSortentsTable
330
15
331
57
  5
57
331
0
  5
70
  0
GROUP
  5
1E7BB
102
{ACAD_REACTORS
330
D
102
}
330
D
100
AcDbGroup
300

 70
     1
 71
     1
340
1E7B9
340
1E7B8
340
1E7B7
340
1E7B6
340
1E7B5
  0
GROUP
  5
1E9D3
102
{ACAD_REACTORS
330
D
102
}
330
D
100
AcDbGroup
300

 70
     1
 71
     1
340
1E9D1
340
1E9D0
340
1E9CF
340
1E9CE
340
1E9CD
  0
GROUP
  5
1E9F2
102
{ACAD_REACTORS
330
D
102
}
330
D
100
AcDbGroup
300

 70
     1
 71
     1
340
1E9E9
340
1E9E8
340
1E9E7
340
1E9E6
340
1E9E5
  0
GROUP
  5
1EDFD
102
{ACAD_REACTORS
330
D
102
}
330
D
100
AcDbGroup
300

 70
     1
 71
     1
340
1DBA6
340
1DBA5
340
1DBA4
  0
GROUP
  5
1EBF5
102
{ACAD_REACTORS
330
D
102
}
330
D
100
AcDbGroup
300

 70
     1
 71
     1
340
1EBF3
340
1EBF2
340
1EBF1
340
1EBF0
340
1EBEF
  0
MATERIAL
  5
19DD5
102
{ACAD_REACTORS
330
2CF
102
}
102
{ACAD_XDICTIONARY
360
20721
102
}
330
2CF
100
AcDbMaterial
  1
BYBLOCK
 72
     0
 73
     2
 43
0.0208333333333333
 43
0.0
 43
0.0
 43
0.0
 43
0.0
 43
0.0208333333333333
 43
0.0
 43
0.0
 43
0.0
 43
0.0
 43
1.0
 43
0.0
 43
0.0
 43
0.0
 43
0.0
 43
1.0
 77
     0
 78
     2
 47
0.0208333333333333
 47
0.0
 47
0.0
 47
0.0
 47
0.0
 47
0.0208333333333333
 47
0.0
 47
0.0
 47
0.0
 47
0.0
 47
1.0
 47
0.0
 47
0.0
 47
0.0
 47
0.0
 47
1.0
171
     0
172
     2
 49
0.0208333333333333
 49
0.0
 49
0.0
 49
0.0
 49
0.0
 49
0.0208333333333333
 49
0.0
 49
0.0
 49
0.0
 49
0.0
 49
1.0
 49
0.0
 49
0.0
 49
0.0
 49
0.0
 49
1.0
175
     0
176
     2
142
0.0208333333333333
142
0.0
142
0.0
142
0.0
142
0.0
142
0.0208333333333333
142
0.0
142
0.0
142
0.0
142
0.0
142
1.0
142
0.0
142
0.0
142
0.0
142
0.0
142
1.0
179
     0
270
     2
144
0.0208333333333333
144
0.0
144
0.0
144
0.0
144
0.0
144
0.0208333333333333
144
0.0
144
0.0
144
0.0
144
0.0
144
1.0
144
0.0
144
0.0
144
0.0
144
0.0
144
1.0
274
     2
147
0.0208333333333333
147
0.0
147
0.0
147
0.0
147
0.0
147
0.0208333333333333
147
0.0
147
0.0
147
0.0
147
0.0
147
1.0
147
0.0
147
0.0
147
0.0
147
0.0
147
1.0
  0
MATERIAL
  5
19DCD
102
{ACAD_REACTORS
330
2CF
102
}
102
{ACAD_XDICTIONARY
360
20723
102
}
330
2CF
100
AcDbMaterial
  1
BYLAYER
 72
     0
 73
     2
 43
0.0208333333333333
 43
0.0
 43
0.0
 43
0.0
 43
0.0
 43
0.0208333333333333
 43
0.0
 43
0.0
 43
0.0
 43
0.0
 43
1.0
 43
0.0
 43
0.0
 43
0.0
 43
0.0
 43
1.0
 77
     0
 78
     2
 47
0.0208333333333333
 47
0.0
 47
0.0
 47
0.0
 47
0.0
 47
0.0208333333333333
 47
0.0
 47
0.0
 47
0.0
 47
0.0
 47
1.0
 47
0.0
 47
0.0
 47
0.0
 47
0.0
 47
1.0
171
     0
172
     2
 49
0.0208333333333333
 49
0.0
 49
0.0
 49
0.0
 49
0.0
 49
0.0208333333333333
 49
0.0
 49
0.0
 49
0.0
 49
0.0
 49
1.0
 49
0.0
 49
0.0
 49
0.0
 49
0.0
 49
1.0
175
     0
176
     2
142
0.0208333333333333
142
0.0
142
0.0
142
0.0
142
0.0
142
0.0208333333333333
142
0.0
142
0.0
142
0.0
142
0.0
142
1.0
142
0.0
142
0.0
142
0.0
142
0.0
142
1.0
179
     0
270
     2
144
0.0208333333333333
144
0.0
144
0.0
144
0.0
144
0.0
144
0.0208333333333333
144
0.0
144
0.0
144
0.0
144
0.0
144
1.0
144
0.0
144
0.0
144
0.0
144
0.0
144
1.0
274
     2
147
0.0208333333333333
147
0.0
147
0.0
147
0.0
147
0.0
147
0.0208333333333333
147
0.0
147
0.0
147
0.0
147
0.0
147
1.0
147
0.0
147
0.0
147
0.0
147
0.0
147
1.0
  0
MATERIAL
  5
19DDD
102
{ACAD_REACTORS
330
2CF
102
}
102
{ACAD_XDICTIONARY
360
20725
102
}
330
2CF
100
AcDbMaterial
  1
GLOBAL
 72
     0
 73
     2
 43
0.0208333333333333
 43
0.0
 43
0.0
 43
0.0
 43
0.0
 43
0.0208333333333333
 43
0.0
 43
0.0
 43
0.0
 43
0.0
 43
1.0
 43
0.0
 43
0.0
 43
0.0
 43
0.0
 43
1.0
 77
     0
 78
     2
 47
0.0208333333333333
 47
0.0
 47
0.0
 47
0.0
 47
0.0
 47
0.0208333333333333
 47
0.0
 47
0.0
 47
0.0
 47
0.0
 47
1.0
 47
0.0
 47
0.0
 47
0.0
 47
0.0
 47
1.0
171
     0
172
     2
 49
0.0208333333333333
 49
0.0
 49
0.0
 49
0.0
 49
0.0
 49
0.0208333333333333
 49
0.0
 49
0.0
 49
0.0
 49
0.0
 49
1.0
 49
0.0
 49
0.0
 49
0.0
 49
0.0
 49
1.0
175
     0
176
     2
142
0.0208333333333333
142
0.0
142
0.0
142
0.0
142
0.0
142
0.0208333333333333
142
0.0
142
0.0
142
0.0
142
0.0
142
1.0
142
0.0
142
0.0
142
0.0
142
0.0
142
1.0
179
     0
270
     2
144
0.0208333333333333
144
0.0
144
0.0
144
0.0
144
0.0
144
0.0208333333333333
144
0.0
144
0.0
144
0.0
144
0.0
144
1.0
144
0.0
144
0.0
144
0.0
144
0.0
144
1.0
274
     2
147
0.0208333333333333
147
0.0
147
0.0
147
0.0
147
0.0
147
0.0208333333333333
147
0.0
147
0.0
147
0.0
147
0.0
147
1.0
147
0.0
147
0.0
147
0.0
147
0.0
147
1.0
  0
ACAD_PROXY_OBJECT
  5
19E19
102
{ACAD_REACTORS
330
19E18
102
}
330
19E18
100
AcDbZombieObject
 90
      499
 91
      512
 93
      610
310
40901902A4063FBFFFFFE000000000000002040AD7A3703D0AD73F4214DD185B99185C990000000000000104090141901A00000000000004100000000000000041025764000000000000300FC0
340
12
340
0
340
F
340
0
 94
        0
1001
ACAD_MLEADERVER
1070
     2
  0
MLINESTYLE
  5
1C
102
{ACAD_REACTORS
330
1B
102
}
330
1B
100
AcDbMlineStyle
  2
STANDARD
 70
     0
  3

 62
   256
 51
90.0
 52
90.0
 71
     2
 49
0.5
 62
   256
  6
BYLAYER
 49
-0.5
 62
   256
  6
BYLAYER
  0
ACAD_PROXY_OBJECT
  5
19DF7
102
{ACAD_REACTORS
330
19DF6
102
}
330
19DF6
100
AcDbZombieObject
 90
      499
 91
      511
 93
       41
310
903313A31580
  0
ACAD_PROXY_OBJECT
  5
19DF8
102
{ACAD_REACTORS
330
19DF6
102
}
330
19DF6
100
AcDbZombieObject
 90
      499
 91
      511
 93
      105
310
903313A324000000000000004000
  0
ACAD_PROXY_OBJECT
  5
19DF9
102
{ACAD_REACTORS
330
19DF6
102
}
330
19DF6
100
AcDbZombieObject
 90
      499
 91
      511
 93
      105
310
903313A344000000000000104000
  0
ACAD_PROXY_OBJECT
  5
19DFA
102
{ACAD_REACTORS
330
19DF6
102
}
330
19DF6
100
AcDbZombieObject
 90
      499
 91
      511
 93
      105
310
903313A354000000000000144000
  0
ACAD_PROXY_OBJECT
  5
19DFB
102
{ACAD_REACTORS
330
19DF6
102
}
330
19DF6
100
AcDbZombieObject
 90
      499
 91
      511
 93
      105
310
903313A384000000000000204000
  0
ACAD_PROXY_OBJECT
  5
19DFC
102
{ACAD_REACTORS
330
19DF6
102
}
330
19DF6
100
AcDbZombieObject
 90
      499
 91
      511
 93
      113
310
904313A31304000000000000244000
  0
ACAD_PROXY_OBJECT
  5
19DFD
102
{ACAD_REACTORS
330
19DF6
102
}
330
19DF6
100
AcDbZombieObject
 90
      499
 91
      511
 93
      113
310
904313A31364000000000000304000
  0
ACAD_PROXY_OBJECT
  5
19DFE
102
{ACAD_REACTORS
330
19DF6
102
}
330
19DF6
100
AcDbZombieObject
 90
      499
 91
      511
 93
      113
310
904313A32304000000000000344000
  0
ACAD_PROXY_OBJECT
  5
19DFF
102
{ACAD_REACTORS
330
19DF6
102
}
330
19DF6
100
AcDbZombieObject
 90
      499
 91
      511
 93
      113
310
904313A333040000000000003E4000
  0
ACAD_PROXY_OBJECT
  5
19E00
102
{ACAD_REACTORS
330
19DF6
102
}
330
19DF6
100
AcDbZombieObject
 90
      499
 91
      511
 93
      113
310
904313A34304000000000000444000
  0
ACAD_PROXY_OBJECT
  5
19E01
102
{ACAD_REACTORS
330
19DF6
102
}
330
19DF6
100
AcDbZombieObject
 90
      499
 91
      511
 93
      113
310
904313A35304000000000000494000
  0
ACAD_PROXY_OBJECT
  5
19E02
102
{ACAD_REACTORS
330
19DF6
102
}
330
19DF6
100
AcDbZombieObject
 90
      499
 91
      511
 93
      121
310
905313A3130304000000000000594000
  0
ACAD_PROXY_OBJECT
  5
19E03
102
{ACAD_REACTORS
330
19DF6
102
}
330
19DF6
100
AcDbZombieObject
 90
      499
 91
      511
 93
      105
310
903323A310000000000000010100
  0
ACAD_PROXY_OBJECT
  5
19E04
102
{ACAD_REACTORS
330
19DF6
102
}
330
19DF6
100
AcDbZombieObject
 90
      499
 91
      511
 93
      105
310
903343A310000000000000410100
  0
ACAD_PROXY_OBJECT
  5
19E05
102
{ACAD_REACTORS
330
19DF6
102
}
330
19DF6
100
AcDbZombieObject
 90
      499
 91
      511
 93
      105
310
903383A310000000000000810100
  0
ACAD_PROXY_OBJECT
  5
19E06
102
{ACAD_REACTORS
330
19DF6
102
}
330
19DF6
100
AcDbZombieObject
 90
      499
 91
      511
 93
      113
310
90431303A310000000000000910100
  0
ACAD_PROXY_OBJECT
  5
19E07
102
{ACAD_REACTORS
330
19DF6
102
}
330
19DF6
100
AcDbZombieObject
 90
      499
 91
      511
 93
      121
310
9053130303A310000000000001650100
  0
ACAD_PROXY_OBJECT
  5
19E08
102
{ACAD_REACTORS
330
19DF6
102
}
330
19DF6
100
AcDbZombieObject
 90
      499
 91
      511
 93
      257
310
90E312F31323822203D2031272D3022000000000000200FC000000000000284000
  0
ACAD_PROXY_OBJECT
  5
19E09
102
{ACAD_REACTORS
330
19DF6
102
}
330
19DF6
100
AcDbZombieObject
 90
      499
 91
      511
 93
      249
310
90D312F363422203D2031272D3022000000000000240FC000000000000284000
  0
ACAD_PROXY_OBJECT
  5
19E0A
102
{ACAD_REACTORS
330
19DF6
102
}
330
19DF6
100
AcDbZombieObject
 90
      499
 91
      511
 93
      249
310
90D312F333222203D2031272D3022000000000000280FC000000000000284000
  0
ACAD_PROXY_OBJECT
  5
19E0B
102
{ACAD_REACTORS
330
19DF6
102
}
330
19DF6
100
AcDbZombieObject
 90
      499
 91
      511
 93
      249
310
90D312F313622203D2031272D30220000000000002C0FC000000000000284000
  0
ACAD_PROXY_OBJECT
  5
19E0C
102
{ACAD_REACTORS
330
19DF6
102
}
330
19DF6
100
AcDbZombieObject
 90
      499
 91
      511
 93
      249
310
90D332F333222203D2031272D30220000000000002E0FC000000000000284000
  0
ACAD_PROXY_OBJECT
  5
19E0D
102
{ACAD_REACTORS
330
19DF6
102
}
330
19DF6
100
AcDbZombieObject
 90
      499
 91
      511
 93
      241
310
90C312F3822203D2031272D3022000000000000300FC000000000000284000
  0
ACAD_PROXY_OBJECT
  5
19E0E
102
{ACAD_REACTORS
330
19DF6
102
}
330
19DF6
100
AcDbZombieObject
 90
      499
 91
      511
 93
      249
310
90D332F313622203D2031272D3022000000000000320FC000000000000284000
  0
ACAD_PROXY_OBJECT
  5
19E0F
102
{ACAD_REACTORS
330
19DF6
102
}
330
19DF6
100
AcDbZombieObject
 90
      499
 91
      511
 93
      241
310
90C312F3422203D2031272D3022000000000000340FC000000000000284000
  0
ACAD_PROXY_OBJECT
  5
19E10
102
{ACAD_REACTORS
330
19DF6
102
}
330
19DF6
100
AcDbZombieObject
 90
      499
 91
      511
 93
      241
310
90C332F3822203D2031272D3022000000000000360FC000000000000284000
  0
ACAD_PROXY_OBJECT
  5
19E11
102
{ACAD_REACTORS
330
19DF6
102
}
330
19DF6
100
AcDbZombieObject
 90
      499
 91
      511
 93
      241
310
90C312F3222203D2031272D3022000000000000380FC000000000000284000
  0
ACAD_PROXY_OBJECT
  5
19E12
102
{ACAD_REACTORS
330
19DF6
102
}
330
19DF6
100
AcDbZombieObject
 90
      499
 91
      511
 93
      241
310
90C332F3422203D2031272D30220000000000003A0FC000000000000284000
  0
ACAD_PROXY_OBJECT
  5
19E13
102
{ACAD_REACTORS
330
19DF6
102
}
330
19DF6
100
AcDbZombieObject
 90
      499
 91
      511
 93
      161
310
90A3122203D2031272D30224000000000000284000
  0
ACAD_PROXY_OBJECT
  5
19E14
102
{ACAD_REACTORS
330
19DF6
102
}
330
19DF6
100
AcDbZombieObject
 90
      499
 91
      511
 93
      257
310
90E312D312F3222203D2031272D30220000000000003E0FC000000000000284000
  0
ACAD_PROXY_OBJECT
  5
19E15
102
{ACAD_REACTORS
330
19DF6
102
}
330
19DF6
100
AcDbZombieObject
 90
      499
 91
      511
 93
      225
310
90A3322203D2031272D302200000000000002100000000000000284000
  0
ACAD_PROXY_OBJECT
  5
19E16
102
{ACAD_REACTORS
330
19DF6
102
}
330
19DF6
100
AcDbZombieObject
 90
      499
 91
      511
 93
      225
310
90A3622203D2031272D302200000000000006100000000000000284000
  0
ACAD_PROXY_OBJECT
  5
19E17
102
{ACAD_REACTORS
330
19DF6
102
}
330
19DF6
100
AcDbZombieObject
 90
      499
 91
      511
 93
      249
310
90D31272D3022203D2031272D30220000000000000A100000000000000284000
  0
ACAD_PROXY_OBJECT
  5
19DEB
102
{ACAD_REACTORS
330
19DE5
102
}
330
19DE5
100
AcDbZombieObject
 90
      499
 91
      510
 93
      436
310
42CC9915DA5C99599C985B595049028333333333333E3BF0000000000000FB0107901411070040501600405405064090741402480A0340
1001
ACAD
1000
AcDbSavedByObjectVersion
1070
     0
  0
ACAD_PROXY_OBJECT
  5
19DED
102
{ACAD_REACTORS
330
19DE5
102
}
330
19DE5
100
AcDbZombieObject
 90
      499
 91
      510
 93
      500
310
424CD108121A5919195B90640502408333333333333E3BF0000000000000FB01079024090700405020000000000001110200405405064090740C02480A0340
1001
ACAD
1000
AcDbSavedByObjectVersion
1070
     0
  0
ACAD_PROXY_OBJECT
  5
19DEC
102
{ACAD_REACTORS
330
19DE5
102
}
330
19DE5
100
AcDbZombieObject
 90
      499
 91
      510
 93
      436
310
42CCD915DA5C99599C985B595059028333333333333E3BF0000000000000FB0107901411070040501600405405064090741402480A0340
1001
ACAD
1000
AcDbSavedByObjectVersion
1070
     0
  0
ACAD_PROXY_OBJECT
  5
19DEA
102
{ACAD_REACTORS
330
19DE5
102
}
330
19DE5
100
AcDbZombieObject
 90
      499
 91
      510
 93
      388
310
4150985CDA58D07406404333333333333E3BF0000000000000FB0107A41107004050150841D405064090741402480A0350
1001
ACAD
1000
AcDbSavedByObjectVersion
1070
     0
  0
ACAD_PROXY_OBJECT
  5
19DF1
102
{ACAD_REACTORS
330
19DE5
102
}
330
19DE5
100
AcDbZombieObject
 90
      499
 91
      510
 93
      428
310
42109C9A59DA1D195B90C409028333333333333E3BF0000000000000FB010790141107004050150841D405064090741402480A029950
1001
ACAD
1000
AcDbSavedByObjectVersion
1070
     0
  0
ACAD_PROXY_OBJECT
  5
19DF5
102
{ACAD_REACTORS
330
19DE5
102
}
330
19DE5
100
AcDbZombieObject
 90
      499
 91
      510
 93
      452
310
42D0DBDB1BDC90DA185B99D95104090240C333333333333E3BF0000000000000FB0108901411070040501508421405064090741402480A0350
1001
ACAD
1000
AcDbSavedByObjectVersion
1070
     0
  0
ACAD_PROXY_OBJECT
  5
19DEE
102
{ACAD_REACTORS
330
19DE5
102
}
330
19DE5
100
AcDbZombieObject
 90
      499
 91
      510
 93
      500
310
4290DBDB98D95C1D1D585B10940D028333333333333E3BF0000000000000FB0107902409070040501000000000000111010841D405064090740C02480A0340
1001
ACAD
1000
AcDbSavedByObjectVersion
1070
     0
  0
ACAD_PROXY_OBJECT
  5
19DF0
102
{ACAD_REACTORS
330
19DE5
102
}
330
19DE5
100
AcDbZombieObject
 90
      499
 91
      510
 93
      412
310
40D11A5B50B409028333333333333E3BF0000000000000FB010790141107004050150841D405064090741402480A02677FFFFFD0
1001
ACAD
1000
AcDbSavedByObjectVersion
1070
     0
  0
ACAD_PROXY_OBJECT
  5
1E02A
102
{ACAD_REACTORS
330
19DE5
102
}
330
19DE5
100
AcDbZombieObject
 90
      499
 91
      510
 93
      452
310
43115919D950DBDB1BDC93D999916409028333333333333E3BF0000000000000FB010790141107004050150841D405064090741402480A0350
1001
ACAD
1000
AcDbSavedByObjectVersion
1070
     0
  0
ACAD_PROXY_OBJECT
  5
19DF4
102
{ACAD_REACTORS
330
19DE5
102
}
330
19DE5
100
AcDbZombieObject
 90
      499
 91
      510
 93
      444
310
42D19858D95C185D1D195C9B90F409028333333333333E3BF0000000000000FB010790141107004050150841D405064090741402480A0350
1001
ACAD
1000
AcDbSavedByObjectVersion
1070
     0
  0
ACAD_PROXY_OBJECT
  5
19DE6
102
{ACAD_REACTORS
330
19DE5
102
}
330
19DE5
100
AcDbZombieObject
 90
      499
 91
      510
 93
      388
310
41119B185D240901404333333333333E3BF0000000000000F9010740A41107004050150841D405064090741402480A1B50
1001
ACAD
1000
AcDbSavedByObjectVersion
1070
     0
  0
ACAD_PROXY_OBJECT
  5
19DE7
102
{ACAD_REACTORS
330
19DE5
102
}
330
19DE5
100
AcDbZombieObject
 90
      499
 91
      510
 93
      476
310
43519B185D15DA5D1A115919D95CD0140901404333333333333E3BF0000000000000F9010740901411070040501600405405064090741402480A1B50
1001
ACAD
1000
AcDbSavedByObjectVersion
1070
     0
  0
ACAD_PROXY_OBJECT
  5
19DE8
102
{ACAD_REACTORS
330
19DE5
102
}
330
19DE5
100
AcDbZombieObject
 90
      499
 91
      510
 93
      412
310
41D1DBDD5C985D5910240902404333333333333E3BF0000000000000F9010740A411070040501641D405064090741402480A1B50
1001
ACAD
1000
AcDbSavedByObjectVersion
1070
     0
  0
ACAD_PROXY_OBJECT
  5
19DE9
102
{ACAD_REACTORS
330
19DE5
102
}
330
19DE5
100
AcDbZombieObject
 90
      499
 91
      510
 93
      500
310
4411DBDD5C985D5915DA5D1A115919D95CD0340902404333333333333E3BF0000000000000F9010740901411070040501600405405064090741402480A1B50
1001
ACAD
1000
AcDbSavedByObjectVersion
1070
     0
  0
ACAD_PROXY_OBJECT
  5
1FB87
102
{ACAD_REACTORS
330
19DE5
102
}
330
19DE5
100
AcDbZombieObject
 90
      499
 91
      510
 93
      476
310
41921A5919195B90640502408333333333333E33F0000000000000F901079024090700405020000000000001110200405405064090740C02480A0340
1001
ACAD
1000
AcDbSavedByObjectVersion
1070
     0
  0
ACAD_PROXY_OBJECT
  5
1E028
102
{ACAD_REACTORS
330
19DE5
102
}
330
19DE5
100
AcDbZombieObject
 90
      499
 91
      510
 93
      428
310
42529A5D1D195C93D999914409028333333333333E3BF0000000000000FB010790141107004050150A41D405064090741402480A0350
1001
ACAD
1000
AcDbSavedByObjectVersion
1070
     0
  0
ACAD_PROXY_OBJECT
  5
19DF3
102
{ACAD_REACTORS
330
19DE5
102
}
330
19DE5
100
AcDbZombieObject
 90
      499
 91
      510
 93
      444
310
42D31A5B995C185D1D195C9B90E409028333333333333E3BF0000000000000FB010790141107004050750841D405064090741402483A0350
1001
ACAD
1000
AcDbSavedByObjectVersion
1070
     0
  0
ACAD_PROXY_OBJECT
  5
1FB8D
102
{ACAD_REACTORS
330
19DE5
102
}
330
19DE5
100
AcDbZombieObject
 90
      499
 91
      510
 93
      484
310
42135BD9195B1A5B99D0A409038333333333333E33F0000000000000F901074090290700405010000000000201990108421405064090741402480A1B40
1001
ACAD
1000
AcDbSavedByObjectVersion
1070
     0
  0
ACAD_PROXY_OBJECT
  5
1E029
102
{ACAD_REACTORS
330
19DE5
102
}
330
19DE5
100
AcDbZombieObject
 90
      499
 91
      510
 93
      444
310
42D3DD995C9A185B99D3D999915409028333333333333E3BF0000000000000FB010790141107004050150941D405064090741402480A0350
1001
ACAD
1000
AcDbSavedByObjectVersion
1070
     0
  0
ACAD_PROXY_OBJECT
  5
19DEF
102
{ACAD_REACTORS
330
19DE5
102
}
330
19DE5
100
AcDbZombieObject
 90
      499
 91
      510
 93
      420
310
425499585B1A5CDD1A58D08409028333333333333E3BF0000000000000FB01079019070040501508421405064090741402480A1B40
1001
ACAD
1000
AcDbSavedByObjectVersion
1070
     0
  0
ACAD_PROXY_OBJECT
  5
1FB8C
102
{ACAD_REACTORS
330
19DE5
102
}
330
19DE5
100
AcDbZombieObject
 90
      499
 91
      510
 93
      420
310
4194DA1859195911B40902404333333333333E33F0000000000000F9010740A41107004050150800405405064090840C02480A0B40
1001
ACAD
1000
AcDbSavedByObjectVersion
1070
     0
  0
ACAD_PROXY_OBJECT
  5
1FB8B
102
{ACAD_REACTORS
330
19DE5
102
}
330
19DE5
100
AcDbZombieObject
 90
      499
 91
      510
 93
      516
310
4454DA18591959081DDA5D1A08195919D95CD1A40902404333333333333E33F0000000000000F901074090142907004050250800405405064090740C02480A0B40
1001
ACAD
1000
AcDbSavedByObjectVersion
1070
     0
  0
ACAD_PROXY_OBJECT
  5
1FB88
102
{ACAD_REACTORS
330
19DE5
102
}
330
19DE5
100
AcDbZombieObject
 90
      499
 91
      510
 93
      532
310
4394DA1859195CC81BD98811DC985E5174090240C333333333333E33F0000000000000F901079024090741D01000000000000111010841D405064090740C02480A0340
1001
ACAD
1000
AcDbSavedByObjectVersion
1070
     0
  0
ACAD_PROXY_OBJECT
  5
1FB89
102
{ACAD_REACTORS
330
19DE5
102
}
330
19DE5
100
AcDbZombieObject
 90
      499
 91
      510
 93
      476
310
41D4DAD95D18DA1E51840502408333333333333E33F0000000000000F901079024090741D01000000000000111010B41D405064090741802480A0340
1001
ACAD
1000
AcDbSavedByObjectVersion
1070
     0
  0
ACAD_PROXY_OBJECT
  5
19DF2
102
{ACAD_REACTORS
330
19DE5
102
}
330
19DE5
100
AcDbZombieObject
 90
      499
 91
      510
 93
      412
310
41D51A1A58DAD95B90D409028333333333333E3BF0000000000000FB010790141107004050150C41D405064090741402480A0350
1001
ACAD
1000
AcDbSavedByObjectVersion
1070
     0
  0
ACAD_PROXY_OBJECT
  5
1FB86
102
{ACAD_REACTORS
330
19DE5
102
}
330
19DE5
100
AcDbZombieObject
 90
      499
 91
      510
 93
      420
310
4255DA5C99599C985B595059028333333333333E33F0000000000000F90107901411070040501600405405064090740C02480A0340
1001
ACAD
1000
AcDbSavedByObjectVersion
1070
     0
  0
ACAD_PROXY_OBJECT
  5
1FB8A
102
{ACAD_REACTORS
330
19DE5
102
}
330
19DE5
100
AcDbZombieObject
 90
      499
 91
      510
 93
      404
310
41560B54985E51940902404000000000000E03F0000000000000F9010740501907004050150841D405064090740C02480A1B40
1001
ACAD
1000
AcDbSavedByObjectVersion
1070
     0
  0
XRECORD
  5
20584
102
{ACAD_REACTORS
330
20583
102
}
330
20583
100
AcDbXrecord
340
2D0
  0
XRECORD
  5
20585
102
{ACAD_REACTORS
330
20583
102
}
330
20583
100
AcDbXrecord
340
2CF
  0
DICTIONARYVAR
  5
1AC1A
102
{ACAD_REACTORS
330
37
102
}
330
37
100
DictionaryVariables
280
     0
  1
1:1
  0
DICTIONARYVAR
  5
1AC19
102
{ACAD_REACTORS
330
37
102
}
330
37
100
DictionaryVariables
280
     0
  1
Standard
  0
DICTIONARYVAR
  5
4F1
102
{ACAD_REACTORS
330
37
102
}
330
37
100
DictionaryVariables
280
     0
  1
Standard
  0
DICTIONARYVAR
  5
38
102
{ACAD_REACTORS
330
37
102
}
330
37
100
DictionaryVariables
280
     0
  1
-1
  0
DICTIONARYVAR
  5
408
102
{ACAD_REACTORS
330
37
102
}
330
37
100
DictionaryVariables
280
     0
  1
2
  0
DICTIONARYVAR
  5
1891
102
{ACAD_REACTORS
330
37
102
}
330
37
100
DictionaryVariables
280
     0
  1
1
  0
DICTIONARYVAR
  5
1AC1C
102
{ACAD_REACTORS
330
37
102
}
330
37
100
DictionaryVariables
280
     0
  1
0
  0
DICTIONARYVAR
  5
1895
102
{ACAD_REACTORS
330
37
102
}
330
37
100
DictionaryVariables
280
     0
  1
8
  0
DICTIONARYVAR
  5
1894
102
{ACAD_REACTORS
330
37
102
}
330
37
100
DictionaryVariables
280
     0
  1
1
  0
DICTIONARYVAR
  5
1FB8F
102
{ACAD_REACTORS
330
37
102
}
330
37
100
DictionaryVariables
280
     0
  1
0
  0
DICTIONARYVAR
  5
1892
102
{ACAD_REACTORS
330
37
102
}
330
37
100
DictionaryVariables
280
     0
  1
8
  0
DICTIONARYVAR
  5
1893
102
{ACAD_REACTORS
330
37
102
}
330
37
100
DictionaryVariables
280
     0
  1
2
  0
DICTIONARYVAR
  5
409
102
{ACAD_REACTORS
330
37
102
}
330
37
100
DictionaryVariables
280
     0
  1

  0
DICTIONARYVAR
  5
1AC1B
102
{ACAD_REACTORS
330
37
102
}
330
37
100
DictionaryVariables
280
     0
  1
127
  0
DICTIONARYVAR
  5
1FB85
102
{ACAD_REACTORS
330
37
102
}
330
37
100
DictionaryVariables
280
     0
  1
2
  0
DICTIONARY
  5
20721
330
19DD5
100
AcDbDictionary
  3
ACAD_XREC_ROUNDTRIP
360
20722
1001
ACAD
1000
TREAT_AS_HARD
1070
     1
  0
DICTIONARY
  5
20723
330
19DCD
100
AcDbDictionary
  3
ACAD_XREC_ROUNDTRIP
360
20724
1001
ACAD
1000
TREAT_AS_HARD
1070
     1
  0
DICTIONARY
  5
20725
330
19DDD
100
AcDbDictionary
  3
ACAD_XREC_ROUNDTRIP
360
20726
1001
ACAD
1000
TREAT_AS_HARD
1070
     1
  0
XRECORD
  5
20722
102
{ACAD_REACTORS
330
20721
102
}
330
20721
100
AcDbXrecord
102
MATERIAL
148
0.0
149
0.0
149
0.0
 93
        0
 94
      127
282
     0
 72
     0
 77
     0
171
     0
175
     0
179
     0
273
     0
  0
XRECORD
  5
20724
102
{ACAD_REACTORS
330
20723
102
}
330
20723
100
AcDbXrecord
102
MATERIAL
148
0.0
149
0.0
149
0.0
 93
        0
 94
      127
282
     0
 72
     0
 77
     0
171
     0
175
     0
179
     0
273
     0
  0
XRECORD
  5
20726
102
{ACAD_REACTORS
330
20725
102
}
330
20725
100
AcDbXrecord
102
MATERIAL
148
0.0
149
0.0
149
0.0
 93
        0
 94
      127
282
     0
 72
     0
 77
     0
171
     0
175
     0
179
     0
273
     0
  0
ENDSEC
  0
EOF
