  0
SECTION
  2
HEADER
  9
$ACADVER
  1
AC1012
  9
$DWGCODEPAGE
  3
ansi_932
  9
$INSBASE
 10
0.0
 20
0.0
 30
0.0
  9
$EXTMIN
 10
358.1621140501056
 20
-450.0337478301418
 30
0.0
  9
$EXTMAX
 10
723.6621143708508
 20
-257.4203606291584
 30
0.0
  9
$LIMMIN
 10
0.0
 20
0.0
  9
$LIMMAX
 10
420.0
 20
297.0
  9
$ORTHOMODE
 70
     0
  9
$REGENMODE
 70
     1
  9
$FILLMODE
 70
     1
  9
$QTEXTMODE
 70
     0
  9
$MIRRTEXT
 70
     0
  9
$DRAGMODE
 70
     2
  9
$LTSCALE
 40
0.5
  9
$OSMODE
 70
 14591
  9
$ATTMODE
 70
     1
  9
$TEXTSIZE
 40
4.0
  9
$TRACEWID
 40
1.0
  9
$TEXTSTYLE
  7
STANDARD
  9
$CLAYER
  8
1TEXT
  9
$CELTYPE
  6
BYLAYER
  9
$CECOLOR
 62
   256
  9
$CELTSCALE
 40
1.0
  9
$DELOBJ
 70
     1
  9
$DISPSILH
 70
     0
  9
$DIMSCALE
 40
1.0
  9
$DIMASZ
 40
2.0
  9
$DIMEXO
 40
0.0
  9
$DIMDLI
 40
7.0
  9
$DIMRND
 40
0.0
  9
$DIMDLE
 40
0.0
  9
$DIMEXE
 40
1.0
  9
$DIMTP
 40
0.0
  9
$DIMTM
 40
0.0
  9
$DIMTXT
 40
3.5
  9
$DIMCEN
 40
0.0
  9
$DIMTSZ
 40
0.0
  9
$DIMTOL
 70
     0
  9
$DIMLIM
 70
     0
  9
$DIMTIH
 70
     0
  9
$DIMTOH
 70
     0
  9
$DIMSE1
 70
     0
  9
$DIMSE2
 70
     0
  9
$DIMTAD
 70
     1
  9
$DIMZIN
 70
     8
  9
$DIMBLK
  1

  9
$DIMASO
 70
     1
  9
$DIMSHO
 70
     1
  9
$DIMPOST
  1
 
  9
$DIMAPOST
  1

  9
$DIMALT
 70
     0
  9
$DIMALTD
 70
     2
  9
$DIMALTF
 40
25.4
  9
$DIMLFAC
 40
1.0
  9
$DIMTOFL
 70
     1
  9
$DIMTVP
 40
0.0
  9
$DIMTIX
 70
     0
  9
$DIMSOXD
 70
     0
  9
$DIMSAH
 70
     1
  9
$DIMBLK1
  1
OPEN30
  9
$DIMBLK2
  1
OPEN30
  9
$DIMSTYLE
  2
NEWX10
  9
$DIMCLRD
 70
   256
  9
$DIMCLRE
 70
   256
  9
$DIMCLRT
 70
   201
  9
$DIMTFAC
 40
0.7
  9
$DIMGAP
 40
0.7
  9
$DIMJUST
 70
     0
  9
$DIMSD1
 70
     0
  9
$DIMSD2
 70
     0
  9
$DIMTOLJ
 70
     1
  9
$DIMTZIN
 70
     8
  9
$DIMALTZ
 70
     0
  9
$DIMALTTZ
 70
     0
  9
$DIMFIT
 70
     3
  9
$DIMUPT
 70
     0
  9
$DIMUNIT
 70
     2
  9
$DIMDEC
 70
     2
  9
$DIMTDEC
 70
     4
  9
$DIMALTU
 70
     2
  9
$DIMALTTD
 70
     2
  9
$DIMTXSTY
  7
STANDARD
  9
$DIMAUNIT
 70
     0
  9
$LUNITS
 70
     2
  9
$LUPREC
 70
     4
  9
$SKETCHINC
 40
1.0
  9
$FILLETRAD
 40
0.0
  9
$AUNITS
 70
     0
  9
$AUPREC
 70
     2
  9
$MENU
  1
acad
  9
$ELEVATION
 40
0.0
  9
$PELEVATION
 40
0.0
  9
$THICKNESS
 40
0.0
  9
$LIMCHECK
 70
     0
  9
$CHAMFERA
 40
1.0
  9
$CHAMFERB
 40
1.0
  9
$CHAMFERC
 40
20.0
  9
$CHAMFERD
 40
0.0
  9
$SKPOLY
 70
     0
  9
$TDCREATE
 40
2453033.732663484
  9
$TDUPDATE
 40
2458277.545255798
  9
$TDINDWG
 40
2.4041000926
  9
$TDUSRTIMER
 40
2.4041000926
  9
$USRTIMER
 70
     1
  9
$ANGBASE
 50
0.0
  9
$ANGDIR
 70
     0
  9
$PDMODE
 70
     0
  9
$PDSIZE
 40
0.0
  9
$PLINEWID
 40
0.0
  9
$COORDS
 70
     2
  9
$SPLFRAME
 70
     0
  9
$SPLINETYPE
 70
     6
  9
$SPLINESEGS
 70
     8
  9
$ATTDIA
 70
     0
  9
$ATTREQ
 70
     1
  9
$HANDLING
 70
     1
  9
$HANDSEED
  5
22E98
  9
$SURFTAB1
 70
     6
  9
$SURFTAB2
 70
     6
  9
$SURFTYPE
 70
     6
  9
$SURFU
 70
     6
  9
$SURFV
 70
     6
  9
$UCSNAME
  2

  9
$UCSORG
 10
0.0
 20
0.0
 30
0.0
  9
$UCSXDIR
 10
1.0
 20
0.0
 30
0.0
  9
$UCSYDIR
 10
0.0
 20
1.0
 30
0.0
  9
$PUCSNAME
  2

  9
$PUCSORG
 10
0.0
 20
0.0
 30
0.0
  9
$PUCSXDIR
 10
1.0
 20
0.0
 30
0.0
  9
$PUCSYDIR
 10
0.0
 20
1.0
 30
0.0
  9
$USERI1
 70
     0
  9
$USERI2
 70
     0
  9
$USERI3
 70
     0
  9
$USERI4
 70
     0
  9
$USERI5
 70
     0
  9
$USERR1
 40
0.0
  9
$USERR2
 40
0.0
  9
$USERR3
 40
0.0
  9
$USERR4
 40
0.0
  9
$USERR5
 40
0.0
  9
$WORLDVIEW
 70
     1
  9
$SHADEDGE
 70
     3
  9
$SHADEDIF
 70
    70
  9
$TILEMODE
 70
     1
  9
$MAXACTVP
 70
    48
  9
$PINSBASE
 10
0.0
 20
0.0
 30
0.0
  9
$PLIMCHECK
 70
     0
  9
$PEXTMIN
 10
1.000000000000000E+20
 20
1.000000000000000E+20
 30
1.000000000000000E+20
  9
$PEXTMAX
 10
-1.000000000000000E+20
 20
-1.000000000000000E+20
 30
-1.000000000000000E+20
  9
$PLIMMIN
 10
0.0
 20
0.0
  9
$PLIMMAX
 10
420.0
 20
297.0
  9
$UNITMODE
 70
     0
  9
$VISRETAIN
 70
     1
  9
$PLINEGEN
 70
     0
  9
$PSLTSCALE
 70
     1
  9
$TREEDEPTH
 70
  3020
  9
$PICKSTYLE
 70
     1
  9
$CMLSTYLE
  2
STANDARD
  9
$CMLJUST
 70
     0
  9
$CMLSCALE
 40
20.0
  9
$SAVEIMAGES
 70
     1
  0
ENDSEC
  0
SECTION
  2
CLASSES
  0
CLASS
  1
DICTIONARYVAR
  2
AcDbDictionaryVar
  3
ObjectDBX Classes
 90
        0
280
     0
281
     0
  0
CLASS
  1
IDBUFFER
  2
AcDbIdBuffer
  3
ObjectDBX Classes
 90
    32768
280
     0
281
     0
  0
CLASS
  1
LWPOLYLINE
  2
AcDbPolyline
  3
ObjectDBX Classes
 90
    32768
280
     0
281
     1
  0
CLASS
  1
ACDBDICTIONARYWDFLT
  2
AcDbDictionaryWithDefault
  3
ObjectDBX Classes
 90
    32768
280
     0
281
     0
  0
CLASS
  1
ACDBPLACEHOLDER
  2
AcDbPlaceHolder
  3
ObjectDBX Classes
 90
        0
280
     0
281
     0
  0
CLASS
  1
LAYOUT
  2
AcDbLayout
  3
ObjectDBX Classes
 90
        0
280
     0
281
     0
  0
CLASS
  1
TABLESTYLE
  2
AcDbTableStyle
  3
ObjectDBX Classes
 90
     4095
280
     0
281
     0
  0
CLASS
  1
SORTENTSTABLE
  2
AcDbSortentsTable
  3
ObjectDBX Classes
 90
    32768
280
     0
281
     0
  0
CLASS
  1
DIMASSOC
  2
AcDbDimAssoc
  3
"AcDbDimAssoc|Product Desc:     AcDim ARX App For Dimension|Company:          Autodesk, Inc.|WEB Address:      www.autodesk.com"
 90
        0
280
     0
281
     0
  0
CLASS
  1
MATERIAL
  2
AcDbMaterial
  3
ObjectDBX Classes
 90
     1153
280
     0
281
     0
  0
CLASS
  1
VISUALSTYLE
  2
AcDbVisualStyle
  3
ObjectDBX Classes
 90
     4095
280
     0
281
     0
  0
CLASS
  1
SCALE
  2
AcDbScale
  3
ObjectDBX Classes
 90
     1153
280
     0
281
     0
  0
CLASS
  1
MLEADERSTYLE
  2
AcDbMLeaderStyle
  3
ACDB_MLEADERSTYLE_CLASS
 90
     4095
280
     0
281
     0
  0
CLASS
  1
CELLSTYLEMAP
  2
AcDbCellStyleMap
  3
ObjectDBX Classes
 90
     1152
280
     0
281
     0
  0
CLASS
  1
EXACXREFPANELOBJECT
  2
ExAcXREFPanelObject
  3
EXAC_ESW
 90
     1025
280
     1
281
     0
  0
CLASS
  1
NPOCOLLECTION
  2
AcDbImpNonPersistentObjectsCollection
  3
ObjectDBX Classes
 90
     1153
280
     1
281
     0
  0
CLASS
  1
SUN
  2
AcDbSun
  3
SCENEOE
 90
     1153
280
     0
281
     0
  0
CLASS
  1
XRECORD
  2
AcDbXrecord
  3
ObjectDBX Classes
 90
    32768
280
     0
281
     0
  0
CLASS
  1
HATCH
  2
AcDbHatch
  3
ObjectDBX Classes
 90
    32768
280
     0
281
     1
  0
ENDSEC
  0
SECTION
  2
TABLES
  0
TABLE
  2
VPORT
  5
8
330
0
100
AcDbSymbolTable
 70
     1
  0
VPORT
  5
19DC2
330
8
100
AcDbSymbolTableRecord
100
AcDbViewportTableRecord
  2
*ACTIVE
 70
     0
 10
0.0
 20
0.0
 11
1.0
 21
1.0
 12
540.9121142104782
 22
-353.7270542296501
 13
0.0
 23
0.0
 14
10.0
 24
10.0
 15
10.0
 25
10.0
 16
0.0
 26
0.0
 36
1.0
 17
0.0
 27
0.0
 37
0.0
 40
206.8059525736875
 41
1.905686546463245
 42
50.0
 43
0.0
 44
0.0
 50
0.0
 51
0.0
 71
    16
 72
  1000
 73
     1
 74
     1
 75
     0
 76
     0
 77
     0
 78
     0
1001
ACAD_NAV_VCDISPLAY
1070
     3
  0
ENDTAB
  0
TABLE
  2
LTYPE
  5
5
330
0
100
AcDbSymbolTable
 70
     3
  0
LTYPE
  5
12
330
5
100
AcDbSymbolTableRecord
100
AcDbLinetypeTableRecord
  2
BYBLOCK
 70
     0
  3

 72
    65
 73
     0
 40
0.0
  0
LTYPE
  5
13
330
5
100
AcDbSymbolTableRecord
100
AcDbLinetypeTableRecord
  2
BYLAYER
 70
     0
  3

 72
    65
 73
     0
 40
0.0
  0
LTYPE
  5
14
330
5
100
AcDbSymbolTableRecord
100
AcDbLinetypeTableRecord
  2
CONTINUOUS
 70
     0
  3
Solid line
 72
    65
 73
     0
 40
0.0
  0
LTYPE
  5
100
330
5
100
AcDbSymbolTableRecord
100
AcDbLinetypeTableRecord
  2
PHANTOM2
 70
     0
  3
Phantom (0.5x) ___ _ _ ___ _ _ ___ _ _ ___ _ _
 72
    65
 73
     6
 40
31.75
 49
15.875
 74
     0
 49
-3.175
 74
     0
 49
3.175
 74
     0
 49
-3.175
 74
     0
 49
3.175
 74
     0
 49
-3.175
 74
     0
  0
LTYPE
  5
217F6
330
5
100
AcDbSymbolTableRecord
100
AcDbLinetypeTableRecord
  2
CENTER2
 70
     0
  3
Center (.5x) ___ _ ___ _ ___ _ ___ _ ___ _ ___
 72
    65
 73
     4
 40
28.575
 49
19.05
 74
     0
 49
-3.175
 74
     0
 49
3.175
 74
     0
 49
-3.175
 74
     0
  0
ENDTAB
  0
TABLE
  2
LAYER
  5
2
102
{ACAD_XDICTIONARY
360
18FE8
102
}
330
0
100
AcDbSymbolTable
 70
     7
  0
LAYER
  5
E
102
{ACAD_XDICTIONARY
360
1A20A
102
}
330
2
100
AcDbSymbolTableRecord
100
AcDbLayerTableRecord
  2
0
 70
     0
 62
     7
  6
CONTINUOUS
  0
LAYER
  5
29
102
{ACAD_XDICTIONARY
360
1A20C
102
}
330
2
100
AcDbSymbolTableRecord
100
AcDbLayerTableRecord
  2
1CENTER
 70
     0
 62
     7
  6
CENTER2
  0
LAYER
  5
31
102
{ACAD_XDICTIONARY
360
1A20E
102
}
330
2
100
AcDbSymbolTableRecord
100
AcDbLayerTableRecord
  2
1TEXT
 70
     0
 62
     7
  6
CONTINUOUS
  0
LAYER
  5
101
102
{ACAD_XDICTIONARY
360
1A218
102
}
330
2
100
AcDbSymbolTableRecord
100
AcDbLayerTableRecord
  2
1DIM
 70
     0
 62
     7
  6
CONTINUOUS
  0
LAYER
  5
103
102
{ACAD_XDICTIONARY
360
1A21C
102
}
330
2
100
AcDbSymbolTableRecord
100
AcDbLayerTableRecord
  2
1PHANTOM
 70
     0
 62
     7
  6
PHANTOM2
  0
LAYER
  5
21114
330
2
100
AcDbSymbolTableRecord
100
AcDbLayerTableRecord
  2
1HATCH
 70
     0
 62
     7
  6
CONTINUOUS
  0
LAYER
  5
22B67
330
2
100
AcDbSymbolTableRecord
100
AcDbLayerTableRecord
  2
01
 70
     0
 62
     1
  6
CONTINUOUS
  0
ENDTAB
  0
TABLE
  2
STYLE
  5
3
330
0
100
AcDbSymbolTable
 70
     1
  0
STYLE
  5
F
330
3
100
AcDbSymbolTableRecord
100
AcDbTextStyleTableRecord
  2
STANDARD
 70
     0
 40
0.0
 41
1.0
 50
0.0
 71
     0
 42
4.0
  3
txt.shx
  4
extfont.shx
  0
ENDTAB
  0
TABLE
  2
VIEW
  5
6
330
0
100
AcDbSymbolTable
 70
     0
  0
ENDTAB
  0
TABLE
  2
UCS
  5
7
330
0
100
AcDbSymbolTable
 70
     5
  0
UCS
  5
211A5
330
7
100
AcDbSymbolTableRecord
100
AcDbUCSTableRecord
  2
U
 70
     0
 10
0.0
 20
0.0
 30
0.0
 11
1.0
 21
0.0
 31
0.0
 12
0.0
 22
2.220446049250313E-16
 32
1.0
 79
     0
146
0.0
  0
UCS
  5
211A6
330
7
100
AcDbSymbolTableRecord
100
AcDbUCSTableRecord
  2
L
 70
     0
 10
0.0
 20
0.0
 30
0.0
 11
-2.220446049250313E-16
 21
-1.0
 31
2.220446049250313E-16
 12
0.0
 22
2.220446049250313E-16
 32
1.0
 79
     0
146
0.0
  0
UCS
  5
211A7
330
7
100
AcDbSymbolTableRecord
100
AcDbUCSTableRecord
  2
R
 70
     0
 10
0.0
 20
0.0
 30
0.0
 11
3.445092848397667E-16
 21
1.0
 31
-2.220446049250313E-16
 12
0.0
 22
2.220446049250313E-16
 32
1.0
 79
     0
146
0.0
  0
UCS
  5
211A8
330
7
100
AcDbSymbolTableRecord
100
AcDbUCSTableRecord
  2
ISOME
 70
     0
 10
0.0
 20
0.0
 30
0.0
 11
0.7071450863198265
 21
-0.7070684729403536
 31
-3.830824619466267E-5
 12
0.4082704059428734
 22
0.4082704077401151
 32
0.8164744636514736
 79
     0
146
0.0
  0
UCS
  5
211A9
330
7
100
AcDbSymbolTableRecord
100
AcDbUCSTableRecord
  2
PERSPECTIVE
 70
     0
 10
0.0
 20
0.0
 30
0.0
 11
0.8191477691768964
 21
-0.5735823260466403
 31
-0.0004974931557765462
 12
0.1584844715982971
 22
0.225502028986108
 32
0.961265575782966
 79
     0
146
0.0
  0
ENDTAB
  0
TABLE
  2
APPID
  5
9
330
0
100
AcDbSymbolTable
 70
    16
  0
APPID
  5
10
330
9
100
AcDbSymbolTableRecord
100
AcDbRegAppTableRecord
  2
ACAD
 70
     0
  0
APPID
  5
21
330
9
100
AcDbSymbolTableRecord
100
AcDbRegAppTableRecord
  2
DRAWINGVARIABLESXDATA
 70
     0
  0
APPID
  5
64
330
9
100
AcDbSymbolTableRecord
100
AcDbRegAppTableRecord
  2
CONTENTTABDATA
 70
     0
  0
APPID
  5
65
330
9
100
AcDbSymbolTableRecord
100
AcDbRegAppTableRecord
  2
CONTENTCURRENTTAB
 70
     0
  0
APPID
  5
66
330
9
100
AcDbSymbolTableRecord
100
AcDbRegAppTableRecord
  2
CONTENTBLOCKDESCRIPTION
 70
     0
  0
APPID
  5
67
330
9
100
AcDbSymbolTableRecord
100
AcDbRegAppTableRecord
  2
CONTENTBLOCKICON
 70
     0
  0
APPID
  5
68
330
9
100
AcDbSymbolTableRecord
100
AcDbRegAppTableRecord
  2
CONTENTLONGBLOCKNAME
 70
     0
  0
APPID
  5
5A9
330
9
100
AcDbSymbolTableRecord
100
AcDbRegAppTableRecord
  2
ACAD_PSEXT
 70
     0
  0
APPID
  5
18AC
330
9
100
AcDbSymbolTableRecord
100
AcDbRegAppTableRecord
  2
ACAD_DSTYLE_DIMTEXT_FILL
 70
     0
  0
APPID
  5
19E1A
330
9
100
AcDbSymbolTableRecord
100
AcDbRegAppTableRecord
  2
ACAD_MLEADERVER
 70
     0
  0
APPID
  5
1A2FA
330
9
100
AcDbSymbolTableRecord
100
AcDbRegAppTableRecord
  2
ACAD_DSTYLE_DIMRADIAL_EXTE
 70
     0
  0
APPID
  5
1DBC1
330
9
100
AcDbSymbolTableRecord
100
AcDbRegAppTableRecord
  2
ACADANNOTATIVE
 70
     0
  0
APPID
  5
1E991
330
9
100
AcDbSymbolTableRecord
100
AcDbRegAppTableRecord
  2
ACAD_EXEMPT_FROM_CAD_STAND
 70
     0
  0
APPID
  5
202C7
330
9
100
AcDbSymbolTableRecord
100
AcDbRegAppTableRecord
  2
ACDBBLOCKREPETAG
 70
     0
  0
APPID
  5
20AA7
330
9
100
AcDbSymbolTableRecord
100
AcDbRegAppTableRecord
  2
ACAD_OBJECT_CHANGE_GUID
 70
     0
  0
APPID
  5
20B32
330
9
100
AcDbSymbolTableRecord
100
AcDbRegAppTableRecord
  2
ACAD_NAV_VCDISPLAY
 70
     0
  0
ENDTAB
  0
TABLE
  2
DIMSTYLE
  5
A
330
0
100
AcDbSymbolTable
 70
     1
  0
DIMSTYLE
105
48
330
A
100
AcDbSymbolTableRecord
100
AcDbDimStyleTableRecord
  2
NEWX10
 70
     0
  3
 
  4

  5

  6
OPEN30
  7
OPEN30
 40
1.0
 41
2.0
 42
0.0
 43
7.0
 44
1.0
 45
0.0
 46
0.0
 47
0.0
 48
0.0
140
3.5
141
0.0
142
0.0
143
25.4
144
1.0
145
0.0
146
0.7
147
0.7
 71
     0
 72
     0
 73
     0
 74
     0
 75
     0
 76
     0
 77
     1
 78
     8
170
     0
171
     2
172
     1
173
     1
174
     0
175
     0
176
   256
177
   256
178
   201
179
     1
270
     2
271
     2
272
     4
273
     2
274
     2
340
F
275
     0
280
     0
281
     0
282
     0
283
     1
284
     8
285
     0
286
     0
287
     3
288
     0
  0
ENDTAB
  0
TABLE
  2
BLOCK_RECORD
  5
1
330
0
100
AcDbSymbolTable
 70
     8
  0
BLOCK_RECORD
  5
18
102
{ACAD_XDICTIONARY
360
6E9
102
}
330
1
100
AcDbSymbolTableRecord
100
AcDbBlockTableRecord
  2
*MODEL_SPACE
  0
BLOCK_RECORD
  5
15
102
{ACAD_XDICTIONARY
360
59B
102
}
330
1
100
AcDbSymbolTableRecord
100
AcDbBlockTableRecord
  2
*PAPER_SPACE
  0
BLOCK_RECORD
  5
42
330
1
100
AcDbSymbolTableRecord
100
AcDbBlockTableRecord
  2
_OPEN30
  0
BLOCK_RECORD
  5
20316
330
1
100
AcDbSymbolTableRecord
100
AcDbBlockTableRecord
  2
A3WAKUKAWAJUN2017_HYOUDAI_
  0
BLOCK_RECORD
  5
22CF8
330
1
100
AcDbSymbolTableRecord
100
AcDbBlockTableRecord
  2
*X120
  0
BLOCK_RECORD
  5
22D46
330
1
100
AcDbSymbolTableRecord
100
AcDbBlockTableRecord
  2
*X121
  0
BLOCK_RECORD
  5
22D98
330
1
100
AcDbSymbolTableRecord
100
AcDbBlockTableRecord
  2
*X122
  0
BLOCK_RECORD
  5
22DE9
330
1
100
AcDbSymbolTableRecord
100
AcDbBlockTableRecord
  2
*X123
  0
BLOCK_RECORD
  5
22E26
330
1
100
AcDbSymbolTableRecord
100
AcDbBlockTableRecord
  2
*X124
  0
BLOCK_RECORD
  5
22E66
330
1
100
AcDbSymbolTableRecord
100
AcDbBlockTableRecord
  2
*X125
  0
ENDTAB
  0
ENDSEC
  0
SECTION
  2
BLOCKS
  0
BLOCK
  5
19
330
18
100
AcDbEntity
  8
0
100
AcDbBlockBegin
  2
*MODEL_SPACE
 70
     0
 10
0.0
 20
0.0
 30
0.0
  3
*MODEL_SPACE
  1

  0
ENDBLK
  5
1A
330
18
100
AcDbEntity
  8
0
100
AcDbBlockEnd
  0
BLOCK
  5
16
330
15
100
AcDbEntity
 67
     1
  8
0
100
AcDbBlockBegin
  2
*PAPER_SPACE
 70
     0
 10
0.0
 20
0.0
 30
0.0
  3
*PAPER_SPACE
  1

  0
ENDBLK
  5
17
330
15
100
AcDbEntity
 67
     1
  8
0
100
AcDbBlockEnd
  0
BLOCK
  5
43
330
42
100
AcDbEntity
  8
0
100
AcDbBlockBegin
  2
_OPEN30
 70
     0
 10
0.0
 20
0.0
 30
0.0
  3
_OPEN30
  1

  0
LINE
  5
44
330
42
100
AcDbEntity
  8
0
  6
BYBLOCK
 62
     0
100
AcDbLine
 10
-1.0
 20
0.26794919
 30
0.0
 11
0.0
 21
0.0
 31
0.0
  0
LINE
  5
45
330
42
100
AcDbEntity
  8
0
  6
BYBLOCK
 62
     0
100
AcDbLine
 10
0.0
 20
0.0
 30
0.0
 11
-1.0
 21
-0.26794919
 31
0.0
  0
LINE
  5
46
330
42
100
AcDbEntity
  8
0
  6
BYBLOCK
 62
     0
100
AcDbLine
 10
0.0
 20
0.0
 30
0.0
 11
-1.0
 21
0.0
 31
0.0
  0
ENDBLK
  5
47
330
42
100
AcDbEntity
  8
0
100
AcDbBlockEnd
  0
BLOCK
  5
20A15
330
20316
100
AcDbEntity
  8
0
100
AcDbBlockBegin
  2
A3WAKUKAWAJUN2017_HYOUDAI_
 70
     0
 10
0.0
 20
0.0
 30
0.0
  3
A3WAKUKAWAJUN2017_HYOUDAI_
  1

  0
LINE
  5
20318
330
20316
100
AcDbEntity
  8
0
100
AcDbLine
 10
13.26299999998673
 20
-0.0001000000000317
 30
0.0
 11
9.236999999990758
 21
8.999899999990987
 31
0.0
1001
ACAD
1000
ASC_BOUNDS
1002
{
1070
    19
1005
20359
1002
}
  0
LINE
  5
20319
330
20316
100
AcDbEntity
  8
0
100
AcDbLine
 10
5.657999999994331
 20
0.9999999999989768
 30
0.0
 11
9.236999999990758
 21
8.999999999991019
 31
0.0
1001
ACAD
1000
ASC_BOUNDS
1002
{
1070
    19
1005
20359
1002
}
  0
LINE
  5
2031A
330
20316
100
AcDbEntity
  8
0
100
AcDbLine
 10
18.59199999998134
 20
-0.2368999999997641
 30
0.0
 11
16.46099999998353
 21
5.432899999994561
 31
0.0
1001
ACAD
1000
ASC_BOUNDS
1002
{
1070
    19
1005
2035A
1002
}
  0
LINE
  5
2031B
330
20316
100
AcDbEntity
  8
0
100
AcDbLine
 10
18.59199999998134
 20
-0.2368999999997641
 30
0.0
 11
22.38199999997767
 21
8.763099999991255
 31
0.0
1001
ACAD
1000
ASC_BOUNDS
1002
{
1070
    19
1005
2035A
1002
}
  0
LINE
  5
2031C
330
20316
100
AcDbEntity
  8
0
100
AcDbLine
 10
14.32899999998563
 20
-0.2368999999997641
 30
0.0
 11
16.46099999998353
 21
5.432899999994561
 31
0.0
1001
ACAD
1000
ASC_BOUNDS
1002
{
1070
    19
1005
2035A
1002
}
  0
LINE
  5
2031D
330
20316
100
AcDbEntity
  8
0
100
AcDbLine
 10
14.32899999998563
 20
-0.2368999999997641
 30
0.0
 11
10.53899999998941
 21
8.763099999991255
 31
0.0
1001
ACAD
1000
ASC_BOUNDS
1002
{
1070
    19
1005
2035A
1002
}
  0
LINE
  5
2031E
330
20316
100
AcDbEntity
  8
0
100
AcDbLine
 10
19.53899999998043
 20
-0.0001000000000317
 30
0.0
 11
23.56599999997638
 21
8.999899999990987
 31
0.0
1001
ACAD
1000
ASC_BOUNDS
1002
{
1070
    19
1005
2035B
1002
}
  0
LINE
  5
2031F
330
20316
100
AcDbEntity
  8
0
100
AcDbLine
 10
26.97358892824991
 20
1.383099999991202
 30
0.0
 11
23.56599999997638
 21
8.999899999990987
 31
0.0
1001
ACAD
1000
ASC_BOUNDS
1002
{
1070
    19
1005
2035B
1002
}
  0
LINE
  5
20320
330
20316
100
AcDbEntity
  8
0
100
AcDbLine
 10
5.657999999994331
 20
0.9999999999989768
 30
0.0
 11
3.181999999996833
 21
4.668599999995308
 31
0.0
1001
ACAD
1000
ASC_BOUNDS
1002
{
1070
    19
1005
20359
1002
}
  0
LINE
  5
20321
330
20316
100
AcDbEntity
  8
0
100
AcDbLine
 10
4.617999999995391
 20
-0.0001000000000317
 30
0.0
 11
1.420999999998571
 21
4.736799999995242
 31
0.0
1001
ACAD
1000
ASC_BOUNDS
1002
{
1070
    19
1005
20359
1002
}
  0
LINE
  5
20322
330
20316
100
AcDbEntity
  8
0
100
AcDbLine
 10
1.420999999998571
 20
8.763099999991255
 30
0.0
 11
1.420999999998571
 21
0.0
 31
0.0
1001
ACAD
1000
ASC_BOUNDS
1002
{
1070
    19
1005
2035E
1002
}
  0
LINE
  5
20323
330
20316
100
AcDbEntity
  8
0
100
AcDbLine
 10
0.0
 20
8.763099999991255
 30
0.0
 11
0.0
 21
0.0
 31
0.0
1001
ACAD
1000
ASC_BOUNDS
1002
{
1070
    19
1005
2035E
1002
}
  0
LINE
  5
20324
330
20316
100
AcDbEntity
  8
0
100
AcDbLine
 10
6.766999999993232
 20
-0.0001000000000317
 30
0.0
 11
7.826999999992154
 21
2.368399999997621
 31
0.0
1001
ACAD
1000
ASC_BOUNDS
1002
{
1070
    19
1005
20359
1002
}
  0
LINE
  5
20325
330
20316
100
AcDbEntity
  8
0
100
AcDbLine
 10
0.0
 20
0.0
 30
0.0
 11
1.420999999998571
 21
0.0
 31
0.0
1001
ACAD
1000
ASC_BOUNDS
1002
{
1070
    19
1005
2035E
1002
}
  0
LINE
  5
20326
330
20316
100
AcDbEntity
  8
0
100
AcDbLine
 10
4.617999999995391
 20
0.0
 30
0.0
 11
6.766999999993232
 21
0.0
 31
0.0
1001
ACAD
1000
ASC_BOUNDS
1002
{
1070
    19
1005
20359
1002
}
  0
LINE
  5
20327
330
20316
100
AcDbEntity
  8
0
100
AcDbLine
 10
11.70599999998831
 20
-0.0001000000000317
 30
0.0
 11
10.64699999998936
 21
2.368399999997621
 31
0.0
1001
ACAD
1000
ASC_BOUNDS
1002
{
1070
    19
1005
20359
1002
}
  0
LINE
  5
20328
330
20316
100
AcDbEntity
  8
0
100
AcDbLine
 10
7.826999999992154
 20
2.368399999997621
 30
0.0
 11
10.64699999998936
 21
2.368399999997621
 31
0.0
1001
ACAD
1000
ASC_BOUNDS
1002
{
1070
    19
1005
20359
1002
}
  0
LINE
  5
20329
330
20316
100
AcDbEntity
  8
0
100
AcDbLine
 10
11.70599999998831
 20
0.0
 30
0.0
 11
13.26299999998673
 21
0.0
 31
0.0
1001
ACAD
1000
ASC_BOUNDS
1002
{
1070
    19
1005
20359
1002
}
  0
LINE
  5
2032A
330
20316
100
AcDbEntity
  8
0
100
AcDbLine
 10
22.15599999997789
 20
2.368399999997621
 30
0.0
 11
24.97599999997499
 21
2.368399999997621
 31
0.0
1001
ACAD
1000
ASC_BOUNDS
1002
{
1070
    19
1005
2035B
1002
}
  0
LINE
  5
2032B
330
20316
100
AcDbEntity
  8
0
100
AcDbLine
 10
19.53899999998043
 20
0.0
 30
0.0
 11
21.09599999997886
 21
0.0
 31
0.0
1001
ACAD
1000
ASC_BOUNDS
1002
{
1070
    19
1005
2035B
1002
}
  0
LINE
  5
2032C
330
20316
100
AcDbEntity
  8
0
100
AcDbLine
 10
21.09599999997886
 20
-0.0001000000000317
 30
0.0
 11
22.15599999997789
 21
2.368399999997621
 31
0.0
1001
ACAD
1000
ASC_BOUNDS
1002
{
1070
    19
1005
2035B
1002
}
  0
LINE
  5
2032D
330
20316
100
AcDbEntity
  8
0
100
AcDbLine
 10
26.02015566812236
 20
0.0330999999912365
 30
0.0
 11
24.97599999997499
 21
2.368399999997621
 31
0.0
1001
ACAD
1000
ASC_BOUNDS
1002
{
1070
    19
1005
2035B
1002
}
  0
LINE
  5
2032E
330
20316
100
AcDbEntity
  8
0
100
AcDbLine
 10
14.32399999998563
 20
3.315799999996671
 30
0.0
 11
16.46099999998353
 21
8.999899999990987
 31
0.0
1001
ACAD
1000
ASC_BOUNDS
1002
{
1070
    19
1005
2035A
1002
}
  0
LINE
  5
2032F
330
20316
100
AcDbEntity
  8
0
100
AcDbLine
 10
6.432999999993513
 20
8.763099999991255
 30
0.0
 11
3.181999999996833
 21
4.668599999995308
 31
0.0
1001
ACAD
1000
ASC_BOUNDS
1002
{
1070
    19
1005
20359
1002
}
  0
LINE
  5
20330
330
20316
100
AcDbEntity
  8
0
100
AcDbLine
 10
4.617999999995391
 20
8.763099999991255
 30
0.0
 11
1.420999999998571
 21
4.736799999995242
 31
0.0
1001
ACAD
1000
ASC_BOUNDS
1002
{
1070
    19
1005
20359
1002
}
  0
LINE
  5
20331
330
20316
100
AcDbEntity
  8
0
100
AcDbLine
 10
0.0
 20
8.763099999991255
 30
0.0
 11
1.420999999998571
 21
8.763099999991255
 31
0.0
1001
ACAD
1000
ASC_BOUNDS
1002
{
1070
    19
1005
2035E
1002
}
  0
LINE
  5
20332
330
20316
100
AcDbEntity
  8
0
100
AcDbLine
 10
4.617999999995391
 20
8.763099999991255
 30
0.0
 11
6.432999999993513
 21
8.763099999991255
 31
0.0
1001
ACAD
1000
ASC_BOUNDS
1002
{
1070
    19
1005
20359
1002
}
  0
LINE
  5
20333
330
20316
100
AcDbEntity
  8
0
100
AcDbLine
 10
14.32399999998563
 20
3.315799999996671
 30
0.0
 11
12.02999999998792
 21
8.763099999991255
 31
0.0
1001
ACAD
1000
ASC_BOUNDS
1002
{
1070
    19
1005
2035A
1002
}
  0
LINE
  5
20334
330
20316
100
AcDbEntity
  8
0
100
AcDbLine
 10
10.06399999998996
 20
3.670999999996297
 30
0.0
 11
9.236999999990758
 21
5.5200999999945
 31
0.0
1001
ACAD
1000
ASC_BOUNDS
1002
{
1070
    19
1005
20359
1002
}
  0
LINE
  5
20335
330
20316
100
AcDbEntity
  8
0
100
AcDbLine
 10
8.409999999991555
 20
3.670999999996297
 30
0.0
 11
9.236999999990758
 21
5.5200999999945
 31
0.0
1001
ACAD
1000
ASC_BOUNDS
1002
{
1070
    19
1005
20359
1002
}
  0
LINE
  5
20336
330
20316
100
AcDbEntity
  8
0
100
AcDbLine
 10
8.409999999991555
 20
3.670999999996297
 30
0.0
 11
10.06399999998996
 21
3.670999999996297
 31
0.0
1001
ACAD
1000
ASC_BOUNDS
1002
{
1070
    19
1005
20359
1002
}
  0
LINE
  5
20337
330
20316
100
AcDbEntity
  8
0
100
AcDbLine
 10
10.53899999998941
 20
8.763099999991255
 30
0.0
 11
12.02999999998792
 21
8.763099999991255
 31
0.0
1001
ACAD
1000
ASC_BOUNDS
1002
{
1070
    19
1005
2035A
1002
}
  0
LINE
  5
20338
330
20316
100
AcDbEntity
  8
0
100
AcDbLine
 10
22.7389999999773
 20
3.670999999996297
 30
0.0
 11
23.56599999997638
 21
5.5200999999945
 31
0.0
1001
ACAD
1000
ASC_BOUNDS
1002
{
1070
    19
1005
2035B
1002
}
  0
LINE
  5
20339
330
20316
100
AcDbEntity
  8
0
100
AcDbLine
 10
22.7389999999773
 20
3.670999999996297
 30
0.0
 11
24.39299999997559
 21
3.670999999996297
 31
0.0
1001
ACAD
1000
ASC_BOUNDS
1002
{
1070
    19
1005
2035B
1002
}
  0
LINE
  5
2033A
330
20316
100
AcDbEntity
  8
0
100
AcDbLine
 10
18.59799999998143
 20
3.315799999996671
 30
0.0
 11
20.89099999997916
 21
8.763099999991255
 31
0.0
1001
ACAD
1000
ASC_BOUNDS
1002
{
1070
    19
1005
2035A
1002
}
  0
LINE
  5
2033B
330
20316
100
AcDbEntity
  8
0
100
AcDbLine
 10
18.59799999998143
 20
3.315799999996671
 30
0.0
 11
16.46099999998353
 21
8.999899999990987
 31
0.0
1001
ACAD
1000
ASC_BOUNDS
1002
{
1070
    19
1005
2035A
1002
}
  0
LINE
  5
2033C
330
20316
100
AcDbEntity
  8
0
100
AcDbLine
 10
20.89099999997916
 20
8.763099999991255
 30
0.0
 11
22.38199999997767
 21
8.763099999991255
 31
0.0
1001
ACAD
1000
ASC_BOUNDS
1002
{
1070
    19
1005
2035A
1002
}
  0
LINE
  5
2033D
330
20316
100
AcDbEntity
  8
0
100
AcDbLine
 10
24.39299999997559
 20
3.670999999996297
 30
0.0
 11
23.56599999997638
 21
5.5200999999945
 31
0.0
1001
ACAD
1000
ASC_BOUNDS
1002
{
1070
    19
1005
2035B
1002
}
  0
LINE
  5
2033E
330
20316
100
AcDbEntity
  8
0
100
AcDbLine
 10
44.99999999995498
 20
-0.2368999999997641
 30
0.0
 11
40.02599999995994
 21
5.341799999994635
 31
0.0
1001
ACAD
1000
ASC_BOUNDS
1002
{
1070
    19
1005
2035D
1002
}
  0
LINE
  5
2033F
330
20316
100
AcDbEntity
  8
0
100
AcDbLine
 10
40.02599999995994
 20
5.341799999994635
 30
0.0
 11
40.02599999995994
 21
0.0
 31
0.0
1001
ACAD
1000
ASC_BOUNDS
1002
{
1070
    19
1005
2035D
1002
}
  0
LINE
  5
20340
330
20316
100
AcDbEntity
  8
0
100
AcDbLine
 10
38.60499999996136
 20
8.999999999991019
 30
0.0
 11
38.60499999996136
 21
0.0
 31
0.0
1001
ACAD
1000
ASC_BOUNDS
1002
{
1070
    19
1005
2035D
1002
}
  0
LINE
  5
20341
330
20316
100
AcDbEntity
  8
0
100
AcDbLine
 10
44.99999999995498
 20
8.763099999991255
 30
0.0
 11
44.99999999995498
 21
-0.2368999999997641
 31
0.0
1001
ACAD
1000
ASC_BOUNDS
1002
{
1070
    19
1005
2035D
1002
}
  0
LINE
  5
20342
330
20316
100
AcDbEntity
  8
0
100
AcDbLine
 10
38.60499999996136
 20
0.0
 30
0.0
 11
40.02599999995994
 21
0.0
 31
0.0
1001
ACAD
1000
ASC_BOUNDS
1002
{
1070
    19
1005
2035D
1002
}
  0
LINE
  5
20343
330
20316
100
AcDbEntity
  8
0
100
AcDbLine
 10
43.57899999995641
 20
3.421199999996588
 30
0.0
 11
38.60499999996136
 21
8.999899999990987
 31
0.0
1001
ACAD
1000
ASC_BOUNDS
1002
{
1070
    19
1005
2035D
1002
}
  0
LINE
  5
20344
330
20316
100
AcDbEntity
  8
0
100
AcDbLine
 10
43.57899999995641
 20
8.763099999991255
 30
0.0
 11
43.57899999995641
 21
3.421199999996588
 31
0.0
1001
ACAD
1000
ASC_BOUNDS
1002
{
1070
    19
1005
2035D
1002
}
  0
LINE
  5
20345
330
20316
100
AcDbEntity
  8
0
100
AcDbLine
 10
43.57899999995641
 20
8.763099999991255
 30
0.0
 11
44.99999999995498
 21
8.763099999991255
 31
0.0
1001
ACAD
1000
ASC_BOUNDS
1002
{
1070
    19
1005
2035D
1002
}
  0
LINE
  5
20346
330
20316
100
AcDbEntity
  8
0
100
AcDbLine
 10
37.67199999996831
 20
8.763099999991255
 30
0.0
 11
36.23199999996837
 21
8.763099999991255
 31
0.0
  0
LINE
  5
20347
330
20316
100
AcDbEntity
  8
0
100
AcDbLine
 10
31.64199999996833
 20
8.763099999991255
 30
0.0
 11
31.64199999996833
 21
2.481619422925121
 31
0.0
  0
LINE
  5
20348
330
20316
100
AcDbEntity
  8
0
100
AcDbLine
 10
37.67199999996831
 20
8.763099999991255
 30
0.0
 11
37.67199999996831
 21
2.481619422925121
 31
0.0
  0
LINE
  5
20349
330
20316
100
AcDbEntity
  8
0
100
AcDbLine
 10
36.23199999996837
 20
8.763099999991255
 30
0.0
 11
36.23199999996837
 21
2.481619422925064
 31
0.0
  0
LINE
  5
2034A
330
20316
100
AcDbEntity
  8
0
100
AcDbLine
 10
33.08199999996839
 20
8.763099999991255
 30
0.0
 11
33.08199999996839
 21
2.481619422925121
 31
0.0
  0
ARC
  5
2034B
330
20316
100
AcDbEntity
  8
0
100
AcDbCircle
 10
34.65699999996832
 20
3.183099999991214
 30
0.0
 40
3.420000000000007
100
AcDbArc
 50
240.0000000000255
 51
299.9999999999766
  0
ARC
  5
2034C
330
20316
100
AcDbEntity
  8
0
100
AcDbCircle
 10
34.65699999996832
 20
3.183099999991214
 30
0.0
 40
1.97999999999999
100
AcDbArc
 50
240.000000000026
 51
299.9999999999703
  0
LINE
  5
2034D
330
20316
100
AcDbEntity
  8
0
100
AcDbLine
 10
33.08199999996828
 20
8.763099999991255
 30
0.0
 11
31.64199999996833
 21
8.763099999991255
 31
0.0
  0
ARC
  5
2034E
330
20316
100
AcDbEntity
  8
0
100
AcDbCircle
 10
35.06199999996829
 20
2.481619422925064
 30
0.0
 40
1.17
100
AcDbArc
 50
299.9999999999699
 51
0.0
  0
ARC
  5
2034F
330
20316
100
AcDbEntity
  8
0
100
AcDbCircle
 10
34.25199999996835
 20
2.481619422925121
 30
0.0
 40
1.17
100
AcDbArc
 50
180.0
 51
240.0000000000238
  0
ARC
  5
20350
330
20316
100
AcDbEntity
  8
0
100
AcDbCircle
 10
35.06199999996841
 20
2.481619422925121
 30
0.0
 40
2.61
100
AcDbArc
 50
299.9999999999756
 51
0.0
  0
ARC
  5
20351
330
20316
100
AcDbEntity
  8
0
100
AcDbCircle
 10
34.25199999996835
 20
2.481619422925121
 30
0.0
 40
2.61
100
AcDbArc
 50
180.0
 51
240.0000000000244
  0
LINE
  5
20352
330
20316
100
AcDbEntity
  8
0
100
AcDbLine
 10
29.30199999996933
 20
8.763099999991255
 30
0.0
 11
30.74199999996927
 21
8.763099999991255
 31
0.0
1001
ACAD
1000
ASC_BOUNDS
1002
{
1070
    19
1005
2035B
1002
}
  0
LINE
  5
20353
330
20316
100
AcDbEntity
  8
0
100
AcDbLine
 10
30.74199999996927
 20
8.763099999991255
 30
0.0
 11
30.74199999996927
 21
2.373099999991211
 31
0.0
1001
ACAD
1000
ASC_BOUNDS
1002
{
1070
    19
1005
2035B
1002
}
  0
LINE
  5
20354
330
20316
100
AcDbEntity
  8
0
100
AcDbLine
 10
26.02015566812236
 20
0.0330999999912365
 30
0.0
 11
28.40199999996923
 21
0.0330999999912365
 31
0.0
1001
ACAD
1000
ASC_BOUNDS
1002
{
1070
    19
1005
2035B
1002
}
  0
LINE
  5
20355
330
20316
100
AcDbEntity
  8
0
100
AcDbLine
 10
29.30199999996933
 20
8.763099999991255
 30
0.0
 11
29.30199999996933
 21
2.283099999991236
 31
0.0
1001
ACAD
1000
ASC_BOUNDS
1002
{
1070
    19
1005
2035B
1002
}
  0
LINE
  5
20356
330
20316
100
AcDbEntity
  8
0
100
AcDbLine
 10
26.97358892824991
 20
1.383099999991202
 30
0.0
 11
28.40199999996923
 21
1.383099999991202
 31
0.0
1001
ACAD
1000
ASC_BOUNDS
1002
{
1070
    19
1005
2035B
1002
}
  0
ARC
  5
20357
330
20316
100
AcDbEntity
  8
0
100
AcDbCircle
 10
28.40199999996923
 20
2.283099999991236
 30
0.0
 40
0.9
100
AcDbArc
 50
270.0
 51
0.0
1001
ACAD
1000
ASC_BOUNDS
1002
{
1070
    19
1005
2035B
1002
}
  0
ARC
  5
20358
330
20316
100
AcDbEntity
  8
0
100
AcDbCircle
 10
28.40199999996923
 20
2.373099999991211
 30
0.0
 40
2.34
100
AcDbArc
 50
270.0
 51
0.0
1001
ACAD
1000
ASC_BOUNDS
1002
{
1070
    19
1005
2035B
1002
}
  0
INSERT
  5
20359
330
20316
100
AcDbEntity
  8
0
100
AcDbBlockReference
  2
*X120
 10
0.0
 20
0.0
 30
0.0
1001
ACAD
1000
HATCH
1002
{
1070
    19
1000
ANSI37
1040
0.15
1040
0.0
1000
ASC_BOUNDS
1070
     2
1070
     2
1070
    12
1005
20318
1005
20319
1005
20320
1005
2032F
1005
20332
1005
20330
1005
20321
1005
20326
1005
20324
1005
20328
1005
20327
1005
20329
1070
     2
1070
     3
1005
20334
1005
20336
1005
20335
1000
ASC_SEEDPOINT
1011
3.614004224891801
1021
2.996669441146025
1031
0.0
1000
R14_HATCH_DATA
1000
20359
1011
1.0
1021
0.0
1031
0.0
1011
0.0
1021
1.0
1031
0.0
1011
0.0
1021
0.0
1031
1.0
1040
0.0
1010
0.0
1020
0.0
1030
1.0
1000
ANSI37
1070
     0
1070
     1
1071
        2
1071
        7
1070
     0
1070
     1
1071
       17
1040
13.26299999998673
1040
-0.0001000000000317
1040
9.236999999990758
1040
8.999899999990987
1040
9.236999999990758
1040
8.999999999991019
1040
5.657999999994331
1040
0.9999999999989768
1040
3.181999999996833
1040
4.668599999995308
1040
6.432999999993513
1040
8.763099999991255
1040
4.617999999995391
1040
8.763099999991255
1040
1.420999999998571
1040
4.736799999995242
1040
4.617999999995391
1040
-0.0001000000000317
1040
4.617999999995391
1040
0.0
1040
6.766999999993232
1040
0.0
1040
6.766999999993232
1040
-0.0001000000000317
1040
7.826999999992154
1040
2.368399999997621
1040
10.64699999998936
1040
2.368399999997621
1040
11.70599999998831
1040
-0.0001000000000317
1040
11.70599999998831
1040
0.0
1040
13.26299999998673
1040
0.0
1071
       12
1005
20318
1005
20319
1005
20320
1005
2032F
1005
20332
1005
20330
1005
20321
1005
20326
1005
20324
1005
20328
1005
20327
1005
20329
1071
       22
1070
     0
1070
     1
1071
        3
1040
9.236999999990758
1040
5.5200999999945
1040
10.06399999998996
1040
3.670999999996297
1040
8.409999999991555
1040
3.670999999996297
1071
        3
1005
20334
1005
20336
1005
20335
1070
     0
1070
     1
1040
0.0
1040
0.15
1070
     0
1070
     2
1040
0.7853981633974483
1040
49.29960901727088
1040
-10.17736998311392
1040
-0.3367596045400932
1040
0.3367596045400932
1070
     0
1040
2.356194490192345
1040
49.29960901727088
1040
-10.17736998311392
1040
-0.3367596045400932
1040
-0.3367596045400932
1070
     0
1040
0.0110235143455945
1071
        2
1040
3.614004224891801
1040
2.996669441146025
1040
0.0
1040
3.614004224891801
1040
2.996669441146025
1040
0.0
1002
}
  0
INSERT
  5
2035A
330
20316
100
AcDbEntity
  8
0
100
AcDbBlockReference
  2
*X121
 10
0.0
 20
0.0
 30
0.0
1001
ACAD
1000
HATCH
1002
{
1070
    19
1000
ANSI37
1040
0.15
1040
0.0
1000
ASC_BOUNDS
1070
     1
1070
     2
1070
    10
1005
2031A
1005
2031B
1005
2033C
1005
2033A
1005
2033B
1005
2032E
1005
20333
1005
20337
1005
2031D
1005
2031C
1000
ASC_SEEDPOINT
1011
14.73245321214324
1021
2.798246178283421
1031
0.0
1000
R14_HATCH_DATA
1000
2035A
1011
1.0
1021
0.0
1031
0.0
1011
0.0
1021
1.0
1031
0.0
1011
0.0
1021
0.0
1031
1.0
1040
0.0
1010
0.0
1020
0.0
1030
1.0
1000
ANSI37
1070
     0
1070
     1
1071
        1
1071
        7
1070
     0
1070
     1
1071
       10
1040
16.46099999998353
1040
5.432899999994561
1040
18.59199999998134
1040
-0.2368999999997641
1040
22.38199999997767
1040
8.763099999991255
1040
20.89099999997916
1040
8.763099999991255
1040
18.59799999998143
1040
3.315799999996671
1040
16.46099999998353
1040
8.999899999990987
1040
14.32399999998563
1040
3.315799999996671
1040
12.02999999998792
1040
8.763099999991255
1040
10.53899999998941
1040
8.763099999991255
1040
14.32899999998563
1040
-0.2368999999997641
1071
       10
1005
2031A
1005
2031B
1005
2033C
1005
2033A
1005
2033B
1005
2032E
1005
20333
1005
20337
1005
2031D
1005
2031C
1070
     0
1070
     1
1040
0.0
1040
0.15
1070
     0
1070
     2
1040
0.7853981633974483
1040
49.29960901727088
1040
-10.17736998311392
1040
-0.3367596045400932
1040
0.3367596045400932
1070
     0
1040
2.356194490192345
1040
49.29960901727088
1040
-10.17736998311392
1040
-0.3367596045400932
1040
-0.3367596045400932
1070
     0
1040
0.0110235143455945
1071
        1
1040
14.73245321214324
1040
2.798246178283421
1040
0.0
1002
}
  0
INSERT
  5
2035B
330
20316
100
AcDbEntity
  8
0
100
AcDbBlockReference
  2
*X122
 10
0.0
 20
0.0
 30
0.0
1001
ACAD
1000
HATCH
1002
{
1070
    19
1000
ANSI37
1040
0.15
1040
0.0
1000
ASC_BOUNDS
1070
     2
1070
     2
1070
    13
1005
2031E
1005
2032B
1005
2032C
1005
2032A
1005
2032D
1005
20354
1005
20358
1005
20353
1005
20352
1005
20355
1005
20357
1005
20356
1005
2031F
1070
     2
1070
     3
1005
20338
1005
2033D
1005
20339
1000
ASC_SEEDPOINT
1011
21.97929957367762
1021
3.294304244259308
1031
0.0
1000
R14_HATCH_DATA
1000
2035B
1011
1.0
1021
0.0
1031
0.0
1011
0.0
1021
1.0
1031
0.0
1011
0.0
1021
0.0
1031
1.0
1040
0.0
1010
0.0
1020
0.0
1030
1.0
1000
ANSI37
1070
     0
1070
     1
1071
        2
1071
        7
1070
     1
1070
     1
1071
       15
1040
23.56599999997638
1040
8.999899999990987
1040
0.0
1040
19.53899999998043
1040
-0.0001000000000317
1040
0.0
1040
19.53899999998043
1040
0.0
1040
0.0
1040
21.09599999997886
1040
0.0
1040
0.0
1040
21.09599999997886
1040
-0.0001000000000317
1040
0.0
1040
22.15599999997789
1040
2.368399999997621
1040
0.0
1040
24.97599999997499
1040
2.368399999997621
1040
0.0
1040
26.02015566812236
1040
0.0330999999912365
1040
0.0
1040
28.40199999996923
1040
0.0330999999912365
1040
0.414213562373095
1040
30.74199999996923
1040
2.373099999991211
1040
0.0
1040
30.74199999996927
1040
8.763099999991255
1040
0.0
1040
29.30199999996933
1040
8.763099999991255
1040
0.0
1040
29.30199999996933
1040
2.283099999991236
1040
-0.414213562373095
1040
28.40199999996923
1040
1.383099999991237
1040
0.0
1040
26.97358892824991
1040
1.383099999991202
1040
0.0
1071
       13
1005
2031E
1005
2032B
1005
2032C
1005
2032A
1005
2032D
1005
20354
1005
20358
1005
20353
1005
20352
1005
20355
1005
20357
1005
20356
1005
2031F
1071
       22
1070
     0
1070
     1
1071
        3
1040
22.7389999999773
1040
3.670999999996297
1040
23.56599999997638
1040
5.5200999999945
1040
24.39299999997559
1040
3.670999999996297
1071
        3
1005
20338
1005
2033D
1005
20339
1070
     0
1070
     1
1040
0.0
1040
0.15
1070
     0
1070
     2
1040
0.7853981633974483
1040
49.29960901727088
1040
-10.17736998311392
1040
-0.3367596045400932
1040
0.3367596045400932
1070
     0
1040
2.356194490192345
1040
49.29960901727088
1040
-10.17736998311392
1040
-0.3367596045400932
1040
-0.3367596045400932
1070
     0
1040
0.0110235143455945
1071
        2
1040
21.97929957367762
1040
3.294304244259308
1040
0.0
1040
21.97929957367762
1040
3.294304244259308
1040
0.0
1002
}
  0
INSERT
  5
2035C
330
20316
100
AcDbEntity
  8
0
100
AcDbBlockReference
  2
*X123
 10
0.0
 20
0.0
 30
0.0
1001
ACAD
1000
HATCH
1002
{
1070
    19
1000
ANSI37
1040
0.15
1040
0.0
1000
R14_HATCH_DATA
1000
2035C
1011
1.0
1021
0.0
1031
0.0
1011
0.0
1021
1.0
1031
0.0
1011
0.0
1021
0.0
1031
1.0
1040
0.0
1010
0.0
1020
0.0
1030
1.0
1000
ANSI37
1070
     0
1070
     1
1071
        1
1071
        7
1070
     1
1070
     1
1071
       12
1040
31.64199999996833
1040
2.481619422925121
1040
0.2679491924310942
1040
32.94699999997067
1040
0.2212931190493919
1040
0.2679491924301353
1040
36.36699999995983
1040
0.2212931190459813
1040
0.2679491924321411
1040
37.67199999996831
1040
2.481619422928361
1040
0.0
1040
37.67199999996831
1040
8.763099999991255
1040
0.0
1040
36.23199999996837
1040
8.763099999991255
1040
0.0
1040
36.23199999996837
1040
2.481619422925064
1040
-0.2679491924310291
1040
35.64699999996708
1040
1.468369700498386
1040
-0.267949192430519
1040
33.66699999997093
1040
1.468369700497703
1040
-0.267949192431809
1040
33.08199999996839
1040
2.481619422926997
1040
0.0
1040
33.08199999996839
1040
8.763099999991255
1040
0.0
1040
31.64199999996833
1040
8.763099999991255
1040
0.0
1071
        0
1070
     0
1070
     1
1040
0.0
1040
0.15
1070
     0
1070
     2
1040
0.7853981633974483
1040
49.29960901727088
1040
-10.17736998311392
1040
-0.3367596045400932
1040
0.3367596045400932
1070
     0
1040
2.356194490192345
1040
49.29960901727088
1040
-10.17736998311392
1040
-0.3367596045400932
1040
-0.3367596045400932
1070
     0
1040
0.0110235143455945
1071
        1
1040
32.30357378967278
1040
3.988785755459219
1040
0.0
1002
}
  0
INSERT
  5
2035D
330
20316
100
AcDbEntity
  8
0
100
AcDbBlockReference
  2
*X124
 10
0.0
 20
0.0
 30
0.0
1001
ACAD
1000
HATCH
1002
{
1070
    19
1000
ANSI37
1040
0.15
1040
0.0
1000
ASC_BOUNDS
1070
     1
1070
     2
1070
     8
1005
2033E
1005
20341
1005
20345
1005
20344
1005
20343
1005
20340
1005
20342
1005
2033F
1000
ASC_SEEDPOINT
1011
39.74896370716704
1021
4.484843821435049
1031
0.0
1000
R14_HATCH_DATA
1000
2035D
1011
1.0
1021
0.0
1031
0.0
1011
0.0
1021
1.0
1031
0.0
1011
0.0
1021
0.0
1031
1.0
1040
0.0
1010
0.0
1020
0.0
1030
1.0
1000
ANSI37
1070
     0
1070
     1
1071
        1
1071
        7
1070
     0
1070
     1
1071
        9
1040
40.02599999995994
1040
5.341799999994635
1040
44.99999999995498
1040
-0.2368999999997641
1040
44.99999999995498
1040
8.763099999991255
1040
43.57899999995641
1040
8.763099999991255
1040
43.57899999995641
1040
3.421199999996588
1040
38.60499999996136
1040
8.999899999990987
1040
38.60499999996136
1040
8.999999999991019
1040
38.60499999996136
1040
0.0
1040
40.02599999995994
1040
0.0
1071
        8
1005
2033E
1005
20341
1005
20345
1005
20344
1005
20343
1005
20340
1005
20342
1005
2033F
1070
     0
1070
     1
1040
0.0
1040
0.15
1070
     0
1070
     2
1040
0.7853981633974483
1040
49.29960901727088
1040
-10.17736998311392
1040
-0.3367596045400932
1040
0.3367596045400932
1070
     0
1040
2.356194490192345
1040
49.29960901727088
1040
-10.17736998311392
1040
-0.3367596045400932
1040
-0.3367596045400932
1070
     0
1040
0.0110235143455945
1071
        1
1040
39.74896370716704
1040
4.484843821435049
1040
0.0
1002
}
  0
INSERT
  5
2035E
330
20316
100
AcDbEntity
  8
0
100
AcDbBlockReference
  2
*X125
 10
0.0
 20
0.0
 30
0.0
1001
ACAD
1000
HATCH
1002
{
1070
    19
1000
ANSI37
1040
0.15
1040
0.0
1000
ASC_BOUNDS
1070
     1
1070
     2
1070
     4
1005
20322
1005
20331
1005
20323
1005
20325
1000
ASC_SEEDPOINT
1011
1.079051535452663
1021
4.148538732891836
1031
0.0
1000
R14_HATCH_DATA
1000
2035E
1011
1.0
1021
0.0
1031
0.0
1011
0.0
1021
1.0
1031
0.0
1011
0.0
1021
0.0
1031
1.0
1040
0.0
1010
0.0
1020
0.0
1030
1.0
1000
ANSI37
1070
     0
1070
     1
1071
        1
1071
        7
1070
     0
1070
     1
1071
        4
1040
1.420999999998571
1040
0.0
1040
1.420999999998571
1040
8.763099999991255
1040
0.0
1040
8.763099999991255
1040
0.0
1040
0.0
1071
        4
1005
20322
1005
20331
1005
20323
1005
20325
1070
     0
1070
     1
1040
0.0
1040
0.15
1070
     0
1070
     2
1040
0.7853981633974483
1040
49.29960901727088
1040
-10.17736998311392
1040
-0.3367596045400932
1040
0.3367596045400932
1070
     0
1040
2.356194490192345
1040
49.29960901727088
1040
-10.17736998311392
1040
-0.3367596045400932
1040
-0.3367596045400932
1070
     0
1040
0.0053004257112761
1071
        1
1040
1.079051535452663
1040
4.148538732891836
1040
0.0
1002
}
  0
ENDBLK
  5
20A16
330
20316
100
AcDbEntity
  8
0
100
AcDbBlockEnd
  0
BLOCK
  5
22E86
330
22CF8
100
AcDbEntity
  8
0
100
AcDbBlockBegin
  2
*X120
 70
     1
 10
0.0
 20
0.0
 30
0.0
  3
*X120
  1

  0
LINE
  5
22CF9
330
22CF8
100
AcDbEntity
  8
0
  6
CONTINUOUS
100
AcDbLine
 10
3.418023043697893
 20
7.251849696850613
 30
0.0
 11
4.929273346838536
 21
8.763099999991255
 31
0.0
  0
LINE
  5
22CFA
330
22CF8
100
AcDbEntity
  8
0
  6
CONTINUOUS
100
AcDbLine
 10
1.483656411257782
 20
4.643963855330318
 30
0.0
 11
5.60279255591872
 21
8.763099999991255
 31
0.0
  0
LINE
  5
22CFB
330
22CF8
100
AcDbEntity
  8
0
  6
CONTINUOUS
100
AcDbLine
 10
1.755053947328235
 20
4.241842182320584
 30
0.0
 11
6.276311764998907
 21
8.763099999991255
 31
0.0
  0
LINE
  5
22CFC
330
22CF8
100
AcDbEntity
  8
0
  6
CONTINUOUS
100
AcDbLine
 10
2.026451483398688
 20
3.839720509310849
 30
0.0
 11
4.441040904851878
 21
6.254309930764039
 31
0.0
  0
LINE
  5
22CFD
330
22CF8
100
AcDbEntity
  8
0
  6
CONTINUOUS
100
AcDbLine
 10
2.297849019469139
 20
3.437598836301114
 30
0.0
 11
3.321765168359338
 21
4.461514985191313
 31
0.0
  0
LINE
  5
22CFE
330
22CF8
100
AcDbEntity
  8
0
  6
CONTINUOUS
100
AcDbLine
 10
2.569246555539591
 20
3.03547716329138
 30
0.0
 11
3.593163397972743
 21
4.059394005724531
 31
0.0
  0
LINE
  5
22CFF
330
22CF8
100
AcDbEntity
  8
0
  6
CONTINUOUS
100
AcDbLine
 10
2.840644091610043
 20
2.633355490281646
 30
0.0
 11
3.864561627586149
 21
3.657273026257751
 31
0.0
  0
LINE
  5
22D00
330
22CF8
100
AcDbEntity
  8
0
  6
CONTINUOUS
100
AcDbLine
 10
3.112041627680496
 20
2.231233817271911
 30
0.0
 11
4.135959857199554
 21
3.25515204679097
 31
0.0
  0
LINE
  5
22D01
330
22CF8
100
AcDbEntity
  8
0
  6
CONTINUOUS
100
AcDbLine
 10
3.383439163750948
 20
1.829112144262177
 30
0.0
 11
4.40735808681296
 21
2.853031067324189
 31
0.0
  0
LINE
  5
22D02
330
22CF8
100
AcDbEntity
  8
0
  6
CONTINUOUS
100
AcDbLine
 10
3.654836699821399
 20
1.426990471252442
 30
0.0
 11
4.678756316426365
 21
2.450910087857407
 31
0.0
  0
LINE
  5
22D03
330
22CF8
100
AcDbEntity
  8
0
  6
CONTINUOUS
100
AcDbLine
 10
3.926234235891853
 20
1.024868798242709
 30
0.0
 11
4.95015454603977
 21
2.048789108390626
 31
0.0
  0
LINE
  5
22D04
330
22CF8
100
AcDbEntity
  8
0
  6
CONTINUOUS
100
AcDbLine
 10
4.197631771962304
 20
0.6227471252329737
 30
0.0
 11
5.221552775653176
 21
1.646668128923846
 31
0.0
  0
LINE
  5
22D05
330
22CF8
100
AcDbEntity
  8
0
  6
CONTINUOUS
100
AcDbLine
 10
8.715877546767851
 20
7.835069736359266
 30
0.0
 11
9.435953450375058
 21
8.555145639966472
 31
0.0
  0
LINE
  5
22D06
330
22CF8
100
AcDbEntity
  8
0
  6
CONTINUOUS
100
AcDbLine
 10
8.170620868422267
 20
6.616293848933497
 30
0.0
 11
9.644120833743461
 21
8.08979381425469
 31
0.0
  0
LINE
  5
22D07
330
22CF8
100
AcDbEntity
  8
0
  6
CONTINUOUS
100
AcDbLine
 10
7.625364190076684
 20
5.397517961507727
 30
0.0
 11
9.852288217111864
 21
7.624441988542907
 31
0.0
  0
LINE
  5
22D08
330
22CF8
100
AcDbEntity
  8
0
  6
CONTINUOUS
100
AcDbLine
 10
7.080107511731101
 20
4.178742074081957
 30
0.0
 11
10.06045560048027
 21
7.159090162831124
 31
0.0
  0
LINE
  5
22D09
330
22CF8
100
AcDbEntity
  8
0
  6
CONTINUOUS
100
AcDbLine
 10
6.534850833385518
 20
2.959966186656187
 30
0.0
 11
10.26862298384867
 21
6.693738337119342
 31
0.0
  0
LINE
  5
22D0A
330
22CF8
100
AcDbEntity
  8
0
  6
CONTINUOUS
100
AcDbLine
 10
4.469029308032756
 20
0.2206254522232385
 30
0.0
 11
5.492951005266582
 21
1.244547149457064
 31
0.0
  0
LINE
  5
22D0B
330
22CF8
100
AcDbEntity
  8
0
  6
CONTINUOUS
100
AcDbLine
 10
5.989594155039935
 20
1.741190299230417
 30
0.0
 11
8.806950407233131
 21
4.558546551423613
 31
0.0
  0
LINE
  5
22D0C
330
22CF8
100
AcDbEntity
  8
0
  6
CONTINUOUS
100
AcDbLine
 10
9.401251593263643
 20
5.152847737454126
 30
0.0
 11
10.47679036721708
 21
6.228386511407559
 31
0.0
  0
LINE
  5
22D0D
330
22CF8
100
AcDbEntity
  8
0
  6
CONTINUOUS
100
AcDbLine
 10
4.921837203428691
 20
-0.0000858614610131
 30
0.0
 11
8.592923064886001
 21
3.670999999996297
 31
0.0
  0
LINE
  5
22D0E
330
22CF8
100
AcDbEntity
  8
0
  6
CONTINUOUS
100
AcDbLine
 10
9.609390446785305
 20
4.6874673818956
 30
0.0
 11
10.68495775058548
 21
5.763034685695775
 31
0.0
  0
LINE
  5
22D0F
330
22CF8
100
AcDbEntity
  8
0
  6
CONTINUOUS
100
AcDbLine
 10
5.595387755019432
 20
-0.0000545189504582
 30
0.0
 11
7.716137258923768
 21
2.120694984953879
 31
0.0
  0
LINE
  5
22D10
330
22CF8
100
AcDbEntity
  8
0
  6
CONTINUOUS
100
AcDbLine
 10
6.268938306610172
 20
-0.000023176439905
 30
0.0
 11
7.170485805526503
 21
0.9015243224764267
 31
0.0
  0
LINE
  5
22D11
330
22CF8
100
AcDbEntity
  8
0
  6
CONTINUOUS
100
AcDbLine
 10
7.963842273967511
 20
2.368399999997621
 30
0.0
 11
9.266442273966188
 21
3.670999999996297
 31
0.0
  0
LINE
  5
22D12
330
22CF8
100
AcDbEntity
  8
0
  6
CONTINUOUS
100
AcDbLine
 10
8.637361483047696
 20
2.368399999997621
 30
0.0
 11
9.939961483046375
 21
3.670999999996297
 31
0.0
  0
LINE
  5
22D13
330
22CF8
100
AcDbEntity
  8
0
  6
CONTINUOUS
100
AcDbLine
 10
9.817529300306965
 20
4.222087026337075
 30
0.0
 11
10.89312513395388
 21
5.297682859983993
 31
0.0
  0
LINE
  5
22D14
330
22CF8
100
AcDbEntity
  8
0
  6
CONTINUOUS
100
AcDbLine
 10
10.02566815382863
 20
3.756706670778549
 30
0.0
 11
11.10129251732229
 21
4.832331034272211
 31
0.0
  0
LINE
  5
22D15
330
22CF8
100
AcDbEntity
  8
0
  6
CONTINUOUS
100
AcDbLine
 10
9.310880692127883
 20
2.368399999997621
 30
0.0
 11
11.30945990069069
 21
4.366979208560428
 31
0.0
  0
LINE
  5
22D16
330
22CF8
100
AcDbEntity
  8
0
  6
CONTINUOUS
100
AcDbLine
 10
9.98439990120807
 20
2.36839999999762
 30
0.0
 11
11.5176272840591
 21
3.901627382848645
 31
0.0
  0
LINE
  5
22D17
330
22CF8
100
AcDbEntity
  8
0
  6
CONTINUOUS
100
AcDbLine
 10
10.65037369446246
 20
2.36085458417182
 30
0.0
 11
11.7257946674275
 21
3.436275557136862
 31
0.0
  0
LINE
  5
22D18
330
22CF8
100
AcDbEntity
  8
0
  6
CONTINUOUS
100
AcDbLine
 10
10.85847197087848
 20
1.895433651507656
 30
0.0
 11
11.9339620507959
 21
2.97092373142508
 31
0.0
  0
LINE
  5
22D19
330
22CF8
100
AcDbEntity
  8
0
  6
CONTINUOUS
100
AcDbLine
 10
11.0665702472945
 20
1.430012718843491
 30
0.0
 11
12.14212943416431
 21
2.505571905713296
 31
0.0
  0
LINE
  5
22D1A
330
22CF8
100
AcDbEntity
  8
0
  6
CONTINUOUS
100
AcDbLine
 10
11.27466852371052
 20
0.9645917861793256
 30
0.0
 11
12.35029681753271
 21
2.040220080001513
 31
0.0
  0
LINE
  5
22D1B
330
22CF8
100
AcDbEntity
  8
0
  6
CONTINUOUS
100
AcDbLine
 10
11.48276680012654
 20
0.4991708535151611
 30
0.0
 11
12.55846420090111
 21
1.57486825428973
 31
0.0
  0
LINE
  5
22D1C
330
22CF8
100
AcDbEntity
  8
0
  6
CONTINUOUS
100
AcDbLine
 10
11.69086507654257
 20
0.0337499208509957
 30
0.0
 11
12.76663158426952
 21
1.109516428577947
 31
0.0
  0
LINE
  5
22D1D
330
22CF8
100
AcDbEntity
  8
0
  6
CONTINUOUS
100
AcDbLine
 10
12.33057447873954
 20
-0.0000598860322123
 30
0.0
 11
12.97479896763792
 21
0.6441646028661663
 31
0.0
  0
LINE
  5
22D1E
330
22CF8
100
AcDbEntity
  8
0
  6
CONTINUOUS
100
AcDbLine
 10
13.00413694809395
 20
-0.0000166257579952
 30
0.0
 11
13.18296635100632
 21
0.1788127771543824
 31
0.0
  0
LINE
  5
22D1F
330
22CF8
100
AcDbEntity
  8
0
  6
CONTINUOUS
100
AcDbLine
 10
4.772852165289667
 20
-0.000092794222212
 30
0.0
 11
4.296495091028902
 21
0.4762642800385528
 31
0.0
  0
LINE
  5
22D20
330
22CF8
100
AcDbEntity
  8
0
  6
CONTINUOUS
100
AcDbLine
 10
5.446340034776103
 20
-0.0000614546284616
 30
0.0
 11
2.898195908335625
 21
2.548082671812017
 31
0.0
  0
LINE
  5
22D21
330
22CF8
100
AcDbEntity
  8
0
  6
CONTINUOUS
100
AcDbLine
 10
6.119827904262539
 20
-0.0000301150347113
 30
0.0
 11
1.499896725642348
 21
4.61990106358548
 31
0.0
  0
LINE
  5
22D22
330
22CF8
100
AcDbEntity
  8
0
  6
CONTINUOUS
100
AcDbLine
 10
6.775136745476159
 20
0.0181802528318542
 30
0.0
 11
5.699826040202669
 21
1.093490958105344
 31
0.0
  0
LINE
  5
22D23
330
22CF8
100
AcDbEntity
  8
0
  6
CONTINUOUS
100
AcDbLine
 10
6.983376846288489
 20
0.4834593610997118
 30
0.0
 11
5.908008617934405
 21
1.558827589453796
 31
0.0
  0
LINE
  5
22D24
330
22CF8
100
AcDbEntity
  8
0
  6
CONTINUOUS
100
AcDbLine
 10
5.377063484962296
 20
1.416253513345719
 30
0.0
 11
1.702276957014131
 21
5.091040041293883
 31
0.0
  0
LINE
  5
22D25
330
22CF8
100
AcDbEntity
  8
0
  6
CONTINUOUS
100
AcDbLine
 10
3.978745891735324
 20
3.488090315652877
 30
0.0
 11
2.000373521109399
 21
5.466462686278803
 31
0.0
  0
LINE
  5
22D26
330
22CF8
100
AcDbEntity
  8
0
  6
CONTINUOUS
100
AcDbLine
 10
7.191616947100819
 20
0.948738469367568
 30
0.0
 11
6.11619119566614
 21
2.024164220802247
 31
0.0
  0
LINE
  5
22D27
330
22CF8
100
AcDbEntity
  8
0
  6
CONTINUOUS
100
AcDbLine
 10
7.399857047913149
 20
1.414017577635424
 30
0.0
 11
6.324373773397875
 21
2.489500852150698
 31
0.0
  0
LINE
  5
22D28
330
22CF8
100
AcDbEntity
  8
0
  6
CONTINUOUS
100
AcDbLine
 10
7.608097148725479
 20
1.879296685903281
 30
0.0
 11
6.53255635112961
 21
2.95483748349915
 31
0.0
  0
LINE
  5
22D29
330
22CF8
100
AcDbEntity
  8
0
  6
CONTINUOUS
100
AcDbLine
 10
7.816337249537808
 20
2.344575794171138
 30
0.0
 11
6.740738928861345
 21
3.420174114847601
 31
0.0
  0
LINE
  5
22D2A
330
22CF8
100
AcDbEntity
  8
0
  6
CONTINUOUS
100
AcDbLine
 10
3.310241080789734
 20
4.830114335678653
 30
0.0
 11
2.298470085204666
 21
5.84188533126372
 31
0.0
  0
LINE
  5
22D2B
330
22CF8
100
AcDbEntity
  8
0
  6
CONTINUOUS
100
AcDbLine
 10
3.60832983563551
 20
5.205544789913063
 30
0.0
 11
2.596566649299935
 21
6.217307976248638
 31
0.0
  0
LINE
  5
22D2C
330
22CF8
100
AcDbEntity
  8
0
  6
CONTINUOUS
100
AcDbLine
 10
3.906418590481286
 20
5.580975244147473
 30
0.0
 11
2.894663213395203
 21
6.592730621233557
 31
0.0
  0
LINE
  5
22D2D
330
22CF8
100
AcDbEntity
  8
0
  6
CONTINUOUS
100
AcDbLine
 10
4.204507345327062
 20
5.956405698381884
 30
0.0
 11
3.192759777490472
 21
6.968153266218474
 31
0.0
  0
LINE
  5
22D2E
330
22CF8
100
AcDbEntity
  8
0
  6
CONTINUOUS
100
AcDbLine
 10
8.466032252791512
 20
2.368399999997621
 30
0.0
 11
6.948921506593081
 21
3.885510746196053
 31
0.0
  0
LINE
  5
22D2F
330
22CF8
100
AcDbEntity
  8
0
  6
CONTINUOUS
100
AcDbLine
 10
9.139551461871699
 20
2.36839999999762
 30
0.0
 11
7.157104084324816
 21
4.350847377544504
 31
0.0
  0
LINE
  5
22D30
330
22CF8
100
AcDbEntity
  8
0
  6
CONTINUOUS
100
AcDbLine
 10
4.502596100172839
 20
6.331836152616295
 30
0.0
 11
3.49085634158574
 21
7.343575911203393
 31
0.0
  0
LINE
  5
22D31
330
22CF8
100
AcDbEntity
  8
0
  6
CONTINUOUS
100
AcDbLine
 10
4.800684855018615
 20
6.707266606850705
 30
0.0
 11
3.788952905681008
 21
7.718998556188312
 31
0.0
  0
LINE
  5
22D32
330
22CF8
100
AcDbEntity
  8
0
  6
CONTINUOUS
100
AcDbLine
 10
12.18154012887317
 20
-0.0000694579236642
 30
0.0
 11
11.32140332908496
 21
0.8600673418645499
 31
0.0
  0
LINE
  5
22D33
330
22CF8
100
AcDbEntity
  8
0
  6
CONTINUOUS
100
AcDbLine
 10
12.85501608323566
 20
-0.0000262032059659
 30
0.0
 11
10.77672456435345
 21
2.078265315676246
 31
0.0
  0
LINE
  5
22D34
330
22CF8
100
AcDbEntity
  8
0
  6
CONTINUOUS
100
AcDbLine
 10
9.813070670951886
 20
2.36839999999762
 30
0.0
 11
8.51047067095321
 21
3.670999999996297
 31
0.0
  0
LINE
  5
22D35
330
22CF8
100
AcDbEntity
  8
0
  6
CONTINUOUS
100
AcDbLine
 10
10.48658988003207
 20
2.36839999999762
 30
0.0
 11
9.183989880033396
 21
3.670999999996297
 31
0.0
  0
LINE
  5
22D36
330
22CF8
100
AcDbEntity
  8
0
  6
CONTINUOUS
100
AcDbLine
 10
8.441048632286794
 20
3.740422038662712
 30
0.0
 11
7.365286662056551
 21
4.816184008892956
 31
0.0
  0
LINE
  5
22D37
330
22CF8
100
AcDbEntity
  8
0
  6
CONTINUOUS
100
AcDbLine
 10
8.649187485808454
 20
4.205802394221237
 30
0.0
 11
7.573469239788285
 21
5.281520640241407
 31
0.0
  0
LINE
  5
22D38
330
22CF8
100
AcDbEntity
  8
0
  6
CONTINUOUS
100
AcDbLine
 10
5.098773609864391
 20
7.082697061085115
 30
0.0
 11
4.087049469776277
 21
8.09442120117323
 31
0.0
  0
LINE
  5
22D39
330
22CF8
100
AcDbEntity
  8
0
  6
CONTINUOUS
100
AcDbLine
 10
5.396862364710167
 20
7.458127515319526
 30
0.0
 11
4.385146033871544
 21
8.469843846158149
 31
0.0
  0
LINE
  5
22D3A
330
22CF8
100
AcDbEntity
  8
0
  6
CONTINUOUS
100
AcDbLine
 10
13.04801363231285
 20
0.4804954567970334
 30
0.0
 11
9.85750908911358
 21
3.670999999996297
 31
0.0
  0
LINE
  5
22D3B
330
22CF8
100
AcDbEntity
  8
0
  6
CONTINUOUS
100
AcDbLine
 10
8.857326339330116
 20
4.671182749779763
 30
0.0
 11
7.781651817520021
 21
5.746857271589858
 31
0.0
  0
LINE
  5
22D3C
330
22CF8
100
AcDbEntity
  8
0
  6
CONTINUOUS
100
AcDbLine
 10
5.694951119555943
 20
7.833557969553937
 30
0.0
 11
4.765409089118624
 21
8.763099999991255
 31
0.0
  0
LINE
  5
22D3D
330
22CF8
100
AcDbEntity
  8
0
  6
CONTINUOUS
100
AcDbLine
 10
12.50286117236978
 20
1.699167125820288
 30
0.0
 11
9.68611877250287
 21
4.515909525687196
 31
0.0
  0
LINE
  5
22D3E
330
22CF8
100
AcDbEntity
  8
0
  6
CONTINUOUS
100
AcDbLine
 10
9.065465192851777
 20
5.136563105338288
 30
0.0
 11
7.989834395251757
 21
6.21219390293831
 31
0.0
  0
LINE
  5
22D3F
330
22CF8
100
AcDbEntity
  8
0
  6
CONTINUOUS
100
AcDbLine
 10
5.993039874401719
 20
8.208988423788346
 30
0.0
 11
5.43892829819881
 21
8.763099999991255
 31
0.0
  0
LINE
  5
22D40
330
22CF8
100
AcDbEntity
  8
0
  6
CONTINUOUS
100
AcDbLine
 10
11.95770871242671
 20
2.917838794843543
 30
0.0
 11
8.19801697298349
 21
6.677530534286761
 31
0.0
  0
LINE
  5
22D41
330
22CF8
100
AcDbEntity
  8
0
  6
CONTINUOUS
100
AcDbLine
 10
6.291128629247495
 20
8.584418878022756
 30
0.0
 11
6.112447507278997
 21
8.763099999991255
 31
0.0
  0
LINE
  5
22D42
330
22CF8
100
AcDbEntity
  8
0
  6
CONTINUOUS
100
AcDbLine
 10
11.41255625248364
 20
4.136510463866797
 30
0.0
 11
8.406199550715227
 21
7.142867165635211
 31
0.0
  0
LINE
  5
22D43
330
22CF8
100
AcDbEntity
  8
0
  6
CONTINUOUS
100
AcDbLine
 10
10.86740379254057
 20
5.355182132890051
 30
0.0
 11
8.614382128446962
 21
7.608203796983664
 31
0.0
  0
LINE
  5
22D44
330
22CF8
100
AcDbEntity
  8
0
  6
CONTINUOUS
100
AcDbLine
 10
10.3222513325975
 20
6.573853801913305
 30
0.0
 11
8.822564706178696
 21
8.073540428332114
 31
0.0
  0
LINE
  5
22D45
330
22CF8
100
AcDbEntity
  8
0
  6
CONTINUOUS
100
AcDbLine
 10
9.777098872654436
 20
7.792525470936562
 30
0.0
 11
9.030747283910433
 21
8.538877059680566
 31
0.0
  0
ENDBLK
  5
22E87
330
22CF8
100
AcDbEntity
  8
0
100
AcDbBlockEnd
  0
BLOCK
  5
22E88
330
22D46
100
AcDbEntity
  8
0
100
AcDbBlockBegin
  2
*X121
 70
     1
 10
0.0
 20
0.0
 30
0.0
  3
*X121
  1

  0
LINE
  5
22D47
330
22D46
100
AcDbEntity
  8
0
  6
CONTINUOUS
100
AcDbLine
 10
10.67292308101235
 20
8.445076852443387
 30
0.0
 11
10.99094622856022
 21
8.763099999991255
 31
0.0
  0
LINE
  5
22D48
330
22D46
100
AcDbEntity
  8
0
  6
CONTINUOUS
100
AcDbLine
 10
10.87250383178748
 20
7.971138394138331
 30
0.0
 11
11.6644654376404
 21
8.763099999991255
 31
0.0
  0
LINE
  5
22D49
330
22D46
100
AcDbEntity
  8
0
  6
CONTINUOUS
100
AcDbLine
 10
11.07208458256261
 20
7.497199935833273
 30
0.0
 11
12.12126590876355
 21
8.546381262034211
 31
0.0
  0
LINE
  5
22D4A
330
22D46
100
AcDbEntity
  8
0
  6
CONTINUOUS
100
AcDbLine
 10
11.27166533333774
 20
7.023261477528216
 30
0.0
 11
12.32085164573666
 21
8.072447789927136
 31
0.0
  0
LINE
  5
22D4B
330
22D46
100
AcDbEntity
  8
0
  6
CONTINUOUS
100
AcDbLine
 10
11.47124608411287
 20
6.549323019223158
 30
0.0
 11
12.52043738270977
 21
7.59851431782006
 31
0.0
  0
LINE
  5
22D4C
330
22D46
100
AcDbEntity
  8
0
  6
CONTINUOUS
100
AcDbLine
 10
11.670826834888
 20
6.075384560918101
 30
0.0
 11
12.72002311968288
 21
7.124580845712984
 31
0.0
  0
LINE
  5
22D4D
330
22D46
100
AcDbEntity
  8
0
  6
CONTINUOUS
100
AcDbLine
 10
11.87040758566313
 20
5.601446102613043
 30
0.0
 11
12.91960885665599
 21
6.650647373605907
 31
0.0
  0
LINE
  5
22D4E
330
22D46
100
AcDbEntity
  8
0
  6
CONTINUOUS
100
AcDbLine
 10
12.06998833643825
 20
5.127507644307986
 30
0.0
 11
13.1191945936291
 21
6.176713901498832
 31
0.0
  0
LINE
  5
22D4F
330
22D46
100
AcDbEntity
  8
0
  6
CONTINUOUS
100
AcDbLine
 10
12.26956908721338
 20
4.65356918600293
 30
0.0
 11
13.31878033060221
 21
5.702780429391757
 31
0.0
  0
LINE
  5
22D50
330
22D46
100
AcDbEntity
  8
0
  6
CONTINUOUS
100
AcDbLine
 10
12.46914983798851
 20
4.179630727697873
 30
0.0
 11
13.51836606757532
 21
5.228846957284683
 31
0.0
  0
LINE
  5
22D51
330
22D46
100
AcDbEntity
  8
0
  6
CONTINUOUS
100
AcDbLine
 10
12.66873058876364
 20
3.705692269392816
 30
0.0
 11
13.71795180454843
 21
4.754913485177607
 31
0.0
  0
LINE
  5
22D52
330
22D46
100
AcDbEntity
  8
0
  6
CONTINUOUS
100
AcDbLine
 10
12.86831133953877
 20
3.231753811087759
 30
0.0
 11
13.91753754152154
 21
4.280980013070531
 31
0.0
  0
LINE
  5
22D53
330
22D46
100
AcDbEntity
  8
0
  6
CONTINUOUS
100
AcDbLine
 10
13.0678920903139
 20
2.757815352782702
 30
0.0
 11
14.11712327849465
 21
3.807046540963456
 31
0.0
  0
LINE
  5
22D54
330
22D46
100
AcDbEntity
  8
0
  6
CONTINUOUS
100
AcDbLine
 10
13.26747284108903
 20
2.283876894477644
 30
0.0
 11
14.31670901546777
 21
3.333113068856379
 31
0.0
  0
LINE
  5
22D55
330
22D46
100
AcDbEntity
  8
0
  6
CONTINUOUS
100
AcDbLine
 10
16.36767838827179
 20
8.751678487061342
 30
0.0
 11
16.50332410898388
 21
8.887324207773432
 31
0.0
  0
LINE
  5
22D56
330
22D46
100
AcDbEntity
  8
0
  6
CONTINUOUS
100
AcDbLine
 10
15.96190732182191
 20
7.67238821153127
 30
0.0
 11
16.68735328004734
 21
8.397834169756699
 31
0.0
  0
LINE
  5
22D57
330
22D46
100
AcDbEntity
  8
0
  6
CONTINUOUS
100
AcDbLine
 10
15.55613625537202
 20
6.593097936001196
 30
0.0
 11
16.87138245111079
 21
7.908344131739965
 31
0.0
  0
LINE
  5
22D58
330
22D46
100
AcDbEntity
  8
0
  6
CONTINUOUS
100
AcDbLine
 10
15.15036518892213
 20
5.513807660471122
 30
0.0
 11
17.05541162217424
 21
7.418854093723231
 31
0.0
  0
LINE
  5
22D59
330
22D46
100
AcDbEntity
  8
0
  6
CONTINUOUS
100
AcDbLine
 10
14.74459412247225
 20
4.434517384941048
 30
0.0
 11
17.2394407932377
 21
6.929364055706499
 31
0.0
  0
LINE
  5
22D5A
330
22D46
100
AcDbEntity
  8
0
  6
CONTINUOUS
100
AcDbLine
 10
14.33882305602236
 20
3.355227109410975
 30
0.0
 11
17.42346996430115
 21
6.439874017689766
 31
0.0
  0
LINE
  5
22D5B
330
22D46
100
AcDbEntity
  8
0
  6
CONTINUOUS
100
AcDbLine
 10
13.46705359186416
 20
1.809938436172586
 30
0.0
 11
16.0819338255367
 21
4.424818669845129
 31
0.0
  0
LINE
  5
22D5C
330
22D46
100
AcDbEntity
  8
0
  6
CONTINUOUS
100
AcDbLine
 10
16.63283254238972
 20
4.975717386698149
 30
0.0
 11
17.60749913536461
 21
5.950383979673033
 31
0.0
  0
LINE
  5
22D5D
330
22D46
100
AcDbEntity
  8
0
  6
CONTINUOUS
100
AcDbLine
 10
13.66663434263929
 20
1.335999977867529
 30
0.0
 11
15.67604797733754
 21
3.345413612565779
 31
0.0
  0
LINE
  5
22D5E
330
22D46
100
AcDbEntity
  8
0
  6
CONTINUOUS
100
AcDbLine
 10
13.86621509341442
 20
0.8620615195624723
 30
0.0
 11
15.27016212913838
 21
2.26600855528643
 31
0.0
  0
LINE
  5
22D5F
330
22D46
100
AcDbEntity
  8
0
  6
CONTINUOUS
100
AcDbLine
 10
16.81682257348267
 20
4.486188208710908
 30
0.0
 11
17.79152830642806
 21
5.460893941656299
 31
0.0
  0
LINE
  5
22D60
330
22D46
100
AcDbEntity
  8
0
  6
CONTINUOUS
100
AcDbLine
 10
17.00081260457561
 20
3.996659030723667
 30
0.0
 11
17.97555747749151
 21
4.971403903639565
 31
0.0
  0
LINE
  5
22D61
330
22D46
100
AcDbEntity
  8
0
  6
CONTINUOUS
100
AcDbLine
 10
20.74362343514722
 20
8.412989070375462
 30
0.0
 11
21.09373436476302
 21
8.763099999991256
 31
0.0
  0
LINE
  5
22D62
330
22D46
100
AcDbEntity
  8
0
  6
CONTINUOUS
100
AcDbLine
 10
20.25401257174777
 20
7.249858997895826
 30
0.0
 11
21.7672535738432
 21
8.763099999991255
 31
0.0
  0
LINE
  5
22D63
330
22D46
100
AcDbEntity
  8
0
  6
CONTINUOUS
100
AcDbLine
 10
14.06579584418955
 20
0.3881230612574149
 30
0.0
 11
14.86427628093921
 21
1.186603498007082
 31
0.0
  0
LINE
  5
22D64
330
22D46
100
AcDbEntity
  8
0
  6
CONTINUOUS
100
AcDbLine
 10
14.26537659496467
 20
-0.0858153970476412
 30
0.0
 11
14.45839043274005
 21
0.1071984407277329
 31
0.0
  0
LINE
  5
22D65
330
22D46
100
AcDbEntity
  8
0
  6
CONTINUOUS
100
AcDbLine
 10
17.18480263566856
 20
3.507129852736426
 30
0.0
 11
18.15958664855496
 21
4.481913865622833
 31
0.0
  0
LINE
  5
22D66
330
22D46
100
AcDbEntity
  8
0
  6
CONTINUOUS
100
AcDbLine
 10
17.3687926667615
 20
3.017600674749186
 30
0.0
 11
18.34361581961842
 21
3.9924238276061
 31
0.0
  0
LINE
  5
22D67
330
22D46
100
AcDbEntity
  8
0
  6
CONTINUOUS
100
AcDbLine
 10
19.76440170834832
 20
6.086728925416191
 30
0.0
 11
22.33924590259489
 21
8.661573119662755
 31
0.0
  0
LINE
  5
22D68
330
22D46
100
AcDbEntity
  8
0
  6
CONTINUOUS
100
AcDbLine
 10
19.27479084494887
 20
4.923598852936555
 30
0.0
 11
21.84929622842713
 21
7.498104236414807
 31
0.0
  0
LINE
  5
22D69
330
22D46
100
AcDbEntity
  8
0
  6
CONTINUOUS
100
AcDbLine
 10
17.55278269785445
 20
2.528071496761945
 30
0.0
 11
18.52764499068187
 21
3.502933789589366
 31
0.0
  0
LINE
  5
22D6A
330
22D46
100
AcDbEntity
  8
0
  6
CONTINUOUS
100
AcDbLine
 10
18.78517998154942
 20
3.760468780456919
 30
0.0
 11
21.35934655425936
 21
6.33463535316686
 31
0.0
  0
LINE
  5
22D6B
330
22D46
100
AcDbEntity
  8
0
  6
CONTINUOUS
100
AcDbLine
 10
17.73677272894739
 20
2.038542318774704
 30
0.0
 11
20.8693968800916
 21
5.171166469918914
 31
0.0
  0
LINE
  5
22D6C
330
22D46
100
AcDbEntity
  8
0
  6
CONTINUOUS
100
AcDbLine
 10
17.92076276004034
 20
1.549013140787464
 30
0.0
 11
20.37944720592384
 21
4.007697586670968
 31
0.0
  0
LINE
  5
22D6D
330
22D46
100
AcDbEntity
  8
0
  6
CONTINUOUS
100
AcDbLine
 10
18.10475279113329
 20
1.059483962800223
 30
0.0
 11
19.88949753175608
 21
2.84422870342302
 31
0.0
  0
LINE
  5
22D6E
330
22D46
100
AcDbEntity
  8
0
  6
CONTINUOUS
100
AcDbLine
 10
18.28874282222623
 20
0.5699547848129822
 30
0.0
 11
19.39954785758832
 21
1.680759820175074
 31
0.0
  0
LINE
  5
22D6F
330
22D46
100
AcDbEntity
  8
0
  6
CONTINUOUS
100
AcDbLine
 10
18.47273285331918
 20
0.0804256068257416
 30
0.0
 11
18.90959818342056
 21
0.517290936927127
 31
0.0
  0
LINE
  5
22D70
330
22D46
100
AcDbEntity
  8
0
  6
CONTINUOUS
100
AcDbLine
 10
14.3590401358224
 20
-0.1570118376323384
 30
0.0
 11
14.24903296539946
 21
-0.0470046672093929
 31
0.0
  0
LINE
  5
22D71
330
22D46
100
AcDbEntity
  8
0
  6
CONTINUOUS
100
AcDbLine
 10
14.54309291258661
 20
0.332454594683643
 30
0.0
 11
13.75908329123172
 21
1.116464216038529
 31
0.0
  0
LINE
  5
22D72
330
22D46
100
AcDbEntity
  8
0
  6
CONTINUOUS
100
AcDbLine
 10
14.72714568935081
 20
0.8219210269996244
 30
0.0
 11
13.26913361706399
 21
2.27993309928645
 31
0.0
  0
LINE
  5
22D73
330
22D46
100
AcDbEntity
  8
0
  6
CONTINUOUS
100
AcDbLine
 10
14.91119846611502
 20
1.311387459315606
 30
0.0
 11
12.77918394289625
 21
3.443401982534371
 31
0.0
  0
LINE
  5
22D74
330
22D46
100
AcDbEntity
  8
0
  6
CONTINUOUS
100
AcDbLine
 10
15.09525124287922
 20
1.800853891631587
 30
0.0
 11
12.28923426872852
 21
4.606870865782293
 31
0.0
  0
LINE
  5
22D75
330
22D46
100
AcDbEntity
  8
0
  6
CONTINUOUS
100
AcDbLine
 10
15.27930401964343
 20
2.290320323947569
 30
0.0
 11
11.79928459456078
 21
5.770339749030213
 31
0.0
  0
LINE
  5
22D76
330
22D46
100
AcDbEntity
  8
0
  6
CONTINUOUS
100
AcDbLine
 10
15.46335679640763
 20
2.77978675626355
 30
0.0
 11
14.48885470994921
 21
3.754288842721972
 31
0.0
  0
LINE
  5
22D77
330
22D46
100
AcDbEntity
  8
0
  6
CONTINUOUS
100
AcDbLine
 10
13.88507249233704
 20
4.358071060334137
 30
0.0
 11
11.30933492039305
 21
6.933808632278135
 31
0.0
  0
LINE
  5
22D78
330
22D46
100
AcDbEntity
  8
0
  6
CONTINUOUS
100
AcDbLine
 10
18.75840522805855
 20
0.1582575336928151
 30
0.0
 11
18.25383727664818
 21
0.6628254851031863
 31
0.0
  0
LINE
  5
22D79
330
22D46
100
AcDbEntity
  8
0
  6
CONTINUOUS
100
AcDbLine
 10
15.64740957317184
 20
3.269253188579531
 30
0.0
 11
14.67288388101266
 21
4.243778880738705
 31
0.0
  0
LINE
  5
22D7A
330
22D46
100
AcDbEntity
  8
0
  6
CONTINUOUS
100
AcDbLine
 10
13.39509276772158
 20
5.521569994029786
 30
0.0
 11
10.81938524622531
 21
8.097277515526056
 31
0.0
  0
LINE
  5
22D7B
330
22D46
100
AcDbEntity
  8
0
  6
CONTINUOUS
100
AcDbLine
 10
18.95798597883369
 20
0.6321959919978686
 30
0.0
 11
17.84825644852853
 21
1.741925522303024
 31
0.0
  0
LINE
  5
22D7C
330
22D46
100
AcDbEntity
  8
0
  6
CONTINUOUS
100
AcDbLine
 10
19.15756672960882
 20
1.106134450302922
 30
0.0
 11
17.44267562040888
 21
2.821025559502861
 31
0.0
  0
LINE
  5
22D7D
330
22D46
100
AcDbEntity
  8
0
  6
CONTINUOUS
100
AcDbLine
 10
15.83146234993604
 20
3.758719620895513
 30
0.0
 11
14.85691305207612
 21
4.733268918755439
 31
0.0
  0
LINE
  5
22D7E
330
22D46
100
AcDbEntity
  8
0
  6
CONTINUOUS
100
AcDbLine
 10
16.01551512670025
 20
4.248186053211494
 30
0.0
 11
15.04094222313957
 21
5.222758956772172
 31
0.0
  0
LINE
  5
22D7F
330
22D46
100
AcDbEntity
  8
0
  6
CONTINUOUS
100
AcDbLine
 10
12.90511304310612
 20
6.685068927725435
 30
0.0
 11
10.8270819708403
 21
8.763099999991255
 31
0.0
  0
LINE
  5
22D80
330
22D46
100
AcDbEntity
  8
0
  6
CONTINUOUS
100
AcDbLine
 10
12.41513331849066
 20
7.848567861421083
 30
0.0
 11
11.50060117992049
 21
8.763099999991255
 31
0.0
  0
LINE
  5
22D81
330
22D46
100
AcDbEntity
  8
0
  6
CONTINUOUS
100
AcDbLine
 10
19.35714748038395
 20
1.580072908607975
 30
0.0
 11
17.03709479228923
 21
3.900125596702697
 31
0.0
  0
LINE
  5
22D82
330
22D46
100
AcDbEntity
  8
0
  6
CONTINUOUS
100
AcDbLine
 10
19.55672823115909
 20
2.054011366913028
 30
0.0
 11
16.63151396416958
 21
4.979225633902534
 31
0.0
  0
LINE
  5
22D83
330
22D46
100
AcDbEntity
  8
0
  6
CONTINUOUS
100
AcDbLine
 10
16.19956790346445
 20
4.737652485527476
 30
0.0
 11
15.22497139420302
 21
5.712248994788904
 31
0.0
  0
LINE
  5
22D84
330
22D46
100
AcDbEntity
  8
0
  6
CONTINUOUS
100
AcDbLine
 10
16.38362068022866
 20
5.227118917843457
 30
0.0
 11
15.40900056526648
 21
6.201739032805637
 31
0.0
  0
LINE
  5
22D85
330
22D46
100
AcDbEntity
  8
0
  6
CONTINUOUS
100
AcDbLine
 10
19.75630898193422
 20
2.527949825218081
 30
0.0
 11
18.70774536448286
 21
3.576513442669441
 31
0.0
  0
LINE
  5
22D86
330
22D46
100
AcDbEntity
  8
0
  6
CONTINUOUS
100
AcDbLine
 10
19.95588973270936
 20
3.001888283523134
 30
0.0
 11
18.90726987211446
 21
4.050508144118028
 31
0.0
  0
LINE
  5
22D87
330
22D46
100
AcDbEntity
  8
0
  6
CONTINUOUS
100
AcDbLine
 10
20.15547048348449
 20
3.475826741828186
 30
0.0
 11
19.10679437974606
 21
4.524502845566614
 31
0.0
  0
LINE
  5
22D88
330
22D46
100
AcDbEntity
  8
0
  6
CONTINUOUS
100
AcDbLine
 10
20.35505123425962
 20
3.94976520013324
 30
0.0
 11
19.30631888737766
 21
4.998497547015201
 31
0.0
  0
LINE
  5
22D89
330
22D46
100
AcDbEntity
  8
0
  6
CONTINUOUS
100
AcDbLine
 10
20.55463198503475
 20
4.423703658438292
 30
0.0
 11
19.50584339500926
 21
5.472492248463787
 31
0.0
  0
LINE
  5
22D8A
330
22D46
100
AcDbEntity
  8
0
  6
CONTINUOUS
100
AcDbLine
 10
18.37481191085755
 20
3.909446896294752
 30
0.0
 11
15.59302973632993
 21
6.691229070822371
 31
0.0
  0
LINE
  5
22D8B
330
22D46
100
AcDbEntity
  8
0
  6
CONTINUOUS
100
AcDbLine
 10
17.96904084440766
 20
4.988737171824825
 30
0.0
 11
15.77705890739338
 21
7.180719108839104
 31
0.0
  0
LINE
  5
22D8C
330
22D46
100
AcDbEntity
  8
0
  6
CONTINUOUS
100
AcDbLine
 10
17.56326977795777
 20
6.068027447354899
 30
0.0
 11
15.96108807845684
 21
7.670209146855838
 31
0.0
  0
LINE
  5
22D8D
330
22D46
100
AcDbEntity
  8
0
  6
CONTINUOUS
100
AcDbLine
 10
17.15749871150789
 20
7.147317722884972
 30
0.0
 11
16.14511724952029
 21
8.15969918487257
 31
0.0
  0
LINE
  5
22D8E
330
22D46
100
AcDbEntity
  8
0
  6
CONTINUOUS
100
AcDbLine
 10
16.751727645058
 20
8.226607998415046
 30
0.0
 11
16.32914642058374
 21
8.649189222889303
 31
0.0
  0
LINE
  5
22D8F
330
22D46
100
AcDbEntity
  8
0
  6
CONTINUOUS
100
AcDbLine
 10
20.75421273580989
 20
4.897642116743345
 30
0.0
 11
19.70536790264086
 21
5.946486949912374
 31
0.0
  0
LINE
  5
22D90
330
22D46
100
AcDbEntity
  8
0
  6
CONTINUOUS
100
AcDbLine
 10
20.95379348658502
 20
5.371580575048398
 30
0.0
 11
19.90489241027246
 21
6.42048165136096
 31
0.0
  0
LINE
  5
22D91
330
22D46
100
AcDbEntity
  8
0
  6
CONTINUOUS
100
AcDbLine
 10
21.15337423736015
 20
5.845519033353452
 30
0.0
 11
20.10441691790406
 21
6.894476352809547
 31
0.0
  0
LINE
  5
22D92
330
22D46
100
AcDbEntity
  8
0
  6
CONTINUOUS
100
AcDbLine
 10
21.35295498813529
 20
6.319457491658505
 30
0.0
 11
20.30394142553566
 21
7.368471054258134
 31
0.0
  0
LINE
  5
22D93
330
22D46
100
AcDbEntity
  8
0
  6
CONTINUOUS
100
AcDbLine
 10
21.55253573891042
 20
6.793395949963558
 30
0.0
 11
20.50346593316726
 21
7.842465755706721
 31
0.0
  0
LINE
  5
22D94
330
22D46
100
AcDbEntity
  8
0
  6
CONTINUOUS
100
AcDbLine
 10
21.75211648968556
 20
7.267334408268612
 30
0.0
 11
20.70299044079886
 21
8.316460457155308
 31
0.0
  0
LINE
  5
22D95
330
22D46
100
AcDbEntity
  8
0
  6
CONTINUOUS
100
AcDbLine
 10
21.95169724046069
 20
7.741272866573663
 30
0.0
 11
20.9298701070431
 21
8.763099999991256
 31
0.0
  0
LINE
  5
22D96
330
22D46
100
AcDbEntity
  8
0
  6
CONTINUOUS
100
AcDbLine
 10
22.15127799123582
 20
8.215211324878716
 30
0.0
 11
21.60338931612328
 21
8.763099999991256
 31
0.0
  0
LINE
  5
22D97
330
22D46
100
AcDbEntity
  8
0
  6
CONTINUOUS
100
AcDbLine
 10
22.35085874201096
 20
8.689149783183769
 30
0.0
 11
22.27690852520347
 21
8.763099999991255
 31
0.0
  0
ENDBLK
  5
22E89
330
22D46
100
AcDbEntity
  8
0
100
AcDbBlockEnd
  0
BLOCK
  5
22E8A
330
22D98
100
AcDbEntity
  8
0
100
AcDbBlockBegin
  2
*X122
 70
     1
 10
0.0
 20
0.0
 30
0.0
  3
*X122
  1

  0
LINE
  5
22D99
330
22D98
100
AcDbEntity
  8
0
  6
CONTINUOUS
100
AcDbLine
 10
23.19462913593892
 20
8.169917934846424
 30
0.0
 11
23.70775465517246
 21
8.683043454079957
 31
0.0
  0
LINE
  5
22D9A
330
22D98
100
AcDbEntity
  8
0
  6
CONTINUOUS
100
AcDbLine
 10
22.64923161835078
 20
6.951001208178088
 30
0.0
 11
23.9159364069932
 21
8.217705996820516
 31
0.0
  0
LINE
  5
22D9B
330
22D98
100
AcDbEntity
  8
0
  6
CONTINUOUS
100
AcDbLine
 10
22.10383410076263
 20
5.732084481509751
 30
0.0
 11
24.12411815881395
 21
7.752368539561078
 31
0.0
  0
LINE
  5
22D9C
330
22D98
100
AcDbEntity
  8
0
  6
CONTINUOUS
100
AcDbLine
 10
21.55843658317447
 20
4.513167754841414
 30
0.0
 11
24.3322999106347
 21
7.287031082301639
 31
0.0
  0
LINE
  5
22D9D
330
22D98
100
AcDbEntity
  8
0
  6
CONTINUOUS
100
AcDbLine
 10
21.01303906558632
 20
3.294251028173077
 30
0.0
 11
24.54048166245544
 21
6.821693625042199
 31
0.0
  0
LINE
  5
22D9E
330
22D98
100
AcDbEntity
  8
0
  6
CONTINUOUS
100
AcDbLine
 10
20.46764154799817
 20
2.075334301504738
 30
0.0
 11
23.28571549467848
 21
4.89340824818505
 31
0.0
  0
LINE
  5
22D9F
330
22D98
100
AcDbEntity
  8
0
  6
CONTINUOUS
100
AcDbLine
 10
19.92224403041002
 20
0.8564175748364002
 30
0.0
 11
22.74075865492779
 21
3.674932199354171
 31
0.0
  0
LINE
  5
22DA0
330
22D98
100
AcDbEntity
  8
0
  6
CONTINUOUS
100
AcDbLine
 10
23.67305085490148
 20
5.280743608408048
 30
0.0
 11
24.74866341427619
 21
6.356356167782759
 31
0.0
  0
LINE
  5
22DA1
330
22D98
100
AcDbEntity
  8
0
  6
CONTINUOUS
100
AcDbLine
 10
23.88118970842314
 20
4.815363252849522
 30
0.0
 11
24.95684516609694
 21
5.89101871052332
 31
0.0
  0
LINE
  5
22DA2
330
22D98
100
AcDbEntity
  8
0
  6
CONTINUOUS
100
AcDbLine
 10
19.73925852647308
 20
-0.0000871381807288
 30
0.0
 11
23.4103456646501
 21
3.670999999996297
 31
0.0
  0
LINE
  5
22DA3
330
22D98
100
AcDbEntity
  8
0
  6
CONTINUOUS
100
AcDbLine
 10
24.0893285619448
 20
4.349982897290997
 30
0.0
 11
25.16502691791769
 21
5.42568125326388
 31
0.0
  0
LINE
  5
22DA4
330
22D98
100
AcDbEntity
  8
0
  6
CONTINUOUS
100
AcDbLine
 10
20.41282099582748
 20
-0.0000438779065108
 30
0.0
 11
21.64944178675636
 21
1.236576913022366
 31
0.0
  0
LINE
  5
22DA5
330
22D98
100
AcDbEntity
  8
0
  6
CONTINUOUS
100
AcDbLine
 10
22.78126487373161
 20
2.36839999999762
 30
0.0
 11
24.08386487373029
 21
3.670999999996297
 31
0.0
  0
LINE
  5
22DA6
330
22D98
100
AcDbEntity
  8
0
  6
CONTINUOUS
100
AcDbLine
 10
24.29746741546646
 20
3.884602541732471
 30
0.0
 11
25.37320866973843
 21
4.960343796004441
 31
0.0
  0
LINE
  5
22DA7
330
22D98
100
AcDbEntity
  8
0
  6
CONTINUOUS
100
AcDbLine
 10
21.08638346518189
 20
-0.0000006176322938
 30
0.0
 11
21.10379033335899
 21
0.0174062505448083
 31
0.0
  0
LINE
  5
22DA8
330
22D98
100
AcDbEntity
  8
0
  6
CONTINUOUS
100
AcDbLine
 10
23.4547840828118
 20
2.36839999999762
 30
0.0
 11
25.58139042155918
 21
4.495006338745002
 31
0.0
  0
LINE
  5
22DA9
330
22D98
100
AcDbEntity
  8
0
  6
CONTINUOUS
100
AcDbLine
 10
29.30199999996933
 20
8.215615917155148
 30
0.0
 11
29.84948408280543
 21
8.763099999991255
 31
0.0
  0
LINE
  5
22DAA
330
22D98
100
AcDbEntity
  8
0
  6
CONTINUOUS
100
AcDbLine
 10
24.12830329189199
 20
2.36839999999762
 30
0.0
 11
25.78957217337993
 21
4.029668881485562
 31
0.0
  0
LINE
  5
22DAB
330
22D98
100
AcDbEntity
  8
0
  6
CONTINUOUS
100
AcDbLine
 10
29.30199999996933
 20
7.54209670807496
 30
0.0
 11
30.52300329188562
 21
8.763099999991255
 31
0.0
  0
LINE
  5
22DAC
330
22D98
100
AcDbEntity
  8
0
  6
CONTINUOUS
100
AcDbLine
 10
24.80182250097217
 20
2.36839999999762
 30
0.0
 11
25.99775392520067
 21
3.564331424226122
 31
0.0
  0
LINE
  5
22DAD
330
22D98
100
AcDbEntity
  8
0
  6
CONTINUOUS
100
AcDbLine
 10
29.30199999996933
 20
6.868577498994774
 30
0.0
 11
30.74199999996926
 21
8.308577498994712
 31
0.0
  0
LINE
  5
22DAE
330
22D98
100
AcDbEntity
  8
0
  6
CONTINUOUS
100
AcDbLine
 10
25.13028238392013
 20
2.023340673865392
 30
0.0
 11
26.20593567702142
 21
3.098993966966683
 31
0.0
  0
LINE
  5
22DAF
330
22D98
100
AcDbEntity
  8
0
  6
CONTINUOUS
100
AcDbLine
 10
25.33838066033617
 20
1.557919741201244
 30
0.0
 11
26.41411742884217
 21
2.633656509707244
 31
0.0
  0
LINE
  5
22DB0
330
22D98
100
AcDbEntity
  8
0
  6
CONTINUOUS
100
AcDbLine
 10
25.54647893675221
 20
1.092498808537098
 30
0.0
 11
26.62229918066291
 21
2.168319052447804
 31
0.0
  0
LINE
  5
22DB1
330
22D98
100
AcDbEntity
  8
0
  6
CONTINUOUS
100
AcDbLine
 10
25.75457721316825
 20
0.62707787587295
 30
0.0
 11
26.83048093248366
 21
1.702981595188365
 31
0.0
  0
LINE
  5
22DB2
330
22D98
100
AcDbEntity
  8
0
  6
CONTINUOUS
100
AcDbLine
 10
29.30199999996933
 20
6.195058289914587
 30
0.0
 11
30.74199999996926
 21
7.635058289914522
 31
0.0
  0
LINE
  5
22DB3
330
22D98
100
AcDbEntity
  8
0
  6
CONTINUOUS
100
AcDbLine
 10
29.30199999996933
 20
5.521539080834401
 30
0.0
 11
30.74199999996926
 21
6.961539080834331
 31
0.0
  0
LINE
  5
22DB4
330
22D98
100
AcDbEntity
  8
0
  6
CONTINUOUS
100
AcDbLine
 10
29.30199999996933
 20
4.848019871754214
 30
0.0
 11
30.74199999996925
 21
6.288019871754143
 31
0.0
  0
LINE
  5
22DB5
330
22D98
100
AcDbEntity
  8
0
  6
CONTINUOUS
100
AcDbLine
 10
29.30199999996933
 20
4.174500662674028
 30
0.0
 11
30.74199999996925
 21
5.614500662673953
 31
0.0
  0
LINE
  5
22DB6
330
22D98
100
AcDbEntity
  8
0
  6
CONTINUOUS
100
AcDbLine
 10
25.96267548958429
 20
0.1616569432088024
 30
0.0
 11
27.18411854636669
 21
1.383099999991207
 31
0.0
  0
LINE
  5
22DB7
330
22D98
100
AcDbEntity
  8
0
  6
CONTINUOUS
100
AcDbLine
 10
29.30199999996933
 20
3.500981453593841
 30
0.0
 11
30.74199999996925
 21
4.940981453593762
 31
0.0
  0
LINE
  5
22DB8
330
22D98
100
AcDbEntity
  8
0
  6
CONTINUOUS
100
AcDbLine
 10
26.50763775544691
 20
0.0330999999912356
 30
0.0
 11
27.85763775544689
 21
1.383099999991223
 31
0.0
  0
LINE
  5
22DB9
330
22D98
100
AcDbEntity
  8
0
  6
CONTINUOUS
100
AcDbLine
 10
29.30199999996933
 20
2.827462244513656
 30
0.0
 11
30.74199999996925
 21
4.267462244513574
 31
0.0
  0
LINE
  5
22DBA
330
22D98
100
AcDbEntity
  8
0
  6
CONTINUOUS
100
AcDbLine
 10
27.18115696452709
 20
0.0330999999912356
 30
0.0
 11
28.55073879889363
 21
1.402681834357775
 31
0.0
  0
LINE
  5
22DBB
330
22D98
100
AcDbEntity
  8
0
  6
CONTINUOUS
100
AcDbLine
 10
29.28241816560272
 20
2.134361201066866
 30
0.0
 11
30.74199999996924
 21
3.593943035433383
 31
0.0
  0
LINE
  5
22DBC
330
22D98
100
AcDbEntity
  8
0
  6
CONTINUOUS
100
AcDbLine
 10
27.85467617360728
 20
0.0330999999912356
 30
0.0
 11
30.74199999996924
 21
2.920423826353195
 31
0.0
  0
LINE
  5
22DBD
330
22D98
100
AcDbEntity
  8
0
  6
CONTINUOUS
100
AcDbLine
 10
28.53897559587887
 20
0.0438802131826428
 30
0.0
 11
30.73121978677781
 21
2.236124404081585
 31
0.0
  0
LINE
  5
22DBE
330
22D98
100
AcDbEntity
  8
0
  6
CONTINUOUS
100
AcDbLine
 10
29.45140055588722
 20
0.2827859641107988
 30
0.0
 11
30.49231403584965
 21
1.323699444073236
 31
0.0
  0
LINE
  5
22DBF
330
22D98
100
AcDbEntity
  8
0
  6
CONTINUOUS
100
AcDbLine
 10
19.59027867740337
 20
-0.0000967065718083
 30
0.0
 11
19.55485265190471
 21
0.035329318926844
 31
0.0
  0
LINE
  5
22DC0
330
22D98
100
AcDbEntity
  8
0
  6
CONTINUOUS
100
AcDbLine
 10
20.26375463176586
 20
-0.0000534518541091
 30
0.0
 11
19.76305575737534
 21
0.5006454225364014
 31
0.0
  0
LINE
  5
22DC1
330
22D98
100
AcDbEntity
  8
0
  6
CONTINUOUS
100
AcDbLine
 10
20.93723058612834
 20
-0.0000101971364099
 30
0.0
 11
19.97125886284597
 21
0.965961526145958
 31
0.0
  0
LINE
  5
22DC2
330
22D98
100
AcDbEntity
  8
0
  6
CONTINUOUS
100
AcDbLine
 10
21.25514828313686
 20
0.355591314935257
 30
0.0
 11
20.1794619683166
 21
1.431277629755512
 31
0.0
  0
LINE
  5
22DC3
330
22D98
100
AcDbEntity
  8
0
  6
CONTINUOUS
100
AcDbLine
 10
21.46338838394921
 20
0.8208704232030986
 30
0.0
 11
20.38766507378723
 21
1.896593733365069
 31
0.0
  0
LINE
  5
22DC4
330
22D98
100
AcDbEntity
  8
0
  6
CONTINUOUS
100
AcDbLine
 10
21.67162848476155
 20
1.28614953147094
 30
0.0
 11
20.59586817925786
 21
2.361909836974626
 31
0.0
  0
LINE
  5
22DC5
330
22D98
100
AcDbEntity
  8
0
  6
CONTINUOUS
100
AcDbLine
 10
21.8798685855739
 20
1.751428639738782
 30
0.0
 11
20.80407128472849
 21
2.827225940584183
 31
0.0
  0
LINE
  5
22DC6
330
22D98
100
AcDbEntity
  8
0
  6
CONTINUOUS
100
AcDbLine
 10
22.08810868638624
 20
2.216707748006623
 30
0.0
 11
21.01227439019912
 21
3.292542044193739
 31
0.0
  0
LINE
  5
22DC7
330
22D98
100
AcDbEntity
  8
0
  6
CONTINUOUS
100
AcDbLine
 10
22.60993564347543
 20
2.36839999999762
 30
0.0
 11
21.22047749566975
 21
3.757858147803296
 31
0.0
  0
LINE
  5
22DC8
330
22D98
100
AcDbEntity
  8
0
  6
CONTINUOUS
100
AcDbLine
 10
23.28345485255561
 20
2.36839999999762
 30
0.0
 11
21.42868060114038
 21
4.223174251412853
 31
0.0
  0
LINE
  5
22DC9
330
22D98
100
AcDbEntity
  8
0
  6
CONTINUOUS
100
AcDbLine
 10
26.29227406164219
 20
0.0330999999912356
 30
0.0
 11
25.80009199592872
 21
0.5252820657046957
 31
0.0
  0
LINE
  5
22DCA
330
22D98
100
AcDbEntity
  8
0
  6
CONTINUOUS
100
AcDbLine
 10
23.9569740616358
 20
2.36839999999762
 30
0.0
 11
21.63688370661101
 21
4.688490355022409
 31
0.0
  0
LINE
  5
22DCB
330
22D98
100
AcDbEntity
  8
0
  6
CONTINUOUS
100
AcDbLine
 10
26.96579327072237
 20
0.0330999999912356
 30
0.0
 11
25.2554132311971
 21
1.743480039516508
 31
0.0
  0
LINE
  5
22DCC
330
22D98
100
AcDbEntity
  8
0
  6
CONTINUOUS
100
AcDbLine
 10
24.63049327071599
 20
2.36839999999762
 30
0.0
 11
23.32789327071731
 21
3.670999999996297
 31
0.0
  0
LINE
  5
22DCD
330
22D98
100
AcDbEntity
  8
0
  6
CONTINUOUS
100
AcDbLine
 10
22.92098674744635
 20
4.077906523267254
 30
0.0
 11
21.84508681208164
 21
5.153806458631966
 31
0.0
  0
LINE
  5
22DCE
330
22D98
100
AcDbEntity
  8
0
  6
CONTINUOUS
100
AcDbLine
 10
27.63931247980256
 20
0.0330999999912356
 30
0.0
 11
24.0014124797975
 21
3.670999999996297
 31
0.0
  0
LINE
  5
22DCF
330
22D98
100
AcDbEntity
  8
0
  6
CONTINUOUS
100
AcDbLine
 10
23.129125600968
 20
4.5432868788258
 30
0.0
 11
22.05328991755227
 21
5.619122562241522
 31
0.0
  0
LINE
  5
22DD0
330
22D98
100
AcDbEntity
  8
0
  6
CONTINUOUS
100
AcDbLine
 10
28.31283168888275
 20
0.0330999999912356
 30
0.0
 11
24.16488385994816
 21
4.181047828925828
 31
0.0
  0
LINE
  5
22DD1
330
22D98
100
AcDbEntity
  8
0
  6
CONTINUOUS
100
AcDbLine
 10
23.33726445448964
 20
5.008667234384345
 30
0.0
 11
22.2614930230229
 21
6.084438665851079
 31
0.0
  0
LINE
  5
22DD2
330
22D98
100
AcDbEntity
  8
0
  6
CONTINUOUS
100
AcDbLine
 10
28.92085740005492
 20
0.0985934978992438
 30
0.0
 11
27.63635089796295
 21
1.383099999991217
 31
0.0
  0
LINE
  5
22DD3
330
22D98
100
AcDbEntity
  8
0
  6
CONTINUOUS
100
AcDbLine
 10
26.43704649509776
 20
2.582404402856405
 30
0.0
 11
23.61992702019732
 21
5.399523877756844
 31
0.0
  0
LINE
  5
22DD4
330
22D98
100
AcDbEntity
  8
0
  6
CONTINUOUS
100
AcDbLine
 10
23.54540330801128
 20
5.47404758994289
 30
0.0
 11
22.46969612849353
 21
6.549754769460635
 31
0.0
  0
LINE
  5
22DD5
330
22D98
100
AcDbEntity
  8
0
  6
CONTINUOUS
100
AcDbLine
 10
29.42225615078443
 20
0.2707139562499279
 30
0.0
 11
28.30987010704312
 21
1.383099999991234
 31
0.0
  0
LINE
  5
22DD6
330
22D98
100
AcDbEntity
  8
0
  6
CONTINUOUS
100
AcDbLine
 10
25.89179548232307
 20
3.801174624711282
 30
0.0
 11
22.67789923396416
 21
7.015070873070191
 31
0.0
  0
LINE
  5
22DD7
330
22D98
100
AcDbEntity
  8
0
  6
CONTINUOUS
100
AcDbLine
 10
29.83624534690007
 20
0.5302439692144705
 30
0.0
 11
28.85811781497101
 21
1.508371501143527
 31
0.0
  0
LINE
  5
22DD8
330
22D98
100
AcDbEntity
  8
0
  6
CONTINUOUS
100
AcDbLine
 10
25.34654446954838
 20
5.01994484656616
 30
0.0
 11
22.88610233943479
 21
7.480386976679748
 31
0.0
  0
LINE
  5
22DD9
330
22D98
100
AcDbEntity
  8
0
  6
CONTINUOUS
100
AcDbLine
 10
30.17865975401872
 20
0.8613487711760022
 30
0.0
 11
29.18888744090175
 21
1.851121084292977
 31
0.0
  0
LINE
  5
22DDA
330
22D98
100
AcDbEntity
  8
0
  6
CONTINUOUS
100
AcDbLine
 10
24.80129345677369
 20
6.238715068421037
 30
0.0
 11
23.09430544490542
 21
7.945703080289305
 31
0.0
  0
LINE
  5
22DDB
330
22D98
100
AcDbEntity
  8
0
  6
CONTINUOUS
100
AcDbLine
 10
30.45496647202376
 20
1.258561262251155
 30
0.0
 11
29.30199999996933
 21
2.411527734305588
 31
0.0
  0
LINE
  5
22DDC
330
22D98
100
AcDbEntity
  8
0
  6
CONTINUOUS
100
AcDbLine
 10
24.256042443999
 20
7.457485290275915
 30
0.0
 11
23.30250855037605
 21
8.411019183898862
 31
0.0
  0
LINE
  5
22DDD
330
22D98
100
AcDbEntity
  8
0
  6
CONTINUOUS
100
AcDbLine
 10
30.64868582078271
 20
1.738361122572387
 30
0.0
 11
29.30199999996933
 21
3.085046943385775
 31
0.0
  0
LINE
  5
22DDE
330
22D98
100
AcDbEntity
  8
0
  6
CONTINUOUS
100
AcDbLine
 10
23.71079143122431
 20
8.676255512130794
 30
0.0
 11
23.51071165584668
 21
8.876335287508416
 31
0.0
  0
LINE
  5
22DDF
330
22D98
100
AcDbEntity
  8
0
  6
CONTINUOUS
100
AcDbLine
 10
30.73802122914428
 20
2.322544923291007
 30
0.0
 11
29.30199999996933
 21
3.758566152465961
 31
0.0
  0
LINE
  5
22DE0
330
22D98
100
AcDbEntity
  8
0
  6
CONTINUOUS
100
AcDbLine
 10
30.74199999996924
 20
2.992085361546236
 30
0.0
 11
29.30199999996933
 21
4.432085361546148
 31
0.0
  0
LINE
  5
22DE1
330
22D98
100
AcDbEntity
  8
0
  6
CONTINUOUS
100
AcDbLine
 10
30.74199999996924
 20
3.665604570626419
 30
0.0
 11
29.30199999996933
 21
5.105604570626333
 31
0.0
  0
LINE
  5
22DE2
330
22D98
100
AcDbEntity
  8
0
  6
CONTINUOUS
100
AcDbLine
 10
30.74199999996925
 20
4.339123779706602
 30
0.0
 11
29.30199999996933
 21
5.77912377970652
 31
0.0
  0
LINE
  5
22DE3
330
22D98
100
AcDbEntity
  8
0
  6
CONTINUOUS
100
AcDbLine
 10
30.74199999996925
 20
5.012642988786785
 30
0.0
 11
29.30199999996933
 21
6.452642988786707
 31
0.0
  0
LINE
  5
22DE4
330
22D98
100
AcDbEntity
  8
0
  6
CONTINUOUS
100
AcDbLine
 10
30.74199999996925
 20
5.68616219786697
 30
0.0
 11
29.30199999996933
 21
7.126162197866894
 31
0.0
  0
LINE
  5
22DE5
330
22D98
100
AcDbEntity
  8
0
  6
CONTINUOUS
100
AcDbLine
 10
30.74199999996925
 20
6.359681406947153
 30
0.0
 11
29.30199999996933
 21
7.799681406947081
 31
0.0
  0
LINE
  5
22DE6
330
22D98
100
AcDbEntity
  8
0
  6
CONTINUOUS
100
AcDbLine
 10
30.74199999996926
 20
7.033200616027337
 30
0.0
 11
29.30199999996933
 21
8.473200616027269
 31
0.0
  0
LINE
  5
22DE7
330
22D98
100
AcDbEntity
  8
0
  6
CONTINUOUS
100
AcDbLine
 10
30.74199999996926
 20
7.706719825107518
 30
0.0
 11
29.68561982508552
 21
8.763099999991255
 31
0.0
  0
LINE
  5
22DE8
330
22D98
100
AcDbEntity
  8
0
  6
CONTINUOUS
100
AcDbLine
 10
30.74199999996926
 20
8.380239034187703
 30
0.0
 11
30.35913903416571
 21
8.763099999991255
 31
0.0
  0
ENDBLK
  5
22E8B
330
22D98
100
AcDbEntity
  8
0
100
AcDbBlockEnd
  0
BLOCK
  5
22E8C
330
22DE9
100
AcDbEntity
  8
0
100
AcDbBlockBegin
  2
*X123
 70
     1
 10
0.0
 20
0.0
 30
0.0
  3
*X123
  1

  0
LINE
  5
22DEA
330
22DE9
100
AcDbEntity
  8
0
  6
CONTINUOUS
100
AcDbLine
 10
31.64199999996833
 20
8.535058289913598
 30
0.0
 11
31.87004171004599
 21
8.763099999991255
 31
0.0
  0
LINE
  5
22DEB
330
22DE9
100
AcDbEntity
  8
0
  6
CONTINUOUS
100
AcDbLine
 10
31.64199999996833
 20
7.861539080833412
 30
0.0
 11
32.54356091912618
 21
8.763099999991255
 31
0.0
  0
LINE
  5
22DEC
330
22DE9
100
AcDbEntity
  8
0
  6
CONTINUOUS
100
AcDbLine
 10
31.64199999996833
 20
7.188019871753226
 30
0.0
 11
33.08199999996839
 21
8.628019871753281
 31
0.0
  0
LINE
  5
22DED
330
22DE9
100
AcDbEntity
  8
0
  6
CONTINUOUS
100
AcDbLine
 10
31.64199999996833
 20
6.51450066267304
 30
0.0
 11
33.08199999996839
 21
7.954500662673095
 31
0.0
  0
LINE
  5
22DEE
330
22DE9
100
AcDbEntity
  8
0
  6
CONTINUOUS
100
AcDbLine
 10
31.64199999996833
 20
5.840981453592853
 30
0.0
 11
33.08199999996839
 21
7.280981453592908
 31
0.0
  0
LINE
  5
22DEF
330
22DE9
100
AcDbEntity
  8
0
  6
CONTINUOUS
100
AcDbLine
 10
31.64199999996833
 20
5.167462244512667
 30
0.0
 11
33.08199999996839
 21
6.607462244512721
 31
0.0
  0
LINE
  5
22DF0
330
22DE9
100
AcDbEntity
  8
0
  6
CONTINUOUS
100
AcDbLine
 10
31.64199999996833
 20
4.493943035432481
 30
0.0
 11
33.08199999996839
 21
5.933943035432535
 31
0.0
  0
LINE
  5
22DF1
330
22DE9
100
AcDbEntity
  8
0
  6
CONTINUOUS
100
AcDbLine
 10
31.64199999996833
 20
3.820423826352293
 30
0.0
 11
33.08199999996839
 21
5.260423826352348
 31
0.0
  0
LINE
  5
22DF2
330
22DE9
100
AcDbEntity
  8
0
  6
CONTINUOUS
100
AcDbLine
 10
31.64199999996833
 20
3.146904617272106
 30
0.0
 11
33.08199999996839
 21
4.586904617272161
 31
0.0
  0
LINE
  5
22DF3
330
22DE9
100
AcDbEntity
  8
0
  6
CONTINUOUS
100
AcDbLine
 10
36.23199999996837
 20
8.410423826352325
 30
0.0
 11
36.5846761736073
 21
8.763099999991255
 31
0.0
  0
LINE
  5
22DF4
330
22DE9
100
AcDbEntity
  8
0
  6
CONTINUOUS
100
AcDbLine
 10
36.23199999996837
 20
7.73690461727214
 30
0.0
 11
37.25819538268748
 21
8.763099999991255
 31
0.0
  0
LINE
  5
22DF5
330
22DE9
100
AcDbEntity
  8
0
  6
CONTINUOUS
100
AcDbLine
 10
31.64257403601376
 20
2.473959444237348
 30
0.0
 11
33.08199999996839
 21
3.913385408191974
 31
0.0
  0
LINE
  5
22DF6
330
22DE9
100
AcDbEntity
  8
0
  6
CONTINUOUS
100
AcDbLine
 10
36.23199999996837
 20
7.063385408191953
 30
0.0
 11
37.67199999996831
 21
8.503385408191894
 31
0.0
  0
LINE
  5
22DF7
330
22DE9
100
AcDbEntity
  8
0
  6
CONTINUOUS
100
AcDbLine
 10
31.72013636841932
 20
1.87800256756272
 30
0.0
 11
33.08199999996839
 21
3.239866199111788
 31
0.0
  0
LINE
  5
22DF8
330
22DE9
100
AcDbEntity
  8
0
  6
CONTINUOUS
100
AcDbLine
 10
36.23199999996837
 20
6.389866199111767
 30
0.0
 11
37.67199999996831
 21
7.829866199111708
 31
0.0
  0
LINE
  5
22DF9
330
22DE9
100
AcDbEntity
  8
0
  6
CONTINUOUS
100
AcDbLine
 10
31.89042734314753
 20
1.374774333210744
 30
0.0
 11
33.08199999996839
 21
2.566346990031601
 31
0.0
  0
LINE
  5
22DFA
330
22DE9
100
AcDbEntity
  8
0
  6
CONTINUOUS
100
AcDbLine
 10
36.23199999996837
 20
5.71634699003158
 30
0.0
 11
37.67199999996831
 21
7.156346990031521
 31
0.0
  0
LINE
  5
22DFB
330
22DE9
100
AcDbEntity
  8
0
  6
CONTINUOUS
100
AcDbLine
 10
32.14210568064475
 20
0.952933461627778
 30
0.0
 11
33.18745552475986
 21
1.998283305742888
 31
0.0
  0
LINE
  5
22DFC
330
22DE9
100
AcDbEntity
  8
0
  6
CONTINUOUS
100
AcDbLine
 10
36.23199999996837
 20
5.042827780951393
 30
0.0
 11
37.67199999996831
 21
6.482827780951334
 31
0.0
  0
LINE
  5
22DFD
330
22DE9
100
AcDbEntity
  8
0
  6
CONTINUOUS
100
AcDbLine
 10
32.45820639400955
 20
0.5955149659123915
 30
0.0
 11
33.47242681921943
 21
1.60973539112227
 31
0.0
  0
LINE
  5
22DFE
330
22DE9
100
AcDbEntity
  8
0
  6
CONTINUOUS
100
AcDbLine
 10
36.23199999996837
 20
4.369308571871207
 30
0.0
 11
37.67199999996831
 21
5.809308571871147
 31
0.0
  0
LINE
  5
22DFF
330
22DE9
100
AcDbEntity
  8
0
  6
CONTINUOUS
100
AcDbLine
 10
32.83432456621412
 20
0.2981139290367771
 30
0.0
 11
33.89722476612215
 21
1.361014128944803
 31
0.0
  0
LINE
  5
22E00
330
22DE9
100
AcDbEntity
  8
0
  6
CONTINUOUS
100
AcDbLine
 10
36.23199999996837
 20
3.69578936279102
 30
0.0
 11
37.67199999996831
 21
5.135789362790962
 31
0.0
  0
LINE
  5
22E01
330
22DE9
100
AcDbEntity
  8
0
  6
CONTINUOUS
100
AcDbLine
 10
33.2711633111245
 20
0.0614334648669672
 30
0.0
 11
34.43247338014423
 21
1.222743533886696
 31
0.0
  0
LINE
  5
22E02
330
22DE9
100
AcDbEntity
  8
0
  6
CONTINUOUS
100
AcDbLine
 10
36.23199999996837
 20
3.022270153710834
 30
0.0
 11
37.67199999996831
 21
4.462270153710775
 31
0.0
  0
LINE
  5
22E03
330
22DE9
100
AcDbEntity
  8
0
  6
CONTINUOUS
100
AcDbLine
 10
33.76515245874577
 20
-0.1180965965919523
 30
0.0
 11
35.1587445516215
 21
1.27549549628378
 31
0.0
  0
LINE
  5
22E04
330
22DE9
100
AcDbEntity
  8
0
  6
CONTINUOUS
100
AcDbLine
 10
36.21639478609585
 20
2.333145730758136
 30
0.0
 11
37.67199999996831
 21
3.788750944630588
 31
0.0
  0
LINE
  5
22E05
330
22DE9
100
AcDbEntity
  8
0
  6
CONTINUOUS
100
AcDbLine
 10
34.34060583368432
 20
-0.2161624307335863
 30
0.0
 11
37.67199999996831
 21
3.115231735550401
 31
0.0
  0
LINE
  5
22E06
330
22DE9
100
AcDbEntity
  8
0
  6
CONTINUOUS
100
AcDbLine
 10
35.01698193613905
 20
-0.2133055373590427
 30
0.0
 11
37.66876712070525
 21
2.438479647207154
 31
0.0
  0
LINE
  5
22E07
330
22DE9
100
AcDbEntity
  8
0
  6
CONTINUOUS
100
AcDbLine
 10
35.90743367693304
 20
0.0036269943547609
 30
0.0
 11
37.51723902192366
 21
1.613432339345381
 31
0.0
  0
LINE
  5
22E08
330
22DE9
100
AcDbEntity
  8
0
  6
CONTINUOUS
100
AcDbLine
 10
32.55309425579761
 20
0.5074718966376706
 30
0.0
 11
32.27784730925847
 21
0.7827188431768102
 31
0.0
  0
LINE
  5
22E09
330
22DE9
100
AcDbEntity
  8
0
  6
CONTINUOUS
100
AcDbLine
 10
33.87496468909684
 20
-0.1408793275813673
 30
0.0
 11
31.67993083278052
 21
2.054154528734943
 31
0.0
  0
LINE
  5
22E0A
330
22DE9
100
AcDbEntity
  8
0
  6
CONTINUOUS
100
AcDbLine
 10
34.64362813207632
 20
-0.2360235614806649
 30
0.0
 11
31.64199999996833
 21
2.765604570627322
 31
0.0
  0
LINE
  5
22E0B
330
22DE9
100
AcDbEntity
  8
0
  6
CONTINUOUS
100
AcDbLine
 10
35.25801106796118
 20
-0.1768872882853429
 30
0.0
 11
31.64199999996833
 21
3.439123779707508
 31
0.0
  0
LINE
  5
22E0C
330
22DE9
100
AcDbEntity
  8
0
  6
CONTINUOUS
100
AcDbLine
 10
35.79065650332146
 20
-0.0360135145654361
 30
0.0
 11
34.54143210838231
 21
1.213210880373721
 31
0.0
  0
LINE
  5
22E0D
330
22DE9
100
AcDbEntity
  8
0
  6
CONTINUOUS
100
AcDbLine
 10
33.08199999996839
 20
2.67264298878764
 30
0.0
 11
31.64199999996833
 21
4.112642988787695
 31
0.0
  0
LINE
  5
22E0E
330
22DE9
100
AcDbEntity
  8
0
  6
CONTINUOUS
100
AcDbLine
 10
36.25975597779143
 20
0.1684062200447833
 30
0.0
 11
35.15395110240023
 21
1.274211095435983
 31
0.0
  0
LINE
  5
22E0F
330
22DE9
100
AcDbEntity
  8
0
  6
CONTINUOUS
100
AcDbLine
 10
33.08199999996839
 20
3.346162197867826
 30
0.0
 11
31.64199999996833
 21
4.786162197867881
 31
0.0
  0
LINE
  5
22E10
330
22DE9
100
AcDbEntity
  8
0
  6
CONTINUOUS
100
AcDbLine
 10
36.67226329638774
 20
0.4294181105286579
 30
0.0
 11
35.63766478748767
 21
1.464016619428737
 31
0.0
  0
LINE
  5
22E11
330
22DE9
100
AcDbEntity
  8
0
  6
CONTINUOUS
100
AcDbLine
 10
33.08199999996839
 20
4.019681406948012
 30
0.0
 11
31.64199999996833
 21
5.459681406948068
 31
0.0
  0
LINE
  5
22E12
330
22DE9
100
AcDbEntity
  8
0
  6
CONTINUOUS
100
AcDbLine
 10
37.01677749710036
 20
0.7584231188962329
 30
0.0
 11
35.99563422741351
 21
1.779566388583076
 31
0.0
  0
LINE
  5
22E13
330
22DE9
100
AcDbEntity
  8
0
  6
CONTINUOUS
100
AcDbLine
 10
33.08199999996839
 20
4.693200616028199
 30
0.0
 11
31.64199999996833
 21
6.133200616028255
 31
0.0
  0
LINE
  5
22E14
330
22DE9
100
AcDbEntity
  8
0
  6
CONTINUOUS
100
AcDbLine
 10
37.29859977568887
 20
1.1501200493879
 30
0.0
 11
36.20680593341555
 21
2.241913891661226
 31
0.0
  0
LINE
  5
22E15
330
22DE9
100
AcDbEntity
  8
0
  6
CONTINUOUS
100
AcDbLine
 10
33.08199999996839
 20
5.366719825108386
 30
0.0
 11
31.64199999996833
 21
6.80671982510844
 31
0.0
  0
LINE
  5
22E16
330
22DE9
100
AcDbEntity
  8
0
  6
CONTINUOUS
100
AcDbLine
 10
37.5148623517228
 20
1.607376682434161
 30
0.0
 11
36.23199999996837
 21
2.890239034188594
 31
0.0
  0
LINE
  5
22E17
330
22DE9
100
AcDbEntity
  8
0
  6
CONTINUOUS
100
AcDbLine
 10
33.08199999996839
 20
6.040239034188573
 30
0.0
 11
31.64199999996833
 21
7.480239034188627
 31
0.0
  0
LINE
  5
22E18
330
22DE9
100
AcDbEntity
  8
0
  6
CONTINUOUS
100
AcDbLine
 10
37.64705163358367
 20
2.148706609653477
 30
0.0
 11
36.23199999996837
 21
3.56375824326878
 31
0.0
  0
LINE
  5
22E19
330
22DE9
100
AcDbEntity
  8
0
  6
CONTINUOUS
100
AcDbLine
 10
33.08199999996839
 20
6.713758243268758
 30
0.0
 11
31.64199999996833
 21
8.153758243268815
 31
0.0
  0
LINE
  5
22E1A
330
22DE9
100
AcDbEntity
  8
0
  6
CONTINUOUS
100
AcDbLine
 10
37.67199999996831
 20
2.797277452349026
 30
0.0
 11
36.23199999996837
 21
4.237277452348967
 31
0.0
  0
LINE
  5
22E1B
330
22DE9
100
AcDbEntity
  8
0
  6
CONTINUOUS
100
AcDbLine
 10
37.67199999996831
 20
3.470796661429213
 30
0.0
 11
36.23199999996837
 21
4.910796661429154
 31
0.0
  0
LINE
  5
22E1C
330
22DE9
100
AcDbEntity
  8
0
  6
CONTINUOUS
100
AcDbLine
 10
37.67199999996831
 20
4.144315870509399
 30
0.0
 11
36.23199999996837
 21
5.58431587050934
 31
0.0
  0
LINE
  5
22E1D
330
22DE9
100
AcDbEntity
  8
0
  6
CONTINUOUS
100
AcDbLine
 10
33.08199999996839
 20
7.387277452348945
 30
0.0
 11
31.70617745232608
 21
8.763099999991255
 31
0.0
  0
LINE
  5
22E1E
330
22DE9
100
AcDbEntity
  8
0
  6
CONTINUOUS
100
AcDbLine
 10
33.08199999996839
 20
8.060796661429132
 30
0.0
 11
32.37969666140626
 21
8.763099999991255
 31
0.0
  0
LINE
  5
22E1F
330
22DE9
100
AcDbEntity
  8
0
  6
CONTINUOUS
100
AcDbLine
 10
33.08199999996839
 20
8.734315870509318
 30
0.0
 11
33.05321587048645
 21
8.763099999991255
 31
0.0
  0
LINE
  5
22E20
330
22DE9
100
AcDbEntity
  8
0
  6
CONTINUOUS
100
AcDbLine
 10
37.67199999996831
 20
4.817835079589585
 30
0.0
 11
36.23199999996837
 21
6.257835079589526
 31
0.0
  0
LINE
  5
22E21
330
22DE9
100
AcDbEntity
  8
0
  6
CONTINUOUS
100
AcDbLine
 10
37.67199999996831
 20
5.491354288669771
 30
0.0
 11
36.23199999996837
 21
6.931354288669713
 31
0.0
  0
LINE
  5
22E22
330
22DE9
100
AcDbEntity
  8
0
  6
CONTINUOUS
100
AcDbLine
 10
37.67199999996831
 20
6.164873497749958
 30
0.0
 11
36.23199999996837
 21
7.6048734977499
 31
0.0
  0
LINE
  5
22E23
330
22DE9
100
AcDbEntity
  8
0
  6
CONTINUOUS
100
AcDbLine
 10
37.67199999996831
 20
6.838392706830144
 30
0.0
 11
36.23199999996837
 21
8.278392706830086
 31
0.0
  0
LINE
  5
22E24
330
22DE9
100
AcDbEntity
  8
0
  6
CONTINUOUS
100
AcDbLine
 10
37.67199999996831
 20
7.511911915910332
 30
0.0
 11
36.42081191588738
 21
8.763099999991255
 31
0.0
  0
LINE
  5
22E25
330
22DE9
100
AcDbEntity
  8
0
  6
CONTINUOUS
100
AcDbLine
 10
37.67199999996831
 20
8.185431124990519
 30
0.0
 11
37.09433112496757
 21
8.763099999991255
 31
0.0
  0
ENDBLK
  5
22E8D
330
22DE9
100
AcDbEntity
  8
0
100
AcDbBlockEnd
  0
BLOCK
  5
22E8E
330
22E26
100
AcDbEntity
  8
0
100
AcDbBlockBegin
  2
*X124
 70
     1
 10
0.0
 20
0.0
 30
0.0
  3
*X124
  1

  0
LINE
  5
22E27
330
22E26
100
AcDbEntity
  8
0
  6
CONTINUOUS
100
AcDbLine
 10
38.60499999996136
 20
8.762866199104765
 30
0.0
 11
38.71672554182345
 21
8.874591740966855
 31
0.0
  0
LINE
  5
22E28
330
22E26
100
AcDbEntity
  8
0
  6
CONTINUOUS
100
AcDbLine
 10
38.60499999996136
 20
8.089346990024577
 30
0.0
 11
39.03418785440363
 21
8.518534844466847
 31
0.0
  0
LINE
  5
22E29
330
22E26
100
AcDbEntity
  8
0
  6
CONTINUOUS
100
AcDbLine
 10
38.60499999996136
 20
7.41582778094439
 30
0.0
 11
39.35165016698382
 21
8.16247794796684
 31
0.0
  0
LINE
  5
22E2A
330
22E26
100
AcDbEntity
  8
0
  6
CONTINUOUS
100
AcDbLine
 10
38.60499999996136
 20
6.742308571864204
 30
0.0
 11
39.66911247956399
 21
7.806421051466834
 31
0.0
  0
LINE
  5
22E2B
330
22E26
100
AcDbEntity
  8
0
  6
CONTINUOUS
100
AcDbLine
 10
38.60499999996136
 20
6.068789362784018
 30
0.0
 11
39.98657479214418
 21
7.450364154966827
 31
0.0
  0
LINE
  5
22E2C
330
22E26
100
AcDbEntity
  8
0
  6
CONTINUOUS
100
AcDbLine
 10
38.60499999996136
 20
5.395270153703832
 30
0.0
 11
40.30403710472435
 21
7.09430725846682
 31
0.0
  0
LINE
  5
22E2D
330
22E26
100
AcDbEntity
  8
0
  6
CONTINUOUS
100
AcDbLine
 10
38.60499999996136
 20
4.721750944623645
 30
0.0
 11
40.62149941730453
 21
6.738250361966813
 31
0.0
  0
LINE
  5
22E2E
330
22E26
100
AcDbEntity
  8
0
  6
CONTINUOUS
100
AcDbLine
 10
38.60499999996136
 20
4.048231735543458
 30
0.0
 11
40.93896172988471
 21
6.382193465466806
 31
0.0
  0
LINE
  5
22E2F
330
22E26
100
AcDbEntity
  8
0
  6
CONTINUOUS
100
AcDbLine
 10
38.60499999996136
 20
3.374712526463272
 30
0.0
 11
40.02599999995994
 21
4.795712526461843
 31
0.0
  0
LINE
  5
22E30
330
22E26
100
AcDbEntity
  8
0
  6
CONTINUOUS
100
AcDbLine
 10
38.60499999996136
 20
2.701193317383085
 30
0.0
 11
40.02599999995994
 21
4.122193317381657
 31
0.0
  0
LINE
  5
22E31
330
22E26
100
AcDbEntity
  8
0
  6
CONTINUOUS
100
AcDbLine
 10
40.28339754687704
 20
5.053110073378947
 30
0.0
 11
41.25642404246489
 21
6.026136568966799
 31
0.0
  0
LINE
  5
22E32
330
22E26
100
AcDbEntity
  8
0
  6
CONTINUOUS
100
AcDbLine
 10
40.60085985945722
 20
4.697053176878939
 30
0.0
 11
41.57388635504507
 21
5.670079672466793
 31
0.0
  0
LINE
  5
22E33
330
22E26
100
AcDbEntity
  8
0
  6
CONTINUOUS
100
AcDbLine
 10
43.57899999995641
 20
8.348712526458318
 30
0.0
 11
43.99338747348935
 21
8.763099999991255
 31
0.0
  0
LINE
  5
22E34
330
22E26
100
AcDbEntity
  8
0
  6
CONTINUOUS
100
AcDbLine
 10
43.57899999995641
 20
7.675193317378131
 30
0.0
 11
44.66690668256953
 21
8.763099999991255
 31
0.0
  0
LINE
  5
22E35
330
22E26
100
AcDbEntity
  8
0
  6
CONTINUOUS
100
AcDbLine
 10
38.60499999996136
 20
2.027674108302898
 30
0.0
 11
40.02599999995994
 21
3.44867410830147
 31
0.0
  0
LINE
  5
22E36
330
22E26
100
AcDbEntity
  8
0
  6
CONTINUOUS
100
AcDbLine
 10
38.60499999996136
 20
1.354154899222712
 30
0.0
 11
40.02599999995994
 21
2.775154899221284
 31
0.0
  0
LINE
  5
22E37
330
22E26
100
AcDbEntity
  8
0
  6
CONTINUOUS
100
AcDbLine
 10
38.60499999996136
 20
0.6806356901425255
 30
0.0
 11
40.02599999995994
 21
2.101635690141098
 31
0.0
  0
LINE
  5
22E38
330
22E26
100
AcDbEntity
  8
0
  6
CONTINUOUS
100
AcDbLine
 10
38.60499999996136
 20
0.0071164810623383
 30
0.0
 11
40.02599999995994
 21
1.428116481060911
 31
0.0
  0
LINE
  5
22E39
330
22E26
100
AcDbEntity
  8
0
  6
CONTINUOUS
100
AcDbLine
 10
40.9183221720374
 20
4.340996280378933
 30
0.0
 11
41.89134866762525
 21
5.314022775966786
 31
0.0
  0
LINE
  5
22E3A
330
22E26
100
AcDbEntity
  8
0
  6
CONTINUOUS
100
AcDbLine
 10
41.23578448461758
 20
3.984939383878926
 30
0.0
 11
42.20881098020543
 21
4.957965879466778
 31
0.0
  0
LINE
  5
22E3B
330
22E26
100
AcDbEntity
  8
0
  6
CONTINUOUS
100
AcDbLine
 10
41.55324679719776
 20
3.628882487378919
 30
0.0
 11
42.52627329278561
 21
4.601908982966772
 31
0.0
  0
LINE
  5
22E3C
330
22E26
100
AcDbEntity
  8
0
  6
CONTINUOUS
100
AcDbLine
 10
41.87070910977793
 20
3.272825590878912
 30
0.0
 11
42.84373560536579
 21
4.245852086466765
 31
0.0
  0
LINE
  5
22E3D
330
22E26
100
AcDbEntity
  8
0
  6
CONTINUOUS
100
AcDbLine
 10
43.57899999995641
 20
7.001674108297943
 30
0.0
 11
44.99999999995498
 21
8.422674108296516
 31
0.0
  0
LINE
  5
22E3E
330
22E26
100
AcDbEntity
  8
0
  6
CONTINUOUS
100
AcDbLine
 10
43.57899999995641
 20
6.328154899217758
 30
0.0
 11
44.99999999995498
 21
7.749154899216329
 31
0.0
  0
LINE
  5
22E3F
330
22E26
100
AcDbEntity
  8
0
  6
CONTINUOUS
100
AcDbLine
 10
43.57899999995641
 20
5.654635690137571
 30
0.0
 11
44.99999999995498
 21
7.075635690136142
 31
0.0
  0
LINE
  5
22E40
330
22E26
100
AcDbEntity
  8
0
  6
CONTINUOUS
100
AcDbLine
 10
43.57899999995641
 20
4.981116481057384
 30
0.0
 11
44.99999999995498
 21
6.402116481055955
 31
0.0
  0
LINE
  5
22E41
330
22E26
100
AcDbEntity
  8
0
  6
CONTINUOUS
100
AcDbLine
 10
39.27140272797921
 20
-0.0000000000000009
 30
0.0
 11
40.02599999995994
 21
0.7545972719807246
 31
0.0
  0
LINE
  5
22E42
330
22E26
100
AcDbEntity
  8
0
  6
CONTINUOUS
100
AcDbLine
 10
39.9449219370594
 20
-0.0000000000000009
 30
0.0
 11
40.02599999995994
 21
0.0810780629005379
 31
0.0
  0
LINE
  5
22E43
330
22E26
100
AcDbEntity
  8
0
  6
CONTINUOUS
100
AcDbLine
 10
42.18817142235812
 20
2.916768694378905
 30
0.0
 11
43.16119791794597
 21
3.889795189966758
 31
0.0
  0
LINE
  5
22E44
330
22E26
100
AcDbEntity
  8
0
  6
CONTINUOUS
100
AcDbLine
 10
42.50563373493829
 20
2.560711797878898
 30
0.0
 11
43.47866023052615
 21
3.533738293466751
 31
0.0
  0
LINE
  5
22E45
330
22E26
100
AcDbEntity
  8
0
  6
CONTINUOUS
100
AcDbLine
 10
43.57899999995641
 20
4.307597271977198
 30
0.0
 11
44.99999999995498
 21
5.728597271975769
 31
0.0
  0
LINE
  5
22E46
330
22E26
100
AcDbEntity
  8
0
  6
CONTINUOUS
100
AcDbLine
 10
43.57899999995641
 20
3.634078062897011
 30
0.0
 11
44.99999999995498
 21
5.055078062895582
 31
0.0
  0
LINE
  5
22E47
330
22E26
100
AcDbEntity
  8
0
  6
CONTINUOUS
100
AcDbLine
 10
42.82309604751848
 20
2.204654901378891
 30
0.0
 11
44.99999999995498
 21
4.381558853815395
 31
0.0
  0
LINE
  5
22E48
330
22E26
100
AcDbEntity
  8
0
  6
CONTINUOUS
100
AcDbLine
 10
43.14055836009865
 20
1.848598004878885
 30
0.0
 11
44.99999999995498
 21
3.70803964473521
 31
0.0
  0
LINE
  5
22E49
330
22E26
100
AcDbEntity
  8
0
  6
CONTINUOUS
100
AcDbLine
 10
43.45802067267883
 20
1.492541108378878
 30
0.0
 11
44.99999999995498
 21
3.034520435655023
 31
0.0
  0
LINE
  5
22E4A
330
22E26
100
AcDbEntity
  8
0
  6
CONTINUOUS
100
AcDbLine
 10
43.77548298525902
 20
1.136484211878871
 30
0.0
 11
44.99999999995498
 21
2.361001226574837
 31
0.0
  0
LINE
  5
22E4B
330
22E26
100
AcDbEntity
  8
0
  6
CONTINUOUS
100
AcDbLine
 10
44.09294529783919
 20
0.7804273153788639
 30
0.0
 11
44.99999999995498
 21
1.687482017494649
 31
0.0
  0
LINE
  5
22E4C
330
22E26
100
AcDbEntity
  8
0
  6
CONTINUOUS
100
AcDbLine
 10
44.41040761041938
 20
0.4243704188788566
 30
0.0
 11
44.99999999995498
 21
1.013962808414463
 31
0.0
  0
LINE
  5
22E4D
330
22E26
100
AcDbEntity
  8
0
  6
CONTINUOUS
100
AcDbLine
 10
44.72786992299955
 20
0.0683135223788494
 30
0.0
 11
44.99999999995498
 21
0.340443599334276
 31
0.0
  0
LINE
  5
22E4E
330
22E26
100
AcDbEntity
  8
0
  6
CONTINUOUS
100
AcDbLine
 10
39.12223903415696
 20
-0.0000000000000009
 30
0.0
 11
38.60499999996136
 21
0.5172390341955961
 31
0.0
  0
LINE
  5
22E4F
330
22E26
100
AcDbEntity
  8
0
  6
CONTINUOUS
100
AcDbLine
 10
39.79575824323715
 20
-0.0000000000000009
 30
0.0
 11
38.60499999996136
 21
1.190758243275783
 31
0.0
  0
LINE
  5
22E50
330
22E26
100
AcDbEntity
  8
0
  6
CONTINUOUS
100
AcDbLine
 10
40.02599999995994
 20
0.443277452357397
 30
0.0
 11
38.60499999996136
 21
1.864277452355969
 31
0.0
  0
LINE
  5
22E51
330
22E26
100
AcDbEntity
  8
0
  6
CONTINUOUS
100
AcDbLine
 10
40.02599999995994
 20
1.116796661437583
 30
0.0
 11
38.60499999996136
 21
2.537796661436155
 31
0.0
  0
LINE
  5
22E52
330
22E26
100
AcDbEntity
  8
0
  6
CONTINUOUS
100
AcDbLine
 10
40.02599999995994
 20
1.79031587051777
 30
0.0
 11
38.60499999996136
 21
3.211315870516341
 31
0.0
  0
LINE
  5
22E53
330
22E26
100
AcDbEntity
  8
0
  6
CONTINUOUS
100
AcDbLine
 10
40.02599999995994
 20
2.463835079597956
 30
0.0
 11
38.60499999996136
 21
3.884835079596527
 31
0.0
  0
LINE
  5
22E54
330
22E26
100
AcDbEntity
  8
0
  6
CONTINUOUS
100
AcDbLine
 10
40.02599999995994
 20
3.137354288678143
 30
0.0
 11
38.60499999996136
 21
4.558354288676714
 31
0.0
  0
LINE
  5
22E55
330
22E26
100
AcDbEntity
  8
0
  6
CONTINUOUS
100
AcDbLine
 10
40.02599999995994
 20
3.810873497758329
 30
0.0
 11
38.60499999996136
 21
5.2318734977569
 31
0.0
  0
LINE
  5
22E56
330
22E26
100
AcDbEntity
  8
0
  6
CONTINUOUS
100
AcDbLine
 10
40.02599999995994
 20
4.484392706838515
 30
0.0
 11
38.60499999996136
 21
5.905392706837086
 31
0.0
  0
LINE
  5
22E57
330
22E26
100
AcDbEntity
  8
0
  6
CONTINUOUS
100
AcDbLine
 10
44.99999999995498
 20
0.183911915923658
 30
0.0
 11
41.53858364506288
 21
3.64532827081576
 31
0.0
  0
LINE
  5
22E58
330
22E26
100
AcDbEntity
  8
0
  6
CONTINUOUS
100
AcDbLine
 10
40.02599999995994
 20
5.157911915918703
 30
0.0
 11
38.60499999996136
 21
6.578911915917274
 31
0.0
  0
LINE
  5
22E59
330
22E26
100
AcDbEntity
  8
0
  6
CONTINUOUS
100
AcDbLine
 10
44.99999999995498
 20
0.8574311250038447
 30
0.0
 11
38.60499999996136
 21
7.25243112499746
 31
0.0
  0
LINE
  5
22E5A
330
22E26
100
AcDbEntity
  8
0
  6
CONTINUOUS
100
AcDbLine
 10
44.99999999995498
 20
1.530950334084031
 30
0.0
 11
38.60499999996136
 21
7.925950334077647
 31
0.0
  0
LINE
  5
22E5B
330
22E26
100
AcDbEntity
  8
0
  6
CONTINUOUS
100
AcDbLine
 10
44.99999999995498
 20
2.204469543164218
 30
0.0
 11
43.57899999995641
 21
3.625469543162789
 31
0.0
  0
LINE
  5
22E5C
330
22E26
100
AcDbEntity
  8
0
  6
CONTINUOUS
100
AcDbLine
 10
41.89876730984767
 20
5.305702233271528
 30
0.0
 11
38.60499999996136
 21
8.599469543157834
 31
0.0
  0
LINE
  5
22E5D
330
22E26
100
AcDbEntity
  8
0
  6
CONTINUOUS
100
AcDbLine
 10
44.99999999995498
 20
2.877988752244405
 30
0.0
 11
43.57899999995641
 21
4.298988752242975
 31
0.0
  0
LINE
  5
22E5E
330
22E26
100
AcDbEntity
  8
0
  6
CONTINUOUS
100
AcDbLine
 10
44.99999999995498
 20
3.551507961324591
 30
0.0
 11
43.57899999995641
 21
4.972507961323163
 31
0.0
  0
LINE
  5
22E5F
330
22E26
100
AcDbEntity
  8
0
  6
CONTINUOUS
100
AcDbLine
 10
44.99999999995498
 20
4.225027170404777
 30
0.0
 11
43.57899999995641
 21
5.646027170403348
 31
0.0
  0
LINE
  5
22E60
330
22E26
100
AcDbEntity
  8
0
  6
CONTINUOUS
100
AcDbLine
 10
44.99999999995498
 20
4.898546379484964
 30
0.0
 11
43.57899999995641
 21
6.319546379483535
 31
0.0
  0
LINE
  5
22E61
330
22E26
100
AcDbEntity
  8
0
  6
CONTINUOUS
100
AcDbLine
 10
44.99999999995498
 20
5.572065588565151
 30
0.0
 11
43.57899999995641
 21
6.993065588563722
 31
0.0
  0
LINE
  5
22E62
330
22E26
100
AcDbEntity
  8
0
  6
CONTINUOUS
100
AcDbLine
 10
44.99999999995498
 20
6.245584797645336
 30
0.0
 11
43.57899999995641
 21
7.666584797643908
 31
0.0
  0
LINE
  5
22E63
330
22E26
100
AcDbEntity
  8
0
  6
CONTINUOUS
100
AcDbLine
 10
44.99999999995498
 20
6.919104006725522
 30
0.0
 11
43.57899999995641
 21
8.340104006724093
 31
0.0
  0
LINE
  5
22E64
330
22E26
100
AcDbEntity
  8
0
  6
CONTINUOUS
100
AcDbLine
 10
44.99999999995498
 20
7.592623215805709
 30
0.0
 11
43.82952321576943
 21
8.763099999991255
 31
0.0
  0
LINE
  5
22E65
330
22E26
100
AcDbEntity
  8
0
  6
CONTINUOUS
100
AcDbLine
 10
44.99999999995498
 20
8.266142424885896
 30
0.0
 11
44.50304242484962
 21
8.763099999991255
 31
0.0
  0
ENDBLK
  5
22E8F
330
22E26
100
AcDbEntity
  8
0
100
AcDbBlockEnd
  0
BLOCK
  5
22E90
330
22E66
100
AcDbEntity
  8
0
100
AcDbBlockBegin
  2
*X125
 70
     1
 10
0.0
 20
0.0
 30
0.0
  3
*X125
  1

  0
LINE
  5
22E67
330
22E66
100
AcDbEntity
  8
0
  6
CONTINUOUS
100
AcDbLine
 10
0.0
 20
8.548461116714023
 30
0.0
 11
0.2146388832772324
 21
8.763099999991255
 31
0.0
  0
LINE
  5
22E68
330
22E66
100
AcDbEntity
  8
0
  6
CONTINUOUS
100
AcDbLine
 10
-0.0000000000000002
 20
7.874941907633837
 30
0.0
 11
0.8881580923574184
 21
8.763099999991255
 31
0.0
  0
LINE
  5
22E69
330
22E66
100
AcDbEntity
  8
0
  6
CONTINUOUS
100
AcDbLine
 10
0.0
 20
7.20142269855365
 30
0.0
 11
1.420999999998572
 21
8.622422698552223
 31
0.0
  0
LINE
  5
22E6A
330
22E66
100
AcDbEntity
  8
0
  6
CONTINUOUS
100
AcDbLine
 10
-0.0000000000000001
 20
6.527903489473465
 30
0.0
 11
1.420999999998571
 21
7.948903489472036
 31
0.0
  0
LINE
  5
22E6B
330
22E66
100
AcDbEntity
  8
0
  6
CONTINUOUS
100
AcDbLine
 10
-0.0000000000000002
 20
5.854384280393278
 30
0.0
 11
1.420999999998571
 21
7.275384280391849
 31
0.0
  0
LINE
  5
22E6C
330
22E66
100
AcDbEntity
  8
0
  6
CONTINUOUS
100
AcDbLine
 10
-0.0000000000000002
 20
5.180865071313091
 30
0.0
 11
1.420999999998571
 21
6.601865071311663
 31
0.0
  0
LINE
  5
22E6D
330
22E66
100
AcDbEntity
  8
0
  6
CONTINUOUS
100
AcDbLine
 10
0.0
 20
4.507345862232905
 30
0.0
 11
1.420999999998571
 21
5.928345862231477
 31
0.0
  0
LINE
  5
22E6E
330
22E66
100
AcDbEntity
  8
0
  6
CONTINUOUS
100
AcDbLine
 10
-0.0000000000000003
 20
3.833826653152718
 30
0.0
 11
1.420999999998571
 21
5.25482665315129
 31
0.0
  0
LINE
  5
22E6F
330
22E66
100
AcDbEntity
  8
0
  6
CONTINUOUS
100
AcDbLine
 10
-0.0000000000000002
 20
3.160307444072532
 30
0.0
 11
1.420999999998571
 21
4.581307444071103
 31
0.0
  0
LINE
  5
22E70
330
22E66
100
AcDbEntity
  8
0
  6
CONTINUOUS
100
AcDbLine
 10
-0.0000000000000001
 20
2.486788234992345
 30
0.0
 11
1.420999999998571
 21
3.907788234990917
 31
0.0
  0
LINE
  5
22E71
330
22E66
100
AcDbEntity
  8
0
  6
CONTINUOUS
100
AcDbLine
 10
-0.0000000000000006
 20
1.813269025912159
 30
0.0
 11
1.420999999998571
 21
3.234269025910731
 31
0.0
  0
LINE
  5
22E72
330
22E66
100
AcDbEntity
  8
0
  6
CONTINUOUS
100
AcDbLine
 10
0.0
 20
1.139749816831973
 30
0.0
 11
1.420999999998571
 21
2.560749816830544
 31
0.0
  0
LINE
  5
22E73
330
22E66
100
AcDbEntity
  8
0
  6
CONTINUOUS
100
AcDbLine
 10
0.0000000000000002
 20
0.466230607751787
 30
0.0
 11
1.420999999998571
 21
1.887230607750358
 31
0.0
  0
LINE
  5
22E74
330
22E66
100
AcDbEntity
  8
0
  6
CONTINUOUS
100
AcDbLine
 10
0.2072886013284003
 20
-0.0000000000000009
 30
0.0
 11
1.420999999998571
 21
1.213711398670171
 31
0.0
  0
LINE
  5
22E75
330
22E66
100
AcDbEntity
  8
0
  6
CONTINUOUS
100
AcDbLine
 10
0.8808078104085864
 20
-0.0000000000000009
 30
0.0
 11
1.420999999998571
 21
0.5401921895899839
 31
0.0
  0
LINE
  5
22E76
330
22E66
100
AcDbEntity
  8
0
  6
CONTINUOUS
100
AcDbLine
 10
0.0581249075061505
 20
-0.0000000000000009
 30
0.0
 11
-0.0000000000000002
 21
0.0581249075061496
 31
0.0
  0
LINE
  5
22E77
330
22E66
100
AcDbEntity
  8
0
  6
CONTINUOUS
100
AcDbLine
 10
0.7316441165863372
 20
-0.0000000000000009
 30
0.0
 11
-0.0000000000000002
 21
0.7316441165863363
 31
0.0
  0
LINE
  5
22E78
330
22E66
100
AcDbEntity
  8
0
  6
CONTINUOUS
100
AcDbLine
 10
1.405163325666523
 20
-0.0000000000000009
 30
0.0
 11
-0.0000000000000002
 21
1.405163325666523
 31
0.0
  0
LINE
  5
22E79
330
22E66
100
AcDbEntity
  8
0
  6
CONTINUOUS
100
AcDbLine
 10
1.420999999998572
 20
0.6576825347481381
 30
0.0
 11
-0.0000000000000001
 21
2.07868253474671
 31
0.0
  0
LINE
  5
22E7A
330
22E66
100
AcDbEntity
  8
0
  6
CONTINUOUS
100
AcDbLine
 10
1.420999999998571
 20
1.331201743828324
 30
0.0
 11
-0.0000000000000001
 21
2.752201743826896
 31
0.0
  0
LINE
  5
22E7B
330
22E66
100
AcDbEntity
  8
0
  6
CONTINUOUS
100
AcDbLine
 10
1.420999999998571
 20
2.004720952908511
 30
0.0
 11
-0.0000000000000002
 21
3.425720952907082
 31
0.0
  0
LINE
  5
22E7C
330
22E66
100
AcDbEntity
  8
0
  6
CONTINUOUS
100
AcDbLine
 10
1.420999999998571
 20
2.678240161988697
 30
0.0
 11
-0.0000000000000001
 21
4.099240161987269
 31
0.0
  0
LINE
  5
22E7D
330
22E66
100
AcDbEntity
  8
0
  6
CONTINUOUS
100
AcDbLine
 10
1.420999999998572
 20
3.351759371068884
 30
0.0
 11
0.0
 21
4.772759371067455
 31
0.0
  0
LINE
  5
22E7E
330
22E66
100
AcDbEntity
  8
0
  6
CONTINUOUS
100
AcDbLine
 10
1.420999999998571
 20
4.02527858014907
 30
0.0
 11
-0.0000000000000003
 21
5.446278580147642
 31
0.0
  0
LINE
  5
22E7F
330
22E66
100
AcDbEntity
  8
0
  6
CONTINUOUS
100
AcDbLine
 10
1.420999999998571
 20
4.698797789229257
 30
0.0
 11
0.0
 21
6.119797789227828
 31
0.0
  0
LINE
  5
22E80
330
22E66
100
AcDbEntity
  8
0
  6
CONTINUOUS
100
AcDbLine
 10
1.420999999998571
 20
5.372316998309444
 30
0.0
 11
-0.0000000000000001
 21
6.793316998308015
 31
0.0
  0
LINE
  5
22E81
330
22E66
100
AcDbEntity
  8
0
  6
CONTINUOUS
100
AcDbLine
 10
1.420999999998572
 20
6.045836207389629
 30
0.0
 11
-0.0000000000000004
 21
7.466836207388202
 31
0.0
  0
LINE
  5
22E82
330
22E66
100
AcDbEntity
  8
0
  6
CONTINUOUS
100
AcDbLine
 10
1.420999999998571
 20
6.719355416469816
 30
0.0
 11
0.0
 21
8.140355416468388
 31
0.0
  0
LINE
  5
22E83
330
22E66
100
AcDbEntity
  8
0
  6
CONTINUOUS
100
AcDbLine
 10
1.420999999998571
 20
7.392874625550003
 30
0.0
 11
0.0507746255573185
 21
8.763099999991255
 31
0.0
  0
LINE
  5
22E84
330
22E66
100
AcDbEntity
  8
0
  6
CONTINUOUS
100
AcDbLine
 10
1.420999999998571
 20
8.06639383463019
 30
0.0
 11
0.7242938346375052
 21
8.763099999991255
 31
0.0
  0
LINE
  5
22E85
330
22E66
100
AcDbEntity
  8
0
  6
CONTINUOUS
100
AcDbLine
 10
1.420999999998571
 20
8.739913043710375
 30
0.0
 11
1.397813043717691
 21
8.763099999991255
 31
0.0
  0
ENDBLK
  5
22E91
330
22E66
100
AcDbEntity
  8
0
100
AcDbBlockEnd
  0
ENDSEC
  0
SECTION
  2
ENTITIES
  0
LINE
  5
226A2
330
18
100
AcDbEntity
  8
01
100
AcDbLine
 10
671.1621143708508
 20
-377.5519511774127
 30
0.0
 11
671.1621143708508
 21
-399.7019511774141
 31
0.0
  0
LINE
  5
226A3
330
18
100
AcDbEntity
  8
01
100
AcDbLine
 10
671.1621143708508
 20
-380.0519511774133
 30
0.0
 11
671.1621143708508
 21
-397.7019511774128
 31
0.0
  0
LINE
  5
226AF
330
18
100
AcDbEntity
  8
01
100
AcDbLine
 10
671.1621143708508
 20
-345.4737775921313
 30
0.0
 11
671.1621143708508
 21
-419.9301247626951
 31
0.0
  0
LINE
  5
226B5
330
18
100
AcDbEntity
  8
01
100
AcDbLine
 10
471.6621142239543
 20
-293.8511555464614
 30
0.0
 11
470.6621145239544
 21
-292.8511555464614
 31
0.0
  0
LINE
  5
226B6
330
18
100
AcDbEntity
  8
01
100
AcDbLine
 10
474.9621143739543
 20
-293.8511555464614
 30
0.0
 11
474.9621143739543
 21
-292.8511555464614
 31
0.0
  0
LINE
  5
226B7
330
18
100
AcDbEntity
  8
01
100
AcDbLine
 10
474.9621143739543
 20
-292.8511555464614
 30
0.0
 11
467.3621143739544
 21
-292.8511555464614
 31
0.0
  0
LINE
  5
226B8
330
18
100
AcDbEntity
  8
01
100
AcDbLine
 10
474.9621143739543
 20
-293.8511555464614
 30
0.0
 11
467.3621143739544
 21
-293.8511555464614
 31
0.0
  0
LINE
  5
226B9
330
18
100
AcDbEntity
  8
01
100
AcDbLine
 10
467.3621143739544
 20
-293.8511555464614
 30
0.0
 11
467.3621143739544
 21
-292.8511555464614
 31
0.0
  0
LINE
  5
226BB
330
18
100
AcDbEntity
  8
01
100
AcDbLine
 10
667.1621143708521
 20
-383.2019527006476
 30
0.0
 11
668.1621143708521
 21
-382.2019530006476
 31
0.0
  0
LINE
  5
226BC
330
18
100
AcDbEntity
  8
01
100
AcDbLine
 10
667.1621143708521
 20
-386.5019528506475
 30
0.0
 11
668.1621143708521
 21
-386.5019528506475
 31
0.0
  0
LINE
  5
226BD
330
18
100
AcDbEntity
  8
01
100
AcDbLine
 10
668.1621143708521
 20
-386.5019528506475
 30
0.0
 11
668.1621143708521
 21
-378.9019528506476
 31
0.0
  0
LINE
  5
226BE
330
18
100
AcDbEntity
  8
01
100
AcDbLine
 10
667.1621143708521
 20
-386.5019528506475
 30
0.0
 11
667.1621143708521
 21
-378.9019528506476
 31
0.0
  0
LINE
  5
226BF
330
18
100
AcDbEntity
  8
01
100
AcDbLine
 10
667.1621143708521
 20
-378.9019528506476
 30
0.0
 11
668.1621143708521
 21
-378.9019528506476
 31
0.0
  0
LINE
  5
226C1
330
18
100
AcDbEntity
  8
01
100
AcDbLine
 10
445.6621142239543
 20
-293.8511555464614
 30
0.0
 11
444.6621145239544
 21
-292.8511555464614
 31
0.0
  0
LINE
  5
226C2
330
18
100
AcDbEntity
  8
01
100
AcDbLine
 10
448.9621143739543
 20
-293.8511555464614
 30
0.0
 11
448.9621143739543
 21
-292.8511555464614
 31
0.0
  0
LINE
  5
226C3
330
18
100
AcDbEntity
  8
01
100
AcDbLine
 10
448.9621143739543
 20
-292.8511555464614
 30
0.0
 11
441.3621143739544
 21
-292.8511555464614
 31
0.0
  0
LINE
  5
226C4
330
18
100
AcDbEntity
  8
01
100
AcDbLine
 10
448.9621143739543
 20
-293.8511555464614
 30
0.0
 11
441.3621143739544
 21
-293.8511555464614
 31
0.0
  0
LINE
  5
226C5
330
18
100
AcDbEntity
  8
01
100
AcDbLine
 10
441.3621143739544
 20
-293.8511555464614
 30
0.0
 11
441.3621143739544
 21
-292.8511555464614
 31
0.0
  0
LINE
  5
226CA
330
18
100
AcDbEntity
  8
01
  6
CONTINUOUS
100
AcDbLine
 10
556.1621143708498
 20
-324.9162146968305
 30
0.0
 11
360.1621143708516
 21
-324.9162146970715
 31
0.0
  0
LINE
  5
226CB
330
18
100
AcDbEntity
  8
01
  6
CONTINUOUS
100
AcDbLine
 10
544.162114374702
 20
-336.3034514133427
 30
0.0
 11
557.1621143708508
 21
-336.3034514133427
 31
0.0
  0
ARC
  5
226CC
330
18
100
AcDbEntity
  8
01
  6
CONTINUOUS
100
AcDbCircle
 10
557.1621143708508
 20
-335.3034514133427
 30
0.0
 40
1.0
100
AcDbArc
 50
270.0
 51
0.0
  0
LINE
  5
226CD
330
18
100
AcDbEntity
  8
01
  6
CONTINUOUS
100
AcDbLine
 10
359.1621143708505
 20
-336.3034514133427
 30
0.0
 11
372.1621143708505
 21
-336.3034514133427
 31
0.0
  0
ARC
  5
226CE
330
18
100
AcDbEntity
  8
01
  6
CONTINUOUS
100
AcDbCircle
 10
359.1621143708505
 20
-335.3034514133427
 30
0.0
 40
1.0
100
AcDbArc
 50
180.0
 51
270.0
  0
ARC
  5
226CF
330
18
100
AcDbEntity
  8
01
100
AcDbCircle
 10
372.1621143708505
 20
-335.3034514133427
 30
0.0
 40
1.0
100
AcDbArc
 50
270.0
 51
0.0
  0
LINE
  5
226D0
330
18
100
AcDbEntity
  8
01
  6
CONTINUOUS
100
AcDbLine
 10
376.162114371983
 20
-334.6110234309382
 30
0.0
 11
540.1621143697184
 21
-334.6110234309382
 31
0.0
  0
LINE
  5
226D1
330
18
100
AcDbEntity
  8
01
  6
CONTINUOUS
100
AcDbLine
 10
358.1621143708505
 20
-335.3034514133427
 30
0.0
 11
358.1621143708505
 21
-326.1033957718067
 31
0.0
  0
LINE
  5
226D2
330
18
100
AcDbEntity
  8
01
  6
CONTINUOUS
100
AcDbLine
 10
558.1621143708508
 20
-326.1033837731849
 30
0.0
 11
558.1621143708508
 21
-335.3034514133427
 31
0.0
  0
SPLINE
  5
226D3
330
18
100
AcDbEntity
  8
01
  6
CONTINUOUS
100
AcDbSpline
210
0.0
220
0.0
230
1.0
 70
     8
 71
     3
 72
    23
 73
    19
 74
     0
 42
0.0000000001
 43
0.0000000001
 40
0.0
 40
0.0
 40
0.0
 40
0.0
 40
0.0313853434595998
 40
0.0626931228770762
 40
0.0939983640330635
 40
0.1253761109155117
 40
0.1880337399292429
 40
0.2506684440363119
 40
0.3132861734552799
 40
0.3758750382529015
 40
0.5008182159365658
 40
0.62563931923087
 40
0.6880555415615095
 40
0.7504994141109153
 40
0.8128579395234063
 40
0.8752731552080762
 40
0.9375812415840166
 40
1.0
 40
1.0
 40
1.0
 40
1.0
 10
372.1621143679062
 20
-335.0907332902083
 30
0.0
 10
372.1630349907147
 20
-335.0834725473441
 30
0.0
 10
372.1648739611546
 20
-335.0689690054227
 30
0.0
 10
372.1798325119602
 20
-335.0470302903631
 30
0.0
 10
372.2037385657385
 20
-335.0250207708199
 30
0.0
 10
372.2485829479849
 20
-334.9956282573916
 30
0.0
 10
372.3280674256034
 20
-334.9589328541323
 30
0.0
 10
372.4606363995458
 20
-334.915518533437
 30
0.0
 10
372.6286221551229
 20
-334.8731708175691
 30
0.0
 10
372.8979031182864
 20
-334.8188900819858
 30
0.0
 10
373.3150646318526
 20
-334.7560999363176
 30
0.0
 10
373.8239672695731
 20
-334.7033986581513
 30
0.0
 10
374.2732876864129
 20
-334.6689672300014
 30
0.0
 10
374.6287251859771
 20
-334.647348987282
 30
0.0
 10
374.9989348948993
 20
-334.6301602295943
 30
0.0
 10
375.3802599952973
 20
-334.6178298556905
 30
0.0
 10
375.7692586965254
 20
-334.6100028598484
 30
0.0
 10
376.0310850393443
 20
-334.609037998773
 30
0.0
 10
376.1621143720162
 20
-334.6085551401674
 30
0.0
  0
LINE
  5
226D4
330
18
100
AcDbEntity
  8
01
  6
CONTINUOUS
100
AcDbLine
 10
438.1621143708505
 20
-289.8511555464614
 30
0.0
 11
478.1621143708507
 21
-289.8511555464614
 31
0.0
  0
LINE
  5
226D5
330
18
100
AcDbEntity
  8
01
  6
CONTINUOUS
100
AcDbLine
 10
479.1621143708507
 20
-289.8511555464614
 30
0.0
 11
479.1621143708507
 21
-324.3892048938354
 31
0.0
  0
LINE
  5
226D6
330
18
100
AcDbEntity
  8
01
  6
CONTINUOUS
100
AcDbLine
 10
478.1621143708507
 20
-289.8511555464614
 30
0.0
 11
479.1621143708507
 21
-289.8511555464614
 31
0.0
  0
LINE
  5
226D7
330
18
100
AcDbEntity
  8
01
  6
CONTINUOUS
100
AcDbLine
 10
437.1621143708505
 20
-324.3892048794488
 30
0.0
 11
437.1621143708505
 21
-289.8511555464614
 31
0.0
  0
LINE
  5
226D8
330
18
100
AcDbEntity
  8
01
  6
CONTINUOUS
100
AcDbLine
 10
437.1621143708505
 20
-289.8511555464614
 30
0.0
 11
438.1621143708505
 21
-289.8511555464614
 31
0.0
  0
LINE
  5
226D9
330
18
100
AcDbEntity
  8
01
  6
CONTINUOUS
100
AcDbLine
 10
437.1621143708505
 20
-324.9162146969767
 30
0.0
 11
437.1621143708505
 21
-324.3892048794488
 31
0.0
  0
LINE
  5
226DA
330
18
100
AcDbEntity
  8
01
  6
CONTINUOUS
100
AcDbLine
 10
479.1621143708507
 20
-324.3892048938354
 30
0.0
 11
479.1621143708507
 21
-324.9162146969251
 31
0.0
  0
LINE
  5
226DB
330
18
100
AcDbEntity
  8
01
100
AcDbLine
 10
373.1621143708505
 20
-334.7838340725056
 30
0.0
 11
373.1621143708505
 21
-335.3034514133427
 31
0.0
  0
ELLIPSE
  5
226DC
330
18
100
AcDbEntity
  8
01
100
AcDbEllipse
 10
360.1621143708516
 20
-326.1033957718067
 30
0.0
 11
2.000000000001137
 21
0.0
 31
0.0
210
0.0
220
0.0
230
1.0
 40
0.5935905373661293
 41
1.570796326794897
 42
3.141592653589793
  0
ARC
  5
226DD
330
18
100
AcDbEntity
  8
01
100
AcDbCircle
 10
544.1621143708496
 20
-335.3034514133427
 30
0.0
 40
1.0
100
AcDbArc
 50
180.0
 51
270.0
  0
SPLINE
  5
226DE
330
18
100
AcDbEntity
  8
01
  6
CONTINUOUS
100
AcDbSpline
210
0.0
220
0.0
230
1.0
 70
     8
 71
     3
 72
    23
 73
    19
 74
     0
 42
0.0000000001
 43
0.0000000001
 40
0.0
 40
0.0
 40
0.0
 40
0.0
 40
0.0313853434595998
 40
0.0626931228770762
 40
0.0939983640330635
 40
0.1253761109155117
 40
0.1880337399292429
 40
0.2506684440363119
 40
0.3132861734552799
 40
0.3758750382529015
 40
0.5008182159365658
 40
0.62563931923087
 40
0.6880555415615095
 40
0.7504994141109153
 40
0.8128579395234063
 40
0.8752731552080762
 40
0.9375812415840166
 40
1.0
 40
1.0
 40
1.0
 40
1.0
 10
544.1621143737939
 20
-335.0907332902083
 30
0.0
 10
544.1611937509854
 20
-335.0834725473441
 30
0.0
 10
544.1593547805455
 20
-335.0689690054227
 30
0.0
 10
544.1443962297399
 20
-335.0470302903631
 30
0.0
 10
544.1204901759615
 20
-335.0250207708199
 30
0.0
 10
544.0756457937152
 20
-334.9956282573916
 30
0.0
 10
543.9961613160967
 20
-334.9589328541323
 30
0.0
 10
543.8635923421543
 20
-334.915518533437
 30
0.0
 10
543.6956065865775
 20
-334.8731708175691
 30
0.0
 10
543.4263256234137
 20
-334.8188900819858
 30
0.0
 10
543.0091641098475
 20
-334.7560999363176
 30
0.0
 10
542.500261472127
 20
-334.7033986581513
 30
0.0
 10
542.0509410552872
 20
-334.6689672300014
 30
0.0
 10
541.695503555723
 20
-334.647348987282
 30
0.0
 10
541.3252938468008
 20
-334.6301602295943
 30
0.0
 10
540.9439687464028
 20
-334.6178298556905
 30
0.0
 10
540.5549700451747
 20
-334.6100028598484
 30
0.0
 10
540.2931437023558
 20
-334.609037998773
 30
0.0
 10
540.1621143696839
 20
-334.6085551401674
 30
0.0
  0
LINE
  5
226DF
330
18
100
AcDbEntity
  8
01
100
AcDbLine
 10
543.1621143708496
 20
-334.7838340725056
 30
0.0
 11
543.1621143708496
 21
-335.3034514133427
 31
0.0
  0
ELLIPSE
  5
226E0
330
18
100
AcDbEntity
  8
01
100
AcDbEllipse
 10
556.1621143708485
 20
-326.1033957718067
 30
0.0
 11
-2.000000000001137
 21
0.0
 31
0.0
210
0.0
220
0.0
230
-1.0
 40
0.5935905373661293
 41
1.570796326794897
 42
3.141592653589793
  0
LINE
  5
226E1
330
18
100
AcDbEntity
  8
01
  6
CONTINUOUS
100
AcDbLine
 10
360.1621143706574
 20
-450.0337478300049
 30
0.0
 11
556.1621143706568
 21
-450.0337478301418
 31
0.0
  0
LINE
  5
226E2
330
18
100
AcDbEntity
  8
01
  6
CONTINUOUS
100
AcDbLine
 10
376.1621143706569
 20
-389.099026369082
 30
0.0
 11
540.162114370657
 21
-389.099026369082
 31
0.0
  0
LINE
  5
226E3
330
18
100
AcDbEntity
  8
01
  6
CONTINUOUS
100
AcDbLine
 10
540.162114370657
 20
-437.3110699220814
 30
0.0
 11
376.1621143709314
 21
-437.3110699220814
 31
0.0
  0
LINE
  5
226E4
330
18
100
AcDbEntity
  8
01
  6
CONTINUOUS
100
AcDbLine
 10
556.1621142357642
 20
-376.2019511778623
 30
0.0
 11
360.1621143706569
 21
-376.2019511778623
 31
0.0
  0
SPLINE
  5
226E5
330
18
100
AcDbEntity
  8
01
  6
CONTINUOUS
100
AcDbSpline
210
0.0
220
0.0
230
1.0
 70
     9
 71
     3
 72
    72
 73
    68
 74
     0
 42
0.0000000001
 43
0.0000000001
 40
0.0
 40
0.0
 40
0.0
 40
0.0
 40
0.0312500000000001
 40
0.0312500000000001
 40
0.0625000000000003
 40
0.0625000000000003
 40
0.0937500000000004
 40
0.0937500000000004
 40
0.1250000000000006
 40
0.1250000000000006
 40
0.1562500000000007
 40
0.1562500000000007
 40
0.1875000000000009
 40
0.1875000000000009
 40
0.218750000000001
 40
0.218750000000001
 40
0.2343750000000011
 40
0.2343750000000011
 40
0.2500000000000011
 40
0.2500000000000011
 40
0.2812500000000012
 40
0.2812500000000012
 40
0.3125000000000013
 40
0.3125000000000013
 40
0.3437500000000014
 40
0.3437500000000014
 40
0.3750000000000014
 40
0.3750000000000014
 40
0.4062500000000016
 40
0.4062500000000016
 40
0.4375000000000017
 40
0.4375000000000017
 40
0.4687500000000017
 40
0.4687500000000017
 40
0.5000000000000018
 40
0.5000000000000018
 40
0.5312500000000019
 40
0.5312500000000019
 40
0.562500000000002
 40
0.562500000000002
 40
0.593750000000002
 40
0.593750000000002
 40
0.625000000000002
 40
0.625000000000002
 40
0.6562500000000021
 40
0.6562500000000021
 40
0.6875000000000019
 40
0.6875000000000019
 40
0.7187500000000017
 40
0.7187500000000017
 40
0.7500000000000014
 40
0.7500000000000014
 40
0.7812500000000013
 40
0.7812500000000013
 40
0.8125000000000011
 40
0.8125000000000011
 40
0.8437500000000009
 40
0.8437500000000009
 40
0.8750000000000008
 40
0.8750000000000008
 40
0.9062500000000006
 40
0.9062500000000006
 40
0.9375000000000003
 40
0.9375000000000003
 40
0.9687500000000002
 40
0.9687500000000002
 40
1.0
 40
1.0
 40
1.0
 40
1.0
 10
462.2621143706569
 20
-390.9351764686149
 30
0.0
 10
462.2621143675773
 20
-391.0135148969504
 30
0.0
 10
462.2366070667494
 20
-391.093058430254
 30
0.0
 10
462.1372778224842
 20
-391.2542489503131
 30
0.0
 10
462.0626628340485
 20
-391.3365285898404
 30
0.0
 10
461.8658584015915
 20
-391.4996991153895
 30
0.0
 10
461.7453895634237
 20
-391.5794942083868
 30
0.0
 10
461.4608087420183
 20
-391.734469484522
 30
0.0
 10
461.2945025568067
 20
-391.8104324942343
 30
0.0
 10
460.9261417817956
 20
-391.9512182715142
 30
0.0
 10
460.7247980756933
 20
-392.0161023112465
 30
0.0
 10
460.2867635813893
 20
-392.1330780759341
 30
0.0
 10
460.0473683240793
 20
-392.1854685905934
 30
0.0
 10
459.552369698998
 20
-392.2704800331361
 30
0.0
 10
459.2950289457833
 20
-392.3037873653194
 30
0.0
 10
458.8935123028891
 20
-392.3385522141683
 30
0.0
 10
458.7564289795395
 20
-392.3475931150973
 30
0.0
 10
458.4836137674469
 20
-392.3599464739806
 30
0.0
 10
458.347187657166
 20
-392.3633440659049
 30
0.0
 10
457.9378547537071
 20
-392.3653037086796
 30
0.0
 10
457.662610068563
 20
-392.3555022006684
 30
0.0
 10
457.1223780970051
 20
-392.3140411090095
 30
0.0
 10
456.8620758076596
 20
-392.282954134415
 30
0.0
 10
456.3601613512751
 20
-392.2019016113749
 30
0.0
 10
456.1177624414791
 20
-392.1514686452521
 30
0.0
 10
455.6717323932318
 20
-392.0375662278426
 30
0.0
 10
455.4652481824666
 20
-391.9737353423933
 30
0.0
 10
455.0850822872188
 20
-391.8338590492036
 30
0.0
 10
454.9168826330695
 20
-391.7598267501647
 30
0.0
 10
454.6223101665741
 20
-391.605848962499
 30
0.0
 10
454.4948557941988
 20
-391.5250150782518
 30
0.0
 10
454.2886653223637
 20
-391.3625853232915
 30
0.0
 10
454.2096981004478
 20
-391.2812767289532
 30
0.0
 10
454.0993535860455
 20
-391.1191944482285
 30
0.0
 10
454.0681586601777
 20
-391.0379790847675
 30
0.0
 10
454.0576743381167
 20
-390.8804279969953
 30
0.0
 10
454.0781156955639
 20
-390.804731312519
 30
0.0
 10
454.1688748716808
 20
-390.6607821849199
 30
0.0
 10
454.2398223434867
 20
-390.5918142057145
 30
0.0
 10
454.4325306223536
 20
-390.4624208119959
 30
0.0
 10
454.5521905612378
 20
-390.4031069348788
 30
0.0
 10
454.8377068631627
 20
-390.2939646569031
 30
0.0
 10
455.005933250936
 20
-390.2436533320732
 30
0.0
 10
455.3791649006542
 20
-390.1550876825082
 30
0.0
 10
455.5836915256811
 20
-390.1166180849087
 30
0.0
 10
456.0289414985518
 20
-390.0499467509718
 30
0.0
 10
456.2709308807762
 20
-390.0218044309919
 30
0.0
 10
456.7699769861405
 20
-389.9773667222672
 30
0.0
 10
457.0295130804137
 20
-389.9606285185431
 30
0.0
 10
457.5694006296899
 20
-389.9376381853655
 30
0.0
 10
457.8426882067129
 20
-389.9317285025166
 30
0.0
 10
458.3888138123577
 20
-389.9305198132166
 30
0.0
 10
458.6658737792165
 20
-389.935315335773
 30
0.0
 10
459.2051845347432
 20
-389.9557680383263
 30
0.0
 10
459.4664343179945
 20
-389.9712373005453
 30
0.0
 10
459.9722877206142
 20
-390.0133866573971
 30
0.0
 10
460.2171818968398
 20
-390.0403036237257
 30
0.0
 10
460.6683270931158
 20
-390.1043439631095
 30
0.0
 10
460.87762028712
 20
-390.1416589729114
 30
0.0
 10
461.2628442919037
 20
-390.2286360023221
 30
0.0
 10
461.43293682338
 20
-390.2770275073586
 30
0.0
 10
461.7287612585076
 20
-390.3840304326571
 30
0.0
 10
461.8557696283096
 20
-390.4434240199993
 30
0.0
 10
462.0581008273841
 20
-390.5704221215477
 30
0.0
 10
462.1338805753205
 20
-390.6377831461829
 30
0.0
 10
462.2360662766436
 20
-390.7808372951237
 30
0.0
 10
462.2621143737366
 20
-390.8568380402797
 30
0.0
 10
462.2621143706569
 20
-390.9351764686149
 30
0.0
  0
LINE
  5
226E6
330
18
100
AcDbEntity
  8
01
  6
CONTINUOUS
100
AcDbLine
 10
438.1621143726658
 20
-411.2019511778623
 30
0.0
 11
478.1621143690355
 21
-411.2019511778623
 31
0.0
  0
ARC
  5
226E7
330
18
100
AcDbEntity
  8
01
100
AcDbCircle
 10
438.1621143726658
 20
-410.2019511778623
 30
0.0
 40
1.0
100
AcDbArc
 50
180.0
 51
270.0
  0
SPLINE
  5
226E8
330
18
100
AcDbEntity
  8
01
  6
CONTINUOUS
100
AcDbSpline
210
0.0
220
0.0
230
1.0
 70
    24
 71
     3
 72
    10
 73
     6
 74
     0
 42
0.0000000001
 43
0.0000000001
 40
0.0
 40
0.0
 40
0.0
 40
0.0
 40
0.5
 40
0.5
 40
1.0
 40
1.0
 40
1.0
 40
1.0
 10
479.162114370657
 20
-410.2019511788911
 30
0.0
 10
479.162114370657
 20
-410.2022182837346
 30
0.0
 10
479.1621143705218
 20
-410.158419895224
 30
0.0
 10
479.1621143699813
 20
-409.994677886703
 30
0.0
 10
479.1621143695758
 20
-409.8749785312667
 30
0.0
 10
479.1621143690355
 20
-409.7315857089114
 30
0.0
  0
LINE
  5
226E9
330
18
100
AcDbEntity
  8
01
  6
CONTINUOUS
100
AcDbLine
 10
540.1621143706575
 20
-437.3127101625674
 30
0.0
 11
540.1621143704297
 21
-437.3073563307895
 31
0.0
  0
LINE
  5
226EA
330
18
100
AcDbEntity
  8
01
  6
CONTINUOUS
100
AcDbLine
 10
376.1621143706569
 20
-437.3127101625665
 30
0.0
 11
376.1621143708847
 21
-437.3073563307836
 31
0.0
  0
LINE
  5
226EB
330
18
100
AcDbEntity
  8
01
  6
CONTINUOUS
100
AcDbLine
 10
376.162114370657
 20
-389.0911921931644
 30
0.0
 11
376.1621143706588
 21
-389.099026369082
 31
0.0
  0
LINE
  5
226EC
330
18
100
AcDbEntity
  8
01
  6
CONTINUOUS
100
AcDbLine
 10
540.1621143706559
 20
-389.099026369082
 30
0.0
 11
540.1621143706577
 21
-389.0911921931644
 31
0.0
  0
ARC
  5
226ED
330
18
100
AcDbEntity
  8
01
  6
CONTINUOUS
100
AcDbCircle
 10
360.1621143801693
 20
-448.033747829999
 30
0.0
 40
2.0
100
AcDbArc
 50
180.0000000134314
 51
269.9999999999544
  0
ARC
  5
226EE
330
18
100
AcDbEntity
  8
01
  6
CONTINUOUS
100
AcDbCircle
 10
360.1621143708365
 20
-378.2019511778625
 30
0.0
 40
2.0
100
AcDbArc
 50
89.99999999999349
 51
179.9999999981241
  0
ARC
  5
226EF
330
18
100
AcDbEntity
  8
01
  6
CONTINUOUS
100
AcDbCircle
 10
556.1621143702189
 20
-448.0337478301122
 30
0.0
 40
2.0
100
AcDbArc
 50
269.9999999999609
 51
0.0000000036216594
  0
LINE
  5
226F0
330
18
100
AcDbEntity
  8
01
100
AcDbLine
 10
558.1621143702189
 20
-448.0337478299856
 30
0.0
 11
558.1621142357642
 21
-378.2019511740115
 31
0.0
  0
ARC
  5
226F1
330
18
100
AcDbEntity
  8
01
100
AcDbCircle
 10
556.1621142357642
 20
-378.2019511778623
 30
0.0
 40
2.0
100
AcDbArc
 50
0.0000001103173101
 51
90.0
  0
LINE
  5
226F2
330
18
100
AcDbEntity
  8
01
100
AcDbLine
 10
358.1621140501056
 20
-378.2019511777527
 30
0.0
 11
358.1621143801693
 21
-448.033747829999
 31
0.0
  0
LINE
  5
226F3
330
18
100
AcDbEntity
  8
01
100
AcDbLine
 10
373.1621143706569
 20
-392.099026369082
 30
0.0
 11
373.1621143706569
 21
-434.3127101625604
 31
0.0
  0
ARC
  5
226F4
330
18
100
AcDbEntity
  8
01
100
AcDbCircle
 10
376.1621143706569
 20
-392.099026369082
 30
0.0
 40
3.0
100
AcDbArc
 50
90.0
 51
180.0
  0
ARC
  5
226F5
330
18
100
AcDbEntity
  8
01
100
AcDbCircle
 10
376.1621143706569
 20
-434.3127101625604
 30
0.0
 40
3.0
100
AcDbArc
 50
180.0
 51
270.0
  0
LINE
  5
226F6
330
18
100
AcDbEntity
  8
01
100
AcDbLine
 10
543.162114370657
 20
-434.3110699220814
 30
0.0
 11
543.162114370657
 21
-392.099026369082
 31
0.0
  0
ARC
  5
226F7
330
18
100
AcDbEntity
  8
01
100
AcDbCircle
 10
540.162114370657
 20
-434.3110699220814
 30
0.0
 40
3.0
100
AcDbArc
 50
270.0
 51
0.0
  0
ARC
  5
226F8
330
18
100
AcDbEntity
  8
01
100
AcDbCircle
 10
540.162114370657
 20
-392.099026369082
 30
0.0
 40
3.0
100
AcDbArc
 50
0.0
 51
90.0
  0
LINE
  5
226F9
330
18
100
AcDbEntity
  8
01
100
AcDbLine
 10
479.1621143690355
 20
-410.2019511778623
 30
0.0
 11
479.1621143690355
 21
-389.099026369082
 31
0.0
  0
ARC
  5
226FA
330
18
100
AcDbEntity
  8
01
100
AcDbCircle
 10
478.1621143690355
 20
-410.2019511778623
 30
0.0
 40
1.0
100
AcDbArc
 50
270.0
 51
0.0
  0
LINE
  5
226FB
330
18
100
AcDbEntity
  8
01
100
AcDbLine
 10
437.1621143726658
 20
-410.2019511778623
 30
0.0
 11
437.1621143726658
 21
-389.099026369082
 31
0.0
  0
LINE
  5
226FC
330
18
100
AcDbEntity
  8
1CENTER
100
AcDbLine
 10
440.9621143710443
 20
-382.7019511774131
 30
0.0
 11
451.3621143710442
 21
-382.7019511774131
 31
0.0
  0
LINE
  5
226FD
330
18
100
AcDbEntity
  8
1CENTER
100
AcDbLine
 10
446.1621143710443
 20
-387.9019511774131
 30
0.0
 11
446.1621143710443
 21
-377.501951177413
 31
0.0
  0
LINE
  5
226FE
330
18
100
AcDbEntity
  8
1CENTER
100
AcDbLine
 10
464.9621143706573
 20
-382.7019511774131
 30
0.0
 11
475.3621143706573
 21
-382.7019511774131
 31
0.0
  0
LINE
  5
226FF
330
18
100
AcDbEntity
  8
1CENTER
100
AcDbLine
 10
470.1621143706573
 20
-387.9019511774131
 30
0.0
 11
470.1621143706573
 21
-377.501951177413
 31
0.0
  0
LINE
  5
22700
330
18
100
AcDbEntity
  8
01
  6
CONTINUOUS
100
AcDbLine
 10
671.1621143708508
 20
-387.7019511774132
 30
0.0
 11
671.1621143708508
 21
-411.2019511774132
 31
0.0
  0
LINE
  5
22701
330
18
100
AcDbEntity
  8
01
  6
CONTINUOUS
100
AcDbLine
 10
671.1621143708508
 20
-376.2019511774132
 30
0.0
 11
671.1621143708508
 21
-378.7019511774132
 31
0.0
  0
ARC
  5
22702
330
18
100
AcDbEntity
  8
01
  6
CONTINUOUS
100
AcDbCircle
 10
824.7098185039658
 20
-413.2019511774128
 30
0.0
 40
191.9999999999961
100
AcDbArc
 50
169.0121679465562
 51
169.3167941816237
  0
ARC
  5
22703
330
18
100
AcDbEntity
  8
01
  6
CONTINUOUS
100
AcDbCircle
 10
636.720457102841
 20
-376.7019511774014
 30
0.0
 40
0.4999999999880629
100
AcDbArc
 50
90.00000000591452
 51
169.0121679471912
  0
ARC
  5
22704
330
18
100
AcDbEntity
  8
01
  6
CONTINUOUS
100
AcDbCircle
 10
670.287090340365
 20
-409.2019511774132
 30
0.0
 40
2.000000000000145
100
AcDbArc
 50
211.9787163467608
 51
270.0
  0
LINE
  5
22705
330
18
100
AcDbEntity
  8
01
  6
CONTINUOUS
100
AcDbLine
 10
671.1621143708508
 20
-411.2019511774132
 30
0.0
 11
670.287090340365
 21
-411.2019511774132
 31
0.0
  0
LINE
  5
22706
330
18
100
AcDbEntity
  8
01
  6
CONTINUOUS
100
AcDbLine
 10
636.7204571027896
 20
-376.2019511774132
 30
0.0
 11
671.1621143708508
 21
-376.2019511774132
 31
0.0
  0
ARC
  5
22707
330
18
100
AcDbEntity
  8
01
  6
CONTINUOUS
100
AcDbCircle
 10
824.7098185039658
 20
-413.2019511774128
 30
0.0
 40
191.9999999999961
100
AcDbArc
 50
172.3478072261757
 51
172.6738109946554
  0
SPLINE
  5
22708
330
18
100
AcDbEntity
  8
01
  6
CONTINUOUS
100
AcDbSpline
210
0.0
220
0.0
230
1.0
 70
     8
 71
     3
 72
    14
 73
    10
 74
     0
 42
0.0000000001
 43
0.0000000001
 40
0.0
 40
0.0
 40
0.0
 40
0.0
 40
0.25
 40
0.25
 40
0.5
 40
0.5
 40
0.75
 40
0.75
 40
1.0
 40
1.0
 40
1.0
 40
1.0
 10
634.7107108211048
 20
-389.2783419228489
 30
0.0
 10
634.6521706153476
 20
-389.2709708724063
 30
0.0
 10
634.5903426404943
 20
-389.2523326395793
 30
0.0
 10
634.4741380680857
 20
-389.188428748649
 30
0.0
 10
634.4201640597412
 20
-389.1430456148256
 30
0.0
 10
634.3354810432475
 20
-389.0336705011008
 30
0.0
 10
634.3050605690955
 20
-388.9700511867003
 30
0.0
 10
634.2722937053695
 20
-388.841546157358
 30
0.0
 10
634.2697327641786
 20
-388.7770207842281
 30
0.0
 10
634.2772566360018
 20
-388.7185000235739
 30
0.0
  0
LINE
  5
22709
330
18
100
AcDbEntity
  8
01
  6
CONTINUOUS
100
AcDbLine
 10
671.1621143708508
 20
-387.7019511774132
 30
0.0
 11
671.1621143708508
 21
-386.7019511774132
 31
0.0
  0
LINE
  5
2270A
330
18
100
AcDbEntity
  8
01
  6
CONTINUOUS
100
AcDbLine
 10
671.1621143708508
 20
-379.7019511774132
 30
0.0
 11
671.1621143708508
 21
-378.7019511774132
 31
0.0
  0
LINE
  5
2270B
330
18
100
AcDbEntity
  8
01
  6
CONTINUOUS
100
AcDbLine
 10
671.1621143708508
 20
-386.7019511774132
 30
0.0
 11
671.1621143708508
 21
-379.7019511774132
 31
0.0
  0
LINE
  5
2270C
330
18
100
AcDbEntity
  8
1PHANTOM
100
AcDbLine
 10
657.1621143708508
 20
-386.2019511774132
 30
0.0
 11
656.1621143708508
 21
-387.2019511774132
 31
0.0
  0
LINE
  5
2270D
330
18
100
AcDbEntity
  8
1PHANTOM
100
AcDbLine
 10
635.8348598673103
 20
-378.7019511774112
 30
0.0
 11
656.1621143708508
 21
-378.7019511774132
 31
0.0
  0
LINE
  5
2270E
330
18
100
AcDbEntity
  8
1PHANTOM
100
AcDbLine
 10
656.1621143708508
 20
-378.7019511774132
 30
0.0
 11
657.1621143708508
 21
-379.7019511774132
 31
0.0
  0
LINE
  5
2270F
330
18
100
AcDbEntity
  8
1PHANTOM
100
AcDbLine
 10
657.1621143708508
 20
-379.7019511774132
 30
0.0
 11
657.1621143708508
 21
-386.2019511774132
 31
0.0
  0
ARC
  5
22710
330
18
100
AcDbEntity
  8
01
  6
CONTINUOUS
100
AcDbCircle
 10
824.7098185039713
 20
-413.2019511774132
 30
0.0
 40
200.0000000000017
100
AcDbArc
 50
169.5775498866376
 51
172.535488798142
  0
ARC
  5
22711
330
18
100
AcDbEntity
  8
01
  6
CONTINUOUS
100
AcDbCircle
 10
628.9931866096344
 20
-377.2019511772797
 30
0.0
 40
0.9999999998664748
100
AcDbArc
 50
89.99999999081558
 51
169.5775498737129
  0
LINE
  5
22712
330
18
100
AcDbEntity
  8
01
  6
CONTINUOUS
100
AcDbLine
 10
628.9931866097945
 20
-376.2019511774132
 30
0.0
 11
635.0970552204822
 21
-376.2019511774132
 31
0.0
  0
ARC
  5
22713
330
18
100
AcDbEntity
  8
01
  6
CONTINUOUS
100
AcDbCircle
 10
635.0970552203617
 20
-377.2019511773887
 30
0.0
 40
1.000000000122514
100
AcDbArc
 50
349.2497398142111
 51
89.99999999312145
  0
ARC
  5
22714
330
18
100
AcDbEntity
  8
01
  6
CONTINUOUS
100
AcDbCircle
 10
824.709818503979
 20
-413.2019511774134
 30
0.0
 40
192.0000000000089
100
AcDbArc
 50
172.2172856146176
 51
172.52653784789
  0
ARC
  5
22715
330
18
100
AcDbEntity
  8
01
  6
CONTINUOUS
100
AcDbCircle
 10
824.709818503979
 20
-413.2019511774134
 30
0.0
 40
192.000000000009
100
AcDbArc
 50
169.2497398143175
 51
169.6484419010817
  0
LINE
  5
22716
330
18
100
AcDbEntity
  8
1PHANTOM
100
AcDbLine
 10
656.1621143708508
 20
-387.2019511774132
 30
0.0
 11
634.4783805132947
 21
-387.2019511774132
 31
0.0
  0
ARC
  5
22717
330
18
100
AcDbEntity
  8
01
  6
CONTINUOUS
100
AcDbCircle
 10
824.7098185039713
 20
-413.2019511774132
 30
0.0
 40
200.0000000000016
100
AcDbArc
 50
172.5354887979839
 51
190.3732126959346
  0
ARC
  5
22718
330
18
100
AcDbEntity
  8
01
  6
CONTINUOUS
100
AcDbCircle
 10
628.962322099741
 20
-449.0337478296257
 30
0.0
 40
1.000000000379096
100
AcDbArc
 50
190.3732126959858
 51
280.6611323759782
  0
LINE
  5
22719
330
18
100
AcDbEntity
  8
01
  6
CONTINUOUS
100
AcDbLine
 10
635.0438299873144
 20
-448.9064718995852
 30
0.0
 11
629.1473220993676
 21
-450.0164863503582
 31
0.0
  0
ARC
  5
2271A
330
18
100
AcDbEntity
  8
01
  6
CONTINUOUS
100
AcDbCircle
 10
634.8588299874214
 20
-447.923733378991
 30
0.0
 40
0.9999999999100618
100
AcDbArc
 50
280.6611323924506
 51
10.36426174794673
  0
ARC
  5
2271B
330
18
100
AcDbEntity
  8
01
  6
CONTINUOUS
100
AcDbCircle
 10
824.709818503979
 20
-413.2019511774134
 30
0.0
 40
192.0000000000089
100
AcDbArc
 50
169.6484419010817
 51
190.3642617454822
  0
ARC
  5
2271C
330
18
100
AcDbEntity
  8
01
100
AcDbCircle
 10
630.4062590564799
 20
-434.0719987841279
 30
0.0
 40
45.0
100
AcDbArc
 50
31.94667505585635
 51
84.51100948269989
  0
LINE
  5
2271D
330
18
100
AcDbEntity
  8
1CENTER
100
AcDbLine
 10
674.5695977481469
 20
-382.7019511774132
 30
0.0
 11
665.0902871284275
 21
-382.7019511774132
 31
0.0
  0
LINE
  5
2271E
330
18
100
AcDbEntity
  8
1CENTER
100
AcDbLine
 10
643.1621143708508
 20
-385.4068946662911
 30
0.0
 11
643.1621143708508
 21
-392.9970076885355
 31
0.0
  0
LINE
  5
22720
330
18
100
AcDbEntity
  8
01
100
AcDbLine
 10
475.9121143708507
 20
-303.8511555464614
 30
0.0
 11
476.9121143708507
 21
-304.8511555464614
 31
0.0
  0
LINE
  5
22721
330
18
100
AcDbEntity
  8
1PHANTOM
100
AcDbLine
 10
476.9121143708507
 20
-304.8511555464614
 30
0.0
 11
476.9121143708509
 21
-324.9162146969278
 31
0.0
  0
LINE
  5
22722
330
18
100
AcDbEntity
  8
1PHANTOM
100
AcDbLine
 10
439.4121143708507
 20
-324.916214696974
 30
0.0
 11
439.4121143708507
 21
-304.8511555464614
 31
0.0
  0
LINE
  5
22723
330
18
100
AcDbEntity
  8
1PHANTOM
100
AcDbLine
 10
439.4121143708507
 20
-304.8511555464614
 30
0.0
 11
440.4121143708507
 21
-303.8511555464614
 31
0.0
  0
LINE
  5
22724
330
18
100
AcDbEntity
  8
1PHANTOM
100
AcDbLine
 10
440.4121143708507
 20
-303.8511555464614
 30
0.0
 11
475.9121143708507
 21
-303.8511555464614
 31
0.0
  0
CIRCLE
  5
22725
330
18
100
AcDbEntity
  8
1PHANTOM
100
AcDbCircle
 10
458.1621143708507
 20
-318.0511555464615
 30
0.0
 40
1.649999999999991
  0
ARC
  5
22776
330
18
100
AcDbEntity
  8
01
100
AcDbCircle
 10
471.1621143032103
 20
-382.7019511778934
 30
0.0
 40
2.5
100
AcDbArc
 50
270.0
 51
90.0
  0
ARC
  5
22777
330
18
100
AcDbEntity
  8
01
100
AcDbCircle
 10
469.1621143032102
 20
-382.7019511778934
 30
0.0
 40
2.5
100
AcDbArc
 50
90.0
 51
270.0
  0
LINE
  5
22778
330
18
100
AcDbEntity
  8
01
100
AcDbLine
 10
469.1621143032102
 20
-380.2019511778934
 30
0.0
 11
471.1621143032103
 21
-380.2019511778934
 31
0.0
  0
LINE
  5
22779
330
18
100
AcDbEntity
  8
01
100
AcDbLine
 10
469.1621143032102
 20
-385.2019511778934
 30
0.0
 11
471.1621143032103
 21
-385.2019511778934
 31
0.0
  0
ARC
  5
2277A
330
18
100
AcDbEntity
  8
01
100
AcDbCircle
 10
445.1621143032107
 20
-382.7019511778934
 30
0.0
 40
2.5
100
AcDbArc
 50
90.0
 51
270.0
  0
ARC
  5
2277B
330
18
100
AcDbEntity
  8
01
100
AcDbCircle
 10
447.1621143032107
 20
-382.7019511778934
 30
0.0
 40
2.5
100
AcDbArc
 50
270.0
 51
90.0
  0
LINE
  5
2277C
330
18
100
AcDbEntity
  8
01
100
AcDbLine
 10
447.1621143032107
 20
-380.2019511778934
 30
0.0
 11
445.1621143032107
 21
-380.2019511778934
 31
0.0
  0
LINE
  5
2277D
330
18
100
AcDbEntity
  8
01
100
AcDbLine
 10
447.1621143032107
 20
-385.2019511778934
 30
0.0
 11
445.1621143032107
 21
-385.2019511778934
 31
0.0
  0
TEXT
  5
229C7
330
18
100
AcDbEntity
  8
1TEXT
100
AcDbText
 10
655.9547969694839
 20
-283.8355861028526
 30
0.0
 40
4.0
  1
表面処理
 72
     1
 11
665.2214636361506
 21
-283.8355861028526
 31
0.0
100
AcDbText
  0
LINE
  5
229C8
330
18
100
AcDbEntity
  8
1DIM
100
AcDbLine
 10
647.8214636361505
 20
-278.3355861028526
 30
0.0
 11
717.8214636361505
 21
-278.3355861028526
 31
0.0
  0
LINE
  5
229C9
330
18
100
AcDbEntity
  8
1DIM
100
AcDbLine
 10
647.8214636361505
 20
-292.3355861028526
 30
0.0
 11
717.8214636361505
 21
-292.3355861028526
 31
0.0
  0
LINE
  5
229CA
330
18
100
AcDbEntity
  8
1DIM
100
AcDbLine
 10
647.8214636361505
 20
-285.3355861028526
 30
0.0
 11
717.8214636361505
 21
-285.3355861028526
 31
0.0
  0
LINE
  5
229CB
330
18
100
AcDbEntity
  8
1DIM
100
AcDbLine
 10
682.8214636361505
 20
-278.3355861028526
 30
0.0
 11
682.8214636361503
 21
-292.3355861028526
 31
0.0
  0
TEXT
  5
229CC
330
18
100
AcDbEntity
  8
1TEXT
100
AcDbText
 10
693.3547969694839
 20
-283.8355861028526
 30
0.0
 40
4.0
  1
コード
 72
     1
 11
700.2214636361506
 21
-283.8355861028526
 31
0.0
100
AcDbText
  0
LINE
  5
229CD
330
18
100
AcDbEntity
  8
1DIM
100
AcDbLine
 10
647.8214636361505
 20
-292.3355861028526
 30
0.0
 11
647.8214636361505
 21
-278.3355861028526
 31
0.0
  0
LINE
  5
229CE
330
18
100
AcDbEntity
  8
1DIM
100
AcDbLine
 10
717.8214636361505
 20
-292.3355861028526
 30
0.0
 11
717.8214636361505
 21
-278.3355861028526
 31
0.0
  0
TEXT
  5
229CF
330
18
100
AcDbEntity
  8
1TEXT
100
AcDbText
 10
647.8214636361505
 20
-273.3355861028526
 30
0.0
 40
8.0
  1
SC-920-X
100
AcDbText
  0
TEXT
  5
229D0
330
18
100
AcDbEntity
  8
1TEXT
100
AcDbText
 10
655.7547969694839
 20
-290.6708747623769
 30
0.0
 40
4.0
  1
クローム
 72
     1
 11
665.2214636361506
 21
-290.6708747623769
 31
0.0
100
AcDbText
  0
TEXT
  5
229D1
330
18
100
AcDbEntity
  8
1TEXT
100
AcDbText
 10
685.7706765991138
 20
-291.0499430865019
 30
0.0
 40
4.0
  1
SC-920-XC
 41
0.85
 72
     1
 11
700.2214636361508
 21
-291.0499430865019
 31
0.0
100
AcDbText
  0
LINE
  5
22AB2
330
18
100
AcDbEntity
  8
01
100
AcDbLine
 10
683.6621143708508
 20
-345.4737775921313
 30
0.0
 11
683.6621143708508
 21
-419.9301247626951
 31
0.0
  0
LINE
  5
22AB3
330
18
100
AcDbEntity
  8
01
100
AcDbLine
 10
692.6621143708508
 20
-345.4737775921313
 30
0.0
 11
692.6621143708508
 21
-419.9301247626951
 31
0.0
  0
LINE
  5
22B8C
330
18
100
AcDbEntity
  8
01
100
AcDbLine
 10
647.1620533996028
 20
-389.101890206165
 30
0.0
 11
639.1620533997759
 21
-389.1018343630876
 31
0.0
  0
LINE
  5
22B8D
330
18
100
AcDbEntity
  8
1HATCH
100
AcDbLine
 10
641.5122832870533
 20
-379.4018515822779
 30
0.0
 11
641.5120752718005
 21
-386.7518288950623
 31
0.0
  0
LINE
  5
22B8E
330
18
100
AcDbEntity
  8
1HATCH
100
AcDbLine
 10
644.812283286997
 20
-379.4018729887909
 30
0.0
 11
644.8120752714239
 21
-386.7518847382416
 31
0.0
  0
LINE
  5
22B8F
330
18
100
AcDbEntity
  8
1CENTER
100
AcDbLine
 10
643.1623015429197
 20
-377.4403771261719
 30
0.0
 11
643.1620325539222
 21
-391.3416135280508
 31
0.0
  0
LINE
  5
22B90
330
18
100
AcDbEntity
  8
1HATCH
100
AcDbLine
 10
645.1622806174676
 20
-379.7518762462935
 30
0.0
 11
641.1622806175548
 21
-379.7518483247548
 31
0.0
  0
LINE
  5
22B91
330
18
100
AcDbEntity
  8
1HATCH
100
AcDbLine
 10
644.8120752714239
 20
-386.7518847382416
 30
0.0
 11
645.1620720139185
 21
-387.1018855526132
 31
0.0
  0
LINE
  5
22B92
330
18
100
AcDbEntity
  8
1HATCH
100
AcDbLine
 10
641.5120752718005
 20
-386.7518288950623
 30
0.0
 11
641.162072014265
 21
-387.101829709449
 31
0.0
  0
LINE
  5
22B93
330
18
100
AcDbEntity
  8
01
100
AcDbLine
 10
639.1620506076221
 20
-389.4018343630754
 30
0.0
 11
647.1620506074489
 21
-389.4018902061529
 31
0.0
  0
LINE
  5
22B94
330
18
100
AcDbEntity
  8
01
100
AcDbLine
 10
647.1620506074489
 20
-389.4018902061529
 30
0.0
 11
647.1620533996028
 21
-389.101890206165
 31
0.0
  0
LINE
  5
22B95
330
18
100
AcDbEntity
  8
01
100
AcDbLine
 10
647.1620533996028
 20
-389.101890206165
 30
0.0
 11
645.1620720139185
 21
-387.1018855526132
 31
0.0
  0
LINE
  5
22B96
330
18
100
AcDbEntity
  8
01
100
AcDbLine
 10
645.1620720139185
 20
-387.1018855526132
 30
0.0
 11
645.1622806174676
 21
-379.7518762462935
 31
0.0
  0
LINE
  5
22B97
330
18
100
AcDbEntity
  8
01
100
AcDbLine
 10
645.1622806174676
 20
-379.7518762462935
 30
0.0
 11
644.8122832869904
 21
-379.4018738031691
 31
0.0
  0
LINE
  5
22B98
330
18
100
AcDbEntity
  8
01
100
AcDbLine
 10
644.8122832869904
 20
-379.4018738031691
 30
0.0
 11
641.51228328706
 21
-379.4018507678996
 31
0.0
  0
LINE
  5
22B99
330
18
100
AcDbEntity
  8
01
100
AcDbLine
 10
641.51228328706
 20
-379.4018507678996
 30
0.0
 11
641.1622806175548
 21
-379.7518483247548
 31
0.0
  0
LINE
  5
22B9A
330
18
100
AcDbEntity
  8
01
100
AcDbLine
 10
641.1622806175548
 20
-379.7518483247548
 30
0.0
 11
641.162072014265
 21
-387.101829709449
 31
0.0
  0
LINE
  5
22B9B
330
18
100
AcDbEntity
  8
01
100
AcDbLine
 10
641.162072014265
 20
-387.101829709449
 30
0.0
 11
639.1620533997759
 21
-389.1018343630876
 31
0.0
  0
LINE
  5
22B9C
330
18
100
AcDbEntity
  8
01
100
AcDbLine
 10
639.1620533997759
 20
-389.1018343630876
 30
0.0
 11
639.1620506076221
 21
-389.4018343630754
 31
0.0
  0
LINE
  5
22B9D
330
18
100
AcDbEntity
  8
0
100
AcDbLine
 10
471.1621609067479
 20
-258.8511555466238
 30
0.0
 11
469.6621609067479
 21
-264.1511520564854
 31
0.0
  0
LINE
  5
22B9E
330
18
100
AcDbEntity
  8
0
100
AcDbLine
 10
469.6621609067479
 20
-264.1511520564854
 30
0.0
 11
469.6621609067482
 21
-293.8511520563773
 31
0.0
  0
LINE
  5
22B9F
330
18
100
AcDbEntity
  8
0
100
AcDbLine
 10
471.1621609067479
 20
-258.8511555466238
 30
0.0
 11
472.6621609067481
 21
-264.1511590368691
 31
0.0
  0
LINE
  5
22BA0
330
18
100
AcDbEntity
  8
0
100
AcDbLine
 10
467.6621143708501
 20
-293.8511474026793
 30
0.0
 11
474.66211437085
 21
-293.8511636902436
 31
0.0
  0
LINE
  5
22BA1
330
18
100
AcDbEntity
  8
0
100
AcDbLine
 10
472.6621609067481
 20
-264.1511590368691
 30
0.0
 11
472.6621609067482
 21
-293.8511590367621
 31
0.0
  0
LINE
  5
22BA2
330
18
100
AcDbEntity
  8
0
100
AcDbLine
 10
467.6621143708501
 20
-293.8511474026793
 30
0.0
 11
467.66211437085
 21
-294.9511508928746
 31
0.0
  0
ARC
  5
22BA3
330
18
100
AcDbEntity
  8
0
100
AcDbCircle
 10
469.16211437085
 20
-294.9511508928746
 30
0.0
 40
1.5
100
AcDbArc
 50
180.0
 51
269.9998666844684
  0
LINE
  5
22BA4
330
18
100
AcDbEntity
  8
0
100
AcDbLine
 10
474.66211437085
 20
-293.8511636902436
 30
0.0
 11
474.66211437085
 21
-294.9511602000542
 31
0.0
  0
LINE
  5
22BA5
330
18
100
AcDbEntity
  8
0
100
AcDbLine
 10
469.1621108806576
 20
-296.4511508928705
 30
0.0
 11
473.1621108806576
 21
-296.4511602000501
 31
0.0
  0
ARC
  5
22BA6
330
18
100
AcDbEntity
  8
0
100
AcDbCircle
 10
473.16211437085
 20
-294.9511602000542
 30
0.0
 40
1.5
100
AcDbArc
 50
269.9998666844684
 51
0.0
  0
LINE
  5
22BA7
330
18
100
AcDbEntity
  8
1CENTER
100
AcDbLine
 10
471.16211437085
 20
-257.4203606291584
 30
0.0
 11
471.16211437085
 21
-297.5214319557703
 31
0.0
  0
LINE
  5
22BA8
330
18
100
AcDbEntity
  8
0
100
AcDbLine
 10
470.067790556855
 20
-260.9511530003016
 30
0.0
 11
472.0301256457304
 21
-260.1511575662506
 31
0.0
  0
LINE
  5
22BA9
330
18
100
AcDbEntity
  8
0
100
AcDbLine
 10
472.0301256457304
 20
-260.1511575662506
 30
0.0
 11
471.441849070688
 21
-259.8393877099985
 31
0.0
  0
LINE
  5
22BAA
330
18
100
AcDbEntity
  8
0
100
AcDbLine
 10
469.1621609067479
 20
-283.3511508930916
 30
0.0
 11
473.1621609067479
 21
-282.5511602002733
 31
0.0
  0
LINE
  5
22BAB
330
18
100
AcDbEntity
  8
0
100
AcDbLine
 10
469.1621609067479
 20
-272.1511508930872
 30
0.0
 11
473.1621609067479
 21
-271.3511602002646
 31
0.0
  0
LINE
  5
22BAC
330
18
100
AcDbEntity
  8
0
100
AcDbLine
 10
469.1621609067479
 20
-268.9511508930872
 30
0.0
 11
473.1621609067479
 21
-268.1511602002646
 31
0.0
  0
LINE
  5
22BAD
330
18
100
AcDbEntity
  8
0
100
AcDbLine
 10
473.1621609067479
 20
-268.1511602002646
 30
0.0
 11
472.6621609067479
 21
-268.0511590368674
 31
0.0
  0
LINE
  5
22BAE
330
18
100
AcDbEntity
  8
0
100
AcDbLine
 10
469.6621609067479
 20
-267.4511520564844
 30
0.0
 11
469.1621609067479
 21
-267.3511508930872
 31
0.0
  0
LINE
  5
22BAF
330
18
100
AcDbEntity
  8
0
100
AcDbLine
 10
473.1621609067479
 20
-271.3511602002646
 30
0.0
 11
472.6621609067479
 21
-271.2511590368674
 31
0.0
  0
LINE
  5
22BB0
330
18
100
AcDbEntity
  8
0
100
AcDbLine
 10
473.1621609067479
 20
-269.7511602002645
 30
0.0
 11
472.6621609067479
 21
-269.6511590368674
 31
0.0
  0
LINE
  5
22BB1
330
18
100
AcDbEntity
  8
0
100
AcDbLine
 10
469.6621609067479
 20
-269.0511520564843
 30
0.0
 11
469.1621609067479
 21
-268.9511508930872
 31
0.0
  0
LINE
  5
22BB2
330
18
100
AcDbEntity
  8
0
100
AcDbLine
 10
469.6621609067479
 20
-270.6511520564842
 30
0.0
 11
469.1621609067479
 21
-270.5511508930871
 31
0.0
  0
LINE
  5
22BB3
330
18
100
AcDbEntity
  8
0
100
AcDbLine
 10
469.1621609067479
 20
-270.5511508930871
 30
0.0
 11
473.1621609067479
 21
-269.7511602002645
 31
0.0
  0
LINE
  5
22BB4
330
18
100
AcDbEntity
  8
0
100
AcDbLine
 10
472.4829397501372
 20
-261.7511586198563
 30
0.0
 11
471.9311902863339
 21
-261.5683944772283
 31
0.0
  0
LINE
  5
22BB5
330
18
100
AcDbEntity
  8
0
100
AcDbLine
 10
473.1621609067479
 20
-264.9511602002646
 30
0.0
 11
472.6621609067479
 21
-264.8511590368674
 31
0.0
  0
LINE
  5
22BB6
330
18
100
AcDbEntity
  8
0
100
AcDbLine
 10
473.1621609067479
 20
-266.5511602002646
 30
0.0
 11
472.6621609067479
 21
-266.4511590368676
 31
0.0
  0
LINE
  5
22BB7
330
18
100
AcDbEntity
  8
0
100
AcDbLine
 10
472.935753854544
 20
-263.3511596734619
 30
0.0
 11
472.3991601192728
 21
-263.221888975832
 31
0.0
  0
LINE
  5
22BB8
330
18
100
AcDbEntity
  8
0
100
AcDbLine
 10
470.0830755039566
 20
-262.6639214590474
 30
0.0
 11
469.6149770488067
 21
-262.5511519466974
 31
0.0
  0
LINE
  5
22BB9
330
18
100
AcDbEntity
  8
0
100
AcDbLine
 10
469.6621609067479
 20
-265.8511520564842
 30
0.0
 11
469.1621609067479
 21
-265.7511508930871
 31
0.0
  0
LINE
  5
22BBA
330
18
100
AcDbEntity
  8
0
100
AcDbLine
 10
469.6621609067479
 20
-264.2511520564843
 30
0.0
 11
469.1621609067479
 21
-264.1511508930872
 31
0.0
  0
LINE
  5
22BBB
330
18
100
AcDbEntity
  8
0
100
AcDbLine
 10
470.524962397486
 20
-261.102588796742
 30
0.0
 11
470.067790556855
 21
-260.9511530003016
 31
0.0
  0
LINE
  5
22BBC
330
18
100
AcDbEntity
  8
0
100
AcDbLine
 10
469.6149770488067
 20
-262.5511519466974
 30
0.0
 11
472.4829397501372
 21
-261.7511586198563
 31
0.0
  0
LINE
  5
22BBD
330
18
100
AcDbEntity
  8
0
100
AcDbLine
 10
469.1621609067479
 20
-265.7511508930871
 30
0.0
 11
473.1621609067479
 21
-264.9511602002646
 31
0.0
  0
LINE
  5
22BBE
330
18
100
AcDbEntity
  8
0
100
AcDbLine
 10
469.1621609067479
 20
-264.1511508930872
 30
0.0
 11
472.935753854544
 21
-263.3511596734619
 31
0.0
  0
LINE
  5
22BBF
330
18
100
AcDbEntity
  8
0
100
AcDbLine
 10
469.1621609067479
 20
-267.3511508930872
 30
0.0
 11
473.1621609067479
 21
-266.5511602002646
 31
0.0
  0
LINE
  5
22BC0
330
18
100
AcDbEntity
  8
0
100
AcDbLine
 10
469.1621609067479
 20
-280.1511508930915
 30
0.0
 11
473.1621609067479
 21
-279.3511602002733
 31
0.0
  0
LINE
  5
22BC1
330
18
100
AcDbEntity
  8
0
100
AcDbLine
 10
473.1621609067479
 20
-279.3511602002733
 30
0.0
 11
472.6621609067479
 21
-279.2511590368756
 31
0.0
  0
LINE
  5
22BC2
330
18
100
AcDbEntity
  8
0
100
AcDbLine
 10
469.6621609067479
 20
-278.6511520564849
 30
0.0
 11
469.1621609067479
 21
-278.5511508930872
 31
0.0
  0
LINE
  5
22BC3
330
18
100
AcDbEntity
  8
0
100
AcDbLine
 10
473.1621609067479
 20
-280.9511602002734
 30
0.0
 11
472.6621609067479
 21
-280.8511590368757
 31
0.0
  0
LINE
  5
22BC4
330
18
100
AcDbEntity
  8
0
100
AcDbLine
 10
473.1621609067479
 20
-282.5511602002733
 30
0.0
 11
472.6621609067479
 21
-282.4511590368757
 31
0.0
  0
LINE
  5
22BC5
330
18
100
AcDbEntity
  8
0
100
AcDbLine
 10
469.6621609067479
 20
-280.2511520564892
 30
0.0
 11
469.1621609067479
 21
-280.1511508930915
 31
0.0
  0
LINE
  5
22BC6
330
18
100
AcDbEntity
  8
0
100
AcDbLine
 10
469.6621609067479
 20
-281.8511520564894
 30
0.0
 11
469.1621609067479
 21
-281.7511508930917
 31
0.0
  0
LINE
  5
22BC7
330
18
100
AcDbEntity
  8
0
100
AcDbLine
 10
469.1621609067479
 20
-281.7511508930917
 30
0.0
 11
473.1621609067479
 21
-280.9511602002734
 31
0.0
  0
LINE
  5
22BC8
330
18
100
AcDbEntity
  8
0
100
AcDbLine
 10
473.1621609067479
 20
-274.5511602002689
 30
0.0
 11
472.6621609067479
 21
-274.4511590368712
 31
0.0
  0
LINE
  5
22BC9
330
18
100
AcDbEntity
  8
0
100
AcDbLine
 10
473.1621609067479
 20
-272.9511602002646
 30
0.0
 11
472.6621609067479
 21
-272.8511590368674
 31
0.0
  0
LINE
  5
22BCA
330
18
100
AcDbEntity
  8
0
100
AcDbLine
 10
473.1621609067479
 20
-277.7511602002689
 30
0.0
 11
472.6621609067479
 21
-277.6511590368713
 31
0.0
  0
LINE
  5
22BCB
330
18
100
AcDbEntity
  8
0
100
AcDbLine
 10
473.1621609067479
 20
-276.151160200269
 30
0.0
 11
472.6621609067479
 21
-276.0511590368714
 31
0.0
  0
LINE
  5
22BCC
330
18
100
AcDbEntity
  8
0
100
AcDbLine
 10
469.6621609067479
 20
-272.2511520564843
 30
0.0
 11
469.1621609067479
 21
-272.1511508930872
 31
0.0
  0
LINE
  5
22BCD
330
18
100
AcDbEntity
  8
0
100
AcDbLine
 10
469.6621609067479
 20
-273.8511520564849
 30
0.0
 11
469.1621609067479
 21
-273.7511508930871
 31
0.0
  0
LINE
  5
22BCE
330
18
100
AcDbEntity
  8
0
100
AcDbLine
 10
469.6621609067479
 20
-277.051152056485
 30
0.0
 11
469.1621609067479
 21
-276.9511508930873
 31
0.0
  0
LINE
  5
22BCF
330
18
100
AcDbEntity
  8
0
100
AcDbLine
 10
469.6621609067479
 20
-275.4511520564848
 30
0.0
 11
469.1621609067479
 21
-275.3511508930872
 31
0.0
  0
LINE
  5
22BD0
330
18
100
AcDbEntity
  8
0
100
AcDbLine
 10
469.1621609067479
 20
-275.3511508930872
 30
0.0
 11
473.1621609067479
 21
-274.5511602002689
 31
0.0
  0
LINE
  5
22BD1
330
18
100
AcDbEntity
  8
0
100
AcDbLine
 10
469.1621609067479
 20
-273.7511508930871
 30
0.0
 11
473.1621609067479
 21
-272.9511602002646
 31
0.0
  0
LINE
  5
22BD2
330
18
100
AcDbEntity
  8
0
100
AcDbLine
 10
469.1621609067479
 20
-276.9511508930873
 30
0.0
 11
473.1621609067479
 21
-276.151160200269
 31
0.0
  0
LINE
  5
22BD3
330
18
100
AcDbEntity
  8
0
100
AcDbLine
 10
469.1621609067479
 20
-278.5511508930872
 30
0.0
 11
473.1621609067479
 21
-277.7511602002689
 31
0.0
  0
LINE
  5
22BD4
330
18
100
AcDbEntity
  8
0
100
AcDbLine
 10
469.6621609067479
 20
-288.2511520564934
 30
0.0
 11
469.1621609067479
 21
-288.1511508930957
 31
0.0
  0
LINE
  5
22BD5
330
18
100
AcDbEntity
  8
0
100
AcDbLine
 10
469.1621609067479
 20
-288.1511508930957
 30
0.0
 11
473.1621609067479
 21
-287.3511602002775
 31
0.0
  0
LINE
  5
22BD6
330
18
100
AcDbEntity
  8
0
100
AcDbLine
 10
473.1621609067479
 20
-287.3511602002775
 30
0.0
 11
472.6621609067479
 21
-287.2511590368798
 31
0.0
  0
LINE
  5
22BD7
330
18
100
AcDbEntity
  8
0
100
AcDbLine
 10
469.6621609067479
 20
-286.6511520564935
 30
0.0
 11
469.1621609067479
 21
-286.5511508930958
 31
0.0
  0
LINE
  5
22BD8
330
18
100
AcDbEntity
  8
0
100
AcDbLine
 10
469.6621609067479
 20
-285.0511520564936
 30
0.0
 11
469.1621609067479
 21
-284.9511508930959
 31
0.0
  0
LINE
  5
22BD9
330
18
100
AcDbEntity
  8
0
100
AcDbLine
 10
469.1621609067479
 20
-284.9511508930959
 30
0.0
 11
473.1621609067479
 21
-284.1511602002777
 31
0.0
  0
LINE
  5
22BDA
330
18
100
AcDbEntity
  8
0
100
AcDbLine
 10
473.1621609067479
 20
-285.7511602002776
 30
0.0
 11
472.6621609067479
 21
-285.6511590368799
 31
0.0
  0
LINE
  5
22BDB
330
18
100
AcDbEntity
  8
0
100
AcDbLine
 10
473.1621609067479
 20
-284.1511602002777
 30
0.0
 11
472.6621609067479
 21
-284.05115903688
 31
0.0
  0
LINE
  5
22BDC
330
18
100
AcDbEntity
  8
0
100
AcDbLine
 10
469.1621609067479
 20
-286.5511508930958
 30
0.0
 11
473.1621609067479
 21
-285.7511602002776
 31
0.0
  0
LINE
  5
22BDD
330
18
100
AcDbEntity
  8
0
100
AcDbLine
 10
469.6621609067479
 20
-283.4511520564893
 30
0.0
 11
469.1621609067479
 21
-283.3511508930916
 31
0.0
  0
LINE
  5
22BDE
330
18
100
AcDbEntity
  8
0
100
AcDbLine
 10
469.6621609067479
 20
-289.8511520564933
 30
0.0
 11
469.1621609067479
 21
-289.7511508930957
 31
0.0
  0
LINE
  5
22BDF
330
18
100
AcDbEntity
  8
0
100
AcDbLine
 10
469.1621609067479
 20
-289.7511508930957
 30
0.0
 11
473.1621609067479
 21
-288.9511602002774
 31
0.0
  0
LINE
  5
22BE0
330
18
100
AcDbEntity
  8
0
100
AcDbLine
 10
473.1621609067479
 20
-288.9511602002774
 30
0.0
 11
472.6621609067479
 21
-288.8511590368797
 31
0.0
  0
LINE
  5
22BE1
330
18
100
AcDbEntity
  8
0
100
AcDbLine
 10
469.6621609067479
 20
-291.4511520564932
 30
0.0
 11
469.1621609067479
 21
-291.3511508930956
 31
0.0
  0
LINE
  5
22BE2
330
18
100
AcDbEntity
  8
0
100
AcDbLine
 10
469.1621609067479
 20
-291.3511508930956
 30
0.0
 11
473.1621609067479
 21
-290.5511602002774
 31
0.0
  0
LINE
  5
22BE3
330
18
100
AcDbEntity
  8
0
100
AcDbLine
 10
473.1621609067479
 20
-290.5511602002774
 30
0.0
 11
472.6621609067479
 21
-290.4511590368797
 31
0.0
  0
LINE
  5
22BE4
330
18
100
AcDbEntity
  8
0
100
AcDbLine
 10
469.6621609067479
 20
-293.0511520564932
 30
0.0
 11
469.1621609067479
 21
-292.9511508930955
 31
0.0
  0
LINE
  5
22BE5
330
18
100
AcDbEntity
  8
0
100
AcDbLine
 10
469.1621609067479
 20
-292.9511508930955
 30
0.0
 11
473.1621609067479
 21
-292.1511602002773
 31
0.0
  0
LINE
  5
22BE6
330
18
100
AcDbEntity
  8
0
100
AcDbLine
 10
473.1621609067479
 20
-292.1511602002773
 30
0.0
 11
472.6621609067479
 21
-292.0511590368796
 31
0.0
  0
LINE
  5
22BE7
330
18
100
AcDbEntity
  8
0
100
AcDbLine
 10
702.1621143706898
 20
-382.7019993834411
 30
0.0
 11
696.8621178608281
 21
-381.2019993834411
 31
0.0
  0
LINE
  5
22BE8
330
18
100
AcDbEntity
  8
0
100
AcDbLine
 10
696.8621178608281
 20
-381.2019993834411
 30
0.0
 11
667.1621178609362
 21
-381.2019993834414
 31
0.0
  0
LINE
  5
22BE9
330
18
100
AcDbEntity
  8
0
100
AcDbLine
 10
702.1621143706898
 20
-382.7019993834411
 30
0.0
 11
696.8621108804444
 21
-384.2019993834413
 31
0.0
  0
LINE
  5
22BEA
330
18
100
AcDbEntity
  8
0
100
AcDbLine
 10
667.1621225146343
 20
-379.2019528475433
 30
0.0
 11
667.1621062270699
 21
-386.2019528475432
 31
0.0
  0
LINE
  5
22BEB
330
18
100
AcDbEntity
  8
0
100
AcDbLine
 10
696.8621108804444
 20
-384.2019993834413
 30
0.0
 11
667.1621108805515
 21
-384.2019993834414
 31
0.0
  0
LINE
  5
22BEC
330
18
100
AcDbEntity
  8
0
100
AcDbLine
 10
667.1621225146343
 20
-379.2019528475433
 30
0.0
 11
666.062119024439
 21
-379.2019528475432
 31
0.0
  0
ARC
  5
22BED
330
18
100
AcDbEntity
  8
0
100
AcDbCircle
 10
666.062119024439
 20
-380.7019528475432
 30
0.0
 40
1.5
100
AcDbArc
 50
90.0
 51
179.9998666844684
  0
LINE
  5
22BEE
330
18
100
AcDbEntity
  8
0
100
AcDbLine
 10
667.1621062270699
 20
-386.2019528475432
 30
0.0
 11
666.0621097172593
 21
-386.2019528475432
 31
0.0
  0
LINE
  5
22BEF
330
18
100
AcDbEntity
  8
0
100
AcDbLine
 10
664.5621190244431
 20
-380.7019493573508
 30
0.0
 11
664.5621097172634
 21
-384.7019493573508
 31
0.0
  0
ARC
  5
22BF0
330
18
100
AcDbEntity
  8
0
100
AcDbCircle
 10
666.0621097172593
 20
-384.7019528475432
 30
0.0
 40
1.5
100
AcDbArc
 50
179.9998666844684
 51
270.0
  0
LINE
  5
22BF1
330
18
100
AcDbEntity
  8
1CENTER
100
AcDbLine
 10
703.5929092881552
 20
-382.7019528475432
 30
0.0
 11
663.4918379615433
 21
-382.7019528475432
 31
0.0
  0
LINE
  5
22BF2
330
18
100
AcDbEntity
  8
0
100
AcDbLine
 10
700.062116917012
 20
-381.6076290335482
 30
0.0
 11
700.8621123510629
 21
-383.5699641224236
 31
0.0
  0
LINE
  5
22BF3
330
18
100
AcDbEntity
  8
0
100
AcDbLine
 10
700.8621123510629
 20
-383.5699641224236
 30
0.0
 11
701.173882207315
 21
-382.9816875473812
 31
0.0
  0
LINE
  5
22BF4
330
18
100
AcDbEntity
  8
0
100
AcDbLine
 10
677.662119024222
 20
-380.7019993834411
 30
0.0
 11
678.4621097170402
 21
-384.7019993834411
 31
0.0
  0
LINE
  5
22BF5
330
18
100
AcDbEntity
  8
0
100
AcDbLine
 10
688.8621190242263
 20
-380.7019993834411
 30
0.0
 11
689.6621097170489
 21
-384.7019993834411
 31
0.0
  0
LINE
  5
22BF6
330
18
100
AcDbEntity
  8
0
100
AcDbLine
 10
692.0621190242264
 20
-380.7019993834411
 30
0.0
 11
692.862109717049
 21
-384.7019993834411
 31
0.0
  0
LINE
  5
22BF7
330
18
100
AcDbEntity
  8
0
100
AcDbLine
 10
692.862109717049
 20
-384.7019993834411
 30
0.0
 11
692.9621108804462
 21
-384.2019993834411
 31
0.0
  0
LINE
  5
22BF8
330
18
100
AcDbEntity
  8
0
100
AcDbLine
 10
693.5621178608292
 20
-381.2019993834411
 30
0.0
 11
693.6621190242264
 21
-380.7019993834411
 31
0.0
  0
LINE
  5
22BF9
330
18
100
AcDbEntity
  8
0
100
AcDbLine
 10
689.6621097170489
 20
-384.7019993834411
 30
0.0
 11
689.7621108804461
 21
-384.2019993834411
 31
0.0
  0
LINE
  5
22BFA
330
18
100
AcDbEntity
  8
0
100
AcDbLine
 10
691.262109717049
 20
-384.7019993834411
 30
0.0
 11
691.3621108804462
 21
-384.2019993834411
 31
0.0
  0
LINE
  5
22BFB
330
18
100
AcDbEntity
  8
0
100
AcDbLine
 10
691.9621178608293
 20
-381.2019993834411
 30
0.0
 11
692.0621190242264
 21
-380.7019993834411
 31
0.0
  0
LINE
  5
22BFC
330
18
100
AcDbEntity
  8
0
100
AcDbLine
 10
690.3621178608294
 20
-381.2019993834411
 30
0.0
 11
690.4621190242265
 21
-380.7019993834411
 31
0.0
  0
LINE
  5
22BFD
330
18
100
AcDbEntity
  8
0
100
AcDbLine
 10
690.4621190242265
 20
-380.7019993834411
 30
0.0
 11
691.262109717049
 21
-384.7019993834411
 31
0.0
  0
LINE
  5
22BFE
330
18
100
AcDbEntity
  8
0
100
AcDbLine
 10
699.2621112974573
 20
-384.0227782268304
 30
0.0
 11
699.4448754400853
 21
-383.4710287630271
 31
0.0
  0
LINE
  5
22BFF
330
18
100
AcDbEntity
  8
0
100
AcDbLine
 10
696.062109717049
 20
-384.7019993834411
 30
0.0
 11
696.1621108804461
 21
-384.2019993834411
 31
0.0
  0
LINE
  5
22C00
330
18
100
AcDbEntity
  8
0
100
AcDbLine
 10
694.462109717049
 20
-384.7019993834411
 30
0.0
 11
694.562110880446
 21
-384.2019993834411
 31
0.0
  0
LINE
  5
22C01
330
18
100
AcDbEntity
  8
0
100
AcDbLine
 10
697.6621102438517
 20
-384.4755923312372
 30
0.0
 11
697.7913809414815
 21
-383.938998595966
 31
0.0
  0
LINE
  5
22C02
330
18
100
AcDbEntity
  8
0
100
AcDbLine
 10
698.3493484582661
 20
-381.6229139806499
 30
0.0
 11
698.4621179706162
 21
-381.1548155254999
 31
0.0
  0
LINE
  5
22C03
330
18
100
AcDbEntity
  8
0
100
AcDbLine
 10
695.1621178608293
 20
-381.2019993834411
 30
0.0
 11
695.2621190242264
 21
-380.7019993834411
 31
0.0
  0
LINE
  5
22C04
330
18
100
AcDbEntity
  8
0
100
AcDbLine
 10
696.7621178608292
 20
-381.2019993834411
 30
0.0
 11
696.8621190242263
 21
-380.7019993834411
 31
0.0
  0
LINE
  5
22C05
330
18
100
AcDbEntity
  8
0
100
AcDbLine
 10
699.9106811205716
 20
-382.0648008741792
 30
0.0
 11
700.062116917012
 21
-381.6076290335482
 31
0.0
  0
LINE
  5
22C06
330
18
100
AcDbEntity
  8
0
100
AcDbLine
 10
698.4621179706162
 20
-381.1548155254999
 30
0.0
 11
699.2621112974573
 21
-384.0227782268304
 31
0.0
  0
LINE
  5
22C07
330
18
100
AcDbEntity
  8
0
100
AcDbLine
 10
695.2621190242264
 20
-380.7019993834411
 30
0.0
 11
696.062109717049
 21
-384.7019993834411
 31
0.0
  0
LINE
  5
22C08
330
18
100
AcDbEntity
  8
0
100
AcDbLine
 10
696.8621190242263
 20
-380.7019993834411
 30
0.0
 11
697.6621102438517
 21
-384.4755923312372
 31
0.0
  0
LINE
  5
22C09
330
18
100
AcDbEntity
  8
0
100
AcDbLine
 10
693.6621190242264
 20
-380.7019993834411
 30
0.0
 11
694.462109717049
 21
-384.7019993834411
 31
0.0
  0
LINE
  5
22C0A
330
18
100
AcDbEntity
  8
0
100
AcDbLine
 10
680.862119024222
 20
-380.7019993834411
 30
0.0
 11
681.6621097170403
 21
-384.7019993834411
 31
0.0
  0
LINE
  5
22C0B
330
18
100
AcDbEntity
  8
0
100
AcDbLine
 10
681.6621097170403
 20
-384.7019993834411
 30
0.0
 11
681.762110880438
 21
-384.2019993834411
 31
0.0
  0
LINE
  5
22C0C
330
18
100
AcDbEntity
  8
0
100
AcDbLine
 10
682.3621178608287
 20
-381.2019993834411
 30
0.0
 11
682.4621190242264
 21
-380.7019993834411
 31
0.0
  0
LINE
  5
22C0D
330
18
100
AcDbEntity
  8
0
100
AcDbLine
 10
680.0621097170401
 20
-384.7019993834411
 30
0.0
 11
680.1621108804378
 21
-384.2019993834411
 31
0.0
  0
LINE
  5
22C0E
330
18
100
AcDbEntity
  8
0
100
AcDbLine
 10
678.4621097170402
 20
-384.7019993834411
 30
0.0
 11
678.5621108804379
 21
-384.2019993834411
 31
0.0
  0
LINE
  5
22C0F
330
18
100
AcDbEntity
  8
0
100
AcDbLine
 10
680.7621178608243
 20
-381.2019993834411
 30
0.0
 11
680.862119024222
 21
-380.7019993834411
 31
0.0
  0
LINE
  5
22C10
330
18
100
AcDbEntity
  8
0
100
AcDbLine
 10
679.1621178608242
 20
-381.2019993834411
 30
0.0
 11
679.2621190242219
 21
-380.7019993834411
 31
0.0
  0
LINE
  5
22C11
330
18
100
AcDbEntity
  8
0
100
AcDbLine
 10
679.2621190242219
 20
-380.7019993834411
 30
0.0
 11
680.0621097170401
 21
-384.7019993834411
 31
0.0
  0
LINE
  5
22C12
330
18
100
AcDbEntity
  8
0
100
AcDbLine
 10
686.4621097170447
 20
-384.7019993834411
 30
0.0
 11
686.5621108804423
 21
-384.2019993834411
 31
0.0
  0
LINE
  5
22C13
330
18
100
AcDbEntity
  8
0
100
AcDbLine
 10
688.062109717049
 20
-384.7019993834411
 30
0.0
 11
688.1621108804461
 21
-384.2019993834411
 31
0.0
  0
LINE
  5
22C14
330
18
100
AcDbEntity
  8
0
100
AcDbLine
 10
683.2621097170446
 20
-384.7019993834411
 30
0.0
 11
683.3621108804423
 21
-384.2019993834411
 31
0.0
  0
LINE
  5
22C15
330
18
100
AcDbEntity
  8
0
100
AcDbLine
 10
684.8621097170445
 20
-384.7019993834411
 30
0.0
 11
684.9621108804422
 21
-384.2019993834411
 31
0.0
  0
LINE
  5
22C16
330
18
100
AcDbEntity
  8
0
100
AcDbLine
 10
688.7621178608292
 20
-381.2019993834411
 30
0.0
 11
688.8621190242263
 21
-380.7019993834411
 31
0.0
  0
LINE
  5
22C17
330
18
100
AcDbEntity
  8
0
100
AcDbLine
 10
687.1621178608286
 20
-381.2019993834411
 30
0.0
 11
687.2621190242264
 21
-380.7019993834411
 31
0.0
  0
LINE
  5
22C18
330
18
100
AcDbEntity
  8
0
100
AcDbLine
 10
683.9621178608286
 20
-381.2019993834411
 30
0.0
 11
684.0621190242263
 21
-380.7019993834411
 31
0.0
  0
LINE
  5
22C19
330
18
100
AcDbEntity
  8
0
100
AcDbLine
 10
685.5621178608287
 20
-381.2019993834411
 30
0.0
 11
685.6621190242264
 21
-380.7019993834411
 31
0.0
  0
LINE
  5
22C1A
330
18
100
AcDbEntity
  8
0
100
AcDbLine
 10
685.6621190242264
 20
-380.7019993834411
 30
0.0
 11
686.4621097170447
 21
-384.7019993834411
 31
0.0
  0
LINE
  5
22C1B
330
18
100
AcDbEntity
  8
0
100
AcDbLine
 10
687.2621190242264
 20
-380.7019993834411
 30
0.0
 11
688.062109717049
 21
-384.7019993834411
 31
0.0
  0
LINE
  5
22C1C
330
18
100
AcDbEntity
  8
0
100
AcDbLine
 10
684.0621190242263
 20
-380.7019993834411
 30
0.0
 11
684.8621097170445
 21
-384.7019993834411
 31
0.0
  0
LINE
  5
22C1D
330
18
100
AcDbEntity
  8
0
100
AcDbLine
 10
682.4621190242264
 20
-380.7019993834411
 30
0.0
 11
683.2621097170446
 21
-384.7019993834411
 31
0.0
  0
LINE
  5
22C1E
330
18
100
AcDbEntity
  8
0
100
AcDbLine
 10
672.7621178608201
 20
-381.2019993834411
 30
0.0
 11
672.8621190242178
 21
-380.7019993834411
 31
0.0
  0
LINE
  5
22C1F
330
18
100
AcDbEntity
  8
0
100
AcDbLine
 10
672.8621190242178
 20
-380.7019993834411
 30
0.0
 11
673.6621097170361
 21
-384.7019993834411
 31
0.0
  0
LINE
  5
22C20
330
18
100
AcDbEntity
  8
0
100
AcDbLine
 10
673.6621097170361
 20
-384.7019993834411
 30
0.0
 11
673.7621108804337
 21
-384.2019993834411
 31
0.0
  0
LINE
  5
22C21
330
18
100
AcDbEntity
  8
0
100
AcDbLine
 10
674.36211786082
 20
-381.2019993834411
 30
0.0
 11
674.4621190242177
 21
-380.7019993834411
 31
0.0
  0
LINE
  5
22C22
330
18
100
AcDbEntity
  8
0
100
AcDbLine
 10
675.96211786082
 20
-381.2019993834411
 30
0.0
 11
676.0621190242176
 21
-380.7019993834411
 31
0.0
  0
LINE
  5
22C23
330
18
100
AcDbEntity
  8
0
100
AcDbLine
 10
676.0621190242176
 20
-380.7019993834411
 30
0.0
 11
676.8621097170359
 21
-384.7019993834411
 31
0.0
  0
LINE
  5
22C24
330
18
100
AcDbEntity
  8
0
100
AcDbLine
 10
675.262109717036
 20
-384.7019993834411
 30
0.0
 11
675.3621108804336
 21
-384.2019993834411
 31
0.0
  0
LINE
  5
22C25
330
18
100
AcDbEntity
  8
0
100
AcDbLine
 10
676.8621097170359
 20
-384.7019993834411
 30
0.0
 11
676.9621108804336
 21
-384.2019993834411
 31
0.0
  0
LINE
  5
22C26
330
18
100
AcDbEntity
  8
0
100
AcDbLine
 10
674.4621190242177
 20
-380.7019993834411
 30
0.0
 11
675.262109717036
 21
-384.7019993834411
 31
0.0
  0
LINE
  5
22C27
330
18
100
AcDbEntity
  8
0
100
AcDbLine
 10
677.5621178608243
 20
-381.2019993834411
 30
0.0
 11
677.662119024222
 21
-380.7019993834411
 31
0.0
  0
LINE
  5
22C28
330
18
100
AcDbEntity
  8
0
100
AcDbLine
 10
671.1621178608202
 20
-381.2019993834411
 30
0.0
 11
671.2621190242179
 21
-380.7019993834411
 31
0.0
  0
LINE
  5
22C29
330
18
100
AcDbEntity
  8
0
100
AcDbLine
 10
671.2621190242179
 20
-380.7019993834411
 30
0.0
 11
672.0621097170362
 21
-384.7019993834411
 31
0.0
  0
LINE
  5
22C2A
330
18
100
AcDbEntity
  8
0
100
AcDbLine
 10
672.0621097170362
 20
-384.7019993834411
 30
0.0
 11
672.1621108804338
 21
-384.2019993834411
 31
0.0
  0
LINE
  5
22C2B
330
18
100
AcDbEntity
  8
0
100
AcDbLine
 10
669.5621178608203
 20
-381.2019993834411
 30
0.0
 11
669.662119024218
 21
-380.7019993834411
 31
0.0
  0
LINE
  5
22C2C
330
18
100
AcDbEntity
  8
0
100
AcDbLine
 10
669.662119024218
 20
-380.7019993834411
 30
0.0
 11
670.4621097170362
 21
-384.7019993834411
 31
0.0
  0
LINE
  5
22C2D
330
18
100
AcDbEntity
  8
0
100
AcDbLine
 10
670.4621097170362
 20
-384.7019993834411
 30
0.0
 11
670.5621108804339
 21
-384.2019993834411
 31
0.0
  0
LINE
  5
22C2E
330
18
100
AcDbEntity
  8
0
100
AcDbLine
 10
667.9621178608204
 20
-381.2019993834411
 30
0.0
 11
668.0621190242181
 21
-380.7019993834411
 31
0.0
  0
LINE
  5
22C2F
330
18
100
AcDbEntity
  8
0
100
AcDbLine
 10
668.0621190242181
 20
-380.7019993834411
 30
0.0
 11
668.8621097170363
 21
-384.7019993834411
 31
0.0
  0
LINE
  5
22C30
330
18
100
AcDbEntity
  8
0
100
AcDbLine
 10
668.8621097170363
 20
-384.7019993834411
 30
0.0
 11
668.962110880434
 21
-384.2019993834411
 31
0.0
  0
LINE
  5
22C31
330
18
100
AcDbEntity
  8
0
100
AcDbLine
 10
445.1621609067479
 20
-258.8511555466238
 30
0.0
 11
443.6621609067479
 21
-264.1511520564854
 31
0.0
  0
LINE
  5
22C32
330
18
100
AcDbEntity
  8
0
100
AcDbLine
 10
443.6621609067479
 20
-264.1511520564854
 30
0.0
 11
443.6621609067482
 21
-293.8511520563773
 31
0.0
  0
LINE
  5
22C33
330
18
100
AcDbEntity
  8
0
100
AcDbLine
 10
445.1621609067479
 20
-258.8511555466238
 30
0.0
 11
446.6621609067481
 21
-264.1511590368691
 31
0.0
  0
LINE
  5
22C34
330
18
100
AcDbEntity
  8
0
100
AcDbLine
 10
441.6621143708501
 20
-293.8511474026793
 30
0.0
 11
448.66211437085
 21
-293.8511636902436
 31
0.0
  0
LINE
  5
22C35
330
18
100
AcDbEntity
  8
0
100
AcDbLine
 10
446.6621609067481
 20
-264.1511590368691
 30
0.0
 11
446.6621609067482
 21
-293.8511590367621
 31
0.0
  0
LINE
  5
22C36
330
18
100
AcDbEntity
  8
0
100
AcDbLine
 10
441.6621143708501
 20
-293.8511474026793
 30
0.0
 11
441.66211437085
 21
-294.9511508928746
 31
0.0
  0
ARC
  5
22C37
330
18
100
AcDbEntity
  8
0
100
AcDbCircle
 10
443.16211437085
 20
-294.9511508928746
 30
0.0
 40
1.5
100
AcDbArc
 50
180.0
 51
269.9998666844684
  0
LINE
  5
22C38
330
18
100
AcDbEntity
  8
0
100
AcDbLine
 10
448.66211437085
 20
-293.8511636902436
 30
0.0
 11
448.66211437085
 21
-294.9511602000542
 31
0.0
  0
LINE
  5
22C39
330
18
100
AcDbEntity
  8
0
100
AcDbLine
 10
443.1621108806576
 20
-296.4511508928705
 30
0.0
 11
447.1621108806576
 21
-296.4511602000501
 31
0.0
  0
ARC
  5
22C3A
330
18
100
AcDbEntity
  8
0
100
AcDbCircle
 10
447.16211437085
 20
-294.9511602000542
 30
0.0
 40
1.5
100
AcDbArc
 50
269.9998666844684
 51
0.0
  0
LINE
  5
22C3B
330
18
100
AcDbEntity
  8
1CENTER
100
AcDbLine
 10
445.16211437085
 20
-257.4203606291584
 30
0.0
 11
445.16211437085
 21
-297.5214319557703
 31
0.0
  0
LINE
  5
22C3C
330
18
100
AcDbEntity
  8
0
100
AcDbLine
 10
444.067790556855
 20
-260.9511530003016
 30
0.0
 11
446.0301256457304
 21
-260.1511575662506
 31
0.0
  0
LINE
  5
22C3D
330
18
100
AcDbEntity
  8
0
100
AcDbLine
 10
446.0301256457304
 20
-260.1511575662506
 30
0.0
 11
445.441849070688
 21
-259.8393877099985
 31
0.0
  0
LINE
  5
22C3E
330
18
100
AcDbEntity
  8
0
100
AcDbLine
 10
443.1621609067479
 20
-283.3511508930916
 30
0.0
 11
447.1621609067479
 21
-282.5511602002733
 31
0.0
  0
LINE
  5
22C3F
330
18
100
AcDbEntity
  8
0
100
AcDbLine
 10
443.1621609067479
 20
-272.1511508930872
 30
0.0
 11
447.1621609067479
 21
-271.3511602002646
 31
0.0
  0
LINE
  5
22C40
330
18
100
AcDbEntity
  8
0
100
AcDbLine
 10
443.1621609067479
 20
-268.9511508930872
 30
0.0
 11
447.1621609067479
 21
-268.1511602002646
 31
0.0
  0
LINE
  5
22C41
330
18
100
AcDbEntity
  8
0
100
AcDbLine
 10
447.1621609067479
 20
-268.1511602002646
 30
0.0
 11
446.6621609067479
 21
-268.0511590368674
 31
0.0
  0
LINE
  5
22C42
330
18
100
AcDbEntity
  8
0
100
AcDbLine
 10
443.6621609067479
 20
-267.4511520564844
 30
0.0
 11
443.1621609067479
 21
-267.3511508930872
 31
0.0
  0
LINE
  5
22C43
330
18
100
AcDbEntity
  8
0
100
AcDbLine
 10
447.1621609067479
 20
-271.3511602002646
 30
0.0
 11
446.6621609067479
 21
-271.2511590368674
 31
0.0
  0
LINE
  5
22C44
330
18
100
AcDbEntity
  8
0
100
AcDbLine
 10
447.1621609067479
 20
-269.7511602002645
 30
0.0
 11
446.6621609067479
 21
-269.6511590368674
 31
0.0
  0
LINE
  5
22C45
330
18
100
AcDbEntity
  8
0
100
AcDbLine
 10
443.6621609067479
 20
-269.0511520564843
 30
0.0
 11
443.1621609067479
 21
-268.9511508930872
 31
0.0
  0
LINE
  5
22C46
330
18
100
AcDbEntity
  8
0
100
AcDbLine
 10
443.6621609067479
 20
-270.6511520564842
 30
0.0
 11
443.1621609067479
 21
-270.5511508930871
 31
0.0
  0
LINE
  5
22C47
330
18
100
AcDbEntity
  8
0
100
AcDbLine
 10
443.1621609067479
 20
-270.5511508930871
 30
0.0
 11
447.1621609067479
 21
-269.7511602002645
 31
0.0
  0
LINE
  5
22C48
330
18
100
AcDbEntity
  8
0
100
AcDbLine
 10
446.4829397501372
 20
-261.7511586198563
 30
0.0
 11
445.9311902863339
 21
-261.5683944772283
 31
0.0
  0
LINE
  5
22C49
330
18
100
AcDbEntity
  8
0
100
AcDbLine
 10
447.1621609067479
 20
-264.9511602002646
 30
0.0
 11
446.6621609067479
 21
-264.8511590368674
 31
0.0
  0
LINE
  5
22C4A
330
18
100
AcDbEntity
  8
0
100
AcDbLine
 10
447.1621609067479
 20
-266.5511602002646
 30
0.0
 11
446.6621609067479
 21
-266.4511590368676
 31
0.0
  0
LINE
  5
22C4B
330
18
100
AcDbEntity
  8
0
100
AcDbLine
 10
446.935753854544
 20
-263.3511596734619
 30
0.0
 11
446.3991601192728
 21
-263.221888975832
 31
0.0
  0
LINE
  5
22C4C
330
18
100
AcDbEntity
  8
0
100
AcDbLine
 10
444.0830755039566
 20
-262.6639214590474
 30
0.0
 11
443.6149770488067
 21
-262.5511519466974
 31
0.0
  0
LINE
  5
22C4D
330
18
100
AcDbEntity
  8
0
100
AcDbLine
 10
443.6621609067479
 20
-265.8511520564842
 30
0.0
 11
443.1621609067479
 21
-265.7511508930871
 31
0.0
  0
LINE
  5
22C4E
330
18
100
AcDbEntity
  8
0
100
AcDbLine
 10
443.6621609067479
 20
-264.2511520564843
 30
0.0
 11
443.1621609067479
 21
-264.1511508930872
 31
0.0
  0
LINE
  5
22C4F
330
18
100
AcDbEntity
  8
0
100
AcDbLine
 10
444.524962397486
 20
-261.102588796742
 30
0.0
 11
444.067790556855
 21
-260.9511530003016
 31
0.0
  0
LINE
  5
22C50
330
18
100
AcDbEntity
  8
0
100
AcDbLine
 10
443.6149770488067
 20
-262.5511519466974
 30
0.0
 11
446.4829397501372
 21
-261.7511586198563
 31
0.0
  0
LINE
  5
22C51
330
18
100
AcDbEntity
  8
0
100
AcDbLine
 10
443.1621609067479
 20
-265.7511508930871
 30
0.0
 11
447.1621609067479
 21
-264.9511602002646
 31
0.0
  0
LINE
  5
22C52
330
18
100
AcDbEntity
  8
0
100
AcDbLine
 10
443.1621609067479
 20
-264.1511508930872
 30
0.0
 11
446.935753854544
 21
-263.3511596734619
 31
0.0
  0
LINE
  5
22C53
330
18
100
AcDbEntity
  8
0
100
AcDbLine
 10
443.1621609067479
 20
-267.3511508930872
 30
0.0
 11
447.1621609067479
 21
-266.5511602002646
 31
0.0
  0
LINE
  5
22C54
330
18
100
AcDbEntity
  8
0
100
AcDbLine
 10
443.1621609067479
 20
-280.1511508930915
 30
0.0
 11
447.1621609067479
 21
-279.3511602002733
 31
0.0
  0
LINE
  5
22C55
330
18
100
AcDbEntity
  8
0
100
AcDbLine
 10
447.1621609067479
 20
-279.3511602002733
 30
0.0
 11
446.6621609067479
 21
-279.2511590368756
 31
0.0
  0
LINE
  5
22C56
330
18
100
AcDbEntity
  8
0
100
AcDbLine
 10
443.6621609067479
 20
-278.6511520564849
 30
0.0
 11
443.1621609067479
 21
-278.5511508930872
 31
0.0
  0
LINE
  5
22C57
330
18
100
AcDbEntity
  8
0
100
AcDbLine
 10
447.1621609067479
 20
-280.9511602002734
 30
0.0
 11
446.6621609067479
 21
-280.8511590368757
 31
0.0
  0
LINE
  5
22C58
330
18
100
AcDbEntity
  8
0
100
AcDbLine
 10
447.1621609067479
 20
-282.5511602002733
 30
0.0
 11
446.6621609067479
 21
-282.4511590368757
 31
0.0
  0
LINE
  5
22C59
330
18
100
AcDbEntity
  8
0
100
AcDbLine
 10
443.6621609067479
 20
-280.2511520564892
 30
0.0
 11
443.1621609067479
 21
-280.1511508930915
 31
0.0
  0
LINE
  5
22C5A
330
18
100
AcDbEntity
  8
0
100
AcDbLine
 10
443.6621609067479
 20
-281.8511520564894
 30
0.0
 11
443.1621609067479
 21
-281.7511508930917
 31
0.0
  0
LINE
  5
22C5B
330
18
100
AcDbEntity
  8
0
100
AcDbLine
 10
443.1621609067479
 20
-281.7511508930917
 30
0.0
 11
447.1621609067479
 21
-280.9511602002734
 31
0.0
  0
LINE
  5
22C5C
330
18
100
AcDbEntity
  8
0
100
AcDbLine
 10
447.1621609067479
 20
-274.5511602002689
 30
0.0
 11
446.6621609067479
 21
-274.4511590368712
 31
0.0
  0
LINE
  5
22C5D
330
18
100
AcDbEntity
  8
0
100
AcDbLine
 10
447.1621609067479
 20
-272.9511602002646
 30
0.0
 11
446.6621609067479
 21
-272.8511590368674
 31
0.0
  0
LINE
  5
22C5E
330
18
100
AcDbEntity
  8
0
100
AcDbLine
 10
447.1621609067479
 20
-277.7511602002689
 30
0.0
 11
446.6621609067479
 21
-277.6511590368713
 31
0.0
  0
LINE
  5
22C5F
330
18
100
AcDbEntity
  8
0
100
AcDbLine
 10
447.1621609067479
 20
-276.151160200269
 30
0.0
 11
446.6621609067479
 21
-276.0511590368714
 31
0.0
  0
LINE
  5
22C60
330
18
100
AcDbEntity
  8
0
100
AcDbLine
 10
443.6621609067479
 20
-272.2511520564843
 30
0.0
 11
443.1621609067479
 21
-272.1511508930872
 31
0.0
  0
LINE
  5
22C61
330
18
100
AcDbEntity
  8
0
100
AcDbLine
 10
443.6621609067479
 20
-273.8511520564849
 30
0.0
 11
443.1621609067479
 21
-273.7511508930871
 31
0.0
  0
LINE
  5
22C62
330
18
100
AcDbEntity
  8
0
100
AcDbLine
 10
443.6621609067479
 20
-277.051152056485
 30
0.0
 11
443.1621609067479
 21
-276.9511508930873
 31
0.0
  0
LINE
  5
22C63
330
18
100
AcDbEntity
  8
0
100
AcDbLine
 10
443.6621609067479
 20
-275.4511520564848
 30
0.0
 11
443.1621609067479
 21
-275.3511508930872
 31
0.0
  0
LINE
  5
22C64
330
18
100
AcDbEntity
  8
0
100
AcDbLine
 10
443.1621609067479
 20
-275.3511508930872
 30
0.0
 11
447.1621609067479
 21
-274.5511602002689
 31
0.0
  0
LINE
  5
22C65
330
18
100
AcDbEntity
  8
0
100
AcDbLine
 10
443.1621609067479
 20
-273.7511508930871
 30
0.0
 11
447.1621609067479
 21
-272.9511602002646
 31
0.0
  0
LINE
  5
22C66
330
18
100
AcDbEntity
  8
0
100
AcDbLine
 10
443.1621609067479
 20
-276.9511508930873
 30
0.0
 11
447.1621609067479
 21
-276.151160200269
 31
0.0
  0
LINE
  5
22C67
330
18
100
AcDbEntity
  8
0
100
AcDbLine
 10
443.1621609067479
 20
-278.5511508930872
 30
0.0
 11
447.1621609067479
 21
-277.7511602002689
 31
0.0
  0
LINE
  5
22C68
330
18
100
AcDbEntity
  8
0
100
AcDbLine
 10
443.6621609067479
 20
-288.2511520564934
 30
0.0
 11
443.1621609067479
 21
-288.1511508930957
 31
0.0
  0
LINE
  5
22C69
330
18
100
AcDbEntity
  8
0
100
AcDbLine
 10
443.1621609067479
 20
-288.1511508930957
 30
0.0
 11
447.1621609067479
 21
-287.3511602002775
 31
0.0
  0
LINE
  5
22C6A
330
18
100
AcDbEntity
  8
0
100
AcDbLine
 10
447.1621609067479
 20
-287.3511602002775
 30
0.0
 11
446.6621609067479
 21
-287.2511590368798
 31
0.0
  0
LINE
  5
22C6B
330
18
100
AcDbEntity
  8
0
100
AcDbLine
 10
443.6621609067479
 20
-286.6511520564935
 30
0.0
 11
443.1621609067479
 21
-286.5511508930958
 31
0.0
  0
LINE
  5
22C6C
330
18
100
AcDbEntity
  8
0
100
AcDbLine
 10
443.6621609067479
 20
-285.0511520564936
 30
0.0
 11
443.1621609067479
 21
-284.9511508930959
 31
0.0
  0
LINE
  5
22C6D
330
18
100
AcDbEntity
  8
0
100
AcDbLine
 10
443.1621609067479
 20
-284.9511508930959
 30
0.0
 11
447.1621609067479
 21
-284.1511602002777
 31
0.0
  0
LINE
  5
22C6E
330
18
100
AcDbEntity
  8
0
100
AcDbLine
 10
447.1621609067479
 20
-285.7511602002776
 30
0.0
 11
446.6621609067479
 21
-285.6511590368799
 31
0.0
  0
LINE
  5
22C6F
330
18
100
AcDbEntity
  8
0
100
AcDbLine
 10
447.1621609067479
 20
-284.1511602002777
 30
0.0
 11
446.6621609067479
 21
-284.05115903688
 31
0.0
  0
LINE
  5
22C70
330
18
100
AcDbEntity
  8
0
100
AcDbLine
 10
443.1621609067479
 20
-286.5511508930958
 30
0.0
 11
447.1621609067479
 21
-285.7511602002776
 31
0.0
  0
LINE
  5
22C71
330
18
100
AcDbEntity
  8
0
100
AcDbLine
 10
443.6621609067479
 20
-283.4511520564893
 30
0.0
 11
443.1621609067479
 21
-283.3511508930916
 31
0.0
  0
LINE
  5
22C72
330
18
100
AcDbEntity
  8
0
100
AcDbLine
 10
443.6621609067479
 20
-289.8511520564933
 30
0.0
 11
443.1621609067479
 21
-289.7511508930957
 31
0.0
  0
LINE
  5
22C73
330
18
100
AcDbEntity
  8
0
100
AcDbLine
 10
443.1621609067479
 20
-289.7511508930957
 30
0.0
 11
447.1621609067479
 21
-288.9511602002774
 31
0.0
  0
LINE
  5
22C74
330
18
100
AcDbEntity
  8
0
100
AcDbLine
 10
447.1621609067479
 20
-288.9511602002774
 30
0.0
 11
446.6621609067479
 21
-288.8511590368797
 31
0.0
  0
LINE
  5
22C75
330
18
100
AcDbEntity
  8
0
100
AcDbLine
 10
443.6621609067479
 20
-291.4511520564932
 30
0.0
 11
443.1621609067479
 21
-291.3511508930956
 31
0.0
  0
LINE
  5
22C76
330
18
100
AcDbEntity
  8
0
100
AcDbLine
 10
443.1621609067479
 20
-291.3511508930956
 30
0.0
 11
447.1621609067479
 21
-290.5511602002774
 31
0.0
  0
LINE
  5
22C77
330
18
100
AcDbEntity
  8
0
100
AcDbLine
 10
447.1621609067479
 20
-290.5511602002774
 30
0.0
 11
446.6621609067479
 21
-290.4511590368797
 31
0.0
  0
LINE
  5
22C78
330
18
100
AcDbEntity
  8
0
100
AcDbLine
 10
443.6621609067479
 20
-293.0511520564932
 30
0.0
 11
443.1621609067479
 21
-292.9511508930955
 31
0.0
  0
LINE
  5
22C79
330
18
100
AcDbEntity
  8
0
100
AcDbLine
 10
443.1621609067479
 20
-292.9511508930955
 30
0.0
 11
447.1621609067479
 21
-292.1511602002773
 31
0.0
  0
LINE
  5
22C7A
330
18
100
AcDbEntity
  8
0
100
AcDbLine
 10
447.1621609067479
 20
-292.1511602002773
 30
0.0
 11
446.6621609067479
 21
-292.0511590368796
 31
0.0
  0
TEXT
  5
22C7B
330
18
100
AcDbEntity
  8
1DIM
  6
CONTINUOUS
100
AcDbText
 10
565.0442754828849
 20
-349.2889619224205
 30
0.0
 40
3.5
  1
材質：亜鉛ダイキャスト
100
AcDbText
  0
TEXT
  5
22C7C
330
18
100
AcDbEntity
  8
1DIM
  6
CONTINUOUS
100
AcDbText
 10
576.944275482885
 20
-355.1222952557538
 30
0.0
 40
3.5
  1
仕上げ：クローム
100
AcDbText
  0
LINE
  5
22C7E
330
18
100
AcDbEntity
  8
1DIM
100
AcDbLine
 10
626.234482986471
 20
-379.8476345410529
 30
0.0
 11
612.544275482885
 21
-355.8222952557538
 31
0.0
1001
ACAD
1000
DSTYLE
1002
{
1070
    45
1040
0.5
1002
}
  0
LINE
  5
22C7F
330
18
100
AcDbEntity
  8
1DIM
100
AcDbLine
 10
612.544275482885
 20
-355.8222952557538
 30
0.0
 11
565.2776088162184
 21
-355.8222952557538
 31
0.0
1001
ACAD
1000
DSTYLE
1002
{
1070
    45
1040
0.5
1002
}
  0
TEXT
  5
22C80
330
18
100
AcDbEntity
  8
1DIM
  6
CONTINUOUS
100
AcDbText
 10
584.9430541729799
 20
-322.0443696595806
 30
0.0
 40
3.5
  1
材質：亜鉛ダイキャスト
100
AcDbText
  0
TEXT
  5
22C81
330
18
100
AcDbEntity
  8
1DIM
  6
CONTINUOUS
100
AcDbText
 10
596.84305417298
 20
-327.8777029929139
 30
0.0
 40
3.5
  1
仕上げ：クローム
100
AcDbText
  0
LINE
  5
22C83
330
18
100
AcDbEntity
  8
1DIM
100
AcDbLine
 10
649.951002491351
 20
-374.3340230298061
 30
0.0
 11
632.44305417298
 21
-328.5777029929139
 31
0.0
1001
ACAD
1000
DSTYLE
1002
{
1070
    45
1040
0.5
1002
}
  0
LINE
  5
22C84
330
18
100
AcDbEntity
  8
1DIM
100
AcDbLine
 10
632.44305417298
 20
-328.5777029929139
 30
0.0
 11
585.1763875063134
 21
-328.5777029929139
 31
0.0
1001
ACAD
1000
DSTYLE
1002
{
1070
    45
1040
0.5
1002
}
  0
LINE
  5
22C85
330
18
100
AcDbEntity
  8
1DIM
100
AcDbLine
 10
479.1621143708507
 20
-289.8511555464614
 30
0.0
 11
479.1621143708507
 21
-273.8511555464614
 31
0.0
1001
ACAD
1000
DSTYLE
1002
{
1070
    45
1040
0.5
1002
}
  0
LINE
  5
22C86
330
18
100
AcDbEntity
  8
1DIM
100
AcDbLine
 10
437.1621143708505
 20
-289.8511555464614
 30
0.0
 11
437.1621143708505
 21
-273.8511555464614
 31
0.0
1001
ACAD
1000
DSTYLE
1002
{
1070
    45
1040
0.5
1002
}
  0
LINE
  5
22C87
330
18
100
AcDbEntity
  8
1DIM
100
AcDbLine
 10
477.1621143708507
 20
-274.8511555464614
 30
0.0
 11
439.1621143708505
 21
-274.8511555464614
 31
0.0
1001
ACAD
1000
DSTYLE
1002
{
1070
    45
1040
0.5
1002
}
  0
LINE
  5
22C8B
330
18
100
AcDbEntity
  8
1DIM
100
AcDbLine
 10
446.1621143710443
 20
-387.9019511774131
 30
0.0
 11
446.1621143710443
 21
-426.8659656659024
 31
0.0
1001
ACAD
1000
DSTYLE
1002
{
1070
    45
1040
0.5
1002
}
  0
LINE
  5
22C8C
330
18
100
AcDbEntity
  8
1DIM
100
AcDbLine
 10
470.1621143706573
 20
-387.9019511774131
 30
0.0
 11
470.1621143706573
 21
-426.8659656659024
 31
0.0
1001
ACAD
1000
DSTYLE
1002
{
1070
    45
1040
0.5
1002
}
  0
LINE
  5
22C8D
330
18
100
AcDbEntity
  8
1DIM
100
AcDbLine
 10
448.1621143710443
 20
-425.8659656659024
 30
0.0
 11
468.1621143706573
 21
-425.8659656659024
 31
0.0
1001
ACAD
1000
DSTYLE
1002
{
1070
    45
1040
0.5
1002
}
  0
LINE
  5
22C91
330
18
100
AcDbEntity
  8
1DIM
100
AcDbLine
 10
358.1621140501056
 20
-378.2019511777527
 30
0.0
 11
358.1621140501056
 21
-354.8757830954914
 31
0.0
1001
ACAD
1000
DSTYLE
1002
{
1070
    45
1040
0.5
1002
}
  0
LINE
  5
22C92
330
18
100
AcDbEntity
  8
1DIM
100
AcDbLine
 10
558.1621142357642
 20
-378.2019511740115
 30
0.0
 11
558.1621142357642
 21
-354.8757830954914
 31
0.0
1001
ACAD
1000
DSTYLE
1002
{
1070
    45
1040
0.5
1002
}
  0
LINE
  5
22C93
330
18
100
AcDbEntity
  8
1DIM
100
AcDbLine
 10
360.1621140501056
 20
-355.8757830954914
 30
0.0
 11
556.1621142357642
 21
-355.8757830954914
 31
0.0
1001
ACAD
1000
DSTYLE
1002
{
1070
    45
1040
0.5
1002
}
  0
LINE
  5
22C97
330
18
100
AcDbEntity
  8
1DIM
100
AcDbLine
 10
556.1621142357642
 20
-376.2019511778623
 30
0.0
 11
579.1621143708508
 21
-376.2019511778623
 31
0.0
1001
ACAD
1000
DSTYLE
1002
{
1070
    45
1040
0.5
1002
}
  0
LINE
  5
22C98
330
18
100
AcDbEntity
  8
1DIM
100
AcDbLine
 10
556.1621143702175
 20
-450.0337478301418
 30
0.0
 11
579.1621143708508
 21
-450.0337478301418
 31
0.0
1001
ACAD
1000
DSTYLE
1002
{
1070
    45
1040
0.5
1002
}
  0
LINE
  5
22C99
330
18
100
AcDbEntity
  8
1DIM
100
AcDbLine
 10
578.1621143708508
 20
-378.2019511778623
 30
0.0
 11
578.1621143708508
 21
-448.0337478301418
 31
0.0
1001
ACAD
1000
DSTYLE
1002
{
1070
    45
1040
0.5
1002
}
  0
LINE
  5
22C9D
330
18
100
AcDbEntity
  8
1DIM
100
AcDbLine
 10
624.7098185039695
 20
-413.2019511774132
 30
0.0
 11
624.7098185039695
 21
-331.7019511774131
 31
0.0
1001
ACAD
1000
DSTYLE
1002
{
1070
    45
1040
0.5
1002
}
  0
LINE
  5
22C9E
330
18
100
AcDbEntity
  8
1DIM
100
AcDbLine
 10
671.1621143708508
 20
-345.4737775921313
 30
0.0
 11
671.1621143708508
 21
-331.7019511774131
 31
0.0
1001
ACAD
1000
DSTYLE
1002
{
1070
    45
1040
0.5
1002
}
  0
LINE
  5
22C9F
330
18
100
AcDbEntity
  8
1DIM
100
AcDbLine
 10
626.7098185039695
 20
-332.7019511774131
 30
0.0
 11
669.1621143708508
 21
-332.7019511774131
 31
0.0
1001
ACAD
1000
DSTYLE
1002
{
1070
    45
1040
0.5
1002
}
  0
LINE
  5
22CA3
330
18
100
AcDbEntity
  8
1DIM
100
AcDbLine
 10
671.1621143708508
 20
-419.9301247626951
 30
0.0
 11
671.1621143708508
 21
-429.3019511774145
 31
0.0
1001
ACAD
1000
DSTYLE
1002
{
1070
    45
1040
0.5
1002
}
  0
LINE
  5
22CA4
330
18
100
AcDbEntity
  8
1DIM
100
AcDbLine
 10
643.1621143708508
 20
-392.9970076885355
 30
0.0
 11
643.1621143708508
 21
-429.3019511774145
 31
0.0
1001
ACAD
1000
DSTYLE
1002
{
1070
    45
1040
0.5
1002
}
  0
LINE
  5
22CA5
330
18
100
AcDbEntity
  8
1DIM
100
AcDbLine
 10
669.1621143708508
 20
-428.3019511774145
 30
0.0
 11
645.1621143708508
 21
-428.3019511774145
 31
0.0
1001
ACAD
1000
DSTYLE
1002
{
1070
    45
1040
0.5
1002
}
  0
LINE
  5
22CA9
330
18
100
AcDbEntity
  8
1DIM
100
AcDbLine
 10
671.1621143708508
 20
-411.2019511774132
 30
0.0
 11
723.6621143708508
 21
-411.2019511774132
 31
0.0
1001
ACAD
1000
DSTYLE
1002
{
1070
    45
1040
0.5
1002
}
  0
LINE
  5
22CAA
330
18
100
AcDbEntity
  8
1DIM
100
AcDbLine
 10
671.1621143708508
 20
-376.2019511774132
 30
0.0
 11
723.6621143708508
 21
-376.2019511774132
 31
0.0
1001
ACAD
1000
DSTYLE
1002
{
1070
    45
1040
0.5
1002
}
  0
LINE
  5
22CAB
330
18
100
AcDbEntity
  8
1DIM
100
AcDbLine
 10
722.6621143708508
 20
-409.2019511774132
 30
0.0
 11
722.6621143708508
 21
-378.2019511774132
 31
0.0
1001
ACAD
1000
DSTYLE
1002
{
1070
    45
1040
0.5
1002
}
  0
LINE
  5
22CAF
330
18
100
AcDbEntity
  8
1DIM
100
AcDbLine
 10
703.5929092881552
 20
-382.7019528475432
 30
0.0
 11
710.0934372886389
 21
-382.7019528475432
 31
0.0
1001
ACAD
1000
DSTYLE
1002
{
1070
    45
1040
0.5
1002
}
  0
LINE
  5
22CB0
330
18
100
AcDbEntity
  8
1DIM
100
AcDbLine
 10
671.1621143708508
 20
-376.2019511774132
 30
0.0
 11
710.0934372886389
 21
-376.2019511774132
 31
0.0
1001
ACAD
1000
DSTYLE
1002
{
1070
    45
1040
0.5
1002
}
  0
LINE
  5
22CB1
330
18
100
AcDbEntity
  8
1DIM
100
AcDbLine
 10
709.0934372886389
 20
-376.2019511774132
 30
0.0
 11
709.0934372886389
 21
-365.6352845107464
 31
0.0
1001
ACAD
1000
DSTYLE
1002
{
1070
    45
1040
0.5
1002
}
  0
LINE
  5
22CB2
330
18
100
AcDbEntity
  8
1DIM
100
AcDbLine
 10
709.0934372886389
 20
-380.7019528475432
 30
0.0
 11
709.0934372886389
 21
-378.2019511774132
 31
0.0
1001
ACAD
1000
DSTYLE
1002
{
1070
    45
1040
0.5
1002
}
  0
LINE
  5
22CB6
330
18
100
AcDbEntity
  8
0
  6
BYBLOCK
100
AcDbLine
 10
626.7000946315804
 20
-379.5823179949704
 30
0.0
 11
627.2246578255233
 21
-381.5853208729632
 31
0.0
  0
LINE
  5
22CB7
330
18
100
AcDbEntity
  8
0
  6
BYBLOCK
100
AcDbLine
 10
627.2246578255233
 20
-381.5853208729632
 30
0.0
 11
625.7688713413617
 21
-380.1129510871353
 31
0.0
  0
LINE
  5
22CB8
330
18
100
AcDbEntity
  8
0
  6
BYBLOCK
100
AcDbLine
 10
627.2246578255233
 20
-381.5853208729632
 30
0.0
 11
626.234482986471
 21
-379.8476345410529
 31
0.0
  0
LINE
  5
22CB9
330
18
100
AcDbEntity
  8
0
  6
BYBLOCK
100
AcDbLine
 10
650.4515123254805
 20
-374.1425106813106
 30
0.0
 11
650.6657363126978
 21
-376.2019511774132
 31
0.0
  0
LINE
  5
22CBA
330
18
100
AcDbEntity
  8
0
  6
BYBLOCK
100
AcDbLine
 10
650.6657363126978
 20
-376.2019511774132
 30
0.0
 11
649.4504926572215
 21
-374.5255353783016
 31
0.0
  0
LINE
  5
22CBB
330
18
100
AcDbEntity
  8
0
  6
BYBLOCK
100
AcDbLine
 10
650.6657363126978
 20
-376.2019511774132
 30
0.0
 11
649.951002491351
 21
-374.3340230298061
 31
0.0
  0
LINE
  5
22CBC
330
18
100
AcDbEntity
  8
0
  6
BYBLOCK
100
AcDbLine
 10
477.1621143708507
 20
-274.3152571664614
 30
0.0
 11
479.1621143708507
 21
-274.8511555464614
 31
0.0
  0
LINE
  5
22CBD
330
18
100
AcDbEntity
  8
0
  6
BYBLOCK
100
AcDbLine
 10
479.1621143708507
 20
-274.8511555464614
 30
0.0
 11
477.1621143708507
 21
-275.3870539264614
 31
0.0
  0
LINE
  5
22CBE
330
18
100
AcDbEntity
  8
0
  6
BYBLOCK
100
AcDbLine
 10
479.1621143708507
 20
-274.8511555464614
 30
0.0
 11
477.1621143708507
 21
-274.8511555464614
 31
0.0
  0
LINE
  5
22CBF
330
18
100
AcDbEntity
  8
0
  6
BYBLOCK
100
AcDbLine
 10
439.1621143708505
 20
-275.3870539264614
 30
0.0
 11
437.1621143708505
 21
-274.8511555464614
 31
0.0
  0
LINE
  5
22CC0
330
18
100
AcDbEntity
  8
0
  6
BYBLOCK
100
AcDbLine
 10
437.1621143708505
 20
-274.8511555464614
 30
0.0
 11
439.1621143708505
 21
-274.3152571664614
 31
0.0
  0
LINE
  5
22CC1
330
18
100
AcDbEntity
  8
0
  6
BYBLOCK
100
AcDbLine
 10
437.1621143708505
 20
-274.8511555464614
 30
0.0
 11
439.1621143708505
 21
-274.8511555464614
 31
0.0
  0
TEXT
  5
22CC2
330
18
100
AcDbEntity
  8
1DIM
  6
CONTINUOUS
100
AcDbText
 10
455.2454477041839
 20
-274.1511555464614
 30
0.0
 40
3.5
  1
42
100
AcDbText
1001
ACAD
1000
DSTYLE
1002
{
1070
    45
1040
0.5
1002
}
  0
LINE
  5
22CC3
330
18
100
AcDbEntity
  8
0
  6
BYBLOCK
100
AcDbLine
 10
448.1621143710443
 20
-426.4018640459024
 30
0.0
 11
446.1621143710443
 21
-425.8659656659024
 31
0.0
  0
LINE
  5
22CC4
330
18
100
AcDbEntity
  8
0
  6
BYBLOCK
100
AcDbLine
 10
446.1621143710443
 20
-425.8659656659024
 30
0.0
 11
448.1621143710443
 21
-425.3300672859024
 31
0.0
  0
LINE
  5
22CC5
330
18
100
AcDbEntity
  8
0
  6
BYBLOCK
100
AcDbLine
 10
446.1621143710443
 20
-425.8659656659024
 30
0.0
 11
448.1621143710443
 21
-425.8659656659024
 31
0.0
  0
LINE
  5
22CC6
330
18
100
AcDbEntity
  8
0
  6
BYBLOCK
100
AcDbLine
 10
468.1621143706573
 20
-425.3300672859024
 30
0.0
 11
470.1621143706573
 21
-425.8659656659024
 31
0.0
  0
LINE
  5
22CC7
330
18
100
AcDbEntity
  8
0
  6
BYBLOCK
100
AcDbLine
 10
470.1621143706573
 20
-425.8659656659024
 30
0.0
 11
468.1621143706573
 21
-426.4018640459024
 31
0.0
  0
LINE
  5
22CC8
330
18
100
AcDbEntity
  8
0
  6
BYBLOCK
100
AcDbLine
 10
470.1621143706573
 20
-425.8659656659024
 30
0.0
 11
468.1621143706573
 21
-425.8659656659024
 31
0.0
  0
TEXT
  5
22CC9
330
18
100
AcDbEntity
  8
1DIM
  6
CONTINUOUS
100
AcDbText
 10
453.4954477041841
 20
-425.1659656659024
 30
0.0
 40
3.5
  1
P24
100
AcDbText
1001
ACAD
1000
DSTYLE
1002
{
1070
    45
1040
0.5
1002
}
  0
LINE
  5
22CCA
330
18
100
AcDbEntity
  8
0
  6
BYBLOCK
100
AcDbLine
 10
360.1621140501056
 20
-356.4116814754914
 30
0.0
 11
358.1621140501056
 21
-355.8757830954914
 31
0.0
  0
LINE
  5
22CCB
330
18
100
AcDbEntity
  8
0
  6
BYBLOCK
100
AcDbLine
 10
358.1621140501056
 20
-355.8757830954914
 30
0.0
 11
360.1621140501056
 21
-355.3398847154915
 31
0.0
  0
LINE
  5
22CCC
330
18
100
AcDbEntity
  8
0
  6
BYBLOCK
100
AcDbLine
 10
358.1621140501056
 20
-355.8757830954914
 30
0.0
 11
360.1621140501056
 21
-355.8757830954914
 31
0.0
  0
LINE
  5
22CCD
330
18
100
AcDbEntity
  8
0
  6
BYBLOCK
100
AcDbLine
 10
556.1621142357642
 20
-355.3398847154915
 30
0.0
 11
558.1621142357642
 21
-355.8757830954914
 31
0.0
  0
LINE
  5
22CCE
330
18
100
AcDbEntity
  8
0
  6
BYBLOCK
100
AcDbLine
 10
558.1621142357642
 20
-355.8757830954914
 30
0.0
 11
556.1621142357642
 21
-356.4116814754914
 31
0.0
  0
LINE
  5
22CCF
330
18
100
AcDbEntity
  8
0
  6
BYBLOCK
100
AcDbLine
 10
558.1621142357642
 20
-355.8757830954914
 30
0.0
 11
556.1621142357642
 21
-355.8757830954914
 31
0.0
  0
TEXT
  5
22CD0
330
18
100
AcDbEntity
  8
1DIM
  6
CONTINUOUS
100
AcDbText
 10
454.0058641429349
 20
-355.1757830954915
 30
0.0
 40
3.5
  1
200
100
AcDbText
1001
ACAD
1000
DSTYLE
1002
{
1070
    45
1040
0.5
1002
}
  0
LINE
  5
22CD1
330
18
100
AcDbEntity
  8
0
  6
BYBLOCK
100
AcDbLine
 10
577.6262159908507
 20
-378.2019511778623
 30
0.0
 11
578.1621143708508
 21
-376.2019511778623
 31
0.0
  0
LINE
  5
22CD2
330
18
100
AcDbEntity
  8
0
  6
BYBLOCK
100
AcDbLine
 10
578.1621143708508
 20
-376.2019511778623
 30
0.0
 11
578.6980127508508
 21
-378.2019511778623
 31
0.0
  0
LINE
  5
22CD3
330
18
100
AcDbEntity
  8
0
  6
BYBLOCK
100
AcDbLine
 10
578.1621143708508
 20
-376.2019511778623
 30
0.0
 11
578.1621143708508
 21
-378.2019511778623
 31
0.0
  0
LINE
  5
22CD4
330
18
100
AcDbEntity
  8
0
  6
BYBLOCK
100
AcDbLine
 10
578.6980127508508
 20
-448.0337478301418
 30
0.0
 11
578.1621143708508
 21
-450.0337478301418
 31
0.0
  0
LINE
  5
22CD5
330
18
100
AcDbEntity
  8
0
  6
BYBLOCK
100
AcDbLine
 10
578.1621143708508
 20
-450.0337478301418
 30
0.0
 11
577.6262159908507
 21
-448.0337478301418
 31
0.0
  0
LINE
  5
22CD6
330
18
100
AcDbEntity
  8
0
  6
BYBLOCK
100
AcDbLine
 10
578.1621143708508
 20
-450.0337478301418
 30
0.0
 11
578.1621143708508
 21
-448.0337478301418
 31
0.0
  0
TEXT
  5
22CD7
330
18
100
AcDbEntity
  8
1DIM
  6
CONTINUOUS
100
AcDbText
 10
577.4621143708507
 20
-416.0345161706687
 30
0.0
 40
3.5
  1
74
 50
90.0
100
AcDbText
1001
ACAD
1000
DSTYLE
1002
{
1070
    45
1040
0.5
1002
}
  0
LINE
  5
22CD8
330
18
100
AcDbEntity
  8
0
  6
BYBLOCK
100
AcDbLine
 10
626.7098185039695
 20
-333.2378495574131
 30
0.0
 11
624.7098185039695
 21
-332.7019511774131
 31
0.0
  0
LINE
  5
22CD9
330
18
100
AcDbEntity
  8
0
  6
BYBLOCK
100
AcDbLine
 10
624.7098185039695
 20
-332.7019511774131
 30
0.0
 11
626.7098185039695
 21
-332.1660527974131
 31
0.0
  0
LINE
  5
22CDA
330
18
100
AcDbEntity
  8
0
  6
BYBLOCK
100
AcDbLine
 10
624.7098185039695
 20
-332.7019511774131
 30
0.0
 11
626.7098185039695
 21
-332.7019511774131
 31
0.0
  0
LINE
  5
22CDB
330
18
100
AcDbEntity
  8
0
  6
BYBLOCK
100
AcDbLine
 10
669.1621143708508
 20
-332.1660527974131
 30
0.0
 11
671.1621143708508
 21
-332.7019511774131
 31
0.0
  0
LINE
  5
22CDC
330
18
100
AcDbEntity
  8
0
  6
BYBLOCK
100
AcDbLine
 10
671.1621143708508
 20
-332.7019511774131
 30
0.0
 11
669.1621143708508
 21
-333.2378495574131
 31
0.0
  0
LINE
  5
22CDD
330
18
100
AcDbEntity
  8
0
  6
BYBLOCK
100
AcDbLine
 10
671.1621143708508
 20
-332.7019511774131
 30
0.0
 11
669.1621143708508
 21
-332.7019511774131
 31
0.0
  0
TEXT
  5
22CDE
330
18
100
AcDbEntity
  8
1DIM
  6
CONTINUOUS
100
AcDbText
 10
642.6738136596323
 20
-332.001951177413
 30
0.0
 40
3.5
  1
46.5
100
AcDbText
1001
ACAD
1000
DSTYLE
1002
{
1070
    45
1040
0.5
1002
}
  0
LINE
  5
22CDF
330
18
100
AcDbEntity
  8
0
  6
BYBLOCK
100
AcDbLine
 10
669.1621143708508
 20
-427.7660527974145
 30
0.0
 11
671.1621143708508
 21
-428.3019511774145
 31
0.0
  0
LINE
  5
22CE0
330
18
100
AcDbEntity
  8
0
  6
BYBLOCK
100
AcDbLine
 10
671.1621143708508
 20
-428.3019511774145
 30
0.0
 11
669.1621143708508
 21
-428.8378495574145
 31
0.0
  0
LINE
  5
22CE1
330
18
100
AcDbEntity
  8
0
  6
BYBLOCK
100
AcDbLine
 10
671.1621143708508
 20
-428.3019511774145
 30
0.0
 11
669.1621143708508
 21
-428.3019511774145
 31
0.0
  0
LINE
  5
22CE2
330
18
100
AcDbEntity
  8
0
  6
BYBLOCK
100
AcDbLine
 10
645.1621143708508
 20
-428.8378495574145
 30
0.0
 11
643.1621143708508
 21
-428.3019511774145
 31
0.0
  0
LINE
  5
22CE3
330
18
100
AcDbEntity
  8
0
  6
BYBLOCK
100
AcDbLine
 10
643.1621143708508
 20
-428.3019511774145
 30
0.0
 11
645.1621143708508
 21
-427.7660527974145
 31
0.0
  0
LINE
  5
22CE4
330
18
100
AcDbEntity
  8
0
  6
BYBLOCK
100
AcDbLine
 10
643.1621143708508
 20
-428.3019511774145
 30
0.0
 11
645.1621143708508
 21
-428.3019511774145
 31
0.0
  0
TEXT
  5
22CE5
330
18
100
AcDbEntity
  8
1DIM
  6
CONTINUOUS
100
AcDbText
 10
654.2454477041841
 20
-427.6019511774145
 30
0.0
 40
3.5
  1
28
100
AcDbText
1001
ACAD
1000
DSTYLE
1002
{
1070
    45
1040
0.5
1002
}
  0
LINE
  5
22CE6
330
18
100
AcDbEntity
  8
0
  6
BYBLOCK
100
AcDbLine
 10
723.1980127508508
 20
-409.2019511774132
 30
0.0
 11
722.6621143708508
 21
-411.2019511774132
 31
0.0
  0
LINE
  5
22CE7
330
18
100
AcDbEntity
  8
0
  6
BYBLOCK
100
AcDbLine
 10
722.6621143708508
 20
-411.2019511774132
 30
0.0
 11
722.1262159908507
 21
-409.2019511774132
 31
0.0
  0
LINE
  5
22CE8
330
18
100
AcDbEntity
  8
0
  6
BYBLOCK
100
AcDbLine
 10
722.6621143708508
 20
-411.2019511774132
 30
0.0
 11
722.6621143708508
 21
-409.2019511774132
 31
0.0
  0
LINE
  5
22CE9
330
18
100
AcDbEntity
  8
0
  6
BYBLOCK
100
AcDbLine
 10
722.1262159908507
 20
-378.2019511774132
 30
0.0
 11
722.6621143708508
 21
-376.2019511774132
 31
0.0
  0
LINE
  5
22CEA
330
18
100
AcDbEntity
  8
0
  6
BYBLOCK
100
AcDbLine
 10
722.6621143708508
 20
-376.2019511774132
 30
0.0
 11
723.1980127508508
 21
-378.2019511774132
 31
0.0
  0
LINE
  5
22CEB
330
18
100
AcDbEntity
  8
0
  6
BYBLOCK
100
AcDbLine
 10
722.6621143708508
 20
-376.2019511774132
 30
0.0
 11
722.6621143708508
 21
-378.2019511774132
 31
0.0
  0
TEXT
  5
22CEC
330
18
100
AcDbEntity
  8
1DIM
  6
CONTINUOUS
100
AcDbText
 10
721.9621143708507
 20
-396.6186178440797
 30
0.0
 40
3.5
  1
35
 50
90.0
100
AcDbText
1001
ACAD
1000
DSTYLE
1002
{
1070
    45
1040
0.5
1002
}
  0
LINE
  5
22CED
330
18
100
AcDbEntity
  8
0
  6
BYBLOCK
100
AcDbLine
 10
709.629335668639
 20
-380.7019528475432
 30
0.0
 11
709.0934372886389
 21
-382.7019528475432
 31
0.0
  0
LINE
  5
22CEE
330
18
100
AcDbEntity
  8
0
  6
BYBLOCK
100
AcDbLine
 10
709.0934372886389
 20
-382.7019528475432
 30
0.0
 11
708.5575389086389
 21
-380.7019528475432
 31
0.0
  0
LINE
  5
22CEF
330
18
100
AcDbEntity
  8
0
  6
BYBLOCK
100
AcDbLine
 10
709.0934372886389
 20
-382.7019528475432
 30
0.0
 11
709.0934372886389
 21
-380.7019528475432
 31
0.0
  0
LINE
  5
22CF0
330
18
100
AcDbEntity
  8
0
  6
BYBLOCK
100
AcDbLine
 10
708.5575389086389
 20
-378.2019511774132
 30
0.0
 11
709.0934372886389
 21
-376.2019511774132
 31
0.0
  0
LINE
  5
22CF1
330
18
100
AcDbEntity
  8
0
  6
BYBLOCK
100
AcDbLine
 10
709.0934372886389
 20
-376.2019511774132
 30
0.0
 11
709.629335668639
 21
-378.2019511774132
 31
0.0
  0
LINE
  5
22CF2
330
18
100
AcDbEntity
  8
0
  6
BYBLOCK
100
AcDbLine
 10
709.0934372886389
 20
-376.2019511774132
 30
0.0
 11
709.0934372886389
 21
-378.2019511774132
 31
0.0
  0
TEXT
  5
22CF3
330
18
100
AcDbEntity
  8
1DIM
  6
CONTINUOUS
100
AcDbText
 10
708.3934372886388
 20
-373.4307706218577
 30
0.0
 40
3.5
  1
6.5
 50
90.0
100
AcDbText
1001
ACAD
1000
DSTYLE
1002
{
1070
    45
1040
0.5
1002
}
  0
VIEWPORT
  5
57
330
15
100
AcDbEntity
 67
     1
  8
0
100
AcDbViewport
 68
     1
 10
0.0
 20
0.0
 30
0.0
 40
565.988904299584
 41
297.0
 68
     1
 69
     1
1001
ACAD
1000
MVIEW
1002
{
1070
    16
1010
0.0
1020
0.0
1030
0.0
1010
0.0
1020
0.0
1030
1.0
1040
0.0
1040
297.0
1040
-4.171999999925333
1040
12.83903210976956
1040
50.0
1040
0.0
1040
0.0
1070
    16
1070
  1000
1070
     0
1070
     1
1070
     0
1070
     0
1070
     0
1070
     0
1040
0.0
1040
0.0
1040
0.0
1040
10.0
1040
10.0
1040
10.0
1040
10.0
1070
     0
1002
{
1002
}
1002
}
  0
ENDSEC
  0
SECTION
  2
OBJECTS
  0
DICTIONARY
  5
C
330
0
100
AcDbDictionary
  3
ACAD_CIP_PREVIOUS_PRODUCT_INFO
350
20B28
  3
ACAD_COLOR
350
2D0
  3
ACAD_GROUP
350
D
  3
ACAD_LAYOUT
350
2D1
  3
ACAD_MATERIAL
350
2CF
  3
ACAD_MLEADERSTYLE
350
19E18
  3
ACAD_MLINESTYLE
350
1B
  3
ACAD_PLOTSETTINGS
350
2D2
  3
ACAD_SCALELIST
350
19DF6
  3
ACAD_VISUALSTYLE
350
19DE5
  3
ACDBHEADERROUNDTRIPXREC
350
22CF4
  3
ACDBVARIABLEDICTIONARY
350
37
  3
AEC_PROPERTY_SET_DEFS
350
20CE4
  3
CONTENTDICTIONARY
350
D8
  3
DRAWINGVARIABLESDICT
350
20
  3
DWGPROPS
350
22CF7
1001
ACAD
1000
TREAT_AS_HARD
1070
     0
  0
DICTIONARY
  5
18FE8
330
2
100
AcDbDictionary
  3
ACAD_LAYERSTATES
360
18FE9
1001
ACAD
1000
TREAT_AS_HARD
1070
     1
  0
DICTIONARY
  5
1A20A
330
E
100
AcDbDictionary
  3
ADSK_XREC_LAYER_RECONCILED
360
1A20B
1001
ACAD
1000
TREAT_AS_HARD
1070
     1
  0
DICTIONARY
  5
1A20C
330
29
100
AcDbDictionary
  3
ADSK_XREC_LAYER_RECONCILED
360
1A20D
1001
ACAD
1000
TREAT_AS_HARD
1070
     1
  0
DICTIONARY
  5
1A20E
330
31
100
AcDbDictionary
  3
ADSK_XREC_LAYER_RECONCILED
360
1A20F
1001
ACAD
1000
TREAT_AS_HARD
1070
     1
  0
DICTIONARY
  5
1A218
330
101
100
AcDbDictionary
  3
ADSK_XREC_LAYER_RECONCILED
360
1A219
1001
ACAD
1000
TREAT_AS_HARD
1070
     1
  0
DICTIONARY
  5
1A21C
330
103
100
AcDbDictionary
  3
ADSK_XREC_LAYER_RECONCILED
360
1A21D
1001
ACAD
1000
TREAT_AS_HARD
1070
     1
  0
DICTIONARY
  5
6E9
330
18
100
AcDbDictionary
  3
ACAD_SORTENTS
360
6EA
1001
ACAD
1000
TREAT_AS_HARD
1070
     1
  0
DICTIONARY
  5
59B
330
15
100
AcDbDictionary
  3
ACAD_SORTENTS
360
59C
1001
ACAD
1000
TREAT_AS_HARD
1070
     1
  0
XRECORD
  5
20B28
102
{ACAD_REACTORS
330
C
102
}
330
C
100
AcDbXrecord
300
ACDLT
300
2012
300
ACDLT_F_S
  0
DICTIONARY
  5
2D0
102
{ACAD_REACTORS
330
C
102
}
330
C
100
AcDbDictionary
1001
ACAD
1000
TREAT_AS_HARD
1070
     0
  0
DICTIONARY
  5
D
102
{ACAD_REACTORS
330
C
102
}
330
C
100
AcDbDictionary
1001
ACAD
1000
TREAT_AS_HARD
1070
     0
  0
DICTIONARY
  5
2D1
102
{ACAD_REACTORS
330
C
102
}
330
C
100
AcDbDictionary
1001
ACAD
1000
TREAT_AS_HARD
1070
     0
  0
DICTIONARY
  5
2CF
102
{ACAD_REACTORS
330
C
102
}
330
C
100
AcDbDictionary
  3
BYBLOCK
350
19DD5
  3
BYLAYER
350
19DCD
  3
GLOBAL
350
19DDD
1001
ACAD
1000
TREAT_AS_HARD
1070
     0
  0
DICTIONARY
  5
19E18
102
{ACAD_REACTORS
330
C
102
}
330
C
100
AcDbDictionary
  3
STANDARD
350
19E19
1001
ACAD
1000
TREAT_AS_HARD
1070
     0
  0
DICTIONARY
  5
1B
102
{ACAD_REACTORS
330
C
102
}
330
C
100
AcDbDictionary
  3
STANDARD
350
1C
1001
ACAD
1000
TREAT_AS_HARD
1070
     0
  0
DICTIONARY
  5
2D2
102
{ACAD_REACTORS
330
C
102
}
330
C
100
AcDbDictionary
1001
ACAD
1000
TREAT_AS_HARD
1070
     0
  0
DICTIONARY
  5
19DF6
102
{ACAD_REACTORS
330
C
102
}
330
C
100
AcDbDictionary
  3
A0
350
19DF7
  3
A1
350
19DF8
  3
A2
350
19DF9
  3
A3
350
19DFA
  3
A4
350
19DFB
  3
A5
350
19DFC
  3
A6
350
19DFD
  3
A7
350
19DFE
  3
A8
350
19DFF
  3
A9
350
19E00
  3
B0
350
19E01
  3
B1
350
19E02
  3
B2
350
19E03
  3
B3
350
19E04
  3
B4
350
19E05
  3
B5
350
19E06
  3
B6
350
19E07
  3
B7
350
19E08
  3
B8
350
19E09
  3
B9
350
19E0A
  3
C0
350
19E0B
  3
C1
350
19E0C
  3
C2
350
19E0D
  3
C3
350
19E0E
  3
C4
350
19E0F
  3
C5
350
19E10
  3
C6
350
19E11
  3
C7
350
19E12
  3
C8
350
19E13
  3
C9
350
19E14
  3
D0
350
19E15
  3
D1
350
19E16
  3
D2
350
19E17
1001
ACAD
1000
TREAT_AS_HARD
1070
     0
  0
DICTIONARY
  5
19DE5
102
{ACAD_REACTORS
330
C
102
}
330
C
100
AcDbDictionary
  3
2DWIREFRAME
350
19DEB
  3
3D_HIDDEN
350
19DED
  3
3DWIREFRAME
350
19DEC
  3
BASIC
350
19DEA
  3
BRIGHTEN
350
19DF1
  3
COLORCHANGE
350
19DF5
  3
CONCEPTUAL
350
19DEE
  3
DIM
350
19DF0
  3
EDGECOLOROFF
350
1E02A
  3
FACEPATTERN
350
19DF4
  3
FLAT
350
19DE6
  3
FLATWITHEDGES
350
19DE7
  3
GOURAUD
350
19DE8
  3
GOURAUDWITHEDGES
350
19DE9
  3
HIDDEN
350
1F381
  3
JITTEROFF
350
1E028
  3
LINEPATTERN
350
19DF3
  3
MODELING
350
219D4
  3
OVERHANGOFF
350
1E029
  3
REALISTIC
350
19DEF
  3
SHADED
350
1F386
  3
SHADED_WITH_EDGES
350
1F385
  3
SHADES_OF_GRAY
350
1F382
  3
SKETCHY
350
1F383
  3
THICKEN
350
19DF2
  3
WIREFRAME
350
1F380
  3
X-RAY
350
1F384
1001
ACAD
1000
TREAT_AS_HARD
1070
     0
  0
DICTIONARY
  5
22CF4
102
{ACAD_REACTORS
330
C
102
}
330
C
100
AcDbDictionary
  3
COLORDICT
350
22CF5
  3
MATERIALDICT
350
22CF6
1001
ACAD
1000
TREAT_AS_HARD
1070
     0
  0
DICTIONARY
  5
37
102
{ACAD_REACTORS
330
C
102
}
330
C
100
AcDbDictionary
  3
CANNOSCALE
350
219EB
  3
CMLEADERSTYLE
350
1AC19
  3
CTABLESTYLE
350
4F1
  3
DIMADEC
350
38
  3
DIMASSOC
350
408
  3
HIDETEXT
350
1891
  3
INDEXCTL
350
1AC1C
  3
INTERSECTIONCOLOR
350
1895
  3
INTERSECTIONDISPLAY
350
1894
  3
LAYEREVAL
350
211C3
  3
LAYERNOTIFY
350
211C4
  3
MSLTSCALE
350
20A9B
  3
OBSCOLOR
350
1892
  3
OBSLTYPE
350
1893
  3
PROJECTNAME
350
409
  3
SORTENTS
350
1AC1B
  3
XCLIPFRAME
350
219D3
1001
ACAD
1000
TREAT_AS_HARD
1070
     0
  0
DICTIONARY
  5
20CE4
102
{ACAD_REACTORS
330
C
102
}
330
C
100
AcDbDictionary
1001
ACAD
1000
TREAT_AS_HARD
1070
     0
  0
DICTIONARY
  5
D8
102
{ACAD_REACTORS
330
C
102
}
330
C
100
AcDbDictionary
1001
CONTENTTABDATA
1070
    11
1000
Child
1000
D:\ACLT\TABset\CHILDREN.dwg
1070
     0
1070
     0
1070
     1
1000
PK
1000
D:\ACLT\TABset\PK.dwg
1070
     0
1070
     0
1070
     1
1000
Lev1
1000
D:\ACLT\TABset\Lever01.dwg
1070
     0
1070
     0
1070
     1
1000
Lev2
1000
D:\ACLT\TABset\Lever02.dwg
1070
     0
1070
     0
1070
     1
1000
L3
1000
D:\Aclt\TABset\Lever03.dwg
1070
     0
1070
     0
1070
     1
1000
Form
1000
D:\ACLT\FORMAT
1070
     1
1070
     0
1070
     1
1000
Jnt
1000
D:\ACLT\TABset\JOINTPARTS.dwg
1070
     0
1070
     0
1070
     1
1000
ISO
1000
D:\ACLT\TABset\Isome01.dwg
1070
     0
1070
     0
1070
     1
1000
R
1000
D:\ACLT\TABset\REGION.dwg
1070
     0
1070
     0
1070
     1
1000
std
1000
D:\ACLT\TABset\std_sym_all.dwg
1070
     0
1070
     0
1070
     1
1000
丸
1000
D:\Aclt\TABset\MARU.dwg
1070
     0
1070
     0
1070
     1
1001
CONTENTCURRENTTAB
1070
     0
1001
ACAD
1000
TREAT_AS_HARD
1070
     0
  0
DICTIONARY
  5
20
102
{ACAD_REACTORS
330
C
102
}
330
C
100
AcDbDictionary
1001
DRAWINGVARIABLESXDATA
1000
POLARANG
1000
0.261799387799149410000000
1000
POLARMODE
1000
1
1000
POLARSTYLE
1000
1
1001
ACAD
1000
TREAT_AS_HARD
1070
     0
  0
XRECORD
  5
22CF7
102
{ACAD_REACTORS
330
C
102
}
330
C
100
AcDbXrecord
  1
DWGPROPS COOKIE
  2

  3

  4

  6

  7

  8
619
  9

300
=
301
=
302
=
303
=
304
=
305
=
306
=
307
=
308
=
309
=
 40
0.0
 41
2453033.357663484
 42
2458277.170255798
  1

 90
        0
  0
DICTIONARY
  5
18FE9
102
{ACAD_REACTORS
330
18FE8
102
}
330
18FE8
100
AcDbDictionary
1001
ACAD
1000
TREAT_AS_HARD
1070
     0
  0
ACAD_PROXY_OBJECT
  5
1A20B
102
{ACAD_REACTORS
330
1A20A
102
}
330
1A20A
100
AcDbZombieObject
 90
      499
 91
      517
 93
       34
310
40C8804040
  0
ACAD_PROXY_OBJECT
  5
1A20D
102
{ACAD_REACTORS
330
1A20C
102
}
330
1A20C
100
AcDbZombieObject
 90
      499
 91
      517
 93
       34
310
40C8804040
  0
ACAD_PROXY_OBJECT
  5
1A20F
102
{ACAD_REACTORS
330
1A20E
102
}
330
1A20E
100
AcDbZombieObject
 90
      499
 91
      517
 93
       34
310
40C8804040
  0
ACAD_PROXY_OBJECT
  5
1A219
102
{ACAD_REACTORS
330
1A218
102
}
330
1A218
100
AcDbZombieObject
 90
      499
 91
      517
 93
       34
310
40C8804040
  0
ACAD_PROXY_OBJECT
  5
1A21D
102
{ACAD_REACTORS
330
1A21C
102
}
330
1A21C
100
AcDbZombieObject
 90
      499
 91
      517
 93
       34
310
40C8804040
  0
SORTENTSTABLE
  5
6EA
102
{ACAD_REACTORS
330
6E9
102
}
330
6E9
100
AcDbSortentsTable
330
18
331
226BB
  5
2270A
331
226BC
  5
2270B
331
226BD
  5
2270C
331
226BE
  5
2270D
331
226BF
  5
2270E
331
226C1
  5
22BAB
331
226C2
  5
22BAC
331
226C3
  5
22BAD
331
226C4
  5
22BAE
331
226C5
  5
22BAF
331
226CA
  5
22BFA
331
226CB
  5
22BFB
331
226CC
  5
22BFC
331
226CD
  5
22BFD
331
226CE
  5
22BFE
331
226CF
  5
22BFF
331
226D0
  5
22C00
331
226D1
  5
22C01
331
226D2
  5
22C02
331
226D3
  5
22C03
331
226D4
  5
22C04
331
226D5
  5
22C05
331
226D6
  5
22C06
331
226D7
  5
22C07
331
226D8
  5
22C08
331
226D9
  5
22C09
331
226DA
  5
22C0A
331
226DB
  5
22C0B
331
226DC
  5
22C0C
331
226DD
  5
22C0D
331
226DE
  5
22C0E
331
226DF
  5
22C0F
331
226E0
  5
22C10
331
226E1
  5
22C11
331
226E2
  5
22C12
331
226E3
  5
22C13
331
226E4
  5
22C14
331
226E5
  5
22C15
331
226E6
  5
22C16
331
226E7
  5
22C17
331
226E8
  5
22C18
331
226E9
  5
22C19
331
226EA
  5
22C1A
331
226EB
  5
22C1B
331
226EC
  5
22C1C
331
226ED
  5
22C1D
331
226EE
  5
22C1E
331
226EF
  5
22C1F
331
226F0
  5
22C20
331
226F1
  5
22C21
331
226F2
  5
22C22
331
226F3
  5
22C23
331
226F4
  5
22C24
331
226F5
  5
22C25
331
226F6
  5
22C26
331
226F7
  5
22C27
331
226F8
  5
22C28
331
226F9
  5
22C29
331
226FA
  5
22C2A
331
226FB
  5
22C2B
331
226FC
  5
22C2C
331
226FD
  5
22C2D
331
226FE
  5
22C2E
331
226FF
  5
22C2F
331
22700
  5
22C30
331
22701
  5
22C31
331
22702
  5
22C32
331
22703
  5
22C33
331
22704
  5
22C34
331
22705
  5
22C35
331
22706
  5
22C36
331
22707
  5
22C37
331
22708
  5
22C38
331
22709
  5
22C39
331
2270A
  5
22C3A
331
2270B
  5
22C3B
331
2270C
  5
22C3C
331
2270D
  5
22C3D
331
2270E
  5
22C3E
331
2270F
  5
22C3F
331
22710
  5
22C40
331
22711
  5
22C41
331
22712
  5
22C42
331
22713
  5
22C43
331
22714
  5
22C44
331
22715
  5
22C45
331
22716
  5
22C46
331
22717
  5
22C47
331
22718
  5
22C48
331
22719
  5
22C49
331
2271A
  5
22C4A
331
2271B
  5
22C4B
331
2271C
  5
22C4C
331
2271D
  5
22C4D
331
2271E
  5
22C4E
331
22720
  5
22C60
331
22721
  5
22C61
331
22722
  5
22C62
331
22723
  5
22C63
331
22724
  5
22C64
331
22725
  5
22C65
331
22776
  5
22C66
331
22777
  5
22C67
331
22778
  5
22C68
331
22779
  5
22C69
331
2277A
  5
22C6A
331
2277B
  5
22C6B
331
2277C
  5
22C6C
331
2277D
  5
22C6D
331
0
  5
229F1
331
0
  5
22AB1
331
0
  5
22AB2
331
0
  5
22AB3
331
229C7
  5
22C7E
331
229C8
  5
22C7F
331
229C9
  5
22C80
331
229CA
  5
22C81
331
229CB
  5
22C82
331
229CC
  5
22C83
331
229CD
  5
22C84
331
229CE
  5
22C85
331
229CF
  5
22C89
331
229D0
  5
22C8A
331
229D1
  5
22C8B
331
0
  5
22B93
331
0
  5
22B94
331
0
  5
22B95
331
0
  5
22B96
331
0
  5
22B97
331
22AB2
  5
22CD3
331
22AB3
  5
22CD4
331
0
  5
22B9A
331
0
  5
22B9B
331
0
  5
22B9C
331
0
  5
22720
331
22B8C
  5
22C59
331
22B8D
  5
22C5A
331
22B8E
  5
22C5B
331
22B8F
  5
22C5C
331
22B90
  5
22C5D
331
22B91
  5
22C5E
331
22B92
  5
22C5F
331
22B93
  5
22C4F
331
22B94
  5
22C50
331
22B95
  5
22C51
331
22B96
  5
22C52
331
22B97
  5
22C53
331
22B98
  5
22C54
331
22B99
  5
22C55
331
22B9A
  5
22C56
331
22B9B
  5
22C57
331
22B9C
  5
22C58
331
22B9D
  5
226BB
331
22B9E
  5
226BC
331
22B9F
  5
226BD
331
22BA0
  5
226BE
331
22BA1
  5
226BF
331
22BA2
  5
226C1
331
22BA3
  5
226C2
331
22BA4
  5
226C3
331
22BA5
  5
226C4
331
22BA6
  5
226C5
331
22BA7
  5
226CA
331
22BA8
  5
226CB
331
22BA9
  5
226CC
331
22BAA
  5
226CD
331
22BAB
  5
226CE
331
22BAC
  5
226CF
331
22BAD
  5
226D0
331
22BAE
  5
226D1
331
22BAF
  5
226D2
331
22BB0
  5
226D3
331
22BB1
  5
226D4
331
22BB2
  5
226D5
331
22BB3
  5
226D6
331
22BB4
  5
226D7
331
22BB5
  5
226D8
331
22BB6
  5
226D9
331
22BB7
  5
226DA
331
22BB8
  5
226DB
331
22BB9
  5
226DC
331
22BBA
  5
226DD
331
22BBB
  5
226DE
331
22BBC
  5
226DF
331
22BBD
  5
226E0
331
22BBE
  5
226E1
331
22BBF
  5
226E2
331
22BC0
  5
226E3
331
22BC1
  5
226E4
331
22BC2
  5
226E5
331
22BC3
  5
226E6
331
22BC4
  5
226E7
331
22BC5
  5
226E8
331
22BC6
  5
226E9
331
22BC7
  5
226EA
331
22BC8
  5
226EB
331
22BC9
  5
226EC
331
22BCA
  5
226ED
331
22BCB
  5
226EE
331
22BCC
  5
226EF
331
22BCD
  5
226F0
331
22BCE
  5
226F1
331
22BCF
  5
226F2
331
22BD0
  5
226F3
331
22BD1
  5
226F4
331
22BD2
  5
226F5
331
22BD3
  5
226F6
331
22BD4
  5
226F7
331
22BD5
  5
226F8
331
22BD6
  5
226F9
331
22BD7
  5
226FA
331
22BD8
  5
226FB
331
22BD9
  5
226FC
331
22BDA
  5
226FD
331
22BDB
  5
226FE
331
22BDC
  5
226FF
331
22BDD
  5
22700
331
22BDE
  5
22701
331
22BDF
  5
22702
331
22BE0
  5
22703
331
22BE1
  5
22704
331
22BE2
  5
22705
331
22BE3
  5
22706
331
22BE4
  5
22707
331
22BE5
  5
22708
331
22BE6
  5
22709
331
22BE7
  5
2270F
331
22BE8
  5
22710
331
22BE9
  5
22711
331
22BEA
  5
22712
331
22BEB
  5
22713
331
22BEC
  5
22714
331
22BED
  5
22715
331
22BEE
  5
22716
331
22BEF
  5
22717
331
22BF0
  5
22718
331
22BF1
  5
22719
331
22BF2
  5
2271A
331
22BF3
  5
2271B
331
22BF4
  5
2271C
331
22BF5
  5
2271D
331
22BF6
  5
2271E
331
22BF7
  5
22721
331
22BF8
  5
22722
331
22BF9
  5
22723
331
22BFA
  5
22724
331
22BFB
  5
22725
331
22BFC
  5
22776
331
22BFD
  5
22777
331
22BFE
  5
22778
331
22BFF
  5
22779
331
22C00
  5
2277A
331
22C01
  5
2277B
331
22C02
  5
2277C
331
22C03
  5
2277D
331
22C04
  5
229C0
331
22C05
  5
229C1
331
22C06
  5
229C2
331
22C07
  5
229C3
331
22C08
  5
229C7
331
22C09
  5
229C8
331
22C0A
  5
229C9
331
22C0B
  5
229CA
331
22C0C
  5
229CB
331
22C0D
  5
229CC
331
22C0E
  5
229CD
331
22C0F
  5
229CE
331
22C10
  5
229CF
331
22C11
  5
229D0
331
22C12
  5
229D1
331
22C13
  5
229D8
331
22C14
  5
229EF
331
22C15
  5
229F0
331
22C16
  5
22AB4
331
22C17
  5
22AB6
331
22C18
  5
22AE7
331
22C19
  5
22B8B
331
22C1A
  5
22B8C
331
22C1B
  5
22B8D
331
22C1C
  5
22B8E
331
22C1D
  5
22B8F
331
22C1E
  5
22B90
331
22C1F
  5
22B91
331
22C20
  5
22B92
331
22C21
  5
22B98
331
22C22
  5
22B99
331
22C23
  5
22B9D
331
22C24
  5
22B9E
331
22C25
  5
22B9F
331
22C26
  5
22BA0
331
22C27
  5
22BA1
331
22C28
  5
22BA2
331
22C29
  5
22BA3
331
22C2A
  5
22BA4
331
22C2B
  5
22BA5
331
22C2C
  5
22BA6
331
22C2D
  5
22BA7
331
22C2E
  5
22BA8
331
22C2F
  5
22BA9
331
22C30
  5
22BAA
331
22C31
  5
22BB0
331
22C32
  5
22BB1
331
22C33
  5
22BB2
331
22C34
  5
22BB3
331
22C35
  5
22BB4
331
22C36
  5
22BB5
331
22C37
  5
22BB6
331
22C38
  5
22BB7
331
22C39
  5
22BB8
331
22C3A
  5
22BB9
331
22C3B
  5
22BBA
331
22C3C
  5
22BBB
331
22C3D
  5
22BBC
331
22C3E
  5
22BBD
331
22C3F
  5
22BBE
331
22C40
  5
22BBF
331
22C41
  5
22BC0
331
22C42
  5
22BC1
331
22C43
  5
22BC2
331
22C44
  5
22BC3
331
22C45
  5
22BC4
331
22C46
  5
22BC5
331
22C47
  5
22BC6
331
22C48
  5
22BC7
331
22C49
  5
22BC8
331
22C4A
  5
22BC9
331
22C4B
  5
22BCA
331
22C4C
  5
22BCB
331
22C4D
  5
22BCC
331
22C4E
  5
22BCD
331
22C4F
  5
22BCE
331
22C50
  5
22BCF
331
22C51
  5
22BD0
331
22C52
  5
22BD1
331
22C53
  5
22BD2
331
22C54
  5
22BD3
331
22C55
  5
22BD4
331
22C56
  5
22BD5
331
22C57
  5
22BD6
331
22C58
  5
22BD7
331
22C59
  5
22BD8
331
22C5A
  5
22BD9
331
22C5B
  5
22BDA
331
22C5C
  5
22BDB
331
22C5D
  5
22BDC
331
22C5E
  5
22BDD
331
22C5F
  5
22BDE
331
22C60
  5
22BDF
331
22C61
  5
22BE0
331
22C62
  5
22BE1
331
22C63
  5
22BE2
331
22C64
  5
22BE3
331
22C65
  5
22BE4
331
22C66
  5
22BE5
331
22C67
  5
22BE6
331
22C68
  5
22BE7
331
22C69
  5
22BE8
331
22C6A
  5
22BE9
331
22C6B
  5
22BEA
331
22C6C
  5
22BEB
331
22C6D
  5
22BEC
331
22C6E
  5
22BED
331
22C6F
  5
22BEE
331
22C70
  5
22BEF
331
22C71
  5
22BF0
331
22C72
  5
22BF1
331
22C73
  5
22BF2
331
22C74
  5
22BF3
331
22C75
  5
22BF4
331
22C76
  5
22BF5
331
22C77
  5
22BF6
331
22C78
  5
22BF7
331
22C79
  5
22BF8
331
22C7A
  5
22BF9
331
22C7B
  5
22C6E
331
22C7C
  5
22C6F
331
0
  5
22C70
331
22C7E
  5
22C74
331
22C7F
  5
22C76
331
22C80
  5
22C77
331
22C81
  5
22C78
331
0
  5
22C75
331
22C83
  5
22C7C
331
22C84
  5
22C7D
331
22C85
  5
22C8F
331
22C86
  5
22C90
331
22C87
  5
22C91
331
0
  5
22C86
331
0
  5
22C87
331
0
  5
22C88
331
22C8B
  5
22CA2
331
22C8C
  5
22CA3
331
22C8D
  5
22CA4
331
0
  5
22C8C
331
0
  5
22C8D
331
0
  5
22C8E
331
22C91
  5
22CB2
331
22C92
  5
22CB6
331
22C93
  5
22CB7
331
0
  5
22C92
331
0
  5
22C93
331
0
  5
22C94
331
22C97
  5
22CBF
331
22C98
  5
22CC0
331
22C99
  5
22CC1
331
0
  5
22C98
331
0
  5
22C99
331
0
  5
22C9A
331
22C9D
  5
22CC9
331
22C9E
  5
22CCA
331
22C9F
  5
22CCB
331
0
  5
22C9E
331
0
  5
22C9F
331
0
  5
22CA0
331
22CA3
  5
22CD5
331
22CA4
  5
22CD6
331
22CA5
  5
22CD7
331
22CA9
  5
22CDF
331
22CAA
  5
22CE0
331
22CAB
  5
22CE1
331
22CAF
  5
22CE9
331
22CB0
  5
22CEA
331
22CB1
  5
22CEB
331
22CB2
  5
22CEC
331
22CB6
  5
22C71
331
22CB7
  5
22C72
331
22CB8
  5
22C73
331
22CB9
  5
22C79
331
22CBA
  5
22C7A
331
22CBB
  5
22C7B
331
22CBC
  5
22C95
331
22CBD
  5
22C96
331
22CBE
  5
22C97
331
22CBF
  5
22C9B
331
22CC0
  5
22C9C
331
22CC1
  5
22C9D
331
22CC2
  5
22CA1
331
22CC3
  5
22CA5
331
22CC4
  5
22CA9
331
22CC5
  5
22CAA
331
22CC6
  5
22CAB
331
22CC7
  5
22CAF
331
22CC8
  5
22CB0
331
22CC9
  5
22CB1
331
22CCA
  5
22CB8
331
22CCB
  5
22CB9
331
22CCC
  5
22CBA
331
22CCD
  5
22CBB
331
22CCE
  5
22CBC
331
22CCF
  5
22CBD
331
22CD0
  5
22CBE
331
22CD1
  5
22CC2
331
22CD2
  5
22CC3
331
22CD3
  5
22CC4
331
22CD4
  5
22CC5
331
22CD5
  5
22CC6
331
22CD6
  5
22CC7
331
22CD7
  5
22CC8
331
22CD8
  5
22CCC
331
22CD9
  5
22CCD
331
22CDA
  5
22CCE
331
22CDB
  5
22CCF
331
22CDC
  5
22CD0
331
22CDD
  5
22CD1
331
22CDE
  5
22CD2
331
22CDF
  5
22CD8
331
22CE0
  5
22CD9
331
22CE1
  5
22CDA
331
22CE2
  5
22CDB
331
22CE3
  5
22CDC
331
22CE4
  5
22CDD
331
22CE5
  5
22CDE
331
22CE6
  5
22CE2
331
22CE7
  5
22CE3
331
22CE8
  5
22CE4
331
22CE9
  5
22CE5
331
22CEA
  5
22CE6
331
22CEB
  5
22CE7
331
22CEC
  5
22CE8
  0
SORTENTSTABLE
  5
59C
102
{ACAD_REACTORS
330
59B
102
}
330
59B
100
AcDbSortentsTable
330
15
331
0
  5
222BC
331
0
  5
222BD
331
0
  5
222BE
331
0
  5
222BF
331
0
  5
222C0
331
0
  5
20A25
331
0
  5
20A26
331
0
  5
20A27
331
0
  5
20A28
331
0
  5
20A29
331
0
  5
222BB
  0
MATERIAL
  5
19DD5
102
{ACAD_REACTORS
330
2CF
102
}
102
{ACAD_XDICTIONARY
360
22E92
102
}
330
2CF
100
AcDbMaterial
  1
BYBLOCK
 72
     0
 73
     2
 43
0.0208333333333333
 43
0.0
 43
0.0
 43
0.0
 43
0.0
 43
0.0208333333333333
 43
0.0
 43
0.0
 43
0.0
 43
0.0
 43
1.0
 43
0.0
 43
0.0
 43
0.0
 43
0.0
 43
1.0
 77
     0
 78
     2
 47
0.0208333333333333
 47
0.0
 47
0.0
 47
0.0
 47
0.0
 47
0.0208333333333333
 47
0.0
 47
0.0
 47
0.0
 47
0.0
 47
1.0
 47
0.0
 47
0.0
 47
0.0
 47
0.0
 47
1.0
171
     0
172
     2
 49
0.0208333333333333
 49
0.0
 49
0.0
 49
0.0
 49
0.0
 49
0.0208333333333333
 49
0.0
 49
0.0
 49
0.0
 49
0.0
 49
1.0
 49
0.0
 49
0.0
 49
0.0
 49
0.0
 49
1.0
175
     0
176
     2
142
0.0208333333333333
142
0.0
142
0.0
142
0.0
142
0.0
142
0.0208333333333333
142
0.0
142
0.0
142
0.0
142
0.0
142
1.0
142
0.0
142
0.0
142
0.0
142
0.0
142
1.0
179
     0
270
     2
144
0.0208333333333333
144
0.0
144
0.0
144
0.0
144
0.0
144
0.0208333333333333
144
0.0
144
0.0
144
0.0
144
0.0
144
1.0
144
0.0
144
0.0
144
0.0
144
0.0
144
1.0
274
     2
147
0.0208333333333333
147
0.0
147
0.0
147
0.0
147
0.0
147
0.0208333333333333
147
0.0
147
0.0
147
0.0
147
0.0
147
1.0
147
0.0
147
0.0
147
0.0
147
0.0
147
1.0
  0
MATERIAL
  5
19DCD
102
{ACAD_REACTORS
330
2CF
102
}
102
{ACAD_XDICTIONARY
360
22E94
102
}
330
2CF
100
AcDbMaterial
  1
BYLAYER
 72
     0
 73
     2
 43
0.0208333333333333
 43
0.0
 43
0.0
 43
0.0
 43
0.0
 43
0.0208333333333333
 43
0.0
 43
0.0
 43
0.0
 43
0.0
 43
1.0
 43
0.0
 43
0.0
 43
0.0
 43
0.0
 43
1.0
 77
     0
 78
     2
 47
0.0208333333333333
 47
0.0
 47
0.0
 47
0.0
 47
0.0
 47
0.0208333333333333
 47
0.0
 47
0.0
 47
0.0
 47
0.0
 47
1.0
 47
0.0
 47
0.0
 47
0.0
 47
0.0
 47
1.0
171
     0
172
     2
 49
0.0208333333333333
 49
0.0
 49
0.0
 49
0.0
 49
0.0
 49
0.0208333333333333
 49
0.0
 49
0.0
 49
0.0
 49
0.0
 49
1.0
 49
0.0
 49
0.0
 49
0.0
 49
0.0
 49
1.0
175
     0
176
     2
142
0.0208333333333333
142
0.0
142
0.0
142
0.0
142
0.0
142
0.0208333333333333
142
0.0
142
0.0
142
0.0
142
0.0
142
1.0
142
0.0
142
0.0
142
0.0
142
0.0
142
1.0
179
     0
270
     2
144
0.0208333333333333
144
0.0
144
0.0
144
0.0
144
0.0
144
0.0208333333333333
144
0.0
144
0.0
144
0.0
144
0.0
144
1.0
144
0.0
144
0.0
144
0.0
144
0.0
144
1.0
274
     2
147
0.0208333333333333
147
0.0
147
0.0
147
0.0
147
0.0
147
0.0208333333333333
147
0.0
147
0.0
147
0.0
147
0.0
147
1.0
147
0.0
147
0.0
147
0.0
147
0.0
147
1.0
  0
MATERIAL
  5
19DDD
102
{ACAD_REACTORS
330
2CF
102
}
102
{ACAD_XDICTIONARY
360
22E96
102
}
330
2CF
100
AcDbMaterial
  1
GLOBAL
 72
     0
 73
     2
 43
0.0208333333333333
 43
0.0
 43
0.0
 43
0.0
 43
0.0
 43
0.0208333333333333
 43
0.0
 43
0.0
 43
0.0
 43
0.0
 43
1.0
 43
0.0
 43
0.0
 43
0.0
 43
0.0
 43
1.0
 77
     0
 78
     2
 47
0.0208333333333333
 47
0.0
 47
0.0
 47
0.0
 47
0.0
 47
0.0208333333333333
 47
0.0
 47
0.0
 47
0.0
 47
0.0
 47
1.0
 47
0.0
 47
0.0
 47
0.0
 47
0.0
 47
1.0
171
     0
172
     2
 49
0.0208333333333333
 49
0.0
 49
0.0
 49
0.0
 49
0.0
 49
0.0208333333333333
 49
0.0
 49
0.0
 49
0.0
 49
0.0
 49
1.0
 49
0.0
 49
0.0
 49
0.0
 49
0.0
 49
1.0
175
     0
176
     2
142
0.0208333333333333
142
0.0
142
0.0
142
0.0
142
0.0
142
0.0208333333333333
142
0.0
142
0.0
142
0.0
142
0.0
142
1.0
142
0.0
142
0.0
142
0.0
142
0.0
142
1.0
179
     0
270
     2
144
0.0208333333333333
144
0.0
144
0.0
144
0.0
144
0.0
144
0.0208333333333333
144
0.0
144
0.0
144
0.0
144
0.0
144
1.0
144
0.0
144
0.0
144
0.0
144
0.0
144
1.0
274
     2
147
0.0208333333333333
147
0.0
147
0.0
147
0.0
147
0.0
147
0.0208333333333333
147
0.0
147
0.0
147
0.0
147
0.0
147
1.0
147
0.0
147
0.0
147
0.0
147
0.0
147
1.0
  0
ACAD_PROXY_OBJECT
  5
19E19
102
{ACAD_REACTORS
330
19E18
102
}
330
19E18
100
AcDbZombieObject
 90
      499
 91
      512
 93
      610
310
40901902A4063FBFFFFFE000000000000002040AD7A3703D0AD73F4214DD185B99185C990000000000000104090141901A00000000000004100000000000000041025764000000000000300FC0
340
12
340
0
340
F
340
0
 94
        0
1001
ACAD_MLEADERVER
1070
     2
  0
MLINESTYLE
  5
1C
102
{ACAD_REACTORS
330
1B
102
}
330
1B
100
AcDbMlineStyle
  2
STANDARD
 70
     0
  3

 62
   256
 51
90.0
 52
90.0
 71
     2
 49
0.5
 62
   256
  6
BYLAYER
 49
-0.5
 62
   256
  6
BYLAYER
  0
ACAD_PROXY_OBJECT
  5
19DF7
102
{ACAD_REACTORS
330
19DF6
102
}
330
19DF6
100
AcDbZombieObject
 90
      499
 91
      511
 93
       41
310
903313A31580
  0
ACAD_PROXY_OBJECT
  5
19DF8
102
{ACAD_REACTORS
330
19DF6
102
}
330
19DF6
100
AcDbZombieObject
 90
      499
 91
      511
 93
      105
310
903313A324000000000000004000
  0
ACAD_PROXY_OBJECT
  5
19DF9
102
{ACAD_REACTORS
330
19DF6
102
}
330
19DF6
100
AcDbZombieObject
 90
      499
 91
      511
 93
      105
310
903313A344000000000000104000
  0
ACAD_PROXY_OBJECT
  5
19DFA
102
{ACAD_REACTORS
330
19DF6
102
}
330
19DF6
100
AcDbZombieObject
 90
      499
 91
      511
 93
      105
310
903313A354000000000000144000
  0
ACAD_PROXY_OBJECT
  5
19DFB
102
{ACAD_REACTORS
330
19DF6
102
}
330
19DF6
100
AcDbZombieObject
 90
      499
 91
      511
 93
      105
310
903313A384000000000000204000
  0
ACAD_PROXY_OBJECT
  5
19DFC
102
{ACAD_REACTORS
330
19DF6
102
}
330
19DF6
100
AcDbZombieObject
 90
      499
 91
      511
 93
      113
310
904313A31304000000000000244000
  0
ACAD_PROXY_OBJECT
  5
19DFD
102
{ACAD_REACTORS
330
19DF6
102
}
330
19DF6
100
AcDbZombieObject
 90
      499
 91
      511
 93
      113
310
904313A31364000000000000304000
  0
ACAD_PROXY_OBJECT
  5
19DFE
102
{ACAD_REACTORS
330
19DF6
102
}
330
19DF6
100
AcDbZombieObject
 90
      499
 91
      511
 93
      113
310
904313A32304000000000000344000
  0
ACAD_PROXY_OBJECT
  5
19DFF
102
{ACAD_REACTORS
330
19DF6
102
}
330
19DF6
100
AcDbZombieObject
 90
      499
 91
      511
 93
      113
310
904313A333040000000000003E4000
  0
ACAD_PROXY_OBJECT
  5
19E00
102
{ACAD_REACTORS
330
19DF6
102
}
330
19DF6
100
AcDbZombieObject
 90
      499
 91
      511
 93
      113
310
904313A34304000000000000444000
  0
ACAD_PROXY_OBJECT
  5
19E01
102
{ACAD_REACTORS
330
19DF6
102
}
330
19DF6
100
AcDbZombieObject
 90
      499
 91
      511
 93
      113
310
904313A35304000000000000494000
  0
ACAD_PROXY_OBJECT
  5
19E02
102
{ACAD_REACTORS
330
19DF6
102
}
330
19DF6
100
AcDbZombieObject
 90
      499
 91
      511
 93
      121
310
905313A3130304000000000000594000
  0
ACAD_PROXY_OBJECT
  5
19E03
102
{ACAD_REACTORS
330
19DF6
102
}
330
19DF6
100
AcDbZombieObject
 90
      499
 91
      511
 93
      105
310
903323A310000000000000010100
  0
ACAD_PROXY_OBJECT
  5
19E04
102
{ACAD_REACTORS
330
19DF6
102
}
330
19DF6
100
AcDbZombieObject
 90
      499
 91
      511
 93
      105
310
903343A310000000000000410100
  0
ACAD_PROXY_OBJECT
  5
19E05
102
{ACAD_REACTORS
330
19DF6
102
}
330
19DF6
100
AcDbZombieObject
 90
      499
 91
      511
 93
      105
310
903383A310000000000000810100
  0
ACAD_PROXY_OBJECT
  5
19E06
102
{ACAD_REACTORS
330
19DF6
102
}
330
19DF6
100
AcDbZombieObject
 90
      499
 91
      511
 93
      113
310
90431303A310000000000000910100
  0
ACAD_PROXY_OBJECT
  5
19E07
102
{ACAD_REACTORS
330
19DF6
102
}
330
19DF6
100
AcDbZombieObject
 90
      499
 91
      511
 93
      121
310
9053130303A310000000000001650100
  0
ACAD_PROXY_OBJECT
  5
19E08
102
{ACAD_REACTORS
330
19DF6
102
}
330
19DF6
100
AcDbZombieObject
 90
      499
 91
      511
 93
      257
310
90E312F31323822203D2031272D3022000000000000200FC000000000000284000
  0
ACAD_PROXY_OBJECT
  5
19E09
102
{ACAD_REACTORS
330
19DF6
102
}
330
19DF6
100
AcDbZombieObject
 90
      499
 91
      511
 93
      249
310
90D312F363422203D2031272D3022000000000000240FC000000000000284000
  0
ACAD_PROXY_OBJECT
  5
19E0A
102
{ACAD_REACTORS
330
19DF6
102
}
330
19DF6
100
AcDbZombieObject
 90
      499
 91
      511
 93
      249
310
90D312F333222203D2031272D3022000000000000280FC000000000000284000
  0
ACAD_PROXY_OBJECT
  5
19E0B
102
{ACAD_REACTORS
330
19DF6
102
}
330
19DF6
100
AcDbZombieObject
 90
      499
 91
      511
 93
      249
310
90D312F313622203D2031272D30220000000000002C0FC000000000000284000
  0
ACAD_PROXY_OBJECT
  5
19E0C
102
{ACAD_REACTORS
330
19DF6
102
}
330
19DF6
100
AcDbZombieObject
 90
      499
 91
      511
 93
      249
310
90D332F333222203D2031272D30220000000000002E0FC000000000000284000
  0
ACAD_PROXY_OBJECT
  5
19E0D
102
{ACAD_REACTORS
330
19DF6
102
}
330
19DF6
100
AcDbZombieObject
 90
      499
 91
      511
 93
      241
310
90C312F3822203D2031272D3022000000000000300FC000000000000284000
  0
ACAD_PROXY_OBJECT
  5
19E0E
102
{ACAD_REACTORS
330
19DF6
102
}
330
19DF6
100
AcDbZombieObject
 90
      499
 91
      511
 93
      249
310
90D332F313622203D2031272D3022000000000000320FC000000000000284000
  0
ACAD_PROXY_OBJECT
  5
19E0F
102
{ACAD_REACTORS
330
19DF6
102
}
330
19DF6
100
AcDbZombieObject
 90
      499
 91
      511
 93
      241
310
90C312F3422203D2031272D3022000000000000340FC000000000000284000
  0
ACAD_PROXY_OBJECT
  5
19E10
102
{ACAD_REACTORS
330
19DF6
102
}
330
19DF6
100
AcDbZombieObject
 90
      499
 91
      511
 93
      241
310
90C332F3822203D2031272D3022000000000000360FC000000000000284000
  0
ACAD_PROXY_OBJECT
  5
19E11
102
{ACAD_REACTORS
330
19DF6
102
}
330
19DF6
100
AcDbZombieObject
 90
      499
 91
      511
 93
      241
310
90C312F3222203D2031272D3022000000000000380FC000000000000284000
  0
ACAD_PROXY_OBJECT
  5
19E12
102
{ACAD_REACTORS
330
19DF6
102
}
330
19DF6
100
AcDbZombieObject
 90
      499
 91
      511
 93
      241
310
90C332F3422203D2031272D30220000000000003A0FC000000000000284000
  0
ACAD_PROXY_OBJECT
  5
19E13
102
{ACAD_REACTORS
330
19DF6
102
}
330
19DF6
100
AcDbZombieObject
 90
      499
 91
      511
 93
      161
310
90A3122203D2031272D30224000000000000284000
  0
ACAD_PROXY_OBJECT
  5
19E14
102
{ACAD_REACTORS
330
19DF6
102
}
330
19DF6
100
AcDbZombieObject
 90
      499
 91
      511
 93
      257
310
90E312D312F3222203D2031272D30220000000000003E0FC000000000000284000
  0
ACAD_PROXY_OBJECT
  5
19E15
102
{ACAD_REACTORS
330
19DF6
102
}
330
19DF6
100
AcDbZombieObject
 90
      499
 91
      511
 93
      225
310
90A3322203D2031272D302200000000000002100000000000000284000
  0
ACAD_PROXY_OBJECT
  5
19E16
102
{ACAD_REACTORS
330
19DF6
102
}
330
19DF6
100
AcDbZombieObject
 90
      499
 91
      511
 93
      225
310
90A3622203D2031272D302200000000000006100000000000000284000
  0
ACAD_PROXY_OBJECT
  5
19E17
102
{ACAD_REACTORS
330
19DF6
102
}
330
19DF6
100
AcDbZombieObject
 90
      499
 91
      511
 93
      249
310
90D31272D3022203D2031272D30220000000000000A100000000000000284000
  0
ACAD_PROXY_OBJECT
  5
19DEB
102
{ACAD_REACTORS
330
19DE5
102
}
330
19DE5
100
AcDbZombieObject
 90
      499
 91
      510
 93
      436
310
42CC9915DA5C99599C985B595049028333333333333E3BF0000000000000FB0107901411070040501600405405064090741402480A0340
1001
ACAD
1000
AcDbSavedByObjectVersion
1070
     0
  0
ACAD_PROXY_OBJECT
  5
19DED
102
{ACAD_REACTORS
330
19DE5
102
}
330
19DE5
100
AcDbZombieObject
 90
      499
 91
      510
 93
      500
310
424CD108121A5919195B90640502408333333333333E3BF0000000000000FB01079024090700405020000000000001110200405405064090740C02480A0340
1001
ACAD
1000
AcDbSavedByObjectVersion
1070
     0
  0
ACAD_PROXY_OBJECT
  5
19DEC
102
{ACAD_REACTORS
330
19DE5
102
}
330
19DE5
100
AcDbZombieObject
 90
      499
 91
      510
 93
      436
310
42CCD915DA5C99599C985B595059028333333333333E3BF0000000000000FB0107901411070040501600405405064090741402480A0340
1001
ACAD
1000
AcDbSavedByObjectVersion
1070
     0
  0
ACAD_PROXY_OBJECT
  5
19DEA
102
{ACAD_REACTORS
330
19DE5
102
}
330
19DE5
100
AcDbZombieObject
 90
      499
 91
      510
 93
      388
310
4150985CDA58D07406404333333333333E3BF0000000000000FB0107A41107004050150841D405064090741402480A0350
1001
ACAD
1000
AcDbSavedByObjectVersion
1070
     0
  0
ACAD_PROXY_OBJECT
  5
19DF1
102
{ACAD_REACTORS
330
19DE5
102
}
330
19DE5
100
AcDbZombieObject
 90
      499
 91
      510
 93
      428
310
42109C9A59DA1D195B90C409028333333333333E3BF0000000000000FB010790141107004050150841D405064090741402480A029950
1001
ACAD
1000
AcDbSavedByObjectVersion
1070
     0
  0
ACAD_PROXY_OBJECT
  5
19DF5
102
{ACAD_REACTORS
330
19DE5
102
}
330
19DE5
100
AcDbZombieObject
 90
      499
 91
      510
 93
      452
310
42D0DBDB1BDC90DA185B99D95104090240C333333333333E3BF0000000000000FB0108901411070040501508421405064090741402480A0350
1001
ACAD
1000
AcDbSavedByObjectVersion
1070
     0
  0
ACAD_PROXY_OBJECT
  5
19DEE
102
{ACAD_REACTORS
330
19DE5
102
}
330
19DE5
100
AcDbZombieObject
 90
      499
 91
      510
 93
      500
310
4290DBDB98D95C1D1D585B10940D028333333333333E3BF0000000000000FB0107902409070040501000000000000111010841D405064090740C02480A0340
1001
ACAD
1000
AcDbSavedByObjectVersion
1070
     0
  0
ACAD_PROXY_OBJECT
  5
19DF0
102
{ACAD_REACTORS
330
19DE5
102
}
330
19DE5
100
AcDbZombieObject
 90
      499
 91
      510
 93
      412
310
40D11A5B50B409028333333333333E3BF0000000000000FB010790141107004050150841D405064090741402480A02677FFFFFD0
1001
ACAD
1000
AcDbSavedByObjectVersion
1070
     0
  0
ACAD_PROXY_OBJECT
  5
1E02A
102
{ACAD_REACTORS
330
19DE5
102
}
330
19DE5
100
AcDbZombieObject
 90
      499
 91
      510
 93
      452
310
43115919D950DBDB1BDC93D999916409028333333333333E3BF0000000000000FB010790141107004050150841D405064090741402480A0350
1001
ACAD
1000
AcDbSavedByObjectVersion
1070
     0
  0
ACAD_PROXY_OBJECT
  5
19DF4
102
{ACAD_REACTORS
330
19DE5
102
}
330
19DE5
100
AcDbZombieObject
 90
      499
 91
      510
 93
      444
310
42D19858D95C185D1D195C9B90F409028333333333333E3BF0000000000000FB010790141107004050150841D405064090741402480A0350
1001
ACAD
1000
AcDbSavedByObjectVersion
1070
     0
  0
ACAD_PROXY_OBJECT
  5
19DE6
102
{ACAD_REACTORS
330
19DE5
102
}
330
19DE5
100
AcDbZombieObject
 90
      499
 91
      510
 93
      388
310
41119B185D240901404333333333333E3BF0000000000000F9010740A41107004050150841D405064090741402480A1B50
1001
ACAD
1000
AcDbSavedByObjectVersion
1070
     0
  0
ACAD_PROXY_OBJECT
  5
19DE7
102
{ACAD_REACTORS
330
19DE5
102
}
330
19DE5
100
AcDbZombieObject
 90
      499
 91
      510
 93
      476
310
43519B185D15DA5D1A115919D95CD0140901404333333333333E3BF0000000000000F9010740901411070040501600405405064090741402480A1B50
1001
ACAD
1000
AcDbSavedByObjectVersion
1070
     0
  0
ACAD_PROXY_OBJECT
  5
19DE8
102
{ACAD_REACTORS
330
19DE5
102
}
330
19DE5
100
AcDbZombieObject
 90
      499
 91
      510
 93
      412
310
41D1DBDD5C985D5910240902404333333333333E3BF0000000000000F9010740A411070040501641D405064090741402480A1B50
1001
ACAD
1000
AcDbSavedByObjectVersion
1070
     0
  0
ACAD_PROXY_OBJECT
  5
19DE9
102
{ACAD_REACTORS
330
19DE5
102
}
330
19DE5
100
AcDbZombieObject
 90
      499
 91
      510
 93
      500
310
4411DBDD5C985D5915DA5D1A115919D95CD0340902404333333333333E3BF0000000000000F9010740901411070040501600405405064090741402480A1B50
1001
ACAD
1000
AcDbSavedByObjectVersion
1070
     0
  0
ACAD_PROXY_OBJECT
  5
1F381
102
{ACAD_REACTORS
330
19DE5
102
}
330
19DE5
100
AcDbZombieObject
 90
      499
 91
      510
 93
      476
310
41921A5919195B90640502408333333333333E3BF0000000000000FB01079024090700405020000000000001110200405405064090740C02480A0340
1001
ACAD
1000
AcDbSavedByObjectVersion
1070
     0
  0
ACAD_PROXY_OBJECT
  5
1E028
102
{ACAD_REACTORS
330
19DE5
102
}
330
19DE5
100
AcDbZombieObject
 90
      499
 91
      510
 93
      428
310
42529A5D1D195C93D999914409028333333333333E3BF0000000000000FB010790141107004050150A41D405064090741402480A0350
1001
ACAD
1000
AcDbSavedByObjectVersion
1070
     0
  0
ACAD_PROXY_OBJECT
  5
19DF3
102
{ACAD_REACTORS
330
19DE5
102
}
330
19DE5
100
AcDbZombieObject
 90
      499
 91
      510
 93
      444
310
42D31A5B995C185D1D195C9B90E409028333333333333E3BF0000000000000FB010790141107004050750841D405064090741402483A0350
1001
ACAD
1000
AcDbSavedByObjectVersion
1070
     0
  0
ACAD_PROXY_OBJECT
  5
219D4
102
{ACAD_REACTORS
330
19DE5
102
}
330
19DE5
100
AcDbZombieObject
 90
      499
 91
      510
 93
      484
310
42135BD9195B1A5B99D0A409038333333333333E33F0000000000000F901074090290700405010000000000201990108421405064090741402480A1B40
1001
ACAD
1000
AcDbSavedByObjectVersion
1070
     0
  0
ACAD_PROXY_OBJECT
  5
1E029
102
{ACAD_REACTORS
330
19DE5
102
}
330
19DE5
100
AcDbZombieObject
 90
      499
 91
      510
 93
      444
310
42D3DD995C9A185B99D3D999915409028333333333333E3BF0000000000000FB010790141107004050150941D405064090741402480A0350
1001
ACAD
1000
AcDbSavedByObjectVersion
1070
     0
  0
ACAD_PROXY_OBJECT
  5
19DEF
102
{ACAD_REACTORS
330
19DE5
102
}
330
19DE5
100
AcDbZombieObject
 90
      499
 91
      510
 93
      420
310
425499585B1A5CDD1A58D08409028333333333333E3BF0000000000000FB01079019070040501508421405064090741402480A1B40
1001
ACAD
1000
AcDbSavedByObjectVersion
1070
     0
  0
ACAD_PROXY_OBJECT
  5
1F386
102
{ACAD_REACTORS
330
19DE5
102
}
330
19DE5
100
AcDbZombieObject
 90
      499
 91
      510
 93
      420
310
4194DA1859195911B40902404333333333333E3BF0000000000000F9010740A41107004050150800405405064090840C02480A0B40
1001
ACAD
1000
AcDbSavedByObjectVersion
1070
     0
  0
ACAD_PROXY_OBJECT
  5
1F385
102
{ACAD_REACTORS
330
19DE5
102
}
330
19DE5
100
AcDbZombieObject
 90
      499
 91
      510
 93
      516
310
4454DA18591959081DDA5D1A08195919D95CD1A40902404333333333333E3BF0000000000000F901074090142907004050250800405405064090740C02480A0B40
1001
ACAD
1000
AcDbSavedByObjectVersion
1070
     0
  0
ACAD_PROXY_OBJECT
  5
1F382
102
{ACAD_REACTORS
330
19DE5
102
}
330
19DE5
100
AcDbZombieObject
 90
      499
 91
      510
 93
      532
310
4394DA1859195CC81BD98811DC985E5174090240C333333333333E3BF0000000000000FB01079024090741D01000000000000111010841D405064090740C02480A0340
1001
ACAD
1000
AcDbSavedByObjectVersion
1070
     0
  0
ACAD_PROXY_OBJECT
  5
1F383
102
{ACAD_REACTORS
330
19DE5
102
}
330
19DE5
100
AcDbZombieObject
 90
      499
 91
      510
 93
      476
310
41D4DAD95D18DA1E51840502408333333333333E3BF0000000000000FB01079024090741D01000000000000111010B41D405064090741802480A0340
1001
ACAD
1000
AcDbSavedByObjectVersion
1070
     0
  0
ACAD_PROXY_OBJECT
  5
19DF2
102
{ACAD_REACTORS
330
19DE5
102
}
330
19DE5
100
AcDbZombieObject
 90
      499
 91
      510
 93
      412
310
41D51A1A58DAD95B90D409028333333333333E3BF0000000000000FB010790141107004050150C41D405064090741402480A0350
1001
ACAD
1000
AcDbSavedByObjectVersion
1070
     0
  0
ACAD_PROXY_OBJECT
  5
1F380
102
{ACAD_REACTORS
330
19DE5
102
}
330
19DE5
100
AcDbZombieObject
 90
      499
 91
      510
 93
      420
310
4255DA5C99599C985B595059028333333333333E3BF0000000000000FB0107901411070040501600405405064090740C02480A0340
1001
ACAD
1000
AcDbSavedByObjectVersion
1070
     0
  0
ACAD_PROXY_OBJECT
  5
1F384
102
{ACAD_REACTORS
330
19DE5
102
}
330
19DE5
100
AcDbZombieObject
 90
      499
 91
      510
 93
      404
310
41560B54985E51940902404000000000000E03F0000000000000FB010740501907004050150841D405064090740C02480A1B40
1001
ACAD
1000
AcDbSavedByObjectVersion
1070
     0
  0
XRECORD
  5
22CF5
102
{ACAD_REACTORS
330
22CF4
102
}
330
22CF4
100
AcDbXrecord
340
2D0
  0
XRECORD
  5
22CF6
102
{ACAD_REACTORS
330
22CF4
102
}
330
22CF4
100
AcDbXrecord
340
2CF
  0
DICTIONARYVAR
  5
219EB
102
{ACAD_REACTORS
330
37
102
}
330
37
100
DictionaryVariables
280
     0
  1
1:1
  0
DICTIONARYVAR
  5
1AC19
102
{ACAD_REACTORS
330
37
102
}
330
37
100
DictionaryVariables
280
     0
  1
Standard
  0
DICTIONARYVAR
  5
4F1
102
{ACAD_REACTORS
330
37
102
}
330
37
100
DictionaryVariables
280
     0
  1
Standard
  0
DICTIONARYVAR
  5
38
102
{ACAD_REACTORS
330
37
102
}
330
37
100
DictionaryVariables
280
     0
  1
-1
  0
DICTIONARYVAR
  5
408
102
{ACAD_REACTORS
330
37
102
}
330
37
100
DictionaryVariables
280
     0
  1
2
  0
DICTIONARYVAR
  5
1891
102
{ACAD_REACTORS
330
37
102
}
330
37
100
DictionaryVariables
280
     0
  1
1
  0
DICTIONARYVAR
  5
1AC1C
102
{ACAD_REACTORS
330
37
102
}
330
37
100
DictionaryVariables
280
     0
  1
0
  0
DICTIONARYVAR
  5
1895
102
{ACAD_REACTORS
330
37
102
}
330
37
100
DictionaryVariables
280
     0
  1
8
  0
DICTIONARYVAR
  5
1894
102
{ACAD_REACTORS
330
37
102
}
330
37
100
DictionaryVariables
280
     0
  1
1
  0
DICTIONARYVAR
  5
211C3
102
{ACAD_REACTORS
330
37
102
}
330
37
100
DictionaryVariables
280
     0
  1
0
  0
DICTIONARYVAR
  5
211C4
102
{ACAD_REACTORS
330
37
102
}
330
37
100
DictionaryVariables
280
     0
  1
0
  0
DICTIONARYVAR
  5
20A9B
102
{ACAD_REACTORS
330
37
102
}
330
37
100
DictionaryVariables
280
     0
  1
0
  0
DICTIONARYVAR
  5
1892
102
{ACAD_REACTORS
330
37
102
}
330
37
100
DictionaryVariables
280
     0
  1
120
  0
DICTIONARYVAR
  5
1893
102
{ACAD_REACTORS
330
37
102
}
330
37
100
DictionaryVariables
280
     0
  1
0
  0
DICTIONARYVAR
  5
409
102
{ACAD_REACTORS
330
37
102
}
330
37
100
DictionaryVariables
280
     0
  1

  0
DICTIONARYVAR
  5
1AC1B
102
{ACAD_REACTORS
330
37
102
}
330
37
100
DictionaryVariables
280
     0
  1
127
  0
DICTIONARYVAR
  5
219D3
102
{ACAD_REACTORS
330
37
102
}
330
37
100
DictionaryVariables
280
     0
  1
2
  0
DICTIONARY
  5
22E92
330
19DD5
100
AcDbDictionary
  3
ACAD_XREC_ROUNDTRIP
360
22E93
1001
ACAD
1000
TREAT_AS_HARD
1070
     1
  0
DICTIONARY
  5
22E94
330
19DCD
100
AcDbDictionary
  3
ACAD_XREC_ROUNDTRIP
360
22E95
1001
ACAD
1000
TREAT_AS_HARD
1070
     1
  0
DICTIONARY
  5
22E96
330
19DDD
100
AcDbDictionary
  3
ACAD_XREC_ROUNDTRIP
360
22E97
1001
ACAD
1000
TREAT_AS_HARD
1070
     1
  0
XRECORD
  5
22E93
102
{ACAD_REACTORS
330
22E92
102
}
330
22E92
100
AcDbXrecord
102
MATERIAL
148
0.0
149
0.0
149
0.0
 93
        0
 94
      127
282
     0
 72
     0
 77
     0
171
     0
175
     0
179
     0
273
     0
  0
XRECORD
  5
22E95
102
{ACAD_REACTORS
330
22E94
102
}
330
22E94
100
AcDbXrecord
102
MATERIAL
148
0.0
149
0.0
149
0.0
 93
        0
 94
      127
282
     0
 72
     0
 77
     0
171
     0
175
     0
179
     0
273
     0
  0
XRECORD
  5
22E97
102
{ACAD_REACTORS
330
22E96
102
}
330
22E96
100
AcDbXrecord
102
MATERIAL
148
0.0
149
0.0
149
0.0
 93
        0
 94
      127
282
     0
 72
     0
 77
     0
171
     0
175
     0
179
     0
273
     0
  0
ENDSEC
  0
EOF
